  0
SECTION
  2
HEADER
  9
$ACADVER
  1
AC1024
  9
$DWGCODEPAGE
  3
ANSI_1252
  9
$EXTMAX
 10
297.0
 20
210.0
 30
0.0
  9
$EXTMIN
 10
0.0
 20
0.0
 30
0.0
  9
$LIMMIN
 10
0.0
 20
0.0
  9
$LIMMAX
 10
297.0
 20
210.0
  9
$VIEWCTR
 10
148.5
 20
105.0
  9
$VIEWSIZE
 40
210.0
  9
$CLAYER
  8
0
  9
$LTSCALE
 40
16.335
  9
$CELTYPE
  6
BYLAYER
  9
$DIMSCALE
 40
1.0
  9
$DIMASZ
 40
3.0
  9
$DIMEXO
 40
0.5
  9
$DIMDLI
 40
11.286
  9
$DIMEXE
 40
1.5
  9
$DIMCEN
 40
2.673
  9
$DIMLFAC
 40
1.0
  9
$DIMBLK
  1
_FILLED
  9
$DIMALT
 70
0
  9
$DIMALTF
 40
0.0393700787
  9
$DIMTXT
 40
3.0
  9
$DIMTOL
 70
1
  9
$DIMLIM
 70
0
  9
$DIMTFAC
 40
1.0
  9
$DIMTP
 40
0.01
  9
$DIMTM
 40
0.01
  9
$DIMGAP
 40
0.625
  9
$DIMDSEP
 70
44
  9
$AUNITS
 70
0
  9
$PDMODE
 70
3
  9
$PDSIZE
 40
3.0
  9
$HANDSEED
  5
39B
  9
$TILEMODE
 70
1
  9
$MEASUREMENT
 70
1
  9
$INSUNITS
 70
4
  0
ENDSEC
  0
SECTION
  2
CLASSES
  0
CLASS
  1
ACDBDICTIONARYWDFLT
  2
AcDbDictionaryWithDefault
  3
AutoCAD 2000
 90
0
 91
1
280
0
281
0
  0
CLASS
  1
ACDBPLACEHOLDER
  2
AcDbPlaceHolder
  3
AutoCAD 2000
 90
0
 91
1
280
0
281
0
  0
CLASS
  1
LAYOUT
  2
AcDbLayout
  3
AutoCAD 2000
 90
0
 91
0
280
0
281
0
  0
ENDSEC
  0
SECTION
  2
TABLES
  0
TABLE
  2
VPORT
  5
8
100
AcDbSymbolTable
 70
2
  0
VPORT
  5
1F4
100
AcDbSymbolTableRecord
100
AcDbViewportTableRecord
  2
*ACTIVE
 70
0
 10
0.0
 20
0.0
 11
1.0
 21
1.0
 12
148.5
 22
105.0
 13
0.0
 23
0.0
 14
1.0
 24
1.0
 15
0.0
 25
0.0
 16
0.0
 26
0.0
 36
1.0
 17
0.0
 27
0.0
 37
0.0
 40
210.0
 41
1.4142857143
 42
50.0
 43
0.0
 44
0.0
 50
0.0
 51
0.0
 71
0
 72
100
 73
1
 74
1
 75
0
 76
0
 77
0
 78
0
  0
ENDTAB
  0
TABLE
  2
LTYPE
  5
5
100
AcDbSymbolTable
 70
6
  0
LTYPE
  5
14
100
AcDbSymbolTableRecord
100
AcDbLinetypeTableRecord
  2
BYBLOCK
 70
0
  3

 72
65
 73
0
 40
0.0
  0
LTYPE
  5
15
100
AcDbSymbolTableRecord
100
AcDbLinetypeTableRecord
  2
BYLAYER
 70
0
  3

 72
65
 73
0
 40
0.0
  0
LTYPE
  5
16
100
AcDbSymbolTableRecord
100
AcDbLinetypeTableRecord
  2
CONTINUOUS
 70
64
  3
Solid line
 72
65
 73
0
 40
0.0
  0
LTYPE
  5
1F5
100
AcDbSymbolTableRecord
100
AcDbLinetypeTableRecord
  2
CENTER
 70
64
  3
____ _ ____ _ ____ _ ____ _ ____ _ ____ _ ____
 72
65
 73
4
 40
0.6
 49
0.375
 74
0
 49
-0.075
 74
0
 49
0.075
 74
0
 49
-0.075
 74
0
  0
LTYPE
  5
1F6
100
AcDbSymbolTableRecord
100
AcDbLinetypeTableRecord
  2
HIDDEN
 70
64
  3
- - - - - - - - - - - - - - - - - - - -
 72
65
 73
2
 40
0.2
 49
0.1
 74
0
 49
-0.1
 74
0
  0
LTYPE
  5
1F7
100
AcDbSymbolTableRecord
100
AcDbLinetypeTableRecord
  2
PHANTOM
 70
64
  3
_____ _ _ _____ _ _ _____ _ _ _____
 72
65
 73
6
 40
0.8
 49
0.45
 74
0
 49
-0.05
 74
0
 49
0.1
 74
0
 49
-0.05
 74
0
 49
0.1
 74
0
 49
-0.05
 74
0
  0
LTYPE
  5
1F8
100
AcDbSymbolTableRecord
100
AcDbLinetypeTableRecord
  2
DOT
 70
64
  3
. . . . . . . . . . . . . . . . . . . .
 72
65
 73
2
 40
0.2
 49
0.1
 74
0
 49
-0.1
 74
0
  0
LTYPE
  5
1F9
100
AcDbSymbolTableRecord
100
AcDbLinetypeTableRecord
  2
DASHED
 70
64
  3
- - - - - - - - - - - - - - - - - - - -
 72
65
 73
2
 40
0.2
 49
0.1
 74
0
 49
-0.1
 74
0
  0
ENDTAB
  0
TABLE
  2
LAYER
  5
2
100
AcDbSymbolTable
 70
36
  0
LAYER
  5
10
100
AcDbSymbolTableRecord
100
AcDbLayerTableRecord
  2
0
 70
0
 62
7
  6
CONTINUOUS
370
-3
390
F
  0
LAYER
  5
1FA
100
AcDbSymbolTableRecord
100
AcDbLayerTableRecord
  2
DEFAULT_1
 70
0
 62
7
  6
CENTER
370
-3
390
F
  0
LAYER
  5
1FB
100
AcDbSymbolTableRecord
100
AcDbLayerTableRecord
  2
DEFAULT_2
 70
0
 62
7
  6
HIDDEN
370
-3
390
F
  0
LAYER
  5
1FC
100
AcDbSymbolTableRecord
100
AcDbLayerTableRecord
  2
DEFAULT_3
 70
0
 62
7
  6
PHANTOM
370
-3
390
F
  0
LAYER
  5
1FD
100
AcDbSymbolTableRecord
100
AcDbLayerTableRecord
  2
ASSI
 70
0
 62
7
  6
CONTINUOUS
370
-3
390
F
  0
LAYER
  5
1FE
100
AcDbSymbolTableRecord
100
AcDbLayerTableRecord
  2
COORDINATE
 70
0
 62
7
  6
CONTINUOUS
370
-3
390
F
  0
LAYER
  5
1FF
100
AcDbSymbolTableRecord
100
AcDbLayerTableRecord
  2
COORD_ORIGINE
 70
0
 62
7
  6
CONTINUOUS
370
-3
390
F
  0
LAYER
  5
200
100
AcDbSymbolTableRecord
100
AcDbLayerTableRecord
  2
COPY_PUBLISH
 70
0
 62
7
  6
CONTINUOUS
370
-3
390
F
  0
LAYER
  5
201
100
AcDbSymbolTableRecord
100
AcDbLayerTableRecord
  2
COSMETIC
 70
0
 62
7
  6
CONTINUOUS
370
-3
390
F
  0
LAYER
  5
202
100
AcDbSymbolTableRecord
100
AcDbLayerTableRecord
  2
COSMETICI
 70
0
 62
7
  6
CONTINUOUS
370
-3
390
F
  0
LAYER
  5
203
100
AcDbSymbolTableRecord
100
AcDbLayerTableRecord
  2
CURVA_TASSELLO
 70
0
 62
7
  6
CONTINUOUS
370
-3
390
F
  0
LAYER
  5
204
100
AcDbSymbolTableRecord
100
AcDbLayerTableRecord
  2
CURVE
 70
0
 62
7
  6
CONTINUOUS
370
-3
390
F
  0
LAYER
  5
205
100
AcDbSymbolTableRecord
100
AcDbLayerTableRecord
  2
DRAFT
 70
0
 62
7
  6
CONTINUOUS
370
-3
390
F
  0
LAYER
  5
206
100
AcDbSymbolTableRecord
100
AcDbLayerTableRecord
  2
IMPORT_IGES
 70
0
 62
7
  6
CONTINUOUS
370
-3
390
F
  0
LAYER
  5
207
100
AcDbSymbolTableRecord
100
AcDbLayerTableRecord
  2
INTFCLR_2
 70
0
 62
7
  6
CONTINUOUS
370
-3
390
F
  0
LAYER
  5
208
100
AcDbSymbolTableRecord
100
AcDbLayerTableRecord
  2
INTF_1
 70
0
 62
7
  6
CONTINUOUS
370
-3
390
F
  0
LAYER
  5
209
100
AcDbSymbolTableRecord
100
AcDbLayerTableRecord
  2
INTF_6
 70
0
 62
7
  6
CONTINUOUS
370
-3
390
F
  0
LAYER
  5
20A
100
AcDbSymbolTableRecord
100
AcDbLayerTableRecord
  2
INTF_7
 70
0
 62
7
  6
CONTINUOUS
370
-3
390
F
  0
LAYER
  5
20B
100
AcDbSymbolTableRecord
100
AcDbLayerTableRecord
  2
LINEA_CHIUSURA
 70
0
 62
7
  6
CONTINUOUS
370
-3
390
F
  0
LAYER
  5
20C
100
AcDbSymbolTableRecord
100
AcDbLayerTableRecord
  2
LIVELLO_1
 70
0
 62
7
  6
CONTINUOUS
370
-3
390
F
  0
LAYER
  5
20D
100
AcDbSymbolTableRecord
100
AcDbLayerTableRecord
  2
NOTE
 70
0
 62
7
  6
CONTINUOUS
370
-3
390
F
  0
LAYER
  5
20E
100
AcDbSymbolTableRecord
100
AcDbLayerTableRecord
  2
PIANI
 70
0
 62
7
  6
CONTINUOUS
370
-3
390
F
  0
LAYER
  5
20F
100
AcDbSymbolTableRecord
100
AcDbLayerTableRecord
  2
PIANI_ORIGINE
 70
0
 62
7
  6
CONTINUOUS
370
-3
390
F
  0
LAYER
  5
210
100
AcDbSymbolTableRecord
100
AcDbLayerTableRecord
  2
PIANI_RIFERIMENTO
 70
0
 62
7
  6
CONTINUOUS
370
-3
390
F
  0
LAYER
  5
211
100
AcDbSymbolTableRecord
100
AcDbLayerTableRecord
  2
PUNTI
 70
0
 62
7
  6
CONTINUOUS
370
-3
390
F
  0
LAYER
  5
212
100
AcDbSymbolTableRecord
100
AcDbLayerTableRecord
  2
RACCORDO
 70
0
 62
7
  6
CONTINUOUS
370
-3
390
F
  0
LAYER
  5
213
100
AcDbSymbolTableRecord
100
AcDbLayerTableRecord
  2
RGB__255__255__255__
 70
0
 62
7
  6
CONTINUOUS
370
-3
390
F
  0
LAYER
  5
214
100
AcDbSymbolTableRecord
100
AcDbLayerTableRecord
  2
RGB____0____0____0__
 70
0
 62
7
  6
CONTINUOUS
370
-3
390
F
  0
LAYER
  5
215
100
AcDbSymbolTableRecord
100
AcDbLayerTableRecord
  2
SIMBOLI
 70
0
 62
7
  6
CONTINUOUS
370
-3
390
F
  0
LAYER
  5
216
100
AcDbSymbolTableRecord
100
AcDbLayerTableRecord
  2
SMUSSO
 70
0
 62
7
  6
CONTINUOUS
370
-3
390
F
  0
LAYER
  5
217
100
AcDbSymbolTableRecord
100
AcDbLayerTableRecord
  2
SNAPLINE
 70
0
 62
7
  6
CONTINUOUS
370
-3
390
F
  0
LAYER
  5
218
100
AcDbSymbolTableRecord
100
AcDbLayerTableRecord
  2
SUPERFICI
 70
0
 62
7
  6
CONTINUOUS
370
-3
390
F
  0
LAYER
  5
219
100
AcDbSymbolTableRecord
100
AcDbLayerTableRecord
  2
TRASH
 70
0
 62
7
  6
CONTINUOUS
370
-3
390
F
  0
LAYER
  5
21A
100
AcDbSymbolTableRecord
100
AcDbLayerTableRecord
  2
WHITE
 70
0
 62
7
  6
CONTINUOUS
370
-3
390
F
  0
LAYER
  5
21B
100
AcDbSymbolTableRecord
100
AcDbLayerTableRecord
  2
XSEC_DATUMS
 70
0
 62
7
  6
CONTINUOUS
370
-3
390
F
  0
ENDTAB
  0
TABLE
  2
STYLE
  5
3
100
AcDbSymbolTable
 70
1
  0
STYLE
  5
11
100
AcDbSymbolTableRecord
100
AcDbTextStyleTableRecord
  2
STANDARD
 70
0
 40
0.0
 41
0.8
 50
0.0
 71
0
 42
0.2
  3
txt
  4

  0
STYLE
  5
21C
100
AcDbSymbolTableRecord
100
AcDbTextStyleTableRecord
  2
TEXTSTYLE_1
 70
0
 40
0.0
 41
0.8
 50
0.0
 71
0
 42
0.2
  3
gdt
  4

  0
ENDTAB
  0
TABLE
  2
VIEW
  5
6
100
AcDbSymbolTable
 70
0
  0
ENDTAB
  0
TABLE
  2
UCS
  5
7
100
AcDbSymbolTable
 70
0
  0
ENDTAB
  0
TABLE
  2
APPID
  5
9
100
AcDbSymbolTable
 70
1
  0
APPID
  5
21D
100
AcDbSymbolTableRecord
100
AcDbRegAppTableRecord
  2
ACAD
 70
0
  0
ENDTAB
  0
TABLE
  2
BLOCK_RECORD
  5
1
100
AcDbSymbolTable
 70
0
  0
BLOCK_RECORD
  5
21E
100
AcDbSymbolTableRecord
100
AcDbBlockTableRecord
  2
*Model_Space
  0
BLOCK_RECORD
  5
21F
100
AcDbSymbolTableRecord
100
AcDbBlockTableRecord
  2
*Paper_Space
  0
BLOCK_RECORD
  5
220
100
AcDbSymbolTableRecord
100
AcDbBlockTableRecord
  2
_FILLED
  0
ENDTAB
  0
TABLE
  2
DIMSTYLE
  5
A
100
AcDbSymbolTable
 70
1
100
AcDbDimStyleTable
 71
0
  0
DIMSTYLE
105
221
100
AcDbSymbolTableRecord
100
AcDbDimStyleTableRecord
  2
STANDARD
 70
0
  3

  4

 40
1.0
 41
3.0
 42
0.5
 43
0.38
 44
1.5
 45
0.0
 46
0.0
 47
0.01
 48
0.01
140
3.0
141
0.09
142
0.0
143
25.4
144
1.0
145
0.0
146
1.0
147
0.625
 71
1
 72
0
 73
0
 74
0
 75
0
 76
0
 77
1
 78
8
 79
2
170
0
171
1
172
0
173
0
174
0
175
0
176
0
177
0
178
0
270
2
179
2
271
2
272
2
273
2
274
2
275
0
280
0
281
0
282
0
283
1
284
8
285
0
286
0
287
3
288
0
340
11
278
44
341
220
342
220
343
220
344
220
  0
ENDTAB
  0
ENDSEC
  0
SECTION
  2
BLOCKS
  0
BLOCK
  5
20
100
AcDbEntity
  8
0
100
AcDbBlockBegin
  2
*Model_Space
 70
0
 10
0.0
 20
0.0
 30
0.0
  3
*Model_Space
  1

  0
ENDBLK
  5
21
100
AcDbEntity
  8
0
100
AcDbBlockEnd
  0
BLOCK
  5
1C
100
AcDbEntity
  8
0
100
AcDbBlockBegin
  2
*Paper_Space
 70
0
 10
0.0
 20
0.0
 30
0.0
  3
*Paper_Space
  1

  0
ENDBLK
  5
1D
100
AcDbEntity
  8
0
100
AcDbBlockEnd
  0
BLOCK
  5
222
100
AcDbEntity
  8
0
100
AcDbBlockBegin
  2
_FILLED
 70
64
 10
0.0
 20
0.0
  3
_FILLED
  1

  0
SOLID
  5
223
100
AcDbEntity
  8
0
  6
BYBLOCK
 62
0
100
AcDbTrace
 10
0.0
 20
0.0
 11
-1.0
 21
0.3166666667
 12
-1.0
 22
-0.3166666667
 13
-1.0
 23
-0.3166666667
  0
ENDBLK
  5
224
100
AcDbEntity
  8
0
  6
BYBLOCK
 62
0
100
AcDbBlockEnd
  0
ENDSEC
  0
SECTION
  2
ENTITIES
  0
LINE
  5
225
100
AcDbEntity
  8
0
100
AcDbLine
 62
7
  6
CONTINUOUS
 10
-52.9823718343
 20
63.9328568438
 11
-49.1945580472
 21
66.4364237351
  0
LINE
  5
226
100
AcDbEntity
  8
ASSI
100
AcDbLine
 62
7
  6
CONTINUOUS
 10
-52.9823718343
 20
63.9328568438
 11
-49.1945580472
 21
66.4364237351
  0
LINE
  5
227
100
AcDbEntity
  8
0
100
AcDbLine
 62
7
  6
CONTINUOUS
 10
-52.274834565
 20
64.3413010376
 11
-48.4870207779
 21
66.844867929
  0
LINE
  5
228
100
AcDbEntity
  8
ASSI
100
AcDbLine
 62
7
  6
CONTINUOUS
 10
-52.274834565
 20
64.3413010376
 11
-48.4870207779
 21
66.844867929
  0
LINE
  5
229
100
AcDbEntity
  8
0
100
AcDbLine
 62
7
  6
CONTINUOUS
 10
-52.2955981792
 20
64.3284616867
 11
-52.274834565
 21
64.3413010376
  0
LINE
  5
22A
100
AcDbEntity
  8
ASSI
100
AcDbLine
 62
7
  6
CONTINUOUS
 10
-52.2955981792
 20
64.3284616867
 11
-52.274834565
 21
64.3413010376
  0
LINE
  5
22B
100
AcDbEntity
  8
0
100
AcDbLine
 62
7
  6
CONTINUOUS
 10
-49.1945580472
 20
66.4364237351
 11
-48.4870207779
 21
66.844867929
  0
LINE
  5
22C
100
AcDbEntity
  8
ASSI
100
AcDbLine
 62
7
  6
CONTINUOUS
 10
-49.1945580472
 20
66.4364237351
 11
-48.4870207779
 21
66.844867929
  0
LINE
  5
22D
100
AcDbEntity
  8
0
100
AcDbLine
 62
7
  6
CONTINUOUS
 10
-52.2955981792
 20
64.3284616867
 11
-52.9819965268
 21
63.9322204822
  0
LINE
  5
22E
100
AcDbEntity
  8
ASSI
100
AcDbLine
 62
7
  6
CONTINUOUS
 10
-52.2955981792
 20
64.3284616867
 11
-52.9819965268
 21
63.9322204822
  0
LINE
  5
22F
100
AcDbEntity
  8
0
100
AcDbLine
 62
7
  6
CONTINUOUS
 10
-52.678287479
 20
62.9132332483
 11
-52.9572634132
 21
62.7521871727
  0
LINE
  5
230
100
AcDbEntity
  8
ASSI
100
AcDbLine
 62
7
  6
CONTINUOUS
 10
-52.678287479
 20
62.9132332483
 11
-52.9572634132
 21
62.7521871727
  0
LINE
  5
231
100
AcDbEntity
  8
CURVE
100
AcDbLine
 62
250
  6
CONTINUOUS
 10
51.2914970286
 20
-59.9817090006
 11
50.0330962074
 21
-60.2583318006
  0
LINE
  5
232
100
AcDbEntity
  8
CURVE
100
AcDbLine
 62
250
  6
CONTINUOUS
 10
50.0330962074
 20
-59.8325948053
 11
51.861287384
 21
-59.5043016129
  0
LINE
  5
233
100
AcDbEntity
  8
0
100
AcDbLine
 62
7
  6
CONTINUOUS
 10
-52.678287479
 20
62.9132332483
 11
-52.2955981792
 21
64.3284616867
  0
LINE
  5
234
100
AcDbEntity
  8
ASSI
100
AcDbLine
 62
7
  6
CONTINUOUS
 10
-52.678287479
 20
62.9132332483
 11
-52.2955981792
 21
64.3284616867
  0
LINE
  5
235
100
AcDbEntity
  8
CURVE
100
AcDbLine
 62
250
  6
CONTINUOUS
 10
50.5354367363
 20
-55.7736302328
 11
51.2139018636
 21
-55.620455653
  0
LINE
  5
236
100
AcDbEntity
  8
CURVE
100
AcDbLine
 62
250
  6
CONTINUOUS
 10
51.4963155582
 20
-55.5555437138
 11
51.861287384
 21
-55.4765925022
  0
LINE
  5
237
100
AcDbEntity
  8
CURVE
100
AcDbLine
 62
250
  6
CONTINUOUS
 10
51.861287384
 20
-55.8979981226
 11
50.0330962074
 21
-56.2421626808
  0
LINE
  5
238
100
AcDbEntity
  8
CURVE
100
AcDbLine
 62
250
  6
CONTINUOUS
 10
51.048113487
 20
-57.4411218192
 11
50.0330962074
 21
-57.5616015093
  0
LINE
  5
239
100
AcDbEntity
  8
CURVE
100
AcDbLine
 62
250
  6
CONTINUOUS
 10
50.6724894945
 20
-57.1092697562
 11
51.861287384
 21
-56.9757413374
  0
LINE
  5
23A
100
AcDbEntity
  8
0
100
AcDbLine
 62
7
  6
CONTINUOUS
 10
-52.9572634132
 20
-8.0794464266
 11
-52.9819965268
 21
-7.6232108491
  0
LINE
  5
23B
100
AcDbEntity
  8
ASSI
100
AcDbLine
 62
7
  6
CONTINUOUS
 10
-52.9572634132
 20
-8.0794464266
 11
-52.9819965268
 21
-7.6232108491
  0
LINE
  5
23C
100
AcDbEntity
  8
0
100
AcDbLine
 62
7
  6
CONTINUOUS
 10
-52.9572634132
 20
62.7521871727
 11
-52.9819965268
 21
63.9322204822
  0
LINE
  5
23D
100
AcDbEntity
  8
ASSI
100
AcDbLine
 62
7
  6
CONTINUOUS
 10
-52.9572634132
 20
62.7521871727
 11
-52.9819965268
 21
63.9322204822
  0
LINE
  5
23E
100
AcDbEntity
  8
0
100
AcDbLine
 62
7
  6
CONTINUOUS
 10
-52.9819965268
 20
-7.6232108491
 11
-52.9823718343
 21
-7.5990179884
  0
LINE
  5
23F
100
AcDbEntity
  8
ASSI
100
AcDbLine
 62
7
  6
CONTINUOUS
 10
-52.9819965268
 20
-7.6232108491
 11
-52.9823718343
 21
-7.5990179884
  0
LINE
  5
240
100
AcDbEntity
  8
0
100
AcDbLine
 62
7
  6
CONTINUOUS
 10
-52.9823718343
 20
63.9328568438
 11
-52.9823718343
 21
-7.5990179884
  0
LINE
  5
241
100
AcDbEntity
  8
ASSI
100
AcDbLine
 62
7
  6
CONTINUOUS
 10
-52.9823718343
 20
63.9328568438
 11
-52.9823718343
 21
-7.5990179884
  0
LINE
  5
242
100
AcDbEntity
  8
0
100
AcDbLine
 62
7
  6
CONTINUOUS
 10
-52.9572634132
 20
62.7521871727
 11
-52.9572634132
 21
-8.0794464266
  0
LINE
  5
243
100
AcDbEntity
  8
ASSI
100
AcDbLine
 62
7
  6
CONTINUOUS
 10
-52.9572634132
 20
62.7521871727
 11
-52.9572634132
 21
-8.0794464266
  0
LINE
  5
244
100
AcDbEntity
  8
0
100
AcDbLine
 62
7
  6
CONTINUOUS
 10
47.4819783668
 20
-66.071805831
 11
48.8989374977
 21
-66.4479852869
  0
LINE
  5
245
100
AcDbEntity
  8
ASSI
100
AcDbLine
 62
7
  6
CONTINUOUS
 10
47.4819783668
 20
-66.071805831
 11
48.8989374977
 21
-66.4479852869
  0
LINE
  5
246
100
AcDbEntity
  8
0
100
AcDbLine
 62
7
  6
CONTINUOUS
 10
-52.9572634132
 20
-8.0794464266
 11
-52.678287479
 21
-8.5626469181
  0
LINE
  5
247
100
AcDbEntity
  8
ASSI
100
AcDbLine
 62
7
  6
CONTINUOUS
 10
-52.9572634132
 20
-8.0794464266
 11
-52.678287479
 21
-8.5626469181
  0
LWPOLYLINE
  5
248
100
AcDbEntity
  8
0
100
AcDbPolyline
 62
7
  6
CONTINUOUS
 90
13
 70
0
 10
-27.8714233683
 20
24.6455430025
 10
-27.9227377407
 20
24.5779327622
 10
-27.993005088
 20
24.4699163517
 10
-28.0569437465
 20
24.3549086099
 10
-28.1145107717
 20
24.2328620959
 10
-28.1657491082
 20
24.1038242506
 10
-28.2103118524
 20
23.968668711
 10
-28.2481537057
 20
23.827353964
 10
-28.2793199667
 20
23.6799215226
 10
-28.3035996277
 20
23.527369562
 10
-28.3209223526
 20
23.3700308075
 10
-28.3313584774
 20
23.2075725338
 10
-28.3349080022
 20
23.0399947411
  0
LWPOLYLINE
  5
249
100
AcDbEntity
  8
ASSI
100
AcDbPolyline
 62
7
  6
CONTINUOUS
 90
13
 70
0
 10
-27.8714233683
 20
24.6455430025
 10
-27.9227377407
 20
24.5779327622
 10
-27.993005088
 20
24.4699163517
 10
-28.0569437465
 20
24.3549086099
 10
-28.1145107717
 20
24.2328620959
 10
-28.1657491082
 20
24.1038242506
 10
-28.2103118524
 20
23.968668711
 10
-28.2481537057
 20
23.827353964
 10
-28.2793199667
 20
23.6799215226
 10
-28.3035996277
 20
23.527369562
 10
-28.3209223526
 20
23.3700308075
 10
-28.3313584774
 20
23.2075725338
 10
-28.3349080022
 20
23.0399947411
  0
LWPOLYLINE
  5
24A
100
AcDbEntity
  8
0
100
AcDbPolyline
 62
7
  6
CONTINUOUS
 90
16
 70
0
 10
-28.4240480943
 20
24.4595656564
 10
-28.3715919268
 20
24.4884261989
 10
-28.2632639747
 20
24.5395888806
 10
-28.150372583
 20
24.5820364765
 10
-28.0331735315
 20
24.6156727403
 10
-27.911932359
 20
24.6404214098
 10
-27.7869236892
 20
24.6562263823
 10
-27.6584307135
 20
24.6630518103
 10
-27.5267446238
 20
24.660882198
 10
-27.3921637678
 20
24.6497224489
 10
-27.2549929885
 20
24.6295978294
 10
-27.1155430549
 20
24.6005539211
 10
-26.97412988
 20
24.5626565116
 10
-26.8310738134
 20
24.5159914428
 10
-26.6866989417
 20
24.4606644237
 10
-26.5413323193
 20
24.3968007787
  0
LWPOLYLINE
  5
24B
100
AcDbEntity
  8
ASSI
100
AcDbPolyline
 62
7
  6
CONTINUOUS
 90
16
 70
0
 10
-28.4240480943
 20
24.4595656564
 10
-28.3715919268
 20
24.4884261989
 10
-28.2632639747
 20
24.5395888806
 10
-28.150372583
 20
24.5820364765
 10
-28.0331735315
 20
24.6156727403
 10
-27.911932359
 20
24.6404214098
 10
-27.7869236892
 20
24.6562263823
 10
-27.6584307135
 20
24.6630518103
 10
-27.5267446238
 20
24.660882198
 10
-27.3921637678
 20
24.6497224489
 10
-27.2549929885
 20
24.6295978294
 10
-27.1155430549
 20
24.6005539211
 10
-26.97412988
 20
24.5626565116
 10
-26.8310738134
 20
24.5159914428
 10
-26.6866989417
 20
24.4606644237
 10
-26.5413323193
 20
24.3968007787
  0
LINE
  5
24C
100
AcDbEntity
  8
0
100
AcDbLine
 62
7
  6
CONTINUOUS
 10
-52.274834565
 20
-8.8245084858
 11
48.2129015803
 21
-66.844867929
  0
LINE
  5
24D
100
AcDbEntity
  8
ASSI
100
AcDbLine
 62
7
  6
CONTINUOUS
 10
-52.274834565
 20
-8.8245084858
 11
48.2129015803
 21
-66.844867929
  0
LINE
  5
24E
100
AcDbEntity
  8
0
100
AcDbLine
 62
7
  6
CONTINUOUS
 10
-52.678287479
 20
-8.5626469181
 11
47.2030024326
 21
-66.2328519066
  0
LINE
  5
24F
100
AcDbEntity
  8
ASSI
100
AcDbLine
 62
7
  6
CONTINUOUS
 10
-52.678287479
 20
-8.5626469181
 11
47.2030024326
 21
-66.2328519066
  0
LINE
  5
250
100
AcDbEntity
  8
0
100
AcDbLine
 62
7
  6
CONTINUOUS
 10
-52.274834565
 20
-8.8245084858
 11
-52.2955981792
 21
-8.8120876602
  0
LINE
  5
251
100
AcDbEntity
  8
ASSI
100
AcDbLine
 62
7
  6
CONTINUOUS
 10
-52.274834565
 20
-8.8245084858
 11
-52.2955981792
 21
-8.8120876602
  0
LINE
  5
252
100
AcDbEntity
  8
0
100
AcDbLine
 62
7
  6
CONTINUOUS
 10
-52.678287479
 20
-8.5626469181
 11
-52.2955981792
 21
-8.8120876602
  0
LINE
  5
253
100
AcDbEntity
  8
ASSI
100
AcDbLine
 62
7
  6
CONTINUOUS
 10
-52.678287479
 20
-8.5626469181
 11
-52.2955981792
 21
-8.8120876602
  0
LWPOLYLINE
  5
254
100
AcDbEntity
  8
0
100
AcDbPolyline
 62
7
  6
CONTINUOUS
 90
46
 70
0
 10
-28.3349080022
 20
6.3023540668
 10
-28.3313584774
 20
6.1306773719
 10
-28.3209223526
 20
5.9561677229
 10
-28.3035996277
 20
5.7788251198
 10
-28.2793199667
 20
5.5982356154
 10
-28.2481537057
 20
5.414813157
 10
-28.2103118524
 20
5.2297995863
 10
-28.1657491082
 20
5.0431841067
 10
-28.1145107717
 20
4.8549775148
 10
-28.0569437465
 20
4.666454043
 10
-27.993005088
 20
4.4776115411
 10
-27.9227377407
 20
4.2884521592
 10
-27.8466174423
 20
4.1002565805
 10
-27.7646044761
 20
3.9130313451
 10
-27.6767385587
 20
3.7267699128
 10
-27.5836145767
 20
3.5427333464
 10
-27.4851968505
 20
3.3609367434
 10
-27.3815210596
 20
3.1813650063
 10
-27.2732891298
 20
3.0052339061
 10
-27.1604701445
 20
2.8325667899
 10
-27.0430950203
 20
2.6633403107
 10
-26.9219584327
 20
2.498700198
 10
-26.7970348576
 20
2.3386775733
 10
-26.668349819
 20
2.1832413151
 10
-26.5367745652
 20
2.0334437877
 10
-26.402289484
 20
1.8893232538
 10
-26.2649141875
 20
1.7508414506
 10
-26.1255787602
 20
1.6189359541
 10
-25.9842699013
 20
1.4936513893
 10
-25.8410009116
 20
1.3749431313
 10
-25.6967417783
 20
1.2636148814
 10
-25.5514857826
 20
1.1597167181
 10
-25.4052396433
 20
1.0631985631
 10
-25.258993504
 20
0.9747138818
 10
-25.1127473647
 20
0.8943171872
 10
-24.9665012254
 20
0.8219539663
 10
-24.8212452296
 20
0.7581141467
 10
-24.6769860964
 20
0.7028555655
 10
-24.5337171067
 20
0.6561203854
 10
-24.3924082478
 20
0.618225022
 10
-24.2530728205
 20
0.5892294596
 10
-24.115697524
 20
0.5690737138
 10
-23.9812124427
 20
0.5578942469
 10
-23.8496371889
 20
0.5557519693
 10
-23.7209521504
 20
0.5625859706
 10
-23.6364923937
 20
0.5732438834
  0
LWPOLYLINE
  5
255
100
AcDbEntity
  8
ASSI
100
AcDbPolyline
 62
7
  6
CONTINUOUS
 90
46
 70
0
 10
-28.3349080022
 20
6.3023540668
 10
-28.3313584774
 20
6.1306773719
 10
-28.3209223526
 20
5.9561677229
 10
-28.3035996277
 20
5.7788251198
 10
-28.2793199667
 20
5.5982356154
 10
-28.2481537057
 20
5.414813157
 10
-28.2103118524
 20
5.2297995863
 10
-28.1657491082
 20
5.0431841067
 10
-28.1145107717
 20
4.8549775148
 10
-28.0569437465
 20
4.666454043
 10
-27.993005088
 20
4.4776115411
 10
-27.9227377407
 20
4.2884521592
 10
-27.8466174423
 20
4.1002565805
 10
-27.7646044761
 20
3.9130313451
 10
-27.6767385587
 20
3.7267699128
 10
-27.5836145767
 20
3.5427333464
 10
-27.4851968505
 20
3.3609367434
 10
-27.3815210596
 20
3.1813650063
 10
-27.2732891298
 20
3.0052339061
 10
-27.1604701445
 20
2.8325667899
 10
-27.0430950203
 20
2.6633403107
 10
-26.9219584327
 20
2.498700198
 10
-26.7970348576
 20
2.3386775733
 10
-26.668349819
 20
2.1832413151
 10
-26.5367745652
 20
2.0334437877
 10
-26.402289484
 20
1.8893232538
 10
-26.2649141875
 20
1.7508414506
 10
-26.1255787602
 20
1.6189359541
 10
-25.9842699013
 20
1.4936513893
 10
-25.8410009116
 20
1.3749431313
 10
-25.6967417783
 20
1.2636148814
 10
-25.5514857826
 20
1.1597167181
 10
-25.4052396433
 20
1.0631985631
 10
-25.258993504
 20
0.9747138818
 10
-25.1127473647
 20
0.8943171872
 10
-24.9665012254
 20
0.8219539663
 10
-24.8212452296
 20
0.7581141467
 10
-24.6769860964
 20
0.7028555655
 10
-24.5337171067
 20
0.6561203854
 10
-24.3924082478
 20
0.618225022
 10
-24.2530728205
 20
0.5892294596
 10
-24.115697524
 20
0.5690737138
 10
-23.9812124427
 20
0.5578942469
 10
-23.8496371889
 20
0.5557519693
 10
-23.7209521504
 20
0.5625859706
 10
-23.6364923937
 20
0.5732438834
  0
LWPOLYLINE
  5
256
100
AcDbEntity
  8
0
100
AcDbPolyline
 62
7
  6
CONTINUOUS
 90
46
 70
0
 10
-28.3349080022
 20
23.0399947411
 10
-28.3313584774
 20
22.8683180461
 10
-28.3209223526
 20
22.6938083971
 10
-28.3035996277
 20
22.5164657941
 10
-28.2793199667
 20
22.3358762897
 10
-28.2481537057
 20
22.1524538312
 10
-28.2103118524
 20
21.9674402606
 10
-28.1657491082
 20
21.7808247809
 10
-28.1145107717
 20
21.592618189
 10
-28.0569437465
 20
21.4040947173
 10
-27.993005088
 20
21.2152522153
 10
-27.9227377407
 20
21.0260928335
 10
-27.8466174423
 20
20.8378972548
 10
-27.7646044761
 20
20.6506720193
 10
-27.6767385587
 20
20.464410587
 10
-27.5836145767
 20
20.2803740207
 10
-27.4851968505
 20
20.0985774176
 10
-27.3815210596
 20
19.9190056805
 10
-27.2732891298
 20
19.7428745803
 10
-27.1604701445
 20
19.5702074642
 10
-27.0430950203
 20
19.400980985
 10
-26.9219584327
 20
19.2363408722
 10
-26.7970348576
 20
19.0763182476
 10
-26.668349819
 20
18.9208819894
 10
-26.5367745652
 20
18.7710844619
 10
-26.402289484
 20
18.626963928
 10
-26.2649141875
 20
18.4884821248
 10
-26.1255787602
 20
18.3565766284
 10
-25.9842699013
 20
18.2312920636
 10
-25.8410009116
 20
18.1125838055
 10
-25.6967417783
 20
18.0012555556
 10
-25.5514857826
 20
17.8973573924
 10
-25.4052396433
 20
17.8008392373
 10
-25.258993504
 20
17.7123545561
 10
-25.1127473647
 20
17.6319578614
 10
-24.9665012254
 20
17.5595946406
 10
-24.8212452296
 20
17.4957548209
 10
-24.6769860964
 20
17.4404962397
 10
-24.5337171067
 20
17.3937610597
 10
-24.3924082478
 20
17.3558656962
 10
-24.2530728205
 20
17.3268701338
 10
-24.115697524
 20
17.306714388
 10
-23.9812124427
 20
17.2955349211
 10
-23.8496371889
 20
17.2933926435
 10
-23.7209521504
 20
17.3002266449
 10
-23.6364923937
 20
17.3108845576
  0
LWPOLYLINE
  5
257
100
AcDbEntity
  8
ASSI
100
AcDbPolyline
 62
7
  6
CONTINUOUS
 90
46
 70
0
 10
-28.3349080022
 20
23.0399947411
 10
-28.3313584774
 20
22.8683180461
 10
-28.3209223526
 20
22.6938083971
 10
-28.3035996277
 20
22.5164657941
 10
-28.2793199667
 20
22.3358762897
 10
-28.2481537057
 20
22.1524538312
 10
-28.2103118524
 20
21.9674402606
 10
-28.1657491082
 20
21.7808247809
 10
-28.1145107717
 20
21.592618189
 10
-28.0569437465
 20
21.4040947173
 10
-27.993005088
 20
21.2152522153
 10
-27.9227377407
 20
21.0260928335
 10
-27.8466174423
 20
20.8378972548
 10
-27.7646044761
 20
20.6506720193
 10
-27.6767385587
 20
20.464410587
 10
-27.5836145767
 20
20.2803740207
 10
-27.4851968505
 20
20.0985774176
 10
-27.3815210596
 20
19.9190056805
 10
-27.2732891298
 20
19.7428745803
 10
-27.1604701445
 20
19.5702074642
 10
-27.0430950203
 20
19.400980985
 10
-26.9219584327
 20
19.2363408722
 10
-26.7970348576
 20
19.0763182476
 10
-26.668349819
 20
18.9208819894
 10
-26.5367745652
 20
18.7710844619
 10
-26.402289484
 20
18.626963928
 10
-26.2649141875
 20
18.4884821248
 10
-26.1255787602
 20
18.3565766284
 10
-25.9842699013
 20
18.2312920636
 10
-25.8410009116
 20
18.1125838055
 10
-25.6967417783
 20
18.0012555556
 10
-25.5514857826
 20
17.8973573924
 10
-25.4052396433
 20
17.8008392373
 10
-25.258993504
 20
17.7123545561
 10
-25.1127473647
 20
17.6319578614
 10
-24.9665012254
 20
17.5595946406
 10
-24.8212452296
 20
17.4957548209
 10
-24.6769860964
 20
17.4404962397
 10
-24.5337171067
 20
17.3937610597
 10
-24.3924082478
 20
17.3558656962
 10
-24.2530728205
 20
17.3268701338
 10
-24.115697524
 20
17.306714388
 10
-23.9812124427
 20
17.2955349211
 10
-23.8496371889
 20
17.2933926435
 10
-23.7209521504
 20
17.3002266449
 10
-23.6364923937
 20
17.3108845576
  0
LWPOLYLINE
  5
258
100
AcDbEntity
  8
0
100
AcDbPolyline
 62
7
  6
CONTINUOUS
 90
36
 70
0
 10
-30.031964277
 20
22.4684103104
 10
-30.0283497941
 20
22.6471648801
 10
-30.0177032061
 20
22.8207452836
 10
-30.0000245129
 20
22.9891515209
 10
-29.9752481242
 20
23.1527111959
 10
-29.9434396303
 20
23.3110967047
 10
-29.9047958024
 20
23.4633252359
 10
-29.859274065
 20
23.6093583781
 10
-29.8069169936
 20
23.7492345427
 10
-29.7480490859
 20
23.8820861522
 10
-29.6826298146
 20
24.0078694427
 10
-29.610699707
 20
24.1266281781
 10
-29.5327048436
 20
24.2376260727
 10
-29.4486076917
 20
24.3408146969
 10
-29.3584457839
 20
24.4362424802
 10
-29.2627777983
 20
24.523318426
 10
-29.16156963
 20
24.6019907144
 10
-29.0548553838
 20
24.6723111652
 10
-28.9432960528
 20
24.7338442412
 10
-28.8268614724
 20
24.7865354757
 10
-28.7055818072
 20
24.8304393354
 10
-28.5802085438
 20
24.8652836831
 10
-28.4507162009
 20
24.8910122531
 10
-28.3171302597
 20
24.907681311
 10
-28.1802786506
 20
24.915187517
 10
-28.0401411395
 20
24.9134739495
 10
-27.8967379604
 20
24.90259753
 10
-27.7509577463
 20
24.8826256831
 10
-27.6027857657
 20
24.853501942
 10
-27.4522367501
 20
24.8152827734
 10
-27.3002435275
 20
24.768205002
 10
-27.1467971147
 20
24.7122136249
 10
-26.9919064949
 20
24.6473636449
 10
-26.8365314447
 20
24.5740568961
 10
-26.6806689343
 20
24.4922408521
 10
-26.6028278193
 20
24.4483184582
  0
LWPOLYLINE
  5
259
100
AcDbEntity
  8
ASSI
100
AcDbPolyline
 62
7
  6
CONTINUOUS
 90
36
 70
0
 10
-30.031964277
 20
22.4684103104
 10
-30.0283497941
 20
22.6471648801
 10
-30.0177032061
 20
22.8207452836
 10
-30.0000245129
 20
22.9891515209
 10
-29.9752481242
 20
23.1527111959
 10
-29.9434396303
 20
23.3110967047
 10
-29.9047958024
 20
23.4633252359
 10
-29.859274065
 20
23.6093583781
 10
-29.8069169936
 20
23.7492345427
 10
-29.7480490859
 20
23.8820861522
 10
-29.6826298146
 20
24.0078694427
 10
-29.610699707
 20
24.1266281781
 10
-29.5327048436
 20
24.2376260727
 10
-29.4486076917
 20
24.3408146969
 10
-29.3584457839
 20
24.4362424802
 10
-29.2627777983
 20
24.523318426
 10
-29.16156963
 20
24.6019907144
 10
-29.0548553838
 20
24.6723111652
 10
-28.9432960528
 20
24.7338442412
 10
-28.8268614724
 20
24.7865354757
 10
-28.7055818072
 20
24.8304393354
 10
-28.5802085438
 20
24.8652836831
 10
-28.4507162009
 20
24.8910122531
 10
-28.3171302597
 20
24.907681311
 10
-28.1802786506
 20
24.915187517
 10
-28.0401411395
 20
24.9134739495
 10
-27.8967379604
 20
24.90259753
 10
-27.7509577463
 20
24.8826256831
 10
-27.6027857657
 20
24.853501942
 10
-27.4522367501
 20
24.8152827734
 10
-27.3002435275
 20
24.768205002
 10
-27.1467971147
 20
24.7122136249
 10
-26.9919064949
 20
24.6473636449
 10
-26.8365314447
 20
24.5740568961
 10
-26.6806689343
 20
24.4922408521
 10
-26.6028278193
 20
24.4483184582
  0
LWPOLYLINE
  5
25A
100
AcDbEntity
  8
0
100
AcDbPolyline
 62
7
  6
CONTINUOUS
 90
36
 70
0
 10
-30.031964277
 20
5.7307696362
 10
-30.0283497941
 20
5.9095242058
 10
-30.0177032061
 20
6.0831046094
 10
-30.0000245129
 20
6.2515108467
 10
-29.9752481242
 20
6.4150705217
 10
-29.9434396303
 20
6.5734560305
 10
-29.9047958024
 20
6.7256845616
 10
-29.859274065
 20
6.8717177038
 10
-29.8069169936
 20
7.0115938684
 10
-29.7480490859
 20
7.1444454779
 10
-29.6826298146
 20
7.2702287684
 10
-29.610699707
 20
7.3889875038
 10
-29.5327048436
 20
7.4999853985
 10
-29.4486076917
 20
7.6031740226
 10
-29.3584457839
 20
7.698601806
 10
-29.2627777983
 20
7.7856777517
 10
-29.16156963
 20
7.8643500401
 10
-29.0548553838
 20
7.934670491
 10
-28.9432960528
 20
7.996203567
 10
-28.8268614724
 20
8.0488948015
 10
-28.7055818072
 20
8.0927986611
 10
-28.5802085438
 20
8.1276430088
 10
-28.4507162009
 20
8.1533715788
 10
-28.3171302597
 20
8.1700406368
 10
-28.1802786506
 20
8.1775468428
 10
-28.0401411395
 20
8.1758332753
 10
-27.8967379604
 20
8.1649568558
 10
-27.7509577463
 20
8.1449850088
 10
-27.6027857657
 20
8.1158612677
 10
-27.4522367501
 20
8.0776420991
 10
-27.3002435275
 20
8.0305643278
 10
-27.1467971147
 20
7.9745729506
 10
-26.9919064949
 20
7.9097229707
 10
-26.8365314447
 20
7.8364162218
 10
-26.6806689343
 20
7.7546001779
 10
-26.6028278193
 20
7.7106777839
  0
LWPOLYLINE
  5
25B
100
AcDbEntity
  8
ASSI
100
AcDbPolyline
 62
7
  6
CONTINUOUS
 90
36
 70
0
 10
-30.031964277
 20
5.7307696362
 10
-30.0283497941
 20
5.9095242058
 10
-30.0177032061
 20
6.0831046094
 10
-30.0000245129
 20
6.2515108467
 10
-29.9752481242
 20
6.4150705217
 10
-29.9434396303
 20
6.5734560305
 10
-29.9047958024
 20
6.7256845616
 10
-29.859274065
 20
6.8717177038
 10
-29.8069169936
 20
7.0115938684
 10
-29.7480490859
 20
7.1444454779
 10
-29.6826298146
 20
7.2702287684
 10
-29.610699707
 20
7.3889875038
 10
-29.5327048436
 20
7.4999853985
 10
-29.4486076917
 20
7.6031740226
 10
-29.3584457839
 20
7.698601806
 10
-29.2627777983
 20
7.7856777517
 10
-29.16156963
 20
7.8643500401
 10
-29.0548553838
 20
7.934670491
 10
-28.9432960528
 20
7.996203567
 10
-28.8268614724
 20
8.0488948015
 10
-28.7055818072
 20
8.0927986611
 10
-28.5802085438
 20
8.1276430088
 10
-28.4507162009
 20
8.1533715788
 10
-28.3171302597
 20
8.1700406368
 10
-28.1802786506
 20
8.1775468428
 10
-28.0401411395
 20
8.1758332753
 10
-27.8967379604
 20
8.1649568558
 10
-27.7509577463
 20
8.1449850088
 10
-27.6027857657
 20
8.1158612677
 10
-27.4522367501
 20
8.0776420991
 10
-27.3002435275
 20
8.0305643278
 10
-27.1467971147
 20
7.9745729506
 10
-26.9919064949
 20
7.9097229707
 10
-26.8365314447
 20
7.8364162218
 10
-26.6806689343
 20
7.7546001779
 10
-26.6028278193
 20
7.7106777839
  0
LWPOLYLINE
  5
25C
100
AcDbEntity
  8
0
100
AcDbPolyline
 62
7
  6
CONTINUOUS
 90
18
 70
0
 10
-29.3248574958
 20
22.4684103104
 10
-29.3213740573
 20
22.6353802919
 10
-29.3109314459
 20
22.7979516441
 10
-29.2935530359
 20
22.9557559531
 10
-29.2692778536
 20
23.1084359056
 10
-29.2381606415
 20
23.2556450936
 10
-29.2002718845
 20
23.3970489227
 10
-29.1556973018
 20
23.5323268744
 10
-29.1045377112
 20
23.6611724641
 10
-29.0469091596
 20
23.7832931203
 10
-28.9829421998
 20
23.8984120806
 10
-28.9127816623
 20
24.0062686026
 10
-28.8365866591
 20
24.1066180486
 10
-28.7545299187
 20
24.1992329912
 10
-28.6667972423
 20
24.2839037759
 10
-28.5735872668
 20
24.3604386975
 10
-28.4751111392
 20
24.4286643603
 10
-28.4240480943
 20
24.4595656564
  0
LWPOLYLINE
  5
25D
100
AcDbEntity
  8
ASSI
100
AcDbPolyline
 62
7
  6
CONTINUOUS
 90
18
 70
0
 10
-29.3248574958
 20
22.4684103104
 10
-29.3213740573
 20
22.6353802919
 10
-29.3109314459
 20
22.7979516441
 10
-29.2935530359
 20
22.9557559531
 10
-29.2692778536
 20
23.1084359056
 10
-29.2381606415
 20
23.2556450936
 10
-29.2002718845
 20
23.3970489227
 10
-29.1556973018
 20
23.5323268744
 10
-29.1045377112
 20
23.6611724641
 10
-29.0469091596
 20
23.7832931203
 10
-28.9829421998
 20
23.8984120806
 10
-28.9127816623
 20
24.0062686026
 10
-28.8365866591
 20
24.1066180486
 10
-28.7545299187
 20
24.1992329912
 10
-28.6667972423
 20
24.2839037759
 10
-28.5735872668
 20
24.3604386975
 10
-28.4751111392
 20
24.4286643603
 10
-28.4240480943
 20
24.4595656564
  0
LWPOLYLINE
  5
25E
100
AcDbEntity
  8
0
100
AcDbPolyline
 62
7
  6
CONTINUOUS
 90
18
 70
0
 10
-29.3248574958
 20
5.7307696362
 10
-29.3213740573
 20
5.8977396176
 10
-29.3109314459
 20
6.0603109699
 10
-29.2935530359
 20
6.2181152789
 10
-29.2692778536
 20
6.3707952314
 10
-29.2381606415
 20
6.5180044194
 10
-29.2002718845
 20
6.6594082485
 10
-29.1556973018
 20
6.7946862001
 10
-29.1045377112
 20
6.9235317898
 10
-29.0469091596
 20
7.045652446
 10
-28.9829421998
 20
7.1607714063
 10
-28.9127816623
 20
7.2686279283
 10
-28.8365866591
 20
7.3689773744
 10
-28.7545299187
 20
7.461592317
 10
-28.6667972423
 20
7.5462631016
 10
-28.5735872668
 20
7.6227980233
 10
-28.4751111392
 20
7.6910236861
 10
-28.4240480943
 20
7.7219249821
  0
LWPOLYLINE
  5
25F
100
AcDbEntity
  8
ASSI
100
AcDbPolyline
 62
7
  6
CONTINUOUS
 90
18
 70
0
 10
-29.3248574958
 20
5.7307696362
 10
-29.3213740573
 20
5.8977396176
 10
-29.3109314459
 20
6.0603109699
 10
-29.2935530359
 20
6.2181152789
 10
-29.2692778536
 20
6.3707952314
 10
-29.2381606415
 20
6.5180044194
 10
-29.2002718845
 20
6.6594082485
 10
-29.1556973018
 20
6.7946862001
 10
-29.1045377112
 20
6.9235317898
 10
-29.0469091596
 20
7.045652446
 10
-28.9829421998
 20
7.1607714063
 10
-28.9127816623
 20
7.2686279283
 10
-28.8365866591
 20
7.3689773744
 10
-28.7545299187
 20
7.461592317
 10
-28.6667972423
 20
7.5462631016
 10
-28.5735872668
 20
7.6227980233
 10
-28.4751111392
 20
7.6910236861
 10
-28.4240480943
 20
7.7219249821
  0
LINE
  5
260
100
AcDbEntity
  8
0
100
AcDbLine
 62
7
  6
CONTINUOUS
 10
47.2030024326
 20
-66.2328519066
 11
48.21253915
 21
-66.8442264913
  0
LINE
  5
261
100
AcDbEntity
  8
ASSI
100
AcDbLine
 62
7
  6
CONTINUOUS
 10
47.2030024326
 20
-66.2328519066
 11
48.21253915
 21
-66.8442264913
  0
LWPOLYLINE
  5
262
100
AcDbEntity
  8
0
100
AcDbPolyline
 62
7
  6
CONTINUOUS
 90
70
 70
0
 10
-23.1730284995
 20
18.5081467551
 10
-23.1766429824
 20
18.3293921855
 10
-23.1872895704
 20
18.155811782
 10
-23.2049682636
 20
17.9874055446
 10
-23.2297446523
 20
17.8238458697
 10
-23.2615531462
 20
17.6654603609
 10
-23.3001969741
 20
17.5132318297
 10
-23.3457187115
 20
17.3671986875
 10
-23.3980757829
 20
17.2273225229
 10
-23.4569436906
 20
17.0944709134
 10
-23.5223629619
 20
16.9686876229
 10
-23.5942930695
 20
16.8499288875
 10
-23.6722879329
 20
16.7389309929
 10
-23.7563850848
 20
16.6357423687
 10
-23.8465469926
 20
16.5403145854
 10
-23.9422149782
 20
16.4532386396
 10
-24.0434231465
 20
16.3745663512
 10
-24.1501373927
 20
16.3042459004
 10
-24.2616967237
 20
16.2427128244
 10
-24.3781313041
 20
16.1900215899
 10
-24.4994109693
 20
16.1461177302
 10
-24.6247842327
 20
16.1112733825
 10
-24.7542765756
 20
16.0855448125
 10
-24.8878625168
 20
16.0688757545
 10
-25.0247141259
 20
16.0613695486
 10
-25.164851637
 20
16.0630831161
 10
-25.3082548161
 20
16.0739595355
 10
-25.4540350302
 20
16.0939313825
 10
-25.6022070108
 20
16.1230551236
 10
-25.7527560264
 20
16.1612742922
 10
-25.904749249
 20
16.2083520636
 10
-26.0581956618
 20
16.2643434407
 10
-26.2130862816
 20
16.3291934206
 10
-26.3684613318
 20
16.4025001695
 10
-26.5243238422
 20
16.4843162134
 10
-26.6806707829
 20
16.5745890263
 10
-26.8365332875
 20
16.6727591959
 10
-26.991908324
 20
16.7788757478
 10
-27.1467989243
 20
16.8928896563
 10
-27.3002453172
 20
17.0140944331
 10
-27.4522385217
 20
17.142534709
 10
-27.6027875189
 20
17.278165853
 10
-27.7509594797
 20
17.4201474837
 10
-27.8967396754
 20
17.5685190602
 10
-28.0401428349
 20
17.7232411233
 10
-28.1802803158
 20
17.8833549144
 10
-28.3171318808
 20
18.0488939869
 10
-28.4507177672
 20
18.2198247873
 10
-28.5802100448
 20
18.3950878966
 10
-28.7055832255
 20
18.574710143
 10
-28.8268627975
 20
18.7586646983
 10
-28.9432972944
 20
18.9458116586
 10
-29.0548565575
 20
19.1361706613
 10
-29.1615707454
 20
19.3297220691
 10
-29.2627788682
 20
19.5252670658
 10
-29.3584468313
 20
19.7228181144
 10
-29.4486087292
 20
19.9223627519
 10
-29.5327058553
 20
20.122664774
 10
-29.6107006677
 20
20.323729261
 10
-29.6826307082
 20
20.5255511324
 10
-29.7480498957
 20
20.7268789428
 10
-29.8069176961
 20
20.9277096439
 10
-29.8592746435
 20
21.1280462838
 10
-29.9047962586
 20
21.3266465613
 10
-29.9434399644
 20
21.5234996983
 10
-29.9752483378
 20
21.7186164729
 10
-30.0000246306
 20
21.9107869181
 10
-30.01770326
 20
22.0996077116
 10
-30.0283498088
 20
22.2854821757
 10
-30.031964277
 20
22.4684103104
  0
LWPOLYLINE
  5
263
100
AcDbEntity
  8
ASSI
100
AcDbPolyline
 62
7
  6
CONTINUOUS
 90
70
 70
0
 10
-23.1730284995
 20
18.5081467551
 10
-23.1766429824
 20
18.3293921855
 10
-23.1872895704
 20
18.155811782
 10
-23.2049682636
 20
17.9874055446
 10
-23.2297446523
 20
17.8238458697
 10
-23.2615531462
 20
17.6654603609
 10
-23.3001969741
 20
17.5132318297
 10
-23.3457187115
 20
17.3671986875
 10
-23.3980757829
 20
17.2273225229
 10
-23.4569436906
 20
17.0944709134
 10
-23.5223629619
 20
16.9686876229
 10
-23.5942930695
 20
16.8499288875
 10
-23.6722879329
 20
16.7389309929
 10
-23.7563850848
 20
16.6357423687
 10
-23.8465469926
 20
16.5403145854
 10
-23.9422149782
 20
16.4532386396
 10
-24.0434231465
 20
16.3745663512
 10
-24.1501373927
 20
16.3042459004
 10
-24.2616967237
 20
16.2427128244
 10
-24.3781313041
 20
16.1900215899
 10
-24.4994109693
 20
16.1461177302
 10
-24.6247842327
 20
16.1112733825
 10
-24.7542765756
 20
16.0855448125
 10
-24.8878625168
 20
16.0688757545
 10
-25.0247141259
 20
16.0613695486
 10
-25.164851637
 20
16.0630831161
 10
-25.3082548161
 20
16.0739595355
 10
-25.4540350302
 20
16.0939313825
 10
-25.6022070108
 20
16.1230551236
 10
-25.7527560264
 20
16.1612742922
 10
-25.904749249
 20
16.2083520636
 10
-26.0581956618
 20
16.2643434407
 10
-26.2130862816
 20
16.3291934206
 10
-26.3684613318
 20
16.4025001695
 10
-26.5243238422
 20
16.4843162134
 10
-26.6806707829
 20
16.5745890263
 10
-26.8365332875
 20
16.6727591959
 10
-26.991908324
 20
16.7788757478
 10
-27.1467989243
 20
16.8928896563
 10
-27.3002453172
 20
17.0140944331
 10
-27.4522385217
 20
17.142534709
 10
-27.6027875189
 20
17.278165853
 10
-27.7509594797
 20
17.4201474837
 10
-27.8967396754
 20
17.5685190602
 10
-28.0401428349
 20
17.7232411233
 10
-28.1802803158
 20
17.8833549144
 10
-28.3171318808
 20
18.0488939869
 10
-28.4507177672
 20
18.2198247873
 10
-28.5802100448
 20
18.3950878966
 10
-28.7055832255
 20
18.574710143
 10
-28.8268627975
 20
18.7586646983
 10
-28.9432972944
 20
18.9458116586
 10
-29.0548565575
 20
19.1361706613
 10
-29.1615707454
 20
19.3297220691
 10
-29.2627788682
 20
19.5252670658
 10
-29.3584468313
 20
19.7228181144
 10
-29.4486087292
 20
19.9223627519
 10
-29.5327058553
 20
20.122664774
 10
-29.6107006677
 20
20.323729261
 10
-29.6826307082
 20
20.5255511324
 10
-29.7480498957
 20
20.7268789428
 10
-29.8069176961
 20
20.9277096439
 10
-29.8592746435
 20
21.1280462838
 10
-29.9047962586
 20
21.3266465613
 10
-29.9434399644
 20
21.5234996983
 10
-29.9752483378
 20
21.7186164729
 10
-30.0000246306
 20
21.9107869181
 10
-30.01770326
 20
22.0996077116
 10
-30.0283498088
 20
22.2854821757
 10
-30.031964277
 20
22.4684103104
  0
LWPOLYLINE
  5
264
100
AcDbEntity
  8
0
100
AcDbPolyline
 62
7
  6
CONTINUOUS
 90
70
 70
0
 10
-23.1730284995
 20
1.7705060809
 10
-23.1766429824
 20
1.5917515112
 10
-23.1872895704
 20
1.4181711077
 10
-23.2049682636
 20
1.2497648704
 10
-23.2297446523
 20
1.0862051954
 10
-23.2615531462
 20
0.9278196866
 10
-23.3001969741
 20
0.7755911554
 10
-23.3457187115
 20
0.6295580132
 10
-23.3980757829
 20
0.4896818487
 10
-23.4569436906
 20
0.3568302392
 10
-23.5223629619
 20
0.2310469487
 10
-23.5942930695
 20
0.1122882132
 10
-23.6722879329
 20
0.0012903186
 10
-23.7563850848
 20
-0.1018983055
 10
-23.8465469926
 20
-0.1973260889
 10
-23.9422149782
 20
-0.2844020347
 10
-24.0434231465
 20
-0.3630743231
 10
-24.1501373927
 20
-0.4333947739
 10
-24.2616967237
 20
-0.4949278499
 10
-24.3781313041
 20
-0.5476190844
 10
-24.4994109693
 20
-0.5915229441
 10
-24.6247842327
 20
-0.6263672918
 10
-24.7542765756
 20
-0.6520958617
 10
-24.8878625168
 20
-0.6687649197
 10
-25.0247141259
 20
-0.6762711257
 10
-25.164851637
 20
-0.6745575582
 10
-25.3082548161
 20
-0.6636811387
 10
-25.4540350302
 20
-0.6437092918
 10
-25.6022070108
 20
-0.6145855506
 10
-25.7527560264
 20
-0.576366382
 10
-25.904749249
 20
-0.5292886107
 10
-26.0581956618
 20
-0.4732972335
 10
-26.2130862816
 20
-0.4084472536
 10
-26.3684613318
 20
-0.3351405048
 10
-26.5243238422
 20
-0.2533244608
 10
-26.6806707829
 20
-0.1630516479
 10
-26.8365332875
 20
-0.0648814783
 10
-26.991908324
 20
0.0412350735
 10
-27.1467989243
 20
0.1552489821
 10
-27.3002453172
 20
0.2764537588
 10
-27.4522385217
 20
0.4048940347
 10
-27.6027875189
 20
0.5405251788
 10
-27.7509594797
 20
0.6825068095
 10
-27.8967396754
 20
0.8308783859
 10
-28.0401428349
 20
0.9856004491
 10
-28.1802803158
 20
1.1457142401
 10
-28.3171318808
 20
1.3112533126
 10
-28.4507177672
 20
1.482184113
 10
-28.5802100448
 20
1.6574472223
 10
-28.7055832255
 20
1.8370694688
 10
-28.8268627975
 20
2.021024024
 10
-28.9432972944
 20
2.2081709844
 10
-29.0548565575
 20
2.3985299871
 10
-29.1615707454
 20
2.5920813948
 10
-29.2627788682
 20
2.7876263916
 10
-29.3584468313
 20
2.9851774401
 10
-29.4486087292
 20
3.1847220777
 10
-29.5327058553
 20
3.3850240997
 10
-29.6107006677
 20
3.5860885867
 10
-29.6826307082
 20
3.7879104582
 10
-29.7480498957
 20
3.9892382685
 10
-29.8069176961
 20
4.1900689696
 10
-29.8592746435
 20
4.3904056096
 10
-29.9047962586
 20
4.5890058871
 10
-29.9434399644
 20
4.7858590241
 10
-29.9752483378
 20
4.9809757986
 10
-30.0000246306
 20
5.1731462438
 10
-30.01770326
 20
5.3619670373
 10
-30.0283498088
 20
5.5478415014
 10
-30.031964277
 20
5.7307696362
  0
LWPOLYLINE
  5
265
100
AcDbEntity
  8
ASSI
100
AcDbPolyline
 62
7
  6
CONTINUOUS
 90
70
 70
0
 10
-23.1730284995
 20
1.7705060809
 10
-23.1766429824
 20
1.5917515112
 10
-23.1872895704
 20
1.4181711077
 10
-23.2049682636
 20
1.2497648704
 10
-23.2297446523
 20
1.0862051954
 10
-23.2615531462
 20
0.9278196866
 10
-23.3001969741
 20
0.7755911554
 10
-23.3457187115
 20
0.6295580132
 10
-23.3980757829
 20
0.4896818487
 10
-23.4569436906
 20
0.3568302392
 10
-23.5223629619
 20
0.2310469487
 10
-23.5942930695
 20
0.1122882132
 10
-23.6722879329
 20
0.0012903186
 10
-23.7563850848
 20
-0.1018983055
 10
-23.8465469926
 20
-0.1973260889
 10
-23.9422149782
 20
-0.2844020347
 10
-24.0434231465
 20
-0.3630743231
 10
-24.1501373927
 20
-0.4333947739
 10
-24.2616967237
 20
-0.4949278499
 10
-24.3781313041
 20
-0.5476190844
 10
-24.4994109693
 20
-0.5915229441
 10
-24.6247842327
 20
-0.6263672918
 10
-24.7542765756
 20
-0.6520958617
 10
-24.8878625168
 20
-0.6687649197
 10
-25.0247141259
 20
-0.6762711257
 10
-25.164851637
 20
-0.6745575582
 10
-25.3082548161
 20
-0.6636811387
 10
-25.4540350302
 20
-0.6437092918
 10
-25.6022070108
 20
-0.6145855506
 10
-25.7527560264
 20
-0.576366382
 10
-25.904749249
 20
-0.5292886107
 10
-26.0581956618
 20
-0.4732972335
 10
-26.2130862816
 20
-0.4084472536
 10
-26.3684613318
 20
-0.3351405048
 10
-26.5243238422
 20
-0.2533244608
 10
-26.6806707829
 20
-0.1630516479
 10
-26.8365332875
 20
-0.0648814783
 10
-26.991908324
 20
0.0412350735
 10
-27.1467989243
 20
0.1552489821
 10
-27.3002453172
 20
0.2764537588
 10
-27.4522385217
 20
0.4048940347
 10
-27.6027875189
 20
0.5405251788
 10
-27.7509594797
 20
0.6825068095
 10
-27.8967396754
 20
0.8308783859
 10
-28.0401428349
 20
0.9856004491
 10
-28.1802803158
 20
1.1457142401
 10
-28.3171318808
 20
1.3112533126
 10
-28.4507177672
 20
1.482184113
 10
-28.5802100448
 20
1.6574472223
 10
-28.7055832255
 20
1.8370694688
 10
-28.8268627975
 20
2.021024024
 10
-28.9432972944
 20
2.2081709844
 10
-29.0548565575
 20
2.3985299871
 10
-29.1615707454
 20
2.5920813948
 10
-29.2627788682
 20
2.7876263916
 10
-29.3584468313
 20
2.9851774401
 10
-29.4486087292
 20
3.1847220777
 10
-29.5327058553
 20
3.3850240997
 10
-29.6107006677
 20
3.5860885867
 10
-29.6826307082
 20
3.7879104582
 10
-29.7480498957
 20
3.9892382685
 10
-29.8069176961
 20
4.1900689696
 10
-29.8592746435
 20
4.3904056096
 10
-29.9047962586
 20
4.5890058871
 10
-29.9434399644
 20
4.7858590241
 10
-29.9752483378
 20
4.9809757986
 10
-30.0000246306
 20
5.1731462438
 10
-30.01770326
 20
5.3619670373
 10
-30.0283498088
 20
5.5478415014
 10
-30.031964277
 20
5.7307696362
  0
LINE
  5
266
100
AcDbEntity
  8
0
100
AcDbLine
 62
7
  6
CONTINUOUS
 10
-23.1783487554
 20
18.7208556564
 11
-23.1869545494
 21
18.5868800148
  0
LINE
  5
267
100
AcDbEntity
  8
ASSI
100
AcDbLine
 62
7
  6
CONTINUOUS
 10
-23.1783487554
 20
18.7208556564
 11
-23.1869545494
 21
18.5868800148
  0
LINE
  5
268
100
AcDbEntity
  8
0
100
AcDbLine
 62
7
  6
CONTINUOUS
 10
-23.1783487554
 20
1.9832149821
 11
-23.1869545494
 21
1.8492393405
  0
LINE
  5
269
100
AcDbEntity
  8
ASSI
100
AcDbLine
 62
7
  6
CONTINUOUS
 10
-23.1783487554
 20
1.9832149821
 11
-23.1869545494
 21
1.8492393405
  0
LWPOLYLINE
  5
26A
100
AcDbEntity
  8
0
100
AcDbPolyline
 62
7
  6
CONTINUOUS
 90
16
 70
0
 10
-23.1869545494
 20
18.5868800148
 10
-23.2043329594
 20
18.4290757058
 10
-23.2286081417
 20
18.2763957533
 10
-23.2597253538
 20
18.1291865653
 10
-23.2976141108
 20
17.9877827362
 10
-23.3421886935
 20
17.8525047845
 10
-23.3933482841
 20
17.7236591948
 10
-23.4509768358
 20
17.6015385386
 10
-23.5149437955
 20
17.4864195783
 10
-23.585104333
 20
17.3785630563
 10
-23.6612993362
 20
17.2782136103
 10
-23.7433560766
 20
17.1855986677
 10
-23.8310887531
 20
17.100927883
 10
-23.9242987286
 20
17.0243929614
 10
-24.0227748561
 20
16.9561672986
 10
-24.073837901
 20
16.9252660025
  0
LWPOLYLINE
  5
26B
100
AcDbEntity
  8
ASSI
100
AcDbPolyline
 62
7
  6
CONTINUOUS
 90
16
 70
0
 10
-23.1869545494
 20
18.5868800148
 10
-23.2043329594
 20
18.4290757058
 10
-23.2286081417
 20
18.2763957533
 10
-23.2597253538
 20
18.1291865653
 10
-23.2976141108
 20
17.9877827362
 10
-23.3421886935
 20
17.8525047845
 10
-23.3933482841
 20
17.7236591948
 10
-23.4509768358
 20
17.6015385386
 10
-23.5149437955
 20
17.4864195783
 10
-23.585104333
 20
17.3785630563
 10
-23.6612993362
 20
17.2782136103
 10
-23.7433560766
 20
17.1855986677
 10
-23.8310887531
 20
17.100927883
 10
-23.9242987286
 20
17.0243929614
 10
-24.0227748561
 20
16.9561672986
 10
-24.073837901
 20
16.9252660025
  0
LWPOLYLINE
  5
26C
100
AcDbEntity
  8
0
100
AcDbPolyline
 62
7
  6
CONTINUOUS
 90
16
 70
0
 10
-23.1869545494
 20
1.8492393405
 10
-23.2043329594
 20
1.6914350315
 10
-23.2286081417
 20
1.538755079
 10
-23.2597253538
 20
1.391545891
 10
-23.2976141108
 20
1.2501420619
 10
-23.3421886935
 20
1.1148641103
 10
-23.3933482841
 20
0.9860185206
 10
-23.4509768358
 20
0.8638978644
 10
-23.5149437955
 20
0.7487789041
 10
-23.585104333
 20
0.6409223821
 10
-23.6612993362
 20
0.540572936
 10
-23.7433560766
 20
0.4479579934
 10
-23.8310887531
 20
0.3632872088
 10
-23.9242987286
 20
0.2867522871
 10
-24.0227748561
 20
0.2185266243
 10
-24.073837901
 20
0.1876253282
  0
LWPOLYLINE
  5
26D
100
AcDbEntity
  8
ASSI
100
AcDbPolyline
 62
7
  6
CONTINUOUS
 90
16
 70
0
 10
-23.1869545494
 20
1.8492393405
 10
-23.2043329594
 20
1.6914350315
 10
-23.2286081417
 20
1.538755079
 10
-23.2597253538
 20
1.391545891
 10
-23.2976141108
 20
1.2501420619
 10
-23.3421886935
 20
1.1148641103
 10
-23.3933482841
 20
0.9860185206
 10
-23.4509768358
 20
0.8638978644
 10
-23.5149437955
 20
0.7487789041
 10
-23.585104333
 20
0.6409223821
 10
-23.6612993362
 20
0.540572936
 10
-23.7433560766
 20
0.4479579934
 10
-23.8310887531
 20
0.3632872088
 10
-23.9242987286
 20
0.2867522871
 10
-24.0227748561
 20
0.2185266243
 10
-24.073837901
 20
0.1876253282
  0
LWPOLYLINE
  5
26E
100
AcDbEntity
  8
0
100
AcDbPolyline
 62
7
  6
CONTINUOUS
 90
13
 70
0
 10
-27.8714233683
 20
7.9079023282
 10
-27.9227377407
 20
7.840292088
 10
-27.993005088
 20
7.7322756774
 10
-28.0569437465
 20
7.6172679356
 10
-28.1145107717
 20
7.4952214216
 10
-28.1657491082
 20
7.3661835764
 10
-28.2103118524
 20
7.2310280367
 10
-28.2481537057
 20
7.0897132897
 10
-28.2793199667
 20
6.9422808483
 10
-28.3035996277
 20
6.7897288878
 10
-28.3209223526
 20
6.6323901332
 10
-28.3313584774
 20
6.4699318596
 10
-28.3349080022
 20
6.3023540668
  0
LWPOLYLINE
  5
26F
100
AcDbEntity
  8
ASSI
100
AcDbPolyline
 62
7
  6
CONTINUOUS
 90
13
 70
0
 10
-27.8714233683
 20
7.9079023282
 10
-27.9227377407
 20
7.840292088
 10
-27.993005088
 20
7.7322756774
 10
-28.0569437465
 20
7.6172679356
 10
-28.1145107717
 20
7.4952214216
 10
-28.1657491082
 20
7.3661835764
 10
-28.2103118524
 20
7.2310280367
 10
-28.2481537057
 20
7.0897132897
 10
-28.2793199667
 20
6.9422808483
 10
-28.3035996277
 20
6.7897288878
 10
-28.3209223526
 20
6.6323901332
 10
-28.3313584774
 20
6.4699318596
 10
-28.3349080022
 20
6.3023540668
  0
LWPOLYLINE
  5
270
100
AcDbEntity
  8
0
100
AcDbPolyline
 62
7
  6
CONTINUOUS
 90
51
 70
0
 10
-24.073837901
 20
16.9252660025
 10
-24.1262940685
 20
16.89640546
 10
-24.2346220206
 20
16.8452427783
 10
-24.3475134123
 20
16.8027951824
 10
-24.4647124638
 20
16.7691589186
 10
-24.5859536363
 20
16.7444102491
 10
-24.7109623061
 20
16.7286052766
 10
-24.8394552818
 20
16.7217798486
 10
-24.9711413715
 20
16.7239494609
 10
-25.1057222275
 20
16.73510921
 10
-25.2428930068
 20
16.7552338295
 10
-25.3823429405
 20
16.7842777378
 10
-25.5237561153
 20
16.8221751473
 10
-25.6668121819
 20
16.8688402161
 10
-25.8111870536
 20
16.9241672352
 10
-25.9565536761
 20
16.9880308802
 10
-26.1025827242
 20
17.0602864781
 10
-26.2489433384
 20
17.1407703221
 10
-26.3953039523
 20
17.229300084
 10
-26.5413329999
 20
17.3256752079
 10
-26.6866996217
 20
17.4296773322
 10
-26.8310744924
 20
17.5410708336
 10
-26.9741305578
 20
17.6596033628
 10
-27.115543732
 20
17.7850063824
 10
-27.2549936669
 20
17.9169958042
 10
-27.3921644475
 20
18.0552726062
 10
-27.5267453017
 20
18.1995234985
 10
-27.6584313854
 20
18.3494217208
 10
-27.7869243521
 20
18.504627653
 10
-27.9119330093
 20
18.6647895373
 10
-28.0331741636
 20
18.8295445004
 10
-28.1503731937
 20
18.9985193137
 10
-28.2632645674
 20
19.171331087
 10
-28.371592504
 20
19.3475882061
 10
-28.4751117031
 20
19.526891476
 10
-28.5735878235
 20
19.7088349574
 10
-28.6667978013
 20
19.8930065027
 10
-28.7545304826
 20
20.0789888794
 10
-28.8365872202
 20
20.266360981
 10
-28.9127822145
 20
20.4546985978
 10
-28.9829427353
 20
20.6435748354
 10
-29.0469096606
 20
20.8325612851
 10
-29.104538162
 20
21.0212299526
 10
-29.155697692
 20
21.2091533217
 10
-29.2002722042
 20
21.395904799
 10
-29.2381608852
 20
21.5810614732
 10
-29.2692780227
 20
21.7642038483
 10
-29.2935531384
 20
21.944915944
 10
-29.3109314947
 20
22.1227881421
 10
-29.3213740704
 20
22.2974180649
 10
-29.3248574958
 20
22.4684103104
  0
LWPOLYLINE
  5
271
100
AcDbEntity
  8
ASSI
100
AcDbPolyline
 62
7
  6
CONTINUOUS
 90
51
 70
0
 10
-24.073837901
 20
16.9252660025
 10
-24.1262940685
 20
16.89640546
 10
-24.2346220206
 20
16.8452427783
 10
-24.3475134123
 20
16.8027951824
 10
-24.4647124638
 20
16.7691589186
 10
-24.5859536363
 20
16.7444102491
 10
-24.7109623061
 20
16.7286052766
 10
-24.8394552818
 20
16.7217798486
 10
-24.9711413715
 20
16.7239494609
 10
-25.1057222275
 20
16.73510921
 10
-25.2428930068
 20
16.7552338295
 10
-25.3823429405
 20
16.7842777378
 10
-25.5237561153
 20
16.8221751473
 10
-25.6668121819
 20
16.8688402161
 10
-25.8111870536
 20
16.9241672352
 10
-25.9565536761
 20
16.9880308802
 10
-26.1025827242
 20
17.0602864781
 10
-26.2489433384
 20
17.1407703221
 10
-26.3953039523
 20
17.229300084
 10
-26.5413329999
 20
17.3256752079
 10
-26.6866996217
 20
17.4296773322
 10
-26.8310744924
 20
17.5410708336
 10
-26.9741305578
 20
17.6596033628
 10
-27.115543732
 20
17.7850063824
 10
-27.2549936669
 20
17.9169958042
 10
-27.3921644475
 20
18.0552726062
 10
-27.5267453017
 20
18.1995234985
 10
-27.6584313854
 20
18.3494217208
 10
-27.7869243521
 20
18.504627653
 10
-27.9119330093
 20
18.6647895373
 10
-28.0331741636
 20
18.8295445004
 10
-28.1503731937
 20
18.9985193137
 10
-28.2632645674
 20
19.171331087
 10
-28.371592504
 20
19.3475882061
 10
-28.4751117031
 20
19.526891476
 10
-28.5735878235
 20
19.7088349574
 10
-28.6667978013
 20
19.8930065027
 10
-28.7545304826
 20
20.0789888794
 10
-28.8365872202
 20
20.266360981
 10
-28.9127822145
 20
20.4546985978
 10
-28.9829427353
 20
20.6435748354
 10
-29.0469096606
 20
20.8325612851
 10
-29.104538162
 20
21.0212299526
 10
-29.155697692
 20
21.2091533217
 10
-29.2002722042
 20
21.395904799
 10
-29.2381608852
 20
21.5810614732
 10
-29.2692780227
 20
21.7642038483
 10
-29.2935531384
 20
21.944915944
 10
-29.3109314947
 20
22.1227881421
 10
-29.3213740704
 20
22.2974180649
 10
-29.3248574958
 20
22.4684103104
  0
LWPOLYLINE
  5
272
100
AcDbEntity
  8
0
100
AcDbPolyline
 62
7
  6
CONTINUOUS
 90
13
 70
0
 10
-11.9615207916
 20
15.4593646526
 10
-12.012835164
 20
15.3917544124
 10
-12.0831025113
 20
15.2837380018
 10
-12.1470411698
 20
15.16873026
 10
-12.204608195
 20
15.046683746
 10
-12.2558465315
 20
14.9176459008
 10
-12.3004092757
 20
14.7824903611
 10
-12.338251129
 20
14.6411756141
 10
-12.36941739
 20
14.4937431727
 10
-12.393697051
 20
14.3411912121
 10
-12.4110197759
 20
14.1838524576
 10
-12.4214559007
 20
14.021394184
 10
-12.4250054255
 20
13.8538163912
  0
LWPOLYLINE
  5
273
100
AcDbEntity
  8
ASSI
100
AcDbPolyline
 62
7
  6
CONTINUOUS
 90
13
 70
0
 10
-11.9615207916
 20
15.4593646526
 10
-12.012835164
 20
15.3917544124
 10
-12.0831025113
 20
15.2837380018
 10
-12.1470411698
 20
15.16873026
 10
-12.204608195
 20
15.046683746
 10
-12.2558465315
 20
14.9176459008
 10
-12.3004092757
 20
14.7824903611
 10
-12.338251129
 20
14.6411756141
 10
-12.36941739
 20
14.4937431727
 10
-12.393697051
 20
14.3411912121
 10
-12.4110197759
 20
14.1838524576
 10
-12.4214559007
 20
14.021394184
 10
-12.4250054255
 20
13.8538163912
  0
LWPOLYLINE
  5
274
100
AcDbEntity
  8
0
100
AcDbPolyline
 62
7
  6
CONTINUOUS
 90
16
 70
0
 10
-28.4240480943
 20
7.7219249821
 10
-28.3715919268
 20
7.7507855246
 10
-28.2632639747
 20
7.8019482063
 10
-28.150372583
 20
7.8443958023
 10
-28.0331735315
 20
7.878032066
 10
-27.911932359
 20
7.9027807356
 10
-27.7869236892
 20
7.9185857081
 10
-27.6584307135
 20
7.925411136
 10
-27.5267446238
 20
7.9232415238
 10
-27.3921637678
 20
7.9120817746
 10
-27.2549929885
 20
7.8919571552
 10
-27.1155430549
 20
7.8629132468
 10
-26.97412988
 20
7.8250158373
 10
-26.8310738134
 20
7.7783507685
 10
-26.6866989417
 20
7.7230237495
 10
-26.5413323193
 20
7.6591601044
  0
LWPOLYLINE
  5
275
100
AcDbEntity
  8
ASSI
100
AcDbPolyline
 62
7
  6
CONTINUOUS
 90
16
 70
0
 10
-28.4240480943
 20
7.7219249821
 10
-28.3715919268
 20
7.7507855246
 10
-28.2632639747
 20
7.8019482063
 10
-28.150372583
 20
7.8443958023
 10
-28.0331735315
 20
7.878032066
 10
-27.911932359
 20
7.9027807356
 10
-27.7869236892
 20
7.9185857081
 10
-27.6584307135
 20
7.925411136
 10
-27.5267446238
 20
7.9232415238
 10
-27.3921637678
 20
7.9120817746
 10
-27.2549929885
 20
7.8919571552
 10
-27.1155430549
 20
7.8629132468
 10
-26.97412988
 20
7.8250158373
 10
-26.8310738134
 20
7.7783507685
 10
-26.6866989417
 20
7.7230237495
 10
-26.5413323193
 20
7.6591601044
  0
LWPOLYLINE
  5
276
100
AcDbEntity
  8
0
100
AcDbPolyline
 62
7
  6
CONTINUOUS
 90
16
 70
0
 10
-12.5141455176
 20
15.2733873065
 10
-12.4616893501
 20
15.302247849
 10
-12.3533613981
 20
15.3534105307
 10
-12.2404700063
 20
15.3958581267
 10
-12.1232709548
 20
15.4294943904
 10
-12.0020297823
 20
15.45424306
 10
-11.8770211125
 20
15.4700480324
 10
-11.7485281368
 20
15.4768734604
 10
-11.6168420471
 20
15.4747038481
 10
-11.4822611911
 20
15.463544099
 10
-11.3450904118
 20
15.4434194795
 10
-11.2056404782
 20
15.4143755712
 10
-11.0642273033
 20
15.3764781617
 10
-10.9211712367
 20
15.3298130929
 10
-10.776796365
 20
15.2744860738
 10
-10.6314297426
 20
15.2106224288
  0
LWPOLYLINE
  5
277
100
AcDbEntity
  8
ASSI
100
AcDbPolyline
 62
7
  6
CONTINUOUS
 90
16
 70
0
 10
-12.5141455176
 20
15.2733873065
 10
-12.4616893501
 20
15.302247849
 10
-12.3533613981
 20
15.3534105307
 10
-12.2404700063
 20
15.3958581267
 10
-12.1232709548
 20
15.4294943904
 10
-12.0020297823
 20
15.45424306
 10
-11.8770211125
 20
15.4700480324
 10
-11.7485281368
 20
15.4768734604
 10
-11.6168420471
 20
15.4747038481
 10
-11.4822611911
 20
15.463544099
 10
-11.3450904118
 20
15.4434194795
 10
-11.2056404782
 20
15.4143755712
 10
-11.0642273033
 20
15.3764781617
 10
-10.9211712367
 20
15.3298130929
 10
-10.776796365
 20
15.2744860738
 10
-10.6314297426
 20
15.2106224288
  0
LWPOLYLINE
  5
278
100
AcDbEntity
  8
0
100
AcDbPolyline
 62
7
  6
CONTINUOUS
 90
46
 70
0
 10
-12.4250054255
 20
-2.883824283
 10
-12.4214559007
 20
-3.055500978
 10
-12.4110197759
 20
-3.230010627
 10
-12.393697051
 20
-3.4073532301
 10
-12.36941739
 20
-3.5879427345
 10
-12.338251129
 20
-3.7713651929
 10
-12.3004092757
 20
-3.9563787635
 10
-12.2558465315
 20
-4.1429942432
 10
-12.204608195
 20
-4.3312008351
 10
-12.1470411698
 20
-4.5197243069
 10
-12.0831025113
 20
-4.7085668088
 10
-12.012835164
 20
-4.8977261907
 10
-11.9367148656
 20
-5.0859217694
 10
-11.8547018994
 20
-5.2731470048
 10
-11.766835982
 20
-5.4594084371
 10
-11.673712
 20
-5.6434450034
 10
-11.5752942738
 20
-5.8252416065
 10
-11.4716184829
 20
-6.0048133436
 10
-11.3633865531
 20
-6.1809444438
 10
-11.2505675678
 20
-6.3536115599
 10
-11.1331924436
 20
-6.5228380391
 10
-11.012055856
 20
-6.6874781519
 10
-10.8871322809
 20
-6.8475007765
 10
-10.7584472423
 20
-7.0029370347
 10
-10.6268719885
 20
-7.1527345622
 10
-10.4923869073
 20
-7.2968550961
 10
-10.3550116108
 20
-7.4353368993
 10
-10.2156761835
 20
-7.5672423958
 10
-10.0743673246
 20
-7.6925269606
 10
-9.9310983349
 20
-7.8112352186
 10
-9.7868392016
 20
-7.9225634685
 10
-9.6415832059
 20
-8.0264616317
 10
-9.4953370666
 20
-8.1229797868
 10
-9.3490909273
 20
-8.2114644681
 10
-9.202844788
 20
-8.2918611627
 10
-9.0565986487
 20
-8.3642243835
 10
-8.9113426529
 20
-8.4280642032
 10
-8.7670835197
 20
-8.4833227844
 10
-8.62381453
 20
-8.5300579645
 10
-8.4825056711
 20
-8.5679533279
 10
-8.3431702438
 20
-8.5969488903
 10
-8.2057949473
 20
-8.6171046361
 10
-8.0713098661
 20
-8.628284103
 10
-7.9397346122
 20
-8.6304263806
 10
-7.8110495737
 20
-8.6235923793
 10
-7.726589817
 20
-8.6129344665
  0
LWPOLYLINE
  5
279
100
AcDbEntity
  8
ASSI
100
AcDbPolyline
 62
7
  6
CONTINUOUS
 90
46
 70
0
 10
-12.4250054255
 20
-2.883824283
 10
-12.4214559007
 20
-3.055500978
 10
-12.4110197759
 20
-3.230010627
 10
-12.393697051
 20
-3.4073532301
 10
-12.36941739
 20
-3.5879427345
 10
-12.338251129
 20
-3.7713651929
 10
-12.3004092757
 20
-3.9563787635
 10
-12.2558465315
 20
-4.1429942432
 10
-12.204608195
 20
-4.3312008351
 10
-12.1470411698
 20
-4.5197243069
 10
-12.0831025113
 20
-4.7085668088
 10
-12.012835164
 20
-4.8977261907
 10
-11.9367148656
 20
-5.0859217694
 10
-11.8547018994
 20
-5.2731470048
 10
-11.766835982
 20
-5.4594084371
 10
-11.673712
 20
-5.6434450034
 10
-11.5752942738
 20
-5.8252416065
 10
-11.4716184829
 20
-6.0048133436
 10
-11.3633865531
 20
-6.1809444438
 10
-11.2505675678
 20
-6.3536115599
 10
-11.1331924436
 20
-6.5228380391
 10
-11.012055856
 20
-6.6874781519
 10
-10.8871322809
 20
-6.8475007765
 10
-10.7584472423
 20
-7.0029370347
 10
-10.6268719885
 20
-7.1527345622
 10
-10.4923869073
 20
-7.2968550961
 10
-10.3550116108
 20
-7.4353368993
 10
-10.2156761835
 20
-7.5672423958
 10
-10.0743673246
 20
-7.6925269606
 10
-9.9310983349
 20
-7.8112352186
 10
-9.7868392016
 20
-7.9225634685
 10
-9.6415832059
 20
-8.0264616317
 10
-9.4953370666
 20
-8.1229797868
 10
-9.3490909273
 20
-8.2114644681
 10
-9.202844788
 20
-8.2918611627
 10
-9.0565986487
 20
-8.3642243835
 10
-8.9113426529
 20
-8.4280642032
 10
-8.7670835197
 20
-8.4833227844
 10
-8.62381453
 20
-8.5300579645
 10
-8.4825056711
 20
-8.5679533279
 10
-8.3431702438
 20
-8.5969488903
 10
-8.2057949473
 20
-8.6171046361
 10
-8.0713098661
 20
-8.628284103
 10
-7.9397346122
 20
-8.6304263806
 10
-7.8110495737
 20
-8.6235923793
 10
-7.726589817
 20
-8.6129344665
  0
LWPOLYLINE
  5
27A
100
AcDbEntity
  8
0
100
AcDbPolyline
 62
7
  6
CONTINUOUS
 90
46
 70
0
 10
-12.4250054255
 20
13.8538163912
 10
-12.4214559007
 20
13.6821396963
 10
-12.4110197759
 20
13.5076300472
 10
-12.393697051
 20
13.3302874442
 10
-12.36941739
 20
13.1496979398
 10
-12.338251129
 20
12.9662754814
 10
-12.3004092757
 20
12.7812619107
 10
-12.2558465315
 20
12.594646431
 10
-12.204608195
 20
12.4064398392
 10
-12.1470411698
 20
12.2179163674
 10
-12.0831025113
 20
12.0290738654
 10
-12.012835164
 20
11.8399144836
 10
-11.9367148656
 20
11.6517189049
 10
-11.8547018994
 20
11.4644936694
 10
-11.766835982
 20
11.2782322371
 10
-11.673712
 20
11.0941956708
 10
-11.5752942738
 20
10.9123990677
 10
-11.4716184829
 20
10.7328273306
 10
-11.3633865531
 20
10.5566962304
 10
-11.2505675678
 20
10.3840291143
 10
-11.1331924436
 20
10.2148026351
 10
-11.012055856
 20
10.0501625223
 10
-10.8871322809
 20
9.8901398977
 10
-10.7584472423
 20
9.7347036395
 10
-10.6268719885
 20
9.5849061121
 10
-10.4923869073
 20
9.4407855781
 10
-10.3550116108
 20
9.3023037749
 10
-10.2156761835
 20
9.1703982785
 10
-10.0743673246
 20
9.0451137137
 10
-9.9310983349
 20
8.9264054556
 10
-9.7868392016
 20
8.8150772057
 10
-9.6415832059
 20
8.7111790425
 10
-9.4953370666
 20
8.6146608874
 10
-9.3490909273
 20
8.5261762062
 10
-9.202844788
 20
8.4457795115
 10
-9.0565986487
 20
8.3734162907
 10
-8.9113426529
 20
8.3095764711
 10
-8.7670835197
 20
8.2543178899
 10
-8.62381453
 20
8.2075827098
 10
-8.4825056711
 20
8.1696873464
 10
-8.3431702438
 20
8.1406917839
 10
-8.2057949473
 20
8.1205360382
 10
-8.0713098661
 20
8.1093565713
 10
-7.9397346122
 20
8.1072142937
 10
-7.8110495737
 20
8.114048295
 10
-7.726589817
 20
8.1247062077
  0
LWPOLYLINE
  5
27B
100
AcDbEntity
  8
ASSI
100
AcDbPolyline
 62
7
  6
CONTINUOUS
 90
46
 70
0
 10
-12.4250054255
 20
13.8538163912
 10
-12.4214559007
 20
13.6821396963
 10
-12.4110197759
 20
13.5076300472
 10
-12.393697051
 20
13.3302874442
 10
-12.36941739
 20
13.1496979398
 10
-12.338251129
 20
12.9662754814
 10
-12.3004092757
 20
12.7812619107
 10
-12.2558465315
 20
12.594646431
 10
-12.204608195
 20
12.4064398392
 10
-12.1470411698
 20
12.2179163674
 10
-12.0831025113
 20
12.0290738654
 10
-12.012835164
 20
11.8399144836
 10
-11.9367148656
 20
11.6517189049
 10
-11.8547018994
 20
11.4644936694
 10
-11.766835982
 20
11.2782322371
 10
-11.673712
 20
11.0941956708
 10
-11.5752942738
 20
10.9123990677
 10
-11.4716184829
 20
10.7328273306
 10
-11.3633865531
 20
10.5566962304
 10
-11.2505675678
 20
10.3840291143
 10
-11.1331924436
 20
10.2148026351
 10
-11.012055856
 20
10.0501625223
 10
-10.8871322809
 20
9.8901398977
 10
-10.7584472423
 20
9.7347036395
 10
-10.6268719885
 20
9.5849061121
 10
-10.4923869073
 20
9.4407855781
 10
-10.3550116108
 20
9.3023037749
 10
-10.2156761835
 20
9.1703982785
 10
-10.0743673246
 20
9.0451137137
 10
-9.9310983349
 20
8.9264054556
 10
-9.7868392016
 20
8.8150772057
 10
-9.6415832059
 20
8.7111790425
 10
-9.4953370666
 20
8.6146608874
 10
-9.3490909273
 20
8.5261762062
 10
-9.202844788
 20
8.4457795115
 10
-9.0565986487
 20
8.3734162907
 10
-8.9113426529
 20
8.3095764711
 10
-8.7670835197
 20
8.2543178899
 10
-8.62381453
 20
8.2075827098
 10
-8.4825056711
 20
8.1696873464
 10
-8.3431702438
 20
8.1406917839
 10
-8.2057949473
 20
8.1205360382
 10
-8.0713098661
 20
8.1093565713
 10
-7.9397346122
 20
8.1072142937
 10
-7.8110495737
 20
8.114048295
 10
-7.726589817
 20
8.1247062077
  0
LWPOLYLINE
  5
27C
100
AcDbEntity
  8
0
100
AcDbPolyline
 62
7
  6
CONTINUOUS
 90
36
 70
0
 10
-14.1220617003
 20
13.2822319606
 10
-14.1184472174
 20
13.4609865302
 10
-14.1078006294
 20
13.6345669337
 10
-14.0901219362
 20
13.8029731711
 10
-14.0653455475
 20
13.966532846
 10
-14.0335370536
 20
14.1249183548
 10
-13.9948932257
 20
14.277146886
 10
-13.9493714883
 20
14.4231800282
 10
-13.8970144169
 20
14.5630561928
 10
-13.8381465092
 20
14.6959078023
 10
-13.7727272379
 20
14.8216910928
 10
-13.7007971303
 20
14.9404498282
 10
-13.6228022669
 20
15.0514477228
 10
-13.538705115
 20
15.154636347
 10
-13.4485432072
 20
15.2500641303
 10
-13.3528752216
 20
15.3371400761
 10
-13.2516670533
 20
15.4158123645
 10
-13.1449528071
 20
15.4861328153
 10
-13.0333934761
 20
15.5476658913
 10
-12.9169588957
 20
15.6003571258
 10
-12.7956792305
 20
15.6442609855
 10
-12.6703059671
 20
15.6791053332
 10
-12.5408136242
 20
15.7048339032
 10
-12.407227683
 20
15.7215029611
 10
-12.2703760739
 20
15.7290091671
 10
-12.1302385628
 20
15.7272955996
 10
-11.9868353837
 20
15.7164191801
 10
-11.8410551696
 20
15.6964473332
 10
-11.692883189
 20
15.6673235921
 10
-11.5423341734
 20
15.6291044235
 10
-11.3903409508
 20
15.5820266521
 10
-11.236894538
 20
15.526035275
 10
-11.0820039182
 20
15.4611852951
 10
-10.926628868
 20
15.3878785462
 10
-10.7707663576
 20
15.3060625023
 10
-10.6929252426
 20
15.2621401083
  0
LWPOLYLINE
  5
27D
100
AcDbEntity
  8
ASSI
100
AcDbPolyline
 62
7
  6
CONTINUOUS
 90
36
 70
0
 10
-14.1220617003
 20
13.2822319606
 10
-14.1184472174
 20
13.4609865302
 10
-14.1078006294
 20
13.6345669337
 10
-14.0901219362
 20
13.8029731711
 10
-14.0653455475
 20
13.966532846
 10
-14.0335370536
 20
14.1249183548
 10
-13.9948932257
 20
14.277146886
 10
-13.9493714883
 20
14.4231800282
 10
-13.8970144169
 20
14.5630561928
 10
-13.8381465092
 20
14.6959078023
 10
-13.7727272379
 20
14.8216910928
 10
-13.7007971303
 20
14.9404498282
 10
-13.6228022669
 20
15.0514477228
 10
-13.538705115
 20
15.154636347
 10
-13.4485432072
 20
15.2500641303
 10
-13.3528752216
 20
15.3371400761
 10
-13.2516670533
 20
15.4158123645
 10
-13.1449528071
 20
15.4861328153
 10
-13.0333934761
 20
15.5476658913
 10
-12.9169588957
 20
15.6003571258
 10
-12.7956792305
 20
15.6442609855
 10
-12.6703059671
 20
15.6791053332
 10
-12.5408136242
 20
15.7048339032
 10
-12.407227683
 20
15.7215029611
 10
-12.2703760739
 20
15.7290091671
 10
-12.1302385628
 20
15.7272955996
 10
-11.9868353837
 20
15.7164191801
 10
-11.8410551696
 20
15.6964473332
 10
-11.692883189
 20
15.6673235921
 10
-11.5423341734
 20
15.6291044235
 10
-11.3903409508
 20
15.5820266521
 10
-11.236894538
 20
15.526035275
 10
-11.0820039182
 20
15.4611852951
 10
-10.926628868
 20
15.3878785462
 10
-10.7707663576
 20
15.3060625023
 10
-10.6929252426
 20
15.2621401083
  0
LWPOLYLINE
  5
27E
100
AcDbEntity
  8
0
100
AcDbPolyline
 62
7
  6
CONTINUOUS
 90
36
 70
0
 10
-14.1220617003
 20
-3.4554087137
 10
-14.1184472174
 20
-3.276654144
 10
-14.1078006294
 20
-3.1030737405
 10
-14.0901219362
 20
-2.9346675032
 10
-14.0653455475
 20
-2.7711078282
 10
-14.0335370536
 20
-2.6127223194
 10
-13.9948932257
 20
-2.4604937882
 10
-13.9493714883
 20
-2.314460646
 10
-13.8970144169
 20
-2.1745844815
 10
-13.8381465092
 20
-2.041732872
 10
-13.7727272379
 20
-1.9159495815
 10
-13.7007971303
 20
-1.797190846
 10
-13.6228022669
 20
-1.6861929514
 10
-13.538705115
 20
-1.5830043273
 10
-13.4485432072
 20
-1.4875765439
 10
-13.3528752216
 20
-1.4005005981
 10
-13.2516670533
 20
-1.3218283097
 10
-13.1449528071
 20
-1.2515078589
 10
-13.0333934761
 20
-1.1899747829
 10
-12.9169588957
 20
-1.1372835484
 10
-12.7956792305
 20
-1.0933796887
 10
-12.6703059671
 20
-1.058535341
 10
-12.5408136242
 20
-1.0328067711
 10
-12.407227683
 20
-1.0161377131
 10
-12.2703760739
 20
-1.0086315071
 10
-12.1302385628
 20
-1.0103450746
 10
-11.9868353837
 20
-1.0212214941
 10
-11.8410551696
 20
-1.041193341
 10
-11.692883189
 20
-1.0703170822
 10
-11.5423341734
 20
-1.1085362508
 10
-11.3903409508
 20
-1.1556140221
 10
-11.236894538
 20
-1.2116053993
 10
-11.0820039182
 20
-1.2764553792
 10
-10.926628868
 20
-1.3497621281
 10
-10.7707663576
 20
-1.431578172
 10
-10.6929252426
 20
-1.4755005659
  0
LWPOLYLINE
  5
27F
100
AcDbEntity
  8
ASSI
100
AcDbPolyline
 62
7
  6
CONTINUOUS
 90
36
 70
0
 10
-14.1220617003
 20
-3.4554087137
 10
-14.1184472174
 20
-3.276654144
 10
-14.1078006294
 20
-3.1030737405
 10
-14.0901219362
 20
-2.9346675032
 10
-14.0653455475
 20
-2.7711078282
 10
-14.0335370536
 20
-2.6127223194
 10
-13.9948932257
 20
-2.4604937882
 10
-13.9493714883
 20
-2.314460646
 10
-13.8970144169
 20
-2.1745844815
 10
-13.8381465092
 20
-2.041732872
 10
-13.7727272379
 20
-1.9159495815
 10
-13.7007971303
 20
-1.797190846
 10
-13.6228022669
 20
-1.6861929514
 10
-13.538705115
 20
-1.5830043273
 10
-13.4485432072
 20
-1.4875765439
 10
-13.3528752216
 20
-1.4005005981
 10
-13.2516670533
 20
-1.3218283097
 10
-13.1449528071
 20
-1.2515078589
 10
-13.0333934761
 20
-1.1899747829
 10
-12.9169588957
 20
-1.1372835484
 10
-12.7956792305
 20
-1.0933796887
 10
-12.6703059671
 20
-1.058535341
 10
-12.5408136242
 20
-1.0328067711
 10
-12.407227683
 20
-1.0161377131
 10
-12.2703760739
 20
-1.0086315071
 10
-12.1302385628
 20
-1.0103450746
 10
-11.9868353837
 20
-1.0212214941
 10
-11.8410551696
 20
-1.041193341
 10
-11.692883189
 20
-1.0703170822
 10
-11.5423341734
 20
-1.1085362508
 10
-11.3903409508
 20
-1.1556140221
 10
-11.236894538
 20
-1.2116053993
 10
-11.0820039182
 20
-1.2764553792
 10
-10.926628868
 20
-1.3497621281
 10
-10.7707663576
 20
-1.431578172
 10
-10.6929252426
 20
-1.4755005659
  0
LWPOLYLINE
  5
280
100
AcDbEntity
  8
0
100
AcDbPolyline
 62
7
  6
CONTINUOUS
 90
18
 70
0
 10
-13.4149549191
 20
13.2822319606
 10
-13.4114714806
 20
13.449201942
 10
-13.4010288692
 20
13.6117732942
 10
-13.3836504592
 20
13.7695776033
 10
-13.3593752769
 20
13.9222575557
 10
-13.3282580648
 20
14.0694667437
 10
-13.2903693078
 20
14.2108705729
 10
-13.2457947251
 20
14.3461485245
 10
-13.1946351345
 20
14.4749941142
 10
-13.1370065829
 20
14.5971147704
 10
-13.0730396231
 20
14.7122337307
 10
-13.0028790856
 20
14.8200902527
 10
-12.9266840824
 20
14.9204396988
 10
-12.844627342
 20
15.0130546413
 10
-12.7568946656
 20
15.097725426
 10
-12.6636846901
 20
15.1742603476
 10
-12.5652085625
 20
15.2424860105
 10
-12.5141455176
 20
15.2733873065
  0
LWPOLYLINE
  5
281
100
AcDbEntity
  8
ASSI
100
AcDbPolyline
 62
7
  6
CONTINUOUS
 90
18
 70
0
 10
-13.4149549191
 20
13.2822319606
 10
-13.4114714806
 20
13.449201942
 10
-13.4010288692
 20
13.6117732942
 10
-13.3836504592
 20
13.7695776033
 10
-13.3593752769
 20
13.9222575557
 10
-13.3282580648
 20
14.0694667437
 10
-13.2903693078
 20
14.2108705729
 10
-13.2457947251
 20
14.3461485245
 10
-13.1946351345
 20
14.4749941142
 10
-13.1370065829
 20
14.5971147704
 10
-13.0730396231
 20
14.7122337307
 10
-13.0028790856
 20
14.8200902527
 10
-12.9266840824
 20
14.9204396988
 10
-12.844627342
 20
15.0130546413
 10
-12.7568946656
 20
15.097725426
 10
-12.6636846901
 20
15.1742603476
 10
-12.5652085625
 20
15.2424860105
 10
-12.5141455176
 20
15.2733873065
  0
LWPOLYLINE
  5
282
100
AcDbEntity
  8
0
100
AcDbPolyline
 62
7
  6
CONTINUOUS
 90
18
 70
0
 10
-13.4149549191
 20
-3.4554087137
 10
-13.4114714806
 20
-3.2884387323
 10
-13.4010288692
 20
-3.12586738
 10
-13.3836504592
 20
-2.968063071
 10
-13.3593752769
 20
-2.8153831185
 10
-13.3282580648
 20
-2.6681739305
 10
-13.2903693078
 20
-2.5267701014
 10
-13.2457947251
 20
-2.3914921498
 10
-13.1946351345
 20
-2.26264656
 10
-13.1370065829
 20
-2.1405259039
 10
-13.0730396231
 20
-2.0254069436
 10
-13.0028790856
 20
-1.9175504215
 10
-12.9266840824
 20
-1.8172009755
 10
-12.844627342
 20
-1.7245860329
 10
-12.7568946656
 20
-1.6399152482
 10
-12.6636846901
 20
-1.5633803266
 10
-12.5652085625
 20
-1.4951546638
 10
-12.5141455176
 20
-1.4642533677
  0
LWPOLYLINE
  5
283
100
AcDbEntity
  8
ASSI
100
AcDbPolyline
 62
7
  6
CONTINUOUS
 90
18
 70
0
 10
-13.4149549191
 20
-3.4554087137
 10
-13.4114714806
 20
-3.2884387323
 10
-13.4010288692
 20
-3.12586738
 10
-13.3836504592
 20
-2.968063071
 10
-13.3593752769
 20
-2.8153831185
 10
-13.3282580648
 20
-2.6681739305
 10
-13.2903693078
 20
-2.5267701014
 10
-13.2457947251
 20
-2.3914921498
 10
-13.1946351345
 20
-2.26264656
 10
-13.1370065829
 20
-2.1405259039
 10
-13.0730396231
 20
-2.0254069436
 10
-13.0028790856
 20
-1.9175504215
 10
-12.9266840824
 20
-1.8172009755
 10
-12.844627342
 20
-1.7245860329
 10
-12.7568946656
 20
-1.6399152482
 10
-12.6636846901
 20
-1.5633803266
 10
-12.5652085625
 20
-1.4951546638
 10
-12.5141455176
 20
-1.4642533677
  0
LWPOLYLINE
  5
284
100
AcDbEntity
  8
0
100
AcDbPolyline
 62
7
  6
CONTINUOUS
 90
51
 70
0
 10
-24.073837901
 20
0.1876253282
 10
-24.1262940685
 20
0.1587647858
 10
-24.2346220206
 20
0.1076021041
 10
-24.3475134123
 20
0.0651545081
 10
-24.4647124638
 20
0.0315182444
 10
-24.5859536363
 20
0.0067695748
 10
-24.7109623061
 20
-0.0090353977
 10
-24.8394552818
 20
-0.0158608257
 10
-24.9711413715
 20
-0.0136912134
 10
-25.1057222275
 20
-0.0025314642
 10
-25.2428930068
 20
0.0175931552
 10
-25.3823429405
 20
0.0466370636
 10
-25.5237561153
 20
0.0845344731
 10
-25.6668121819
 20
0.1311995418
 10
-25.8111870536
 20
0.1865265609
 10
-25.9565536761
 20
0.250390206
 10
-26.1025827242
 20
0.3226458038
 10
-26.2489433384
 20
0.4031296479
 10
-26.3953039523
 20
0.4916594097
 10
-26.5413329999
 20
0.5880345336
 10
-26.6866996217
 20
0.6920366579
 10
-26.8310744924
 20
0.8034301594
 10
-26.9741305578
 20
0.9219626886
 10
-27.115543732
 20
1.0473657081
 10
-27.2549936669
 20
1.1793551299
 10
-27.3921644475
 20
1.317631932
 10
-27.5267453017
 20
1.4618828242
 10
-27.6584313854
 20
1.6117810465
 10
-27.7869243521
 20
1.7669869787
 10
-27.9119330093
 20
1.9271488631
 10
-28.0331741636
 20
2.0919038262
 10
-28.1503731937
 20
2.2608786395
 10
-28.2632645674
 20
2.4336904128
 10
-28.371592504
 20
2.6099475319
 10
-28.4751117031
 20
2.7892508017
 10
-28.5735878235
 20
2.9711942832
 10
-28.6667978013
 20
3.1553658284
 10
-28.7545304826
 20
3.3413482051
 10
-28.8365872202
 20
3.5287203067
 10
-28.9127822145
 20
3.7170579236
 10
-28.9829427353
 20
3.9059341611
 10
-29.0469096606
 20
4.0949206109
 10
-29.104538162
 20
4.2835892783
 10
-29.155697692
 20
4.4715126475
 10
-29.2002722042
 20
4.6582641247
 10
-29.2381608852
 20
4.843420799
 10
-29.2692780227
 20
5.0265631741
 10
-29.2935531384
 20
5.2072752697
 10
-29.3109314947
 20
5.3851474678
 10
-29.3213740704
 20
5.5597773906
 10
-29.3248574958
 20
5.7307696362
  0
LWPOLYLINE
  5
285
100
AcDbEntity
  8
ASSI
100
AcDbPolyline
 62
7
  6
CONTINUOUS
 90
51
 70
0
 10
-24.073837901
 20
0.1876253282
 10
-24.1262940685
 20
0.1587647858
 10
-24.2346220206
 20
0.1076021041
 10
-24.3475134123
 20
0.0651545081
 10
-24.4647124638
 20
0.0315182444
 10
-24.5859536363
 20
0.0067695748
 10
-24.7109623061
 20
-0.0090353977
 10
-24.8394552818
 20
-0.0158608257
 10
-24.9711413715
 20
-0.0136912134
 10
-25.1057222275
 20
-0.0025314642
 10
-25.2428930068
 20
0.0175931552
 10
-25.3823429405
 20
0.0466370636
 10
-25.5237561153
 20
0.0845344731
 10
-25.6668121819
 20
0.1311995418
 10
-25.8111870536
 20
0.1865265609
 10
-25.9565536761
 20
0.250390206
 10
-26.1025827242
 20
0.3226458038
 10
-26.2489433384
 20
0.4031296479
 10
-26.3953039523
 20
0.4916594097
 10
-26.5413329999
 20
0.5880345336
 10
-26.6866996217
 20
0.6920366579
 10
-26.8310744924
 20
0.8034301594
 10
-26.9741305578
 20
0.9219626886
 10
-27.115543732
 20
1.0473657081
 10
-27.2549936669
 20
1.1793551299
 10
-27.3921644475
 20
1.317631932
 10
-27.5267453017
 20
1.4618828242
 10
-27.6584313854
 20
1.6117810465
 10
-27.7869243521
 20
1.7669869787
 10
-27.9119330093
 20
1.9271488631
 10
-28.0331741636
 20
2.0919038262
 10
-28.1503731937
 20
2.2608786395
 10
-28.2632645674
 20
2.4336904128
 10
-28.371592504
 20
2.6099475319
 10
-28.4751117031
 20
2.7892508017
 10
-28.5735878235
 20
2.9711942832
 10
-28.6667978013
 20
3.1553658284
 10
-28.7545304826
 20
3.3413482051
 10
-28.8365872202
 20
3.5287203067
 10
-28.9127822145
 20
3.7170579236
 10
-28.9829427353
 20
3.9059341611
 10
-29.0469096606
 20
4.0949206109
 10
-29.104538162
 20
4.2835892783
 10
-29.155697692
 20
4.4715126475
 10
-29.2002722042
 20
4.6582641247
 10
-29.2381608852
 20
4.843420799
 10
-29.2692780227
 20
5.0265631741
 10
-29.2935531384
 20
5.2072752697
 10
-29.3109314947
 20
5.3851474678
 10
-29.3213740704
 20
5.5597773906
 10
-29.3248574958
 20
5.7307696362
  0
LWPOLYLINE
  5
286
100
AcDbEntity
  8
0
100
AcDbPolyline
 62
7
  6
CONTINUOUS
 90
51
 70
0
 10
-8.1639353244
 20
7.7390876526
 10
-8.2163914918
 20
7.7102271102
 10
-8.3247194439
 20
7.6590644285
 10
-8.4376108356
 20
7.6166168325
 10
-8.5548098871
 20
7.5829805687
 10
-8.6760510596
 20
7.5582318992
 10
-8.8010597294
 20
7.5424269267
 10
-8.9295527051
 20
7.5356014987
 10
-9.0612387948
 20
7.537771111
 10
-9.1958196508
 20
7.5489308601
 10
-9.3329904301
 20
7.5690554796
 10
-9.4724403638
 20
7.598099388
 10
-9.6138535386
 20
7.6359967974
 10
-9.7569096052
 20
7.6826618662
 10
-9.9012844769
 20
7.7379888853
 10
-10.0466510994
 20
7.8018525304
 10
-10.1926801475
 20
7.8741081282
 10
-10.3390407617
 20
7.9545919723
 10
-10.4854013756
 20
8.0431217341
 10
-10.6314304232
 20
8.139496858
 10
-10.776797045
 20
8.2434989823
 10
-10.9211719157
 20
8.3548924837
 10
-11.0642279811
 20
8.473425013
 10
-11.2056411553
 20
8.5988280325
 10
-11.3450910902
 20
8.7308174543
 10
-11.4822618708
 20
8.8690942564
 10
-11.616842725
 20
9.0133451486
 10
-11.7485288087
 20
9.1632433709
 10
-11.8770217754
 20
9.3184493031
 10
-12.0020304326
 20
9.4786111874
 10
-12.1232715869
 20
9.6433661505
 10
-12.240470617
 20
9.8123409638
 10
-12.3533619907
 20
9.9851527372
 10
-12.4616899273
 20
10.1614098562
 10
-12.5652091264
 20
10.3407131261
 10
-12.6636852468
 20
10.5226566075
 10
-12.7568952246
 20
10.7068281528
 10
-12.8446279059
 20
10.8928105295
 10
-12.9266846435
 20
11.0801826311
 10
-13.0028796378
 20
11.268520248
 10
-13.0730401586
 20
11.4573964855
 10
-13.1370070839
 20
11.6463829353
 10
-13.1946355853
 20
11.8350516027
 10
-13.2457951153
 20
12.0229749718
 10
-13.2903696275
 20
12.2097264491
 10
-13.3282583085
 20
12.3948831234
 10
-13.359375446
 20
12.5780254985
 10
-13.3836505617
 20
12.7587375941
 10
-13.401028918
 20
12.9366097922
 10
-13.4114714937
 20
13.111239715
 10
-13.4149549191
 20
13.2822319606
  0
LWPOLYLINE
  5
287
100
AcDbEntity
  8
ASSI
100
AcDbPolyline
 62
7
  6
CONTINUOUS
 90
51
 70
0
 10
-8.1639353244
 20
7.7390876526
 10
-8.2163914918
 20
7.7102271102
 10
-8.3247194439
 20
7.6590644285
 10
-8.4376108356
 20
7.6166168325
 10
-8.5548098871
 20
7.5829805687
 10
-8.6760510596
 20
7.5582318992
 10
-8.8010597294
 20
7.5424269267
 10
-8.9295527051
 20
7.5356014987
 10
-9.0612387948
 20
7.537771111
 10
-9.1958196508
 20
7.5489308601
 10
-9.3329904301
 20
7.5690554796
 10
-9.4724403638
 20
7.598099388
 10
-9.6138535386
 20
7.6359967974
 10
-9.7569096052
 20
7.6826618662
 10
-9.9012844769
 20
7.7379888853
 10
-10.0466510994
 20
7.8018525304
 10
-10.1926801475
 20
7.8741081282
 10
-10.3390407617
 20
7.9545919723
 10
-10.4854013756
 20
8.0431217341
 10
-10.6314304232
 20
8.139496858
 10
-10.776797045
 20
8.2434989823
 10
-10.9211719157
 20
8.3548924837
 10
-11.0642279811
 20
8.473425013
 10
-11.2056411553
 20
8.5988280325
 10
-11.3450910902
 20
8.7308174543
 10
-11.4822618708
 20
8.8690942564
 10
-11.616842725
 20
9.0133451486
 10
-11.7485288087
 20
9.1632433709
 10
-11.8770217754
 20
9.3184493031
 10
-12.0020304326
 20
9.4786111874
 10
-12.1232715869
 20
9.6433661505
 10
-12.240470617
 20
9.8123409638
 10
-12.3533619907
 20
9.9851527372
 10
-12.4616899273
 20
10.1614098562
 10
-12.5652091264
 20
10.3407131261
 10
-12.6636852468
 20
10.5226566075
 10
-12.7568952246
 20
10.7068281528
 10
-12.8446279059
 20
10.8928105295
 10
-12.9266846435
 20
11.0801826311
 10
-13.0028796378
 20
11.268520248
 10
-13.0730401586
 20
11.4573964855
 10
-13.1370070839
 20
11.6463829353
 10
-13.1946355853
 20
11.8350516027
 10
-13.2457951153
 20
12.0229749718
 10
-13.2903696275
 20
12.2097264491
 10
-13.3282583085
 20
12.3948831234
 10
-13.359375446
 20
12.5780254985
 10
-13.3836505617
 20
12.7587375941
 10
-13.401028918
 20
12.9366097922
 10
-13.4114714937
 20
13.111239715
 10
-13.4149549191
 20
13.2822319606
  0
LINE
  5
288
100
AcDbEntity
  8
0
100
AcDbLine
 62
7
  6
CONTINUOUS
 10
-52.9823718343
 20
63.9328568438
 11
-52.9819965268
 21
63.9322204822
  0
LINE
  5
289
100
AcDbEntity
  8
ASSI
100
AcDbLine
 62
7
  6
CONTINUOUS
 10
-52.9823718343
 20
63.9328568438
 11
-52.9819965268
 21
63.9322204822
  0
LWPOLYLINE
  5
28A
100
AcDbEntity
  8
0
100
AcDbPolyline
 62
7
  6
CONTINUOUS
 90
70
 70
0
 10
-7.2631259228
 20
9.3219684053
 10
-7.2667404057
 20
9.1432138356
 10
-7.2773869937
 20
8.9696334321
 10
-7.2950656869
 20
8.8012271948
 10
-7.3198420756
 20
8.6376675198
 10
-7.3516505695
 20
8.479282011
 10
-7.3902943974
 20
8.3270534798
 10
-7.4358161348
 20
8.1810203376
 10
-7.4881732062
 20
8.041144173
 10
-7.5470411139
 20
7.9082925635
 10
-7.6124603852
 20
7.782509273
 10
-7.6843904928
 20
7.6637505376
 10
-7.7623853562
 20
7.552752643
 10
-7.8464825081
 20
7.4495640188
 10
-7.9366444159
 20
7.3541362355
 10
-8.0323124015
 20
7.2670602897
 10
-8.1335205699
 20
7.1883880013
 10
-8.240234816
 20
7.1180675505
 10
-8.351794147
 20
7.0565344745
 10
-8.4682287274
 20
7.00384324
 10
-8.5895083926
 20
6.9599393803
 10
-8.714881656
 20
6.9250950326
 10
-8.8443739989
 20
6.8993664626
 10
-8.9779599401
 20
6.8826974047
 10
-9.1148115492
 20
6.8751911987
 10
-9.2549490603
 20
6.8769047662
 10
-9.3983522394
 20
6.8877811857
 10
-9.5441324535
 20
6.9077530326
 10
-9.6923044341
 20
6.9368767737
 10
-9.8428534497
 20
6.9750959423
 10
-9.9948466723
 20
7.0221737137
 10
-10.1482930851
 20
7.0781650908
 10
-10.3031837049
 20
7.1430150708
 10
-10.4585587551
 20
7.2163218196
 10
-10.6144212655
 20
7.2981378636
 10
-10.7707682062
 20
7.3884106764
 10
-10.9266307108
 20
7.4865808461
 10
-11.0820057473
 20
7.5926973979
 10
-11.2368963476
 20
7.7067113065
 10
-11.3903427405
 20
7.8279160832
 10
-11.5423359451
 20
7.9563563591
 10
-11.6928849422
 20
8.0919875031
 10
-11.841056903
 20
8.2339691339
 10
-11.9868370987
 20
8.3823407103
 10
-12.1302402582
 20
8.5370627734
 10
-12.2703777391
 20
8.6971765645
 10
-12.4072293041
 20
8.862715637
 10
-12.5408151905
 20
9.0336464374
 10
-12.6703074681
 20
9.2089095467
 10
-12.7956806488
 20
9.3885317931
 10
-12.9169602208
 20
9.5724863484
 10
-13.0333947177
 20
9.7596333087
 10
-13.1449539808
 20
9.9499923115
 10
-13.2516681687
 20
10.1435437192
 10
-13.3528762915
 20
10.3390887159
 10
-13.4485442546
 20
10.5366397645
 10
-13.5387061525
 20
10.7361844021
 10
-13.6228032786
 20
10.9364864241
 10
-13.700798091
 20
11.1375509111
 10
-13.7727281315
 20
11.3393727826
 10
-13.838147319
 20
11.5407005929
 10
-13.8970151194
 20
11.741531294
 10
-13.9493720668
 20
11.9418679339
 10
-13.9948936819
 20
12.1404682115
 10
-14.0335373877
 20
12.3373213485
 10
-14.0653457611
 20
12.532438123
 10
-14.0901220539
 20
12.7246085682
 10
-14.1078006833
 20
12.9134293617
 10
-14.1184472321
 20
13.0993038258
 10
-14.1220617003
 20
13.2822319606
  0
LWPOLYLINE
  5
28B
100
AcDbEntity
  8
ASSI
100
AcDbPolyline
 62
7
  6
CONTINUOUS
 90
70
 70
0
 10
-7.2631259228
 20
9.3219684053
 10
-7.2667404057
 20
9.1432138356
 10
-7.2773869937
 20
8.9696334321
 10
-7.2950656869
 20
8.8012271948
 10
-7.3198420756
 20
8.6376675198
 10
-7.3516505695
 20
8.479282011
 10
-7.3902943974
 20
8.3270534798
 10
-7.4358161348
 20
8.1810203376
 10
-7.4881732062
 20
8.041144173
 10
-7.5470411139
 20
7.9082925635
 10
-7.6124603852
 20
7.782509273
 10
-7.6843904928
 20
7.6637505376
 10
-7.7623853562
 20
7.552752643
 10
-7.8464825081
 20
7.4495640188
 10
-7.9366444159
 20
7.3541362355
 10
-8.0323124015
 20
7.2670602897
 10
-8.1335205699
 20
7.1883880013
 10
-8.240234816
 20
7.1180675505
 10
-8.351794147
 20
7.0565344745
 10
-8.4682287274
 20
7.00384324
 10
-8.5895083926
 20
6.9599393803
 10
-8.714881656
 20
6.9250950326
 10
-8.8443739989
 20
6.8993664626
 10
-8.9779599401
 20
6.8826974047
 10
-9.1148115492
 20
6.8751911987
 10
-9.2549490603
 20
6.8769047662
 10
-9.3983522394
 20
6.8877811857
 10
-9.5441324535
 20
6.9077530326
 10
-9.6923044341
 20
6.9368767737
 10
-9.8428534497
 20
6.9750959423
 10
-9.9948466723
 20
7.0221737137
 10
-10.1482930851
 20
7.0781650908
 10
-10.3031837049
 20
7.1430150708
 10
-10.4585587551
 20
7.2163218196
 10
-10.6144212655
 20
7.2981378636
 10
-10.7707682062
 20
7.3884106764
 10
-10.9266307108
 20
7.4865808461
 10
-11.0820057473
 20
7.5926973979
 10
-11.2368963476
 20
7.7067113065
 10
-11.3903427405
 20
7.8279160832
 10
-11.5423359451
 20
7.9563563591
 10
-11.6928849422
 20
8.0919875031
 10
-11.841056903
 20
8.2339691339
 10
-11.9868370987
 20
8.3823407103
 10
-12.1302402582
 20
8.5370627734
 10
-12.2703777391
 20
8.6971765645
 10
-12.4072293041
 20
8.862715637
 10
-12.5408151905
 20
9.0336464374
 10
-12.6703074681
 20
9.2089095467
 10
-12.7956806488
 20
9.3885317931
 10
-12.9169602208
 20
9.5724863484
 10
-13.0333947177
 20
9.7596333087
 10
-13.1449539808
 20
9.9499923115
 10
-13.2516681687
 20
10.1435437192
 10
-13.3528762915
 20
10.3390887159
 10
-13.4485442546
 20
10.5366397645
 10
-13.5387061525
 20
10.7361844021
 10
-13.6228032786
 20
10.9364864241
 10
-13.700798091
 20
11.1375509111
 10
-13.7727281315
 20
11.3393727826
 10
-13.838147319
 20
11.5407005929
 10
-13.8970151194
 20
11.741531294
 10
-13.9493720668
 20
11.9418679339
 10
-13.9948936819
 20
12.1404682115
 10
-14.0335373877
 20
12.3373213485
 10
-14.0653457611
 20
12.532438123
 10
-14.0901220539
 20
12.7246085682
 10
-14.1078006833
 20
12.9134293617
 10
-14.1184472321
 20
13.0993038258
 10
-14.1220617003
 20
13.2822319606
  0
LWPOLYLINE
  5
28C
100
AcDbEntity
  8
0
100
AcDbPolyline
 62
7
  6
CONTINUOUS
 90
70
 70
0
 10
-7.2631259228
 20
-7.415672269
 10
-7.2667404057
 20
-7.5944268387
 10
-7.2773869937
 20
-7.7680072422
 10
-7.2950656869
 20
-7.9364134795
 10
-7.3198420756
 20
-8.0999731545
 10
-7.3516505695
 20
-8.2583586633
 10
-7.3902943974
 20
-8.4105871944
 10
-7.4358161348
 20
-8.5566203366
 10
-7.4881732062
 20
-8.6964965012
 10
-7.5470411139
 20
-8.8293481107
 10
-7.6124603852
 20
-8.9551314012
 10
-7.6843904928
 20
-9.0738901366
 10
-7.7623853562
 20
-9.1848880313
 10
-7.8464825081
 20
-9.2880766554
 10
-7.9366444159
 20
-9.3835044388
 10
-8.0323124015
 20
-9.4705803846
 10
-8.1335205699
 20
-9.5492526729
 10
-8.240234816
 20
-9.6195731238
 10
-8.351794147
 20
-9.6811061998
 10
-8.4682287274
 20
-9.7337974343
 10
-8.5895083926
 20
-9.777701294
 10
-8.714881656
 20
-9.8125456416
 10
-8.8443739989
 20
-9.8382742116
 10
-8.9779599401
 20
-9.8549432696
 10
-9.1148115492
 20
-9.8624494756
 10
-9.2549490603
 20
-9.8607359081
 10
-9.3983522394
 20
-9.8498594886
 10
-9.5441324535
 20
-9.8298876416
 10
-9.6923044341
 20
-9.8007639005
 10
-9.8428534497
 20
-9.7625447319
 10
-9.9948466723
 20
-9.7154669606
 10
-10.1482930851
 20
-9.6594755834
 10
-10.3031837049
 20
-9.5946256035
 10
-10.4585587551
 20
-9.5213188546
 10
-10.6144212655
 20
-9.4395028107
 10
-10.7707682062
 20
-9.3492299978
 10
-10.9266307108
 20
-9.2510598282
 10
-11.0820057473
 20
-9.1449432764
 10
-11.2368963476
 20
-9.0309293678
 10
-11.3903427405
 20
-8.9097245911
 10
-11.5423359451
 20
-8.7812843152
 10
-11.6928849422
 20
-8.6456531711
 10
-11.841056903
 20
-8.5036715404
 10
-11.9868370987
 20
-8.3552999639
 10
-12.1302402582
 20
-8.2005779008
 10
-12.2703777391
 20
-8.0404641097
 10
-12.4072293041
 20
-7.8749250373
 10
-12.5408151905
 20
-7.7039942368
 10
-12.6703074681
 20
-7.5287311275
 10
-12.7956806488
 20
-7.3491088811
 10
-12.9169602208
 20
-7.1651543258
 10
-13.0333947177
 20
-6.9780073655
 10
-13.1449539808
 20
-6.7876483628
 10
-13.2516681687
 20
-6.5940969551
 10
-13.3528762915
 20
-6.3985519583
 10
-13.4485442546
 20
-6.2010009098
 10
-13.5387061525
 20
-6.0014562722
 10
-13.6228032786
 20
-5.8011542501
 10
-13.700798091
 20
-5.6000897632
 10
-13.7727281315
 20
-5.3982678917
 10
-13.838147319
 20
-5.1969400814
 10
-13.8970151194
 20
-4.9961093803
 10
-13.9493720668
 20
-4.7957727403
 10
-13.9948936819
 20
-4.5971724628
 10
-14.0335373877
 20
-4.4003193258
 10
-14.0653457611
 20
-4.2052025512
 10
-14.0901220539
 20
-4.013032106
 10
-14.1078006833
 20
-3.8242113126
 10
-14.1184472321
 20
-3.6383368484
 10
-14.1220617003
 20
-3.4554087137
  0
LWPOLYLINE
  5
28D
100
AcDbEntity
  8
ASSI
100
AcDbPolyline
 62
7
  6
CONTINUOUS
 90
70
 70
0
 10
-7.2631259228
 20
-7.415672269
 10
-7.2667404057
 20
-7.5944268387
 10
-7.2773869937
 20
-7.7680072422
 10
-7.2950656869
 20
-7.9364134795
 10
-7.3198420756
 20
-8.0999731545
 10
-7.3516505695
 20
-8.2583586633
 10
-7.3902943974
 20
-8.4105871944
 10
-7.4358161348
 20
-8.5566203366
 10
-7.4881732062
 20
-8.6964965012
 10
-7.5470411139
 20
-8.8293481107
 10
-7.6124603852
 20
-8.9551314012
 10
-7.6843904928
 20
-9.0738901366
 10
-7.7623853562
 20
-9.1848880313
 10
-7.8464825081
 20
-9.2880766554
 10
-7.9366444159
 20
-9.3835044388
 10
-8.0323124015
 20
-9.4705803846
 10
-8.1335205699
 20
-9.5492526729
 10
-8.240234816
 20
-9.6195731238
 10
-8.351794147
 20
-9.6811061998
 10
-8.4682287274
 20
-9.7337974343
 10
-8.5895083926
 20
-9.777701294
 10
-8.714881656
 20
-9.8125456416
 10
-8.8443739989
 20
-9.8382742116
 10
-8.9779599401
 20
-9.8549432696
 10
-9.1148115492
 20
-9.8624494756
 10
-9.2549490603
 20
-9.8607359081
 10
-9.3983522394
 20
-9.8498594886
 10
-9.5441324535
 20
-9.8298876416
 10
-9.6923044341
 20
-9.8007639005
 10
-9.8428534497
 20
-9.7625447319
 10
-9.9948466723
 20
-9.7154669606
 10
-10.1482930851
 20
-9.6594755834
 10
-10.3031837049
 20
-9.5946256035
 10
-10.4585587551
 20
-9.5213188546
 10
-10.6144212655
 20
-9.4395028107
 10
-10.7707682062
 20
-9.3492299978
 10
-10.9266307108
 20
-9.2510598282
 10
-11.0820057473
 20
-9.1449432764
 10
-11.2368963476
 20
-9.0309293678
 10
-11.3903427405
 20
-8.9097245911
 10
-11.5423359451
 20
-8.7812843152
 10
-11.6928849422
 20
-8.6456531711
 10
-11.841056903
 20
-8.5036715404
 10
-11.9868370987
 20
-8.3552999639
 10
-12.1302402582
 20
-8.2005779008
 10
-12.2703777391
 20
-8.0404641097
 10
-12.4072293041
 20
-7.8749250373
 10
-12.5408151905
 20
-7.7039942368
 10
-12.6703074681
 20
-7.5287311275
 10
-12.7956806488
 20
-7.3491088811
 10
-12.9169602208
 20
-7.1651543258
 10
-13.0333947177
 20
-6.9780073655
 10
-13.1449539808
 20
-6.7876483628
 10
-13.2516681687
 20
-6.5940969551
 10
-13.3528762915
 20
-6.3985519583
 10
-13.4485442546
 20
-6.2010009098
 10
-13.5387061525
 20
-6.0014562722
 10
-13.6228032786
 20
-5.8011542501
 10
-13.700798091
 20
-5.6000897632
 10
-13.7727281315
 20
-5.3982678917
 10
-13.838147319
 20
-5.1969400814
 10
-13.8970151194
 20
-4.9961093803
 10
-13.9493720668
 20
-4.7957727403
 10
-13.9948936819
 20
-4.5971724628
 10
-14.0335373877
 20
-4.4003193258
 10
-14.0653457611
 20
-4.2052025512
 10
-14.0901220539
 20
-4.013032106
 10
-14.1078006833
 20
-3.8242113126
 10
-14.1184472321
 20
-3.6383368484
 10
-14.1220617003
 20
-3.4554087137
  0
LINE
  5
28E
100
AcDbEntity
  8
0
100
AcDbLine
 62
7
  6
CONTINUOUS
 10
-7.2684461787
 20
9.5346773065
 11
-7.2770519727
 21
9.4007016649
  0
LINE
  5
28F
100
AcDbEntity
  8
ASSI
100
AcDbLine
 62
7
  6
CONTINUOUS
 10
-7.2684461787
 20
9.5346773065
 11
-7.2770519727
 21
9.4007016649
  0
LINE
  5
290
100
AcDbEntity
  8
0
100
AcDbLine
 62
7
  6
CONTINUOUS
 10
-7.2684461787
 20
-7.2029633678
 11
-7.2770519727
 21
-7.3369390094
  0
LINE
  5
291
100
AcDbEntity
  8
ASSI
100
AcDbLine
 62
7
  6
CONTINUOUS
 10
-7.2684461787
 20
-7.2029633678
 11
-7.2770519727
 21
-7.3369390094
  0
LWPOLYLINE
  5
292
100
AcDbEntity
  8
0
100
AcDbPolyline
 62
7
  6
CONTINUOUS
 90
16
 70
0
 10
-7.2770519727
 20
9.4007016649
 10
-7.2944303827
 20
9.2428973559
 10
-7.318705565
 20
9.0902174034
 10
-7.3498227771
 20
8.9430082154
 10
-7.3877115341
 20
8.8016043863
 10
-7.4322861168
 20
8.6663264347
 10
-7.4834457074
 20
8.5374808449
 10
-7.5410742591
 20
8.4153601888
 10
-7.6050412188
 20
8.3002412285
 10
-7.6752017563
 20
8.1923847064
 10
-7.7513967595
 20
8.0920352604
 10
-7.8334534999
 20
7.9994203178
 10
-7.9211861764
 20
7.9147495331
 10
-8.0143961519
 20
7.8382146115
 10
-8.1128722794
 20
7.7699889487
 10
-8.1639353244
 20
7.7390876526
  0
LWPOLYLINE
  5
293
100
AcDbEntity
  8
ASSI
100
AcDbPolyline
 62
7
  6
CONTINUOUS
 90
16
 70
0
 10
-7.2770519727
 20
9.4007016649
 10
-7.2944303827
 20
9.2428973559
 10
-7.318705565
 20
9.0902174034
 10
-7.3498227771
 20
8.9430082154
 10
-7.3877115341
 20
8.8016043863
 10
-7.4322861168
 20
8.6663264347
 10
-7.4834457074
 20
8.5374808449
 10
-7.5410742591
 20
8.4153601888
 10
-7.6050412188
 20
8.3002412285
 10
-7.6752017563
 20
8.1923847064
 10
-7.7513967595
 20
8.0920352604
 10
-7.8334534999
 20
7.9994203178
 10
-7.9211861764
 20
7.9147495331
 10
-8.0143961519
 20
7.8382146115
 10
-8.1128722794
 20
7.7699889487
 10
-8.1639353244
 20
7.7390876526
  0
LWPOLYLINE
  5
294
100
AcDbEntity
  8
0
100
AcDbPolyline
 62
7
  6
CONTINUOUS
 90
16
 70
0
 10
-7.2770519727
 20
-7.3369390094
 10
-7.2944303827
 20
-7.4947433184
 10
-7.318705565
 20
-7.6474232708
 10
-7.3498227771
 20
-7.7946324588
 10
-7.3877115341
 20
-7.936036288
 10
-7.4322861168
 20
-8.0713142396
 10
-7.4834457074
 20
-8.2001598293
 10
-7.5410742591
 20
-8.3222804855
 10
-7.6050412188
 20
-8.4373994458
 10
-7.6752017563
 20
-8.5452559678
 10
-7.7513967595
 20
-8.6456054139
 10
-7.8334534999
 20
-8.7382203564
 10
-7.9211861764
 20
-8.8228911411
 10
-8.0143961519
 20
-8.8994260627
 10
-8.1128722794
 20
-8.9676517256
 10
-8.1639353244
 20
-8.9985530216
  0
LWPOLYLINE
  5
295
100
AcDbEntity
  8
ASSI
100
AcDbPolyline
 62
7
  6
CONTINUOUS
 90
16
 70
0
 10
-7.2770519727
 20
-7.3369390094
 10
-7.2944303827
 20
-7.4947433184
 10
-7.318705565
 20
-7.6474232708
 10
-7.3498227771
 20
-7.7946324588
 10
-7.3877115341
 20
-7.936036288
 10
-7.4322861168
 20
-8.0713142396
 10
-7.4834457074
 20
-8.2001598293
 10
-7.5410742591
 20
-8.3222804855
 10
-7.6050412188
 20
-8.4373994458
 10
-7.6752017563
 20
-8.5452559678
 10
-7.7513967595
 20
-8.6456054139
 10
-7.8334534999
 20
-8.7382203564
 10
-7.9211861764
 20
-8.8228911411
 10
-8.0143961519
 20
-8.8994260627
 10
-8.1128722794
 20
-8.9676517256
 10
-8.1639353244
 20
-8.9985530216
  0
LWPOLYLINE
  5
296
100
AcDbEntity
  8
0
100
AcDbPolyline
 62
7
  6
CONTINUOUS
 90
13
 70
0
 10
-11.9615207916
 20
-1.2782760217
 10
-12.012835164
 20
-1.3458862619
 10
-12.0831025113
 20
-1.4539026725
 10
-12.1470411698
 20
-1.5689104142
 10
-12.204608195
 20
-1.6909569283
 10
-12.2558465315
 20
-1.8199947735
 10
-12.3004092757
 20
-1.9551503131
 10
-12.338251129
 20
-2.0964650601
 10
-12.36941739
 20
-2.2438975016
 10
-12.393697051
 20
-2.3964494621
 10
-12.4110197759
 20
-2.5537882166
 10
-12.4214559007
 20
-2.7162464903
 10
-12.4250054255
 20
-2.883824283
  0
LWPOLYLINE
  5
297
100
AcDbEntity
  8
ASSI
100
AcDbPolyline
 62
7
  6
CONTINUOUS
 90
13
 70
0
 10
-11.9615207916
 20
-1.2782760217
 10
-12.012835164
 20
-1.3458862619
 10
-12.0831025113
 20
-1.4539026725
 10
-12.1470411698
 20
-1.5689104142
 10
-12.204608195
 20
-1.6909569283
 10
-12.2558465315
 20
-1.8199947735
 10
-12.3004092757
 20
-1.9551503131
 10
-12.338251129
 20
-2.0964650601
 10
-12.36941739
 20
-2.2438975016
 10
-12.393697051
 20
-2.3964494621
 10
-12.4110197759
 20
-2.5537882166
 10
-12.4214559007
 20
-2.7162464903
 10
-12.4250054255
 20
-2.883824283
  0
LINE
  5
298
100
AcDbEntity
  8
0
100
AcDbLine
 62
7
  6
CONTINUOUS
 10
47.4819783668
 20
4.7598277683
 11
48.8989374977
 21
5.1074460445
  0
LINE
  5
299
100
AcDbEntity
  8
ASSI
100
AcDbLine
 62
7
  6
CONTINUOUS
 10
47.4819783668
 20
4.7598277683
 11
48.8989374977
 21
5.1074460445
  0
LINE
  5
29A
100
AcDbEntity
  8
0
100
AcDbLine
 62
7
  6
CONTINUOUS
 10
21.1883754108
 20
-19.8993749452
 11
21.3059721961
 21
-19.9575621767
  0
LINE
  5
29B
100
AcDbEntity
  8
ASSI
100
AcDbLine
 62
7
  6
CONTINUOUS
 10
21.1883754108
 20
-19.8993749452
 11
21.3059721961
 21
-19.9575621767
  0
LINE
  5
29C
100
AcDbEntity
  8
0
100
AcDbLine
 62
7
  6
CONTINUOUS
 10
5.2784728341
 20
-10.7131965953
 11
5.3960696194
 21
-10.7713838268
  0
LINE
  5
29D
100
AcDbEntity
  8
ASSI
100
AcDbLine
 62
7
  6
CONTINUOUS
 10
5.2784728341
 20
-10.7131965953
 11
5.3960696194
 21
-10.7713838268
  0
LINE
  5
29E
100
AcDbEntity
  8
0
100
AcDbLine
 62
7
  6
CONTINUOUS
 10
-10.6314297426
 20
-1.5270182455
 11
-10.5138329573
 21
-1.5852054769
  0
LINE
  5
29F
100
AcDbEntity
  8
ASSI
100
AcDbLine
 62
7
  6
CONTINUOUS
 10
-10.6314297426
 20
-1.5270182455
 11
-10.5138329573
 21
-1.5852054769
  0
LWPOLYLINE
  5
2A0
100
AcDbEntity
  8
0
100
AcDbPolyline
 62
7
  6
CONTINUOUS
 90
36
 70
0
 10
-26.6028278193
 20
7.7106777839
 10
-26.5243219936
 20
7.664327365
 10
-26.368459489
 20
7.5661571954
 10
-26.2130844525
 20
7.4600406436
 10
-26.0581938522
 20
7.346026735
 10
-25.9047474593
 20
7.2248219583
 10
-25.7527542547
 20
7.0963816824
 10
-25.6022052576
 20
6.9607505383
 10
-25.4540332968
 20
6.8187689076
 10
-25.3082531011
 20
6.6703973311
 10
-25.1648499416
 20
6.515675268
 10
-25.0247124607
 20
6.3555614769
 10
-24.8878608957
 20
6.1900224045
 10
-24.7542750093
 20
6.019091604
 10
-24.6247827317
 20
5.8438284947
 10
-24.499409551
 20
5.6642062483
 10
-24.378129979
 20
5.480251693
 10
-24.2616954821
 20
5.2931047327
 10
-24.150136219
 20
5.10274573
 10
-24.0434220311
 20
4.9091943222
 10
-23.9422139083
 20
4.7136493255
 10
-23.8465459452
 20
4.5160982769
 10
-23.7563840473
 20
4.3165536394
 10
-23.6722869212
 20
4.1162516173
 10
-23.5942921088
 20
3.9151871304
 10
-23.5223620683
 20
3.7133652589
 10
-23.4569428808
 20
3.5120374485
 10
-23.3980750804
 20
3.3112067475
 10
-23.345718133
 20
3.1108701075
 10
-23.3001965179
 20
2.91226983
 10
-23.2615528121
 20
2.715416693
 10
-23.2297444387
 20
2.5202999184
 10
-23.2049681459
 20
2.3281294732
 10
-23.1872895165
 20
2.1393086797
 10
-23.1766429677
 20
1.9534342156
 10
-23.1730284995
 20
1.7705060809
  0
LWPOLYLINE
  5
2A1
100
AcDbEntity
  8
ASSI
100
AcDbPolyline
 62
7
  6
CONTINUOUS
 90
36
 70
0
 10
-26.6028278193
 20
7.7106777839
 10
-26.5243219936
 20
7.664327365
 10
-26.368459489
 20
7.5661571954
 10
-26.2130844525
 20
7.4600406436
 10
-26.0581938522
 20
7.346026735
 10
-25.9047474593
 20
7.2248219583
 10
-25.7527542547
 20
7.0963816824
 10
-25.6022052576
 20
6.9607505383
 10
-25.4540332968
 20
6.8187689076
 10
-25.3082531011
 20
6.6703973311
 10
-25.1648499416
 20
6.515675268
 10
-25.0247124607
 20
6.3555614769
 10
-24.8878608957
 20
6.1900224045
 10
-24.7542750093
 20
6.019091604
 10
-24.6247827317
 20
5.8438284947
 10
-24.499409551
 20
5.6642062483
 10
-24.378129979
 20
5.480251693
 10
-24.2616954821
 20
5.2931047327
 10
-24.150136219
 20
5.10274573
 10
-24.0434220311
 20
4.9091943222
 10
-23.9422139083
 20
4.7136493255
 10
-23.8465459452
 20
4.5160982769
 10
-23.7563840473
 20
4.3165536394
 10
-23.6722869212
 20
4.1162516173
 10
-23.5942921088
 20
3.9151871304
 10
-23.5223620683
 20
3.7133652589
 10
-23.4569428808
 20
3.5120374485
 10
-23.3980750804
 20
3.3112067475
 10
-23.345718133
 20
3.1108701075
 10
-23.3001965179
 20
2.91226983
 10
-23.2615528121
 20
2.715416693
 10
-23.2297444387
 20
2.5202999184
 10
-23.2049681459
 20
2.3281294732
 10
-23.1872895165
 20
2.1393086797
 10
-23.1766429677
 20
1.9534342156
 10
-23.1730284995
 20
1.7705060809
  0
LWPOLYLINE
  5
2A2
100
AcDbEntity
  8
0
100
AcDbPolyline
 62
7
  6
CONTINUOUS
 90
36
 70
0
 10
-10.6929252426
 20
-1.4755005659
 10
-10.6144194169
 20
-1.5218509849
 10
-10.4585569123
 20
-1.6200211545
 10
-10.3031818758
 20
-1.7261377063
 10
-10.1482912755
 20
-1.8401516149
 10
-9.9948448826
 20
-1.9613563916
 10
-9.8428516781
 20
-2.0897966675
 10
-9.692302681
 20
-2.2254278116
 10
-9.5441307201
 20
-2.3674094423
 10
-9.3983505244
 20
-2.5157810187
 10
-9.2549473649
 20
-2.6705030819
 10
-9.114809884
 20
-2.8306168729
 10
-8.977958319
 20
-2.9961559454
 10
-8.8443724326
 20
-3.1670867458
 10
-8.7148801551
 20
-3.3423498551
 10
-8.5895069743
 20
-3.5219721016
 10
-8.4682274023
 20
-3.7059266569
 10
-8.3517929054
 20
-3.8930736172
 10
-8.2402336423
 20
-4.0834326199
 10
-8.1335194544
 20
-4.2769840276
 10
-8.0323113316
 20
-4.4725290244
 10
-7.9366433685
 20
-4.6700800729
 10
-7.8464814706
 20
-4.8696247105
 10
-7.7623843445
 20
-5.0699267325
 10
-7.6843895321
 20
-5.2709912195
 10
-7.6124594916
 20
-5.472813091
 10
-7.5470403041
 20
-5.6741409013
 10
-7.4881725037
 20
-5.8749716024
 10
-7.4358155563
 20
-6.0753082424
 10
-7.3902939412
 20
-6.2739085199
 10
-7.3516502354
 20
-6.4707616569
 10
-7.319841862
 20
-6.6658784314
 10
-7.2950655692
 20
-6.8580488766
 10
-7.2773869398
 20
-7.0468696701
 10
-7.266740391
 20
-7.2327441342
 10
-7.2631259228
 20
-7.415672269
  0
LWPOLYLINE
  5
2A3
100
AcDbEntity
  8
ASSI
100
AcDbPolyline
 62
7
  6
CONTINUOUS
 90
36
 70
0
 10
-10.6929252426
 20
-1.4755005659
 10
-10.6144194169
 20
-1.5218509849
 10
-10.4585569123
 20
-1.6200211545
 10
-10.3031818758
 20
-1.7261377063
 10
-10.1482912755
 20
-1.8401516149
 10
-9.9948448826
 20
-1.9613563916
 10
-9.8428516781
 20
-2.0897966675
 10
-9.692302681
 20
-2.2254278116
 10
-9.5441307201
 20
-2.3674094423
 10
-9.3983505244
 20
-2.5157810187
 10
-9.2549473649
 20
-2.6705030819
 10
-9.114809884
 20
-2.8306168729
 10
-8.977958319
 20
-2.9961559454
 10
-8.8443724326
 20
-3.1670867458
 10
-8.7148801551
 20
-3.3423498551
 10
-8.5895069743
 20
-3.5219721016
 10
-8.4682274023
 20
-3.7059266569
 10
-8.3517929054
 20
-3.8930736172
 10
-8.2402336423
 20
-4.0834326199
 10
-8.1335194544
 20
-4.2769840276
 10
-8.0323113316
 20
-4.4725290244
 10
-7.9366433685
 20
-4.6700800729
 10
-7.8464814706
 20
-4.8696247105
 10
-7.7623843445
 20
-5.0699267325
 10
-7.6843895321
 20
-5.2709912195
 10
-7.6124594916
 20
-5.472813091
 10
-7.5470403041
 20
-5.6741409013
 10
-7.4881725037
 20
-5.8749716024
 10
-7.4358155563
 20
-6.0753082424
 10
-7.3902939412
 20
-6.2739085199
 10
-7.3516502354
 20
-6.4707616569
 10
-7.319841862
 20
-6.6658784314
 10
-7.2950655692
 20
-6.8580488766
 10
-7.2773869398
 20
-7.0468696701
 10
-7.266740391
 20
-7.2327441342
 10
-7.2631259228
 20
-7.415672269
  0
LWPOLYLINE
  5
2A4
100
AcDbEntity
  8
0
100
AcDbPolyline
 62
7
  6
CONTINUOUS
 90
36
 70
0
 10
5.2169773341
 20
-10.6616789158
 10
5.2954831598
 20
-10.7080293347
 10
5.4513456644
 20
-10.8061995044
 10
5.6067207009
 20
-10.9123160562
 10
5.7616113012
 20
-11.0263299648
 10
5.9150576941
 20
-11.1475347415
 10
6.0670508986
 20
-11.2759750174
 10
6.2175998957
 20
-11.4116061614
 10
6.3657718566
 20
-11.5535877922
 10
6.5115520523
 20
-11.7019593686
 10
6.6549552118
 20
-11.8566814317
 10
6.7950926927
 20
-12.0167952228
 10
6.9319442577
 20
-12.1823342953
 10
7.0655301441
 20
-12.3532650957
 10
7.1950224216
 20
-12.528528205
 10
7.3203956024
 20
-12.7081504514
 10
7.4416751744
 20
-12.8921050067
 10
7.5581096713
 20
-13.079251967
 10
7.6696689344
 20
-13.2696109698
 10
7.7763831223
 20
-13.4631623775
 10
7.8775912451
 20
-13.6587073742
 10
7.9732592082
 20
-13.8562584228
 10
8.0634211061
 20
-14.0558030604
 10
8.1475182322
 20
-14.2561050824
 10
8.2255130446
 20
-14.4571695694
 10
8.2974430851
 20
-14.6589914409
 10
8.3628622726
 20
-14.8603192512
 10
8.421730073
 20
-15.0611499523
 10
8.4740870204
 20
-15.2614865922
 10
8.5196086355
 20
-15.4600868698
 10
8.5582523413
 20
-15.6569400068
 10
8.5900607147
 20
-15.8520567813
 10
8.6148370075
 20
-16.0442272265
 10
8.6325156369
 20
-16.23304802
 10
8.6431621857
 20
-16.4189224841
 10
8.6467766539
 20
-16.6018506189
  0
LWPOLYLINE
  5
2A5
100
AcDbEntity
  8
ASSI
100
AcDbPolyline
 62
7
  6
CONTINUOUS
 90
36
 70
0
 10
5.2169773341
 20
-10.6616789158
 10
5.2954831598
 20
-10.7080293347
 10
5.4513456644
 20
-10.8061995044
 10
5.6067207009
 20
-10.9123160562
 10
5.7616113012
 20
-11.0263299648
 10
5.9150576941
 20
-11.1475347415
 10
6.0670508986
 20
-11.2759750174
 10
6.2175998957
 20
-11.4116061614
 10
6.3657718566
 20
-11.5535877922
 10
6.5115520523
 20
-11.7019593686
 10
6.6549552118
 20
-11.8566814317
 10
6.7950926927
 20
-12.0167952228
 10
6.9319442577
 20
-12.1823342953
 10
7.0655301441
 20
-12.3532650957
 10
7.1950224216
 20
-12.528528205
 10
7.3203956024
 20
-12.7081504514
 10
7.4416751744
 20
-12.8921050067
 10
7.5581096713
 20
-13.079251967
 10
7.6696689344
 20
-13.2696109698
 10
7.7763831223
 20
-13.4631623775
 10
7.8775912451
 20
-13.6587073742
 10
7.9732592082
 20
-13.8562584228
 10
8.0634211061
 20
-14.0558030604
 10
8.1475182322
 20
-14.2561050824
 10
8.2255130446
 20
-14.4571695694
 10
8.2974430851
 20
-14.6589914409
 10
8.3628622726
 20
-14.8603192512
 10
8.421730073
 20
-15.0611499523
 10
8.4740870204
 20
-15.2614865922
 10
8.5196086355
 20
-15.4600868698
 10
8.5582523413
 20
-15.6569400068
 10
8.5900607147
 20
-15.8520567813
 10
8.6148370075
 20
-16.0442272265
 10
8.6325156369
 20
-16.23304802
 10
8.6431621857
 20
-16.4189224841
 10
8.6467766539
 20
-16.6018506189
  0
LWPOLYLINE
  5
2A6
100
AcDbEntity
  8
0
100
AcDbPolyline
 62
7
  6
CONTINUOUS
 90
36
 70
0
 10
21.1268799108
 20
-19.8478572657
 10
21.2053857365
 20
-19.8942076846
 10
21.3612482411
 20
-19.9923778542
 10
21.5166232776
 20
-20.0984944061
 10
21.6715138779
 20
-20.2125083146
 10
21.8249602708
 20
-20.3337130914
 10
21.9769534753
 20
-20.4621533673
 10
22.1275024724
 20
-20.5977845113
 10
22.2756744333
 20
-20.739766142
 10
22.421454629
 20
-20.8881377185
 10
22.5648577885
 20
-21.0428597816
 10
22.7049952694
 20
-21.2029735727
 10
22.8418468344
 20
-21.3685126452
 10
22.9754327208
 20
-21.5394434456
 10
23.1049249983
 20
-21.7147065549
 10
23.2302981791
 20
-21.8943288013
 10
23.3515777511
 20
-22.0782833566
 10
23.468012248
 20
-22.2654303169
 10
23.5795715111
 20
-22.4557893196
 10
23.686285699
 20
-22.6493407274
 10
23.7874938218
 20
-22.8448857241
 10
23.8831617849
 20
-23.0424367727
 10
23.9733236828
 20
-23.2419814102
 10
24.0574208089
 20
-23.4422834323
 10
24.1354156213
 20
-23.6433479193
 10
24.2073456618
 20
-23.8451697907
 10
24.2727648493
 20
-24.0464976011
 10
24.3316326497
 20
-24.2473283022
 10
24.3839895971
 20
-24.4476649421
 10
24.4295112122
 20
-24.6462652197
 10
24.4681549179
 20
-24.8431183566
 10
24.4999632914
 20
-25.0382351312
 10
24.5247395842
 20
-25.2304055764
 10
24.5424182136
 20
-25.4192263699
 10
24.5530647624
 20
-25.605100834
 10
24.5566792306
 20
-25.7880289687
  0
LWPOLYLINE
  5
2A7
100
AcDbEntity
  8
ASSI
100
AcDbPolyline
 62
7
  6
CONTINUOUS
 90
36
 70
0
 10
21.1268799108
 20
-19.8478572657
 10
21.2053857365
 20
-19.8942076846
 10
21.3612482411
 20
-19.9923778542
 10
21.5166232776
 20
-20.0984944061
 10
21.6715138779
 20
-20.2125083146
 10
21.8249602708
 20
-20.3337130914
 10
21.9769534753
 20
-20.4621533673
 10
22.1275024724
 20
-20.5977845113
 10
22.2756744333
 20
-20.739766142
 10
22.421454629
 20
-20.8881377185
 10
22.5648577885
 20
-21.0428597816
 10
22.7049952694
 20
-21.2029735727
 10
22.8418468344
 20
-21.3685126452
 10
22.9754327208
 20
-21.5394434456
 10
23.1049249983
 20
-21.7147065549
 10
23.2302981791
 20
-21.8943288013
 10
23.3515777511
 20
-22.0782833566
 10
23.468012248
 20
-22.2654303169
 10
23.5795715111
 20
-22.4557893196
 10
23.686285699
 20
-22.6493407274
 10
23.7874938218
 20
-22.8448857241
 10
23.8831617849
 20
-23.0424367727
 10
23.9733236828
 20
-23.2419814102
 10
24.0574208089
 20
-23.4422834323
 10
24.1354156213
 20
-23.6433479193
 10
24.2073456618
 20
-23.8451697907
 10
24.2727648493
 20
-24.0464976011
 10
24.3316326497
 20
-24.2473283022
 10
24.3839895971
 20
-24.4476649421
 10
24.4295112122
 20
-24.6462652197
 10
24.4681549179
 20
-24.8431183566
 10
24.4999632914
 20
-25.0382351312
 10
24.5247395842
 20
-25.2304055764
 10
24.5424182136
 20
-25.4192263699
 10
24.5530647624
 20
-25.605100834
 10
24.5566792306
 20
-25.7880289687
  0
LWPOLYLINE
  5
2A8
100
AcDbEntity
  8
0
100
AcDbPolyline
 62
7
  6
CONTINUOUS
 90
13
 70
0
 10
3.9483817851
 20
6.2731863027
 10
3.8970674127
 20
6.2055760625
 10
3.8268000654
 20
6.0975596519
 10
3.7628614069
 20
5.9825519102
 10
3.7052943817
 20
5.8605053961
 10
3.6540560452
 20
5.7314675509
 10
3.609493301
 20
5.5963120112
 10
3.5716514477
 20
5.4549972642
 10
3.5404851867
 20
5.3075648228
 10
3.5162055257
 20
5.1550128623
 10
3.4988828008
 20
4.9976741077
 10
3.488446676
 20
4.8352158341
 10
3.4848971512
 20
4.6676380413
  0
LWPOLYLINE
  5
2A9
100
AcDbEntity
  8
ASSI
100
AcDbPolyline
 62
7
  6
CONTINUOUS
 90
13
 70
0
 10
3.9483817851
 20
6.2731863027
 10
3.8970674127
 20
6.2055760625
 10
3.8268000654
 20
6.0975596519
 10
3.7628614069
 20
5.9825519102
 10
3.7052943817
 20
5.8605053961
 10
3.6540560452
 20
5.7314675509
 10
3.609493301
 20
5.5963120112
 10
3.5716514477
 20
5.4549972642
 10
3.5404851867
 20
5.3075648228
 10
3.5162055257
 20
5.1550128623
 10
3.4988828008
 20
4.9976741077
 10
3.488446676
 20
4.8352158341
 10
3.4848971512
 20
4.6676380413
  0
LWPOLYLINE
  5
2AA
100
AcDbEntity
  8
0
100
AcDbPolyline
 62
7
  6
CONTINUOUS
 90
16
 70
0
 10
-12.5141455176
 20
-1.4642533677
 10
-12.4616893501
 20
-1.4353928253
 10
-12.3533613981
 20
-1.3842301436
 10
-12.2404700063
 20
-1.3417825476
 10
-12.1232709548
 20
-1.3081462838
 10
-12.0020297823
 20
-1.2833976143
 10
-11.8770211125
 20
-1.2675926418
 10
-11.7485281368
 20
-1.2607672138
 10
-11.6168420471
 20
-1.2629368261
 10
-11.4822611911
 20
-1.2740965752
 10
-11.3450904118
 20
-1.2942211947
 10
-11.2056404782
 20
-1.3232651031
 10
-11.0642273033
 20
-1.3611625125
 10
-10.9211712367
 20
-1.4078275813
 10
-10.776796365
 20
-1.4631546004
 10
-10.6314297426
 20
-1.5270182455
  0
LWPOLYLINE
  5
2AB
100
AcDbEntity
  8
ASSI
100
AcDbPolyline
 62
7
  6
CONTINUOUS
 90
16
 70
0
 10
-12.5141455176
 20
-1.4642533677
 10
-12.4616893501
 20
-1.4353928253
 10
-12.3533613981
 20
-1.3842301436
 10
-12.2404700063
 20
-1.3417825476
 10
-12.1232709548
 20
-1.3081462838
 10
-12.0020297823
 20
-1.2833976143
 10
-11.8770211125
 20
-1.2675926418
 10
-11.7485281368
 20
-1.2607672138
 10
-11.6168420471
 20
-1.2629368261
 10
-11.4822611911
 20
-1.2740965752
 10
-11.3450904118
 20
-1.2942211947
 10
-11.2056404782
 20
-1.3232651031
 10
-11.0642273033
 20
-1.3611625125
 10
-10.9211712367
 20
-1.4078275813
 10
-10.776796365
 20
-1.4631546004
 10
-10.6314297426
 20
-1.5270182455
  0
LWPOLYLINE
  5
2AC
100
AcDbEntity
  8
0
100
AcDbPolyline
 62
7
  6
CONTINUOUS
 90
16
 70
0
 10
3.3957570591
 20
6.0872089567
 10
3.4482132266
 20
6.1160694991
 10
3.5565411786
 20
6.1672321808
 10
3.6694325704
 20
6.2096797768
 10
3.7866316219
 20
6.2433160405
 10
3.9078727944
 20
6.2680647101
 10
4.0328814642
 20
6.2838696826
 10
4.1613744399
 20
6.2906951106
 10
4.2930605296
 20
6.2885254983
 10
4.4276413856
 20
6.2773657491
 10
4.5648121649
 20
6.2572411297
 10
4.7042620985
 20
6.2281972213
 10
4.8456752734
 20
6.1902998118
 10
4.98873134
 20
6.143634743
 10
5.1331062117
 20
6.088307724
 10
5.2784728341
 20
6.0244440789
  0
LWPOLYLINE
  5
2AD
100
AcDbEntity
  8
ASSI
100
AcDbPolyline
 62
7
  6
CONTINUOUS
 90
16
 70
0
 10
3.3957570591
 20
6.0872089567
 10
3.4482132266
 20
6.1160694991
 10
3.5565411786
 20
6.1672321808
 10
3.6694325704
 20
6.2096797768
 10
3.7866316219
 20
6.2433160405
 10
3.9078727944
 20
6.2680647101
 10
4.0328814642
 20
6.2838696826
 10
4.1613744399
 20
6.2906951106
 10
4.2930605296
 20
6.2885254983
 10
4.4276413856
 20
6.2773657491
 10
4.5648121649
 20
6.2572411297
 10
4.7042620985
 20
6.2281972213
 10
4.8456752734
 20
6.1902998118
 10
4.98873134
 20
6.143634743
 10
5.1331062117
 20
6.088307724
 10
5.2784728341
 20
6.0244440789
  0
LINE
  5
2AE
100
AcDbEntity
  8
0
100
AcDbLine
 62
7
  6
CONTINUOUS
 10
-26.5413323193
 20
7.6591601044
 11
-26.4237355339
 21
7.600972873
  0
LINE
  5
2AF
100
AcDbEntity
  8
ASSI
100
AcDbLine
 62
7
  6
CONTINUOUS
 10
-26.5413323193
 20
7.6591601044
 11
-26.4237355339
 21
7.600972873
  0
LWPOLYLINE
  5
2B0
100
AcDbEntity
  8
0
100
AcDbPolyline
 62
7
  6
CONTINUOUS
 90
46
 70
0
 10
3.4848971512
 20
-12.0700026329
 10
3.488446676
 20
-12.2416793279
 10
3.4988828008
 20
-12.4161889769
 10
3.5162055257
 20
-12.5935315799
 10
3.5404851867
 20
-12.7741210843
 10
3.5716514477
 20
-12.9575435428
 10
3.609493301
 20
-13.1425571134
 10
3.6540560452
 20
-13.3291725931
 10
3.7052943817
 20
-13.517379185
 10
3.7628614069
 20
-13.7059026567
 10
3.8268000654
 20
-13.8947451587
 10
3.8970674127
 20
-14.0839045405
 10
3.9731877111
 20
-14.2721001192
 10
4.0552006773
 20
-14.4593253547
 10
4.1430665947
 20
-14.645586787
 10
4.2361905767
 20
-14.8296233533
 10
4.3346083029
 20
-15.0114199564
 10
4.4382840938
 20
-15.1909916935
 10
4.5465160236
 20
-15.3671227937
 10
4.6593350089
 20
-15.5397899098
 10
4.7767101331
 20
-15.709016389
 10
4.8978467207
 20
-15.8736565018
 10
5.0227702958
 20
-16.0336791264
 10
5.1514553343
 20
-16.1891153846
 10
5.2830305882
 20
-16.3389129121
 10
5.4175156694
 20
-16.483033446
 10
5.5548909659
 20
-16.6215152492
 10
5.6942263932
 20
-16.7534207456
 10
5.8355352521
 20
-16.8787053104
 10
5.9788042418
 20
-16.9974135685
 10
6.1230633751
 20
-17.1087418184
 10
6.2683193708
 20
-17.2126399816
 10
6.4145655101
 20
-17.3091581367
 10
6.5608116494
 20
-17.3976428179
 10
6.7070577887
 20
-17.4780395126
 10
6.853303928
 20
-17.5504027334
 10
6.9985599237
 20
-17.6142425531
 10
7.142819057
 20
-17.6695011343
 10
7.2860880467
 20
-17.7162363143
 10
7.4273969056
 20
-17.7541316778
 10
7.5667323329
 20
-17.7831272402
 10
7.7041076294
 20
-17.803282986
 10
7.8385927106
 20
-17.8144624529
 10
7.9701679644
 20
-17.8166047305
 10
8.098853003
 20
-17.8097707291
 10
8.1833127597
 20
-17.7991128164
  0
LWPOLYLINE
  5
2B1
100
AcDbEntity
  8
ASSI
100
AcDbPolyline
 62
7
  6
CONTINUOUS
 90
46
 70
0
 10
3.4848971512
 20
-12.0700026329
 10
3.488446676
 20
-12.2416793279
 10
3.4988828008
 20
-12.4161889769
 10
3.5162055257
 20
-12.5935315799
 10
3.5404851867
 20
-12.7741210843
 10
3.5716514477
 20
-12.9575435428
 10
3.609493301
 20
-13.1425571134
 10
3.6540560452
 20
-13.3291725931
 10
3.7052943817
 20
-13.517379185
 10
3.7628614069
 20
-13.7059026567
 10
3.8268000654
 20
-13.8947451587
 10
3.8970674127
 20
-14.0839045405
 10
3.9731877111
 20
-14.2721001192
 10
4.0552006773
 20
-14.4593253547
 10
4.1430665947
 20
-14.645586787
 10
4.2361905767
 20
-14.8296233533
 10
4.3346083029
 20
-15.0114199564
 10
4.4382840938
 20
-15.1909916935
 10
4.5465160236
 20
-15.3671227937
 10
4.6593350089
 20
-15.5397899098
 10
4.7767101331
 20
-15.709016389
 10
4.8978467207
 20
-15.8736565018
 10
5.0227702958
 20
-16.0336791264
 10
5.1514553343
 20
-16.1891153846
 10
5.2830305882
 20
-16.3389129121
 10
5.4175156694
 20
-16.483033446
 10
5.5548909659
 20
-16.6215152492
 10
5.6942263932
 20
-16.7534207456
 10
5.8355352521
 20
-16.8787053104
 10
5.9788042418
 20
-16.9974135685
 10
6.1230633751
 20
-17.1087418184
 10
6.2683193708
 20
-17.2126399816
 10
6.4145655101
 20
-17.3091581367
 10
6.5608116494
 20
-17.3976428179
 10
6.7070577887
 20
-17.4780395126
 10
6.853303928
 20
-17.5504027334
 10
6.9985599237
 20
-17.6142425531
 10
7.142819057
 20
-17.6695011343
 10
7.2860880467
 20
-17.7162363143
 10
7.4273969056
 20
-17.7541316778
 10
7.5667323329
 20
-17.7831272402
 10
7.7041076294
 20
-17.803282986
 10
7.8385927106
 20
-17.8144624529
 10
7.9701679644
 20
-17.8166047305
 10
8.098853003
 20
-17.8097707291
 10
8.1833127597
 20
-17.7991128164
  0
LWPOLYLINE
  5
2B2
100
AcDbEntity
  8
0
100
AcDbPolyline
 62
7
  6
CONTINUOUS
 90
46
 70
0
 10
3.4848971512
 20
4.6676380413
 10
3.488446676
 20
4.4959613464
 10
3.4988828008
 20
4.3214516974
 10
3.5162055257
 20
4.1441090943
 10
3.5404851867
 20
3.9635195899
 10
3.5716514477
 20
3.7800971315
 10
3.609493301
 20
3.5950835608
 10
3.6540560452
 20
3.4084680812
 10
3.7052943817
 20
3.2202614893
 10
3.7628614069
 20
3.0317380175
 10
3.8268000654
 20
2.8428955156
 10
3.8970674127
 20
2.6537361337
 10
3.9731877111
 20
2.465540555
 10
4.0552006773
 20
2.2783153196
 10
4.1430665947
 20
2.0920538873
 10
4.2361905767
 20
1.9080173209
 10
4.3346083029
 20
1.7262207179
 10
4.4382840938
 20
1.5466489808
 10
4.5465160236
 20
1.3705178806
 10
4.6593350089
 20
1.1978507644
 10
4.7767101331
 20
1.0286242852
 10
4.8978467207
 20
0.8639841725
 10
5.0227702958
 20
0.7039615478
 10
5.1514553343
 20
0.5485252896
 10
5.2830305882
 20
0.3987277622
 10
5.4175156694
 20
0.2546072283
 10
5.5548909659
 20
0.1161254251
 10
5.6942263932
 20
-0.0157800714
 10
5.8355352521
 20
-0.1410646362
 10
5.9788042418
 20
-0.2597728942
 10
6.1230633751
 20
-0.3711011441
 10
6.2683193708
 20
-0.4749993074
 10
6.4145655101
 20
-0.5715174624
 10
6.5608116494
 20
-0.6600021437
 10
6.7070577887
 20
-0.7403988383
 10
6.853303928
 20
-0.8127620591
 10
6.9985599237
 20
-0.8766018788
 10
7.142819057
 20
-0.93186046
 10
7.2860880467
 20
-0.9785956401
 10
7.4273969056
 20
-1.0164910035
 10
7.5667323329
 20
-1.0454865659
 10
7.7041076294
 20
-1.0656423117
 10
7.8385927106
 20
-1.0768217786
 10
7.9701679644
 20
-1.0789640562
 10
8.098853003
 20
-1.0721300549
 10
8.1833127597
 20
-1.0614721421
  0
LWPOLYLINE
  5
2B3
100
AcDbEntity
  8
ASSI
100
AcDbPolyline
 62
7
  6
CONTINUOUS
 90
46
 70
0
 10
3.4848971512
 20
4.6676380413
 10
3.488446676
 20
4.4959613464
 10
3.4988828008
 20
4.3214516974
 10
3.5162055257
 20
4.1441090943
 10
3.5404851867
 20
3.9635195899
 10
3.5716514477
 20
3.7800971315
 10
3.609493301
 20
3.5950835608
 10
3.6540560452
 20
3.4084680812
 10
3.7052943817
 20
3.2202614893
 10
3.7628614069
 20
3.0317380175
 10
3.8268000654
 20
2.8428955156
 10
3.8970674127
 20
2.6537361337
 10
3.9731877111
 20
2.465540555
 10
4.0552006773
 20
2.2783153196
 10
4.1430665947
 20
2.0920538873
 10
4.2361905767
 20
1.9080173209
 10
4.3346083029
 20
1.7262207179
 10
4.4382840938
 20
1.5466489808
 10
4.5465160236
 20
1.3705178806
 10
4.6593350089
 20
1.1978507644
 10
4.7767101331
 20
1.0286242852
 10
4.8978467207
 20
0.8639841725
 10
5.0227702958
 20
0.7039615478
 10
5.1514553343
 20
0.5485252896
 10
5.2830305882
 20
0.3987277622
 10
5.4175156694
 20
0.2546072283
 10
5.5548909659
 20
0.1161254251
 10
5.6942263932
 20
-0.0157800714
 10
5.8355352521
 20
-0.1410646362
 10
5.9788042418
 20
-0.2597728942
 10
6.1230633751
 20
-0.3711011441
 10
6.2683193708
 20
-0.4749993074
 10
6.4145655101
 20
-0.5715174624
 10
6.5608116494
 20
-0.6600021437
 10
6.7070577887
 20
-0.7403988383
 10
6.853303928
 20
-0.8127620591
 10
6.9985599237
 20
-0.8766018788
 10
7.142819057
 20
-0.93186046
 10
7.2860880467
 20
-0.9785956401
 10
7.4273969056
 20
-1.0164910035
 10
7.5667323329
 20
-1.0454865659
 10
7.7041076294
 20
-1.0656423117
 10
7.8385927106
 20
-1.0768217786
 10
7.9701679644
 20
-1.0789640562
 10
8.098853003
 20
-1.0721300549
 10
8.1833127597
 20
-1.0614721421
  0
LWPOLYLINE
  5
2B4
100
AcDbEntity
  8
0
100
AcDbPolyline
 62
7
  6
CONTINUOUS
 90
36
 70
0
 10
1.7878408764
 20
4.0960536107
 10
1.7914553593
 20
4.2748081804
 10
1.8021019473
 20
4.4483885839
 10
1.8197806405
 20
4.6167948212
 10
1.8445570292
 20
4.7803544962
 10
1.8763655231
 20
4.938740005
 10
1.9150093509
 20
5.0909685361
 10
1.9605310884
 20
5.2370016783
 10
2.0128881598
 20
5.3768778429
 10
2.0717560675
 20
5.5097294524
 10
2.1371753388
 20
5.6355127429
 10
2.2091054464
 20
5.7542714783
 10
2.2871003098
 20
5.865269373
 10
2.3711974617
 20
5.9684579971
 10
2.4613593695
 20
6.0638857805
 10
2.5570273551
 20
6.1509617263
 10
2.6582355234
 20
6.2296340146
 10
2.7649497696
 20
6.2999544655
 10
2.8765091006
 20
6.3614875415
 10
2.992943681
 20
6.414178776
 10
3.1142233462
 20
6.4580826357
 10
3.2395966096
 20
6.4929269833
 10
3.3690889525
 20
6.5186555533
 10
3.5026748937
 20
6.5353246113
 10
3.6395265028
 20
6.5428308173
 10
3.7796640139
 20
6.5411172498
 10
3.923067193
 20
6.5302408303
 10
4.0688474071
 20
6.5102689833
 10
4.2170193877
 20
6.4811452422
 10
4.3675684033
 20
6.4429260736
 10
4.5195616259
 20
6.3958483023
 10
4.6730080387
 20
6.3398569251
 10
4.8278986585
 20
6.2750069452
 10
4.9832737087
 20
6.2017001963
 10
5.1391362191
 20
6.1198841524
 10
5.2169773341
 20
6.0759617584
  0
LWPOLYLINE
  5
2B5
100
AcDbEntity
  8
ASSI
100
AcDbPolyline
 62
7
  6
CONTINUOUS
 90
36
 70
0
 10
1.7878408764
 20
4.0960536107
 10
1.7914553593
 20
4.2748081804
 10
1.8021019473
 20
4.4483885839
 10
1.8197806405
 20
4.6167948212
 10
1.8445570292
 20
4.7803544962
 10
1.8763655231
 20
4.938740005
 10
1.9150093509
 20
5.0909685361
 10
1.9605310884
 20
5.2370016783
 10
2.0128881598
 20
5.3768778429
 10
2.0717560675
 20
5.5097294524
 10
2.1371753388
 20
5.6355127429
 10
2.2091054464
 20
5.7542714783
 10
2.2871003098
 20
5.865269373
 10
2.3711974617
 20
5.9684579971
 10
2.4613593695
 20
6.0638857805
 10
2.5570273551
 20
6.1509617263
 10
2.6582355234
 20
6.2296340146
 10
2.7649497696
 20
6.2999544655
 10
2.8765091006
 20
6.3614875415
 10
2.992943681
 20
6.414178776
 10
3.1142233462
 20
6.4580826357
 10
3.2395966096
 20
6.4929269833
 10
3.3690889525
 20
6.5186555533
 10
3.5026748937
 20
6.5353246113
 10
3.6395265028
 20
6.5428308173
 10
3.7796640139
 20
6.5411172498
 10
3.923067193
 20
6.5302408303
 10
4.0688474071
 20
6.5102689833
 10
4.2170193877
 20
6.4811452422
 10
4.3675684033
 20
6.4429260736
 10
4.5195616259
 20
6.3958483023
 10
4.6730080387
 20
6.3398569251
 10
4.8278986585
 20
6.2750069452
 10
4.9832737087
 20
6.2017001963
 10
5.1391362191
 20
6.1198841524
 10
5.2169773341
 20
6.0759617584
  0
LWPOLYLINE
  5
2B6
100
AcDbEntity
  8
0
100
AcDbPolyline
 62
7
  6
CONTINUOUS
 90
36
 70
0
 10
1.7878408764
 20
-12.6415870636
 10
1.7914553593
 20
-12.4628324939
 10
1.8021019473
 20
-12.2892520904
 10
1.8197806405
 20
-12.1208458531
 10
1.8445570292
 20
-11.9572861781
 10
1.8763655231
 20
-11.7989006693
 10
1.9150093509
 20
-11.6466721381
 10
1.9605310884
 20
-11.5006389959
 10
2.0128881598
 20
-11.3607628313
 10
2.0717560675
 20
-11.2279112218
 10
2.1371753388
 20
-11.1021279313
 10
2.2091054464
 20
-10.9833691959
 10
2.2871003098
 20
-10.8723713013
 10
2.3711974617
 20
-10.7691826771
 10
2.4613593695
 20
-10.6737548938
 10
2.5570273551
 20
-10.586678948
 10
2.6582355234
 20
-10.5080066596
 10
2.7649497696
 20
-10.4376862088
 10
2.8765091006
 20
-10.3761531328
 10
2.992943681
 20
-10.3234618983
 10
3.1142233462
 20
-10.2795580386
 10
3.2395966096
 20
-10.2447136909
 10
3.3690889525
 20
-10.2189851209
 10
3.5026748937
 20
-10.202316063
 10
3.6395265028
 20
-10.194809857
 10
3.7796640139
 20
-10.1965234245
 10
3.923067193
 20
-10.207399844
 10
4.0688474071
 20
-10.2273716909
 10
4.2170193877
 20
-10.256495432
 10
4.3675684033
 20
-10.2947146006
 10
4.5195616259
 20
-10.341792372
 10
4.6730080387
 20
-10.3977837491
 10
4.8278986585
 20
-10.4626337291
 10
4.9832737087
 20
-10.5359404779
 10
5.1391362191
 20
-10.6177565219
 10
5.2169773341
 20
-10.6616789158
  0
LWPOLYLINE
  5
2B7
100
AcDbEntity
  8
ASSI
100
AcDbPolyline
 62
7
  6
CONTINUOUS
 90
36
 70
0
 10
1.7878408764
 20
-12.6415870636
 10
1.7914553593
 20
-12.4628324939
 10
1.8021019473
 20
-12.2892520904
 10
1.8197806405
 20
-12.1208458531
 10
1.8445570292
 20
-11.9572861781
 10
1.8763655231
 20
-11.7989006693
 10
1.9150093509
 20
-11.6466721381
 10
1.9605310884
 20
-11.5006389959
 10
2.0128881598
 20
-11.3607628313
 10
2.0717560675
 20
-11.2279112218
 10
2.1371753388
 20
-11.1021279313
 10
2.2091054464
 20
-10.9833691959
 10
2.2871003098
 20
-10.8723713013
 10
2.3711974617
 20
-10.7691826771
 10
2.4613593695
 20
-10.6737548938
 10
2.5570273551
 20
-10.586678948
 10
2.6582355234
 20
-10.5080066596
 10
2.7649497696
 20
-10.4376862088
 10
2.8765091006
 20
-10.3761531328
 10
2.992943681
 20
-10.3234618983
 10
3.1142233462
 20
-10.2795580386
 10
3.2395966096
 20
-10.2447136909
 10
3.3690889525
 20
-10.2189851209
 10
3.5026748937
 20
-10.202316063
 10
3.6395265028
 20
-10.194809857
 10
3.7796640139
 20
-10.1965234245
 10
3.923067193
 20
-10.207399844
 10
4.0688474071
 20
-10.2273716909
 10
4.2170193877
 20
-10.256495432
 10
4.3675684033
 20
-10.2947146006
 10
4.5195616259
 20
-10.341792372
 10
4.6730080387
 20
-10.3977837491
 10
4.8278986585
 20
-10.4626337291
 10
4.9832737087
 20
-10.5359404779
 10
5.1391362191
 20
-10.6177565219
 10
5.2169773341
 20
-10.6616789158
  0
LWPOLYLINE
  5
2B8
100
AcDbEntity
  8
0
100
AcDbPolyline
 62
7
  6
CONTINUOUS
 90
18
 70
0
 10
2.4949476576
 20
4.0960536107
 10
2.498431096
 20
4.2630235921
 10
2.5088737075
 20
4.4255949444
 10
2.5262521175
 20
4.5833992534
 10
2.5505272998
 20
4.7360792059
 10
2.5816445119
 20
4.8832883939
 10
2.6195332689
 20
5.024692223
 10
2.6641078516
 20
5.1599701746
 10
2.7152674422
 20
5.2888157643
 10
2.7728959938
 20
5.4109364205
 10
2.8368629536
 20
5.5260553808
 10
2.9070234911
 20
5.6339119028
 10
2.9832184943
 20
5.7342613489
 10
3.0652752347
 20
5.8268762915
 10
3.1530079111
 20
5.9115470761
 10
3.2462178866
 20
5.9880819978
 10
3.3446940142
 20
6.0563076606
 10
3.3957570591
 20
6.0872089567
  0
LWPOLYLINE
  5
2B9
100
AcDbEntity
  8
ASSI
100
AcDbPolyline
 62
7
  6
CONTINUOUS
 90
18
 70
0
 10
2.4949476576
 20
4.0960536107
 10
2.498431096
 20
4.2630235921
 10
2.5088737075
 20
4.4255949444
 10
2.5262521175
 20
4.5833992534
 10
2.5505272998
 20
4.7360792059
 10
2.5816445119
 20
4.8832883939
 10
2.6195332689
 20
5.024692223
 10
2.6641078516
 20
5.1599701746
 10
2.7152674422
 20
5.2888157643
 10
2.7728959938
 20
5.4109364205
 10
2.8368629536
 20
5.5260553808
 10
2.9070234911
 20
5.6339119028
 10
2.9832184943
 20
5.7342613489
 10
3.0652752347
 20
5.8268762915
 10
3.1530079111
 20
5.9115470761
 10
3.2462178866
 20
5.9880819978
 10
3.3446940142
 20
6.0563076606
 10
3.3957570591
 20
6.0872089567
  0
LWPOLYLINE
  5
2BA
100
AcDbEntity
  8
0
100
AcDbPolyline
 62
7
  6
CONTINUOUS
 90
18
 70
0
 10
2.4949476576
 20
-12.6415870636
 10
2.498431096
 20
-12.4746170821
 10
2.5088737075
 20
-12.3120457299
 10
2.5262521175
 20
-12.1542414209
 10
2.5505272998
 20
-12.0015614684
 10
2.5816445119
 20
-11.8543522804
 10
2.6195332689
 20
-11.7129484513
 10
2.6641078516
 20
-11.5776704996
 10
2.7152674422
 20
-11.4488249099
 10
2.7728959938
 20
-11.3267042537
 10
2.8368629536
 20
-11.2115852934
 10
2.9070234911
 20
-11.1037287714
 10
2.9832184943
 20
-11.0033793254
 10
3.0652752347
 20
-10.9107643828
 10
3.1530079111
 20
-10.8260935981
 10
3.2462178866
 20
-10.7495586765
 10
3.3446940142
 20
-10.6813330137
 10
3.3957570591
 20
-10.6504317176
  0
LWPOLYLINE
  5
2BB
100
AcDbEntity
  8
ASSI
100
AcDbPolyline
 62
7
  6
CONTINUOUS
 90
18
 70
0
 10
2.4949476576
 20
-12.6415870636
 10
2.498431096
 20
-12.4746170821
 10
2.5088737075
 20
-12.3120457299
 10
2.5262521175
 20
-12.1542414209
 10
2.5505272998
 20
-12.0015614684
 10
2.5816445119
 20
-11.8543522804
 10
2.6195332689
 20
-11.7129484513
 10
2.6641078516
 20
-11.5776704996
 10
2.7152674422
 20
-11.4488249099
 10
2.7728959938
 20
-11.3267042537
 10
2.8368629536
 20
-11.2115852934
 10
2.9070234911
 20
-11.1037287714
 10
2.9832184943
 20
-11.0033793254
 10
3.0652752347
 20
-10.9107643828
 10
3.1530079111
 20
-10.8260935981
 10
3.2462178866
 20
-10.7495586765
 10
3.3446940142
 20
-10.6813330137
 10
3.3957570591
 20
-10.6504317176
  0
LWPOLYLINE
  5
2BC
100
AcDbEntity
  8
0
100
AcDbPolyline
 62
7
  6
CONTINUOUS
 90
51
 70
0
 10
-8.1639353244
 20
-8.9985530216
 10
-8.2163914918
 20
-9.0274135641
 10
-8.3247194439
 20
-9.0785762458
 10
-8.4376108356
 20
-9.1210238418
 10
-8.5548098871
 20
-9.1546601055
 10
-8.6760510596
 20
-9.1794087751
 10
-8.8010597294
 20
-9.1952137475
 10
-8.9295527051
 20
-9.2020391755
 10
-9.0612387948
 20
-9.1998695632
 10
-9.1958196508
 20
-9.1887098141
 10
-9.3329904301
 20
-9.1685851946
 10
-9.4724403638
 20
-9.1395412863
 10
-9.6138535386
 20
-9.1016438768
 10
-9.7569096052
 20
-9.054978808
 10
-9.9012844769
 20
-8.9996517889
 10
-10.0466510994
 20
-8.9357881439
 10
-10.1926801475
 20
-8.8635325461
 10
-10.3390407617
 20
-8.783048702
 10
-10.4854013756
 20
-8.6945189402
 10
-10.6314304232
 20
-8.5981438163
 10
-10.776797045
 20
-8.494141692
 10
-10.9211719157
 20
-8.3827481905
 10
-11.0642279811
 20
-8.2642156613
 10
-11.2056411553
 20
-8.1388126417
 10
-11.3450910902
 20
-8.0068232199
 10
-11.4822618708
 20
-7.8685464179
 10
-11.616842725
 20
-7.7242955257
 10
-11.7485288087
 20
-7.5743973034
 10
-11.8770217754
 20
-7.4191913712
 10
-12.0020304326
 20
-7.2590294868
 10
-12.1232715869
 20
-7.0942745237
 10
-12.240470617
 20
-6.9252997104
 10
-12.3533619907
 20
-6.7524879371
 10
-12.4616899273
 20
-6.576230818
 10
-12.5652091264
 20
-6.3969275482
 10
-12.6636852468
 20
-6.2149840667
 10
-12.7568952246
 20
-6.0308125214
 10
-12.8446279059
 20
-5.8448301447
 10
-12.9266846435
 20
-5.6574580432
 10
-13.0028796378
 20
-5.4691204263
 10
-13.0730401586
 20
-5.2802441888
 10
-13.1370070839
 20
-5.091257739
 10
-13.1946355853
 20
-4.9025890716
 10
-13.2457951153
 20
-4.7146657024
 10
-13.2903696275
 20
-4.5279142251
 10
-13.3282583085
 20
-4.3427575509
 10
-13.359375446
 20
-4.1596151758
 10
-13.3836505617
 20
-3.9789030802
 10
-13.401028918
 20
-3.8010308821
 10
-13.4114714937
 20
-3.6264009593
 10
-13.4149549191
 20
-3.4554087137
  0
LWPOLYLINE
  5
2BD
100
AcDbEntity
  8
ASSI
100
AcDbPolyline
 62
7
  6
CONTINUOUS
 90
51
 70
0
 10
-8.1639353244
 20
-8.9985530216
 10
-8.2163914918
 20
-9.0274135641
 10
-8.3247194439
 20
-9.0785762458
 10
-8.4376108356
 20
-9.1210238418
 10
-8.5548098871
 20
-9.1546601055
 10
-8.6760510596
 20
-9.1794087751
 10
-8.8010597294
 20
-9.1952137475
 10
-8.9295527051
 20
-9.2020391755
 10
-9.0612387948
 20
-9.1998695632
 10
-9.1958196508
 20
-9.1887098141
 10
-9.3329904301
 20
-9.1685851946
 10
-9.4724403638
 20
-9.1395412863
 10
-9.6138535386
 20
-9.1016438768
 10
-9.7569096052
 20
-9.054978808
 10
-9.9012844769
 20
-8.9996517889
 10
-10.0466510994
 20
-8.9357881439
 10
-10.1926801475
 20
-8.8635325461
 10
-10.3390407617
 20
-8.783048702
 10
-10.4854013756
 20
-8.6945189402
 10
-10.6314304232
 20
-8.5981438163
 10
-10.776797045
 20
-8.494141692
 10
-10.9211719157
 20
-8.3827481905
 10
-11.0642279811
 20
-8.2642156613
 10
-11.2056411553
 20
-8.1388126417
 10
-11.3450910902
 20
-8.0068232199
 10
-11.4822618708
 20
-7.8685464179
 10
-11.616842725
 20
-7.7242955257
 10
-11.7485288087
 20
-7.5743973034
 10
-11.8770217754
 20
-7.4191913712
 10
-12.0020304326
 20
-7.2590294868
 10
-12.1232715869
 20
-7.0942745237
 10
-12.240470617
 20
-6.9252997104
 10
-12.3533619907
 20
-6.7524879371
 10
-12.4616899273
 20
-6.576230818
 10
-12.5652091264
 20
-6.3969275482
 10
-12.6636852468
 20
-6.2149840667
 10
-12.7568952246
 20
-6.0308125214
 10
-12.8446279059
 20
-5.8448301447
 10
-12.9266846435
 20
-5.6574580432
 10
-13.0028796378
 20
-5.4691204263
 10
-13.0730401586
 20
-5.2802441888
 10
-13.1370070839
 20
-5.091257739
 10
-13.1946355853
 20
-4.9025890716
 10
-13.2457951153
 20
-4.7146657024
 10
-13.2903696275
 20
-4.5279142251
 10
-13.3282583085
 20
-4.3427575509
 10
-13.359375446
 20
-4.1596151758
 10
-13.3836505617
 20
-3.9789030802
 10
-13.401028918
 20
-3.8010308821
 10
-13.4114714937
 20
-3.6264009593
 10
-13.4149549191
 20
-3.4554087137
  0
LWPOLYLINE
  5
2BE
100
AcDbEntity
  8
0
100
AcDbPolyline
 62
7
  6
CONTINUOUS
 90
51
 70
0
 10
7.7459672523
 20
-1.4470906973
 10
7.6935110849
 20
-1.4759512397
 10
7.5851831328
 20
-1.5271139214
 10
7.4722917411
 20
-1.5695615174
 10
7.3550926896
 20
-1.6031977811
 10
7.2338515171
 20
-1.6279464507
 10
7.1088428473
 20
-1.6437514232
 10
6.9803498716
 20
-1.6505768511
 10
6.8486637819
 20
-1.6484072389
 10
6.7140829259
 20
-1.6372474897
 10
6.5769121466
 20
-1.6171228703
 10
6.4374622129
 20
-1.5880789619
 10
6.2960490381
 20
-1.5501815524
 10
6.1529929715
 20
-1.5035164836
 10
6.0086180998
 20
-1.4481894646
 10
5.8632514773
 20
-1.3843258195
 10
5.7172224292
 20
-1.3120702217
 10
5.570861815
 20
-1.2315863776
 10
5.4245012011
 20
-1.1430566158
 10
5.2784721535
 20
-1.0466814919
 10
5.1331055317
 20
-0.9426793676
 10
4.988730661
 20
-0.8312858661
 10
4.8456745956
 20
-0.7127533369
 10
4.7042614214
 20
-0.5873503174
 10
4.5648114865
 20
-0.4553608956
 10
4.4276407059
 20
-0.3170840935
 10
4.2930598517
 20
-0.1728332013
 10
4.161373768
 20
-0.022934979
 10
4.0328808013
 20
0.1322709532
 10
3.9078721441
 20
0.2924328376
 10
3.7866309898
 20
0.4571878007
 10
3.6694319597
 20
0.626162614
 10
3.556540586
 20
0.7989743873
 10
3.4482126494
 20
0.9752315064
 10
3.3446934503
 20
1.1545347762
 10
3.2462173299
 20
1.3364782577
 10
3.1530073521
 20
1.5206498029
 10
3.0652746708
 20
1.7066321796
 10
2.9832179332
 20
1.8940042812
 10
2.9070229389
 20
2.0823418981
 10
2.8368624181
 20
2.2712181356
 10
2.7728954928
 20
2.4602045854
 10
2.7152669914
 20
2.6488732528
 10
2.6641074614
 20
2.836796622
 10
2.6195329492
 20
3.0235480993
 10
2.5816442682
 20
3.2087047735
 10
2.5505271307
 20
3.3918471486
 10
2.526252015
 20
3.5725592442
 10
2.5088736587
 20
3.7504314423
 10
2.498431083
 20
3.9250613651
 10
2.4949476576
 20
4.0960536107
  0
LWPOLYLINE
  5
2BF
100
AcDbEntity
  8
ASSI
100
AcDbPolyline
 62
7
  6
CONTINUOUS
 90
51
 70
0
 10
7.7459672523
 20
-1.4470906973
 10
7.6935110849
 20
-1.4759512397
 10
7.5851831328
 20
-1.5271139214
 10
7.4722917411
 20
-1.5695615174
 10
7.3550926896
 20
-1.6031977811
 10
7.2338515171
 20
-1.6279464507
 10
7.1088428473
 20
-1.6437514232
 10
6.9803498716
 20
-1.6505768511
 10
6.8486637819
 20
-1.6484072389
 10
6.7140829259
 20
-1.6372474897
 10
6.5769121466
 20
-1.6171228703
 10
6.4374622129
 20
-1.5880789619
 10
6.2960490381
 20
-1.5501815524
 10
6.1529929715
 20
-1.5035164836
 10
6.0086180998
 20
-1.4481894646
 10
5.8632514773
 20
-1.3843258195
 10
5.7172224292
 20
-1.3120702217
 10
5.570861815
 20
-1.2315863776
 10
5.4245012011
 20
-1.1430566158
 10
5.2784721535
 20
-1.0466814919
 10
5.1331055317
 20
-0.9426793676
 10
4.988730661
 20
-0.8312858661
 10
4.8456745956
 20
-0.7127533369
 10
4.7042614214
 20
-0.5873503174
 10
4.5648114865
 20
-0.4553608956
 10
4.4276407059
 20
-0.3170840935
 10
4.2930598517
 20
-0.1728332013
 10
4.161373768
 20
-0.022934979
 10
4.0328808013
 20
0.1322709532
 10
3.9078721441
 20
0.2924328376
 10
3.7866309898
 20
0.4571878007
 10
3.6694319597
 20
0.626162614
 10
3.556540586
 20
0.7989743873
 10
3.4482126494
 20
0.9752315064
 10
3.3446934503
 20
1.1545347762
 10
3.2462173299
 20
1.3364782577
 10
3.1530073521
 20
1.5206498029
 10
3.0652746708
 20
1.7066321796
 10
2.9832179332
 20
1.8940042812
 10
2.9070229389
 20
2.0823418981
 10
2.8368624181
 20
2.2712181356
 10
2.7728954928
 20
2.4602045854
 10
2.7152669914
 20
2.6488732528
 10
2.6641074614
 20
2.836796622
 10
2.6195329492
 20
3.0235480993
 10
2.5816442682
 20
3.2087047735
 10
2.5505271307
 20
3.3918471486
 10
2.526252015
 20
3.5725592442
 10
2.5088736587
 20
3.7504314423
 10
2.498431083
 20
3.9250613651
 10
2.4949476576
 20
4.0960536107
  0
LWPOLYLINE
  5
2C0
100
AcDbEntity
  8
0
100
AcDbPolyline
 62
7
  6
CONTINUOUS
 90
70
 70
0
 10
8.6467766539
 20
0.1357900554
 10
8.643162171
 20
-0.0429645143
 10
8.632515583
 20
-0.2165449178
 10
8.6148368898
 20
-0.3849511551
 10
8.5900605011
 20
-0.5485108301
 10
8.5582520072
 20
-0.7068963389
 10
8.5196081793
 20
-0.8591248701
 10
8.4740864419
 20
-1.0051580123
 10
8.4217293705
 20
-1.1450341768
 10
8.3628614628
 20
-1.2778857863
 10
8.2974421915
 20
-1.4036690768
 10
8.2255120839
 20
-1.5224278123
 10
8.1475172205
 20
-1.6334257069
 10
8.0634200686
 20
-1.736614331
 10
7.9732581608
 20
-1.8320421144
 10
7.8775901752
 20
-1.9191180602
 10
7.7763820068
 20
-1.9977903486
 10
7.6696677607
 20
-2.0681107994
 10
7.5581084297
 20
-2.1296438754
 10
7.4416738493
 20
-2.1823351099
 10
7.3203941841
 20
-2.2262389696
 10
7.1950209207
 20
-2.2610833173
 10
7.0655285778
 20
-2.2868118872
 10
6.9319426366
 20
-2.3034809452
 10
6.7950910275
 20
-2.3109871512
 10
6.6549535164
 20
-2.3092735837
 10
6.5115503373
 20
-2.2983971642
 10
6.3657701232
 20
-2.2784253173
 10
6.2175981426
 20
-2.2493015761
 10
6.067049127
 20
-2.2110824075
 10
5.9150559044
 20
-2.1640046362
 10
5.7616094916
 20
-2.108013259
 10
5.6067188718
 20
-2.0431632791
 10
5.4513438216
 20
-1.9698565302
 10
5.2954813112
 20
-1.8880404863
 10
5.1391343705
 20
-1.7977676734
 10
4.9832718659
 20
-1.6995975038
 10
4.8278968294
 20
-1.593480952
 10
4.6730062291
 20
-1.4794670434
 10
4.5195598362
 20
-1.3582622667
 10
4.3675666316
 20
-1.2298219908
 10
4.2170176345
 20
-1.0941908467
 10
4.0688456737
 20
-0.952209216
 10
3.923065478
 20
-0.8038376396
 10
3.7796623185
 20
-0.6491155764
 10
3.6395248376
 20
-0.4890017854
 10
3.5026732726
 20
-0.3234627129
 10
3.3690873862
 20
-0.1525319125
 10
3.2395951086
 20
0.0227311968
 10
3.1142219278
 20
0.2023534433
 10
2.9929423559
 20
0.3863079986
 10
2.876507859
 20
0.5734549589
 10
2.7649485959
 20
0.7638139616
 10
2.658234408
 20
0.9573653693
 10
2.5570262852
 20
1.1529103661
 10
2.4613583221
 20
1.3504614146
 10
2.3711964242
 20
1.5500060522
 10
2.2870992981
 20
1.7503080742
 10
2.2091044857
 20
1.9513725612
 10
2.1371744452
 20
2.1531944327
 10
2.0717552577
 20
2.354522243
 10
2.0128874573
 20
2.5553529441
 10
1.9605305099
 20
2.7556895841
 10
1.9150088948
 20
2.9542898616
 10
1.876365189
 20
3.1511429986
 10
1.8445568156
 20
3.3462597731
 10
1.8197805228
 20
3.5384302183
 10
1.8021018934
 20
3.7272510118
 10
1.7914553446
 20
3.9131254759
 10
1.7878408764
 20
4.0960536107
  0
LWPOLYLINE
  5
2C1
100
AcDbEntity
  8
ASSI
100
AcDbPolyline
 62
7
  6
CONTINUOUS
 90
70
 70
0
 10
8.6467766539
 20
0.1357900554
 10
8.643162171
 20
-0.0429645143
 10
8.632515583
 20
-0.2165449178
 10
8.6148368898
 20
-0.3849511551
 10
8.5900605011
 20
-0.5485108301
 10
8.5582520072
 20
-0.7068963389
 10
8.5196081793
 20
-0.8591248701
 10
8.4740864419
 20
-1.0051580123
 10
8.4217293705
 20
-1.1450341768
 10
8.3628614628
 20
-1.2778857863
 10
8.2974421915
 20
-1.4036690768
 10
8.2255120839
 20
-1.5224278123
 10
8.1475172205
 20
-1.6334257069
 10
8.0634200686
 20
-1.736614331
 10
7.9732581608
 20
-1.8320421144
 10
7.8775901752
 20
-1.9191180602
 10
7.7763820068
 20
-1.9977903486
 10
7.6696677607
 20
-2.0681107994
 10
7.5581084297
 20
-2.1296438754
 10
7.4416738493
 20
-2.1823351099
 10
7.3203941841
 20
-2.2262389696
 10
7.1950209207
 20
-2.2610833173
 10
7.0655285778
 20
-2.2868118872
 10
6.9319426366
 20
-2.3034809452
 10
6.7950910275
 20
-2.3109871512
 10
6.6549535164
 20
-2.3092735837
 10
6.5115503373
 20
-2.2983971642
 10
6.3657701232
 20
-2.2784253173
 10
6.2175981426
 20
-2.2493015761
 10
6.067049127
 20
-2.2110824075
 10
5.9150559044
 20
-2.1640046362
 10
5.7616094916
 20
-2.108013259
 10
5.6067188718
 20
-2.0431632791
 10
5.4513438216
 20
-1.9698565302
 10
5.2954813112
 20
-1.8880404863
 10
5.1391343705
 20
-1.7977676734
 10
4.9832718659
 20
-1.6995975038
 10
4.8278968294
 20
-1.593480952
 10
4.6730062291
 20
-1.4794670434
 10
4.5195598362
 20
-1.3582622667
 10
4.3675666316
 20
-1.2298219908
 10
4.2170176345
 20
-1.0941908467
 10
4.0688456737
 20
-0.952209216
 10
3.923065478
 20
-0.8038376396
 10
3.7796623185
 20
-0.6491155764
 10
3.6395248376
 20
-0.4890017854
 10
3.5026732726
 20
-0.3234627129
 10
3.3690873862
 20
-0.1525319125
 10
3.2395951086
 20
0.0227311968
 10
3.1142219278
 20
0.2023534433
 10
2.9929423559
 20
0.3863079986
 10
2.876507859
 20
0.5734549589
 10
2.7649485959
 20
0.7638139616
 10
2.658234408
 20
0.9573653693
 10
2.5570262852
 20
1.1529103661
 10
2.4613583221
 20
1.3504614146
 10
2.3711964242
 20
1.5500060522
 10
2.2870992981
 20
1.7503080742
 10
2.2091044857
 20
1.9513725612
 10
2.1371744452
 20
2.1531944327
 10
2.0717552577
 20
2.354522243
 10
2.0128874573
 20
2.5553529441
 10
1.9605305099
 20
2.7556895841
 10
1.9150088948
 20
2.9542898616
 10
1.876365189
 20
3.1511429986
 10
1.8445568156
 20
3.3462597731
 10
1.8197805228
 20
3.5384302183
 10
1.8021018934
 20
3.7272510118
 10
1.7914553446
 20
3.9131254759
 10
1.7878408764
 20
4.0960536107
  0
LWPOLYLINE
  5
2C2
100
AcDbEntity
  8
0
100
AcDbPolyline
 62
7
  6
CONTINUOUS
 90
70
 70
0
 10
8.6467766539
 20
-16.6018506189
 10
8.643162171
 20
-16.7806051885
 10
8.632515583
 20
-16.954185592
 10
8.6148368898
 20
-17.1225918294
 10
8.5900605011
 20
-17.2861515043
 10
8.5582520072
 20
-17.4445370131
 10
8.5196081793
 20
-17.5967655443
 10
8.4740864419
 20
-17.7427986865
 10
8.4217293705
 20
-17.8826748511
 10
8.3628614628
 20
-18.0155264606
 10
8.2974421915
 20
-18.1413097511
 10
8.2255120839
 20
-18.2600684865
 10
8.1475172205
 20
-18.3710663811
 10
8.0634200686
 20
-18.4742550053
 10
7.9732581608
 20
-18.5696827886
 10
7.8775901752
 20
-18.6567587344
 10
7.7763820068
 20
-18.7354310228
 10
7.6696677607
 20
-18.8057514736
 10
7.5581084297
 20
-18.8672845496
 10
7.4416738493
 20
-18.9199757841
 10
7.3203941841
 20
-18.9638796438
 10
7.1950209207
 20
-18.9987239915
 10
7.0655285778
 20
-19.0244525615
 10
6.9319426366
 20
-19.0411216195
 10
6.7950910275
 20
-19.0486278254
 10
6.6549535164
 20
-19.0469142579
 10
6.5115503373
 20
-19.0360378385
 10
6.3657701232
 20
-19.0160659915
 10
6.2175981426
 20
-18.9869422504
 10
6.067049127
 20
-18.9487230818
 10
5.9150559044
 20
-18.9016453104
 10
5.7616094916
 20
-18.8456539333
 10
5.6067188718
 20
-18.7808039534
 10
5.4513438216
 20
-18.7074972045
 10
5.2954813112
 20
-18.6256811606
 10
5.1391343705
 20
-18.5354083477
 10
4.9832718659
 20
-18.4372381781
 10
4.8278968294
 20
-18.3311216262
 10
4.6730062291
 20
-18.2171077177
 10
4.5195598362
 20
-18.0959029409
 10
4.3675666316
 20
-17.967462665
 10
4.2170176345
 20
-17.831831521
 10
4.0688456737
 20
-17.6898498903
 10
3.923065478
 20
-17.5414783138
 10
3.7796623185
 20
-17.3867562507
 10
3.6395248376
 20
-17.2266424596
 10
3.5026732726
 20
-17.0611033871
 10
3.3690873862
 20
-16.8901725867
 10
3.2395951086
 20
-16.7149094774
 10
3.1142219278
 20
-16.535287231
 10
2.9929423559
 20
-16.3513326757
 10
2.876507859
 20
-16.1641857154
 10
2.7649485959
 20
-15.9738267127
 10
2.658234408
 20
-15.7802753049
 10
2.5570262852
 20
-15.5847303082
 10
2.4613583221
 20
-15.3871792596
 10
2.3711964242
 20
-15.1876346221
 10
2.2870992981
 20
-14.9873326
 10
2.2091044857
 20
-14.786268113
 10
2.1371744452
 20
-14.5844462416
 10
2.0717552577
 20
-14.3831184312
 10
2.0128874573
 20
-14.1822877301
 10
1.9605305099
 20
-13.9819510902
 10
1.9150088948
 20
-13.7833508127
 10
1.876365189
 20
-13.5864976757
 10
1.8445568156
 20
-13.3913809011
 10
1.8197805228
 20
-13.1992104559
 10
1.8021018934
 20
-13.0103896624
 10
1.7914553446
 20
-12.8245151983
 10
1.7878408764
 20
-12.6415870636
  0
LWPOLYLINE
  5
2C3
100
AcDbEntity
  8
ASSI
100
AcDbPolyline
 62
7
  6
CONTINUOUS
 90
70
 70
0
 10
8.6467766539
 20
-16.6018506189
 10
8.643162171
 20
-16.7806051885
 10
8.632515583
 20
-16.954185592
 10
8.6148368898
 20
-17.1225918294
 10
8.5900605011
 20
-17.2861515043
 10
8.5582520072
 20
-17.4445370131
 10
8.5196081793
 20
-17.5967655443
 10
8.4740864419
 20
-17.7427986865
 10
8.4217293705
 20
-17.8826748511
 10
8.3628614628
 20
-18.0155264606
 10
8.2974421915
 20
-18.1413097511
 10
8.2255120839
 20
-18.2600684865
 10
8.1475172205
 20
-18.3710663811
 10
8.0634200686
 20
-18.4742550053
 10
7.9732581608
 20
-18.5696827886
 10
7.8775901752
 20
-18.6567587344
 10
7.7763820068
 20
-18.7354310228
 10
7.6696677607
 20
-18.8057514736
 10
7.5581084297
 20
-18.8672845496
 10
7.4416738493
 20
-18.9199757841
 10
7.3203941841
 20
-18.9638796438
 10
7.1950209207
 20
-18.9987239915
 10
7.0655285778
 20
-19.0244525615
 10
6.9319426366
 20
-19.0411216195
 10
6.7950910275
 20
-19.0486278254
 10
6.6549535164
 20
-19.0469142579
 10
6.5115503373
 20
-19.0360378385
 10
6.3657701232
 20
-19.0160659915
 10
6.2175981426
 20
-18.9869422504
 10
6.067049127
 20
-18.9487230818
 10
5.9150559044
 20
-18.9016453104
 10
5.7616094916
 20
-18.8456539333
 10
5.6067188718
 20
-18.7808039534
 10
5.4513438216
 20
-18.7074972045
 10
5.2954813112
 20
-18.6256811606
 10
5.1391343705
 20
-18.5354083477
 10
4.9832718659
 20
-18.4372381781
 10
4.8278968294
 20
-18.3311216262
 10
4.6730062291
 20
-18.2171077177
 10
4.5195598362
 20
-18.0959029409
 10
4.3675666316
 20
-17.967462665
 10
4.2170176345
 20
-17.831831521
 10
4.0688456737
 20
-17.6898498903
 10
3.923065478
 20
-17.5414783138
 10
3.7796623185
 20
-17.3867562507
 10
3.6395248376
 20
-17.2266424596
 10
3.5026732726
 20
-17.0611033871
 10
3.3690873862
 20
-16.8901725867
 10
3.2395951086
 20
-16.7149094774
 10
3.1142219278
 20
-16.535287231
 10
2.9929423559
 20
-16.3513326757
 10
2.876507859
 20
-16.1641857154
 10
2.7649485959
 20
-15.9738267127
 10
2.658234408
 20
-15.7802753049
 10
2.5570262852
 20
-15.5847303082
 10
2.4613583221
 20
-15.3871792596
 10
2.3711964242
 20
-15.1876346221
 10
2.2870992981
 20
-14.9873326
 10
2.2091044857
 20
-14.786268113
 10
2.1371744452
 20
-14.5844462416
 10
2.0717552577
 20
-14.3831184312
 10
2.0128874573
 20
-14.1822877301
 10
1.9605305099
 20
-13.9819510902
 10
1.9150088948
 20
-13.7833508127
 10
1.876365189
 20
-13.5864976757
 10
1.8445568156
 20
-13.3913809011
 10
1.8197805228
 20
-13.1992104559
 10
1.8021018934
 20
-13.0103896624
 10
1.7914553446
 20
-12.8245151983
 10
1.7878408764
 20
-12.6415870636
  0
LINE
  5
2C4
100
AcDbEntity
  8
0
100
AcDbLine
 62
7
  6
CONTINUOUS
 10
8.641456398
 20
0.3484989566
 11
8.632850604
 21
0.214523315
  0
LINE
  5
2C5
100
AcDbEntity
  8
ASSI
100
AcDbLine
 62
7
  6
CONTINUOUS
 10
8.641456398
 20
0.3484989566
 11
8.632850604
 21
0.214523315
  0
LINE
  5
2C6
100
AcDbEntity
  8
0
100
AcDbLine
 62
7
  6
CONTINUOUS
 10
8.641456398
 20
-16.3891417176
 11
8.632850604
 21
-16.5231173592
  0
LINE
  5
2C7
100
AcDbEntity
  8
ASSI
100
AcDbLine
 62
7
  6
CONTINUOUS
 10
8.641456398
 20
-16.3891417176
 11
8.632850604
 21
-16.5231173592
  0
LWPOLYLINE
  5
2C8
100
AcDbEntity
  8
0
100
AcDbPolyline
 62
7
  6
CONTINUOUS
 90
16
 70
0
 10
8.632850604
 20
0.214523315
 10
8.615472194
 20
0.056719006
 10
8.5911970117
 20
-0.0959609465
 10
8.5600797996
 20
-0.2431701345
 10
8.5221910425
 20
-0.3845739636
 10
8.4776164599
 20
-0.5198519152
 10
8.4264568693
 20
-0.6486975049
 10
8.3688283176
 20
-0.7708181611
 10
8.3048613579
 20
-0.8859371214
 10
8.2347008204
 20
-0.9937936434
 10
8.1585058172
 20
-1.0941430895
 10
8.0764490768
 20
-1.1867580321
 10
7.9887164003
 20
-1.2714288167
 10
7.8955064248
 20
-1.3479637384
 10
7.7970302973
 20
-1.4161894012
 10
7.7459672523
 20
-1.4470906973
  0
LWPOLYLINE
  5
2C9
100
AcDbEntity
  8
ASSI
100
AcDbPolyline
 62
7
  6
CONTINUOUS
 90
16
 70
0
 10
8.632850604
 20
0.214523315
 10
8.615472194
 20
0.056719006
 10
8.5911970117
 20
-0.0959609465
 10
8.5600797996
 20
-0.2431701345
 10
8.5221910425
 20
-0.3845739636
 10
8.4776164599
 20
-0.5198519152
 10
8.4264568693
 20
-0.6486975049
 10
8.3688283176
 20
-0.7708181611
 10
8.3048613579
 20
-0.8859371214
 10
8.2347008204
 20
-0.9937936434
 10
8.1585058172
 20
-1.0941430895
 10
8.0764490768
 20
-1.1867580321
 10
7.9887164003
 20
-1.2714288167
 10
7.8955064248
 20
-1.3479637384
 10
7.7970302973
 20
-1.4161894012
 10
7.7459672523
 20
-1.4470906973
  0
LWPOLYLINE
  5
2CA
100
AcDbEntity
  8
0
100
AcDbPolyline
 62
7
  6
CONTINUOUS
 90
16
 70
0
 10
8.632850604
 20
-16.5231173592
 10
8.615472194
 20
-16.6809216682
 10
8.5911970117
 20
-16.8336016207
 10
8.5600797996
 20
-16.9808108087
 10
8.5221910425
 20
-17.1222146378
 10
8.4776164599
 20
-17.2574925895
 10
8.4264568693
 20
-17.3863381792
 10
8.3688283176
 20
-17.5084588354
 10
8.3048613579
 20
-17.6235777957
 10
8.2347008204
 20
-17.7314343177
 10
8.1585058172
 20
-17.8317837637
 10
8.0764490768
 20
-17.9243987063
 10
7.9887164003
 20
-18.009069491
 10
7.8955064248
 20
-18.0856044126
 10
7.7970302973
 20
-18.1538300754
 10
7.7459672523
 20
-18.1847313715
  0
LWPOLYLINE
  5
2CB
100
AcDbEntity
  8
ASSI
100
AcDbPolyline
 62
7
  6
CONTINUOUS
 90
16
 70
0
 10
8.632850604
 20
-16.5231173592
 10
8.615472194
 20
-16.6809216682
 10
8.5911970117
 20
-16.8336016207
 10
8.5600797996
 20
-16.9808108087
 10
8.5221910425
 20
-17.1222146378
 10
8.4776164599
 20
-17.2574925895
 10
8.4264568693
 20
-17.3863381792
 10
8.3688283176
 20
-17.5084588354
 10
8.3048613579
 20
-17.6235777957
 10
8.2347008204
 20
-17.7314343177
 10
8.1585058172
 20
-17.8317837637
 10
8.0764490768
 20
-17.9243987063
 10
7.9887164003
 20
-18.009069491
 10
7.8955064248
 20
-18.0856044126
 10
7.7970302973
 20
-18.1538300754
 10
7.7459672523
 20
-18.1847313715
  0
LWPOLYLINE
  5
2CC
100
AcDbEntity
  8
0
100
AcDbPolyline
 62
7
  6
CONTINUOUS
 90
13
 70
0
 10
3.9483817851
 20
-10.4644543715
 10
3.8970674127
 20
-10.5320646118
 10
3.8268000654
 20
-10.6400810223
 10
3.7628614069
 20
-10.7550887641
 10
3.7052943817
 20
-10.8771352781
 10
3.6540560452
 20
-11.0061731234
 10
3.609493301
 20
-11.141328663
 10
3.5716514477
 20
-11.28264341
 10
3.5404851867
 20
-11.4300758514
 10
3.5162055257
 20
-11.582627812
 10
3.4988828008
 20
-11.7399665665
 10
3.488446676
 20
-11.9024248402
 10
3.4848971512
 20
-12.0700026329
  0
LWPOLYLINE
  5
2CD
100
AcDbEntity
  8
ASSI
100
AcDbPolyline
 62
7
  6
CONTINUOUS
 90
13
 70
0
 10
3.9483817851
 20
-10.4644543715
 10
3.8970674127
 20
-10.5320646118
 10
3.8268000654
 20
-10.6400810223
 10
3.7628614069
 20
-10.7550887641
 10
3.7052943817
 20
-10.8771352781
 10
3.6540560452
 20
-11.0061731234
 10
3.609493301
 20
-11.141328663
 10
3.5716514477
 20
-11.28264341
 10
3.5404851867
 20
-11.4300758514
 10
3.5162055257
 20
-11.582627812
 10
3.4988828008
 20
-11.7399665665
 10
3.488446676
 20
-11.9024248402
 10
3.4848971512
 20
-12.0700026329
  0
LWPOLYLINE
  5
2CE
100
AcDbEntity
  8
0
100
AcDbPolyline
 62
7
  6
CONTINUOUS
 90
16
 70
0
 10
3.3957570591
 20
-10.6504317176
 10
3.4482132266
 20
-10.6215711751
 10
3.5565411786
 20
-10.5704084934
 10
3.6694325704
 20
-10.5279608975
 10
3.7866316219
 20
-10.4943246337
 10
3.9078727944
 20
-10.4695759642
 10
4.0328814642
 20
-10.4537709917
 10
4.1613744399
 20
-10.4469455637
 10
4.2930605296
 20
-10.449115176
 10
4.4276413856
 20
-10.4602749251
 10
4.5648121649
 20
-10.4803995446
 10
4.7042620985
 20
-10.5094434529
 10
4.8456752734
 20
-10.5473408624
 10
4.98873134
 20
-10.5940059312
 10
5.1331062117
 20
-10.6493329503
 10
5.2784728341
 20
-10.7131965953
  0
LWPOLYLINE
  5
2CF
100
AcDbEntity
  8
ASSI
100
AcDbPolyline
 62
7
  6
CONTINUOUS
 90
16
 70
0
 10
3.3957570591
 20
-10.6504317176
 10
3.4482132266
 20
-10.6215711751
 10
3.5565411786
 20
-10.5704084934
 10
3.6694325704
 20
-10.5279608975
 10
3.7866316219
 20
-10.4943246337
 10
3.9078727944
 20
-10.4695759642
 10
4.0328814642
 20
-10.4537709917
 10
4.1613744399
 20
-10.4469455637
 10
4.2930605296
 20
-10.449115176
 10
4.4276413856
 20
-10.4602749251
 10
4.5648121649
 20
-10.4803995446
 10
4.7042620985
 20
-10.5094434529
 10
4.8456752734
 20
-10.5473408624
 10
4.98873134
 20
-10.5940059312
 10
5.1331062117
 20
-10.6493329503
 10
5.2784728341
 20
-10.7131965953
  0
LWPOLYLINE
  5
2D0
100
AcDbEntity
  8
0
100
AcDbPolyline
 62
7
  6
CONTINUOUS
 90
16
 70
0
 10
19.3056596358
 20
-3.0989693932
 10
19.3581158033
 20
-3.0701088508
 10
19.4664437553
 20
-3.0189461691
 10
19.5793351471
 20
-2.9764985731
 10
19.6965341986
 20
-2.9428623093
 10
19.8177753711
 20
-2.9181136398
 10
19.9427840409
 20
-2.9023086673
 10
20.0712770166
 20
-2.8954832393
 10
20.2029631063
 20
-2.8976528516
 10
20.3375439623
 20
-2.9088126007
 10
20.4747147416
 20
-2.9289372202
 10
20.6141646752
 20
-2.9579811286
 10
20.7555778501
 20
-2.995878538
 10
20.8986339167
 20
-3.0425436068
 10
21.0430087884
 20
-3.0978706259
 10
21.1883754108
 20
-3.161734271
  0
LWPOLYLINE
  5
2D1
100
AcDbEntity
  8
ASSI
100
AcDbPolyline
 62
7
  6
CONTINUOUS
 90
16
 70
0
 10
19.3056596358
 20
-3.0989693932
 10
19.3581158033
 20
-3.0701088508
 10
19.4664437553
 20
-3.0189461691
 10
19.5793351471
 20
-2.9764985731
 10
19.6965341986
 20
-2.9428623093
 10
19.8177753711
 20
-2.9181136398
 10
19.9427840409
 20
-2.9023086673
 10
20.0712770166
 20
-2.8954832393
 10
20.2029631063
 20
-2.8976528516
 10
20.3375439623
 20
-2.9088126007
 10
20.4747147416
 20
-2.9289372202
 10
20.6141646752
 20
-2.9579811286
 10
20.7555778501
 20
-2.995878538
 10
20.8986339167
 20
-3.0425436068
 10
21.0430087884
 20
-3.0978706259
 10
21.1883754108
 20
-3.161734271
  0
LINE
  5
2D2
100
AcDbEntity
  8
0
100
AcDbLine
 62
7
  6
CONTINUOUS
 10
21.1883754108
 20
-3.161734271
 11
21.3059721961
 21
-3.2199215024
  0
LINE
  5
2D3
100
AcDbEntity
  8
ASSI
100
AcDbLine
 62
7
  6
CONTINUOUS
 10
21.1883754108
 20
-3.161734271
 11
21.3059721961
 21
-3.2199215024
  0
LINE
  5
2D4
100
AcDbEntity
  8
0
100
AcDbLine
 62
7
  6
CONTINUOUS
 10
5.2784728341
 20
6.0244440789
 11
5.3960696194
 21
5.9662568475
  0
LINE
  5
2D5
100
AcDbEntity
  8
ASSI
100
AcDbLine
 62
7
  6
CONTINUOUS
 10
5.2784728341
 20
6.0244440789
 11
5.3960696194
 21
5.9662568475
  0
LINE
  5
2D6
100
AcDbEntity
  8
0
100
AcDbLine
 62
7
  6
CONTINUOUS
 10
-10.6314297426
 20
15.2106224288
 11
-10.5138329573
 21
15.1524351973
  0
LINE
  5
2D7
100
AcDbEntity
  8
ASSI
100
AcDbLine
 62
7
  6
CONTINUOUS
 10
-10.6314297426
 20
15.2106224288
 11
-10.5138329573
 21
15.1524351973
  0
LINE
  5
2D8
100
AcDbEntity
  8
0
100
AcDbLine
 62
7
  6
CONTINUOUS
 10
-26.5413323193
 20
24.3968007787
 11
-26.4237355339
 21
24.3386135472
  0
LINE
  5
2D9
100
AcDbEntity
  8
ASSI
100
AcDbLine
 62
7
  6
CONTINUOUS
 10
-26.5413323193
 20
24.3968007787
 11
-26.4237355339
 21
24.3386135472
  0
LWPOLYLINE
  5
2DA
100
AcDbEntity
  8
0
100
AcDbPolyline
 62
7
  6
CONTINUOUS
 90
36
 70
0
 10
-26.6028278193
 20
24.4483184582
 10
-26.5243219936
 20
24.4019680393
 10
-26.368459489
 20
24.3037978696
 10
-26.2130844525
 20
24.1976813178
 10
-26.0581938522
 20
24.0836674092
 10
-25.9047474593
 20
23.9624626325
 10
-25.7527542547
 20
23.8340223566
 10
-25.6022052576
 20
23.6983912126
 10
-25.4540332968
 20
23.5564095818
 10
-25.3082531011
 20
23.4080380054
 10
-25.1648499416
 20
23.2533159423
 10
-25.0247124607
 20
23.0932021512
 10
-24.8878608957
 20
22.9276630787
 10
-24.7542750093
 20
22.7567322783
 10
-24.6247827317
 20
22.581469169
 10
-24.499409551
 20
22.4018469226
 10
-24.378129979
 20
22.2178923673
 10
-24.2616954821
 20
22.030745407
 10
-24.150136219
 20
21.8403864042
 10
-24.0434220311
 20
21.6468349965
 10
-23.9422139083
 20
21.4512899998
 10
-23.8465459452
 20
21.2537389512
 10
-23.7563840473
 20
21.0541943136
 10
-23.6722869212
 20
20.8538922916
 10
-23.5942921088
 20
20.6528278046
 10
-23.5223620683
 20
20.4510059331
 10
-23.4569428808
 20
20.2496781228
 10
-23.3980750804
 20
20.0488474217
 10
-23.345718133
 20
19.8485107818
 10
-23.3001965179
 20
19.6499105042
 10
-23.2615528121
 20
19.4530573672
 10
-23.2297444387
 20
19.2579405927
 10
-23.2049681459
 20
19.0657701475
 10
-23.1872895165
 20
18.876949354
 10
-23.1766429677
 20
18.6910748899
 10
-23.1730284995
 20
18.5081467551
  0
LWPOLYLINE
  5
2DB
100
AcDbEntity
  8
ASSI
100
AcDbPolyline
 62
7
  6
CONTINUOUS
 90
36
 70
0
 10
-26.6028278193
 20
24.4483184582
 10
-26.5243219936
 20
24.4019680393
 10
-26.368459489
 20
24.3037978696
 10
-26.2130844525
 20
24.1976813178
 10
-26.0581938522
 20
24.0836674092
 10
-25.9047474593
 20
23.9624626325
 10
-25.7527542547
 20
23.8340223566
 10
-25.6022052576
 20
23.6983912126
 10
-25.4540332968
 20
23.5564095818
 10
-25.3082531011
 20
23.4080380054
 10
-25.1648499416
 20
23.2533159423
 10
-25.0247124607
 20
23.0932021512
 10
-24.8878608957
 20
22.9276630787
 10
-24.7542750093
 20
22.7567322783
 10
-24.6247827317
 20
22.581469169
 10
-24.499409551
 20
22.4018469226
 10
-24.378129979
 20
22.2178923673
 10
-24.2616954821
 20
22.030745407
 10
-24.150136219
 20
21.8403864042
 10
-24.0434220311
 20
21.6468349965
 10
-23.9422139083
 20
21.4512899998
 10
-23.8465459452
 20
21.2537389512
 10
-23.7563840473
 20
21.0541943136
 10
-23.6722869212
 20
20.8538922916
 10
-23.5942921088
 20
20.6528278046
 10
-23.5223620683
 20
20.4510059331
 10
-23.4569428808
 20
20.2496781228
 10
-23.3980750804
 20
20.0488474217
 10
-23.345718133
 20
19.8485107818
 10
-23.3001965179
 20
19.6499105042
 10
-23.2615528121
 20
19.4530573672
 10
-23.2297444387
 20
19.2579405927
 10
-23.2049681459
 20
19.0657701475
 10
-23.1872895165
 20
18.876949354
 10
-23.1766429677
 20
18.6910748899
 10
-23.1730284995
 20
18.5081467551
  0
LWPOLYLINE
  5
2DC
100
AcDbEntity
  8
0
100
AcDbPolyline
 62
7
  6
CONTINUOUS
 90
36
 70
0
 10
-10.6929252426
 20
15.2621401083
 10
-10.6144194169
 20
15.2157896894
 10
-10.4585569123
 20
15.1176195198
 10
-10.3031818758
 20
15.0115029679
 10
-10.1482912755
 20
14.8974890594
 10
-9.9948448826
 20
14.7762842826
 10
-9.8428516781
 20
14.6478440067
 10
-9.692302681
 20
14.5122128627
 10
-9.5441307201
 20
14.370231232
 10
-9.3983505244
 20
14.2218596555
 10
-9.2549473649
 20
14.0671375924
 10
-9.114809884
 20
13.9070238013
 10
-8.977958319
 20
13.7414847288
 10
-8.8443724326
 20
13.5705539284
 10
-8.7148801551
 20
13.3952908191
 10
-8.5895069743
 20
13.2156685727
 10
-8.4682274023
 20
13.0317140174
 10
-8.3517929054
 20
12.8445670571
 10
-8.2402336423
 20
12.6542080544
 10
-8.1335194544
 20
12.4606566466
 10
-8.0323113316
 20
12.2651116499
 10
-7.9366433685
 20
12.0675606013
 10
-7.8464814706
 20
11.8680159638
 10
-7.7623843445
 20
11.6677139417
 10
-7.6843895321
 20
11.4666494547
 10
-7.6124594916
 20
11.2648275833
 10
-7.5470403041
 20
11.0634997729
 10
-7.4881725037
 20
10.8626690718
 10
-7.4358155563
 20
10.6623324319
 10
-7.3902939412
 20
10.4637321544
 10
-7.3516502354
 20
10.2668790174
 10
-7.319841862
 20
10.0717622428
 10
-7.2950655692
 20
9.8795917976
 10
-7.2773869398
 20
9.6907710041
 10
-7.266740391
 20
9.50489654
 10
-7.2631259228
 20
9.3219684053
  0
LWPOLYLINE
  5
2DD
100
AcDbEntity
  8
ASSI
100
AcDbPolyline
 62
7
  6
CONTINUOUS
 90
36
 70
0
 10
-10.6929252426
 20
15.2621401083
 10
-10.6144194169
 20
15.2157896894
 10
-10.4585569123
 20
15.1176195198
 10
-10.3031818758
 20
15.0115029679
 10
-10.1482912755
 20
14.8974890594
 10
-9.9948448826
 20
14.7762842826
 10
-9.8428516781
 20
14.6478440067
 10
-9.692302681
 20
14.5122128627
 10
-9.5441307201
 20
14.370231232
 10
-9.3983505244
 20
14.2218596555
 10
-9.2549473649
 20
14.0671375924
 10
-9.114809884
 20
13.9070238013
 10
-8.977958319
 20
13.7414847288
 10
-8.8443724326
 20
13.5705539284
 10
-8.7148801551
 20
13.3952908191
 10
-8.5895069743
 20
13.2156685727
 10
-8.4682274023
 20
13.0317140174
 10
-8.3517929054
 20
12.8445670571
 10
-8.2402336423
 20
12.6542080544
 10
-8.1335194544
 20
12.4606566466
 10
-8.0323113316
 20
12.2651116499
 10
-7.9366433685
 20
12.0675606013
 10
-7.8464814706
 20
11.8680159638
 10
-7.7623843445
 20
11.6677139417
 10
-7.6843895321
 20
11.4666494547
 10
-7.6124594916
 20
11.2648275833
 10
-7.5470403041
 20
11.0634997729
 10
-7.4881725037
 20
10.8626690718
 10
-7.4358155563
 20
10.6623324319
 10
-7.3902939412
 20
10.4637321544
 10
-7.3516502354
 20
10.2668790174
 10
-7.319841862
 20
10.0717622428
 10
-7.2950655692
 20
9.8795917976
 10
-7.2773869398
 20
9.6907710041
 10
-7.266740391
 20
9.50489654
 10
-7.2631259228
 20
9.3219684053
  0
LWPOLYLINE
  5
2DE
100
AcDbEntity
  8
0
100
AcDbPolyline
 62
7
  6
CONTINUOUS
 90
36
 70
0
 10
5.2169773341
 20
6.0759617584
 10
5.2954831598
 20
6.0296113395
 10
5.4513456644
 20
5.9314411699
 10
5.6067207009
 20
5.8253246181
 10
5.7616113012
 20
5.7113107095
 10
5.9150576941
 20
5.5901059328
 10
6.0670508986
 20
5.4616656569
 10
6.2175998957
 20
5.3260345128
 10
6.3657718566
 20
5.1840528821
 10
6.5115520523
 20
5.0356813056
 10
6.6549552118
 20
4.8809592425
 10
6.7950926927
 20
4.7208454514
 10
6.9319442577
 20
4.555306379
 10
7.0655301441
 20
4.3843755785
 10
7.1950224216
 20
4.2091124692
 10
7.3203956024
 20
4.0294902228
 10
7.4416751744
 20
3.8455356675
 10
7.5581096713
 20
3.6583887072
 10
7.6696689344
 20
3.4680297045
 10
7.7763831223
 20
3.2744782967
 10
7.8775912451
 20
3.0789333
 10
7.9732592082
 20
2.8813822515
 10
8.0634211061
 20
2.6818376139
 10
8.1475182322
 20
2.4815355918
 10
8.2255130446
 20
2.2804711049
 10
8.2974430851
 20
2.0786492334
 10
8.3628622726
 20
1.8773214231
 10
8.421730073
 20
1.676490722
 10
8.4740870204
 20
1.476154082
 10
8.5196086355
 20
1.2775538045
 10
8.5582523413
 20
1.0807006675
 10
8.5900607147
 20
0.8855838929
 10
8.6148370075
 20
0.6934134477
 10
8.6325156369
 20
0.5045926543
 10
8.6431621857
 20
0.3187181901
 10
8.6467766539
 20
0.1357900554
  0
LWPOLYLINE
  5
2DF
100
AcDbEntity
  8
ASSI
100
AcDbPolyline
 62
7
  6
CONTINUOUS
 90
36
 70
0
 10
5.2169773341
 20
6.0759617584
 10
5.2954831598
 20
6.0296113395
 10
5.4513456644
 20
5.9314411699
 10
5.6067207009
 20
5.8253246181
 10
5.7616113012
 20
5.7113107095
 10
5.9150576941
 20
5.5901059328
 10
6.0670508986
 20
5.4616656569
 10
6.2175998957
 20
5.3260345128
 10
6.3657718566
 20
5.1840528821
 10
6.5115520523
 20
5.0356813056
 10
6.6549552118
 20
4.8809592425
 10
6.7950926927
 20
4.7208454514
 10
6.9319442577
 20
4.555306379
 10
7.0655301441
 20
4.3843755785
 10
7.1950224216
 20
4.2091124692
 10
7.3203956024
 20
4.0294902228
 10
7.4416751744
 20
3.8455356675
 10
7.5581096713
 20
3.6583887072
 10
7.6696689344
 20
3.4680297045
 10
7.7763831223
 20
3.2744782967
 10
7.8775912451
 20
3.0789333
 10
7.9732592082
 20
2.8813822515
 10
8.0634211061
 20
2.6818376139
 10
8.1475182322
 20
2.4815355918
 10
8.2255130446
 20
2.2804711049
 10
8.2974430851
 20
2.0786492334
 10
8.3628622726
 20
1.8773214231
 10
8.421730073
 20
1.676490722
 10
8.4740870204
 20
1.476154082
 10
8.5196086355
 20
1.2775538045
 10
8.5582523413
 20
1.0807006675
 10
8.5900607147
 20
0.8855838929
 10
8.6148370075
 20
0.6934134477
 10
8.6325156369
 20
0.5045926543
 10
8.6431621857
 20
0.3187181901
 10
8.6467766539
 20
0.1357900554
  0
LWPOLYLINE
  5
2E0
100
AcDbEntity
  8
0
100
AcDbPolyline
 62
7
  6
CONTINUOUS
 90
36
 70
0
 10
21.1268799108
 20
-3.1102165914
 10
21.2053857365
 20
-3.1565670104
 10
21.3612482411
 20
-3.25473718
 10
21.5166232776
 20
-3.3608537318
 10
21.6715138779
 20
-3.4748676404
 10
21.8249602708
 20
-3.5960724171
 10
21.9769534753
 20
-3.724512693
 10
22.1275024724
 20
-3.8601438371
 10
22.2756744333
 20
-4.0021254678
 10
22.421454629
 20
-4.1504970442
 10
22.5648577885
 20
-4.3052191074
 10
22.7049952694
 20
-4.4653328984
 10
22.8418468344
 20
-4.6308719709
 10
22.9754327208
 20
-4.8018027713
 10
23.1049249983
 20
-4.9770658806
 10
23.2302981791
 20
-5.1566881271
 10
23.3515777511
 20
-5.3406426824
 10
23.468012248
 20
-5.5277896427
 10
23.5795715111
 20
-5.7181486454
 10
23.686285699
 20
-5.9117000531
 10
23.7874938218
 20
-6.1072450499
 10
23.8831617849
 20
-6.3047960984
 10
23.9733236828
 20
-6.504340736
 10
24.0574208089
 20
-6.704642758
 10
24.1354156213
 20
-6.905707245
 10
24.2073456618
 20
-7.1075291165
 10
24.2727648493
 20
-7.3088569268
 10
24.3316326497
 20
-7.5096876279
 10
24.3839895971
 20
-7.7100242679
 10
24.4295112122
 20
-7.9086245454
 10
24.4681549179
 20
-8.1054776824
 10
24.4999632914
 20
-8.3005944569
 10
24.5247395842
 20
-8.4927649021
 10
24.5424182136
 20
-8.6815856956
 10
24.5530647624
 20
-8.8674601597
 10
24.5566792306
 20
-9.0503882945
  0
LWPOLYLINE
  5
2E1
100
AcDbEntity
  8
ASSI
100
AcDbPolyline
 62
7
  6
CONTINUOUS
 90
36
 70
0
 10
21.1268799108
 20
-3.1102165914
 10
21.2053857365
 20
-3.1565670104
 10
21.3612482411
 20
-3.25473718
 10
21.5166232776
 20
-3.3608537318
 10
21.6715138779
 20
-3.4748676404
 10
21.8249602708
 20
-3.5960724171
 10
21.9769534753
 20
-3.724512693
 10
22.1275024724
 20
-3.8601438371
 10
22.2756744333
 20
-4.0021254678
 10
22.421454629
 20
-4.1504970442
 10
22.5648577885
 20
-4.3052191074
 10
22.7049952694
 20
-4.4653328984
 10
22.8418468344
 20
-4.6308719709
 10
22.9754327208
 20
-4.8018027713
 10
23.1049249983
 20
-4.9770658806
 10
23.2302981791
 20
-5.1566881271
 10
23.3515777511
 20
-5.3406426824
 10
23.468012248
 20
-5.5277896427
 10
23.5795715111
 20
-5.7181486454
 10
23.686285699
 20
-5.9117000531
 10
23.7874938218
 20
-6.1072450499
 10
23.8831617849
 20
-6.3047960984
 10
23.9733236828
 20
-6.504340736
 10
24.0574208089
 20
-6.704642758
 10
24.1354156213
 20
-6.905707245
 10
24.2073456618
 20
-7.1075291165
 10
24.2727648493
 20
-7.3088569268
 10
24.3316326497
 20
-7.5096876279
 10
24.3839895971
 20
-7.7100242679
 10
24.4295112122
 20
-7.9086245454
 10
24.4681549179
 20
-8.1054776824
 10
24.4999632914
 20
-8.3005944569
 10
24.5247395842
 20
-8.4927649021
 10
24.5424182136
 20
-8.6815856956
 10
24.5530647624
 20
-8.8674601597
 10
24.5566792306
 20
-9.0503882945
  0
LINE
  5
2E2
100
AcDbEntity
  8
0
100
AcDbLine
 62
7
  6
CONTINUOUS
 10
48.21253915
 20
-66.8442264913
 11
48.2129015803
 21
-66.844867929
  0
LINE
  5
2E3
100
AcDbEntity
  8
ASSI
100
AcDbLine
 62
7
  6
CONTINUOUS
 10
48.21253915
 20
-66.8442264913
 11
48.2129015803
 21
-66.844867929
  0
LWPOLYLINE
  5
2E4
100
AcDbEntity
  8
0
100
AcDbPolyline
 62
7
  6
CONTINUOUS
 90
36
 70
0
 10
17.6977434531
 20
-5.0901247392
 10
17.701357936
 20
-4.9113701695
 10
17.712004524
 20
-4.737789766
 10
17.7296832172
 20
-4.5693835287
 10
17.7544596059
 20
-4.4058238537
 10
17.7862680998
 20
-4.2474383449
 10
17.8249119276
 20
-4.0952098137
 10
17.8704336651
 20
-3.9491766715
 10
17.9227907365
 20
-3.809300507
 10
17.9816586442
 20
-3.6764488975
 10
18.0470779155
 20
-3.550665607
 10
18.1190080231
 20
-3.4319068715
 10
18.1970028865
 20
-3.3209089769
 10
18.2811000384
 20
-3.2177203528
 10
18.3712619462
 20
-3.1222925694
 10
18.4669299318
 20
-3.0352166236
 10
18.5681381001
 20
-2.9565443352
 10
18.6748523463
 20
-2.8862238844
 10
18.7864116773
 20
-2.8246908084
 10
18.9028462577
 20
-2.7719995739
 10
19.0241259229
 20
-2.7280957142
 10
19.1494991863
 20
-2.6932513665
 10
19.2789915292
 20
-2.6675227966
 10
19.4125774704
 20
-2.6508537386
 10
19.5494290795
 20
-2.6433475326
 10
19.6895665906
 20
-2.6450611001
 10
19.8329697697
 20
-2.6559375196
 10
19.9787499838
 20
-2.6759093665
 10
20.1269219644
 20
-2.7050331077
 10
20.27747098
 20
-2.7432522763
 10
20.4294642026
 20
-2.7903300476
 10
20.5829106154
 20
-2.8463214248
 10
20.7378012352
 20
-2.9111714047
 10
20.8931762854
 20
-2.9844781536
 10
21.0490387958
 20
-3.0662941975
 10
21.1268799108
 20
-3.1102165914
  0
LWPOLYLINE
  5
2E5
100
AcDbEntity
  8
ASSI
100
AcDbPolyline
 62
7
  6
CONTINUOUS
 90
36
 70
0
 10
17.6977434531
 20
-5.0901247392
 10
17.701357936
 20
-4.9113701695
 10
17.712004524
 20
-4.737789766
 10
17.7296832172
 20
-4.5693835287
 10
17.7544596059
 20
-4.4058238537
 10
17.7862680998
 20
-4.2474383449
 10
17.8249119276
 20
-4.0952098137
 10
17.8704336651
 20
-3.9491766715
 10
17.9227907365
 20
-3.809300507
 10
17.9816586442
 20
-3.6764488975
 10
18.0470779155
 20
-3.550665607
 10
18.1190080231
 20
-3.4319068715
 10
18.1970028865
 20
-3.3209089769
 10
18.2811000384
 20
-3.2177203528
 10
18.3712619462
 20
-3.1222925694
 10
18.4669299318
 20
-3.0352166236
 10
18.5681381001
 20
-2.9565443352
 10
18.6748523463
 20
-2.8862238844
 10
18.7864116773
 20
-2.8246908084
 10
18.9028462577
 20
-2.7719995739
 10
19.0241259229
 20
-2.7280957142
 10
19.1494991863
 20
-2.6932513665
 10
19.2789915292
 20
-2.6675227966
 10
19.4125774704
 20
-2.6508537386
 10
19.5494290795
 20
-2.6433475326
 10
19.6895665906
 20
-2.6450611001
 10
19.8329697697
 20
-2.6559375196
 10
19.9787499838
 20
-2.6759093665
 10
20.1269219644
 20
-2.7050331077
 10
20.27747098
 20
-2.7432522763
 10
20.4294642026
 20
-2.7903300476
 10
20.5829106154
 20
-2.8463214248
 10
20.7378012352
 20
-2.9111714047
 10
20.8931762854
 20
-2.9844781536
 10
21.0490387958
 20
-3.0662941975
 10
21.1268799108
 20
-3.1102165914
  0
LWPOLYLINE
  5
2E6
100
AcDbEntity
  8
0
100
AcDbPolyline
 62
7
  6
CONTINUOUS
 90
13
 70
0
 10
19.8582843618
 20
-2.9129920471
 10
19.8069699893
 20
-2.9806022874
 10
19.7367026421
 20
-3.088618698
 10
19.6727639836
 20
-3.2036264397
 10
19.6151969584
 20
-3.3256729538
 10
19.5639586219
 20
-3.454710799
 10
19.5193958777
 20
-3.5898663386
 10
19.4815540244
 20
-3.7311810856
 10
19.4503877634
 20
-3.8786135271
 10
19.4261081024
 20
-4.0311654876
 10
19.4087853775
 20
-4.1885042421
 10
19.3983492527
 20
-4.3509625158
 10
19.3947997279
 20
-4.5185403085
  0
LWPOLYLINE
  5
2E7
100
AcDbEntity
  8
ASSI
100
AcDbPolyline
 62
7
  6
CONTINUOUS
 90
13
 70
0
 10
19.8582843618
 20
-2.9129920471
 10
19.8069699893
 20
-2.9806022874
 10
19.7367026421
 20
-3.088618698
 10
19.6727639836
 20
-3.2036264397
 10
19.6151969584
 20
-3.3256729538
 10
19.5639586219
 20
-3.454710799
 10
19.5193958777
 20
-3.5898663386
 10
19.4815540244
 20
-3.7311810856
 10
19.4503877634
 20
-3.8786135271
 10
19.4261081024
 20
-4.0311654876
 10
19.4087853775
 20
-4.1885042421
 10
19.3983492527
 20
-4.3509625158
 10
19.3947997279
 20
-4.5185403085
  0
LWPOLYLINE
  5
2E8
100
AcDbEntity
  8
0
100
AcDbPolyline
 62
7
  6
CONTINUOUS
 90
46
 70
0
 10
19.3947997279
 20
-21.2561809828
 10
19.3983492527
 20
-21.4278576777
 10
19.4087853775
 20
-21.6023673268
 10
19.4261081024
 20
-21.7797099298
 10
19.4503877634
 20
-21.9602994342
 10
19.4815540244
 20
-22.1437218926
 10
19.5193958777
 20
-22.3287354633
 10
19.5639586219
 20
-22.515350943
 10
19.6151969584
 20
-22.7035575348
 10
19.6727639836
 20
-22.8920810066
 10
19.7367026421
 20
-23.0809235086
 10
19.8069699893
 20
-23.2700828904
 10
19.8830902878
 20
-23.4582784691
 10
19.965103254
 20
-23.6455037046
 10
20.0529691714
 20
-23.8317651369
 10
20.1460931534
 20
-24.0158017032
 10
20.2445108796
 20
-24.1975983063
 10
20.3481866705
 20
-24.3771700434
 10
20.4564186003
 20
-24.5533011436
 10
20.5692375856
 20
-24.7259682597
 10
20.6866127098
 20
-24.8951947389
 10
20.8077492974
 20
-25.0598348517
 10
20.9326728725
 20
-25.2198574763
 10
21.061357911
 20
-25.3752937345
 10
21.1929331649
 20
-25.5250912619
 10
21.3274182461
 20
-25.6692117959
 10
21.4647935426
 20
-25.8076935991
 10
21.6041289699
 20
-25.9395990955
 10
21.7454378288
 20
-26.0648836603
 10
21.8887068185
 20
-26.1835919184
 10
22.0329659517
 20
-26.2949201683
 10
22.1782219475
 20
-26.3988183315
 10
22.3244680868
 20
-26.4953364866
 10
22.4707142261
 20
-26.5838211678
 10
22.6169603654
 20
-26.6642178625
 10
22.7632065047
 20
-26.7365810833
 10
22.9084625004
 20
-26.8004209029
 10
23.0527216337
 20
-26.8556794841
 10
23.1959906234
 20
-26.9024146642
 10
23.3372994823
 20
-26.9403100276
 10
23.4766349096
 20
-26.9693055901
 10
23.6140102061
 20
-26.9894613359
 10
23.7484952873
 20
-27.0006408027
 10
23.8800705411
 20
-27.0027830803
 10
24.0087555797
 20
-26.995949079
 10
24.0932153364
 20
-26.9852911663
  0
LWPOLYLINE
  5
2E9
100
AcDbEntity
  8
ASSI
100
AcDbPolyline
 62
7
  6
CONTINUOUS
 90
46
 70
0
 10
19.3947997279
 20
-21.2561809828
 10
19.3983492527
 20
-21.4278576777
 10
19.4087853775
 20
-21.6023673268
 10
19.4261081024
 20
-21.7797099298
 10
19.4503877634
 20
-21.9602994342
 10
19.4815540244
 20
-22.1437218926
 10
19.5193958777
 20
-22.3287354633
 10
19.5639586219
 20
-22.515350943
 10
19.6151969584
 20
-22.7035575348
 10
19.6727639836
 20
-22.8920810066
 10
19.7367026421
 20
-23.0809235086
 10
19.8069699893
 20
-23.2700828904
 10
19.8830902878
 20
-23.4582784691
 10
19.965103254
 20
-23.6455037046
 10
20.0529691714
 20
-23.8317651369
 10
20.1460931534
 20
-24.0158017032
 10
20.2445108796
 20
-24.1975983063
 10
20.3481866705
 20
-24.3771700434
 10
20.4564186003
 20
-24.5533011436
 10
20.5692375856
 20
-24.7259682597
 10
20.6866127098
 20
-24.8951947389
 10
20.8077492974
 20
-25.0598348517
 10
20.9326728725
 20
-25.2198574763
 10
21.061357911
 20
-25.3752937345
 10
21.1929331649
 20
-25.5250912619
 10
21.3274182461
 20
-25.6692117959
 10
21.4647935426
 20
-25.8076935991
 10
21.6041289699
 20
-25.9395990955
 10
21.7454378288
 20
-26.0648836603
 10
21.8887068185
 20
-26.1835919184
 10
22.0329659517
 20
-26.2949201683
 10
22.1782219475
 20
-26.3988183315
 10
22.3244680868
 20
-26.4953364866
 10
22.4707142261
 20
-26.5838211678
 10
22.6169603654
 20
-26.6642178625
 10
22.7632065047
 20
-26.7365810833
 10
22.9084625004
 20
-26.8004209029
 10
23.0527216337
 20
-26.8556794841
 10
23.1959906234
 20
-26.9024146642
 10
23.3372994823
 20
-26.9403100276
 10
23.4766349096
 20
-26.9693055901
 10
23.6140102061
 20
-26.9894613359
 10
23.7484952873
 20
-27.0006408027
 10
23.8800705411
 20
-27.0027830803
 10
24.0087555797
 20
-26.995949079
 10
24.0932153364
 20
-26.9852911663
  0
LWPOLYLINE
  5
2EA
100
AcDbEntity
  8
0
100
AcDbPolyline
 62
7
  6
CONTINUOUS
 90
46
 70
0
 10
19.3947997279
 20
-4.5185403085
 10
19.3983492527
 20
-4.6902170035
 10
19.4087853775
 20
-4.8647266525
 10
19.4261081024
 20
-5.0420692556
 10
19.4503877634
 20
-5.2226587599
 10
19.4815540244
 20
-5.4060812184
 10
19.5193958777
 20
-5.591094789
 10
19.5639586219
 20
-5.7777102687
 10
19.6151969584
 20
-5.9659168606
 10
19.6727639836
 20
-6.1544403324
 10
19.7367026421
 20
-6.3432828343
 10
19.8069699893
 20
-6.5324422162
 10
19.8830902878
 20
-6.7206377949
 10
19.965103254
 20
-6.9078630303
 10
20.0529691714
 20
-7.0941244626
 10
20.1460931534
 20
-7.2781610289
 10
20.2445108796
 20
-7.459957632
 10
20.3481866705
 20
-7.6395293691
 10
20.4564186003
 20
-7.8156604693
 10
20.5692375856
 20
-7.9883275854
 10
20.6866127098
 20
-8.1575540646
 10
20.8077492974
 20
-8.3221941774
 10
20.9326728725
 20
-8.482216802
 10
21.061357911
 20
-8.6376530602
 10
21.1929331649
 20
-8.7874505877
 10
21.3274182461
 20
-8.9315711216
 10
21.4647935426
 20
-9.0700529248
 10
21.6041289699
 20
-9.2019584213
 10
21.7454378288
 20
-9.3272429861
 10
21.8887068185
 20
-9.4459512441
 10
22.0329659517
 20
-9.557279494
 10
22.1782219475
 20
-9.6611776572
 10
22.3244680868
 20
-9.7576958123
 10
22.4707142261
 20
-9.8461804936
 10
22.6169603654
 20
-9.9265771882
 10
22.7632065047
 20
-9.998940409
 10
22.9084625004
 20
-10.0627802287
 10
23.0527216337
 20
-10.1180388099
 10
23.1959906234
 20
-10.1647739899
 10
23.3372994823
 20
-10.2026693534
 10
23.4766349096
 20
-10.2316649158
 10
23.6140102061
 20
-10.2518206616
 10
23.7484952873
 20
-10.2630001285
 10
23.8800705411
 20
-10.2651424061
 10
24.0087555797
 20
-10.2583084048
 10
24.0932153364
 20
-10.247650492
  0
LWPOLYLINE
  5
2EB
100
AcDbEntity
  8
ASSI
100
AcDbPolyline
 62
7
  6
CONTINUOUS
 90
46
 70
0
 10
19.3947997279
 20
-4.5185403085
 10
19.3983492527
 20
-4.6902170035
 10
19.4087853775
 20
-4.8647266525
 10
19.4261081024
 20
-5.0420692556
 10
19.4503877634
 20
-5.2226587599
 10
19.4815540244
 20
-5.4060812184
 10
19.5193958777
 20
-5.591094789
 10
19.5639586219
 20
-5.7777102687
 10
19.6151969584
 20
-5.9659168606
 10
19.6727639836
 20
-6.1544403324
 10
19.7367026421
 20
-6.3432828343
 10
19.8069699893
 20
-6.5324422162
 10
19.8830902878
 20
-6.7206377949
 10
19.965103254
 20
-6.9078630303
 10
20.0529691714
 20
-7.0941244626
 10
20.1460931534
 20
-7.2781610289
 10
20.2445108796
 20
-7.459957632
 10
20.3481866705
 20
-7.6395293691
 10
20.4564186003
 20
-7.8156604693
 10
20.5692375856
 20
-7.9883275854
 10
20.6866127098
 20
-8.1575540646
 10
20.8077492974
 20
-8.3221941774
 10
20.9326728725
 20
-8.482216802
 10
21.061357911
 20
-8.6376530602
 10
21.1929331649
 20
-8.7874505877
 10
21.3274182461
 20
-8.9315711216
 10
21.4647935426
 20
-9.0700529248
 10
21.6041289699
 20
-9.2019584213
 10
21.7454378288
 20
-9.3272429861
 10
21.8887068185
 20
-9.4459512441
 10
22.0329659517
 20
-9.557279494
 10
22.1782219475
 20
-9.6611776572
 10
22.3244680868
 20
-9.7576958123
 10
22.4707142261
 20
-9.8461804936
 10
22.6169603654
 20
-9.9265771882
 10
22.7632065047
 20
-9.998940409
 10
22.9084625004
 20
-10.0627802287
 10
23.0527216337
 20
-10.1180388099
 10
23.1959906234
 20
-10.1647739899
 10
23.3372994823
 20
-10.2026693534
 10
23.4766349096
 20
-10.2316649158
 10
23.6140102061
 20
-10.2518206616
 10
23.7484952873
 20
-10.2630001285
 10
23.8800705411
 20
-10.2651424061
 10
24.0087555797
 20
-10.2583084048
 10
24.0932153364
 20
-10.247650492
  0
LWPOLYLINE
  5
2EC
100
AcDbEntity
  8
0
100
AcDbPolyline
 62
7
  6
CONTINUOUS
 90
36
 70
0
 10
17.6977434531
 20
-21.8277654134
 10
17.701357936
 20
-21.6490108438
 10
17.712004524
 20
-21.4754304403
 10
17.7296832172
 20
-21.3070242029
 10
17.7544596059
 20
-21.143464528
 10
17.7862680998
 20
-20.9850790192
 10
17.8249119276
 20
-20.832850488
 10
17.8704336651
 20
-20.6868173458
 10
17.9227907365
 20
-20.5469411812
 10
17.9816586442
 20
-20.4140895717
 10
18.0470779155
 20
-20.2883062812
 10
18.1190080231
 20
-20.1695475458
 10
18.1970028865
 20
-20.0585496512
 10
18.2811000384
 20
-19.955361027
 10
18.3712619462
 20
-19.8599332437
 10
18.4669299318
 20
-19.7728572979
 10
18.5681381001
 20
-19.6941850095
 10
18.6748523463
 20
-19.6238645587
 10
18.7864116773
 20
-19.5623314827
 10
18.9028462577
 20
-19.5096402482
 10
19.0241259229
 20
-19.4657363885
 10
19.1494991863
 20
-19.4308920408
 10
19.2789915292
 20
-19.4051634708
 10
19.4125774704
 20
-19.3884944129
 10
19.5494290795
 20
-19.3809882069
 10
19.6895665906
 20
-19.3827017744
 10
19.8329697697
 20
-19.3935781939
 10
19.9787499838
 20
-19.4135500408
 10
20.1269219644
 20
-19.4426737819
 10
20.27747098
 20
-19.4808929505
 10
20.4294642026
 20
-19.5279707219
 10
20.5829106154
 20
-19.583962099
 10
20.7378012352
 20
-19.6488120789
 10
20.8931762854
 20
-19.7221188278
 10
21.0490387958
 20
-19.8039348717
 10
21.1268799108
 20
-19.8478572657
  0
LWPOLYLINE
  5
2ED
100
AcDbEntity
  8
ASSI
100
AcDbPolyline
 62
7
  6
CONTINUOUS
 90
36
 70
0
 10
17.6977434531
 20
-21.8277654134
 10
17.701357936
 20
-21.6490108438
 10
17.712004524
 20
-21.4754304403
 10
17.7296832172
 20
-21.3070242029
 10
17.7544596059
 20
-21.143464528
 10
17.7862680998
 20
-20.9850790192
 10
17.8249119276
 20
-20.832850488
 10
17.8704336651
 20
-20.6868173458
 10
17.9227907365
 20
-20.5469411812
 10
17.9816586442
 20
-20.4140895717
 10
18.0470779155
 20
-20.2883062812
 10
18.1190080231
 20
-20.1695475458
 10
18.1970028865
 20
-20.0585496512
 10
18.2811000384
 20
-19.955361027
 10
18.3712619462
 20
-19.8599332437
 10
18.4669299318
 20
-19.7728572979
 10
18.5681381001
 20
-19.6941850095
 10
18.6748523463
 20
-19.6238645587
 10
18.7864116773
 20
-19.5623314827
 10
18.9028462577
 20
-19.5096402482
 10
19.0241259229
 20
-19.4657363885
 10
19.1494991863
 20
-19.4308920408
 10
19.2789915292
 20
-19.4051634708
 10
19.4125774704
 20
-19.3884944129
 10
19.5494290795
 20
-19.3809882069
 10
19.6895665906
 20
-19.3827017744
 10
19.8329697697
 20
-19.3935781939
 10
19.9787499838
 20
-19.4135500408
 10
20.1269219644
 20
-19.4426737819
 10
20.27747098
 20
-19.4808929505
 10
20.4294642026
 20
-19.5279707219
 10
20.5829106154
 20
-19.583962099
 10
20.7378012352
 20
-19.6488120789
 10
20.8931762854
 20
-19.7221188278
 10
21.0490387958
 20
-19.8039348717
 10
21.1268799108
 20
-19.8478572657
  0
LWPOLYLINE
  5
2EE
100
AcDbEntity
  8
0
100
AcDbPolyline
 62
7
  6
CONTINUOUS
 90
18
 70
0
 10
18.4048502343
 20
-5.0901247392
 10
18.4083336727
 20
-4.9231547577
 10
18.4187762842
 20
-4.7605834055
 10
18.4361546942
 20
-4.6027790965
 10
18.4604298765
 20
-4.450099144
 10
18.4915470885
 20
-4.302889956
 10
18.5294358456
 20
-4.1614861269
 10
18.5740104283
 20
-4.0262081753
 10
18.6251700189
 20
-3.8973625855
 10
18.6827985705
 20
-3.7752419294
 10
18.7467655303
 20
-3.6601229691
 10
18.8169260677
 20
-3.552266447
 10
18.893121071
 20
-3.451917001
 10
18.9751778114
 20
-3.3593020584
 10
19.0629104878
 20
-3.2746312737
 10
19.1561204633
 20
-3.1980963521
 10
19.2545965909
 20
-3.1298706893
 10
19.3056596358
 20
-3.0989693932
  0
LWPOLYLINE
  5
2EF
100
AcDbEntity
  8
ASSI
100
AcDbPolyline
 62
7
  6
CONTINUOUS
 90
18
 70
0
 10
18.4048502343
 20
-5.0901247392
 10
18.4083336727
 20
-4.9231547577
 10
18.4187762842
 20
-4.7605834055
 10
18.4361546942
 20
-4.6027790965
 10
18.4604298765
 20
-4.450099144
 10
18.4915470885
 20
-4.302889956
 10
18.5294358456
 20
-4.1614861269
 10
18.5740104283
 20
-4.0262081753
 10
18.6251700189
 20
-3.8973625855
 10
18.6827985705
 20
-3.7752419294
 10
18.7467655303
 20
-3.6601229691
 10
18.8169260677
 20
-3.552266447
 10
18.893121071
 20
-3.451917001
 10
18.9751778114
 20
-3.3593020584
 10
19.0629104878
 20
-3.2746312737
 10
19.1561204633
 20
-3.1980963521
 10
19.2545965909
 20
-3.1298706893
 10
19.3056596358
 20
-3.0989693932
  0
LWPOLYLINE
  5
2F0
100
AcDbEntity
  8
0
100
AcDbPolyline
 62
7
  6
CONTINUOUS
 90
18
 70
0
 10
18.4048502343
 20
-21.8277654134
 10
18.4083336727
 20
-21.660795432
 10
18.4187762842
 20
-21.4982240798
 10
18.4361546942
 20
-21.3404197707
 10
18.4604298765
 20
-21.1877398183
 10
18.4915470885
 20
-21.0405306303
 10
18.5294358456
 20
-20.8991268011
 10
18.5740104283
 20
-20.7638488495
 10
18.6251700189
 20
-20.6350032598
 10
18.6827985705
 20
-20.5128826036
 10
18.7467655303
 20
-20.3977636433
 10
18.8169260677
 20
-20.2899071213
 10
18.893121071
 20
-20.1895576752
 10
18.9751778114
 20
-20.0969427327
 10
19.0629104878
 20
-20.012271948
 10
19.1561204633
 20
-19.9357370264
 10
19.2545965909
 20
-19.8675113635
 10
19.3056596358
 20
-19.8366100675
  0
LWPOLYLINE
  5
2F1
100
AcDbEntity
  8
ASSI
100
AcDbPolyline
 62
7
  6
CONTINUOUS
 90
18
 70
0
 10
18.4048502343
 20
-21.8277654134
 10
18.4083336727
 20
-21.660795432
 10
18.4187762842
 20
-21.4982240798
 10
18.4361546942
 20
-21.3404197707
 10
18.4604298765
 20
-21.1877398183
 10
18.4915470885
 20
-21.0405306303
 10
18.5294358456
 20
-20.8991268011
 10
18.5740104283
 20
-20.7638488495
 10
18.6251700189
 20
-20.6350032598
 10
18.6827985705
 20
-20.5128826036
 10
18.7467655303
 20
-20.3977636433
 10
18.8169260677
 20
-20.2899071213
 10
18.893121071
 20
-20.1895576752
 10
18.9751778114
 20
-20.0969427327
 10
19.0629104878
 20
-20.012271948
 10
19.1561204633
 20
-19.9357370264
 10
19.2545965909
 20
-19.8675113635
 10
19.3056596358
 20
-19.8366100675
  0
LINE
  5
2F2
100
AcDbEntity
  8
0
100
AcDbLine
 62
7
  6
CONTINUOUS
 10
48.2129015803
 20
6.3209415945
 11
52.274834565
 21
8.6662354967
  0
LINE
  5
2F3
100
AcDbEntity
  8
ASSI
100
AcDbLine
 62
7
  6
CONTINUOUS
 10
48.2129015803
 20
6.3209415945
 11
52.274834565
 21
8.6662354967
  0
LINE
  5
2F4
100
AcDbEntity
  8
0
100
AcDbLine
 62
7
  6
CONTINUOUS
 10
48.9204388496
 20
5.0954510971
 11
52.9823718343
 21
7.4407449993
  0
LINE
  5
2F5
100
AcDbEntity
  8
ASSI
100
AcDbLine
 62
7
  6
CONTINUOUS
 10
48.9204388496
 20
5.0954510971
 11
52.9823718343
 21
7.4407449993
  0
LWPOLYLINE
  5
2F6
100
AcDbEntity
  8
0
100
AcDbPolyline
 62
7
  6
CONTINUOUS
 90
51
 70
0
 10
7.7459672523
 20
-18.1847313715
 10
7.6935110849
 20
-18.213591914
 10
7.5851831328
 20
-18.2647545957
 10
7.4722917411
 20
-18.3072021916
 10
7.3550926896
 20
-18.3408384554
 10
7.2338515171
 20
-18.3655871249
 10
7.1088428473
 20
-18.3813920974
 10
6.9803498716
 20
-18.3882175254
 10
6.8486637819
 20
-18.3860479131
 10
6.7140829259
 20
-18.374888164
 10
6.5769121466
 20
-18.3547635445
 10
6.4374622129
 20
-18.3257196362
 10
6.2960490381
 20
-18.2878222267
 10
6.1529929715
 20
-18.2411571579
 10
6.0086180998
 20
-18.1858301388
 10
5.8632514773
 20
-18.1219664938
 10
5.7172224292
 20
-18.0497108959
 10
5.570861815
 20
-17.9692270519
 10
5.4245012011
 20
-17.88069729
 10
5.2784721535
 20
-17.7843221661
 10
5.1331055317
 20
-17.6803200418
 10
4.988730661
 20
-17.5689265404
 10
4.8456745956
 20
-17.4503940112
 10
4.7042614214
 20
-17.3249909916
 10
4.5648114865
 20
-17.1930015698
 10
4.4276407059
 20
-17.0547247678
 10
4.2930598517
 20
-16.9104738755
 10
4.161373768
 20
-16.7605756532
 10
4.0328808013
 20
-16.605369721
 10
3.9078721441
 20
-16.4452078367
 10
3.7866309898
 20
-16.2804528736
 10
3.6694319597
 20
-16.1114780603
 10
3.556540586
 20
-15.938666287
 10
3.4482126494
 20
-15.7624091679
 10
3.3446934503
 20
-15.583105898
 10
3.2462173299
 20
-15.4011624166
 10
3.1530073521
 20
-15.2169908713
 10
3.0652746708
 20
-15.0310084946
 10
2.9832179332
 20
-14.843636393
 10
2.9070229389
 20
-14.6552987762
 10
2.8368624181
 20
-14.4664225386
 10
2.7728954928
 20
-14.2774360889
 10
2.7152669914
 20
-14.0887674214
 10
2.6641074614
 20
-13.9008440523
 10
2.6195329492
 20
-13.714092575
 10
2.5816442682
 20
-13.5289359008
 10
2.5505271307
 20
-13.3457935257
 10
2.526252015
 20
-13.16508143
 10
2.5088736587
 20
-12.9872092319
 10
2.498431083
 20
-12.8125793091
 10
2.4949476576
 20
-12.6415870636
  0
LWPOLYLINE
  5
2F7
100
AcDbEntity
  8
ASSI
100
AcDbPolyline
 62
7
  6
CONTINUOUS
 90
51
 70
0
 10
7.7459672523
 20
-18.1847313715
 10
7.6935110849
 20
-18.213591914
 10
7.5851831328
 20
-18.2647545957
 10
7.4722917411
 20
-18.3072021916
 10
7.3550926896
 20
-18.3408384554
 10
7.2338515171
 20
-18.3655871249
 10
7.1088428473
 20
-18.3813920974
 10
6.9803498716
 20
-18.3882175254
 10
6.8486637819
 20
-18.3860479131
 10
6.7140829259
 20
-18.374888164
 10
6.5769121466
 20
-18.3547635445
 10
6.4374622129
 20
-18.3257196362
 10
6.2960490381
 20
-18.2878222267
 10
6.1529929715
 20
-18.2411571579
 10
6.0086180998
 20
-18.1858301388
 10
5.8632514773
 20
-18.1219664938
 10
5.7172224292
 20
-18.0497108959
 10
5.570861815
 20
-17.9692270519
 10
5.4245012011
 20
-17.88069729
 10
5.2784721535
 20
-17.7843221661
 10
5.1331055317
 20
-17.6803200418
 10
4.988730661
 20
-17.5689265404
 10
4.8456745956
 20
-17.4503940112
 10
4.7042614214
 20
-17.3249909916
 10
4.5648114865
 20
-17.1930015698
 10
4.4276407059
 20
-17.0547247678
 10
4.2930598517
 20
-16.9104738755
 10
4.161373768
 20
-16.7605756532
 10
4.0328808013
 20
-16.605369721
 10
3.9078721441
 20
-16.4452078367
 10
3.7866309898
 20
-16.2804528736
 10
3.6694319597
 20
-16.1114780603
 10
3.556540586
 20
-15.938666287
 10
3.4482126494
 20
-15.7624091679
 10
3.3446934503
 20
-15.583105898
 10
3.2462173299
 20
-15.4011624166
 10
3.1530073521
 20
-15.2169908713
 10
3.0652746708
 20
-15.0310084946
 10
2.9832179332
 20
-14.843636393
 10
2.9070229389
 20
-14.6552987762
 10
2.8368624181
 20
-14.4664225386
 10
2.7728954928
 20
-14.2774360889
 10
2.7152669914
 20
-14.0887674214
 10
2.6641074614
 20
-13.9008440523
 10
2.6195329492
 20
-13.714092575
 10
2.5816442682
 20
-13.5289359008
 10
2.5505271307
 20
-13.3457935257
 10
2.526252015
 20
-13.16508143
 10
2.5088736587
 20
-12.9872092319
 10
2.498431083
 20
-12.8125793091
 10
2.4949476576
 20
-12.6415870636
  0
LWPOLYLINE
  5
2F8
100
AcDbEntity
  8
0
100
AcDbPolyline
 62
7
  6
CONTINUOUS
 90
51
 70
0
 10
23.655869829
 20
-10.6332690471
 10
23.6034136615
 20
-10.6621295896
 10
23.4950857095
 20
-10.7132922713
 10
23.3821943178
 20
-10.7557398673
 10
23.2649952663
 20
-10.789376131
 10
23.1437540938
 20
-10.8141248006
 10
23.018745424
 20
-10.829929773
 10
22.8902524483
 20
-10.836755201
 10
22.7585663586
 20
-10.8345855887
 10
22.6239855026
 20
-10.8234258396
 10
22.4868147233
 20
-10.8033012201
 10
22.3473647896
 20
-10.7742573118
 10
22.2059516148
 20
-10.7363599023
 10
22.0628955482
 20
-10.6896948335
 10
21.9185206765
 20
-10.6343678144
 10
21.773154054
 20
-10.5705041694
 10
21.6271250059
 20
-10.4982485716
 10
21.4807643917
 20
-10.4177647275
 10
21.3344037778
 20
-10.3292349657
 10
21.1883747302
 20
-10.2328598418
 10
21.0430081084
 20
-10.1288577175
 10
20.8986332377
 20
-10.017464216
 10
20.7555771723
 20
-9.8989316868
 10
20.614163998
 20
-9.7735286672
 10
20.4747140632
 20
-9.6415392454
 10
20.3375432825
 20
-9.5032624434
 10
20.2029624284
 20
-9.3590115512
 10
20.0712763447
 20
-9.2091133289
 10
19.942783378
 20
-9.0539073967
 10
19.8177747208
 20
-8.8937455123
 10
19.6965335665
 20
-8.7289905492
 10
19.5793345364
 20
-8.5600157359
 10
19.4664431627
 20
-8.3872039626
 10
19.3581152261
 20
-8.2109468435
 10
19.254596027
 20
-8.0316435737
 10
19.1561199066
 20
-7.8497000922
 10
19.0629099288
 20
-7.6655285469
 10
18.9751772475
 20
-7.4795461702
 10
18.8931205099
 20
-7.2921740687
 10
18.8169255156
 20
-7.1038364518
 10
18.7467649948
 20
-6.9149602143
 10
18.6827980695
 20
-6.7259737645
 10
18.6251695681
 20
-6.5373050971
 10
18.5740100381
 20
-6.3493817279
 10
18.5294355259
 20
-6.1626302506
 10
18.4915468449
 20
-5.9774735764
 10
18.4604297074
 20
-5.7943312013
 10
18.4361545917
 20
-5.6136191057
 10
18.4187762354
 20
-5.4357469076
 10
18.4083336597
 20
-5.2611169847
 10
18.4048502343
 20
-5.0901247392
  0
LWPOLYLINE
  5
2F9
100
AcDbEntity
  8
ASSI
100
AcDbPolyline
 62
7
  6
CONTINUOUS
 90
51
 70
0
 10
23.655869829
 20
-10.6332690471
 10
23.6034136615
 20
-10.6621295896
 10
23.4950857095
 20
-10.7132922713
 10
23.3821943178
 20
-10.7557398673
 10
23.2649952663
 20
-10.789376131
 10
23.1437540938
 20
-10.8141248006
 10
23.018745424
 20
-10.829929773
 10
22.8902524483
 20
-10.836755201
 10
22.7585663586
 20
-10.8345855887
 10
22.6239855026
 20
-10.8234258396
 10
22.4868147233
 20
-10.8033012201
 10
22.3473647896
 20
-10.7742573118
 10
22.2059516148
 20
-10.7363599023
 10
22.0628955482
 20
-10.6896948335
 10
21.9185206765
 20
-10.6343678144
 10
21.773154054
 20
-10.5705041694
 10
21.6271250059
 20
-10.4982485716
 10
21.4807643917
 20
-10.4177647275
 10
21.3344037778
 20
-10.3292349657
 10
21.1883747302
 20
-10.2328598418
 10
21.0430081084
 20
-10.1288577175
 10
20.8986332377
 20
-10.017464216
 10
20.7555771723
 20
-9.8989316868
 10
20.614163998
 20
-9.7735286672
 10
20.4747140632
 20
-9.6415392454
 10
20.3375432825
 20
-9.5032624434
 10
20.2029624284
 20
-9.3590115512
 10
20.0712763447
 20
-9.2091133289
 10
19.942783378
 20
-9.0539073967
 10
19.8177747208
 20
-8.8937455123
 10
19.6965335665
 20
-8.7289905492
 10
19.5793345364
 20
-8.5600157359
 10
19.4664431627
 20
-8.3872039626
 10
19.3581152261
 20
-8.2109468435
 10
19.254596027
 20
-8.0316435737
 10
19.1561199066
 20
-7.8497000922
 10
19.0629099288
 20
-7.6655285469
 10
18.9751772475
 20
-7.4795461702
 10
18.8931205099
 20
-7.2921740687
 10
18.8169255156
 20
-7.1038364518
 10
18.7467649948
 20
-6.9149602143
 10
18.6827980695
 20
-6.7259737645
 10
18.6251695681
 20
-6.5373050971
 10
18.5740100381
 20
-6.3493817279
 10
18.5294355259
 20
-6.1626302506
 10
18.4915468449
 20
-5.9774735764
 10
18.4604297074
 20
-5.7943312013
 10
18.4361545917
 20
-5.6136191057
 10
18.4187762354
 20
-5.4357469076
 10
18.4083336597
 20
-5.2611169847
 10
18.4048502343
 20
-5.0901247392
  0
LWPOLYLINE
  5
2FA
100
AcDbEntity
  8
0
100
AcDbPolyline
 62
7
  6
CONTINUOUS
 90
70
 70
0
 10
24.5566792306
 20
-9.0503882945
 10
24.5530647477
 20
-9.2291428642
 10
24.5424181596
 20
-9.4027232677
 10
24.5247394665
 20
-9.571129505
 10
24.4999630778
 20
-9.73468918
 10
24.4681545839
 20
-9.8930746888
 10
24.429510756
 20
-10.0453032199
 10
24.3839890186
 20
-10.1913363621
 10
24.3316319472
 20
-10.3312125267
 10
24.2727640395
 20
-10.4640641362
 10
24.2073447682
 20
-10.5898474267
 10
24.1354146606
 20
-10.7086061621
 10
24.0574197972
 20
-10.8196040568
 10
23.9733226453
 20
-10.9227926809
 10
23.8831607375
 20
-11.0182204643
 10
23.7874927519
 20
-11.1052964101
 10
23.6862845835
 20
-11.1839686984
 10
23.5795703374
 20
-11.2542891493
 10
23.4680110064
 20
-11.3158222253
 10
23.351576426
 20
-11.3685134598
 10
23.2302967608
 20
-11.4124173195
 10
23.1049234974
 20
-11.4472616671
 10
22.9754311545
 20
-11.4729902371
 10
22.8418452133
 20
-11.4896592951
 10
22.7049936042
 20
-11.4971655011
 10
22.564856093
 20
-11.4954519336
 10
22.421452914
 20
-11.4845755141
 10
22.2756726999
 20
-11.4646036671
 10
22.1275007193
 20
-11.435479926
 10
21.9769517037
 20
-11.3972607574
 10
21.8249584811
 20
-11.3501829861
 10
21.6715120683
 20
-11.2941916089
 10
21.5166214485
 20
-11.229341629
 10
21.3612463983
 20
-11.1560348801
 10
21.2053838879
 20
-11.0742188362
 10
21.0490369472
 20
-10.9839460233
 10
20.8931744426
 20
-10.8857758537
 10
20.7377994061
 20
-10.7796593019
 10
20.5829088058
 20
-10.6656453933
 10
20.4294624129
 20
-10.5444406166
 10
20.2774692083
 20
-10.4160003407
 10
20.1269202112
 20
-10.2803691966
 10
19.9787482504
 20
-10.1383875659
 10
19.8329680547
 20
-9.9900159894
 10
19.6895648952
 20
-9.8352939263
 10
19.5494274143
 20
-9.6751801352
 10
19.4125758493
 20
-9.5096410628
 10
19.2789899629
 20
-9.3387102623
 10
19.1494976853
 20
-9.163447153
 10
19.0241245045
 20
-8.9838249066
 10
18.9028449326
 20
-8.7998703513
 10
18.7864104357
 20
-8.612723391
 10
18.6748511726
 20
-8.4223643883
 10
18.5681369847
 20
-8.2288129805
 10
18.4669288619
 20
-8.0332679838
 10
18.3712608988
 20
-7.8357169353
 10
18.2810990009
 20
-7.6361722977
 10
18.1970018748
 20
-7.4358702756
 10
18.1190070624
 20
-7.2348057887
 10
18.0470770219
 20
-7.0329839172
 10
17.9816578344
 20
-6.8316561069
 10
17.922790034
 20
-6.6308254058
 10
17.8704330866
 20
-6.4304887658
 10
17.8249114715
 20
-6.2318884883
 10
17.7862677657
 20
-6.0350353513
 10
17.7544593923
 20
-5.8399185767
 10
17.7296830995
 20
-5.6477481315
 10
17.7120044701
 20
-5.4589273381
 10
17.7013579213
 20
-5.2730528739
 10
17.6977434531
 20
-5.0901247392
  0
LWPOLYLINE
  5
2FB
100
AcDbEntity
  8
ASSI
100
AcDbPolyline
 62
7
  6
CONTINUOUS
 90
70
 70
0
 10
24.5566792306
 20
-9.0503882945
 10
24.5530647477
 20
-9.2291428642
 10
24.5424181596
 20
-9.4027232677
 10
24.5247394665
 20
-9.571129505
 10
24.4999630778
 20
-9.73468918
 10
24.4681545839
 20
-9.8930746888
 10
24.429510756
 20
-10.0453032199
 10
24.3839890186
 20
-10.1913363621
 10
24.3316319472
 20
-10.3312125267
 10
24.2727640395
 20
-10.4640641362
 10
24.2073447682
 20
-10.5898474267
 10
24.1354146606
 20
-10.7086061621
 10
24.0574197972
 20
-10.8196040568
 10
23.9733226453
 20
-10.9227926809
 10
23.8831607375
 20
-11.0182204643
 10
23.7874927519
 20
-11.1052964101
 10
23.6862845835
 20
-11.1839686984
 10
23.5795703374
 20
-11.2542891493
 10
23.4680110064
 20
-11.3158222253
 10
23.351576426
 20
-11.3685134598
 10
23.2302967608
 20
-11.4124173195
 10
23.1049234974
 20
-11.4472616671
 10
22.9754311545
 20
-11.4729902371
 10
22.8418452133
 20
-11.4896592951
 10
22.7049936042
 20
-11.4971655011
 10
22.564856093
 20
-11.4954519336
 10
22.421452914
 20
-11.4845755141
 10
22.2756726999
 20
-11.4646036671
 10
22.1275007193
 20
-11.435479926
 10
21.9769517037
 20
-11.3972607574
 10
21.8249584811
 20
-11.3501829861
 10
21.6715120683
 20
-11.2941916089
 10
21.5166214485
 20
-11.229341629
 10
21.3612463983
 20
-11.1560348801
 10
21.2053838879
 20
-11.0742188362
 10
21.0490369472
 20
-10.9839460233
 10
20.8931744426
 20
-10.8857758537
 10
20.7377994061
 20
-10.7796593019
 10
20.5829088058
 20
-10.6656453933
 10
20.4294624129
 20
-10.5444406166
 10
20.2774692083
 20
-10.4160003407
 10
20.1269202112
 20
-10.2803691966
 10
19.9787482504
 20
-10.1383875659
 10
19.8329680547
 20
-9.9900159894
 10
19.6895648952
 20
-9.8352939263
 10
19.5494274143
 20
-9.6751801352
 10
19.4125758493
 20
-9.5096410628
 10
19.2789899629
 20
-9.3387102623
 10
19.1494976853
 20
-9.163447153
 10
19.0241245045
 20
-8.9838249066
 10
18.9028449326
 20
-8.7998703513
 10
18.7864104357
 20
-8.612723391
 10
18.6748511726
 20
-8.4223643883
 10
18.5681369847
 20
-8.2288129805
 10
18.4669288619
 20
-8.0332679838
 10
18.3712608988
 20
-7.8357169353
 10
18.2810990009
 20
-7.6361722977
 10
18.1970018748
 20
-7.4358702756
 10
18.1190070624
 20
-7.2348057887
 10
18.0470770219
 20
-7.0329839172
 10
17.9816578344
 20
-6.8316561069
 10
17.922790034
 20
-6.6308254058
 10
17.8704330866
 20
-6.4304887658
 10
17.8249114715
 20
-6.2318884883
 10
17.7862677657
 20
-6.0350353513
 10
17.7544593923
 20
-5.8399185767
 10
17.7296830995
 20
-5.6477481315
 10
17.7120044701
 20
-5.4589273381
 10
17.7013579213
 20
-5.2730528739
 10
17.6977434531
 20
-5.0901247392
  0
LWPOLYLINE
  5
2FC
100
AcDbEntity
  8
0
100
AcDbPolyline
 62
7
  6
CONTINUOUS
 90
70
 70
0
 10
24.5566792306
 20
-25.7880289687
 10
24.5530647477
 20
-25.9667835384
 10
24.5424181596
 20
-26.1403639419
 10
24.5247394665
 20
-26.3087701792
 10
24.4999630778
 20
-26.4723298542
 10
24.4681545839
 20
-26.630715363
 10
24.429510756
 20
-26.7829438942
 10
24.3839890186
 20
-26.9289770364
 10
24.3316319472
 20
-27.068853201
 10
24.2727640395
 20
-27.2017048105
 10
24.2073447682
 20
-27.327488101
 10
24.1354146606
 20
-27.4462468364
 10
24.0574197972
 20
-27.557244731
 10
23.9733226453
 20
-27.6604333552
 10
23.8831607375
 20
-27.7558611385
 10
23.7874927519
 20
-27.8429370843
 10
23.6862845835
 20
-27.9216093727
 10
23.5795703374
 20
-27.9919298235
 10
23.4680110064
 20
-28.0534628995
 10
23.351576426
 20
-28.106154134
 10
23.2302967608
 20
-28.1500579937
 10
23.1049234974
 20
-28.1849023414
 10
22.9754311545
 20
-28.2106309114
 10
22.8418452133
 20
-28.2272999693
 10
22.7049936042
 20
-28.2348061753
 10
22.564856093
 20
-28.2330926078
 10
22.421452914
 20
-28.2222161883
 10
22.2756726999
 20
-28.2022443414
 10
22.1275007193
 20
-28.1731206003
 10
21.9769517037
 20
-28.1349014317
 10
21.8249584811
 20
-28.0878236603
 10
21.6715120683
 20
-28.0318322832
 10
21.5166214485
 20
-27.9669823032
 10
21.3612463983
 20
-27.8936755544
 10
21.2053838879
 20
-27.8118595104
 10
21.0490369472
 20
-27.7215866976
 10
20.8931744426
 20
-27.6234165279
 10
20.7377994061
 20
-27.5172999761
 10
20.5829088058
 20
-27.4032860675
 10
20.4294624129
 20
-27.2820812908
 10
20.2774692083
 20
-27.1536410149
 10
20.1269202112
 20
-27.0180098709
 10
19.9787482504
 20
-26.8760282401
 10
19.8329680547
 20
-26.7276566637
 10
19.6895648952
 20
-26.5729346006
 10
19.5494274143
 20
-26.4128208095
 10
19.4125758493
 20
-26.247281737
 10
19.2789899629
 20
-26.0763509366
 10
19.1494976853
 20
-25.9010878273
 10
19.0241245045
 20
-25.7214655809
 10
18.9028449326
 20
-25.5375110256
 10
18.7864104357
 20
-25.3503640653
 10
18.6748511726
 20
-25.1600050625
 10
18.5681369847
 20
-24.9664536548
 10
18.4669288619
 20
-24.7709086581
 10
18.3712608988
 20
-24.5733576095
 10
18.2810990009
 20
-24.373812972
 10
18.1970018748
 20
-24.1735109499
 10
18.1190070624
 20
-23.9724464629
 10
18.0470770219
 20
-23.7706245914
 10
17.9816578344
 20
-23.5692967811
 10
17.922790034
 20
-23.36846608
 10
17.8704330866
 20
-23.1681294401
 10
17.8249114715
 20
-22.9695291625
 10
17.7862677657
 20
-22.7726760255
 10
17.7544593923
 20
-22.577559251
 10
17.7296830995
 20
-22.3853888058
 10
17.7120044701
 20
-22.1965680123
 10
17.7013579213
 20
-22.0106935482
 10
17.6977434531
 20
-21.8277654134
  0
LWPOLYLINE
  5
2FD
100
AcDbEntity
  8
ASSI
100
AcDbPolyline
 62
7
  6
CONTINUOUS
 90
70
 70
0
 10
24.5566792306
 20
-25.7880289687
 10
24.5530647477
 20
-25.9667835384
 10
24.5424181596
 20
-26.1403639419
 10
24.5247394665
 20
-26.3087701792
 10
24.4999630778
 20
-26.4723298542
 10
24.4681545839
 20
-26.630715363
 10
24.429510756
 20
-26.7829438942
 10
24.3839890186
 20
-26.9289770364
 10
24.3316319472
 20
-27.068853201
 10
24.2727640395
 20
-27.2017048105
 10
24.2073447682
 20
-27.327488101
 10
24.1354146606
 20
-27.4462468364
 10
24.0574197972
 20
-27.557244731
 10
23.9733226453
 20
-27.6604333552
 10
23.8831607375
 20
-27.7558611385
 10
23.7874927519
 20
-27.8429370843
 10
23.6862845835
 20
-27.9216093727
 10
23.5795703374
 20
-27.9919298235
 10
23.4680110064
 20
-28.0534628995
 10
23.351576426
 20
-28.106154134
 10
23.2302967608
 20
-28.1500579937
 10
23.1049234974
 20
-28.1849023414
 10
22.9754311545
 20
-28.2106309114
 10
22.8418452133
 20
-28.2272999693
 10
22.7049936042
 20
-28.2348061753
 10
22.564856093
 20
-28.2330926078
 10
22.421452914
 20
-28.2222161883
 10
22.2756726999
 20
-28.2022443414
 10
22.1275007193
 20
-28.1731206003
 10
21.9769517037
 20
-28.1349014317
 10
21.8249584811
 20
-28.0878236603
 10
21.6715120683
 20
-28.0318322832
 10
21.5166214485
 20
-27.9669823032
 10
21.3612463983
 20
-27.8936755544
 10
21.2053838879
 20
-27.8118595104
 10
21.0490369472
 20
-27.7215866976
 10
20.8931744426
 20
-27.6234165279
 10
20.7377994061
 20
-27.5172999761
 10
20.5829088058
 20
-27.4032860675
 10
20.4294624129
 20
-27.2820812908
 10
20.2774692083
 20
-27.1536410149
 10
20.1269202112
 20
-27.0180098709
 10
19.9787482504
 20
-26.8760282401
 10
19.8329680547
 20
-26.7276566637
 10
19.6895648952
 20
-26.5729346006
 10
19.5494274143
 20
-26.4128208095
 10
19.4125758493
 20
-26.247281737
 10
19.2789899629
 20
-26.0763509366
 10
19.1494976853
 20
-25.9010878273
 10
19.0241245045
 20
-25.7214655809
 10
18.9028449326
 20
-25.5375110256
 10
18.7864104357
 20
-25.3503640653
 10
18.6748511726
 20
-25.1600050625
 10
18.5681369847
 20
-24.9664536548
 10
18.4669288619
 20
-24.7709086581
 10
18.3712608988
 20
-24.5733576095
 10
18.2810990009
 20
-24.373812972
 10
18.1970018748
 20
-24.1735109499
 10
18.1190070624
 20
-23.9724464629
 10
18.0470770219
 20
-23.7706245914
 10
17.9816578344
 20
-23.5692967811
 10
17.922790034
 20
-23.36846608
 10
17.8704330866
 20
-23.1681294401
 10
17.8249114715
 20
-22.9695291625
 10
17.7862677657
 20
-22.7726760255
 10
17.7544593923
 20
-22.577559251
 10
17.7296830995
 20
-22.3853888058
 10
17.7120044701
 20
-22.1965680123
 10
17.7013579213
 20
-22.0106935482
 10
17.6977434531
 20
-21.8277654134
  0
LINE
  5
2FE
100
AcDbEntity
  8
0
100
AcDbLine
 62
7
  6
CONTINUOUS
 10
24.5513589747
 20
-8.8376793933
 11
24.5427531807
 21
-8.9716550348
  0
LINE
  5
2FF
100
AcDbEntity
  8
ASSI
100
AcDbLine
 62
7
  6
CONTINUOUS
 10
24.5513589747
 20
-8.8376793933
 11
24.5427531807
 21
-8.9716550348
  0
LINE
  5
300
100
AcDbEntity
  8
0
100
AcDbLine
 62
7
  6
CONTINUOUS
 10
24.5513589747
 20
-25.5753200675
 11
24.5427531807
 21
-25.7092957091
  0
LINE
  5
301
100
AcDbEntity
  8
ASSI
100
AcDbLine
 62
7
  6
CONTINUOUS
 10
24.5513589747
 20
-25.5753200675
 11
24.5427531807
 21
-25.7092957091
  0
LWPOLYLINE
  5
302
100
AcDbEntity
  8
0
100
AcDbPolyline
 62
7
  6
CONTINUOUS
 90
16
 70
0
 10
24.5427531807
 20
-8.9716550348
 10
24.5253747707
 20
-9.1294593439
 10
24.5010995884
 20
-9.2821392963
 10
24.4699823763
 20
-9.4293484843
 10
24.4320936192
 20
-9.5707523135
 10
24.3875190366
 20
-9.7060302651
 10
24.336359446
 20
-9.8348758548
 10
24.2787308943
 20
-9.956996511
 10
24.2147639346
 20
-10.0721154713
 10
24.1446033971
 20
-10.1799719933
 10
24.0684083939
 20
-10.2803214394
 10
23.9863516535
 20
-10.3729363819
 10
23.898618977
 20
-10.4576071666
 10
23.8054090015
 20
-10.5341420882
 10
23.706932874
 20
-10.6023677511
 10
23.655869829
 20
-10.6332690471
  0
LWPOLYLINE
  5
303
100
AcDbEntity
  8
ASSI
100
AcDbPolyline
 62
7
  6
CONTINUOUS
 90
16
 70
0
 10
24.5427531807
 20
-8.9716550348
 10
24.5253747707
 20
-9.1294593439
 10
24.5010995884
 20
-9.2821392963
 10
24.4699823763
 20
-9.4293484843
 10
24.4320936192
 20
-9.5707523135
 10
24.3875190366
 20
-9.7060302651
 10
24.336359446
 20
-9.8348758548
 10
24.2787308943
 20
-9.956996511
 10
24.2147639346
 20
-10.0721154713
 10
24.1446033971
 20
-10.1799719933
 10
24.0684083939
 20
-10.2803214394
 10
23.9863516535
 20
-10.3729363819
 10
23.898618977
 20
-10.4576071666
 10
23.8054090015
 20
-10.5341420882
 10
23.706932874
 20
-10.6023677511
 10
23.655869829
 20
-10.6332690471
  0
LWPOLYLINE
  5
304
100
AcDbEntity
  8
0
100
AcDbPolyline
 62
7
  6
CONTINUOUS
 90
16
 70
0
 10
24.5427531807
 20
-25.7092957091
 10
24.5253747707
 20
-25.8671000181
 10
24.5010995884
 20
-26.0197799706
 10
24.4699823763
 20
-26.1669891586
 10
24.4320936192
 20
-26.3083929877
 10
24.3875190366
 20
-26.4436709393
 10
24.336359446
 20
-26.5725165291
 10
24.2787308943
 20
-26.6946371852
 10
24.2147639346
 20
-26.8097561455
 10
24.1446033971
 20
-26.9176126676
 10
24.0684083939
 20
-27.0179621136
 10
23.9863516535
 20
-27.1105770562
 10
23.898618977
 20
-27.1952478409
 10
23.8054090015
 20
-27.2717827625
 10
23.706932874
 20
-27.3400084253
 10
23.655869829
 20
-27.3709097214
  0
LWPOLYLINE
  5
305
100
AcDbEntity
  8
ASSI
100
AcDbPolyline
 62
7
  6
CONTINUOUS
 90
16
 70
0
 10
24.5427531807
 20
-25.7092957091
 10
24.5253747707
 20
-25.8671000181
 10
24.5010995884
 20
-26.0197799706
 10
24.4699823763
 20
-26.1669891586
 10
24.4320936192
 20
-26.3083929877
 10
24.3875190366
 20
-26.4436709393
 10
24.336359446
 20
-26.5725165291
 10
24.2787308943
 20
-26.6946371852
 10
24.2147639346
 20
-26.8097561455
 10
24.1446033971
 20
-26.9176126676
 10
24.0684083939
 20
-27.0179621136
 10
23.9863516535
 20
-27.1105770562
 10
23.898618977
 20
-27.1952478409
 10
23.8054090015
 20
-27.2717827625
 10
23.706932874
 20
-27.3400084253
 10
23.655869829
 20
-27.3709097214
  0
LWPOLYLINE
  5
306
100
AcDbEntity
  8
0
100
AcDbPolyline
 62
7
  6
CONTINUOUS
 90
13
 70
0
 10
19.8582843618
 20
-19.6506327214
 10
19.8069699893
 20
-19.7182429616
 10
19.7367026421
 20
-19.8262593722
 10
19.6727639836
 20
-19.941267114
 10
19.6151969584
 20
-20.063313628
 10
19.5639586219
 20
-20.1923514732
 10
19.5193958777
 20
-20.3275070129
 10
19.4815540244
 20
-20.4688217599
 10
19.4503877634
 20
-20.6162542013
 10
19.4261081024
 20
-20.7688061619
 10
19.4087853775
 20
-20.9261449164
 10
19.3983492527
 20
-21.08860319
 10
19.3947997279
 20
-21.2561809828
  0
LWPOLYLINE
  5
307
100
AcDbEntity
  8
ASSI
100
AcDbPolyline
 62
7
  6
CONTINUOUS
 90
13
 70
0
 10
19.8582843618
 20
-19.6506327214
 10
19.8069699893
 20
-19.7182429616
 10
19.7367026421
 20
-19.8262593722
 10
19.6727639836
 20
-19.941267114
 10
19.6151969584
 20
-20.063313628
 10
19.5639586219
 20
-20.1923514732
 10
19.5193958777
 20
-20.3275070129
 10
19.4815540244
 20
-20.4688217599
 10
19.4503877634
 20
-20.6162542013
 10
19.4261081024
 20
-20.7688061619
 10
19.4087853775
 20
-20.9261449164
 10
19.3983492527
 20
-21.08860319
 10
19.3947997279
 20
-21.2561809828
  0
LWPOLYLINE
  5
308
100
AcDbEntity
  8
0
100
AcDbPolyline
 62
7
  6
CONTINUOUS
 90
16
 70
0
 10
19.3056596358
 20
-19.8366100675
 10
19.3581158033
 20
-19.807749525
 10
19.4664437553
 20
-19.7565868433
 10
19.5793351471
 20
-19.7141392473
 10
19.6965341986
 20
-19.6805029836
 10
19.8177753711
 20
-19.655754314
 10
19.9427840409
 20
-19.6399493416
 10
20.0712770166
 20
-19.6331239136
 10
20.2029631063
 20
-19.6352935259
 10
20.3375439623
 20
-19.646453275
 10
20.4747147416
 20
-19.6665778945
 10
20.6141646752
 20
-19.6956218028
 10
20.7555778501
 20
-19.7335192123
 10
20.8986339167
 20
-19.7801842811
 10
21.0430087884
 20
-19.8355113002
 10
21.1883754108
 20
-19.8993749452
  0
LWPOLYLINE
  5
309
100
AcDbEntity
  8
ASSI
100
AcDbPolyline
 62
7
  6
CONTINUOUS
 90
16
 70
0
 10
19.3056596358
 20
-19.8366100675
 10
19.3581158033
 20
-19.807749525
 10
19.4664437553
 20
-19.7565868433
 10
19.5793351471
 20
-19.7141392473
 10
19.6965341986
 20
-19.6805029836
 10
19.8177753711
 20
-19.655754314
 10
19.9427840409
 20
-19.6399493416
 10
20.0712770166
 20
-19.6331239136
 10
20.2029631063
 20
-19.6352935259
 10
20.3375439623
 20
-19.646453275
 10
20.4747147416
 20
-19.6665778945
 10
20.6141646752
 20
-19.6956218028
 10
20.7555778501
 20
-19.7335192123
 10
20.8986339167
 20
-19.7801842811
 10
21.0430087884
 20
-19.8355113002
 10
21.1883754108
 20
-19.8993749452
  0
LINE
  5
30A
100
AcDbEntity
  8
0
100
AcDbLine
 62
7
  6
CONTINUOUS
 10
48.8989374977
 20
5.1074460445
 11
48.9204388496
 21
5.0954510971
  0
LINE
  5
30B
100
AcDbEntity
  8
ASSI
100
AcDbLine
 62
7
  6
CONTINUOUS
 10
48.8989374977
 20
5.1074460445
 11
48.9204388496
 21
5.0954510971
  0
LINE
  5
30C
100
AcDbEntity
  8
0
100
AcDbLine
 62
7
  6
CONTINUOUS
 10
47.2030024326
 20
5.2430282598
 11
-52.678287479
 21
62.9132332483
  0
LINE
  5
30D
100
AcDbEntity
  8
ASSI
100
AcDbLine
 62
7
  6
CONTINUOUS
 10
47.2030024326
 20
5.2430282598
 11
-52.678287479
 21
62.9132332483
  0
LINE
  5
30E
100
AcDbEntity
  8
0
100
AcDbLine
 62
7
  6
CONTINUOUS
 10
47.2030024326
 20
5.2430282598
 11
48.21253915
 21
6.2963228556
  0
LINE
  5
30F
100
AcDbEntity
  8
ASSI
100
AcDbLine
 62
7
  6
CONTINUOUS
 10
47.2030024326
 20
5.2430282598
 11
48.21253915
 21
6.2963228556
  0
LINE
  5
310
100
AcDbEntity
  8
0
100
AcDbLine
 62
7
  6
CONTINUOUS
 10
48.2129015803
 20
6.3209415945
 11
-52.274834565
 21
64.3413010376
  0
LINE
  5
311
100
AcDbEntity
  8
ASSI
100
AcDbLine
 62
7
  6
CONTINUOUS
 10
48.2129015803
 20
6.3209415945
 11
-52.274834565
 21
64.3413010376
  0
LINE
  5
312
100
AcDbEntity
  8
0
100
AcDbLine
 62
7
  6
CONTINUOUS
 10
52.274834565
 20
8.6662354967
 11
-48.4870207779
 21
66.844867929
  0
LINE
  5
313
100
AcDbEntity
  8
ASSI
100
AcDbLine
 62
7
  6
CONTINUOUS
 10
52.274834565
 20
8.6662354967
 11
-48.4870207779
 21
66.844867929
  0
LWPOLYLINE
  5
314
100
AcDbEntity
  8
0
100
AcDbPolyline
 62
7
  6
CONTINUOUS
 90
51
 70
0
 10
23.655869829
 20
-27.3709097214
 10
23.6034136615
 20
-27.3997702638
 10
23.4950857095
 20
-27.4509329455
 10
23.3821943178
 20
-27.4933805415
 10
23.2649952663
 20
-27.5270168053
 10
23.1437540938
 20
-27.5517654748
 10
23.018745424
 20
-27.5675704473
 10
22.8902524483
 20
-27.5743958753
 10
22.7585663586
 20
-27.572226263
 10
22.6239855026
 20
-27.5610665139
 10
22.4868147233
 20
-27.5409418944
 10
22.3473647896
 20
-27.511897986
 10
22.2059516148
 20
-27.4740005766
 10
22.0628955482
 20
-27.4273355078
 10
21.9185206765
 20
-27.3720084887
 10
21.773154054
 20
-27.3081448436
 10
21.6271250059
 20
-27.2358892458
 10
21.4807643917
 20
-27.1554054017
 10
21.3344037778
 20
-27.0668756399
 10
21.1883747302
 20
-26.970500516
 10
21.0430081084
 20
-26.8664983917
 10
20.8986332377
 20
-26.7551048903
 10
20.7555771723
 20
-26.636572361
 10
20.614163998
 20
-26.5111693415
 10
20.4747140632
 20
-26.3791799197
 10
20.3375432825
 20
-26.2409031176
 10
20.2029624284
 20
-26.0966522254
 10
20.0712763447
 20
-25.9467540031
 10
19.942783378
 20
-25.7915480709
 10
19.8177747208
 20
-25.6313861866
 10
19.6965335665
 20
-25.4666312235
 10
19.5793345364
 20
-25.2976564102
 10
19.4664431627
 20
-25.1248446368
 10
19.3581152261
 20
-24.9485875178
 10
19.254596027
 20
-24.7692842479
 10
19.1561199066
 20
-24.5873407665
 10
19.0629099288
 20
-24.4031692212
 10
18.9751772475
 20
-24.2171868445
 10
18.8931205099
 20
-24.0298147429
 10
18.8169255156
 20
-23.841477126
 10
18.7467649948
 20
-23.6526008885
 10
18.6827980695
 20
-23.4636144387
 10
18.6251695681
 20
-23.2749457713
 10
18.5740100381
 20
-23.0870224022
 10
18.5294355259
 20
-22.9002709249
 10
18.4915468449
 20
-22.7151142506
 10
18.4604297074
 20
-22.5319718755
 10
18.4361545917
 20
-22.3512597799
 10
18.4187762354
 20
-22.1733875818
 10
18.4083336597
 20
-21.998757659
 10
18.4048502343
 20
-21.8277654134
  0
LWPOLYLINE
  5
315
100
AcDbEntity
  8
ASSI
100
AcDbPolyline
 62
7
  6
CONTINUOUS
 90
51
 70
0
 10
23.655869829
 20
-27.3709097214
 10
23.6034136615
 20
-27.3997702638
 10
23.4950857095
 20
-27.4509329455
 10
23.3821943178
 20
-27.4933805415
 10
23.2649952663
 20
-27.5270168053
 10
23.1437540938
 20
-27.5517654748
 10
23.018745424
 20
-27.5675704473
 10
22.8902524483
 20
-27.5743958753
 10
22.7585663586
 20
-27.572226263
 10
22.6239855026
 20
-27.5610665139
 10
22.4868147233
 20
-27.5409418944
 10
22.3473647896
 20
-27.511897986
 10
22.2059516148
 20
-27.4740005766
 10
22.0628955482
 20
-27.4273355078
 10
21.9185206765
 20
-27.3720084887
 10
21.773154054
 20
-27.3081448436
 10
21.6271250059
 20
-27.2358892458
 10
21.4807643917
 20
-27.1554054017
 10
21.3344037778
 20
-27.0668756399
 10
21.1883747302
 20
-26.970500516
 10
21.0430081084
 20
-26.8664983917
 10
20.8986332377
 20
-26.7551048903
 10
20.7555771723
 20
-26.636572361
 10
20.614163998
 20
-26.5111693415
 10
20.4747140632
 20
-26.3791799197
 10
20.3375432825
 20
-26.2409031176
 10
20.2029624284
 20
-26.0966522254
 10
20.0712763447
 20
-25.9467540031
 10
19.942783378
 20
-25.7915480709
 10
19.8177747208
 20
-25.6313861866
 10
19.6965335665
 20
-25.4666312235
 10
19.5793345364
 20
-25.2976564102
 10
19.4664431627
 20
-25.1248446368
 10
19.3581152261
 20
-24.9485875178
 10
19.254596027
 20
-24.7692842479
 10
19.1561199066
 20
-24.5873407665
 10
19.0629099288
 20
-24.4031692212
 10
18.9751772475
 20
-24.2171868445
 10
18.8931205099
 20
-24.0298147429
 10
18.8169255156
 20
-23.841477126
 10
18.7467649948
 20
-23.6526008885
 10
18.6827980695
 20
-23.4636144387
 10
18.6251695681
 20
-23.2749457713
 10
18.5740100381
 20
-23.0870224022
 10
18.5294355259
 20
-22.9002709249
 10
18.4915468449
 20
-22.7151142506
 10
18.4604297074
 20
-22.5319718755
 10
18.4361545917
 20
-22.3512597799
 10
18.4187762354
 20
-22.1733875818
 10
18.4083336597
 20
-21.998757659
 10
18.4048502343
 20
-21.8277654134
  0
LINE
  5
316
100
AcDbEntity
  8
0
100
AcDbLine
 62
7
  6
CONTINUOUS
 10
47.4819783668
 20
4.7598277683
 11
47.2030024326
 21
5.2430282598
  0
LINE
  5
317
100
AcDbEntity
  8
ASSI
100
AcDbLine
 62
7
  6
CONTINUOUS
 10
47.4819783668
 20
4.7598277683
 11
47.2030024326
 21
5.2430282598
  0
LINE
  5
318
100
AcDbEntity
  8
0
100
AcDbLine
 62
7
  6
CONTINUOUS
 10
48.8989374977
 20
5.1074460445
 11
48.21253915
 21
6.2963228556
  0
LINE
  5
319
100
AcDbEntity
  8
ASSI
100
AcDbLine
 62
7
  6
CONTINUOUS
 10
48.8989374977
 20
5.1074460445
 11
48.21253915
 21
6.2963228556
  0
LWPOLYLINE
  5
31A
100
AcDbEntity
  8
CURVE
100
AcDbPolyline
 62
250
  6
CONTINUOUS
 90
73
 70
0
 10
50.9971011041
 20
-53.4643714226
 10
50.9959581259
 20
-53.4580353646
 10
50.9942061051
 20
-53.4522315656
 10
50.9919126468
 20
-53.4469065454
 10
50.9891453565
 20
-53.4420068241
 10
50.9859718393
 20
-53.4374789216
 10
50.9824597004
 20
-53.4332693577
 10
50.9786765452
 20
-53.4293246524
 10
50.9746899789
 20
-53.4255913257
 10
50.9705676066
 20
-53.4220158973
 10
50.9663770338
 20
-53.4185448873
 10
50.9557838719
 20
-53.4100598435
 10
50.9451328878
 20
-53.4019453118
 10
50.9343700351
 20
-53.3942487606
 10
50.9234412675
 20
-53.3870176585
 10
50.9122925384
 20
-53.3802994741
 10
50.9008698016
 20
-53.374141676
 10
50.8891190106
 20
-53.3685917328
 10
50.8769861191
 20
-53.3636971129
 10
50.8634082319
 20
-53.3591897964
 10
50.8493588644
 20
-53.3554912694
 10
50.8348752896
 20
-53.3525905345
 10
50.8199947803
 20
-53.3504765944
 10
50.8047546092
 20
-53.3491384516
 10
50.7891920493
 20
-53.3485651089
 10
50.7733443733
 20
-53.3487455689
 10
50.757248854
 20
-53.3496688343
 10
50.7409427643
 20
-53.3513239075
 10
50.7244633769
 20
-53.3536997914
 10
50.7078584161
 20
-53.3567819949
 10
50.6911272571
 20
-53.3605594151
 10
50.6742794812
 20
-53.3650187366
 10
50.6573246695
 20
-53.370146644
 10
50.6402724032
 20
-53.3759298218
 10
50.6231322634
 20
-53.3823549544
 10
50.6034441619
 20
-53.3904683381
 10
50.5836787396
 20
-53.3993765984
 10
50.5638609956
 20
-53.409053046
 10
50.544015929
 20
-53.419470991
 10
50.5241685389
 20
-53.430603744
 10
50.5043438243
 20
-53.4424246152
 10
50.4850593015
 20
-53.4545938052
 10
50.4658435264
 20
-53.4674033276
 10
50.4467199209
 20
-53.4808646676
 10
50.4277119064
 20
-53.4949893105
 10
50.4088429046
 20
-53.5097887418
 10
50.3920199783
 20
-53.5236749721
 10
50.3753487484
 20
-53.5381093828
 10
50.3588496591
 20
-53.5530856235
 10
50.3425431545
 20
-53.5685973436
 10
50.3264496791
 20
-53.5846381926
 10
50.3091965569
 20
-53.6026903305
 10
50.2922488226
 20
-53.6213280073
 10
50.2756351783
 20
-53.6405172246
 10
50.2593843261
 20
-53.6602239842
 10
50.2435249682
 20
-53.6804142877
 10
50.2280858065
 20
-53.7010541368
 10
50.2130955431
 20
-53.7221095332
 10
50.1985828802
 20
-53.7435464787
 10
50.1853381876
 20
-53.764113511
 10
50.1725555275
 20
-53.7849661056
 10
50.1602452957
 20
-53.806079799
 10
50.148417888
 20
-53.8274301281
 10
50.1370836999
 20
-53.8489926295
 10
50.1262531275
 20
-53.8707428399
 10
50.1159365662
 20
-53.8926562961
 10
50.108752508
 20
-53.9087161115
 10
50.1018864384
 20
-53.9248291448
 10
50.0953777275
 20
-53.9409748784
 10
50.0892657456
 20
-53.957132795
 10
50.0835898628
 20
-53.973282377
 10
50.0783894495
 20
-53.989403107
 10
50.0737038756
 20
-54.0054744675
  0
LWPOLYLINE
  5
31B
100
AcDbEntity
  8
CURVE
100
AcDbPolyline
 62
250
  6
CONTINUOUS
 90
22
 70
0
 10
50.3445469555
 20
-54.5008316242
 10
50.342319287
 20
-54.4871553963
 10
50.340192507
 20
-54.4734067584
 10
50.338183658
 20
-54.4595739507
 10
50.3363097825
 20
-54.4456452131
 10
50.3345879231
 20
-54.4316087856
 10
50.3330351221
 20
-54.4174529084
 10
50.3315649337
 20
-54.4020299732
 10
50.3303116089
 20
-54.3864592095
 10
50.3292752182
 20
-54.3707456378
 10
50.3284558321
 20
-54.3548942787
 10
50.3278535212
 20
-54.3389101526
 10
50.3274683561
 20
-54.3227982802
 10
50.3273004074
 20
-54.3065636819
 10
50.3273497454
 20
-54.2902113784
 10
50.3276164409
 20
-54.2737463902
 10
50.3281005643
 20
-54.2571737377
 10
50.3288021862
 20
-54.2404984416
 10
50.3297213771
 20
-54.2237255224
 10
50.3308582076
 20
-54.2068600007
 10
50.3322127483
 20
-54.1899068969
 10
50.3337850696
 20
-54.1728712316
  0
LINE
  5
31C
100
AcDbEntity
  8
0
100
AcDbLine
 62
7
  6
CONTINUOUS
 10
47.4819783668
 20
-66.071805831
 11
47.4819783668
 21
4.7598277683
  0
LINE
  5
31D
100
AcDbEntity
  8
ASSI
100
AcDbLine
 62
7
  6
CONTINUOUS
 10
47.4819783668
 20
-66.071805831
 11
47.4819783668
 21
4.7598277683
  0
LINE
  5
31E
100
AcDbEntity
  8
0
100
AcDbLine
 62
7
  6
CONTINUOUS
 10
48.9204388496
 20
-66.4364237351
 11
48.9204388496
 21
5.0954510971
  0
LINE
  5
31F
100
AcDbEntity
  8
ASSI
100
AcDbLine
 62
7
  6
CONTINUOUS
 10
48.9204388496
 20
-66.4364237351
 11
48.9204388496
 21
5.0954510971
  0
LINE
  5
320
100
AcDbEntity
  8
CURVE
100
AcDbLine
 62
250
  6
CONTINUOUS
 10
50.0329872357
 20
-59.2485245151
 11
50.0329872357
 21
-59.6745529902
  0
LINE
  5
321
100
AcDbEntity
  8
CURVE
100
AcDbLine
 62
250
  6
CONTINUOUS
 10
50.0330962074
 20
-61.5111025651
 11
50.0330962074
 21
-61.048304351
  0
LINE
  5
322
100
AcDbEntity
  8
CURVE
100
AcDbLine
 62
250
  6
CONTINUOUS
 10
50.0330962074
 20
-60.2583318006
 11
50.0330962074
 21
-59.8325948053
  0
LINE
  5
323
100
AcDbEntity
  8
CURVE
100
AcDbLine
 62
250
  6
CONTINUOUS
 10
50.0330962074
 20
-58.8348346518
 11
50.0330962074
 21
-58.4091588918
  0
LINE
  5
324
100
AcDbEntity
  8
CURVE
100
AcDbLine
 62
250
  6
CONTINUOUS
 10
50.0330962074
 20
-57.5616015093
 11
50.0330962074
 21
-57.1400881147
  0
LINE
  5
325
100
AcDbEntity
  8
CURVE
100
AcDbLine
 62
250
  6
CONTINUOUS
 10
50.0330962074
 20
-56.2421626808
 11
50.0330962074
 21
-55.8300313462
  0
LINE
  5
326
100
AcDbEntity
  8
CURVE
100
AcDbLine
 62
250
  6
CONTINUOUS
 10
50.8464209922
 20
-53.9871403477
 11
50.8464209922
 21
-54.2306113389
  0
LINE
  5
327
100
AcDbEntity
  8
CURVE
100
AcDbLine
 62
250
  6
CONTINUOUS
 10
51.14583448
 20
-54.0552739132
 11
51.14583448
 21
-53.8268476784
  0
LINE
  5
328
100
AcDbEntity
  8
CURVE
100
AcDbLine
 62
250
  6
CONTINUOUS
 10
51.2139018636
 20
-55.620455653
 11
51.2139018636
 21
-55.2125634321
  0
LINE
  5
329
100
AcDbEntity
  8
CURVE
100
AcDbLine
 62
250
  6
CONTINUOUS
 10
51.4963155582
 20
-54.9753640175
 11
51.4963155582
 21
-55.5555437138
  0
LINE
  5
32A
100
AcDbEntity
  8
CURVE
100
AcDbLine
 62
250
  6
CONTINUOUS
 10
51.861287384
 20
-58.6901550105
 11
51.861287384
 21
-58.2641265353
  0
LINE
  5
32B
100
AcDbEntity
  8
CURVE
100
AcDbLine
 62
250
  6
CONTINUOUS
 10
51.8612873961
 20
-54.0943721151
 11
51.8612873961
 21
-53.6700579487
  0
LINE
  5
32C
100
AcDbEntity
  8
CURVE
100
AcDbLine
 62
250
  6
CONTINUOUS
 10
51.8612873961
 20
-53.0176542561
 11
51.8612873961
 21
-52.607864478
  0
LINE
  5
32D
100
AcDbEntity
  8
CURVE
100
AcDbLine
 62
250
  6
CONTINUOUS
 10
51.861287384
 20
-54.2194748499
 11
51.861287384
 21
-54.6684910457
  0
LINE
  5
32E
100
AcDbEntity
  8
CURVE
100
AcDbLine
 62
250
  6
CONTINUOUS
 10
51.861287384
 20
-55.4765925022
 11
51.861287384
 21
-55.8979981226
  0
LINE
  5
32F
100
AcDbEntity
  8
CURVE
100
AcDbLine
 62
250
  6
CONTINUOUS
 10
51.861287384
 20
-55.9648964312
 11
51.861287384
 21
-56.3816653169
  0
LINE
  5
330
100
AcDbEntity
  8
CURVE
100
AcDbLine
 62
250
  6
CONTINUOUS
 10
51.861287384
 20
-56.9757413374
 11
51.861287384
 21
-57.0354922652
  0
LINE
  5
331
100
AcDbEntity
  8
CURVE
100
AcDbLine
 62
250
  6
CONTINUOUS
 10
51.861287384
 20
-57.6272119524
 11
51.861287384
 21
-58.034782484
  0
LINE
  5
332
100
AcDbEntity
  8
CURVE
100
AcDbLine
 62
250
  6
CONTINUOUS
 10
51.861287384
 20
-59.5043016129
 11
51.861287384
 21
-59.8797391402
  0
LWPOLYLINE
  5
333
100
AcDbEntity
  8
CURVE
100
AcDbPolyline
 62
250
  6
CONTINUOUS
 90
48
 70
0
 10
51.14583448
 20
-53.8268476784
 10
51.1459090817
 20
-53.8202479141
 10
51.1461337004
 20
-53.8135557305
 10
51.1465095569
 20
-53.8067772216
 10
51.1470378716
 20
-53.7999184814
 10
51.1477198653
 20
-53.7929856039
 10
51.1485567585
 20
-53.7859846831
 10
51.1495497718
 20
-53.778921813
 10
51.1507001258
 20
-53.7718030876
 10
51.1520090413
 20
-53.7646346008
 10
51.1534777387
 20
-53.7574224467
 10
51.1551074387
 20
-53.7501727193
 10
51.1568993619
 20
-53.7428915126
 10
51.1588547289
 20
-53.7355849204
 10
51.1609747603
 20
-53.728259037
 10
51.1632606767
 20
-53.7209199562
 10
51.1657136988
 20
-53.713573772
 10
51.1683350472
 20
-53.7062265785
 10
51.1711981317
 20
-53.6986971684
 10
51.1742339804
 20
-53.6911775012
 10
51.1774370613
 20
-53.6836719729
 10
51.1808018423
 20
-53.6761849793
 10
51.1843227915
 20
-53.6687209164
 10
51.1879943768
 20
-53.6612841801
 10
51.1918110662
 20
-53.6538791663
 10
51.1957673277
 20
-53.6465102709
 10
51.1998576293
 20
-53.6391818899
 10
51.2040764391
 20
-53.6318984191
 10
51.2084182248
 20
-53.6246642544
 10
51.2128774547
 20
-53.6174837919
 10
51.2174485966
 20
-53.6103614273
 10
51.2221261185
 20
-53.6033015567
 10
51.2269044885
 20
-53.5963085759
 10
51.2317781744
 20
-53.5893868808
 10
51.2367416444
 20
-53.5825408674
 10
51.2417893664
 20
-53.5757749315
 10
51.2469158083
 20
-53.5690934692
 10
51.2521154382
 20
-53.5625008762
 10
51.2573827241
 20
-53.5560015485
 10
51.2627121339
 20
-53.5495998821
 10
51.2680981357
 20
-53.5433002728
 10
51.2735351974
 20
-53.5371071166
 10
51.279017787
 20
-53.5310248093
 10
51.2845403725
 20
-53.525057747
 10
51.2900974218
 20
-53.5192103254
 10
51.2956834031
 20
-53.5134869405
 10
51.3012927842
 20
-53.5078919883
 10
51.3069200332
 20
-53.5024298646
  0
LINE
  5
334
100
AcDbEntity
  8
0
100
AcDbLine
 62
7
  6
CONTINUOUS
 10
48.2129015803
 20
6.3209415945
 11
48.21253915
 21
6.2963228556
  0
LINE
  5
335
100
AcDbEntity
  8
ASSI
100
AcDbLine
 62
7
  6
CONTINUOUS
 10
48.2129015803
 20
6.3209415945
 11
48.21253915
 21
6.2963228556
  0
LINE
  5
336
100
AcDbEntity
  8
0
100
AcDbLine
 62
7
  6
CONTINUOUS
 10
52.274834565
 20
8.6662354967
 11
52.9823718343
 21
7.4407449993
  0
LINE
  5
337
100
AcDbEntity
  8
ASSI
100
AcDbLine
 62
7
  6
CONTINUOUS
 10
52.274834565
 20
8.6662354967
 11
52.9823718343
 21
7.4407449993
  0
LINE
  5
338
100
AcDbEntity
  8
0
100
AcDbLine
 62
7
  6
CONTINUOUS
 10
52.9823718343
 20
-64.4076452208
 11
52.9823718343
 21
7.4407449993
  0
LINE
  5
339
100
AcDbEntity
  8
ASSI
100
AcDbLine
 62
7
  6
CONTINUOUS
 10
52.9823718343
 20
-64.4076452208
 11
52.9823718343
 21
7.4407449993
  0
LWPOLYLINE
  5
33A
100
AcDbEntity
  8
CURVE
100
AcDbPolyline
 62
250
  6
CONTINUOUS
 90
49
 70
0
 10
50.3337850696
 20
-54.1728712316
 10
50.3346914582
 20
-54.1645751612
 10
50.3357869023
 20
-54.1561767666
 10
50.3370708704
 20
-54.1476849342
 10
50.3385428312
 20
-54.1391085502
 10
50.340202253
 20
-54.1304565008
 10
50.3420486045
 20
-54.1217376724
 10
50.3440813541
 20
-54.1129609512
 10
50.3462999703
 20
-54.1041352234
 10
50.3487039218
 20
-54.0952693753
 10
50.3512926769
 20
-54.0863722932
 10
50.3540657043
 20
-54.0774528633
 10
50.3570224724
 20
-54.0685199718
 10
50.3601624498
 20
-54.059582505
 10
50.363485105
 20
-54.0506493492
 10
50.3669899064
 20
-54.0417293907
 10
50.3706763227
 20
-54.0328315156
 10
50.3745438224
 20
-54.0239646103
 10
50.3785918738
 20
-54.015137561
 10
50.3828199457
 20
-54.0063592539
 10
50.3872275065
 20
-53.9976385753
 10
50.3918140247
 20
-53.9889844115
 10
50.3965789688
 20
-53.9804056487
 10
50.4015218074
 20
-53.9719111732
 10
50.4066420089
 20
-53.9635098713
 10
50.4119087303
 20
-53.9552547652
 10
50.4173421198
 20
-53.9471075412
 10
50.4229339154
 20
-53.9390751184
 10
50.4286758547
 20
-53.9311644164
 10
50.4345596754
 20
-53.9233823543
 10
50.4405771153
 20
-53.9157358516
 10
50.446719912
 20
-53.9082318276
 10
50.4529798034
 20
-53.9008772016
 10
50.4593485271
 20
-53.893678893
 10
50.4658178208
 20
-53.8866438211
 10
50.4723794223
 20
-53.8797789053
 10
50.4790250693
 20
-53.8730910649
 10
50.4857464996
 20
-53.8665872193
 10
50.4925354508
 20
-53.8602742877
 10
50.4993836606
 20
-53.8541591896
 10
50.5062828669
 20
-53.8482488443
 10
50.5132248072
 20
-53.8425501711
 10
50.5202012195
 20
-53.8370700894
 10
50.5272038412
 20
-53.8318155185
 10
50.5342244103
 20
-53.8267933778
 10
50.5412546644
 20
-53.8220105866
 10
50.5482863412
 20
-53.8174740642
 10
50.5553111785
 20
-53.81319073
 10
50.562320914
 20
-53.8091675034
  0
LWPOLYLINE
  5
33B
100
AcDbEntity
  8
CURVE
100
AcDbPolyline
 62
250
  6
CONTINUOUS
 90
32
 70
0
 10
50.0737038756
 20
-54.0054744675
 10
50.0661011624
 20
-54.0342290719
 10
50.059152135
 20
-54.0628684835
 10
50.0528250831
 20
-54.0913888646
 10
50.0470882964
 20
-54.1197863777
 10
50.0419100647
 20
-54.148057185
 10
50.0372586777
 20
-54.1761974489
 10
50.0331024253
 20
-54.2042033318
 10
50.0294095971
 20
-54.2320709959
 10
50.0261484829
 20
-54.2597966036
 10
50.0232873724
 20
-54.2873763174
 10
50.0207945554
 20
-54.3148062994
 10
50.0186383216
 20
-54.3420827121
 10
50.0159727782
 20
-54.3828126863
 10
50.0139692603
 20
-54.4231972578
 10
50.0126001687
 20
-54.4632470792
 10
50.0118379045
 20
-54.5029728035
 10
50.0116548686
 20
-54.5423850833
 10
50.0120234619
 20
-54.5814945716
 10
50.0129160854
 20
-54.6203119211
 10
50.0143051401
 20
-54.6588477846
 10
50.0161630268
 20
-54.6971128149
 10
50.0184621465
 20
-54.7351176647
 10
50.0211749002
 20
-54.772872987
 10
50.0242736888
 20
-54.8103894345
 10
50.0277309132
 20
-54.84767766
 10
50.0315189744
 20
-54.8847483162
 10
50.0356102734
 20
-54.9216120561
 10
50.0399772111
 20
-54.9582795323
 10
50.0445921884
 20
-54.9947613977
 10
50.0494276063
 20
-55.0310683052
 10
50.0544558657
 20
-55.0672109074
  0
LINE
  5
33C
100
AcDbEntity
  8
CURVE
100
AcDbLine
 62
7
  6
CONTINUOUS
 10
50.2496509128
 20
-53.6731801261
 11
50.4258812726
 21
-53.4969497662
  0
LINE
  5
33D
100
AcDbEntity
  8
CURVE
100
AcDbLine
 62
7
  6
CONTINUOUS
 10
50.0564759709
 20
-54.0763657819
 11
50.7837157942
 21
-53.3491259587
  0
LINE
  5
33E
100
AcDbEntity
  8
CURVE
100
AcDbLine
 62
7
  6
CONTINUOUS
 10
50.0204329604
 20
-54.3224195064
 11
50.942565975
 21
-53.4002864919
  0
LINE
  5
33F
100
AcDbEntity
  8
CURVE
100
AcDbLine
 62
7
  6
CONTINUOUS
 10
50.0123367037
 20
-54.5405264771
 11
50.3297720722
 21
-54.2230911087
  0
LINE
  5
340
100
AcDbEntity
  8
CURVE
100
AcDbLine
 62
7
  6
CONTINUOUS
 10
50.771407348
 20
-53.7814558328
 11
51.8612873961
 21
-52.6915757848
  0
LINE
  5
341
100
AcDbEntity
  8
CURVE
100
AcDbLine
 62
7
  6
CONTINUOUS
 10
50.0193890696
 20
-54.7434848252
 11
50.334384173
 21
-54.4284897218
  0
LINE
  5
342
100
AcDbEntity
  8
CURVE
100
AcDbLine
 62
7
  6
CONTINUOUS
 10
50.8415095615
 20
-53.9213643333
 11
51.8612873961
 21
-52.9015864988
  0
LINE
  5
343
100
AcDbEntity
  8
CURVE
100
AcDbLine
 62
7
  6
CONTINUOUS
 10
50.0374170368
 20
-54.9354675721
 11
50.6207866675
 21
-54.3520979414
  0
LINE
  5
344
100
AcDbEntity
  8
CURVE
100
AcDbLine
 62
7
  6
CONTINUOUS
 10
50.8464209922
 20
-54.1264636167
 11
51.14583448
 21
-53.8270501289
  0
LINE
  5
345
100
AcDbEntity
  8
CURVE
100
AcDbLine
 62
7
  6
CONTINUOUS
 10
50.1871065104
 20
-54.9957888125
 11
51.14583448
 21
-54.0370608429
  0
LINE
  5
346
100
AcDbEntity
  8
CURVE
100
AcDbLine
 62
7
  6
CONTINUOUS
 10
50.6420912632
 20
-54.7508147737
 11
51.5613609159
 21
-53.831545121
  0
LINE
  5
347
100
AcDbEntity
  8
CURVE
100
AcDbLine
 62
7
  6
CONTINUOUS
 10
51.097076016
 20
-54.5058407349
 11
51.8612873961
 21
-53.7416293548
  0
LWPOLYLINE
  5
348
100
AcDbEntity
  8
CURVE
100
AcDbPolyline
 62
250
  6
CONTINUOUS
 90
7
 70
0
 10
51.3069200332
 20
-53.5024298646
 10
51.332219699
 20
-53.4784527216
 10
51.3576496543
 20
-53.4548275258
 10
51.3831954997
 20
-53.4315161348
 10
51.4088428356
 20
-53.408480406
 10
51.4345772625
 20
-53.385682197
 10
51.460384381
 20
-53.3630833651
  0
LINE
  5
349
100
AcDbEntity
  8
CURVE
100
AcDbLine
 62
250
  6
CONTINUOUS
 10
51.460384381
 20
-53.3630833651
 11
51.5121590948
 21
-53.3183312629
  0
LINE
  5
34A
100
AcDbEntity
  8
CURVE
100
AcDbLine
 62
250
  6
CONTINUOUS
 10
51.6159472439
 20
-53.2295413134
 11
51.8612873961
 21
-53.0176542561
  0
LWPOLYLINE
  5
34B
100
AcDbEntity
  8
CURVE
100
AcDbPolyline
 62
250
  6
CONTINUOUS
 90
44
 70
0
 10
51.3098626951
 20
-53.067655609
 10
51.295693531
 20
-53.0798297247
 10
51.2814589555
 20
-53.0922544429
 10
51.2671295452
 20
-53.1050067656
 10
51.2592546752
 20
-53.1121352316
 10
51.2513506816
 20
-53.1193819817
 10
51.2434255083
 20
-53.1267446017
 10
51.2354870993
 20
-53.1342206775
 10
51.2275433984
 20
-53.1418077948
 10
51.2196023495
 20
-53.1495035395
 10
51.2116718966
 20
-53.1573054974
 10
51.2037599835
 20
-53.1652112543
 10
51.1958745542
 20
-53.173218396
 10
51.1880235525
 20
-53.1813245083
 10
51.1802149224
 20
-53.189527177
 10
51.1724566078
 20
-53.197823988
 10
51.1647565524
 20
-53.206212527
 10
51.1571227004
 20
-53.2146903799
 10
51.1495629955
 20
-53.2232551324
 10
51.1420853817
 20
-53.2319043705
 10
51.1346978029
 20
-53.2406356798
 10
51.1274082029
 20
-53.2494466462
 10
51.1202245257
 20
-53.2583348556
 10
51.1131547152
 20
-53.2672978936
 10
51.1062067153
 20
-53.2763333462
 10
51.0993884698
 20
-53.2854387992
 10
51.0927079228
 20
-53.2946118383
 10
51.086173018
 20
-53.3038500494
 10
51.0797916995
 20
-53.3131510183
 10
51.073571911
 20
-53.3225123307
 10
51.0675215965
 20
-53.3319315726
 10
51.0616487
 20
-53.3414063297
 10
51.0559611652
 20
-53.3509341878
 10
51.0504669361
 20
-53.3605127327
 10
51.0451739567
 20
-53.3701395503
 10
51.0400901708
 20
-53.3798122263
 10
51.0352235223
 20
-53.3895283467
 10
51.0305819551
 20
-53.3992854971
 10
51.0261734131
 20
-53.4090812633
 10
51.0220058403
 20
-53.4189132313
 10
51.0180871805
 20
-53.4287789868
 10
51.0144253776
 20
-53.4386761157
 10
51.0110283756
 20
-53.4486022036
 10
51.0079041183
 20
-53.4585548365
  0
LINE
  5
34C
100
AcDbEntity
  8
CURVE
100
AcDbLine
 62
250
  6
CONTINUOUS
 10
51.5121590948
 20
-53.3183312629
 11
51.6159472439
 21
-53.2295413134
  0
LINE
  5
34D
100
AcDbEntity
  8
CURVE
100
AcDbLine
 62
250
  6
CONTINUOUS
 10
51.3381224826
 20
-53.0437511762
 11
51.3098626951
 21
-53.067655609
  0
LINE
  5
34E
100
AcDbEntity
  8
CURVE
100
AcDbLine
 62
250
  6
CONTINUOUS
 10
51.4986148948
 20
-52.9092750044
 11
51.3381224826
 21
-53.0437511762
  0
LINE
  5
34F
100
AcDbEntity
  8
CURVE
100
AcDbLine
 62
250
  6
CONTINUOUS
 10
51.8612873961
 20
-52.607864478
 11
51.7960176674
 21
-52.6624444509
  0
LINE
  5
350
100
AcDbEntity
  8
CURVE
100
AcDbLine
 62
250
  6
CONTINUOUS
 10
51.7960176674
 20
-52.6624444509
 11
51.4986148948
 21
-52.9092750044
  0
LWPOLYLINE
  5
351
100
AcDbEntity
  8
CURVE
100
AcDbPolyline
 62
250
  6
CONTINUOUS
 90
59
 70
0
 10
50.562320914
 20
-53.8091675034
 10
50.5702586307
 20
-53.8048702386
 10
50.5782577293
 20
-53.8007654411
 10
50.5863072543
 20
-53.7968591094
 10
50.5943962502
 20
-53.7931572421
 10
50.6025137613
 20
-53.7896658376
 10
50.6106488322
 20
-53.7863908945
 10
50.6187905072
 20
-53.7833384114
 10
50.6269278307
 20
-53.7805143867
 10
50.6350498473
 20
-53.777924819
 10
50.6431456012
 20
-53.7755757068
 10
50.651204137
 20
-53.7734730486
 10
50.659214499
 20
-53.7716228431
 10
50.6671657318
 20
-53.7700310886
 10
50.6750468796
 20
-53.7687037838
 10
50.682846987
 20
-53.7676469272
 10
50.6905550984
 20
-53.7668665172
 10
50.6981602582
 20
-53.7663685525
 10
50.7056515109
 20
-53.7661590315
 10
50.7130179008
 20
-53.7662439528
 10
50.7202484723
 20
-53.766629315
 10
50.72733227
 20
-53.7673211165
 10
50.7342583383
 20
-53.7683253559
 10
50.7410157215
 20
-53.7696480316
 10
50.7475934641
 20
-53.7712951424
 10
50.7539806105
 20
-53.7732726866
 10
50.7601662052
 20
-53.7755866627
 10
50.7661392926
 20
-53.7782430695
 10
50.7718889171
 20
-53.7812479052
 10
50.7774041231
 20
-53.7846071686
 10
50.7826739551
 20
-53.7883268581
 10
50.787624433
 20
-53.792352391
 10
50.7923307479
 20
-53.7967212301
 10
50.7967982196
 20
-53.8014200448
 10
50.8010321676
 20
-53.8064355044
 10
50.8050379118
 20
-53.8117542783
 10
50.8088207717
 20
-53.8173630359
 10
50.8123860669
 20
-53.8232484464
 10
50.8157391173
 20
-53.8293971794
 10
50.8188852425
 20
-53.835795904
 10
50.8218297621
 20
-53.8424312898
 10
50.8245779958
 20
-53.8492900059
 10
50.8271352632
 20
-53.8563587219
 10
50.8295068842
 20
-53.8636241071
 10
50.8316981783
 20
-53.8710728307
 10
50.8337144652
 20
-53.8786915623
 10
50.8355610645
 20
-53.8864669711
 10
50.8372432961
 20
-53.8943857264
 10
50.8387664794
 20
-53.9024344978
 10
50.8401359343
 20
-53.9105999544
 10
50.8413569804
 20
-53.9188687657
 10
50.8424349373
 20
-53.9272276011
 10
50.8433751247
 20
-53.9356631298
 10
50.8441828624
 20
-53.9441620213
 10
50.8448634699
 20
-53.9527109449
 10
50.8454222669
 20
-53.96129657
 10
50.8458645732
 20
-53.9699055659
 10
50.8461957084
 20
-53.978524602
 10
50.8464209922
 20
-53.9871403477
  0
LINE
  5
352
100
AcDbEntity
  8
CURVE
100
AcDbLine
 62
250
  6
CONTINUOUS
 10
51.0079041183
 20
-53.4585548365
 11
50.9971011041
 21
-53.4643714226
  0
LINE
  5
353
100
AcDbEntity
  8
CURVE
100
AcDbLine
 62
250
  6
CONTINUOUS
 10
51.8612873961
 20
-53.6700579487
 11
51.14583448
 21
-54.0552739132
  0
LINE
  5
354
100
AcDbEntity
  8
CURVE
100
AcDbLine
 62
250
  6
CONTINUOUS
 10
50.8464209922
 20
-54.2306113389
 11
50.3445469555
 21
-54.5008316242
  0
LINE
  5
355
100
AcDbEntity
  8
CURVE
100
AcDbLine
 62
250
  6
CONTINUOUS
 10
50.0544558657
 20
-55.0672109074
 11
51.8612873961
 21
-54.0943721151
  0
LINE
  5
356
100
AcDbEntity
  8
CURVE
100
AcDbLine
 62
250
  6
CONTINUOUS
 10
50.667513364
 20
-58.1780297703
 11
51.861287384
 21
-57.6272119524
  0
LINE
  5
357
100
AcDbEntity
  8
CURVE
100
AcDbLine
 62
250
  6
CONTINUOUS
 10
51.861287384
 20
-58.034782484
 11
50.0330962074
 21
-58.8348346518
  0
LINE
  5
358
100
AcDbEntity
  8
CURVE
100
AcDbLine
 62
7
  6
CONTINUOUS
 10
51.5520607688
 20
-54.2608666961
 11
51.8612873961
 21
-53.9516400688
  0
LINE
  5
359
100
AcDbEntity
  8
CURVE
100
AcDbLine
 62
7
  6
CONTINUOUS
 10
50.0330962074
 20
-55.9898419716
 11
51.375549417
 21
-54.647388762
  0
LINE
  5
35A
100
AcDbEntity
  8
CURVE
100
AcDbLine
 62
7
  6
CONTINUOUS
 10
50.0330962074
 20
-56.1998526856
 11
51.861287384
 21
-54.3716615089
  0
LINE
  5
35B
100
AcDbEntity
  8
CURVE
100
AcDbLine
 62
7
  6
CONTINUOUS
 10
50.2396888457
 20
-56.2032707613
 11
50.7083724307
 21
-55.7345871763
  0
LINE
  5
35C
100
AcDbEntity
  8
CURVE
100
AcDbLine
 62
7
  6
CONTINUOUS
 10
51.2139018636
 20
-55.2290577434
 11
51.861287384
 21
-54.5816722229
  0
LINE
  5
35D
100
AcDbEntity
  8
CURVE
100
AcDbLine
 62
7
  6
CONTINUOUS
 10
50.4984037027
 20
-56.1545666183
 11
50.9796222114
 21
-55.6733481095
  0
LINE
  5
35E
100
AcDbEntity
  8
CURVE
100
AcDbLine
 62
7
  6
CONTINUOUS
 10
51.2139018636
 20
-55.4390684574
 11
51.4963155582
 21
-55.1566547628
  0
LINE
  5
35F
100
AcDbEntity
  8
CURVE
100
AcDbLine
 62
7
  6
CONTINUOUS
 10
50.7571185597
 20
-56.1058624753
 11
51.4963155582
 21
-55.3666654768
  0
LINE
  5
360
100
AcDbEntity
  8
CURVE
100
AcDbLine
 62
7
  6
CONTINUOUS
 10
51.0158334166
 20
-56.0571583324
 11
51.5232813024
 21
-55.5497104466
  0
LINE
  5
361
100
AcDbEntity
  8
CURVE
100
AcDbLine
 62
7
  6
CONTINUOUS
 10
50.0330962074
 20
-57.2499062557
 11
50.3405521217
 21
-56.9424503413
  0
LINE
  5
362
100
AcDbEntity
  8
CURVE
100
AcDbLine
 62
7
  6
CONTINUOUS
 10
51.2745482736
 20
-56.0084541894
 11
51.7912619651
 21
-55.4917404979
  0
LINE
  5
363
100
AcDbEntity
  8
CURVE
100
AcDbLine
 62
7
  6
CONTINUOUS
 10
50.0330962074
 20
-57.4599169697
 11
50.9285154179
 21
-56.5644977592
  0
LINE
  5
364
100
AcDbEntity
  8
CURVE
100
AcDbLine
 62
7
  6
CONTINUOUS
 10
51.5332631306
 20
-55.9597500464
 11
51.861287384
 21
-55.631725793
  0
LINE
  5
365
100
AcDbEntity
  8
CURVE
100
AcDbLine
 62
7
  6
CONTINUOUS
 10
50.1560121588
 20
-57.5470117323
 11
51.516478714
 21
-56.186545177
  0
LINE
  5
366
100
AcDbEntity
  8
CURVE
100
AcDbLine
 62
7
  6
CONTINUOUS
 10
51.7919779876
 20
-55.9110459035
 11
51.861287384
 21
-55.841736507
  0
LINE
  5
367
100
AcDbEntity
  8
CURVE
100
AcDbLine
 62
7
  6
CONTINUOUS
 10
50.3943079063
 20
-57.5187266987
 11
50.8203757629
 21
-57.0926588421
  0
LINE
  5
368
100
AcDbEntity
  8
CURVE
100
AcDbLine
 62
7
  6
CONTINUOUS
 10
51.0108721496
 20
-56.9021624555
 11
51.861287384
 21
-56.051747221
  0
LINE
  5
369
100
AcDbEntity
  8
CURVE
100
AcDbLine
 62
7
  6
CONTINUOUS
 10
50.6326036539
 20
-57.4904416652
 11
51.056960162
 21
-57.0660851571
  0
LINE
  5
36A
100
AcDbEntity
  8
CURVE
100
AcDbLine
 62
7
  6
CONTINUOUS
 10
51.552207447
 20
-56.570837872
 11
51.861287384
 21
-56.261757935
  0
LINE
  5
36B
100
AcDbEntity
  8
CURVE
100
AcDbLine
 62
7
  6
CONTINUOUS
 10
50.8708994014
 20
-57.4621566316
 11
51.2935445611
 21
-57.039511472
  0
LINE
  5
36C
100
AcDbEntity
  8
CURVE
100
AcDbLine
 62
7
  6
CONTINUOUS
 10
50.0330962074
 20
-58.5099705397
 11
51.5301289602
 21
-57.0129377869
  0
LINE
  5
36D
100
AcDbEntity
  8
CURVE
100
AcDbLine
 62
7
  6
CONTINUOUS
 10
50.0330962074
 20
-58.7199812537
 11
51.7667133592
 21
-56.9863641019
  0
LINE
  5
36E
100
AcDbEntity
  8
CURVE
100
AcDbLine
 62
7
  6
CONTINUOUS
 10
50.2023007253
 20
-58.7607874498
 11
50.8857587366
 21
-58.0773294385
  0
LINE
  5
36F
100
AcDbEntity
  8
CURVE
100
AcDbLine
 62
7
  6
CONTINUOUS
 10
50.5757324608
 20
-58.5973664284
 11
51.2756847277
 21
-57.8974141615
  0
LINE
  5
370
100
AcDbEntity
  8
CURVE
100
AcDbLine
 62
7
  6
CONTINUOUS
 10
50.0329872357
 20
-59.3501223675
 11
50.2530973094
 21
-59.1300122937
  0
LINE
  5
371
100
AcDbEntity
  8
CURVE
100
AcDbLine
 62
7
  6
CONTINUOUS
 10
50.9491641962
 20
-58.4339454069
 11
51.6656107187
 21
-57.7174988845
  0
LINE
  5
372
100
AcDbEntity
  8
CURVE
100
AcDbLine
 62
7
  6
CONTINUOUS
 10
50.0329872357
 20
-59.5601330815
 11
50.7080820622
 21
-58.8850382549
  0
LINE
  5
373
100
AcDbEntity
  8
CURVE
100
AcDbLine
 62
7
  6
CONTINUOUS
 10
51.3225959317
 20
-58.2705243855
 11
51.861287384
 21
-57.7318329331
  0
LINE
  5
374
100
AcDbEntity
  8
CURVE
100
AcDbLine
 62
7
  6
CONTINUOUS
 10
50.2400831408
 20
-59.5630478904
 11
51.1630668151
 21
-58.6400642161
  0
LINE
  5
375
100
AcDbEntity
  8
CURVE
100
AcDbLine
 62
7
  6
CONTINUOUS
 10
51.6960276671
 20
-58.107103364
 11
51.861287384
 21
-57.9418436471
  0
LINE
  5
376
100
AcDbEntity
  8
CURVE
100
AcDbLine
 62
7
  6
CONTINUOUS
 10
50.0330962074
 20
-59.9800455378
 11
50.2128205159
 21
-59.8003212293
  0
LINE
  5
377
100
AcDbEntity
  8
CURVE
100
AcDbLine
 62
7
  6
CONTINUOUS
 10
50.6950678936
 20
-59.3180738516
 11
51.6180515679
 21
-58.3950901773
  0
LINE
  5
378
100
AcDbEntity
  8
CURVE
100
AcDbLine
 62
7
  6
CONTINUOUS
 10
50.0330962074
 20
-60.1900562518
 11
50.468797748
 21
-59.7543547112
  0
LINE
  5
379
100
AcDbEntity
  8
CURVE
100
AcDbLine
 62
7
  6
CONTINUOUS
 10
51.1500526464
 20
-59.0730998128
 11
51.861287384
 21
-58.3618650752
  0
LINE
  5
37A
100
AcDbEntity
  8
CURVE
100
AcDbLine
 62
7
  6
CONTINUOUS
 10
50.2147662432
 20
-60.21839693
 11
50.72477498
 21
-59.7083881932
  0
LINE
  5
37B
100
AcDbEntity
  8
CURVE
100
AcDbLine
 62
7
  6
CONTINUOUS
 10
51.6050373992
 20
-58.828125774
 11
51.861287384
 21
-58.5718757892
  0
LINE
  5
37C
100
AcDbEntity
  8
CURVE
100
AcDbLine
 62
7
  6
CONTINUOUS
 10
50.4839489396
 20
-60.1592249476
 11
50.9807522121
 21
-59.6624216751
  0
LINE
  5
37D
100
AcDbEntity
  8
CURVE
100
AcDbLine
 62
7
  6
CONTINUOUS
 10
50.7531316359
 20
-60.1000529653
 11
51.2367294441
 21
-59.6164551571
  0
LINE
  5
37E
100
AcDbEntity
  8
CURVE
100
AcDbLine
 62
7
  6
CONTINUOUS
 10
51.0223143323
 20
-60.0408809829
 11
51.4927066762
 21
-59.570488639
  0
LINE
  5
37F
100
AcDbEntity
  8
CURVE
100
AcDbLine
 62
7
  6
CONTINUOUS
 10
50.0330962074
 20
-61.2401098219
 11
51.7486839083
 21
-59.524522121
  0
LINE
  5
380
100
AcDbEntity
  8
CURVE
100
AcDbLine
 62
7
  6
CONTINUOUS
 10
50.0330962074
 20
-61.4501205359
 11
51.861287384
 21
-59.6219293592
  0
LINE
  5
381
100
AcDbEntity
  8
CURVE
100
AcDbLine
 62
7
  6
CONTINUOUS
 10
51.4173162889
 20
-60.2759111684
 11
51.861287384
 21
-59.8319400732
  0
LINE
  5
382
100
AcDbEntity
  8
CURVE
100
AcDbLine
 62
250
  6
CONTINUOUS
 10
51.861287384
 20
-57.0354922652
 11
50.667513364
 21
-58.1780297703
  0
LINE
  5
383
100
AcDbEntity
  8
CURVE
100
AcDbLine
 62
250
  6
CONTINUOUS
 10
50.0330962074
 20
-58.4091588918
 11
51.048113487
 21
-57.4411218192
  0
LINE
  5
384
100
AcDbEntity
  8
CURVE
100
AcDbLine
 62
250
  6
CONTINUOUS
 10
51.861287384
 20
-59.8797391402
 11
50.0330962074
 21
-61.5111025651
  0
LINE
  5
385
100
AcDbEntity
  8
CURVE
100
AcDbLine
 62
250
  6
CONTINUOUS
 10
50.0330962074
 20
-55.8300313462
 11
51.861287384
 21
-54.2194748499
  0
LINE
  5
386
100
AcDbEntity
  8
CURVE
100
AcDbLine
 62
250
  6
CONTINUOUS
 10
50.0330962074
 20
-61.048304351
 11
51.2914970286
 21
-59.9817090006
  0
LINE
  5
387
100
AcDbEntity
  8
CURVE
100
AcDbLine
 62
250
  6
CONTINUOUS
 10
51.861287384
 20
-54.6684910457
 11
51.4963155582
 21
-54.9753640175
  0
LINE
  5
388
100
AcDbEntity
  8
CURVE
100
AcDbLine
 62
250
  6
CONTINUOUS
 10
51.2139018636
 20
-55.2125634321
 11
50.5354367363
 21
-55.7736302328
  0
LINE
  5
389
100
AcDbEntity
  8
CURVE
100
AcDbLine
 62
250
  6
CONTINUOUS
 10
50.0330962074
 20
-57.1400881147
 11
51.861287384
 21
-55.9648964312
  0
LINE
  5
38A
100
AcDbEntity
  8
CURVE
100
AcDbLine
 62
250
  6
CONTINUOUS
 10
51.861287384
 20
-56.3816653169
 11
50.6724894945
 21
-57.1092697562
  0
LINE
  5
38B
100
AcDbEntity
  8
0
100
AcDbLine
 62
7
  6
CONTINUOUS
 10
47.2030024326
 20
-66.2328519066
 11
47.4819783668
 21
-66.071805831
  0
LINE
  5
38C
100
AcDbEntity
  8
ASSI
100
AcDbLine
 62
7
  6
CONTINUOUS
 10
47.2030024326
 20
-66.2328519066
 11
47.4819783668
 21
-66.071805831
  0
LINE
  5
38D
100
AcDbEntity
  8
0
100
AcDbLine
 62
7
  6
CONTINUOUS
 10
48.21253915
 20
-66.8442264913
 11
48.8989374977
 21
-66.4479852869
  0
LINE
  5
38E
100
AcDbEntity
  8
ASSI
100
AcDbLine
 62
7
  6
CONTINUOUS
 10
48.21253915
 20
-66.8442264913
 11
48.8989374977
 21
-66.4479852869
  0
LINE
  5
38F
100
AcDbEntity
  8
0
100
AcDbLine
 62
7
  6
CONTINUOUS
 10
52.9823718343
 20
-64.4076452208
 11
52.274834565
 21
-64.8160894147
  0
LINE
  5
390
100
AcDbEntity
  8
ASSI
100
AcDbLine
 62
7
  6
CONTINUOUS
 10
52.9823718343
 20
-64.4076452208
 11
52.274834565
 21
-64.8160894147
  0
LINE
  5
391
100
AcDbEntity
  8
CURVE
100
AcDbLine
 62
250
  6
CONTINUOUS
 10
51.861287384
 20
-58.2641265353
 11
50.0329872357
 21
-59.2485245151
  0
LINE
  5
392
100
AcDbEntity
  8
CURVE
100
AcDbLine
 62
250
  6
CONTINUOUS
 10
50.0329872357
 20
-59.6745529902
 11
51.861287384
 21
-58.6901550105
  0
LINE
  5
393
100
AcDbEntity
  8
0
100
AcDbLine
 62
7
  6
CONTINUOUS
 10
48.9204388496
 20
-66.4364237351
 11
48.8989374977
 21
-66.4479852869
  0
LINE
  5
394
100
AcDbEntity
  8
ASSI
100
AcDbLine
 62
7
  6
CONTINUOUS
 10
48.9204388496
 20
-66.4364237351
 11
48.8989374977
 21
-66.4479852869
  0
LINE
  5
395
100
AcDbEntity
  8
0
100
AcDbLine
 62
7
  6
CONTINUOUS
 10
48.9204388496
 20
-66.4364237351
 11
52.9823718343
 21
-64.4076452208
  0
LINE
  5
396
100
AcDbEntity
  8
ASSI
100
AcDbLine
 62
7
  6
CONTINUOUS
 10
48.9204388496
 20
-66.4364237351
 11
52.9823718343
 21
-64.4076452208
  0
LINE
  5
397
100
AcDbEntity
  8
0
100
AcDbLine
 62
7
  6
CONTINUOUS
 10
48.2129015803
 20
-66.844867929
 11
52.274834565
 21
-64.8160894147
  0
LINE
  5
398
100
AcDbEntity
  8
ASSI
100
AcDbLine
 62
7
  6
CONTINUOUS
 10
48.2129015803
 20
-66.844867929
 11
52.274834565
 21
-64.8160894147
  0
ENDSEC
  0
SECTION
  2
OBJECTS
  0
DICTIONARY
  5
C
100
AcDbDictionary
280
0
281
1
  3
ACAD_GROUP
350
D
  3
ACAD_MLINESTYLE
350
17
  3
ACAD_LAYOUT
350
1A
  3
ACAD_PLOTSETTINGS
350
19
  3
ACAD_PLOTSTYLENAME
350
E
  0
DICTIONARY
  5
D
102
{ACAD_REACTORS
330
C
102
}
100
AcDbDictionary
280
0
281
1
  0
ACDBDICTIONARYWDFLT
  5
E
102
{ACAD_REACTORS
330
C
102
}
100
AcDbDictionary
281
1
  3
Normal
350
F
100
AcDbDictionaryWithDefault
340
F
  0
DICTIONARY
  5
17
102
{ACAD_REACTORS
330
C
102
}
100
AcDbDictionary
280
0
281
1
  3
Standard
350
18
  0
DICTIONARY
  5
19
102
{ACAD_REACTORS
330
C
102
}
100
AcDbDictionary
281
1
  0
DICTIONARY
  5
1A
102
{ACAD_REACTORS
330
C
102
}
100
AcDbDictionary
281
1
  3
Model
350
399
  3
Layout1
350
39A
  0
ACDBPLACEHOLDER
  5
F
102
{ACAD_REACTORS
330
E
102
}
  0
MLINESTYLE
  5
18
102
{ACAD_REACTORS
330
17
102
}
100
AcDbMlineStyle
  2
STANDARD
 70
0
  3

 62
256
 51
90.0
 52
90.0
 71
2
 49
0.5
 62
256
  6
BYLAYER
 49
-0.5
 62
256
  6
BYLAYER
  0
LAYOUT
  5
399
102
{ACAD_REACTORS
330
1A
102
}
100
AcDbPlotSettings
  1

  2
none_device
  4
ISO_A4_(297.00_x_210.00_MM)
  6

 40
0.0
 41
0.0
 42
0.0
 43
0.0
 44
297.0
 45
210.0
 46
0.0
 47
0.0
 48
0.0
 49
0.0
140
0.0
141
0.0
142
1.0
143
1.0
 70
1024
 72
1
 73
0
 74
0
  7

 75
0
147
1.0
148
0.0
149
0.0
100
AcDbLayout
  1
Model
 70
0
 71
0
 10
0.0
 20
0.0
 11
297.0
 21
210.0
 12
0.0
 22
0.0
 32
0.0
 14
0.0
 24
0.0
 34
0.0
 15
0.0
 25
0.0
 35
0.0
146
0.0
 13
0.0
 23
0.0
 33
0.0
 16
1.0
 26
0.0
 36
0.0
 17
0.0
 27
1.0
 37
0.0
 76
0
330
21E
345
0
346
0
  0
LAYOUT
  5
39A
102
{ACAD_REACTORS
330
1A
102
}
100
AcDbPlotSettings
  1

  2
none_device
  4
ISO_A4_(297.00_x_210.00_MM)
  6

 40
0.0
 41
0.0
 42
0.0
 43
0.0
 44
297.0
 45
210.0
 46
0.0
 47
0.0
 48
0.0
 49
0.0
140
0.0
141
0.0
142
1.0
143
1.0
 70
0
 72
1
 73
0
 74
0
  7

 75
0
147
1.0
148
0.0
149
0.0
100
AcDbLayout
  1
Layout1
 70
0
 71
1
 10
0.0
 20
0.0
 11
297.0
 21
210.0
 12
0.0
 22
0.0
 32
0.0
 14
0.0
 24
0.0
 34
0.0
 15
0.0
 25
0.0
 35
0.0
146
0.0
 13
0.0
 23
0.0
 33
0.0
 16
1.0
 26
0.0
 36
0.0
 17
0.0
 27
1.0
 37
0.0
 76
0
330
21F
345
0
346
0
  0
ENDSEC
  0
EOF
