  0
SECTION
  2
HEADER
  9
$ACADVER
  1
AC1024
  9
$DWGCODEPAGE
  3
ANSI_1252
  9
$EXTMAX
 10
297.0
 20
210.0
 30
0.0
  9
$EXTMIN
 10
0.0
 20
0.0
 30
0.0
  9
$LIMMIN
 10
0.0
 20
0.0
  9
$LIMMAX
 10
297.0
 20
210.0
  9
$VIEWCTR
 10
148.5
 20
105.0
  9
$VIEWSIZE
 40
210.0
  9
$CLAYER
  8
0
  9
$LTSCALE
 40
16.335
  9
$CELTYPE
  6
BYLAYER
  9
$DIMSCALE
 40
1.0
  9
$DIMASZ
 40
3.0
  9
$DIMEXO
 40
0.5
  9
$DIMDLI
 40
11.286
  9
$DIMEXE
 40
1.5
  9
$DIMCEN
 40
2.673
  9
$DIMLFAC
 40
1.0
  9
$DIMBLK
  1
_FILLED
  9
$DIMALT
 70
0
  9
$DIMALTF
 40
0.0393700787
  9
$DIMTXT
 40
3.0
  9
$DIMTOL
 70
1
  9
$DIMLIM
 70
0
  9
$DIMTFAC
 40
1.0
  9
$DIMTP
 40
0.01
  9
$DIMTM
 40
0.01
  9
$DIMGAP
 40
0.625
  9
$DIMDSEP
 70
44
  9
$AUNITS
 70
0
  9
$PDMODE
 70
3
  9
$PDSIZE
 40
3.0
  9
$HANDSEED
  5
36F
  9
$TILEMODE
 70
1
  9
$MEASUREMENT
 70
1
  9
$INSUNITS
 70
4
  0
ENDSEC
  0
SECTION
  2
CLASSES
  0
CLASS
  1
ACDBDICTIONARYWDFLT
  2
AcDbDictionaryWithDefault
  3
AutoCAD 2000
 90
0
 91
1
280
0
281
0
  0
CLASS
  1
ACDBPLACEHOLDER
  2
AcDbPlaceHolder
  3
AutoCAD 2000
 90
0
 91
1
280
0
281
0
  0
CLASS
  1
LAYOUT
  2
AcDbLayout
  3
AutoCAD 2000
 90
0
 91
0
280
0
281
0
  0
ENDSEC
  0
SECTION
  2
TABLES
  0
TABLE
  2
VPORT
  5
8
100
AcDbSymbolTable
 70
2
  0
VPORT
  5
1F4
100
AcDbSymbolTableRecord
100
AcDbViewportTableRecord
  2
*ACTIVE
 70
0
 10
0.0
 20
0.0
 11
1.0
 21
1.0
 12
148.5
 22
105.0
 13
0.0
 23
0.0
 14
1.0
 24
1.0
 15
0.0
 25
0.0
 16
0.0
 26
0.0
 36
1.0
 17
0.0
 27
0.0
 37
0.0
 40
210.0
 41
1.4142857143
 42
50.0
 43
0.0
 44
0.0
 50
0.0
 51
0.0
 71
0
 72
100
 73
1
 74
1
 75
0
 76
0
 77
0
 78
0
  0
ENDTAB
  0
TABLE
  2
LTYPE
  5
5
100
AcDbSymbolTable
 70
6
  0
LTYPE
  5
14
100
AcDbSymbolTableRecord
100
AcDbLinetypeTableRecord
  2
BYBLOCK
 70
0
  3

 72
65
 73
0
 40
0.0
  0
LTYPE
  5
15
100
AcDbSymbolTableRecord
100
AcDbLinetypeTableRecord
  2
BYLAYER
 70
0
  3

 72
65
 73
0
 40
0.0
  0
LTYPE
  5
16
100
AcDbSymbolTableRecord
100
AcDbLinetypeTableRecord
  2
CONTINUOUS
 70
64
  3
Solid line
 72
65
 73
0
 40
0.0
  0
LTYPE
  5
1F5
100
AcDbSymbolTableRecord
100
AcDbLinetypeTableRecord
  2
CENTER
 70
64
  3
____ _ ____ _ ____ _ ____ _ ____ _ ____ _ ____
 72
65
 73
4
 40
0.6
 49
0.375
 74
0
 49
-0.075
 74
0
 49
0.075
 74
0
 49
-0.075
 74
0
  0
LTYPE
  5
1F6
100
AcDbSymbolTableRecord
100
AcDbLinetypeTableRecord
  2
HIDDEN
 70
64
  3
- - - - - - - - - - - - - - - - - - - -
 72
65
 73
2
 40
0.2
 49
0.1
 74
0
 49
-0.1
 74
0
  0
LTYPE
  5
1F7
100
AcDbSymbolTableRecord
100
AcDbLinetypeTableRecord
  2
PHANTOM
 70
64
  3
_____ _ _ _____ _ _ _____ _ _ _____
 72
65
 73
6
 40
0.8
 49
0.45
 74
0
 49
-0.05
 74
0
 49
0.1
 74
0
 49
-0.05
 74
0
 49
0.1
 74
0
 49
-0.05
 74
0
  0
LTYPE
  5
1F8
100
AcDbSymbolTableRecord
100
AcDbLinetypeTableRecord
  2
DOT
 70
64
  3
. . . . . . . . . . . . . . . . . . . .
 72
65
 73
2
 40
0.2
 49
0.1
 74
0
 49
-0.1
 74
0
  0
LTYPE
  5
1F9
100
AcDbSymbolTableRecord
100
AcDbLinetypeTableRecord
  2
DASHED
 70
64
  3
- - - - - - - - - - - - - - - - - - - -
 72
65
 73
2
 40
0.2
 49
0.1
 74
0
 49
-0.1
 74
0
  0
ENDTAB
  0
TABLE
  2
LAYER
  5
2
100
AcDbSymbolTable
 70
36
  0
LAYER
  5
10
100
AcDbSymbolTableRecord
100
AcDbLayerTableRecord
  2
0
 70
0
 62
7
  6
CONTINUOUS
370
-3
390
F
  0
LAYER
  5
1FA
100
AcDbSymbolTableRecord
100
AcDbLayerTableRecord
  2
DEFAULT_1
 70
0
 62
7
  6
CENTER
370
-3
390
F
  0
LAYER
  5
1FB
100
AcDbSymbolTableRecord
100
AcDbLayerTableRecord
  2
DEFAULT_2
 70
0
 62
7
  6
HIDDEN
370
-3
390
F
  0
LAYER
  5
1FC
100
AcDbSymbolTableRecord
100
AcDbLayerTableRecord
  2
DEFAULT_3
 70
0
 62
7
  6
PHANTOM
370
-3
390
F
  0
LAYER
  5
1FD
100
AcDbSymbolTableRecord
100
AcDbLayerTableRecord
  2
ASSI
 70
0
 62
7
  6
CONTINUOUS
370
-3
390
F
  0
LAYER
  5
1FE
100
AcDbSymbolTableRecord
100
AcDbLayerTableRecord
  2
COORDINATE
 70
0
 62
7
  6
CONTINUOUS
370
-3
390
F
  0
LAYER
  5
1FF
100
AcDbSymbolTableRecord
100
AcDbLayerTableRecord
  2
COORD_ORIGINE
 70
0
 62
7
  6
CONTINUOUS
370
-3
390
F
  0
LAYER
  5
200
100
AcDbSymbolTableRecord
100
AcDbLayerTableRecord
  2
COPY_PUBLISH
 70
0
 62
7
  6
CONTINUOUS
370
-3
390
F
  0
LAYER
  5
201
100
AcDbSymbolTableRecord
100
AcDbLayerTableRecord
  2
COSMETIC
 70
0
 62
7
  6
CONTINUOUS
370
-3
390
F
  0
LAYER
  5
202
100
AcDbSymbolTableRecord
100
AcDbLayerTableRecord
  2
COSMETICI
 70
0
 62
7
  6
CONTINUOUS
370
-3
390
F
  0
LAYER
  5
203
100
AcDbSymbolTableRecord
100
AcDbLayerTableRecord
  2
CURVA_TASSELLO
 70
0
 62
7
  6
CONTINUOUS
370
-3
390
F
  0
LAYER
  5
204
100
AcDbSymbolTableRecord
100
AcDbLayerTableRecord
  2
CURVE
 70
0
 62
7
  6
CONTINUOUS
370
-3
390
F
  0
LAYER
  5
205
100
AcDbSymbolTableRecord
100
AcDbLayerTableRecord
  2
DRAFT
 70
0
 62
7
  6
CONTINUOUS
370
-3
390
F
  0
LAYER
  5
206
100
AcDbSymbolTableRecord
100
AcDbLayerTableRecord
  2
IMPORT_IGES
 70
0
 62
7
  6
CONTINUOUS
370
-3
390
F
  0
LAYER
  5
207
100
AcDbSymbolTableRecord
100
AcDbLayerTableRecord
  2
INTFCLR_2
 70
0
 62
7
  6
CONTINUOUS
370
-3
390
F
  0
LAYER
  5
208
100
AcDbSymbolTableRecord
100
AcDbLayerTableRecord
  2
INTF_1
 70
0
 62
7
  6
CONTINUOUS
370
-3
390
F
  0
LAYER
  5
209
100
AcDbSymbolTableRecord
100
AcDbLayerTableRecord
  2
INTF_21
 70
0
 62
7
  6
CONTINUOUS
370
-3
390
F
  0
LAYER
  5
20A
100
AcDbSymbolTableRecord
100
AcDbLayerTableRecord
  2
INTF_6
 70
0
 62
7
  6
CONTINUOUS
370
-3
390
F
  0
LAYER
  5
20B
100
AcDbSymbolTableRecord
100
AcDbLayerTableRecord
  2
INTF_7
 70
0
 62
7
  6
CONTINUOUS
370
-3
390
F
  0
LAYER
  5
20C
100
AcDbSymbolTableRecord
100
AcDbLayerTableRecord
  2
INTF_9
 70
0
 62
7
  6
CONTINUOUS
370
-3
390
F
  0
LAYER
  5
20D
100
AcDbSymbolTableRecord
100
AcDbLayerTableRecord
  2
LIVELLO_1
 70
0
 62
7
  6
CONTINUOUS
370
-3
390
F
  0
LAYER
  5
20E
100
AcDbSymbolTableRecord
100
AcDbLayerTableRecord
  2
NOTE
 70
0
 62
7
  6
CONTINUOUS
370
-3
390
F
  0
LAYER
  5
20F
100
AcDbSymbolTableRecord
100
AcDbLayerTableRecord
  2
PIANI
 70
0
 62
7
  6
CONTINUOUS
370
-3
390
F
  0
LAYER
  5
210
100
AcDbSymbolTableRecord
100
AcDbLayerTableRecord
  2
PIANI_ORIGINE
 70
0
 62
7
  6
CONTINUOUS
370
-3
390
F
  0
LAYER
  5
211
100
AcDbSymbolTableRecord
100
AcDbLayerTableRecord
  2
PIANI_RIFERIMENTO
 70
0
 62
7
  6
CONTINUOUS
370
-3
390
F
  0
LAYER
  5
212
100
AcDbSymbolTableRecord
100
AcDbLayerTableRecord
  2
PUNTI
 70
0
 62
7
  6
CONTINUOUS
370
-3
390
F
  0
LAYER
  5
213
100
AcDbSymbolTableRecord
100
AcDbLayerTableRecord
  2
RACCORDO
 70
0
 62
7
  6
CONTINUOUS
370
-3
390
F
  0
LAYER
  5
214
100
AcDbSymbolTableRecord
100
AcDbLayerTableRecord
  2
RGB__255__255__255__
 70
0
 62
7
  6
CONTINUOUS
370
-3
390
F
  0
LAYER
  5
215
100
AcDbSymbolTableRecord
100
AcDbLayerTableRecord
  2
RGB____0____0____0__
 70
0
 62
7
  6
CONTINUOUS
370
-3
390
F
  0
LAYER
  5
216
100
AcDbSymbolTableRecord
100
AcDbLayerTableRecord
  2
SIMBOLI
 70
0
 62
7
  6
CONTINUOUS
370
-3
390
F
  0
LAYER
  5
217
100
AcDbSymbolTableRecord
100
AcDbLayerTableRecord
  2
SMUSSO
 70
0
 62
7
  6
CONTINUOUS
370
-3
390
F
  0
LAYER
  5
218
100
AcDbSymbolTableRecord
100
AcDbLayerTableRecord
  2
SUPERFICI
 70
0
 62
7
  6
CONTINUOUS
370
-3
390
F
  0
LAYER
  5
219
100
AcDbSymbolTableRecord
100
AcDbLayerTableRecord
  2
TRASH
 70
0
 62
7
  6
CONTINUOUS
370
-3
390
F
  0
LAYER
  5
21A
100
AcDbSymbolTableRecord
100
AcDbLayerTableRecord
  2
WHITE
 70
0
 62
7
  6
CONTINUOUS
370
-3
390
F
  0
LAYER
  5
21B
100
AcDbSymbolTableRecord
100
AcDbLayerTableRecord
  2
XSEC_DATUMS
 70
0
 62
7
  6
CONTINUOUS
370
-3
390
F
  0
ENDTAB
  0
TABLE
  2
STYLE
  5
3
100
AcDbSymbolTable
 70
1
  0
STYLE
  5
11
100
AcDbSymbolTableRecord
100
AcDbTextStyleTableRecord
  2
STANDARD
 70
0
 40
0.0
 41
0.8
 50
0.0
 71
0
 42
0.2
  3
txt
  4

  0
STYLE
  5
21C
100
AcDbSymbolTableRecord
100
AcDbTextStyleTableRecord
  2
TEXTSTYLE_1
 70
0
 40
0.0
 41
0.8
 50
0.0
 71
0
 42
0.2
  3
gdt
  4

  0
ENDTAB
  0
TABLE
  2
VIEW
  5
6
100
AcDbSymbolTable
 70
0
  0
ENDTAB
  0
TABLE
  2
UCS
  5
7
100
AcDbSymbolTable
 70
0
  0
ENDTAB
  0
TABLE
  2
APPID
  5
9
100
AcDbSymbolTable
 70
1
  0
APPID
  5
21D
100
AcDbSymbolTableRecord
100
AcDbRegAppTableRecord
  2
ACAD
 70
0
  0
ENDTAB
  0
TABLE
  2
BLOCK_RECORD
  5
1
100
AcDbSymbolTable
 70
0
  0
BLOCK_RECORD
  5
21E
100
AcDbSymbolTableRecord
100
AcDbBlockTableRecord
  2
*Model_Space
  0
BLOCK_RECORD
  5
21F
100
AcDbSymbolTableRecord
100
AcDbBlockTableRecord
  2
*Paper_Space
  0
BLOCK_RECORD
  5
220
100
AcDbSymbolTableRecord
100
AcDbBlockTableRecord
  2
_FILLED
  0
ENDTAB
  0
TABLE
  2
DIMSTYLE
  5
A
100
AcDbSymbolTable
 70
1
100
AcDbDimStyleTable
 71
0
  0
DIMSTYLE
105
221
100
AcDbSymbolTableRecord
100
AcDbDimStyleTableRecord
  2
STANDARD
 70
0
  3

  4

 40
1.0
 41
3.0
 42
0.5
 43
0.38
 44
1.5
 45
0.0
 46
0.0
 47
0.01
 48
0.01
140
3.0
141
0.09
142
0.0
143
25.4
144
1.0
145
0.0
146
1.0
147
0.625
 71
1
 72
0
 73
0
 74
0
 75
0
 76
0
 77
1
 78
8
 79
2
170
0
171
1
172
0
173
0
174
0
175
0
176
0
177
0
178
0
270
2
179
2
271
2
272
2
273
2
274
2
275
0
280
0
281
0
282
0
283
1
284
8
285
0
286
0
287
3
288
0
340
11
278
44
341
220
342
220
343
220
344
220
  0
ENDTAB
  0
ENDSEC
  0
SECTION
  2
BLOCKS
  0
BLOCK
  5
20
100
AcDbEntity
  8
0
100
AcDbBlockBegin
  2
*Model_Space
 70
0
 10
0.0
 20
0.0
 30
0.0
  3
*Model_Space
  1

  0
ENDBLK
  5
21
100
AcDbEntity
  8
0
100
AcDbBlockEnd
  0
BLOCK
  5
1C
100
AcDbEntity
  8
0
100
AcDbBlockBegin
  2
*Paper_Space
 70
0
 10
0.0
 20
0.0
 30
0.0
  3
*Paper_Space
  1

  0
ENDBLK
  5
1D
100
AcDbEntity
  8
0
100
AcDbBlockEnd
  0
BLOCK
  5
222
100
AcDbEntity
  8
0
100
AcDbBlockBegin
  2
_FILLED
 70
64
 10
0.0
 20
0.0
  3
_FILLED
  1

  0
SOLID
  5
223
100
AcDbEntity
  8
0
  6
BYBLOCK
 62
0
100
AcDbTrace
 10
0.0
 20
0.0
 11
-1.0
 21
0.3166666667
 12
-1.0
 22
-0.3166666667
 13
-1.0
 23
-0.3166666667
  0
ENDBLK
  5
224
100
AcDbEntity
  8
0
  6
BYBLOCK
 62
0
100
AcDbBlockEnd
  0
ENDSEC
  0
SECTION
  2
ENTITIES
  0
LINE
  5
225
100
AcDbEntity
  8
0
100
AcDbLine
 62
7
  6
CONTINUOUS
 10
-45.0274205459
 20
59.3397676688
 11
-41.2396067588
 21
61.8433345602
  0
LINE
  5
226
100
AcDbEntity
  8
ASSI
100
AcDbLine
 62
7
  6
CONTINUOUS
 10
-45.0274205459
 20
59.3397676688
 11
-41.2396067588
 21
61.8433345602
  0
LINE
  5
227
100
AcDbEntity
  8
0
100
AcDbLine
 62
7
  6
CONTINUOUS
 10
-44.3198832767
 20
59.7482118627
 11
-40.5320694895
 21
62.251778754
  0
LINE
  5
228
100
AcDbEntity
  8
ASSI
100
AcDbLine
 62
7
  6
CONTINUOUS
 10
-44.3198832767
 20
59.7482118627
 11
-40.5320694895
 21
62.251778754
  0
LINE
  5
229
100
AcDbEntity
  8
0
100
AcDbLine
 62
7
  6
CONTINUOUS
 10
-44.3406468908
 20
59.7353725117
 11
-44.3198832767
 21
59.7482118627
  0
LINE
  5
22A
100
AcDbEntity
  8
ASSI
100
AcDbLine
 62
7
  6
CONTINUOUS
 10
-44.3406468908
 20
59.7353725117
 11
-44.3198832767
 21
59.7482118627
  0
LINE
  5
22B
100
AcDbEntity
  8
0
100
AcDbLine
 62
7
  6
CONTINUOUS
 10
-41.2396067588
 20
61.8433345602
 11
-40.5320694895
 21
62.251778754
  0
LINE
  5
22C
100
AcDbEntity
  8
ASSI
100
AcDbLine
 62
7
  6
CONTINUOUS
 10
-41.2396067588
 20
61.8433345602
 11
-40.5320694895
 21
62.251778754
  0
LINE
  5
22D
100
AcDbEntity
  8
0
100
AcDbLine
 62
7
  6
CONTINUOUS
 10
-44.3406468908
 20
59.7353725117
 11
-45.0270452385
 21
59.3391313073
  0
LINE
  5
22E
100
AcDbEntity
  8
ASSI
100
AcDbLine
 62
7
  6
CONTINUOUS
 10
-44.3406468908
 20
59.7353725117
 11
-45.0270452385
 21
59.3391313073
  0
LINE
  5
22F
100
AcDbEntity
  8
0
100
AcDbLine
 62
7
  6
CONTINUOUS
 10
-44.7233361907
 20
58.3201440733
 11
-45.0023121248
 21
58.1590979978
  0
LINE
  5
230
100
AcDbEntity
  8
ASSI
100
AcDbLine
 62
7
  6
CONTINUOUS
 10
-44.7233361907
 20
58.3201440733
 11
-45.0023121248
 21
58.1590979978
  0
LINE
  5
231
100
AcDbEntity
  8
CURVE
100
AcDbLine
 62
250
  6
CONTINUOUS
 10
43.3365457403
 20
-55.3886198257
 11
42.078144919
 21
-55.6652426256
  0
LINE
  5
232
100
AcDbEntity
  8
CURVE
100
AcDbLine
 62
250
  6
CONTINUOUS
 10
42.078144919
 20
-55.2395056304
 11
43.9063360957
 21
-54.9112124379
  0
LINE
  5
233
100
AcDbEntity
  8
0
100
AcDbLine
 62
7
  6
CONTINUOUS
 10
-44.7233361907
 20
58.3201440733
 11
-44.3406468908
 21
59.7353725117
  0
LINE
  5
234
100
AcDbEntity
  8
ASSI
100
AcDbLine
 62
7
  6
CONTINUOUS
 10
-44.7233361907
 20
58.3201440733
 11
-44.3406468908
 21
59.7353725117
  0
LINE
  5
235
100
AcDbEntity
  8
CURVE
100
AcDbLine
 62
250
  6
CONTINUOUS
 10
42.5804854479
 20
-51.1805410579
 11
43.2589505753
 21
-51.027366478
  0
LINE
  5
236
100
AcDbEntity
  8
CURVE
100
AcDbLine
 62
250
  6
CONTINUOUS
 10
43.5413642698
 20
-50.9624545389
 11
43.9063360957
 21
-50.8835033272
  0
LINE
  5
237
100
AcDbEntity
  8
CURVE
100
AcDbLine
 62
250
  6
CONTINUOUS
 10
43.9063360957
 20
-51.3049089477
 11
42.078144919
 21
-51.6490735059
  0
LINE
  5
238
100
AcDbEntity
  8
CURVE
100
AcDbLine
 62
250
  6
CONTINUOUS
 10
43.0931621987
 20
-52.8480326443
 11
42.078144919
 21
-52.9685123343
  0
LINE
  5
239
100
AcDbEntity
  8
CURVE
100
AcDbLine
 62
250
  6
CONTINUOUS
 10
42.7175382062
 20
-52.5161805812
 11
43.9063360957
 21
-52.3826521625
  0
LINE
  5
23A
100
AcDbEntity
  8
0
100
AcDbLine
 62
7
  6
CONTINUOUS
 10
-45.0023121248
 20
-12.6725356016
 11
-45.0270452385
 21
-12.2163000241
  0
LINE
  5
23B
100
AcDbEntity
  8
ASSI
100
AcDbLine
 62
7
  6
CONTINUOUS
 10
-45.0023121248
 20
-12.6725356016
 11
-45.0270452385
 21
-12.2163000241
  0
LINE
  5
23C
100
AcDbEntity
  8
0
100
AcDbLine
 62
7
  6
CONTINUOUS
 10
39.5270270784
 20
-61.4787166561
 11
40.9439862093
 21
-61.8548961119
  0
LINE
  5
23D
100
AcDbEntity
  8
ASSI
100
AcDbLine
 62
7
  6
CONTINUOUS
 10
39.5270270784
 20
-61.4787166561
 11
40.9439862093
 21
-61.8548961119
  0
LINE
  5
23E
100
AcDbEntity
  8
0
100
AcDbLine
 62
7
  6
CONTINUOUS
 10
-45.0023121248
 20
58.1590979978
 11
-45.0270452385
 21
59.3391313073
  0
LINE
  5
23F
100
AcDbEntity
  8
ASSI
100
AcDbLine
 62
7
  6
CONTINUOUS
 10
-45.0023121248
 20
58.1590979978
 11
-45.0270452385
 21
59.3391313073
  0
LINE
  5
240
100
AcDbEntity
  8
0
100
AcDbLine
 62
7
  6
CONTINUOUS
 10
-45.0270452385
 20
-12.2163000241
 11
-45.0274205459
 21
-12.1921071634
  0
LINE
  5
241
100
AcDbEntity
  8
ASSI
100
AcDbLine
 62
7
  6
CONTINUOUS
 10
-45.0270452385
 20
-12.2163000241
 11
-45.0274205459
 21
-12.1921071634
  0
LINE
  5
242
100
AcDbEntity
  8
0
100
AcDbLine
 62
7
  6
CONTINUOUS
 10
-45.0274205459
 20
59.3397676688
 11
-45.0274205459
 21
-12.1921071634
  0
LINE
  5
243
100
AcDbEntity
  8
ASSI
100
AcDbLine
 62
7
  6
CONTINUOUS
 10
-45.0274205459
 20
59.3397676688
 11
-45.0274205459
 21
-12.1921071634
  0
LINE
  5
244
100
AcDbEntity
  8
0
100
AcDbLine
 62
7
  6
CONTINUOUS
 10
-45.0023121248
 20
58.1590979978
 11
-45.0023121248
 21
-12.6725356016
  0
LINE
  5
245
100
AcDbEntity
  8
ASSI
100
AcDbLine
 62
7
  6
CONTINUOUS
 10
-45.0023121248
 20
58.1590979978
 11
-45.0023121248
 21
-12.6725356016
  0
LINE
  5
246
100
AcDbEntity
  8
0
100
AcDbLine
 62
7
  6
CONTINUOUS
 10
-45.0023121248
 20
-12.6725356016
 11
-44.7233361907
 21
-13.1557360931
  0
LINE
  5
247
100
AcDbEntity
  8
ASSI
100
AcDbLine
 62
7
  6
CONTINUOUS
 10
-45.0023121248
 20
-12.6725356016
 11
-44.7233361907
 21
-13.1557360931
  0
LINE
  5
248
100
AcDbEntity
  8
0
100
AcDbLine
 62
7
  6
CONTINUOUS
 10
-44.7233361907
 20
-13.1557360931
 11
-44.3406468908
 21
-13.4051768352
  0
LINE
  5
249
100
AcDbEntity
  8
ASSI
100
AcDbLine
 62
7
  6
CONTINUOUS
 10
-44.7233361907
 20
-13.1557360931
 11
-44.3406468908
 21
-13.4051768352
  0
LINE
  5
24A
100
AcDbEntity
  8
0
100
AcDbLine
 62
7
  6
CONTINUOUS
 10
-44.3198832767
 20
-13.4175976608
 11
40.2579502919
 21
-62.251778754
  0
LINE
  5
24B
100
AcDbEntity
  8
ASSI
100
AcDbLine
 62
7
  6
CONTINUOUS
 10
-44.3198832767
 20
-13.4175976608
 11
40.2579502919
 21
-62.251778754
  0
LINE
  5
24C
100
AcDbEntity
  8
0
100
AcDbLine
 62
7
  6
CONTINUOUS
 10
-44.7233361907
 20
-13.1557360931
 11
39.2480511443
 21
-61.6397627316
  0
LINE
  5
24D
100
AcDbEntity
  8
ASSI
100
AcDbLine
 62
7
  6
CONTINUOUS
 10
-44.7233361907
 20
-13.1557360931
 11
39.2480511443
 21
-61.6397627316
  0
LINE
  5
24E
100
AcDbEntity
  8
0
100
AcDbLine
 62
7
  6
CONTINUOUS
 10
-44.3198832767
 20
-13.4175976608
 11
-44.3406468908
 21
-13.4051768352
  0
LINE
  5
24F
100
AcDbEntity
  8
ASSI
100
AcDbLine
 62
7
  6
CONTINUOUS
 10
-44.3198832767
 20
-13.4175976608
 11
-44.3406468908
 21
-13.4051768352
  0
LINE
  5
250
100
AcDbEntity
  8
0
100
AcDbLine
 62
7
  6
CONTINUOUS
 10
39.2480511443
 20
-61.6397627316
 11
40.2575878617
 21
-62.2511373164
  0
LINE
  5
251
100
AcDbEntity
  8
ASSI
100
AcDbLine
 62
7
  6
CONTINUOUS
 10
39.2480511443
 20
-61.6397627316
 11
40.2575878617
 21
-62.2511373164
  0
LWPOLYLINE
  5
252
100
AcDbEntity
  8
0
100
AcDbPolyline
 62
7
  6
CONTINUOUS
 90
13
 70
0
 10
-19.9164720799
 20
20.0524538275
 10
-19.9677864524
 20
19.9848435873
 10
-20.0380537996
 20
19.8768271767
 10
-20.1019924581
 20
19.761819435
 10
-20.1595594834
 20
19.6397729209
 10
-20.2107978199
 20
19.5107350757
 10
-20.2553605641
 20
19.375579536
 10
-20.2932024174
 20
19.2342647891
 10
-20.3243686784
 20
19.0868323476
 10
-20.3486483393
 20
18.9342803871
 10
-20.3659710642
 20
18.7769416325
 10
-20.3764071891
 20
18.6144833589
 10
-20.3799567138
 20
18.4469055661
  0
LWPOLYLINE
  5
253
100
AcDbEntity
  8
ASSI
100
AcDbPolyline
 62
7
  6
CONTINUOUS
 90
13
 70
0
 10
-19.9164720799
 20
20.0524538275
 10
-19.9677864524
 20
19.9848435873
 10
-20.0380537996
 20
19.8768271767
 10
-20.1019924581
 20
19.761819435
 10
-20.1595594834
 20
19.6397729209
 10
-20.2107978199
 20
19.5107350757
 10
-20.2553605641
 20
19.375579536
 10
-20.2932024174
 20
19.2342647891
 10
-20.3243686784
 20
19.0868323476
 10
-20.3486483393
 20
18.9342803871
 10
-20.3659710642
 20
18.7769416325
 10
-20.3764071891
 20
18.6144833589
 10
-20.3799567138
 20
18.4469055661
  0
LWPOLYLINE
  5
254
100
AcDbEntity
  8
0
100
AcDbPolyline
 62
7
  6
CONTINUOUS
 90
16
 70
0
 10
-20.4690968059
 20
19.8664764815
 10
-20.4166406384
 20
19.8953370239
 10
-20.3083126864
 20
19.9464997056
 10
-20.1954212946
 20
19.9889473016
 10
-20.0782222432
 20
20.0225835654
 10
-19.9569810707
 20
20.0473322349
 10
-19.8319724008
 20
20.0631372074
 10
-19.7034794251
 20
20.0699626354
 10
-19.5717933355
 20
20.0677930231
 10
-19.4372124795
 20
20.0566332739
 10
-19.3000417002
 20
20.0365086545
 10
-19.1605917665
 20
20.0074647461
 10
-19.0191785917
 20
19.9695673367
 10
-18.876122525
 20
19.9229022679
 10
-18.7317476534
 20
19.8675752488
 10
-18.5863810309
 20
19.8037116037
  0
LWPOLYLINE
  5
255
100
AcDbEntity
  8
ASSI
100
AcDbPolyline
 62
7
  6
CONTINUOUS
 90
16
 70
0
 10
-20.4690968059
 20
19.8664764815
 10
-20.4166406384
 20
19.8953370239
 10
-20.3083126864
 20
19.9464997056
 10
-20.1954212946
 20
19.9889473016
 10
-20.0782222432
 20
20.0225835654
 10
-19.9569810707
 20
20.0473322349
 10
-19.8319724008
 20
20.0631372074
 10
-19.7034794251
 20
20.0699626354
 10
-19.5717933355
 20
20.0677930231
 10
-19.4372124795
 20
20.0566332739
 10
-19.3000417002
 20
20.0365086545
 10
-19.1605917665
 20
20.0074647461
 10
-19.0191785917
 20
19.9695673367
 10
-18.876122525
 20
19.9229022679
 10
-18.7317476534
 20
19.8675752488
 10
-18.5863810309
 20
19.8037116037
  0
LWPOLYLINE
  5
256
100
AcDbEntity
  8
0
100
AcDbPolyline
 62
7
  6
CONTINUOUS
 90
46
 70
0
 10
-20.3799567138
 20
1.7092648919
 10
-20.3764071891
 20
1.5375881969
 10
-20.3659710642
 20
1.3630785479
 10
-20.3486483393
 20
1.1857359449
 10
-20.3243686784
 20
1.0051464405
 10
-20.2932024174
 20
0.821723982
 10
-20.2553605641
 20
0.6367104114
 10
-20.2107978199
 20
0.4500949317
 10
-20.1595594834
 20
0.2618883398
 10
-20.1019924581
 20
0.0733648681
 10
-20.0380537996
 20
-0.1154776339
 10
-19.9677864524
 20
-0.3046370157
 10
-19.8916661539
 20
-0.4928325944
 10
-19.8096531878
 20
-0.6800578299
 10
-19.7217872704
 20
-0.8663192622
 10
-19.6286632884
 20
-1.0503558285
 10
-19.5302455621
 20
-1.2321524316
 10
-19.4265697712
 20
-1.4117241687
 10
-19.3183378415
 20
-1.5878552689
 10
-19.2055188562
 20
-1.760522385
 10
-19.0881437319
 20
-1.9297488642
 10
-18.9670071444
 20
-2.094388977
 10
-18.8420835692
 20
-2.2544116016
 10
-18.7133985307
 20
-2.4098478598
 10
-18.5818232769
 20
-2.5596453872
 10
-18.4473381957
 20
-2.7037659212
 10
-18.3099628991
 20
-2.8422477244
 10
-18.1706274718
 20
-2.9741532208
 10
-18.0293186129
 20
-3.0994377856
 10
-17.8860496233
 20
-3.2181460437
 10
-17.74179049
 20
-3.3294742936
 10
-17.5965344943
 20
-3.4333724568
 10
-17.450288355
 20
-3.5298906119
 10
-17.3040422156
 20
-3.6183752931
 10
-17.1577960763
 20
-3.6987719878
 10
-17.011549937
 20
-3.7711352086
 10
-16.8662939413
 20
-3.8349750282
 10
-16.722034808
 20
-3.8902336095
 10
-16.5787658184
 20
-3.9369687895
 10
-16.4374569595
 20
-3.9748641529
 10
-16.2981215322
 20
-4.0038597154
 10
-16.1607462356
 20
-4.0240154612
 10
-16.0262611544
 20
-4.0351949281
 10
-15.8946859006
 20
-4.0373372056
 10
-15.7660008621
 20
-4.0305032043
 10
-15.6815411054
 20
-4.0198452916
  0
LWPOLYLINE
  5
257
100
AcDbEntity
  8
ASSI
100
AcDbPolyline
 62
7
  6
CONTINUOUS
 90
46
 70
0
 10
-20.3799567138
 20
1.7092648919
 10
-20.3764071891
 20
1.5375881969
 10
-20.3659710642
 20
1.3630785479
 10
-20.3486483393
 20
1.1857359449
 10
-20.3243686784
 20
1.0051464405
 10
-20.2932024174
 20
0.821723982
 10
-20.2553605641
 20
0.6367104114
 10
-20.2107978199
 20
0.4500949317
 10
-20.1595594834
 20
0.2618883398
 10
-20.1019924581
 20
0.0733648681
 10
-20.0380537996
 20
-0.1154776339
 10
-19.9677864524
 20
-0.3046370157
 10
-19.8916661539
 20
-0.4928325944
 10
-19.8096531878
 20
-0.6800578299
 10
-19.7217872704
 20
-0.8663192622
 10
-19.6286632884
 20
-1.0503558285
 10
-19.5302455621
 20
-1.2321524316
 10
-19.4265697712
 20
-1.4117241687
 10
-19.3183378415
 20
-1.5878552689
 10
-19.2055188562
 20
-1.760522385
 10
-19.0881437319
 20
-1.9297488642
 10
-18.9670071444
 20
-2.094388977
 10
-18.8420835692
 20
-2.2544116016
 10
-18.7133985307
 20
-2.4098478598
 10
-18.5818232769
 20
-2.5596453872
 10
-18.4473381957
 20
-2.7037659212
 10
-18.3099628991
 20
-2.8422477244
 10
-18.1706274718
 20
-2.9741532208
 10
-18.0293186129
 20
-3.0994377856
 10
-17.8860496233
 20
-3.2181460437
 10
-17.74179049
 20
-3.3294742936
 10
-17.5965344943
 20
-3.4333724568
 10
-17.450288355
 20
-3.5298906119
 10
-17.3040422156
 20
-3.6183752931
 10
-17.1577960763
 20
-3.6987719878
 10
-17.011549937
 20
-3.7711352086
 10
-16.8662939413
 20
-3.8349750282
 10
-16.722034808
 20
-3.8902336095
 10
-16.5787658184
 20
-3.9369687895
 10
-16.4374569595
 20
-3.9748641529
 10
-16.2981215322
 20
-4.0038597154
 10
-16.1607462356
 20
-4.0240154612
 10
-16.0262611544
 20
-4.0351949281
 10
-15.8946859006
 20
-4.0373372056
 10
-15.7660008621
 20
-4.0305032043
 10
-15.6815411054
 20
-4.0198452916
  0
LWPOLYLINE
  5
258
100
AcDbEntity
  8
0
100
AcDbPolyline
 62
7
  6
CONTINUOUS
 90
46
 70
0
 10
-20.3799567138
 20
18.4469055661
 10
-20.3764071891
 20
18.2752288712
 10
-20.3659710642
 20
18.1007192222
 10
-20.3486483393
 20
17.9233766191
 10
-20.3243686784
 20
17.7427871147
 10
-20.2932024174
 20
17.5593646563
 10
-20.2553605641
 20
17.3743510856
 10
-20.2107978199
 20
17.187735606
 10
-20.1595594834
 20
16.9995290141
 10
-20.1019924581
 20
16.8110055423
 10
-20.0380537996
 20
16.6221630404
 10
-19.9677864524
 20
16.4330036585
 10
-19.8916661539
 20
16.2448080798
 10
-19.8096531878
 20
16.0575828444
 10
-19.7217872704
 20
15.8713214121
 10
-19.6286632884
 20
15.6872848458
 10
-19.5302455621
 20
15.5054882427
 10
-19.4265697712
 20
15.3259165056
 10
-19.3183378415
 20
15.1497854054
 10
-19.2055188562
 20
14.9771182892
 10
-19.0881437319
 20
14.80789181
 10
-18.9670071444
 20
14.6432516973
 10
-18.8420835692
 20
14.4832290726
 10
-18.7133985307
 20
14.3277928145
 10
-18.5818232769
 20
14.177995287
 10
-18.4473381957
 20
14.0338747531
 10
-18.3099628991
 20
13.8953929499
 10
-18.1706274718
 20
13.7634874534
 10
-18.0293186129
 20
13.6382028886
 10
-17.8860496233
 20
13.5194946306
 10
-17.74179049
 20
13.4081663807
 10
-17.5965344943
 20
13.3042682175
 10
-17.450288355
 20
13.2077500624
 10
-17.3040422156
 20
13.1192653811
 10
-17.1577960763
 20
13.0388686865
 10
-17.011549937
 20
12.9665054657
 10
-16.8662939413
 20
12.902665646
 10
-16.722034808
 20
12.8474070648
 10
-16.5787658184
 20
12.8006718847
 10
-16.4374569595
 20
12.7627765213
 10
-16.2981215322
 20
12.7337809589
 10
-16.1607462356
 20
12.7136252131
 10
-16.0262611544
 20
12.7024457462
 10
-15.8946859006
 20
12.7003034686
 10
-15.7660008621
 20
12.7071374699
 10
-15.6815411054
 20
12.7177953827
  0
LWPOLYLINE
  5
259
100
AcDbEntity
  8
ASSI
100
AcDbPolyline
 62
7
  6
CONTINUOUS
 90
46
 70
0
 10
-20.3799567138
 20
18.4469055661
 10
-20.3764071891
 20
18.2752288712
 10
-20.3659710642
 20
18.1007192222
 10
-20.3486483393
 20
17.9233766191
 10
-20.3243686784
 20
17.7427871147
 10
-20.2932024174
 20
17.5593646563
 10
-20.2553605641
 20
17.3743510856
 10
-20.2107978199
 20
17.187735606
 10
-20.1595594834
 20
16.9995290141
 10
-20.1019924581
 20
16.8110055423
 10
-20.0380537996
 20
16.6221630404
 10
-19.9677864524
 20
16.4330036585
 10
-19.8916661539
 20
16.2448080798
 10
-19.8096531878
 20
16.0575828444
 10
-19.7217872704
 20
15.8713214121
 10
-19.6286632884
 20
15.6872848458
 10
-19.5302455621
 20
15.5054882427
 10
-19.4265697712
 20
15.3259165056
 10
-19.3183378415
 20
15.1497854054
 10
-19.2055188562
 20
14.9771182892
 10
-19.0881437319
 20
14.80789181
 10
-18.9670071444
 20
14.6432516973
 10
-18.8420835692
 20
14.4832290726
 10
-18.7133985307
 20
14.3277928145
 10
-18.5818232769
 20
14.177995287
 10
-18.4473381957
 20
14.0338747531
 10
-18.3099628991
 20
13.8953929499
 10
-18.1706274718
 20
13.7634874534
 10
-18.0293186129
 20
13.6382028886
 10
-17.8860496233
 20
13.5194946306
 10
-17.74179049
 20
13.4081663807
 10
-17.5965344943
 20
13.3042682175
 10
-17.450288355
 20
13.2077500624
 10
-17.3040422156
 20
13.1192653811
 10
-17.1577960763
 20
13.0388686865
 10
-17.011549937
 20
12.9665054657
 10
-16.8662939413
 20
12.902665646
 10
-16.722034808
 20
12.8474070648
 10
-16.5787658184
 20
12.8006718847
 10
-16.4374569595
 20
12.7627765213
 10
-16.2981215322
 20
12.7337809589
 10
-16.1607462356
 20
12.7136252131
 10
-16.0262611544
 20
12.7024457462
 10
-15.8946859006
 20
12.7003034686
 10
-15.7660008621
 20
12.7071374699
 10
-15.6815411054
 20
12.7177953827
  0
LWPOLYLINE
  5
25A
100
AcDbEntity
  8
0
100
AcDbPolyline
 62
7
  6
CONTINUOUS
 90
18
 70
0
 10
-21.3699062075
 20
17.8753211355
 10
-21.366422769
 20
18.0422911169
 10
-21.3559801575
 20
18.2048624692
 10
-21.3386017476
 20
18.3626667782
 10
-21.3143265653
 20
18.5153467307
 10
-21.2832093532
 20
18.6625559187
 10
-21.2453205961
 20
18.8039597478
 10
-21.2007460135
 20
18.9392376994
 10
-21.1495864229
 20
19.0680832891
 10
-21.0919578712
 20
19.1902039453
 10
-21.0279909115
 20
19.3053229056
 10
-20.957830374
 20
19.4131794276
 10
-20.8816353707
 20
19.5135288737
 10
-20.7995786304
 20
19.6061438163
 10
-20.7118459539
 20
19.690814601
 10
-20.6186359784
 20
19.7673495226
 10
-20.5201598509
 20
19.8355751854
 10
-20.4690968059
 20
19.8664764815
  0
LWPOLYLINE
  5
25B
100
AcDbEntity
  8
ASSI
100
AcDbPolyline
 62
7
  6
CONTINUOUS
 90
18
 70
0
 10
-21.3699062075
 20
17.8753211355
 10
-21.366422769
 20
18.0422911169
 10
-21.3559801575
 20
18.2048624692
 10
-21.3386017476
 20
18.3626667782
 10
-21.3143265653
 20
18.5153467307
 10
-21.2832093532
 20
18.6625559187
 10
-21.2453205961
 20
18.8039597478
 10
-21.2007460135
 20
18.9392376994
 10
-21.1495864229
 20
19.0680832891
 10
-21.0919578712
 20
19.1902039453
 10
-21.0279909115
 20
19.3053229056
 10
-20.957830374
 20
19.4131794276
 10
-20.8816353707
 20
19.5135288737
 10
-20.7995786304
 20
19.6061438163
 10
-20.7118459539
 20
19.690814601
 10
-20.6186359784
 20
19.7673495226
 10
-20.5201598509
 20
19.8355751854
 10
-20.4690968059
 20
19.8664764815
  0
LWPOLYLINE
  5
25C
100
AcDbEntity
  8
0
100
AcDbPolyline
 62
7
  6
CONTINUOUS
 90
18
 70
0
 10
-21.3699062075
 20
1.1376804612
 10
-21.366422769
 20
1.3046504427
 10
-21.3559801575
 20
1.4672217949
 10
-21.3386017476
 20
1.6250261039
 10
-21.3143265653
 20
1.7777060564
 10
-21.2832093532
 20
1.9249152444
 10
-21.2453205961
 20
2.0663190735
 10
-21.2007460135
 20
2.2015970252
 10
-21.1495864229
 20
2.3304426149
 10
-21.0919578712
 20
2.4525632711
 10
-21.0279909115
 20
2.5676822314
 10
-20.957830374
 20
2.6755387534
 10
-20.8816353707
 20
2.7758881994
 10
-20.7995786304
 20
2.868503142
 10
-20.7118459539
 20
2.9531739267
 10
-20.6186359784
 20
3.0297088483
 10
-20.5201598509
 20
3.0979345111
 10
-20.4690968059
 20
3.1288358072
  0
LWPOLYLINE
  5
25D
100
AcDbEntity
  8
ASSI
100
AcDbPolyline
 62
7
  6
CONTINUOUS
 90
18
 70
0
 10
-21.3699062075
 20
1.1376804612
 10
-21.366422769
 20
1.3046504427
 10
-21.3559801575
 20
1.4672217949
 10
-21.3386017476
 20
1.6250261039
 10
-21.3143265653
 20
1.7777060564
 10
-21.2832093532
 20
1.9249152444
 10
-21.2453205961
 20
2.0663190735
 10
-21.2007460135
 20
2.2015970252
 10
-21.1495864229
 20
2.3304426149
 10
-21.0919578712
 20
2.4525632711
 10
-21.0279909115
 20
2.5676822314
 10
-20.957830374
 20
2.6755387534
 10
-20.8816353707
 20
2.7758881994
 10
-20.7995786304
 20
2.868503142
 10
-20.7118459539
 20
2.9531739267
 10
-20.6186359784
 20
3.0297088483
 10
-20.5201598509
 20
3.0979345111
 10
-20.4690968059
 20
3.1288358072
  0
LWPOLYLINE
  5
25E
100
AcDbEntity
  8
0
100
AcDbPolyline
 62
7
  6
CONTINUOUS
 90
34
 70
0
 10
-22.0770129887
 20
17.8753211355
 10
-22.0730566196
 20
18.0621468835
 10
-22.0614224058
 20
18.2432675976
 10
-22.0421103473
 20
18.4186832777
 10
-22.0150421819
 20
18.5887654535
 10
-21.9802961718
 20
18.7531425954
 10
-21.9381071037
 20
18.9107001148
 10
-21.8884243221
 20
19.0613914849
 10
-21.8312984824
 20
19.2052632325
 10
-21.7671163377
 20
19.3413403494
 10
-21.695829951
 20
19.469569743
 10
-21.6174872594
 20
19.5900045059
 10
-21.5326188264
 20
19.7018289074
 10
-21.4411804646
 20
19.8049843681
 10
-21.3432163616
 20
19.8995294674
 10
-21.2393896438
 20
19.9848242129
 10
-21.129660553
 20
20.0608058855
 10
-21.0140688475
 20
20.1275372041
 10
-20.8933969285
 20
20.1845663329
 10
-20.7676102485
 20
20.2318274813
 10
-20.6367433551
 20
20.2693864398
 10
-20.5016822926
 20
20.2969887442
 10
-20.3623985723
 20
20.314566805
 10
-20.2189206829
 20
20.3221882117
 10
-20.072220134
 20
20.3198012689
 10
-19.9222750759
 20
20.307338042
 10
-19.7691073584
 20
20.2848664657
 10
-19.6137540397
 20
20.2525386482
 10
-19.4562002927
 20
20.210287702
 10
-19.2964609445
 20
20.1581805146
 10
-19.1356175345
 20
20.0965698573
 10
-18.9736625541
 20
20.0253912267
 10
-18.810603512
 20
19.9447091262
 10
-18.6478765336
 20
19.8552615472
  0
LWPOLYLINE
  5
25F
100
AcDbEntity
  8
ASSI
100
AcDbPolyline
 62
7
  6
CONTINUOUS
 90
34
 70
0
 10
-22.0770129887
 20
17.8753211355
 10
-22.0730566196
 20
18.0621468835
 10
-22.0614224058
 20
18.2432675976
 10
-22.0421103473
 20
18.4186832777
 10
-22.0150421819
 20
18.5887654535
 10
-21.9802961718
 20
18.7531425954
 10
-21.9381071037
 20
18.9107001148
 10
-21.8884243221
 20
19.0613914849
 10
-21.8312984824
 20
19.2052632325
 10
-21.7671163377
 20
19.3413403494
 10
-21.695829951
 20
19.469569743
 10
-21.6174872594
 20
19.5900045059
 10
-21.5326188264
 20
19.7018289074
 10
-21.4411804646
 20
19.8049843681
 10
-21.3432163616
 20
19.8995294674
 10
-21.2393896438
 20
19.9848242129
 10
-21.129660553
 20
20.0608058855
 10
-21.0140688475
 20
20.1275372041
 10
-20.8933969285
 20
20.1845663329
 10
-20.7676102485
 20
20.2318274813
 10
-20.6367433551
 20
20.2693864398
 10
-20.5016822926
 20
20.2969887442
 10
-20.3623985723
 20
20.314566805
 10
-20.2189206829
 20
20.3221882117
 10
-20.072220134
 20
20.3198012689
 10
-19.9222750759
 20
20.307338042
 10
-19.7691073584
 20
20.2848664657
 10
-19.6137540397
 20
20.2525386482
 10
-19.4562002927
 20
20.210287702
 10
-19.2964609445
 20
20.1581805146
 10
-19.1356175345
 20
20.0965698573
 10
-18.9736625541
 20
20.0253912267
 10
-18.810603512
 20
19.9447091262
 10
-18.6478765336
 20
19.8552615472
  0
LWPOLYLINE
  5
260
100
AcDbEntity
  8
0
100
AcDbPolyline
 62
7
  6
CONTINUOUS
 90
34
 70
0
 10
-22.0770129887
 20
1.1376804612
 10
-22.0730566196
 20
1.3245062092
 10
-22.0614224058
 20
1.5056269233
 10
-22.0421103473
 20
1.6810426035
 10
-22.0150421819
 20
1.8511247793
 10
-21.9802961718
 20
2.0155019211
 10
-21.9381071037
 20
2.1730594405
 10
-21.8884243221
 20
2.3237508106
 10
-21.8312984824
 20
2.4676225583
 10
-21.7671163377
 20
2.6036996751
 10
-21.695829951
 20
2.7319290688
 10
-21.6174872594
 20
2.8523638316
 10
-21.5326188264
 20
2.9641882331
 10
-21.4411804646
 20
3.0673436938
 10
-21.3432163616
 20
3.1618887932
 10
-21.2393896438
 20
3.2471835386
 10
-21.129660553
 20
3.3231652112
 10
-21.0140688475
 20
3.3898965299
 10
-20.8933969285
 20
3.4469256586
 10
-20.7676102485
 20
3.494186807
 10
-20.6367433551
 20
3.5317457655
 10
-20.5016822926
 20
3.55934807
 10
-20.3623985723
 20
3.5769261307
 10
-20.2189206829
 20
3.5845475374
 10
-20.072220134
 20
3.5821605946
 10
-19.9222750759
 20
3.5696973678
 10
-19.7691073584
 20
3.5472257914
 10
-19.6137540397
 20
3.514897974
 10
-19.4562002927
 20
3.4726470277
 10
-19.2964609445
 20
3.4205398403
 10
-19.1356175345
 20
3.3589291831
 10
-18.9736625541
 20
3.2877505524
 10
-18.810603512
 20
3.2070684519
 10
-18.6478765336
 20
3.1176208729
  0
LWPOLYLINE
  5
261
100
AcDbEntity
  8
ASSI
100
AcDbPolyline
 62
7
  6
CONTINUOUS
 90
34
 70
0
 10
-22.0770129887
 20
1.1376804612
 10
-22.0730566196
 20
1.3245062092
 10
-22.0614224058
 20
1.5056269233
 10
-22.0421103473
 20
1.6810426035
 10
-22.0150421819
 20
1.8511247793
 10
-21.9802961718
 20
2.0155019211
 10
-21.9381071037
 20
2.1730594405
 10
-21.8884243221
 20
2.3237508106
 10
-21.8312984824
 20
2.4676225583
 10
-21.7671163377
 20
2.6036996751
 10
-21.695829951
 20
2.7319290688
 10
-21.6174872594
 20
2.8523638316
 10
-21.5326188264
 20
2.9641882331
 10
-21.4411804646
 20
3.0673436938
 10
-21.3432163616
 20
3.1618887932
 10
-21.2393896438
 20
3.2471835386
 10
-21.129660553
 20
3.3231652112
 10
-21.0140688475
 20
3.3898965299
 10
-20.8933969285
 20
3.4469256586
 10
-20.7676102485
 20
3.494186807
 10
-20.6367433551
 20
3.5317457655
 10
-20.5016822926
 20
3.55934807
 10
-20.3623985723
 20
3.5769261307
 10
-20.2189206829
 20
3.5845475374
 10
-20.072220134
 20
3.5821605946
 10
-19.9222750759
 20
3.5696973678
 10
-19.7691073584
 20
3.5472257914
 10
-19.6137540397
 20
3.514897974
 10
-19.4562002927
 20
3.4726470277
 10
-19.2964609445
 20
3.4205398403
 10
-19.1356175345
 20
3.3589291831
 10
-18.9736625541
 20
3.2877505524
 10
-18.810603512
 20
3.2070684519
 10
-18.6478765336
 20
3.1176208729
  0
LWPOLYLINE
  5
262
100
AcDbEntity
  8
0
100
AcDbPolyline
 62
7
  6
CONTINUOUS
 90
67
 70
0
 10
-15.2180772111
 20
13.9150575802
 10
-15.2220335802
 20
13.7282318322
 10
-15.233667794
 20
13.5471111181
 10
-15.2529798525
 20
13.371695438
 10
-15.2800480179
 20
13.2016132622
 10
-15.314794028
 20
13.0372361203
 10
-15.3569830961
 20
12.8796786009
 10
-15.4066658777
 20
12.7289872308
 10
-15.4637917174
 20
12.5851154832
 10
-15.5279738621
 20
12.4490383663
 10
-15.5992602488
 20
12.3208089727
 10
-15.6776029404
 20
12.2003742098
 10
-15.7624713734
 20
12.0885498083
 10
-15.8539097352
 20
11.9853943476
 10
-15.9518738382
 20
11.8908492482
 10
-16.055700556
 20
11.8055545028
 10
-16.1654296468
 20
11.7295728302
 10
-16.2810213523
 20
11.6628415116
 10
-16.4016932713
 20
11.6058123828
 10
-16.5274799513
 20
11.5585512344
 10
-16.6583468447
 20
11.5209922759
 10
-16.7934079072
 20
11.4933899715
 10
-16.9326916275
 20
11.4758119107
 10
-17.0761695169
 20
11.468190504
 10
-17.2228700658
 20
11.4705774468
 10
-17.3728151239
 20
11.4830406737
 10
-17.5259828414
 20
11.50551225
 10
-17.6813361601
 20
11.5378400675
 10
-17.8388899071
 20
11.5800910137
 10
-17.9986292553
 20
11.6321982011
 10
-18.1594726653
 20
11.6938088584
 10
-18.3214276457
 20
11.764987489
 10
-18.4844866879
 20
11.8456695895
 10
-18.6475457272
 20
11.9353088776
 10
-18.8106047616
 20
12.0339661461
 10
-18.9736637932
 20
12.1415806022
 10
-19.135618763
 20
12.2574235851
 10
-19.2964621645
 20
12.3815509289
 10
-19.4562015043
 20
12.5139067996
 10
-19.6137552421
 20
12.6535950342
 10
-19.7691085517
 20
12.8006653994
 10
-19.9222762594
 20
12.9550681284
 10
-20.0722213046
 20
13.1157577586
 10
-20.2189218394
 20
13.2827769966
 10
-20.3623997118
 20
13.4560831357
 10
-20.501683404
 20
13.6345025925
 10
-20.6367444201
 20
13.8180700478
 10
-20.767611256
 20
14.0067508208
 10
-20.8933978827
 20
14.1992672859
 10
-21.014069755
 20
14.3956453379
 10
-21.1296614181
 20
14.5958590819
 10
-21.2393904778
 20
14.798553208
 10
-21.3432171855
 20
15.003744544
 10
-21.4411812899
 20
15.211416262
 10
-21.5326196426
 20
15.4201625685
 10
-21.6174880519
 20
15.6299910207
 10
-21.6958307096
 20
15.8408940615
 10
-21.7671170425
 20
16.0514432258
 10
-21.8312991042
 20
16.2616362314
 10
-21.8884248411
 20
16.4714753607
 10
-21.9381075191
 20
16.6795389954
 10
-21.980296482
 20
16.8858151532
 10
-22.015042386
 20
17.0903158164
 10
-22.0421104653
 20
17.2916553134
 10
-22.0614224645
 20
17.4893717536
 10
-22.0730566389
 20
17.6839270277
 10
-22.0770129887
 20
17.8753211355
  0
LWPOLYLINE
  5
263
100
AcDbEntity
  8
ASSI
100
AcDbPolyline
 62
7
  6
CONTINUOUS
 90
67
 70
0
 10
-15.2180772111
 20
13.9150575802
 10
-15.2220335802
 20
13.7282318322
 10
-15.233667794
 20
13.5471111181
 10
-15.2529798525
 20
13.371695438
 10
-15.2800480179
 20
13.2016132622
 10
-15.314794028
 20
13.0372361203
 10
-15.3569830961
 20
12.8796786009
 10
-15.4066658777
 20
12.7289872308
 10
-15.4637917174
 20
12.5851154832
 10
-15.5279738621
 20
12.4490383663
 10
-15.5992602488
 20
12.3208089727
 10
-15.6776029404
 20
12.2003742098
 10
-15.7624713734
 20
12.0885498083
 10
-15.8539097352
 20
11.9853943476
 10
-15.9518738382
 20
11.8908492482
 10
-16.055700556
 20
11.8055545028
 10
-16.1654296468
 20
11.7295728302
 10
-16.2810213523
 20
11.6628415116
 10
-16.4016932713
 20
11.6058123828
 10
-16.5274799513
 20
11.5585512344
 10
-16.6583468447
 20
11.5209922759
 10
-16.7934079072
 20
11.4933899715
 10
-16.9326916275
 20
11.4758119107
 10
-17.0761695169
 20
11.468190504
 10
-17.2228700658
 20
11.4705774468
 10
-17.3728151239
 20
11.4830406737
 10
-17.5259828414
 20
11.50551225
 10
-17.6813361601
 20
11.5378400675
 10
-17.8388899071
 20
11.5800910137
 10
-17.9986292553
 20
11.6321982011
 10
-18.1594726653
 20
11.6938088584
 10
-18.3214276457
 20
11.764987489
 10
-18.4844866879
 20
11.8456695895
 10
-18.6475457272
 20
11.9353088776
 10
-18.8106047616
 20
12.0339661461
 10
-18.9736637932
 20
12.1415806022
 10
-19.135618763
 20
12.2574235851
 10
-19.2964621645
 20
12.3815509289
 10
-19.4562015043
 20
12.5139067996
 10
-19.6137552421
 20
12.6535950342
 10
-19.7691085517
 20
12.8006653994
 10
-19.9222762594
 20
12.9550681284
 10
-20.0722213046
 20
13.1157577586
 10
-20.2189218394
 20
13.2827769966
 10
-20.3623997118
 20
13.4560831357
 10
-20.501683404
 20
13.6345025925
 10
-20.6367444201
 20
13.8180700478
 10
-20.767611256
 20
14.0067508208
 10
-20.8933978827
 20
14.1992672859
 10
-21.014069755
 20
14.3956453379
 10
-21.1296614181
 20
14.5958590819
 10
-21.2393904778
 20
14.798553208
 10
-21.3432171855
 20
15.003744544
 10
-21.4411812899
 20
15.211416262
 10
-21.5326196426
 20
15.4201625685
 10
-21.6174880519
 20
15.6299910207
 10
-21.6958307096
 20
15.8408940615
 10
-21.7671170425
 20
16.0514432258
 10
-21.8312991042
 20
16.2616362314
 10
-21.8884248411
 20
16.4714753607
 10
-21.9381075191
 20
16.6795389954
 10
-21.980296482
 20
16.8858151532
 10
-22.015042386
 20
17.0903158164
 10
-22.0421104653
 20
17.2916553134
 10
-22.0614224645
 20
17.4893717536
 10
-22.0730566389
 20
17.6839270277
 10
-22.0770129887
 20
17.8753211355
  0
LWPOLYLINE
  5
264
100
AcDbEntity
  8
0
100
AcDbPolyline
 62
7
  6
CONTINUOUS
 90
67
 70
0
 10
-15.2180772111
 20
-2.822583094
 10
-15.2220335802
 20
-3.009408842
 10
-15.233667794
 20
-3.1905295561
 10
-15.2529798525
 20
-3.3659452363
 10
-15.2800480179
 20
-3.5360274121
 10
-15.314794028
 20
-3.7004045539
 10
-15.3569830961
 20
-3.8579620733
 10
-15.4066658777
 20
-4.0086534434
 10
-15.4637917174
 20
-4.1525251911
 10
-15.5279738621
 20
-4.288602308
 10
-15.5992602488
 20
-4.4168317016
 10
-15.6776029404
 20
-4.5372664644
 10
-15.7624713734
 20
-4.6490908659
 10
-15.8539097352
 20
-4.7522463266
 10
-15.9518738382
 20
-4.846791426
 10
-16.055700556
 20
-4.9320861714
 10
-16.1654296468
 20
-5.008067844
 10
-16.2810213523
 20
-5.0747991627
 10
-16.4016932713
 20
-5.1318282915
 10
-16.5274799513
 20
-5.1790894398
 10
-16.6583468447
 20
-5.2166483983
 10
-16.7934079072
 20
-5.2442507028
 10
-16.9326916275
 20
-5.2618287635
 10
-17.0761695169
 20
-5.2694501702
 10
-17.2228700658
 20
-5.2670632274
 10
-17.3728151239
 20
-5.2546000006
 10
-17.5259828414
 20
-5.2321284242
 10
-17.6813361601
 20
-5.1998006068
 10
-17.8388899071
 20
-5.1575496605
 10
-17.9986292553
 20
-5.1054424731
 10
-18.1594726653
 20
-5.0438318159
 10
-18.3214276457
 20
-4.9726531852
 10
-18.4844866879
 20
-4.8919710848
 10
-18.6475457272
 20
-4.8023317967
 10
-18.8106047616
 20
-4.7036745282
 10
-18.9736637932
 20
-4.5960600721
 10
-19.135618763
 20
-4.4802170891
 10
-19.2964621645
 20
-4.3560897453
 10
-19.4562015043
 20
-4.2237338746
 10
-19.6137552421
 20
-4.08404564
 10
-19.7691085517
 20
-3.9369752749
 10
-19.9222762594
 20
-3.7825725458
 10
-20.0722213046
 20
-3.6218829157
 10
-20.2189218394
 20
-3.4548636776
 10
-20.3623997118
 20
-3.2815575385
 10
-20.501683404
 20
-3.1031380817
 10
-20.6367444201
 20
-2.9195706265
 10
-20.767611256
 20
-2.7308898535
 10
-20.8933978827
 20
-2.5383733884
 10
-21.014069755
 20
-2.3419953364
 10
-21.1296614181
 20
-2.1417815923
 10
-21.2393904778
 20
-1.9390874662
 10
-21.3432171855
 20
-1.7338961302
 10
-21.4411812899
 20
-1.5262244122
 10
-21.5326196426
 20
-1.3174781057
 10
-21.6174880519
 20
-1.1076496535
 10
-21.6958307096
 20
-0.8967466128
 10
-21.7671170425
 20
-0.6861974485
 10
-21.8312991042
 20
-0.4760044428
 10
-21.8884248411
 20
-0.2661653135
 10
-21.9381075191
 20
-0.0581016789
 10
-21.980296482
 20
0.1481744789
 10
-22.015042386
 20
0.3526751421
 10
-22.0421104653
 20
0.5540146391
 10
-22.0614224645
 20
0.7517310794
 10
-22.0730566389
 20
0.9462863534
 10
-22.0770129887
 20
1.1376804612
  0
LWPOLYLINE
  5
265
100
AcDbEntity
  8
ASSI
100
AcDbPolyline
 62
7
  6
CONTINUOUS
 90
67
 70
0
 10
-15.2180772111
 20
-2.822583094
 10
-15.2220335802
 20
-3.009408842
 10
-15.233667794
 20
-3.1905295561
 10
-15.2529798525
 20
-3.3659452363
 10
-15.2800480179
 20
-3.5360274121
 10
-15.314794028
 20
-3.7004045539
 10
-15.3569830961
 20
-3.8579620733
 10
-15.4066658777
 20
-4.0086534434
 10
-15.4637917174
 20
-4.1525251911
 10
-15.5279738621
 20
-4.288602308
 10
-15.5992602488
 20
-4.4168317016
 10
-15.6776029404
 20
-4.5372664644
 10
-15.7624713734
 20
-4.6490908659
 10
-15.8539097352
 20
-4.7522463266
 10
-15.9518738382
 20
-4.846791426
 10
-16.055700556
 20
-4.9320861714
 10
-16.1654296468
 20
-5.008067844
 10
-16.2810213523
 20
-5.0747991627
 10
-16.4016932713
 20
-5.1318282915
 10
-16.5274799513
 20
-5.1790894398
 10
-16.6583468447
 20
-5.2166483983
 10
-16.7934079072
 20
-5.2442507028
 10
-16.9326916275
 20
-5.2618287635
 10
-17.0761695169
 20
-5.2694501702
 10
-17.2228700658
 20
-5.2670632274
 10
-17.3728151239
 20
-5.2546000006
 10
-17.5259828414
 20
-5.2321284242
 10
-17.6813361601
 20
-5.1998006068
 10
-17.8388899071
 20
-5.1575496605
 10
-17.9986292553
 20
-5.1054424731
 10
-18.1594726653
 20
-5.0438318159
 10
-18.3214276457
 20
-4.9726531852
 10
-18.4844866879
 20
-4.8919710848
 10
-18.6475457272
 20
-4.8023317967
 10
-18.8106047616
 20
-4.7036745282
 10
-18.9736637932
 20
-4.5960600721
 10
-19.135618763
 20
-4.4802170891
 10
-19.2964621645
 20
-4.3560897453
 10
-19.4562015043
 20
-4.2237338746
 10
-19.6137552421
 20
-4.08404564
 10
-19.7691085517
 20
-3.9369752749
 10
-19.9222762594
 20
-3.7825725458
 10
-20.0722213046
 20
-3.6218829157
 10
-20.2189218394
 20
-3.4548636776
 10
-20.3623997118
 20
-3.2815575385
 10
-20.501683404
 20
-3.1031380817
 10
-20.6367444201
 20
-2.9195706265
 10
-20.767611256
 20
-2.7308898535
 10
-20.8933978827
 20
-2.5383733884
 10
-21.014069755
 20
-2.3419953364
 10
-21.1296614181
 20
-2.1417815923
 10
-21.2393904778
 20
-1.9390874662
 10
-21.3432171855
 20
-1.7338961302
 10
-21.4411812899
 20
-1.5262244122
 10
-21.5326196426
 20
-1.3174781057
 10
-21.6174880519
 20
-1.1076496535
 10
-21.6958307096
 20
-0.8967466128
 10
-21.7671170425
 20
-0.6861974485
 10
-21.8312991042
 20
-0.4760044428
 10
-21.8884248411
 20
-0.2661653135
 10
-21.9381075191
 20
-0.0581016789
 10
-21.980296482
 20
0.1481744789
 10
-22.015042386
 20
0.3526751421
 10
-22.0421104653
 20
0.5540146391
 10
-22.0614224645
 20
0.7517310794
 10
-22.0730566389
 20
0.9462863534
 10
-22.0770129887
 20
1.1376804612
  0
LINE
  5
266
100
AcDbEntity
  8
0
100
AcDbLine
 62
7
  6
CONTINUOUS
 10
-15.2233512169
 20
14.1284865074
 11
-15.2320032611
 21
13.9937908398
  0
LINE
  5
267
100
AcDbEntity
  8
ASSI
100
AcDbLine
 62
7
  6
CONTINUOUS
 10
-15.2233512169
 20
14.1284865074
 11
-15.2320032611
 21
13.9937908398
  0
LINE
  5
268
100
AcDbEntity
  8
0
100
AcDbLine
 62
7
  6
CONTINUOUS
 10
-15.2233512169
 20
-2.6091541668
 11
-15.2320032611
 21
-2.7438498344
  0
LINE
  5
269
100
AcDbEntity
  8
ASSI
100
AcDbLine
 62
7
  6
CONTINUOUS
 10
-15.2233512169
 20
-2.6091541668
 11
-15.2320032611
 21
-2.7438498344
  0
LWPOLYLINE
  5
26A
100
AcDbEntity
  8
0
100
AcDbPolyline
 62
7
  6
CONTINUOUS
 90
16
 70
0
 10
-15.2320032611
 20
13.9937908398
 10
-15.2493816711
 20
13.8359865308
 10
-15.2736568533
 20
13.6833065784
 10
-15.3047740654
 20
13.5360973903
 10
-15.3426628225
 20
13.3946935612
 10
-15.3872374052
 20
13.2594156096
 10
-15.4383969957
 20
13.1305700199
 10
-15.4960255474
 20
13.0084493637
 10
-15.5599925071
 20
12.8933304034
 10
-15.6301530446
 20
12.7854738814
 10
-15.7063480479
 20
12.6851244353
 10
-15.7884047883
 20
12.5925094927
 10
-15.8761374647
 20
12.5078387081
 10
-15.9693474402
 20
12.4313037864
 10
-16.0678235678
 20
12.3630781236
 10
-16.1188866127
 20
12.3321768276
  0
LWPOLYLINE
  5
26B
100
AcDbEntity
  8
ASSI
100
AcDbPolyline
 62
7
  6
CONTINUOUS
 90
16
 70
0
 10
-15.2320032611
 20
13.9937908398
 10
-15.2493816711
 20
13.8359865308
 10
-15.2736568533
 20
13.6833065784
 10
-15.3047740654
 20
13.5360973903
 10
-15.3426628225
 20
13.3946935612
 10
-15.3872374052
 20
13.2594156096
 10
-15.4383969957
 20
13.1305700199
 10
-15.4960255474
 20
13.0084493637
 10
-15.5599925071
 20
12.8933304034
 10
-15.6301530446
 20
12.7854738814
 10
-15.7063480479
 20
12.6851244353
 10
-15.7884047883
 20
12.5925094927
 10
-15.8761374647
 20
12.5078387081
 10
-15.9693474402
 20
12.4313037864
 10
-16.0678235678
 20
12.3630781236
 10
-16.1188866127
 20
12.3321768276
  0
LWPOLYLINE
  5
26C
100
AcDbEntity
  8
0
100
AcDbPolyline
 62
7
  6
CONTINUOUS
 90
16
 70
0
 10
-15.2320032611
 20
-2.7438498344
 10
-15.2493816711
 20
-2.9016541434
 10
-15.2736568533
 20
-3.0543340959
 10
-15.3047740654
 20
-3.2015432839
 10
-15.3426628225
 20
-3.342947113
 10
-15.3872374052
 20
-3.4782250646
 10
-15.4383969957
 20
-3.6070706544
 10
-15.4960255474
 20
-3.7291913106
 10
-15.5599925071
 20
-3.8443102709
 10
-15.6301530446
 20
-3.9521667929
 10
-15.7063480479
 20
-4.0525162389
 10
-15.7884047883
 20
-4.1451311815
 10
-15.8761374647
 20
-4.2298019662
 10
-15.9693474402
 20
-4.3063368878
 10
-16.0678235678
 20
-4.3745625506
 10
-16.1188866127
 20
-4.4054638467
  0
LWPOLYLINE
  5
26D
100
AcDbEntity
  8
ASSI
100
AcDbPolyline
 62
7
  6
CONTINUOUS
 90
16
 70
0
 10
-15.2320032611
 20
-2.7438498344
 10
-15.2493816711
 20
-2.9016541434
 10
-15.2736568533
 20
-3.0543340959
 10
-15.3047740654
 20
-3.2015432839
 10
-15.3426628225
 20
-3.342947113
 10
-15.3872374052
 20
-3.4782250646
 10
-15.4383969957
 20
-3.6070706544
 10
-15.4960255474
 20
-3.7291913106
 10
-15.5599925071
 20
-3.8443102709
 10
-15.6301530446
 20
-3.9521667929
 10
-15.7063480479
 20
-4.0525162389
 10
-15.7884047883
 20
-4.1451311815
 10
-15.8761374647
 20
-4.2298019662
 10
-15.9693474402
 20
-4.3063368878
 10
-16.0678235678
 20
-4.3745625506
 10
-16.1188866127
 20
-4.4054638467
  0
LWPOLYLINE
  5
26E
100
AcDbEntity
  8
0
100
AcDbPolyline
 62
7
  6
CONTINUOUS
 90
13
 70
0
 10
-19.9164720799
 20
3.3148131533
 10
-19.9677864524
 20
3.2472029131
 10
-20.0380537996
 20
3.1391865025
 10
-20.1019924581
 20
3.0241787607
 10
-20.1595594834
 20
2.9021322467
 10
-20.2107978199
 20
2.7730944015
 10
-20.2553605641
 20
2.6379388618
 10
-20.2932024174
 20
2.4966241148
 10
-20.3243686784
 20
2.3491916734
 10
-20.3486483393
 20
2.1966397128
 10
-20.3659710642
 20
2.0393009583
 10
-20.3764071891
 20
1.8768426846
 10
-20.3799567138
 20
1.7092648919
  0
LWPOLYLINE
  5
26F
100
AcDbEntity
  8
ASSI
100
AcDbPolyline
 62
7
  6
CONTINUOUS
 90
13
 70
0
 10
-19.9164720799
 20
3.3148131533
 10
-19.9677864524
 20
3.2472029131
 10
-20.0380537996
 20
3.1391865025
 10
-20.1019924581
 20
3.0241787607
 10
-20.1595594834
 20
2.9021322467
 10
-20.2107978199
 20
2.7730944015
 10
-20.2553605641
 20
2.6379388618
 10
-20.2932024174
 20
2.4966241148
 10
-20.3243686784
 20
2.3491916734
 10
-20.3486483393
 20
2.1966397128
 10
-20.3659710642
 20
2.0393009583
 10
-20.3764071891
 20
1.8768426846
 10
-20.3799567138
 20
1.7092648919
  0
LWPOLYLINE
  5
270
100
AcDbEntity
  8
0
100
AcDbPolyline
 62
7
  6
CONTINUOUS
 90
51
 70
0
 10
-16.1188866127
 20
12.3321768276
 10
-16.1713427802
 20
12.3033162851
 10
-16.2796707322
 20
12.2521536034
 10
-16.392562124
 20
12.2097060074
 10
-16.5097611755
 20
12.1760697437
 10
-16.6310023479
 20
12.1513210741
 10
-16.7560110178
 20
12.1355161017
 10
-16.8845039935
 20
12.1286906737
 10
-17.0161900831
 20
12.130860286
 10
-17.1507709392
 20
12.1420200351
 10
-17.2879417184
 20
12.1621446545
 10
-17.4273916521
 20
12.1911885629
 10
-17.5688048269
 20
12.2290859724
 10
-17.7118608936
 20
12.2757510412
 10
-17.8562357652
 20
12.3310780602
 10
-18.0016023877
 20
12.3949417053
 10
-18.1476314359
 20
12.4671973031
 10
-18.29399205
 20
12.5476811472
 10
-18.440352664
 20
12.636210909
 10
-18.5863817116
 20
12.7325860329
 10
-18.7317483334
 20
12.8365881572
 10
-18.876123204
 20
12.9479816587
 10
-19.0191792695
 20
13.0665141879
 10
-19.1605924437
 20
13.1919172075
 10
-19.3000423785
 20
13.3239066292
 10
-19.4372131592
 20
13.4621834313
 10
-19.5717940134
 20
13.6064343235
 10
-19.7034800971
 20
13.7563325458
 10
-19.8319730637
 20
13.911538478
 10
-19.956981721
 20
14.0717003624
 10
-20.0782228752
 20
14.2364553255
 10
-20.1954219054
 20
14.4054301388
 10
-20.308313279
 20
14.5782419121
 10
-20.4166412157
 20
14.7544990312
 10
-20.5201604147
 20
14.933802301
 10
-20.6186365351
 20
15.1157457825
 10
-20.711846513
 20
15.2999173278
 10
-20.7995791943
 20
15.4858997044
 10
-20.8816359318
 20
15.673271806
 10
-20.9578309261
 20
15.8616094229
 10
-21.0279914469
 20
16.0504856604
 10
-21.0919583723
 20
16.2394721102
 10
-21.1495868737
 20
16.4281407776
 10
-21.2007464036
 20
16.6160641468
 10
-21.2453209159
 20
16.8028156241
 10
-21.2832095968
 20
16.9879722983
 10
-21.3143267344
 20
17.1711146734
 10
-21.33860185
 20
17.351826769
 10
-21.3559802064
 20
17.5296989671
 10
-21.366422782
 20
17.7043288899
 10
-21.3699062075
 20
17.8753211355
  0
LWPOLYLINE
  5
271
100
AcDbEntity
  8
ASSI
100
AcDbPolyline
 62
7
  6
CONTINUOUS
 90
51
 70
0
 10
-16.1188866127
 20
12.3321768276
 10
-16.1713427802
 20
12.3033162851
 10
-16.2796707322
 20
12.2521536034
 10
-16.392562124
 20
12.2097060074
 10
-16.5097611755
 20
12.1760697437
 10
-16.6310023479
 20
12.1513210741
 10
-16.7560110178
 20
12.1355161017
 10
-16.8845039935
 20
12.1286906737
 10
-17.0161900831
 20
12.130860286
 10
-17.1507709392
 20
12.1420200351
 10
-17.2879417184
 20
12.1621446545
 10
-17.4273916521
 20
12.1911885629
 10
-17.5688048269
 20
12.2290859724
 10
-17.7118608936
 20
12.2757510412
 10
-17.8562357652
 20
12.3310780602
 10
-18.0016023877
 20
12.3949417053
 10
-18.1476314359
 20
12.4671973031
 10
-18.29399205
 20
12.5476811472
 10
-18.440352664
 20
12.636210909
 10
-18.5863817116
 20
12.7325860329
 10
-18.7317483334
 20
12.8365881572
 10
-18.876123204
 20
12.9479816587
 10
-19.0191792695
 20
13.0665141879
 10
-19.1605924437
 20
13.1919172075
 10
-19.3000423785
 20
13.3239066292
 10
-19.4372131592
 20
13.4621834313
 10
-19.5717940134
 20
13.6064343235
 10
-19.7034800971
 20
13.7563325458
 10
-19.8319730637
 20
13.911538478
 10
-19.956981721
 20
14.0717003624
 10
-20.0782228752
 20
14.2364553255
 10
-20.1954219054
 20
14.4054301388
 10
-20.308313279
 20
14.5782419121
 10
-20.4166412157
 20
14.7544990312
 10
-20.5201604147
 20
14.933802301
 10
-20.6186365351
 20
15.1157457825
 10
-20.711846513
 20
15.2999173278
 10
-20.7995791943
 20
15.4858997044
 10
-20.8816359318
 20
15.673271806
 10
-20.9578309261
 20
15.8616094229
 10
-21.0279914469
 20
16.0504856604
 10
-21.0919583723
 20
16.2394721102
 10
-21.1495868737
 20
16.4281407776
 10
-21.2007464036
 20
16.6160641468
 10
-21.2453209159
 20
16.8028156241
 10
-21.2832095968
 20
16.9879722983
 10
-21.3143267344
 20
17.1711146734
 10
-21.33860185
 20
17.351826769
 10
-21.3559802064
 20
17.5296989671
 10
-21.366422782
 20
17.7043288899
 10
-21.3699062075
 20
17.8753211355
  0
LWPOLYLINE
  5
272
100
AcDbEntity
  8
0
100
AcDbPolyline
 62
7
  6
CONTINUOUS
 90
13
 70
0
 10
-4.0065695032
 20
10.8662754777
 10
-4.0578838757
 20
10.7986652374
 10
-4.1281512229
 20
10.6906488268
 10
-4.1920898815
 20
10.5756410851
 10
-4.2496569067
 20
10.453594571
 10
-4.3008952432
 20
10.3245567258
 10
-4.3454579874
 20
10.1894011862
 10
-4.3832998407
 20
10.0480864392
 10
-4.4144661017
 20
9.9006539977
 10
-4.4387457626
 20
9.7481020372
 10
-4.4560684875
 20
9.5907632827
 10
-4.4665046124
 20
9.428305009
 10
-4.4700541371
 20
9.2607272163
  0
LWPOLYLINE
  5
273
100
AcDbEntity
  8
ASSI
100
AcDbPolyline
 62
7
  6
CONTINUOUS
 90
13
 70
0
 10
-4.0065695032
 20
10.8662754777
 10
-4.0578838757
 20
10.7986652374
 10
-4.1281512229
 20
10.6906488268
 10
-4.1920898815
 20
10.5756410851
 10
-4.2496569067
 20
10.453594571
 10
-4.3008952432
 20
10.3245567258
 10
-4.3454579874
 20
10.1894011862
 10
-4.3832998407
 20
10.0480864392
 10
-4.4144661017
 20
9.9006539977
 10
-4.4387457626
 20
9.7481020372
 10
-4.4560684875
 20
9.5907632827
 10
-4.4665046124
 20
9.428305009
 10
-4.4700541371
 20
9.2607272163
  0
LWPOLYLINE
  5
274
100
AcDbEntity
  8
0
100
AcDbPolyline
 62
7
  6
CONTINUOUS
 90
16
 70
0
 10
-20.4690968059
 20
3.1288358072
 10
-20.4166406384
 20
3.1576963497
 10
-20.3083126864
 20
3.2088590314
 10
-20.1954212946
 20
3.2513066273
 10
-20.0782222432
 20
3.2849428911
 10
-19.9569810707
 20
3.3096915606
 10
-19.8319724008
 20
3.3254965331
 10
-19.7034794251
 20
3.3323219611
 10
-19.5717933355
 20
3.3301523488
 10
-19.4372124795
 20
3.3189925997
 10
-19.3000417002
 20
3.2988679802
 10
-19.1605917665
 20
3.2698240719
 10
-19.0191785917
 20
3.2319266624
 10
-18.876122525
 20
3.1852615936
 10
-18.7317476534
 20
3.1299345745
 10
-18.5863810309
 20
3.0660709295
  0
LWPOLYLINE
  5
275
100
AcDbEntity
  8
ASSI
100
AcDbPolyline
 62
7
  6
CONTINUOUS
 90
16
 70
0
 10
-20.4690968059
 20
3.1288358072
 10
-20.4166406384
 20
3.1576963497
 10
-20.3083126864
 20
3.2088590314
 10
-20.1954212946
 20
3.2513066273
 10
-20.0782222432
 20
3.2849428911
 10
-19.9569810707
 20
3.3096915606
 10
-19.8319724008
 20
3.3254965331
 10
-19.7034794251
 20
3.3323219611
 10
-19.5717933355
 20
3.3301523488
 10
-19.4372124795
 20
3.3189925997
 10
-19.3000417002
 20
3.2988679802
 10
-19.1605917665
 20
3.2698240719
 10
-19.0191785917
 20
3.2319266624
 10
-18.876122525
 20
3.1852615936
 10
-18.7317476534
 20
3.1299345745
 10
-18.5863810309
 20
3.0660709295
  0
LWPOLYLINE
  5
276
100
AcDbEntity
  8
0
100
AcDbPolyline
 62
7
  6
CONTINUOUS
 90
16
 70
0
 10
-4.5591942292
 20
10.6802981316
 10
-4.5067380617
 20
10.709158674
 10
-4.3984101097
 20
10.7603213558
 10
-4.2855187179
 20
10.8027689517
 10
-4.1683196665
 20
10.8364052155
 10
-4.047078494
 20
10.861153885
 10
-3.9220698241
 20
10.8769588575
 10
-3.7935768484
 20
10.8837842855
 10
-3.6618907588
 20
10.8816146732
 10
-3.5273099028
 20
10.8704549241
 10
-3.3901391235
 20
10.8503303046
 10
-3.2506891898
 20
10.8212863962
 10
-3.109276015
 20
10.7833889868
 10
-2.9662199483
 20
10.736723918
 10
-2.8218450767
 20
10.6813968989
 10
-2.6764784542
 20
10.6175332538
  0
LWPOLYLINE
  5
277
100
AcDbEntity
  8
ASSI
100
AcDbPolyline
 62
7
  6
CONTINUOUS
 90
16
 70
0
 10
-4.5591942292
 20
10.6802981316
 10
-4.5067380617
 20
10.709158674
 10
-4.3984101097
 20
10.7603213558
 10
-4.2855187179
 20
10.8027689517
 10
-4.1683196665
 20
10.8364052155
 10
-4.047078494
 20
10.861153885
 10
-3.9220698241
 20
10.8769588575
 10
-3.7935768484
 20
10.8837842855
 10
-3.6618907588
 20
10.8816146732
 10
-3.5273099028
 20
10.8704549241
 10
-3.3901391235
 20
10.8503303046
 10
-3.2506891898
 20
10.8212863962
 10
-3.109276015
 20
10.7833889868
 10
-2.9662199483
 20
10.736723918
 10
-2.8218450767
 20
10.6813968989
 10
-2.6764784542
 20
10.6175332538
  0
LWPOLYLINE
  5
278
100
AcDbEntity
  8
0
100
AcDbPolyline
 62
7
  6
CONTINUOUS
 90
46
 70
0
 10
-4.4700541371
 20
-7.476913458
 10
-4.4665046124
 20
-7.6485901529
 10
-4.4560684875
 20
-7.8230998019
 10
-4.4387457626
 20
-8.000442405
 10
-4.4144661017
 20
-8.1810319094
 10
-4.3832998407
 20
-8.3644543678
 10
-4.3454579874
 20
-8.5494679385
 10
-4.3008952432
 20
-8.7360834182
 10
-4.2496569067
 20
-8.92429001
 10
-4.1920898815
 20
-9.1128134818
 10
-4.1281512229
 20
-9.3016559838
 10
-4.0578838757
 20
-9.4908153656
 10
-3.9817635772
 20
-9.6790109443
 10
-3.8997506111
 20
-9.8662361797
 10
-3.8118846937
 20
-10.052497612
 10
-3.7187607117
 20
-10.2365341784
 10
-3.6203429854
 20
-10.4183307814
 10
-3.5166671945
 20
-10.5979025186
 10
-3.4084352648
 20
-10.7740336188
 10
-3.2956162795
 20
-10.9467007349
 10
-3.1782411552
 20
-11.1159272141
 10
-3.0571045677
 20
-11.2805673269
 10
-2.9321809925
 20
-11.4405899515
 10
-2.803495954
 20
-11.5960262097
 10
-2.6719207002
 20
-11.7458237371
 10
-2.537435619
 20
-11.8899442711
 10
-2.4000603224
 20
-12.0284260743
 10
-2.2607248951
 20
-12.1603315707
 10
-2.1194160362
 20
-12.2856161355
 10
-1.9761470466
 20
-12.4043243935
 10
-1.8318879133
 20
-12.5156526435
 10
-1.6866319176
 20
-12.6195508067
 10
-1.5403857783
 20
-12.7160689617
 10
-1.3941396389
 20
-12.804553643
 10
-1.2478934996
 20
-12.8849503376
 10
-1.1016473603
 20
-12.9573135585
 10
-0.9563913646
 20
-13.0211533781
 10
-0.8121322313
 20
-13.0764119593
 10
-0.6688632417
 20
-13.1231471394
 10
-0.5275543828
 20
-13.1610425028
 10
-0.3882189555
 20
-13.1900380652
 10
-0.2508436589
 20
-13.210193811
 10
-0.1163585777
 20
-13.2213732779
 10
0.0152166761
 20
-13.2235155555
 10
0.1439017146
 20
-13.2166815542
 10
0.2283614713
 20
-13.2060236415
  0
LWPOLYLINE
  5
279
100
AcDbEntity
  8
ASSI
100
AcDbPolyline
 62
7
  6
CONTINUOUS
 90
46
 70
0
 10
-4.4700541371
 20
-7.476913458
 10
-4.4665046124
 20
-7.6485901529
 10
-4.4560684875
 20
-7.8230998019
 10
-4.4387457626
 20
-8.000442405
 10
-4.4144661017
 20
-8.1810319094
 10
-4.3832998407
 20
-8.3644543678
 10
-4.3454579874
 20
-8.5494679385
 10
-4.3008952432
 20
-8.7360834182
 10
-4.2496569067
 20
-8.92429001
 10
-4.1920898815
 20
-9.1128134818
 10
-4.1281512229
 20
-9.3016559838
 10
-4.0578838757
 20
-9.4908153656
 10
-3.9817635772
 20
-9.6790109443
 10
-3.8997506111
 20
-9.8662361797
 10
-3.8118846937
 20
-10.052497612
 10
-3.7187607117
 20
-10.2365341784
 10
-3.6203429854
 20
-10.4183307814
 10
-3.5166671945
 20
-10.5979025186
 10
-3.4084352648
 20
-10.7740336188
 10
-3.2956162795
 20
-10.9467007349
 10
-3.1782411552
 20
-11.1159272141
 10
-3.0571045677
 20
-11.2805673269
 10
-2.9321809925
 20
-11.4405899515
 10
-2.803495954
 20
-11.5960262097
 10
-2.6719207002
 20
-11.7458237371
 10
-2.537435619
 20
-11.8899442711
 10
-2.4000603224
 20
-12.0284260743
 10
-2.2607248951
 20
-12.1603315707
 10
-2.1194160362
 20
-12.2856161355
 10
-1.9761470466
 20
-12.4043243935
 10
-1.8318879133
 20
-12.5156526435
 10
-1.6866319176
 20
-12.6195508067
 10
-1.5403857783
 20
-12.7160689617
 10
-1.3941396389
 20
-12.804553643
 10
-1.2478934996
 20
-12.8849503376
 10
-1.1016473603
 20
-12.9573135585
 10
-0.9563913646
 20
-13.0211533781
 10
-0.8121322313
 20
-13.0764119593
 10
-0.6688632417
 20
-13.1231471394
 10
-0.5275543828
 20
-13.1610425028
 10
-0.3882189555
 20
-13.1900380652
 10
-0.2508436589
 20
-13.210193811
 10
-0.1163585777
 20
-13.2213732779
 10
0.0152166761
 20
-13.2235155555
 10
0.1439017146
 20
-13.2166815542
 10
0.2283614713
 20
-13.2060236415
  0
LWPOLYLINE
  5
27A
100
AcDbEntity
  8
0
100
AcDbPolyline
 62
7
  6
CONTINUOUS
 90
18
 70
0
 10
-5.4600036308
 20
8.6891427856
 10
-5.4565201923
 20
8.8561127671
 10
-5.4460775808
 20
9.0186841193
 10
-5.4286991709
 20
9.1764884283
 10
-5.4044239886
 20
9.3291683808
 10
-5.3733067765
 20
9.4763775688
 10
-5.3354180194
 20
9.6177813979
 10
-5.2908434368
 20
9.7530593495
 10
-5.2396838462
 20
9.8819049393
 10
-5.1820552945
 20
10.0040255955
 10
-5.1180883348
 20
10.1191445558
 10
-5.0479277973
 20
10.2270010778
 10
-4.971732794
 20
10.3273505238
 10
-4.8896760537
 20
10.4199654664
 10
-4.8019433772
 20
10.5046362511
 10
-4.7087334017
 20
10.5811711727
 10
-4.6102572742
 20
10.6493968355
 10
-4.5591942292
 20
10.6802981316
  0
LWPOLYLINE
  5
27B
100
AcDbEntity
  8
ASSI
100
AcDbPolyline
 62
7
  6
CONTINUOUS
 90
18
 70
0
 10
-5.4600036308
 20
8.6891427856
 10
-5.4565201923
 20
8.8561127671
 10
-5.4460775808
 20
9.0186841193
 10
-5.4286991709
 20
9.1764884283
 10
-5.4044239886
 20
9.3291683808
 10
-5.3733067765
 20
9.4763775688
 10
-5.3354180194
 20
9.6177813979
 10
-5.2908434368
 20
9.7530593495
 10
-5.2396838462
 20
9.8819049393
 10
-5.1820552945
 20
10.0040255955
 10
-5.1180883348
 20
10.1191445558
 10
-5.0479277973
 20
10.2270010778
 10
-4.971732794
 20
10.3273505238
 10
-4.8896760537
 20
10.4199654664
 10
-4.8019433772
 20
10.5046362511
 10
-4.7087334017
 20
10.5811711727
 10
-4.6102572742
 20
10.6493968355
 10
-4.5591942292
 20
10.6802981316
  0
LWPOLYLINE
  5
27C
100
AcDbEntity
  8
0
100
AcDbPolyline
 62
7
  6
CONTINUOUS
 90
18
 70
0
 10
-5.4600036308
 20
-8.0484978886
 10
-5.4565201923
 20
-7.8815279072
 10
-5.4460775808
 20
-7.7189565549
 10
-5.4286991709
 20
-7.5611522459
 10
-5.4044239886
 20
-7.4084722935
 10
-5.3733067765
 20
-7.2612631054
 10
-5.3354180194
 20
-7.1198592763
 10
-5.2908434368
 20
-6.9845813247
 10
-5.2396838462
 20
-6.855735735
 10
-5.1820552945
 20
-6.7336150788
 10
-5.1180883348
 20
-6.6184961185
 10
-5.0479277973
 20
-6.5106395965
 10
-4.971732794
 20
-6.4102901504
 10
-4.8896760537
 20
-6.3176752078
 10
-4.8019433772
 20
-6.2330044232
 10
-4.7087334017
 20
-6.1564695015
 10
-4.6102572742
 20
-6.0882438387
 10
-4.5591942292
 20
-6.0573425427
  0
LWPOLYLINE
  5
27D
100
AcDbEntity
  8
ASSI
100
AcDbPolyline
 62
7
  6
CONTINUOUS
 90
18
 70
0
 10
-5.4600036308
 20
-8.0484978886
 10
-5.4565201923
 20
-7.8815279072
 10
-5.4460775808
 20
-7.7189565549
 10
-5.4286991709
 20
-7.5611522459
 10
-5.4044239886
 20
-7.4084722935
 10
-5.3733067765
 20
-7.2612631054
 10
-5.3354180194
 20
-7.1198592763
 10
-5.2908434368
 20
-6.9845813247
 10
-5.2396838462
 20
-6.855735735
 10
-5.1820552945
 20
-6.7336150788
 10
-5.1180883348
 20
-6.6184961185
 10
-5.0479277973
 20
-6.5106395965
 10
-4.971732794
 20
-6.4102901504
 10
-4.8896760537
 20
-6.3176752078
 10
-4.8019433772
 20
-6.2330044232
 10
-4.7087334017
 20
-6.1564695015
 10
-4.6102572742
 20
-6.0882438387
 10
-4.5591942292
 20
-6.0573425427
  0
LWPOLYLINE
  5
27E
100
AcDbEntity
  8
0
100
AcDbPolyline
 62
7
  6
CONTINUOUS
 90
34
 70
0
 10
-6.167110412
 20
8.6891427856
 10
-6.1631540429
 20
8.8759685336
 10
-6.1515198291
 20
9.0570892477
 10
-6.1322077706
 20
9.2325049278
 10
-6.1051396052
 20
9.4025871036
 10
-6.0703935951
 20
9.5669642455
 10
-6.028204527
 20
9.7245217649
 10
-5.9785217454
 20
9.875213135
 10
-5.9213959057
 20
10.0190848826
 10
-5.857213761
 20
10.1551619995
 10
-5.7859273743
 20
10.2833913931
 10
-5.7075846827
 20
10.403826156
 10
-5.6227162497
 20
10.5156505575
 10
-5.5312778879
 20
10.6188060182
 10
-5.4333137849
 20
10.7133511176
 10
-5.3294870671
 20
10.798645863
 10
-5.2197579763
 20
10.8746275356
 10
-5.1041662708
 20
10.9413588542
 10
-4.9834943518
 20
10.998387983
 10
-4.8577076718
 20
11.0456491314
 10
-4.7268407784
 20
11.0832080899
 10
-4.5917797159
 20
11.1108103944
 10
-4.4524959956
 20
11.1283884551
 10
-4.3090181062
 20
11.1360098618
 10
-4.1623175573
 20
11.133622919
 10
-4.0123724992
 20
11.1211596922
 10
-3.8592047817
 20
11.0986881158
 10
-3.703851463
 20
11.0663602983
 10
-3.546297716
 20
11.0241093521
 10
-3.3865583678
 20
10.9720021647
 10
-3.2257149578
 20
10.9103915075
 10
-3.0637599775
 20
10.8392128768
 10
-2.9007009353
 20
10.7585307763
 10
-2.7379739569
 20
10.6690831973
  0
LWPOLYLINE
  5
27F
100
AcDbEntity
  8
ASSI
100
AcDbPolyline
 62
7
  6
CONTINUOUS
 90
34
 70
0
 10
-6.167110412
 20
8.6891427856
 10
-6.1631540429
 20
8.8759685336
 10
-6.1515198291
 20
9.0570892477
 10
-6.1322077706
 20
9.2325049278
 10
-6.1051396052
 20
9.4025871036
 10
-6.0703935951
 20
9.5669642455
 10
-6.028204527
 20
9.7245217649
 10
-5.9785217454
 20
9.875213135
 10
-5.9213959057
 20
10.0190848826
 10
-5.857213761
 20
10.1551619995
 10
-5.7859273743
 20
10.2833913931
 10
-5.7075846827
 20
10.403826156
 10
-5.6227162497
 20
10.5156505575
 10
-5.5312778879
 20
10.6188060182
 10
-5.4333137849
 20
10.7133511176
 10
-5.3294870671
 20
10.798645863
 10
-5.2197579763
 20
10.8746275356
 10
-5.1041662708
 20
10.9413588542
 10
-4.9834943518
 20
10.998387983
 10
-4.8577076718
 20
11.0456491314
 10
-4.7268407784
 20
11.0832080899
 10
-4.5917797159
 20
11.1108103944
 10
-4.4524959956
 20
11.1283884551
 10
-4.3090181062
 20
11.1360098618
 10
-4.1623175573
 20
11.133622919
 10
-4.0123724992
 20
11.1211596922
 10
-3.8592047817
 20
11.0986881158
 10
-3.703851463
 20
11.0663602983
 10
-3.546297716
 20
11.0241093521
 10
-3.3865583678
 20
10.9720021647
 10
-3.2257149578
 20
10.9103915075
 10
-3.0637599775
 20
10.8392128768
 10
-2.9007009353
 20
10.7585307763
 10
-2.7379739569
 20
10.6690831973
  0
LWPOLYLINE
  5
280
100
AcDbEntity
  8
0
100
AcDbPolyline
 62
7
  6
CONTINUOUS
 90
34
 70
0
 10
-6.167110412
 20
-8.0484978886
 10
-6.1631540429
 20
-7.8616721407
 10
-6.1515198291
 20
-7.6805514266
 10
-6.1322077706
 20
-7.5051357464
 10
-6.1051396052
 20
-7.3350535706
 10
-6.0703935951
 20
-7.1706764287
 10
-6.028204527
 20
-7.0131189094
 10
-5.9785217454
 20
-6.8624275392
 10
-5.9213959057
 20
-6.7185557916
 10
-5.857213761
 20
-6.5824786747
 10
-5.7859273743
 20
-6.4542492811
 10
-5.7075846827
 20
-6.3338145183
 10
-5.6227162497
 20
-6.2219901168
 10
-5.5312778879
 20
-6.118834656
 10
-5.4333137849
 20
-6.0242895567
 10
-5.3294870671
 20
-5.9389948113
 10
-5.2197579763
 20
-5.8630131387
 10
-5.1041662708
 20
-5.79628182
 10
-4.9834943518
 20
-5.7392526912
 10
-4.8577076718
 20
-5.6919915429
 10
-4.7268407784
 20
-5.6544325843
 10
-4.5917797159
 20
-5.6268302799
 10
-4.4524959956
 20
-5.6092522191
 10
-4.3090181062
 20
-5.6016308125
 10
-4.1623175573
 20
-5.6040177552
 10
-4.0123724992
 20
-5.6164809821
 10
-3.8592047817
 20
-5.6389525584
 10
-3.703851463
 20
-5.6712803759
 10
-3.546297716
 20
-5.7135313222
 10
-3.3865583678
 20
-5.7656385096
 10
-3.2257149578
 20
-5.8272491668
 10
-3.0637599775
 20
-5.8984277975
 10
-2.9007009353
 20
-5.9791098979
 10
-2.7379739569
 20
-6.0685574769
  0
LWPOLYLINE
  5
281
100
AcDbEntity
  8
ASSI
100
AcDbPolyline
 62
7
  6
CONTINUOUS
 90
34
 70
0
 10
-6.167110412
 20
-8.0484978886
 10
-6.1631540429
 20
-7.8616721407
 10
-6.1515198291
 20
-7.6805514266
 10
-6.1322077706
 20
-7.5051357464
 10
-6.1051396052
 20
-7.3350535706
 10
-6.0703935951
 20
-7.1706764287
 10
-6.028204527
 20
-7.0131189094
 10
-5.9785217454
 20
-6.8624275392
 10
-5.9213959057
 20
-6.7185557916
 10
-5.857213761
 20
-6.5824786747
 10
-5.7859273743
 20
-6.4542492811
 10
-5.7075846827
 20
-6.3338145183
 10
-5.6227162497
 20
-6.2219901168
 10
-5.5312778879
 20
-6.118834656
 10
-5.4333137849
 20
-6.0242895567
 10
-5.3294870671
 20
-5.9389948113
 10
-5.2197579763
 20
-5.8630131387
 10
-5.1041662708
 20
-5.79628182
 10
-4.9834943518
 20
-5.7392526912
 10
-4.8577076718
 20
-5.6919915429
 10
-4.7268407784
 20
-5.6544325843
 10
-4.5917797159
 20
-5.6268302799
 10
-4.4524959956
 20
-5.6092522191
 10
-4.3090181062
 20
-5.6016308125
 10
-4.1623175573
 20
-5.6040177552
 10
-4.0123724992
 20
-5.6164809821
 10
-3.8592047817
 20
-5.6389525584
 10
-3.703851463
 20
-5.6712803759
 10
-3.546297716
 20
-5.7135313222
 10
-3.3865583678
 20
-5.7656385096
 10
-3.2257149578
 20
-5.8272491668
 10
-3.0637599775
 20
-5.8984277975
 10
-2.9007009353
 20
-5.9791098979
 10
-2.7379739569
 20
-6.0685574769
  0
LINE
  5
282
100
AcDbEntity
  8
0
100
AcDbLine
 62
7
  6
CONTINUOUS
 10
13.2334241225
 20
-15.3062857703
 11
13.3542045715
 21
-15.3660482878
  0
LINE
  5
283
100
AcDbEntity
  8
ASSI
100
AcDbLine
 62
7
  6
CONTINUOUS
 10
13.2334241225
 20
-15.3062857703
 11
13.3542045715
 21
-15.3660482878
  0
LINE
  5
284
100
AcDbEntity
  8
0
100
AcDbLine
 62
7
  6
CONTINUOUS
 10
-2.6764784542
 20
-6.1201074204
 11
-2.5556980052
 21
-6.1798699379
  0
LINE
  5
285
100
AcDbEntity
  8
ASSI
100
AcDbLine
 62
7
  6
CONTINUOUS
 10
-2.6764784542
 20
-6.1201074204
 11
-2.5556980052
 21
-6.1798699379
  0
LINE
  5
286
100
AcDbEntity
  8
0
100
AcDbLine
 62
7
  6
CONTINUOUS
 10
-18.5863810309
 20
3.0660709295
 11
-18.4656005819
 21
3.006308412
  0
LINE
  5
287
100
AcDbEntity
  8
ASSI
100
AcDbLine
 62
7
  6
CONTINUOUS
 10
-18.5863810309
 20
3.0660709295
 11
-18.4656005819
 21
3.006308412
  0
LWPOLYLINE
  5
288
100
AcDbEntity
  8
0
100
AcDbPolyline
 62
7
  6
CONTINUOUS
 90
34
 70
0
 10
-18.6478765336
 20
3.1176208729
 10
-18.4844854382
 20
3.0187718954
 10
-18.3214264066
 20
2.9111574393
 10
-18.1594714368
 20
2.7953144563
 10
-17.9986280353
 20
2.6711871125
 10
-17.8388886955
 20
2.5388312418
 10
-17.6813349577
 20
2.3991430072
 10
-17.5259816481
 20
2.2520726421
 10
-17.3728139404
 20
2.097669913
 10
-17.2228688952
 20
1.9369802829
 10
-17.0761683604
 20
1.7699610448
 10
-16.932690488
 20
1.5966549057
 10
-16.7934067958
 20
1.4182354489
 10
-16.6583457797
 20
1.2346679936
 10
-16.5274789438
 20
1.0459872207
 10
-16.4016923171
 20
0.8534707556
 10
-16.2810204448
 20
0.6570927036
 10
-16.1654287817
 20
0.4568789595
 10
-16.055699722
 20
0.2541848334
 10
-15.9518730143
 20
0.0489934974
 10
-15.8539089099
 20
-0.1586782206
 10
-15.7624705572
 20
-0.3674245271
 10
-15.6776021479
 20
-0.5772529793
 10
-15.5992594902
 20
-0.78815602
 10
-15.5279731573
 20
-0.9987051843
 10
-15.4637910956
 20
-1.20889819
 10
-15.4066653587
 20
-1.4187373193
 10
-15.3569826807
 20
-1.6268009539
 10
-15.3147937178
 20
-1.8330771117
 10
-15.2800478138
 20
-2.037577775
 10
-15.2529797345
 20
-2.238917272
 10
-15.2336677353
 20
-2.4366337122
 10
-15.2220335609
 20
-2.6311889862
 10
-15.2180772111
 20
-2.822583094
  0
LWPOLYLINE
  5
289
100
AcDbEntity
  8
ASSI
100
AcDbPolyline
 62
7
  6
CONTINUOUS
 90
34
 70
0
 10
-18.6478765336
 20
3.1176208729
 10
-18.4844854382
 20
3.0187718954
 10
-18.3214264066
 20
2.9111574393
 10
-18.1594714368
 20
2.7953144563
 10
-17.9986280353
 20
2.6711871125
 10
-17.8388886955
 20
2.5388312418
 10
-17.6813349577
 20
2.3991430072
 10
-17.5259816481
 20
2.2520726421
 10
-17.3728139404
 20
2.097669913
 10
-17.2228688952
 20
1.9369802829
 10
-17.0761683604
 20
1.7699610448
 10
-16.932690488
 20
1.5966549057
 10
-16.7934067958
 20
1.4182354489
 10
-16.6583457797
 20
1.2346679936
 10
-16.5274789438
 20
1.0459872207
 10
-16.4016923171
 20
0.8534707556
 10
-16.2810204448
 20
0.6570927036
 10
-16.1654287817
 20
0.4568789595
 10
-16.055699722
 20
0.2541848334
 10
-15.9518730143
 20
0.0489934974
 10
-15.8539089099
 20
-0.1586782206
 10
-15.7624705572
 20
-0.3674245271
 10
-15.6776021479
 20
-0.5772529793
 10
-15.5992594902
 20
-0.78815602
 10
-15.5279731573
 20
-0.9987051843
 10
-15.4637910956
 20
-1.20889819
 10
-15.4066653587
 20
-1.4187373193
 10
-15.3569826807
 20
-1.6268009539
 10
-15.3147937178
 20
-1.8330771117
 10
-15.2800478138
 20
-2.037577775
 10
-15.2529797345
 20
-2.238917272
 10
-15.2336677353
 20
-2.4366337122
 10
-15.2220335609
 20
-2.6311889862
 10
-15.2180772111
 20
-2.822583094
  0
LWPOLYLINE
  5
28A
100
AcDbEntity
  8
0
100
AcDbPolyline
 62
7
  6
CONTINUOUS
 90
34
 70
0
 10
-2.7379739569
 20
-6.0685574769
 10
-2.5745828615
 20
-6.1674064545
 10
-2.4115238299
 20
-6.2750209106
 10
-2.2495688601
 20
-6.3908638935
 10
-2.0887254586
 20
-6.5149912374
 10
-1.9289861188
 20
-6.647347108
 10
-1.771432381
 20
-6.7870353426
 10
-1.6160790714
 20
-6.9341057078
 10
-1.4629113637
 20
-7.0885084369
 10
-1.3129663185
 20
-7.249198067
 10
-1.1662657837
 20
-7.416217305
 10
-1.0227879113
 20
-7.5895234441
 10
-0.8835042191
 20
-7.7679429009
 10
-0.748443203
 20
-7.9515103562
 10
-0.6175763671
 20
-8.1401911292
 10
-0.4917897404
 20
-8.3327075943
 10
-0.3711178681
 20
-8.5290856463
 10
-0.255526205
 20
-8.7292993904
 10
-0.1457971454
 20
-8.9319935165
 10
-0.0419704376
 20
-9.1371848524
 10
0.0559936668
 20
-9.3448565704
 10
0.1474320195
 20
-9.553602877
 10
0.2323004288
 20
-9.7634313292
 10
0.3106430865
 20
-9.9743343699
 10
0.3819294193
 20
-10.1848835342
 10
0.4461114811
 20
-10.3950765399
 10
0.503237218
 20
-10.6049156691
 10
0.552919896
 20
-10.8129793038
 10
0.5951088589
 20
-11.0192554616
 10
0.6298547629
 20
-11.2237561248
 10
0.6569228422
 20
-11.4250956218
 10
0.6762348414
 20
-11.6228120621
 10
0.6878690158
 20
-11.8173673361
 10
0.6918253656
 20
-12.0087614439
  0
LWPOLYLINE
  5
28B
100
AcDbEntity
  8
ASSI
100
AcDbPolyline
 62
7
  6
CONTINUOUS
 90
34
 70
0
 10
-2.7379739569
 20
-6.0685574769
 10
-2.5745828615
 20
-6.1674064545
 10
-2.4115238299
 20
-6.2750209106
 10
-2.2495688601
 20
-6.3908638935
 10
-2.0887254586
 20
-6.5149912374
 10
-1.9289861188
 20
-6.647347108
 10
-1.771432381
 20
-6.7870353426
 10
-1.6160790714
 20
-6.9341057078
 10
-1.4629113637
 20
-7.0885084369
 10
-1.3129663185
 20
-7.249198067
 10
-1.1662657837
 20
-7.416217305
 10
-1.0227879113
 20
-7.5895234441
 10
-0.8835042191
 20
-7.7679429009
 10
-0.748443203
 20
-7.9515103562
 10
-0.6175763671
 20
-8.1401911292
 10
-0.4917897404
 20
-8.3327075943
 10
-0.3711178681
 20
-8.5290856463
 10
-0.255526205
 20
-8.7292993904
 10
-0.1457971454
 20
-8.9319935165
 10
-0.0419704376
 20
-9.1371848524
 10
0.0559936668
 20
-9.3448565704
 10
0.1474320195
 20
-9.553602877
 10
0.2323004288
 20
-9.7634313292
 10
0.3106430865
 20
-9.9743343699
 10
0.3819294193
 20
-10.1848835342
 10
0.4461114811
 20
-10.3950765399
 10
0.503237218
 20
-10.6049156691
 10
0.552919896
 20
-10.8129793038
 10
0.5951088589
 20
-11.0192554616
 10
0.6298547629
 20
-11.2237561248
 10
0.6569228422
 20
-11.4250956218
 10
0.6762348414
 20
-11.6228120621
 10
0.6878690158
 20
-11.8173673361
 10
0.6918253656
 20
-12.0087614439
  0
LWPOLYLINE
  5
28C
100
AcDbEntity
  8
0
100
AcDbPolyline
 62
7
  6
CONTINUOUS
 90
34
 70
0
 10
13.1719286198
 20
-15.2547358268
 10
13.3353197152
 20
-15.3535848044
 10
13.4983787468
 20
-15.4611992605
 10
13.6603337166
 20
-15.5770422434
 10
13.8211771181
 20
-15.7011695872
 10
13.9809164579
 20
-15.8335254579
 10
14.1384701957
 20
-15.9732136925
 10
14.2938235053
 20
-16.1202840577
 10
14.446991213
 20
-16.2746867867
 10
14.5969362581
 20
-16.4353764169
 10
14.743636793
 20
-16.6023956549
 10
14.8871146654
 20
-16.775701794
 10
15.0263983576
 20
-16.9541212508
 10
15.1614593737
 20
-17.1376887061
 10
15.2923262096
 20
-17.3263694791
 10
15.4181128363
 20
-17.5188859442
 10
15.5387847086
 20
-17.7152639962
 10
15.6543763717
 20
-17.9154777402
 10
15.7641054313
 20
-18.1181718663
 10
15.8679321391
 20
-18.3233632023
 10
15.9658962435
 20
-18.5310349203
 10
16.0573345962
 20
-18.7397812268
 10
16.1422030055
 20
-18.949609679
 10
16.2205456632
 20
-19.1605127198
 10
16.291831996
 20
-19.3710618841
 10
16.3560140578
 20
-19.5812548897
 10
16.4131397947
 20
-19.791094019
 10
16.4628224727
 20
-19.9991576537
 10
16.5050114356
 20
-20.2054338115
 10
16.5397573396
 20
-20.4099344747
 10
16.5668254189
 20
-20.6112739717
 10
16.5861374181
 20
-20.808990412
 10
16.5977715925
 20
-21.003545686
 10
16.6017279422
 20
-21.1949397938
  0
LWPOLYLINE
  5
28D
100
AcDbEntity
  8
ASSI
100
AcDbPolyline
 62
7
  6
CONTINUOUS
 90
34
 70
0
 10
13.1719286198
 20
-15.2547358268
 10
13.3353197152
 20
-15.3535848044
 10
13.4983787468
 20
-15.4611992605
 10
13.6603337166
 20
-15.5770422434
 10
13.8211771181
 20
-15.7011695872
 10
13.9809164579
 20
-15.8335254579
 10
14.1384701957
 20
-15.9732136925
 10
14.2938235053
 20
-16.1202840577
 10
14.446991213
 20
-16.2746867867
 10
14.5969362581
 20
-16.4353764169
 10
14.743636793
 20
-16.6023956549
 10
14.8871146654
 20
-16.775701794
 10
15.0263983576
 20
-16.9541212508
 10
15.1614593737
 20
-17.1376887061
 10
15.2923262096
 20
-17.3263694791
 10
15.4181128363
 20
-17.5188859442
 10
15.5387847086
 20
-17.7152639962
 10
15.6543763717
 20
-17.9154777402
 10
15.7641054313
 20
-18.1181718663
 10
15.8679321391
 20
-18.3233632023
 10
15.9658962435
 20
-18.5310349203
 10
16.0573345962
 20
-18.7397812268
 10
16.1422030055
 20
-18.949609679
 10
16.2205456632
 20
-19.1605127198
 10
16.291831996
 20
-19.3710618841
 10
16.3560140578
 20
-19.5812548897
 10
16.4131397947
 20
-19.791094019
 10
16.4628224727
 20
-19.9991576537
 10
16.5050114356
 20
-20.2054338115
 10
16.5397573396
 20
-20.4099344747
 10
16.5668254189
 20
-20.6112739717
 10
16.5861374181
 20
-20.808990412
 10
16.5977715925
 20
-21.003545686
 10
16.6017279422
 20
-21.1949397938
  0
LINE
  5
28E
100
AcDbEntity
  8
0
100
AcDbLine
 62
7
  6
CONTINUOUS
 10
-45.0274205459
 20
59.3397676688
 11
-45.0270452385
 21
59.3391313073
  0
LINE
  5
28F
100
AcDbEntity
  8
ASSI
100
AcDbLine
 62
7
  6
CONTINUOUS
 10
-45.0274205459
 20
59.3397676688
 11
-45.0270452385
 21
59.3391313073
  0
LWPOLYLINE
  5
290
100
AcDbEntity
  8
0
100
AcDbPolyline
 62
7
  6
CONTINUOUS
 90
46
 70
0
 10
-4.4700541371
 20
9.2607272163
 10
-4.4665046124
 20
9.0890505213
 10
-4.4560684875
 20
8.9145408723
 10
-4.4387457626
 20
8.7371982693
 10
-4.4144661017
 20
8.5566087649
 10
-4.3832998407
 20
8.3731863064
 10
-4.3454579874
 20
8.1881727358
 10
-4.3008952432
 20
8.0015572561
 10
-4.2496569067
 20
7.8133506642
 10
-4.1920898815
 20
7.6248271924
 10
-4.1281512229
 20
7.4359846905
 10
-4.0578838757
 20
7.2468253086
 10
-3.9817635772
 20
7.05862973
 10
-3.8997506111
 20
6.8714044945
 10
-3.8118846937
 20
6.6851430622
 10
-3.7187607117
 20
6.5011064959
 10
-3.6203429854
 20
6.3193098928
 10
-3.5166671945
 20
6.1397381557
 10
-3.4084352648
 20
5.9636070555
 10
-3.2956162795
 20
5.7909399394
 10
-3.1782411552
 20
5.6217134602
 10
-3.0571045677
 20
5.4570733474
 10
-2.9321809925
 20
5.2970507228
 10
-2.803495954
 20
5.1416144646
 10
-2.6719207002
 20
4.9918169371
 10
-2.537435619
 20
4.8476964032
 10
-2.4000603224
 20
4.7092146
 10
-2.2607248951
 20
4.5773091036
 10
-2.1194160362
 20
4.4520245388
 10
-1.9761470466
 20
4.3333162807
 10
-1.8318879133
 20
4.2219880308
 10
-1.6866319176
 20
4.1180898676
 10
-1.5403857783
 20
4.0215717125
 10
-1.3941396389
 20
3.9330870312
 10
-1.2478934996
 20
3.8526903366
 10
-1.1016473603
 20
3.7803271158
 10
-0.9563913646
 20
3.7164872961
 10
-0.8121322313
 20
3.6612287149
 10
-0.6688632417
 20
3.6144935349
 10
-0.5275543828
 20
3.5765981714
 10
-0.3882189555
 20
3.547602609
 10
-0.2508436589
 20
3.5274468632
 10
-0.1163585777
 20
3.5162673963
 10
0.0152166761
 20
3.5141251187
 10
0.1439017146
 20
3.52095912
 10
0.2283614713
 20
3.5316170328
  0
LWPOLYLINE
  5
291
100
AcDbEntity
  8
ASSI
100
AcDbPolyline
 62
7
  6
CONTINUOUS
 90
46
 70
0
 10
-4.4700541371
 20
9.2607272163
 10
-4.4665046124
 20
9.0890505213
 10
-4.4560684875
 20
8.9145408723
 10
-4.4387457626
 20
8.7371982693
 10
-4.4144661017
 20
8.5566087649
 10
-4.3832998407
 20
8.3731863064
 10
-4.3454579874
 20
8.1881727358
 10
-4.3008952432
 20
8.0015572561
 10
-4.2496569067
 20
7.8133506642
 10
-4.1920898815
 20
7.6248271924
 10
-4.1281512229
 20
7.4359846905
 10
-4.0578838757
 20
7.2468253086
 10
-3.9817635772
 20
7.05862973
 10
-3.8997506111
 20
6.8714044945
 10
-3.8118846937
 20
6.6851430622
 10
-3.7187607117
 20
6.5011064959
 10
-3.6203429854
 20
6.3193098928
 10
-3.5166671945
 20
6.1397381557
 10
-3.4084352648
 20
5.9636070555
 10
-3.2956162795
 20
5.7909399394
 10
-3.1782411552
 20
5.6217134602
 10
-3.0571045677
 20
5.4570733474
 10
-2.9321809925
 20
5.2970507228
 10
-2.803495954
 20
5.1416144646
 10
-2.6719207002
 20
4.9918169371
 10
-2.537435619
 20
4.8476964032
 10
-2.4000603224
 20
4.7092146
 10
-2.2607248951
 20
4.5773091036
 10
-2.1194160362
 20
4.4520245388
 10
-1.9761470466
 20
4.3333162807
 10
-1.8318879133
 20
4.2219880308
 10
-1.6866319176
 20
4.1180898676
 10
-1.5403857783
 20
4.0215717125
 10
-1.3941396389
 20
3.9330870312
 10
-1.2478934996
 20
3.8526903366
 10
-1.1016473603
 20
3.7803271158
 10
-0.9563913646
 20
3.7164872961
 10
-0.8121322313
 20
3.6612287149
 10
-0.6688632417
 20
3.6144935349
 10
-0.5275543828
 20
3.5765981714
 10
-0.3882189555
 20
3.547602609
 10
-0.2508436589
 20
3.5274468632
 10
-0.1163585777
 20
3.5162673963
 10
0.0152166761
 20
3.5141251187
 10
0.1439017146
 20
3.52095912
 10
0.2283614713
 20
3.5316170328
  0
LWPOLYLINE
  5
292
100
AcDbEntity
  8
0
100
AcDbPolyline
 62
7
  6
CONTINUOUS
 90
67
 70
0
 10
0.6918253656
 20
4.7288792303
 10
0.6878689965
 20
4.5420534823
 10
0.6762347827
 20
4.3609327683
 10
0.6569227242
 20
4.1855170881
 10
0.6298545588
 20
4.0154349123
 10
0.5951085487
 20
3.8510577704
 10
0.5529194806
 20
3.6935002511
 10
0.503236699
 20
3.5428088809
 10
0.4461108593
 20
3.3989371333
 10
0.3819287146
 20
3.2628600164
 10
0.3106423279
 20
3.1346306228
 10
0.2322996362
 20
3.01419586
 10
0.1474312033
 20
2.9023714585
 10
0.0559928415
 20
2.7992159977
 10
-0.0419712615
 20
2.7046708984
 10
-0.1457979793
 20
2.619376153
 10
-0.2555270701
 20
2.5433944804
 10
-0.3711187756
 20
2.4766631617
 10
-0.4917906946
 20
2.4196340329
 10
-0.6175773746
 20
2.3723728845
 10
-0.748444268
 20
2.334813926
 10
-0.8835053306
 20
2.3072116216
 10
-1.0227890508
 20
2.2896335608
 10
-1.1662669402
 20
2.2820121541
 10
-1.3129674891
 20
2.2843990969
 10
-1.4629125472
 20
2.2968623238
 10
-1.6160802647
 20
2.3193339001
 10
-1.7714335834
 20
2.3516617176
 10
-1.9289873304
 20
2.3939126639
 10
-2.0887266786
 20
2.4460198513
 10
-2.2495700886
 20
2.5076305085
 10
-2.411525069
 20
2.5788091391
 10
-2.5745841112
 20
2.6594912396
 10
-2.7376431505
 20
2.7491305277
 10
-2.9007021849
 20
2.8477877962
 10
-3.0637612165
 20
2.9554022523
 10
-3.2257161863
 20
3.0712452352
 10
-3.3865595878
 20
3.1953725791
 10
-3.5462989276
 20
3.3277284497
 10
-3.7038526654
 20
3.4674166843
 10
-3.859205975
 20
3.6144870495
 10
-4.0123736827
 20
3.7688897786
 10
-4.1623187279
 20
3.9295794087
 10
-4.3090192627
 20
4.0965986467
 10
-4.4524971351
 20
4.2699047858
 10
-4.5917808273
 20
4.4483242426
 10
-4.7268418434
 20
4.6318916979
 10
-4.8577086794
 20
4.8205724709
 10
-4.983495306
 20
5.013088936
 10
-5.1041671783
 20
5.209466988
 10
-5.2197588414
 20
5.4096807321
 10
-5.3294879011
 20
5.6123748582
 10
-5.4333146088
 20
5.8175661941
 10
-5.5312787132
 20
6.0252379121
 10
-5.6227170659
 20
6.2339842187
 10
-5.7075854752
 20
6.4438126709
 10
-5.7859281329
 20
6.6547157116
 10
-5.8572144658
 20
6.8652648759
 10
-5.9213965275
 20
7.0754578816
 10
-5.9785222644
 20
7.2852970108
 10
-6.0282049424
 20
7.4933606455
 10
-6.0703939053
 20
7.6996368033
 10
-6.1051398093
 20
7.9041374665
 10
-6.1322078886
 20
8.1054769635
 10
-6.1515198878
 20
8.3031934038
 10
-6.1631540623
 20
8.4977486778
 10
-6.167110412
 20
8.6891427856
  0
LWPOLYLINE
  5
293
100
AcDbEntity
  8
ASSI
100
AcDbPolyline
 62
7
  6
CONTINUOUS
 90
67
 70
0
 10
0.6918253656
 20
4.7288792303
 10
0.6878689965
 20
4.5420534823
 10
0.6762347827
 20
4.3609327683
 10
0.6569227242
 20
4.1855170881
 10
0.6298545588
 20
4.0154349123
 10
0.5951085487
 20
3.8510577704
 10
0.5529194806
 20
3.6935002511
 10
0.503236699
 20
3.5428088809
 10
0.4461108593
 20
3.3989371333
 10
0.3819287146
 20
3.2628600164
 10
0.3106423279
 20
3.1346306228
 10
0.2322996362
 20
3.01419586
 10
0.1474312033
 20
2.9023714585
 10
0.0559928415
 20
2.7992159977
 10
-0.0419712615
 20
2.7046708984
 10
-0.1457979793
 20
2.619376153
 10
-0.2555270701
 20
2.5433944804
 10
-0.3711187756
 20
2.4766631617
 10
-0.4917906946
 20
2.4196340329
 10
-0.6175773746
 20
2.3723728845
 10
-0.748444268
 20
2.334813926
 10
-0.8835053306
 20
2.3072116216
 10
-1.0227890508
 20
2.2896335608
 10
-1.1662669402
 20
2.2820121541
 10
-1.3129674891
 20
2.2843990969
 10
-1.4629125472
 20
2.2968623238
 10
-1.6160802647
 20
2.3193339001
 10
-1.7714335834
 20
2.3516617176
 10
-1.9289873304
 20
2.3939126639
 10
-2.0887266786
 20
2.4460198513
 10
-2.2495700886
 20
2.5076305085
 10
-2.411525069
 20
2.5788091391
 10
-2.5745841112
 20
2.6594912396
 10
-2.7376431505
 20
2.7491305277
 10
-2.9007021849
 20
2.8477877962
 10
-3.0637612165
 20
2.9554022523
 10
-3.2257161863
 20
3.0712452352
 10
-3.3865595878
 20
3.1953725791
 10
-3.5462989276
 20
3.3277284497
 10
-3.7038526654
 20
3.4674166843
 10
-3.859205975
 20
3.6144870495
 10
-4.0123736827
 20
3.7688897786
 10
-4.1623187279
 20
3.9295794087
 10
-4.3090192627
 20
4.0965986467
 10
-4.4524971351
 20
4.2699047858
 10
-4.5917808273
 20
4.4483242426
 10
-4.7268418434
 20
4.6318916979
 10
-4.8577086794
 20
4.8205724709
 10
-4.983495306
 20
5.013088936
 10
-5.1041671783
 20
5.209466988
 10
-5.2197588414
 20
5.4096807321
 10
-5.3294879011
 20
5.6123748582
 10
-5.4333146088
 20
5.8175661941
 10
-5.5312787132
 20
6.0252379121
 10
-5.6227170659
 20
6.2339842187
 10
-5.7075854752
 20
6.4438126709
 10
-5.7859281329
 20
6.6547157116
 10
-5.8572144658
 20
6.8652648759
 10
-5.9213965275
 20
7.0754578816
 10
-5.9785222644
 20
7.2852970108
 10
-6.0282049424
 20
7.4933606455
 10
-6.0703939053
 20
7.6996368033
 10
-6.1051398093
 20
7.9041374665
 10
-6.1322078886
 20
8.1054769635
 10
-6.1515198878
 20
8.3031934038
 10
-6.1631540623
 20
8.4977486778
 10
-6.167110412
 20
8.6891427856
  0
LINE
  5
294
100
AcDbEntity
  8
0
100
AcDbLine
 62
7
  6
CONTINUOUS
 10
0.6865513598
 20
4.9423081575
 11
0.6778993156
 21
4.80761249
  0
LINE
  5
295
100
AcDbEntity
  8
ASSI
100
AcDbLine
 62
7
  6
CONTINUOUS
 10
0.6865513598
 20
4.9423081575
 11
0.6778993156
 21
4.80761249
  0
LWPOLYLINE
  5
296
100
AcDbEntity
  8
0
100
AcDbPolyline
 62
7
  6
CONTINUOUS
 90
16
 70
0
 10
0.6778993156
 20
4.80761249
 10
0.6605209056
 20
4.649808181
 10
0.6362457234
 20
4.4971282285
 10
0.6051285113
 20
4.3499190405
 10
0.5672397542
 20
4.2085152113
 10
0.5226651715
 20
4.0732372597
 10
0.471505581
 20
3.94439167
 10
0.4138770293
 20
3.8222710138
 10
0.3499100696
 20
3.7071520535
 10
0.2797495321
 20
3.5992955315
 10
0.2035545288
 20
3.4989460855
 10
0.1214977884
 20
3.4063311429
 10
0.033765112
 20
3.3216603582
 10
-0.0594448635
 20
3.2451254366
 10
-0.1579209911
 20
3.1768997738
 10
-0.208984036
 20
3.1459984777
  0
LWPOLYLINE
  5
297
100
AcDbEntity
  8
ASSI
100
AcDbPolyline
 62
7
  6
CONTINUOUS
 90
16
 70
0
 10
0.6778993156
 20
4.80761249
 10
0.6605209056
 20
4.649808181
 10
0.6362457234
 20
4.4971282285
 10
0.6051285113
 20
4.3499190405
 10
0.5672397542
 20
4.2085152113
 10
0.5226651715
 20
4.0732372597
 10
0.471505581
 20
3.94439167
 10
0.4138770293
 20
3.8222710138
 10
0.3499100696
 20
3.7071520535
 10
0.2797495321
 20
3.5992955315
 10
0.2035545288
 20
3.4989460855
 10
0.1214977884
 20
3.4063311429
 10
0.033765112
 20
3.3216603582
 10
-0.0594448635
 20
3.2451254366
 10
-0.1579209911
 20
3.1768997738
 10
-0.208984036
 20
3.1459984777
  0
LWPOLYLINE
  5
298
100
AcDbEntity
  8
0
100
AcDbPolyline
 62
7
  6
CONTINUOUS
 90
13
 70
0
 10
-4.0065695032
 20
-5.8713651966
 10
-4.0578838757
 20
-5.9389754368
 10
-4.1281512229
 20
-6.0469918474
 10
-4.1920898815
 20
-6.1619995892
 10
-4.2496569067
 20
-6.2840461032
 10
-4.3008952432
 20
-6.4130839484
 10
-4.3454579874
 20
-6.5482394881
 10
-4.3832998407
 20
-6.6895542351
 10
-4.4144661017
 20
-6.8369866765
 10
-4.4387457626
 20
-6.989538637
 10
-4.4560684875
 20
-7.1468773916
 10
-4.4665046124
 20
-7.3093356652
 10
-4.4700541371
 20
-7.476913458
  0
LWPOLYLINE
  5
299
100
AcDbEntity
  8
ASSI
100
AcDbPolyline
 62
7
  6
CONTINUOUS
 90
13
 70
0
 10
-4.0065695032
 20
-5.8713651966
 10
-4.0578838757
 20
-5.9389754368
 10
-4.1281512229
 20
-6.0469918474
 10
-4.1920898815
 20
-6.1619995892
 10
-4.2496569067
 20
-6.2840461032
 10
-4.3008952432
 20
-6.4130839484
 10
-4.3454579874
 20
-6.5482394881
 10
-4.3832998407
 20
-6.6895542351
 10
-4.4144661017
 20
-6.8369866765
 10
-4.4387457626
 20
-6.989538637
 10
-4.4560684875
 20
-7.1468773916
 10
-4.4665046124
 20
-7.3093356652
 10
-4.4700541371
 20
-7.476913458
  0
LWPOLYLINE
  5
29A
100
AcDbEntity
  8
0
100
AcDbPolyline
 62
7
  6
CONTINUOUS
 90
51
 70
0
 10
-16.1188866127
 20
-4.4054638467
 10
-16.1713427802
 20
-4.4343243891
 10
-16.2796707322
 20
-4.4854870709
 10
-16.392562124
 20
-4.5279346668
 10
-16.5097611755
 20
-4.5615709306
 10
-16.6310023479
 20
-4.5863196001
 10
-16.7560110178
 20
-4.6021245726
 10
-16.8845039935
 20
-4.6089500006
 10
-17.0161900831
 20
-4.6067803883
 10
-17.1507709392
 20
-4.5956206392
 10
-17.2879417184
 20
-4.5754960197
 10
-17.4273916521
 20
-4.5464521113
 10
-17.5688048269
 20
-4.5085547019
 10
-17.7118608936
 20
-4.4618896331
 10
-17.8562357652
 20
-4.406562614
 10
-18.0016023877
 20
-4.342698969
 10
-18.1476314359
 20
-4.2704433711
 10
-18.29399205
 20
-4.1899595271
 10
-18.440352664
 20
-4.1014297652
 10
-18.5863817116
 20
-4.0050546413
 10
-18.7317483334
 20
-3.901052517
 10
-18.876123204
 20
-3.7896590156
 10
-19.0191792695
 20
-3.6711264863
 10
-19.1605924437
 20
-3.5457234668
 10
-19.3000423785
 20
-3.413734045
 10
-19.4372131592
 20
-3.275457243
 10
-19.5717940134
 20
-3.1312063507
 10
-19.7034800971
 20
-2.9813081284
 10
-19.8319730637
 20
-2.8261021962
 10
-19.956981721
 20
-2.6659403119
 10
-20.0782228752
 20
-2.5011853488
 10
-20.1954219054
 20
-2.3322105355
 10
-20.308313279
 20
-2.1593987622
 10
-20.4166412157
 20
-1.9831416431
 10
-20.5201604147
 20
-1.8038383732
 10
-20.6186365351
 20
-1.6218948918
 10
-20.711846513
 20
-1.4377233465
 10
-20.7995791943
 20
-1.2517409698
 10
-20.8816359318
 20
-1.0643688682
 10
-20.9578309261
 20
-0.8760312513
 10
-21.0279914469
 20
-0.6871550138
 10
-21.0919583723
 20
-0.4981685641
 10
-21.1495868737
 20
-0.3094998966
 10
-21.2007464036
 20
-0.1215765275
 10
-21.2453209159
 20
0.0651749498
 10
-21.2832095968
 20
0.2503316241
 10
-21.3143267344
 20
0.4334739991
 10
-21.33860185
 20
0.6141860948
 10
-21.3559802064
 20
0.7920582929
 10
-21.366422782
 20
0.9666882157
 10
-21.3699062075
 20
1.1376804612
  0
LWPOLYLINE
  5
29B
100
AcDbEntity
  8
ASSI
100
AcDbPolyline
 62
7
  6
CONTINUOUS
 90
51
 70
0
 10
-16.1188866127
 20
-4.4054638467
 10
-16.1713427802
 20
-4.4343243891
 10
-16.2796707322
 20
-4.4854870709
 10
-16.392562124
 20
-4.5279346668
 10
-16.5097611755
 20
-4.5615709306
 10
-16.6310023479
 20
-4.5863196001
 10
-16.7560110178
 20
-4.6021245726
 10
-16.8845039935
 20
-4.6089500006
 10
-17.0161900831
 20
-4.6067803883
 10
-17.1507709392
 20
-4.5956206392
 10
-17.2879417184
 20
-4.5754960197
 10
-17.4273916521
 20
-4.5464521113
 10
-17.5688048269
 20
-4.5085547019
 10
-17.7118608936
 20
-4.4618896331
 10
-17.8562357652
 20
-4.406562614
 10
-18.0016023877
 20
-4.342698969
 10
-18.1476314359
 20
-4.2704433711
 10
-18.29399205
 20
-4.1899595271
 10
-18.440352664
 20
-4.1014297652
 10
-18.5863817116
 20
-4.0050546413
 10
-18.7317483334
 20
-3.901052517
 10
-18.876123204
 20
-3.7896590156
 10
-19.0191792695
 20
-3.6711264863
 10
-19.1605924437
 20
-3.5457234668
 10
-19.3000423785
 20
-3.413734045
 10
-19.4372131592
 20
-3.275457243
 10
-19.5717940134
 20
-3.1312063507
 10
-19.7034800971
 20
-2.9813081284
 10
-19.8319730637
 20
-2.8261021962
 10
-19.956981721
 20
-2.6659403119
 10
-20.0782228752
 20
-2.5011853488
 10
-20.1954219054
 20
-2.3322105355
 10
-20.308313279
 20
-2.1593987622
 10
-20.4166412157
 20
-1.9831416431
 10
-20.5201604147
 20
-1.8038383732
 10
-20.6186365351
 20
-1.6218948918
 10
-20.711846513
 20
-1.4377233465
 10
-20.7995791943
 20
-1.2517409698
 10
-20.8816359318
 20
-1.0643688682
 10
-20.9578309261
 20
-0.8760312513
 10
-21.0279914469
 20
-0.6871550138
 10
-21.0919583723
 20
-0.4981685641
 10
-21.1495868737
 20
-0.3094998966
 10
-21.2007464036
 20
-0.1215765275
 10
-21.2453209159
 20
0.0651749498
 10
-21.2832095968
 20
0.2503316241
 10
-21.3143267344
 20
0.4334739991
 10
-21.33860185
 20
0.6141860948
 10
-21.3559802064
 20
0.7920582929
 10
-21.366422782
 20
0.9666882157
 10
-21.3699062075
 20
1.1376804612
  0
LWPOLYLINE
  5
29C
100
AcDbEntity
  8
0
100
AcDbPolyline
 62
7
  6
CONTINUOUS
 90
51
 70
0
 10
-0.208984036
 20
3.1459984777
 10
-0.2614402035
 20
3.1171379352
 10
-0.3697681555
 20
3.0659752535
 10
-0.4826595473
 20
3.0235276576
 10
-0.5998585988
 20
2.9898913938
 10
-0.7210997712
 20
2.9651427243
 10
-0.8461084411
 20
2.9493377518
 10
-0.9746014168
 20
2.9425123238
 10
-1.1062875064
 20
2.9446819361
 10
-1.2408683625
 20
2.9558416852
 10
-1.3780391417
 20
2.9759663047
 10
-1.5174890754
 20
3.005010213
 10
-1.6589022502
 20
3.0429076225
 10
-1.8019583169
 20
3.0895726913
 10
-1.9463331885
 20
3.1448997104
 10
-2.091699811
 20
3.2087633554
 10
-2.2377288592
 20
3.2810189533
 10
-2.3840894733
 20
3.3615027973
 10
-2.5304500873
 20
3.4500325592
 10
-2.6764791349
 20
3.5464076831
 10
-2.8218457567
 20
3.6504098073
 10
-2.9662206273
 20
3.7618033088
 10
-3.1092766928
 20
3.880335838
 10
-3.250689867
 20
4.0057388576
 10
-3.3901398018
 20
4.1377282794
 10
-3.5273105825
 20
4.2760050814
 10
-3.6618914367
 20
4.4202559736
 10
-3.7935775204
 20
4.5701541959
 10
-3.922070487
 20
4.7253601282
 10
-4.0470791443
 20
4.8855220125
 10
-4.1683202985
 20
5.0502769756
 10
-4.2855193287
 20
5.2192517889
 10
-4.3984107023
 20
5.3920635622
 10
-4.506738639
 20
5.5683206813
 10
-4.610257838
 20
5.7476239512
 10
-4.7087339584
 20
5.9295674326
 10
-4.8019439363
 20
6.1137389779
 10
-4.8896766176
 20
6.2997213546
 10
-4.9717333551
 20
6.4870934562
 10
-5.0479283494
 20
6.675431073
 10
-5.1180888702
 20
6.8643073105
 10
-5.1820557956
 20
7.0532937603
 10
-5.239684297
 20
7.2419624278
 10
-5.290843827
 20
7.4298857969
 10
-5.3354183392
 20
7.6166372742
 10
-5.3733070201
 20
7.8017939484
 10
-5.4044241577
 20
7.9849363235
 10
-5.4286992733
 20
8.1656484192
 10
-5.4460776297
 20
8.3435206173
 10
-5.4565202053
 20
8.5181505401
 10
-5.4600036308
 20
8.6891427856
  0
LWPOLYLINE
  5
29D
100
AcDbEntity
  8
ASSI
100
AcDbPolyline
 62
7
  6
CONTINUOUS
 90
51
 70
0
 10
-0.208984036
 20
3.1459984777
 10
-0.2614402035
 20
3.1171379352
 10
-0.3697681555
 20
3.0659752535
 10
-0.4826595473
 20
3.0235276576
 10
-0.5998585988
 20
2.9898913938
 10
-0.7210997712
 20
2.9651427243
 10
-0.8461084411
 20
2.9493377518
 10
-0.9746014168
 20
2.9425123238
 10
-1.1062875064
 20
2.9446819361
 10
-1.2408683625
 20
2.9558416852
 10
-1.3780391417
 20
2.9759663047
 10
-1.5174890754
 20
3.005010213
 10
-1.6589022502
 20
3.0429076225
 10
-1.8019583169
 20
3.0895726913
 10
-1.9463331885
 20
3.1448997104
 10
-2.091699811
 20
3.2087633554
 10
-2.2377288592
 20
3.2810189533
 10
-2.3840894733
 20
3.3615027973
 10
-2.5304500873
 20
3.4500325592
 10
-2.6764791349
 20
3.5464076831
 10
-2.8218457567
 20
3.6504098073
 10
-2.9662206273
 20
3.7618033088
 10
-3.1092766928
 20
3.880335838
 10
-3.250689867
 20
4.0057388576
 10
-3.3901398018
 20
4.1377282794
 10
-3.5273105825
 20
4.2760050814
 10
-3.6618914367
 20
4.4202559736
 10
-3.7935775204
 20
4.5701541959
 10
-3.922070487
 20
4.7253601282
 10
-4.0470791443
 20
4.8855220125
 10
-4.1683202985
 20
5.0502769756
 10
-4.2855193287
 20
5.2192517889
 10
-4.3984107023
 20
5.3920635622
 10
-4.506738639
 20
5.5683206813
 10
-4.610257838
 20
5.7476239512
 10
-4.7087339584
 20
5.9295674326
 10
-4.8019439363
 20
6.1137389779
 10
-4.8896766176
 20
6.2997213546
 10
-4.9717333551
 20
6.4870934562
 10
-5.0479283494
 20
6.675431073
 10
-5.1180888702
 20
6.8643073105
 10
-5.1820557956
 20
7.0532937603
 10
-5.239684297
 20
7.2419624278
 10
-5.290843827
 20
7.4298857969
 10
-5.3354183392
 20
7.6166372742
 10
-5.3733070201
 20
7.8017939484
 10
-5.4044241577
 20
7.9849363235
 10
-5.4286992733
 20
8.1656484192
 10
-5.4460776297
 20
8.3435206173
 10
-5.4565202053
 20
8.5181505401
 10
-5.4600036308
 20
8.6891427856
  0
LINE
  5
29E
100
AcDbEntity
  8
0
100
AcDbLine
 62
7
  6
CONTINUOUS
 10
39.5270270784
 20
9.3529169433
 11
40.9439862093
 21
9.7005352194
  0
LINE
  5
29F
100
AcDbEntity
  8
ASSI
100
AcDbLine
 62
7
  6
CONTINUOUS
 10
39.5270270784
 20
9.3529169433
 11
40.9439862093
 21
9.7005352194
  0
LWPOLYLINE
  5
2A0
100
AcDbEntity
  8
0
100
AcDbPolyline
 62
7
  6
CONTINUOUS
 90
67
 70
0
 10
0.6918253656
 20
-12.0087614439
 10
0.6878689965
 20
-12.1955871919
 10
0.6762347827
 20
-12.376707906
 10
0.6569227242
 20
-12.5521235862
 10
0.6298545588
 20
-12.7222057619
 10
0.5951085487
 20
-12.8865829038
 10
0.5529194806
 20
-13.0441404232
 10
0.503236699
 20
-13.1948317933
 10
0.4461108593
 20
-13.3387035409
 10
0.3819287146
 20
-13.4747806578
 10
0.3106423279
 20
-13.6030100514
 10
0.2322996362
 20
-13.7234448143
 10
0.1474312033
 20
-13.8352692158
 10
0.0559928415
 20
-13.9384246765
 10
-0.0419712615
 20
-14.0329697759
 10
-0.1457979793
 20
-14.1182645213
 10
-0.2555270701
 20
-14.1942461939
 10
-0.3711187756
 20
-14.2609775125
 10
-0.4917906946
 20
-14.3180066413
 10
-0.6175773746
 20
-14.3652677897
 10
-0.748444268
 20
-14.4028267482
 10
-0.8835053306
 20
-14.4304290527
 10
-1.0227890508
 20
-14.4480071134
 10
-1.1662669402
 20
-14.4556285201
 10
-1.3129674891
 20
-14.4532415773
 10
-1.4629125472
 20
-14.4407783505
 10
-1.6160802647
 20
-14.4183067741
 10
-1.7714335834
 20
-14.3859789566
 10
-1.9289873304
 20
-14.3437280104
 10
-2.0887266786
 20
-14.291620823
 10
-2.2495700886
 20
-14.2300101658
 10
-2.411525069
 20
-14.1588315351
 10
-2.5745841112
 20
-14.0781494346
 10
-2.7376431505
 20
-13.9885101466
 10
-2.9007021849
 20
-13.8898528781
 10
-3.0637612165
 20
-13.782238422
 10
-3.2257161863
 20
-13.666395439
 10
-3.3865595878
 20
-13.5422680952
 10
-3.5462989276
 20
-13.4099122245
 10
-3.7038526654
 20
-13.2702239899
 10
-3.859205975
 20
-13.1231536248
 10
-4.0123736827
 20
-12.9687508957
 10
-4.1623187279
 20
-12.8080612655
 10
-4.3090192627
 20
-12.6410420275
 10
-4.4524971351
 20
-12.4677358884
 10
-4.5917808273
 20
-12.2893164316
 10
-4.7268418434
 20
-12.1057489763
 10
-4.8577086794
 20
-11.9170682033
 10
-4.983495306
 20
-11.7245517383
 10
-5.1041671783
 20
-11.5281736863
 10
-5.2197588414
 20
-11.3279599422
 10
-5.3294879011
 20
-11.1252658161
 10
-5.4333146088
 20
-10.9200744801
 10
-5.5312787132
 20
-10.7124027621
 10
-5.6227170659
 20
-10.5036564556
 10
-5.7075854752
 20
-10.2938280034
 10
-5.7859281329
 20
-10.0829249627
 10
-5.8572144658
 20
-9.8723757984
 10
-5.9213965275
 20
-9.6621827927
 10
-5.9785222644
 20
-9.4523436634
 10
-6.0282049424
 20
-9.2442800288
 10
-6.0703939053
 20
-9.0380038709
 10
-6.1051398093
 20
-8.8335032077
 10
-6.1322078886
 20
-8.6321637107
 10
-6.1515198878
 20
-8.4344472705
 10
-6.1631540623
 20
-8.2398919965
 10
-6.167110412
 20
-8.0484978886
  0
LWPOLYLINE
  5
2A1
100
AcDbEntity
  8
ASSI
100
AcDbPolyline
 62
7
  6
CONTINUOUS
 90
67
 70
0
 10
0.6918253656
 20
-12.0087614439
 10
0.6878689965
 20
-12.1955871919
 10
0.6762347827
 20
-12.376707906
 10
0.6569227242
 20
-12.5521235862
 10
0.6298545588
 20
-12.7222057619
 10
0.5951085487
 20
-12.8865829038
 10
0.5529194806
 20
-13.0441404232
 10
0.503236699
 20
-13.1948317933
 10
0.4461108593
 20
-13.3387035409
 10
0.3819287146
 20
-13.4747806578
 10
0.3106423279
 20
-13.6030100514
 10
0.2322996362
 20
-13.7234448143
 10
0.1474312033
 20
-13.8352692158
 10
0.0559928415
 20
-13.9384246765
 10
-0.0419712615
 20
-14.0329697759
 10
-0.1457979793
 20
-14.1182645213
 10
-0.2555270701
 20
-14.1942461939
 10
-0.3711187756
 20
-14.2609775125
 10
-0.4917906946
 20
-14.3180066413
 10
-0.6175773746
 20
-14.3652677897
 10
-0.748444268
 20
-14.4028267482
 10
-0.8835053306
 20
-14.4304290527
 10
-1.0227890508
 20
-14.4480071134
 10
-1.1662669402
 20
-14.4556285201
 10
-1.3129674891
 20
-14.4532415773
 10
-1.4629125472
 20
-14.4407783505
 10
-1.6160802647
 20
-14.4183067741
 10
-1.7714335834
 20
-14.3859789566
 10
-1.9289873304
 20
-14.3437280104
 10
-2.0887266786
 20
-14.291620823
 10
-2.2495700886
 20
-14.2300101658
 10
-2.411525069
 20
-14.1588315351
 10
-2.5745841112
 20
-14.0781494346
 10
-2.7376431505
 20
-13.9885101466
 10
-2.9007021849
 20
-13.8898528781
 10
-3.0637612165
 20
-13.782238422
 10
-3.2257161863
 20
-13.666395439
 10
-3.3865595878
 20
-13.5422680952
 10
-3.5462989276
 20
-13.4099122245
 10
-3.7038526654
 20
-13.2702239899
 10
-3.859205975
 20
-13.1231536248
 10
-4.0123736827
 20
-12.9687508957
 10
-4.1623187279
 20
-12.8080612655
 10
-4.3090192627
 20
-12.6410420275
 10
-4.4524971351
 20
-12.4677358884
 10
-4.5917808273
 20
-12.2893164316
 10
-4.7268418434
 20
-12.1057489763
 10
-4.8577086794
 20
-11.9170682033
 10
-4.983495306
 20
-11.7245517383
 10
-5.1041671783
 20
-11.5281736863
 10
-5.2197588414
 20
-11.3279599422
 10
-5.3294879011
 20
-11.1252658161
 10
-5.4333146088
 20
-10.9200744801
 10
-5.5312787132
 20
-10.7124027621
 10
-5.6227170659
 20
-10.5036564556
 10
-5.7075854752
 20
-10.2938280034
 10
-5.7859281329
 20
-10.0829249627
 10
-5.8572144658
 20
-9.8723757984
 10
-5.9213965275
 20
-9.6621827927
 10
-5.9785222644
 20
-9.4523436634
 10
-6.0282049424
 20
-9.2442800288
 10
-6.0703939053
 20
-9.0380038709
 10
-6.1051398093
 20
-8.8335032077
 10
-6.1322078886
 20
-8.6321637107
 10
-6.1515198878
 20
-8.4344472705
 10
-6.1631540623
 20
-8.2398919965
 10
-6.167110412
 20
-8.0484978886
  0
LINE
  5
2A2
100
AcDbEntity
  8
0
100
AcDbLine
 62
7
  6
CONTINUOUS
 10
0.6865513598
 20
-11.7953325167
 11
0.6778993156
 21
-11.9300281843
  0
LINE
  5
2A3
100
AcDbEntity
  8
ASSI
100
AcDbLine
 62
7
  6
CONTINUOUS
 10
0.6865513598
 20
-11.7953325167
 11
0.6778993156
 21
-11.9300281843
  0
LWPOLYLINE
  5
2A4
100
AcDbEntity
  8
0
100
AcDbPolyline
 62
7
  6
CONTINUOUS
 90
16
 70
0
 10
0.6778993156
 20
-11.9300281843
 10
0.6605209056
 20
-12.0878324933
 10
0.6362457234
 20
-12.2405124458
 10
0.6051285113
 20
-12.3877216338
 10
0.5672397542
 20
-12.5291254629
 10
0.5226651715
 20
-12.6644034145
 10
0.471505581
 20
-12.7932490042
 10
0.4138770293
 20
-12.9153696604
 10
0.3499100696
 20
-13.0304886207
 10
0.2797495321
 20
-13.1383451427
 10
0.2035545288
 20
-13.2386945888
 10
0.1214977884
 20
-13.3313095314
 10
0.033765112
 20
-13.4159803161
 10
-0.0594448635
 20
-13.4925152377
 10
-0.1579209911
 20
-13.5607409005
 10
-0.208984036
 20
-13.5916421966
  0
LWPOLYLINE
  5
2A5
100
AcDbEntity
  8
ASSI
100
AcDbPolyline
 62
7
  6
CONTINUOUS
 90
16
 70
0
 10
0.6778993156
 20
-11.9300281843
 10
0.6605209056
 20
-12.0878324933
 10
0.6362457234
 20
-12.2405124458
 10
0.6051285113
 20
-12.3877216338
 10
0.5672397542
 20
-12.5291254629
 10
0.5226651715
 20
-12.6644034145
 10
0.471505581
 20
-12.7932490042
 10
0.4138770293
 20
-12.9153696604
 10
0.3499100696
 20
-13.0304886207
 10
0.2797495321
 20
-13.1383451427
 10
0.2035545288
 20
-13.2386945888
 10
0.1214977884
 20
-13.3313095314
 10
0.033765112
 20
-13.4159803161
 10
-0.0594448635
 20
-13.4925152377
 10
-0.1579209911
 20
-13.5607409005
 10
-0.208984036
 20
-13.5916421966
  0
LWPOLYLINE
  5
2A6
100
AcDbEntity
  8
0
100
AcDbPolyline
 62
7
  6
CONTINUOUS
 90
16
 70
0
 10
-4.5591942292
 20
-6.0573425427
 10
-4.5067380617
 20
-6.0284820002
 10
-4.3984101097
 20
-5.9773193185
 10
-4.2855187179
 20
-5.9348717225
 10
-4.1683196665
 20
-5.9012354588
 10
-4.047078494
 20
-5.8764867892
 10
-3.9220698241
 20
-5.8606818168
 10
-3.7935768484
 20
-5.8538563888
 10
-3.6618907588
 20
-5.8560260011
 10
-3.5273099028
 20
-5.8671857502
 10
-3.3901391235
 20
-5.8873103696
 10
-3.2506891898
 20
-5.916354278
 10
-3.109276015
 20
-5.9542516875
 10
-2.9662199483
 20
-6.0009167563
 10
-2.8218450767
 20
-6.0562437753
 10
-2.6764784542
 20
-6.1201074204
  0
LWPOLYLINE
  5
2A7
100
AcDbEntity
  8
ASSI
100
AcDbPolyline
 62
7
  6
CONTINUOUS
 90
16
 70
0
 10
-4.5591942292
 20
-6.0573425427
 10
-4.5067380617
 20
-6.0284820002
 10
-4.3984101097
 20
-5.9773193185
 10
-4.2855187179
 20
-5.9348717225
 10
-4.1683196665
 20
-5.9012354588
 10
-4.047078494
 20
-5.8764867892
 10
-3.9220698241
 20
-5.8606818168
 10
-3.7935768484
 20
-5.8538563888
 10
-3.6618907588
 20
-5.8560260011
 10
-3.5273099028
 20
-5.8671857502
 10
-3.3901391235
 20
-5.8873103696
 10
-3.2506891898
 20
-5.916354278
 10
-3.109276015
 20
-5.9542516875
 10
-2.9662199483
 20
-6.0009167563
 10
-2.8218450767
 20
-6.0562437753
 10
-2.6764784542
 20
-6.1201074204
  0
LWPOLYLINE
  5
2A8
100
AcDbEntity
  8
0
100
AcDbPolyline
 62
7
  6
CONTINUOUS
 90
16
 70
0
 10
11.3507083475
 20
1.4941197817
 10
11.403164515
 20
1.5229803242
 10
11.511492467
 20
1.5741430059
 10
11.6243838588
 20
1.6165906018
 10
11.7415829102
 20
1.6502268656
 10
11.8628240827
 20
1.6749755351
 10
11.9878327526
 20
1.6907805076
 10
12.1163257283
 20
1.6976059356
 10
12.2480118179
 20
1.6954363233
 10
12.3825926739
 20
1.6842765742
 10
12.5197634532
 20
1.6641519547
 10
12.6592133869
 20
1.6351080464
 10
12.8006265617
 20
1.5972106369
 10
12.9436826284
 20
1.5505455681
 10
13.0880575
 20
1.495218549
 10
13.2334241225
 20
1.431354904
  0
LWPOLYLINE
  5
2A9
100
AcDbEntity
  8
ASSI
100
AcDbPolyline
 62
7
  6
CONTINUOUS
 90
16
 70
0
 10
11.3507083475
 20
1.4941197817
 10
11.403164515
 20
1.5229803242
 10
11.511492467
 20
1.5741430059
 10
11.6243838588
 20
1.6165906018
 10
11.7415829102
 20
1.6502268656
 10
11.8628240827
 20
1.6749755351
 10
11.9878327526
 20
1.6907805076
 10
12.1163257283
 20
1.6976059356
 10
12.2480118179
 20
1.6954363233
 10
12.3825926739
 20
1.6842765742
 10
12.5197634532
 20
1.6641519547
 10
12.6592133869
 20
1.6351080464
 10
12.8006265617
 20
1.5972106369
 10
12.9436826284
 20
1.5505455681
 10
13.0880575
 20
1.495218549
 10
13.2334241225
 20
1.431354904
  0
LINE
  5
2AA
100
AcDbEntity
  8
0
100
AcDbLine
 62
7
  6
CONTINUOUS
 10
40.2575878617
 20
-62.2511373164
 11
40.2579502919
 21
-62.251778754
  0
LINE
  5
2AB
100
AcDbEntity
  8
ASSI
100
AcDbLine
 62
7
  6
CONTINUOUS
 10
40.2575878617
 20
-62.2511373164
 11
40.2579502919
 21
-62.251778754
  0
LWPOLYLINE
  5
2AC
100
AcDbEntity
  8
0
100
AcDbPolyline
 62
7
  6
CONTINUOUS
 90
18
 70
0
 10
10.4498989459
 20
-0.4970355643
 10
10.4533823844
 20
-0.3300655828
 10
10.4638249959
 20
-0.1674942306
 10
10.4812034058
 20
-0.0096899215
 10
10.5054785881
 20
0.1429900309
 10
10.5365958002
 20
0.2901992189
 10
10.5744845573
 20
0.4316030481
 10
10.6190591399
 20
0.5668809997
 10
10.6702187305
 20
0.6957265894
 10
10.7278472822
 20
0.8178472456
 10
10.7918142419
 20
0.9329662059
 10
10.8619747794
 20
1.0408227279
 10
10.9381697827
 20
1.1411721739
 10
11.020226523
 20
1.2337871165
 10
11.1079591995
 20
1.3184579012
 10
11.201169175
 20
1.3949928228
 10
11.2996453025
 20
1.4632184856
 10
11.3507083475
 20
1.4941197817
  0
LWPOLYLINE
  5
2AD
100
AcDbEntity
  8
ASSI
100
AcDbPolyline
 62
7
  6
CONTINUOUS
 90
18
 70
0
 10
10.4498989459
 20
-0.4970355643
 10
10.4533823844
 20
-0.3300655828
 10
10.4638249959
 20
-0.1674942306
 10
10.4812034058
 20
-0.0096899215
 10
10.5054785881
 20
0.1429900309
 10
10.5365958002
 20
0.2901992189
 10
10.5744845573
 20
0.4316030481
 10
10.6190591399
 20
0.5668809997
 10
10.6702187305
 20
0.6957265894
 10
10.7278472822
 20
0.8178472456
 10
10.7918142419
 20
0.9329662059
 10
10.8619747794
 20
1.0408227279
 10
10.9381697827
 20
1.1411721739
 10
11.020226523
 20
1.2337871165
 10
11.1079591995
 20
1.3184579012
 10
11.201169175
 20
1.3949928228
 10
11.2996453025
 20
1.4632184856
 10
11.3507083475
 20
1.4941197817
  0
LWPOLYLINE
  5
2AE
100
AcDbEntity
  8
0
100
AcDbPolyline
 62
7
  6
CONTINUOUS
 90
18
 70
0
 10
10.4498989459
 20
-17.2346762385
 10
10.4533823844
 20
-17.0677062571
 10
10.4638249959
 20
-16.9051349048
 10
10.4812034058
 20
-16.7473305958
 10
10.5054785881
 20
-16.5946506433
 10
10.5365958002
 20
-16.4474414553
 10
10.5744845573
 20
-16.3060376262
 10
10.6190591399
 20
-16.1707596746
 10
10.6702187305
 20
-16.0419140849
 10
10.7278472822
 20
-15.9197934287
 10
10.7918142419
 20
-15.8046744684
 10
10.8619747794
 20
-15.6968179464
 10
10.9381697827
 20
-15.5964685003
 10
11.020226523
 20
-15.5038535577
 10
11.1079591995
 20
-15.419182773
 10
11.201169175
 20
-15.3426478514
 10
11.2996453025
 20
-15.2744221886
 10
11.3507083475
 20
-15.2435208925
  0
LWPOLYLINE
  5
2AF
100
AcDbEntity
  8
ASSI
100
AcDbPolyline
 62
7
  6
CONTINUOUS
 90
18
 70
0
 10
10.4498989459
 20
-17.2346762385
 10
10.4533823844
 20
-17.0677062571
 10
10.4638249959
 20
-16.9051349048
 10
10.4812034058
 20
-16.7473305958
 10
10.5054785881
 20
-16.5946506433
 10
10.5365958002
 20
-16.4474414553
 10
10.5744845573
 20
-16.3060376262
 10
10.6190591399
 20
-16.1707596746
 10
10.6702187305
 20
-16.0419140849
 10
10.7278472822
 20
-15.9197934287
 10
10.7918142419
 20
-15.8046744684
 10
10.8619747794
 20
-15.6968179464
 10
10.9381697827
 20
-15.5964685003
 10
11.020226523
 20
-15.5038535577
 10
11.1079591995
 20
-15.419182773
 10
11.201169175
 20
-15.3426478514
 10
11.2996453025
 20
-15.2744221886
 10
11.3507083475
 20
-15.2435208925
  0
LWPOLYLINE
  5
2B0
100
AcDbEntity
  8
0
100
AcDbPolyline
 62
7
  6
CONTINUOUS
 90
34
 70
0
 10
9.7427921647
 20
-0.4970355643
 10
9.7467485338
 20
-0.3102098163
 10
9.7583827476
 20
-0.1290891022
 10
9.7776948061
 20
0.046326578
 10
9.8047629715
 20
0.2164087538
 10
9.8395089816
 20
0.3807858956
 10
9.8816980497
 20
0.538343415
 10
9.9313808313
 20
0.6890347851
 10
9.988506671
 20
0.8329065328
 10
10.0526888157
 20
0.9689836497
 10
10.1239752024
 20
1.0972130433
 10
10.202317894
 20
1.2176478061
 10
10.287186327
 20
1.3294722076
 10
10.3786246888
 20
1.4326276683
 10
10.4765887918
 20
1.5271727677
 10
10.5804155096
 20
1.6124675131
 10
10.6901446004
 20
1.6884491857
 10
10.8057363059
 20
1.7551805044
 10
10.9264082249
 20
1.8122096332
 10
11.0521949049
 20
1.8594707815
 10
11.1830617983
 20
1.89702974
 10
11.3181228608
 20
1.9246320445
 10
11.4574065811
 20
1.9422101052
 10
11.6008844705
 20
1.9498315119
 10
11.7475850194
 20
1.9474445691
 10
11.8975300774
 20
1.9349813423
 10
12.050697795
 20
1.9125097659
 10
12.2060511137
 20
1.8801819485
 10
12.3636048607
 20
1.8379310022
 10
12.5233442089
 20
1.7858238148
 10
12.6841876189
 20
1.7242131576
 10
12.8461425992
 20
1.6530345269
 10
13.0092016414
 20
1.5723524264
 10
13.1719286198
 20
1.4829048474
  0
LWPOLYLINE
  5
2B1
100
AcDbEntity
  8
ASSI
100
AcDbPolyline
 62
7
  6
CONTINUOUS
 90
34
 70
0
 10
9.7427921647
 20
-0.4970355643
 10
9.7467485338
 20
-0.3102098163
 10
9.7583827476
 20
-0.1290891022
 10
9.7776948061
 20
0.046326578
 10
9.8047629715
 20
0.2164087538
 10
9.8395089816
 20
0.3807858956
 10
9.8816980497
 20
0.538343415
 10
9.9313808313
 20
0.6890347851
 10
9.988506671
 20
0.8329065328
 10
10.0526888157
 20
0.9689836497
 10
10.1239752024
 20
1.0972130433
 10
10.202317894
 20
1.2176478061
 10
10.287186327
 20
1.3294722076
 10
10.3786246888
 20
1.4326276683
 10
10.4765887918
 20
1.5271727677
 10
10.5804155096
 20
1.6124675131
 10
10.6901446004
 20
1.6884491857
 10
10.8057363059
 20
1.7551805044
 10
10.9264082249
 20
1.8122096332
 10
11.0521949049
 20
1.8594707815
 10
11.1830617983
 20
1.89702974
 10
11.3181228608
 20
1.9246320445
 10
11.4574065811
 20
1.9422101052
 10
11.6008844705
 20
1.9498315119
 10
11.7475850194
 20
1.9474445691
 10
11.8975300774
 20
1.9349813423
 10
12.050697795
 20
1.9125097659
 10
12.2060511137
 20
1.8801819485
 10
12.3636048607
 20
1.8379310022
 10
12.5233442089
 20
1.7858238148
 10
12.6841876189
 20
1.7242131576
 10
12.8461425992
 20
1.6530345269
 10
13.0092016414
 20
1.5723524264
 10
13.1719286198
 20
1.4829048474
  0
LWPOLYLINE
  5
2B2
100
AcDbEntity
  8
0
100
AcDbPolyline
 62
7
  6
CONTINUOUS
 90
34
 70
0
 10
9.7427921647
 20
-17.2346762385
 10
9.7467485338
 20
-17.0478504905
 10
9.7583827476
 20
-16.8667297764
 10
9.7776948061
 20
-16.6913140963
 10
9.8047629715
 20
-16.5212319205
 10
9.8395089816
 20
-16.3568547786
 10
9.8816980497
 20
-16.1992972592
 10
9.9313808313
 20
-16.0486058891
 10
9.988506671
 20
-15.9047341415
 10
10.0526888157
 20
-15.7686570246
 10
10.1239752024
 20
-15.640427631
 10
10.202317894
 20
-15.5199928681
 10
10.287186327
 20
-15.4081684666
 10
10.3786246888
 20
-15.3050130059
 10
10.4765887918
 20
-15.2104679066
 10
10.5804155096
 20
-15.1251731611
 10
10.6901446004
 20
-15.0491914885
 10
10.8057363059
 20
-14.9824601699
 10
10.9264082249
 20
-14.9254310411
 10
11.0521949049
 20
-14.8781698927
 10
11.1830617983
 20
-14.8406109342
 10
11.3181228608
 20
-14.8130086298
 10
11.4574065811
 20
-14.795430569
 10
11.6008844705
 20
-14.7878091623
 10
11.7475850194
 20
-14.7901961051
 10
11.8975300774
 20
-14.802659332
 10
12.050697795
 20
-14.8251309083
 10
12.2060511137
 20
-14.8574587258
 10
12.3636048607
 20
-14.899709672
 10
12.5233442089
 20
-14.9518168594
 10
12.6841876189
 20
-15.0134275167
 10
12.8461425992
 20
-15.0846061473
 10
13.0092016414
 20
-15.1652882478
 10
13.1719286198
 20
-15.2547358268
  0
LWPOLYLINE
  5
2B3
100
AcDbEntity
  8
ASSI
100
AcDbPolyline
 62
7
  6
CONTINUOUS
 90
34
 70
0
 10
9.7427921647
 20
-17.2346762385
 10
9.7467485338
 20
-17.0478504905
 10
9.7583827476
 20
-16.8667297764
 10
9.7776948061
 20
-16.6913140963
 10
9.8047629715
 20
-16.5212319205
 10
9.8395089816
 20
-16.3568547786
 10
9.8816980497
 20
-16.1992972592
 10
9.9313808313
 20
-16.0486058891
 10
9.988506671
 20
-15.9047341415
 10
10.0526888157
 20
-15.7686570246
 10
10.1239752024
 20
-15.640427631
 10
10.202317894
 20
-15.5199928681
 10
10.287186327
 20
-15.4081684666
 10
10.3786246888
 20
-15.3050130059
 10
10.4765887918
 20
-15.2104679066
 10
10.5804155096
 20
-15.1251731611
 10
10.6901446004
 20
-15.0491914885
 10
10.8057363059
 20
-14.9824601699
 10
10.9264082249
 20
-14.9254310411
 10
11.0521949049
 20
-14.8781698927
 10
11.1830617983
 20
-14.8406109342
 10
11.3181228608
 20
-14.8130086298
 10
11.4574065811
 20
-14.795430569
 10
11.6008844705
 20
-14.7878091623
 10
11.7475850194
 20
-14.7901961051
 10
11.8975300774
 20
-14.802659332
 10
12.050697795
 20
-14.8251309083
 10
12.2060511137
 20
-14.8574587258
 10
12.3636048607
 20
-14.899709672
 10
12.5233442089
 20
-14.9518168594
 10
12.6841876189
 20
-15.0134275167
 10
12.8461425992
 20
-15.0846061473
 10
13.0092016414
 20
-15.1652882478
 10
13.1719286198
 20
-15.2547358268
  0
LWPOLYLINE
  5
2B4
100
AcDbEntity
  8
0
100
AcDbPolyline
 62
7
  6
CONTINUOUS
 90
13
 70
0
 10
11.9033330735
 20
1.6800971278
 10
11.852018701
 20
1.6124868876
 10
11.7817513538
 20
1.504470477
 10
11.7178126952
 20
1.3894627352
 10
11.66024567
 20
1.2674162212
 10
11.6090073335
 20
1.138378376
 10
11.5644445893
 20
1.0032228363
 10
11.526602736
 20
0.8619080893
 10
11.495436475
 20
0.7144756479
 10
11.4711568141
 20
0.5619236873
 10
11.4538340892
 20
0.4045849328
 10
11.4433979643
 20
0.2421266592
 10
11.4398484396
 20
0.0745488664
  0
LWPOLYLINE
  5
2B5
100
AcDbEntity
  8
ASSI
100
AcDbPolyline
 62
7
  6
CONTINUOUS
 90
13
 70
0
 10
11.9033330735
 20
1.6800971278
 10
11.852018701
 20
1.6124868876
 10
11.7817513538
 20
1.504470477
 10
11.7178126952
 20
1.3894627352
 10
11.66024567
 20
1.2674162212
 10
11.6090073335
 20
1.138378376
 10
11.5644445893
 20
1.0032228363
 10
11.526602736
 20
0.8619080893
 10
11.495436475
 20
0.7144756479
 10
11.4711568141
 20
0.5619236873
 10
11.4538340892
 20
0.4045849328
 10
11.4433979643
 20
0.2421266592
 10
11.4398484396
 20
0.0745488664
  0
LINE
  5
2B6
100
AcDbEntity
  8
0
100
AcDbLine
 62
7
  6
CONTINUOUS
 10
40.2579502919
 20
10.9140307694
 11
44.3198832767
 21
13.2593246716
  0
LINE
  5
2B7
100
AcDbEntity
  8
ASSI
100
AcDbLine
 62
7
  6
CONTINUOUS
 10
40.2579502919
 20
10.9140307694
 11
44.3198832767
 21
13.2593246716
  0
LINE
  5
2B8
100
AcDbEntity
  8
0
100
AcDbLine
 62
7
  6
CONTINUOUS
 10
13.2334241225
 20
1.431354904
 11
13.3542045715
 21
1.3715923865
  0
LINE
  5
2B9
100
AcDbEntity
  8
ASSI
100
AcDbLine
 62
7
  6
CONTINUOUS
 10
13.2334241225
 20
1.431354904
 11
13.3542045715
 21
1.3715923865
  0
LINE
  5
2BA
100
AcDbEntity
  8
0
100
AcDbLine
 62
7
  6
CONTINUOUS
 10
-2.6764784542
 20
10.6175332538
 11
-2.5556980052
 21
10.5577707364
  0
LINE
  5
2BB
100
AcDbEntity
  8
ASSI
100
AcDbLine
 62
7
  6
CONTINUOUS
 10
-2.6764784542
 20
10.6175332538
 11
-2.5556980052
 21
10.5577707364
  0
LINE
  5
2BC
100
AcDbEntity
  8
0
100
AcDbLine
 62
7
  6
CONTINUOUS
 10
-18.5863810309
 20
19.8037116037
 11
-18.4656005819
 21
19.7439490862
  0
LINE
  5
2BD
100
AcDbEntity
  8
ASSI
100
AcDbLine
 62
7
  6
CONTINUOUS
 10
-18.5863810309
 20
19.8037116037
 11
-18.4656005819
 21
19.7439490862
  0
LWPOLYLINE
  5
2BE
100
AcDbEntity
  8
0
100
AcDbPolyline
 62
7
  6
CONTINUOUS
 90
34
 70
0
 10
-18.6478765336
 20
19.8552615472
 10
-18.4844854382
 20
19.7564125696
 10
-18.3214264066
 20
19.6487981135
 10
-18.1594714368
 20
19.5329551306
 10
-17.9986280353
 20
19.4088277868
 10
-17.8388886955
 20
19.2764719161
 10
-17.6813349577
 20
19.1367836815
 10
-17.5259816481
 20
18.9897133163
 10
-17.3728139404
 20
18.8353105873
 10
-17.2228688952
 20
18.6746209571
 10
-17.0761683604
 20
18.5076017191
 10
-16.932690488
 20
18.33429558
 10
-16.7934067958
 20
18.1558761232
 10
-16.6583457797
 20
17.9723086679
 10
-16.5274789438
 20
17.7836278949
 10
-16.4016923171
 20
17.5911114298
 10
-16.2810204448
 20
17.3947333778
 10
-16.1654287817
 20
17.1945196338
 10
-16.055699722
 20
16.9918255077
 10
-15.9518730143
 20
16.7866341717
 10
-15.8539089099
 20
16.5789624537
 10
-15.7624705572
 20
16.3702161472
 10
-15.6776021479
 20
16.160387695
 10
-15.5992594902
 20
15.9494846542
 10
-15.5279731573
 20
15.7389354899
 10
-15.4637910956
 20
15.5287424843
 10
-15.4066653587
 20
15.318903355
 10
-15.3569826807
 20
15.1108397203
 10
-15.3147937178
 20
14.9045635625
 10
-15.2800478138
 20
14.7000628993
 10
-15.2529797345
 20
14.4987234023
 10
-15.2336677353
 20
14.301006962
 10
-15.2220335609
 20
14.106451688
 10
-15.2180772111
 20
13.9150575802
  0
LWPOLYLINE
  5
2BF
100
AcDbEntity
  8
ASSI
100
AcDbPolyline
 62
7
  6
CONTINUOUS
 90
34
 70
0
 10
-18.6478765336
 20
19.8552615472
 10
-18.4844854382
 20
19.7564125696
 10
-18.3214264066
 20
19.6487981135
 10
-18.1594714368
 20
19.5329551306
 10
-17.9986280353
 20
19.4088277868
 10
-17.8388886955
 20
19.2764719161
 10
-17.6813349577
 20
19.1367836815
 10
-17.5259816481
 20
18.9897133163
 10
-17.3728139404
 20
18.8353105873
 10
-17.2228688952
 20
18.6746209571
 10
-17.0761683604
 20
18.5076017191
 10
-16.932690488
 20
18.33429558
 10
-16.7934067958
 20
18.1558761232
 10
-16.6583457797
 20
17.9723086679
 10
-16.5274789438
 20
17.7836278949
 10
-16.4016923171
 20
17.5911114298
 10
-16.2810204448
 20
17.3947333778
 10
-16.1654287817
 20
17.1945196338
 10
-16.055699722
 20
16.9918255077
 10
-15.9518730143
 20
16.7866341717
 10
-15.8539089099
 20
16.5789624537
 10
-15.7624705572
 20
16.3702161472
 10
-15.6776021479
 20
16.160387695
 10
-15.5992594902
 20
15.9494846542
 10
-15.5279731573
 20
15.7389354899
 10
-15.4637910956
 20
15.5287424843
 10
-15.4066653587
 20
15.318903355
 10
-15.3569826807
 20
15.1108397203
 10
-15.3147937178
 20
14.9045635625
 10
-15.2800478138
 20
14.7000628993
 10
-15.2529797345
 20
14.4987234023
 10
-15.2336677353
 20
14.301006962
 10
-15.2220335609
 20
14.106451688
 10
-15.2180772111
 20
13.9150575802
  0
LWPOLYLINE
  5
2C0
100
AcDbEntity
  8
0
100
AcDbPolyline
 62
7
  6
CONTINUOUS
 90
34
 70
0
 10
-2.7379739569
 20
10.6690831973
 10
-2.5745828615
 20
10.5702342197
 10
-2.4115238299
 20
10.4626197637
 10
-2.2495688601
 20
10.3467767807
 10
-2.0887254586
 20
10.2226494369
 10
-1.9289861188
 20
10.0902935662
 10
-1.771432381
 20
9.9506053316
 10
-1.6160790714
 20
9.8035349665
 10
-1.4629113637
 20
9.6491322374
 10
-1.3129663185
 20
9.4884426072
 10
-1.1662657837
 20
9.3214233692
 10
-1.0227879113
 20
9.1481172301
 10
-0.8835042191
 20
8.9696977733
 10
-0.748443203
 20
8.786130318
 10
-0.6175763671
 20
8.597449545
 10
-0.4917897404
 20
8.4049330799
 10
-0.3711178681
 20
8.208555028
 10
-0.255526205
 20
8.0083412839
 10
-0.1457971454
 20
7.8056471578
 10
-0.0419704376
 20
7.6004558218
 10
0.0559936668
 20
7.3927841038
 10
0.1474320195
 20
7.1840377973
 10
0.2323004288
 20
6.9742093451
 10
0.3106430865
 20
6.7633063044
 10
0.3819294193
 20
6.5527571401
 10
0.4461114811
 20
6.3425641344
 10
0.503237218
 20
6.1327250051
 10
0.552919896
 20
5.9246613705
 10
0.5951088589
 20
5.7183852126
 10
0.6298547629
 20
5.5138845494
 10
0.6569228422
 20
5.3125450524
 10
0.6762348414
 20
5.1148286122
 10
0.6878690158
 20
4.9202733381
 10
0.6918253656
 20
4.7288792303
  0
LWPOLYLINE
  5
2C1
100
AcDbEntity
  8
ASSI
100
AcDbPolyline
 62
7
  6
CONTINUOUS
 90
34
 70
0
 10
-2.7379739569
 20
10.6690831973
 10
-2.5745828615
 20
10.5702342197
 10
-2.4115238299
 20
10.4626197637
 10
-2.2495688601
 20
10.3467767807
 10
-2.0887254586
 20
10.2226494369
 10
-1.9289861188
 20
10.0902935662
 10
-1.771432381
 20
9.9506053316
 10
-1.6160790714
 20
9.8035349665
 10
-1.4629113637
 20
9.6491322374
 10
-1.3129663185
 20
9.4884426072
 10
-1.1662657837
 20
9.3214233692
 10
-1.0227879113
 20
9.1481172301
 10
-0.8835042191
 20
8.9696977733
 10
-0.748443203
 20
8.786130318
 10
-0.6175763671
 20
8.597449545
 10
-0.4917897404
 20
8.4049330799
 10
-0.3711178681
 20
8.208555028
 10
-0.255526205
 20
8.0083412839
 10
-0.1457971454
 20
7.8056471578
 10
-0.0419704376
 20
7.6004558218
 10
0.0559936668
 20
7.3927841038
 10
0.1474320195
 20
7.1840377973
 10
0.2323004288
 20
6.9742093451
 10
0.3106430865
 20
6.7633063044
 10
0.3819294193
 20
6.5527571401
 10
0.4461114811
 20
6.3425641344
 10
0.503237218
 20
6.1327250051
 10
0.552919896
 20
5.9246613705
 10
0.5951088589
 20
5.7183852126
 10
0.6298547629
 20
5.5138845494
 10
0.6569228422
 20
5.3125450524
 10
0.6762348414
 20
5.1148286122
 10
0.6878690158
 20
4.9202733381
 10
0.6918253656
 20
4.7288792303
  0
LWPOLYLINE
  5
2C2
100
AcDbEntity
  8
0
100
AcDbPolyline
 62
7
  6
CONTINUOUS
 90
34
 70
0
 10
13.1719286198
 20
1.4829048474
 10
13.3353197152
 20
1.3840558699
 10
13.4983787468
 20
1.2764414138
 10
13.6603337166
 20
1.1605984308
 10
13.8211771181
 20
1.036471087
 10
13.9809164579
 20
0.9041152163
 10
14.1384701957
 20
0.7644269817
 10
14.2938235053
 20
0.6173566166
 10
14.446991213
 20
0.4629538875
 10
14.5969362581
 20
0.3022642574
 10
14.743636793
 20
0.1352450193
 10
14.8871146654
 20
-0.0380611198
 10
15.0263983576
 20
-0.2164805766
 10
15.1614593737
 20
-0.4000480318
 10
15.2923262096
 20
-0.5887288048
 10
15.4181128363
 20
-0.7812452699
 10
15.5387847086
 20
-0.9776233219
 10
15.6543763717
 20
-1.177837066
 10
15.7641054313
 20
-1.3805311921
 10
15.8679321391
 20
-1.5857225281
 10
15.9658962435
 20
-1.7933942461
 10
16.0573345962
 20
-2.0021405526
 10
16.1422030055
 20
-2.2119690048
 10
16.2205456632
 20
-2.4228720455
 10
16.291831996
 20
-2.6334212098
 10
16.3560140578
 20
-2.8436142155
 10
16.4131397947
 20
-3.0534533448
 10
16.4628224727
 20
-3.2615169794
 10
16.5050114356
 20
-3.4677931372
 10
16.5397573396
 20
-3.6722938005
 10
16.5668254189
 20
-3.8736332975
 10
16.5861374181
 20
-4.0713497377
 10
16.5977715925
 20
-4.2659050117
 10
16.6017279422
 20
-4.4572991195
  0
LWPOLYLINE
  5
2C3
100
AcDbEntity
  8
ASSI
100
AcDbPolyline
 62
7
  6
CONTINUOUS
 90
34
 70
0
 10
13.1719286198
 20
1.4829048474
 10
13.3353197152
 20
1.3840558699
 10
13.4983787468
 20
1.2764414138
 10
13.6603337166
 20
1.1605984308
 10
13.8211771181
 20
1.036471087
 10
13.9809164579
 20
0.9041152163
 10
14.1384701957
 20
0.7644269817
 10
14.2938235053
 20
0.6173566166
 10
14.446991213
 20
0.4629538875
 10
14.5969362581
 20
0.3022642574
 10
14.743636793
 20
0.1352450193
 10
14.8871146654
 20
-0.0380611198
 10
15.0263983576
 20
-0.2164805766
 10
15.1614593737
 20
-0.4000480318
 10
15.2923262096
 20
-0.5887288048
 10
15.4181128363
 20
-0.7812452699
 10
15.5387847086
 20
-0.9776233219
 10
15.6543763717
 20
-1.177837066
 10
15.7641054313
 20
-1.3805311921
 10
15.8679321391
 20
-1.5857225281
 10
15.9658962435
 20
-1.7933942461
 10
16.0573345962
 20
-2.0021405526
 10
16.1422030055
 20
-2.2119690048
 10
16.2205456632
 20
-2.4228720455
 10
16.291831996
 20
-2.6334212098
 10
16.3560140578
 20
-2.8436142155
 10
16.4131397947
 20
-3.0534533448
 10
16.4628224727
 20
-3.2615169794
 10
16.5050114356
 20
-3.4677931372
 10
16.5397573396
 20
-3.6722938005
 10
16.5668254189
 20
-3.8736332975
 10
16.5861374181
 20
-4.0713497377
 10
16.5977715925
 20
-4.2659050117
 10
16.6017279422
 20
-4.4572991195
  0
LWPOLYLINE
  5
2C4
100
AcDbEntity
  8
0
100
AcDbPolyline
 62
7
  6
CONTINUOUS
 90
46
 70
0
 10
11.4398484396
 20
-16.6630918079
 10
11.4433979643
 20
-16.8347685028
 10
11.4538340892
 20
-17.0092781518
 10
11.4711568141
 20
-17.1866207549
 10
11.495436475
 20
-17.3672102593
 10
11.526602736
 20
-17.5506327177
 10
11.5644445893
 20
-17.7356462884
 10
11.6090073335
 20
-17.922261768
 10
11.66024567
 20
-18.1104683599
 10
11.7178126952
 20
-18.2989918317
 10
11.7817513538
 20
-18.4878343336
 10
11.852018701
 20
-18.6769937155
 10
11.9281389995
 20
-18.8651892942
 10
12.0101519656
 20
-19.0524145296
 10
12.098017883
 20
-19.2386759619
 10
12.191141865
 20
-19.4227125282
 10
12.2895595913
 20
-19.6045091313
 10
12.3932353822
 20
-19.7840808684
 10
12.5014673119
 20
-19.9602119686
 10
12.6142862972
 20
-20.1328790848
 10
12.7316614215
 20
-20.302105564
 10
12.852798009
 20
-20.4667456767
 10
12.9777215842
 20
-20.6267683014
 10
13.1064066227
 20
-20.7822045595
 10
13.2379818765
 20
-20.932002087
 10
13.3724669577
 20
-21.0761226209
 10
13.5098422543
 20
-21.2146044241
 10
13.6491776816
 20
-21.3465099206
 10
13.7904865405
 20
-21.4717944854
 10
13.9337555301
 20
-21.5905027434
 10
14.0780146634
 20
-21.7018309933
 10
14.2232706591
 20
-21.8057291565
 10
14.3695167984
 20
-21.9022473116
 10
14.5157629377
 20
-21.9907319929
 10
14.6620090771
 20
-22.0711286875
 10
14.8082552164
 20
-22.1434919083
 10
14.9535112121
 20
-22.207331728
 10
15.0977703454
 20
-22.2625903092
 10
15.241039335
 20
-22.3093254893
 10
15.3823481939
 20
-22.3472208527
 10
15.5216836212
 20
-22.3762164151
 10
15.6590589178
 20
-22.3963721609
 10
15.793543999
 20
-22.4075516278
 10
15.9251192528
 20
-22.4096939054
 10
16.0538042913
 20
-22.4028599041
 10
16.138264048
 20
-22.3922019913
  0
LWPOLYLINE
  5
2C5
100
AcDbEntity
  8
ASSI
100
AcDbPolyline
 62
7
  6
CONTINUOUS
 90
46
 70
0
 10
11.4398484396
 20
-16.6630918079
 10
11.4433979643
 20
-16.8347685028
 10
11.4538340892
 20
-17.0092781518
 10
11.4711568141
 20
-17.1866207549
 10
11.495436475
 20
-17.3672102593
 10
11.526602736
 20
-17.5506327177
 10
11.5644445893
 20
-17.7356462884
 10
11.6090073335
 20
-17.922261768
 10
11.66024567
 20
-18.1104683599
 10
11.7178126952
 20
-18.2989918317
 10
11.7817513538
 20
-18.4878343336
 10
11.852018701
 20
-18.6769937155
 10
11.9281389995
 20
-18.8651892942
 10
12.0101519656
 20
-19.0524145296
 10
12.098017883
 20
-19.2386759619
 10
12.191141865
 20
-19.4227125282
 10
12.2895595913
 20
-19.6045091313
 10
12.3932353822
 20
-19.7840808684
 10
12.5014673119
 20
-19.9602119686
 10
12.6142862972
 20
-20.1328790848
 10
12.7316614215
 20
-20.302105564
 10
12.852798009
 20
-20.4667456767
 10
12.9777215842
 20
-20.6267683014
 10
13.1064066227
 20
-20.7822045595
 10
13.2379818765
 20
-20.932002087
 10
13.3724669577
 20
-21.0761226209
 10
13.5098422543
 20
-21.2146044241
 10
13.6491776816
 20
-21.3465099206
 10
13.7904865405
 20
-21.4717944854
 10
13.9337555301
 20
-21.5905027434
 10
14.0780146634
 20
-21.7018309933
 10
14.2232706591
 20
-21.8057291565
 10
14.3695167984
 20
-21.9022473116
 10
14.5157629377
 20
-21.9907319929
 10
14.6620090771
 20
-22.0711286875
 10
14.8082552164
 20
-22.1434919083
 10
14.9535112121
 20
-22.207331728
 10
15.0977703454
 20
-22.2625903092
 10
15.241039335
 20
-22.3093254893
 10
15.3823481939
 20
-22.3472208527
 10
15.5216836212
 20
-22.3762164151
 10
15.6590589178
 20
-22.3963721609
 10
15.793543999
 20
-22.4075516278
 10
15.9251192528
 20
-22.4096939054
 10
16.0538042913
 20
-22.4028599041
 10
16.138264048
 20
-22.3922019913
  0
LWPOLYLINE
  5
2C6
100
AcDbEntity
  8
0
100
AcDbPolyline
 62
7
  6
CONTINUOUS
 90
46
 70
0
 10
11.4398484396
 20
0.0745488664
 10
11.4433979643
 20
-0.0971278286
 10
11.4538340892
 20
-0.2716374776
 10
11.4711568141
 20
-0.4489800806
 10
11.495436475
 20
-0.629569585
 10
11.526602736
 20
-0.8129920435
 10
11.5644445893
 20
-0.9980056141
 10
11.6090073335
 20
-1.1846210938
 10
11.66024567
 20
-1.3728276856
 10
11.7178126952
 20
-1.5613511574
 10
11.7817513538
 20
-1.7501936594
 10
11.852018701
 20
-1.9393530412
 10
11.9281389995
 20
-2.1275486199
 10
12.0101519656
 20
-2.3147738554
 10
12.098017883
 20
-2.5010352877
 10
12.191141865
 20
-2.685071854
 10
12.2895595913
 20
-2.8668684571
 10
12.3932353822
 20
-3.0464401942
 10
12.5014673119
 20
-3.2225712944
 10
12.6142862972
 20
-3.3952384105
 10
12.7316614215
 20
-3.5644648897
 10
12.852798009
 20
-3.7291050025
 10
12.9777215842
 20
-3.8891276271
 10
13.1064066227
 20
-4.0445638853
 10
13.2379818765
 20
-4.1943614127
 10
13.3724669577
 20
-4.3384819467
 10
13.5098422543
 20
-4.4769637499
 10
13.6491776816
 20
-4.6088692463
 10
13.7904865405
 20
-4.7341538111
 10
13.9337555301
 20
-4.8528620692
 10
14.0780146634
 20
-4.9641903191
 10
14.2232706591
 20
-5.0680884823
 10
14.3695167984
 20
-5.1646066374
 10
14.5157629377
 20
-5.2530913186
 10
14.6620090771
 20
-5.3334880133
 10
14.8082552164
 20
-5.4058512341
 10
14.9535112121
 20
-5.4696910537
 10
15.0977703454
 20
-5.524949635
 10
15.241039335
 20
-5.571684815
 10
15.3823481939
 20
-5.6095801784
 10
15.5216836212
 20
-5.6385757409
 10
15.6590589178
 20
-5.6587314867
 10
15.793543999
 20
-5.6699109535
 10
15.9251192528
 20
-5.6720532311
 10
16.0538042913
 20
-5.6652192298
 10
16.138264048
 20
-5.6545613171
  0
LWPOLYLINE
  5
2C7
100
AcDbEntity
  8
ASSI
100
AcDbPolyline
 62
7
  6
CONTINUOUS
 90
46
 70
0
 10
11.4398484396
 20
0.0745488664
 10
11.4433979643
 20
-0.0971278286
 10
11.4538340892
 20
-0.2716374776
 10
11.4711568141
 20
-0.4489800806
 10
11.495436475
 20
-0.629569585
 10
11.526602736
 20
-0.8129920435
 10
11.5644445893
 20
-0.9980056141
 10
11.6090073335
 20
-1.1846210938
 10
11.66024567
 20
-1.3728276856
 10
11.7178126952
 20
-1.5613511574
 10
11.7817513538
 20
-1.7501936594
 10
11.852018701
 20
-1.9393530412
 10
11.9281389995
 20
-2.1275486199
 10
12.0101519656
 20
-2.3147738554
 10
12.098017883
 20
-2.5010352877
 10
12.191141865
 20
-2.685071854
 10
12.2895595913
 20
-2.8668684571
 10
12.3932353822
 20
-3.0464401942
 10
12.5014673119
 20
-3.2225712944
 10
12.6142862972
 20
-3.3952384105
 10
12.7316614215
 20
-3.5644648897
 10
12.852798009
 20
-3.7291050025
 10
12.9777215842
 20
-3.8891276271
 10
13.1064066227
 20
-4.0445638853
 10
13.2379818765
 20
-4.1943614127
 10
13.3724669577
 20
-4.3384819467
 10
13.5098422543
 20
-4.4769637499
 10
13.6491776816
 20
-4.6088692463
 10
13.7904865405
 20
-4.7341538111
 10
13.9337555301
 20
-4.8528620692
 10
14.0780146634
 20
-4.9641903191
 10
14.2232706591
 20
-5.0680884823
 10
14.3695167984
 20
-5.1646066374
 10
14.5157629377
 20
-5.2530913186
 10
14.6620090771
 20
-5.3334880133
 10
14.8082552164
 20
-5.4058512341
 10
14.9535112121
 20
-5.4696910537
 10
15.0977703454
 20
-5.524949635
 10
15.241039335
 20
-5.571684815
 10
15.3823481939
 20
-5.6095801784
 10
15.5216836212
 20
-5.6385757409
 10
15.6590589178
 20
-5.6587314867
 10
15.793543999
 20
-5.6699109535
 10
15.9251192528
 20
-5.6720532311
 10
16.0538042913
 20
-5.6652192298
 10
16.138264048
 20
-5.6545613171
  0
LINE
  5
2C8
100
AcDbEntity
  8
0
100
AcDbLine
 62
7
  6
CONTINUOUS
 10
40.9654875612
 20
9.688540272
 11
45.0274205459
 21
12.0338341742
  0
LINE
  5
2C9
100
AcDbEntity
  8
ASSI
100
AcDbLine
 62
7
  6
CONTINUOUS
 10
40.9654875612
 20
9.688540272
 11
45.0274205459
 21
12.0338341742
  0
LWPOLYLINE
  5
2CA
100
AcDbEntity
  8
0
100
AcDbPolyline
 62
7
  6
CONTINUOUS
 90
51
 70
0
 10
-0.208984036
 20
-13.5916421966
 10
-0.2614402035
 20
-13.620502739
 10
-0.3697681555
 20
-13.6716654207
 10
-0.4826595473
 20
-13.7141130167
 10
-0.5998585988
 20
-13.7477492805
 10
-0.7210997712
 20
-13.77249795
 10
-0.8461084411
 20
-13.7883029225
 10
-0.9746014168
 20
-13.7951283505
 10
-1.1062875064
 20
-13.7929587382
 10
-1.2408683625
 20
-13.781798989
 10
-1.3780391417
 20
-13.7616743696
 10
-1.5174890754
 20
-13.7326304612
 10
-1.6589022502
 20
-13.6947330518
 10
-1.8019583169
 20
-13.648067983
 10
-1.9463331885
 20
-13.5927409639
 10
-2.091699811
 20
-13.5288773188
 10
-2.2377288592
 20
-13.456621721
 10
-2.3840894733
 20
-13.3761378769
 10
-2.5304500873
 20
-13.2876081151
 10
-2.6764791349
 20
-13.1912329912
 10
-2.8218457567
 20
-13.0872308669
 10
-2.9662206273
 20
-12.9758373655
 10
-3.1092766928
 20
-12.8573048362
 10
-3.250689867
 20
-12.7319018167
 10
-3.3901398018
 20
-12.5999123949
 10
-3.5273105825
 20
-12.4616355928
 10
-3.6618914367
 20
-12.3173847006
 10
-3.7935775204
 20
-12.1674864783
 10
-3.922070487
 20
-12.0122805461
 10
-4.0470791443
 20
-11.8521186617
 10
-4.1683202985
 20
-11.6873636986
 10
-4.2855193287
 20
-11.5183888854
 10
-4.3984107023
 20
-11.345577112
 10
-4.506738639
 20
-11.1693199929
 10
-4.610257838
 20
-10.9900167231
 10
-4.7087339584
 20
-10.8080732416
 10
-4.8019439363
 20
-10.6239016964
 10
-4.8896766176
 20
-10.4379193197
 10
-4.9717333551
 20
-10.2505472181
 10
-5.0479283494
 20
-10.0622096012
 10
-5.1180888702
 20
-9.8733333637
 10
-5.1820557956
 20
-9.6843469139
 10
-5.239684297
 20
-9.4956782465
 10
-5.290843827
 20
-9.3077548774
 10
-5.3354183392
 20
-9.1210034001
 10
-5.3733070201
 20
-8.9358467258
 10
-5.4044241577
 20
-8.7527043507
 10
-5.4286992733
 20
-8.5719922551
 10
-5.4460776297
 20
-8.394120057
 10
-5.4565202053
 20
-8.2194901342
 10
-5.4600036308
 20
-8.0484978886
  0
LWPOLYLINE
  5
2CB
100
AcDbEntity
  8
ASSI
100
AcDbPolyline
 62
7
  6
CONTINUOUS
 90
51
 70
0
 10
-0.208984036
 20
-13.5916421966
 10
-0.2614402035
 20
-13.620502739
 10
-0.3697681555
 20
-13.6716654207
 10
-0.4826595473
 20
-13.7141130167
 10
-0.5998585988
 20
-13.7477492805
 10
-0.7210997712
 20
-13.77249795
 10
-0.8461084411
 20
-13.7883029225
 10
-0.9746014168
 20
-13.7951283505
 10
-1.1062875064
 20
-13.7929587382
 10
-1.2408683625
 20
-13.781798989
 10
-1.3780391417
 20
-13.7616743696
 10
-1.5174890754
 20
-13.7326304612
 10
-1.6589022502
 20
-13.6947330518
 10
-1.8019583169
 20
-13.648067983
 10
-1.9463331885
 20
-13.5927409639
 10
-2.091699811
 20
-13.5288773188
 10
-2.2377288592
 20
-13.456621721
 10
-2.3840894733
 20
-13.3761378769
 10
-2.5304500873
 20
-13.2876081151
 10
-2.6764791349
 20
-13.1912329912
 10
-2.8218457567
 20
-13.0872308669
 10
-2.9662206273
 20
-12.9758373655
 10
-3.1092766928
 20
-12.8573048362
 10
-3.250689867
 20
-12.7319018167
 10
-3.3901398018
 20
-12.5999123949
 10
-3.5273105825
 20
-12.4616355928
 10
-3.6618914367
 20
-12.3173847006
 10
-3.7935775204
 20
-12.1674864783
 10
-3.922070487
 20
-12.0122805461
 10
-4.0470791443
 20
-11.8521186617
 10
-4.1683202985
 20
-11.6873636986
 10
-4.2855193287
 20
-11.5183888854
 10
-4.3984107023
 20
-11.345577112
 10
-4.506738639
 20
-11.1693199929
 10
-4.610257838
 20
-10.9900167231
 10
-4.7087339584
 20
-10.8080732416
 10
-4.8019439363
 20
-10.6239016964
 10
-4.8896766176
 20
-10.4379193197
 10
-4.9717333551
 20
-10.2505472181
 10
-5.0479283494
 20
-10.0622096012
 10
-5.1180888702
 20
-9.8733333637
 10
-5.1820557956
 20
-9.6843469139
 10
-5.239684297
 20
-9.4956782465
 10
-5.290843827
 20
-9.3077548774
 10
-5.3354183392
 20
-9.1210034001
 10
-5.3733070201
 20
-8.9358467258
 10
-5.4044241577
 20
-8.7527043507
 10
-5.4286992733
 20
-8.5719922551
 10
-5.4460776297
 20
-8.394120057
 10
-5.4565202053
 20
-8.2194901342
 10
-5.4600036308
 20
-8.0484978886
  0
LWPOLYLINE
  5
2CC
100
AcDbEntity
  8
0
100
AcDbPolyline
 62
7
  6
CONTINUOUS
 90
51
 70
0
 10
15.7009185407
 20
-6.0401798722
 10
15.6484623732
 20
-6.0690404146
 10
15.5401344212
 20
-6.1202030964
 10
15.4272430294
 20
-6.1626506923
 10
15.3100439779
 20
-6.1962869561
 10
15.1888028055
 20
-6.2210356256
 10
15.0637941356
 20
-6.2368405981
 10
14.9353011599
 20
-6.2436660261
 10
14.8036150703
 20
-6.2414964138
 10
14.6690342142
 20
-6.2303366647
 10
14.531863435
 20
-6.2102120452
 10
14.3924135013
 20
-6.1811681368
 10
14.2510003265
 20
-6.1432707274
 10
14.1079442598
 20
-6.0966056586
 10
13.9635693882
 20
-6.0412786395
 10
13.8182027657
 20
-5.9774149944
 10
13.6721737175
 20
-5.9051593966
 10
13.5258131034
 20
-5.8246755525
 10
13.3794524894
 20
-5.7361457907
 10
13.2334234418
 20
-5.6397706668
 10
13.08805682
 20
-5.5357685425
 10
12.9436819494
 20
-5.4243750411
 10
12.8006258839
 20
-5.3058425118
 10
12.6592127097
 20
-5.1804394923
 10
12.5197627749
 20
-5.0484500705
 10
12.3825919942
 20
-4.9101732684
 10
12.24801114
 20
-4.7659223762
 10
12.1163250563
 20
-4.6160241539
 10
11.9878320897
 20
-4.4608182217
 10
11.8628234324
 20
-4.3006563374
 10
11.7415822782
 20
-4.1359013743
 10
11.624383248
 20
-3.966926561
 10
11.5114918744
 20
-3.7941147876
 10
11.4031639377
 20
-3.6178576686
 10
11.2996447387
 20
-3.4385543987
 10
11.2011686182
 20
-3.2566109173
 10
11.1079586404
 20
-3.072439372
 10
11.0202259591
 20
-2.8864569953
 10
10.9381692216
 20
-2.6990848937
 10
10.8619742273
 20
-2.5107472768
 10
10.7918137065
 20
-2.3218710393
 10
10.7278467811
 20
-2.1328845896
 10
10.6702182797
 20
-1.9442159221
 10
10.6190587497
 20
-1.756292553
 10
10.5744842375
 20
-1.5695410757
 10
10.5365955566
 20
-1.3843844014
 10
10.505478419
 20
-1.2012420264
 10
10.4812033034
 20
-1.0205299307
 10
10.463824947
 20
-0.8426577326
 10
10.4533823714
 20
-0.6680278098
 10
10.4498989459
 20
-0.4970355643
  0
LWPOLYLINE
  5
2CD
100
AcDbEntity
  8
ASSI
100
AcDbPolyline
 62
7
  6
CONTINUOUS
 90
51
 70
0
 10
15.7009185407
 20
-6.0401798722
 10
15.6484623732
 20
-6.0690404146
 10
15.5401344212
 20
-6.1202030964
 10
15.4272430294
 20
-6.1626506923
 10
15.3100439779
 20
-6.1962869561
 10
15.1888028055
 20
-6.2210356256
 10
15.0637941356
 20
-6.2368405981
 10
14.9353011599
 20
-6.2436660261
 10
14.8036150703
 20
-6.2414964138
 10
14.6690342142
 20
-6.2303366647
 10
14.531863435
 20
-6.2102120452
 10
14.3924135013
 20
-6.1811681368
 10
14.2510003265
 20
-6.1432707274
 10
14.1079442598
 20
-6.0966056586
 10
13.9635693882
 20
-6.0412786395
 10
13.8182027657
 20
-5.9774149944
 10
13.6721737175
 20
-5.9051593966
 10
13.5258131034
 20
-5.8246755525
 10
13.3794524894
 20
-5.7361457907
 10
13.2334234418
 20
-5.6397706668
 10
13.08805682
 20
-5.5357685425
 10
12.9436819494
 20
-5.4243750411
 10
12.8006258839
 20
-5.3058425118
 10
12.6592127097
 20
-5.1804394923
 10
12.5197627749
 20
-5.0484500705
 10
12.3825919942
 20
-4.9101732684
 10
12.24801114
 20
-4.7659223762
 10
12.1163250563
 20
-4.6160241539
 10
11.9878320897
 20
-4.4608182217
 10
11.8628234324
 20
-4.3006563374
 10
11.7415822782
 20
-4.1359013743
 10
11.624383248
 20
-3.966926561
 10
11.5114918744
 20
-3.7941147876
 10
11.4031639377
 20
-3.6178576686
 10
11.2996447387
 20
-3.4385543987
 10
11.2011686182
 20
-3.2566109173
 10
11.1079586404
 20
-3.072439372
 10
11.0202259591
 20
-2.8864569953
 10
10.9381692216
 20
-2.6990848937
 10
10.8619742273
 20
-2.5107472768
 10
10.7918137065
 20
-2.3218710393
 10
10.7278467811
 20
-2.1328845896
 10
10.6702182797
 20
-1.9442159221
 10
10.6190587497
 20
-1.756292553
 10
10.5744842375
 20
-1.5695410757
 10
10.5365955566
 20
-1.3843844014
 10
10.505478419
 20
-1.2012420264
 10
10.4812033034
 20
-1.0205299307
 10
10.463824947
 20
-0.8426577326
 10
10.4533823714
 20
-0.6680278098
 10
10.4498989459
 20
-0.4970355643
  0
LWPOLYLINE
  5
2CE
100
AcDbEntity
  8
0
100
AcDbPolyline
 62
7
  6
CONTINUOUS
 90
67
 70
0
 10
16.6017279422
 20
-4.4572991195
 10
16.5977715732
 20
-4.6441248675
 10
16.5861373594
 20
-4.8252455816
 10
16.5668253009
 20
-5.0006612618
 10
16.5397571355
 20
-5.1707434376
 10
16.5050111254
 20
-5.3351205794
 10
16.4628220573
 20
-5.4926780988
 10
16.4131392757
 20
-5.6433694689
 10
16.356013436
 20
-5.7872412166
 10
16.2918312913
 20
-5.9233183335
 10
16.2205449046
 20
-6.0515477271
 10
16.1422022129
 20
-6.1719824899
 10
16.05733378
 20
-6.2838068914
 10
15.9658954182
 20
-6.3869623521
 10
15.8679313152
 20
-6.4815074515
 10
15.7641045974
 20
-6.5668021969
 10
15.6543755066
 20
-6.6427838695
 10
15.5387838011
 20
-6.7095151882
 10
15.4181118821
 20
-6.766544317
 10
15.2923252021
 20
-6.8138054653
 10
15.1614583087
 20
-6.8513644238
 10
15.0263972461
 20
-6.8789667283
 10
14.8871135259
 20
-6.896544789
 10
14.7436356365
 20
-6.9041661957
 10
14.5969350876
 20
-6.9017792529
 10
14.4469900295
 20
-6.8893160261
 10
14.293822312
 20
-6.8668444497
 10
14.1384689932
 20
-6.8345166323
 10
13.9809152463
 20
-6.792265686
 10
13.8211758981
 20
-6.7401584986
 10
13.6603324881
 20
-6.6785478414
 10
13.4983775077
 20
-6.6073692107
 10
13.3353184655
 20
-6.5266871102
 10
13.1722594262
 20
-6.4370478222
 10
13.0092003918
 20
-6.3383905537
 10
12.8461413602
 20
-6.2307760976
 10
12.6841863904
 20
-6.1149331146
 10
12.5233429889
 20
-5.9908057708
 10
12.3636036491
 20
-5.8584499001
 10
12.2060499113
 20
-5.7187616655
 10
12.0506966017
 20
-5.5716913004
 10
11.897528894
 20
-5.4172885713
 10
11.7475838488
 20
-5.2565989412
 10
11.6008833139
 20
-5.0895797031
 10
11.4574054416
 20
-4.916273564
 10
11.3181217494
 20
-4.7378541072
 10
11.1830607333
 20
-4.554286652
 10
11.0521938973
 20
-4.365605879
 10
10.9264072707
 20
-4.1730894139
 10
10.8057353984
 20
-3.9767113619
 10
10.6901437353
 20
-3.7764976178
 10
10.5804146756
 20
-3.5738034917
 10
10.4765879679
 20
-3.3686121557
 10
10.3786238635
 20
-3.1609404377
 10
10.2871855108
 20
-2.9521941312
 10
10.2023171015
 20
-2.742365679
 10
10.1239744438
 20
-2.5314626383
 10
10.0526881109
 20
-2.320913474
 10
9.9885060492
 20
-2.1107204683
 10
9.9313803123
 20
-1.900881339
 10
9.8816976343
 20
-1.6928177044
 10
9.8395086714
 20
-1.4865415466
 10
9.8047627674
 20
-1.2820408833
 10
9.7776946881
 20
-1.0807013863
 10
9.7583826889
 20
-0.8829849461
 10
9.7467485144
 20
-0.6884296721
 10
9.7427921647
 20
-0.4970355643
  0
LWPOLYLINE
  5
2CF
100
AcDbEntity
  8
ASSI
100
AcDbPolyline
 62
7
  6
CONTINUOUS
 90
67
 70
0
 10
16.6017279422
 20
-4.4572991195
 10
16.5977715732
 20
-4.6441248675
 10
16.5861373594
 20
-4.8252455816
 10
16.5668253009
 20
-5.0006612618
 10
16.5397571355
 20
-5.1707434376
 10
16.5050111254
 20
-5.3351205794
 10
16.4628220573
 20
-5.4926780988
 10
16.4131392757
 20
-5.6433694689
 10
16.356013436
 20
-5.7872412166
 10
16.2918312913
 20
-5.9233183335
 10
16.2205449046
 20
-6.0515477271
 10
16.1422022129
 20
-6.1719824899
 10
16.05733378
 20
-6.2838068914
 10
15.9658954182
 20
-6.3869623521
 10
15.8679313152
 20
-6.4815074515
 10
15.7641045974
 20
-6.5668021969
 10
15.6543755066
 20
-6.6427838695
 10
15.5387838011
 20
-6.7095151882
 10
15.4181118821
 20
-6.766544317
 10
15.2923252021
 20
-6.8138054653
 10
15.1614583087
 20
-6.8513644238
 10
15.0263972461
 20
-6.8789667283
 10
14.8871135259
 20
-6.896544789
 10
14.7436356365
 20
-6.9041661957
 10
14.5969350876
 20
-6.9017792529
 10
14.4469900295
 20
-6.8893160261
 10
14.293822312
 20
-6.8668444497
 10
14.1384689932
 20
-6.8345166323
 10
13.9809152463
 20
-6.792265686
 10
13.8211758981
 20
-6.7401584986
 10
13.6603324881
 20
-6.6785478414
 10
13.4983775077
 20
-6.6073692107
 10
13.3353184655
 20
-6.5266871102
 10
13.1722594262
 20
-6.4370478222
 10
13.0092003918
 20
-6.3383905537
 10
12.8461413602
 20
-6.2307760976
 10
12.6841863904
 20
-6.1149331146
 10
12.5233429889
 20
-5.9908057708
 10
12.3636036491
 20
-5.8584499001
 10
12.2060499113
 20
-5.7187616655
 10
12.0506966017
 20
-5.5716913004
 10
11.897528894
 20
-5.4172885713
 10
11.7475838488
 20
-5.2565989412
 10
11.6008833139
 20
-5.0895797031
 10
11.4574054416
 20
-4.916273564
 10
11.3181217494
 20
-4.7378541072
 10
11.1830607333
 20
-4.554286652
 10
11.0521938973
 20
-4.365605879
 10
10.9264072707
 20
-4.1730894139
 10
10.8057353984
 20
-3.9767113619
 10
10.6901437353
 20
-3.7764976178
 10
10.5804146756
 20
-3.5738034917
 10
10.4765879679
 20
-3.3686121557
 10
10.3786238635
 20
-3.1609404377
 10
10.2871855108
 20
-2.9521941312
 10
10.2023171015
 20
-2.742365679
 10
10.1239744438
 20
-2.5314626383
 10
10.0526881109
 20
-2.320913474
 10
9.9885060492
 20
-2.1107204683
 10
9.9313803123
 20
-1.900881339
 10
9.8816976343
 20
-1.6928177044
 10
9.8395086714
 20
-1.4865415466
 10
9.8047627674
 20
-1.2820408833
 10
9.7776946881
 20
-1.0807013863
 10
9.7583826889
 20
-0.8829849461
 10
9.7467485144
 20
-0.6884296721
 10
9.7427921647
 20
-0.4970355643
  0
LWPOLYLINE
  5
2D0
100
AcDbEntity
  8
0
100
AcDbPolyline
 62
7
  6
CONTINUOUS
 90
67
 70
0
 10
16.6017279422
 20
-21.1949397938
 10
16.5977715732
 20
-21.3817655418
 10
16.5861373594
 20
-21.5628862559
 10
16.5668253009
 20
-21.738301936
 10
16.5397571355
 20
-21.9083841118
 10
16.5050111254
 20
-22.0727612537
 10
16.4628220573
 20
-22.2303187731
 10
16.4131392757
 20
-22.3810101432
 10
16.356013436
 20
-22.5248818908
 10
16.2918312913
 20
-22.6609590077
 10
16.2205449046
 20
-22.7891884013
 10
16.1422022129
 20
-22.9096231642
 10
16.05733378
 20
-23.0214475657
 10
15.9658954182
 20
-23.1246030264
 10
15.8679313152
 20
-23.2191481258
 10
15.7641045974
 20
-23.3044428712
 10
15.6543755066
 20
-23.3804245438
 10
15.5387838011
 20
-23.4471558624
 10
15.4181118821
 20
-23.5041849912
 10
15.2923252021
 20
-23.5514461396
 10
15.1614583087
 20
-23.5890050981
 10
15.0263972461
 20
-23.6166074025
 10
14.8871135259
 20
-23.6341854633
 10
14.7436356365
 20
-23.64180687
 10
14.5969350876
 20
-23.6394199272
 10
14.4469900295
 20
-23.6269567003
 10
14.293822312
 20
-23.604485124
 10
14.1384689932
 20
-23.5721573065
 10
13.9809152463
 20
-23.5299063603
 10
13.8211758981
 20
-23.4777991729
 10
13.6603324881
 20
-23.4161885156
 10
13.4983775077
 20
-23.345009885
 10
13.3353184655
 20
-23.2643277845
 10
13.1722594262
 20
-23.1746884964
 10
13.0092003918
 20
-23.0760312279
 10
12.8461413602
 20
-22.9684167718
 10
12.6841863904
 20
-22.8525737889
 10
12.5233429889
 20
-22.7284464451
 10
12.3636036491
 20
-22.5960905744
 10
12.2060499113
 20
-22.4564023398
 10
12.0506966017
 20
-22.3093319746
 10
11.897528894
 20
-22.1549292456
 10
11.7475838488
 20
-21.9942396154
 10
11.6008833139
 20
-21.8272203774
 10
11.4574054416
 20
-21.6539142383
 10
11.3181217494
 20
-21.4754947815
 10
11.1830607333
 20
-21.2919273262
 10
11.0521938973
 20
-21.1032465532
 10
10.9264072707
 20
-20.9107300881
 10
10.8057353984
 20
-20.7143520361
 10
10.6901437353
 20
-20.5141382921
 10
10.5804146756
 20
-20.311444166
 10
10.4765879679
 20
-20.10625283
 10
10.3786238635
 20
-19.898581112
 10
10.2871855108
 20
-19.6898348055
 10
10.2023171015
 20
-19.4800063533
 10
10.1239744438
 20
-19.2691033125
 10
10.0526881109
 20
-19.0585541482
 10
9.9885060492
 20
-18.8483611426
 10
9.9313803123
 20
-18.6385220133
 10
9.8816976343
 20
-18.4304583786
 10
9.8395086714
 20
-18.2241822208
 10
9.8047627674
 20
-18.0196815576
 10
9.7776946881
 20
-17.8183420606
 10
9.7583826889
 20
-17.6206256204
 10
9.7467485144
 20
-17.4260703463
 10
9.7427921647
 20
-17.2346762385
  0
LWPOLYLINE
  5
2D1
100
AcDbEntity
  8
ASSI
100
AcDbPolyline
 62
7
  6
CONTINUOUS
 90
67
 70
0
 10
16.6017279422
 20
-21.1949397938
 10
16.5977715732
 20
-21.3817655418
 10
16.5861373594
 20
-21.5628862559
 10
16.5668253009
 20
-21.738301936
 10
16.5397571355
 20
-21.9083841118
 10
16.5050111254
 20
-22.0727612537
 10
16.4628220573
 20
-22.2303187731
 10
16.4131392757
 20
-22.3810101432
 10
16.356013436
 20
-22.5248818908
 10
16.2918312913
 20
-22.6609590077
 10
16.2205449046
 20
-22.7891884013
 10
16.1422022129
 20
-22.9096231642
 10
16.05733378
 20
-23.0214475657
 10
15.9658954182
 20
-23.1246030264
 10
15.8679313152
 20
-23.2191481258
 10
15.7641045974
 20
-23.3044428712
 10
15.6543755066
 20
-23.3804245438
 10
15.5387838011
 20
-23.4471558624
 10
15.4181118821
 20
-23.5041849912
 10
15.2923252021
 20
-23.5514461396
 10
15.1614583087
 20
-23.5890050981
 10
15.0263972461
 20
-23.6166074025
 10
14.8871135259
 20
-23.6341854633
 10
14.7436356365
 20
-23.64180687
 10
14.5969350876
 20
-23.6394199272
 10
14.4469900295
 20
-23.6269567003
 10
14.293822312
 20
-23.604485124
 10
14.1384689932
 20
-23.5721573065
 10
13.9809152463
 20
-23.5299063603
 10
13.8211758981
 20
-23.4777991729
 10
13.6603324881
 20
-23.4161885156
 10
13.4983775077
 20
-23.345009885
 10
13.3353184655
 20
-23.2643277845
 10
13.1722594262
 20
-23.1746884964
 10
13.0092003918
 20
-23.0760312279
 10
12.8461413602
 20
-22.9684167718
 10
12.6841863904
 20
-22.8525737889
 10
12.5233429889
 20
-22.7284464451
 10
12.3636036491
 20
-22.5960905744
 10
12.2060499113
 20
-22.4564023398
 10
12.0506966017
 20
-22.3093319746
 10
11.897528894
 20
-22.1549292456
 10
11.7475838488
 20
-21.9942396154
 10
11.6008833139
 20
-21.8272203774
 10
11.4574054416
 20
-21.6539142383
 10
11.3181217494
 20
-21.4754947815
 10
11.1830607333
 20
-21.2919273262
 10
11.0521938973
 20
-21.1032465532
 10
10.9264072707
 20
-20.9107300881
 10
10.8057353984
 20
-20.7143520361
 10
10.6901437353
 20
-20.5141382921
 10
10.5804146756
 20
-20.311444166
 10
10.4765879679
 20
-20.10625283
 10
10.3786238635
 20
-19.898581112
 10
10.2871855108
 20
-19.6898348055
 10
10.2023171015
 20
-19.4800063533
 10
10.1239744438
 20
-19.2691033125
 10
10.0526881109
 20
-19.0585541482
 10
9.9885060492
 20
-18.8483611426
 10
9.9313803123
 20
-18.6385220133
 10
9.8816976343
 20
-18.4304583786
 10
9.8395086714
 20
-18.2241822208
 10
9.8047627674
 20
-18.0196815576
 10
9.7776946881
 20
-17.8183420606
 10
9.7583826889
 20
-17.6206256204
 10
9.7467485144
 20
-17.4260703463
 10
9.7427921647
 20
-17.2346762385
  0
LINE
  5
2D2
100
AcDbEntity
  8
0
100
AcDbLine
 62
7
  6
CONTINUOUS
 10
16.5964539365
 20
-4.2438701923
 11
16.5878018923
 21
-4.3785658599
  0
LINE
  5
2D3
100
AcDbEntity
  8
ASSI
100
AcDbLine
 62
7
  6
CONTINUOUS
 10
16.5964539365
 20
-4.2438701923
 11
16.5878018923
 21
-4.3785658599
  0
LINE
  5
2D4
100
AcDbEntity
  8
0
100
AcDbLine
 62
7
  6
CONTINUOUS
 10
16.5964539365
 20
-20.9815108666
 11
16.5878018923
 21
-21.1162065342
  0
LINE
  5
2D5
100
AcDbEntity
  8
ASSI
100
AcDbLine
 62
7
  6
CONTINUOUS
 10
16.5964539365
 20
-20.9815108666
 11
16.5878018923
 21
-21.1162065342
  0
LWPOLYLINE
  5
2D6
100
AcDbEntity
  8
0
100
AcDbPolyline
 62
7
  6
CONTINUOUS
 90
16
 70
0
 10
16.5878018923
 20
-4.3785658599
 10
16.5704234823
 20
-4.5363701689
 10
16.5461483001
 20
-4.6890501214
 10
16.515031088
 20
-4.8362593094
 10
16.4771423309
 20
-4.9776631385
 10
16.4325677482
 20
-5.1129410901
 10
16.3814081577
 20
-5.2417866799
 10
16.323779606
 20
-5.3639073361
 10
16.2598126463
 20
-5.4790262964
 10
16.1896521088
 20
-5.5868828184
 10
16.1134571055
 20
-5.6872322644
 10
16.0314003651
 20
-5.779847207
 10
15.9436676887
 20
-5.8645179917
 10
15.8504577132
 20
-5.9410529133
 10
15.7519815856
 20
-6.0092785761
 10
15.7009185407
 20
-6.0401798722
  0
LWPOLYLINE
  5
2D7
100
AcDbEntity
  8
ASSI
100
AcDbPolyline
 62
7
  6
CONTINUOUS
 90
16
 70
0
 10
16.5878018923
 20
-4.3785658599
 10
16.5704234823
 20
-4.5363701689
 10
16.5461483001
 20
-4.6890501214
 10
16.515031088
 20
-4.8362593094
 10
16.4771423309
 20
-4.9776631385
 10
16.4325677482
 20
-5.1129410901
 10
16.3814081577
 20
-5.2417866799
 10
16.323779606
 20
-5.3639073361
 10
16.2598126463
 20
-5.4790262964
 10
16.1896521088
 20
-5.5868828184
 10
16.1134571055
 20
-5.6872322644
 10
16.0314003651
 20
-5.779847207
 10
15.9436676887
 20
-5.8645179917
 10
15.8504577132
 20
-5.9410529133
 10
15.7519815856
 20
-6.0092785761
 10
15.7009185407
 20
-6.0401798722
  0
LWPOLYLINE
  5
2D8
100
AcDbEntity
  8
0
100
AcDbPolyline
 62
7
  6
CONTINUOUS
 90
16
 70
0
 10
16.5878018923
 20
-21.1162065342
 10
16.5704234823
 20
-21.2740108432
 10
16.5461483001
 20
-21.4266907956
 10
16.515031088
 20
-21.5738999837
 10
16.4771423309
 20
-21.7153038128
 10
16.4325677482
 20
-21.8505817644
 10
16.3814081577
 20
-21.9794273541
 10
16.323779606
 20
-22.1015480103
 10
16.2598126463
 20
-22.2166669706
 10
16.1896521088
 20
-22.3245234926
 10
16.1134571055
 20
-22.4248729387
 10
16.0314003651
 20
-22.5174878813
 10
15.9436676887
 20
-22.6021586659
 10
15.8504577132
 20
-22.6786935876
 10
15.7519815856
 20
-22.7469192504
 10
15.7009185407
 20
-22.7778205464
  0
LWPOLYLINE
  5
2D9
100
AcDbEntity
  8
ASSI
100
AcDbPolyline
 62
7
  6
CONTINUOUS
 90
16
 70
0
 10
16.5878018923
 20
-21.1162065342
 10
16.5704234823
 20
-21.2740108432
 10
16.5461483001
 20
-21.4266907956
 10
16.515031088
 20
-21.5738999837
 10
16.4771423309
 20
-21.7153038128
 10
16.4325677482
 20
-21.8505817644
 10
16.3814081577
 20
-21.9794273541
 10
16.323779606
 20
-22.1015480103
 10
16.2598126463
 20
-22.2166669706
 10
16.1896521088
 20
-22.3245234926
 10
16.1134571055
 20
-22.4248729387
 10
16.0314003651
 20
-22.5174878813
 10
15.9436676887
 20
-22.6021586659
 10
15.8504577132
 20
-22.6786935876
 10
15.7519815856
 20
-22.7469192504
 10
15.7009185407
 20
-22.7778205464
  0
LWPOLYLINE
  5
2DA
100
AcDbEntity
  8
0
100
AcDbPolyline
 62
7
  6
CONTINUOUS
 90
13
 70
0
 10
11.9033330735
 20
-15.0575435465
 10
11.852018701
 20
-15.1251537867
 10
11.7817513538
 20
-15.2331701973
 10
11.7178126952
 20
-15.348177939
 10
11.66024567
 20
-15.4702244531
 10
11.6090073335
 20
-15.5992622983
 10
11.5644445893
 20
-15.734417838
 10
11.526602736
 20
-15.8757325849
 10
11.495436475
 20
-16.0231650264
 10
11.4711568141
 20
-16.1757169869
 10
11.4538340892
 20
-16.3330557415
 10
11.4433979643
 20
-16.4955140151
 10
11.4398484396
 20
-16.6630918079
  0
LWPOLYLINE
  5
2DB
100
AcDbEntity
  8
ASSI
100
AcDbPolyline
 62
7
  6
CONTINUOUS
 90
13
 70
0
 10
11.9033330735
 20
-15.0575435465
 10
11.852018701
 20
-15.1251537867
 10
11.7817513538
 20
-15.2331701973
 10
11.7178126952
 20
-15.348177939
 10
11.66024567
 20
-15.4702244531
 10
11.6090073335
 20
-15.5992622983
 10
11.5644445893
 20
-15.734417838
 10
11.526602736
 20
-15.8757325849
 10
11.495436475
 20
-16.0231650264
 10
11.4711568141
 20
-16.1757169869
 10
11.4538340892
 20
-16.3330557415
 10
11.4433979643
 20
-16.4955140151
 10
11.4398484396
 20
-16.6630918079
  0
LWPOLYLINE
  5
2DC
100
AcDbEntity
  8
0
100
AcDbPolyline
 62
7
  6
CONTINUOUS
 90
16
 70
0
 10
11.3507083475
 20
-15.2435208925
 10
11.403164515
 20
-15.2146603501
 10
11.511492467
 20
-15.1634976684
 10
11.6243838588
 20
-15.1210500724
 10
11.7415829102
 20
-15.0874138086
 10
11.8628240827
 20
-15.0626651391
 10
11.9878327526
 20
-15.0468601666
 10
12.1163257283
 20
-15.0400347386
 10
12.2480118179
 20
-15.0422043509
 10
12.3825926739
 20
-15.0533641001
 10
12.5197634532
 20
-15.0734887195
 10
12.6592133869
 20
-15.1025326279
 10
12.8006265617
 20
-15.1404300374
 10
12.9436826284
 20
-15.1870951061
 10
13.0880575
 20
-15.2424221252
 10
13.2334241225
 20
-15.3062857703
  0
LWPOLYLINE
  5
2DD
100
AcDbEntity
  8
ASSI
100
AcDbPolyline
 62
7
  6
CONTINUOUS
 90
16
 70
0
 10
11.3507083475
 20
-15.2435208925
 10
11.403164515
 20
-15.2146603501
 10
11.511492467
 20
-15.1634976684
 10
11.6243838588
 20
-15.1210500724
 10
11.7415829102
 20
-15.0874138086
 10
11.8628240827
 20
-15.0626651391
 10
11.9878327526
 20
-15.0468601666
 10
12.1163257283
 20
-15.0400347386
 10
12.2480118179
 20
-15.0422043509
 10
12.3825926739
 20
-15.0533641001
 10
12.5197634532
 20
-15.0734887195
 10
12.6592133869
 20
-15.1025326279
 10
12.8006265617
 20
-15.1404300374
 10
12.9436826284
 20
-15.1870951061
 10
13.0880575
 20
-15.2424221252
 10
13.2334241225
 20
-15.3062857703
  0
LINE
  5
2DE
100
AcDbEntity
  8
0
100
AcDbLine
 62
7
  6
CONTINUOUS
 10
39.2480511443
 20
9.8361174348
 11
40.2575878617
 21
10.8894120305
  0
LINE
  5
2DF
100
AcDbEntity
  8
ASSI
100
AcDbLine
 62
7
  6
CONTINUOUS
 10
39.2480511443
 20
9.8361174348
 11
40.2575878617
 21
10.8894120305
  0
LWPOLYLINE
  5
2E0
100
AcDbEntity
  8
0
100
AcDbPolyline
 62
7
  6
CONTINUOUS
 90
51
 70
0
 10
15.7009185407
 20
-22.7778205464
 10
15.6484623732
 20
-22.8066810889
 10
15.5401344212
 20
-22.8578437706
 10
15.4272430294
 20
-22.9002913666
 10
15.3100439779
 20
-22.9339276303
 10
15.1888028055
 20
-22.9586762999
 10
15.0637941356
 20
-22.9744812723
 10
14.9353011599
 20
-22.9813067003
 10
14.8036150703
 20
-22.979137088
 10
14.6690342142
 20
-22.9679773389
 10
14.531863435
 20
-22.9478527195
 10
14.3924135013
 20
-22.9188088111
 10
14.2510003265
 20
-22.8809114016
 10
14.1079442598
 20
-22.8342463328
 10
13.9635693882
 20
-22.7789193138
 10
13.8182027657
 20
-22.7150556687
 10
13.6721737175
 20
-22.6428000709
 10
13.5258131034
 20
-22.5623162268
 10
13.3794524894
 20
-22.473786465
 10
13.2334234418
 20
-22.3774113411
 10
13.08805682
 20
-22.2734092168
 10
12.9436819494
 20
-22.1620157153
 10
12.8006258839
 20
-22.0434831861
 10
12.6592127097
 20
-21.9180801665
 10
12.5197627749
 20
-21.7860907448
 10
12.3825919942
 20
-21.6478139427
 10
12.24801114
 20
-21.5035630505
 10
12.1163250563
 20
-21.3536648282
 10
11.9878320897
 20
-21.198458896
 10
11.8628234324
 20
-21.0382970116
 10
11.7415822782
 20
-20.8735420485
 10
11.624383248
 20
-20.7045672352
 10
11.5114918744
 20
-20.5317554619
 10
11.4031639377
 20
-20.3554983428
 10
11.2996447387
 20
-20.176195073
 10
11.2011686182
 20
-19.9942515915
 10
11.1079586404
 20
-19.8100800462
 10
11.0202259591
 20
-19.6240976696
 10
10.9381692216
 20
-19.436725568
 10
10.8619742273
 20
-19.2483879511
 10
10.7918137065
 20
-19.0595117136
 10
10.7278467811
 20
-18.8705252638
 10
10.6702182797
 20
-18.6818565964
 10
10.6190587497
 20
-18.4939332272
 10
10.5744842375
 20
-18.3071817499
 10
10.5365955566
 20
-18.1220250757
 10
10.505478419
 20
-17.9388827006
 10
10.4812033034
 20
-17.758170605
 10
10.463824947
 20
-17.5802984069
 10
10.4533823714
 20
-17.4056684841
 10
10.4498989459
 20
-17.2346762385
  0
LWPOLYLINE
  5
2E1
100
AcDbEntity
  8
ASSI
100
AcDbPolyline
 62
7
  6
CONTINUOUS
 90
51
 70
0
 10
15.7009185407
 20
-22.7778205464
 10
15.6484623732
 20
-22.8066810889
 10
15.5401344212
 20
-22.8578437706
 10
15.4272430294
 20
-22.9002913666
 10
15.3100439779
 20
-22.9339276303
 10
15.1888028055
 20
-22.9586762999
 10
15.0637941356
 20
-22.9744812723
 10
14.9353011599
 20
-22.9813067003
 10
14.8036150703
 20
-22.979137088
 10
14.6690342142
 20
-22.9679773389
 10
14.531863435
 20
-22.9478527195
 10
14.3924135013
 20
-22.9188088111
 10
14.2510003265
 20
-22.8809114016
 10
14.1079442598
 20
-22.8342463328
 10
13.9635693882
 20
-22.7789193138
 10
13.8182027657
 20
-22.7150556687
 10
13.6721737175
 20
-22.6428000709
 10
13.5258131034
 20
-22.5623162268
 10
13.3794524894
 20
-22.473786465
 10
13.2334234418
 20
-22.3774113411
 10
13.08805682
 20
-22.2734092168
 10
12.9436819494
 20
-22.1620157153
 10
12.8006258839
 20
-22.0434831861
 10
12.6592127097
 20
-21.9180801665
 10
12.5197627749
 20
-21.7860907448
 10
12.3825919942
 20
-21.6478139427
 10
12.24801114
 20
-21.5035630505
 10
12.1163250563
 20
-21.3536648282
 10
11.9878320897
 20
-21.198458896
 10
11.8628234324
 20
-21.0382970116
 10
11.7415822782
 20
-20.8735420485
 10
11.624383248
 20
-20.7045672352
 10
11.5114918744
 20
-20.5317554619
 10
11.4031639377
 20
-20.3554983428
 10
11.2996447387
 20
-20.176195073
 10
11.2011686182
 20
-19.9942515915
 10
11.1079586404
 20
-19.8100800462
 10
11.0202259591
 20
-19.6240976696
 10
10.9381692216
 20
-19.436725568
 10
10.8619742273
 20
-19.2483879511
 10
10.7918137065
 20
-19.0595117136
 10
10.7278467811
 20
-18.8705252638
 10
10.6702182797
 20
-18.6818565964
 10
10.6190587497
 20
-18.4939332272
 10
10.5744842375
 20
-18.3071817499
 10
10.5365955566
 20
-18.1220250757
 10
10.505478419
 20
-17.9388827006
 10
10.4812033034
 20
-17.758170605
 10
10.463824947
 20
-17.5802984069
 10
10.4533823714
 20
-17.4056684841
 10
10.4498989459
 20
-17.2346762385
  0
LINE
  5
2E2
100
AcDbEntity
  8
0
100
AcDbLine
 62
7
  6
CONTINUOUS
 10
40.9439862093
 20
9.7005352194
 11
40.9654875612
 21
9.688540272
  0
LINE
  5
2E3
100
AcDbEntity
  8
ASSI
100
AcDbLine
 62
7
  6
CONTINUOUS
 10
40.9439862093
 20
9.7005352194
 11
40.9654875612
 21
9.688540272
  0
LINE
  5
2E4
100
AcDbEntity
  8
0
100
AcDbLine
 62
7
  6
CONTINUOUS
 10
39.2480511443
 20
9.8361174348
 11
-44.7233361907
 21
58.3201440733
  0
LINE
  5
2E5
100
AcDbEntity
  8
ASSI
100
AcDbLine
 62
7
  6
CONTINUOUS
 10
39.2480511443
 20
9.8361174348
 11
-44.7233361907
 21
58.3201440733
  0
LINE
  5
2E6
100
AcDbEntity
  8
0
100
AcDbLine
 62
7
  6
CONTINUOUS
 10
40.2579502919
 20
10.9140307694
 11
-44.3198832767
 21
59.7482118627
  0
LINE
  5
2E7
100
AcDbEntity
  8
ASSI
100
AcDbLine
 62
7
  6
CONTINUOUS
 10
40.2579502919
 20
10.9140307694
 11
-44.3198832767
 21
59.7482118627
  0
LINE
  5
2E8
100
AcDbEntity
  8
0
100
AcDbLine
 62
7
  6
CONTINUOUS
 10
44.3198832767
 20
13.2593246716
 11
-40.5320694895
 21
62.251778754
  0
LINE
  5
2E9
100
AcDbEntity
  8
ASSI
100
AcDbLine
 62
7
  6
CONTINUOUS
 10
44.3198832767
 20
13.2593246716
 11
-40.5320694895
 21
62.251778754
  0
LWPOLYLINE
  5
2EA
100
AcDbEntity
  8
CURVE
100
AcDbPolyline
 62
250
  6
CONTINUOUS
 90
73
 70
0
 10
43.0421498158
 20
-48.8712822477
 10
43.0410068376
 20
-48.8649461897
 10
43.0392548167
 20
-48.8591423906
 10
43.0369613585
 20
-48.8538173705
 10
43.0341940681
 20
-48.8489176492
 10
43.0310205509
 20
-48.8443897466
 10
43.0275084121
 20
-48.8401801828
 10
43.0237252569
 20
-48.8362354775
 10
43.0197386905
 20
-48.8325021507
 10
43.0156163183
 20
-48.8289267224
 10
43.0114257454
 20
-48.8254557124
 10
43.0008325836
 20
-48.8169706686
 10
42.9901815995
 20
-48.8088561368
 10
42.9794187468
 20
-48.8011595856
 10
42.9684899791
 20
-48.7939284836
 10
42.9573412501
 20
-48.7872102992
 10
42.9459185132
 20
-48.7810525011
 10
42.9341677223
 20
-48.7755025578
 10
42.9220348307
 20
-48.7706079379
 10
42.9084569435
 20
-48.7661006215
 10
42.8944075761
 20
-48.7624020945
 10
42.8799240013
 20
-48.7595013596
 10
42.865043492
 20
-48.7573874194
 10
42.8498033209
 20
-48.7560492767
 10
42.8342407609
 20
-48.755475934
 10
42.8183930849
 20
-48.755656394
 10
42.8022975656
 20
-48.7565796593
 10
42.7859914759
 20
-48.7582347326
 10
42.7695120886
 20
-48.7606106165
 10
42.7529071278
 20
-48.7636928199
 10
42.7361759688
 20
-48.7674702401
 10
42.7193281929
 20
-48.7719295617
 10
42.7023733812
 20
-48.7770574691
 10
42.6853211148
 20
-48.7828406468
 10
42.668180975
 20
-48.7892657795
 10
42.6484928735
 20
-48.7973791631
 10
42.6287274512
 20
-48.8062874235
 10
42.6089097072
 20
-48.815963871
 10
42.5890646406
 20
-48.8263818161
 10
42.5692172505
 20
-48.837514569
 10
42.5493925359
 20
-48.8493354403
 10
42.5301080131
 20
-48.8615046303
 10
42.5108922381
 20
-48.8743141526
 10
42.4917686325
 20
-48.8877754926
 10
42.472760618
 20
-48.9019001356
 10
42.4538916162
 20
-48.9166995668
 10
42.43706869
 20
-48.9305857971
 10
42.42039746
 20
-48.9450202079
 10
42.4038983707
 20
-48.9599964486
 10
42.3875918662
 20
-48.9755081687
 10
42.3714983908
 20
-48.9915490177
 10
42.3542452685
 20
-49.0096011556
 10
42.3372975342
 20
-49.0282388324
 10
42.3206838899
 20
-49.0474280497
 10
42.3044330378
 20
-49.0671348093
 10
42.2885736798
 20
-49.0873251127
 10
42.2731345181
 20
-49.1079649619
 10
42.2581442548
 20
-49.1290203583
 10
42.2436315919
 20
-49.1504573037
 10
42.2303868993
 20
-49.1710243361
 10
42.2176042392
 20
-49.1918769306
 10
42.2052940074
 20
-49.2129906241
 10
42.1934665996
 20
-49.2343409532
 10
42.1821324116
 20
-49.2559034546
 10
42.1713018391
 20
-49.277653665
 10
42.1609852779
 20
-49.2995671211
 10
42.1538012197
 20
-49.3156269365
 10
42.1469351501
 20
-49.3317399698
 10
42.1404264392
 20
-49.3478857035
 10
42.1343144573
 20
-49.3640436201
 10
42.1286385745
 20
-49.3801932021
 10
42.1234381611
 20
-49.3963139321
 10
42.1187525873
 20
-49.4123852926
  0
LWPOLYLINE
  5
2EB
100
AcDbEntity
  8
CURVE
100
AcDbPolyline
 62
250
  6
CONTINUOUS
 90
22
 70
0
 10
42.3895956672
 20
-49.9077424493
 10
42.3873679986
 20
-49.8940662213
 10
42.3852412186
 20
-49.8803175835
 10
42.3832323697
 20
-49.8664847757
 10
42.3813584942
 20
-49.8525560381
 10
42.3796366347
 20
-49.8385196107
 10
42.3780838338
 20
-49.8243637334
 10
42.3766136454
 20
-49.8089407983
 10
42.3753603205
 20
-49.7933700346
 10
42.3743239298
 20
-49.7776564629
 10
42.3735045437
 20
-49.7618051037
 10
42.3729022329
 20
-49.7458209777
 10
42.3725170678
 20
-49.7297091052
 10
42.372349119
 20
-49.713474507
 10
42.3723984571
 20
-49.6971222035
 10
42.3726651525
 20
-49.6806572152
 10
42.3731492759
 20
-49.6640845628
 10
42.3738508978
 20
-49.6474092667
 10
42.3747700888
 20
-49.6306363475
 10
42.3759069193
 20
-49.6137708257
 10
42.3772614599
 20
-49.596817722
 10
42.3788337813
 20
-49.5797820567
  0
LINE
  5
2EC
100
AcDbEntity
  8
0
100
AcDbLine
 62
7
  6
CONTINUOUS
 10
39.5270270784
 20
-61.4787166561
 11
39.5270270784
 21
9.3529169433
  0
LINE
  5
2ED
100
AcDbEntity
  8
ASSI
100
AcDbLine
 62
7
  6
CONTINUOUS
 10
39.5270270784
 20
-61.4787166561
 11
39.5270270784
 21
9.3529169433
  0
LINE
  5
2EE
100
AcDbEntity
  8
0
100
AcDbLine
 62
7
  6
CONTINUOUS
 10
40.9654875612
 20
-61.8433345602
 11
40.9654875612
 21
9.688540272
  0
LINE
  5
2EF
100
AcDbEntity
  8
ASSI
100
AcDbLine
 62
7
  6
CONTINUOUS
 10
40.9654875612
 20
-61.8433345602
 11
40.9654875612
 21
9.688540272
  0
LINE
  5
2F0
100
AcDbEntity
  8
0
100
AcDbLine
 62
7
  6
CONTINUOUS
 10
40.2579502919
 20
10.9140307694
 11
40.2575878617
 21
10.8894120305
  0
LINE
  5
2F1
100
AcDbEntity
  8
ASSI
100
AcDbLine
 62
7
  6
CONTINUOUS
 10
40.2579502919
 20
10.9140307694
 11
40.2575878617
 21
10.8894120305
  0
LINE
  5
2F2
100
AcDbEntity
  8
0
100
AcDbLine
 62
7
  6
CONTINUOUS
 10
39.5270270784
 20
9.3529169433
 11
39.2480511443
 21
9.8361174348
  0
LINE
  5
2F3
100
AcDbEntity
  8
ASSI
100
AcDbLine
 62
7
  6
CONTINUOUS
 10
39.5270270784
 20
9.3529169433
 11
39.2480511443
 21
9.8361174348
  0
LINE
  5
2F4
100
AcDbEntity
  8
0
100
AcDbLine
 62
7
  6
CONTINUOUS
 10
40.9439862093
 20
9.7005352194
 11
40.2575878617
 21
10.8894120305
  0
LINE
  5
2F5
100
AcDbEntity
  8
ASSI
100
AcDbLine
 62
7
  6
CONTINUOUS
 10
40.9439862093
 20
9.7005352194
 11
40.2575878617
 21
10.8894120305
  0
LINE
  5
2F6
100
AcDbEntity
  8
CURVE
100
AcDbLine
 62
250
  6
CONTINUOUS
 10
42.0780359473
 20
-54.6554353402
 11
42.0780359473
 21
-55.0814638153
  0
LINE
  5
2F7
100
AcDbEntity
  8
CURVE
100
AcDbLine
 62
250
  6
CONTINUOUS
 10
42.078144919
 20
-56.9180133901
 11
42.078144919
 21
-56.4552151761
  0
LINE
  5
2F8
100
AcDbEntity
  8
CURVE
100
AcDbLine
 62
250
  6
CONTINUOUS
 10
42.078144919
 20
-55.6652426256
 11
42.078144919
 21
-55.2395056304
  0
LINE
  5
2F9
100
AcDbEntity
  8
CURVE
100
AcDbLine
 62
250
  6
CONTINUOUS
 10
42.078144919
 20
-54.2417454769
 11
42.078144919
 21
-53.8160697169
  0
LINE
  5
2FA
100
AcDbEntity
  8
CURVE
100
AcDbLine
 62
250
  6
CONTINUOUS
 10
42.078144919
 20
-52.9685123343
 11
42.078144919
 21
-52.5469989398
  0
LINE
  5
2FB
100
AcDbEntity
  8
CURVE
100
AcDbLine
 62
250
  6
CONTINUOUS
 10
42.078144919
 20
-51.6490735059
 11
42.078144919
 21
-51.2369421713
  0
LINE
  5
2FC
100
AcDbEntity
  8
CURVE
100
AcDbLine
 62
250
  6
CONTINUOUS
 10
42.8914697039
 20
-49.3940511727
 11
42.8914697039
 21
-49.6375221639
  0
LINE
  5
2FD
100
AcDbEntity
  8
CURVE
100
AcDbLine
 62
250
  6
CONTINUOUS
 10
43.1908831917
 20
-49.4621847383
 11
43.1908831917
 21
-49.2337585035
  0
LINE
  5
2FE
100
AcDbEntity
  8
CURVE
100
AcDbLine
 62
250
  6
CONTINUOUS
 10
43.2589505753
 20
-51.027366478
 11
43.2589505753
 21
-50.6194742571
  0
LINE
  5
2FF
100
AcDbEntity
  8
CURVE
100
AcDbLine
 62
250
  6
CONTINUOUS
 10
43.5413642698
 20
-50.3822748425
 11
43.5413642698
 21
-50.9624545389
  0
LINE
  5
300
100
AcDbEntity
  8
CURVE
100
AcDbLine
 62
250
  6
CONTINUOUS
 10
43.9063360957
 20
-54.0970658355
 11
43.9063360957
 21
-53.6710373604
  0
LINE
  5
301
100
AcDbEntity
  8
CURVE
100
AcDbLine
 62
250
  6
CONTINUOUS
 10
43.9063361077
 20
-49.5012829402
 11
43.9063361077
 21
-49.0769687737
  0
LINE
  5
302
100
AcDbEntity
  8
CURVE
100
AcDbLine
 62
250
  6
CONTINUOUS
 10
43.9063361077
 20
-48.4245650811
 11
43.9063361077
 21
-48.0147753031
  0
LINE
  5
303
100
AcDbEntity
  8
CURVE
100
AcDbLine
 62
250
  6
CONTINUOUS
 10
43.9063360957
 20
-49.626385675
 11
43.9063360957
 21
-50.0754018708
  0
LINE
  5
304
100
AcDbEntity
  8
CURVE
100
AcDbLine
 62
250
  6
CONTINUOUS
 10
43.9063360957
 20
-50.8835033272
 11
43.9063360957
 21
-51.3049089477
  0
LINE
  5
305
100
AcDbEntity
  8
CURVE
100
AcDbLine
 62
250
  6
CONTINUOUS
 10
43.9063360957
 20
-51.3718072563
 11
43.9063360957
 21
-51.788576142
  0
LINE
  5
306
100
AcDbEntity
  8
CURVE
100
AcDbLine
 62
250
  6
CONTINUOUS
 10
43.9063360957
 20
-52.3826521625
 11
43.9063360957
 21
-52.4424030902
  0
LINE
  5
307
100
AcDbEntity
  8
CURVE
100
AcDbLine
 62
250
  6
CONTINUOUS
 10
43.9063360957
 20
-53.0341227775
 11
43.9063360957
 21
-53.4416933091
  0
LINE
  5
308
100
AcDbEntity
  8
CURVE
100
AcDbLine
 62
250
  6
CONTINUOUS
 10
43.9063360957
 20
-54.9112124379
 11
43.9063360957
 21
-55.2866499653
  0
LINE
  5
309
100
AcDbEntity
  8
0
100
AcDbLine
 62
7
  6
CONTINUOUS
 10
45.0274205459
 20
-59.8145560459
 11
45.0274205459
 21
12.0338341742
  0
LINE
  5
30A
100
AcDbEntity
  8
ASSI
100
AcDbLine
 62
7
  6
CONTINUOUS
 10
45.0274205459
 20
-59.8145560459
 11
45.0274205459
 21
12.0338341742
  0
LWPOLYLINE
  5
30B
100
AcDbEntity
  8
CURVE
100
AcDbPolyline
 62
250
  6
CONTINUOUS
 90
48
 70
0
 10
43.1908831917
 20
-49.2337585035
 10
43.1909577933
 20
-49.2271587392
 10
43.1911824121
 20
-49.2204665556
 10
43.1915582685
 20
-49.2136880467
 10
43.1920865833
 20
-49.2068293065
 10
43.1927685769
 20
-49.199896429
 10
43.1936054701
 20
-49.1928955082
 10
43.1945984834
 20
-49.1858326381
 10
43.1957488375
 20
-49.1787139126
 10
43.1970577529
 20
-49.1715454259
 10
43.1985264503
 20
-49.1643332718
 10
43.2001561503
 20
-49.1570835444
 10
43.2019480735
 20
-49.1498023376
 10
43.2039034405
 20
-49.1424957455
 10
43.2060234719
 20
-49.1351698621
 10
43.2083093884
 20
-49.1278307813
 10
43.2107624105
 20
-49.1204845971
 10
43.2133837588
 20
-49.1131374036
 10
43.2162468433
 20
-49.1056079934
 10
43.2192826921
 20
-49.0980883262
 10
43.2224857729
 20
-49.0905827979
 10
43.225850554
 20
-49.0830958043
 10
43.2293715031
 20
-49.0756317414
 10
43.2330430884
 20
-49.0681950051
 10
43.2368597778
 20
-49.0607899913
 10
43.2408160394
 20
-49.053421096
 10
43.244906341
 20
-49.0460927149
 10
43.2491251507
 20
-49.0388092441
 10
43.2534669365
 20
-49.0315750795
 10
43.2579261663
 20
-49.024394617
 10
43.2624973082
 20
-49.0172722524
 10
43.2671748301
 20
-49.0102123818
 10
43.2719532001
 20
-49.003219401
 10
43.2768268861
 20
-48.9962977059
 10
43.2817903561
 20
-48.9894516925
 10
43.286838078
 20
-48.9826857566
 10
43.29196452
 20
-48.9760042942
 10
43.2971641499
 20
-48.9694117013
 10
43.3024314358
 20
-48.9629123736
 10
43.3077608456
 20
-48.9565107072
 10
43.3131468473
 20
-48.9502110979
 10
43.318583909
 20
-48.9440179416
 10
43.3240664986
 20
-48.9379356344
 10
43.3295890841
 20
-48.931968572
 10
43.3351461335
 20
-48.9261211504
 10
43.3407321147
 20
-48.9203977656
 10
43.3463414959
 20
-48.9148028134
 10
43.3519687448
 20
-48.9093406897
  0
LINE
  5
30C
100
AcDbEntity
  8
0
100
AcDbLine
 62
7
  6
CONTINUOUS
 10
44.3198832767
 20
13.2593246716
 11
45.0274205459
 21
12.0338341742
  0
LINE
  5
30D
100
AcDbEntity
  8
ASSI
100
AcDbLine
 62
7
  6
CONTINUOUS
 10
44.3198832767
 20
13.2593246716
 11
45.0274205459
 21
12.0338341742
  0
LWPOLYLINE
  5
30E
100
AcDbEntity
  8
CURVE
100
AcDbPolyline
 62
250
  6
CONTINUOUS
 90
49
 70
0
 10
42.3788337813
 20
-49.5797820567
 10
42.3797401698
 20
-49.5714859862
 10
42.3808356139
 20
-49.5630875916
 10
42.3821195821
 20
-49.5545957592
 10
42.3835915428
 20
-49.5460193752
 10
42.3852509647
 20
-49.5373673259
 10
42.3870973161
 20
-49.5286484975
 10
42.3891300657
 20
-49.5198717763
 10
42.391348682
 20
-49.5110460485
 10
42.3937526334
 20
-49.5021802004
 10
42.3963413886
 20
-49.4932831183
 10
42.399114416
 20
-49.4843636883
 10
42.4020711841
 20
-49.4754307968
 10
42.4052111615
 20
-49.4664933301
 10
42.4085338166
 20
-49.4575601743
 10
42.4120386181
 20
-49.4486402157
 10
42.4157250344
 20
-49.4397423407
 10
42.419592534
 20
-49.4308754353
 10
42.4236405855
 20
-49.422048386
 10
42.4278686574
 20
-49.4132700789
 10
42.4322762181
 20
-49.4045494004
 10
42.4368627363
 20
-49.3958952366
 10
42.4416276804
 20
-49.3873164738
 10
42.446570519
 20
-49.3788219983
 10
42.4516907206
 20
-49.3704206963
 10
42.4569574419
 20
-49.3621655903
 10
42.4623908315
 20
-49.3540183662
 10
42.4679826271
 20
-49.3459859435
 10
42.4737245663
 20
-49.3380752414
 10
42.4796083871
 20
-49.3302931794
 10
42.4856258269
 20
-49.3226466766
 10
42.4917686237
 20
-49.3151426526
 10
42.498028515
 20
-49.3077880266
 10
42.5043972387
 20
-49.300589718
 10
42.5108665325
 20
-49.2935546462
 10
42.517428134
 20
-49.2866897303
 10
42.524073781
 20
-49.28000189
 10
42.5307952112
 20
-49.2734980443
 10
42.5375841624
 20
-49.2671851128
 10
42.5444323723
 20
-49.2610700147
 10
42.5513315785
 20
-49.2551596694
 10
42.5582735189
 20
-49.2494609962
 10
42.5652499311
 20
-49.2439809145
 10
42.5722525529
 20
-49.2387263436
 10
42.579273122
 20
-49.2337042029
 10
42.5863033761
 20
-49.2289214117
 10
42.5933350529
 20
-49.2243848893
 10
42.6003598902
 20
-49.2201015551
 10
42.6073696257
 20
-49.2160783285
  0
LWPOLYLINE
  5
30F
100
AcDbEntity
  8
CURVE
100
AcDbPolyline
 62
250
  6
CONTINUOUS
 90
32
 70
0
 10
42.1187525873
 20
-49.4123852926
 10
42.1111498741
 20
-49.4411398969
 10
42.1042008466
 20
-49.4697793085
 10
42.0978737947
 20
-49.4982996897
 10
42.092137008
 20
-49.5266972027
 10
42.0869587763
 20
-49.5549680101
 10
42.0823073894
 20
-49.583108274
 10
42.0781511369
 20
-49.6111141568
 10
42.0744583087
 20
-49.6389818209
 10
42.0711971945
 20
-49.6667074287
 10
42.068336084
 20
-49.6942871424
 10
42.065843267
 20
-49.7217171245
 10
42.0636870332
 20
-49.7489935372
 10
42.0610214899
 20
-49.7897235114
 10
42.0590179719
 20
-49.8301080828
 10
42.0576488804
 20
-49.8701579043
 10
42.0568866162
 20
-49.9098836285
 10
42.0567035803
 20
-49.9492959084
 10
42.0570721736
 20
-49.9884053967
 10
42.0579647971
 20
-50.0272227462
 10
42.0593538517
 20
-50.0657586096
 10
42.0612117384
 20
-50.1040236399
 10
42.0635108581
 20
-50.1420284898
 10
42.0662236118
 20
-50.1797838121
 10
42.0693224004
 20
-50.2173002596
 10
42.0727796249
 20
-50.254588485
 10
42.0765676861
 20
-50.2916591413
 10
42.0806589851
 20
-50.3285228811
 10
42.0850259228
 20
-50.3651903574
 10
42.0896409001
 20
-50.4016722228
 10
42.094476318
 20
-50.4379791302
 10
42.0995045774
 20
-50.4741217324
  0
LINE
  5
310
100
AcDbEntity
  8
CURVE
100
AcDbLine
 62
7
  6
CONTINUOUS
 10
42.2946996244
 20
-49.0800909511
 11
42.4709299842
 21
-48.9038605913
  0
LINE
  5
311
100
AcDbEntity
  8
CURVE
100
AcDbLine
 62
7
  6
CONTINUOUS
 10
42.1015246825
 20
-49.483276607
 11
42.8287645058
 21
-48.7560367837
  0
LINE
  5
312
100
AcDbEntity
  8
CURVE
100
AcDbLine
 62
7
  6
CONTINUOUS
 10
42.0654816721
 20
-49.7293303315
 11
42.9876146866
 21
-48.8071973169
  0
LINE
  5
313
100
AcDbEntity
  8
CURVE
100
AcDbLine
 62
7
  6
CONTINUOUS
 10
42.0573854154
 20
-49.9474373022
 11
42.3748207838
 21
-49.6300019337
  0
LINE
  5
314
100
AcDbEntity
  8
CURVE
100
AcDbLine
 62
7
  6
CONTINUOUS
 10
42.8164560597
 20
-49.1883666579
 11
43.9063361077
 21
-48.0984866098
  0
LINE
  5
315
100
AcDbEntity
  8
CURVE
100
AcDbLine
 62
7
  6
CONTINUOUS
 10
42.0644377813
 20
-50.1503956503
 11
42.3794328847
 21
-49.8354005469
  0
LINE
  5
316
100
AcDbEntity
  8
CURVE
100
AcDbLine
 62
7
  6
CONTINUOUS
 10
42.8865582732
 20
-49.3282751584
 11
43.9063361077
 21
-48.3084973238
  0
LINE
  5
317
100
AcDbEntity
  8
CURVE
100
AcDbLine
 62
7
  6
CONTINUOUS
 10
42.0824657484
 20
-50.3423783971
 11
42.6658353791
 21
-49.7590087665
  0
LINE
  5
318
100
AcDbEntity
  8
CURVE
100
AcDbLine
 62
7
  6
CONTINUOUS
 10
42.8914697039
 20
-49.5333744417
 11
43.1908831917
 21
-49.2339609539
  0
LINE
  5
319
100
AcDbEntity
  8
CURVE
100
AcDbLine
 62
7
  6
CONTINUOUS
 10
42.2321552221
 20
-50.4026996375
 11
43.1908831917
 21
-49.443971668
  0
LINE
  5
31A
100
AcDbEntity
  8
CURVE
100
AcDbLine
 62
7
  6
CONTINUOUS
 10
42.6871399749
 20
-50.1577255988
 11
43.6064096276
 21
-49.2384559461
  0
LINE
  5
31B
100
AcDbEntity
  8
CURVE
100
AcDbLine
 62
7
  6
CONTINUOUS
 10
43.1421247277
 20
-49.91275156
 11
43.9063361077
 21
-49.1485401799
  0
LINE
  5
31C
100
AcDbEntity
  8
CURVE
100
AcDbLine
 62
7
  6
CONTINUOUS
 10
43.5971094805
 20
-49.6677775212
 11
43.9063361077
 21
-49.3585508939
  0
LINE
  5
31D
100
AcDbEntity
  8
CURVE
100
AcDbLine
 62
7
  6
CONTINUOUS
 10
42.078144919
 20
-51.3967527966
 11
43.4205981286
 21
-50.054299587
  0
LINE
  5
31E
100
AcDbEntity
  8
CURVE
100
AcDbLine
 62
7
  6
CONTINUOUS
 10
42.078144919
 20
-51.6067635107
 11
43.9063360957
 21
-49.778572334
  0
LINE
  5
31F
100
AcDbEntity
  8
CURVE
100
AcDbLine
 62
7
  6
CONTINUOUS
 10
42.2847375573
 20
-51.6101815863
 11
42.7534211423
 21
-51.1414980013
  0
LINE
  5
320
100
AcDbEntity
  8
CURVE
100
AcDbLine
 62
7
  6
CONTINUOUS
 10
43.2589505753
 20
-50.6359685684
 11
43.9063360957
 21
-49.988583048
  0
LINE
  5
321
100
AcDbEntity
  8
CURVE
100
AcDbLine
 62
7
  6
CONTINUOUS
 10
42.5434524143
 20
-51.5614774434
 11
43.0246709231
 21
-51.0802589346
  0
LINE
  5
322
100
AcDbEntity
  8
CURVE
100
AcDbLine
 62
7
  6
CONTINUOUS
 10
43.2589505753
 20
-50.8459792824
 11
43.5413642698
 21
-50.5635655879
  0
LINE
  5
323
100
AcDbEntity
  8
CURVE
100
AcDbLine
 62
7
  6
CONTINUOUS
 10
42.8021672713
 20
-51.5127733004
 11
43.5413642698
 21
-50.7735763019
  0
LINE
  5
324
100
AcDbEntity
  8
CURVE
100
AcDbLine
 62
7
  6
CONTINUOUS
 10
43.0608821283
 20
-51.4640691574
 11
43.568330014
 21
-50.9566212717
  0
LINE
  5
325
100
AcDbEntity
  8
CURVE
100
AcDbLine
 62
7
  6
CONTINUOUS
 10
42.078144919
 20
-52.6568170807
 11
42.3856008334
 21
-52.3493611663
  0
LINE
  5
326
100
AcDbEntity
  8
CURVE
100
AcDbLine
 62
7
  6
CONTINUOUS
 10
43.3195969853
 20
-51.4153650145
 11
43.8363106767
 21
-50.898651323
  0
LINE
  5
327
100
AcDbEntity
  8
CURVE
100
AcDbLine
 62
7
  6
CONTINUOUS
 10
42.078144919
 20
-52.8668277947
 11
42.9735641295
 21
-51.9714085842
  0
LINE
  5
328
100
AcDbEntity
  8
CURVE
100
AcDbLine
 62
7
  6
CONTINUOUS
 10
43.5783118423
 20
-51.3666608715
 11
43.9063360957
 21
-51.0386366181
  0
LWPOLYLINE
  5
329
100
AcDbEntity
  8
CURVE
100
AcDbPolyline
 62
250
  6
CONTINUOUS
 90
7
 70
0
 10
43.3519687448
 20
-48.9093406897
 10
43.3772684106
 20
-48.8853635466
 10
43.402698366
 20
-48.8617383509
 10
43.4282442113
 20
-48.8384269599
 10
43.4538915472
 20
-48.8153912311
 10
43.4796259742
 20
-48.7925930221
 10
43.5054330927
 20
-48.7699941902
  0
LINE
  5
32A
100
AcDbEntity
  8
CURVE
100
AcDbLine
 62
250
  6
CONTINUOUS
 10
42.078144919
 20
-51.2369421713
 11
43.9063360957
 21
-49.626385675
  0
LINE
  5
32B
100
AcDbEntity
  8
CURVE
100
AcDbLine
 62
250
  6
CONTINUOUS
 10
43.5054330927
 20
-48.7699941902
 11
43.5572078065
 21
-48.7252420879
  0
LINE
  5
32C
100
AcDbEntity
  8
CURVE
100
AcDbLine
 62
250
  6
CONTINUOUS
 10
43.6609959555
 20
-48.6364521385
 11
43.9063361077
 21
-48.4245650811
  0
LWPOLYLINE
  5
32D
100
AcDbEntity
  8
CURVE
100
AcDbPolyline
 62
250
  6
CONTINUOUS
 90
44
 70
0
 10
43.3549114068
 20
-48.4745664341
 10
43.3407422427
 20
-48.4867405498
 10
43.3265076672
 20
-48.4991652679
 10
43.3121782569
 20
-48.5119175907
 10
43.3043033869
 20
-48.5190460567
 10
43.2963993933
 20
-48.5262928067
 10
43.28847422
 20
-48.5336554268
 10
43.280535811
 20
-48.5411315025
 10
43.2725921101
 20
-48.5487186199
 10
43.2646510612
 20
-48.5564143646
 10
43.2567206083
 20
-48.5642163225
 10
43.2488086952
 20
-48.5721220794
 10
43.2409232659
 20
-48.580129221
 10
43.2330722642
 20
-48.5882353333
 10
43.2252636341
 20
-48.5964380021
 10
43.2175053194
 20
-48.6047348131
 10
43.2098052641
 20
-48.6131233521
 10
43.2021714121
 20
-48.6216012049
 10
43.1946117072
 20
-48.6301659575
 10
43.1871340934
 20
-48.6388151955
 10
43.1797465145
 20
-48.6475465049
 10
43.1724569146
 20
-48.6563574713
 10
43.1652732374
 20
-48.6652456806
 10
43.1582034269
 20
-48.6742087187
 10
43.1512554269
 20
-48.6832441713
 10
43.1444371815
 20
-48.6923496243
 10
43.1377566344
 20
-48.7015226634
 10
43.1312217297
 20
-48.7107608745
 10
43.1248404111
 20
-48.7200618433
 10
43.1186206226
 20
-48.7294231558
 10
43.1125703082
 20
-48.7388423977
 10
43.1066974116
 20
-48.7483171547
 10
43.1010098768
 20
-48.7578450128
 10
43.0955156478
 20
-48.7674235578
 10
43.0902226684
 20
-48.7770503754
 10
43.0851388824
 20
-48.7867230514
 10
43.0802722339
 20
-48.7964391717
 10
43.0756306667
 20
-48.8061963221
 10
43.0712221248
 20
-48.8159920884
 10
43.0670545519
 20
-48.8258240564
 10
43.0631358921
 20
-48.8356898119
 10
43.0594740892
 20
-48.8455869407
 10
43.0560770872
 20
-48.8555130287
 10
43.0529528299
 20
-48.8654656616
  0
LINE
  5
32E
100
AcDbEntity
  8
CURVE
100
AcDbLine
 62
250
  6
CONTINUOUS
 10
43.5572078065
 20
-48.7252420879
 11
43.6609959555
 21
-48.6364521385
  0
LINE
  5
32F
100
AcDbEntity
  8
CURVE
100
AcDbLine
 62
250
  6
CONTINUOUS
 10
43.3831711942
 20
-48.4506620012
 11
43.3549114068
 21
-48.4745664341
  0
LINE
  5
330
100
AcDbEntity
  8
CURVE
100
AcDbLine
 62
250
  6
CONTINUOUS
 10
43.9063360957
 20
-50.0754018708
 11
43.5413642698
 21
-50.3822748425
  0
LINE
  5
331
100
AcDbEntity
  8
CURVE
100
AcDbLine
 62
250
  6
CONTINUOUS
 10
43.5436636065
 20
-48.3161858294
 11
43.3831711942
 21
-48.4506620012
  0
LINE
  5
332
100
AcDbEntity
  8
CURVE
100
AcDbLine
 62
250
  6
CONTINUOUS
 10
43.9063361077
 20
-48.0147753031
 11
43.8410663791
 21
-48.069355276
  0
LINE
  5
333
100
AcDbEntity
  8
CURVE
100
AcDbLine
 62
250
  6
CONTINUOUS
 10
43.8410663791
 20
-48.069355276
 11
43.5436636065
 21
-48.3161858294
  0
LINE
  5
334
100
AcDbEntity
  8
CURVE
100
AcDbLine
 62
250
  6
CONTINUOUS
 10
43.2589505753
 20
-50.6194742571
 11
42.5804854479
 21
-51.1805410579
  0
LINE
  5
335
100
AcDbEntity
  8
CURVE
100
AcDbLine
 62
250
  6
CONTINUOUS
 10
42.078144919
 20
-52.5469989398
 11
43.9063360957
 21
-51.3718072563
  0
LINE
  5
336
100
AcDbEntity
  8
CURVE
100
AcDbLine
 62
250
  6
CONTINUOUS
 10
43.9063360957
 20
-51.788576142
 11
42.7175382062
 21
-52.5161805812
  0
LWPOLYLINE
  5
337
100
AcDbEntity
  8
CURVE
100
AcDbPolyline
 62
250
  6
CONTINUOUS
 90
59
 70
0
 10
42.6073696257
 20
-49.2160783285
 10
42.6153073423
 20
-49.2117810637
 10
42.6233064409
 20
-49.2076762662
 10
42.631355966
 20
-49.2037699345
 10
42.6394449618
 20
-49.2000680672
 10
42.647562473
 20
-49.1965766627
 10
42.6556975438
 20
-49.1933017196
 10
42.6638392188
 20
-49.1902492364
 10
42.6719765424
 20
-49.1874252117
 10
42.6800985589
 20
-49.184835644
 10
42.6881943128
 20
-49.1824865318
 10
42.6962528486
 20
-49.1803838737
 10
42.7042632107
 20
-49.1785336681
 10
42.7122144434
 20
-49.1769419137
 10
42.7200955913
 20
-49.1756146089
 10
42.7278956987
 20
-49.1745577522
 10
42.7356038101
 20
-49.1737773423
 10
42.7432089699
 20
-49.1732793775
 10
42.7507002225
 20
-49.1730698566
 10
42.7580666124
 20
-49.1731547779
 10
42.765297184
 20
-49.1735401401
 10
42.7723809817
 20
-49.1742319416
 10
42.7793070499
 20
-49.1752361809
 10
42.7860644331
 20
-49.1765588567
 10
42.7926421757
 20
-49.1782059674
 10
42.7990293222
 20
-49.1801835116
 10
42.8052149169
 20
-49.1824974878
 10
42.8111880042
 20
-49.1851538945
 10
42.8169376287
 20
-49.1881587303
 10
42.8224528347
 20
-49.1915179937
 10
42.8277226667
 20
-49.1952376832
 10
42.8326731446
 20
-49.1992632161
 10
42.8373794596
 20
-49.2036320552
 10
42.8418469312
 20
-49.2083308699
 10
42.8460808793
 20
-49.2133463295
 10
42.8500866234
 20
-49.2186651034
 10
42.8538694833
 20
-49.2242738609
 10
42.8574347786
 20
-49.2301592715
 10
42.860787829
 20
-49.2363080044
 10
42.8639339541
 20
-49.2427067291
 10
42.8668784737
 20
-49.2493421148
 10
42.8696267074
 20
-49.256200831
 10
42.8721839749
 20
-49.263269547
 10
42.8745555958
 20
-49.2705349321
 10
42.8767468899
 20
-49.2779836558
 10
42.8787631768
 20
-49.2856023873
 10
42.8806097762
 20
-49.2933777961
 10
42.8822920077
 20
-49.3012965515
 10
42.8838151911
 20
-49.3093453228
 10
42.885184646
 20
-49.3175107795
 10
42.886405692
 20
-49.3257795908
 10
42.8874836489
 20
-49.3341384262
 10
42.8884238364
 20
-49.3425739549
 10
42.889231574
 20
-49.3510728464
 10
42.8899121815
 20
-49.35962177
 10
42.8904709786
 20
-49.3682073951
 10
42.8909132849
 20
-49.376816391
 10
42.8912444201
 20
-49.3854354271
 10
42.8914697039
 20
-49.3940511727
  0
LINE
  5
338
100
AcDbEntity
  8
CURVE
100
AcDbLine
 62
250
  6
CONTINUOUS
 10
43.0529528299
 20
-48.8654656616
 11
43.0421498158
 21
-48.8712822477
  0
LINE
  5
339
100
AcDbEntity
  8
CURVE
100
AcDbLine
 62
250
  6
CONTINUOUS
 10
43.9063361077
 20
-49.0769687737
 11
43.1908831917
 21
-49.4621847383
  0
LINE
  5
33A
100
AcDbEntity
  8
CURVE
100
AcDbLine
 62
250
  6
CONTINUOUS
 10
42.8914697039
 20
-49.6375221639
 11
42.3895956672
 21
-49.9077424493
  0
LINE
  5
33B
100
AcDbEntity
  8
CURVE
100
AcDbLine
 62
250
  6
CONTINUOUS
 10
42.0995045774
 20
-50.4741217324
 11
43.9063361077
 21
-49.5012829402
  0
LINE
  5
33C
100
AcDbEntity
  8
CURVE
100
AcDbLine
 62
250
  6
CONTINUOUS
 10
42.7125620756
 20
-53.5849405954
 11
43.9063360957
 21
-53.0341227775
  0
LINE
  5
33D
100
AcDbEntity
  8
CURVE
100
AcDbLine
 62
250
  6
CONTINUOUS
 10
43.9063360957
 20
-53.4416933091
 11
42.078144919
 21
-54.2417454769
  0
LINE
  5
33E
100
AcDbEntity
  8
CURVE
100
AcDbLine
 62
7
  6
CONTINUOUS
 10
42.2010608704
 20
-52.9539225574
 11
43.5615274257
 21
-51.5934560021
  0
LINE
  5
33F
100
AcDbEntity
  8
CURVE
100
AcDbLine
 62
7
  6
CONTINUOUS
 10
43.8370266992
 20
-51.3179567285
 11
43.9063360957
 21
-51.2486473321
  0
LINE
  5
340
100
AcDbEntity
  8
CURVE
100
AcDbLine
 62
7
  6
CONTINUOUS
 10
42.439356618
 20
-52.9256375238
 11
42.8654244746
 21
-52.4995696672
  0
LINE
  5
341
100
AcDbEntity
  8
CURVE
100
AcDbLine
 62
7
  6
CONTINUOUS
 10
43.0559208612
 20
-52.3090732806
 11
43.9063360957
 21
-51.4586580461
  0
LINE
  5
342
100
AcDbEntity
  8
CURVE
100
AcDbLine
 62
7
  6
CONTINUOUS
 10
42.6776523655
 20
-52.8973524903
 11
43.1020088737
 21
-52.4729959821
  0
LINE
  5
343
100
AcDbEntity
  8
CURVE
100
AcDbLine
 62
7
  6
CONTINUOUS
 10
43.5972561587
 20
-51.9777486971
 11
43.9063360957
 21
-51.6686687601
  0
LINE
  5
344
100
AcDbEntity
  8
CURVE
100
AcDbLine
 62
7
  6
CONTINUOUS
 10
42.9159481131
 20
-52.8690674567
 11
43.3385932727
 21
-52.4464222971
  0
LINE
  5
345
100
AcDbEntity
  8
CURVE
100
AcDbLine
 62
7
  6
CONTINUOUS
 10
42.078144919
 20
-53.9168813648
 11
43.5751776718
 21
-52.419848612
  0
LINE
  5
346
100
AcDbEntity
  8
CURVE
100
AcDbLine
 62
7
  6
CONTINUOUS
 10
42.078144919
 20
-54.1268920788
 11
43.8117620709
 21
-52.3932749269
  0
LINE
  5
347
100
AcDbEntity
  8
CURVE
100
AcDbLine
 62
7
  6
CONTINUOUS
 10
42.247349437
 20
-54.1676982749
 11
42.9308074483
 21
-53.4842402636
  0
LINE
  5
348
100
AcDbEntity
  8
CURVE
100
AcDbLine
 62
7
  6
CONTINUOUS
 10
42.6207811724
 20
-54.0042772534
 11
43.3207334393
 21
-53.3043249865
  0
LINE
  5
349
100
AcDbEntity
  8
CURVE
100
AcDbLine
 62
7
  6
CONTINUOUS
 10
42.0780359473
 20
-54.7570331925
 11
42.2981460211
 21
-54.5369231188
  0
LINE
  5
34A
100
AcDbEntity
  8
CURVE
100
AcDbLine
 62
7
  6
CONTINUOUS
 10
42.9942129079
 20
-53.840856232
 11
43.7106594303
 21
-53.1244097095
  0
LINE
  5
34B
100
AcDbEntity
  8
CURVE
100
AcDbLine
 62
7
  6
CONTINUOUS
 10
42.0780359473
 20
-54.9670439066
 11
42.7531307739
 21
-54.29194908
  0
LINE
  5
34C
100
AcDbEntity
  8
CURVE
100
AcDbLine
 62
7
  6
CONTINUOUS
 10
43.3676446433
 20
-53.6774352105
 11
43.9063360957
 21
-53.1387437582
  0
LINE
  5
34D
100
AcDbEntity
  8
CURVE
100
AcDbLine
 62
7
  6
CONTINUOUS
 10
42.2851318525
 20
-54.9699587154
 11
43.2081155267
 21
-54.0469750412
  0
LINE
  5
34E
100
AcDbEntity
  8
CURVE
100
AcDbLine
 62
7
  6
CONTINUOUS
 10
43.7410763788
 20
-53.5140141891
 11
43.9063360957
 21
-53.3487544722
  0
LINE
  5
34F
100
AcDbEntity
  8
CURVE
100
AcDbLine
 62
7
  6
CONTINUOUS
 10
42.078144919
 20
-55.3869563629
 11
42.2578692276
 21
-55.2072320543
  0
LINE
  5
350
100
AcDbEntity
  8
CURVE
100
AcDbLine
 62
7
  6
CONTINUOUS
 10
42.7401166053
 20
-54.7249846766
 11
43.6631002795
 21
-53.8020010024
  0
LINE
  5
351
100
AcDbEntity
  8
CURVE
100
AcDbLine
 62
7
  6
CONTINUOUS
 10
42.078144919
 20
-55.5969670769
 11
42.5138464596
 21
-55.1612655363
  0
LINE
  5
352
100
AcDbEntity
  8
CURVE
100
AcDbLine
 62
7
  6
CONTINUOUS
 10
43.1951013581
 20
-54.4800106378
 11
43.9063360957
 21
-53.7687759002
  0
LINE
  5
353
100
AcDbEntity
  8
CURVE
100
AcDbLine
 62
7
  6
CONTINUOUS
 10
42.2598149549
 20
-55.625307755
 11
42.7698236917
 21
-55.1152990182
  0
LINE
  5
354
100
AcDbEntity
  8
CURVE
100
AcDbLine
 62
7
  6
CONTINUOUS
 10
43.6500861109
 20
-54.235036599
 11
43.9063360957
 21
-53.9787866142
  0
LINE
  5
355
100
AcDbEntity
  8
CURVE
100
AcDbLine
 62
7
  6
CONTINUOUS
 10
42.5289976512
 20
-55.5661357727
 11
43.0258009237
 21
-55.0693325002
  0
LINE
  5
356
100
AcDbEntity
  8
CURVE
100
AcDbLine
 62
7
  6
CONTINUOUS
 10
42.7981803476
 20
-55.5069637903
 11
43.2817781558
 21
-55.0233659821
  0
LINE
  5
357
100
AcDbEntity
  8
CURVE
100
AcDbLine
 62
7
  6
CONTINUOUS
 10
43.0673630439
 20
-55.447791808
 11
43.5377553878
 21
-54.9773994641
  0
LINE
  5
358
100
AcDbEntity
  8
CURVE
100
AcDbLine
 62
7
  6
CONTINUOUS
 10
42.078144919
 20
-56.647020647
 11
43.7937326199
 21
-54.9314329461
  0
LINE
  5
359
100
AcDbEntity
  8
CURVE
100
AcDbLine
 62
7
  6
CONTINUOUS
 10
42.078144919
 20
-56.857031361
 11
43.9063360957
 21
-55.0288401843
  0
LINE
  5
35A
100
AcDbEntity
  8
CURVE
100
AcDbLine
 62
7
  6
CONTINUOUS
 10
43.4623650005
 20
-55.6828219935
 11
43.9063360957
 21
-55.2388508983
  0
LINE
  5
35B
100
AcDbEntity
  8
CURVE
100
AcDbLine
 62
250
  6
CONTINUOUS
 10
43.9063360957
 20
-52.4424030902
 11
42.7125620756
 21
-53.5849405954
  0
LINE
  5
35C
100
AcDbEntity
  8
CURVE
100
AcDbLine
 62
250
  6
CONTINUOUS
 10
42.078144919
 20
-53.8160697169
 11
43.0931621987
 21
-52.8480326443
  0
LINE
  5
35D
100
AcDbEntity
  8
CURVE
100
AcDbLine
 62
250
  6
CONTINUOUS
 10
43.9063360957
 20
-55.2866499653
 11
42.078144919
 21
-56.9180133901
  0
LINE
  5
35E
100
AcDbEntity
  8
CURVE
100
AcDbLine
 62
250
  6
CONTINUOUS
 10
42.078144919
 20
-56.4552151761
 11
43.3365457403
 21
-55.3886198257
  0
LINE
  5
35F
100
AcDbEntity
  8
0
100
AcDbLine
 62
7
  6
CONTINUOUS
 10
39.2480511443
 20
-61.6397627316
 11
39.5270270784
 21
-61.4787166561
  0
LINE
  5
360
100
AcDbEntity
  8
ASSI
100
AcDbLine
 62
7
  6
CONTINUOUS
 10
39.2480511443
 20
-61.6397627316
 11
39.5270270784
 21
-61.4787166561
  0
LINE
  5
361
100
AcDbEntity
  8
0
100
AcDbLine
 62
7
  6
CONTINUOUS
 10
40.2575878617
 20
-62.2511373164
 11
40.9439862093
 21
-61.8548961119
  0
LINE
  5
362
100
AcDbEntity
  8
ASSI
100
AcDbLine
 62
7
  6
CONTINUOUS
 10
40.2575878617
 20
-62.2511373164
 11
40.9439862093
 21
-61.8548961119
  0
LINE
  5
363
100
AcDbEntity
  8
0
100
AcDbLine
 62
7
  6
CONTINUOUS
 10
45.0274205459
 20
-59.8145560459
 11
44.3198832767
 21
-60.2230002398
  0
LINE
  5
364
100
AcDbEntity
  8
ASSI
100
AcDbLine
 62
7
  6
CONTINUOUS
 10
45.0274205459
 20
-59.8145560459
 11
44.3198832767
 21
-60.2230002398
  0
LINE
  5
365
100
AcDbEntity
  8
CURVE
100
AcDbLine
 62
250
  6
CONTINUOUS
 10
43.9063360957
 20
-53.6710373604
 11
42.0780359473
 21
-54.6554353402
  0
LINE
  5
366
100
AcDbEntity
  8
CURVE
100
AcDbLine
 62
250
  6
CONTINUOUS
 10
42.0780359473
 20
-55.0814638153
 11
43.9063360957
 21
-54.0970658355
  0
LINE
  5
367
100
AcDbEntity
  8
0
100
AcDbLine
 62
7
  6
CONTINUOUS
 10
40.9654875612
 20
-61.8433345602
 11
40.9439862093
 21
-61.8548961119
  0
LINE
  5
368
100
AcDbEntity
  8
ASSI
100
AcDbLine
 62
7
  6
CONTINUOUS
 10
40.9654875612
 20
-61.8433345602
 11
40.9439862093
 21
-61.8548961119
  0
LINE
  5
369
100
AcDbEntity
  8
0
100
AcDbLine
 62
7
  6
CONTINUOUS
 10
40.9654875612
 20
-61.8433345602
 11
45.0274205459
 21
-59.8145560459
  0
LINE
  5
36A
100
AcDbEntity
  8
ASSI
100
AcDbLine
 62
7
  6
CONTINUOUS
 10
40.9654875612
 20
-61.8433345602
 11
45.0274205459
 21
-59.8145560459
  0
LINE
  5
36B
100
AcDbEntity
  8
0
100
AcDbLine
 62
7
  6
CONTINUOUS
 10
40.2579502919
 20
-62.251778754
 11
44.3198832767
 21
-60.2230002398
  0
LINE
  5
36C
100
AcDbEntity
  8
ASSI
100
AcDbLine
 62
7
  6
CONTINUOUS
 10
40.2579502919
 20
-62.251778754
 11
44.3198832767
 21
-60.2230002398
  0
ENDSEC
  0
SECTION
  2
OBJECTS
  0
DICTIONARY
  5
C
100
AcDbDictionary
280
0
281
1
  3
ACAD_GROUP
350
D
  3
ACAD_MLINESTYLE
350
17
  3
ACAD_LAYOUT
350
1A
  3
ACAD_PLOTSETTINGS
350
19
  3
ACAD_PLOTSTYLENAME
350
E
  0
DICTIONARY
  5
D
102
{ACAD_REACTORS
330
C
102
}
100
AcDbDictionary
280
0
281
1
  0
ACDBDICTIONARYWDFLT
  5
E
102
{ACAD_REACTORS
330
C
102
}
100
AcDbDictionary
281
1
  3
Normal
350
F
100
AcDbDictionaryWithDefault
340
F
  0
DICTIONARY
  5
17
102
{ACAD_REACTORS
330
C
102
}
100
AcDbDictionary
280
0
281
1
  3
Standard
350
18
  0
DICTIONARY
  5
19
102
{ACAD_REACTORS
330
C
102
}
100
AcDbDictionary
281
1
  0
DICTIONARY
  5
1A
102
{ACAD_REACTORS
330
C
102
}
100
AcDbDictionary
281
1
  3
Model
350
36D
  3
Layout1
350
36E
  0
ACDBPLACEHOLDER
  5
F
102
{ACAD_REACTORS
330
E
102
}
  0
MLINESTYLE
  5
18
102
{ACAD_REACTORS
330
17
102
}
100
AcDbMlineStyle
  2
STANDARD
 70
0
  3

 62
256
 51
90.0
 52
90.0
 71
2
 49
0.5
 62
256
  6
BYLAYER
 49
-0.5
 62
256
  6
BYLAYER
  0
LAYOUT
  5
36D
102
{ACAD_REACTORS
330
1A
102
}
100
AcDbPlotSettings
  1

  2
none_device
  4
ISO_A4_(297.00_x_210.00_MM)
  6

 40
0.0
 41
0.0
 42
0.0
 43
0.0
 44
297.0
 45
210.0
 46
0.0
 47
0.0
 48
0.0
 49
0.0
140
0.0
141
0.0
142
1.0
143
1.0
 70
1024
 72
1
 73
0
 74
0
  7

 75
0
147
1.0
148
0.0
149
0.0
100
AcDbLayout
  1
Model
 70
0
 71
0
 10
0.0
 20
0.0
 11
297.0
 21
210.0
 12
0.0
 22
0.0
 32
0.0
 14
0.0
 24
0.0
 34
0.0
 15
0.0
 25
0.0
 35
0.0
146
0.0
 13
0.0
 23
0.0
 33
0.0
 16
1.0
 26
0.0
 36
0.0
 17
0.0
 27
1.0
 37
0.0
 76
0
330
21E
345
0
346
0
  0
LAYOUT
  5
36E
102
{ACAD_REACTORS
330
1A
102
}
100
AcDbPlotSettings
  1

  2
none_device
  4
ISO_A4_(297.00_x_210.00_MM)
  6

 40
0.0
 41
0.0
 42
0.0
 43
0.0
 44
297.0
 45
210.0
 46
0.0
 47
0.0
 48
0.0
 49
0.0
140
0.0
141
0.0
142
1.0
143
1.0
 70
0
 72
1
 73
0
 74
0
  7

 75
0
147
1.0
148
0.0
149
0.0
100
AcDbLayout
  1
Layout1
 70
0
 71
1
 10
0.0
 20
0.0
 11
297.0
 21
210.0
 12
0.0
 22
0.0
 32
0.0
 14
0.0
 24
0.0
 34
0.0
 15
0.0
 25
0.0
 35
0.0
146
0.0
 13
0.0
 23
0.0
 33
0.0
 16
1.0
 26
0.0
 36
0.0
 17
0.0
 27
1.0
 37
0.0
 76
0
330
21F
345
0
346
0
  0
ENDSEC
  0
EOF
