  0
SECTION
  2
HEADER
  9
$ACADVER
  1
AC1024
  9
$DWGCODEPAGE
  3
ANSI_1252
  9
$EXTMAX
 10
297.0
 20
210.0
 30
0.0
  9
$EXTMIN
 10
0.0
 20
0.0
 30
0.0
  9
$LIMMIN
 10
0.0
 20
0.0
  9
$LIMMAX
 10
297.0
 20
210.0
  9
$VIEWCTR
 10
148.5
 20
105.0
  9
$VIEWSIZE
 40
210.0
  9
$CLAYER
  8
0
  9
$LTSCALE
 40
16.335
  9
$CELTYPE
  6
BYLAYER
  9
$DIMSCALE
 40
1.0
  9
$DIMASZ
 40
3.0
  9
$DIMEXO
 40
0.5
  9
$DIMDLI
 40
11.286
  9
$DIMEXE
 40
1.5
  9
$DIMCEN
 40
2.673
  9
$DIMLFAC
 40
1.0
  9
$DIMBLK
  1
_FILLED
  9
$DIMALT
 70
0
  9
$DIMALTF
 40
0.0393700787
  9
$DIMTXT
 40
3.0
  9
$DIMTOL
 70
1
  9
$DIMLIM
 70
0
  9
$DIMTFAC
 40
1.0
  9
$DIMTP
 40
0.01
  9
$DIMTM
 40
0.01
  9
$DIMGAP
 40
0.625
  9
$DIMDSEP
 70
44
  9
$AUNITS
 70
0
  9
$PDMODE
 70
3
  9
$PDSIZE
 40
3.0
  9
$HANDSEED
  5
343
  9
$TILEMODE
 70
1
  9
$MEASUREMENT
 70
1
  9
$INSUNITS
 70
4
  0
ENDSEC
  0
SECTION
  2
CLASSES
  0
CLASS
  1
ACDBDICTIONARYWDFLT
  2
AcDbDictionaryWithDefault
  3
AutoCAD 2000
 90
0
 91
1
280
0
281
0
  0
CLASS
  1
ACDBPLACEHOLDER
  2
AcDbPlaceHolder
  3
AutoCAD 2000
 90
0
 91
1
280
0
281
0
  0
CLASS
  1
LAYOUT
  2
AcDbLayout
  3
AutoCAD 2000
 90
0
 91
0
280
0
281
0
  0
ENDSEC
  0
SECTION
  2
TABLES
  0
TABLE
  2
VPORT
  5
8
100
AcDbSymbolTable
 70
2
  0
VPORT
  5
1F4
100
AcDbSymbolTableRecord
100
AcDbViewportTableRecord
  2
*ACTIVE
 70
0
 10
0.0
 20
0.0
 11
1.0
 21
1.0
 12
148.5
 22
105.0
 13
0.0
 23
0.0
 14
1.0
 24
1.0
 15
0.0
 25
0.0
 16
0.0
 26
0.0
 36
1.0
 17
0.0
 27
0.0
 37
0.0
 40
210.0
 41
1.4142857143
 42
50.0
 43
0.0
 44
0.0
 50
0.0
 51
0.0
 71
0
 72
100
 73
1
 74
1
 75
0
 76
0
 77
0
 78
0
  0
ENDTAB
  0
TABLE
  2
LTYPE
  5
5
100
AcDbSymbolTable
 70
6
  0
LTYPE
  5
14
100
AcDbSymbolTableRecord
100
AcDbLinetypeTableRecord
  2
BYBLOCK
 70
0
  3

 72
65
 73
0
 40
0.0
  0
LTYPE
  5
15
100
AcDbSymbolTableRecord
100
AcDbLinetypeTableRecord
  2
BYLAYER
 70
0
  3

 72
65
 73
0
 40
0.0
  0
LTYPE
  5
16
100
AcDbSymbolTableRecord
100
AcDbLinetypeTableRecord
  2
CONTINUOUS
 70
64
  3
Solid line
 72
65
 73
0
 40
0.0
  0
LTYPE
  5
1F5
100
AcDbSymbolTableRecord
100
AcDbLinetypeTableRecord
  2
CENTER
 70
64
  3
____ _ ____ _ ____ _ ____ _ ____ _ ____ _ ____
 72
65
 73
4
 40
0.6
 49
0.375
 74
0
 49
-0.075
 74
0
 49
0.075
 74
0
 49
-0.075
 74
0
  0
LTYPE
  5
1F6
100
AcDbSymbolTableRecord
100
AcDbLinetypeTableRecord
  2
HIDDEN
 70
64
  3
- - - - - - - - - - - - - - - - - - - -
 72
65
 73
2
 40
0.2
 49
0.1
 74
0
 49
-0.1
 74
0
  0
LTYPE
  5
1F7
100
AcDbSymbolTableRecord
100
AcDbLinetypeTableRecord
  2
PHANTOM
 70
64
  3
_____ _ _ _____ _ _ _____ _ _ _____
 72
65
 73
6
 40
0.8
 49
0.45
 74
0
 49
-0.05
 74
0
 49
0.1
 74
0
 49
-0.05
 74
0
 49
0.1
 74
0
 49
-0.05
 74
0
  0
LTYPE
  5
1F8
100
AcDbSymbolTableRecord
100
AcDbLinetypeTableRecord
  2
DOT
 70
64
  3
. . . . . . . . . . . . . . . . . . . .
 72
65
 73
2
 40
0.2
 49
0.1
 74
0
 49
-0.1
 74
0
  0
LTYPE
  5
1F9
100
AcDbSymbolTableRecord
100
AcDbLinetypeTableRecord
  2
DASHED
 70
64
  3
- - - - - - - - - - - - - - - - - - - -
 72
65
 73
2
 40
0.2
 49
0.1
 74
0
 49
-0.1
 74
0
  0
ENDTAB
  0
TABLE
  2
LAYER
  5
2
100
AcDbSymbolTable
 70
36
  0
LAYER
  5
10
100
AcDbSymbolTableRecord
100
AcDbLayerTableRecord
  2
0
 70
0
 62
7
  6
CONTINUOUS
370
-3
390
F
  0
LAYER
  5
1FA
100
AcDbSymbolTableRecord
100
AcDbLayerTableRecord
  2
DEFAULT_1
 70
0
 62
7
  6
CENTER
370
-3
390
F
  0
LAYER
  5
1FB
100
AcDbSymbolTableRecord
100
AcDbLayerTableRecord
  2
DEFAULT_2
 70
0
 62
7
  6
HIDDEN
370
-3
390
F
  0
LAYER
  5
1FC
100
AcDbSymbolTableRecord
100
AcDbLayerTableRecord
  2
DEFAULT_3
 70
0
 62
7
  6
PHANTOM
370
-3
390
F
  0
LAYER
  5
1FD
100
AcDbSymbolTableRecord
100
AcDbLayerTableRecord
  2
ASSI
 70
0
 62
7
  6
CONTINUOUS
370
-3
390
F
  0
LAYER
  5
1FE
100
AcDbSymbolTableRecord
100
AcDbLayerTableRecord
  2
COORDINATE
 70
0
 62
7
  6
CONTINUOUS
370
-3
390
F
  0
LAYER
  5
1FF
100
AcDbSymbolTableRecord
100
AcDbLayerTableRecord
  2
COORD_ORIGINE
 70
0
 62
7
  6
CONTINUOUS
370
-3
390
F
  0
LAYER
  5
200
100
AcDbSymbolTableRecord
100
AcDbLayerTableRecord
  2
COPY_PUBLISH
 70
0
 62
7
  6
CONTINUOUS
370
-3
390
F
  0
LAYER
  5
201
100
AcDbSymbolTableRecord
100
AcDbLayerTableRecord
  2
COSMETIC
 70
0
 62
7
  6
CONTINUOUS
370
-3
390
F
  0
LAYER
  5
202
100
AcDbSymbolTableRecord
100
AcDbLayerTableRecord
  2
COSMETICI
 70
0
 62
7
  6
CONTINUOUS
370
-3
390
F
  0
LAYER
  5
203
100
AcDbSymbolTableRecord
100
AcDbLayerTableRecord
  2
CURVE
 70
0
 62
7
  6
CONTINUOUS
370
-3
390
F
  0
LAYER
  5
204
100
AcDbSymbolTableRecord
100
AcDbLayerTableRecord
  2
CURVE_TASSELLI
 70
0
 62
7
  6
CONTINUOUS
370
-3
390
F
  0
LAYER
  5
205
100
AcDbSymbolTableRecord
100
AcDbLayerTableRecord
  2
DRAFT
 70
0
 62
7
  6
CONTINUOUS
370
-3
390
F
  0
LAYER
  5
206
100
AcDbSymbolTableRecord
100
AcDbLayerTableRecord
  2
IMPORT_IGES
 70
0
 62
7
  6
CONTINUOUS
370
-3
390
F
  0
LAYER
  5
207
100
AcDbSymbolTableRecord
100
AcDbLayerTableRecord
  2
INTFCLR_2
 70
0
 62
7
  6
CONTINUOUS
370
-3
390
F
  0
LAYER
  5
208
100
AcDbSymbolTableRecord
100
AcDbLayerTableRecord
  2
INTF_1
 70
0
 62
7
  6
CONTINUOUS
370
-3
390
F
  0
LAYER
  5
209
100
AcDbSymbolTableRecord
100
AcDbLayerTableRecord
  2
INTF_21
 70
0
 62
7
  6
CONTINUOUS
370
-3
390
F
  0
LAYER
  5
20A
100
AcDbSymbolTableRecord
100
AcDbLayerTableRecord
  2
INTF_6
 70
0
 62
7
  6
CONTINUOUS
370
-3
390
F
  0
LAYER
  5
20B
100
AcDbSymbolTableRecord
100
AcDbLayerTableRecord
  2
INTF_7
 70
0
 62
7
  6
CONTINUOUS
370
-3
390
F
  0
LAYER
  5
20C
100
AcDbSymbolTableRecord
100
AcDbLayerTableRecord
  2
INTF_CYAN
 70
0
 62
7
  6
CONTINUOUS
370
-3
390
F
  0
LAYER
  5
20D
100
AcDbSymbolTableRecord
100
AcDbLayerTableRecord
  2
LIVELLO_1
 70
0
 62
7
  6
CONTINUOUS
370
-3
390
F
  0
LAYER
  5
20E
100
AcDbSymbolTableRecord
100
AcDbLayerTableRecord
  2
NOTE
 70
0
 62
7
  6
CONTINUOUS
370
-3
390
F
  0
LAYER
  5
20F
100
AcDbSymbolTableRecord
100
AcDbLayerTableRecord
  2
PIANI
 70
0
 62
7
  6
CONTINUOUS
370
-3
390
F
  0
LAYER
  5
210
100
AcDbSymbolTableRecord
100
AcDbLayerTableRecord
  2
PIANI_ORIGINE
 70
0
 62
7
  6
CONTINUOUS
370
-3
390
F
  0
LAYER
  5
211
100
AcDbSymbolTableRecord
100
AcDbLayerTableRecord
  2
PIANI_RIFERIMENTO
 70
0
 62
7
  6
CONTINUOUS
370
-3
390
F
  0
LAYER
  5
212
100
AcDbSymbolTableRecord
100
AcDbLayerTableRecord
  2
PUNTI
 70
0
 62
7
  6
CONTINUOUS
370
-3
390
F
  0
LAYER
  5
213
100
AcDbSymbolTableRecord
100
AcDbLayerTableRecord
  2
RACCORDO
 70
0
 62
7
  6
CONTINUOUS
370
-3
390
F
  0
LAYER
  5
214
100
AcDbSymbolTableRecord
100
AcDbLayerTableRecord
  2
RGB__255__255__255__
 70
0
 62
7
  6
CONTINUOUS
370
-3
390
F
  0
LAYER
  5
215
100
AcDbSymbolTableRecord
100
AcDbLayerTableRecord
  2
RGB____0____0____0__
 70
0
 62
7
  6
CONTINUOUS
370
-3
390
F
  0
LAYER
  5
216
100
AcDbSymbolTableRecord
100
AcDbLayerTableRecord
  2
SIMBOLI
 70
0
 62
7
  6
CONTINUOUS
370
-3
390
F
  0
LAYER
  5
217
100
AcDbSymbolTableRecord
100
AcDbLayerTableRecord
  2
SMUSSO
 70
0
 62
7
  6
CONTINUOUS
370
-3
390
F
  0
LAYER
  5
218
100
AcDbSymbolTableRecord
100
AcDbLayerTableRecord
  2
SUPERFICI
 70
0
 62
7
  6
CONTINUOUS
370
-3
390
F
  0
LAYER
  5
219
100
AcDbSymbolTableRecord
100
AcDbLayerTableRecord
  2
TRASH
 70
0
 62
7
  6
CONTINUOUS
370
-3
390
F
  0
LAYER
  5
21A
100
AcDbSymbolTableRecord
100
AcDbLayerTableRecord
  2
WHITE
 70
0
 62
7
  6
CONTINUOUS
370
-3
390
F
  0
LAYER
  5
21B
100
AcDbSymbolTableRecord
100
AcDbLayerTableRecord
  2
XSEC_DATUMS
 70
0
 62
7
  6
CONTINUOUS
370
-3
390
F
  0
ENDTAB
  0
TABLE
  2
STYLE
  5
3
100
AcDbSymbolTable
 70
1
  0
STYLE
  5
11
100
AcDbSymbolTableRecord
100
AcDbTextStyleTableRecord
  2
STANDARD
 70
0
 40
0.0
 41
0.8
 50
0.0
 71
0
 42
0.2
  3
txt
  4

  0
STYLE
  5
21C
100
AcDbSymbolTableRecord
100
AcDbTextStyleTableRecord
  2
TEXTSTYLE_1
 70
0
 40
0.0
 41
0.8
 50
0.0
 71
0
 42
0.2
  3
gdt
  4

  0
ENDTAB
  0
TABLE
  2
VIEW
  5
6
100
AcDbSymbolTable
 70
0
  0
ENDTAB
  0
TABLE
  2
UCS
  5
7
100
AcDbSymbolTable
 70
0
  0
ENDTAB
  0
TABLE
  2
APPID
  5
9
100
AcDbSymbolTable
 70
1
  0
APPID
  5
21D
100
AcDbSymbolTableRecord
100
AcDbRegAppTableRecord
  2
ACAD
 70
0
  0
ENDTAB
  0
TABLE
  2
BLOCK_RECORD
  5
1
100
AcDbSymbolTable
 70
0
  0
BLOCK_RECORD
  5
21E
100
AcDbSymbolTableRecord
100
AcDbBlockTableRecord
  2
*Model_Space
  0
BLOCK_RECORD
  5
21F
100
AcDbSymbolTableRecord
100
AcDbBlockTableRecord
  2
*Paper_Space
  0
BLOCK_RECORD
  5
220
100
AcDbSymbolTableRecord
100
AcDbBlockTableRecord
  2
_FILLED
  0
ENDTAB
  0
TABLE
  2
DIMSTYLE
  5
A
100
AcDbSymbolTable
 70
1
100
AcDbDimStyleTable
 71
0
  0
DIMSTYLE
105
221
100
AcDbSymbolTableRecord
100
AcDbDimStyleTableRecord
  2
STANDARD
 70
0
  3

  4

 40
1.0
 41
3.0
 42
0.5
 43
0.38
 44
1.5
 45
0.0
 46
0.0
 47
0.01
 48
0.01
140
3.0
141
0.09
142
0.0
143
25.4
144
1.0
145
0.0
146
1.0
147
0.625
 71
1
 72
0
 73
0
 74
0
 75
0
 76
0
 77
1
 78
8
 79
2
170
0
171
1
172
0
173
0
174
0
175
0
176
0
177
0
178
0
270
2
179
2
271
2
272
2
273
2
274
2
275
0
280
0
281
0
282
0
283
1
284
8
285
0
286
0
287
3
288
0
340
11
278
44
341
220
342
220
343
220
344
220
  0
ENDTAB
  0
ENDSEC
  0
SECTION
  2
BLOCKS
  0
BLOCK
  5
20
100
AcDbEntity
  8
0
100
AcDbBlockBegin
  2
*Model_Space
 70
0
 10
0.0
 20
0.0
 30
0.0
  3
*Model_Space
  1

  0
ENDBLK
  5
21
100
AcDbEntity
  8
0
100
AcDbBlockEnd
  0
BLOCK
  5
1C
100
AcDbEntity
  8
0
100
AcDbBlockBegin
  2
*Paper_Space
 70
0
 10
0.0
 20
0.0
 30
0.0
  3
*Paper_Space
  1

  0
ENDBLK
  5
1D
100
AcDbEntity
  8
0
100
AcDbBlockEnd
  0
BLOCK
  5
222
100
AcDbEntity
  8
0
100
AcDbBlockBegin
  2
_FILLED
 70
64
 10
0.0
 20
0.0
  3
_FILLED
  1

  0
SOLID
  5
223
100
AcDbEntity
  8
0
  6
BYBLOCK
 62
0
100
AcDbTrace
 10
0.0
 20
0.0
 11
-1.0
 21
0.3166666667
 12
-1.0
 22
-0.3166666667
 13
-1.0
 23
-0.3166666667
  0
ENDBLK
  5
224
100
AcDbEntity
  8
0
  6
BYBLOCK
 62
0
100
AcDbBlockEnd
  0
ENDSEC
  0
SECTION
  2
ENTITIES
  0
LINE
  5
225
100
AcDbEntity
  8
0
100
AcDbLine
 62
7
  6
CONTINUOUS
 10
117.0763091671
 20
155.8444988492
 11
120.8641229543
 21
158.3480657406
  0
LINE
  5
226
100
AcDbEntity
  8
ASSI
100
AcDbLine
 62
7
  6
CONTINUOUS
 10
117.0763091671
 20
155.8444988492
 11
120.8641229543
 21
158.3480657406
  0
LINE
  5
227
100
AcDbEntity
  8
0
100
AcDbLine
 62
7
  6
CONTINUOUS
 10
117.7838464364
 20
156.2529430431
 11
121.5716602236
 21
158.7565099344
  0
LINE
  5
228
100
AcDbEntity
  8
ASSI
100
AcDbLine
 62
7
  6
CONTINUOUS
 10
117.7838464364
 20
156.2529430431
 11
121.5716602236
 21
158.7565099344
  0
LINE
  5
229
100
AcDbEntity
  8
0
100
AcDbLine
 62
7
  6
CONTINUOUS
 10
117.7630828223
 20
156.2401036921
 11
117.7838464364
 21
156.2529430431
  0
LINE
  5
22A
100
AcDbEntity
  8
ASSI
100
AcDbLine
 62
7
  6
CONTINUOUS
 10
117.7630828223
 20
156.2401036921
 11
117.7838464364
 21
156.2529430431
  0
LINE
  5
22B
100
AcDbEntity
  8
0
100
AcDbLine
 62
7
  6
CONTINUOUS
 10
120.8641229543
 20
158.3480657406
 11
121.5716602236
 21
158.7565099344
  0
LINE
  5
22C
100
AcDbEntity
  8
ASSI
100
AcDbLine
 62
7
  6
CONTINUOUS
 10
120.8641229543
 20
158.3480657406
 11
121.5716602236
 21
158.7565099344
  0
LINE
  5
22D
100
AcDbEntity
  8
0
100
AcDbLine
 62
7
  6
CONTINUOUS
 10
117.7630828223
 20
156.2401036921
 11
117.0766844746
 21
155.8438624877
  0
LINE
  5
22E
100
AcDbEntity
  8
ASSI
100
AcDbLine
 62
7
  6
CONTINUOUS
 10
117.7630828223
 20
156.2401036921
 11
117.0766844746
 21
155.8438624877
  0
LINE
  5
22F
100
AcDbEntity
  8
0
100
AcDbLine
 62
7
  6
CONTINUOUS
 10
117.3803935224
 20
154.8248752537
 11
117.1014175883
 21
154.6638291782
  0
LINE
  5
230
100
AcDbEntity
  8
ASSI
100
AcDbLine
 62
7
  6
CONTINUOUS
 10
117.3803935224
 20
154.8248752537
 11
117.1014175883
 21
154.6638291782
  0
LINE
  5
231
100
AcDbEntity
  8
CURVE
100
AcDbLine
 62
250
  6
CONTINUOUS
 10
182.8128584554
 20
54.1808983412
 11
181.5544576341
 21
53.9042755412
  0
LINE
  5
232
100
AcDbEntity
  8
CURVE
100
AcDbLine
 62
250
  6
CONTINUOUS
 10
181.5544576341
 20
54.3300125365
 11
183.3826488108
 21
54.6583057289
  0
LINE
  5
233
100
AcDbEntity
  8
CURVE
100
AcDbLine
 62
250
  6
CONTINUOUS
 10
182.056798163
 20
58.388977109
 11
182.7352632904
 21
58.5421516888
  0
LINE
  5
234
100
AcDbEntity
  8
CURVE
100
AcDbLine
 62
250
  6
CONTINUOUS
 10
183.017676985
 20
58.607063628
 11
183.3826488108
 21
58.6860148396
  0
LINE
  5
235
100
AcDbEntity
  8
CURVE
100
AcDbLine
 62
250
  6
CONTINUOUS
 10
183.3826488108
 20
58.2646092192
 11
181.5544576341
 21
57.920444661
  0
LINE
  5
236
100
AcDbEntity
  8
CURVE
100
AcDbLine
 62
250
  6
CONTINUOUS
 10
182.5694749138
 20
56.7214855226
 11
181.5544576341
 21
56.6010058326
  0
LINE
  5
237
100
AcDbEntity
  8
CURVE
100
AcDbLine
 62
250
  6
CONTINUOUS
 10
182.1938509213
 20
57.0533375856
 11
183.3826488108
 21
57.1868660044
  0
LINE
  5
238
100
AcDbEntity
  8
0
100
AcDbLine
 62
7
  6
CONTINUOUS
 10
117.3803935224
 20
154.8248752537
 11
117.7630828223
 21
156.2401036921
  0
LINE
  5
239
100
AcDbEntity
  8
ASSI
100
AcDbLine
 62
7
  6
CONTINUOUS
 10
117.3803935224
 20
154.8248752537
 11
117.7630828223
 21
156.2401036921
  0
LINE
  5
23A
100
AcDbEntity
  8
0
100
AcDbLine
 62
7
  6
CONTINUOUS
 10
179.0033397935
 20
48.0908015108
 11
180.4202989244
 21
47.714622055
  0
LINE
  5
23B
100
AcDbEntity
  8
ASSI
100
AcDbLine
 62
7
  6
CONTINUOUS
 10
179.0033397935
 20
48.0908015108
 11
180.4202989244
 21
47.714622055
  0
LINE
  5
23C
100
AcDbEntity
  8
0
100
AcDbLine
 62
7
  6
CONTINUOUS
 10
117.1014175883
 20
83.8321955788
 11
117.3803935224
 21
83.3489950873
  0
LINE
  5
23D
100
AcDbEntity
  8
ASSI
100
AcDbLine
 62
7
  6
CONTINUOUS
 10
117.1014175883
 20
83.8321955788
 11
117.3803935224
 21
83.3489950873
  0
LINE
  5
23E
100
AcDbEntity
  8
0
100
AcDbLine
 62
7
  6
CONTINUOUS
 10
117.1014175883
 20
83.8321955788
 11
117.0766844746
 21
84.2884311563
  0
LINE
  5
23F
100
AcDbEntity
  8
ASSI
100
AcDbLine
 62
7
  6
CONTINUOUS
 10
117.1014175883
 20
83.8321955788
 11
117.0766844746
 21
84.2884311563
  0
LINE
  5
240
100
AcDbEntity
  8
0
100
AcDbLine
 62
7
  6
CONTINUOUS
 10
117.3803935224
 20
83.3489950873
 11
117.7630828223
 21
83.0995543452
  0
LINE
  5
241
100
AcDbEntity
  8
ASSI
100
AcDbLine
 62
7
  6
CONTINUOUS
 10
117.3803935224
 20
83.3489950873
 11
117.7630828223
 21
83.0995543452
  0
LINE
  5
242
100
AcDbEntity
  8
0
100
AcDbLine
 62
7
  6
CONTINUOUS
 10
117.1014175883
 20
154.6638291782
 11
117.0766844746
 21
155.8438624877
  0
LINE
  5
243
100
AcDbEntity
  8
ASSI
100
AcDbLine
 62
7
  6
CONTINUOUS
 10
117.1014175883
 20
154.6638291782
 11
117.0766844746
 21
155.8438624877
  0
LINE
  5
244
100
AcDbEntity
  8
0
100
AcDbLine
 62
7
  6
CONTINUOUS
 10
117.0766844746
 20
84.2884311563
 11
117.0763091671
 21
84.312624017
  0
LINE
  5
245
100
AcDbEntity
  8
ASSI
100
AcDbLine
 62
7
  6
CONTINUOUS
 10
117.0766844746
 20
84.2884311563
 11
117.0763091671
 21
84.312624017
  0
LINE
  5
246
100
AcDbEntity
  8
0
100
AcDbLine
 62
7
  6
CONTINUOUS
 10
117.0763091671
 20
155.8444988492
 11
117.0763091671
 21
84.312624017
  0
LINE
  5
247
100
AcDbEntity
  8
ASSI
100
AcDbLine
 62
7
  6
CONTINUOUS
 10
117.0763091671
 20
155.8444988492
 11
117.0763091671
 21
84.312624017
  0
LINE
  5
248
100
AcDbEntity
  8
0
100
AcDbLine
 62
7
  6
CONTINUOUS
 10
117.1014175883
 20
154.6638291782
 11
117.1014175883
 21
83.8321955788
  0
LINE
  5
249
100
AcDbEntity
  8
ASSI
100
AcDbLine
 62
7
  6
CONTINUOUS
 10
117.1014175883
 20
154.6638291782
 11
117.1014175883
 21
83.8321955788
  0
LINE
  5
24A
100
AcDbEntity
  8
0
100
AcDbLine
 62
7
  6
CONTINUOUS
 10
117.7838464364
 20
83.0871335196
 11
179.734263007
 21
47.3177394128
  0
LINE
  5
24B
100
AcDbEntity
  8
ASSI
100
AcDbLine
 62
7
  6
CONTINUOUS
 10
117.7838464364
 20
83.0871335196
 11
179.734263007
 21
47.3177394128
  0
LINE
  5
24C
100
AcDbEntity
  8
0
100
AcDbLine
 62
7
  6
CONTINUOUS
 10
117.3803935224
 20
83.3489950873
 11
178.7243638594
 21
47.9297554352
  0
LINE
  5
24D
100
AcDbEntity
  8
ASSI
100
AcDbLine
 62
7
  6
CONTINUOUS
 10
117.3803935224
 20
83.3489950873
 11
178.7243638594
 21
47.9297554352
  0
LINE
  5
24E
100
AcDbEntity
  8
0
100
AcDbLine
 62
7
  6
CONTINUOUS
 10
117.7838464364
 20
83.0871335196
 11
117.7630828223
 21
83.0995543452
  0
LINE
  5
24F
100
AcDbEntity
  8
ASSI
100
AcDbLine
 62
7
  6
CONTINUOUS
 10
117.7838464364
 20
83.0871335196
 11
117.7630828223
 21
83.0995543452
  0
LINE
  5
250
100
AcDbEntity
  8
0
100
AcDbLine
 62
7
  6
CONTINUOUS
 10
178.7243638594
 20
47.9297554352
 11
179.7339005768
 21
47.3183808505
  0
LINE
  5
251
100
AcDbEntity
  8
ASSI
100
AcDbLine
 62
7
  6
CONTINUOUS
 10
178.7243638594
 20
47.9297554352
 11
179.7339005768
 21
47.3183808505
  0
LWPOLYLINE
  5
252
100
AcDbEntity
  8
0
100
AcDbPolyline
 62
7
  6
CONTINUOUS
 90
13
 70
0
 10
138.8278106563
 20
118.4962490578
 10
138.8163712075
 20
118.4823955583
 10
138.7395599048
 20
118.3731277855
 10
138.6696270836
 20
118.2560636389
 10
138.606623962
 20
118.1311450657
 10
138.550499322
 20
117.9984301187
 10
138.5016700394
 20
117.8589045621
 10
138.4601904364
 20
117.7125176831
 10
138.4260061907
 20
117.5593201946
 10
138.3993712122
 20
117.4004499982
 10
138.3803701373
 20
117.2362863948
 10
138.3689183294
 20
117.0664500837
 10
138.3650157886
 20
116.8909410648
  0
LWPOLYLINE
  5
253
100
AcDbEntity
  8
ASSI
100
AcDbPolyline
 62
7
  6
CONTINUOUS
 90
13
 70
0
 10
138.8278106563
 20
118.4962490578
 10
138.8163712075
 20
118.4823955583
 10
138.7395599048
 20
118.3731277855
 10
138.6696270836
 20
118.2560636389
 10
138.606623962
 20
118.1311450657
 10
138.550499322
 20
117.9984301187
 10
138.5016700394
 20
117.8589045621
 10
138.4601904364
 20
117.7125176831
 10
138.4260061907
 20
117.5593201946
 10
138.3993712122
 20
117.4004499982
 10
138.3803701373
 20
117.2362863948
 10
138.3689183294
 20
117.0664500837
 10
138.3650157886
 20
116.8909410648
  0
LWPOLYLINE
  5
254
100
AcDbEntity
  8
0
100
AcDbPolyline
 62
7
  6
CONTINUOUS
 90
15
 70
0
 10
138.2758756965
 20
118.3105119802
 10
138.30323557
 20
118.3259166818
 10
138.4156625937
 20
118.3814568693
 10
138.53315003
 20
118.4274549147
 10
138.6554058915
 20
118.463796423
 10
138.7821261763
 20
118.4903909525
 10
138.9129958597
 20
118.5071723274
 10
139.0476896495
 20
118.5140987682
 10
139.1858726328
 20
118.5111529872
 10
139.3272011005
 20
118.4983422716
 10
139.4713236511
 20
118.4756984552
 10
139.6178819935
 20
118.4432778123
 10
139.766511662
 20
118.4011609546
 10
139.9168431018
 20
118.3494525997
 10
140.0685025735
 20
118.2882812972
  0
LWPOLYLINE
  5
255
100
AcDbEntity
  8
ASSI
100
AcDbPolyline
 62
7
  6
CONTINUOUS
 90
15
 70
0
 10
138.2758756965
 20
118.3105119802
 10
138.30323557
 20
118.3259166818
 10
138.4156625937
 20
118.3814568693
 10
138.53315003
 20
118.4274549147
 10
138.6554058915
 20
118.463796423
 10
138.7821261763
 20
118.4903909525
 10
138.9129958597
 20
118.5071723274
 10
139.0476896495
 20
118.5140987682
 10
139.1858726328
 20
118.5111529872
 10
139.3272011005
 20
118.4983422716
 10
139.4713236511
 20
118.4756984552
 10
139.6178819935
 20
118.4432778123
 10
139.766511662
 20
118.4011609546
 10
139.9168431018
 20
118.3494525997
 10
140.0685025735
 20
118.2882812972
  0
LWPOLYLINE
  5
256
100
AcDbEntity
  8
0
100
AcDbPolyline
 62
7
  6
CONTINUOUS
 90
44
 70
0
 10
138.3650157886
 20
100.1533003906
 10
138.3689183294
 20
99.9732848155
 10
138.3803701373
 20
99.7902242437
 10
138.3993712122
 20
99.6041186752
 10
138.4260061907
 20
99.4144910733
 10
138.4601904364
 20
99.2218184747
 10
138.5016700394
 20
99.0275319899
 10
138.550499322
 20
98.8316196017
 10
138.606623962
 20
98.6340933272
 10
138.6696270836
 20
98.4364203284
 10
138.7395599048
 20
98.2385995129
 10
138.8163712075
 20
98.0406319731
 10
138.8994904619
 20
97.8439881485
 10
138.988964638
 20
97.6486778958
 10
139.0847467658
 20
97.4546913584
 10
139.1861254063
 20
97.2634694061
 10
139.293142232
 20
97.0750326245
 10
139.4057555704
 20
96.8893604282
 10
139.5231289658
 20
96.7078319307
 10
139.6452978621
 20
96.5304779865
 10
139.7722268152
 20
96.3572677412
 10
139.9029730377
 20
96.1894877452
 10
140.0375649533
 20
96.0271784325
 10
140.1759741382
 20
95.870299369
 10
140.3171725332
 20
95.7200158022
 10
140.4611809071
 20
95.5763768428
 10
140.6079784912
 20
95.4393333802
 10
140.7564749199
 20
95.3099033292
 10
140.9066828431
 20
95.1881433802
 10
141.0585896109
 20
95.0739968428
 10
141.2110669085
 20
94.9683115611
 10
141.3641189841
 20
94.8711505384
 10
141.5177415895
 20
94.7824507714
 10
141.6707936651
 20
94.7028710935
 10
141.8232709627
 20
94.632479414
 10
141.9751777305
 20
94.5712078235
 10
142.1253856537
 20
94.5195114279
 10
142.2738820824
 20
94.4774615253
 10
142.4206796665
 20
94.4449868175
 10
142.5646880404
 20
94.4223285163
 10
142.7058864354
 20
94.4095597158
 10
142.8442956203
 20
94.406607322
 10
142.9788875359
 20
94.4134932642
 10
143.0641619759
 20
94.4244488422
  0
LWPOLYLINE
  5
257
100
AcDbEntity
  8
ASSI
100
AcDbPolyline
 62
7
  6
CONTINUOUS
 90
44
 70
0
 10
138.3650157886
 20
100.1533003906
 10
138.3689183294
 20
99.9732848155
 10
138.3803701373
 20
99.7902242437
 10
138.3993712122
 20
99.6041186752
 10
138.4260061907
 20
99.4144910733
 10
138.4601904364
 20
99.2218184747
 10
138.5016700394
 20
99.0275319899
 10
138.550499322
 20
98.8316196017
 10
138.606623962
 20
98.6340933272
 10
138.6696270836
 20
98.4364203284
 10
138.7395599048
 20
98.2385995129
 10
138.8163712075
 20
98.0406319731
 10
138.8994904619
 20
97.8439881485
 10
138.988964638
 20
97.6486778958
 10
139.0847467658
 20
97.4546913584
 10
139.1861254063
 20
97.2634694061
 10
139.293142232
 20
97.0750326245
 10
139.4057555704
 20
96.8893604282
 10
139.5231289658
 20
96.7078319307
 10
139.6452978621
 20
96.5304779865
 10
139.7722268152
 20
96.3572677412
 10
139.9029730377
 20
96.1894877452
 10
140.0375649533
 20
96.0271784325
 10
140.1759741382
 20
95.870299369
 10
140.3171725332
 20
95.7200158022
 10
140.4611809071
 20
95.5763768428
 10
140.6079784912
 20
95.4393333802
 10
140.7564749199
 20
95.3099033292
 10
140.9066828431
 20
95.1881433802
 10
141.0585896109
 20
95.0739968428
 10
141.2110669085
 20
94.9683115611
 10
141.3641189841
 20
94.8711505384
 10
141.5177415895
 20
94.7824507714
 10
141.6707936651
 20
94.7028710935
 10
141.8232709627
 20
94.632479414
 10
141.9751777305
 20
94.5712078235
 10
142.1253856537
 20
94.5195114279
 10
142.2738820824
 20
94.4774615253
 10
142.4206796665
 20
94.4449868175
 10
142.5646880404
 20
94.4223285163
 10
142.7058864354
 20
94.4095597158
 10
142.8442956203
 20
94.406607322
 10
142.9788875359
 20
94.4134932642
 10
143.0641619759
 20
94.4244488422
  0
LWPOLYLINE
  5
258
100
AcDbEntity
  8
0
100
AcDbPolyline
 62
7
  6
CONTINUOUS
 90
17
 70
0
 10
137.375066295
 20
116.3193566342
 10
137.3788891825
 20
116.4941676937
 10
137.3903485979
 20
116.6641324529
 10
137.4094164382
 20
116.8288281639
 10
137.4360457639
 20
116.9878455523
 10
137.4701707133
 20
117.1407885727
 10
137.5117064674
 20
117.2872755586
 10
137.5605499229
 20
117.4269420594
 10
137.6165798679
 20
117.5594407676
 10
137.6796568065
 20
117.6844413752
 10
137.7496239326
 20
117.8016329615
 10
137.8263073969
 20
117.9107241796
 10
137.909516285
 20
118.0114433687
 10
137.9990435742
 20
118.1035400101
 10
138.0946667859
 20
118.1867853049
 10
138.1961482356
 20
118.2609723517
 10
138.2758756965
 20
118.3105119802
  0
LWPOLYLINE
  5
259
100
AcDbEntity
  8
ASSI
100
AcDbPolyline
 62
7
  6
CONTINUOUS
 90
17
 70
0
 10
137.375066295
 20
116.3193566342
 10
137.3788891825
 20
116.4941676937
 10
137.3903485979
 20
116.6641324529
 10
137.4094164382
 20
116.8288281639
 10
137.4360457639
 20
116.9878455523
 10
137.4701707133
 20
117.1407885727
 10
137.5117064674
 20
117.2872755586
 10
137.5605499229
 20
117.4269420594
 10
137.6165798679
 20
117.5594407676
 10
137.6796568065
 20
117.6844413752
 10
137.7496239326
 20
117.8016329615
 10
137.8263073969
 20
117.9107241796
 10
137.909516285
 20
118.0114433687
 10
137.9990435742
 20
118.1035400101
 10
138.0946667859
 20
118.1867853049
 10
138.1961482356
 20
118.2609723517
 10
138.2758756965
 20
118.3105119802
  0
LWPOLYLINE
  5
25A
100
AcDbEntity
  8
0
100
AcDbPolyline
 62
7
  6
CONTINUOUS
 90
17
 70
0
 10
137.375066295
 20
99.5817159599
 10
137.3788891825
 20
99.7565270194
 10
137.3903485979
 20
99.9264917787
 10
137.4094164382
 20
100.0911874896
 10
137.4360457639
 20
100.250204878
 10
137.4701707133
 20
100.4031478984
 10
137.5117064674
 20
100.5496348843
 10
137.5605499229
 20
100.6893013852
 10
137.6165798679
 20
100.8218000934
 10
137.6796568065
 20
100.946800701
 10
137.7496239326
 20
101.0639922872
 10
137.8263073969
 20
101.1730835053
 10
137.909516285
 20
101.2738026944
 10
137.9990435742
 20
101.3658993358
 10
138.0946667859
 20
101.4491446306
 10
138.1961482356
 20
101.5233316774
 10
138.2758756965
 20
101.5728713059
  0
LWPOLYLINE
  5
25B
100
AcDbEntity
  8
ASSI
100
AcDbPolyline
 62
7
  6
CONTINUOUS
 90
17
 70
0
 10
137.375066295
 20
99.5817159599
 10
137.3788891825
 20
99.7565270194
 10
137.3903485979
 20
99.9264917787
 10
137.4094164382
 20
100.0911874896
 10
137.4360457639
 20
100.250204878
 10
137.4701707133
 20
100.4031478984
 10
137.5117064674
 20
100.5496348843
 10
137.5605499229
 20
100.6893013852
 10
137.6165798679
 20
100.8218000934
 10
137.6796568065
 20
100.946800701
 10
137.7496239326
 20
101.0639922872
 10
137.8263073969
 20
101.1730835053
 10
137.909516285
 20
101.2738026944
 10
137.9990435742
 20
101.3658993358
 10
138.0946667859
 20
101.4491446306
 10
138.1961482356
 20
101.5233316774
 10
138.2758756965
 20
101.5728713059
  0
LWPOLYLINE
  5
25C
100
AcDbEntity
  8
0
100
AcDbPolyline
 62
7
  6
CONTINUOUS
 90
33
 70
0
 10
136.6679595138
 20
116.3193566342
 10
136.6723090612
 20
116.5150212542
 10
136.6850751921
 20
116.7043649784
 10
136.7062579066
 20
116.8873878067
 10
136.7359513435
 20
117.0645133621
 10
136.774061364
 20
117.2353180217
 10
136.8203055508
 20
117.3985309168
 10
136.8747446716
 20
117.554095204
 10
136.9373179586
 20
117.7020677267
 10
137.0075606921
 20
117.8413481463
 10
137.0855300791
 20
117.9718715005
 10
137.1711689126
 20
118.0937027515
 10
137.2638408511
 20
118.2059364472
 10
137.3635981652
 20
118.3085009141
 10
137.4703885842
 20
118.4014678256
 10
137.5834189555
 20
118.4841467499
 10
137.7027356675
 20
118.5564611085
 10
137.8282923316
 20
118.6184874799
 10
137.9591566297
 20
118.6697651676
 10
138.0953681618
 20
118.7102142064
 10
138.2368873278
 20
118.7399145616
 10
138.382663009
 20
118.7586454328
 10
138.5327269682
 20
118.766325116
 10
138.6870474426
 20
118.7630353153
 10
138.8444780247
 20
118.7488003418
 10
139.0050418618
 20
118.7235386599
 10
139.1687158066
 20
118.6873318053
 10
139.3342840099
 20
118.6404486973
 10
139.5017605571
 20
118.5828098281
 10
139.6711313628
 20
118.5144947055
 10
139.8411383224
 20
118.4360107717
 10
140.0117861707
 20
118.3472823025
 10
140.0970965886
 20
118.2992966884
  0
LWPOLYLINE
  5
25D
100
AcDbEntity
  8
ASSI
100
AcDbPolyline
 62
7
  6
CONTINUOUS
 90
33
 70
0
 10
136.6679595138
 20
116.3193566342
 10
136.6723090612
 20
116.5150212542
 10
136.6850751921
 20
116.7043649784
 10
136.7062579066
 20
116.8873878067
 10
136.7359513435
 20
117.0645133621
 10
136.774061364
 20
117.2353180217
 10
136.8203055508
 20
117.3985309168
 10
136.8747446716
 20
117.554095204
 10
136.9373179586
 20
117.7020677267
 10
137.0075606921
 20
117.8413481463
 10
137.0855300791
 20
117.9718715005
 10
137.1711689126
 20
118.0937027515
 10
137.2638408511
 20
118.2059364472
 10
137.3635981652
 20
118.3085009141
 10
137.4703885842
 20
118.4014678256
 10
137.5834189555
 20
118.4841467499
 10
137.7027356675
 20
118.5564611085
 10
137.8282923316
 20
118.6184874799
 10
137.9591566297
 20
118.6697651676
 10
138.0953681618
 20
118.7102142064
 10
138.2368873278
 20
118.7399145616
 10
138.382663009
 20
118.7586454328
 10
138.5327269682
 20
118.766325116
 10
138.6870474426
 20
118.7630353153
 10
138.8444780247
 20
118.7488003418
 10
139.0050418618
 20
118.7235386599
 10
139.1687158066
 20
118.6873318053
 10
139.3342840099
 20
118.6404486973
 10
139.5017605571
 20
118.5828098281
 10
139.6711313628
 20
118.5144947055
 10
139.8411383224
 20
118.4360107717
 10
140.0117861707
 20
118.3472823025
 10
140.0970965886
 20
118.2992966884
  0
LWPOLYLINE
  5
25E
100
AcDbEntity
  8
0
100
AcDbPolyline
 62
7
  6
CONTINUOUS
 90
33
 70
0
 10
136.6679595138
 20
99.5817159599
 10
136.6723090612
 20
99.77738058
 10
136.6850751921
 20
99.9667243041
 10
136.7062579066
 20
100.1497471325
 10
136.7359513435
 20
100.3268726879
 10
136.774061364
 20
100.4976773474
 10
136.8203055508
 20
100.6608902425
 10
136.8747446716
 20
100.8164545297
 10
136.9373179586
 20
100.9644270525
 10
137.0075606921
 20
101.1037074721
 10
137.0855300791
 20
101.2342308263
 10
137.1711689126
 20
101.3560620773
 10
137.2638408511
 20
101.468295773
 10
137.3635981652
 20
101.5708602398
 10
137.4703885842
 20
101.6638271514
 10
137.5834189555
 20
101.7465060757
 10
137.7027356675
 20
101.8188204342
 10
137.8282923316
 20
101.8808468056
 10
137.9591566297
 20
101.9321244934
 10
138.0953681618
 20
101.9725735322
 10
138.2368873278
 20
102.0022738874
 10
138.382663009
 20
102.0210047586
 10
138.5327269682
 20
102.0286844418
 10
138.6870474426
 20
102.025394641
 10
138.8444780247
 20
102.0111596676
 10
139.0050418618
 20
101.9858979856
 10
139.1687158066
 20
101.9496911311
 10
139.3342840099
 20
101.9028080231
 10
139.5017605571
 20
101.8451691539
 10
139.6711313628
 20
101.7768540313
 10
139.8411383224
 20
101.6983700974
 10
140.0117861707
 20
101.6096416283
 10
140.0970965886
 20
101.5616560141
  0
LWPOLYLINE
  5
25F
100
AcDbEntity
  8
ASSI
100
AcDbPolyline
 62
7
  6
CONTINUOUS
 90
33
 70
0
 10
136.6679595138
 20
99.5817159599
 10
136.6723090612
 20
99.77738058
 10
136.6850751921
 20
99.9667243041
 10
136.7062579066
 20
100.1497471325
 10
136.7359513435
 20
100.3268726879
 10
136.774061364
 20
100.4976773474
 10
136.8203055508
 20
100.6608902425
 10
136.8747446716
 20
100.8164545297
 10
136.9373179586
 20
100.9644270525
 10
137.0075606921
 20
101.1037074721
 10
137.0855300791
 20
101.2342308263
 10
137.1711689126
 20
101.3560620773
 10
137.2638408511
 20
101.468295773
 10
137.3635981652
 20
101.5708602398
 10
137.4703885842
 20
101.6638271514
 10
137.5834189555
 20
101.7465060757
 10
137.7027356675
 20
101.8188204342
 10
137.8282923316
 20
101.8808468056
 10
137.9591566297
 20
101.9321244934
 10
138.0953681618
 20
101.9725735322
 10
138.2368873278
 20
102.0022738874
 10
138.382663009
 20
102.0210047586
 10
138.5327269682
 20
102.0286844418
 10
138.6870474426
 20
102.025394641
 10
138.8444780247
 20
102.0111596676
 10
139.0050418618
 20
101.9858979856
 10
139.1687158066
 20
101.9496911311
 10
139.3342840099
 20
101.9028080231
 10
139.5017605571
 20
101.8451691539
 10
139.6711313628
 20
101.7768540313
 10
139.8411383224
 20
101.6983700974
 10
140.0117861707
 20
101.6096416283
 10
140.0970965886
 20
101.5616560141
  0
LWPOLYLINE
  5
260
100
AcDbEntity
  8
0
100
AcDbPolyline
 62
7
  6
CONTINUOUS
 90
44
 70
0
 10
138.3650157886
 20
116.8909410648
 10
138.3689183294
 20
116.7109254897
 10
138.3803701373
 20
116.5278649179
 10
138.3993712122
 20
116.3417593495
 10
138.4260061907
 20
116.1521317476
 10
138.4601904364
 20
115.959459149
 10
138.5016700394
 20
115.7651726642
 10
138.550499322
 20
115.5692602759
 10
138.606623962
 20
115.3717340014
 10
138.6696270836
 20
115.1740610027
 10
138.7395599048
 20
114.9762401871
 10
138.8163712075
 20
114.7782726473
 10
138.8994904619
 20
114.5816288228
 10
138.988964638
 20
114.3863185701
 10
139.0847467658
 20
114.1923320326
 10
139.1861254063
 20
114.0011100804
 10
139.293142232
 20
113.8126732988
 10
139.4057555704
 20
113.6270011024
 10
139.5231289658
 20
113.4454726049
 10
139.6452978621
 20
113.2681186608
 10
139.7722268152
 20
113.0949084155
 10
139.9029730377
 20
112.9271284194
 10
140.0375649533
 20
112.7648191067
 10
140.1759741382
 20
112.6079400433
 10
140.3171725332
 20
112.4576564764
 10
140.4611809071
 20
112.3140175171
 10
140.6079784912
 20
112.1769740544
 10
140.7564749199
 20
112.0475440034
 10
140.9066828431
 20
111.9257840544
 10
141.0585896109
 20
111.8116375171
 10
141.2110669085
 20
111.7059522353
 10
141.3641189841
 20
111.6087912127
 10
141.5177415895
 20
111.5200914457
 10
141.6707936651
 20
111.4405117678
 10
141.8232709627
 20
111.3701200882
 10
141.9751777305
 20
111.3088484978
 10
142.1253856537
 20
111.2571521022
 10
142.2738820824
 20
111.2151021995
 10
142.4206796665
 20
111.1826274917
 10
142.5646880404
 20
111.1599691905
 10
142.7058864354
 20
111.1472003901
 10
142.8442956203
 20
111.1442479962
 10
142.9788875359
 20
111.1511339384
 10
143.0641619759
 20
111.1620895165
  0
LWPOLYLINE
  5
261
100
AcDbEntity
  8
ASSI
100
AcDbPolyline
 62
7
  6
CONTINUOUS
 90
44
 70
0
 10
138.3650157886
 20
116.8909410648
 10
138.3689183294
 20
116.7109254897
 10
138.3803701373
 20
116.5278649179
 10
138.3993712122
 20
116.3417593495
 10
138.4260061907
 20
116.1521317476
 10
138.4601904364
 20
115.959459149
 10
138.5016700394
 20
115.7651726642
 10
138.550499322
 20
115.5692602759
 10
138.606623962
 20
115.3717340014
 10
138.6696270836
 20
115.1740610027
 10
138.7395599048
 20
114.9762401871
 10
138.8163712075
 20
114.7782726473
 10
138.8994904619
 20
114.5816288228
 10
138.988964638
 20
114.3863185701
 10
139.0847467658
 20
114.1923320326
 10
139.1861254063
 20
114.0011100804
 10
139.293142232
 20
113.8126732988
 10
139.4057555704
 20
113.6270011024
 10
139.5231289658
 20
113.4454726049
 10
139.6452978621
 20
113.2681186608
 10
139.7722268152
 20
113.0949084155
 10
139.9029730377
 20
112.9271284194
 10
140.0375649533
 20
112.7648191067
 10
140.1759741382
 20
112.6079400433
 10
140.3171725332
 20
112.4576564764
 10
140.4611809071
 20
112.3140175171
 10
140.6079784912
 20
112.1769740544
 10
140.7564749199
 20
112.0475440034
 10
140.9066828431
 20
111.9257840544
 10
141.0585896109
 20
111.8116375171
 10
141.2110669085
 20
111.7059522353
 10
141.3641189841
 20
111.6087912127
 10
141.5177415895
 20
111.5200914457
 10
141.6707936651
 20
111.4405117678
 10
141.8232709627
 20
111.3701200882
 10
141.9751777305
 20
111.3088484978
 10
142.1253856537
 20
111.2571521022
 10
142.2738820824
 20
111.2151021995
 10
142.4206796665
 20
111.1826274917
 10
142.5646880404
 20
111.1599691905
 10
142.7058864354
 20
111.1472003901
 10
142.8442956203
 20
111.1442479962
 10
142.9788875359
 20
111.1511339384
 10
143.0641619759
 20
111.1620895165
  0
LWPOLYLINE
  5
262
100
AcDbEntity
  8
0
100
AcDbPolyline
 62
7
  6
CONTINUOUS
 90
15
 70
0
 10
143.5116129884
 20
112.4225918535
 10
143.4925451481
 20
112.2578961425
 10
143.4659158224
 20
112.0988787541
 10
143.431790873
 20
111.9459357337
 10
143.3902551189
 20
111.7994487478
 10
143.3414116633
 20
111.659782247
 10
143.2853817184
 20
111.5272835388
 10
143.2223047797
 20
111.4022829312
 10
143.1523376537
 20
111.2850913449
 10
143.0756541894
 20
111.1760001268
 10
142.9924453012
 20
111.0752809377
 10
142.9029180121
 20
110.9831842964
 10
142.8072948004
 20
110.8999390015
 10
142.7058133507
 20
110.8257519547
 10
142.6260858897
 20
110.7762123263
  0
LWPOLYLINE
  5
263
100
AcDbEntity
  8
ASSI
100
AcDbPolyline
 62
7
  6
CONTINUOUS
 90
15
 70
0
 10
143.5116129884
 20
112.4225918535
 10
143.4925451481
 20
112.2578961425
 10
143.4659158224
 20
112.0988787541
 10
143.431790873
 20
111.9459357337
 10
143.3902551189
 20
111.7994487478
 10
143.3414116633
 20
111.659782247
 10
143.2853817184
 20
111.5272835388
 10
143.2223047797
 20
111.4022829312
 10
143.1523376537
 20
111.2850913449
 10
143.0756541894
 20
111.1760001268
 10
142.9924453012
 20
111.0752809377
 10
142.9029180121
 20
110.9831842964
 10
142.8072948004
 20
110.8999390015
 10
142.7058133507
 20
110.8257519547
 10
142.6260858897
 20
110.7762123263
  0
LWPOLYLINE
  5
264
100
AcDbEntity
  8
0
100
AcDbPolyline
 62
7
  6
CONTINUOUS
 90
13
 70
0
 10
138.8278106563
 20
101.7586083836
 10
138.8163712075
 20
101.7447548841
 10
138.7395599048
 20
101.6354871113
 10
138.6696270836
 20
101.5184229646
 10
138.606623962
 20
101.3935043915
 10
138.550499322
 20
101.2607894445
 10
138.5016700394
 20
101.1212638878
 10
138.4601904364
 20
100.9748770089
 10
138.4260061907
 20
100.8216795203
 10
138.3993712122
 20
100.662809324
 10
138.3803701373
 20
100.4986457206
 10
138.3689183294
 20
100.3288094095
 10
138.3650157886
 20
100.1533003906
  0
LWPOLYLINE
  5
265
100
AcDbEntity
  8
ASSI
100
AcDbPolyline
 62
7
  6
CONTINUOUS
 90
13
 70
0
 10
138.8278106563
 20
101.7586083836
 10
138.8163712075
 20
101.7447548841
 10
138.7395599048
 20
101.6354871113
 10
138.6696270836
 20
101.5184229646
 10
138.606623962
 20
101.3935043915
 10
138.550499322
 20
101.2607894445
 10
138.5016700394
 20
101.1212638878
 10
138.4601904364
 20
100.9748770089
 10
138.4260061907
 20
100.8216795203
 10
138.3993712122
 20
100.662809324
 10
138.3803701373
 20
100.4986457206
 10
138.3689183294
 20
100.3288094095
 10
138.3650157886
 20
100.1533003906
  0
LWPOLYLINE
  5
266
100
AcDbEntity
  8
0
100
AcDbPolyline
 62
7
  6
CONTINUOUS
 90
49
 70
0
 10
142.6260858897
 20
110.7762123263
 10
142.5987260163
 20
110.7608076246
 10
142.4862989926
 20
110.7052674371
 10
142.3688115563
 20
110.6592693917
 10
142.2465556948
 20
110.6229278834
 10
142.11983541
 20
110.5963333539
 10
141.9889657266
 20
110.579551979
 10
141.8542719368
 20
110.5726255382
 10
141.7160889534
 20
110.5755713192
 10
141.5747604858
 20
110.5883820348
 10
141.4306379352
 20
110.6110258512
 10
141.2840795928
 20
110.6434464941
 10
141.1354499242
 20
110.6855633518
 10
140.9851184845
 20
110.7372717067
 10
140.8334590128
 20
110.7984430092
 10
140.6808485922
 20
110.8689251672
 10
140.5276666542
 20
110.9485429436
 10
140.3742940472
 20
111.0370983901
 10
140.2211121081
 20
111.1343713279
 10
140.0685016845
 20
111.240119912
 10
139.9168422089
 20
111.3540812214
 10
139.7665107664
 20
111.4759719007
 10
139.6178810959
 20
111.6054889155
 10
139.4713227529
 20
111.7423102299
 10
139.3272002071
 20
111.886095576
 10
139.1858717519
 20
112.0364874793
 10
139.047688786
 20
112.1931119859
 10
138.9129950155
 20
112.3555794794
 10
138.7821253554
 20
112.5234859203
 10
138.6554050956
 20
112.6964138924
 10
138.5331492523
 20
112.87393345
 10
138.4156618265
 20
113.0556031015
 10
138.3032348089
 20
113.2409712697
 10
138.1961474755
 20
113.4295774576
 10
138.0946660177
 20
113.6209528547
 10
137.999042797
 20
113.8146215702
 10
137.9095155132
 20
114.0101022005
 10
137.8263066433
 20
114.2069090341
 10
137.7496232098
 20
114.4045524856
 10
137.6796561366
 20
114.6025403983
 10
137.6165792703
 20
114.8003806623
 10
137.5605494102
 20
114.9975812873
 10
137.5117060502
 20
115.1936508662
 10
137.4701703969
 20
115.3881021145
 10
137.4360455451
 20
115.5804515299
 10
137.4094163061
 20
115.7702195088
 10
137.3903485351
 20
115.9569339562
 10
137.3788891658
 20
116.1401313964
 10
137.375066295
 20
116.3193566342
  0
LWPOLYLINE
  5
267
100
AcDbEntity
  8
ASSI
100
AcDbPolyline
 62
7
  6
CONTINUOUS
 90
49
 70
0
 10
142.6260858897
 20
110.7762123263
 10
142.5987260163
 20
110.7608076246
 10
142.4862989926
 20
110.7052674371
 10
142.3688115563
 20
110.6592693917
 10
142.2465556948
 20
110.6229278834
 10
142.11983541
 20
110.5963333539
 10
141.9889657266
 20
110.579551979
 10
141.8542719368
 20
110.5726255382
 10
141.7160889534
 20
110.5755713192
 10
141.5747604858
 20
110.5883820348
 10
141.4306379352
 20
110.6110258512
 10
141.2840795928
 20
110.6434464941
 10
141.1354499242
 20
110.6855633518
 10
140.9851184845
 20
110.7372717067
 10
140.8334590128
 20
110.7984430092
 10
140.6808485922
 20
110.8689251672
 10
140.5276666542
 20
110.9485429436
 10
140.3742940472
 20
111.0370983901
 10
140.2211121081
 20
111.1343713279
 10
140.0685016845
 20
111.240119912
 10
139.9168422089
 20
111.3540812214
 10
139.7665107664
 20
111.4759719007
 10
139.6178810959
 20
111.6054889155
 10
139.4713227529
 20
111.7423102299
 10
139.3272002071
 20
111.886095576
 10
139.1858717519
 20
112.0364874793
 10
139.047688786
 20
112.1931119859
 10
138.9129950155
 20
112.3555794794
 10
138.7821253554
 20
112.5234859203
 10
138.6554050956
 20
112.6964138924
 10
138.5331492523
 20
112.87393345
 10
138.4156618265
 20
113.0556031015
 10
138.3032348089
 20
113.2409712697
 10
138.1961474755
 20
113.4295774576
 10
138.0946660177
 20
113.6209528547
 10
137.999042797
 20
113.8146215702
 10
137.9095155132
 20
114.0101022005
 10
137.8263066433
 20
114.2069090341
 10
137.7496232098
 20
114.4045524856
 10
137.6796561366
 20
114.6025403983
 10
137.6165792703
 20
114.8003806623
 10
137.5605494102
 20
114.9975812873
 10
137.5117060502
 20
115.1936508662
 10
137.4701703969
 20
115.3881021145
 10
137.4360455451
 20
115.5804515299
 10
137.4094163061
 20
115.7702195088
 10
137.3903485351
 20
115.9569339562
 10
137.3788891658
 20
116.1401313964
 10
137.375066295
 20
116.3193566342
  0
LWPOLYLINE
  5
268
100
AcDbEntity
  8
0
100
AcDbPolyline
 62
7
  6
CONTINUOUS
 90
64
 70
0
 10
143.5268952913
 20
112.3590930789
 10
143.5225457439
 20
112.1634284589
 10
143.509779613
 20
111.9740847347
 10
143.4885968985
 20
111.7910619063
 10
143.4589034616
 20
111.6139363509
 10
143.4207934411
 20
111.4431316914
 10
143.3745492542
 20
111.2799187963
 10
143.3201101335
 20
111.1243545091
 10
143.2575368465
 20
110.9763819863
 10
143.187294113
 20
110.8371015668
 10
143.1093247259
 20
110.7065782126
 10
143.0236858925
 20
110.5847469615
 10
142.931013954
 20
110.4725132659
 10
142.8312566399
 20
110.369948799
 10
142.7244662208
 20
110.2769818875
 10
142.6114358496
 20
110.1943029632
 10
142.4921191376
 20
110.1219886046
 10
142.3665624735
 20
110.0599622332
 10
142.2356981754
 20
110.0086845454
 10
142.0994866433
 20
109.9682355066
 10
141.9579674773
 20
109.9385351514
 10
141.8121917961
 20
109.9198042803
 10
141.6621278369
 20
109.912124597
 10
141.5078073625
 20
109.9154143978
 10
141.3503767804
 20
109.9296493712
 10
141.1898129433
 20
109.9549110532
 10
141.0261389985
 20
109.9911179077
 10
140.8605707952
 20
110.0380010158
 10
140.693094248
 20
110.0956398849
 10
140.5237234423
 20
110.1639550076
 10
140.3537164826
 20
110.2424389414
 10
140.1830686344
 20
110.3311674106
 10
140.0117846322
 20
110.4300646909
 10
139.8411367852
 20
110.5383961676
 10
139.6711298278
 20
110.6562320973
 10
139.5017590255
 20
110.7835022233
 10
139.3342824833
 20
110.9192611605
 10
139.1687142843
 20
111.063572154
 10
139.0050403455
 20
111.2163719588
 10
138.8444765225
 20
111.3765254547
 10
138.6870459634
 20
111.5440874482
 10
138.53272552
 20
111.7190031328
 10
138.3826616033
 20
111.8999729685
 10
138.2368859853
 20
112.0870419659
 10
138.0953668938
 20
112.2801651143
 10
137.9591554239
 20
112.4779078429
 10
137.8282911664
 20
112.6803043963
 10
137.7027345305
 20
112.8873205297
 10
137.5834178379
 20
113.097418938
 10
137.470387469
 20
113.3106226531
 10
137.3635970435
 20
113.5269086429
 10
137.2638397427
 20
113.7446705064
 10
137.1711678457
 20
113.9639195523
 10
137.0855290735
 20
114.1846444718
 10
137.00755977
 20
114.4052049371
 10
136.9373171507
 20
114.6255998336
 10
136.874744
 20
114.845830276
 10
136.8203050154
 20
115.0642592804
 10
136.7740609655
 20
115.2808735009
 10
136.7359510817
 20
115.4956862834
 10
136.7062577554
 20
115.7071006826
 10
136.6850751173
 20
115.9145843832
 10
136.6723090368
 20
116.1186697004
 10
136.6679595138
 20
116.3193566342
  0
LWPOLYLINE
  5
269
100
AcDbEntity
  8
ASSI
100
AcDbPolyline
 62
7
  6
CONTINUOUS
 90
64
 70
0
 10
143.5268952913
 20
112.3590930789
 10
143.5225457439
 20
112.1634284589
 10
143.509779613
 20
111.9740847347
 10
143.4885968985
 20
111.7910619063
 10
143.4589034616
 20
111.6139363509
 10
143.4207934411
 20
111.4431316914
 10
143.3745492542
 20
111.2799187963
 10
143.3201101335
 20
111.1243545091
 10
143.2575368465
 20
110.9763819863
 10
143.187294113
 20
110.8371015668
 10
143.1093247259
 20
110.7065782126
 10
143.0236858925
 20
110.5847469615
 10
142.931013954
 20
110.4725132659
 10
142.8312566399
 20
110.369948799
 10
142.7244662208
 20
110.2769818875
 10
142.6114358496
 20
110.1943029632
 10
142.4921191376
 20
110.1219886046
 10
142.3665624735
 20
110.0599622332
 10
142.2356981754
 20
110.0086845454
 10
142.0994866433
 20
109.9682355066
 10
141.9579674773
 20
109.9385351514
 10
141.8121917961
 20
109.9198042803
 10
141.6621278369
 20
109.912124597
 10
141.5078073625
 20
109.9154143978
 10
141.3503767804
 20
109.9296493712
 10
141.1898129433
 20
109.9549110532
 10
141.0261389985
 20
109.9911179077
 10
140.8605707952
 20
110.0380010158
 10
140.693094248
 20
110.0956398849
 10
140.5237234423
 20
110.1639550076
 10
140.3537164826
 20
110.2424389414
 10
140.1830686344
 20
110.3311674106
 10
140.0117846322
 20
110.4300646909
 10
139.8411367852
 20
110.5383961676
 10
139.6711298278
 20
110.6562320973
 10
139.5017590255
 20
110.7835022233
 10
139.3342824833
 20
110.9192611605
 10
139.1687142843
 20
111.063572154
 10
139.0050403455
 20
111.2163719588
 10
138.8444765225
 20
111.3765254547
 10
138.6870459634
 20
111.5440874482
 10
138.53272552
 20
111.7190031328
 10
138.3826616033
 20
111.8999729685
 10
138.2368859853
 20
112.0870419659
 10
138.0953668938
 20
112.2801651143
 10
137.9591554239
 20
112.4779078429
 10
137.8282911664
 20
112.6803043963
 10
137.7027345305
 20
112.8873205297
 10
137.5834178379
 20
113.097418938
 10
137.470387469
 20
113.3106226531
 10
137.3635970435
 20
113.5269086429
 10
137.2638397427
 20
113.7446705064
 10
137.1711678457
 20
113.9639195523
 10
137.0855290735
 20
114.1846444718
 10
137.00755977
 20
114.4052049371
 10
136.9373171507
 20
114.6255998336
 10
136.874744
 20
114.845830276
 10
136.8203050154
 20
115.0642592804
 10
136.7740609655
 20
115.2808735009
 10
136.7359510817
 20
115.4956862834
 10
136.7062577554
 20
115.7071006826
 10
136.6850751173
 20
115.9145843832
 10
136.6723090368
 20
116.1186697004
 10
136.6679595138
 20
116.3193566342
  0
LWPOLYLINE
  5
26A
100
AcDbEntity
  8
0
100
AcDbPolyline
 62
7
  6
CONTINUOUS
 90
64
 70
0
 10
143.5268952913
 20
95.6214524046
 10
143.5225457439
 20
95.4257877846
 10
143.509779613
 20
95.2364440604
 10
143.4885968985
 20
95.0534212321
 10
143.4589034616
 20
94.8762956767
 10
143.4207934411
 20
94.7054910171
 10
143.3745492542
 20
94.5422781221
 10
143.3201101335
 20
94.3867138348
 10
143.2575368465
 20
94.2387413121
 10
143.187294113
 20
94.0994608925
 10
143.1093247259
 20
93.9689375383
 10
143.0236858925
 20
93.8471062873
 10
142.931013954
 20
93.7348725916
 10
142.8312566399
 20
93.6323081247
 10
142.7244662208
 20
93.5393412132
 10
142.6114358496
 20
93.4566622889
 10
142.4921191376
 20
93.3843479303
 10
142.3665624735
 20
93.3223215589
 10
142.2356981754
 20
93.2710438712
 10
142.0994866433
 20
93.2305948324
 10
141.9579674773
 20
93.2008944772
 10
141.8121917961
 20
93.182163606
 10
141.6621278369
 20
93.1744839228
 10
141.5078073625
 20
93.1777737236
 10
141.3503767804
 20
93.192008697
 10
141.1898129433
 20
93.2172703789
 10
141.0261389985
 20
93.2534772335
 10
140.8605707952
 20
93.3003603415
 10
140.693094248
 20
93.3579992107
 10
140.5237234423
 20
93.4263143333
 10
140.3537164826
 20
93.5047982671
 10
140.1830686344
 20
93.5935267363
 10
140.0117846322
 20
93.6924240167
 10
139.8411367852
 20
93.8007554933
 10
139.6711298278
 20
93.918591423
 10
139.5017590255
 20
94.045861549
 10
139.3342824833
 20
94.1816204863
 10
139.1687142843
 20
94.3259314798
 10
139.0050403455
 20
94.4787312846
 10
138.8444765225
 20
94.6388847804
 10
138.6870459634
 20
94.8064467739
 10
138.53272552
 20
94.9813624585
 10
138.3826616033
 20
95.1623322943
 10
138.2368859853
 20
95.3494012916
 10
138.0953668938
 20
95.5425244401
 10
137.9591554239
 20
95.7402671686
 10
137.8282911664
 20
95.942663722
 10
137.7027345305
 20
96.1496798555
 10
137.5834178379
 20
96.3597782638
 10
137.470387469
 20
96.5729819788
 10
137.3635970435
 20
96.7892679687
 10
137.2638397427
 20
97.0070298321
 10
137.1711678457
 20
97.226278878
 10
137.0855290735
 20
97.4470037975
 10
137.00755977
 20
97.6675642629
 10
136.9373171507
 20
97.8879591594
 10
136.874744
 20
98.1081896017
 10
136.8203050154
 20
98.3266186062
 10
136.7740609655
 20
98.5432328266
 10
136.7359510817
 20
98.7580456092
 10
136.7062577554
 20
98.9694600083
 10
136.6850751173
 20
99.1769437089
 10
136.6723090368
 20
99.3810290261
 10
136.6679595138
 20
99.5817159599
  0
LWPOLYLINE
  5
26B
100
AcDbEntity
  8
ASSI
100
AcDbPolyline
 62
7
  6
CONTINUOUS
 90
64
 70
0
 10
143.5268952913
 20
95.6214524046
 10
143.5225457439
 20
95.4257877846
 10
143.509779613
 20
95.2364440604
 10
143.4885968985
 20
95.0534212321
 10
143.4589034616
 20
94.8762956767
 10
143.4207934411
 20
94.7054910171
 10
143.3745492542
 20
94.5422781221
 10
143.3201101335
 20
94.3867138348
 10
143.2575368465
 20
94.2387413121
 10
143.187294113
 20
94.0994608925
 10
143.1093247259
 20
93.9689375383
 10
143.0236858925
 20
93.8471062873
 10
142.931013954
 20
93.7348725916
 10
142.8312566399
 20
93.6323081247
 10
142.7244662208
 20
93.5393412132
 10
142.6114358496
 20
93.4566622889
 10
142.4921191376
 20
93.3843479303
 10
142.3665624735
 20
93.3223215589
 10
142.2356981754
 20
93.2710438712
 10
142.0994866433
 20
93.2305948324
 10
141.9579674773
 20
93.2008944772
 10
141.8121917961
 20
93.182163606
 10
141.6621278369
 20
93.1744839228
 10
141.5078073625
 20
93.1777737236
 10
141.3503767804
 20
93.192008697
 10
141.1898129433
 20
93.2172703789
 10
141.0261389985
 20
93.2534772335
 10
140.8605707952
 20
93.3003603415
 10
140.693094248
 20
93.3579992107
 10
140.5237234423
 20
93.4263143333
 10
140.3537164826
 20
93.5047982671
 10
140.1830686344
 20
93.5935267363
 10
140.0117846322
 20
93.6924240167
 10
139.8411367852
 20
93.8007554933
 10
139.6711298278
 20
93.918591423
 10
139.5017590255
 20
94.045861549
 10
139.3342824833
 20
94.1816204863
 10
139.1687142843
 20
94.3259314798
 10
139.0050403455
 20
94.4787312846
 10
138.8444765225
 20
94.6388847804
 10
138.6870459634
 20
94.8064467739
 10
138.53272552
 20
94.9813624585
 10
138.3826616033
 20
95.1623322943
 10
138.2368859853
 20
95.3494012916
 10
138.0953668938
 20
95.5425244401
 10
137.9591554239
 20
95.7402671686
 10
137.8282911664
 20
95.942663722
 10
137.7027345305
 20
96.1496798555
 10
137.5834178379
 20
96.3597782638
 10
137.470387469
 20
96.5729819788
 10
137.3635970435
 20
96.7892679687
 10
137.2638397427
 20
97.0070298321
 10
137.1711678457
 20
97.226278878
 10
137.0855290735
 20
97.4470037975
 10
137.00755977
 20
97.6675642629
 10
136.9373171507
 20
97.8879591594
 10
136.874744
 20
98.1081896017
 10
136.8203050154
 20
98.3266186062
 10
136.7740609655
 20
98.5432328266
 10
136.7359510817
 20
98.7580456092
 10
136.7062577554
 20
98.9694600083
 10
136.6850751173
 20
99.1769437089
 10
136.6723090368
 20
99.3810290261
 10
136.6679595138
 20
99.5817159599
  0
LINE
  5
26C
100
AcDbEntity
  8
0
100
AcDbLine
 62
7
  6
CONTINUOUS
 10
143.5217356812
 20
112.5727304939
 11
143.5116129884
 21
112.4225918535
  0
LINE
  5
26D
100
AcDbEntity
  8
ASSI
100
AcDbLine
 62
7
  6
CONTINUOUS
 10
143.5217356812
 20
112.5727304939
 11
143.5116129884
 21
112.4225918535
  0
LINE
  5
26E
100
AcDbEntity
  8
0
100
AcDbLine
 62
7
  6
CONTINUOUS
 10
143.5217356812
 20
95.8350898196
 11
143.5116129884
 21
95.6849511793
  0
LINE
  5
26F
100
AcDbEntity
  8
ASSI
100
AcDbLine
 62
7
  6
CONTINUOUS
 10
143.5217356812
 20
95.8350898196
 11
143.5116129884
 21
95.6849511793
  0
LWPOLYLINE
  5
270
100
AcDbEntity
  8
0
100
AcDbPolyline
 62
7
  6
CONTINUOUS
 90
15
 70
0
 10
143.5116129884
 20
95.6849511793
 10
143.4925451481
 20
95.5202554683
 10
143.4659158224
 20
95.3612380799
 10
143.431790873
 20
95.2082950595
 10
143.3902551189
 20
95.0618080736
 10
143.3414116633
 20
94.9221415727
 10
143.2853817184
 20
94.7896428645
 10
143.2223047797
 20
94.6646422569
 10
143.1523376537
 20
94.5474506707
 10
143.0756541894
 20
94.4383594526
 10
142.9924453012
 20
94.3376402635
 10
142.9029180121
 20
94.2455436221
 10
142.8072948004
 20
94.1622983273
 10
142.7058133507
 20
94.0881112805
 10
142.6260858897
 20
94.038571652
  0
LWPOLYLINE
  5
271
100
AcDbEntity
  8
ASSI
100
AcDbPolyline
 62
7
  6
CONTINUOUS
 90
15
 70
0
 10
143.5116129884
 20
95.6849511793
 10
143.4925451481
 20
95.5202554683
 10
143.4659158224
 20
95.3612380799
 10
143.431790873
 20
95.2082950595
 10
143.3902551189
 20
95.0618080736
 10
143.3414116633
 20
94.9221415727
 10
143.2853817184
 20
94.7896428645
 10
143.2223047797
 20
94.6646422569
 10
143.1523376537
 20
94.5474506707
 10
143.0756541894
 20
94.4383594526
 10
142.9924453012
 20
94.3376402635
 10
142.9029180121
 20
94.2455436221
 10
142.8072948004
 20
94.1622983273
 10
142.7058133507
 20
94.0881112805
 10
142.6260858897
 20
94.038571652
  0
LWPOLYLINE
  5
272
100
AcDbEntity
  8
0
100
AcDbPolyline
 62
7
  6
CONTINUOUS
 90
15
 70
0
 10
138.2758756965
 20
101.5728713059
 10
138.30323557
 20
101.5882760076
 10
138.4156625937
 20
101.643816195
 10
138.53315003
 20
101.6898142404
 10
138.6554058915
 20
101.7261557488
 10
138.7821261763
 20
101.7527502783
 10
138.9129958597
 20
101.7695316531
 10
139.0476896495
 20
101.7764580939
 10
139.1858726328
 20
101.7735123129
 10
139.3272011005
 20
101.7607015973
 10
139.4713236511
 20
101.7380577809
 10
139.6178819935
 20
101.705637138
 10
139.766511662
 20
101.6635202804
 10
139.9168431018
 20
101.6118119254
 10
140.0685025735
 20
101.5506406229
  0
LWPOLYLINE
  5
273
100
AcDbEntity
  8
ASSI
100
AcDbPolyline
 62
7
  6
CONTINUOUS
 90
15
 70
0
 10
138.2758756965
 20
101.5728713059
 10
138.30323557
 20
101.5882760076
 10
138.4156625937
 20
101.643816195
 10
138.53315003
 20
101.6898142404
 10
138.6554058915
 20
101.7261557488
 10
138.7821261763
 20
101.7527502783
 10
138.9129958597
 20
101.7695316531
 10
139.0476896495
 20
101.7764580939
 10
139.1858726328
 20
101.7735123129
 10
139.3272011005
 20
101.7607015973
 10
139.4713236511
 20
101.7380577809
 10
139.6178819935
 20
101.705637138
 10
139.766511662
 20
101.6635202804
 10
139.9168431018
 20
101.6118119254
 10
140.0685025735
 20
101.5506406229
  0
LWPOLYLINE
  5
274
100
AcDbEntity
  8
0
100
AcDbPolyline
 62
7
  6
CONTINUOUS
 90
3
 70
0
 10
155.9784051502
 20
92.364462273
 10
156.1310155708
 20
92.2939801151
 10
156.1869435056
 20
92.2649110364
  0
LWPOLYLINE
  5
275
100
AcDbEntity
  8
ASSI
100
AcDbPolyline
 62
7
  6
CONTINUOUS
 90
3
 70
0
 10
155.9784051502
 20
92.364462273
 10
156.1310155708
 20
92.2939801151
 10
156.1869435056
 20
92.2649110364
  0
LWPOLYLINE
  5
276
100
AcDbEntity
  8
0
100
AcDbPolyline
 62
7
  6
CONTINUOUS
 90
3
 70
0
 10
140.0685025735
 20
101.5506406229
 10
140.2211129941
 20
101.480158465
 10
140.2770409289
 20
101.4510893863
  0
LWPOLYLINE
  5
277
100
AcDbEntity
  8
ASSI
100
AcDbPolyline
 62
7
  6
CONTINUOUS
 90
3
 70
0
 10
140.0685025735
 20
101.5506406229
 10
140.2211129941
 20
101.480158465
 10
140.2770409289
 20
101.4510893863
  0
LWPOLYLINE
  5
278
100
AcDbEntity
  8
0
100
AcDbPolyline
 62
7
  6
CONTINUOUS
 90
33
 70
0
 10
140.0970965886
 20
101.5616560141
 10
140.1830701728
 20
101.5107443479
 10
140.3537180199
 20
101.4024128712
 10
140.5237249773
 20
101.2845769415
 10
140.6930957796
 20
101.1573068156
 10
140.8605723218
 20
101.0215478783
 10
141.0261405208
 20
100.8772368848
 10
141.1898144596
 20
100.72443708
 10
141.3503782826
 20
100.5642835842
 10
141.5078088417
 20
100.3967215906
 10
141.662129285
 20
100.221805906
 10
141.8121932017
 20
100.0408360703
 10
141.9579688198
 20
99.853767073
 10
142.0994879113
 20
99.6606439245
 10
142.2356993812
 20
99.462901196
 10
142.3665636387
 20
99.2605046426
 10
142.4921202746
 20
99.0534885091
 10
142.6114369672
 20
98.8433901008
 10
142.7244673361
 20
98.6301863858
 10
142.8312577616
 20
98.4139003959
 10
142.9310150624
 20
98.1961385325
 10
143.0236869593
 20
97.9768894866
 10
143.1093257316
 20
97.756164567
 10
143.1872950351
 20
97.5356041017
 10
143.2575376544
 20
97.3152092052
 10
143.3201108051
 20
97.0949787629
 10
143.3745497897
 20
96.8765497584
 10
143.4207938396
 20
96.659935538
 10
143.4589037234
 20
96.4451227554
 10
143.4885970496
 20
96.2337083562
 10
143.5097796878
 20
96.0262246556
 10
143.5225457683
 20
95.8221393384
 10
143.5268952913
 20
95.6214524046
  0
LWPOLYLINE
  5
279
100
AcDbEntity
  8
ASSI
100
AcDbPolyline
 62
7
  6
CONTINUOUS
 90
33
 70
0
 10
140.0970965886
 20
101.5616560141
 10
140.1830701728
 20
101.5107443479
 10
140.3537180199
 20
101.4024128712
 10
140.5237249773
 20
101.2845769415
 10
140.6930957796
 20
101.1573068156
 10
140.8605723218
 20
101.0215478783
 10
141.0261405208
 20
100.8772368848
 10
141.1898144596
 20
100.72443708
 10
141.3503782826
 20
100.5642835842
 10
141.5078088417
 20
100.3967215906
 10
141.662129285
 20
100.221805906
 10
141.8121932017
 20
100.0408360703
 10
141.9579688198
 20
99.853767073
 10
142.0994879113
 20
99.6606439245
 10
142.2356993812
 20
99.462901196
 10
142.3665636387
 20
99.2605046426
 10
142.4921202746
 20
99.0534885091
 10
142.6114369672
 20
98.8433901008
 10
142.7244673361
 20
98.6301863858
 10
142.8312577616
 20
98.4139003959
 10
142.9310150624
 20
98.1961385325
 10
143.0236869593
 20
97.9768894866
 10
143.1093257316
 20
97.756164567
 10
143.1872950351
 20
97.5356041017
 10
143.2575376544
 20
97.3152092052
 10
143.3201108051
 20
97.0949787629
 10
143.3745497897
 20
96.8765497584
 10
143.4207938396
 20
96.659935538
 10
143.4589037234
 20
96.4451227554
 10
143.4885970496
 20
96.2337083562
 10
143.5097796878
 20
96.0262246556
 10
143.5225457683
 20
95.8221393384
 10
143.5268952913
 20
95.6214524046
  0
LWPOLYLINE
  5
27A
100
AcDbEntity
  8
0
100
AcDbPolyline
 62
7
  6
CONTINUOUS
 90
33
 70
0
 10
156.0069991653
 20
92.3754776643
 10
156.0929727495
 20
92.324565998
 10
156.2636205966
 20
92.2162345214
 10
156.433627554
 20
92.0983985917
 10
156.6029983563
 20
91.9711284657
 10
156.7704748985
 20
91.8353695284
 10
156.9360430975
 20
91.6910585349
 10
157.0997170363
 20
91.5382587301
 10
157.2602808593
 20
91.3781052343
 10
157.4177114184
 20
91.2105432408
 10
157.5720318617
 20
91.0356275562
 10
157.7220957784
 20
90.8546577204
 10
157.8678713965
 20
90.6675887231
 10
158.009390488
 20
90.4744655746
 10
158.1456019579
 20
90.2767228461
 10
158.2764662154
 20
90.0743262927
 10
158.4020228513
 20
89.8673101592
 10
158.5213395439
 20
89.6572117509
 10
158.6343699128
 20
89.4440080359
 10
158.7411603383
 20
89.227722046
 10
158.8409176391
 20
89.0099601826
 10
158.933589536
 20
88.7907111367
 10
159.0192283083
 20
88.5699862172
 10
159.0971976118
 20
88.3494257518
 10
159.1674402311
 20
88.1290308553
 10
159.2300133818
 20
87.908800413
 10
159.2844523664
 20
87.6903714085
 10
159.3306964163
 20
87.4737571881
 10
159.3688063001
 20
87.2589444055
 10
159.3984996263
 20
87.0475300064
 10
159.4196822645
 20
86.8400463058
 10
159.432448345
 20
86.6359609886
 10
159.436797868
 20
86.4352740548
  0
LWPOLYLINE
  5
27B
100
AcDbEntity
  8
ASSI
100
AcDbPolyline
 62
7
  6
CONTINUOUS
 90
33
 70
0
 10
156.0069991653
 20
92.3754776643
 10
156.0929727495
 20
92.324565998
 10
156.2636205966
 20
92.2162345214
 10
156.433627554
 20
92.0983985917
 10
156.6029983563
 20
91.9711284657
 10
156.7704748985
 20
91.8353695284
 10
156.9360430975
 20
91.6910585349
 10
157.0997170363
 20
91.5382587301
 10
157.2602808593
 20
91.3781052343
 10
157.4177114184
 20
91.2105432408
 10
157.5720318617
 20
91.0356275562
 10
157.7220957784
 20
90.8546577204
 10
157.8678713965
 20
90.6675887231
 10
158.009390488
 20
90.4744655746
 10
158.1456019579
 20
90.2767228461
 10
158.2764662154
 20
90.0743262927
 10
158.4020228513
 20
89.8673101592
 10
158.5213395439
 20
89.6572117509
 10
158.6343699128
 20
89.4440080359
 10
158.7411603383
 20
89.227722046
 10
158.8409176391
 20
89.0099601826
 10
158.933589536
 20
88.7907111367
 10
159.0192283083
 20
88.5699862172
 10
159.0971976118
 20
88.3494257518
 10
159.1674402311
 20
88.1290308553
 10
159.2300133818
 20
87.908800413
 10
159.2844523664
 20
87.6903714085
 10
159.3306964163
 20
87.4737571881
 10
159.3688063001
 20
87.2589444055
 10
159.3984996263
 20
87.0475300064
 10
159.4196822645
 20
86.8400463058
 10
159.432448345
 20
86.6359609886
 10
159.436797868
 20
86.4352740548
  0
LWPOLYLINE
  5
27C
100
AcDbEntity
  8
0
100
AcDbPolyline
 62
7
  6
CONTINUOUS
 90
13
 70
0
 10
154.737713233
 20
109.3100707079
 10
154.7262737842
 20
109.2962172085
 10
154.6494624815
 20
109.1869494356
 10
154.5795296603
 20
109.069885289
 10
154.5165265387
 20
108.9449667158
 10
154.4604018987
 20
108.8122517688
 10
154.4115726161
 20
108.6727262122
 10
154.3700930131
 20
108.5263393333
 10
154.3359087674
 20
108.3731418447
 10
154.3092737889
 20
108.2142716484
 10
154.290272714
 20
108.050108045
 10
154.2788209061
 20
107.8802717338
 10
154.2749183653
 20
107.704762715
  0
LWPOLYLINE
  5
27D
100
AcDbEntity
  8
ASSI
100
AcDbPolyline
 62
7
  6
CONTINUOUS
 90
13
 70
0
 10
154.737713233
 20
109.3100707079
 10
154.7262737842
 20
109.2962172085
 10
154.6494624815
 20
109.1869494356
 10
154.5795296603
 20
109.069885289
 10
154.5165265387
 20
108.9449667158
 10
154.4604018987
 20
108.8122517688
 10
154.4115726161
 20
108.6727262122
 10
154.3700930131
 20
108.5263393333
 10
154.3359087674
 20
108.3731418447
 10
154.3092737889
 20
108.2142716484
 10
154.290272714
 20
108.050108045
 10
154.2788209061
 20
107.8802717338
 10
154.2749183653
 20
107.704762715
  0
LINE
  5
27E
100
AcDbEntity
  8
0
100
AcDbLine
 62
7
  6
CONTINUOUS
 10
179.734263007
 20
120.4835489363
 11
183.7961959918
 21
122.8288428385
  0
LINE
  5
27F
100
AcDbEntity
  8
ASSI
100
AcDbLine
 62
7
  6
CONTINUOUS
 10
179.734263007
 20
120.4835489363
 11
183.7961959918
 21
122.8288428385
  0
LWPOLYLINE
  5
280
100
AcDbEntity
  8
0
100
AcDbPolyline
 62
7
  6
CONTINUOUS
 90
15
 70
0
 10
154.1857782732
 20
109.1243336303
 10
154.2131381467
 20
109.139738332
 10
154.3255651704
 20
109.1952785194
 10
154.4430526067
 20
109.2412765648
 10
154.5653084682
 20
109.2776180732
 10
154.692028753
 20
109.3042126027
 10
154.8228984364
 20
109.3209939775
 10
154.9575922262
 20
109.3279204183
 10
155.0957752095
 20
109.3249746373
 10
155.2371036772
 20
109.3121639217
 10
155.3812262278
 20
109.2895201053
 10
155.5277845702
 20
109.2570994624
 10
155.6764142387
 20
109.2149826048
 10
155.8267456785
 20
109.1632742498
 10
155.9784051502
 20
109.1021029473
  0
LWPOLYLINE
  5
281
100
AcDbEntity
  8
ASSI
100
AcDbPolyline
 62
7
  6
CONTINUOUS
 90
15
 70
0
 10
154.1857782732
 20
109.1243336303
 10
154.2131381467
 20
109.139738332
 10
154.3255651704
 20
109.1952785194
 10
154.4430526067
 20
109.2412765648
 10
154.5653084682
 20
109.2776180732
 10
154.692028753
 20
109.3042126027
 10
154.8228984364
 20
109.3209939775
 10
154.9575922262
 20
109.3279204183
 10
155.0957752095
 20
109.3249746373
 10
155.2371036772
 20
109.3121639217
 10
155.3812262278
 20
109.2895201053
 10
155.5277845702
 20
109.2570994624
 10
155.6764142387
 20
109.2149826048
 10
155.8267456785
 20
109.1632742498
 10
155.9784051502
 20
109.1021029473
  0
LINE
  5
282
100
AcDbEntity
  8
0
100
AcDbLine
 62
7
  6
CONTINUOUS
 10
117.0763091671
 20
155.8444988492
 11
117.0766844746
 21
155.8438624877
  0
LINE
  5
283
100
AcDbEntity
  8
ASSI
100
AcDbLine
 62
7
  6
CONTINUOUS
 10
117.0763091671
 20
155.8444988492
 11
117.0766844746
 21
155.8438624877
  0
LINE
  5
284
100
AcDbEntity
  8
0
100
AcDbLine
 62
7
  6
CONTINUOUS
 10
179.7339005768
 20
47.3183808505
 11
179.734263007
 21
47.3177394128
  0
LINE
  5
285
100
AcDbEntity
  8
ASSI
100
AcDbLine
 62
7
  6
CONTINUOUS
 10
179.7339005768
 20
47.3183808505
 11
179.734263007
 21
47.3177394128
  0
LWPOLYLINE
  5
286
100
AcDbEntity
  8
0
100
AcDbPolyline
 62
7
  6
CONTINUOUS
 90
44
 70
0
 10
154.2749183653
 20
90.9671220407
 10
154.2788209061
 20
90.7871064656
 10
154.290272714
 20
90.6040458938
 10
154.3092737889
 20
90.4179403253
 10
154.3359087674
 20
90.2283127234
 10
154.3700930131
 20
90.0356401249
 10
154.4115726161
 20
89.84135364
 10
154.4604018987
 20
89.6454412518
 10
154.5165265387
 20
89.4479149773
 10
154.5795296603
 20
89.2502419786
 10
154.6494624815
 20
89.052421163
 10
154.7262737842
 20
88.8544536232
 10
154.8093930386
 20
88.6578097987
 10
154.8988672146
 20
88.4624995459
 10
154.9946493424
 20
88.2685130085
 10
155.096027983
 20
88.0772910563
 10
155.2030448087
 20
87.8888542747
 10
155.3156581471
 20
87.7031820783
 10
155.4330315425
 20
87.5216535808
 10
155.5552004388
 20
87.3442996366
 10
155.6821293919
 20
87.1710893914
 10
155.8128756144
 20
87.0033093953
 10
155.94746753
 20
86.8410000826
 10
156.0858767149
 20
86.6841210191
 10
156.2270751099
 20
86.5338374523
 10
156.3710834838
 20
86.390198493
 10
156.5178810679
 20
86.2531550303
 10
156.6663774966
 20
86.1237249793
 10
156.8165854198
 20
86.0019650303
 10
156.9684921876
 20
85.8878184929
 10
157.1209694852
 20
85.7821332112
 10
157.2740215608
 20
85.6849721886
 10
157.4276441662
 20
85.5962724215
 10
157.5806962418
 20
85.5166927436
 10
157.7331735394
 20
85.4463010641
 10
157.8850803072
 20
85.3850294736
 10
158.0352882304
 20
85.3333330781
 10
158.1837846591
 20
85.2912831754
 10
158.3305822432
 20
85.2588084676
 10
158.4745906171
 20
85.2361501664
 10
158.6157890121
 20
85.2233813659
 10
158.754198197
 20
85.2204289721
 10
158.8887901126
 20
85.2273149143
 10
158.9740645526
 20
85.2382704924
  0
LWPOLYLINE
  5
287
100
AcDbEntity
  8
ASSI
100
AcDbPolyline
 62
7
  6
CONTINUOUS
 90
44
 70
0
 10
154.2749183653
 20
90.9671220407
 10
154.2788209061
 20
90.7871064656
 10
154.290272714
 20
90.6040458938
 10
154.3092737889
 20
90.4179403253
 10
154.3359087674
 20
90.2283127234
 10
154.3700930131
 20
90.0356401249
 10
154.4115726161
 20
89.84135364
 10
154.4604018987
 20
89.6454412518
 10
154.5165265387
 20
89.4479149773
 10
154.5795296603
 20
89.2502419786
 10
154.6494624815
 20
89.052421163
 10
154.7262737842
 20
88.8544536232
 10
154.8093930386
 20
88.6578097987
 10
154.8988672146
 20
88.4624995459
 10
154.9946493424
 20
88.2685130085
 10
155.096027983
 20
88.0772910563
 10
155.2030448087
 20
87.8888542747
 10
155.3156581471
 20
87.7031820783
 10
155.4330315425
 20
87.5216535808
 10
155.5552004388
 20
87.3442996366
 10
155.6821293919
 20
87.1710893914
 10
155.8128756144
 20
87.0033093953
 10
155.94746753
 20
86.8410000826
 10
156.0858767149
 20
86.6841210191
 10
156.2270751099
 20
86.5338374523
 10
156.3710834838
 20
86.390198493
 10
156.5178810679
 20
86.2531550303
 10
156.6663774966
 20
86.1237249793
 10
156.8165854198
 20
86.0019650303
 10
156.9684921876
 20
85.8878184929
 10
157.1209694852
 20
85.7821332112
 10
157.2740215608
 20
85.6849721886
 10
157.4276441662
 20
85.5962724215
 10
157.5806962418
 20
85.5166927436
 10
157.7331735394
 20
85.4463010641
 10
157.8850803072
 20
85.3850294736
 10
158.0352882304
 20
85.3333330781
 10
158.1837846591
 20
85.2912831754
 10
158.3305822432
 20
85.2588084676
 10
158.4745906171
 20
85.2361501664
 10
158.6157890121
 20
85.2233813659
 10
158.754198197
 20
85.2204289721
 10
158.8887901126
 20
85.2273149143
 10
158.9740645526
 20
85.2382704924
  0
LWPOLYLINE
  5
288
100
AcDbEntity
  8
0
100
AcDbPolyline
 62
7
  6
CONTINUOUS
 90
44
 70
0
 10
154.2749183653
 20
107.704762715
 10
154.2788209061
 20
107.5247471398
 10
154.290272714
 20
107.341686568
 10
154.3092737889
 20
107.1555809996
 10
154.3359087674
 20
106.9659533977
 10
154.3700930131
 20
106.7732807991
 10
154.4115726161
 20
106.5789943143
 10
154.4604018987
 20
106.3830819261
 10
154.5165265387
 20
106.1855556516
 10
154.5795296603
 20
105.9878826528
 10
154.6494624815
 20
105.7900618373
 10
154.7262737842
 20
105.5920942975
 10
154.8093930386
 20
105.3954504729
 10
154.8988672146
 20
105.2001402202
 10
154.9946493424
 20
105.0061536827
 10
155.096027983
 20
104.8149317305
 10
155.2030448087
 20
104.6264949489
 10
155.3156581471
 20
104.4408227525
 10
155.4330315425
 20
104.259294255
 10
155.5552004388
 20
104.0819403109
 10
155.6821293919
 20
103.9087300656
 10
155.8128756144
 20
103.7409500695
 10
155.94746753
 20
103.5786407569
 10
156.0858767149
 20
103.4217616934
 10
156.2270751099
 20
103.2714781266
 10
156.3710834838
 20
103.1278391672
 10
156.5178810679
 20
102.9907957046
 10
156.6663774966
 20
102.8613656535
 10
156.8165854198
 20
102.7396057045
 10
156.9684921876
 20
102.6254591672
 10
157.1209694852
 20
102.5197738854
 10
157.2740215608
 20
102.4226128628
 10
157.4276441662
 20
102.3339130958
 10
157.5806962418
 20
102.2543334179
 10
157.7331735394
 20
102.1839417383
 10
157.8850803072
 20
102.1226701479
 10
158.0352882304
 20
102.0709737523
 10
158.1837846591
 20
102.0289238496
 10
158.3305822432
 20
101.9964491418
 10
158.4745906171
 20
101.9737908407
 10
158.6157890121
 20
101.9610220402
 10
158.754198197
 20
101.9580696463
 10
158.8887901126
 20
101.9649555886
 10
158.9740645526
 20
101.9759111666
  0
LWPOLYLINE
  5
289
100
AcDbEntity
  8
ASSI
100
AcDbPolyline
 62
7
  6
CONTINUOUS
 90
44
 70
0
 10
154.2749183653
 20
107.704762715
 10
154.2788209061
 20
107.5247471398
 10
154.290272714
 20
107.341686568
 10
154.3092737889
 20
107.1555809996
 10
154.3359087674
 20
106.9659533977
 10
154.3700930131
 20
106.7732807991
 10
154.4115726161
 20
106.5789943143
 10
154.4604018987
 20
106.3830819261
 10
154.5165265387
 20
106.1855556516
 10
154.5795296603
 20
105.9878826528
 10
154.6494624815
 20
105.7900618373
 10
154.7262737842
 20
105.5920942975
 10
154.8093930386
 20
105.3954504729
 10
154.8988672146
 20
105.2001402202
 10
154.9946493424
 20
105.0061536827
 10
155.096027983
 20
104.8149317305
 10
155.2030448087
 20
104.6264949489
 10
155.3156581471
 20
104.4408227525
 10
155.4330315425
 20
104.259294255
 10
155.5552004388
 20
104.0819403109
 10
155.6821293919
 20
103.9087300656
 10
155.8128756144
 20
103.7409500695
 10
155.94746753
 20
103.5786407569
 10
156.0858767149
 20
103.4217616934
 10
156.2270751099
 20
103.2714781266
 10
156.3710834838
 20
103.1278391672
 10
156.5178810679
 20
102.9907957046
 10
156.6663774966
 20
102.8613656535
 10
156.8165854198
 20
102.7396057045
 10
156.9684921876
 20
102.6254591672
 10
157.1209694852
 20
102.5197738854
 10
157.2740215608
 20
102.4226128628
 10
157.4276441662
 20
102.3339130958
 10
157.5806962418
 20
102.2543334179
 10
157.7331735394
 20
102.1839417383
 10
157.8850803072
 20
102.1226701479
 10
158.0352882304
 20
102.0709737523
 10
158.1837846591
 20
102.0289238496
 10
158.3305822432
 20
101.9964491418
 10
158.4745906171
 20
101.9737908407
 10
158.6157890121
 20
101.9610220402
 10
158.754198197
 20
101.9580696463
 10
158.8887901126
 20
101.9649555886
 10
158.9740645526
 20
101.9759111666
  0
LWPOLYLINE
  5
28A
100
AcDbEntity
  8
0
100
AcDbPolyline
 62
7
  6
CONTINUOUS
 90
17
 70
0
 10
153.2849688717
 20
107.1331782843
 10
153.2887917592
 20
107.3079893438
 10
153.3002511746
 20
107.477954103
 10
153.3193190149
 20
107.642649814
 10
153.3459483406
 20
107.8016672024
 10
153.38007329
 20
107.9546102228
 10
153.4216090441
 20
108.1010972087
 10
153.4704524996
 20
108.2407637096
 10
153.5264824446
 20
108.3732624178
 10
153.5895593832
 20
108.4982630254
 10
153.6595265093
 20
108.6154546116
 10
153.7362099736
 20
108.7245458297
 10
153.8194188617
 20
108.8252650188
 10
153.9089461509
 20
108.9173616602
 10
154.0045693626
 20
109.000606955
 10
154.1060508123
 20
109.0747940018
 10
154.1857782732
 20
109.1243336303
  0
LWPOLYLINE
  5
28B
100
AcDbEntity
  8
ASSI
100
AcDbPolyline
 62
7
  6
CONTINUOUS
 90
17
 70
0
 10
153.2849688717
 20
107.1331782843
 10
153.2887917592
 20
107.3079893438
 10
153.3002511746
 20
107.477954103
 10
153.3193190149
 20
107.642649814
 10
153.3459483406
 20
107.8016672024
 10
153.38007329
 20
107.9546102228
 10
153.4216090441
 20
108.1010972087
 10
153.4704524996
 20
108.2407637096
 10
153.5264824446
 20
108.3732624178
 10
153.5895593832
 20
108.4982630254
 10
153.6595265093
 20
108.6154546116
 10
153.7362099736
 20
108.7245458297
 10
153.8194188617
 20
108.8252650188
 10
153.9089461509
 20
108.9173616602
 10
154.0045693626
 20
109.000606955
 10
154.1060508123
 20
109.0747940018
 10
154.1857782732
 20
109.1243336303
  0
LWPOLYLINE
  5
28C
100
AcDbEntity
  8
0
100
AcDbPolyline
 62
7
  6
CONTINUOUS
 90
17
 70
0
 10
153.2849688717
 20
90.3955376101
 10
153.2887917592
 20
90.5703486695
 10
153.3002511746
 20
90.7403134288
 10
153.3193190149
 20
90.9050091397
 10
153.3459483406
 20
91.0640265282
 10
153.38007329
 20
91.2169695486
 10
153.4216090441
 20
91.3634565345
 10
153.4704524996
 20
91.5031230353
 10
153.5264824446
 20
91.6356217435
 10
153.5895593832
 20
91.7606223511
 10
153.6595265093
 20
91.8778139374
 10
153.7362099736
 20
91.9869051554
 10
153.8194188617
 20
92.0876243446
 10
153.9089461509
 20
92.1797209859
 10
154.0045693626
 20
92.2629662807
 10
154.1060508123
 20
92.3371533276
 10
154.1857782732
 20
92.386692956
  0
LWPOLYLINE
  5
28D
100
AcDbEntity
  8
ASSI
100
AcDbPolyline
 62
7
  6
CONTINUOUS
 90
17
 70
0
 10
153.2849688717
 20
90.3955376101
 10
153.2887917592
 20
90.5703486695
 10
153.3002511746
 20
90.7403134288
 10
153.3193190149
 20
90.9050091397
 10
153.3459483406
 20
91.0640265282
 10
153.38007329
 20
91.2169695486
 10
153.4216090441
 20
91.3634565345
 10
153.4704524996
 20
91.5031230353
 10
153.5264824446
 20
91.6356217435
 10
153.5895593832
 20
91.7606223511
 10
153.6595265093
 20
91.8778139374
 10
153.7362099736
 20
91.9869051554
 10
153.8194188617
 20
92.0876243446
 10
153.9089461509
 20
92.1797209859
 10
154.0045693626
 20
92.2629662807
 10
154.1060508123
 20
92.3371533276
 10
154.1857782732
 20
92.386692956
  0
LWPOLYLINE
  5
28E
100
AcDbEntity
  8
0
100
AcDbPolyline
 62
7
  6
CONTINUOUS
 90
33
 70
0
 10
152.5778620905
 20
107.1331782843
 10
152.5822116379
 20
107.3288429043
 10
152.5949777688
 20
107.5181866285
 10
152.6161604833
 20
107.7012094569
 10
152.6458539202
 20
107.8783350123
 10
152.6839639407
 20
108.0491396718
 10
152.7302081275
 20
108.2123525669
 10
152.7846472483
 20
108.3679168541
 10
152.8472205353
 20
108.5158893769
 10
152.9174632688
 20
108.6551697964
 10
152.9954326558
 20
108.7856931506
 10
153.0810714893
 20
108.9075244017
 10
153.1737434278
 20
109.0197580973
 10
153.2735007419
 20
109.1223225642
 10
153.3802911609
 20
109.2152894757
 10
153.4933215322
 20
109.2979684
 10
153.6126382442
 20
109.3702827586
 10
153.7381949083
 20
109.43230913
 10
153.8690592064
 20
109.4835868178
 10
154.0052707385
 20
109.5240358566
 10
154.1467899045
 20
109.5537362118
 10
154.2925655857
 20
109.5724670829
 10
154.4426295449
 20
109.5801467662
 10
154.5969500193
 20
109.5768569654
 10
154.7543806014
 20
109.562621992
 10
154.9149444385
 20
109.53736031
 10
155.0786183832
 20
109.5011534555
 10
155.2441865866
 20
109.4542703474
 10
155.4116631338
 20
109.3966314783
 10
155.5810339395
 20
109.3283163556
 10
155.7510408991
 20
109.2498324218
 10
155.9216887474
 20
109.1611039526
 10
156.0069991653
 20
109.1131183385
  0
LWPOLYLINE
  5
28F
100
AcDbEntity
  8
ASSI
100
AcDbPolyline
 62
7
  6
CONTINUOUS
 90
33
 70
0
 10
152.5778620905
 20
107.1331782843
 10
152.5822116379
 20
107.3288429043
 10
152.5949777688
 20
107.5181866285
 10
152.6161604833
 20
107.7012094569
 10
152.6458539202
 20
107.8783350123
 10
152.6839639407
 20
108.0491396718
 10
152.7302081275
 20
108.2123525669
 10
152.7846472483
 20
108.3679168541
 10
152.8472205353
 20
108.5158893769
 10
152.9174632688
 20
108.6551697964
 10
152.9954326558
 20
108.7856931506
 10
153.0810714893
 20
108.9075244017
 10
153.1737434278
 20
109.0197580973
 10
153.2735007419
 20
109.1223225642
 10
153.3802911609
 20
109.2152894757
 10
153.4933215322
 20
109.2979684
 10
153.6126382442
 20
109.3702827586
 10
153.7381949083
 20
109.43230913
 10
153.8690592064
 20
109.4835868178
 10
154.0052707385
 20
109.5240358566
 10
154.1467899045
 20
109.5537362118
 10
154.2925655857
 20
109.5724670829
 10
154.4426295449
 20
109.5801467662
 10
154.5969500193
 20
109.5768569654
 10
154.7543806014
 20
109.562621992
 10
154.9149444385
 20
109.53736031
 10
155.0786183832
 20
109.5011534555
 10
155.2441865866
 20
109.4542703474
 10
155.4116631338
 20
109.3966314783
 10
155.5810339395
 20
109.3283163556
 10
155.7510408991
 20
109.2498324218
 10
155.9216887474
 20
109.1611039526
 10
156.0069991653
 20
109.1131183385
  0
LWPOLYLINE
  5
290
100
AcDbEntity
  8
0
100
AcDbPolyline
 62
7
  6
CONTINUOUS
 90
33
 70
0
 10
152.5778620905
 20
90.3955376101
 10
152.5822116379
 20
90.5912022301
 10
152.5949777688
 20
90.7805459543
 10
152.6161604833
 20
90.9635687826
 10
152.6458539202
 20
91.140694338
 10
152.6839639407
 20
91.3114989976
 10
152.7302081275
 20
91.4747118926
 10
152.7846472483
 20
91.6302761799
 10
152.8472205353
 20
91.7782487026
 10
152.9174632688
 20
91.9175291222
 10
152.9954326558
 20
92.0480524764
 10
153.0810714893
 20
92.1698837274
 10
153.1737434278
 20
92.2821174231
 10
153.2735007419
 20
92.38468189
 10
153.3802911609
 20
92.4776488015
 10
153.4933215322
 20
92.5603277258
 10
153.6126382442
 20
92.6326420844
 10
153.7381949083
 20
92.6946684558
 10
153.8690592064
 20
92.7459461435
 10
154.0052707385
 20
92.7863951823
 10
154.1467899045
 20
92.8160955375
 10
154.2925655857
 20
92.8348264087
 10
154.4426295449
 20
92.8425060919
 10
154.5969500193
 20
92.8392162911
 10
154.7543806014
 20
92.8249813177
 10
154.9149444385
 20
92.7997196358
 10
155.0786183832
 20
92.7635127812
 10
155.2441865866
 20
92.7166296732
 10
155.4116631338
 20
92.658990804
 10
155.5810339395
 20
92.5906756814
 10
155.7510408991
 20
92.5121917476
 10
155.9216887474
 20
92.4234632784
 10
156.0069991653
 20
92.3754776643
  0
LWPOLYLINE
  5
291
100
AcDbEntity
  8
ASSI
100
AcDbPolyline
 62
7
  6
CONTINUOUS
 90
33
 70
0
 10
152.5778620905
 20
90.3955376101
 10
152.5822116379
 20
90.5912022301
 10
152.5949777688
 20
90.7805459543
 10
152.6161604833
 20
90.9635687826
 10
152.6458539202
 20
91.140694338
 10
152.6839639407
 20
91.3114989976
 10
152.7302081275
 20
91.4747118926
 10
152.7846472483
 20
91.6302761799
 10
152.8472205353
 20
91.7782487026
 10
152.9174632688
 20
91.9175291222
 10
152.9954326558
 20
92.0480524764
 10
153.0810714893
 20
92.1698837274
 10
153.1737434278
 20
92.2821174231
 10
153.2735007419
 20
92.38468189
 10
153.3802911609
 20
92.4776488015
 10
153.4933215322
 20
92.5603277258
 10
153.6126382442
 20
92.6326420844
 10
153.7381949083
 20
92.6946684558
 10
153.8690592064
 20
92.7459461435
 10
154.0052707385
 20
92.7863951823
 10
154.1467899045
 20
92.8160955375
 10
154.2925655857
 20
92.8348264087
 10
154.4426295449
 20
92.8425060919
 10
154.5969500193
 20
92.8392162911
 10
154.7543806014
 20
92.8249813177
 10
154.9149444385
 20
92.7997196358
 10
155.0786183832
 20
92.7635127812
 10
155.2441865866
 20
92.7166296732
 10
155.4116631338
 20
92.658990804
 10
155.5810339395
 20
92.5906756814
 10
155.7510408991
 20
92.5121917476
 10
155.9216887474
 20
92.4234632784
 10
156.0069991653
 20
92.3754776643
  0
LINE
  5
292
100
AcDbEntity
  8
0
100
AcDbLine
 62
7
  6
CONTINUOUS
 10
180.4418002763
 20
119.2580584389
 11
184.5037332611
 21
121.6033523411
  0
LINE
  5
293
100
AcDbEntity
  8
ASSI
100
AcDbLine
 62
7
  6
CONTINUOUS
 10
180.4418002763
 20
119.2580584389
 11
184.5037332611
 21
121.6033523411
  0
LWPOLYLINE
  5
294
100
AcDbEntity
  8
0
100
AcDbPolyline
 62
7
  6
CONTINUOUS
 90
49
 70
0
 10
142.6260858897
 20
94.038571652
 10
142.5987260163
 20
94.0231669503
 10
142.4862989926
 20
93.9676267629
 10
142.3688115563
 20
93.9216287175
 10
142.2465556948
 20
93.8852872091
 10
142.11983541
 20
93.8586926796
 10
141.9889657266
 20
93.8419113048
 10
141.8542719368
 20
93.834984864
 10
141.7160889534
 20
93.837930645
 10
141.5747604858
 20
93.8507413606
 10
141.4306379352
 20
93.873385177
 10
141.2840795928
 20
93.9058058199
 10
141.1354499242
 20
93.9479226775
 10
140.9851184845
 20
93.9996310325
 10
140.8334590128
 20
94.060802335
 10
140.6808485922
 20
94.1312844929
 10
140.5276666542
 20
94.2109022694
 10
140.3742940472
 20
94.2994577159
 10
140.2211121081
 20
94.3967306536
 10
140.0685016845
 20
94.5024792378
 10
139.9168422089
 20
94.6164405471
 10
139.7665107664
 20
94.7383312264
 10
139.6178810959
 20
94.8678482412
 10
139.4713227529
 20
95.0046695557
 10
139.3272002071
 20
95.1484549018
 10
139.1858717519
 20
95.298846805
 10
139.047688786
 20
95.4554713117
 10
138.9129950155
 20
95.6179388052
 10
138.7821253554
 20
95.785845246
 10
138.6554050956
 20
95.9587732181
 10
138.5331492523
 20
96.1362927758
 10
138.4156618265
 20
96.3179624273
 10
138.3032348089
 20
96.5033305955
 10
138.1961474755
 20
96.6919367834
 10
138.0946660177
 20
96.8833121804
 10
137.999042797
 20
97.0769808959
 10
137.9095155132
 20
97.2724615263
 10
137.8263066433
 20
97.4692683598
 10
137.7496232098
 20
97.6669118114
 10
137.6796561366
 20
97.8648997241
 10
137.6165792703
 20
98.0627399881
 10
137.5605494102
 20
98.259940613
 10
137.5117060502
 20
98.456010192
 10
137.4701703969
 20
98.6504614402
 10
137.4360455451
 20
98.8428108557
 10
137.4094163061
 20
99.0325788346
 10
137.3903485351
 20
99.219293282
 10
137.3788891658
 20
99.4024907222
 10
137.375066295
 20
99.5817159599
  0
LWPOLYLINE
  5
295
100
AcDbEntity
  8
ASSI
100
AcDbPolyline
 62
7
  6
CONTINUOUS
 90
49
 70
0
 10
142.6260858897
 20
94.038571652
 10
142.5987260163
 20
94.0231669503
 10
142.4862989926
 20
93.9676267629
 10
142.3688115563
 20
93.9216287175
 10
142.2465556948
 20
93.8852872091
 10
142.11983541
 20
93.8586926796
 10
141.9889657266
 20
93.8419113048
 10
141.8542719368
 20
93.834984864
 10
141.7160889534
 20
93.837930645
 10
141.5747604858
 20
93.8507413606
 10
141.4306379352
 20
93.873385177
 10
141.2840795928
 20
93.9058058199
 10
141.1354499242
 20
93.9479226775
 10
140.9851184845
 20
93.9996310325
 10
140.8334590128
 20
94.060802335
 10
140.6808485922
 20
94.1312844929
 10
140.5276666542
 20
94.2109022694
 10
140.3742940472
 20
94.2994577159
 10
140.2211121081
 20
94.3967306536
 10
140.0685016845
 20
94.5024792378
 10
139.9168422089
 20
94.6164405471
 10
139.7665107664
 20
94.7383312264
 10
139.6178810959
 20
94.8678482412
 10
139.4713227529
 20
95.0046695557
 10
139.3272002071
 20
95.1484549018
 10
139.1858717519
 20
95.298846805
 10
139.047688786
 20
95.4554713117
 10
138.9129950155
 20
95.6179388052
 10
138.7821253554
 20
95.785845246
 10
138.6554050956
 20
95.9587732181
 10
138.5331492523
 20
96.1362927758
 10
138.4156618265
 20
96.3179624273
 10
138.3032348089
 20
96.5033305955
 10
138.1961474755
 20
96.6919367834
 10
138.0946660177
 20
96.8833121804
 10
137.999042797
 20
97.0769808959
 10
137.9095155132
 20
97.2724615263
 10
137.8263066433
 20
97.4692683598
 10
137.7496232098
 20
97.6669118114
 10
137.6796561366
 20
97.8648997241
 10
137.6165792703
 20
98.0627399881
 10
137.5605494102
 20
98.259940613
 10
137.5117060502
 20
98.456010192
 10
137.4701703969
 20
98.6504614402
 10
137.4360455451
 20
98.8428108557
 10
137.4094163061
 20
99.0325788346
 10
137.3903485351
 20
99.219293282
 10
137.3788891658
 20
99.4024907222
 10
137.375066295
 20
99.5817159599
  0
LWPOLYLINE
  5
296
100
AcDbEntity
  8
0
100
AcDbPolyline
 62
7
  6
CONTINUOUS
 90
64
 70
0
 10
159.436797868
 20
103.172914729
 10
159.4324483206
 20
102.977250109
 10
159.4196821897
 20
102.7879063848
 10
159.3984994752
 20
102.6048835565
 10
159.3688060382
 20
102.4277580011
 10
159.3306960178
 20
102.2569533415
 10
159.2844518309
 20
102.0937404465
 10
159.2300127102
 20
101.9381761592
 10
159.1674394232
 20
101.7902036365
 10
159.0971966897
 20
101.6509232169
 10
159.0192273026
 20
101.5203998627
 10
158.9335884692
 20
101.3985686117
 10
158.8409165307
 20
101.286334916
 10
158.7411592166
 20
101.1837704491
 10
158.6343687975
 20
101.0908035376
 10
158.5213384263
 20
101.0081246133
 10
158.4020217143
 20
100.9358102547
 10
158.2764650502
 20
100.8737838833
 10
158.1456007521
 20
100.8225061956
 10
158.00938922
 20
100.7820571568
 10
157.867870054
 20
100.7523568016
 10
157.7220943728
 20
100.7336259304
 10
157.5720304136
 20
100.7259462472
 10
157.4177099392
 20
100.729236048
 10
157.2602793571
 20
100.7434710214
 10
157.09971552
 20
100.7687327033
 10
156.9360415752
 20
100.8049395579
 10
156.7704733719
 20
100.8518226659
 10
156.6029968247
 20
100.9094615351
 10
156.433626019
 20
100.9777766577
 10
156.2636190593
 20
101.0562605915
 10
156.0929712111
 20
101.1449890607
 10
155.9216872089
 20
101.2438863411
 10
155.7510393619
 20
101.3522178177
 10
155.5810324045
 20
101.4700537474
 10
155.4116616022
 20
101.5973238734
 10
155.24418506
 20
101.7330828106
 10
155.078616861
 20
101.8773938042
 10
154.9149429222
 20
102.0301936089
 10
154.7543790991
 20
102.1903471048
 10
154.5969485401
 20
102.3579090983
 10
154.4426280967
 20
102.5328247829
 10
154.29256418
 20
102.7137946187
 10
154.146788562
 20
102.900863616
 10
154.0052694705
 20
103.0939867644
 10
153.8690580006
 20
103.291729493
 10
153.7381937431
 20
103.4941260464
 10
153.6126371072
 20
103.7011421799
 10
153.4933204146
 20
103.9112405882
 10
153.3802900457
 20
104.1244443032
 10
153.2734996202
 20
104.340730293
 10
153.1737423194
 20
104.5584921565
 10
153.0810704224
 20
104.7777412024
 10
152.9954316502
 20
104.9984661219
 10
152.9174623467
 20
105.2190265873
 10
152.8472197274
 20
105.4394214838
 10
152.7846465767
 20
105.6596519261
 10
152.7302075921
 20
105.8780809305
 10
152.6839635422
 20
106.094695151
 10
152.6458536584
 20
106.3095079336
 10
152.6161603321
 20
106.5209223327
 10
152.594977694
 20
106.7284060333
 10
152.5822116135
 20
106.9324913505
 10
152.5778620905
 20
107.1331782843
  0
LWPOLYLINE
  5
297
100
AcDbEntity
  8
ASSI
100
AcDbPolyline
 62
7
  6
CONTINUOUS
 90
64
 70
0
 10
159.436797868
 20
103.172914729
 10
159.4324483206
 20
102.977250109
 10
159.4196821897
 20
102.7879063848
 10
159.3984994752
 20
102.6048835565
 10
159.3688060382
 20
102.4277580011
 10
159.3306960178
 20
102.2569533415
 10
159.2844518309
 20
102.0937404465
 10
159.2300127102
 20
101.9381761592
 10
159.1674394232
 20
101.7902036365
 10
159.0971966897
 20
101.6509232169
 10
159.0192273026
 20
101.5203998627
 10
158.9335884692
 20
101.3985686117
 10
158.8409165307
 20
101.286334916
 10
158.7411592166
 20
101.1837704491
 10
158.6343687975
 20
101.0908035376
 10
158.5213384263
 20
101.0081246133
 10
158.4020217143
 20
100.9358102547
 10
158.2764650502
 20
100.8737838833
 10
158.1456007521
 20
100.8225061956
 10
158.00938922
 20
100.7820571568
 10
157.867870054
 20
100.7523568016
 10
157.7220943728
 20
100.7336259304
 10
157.5720304136
 20
100.7259462472
 10
157.4177099392
 20
100.729236048
 10
157.2602793571
 20
100.7434710214
 10
157.09971552
 20
100.7687327033
 10
156.9360415752
 20
100.8049395579
 10
156.7704733719
 20
100.8518226659
 10
156.6029968247
 20
100.9094615351
 10
156.433626019
 20
100.9777766577
 10
156.2636190593
 20
101.0562605915
 10
156.0929712111
 20
101.1449890607
 10
155.9216872089
 20
101.2438863411
 10
155.7510393619
 20
101.3522178177
 10
155.5810324045
 20
101.4700537474
 10
155.4116616022
 20
101.5973238734
 10
155.24418506
 20
101.7330828106
 10
155.078616861
 20
101.8773938042
 10
154.9149429222
 20
102.0301936089
 10
154.7543790991
 20
102.1903471048
 10
154.5969485401
 20
102.3579090983
 10
154.4426280967
 20
102.5328247829
 10
154.29256418
 20
102.7137946187
 10
154.146788562
 20
102.900863616
 10
154.0052694705
 20
103.0939867644
 10
153.8690580006
 20
103.291729493
 10
153.7381937431
 20
103.4941260464
 10
153.6126371072
 20
103.7011421799
 10
153.4933204146
 20
103.9112405882
 10
153.3802900457
 20
104.1244443032
 10
153.2734996202
 20
104.340730293
 10
153.1737423194
 20
104.5584921565
 10
153.0810704224
 20
104.7777412024
 10
152.9954316502
 20
104.9984661219
 10
152.9174623467
 20
105.2190265873
 10
152.8472197274
 20
105.4394214838
 10
152.7846465767
 20
105.6596519261
 10
152.7302075921
 20
105.8780809305
 10
152.6839635422
 20
106.094695151
 10
152.6458536584
 20
106.3095079336
 10
152.6161603321
 20
106.5209223327
 10
152.594977694
 20
106.7284060333
 10
152.5822116135
 20
106.9324913505
 10
152.5778620905
 20
107.1331782843
  0
LWPOLYLINE
  5
298
100
AcDbEntity
  8
0
100
AcDbPolyline
 62
7
  6
CONTINUOUS
 90
64
 70
0
 10
159.436797868
 20
86.4352740548
 10
159.4324483206
 20
86.2396094347
 10
159.4196821897
 20
86.0502657106
 10
159.3984994752
 20
85.8672428822
 10
159.3688060382
 20
85.6901173268
 10
159.3306960178
 20
85.5193126673
 10
159.2844518309
 20
85.3560997722
 10
159.2300127102
 20
85.200535485
 10
159.1674394232
 20
85.0525629622
 10
159.0971966897
 20
84.9132825426
 10
159.0192273026
 20
84.7827591884
 10
158.9335884692
 20
84.6609279374
 10
158.8409165307
 20
84.5486942417
 10
158.7411592166
 20
84.4461297749
 10
158.6343687975
 20
84.3531628634
 10
158.5213384263
 20
84.2704839391
 10
158.4020217143
 20
84.1981695805
 10
158.2764650502
 20
84.1361432091
 10
158.1456007521
 20
84.0848655213
 10
158.00938922
 20
84.0444164825
 10
157.867870054
 20
84.0147161273
 10
157.7220943728
 20
83.9959852561
 10
157.5720304136
 20
83.9883055729
 10
157.4177099392
 20
83.9915953737
 10
157.2602793571
 20
84.0058303471
 10
157.09971552
 20
84.0310920291
 10
156.9360415752
 20
84.0672988836
 10
156.7704733719
 20
84.1141819916
 10
156.6029968247
 20
84.1718208608
 10
156.433626019
 20
84.2401359834
 10
156.2636190593
 20
84.3186199173
 10
156.0929712111
 20
84.4073483864
 10
155.9216872089
 20
84.5062456668
 10
155.7510393619
 20
84.6145771435
 10
155.5810324045
 20
84.7324130732
 10
155.4116616022
 20
84.8596831991
 10
155.24418506
 20
84.9954421364
 10
155.078616861
 20
85.1397531299
 10
154.9149429222
 20
85.2925529347
 10
154.7543790991
 20
85.4527064305
 10
154.5969485401
 20
85.6202684241
 10
154.4426280967
 20
85.7951841087
 10
154.29256418
 20
85.9761539444
 10
154.146788562
 20
86.1632229417
 10
154.0052694705
 20
86.3563460902
 10
153.8690580006
 20
86.5540888187
 10
153.7381937431
 20
86.7564853721
 10
153.6126371072
 20
86.9635015056
 10
153.4933204146
 20
87.1735999139
 10
153.3802900457
 20
87.3868036289
 10
153.2734996202
 20
87.6030896188
 10
153.1737423194
 20
87.8208514822
 10
153.0810704224
 20
88.0401005282
 10
152.9954316502
 20
88.2608254477
 10
152.9174623467
 20
88.481385913
 10
152.8472197274
 20
88.7017808095
 10
152.7846465767
 20
88.9220112518
 10
152.7302075921
 20
89.1404402563
 10
152.6839635422
 20
89.3570544767
 10
152.6458536584
 20
89.5718672593
 10
152.6161603321
 20
89.7832816585
 10
152.594977694
 20
89.9907653591
 10
152.5822116135
 20
90.1948506763
 10
152.5778620905
 20
90.3955376101
  0
LWPOLYLINE
  5
299
100
AcDbEntity
  8
ASSI
100
AcDbPolyline
 62
7
  6
CONTINUOUS
 90
64
 70
0
 10
159.436797868
 20
86.4352740548
 10
159.4324483206
 20
86.2396094347
 10
159.4196821897
 20
86.0502657106
 10
159.3984994752
 20
85.8672428822
 10
159.3688060382
 20
85.6901173268
 10
159.3306960178
 20
85.5193126673
 10
159.2844518309
 20
85.3560997722
 10
159.2300127102
 20
85.200535485
 10
159.1674394232
 20
85.0525629622
 10
159.0971966897
 20
84.9132825426
 10
159.0192273026
 20
84.7827591884
 10
158.9335884692
 20
84.6609279374
 10
158.8409165307
 20
84.5486942417
 10
158.7411592166
 20
84.4461297749
 10
158.6343687975
 20
84.3531628634
 10
158.5213384263
 20
84.2704839391
 10
158.4020217143
 20
84.1981695805
 10
158.2764650502
 20
84.1361432091
 10
158.1456007521
 20
84.0848655213
 10
158.00938922
 20
84.0444164825
 10
157.867870054
 20
84.0147161273
 10
157.7220943728
 20
83.9959852561
 10
157.5720304136
 20
83.9883055729
 10
157.4177099392
 20
83.9915953737
 10
157.2602793571
 20
84.0058303471
 10
157.09971552
 20
84.0310920291
 10
156.9360415752
 20
84.0672988836
 10
156.7704733719
 20
84.1141819916
 10
156.6029968247
 20
84.1718208608
 10
156.433626019
 20
84.2401359834
 10
156.2636190593
 20
84.3186199173
 10
156.0929712111
 20
84.4073483864
 10
155.9216872089
 20
84.5062456668
 10
155.7510393619
 20
84.6145771435
 10
155.5810324045
 20
84.7324130732
 10
155.4116616022
 20
84.8596831991
 10
155.24418506
 20
84.9954421364
 10
155.078616861
 20
85.1397531299
 10
154.9149429222
 20
85.2925529347
 10
154.7543790991
 20
85.4527064305
 10
154.5969485401
 20
85.6202684241
 10
154.4426280967
 20
85.7951841087
 10
154.29256418
 20
85.9761539444
 10
154.146788562
 20
86.1632229417
 10
154.0052694705
 20
86.3563460902
 10
153.8690580006
 20
86.5540888187
 10
153.7381937431
 20
86.7564853721
 10
153.6126371072
 20
86.9635015056
 10
153.4933204146
 20
87.1735999139
 10
153.3802900457
 20
87.3868036289
 10
153.2734996202
 20
87.6030896188
 10
153.1737423194
 20
87.8208514822
 10
153.0810704224
 20
88.0401005282
 10
152.9954316502
 20
88.2608254477
 10
152.9174623467
 20
88.481385913
 10
152.8472197274
 20
88.7017808095
 10
152.7846465767
 20
88.9220112518
 10
152.7302075921
 20
89.1404402563
 10
152.6839635422
 20
89.3570544767
 10
152.6458536584
 20
89.5718672593
 10
152.6161603321
 20
89.7832816585
 10
152.594977694
 20
89.9907653591
 10
152.5822116135
 20
90.1948506763
 10
152.5778620905
 20
90.3955376101
  0
LINE
  5
29A
100
AcDbEntity
  8
0
100
AcDbLine
 62
7
  6
CONTINUOUS
 10
159.4316382579
 20
103.386552144
 11
159.4215155651
 21
103.2364135036
  0
LINE
  5
29B
100
AcDbEntity
  8
ASSI
100
AcDbLine
 62
7
  6
CONTINUOUS
 10
159.4316382579
 20
103.386552144
 11
159.4215155651
 21
103.2364135036
  0
LWPOLYLINE
  5
29C
100
AcDbEntity
  8
0
100
AcDbPolyline
 62
7
  6
CONTINUOUS
 90
15
 70
0
 10
159.4215155651
 20
103.2364135036
 10
159.4024477248
 20
103.0717177927
 10
159.3758183991
 20
102.9127004043
 10
159.3416934497
 20
102.7597573838
 10
159.3001576956
 20
102.613270398
 10
159.25131424
 20
102.4736038971
 10
159.1952842951
 20
102.3411051889
 10
159.1322073564
 20
102.2161045813
 10
159.0622402304
 20
102.098912995
 10
158.9855567661
 20
101.989821777
 10
158.9023478779
 20
101.8891025878
 10
158.8128205888
 20
101.7970059465
 10
158.7171973771
 20
101.7137606517
 10
158.6157159274
 20
101.6395736048
 10
158.5359884664
 20
101.5900339764
  0
LWPOLYLINE
  5
29D
100
AcDbEntity
  8
ASSI
100
AcDbPolyline
 62
7
  6
CONTINUOUS
 90
15
 70
0
 10
159.4215155651
 20
103.2364135036
 10
159.4024477248
 20
103.0717177927
 10
159.3758183991
 20
102.9127004043
 10
159.3416934497
 20
102.7597573838
 10
159.3001576956
 20
102.613270398
 10
159.25131424
 20
102.4736038971
 10
159.1952842951
 20
102.3411051889
 10
159.1322073564
 20
102.2161045813
 10
159.0622402304
 20
102.098912995
 10
158.9855567661
 20
101.989821777
 10
158.9023478779
 20
101.8891025878
 10
158.8128205888
 20
101.7970059465
 10
158.7171973771
 20
101.7137606517
 10
158.6157159274
 20
101.6395736048
 10
158.5359884664
 20
101.5900339764
  0
LINE
  5
29E
100
AcDbEntity
  8
0
100
AcDbLine
 62
7
  6
CONTINUOUS
 10
178.7243638594
 20
119.4056356016
 11
179.7339005768
 21
120.4589301974
  0
LINE
  5
29F
100
AcDbEntity
  8
ASSI
100
AcDbLine
 62
7
  6
CONTINUOUS
 10
178.7243638594
 20
119.4056356016
 11
179.7339005768
 21
120.4589301974
  0
LWPOLYLINE
  5
2A0
100
AcDbEntity
  8
0
100
AcDbPolyline
 62
7
  6
CONTINUOUS
 90
49
 70
0
 10
158.5359884664
 20
101.5900339764
 10
158.508628593
 20
101.5746292747
 10
158.3962015693
 20
101.5190890873
 10
158.278714133
 20
101.4730910418
 10
158.1564582715
 20
101.4367495335
 10
158.0297379867
 20
101.410155004
 10
157.8988683033
 20
101.3933736292
 10
157.7641745135
 20
101.3864471883
 10
157.6259915301
 20
101.3893929693
 10
157.4846630625
 20
101.4022036849
 10
157.3405405119
 20
101.4248475014
 10
157.1939821695
 20
101.4572681442
 10
157.0453525009
 20
101.4993850019
 10
156.8950210612
 20
101.5510933569
 10
156.7433615895
 20
101.6122646594
 10
156.5907511689
 20
101.6827468173
 10
156.4375692309
 20
101.7623645937
 10
156.2841966239
 20
101.8509200403
 10
156.1310146848
 20
101.948192978
 10
155.9784042612
 20
102.0539415622
 10
155.8267447856
 20
102.1679028715
 10
155.6764133431
 20
102.2897935508
 10
155.5277836726
 20
102.4193105656
 10
155.3812253296
 20
102.55613188
 10
155.2371027838
 20
102.6999172262
 10
155.0957743286
 20
102.8503091294
 10
154.9575913627
 20
103.006933636
 10
154.8228975922
 20
103.1694011295
 10
154.6920279321
 20
103.3373075704
 10
154.5653076723
 20
103.5102355425
 10
154.443051829
 20
103.6877551002
 10
154.3255644032
 20
103.8694247517
 10
154.2131373856
 20
104.0547929199
 10
154.1060500522
 20
104.2433991078
 10
154.0045685944
 20
104.4347745048
 10
153.9089453737
 20
104.6284432203
 10
153.8194180899
 20
104.8239238507
 10
153.73620922
 20
105.0207306842
 10
153.6595257865
 20
105.2183741357
 10
153.5895587133
 20
105.4163620484
 10
153.526481847
 20
105.6142023125
 10
153.4704519869
 20
105.8114029374
 10
153.4216086269
 20
106.0074725163
 10
153.3800729736
 20
106.2019237646
 10
153.3459481218
 20
106.3942731801
 10
153.3193188828
 20
106.5840411589
 10
153.3002511118
 20
106.7707556064
 10
153.2887917425
 20
106.9539530465
 10
153.2849688717
 20
107.1331782843
  0
LWPOLYLINE
  5
2A1
100
AcDbEntity
  8
ASSI
100
AcDbPolyline
 62
7
  6
CONTINUOUS
 90
49
 70
0
 10
158.5359884664
 20
101.5900339764
 10
158.508628593
 20
101.5746292747
 10
158.3962015693
 20
101.5190890873
 10
158.278714133
 20
101.4730910418
 10
158.1564582715
 20
101.4367495335
 10
158.0297379867
 20
101.410155004
 10
157.8988683033
 20
101.3933736292
 10
157.7641745135
 20
101.3864471883
 10
157.6259915301
 20
101.3893929693
 10
157.4846630625
 20
101.4022036849
 10
157.3405405119
 20
101.4248475014
 10
157.1939821695
 20
101.4572681442
 10
157.0453525009
 20
101.4993850019
 10
156.8950210612
 20
101.5510933569
 10
156.7433615895
 20
101.6122646594
 10
156.5907511689
 20
101.6827468173
 10
156.4375692309
 20
101.7623645937
 10
156.2841966239
 20
101.8509200403
 10
156.1310146848
 20
101.948192978
 10
155.9784042612
 20
102.0539415622
 10
155.8267447856
 20
102.1679028715
 10
155.6764133431
 20
102.2897935508
 10
155.5277836726
 20
102.4193105656
 10
155.3812253296
 20
102.55613188
 10
155.2371027838
 20
102.6999172262
 10
155.0957743286
 20
102.8503091294
 10
154.9575913627
 20
103.006933636
 10
154.8228975922
 20
103.1694011295
 10
154.6920279321
 20
103.3373075704
 10
154.5653076723
 20
103.5102355425
 10
154.443051829
 20
103.6877551002
 10
154.3255644032
 20
103.8694247517
 10
154.2131373856
 20
104.0547929199
 10
154.1060500522
 20
104.2433991078
 10
154.0045685944
 20
104.4347745048
 10
153.9089453737
 20
104.6284432203
 10
153.8194180899
 20
104.8239238507
 10
153.73620922
 20
105.0207306842
 10
153.6595257865
 20
105.2183741357
 10
153.5895587133
 20
105.4163620484
 10
153.526481847
 20
105.6142023125
 10
153.4704519869
 20
105.8114029374
 10
153.4216086269
 20
106.0074725163
 10
153.3800729736
 20
106.2019237646
 10
153.3459481218
 20
106.3942731801
 10
153.3193188828
 20
106.5840411589
 10
153.3002511118
 20
106.7707556064
 10
153.2887917425
 20
106.9539530465
 10
153.2849688717
 20
107.1331782843
  0
LINE
  5
2A2
100
AcDbEntity
  8
0
100
AcDbLine
 62
7
  6
CONTINUOUS
 10
179.0033397935
 20
118.9224351101
 11
180.4202989244
 21
119.2700533863
  0
LINE
  5
2A3
100
AcDbEntity
  8
ASSI
100
AcDbLine
 62
7
  6
CONTINUOUS
 10
179.0033397935
 20
118.9224351101
 11
180.4202989244
 21
119.2700533863
  0
LWPOLYLINE
  5
2A4
100
AcDbEntity
  8
0
100
AcDbPolyline
 62
7
  6
CONTINUOUS
 90
3
 70
0
 10
155.9784051502
 20
109.1021029473
 10
156.1310155708
 20
109.0316207894
 10
156.1869435056
 20
109.0025517107
  0
LWPOLYLINE
  5
2A5
100
AcDbEntity
  8
ASSI
100
AcDbPolyline
 62
7
  6
CONTINUOUS
 90
3
 70
0
 10
155.9784051502
 20
109.1021029473
 10
156.1310155708
 20
109.0316207894
 10
156.1869435056
 20
109.0025517107
  0
LWPOLYLINE
  5
2A6
100
AcDbEntity
  8
0
100
AcDbPolyline
 62
7
  6
CONTINUOUS
 90
33
 70
0
 10
140.0970965886
 20
118.2992966884
 10
140.1830701728
 20
118.2483850222
 10
140.3537180199
 20
118.1400535455
 10
140.5237249773
 20
118.0222176158
 10
140.6930957796
 20
117.8949474898
 10
140.8605723218
 20
117.7591885526
 10
141.0261405208
 20
117.614877559
 10
141.1898144596
 20
117.4620777543
 10
141.3503782826
 20
117.3019242584
 10
141.5078088417
 20
117.1343622649
 10
141.662129285
 20
116.9594465803
 10
141.8121932017
 20
116.7784767445
 10
141.9579688198
 20
116.5914077472
 10
142.0994879113
 20
116.3982845988
 10
142.2356993812
 20
116.2005418702
 10
142.3665636387
 20
115.9981453168
 10
142.4921202746
 20
115.7911291833
 10
142.6114369672
 20
115.5810307751
 10
142.7244673361
 20
115.36782706
 10
142.8312577616
 20
115.1515410702
 10
142.9310150624
 20
114.9337792067
 10
143.0236869593
 20
114.7145301608
 10
143.1093257316
 20
114.4938052413
 10
143.1872950351
 20
114.2732447759
 10
143.2575376544
 20
114.0528498794
 10
143.3201108051
 20
113.8326194371
 10
143.3745497897
 20
113.6141904327
 10
143.4207938396
 20
113.3975762122
 10
143.4589037234
 20
113.1827634296
 10
143.4885970496
 20
112.9713490305
 10
143.5097796878
 20
112.7638653299
 10
143.5225457683
 20
112.5597800127
 10
143.5268952913
 20
112.3590930789
  0
LWPOLYLINE
  5
2A7
100
AcDbEntity
  8
ASSI
100
AcDbPolyline
 62
7
  6
CONTINUOUS
 90
33
 70
0
 10
140.0970965886
 20
118.2992966884
 10
140.1830701728
 20
118.2483850222
 10
140.3537180199
 20
118.1400535455
 10
140.5237249773
 20
118.0222176158
 10
140.6930957796
 20
117.8949474898
 10
140.8605723218
 20
117.7591885526
 10
141.0261405208
 20
117.614877559
 10
141.1898144596
 20
117.4620777543
 10
141.3503782826
 20
117.3019242584
 10
141.5078088417
 20
117.1343622649
 10
141.662129285
 20
116.9594465803
 10
141.8121932017
 20
116.7784767445
 10
141.9579688198
 20
116.5914077472
 10
142.0994879113
 20
116.3982845988
 10
142.2356993812
 20
116.2005418702
 10
142.3665636387
 20
115.9981453168
 10
142.4921202746
 20
115.7911291833
 10
142.6114369672
 20
115.5810307751
 10
142.7244673361
 20
115.36782706
 10
142.8312577616
 20
115.1515410702
 10
142.9310150624
 20
114.9337792067
 10
143.0236869593
 20
114.7145301608
 10
143.1093257316
 20
114.4938052413
 10
143.1872950351
 20
114.2732447759
 10
143.2575376544
 20
114.0528498794
 10
143.3201108051
 20
113.8326194371
 10
143.3745497897
 20
113.6141904327
 10
143.4207938396
 20
113.3975762122
 10
143.4589037234
 20
113.1827634296
 10
143.4885970496
 20
112.9713490305
 10
143.5097796878
 20
112.7638653299
 10
143.5225457683
 20
112.5597800127
 10
143.5268952913
 20
112.3590930789
  0
LWPOLYLINE
  5
2A8
100
AcDbEntity
  8
0
100
AcDbPolyline
 62
7
  6
CONTINUOUS
 90
33
 70
0
 10
156.0069991653
 20
109.1131183385
 10
156.0929727495
 20
109.0622066723
 10
156.2636205966
 20
108.9538751956
 10
156.433627554
 20
108.8360392659
 10
156.6029983563
 20
108.7087691399
 10
156.7704748985
 20
108.5730102027
 10
156.9360430975
 20
108.4286992092
 10
157.0997170363
 20
108.2758994044
 10
157.2602808593
 20
108.1157459085
 10
157.4177114184
 20
107.948183915
 10
157.5720318617
 20
107.7732682304
 10
157.7220957784
 20
107.5922983947
 10
157.8678713965
 20
107.4052293974
 10
158.009390488
 20
107.2121062489
 10
158.1456019579
 20
107.0143635203
 10
158.2764662154
 20
106.8119669669
 10
158.4020228513
 20
106.6049508335
 10
158.5213395439
 20
106.3948524252
 10
158.6343699128
 20
106.1816487101
 10
158.7411603383
 20
105.9653627203
 10
158.8409176391
 20
105.7476008568
 10
158.933589536
 20
105.5283518109
 10
159.0192283083
 20
105.3076268914
 10
159.0971976118
 20
105.0870664261
 10
159.1674402311
 20
104.8666715296
 10
159.2300133818
 20
104.6464410872
 10
159.2844523664
 20
104.4280120828
 10
159.3306964163
 20
104.2113978623
 10
159.3688063001
 20
103.9965850798
 10
159.3984996263
 20
103.7851706806
 10
159.4196822645
 20
103.57768698
 10
159.432448345
 20
103.3736016628
 10
159.436797868
 20
103.172914729
  0
LWPOLYLINE
  5
2A9
100
AcDbEntity
  8
ASSI
100
AcDbPolyline
 62
7
  6
CONTINUOUS
 90
33
 70
0
 10
156.0069991653
 20
109.1131183385
 10
156.0929727495
 20
109.0622066723
 10
156.2636205966
 20
108.9538751956
 10
156.433627554
 20
108.8360392659
 10
156.6029983563
 20
108.7087691399
 10
156.7704748985
 20
108.5730102027
 10
156.9360430975
 20
108.4286992092
 10
157.0997170363
 20
108.2758994044
 10
157.2602808593
 20
108.1157459085
 10
157.4177114184
 20
107.948183915
 10
157.5720318617
 20
107.7732682304
 10
157.7220957784
 20
107.5922983947
 10
157.8678713965
 20
107.4052293974
 10
158.009390488
 20
107.2121062489
 10
158.1456019579
 20
107.0143635203
 10
158.2764662154
 20
106.8119669669
 10
158.4020228513
 20
106.6049508335
 10
158.5213395439
 20
106.3948524252
 10
158.6343699128
 20
106.1816487101
 10
158.7411603383
 20
105.9653627203
 10
158.8409176391
 20
105.7476008568
 10
158.933589536
 20
105.5283518109
 10
159.0192283083
 20
105.3076268914
 10
159.0971976118
 20
105.0870664261
 10
159.1674402311
 20
104.8666715296
 10
159.2300133818
 20
104.6464410872
 10
159.2844523664
 20
104.4280120828
 10
159.3306964163
 20
104.2113978623
 10
159.3688063001
 20
103.9965850798
 10
159.3984996263
 20
103.7851706806
 10
159.4196822645
 20
103.57768698
 10
159.432448345
 20
103.3736016628
 10
159.436797868
 20
103.172914729
  0
LINE
  5
2AA
100
AcDbEntity
  8
0
100
AcDbLine
 62
7
  6
CONTINUOUS
 10
159.4316382579
 20
86.6489114697
 11
159.4215155651
 21
86.4987728294
  0
LINE
  5
2AB
100
AcDbEntity
  8
ASSI
100
AcDbLine
 62
7
  6
CONTINUOUS
 10
159.4316382579
 20
86.6489114697
 11
159.4215155651
 21
86.4987728294
  0
LWPOLYLINE
  5
2AC
100
AcDbEntity
  8
0
100
AcDbPolyline
 62
7
  6
CONTINUOUS
 90
15
 70
0
 10
159.4215155651
 20
86.4987728294
 10
159.4024477248
 20
86.3340771184
 10
159.3758183991
 20
86.17505973
 10
159.3416934497
 20
86.0221167096
 10
159.3001576956
 20
85.8756297237
 10
159.25131424
 20
85.7359632229
 10
159.1952842951
 20
85.6034645146
 10
159.1322073564
 20
85.478463907
 10
159.0622402304
 20
85.3612723208
 10
158.9855567661
 20
85.2521811027
 10
158.9023478779
 20
85.1514619136
 10
158.8128205888
 20
85.0593652722
 10
158.7171973771
 20
84.9761199774
 10
158.6157159274
 20
84.9019329306
 10
158.5359884664
 20
84.8523933021
  0
LWPOLYLINE
  5
2AD
100
AcDbEntity
  8
ASSI
100
AcDbPolyline
 62
7
  6
CONTINUOUS
 90
15
 70
0
 10
159.4215155651
 20
86.4987728294
 10
159.4024477248
 20
86.3340771184
 10
159.3758183991
 20
86.17505973
 10
159.3416934497
 20
86.0221167096
 10
159.3001576956
 20
85.8756297237
 10
159.25131424
 20
85.7359632229
 10
159.1952842951
 20
85.6034645146
 10
159.1322073564
 20
85.478463907
 10
159.0622402304
 20
85.3612723208
 10
158.9855567661
 20
85.2521811027
 10
158.9023478779
 20
85.1514619136
 10
158.8128205888
 20
85.0593652722
 10
158.7171973771
 20
84.9761199774
 10
158.6157159274
 20
84.9019329306
 10
158.5359884664
 20
84.8523933021
  0
LWPOLYLINE
  5
2AE
100
AcDbEntity
  8
0
100
AcDbPolyline
 62
7
  6
CONTINUOUS
 90
13
 70
0
 10
154.737713233
 20
92.5724300337
 10
154.7262737842
 20
92.5585765342
 10
154.6494624815
 20
92.4493087614
 10
154.5795296603
 20
92.3322446148
 10
154.5165265387
 20
92.2073260416
 10
154.4604018987
 20
92.0746110946
 10
154.4115726161
 20
91.9350855379
 10
154.3700930131
 20
91.788698659
 10
154.3359087674
 20
91.6355011704
 10
154.3092737889
 20
91.4766309741
 10
154.290272714
 20
91.3124673707
 10
154.2788209061
 20
91.1426310596
 10
154.2749183653
 20
90.9671220407
  0
LWPOLYLINE
  5
2AF
100
AcDbEntity
  8
ASSI
100
AcDbPolyline
 62
7
  6
CONTINUOUS
 90
13
 70
0
 10
154.737713233
 20
92.5724300337
 10
154.7262737842
 20
92.5585765342
 10
154.6494624815
 20
92.4493087614
 10
154.5795296603
 20
92.3322446148
 10
154.5165265387
 20
92.2073260416
 10
154.4604018987
 20
92.0746110946
 10
154.4115726161
 20
91.9350855379
 10
154.3700930131
 20
91.788698659
 10
154.3359087674
 20
91.6355011704
 10
154.3092737889
 20
91.4766309741
 10
154.290272714
 20
91.3124673707
 10
154.2788209061
 20
91.1426310596
 10
154.2749183653
 20
90.9671220407
  0
LWPOLYLINE
  5
2B0
100
AcDbEntity
  8
0
100
AcDbPolyline
 62
7
  6
CONTINUOUS
 90
15
 70
0
 10
154.1857782732
 20
92.386692956
 10
154.2131381467
 20
92.4020976577
 10
154.3255651704
 20
92.4576378451
 10
154.4430526067
 20
92.5036358906
 10
154.5653084682
 20
92.5399773989
 10
154.692028753
 20
92.5665719284
 10
154.8228984364
 20
92.5833533033
 10
154.9575922262
 20
92.5902797441
 10
155.0957752095
 20
92.5873339631
 10
155.2371036772
 20
92.5745232475
 10
155.3812262278
 20
92.551879431
 10
155.5277845702
 20
92.5194587882
 10
155.6764142387
 20
92.4773419305
 10
155.8267456785
 20
92.4256335755
 10
155.9784051502
 20
92.364462273
  0
LWPOLYLINE
  5
2B1
100
AcDbEntity
  8
ASSI
100
AcDbPolyline
 62
7
  6
CONTINUOUS
 90
15
 70
0
 10
154.1857782732
 20
92.386692956
 10
154.2131381467
 20
92.4020976577
 10
154.3255651704
 20
92.4576378451
 10
154.4430526067
 20
92.5036358906
 10
154.5653084682
 20
92.5399773989
 10
154.692028753
 20
92.5665719284
 10
154.8228984364
 20
92.5833533033
 10
154.9575922262
 20
92.5902797441
 10
155.0957752095
 20
92.5873339631
 10
155.2371036772
 20
92.5745232475
 10
155.3812262278
 20
92.551879431
 10
155.5277845702
 20
92.5194587882
 10
155.6764142387
 20
92.4773419305
 10
155.8267456785
 20
92.4256335755
 10
155.9784051502
 20
92.364462273
  0
LWPOLYLINE
  5
2B2
100
AcDbEntity
  8
0
100
AcDbPolyline
 62
7
  6
CONTINUOUS
 90
3
 70
0
 10
140.0685025735
 20
118.2882812972
 10
140.2211129941
 20
118.2177991392
 10
140.2770409289
 20
118.1887300606
  0
LWPOLYLINE
  5
2B3
100
AcDbEntity
  8
ASSI
100
AcDbPolyline
 62
7
  6
CONTINUOUS
 90
3
 70
0
 10
140.0685025735
 20
118.2882812972
 10
140.2211129941
 20
118.2177991392
 10
140.2770409289
 20
118.1887300606
  0
LWPOLYLINE
  5
2B4
100
AcDbEntity
  8
0
100
AcDbPolyline
 62
7
  6
CONTINUOUS
 90
49
 70
0
 10
158.5359884664
 20
84.8523933021
 10
158.508628593
 20
84.8369886004
 10
158.3962015693
 20
84.781448413
 10
158.278714133
 20
84.7354503676
 10
158.1564582715
 20
84.6991088593
 10
158.0297379867
 20
84.6725143297
 10
157.8988683033
 20
84.6557329549
 10
157.7641745135
 20
84.6488065141
 10
157.6259915301
 20
84.6517522951
 10
157.4846630625
 20
84.6645630107
 10
157.3405405119
 20
84.6872068271
 10
157.1939821695
 20
84.71962747
 10
157.0453525009
 20
84.7617443277
 10
156.8950210612
 20
84.8134526826
 10
156.7433615895
 20
84.8746239851
 10
156.5907511689
 20
84.945106143
 10
156.4375692309
 20
85.0247239195
 10
156.2841966239
 20
85.113279366
 10
156.1310146848
 20
85.2105523038
 10
155.9784042612
 20
85.3163008879
 10
155.8267447856
 20
85.4302621973
 10
155.6764133431
 20
85.5521528766
 10
155.5277836726
 20
85.6816698914
 10
155.3812253296
 20
85.8184912058
 10
155.2371027838
 20
85.9622765519
 10
155.0957743286
 20
86.1126684551
 10
154.9575913627
 20
86.2692929618
 10
154.8228975922
 20
86.4317604553
 10
154.6920279321
 20
86.5996668962
 10
154.5653076723
 20
86.7725948683
 10
154.443051829
 20
86.9501144259
 10
154.3255644032
 20
87.1317840774
 10
154.2131373856
 20
87.3171522456
 10
154.1060500522
 20
87.5057584335
 10
154.0045685944
 20
87.6971338305
 10
153.9089453737
 20
87.8908025461
 10
153.8194180899
 20
88.0862831764
 10
153.73620922
 20
88.28309001
 10
153.6595257865
 20
88.4807334615
 10
153.5895587133
 20
88.6787213742
 10
153.526481847
 20
88.8765616382
 10
153.4704519869
 20
89.0737622631
 10
153.4216086269
 20
89.2698318421
 10
153.3800729736
 20
89.4642830903
 10
153.3459481218
 20
89.6566325058
 10
153.3193188828
 20
89.8464004847
 10
153.3002511118
 20
90.0331149321
 10
153.2887917425
 20
90.2163123723
 10
153.2849688717
 20
90.3955376101
  0
LWPOLYLINE
  5
2B5
100
AcDbEntity
  8
ASSI
100
AcDbPolyline
 62
7
  6
CONTINUOUS
 90
49
 70
0
 10
158.5359884664
 20
84.8523933021
 10
158.508628593
 20
84.8369886004
 10
158.3962015693
 20
84.781448413
 10
158.278714133
 20
84.7354503676
 10
158.1564582715
 20
84.6991088593
 10
158.0297379867
 20
84.6725143297
 10
157.8988683033
 20
84.6557329549
 10
157.7641745135
 20
84.6488065141
 10
157.6259915301
 20
84.6517522951
 10
157.4846630625
 20
84.6645630107
 10
157.3405405119
 20
84.6872068271
 10
157.1939821695
 20
84.71962747
 10
157.0453525009
 20
84.7617443277
 10
156.8950210612
 20
84.8134526826
 10
156.7433615895
 20
84.8746239851
 10
156.5907511689
 20
84.945106143
 10
156.4375692309
 20
85.0247239195
 10
156.2841966239
 20
85.113279366
 10
156.1310146848
 20
85.2105523038
 10
155.9784042612
 20
85.3163008879
 10
155.8267447856
 20
85.4302621973
 10
155.6764133431
 20
85.5521528766
 10
155.5277836726
 20
85.6816698914
 10
155.3812253296
 20
85.8184912058
 10
155.2371027838
 20
85.9622765519
 10
155.0957743286
 20
86.1126684551
 10
154.9575913627
 20
86.2692929618
 10
154.8228975922
 20
86.4317604553
 10
154.6920279321
 20
86.5996668962
 10
154.5653076723
 20
86.7725948683
 10
154.443051829
 20
86.9501144259
 10
154.3255644032
 20
87.1317840774
 10
154.2131373856
 20
87.3171522456
 10
154.1060500522
 20
87.5057584335
 10
154.0045685944
 20
87.6971338305
 10
153.9089453737
 20
87.8908025461
 10
153.8194180899
 20
88.0862831764
 10
153.73620922
 20
88.28309001
 10
153.6595257865
 20
88.4807334615
 10
153.5895587133
 20
88.6787213742
 10
153.526481847
 20
88.8765616382
 10
153.4704519869
 20
89.0737622631
 10
153.4216086269
 20
89.2698318421
 10
153.3800729736
 20
89.4642830903
 10
153.3459481218
 20
89.6566325058
 10
153.3193188828
 20
89.8464004847
 10
153.3002511118
 20
90.0331149321
 10
153.2887917425
 20
90.2163123723
 10
153.2849688717
 20
90.3955376101
  0
LWPOLYLINE
  5
2B6
100
AcDbEntity
  8
CURVE
100
AcDbPolyline
 62
250
  6
CONTINUOUS
 90
73
 70
0
 10
182.5184625309
 20
60.6982359192
 10
182.5173195527
 20
60.7045719772
 10
182.5155675318
 20
60.7103757763
 10
182.5132740736
 20
60.7157007964
 10
182.5105067833
 20
60.7206005177
 10
182.507333266
 20
60.7251284202
 10
182.5038211272
 20
60.7293379841
 10
182.500037972
 20
60.7332826894
 10
182.4960514056
 20
60.7370160162
 10
182.4919290334
 20
60.7405914445
 10
182.4877384606
 20
60.7440624545
 10
182.4771452987
 20
60.7525474983
 10
182.4664943146
 20
60.76066203
 10
182.4557314619
 20
60.7683585812
 10
182.4448026942
 20
60.7755896833
 10
182.4336539652
 20
60.7823078677
 10
182.4222312284
 20
60.7884656658
 10
182.4104804374
 20
60.794015609
 10
182.3983475459
 20
60.7989102289
 10
182.3847696586
 20
60.8034175454
 10
182.3707202912
 20
60.8071160724
 10
182.3562367164
 20
60.8100168073
 10
182.3413562071
 20
60.8121307474
 10
182.326116036
 20
60.8134688902
 10
182.3105534761
 20
60.8140422329
 10
182.2947058
 20
60.8138617729
 10
182.2786102807
 20
60.8129385076
 10
182.262304191
 20
60.8112834343
 10
182.2458248037
 20
60.8089075504
 10
182.2292198429
 20
60.8058253469
 10
182.2124886839
 20
60.8020479267
 10
182.195640908
 20
60.7975886052
 10
182.1786860963
 20
60.7924606978
 10
182.1616338299
 20
60.7866775201
 10
182.1444936901
 20
60.7802523874
 10
182.1248055886
 20
60.7721390037
 10
182.1050401664
 20
60.7632307434
 10
182.0852224224
 20
60.7535542958
 10
182.0653773558
 20
60.7431363508
 10
182.0455299656
 20
60.7320035978
 10
182.0257052511
 20
60.7201827266
 10
182.0064207282
 20
60.7080135366
 10
181.9872049532
 20
60.6952040142
 10
181.9680813476
 20
60.6817426743
 10
181.9490733331
 20
60.6676180313
 10
181.9302043313
 20
60.6528186001
 10
181.9133814051
 20
60.6389323697
 10
181.8967101752
 20
60.624497959
 10
181.8802110858
 20
60.6095217183
 10
181.8639045813
 20
60.5940099982
 10
181.8478111059
 20
60.5779691492
 10
181.8305579836
 20
60.5599170113
 10
181.8136102493
 20
60.5412793345
 10
181.796996605
 20
60.5220901172
 10
181.7807457529
 20
60.5023833576
 10
181.7648863949
 20
60.4821930541
 10
181.7494472332
 20
60.461553205
 10
181.7344569699
 20
60.4404978086
 10
181.719944307
 20
60.4190608631
 10
181.7066996144
 20
60.3984938308
 10
181.6939169543
 20
60.3776412362
 10
181.6816067225
 20
60.3565275428
 10
181.6697793147
 20
60.3351772137
 10
181.6584451267
 20
60.3136147123
 10
181.6476145542
 20
60.2918645019
 10
181.637297993
 20
60.2699510457
 10
181.6301139348
 20
60.2538912303
 10
181.6232478652
 20
60.2377781971
 10
181.6167391543
 20
60.2216324634
 10
181.6106271724
 20
60.2054745468
 10
181.6049512896
 20
60.1893249648
 10
181.5997508762
 20
60.1732042348
 10
181.5950653024
 20
60.1571328743
  0
LWPOLYLINE
  5
2B7
100
AcDbEntity
  8
CURVE
100
AcDbPolyline
 62
250
  6
CONTINUOUS
 90
22
 70
0
 10
181.8659083823
 20
59.6617757176
 10
181.8636807137
 20
59.6754519455
 10
181.8615539337
 20
59.6892005834
 10
181.8595450848
 20
59.7030333911
 10
181.8576712093
 20
59.7169621288
 10
181.8559493499
 20
59.7309985562
 10
181.8543965489
 20
59.7451544334
 10
181.8529263605
 20
59.7605773686
 10
181.8516730356
 20
59.7761481323
 10
181.8506366449
 20
59.791861704
 10
181.8498172589
 20
59.8077130632
 10
181.849214948
 20
59.8236971892
 10
181.8488297829
 20
59.8398090616
 10
181.8486618341
 20
59.8560436599
 10
181.8487111722
 20
59.8723959634
 10
181.8489778676
 20
59.8888609516
 10
181.849461991
 20
59.9054336041
 10
181.8501636129
 20
59.9221089002
 10
181.8510828039
 20
59.9388818194
 10
181.8522196344
 20
59.9557473411
 10
181.8535741751
 20
59.9727004449
 10
181.8551464964
 20
59.9897361102
  0
LINE
  5
2B8
100
AcDbEntity
  8
0
100
AcDbLine
 62
7
  6
CONTINUOUS
 10
179.0033397935
 20
48.0908015108
 11
179.0033397935
 21
118.9224351101
  0
LINE
  5
2B9
100
AcDbEntity
  8
ASSI
100
AcDbLine
 62
7
  6
CONTINUOUS
 10
179.0033397935
 20
48.0908015108
 11
179.0033397935
 21
118.9224351101
  0
LINE
  5
2BA
100
AcDbEntity
  8
0
100
AcDbLine
 62
7
  6
CONTINUOUS
 10
180.4418002763
 20
47.7261836067
 11
180.4418002763
 21
119.2580584389
  0
LINE
  5
2BB
100
AcDbEntity
  8
ASSI
100
AcDbLine
 62
7
  6
CONTINUOUS
 10
180.4418002763
 20
47.7261836067
 11
180.4418002763
 21
119.2580584389
  0
LINE
  5
2BC
100
AcDbEntity
  8
CURVE
100
AcDbLine
 62
250
  6
CONTINUOUS
 10
181.5543486624
 20
54.9140828267
 11
181.5543486624
 21
54.4880543516
  0
LINE
  5
2BD
100
AcDbEntity
  8
CURVE
100
AcDbLine
 62
250
  6
CONTINUOUS
 10
181.5544576341
 20
52.6515047767
 11
181.5544576341
 21
53.1143029908
  0
LINE
  5
2BE
100
AcDbEntity
  8
CURVE
100
AcDbLine
 62
250
  6
CONTINUOUS
 10
181.5544576341
 20
53.9042755412
 11
181.5544576341
 21
54.3300125365
  0
LINE
  5
2BF
100
AcDbEntity
  8
CURVE
100
AcDbLine
 62
250
  6
CONTINUOUS
 10
181.5544576341
 20
55.32777269
 11
181.5544576341
 21
55.75344845
  0
LINE
  5
2C0
100
AcDbEntity
  8
CURVE
100
AcDbLine
 62
250
  6
CONTINUOUS
 10
181.5544576341
 20
56.6010058326
 11
181.5544576341
 21
57.0225192271
  0
LINE
  5
2C1
100
AcDbEntity
  8
CURVE
100
AcDbLine
 62
250
  6
CONTINUOUS
 10
181.5544576341
 20
57.920444661
 11
181.5544576341
 21
58.3325759956
  0
LINE
  5
2C2
100
AcDbEntity
  8
0
100
AcDbLine
 62
7
  6
CONTINUOUS
 10
179.734263007
 20
120.4835489363
 11
179.7339005768
 21
120.4589301974
  0
LINE
  5
2C3
100
AcDbEntity
  8
ASSI
100
AcDbLine
 62
7
  6
CONTINUOUS
 10
179.734263007
 20
120.4835489363
 11
179.7339005768
 21
120.4589301974
  0
LINE
  5
2C4
100
AcDbEntity
  8
0
100
AcDbLine
 62
7
  6
CONTINUOUS
 10
180.4202989244
 20
119.2700533863
 11
180.4418002763
 21
119.2580584389
  0
LINE
  5
2C5
100
AcDbEntity
  8
ASSI
100
AcDbLine
 62
7
  6
CONTINUOUS
 10
180.4202989244
 20
119.2700533863
 11
180.4418002763
 21
119.2580584389
  0
LINE
  5
2C6
100
AcDbEntity
  8
0
100
AcDbLine
 62
7
  6
CONTINUOUS
 10
178.7243638594
 20
119.4056356016
 11
117.3803935224
 21
154.8248752537
  0
LINE
  5
2C7
100
AcDbEntity
  8
ASSI
100
AcDbLine
 62
7
  6
CONTINUOUS
 10
178.7243638594
 20
119.4056356016
 11
117.3803935224
 21
154.8248752537
  0
LINE
  5
2C8
100
AcDbEntity
  8
0
100
AcDbLine
 62
7
  6
CONTINUOUS
 10
179.734263007
 20
120.4835489363
 11
117.7838464364
 21
156.2529430431
  0
LINE
  5
2C9
100
AcDbEntity
  8
ASSI
100
AcDbLine
 62
7
  6
CONTINUOUS
 10
179.734263007
 20
120.4835489363
 11
117.7838464364
 21
156.2529430431
  0
LINE
  5
2CA
100
AcDbEntity
  8
CURVE
100
AcDbLine
 62
250
  6
CONTINUOUS
 10
182.367782419
 20
60.1754669941
 11
182.367782419
 21
59.9319960029
  0
LINE
  5
2CB
100
AcDbEntity
  8
CURVE
100
AcDbLine
 62
250
  6
CONTINUOUS
 10
182.6671959068
 20
60.1073334286
 11
182.6671959068
 21
60.3357596634
  0
LINE
  5
2CC
100
AcDbEntity
  8
CURVE
100
AcDbLine
 62
250
  6
CONTINUOUS
 10
182.7352632904
 20
58.5421516888
 11
182.7352632904
 21
58.9500439097
  0
LINE
  5
2CD
100
AcDbEntity
  8
CURVE
100
AcDbLine
 62
250
  6
CONTINUOUS
 10
183.017676985
 20
59.1872433243
 11
183.017676985
 21
58.607063628
  0
LINE
  5
2CE
100
AcDbEntity
  8
CURVE
100
AcDbLine
 62
250
  6
CONTINUOUS
 10
183.3826488108
 20
59.9431324919
 11
183.3826488108
 21
59.4941162961
  0
LINE
  5
2CF
100
AcDbEntity
  8
CURVE
100
AcDbLine
 62
250
  6
CONTINUOUS
 10
183.3826488108
 20
58.6860148396
 11
183.3826488108
 21
58.2646092192
  0
LINE
  5
2D0
100
AcDbEntity
  8
CURVE
100
AcDbLine
 62
250
  6
CONTINUOUS
 10
183.3826488108
 20
58.1977109106
 11
183.3826488108
 21
57.7809420249
  0
LINE
  5
2D1
100
AcDbEntity
  8
CURVE
100
AcDbLine
 62
250
  6
CONTINUOUS
 10
183.3826488108
 20
57.1868660044
 11
183.3826488108
 21
57.1271150766
  0
LINE
  5
2D2
100
AcDbEntity
  8
CURVE
100
AcDbLine
 62
250
  6
CONTINUOUS
 10
183.3826488108
 20
56.5353953894
 11
183.3826488108
 21
56.1278248578
  0
LINE
  5
2D3
100
AcDbEntity
  8
CURVE
100
AcDbLine
 62
250
  6
CONTINUOUS
 10
183.3826488108
 20
54.6583057289
 11
183.3826488108
 21
54.2828682016
  0
LINE
  5
2D4
100
AcDbEntity
  8
CURVE
100
AcDbLine
 62
250
  6
CONTINUOUS
 10
183.3826488108
 20
55.4724523313
 11
183.3826488108
 21
55.8984808065
  0
LINE
  5
2D5
100
AcDbEntity
  8
CURVE
100
AcDbLine
 62
250
  6
CONTINUOUS
 10
183.3826488229
 20
60.0682352267
 11
183.3826488229
 21
60.4925493932
  0
LINE
  5
2D6
100
AcDbEntity
  8
CURVE
100
AcDbLine
 62
250
  6
CONTINUOUS
 10
183.3826488229
 20
61.1449530857
 11
183.3826488229
 21
61.5547428638
  0
LINE
  5
2D7
100
AcDbEntity
  8
0
100
AcDbLine
 62
7
  6
CONTINUOUS
 10
184.5037332611
 20
49.754962121
 11
184.5037332611
 21
121.6033523411
  0
LINE
  5
2D8
100
AcDbEntity
  8
ASSI
100
AcDbLine
 62
7
  6
CONTINUOUS
 10
184.5037332611
 20
49.754962121
 11
184.5037332611
 21
121.6033523411
  0
LWPOLYLINE
  5
2D9
100
AcDbEntity
  8
CURVE
100
AcDbPolyline
 62
250
  6
CONTINUOUS
 90
48
 70
0
 10
182.6671959068
 20
60.3357596634
 10
182.6672705084
 20
60.3423594277
 10
182.6674951272
 20
60.3490516113
 10
182.6678709836
 20
60.3558301202
 10
182.6683992984
 20
60.3626888604
 10
182.669081292
 20
60.3696217379
 10
182.6699181852
 20
60.3766226587
 10
182.6709111985
 20
60.3836855288
 10
182.6720615526
 20
60.3908042542
 10
182.673370468
 20
60.397972741
 10
182.6748391655
 20
60.4051848951
 10
182.6764688654
 20
60.4124346225
 10
182.6782607886
 20
60.4197158293
 10
182.6802161556
 20
60.4270224214
 10
182.682336187
 20
60.4343483048
 10
182.6846221035
 20
60.4416873856
 10
182.6870751256
 20
60.4490335698
 10
182.6896964739
 20
60.4563807633
 10
182.6925595585
 20
60.4639101734
 10
182.6955954072
 20
60.4714298406
 10
182.698798488
 20
60.478935369
 10
182.7021632691
 20
60.4864223625
 10
182.7056842182
 20
60.4938864254
 10
182.7093558035
 20
60.5013231617
 10
182.713172493
 20
60.5087281755
 10
182.7171287545
 20
60.5160970709
 10
182.7212190561
 20
60.523425452
 10
182.7254378658
 20
60.5307089227
 10
182.7297796516
 20
60.5379430874
 10
182.7342388814
 20
60.5451235499
 10
182.7388100233
 20
60.5522459145
 10
182.7434875453
 20
60.5593057851
 10
182.7482659152
 20
60.5662987659
 10
182.7531396012
 20
60.573220461
 10
182.7581030712
 20
60.5800664744
 10
182.7631507931
 20
60.5868324103
 10
182.7682772351
 20
60.5935138726
 10
182.773476865
 20
60.6001064656
 10
182.7787441509
 20
60.6066057933
 10
182.7840735607
 20
60.6130074597
 10
182.7894595625
 20
60.619307069
 10
182.7948966241
 20
60.6255002252
 10
182.8003792137
 20
60.6315825325
 10
182.8059017992
 20
60.6375495949
 10
182.8114588486
 20
60.6433970164
 10
182.8170448299
 20
60.6491204013
 10
182.822654211
 20
60.6547153535
 10
182.82828146
 20
60.6601774772
  0
LINE
  5
2DA
100
AcDbEntity
  8
0
100
AcDbLine
 62
7
  6
CONTINUOUS
 10
183.7961959918
 20
122.8288428385
 11
121.5716602236
 21
158.7565099344
  0
LINE
  5
2DB
100
AcDbEntity
  8
ASSI
100
AcDbLine
 62
7
  6
CONTINUOUS
 10
183.7961959918
 20
122.8288428385
 11
121.5716602236
 21
158.7565099344
  0
LINE
  5
2DC
100
AcDbEntity
  8
0
100
AcDbLine
 62
7
  6
CONTINUOUS
 10
179.0033397935
 20
118.9224351101
 11
178.7243638594
 21
119.4056356016
  0
LINE
  5
2DD
100
AcDbEntity
  8
ASSI
100
AcDbLine
 62
7
  6
CONTINUOUS
 10
179.0033397935
 20
118.9224351101
 11
178.7243638594
 21
119.4056356016
  0
LINE
  5
2DE
100
AcDbEntity
  8
0
100
AcDbLine
 62
7
  6
CONTINUOUS
 10
180.4202989244
 20
119.2700533863
 11
179.7339005768
 21
120.4589301974
  0
LINE
  5
2DF
100
AcDbEntity
  8
ASSI
100
AcDbLine
 62
7
  6
CONTINUOUS
 10
180.4202989244
 20
119.2700533863
 11
179.7339005768
 21
120.4589301974
  0
LWPOLYLINE
  5
2E0
100
AcDbEntity
  8
CURVE
100
AcDbPolyline
 62
250
  6
CONTINUOUS
 90
49
 70
0
 10
181.8551464964
 20
59.9897361102
 10
181.856052885
 20
59.9980321807
 10
181.857148329
 20
60.0064305752
 10
181.8584322972
 20
60.0149224076
 10
181.8599042579
 20
60.0234987916
 10
181.8615636798
 20
60.032150841
 10
181.8634100312
 20
60.0408696694
 10
181.8654427808
 20
60.0496463906
 10
181.8676613971
 20
60.0584721184
 10
181.8700653486
 20
60.0673379665
 10
181.8726541037
 20
60.0762350486
 10
181.8754271311
 20
60.0851544786
 10
181.8783838992
 20
60.09408737
 10
181.8815238766
 20
60.1030248368
 10
181.8848465317
 20
60.1119579926
 10
181.8883513332
 20
60.1208779511
 10
181.8920377495
 20
60.1297758262
 10
181.8959052491
 20
60.1386427315
 10
181.8999533006
 20
60.1474697809
 10
181.9041813725
 20
60.1562480879
 10
181.9085889332
 20
60.1649687665
 10
181.9131754514
 20
60.1736229303
 10
181.9179403955
 20
60.1822016931
 10
181.9228832341
 20
60.1906961686
 10
181.9280034357
 20
60.1990974705
 10
181.933270157
 20
60.2073525766
 10
181.9387035466
 20
60.2154998006
 10
181.9442953422
 20
60.2235322234
 10
181.9500372815
 20
60.2314429254
 10
181.9559211022
 20
60.2392249875
 10
181.961938542
 20
60.2468714902
 10
181.9680813388
 20
60.2543755143
 10
181.9743412301
 20
60.2617301402
 10
181.9807099538
 20
60.2689284488
 10
181.9871792476
 20
60.2759635207
 10
181.9937408491
 20
60.2828284365
 10
182.0003864961
 20
60.2895162769
 10
182.0071079263
 20
60.2960201226
 10
182.0138968775
 20
60.3023330541
 10
182.0207450874
 20
60.3084481522
 10
182.0276442936
 20
60.3143584975
 10
182.034586234
 20
60.3200571707
 10
182.0415626462
 20
60.3255372524
 10
182.048565268
 20
60.3307918233
 10
182.0555858371
 20
60.335813964
 10
182.0626160912
 20
60.3405967552
 10
182.069647768
 20
60.3451332776
 10
182.0766726053
 20
60.3494166118
 10
182.0836823408
 20
60.3534398384
  0
LINE
  5
2E1
100
AcDbEntity
  8
0
100
AcDbLine
 62
7
  6
CONTINUOUS
 10
183.7961959918
 20
122.8288428385
 11
184.5037332611
 21
121.6033523411
  0
LINE
  5
2E2
100
AcDbEntity
  8
ASSI
100
AcDbLine
 62
7
  6
CONTINUOUS
 10
183.7961959918
 20
122.8288428385
 11
184.5037332611
 21
121.6033523411
  0
LWPOLYLINE
  5
2E3
100
AcDbEntity
  8
CURVE
100
AcDbPolyline
 62
250
  6
CONTINUOUS
 90
32
 70
0
 10
181.5950653024
 20
60.1571328743
 10
181.5874625892
 20
60.1283782699
 10
181.5805135618
 20
60.0997388583
 10
181.5741865098
 20
60.0712184772
 10
181.5684497231
 20
60.0428209641
 10
181.5632714914
 20
60.0145501568
 10
181.5586201045
 20
59.9864098929
 10
181.5544638521
 20
59.9584040101
 10
181.5507710239
 20
59.9305363459
 10
181.5475099096
 20
59.9028107382
 10
181.5446487991
 20
59.8752310244
 10
181.5421559821
 20
59.8478010424
 10
181.5399997484
 20
59.8205246297
 10
181.537334205
 20
59.7797946555
 10
181.535330687
 20
59.739410084
 10
181.5339615955
 20
59.6993602626
 10
181.5331993313
 20
59.6596345383
 10
181.5330162954
 20
59.6202222585
 10
181.5333848887
 20
59.5811127702
 10
181.5342775122
 20
59.5422954207
 10
181.5356665668
 20
59.5037595572
 10
181.5375244535
 20
59.465494527
 10
181.5398235733
 20
59.4274896771
 10
181.5425363269
 20
59.3897343548
 10
181.5456351155
 20
59.3522179073
 10
181.54909234
 20
59.3149296818
 10
181.5528804012
 20
59.2778590256
 10
181.5569717002
 20
59.2409952857
 10
181.5613386379
 20
59.2043278095
 10
181.5659536152
 20
59.1678459441
 10
181.5707890331
 20
59.1315390367
 10
181.5758172925
 20
59.0953964345
  0
LINE
  5
2E4
100
AcDbEntity
  8
CURVE
100
AcDbLine
 62
7
  6
CONTINUOUS
 10
181.7710123395
 20
60.4894272158
 11
181.9472426993
 21
60.6656575756
  0
LINE
  5
2E5
100
AcDbEntity
  8
CURVE
100
AcDbLine
 62
7
  6
CONTINUOUS
 10
181.5778373976
 20
60.0862415599
 11
182.3050772209
 21
60.8134813831
  0
LINE
  5
2E6
100
AcDbEntity
  8
CURVE
100
AcDbLine
 62
7
  6
CONTINUOUS
 10
181.5417943872
 20
59.8401878354
 11
182.4639274017
 21
60.7623208499
  0
LINE
  5
2E7
100
AcDbEntity
  8
CURVE
100
AcDbLine
 62
7
  6
CONTINUOUS
 10
181.5336981305
 20
59.6220808647
 11
181.851133499
 21
59.9395162331
  0
LINE
  5
2E8
100
AcDbEntity
  8
CURVE
100
AcDbLine
 62
7
  6
CONTINUOUS
 10
182.2927687748
 20
60.381151509
 11
183.3826488229
 21
61.471031557
  0
LINE
  5
2E9
100
AcDbEntity
  8
CURVE
100
AcDbLine
 62
7
  6
CONTINUOUS
 10
181.5407504964
 20
59.4191225166
 11
181.8557455998
 21
59.73411762
  0
LINE
  5
2EA
100
AcDbEntity
  8
CURVE
100
AcDbLine
 62
7
  6
CONTINUOUS
 10
182.3628709883
 20
60.2412430085
 11
183.3826488229
 21
61.261020843
  0
LWPOLYLINE
  5
2EB
100
AcDbEntity
  8
CURVE
100
AcDbPolyline
 62
250
  6
CONTINUOUS
 90
59
 70
0
 10
182.0836823408
 20
60.3534398384
 10
182.0916200574
 20
60.3577371032
 10
182.099619156
 20
60.3618419007
 10
182.1076686811
 20
60.3657482324
 10
182.1157576769
 20
60.3694500997
 10
182.1238751881
 20
60.3729415042
 10
182.132010259
 20
60.3762164473
 10
182.1401519339
 20
60.3792689304
 10
182.1482892575
 20
60.3820929551
 10
182.156411274
 20
60.3846825228
 10
182.164507028
 20
60.387031635
 10
182.1725655637
 20
60.3891342932
 10
182.1805759258
 20
60.3909844987
 10
182.1885271585
 20
60.3925762532
 10
182.1964083064
 20
60.393903558
 10
182.2042084138
 20
60.3949604147
 10
182.2119165252
 20
60.3957408246
 10
182.219521685
 20
60.3962387893
 10
182.2270129376
 20
60.3964483103
 10
182.2343793275
 20
60.396363389
 10
182.2416098991
 20
60.3959780268
 10
182.2486936968
 20
60.3952862253
 10
182.255619765
 20
60.3942819859
 10
182.2623771482
 20
60.3929593102
 10
182.2689548909
 20
60.3913121994
 10
182.2753420373
 20
60.3893346553
 10
182.281527632
 20
60.3870206791
 10
182.2875007193
 20
60.3843642723
 10
182.2932503438
 20
60.3813594366
 10
182.2987655498
 20
60.3780001732
 10
182.3040353818
 20
60.3742804837
 10
182.3089858597
 20
60.3702549508
 10
182.3136921747
 20
60.3658861117
 10
182.3181596463
 20
60.361187297
 10
182.3223935944
 20
60.3561718374
 10
182.3263993385
 20
60.3508530635
 10
182.3301821984
 20
60.3452443059
 10
182.3337474937
 20
60.3393588954
 10
182.3371005441
 20
60.3332101624
 10
182.3402466692
 20
60.3268114378
 10
182.3431911888
 20
60.320176052
 10
182.3459394225
 20
60.3133173359
 10
182.34849669
 20
60.3062486199
 10
182.350868311
 20
60.2989832347
 10
182.353059605
 20
60.2915345111
 10
182.3550758919
 20
60.2839157795
 10
182.3569224913
 20
60.2761403708
 10
182.3586047228
 20
60.2682216154
 10
182.3601279062
 20
60.260172844
 10
182.3614973611
 20
60.2520073874
 10
182.3627184071
 20
60.2437385761
 10
182.363796364
 20
60.2353797407
 10
182.3647365515
 20
60.226944212
 10
182.3655442891
 20
60.2184453205
 10
182.3662248966
 20
60.2098963969
 10
182.3667836937
 20
60.2013107718
 10
182.367226
 20
60.1927017759
 10
182.3675571352
 20
60.1840827398
 10
182.367782419
 20
60.1754669941
  0
LINE
  5
2EC
100
AcDbEntity
  8
CURVE
100
AcDbLine
 62
250
  6
CONTINUOUS
 10
182.529265545
 20
60.7040525053
 11
182.5184625309
 21
60.6982359192
  0
LINE
  5
2ED
100
AcDbEntity
  8
CURVE
100
AcDbLine
 62
7
  6
CONTINUOUS
 10
181.5587784636
 20
59.2271397697
 11
182.1421480942
 21
59.8105094004
  0
LINE
  5
2EE
100
AcDbEntity
  8
CURVE
100
AcDbLine
 62
7
  6
CONTINUOUS
 10
182.367782419
 20
60.0361437251
 11
182.6671959068
 21
60.3355572129
  0
LINE
  5
2EF
100
AcDbEntity
  8
CURVE
100
AcDbLine
 62
7
  6
CONTINUOUS
 10
181.7084679372
 20
59.1668185293
 11
182.6671959068
 21
60.1255464989
  0
LINE
  5
2F0
100
AcDbEntity
  8
CURVE
100
AcDbLine
 62
7
  6
CONTINUOUS
 10
182.16345269
 20
59.4117925681
 11
183.0827223427
 21
60.3310622208
  0
LINE
  5
2F1
100
AcDbEntity
  8
CURVE
100
AcDbLine
 62
7
  6
CONTINUOUS
 10
182.6184374428
 20
59.6567666069
 11
183.3826488229
 21
60.420977987
  0
LINE
  5
2F2
100
AcDbEntity
  8
CURVE
100
AcDbLine
 62
7
  6
CONTINUOUS
 10
183.0734221956
 20
59.9017406457
 11
183.3826488229
 21
60.210967273
  0
LINE
  5
2F3
100
AcDbEntity
  8
CURVE
100
AcDbLine
 62
7
  6
CONTINUOUS
 10
181.5544576341
 20
58.1727653702
 11
182.8969108437
 21
59.5152185798
  0
LINE
  5
2F4
100
AcDbEntity
  8
CURVE
100
AcDbLine
 62
7
  6
CONTINUOUS
 10
181.5544576341
 20
57.9627546562
 11
183.3826488108
 21
59.7909458329
  0
LINE
  5
2F5
100
AcDbEntity
  8
CURVE
100
AcDbLine
 62
7
  6
CONTINUOUS
 10
181.7610502725
 20
57.9593365805
 11
182.2297338575
 21
58.4280201655
  0
LINE
  5
2F6
100
AcDbEntity
  8
CURVE
100
AcDbLine
 62
7
  6
CONTINUOUS
 10
182.7352632904
 20
58.9335495984
 11
183.3826488108
 21
59.5809351189
  0
LINE
  5
2F7
100
AcDbEntity
  8
CURVE
100
AcDbLine
 62
7
  6
CONTINUOUS
 10
182.0197651294
 20
58.0080407235
 11
182.5009836382
 21
58.4892592323
  0
LINE
  5
2F8
100
AcDbEntity
  8
CURVE
100
AcDbLine
 62
7
  6
CONTINUOUS
 10
182.7352632904
 20
58.7235388844
 11
183.017676985
 21
59.005952579
  0
LINE
  5
2F9
100
AcDbEntity
  8
CURVE
100
AcDbLine
 62
7
  6
CONTINUOUS
 10
182.2784799864
 20
58.0567448665
 11
183.017676985
 21
58.795941865
  0
LINE
  5
2FA
100
AcDbEntity
  8
CURVE
100
AcDbLine
 62
7
  6
CONTINUOUS
 10
182.5371948434
 20
58.1054490094
 11
183.0446427291
 21
58.6128968952
  0
LINE
  5
2FB
100
AcDbEntity
  8
CURVE
100
AcDbLine
 62
7
  6
CONTINUOUS
 10
181.5544576341
 20
56.9127010862
 11
181.8619135485
 21
57.2201570005
  0
LINE
  5
2FC
100
AcDbEntity
  8
CURVE
100
AcDbLine
 62
7
  6
CONTINUOUS
 10
182.7959097004
 20
58.1541531524
 11
183.3126233918
 21
58.6708668439
  0
LINE
  5
2FD
100
AcDbEntity
  8
CURVE
100
AcDbLine
 62
7
  6
CONTINUOUS
 10
181.5544576341
 20
56.7026903721
 11
182.4498768446
 21
57.5981095827
  0
LINE
  5
2FE
100
AcDbEntity
  8
CURVE
100
AcDbLine
 62
7
  6
CONTINUOUS
 10
183.0546245574
 20
58.2028572954
 11
183.3826488108
 21
58.5308815488
  0
LINE
  5
2FF
100
AcDbEntity
  8
CURVE
100
AcDbLine
 62
7
  6
CONTINUOUS
 10
181.6773735855
 20
56.6155956095
 11
183.0378401408
 21
57.9760621648
  0
LINE
  5
300
100
AcDbEntity
  8
CURVE
100
AcDbLine
 62
7
  6
CONTINUOUS
 10
183.3133394144
 20
58.2515614384
 11
183.3826488108
 21
58.3208708348
  0
LINE
  5
301
100
AcDbEntity
  8
CURVE
100
AcDbLine
 62
7
  6
CONTINUOUS
 10
181.9156693331
 20
56.6438806431
 11
182.3417371897
 21
57.0699484997
  0
LINE
  5
302
100
AcDbEntity
  8
CURVE
100
AcDbLine
 62
7
  6
CONTINUOUS
 10
182.5322335763
 20
57.2604448863
 11
183.3826488108
 21
58.1108601208
  0
LINE
  5
303
100
AcDbEntity
  8
CURVE
100
AcDbLine
 62
7
  6
CONTINUOUS
 10
182.1539650806
 20
56.6721656766
 11
182.5783215888
 21
57.0965221848
  0
LINE
  5
304
100
AcDbEntity
  8
CURVE
100
AcDbLine
 62
7
  6
CONTINUOUS
 10
183.0735688738
 20
57.5917694698
 11
183.3826488108
 21
57.9008494068
  0
LINE
  5
305
100
AcDbEntity
  8
CURVE
100
AcDbLine
 62
7
  6
CONTINUOUS
 10
182.3922608282
 20
56.7004507102
 11
182.8149059879
 21
57.1230958698
  0
LINE
  5
306
100
AcDbEntity
  8
CURVE
100
AcDbLine
 62
7
  6
CONTINUOUS
 10
181.5544576341
 20
55.6526368021
 11
183.0514903869
 21
57.1496695549
  0
LINE
  5
307
100
AcDbEntity
  8
CURVE
100
AcDbLine
 62
7
  6
CONTINUOUS
 10
181.5544576341
 20
55.4426260881
 11
183.288074786
 21
57.1762432399
  0
LINE
  5
308
100
AcDbEntity
  8
CURVE
100
AcDbLine
 62
7
  6
CONTINUOUS
 10
181.7236621521
 20
55.401819892
 11
182.4071201634
 21
56.0852779033
  0
LINE
  5
309
100
AcDbEntity
  8
CURVE
100
AcDbLine
 62
7
  6
CONTINUOUS
 10
182.0970938875
 20
55.5652409135
 11
182.7970461544
 21
56.2651931803
  0
LINE
  5
30A
100
AcDbEntity
  8
CURVE
100
AcDbLine
 62
7
  6
CONTINUOUS
 10
181.5543486624
 20
54.8124849743
 11
181.7744587362
 21
55.0325950481
  0
LINE
  5
30B
100
AcDbEntity
  8
CURVE
100
AcDbLine
 62
7
  6
CONTINUOUS
 10
182.470525623
 20
55.7286619349
 11
183.1869721455
 21
56.4451084574
  0
LINE
  5
30C
100
AcDbEntity
  8
CURVE
100
AcDbLine
 62
7
  6
CONTINUOUS
 10
181.5543486624
 20
54.6024742603
 11
182.229443489
 21
55.2775690869
  0
LINE
  5
30D
100
AcDbEntity
  8
CURVE
100
AcDbLine
 62
7
  6
CONTINUOUS
 10
182.8439573584
 20
55.8920829563
 11
183.3826488108
 21
56.4307744087
  0
LINE
  5
30E
100
AcDbEntity
  8
CURVE
100
AcDbLine
 62
7
  6
CONTINUOUS
 10
181.7614445676
 20
54.5995594515
 11
182.6844282418
 21
55.5225431257
  0
LINE
  5
30F
100
AcDbEntity
  8
CURVE
100
AcDbLine
 62
7
  6
CONTINUOUS
 10
183.2173890939
 20
56.0555039778
 11
183.3826488108
 21
56.2207636947
  0
LINE
  5
310
100
AcDbEntity
  8
CURVE
100
AcDbLine
 62
7
  6
CONTINUOUS
 10
181.5544576341
 20
54.182561804
 11
181.7341819427
 21
54.3622861125
  0
LINE
  5
311
100
AcDbEntity
  8
CURVE
100
AcDbLine
 62
7
  6
CONTINUOUS
 10
182.2164293204
 20
54.8445334903
 11
183.1394129946
 21
55.7675171645
  0
LINE
  5
312
100
AcDbEntity
  8
CURVE
100
AcDbLine
 62
7
  6
CONTINUOUS
 10
181.5544576341
 20
53.97255109
 11
181.9901591747
 21
54.4082526306
  0
LINE
  5
313
100
AcDbEntity
  8
CURVE
100
AcDbLine
 62
7
  6
CONTINUOUS
 10
182.6714140732
 20
55.089507529
 11
183.3826488108
 21
55.8007422667
  0
LINE
  5
314
100
AcDbEntity
  8
CURVE
100
AcDbLine
 62
7
  6
CONTINUOUS
 10
181.73612767
 20
53.9442104119
 11
182.2461364068
 21
54.4542191486
  0
LINE
  5
315
100
AcDbEntity
  8
CURVE
100
AcDbLine
 62
7
  6
CONTINUOUS
 10
183.126398826
 20
55.3344815678
 11
183.3826488108
 21
55.5907315526
  0
LINE
  5
316
100
AcDbEntity
  8
CURVE
100
AcDbLine
 62
7
  6
CONTINUOUS
 10
182.0053103664
 20
54.0033823942
 11
182.5021136389
 21
54.5001856667
  0
LINE
  5
317
100
AcDbEntity
  8
CURVE
100
AcDbLine
 62
7
  6
CONTINUOUS
 10
182.2744930627
 20
54.0625543765
 11
182.7580908709
 21
54.5461521847
  0
LINE
  5
318
100
AcDbEntity
  8
CURVE
100
AcDbLine
 62
250
  6
CONTINUOUS
 10
183.3826488108
 20
57.1271150766
 11
182.1888747907
 21
55.9845775715
  0
LINE
  5
319
100
AcDbEntity
  8
CURVE
100
AcDbLine
 62
250
  6
CONTINUOUS
 10
181.5544576341
 20
55.75344845
 11
182.5694749138
 21
56.7214855226
  0
LWPOLYLINE
  5
31A
100
AcDbEntity
  8
CURVE
100
AcDbPolyline
 62
250
  6
CONTINUOUS
 90
7
 70
0
 10
182.82828146
 20
60.6601774772
 10
182.8535811258
 20
60.6841546202
 10
182.8790110811
 20
60.707779816
 10
182.9045569264
 20
60.731091207
 10
182.9302042623
 20
60.7541269358
 10
182.9559386893
 20
60.7769251448
 10
182.9817458078
 20
60.7995239767
  0
LINE
  5
31B
100
AcDbEntity
  8
CURVE
100
AcDbLine
 62
250
  6
CONTINUOUS
 10
181.5544576341
 20
58.3325759956
 11
183.3826488108
 21
59.9431324919
  0
LINE
  5
31C
100
AcDbEntity
  8
CURVE
100
AcDbLine
 62
250
  6
CONTINUOUS
 10
182.9817458078
 20
60.7995239767
 11
183.0335205216
 21
60.844276079
  0
LINE
  5
31D
100
AcDbEntity
  8
CURVE
100
AcDbLine
 62
250
  6
CONTINUOUS
 10
183.1373086707
 20
60.9330660284
 11
183.3826488229
 21
61.1449530857
  0
LWPOLYLINE
  5
31E
100
AcDbEntity
  8
CURVE
100
AcDbPolyline
 62
250
  6
CONTINUOUS
 90
44
 70
0
 10
182.8312241219
 20
61.0949517328
 10
182.8170549578
 20
61.0827776171
 10
182.8028203823
 20
61.0703528989
 10
182.788490972
 20
61.0576005762
 10
182.780616102
 20
61.0504721102
 10
182.7727121084
 20
61.0432253601
 10
182.7647869351
 20
61.0358627401
 10
182.7568485261
 20
61.0283866643
 10
182.7489048252
 20
61.020799547
 10
182.7409637763
 20
61.0131038023
 10
182.7330333234
 20
61.0053018444
 10
182.7251214103
 20
60.9973960875
 10
182.717235981
 20
60.9893889458
 10
182.7093849793
 20
60.9812828335
 10
182.7015763492
 20
60.9730801648
 10
182.6938180345
 20
60.9647833538
 10
182.6861179792
 20
60.9563948148
 10
182.6784841272
 20
60.9479169619
 10
182.6709244223
 20
60.9393522094
 10
182.6634468085
 20
60.9307029713
 10
182.6560592296
 20
60.921971662
 10
182.6487696297
 20
60.9131606956
 10
182.6415859525
 20
60.9042724862
 10
182.634516142
 20
60.8953094482
 10
182.627568142
 20
60.8862739956
 10
182.6207498966
 20
60.8771685426
 10
182.6140693496
 20
60.8679955035
 10
182.6075344448
 20
60.8587572924
 10
182.6011531262
 20
60.8494563235
 10
182.5949333378
 20
60.8400950111
 10
182.5888830233
 20
60.8306757692
 10
182.5830101267
 20
60.8212010121
 10
182.577322592
 20
60.811673154
 10
182.5718283629
 20
60.8020946091
 10
182.5665353835
 20
60.7924677915
 10
182.5614515975
 20
60.7827951155
 10
182.556584949
 20
60.7730789951
 10
182.5519433818
 20
60.7633218448
 10
182.5475348399
 20
60.7535260785
 10
182.543367267
 20
60.7436941105
 10
182.5394486072
 20
60.733828355
 10
182.5357868044
 20
60.7239312262
 10
182.5323898023
 20
60.7140051382
 10
182.529265545
 20
60.7040525053
  0
LINE
  5
31F
100
AcDbEntity
  8
CURVE
100
AcDbLine
 62
250
  6
CONTINUOUS
 10
183.0335205216
 20
60.844276079
 11
183.1373086707
 21
60.9330660284
  0
LINE
  5
320
100
AcDbEntity
  8
CURVE
100
AcDbLine
 62
250
  6
CONTINUOUS
 10
182.8594839093
 20
61.1188561656
 11
182.8312241219
 21
61.0949517328
  0
LINE
  5
321
100
AcDbEntity
  8
CURVE
100
AcDbLine
 62
250
  6
CONTINUOUS
 10
183.3826488108
 20
59.4941162961
 11
183.017676985
 21
59.1872433243
  0
LINE
  5
322
100
AcDbEntity
  8
CURVE
100
AcDbLine
 62
250
  6
CONTINUOUS
 10
183.0199763216
 20
61.2533323374
 11
182.8594839093
 21
61.1188561656
  0
LINE
  5
323
100
AcDbEntity
  8
CURVE
100
AcDbLine
 62
250
  6
CONTINUOUS
 10
183.3826488229
 20
61.5547428638
 11
183.3173790942
 21
61.5001628909
  0
LINE
  5
324
100
AcDbEntity
  8
CURVE
100
AcDbLine
 62
250
  6
CONTINUOUS
 10
183.3173790942
 20
61.5001628909
 11
183.0199763216
 21
61.2533323374
  0
LINE
  5
325
100
AcDbEntity
  8
CURVE
100
AcDbLine
 62
250
  6
CONTINUOUS
 10
182.7352632904
 20
58.9500439097
 11
182.056798163
 21
58.388977109
  0
LINE
  5
326
100
AcDbEntity
  8
CURVE
100
AcDbLine
 62
250
  6
CONTINUOUS
 10
181.5544576341
 20
57.0225192271
 11
183.3826488108
 21
58.1977109106
  0
LINE
  5
327
100
AcDbEntity
  8
CURVE
100
AcDbLine
 62
250
  6
CONTINUOUS
 10
183.3826488108
 20
57.7809420249
 11
182.1938509213
 21
57.0533375856
  0
LINE
  5
328
100
AcDbEntity
  8
CURVE
100
AcDbLine
 62
250
  6
CONTINUOUS
 10
183.3826488229
 20
60.4925493932
 11
182.6671959068
 21
60.1073334286
  0
LINE
  5
329
100
AcDbEntity
  8
CURVE
100
AcDbLine
 62
250
  6
CONTINUOUS
 10
182.367782419
 20
59.9319960029
 11
181.8659083823
 21
59.6617757176
  0
LINE
  5
32A
100
AcDbEntity
  8
CURVE
100
AcDbLine
 62
250
  6
CONTINUOUS
 10
181.5758172925
 20
59.0953964345
 11
183.3826488229
 21
60.0682352267
  0
LINE
  5
32B
100
AcDbEntity
  8
CURVE
100
AcDbLine
 62
250
  6
CONTINUOUS
 10
183.3826488108
 20
55.8984808065
 11
181.5543486624
 21
54.9140828267
  0
LINE
  5
32C
100
AcDbEntity
  8
CURVE
100
AcDbLine
 62
250
  6
CONTINUOUS
 10
182.1888747907
 20
55.9845775715
 11
183.3826488108
 21
56.5353953894
  0
LINE
  5
32D
100
AcDbEntity
  8
CURVE
100
AcDbLine
 62
250
  6
CONTINUOUS
 10
183.3826488108
 20
56.1278248578
 11
181.5544576341
 21
55.32777269
  0
LINE
  5
32E
100
AcDbEntity
  8
CURVE
100
AcDbLine
 62
7
  6
CONTINUOUS
 10
182.5436757591
 20
54.1217263589
 11
183.014068103
 21
54.5921187028
  0
LINE
  5
32F
100
AcDbEntity
  8
CURVE
100
AcDbLine
 62
7
  6
CONTINUOUS
 10
181.5544576341
 20
52.9224975199
 11
183.270045335
 21
54.6380852208
  0
LINE
  5
330
100
AcDbEntity
  8
CURVE
100
AcDbLine
 62
7
  6
CONTINUOUS
 10
181.5544576341
 20
52.7124868059
 11
183.3826488108
 21
54.5406779826
  0
LINE
  5
331
100
AcDbEntity
  8
CURVE
100
AcDbLine
 62
7
  6
CONTINUOUS
 10
182.9386777156
 20
53.8866961734
 11
183.3826488108
 21
54.3306672686
  0
LINE
  5
332
100
AcDbEntity
  8
CURVE
100
AcDbLine
 62
250
  6
CONTINUOUS
 10
183.3826488108
 20
54.2828682016
 11
181.5544576341
 21
52.6515047767
  0
LINE
  5
333
100
AcDbEntity
  8
CURVE
100
AcDbLine
 62
250
  6
CONTINUOUS
 10
181.5544576341
 20
53.1143029908
 11
182.8128584554
 21
54.1808983412
  0
LINE
  5
334
100
AcDbEntity
  8
0
100
AcDbLine
 62
7
  6
CONTINUOUS
 10
178.7243638594
 20
47.9297554352
 11
179.0033397935
 21
48.0908015108
  0
LINE
  5
335
100
AcDbEntity
  8
ASSI
100
AcDbLine
 62
7
  6
CONTINUOUS
 10
178.7243638594
 20
47.9297554352
 11
179.0033397935
 21
48.0908015108
  0
LINE
  5
336
100
AcDbEntity
  8
0
100
AcDbLine
 62
7
  6
CONTINUOUS
 10
179.7339005768
 20
47.3183808505
 11
180.4202989244
 21
47.714622055
  0
LINE
  5
337
100
AcDbEntity
  8
ASSI
100
AcDbLine
 62
7
  6
CONTINUOUS
 10
179.7339005768
 20
47.3183808505
 11
180.4202989244
 21
47.714622055
  0
LINE
  5
338
100
AcDbEntity
  8
0
100
AcDbLine
 62
7
  6
CONTINUOUS
 10
184.5037332611
 20
49.754962121
 11
183.7961959918
 21
49.3465179271
  0
LINE
  5
339
100
AcDbEntity
  8
ASSI
100
AcDbLine
 62
7
  6
CONTINUOUS
 10
184.5037332611
 20
49.754962121
 11
183.7961959918
 21
49.3465179271
  0
LINE
  5
33A
100
AcDbEntity
  8
CURVE
100
AcDbLine
 62
250
  6
CONTINUOUS
 10
181.5543486624
 20
54.4880543516
 11
183.3826488108
 21
55.4724523313
  0
LINE
  5
33B
100
AcDbEntity
  8
0
100
AcDbLine
 62
7
  6
CONTINUOUS
 10
180.4418002763
 20
47.7261836067
 11
180.4202989244
 21
47.714622055
  0
LINE
  5
33C
100
AcDbEntity
  8
ASSI
100
AcDbLine
 62
7
  6
CONTINUOUS
 10
180.4418002763
 20
47.7261836067
 11
180.4202989244
 21
47.714622055
  0
LINE
  5
33D
100
AcDbEntity
  8
0
100
AcDbLine
 62
7
  6
CONTINUOUS
 10
180.4418002763
 20
47.7261836067
 11
184.5037332611
 21
49.754962121
  0
LINE
  5
33E
100
AcDbEntity
  8
ASSI
100
AcDbLine
 62
7
  6
CONTINUOUS
 10
180.4418002763
 20
47.7261836067
 11
184.5037332611
 21
49.754962121
  0
LINE
  5
33F
100
AcDbEntity
  8
0
100
AcDbLine
 62
7
  6
CONTINUOUS
 10
179.734263007
 20
47.3177394128
 11
183.7961959918
 21
49.3465179271
  0
LINE
  5
340
100
AcDbEntity
  8
ASSI
100
AcDbLine
 62
7
  6
CONTINUOUS
 10
179.734263007
 20
47.3177394128
 11
183.7961959918
 21
49.3465179271
  0
ENDSEC
  0
SECTION
  2
OBJECTS
  0
DICTIONARY
  5
C
100
AcDbDictionary
280
0
281
1
  3
ACAD_GROUP
350
D
  3
ACAD_MLINESTYLE
350
17
  3
ACAD_LAYOUT
350
1A
  3
ACAD_PLOTSETTINGS
350
19
  3
ACAD_PLOTSTYLENAME
350
E
  0
DICTIONARY
  5
D
102
{ACAD_REACTORS
330
C
102
}
100
AcDbDictionary
280
0
281
1
  0
ACDBDICTIONARYWDFLT
  5
E
102
{ACAD_REACTORS
330
C
102
}
100
AcDbDictionary
281
1
  3
Normal
350
F
100
AcDbDictionaryWithDefault
340
F
  0
DICTIONARY
  5
17
102
{ACAD_REACTORS
330
C
102
}
100
AcDbDictionary
280
0
281
1
  3
Standard
350
18
  0
DICTIONARY
  5
19
102
{ACAD_REACTORS
330
C
102
}
100
AcDbDictionary
281
1
  0
DICTIONARY
  5
1A
102
{ACAD_REACTORS
330
C
102
}
100
AcDbDictionary
281
1
  3
Model
350
341
  3
Layout1
350
342
  0
ACDBPLACEHOLDER
  5
F
102
{ACAD_REACTORS
330
E
102
}
  0
MLINESTYLE
  5
18
102
{ACAD_REACTORS
330
17
102
}
100
AcDbMlineStyle
  2
STANDARD
 70
0
  3

 62
256
 51
90.0
 52
90.0
 71
2
 49
0.5
 62
256
  6
BYLAYER
 49
-0.5
 62
256
  6
BYLAYER
  0
LAYOUT
  5
341
102
{ACAD_REACTORS
330
1A
102
}
100
AcDbPlotSettings
  1

  2
none_device
  4
ISO_A4_(297.00_x_210.00_MM)
  6

 40
0.0
 41
0.0
 42
0.0
 43
0.0
 44
297.0
 45
210.0
 46
0.0
 47
0.0
 48
0.0
 49
0.0
140
0.0
141
0.0
142
1.0
143
1.0
 70
1024
 72
1
 73
0
 74
0
  7

 75
0
147
1.0
148
0.0
149
0.0
100
AcDbLayout
  1
Model
 70
0
 71
0
 10
0.0
 20
0.0
 11
297.0
 21
210.0
 12
0.0
 22
0.0
 32
0.0
 14
0.0
 24
0.0
 34
0.0
 15
0.0
 25
0.0
 35
0.0
146
0.0
 13
0.0
 23
0.0
 33
0.0
 16
1.0
 26
0.0
 36
0.0
 17
0.0
 27
1.0
 37
0.0
 76
0
330
21E
345
0
346
0
  0
LAYOUT
  5
342
102
{ACAD_REACTORS
330
1A
102
}
100
AcDbPlotSettings
  1

  2
none_device
  4
ISO_A4_(297.00_x_210.00_MM)
  6

 40
0.0
 41
0.0
 42
0.0
 43
0.0
 44
297.0
 45
210.0
 46
0.0
 47
0.0
 48
0.0
 49
0.0
140
0.0
141
0.0
142
1.0
143
1.0
 70
0
 72
1
 73
0
 74
0
  7

 75
0
147
1.0
148
0.0
149
0.0
100
AcDbLayout
  1
Layout1
 70
0
 71
1
 10
0.0
 20
0.0
 11
297.0
 21
210.0
 12
0.0
 22
0.0
 32
0.0
 14
0.0
 24
0.0
 34
0.0
 15
0.0
 25
0.0
 35
0.0
146
0.0
 13
0.0
 23
0.0
 33
0.0
 16
1.0
 26
0.0
 36
0.0
 17
0.0
 27
1.0
 37
0.0
 76
0
330
21F
345
0
346
0
  0
ENDSEC
  0
EOF
