  0
SECTION
  2
HEADER
  9
$ACADVER
  1
AC1024
  9
$DWGCODEPAGE
  3
ANSI_1252
  9
$EXTMAX
 10
297.0
 20
210.0
 30
0.0
  9
$EXTMIN
 10
0.0
 20
0.0
 30
0.0
  9
$LIMMIN
 10
0.0
 20
0.0
  9
$LIMMAX
 10
297.0
 20
210.0
  9
$VIEWCTR
 10
148.5
 20
105.0
  9
$VIEWSIZE
 40
210.0
  9
$CLAYER
  8
0
  9
$LTSCALE
 40
16.335
  9
$CELTYPE
  6
BYLAYER
  9
$DIMSCALE
 40
1.0
  9
$DIMASZ
 40
3.0
  9
$DIMEXO
 40
0.5
  9
$DIMDLI
 40
11.286
  9
$DIMEXE
 40
1.5
  9
$DIMCEN
 40
2.673
  9
$DIMLFAC
 40
1.0
  9
$DIMBLK
  1
_FILLED
  9
$DIMALT
 70
0
  9
$DIMALTF
 40
0.0393700787
  9
$DIMTXT
 40
3.0
  9
$DIMTOL
 70
1
  9
$DIMLIM
 70
0
  9
$DIMTFAC
 40
1.0
  9
$DIMTP
 40
0.01
  9
$DIMTM
 40
0.01
  9
$DIMGAP
 40
0.625
  9
$DIMDSEP
 70
44
  9
$AUNITS
 70
0
  9
$PDMODE
 70
3
  9
$PDSIZE
 40
3.0
  9
$HANDSEED
  5
344
  9
$TILEMODE
 70
1
  9
$MEASUREMENT
 70
1
  9
$INSUNITS
 70
4
  0
ENDSEC
  0
SECTION
  2
CLASSES
  0
CLASS
  1
ACDBDICTIONARYWDFLT
  2
AcDbDictionaryWithDefault
  3
AutoCAD 2000
 90
0
 91
1
280
0
281
0
  0
CLASS
  1
ACDBPLACEHOLDER
  2
AcDbPlaceHolder
  3
AutoCAD 2000
 90
0
 91
1
280
0
281
0
  0
CLASS
  1
LAYOUT
  2
AcDbLayout
  3
AutoCAD 2000
 90
0
 91
0
280
0
281
0
  0
ENDSEC
  0
SECTION
  2
TABLES
  0
TABLE
  2
VPORT
  5
8
100
AcDbSymbolTable
 70
2
  0
VPORT
  5
1F4
100
AcDbSymbolTableRecord
100
AcDbViewportTableRecord
  2
*ACTIVE
 70
0
 10
0.0
 20
0.0
 11
1.0
 21
1.0
 12
148.5
 22
105.0
 13
0.0
 23
0.0
 14
1.0
 24
1.0
 15
0.0
 25
0.0
 16
0.0
 26
0.0
 36
1.0
 17
0.0
 27
0.0
 37
0.0
 40
210.0
 41
1.4142857143
 42
50.0
 43
0.0
 44
0.0
 50
0.0
 51
0.0
 71
0
 72
100
 73
1
 74
1
 75
0
 76
0
 77
0
 78
0
  0
ENDTAB
  0
TABLE
  2
LTYPE
  5
5
100
AcDbSymbolTable
 70
6
  0
LTYPE
  5
14
100
AcDbSymbolTableRecord
100
AcDbLinetypeTableRecord
  2
BYBLOCK
 70
0
  3

 72
65
 73
0
 40
0.0
  0
LTYPE
  5
15
100
AcDbSymbolTableRecord
100
AcDbLinetypeTableRecord
  2
BYLAYER
 70
0
  3

 72
65
 73
0
 40
0.0
  0
LTYPE
  5
16
100
AcDbSymbolTableRecord
100
AcDbLinetypeTableRecord
  2
CONTINUOUS
 70
64
  3
Solid line
 72
65
 73
0
 40
0.0
  0
LTYPE
  5
1F5
100
AcDbSymbolTableRecord
100
AcDbLinetypeTableRecord
  2
CENTER
 70
64
  3
____ _ ____ _ ____ _ ____ _ ____ _ ____ _ ____
 72
65
 73
4
 40
0.6
 49
0.375
 74
0
 49
-0.075
 74
0
 49
0.075
 74
0
 49
-0.075
 74
0
  0
LTYPE
  5
1F6
100
AcDbSymbolTableRecord
100
AcDbLinetypeTableRecord
  2
HIDDEN
 70
64
  3
- - - - - - - - - - - - - - - - - - - -
 72
65
 73
2
 40
0.2
 49
0.1
 74
0
 49
-0.1
 74
0
  0
LTYPE
  5
1F7
100
AcDbSymbolTableRecord
100
AcDbLinetypeTableRecord
  2
PHANTOM
 70
64
  3
_____ _ _ _____ _ _ _____ _ _ _____
 72
65
 73
6
 40
0.8
 49
0.45
 74
0
 49
-0.05
 74
0
 49
0.1
 74
0
 49
-0.05
 74
0
 49
0.1
 74
0
 49
-0.05
 74
0
  0
LTYPE
  5
1F8
100
AcDbSymbolTableRecord
100
AcDbLinetypeTableRecord
  2
DOT
 70
64
  3
. . . . . . . . . . . . . . . . . . . .
 72
65
 73
2
 40
0.2
 49
0.1
 74
0
 49
-0.1
 74
0
  0
LTYPE
  5
1F9
100
AcDbSymbolTableRecord
100
AcDbLinetypeTableRecord
  2
DASHED
 70
64
  3
- - - - - - - - - - - - - - - - - - - -
 72
65
 73
2
 40
0.2
 49
0.1
 74
0
 49
-0.1
 74
0
  0
ENDTAB
  0
TABLE
  2
LAYER
  5
2
100
AcDbSymbolTable
 70
36
  0
LAYER
  5
10
100
AcDbSymbolTableRecord
100
AcDbLayerTableRecord
  2
0
 70
0
 62
7
  6
CONTINUOUS
370
-3
390
F
  0
LAYER
  5
1FA
100
AcDbSymbolTableRecord
100
AcDbLayerTableRecord
  2
DEFAULT_1
 70
0
 62
7
  6
CENTER
370
-3
390
F
  0
LAYER
  5
1FB
100
AcDbSymbolTableRecord
100
AcDbLayerTableRecord
  2
DEFAULT_2
 70
0
 62
7
  6
HIDDEN
370
-3
390
F
  0
LAYER
  5
1FC
100
AcDbSymbolTableRecord
100
AcDbLayerTableRecord
  2
DEFAULT_3
 70
0
 62
7
  6
PHANTOM
370
-3
390
F
  0
LAYER
  5
1FD
100
AcDbSymbolTableRecord
100
AcDbLayerTableRecord
  2
ASSI
 70
0
 62
7
  6
CONTINUOUS
370
-3
390
F
  0
LAYER
  5
1FE
100
AcDbSymbolTableRecord
100
AcDbLayerTableRecord
  2
COORDINATE
 70
0
 62
7
  6
CONTINUOUS
370
-3
390
F
  0
LAYER
  5
1FF
100
AcDbSymbolTableRecord
100
AcDbLayerTableRecord
  2
COORD_ORIGINE
 70
0
 62
7
  6
CONTINUOUS
370
-3
390
F
  0
LAYER
  5
200
100
AcDbSymbolTableRecord
100
AcDbLayerTableRecord
  2
COPY_PUBLISH
 70
0
 62
7
  6
CONTINUOUS
370
-3
390
F
  0
LAYER
  5
201
100
AcDbSymbolTableRecord
100
AcDbLayerTableRecord
  2
COSMETIC
 70
0
 62
7
  6
CONTINUOUS
370
-3
390
F
  0
LAYER
  5
202
100
AcDbSymbolTableRecord
100
AcDbLayerTableRecord
  2
COSMETICI
 70
0
 62
7
  6
CONTINUOUS
370
-3
390
F
  0
LAYER
  5
203
100
AcDbSymbolTableRecord
100
AcDbLayerTableRecord
  2
CURVE
 70
0
 62
7
  6
CONTINUOUS
370
-3
390
F
  0
LAYER
  5
204
100
AcDbSymbolTableRecord
100
AcDbLayerTableRecord
  2
DRAFT
 70
0
 62
7
  6
CONTINUOUS
370
-3
390
F
  0
LAYER
  5
205
100
AcDbSymbolTableRecord
100
AcDbLayerTableRecord
  2
IMPORT_IGES
 70
0
 62
7
  6
CONTINUOUS
370
-3
390
F
  0
LAYER
  5
206
100
AcDbSymbolTableRecord
100
AcDbLayerTableRecord
  2
INTFCLR_2
 70
0
 62
7
  6
CONTINUOUS
370
-3
390
F
  0
LAYER
  5
207
100
AcDbSymbolTableRecord
100
AcDbLayerTableRecord
  2
INTF_1
 70
0
 62
7
  6
CONTINUOUS
370
-3
390
F
  0
LAYER
  5
208
100
AcDbSymbolTableRecord
100
AcDbLayerTableRecord
  2
INTF_21
 70
0
 62
7
  6
CONTINUOUS
370
-3
390
F
  0
LAYER
  5
209
100
AcDbSymbolTableRecord
100
AcDbLayerTableRecord
  2
INTF_6
 70
0
 62
7
  6
CONTINUOUS
370
-3
390
F
  0
LAYER
  5
20A
100
AcDbSymbolTableRecord
100
AcDbLayerTableRecord
  2
INTF_7
 70
0
 62
7
  6
CONTINUOUS
370
-3
390
F
  0
LAYER
  5
20B
100
AcDbSymbolTableRecord
100
AcDbLayerTableRecord
  2
INTF_CYAN
 70
0
 62
7
  6
CONTINUOUS
370
-3
390
F
  0
LAYER
  5
20C
100
AcDbSymbolTableRecord
100
AcDbLayerTableRecord
  2
LINEA_CHIUSURA
 70
0
 62
7
  6
CONTINUOUS
370
-3
390
F
  0
LAYER
  5
20D
100
AcDbSymbolTableRecord
100
AcDbLayerTableRecord
  2
LIVELLO_1
 70
0
 62
7
  6
CONTINUOUS
370
-3
390
F
  0
LAYER
  5
20E
100
AcDbSymbolTableRecord
100
AcDbLayerTableRecord
  2
NOTE
 70
0
 62
7
  6
CONTINUOUS
370
-3
390
F
  0
LAYER
  5
20F
100
AcDbSymbolTableRecord
100
AcDbLayerTableRecord
  2
PIANI
 70
0
 62
7
  6
CONTINUOUS
370
-3
390
F
  0
LAYER
  5
210
100
AcDbSymbolTableRecord
100
AcDbLayerTableRecord
  2
PIANI_ORIGINE
 70
0
 62
7
  6
CONTINUOUS
370
-3
390
F
  0
LAYER
  5
211
100
AcDbSymbolTableRecord
100
AcDbLayerTableRecord
  2
PIANI_RIFERIMENTO
 70
0
 62
7
  6
CONTINUOUS
370
-3
390
F
  0
LAYER
  5
212
100
AcDbSymbolTableRecord
100
AcDbLayerTableRecord
  2
PUNTI
 70
0
 62
7
  6
CONTINUOUS
370
-3
390
F
  0
LAYER
  5
213
100
AcDbSymbolTableRecord
100
AcDbLayerTableRecord
  2
RACCORDO
 70
0
 62
7
  6
CONTINUOUS
370
-3
390
F
  0
LAYER
  5
214
100
AcDbSymbolTableRecord
100
AcDbLayerTableRecord
  2
RGB__255__255__255__
 70
0
 62
7
  6
CONTINUOUS
370
-3
390
F
  0
LAYER
  5
215
100
AcDbSymbolTableRecord
100
AcDbLayerTableRecord
  2
RGB____0____0____0__
 70
0
 62
7
  6
CONTINUOUS
370
-3
390
F
  0
LAYER
  5
216
100
AcDbSymbolTableRecord
100
AcDbLayerTableRecord
  2
SIMBOLI
 70
0
 62
7
  6
CONTINUOUS
370
-3
390
F
  0
LAYER
  5
217
100
AcDbSymbolTableRecord
100
AcDbLayerTableRecord
  2
SMUSSO
 70
0
 62
7
  6
CONTINUOUS
370
-3
390
F
  0
LAYER
  5
218
100
AcDbSymbolTableRecord
100
AcDbLayerTableRecord
  2
SNAPLINE
 70
0
 62
7
  6
CONTINUOUS
370
-3
390
F
  0
LAYER
  5
219
100
AcDbSymbolTableRecord
100
AcDbLayerTableRecord
  2
SUPERFICI
 70
0
 62
7
  6
CONTINUOUS
370
-3
390
F
  0
LAYER
  5
21A
100
AcDbSymbolTableRecord
100
AcDbLayerTableRecord
  2
TRASH
 70
0
 62
7
  6
CONTINUOUS
370
-3
390
F
  0
LAYER
  5
21B
100
AcDbSymbolTableRecord
100
AcDbLayerTableRecord
  2
WHITE
 70
0
 62
7
  6
CONTINUOUS
370
-3
390
F
  0
LAYER
  5
21C
100
AcDbSymbolTableRecord
100
AcDbLayerTableRecord
  2
XSEC_DATUMS
 70
0
 62
7
  6
CONTINUOUS
370
-3
390
F
  0
ENDTAB
  0
TABLE
  2
STYLE
  5
3
100
AcDbSymbolTable
 70
1
  0
STYLE
  5
11
100
AcDbSymbolTableRecord
100
AcDbTextStyleTableRecord
  2
STANDARD
 70
0
 40
0.0
 41
0.8
 50
0.0
 71
0
 42
0.2
  3
txt
  4

  0
STYLE
  5
21D
100
AcDbSymbolTableRecord
100
AcDbTextStyleTableRecord
  2
TEXTSTYLE_1
 70
0
 40
0.0
 41
0.8
 50
0.0
 71
0
 42
0.2
  3
gdt
  4

  0
ENDTAB
  0
TABLE
  2
VIEW
  5
6
100
AcDbSymbolTable
 70
0
  0
ENDTAB
  0
TABLE
  2
UCS
  5
7
100
AcDbSymbolTable
 70
0
  0
ENDTAB
  0
TABLE
  2
APPID
  5
9
100
AcDbSymbolTable
 70
1
  0
APPID
  5
21E
100
AcDbSymbolTableRecord
100
AcDbRegAppTableRecord
  2
ACAD
 70
0
  0
ENDTAB
  0
TABLE
  2
BLOCK_RECORD
  5
1
100
AcDbSymbolTable
 70
0
  0
BLOCK_RECORD
  5
21F
100
AcDbSymbolTableRecord
100
AcDbBlockTableRecord
  2
*Model_Space
  0
BLOCK_RECORD
  5
220
100
AcDbSymbolTableRecord
100
AcDbBlockTableRecord
  2
*Paper_Space
  0
BLOCK_RECORD
  5
221
100
AcDbSymbolTableRecord
100
AcDbBlockTableRecord
  2
_FILLED
  0
ENDTAB
  0
TABLE
  2
DIMSTYLE
  5
A
100
AcDbSymbolTable
 70
1
100
AcDbDimStyleTable
 71
0
  0
DIMSTYLE
105
222
100
AcDbSymbolTableRecord
100
AcDbDimStyleTableRecord
  2
STANDARD
 70
0
  3

  4

 40
1.0
 41
3.0
 42
0.5
 43
0.38
 44
1.5
 45
0.0
 46
0.0
 47
0.01
 48
0.01
140
3.0
141
0.09
142
0.0
143
25.4
144
1.0
145
0.0
146
1.0
147
0.625
 71
1
 72
0
 73
0
 74
0
 75
0
 76
0
 77
1
 78
8
 79
2
170
0
171
1
172
0
173
0
174
0
175
0
176
0
177
0
178
0
270
2
179
2
271
2
272
2
273
2
274
2
275
0
280
0
281
0
282
0
283
1
284
8
285
0
286
0
287
3
288
0
340
11
278
44
341
221
342
221
343
221
344
221
  0
ENDTAB
  0
ENDSEC
  0
SECTION
  2
BLOCKS
  0
BLOCK
  5
20
100
AcDbEntity
  8
0
100
AcDbBlockBegin
  2
*Model_Space
 70
0
 10
0.0
 20
0.0
 30
0.0
  3
*Model_Space
  1

  0
ENDBLK
  5
21
100
AcDbEntity
  8
0
100
AcDbBlockEnd
  0
BLOCK
  5
1C
100
AcDbEntity
  8
0
100
AcDbBlockBegin
  2
*Paper_Space
 70
0
 10
0.0
 20
0.0
 30
0.0
  3
*Paper_Space
  1

  0
ENDBLK
  5
1D
100
AcDbEntity
  8
0
100
AcDbBlockEnd
  0
BLOCK
  5
223
100
AcDbEntity
  8
0
100
AcDbBlockBegin
  2
_FILLED
 70
64
 10
0.0
 20
0.0
  3
_FILLED
  1

  0
SOLID
  5
224
100
AcDbEntity
  8
0
  6
BYBLOCK
 62
0
100
AcDbTrace
 10
0.0
 20
0.0
 11
-1.0
 21
0.3166666667
 12
-1.0
 22
-0.3166666667
 13
-1.0
 23
-0.3166666667
  0
ENDBLK
  5
225
100
AcDbEntity
  8
0
  6
BYBLOCK
 62
0
100
AcDbBlockEnd
  0
ENDSEC
  0
SECTION
  2
ENTITIES
  0
LINE
  5
226
100
AcDbEntity
  8
ASSI
100
AcDbLine
 62
7
  6
CONTINUOUS
 10
-58.2149620151
 20
66.9540888344
 11
-54.4271482279
 21
69.4576557258
  0
LINE
  5
227
100
AcDbEntity
  8
ASSI
100
AcDbLine
 62
7
  6
CONTINUOUS
 10
-57.5074247458
 20
67.3625330283
 11
-53.7196109586
 21
69.8660999196
  0
LINE
  5
228
100
AcDbEntity
  8
ASSI
100
AcDbLine
 62
7
  6
CONTINUOUS
 10
-57.5281883599
 20
67.3496936773
 11
-57.5074247458
 21
67.3625330283
  0
LINE
  5
229
100
AcDbEntity
  8
ASSI
100
AcDbLine
 62
7
  6
CONTINUOUS
 10
-54.4271482279
 20
69.4576557258
 11
-53.7196109586
 21
69.8660999196
  0
LINE
  5
22A
100
AcDbEntity
  8
ASSI
100
AcDbLine
 62
7
  6
CONTINUOUS
 10
-57.5281883599
 20
67.3496936773
 11
-58.2145867076
 21
66.9534524729
  0
LINE
  5
22B
100
AcDbEntity
  8
ASSI
100
AcDbLine
 62
7
  6
CONTINUOUS
 10
-57.9108776598
 20
65.9344652389
 11
-58.189853594
 21
65.7734191633
  0
LINE
  5
22C
100
AcDbEntity
  8
ASSI
100
AcDbLine
 62
7
  6
CONTINUOUS
 10
-57.9108776598
 20
65.9344652389
 11
-57.5281883599
 21
67.3496936773
  0
LINE
  5
22D
100
AcDbEntity
  8
CURVE
100
AcDbLine
 62
250
  6
CONTINUOUS
 10
56.5240872094
 20
-63.0029409912
 11
55.2656863881
 21
-63.2795637912
  0
LINE
  5
22E
100
AcDbEntity
  8
CURVE
100
AcDbLine
 62
250
  6
CONTINUOUS
 10
55.7680269171
 20
-58.7948622235
 11
56.4464920444
 21
-58.6416876436
  0
LINE
  5
22F
100
AcDbEntity
  8
CURVE
100
AcDbLine
 62
250
  6
CONTINUOUS
 10
56.728905739
 20
-58.5767757044
 11
57.0938775648
 21
-58.4978244928
  0
LINE
  5
230
100
AcDbEntity
  8
CURVE
100
AcDbLine
 62
250
  6
CONTINUOUS
 10
57.0938775648
 20
-58.9192301132
 11
55.2656863881
 21
-59.2633946714
  0
LINE
  5
231
100
AcDbEntity
  8
CURVE
100
AcDbLine
 62
250
  6
CONTINUOUS
 10
55.2656863881
 20
-62.853826796
 11
57.0938775648
 21
-62.5255336035
  0
LINE
  5
232
100
AcDbEntity
  8
CURVE
100
AcDbLine
 62
250
  6
CONTINUOUS
 10
56.2807036678
 20
-60.4623538098
 11
55.2656863881
 21
-60.5828334999
  0
LINE
  5
233
100
AcDbEntity
  8
CURVE
100
AcDbLine
 62
250
  6
CONTINUOUS
 10
55.9050796753
 20
-60.1305017468
 11
57.0938775648
 21
-59.996973328
  0
LINE
  5
234
100
AcDbEntity
  8
ASSI
100
AcDbLine
 62
7
  6
CONTINUOUS
 10
-58.189853594
 20
-5.058214436
 11
-58.2145867076
 21
-4.6019788585
  0
LINE
  5
235
100
AcDbEntity
  8
ASSI
100
AcDbLine
 62
7
  6
CONTINUOUS
 10
-58.189853594
 20
65.7734191633
 11
-58.2145867076
 21
66.9534524729
  0
LINE
  5
236
100
AcDbEntity
  8
ASSI
100
AcDbLine
 62
7
  6
CONTINUOUS
 10
-58.2145867076
 20
-4.6019788585
 11
-58.2149620151
 21
-4.5777859978
  0
LINE
  5
237
100
AcDbEntity
  8
ASSI
100
AcDbLine
 62
7
  6
CONTINUOUS
 10
-58.2149620151
 20
66.9540888344
 11
-58.2149620151
 21
-4.5777859978
  0
LINE
  5
238
100
AcDbEntity
  8
ASSI
100
AcDbLine
 62
7
  6
CONTINUOUS
 10
-58.189853594
 20
65.7734191633
 11
-58.189853594
 21
-5.058214436
  0
LINE
  5
239
100
AcDbEntity
  8
ASSI
100
AcDbLine
 62
7
  6
CONTINUOUS
 10
52.7145685475
 20
-69.0930378217
 11
54.1315276785
 21
-69.4692172775
  0
LINE
  5
23A
100
AcDbEntity
  8
ASSI
100
AcDbLine
 62
7
  6
CONTINUOUS
 10
-58.189853594
 20
-5.058214436
 11
-57.9108776598
 21
-5.5414149275
  0
LWPOLYLINE
  5
23B
100
AcDbEntity
  8
0
100
AcDbPolyline
 62
7
  6
CONTINUOUS
 90
51
 70
0
 10
-36.7848340373
 20
18.9784713636
 10
-36.7815914913
 20
18.8143929439
 10
-36.7720417467
 20
18.6476738096
 10
-36.7561848037
 20
18.4783139608
 10
-36.7339617325
 20
18.3059519268
 10
-36.7054314629
 20
18.1309491782
 10
-36.6707707839
 20
17.9543901273
 10
-36.6299416294
 20
17.7762651104
 10
-36.5829820656
 20
17.5965837911
 10
-36.5301830794
 20
17.4164595727
 10
-36.4715084116
 20
17.235889705
 10
-36.4069943214
 20
17.054876938
 10
-36.3370405731
 20
16.8745429255
 10
-36.26161339
 20
16.6948918819
 10
-36.1807465489
 20
16.5159195926
 10
-36.0949411446
 20
16.3387350674
 10
-36.0041665119
 20
16.163349407
 10
-35.9084533161
 20
15.9897515105
 10
-35.8083946482
 20
15.819017085
 10
-35.7039635255
 20
15.6511639108
 10
-35.5951869307
 20
15.4861742075
 10
-35.4827389028
 20
15.3250703411
 10
-35.3665966444
 20
15.1678764401
 10
-35.2467829528
 20
15.014568376
 10
-35.1240402588
 20
14.8660961289
 10
-34.9983503752
 20
14.7224897261
 10
-34.8697314892
 20
14.5837191403
 10
-34.7389805934
 20
14.4506442695
 10
-34.6060844493
 20
14.3233004804
 10
-34.4710562954
 20
14.2016524064
 10
-34.3347328395
 20
14.086453845
 10
-34.1971060386
 20
13.9777448436
 10
-34.0581839357
 20
13.8754853547
 10
-33.9188273678
 20
13.7803090339
 10
-33.7790336371
 20
13.6922598631
 10
-33.6388054413
 20
13.6112938603
 10
-33.4990117105
 20
13.5379127349
 10
-33.3596551426
 20
13.4721635842
 10
-33.2207330398
 20
13.4139993109
 10
-33.0831062389
 20
13.3637803324
 10
-32.946782783
 20
13.321555984
 10
-32.8117546291
 20
13.2872769305
 10
-32.678858485
 20
13.2611555834
 10
-32.5481075891
 20
13.2432425971
 10
-32.4194887031
 20
13.2334873173
 10
-32.2937988195
 20
13.2319501931
 10
-32.1710561256
 20
13.2386822539
 10
-32.051242434
 20
13.2536324702
 10
-31.9351001756
 20
13.2767082024
 10
-31.8226521476
 20
13.3079599047
 10
-31.795846563
 20
13.3176635488
  0
LWPOLYLINE
  5
23C
100
AcDbEntity
  8
ASSI
100
AcDbPolyline
 62
7
  6
CONTINUOUS
 90
51
 70
0
 10
-36.7848340373
 20
18.9784713636
 10
-36.7815914913
 20
18.8143929439
 10
-36.7720417467
 20
18.6476738096
 10
-36.7561848037
 20
18.4783139608
 10
-36.7339617325
 20
18.3059519268
 10
-36.7054314629
 20
18.1309491782
 10
-36.6707707839
 20
17.9543901273
 10
-36.6299416294
 20
17.7762651104
 10
-36.5829820656
 20
17.5965837911
 10
-36.5301830794
 20
17.4164595727
 10
-36.4715084116
 20
17.235889705
 10
-36.4069943214
 20
17.054876938
 10
-36.3370405731
 20
16.8745429255
 10
-36.26161339
 20
16.6948918819
 10
-36.1807465489
 20
16.5159195926
 10
-36.0949411446
 20
16.3387350674
 10
-36.0041665119
 20
16.163349407
 10
-35.9084533161
 20
15.9897515105
 10
-35.8083946482
 20
15.819017085
 10
-35.7039635255
 20
15.6511639108
 10
-35.5951869307
 20
15.4861742075
 10
-35.4827389028
 20
15.3250703411
 10
-35.3665966444
 20
15.1678764401
 10
-35.2467829528
 20
15.014568376
 10
-35.1240402588
 20
14.8660961289
 10
-34.9983503752
 20
14.7224897261
 10
-34.8697314892
 20
14.5837191403
 10
-34.7389805934
 20
14.4506442695
 10
-34.6060844493
 20
14.3233004804
 10
-34.4710562954
 20
14.2016524064
 10
-34.3347328395
 20
14.086453845
 10
-34.1971060386
 20
13.9777448436
 10
-34.0581839357
 20
13.8754853547
 10
-33.9188273678
 20
13.7803090339
 10
-33.7790336371
 20
13.6922598631
 10
-33.6388054413
 20
13.6112938603
 10
-33.4990117105
 20
13.5379127349
 10
-33.3596551426
 20
13.4721635842
 10
-33.2207330398
 20
13.4139993109
 10
-33.0831062389
 20
13.3637803324
 10
-32.946782783
 20
13.321555984
 10
-32.8117546291
 20
13.2872769305
 10
-32.678858485
 20
13.2611555834
 10
-32.5481075891
 20
13.2432425971
 10
-32.4194887031
 20
13.2334873173
 10
-32.2937988195
 20
13.2319501931
 10
-32.1710561256
 20
13.2386822539
 10
-32.051242434
 20
13.2536324702
 10
-31.9351001756
 20
13.2767082024
 10
-31.8226521476
 20
13.3079599047
 10
-31.795846563
 20
13.3176635488
  0
LWPOLYLINE
  5
23D
100
AcDbEntity
  8
SMUSSO
100
AcDbPolyline
 62
7
  6
CONTINUOUS
 90
19
 70
0
 10
-37.2798087842
 20
18.6926791482
 10
-37.2766215739
 20
18.8524794468
 10
-37.2670663966
 20
19.0082698998
 10
-37.2511628276
 20
19.1597274959
 10
-37.2289435529
 20
19.3065384534
 10
-37.2004544216
 20
19.4483980454
 10
-37.1657544682
 20
19.5850113263
 10
-37.1249155164
 20
19.7160949864
 10
-37.078022079
 20
19.8413773007
 10
-37.0251714655
 20
19.9605980131
 10
-36.9664732081
 20
20.0735099259
 10
-36.9020489063
 20
20.1798790279
 10
-36.8320322465
 20
20.2794845516
 10
-36.7565684416
 20
20.3721199615
 10
-36.6758138381
 20
20.4575933757
 10
-36.589935771
 20
20.5357276882
 10
-36.4991122628
 20
20.6063609308
 10
-36.4035315338
 20
20.669346727
 10
-36.3789993826
 20
20.6838344942
  0
LWPOLYLINE
  5
23E
100
AcDbEntity
  8
ASSI
100
AcDbPolyline
 62
7
  6
CONTINUOUS
 90
19
 70
0
 10
-37.2798087842
 20
18.6926791482
 10
-37.2766215739
 20
18.8524794468
 10
-37.2670663966
 20
19.0082698998
 10
-37.2511628276
 20
19.1597274959
 10
-37.2289435529
 20
19.3065384534
 10
-37.2004544216
 20
19.4483980454
 10
-37.1657544682
 20
19.5850113263
 10
-37.1249155164
 20
19.7160949864
 10
-37.078022079
 20
19.8413773007
 10
-37.0251714655
 20
19.9605980131
 10
-36.9664732081
 20
20.0735099259
 10
-36.9020489063
 20
20.1798790279
 10
-36.8320322465
 20
20.2794845516
 10
-36.7565684416
 20
20.3721199615
 10
-36.6758138381
 20
20.4575933757
 10
-36.589935771
 20
20.5357276882
 10
-36.4991122628
 20
20.6063609308
 10
-36.4035315338
 20
20.669346727
 10
-36.3789993826
 20
20.6838344942
  0
LWPOLYLINE
  5
23F
100
AcDbEntity
  8
SMUSSO
100
AcDbPolyline
 62
7
  6
CONTINUOUS
 90
36
 70
0
 10
-37.9869155654
 20
18.6926791482
 10
-37.9833012577
 20
18.8714302568
 10
-37.9726550678
 20
19.0450075452
 10
-37.9549769957
 20
19.2134110136
 10
-37.9302014721
 20
19.3769682694
 10
-37.8983940664
 20
19.5353517051
 10
-37.859751486
 20
19.6875784981
 10
-37.8142311711
 20
19.8336102202
 10
-37.7618756816
 20
19.9734852995
 10
-37.7030094043
 20
20.1063361987
 10
-37.6375918522
 20
20.2321191541
 10
-37.5656635122
 20
20.3508779294
 10
-37.4876702325
 20
20.4618762779
 10
-37.403574418
 20
20.5650658692
 10
-37.3134136637
 20
20.6604950337
 10
-37.2177466031
 20
20.7475725167
 10
-37.1165390896
 20
20.8262464766
 10
-37.0098252697
 20
20.8965687551
 10
-36.8982662159
 20
20.9581036227
 10
-36.7818317917
 20
21.0107965678
 10
-36.6605521336
 20
21.0547021022
 10
-36.5351787239
 20
21.0895480309
 10
-36.4056861024
 20
21.1152780891
 10
-36.2720997293
 20
21.1319485417
 10
-36.135247468
 20
21.1394559882
 10
-35.9951090494
 20
21.1377435095
 10
-35.8517047425
 20
21.1268680246
 10
-35.7059232179
 20
21.1068968897
 10
-35.5577497268
 20
21.0777736213
 10
-35.4071990179
 20
21.039554703
 10
-35.2552040081
 20
20.9924769417
 10
-35.1017557189
 20
20.9364853218
 10
-34.9468631288
 20
20.8716348589
 10
-34.7914860897
 20
20.7983274068
 10
-34.635621585
 20
20.7165104396
 10
-34.5577791076
 20
20.6725872947
  0
LWPOLYLINE
  5
240
100
AcDbEntity
  8
ASSI
100
AcDbPolyline
 62
7
  6
CONTINUOUS
 90
36
 70
0
 10
-37.9869155654
 20
18.6926791482
 10
-37.9833012577
 20
18.8714302568
 10
-37.9726550678
 20
19.0450075452
 10
-37.9549769957
 20
19.2134110136
 10
-37.9302014721
 20
19.3769682694
 10
-37.8983940664
 20
19.5353517051
 10
-37.859751486
 20
19.6875784981
 10
-37.8142311711
 20
19.8336102202
 10
-37.7618756816
 20
19.9734852995
 10
-37.7030094043
 20
20.1063361987
 10
-37.6375918522
 20
20.2321191541
 10
-37.5656635122
 20
20.3508779294
 10
-37.4876702325
 20
20.4618762779
 10
-37.403574418
 20
20.5650658692
 10
-37.3134136637
 20
20.6604950337
 10
-37.2177466031
 20
20.7475725167
 10
-37.1165390896
 20
20.8262464766
 10
-37.0098252697
 20
20.8965687551
 10
-36.8982662159
 20
20.9581036227
 10
-36.7818317917
 20
21.0107965678
 10
-36.6605521336
 20
21.0547021022
 10
-36.5351787239
 20
21.0895480309
 10
-36.4056861024
 20
21.1152780891
 10
-36.2720997293
 20
21.1319485417
 10
-36.135247468
 20
21.1394559882
 10
-35.9951090494
 20
21.1377435095
 10
-35.8517047425
 20
21.1268680246
 10
-35.7059232179
 20
21.1068968897
 10
-35.5577497268
 20
21.0777736213
 10
-35.4071990179
 20
21.039554703
 10
-35.2552040081
 20
20.9924769417
 10
-35.1017557189
 20
20.9364853218
 10
-34.9468631288
 20
20.8716348589
 10
-34.7914860897
 20
20.7983274068
 10
-34.635621585
 20
20.7165104396
 10
-34.5577791076
 20
20.6725872947
  0
LWPOLYLINE
  5
241
100
AcDbEntity
  8
0
100
AcDbPolyline
 62
7
  6
CONTINUOUS
 90
14
 70
0
 10
-36.26161339
 20
20.6578487567
 10
-36.3370405731
 20
20.5652991335
 10
-36.4069943214
 20
20.465745956
 10
-36.4715084116
 20
20.3592324433
 10
-36.5301830794
 20
20.2464186112
 10
-36.5829820656
 20
20.1272653386
 10
-36.6299416294
 20
20.0018117466
 10
-36.6707707839
 20
19.8708352138
 10
-36.7054314629
 20
19.7343014462
 10
-36.7339617325
 20
19.5922447379
 10
-36.7561848037
 20
19.4455453494
 10
-36.7720417467
 20
19.294496701
 10
-36.7815914913
 20
19.1388053724
 10
-36.7848340373
 20
18.9784713636
  0
LWPOLYLINE
  5
242
100
AcDbEntity
  8
ASSI
100
AcDbPolyline
 62
7
  6
CONTINUOUS
 90
14
 70
0
 10
-36.26161339
 20
20.6578487567
 10
-36.3370405731
 20
20.5652991335
 10
-36.4069943214
 20
20.465745956
 10
-36.4715084116
 20
20.3592324433
 10
-36.5301830794
 20
20.2464186112
 10
-36.5829820656
 20
20.1272653386
 10
-36.6299416294
 20
20.0018117466
 10
-36.6707707839
 20
19.8708352138
 10
-36.7054314629
 20
19.7343014462
 10
-36.7339617325
 20
19.5922447379
 10
-36.7561848037
 20
19.4455453494
 10
-36.7720417467
 20
19.294496701
 10
-36.7815914913
 20
19.1388053724
 10
-36.7848340373
 20
18.9784713636
  0
LWPOLYLINE
  5
243
100
AcDbEntity
  8
0
100
AcDbPolyline
 62
7
  6
CONTINUOUS
 90
3
 70
0
 10
-36.1168899598
 20
20.8015592081
 10
-36.1807465489
 20
20.7434380448
 10
-36.26161339
 20
20.6578487567
  0
LWPOLYLINE
  5
244
100
AcDbEntity
  8
ASSI
100
AcDbPolyline
 62
7
  6
CONTINUOUS
 90
3
 70
0
 10
-36.1168899598
 20
20.8015592081
 10
-36.1807465489
 20
20.7434380448
 10
-36.26161339
 20
20.6578487567
  0
LINE
  5
245
100
AcDbEntity
  8
ASSI
100
AcDbLine
 62
7
  6
CONTINUOUS
 10
-57.9108776598
 20
-5.5414149275
 11
-57.5281883599
 21
-5.7908556696
  0
LWPOLYLINE
  5
246
100
AcDbEntity
  8
SMUSSO
100
AcDbPolyline
 62
7
  6
CONTINUOUS
 90
70
 70
0
 10
-31.1279797878
 20
14.732415593
 10
-31.1315940955
 20
14.5536644844
 10
-31.1422402854
 20
14.380087196
 10
-31.1599183575
 20
14.2116837276
 10
-31.1846938811
 20
14.0481264718
 10
-31.2165012868
 20
13.8897430361
 10
-31.2551438672
 20
13.7375162431
 10
-31.3006641821
 20
13.591484521
 10
-31.3530196716
 20
13.4516094417
 10
-31.4118859489
 20
13.3187585425
 10
-31.477303501
 20
13.192975587
 10
-31.549231841
 20
13.0742168118
 10
-31.6272251207
 20
12.9632184632
 10
-31.7113209352
 20
12.860028872
 10
-31.8014816895
 20
12.7645997075
 10
-31.8971487501
 20
12.6775222245
 10
-31.9983562636
 20
12.5988482646
 10
-32.1050700835
 20
12.5285259861
 10
-32.2166291373
 20
12.4669911185
 10
-32.3330635615
 20
12.4142981733
 10
-32.4543432196
 20
12.370392639
 10
-32.5797166293
 20
12.3355467103
 10
-32.7092092508
 20
12.3098166521
 10
-32.8427956238
 20
12.2931461995
 10
-32.9796478852
 20
12.285638753
 10
-33.1197863038
 20
12.2873512317
 10
-33.2631906107
 20
12.2982267166
 10
-33.4089721353
 20
12.3181978515
 10
-33.5571456264
 20
12.3473211199
 10
-33.7076963353
 20
12.3855400382
 10
-33.8596913451
 20
12.4326177995
 10
-34.0131396343
 20
12.4886094194
 10
-34.1680322244
 20
12.5534598823
 10
-34.3234092635
 20
12.6267673344
 10
-34.4792737682
 20
12.7085843015
 10
-34.6356227219
 20
12.7988582579
 10
-34.7914872235
 20
12.8970297716
 10
-34.9468642555
 20
13.0031478844
 10
-35.1017568354
 20
13.1171635545
 10
-35.2552051148
 20
13.2383702258
 10
-35.407200117
 20
13.3668125468
 10
-35.5577508187
 20
13.5024458688
 10
-35.705924302
 20
13.6444296898
 10
-35.8517058194
 20
13.7928034638
 10
-35.9951101184
 20
13.9475277368
 10
-36.1352485236
 20
14.1076436443
 10
-36.2721007648
 20
14.273184699
 10
-36.4056871122
 20
14.4441173883
 10
-36.5351797005
 20
14.6193823101
 10
-36.6605530636
 20
14.7990063177
 10
-36.7818326677
 20
14.9829625577
 10
-36.8982670461
 20
15.1701110676
 10
-37.0098260679
 20
15.3604715638
 10
-37.116539864
 20
15.5540243298
 10
-37.2177473602
 20
15.7495702538
 10
-37.313414416
 20
15.9471217623
 10
-37.4035751719
 20
16.1466664288
 10
-37.4876709755
 20
16.346967862
 10
-37.5656642259
 20
16.5480309756
 10
-37.6375925238
 20
16.7498508557
 10
-37.7030100195
 20
16.95117637
 10
-37.7618762203
 20
17.1520045174
 10
-37.8142316188
 20
17.3523382988
 10
-37.8597518429
 20
17.5509355841
 10
-37.8983943322
 20
17.7477856433
 10
-37.9302016471
 20
17.9428992063
 10
-37.9549770969
 20
18.1350663324
 10
-37.9726551181
 20
18.323883708
 10
-37.9833012743
 20
18.5097546466
 10
-37.9869155654
 20
18.6926791482
  0
LWPOLYLINE
  5
247
100
AcDbEntity
  8
ASSI
100
AcDbPolyline
 62
7
  6
CONTINUOUS
 90
70
 70
0
 10
-31.1279797878
 20
14.732415593
 10
-31.1315940955
 20
14.5536644844
 10
-31.1422402854
 20
14.380087196
 10
-31.1599183575
 20
14.2116837276
 10
-31.1846938811
 20
14.0481264718
 10
-31.2165012868
 20
13.8897430361
 10
-31.2551438672
 20
13.7375162431
 10
-31.3006641821
 20
13.591484521
 10
-31.3530196716
 20
13.4516094417
 10
-31.4118859489
 20
13.3187585425
 10
-31.477303501
 20
13.192975587
 10
-31.549231841
 20
13.0742168118
 10
-31.6272251207
 20
12.9632184632
 10
-31.7113209352
 20
12.860028872
 10
-31.8014816895
 20
12.7645997075
 10
-31.8971487501
 20
12.6775222245
 10
-31.9983562636
 20
12.5988482646
 10
-32.1050700835
 20
12.5285259861
 10
-32.2166291373
 20
12.4669911185
 10
-32.3330635615
 20
12.4142981733
 10
-32.4543432196
 20
12.370392639
 10
-32.5797166293
 20
12.3355467103
 10
-32.7092092508
 20
12.3098166521
 10
-32.8427956238
 20
12.2931461995
 10
-32.9796478852
 20
12.285638753
 10
-33.1197863038
 20
12.2873512317
 10
-33.2631906107
 20
12.2982267166
 10
-33.4089721353
 20
12.3181978515
 10
-33.5571456264
 20
12.3473211199
 10
-33.7076963353
 20
12.3855400382
 10
-33.8596913451
 20
12.4326177995
 10
-34.0131396343
 20
12.4886094194
 10
-34.1680322244
 20
12.5534598823
 10
-34.3234092635
 20
12.6267673344
 10
-34.4792737682
 20
12.7085843015
 10
-34.6356227219
 20
12.7988582579
 10
-34.7914872235
 20
12.8970297716
 10
-34.9468642555
 20
13.0031478844
 10
-35.1017568354
 20
13.1171635545
 10
-35.2552051148
 20
13.2383702258
 10
-35.407200117
 20
13.3668125468
 10
-35.5577508187
 20
13.5024458688
 10
-35.705924302
 20
13.6444296898
 10
-35.8517058194
 20
13.7928034638
 10
-35.9951101184
 20
13.9475277368
 10
-36.1352485236
 20
14.1076436443
 10
-36.2721007648
 20
14.273184699
 10
-36.4056871122
 20
14.4441173883
 10
-36.5351797005
 20
14.6193823101
 10
-36.6605530636
 20
14.7990063177
 10
-36.7818326677
 20
14.9829625577
 10
-36.8982670461
 20
15.1701110676
 10
-37.0098260679
 20
15.3604715638
 10
-37.116539864
 20
15.5540243298
 10
-37.2177473602
 20
15.7495702538
 10
-37.313414416
 20
15.9471217623
 10
-37.4035751719
 20
16.1466664288
 10
-37.4876709755
 20
16.346967862
 10
-37.5656642259
 20
16.5480309756
 10
-37.6375925238
 20
16.7498508557
 10
-37.7030100195
 20
16.95117637
 10
-37.7618762203
 20
17.1520045174
 10
-37.8142316188
 20
17.3523382988
 10
-37.8597518429
 20
17.5509355841
 10
-37.8983943322
 20
17.7477856433
 10
-37.9302016471
 20
17.9428992063
 10
-37.9549770969
 20
18.1350663324
 10
-37.9726551181
 20
18.323883708
 10
-37.9833012743
 20
18.5097546466
 10
-37.9869155654
 20
18.6926791482
  0
LINE
  5
248
100
AcDbEntity
  8
SMUSSO
100
AcDbLine
 62
7
  6
CONTINUOUS
 10
-31.1333292942
 20
14.9456351689
 11
-31.1407221754
 21
14.8250994347
  0
LINE
  5
249
100
AcDbEntity
  8
ASSI
100
AcDbLine
 62
7
  6
CONTINUOUS
 10
-31.1333292942
 20
14.9456351689
 11
-31.1407221754
 21
14.8250994347
  0
LWPOLYLINE
  5
24A
100
AcDbEntity
  8
SMUSSO
100
AcDbPolyline
 62
7
  6
CONTINUOUS
 90
17
 70
0
 10
-31.1407221754
 20
14.8250994347
 10
-31.1566257445
 20
14.6736418386
 10
-31.1788450191
 20
14.5268308811
 10
-31.2073341504
 20
14.3849712891
 10
-31.2420341038
 20
14.2483580083
 10
-31.2828730556
 20
14.1172743481
 10
-31.329766493
 20
13.9919920338
 10
-31.3826171065
 20
13.8727713215
 10
-31.4413153639
 20
13.7598594086
 10
-31.5057396658
 20
13.6534903066
 10
-31.5757563256
 20
13.553884783
 10
-31.6512201304
 20
13.4612493731
 10
-31.7319747339
 20
13.3757759589
 10
-31.817852801
 20
13.2976416463
 10
-31.9086763092
 20
13.2270084037
 10
-32.0042570382
 20
13.1640226076
 10
-32.0287891894
 20
13.1495348403
  0
LWPOLYLINE
  5
24B
100
AcDbEntity
  8
ASSI
100
AcDbPolyline
 62
7
  6
CONTINUOUS
 90
17
 70
0
 10
-31.1407221754
 20
14.8250994347
 10
-31.1566257445
 20
14.6736418386
 10
-31.1788450191
 20
14.5268308811
 10
-31.2073341504
 20
14.3849712891
 10
-31.2420341038
 20
14.2483580083
 10
-31.2828730556
 20
14.1172743481
 10
-31.329766493
 20
13.9919920338
 10
-31.3826171065
 20
13.8727713215
 10
-31.4413153639
 20
13.7598594086
 10
-31.5057396658
 20
13.6534903066
 10
-31.5757563256
 20
13.553884783
 10
-31.6512201304
 20
13.4612493731
 10
-31.7319747339
 20
13.3757759589
 10
-31.817852801
 20
13.2976416463
 10
-31.9086763092
 20
13.2270084037
 10
-32.0042570382
 20
13.1640226076
 10
-32.0287891894
 20
13.1495348403
  0
LWPOLYLINE
  5
24C
100
AcDbEntity
  8
SMUSSO
100
AcDbPolyline
 62
7
  6
CONTINUOUS
 90
15
 70
0
 10
-36.3789993826
 20
20.6838344942
 10
-36.30339154
 20
20.7245546007
 10
-36.1988997651
 20
20.7718701095
 10
-36.0902728155
 20
20.8111951171
 10
-35.9777358245
 20
20.8424480771
 10
-35.8615219961
 20
20.8655641802
 10
-35.741872221
 20
20.8804954662
 10
-35.6190345909
 20
20.8872109471
 10
-35.4932637283
 20
20.8856966885
 10
-35.3648202927
 20
20.8759558147
 10
-35.2339705513
 20
20.8580085069
 10
-35.1009857313
 20
20.8318919607
 10
-34.9661414553
 20
20.797660299
 10
-34.8297172156
 20
20.7553844668
 10
-34.6919957725
 20
20.7051520796
  0
LWPOLYLINE
  5
24D
100
AcDbEntity
  8
ASSI
100
AcDbPolyline
 62
7
  6
CONTINUOUS
 90
15
 70
0
 10
-36.3789993826
 20
20.6838344942
 10
-36.30339154
 20
20.7245546007
 10
-36.1988997651
 20
20.7718701095
 10
-36.0902728155
 20
20.8111951171
 10
-35.9777358245
 20
20.8424480771
 10
-35.8615219961
 20
20.8655641802
 10
-35.741872221
 20
20.8804954662
 10
-35.6190345909
 20
20.8872109471
 10
-35.4932637283
 20
20.8856966885
 10
-35.3648202927
 20
20.8759558147
 10
-35.2339705513
 20
20.8580085069
 10
-35.1009857313
 20
20.8318919607
 10
-34.9661414553
 20
20.797660299
 10
-34.8297172156
 20
20.7553844668
 10
-34.6919957725
 20
20.7051520796
  0
LINE
  5
24E
100
AcDbEntity
  8
ASSI
100
AcDbLine
 62
7
  6
CONTINUOUS
 10
-57.5074247458
 20
-5.8032764952
 11
53.4454917611
 21
-69.8660999196
  0
LINE
  5
24F
100
AcDbEntity
  8
ASSI
100
AcDbLine
 62
7
  6
CONTINUOUS
 10
-57.9108776598
 20
-5.5414149275
 11
52.4355926134
 21
-69.2540838972
  0
LINE
  5
250
100
AcDbEntity
  8
ASSI
100
AcDbLine
 62
7
  6
CONTINUOUS
 10
-57.5074247458
 20
-5.8032764952
 11
-57.5281883599
 21
-5.7908556696
  0
LINE
  5
251
100
AcDbEntity
  8
ASSI
100
AcDbLine
 62
7
  6
CONTINUOUS
 10
52.4355926134
 20
-69.2540838972
 11
53.4451293308
 21
-69.8654584819
  0
LWPOLYLINE
  5
252
100
AcDbEntity
  8
SMUSSO
100
AcDbPolyline
 62
7
  6
CONTINUOUS
 90
53
 70
0
 10
-32.0287891894
 20
13.1495348403
 10
-32.104397032
 20
13.1088147338
 10
-32.2088888069
 20
13.0614992251
 10
-32.3175157565
 20
13.0221742175
 10
-32.4300527475
 20
12.9909212574
 10
-32.5462665759
 20
12.9678051543
 10
-32.665916351
 20
12.9528738683
 10
-32.7887539811
 20
12.9461583874
 10
-32.9145248438
 20
12.947672646
 10
-33.0429682793
 20
12.9574135199
 10
-33.1738180208
 20
12.9753608276
 10
-33.3068028408
 20
13.0014773738
 10
-33.4416471167
 20
13.0357090355
 10
-33.5780713565
 20
13.0779848677
 10
-33.7157927995
 20
13.1282172549
 10
-33.8545259825
 20
13.1863020849
 10
-33.9939833299
 20
13.2521189609
 10
-34.1338757934
 20
13.3255314705
 10
-34.2739134078
 20
13.4063874505
 10
-34.4138058708
 20
13.494519284
 10
-34.5532632171
 20
13.5897442898
 10
-34.6919963986
 20
13.6918650945
 10
-34.8297178407
 20
13.8006700109
 10
-34.9661420804
 20
13.9159335057
 10
-35.1009863567
 20
14.0374166697
 10
-35.2339711766
 20
14.1648676966
 10
-35.3648209183
 20
14.2980224284
 10
-35.4932643536
 20
14.4366048532
 10
-35.6190352124
 20
14.5803276704
 10
-35.7418728334
 20
14.7288929988
 10
-35.861522596
 20
14.8819928736
 10
-35.9777364101
 20
15.0393098186
 10
-36.0902733831
 20
15.2005176962
 10
-36.1989003132
 20
15.3652824015
 10
-36.3033920729
 20
15.5332624193
 10
-36.4035320565
 20
15.7041094846
 10
-36.4991127781
 20
15.8774695561
 10
-36.5899362829
 20
16.0529835671
 10
-36.6758143535
 20
16.2302877979
 10
-36.7565689613
 20
16.4090146957
 10
-36.8320327617
 20
16.5887938989
 10
-36.902049409
 20
16.7692529812
 10
-36.9664736904
 20
16.9500177172
 10
-37.0251719124
 20
17.1307129364
 10
-37.0780224773
 20
17.3109642027
 10
-37.1249158578
 20
17.4903978386
 10
-37.1657547457
 20
17.668641209
 10
-37.200454632
 20
17.8453249925
 10
-37.2289436984
 20
18.0200829455
 10
-37.2511629155
 20
18.1925519573
 10
-37.2670664384
 20
18.3623743596
 10
-37.276621585
 20
18.5291986276
 10
-37.2798087842
 20
18.6926791482
  0
LWPOLYLINE
  5
253
100
AcDbEntity
  8
ASSI
100
AcDbPolyline
 62
7
  6
CONTINUOUS
 90
53
 70
0
 10
-32.0287891894
 20
13.1495348403
 10
-32.104397032
 20
13.1088147338
 10
-32.2088888069
 20
13.0614992251
 10
-32.3175157565
 20
13.0221742175
 10
-32.4300527475
 20
12.9909212574
 10
-32.5462665759
 20
12.9678051543
 10
-32.665916351
 20
12.9528738683
 10
-32.7887539811
 20
12.9461583874
 10
-32.9145248438
 20
12.947672646
 10
-33.0429682793
 20
12.9574135199
 10
-33.1738180208
 20
12.9753608276
 10
-33.3068028408
 20
13.0014773738
 10
-33.4416471167
 20
13.0357090355
 10
-33.5780713565
 20
13.0779848677
 10
-33.7157927995
 20
13.1282172549
 10
-33.8545259825
 20
13.1863020849
 10
-33.9939833299
 20
13.2521189609
 10
-34.1338757934
 20
13.3255314705
 10
-34.2739134078
 20
13.4063874505
 10
-34.4138058708
 20
13.494519284
 10
-34.5532632171
 20
13.5897442898
 10
-34.6919963986
 20
13.6918650945
 10
-34.8297178407
 20
13.8006700109
 10
-34.9661420804
 20
13.9159335057
 10
-35.1009863567
 20
14.0374166697
 10
-35.2339711766
 20
14.1648676966
 10
-35.3648209183
 20
14.2980224284
 10
-35.4932643536
 20
14.4366048532
 10
-35.6190352124
 20
14.5803276704
 10
-35.7418728334
 20
14.7288929988
 10
-35.861522596
 20
14.8819928736
 10
-35.9777364101
 20
15.0393098186
 10
-36.0902733831
 20
15.2005176962
 10
-36.1989003132
 20
15.3652824015
 10
-36.3033920729
 20
15.5332624193
 10
-36.4035320565
 20
15.7041094846
 10
-36.4991127781
 20
15.8774695561
 10
-36.5899362829
 20
16.0529835671
 10
-36.6758143535
 20
16.2302877979
 10
-36.7565689613
 20
16.4090146957
 10
-36.8320327617
 20
16.5887938989
 10
-36.902049409
 20
16.7692529812
 10
-36.9664736904
 20
16.9500177172
 10
-37.0251719124
 20
17.1307129364
 10
-37.0780224773
 20
17.3109642027
 10
-37.1249158578
 20
17.4903978386
 10
-37.1657547457
 20
17.668641209
 10
-37.200454632
 20
17.8453249925
 10
-37.2289436984
 20
18.0200829455
 10
-37.2511629155
 20
18.1925519573
 10
-37.2670664384
 20
18.3623743596
 10
-37.276621585
 20
18.5291986276
 10
-37.2798087842
 20
18.6926791482
  0
LWPOLYLINE
  5
254
100
AcDbEntity
  8
0
100
AcDbPolyline
 62
7
  6
CONTINUOUS
 90
51
 70
0
 10
-20.8749314606
 20
9.7922930137
 10
-20.8716889146
 20
9.628214594
 10
-20.86213917
 20
9.4614954597
 10
-20.846282227
 20
9.292135611
 10
-20.8240591558
 20
9.1197735769
 10
-20.7955288862
 20
8.9447708283
 10
-20.7608682072
 20
8.7682117774
 10
-20.7200390527
 20
8.5900867605
 10
-20.6730794889
 20
8.4104054413
 10
-20.6202805027
 20
8.2302812228
 10
-20.5616058349
 20
8.0497113551
 10
-20.4970917447
 20
7.8686985882
 10
-20.4271379964
 20
7.6883645756
 10
-20.3517108133
 20
7.508713532
 10
-20.2708439722
 20
7.3297412428
 10
-20.1850385679
 20
7.1525567175
 10
-20.0942639352
 20
6.9771710571
 10
-19.9985507394
 20
6.8035731607
 10
-19.8984920715
 20
6.6328387352
 10
-19.7940609488
 20
6.4649855609
 10
-19.685284354
 20
6.2999958577
 10
-19.5728363261
 20
6.1388919912
 10
-19.4566940677
 20
5.9816980903
 10
-19.3368803761
 20
5.8283900261
 10
-19.2141376821
 20
5.679917779
 10
-19.0884477985
 20
5.5363113762
 10
-18.9598289125
 20
5.3975407904
 10
-18.8290780167
 20
5.2644659196
 10
-18.6961818726
 20
5.1371221306
 10
-18.5611537187
 20
5.0154740565
 10
-18.4248302628
 20
4.9002754951
 10
-18.2872034619
 20
4.7915664937
 10
-18.1482813591
 20
4.6893070049
 10
-18.0089247911
 20
4.5941306841
 10
-17.8691310604
 20
4.5060815133
 10
-17.7289028646
 20
4.4251155105
 10
-17.5891091338
 20
4.3517343851
 10
-17.4497525659
 20
4.2859852343
 10
-17.3108304631
 20
4.227820961
 10
-17.1732036622
 20
4.1776019825
 10
-17.0368802063
 20
4.1353776341
 10
-16.9018520524
 20
4.1010985806
 10
-16.7689559083
 20
4.0749772336
 10
-16.6382050124
 20
4.0570642473
 10
-16.5095861264
 20
4.0473089675
 10
-16.3838962428
 20
4.0457718432
 10
-16.2611535489
 20
4.052503904
 10
-16.1413398573
 20
4.0674541203
 10
-16.0251975989
 20
4.0905298525
 10
-15.9127495709
 20
4.1217815549
 10
-15.8859439863
 20
4.1314851989
  0
LWPOLYLINE
  5
255
100
AcDbEntity
  8
ASSI
100
AcDbPolyline
 62
7
  6
CONTINUOUS
 90
51
 70
0
 10
-20.8749314606
 20
9.7922930137
 10
-20.8716889146
 20
9.628214594
 10
-20.86213917
 20
9.4614954597
 10
-20.846282227
 20
9.292135611
 10
-20.8240591558
 20
9.1197735769
 10
-20.7955288862
 20
8.9447708283
 10
-20.7608682072
 20
8.7682117774
 10
-20.7200390527
 20
8.5900867605
 10
-20.6730794889
 20
8.4104054413
 10
-20.6202805027
 20
8.2302812228
 10
-20.5616058349
 20
8.0497113551
 10
-20.4970917447
 20
7.8686985882
 10
-20.4271379964
 20
7.6883645756
 10
-20.3517108133
 20
7.508713532
 10
-20.2708439722
 20
7.3297412428
 10
-20.1850385679
 20
7.1525567175
 10
-20.0942639352
 20
6.9771710571
 10
-19.9985507394
 20
6.8035731607
 10
-19.8984920715
 20
6.6328387352
 10
-19.7940609488
 20
6.4649855609
 10
-19.685284354
 20
6.2999958577
 10
-19.5728363261
 20
6.1388919912
 10
-19.4566940677
 20
5.9816980903
 10
-19.3368803761
 20
5.8283900261
 10
-19.2141376821
 20
5.679917779
 10
-19.0884477985
 20
5.5363113762
 10
-18.9598289125
 20
5.3975407904
 10
-18.8290780167
 20
5.2644659196
 10
-18.6961818726
 20
5.1371221306
 10
-18.5611537187
 20
5.0154740565
 10
-18.4248302628
 20
4.9002754951
 10
-18.2872034619
 20
4.7915664937
 10
-18.1482813591
 20
4.6893070049
 10
-18.0089247911
 20
4.5941306841
 10
-17.8691310604
 20
4.5060815133
 10
-17.7289028646
 20
4.4251155105
 10
-17.5891091338
 20
4.3517343851
 10
-17.4497525659
 20
4.2859852343
 10
-17.3108304631
 20
4.227820961
 10
-17.1732036622
 20
4.1776019825
 10
-17.0368802063
 20
4.1353776341
 10
-16.9018520524
 20
4.1010985806
 10
-16.7689559083
 20
4.0749772336
 10
-16.6382050124
 20
4.0570642473
 10
-16.5095861264
 20
4.0473089675
 10
-16.3838962428
 20
4.0457718432
 10
-16.2611535489
 20
4.052503904
 10
-16.1413398573
 20
4.0674541203
 10
-16.0251975989
 20
4.0905298525
 10
-15.9127495709
 20
4.1217815549
 10
-15.8859439863
 20
4.1314851989
  0
LWPOLYLINE
  5
256
100
AcDbEntity
  8
SMUSSO
100
AcDbPolyline
 62
7
  6
CONTINUOUS
 90
19
 70
0
 10
-21.3699062075
 20
9.5065007984
 10
-21.3667189972
 20
9.6663010969
 10
-21.3571638199
 20
9.82209155
 10
-21.3412602509
 20
9.973549146
 10
-21.3190409762
 20
10.1203601036
 10
-21.2905518449
 20
10.2622196955
 10
-21.2558518915
 20
10.3988329764
 10
-21.2150129397
 20
10.5299166366
 10
-21.1681195023
 20
10.6551989508
 10
-21.1152688888
 20
10.7744196632
 10
-21.0565706314
 20
10.887331576
 10
-20.9921463296
 20
10.993700678
 10
-20.9221296698
 20
11.0933062017
 10
-20.8466658649
 20
11.1859416116
 10
-20.7659112614
 20
11.2714150258
 10
-20.6800331943
 20
11.3495493383
 10
-20.5892096861
 20
11.4201825809
 10
-20.4936289571
 20
11.4831683771
 10
-20.4690968059
 20
11.4976561443
  0
LWPOLYLINE
  5
257
100
AcDbEntity
  8
ASSI
100
AcDbPolyline
 62
7
  6
CONTINUOUS
 90
19
 70
0
 10
-21.3699062075
 20
9.5065007984
 10
-21.3667189972
 20
9.6663010969
 10
-21.3571638199
 20
9.82209155
 10
-21.3412602509
 20
9.973549146
 10
-21.3190409762
 20
10.1203601036
 10
-21.2905518449
 20
10.2622196955
 10
-21.2558518915
 20
10.3988329764
 10
-21.2150129397
 20
10.5299166366
 10
-21.1681195023
 20
10.6551989508
 10
-21.1152688888
 20
10.7744196632
 10
-21.0565706314
 20
10.887331576
 10
-20.9921463296
 20
10.993700678
 10
-20.9221296698
 20
11.0933062017
 10
-20.8466658649
 20
11.1859416116
 10
-20.7659112614
 20
11.2714150258
 10
-20.6800331943
 20
11.3495493383
 10
-20.5892096861
 20
11.4201825809
 10
-20.4936289571
 20
11.4831683771
 10
-20.4690968059
 20
11.4976561443
  0
LWPOLYLINE
  5
258
100
AcDbEntity
  8
SMUSSO
100
AcDbPolyline
 62
7
  6
CONTINUOUS
 90
36
 70
0
 10
-22.0770129887
 20
9.5065007984
 10
-22.073398681
 20
9.6852519069
 10
-22.0627524911
 20
9.8588291954
 10
-22.045074419
 20
10.0272326637
 10
-22.0202988954
 20
10.1907899195
 10
-21.9884914897
 20
10.3491733552
 10
-21.9498489093
 20
10.5014001483
 10
-21.9043285944
 20
10.6474318703
 10
-21.8519731049
 20
10.7873069496
 10
-21.7931068276
 20
10.9201578489
 10
-21.7276892755
 20
11.0459408043
 10
-21.6557609355
 20
11.1646995795
 10
-21.5777676558
 20
11.2756979281
 10
-21.4936718413
 20
11.3788875193
 10
-21.403511087
 20
11.4743166838
 10
-21.3078440264
 20
11.5613941668
 10
-21.2066365129
 20
11.6400681267
 10
-21.099922693
 20
11.7103904052
 10
-20.9883636392
 20
11.7719252728
 10
-20.871929215
 20
11.824618218
 10
-20.7506495569
 20
11.8685237523
 10
-20.6252761472
 20
11.903369681
 10
-20.4957835257
 20
11.9290997392
 10
-20.3621971527
 20
11.9457701919
 10
-20.2253448913
 20
11.9532776383
 10
-20.0852064727
 20
11.9515651596
 10
-19.9418021658
 20
11.9406896747
 10
-19.7960206412
 20
11.9207185398
 10
-19.6478471501
 20
11.8915952715
 10
-19.4972964412
 20
11.8533763531
 10
-19.3453014314
 20
11.8062985918
 10
-19.1918531422
 20
11.7503069719
 10
-19.0369605521
 20
11.685456509
 10
-18.881583513
 20
11.6121490569
 10
-18.7257190083
 20
11.5303320898
 10
-18.6478765309
 20
11.4864089448
  0
LWPOLYLINE
  5
259
100
AcDbEntity
  8
ASSI
100
AcDbPolyline
 62
7
  6
CONTINUOUS
 90
36
 70
0
 10
-22.0770129887
 20
9.5065007984
 10
-22.073398681
 20
9.6852519069
 10
-22.0627524911
 20
9.8588291954
 10
-22.045074419
 20
10.0272326637
 10
-22.0202988954
 20
10.1907899195
 10
-21.9884914897
 20
10.3491733552
 10
-21.9498489093
 20
10.5014001483
 10
-21.9043285944
 20
10.6474318703
 10
-21.8519731049
 20
10.7873069496
 10
-21.7931068276
 20
10.9201578489
 10
-21.7276892755
 20
11.0459408043
 10
-21.6557609355
 20
11.1646995795
 10
-21.5777676558
 20
11.2756979281
 10
-21.4936718413
 20
11.3788875193
 10
-21.403511087
 20
11.4743166838
 10
-21.3078440264
 20
11.5613941668
 10
-21.2066365129
 20
11.6400681267
 10
-21.099922693
 20
11.7103904052
 10
-20.9883636392
 20
11.7719252728
 10
-20.871929215
 20
11.824618218
 10
-20.7506495569
 20
11.8685237523
 10
-20.6252761472
 20
11.903369681
 10
-20.4957835257
 20
11.9290997392
 10
-20.3621971527
 20
11.9457701919
 10
-20.2253448913
 20
11.9532776383
 10
-20.0852064727
 20
11.9515651596
 10
-19.9418021658
 20
11.9406896747
 10
-19.7960206412
 20
11.9207185398
 10
-19.6478471501
 20
11.8915952715
 10
-19.4972964412
 20
11.8533763531
 10
-19.3453014314
 20
11.8062985918
 10
-19.1918531422
 20
11.7503069719
 10
-19.0369605521
 20
11.685456509
 10
-18.881583513
 20
11.6121490569
 10
-18.7257190083
 20
11.5303320898
 10
-18.6478765309
 20
11.4864089448
  0
LWPOLYLINE
  5
25A
100
AcDbEntity
  8
0
100
AcDbPolyline
 62
7
  6
CONTINUOUS
 90
14
 70
0
 10
-20.3517108133
 20
11.4716704069
 10
-20.4271379964
 20
11.3791207837
 10
-20.4970917447
 20
11.2795676061
 10
-20.5616058349
 20
11.1730540934
 10
-20.6202805027
 20
11.0602402613
 10
-20.6730794889
 20
10.9410869887
 10
-20.7200390527
 20
10.8156333967
 10
-20.7608682072
 20
10.6846568639
 10
-20.7955288862
 20
10.5481230964
 10
-20.8240591558
 20
10.406066388
 10
-20.846282227
 20
10.2593669996
 10
-20.86213917
 20
10.1083183511
 10
-20.8716889146
 20
9.9526270225
 10
-20.8749314606
 20
9.7922930137
  0
LWPOLYLINE
  5
25B
100
AcDbEntity
  8
ASSI
100
AcDbPolyline
 62
7
  6
CONTINUOUS
 90
14
 70
0
 10
-20.3517108133
 20
11.4716704069
 10
-20.4271379964
 20
11.3791207837
 10
-20.4970917447
 20
11.2795676061
 10
-20.5616058349
 20
11.1730540934
 10
-20.6202805027
 20
11.0602402613
 10
-20.6730794889
 20
10.9410869887
 10
-20.7200390527
 20
10.8156333967
 10
-20.7608682072
 20
10.6846568639
 10
-20.7955288862
 20
10.5481230964
 10
-20.8240591558
 20
10.406066388
 10
-20.846282227
 20
10.2593669996
 10
-20.86213917
 20
10.1083183511
 10
-20.8716889146
 20
9.9526270225
 10
-20.8749314606
 20
9.7922930137
  0
LWPOLYLINE
  5
25C
100
AcDbEntity
  8
0
100
AcDbPolyline
 62
7
  6
CONTINUOUS
 90
3
 70
0
 10
-20.2069873831
 20
11.6153808582
 10
-20.2708439722
 20
11.5572596949
 10
-20.3517108133
 20
11.4716704069
  0
LWPOLYLINE
  5
25D
100
AcDbEntity
  8
ASSI
100
AcDbPolyline
 62
7
  6
CONTINUOUS
 90
3
 70
0
 10
-20.2069873831
 20
11.6153808582
 10
-20.2708439722
 20
11.5572596949
 10
-20.3517108133
 20
11.4716704069
  0
LWPOLYLINE
  5
25E
100
AcDbEntity
  8
SMUSSO
100
AcDbPolyline
 62
7
  6
CONTINUOUS
 90
15
 70
0
 10
-20.4690968059
 20
11.4976561443
 10
-20.3934889633
 20
11.5383762509
 10
-20.2889971884
 20
11.5856917596
 10
-20.1803702388
 20
11.6250167672
 10
-20.0678332478
 20
11.6562697273
 10
-19.9516194194
 20
11.6793858303
 10
-19.8319696443
 20
11.6943171163
 10
-19.7091320143
 20
11.7010325973
 10
-19.5833611516
 20
11.6995183387
 10
-19.454917716
 20
11.6897774648
 10
-19.3240679746
 20
11.671830157
 10
-19.1910831546
 20
11.6457136109
 10
-19.0562388786
 20
11.6114819492
 10
-18.9198146389
 20
11.5692061169
 10
-18.7820931958
 20
11.5189737297
  0
LWPOLYLINE
  5
25F
100
AcDbEntity
  8
ASSI
100
AcDbPolyline
 62
7
  6
CONTINUOUS
 90
15
 70
0
 10
-20.4690968059
 20
11.4976561443
 10
-20.3934889633
 20
11.5383762509
 10
-20.2889971884
 20
11.5856917596
 10
-20.1803702388
 20
11.6250167672
 10
-20.0678332478
 20
11.6562697273
 10
-19.9516194194
 20
11.6793858303
 10
-19.8319696443
 20
11.6943171163
 10
-19.7091320143
 20
11.7010325973
 10
-19.5833611516
 20
11.6995183387
 10
-19.454917716
 20
11.6897774648
 10
-19.3240679746
 20
11.671830157
 10
-19.1910831546
 20
11.6457136109
 10
-19.0562388786
 20
11.6114819492
 10
-18.9198146389
 20
11.5692061169
 10
-18.7820931958
 20
11.5189737297
  0
LWPOLYLINE
  5
260
100
AcDbEntity
  8
SMUSSO
100
AcDbPolyline
 62
7
  6
CONTINUOUS
 90
70
 70
0
 10
-15.2180772111
 20
5.5462372431
 10
-15.2216915188
 20
5.3674861345
 10
-15.2323377087
 20
5.1939088461
 10
-15.2500157808
 20
5.0255053777
 10
-15.2747913044
 20
4.8619481219
 10
-15.3065987101
 20
4.7035646862
 10
-15.3452412905
 20
4.5513378932
 10
-15.3907616054
 20
4.4053061712
 10
-15.4431170949
 20
4.2654310918
 10
-15.5019833722
 20
4.1325801926
 10
-15.5674009243
 20
4.0067972372
 10
-15.6393292643
 20
3.8880384619
 10
-15.717322544
 20
3.7770401134
 10
-15.8014183585
 20
3.6738505222
 10
-15.8915791128
 20
3.5784213577
 10
-15.9872461734
 20
3.4913438746
 10
-16.0884536869
 20
3.4126699147
 10
-16.1951675068
 20
3.3423476363
 10
-16.3067265606
 20
3.2808127687
 10
-16.4231609848
 20
3.2281198235
 10
-16.5444406429
 20
3.1842142891
 10
-16.6698140526
 20
3.1493683605
 10
-16.7993066741
 20
3.1236383022
 10
-16.9328930472
 20
3.1069678496
 10
-17.0697453085
 20
3.0994604032
 10
-17.2098837271
 20
3.1011728819
 10
-17.353288034
 20
3.1120483668
 10
-17.4990695586
 20
3.1320195016
 10
-17.6472430497
 20
3.16114277
 10
-17.7977937586
 20
3.1993616883
 10
-17.9497887684
 20
3.2464394496
 10
-18.1032370576
 20
3.3024310695
 10
-18.2581296477
 20
3.3672815324
 10
-18.4135066868
 20
3.4405889845
 10
-18.5693711915
 20
3.5224059517
 10
-18.7257201452
 20
3.612679908
 10
-18.8815846468
 20
3.7108514218
 10
-19.0369616788
 20
3.8169695345
 10
-19.1918542587
 20
3.9309852047
 10
-19.3453025381
 20
4.0521918759
 10
-19.4972975403
 20
4.1806341969
 10
-19.647848242
 20
4.316267519
 10
-19.7960217253
 20
4.45825134
 10
-19.9418032427
 20
4.606625114
 10
-20.0852075418
 20
4.7613493869
 10
-20.2253459469
 20
4.9214652944
 10
-20.3621981881
 20
5.0870063491
 10
-20.4957845355
 20
5.2579390385
 10
-20.6252771238
 20
5.4332039602
 10
-20.7506504869
 20
5.6128279678
 10
-20.871930091
 20
5.7967842079
 10
-20.9883644694
 20
5.9839327177
 10
-21.0999234912
 20
6.1742932139
 10
-21.2066372873
 20
6.3678459799
 10
-21.3078447835
 20
6.5633919039
 10
-21.4035118393
 20
6.7609434124
 10
-21.4936725953
 20
6.960488079
 10
-21.5777683988
 20
7.1607895121
 10
-21.6557616492
 20
7.3618526257
 10
-21.7276899471
 20
7.5636725059
 10
-21.7931074428
 20
7.7649980201
 10
-21.8519736436
 20
7.9658261675
 10
-21.9043290421
 20
8.166159949
 10
-21.9498492662
 20
8.3647572342
 10
-21.9884917555
 20
8.5616072934
 10
-22.0202990704
 20
8.7567208565
 10
-22.0450745202
 20
8.9488879825
 10
-22.0627525414
 20
9.1377053581
 10
-22.0733986976
 20
9.3235762967
 10
-22.0770129887
 20
9.5065007984
  0
LWPOLYLINE
  5
261
100
AcDbEntity
  8
ASSI
100
AcDbPolyline
 62
7
  6
CONTINUOUS
 90
70
 70
0
 10
-15.2180772111
 20
5.5462372431
 10
-15.2216915188
 20
5.3674861345
 10
-15.2323377087
 20
5.1939088461
 10
-15.2500157808
 20
5.0255053777
 10
-15.2747913044
 20
4.8619481219
 10
-15.3065987101
 20
4.7035646862
 10
-15.3452412905
 20
4.5513378932
 10
-15.3907616054
 20
4.4053061712
 10
-15.4431170949
 20
4.2654310918
 10
-15.5019833722
 20
4.1325801926
 10
-15.5674009243
 20
4.0067972372
 10
-15.6393292643
 20
3.8880384619
 10
-15.717322544
 20
3.7770401134
 10
-15.8014183585
 20
3.6738505222
 10
-15.8915791128
 20
3.5784213577
 10
-15.9872461734
 20
3.4913438746
 10
-16.0884536869
 20
3.4126699147
 10
-16.1951675068
 20
3.3423476363
 10
-16.3067265606
 20
3.2808127687
 10
-16.4231609848
 20
3.2281198235
 10
-16.5444406429
 20
3.1842142891
 10
-16.6698140526
 20
3.1493683605
 10
-16.7993066741
 20
3.1236383022
 10
-16.9328930472
 20
3.1069678496
 10
-17.0697453085
 20
3.0994604032
 10
-17.2098837271
 20
3.1011728819
 10
-17.353288034
 20
3.1120483668
 10
-17.4990695586
 20
3.1320195016
 10
-17.6472430497
 20
3.16114277
 10
-17.7977937586
 20
3.1993616883
 10
-17.9497887684
 20
3.2464394496
 10
-18.1032370576
 20
3.3024310695
 10
-18.2581296477
 20
3.3672815324
 10
-18.4135066868
 20
3.4405889845
 10
-18.5693711915
 20
3.5224059517
 10
-18.7257201452
 20
3.612679908
 10
-18.8815846468
 20
3.7108514218
 10
-19.0369616788
 20
3.8169695345
 10
-19.1918542587
 20
3.9309852047
 10
-19.3453025381
 20
4.0521918759
 10
-19.4972975403
 20
4.1806341969
 10
-19.647848242
 20
4.316267519
 10
-19.7960217253
 20
4.45825134
 10
-19.9418032427
 20
4.606625114
 10
-20.0852075418
 20
4.7613493869
 10
-20.2253459469
 20
4.9214652944
 10
-20.3621981881
 20
5.0870063491
 10
-20.4957845355
 20
5.2579390385
 10
-20.6252771238
 20
5.4332039602
 10
-20.7506504869
 20
5.6128279678
 10
-20.871930091
 20
5.7967842079
 10
-20.9883644694
 20
5.9839327177
 10
-21.0999234912
 20
6.1742932139
 10
-21.2066372873
 20
6.3678459799
 10
-21.3078447835
 20
6.5633919039
 10
-21.4035118393
 20
6.7609434124
 10
-21.4936725953
 20
6.960488079
 10
-21.5777683988
 20
7.1607895121
 10
-21.6557616492
 20
7.3618526257
 10
-21.7276899471
 20
7.5636725059
 10
-21.7931074428
 20
7.7649980201
 10
-21.8519736436
 20
7.9658261675
 10
-21.9043290421
 20
8.166159949
 10
-21.9498492662
 20
8.3647572342
 10
-21.9884917555
 20
8.5616072934
 10
-22.0202990704
 20
8.7567208565
 10
-22.0450745202
 20
8.9488879825
 10
-22.0627525414
 20
9.1377053581
 10
-22.0733986976
 20
9.3235762967
 10
-22.0770129887
 20
9.5065007984
  0
LINE
  5
262
100
AcDbEntity
  8
SMUSSO
100
AcDbLine
 62
7
  6
CONTINUOUS
 10
-15.2234267175
 20
5.7594568191
 11
-15.2308195987
 21
5.6389210848
  0
LINE
  5
263
100
AcDbEntity
  8
ASSI
100
AcDbLine
 62
7
  6
CONTINUOUS
 10
-15.2234267175
 20
5.7594568191
 11
-15.2308195987
 21
5.6389210848
  0
LWPOLYLINE
  5
264
100
AcDbEntity
  8
SMUSSO
100
AcDbPolyline
 62
7
  6
CONTINUOUS
 90
17
 70
0
 10
-15.2308195987
 20
5.6389210848
 10
-15.2467231678
 20
5.4874634887
 10
-15.2689424424
 20
5.3406525312
 10
-15.2974315737
 20
5.1987929393
 10
-15.3321315271
 20
5.0621796584
 10
-15.3729704789
 20
4.9310959982
 10
-15.4198639163
 20
4.8058136839
 10
-15.4727145298
 20
4.6865929716
 10
-15.5314127872
 20
4.5736810588
 10
-15.5958370891
 20
4.4673119568
 10
-15.6658537489
 20
4.3677064331
 10
-15.7413175537
 20
4.2750710232
 10
-15.8220721572
 20
4.189597609
 10
-15.9079502243
 20
4.1114632965
 10
-15.9987737325
 20
4.0408300538
 10
-16.0943544615
 20
3.9778442577
 10
-16.1188866127
 20
3.9633564904
  0
LWPOLYLINE
  5
265
100
AcDbEntity
  8
ASSI
100
AcDbPolyline
 62
7
  6
CONTINUOUS
 90
17
 70
0
 10
-15.2308195987
 20
5.6389210848
 10
-15.2467231678
 20
5.4874634887
 10
-15.2689424424
 20
5.3406525312
 10
-15.2974315737
 20
5.1987929393
 10
-15.3321315271
 20
5.0621796584
 10
-15.3729704789
 20
4.9310959982
 10
-15.4198639163
 20
4.8058136839
 10
-15.4727145298
 20
4.6865929716
 10
-15.5314127872
 20
4.5736810588
 10
-15.5958370891
 20
4.4673119568
 10
-15.6658537489
 20
4.3677064331
 10
-15.7413175537
 20
4.2750710232
 10
-15.8220721572
 20
4.189597609
 10
-15.9079502243
 20
4.1114632965
 10
-15.9987737325
 20
4.0408300538
 10
-16.0943544615
 20
3.9778442577
 10
-16.1188866127
 20
3.9633564904
  0
LINE
  5
266
100
AcDbEntity
  8
ASSI
100
AcDbLine
 62
7
  6
CONTINUOUS
 10
-58.2149620151
 20
66.9540888344
 11
-58.2145867076
 21
66.9534524729
  0
LWPOLYLINE
  5
267
100
AcDbEntity
  8
SMUSSO
100
AcDbPolyline
 62
7
  6
CONTINUOUS
 90
19
 70
0
 10
-5.4600036308
 20
0.3203224485
 10
-5.4568164205
 20
0.480122747
 10
-5.4472612432
 20
0.6359132001
 10
-5.4313576742
 20
0.7873707962
 10
-5.4091383995
 20
0.9341817537
 10
-5.3806492682
 20
1.0760413456
 10
-5.3459493148
 20
1.2126546265
 10
-5.305110363
 20
1.3437382867
 10
-5.2582169256
 20
1.4690206009
 10
-5.2053663121
 20
1.5882413133
 10
-5.1466680547
 20
1.7011532261
 10
-5.0822437529
 20
1.8075223281
 10
-5.0122270931
 20
1.9071278518
 10
-4.9367632882
 20
1.9997632617
 10
-4.8560086847
 20
2.0852366759
 10
-4.7701306176
 20
2.1633709884
 10
-4.6793071094
 20
2.2340042311
 10
-4.5837263804
 20
2.2969900272
 10
-4.5591942292
 20
2.3114777945
  0
LWPOLYLINE
  5
268
100
AcDbEntity
  8
ASSI
100
AcDbPolyline
 62
7
  6
CONTINUOUS
 90
19
 70
0
 10
-5.4600036308
 20
0.3203224485
 10
-5.4568164205
 20
0.480122747
 10
-5.4472612432
 20
0.6359132001
 10
-5.4313576742
 20
0.7873707962
 10
-5.4091383995
 20
0.9341817537
 10
-5.3806492682
 20
1.0760413456
 10
-5.3459493148
 20
1.2126546265
 10
-5.305110363
 20
1.3437382867
 10
-5.2582169256
 20
1.4690206009
 10
-5.2053663121
 20
1.5882413133
 10
-5.1466680547
 20
1.7011532261
 10
-5.0822437529
 20
1.8075223281
 10
-5.0122270931
 20
1.9071278518
 10
-4.9367632882
 20
1.9997632617
 10
-4.8560086847
 20
2.0852366759
 10
-4.7701306176
 20
2.1633709884
 10
-4.6793071094
 20
2.2340042311
 10
-4.5837263804
 20
2.2969900272
 10
-4.5591942292
 20
2.3114777945
  0
LWPOLYLINE
  5
269
100
AcDbEntity
  8
SMUSSO
100
AcDbPolyline
 62
7
  6
CONTINUOUS
 90
36
 70
0
 10
-6.167110412
 20
0.3203224485
 10
-6.1634961043
 20
0.499073557
 10
-6.1528499144
 20
0.6726508455
 10
-6.1351718423
 20
0.8410543138
 10
-6.1103963187
 20
1.0046115696
 10
-6.078588913
 20
1.1629950053
 10
-6.0399463326
 20
1.3152217984
 10
-5.9944260177
 20
1.4612535204
 10
-5.9420705282
 20
1.6011285998
 10
-5.8832042509
 20
1.733979499
 10
-5.8177866988
 20
1.8597624544
 10
-5.7458583588
 20
1.9785212297
 10
-5.6678650791
 20
2.0895195782
 10
-5.5837692646
 20
2.1927091694
 10
-5.4936085103
 20
2.2881383339
 10
-5.3979414497
 20
2.375215817
 10
-5.2967339362
 20
2.4538897769
 10
-5.1900201163
 20
2.5242120553
 10
-5.0784610625
 20
2.5857469229
 10
-4.9620266383
 20
2.6384398681
 10
-4.8407469802
 20
2.6823454024
 10
-4.7153735705
 20
2.7171913311
 10
-4.585880949
 20
2.7429213894
 10
-4.452294576
 20
2.759591842
 10
-4.3154423146
 20
2.7670992884
 10
-4.175303896
 20
2.7653868097
 10
-4.0318995891
 20
2.7545113248
 10
-3.8861180645
 20
2.73454019
 10
-3.7379445734
 20
2.7054169216
 10
-3.5873938645
 20
2.6671980033
 10
-3.4353988547
 20
2.6201202419
 10
-3.2819505655
 20
2.564128622
 10
-3.1270579754
 20
2.4992781591
 10
-2.9716809363
 20
2.4259707071
 10
-2.8158164316
 20
2.3441537399
 10
-2.7379739542
 20
2.300230595
  0
LWPOLYLINE
  5
26A
100
AcDbEntity
  8
ASSI
100
AcDbPolyline
 62
7
  6
CONTINUOUS
 90
36
 70
0
 10
-6.167110412
 20
0.3203224485
 10
-6.1634961043
 20
0.499073557
 10
-6.1528499144
 20
0.6726508455
 10
-6.1351718423
 20
0.8410543138
 10
-6.1103963187
 20
1.0046115696
 10
-6.078588913
 20
1.1629950053
 10
-6.0399463326
 20
1.3152217984
 10
-5.9944260177
 20
1.4612535204
 10
-5.9420705282
 20
1.6011285998
 10
-5.8832042509
 20
1.733979499
 10
-5.8177866988
 20
1.8597624544
 10
-5.7458583588
 20
1.9785212297
 10
-5.6678650791
 20
2.0895195782
 10
-5.5837692646
 20
2.1927091694
 10
-5.4936085103
 20
2.2881383339
 10
-5.3979414497
 20
2.375215817
 10
-5.2967339362
 20
2.4538897769
 10
-5.1900201163
 20
2.5242120553
 10
-5.0784610625
 20
2.5857469229
 10
-4.9620266383
 20
2.6384398681
 10
-4.8407469802
 20
2.6823454024
 10
-4.7153735705
 20
2.7171913311
 10
-4.585880949
 20
2.7429213894
 10
-4.452294576
 20
2.759591842
 10
-4.3154423146
 20
2.7670992884
 10
-4.175303896
 20
2.7653868097
 10
-4.0318995891
 20
2.7545113248
 10
-3.8861180645
 20
2.73454019
 10
-3.7379445734
 20
2.7054169216
 10
-3.5873938645
 20
2.6671980033
 10
-3.4353988547
 20
2.6201202419
 10
-3.2819505655
 20
2.564128622
 10
-3.1270579754
 20
2.4992781591
 10
-2.9716809363
 20
2.4259707071
 10
-2.8158164316
 20
2.3441537399
 10
-2.7379739542
 20
2.300230595
  0
LWPOLYLINE
  5
26B
100
AcDbEntity
  8
SMUSSO
100
AcDbPolyline
 62
7
  6
CONTINUOUS
 90
53
 70
0
 10
-16.1188866127
 20
3.9633564904
 10
-16.1944944553
 20
3.9226363839
 10
-16.2989862302
 20
3.8753208752
 10
-16.4076131799
 20
3.8359958676
 10
-16.5201501708
 20
3.8047429075
 10
-16.6363639992
 20
3.7816268044
 10
-16.7560137743
 20
3.7666955185
 10
-16.8788514044
 20
3.7599800375
 10
-17.0046222671
 20
3.7614942961
 10
-17.1330657026
 20
3.77123517
 10
-17.2639154441
 20
3.7891824777
 10
-17.3969002641
 20
3.8152990239
 10
-17.53174454
 20
3.8495306856
 10
-17.6681687798
 20
3.8918065178
 10
-17.8058902229
 20
3.942038905
 10
-17.9446234058
 20
4.000123735
 10
-18.0840807532
 20
4.065940611
 10
-18.2239732167
 20
4.1393531206
 10
-18.3640108311
 20
4.2202091006
 10
-18.5039032941
 20
4.3083409342
 10
-18.6433606405
 20
4.4035659399
 10
-18.7820938219
 20
4.5056867446
 10
-18.919815264
 20
4.6144916611
 10
-19.0562395037
 20
4.7297551559
 10
-19.19108378
 20
4.8512383198
 10
-19.3240685999
 20
4.9786893468
 10
-19.4549183416
 20
5.1118440786
 10
-19.5833617769
 20
5.2504265033
 10
-19.7091326357
 20
5.3941493205
 10
-19.8319702567
 20
5.5427146489
 10
-19.9516200193
 20
5.6958145237
 10
-20.0678338334
 20
5.8531314687
 10
-20.1803708064
 20
6.0143393463
 10
-20.2889977365
 20
6.1791040516
 10
-20.3934894962
 20
6.3470840694
 10
-20.4936294798
 20
6.5179311348
 10
-20.5892102014
 20
6.6912912062
 10
-20.6800337062
 20
6.8668052172
 10
-20.7659117768
 20
7.044109448
 10
-20.8466663846
 20
7.2228363458
 10
-20.922130185
 20
7.4026155491
 10
-20.9921468323
 20
7.5830746313
 10
-21.0565711137
 20
7.7638393673
 10
-21.1152693357
 20
7.9445345866
 10
-21.1681199006
 20
8.1247858528
 10
-21.2150132811
 20
8.3042194888
 10
-21.255852169
 20
8.4824628591
 10
-21.2905520553
 20
8.6591466426
 10
-21.3190411217
 20
8.8339045957
 10
-21.3412603388
 20
9.0063736075
 10
-21.3571638617
 20
9.1761960098
 10
-21.3667190083
 20
9.3430202777
 10
-21.3699062075
 20
9.5065007984
  0
LWPOLYLINE
  5
26C
100
AcDbEntity
  8
ASSI
100
AcDbPolyline
 62
7
  6
CONTINUOUS
 90
53
 70
0
 10
-16.1188866127
 20
3.9633564904
 10
-16.1944944553
 20
3.9226363839
 10
-16.2989862302
 20
3.8753208752
 10
-16.4076131799
 20
3.8359958676
 10
-16.5201501708
 20
3.8047429075
 10
-16.6363639992
 20
3.7816268044
 10
-16.7560137743
 20
3.7666955185
 10
-16.8788514044
 20
3.7599800375
 10
-17.0046222671
 20
3.7614942961
 10
-17.1330657026
 20
3.77123517
 10
-17.2639154441
 20
3.7891824777
 10
-17.3969002641
 20
3.8152990239
 10
-17.53174454
 20
3.8495306856
 10
-17.6681687798
 20
3.8918065178
 10
-17.8058902229
 20
3.942038905
 10
-17.9446234058
 20
4.000123735
 10
-18.0840807532
 20
4.065940611
 10
-18.2239732167
 20
4.1393531206
 10
-18.3640108311
 20
4.2202091006
 10
-18.5039032941
 20
4.3083409342
 10
-18.6433606405
 20
4.4035659399
 10
-18.7820938219
 20
4.5056867446
 10
-18.919815264
 20
4.6144916611
 10
-19.0562395037
 20
4.7297551559
 10
-19.19108378
 20
4.8512383198
 10
-19.3240685999
 20
4.9786893468
 10
-19.4549183416
 20
5.1118440786
 10
-19.5833617769
 20
5.2504265033
 10
-19.7091326357
 20
5.3941493205
 10
-19.8319702567
 20
5.5427146489
 10
-19.9516200193
 20
5.6958145237
 10
-20.0678338334
 20
5.8531314687
 10
-20.1803708064
 20
6.0143393463
 10
-20.2889977365
 20
6.1791040516
 10
-20.3934894962
 20
6.3470840694
 10
-20.4936294798
 20
6.5179311348
 10
-20.5892102014
 20
6.6912912062
 10
-20.6800337062
 20
6.8668052172
 10
-20.7659117768
 20
7.044109448
 10
-20.8466663846
 20
7.2228363458
 10
-20.922130185
 20
7.4026155491
 10
-20.9921468323
 20
7.5830746313
 10
-21.0565711137
 20
7.7638393673
 10
-21.1152693357
 20
7.9445345866
 10
-21.1681199006
 20
8.1247858528
 10
-21.2150132811
 20
8.3042194888
 10
-21.255852169
 20
8.4824628591
 10
-21.2905520553
 20
8.6591466426
 10
-21.3190411217
 20
8.8339045957
 10
-21.3412603388
 20
9.0063736075
 10
-21.3571638617
 20
9.1761960098
 10
-21.3667190083
 20
9.3430202777
 10
-21.3699062075
 20
9.5065007984
  0
LINE
  5
26D
100
AcDbEntity
  8
ASSI
100
AcDbLine
 62
7
  6
CONTINUOUS
 10
52.7145685475
 20
1.7385957777
 11
54.1315276785
 21
2.0862140539
  0
LWPOLYLINE
  5
26E
100
AcDbEntity
  8
0
100
AcDbPolyline
 62
7
  6
CONTINUOUS
 90
51
 70
0
 10
-4.9650288839
 20
0.6061146638
 10
-4.9617863379
 20
0.4420362441
 10
-4.9522365933
 20
0.2753171099
 10
-4.9363796503
 20
0.1059572611
 10
-4.9141565791
 20
-0.066404773
 10
-4.8856263095
 20
-0.2414075215
 10
-4.8509656305
 20
-0.4179665724
 10
-4.810136476
 20
-0.5960915893
 10
-4.7631769122
 20
-0.7757729086
 10
-4.710377926
 20
-0.955897127
 10
-4.6517032582
 20
-1.1364669948
 10
-4.587189168
 20
-1.3174797617
 10
-4.5172354197
 20
-1.4978137743
 10
-4.4418082366
 20
-1.6774648179
 10
-4.3609413955
 20
-1.8564371071
 10
-4.2751359912
 20
-2.0336216324
 10
-4.1843613585
 20
-2.2090072928
 10
-4.0886481627
 20
-2.3826051892
 10
-3.9885894948
 20
-2.5533396147
 10
-3.8841583721
 20
-2.7211927889
 10
-3.7753817773
 20
-2.8861824922
 10
-3.6629337494
 20
-3.0472863586
 10
-3.546791491
 20
-3.2044802596
 10
-3.4269777994
 20
-3.3577883237
 10
-3.3042351054
 20
-3.5062605709
 10
-3.1785452218
 20
-3.6498669737
 10
-3.0499263358
 20
-3.7886375595
 10
-2.91917544
 20
-3.9217124303
 10
-2.7862792959
 20
-4.0490562193
 10
-2.651251142
 20
-4.1707042933
 10
-2.5149276861
 20
-4.2859028548
 10
-2.3773008852
 20
-4.3946118562
 10
-2.2383787824
 20
-4.496871345
 10
-2.0990222144
 20
-4.5920476658
 10
-1.9592284837
 20
-4.6800968366
 10
-1.8190002879
 20
-4.7610628394
 10
-1.6792065571
 20
-4.8344439648
 10
-1.5398499892
 20
-4.9001931155
 10
-1.4009278864
 20
-4.9583573889
 10
-1.2633010855
 20
-5.0085763674
 10
-1.1269776296
 20
-5.0508007158
 10
-0.9919494757
 20
-5.0850797693
 10
-0.8590533316
 20
-5.1112011163
 10
-0.7283024357
 20
-5.1291141026
 10
-0.5996835497
 20
-5.1388693824
 10
-0.4739936661
 20
-5.1404065067
 10
-0.3512509722
 20
-5.1336744459
 10
-0.2314372806
 20
-5.1187242296
 10
-0.1152950222
 20
-5.0956484974
 10
-0.0028469942
 20
-5.064396795
 10
0.0239585904
 20
-5.054693151
  0
LWPOLYLINE
  5
26F
100
AcDbEntity
  8
ASSI
100
AcDbPolyline
 62
7
  6
CONTINUOUS
 90
51
 70
0
 10
-4.9650288839
 20
0.6061146638
 10
-4.9617863379
 20
0.4420362441
 10
-4.9522365933
 20
0.2753171099
 10
-4.9363796503
 20
0.1059572611
 10
-4.9141565791
 20
-0.066404773
 10
-4.8856263095
 20
-0.2414075215
 10
-4.8509656305
 20
-0.4179665724
 10
-4.810136476
 20
-0.5960915893
 10
-4.7631769122
 20
-0.7757729086
 10
-4.710377926
 20
-0.955897127
 10
-4.6517032582
 20
-1.1364669948
 10
-4.587189168
 20
-1.3174797617
 10
-4.5172354197
 20
-1.4978137743
 10
-4.4418082366
 20
-1.6774648179
 10
-4.3609413955
 20
-1.8564371071
 10
-4.2751359912
 20
-2.0336216324
 10
-4.1843613585
 20
-2.2090072928
 10
-4.0886481627
 20
-2.3826051892
 10
-3.9885894948
 20
-2.5533396147
 10
-3.8841583721
 20
-2.7211927889
 10
-3.7753817773
 20
-2.8861824922
 10
-3.6629337494
 20
-3.0472863586
 10
-3.546791491
 20
-3.2044802596
 10
-3.4269777994
 20
-3.3577883237
 10
-3.3042351054
 20
-3.5062605709
 10
-3.1785452218
 20
-3.6498669737
 10
-3.0499263358
 20
-3.7886375595
 10
-2.91917544
 20
-3.9217124303
 10
-2.7862792959
 20
-4.0490562193
 10
-2.651251142
 20
-4.1707042933
 10
-2.5149276861
 20
-4.2859028548
 10
-2.3773008852
 20
-4.3946118562
 10
-2.2383787824
 20
-4.496871345
 10
-2.0990222144
 20
-4.5920476658
 10
-1.9592284837
 20
-4.6800968366
 10
-1.8190002879
 20
-4.7610628394
 10
-1.6792065571
 20
-4.8344439648
 10
-1.5398499892
 20
-4.9001931155
 10
-1.4009278864
 20
-4.9583573889
 10
-1.2633010855
 20
-5.0085763674
 10
-1.1269776296
 20
-5.0508007158
 10
-0.9919494757
 20
-5.0850797693
 10
-0.8590533316
 20
-5.1112011163
 10
-0.7283024357
 20
-5.1291141026
 10
-0.5996835497
 20
-5.1388693824
 10
-0.4739936661
 20
-5.1404065067
 10
-0.3512509722
 20
-5.1336744459
 10
-0.2314372806
 20
-5.1187242296
 10
-0.1152950222
 20
-5.0956484974
 10
-0.0028469942
 20
-5.064396795
 10
0.0239585904
 20
-5.054693151
  0
LWPOLYLINE
  5
270
100
AcDbEntity
  8
SMUSSO
100
AcDbPolyline
 62
7
  6
CONTINUOUS
 90
70
 70
0
 10
0.6918253656
 20
-3.6399411068
 10
0.6882110579
 20
-3.8186922153
 10
0.677564868
 20
-3.9922695038
 10
0.6598867959
 20
-4.1606729721
 10
0.6351112723
 20
-4.3242302279
 10
0.6033038666
 20
-4.4826136636
 10
0.5646612862
 20
-4.6348404567
 10
0.5191409713
 20
-4.7808721787
 10
0.4667854818
 20
-4.9207472581
 10
0.4079192045
 20
-5.0535981573
 10
0.3425016524
 20
-5.1793811127
 10
0.2705733124
 20
-5.298139888
 10
0.1925800327
 20
-5.4091382365
 10
0.1084842182
 20
-5.5123278277
 10
0.0183234639
 20
-5.6077569922
 10
-0.0773435967
 20
-5.6948344753
 10
-0.1785511102
 20
-5.7735084352
 10
-0.2852649301
 20
-5.8438307136
 10
-0.3968239839
 20
-5.9053655812
 10
-0.5132584081
 20
-5.9580585264
 10
-0.6345380662
 20
-6.0019640607
 10
-0.7599114759
 20
-6.0368099894
 10
-0.8894040974
 20
-6.0625400477
 10
-1.0229904705
 20
-6.0792105003
 10
-1.1598427318
 20
-6.0867179467
 10
-1.2999811504
 20
-6.085005468
 10
-1.4433854573
 20
-6.0741299831
 10
-1.5891669819
 20
-6.0541588483
 10
-1.737340473
 20
-6.0250355799
 10
-1.8878911819
 20
-5.9868166616
 10
-2.0398861917
 20
-5.9397389002
 10
-2.1933344809
 20
-5.8837472803
 10
-2.348227071
 20
-5.8188968174
 10
-2.5036041101
 20
-5.7455893654
 10
-2.6594686148
 20
-5.6637723982
 10
-2.8158175685
 20
-5.5734984419
 10
-2.9716820701
 20
-5.4753269281
 10
-3.1270591021
 20
-5.3692088154
 10
-3.281951682
 20
-5.2551931452
 10
-3.4353999614
 20
-5.1339864739
 10
-3.5873949636
 20
-5.005544153
 10
-3.7379456653
 20
-4.8699108309
 10
-3.8861191486
 20
-4.7279270099
 10
-4.031900666
 20
-4.5795532359
 10
-4.1753049651
 20
-4.424828963
 10
-4.3154433702
 20
-4.2647130555
 10
-4.4522956114
 20
-4.0991720007
 10
-4.5858819588
 20
-3.9282393114
 10
-4.7153745471
 20
-3.7529743897
 10
-4.8407479102
 20
-3.5733503821
 10
-4.9620275143
 20
-3.389394142
 10
-5.0784618927
 20
-3.2022456321
 10
-5.1900209145
 20
-3.011885136
 10
-5.2967347106
 20
-2.81833237
 10
-5.3979422068
 20
-2.622786446
 10
-5.4936092626
 20
-2.4252349375
 10
-5.5837700186
 20
-2.2256902709
 10
-5.6678658221
 20
-2.0253888377
 10
-5.7458590725
 20
-1.8243257242
 10
-5.8177873704
 20
-1.622505844
 10
-5.8832048661
 20
-1.4211803298
 10
-5.9420710669
 20
-1.2203521824
 10
-5.9944264654
 20
-1.0200184009
 10
-6.0399466895
 20
-0.8214211157
 10
-6.0785891788
 20
-0.6245710564
 10
-6.1103964937
 20
-0.4294574934
 10
-6.1351719435
 20
-0.2372903673
 10
-6.1528499647
 20
-0.0484729918
 10
-6.1634961209
 20
0.1373979468
 10
-6.167110412
 20
0.3203224485
  0
LWPOLYLINE
  5
271
100
AcDbEntity
  8
ASSI
100
AcDbPolyline
 62
7
  6
CONTINUOUS
 90
70
 70
0
 10
0.6918253656
 20
-3.6399411068
 10
0.6882110579
 20
-3.8186922153
 10
0.677564868
 20
-3.9922695038
 10
0.6598867959
 20
-4.1606729721
 10
0.6351112723
 20
-4.3242302279
 10
0.6033038666
 20
-4.4826136636
 10
0.5646612862
 20
-4.6348404567
 10
0.5191409713
 20
-4.7808721787
 10
0.4667854818
 20
-4.9207472581
 10
0.4079192045
 20
-5.0535981573
 10
0.3425016524
 20
-5.1793811127
 10
0.2705733124
 20
-5.298139888
 10
0.1925800327
 20
-5.4091382365
 10
0.1084842182
 20
-5.5123278277
 10
0.0183234639
 20
-5.6077569922
 10
-0.0773435967
 20
-5.6948344753
 10
-0.1785511102
 20
-5.7735084352
 10
-0.2852649301
 20
-5.8438307136
 10
-0.3968239839
 20
-5.9053655812
 10
-0.5132584081
 20
-5.9580585264
 10
-0.6345380662
 20
-6.0019640607
 10
-0.7599114759
 20
-6.0368099894
 10
-0.8894040974
 20
-6.0625400477
 10
-1.0229904705
 20
-6.0792105003
 10
-1.1598427318
 20
-6.0867179467
 10
-1.2999811504
 20
-6.085005468
 10
-1.4433854573
 20
-6.0741299831
 10
-1.5891669819
 20
-6.0541588483
 10
-1.737340473
 20
-6.0250355799
 10
-1.8878911819
 20
-5.9868166616
 10
-2.0398861917
 20
-5.9397389002
 10
-2.1933344809
 20
-5.8837472803
 10
-2.348227071
 20
-5.8188968174
 10
-2.5036041101
 20
-5.7455893654
 10
-2.6594686148
 20
-5.6637723982
 10
-2.8158175685
 20
-5.5734984419
 10
-2.9716820701
 20
-5.4753269281
 10
-3.1270591021
 20
-5.3692088154
 10
-3.281951682
 20
-5.2551931452
 10
-3.4353999614
 20
-5.1339864739
 10
-3.5873949636
 20
-5.005544153
 10
-3.7379456653
 20
-4.8699108309
 10
-3.8861191486
 20
-4.7279270099
 10
-4.031900666
 20
-4.5795532359
 10
-4.1753049651
 20
-4.424828963
 10
-4.3154433702
 20
-4.2647130555
 10
-4.4522956114
 20
-4.0991720007
 10
-4.5858819588
 20
-3.9282393114
 10
-4.7153745471
 20
-3.7529743897
 10
-4.8407479102
 20
-3.5733503821
 10
-4.9620275143
 20
-3.389394142
 10
-5.0784618927
 20
-3.2022456321
 10
-5.1900209145
 20
-3.011885136
 10
-5.2967347106
 20
-2.81833237
 10
-5.3979422068
 20
-2.622786446
 10
-5.4936092626
 20
-2.4252349375
 10
-5.5837700186
 20
-2.2256902709
 10
-5.6678658221
 20
-2.0253888377
 10
-5.7458590725
 20
-1.8243257242
 10
-5.8177873704
 20
-1.622505844
 10
-5.8832048661
 20
-1.4211803298
 10
-5.9420710669
 20
-1.2203521824
 10
-5.9944264654
 20
-1.0200184009
 10
-6.0399466895
 20
-0.8214211157
 10
-6.0785891788
 20
-0.6245710564
 10
-6.1103964937
 20
-0.4294574934
 10
-6.1351719435
 20
-0.2372903673
 10
-6.1528499647
 20
-0.0484729918
 10
-6.1634961209
 20
0.1373979468
 10
-6.167110412
 20
0.3203224485
  0
LWPOLYLINE
  5
272
100
AcDbEntity
  8
0
100
AcDbPolyline
 62
7
  6
CONTINUOUS
 90
14
 70
0
 10
-4.4418082366
 20
2.285492057
 10
-4.5172354197
 20
2.1929424338
 10
-4.587189168
 20
2.0933892562
 10
-4.6517032582
 20
1.9868757436
 10
-4.710377926
 20
1.8740619114
 10
-4.7631769122
 20
1.7549086389
 10
-4.810136476
 20
1.6294550469
 10
-4.8509656305
 20
1.4984785141
 10
-4.8856263095
 20
1.3619447465
 10
-4.9141565791
 20
1.2198880382
 10
-4.9363796503
 20
1.0731886497
 10
-4.9522365933
 20
0.9221400012
 10
-4.9617863379
 20
0.7664486726
 10
-4.9650288839
 20
0.6061146638
  0
LWPOLYLINE
  5
273
100
AcDbEntity
  8
ASSI
100
AcDbPolyline
 62
7
  6
CONTINUOUS
 90
14
 70
0
 10
-4.4418082366
 20
2.285492057
 10
-4.5172354197
 20
2.1929424338
 10
-4.587189168
 20
2.0933892562
 10
-4.6517032582
 20
1.9868757436
 10
-4.710377926
 20
1.8740619114
 10
-4.7631769122
 20
1.7549086389
 10
-4.810136476
 20
1.6294550469
 10
-4.8509656305
 20
1.4984785141
 10
-4.8856263095
 20
1.3619447465
 10
-4.9141565791
 20
1.2198880382
 10
-4.9363796503
 20
1.0731886497
 10
-4.9522365933
 20
0.9221400012
 10
-4.9617863379
 20
0.7664486726
 10
-4.9650288839
 20
0.6061146638
  0
LWPOLYLINE
  5
274
100
AcDbEntity
  8
0
100
AcDbPolyline
 62
7
  6
CONTINUOUS
 90
3
 70
0
 10
-4.2970848064
 20
2.4292025083
 10
-4.3609413955
 20
2.3710813451
 10
-4.4418082366
 20
2.285492057
  0
LWPOLYLINE
  5
275
100
AcDbEntity
  8
ASSI
100
AcDbPolyline
 62
7
  6
CONTINUOUS
 90
3
 70
0
 10
-4.2970848064
 20
2.4292025083
 10
-4.3609413955
 20
2.3710813451
 10
-4.4418082366
 20
2.285492057
  0
LWPOLYLINE
  5
276
100
AcDbEntity
  8
SMUSSO
100
AcDbPolyline
 62
7
  6
CONTINUOUS
 90
15
 70
0
 10
-4.5591942292
 20
2.3114777945
 10
-4.4835863866
 20
2.352197901
 10
-4.3790946117
 20
2.3995134097
 10
-4.2704676621
 20
2.4388384173
 10
-4.1579306711
 20
2.4700913774
 10
-4.0417168427
 20
2.4932074804
 10
-3.9220670676
 20
2.5081387664
 10
-3.7992294376
 20
2.5148542474
 10
-3.6734585749
 20
2.5133399888
 10
-3.5450151393
 20
2.5035991149
 10
-3.4141653979
 20
2.4856518072
 10
-3.2811805779
 20
2.459535261
 10
-3.1463363019
 20
2.4253035993
 10
-3.0099120622
 20
2.3830277671
 10
-2.8721906191
 20
2.3327953799
  0
LWPOLYLINE
  5
277
100
AcDbEntity
  8
ASSI
100
AcDbPolyline
 62
7
  6
CONTINUOUS
 90
15
 70
0
 10
-4.5591942292
 20
2.3114777945
 10
-4.4835863866
 20
2.352197901
 10
-4.3790946117
 20
2.3995134097
 10
-4.2704676621
 20
2.4388384173
 10
-4.1579306711
 20
2.4700913774
 10
-4.0417168427
 20
2.4932074804
 10
-3.9220670676
 20
2.5081387664
 10
-3.7992294376
 20
2.5148542474
 10
-3.6734585749
 20
2.5133399888
 10
-3.5450151393
 20
2.5035991149
 10
-3.4141653979
 20
2.4856518072
 10
-3.2811805779
 20
2.459535261
 10
-3.1463363019
 20
2.4253035993
 10
-3.0099120622
 20
2.3830277671
 10
-2.8721906191
 20
2.3327953799
  0
LINE
  5
278
100
AcDbEntity
  8
SMUSSO
100
AcDbLine
 62
7
  6
CONTINUOUS
 10
28.9476145343
 20
-16.0395613199
 11
29.0863477173
 21
-16.0976461499
  0
LINE
  5
279
100
AcDbEntity
  8
ASSI
100
AcDbLine
 62
7
  6
CONTINUOUS
 10
28.9476145343
 20
-16.0395613199
 11
29.0863477173
 21
-16.0976461499
  0
LINE
  5
27A
100
AcDbEntity
  8
SMUSSO
100
AcDbLine
 62
7
  6
CONTINUOUS
 10
13.0377119576
 20
-6.85338297
 11
13.1764451406
 21
-6.9114678
  0
LINE
  5
27B
100
AcDbEntity
  8
ASSI
100
AcDbLine
 62
7
  6
CONTINUOUS
 10
13.0377119576
 20
-6.85338297
 11
13.1764451406
 21
-6.9114678
  0
LWPOLYLINE
  5
27C
100
AcDbEntity
  8
SMUSSO
100
AcDbPolyline
 62
7
  6
CONTINUOUS
 90
3
 70
0
 10
29.0863477173
 20
-16.0976461499
 10
29.2258050647
 20
-16.1634630259
 10
29.2615073756
 20
-16.1821988189
  0
LWPOLYLINE
  5
27D
100
AcDbEntity
  8
ASSI
100
AcDbPolyline
 62
7
  6
CONTINUOUS
 90
3
 70
0
 10
29.0863477173
 20
-16.0976461499
 10
29.2258050647
 20
-16.1634630259
 10
29.2615073756
 20
-16.1821988189
  0
LWPOLYLINE
  5
27E
100
AcDbEntity
  8
SMUSSO
100
AcDbPolyline
 62
7
  6
CONTINUOUS
 90
3
 70
0
 10
13.1764451406
 20
-6.9114678
 10
13.315902488
 20
-6.977284676
 10
13.3516047989
 20
-6.996020469
  0
LWPOLYLINE
  5
27F
100
AcDbEntity
  8
ASSI
100
AcDbPolyline
 62
7
  6
CONTINUOUS
 90
3
 70
0
 10
13.1764451406
 20
-6.9114678
 10
13.315902488
 20
-6.977284676
 10
13.3516047989
 20
-6.996020469
  0
LWPOLYLINE
  5
280
100
AcDbEntity
  8
SMUSSO
100
AcDbPolyline
 62
7
  6
CONTINUOUS
 90
36
 70
0
 10
-34.5577791076
 20
20.6725872947
 10
-34.4792726313
 20
20.6262364833
 10
-34.3234081297
 20
20.5280649695
 10
-34.1680310977
 20
20.4219468568
 10
-34.0131385178
 20
20.3079311867
 10
-33.8596902384
 20
20.1867245154
 10
-33.7076952362
 20
20.0582821944
 10
-33.5571445345
 20
19.9226488723
 10
-33.4089710512
 20
19.7806650513
 10
-33.2631895338
 20
19.6322912774
 10
-33.1197852347
 20
19.4775670044
 10
-32.9796468296
 20
19.3174510969
 10
-32.8427945884
 20
19.1519100422
 10
-32.709208241
 20
18.9809773529
 10
-32.5797156527
 20
18.8057124311
 10
-32.4543422896
 20
18.6260884235
 10
-32.3330626855
 20
18.4421321835
 10
-32.2166283071
 20
18.2549836736
 10
-32.1050692853
 20
18.0646231774
 10
-31.9983554892
 20
17.8710704114
 10
-31.897147993
 20
17.6755244874
 10
-31.8014809372
 20
17.4779729789
 10
-31.7113201812
 20
17.2784283124
 10
-31.6272243777
 20
17.0781268792
 10
-31.5492311273
 20
16.8770637656
 10
-31.4773028294
 20
16.6752438854
 10
-31.4118853337
 20
16.4739183712
 10
-31.3530191329
 20
16.2730902238
 10
-31.3006637344
 20
16.0727564424
 10
-31.2551435103
 20
15.8741591571
 10
-31.216501021
 20
15.6773090979
 10
-31.1846937061
 20
15.4821955349
 10
-31.1599182563
 20
15.2900284088
 10
-31.1422402351
 20
15.1012110332
 10
-31.1315940789
 20
14.9153400946
 10
-31.1279797878
 20
14.732415593
  0
LWPOLYLINE
  5
281
100
AcDbEntity
  8
ASSI
100
AcDbPolyline
 62
7
  6
CONTINUOUS
 90
36
 70
0
 10
-34.5577791076
 20
20.6725872947
 10
-34.4792726313
 20
20.6262364833
 10
-34.3234081297
 20
20.5280649695
 10
-34.1680310977
 20
20.4219468568
 10
-34.0131385178
 20
20.3079311867
 10
-33.8596902384
 20
20.1867245154
 10
-33.7076952362
 20
20.0582821944
 10
-33.5571445345
 20
19.9226488723
 10
-33.4089710512
 20
19.7806650513
 10
-33.2631895338
 20
19.6322912774
 10
-33.1197852347
 20
19.4775670044
 10
-32.9796468296
 20
19.3174510969
 10
-32.8427945884
 20
19.1519100422
 10
-32.709208241
 20
18.9809773529
 10
-32.5797156527
 20
18.8057124311
 10
-32.4543422896
 20
18.6260884235
 10
-32.3330626855
 20
18.4421321835
 10
-32.2166283071
 20
18.2549836736
 10
-32.1050692853
 20
18.0646231774
 10
-31.9983554892
 20
17.8710704114
 10
-31.897147993
 20
17.6755244874
 10
-31.8014809372
 20
17.4779729789
 10
-31.7113201812
 20
17.2784283124
 10
-31.6272243777
 20
17.0781268792
 10
-31.5492311273
 20
16.8770637656
 10
-31.4773028294
 20
16.6752438854
 10
-31.4118853337
 20
16.4739183712
 10
-31.3530191329
 20
16.2730902238
 10
-31.3006637344
 20
16.0727564424
 10
-31.2551435103
 20
15.8741591571
 10
-31.216501021
 20
15.6773090979
 10
-31.1846937061
 20
15.4821955349
 10
-31.1599182563
 20
15.2900284088
 10
-31.1422402351
 20
15.1012110332
 10
-31.1315940789
 20
14.9153400946
 10
-31.1279797878
 20
14.732415593
  0
LWPOLYLINE
  5
282
100
AcDbEntity
  8
SMUSSO
100
AcDbPolyline
 62
7
  6
CONTINUOUS
 90
36
 70
0
 10
-18.6478765309
 20
11.4864089448
 10
-18.5693700546
 20
11.4400581334
 10
-18.413505553
 20
11.3418866197
 10
-18.258128521
 20
11.2357685069
 10
-18.1032359411
 20
11.1217528368
 10
-17.9497876617
 20
11.0005461655
 10
-17.7977926595
 20
10.8721038445
 10
-17.6472419578
 20
10.7364705225
 10
-17.4990684745
 20
10.5944867015
 10
-17.3532869571
 20
10.4461129275
 10
-17.209882658
 20
10.2913886546
 10
-17.0697442529
 20
10.131272747
 10
-16.9328920117
 20
9.9657316923
 10
-16.7993056643
 20
9.794799003
 10
-16.669813076
 20
9.6195340813
 10
-16.5444397129
 20
9.4399100736
 10
-16.4231601088
 20
9.2559538336
 10
-16.3067257304
 20
9.0688053237
 10
-16.1951667086
 20
8.8784448275
 10
-16.0884529125
 20
8.6848920616
 10
-15.9872454163
 20
8.4893461376
 10
-15.8915783605
 20
8.291794629
 10
-15.8014176046
 20
8.0922499625
 10
-15.717321801
 20
7.8919485293
 10
-15.6393285506
 20
7.6908854158
 10
-15.5674002527
 20
7.4890655356
 10
-15.501982757
 20
7.2877400214
 10
-15.4431165562
 20
7.0869118739
 10
-15.3907611577
 20
6.8865780925
 10
-15.3452409336
 20
6.6879808072
 10
-15.3065984443
 20
6.491130748
 10
-15.2747911294
 20
6.296017185
 10
-15.2500156796
 20
6.1038500589
 10
-15.2323376584
 20
5.9150326833
 10
-15.2216915022
 20
5.7291617447
 10
-15.2180772111
 20
5.5462372431
  0
LWPOLYLINE
  5
283
100
AcDbEntity
  8
ASSI
100
AcDbPolyline
 62
7
  6
CONTINUOUS
 90
36
 70
0
 10
-18.6478765309
 20
11.4864089448
 10
-18.5693700546
 20
11.4400581334
 10
-18.413505553
 20
11.3418866197
 10
-18.258128521
 20
11.2357685069
 10
-18.1032359411
 20
11.1217528368
 10
-17.9497876617
 20
11.0005461655
 10
-17.7977926595
 20
10.8721038445
 10
-17.6472419578
 20
10.7364705225
 10
-17.4990684745
 20
10.5944867015
 10
-17.3532869571
 20
10.4461129275
 10
-17.209882658
 20
10.2913886546
 10
-17.0697442529
 20
10.131272747
 10
-16.9328920117
 20
9.9657316923
 10
-16.7993056643
 20
9.794799003
 10
-16.669813076
 20
9.6195340813
 10
-16.5444397129
 20
9.4399100736
 10
-16.4231601088
 20
9.2559538336
 10
-16.3067257304
 20
9.0688053237
 10
-16.1951667086
 20
8.8784448275
 10
-16.0884529125
 20
8.6848920616
 10
-15.9872454163
 20
8.4893461376
 10
-15.8915783605
 20
8.291794629
 10
-15.8014176046
 20
8.0922499625
 10
-15.717321801
 20
7.8919485293
 10
-15.6393285506
 20
7.6908854158
 10
-15.5674002527
 20
7.4890655356
 10
-15.501982757
 20
7.2877400214
 10
-15.4431165562
 20
7.0869118739
 10
-15.3907611577
 20
6.8865780925
 10
-15.3452409336
 20
6.6879808072
 10
-15.3065984443
 20
6.491130748
 10
-15.2747911294
 20
6.296017185
 10
-15.2500156796
 20
6.1038500589
 10
-15.2323376584
 20
5.9150326833
 10
-15.2216915022
 20
5.7291617447
 10
-15.2180772111
 20
5.5462372431
  0
LWPOLYLINE
  5
284
100
AcDbEntity
  8
SMUSSO
100
AcDbPolyline
 62
7
  6
CONTINUOUS
 90
36
 70
0
 10
-2.7379739542
 20
2.300230595
 10
-2.6594674779
 20
2.2538797836
 10
-2.5036029763
 20
2.1557082698
 10
-2.3482259443
 20
2.0495901571
 10
-2.1933333644
 20
1.9355744869
 10
-2.039885085
 20
1.8143678156
 10
-1.8878900828
 20
1.6859254947
 10
-1.7373393811
 20
1.5502921726
 10
-1.5891658978
 20
1.4083083516
 10
-1.4433843804
 20
1.2599345776
 10
-1.2999800814
 20
1.1052103047
 10
-1.1598416762
 20
0.9450943972
 10
-1.022989435
 20
0.7795533424
 10
-0.8894030876
 20
0.6086206531
 10
-0.7599104993
 20
0.4333557314
 10
-0.6345371362
 20
0.2537317238
 10
-0.5132575321
 20
0.0697754837
 10
-0.3968231537
 20
-0.1173730262
 10
-0.2852641319
 20
-0.3077335223
 10
-0.1785503358
 20
-0.5012862883
 10
-0.0773428396
 20
-0.6968322123
 10
0.0183242162
 20
-0.8943837208
 10
0.1084849721
 20
-1.0939283874
 10
0.1925807757
 20
-1.2942298206
 10
0.2705740261
 20
-1.4952929341
 10
0.342502324
 20
-1.6971128143
 10
0.4079198197
 20
-1.8984383285
 10
0.4667860205
 20
-2.0992664759
 10
0.519141419
 20
-2.2996002574
 10
0.5646616431
 20
-2.4981975426
 10
0.6033041324
 20
-2.6950476019
 10
0.6351114473
 20
-2.8901611649
 10
0.6598868971
 20
-3.082328291
 10
0.6775649183
 20
-3.2711456665
 10
0.6882110745
 20
-3.4570166051
 10
0.6918253656
 20
-3.6399411068
  0
LWPOLYLINE
  5
285
100
AcDbEntity
  8
ASSI
100
AcDbPolyline
 62
7
  6
CONTINUOUS
 90
36
 70
0
 10
-2.7379739542
 20
2.300230595
 10
-2.6594674779
 20
2.2538797836
 10
-2.5036029763
 20
2.1557082698
 10
-2.3482259443
 20
2.0495901571
 10
-2.1933333644
 20
1.9355744869
 10
-2.039885085
 20
1.8143678156
 10
-1.8878900828
 20
1.6859254947
 10
-1.7373393811
 20
1.5502921726
 10
-1.5891658978
 20
1.4083083516
 10
-1.4433843804
 20
1.2599345776
 10
-1.2999800814
 20
1.1052103047
 10
-1.1598416762
 20
0.9450943972
 10
-1.022989435
 20
0.7795533424
 10
-0.8894030876
 20
0.6086206531
 10
-0.7599104993
 20
0.4333557314
 10
-0.6345371362
 20
0.2537317238
 10
-0.5132575321
 20
0.0697754837
 10
-0.3968231537
 20
-0.1173730262
 10
-0.2852641319
 20
-0.3077335223
 10
-0.1785503358
 20
-0.5012862883
 10
-0.0773428396
 20
-0.6968322123
 10
0.0183242162
 20
-0.8943837208
 10
0.1084849721
 20
-1.0939283874
 10
0.1925807757
 20
-1.2942298206
 10
0.2705740261
 20
-1.4952929341
 10
0.342502324
 20
-1.6971128143
 10
0.4079198197
 20
-1.8984383285
 10
0.4667860205
 20
-2.0992664759
 10
0.519141419
 20
-2.2996002574
 10
0.5646616431
 20
-2.4981975426
 10
0.6033041324
 20
-2.6950476019
 10
0.6351114473
 20
-2.8901611649
 10
0.6598868971
 20
-3.082328291
 10
0.6775649183
 20
-3.2711456665
 10
0.6882110745
 20
-3.4570166051
 10
0.6918253656
 20
-3.6399411068
  0
LWPOLYLINE
  5
286
100
AcDbEntity
  8
SMUSSO
100
AcDbPolyline
 62
7
  6
CONTINUOUS
 90
36
 70
0
 10
13.1719286225
 20
-6.8859477549
 10
13.2504350988
 20
-6.9322985663
 10
13.4062996004
 20
-7.0304700801
 10
13.5616766324
 20
-7.1365881928
 10
13.7165692123
 20
-7.250603863
 10
13.8700174917
 20
-7.3718105342
 10
14.0220124939
 20
-7.5002528552
 10
14.1725631956
 20
-7.6358861773
 10
14.3207366789
 20
-7.7778699983
 10
14.4665181963
 20
-7.9262437723
 10
14.6099224953
 20
-8.0809680452
 10
14.7500609005
 20
-8.2410839527
 10
14.8869131417
 20
-8.4066250074
 10
15.0204994891
 20
-8.5775576968
 10
15.1499920774
 20
-8.7528226185
 10
15.2753654405
 20
-8.9324466261
 10
15.3966450446
 20
-9.1164028662
 10
15.513079423
 20
-9.303551376
 10
15.6246384448
 20
-9.4939118722
 10
15.7313522409
 20
-9.6874646382
 10
15.8325597371
 20
-9.8830105622
 10
15.9282267929
 20
-10.0805620707
 10
16.0183875488
 20
-10.2801067373
 10
16.1024833524
 20
-10.4804081704
 10
16.1804766028
 20
-10.681471284
 10
16.2524049007
 20
-10.8832911642
 10
16.3178223964
 20
-11.0846166784
 10
16.3766885972
 20
-11.2854448258
 10
16.4290439957
 20
-11.4857786073
 10
16.4745642198
 20
-11.6843758925
 10
16.5132067091
 20
-11.8812259517
 10
16.545014024
 20
-12.0763395148
 10
16.5697894738
 20
-12.2685066409
 10
16.587467495
 20
-12.4573240164
 10
16.5981136512
 20
-12.643194955
 10
16.6017279422
 20
-12.8261194567
  0
LWPOLYLINE
  5
287
100
AcDbEntity
  8
ASSI
100
AcDbPolyline
 62
7
  6
CONTINUOUS
 90
36
 70
0
 10
13.1719286225
 20
-6.8859477549
 10
13.2504350988
 20
-6.9322985663
 10
13.4062996004
 20
-7.0304700801
 10
13.5616766324
 20
-7.1365881928
 10
13.7165692123
 20
-7.250603863
 10
13.8700174917
 20
-7.3718105342
 10
14.0220124939
 20
-7.5002528552
 10
14.1725631956
 20
-7.6358861773
 10
14.3207366789
 20
-7.7778699983
 10
14.4665181963
 20
-7.9262437723
 10
14.6099224953
 20
-8.0809680452
 10
14.7500609005
 20
-8.2410839527
 10
14.8869131417
 20
-8.4066250074
 10
15.0204994891
 20
-8.5775576968
 10
15.1499920774
 20
-8.7528226185
 10
15.2753654405
 20
-8.9324466261
 10
15.3966450446
 20
-9.1164028662
 10
15.513079423
 20
-9.303551376
 10
15.6246384448
 20
-9.4939118722
 10
15.7313522409
 20
-9.6874646382
 10
15.8325597371
 20
-9.8830105622
 10
15.9282267929
 20
-10.0805620707
 10
16.0183875488
 20
-10.2801067373
 10
16.1024833524
 20
-10.4804081704
 10
16.1804766028
 20
-10.681471284
 10
16.2524049007
 20
-10.8832911642
 10
16.3178223964
 20
-11.0846166784
 10
16.3766885972
 20
-11.2854448258
 10
16.4290439957
 20
-11.4857786073
 10
16.4745642198
 20
-11.6843758925
 10
16.5132067091
 20
-11.8812259517
 10
16.545014024
 20
-12.0763395148
 10
16.5697894738
 20
-12.2685066409
 10
16.587467495
 20
-12.4573240164
 10
16.5981136512
 20
-12.643194955
 10
16.6017279422
 20
-12.8261194567
  0
LINE
  5
288
100
AcDbEntity
  8
SMUSSO
100
AcDbLine
 62
7
  6
CONTINUOUS
 10
0.6864758592
 20
-3.4267215308
 11
0.679082978
 21
-3.5472572651
  0
LINE
  5
289
100
AcDbEntity
  8
ASSI
100
AcDbLine
 62
7
  6
CONTINUOUS
 10
0.6864758592
 20
-3.4267215308
 11
0.679082978
 21
-3.5472572651
  0
LWPOLYLINE
  5
28A
100
AcDbEntity
  8
SMUSSO
100
AcDbPolyline
 62
7
  6
CONTINUOUS
 90
17
 70
0
 10
0.679082978
 20
-3.5472572651
 10
0.6631794089
 20
-3.6987148611
 10
0.6409601343
 20
-3.8455258187
 10
0.612471003
 20
-3.9873854106
 10
0.5777710496
 20
-4.1239986915
 10
0.5369320978
 20
-4.2550823517
 10
0.4900386604
 20
-4.3803646659
 10
0.4371880469
 20
-4.4995853783
 10
0.3784897895
 20
-4.6124972911
 10
0.3140654876
 20
-4.7188663931
 10
0.2440488278
 20
-4.8184719168
 10
0.168585023
 20
-4.9111073267
 10
0.0878304195
 20
-4.9965807409
 10
0.0019523523
 20
-5.0747150534
 10
-0.0888711558
 20
-5.145348296
 10
-0.1844518848
 20
-5.2083340922
 10
-0.208984036
 20
-5.2228218594
  0
LWPOLYLINE
  5
28B
100
AcDbEntity
  8
ASSI
100
AcDbPolyline
 62
7
  6
CONTINUOUS
 90
17
 70
0
 10
0.679082978
 20
-3.5472572651
 10
0.6631794089
 20
-3.6987148611
 10
0.6409601343
 20
-3.8455258187
 10
0.612471003
 20
-3.9873854106
 10
0.5777710496
 20
-4.1239986915
 10
0.5369320978
 20
-4.2550823517
 10
0.4900386604
 20
-4.3803646659
 10
0.4371880469
 20
-4.4995853783
 10
0.3784897895
 20
-4.6124972911
 10
0.3140654876
 20
-4.7188663931
 10
0.2440488278
 20
-4.8184719168
 10
0.168585023
 20
-4.9111073267
 10
0.0878304195
 20
-4.9965807409
 10
0.0019523523
 20
-5.0747150534
 10
-0.0888711558
 20
-5.145348296
 10
-0.1844518848
 20
-5.2083340922
 10
-0.208984036
 20
-5.2228218594
  0
LWPOLYLINE
  5
28C
100
AcDbEntity
  8
SMUSSO
100
AcDbPolyline
 62
7
  6
CONTINUOUS
 90
53
 70
0
 10
-0.208984036
 20
-5.2228218594
 10
-0.2845918786
 20
-5.263541966
 10
-0.3890836535
 20
-5.3108574747
 10
-0.4977106032
 20
-5.3501824823
 10
-0.6102475941
 20
-5.3814354424
 10
-0.7264614226
 20
-5.4045515454
 10
-0.8461111976
 20
-5.4194828314
 10
-0.9689488277
 20
-5.4261983124
 10
-1.0947196904
 20
-5.4246840538
 10
-1.2231631259
 20
-5.4149431799
 10
-1.3540128674
 20
-5.3969958721
 10
-1.4869976874
 20
-5.370879326
 10
-1.6218419633
 20
-5.3366476643
 10
-1.7582662031
 20
-5.294371832
 10
-1.8959876462
 20
-5.2441394449
 10
-2.0347208291
 20
-5.1860546148
 10
-2.1741781765
 20
-5.1202377389
 10
-2.31407064
 20
-5.0468252293
 10
-2.4541082544
 20
-4.9659692493
 10
-2.5940007174
 20
-4.8778374157
 10
-2.7334580638
 20
-4.7826124099
 10
-2.8721912452
 20
-4.6804916052
 10
-3.0099126873
 20
-4.5716866888
 10
-3.146336927
 20
-4.456423194
 10
-3.2811812033
 20
-4.3349400301
 10
-3.4141660232
 20
-4.2074890031
 10
-3.545015765
 20
-4.0743342713
 10
-3.6734592002
 20
-3.9357518466
 10
-3.799230059
 20
-3.7920290294
 10
-3.92206768
 20
-3.643463701
 10
-4.0417174426
 20
-3.4903638262
 10
-4.1579312567
 20
-3.3330468812
 10
-4.2704682297
 20
-3.1718390035
 10
-4.3790951598
 20
-3.0070742983
 10
-4.4835869195
 20
-2.8390942804
 10
-4.5837269031
 20
-2.6682472151
 10
-4.6793076247
 20
-2.4948871437
 10
-4.7701311295
 20
-2.3193731327
 10
-4.8560092001
 20
-2.1420689019
 10
-4.936763808
 20
-1.9633420041
 10
-5.0122276083
 20
-1.7835628008
 10
-5.0822442556
 20
-1.6031037186
 10
-5.146668537
 20
-1.4223389826
 10
-5.205366759
 20
-1.2416437633
 10
-5.2582173239
 20
-1.0613924971
 10
-5.3051107044
 20
-0.8819588611
 10
-5.3459495923
 20
-0.7037154908
 10
-5.3806494786
 20
-0.5270317073
 10
-5.409138545
 20
-0.3522737542
 10
-5.4313577621
 20
-0.1798047424
 10
-5.447261285
 20
-0.0099823401
 10
-5.4568164316
 20
0.1568419278
 10
-5.4600036308
 20
0.3203224485
  0
LWPOLYLINE
  5
28D
100
AcDbEntity
  8
ASSI
100
AcDbPolyline
 62
7
  6
CONTINUOUS
 90
53
 70
0
 10
-0.208984036
 20
-5.2228218594
 10
-0.2845918786
 20
-5.263541966
 10
-0.3890836535
 20
-5.3108574747
 10
-0.4977106032
 20
-5.3501824823
 10
-0.6102475941
 20
-5.3814354424
 10
-0.7264614226
 20
-5.4045515454
 10
-0.8461111976
 20
-5.4194828314
 10
-0.9689488277
 20
-5.4261983124
 10
-1.0947196904
 20
-5.4246840538
 10
-1.2231631259
 20
-5.4149431799
 10
-1.3540128674
 20
-5.3969958721
 10
-1.4869976874
 20
-5.370879326
 10
-1.6218419633
 20
-5.3366476643
 10
-1.7582662031
 20
-5.294371832
 10
-1.8959876462
 20
-5.2441394449
 10
-2.0347208291
 20
-5.1860546148
 10
-2.1741781765
 20
-5.1202377389
 10
-2.31407064
 20
-5.0468252293
 10
-2.4541082544
 20
-4.9659692493
 10
-2.5940007174
 20
-4.8778374157
 10
-2.7334580638
 20
-4.7826124099
 10
-2.8721912452
 20
-4.6804916052
 10
-3.0099126873
 20
-4.5716866888
 10
-3.146336927
 20
-4.456423194
 10
-3.2811812033
 20
-4.3349400301
 10
-3.4141660232
 20
-4.2074890031
 10
-3.545015765
 20
-4.0743342713
 10
-3.6734592002
 20
-3.9357518466
 10
-3.799230059
 20
-3.7920290294
 10
-3.92206768
 20
-3.643463701
 10
-4.0417174426
 20
-3.4903638262
 10
-4.1579312567
 20
-3.3330468812
 10
-4.2704682297
 20
-3.1718390035
 10
-4.3790951598
 20
-3.0070742983
 10
-4.4835869195
 20
-2.8390942804
 10
-4.5837269031
 20
-2.6682472151
 10
-4.6793076247
 20
-2.4948871437
 10
-4.7701311295
 20
-2.3193731327
 10
-4.8560092001
 20
-2.1420689019
 10
-4.936763808
 20
-1.9633420041
 10
-5.0122276083
 20
-1.7835628008
 10
-5.0822442556
 20
-1.6031037186
 10
-5.146668537
 20
-1.4223389826
 10
-5.205366759
 20
-1.2416437633
 10
-5.2582173239
 20
-1.0613924971
 10
-5.3051107044
 20
-0.8819588611
 10
-5.3459495923
 20
-0.7037154908
 10
-5.3806494786
 20
-0.5270317073
 10
-5.409138545
 20
-0.3522737542
 10
-5.4313577621
 20
-0.1798047424
 10
-5.447261285
 20
-0.0099823401
 10
-5.4568164316
 20
0.1568419278
 10
-5.4600036308
 20
0.3203224485
  0
LINE
  5
28E
100
AcDbEntity
  8
SMUSSO
100
AcDbLine
 62
7
  6
CONTINUOUS
 10
-2.8721906191
 20
2.3327953799
 11
-2.7334574361
 21
2.2747105498
  0
LINE
  5
28F
100
AcDbEntity
  8
ASSI
100
AcDbLine
 62
7
  6
CONTINUOUS
 10
-2.8721906191
 20
2.3327953799
 11
-2.7334574361
 21
2.2747105498
  0
LINE
  5
290
100
AcDbEntity
  8
SMUSSO
100
AcDbLine
 62
7
  6
CONTINUOUS
 10
-18.7820931958
 20
11.5189737297
 11
-18.6433600128
 21
11.4608888997
  0
LINE
  5
291
100
AcDbEntity
  8
ASSI
100
AcDbLine
 62
7
  6
CONTINUOUS
 10
-18.7820931958
 20
11.5189737297
 11
-18.6433600128
 21
11.4608888997
  0
LINE
  5
292
100
AcDbEntity
  8
SMUSSO
100
AcDbLine
 62
7
  6
CONTINUOUS
 10
-34.6919957725
 20
20.7051520796
 11
-34.5532625895
 21
20.6470672496
  0
LINE
  5
293
100
AcDbEntity
  8
ASSI
100
AcDbLine
 62
7
  6
CONTINUOUS
 10
-34.6919957725
 20
20.7051520796
 11
-34.5532625895
 21
20.6470672496
  0
LWPOLYLINE
  5
294
100
AcDbEntity
  8
SMUSSO
100
AcDbPolyline
 62
7
  6
CONTINUOUS
 90
3
 70
0
 10
-2.7334574361
 20
2.2747105498
 10
-2.5940000887
 20
2.2088936739
 10
-2.5582977777
 20
2.1901578808
  0
LWPOLYLINE
  5
295
100
AcDbEntity
  8
ASSI
100
AcDbPolyline
 62
7
  6
CONTINUOUS
 90
3
 70
0
 10
-2.7334574361
 20
2.2747105498
 10
-2.5940000887
 20
2.2088936739
 10
-2.5582977777
 20
2.1901578808
  0
LWPOLYLINE
  5
296
100
AcDbEntity
  8
SMUSSO
100
AcDbPolyline
 62
7
  6
CONTINUOUS
 90
3
 70
0
 10
-18.6433600128
 20
11.4608888997
 10
-18.5039026654
 20
11.3950720238
 10
-18.4682003544
 20
11.3763362307
  0
LWPOLYLINE
  5
297
100
AcDbEntity
  8
ASSI
100
AcDbPolyline
 62
7
  6
CONTINUOUS
 90
3
 70
0
 10
-18.6433600128
 20
11.4608888997
 10
-18.5039026654
 20
11.3950720238
 10
-18.4682003544
 20
11.3763362307
  0
LWPOLYLINE
  5
298
100
AcDbEntity
  8
SMUSSO
100
AcDbPolyline
 62
7
  6
CONTINUOUS
 90
3
 70
0
 10
-34.5532625895
 20
20.6470672496
 10
-34.4138052421
 20
20.5812503736
 10
-34.3781029311
 20
20.5625145806
  0
LWPOLYLINE
  5
299
100
AcDbEntity
  8
ASSI
100
AcDbPolyline
 62
7
  6
CONTINUOUS
 90
3
 70
0
 10
-34.5532625895
 20
20.6470672496
 10
-34.4138052421
 20
20.5812503736
 10
-34.3781029311
 20
20.5625145806
  0
LWPOLYLINE
  5
29A
100
AcDbEntity
  8
SMUSSO
100
AcDbPolyline
 62
7
  6
CONTINUOUS
 90
36
 70
0
 10
29.0818311992
 20
-16.0721261048
 10
29.1603376755
 20
-16.1184769162
 10
29.3162021771
 20
-16.2166484299
 10
29.4715792091
 20
-16.3227665427
 10
29.626471789
 20
-16.4367822128
 10
29.7799200684
 20
-16.5579888841
 10
29.9319150706
 20
-16.6864312051
 10
30.0824657723
 20
-16.8220645271
 10
30.2306392556
 20
-16.9640483481
 10
30.376420773
 20
-17.1124221221
 10
30.519825072
 20
-17.2671463951
 10
30.6599634772
 20
-17.4272623026
 10
30.7968157184
 20
-17.5928033573
 10
30.9304020658
 20
-17.7637360466
 10
31.0598946541
 20
-17.9390009684
 10
31.1852680172
 20
-18.118624976
 10
31.3065476213
 20
-18.302581216
 10
31.4229819997
 20
-18.4897297259
 10
31.5345410215
 20
-18.6800902221
 10
31.6412548176
 20
-18.8736429881
 10
31.7424623138
 20
-19.0691889121
 10
31.8381293696
 20
-19.2667404206
 10
31.9282901255
 20
-19.4662850871
 10
32.0123859291
 20
-19.6665865203
 10
32.0903791794
 20
-19.8676496339
 10
32.1623074774
 20
-20.069469514
 10
32.2277249731
 20
-20.2707950283
 10
32.2865911739
 20
-20.4716231757
 10
32.3389465724
 20
-20.6719569571
 10
32.3844667965
 20
-20.8705542424
 10
32.4231092858
 20
-21.0674043016
 10
32.4549166007
 20
-21.2625178646
 10
32.4796920505
 20
-21.4546849907
 10
32.4973700717
 20
-21.6435023663
 10
32.5080162279
 20
-21.8293733049
 10
32.5116305189
 20
-22.0122978065
  0
LWPOLYLINE
  5
29B
100
AcDbEntity
  8
ASSI
100
AcDbPolyline
 62
7
  6
CONTINUOUS
 90
36
 70
0
 10
29.0818311992
 20
-16.0721261048
 10
29.1603376755
 20
-16.1184769162
 10
29.3162021771
 20
-16.2166484299
 10
29.4715792091
 20
-16.3227665427
 10
29.626471789
 20
-16.4367822128
 10
29.7799200684
 20
-16.5579888841
 10
29.9319150706
 20
-16.6864312051
 10
30.0824657723
 20
-16.8220645271
 10
30.2306392556
 20
-16.9640483481
 10
30.376420773
 20
-17.1124221221
 10
30.519825072
 20
-17.2671463951
 10
30.6599634772
 20
-17.4272623026
 10
30.7968157184
 20
-17.5928033573
 10
30.9304020658
 20
-17.7637360466
 10
31.0598946541
 20
-17.9390009684
 10
31.1852680172
 20
-18.118624976
 10
31.3065476213
 20
-18.302581216
 10
31.4229819997
 20
-18.4897297259
 10
31.5345410215
 20
-18.6800902221
 10
31.6412548176
 20
-18.8736429881
 10
31.7424623138
 20
-19.0691889121
 10
31.8381293696
 20
-19.2667404206
 10
31.9282901255
 20
-19.4662850871
 10
32.0123859291
 20
-19.6665865203
 10
32.0903791794
 20
-19.8676496339
 10
32.1623074774
 20
-20.069469514
 10
32.2277249731
 20
-20.2707950283
 10
32.2865911739
 20
-20.4716231757
 10
32.3389465724
 20
-20.6719569571
 10
32.3844667965
 20
-20.8705542424
 10
32.4231092858
 20
-21.0674043016
 10
32.4549166007
 20
-21.2625178646
 10
32.4796920505
 20
-21.4546849907
 10
32.4973700717
 20
-21.6435023663
 10
32.5080162279
 20
-21.8293733049
 10
32.5116305189
 20
-22.0122978065
  0
LWPOLYLINE
  5
29C
100
AcDbEntity
  8
0
100
AcDbPolyline
 62
7
  6
CONTINUOUS
 90
51
 70
0
 10
10.9448736928
 20
-8.5800636861
 10
10.9481162388
 20
-8.7441421058
 10
10.9576659834
 20
-8.91086124
 10
10.9735229264
 20
-9.0802210888
 10
10.9957459975
 20
-9.2525831228
 10
11.0242762672
 20
-9.4275858714
 10
11.0589369462
 20
-9.6041449223
 10
11.0997661007
 20
-9.7822699392
 10
11.1467256645
 20
-9.9619512585
 10
11.1995246507
 20
-10.1420754769
 10
11.2581993185
 20
-10.3226453447
 10
11.3227134087
 20
-10.5036581116
 10
11.392667157
 20
-10.6839921242
 10
11.4680943401
 20
-10.8636431677
 10
11.5489611812
 20
-11.042615457
 10
11.6347665855
 20
-11.2197999823
 10
11.7255412182
 20
-11.3951856427
 10
11.821254414
 20
-11.5687835391
 10
11.9213130819
 20
-11.7395179646
 10
12.0257442046
 20
-11.9073711388
 10
12.1345207994
 20
-12.0723608421
 10
12.2469688273
 20
-12.2334647085
 10
12.3631110857
 20
-12.3906586095
 10
12.4829247773
 20
-12.5439666736
 10
12.6056674713
 20
-12.6924389208
 10
12.7313573549
 20
-12.8360453235
 10
12.8599762409
 20
-12.9748159093
 10
12.9907271367
 20
-13.1078907802
 10
13.1236232808
 20
-13.2352345692
 10
13.2586514347
 20
-13.3568826432
 10
13.3949748906
 20
-13.4720812046
 10
13.5326016915
 20
-13.5807902061
 10
13.6715237943
 20
-13.6830496949
 10
13.8108803623
 20
-13.7782260157
 10
13.950674093
 20
-13.8662751865
 10
14.0909022888
 20
-13.9472411893
 10
14.2306960196
 20
-14.0206223147
 10
14.3700525875
 20
-14.0863714654
 10
14.5089746903
 20
-14.1445357388
 10
14.6466014912
 20
-14.1947547173
 10
14.7829249471
 20
-14.2369790656
 10
14.917953101
 20
-14.2712581192
 10
15.0508492451
 20
-14.2973794662
 10
15.181600141
 20
-14.3152924525
 10
15.310219027
 20
-14.3250477323
 10
15.4359089106
 20
-14.3265848566
 10
15.5586516045
 20
-14.3198527958
 10
15.6784652961
 20
-14.3049025794
 10
15.7946075545
 20
-14.2818268472
 10
15.9070555825
 20
-14.2505751449
 10
15.9338611671
 20
-14.2408715008
  0
LWPOLYLINE
  5
29D
100
AcDbEntity
  8
ASSI
100
AcDbPolyline
 62
7
  6
CONTINUOUS
 90
51
 70
0
 10
10.9448736928
 20
-8.5800636861
 10
10.9481162388
 20
-8.7441421058
 10
10.9576659834
 20
-8.91086124
 10
10.9735229264
 20
-9.0802210888
 10
10.9957459975
 20
-9.2525831228
 10
11.0242762672
 20
-9.4275858714
 10
11.0589369462
 20
-9.6041449223
 10
11.0997661007
 20
-9.7822699392
 10
11.1467256645
 20
-9.9619512585
 10
11.1995246507
 20
-10.1420754769
 10
11.2581993185
 20
-10.3226453447
 10
11.3227134087
 20
-10.5036581116
 10
11.392667157
 20
-10.6839921242
 10
11.4680943401
 20
-10.8636431677
 10
11.5489611812
 20
-11.042615457
 10
11.6347665855
 20
-11.2197999823
 10
11.7255412182
 20
-11.3951856427
 10
11.821254414
 20
-11.5687835391
 10
11.9213130819
 20
-11.7395179646
 10
12.0257442046
 20
-11.9073711388
 10
12.1345207994
 20
-12.0723608421
 10
12.2469688273
 20
-12.2334647085
 10
12.3631110857
 20
-12.3906586095
 10
12.4829247773
 20
-12.5439666736
 10
12.6056674713
 20
-12.6924389208
 10
12.7313573549
 20
-12.8360453235
 10
12.8599762409
 20
-12.9748159093
 10
12.9907271367
 20
-13.1078907802
 10
13.1236232808
 20
-13.2352345692
 10
13.2586514347
 20
-13.3568826432
 10
13.3949748906
 20
-13.4720812046
 10
13.5326016915
 20
-13.5807902061
 10
13.6715237943
 20
-13.6830496949
 10
13.8108803623
 20
-13.7782260157
 10
13.950674093
 20
-13.8662751865
 10
14.0909022888
 20
-13.9472411893
 10
14.2306960196
 20
-14.0206223147
 10
14.3700525875
 20
-14.0863714654
 10
14.5089746903
 20
-14.1445357388
 10
14.6466014912
 20
-14.1947547173
 10
14.7829249471
 20
-14.2369790656
 10
14.917953101
 20
-14.2712581192
 10
15.0508492451
 20
-14.2973794662
 10
15.181600141
 20
-14.3152924525
 10
15.310219027
 20
-14.3250477323
 10
15.4359089106
 20
-14.3265848566
 10
15.5586516045
 20
-14.3198527958
 10
15.6784652961
 20
-14.3049025794
 10
15.7946075545
 20
-14.2818268472
 10
15.9070555825
 20
-14.2505751449
 10
15.9338611671
 20
-14.2408715008
  0
LWPOLYLINE
  5
29E
100
AcDbEntity
  8
SMUSSO
100
AcDbPolyline
 62
7
  6
CONTINUOUS
 90
19
 70
0
 10
10.4498989459
 20
-8.8658559014
 10
10.4530861562
 20
-8.7060556028
 10
10.4626413335
 20
-8.5502651498
 10
10.4785449025
 20
-8.3988075537
 10
10.5007641772
 20
-8.2519965962
 10
10.5292533085
 20
-8.1101370042
 10
10.5639532619
 20
-7.9735237234
 10
10.6047922137
 20
-7.8424400632
 10
10.6516856511
 20
-7.7171577489
 10
10.7045362646
 20
-7.5979370366
 10
10.763234522
 20
-7.4850251237
 10
10.8276588238
 20
-7.3786560217
 10
10.8976754836
 20
-7.2790504981
 10
10.9731392885
 20
-7.1864150882
 10
11.053893892
 20
-7.100941674
 10
11.1397719591
 20
-7.0228073614
 10
11.2305954673
 20
-6.9521741188
 10
11.3261761963
 20
-6.8891883227
 10
11.3507083475
 20
-6.8747005554
  0
LWPOLYLINE
  5
29F
100
AcDbEntity
  8
ASSI
100
AcDbPolyline
 62
7
  6
CONTINUOUS
 90
19
 70
0
 10
10.4498989459
 20
-8.8658559014
 10
10.4530861562
 20
-8.7060556028
 10
10.4626413335
 20
-8.5502651498
 10
10.4785449025
 20
-8.3988075537
 10
10.5007641772
 20
-8.2519965962
 10
10.5292533085
 20
-8.1101370042
 10
10.5639532619
 20
-7.9735237234
 10
10.6047922137
 20
-7.8424400632
 10
10.6516856511
 20
-7.7171577489
 10
10.7045362646
 20
-7.5979370366
 10
10.763234522
 20
-7.4850251237
 10
10.8276588238
 20
-7.3786560217
 10
10.8976754836
 20
-7.2790504981
 10
10.9731392885
 20
-7.1864150882
 10
11.053893892
 20
-7.100941674
 10
11.1397719591
 20
-7.0228073614
 10
11.2305954673
 20
-6.9521741188
 10
11.3261761963
 20
-6.8891883227
 10
11.3507083475
 20
-6.8747005554
  0
LWPOLYLINE
  5
2A0
100
AcDbEntity
  8
SMUSSO
100
AcDbPolyline
 62
7
  6
CONTINUOUS
 90
36
 70
0
 10
9.7427921647
 20
-8.8658559014
 10
9.7464064724
 20
-8.6871047928
 10
9.7570526623
 20
-8.5135275044
 10
9.7747307344
 20
-8.345124036
 10
9.799506258
 20
-8.1815667802
 10
9.8313136637
 20
-8.0231833445
 10
9.8699562441
 20
-7.8709565515
 10
9.915476559
 20
-7.7249248295
 10
9.9678320485
 20
-7.5850497501
 10
10.0266983258
 20
-7.4521988509
 10
10.0921158779
 20
-7.3264158955
 10
10.1640442179
 20
-7.2076571202
 10
10.2420374976
 20
-7.0966587717
 10
10.3261333121
 20
-6.9934691805
 10
10.4162940664
 20
-6.898040016
 10
10.511961127
 20
-6.8109625329
 10
10.6131686405
 20
-6.732288573
 10
10.7198824604
 20
-6.6619662946
 10
10.8314415142
 20
-6.600431427
 10
10.9478759384
 20
-6.5477384818
 10
11.0691555965
 20
-6.5038329474
 10
11.1945290062
 20
-6.4689870188
 10
11.3240216277
 20
-6.4432569605
 10
11.4576080007
 20
-6.4265865079
 10
11.5944602621
 20
-6.4190790615
 10
11.7345986807
 20
-6.4207915402
 10
11.8780029876
 20
-6.4316670251
 10
12.0237845122
 20
-6.4516381599
 10
12.1719580033
 20
-6.4807614283
 10
12.3225087122
 20
-6.5189803466
 10
12.474503722
 20
-6.5660581079
 10
12.6279520112
 20
-6.6220497278
 10
12.7828446013
 20
-6.6869001907
 10
12.9382216404
 20
-6.7602076428
 10
13.0940861451
 20
-6.84202461
 10
13.1719286225
 20
-6.8859477549
  0
LWPOLYLINE
  5
2A1
100
AcDbEntity
  8
ASSI
100
AcDbPolyline
 62
7
  6
CONTINUOUS
 90
36
 70
0
 10
9.7427921647
 20
-8.8658559014
 10
9.7464064724
 20
-8.6871047928
 10
9.7570526623
 20
-8.5135275044
 10
9.7747307344
 20
-8.345124036
 10
9.799506258
 20
-8.1815667802
 10
9.8313136637
 20
-8.0231833445
 10
9.8699562441
 20
-7.8709565515
 10
9.915476559
 20
-7.7249248295
 10
9.9678320485
 20
-7.5850497501
 10
10.0266983258
 20
-7.4521988509
 10
10.0921158779
 20
-7.3264158955
 10
10.1640442179
 20
-7.2076571202
 10
10.2420374976
 20
-7.0966587717
 10
10.3261333121
 20
-6.9934691805
 10
10.4162940664
 20
-6.898040016
 10
10.511961127
 20
-6.8109625329
 10
10.6131686405
 20
-6.732288573
 10
10.7198824604
 20
-6.6619662946
 10
10.8314415142
 20
-6.600431427
 10
10.9478759384
 20
-6.5477384818
 10
11.0691555965
 20
-6.5038329474
 10
11.1945290062
 20
-6.4689870188
 10
11.3240216277
 20
-6.4432569605
 10
11.4576080007
 20
-6.4265865079
 10
11.5944602621
 20
-6.4190790615
 10
11.7345986807
 20
-6.4207915402
 10
11.8780029876
 20
-6.4316670251
 10
12.0237845122
 20
-6.4516381599
 10
12.1719580033
 20
-6.4807614283
 10
12.3225087122
 20
-6.5189803466
 10
12.474503722
 20
-6.5660581079
 10
12.6279520112
 20
-6.6220497278
 10
12.7828446013
 20
-6.6869001907
 10
12.9382216404
 20
-6.7602076428
 10
13.0940861451
 20
-6.84202461
 10
13.1719286225
 20
-6.8859477549
  0
LWPOLYLINE
  5
2A2
100
AcDbEntity
  8
0
100
AcDbPolyline
 62
7
  6
CONTINUOUS
 90
3
 70
0
 10
11.6128177703
 20
-6.7569758416
 10
11.5489611812
 20
-6.8150970048
 10
11.4680943401
 20
-6.9006862929
  0
LWPOLYLINE
  5
2A3
100
AcDbEntity
  8
ASSI
100
AcDbPolyline
 62
7
  6
CONTINUOUS
 90
3
 70
0
 10
11.6128177703
 20
-6.7569758416
 10
11.5489611812
 20
-6.8150970048
 10
11.4680943401
 20
-6.9006862929
  0
LWPOLYLINE
  5
2A4
100
AcDbEntity
  8
SMUSSO
100
AcDbPolyline
 62
7
  6
CONTINUOUS
 90
15
 70
0
 10
11.3507083475
 20
-6.8747005554
 10
11.4263161901
 20
-6.8339804489
 10
11.530807965
 20
-6.7866649402
 10
11.6394349146
 20
-6.7473399326
 10
11.7519719056
 20
-6.7160869725
 10
11.868185734
 20
-6.6929708694
 10
11.9878355091
 20
-6.6780395834
 10
12.1106731391
 20
-6.6713241025
 10
12.2364440018
 20
-6.6728383611
 10
12.3648874374
 20
-6.682579235
 10
12.4957371788
 20
-6.7005265427
 10
12.6287219988
 20
-6.7266430889
 10
12.7635662748
 20
-6.7608747506
 10
12.8999905145
 20
-6.8031505828
 10
13.0377119576
 20
-6.85338297
  0
LWPOLYLINE
  5
2A5
100
AcDbEntity
  8
ASSI
100
AcDbPolyline
 62
7
  6
CONTINUOUS
 90
15
 70
0
 10
11.3507083475
 20
-6.8747005554
 10
11.4263161901
 20
-6.8339804489
 10
11.530807965
 20
-6.7866649402
 10
11.6394349146
 20
-6.7473399326
 10
11.7519719056
 20
-6.7160869725
 10
11.868185734
 20
-6.6929708694
 10
11.9878355091
 20
-6.6780395834
 10
12.1106731391
 20
-6.6713241025
 10
12.2364440018
 20
-6.6728383611
 10
12.3648874374
 20
-6.682579235
 10
12.4957371788
 20
-6.7005265427
 10
12.6287219988
 20
-6.7266430889
 10
12.7635662748
 20
-6.7608747506
 10
12.8999905145
 20
-6.8031505828
 10
13.0377119576
 20
-6.85338297
  0
LINE
  5
2A6
100
AcDbEntity
  8
ASSI
100
AcDbLine
 62
7
  6
CONTINUOUS
 10
53.4451293308
 20
-69.8654584819
 11
53.4454917611
 21
-69.8660999196
  0
LWPOLYLINE
  5
2A7
100
AcDbEntity
  8
SMUSSO
100
AcDbPolyline
 62
7
  6
CONTINUOUS
 90
70
 70
0
 10
16.6017279422
 20
-12.8261194567
 10
16.5981136346
 20
-13.0048705652
 10
16.5874674447
 20
-13.1784478537
 10
16.5697893726
 20
-13.346851322
 10
16.545013849
 20
-13.5104085778
 10
16.5132064433
 20
-13.6687920135
 10
16.4745638629
 20
-13.8210188066
 10
16.429043548
 20
-13.9670505286
 10
16.3766880585
 20
-14.106925608
 10
16.3178217812
 20
-14.2397765072
 10
16.2524042291
 20
-14.3655594626
 10
16.1804758891
 20
-14.4843182378
 10
16.1024826094
 20
-14.5953165864
 10
16.0183867949
 20
-14.6985061776
 10
15.9282260406
 20
-14.7939353421
 10
15.8325589799
 20
-14.8810128252
 10
15.7313514665
 20
-14.959686785
 10
15.6246376466
 20
-15.0300090635
 10
15.5130785928
 20
-15.0915439311
 10
15.3966441686
 20
-15.1442368763
 10
15.2753645105
 20
-15.1881424106
 10
15.1499911008
 20
-15.2229883393
 10
15.0204984793
 20
-15.2487183976
 10
14.8869121062
 20
-15.2653888502
 10
14.7500598449
 20
-15.2728962966
 10
14.6099214263
 20
-15.2711838179
 10
14.4665171194
 20
-15.260308333
 10
14.3207355948
 20
-15.2403371981
 10
14.1725621037
 20
-15.2112139298
 10
14.0220113948
 20
-15.1729950114
 10
13.870016385
 20
-15.1259172501
 10
13.7165680958
 20
-15.0699256302
 10
13.5616755057
 20
-15.0050751673
 10
13.4062984666
 20
-14.9317677152
 10
13.2504339619
 20
-14.8499507481
 10
13.0940850082
 20
-14.7596767917
 10
12.9382205066
 20
-14.661505278
 10
12.7828434746
 20
-14.5553871652
 10
12.6279508947
 20
-14.4413714951
 10
12.4745026153
 20
-14.3201648238
 10
12.3225076131
 20
-14.1917225028
 10
12.1719569114
 20
-14.0560891808
 10
12.0237834281
 20
-13.9141053598
 10
11.8780019107
 20
-13.7657315858
 10
11.7345976116
 20
-13.6110073129
 10
11.5944592065
 20
-13.4508914053
 10
11.4576069653
 20
-13.2853503506
 10
11.3240206179
 20
-13.1144176613
 10
11.1945280296
 20
-12.9391527396
 10
11.0691546665
 20
-12.7595287319
 10
10.9478750624
 20
-12.5755724919
 10
10.831440684
 20
-12.388423982
 10
10.7198816622
 20
-12.1980634859
 10
10.6131678661
 20
-12.0045107199
 10
10.5119603699
 20
-11.8089647959
 10
10.4162933141
 20
-11.6114132873
 10
10.3261325581
 20
-11.4118686208
 10
10.2420367546
 20
-11.2115671876
 10
10.1640435042
 20
-11.0105040741
 10
10.0921152063
 20
-10.8086841939
 10
10.0266977106
 20
-10.6073586797
 10
9.9678315098
 20
-10.4065305322
 10
9.9154761113
 20
-10.2061967508
 10
9.8699558872
 20
-10.0075994655
 10
9.8313133979
 20
-9.8107494063
 10
9.799506083
 20
-9.6156358433
 10
9.7747306332
 20
-9.4234687172
 10
9.757052612
 20
-9.2346513416
 10
9.7464064558
 20
-9.048780403
 10
9.7427921647
 20
-8.8658559014
  0
LWPOLYLINE
  5
2A8
100
AcDbEntity
  8
ASSI
100
AcDbPolyline
 62
7
  6
CONTINUOUS
 90
70
 70
0
 10
16.6017279422
 20
-12.8261194567
 10
16.5981136346
 20
-13.0048705652
 10
16.5874674447
 20
-13.1784478537
 10
16.5697893726
 20
-13.346851322
 10
16.545013849
 20
-13.5104085778
 10
16.5132064433
 20
-13.6687920135
 10
16.4745638629
 20
-13.8210188066
 10
16.429043548
 20
-13.9670505286
 10
16.3766880585
 20
-14.106925608
 10
16.3178217812
 20
-14.2397765072
 10
16.2524042291
 20
-14.3655594626
 10
16.1804758891
 20
-14.4843182378
 10
16.1024826094
 20
-14.5953165864
 10
16.0183867949
 20
-14.6985061776
 10
15.9282260406
 20
-14.7939353421
 10
15.8325589799
 20
-14.8810128252
 10
15.7313514665
 20
-14.959686785
 10
15.6246376466
 20
-15.0300090635
 10
15.5130785928
 20
-15.0915439311
 10
15.3966441686
 20
-15.1442368763
 10
15.2753645105
 20
-15.1881424106
 10
15.1499911008
 20
-15.2229883393
 10
15.0204984793
 20
-15.2487183976
 10
14.8869121062
 20
-15.2653888502
 10
14.7500598449
 20
-15.2728962966
 10
14.6099214263
 20
-15.2711838179
 10
14.4665171194
 20
-15.260308333
 10
14.3207355948
 20
-15.2403371981
 10
14.1725621037
 20
-15.2112139298
 10
14.0220113948
 20
-15.1729950114
 10
13.870016385
 20
-15.1259172501
 10
13.7165680958
 20
-15.0699256302
 10
13.5616755057
 20
-15.0050751673
 10
13.4062984666
 20
-14.9317677152
 10
13.2504339619
 20
-14.8499507481
 10
13.0940850082
 20
-14.7596767917
 10
12.9382205066
 20
-14.661505278
 10
12.7828434746
 20
-14.5553871652
 10
12.6279508947
 20
-14.4413714951
 10
12.4745026153
 20
-14.3201648238
 10
12.3225076131
 20
-14.1917225028
 10
12.1719569114
 20
-14.0560891808
 10
12.0237834281
 20
-13.9141053598
 10
11.8780019107
 20
-13.7657315858
 10
11.7345976116
 20
-13.6110073129
 10
11.5944592065
 20
-13.4508914053
 10
11.4576069653
 20
-13.2853503506
 10
11.3240206179
 20
-13.1144176613
 10
11.1945280296
 20
-12.9391527396
 10
11.0691546665
 20
-12.7595287319
 10
10.9478750624
 20
-12.5755724919
 10
10.831440684
 20
-12.388423982
 10
10.7198816622
 20
-12.1980634859
 10
10.6131678661
 20
-12.0045107199
 10
10.5119603699
 20
-11.8089647959
 10
10.4162933141
 20
-11.6114132873
 10
10.3261325581
 20
-11.4118686208
 10
10.2420367546
 20
-11.2115671876
 10
10.1640435042
 20
-11.0105040741
 10
10.0921152063
 20
-10.8086841939
 10
10.0266977106
 20
-10.6073586797
 10
9.9678315098
 20
-10.4065305322
 10
9.9154761113
 20
-10.2061967508
 10
9.8699558872
 20
-10.0075994655
 10
9.8313133979
 20
-9.8107494063
 10
9.799506083
 20
-9.6156358433
 10
9.7747306332
 20
-9.4234687172
 10
9.757052612
 20
-9.2346513416
 10
9.7464064558
 20
-9.048780403
 10
9.7427921647
 20
-8.8658559014
  0
LINE
  5
2A9
100
AcDbEntity
  8
SMUSSO
100
AcDbLine
 62
7
  6
CONTINUOUS
 10
16.5963784359
 20
-12.6128998807
 11
16.5889855547
 21
-12.7334356149
  0
LINE
  5
2AA
100
AcDbEntity
  8
ASSI
100
AcDbLine
 62
7
  6
CONTINUOUS
 10
16.5963784359
 20
-12.6128998807
 11
16.5889855547
 21
-12.7334356149
  0
LWPOLYLINE
  5
2AB
100
AcDbEntity
  8
SMUSSO
100
AcDbPolyline
 62
7
  6
CONTINUOUS
 90
17
 70
0
 10
16.5889855547
 20
-12.7334356149
 10
16.5730819856
 20
-12.884893211
 10
16.550862711
 20
-13.0317041685
 10
16.5223735797
 20
-13.1735637605
 10
16.4876736263
 20
-13.3101770414
 10
16.4468346745
 20
-13.4412607015
 10
16.3999412371
 20
-13.5665430158
 10
16.3470906236
 20
-13.6857637282
 10
16.2883923662
 20
-13.798675641
 10
16.2239680643
 20
-13.905044743
 10
16.1539514045
 20
-14.0046502667
 10
16.0784875997
 20
-14.0972856766
 10
15.9977329962
 20
-14.1827590908
 10
15.911854929
 20
-14.2608934033
 10
15.8210314209
 20
-14.3315266459
 10
15.7254506919
 20
-14.3945124421
 10
15.7009185407
 20
-14.4090002093
  0
LWPOLYLINE
  5
2AC
100
AcDbEntity
  8
ASSI
100
AcDbPolyline
 62
7
  6
CONTINUOUS
 90
17
 70
0
 10
16.5889855547
 20
-12.7334356149
 10
16.5730819856
 20
-12.884893211
 10
16.550862711
 20
-13.0317041685
 10
16.5223735797
 20
-13.1735637605
 10
16.4876736263
 20
-13.3101770414
 10
16.4468346745
 20
-13.4412607015
 10
16.3999412371
 20
-13.5665430158
 10
16.3470906236
 20
-13.6857637282
 10
16.2883923662
 20
-13.798675641
 10
16.2239680643
 20
-13.905044743
 10
16.1539514045
 20
-14.0046502667
 10
16.0784875997
 20
-14.0972856766
 10
15.9977329962
 20
-14.1827590908
 10
15.911854929
 20
-14.2608934033
 10
15.8210314209
 20
-14.3315266459
 10
15.7254506919
 20
-14.3945124421
 10
15.7009185407
 20
-14.4090002093
  0
LWPOLYLINE
  5
2AD
100
AcDbEntity
  8
0
100
AcDbPolyline
 62
7
  6
CONTINUOUS
 90
14
 70
0
 10
11.4680943401
 20
-6.9006862929
 10
11.392667157
 20
-6.9932359161
 10
11.3227134087
 20
-7.0927890937
 10
11.2581993185
 20
-7.1993026063
 10
11.1995246507
 20
-7.3121164384
 10
11.1467256645
 20
-7.431269711
 10
11.0997661007
 20
-7.556723303
 10
11.0589369462
 20
-7.6876998358
 10
11.0242762672
 20
-7.8242336034
 10
10.9957459975
 20
-7.9662903117
 10
10.9735229264
 20
-8.1129897002
 10
10.9576659834
 20
-8.2640383486
 10
10.9481162388
 20
-8.4197296773
 10
10.9448736928
 20
-8.5800636861
  0
LWPOLYLINE
  5
2AE
100
AcDbEntity
  8
ASSI
100
AcDbPolyline
 62
7
  6
CONTINUOUS
 90
14
 70
0
 10
11.4680943401
 20
-6.9006862929
 10
11.392667157
 20
-6.9932359161
 10
11.3227134087
 20
-7.0927890937
 10
11.2581993185
 20
-7.1993026063
 10
11.1995246507
 20
-7.3121164384
 10
11.1467256645
 20
-7.431269711
 10
11.0997661007
 20
-7.556723303
 10
11.0589369462
 20
-7.6876998358
 10
11.0242762672
 20
-7.8242336034
 10
10.9957459975
 20
-7.9662903117
 10
10.9735229264
 20
-8.1129897002
 10
10.9576659834
 20
-8.2640383486
 10
10.9481162388
 20
-8.4197296773
 10
10.9448736928
 20
-8.5800636861
  0
LINE
  5
2AF
100
AcDbEntity
  8
ASSI
100
AcDbLine
 62
7
  6
CONTINUOUS
 10
53.4454917611
 20
3.2997096038
 11
57.5074247458
 21
5.645003506
  0
LWPOLYLINE
  5
2B0
100
AcDbEntity
  8
SMUSSO
100
AcDbPolyline
 62
7
  6
CONTINUOUS
 90
53
 70
0
 10
15.7009185407
 20
-14.4090002093
 10
15.6253106981
 20
-14.4497203159
 10
15.5208189232
 20
-14.4970358246
 10
15.4121919735
 20
-14.5363608322
 10
15.2996549826
 20
-14.5676137922
 10
15.1834411541
 20
-14.5907298953
 10
15.0637913791
 20
-14.6056611813
 10
14.940953749
 20
-14.6123766622
 10
14.8151828863
 20
-14.6108624037
 10
14.6867394508
 20
-14.6011215298
 10
14.5558897093
 20
-14.583174222
 10
14.4229048893
 20
-14.5570576758
 10
14.2880606134
 20
-14.5228260141
 10
14.1516363736
 20
-14.4805501819
 10
14.0139149305
 20
-14.4303177947
 10
13.8751817476
 20
-14.3722329647
 10
13.7357244002
 20
-14.3064160887
 10
13.5958319367
 20
-14.2330035791
 10
13.4557943223
 20
-14.1521475991
 10
13.3159018593
 20
-14.0640157656
 10
13.1764445129
 20
-13.9687907598
 10
13.0377113315
 20
-13.8666699551
 10
12.8999898894
 20
-13.7578650387
 10
12.7635656497
 20
-13.6426015439
 10
12.6287213734
 20
-13.52111838
 10
12.4957365535
 20
-13.393667353
 10
12.3648868117
 20
-13.2605126212
 10
12.2364433765
 20
-13.1219301964
 10
12.1106725177
 20
-12.9782073793
 10
11.9878348967
 20
-12.8296420509
 10
11.8681851341
 20
-12.6765421761
 10
11.75197132
 20
-12.5192252311
 10
11.639434347
 20
-12.3580173534
 10
11.5308074169
 20
-12.1932526481
 10
11.4263156572
 20
-12.0252726303
 10
11.3261756736
 20
-11.854425565
 10
11.230594952
 20
-11.6810654936
 10
11.1397714472
 20
-11.5055514825
 10
11.0538933766
 20
-11.3282472517
 10
10.9731387687
 20
-11.1495203539
 10
10.8976749684
 20
-10.9697411507
 10
10.8276583211
 20
-10.7892820685
 10
10.7632340397
 20
-10.6085173325
 10
10.7045358177
 20
-10.4278221132
 10
10.6516852528
 20
-10.2475708469
 10
10.6047918723
 20
-10.068137211
 10
10.5639529844
 20
-9.8898938406
 10
10.5292530981
 20
-9.7132100571
 10
10.5007640317
 20
-9.5384521041
 10
10.4785448146
 20
-9.3659830923
 10
10.4626412917
 20
-9.19616069
 10
10.453086145
 20
-9.029336422
 10
10.4498989459
 20
-8.8658559014
  0
LWPOLYLINE
  5
2B1
100
AcDbEntity
  8
ASSI
100
AcDbPolyline
 62
7
  6
CONTINUOUS
 90
53
 70
0
 10
15.7009185407
 20
-14.4090002093
 10
15.6253106981
 20
-14.4497203159
 10
15.5208189232
 20
-14.4970358246
 10
15.4121919735
 20
-14.5363608322
 10
15.2996549826
 20
-14.5676137922
 10
15.1834411541
 20
-14.5907298953
 10
15.0637913791
 20
-14.6056611813
 10
14.940953749
 20
-14.6123766622
 10
14.8151828863
 20
-14.6108624037
 10
14.6867394508
 20
-14.6011215298
 10
14.5558897093
 20
-14.583174222
 10
14.4229048893
 20
-14.5570576758
 10
14.2880606134
 20
-14.5228260141
 10
14.1516363736
 20
-14.4805501819
 10
14.0139149305
 20
-14.4303177947
 10
13.8751817476
 20
-14.3722329647
 10
13.7357244002
 20
-14.3064160887
 10
13.5958319367
 20
-14.2330035791
 10
13.4557943223
 20
-14.1521475991
 10
13.3159018593
 20
-14.0640157656
 10
13.1764445129
 20
-13.9687907598
 10
13.0377113315
 20
-13.8666699551
 10
12.8999898894
 20
-13.7578650387
 10
12.7635656497
 20
-13.6426015439
 10
12.6287213734
 20
-13.52111838
 10
12.4957365535
 20
-13.393667353
 10
12.3648868117
 20
-13.2605126212
 10
12.2364433765
 20
-13.1219301964
 10
12.1106725177
 20
-12.9782073793
 10
11.9878348967
 20
-12.8296420509
 10
11.8681851341
 20
-12.6765421761
 10
11.75197132
 20
-12.5192252311
 10
11.639434347
 20
-12.3580173534
 10
11.5308074169
 20
-12.1932526481
 10
11.4263156572
 20
-12.0252726303
 10
11.3261756736
 20
-11.854425565
 10
11.230594952
 20
-11.6810654936
 10
11.1397714472
 20
-11.5055514825
 10
11.0538933766
 20
-11.3282472517
 10
10.9731387687
 20
-11.1495203539
 10
10.8976749684
 20
-10.9697411507
 10
10.8276583211
 20
-10.7892820685
 10
10.7632340397
 20
-10.6085173325
 10
10.7045358177
 20
-10.4278221132
 10
10.6516852528
 20
-10.2475708469
 10
10.6047918723
 20
-10.068137211
 10
10.5639529844
 20
-9.8898938406
 10
10.5292530981
 20
-9.7132100571
 10
10.5007640317
 20
-9.5384521041
 10
10.4785448146
 20
-9.3659830923
 10
10.4626412917
 20
-9.19616069
 10
10.453086145
 20
-9.029336422
 10
10.4498989459
 20
-8.8658559014
  0
LWPOLYLINE
  5
2B2
100
AcDbEntity
  8
0
100
AcDbPolyline
 62
7
  6
CONTINUOUS
 90
51
 70
0
 10
26.8547762695
 20
-17.7662420359
 10
26.8580188155
 20
-17.9303204556
 10
26.8675685601
 20
-18.0970395899
 10
26.8834255031
 20
-18.2663994387
 10
26.9056485742
 20
-18.4387614727
 10
26.9341788439
 20
-18.6137642213
 10
26.9688395229
 20
-18.7903232722
 10
27.0096686774
 20
-18.9684482891
 10
27.0566282412
 20
-19.1481296083
 10
27.1094272274
 20
-19.3282538268
 10
27.1681018952
 20
-19.5088236945
 10
27.2326159854
 20
-19.6898364615
 10
27.3025697337
 20
-19.870170474
 10
27.3779969168
 20
-20.0498215176
 10
27.4588637579
 20
-20.2287938069
 10
27.5446691621
 20
-20.4059783321
 10
27.6354437949
 20
-20.5813639925
 10
27.7311569907
 20
-20.754961889
 10
27.8312156586
 20
-20.9256963145
 10
27.9356467813
 20
-21.0935494887
 10
28.0444233761
 20
-21.258539192
 10
28.156871404
 20
-21.4196430584
 10
28.2730136624
 20
-21.5768369594
 10
28.392827354
 20
-21.7301450235
 10
28.515570048
 20
-21.8786172706
 10
28.6412599316
 20
-22.0222236734
 10
28.7698788176
 20
-22.1609942592
 10
28.9006297134
 20
-22.29406913
 10
29.0335258575
 20
-22.4214129191
 10
29.1685540114
 20
-22.5430609931
 10
29.3048774673
 20
-22.6582595545
 10
29.4425042682
 20
-22.7669685559
 10
29.581426371
 20
-22.8692280448
 10
29.720782939
 20
-22.9644043656
 10
29.8605766697
 20
-23.0524535364
 10
30.0008048655
 20
-23.1334195392
 10
30.1405985963
 20
-23.2068006646
 10
30.2799551642
 20
-23.2725498153
 10
30.418877267
 20
-23.3307140886
 10
30.5565040679
 20
-23.3809330671
 10
30.6928275238
 20
-23.4231574155
 10
30.8278556777
 20
-23.457436469
 10
30.9607518218
 20
-23.483557816
 10
31.0915027177
 20
-23.5014708024
 10
31.2201216037
 20
-23.5112260822
 10
31.3458114873
 20
-23.5127632064
 10
31.4685541812
 20
-23.5060311456
 10
31.5883678728
 20
-23.4910809293
 10
31.7045101312
 20
-23.4680051971
 10
31.8169581592
 20
-23.4367534948
 10
31.8437637438
 20
-23.4270498507
  0
LWPOLYLINE
  5
2B3
100
AcDbEntity
  8
ASSI
100
AcDbPolyline
 62
7
  6
CONTINUOUS
 90
51
 70
0
 10
26.8547762695
 20
-17.7662420359
 10
26.8580188155
 20
-17.9303204556
 10
26.8675685601
 20
-18.0970395899
 10
26.8834255031
 20
-18.2663994387
 10
26.9056485742
 20
-18.4387614727
 10
26.9341788439
 20
-18.6137642213
 10
26.9688395229
 20
-18.7903232722
 10
27.0096686774
 20
-18.9684482891
 10
27.0566282412
 20
-19.1481296083
 10
27.1094272274
 20
-19.3282538268
 10
27.1681018952
 20
-19.5088236945
 10
27.2326159854
 20
-19.6898364615
 10
27.3025697337
 20
-19.870170474
 10
27.3779969168
 20
-20.0498215176
 10
27.4588637579
 20
-20.2287938069
 10
27.5446691621
 20
-20.4059783321
 10
27.6354437949
 20
-20.5813639925
 10
27.7311569907
 20
-20.754961889
 10
27.8312156586
 20
-20.9256963145
 10
27.9356467813
 20
-21.0935494887
 10
28.0444233761
 20
-21.258539192
 10
28.156871404
 20
-21.4196430584
 10
28.2730136624
 20
-21.5768369594
 10
28.392827354
 20
-21.7301450235
 10
28.515570048
 20
-21.8786172706
 10
28.6412599316
 20
-22.0222236734
 10
28.7698788176
 20
-22.1609942592
 10
28.9006297134
 20
-22.29406913
 10
29.0335258575
 20
-22.4214129191
 10
29.1685540114
 20
-22.5430609931
 10
29.3048774673
 20
-22.6582595545
 10
29.4425042682
 20
-22.7669685559
 10
29.581426371
 20
-22.8692280448
 10
29.720782939
 20
-22.9644043656
 10
29.8605766697
 20
-23.0524535364
 10
30.0008048655
 20
-23.1334195392
 10
30.1405985963
 20
-23.2068006646
 10
30.2799551642
 20
-23.2725498153
 10
30.418877267
 20
-23.3307140886
 10
30.5565040679
 20
-23.3809330671
 10
30.6928275238
 20
-23.4231574155
 10
30.8278556777
 20
-23.457436469
 10
30.9607518218
 20
-23.483557816
 10
31.0915027177
 20
-23.5014708024
 10
31.2201216037
 20
-23.5112260822
 10
31.3458114873
 20
-23.5127632064
 10
31.4685541812
 20
-23.5060311456
 10
31.5883678728
 20
-23.4910809293
 10
31.7045101312
 20
-23.4680051971
 10
31.8169581592
 20
-23.4367534948
 10
31.8437637438
 20
-23.4270498507
  0
LWPOLYLINE
  5
2B4
100
AcDbEntity
  8
SMUSSO
100
AcDbPolyline
 62
7
  6
CONTINUOUS
 90
19
 70
0
 10
26.3598015226
 20
-18.0520342513
 10
26.3629887329
 20
-17.8922339527
 10
26.3725439102
 20
-17.7364434997
 10
26.3884474792
 20
-17.5849859036
 10
26.4106667539
 20
-17.4381749461
 10
26.4391558852
 20
-17.2963153541
 10
26.4738558386
 20
-17.1597020732
 10
26.5146947904
 20
-17.0286184131
 10
26.5615882278
 20
-16.9033360988
 10
26.6144388413
 20
-16.7841153864
 10
26.6731370987
 20
-16.6712034736
 10
26.7375614005
 20
-16.5648343716
 10
26.8075780603
 20
-16.4652288479
 10
26.8830418652
 20
-16.372593438
 10
26.9637964687
 20
-16.2871200238
 10
27.0496745358
 20
-16.2089857113
 10
27.140498044
 20
-16.1383524687
 10
27.236078773
 20
-16.0753666725
 10
27.2606109242
 20
-16.0608789053
  0
LWPOLYLINE
  5
2B5
100
AcDbEntity
  8
ASSI
100
AcDbPolyline
 62
7
  6
CONTINUOUS
 90
19
 70
0
 10
26.3598015226
 20
-18.0520342513
 10
26.3629887329
 20
-17.8922339527
 10
26.3725439102
 20
-17.7364434997
 10
26.3884474792
 20
-17.5849859036
 10
26.4106667539
 20
-17.4381749461
 10
26.4391558852
 20
-17.2963153541
 10
26.4738558386
 20
-17.1597020732
 10
26.5146947904
 20
-17.0286184131
 10
26.5615882278
 20
-16.9033360988
 10
26.6144388413
 20
-16.7841153864
 10
26.6731370987
 20
-16.6712034736
 10
26.7375614005
 20
-16.5648343716
 10
26.8075780603
 20
-16.4652288479
 10
26.8830418652
 20
-16.372593438
 10
26.9637964687
 20
-16.2871200238
 10
27.0496745358
 20
-16.2089857113
 10
27.140498044
 20
-16.1383524687
 10
27.236078773
 20
-16.0753666725
 10
27.2606109242
 20
-16.0608789053
  0
LWPOLYLINE
  5
2B6
100
AcDbEntity
  8
SMUSSO
100
AcDbPolyline
 62
7
  6
CONTINUOUS
 90
36
 70
0
 10
25.6526947414
 20
-18.0520342513
 10
25.6563090491
 20
-17.8732831427
 10
25.666955239
 20
-17.6997058543
 10
25.6846333111
 20
-17.5313023859
 10
25.7094088347
 20
-17.3677451301
 10
25.7412162404
 20
-17.2093616944
 10
25.7798588208
 20
-17.0571349014
 10
25.8253791357
 20
-16.9111031793
 10
25.8777346252
 20
-16.7712281
 10
25.9366009025
 20
-16.6383772008
 10
26.0020184546
 20
-16.5125942454
 10
26.0739467946
 20
-16.3938354701
 10
26.1519400743
 20
-16.2828371216
 10
26.2360358888
 20
-16.1796475303
 10
26.3261966431
 20
-16.0842183658
 10
26.4218637037
 20
-15.9971408828
 10
26.5230712172
 20
-15.9184669229
 10
26.6297850371
 20
-15.8481446444
 10
26.7413440909
 20
-15.7866097768
 10
26.8577785151
 20
-15.7339168316
 10
26.9790581732
 20
-15.6900112973
 10
27.1044315829
 20
-15.6551653686
 10
27.2339242044
 20
-15.6294353104
 10
27.3675105774
 20
-15.6127648578
 10
27.5043628388
 20
-15.6052574113
 10
27.6445012574
 20
-15.60696989
 10
27.7879055643
 20
-15.6178453749
 10
27.9336870889
 20
-15.6378165098
 10
28.08186058
 20
-15.6669397782
 10
28.2324112889
 20
-15.7051586965
 10
28.3844062987
 20
-15.7522364578
 10
28.5378545879
 20
-15.8082280777
 10
28.692747178
 20
-15.8730785406
 10
28.8481242171
 20
-15.9463859927
 10
29.0039887218
 20
-16.0282029599
 10
29.0818311992
 20
-16.0721261048
  0
LWPOLYLINE
  5
2B7
100
AcDbEntity
  8
ASSI
100
AcDbPolyline
 62
7
  6
CONTINUOUS
 90
36
 70
0
 10
25.6526947414
 20
-18.0520342513
 10
25.6563090491
 20
-17.8732831427
 10
25.666955239
 20
-17.6997058543
 10
25.6846333111
 20
-17.5313023859
 10
25.7094088347
 20
-17.3677451301
 10
25.7412162404
 20
-17.2093616944
 10
25.7798588208
 20
-17.0571349014
 10
25.8253791357
 20
-16.9111031793
 10
25.8777346252
 20
-16.7712281
 10
25.9366009025
 20
-16.6383772008
 10
26.0020184546
 20
-16.5125942454
 10
26.0739467946
 20
-16.3938354701
 10
26.1519400743
 20
-16.2828371216
 10
26.2360358888
 20
-16.1796475303
 10
26.3261966431
 20
-16.0842183658
 10
26.4218637037
 20
-15.9971408828
 10
26.5230712172
 20
-15.9184669229
 10
26.6297850371
 20
-15.8481446444
 10
26.7413440909
 20
-15.7866097768
 10
26.8577785151
 20
-15.7339168316
 10
26.9790581732
 20
-15.6900112973
 10
27.1044315829
 20
-15.6551653686
 10
27.2339242044
 20
-15.6294353104
 10
27.3675105774
 20
-15.6127648578
 10
27.5043628388
 20
-15.6052574113
 10
27.6445012574
 20
-15.60696989
 10
27.7879055643
 20
-15.6178453749
 10
27.9336870889
 20
-15.6378165098
 10
28.08186058
 20
-15.6669397782
 10
28.2324112889
 20
-15.7051586965
 10
28.3844062987
 20
-15.7522364578
 10
28.5378545879
 20
-15.8082280777
 10
28.692747178
 20
-15.8730785406
 10
28.8481242171
 20
-15.9463859927
 10
29.0039887218
 20
-16.0282029599
 10
29.0818311992
 20
-16.0721261048
  0
LWPOLYLINE
  5
2B8
100
AcDbEntity
  8
0
100
AcDbPolyline
 62
7
  6
CONTINUOUS
 90
3
 70
0
 10
27.522720347
 20
-15.9431541914
 10
27.4588637579
 20
-16.0012753547
 10
27.3779969168
 20
-16.0868646428
  0
LWPOLYLINE
  5
2B9
100
AcDbEntity
  8
ASSI
100
AcDbPolyline
 62
7
  6
CONTINUOUS
 90
3
 70
0
 10
27.522720347
 20
-15.9431541914
 10
27.4588637579
 20
-16.0012753547
 10
27.3779969168
 20
-16.0868646428
  0
LINE
  5
2BA
100
AcDbEntity
  8
ASSI
100
AcDbLine
 62
7
  6
CONTINUOUS
 10
54.1530290304
 20
2.0742191065
 11
58.2149620151
 21
4.4195130086
  0
LWPOLYLINE
  5
2BB
100
AcDbEntity
  8
SMUSSO
100
AcDbPolyline
 62
7
  6
CONTINUOUS
 90
15
 70
0
 10
27.2606109242
 20
-16.0608789053
 10
27.3362187668
 20
-16.0201587987
 10
27.4407105417
 20
-15.97284329
 10
27.5493374913
 20
-15.9335182824
 10
27.6618744823
 20
-15.9022653223
 10
27.7780883107
 20
-15.8791492193
 10
27.8977380857
 20
-15.8642179333
 10
28.0205757158
 20
-15.8575024524
 10
28.1463465785
 20
-15.8590167109
 10
28.2747900141
 20
-15.8687575848
 10
28.4056397555
 20
-15.8867048926
 10
28.5386245755
 20
-15.9128214388
 10
28.6734688515
 20
-15.9470531004
 10
28.8098930912
 20
-15.9893289327
 10
28.9476145343
 20
-16.0395613199
  0
LWPOLYLINE
  5
2BC
100
AcDbEntity
  8
ASSI
100
AcDbPolyline
 62
7
  6
CONTINUOUS
 90
15
 70
0
 10
27.2606109242
 20
-16.0608789053
 10
27.3362187668
 20
-16.0201587987
 10
27.4407105417
 20
-15.97284329
 10
27.5493374913
 20
-15.9335182824
 10
27.6618744823
 20
-15.9022653223
 10
27.7780883107
 20
-15.8791492193
 10
27.8977380857
 20
-15.8642179333
 10
28.0205757158
 20
-15.8575024524
 10
28.1463465785
 20
-15.8590167109
 10
28.2747900141
 20
-15.8687575848
 10
28.4056397555
 20
-15.8867048926
 10
28.5386245755
 20
-15.9128214388
 10
28.6734688515
 20
-15.9470531004
 10
28.8098930912
 20
-15.9893289327
 10
28.9476145343
 20
-16.0395613199
  0
LINE
  5
2BD
100
AcDbEntity
  8
ASSI
100
AcDbLine
 62
7
  6
CONTINUOUS
 10
54.1315276785
 20
2.0862140539
 11
54.1530290304
 21
2.0742191065
  0
LINE
  5
2BE
100
AcDbEntity
  8
ASSI
100
AcDbLine
 62
7
  6
CONTINUOUS
 10
52.4355926134
 20
2.2217962692
 11
-57.9108776598
 21
65.9344652389
  0
LINE
  5
2BF
100
AcDbEntity
  8
ASSI
100
AcDbLine
 62
7
  6
CONTINUOUS
 10
53.4454917611
 20
3.2997096038
 11
-57.5074247458
 21
67.3625330283
  0
LWPOLYLINE
  5
2C0
100
AcDbEntity
  8
SMUSSO
100
AcDbPolyline
 62
7
  6
CONTINUOUS
 90
70
 70
0
 10
32.5116305189
 20
-22.0122978065
 10
32.5080162113
 20
-22.1910489151
 10
32.4973700214
 20
-22.3646262035
 10
32.4796919493
 20
-22.5330296719
 10
32.4549164257
 20
-22.6965869277
 10
32.42310902
 20
-22.8549703634
 10
32.3844664396
 20
-23.0071971564
 10
32.3389461247
 20
-23.1532288785
 10
32.2865906352
 20
-23.2931039578
 10
32.2277243579
 20
-23.425954857
 10
32.1623068057
 20
-23.5517378124
 10
32.0903784658
 20
-23.6704965877
 10
32.0123851861
 20
-23.7814949362
 10
31.9282893716
 20
-23.8846845275
 10
31.8381286173
 20
-23.980113692
 10
31.7424615566
 20
-24.067191175
 10
31.6412540432
 20
-24.1458651349
 10
31.5345402233
 20
-24.2161874134
 10
31.4229811695
 20
-24.277722281
 10
31.3065467453
 20
-24.3304152262
 10
31.1852670872
 20
-24.3743207605
 10
31.0598936775
 20
-24.4091666892
 10
30.930401056
 20
-24.4348967474
 10
30.7968146829
 20
-24.4515672
 10
30.6599624216
 20
-24.4590746465
 10
30.519824003
 20
-24.4573621678
 10
30.3764196961
 20
-24.4464866829
 10
30.2306381715
 20
-24.426515548
 10
30.0824646803
 20
-24.3973922796
 10
29.9319139715
 20
-24.3591733613
 10
29.7799189617
 20
-24.3120956
 10
29.6264706725
 20
-24.2561039801
 10
29.4715780824
 20
-24.1912535172
 10
29.3162010433
 20
-24.1179460651
 10
29.1603365386
 20
-24.0361290979
 10
29.0039875849
 20
-23.9458551416
 10
28.8481230832
 20
-23.8476836279
 10
28.6927460513
 20
-23.7415655151
 10
28.5378534714
 20
-23.627549845
 10
28.384405192
 20
-23.5063431737
 10
28.2324101898
 20
-23.3779008527
 10
28.0818594881
 20
-23.2422675307
 10
27.9336860048
 20
-23.1002837097
 10
27.7879044874
 20
-22.9519099357
 10
27.6445001883
 20
-22.7971856627
 10
27.5043617832
 20
-22.6370697552
 10
27.367509542
 20
-22.4715287005
 10
27.2339231946
 20
-22.3005960112
 10
27.1044306063
 20
-22.1253310894
 10
26.9790572432
 20
-21.9457070818
 10
26.8577776391
 20
-21.7617508418
 10
26.7413432607
 20
-21.5746023319
 10
26.6297842389
 20
-21.3842418357
 10
26.5230704428
 20
-21.1906890697
 10
26.4218629466
 20
-20.9951431457
 10
26.3261958908
 20
-20.7975916372
 10
26.2360351348
 20
-20.5980469707
 10
26.1519393313
 20
-20.3977455375
 10
26.0739460809
 20
-20.1966824239
 10
26.002017783
 20
-19.9948625438
 10
25.9366002873
 20
-19.7935370295
 10
25.8777340865
 20
-19.5927088821
 10
25.825378688
 20
-19.3923751007
 10
25.7798584639
 20
-19.1937778154
 10
25.7412159746
 20
-18.9969277562
 10
25.7094086597
 20
-18.8018141932
 10
25.6846332099
 20
-18.6096470671
 10
25.6669551886
 20
-18.4208296915
 10
25.6563090325
 20
-18.2349587529
 10
25.6526947414
 20
-18.0520342513
  0
LWPOLYLINE
  5
2C1
100
AcDbEntity
  8
ASSI
100
AcDbPolyline
 62
7
  6
CONTINUOUS
 90
70
 70
0
 10
32.5116305189
 20
-22.0122978065
 10
32.5080162113
 20
-22.1910489151
 10
32.4973700214
 20
-22.3646262035
 10
32.4796919493
 20
-22.5330296719
 10
32.4549164257
 20
-22.6965869277
 10
32.42310902
 20
-22.8549703634
 10
32.3844664396
 20
-23.0071971564
 10
32.3389461247
 20
-23.1532288785
 10
32.2865906352
 20
-23.2931039578
 10
32.2277243579
 20
-23.425954857
 10
32.1623068057
 20
-23.5517378124
 10
32.0903784658
 20
-23.6704965877
 10
32.0123851861
 20
-23.7814949362
 10
31.9282893716
 20
-23.8846845275
 10
31.8381286173
 20
-23.980113692
 10
31.7424615566
 20
-24.067191175
 10
31.6412540432
 20
-24.1458651349
 10
31.5345402233
 20
-24.2161874134
 10
31.4229811695
 20
-24.277722281
 10
31.3065467453
 20
-24.3304152262
 10
31.1852670872
 20
-24.3743207605
 10
31.0598936775
 20
-24.4091666892
 10
30.930401056
 20
-24.4348967474
 10
30.7968146829
 20
-24.4515672
 10
30.6599624216
 20
-24.4590746465
 10
30.519824003
 20
-24.4573621678
 10
30.3764196961
 20
-24.4464866829
 10
30.2306381715
 20
-24.426515548
 10
30.0824646803
 20
-24.3973922796
 10
29.9319139715
 20
-24.3591733613
 10
29.7799189617
 20
-24.3120956
 10
29.6264706725
 20
-24.2561039801
 10
29.4715780824
 20
-24.1912535172
 10
29.3162010433
 20
-24.1179460651
 10
29.1603365386
 20
-24.0361290979
 10
29.0039875849
 20
-23.9458551416
 10
28.8481230832
 20
-23.8476836279
 10
28.6927460513
 20
-23.7415655151
 10
28.5378534714
 20
-23.627549845
 10
28.384405192
 20
-23.5063431737
 10
28.2324101898
 20
-23.3779008527
 10
28.0818594881
 20
-23.2422675307
 10
27.9336860048
 20
-23.1002837097
 10
27.7879044874
 20
-22.9519099357
 10
27.6445001883
 20
-22.7971856627
 10
27.5043617832
 20
-22.6370697552
 10
27.367509542
 20
-22.4715287005
 10
27.2339231946
 20
-22.3005960112
 10
27.1044306063
 20
-22.1253310894
 10
26.9790572432
 20
-21.9457070818
 10
26.8577776391
 20
-21.7617508418
 10
26.7413432607
 20
-21.5746023319
 10
26.6297842389
 20
-21.3842418357
 10
26.5230704428
 20
-21.1906890697
 10
26.4218629466
 20
-20.9951431457
 10
26.3261958908
 20
-20.7975916372
 10
26.2360351348
 20
-20.5980469707
 10
26.1519393313
 20
-20.3977455375
 10
26.0739460809
 20
-20.1966824239
 10
26.002017783
 20
-19.9948625438
 10
25.9366002873
 20
-19.7935370295
 10
25.8777340865
 20
-19.5927088821
 10
25.825378688
 20
-19.3923751007
 10
25.7798584639
 20
-19.1937778154
 10
25.7412159746
 20
-18.9969277562
 10
25.7094086597
 20
-18.8018141932
 10
25.6846332099
 20
-18.6096470671
 10
25.6669551886
 20
-18.4208296915
 10
25.6563090325
 20
-18.2349587529
 10
25.6526947414
 20
-18.0520342513
  0
LINE
  5
2C2
100
AcDbEntity
  8
SMUSSO
100
AcDbLine
 62
7
  6
CONTINUOUS
 10
32.5062810126
 20
-21.7990782305
 11
32.4988881314
 21
-21.9196139648
  0
LINE
  5
2C3
100
AcDbEntity
  8
ASSI
100
AcDbLine
 62
7
  6
CONTINUOUS
 10
32.5062810126
 20
-21.7990782305
 11
32.4988881314
 21
-21.9196139648
  0
LWPOLYLINE
  5
2C4
100
AcDbEntity
  8
SMUSSO
100
AcDbPolyline
 62
7
  6
CONTINUOUS
 90
17
 70
0
 10
32.4988881314
 20
-21.9196139648
 10
32.4829845623
 20
-22.0710715609
 10
32.4607652877
 20
-22.2178825184
 10
32.4322761564
 20
-22.3597421104
 10
32.397576203
 20
-22.4963553912
 10
32.3567372512
 20
-22.6274390514
 10
32.3098438138
 20
-22.7527213657
 10
32.2569932003
 20
-22.871942078
 10
32.1982949429
 20
-22.9848539909
 10
32.133870641
 20
-23.0912230929
 10
32.0638539812
 20
-23.1908286165
 10
31.9883901764
 20
-23.2834640264
 10
31.9076355729
 20
-23.3689374406
 10
31.8217575057
 20
-23.4470717532
 10
31.7309339976
 20
-23.5177049958
 10
31.6353532686
 20
-23.5806907919
 10
31.6108211174
 20
-23.5951785592
  0
LWPOLYLINE
  5
2C5
100
AcDbEntity
  8
ASSI
100
AcDbPolyline
 62
7
  6
CONTINUOUS
 90
17
 70
0
 10
32.4988881314
 20
-21.9196139648
 10
32.4829845623
 20
-22.0710715609
 10
32.4607652877
 20
-22.2178825184
 10
32.4322761564
 20
-22.3597421104
 10
32.397576203
 20
-22.4963553912
 10
32.3567372512
 20
-22.6274390514
 10
32.3098438138
 20
-22.7527213657
 10
32.2569932003
 20
-22.871942078
 10
32.1982949429
 20
-22.9848539909
 10
32.133870641
 20
-23.0912230929
 10
32.0638539812
 20
-23.1908286165
 10
31.9883901764
 20
-23.2834640264
 10
31.9076355729
 20
-23.3689374406
 10
31.8217575057
 20
-23.4470717532
 10
31.7309339976
 20
-23.5177049958
 10
31.6353532686
 20
-23.5806907919
 10
31.6108211174
 20
-23.5951785592
  0
LWPOLYLINE
  5
2C6
100
AcDbEntity
  8
0
100
AcDbPolyline
 62
7
  6
CONTINUOUS
 90
14
 70
0
 10
27.3779969168
 20
-16.0868646428
 10
27.3025697337
 20
-16.179414266
 10
27.2326159854
 20
-16.2789674435
 10
27.1681018952
 20
-16.3854809562
 10
27.1094272274
 20
-16.4982947883
 10
27.0566282412
 20
-16.6174480609
 10
27.0096686774
 20
-16.7429016529
 10
26.9688395229
 20
-16.8738781857
 10
26.9341788439
 20
-17.0104119532
 10
26.9056485742
 20
-17.1524686616
 10
26.8834255031
 20
-17.2991680501
 10
26.8675685601
 20
-17.4502166985
 10
26.8580188155
 20
-17.6059080271
 10
26.8547762695
 20
-17.7662420359
  0
LWPOLYLINE
  5
2C7
100
AcDbEntity
  8
ASSI
100
AcDbPolyline
 62
7
  6
CONTINUOUS
 90
14
 70
0
 10
27.3779969168
 20
-16.0868646428
 10
27.3025697337
 20
-16.179414266
 10
27.2326159854
 20
-16.2789674435
 10
27.1681018952
 20
-16.3854809562
 10
27.1094272274
 20
-16.4982947883
 10
27.0566282412
 20
-16.6174480609
 10
27.0096686774
 20
-16.7429016529
 10
26.9688395229
 20
-16.8738781857
 10
26.9341788439
 20
-17.0104119532
 10
26.9056485742
 20
-17.1524686616
 10
26.8834255031
 20
-17.2991680501
 10
26.8675685601
 20
-17.4502166985
 10
26.8580188155
 20
-17.6059080271
 10
26.8547762695
 20
-17.7662420359
  0
LINE
  5
2C8
100
AcDbEntity
  8
ASSI
100
AcDbLine
 62
7
  6
CONTINUOUS
 10
52.4355926134
 20
2.2217962692
 11
53.4451293308
 21
3.275090865
  0
LWPOLYLINE
  5
2C9
100
AcDbEntity
  8
SMUSSO
100
AcDbPolyline
 62
7
  6
CONTINUOUS
 90
53
 70
0
 10
31.6108211174
 20
-23.5951785592
 10
31.5352132748
 20
-23.6358986657
 10
31.4307214999
 20
-23.6832141744
 10
31.3220945502
 20
-23.722539182
 10
31.2095575593
 20
-23.7537921421
 10
31.0933437308
 20
-23.7769082452
 10
30.9736939558
 20
-23.7918395312
 10
30.8508563257
 20
-23.7985550121
 10
30.725085463
 20
-23.7970407535
 10
30.5966420275
 20
-23.7872998796
 10
30.465792286
 20
-23.7693525719
 10
30.332807466
 20
-23.7432360257
 10
30.1979631901
 20
-23.709004364
 10
30.0615389503
 20
-23.6667285318
 10
29.9238175072
 20
-23.6164961446
 10
29.7850843243
 20
-23.5584113146
 10
29.6456269769
 20
-23.4925944386
 10
29.5057345134
 20
-23.419181929
 10
29.365696899
 20
-23.338325949
 10
29.225804436
 20
-23.2501941155
 10
29.0863470896
 20
-23.1549691097
 10
28.9476139081
 20
-23.052848305
 10
28.809892466
 20
-22.9440433886
 10
28.6734682264
 20
-22.8287798938
 10
28.5386239501
 20
-22.7072967298
 10
28.4056391302
 20
-22.5798457028
 10
28.2747893884
 20
-22.4466909711
 10
28.1463459531
 20
-22.3081085463
 10
28.0205750944
 20
-22.1643857291
 10
27.8977374734
 20
-22.0158204007
 10
27.7780877108
 20
-21.8627205259
 10
27.6618738967
 20
-21.7054035809
 10
27.5493369237
 20
-21.5441957033
 10
27.4407099936
 20
-21.379430998
 10
27.3362182339
 20
-21.2114509802
 10
27.2360782503
 20
-21.0406039149
 10
27.1404975287
 20
-20.8672438434
 10
27.0496740239
 20
-20.6917298324
 10
26.9637959533
 20
-20.5144256016
 10
26.8830413454
 20
-20.3356987038
 10
26.8075775451
 20
-20.1559195006
 10
26.7375608978
 20
-19.9754604183
 10
26.6731366164
 20
-19.7946956823
 10
26.6144383944
 20
-19.6140004631
 10
26.5615878295
 20
-19.4337491968
 10
26.514694449
 20
-19.2543155609
 10
26.4738555611
 20
-19.0760721905
 10
26.4391556748
 20
-18.899388407
 10
26.4106666084
 20
-18.724630454
 10
26.3884473913
 20
-18.5521614421
 10
26.3725438684
 20
-18.3823390399
 10
26.3629887217
 20
-18.2155147719
 10
26.3598015226
 20
-18.0520342513
  0
LWPOLYLINE
  5
2CA
100
AcDbEntity
  8
ASSI
100
AcDbPolyline
 62
7
  6
CONTINUOUS
 90
53
 70
0
 10
31.6108211174
 20
-23.5951785592
 10
31.5352132748
 20
-23.6358986657
 10
31.4307214999
 20
-23.6832141744
 10
31.3220945502
 20
-23.722539182
 10
31.2095575593
 20
-23.7537921421
 10
31.0933437308
 20
-23.7769082452
 10
30.9736939558
 20
-23.7918395312
 10
30.8508563257
 20
-23.7985550121
 10
30.725085463
 20
-23.7970407535
 10
30.5966420275
 20
-23.7872998796
 10
30.465792286
 20
-23.7693525719
 10
30.332807466
 20
-23.7432360257
 10
30.1979631901
 20
-23.709004364
 10
30.0615389503
 20
-23.6667285318
 10
29.9238175072
 20
-23.6164961446
 10
29.7850843243
 20
-23.5584113146
 10
29.6456269769
 20
-23.4925944386
 10
29.5057345134
 20
-23.419181929
 10
29.365696899
 20
-23.338325949
 10
29.225804436
 20
-23.2501941155
 10
29.0863470896
 20
-23.1549691097
 10
28.9476139081
 20
-23.052848305
 10
28.809892466
 20
-22.9440433886
 10
28.6734682264
 20
-22.8287798938
 10
28.5386239501
 20
-22.7072967298
 10
28.4056391302
 20
-22.5798457028
 10
28.2747893884
 20
-22.4466909711
 10
28.1463459531
 20
-22.3081085463
 10
28.0205750944
 20
-22.1643857291
 10
27.8977374734
 20
-22.0158204007
 10
27.7780877108
 20
-21.8627205259
 10
27.6618738967
 20
-21.7054035809
 10
27.5493369237
 20
-21.5441957033
 10
27.4407099936
 20
-21.379430998
 10
27.3362182339
 20
-21.2114509802
 10
27.2360782503
 20
-21.0406039149
 10
27.1404975287
 20
-20.8672438434
 10
27.0496740239
 20
-20.6917298324
 10
26.9637959533
 20
-20.5144256016
 10
26.8830413454
 20
-20.3356987038
 10
26.8075775451
 20
-20.1559195006
 10
26.7375608978
 20
-19.9754604183
 10
26.6731366164
 20
-19.7946956823
 10
26.6144383944
 20
-19.6140004631
 10
26.5615878295
 20
-19.4337491968
 10
26.514694449
 20
-19.2543155609
 10
26.4738555611
 20
-19.0760721905
 10
26.4391556748
 20
-18.899388407
 10
26.4106666084
 20
-18.724630454
 10
26.3884473913
 20
-18.5521614421
 10
26.3725438684
 20
-18.3823390399
 10
26.3629887217
 20
-18.2155147719
 10
26.3598015226
 20
-18.0520342513
  0
LINE
  5
2CB
100
AcDbEntity
  8
ASSI
100
AcDbLine
 62
7
  6
CONTINUOUS
 10
57.5074247458
 20
5.645003506
 11
-53.7196109586
 21
69.8660999196
  0
LINE
  5
2CC
100
AcDbEntity
  8
ASSI
100
AcDbLine
 62
7
  6
CONTINUOUS
 10
52.7145685475
 20
1.7385957777
 11
52.4355926134
 21
2.2217962692
  0
LINE
  5
2CD
100
AcDbEntity
  8
ASSI
100
AcDbLine
 62
7
  6
CONTINUOUS
 10
54.1315276785
 20
2.0862140539
 11
53.4451293308
 21
3.275090865
  0
LWPOLYLINE
  5
2CE
100
AcDbEntity
  8
CURVE
100
AcDbPolyline
 62
250
  6
CONTINUOUS
 90
73
 70
0
 10
56.2296912849
 20
-56.4856034133
 10
56.2285483067
 20
-56.4792673552
 10
56.2267962858
 20
-56.4734635562
 10
56.2245028276
 20
-56.468138536
 10
56.2217355373
 20
-56.4632388147
 10
56.2185620201
 20
-56.4587109122
 10
56.2150498812
 20
-56.4545013483
 10
56.211266726
 20
-56.450556643
 10
56.2072801596
 20
-56.4468233163
 10
56.2031577874
 20
-56.4432478879
 10
56.1989672146
 20
-56.439776878
 10
56.1883740527
 20
-56.4312918342
 10
56.1777230686
 20
-56.4231773024
 10
56.1669602159
 20
-56.4154807512
 10
56.1560314482
 20
-56.4082496491
 10
56.1448827192
 20
-56.4015314648
 10
56.1334599824
 20
-56.3953736667
 10
56.1217091914
 20
-56.3898237234
 10
56.1095762999
 20
-56.3849291035
 10
56.0959984126
 20
-56.380421787
 10
56.0819490452
 20
-56.37672326
 10
56.0674654704
 20
-56.3738225251
 10
56.0525849611
 20
-56.371708585
 10
56.03734479
 20
-56.3703704423
 10
56.0217822301
 20
-56.3697970996
 10
56.005934554
 20
-56.3699775596
 10
55.9898390348
 20
-56.3709008249
 10
55.973532945
 20
-56.3725558982
 10
55.9570535577
 20
-56.3749317821
 10
55.9404485969
 20
-56.3780139855
 10
55.9237174379
 20
-56.3817914057
 10
55.906869662
 20
-56.3862507272
 10
55.8899148503
 20
-56.3913786346
 10
55.8728625839
 20
-56.3971618124
 10
55.8557224442
 20
-56.403586945
 10
55.8360343427
 20
-56.4117003287
 10
55.8162689204
 20
-56.4206085891
 10
55.7964511764
 20
-56.4302850366
 10
55.7766061098
 20
-56.4407029816
 10
55.7567587196
 20
-56.4518357346
 10
55.7369340051
 20
-56.4636566059
 10
55.7176494822
 20
-56.4758257959
 10
55.6984337072
 20
-56.4886353182
 10
55.6793101017
 20
-56.5020966582
 10
55.6603020872
 20
-56.5162213011
 10
55.6414330853
 20
-56.5310207324
 10
55.6246101591
 20
-56.5449069627
 10
55.6079389292
 20
-56.5593413735
 10
55.5914398398
 20
-56.5743176141
 10
55.5751333353
 20
-56.5898293342
 10
55.5590398599
 20
-56.6058701832
 10
55.5417867376
 20
-56.6239223212
 10
55.5248390033
 20
-56.6425599979
 10
55.5082253591
 20
-56.6617492153
 10
55.4919745069
 20
-56.6814559748
 10
55.4761151489
 20
-56.7016462783
 10
55.4606759872
 20
-56.7222861274
 10
55.4456857239
 20
-56.7433415238
 10
55.431173061
 20
-56.7647784693
 10
55.4179283684
 20
-56.7853455017
 10
55.4051457083
 20
-56.8061980962
 10
55.3928354765
 20
-56.8273117897
 10
55.3810080687
 20
-56.8486621187
 10
55.3696738807
 20
-56.8702246201
 10
55.3588433082
 20
-56.8919748305
 10
55.348526747
 20
-56.9138882867
 10
55.3413426888
 20
-56.9299481021
 10
55.3344766192
 20
-56.9460611354
 10
55.3279679083
 20
-56.9622068691
 10
55.3218559264
 20
-56.9783647856
 10
55.3161800436
 20
-56.9945143677
 10
55.3109796302
 20
-57.0106350977
 10
55.3062940564
 20
-57.0267064581
  0
LWPOLYLINE
  5
2CF
100
AcDbEntity
  8
CURVE
100
AcDbPolyline
 62
250
  6
CONTINUOUS
 90
22
 70
0
 10
55.5771371363
 20
-57.5220636148
 10
55.5749094678
 20
-57.5083873869
 10
55.5727826878
 20
-57.494638749
 10
55.5707738388
 20
-57.4808059413
 10
55.5688999633
 20
-57.4668772037
 10
55.5671781039
 20
-57.4528407762
 10
55.5656253029
 20
-57.438684899
 10
55.5641551145
 20
-57.4232619638
 10
55.5629017897
 20
-57.4076912001
 10
55.5618653989
 20
-57.3919776284
 10
55.5610460129
 20
-57.3761262693
 10
55.560443702
 20
-57.3601421432
 10
55.5600585369
 20
-57.3440302708
 10
55.5598905881
 20
-57.3277956726
 10
55.5599399262
 20
-57.311443369
 10
55.5602066216
 20
-57.2949783808
 10
55.5606907451
 20
-57.2784057283
 10
55.561392367
 20
-57.2617304323
 10
55.5623115579
 20
-57.2449575131
 10
55.5634483884
 20
-57.2280919913
 10
55.5648029291
 20
-57.2111388875
 10
55.5663752504
 20
-57.1941032223
  0
LINE
  5
2D0
100
AcDbEntity
  8
ASSI
100
AcDbLine
 62
7
  6
CONTINUOUS
 10
52.7145685475
 20
-69.0930378217
 11
52.7145685475
 21
1.7385957777
  0
LINE
  5
2D1
100
AcDbEntity
  8
ASSI
100
AcDbLine
 62
7
  6
CONTINUOUS
 10
54.1530290304
 20
-69.4576557258
 11
54.1530290304
 21
2.0742191065
  0
LINE
  5
2D2
100
AcDbEntity
  8
CURVE
100
AcDbLine
 62
250
  6
CONTINUOUS
 10
55.2655774164
 20
-62.2697565057
 11
55.2655774164
 21
-62.6957849809
  0
LINE
  5
2D3
100
AcDbEntity
  8
CURVE
100
AcDbLine
 62
250
  6
CONTINUOUS
 10
55.2656863881
 20
-64.5323345557
 11
55.2656863881
 21
-64.0695363416
  0
LINE
  5
2D4
100
AcDbEntity
  8
CURVE
100
AcDbLine
 62
250
  6
CONTINUOUS
 10
55.2656863881
 20
-63.2795637912
 11
55.2656863881
 21
-62.853826796
  0
LINE
  5
2D5
100
AcDbEntity
  8
CURVE
100
AcDbLine
 62
250
  6
CONTINUOUS
 10
55.2656863881
 20
-61.8560666424
 11
55.2656863881
 21
-61.4303908825
  0
LINE
  5
2D6
100
AcDbEntity
  8
CURVE
100
AcDbLine
 62
250
  6
CONTINUOUS
 10
55.2656863881
 20
-60.5828334999
 11
55.2656863881
 21
-60.1613201054
  0
LINE
  5
2D7
100
AcDbEntity
  8
CURVE
100
AcDbLine
 62
250
  6
CONTINUOUS
 10
55.2656863881
 20
-59.2633946714
 11
55.2656863881
 21
-58.8512633369
  0
LINE
  5
2D8
100
AcDbEntity
  8
ASSI
100
AcDbLine
 62
7
  6
CONTINUOUS
 10
53.4454917611
 20
3.2997096038
 11
53.4451293308
 21
3.275090865
  0
LINE
  5
2D9
100
AcDbEntity
  8
ASSI
100
AcDbLine
 62
7
  6
CONTINUOUS
 10
57.5074247458
 20
5.645003506
 11
58.2149620151
 21
4.4195130086
  0
LINE
  5
2DA
100
AcDbEntity
  8
CURVE
100
AcDbLine
 62
250
  6
CONTINUOUS
 10
56.079011173
 20
-57.0083723383
 11
56.079011173
 21
-57.2518433295
  0
LINE
  5
2DB
100
AcDbEntity
  8
CURVE
100
AcDbLine
 62
250
  6
CONTINUOUS
 10
56.3784246608
 20
-57.0765059039
 11
56.3784246608
 21
-56.848079669
  0
LINE
  5
2DC
100
AcDbEntity
  8
CURVE
100
AcDbLine
 62
250
  6
CONTINUOUS
 10
56.4464920444
 20
-58.6416876436
 11
56.4464920444
 21
-58.2337954227
  0
LINE
  5
2DD
100
AcDbEntity
  8
CURVE
100
AcDbLine
 62
250
  6
CONTINUOUS
 10
56.728905739
 20
-57.9965960081
 11
56.728905739
 21
-58.5767757044
  0
LINE
  5
2DE
100
AcDbEntity
  8
CURVE
100
AcDbLine
 62
250
  6
CONTINUOUS
 10
57.0938775648
 20
-61.7113870011
 11
57.0938775648
 21
-61.285358526
  0
LINE
  5
2DF
100
AcDbEntity
  8
CURVE
100
AcDbLine
 62
250
  6
CONTINUOUS
 10
57.0938775769
 20
-57.1156041057
 11
57.0938775769
 21
-56.6912899393
  0
LINE
  5
2E0
100
AcDbEntity
  8
CURVE
100
AcDbLine
 62
250
  6
CONTINUOUS
 10
57.0938775769
 20
-56.0388862467
 11
57.0938775769
 21
-55.6290964687
  0
LINE
  5
2E1
100
AcDbEntity
  8
CURVE
100
AcDbLine
 62
250
  6
CONTINUOUS
 10
57.0938775648
 20
-57.2407068406
 11
57.0938775648
 21
-57.6897230363
  0
LINE
  5
2E2
100
AcDbEntity
  8
CURVE
100
AcDbLine
 62
250
  6
CONTINUOUS
 10
57.0938775648
 20
-58.4978244928
 11
57.0938775648
 21
-58.9192301132
  0
LINE
  5
2E3
100
AcDbEntity
  8
CURVE
100
AcDbLine
 62
250
  6
CONTINUOUS
 10
57.0938775648
 20
-58.9861284218
 11
57.0938775648
 21
-59.4028973076
  0
LINE
  5
2E4
100
AcDbEntity
  8
CURVE
100
AcDbLine
 62
250
  6
CONTINUOUS
 10
57.0938775648
 20
-59.996973328
 11
57.0938775648
 21
-60.0567242558
  0
LINE
  5
2E5
100
AcDbEntity
  8
CURVE
100
AcDbLine
 62
250
  6
CONTINUOUS
 10
57.0938775648
 20
-60.648443943
 11
57.0938775648
 21
-61.0560144746
  0
LINE
  5
2E6
100
AcDbEntity
  8
CURVE
100
AcDbLine
 62
250
  6
CONTINUOUS
 10
57.0938775648
 20
-62.5255336035
 11
57.0938775648
 21
-62.9009711309
  0
LINE
  5
2E7
100
AcDbEntity
  8
ASSI
100
AcDbLine
 62
7
  6
CONTINUOUS
 10
58.2149620151
 20
-67.4288772115
 11
58.2149620151
 21
4.4195130086
  0
LWPOLYLINE
  5
2E8
100
AcDbEntity
  8
CURVE
100
AcDbPolyline
 62
250
  6
CONTINUOUS
 90
48
 70
0
 10
56.3784246608
 20
-56.848079669
 10
56.3784992625
 20
-56.8414799047
 10
56.3787238812
 20
-56.8347877211
 10
56.3790997376
 20
-56.8280092122
 10
56.3796280524
 20
-56.821150472
 10
56.380310046
 20
-56.8142175946
 10
56.3811469392
 20
-56.8072166737
 10
56.3821399526
 20
-56.8001538036
 10
56.3832903066
 20
-56.7930350782
 10
56.3845992221
 20
-56.7858665914
 10
56.3860679195
 20
-56.7786544374
 10
56.3876976195
 20
-56.7714047099
 10
56.3894895427
 20
-56.7641235032
 10
56.3914449096
 20
-56.7568169111
 10
56.3935649411
 20
-56.7494910276
 10
56.3958508575
 20
-56.7421519468
 10
56.3983038796
 20
-56.7348057626
 10
56.4009252279
 20
-56.7274585691
 10
56.4037883125
 20
-56.719929159
 10
56.4068241612
 20
-56.7124094918
 10
56.4100272421
 20
-56.7049039635
 10
56.4133920231
 20
-56.6974169699
 10
56.4169129723
 20
-56.689952907
 10
56.4205845576
 20
-56.6825161707
 10
56.424401247
 20
-56.6751111569
 10
56.4283575085
 20
-56.6677422615
 10
56.4324478101
 20
-56.6604138805
 10
56.4366666198
 20
-56.6531304097
 10
56.4410084056
 20
-56.6458962451
 10
56.4454676355
 20
-56.6387157825
 10
56.4500387773
 20
-56.631593418
 10
56.4547162993
 20
-56.6245335473
 10
56.4594946692
 20
-56.6175405665
 10
56.4643683552
 20
-56.6106188714
 10
56.4693318252
 20
-56.603772858
 10
56.4743795471
 20
-56.5970069222
 10
56.4795059891
 20
-56.5903254598
 10
56.484705619
 20
-56.5837328668
 10
56.4899729049
 20
-56.5772335392
 10
56.4953023147
 20
-56.5708318727
 10
56.5006883165
 20
-56.5645322634
 10
56.5061253781
 20
-56.5583391072
 10
56.5116079677
 20
-56.5522567999
 10
56.5171305532
 20
-56.5462897376
 10
56.5226876026
 20
-56.540442316
 10
56.5282735839
 20
-56.5347189312
 10
56.533882965
 20
-56.5291239789
 10
56.539510214
 20
-56.5236618553
  0
LWPOLYLINE
  5
2E9
100
AcDbEntity
  8
CURVE
100
AcDbPolyline
 62
250
  6
CONTINUOUS
 90
49
 70
0
 10
55.5663752504
 20
-57.1941032223
 10
55.567281639
 20
-57.1858071518
 10
55.5683770831
 20
-57.1774087572
 10
55.5696610512
 20
-57.1689169248
 10
55.5711330119
 20
-57.1603405408
 10
55.5727924338
 20
-57.1516884915
 10
55.5746387852
 20
-57.1429696631
 10
55.5766715349
 20
-57.1341929418
 10
55.5788901511
 20
-57.1253672141
 10
55.5812941026
 20
-57.116501366
 10
55.5838828577
 20
-57.1076042838
 10
55.5866558851
 20
-57.0986848539
 10
55.5896126532
 20
-57.0897519624
 10
55.5927526306
 20
-57.0808144956
 10
55.5960752858
 20
-57.0718813399
 10
55.5995800872
 20
-57.0629613813
 10
55.6032665035
 20
-57.0540635062
 10
55.6071340031
 20
-57.0451966009
 10
55.6111820546
 20
-57.0363695516
 10
55.6154101265
 20
-57.0275912445
 10
55.6198176872
 20
-57.0188705659
 10
55.6244042054
 20
-57.0102164021
 10
55.6291691496
 20
-57.0016376394
 10
55.6341119881
 20
-56.9931431639
 10
55.6392321897
 20
-56.9847418619
 10
55.644498911
 20
-56.9764867559
 10
55.6499323006
 20
-56.9683395318
 10
55.6555240962
 20
-56.9603071091
 10
55.6612660355
 20
-56.952396407
 10
55.6671498562
 20
-56.9446143449
 10
55.6731672961
 20
-56.9369678422
 10
55.6793100928
 20
-56.9294638182
 10
55.6855699842
 20
-56.9221091922
 10
55.6919387078
 20
-56.9149108836
 10
55.6984080016
 20
-56.9078758117
 10
55.7049696031
 20
-56.9010108959
 10
55.7116152501
 20
-56.8943230555
 10
55.7183366803
 20
-56.8878192099
 10
55.7251256315
 20
-56.8815062783
 10
55.7319738414
 20
-56.8753911802
 10
55.7388730476
 20
-56.8694808349
 10
55.745814988
 20
-56.8637821618
 10
55.7527914002
 20
-56.8583020801
 10
55.759794022
 20
-56.8530475092
 10
55.7668145911
 20
-56.8480253684
 10
55.7738448452
 20
-56.8432425772
 10
55.780876522
 20
-56.8387060549
 10
55.7879013593
 20
-56.8344227207
 10
55.7949110948
 20
-56.830399494
  0
LWPOLYLINE
  5
2EA
100
AcDbEntity
  8
CURVE
100
AcDbPolyline
 62
250
  6
CONTINUOUS
 90
32
 70
0
 10
55.3062940564
 20
-57.0267064581
 10
55.2986913432
 20
-57.0554610625
 10
55.2917423158
 20
-57.0841004741
 10
55.2854152638
 20
-57.1126208552
 10
55.2796784771
 20
-57.1410183683
 10
55.2745002455
 20
-57.1692891756
 10
55.2698488585
 20
-57.1974294395
 10
55.2656926061
 20
-57.2254353224
 10
55.2619997779
 20
-57.2533029865
 10
55.2587386636
 20
-57.2810285943
 10
55.2558775532
 20
-57.308608308
 10
55.2533847362
 20
-57.33603829
 10
55.2512285024
 20
-57.3633147027
 10
55.248562959
 20
-57.4040446769
 10
55.246559441
 20
-57.4444292484
 10
55.2451903495
 20
-57.4844790698
 10
55.2444280853
 20
-57.5242047941
 10
55.2442450494
 20
-57.563617074
 10
55.2446136427
 20
-57.6027265622
 10
55.2455062662
 20
-57.6415439117
 10
55.2468953209
 20
-57.6800797752
 10
55.2487532076
 20
-57.7183448055
 10
55.2510523273
 20
-57.7563496554
 10
55.253765081
 20
-57.7941049776
 10
55.2568638695
 20
-57.8316214251
 10
55.260321094
 20
-57.8689096506
 10
55.2641091552
 20
-57.9059803069
 10
55.2682004542
 20
-57.9428440467
 10
55.2725673919
 20
-57.9795115229
 10
55.2771823692
 20
-58.0159933884
 10
55.2820177871
 20
-58.0523002958
 10
55.2870460465
 20
-58.088442898
  0
LINE
  5
2EB
100
AcDbEntity
  8
CURVE
100
AcDbLine
 62
7
  6
CONTINUOUS
 10
55.4822410935
 20
-56.6944121167
 11
55.6584714534
 21
-56.5181817569
  0
LINE
  5
2EC
100
AcDbEntity
  8
CURVE
100
AcDbLine
 62
7
  6
CONTINUOUS
 10
55.2890661517
 20
-57.0975977726
 11
56.0163059749
 21
-56.3703579493
  0
LINE
  5
2ED
100
AcDbEntity
  8
CURVE
100
AcDbLine
 62
7
  6
CONTINUOUS
 10
55.2530231412
 20
-57.343651497
 11
56.1751561557
 21
-56.4215184825
  0
LWPOLYLINE
  5
2EE
100
AcDbEntity
  8
CURVE
100
AcDbPolyline
 62
250
  6
CONTINUOUS
 90
44
 70
0
 10
56.5424528759
 20
-56.0888875997
 10
56.5282837118
 20
-56.1010617154
 10
56.5140491363
 20
-56.1134864335
 10
56.499719726
 20
-56.1262387563
 10
56.491844856
 20
-56.1333672222
 10
56.4839408624
 20
-56.1406139723
 10
56.4760156891
 20
-56.1479765923
 10
56.4680772801
 20
-56.1554526681
 10
56.4601335792
 20
-56.1630397854
 10
56.4521925303
 20
-56.1707355301
 10
56.4442620774
 20
-56.178537488
 10
56.4363501643
 20
-56.1864432449
 10
56.428464735
 20
-56.1944503866
 10
56.4206137333
 20
-56.2025564989
 10
56.4128051032
 20
-56.2107591676
 10
56.4050467885
 20
-56.2190559786
 10
56.3973467332
 20
-56.2274445176
 10
56.3897128812
 20
-56.2359223705
 10
56.3821531763
 20
-56.2444871231
 10
56.3746755625
 20
-56.2531363611
 10
56.3672879837
 20
-56.2618676704
 10
56.3599983837
 20
-56.2706786368
 10
56.3528147065
 20
-56.2795668462
 10
56.345744896
 20
-56.2885298843
 10
56.3387968961
 20
-56.2975653369
 10
56.3319786506
 20
-56.3066707898
 10
56.3252981036
 20
-56.3158438289
 10
56.3187631988
 20
-56.32508204
 10
56.3123818802
 20
-56.3343830089
 10
56.3061620918
 20
-56.3437443214
 10
56.3001117773
 20
-56.3531635632
 10
56.2942388807
 20
-56.3626383203
 10
56.288551346
 20
-56.3721661784
 10
56.2830571169
 20
-56.3817447233
 10
56.2777641375
 20
-56.3913715409
 10
56.2726803516
 20
-56.401044217
 10
56.2678137031
 20
-56.4107603373
 10
56.2631721359
 20
-56.4205174877
 10
56.2587635939
 20
-56.430313254
 10
56.2545960211
 20
-56.440145222
 10
56.2506773613
 20
-56.4500109775
 10
56.2470155584
 20
-56.4599081063
 10
56.2436185563
 20
-56.4698341942
 10
56.240494299
 20
-56.4797868272
  0
LINE
  5
2EF
100
AcDbEntity
  8
CURVE
100
AcDbLine
 62
250
  6
CONTINUOUS
 10
56.5707126634
 20
-56.0649831668
 11
56.5424528759
 21
-56.0888875997
  0
LINE
  5
2F0
100
AcDbEntity
  8
CURVE
100
AcDbLine
 62
250
  6
CONTINUOUS
 10
56.7312050756
 20
-55.930506995
 11
56.5707126634
 21
-56.0649831668
  0
LINE
  5
2F1
100
AcDbEntity
  8
CURVE
100
AcDbLine
 62
250
  6
CONTINUOUS
 10
57.0938775769
 20
-55.6290964687
 11
57.0286078482
 21
-55.6836764416
  0
LINE
  5
2F2
100
AcDbEntity
  8
CURVE
100
AcDbLine
 62
250
  6
CONTINUOUS
 10
57.0286078482
 20
-55.6836764416
 11
56.7312050756
 21
-55.930506995
  0
LWPOLYLINE
  5
2F3
100
AcDbEntity
  8
CURVE
100
AcDbPolyline
 62
250
  6
CONTINUOUS
 90
59
 70
0
 10
55.7949110948
 20
-56.830399494
 10
55.8028488114
 20
-56.8261022293
 10
55.81084791
 20
-56.8219974318
 10
55.8188974351
 20
-56.8180911001
 10
55.826986431
 20
-56.8143892327
 10
55.8351039421
 20
-56.8108978282
 10
55.843239013
 20
-56.8076228851
 10
55.851380688
 20
-56.804570402
 10
55.8595180115
 20
-56.8017463773
 10
55.867640028
 20
-56.7991568096
 10
55.875735782
 20
-56.7968076974
 10
55.8837943178
 20
-56.7947050393
 10
55.8918046798
 20
-56.7928548337
 10
55.8997559125
 20
-56.7912630792
 10
55.9076370604
 20
-56.7899357744
 10
55.9154371678
 20
-56.7888789178
 10
55.9231452792
 20
-56.7880985078
 10
55.930750439
 20
-56.7876005431
 10
55.9382416916
 20
-56.7873910221
 10
55.9456080815
 20
-56.7874759435
 10
55.9528386531
 20
-56.7878613056
 10
55.9599224508
 20
-56.7885531071
 10
55.9668485191
 20
-56.7895573465
 10
55.9736059023
 20
-56.7908800223
 10
55.9801836449
 20
-56.792527133
 10
55.9865707913
 20
-56.7945046772
 10
55.992756386
 20
-56.7968186534
 10
55.9987294734
 20
-56.7994750601
 10
56.0044790978
 20
-56.8024798959
 10
56.0099943039
 20
-56.8058391592
 10
56.0152641358
 20
-56.8095588487
 10
56.0202146137
 20
-56.8135843816
 10
56.0249209287
 20
-56.8179532207
 10
56.0293884004
 20
-56.8226520354
 10
56.0336223484
 20
-56.827667495
 10
56.0376280926
 20
-56.832986269
 10
56.0414109524
 20
-56.8385950265
 10
56.0449762477
 20
-56.8444804371
 10
56.0483292981
 20
-56.85062917
 10
56.0514754233
 20
-56.8570278947
 10
56.0544199428
 20
-56.8636632804
 10
56.0571681765
 20
-56.8705219966
 10
56.059725444
 20
-56.8775907125
 10
56.062097065
 20
-56.8848560977
 10
56.064288359
 20
-56.8923048214
 10
56.0663046459
 20
-56.8999235529
 10
56.0681512453
 20
-56.9076989617
 10
56.0698334768
 20
-56.9156177171
 10
56.0713566602
 20
-56.9236664884
 10
56.0727261151
 20
-56.931831945
 10
56.0739471611
 20
-56.9401007564
 10
56.0750251181
 20
-56.9484595917
 10
56.0759653055
 20
-56.9568951205
 10
56.0767730431
 20
-56.965394012
 10
56.0774536507
 20
-56.9739429356
 10
56.0780124477
 20
-56.9825285607
 10
56.078454754
 20
-56.9911375566
 10
56.0787858892
 20
-56.9997565927
 10
56.079011173
 20
-57.0083723383
  0
LINE
  5
2F4
100
AcDbEntity
  8
CURVE
100
AcDbLine
 62
250
  6
CONTINUOUS
 10
56.240494299
 20
-56.4797868272
 11
56.2296912849
 21
-56.4856034133
  0
LINE
  5
2F5
100
AcDbEntity
  8
CURVE
100
AcDbLine
 62
250
  6
CONTINUOUS
 10
57.0938775769
 20
-56.6912899393
 11
56.3784246608
 21
-57.0765059039
  0
LINE
  5
2F6
100
AcDbEntity
  8
CURVE
100
AcDbLine
 62
250
  6
CONTINUOUS
 10
56.079011173
 20
-57.2518433295
 11
55.5771371363
 21
-57.5220636148
  0
LINE
  5
2F7
100
AcDbEntity
  8
CURVE
100
AcDbLine
 62
250
  6
CONTINUOUS
 10
55.2870460465
 20
-58.088442898
 11
57.0938775769
 21
-57.1156041057
  0
LINE
  5
2F8
100
AcDbEntity
  8
CURVE
100
AcDbLine
 62
250
  6
CONTINUOUS
 10
55.9001035447
 20
-61.1992617609
 11
57.0938775648
 21
-60.648443943
  0
LINE
  5
2F9
100
AcDbEntity
  8
CURVE
100
AcDbLine
 62
250
  6
CONTINUOUS
 10
57.0938775648
 20
-61.0560144746
 11
55.2656863881
 21
-61.8560666424
  0
LINE
  5
2FA
100
AcDbEntity
  8
CURVE
100
AcDbLine
 62
7
  6
CONTINUOUS
 10
55.2449268845
 20
-57.5617584678
 11
55.562362253
 21
-57.2443230993
  0
LINE
  5
2FB
100
AcDbEntity
  8
CURVE
100
AcDbLine
 62
7
  6
CONTINUOUS
 10
56.0039975288
 20
-56.8026878234
 11
57.0938775769
 21
-55.7128077754
  0
LINE
  5
2FC
100
AcDbEntity
  8
CURVE
100
AcDbLine
 62
7
  6
CONTINUOUS
 10
55.2519792504
 20
-57.7647168158
 11
55.5669743538
 21
-57.4497217125
  0
LINE
  5
2FD
100
AcDbEntity
  8
CURVE
100
AcDbLine
 62
7
  6
CONTINUOUS
 10
56.0740997423
 20
-56.942596324
 11
57.0938775769
 21
-55.9228184894
  0
LINE
  5
2FE
100
AcDbEntity
  8
CURVE
100
AcDbLine
 62
7
  6
CONTINUOUS
 10
55.2700072176
 20
-57.9566995627
 11
55.8533768483
 21
-57.373329932
  0
LINE
  5
2FF
100
AcDbEntity
  8
CURVE
100
AcDbLine
 62
7
  6
CONTINUOUS
 10
56.079011173
 20
-57.1476956073
 11
56.3784246608
 21
-56.8482821195
  0
LINE
  5
300
100
AcDbEntity
  8
CURVE
100
AcDbLine
 62
7
  6
CONTINUOUS
 10
55.4196966912
 20
-58.0170208031
 11
56.3784246608
 21
-57.0582928335
  0
LINE
  5
301
100
AcDbEntity
  8
CURVE
100
AcDbLine
 62
7
  6
CONTINUOUS
 10
55.874681444
 20
-57.7720467643
 11
56.7939510967
 21
-56.8527771116
  0
LINE
  5
302
100
AcDbEntity
  8
CURVE
100
AcDbLine
 62
7
  6
CONTINUOUS
 10
56.3296661968
 20
-57.5270727255
 11
57.0938775769
 21
-56.7628613455
  0
LINE
  5
303
100
AcDbEntity
  8
CURVE
100
AcDbLine
 62
7
  6
CONTINUOUS
 10
56.7846509496
 20
-57.2820986867
 11
57.0938775769
 21
-56.9728720595
  0
LINE
  5
304
100
AcDbEntity
  8
CURVE
100
AcDbLine
 62
7
  6
CONTINUOUS
 10
55.2656863881
 20
-59.0110739622
 11
56.6081395977
 21
-57.6686207526
  0
LINE
  5
305
100
AcDbEntity
  8
CURVE
100
AcDbLine
 62
7
  6
CONTINUOUS
 10
55.2656863881
 20
-59.2210846762
 11
57.0938775648
 21
-57.3928934995
  0
LINE
  5
306
100
AcDbEntity
  8
CURVE
100
AcDbLine
 62
7
  6
CONTINUOUS
 10
55.4722790265
 20
-59.2245027519
 11
55.9409626115
 21
-58.7558191669
  0
LINE
  5
307
100
AcDbEntity
  8
CURVE
100
AcDbLine
 62
7
  6
CONTINUOUS
 10
56.4464920444
 20
-58.250289734
 11
57.0938775648
 21
-57.6029042136
  0
LINE
  5
308
100
AcDbEntity
  8
CURVE
100
AcDbLine
 62
7
  6
CONTINUOUS
 10
55.7309938835
 20
-59.1757986089
 11
56.2122123922
 21
-58.6945801002
  0
LINE
  5
309
100
AcDbEntity
  8
CURVE
100
AcDbLine
 62
7
  6
CONTINUOUS
 10
56.4464920444
 20
-58.460300448
 11
56.728905739
 21
-58.1778867534
  0
LINE
  5
30A
100
AcDbEntity
  8
CURVE
100
AcDbLine
 62
7
  6
CONTINUOUS
 10
55.9897087404
 20
-59.127094466
 11
56.728905739
 21
-58.3878974674
  0
LINE
  5
30B
100
AcDbEntity
  8
CURVE
100
AcDbLine
 62
7
  6
CONTINUOUS
 10
56.2484235974
 20
-59.078390323
 11
56.7558714831
 21
-58.5709424373
  0
LINE
  5
30C
100
AcDbEntity
  8
CURVE
100
AcDbLine
 62
7
  6
CONTINUOUS
 10
55.2656863881
 20
-60.2711382463
 11
55.5731423025
 21
-59.9636823319
  0
LINE
  5
30D
100
AcDbEntity
  8
CURVE
100
AcDbLine
 62
7
  6
CONTINUOUS
 10
56.5071384544
 20
-59.02968618
 11
57.0238521458
 21
-58.5129724886
  0
LINE
  5
30E
100
AcDbEntity
  8
CURVE
100
AcDbLine
 62
7
  6
CONTINUOUS
 10
55.2656863881
 20
-60.4811489603
 11
56.1611055987
 21
-59.5857297498
  0
LINE
  5
30F
100
AcDbEntity
  8
CURVE
100
AcDbLine
 62
7
  6
CONTINUOUS
 10
56.7658533114
 20
-58.980982037
 11
57.0938775648
 21
-58.6529577836
  0
LINE
  5
310
100
AcDbEntity
  8
CURVE
100
AcDbLine
 62
7
  6
CONTINUOUS
 10
55.3886023395
 20
-60.5682437229
 11
56.7490688948
 21
-59.2077771676
  0
LINE
  5
311
100
AcDbEntity
  8
CURVE
100
AcDbLine
 62
7
  6
CONTINUOUS
 10
57.0245681684
 20
-58.9322778941
 11
57.0938775648
 21
-58.8629684976
  0
LINE
  5
312
100
AcDbEntity
  8
CURVE
100
AcDbLine
 62
7
  6
CONTINUOUS
 10
55.6268980871
 20
-60.5399586894
 11
56.0529659437
 21
-60.1138908327
  0
LINE
  5
313
100
AcDbEntity
  8
CURVE
100
AcDbLine
 62
7
  6
CONTINUOUS
 10
56.2434623303
 20
-59.9233944461
 11
57.0938775648
 21
-59.0729792116
  0
LINE
  5
314
100
AcDbEntity
  8
CURVE
100
AcDbLine
 62
7
  6
CONTINUOUS
 10
55.8651938347
 20
-60.5116736558
 11
56.2895503428
 21
-60.0873171477
  0
LINE
  5
315
100
AcDbEntity
  8
CURVE
100
AcDbLine
 62
7
  6
CONTINUOUS
 10
56.7847976278
 20
-59.5920698627
 11
57.0938775648
 21
-59.2829899257
  0
LINE
  5
316
100
AcDbEntity
  8
CURVE
100
AcDbLine
 62
7
  6
CONTINUOUS
 10
56.1034895822
 20
-60.4833886223
 11
56.5261347419
 21
-60.0607434626
  0
LINE
  5
317
100
AcDbEntity
  8
CURVE
100
AcDbLine
 62
7
  6
CONTINUOUS
 10
55.2656863881
 20
-61.5312025304
 11
56.7627191409
 21
-60.0341697776
  0
LINE
  5
318
100
AcDbEntity
  8
CURVE
100
AcDbLine
 62
7
  6
CONTINUOUS
 10
55.2656863881
 20
-61.7412132444
 11
56.99930354
 21
-60.0075960925
  0
LINE
  5
319
100
AcDbEntity
  8
CURVE
100
AcDbLine
 62
7
  6
CONTINUOUS
 10
55.4348909061
 20
-61.7820194404
 11
56.1183489174
 21
-61.0985614291
  0
LINE
  5
31A
100
AcDbEntity
  8
CURVE
100
AcDbLine
 62
7
  6
CONTINUOUS
 10
55.8083226416
 20
-61.618598419
 11
56.5082749084
 21
-60.9186461521
  0
LINE
  5
31B
100
AcDbEntity
  8
CURVE
100
AcDbLine
 62
7
  6
CONTINUOUS
 10
55.2655774164
 20
-62.3713543581
 11
55.4856874902
 21
-62.1512442843
  0
LINE
  5
31C
100
AcDbEntity
  8
CURVE
100
AcDbLine
 62
7
  6
CONTINUOUS
 10
56.181754377
 20
-61.4551773975
 11
56.8982008995
 21
-60.7387308751
  0
LINE
  5
31D
100
AcDbEntity
  8
CURVE
100
AcDbLine
 62
7
  6
CONTINUOUS
 10
55.2655774164
 20
-62.5813650721
 11
55.940672243
 21
-61.9062702455
  0
LINE
  5
31E
100
AcDbEntity
  8
CURVE
100
AcDbLine
 62
7
  6
CONTINUOUS
 10
56.5551861125
 20
-61.2917563761
 11
57.0938775648
 21
-60.7530649237
  0
LINE
  5
31F
100
AcDbEntity
  8
CURVE
100
AcDbLine
 62
7
  6
CONTINUOUS
 10
55.4726733216
 20
-62.584279881
 11
56.3956569958
 21
-61.6612962067
  0
LINE
  5
320
100
AcDbEntity
  8
CURVE
100
AcDbLine
 62
7
  6
CONTINUOUS
 10
56.9286178479
 20
-61.1283353547
 11
57.0938775648
 21
-60.9630756378
  0
LINE
  5
321
100
AcDbEntity
  8
CURVE
100
AcDbLine
 62
7
  6
CONTINUOUS
 10
55.2656863881
 20
-63.0012775284
 11
55.4454106967
 21
-62.8215532199
  0
LINE
  5
322
100
AcDbEntity
  8
CURVE
100
AcDbLine
 62
7
  6
CONTINUOUS
 10
55.9276580744
 20
-62.3393058422
 11
56.8506417486
 21
-61.4163221679
  0
LINE
  5
323
100
AcDbEntity
  8
CURVE
100
AcDbLine
 62
7
  6
CONTINUOUS
 10
55.2656863881
 20
-63.2112882425
 11
55.7013879288
 21
-62.7755867018
  0
LINE
  5
324
100
AcDbEntity
  8
CURVE
100
AcDbLine
 62
7
  6
CONTINUOUS
 10
56.3826428272
 20
-62.0943318034
 11
57.0938775648
 21
-61.3830970658
  0
LINE
  5
325
100
AcDbEntity
  8
CURVE
100
AcDbLine
 62
7
  6
CONTINUOUS
 10
55.447356424
 20
-63.2396289206
 11
55.9573651608
 21
-62.7296201838
  0
LINE
  5
326
100
AcDbEntity
  8
CURVE
100
AcDbLine
 62
7
  6
CONTINUOUS
 10
56.83762758
 20
-61.8493577646
 11
57.0938775648
 21
-61.5931077798
  0
LINE
  5
327
100
AcDbEntity
  8
CURVE
100
AcDbLine
 62
7
  6
CONTINUOUS
 10
55.7165391204
 20
-63.1804569382
 11
56.2133423929
 21
-62.6836536658
  0
LINE
  5
328
100
AcDbEntity
  8
CURVE
100
AcDbLine
 62
7
  6
CONTINUOUS
 10
55.9857218167
 20
-63.1212849559
 11
56.4693196249
 21
-62.6376871477
  0
LINE
  5
329
100
AcDbEntity
  8
CURVE
100
AcDbLine
 62
7
  6
CONTINUOUS
 10
56.2549045131
 20
-63.0621129736
 11
56.725296857
 21
-62.5917206297
  0
LINE
  5
32A
100
AcDbEntity
  8
CURVE
100
AcDbLine
 62
7
  6
CONTINUOUS
 10
55.2656863881
 20
-64.2613418125
 11
56.981274089
 21
-62.5457541116
  0
LINE
  5
32B
100
AcDbEntity
  8
CURVE
100
AcDbLine
 62
7
  6
CONTINUOUS
 10
55.2656863881
 20
-64.4713525265
 11
57.0938775648
 21
-62.6431613499
  0
LINE
  5
32C
100
AcDbEntity
  8
CURVE
100
AcDbLine
 62
7
  6
CONTINUOUS
 10
56.6499064696
 20
-63.297143159
 11
57.0938775648
 21
-62.8531720639
  0
LINE
  5
32D
100
AcDbEntity
  8
CURVE
100
AcDbLine
 62
250
  6
CONTINUOUS
 10
57.0938775648
 20
-60.0567242558
 11
55.9001035447
 21
-61.1992617609
  0
LINE
  5
32E
100
AcDbEntity
  8
CURVE
100
AcDbLine
 62
250
  6
CONTINUOUS
 10
55.2656863881
 20
-61.4303908825
 11
56.2807036678
 21
-60.4623538098
  0
LWPOLYLINE
  5
32F
100
AcDbEntity
  8
CURVE
100
AcDbPolyline
 62
250
  6
CONTINUOUS
 90
7
 70
0
 10
56.539510214
 20
-56.5236618553
 10
56.5648098798
 20
-56.4996847122
 10
56.5902398351
 20
-56.4760595164
 10
56.6157856804
 20
-56.4527481254
 10
56.6414330163
 20
-56.4297123967
 10
56.6671674433
 20
-56.4069141876
 10
56.6929745618
 20
-56.3843153558
  0
LINE
  5
330
100
AcDbEntity
  8
CURVE
100
AcDbLine
 62
250
  6
CONTINUOUS
 10
57.0938775648
 20
-62.9009711309
 11
55.2656863881
 21
-64.5323345557
  0
LINE
  5
331
100
AcDbEntity
  8
CURVE
100
AcDbLine
 62
250
  6
CONTINUOUS
 10
55.2656863881
 20
-58.8512633369
 11
57.0938775648
 21
-57.2407068406
  0
LINE
  5
332
100
AcDbEntity
  8
CURVE
100
AcDbLine
 62
250
  6
CONTINUOUS
 10
56.6929745618
 20
-56.3843153558
 11
56.7447492756
 21
-56.3395632535
  0
LINE
  5
333
100
AcDbEntity
  8
CURVE
100
AcDbLine
 62
250
  6
CONTINUOUS
 10
56.8485374247
 20
-56.250773304
 11
57.0938775769
 21
-56.0388862467
  0
LINE
  5
334
100
AcDbEntity
  8
CURVE
100
AcDbLine
 62
250
  6
CONTINUOUS
 10
56.7447492756
 20
-56.3395632535
 11
56.8485374247
 21
-56.250773304
  0
LINE
  5
335
100
AcDbEntity
  8
CURVE
100
AcDbLine
 62
250
  6
CONTINUOUS
 10
55.2656863881
 20
-64.0695363416
 11
56.5240872094
 21
-63.0029409912
  0
LINE
  5
336
100
AcDbEntity
  8
CURVE
100
AcDbLine
 62
250
  6
CONTINUOUS
 10
57.0938775648
 20
-57.6897230363
 11
56.728905739
 21
-57.9965960081
  0
LINE
  5
337
100
AcDbEntity
  8
CURVE
100
AcDbLine
 62
250
  6
CONTINUOUS
 10
56.4464920444
 20
-58.2337954227
 11
55.7680269171
 21
-58.7948622235
  0
LINE
  5
338
100
AcDbEntity
  8
CURVE
100
AcDbLine
 62
250
  6
CONTINUOUS
 10
55.2656863881
 20
-60.1613201054
 11
57.0938775648
 21
-58.9861284218
  0
LINE
  5
339
100
AcDbEntity
  8
CURVE
100
AcDbLine
 62
250
  6
CONTINUOUS
 10
57.0938775648
 20
-59.4028973076
 11
55.9050796753
 21
-60.1305017468
  0
LINE
  5
33A
100
AcDbEntity
  8
ASSI
100
AcDbLine
 62
7
  6
CONTINUOUS
 10
52.4355926134
 20
-69.2540838972
 11
52.7145685475
 21
-69.0930378217
  0
LINE
  5
33B
100
AcDbEntity
  8
ASSI
100
AcDbLine
 62
7
  6
CONTINUOUS
 10
53.4451293308
 20
-69.8654584819
 11
54.1315276785
 21
-69.4692172775
  0
LINE
  5
33C
100
AcDbEntity
  8
ASSI
100
AcDbLine
 62
7
  6
CONTINUOUS
 10
58.2149620151
 20
-67.4288772115
 11
57.5074247458
 21
-67.8373214053
  0
LINE
  5
33D
100
AcDbEntity
  8
CURVE
100
AcDbLine
 62
250
  6
CONTINUOUS
 10
57.0938775648
 20
-61.285358526
 11
55.2655774164
 21
-62.2697565057
  0
LINE
  5
33E
100
AcDbEntity
  8
CURVE
100
AcDbLine
 62
250
  6
CONTINUOUS
 10
55.2655774164
 20
-62.6957849809
 11
57.0938775648
 21
-61.7113870011
  0
LINE
  5
33F
100
AcDbEntity
  8
ASSI
100
AcDbLine
 62
7
  6
CONTINUOUS
 10
54.1530290304
 20
-69.4576557258
 11
54.1315276785
 21
-69.4692172775
  0
LINE
  5
340
100
AcDbEntity
  8
ASSI
100
AcDbLine
 62
7
  6
CONTINUOUS
 10
54.1530290304
 20
-69.4576557258
 11
58.2149620151
 21
-67.4288772115
  0
LINE
  5
341
100
AcDbEntity
  8
ASSI
100
AcDbLine
 62
7
  6
CONTINUOUS
 10
53.4454917611
 20
-69.8660999196
 11
57.5074247458
 21
-67.8373214053
  0
ENDSEC
  0
SECTION
  2
OBJECTS
  0
DICTIONARY
  5
C
100
AcDbDictionary
280
0
281
1
  3
ACAD_GROUP
350
D
  3
ACAD_MLINESTYLE
350
17
  3
ACAD_LAYOUT
350
1A
  3
ACAD_PLOTSETTINGS
350
19
  3
ACAD_PLOTSTYLENAME
350
E
  0
DICTIONARY
  5
D
102
{ACAD_REACTORS
330
C
102
}
100
AcDbDictionary
280
0
281
1
  0
ACDBDICTIONARYWDFLT
  5
E
102
{ACAD_REACTORS
330
C
102
}
100
AcDbDictionary
281
1
  3
Normal
350
F
100
AcDbDictionaryWithDefault
340
F
  0
DICTIONARY
  5
17
102
{ACAD_REACTORS
330
C
102
}
100
AcDbDictionary
280
0
281
1
  3
Standard
350
18
  0
DICTIONARY
  5
19
102
{ACAD_REACTORS
330
C
102
}
100
AcDbDictionary
281
1
  0
DICTIONARY
  5
1A
102
{ACAD_REACTORS
330
C
102
}
100
AcDbDictionary
281
1
  3
Model
350
342
  3
Layout1
350
343
  0
ACDBPLACEHOLDER
  5
F
102
{ACAD_REACTORS
330
E
102
}
  0
MLINESTYLE
  5
18
102
{ACAD_REACTORS
330
17
102
}
100
AcDbMlineStyle
  2
STANDARD
 70
0
  3

 62
256
 51
90.0
 52
90.0
 71
2
 49
0.5
 62
256
  6
BYLAYER
 49
-0.5
 62
256
  6
BYLAYER
  0
LAYOUT
  5
342
102
{ACAD_REACTORS
330
1A
102
}
100
AcDbPlotSettings
  1

  2
none_device
  4
ISO_A4_(297.00_x_210.00_MM)
  6

 40
0.0
 41
0.0
 42
0.0
 43
0.0
 44
297.0
 45
210.0
 46
0.0
 47
0.0
 48
0.0
 49
0.0
140
0.0
141
0.0
142
1.0
143
1.0
 70
1024
 72
1
 73
0
 74
0
  7

 75
0
147
1.0
148
0.0
149
0.0
100
AcDbLayout
  1
Model
 70
0
 71
0
 10
0.0
 20
0.0
 11
297.0
 21
210.0
 12
0.0
 22
0.0
 32
0.0
 14
0.0
 24
0.0
 34
0.0
 15
0.0
 25
0.0
 35
0.0
146
0.0
 13
0.0
 23
0.0
 33
0.0
 16
1.0
 26
0.0
 36
0.0
 17
0.0
 27
1.0
 37
0.0
 76
0
330
21F
345
0
346
0
  0
LAYOUT
  5
343
102
{ACAD_REACTORS
330
1A
102
}
100
AcDbPlotSettings
  1

  2
none_device
  4
ISO_A4_(297.00_x_210.00_MM)
  6

 40
0.0
 41
0.0
 42
0.0
 43
0.0
 44
297.0
 45
210.0
 46
0.0
 47
0.0
 48
0.0
 49
0.0
140
0.0
141
0.0
142
1.0
143
1.0
 70
0
 72
1
 73
0
 74
0
  7

 75
0
147
1.0
148
0.0
149
0.0
100
AcDbLayout
  1
Layout1
 70
0
 71
1
 10
0.0
 20
0.0
 11
297.0
 21
210.0
 12
0.0
 22
0.0
 32
0.0
 14
0.0
 24
0.0
 34
0.0
 15
0.0
 25
0.0
 35
0.0
146
0.0
 13
0.0
 23
0.0
 33
0.0
 16
1.0
 26
0.0
 36
0.0
 17
0.0
 27
1.0
 37
0.0
 76
0
330
220
345
0
346
0
  0
ENDSEC
  0
EOF
