  0
SECTION
  2
HEADER
  9
$ACADVER
  1
AC1024
  9
$DWGCODEPAGE
  3
ANSI_1252
  9
$EXTMAX
 10
297.0
 20
210.0
 30
0.0
  9
$EXTMIN
 10
0.0
 20
0.0
 30
0.0
  9
$LIMMIN
 10
0.0
 20
0.0
  9
$LIMMAX
 10
297.0
 20
210.0
  9
$VIEWCTR
 10
148.5
 20
105.0
  9
$VIEWSIZE
 40
210.0
  9
$CLAYER
  8
0
  9
$LTSCALE
 40
16.335
  9
$CELTYPE
  6
BYLAYER
  9
$DIMSCALE
 40
1.0
  9
$DIMASZ
 40
3.0
  9
$DIMEXO
 40
0.5
  9
$DIMDLI
 40
11.286
  9
$DIMEXE
 40
1.5
  9
$DIMCEN
 40
2.673
  9
$DIMLFAC
 40
1.0
  9
$DIMBLK
  1
_FILLED
  9
$DIMALT
 70
0
  9
$DIMALTF
 40
0.0393700787
  9
$DIMTXT
 40
3.0
  9
$DIMTOL
 70
1
  9
$DIMLIM
 70
0
  9
$DIMTFAC
 40
1.0
  9
$DIMTP
 40
0.01
  9
$DIMTM
 40
0.01
  9
$DIMGAP
 40
0.625
  9
$DIMDSEP
 70
44
  9
$AUNITS
 70
0
  9
$PDMODE
 70
3
  9
$PDSIZE
 40
3.0
  9
$HANDSEED
  5
2D9
  9
$TILEMODE
 70
1
  9
$MEASUREMENT
 70
1
  9
$INSUNITS
 70
4
  0
ENDSEC
  0
SECTION
  2
CLASSES
  0
CLASS
  1
ACDBDICTIONARYWDFLT
  2
AcDbDictionaryWithDefault
  3
AutoCAD 2000
 90
0
 91
1
280
0
281
0
  0
CLASS
  1
ACDBPLACEHOLDER
  2
AcDbPlaceHolder
  3
AutoCAD 2000
 90
0
 91
1
280
0
281
0
  0
CLASS
  1
LAYOUT
  2
AcDbLayout
  3
AutoCAD 2000
 90
0
 91
0
280
0
281
0
  0
ENDSEC
  0
SECTION
  2
TABLES
  0
TABLE
  2
VPORT
  5
8
100
AcDbSymbolTable
 70
2
  0
VPORT
  5
1F4
100
AcDbSymbolTableRecord
100
AcDbViewportTableRecord
  2
*ACTIVE
 70
0
 10
0.0
 20
0.0
 11
1.0
 21
1.0
 12
148.5
 22
105.0
 13
0.0
 23
0.0
 14
1.0
 24
1.0
 15
0.0
 25
0.0
 16
0.0
 26
0.0
 36
1.0
 17
0.0
 27
0.0
 37
0.0
 40
210.0
 41
1.4142857143
 42
50.0
 43
0.0
 44
0.0
 50
0.0
 51
0.0
 71
0
 72
100
 73
1
 74
1
 75
0
 76
0
 77
0
 78
0
  0
ENDTAB
  0
TABLE
  2
LTYPE
  5
5
100
AcDbSymbolTable
 70
6
  0
LTYPE
  5
14
100
AcDbSymbolTableRecord
100
AcDbLinetypeTableRecord
  2
BYBLOCK
 70
0
  3

 72
65
 73
0
 40
0.0
  0
LTYPE
  5
15
100
AcDbSymbolTableRecord
100
AcDbLinetypeTableRecord
  2
BYLAYER
 70
0
  3

 72
65
 73
0
 40
0.0
  0
LTYPE
  5
16
100
AcDbSymbolTableRecord
100
AcDbLinetypeTableRecord
  2
CONTINUOUS
 70
64
  3
Solid line
 72
65
 73
0
 40
0.0
  0
LTYPE
  5
1F5
100
AcDbSymbolTableRecord
100
AcDbLinetypeTableRecord
  2
CENTER
 70
64
  3
____ _ ____ _ ____ _ ____ _ ____ _ ____ _ ____
 72
65
 73
4
 40
0.6
 49
0.375
 74
0
 49
-0.075
 74
0
 49
0.075
 74
0
 49
-0.075
 74
0
  0
LTYPE
  5
1F6
100
AcDbSymbolTableRecord
100
AcDbLinetypeTableRecord
  2
HIDDEN
 70
64
  3
- - - - - - - - - - - - - - - - - - - -
 72
65
 73
2
 40
0.2
 49
0.1
 74
0
 49
-0.1
 74
0
  0
LTYPE
  5
1F7
100
AcDbSymbolTableRecord
100
AcDbLinetypeTableRecord
  2
PHANTOM
 70
64
  3
_____ _ _ _____ _ _ _____ _ _ _____
 72
65
 73
6
 40
0.8
 49
0.45
 74
0
 49
-0.05
 74
0
 49
0.1
 74
0
 49
-0.05
 74
0
 49
0.1
 74
0
 49
-0.05
 74
0
  0
LTYPE
  5
1F8
100
AcDbSymbolTableRecord
100
AcDbLinetypeTableRecord
  2
DOT
 70
64
  3
. . . . . . . . . . . . . . . . . . . .
 72
65
 73
2
 40
0.2
 49
0.1
 74
0
 49
-0.1
 74
0
  0
LTYPE
  5
1F9
100
AcDbSymbolTableRecord
100
AcDbLinetypeTableRecord
  2
DASHED
 70
64
  3
- - - - - - - - - - - - - - - - - - - -
 72
65
 73
2
 40
0.2
 49
0.1
 74
0
 49
-0.1
 74
0
  0
ENDTAB
  0
TABLE
  2
LAYER
  5
2
100
AcDbSymbolTable
 70
36
  0
LAYER
  5
10
100
AcDbSymbolTableRecord
100
AcDbLayerTableRecord
  2
0
 70
0
 62
7
  6
CONTINUOUS
370
-3
390
F
  0
LAYER
  5
1FA
100
AcDbSymbolTableRecord
100
AcDbLayerTableRecord
  2
DEFAULT_1
 70
0
 62
7
  6
CENTER
370
-3
390
F
  0
LAYER
  5
1FB
100
AcDbSymbolTableRecord
100
AcDbLayerTableRecord
  2
DEFAULT_2
 70
0
 62
7
  6
HIDDEN
370
-3
390
F
  0
LAYER
  5
1FC
100
AcDbSymbolTableRecord
100
AcDbLayerTableRecord
  2
DEFAULT_3
 70
0
 62
7
  6
PHANTOM
370
-3
390
F
  0
LAYER
  5
1FD
100
AcDbSymbolTableRecord
100
AcDbLayerTableRecord
  2
ASSI
 70
0
 62
7
  6
CONTINUOUS
370
-3
390
F
  0
LAYER
  5
1FE
100
AcDbSymbolTableRecord
100
AcDbLayerTableRecord
  2
COORDINATE
 70
0
 62
7
  6
CONTINUOUS
370
-3
390
F
  0
LAYER
  5
1FF
100
AcDbSymbolTableRecord
100
AcDbLayerTableRecord
  2
COORD_ORIGINE
 70
0
 62
7
  6
CONTINUOUS
370
-3
390
F
  0
LAYER
  5
200
100
AcDbSymbolTableRecord
100
AcDbLayerTableRecord
  2
COPY_PUBLISH
 70
0
 62
7
  6
CONTINUOUS
370
-3
390
F
  0
LAYER
  5
201
100
AcDbSymbolTableRecord
100
AcDbLayerTableRecord
  2
COSMETIC
 70
0
 62
7
  6
CONTINUOUS
370
-3
390
F
  0
LAYER
  5
202
100
AcDbSymbolTableRecord
100
AcDbLayerTableRecord
  2
COSMETICI
 70
0
 62
7
  6
CONTINUOUS
370
-3
390
F
  0
LAYER
  5
203
100
AcDbSymbolTableRecord
100
AcDbLayerTableRecord
  2
CURVA_TASSELLO
 70
0
 62
7
  6
CONTINUOUS
370
-3
390
F
  0
LAYER
  5
204
100
AcDbSymbolTableRecord
100
AcDbLayerTableRecord
  2
CURVE
 70
0
 62
7
  6
CONTINUOUS
370
-3
390
F
  0
LAYER
  5
205
100
AcDbSymbolTableRecord
100
AcDbLayerTableRecord
  2
DRAFT
 70
0
 62
7
  6
CONTINUOUS
370
-3
390
F
  0
LAYER
  5
206
100
AcDbSymbolTableRecord
100
AcDbLayerTableRecord
  2
IMPORT_IGES
 70
0
 62
7
  6
CONTINUOUS
370
-3
390
F
  0
LAYER
  5
207
100
AcDbSymbolTableRecord
100
AcDbLayerTableRecord
  2
INTFCLR_2
 70
0
 62
7
  6
CONTINUOUS
370
-3
390
F
  0
LAYER
  5
208
100
AcDbSymbolTableRecord
100
AcDbLayerTableRecord
  2
INTF_1
 70
0
 62
7
  6
CONTINUOUS
370
-3
390
F
  0
LAYER
  5
209
100
AcDbSymbolTableRecord
100
AcDbLayerTableRecord
  2
INTF_21
 70
0
 62
7
  6
CONTINUOUS
370
-3
390
F
  0
LAYER
  5
20A
100
AcDbSymbolTableRecord
100
AcDbLayerTableRecord
  2
INTF_6
 70
0
 62
7
  6
CONTINUOUS
370
-3
390
F
  0
LAYER
  5
20B
100
AcDbSymbolTableRecord
100
AcDbLayerTableRecord
  2
INTF_7
 70
0
 62
7
  6
CONTINUOUS
370
-3
390
F
  0
LAYER
  5
20C
100
AcDbSymbolTableRecord
100
AcDbLayerTableRecord
  2
INTF_9
 70
0
 62
7
  6
CONTINUOUS
370
-3
390
F
  0
LAYER
  5
20D
100
AcDbSymbolTableRecord
100
AcDbLayerTableRecord
  2
LIVELLO_1
 70
0
 62
7
  6
CONTINUOUS
370
-3
390
F
  0
LAYER
  5
20E
100
AcDbSymbolTableRecord
100
AcDbLayerTableRecord
  2
NOTE
 70
0
 62
7
  6
CONTINUOUS
370
-3
390
F
  0
LAYER
  5
20F
100
AcDbSymbolTableRecord
100
AcDbLayerTableRecord
  2
PIANI
 70
0
 62
7
  6
CONTINUOUS
370
-3
390
F
  0
LAYER
  5
210
100
AcDbSymbolTableRecord
100
AcDbLayerTableRecord
  2
PIANI_ORIGINE
 70
0
 62
7
  6
CONTINUOUS
370
-3
390
F
  0
LAYER
  5
211
100
AcDbSymbolTableRecord
100
AcDbLayerTableRecord
  2
PIANI_RIFERIMENTO
 70
0
 62
7
  6
CONTINUOUS
370
-3
390
F
  0
LAYER
  5
212
100
AcDbSymbolTableRecord
100
AcDbLayerTableRecord
  2
PUNTI
 70
0
 62
7
  6
CONTINUOUS
370
-3
390
F
  0
LAYER
  5
213
100
AcDbSymbolTableRecord
100
AcDbLayerTableRecord
  2
RACCORDO
 70
0
 62
7
  6
CONTINUOUS
370
-3
390
F
  0
LAYER
  5
214
100
AcDbSymbolTableRecord
100
AcDbLayerTableRecord
  2
RGB__255__255__255__
 70
0
 62
7
  6
CONTINUOUS
370
-3
390
F
  0
LAYER
  5
215
100
AcDbSymbolTableRecord
100
AcDbLayerTableRecord
  2
RGB____0____0____0__
 70
0
 62
7
  6
CONTINUOUS
370
-3
390
F
  0
LAYER
  5
216
100
AcDbSymbolTableRecord
100
AcDbLayerTableRecord
  2
SIMBOLI
 70
0
 62
7
  6
CONTINUOUS
370
-3
390
F
  0
LAYER
  5
217
100
AcDbSymbolTableRecord
100
AcDbLayerTableRecord
  2
SMUSSO
 70
0
 62
7
  6
CONTINUOUS
370
-3
390
F
  0
LAYER
  5
218
100
AcDbSymbolTableRecord
100
AcDbLayerTableRecord
  2
SUPERFICI
 70
0
 62
7
  6
CONTINUOUS
370
-3
390
F
  0
LAYER
  5
219
100
AcDbSymbolTableRecord
100
AcDbLayerTableRecord
  2
TRASH
 70
0
 62
7
  6
CONTINUOUS
370
-3
390
F
  0
LAYER
  5
21A
100
AcDbSymbolTableRecord
100
AcDbLayerTableRecord
  2
WHITE
 70
0
 62
7
  6
CONTINUOUS
370
-3
390
F
  0
LAYER
  5
21B
100
AcDbSymbolTableRecord
100
AcDbLayerTableRecord
  2
XSEC_DATUMS
 70
0
 62
7
  6
CONTINUOUS
370
-3
390
F
  0
ENDTAB
  0
TABLE
  2
STYLE
  5
3
100
AcDbSymbolTable
 70
1
  0
STYLE
  5
11
100
AcDbSymbolTableRecord
100
AcDbTextStyleTableRecord
  2
STANDARD
 70
0
 40
0.0
 41
0.8
 50
0.0
 71
0
 42
0.2
  3
txt
  4

  0
STYLE
  5
21C
100
AcDbSymbolTableRecord
100
AcDbTextStyleTableRecord
  2
TEXTSTYLE_1
 70
0
 40
0.0
 41
0.8
 50
0.0
 71
0
 42
0.2
  3
gdt
  4

  0
ENDTAB
  0
TABLE
  2
VIEW
  5
6
100
AcDbSymbolTable
 70
0
  0
ENDTAB
  0
TABLE
  2
UCS
  5
7
100
AcDbSymbolTable
 70
0
  0
ENDTAB
  0
TABLE
  2
APPID
  5
9
100
AcDbSymbolTable
 70
1
  0
APPID
  5
21D
100
AcDbSymbolTableRecord
100
AcDbRegAppTableRecord
  2
ACAD
 70
0
  0
ENDTAB
  0
TABLE
  2
BLOCK_RECORD
  5
1
100
AcDbSymbolTable
 70
0
  0
BLOCK_RECORD
  5
21E
100
AcDbSymbolTableRecord
100
AcDbBlockTableRecord
  2
*Model_Space
  0
BLOCK_RECORD
  5
21F
100
AcDbSymbolTableRecord
100
AcDbBlockTableRecord
  2
*Paper_Space
  0
BLOCK_RECORD
  5
220
100
AcDbSymbolTableRecord
100
AcDbBlockTableRecord
  2
_FILLED
  0
ENDTAB
  0
TABLE
  2
DIMSTYLE
  5
A
100
AcDbSymbolTable
 70
1
100
AcDbDimStyleTable
 71
0
  0
DIMSTYLE
105
221
100
AcDbSymbolTableRecord
100
AcDbDimStyleTableRecord
  2
STANDARD
 70
0
  3

  4

 40
1.0
 41
3.0
 42
0.5
 43
0.38
 44
1.5
 45
0.0
 46
0.0
 47
0.01
 48
0.01
140
3.0
141
0.09
142
0.0
143
25.4
144
1.0
145
0.0
146
1.0
147
0.625
 71
1
 72
0
 73
0
 74
0
 75
0
 76
0
 77
1
 78
8
 79
2
170
0
171
1
172
0
173
0
174
0
175
0
176
0
177
0
178
0
270
2
179
2
271
2
272
2
273
2
274
2
275
0
280
0
281
0
282
0
283
1
284
8
285
0
286
0
287
3
288
0
340
11
278
44
341
220
342
220
343
220
344
220
  0
ENDTAB
  0
ENDSEC
  0
SECTION
  2
BLOCKS
  0
BLOCK
  5
20
100
AcDbEntity
  8
0
100
AcDbBlockBegin
  2
*Model_Space
 70
0
 10
0.0
 20
0.0
 30
0.0
  3
*Model_Space
  1

  0
ENDBLK
  5
21
100
AcDbEntity
  8
0
100
AcDbBlockEnd
  0
BLOCK
  5
1C
100
AcDbEntity
  8
0
100
AcDbBlockBegin
  2
*Paper_Space
 70
0
 10
0.0
 20
0.0
 30
0.0
  3
*Paper_Space
  1

  0
ENDBLK
  5
1D
100
AcDbEntity
  8
0
100
AcDbBlockEnd
  0
BLOCK
  5
222
100
AcDbEntity
  8
0
100
AcDbBlockBegin
  2
_FILLED
 70
64
 10
0.0
 20
0.0
  3
_FILLED
  1

  0
SOLID
  5
223
100
AcDbEntity
  8
0
  6
BYBLOCK
 62
0
100
AcDbTrace
 10
0.0
 20
0.0
 11
-1.0
 21
0.3166666667
 12
-1.0
 22
-0.3166666667
 13
-1.0
 23
-0.3166666667
  0
ENDBLK
  5
224
100
AcDbEntity
  8
0
  6
BYBLOCK
 62
0
100
AcDbBlockEnd
  0
ENDSEC
  0
SECTION
  2
ENTITIES
  0
LINE
  5
225
100
AcDbEntity
  8
ASSI
100
AcDbLine
 62
7
  6
CONTINUOUS
 10
-45.0274205459
 20
59.3397676688
 11
-41.2396067588
 21
61.8433345602
  0
LINE
  5
226
100
AcDbEntity
  8
ASSI
100
AcDbLine
 62
7
  6
CONTINUOUS
 10
-44.3198832767
 20
59.7482118627
 11
-40.5320694895
 21
62.251778754
  0
LINE
  5
227
100
AcDbEntity
  8
ASSI
100
AcDbLine
 62
7
  6
CONTINUOUS
 10
-44.3406468908
 20
59.7353725117
 11
-44.3198832767
 21
59.7482118627
  0
LINE
  5
228
100
AcDbEntity
  8
ASSI
100
AcDbLine
 62
7
  6
CONTINUOUS
 10
-41.2396067588
 20
61.8433345602
 11
-40.5320694895
 21
62.251778754
  0
LINE
  5
229
100
AcDbEntity
  8
ASSI
100
AcDbLine
 62
7
  6
CONTINUOUS
 10
-44.3406468908
 20
59.7353725117
 11
-45.0270452385
 21
59.3391313073
  0
LINE
  5
22A
100
AcDbEntity
  8
ASSI
100
AcDbLine
 62
7
  6
CONTINUOUS
 10
-44.7233361907
 20
58.3201440733
 11
-45.0023121248
 21
58.1590979978
  0
LINE
  5
22B
100
AcDbEntity
  8
CURVE
100
AcDbLine
 62
250
  6
CONTINUOUS
 10
43.3365457403
 20
-55.3886198257
 11
42.078144919
 21
-55.6652426256
  0
LINE
  5
22C
100
AcDbEntity
  8
CURVE
100
AcDbLine
 62
250
  6
CONTINUOUS
 10
42.078144919
 20
-55.2395056304
 11
43.9063360957
 21
-54.9112124379
  0
LINE
  5
22D
100
AcDbEntity
  8
ASSI
100
AcDbLine
 62
7
  6
CONTINUOUS
 10
-44.7233361907
 20
58.3201440733
 11
-44.3406468908
 21
59.7353725117
  0
LINE
  5
22E
100
AcDbEntity
  8
CURVE
100
AcDbLine
 62
250
  6
CONTINUOUS
 10
42.5804854479
 20
-51.1805410579
 11
43.2589505753
 21
-51.027366478
  0
LINE
  5
22F
100
AcDbEntity
  8
CURVE
100
AcDbLine
 62
250
  6
CONTINUOUS
 10
43.5413642698
 20
-50.9624545389
 11
43.9063360957
 21
-50.8835033272
  0
LINE
  5
230
100
AcDbEntity
  8
CURVE
100
AcDbLine
 62
250
  6
CONTINUOUS
 10
43.9063360957
 20
-51.3049089477
 11
42.078144919
 21
-51.6490735059
  0
LINE
  5
231
100
AcDbEntity
  8
CURVE
100
AcDbLine
 62
250
  6
CONTINUOUS
 10
43.0931621987
 20
-52.8480326443
 11
42.078144919
 21
-52.9685123343
  0
LINE
  5
232
100
AcDbEntity
  8
CURVE
100
AcDbLine
 62
250
  6
CONTINUOUS
 10
42.7175382062
 20
-52.5161805812
 11
43.9063360957
 21
-52.3826521625
  0
LINE
  5
233
100
AcDbEntity
  8
ASSI
100
AcDbLine
 62
7
  6
CONTINUOUS
 10
-45.0023121248
 20
-12.6725356016
 11
-45.0270452385
 21
-12.2163000241
  0
LINE
  5
234
100
AcDbEntity
  8
ASSI
100
AcDbLine
 62
7
  6
CONTINUOUS
 10
39.5270270784
 20
-61.4787166561
 11
40.9439862093
 21
-61.8548961119
  0
LINE
  5
235
100
AcDbEntity
  8
ASSI
100
AcDbLine
 62
7
  6
CONTINUOUS
 10
-45.0023121248
 20
58.1590979978
 11
-45.0270452385
 21
59.3391313073
  0
LINE
  5
236
100
AcDbEntity
  8
ASSI
100
AcDbLine
 62
7
  6
CONTINUOUS
 10
-45.0270452385
 20
-12.2163000241
 11
-45.0274205459
 21
-12.1921071634
  0
LINE
  5
237
100
AcDbEntity
  8
ASSI
100
AcDbLine
 62
7
  6
CONTINUOUS
 10
-45.0274205459
 20
59.3397676688
 11
-45.0274205459
 21
-12.1921071634
  0
LINE
  5
238
100
AcDbEntity
  8
ASSI
100
AcDbLine
 62
7
  6
CONTINUOUS
 10
-45.0023121248
 20
58.1590979978
 11
-45.0023121248
 21
-12.6725356016
  0
LINE
  5
239
100
AcDbEntity
  8
ASSI
100
AcDbLine
 62
7
  6
CONTINUOUS
 10
-45.0023121248
 20
-12.6725356016
 11
-44.7233361907
 21
-13.1557360931
  0
LINE
  5
23A
100
AcDbEntity
  8
ASSI
100
AcDbLine
 62
7
  6
CONTINUOUS
 10
-44.7233361907
 20
-13.1557360931
 11
-44.3406468908
 21
-13.4051768352
  0
LINE
  5
23B
100
AcDbEntity
  8
ASSI
100
AcDbLine
 62
7
  6
CONTINUOUS
 10
-44.3198832767
 20
-13.4175976608
 11
40.2579502919
 21
-62.251778754
  0
LINE
  5
23C
100
AcDbEntity
  8
ASSI
100
AcDbLine
 62
7
  6
CONTINUOUS
 10
-44.7233361907
 20
-13.1557360931
 11
39.2480511443
 21
-61.6397627316
  0
LINE
  5
23D
100
AcDbEntity
  8
ASSI
100
AcDbLine
 62
7
  6
CONTINUOUS
 10
-44.3198832767
 20
-13.4175976608
 11
-44.3406468908
 21
-13.4051768352
  0
LINE
  5
23E
100
AcDbEntity
  8
ASSI
100
AcDbLine
 62
7
  6
CONTINUOUS
 10
39.2480511443
 20
-61.6397627316
 11
40.2575878617
 21
-62.2511373164
  0
LWPOLYLINE
  5
23F
100
AcDbEntity
  8
ASSI
100
AcDbPolyline
 62
7
  6
CONTINUOUS
 90
49
 70
0
 10
-20.8749314606
 20
9.7922930137
 10
-20.8713819359
 20
9.6206163187
 10
-20.8609458111
 20
9.4461066697
 10
-20.8436230861
 20
9.2687640667
 10
-20.8193434252
 20
9.0881745623
 10
-20.7881771642
 20
8.9047521038
 10
-20.7503353109
 20
8.7197385332
 10
-20.7057725667
 20
8.5331230535
 10
-20.6545342302
 20
8.3449164616
 10
-20.596967205
 20
8.1563929899
 10
-20.5330285465
 20
7.9675504879
 10
-20.4627611992
 20
7.7783911061
 10
-20.3866409007
 20
7.5901955274
 10
-20.3046279346
 20
7.4029702919
 10
-20.2167620172
 20
7.2167088596
 10
-20.1236380352
 20
7.0326722933
 10
-20.0252203089
 20
6.8508756902
 10
-19.9215445181
 20
6.6713039531
 10
-19.8133125883
 20
6.4951728529
 10
-19.700493603
 20
6.3225057368
 10
-19.5831184788
 20
6.1532792576
 10
-19.4619818912
 20
5.9886391448
 10
-19.337058316
 20
5.8286165202
 10
-19.2083732775
 20
5.673180262
 10
-19.0767980237
 20
5.5233827346
 10
-18.9423129425
 20
5.3792622006
 10
-18.804937646
 20
5.2407803974
 10
-18.6656022187
 20
5.108874901
 10
-18.5242933598
 20
4.9835903362
 10
-18.3810243701
 20
4.8648820781
 10
-18.2367652368
 20
4.7535538282
 10
-18.0915092411
 20
4.649655665
 10
-17.9452631018
 20
4.5531375099
 10
-17.7990169625
 20
4.4646528287
 10
-17.6527708232
 20
4.384256134
 10
-17.5065246838
 20
4.3118929132
 10
-17.3612686881
 20
4.2480530935
 10
-17.2170095549
 20
4.1927945123
 10
-17.0737405652
 20
4.1460593323
 10
-16.9324317063
 20
4.1081639689
 10
-16.793096279
 20
4.0791684064
 10
-16.6557209825
 20
4.0590126606
 10
-16.5212359012
 20
4.0478331937
 10
-16.3896606474
 20
4.0456909161
 10
-16.2609756089
 20
4.0525249175
 10
-16.1360520338
 20
4.0682889288
 10
-16.0149154462
 20
4.0930435467
 10
-15.897540322
 20
4.1267281745
 10
-15.8856773618
 20
4.1311851399
  0
LWPOLYLINE
  5
240
100
AcDbEntity
  8
ASSI
100
AcDbPolyline
 62
7
  6
CONTINUOUS
 90
18
 70
0
 10
-21.3699062075
 20
9.5065007984
 10
-21.366422769
 20
9.6734707798
 10
-21.3559801575
 20
9.8360421321
 10
-21.3386017476
 20
9.9938464411
 10
-21.3143265653
 20
10.1465263935
 10
-21.2832093532
 20
10.2937355816
 10
-21.2453205961
 20
10.4351394107
 10
-21.2007460135
 20
10.5704173623
 10
-21.1495864229
 20
10.699262952
 10
-21.0919578712
 20
10.8213836082
 10
-21.0279909115
 20
10.9365025685
 10
-20.957830374
 20
11.0443590905
 10
-20.8816353707
 20
11.1447085366
 10
-20.7995786304
 20
11.2373234792
 10
-20.7118459539
 20
11.3219942638
 10
-20.6186359784
 20
11.3985291855
 10
-20.5201598509
 20
11.4667548483
 10
-20.4690968059
 20
11.4976561443
  0
LWPOLYLINE
  5
241
100
AcDbEntity
  8
ASSI
100
AcDbPolyline
 62
7
  6
CONTINUOUS
 90
34
 70
0
 10
-22.0770129887
 20
9.5065007984
 10
-22.0730566196
 20
9.6933265463
 10
-22.0614224058
 20
9.8744472604
 10
-22.0421103473
 20
10.0498629406
 10
-22.0150421819
 20
10.2199451164
 10
-21.9802961718
 20
10.3843222583
 10
-21.9381071037
 20
10.5418797776
 10
-21.8884243221
 20
10.6925711478
 10
-21.8312984824
 20
10.8364428954
 10
-21.7671163377
 20
10.9725200123
 10
-21.695829951
 20
11.1007494059
 10
-21.6174872594
 20
11.2211841687
 10
-21.5326188264
 20
11.3330085702
 10
-21.4411804646
 20
11.436164031
 10
-21.3432163616
 20
11.5307091303
 10
-21.2393896438
 20
11.6160038757
 10
-21.129660553
 20
11.6919855483
 10
-21.0140688475
 20
11.758716867
 10
-20.8933969285
 20
11.8157459958
 10
-20.7676102485
 20
11.8630071441
 10
-20.6367433551
 20
11.9005661027
 10
-20.5016822926
 20
11.9281684071
 10
-20.3623985723
 20
11.9457464679
 10
-20.2189206829
 20
11.9533678745
 10
-20.072220134
 20
11.9509809318
 10
-19.9222750759
 20
11.9385177049
 10
-19.7691073584
 20
11.9160461286
 10
-19.6137540397
 20
11.8837183111
 10
-19.4562002927
 20
11.8414673648
 10
-19.2964609445
 20
11.7893601774
 10
-19.1356175345
 20
11.7277495202
 10
-18.9736625541
 20
11.6565708896
 10
-18.810603512
 20
11.5758887891
 10
-18.6478765336
 20
11.4864412101
  0
LWPOLYLINE
  5
242
100
AcDbEntity
  8
ASSI
100
AcDbPolyline
 62
7
  6
CONTINUOUS
 90
13
 70
0
 10
-20.3866409007
 20
11.4305248009
 10
-20.4627611992
 20
11.3302310348
 10
-20.5330285465
 20
11.2222146243
 10
-20.596967205
 20
11.1072068825
 10
-20.6545342302
 20
10.9851603685
 10
-20.7057725667
 20
10.8561225233
 10
-20.7503353109
 20
10.7209669836
 10
-20.7881771642
 20
10.5796522366
 10
-20.8193434252
 20
10.4322197952
 10
-20.8436230861
 20
10.2796678346
 10
-20.8609458111
 20
10.1223290801
 10
-20.8713819359
 20
9.9598708064
 10
-20.8749314606
 20
9.7922930137
  0
LWPOLYLINE
  5
243
100
AcDbEntity
  8
ASSI
100
AcDbPolyline
 62
7
  6
CONTINUOUS
 90
4
 70
0
 10
-20.2071920426
 20
11.6157011181
 10
-20.2167620172
 20
11.6078395921
 10
-20.3046279346
 20
11.5230435188
 10
-20.3866409007
 20
11.4305248009
  0
LWPOLYLINE
  5
244
100
AcDbEntity
  8
ASSI
100
AcDbPolyline
 62
7
  6
CONTINUOUS
 90
16
 70
0
 10
-20.4690968059
 20
11.4976561443
 10
-20.4166406384
 20
11.5265166868
 10
-20.3083126864
 20
11.5776793685
 10
-20.1954212946
 20
11.6201269645
 10
-20.0782222432
 20
11.6537632282
 10
-19.9569810707
 20
11.6785118978
 10
-19.8319724008
 20
11.6943168702
 10
-19.7034794251
 20
11.7011422982
 10
-19.5717933355
 20
11.6989726859
 10
-19.4372124795
 20
11.6878129368
 10
-19.3000417002
 20
11.6676883174
 10
-19.1605917665
 20
11.638644409
 10
-19.0191785917
 20
11.6007469995
 10
-18.876122525
 20
11.5540819307
 10
-18.7317476534
 20
11.4987549117
 10
-18.5863810309
 20
11.4348912666
  0
LWPOLYLINE
  5
245
100
AcDbEntity
  8
ASSI
100
AcDbPolyline
 62
7
  6
CONTINUOUS
 90
67
 70
0
 10
-15.2180772111
 20
5.5462372431
 10
-15.2220335802
 20
5.3594114951
 10
-15.233667794
 20
5.178290781
 10
-15.2529798525
 20
5.0028751008
 10
-15.2800480179
 20
4.8327929251
 10
-15.314794028
 20
4.6684157832
 10
-15.3569830961
 20
4.5108582638
 10
-15.4066658777
 20
4.3601668937
 10
-15.4637917174
 20
4.2162951461
 10
-15.5279738621
 20
4.0802180292
 10
-15.5992602488
 20
3.9519886356
 10
-15.6776029404
 20
3.8315538727
 10
-15.7624713734
 20
3.7197294712
 10
-15.8539097352
 20
3.6165740105
 10
-15.9518738382
 20
3.5220289111
 10
-16.055700556
 20
3.4367341657
 10
-16.1654296468
 20
3.3607524931
 10
-16.2810213523
 20
3.2940211745
 10
-16.4016932713
 20
3.2369920457
 10
-16.5274799513
 20
3.1897308973
 10
-16.6583468447
 20
3.1521719388
 10
-16.7934079072
 20
3.1245696343
 10
-16.9326916275
 20
3.1069915736
 10
-17.0761695169
 20
3.0993701669
 10
-17.2228700658
 20
3.1017571097
 10
-17.3728151239
 20
3.1142203365
 10
-17.5259828414
 20
3.1366919129
 10
-17.6813361601
 20
3.1690197304
 10
-17.8388899071
 20
3.2112706766
 10
-17.9986292553
 20
3.263377864
 10
-18.1594726653
 20
3.3249885212
 10
-18.3214276457
 20
3.3961671519
 10
-18.4844866879
 20
3.4768492524
 10
-18.6475457272
 20
3.5664885404
 10
-18.8106047616
 20
3.6651458089
 10
-18.9736637932
 20
3.772760265
 10
-19.135618763
 20
3.888603248
 10
-19.2964621645
 20
4.0127305918
 10
-19.4562015043
 20
4.1450864625
 10
-19.6137552421
 20
4.2847746971
 10
-19.7691085517
 20
4.4318450622
 10
-19.9222762594
 20
4.5862477913
 10
-20.0722213046
 20
4.7469374215
 10
-20.2189218394
 20
4.9139566595
 10
-20.3623997118
 20
5.0872627986
 10
-20.501683404
 20
5.2656822554
 10
-20.6367444201
 20
5.4492497107
 10
-20.767611256
 20
5.6379304837
 10
-20.8933978827
 20
5.8304469487
 10
-21.014069755
 20
6.0268250007
 10
-21.1296614181
 20
6.2270387448
 10
-21.2393904778
 20
6.4297328709
 10
-21.3432171855
 20
6.6349242069
 10
-21.4411812899
 20
6.8425959249
 10
-21.5326196426
 20
7.0513422314
 10
-21.6174880519
 20
7.2611706836
 10
-21.6958307096
 20
7.4720737243
 10
-21.7671170425
 20
7.6826228886
 10
-21.8312991042
 20
7.8928158943
 10
-21.8884248411
 20
8.1026550236
 10
-21.9381075191
 20
8.3107186582
 10
-21.980296482
 20
8.5169948161
 10
-22.015042386
 20
8.7214954793
 10
-22.0421104653
 20
8.9228349763
 10
-22.0614224645
 20
9.1205514165
 10
-22.0730566389
 20
9.3151066906
 10
-22.0770129887
 20
9.5065007984
  0
LINE
  5
246
100
AcDbEntity
  8
ASSI
100
AcDbLine
 62
7
  6
CONTINUOUS
 10
-15.2233512169
 20
5.7596661703
 11
-15.2320032611
 21
5.6249705027
  0
LWPOLYLINE
  5
247
100
AcDbEntity
  8
ASSI
100
AcDbPolyline
 62
7
  6
CONTINUOUS
 90
16
 70
0
 10
-15.2320032611
 20
5.6249705027
 10
-15.2493816711
 20
5.4671661937
 10
-15.2736568533
 20
5.3144862412
 10
-15.3047740654
 20
5.1672770532
 10
-15.3426628225
 20
5.0258732241
 10
-15.3872374052
 20
4.8905952725
 10
-15.4383969957
 20
4.7617496828
 10
-15.4960255474
 20
4.6396290266
 10
-15.5599925071
 20
4.5245100663
 10
-15.6301530446
 20
4.4166535443
 10
-15.7063480479
 20
4.3163040982
 10
-15.7884047883
 20
4.2236891556
 10
-15.8761374647
 20
4.1390183709
 10
-15.9693474402
 20
4.0624834493
 10
-16.0678235678
 20
3.9942577865
 10
-16.1188866127
 20
3.9633564904
  0
LWPOLYLINE
  5
248
100
AcDbEntity
  8
ASSI
100
AcDbPolyline
 62
7
  6
CONTINUOUS
 90
51
 70
0
 10
-16.1188866127
 20
3.9633564904
 10
-16.1713427802
 20
3.934495948
 10
-16.2796707322
 20
3.8833332663
 10
-16.392562124
 20
3.8408856703
 10
-16.5097611755
 20
3.8072494065
 10
-16.6310023479
 20
3.782500737
 10
-16.7560110178
 20
3.7666957645
 10
-16.8845039935
 20
3.7598703365
 10
-17.0161900831
 20
3.7620399488
 10
-17.1507709392
 20
3.773199698
 10
-17.2879417184
 20
3.7933243174
 10
-17.4273916521
 20
3.8223682258
 10
-17.5688048269
 20
3.8602656352
 10
-17.7118608936
 20
3.906930704
 10
-17.8562357652
 20
3.9622577231
 10
-18.0016023877
 20
4.0261213682
 10
-18.1476314359
 20
4.098376966
 10
-18.29399205
 20
4.1788608101
 10
-18.440352664
 20
4.2673905719
 10
-18.5863817116
 20
4.3637656958
 10
-18.7317483334
 20
4.4677678201
 10
-18.876123204
 20
4.5791613215
 10
-19.0191792695
 20
4.6976938508
 10
-19.1605924437
 20
4.8230968703
 10
-19.3000423785
 20
4.9550862921
 10
-19.4372131592
 20
5.0933630942
 10
-19.5717940134
 20
5.2376139864
 10
-19.7034800971
 20
5.3875122087
 10
-19.8319730637
 20
5.5427181409
 10
-19.956981721
 20
5.7028800253
 10
-20.0782228752
 20
5.8676349884
 10
-20.1954219054
 20
6.0366098016
 10
-20.308313279
 20
6.209421575
 10
-20.4166412157
 20
6.3856786941
 10
-20.5201604147
 20
6.5649819639
 10
-20.6186365351
 20
6.7469254454
 10
-20.711846513
 20
6.9310969906
 10
-20.7995791943
 20
7.1170793673
 10
-20.8816359318
 20
7.3044514689
 10
-20.9578309261
 20
7.4927890858
 10
-21.0279914469
 20
7.6816653233
 10
-21.0919583723
 20
7.8706517731
 10
-21.1495868737
 20
8.0593204405
 10
-21.2007464036
 20
8.2472438096
 10
-21.2453209159
 20
8.4339952869
 10
-21.2832095968
 20
8.6191519612
 10
-21.3143267344
 20
8.8022943363
 10
-21.33860185
 20
8.9830064319
 10
-21.3559802064
 20
9.16087863
 10
-21.366422782
 20
9.3355085528
 10
-21.3699062075
 20
9.5065007984
  0
LINE
  5
249
100
AcDbEntity
  8
ASSI
100
AcDbLine
 62
7
  6
CONTINUOUS
 10
-45.0274205459
 20
59.3397676688
 11
-45.0270452385
 21
59.3391313073
  0
LINE
  5
24A
100
AcDbEntity
  8
ASSI
100
AcDbLine
 62
7
  6
CONTINUOUS
 10
39.5270270784
 20
9.3529169433
 11
40.9439862093
 21
9.7005352194
  0
LINE
  5
24B
100
AcDbEntity
  8
ASSI
100
AcDbLine
 62
7
  6
CONTINUOUS
 10
13.2334241225
 20
-6.9374654332
 11
13.3542045715
 21
-6.9972279506
  0
LWPOLYLINE
  5
24C
100
AcDbEntity
  8
ASSI
100
AcDbPolyline
 62
7
  6
CONTINUOUS
 90
34
 70
0
 10
-18.6478765336
 20
11.4864412101
 10
-18.4844854382
 20
11.3875922325
 10
-18.3214264066
 20
11.2799777764
 10
-18.1594714368
 20
11.1641347935
 10
-17.9986280353
 20
11.0400074496
 10
-17.8388886955
 20
10.907651579
 10
-17.6813349577
 20
10.7679633444
 10
-17.5259816481
 20
10.6208929792
 10
-17.3728139404
 20
10.4664902501
 10
-17.2228688952
 20
10.30580062
 10
-17.0761683604
 20
10.138781382
 10
-16.932690488
 20
9.9654752429
 10
-16.7934067958
 20
9.7870557861
 10
-16.6583457797
 20
9.6034883308
 10
-16.5274789438
 20
9.4148075578
 10
-16.4016923171
 20
9.2222910927
 10
-16.2810204448
 20
9.0259130407
 10
-16.1654287817
 20
8.8256992966
 10
-16.055699722
 20
8.6230051705
 10
-15.9518730143
 20
8.4178138346
 10
-15.8539089099
 20
8.2101421166
 10
-15.7624705572
 20
8.00139581
 10
-15.6776021479
 20
7.7915673578
 10
-15.5992594902
 20
7.5806643171
 10
-15.5279731573
 20
7.3701151528
 10
-15.4637910956
 20
7.1599221471
 10
-15.4066653587
 20
6.9500830179
 10
-15.3569826807
 20
6.7420193832
 10
-15.3147937178
 20
6.5357432254
 10
-15.2800478138
 20
6.3312425622
 10
-15.2529797345
 20
6.1299030652
 10
-15.2336677353
 20
5.9321866249
 10
-15.2220335609
 20
5.7376313509
 10
-15.2180772111
 20
5.5462372431
  0
LINE
  5
24D
100
AcDbEntity
  8
ASSI
100
AcDbLine
 62
7
  6
CONTINUOUS
 10
-18.5863810309
 20
11.4348912666
 11
-18.4656005819
 21
11.3751287491
  0
LWPOLYLINE
  5
24E
100
AcDbEntity
  8
ASSI
100
AcDbPolyline
 62
7
  6
CONTINUOUS
 90
34
 70
0
 10
13.1719286198
 20
-6.8859154897
 10
13.3353197152
 20
-6.9847644673
 10
13.4983787468
 20
-7.0923789233
 10
13.6603337166
 20
-7.2082219063
 10
13.8211771181
 20
-7.3323492501
 10
13.9809164579
 20
-7.4647051208
 10
14.1384701957
 20
-7.6043933554
 10
14.2938235053
 20
-7.7514637205
 10
14.446991213
 20
-7.9058664496
 10
14.5969362581
 20
-8.0665560798
 10
14.743636793
 20
-8.2335753178
 10
14.8871146654
 20
-8.4068814569
 10
15.0263983576
 20
-8.5853009137
 10
15.1614593737
 20
-8.768868369
 10
15.2923262096
 20
-8.957549142
 10
15.4181128363
 20
-9.1500656071
 10
15.5387847086
 20
-9.346443659
 10
15.6543763717
 20
-9.5466574031
 10
15.7641054313
 20
-9.7493515292
 10
15.8679321391
 20
-9.9545428652
 10
15.9658962435
 20
-10.1622145832
 10
16.0573345962
 20
-10.3709608897
 10
16.1422030055
 20
-10.5807893419
 10
16.2205456632
 20
-10.7916923826
 10
16.291831996
 20
-11.0022415469
 10
16.3560140578
 20
-11.2124345526
 10
16.4131397947
 20
-11.4222736819
 10
16.4628224727
 20
-11.6303373165
 10
16.5050114356
 20
-11.8366134744
 10
16.5397573396
 20
-12.0411141376
 10
16.5668254189
 20
-12.2424536346
 10
16.5861374181
 20
-12.4401700748
 10
16.5977715925
 20
-12.6347253489
 10
16.6017279422
 20
-12.8261194567
  0
LINE
  5
24F
100
AcDbEntity
  8
ASSI
100
AcDbLine
 62
7
  6
CONTINUOUS
 10
40.2575878617
 20
-62.2511373164
 11
40.2579502919
 21
-62.251778754
  0
LWPOLYLINE
  5
250
100
AcDbEntity
  8
ASSI
100
AcDbPolyline
 62
7
  6
CONTINUOUS
 90
49
 70
0
 10
10.9448736928
 20
-8.5800636861
 10
10.9484232175
 20
-8.751740381
 10
10.9588593423
 20
-8.92625003
 10
10.9761820672
 20
-9.1035926331
 10
11.0004617282
 20
-9.2841821375
 10
11.0316279892
 20
-9.4676045959
 10
11.0694698425
 20
-9.6526181666
 10
11.1140325867
 20
-9.8392336462
 10
11.1652709232
 20
-10.0274402381
 10
11.2228379484
 20
-10.2159637099
 10
11.2867766069
 20
-10.4048062118
 10
11.3570439542
 20
-10.5939655937
 10
11.4331642527
 20
-10.7821611724
 10
11.5151772188
 20
-10.9693864078
 10
11.6030431362
 20
-11.1556478401
 10
11.6961671182
 20
-11.3396844064
 10
11.7945848445
 20
-11.5214810095
 10
11.8982606353
 20
-11.7010527466
 10
12.0064925651
 20
-11.8771838468
 10
12.1193115504
 20
-12.049850963
 10
12.2366866746
 20
-12.2190774422
 10
12.3578232622
 20
-12.3837175549
 10
12.4827468374
 20
-12.5437401796
 10
12.6114318759
 20
-12.6991764377
 10
12.7430071297
 20
-12.8489739652
 10
12.8774922109
 20
-12.9930944991
 10
13.0148675074
 20
-13.1315763023
 10
13.1542029347
 20
-13.2634817988
 10
13.2955117936
 20
-13.3887663636
 10
13.4387807833
 20
-13.5074746216
 10
13.5830399166
 20
-13.6188028715
 10
13.7282959123
 20
-13.7227010347
 10
13.8745420516
 20
-13.8192191898
 10
14.0207881909
 20
-13.9077038711
 10
14.1670343302
 20
-13.9881005657
 10
14.3132804696
 20
-14.0604637865
 10
14.4585364653
 20
-14.1243036062
 10
14.6027955985
 20
-14.1795621874
 10
14.7460645882
 20
-14.2262973675
 10
14.8873734471
 20
-14.2641927309
 10
15.0267088744
 20
-14.2931882933
 10
15.1640841709
 20
-14.3133440391
 10
15.2985692522
 20
-14.324523506
 10
15.430144506
 20
-14.3266657836
 10
15.5588295445
 20
-14.3198317823
 10
15.6837531196
 20
-14.3040677709
 10
15.8048897072
 20
-14.2793131531
 10
15.9222648314
 20
-14.2456285252
 10
15.9341277916
 20
-14.2411715599
  0
LWPOLYLINE
  5
251
100
AcDbEntity
  8
ASSI
100
AcDbPolyline
 62
7
  6
CONTINUOUS
 90
18
 70
0
 10
10.4498989459
 20
-8.8658559014
 10
10.4533823844
 20
-8.6988859199
 10
10.4638249959
 20
-8.5363145677
 10
10.4812034058
 20
-8.3785102587
 10
10.5054785881
 20
-8.2258303062
 10
10.5365958002
 20
-8.0786211182
 10
10.5744845573
 20
-7.9372172891
 10
10.6190591399
 20
-7.8019393375
 10
10.6702187305
 20
-7.6730937477
 10
10.7278472822
 20
-7.5509730915
 10
10.7918142419
 20
-7.4358541312
 10
10.8619747794
 20
-7.3279976092
 10
10.9381697827
 20
-7.2276481632
 10
11.020226523
 20
-7.1350332206
 10
11.1079591995
 20
-7.0503624359
 10
11.201169175
 20
-6.9738275143
 10
11.2996453025
 20
-6.9056018515
 10
11.3507083475
 20
-6.8747005554
  0
LWPOLYLINE
  5
252
100
AcDbEntity
  8
ASSI
100
AcDbPolyline
 62
7
  6
CONTINUOUS
 90
34
 70
0
 10
9.7427921647
 20
-8.8658559014
 10
9.7467485338
 20
-8.6790301534
 10
9.7583827476
 20
-8.4979094393
 10
9.7776948061
 20
-8.3224937592
 10
9.8047629715
 20
-8.1524115834
 10
9.8395089816
 20
-7.9880344415
 10
9.8816980497
 20
-7.8304769221
 10
9.9313808313
 20
-7.679785552
 10
9.988506671
 20
-7.5359138044
 10
10.0526888157
 20
-7.3998366875
 10
10.1239752024
 20
-7.2716072939
 10
10.202317894
 20
-7.151172531
 10
10.287186327
 20
-7.0393481295
 10
10.3786246888
 20
-6.9361926688
 10
10.4765887918
 20
-6.8416475694
 10
10.5804155096
 20
-6.756352824
 10
10.6901446004
 20
-6.6803711514
 10
10.8057363059
 20
-6.6136398328
 10
10.9264082249
 20
-6.556610704
 10
11.0521949049
 20
-6.5093495556
 10
11.1830617983
 20
-6.4717905971
 10
11.3181228608
 20
-6.4441882926
 10
11.4574065811
 20
-6.4266102319
 10
11.6008844705
 20
-6.4189888252
 10
11.7475850194
 20
-6.421375768
 10
11.8975300774
 20
-6.4338389949
 10
12.050697795
 20
-6.4563105712
 10
12.2060511137
 20
-6.4886383887
 10
12.3636048607
 20
-6.5308893349
 10
12.5233442089
 20
-6.5829965223
 10
12.6841876189
 20
-6.6446071795
 10
12.8461425992
 20
-6.7157858102
 10
13.0092016414
 20
-6.7964679107
 10
13.1719286198
 20
-6.8859154897
  0
LINE
  5
253
100
AcDbEntity
  8
ASSI
100
AcDbLine
 62
7
  6
CONTINUOUS
 10
40.2579502919
 20
10.9140307694
 11
44.3198832767
 21
13.2593246716
  0
LWPOLYLINE
  5
254
100
AcDbEntity
  8
ASSI
100
AcDbPolyline
 62
7
  6
CONTINUOUS
 90
13
 70
0
 10
11.4331642527
 20
-6.9418318989
 10
11.3570439542
 20
-7.0421256649
 10
11.2867766069
 20
-7.1501420755
 10
11.2228379484
 20
-7.2651498172
 10
11.1652709232
 20
-7.3871963313
 10
11.1140325867
 20
-7.5162341765
 10
11.0694698425
 20
-7.6513897162
 10
11.0316279892
 20
-7.7927044631
 10
11.0004617282
 20
-7.9401369046
 10
10.9761820672
 20
-8.0926888651
 10
10.9588593423
 20
-8.2500276197
 10
10.9484232175
 20
-8.4124858933
 10
10.9448736928
 20
-8.5800636861
  0
LWPOLYLINE
  5
255
100
AcDbEntity
  8
ASSI
100
AcDbPolyline
 62
7
  6
CONTINUOUS
 90
4
 70
0
 10
11.6126131108
 20
-6.7566555816
 10
11.6030431362
 20
-6.7645171077
 10
11.5151772188
 20
-6.849313181
 10
11.4331642527
 20
-6.9418318989
  0
LINE
  5
256
100
AcDbEntity
  8
ASSI
100
AcDbLine
 62
7
  6
CONTINUOUS
 10
40.9654875612
 20
9.688540272
 11
45.0274205459
 21
12.0338341742
  0
LWPOLYLINE
  5
257
100
AcDbEntity
  8
ASSI
100
AcDbPolyline
 62
7
  6
CONTINUOUS
 90
16
 70
0
 10
11.3507083475
 20
-6.8747005554
 10
11.403164515
 20
-6.845840013
 10
11.511492467
 20
-6.7946773312
 10
11.6243838588
 20
-6.7522297353
 10
11.7415829102
 20
-6.7185934715
 10
11.8628240827
 20
-6.693844802
 10
11.9878327526
 20
-6.6780398295
 10
12.1163257283
 20
-6.6712144015
 10
12.2480118179
 20
-6.6733840138
 10
12.3825926739
 20
-6.6845437629
 10
12.5197634532
 20
-6.7046683824
 10
12.6592133869
 20
-6.7337122908
 10
12.8006265617
 20
-6.7716097002
 10
12.9436826284
 20
-6.818274769
 10
13.0880575
 20
-6.8736017881
 10
13.2334241225
 20
-6.9374654332
  0
LWPOLYLINE
  5
258
100
AcDbEntity
  8
ASSI
100
AcDbPolyline
 62
7
  6
CONTINUOUS
 90
67
 70
0
 10
16.6017279422
 20
-12.8261194567
 10
16.5977715732
 20
-13.0129452047
 10
16.5861373594
 20
-13.1940659187
 10
16.5668253009
 20
-13.3694815989
 10
16.5397571355
 20
-13.5395637747
 10
16.5050111254
 20
-13.7039409166
 10
16.4628220573
 20
-13.8614984359
 10
16.4131392757
 20
-14.0121898061
 10
16.356013436
 20
-14.1560615537
 10
16.2918312913
 20
-14.2921386706
 10
16.2205449046
 20
-14.4203680642
 10
16.1422022129
 20
-14.540802827
 10
16.05733378
 20
-14.6526272285
 10
15.9658954182
 20
-14.7557826893
 10
15.8679313152
 20
-14.8503277886
 10
15.7641045974
 20
-14.935622534
 10
15.6543755066
 20
-15.0116042066
 10
15.5387838011
 20
-15.0783355253
 10
15.4181118821
 20
-15.1353646541
 10
15.2923252021
 20
-15.1826258025
 10
15.1614583087
 20
-15.220184761
 10
15.0263972461
 20
-15.2477870654
 10
14.8871135259
 20
-15.2653651262
 10
14.7436356365
 20
-15.2729865329
 10
14.5969350876
 20
-15.2705995901
 10
14.4469900295
 20
-15.2581363632
 10
14.293822312
 20
-15.2356647869
 10
14.1384689932
 20
-15.2033369694
 10
13.9809152463
 20
-15.1610860231
 10
13.8211758981
 20
-15.1089788357
 10
13.6603324881
 20
-15.0473681785
 10
13.4983775077
 20
-14.9761895479
 10
13.3353184655
 20
-14.8955074474
 10
13.1722594262
 20
-14.8058681593
 10
13.0092003918
 20
-14.7072108908
 10
12.8461413602
 20
-14.5995964347
 10
12.6841863904
 20
-14.4837534518
 10
12.5233429889
 20
-14.3596261079
 10
12.3636036491
 20
-14.2272702373
 10
12.2060499113
 20
-14.0875820027
 10
12.0506966017
 20
-13.9405116375
 10
11.897528894
 20
-13.7861089084
 10
11.7475838488
 20
-13.6254192783
 10
11.6008833139
 20
-13.4584000403
 10
11.4574054416
 20
-13.2850939012
 10
11.3181217494
 20
-13.1066744444
 10
11.1830607333
 20
-12.9231069891
 10
11.0521938973
 20
-12.7344262161
 10
10.9264072707
 20
-12.541909751
 10
10.8057353984
 20
-12.345531699
 10
10.6901437353
 20
-12.1453179549
 10
10.5804146756
 20
-11.9426238288
 10
10.4765879679
 20
-11.7374324929
 10
10.3786238635
 20
-11.5297607749
 10
10.2871855108
 20
-11.3210144683
 10
10.2023171015
 20
-11.1111860161
 10
10.1239744438
 20
-10.9002829754
 10
10.0526881109
 20
-10.6897338111
 10
9.9885060492
 20
-10.4795408054
 10
9.9313803123
 20
-10.2697016762
 10
9.8816976343
 20
-10.0616380415
 10
9.8395086714
 20
-9.8553618837
 10
9.8047627674
 20
-9.6508612205
 10
9.7776946881
 20
-9.4495217235
 10
9.7583826889
 20
-9.2518052832
 10
9.7467485144
 20
-9.0572500092
 10
9.7427921647
 20
-8.8658559014
  0
LINE
  5
259
100
AcDbEntity
  8
ASSI
100
AcDbLine
 62
7
  6
CONTINUOUS
 10
16.5964539365
 20
-12.6126905295
 11
16.5878018923
 21
-12.747386197
  0
LWPOLYLINE
  5
25A
100
AcDbEntity
  8
ASSI
100
AcDbPolyline
 62
7
  6
CONTINUOUS
 90
16
 70
0
 10
16.5878018923
 20
-12.747386197
 10
16.5704234823
 20
-12.9051905061
 10
16.5461483001
 20
-13.0578704585
 10
16.515031088
 20
-13.2050796465
 10
16.4771423309
 20
-13.3464834757
 10
16.4325677482
 20
-13.4817614273
 10
16.3814081577
 20
-13.610607017
 10
16.323779606
 20
-13.7327276732
 10
16.2598126463
 20
-13.8478466335
 10
16.1896521088
 20
-13.9557031555
 10
16.1134571055
 20
-14.0560526015
 10
16.0314003651
 20
-14.1486675441
 10
15.9436676887
 20
-14.2333383288
 10
15.8504577132
 20
-14.3098732504
 10
15.7519815856
 20
-14.3780989132
 10
15.7009185407
 20
-14.4090002093
  0
LWPOLYLINE
  5
25B
100
AcDbEntity
  8
ASSI
100
AcDbPolyline
 62
7
  6
CONTINUOUS
 90
51
 70
0
 10
15.7009185407
 20
-14.4090002093
 10
15.6484623732
 20
-14.4378607518
 10
15.5401344212
 20
-14.4890234335
 10
15.4272430294
 20
-14.5314710294
 10
15.3100439779
 20
-14.5651072932
 10
15.1888028055
 20
-14.5898559627
 10
15.0637941356
 20
-14.6056609352
 10
14.9353011599
 20
-14.6124863632
 10
14.8036150703
 20
-14.6103167509
 10
14.6690342142
 20
-14.5991570018
 10
14.531863435
 20
-14.5790323823
 10
14.3924135013
 20
-14.549988474
 10
14.2510003265
 20
-14.5120910645
 10
14.1079442598
 20
-14.4654259957
 10
13.9635693882
 20
-14.4100989766
 10
13.8182027657
 20
-14.3462353316
 10
13.6721737175
 20
-14.2739797337
 10
13.5258131034
 20
-14.1934958897
 10
13.3794524894
 20
-14.1049661278
 10
13.2334234418
 20
-14.0085910039
 10
13.08805682
 20
-13.9045888797
 10
12.9436819494
 20
-13.7931953782
 10
12.8006258839
 20
-13.674662849
 10
12.6592127097
 20
-13.5492598294
 10
12.5197627749
 20
-13.4172704076
 10
12.3825919942
 20
-13.2789936056
 10
12.24801114
 20
-13.1347427134
 10
12.1163250563
 20
-12.9848444911
 10
11.9878320897
 20
-12.8296385588
 10
11.8628234324
 20
-12.6694766745
 10
11.7415822782
 20
-12.5047217114
 10
11.624383248
 20
-12.3357468981
 10
11.5114918744
 20
-12.1629351248
 10
11.4031639377
 20
-11.9866780057
 10
11.2996447387
 20
-11.8073747358
 10
11.2011686182
 20
-11.6254312544
 10
11.1079586404
 20
-11.4412597091
 10
11.0202259591
 20
-11.2552773324
 10
10.9381692216
 20
-11.0679052308
 10
10.8619742273
 20
-10.879567614
 10
10.7918137065
 20
-10.6906913765
 10
10.7278467811
 20
-10.5017049267
 10
10.6702182797
 20
-10.3130362592
 10
10.6190587497
 20
-10.1251128901
 10
10.5744842375
 20
-9.9383614128
 10
10.5365955566
 20
-9.7532047386
 10
10.505478419
 20
-9.5700623635
 10
10.4812033034
 20
-9.3893502678
 10
10.463824947
 20
-9.2114780697
 10
10.4533823714
 20
-9.0368481469
 10
10.4498989459
 20
-8.8658559014
  0
LINE
  5
25C
100
AcDbEntity
  8
ASSI
100
AcDbLine
 62
7
  6
CONTINUOUS
 10
39.2480511443
 20
9.8361174348
 11
40.2575878617
 21
10.8894120305
  0
LINE
  5
25D
100
AcDbEntity
  8
ASSI
100
AcDbLine
 62
7
  6
CONTINUOUS
 10
40.9439862093
 20
9.7005352194
 11
40.9654875612
 21
9.688540272
  0
LINE
  5
25E
100
AcDbEntity
  8
ASSI
100
AcDbLine
 62
7
  6
CONTINUOUS
 10
39.2480511443
 20
9.8361174348
 11
-44.7233361907
 21
58.3201440733
  0
LINE
  5
25F
100
AcDbEntity
  8
ASSI
100
AcDbLine
 62
7
  6
CONTINUOUS
 10
40.2579502919
 20
10.9140307694
 11
-44.3198832767
 21
59.7482118627
  0
LINE
  5
260
100
AcDbEntity
  8
ASSI
100
AcDbLine
 62
7
  6
CONTINUOUS
 10
44.3198832767
 20
13.2593246716
 11
-40.5320694895
 21
62.251778754
  0
LWPOLYLINE
  5
261
100
AcDbEntity
  8
CURVE
100
AcDbPolyline
 62
250
  6
CONTINUOUS
 90
73
 70
0
 10
43.0421498158
 20
-48.8712822477
 10
43.0410068376
 20
-48.8649461897
 10
43.0392548167
 20
-48.8591423906
 10
43.0369613585
 20
-48.8538173705
 10
43.0341940681
 20
-48.8489176492
 10
43.0310205509
 20
-48.8443897466
 10
43.0275084121
 20
-48.8401801828
 10
43.0237252569
 20
-48.8362354775
 10
43.0197386905
 20
-48.8325021507
 10
43.0156163183
 20
-48.8289267224
 10
43.0114257454
 20
-48.8254557124
 10
43.0008325836
 20
-48.8169706686
 10
42.9901815995
 20
-48.8088561368
 10
42.9794187468
 20
-48.8011595856
 10
42.9684899791
 20
-48.7939284836
 10
42.9573412501
 20
-48.7872102992
 10
42.9459185132
 20
-48.7810525011
 10
42.9341677223
 20
-48.7755025578
 10
42.9220348307
 20
-48.7706079379
 10
42.9084569435
 20
-48.7661006215
 10
42.8944075761
 20
-48.7624020945
 10
42.8799240013
 20
-48.7595013596
 10
42.865043492
 20
-48.7573874194
 10
42.8498033209
 20
-48.7560492767
 10
42.8342407609
 20
-48.755475934
 10
42.8183930849
 20
-48.755656394
 10
42.8022975656
 20
-48.7565796593
 10
42.7859914759
 20
-48.7582347326
 10
42.7695120886
 20
-48.7606106165
 10
42.7529071278
 20
-48.7636928199
 10
42.7361759688
 20
-48.7674702401
 10
42.7193281929
 20
-48.7719295617
 10
42.7023733812
 20
-48.7770574691
 10
42.6853211148
 20
-48.7828406468
 10
42.668180975
 20
-48.7892657795
 10
42.6484928735
 20
-48.7973791631
 10
42.6287274512
 20
-48.8062874235
 10
42.6089097072
 20
-48.815963871
 10
42.5890646406
 20
-48.8263818161
 10
42.5692172505
 20
-48.837514569
 10
42.5493925359
 20
-48.8493354403
 10
42.5301080131
 20
-48.8615046303
 10
42.5108922381
 20
-48.8743141526
 10
42.4917686325
 20
-48.8877754926
 10
42.472760618
 20
-48.9019001356
 10
42.4538916162
 20
-48.9166995668
 10
42.43706869
 20
-48.9305857971
 10
42.42039746
 20
-48.9450202079
 10
42.4038983707
 20
-48.9599964486
 10
42.3875918662
 20
-48.9755081687
 10
42.3714983908
 20
-48.9915490177
 10
42.3542452685
 20
-49.0096011556
 10
42.3372975342
 20
-49.0282388324
 10
42.3206838899
 20
-49.0474280497
 10
42.3044330378
 20
-49.0671348093
 10
42.2885736798
 20
-49.0873251127
 10
42.2731345181
 20
-49.1079649619
 10
42.2581442548
 20
-49.1290203583
 10
42.2436315919
 20
-49.1504573037
 10
42.2303868993
 20
-49.1710243361
 10
42.2176042392
 20
-49.1918769306
 10
42.2052940074
 20
-49.2129906241
 10
42.1934665996
 20
-49.2343409532
 10
42.1821324116
 20
-49.2559034546
 10
42.1713018391
 20
-49.277653665
 10
42.1609852779
 20
-49.2995671211
 10
42.1538012197
 20
-49.3156269365
 10
42.1469351501
 20
-49.3317399698
 10
42.1404264392
 20
-49.3478857035
 10
42.1343144573
 20
-49.3640436201
 10
42.1286385745
 20
-49.3801932021
 10
42.1234381611
 20
-49.3963139321
 10
42.1187525873
 20
-49.4123852926
  0
LWPOLYLINE
  5
262
100
AcDbEntity
  8
CURVE
100
AcDbPolyline
 62
250
  6
CONTINUOUS
 90
22
 70
0
 10
42.3895956672
 20
-49.9077424493
 10
42.3873679986
 20
-49.8940662213
 10
42.3852412186
 20
-49.8803175835
 10
42.3832323697
 20
-49.8664847757
 10
42.3813584942
 20
-49.8525560381
 10
42.3796366347
 20
-49.8385196107
 10
42.3780838338
 20
-49.8243637334
 10
42.3766136454
 20
-49.8089407983
 10
42.3753603205
 20
-49.7933700346
 10
42.3743239298
 20
-49.7776564629
 10
42.3735045437
 20
-49.7618051037
 10
42.3729022329
 20
-49.7458209777
 10
42.3725170678
 20
-49.7297091052
 10
42.372349119
 20
-49.713474507
 10
42.3723984571
 20
-49.6971222035
 10
42.3726651525
 20
-49.6806572152
 10
42.3731492759
 20
-49.6640845628
 10
42.3738508978
 20
-49.6474092667
 10
42.3747700888
 20
-49.6306363475
 10
42.3759069193
 20
-49.6137708257
 10
42.3772614599
 20
-49.596817722
 10
42.3788337813
 20
-49.5797820567
  0
LINE
  5
263
100
AcDbEntity
  8
ASSI
100
AcDbLine
 62
7
  6
CONTINUOUS
 10
39.5270270784
 20
-61.4787166561
 11
39.5270270784
 21
9.3529169433
  0
LINE
  5
264
100
AcDbEntity
  8
ASSI
100
AcDbLine
 62
7
  6
CONTINUOUS
 10
40.9654875612
 20
-61.8433345602
 11
40.9654875612
 21
9.688540272
  0
LINE
  5
265
100
AcDbEntity
  8
ASSI
100
AcDbLine
 62
7
  6
CONTINUOUS
 10
40.2579502919
 20
10.9140307694
 11
40.2575878617
 21
10.8894120305
  0
LINE
  5
266
100
AcDbEntity
  8
ASSI
100
AcDbLine
 62
7
  6
CONTINUOUS
 10
39.5270270784
 20
9.3529169433
 11
39.2480511443
 21
9.8361174348
  0
LINE
  5
267
100
AcDbEntity
  8
ASSI
100
AcDbLine
 62
7
  6
CONTINUOUS
 10
40.9439862093
 20
9.7005352194
 11
40.2575878617
 21
10.8894120305
  0
LINE
  5
268
100
AcDbEntity
  8
CURVE
100
AcDbLine
 62
250
  6
CONTINUOUS
 10
42.0780359473
 20
-54.6554353402
 11
42.0780359473
 21
-55.0814638153
  0
LINE
  5
269
100
AcDbEntity
  8
CURVE
100
AcDbLine
 62
250
  6
CONTINUOUS
 10
42.078144919
 20
-56.9180133901
 11
42.078144919
 21
-56.4552151761
  0
LINE
  5
26A
100
AcDbEntity
  8
CURVE
100
AcDbLine
 62
250
  6
CONTINUOUS
 10
42.078144919
 20
-55.6652426256
 11
42.078144919
 21
-55.2395056304
  0
LINE
  5
26B
100
AcDbEntity
  8
CURVE
100
AcDbLine
 62
250
  6
CONTINUOUS
 10
42.078144919
 20
-54.2417454769
 11
42.078144919
 21
-53.8160697169
  0
LINE
  5
26C
100
AcDbEntity
  8
CURVE
100
AcDbLine
 62
250
  6
CONTINUOUS
 10
42.078144919
 20
-52.9685123343
 11
42.078144919
 21
-52.5469989398
  0
LINE
  5
26D
100
AcDbEntity
  8
CURVE
100
AcDbLine
 62
250
  6
CONTINUOUS
 10
42.078144919
 20
-51.6490735059
 11
42.078144919
 21
-51.2369421713
  0
LINE
  5
26E
100
AcDbEntity
  8
CURVE
100
AcDbLine
 62
250
  6
CONTINUOUS
 10
42.8914697039
 20
-49.3940511727
 11
42.8914697039
 21
-49.6375221639
  0
LINE
  5
26F
100
AcDbEntity
  8
CURVE
100
AcDbLine
 62
250
  6
CONTINUOUS
 10
43.1908831917
 20
-49.4621847383
 11
43.1908831917
 21
-49.2337585035
  0
LINE
  5
270
100
AcDbEntity
  8
CURVE
100
AcDbLine
 62
250
  6
CONTINUOUS
 10
43.2589505753
 20
-51.027366478
 11
43.2589505753
 21
-50.6194742571
  0
LINE
  5
271
100
AcDbEntity
  8
CURVE
100
AcDbLine
 62
250
  6
CONTINUOUS
 10
43.5413642698
 20
-50.3822748425
 11
43.5413642698
 21
-50.9624545389
  0
LINE
  5
272
100
AcDbEntity
  8
CURVE
100
AcDbLine
 62
250
  6
CONTINUOUS
 10
43.9063360957
 20
-54.0970658355
 11
43.9063360957
 21
-53.6710373604
  0
LINE
  5
273
100
AcDbEntity
  8
CURVE
100
AcDbLine
 62
250
  6
CONTINUOUS
 10
43.9063361077
 20
-49.5012829402
 11
43.9063361077
 21
-49.0769687737
  0
LINE
  5
274
100
AcDbEntity
  8
CURVE
100
AcDbLine
 62
250
  6
CONTINUOUS
 10
43.9063361077
 20
-48.4245650811
 11
43.9063361077
 21
-48.0147753031
  0
LINE
  5
275
100
AcDbEntity
  8
CURVE
100
AcDbLine
 62
250
  6
CONTINUOUS
 10
43.9063360957
 20
-49.626385675
 11
43.9063360957
 21
-50.0754018708
  0
LINE
  5
276
100
AcDbEntity
  8
CURVE
100
AcDbLine
 62
250
  6
CONTINUOUS
 10
43.9063360957
 20
-50.8835033272
 11
43.9063360957
 21
-51.3049089477
  0
LINE
  5
277
100
AcDbEntity
  8
CURVE
100
AcDbLine
 62
250
  6
CONTINUOUS
 10
43.9063360957
 20
-51.3718072563
 11
43.9063360957
 21
-51.788576142
  0
LINE
  5
278
100
AcDbEntity
  8
CURVE
100
AcDbLine
 62
250
  6
CONTINUOUS
 10
43.9063360957
 20
-52.3826521625
 11
43.9063360957
 21
-52.4424030902
  0
LINE
  5
279
100
AcDbEntity
  8
CURVE
100
AcDbLine
 62
250
  6
CONTINUOUS
 10
43.9063360957
 20
-53.0341227775
 11
43.9063360957
 21
-53.4416933091
  0
LINE
  5
27A
100
AcDbEntity
  8
CURVE
100
AcDbLine
 62
250
  6
CONTINUOUS
 10
43.9063360957
 20
-54.9112124379
 11
43.9063360957
 21
-55.2866499653
  0
LINE
  5
27B
100
AcDbEntity
  8
ASSI
100
AcDbLine
 62
7
  6
CONTINUOUS
 10
45.0274205459
 20
-59.8145560459
 11
45.0274205459
 21
12.0338341742
  0
LWPOLYLINE
  5
27C
100
AcDbEntity
  8
CURVE
100
AcDbPolyline
 62
250
  6
CONTINUOUS
 90
48
 70
0
 10
43.1908831917
 20
-49.2337585035
 10
43.1909577933
 20
-49.2271587392
 10
43.1911824121
 20
-49.2204665556
 10
43.1915582685
 20
-49.2136880467
 10
43.1920865833
 20
-49.2068293065
 10
43.1927685769
 20
-49.199896429
 10
43.1936054701
 20
-49.1928955082
 10
43.1945984834
 20
-49.1858326381
 10
43.1957488375
 20
-49.1787139126
 10
43.1970577529
 20
-49.1715454259
 10
43.1985264503
 20
-49.1643332718
 10
43.2001561503
 20
-49.1570835444
 10
43.2019480735
 20
-49.1498023376
 10
43.2039034405
 20
-49.1424957455
 10
43.2060234719
 20
-49.1351698621
 10
43.2083093884
 20
-49.1278307813
 10
43.2107624105
 20
-49.1204845971
 10
43.2133837588
 20
-49.1131374036
 10
43.2162468433
 20
-49.1056079934
 10
43.2192826921
 20
-49.0980883262
 10
43.2224857729
 20
-49.0905827979
 10
43.225850554
 20
-49.0830958043
 10
43.2293715031
 20
-49.0756317414
 10
43.2330430884
 20
-49.0681950051
 10
43.2368597778
 20
-49.0607899913
 10
43.2408160394
 20
-49.053421096
 10
43.244906341
 20
-49.0460927149
 10
43.2491251507
 20
-49.0388092441
 10
43.2534669365
 20
-49.0315750795
 10
43.2579261663
 20
-49.024394617
 10
43.2624973082
 20
-49.0172722524
 10
43.2671748301
 20
-49.0102123818
 10
43.2719532001
 20
-49.003219401
 10
43.2768268861
 20
-48.9962977059
 10
43.2817903561
 20
-48.9894516925
 10
43.286838078
 20
-48.9826857566
 10
43.29196452
 20
-48.9760042942
 10
43.2971641499
 20
-48.9694117013
 10
43.3024314358
 20
-48.9629123736
 10
43.3077608456
 20
-48.9565107072
 10
43.3131468473
 20
-48.9502110979
 10
43.318583909
 20
-48.9440179416
 10
43.3240664986
 20
-48.9379356344
 10
43.3295890841
 20
-48.931968572
 10
43.3351461335
 20
-48.9261211504
 10
43.3407321147
 20
-48.9203977656
 10
43.3463414959
 20
-48.9148028134
 10
43.3519687448
 20
-48.9093406897
  0
LINE
  5
27D
100
AcDbEntity
  8
ASSI
100
AcDbLine
 62
7
  6
CONTINUOUS
 10
44.3198832767
 20
13.2593246716
 11
45.0274205459
 21
12.0338341742
  0
LWPOLYLINE
  5
27E
100
AcDbEntity
  8
CURVE
100
AcDbPolyline
 62
250
  6
CONTINUOUS
 90
49
 70
0
 10
42.3788337813
 20
-49.5797820567
 10
42.3797401698
 20
-49.5714859862
 10
42.3808356139
 20
-49.5630875916
 10
42.3821195821
 20
-49.5545957592
 10
42.3835915428
 20
-49.5460193752
 10
42.3852509647
 20
-49.5373673259
 10
42.3870973161
 20
-49.5286484975
 10
42.3891300657
 20
-49.5198717763
 10
42.391348682
 20
-49.5110460485
 10
42.3937526334
 20
-49.5021802004
 10
42.3963413886
 20
-49.4932831183
 10
42.399114416
 20
-49.4843636883
 10
42.4020711841
 20
-49.4754307968
 10
42.4052111615
 20
-49.4664933301
 10
42.4085338166
 20
-49.4575601743
 10
42.4120386181
 20
-49.4486402157
 10
42.4157250344
 20
-49.4397423407
 10
42.419592534
 20
-49.4308754353
 10
42.4236405855
 20
-49.422048386
 10
42.4278686574
 20
-49.4132700789
 10
42.4322762181
 20
-49.4045494004
 10
42.4368627363
 20
-49.3958952366
 10
42.4416276804
 20
-49.3873164738
 10
42.446570519
 20
-49.3788219983
 10
42.4516907206
 20
-49.3704206963
 10
42.4569574419
 20
-49.3621655903
 10
42.4623908315
 20
-49.3540183662
 10
42.4679826271
 20
-49.3459859435
 10
42.4737245663
 20
-49.3380752414
 10
42.4796083871
 20
-49.3302931794
 10
42.4856258269
 20
-49.3226466766
 10
42.4917686237
 20
-49.3151426526
 10
42.498028515
 20
-49.3077880266
 10
42.5043972387
 20
-49.300589718
 10
42.5108665325
 20
-49.2935546462
 10
42.517428134
 20
-49.2866897303
 10
42.524073781
 20
-49.28000189
 10
42.5307952112
 20
-49.2734980443
 10
42.5375841624
 20
-49.2671851128
 10
42.5444323723
 20
-49.2610700147
 10
42.5513315785
 20
-49.2551596694
 10
42.5582735189
 20
-49.2494609962
 10
42.5652499311
 20
-49.2439809145
 10
42.5722525529
 20
-49.2387263436
 10
42.579273122
 20
-49.2337042029
 10
42.5863033761
 20
-49.2289214117
 10
42.5933350529
 20
-49.2243848893
 10
42.6003598902
 20
-49.2201015551
 10
42.6073696257
 20
-49.2160783285
  0
LWPOLYLINE
  5
27F
100
AcDbEntity
  8
CURVE
100
AcDbPolyline
 62
250
  6
CONTINUOUS
 90
32
 70
0
 10
42.1187525873
 20
-49.4123852926
 10
42.1111498741
 20
-49.4411398969
 10
42.1042008466
 20
-49.4697793085
 10
42.0978737947
 20
-49.4982996897
 10
42.092137008
 20
-49.5266972027
 10
42.0869587763
 20
-49.5549680101
 10
42.0823073894
 20
-49.583108274
 10
42.0781511369
 20
-49.6111141568
 10
42.0744583087
 20
-49.6389818209
 10
42.0711971945
 20
-49.6667074287
 10
42.068336084
 20
-49.6942871424
 10
42.065843267
 20
-49.7217171245
 10
42.0636870332
 20
-49.7489935372
 10
42.0610214899
 20
-49.7897235114
 10
42.0590179719
 20
-49.8301080828
 10
42.0576488804
 20
-49.8701579043
 10
42.0568866162
 20
-49.9098836285
 10
42.0567035803
 20
-49.9492959084
 10
42.0570721736
 20
-49.9884053967
 10
42.0579647971
 20
-50.0272227462
 10
42.0593538517
 20
-50.0657586096
 10
42.0612117384
 20
-50.1040236399
 10
42.0635108581
 20
-50.1420284898
 10
42.0662236118
 20
-50.1797838121
 10
42.0693224004
 20
-50.2173002596
 10
42.0727796249
 20
-50.254588485
 10
42.0765676861
 20
-50.2916591413
 10
42.0806589851
 20
-50.3285228811
 10
42.0850259228
 20
-50.3651903574
 10
42.0896409001
 20
-50.4016722228
 10
42.094476318
 20
-50.4379791302
 10
42.0995045774
 20
-50.4741217324
  0
LINE
  5
280
100
AcDbEntity
  8
CURVE
100
AcDbLine
 62
7
  6
CONTINUOUS
 10
42.2946996244
 20
-49.0800909511
 11
42.4709299842
 21
-48.9038605913
  0
LINE
  5
281
100
AcDbEntity
  8
CURVE
100
AcDbLine
 62
7
  6
CONTINUOUS
 10
42.1015246825
 20
-49.483276607
 11
42.8287645058
 21
-48.7560367837
  0
LINE
  5
282
100
AcDbEntity
  8
CURVE
100
AcDbLine
 62
7
  6
CONTINUOUS
 10
42.0654816721
 20
-49.7293303315
 11
42.9876146866
 21
-48.8071973169
  0
LINE
  5
283
100
AcDbEntity
  8
CURVE
100
AcDbLine
 62
7
  6
CONTINUOUS
 10
42.0573854154
 20
-49.9474373022
 11
42.3748207838
 21
-49.6300019337
  0
LINE
  5
284
100
AcDbEntity
  8
CURVE
100
AcDbLine
 62
7
  6
CONTINUOUS
 10
42.8164560597
 20
-49.1883666579
 11
43.9063361077
 21
-48.0984866098
  0
LINE
  5
285
100
AcDbEntity
  8
CURVE
100
AcDbLine
 62
7
  6
CONTINUOUS
 10
42.0644377813
 20
-50.1503956503
 11
42.3794328847
 21
-49.8354005469
  0
LINE
  5
286
100
AcDbEntity
  8
CURVE
100
AcDbLine
 62
7
  6
CONTINUOUS
 10
42.8865582732
 20
-49.3282751584
 11
43.9063361077
 21
-48.3084973238
  0
LINE
  5
287
100
AcDbEntity
  8
CURVE
100
AcDbLine
 62
7
  6
CONTINUOUS
 10
42.0824657484
 20
-50.3423783971
 11
42.6658353791
 21
-49.7590087665
  0
LINE
  5
288
100
AcDbEntity
  8
CURVE
100
AcDbLine
 62
7
  6
CONTINUOUS
 10
42.8914697039
 20
-49.5333744417
 11
43.1908831917
 21
-49.2339609539
  0
LINE
  5
289
100
AcDbEntity
  8
CURVE
100
AcDbLine
 62
7
  6
CONTINUOUS
 10
42.2321552221
 20
-50.4026996375
 11
43.1908831917
 21
-49.443971668
  0
LINE
  5
28A
100
AcDbEntity
  8
CURVE
100
AcDbLine
 62
7
  6
CONTINUOUS
 10
42.6871399749
 20
-50.1577255988
 11
43.6064096276
 21
-49.2384559461
  0
LINE
  5
28B
100
AcDbEntity
  8
CURVE
100
AcDbLine
 62
7
  6
CONTINUOUS
 10
43.1421247277
 20
-49.91275156
 11
43.9063361077
 21
-49.1485401799
  0
LINE
  5
28C
100
AcDbEntity
  8
CURVE
100
AcDbLine
 62
7
  6
CONTINUOUS
 10
43.5971094805
 20
-49.6677775212
 11
43.9063361077
 21
-49.3585508939
  0
LINE
  5
28D
100
AcDbEntity
  8
CURVE
100
AcDbLine
 62
7
  6
CONTINUOUS
 10
42.078144919
 20
-51.3967527966
 11
43.4205981286
 21
-50.054299587
  0
LINE
  5
28E
100
AcDbEntity
  8
CURVE
100
AcDbLine
 62
7
  6
CONTINUOUS
 10
42.078144919
 20
-51.6067635107
 11
43.9063360957
 21
-49.778572334
  0
LINE
  5
28F
100
AcDbEntity
  8
CURVE
100
AcDbLine
 62
7
  6
CONTINUOUS
 10
42.2847375573
 20
-51.6101815863
 11
42.7534211423
 21
-51.1414980013
  0
LINE
  5
290
100
AcDbEntity
  8
CURVE
100
AcDbLine
 62
7
  6
CONTINUOUS
 10
43.2589505753
 20
-50.6359685684
 11
43.9063360957
 21
-49.988583048
  0
LINE
  5
291
100
AcDbEntity
  8
CURVE
100
AcDbLine
 62
7
  6
CONTINUOUS
 10
42.5434524143
 20
-51.5614774434
 11
43.0246709231
 21
-51.0802589346
  0
LINE
  5
292
100
AcDbEntity
  8
CURVE
100
AcDbLine
 62
7
  6
CONTINUOUS
 10
43.2589505753
 20
-50.8459792824
 11
43.5413642698
 21
-50.5635655879
  0
LINE
  5
293
100
AcDbEntity
  8
CURVE
100
AcDbLine
 62
7
  6
CONTINUOUS
 10
42.8021672713
 20
-51.5127733004
 11
43.5413642698
 21
-50.7735763019
  0
LINE
  5
294
100
AcDbEntity
  8
CURVE
100
AcDbLine
 62
7
  6
CONTINUOUS
 10
43.0608821283
 20
-51.4640691574
 11
43.568330014
 21
-50.9566212717
  0
LINE
  5
295
100
AcDbEntity
  8
CURVE
100
AcDbLine
 62
7
  6
CONTINUOUS
 10
42.078144919
 20
-52.6568170807
 11
42.3856008334
 21
-52.3493611663
  0
LINE
  5
296
100
AcDbEntity
  8
CURVE
100
AcDbLine
 62
7
  6
CONTINUOUS
 10
43.3195969853
 20
-51.4153650145
 11
43.8363106767
 21
-50.898651323
  0
LINE
  5
297
100
AcDbEntity
  8
CURVE
100
AcDbLine
 62
7
  6
CONTINUOUS
 10
42.078144919
 20
-52.8668277947
 11
42.9735641295
 21
-51.9714085842
  0
LINE
  5
298
100
AcDbEntity
  8
CURVE
100
AcDbLine
 62
7
  6
CONTINUOUS
 10
43.5783118423
 20
-51.3666608715
 11
43.9063360957
 21
-51.0386366181
  0
LWPOLYLINE
  5
299
100
AcDbEntity
  8
CURVE
100
AcDbPolyline
 62
250
  6
CONTINUOUS
 90
7
 70
0
 10
43.3519687448
 20
-48.9093406897
 10
43.3772684106
 20
-48.8853635466
 10
43.402698366
 20
-48.8617383509
 10
43.4282442113
 20
-48.8384269599
 10
43.4538915472
 20
-48.8153912311
 10
43.4796259742
 20
-48.7925930221
 10
43.5054330927
 20
-48.7699941902
  0
LINE
  5
29A
100
AcDbEntity
  8
CURVE
100
AcDbLine
 62
250
  6
CONTINUOUS
 10
42.078144919
 20
-51.2369421713
 11
43.9063360957
 21
-49.626385675
  0
LINE
  5
29B
100
AcDbEntity
  8
CURVE
100
AcDbLine
 62
250
  6
CONTINUOUS
 10
43.5054330927
 20
-48.7699941902
 11
43.5572078065
 21
-48.7252420879
  0
LINE
  5
29C
100
AcDbEntity
  8
CURVE
100
AcDbLine
 62
250
  6
CONTINUOUS
 10
43.6609959555
 20
-48.6364521385
 11
43.9063361077
 21
-48.4245650811
  0
LWPOLYLINE
  5
29D
100
AcDbEntity
  8
CURVE
100
AcDbPolyline
 62
250
  6
CONTINUOUS
 90
44
 70
0
 10
43.3549114068
 20
-48.4745664341
 10
43.3407422427
 20
-48.4867405498
 10
43.3265076672
 20
-48.4991652679
 10
43.3121782569
 20
-48.5119175907
 10
43.3043033869
 20
-48.5190460567
 10
43.2963993933
 20
-48.5262928067
 10
43.28847422
 20
-48.5336554268
 10
43.280535811
 20
-48.5411315025
 10
43.2725921101
 20
-48.5487186199
 10
43.2646510612
 20
-48.5564143646
 10
43.2567206083
 20
-48.5642163225
 10
43.2488086952
 20
-48.5721220794
 10
43.2409232659
 20
-48.580129221
 10
43.2330722642
 20
-48.5882353333
 10
43.2252636341
 20
-48.5964380021
 10
43.2175053194
 20
-48.6047348131
 10
43.2098052641
 20
-48.6131233521
 10
43.2021714121
 20
-48.6216012049
 10
43.1946117072
 20
-48.6301659575
 10
43.1871340934
 20
-48.6388151955
 10
43.1797465145
 20
-48.6475465049
 10
43.1724569146
 20
-48.6563574713
 10
43.1652732374
 20
-48.6652456806
 10
43.1582034269
 20
-48.6742087187
 10
43.1512554269
 20
-48.6832441713
 10
43.1444371815
 20
-48.6923496243
 10
43.1377566344
 20
-48.7015226634
 10
43.1312217297
 20
-48.7107608745
 10
43.1248404111
 20
-48.7200618433
 10
43.1186206226
 20
-48.7294231558
 10
43.1125703082
 20
-48.7388423977
 10
43.1066974116
 20
-48.7483171547
 10
43.1010098768
 20
-48.7578450128
 10
43.0955156478
 20
-48.7674235578
 10
43.0902226684
 20
-48.7770503754
 10
43.0851388824
 20
-48.7867230514
 10
43.0802722339
 20
-48.7964391717
 10
43.0756306667
 20
-48.8061963221
 10
43.0712221248
 20
-48.8159920884
 10
43.0670545519
 20
-48.8258240564
 10
43.0631358921
 20
-48.8356898119
 10
43.0594740892
 20
-48.8455869407
 10
43.0560770872
 20
-48.8555130287
 10
43.0529528299
 20
-48.8654656616
  0
LINE
  5
29E
100
AcDbEntity
  8
CURVE
100
AcDbLine
 62
250
  6
CONTINUOUS
 10
43.5572078065
 20
-48.7252420879
 11
43.6609959555
 21
-48.6364521385
  0
LINE
  5
29F
100
AcDbEntity
  8
CURVE
100
AcDbLine
 62
250
  6
CONTINUOUS
 10
43.3831711942
 20
-48.4506620012
 11
43.3549114068
 21
-48.4745664341
  0
LINE
  5
2A0
100
AcDbEntity
  8
CURVE
100
AcDbLine
 62
250
  6
CONTINUOUS
 10
43.9063360957
 20
-50.0754018708
 11
43.5413642698
 21
-50.3822748425
  0
LINE
  5
2A1
100
AcDbEntity
  8
CURVE
100
AcDbLine
 62
250
  6
CONTINUOUS
 10
43.5436636065
 20
-48.3161858294
 11
43.3831711942
 21
-48.4506620012
  0
LINE
  5
2A2
100
AcDbEntity
  8
CURVE
100
AcDbLine
 62
250
  6
CONTINUOUS
 10
43.9063361077
 20
-48.0147753031
 11
43.8410663791
 21
-48.069355276
  0
LINE
  5
2A3
100
AcDbEntity
  8
CURVE
100
AcDbLine
 62
250
  6
CONTINUOUS
 10
43.8410663791
 20
-48.069355276
 11
43.5436636065
 21
-48.3161858294
  0
LINE
  5
2A4
100
AcDbEntity
  8
CURVE
100
AcDbLine
 62
250
  6
CONTINUOUS
 10
43.2589505753
 20
-50.6194742571
 11
42.5804854479
 21
-51.1805410579
  0
LINE
  5
2A5
100
AcDbEntity
  8
CURVE
100
AcDbLine
 62
250
  6
CONTINUOUS
 10
42.078144919
 20
-52.5469989398
 11
43.9063360957
 21
-51.3718072563
  0
LINE
  5
2A6
100
AcDbEntity
  8
CURVE
100
AcDbLine
 62
250
  6
CONTINUOUS
 10
43.9063360957
 20
-51.788576142
 11
42.7175382062
 21
-52.5161805812
  0
LWPOLYLINE
  5
2A7
100
AcDbEntity
  8
CURVE
100
AcDbPolyline
 62
250
  6
CONTINUOUS
 90
59
 70
0
 10
42.6073696257
 20
-49.2160783285
 10
42.6153073423
 20
-49.2117810637
 10
42.6233064409
 20
-49.2076762662
 10
42.631355966
 20
-49.2037699345
 10
42.6394449618
 20
-49.2000680672
 10
42.647562473
 20
-49.1965766627
 10
42.6556975438
 20
-49.1933017196
 10
42.6638392188
 20
-49.1902492364
 10
42.6719765424
 20
-49.1874252117
 10
42.6800985589
 20
-49.184835644
 10
42.6881943128
 20
-49.1824865318
 10
42.6962528486
 20
-49.1803838737
 10
42.7042632107
 20
-49.1785336681
 10
42.7122144434
 20
-49.1769419137
 10
42.7200955913
 20
-49.1756146089
 10
42.7278956987
 20
-49.1745577522
 10
42.7356038101
 20
-49.1737773423
 10
42.7432089699
 20
-49.1732793775
 10
42.7507002225
 20
-49.1730698566
 10
42.7580666124
 20
-49.1731547779
 10
42.765297184
 20
-49.1735401401
 10
42.7723809817
 20
-49.1742319416
 10
42.7793070499
 20
-49.1752361809
 10
42.7860644331
 20
-49.1765588567
 10
42.7926421757
 20
-49.1782059674
 10
42.7990293222
 20
-49.1801835116
 10
42.8052149169
 20
-49.1824974878
 10
42.8111880042
 20
-49.1851538945
 10
42.8169376287
 20
-49.1881587303
 10
42.8224528347
 20
-49.1915179937
 10
42.8277226667
 20
-49.1952376832
 10
42.8326731446
 20
-49.1992632161
 10
42.8373794596
 20
-49.2036320552
 10
42.8418469312
 20
-49.2083308699
 10
42.8460808793
 20
-49.2133463295
 10
42.8500866234
 20
-49.2186651034
 10
42.8538694833
 20
-49.2242738609
 10
42.8574347786
 20
-49.2301592715
 10
42.860787829
 20
-49.2363080044
 10
42.8639339541
 20
-49.2427067291
 10
42.8668784737
 20
-49.2493421148
 10
42.8696267074
 20
-49.256200831
 10
42.8721839749
 20
-49.263269547
 10
42.8745555958
 20
-49.2705349321
 10
42.8767468899
 20
-49.2779836558
 10
42.8787631768
 20
-49.2856023873
 10
42.8806097762
 20
-49.2933777961
 10
42.8822920077
 20
-49.3012965515
 10
42.8838151911
 20
-49.3093453228
 10
42.885184646
 20
-49.3175107795
 10
42.886405692
 20
-49.3257795908
 10
42.8874836489
 20
-49.3341384262
 10
42.8884238364
 20
-49.3425739549
 10
42.889231574
 20
-49.3510728464
 10
42.8899121815
 20
-49.35962177
 10
42.8904709786
 20
-49.3682073951
 10
42.8909132849
 20
-49.376816391
 10
42.8912444201
 20
-49.3854354271
 10
42.8914697039
 20
-49.3940511727
  0
LINE
  5
2A8
100
AcDbEntity
  8
CURVE
100
AcDbLine
 62
250
  6
CONTINUOUS
 10
43.0529528299
 20
-48.8654656616
 11
43.0421498158
 21
-48.8712822477
  0
LINE
  5
2A9
100
AcDbEntity
  8
CURVE
100
AcDbLine
 62
250
  6
CONTINUOUS
 10
43.9063361077
 20
-49.0769687737
 11
43.1908831917
 21
-49.4621847383
  0
LINE
  5
2AA
100
AcDbEntity
  8
CURVE
100
AcDbLine
 62
250
  6
CONTINUOUS
 10
42.8914697039
 20
-49.6375221639
 11
42.3895956672
 21
-49.9077424493
  0
LINE
  5
2AB
100
AcDbEntity
  8
CURVE
100
AcDbLine
 62
250
  6
CONTINUOUS
 10
42.0995045774
 20
-50.4741217324
 11
43.9063361077
 21
-49.5012829402
  0
LINE
  5
2AC
100
AcDbEntity
  8
CURVE
100
AcDbLine
 62
250
  6
CONTINUOUS
 10
42.7125620756
 20
-53.5849405954
 11
43.9063360957
 21
-53.0341227775
  0
LINE
  5
2AD
100
AcDbEntity
  8
CURVE
100
AcDbLine
 62
250
  6
CONTINUOUS
 10
43.9063360957
 20
-53.4416933091
 11
42.078144919
 21
-54.2417454769
  0
LINE
  5
2AE
100
AcDbEntity
  8
CURVE
100
AcDbLine
 62
7
  6
CONTINUOUS
 10
42.2010608704
 20
-52.9539225574
 11
43.5615274257
 21
-51.5934560021
  0
LINE
  5
2AF
100
AcDbEntity
  8
CURVE
100
AcDbLine
 62
7
  6
CONTINUOUS
 10
43.8370266992
 20
-51.3179567285
 11
43.9063360957
 21
-51.2486473321
  0
LINE
  5
2B0
100
AcDbEntity
  8
CURVE
100
AcDbLine
 62
7
  6
CONTINUOUS
 10
42.439356618
 20
-52.9256375238
 11
42.8654244746
 21
-52.4995696672
  0
LINE
  5
2B1
100
AcDbEntity
  8
CURVE
100
AcDbLine
 62
7
  6
CONTINUOUS
 10
43.0559208612
 20
-52.3090732806
 11
43.9063360957
 21
-51.4586580461
  0
LINE
  5
2B2
100
AcDbEntity
  8
CURVE
100
AcDbLine
 62
7
  6
CONTINUOUS
 10
42.6776523655
 20
-52.8973524903
 11
43.1020088737
 21
-52.4729959821
  0
LINE
  5
2B3
100
AcDbEntity
  8
CURVE
100
AcDbLine
 62
7
  6
CONTINUOUS
 10
43.5972561587
 20
-51.9777486971
 11
43.9063360957
 21
-51.6686687601
  0
LINE
  5
2B4
100
AcDbEntity
  8
CURVE
100
AcDbLine
 62
7
  6
CONTINUOUS
 10
42.9159481131
 20
-52.8690674567
 11
43.3385932727
 21
-52.4464222971
  0
LINE
  5
2B5
100
AcDbEntity
  8
CURVE
100
AcDbLine
 62
7
  6
CONTINUOUS
 10
42.078144919
 20
-53.9168813648
 11
43.5751776718
 21
-52.419848612
  0
LINE
  5
2B6
100
AcDbEntity
  8
CURVE
100
AcDbLine
 62
7
  6
CONTINUOUS
 10
42.078144919
 20
-54.1268920788
 11
43.8117620709
 21
-52.3932749269
  0
LINE
  5
2B7
100
AcDbEntity
  8
CURVE
100
AcDbLine
 62
7
  6
CONTINUOUS
 10
42.247349437
 20
-54.1676982749
 11
42.9308074483
 21
-53.4842402636
  0
LINE
  5
2B8
100
AcDbEntity
  8
CURVE
100
AcDbLine
 62
7
  6
CONTINUOUS
 10
42.6207811724
 20
-54.0042772534
 11
43.3207334393
 21
-53.3043249865
  0
LINE
  5
2B9
100
AcDbEntity
  8
CURVE
100
AcDbLine
 62
7
  6
CONTINUOUS
 10
42.0780359473
 20
-54.7570331925
 11
42.2981460211
 21
-54.5369231188
  0
LINE
  5
2BA
100
AcDbEntity
  8
CURVE
100
AcDbLine
 62
7
  6
CONTINUOUS
 10
42.9942129079
 20
-53.840856232
 11
43.7106594303
 21
-53.1244097095
  0
LINE
  5
2BB
100
AcDbEntity
  8
CURVE
100
AcDbLine
 62
7
  6
CONTINUOUS
 10
42.0780359473
 20
-54.9670439066
 11
42.7531307739
 21
-54.29194908
  0
LINE
  5
2BC
100
AcDbEntity
  8
CURVE
100
AcDbLine
 62
7
  6
CONTINUOUS
 10
43.3676446433
 20
-53.6774352105
 11
43.9063360957
 21
-53.1387437582
  0
LINE
  5
2BD
100
AcDbEntity
  8
CURVE
100
AcDbLine
 62
7
  6
CONTINUOUS
 10
42.2851318525
 20
-54.9699587154
 11
43.2081155267
 21
-54.0469750412
  0
LINE
  5
2BE
100
AcDbEntity
  8
CURVE
100
AcDbLine
 62
7
  6
CONTINUOUS
 10
43.7410763788
 20
-53.5140141891
 11
43.9063360957
 21
-53.3487544722
  0
LINE
  5
2BF
100
AcDbEntity
  8
CURVE
100
AcDbLine
 62
7
  6
CONTINUOUS
 10
42.078144919
 20
-55.3869563629
 11
42.2578692276
 21
-55.2072320543
  0
LINE
  5
2C0
100
AcDbEntity
  8
CURVE
100
AcDbLine
 62
7
  6
CONTINUOUS
 10
42.7401166053
 20
-54.7249846766
 11
43.6631002795
 21
-53.8020010024
  0
LINE
  5
2C1
100
AcDbEntity
  8
CURVE
100
AcDbLine
 62
7
  6
CONTINUOUS
 10
42.078144919
 20
-55.5969670769
 11
42.5138464596
 21
-55.1612655363
  0
LINE
  5
2C2
100
AcDbEntity
  8
CURVE
100
AcDbLine
 62
7
  6
CONTINUOUS
 10
43.1951013581
 20
-54.4800106378
 11
43.9063360957
 21
-53.7687759002
  0
LINE
  5
2C3
100
AcDbEntity
  8
CURVE
100
AcDbLine
 62
7
  6
CONTINUOUS
 10
42.2598149549
 20
-55.625307755
 11
42.7698236917
 21
-55.1152990182
  0
LINE
  5
2C4
100
AcDbEntity
  8
CURVE
100
AcDbLine
 62
7
  6
CONTINUOUS
 10
43.6500861109
 20
-54.235036599
 11
43.9063360957
 21
-53.9787866142
  0
LINE
  5
2C5
100
AcDbEntity
  8
CURVE
100
AcDbLine
 62
7
  6
CONTINUOUS
 10
42.5289976512
 20
-55.5661357727
 11
43.0258009237
 21
-55.0693325002
  0
LINE
  5
2C6
100
AcDbEntity
  8
CURVE
100
AcDbLine
 62
7
  6
CONTINUOUS
 10
42.7981803476
 20
-55.5069637903
 11
43.2817781558
 21
-55.0233659821
  0
LINE
  5
2C7
100
AcDbEntity
  8
CURVE
100
AcDbLine
 62
7
  6
CONTINUOUS
 10
43.0673630439
 20
-55.447791808
 11
43.5377553878
 21
-54.9773994641
  0
LINE
  5
2C8
100
AcDbEntity
  8
CURVE
100
AcDbLine
 62
7
  6
CONTINUOUS
 10
42.078144919
 20
-56.647020647
 11
43.7937326199
 21
-54.9314329461
  0
LINE
  5
2C9
100
AcDbEntity
  8
CURVE
100
AcDbLine
 62
7
  6
CONTINUOUS
 10
42.078144919
 20
-56.857031361
 11
43.9063360957
 21
-55.0288401843
  0
LINE
  5
2CA
100
AcDbEntity
  8
CURVE
100
AcDbLine
 62
7
  6
CONTINUOUS
 10
43.4623650005
 20
-55.6828219935
 11
43.9063360957
 21
-55.2388508983
  0
LINE
  5
2CB
100
AcDbEntity
  8
CURVE
100
AcDbLine
 62
250
  6
CONTINUOUS
 10
43.9063360957
 20
-52.4424030902
 11
42.7125620756
 21
-53.5849405954
  0
LINE
  5
2CC
100
AcDbEntity
  8
CURVE
100
AcDbLine
 62
250
  6
CONTINUOUS
 10
42.078144919
 20
-53.8160697169
 11
43.0931621987
 21
-52.8480326443
  0
LINE
  5
2CD
100
AcDbEntity
  8
CURVE
100
AcDbLine
 62
250
  6
CONTINUOUS
 10
43.9063360957
 20
-55.2866499653
 11
42.078144919
 21
-56.9180133901
  0
LINE
  5
2CE
100
AcDbEntity
  8
CURVE
100
AcDbLine
 62
250
  6
CONTINUOUS
 10
42.078144919
 20
-56.4552151761
 11
43.3365457403
 21
-55.3886198257
  0
LINE
  5
2CF
100
AcDbEntity
  8
ASSI
100
AcDbLine
 62
7
  6
CONTINUOUS
 10
39.2480511443
 20
-61.6397627316
 11
39.5270270784
 21
-61.4787166561
  0
LINE
  5
2D0
100
AcDbEntity
  8
ASSI
100
AcDbLine
 62
7
  6
CONTINUOUS
 10
40.2575878617
 20
-62.2511373164
 11
40.9439862093
 21
-61.8548961119
  0
LINE
  5
2D1
100
AcDbEntity
  8
ASSI
100
AcDbLine
 62
7
  6
CONTINUOUS
 10
45.0274205459
 20
-59.8145560459
 11
44.3198832767
 21
-60.2230002398
  0
LINE
  5
2D2
100
AcDbEntity
  8
CURVE
100
AcDbLine
 62
250
  6
CONTINUOUS
 10
43.9063360957
 20
-53.6710373604
 11
42.0780359473
 21
-54.6554353402
  0
LINE
  5
2D3
100
AcDbEntity
  8
CURVE
100
AcDbLine
 62
250
  6
CONTINUOUS
 10
42.0780359473
 20
-55.0814638153
 11
43.9063360957
 21
-54.0970658355
  0
LINE
  5
2D4
100
AcDbEntity
  8
ASSI
100
AcDbLine
 62
7
  6
CONTINUOUS
 10
40.9654875612
 20
-61.8433345602
 11
40.9439862093
 21
-61.8548961119
  0
LINE
  5
2D5
100
AcDbEntity
  8
ASSI
100
AcDbLine
 62
7
  6
CONTINUOUS
 10
40.9654875612
 20
-61.8433345602
 11
45.0274205459
 21
-59.8145560459
  0
LINE
  5
2D6
100
AcDbEntity
  8
ASSI
100
AcDbLine
 62
7
  6
CONTINUOUS
 10
40.2579502919
 20
-62.251778754
 11
44.3198832767
 21
-60.2230002398
  0
ENDSEC
  0
SECTION
  2
OBJECTS
  0
DICTIONARY
  5
C
100
AcDbDictionary
280
0
281
1
  3
ACAD_GROUP
350
D
  3
ACAD_MLINESTYLE
350
17
  3
ACAD_LAYOUT
350
1A
  3
ACAD_PLOTSETTINGS
350
19
  3
ACAD_PLOTSTYLENAME
350
E
  0
DICTIONARY
  5
D
102
{ACAD_REACTORS
330
C
102
}
100
AcDbDictionary
280
0
281
1
  0
ACDBDICTIONARYWDFLT
  5
E
102
{ACAD_REACTORS
330
C
102
}
100
AcDbDictionary
281
1
  3
Normal
350
F
100
AcDbDictionaryWithDefault
340
F
  0
DICTIONARY
  5
17
102
{ACAD_REACTORS
330
C
102
}
100
AcDbDictionary
280
0
281
1
  3
Standard
350
18
  0
DICTIONARY
  5
19
102
{ACAD_REACTORS
330
C
102
}
100
AcDbDictionary
281
1
  0
DICTIONARY
  5
1A
102
{ACAD_REACTORS
330
C
102
}
100
AcDbDictionary
281
1
  3
Model
350
2D7
  3
Layout1
350
2D8
  0
ACDBPLACEHOLDER
  5
F
102
{ACAD_REACTORS
330
E
102
}
  0
MLINESTYLE
  5
18
102
{ACAD_REACTORS
330
17
102
}
100
AcDbMlineStyle
  2
STANDARD
 70
0
  3

 62
256
 51
90.0
 52
90.0
 71
2
 49
0.5
 62
256
  6
BYLAYER
 49
-0.5
 62
256
  6
BYLAYER
  0
LAYOUT
  5
2D7
102
{ACAD_REACTORS
330
1A
102
}
100
AcDbPlotSettings
  1

  2
none_device
  4
ISO_A4_(297.00_x_210.00_MM)
  6

 40
0.0
 41
0.0
 42
0.0
 43
0.0
 44
297.0
 45
210.0
 46
0.0
 47
0.0
 48
0.0
 49
0.0
140
0.0
141
0.0
142
1.0
143
1.0
 70
1024
 72
1
 73
0
 74
0
  7

 75
0
147
1.0
148
0.0
149
0.0
100
AcDbLayout
  1
Model
 70
0
 71
0
 10
0.0
 20
0.0
 11
297.0
 21
210.0
 12
0.0
 22
0.0
 32
0.0
 14
0.0
 24
0.0
 34
0.0
 15
0.0
 25
0.0
 35
0.0
146
0.0
 13
0.0
 23
0.0
 33
0.0
 16
1.0
 26
0.0
 36
0.0
 17
0.0
 27
1.0
 37
0.0
 76
0
330
21E
345
0
346
0
  0
LAYOUT
  5
2D8
102
{ACAD_REACTORS
330
1A
102
}
100
AcDbPlotSettings
  1

  2
none_device
  4
ISO_A4_(297.00_x_210.00_MM)
  6

 40
0.0
 41
0.0
 42
0.0
 43
0.0
 44
297.0
 45
210.0
 46
0.0
 47
0.0
 48
0.0
 49
0.0
140
0.0
141
0.0
142
1.0
143
1.0
 70
0
 72
1
 73
0
 74
0
  7

 75
0
147
1.0
148
0.0
149
0.0
100
AcDbLayout
  1
Layout1
 70
0
 71
1
 10
0.0
 20
0.0
 11
297.0
 21
210.0
 12
0.0
 22
0.0
 32
0.0
 14
0.0
 24
0.0
 34
0.0
 15
0.0
 25
0.0
 35
0.0
146
0.0
 13
0.0
 23
0.0
 33
0.0
 16
1.0
 26
0.0
 36
0.0
 17
0.0
 27
1.0
 37
0.0
 76
0
330
21F
345
0
346
0
  0
ENDSEC
  0
EOF
