  0
SECTION
  2
HEADER
  9
$ACADVER
  1
AC1024
  9
$DWGCODEPAGE
  3
ANSI_1252
  9
$EXTMAX
 10
297.0
 20
210.0
 30
0.0
  9
$EXTMIN
 10
0.0
 20
0.0
 30
0.0
  9
$LIMMIN
 10
0.0
 20
0.0
  9
$LIMMAX
 10
297.0
 20
210.0
  9
$VIEWCTR
 10
148.5
 20
105.0
  9
$VIEWSIZE
 40
210.0
  9
$CLAYER
  8
0
  9
$LTSCALE
 40
16.335
  9
$CELTYPE
  6
BYLAYER
  9
$DIMSCALE
 40
1.0
  9
$DIMASZ
 40
3.0
  9
$DIMEXO
 40
0.5
  9
$DIMDLI
 40
11.286
  9
$DIMEXE
 40
1.5
  9
$DIMCEN
 40
2.673
  9
$DIMLFAC
 40
1.0
  9
$DIMBLK
  1
_FILLED
  9
$DIMALT
 70
0
  9
$DIMALTF
 40
0.0393700787
  9
$DIMTXT
 40
3.0
  9
$DIMTOL
 70
1
  9
$DIMLIM
 70
0
  9
$DIMTFAC
 40
1.0
  9
$DIMTP
 40
0.01
  9
$DIMTM
 40
0.01
  9
$DIMGAP
 40
0.625
  9
$DIMDSEP
 70
44
  9
$AUNITS
 70
0
  9
$PDMODE
 70
3
  9
$PDSIZE
 40
3.0
  9
$HANDSEED
  5
2CD
  9
$TILEMODE
 70
1
  9
$MEASUREMENT
 70
1
  9
$INSUNITS
 70
4
  0
ENDSEC
  0
SECTION
  2
CLASSES
  0
CLASS
  1
ACDBDICTIONARYWDFLT
  2
AcDbDictionaryWithDefault
  3
AutoCAD 2000
 90
0
 91
1
280
0
281
0
  0
CLASS
  1
ACDBPLACEHOLDER
  2
AcDbPlaceHolder
  3
AutoCAD 2000
 90
0
 91
1
280
0
281
0
  0
CLASS
  1
LAYOUT
  2
AcDbLayout
  3
AutoCAD 2000
 90
0
 91
0
280
0
281
0
  0
ENDSEC
  0
SECTION
  2
TABLES
  0
TABLE
  2
VPORT
  5
8
100
AcDbSymbolTable
 70
2
  0
VPORT
  5
1F4
100
AcDbSymbolTableRecord
100
AcDbViewportTableRecord
  2
*ACTIVE
 70
0
 10
0.0
 20
0.0
 11
1.0
 21
1.0
 12
148.5
 22
105.0
 13
0.0
 23
0.0
 14
1.0
 24
1.0
 15
0.0
 25
0.0
 16
0.0
 26
0.0
 36
1.0
 17
0.0
 27
0.0
 37
0.0
 40
210.0
 41
1.4142857143
 42
50.0
 43
0.0
 44
0.0
 50
0.0
 51
0.0
 71
0
 72
100
 73
1
 74
1
 75
0
 76
0
 77
0
 78
0
  0
ENDTAB
  0
TABLE
  2
LTYPE
  5
5
100
AcDbSymbolTable
 70
6
  0
LTYPE
  5
14
100
AcDbSymbolTableRecord
100
AcDbLinetypeTableRecord
  2
BYBLOCK
 70
0
  3

 72
65
 73
0
 40
0.0
  0
LTYPE
  5
15
100
AcDbSymbolTableRecord
100
AcDbLinetypeTableRecord
  2
BYLAYER
 70
0
  3

 72
65
 73
0
 40
0.0
  0
LTYPE
  5
16
100
AcDbSymbolTableRecord
100
AcDbLinetypeTableRecord
  2
CONTINUOUS
 70
64
  3
Solid line
 72
65
 73
0
 40
0.0
  0
LTYPE
  5
1F5
100
AcDbSymbolTableRecord
100
AcDbLinetypeTableRecord
  2
CENTER
 70
64
  3
____ _ ____ _ ____ _ ____ _ ____ _ ____ _ ____
 72
65
 73
4
 40
0.6
 49
0.375
 74
0
 49
-0.075
 74
0
 49
0.075
 74
0
 49
-0.075
 74
0
  0
LTYPE
  5
1F6
100
AcDbSymbolTableRecord
100
AcDbLinetypeTableRecord
  2
HIDDEN
 70
64
  3
- - - - - - - - - - - - - - - - - - - -
 72
65
 73
2
 40
0.2
 49
0.1
 74
0
 49
-0.1
 74
0
  0
LTYPE
  5
1F7
100
AcDbSymbolTableRecord
100
AcDbLinetypeTableRecord
  2
PHANTOM
 70
64
  3
_____ _ _ _____ _ _ _____ _ _ _____
 72
65
 73
6
 40
0.8
 49
0.45
 74
0
 49
-0.05
 74
0
 49
0.1
 74
0
 49
-0.05
 74
0
 49
0.1
 74
0
 49
-0.05
 74
0
  0
LTYPE
  5
1F8
100
AcDbSymbolTableRecord
100
AcDbLinetypeTableRecord
  2
DOT
 70
64
  3
. . . . . . . . . . . . . . . . . . . .
 72
65
 73
2
 40
0.2
 49
0.1
 74
0
 49
-0.1
 74
0
  0
LTYPE
  5
1F9
100
AcDbSymbolTableRecord
100
AcDbLinetypeTableRecord
  2
DASHED
 70
64
  3
- - - - - - - - - - - - - - - - - - - -
 72
65
 73
2
 40
0.2
 49
0.1
 74
0
 49
-0.1
 74
0
  0
ENDTAB
  0
TABLE
  2
LAYER
  5
2
100
AcDbSymbolTable
 70
36
  0
LAYER
  5
10
100
AcDbSymbolTableRecord
100
AcDbLayerTableRecord
  2
0
 70
0
 62
7
  6
CONTINUOUS
370
-3
390
F
  0
LAYER
  5
1FA
100
AcDbSymbolTableRecord
100
AcDbLayerTableRecord
  2
DEFAULT_1
 70
0
 62
7
  6
CENTER
370
-3
390
F
  0
LAYER
  5
1FB
100
AcDbSymbolTableRecord
100
AcDbLayerTableRecord
  2
DEFAULT_2
 70
0
 62
7
  6
HIDDEN
370
-3
390
F
  0
LAYER
  5
1FC
100
AcDbSymbolTableRecord
100
AcDbLayerTableRecord
  2
DEFAULT_3
 70
0
 62
7
  6
PHANTOM
370
-3
390
F
  0
LAYER
  5
1FD
100
AcDbSymbolTableRecord
100
AcDbLayerTableRecord
  2
ASSI
 70
0
 62
7
  6
CONTINUOUS
370
-3
390
F
  0
LAYER
  5
1FE
100
AcDbSymbolTableRecord
100
AcDbLayerTableRecord
  2
COORDINATE
 70
0
 62
7
  6
CONTINUOUS
370
-3
390
F
  0
LAYER
  5
1FF
100
AcDbSymbolTableRecord
100
AcDbLayerTableRecord
  2
COORD_ORIGINE
 70
0
 62
7
  6
CONTINUOUS
370
-3
390
F
  0
LAYER
  5
200
100
AcDbSymbolTableRecord
100
AcDbLayerTableRecord
  2
COPY_PUBLISH
 70
0
 62
7
  6
CONTINUOUS
370
-3
390
F
  0
LAYER
  5
201
100
AcDbSymbolTableRecord
100
AcDbLayerTableRecord
  2
COSMETIC
 70
0
 62
7
  6
CONTINUOUS
370
-3
390
F
  0
LAYER
  5
202
100
AcDbSymbolTableRecord
100
AcDbLayerTableRecord
  2
COSMETICI
 70
0
 62
7
  6
CONTINUOUS
370
-3
390
F
  0
LAYER
  5
203
100
AcDbSymbolTableRecord
100
AcDbLayerTableRecord
  2
CURVA_TASSELLO
 70
0
 62
7
  6
CONTINUOUS
370
-3
390
F
  0
LAYER
  5
204
100
AcDbSymbolTableRecord
100
AcDbLayerTableRecord
  2
CURVE
 70
0
 62
7
  6
CONTINUOUS
370
-3
390
F
  0
LAYER
  5
205
100
AcDbSymbolTableRecord
100
AcDbLayerTableRecord
  2
DRAFT
 70
0
 62
7
  6
CONTINUOUS
370
-3
390
F
  0
LAYER
  5
206
100
AcDbSymbolTableRecord
100
AcDbLayerTableRecord
  2
IMPORT_IGES
 70
0
 62
7
  6
CONTINUOUS
370
-3
390
F
  0
LAYER
  5
207
100
AcDbSymbolTableRecord
100
AcDbLayerTableRecord
  2
INTFCLR_2
 70
0
 62
7
  6
CONTINUOUS
370
-3
390
F
  0
LAYER
  5
208
100
AcDbSymbolTableRecord
100
AcDbLayerTableRecord
  2
INTF_1
 70
0
 62
7
  6
CONTINUOUS
370
-3
390
F
  0
LAYER
  5
209
100
AcDbSymbolTableRecord
100
AcDbLayerTableRecord
  2
INTF_21
 70
0
 62
7
  6
CONTINUOUS
370
-3
390
F
  0
LAYER
  5
20A
100
AcDbSymbolTableRecord
100
AcDbLayerTableRecord
  2
INTF_6
 70
0
 62
7
  6
CONTINUOUS
370
-3
390
F
  0
LAYER
  5
20B
100
AcDbSymbolTableRecord
100
AcDbLayerTableRecord
  2
INTF_7
 70
0
 62
7
  6
CONTINUOUS
370
-3
390
F
  0
LAYER
  5
20C
100
AcDbSymbolTableRecord
100
AcDbLayerTableRecord
  2
INTF_9
 70
0
 62
7
  6
CONTINUOUS
370
-3
390
F
  0
LAYER
  5
20D
100
AcDbSymbolTableRecord
100
AcDbLayerTableRecord
  2
LIVELLO_1
 70
0
 62
7
  6
CONTINUOUS
370
-3
390
F
  0
LAYER
  5
20E
100
AcDbSymbolTableRecord
100
AcDbLayerTableRecord
  2
NOTE
 70
0
 62
7
  6
CONTINUOUS
370
-3
390
F
  0
LAYER
  5
20F
100
AcDbSymbolTableRecord
100
AcDbLayerTableRecord
  2
PIANI
 70
0
 62
7
  6
CONTINUOUS
370
-3
390
F
  0
LAYER
  5
210
100
AcDbSymbolTableRecord
100
AcDbLayerTableRecord
  2
PIANI_ORIGINE
 70
0
 62
7
  6
CONTINUOUS
370
-3
390
F
  0
LAYER
  5
211
100
AcDbSymbolTableRecord
100
AcDbLayerTableRecord
  2
PIANI_RIFERIMENTO
 70
0
 62
7
  6
CONTINUOUS
370
-3
390
F
  0
LAYER
  5
212
100
AcDbSymbolTableRecord
100
AcDbLayerTableRecord
  2
PUNTI
 70
0
 62
7
  6
CONTINUOUS
370
-3
390
F
  0
LAYER
  5
213
100
AcDbSymbolTableRecord
100
AcDbLayerTableRecord
  2
RACCORDO
 70
0
 62
7
  6
CONTINUOUS
370
-3
390
F
  0
LAYER
  5
214
100
AcDbSymbolTableRecord
100
AcDbLayerTableRecord
  2
RGB__255__255__255__
 70
0
 62
7
  6
CONTINUOUS
370
-3
390
F
  0
LAYER
  5
215
100
AcDbSymbolTableRecord
100
AcDbLayerTableRecord
  2
RGB____0____0____0__
 70
0
 62
7
  6
CONTINUOUS
370
-3
390
F
  0
LAYER
  5
216
100
AcDbSymbolTableRecord
100
AcDbLayerTableRecord
  2
SIMBOLI
 70
0
 62
7
  6
CONTINUOUS
370
-3
390
F
  0
LAYER
  5
217
100
AcDbSymbolTableRecord
100
AcDbLayerTableRecord
  2
SMUSSO
 70
0
 62
7
  6
CONTINUOUS
370
-3
390
F
  0
LAYER
  5
218
100
AcDbSymbolTableRecord
100
AcDbLayerTableRecord
  2
SUPERFICI
 70
0
 62
7
  6
CONTINUOUS
370
-3
390
F
  0
LAYER
  5
219
100
AcDbSymbolTableRecord
100
AcDbLayerTableRecord
  2
TRASH
 70
0
 62
7
  6
CONTINUOUS
370
-3
390
F
  0
LAYER
  5
21A
100
AcDbSymbolTableRecord
100
AcDbLayerTableRecord
  2
WHITE
 70
0
 62
7
  6
CONTINUOUS
370
-3
390
F
  0
LAYER
  5
21B
100
AcDbSymbolTableRecord
100
AcDbLayerTableRecord
  2
XSEC_DATUMS
 70
0
 62
7
  6
CONTINUOUS
370
-3
390
F
  0
ENDTAB
  0
TABLE
  2
STYLE
  5
3
100
AcDbSymbolTable
 70
1
  0
STYLE
  5
11
100
AcDbSymbolTableRecord
100
AcDbTextStyleTableRecord
  2
STANDARD
 70
0
 40
0.0
 41
0.8
 50
0.0
 71
0
 42
0.2
  3
txt
  4

  0
STYLE
  5
21C
100
AcDbSymbolTableRecord
100
AcDbTextStyleTableRecord
  2
TEXTSTYLE_1
 70
0
 40
0.0
 41
0.8
 50
0.0
 71
0
 42
0.2
  3
gdt
  4

  0
ENDTAB
  0
TABLE
  2
VIEW
  5
6
100
AcDbSymbolTable
 70
0
  0
ENDTAB
  0
TABLE
  2
UCS
  5
7
100
AcDbSymbolTable
 70
0
  0
ENDTAB
  0
TABLE
  2
APPID
  5
9
100
AcDbSymbolTable
 70
1
  0
APPID
  5
21D
100
AcDbSymbolTableRecord
100
AcDbRegAppTableRecord
  2
ACAD
 70
0
  0
ENDTAB
  0
TABLE
  2
BLOCK_RECORD
  5
1
100
AcDbSymbolTable
 70
0
  0
BLOCK_RECORD
  5
21E
100
AcDbSymbolTableRecord
100
AcDbBlockTableRecord
  2
*Model_Space
  0
BLOCK_RECORD
  5
21F
100
AcDbSymbolTableRecord
100
AcDbBlockTableRecord
  2
*Paper_Space
  0
BLOCK_RECORD
  5
220
100
AcDbSymbolTableRecord
100
AcDbBlockTableRecord
  2
_FILLED
  0
ENDTAB
  0
TABLE
  2
DIMSTYLE
  5
A
100
AcDbSymbolTable
 70
1
100
AcDbDimStyleTable
 71
0
  0
DIMSTYLE
105
221
100
AcDbSymbolTableRecord
100
AcDbDimStyleTableRecord
  2
STANDARD
 70
0
  3

  4

 40
1.0
 41
3.0
 42
0.5
 43
0.38
 44
1.5
 45
0.0
 46
0.0
 47
0.01
 48
0.01
140
3.0
141
0.09
142
0.0
143
25.4
144
1.0
145
0.0
146
1.0
147
0.625
 71
1
 72
0
 73
0
 74
0
 75
0
 76
0
 77
1
 78
8
 79
2
170
0
171
1
172
0
173
0
174
0
175
0
176
0
177
0
178
0
270
2
179
2
271
2
272
2
273
2
274
2
275
0
280
0
281
0
282
0
283
1
284
8
285
0
286
0
287
3
288
0
340
11
278
44
341
220
342
220
343
220
344
220
  0
ENDTAB
  0
ENDSEC
  0
SECTION
  2
BLOCKS
  0
BLOCK
  5
20
100
AcDbEntity
  8
0
100
AcDbBlockBegin
  2
*Model_Space
 70
0
 10
0.0
 20
0.0
 30
0.0
  3
*Model_Space
  1

  0
ENDBLK
  5
21
100
AcDbEntity
  8
0
100
AcDbBlockEnd
  0
BLOCK
  5
1C
100
AcDbEntity
  8
0
100
AcDbBlockBegin
  2
*Paper_Space
 70
0
 10
0.0
 20
0.0
 30
0.0
  3
*Paper_Space
  1

  0
ENDBLK
  5
1D
100
AcDbEntity
  8
0
100
AcDbBlockEnd
  0
BLOCK
  5
222
100
AcDbEntity
  8
0
100
AcDbBlockBegin
  2
_FILLED
 70
64
 10
0.0
 20
0.0
  3
_FILLED
  1

  0
SOLID
  5
223
100
AcDbEntity
  8
0
  6
BYBLOCK
 62
0
100
AcDbTrace
 10
0.0
 20
0.0
 11
-1.0
 21
0.3166666667
 12
-1.0
 22
-0.3166666667
 13
-1.0
 23
-0.3166666667
  0
ENDBLK
  5
224
100
AcDbEntity
  8
0
  6
BYBLOCK
 62
0
100
AcDbBlockEnd
  0
ENDSEC
  0
SECTION
  2
ENTITIES
  0
LINE
  5
225
100
AcDbEntity
  8
ASSI
100
AcDbLine
 62
7
  6
CONTINUOUS
 10
-45.0274205459
 20
59.3397676688
 11
-41.2396067588
 21
61.8433345602
  0
LINE
  5
226
100
AcDbEntity
  8
ASSI
100
AcDbLine
 62
7
  6
CONTINUOUS
 10
-44.3198832767
 20
59.7482118627
 11
-40.5320694895
 21
62.251778754
  0
LINE
  5
227
100
AcDbEntity
  8
ASSI
100
AcDbLine
 62
7
  6
CONTINUOUS
 10
-44.3406468908
 20
59.7353725117
 11
-44.3198832767
 21
59.7482118627
  0
LINE
  5
228
100
AcDbEntity
  8
ASSI
100
AcDbLine
 62
7
  6
CONTINUOUS
 10
-41.2396067588
 20
61.8433345602
 11
-40.5320694895
 21
62.251778754
  0
LINE
  5
229
100
AcDbEntity
  8
ASSI
100
AcDbLine
 62
7
  6
CONTINUOUS
 10
-44.3406468908
 20
59.7353725117
 11
-45.0270452385
 21
59.3391313073
  0
LINE
  5
22A
100
AcDbEntity
  8
ASSI
100
AcDbLine
 62
7
  6
CONTINUOUS
 10
-44.7233361907
 20
58.3201440733
 11
-45.0023121248
 21
58.1590979978
  0
LINE
  5
22B
100
AcDbEntity
  8
CURVE
100
AcDbLine
 62
250
  6
CONTINUOUS
 10
43.3365457403
 20
-55.3886198257
 11
42.078144919
 21
-55.6652426256
  0
LINE
  5
22C
100
AcDbEntity
  8
CURVE
100
AcDbLine
 62
250
  6
CONTINUOUS
 10
42.078144919
 20
-55.2395056304
 11
43.9063360957
 21
-54.9112124379
  0
LINE
  5
22D
100
AcDbEntity
  8
ASSI
100
AcDbLine
 62
7
  6
CONTINUOUS
 10
-44.7233361907
 20
58.3201440733
 11
-44.3406468908
 21
59.7353725117
  0
LINE
  5
22E
100
AcDbEntity
  8
CURVE
100
AcDbLine
 62
250
  6
CONTINUOUS
 10
42.5804854479
 20
-51.1805410579
 11
43.2589505753
 21
-51.027366478
  0
LINE
  5
22F
100
AcDbEntity
  8
CURVE
100
AcDbLine
 62
250
  6
CONTINUOUS
 10
43.5413642698
 20
-50.9624545389
 11
43.9063360957
 21
-50.8835033272
  0
LINE
  5
230
100
AcDbEntity
  8
CURVE
100
AcDbLine
 62
250
  6
CONTINUOUS
 10
43.9063360957
 20
-51.3049089477
 11
42.078144919
 21
-51.6490735059
  0
LINE
  5
231
100
AcDbEntity
  8
CURVE
100
AcDbLine
 62
250
  6
CONTINUOUS
 10
43.0931621987
 20
-52.8480326443
 11
42.078144919
 21
-52.9685123343
  0
LINE
  5
232
100
AcDbEntity
  8
CURVE
100
AcDbLine
 62
250
  6
CONTINUOUS
 10
42.7175382062
 20
-52.5161805812
 11
43.9063360957
 21
-52.3826521625
  0
LINE
  5
233
100
AcDbEntity
  8
ASSI
100
AcDbLine
 62
7
  6
CONTINUOUS
 10
-45.0023121248
 20
-12.6725356016
 11
-45.0270452385
 21
-12.2163000241
  0
LINE
  5
234
100
AcDbEntity
  8
ASSI
100
AcDbLine
 62
7
  6
CONTINUOUS
 10
39.5270270784
 20
-61.4787166561
 11
40.9439862093
 21
-61.8548961119
  0
LINE
  5
235
100
AcDbEntity
  8
ASSI
100
AcDbLine
 62
7
  6
CONTINUOUS
 10
-45.0023121248
 20
58.1590979978
 11
-45.0270452385
 21
59.3391313073
  0
LINE
  5
236
100
AcDbEntity
  8
ASSI
100
AcDbLine
 62
7
  6
CONTINUOUS
 10
-45.0270452385
 20
-12.2163000241
 11
-45.0274205459
 21
-12.1921071634
  0
LINE
  5
237
100
AcDbEntity
  8
ASSI
100
AcDbLine
 62
7
  6
CONTINUOUS
 10
-45.0274205459
 20
59.3397676688
 11
-45.0274205459
 21
-12.1921071634
  0
LINE
  5
238
100
AcDbEntity
  8
ASSI
100
AcDbLine
 62
7
  6
CONTINUOUS
 10
-45.0023121248
 20
58.1590979978
 11
-45.0023121248
 21
-12.6725356016
  0
LINE
  5
239
100
AcDbEntity
  8
ASSI
100
AcDbLine
 62
7
  6
CONTINUOUS
 10
-45.0023121248
 20
-12.6725356016
 11
-44.7233361907
 21
-13.1557360931
  0
LINE
  5
23A
100
AcDbEntity
  8
ASSI
100
AcDbLine
 62
7
  6
CONTINUOUS
 10
-44.7233361907
 20
-13.1557360931
 11
-44.3406468908
 21
-13.4051768352
  0
LINE
  5
23B
100
AcDbEntity
  8
ASSI
100
AcDbLine
 62
7
  6
CONTINUOUS
 10
-44.3198832767
 20
-13.4175976608
 11
40.2579502919
 21
-62.251778754
  0
LINE
  5
23C
100
AcDbEntity
  8
ASSI
100
AcDbLine
 62
7
  6
CONTINUOUS
 10
-44.7233361907
 20
-13.1557360931
 11
39.2480511443
 21
-61.6397627316
  0
LINE
  5
23D
100
AcDbEntity
  8
ASSI
100
AcDbLine
 62
7
  6
CONTINUOUS
 10
-44.3198832767
 20
-13.4175976608
 11
-44.3406468908
 21
-13.4051768352
  0
LINE
  5
23E
100
AcDbEntity
  8
ASSI
100
AcDbLine
 62
7
  6
CONTINUOUS
 10
39.2480511443
 20
-61.6397627316
 11
40.2575878617
 21
-62.2511373164
  0
LWPOLYLINE
  5
23F
100
AcDbEntity
  8
ASSI
100
AcDbPolyline
 62
7
  6
CONTINUOUS
 90
49
 70
0
 10
-4.9650288839
 20
0.6061146638
 10
-4.9614793592
 20
0.4344379689
 10
-4.9510432344
 20
0.2599283199
 10
-4.9337205095
 20
0.0825857168
 10
-4.9094408485
 20
-0.0980037876
 10
-4.8782745875
 20
-0.281426246
 10
-4.8404327342
 20
-0.4664398167
 10
-4.79586999
 20
-0.6530552964
 10
-4.7446316535
 20
-0.8412618882
 10
-4.6870646283
 20
-1.02978536
 10
-4.6231259698
 20
-1.218627862
 10
-4.5528586225
 20
-1.4077872438
 10
-4.476738324
 20
-1.5959828225
 10
-4.3947253579
 20
-1.7832080579
 10
-4.3068594405
 20
-1.9694694902
 10
-4.2137354585
 20
-2.1535060566
 10
-4.1153177322
 20
-2.3353026597
 10
-4.0116419414
 20
-2.5148743968
 10
-3.9034100116
 20
-2.691005497
 10
-3.7905910263
 20
-2.8636726131
 10
-3.6732159021
 20
-3.0328990923
 10
-3.5520793145
 20
-3.1975392051
 10
-3.4271557393
 20
-3.3575618297
 10
-3.2984707008
 20
-3.5129980879
 10
-3.166895447
 20
-3.6627956153
 10
-3.0324103658
 20
-3.8069161493
 10
-2.8950350693
 20
-3.9453979525
 10
-2.755699642
 20
-4.0773034489
 10
-2.6143907831
 20
-4.2025880137
 10
-2.4711217934
 20
-4.3212962717
 10
-2.3268626601
 20
-4.4326245217
 10
-2.1816066644
 20
-4.5365226849
 10
-2.0353605251
 20
-4.63304084
 10
-1.8891143858
 20
-4.7215255212
 10
-1.7428682465
 20
-4.8019222158
 10
-1.5966221071
 20
-4.8742854367
 10
-1.4513661114
 20
-4.9381252563
 10
-1.3071069782
 20
-4.9933838375
 10
-1.1638379885
 20
-5.0401190176
 10
-1.0225291296
 20
-5.078014381
 10
-0.8831937023
 20
-5.1070099434
 10
-0.7458184058
 20
-5.1271656892
 10
-0.6113333245
 20
-5.1383451561
 10
-0.4797580707
 20
-5.1404874337
 10
-0.3510730322
 20
-5.1336534324
 10
-0.2261494571
 20
-5.117889421
 10
-0.1050128695
 20
-5.0931348032
 10
0.0123622547
 20
-5.0594501753
 10
0.0242252149
 20
-5.05499321
  0
LWPOLYLINE
  5
240
100
AcDbEntity
  8
ASSI
100
AcDbPolyline
 62
7
  6
CONTINUOUS
 90
18
 70
0
 10
-5.4600036308
 20
0.3203224485
 10
-5.4565201923
 20
0.4872924299
 10
-5.4460775808
 20
0.6498637822
 10
-5.4286991709
 20
0.8076680912
 10
-5.4044239886
 20
0.9603480437
 10
-5.3733067765
 20
1.1075572317
 10
-5.3354180194
 20
1.2489610608
 10
-5.2908434368
 20
1.3842390124
 10
-5.2396838462
 20
1.5130846021
 10
-5.1820552945
 20
1.6352052583
 10
-5.1180883348
 20
1.7503242186
 10
-5.0479277973
 20
1.8581807406
 10
-4.971732794
 20
1.9585301867
 10
-4.8896760537
 20
2.0511451293
 10
-4.8019433772
 20
2.135815914
 10
-4.7087334017
 20
2.2123508356
 10
-4.6102572742
 20
2.2805764984
 10
-4.5591942292
 20
2.3114777945
  0
LWPOLYLINE
  5
241
100
AcDbEntity
  8
ASSI
100
AcDbPolyline
 62
7
  6
CONTINUOUS
 90
34
 70
0
 10
-6.167110412
 20
0.3203224485
 10
-6.1631540429
 20
0.5071481965
 10
-6.1515198291
 20
0.6882689106
 10
-6.1322077706
 20
0.8636845907
 10
-6.1051396052
 20
1.0337667665
 10
-6.0703935951
 20
1.1981439084
 10
-6.028204527
 20
1.3557014278
 10
-5.9785217454
 20
1.5063927979
 10
-5.9213959057
 20
1.6502645455
 10
-5.857213761
 20
1.7863416624
 10
-5.7859273743
 20
1.914571056
 10
-5.7075846827
 20
2.0350058189
 10
-5.6227162497
 20
2.1468302204
 10
-5.5312778879
 20
2.2499856811
 10
-5.4333137849
 20
2.3445307804
 10
-5.3294870671
 20
2.4298255259
 10
-5.2197579763
 20
2.5058071985
 10
-5.1041662708
 20
2.5725385171
 10
-4.9834943518
 20
2.6295676459
 10
-4.8577076718
 20
2.6768287943
 10
-4.7268407784
 20
2.7143877528
 10
-4.5917797159
 20
2.7419900572
 10
-4.4524959956
 20
2.759568118
 10
-4.3090181062
 20
2.7671895247
 10
-4.1623175573
 20
2.7648025819
 10
-4.0123724992
 20
2.752339355
 10
-3.8592047817
 20
2.7298677787
 10
-3.703851463
 20
2.6975399612
 10
-3.546297716
 20
2.655289015
 10
-3.3865583678
 20
2.6031818276
 10
-3.2257149578
 20
2.5415711703
 10
-3.0637599775
 20
2.4703925397
 10
-2.9007009353
 20
2.3897104392
 10
-2.7379739569
 20
2.3002628602
  0
LWPOLYLINE
  5
242
100
AcDbEntity
  8
ASSI
100
AcDbPolyline
 62
7
  6
CONTINUOUS
 90
13
 70
0
 10
-4.476738324
 20
2.244346451
 10
-4.5528586225
 20
2.144052685
 10
-4.6231259698
 20
2.0360362744
 10
-4.6870646283
 20
1.9210285326
 10
-4.7446316535
 20
1.7989820186
 10
-4.79586999
 20
1.6699441734
 10
-4.8404327342
 20
1.5347886337
 10
-4.8782745875
 20
1.3934738867
 10
-4.9094408485
 20
1.2460414453
 10
-4.9337205095
 20
1.0934894847
 10
-4.9510432344
 20
0.9361507302
 10
-4.9614793592
 20
0.7736924566
 10
-4.9650288839
 20
0.6061146638
  0
LWPOLYLINE
  5
243
100
AcDbEntity
  8
ASSI
100
AcDbPolyline
 62
7
  6
CONTINUOUS
 90
4
 70
0
 10
-4.2972894659
 20
2.4295227683
 10
-4.3068594405
 20
2.4216612422
 10
-4.3947253579
 20
2.3368651689
 10
-4.476738324
 20
2.244346451
  0
LINE
  5
244
100
AcDbEntity
  8
ASSI
100
AcDbLine
 62
7
  6
CONTINUOUS
 10
-45.0274205459
 20
59.3397676688
 11
-45.0270452385
 21
59.3391313073
  0
LWPOLYLINE
  5
245
100
AcDbEntity
  8
ASSI
100
AcDbPolyline
 62
7
  6
CONTINUOUS
 90
16
 70
0
 10
-4.5591942292
 20
2.3114777945
 10
-4.5067380617
 20
2.3403383369
 10
-4.3984101097
 20
2.3915010186
 10
-4.2855187179
 20
2.4339486146
 10
-4.1683196665
 20
2.4675848784
 10
-4.047078494
 20
2.4923335479
 10
-3.9220698241
 20
2.5081385204
 10
-3.7935768484
 20
2.5149639484
 10
-3.6618907588
 20
2.5127943361
 10
-3.5273099028
 20
2.5016345869
 10
-3.3901391235
 20
2.4815099675
 10
-3.2506891898
 20
2.4524660591
 10
-3.109276015
 20
2.4145686497
 10
-2.9662199483
 20
2.3679035809
 10
-2.8218450767
 20
2.3125765618
 10
-2.6764784542
 20
2.2487129167
  0
LINE
  5
246
100
AcDbEntity
  8
ASSI
100
AcDbLine
 62
7
  6
CONTINUOUS
 10
39.5270270784
 20
9.3529169433
 11
40.9439862093
 21
9.7005352194
  0
LWPOLYLINE
  5
247
100
AcDbEntity
  8
ASSI
100
AcDbPolyline
 62
7
  6
CONTINUOUS
 90
34
 70
0
 10
-2.7379739569
 20
2.3002628602
 10
-2.5745828615
 20
2.2014138826
 10
-2.4115238299
 20
2.0937994265
 10
-2.2495688601
 20
1.9779564436
 10
-2.0887254586
 20
1.8538290998
 10
-1.9289861188
 20
1.7214732291
 10
-1.771432381
 20
1.5817849945
 10
-1.6160790714
 20
1.4347146293
 10
-1.4629113637
 20
1.2803119003
 10
-1.3129663185
 20
1.1196222701
 10
-1.1662657837
 20
0.9526030321
 10
-1.0227879113
 20
0.779296893
 10
-0.8835042191
 20
0.6008774362
 10
-0.748443203
 20
0.4173099809
 10
-0.6175763671
 20
0.2286292079
 10
-0.4917897404
 20
0.0361127428
 10
-0.3711178681
 20
-0.1602653092
 10
-0.255526205
 20
-0.3604790532
 10
-0.1457971454
 20
-0.5631731793
 10
-0.0419704376
 20
-0.7683645153
 10
0.0559936668
 20
-0.9760362333
 10
0.1474320195
 20
-1.1847825398
 10
0.2323004288
 20
-1.394610992
 10
0.3106430865
 20
-1.6055140328
 10
0.3819294193
 20
-1.8160631971
 10
0.4461114811
 20
-2.0262562027
 10
0.503237218
 20
-2.236095332
 10
0.552919896
 20
-2.4441589667
 10
0.5951088589
 20
-2.6504351245
 10
0.6298547629
 20
-2.8549357877
 10
0.6569228422
 20
-3.0562752847
 10
0.6762348414
 20
-3.253991725
 10
0.6878690158
 20
-3.448546999
 10
0.6918253656
 20
-3.6399411068
  0
LWPOLYLINE
  5
248
100
AcDbEntity
  8
ASSI
100
AcDbPolyline
 62
7
  6
CONTINUOUS
 90
67
 70
0
 10
0.6918253656
 20
-3.6399411068
 10
0.6878689965
 20
-3.8267668548
 10
0.6762347827
 20
-4.0078875689
 10
0.6569227242
 20
-4.183303249
 10
0.6298545588
 20
-4.3533854248
 10
0.5951085487
 20
-4.5177625667
 10
0.5529194806
 20
-4.6753200861
 10
0.503236699
 20
-4.8260114562
 10
0.4461108593
 20
-4.9698832038
 10
0.3819287146
 20
-5.1059603207
 10
0.3106423279
 20
-5.2341897143
 10
0.2322996362
 20
-5.3546244772
 10
0.1474312033
 20
-5.4664488787
 10
0.0559928415
 20
-5.5696043394
 10
-0.0419712615
 20
-5.6641494388
 10
-0.1457979793
 20
-5.7494441842
 10
-0.2555270701
 20
-5.8254258568
 10
-0.3711187756
 20
-5.8921571754
 10
-0.4917906946
 20
-5.9491863042
 10
-0.6175773746
 20
-5.9964474526
 10
-0.748444268
 20
-6.0340064111
 10
-0.8835053306
 20
-6.0616087155
 10
-1.0227890508
 20
-6.0791867763
 10
-1.1662669402
 20
-6.086808183
 10
-1.3129674891
 20
-6.0844212402
 10
-1.4629125472
 20
-6.0719580133
 10
-1.6160802647
 20
-6.049486437
 10
-1.7714335834
 20
-6.0171586195
 10
-1.9289873304
 20
-5.9749076733
 10
-2.0887266786
 20
-5.9228004859
 10
-2.2495700886
 20
-5.8611898286
 10
-2.411525069
 20
-5.790011198
 10
-2.5745841112
 20
-5.7093290975
 10
-2.7376431505
 20
-5.6196898094
 10
-2.9007021849
 20
-5.5210325409
 10
-3.0637612165
 20
-5.4134180848
 10
-3.2257161863
 20
-5.2975751019
 10
-3.3865595878
 20
-5.1734477581
 10
-3.5462989276
 20
-5.0410918874
 10
-3.7038526654
 20
-4.9014036528
 10
-3.859205975
 20
-4.7543332876
 10
-4.0123736827
 20
-4.5999305586
 10
-4.1623187279
 20
-4.4392409284
 10
-4.3090192627
 20
-4.2722216904
 10
-4.4524971351
 20
-4.0989155513
 10
-4.5917808273
 20
-3.9204960945
 10
-4.7268418434
 20
-3.7369286392
 10
-4.8577086794
 20
-3.5482478662
 10
-4.983495306
 20
-3.3557314011
 10
-5.1041671783
 20
-3.1593533491
 10
-5.2197588414
 20
-2.9591396051
 10
-5.3294879011
 20
-2.756445479
 10
-5.4333146088
 20
-2.551254143
 10
-5.5312787132
 20
-2.343582425
 10
-5.6227170659
 20
-2.1348361185
 10
-5.7075854752
 20
-1.9250076663
 10
-5.7859281329
 20
-1.7141046255
 10
-5.8572144658
 20
-1.5035554612
 10
-5.9213965275
 20
-1.2933624556
 10
-5.9785222644
 20
-1.0835233263
 10
-6.0282049424
 20
-0.8754596916
 10
-6.0703939053
 20
-0.6691835338
 10
-6.1051398093
 20
-0.4646828706
 10
-6.1322078886
 20
-0.2633433736
 10
-6.1515198878
 20
-0.0656269334
 10
-6.1631540623
 20
0.1289283407
 10
-6.167110412
 20
0.3203224485
  0
LINE
  5
249
100
AcDbEntity
  8
ASSI
100
AcDbLine
 62
7
  6
CONTINUOUS
 10
0.6865513598
 20
-3.4265121796
 11
0.6778993156
 21
-3.5612078472
  0
LWPOLYLINE
  5
24A
100
AcDbEntity
  8
ASSI
100
AcDbPolyline
 62
7
  6
CONTINUOUS
 90
16
 70
0
 10
0.6778993156
 20
-3.5612078472
 10
0.6605209056
 20
-3.7190121562
 10
0.6362457234
 20
-3.8716921086
 10
0.6051285113
 20
-4.0189012967
 10
0.5672397542
 20
-4.1603051258
 10
0.5226651715
 20
-4.2955830774
 10
0.471505581
 20
-4.4244286671
 10
0.4138770293
 20
-4.5465493233
 10
0.3499100696
 20
-4.6616682836
 10
0.2797495321
 20
-4.7695248056
 10
0.2035545288
 20
-4.8698742517
 10
0.1214977884
 20
-4.9624891943
 10
0.033765112
 20
-5.0471599789
 10
-0.0594448635
 20
-5.1236949006
 10
-0.1579209911
 20
-5.1919205634
 10
-0.208984036
 20
-5.2228218594
  0
LWPOLYLINE
  5
24B
100
AcDbEntity
  8
ASSI
100
AcDbPolyline
 62
7
  6
CONTINUOUS
 90
51
 70
0
 10
-0.208984036
 20
-5.2228218594
 10
-0.2614402035
 20
-5.2516824019
 10
-0.3697681555
 20
-5.3028450836
 10
-0.4826595473
 20
-5.3452926796
 10
-0.5998585988
 20
-5.3789289433
 10
-0.7210997712
 20
-5.4036776129
 10
-0.8461084411
 20
-5.4194825853
 10
-0.9746014168
 20
-5.4263080133
 10
-1.1062875064
 20
-5.424138401
 10
-1.2408683625
 20
-5.4129786519
 10
-1.3780391417
 20
-5.3928540325
 10
-1.5174890754
 20
-5.3638101241
 10
-1.6589022502
 20
-5.3259127146
 10
-1.8019583169
 20
-5.2792476458
 10
-1.9463331885
 20
-5.2239206268
 10
-2.091699811
 20
-5.1600569817
 10
-2.2377288592
 20
-5.0878013839
 10
-2.3840894733
 20
-5.0073175398
 10
-2.5304500873
 20
-4.918787778
 10
-2.6764791349
 20
-4.8224126541
 10
-2.8218457567
 20
-4.7184105298
 10
-2.9662206273
 20
-4.6070170283
 10
-3.1092766928
 20
-4.4884844991
 10
-3.250689867
 20
-4.3630814795
 10
-3.3901398018
 20
-4.2310920578
 10
-3.5273105825
 20
-4.0928152557
 10
-3.6618914367
 20
-3.9485643635
 10
-3.7935775204
 20
-3.7986661412
 10
-3.922070487
 20
-3.643460209
 10
-4.0470791443
 20
-3.4832983246
 10
-4.1683202985
 20
-3.3185433615
 10
-4.2855193287
 20
-3.1495685482
 10
-4.3984107023
 20
-2.9767567749
 10
-4.506738639
 20
-2.8004996558
 10
-4.610257838
 20
-2.621196386
 10
-4.7087339584
 20
-2.4392529045
 10
-4.8019439363
 20
-2.2550813592
 10
-4.8896766176
 20
-2.0690989826
 10
-4.9717333551
 20
-1.881726881
 10
-5.0479283494
 20
-1.6933892641
 10
-5.1180888702
 20
-1.5045130266
 10
-5.1820557956
 20
-1.3155265768
 10
-5.239684297
 20
-1.1268579094
 10
-5.290843827
 20
-0.9389345402
 10
-5.3354183392
 20
-0.7521830629
 10
-5.3733070201
 20
-0.5670263887
 10
-5.4044241577
 20
-0.3838840136
 10
-5.4286992733
 20
-0.203171918
 10
-5.4460776297
 20
-0.0252997199
 10
-5.4565202053
 20
0.1493302029
 10
-5.4600036308
 20
0.3203224485
  0
LINE
  5
24C
100
AcDbEntity
  8
ASSI
100
AcDbLine
 62
7
  6
CONTINUOUS
 10
-2.6764784542
 20
2.2487129167
 11
-2.5556980052
 21
2.1889503992
  0
LINE
  5
24D
100
AcDbEntity
  8
ASSI
100
AcDbLine
 62
7
  6
CONTINUOUS
 10
40.2575878617
 20
-62.2511373164
 11
40.2579502919
 21
-62.251778754
  0
LINE
  5
24E
100
AcDbEntity
  8
ASSI
100
AcDbLine
 62
7
  6
CONTINUOUS
 10
40.2579502919
 20
10.9140307694
 11
44.3198832767
 21
13.2593246716
  0
LINE
  5
24F
100
AcDbEntity
  8
ASSI
100
AcDbLine
 62
7
  6
CONTINUOUS
 10
40.9654875612
 20
9.688540272
 11
45.0274205459
 21
12.0338341742
  0
LINE
  5
250
100
AcDbEntity
  8
ASSI
100
AcDbLine
 62
7
  6
CONTINUOUS
 10
39.2480511443
 20
9.8361174348
 11
40.2575878617
 21
10.8894120305
  0
LINE
  5
251
100
AcDbEntity
  8
ASSI
100
AcDbLine
 62
7
  6
CONTINUOUS
 10
40.9439862093
 20
9.7005352194
 11
40.9654875612
 21
9.688540272
  0
LINE
  5
252
100
AcDbEntity
  8
ASSI
100
AcDbLine
 62
7
  6
CONTINUOUS
 10
39.2480511443
 20
9.8361174348
 11
-44.7233361907
 21
58.3201440733
  0
LINE
  5
253
100
AcDbEntity
  8
ASSI
100
AcDbLine
 62
7
  6
CONTINUOUS
 10
40.2579502919
 20
10.9140307694
 11
-44.3198832767
 21
59.7482118627
  0
LINE
  5
254
100
AcDbEntity
  8
ASSI
100
AcDbLine
 62
7
  6
CONTINUOUS
 10
44.3198832767
 20
13.2593246716
 11
-40.5320694895
 21
62.251778754
  0
LWPOLYLINE
  5
255
100
AcDbEntity
  8
CURVE
100
AcDbPolyline
 62
250
  6
CONTINUOUS
 90
73
 70
0
 10
43.0421498158
 20
-48.8712822477
 10
43.0410068376
 20
-48.8649461897
 10
43.0392548167
 20
-48.8591423906
 10
43.0369613585
 20
-48.8538173705
 10
43.0341940681
 20
-48.8489176492
 10
43.0310205509
 20
-48.8443897466
 10
43.0275084121
 20
-48.8401801828
 10
43.0237252569
 20
-48.8362354775
 10
43.0197386905
 20
-48.8325021507
 10
43.0156163183
 20
-48.8289267224
 10
43.0114257454
 20
-48.8254557124
 10
43.0008325836
 20
-48.8169706686
 10
42.9901815995
 20
-48.8088561368
 10
42.9794187468
 20
-48.8011595856
 10
42.9684899791
 20
-48.7939284836
 10
42.9573412501
 20
-48.7872102992
 10
42.9459185132
 20
-48.7810525011
 10
42.9341677223
 20
-48.7755025578
 10
42.9220348307
 20
-48.7706079379
 10
42.9084569435
 20
-48.7661006215
 10
42.8944075761
 20
-48.7624020945
 10
42.8799240013
 20
-48.7595013596
 10
42.865043492
 20
-48.7573874194
 10
42.8498033209
 20
-48.7560492767
 10
42.8342407609
 20
-48.755475934
 10
42.8183930849
 20
-48.755656394
 10
42.8022975656
 20
-48.7565796593
 10
42.7859914759
 20
-48.7582347326
 10
42.7695120886
 20
-48.7606106165
 10
42.7529071278
 20
-48.7636928199
 10
42.7361759688
 20
-48.7674702401
 10
42.7193281929
 20
-48.7719295617
 10
42.7023733812
 20
-48.7770574691
 10
42.6853211148
 20
-48.7828406468
 10
42.668180975
 20
-48.7892657795
 10
42.6484928735
 20
-48.7973791631
 10
42.6287274512
 20
-48.8062874235
 10
42.6089097072
 20
-48.815963871
 10
42.5890646406
 20
-48.8263818161
 10
42.5692172505
 20
-48.837514569
 10
42.5493925359
 20
-48.8493354403
 10
42.5301080131
 20
-48.8615046303
 10
42.5108922381
 20
-48.8743141526
 10
42.4917686325
 20
-48.8877754926
 10
42.472760618
 20
-48.9019001356
 10
42.4538916162
 20
-48.9166995668
 10
42.43706869
 20
-48.9305857971
 10
42.42039746
 20
-48.9450202079
 10
42.4038983707
 20
-48.9599964486
 10
42.3875918662
 20
-48.9755081687
 10
42.3714983908
 20
-48.9915490177
 10
42.3542452685
 20
-49.0096011556
 10
42.3372975342
 20
-49.0282388324
 10
42.3206838899
 20
-49.0474280497
 10
42.3044330378
 20
-49.0671348093
 10
42.2885736798
 20
-49.0873251127
 10
42.2731345181
 20
-49.1079649619
 10
42.2581442548
 20
-49.1290203583
 10
42.2436315919
 20
-49.1504573037
 10
42.2303868993
 20
-49.1710243361
 10
42.2176042392
 20
-49.1918769306
 10
42.2052940074
 20
-49.2129906241
 10
42.1934665996
 20
-49.2343409532
 10
42.1821324116
 20
-49.2559034546
 10
42.1713018391
 20
-49.277653665
 10
42.1609852779
 20
-49.2995671211
 10
42.1538012197
 20
-49.3156269365
 10
42.1469351501
 20
-49.3317399698
 10
42.1404264392
 20
-49.3478857035
 10
42.1343144573
 20
-49.3640436201
 10
42.1286385745
 20
-49.3801932021
 10
42.1234381611
 20
-49.3963139321
 10
42.1187525873
 20
-49.4123852926
  0
LWPOLYLINE
  5
256
100
AcDbEntity
  8
CURVE
100
AcDbPolyline
 62
250
  6
CONTINUOUS
 90
22
 70
0
 10
42.3895956672
 20
-49.9077424493
 10
42.3873679986
 20
-49.8940662213
 10
42.3852412186
 20
-49.8803175835
 10
42.3832323697
 20
-49.8664847757
 10
42.3813584942
 20
-49.8525560381
 10
42.3796366347
 20
-49.8385196107
 10
42.3780838338
 20
-49.8243637334
 10
42.3766136454
 20
-49.8089407983
 10
42.3753603205
 20
-49.7933700346
 10
42.3743239298
 20
-49.7776564629
 10
42.3735045437
 20
-49.7618051037
 10
42.3729022329
 20
-49.7458209777
 10
42.3725170678
 20
-49.7297091052
 10
42.372349119
 20
-49.713474507
 10
42.3723984571
 20
-49.6971222035
 10
42.3726651525
 20
-49.6806572152
 10
42.3731492759
 20
-49.6640845628
 10
42.3738508978
 20
-49.6474092667
 10
42.3747700888
 20
-49.6306363475
 10
42.3759069193
 20
-49.6137708257
 10
42.3772614599
 20
-49.596817722
 10
42.3788337813
 20
-49.5797820567
  0
LINE
  5
257
100
AcDbEntity
  8
ASSI
100
AcDbLine
 62
7
  6
CONTINUOUS
 10
39.5270270784
 20
-61.4787166561
 11
39.5270270784
 21
9.3529169433
  0
LINE
  5
258
100
AcDbEntity
  8
ASSI
100
AcDbLine
 62
7
  6
CONTINUOUS
 10
40.9654875612
 20
-61.8433345602
 11
40.9654875612
 21
9.688540272
  0
LINE
  5
259
100
AcDbEntity
  8
ASSI
100
AcDbLine
 62
7
  6
CONTINUOUS
 10
40.2579502919
 20
10.9140307694
 11
40.2575878617
 21
10.8894120305
  0
LINE
  5
25A
100
AcDbEntity
  8
ASSI
100
AcDbLine
 62
7
  6
CONTINUOUS
 10
39.5270270784
 20
9.3529169433
 11
39.2480511443
 21
9.8361174348
  0
LINE
  5
25B
100
AcDbEntity
  8
ASSI
100
AcDbLine
 62
7
  6
CONTINUOUS
 10
40.9439862093
 20
9.7005352194
 11
40.2575878617
 21
10.8894120305
  0
LINE
  5
25C
100
AcDbEntity
  8
CURVE
100
AcDbLine
 62
250
  6
CONTINUOUS
 10
42.0780359473
 20
-54.6554353402
 11
42.0780359473
 21
-55.0814638153
  0
LINE
  5
25D
100
AcDbEntity
  8
CURVE
100
AcDbLine
 62
250
  6
CONTINUOUS
 10
42.078144919
 20
-56.9180133901
 11
42.078144919
 21
-56.4552151761
  0
LINE
  5
25E
100
AcDbEntity
  8
CURVE
100
AcDbLine
 62
250
  6
CONTINUOUS
 10
42.078144919
 20
-55.6652426256
 11
42.078144919
 21
-55.2395056304
  0
LINE
  5
25F
100
AcDbEntity
  8
CURVE
100
AcDbLine
 62
250
  6
CONTINUOUS
 10
42.078144919
 20
-54.2417454769
 11
42.078144919
 21
-53.8160697169
  0
LINE
  5
260
100
AcDbEntity
  8
CURVE
100
AcDbLine
 62
250
  6
CONTINUOUS
 10
42.078144919
 20
-52.9685123343
 11
42.078144919
 21
-52.5469989398
  0
LINE
  5
261
100
AcDbEntity
  8
CURVE
100
AcDbLine
 62
250
  6
CONTINUOUS
 10
42.078144919
 20
-51.6490735059
 11
42.078144919
 21
-51.2369421713
  0
LINE
  5
262
100
AcDbEntity
  8
CURVE
100
AcDbLine
 62
250
  6
CONTINUOUS
 10
42.8914697039
 20
-49.3940511727
 11
42.8914697039
 21
-49.6375221639
  0
LINE
  5
263
100
AcDbEntity
  8
CURVE
100
AcDbLine
 62
250
  6
CONTINUOUS
 10
43.1908831917
 20
-49.4621847383
 11
43.1908831917
 21
-49.2337585035
  0
LINE
  5
264
100
AcDbEntity
  8
CURVE
100
AcDbLine
 62
250
  6
CONTINUOUS
 10
43.2589505753
 20
-51.027366478
 11
43.2589505753
 21
-50.6194742571
  0
LINE
  5
265
100
AcDbEntity
  8
CURVE
100
AcDbLine
 62
250
  6
CONTINUOUS
 10
43.5413642698
 20
-50.3822748425
 11
43.5413642698
 21
-50.9624545389
  0
LINE
  5
266
100
AcDbEntity
  8
CURVE
100
AcDbLine
 62
250
  6
CONTINUOUS
 10
43.9063360957
 20
-54.0970658355
 11
43.9063360957
 21
-53.6710373604
  0
LINE
  5
267
100
AcDbEntity
  8
CURVE
100
AcDbLine
 62
250
  6
CONTINUOUS
 10
43.9063361077
 20
-49.5012829402
 11
43.9063361077
 21
-49.0769687737
  0
LINE
  5
268
100
AcDbEntity
  8
CURVE
100
AcDbLine
 62
250
  6
CONTINUOUS
 10
43.9063361077
 20
-48.4245650811
 11
43.9063361077
 21
-48.0147753031
  0
LINE
  5
269
100
AcDbEntity
  8
CURVE
100
AcDbLine
 62
250
  6
CONTINUOUS
 10
43.9063360957
 20
-49.626385675
 11
43.9063360957
 21
-50.0754018708
  0
LINE
  5
26A
100
AcDbEntity
  8
CURVE
100
AcDbLine
 62
250
  6
CONTINUOUS
 10
43.9063360957
 20
-50.8835033272
 11
43.9063360957
 21
-51.3049089477
  0
LINE
  5
26B
100
AcDbEntity
  8
CURVE
100
AcDbLine
 62
250
  6
CONTINUOUS
 10
43.9063360957
 20
-51.3718072563
 11
43.9063360957
 21
-51.788576142
  0
LINE
  5
26C
100
AcDbEntity
  8
CURVE
100
AcDbLine
 62
250
  6
CONTINUOUS
 10
43.9063360957
 20
-52.3826521625
 11
43.9063360957
 21
-52.4424030902
  0
LINE
  5
26D
100
AcDbEntity
  8
CURVE
100
AcDbLine
 62
250
  6
CONTINUOUS
 10
43.9063360957
 20
-53.0341227775
 11
43.9063360957
 21
-53.4416933091
  0
LINE
  5
26E
100
AcDbEntity
  8
CURVE
100
AcDbLine
 62
250
  6
CONTINUOUS
 10
43.9063360957
 20
-54.9112124379
 11
43.9063360957
 21
-55.2866499653
  0
LINE
  5
26F
100
AcDbEntity
  8
ASSI
100
AcDbLine
 62
7
  6
CONTINUOUS
 10
45.0274205459
 20
-59.8145560459
 11
45.0274205459
 21
12.0338341742
  0
LWPOLYLINE
  5
270
100
AcDbEntity
  8
CURVE
100
AcDbPolyline
 62
250
  6
CONTINUOUS
 90
48
 70
0
 10
43.1908831917
 20
-49.2337585035
 10
43.1909577933
 20
-49.2271587392
 10
43.1911824121
 20
-49.2204665556
 10
43.1915582685
 20
-49.2136880467
 10
43.1920865833
 20
-49.2068293065
 10
43.1927685769
 20
-49.199896429
 10
43.1936054701
 20
-49.1928955082
 10
43.1945984834
 20
-49.1858326381
 10
43.1957488375
 20
-49.1787139126
 10
43.1970577529
 20
-49.1715454259
 10
43.1985264503
 20
-49.1643332718
 10
43.2001561503
 20
-49.1570835444
 10
43.2019480735
 20
-49.1498023376
 10
43.2039034405
 20
-49.1424957455
 10
43.2060234719
 20
-49.1351698621
 10
43.2083093884
 20
-49.1278307813
 10
43.2107624105
 20
-49.1204845971
 10
43.2133837588
 20
-49.1131374036
 10
43.2162468433
 20
-49.1056079934
 10
43.2192826921
 20
-49.0980883262
 10
43.2224857729
 20
-49.0905827979
 10
43.225850554
 20
-49.0830958043
 10
43.2293715031
 20
-49.0756317414
 10
43.2330430884
 20
-49.0681950051
 10
43.2368597778
 20
-49.0607899913
 10
43.2408160394
 20
-49.053421096
 10
43.244906341
 20
-49.0460927149
 10
43.2491251507
 20
-49.0388092441
 10
43.2534669365
 20
-49.0315750795
 10
43.2579261663
 20
-49.024394617
 10
43.2624973082
 20
-49.0172722524
 10
43.2671748301
 20
-49.0102123818
 10
43.2719532001
 20
-49.003219401
 10
43.2768268861
 20
-48.9962977059
 10
43.2817903561
 20
-48.9894516925
 10
43.286838078
 20
-48.9826857566
 10
43.29196452
 20
-48.9760042942
 10
43.2971641499
 20
-48.9694117013
 10
43.3024314358
 20
-48.9629123736
 10
43.3077608456
 20
-48.9565107072
 10
43.3131468473
 20
-48.9502110979
 10
43.318583909
 20
-48.9440179416
 10
43.3240664986
 20
-48.9379356344
 10
43.3295890841
 20
-48.931968572
 10
43.3351461335
 20
-48.9261211504
 10
43.3407321147
 20
-48.9203977656
 10
43.3463414959
 20
-48.9148028134
 10
43.3519687448
 20
-48.9093406897
  0
LINE
  5
271
100
AcDbEntity
  8
ASSI
100
AcDbLine
 62
7
  6
CONTINUOUS
 10
44.3198832767
 20
13.2593246716
 11
45.0274205459
 21
12.0338341742
  0
LWPOLYLINE
  5
272
100
AcDbEntity
  8
CURVE
100
AcDbPolyline
 62
250
  6
CONTINUOUS
 90
49
 70
0
 10
42.3788337813
 20
-49.5797820567
 10
42.3797401698
 20
-49.5714859862
 10
42.3808356139
 20
-49.5630875916
 10
42.3821195821
 20
-49.5545957592
 10
42.3835915428
 20
-49.5460193752
 10
42.3852509647
 20
-49.5373673259
 10
42.3870973161
 20
-49.5286484975
 10
42.3891300657
 20
-49.5198717763
 10
42.391348682
 20
-49.5110460485
 10
42.3937526334
 20
-49.5021802004
 10
42.3963413886
 20
-49.4932831183
 10
42.399114416
 20
-49.4843636883
 10
42.4020711841
 20
-49.4754307968
 10
42.4052111615
 20
-49.4664933301
 10
42.4085338166
 20
-49.4575601743
 10
42.4120386181
 20
-49.4486402157
 10
42.4157250344
 20
-49.4397423407
 10
42.419592534
 20
-49.4308754353
 10
42.4236405855
 20
-49.422048386
 10
42.4278686574
 20
-49.4132700789
 10
42.4322762181
 20
-49.4045494004
 10
42.4368627363
 20
-49.3958952366
 10
42.4416276804
 20
-49.3873164738
 10
42.446570519
 20
-49.3788219983
 10
42.4516907206
 20
-49.3704206963
 10
42.4569574419
 20
-49.3621655903
 10
42.4623908315
 20
-49.3540183662
 10
42.4679826271
 20
-49.3459859435
 10
42.4737245663
 20
-49.3380752414
 10
42.4796083871
 20
-49.3302931794
 10
42.4856258269
 20
-49.3226466766
 10
42.4917686237
 20
-49.3151426526
 10
42.498028515
 20
-49.3077880266
 10
42.5043972387
 20
-49.300589718
 10
42.5108665325
 20
-49.2935546462
 10
42.517428134
 20
-49.2866897303
 10
42.524073781
 20
-49.28000189
 10
42.5307952112
 20
-49.2734980443
 10
42.5375841624
 20
-49.2671851128
 10
42.5444323723
 20
-49.2610700147
 10
42.5513315785
 20
-49.2551596694
 10
42.5582735189
 20
-49.2494609962
 10
42.5652499311
 20
-49.2439809145
 10
42.5722525529
 20
-49.2387263436
 10
42.579273122
 20
-49.2337042029
 10
42.5863033761
 20
-49.2289214117
 10
42.5933350529
 20
-49.2243848893
 10
42.6003598902
 20
-49.2201015551
 10
42.6073696257
 20
-49.2160783285
  0
LWPOLYLINE
  5
273
100
AcDbEntity
  8
CURVE
100
AcDbPolyline
 62
250
  6
CONTINUOUS
 90
32
 70
0
 10
42.1187525873
 20
-49.4123852926
 10
42.1111498741
 20
-49.4411398969
 10
42.1042008466
 20
-49.4697793085
 10
42.0978737947
 20
-49.4982996897
 10
42.092137008
 20
-49.5266972027
 10
42.0869587763
 20
-49.5549680101
 10
42.0823073894
 20
-49.583108274
 10
42.0781511369
 20
-49.6111141568
 10
42.0744583087
 20
-49.6389818209
 10
42.0711971945
 20
-49.6667074287
 10
42.068336084
 20
-49.6942871424
 10
42.065843267
 20
-49.7217171245
 10
42.0636870332
 20
-49.7489935372
 10
42.0610214899
 20
-49.7897235114
 10
42.0590179719
 20
-49.8301080828
 10
42.0576488804
 20
-49.8701579043
 10
42.0568866162
 20
-49.9098836285
 10
42.0567035803
 20
-49.9492959084
 10
42.0570721736
 20
-49.9884053967
 10
42.0579647971
 20
-50.0272227462
 10
42.0593538517
 20
-50.0657586096
 10
42.0612117384
 20
-50.1040236399
 10
42.0635108581
 20
-50.1420284898
 10
42.0662236118
 20
-50.1797838121
 10
42.0693224004
 20
-50.2173002596
 10
42.0727796249
 20
-50.254588485
 10
42.0765676861
 20
-50.2916591413
 10
42.0806589851
 20
-50.3285228811
 10
42.0850259228
 20
-50.3651903574
 10
42.0896409001
 20
-50.4016722228
 10
42.094476318
 20
-50.4379791302
 10
42.0995045774
 20
-50.4741217324
  0
LINE
  5
274
100
AcDbEntity
  8
CURVE
100
AcDbLine
 62
7
  6
CONTINUOUS
 10
42.2946996244
 20
-49.0800909511
 11
42.4709299842
 21
-48.9038605913
  0
LINE
  5
275
100
AcDbEntity
  8
CURVE
100
AcDbLine
 62
7
  6
CONTINUOUS
 10
42.1015246825
 20
-49.483276607
 11
42.8287645058
 21
-48.7560367837
  0
LINE
  5
276
100
AcDbEntity
  8
CURVE
100
AcDbLine
 62
7
  6
CONTINUOUS
 10
42.0654816721
 20
-49.7293303315
 11
42.9876146866
 21
-48.8071973169
  0
LINE
  5
277
100
AcDbEntity
  8
CURVE
100
AcDbLine
 62
7
  6
CONTINUOUS
 10
42.0573854154
 20
-49.9474373022
 11
42.3748207838
 21
-49.6300019337
  0
LINE
  5
278
100
AcDbEntity
  8
CURVE
100
AcDbLine
 62
7
  6
CONTINUOUS
 10
42.8164560597
 20
-49.1883666579
 11
43.9063361077
 21
-48.0984866098
  0
LINE
  5
279
100
AcDbEntity
  8
CURVE
100
AcDbLine
 62
7
  6
CONTINUOUS
 10
42.0644377813
 20
-50.1503956503
 11
42.3794328847
 21
-49.8354005469
  0
LINE
  5
27A
100
AcDbEntity
  8
CURVE
100
AcDbLine
 62
7
  6
CONTINUOUS
 10
42.8865582732
 20
-49.3282751584
 11
43.9063361077
 21
-48.3084973238
  0
LINE
  5
27B
100
AcDbEntity
  8
CURVE
100
AcDbLine
 62
7
  6
CONTINUOUS
 10
42.0824657484
 20
-50.3423783971
 11
42.6658353791
 21
-49.7590087665
  0
LINE
  5
27C
100
AcDbEntity
  8
CURVE
100
AcDbLine
 62
7
  6
CONTINUOUS
 10
42.8914697039
 20
-49.5333744417
 11
43.1908831917
 21
-49.2339609539
  0
LINE
  5
27D
100
AcDbEntity
  8
CURVE
100
AcDbLine
 62
7
  6
CONTINUOUS
 10
42.2321552221
 20
-50.4026996375
 11
43.1908831917
 21
-49.443971668
  0
LINE
  5
27E
100
AcDbEntity
  8
CURVE
100
AcDbLine
 62
7
  6
CONTINUOUS
 10
42.6871399749
 20
-50.1577255988
 11
43.6064096276
 21
-49.2384559461
  0
LINE
  5
27F
100
AcDbEntity
  8
CURVE
100
AcDbLine
 62
7
  6
CONTINUOUS
 10
43.1421247277
 20
-49.91275156
 11
43.9063361077
 21
-49.1485401799
  0
LINE
  5
280
100
AcDbEntity
  8
CURVE
100
AcDbLine
 62
7
  6
CONTINUOUS
 10
43.5971094805
 20
-49.6677775212
 11
43.9063361077
 21
-49.3585508939
  0
LINE
  5
281
100
AcDbEntity
  8
CURVE
100
AcDbLine
 62
7
  6
CONTINUOUS
 10
42.078144919
 20
-51.3967527966
 11
43.4205981286
 21
-50.054299587
  0
LINE
  5
282
100
AcDbEntity
  8
CURVE
100
AcDbLine
 62
7
  6
CONTINUOUS
 10
42.078144919
 20
-51.6067635107
 11
43.9063360957
 21
-49.778572334
  0
LINE
  5
283
100
AcDbEntity
  8
CURVE
100
AcDbLine
 62
7
  6
CONTINUOUS
 10
42.2847375573
 20
-51.6101815863
 11
42.7534211423
 21
-51.1414980013
  0
LINE
  5
284
100
AcDbEntity
  8
CURVE
100
AcDbLine
 62
7
  6
CONTINUOUS
 10
43.2589505753
 20
-50.6359685684
 11
43.9063360957
 21
-49.988583048
  0
LINE
  5
285
100
AcDbEntity
  8
CURVE
100
AcDbLine
 62
7
  6
CONTINUOUS
 10
42.5434524143
 20
-51.5614774434
 11
43.0246709231
 21
-51.0802589346
  0
LINE
  5
286
100
AcDbEntity
  8
CURVE
100
AcDbLine
 62
7
  6
CONTINUOUS
 10
43.2589505753
 20
-50.8459792824
 11
43.5413642698
 21
-50.5635655879
  0
LINE
  5
287
100
AcDbEntity
  8
CURVE
100
AcDbLine
 62
7
  6
CONTINUOUS
 10
42.8021672713
 20
-51.5127733004
 11
43.5413642698
 21
-50.7735763019
  0
LINE
  5
288
100
AcDbEntity
  8
CURVE
100
AcDbLine
 62
7
  6
CONTINUOUS
 10
43.0608821283
 20
-51.4640691574
 11
43.568330014
 21
-50.9566212717
  0
LINE
  5
289
100
AcDbEntity
  8
CURVE
100
AcDbLine
 62
7
  6
CONTINUOUS
 10
42.078144919
 20
-52.6568170807
 11
42.3856008334
 21
-52.3493611663
  0
LINE
  5
28A
100
AcDbEntity
  8
CURVE
100
AcDbLine
 62
7
  6
CONTINUOUS
 10
43.3195969853
 20
-51.4153650145
 11
43.8363106767
 21
-50.898651323
  0
LINE
  5
28B
100
AcDbEntity
  8
CURVE
100
AcDbLine
 62
7
  6
CONTINUOUS
 10
42.078144919
 20
-52.8668277947
 11
42.9735641295
 21
-51.9714085842
  0
LINE
  5
28C
100
AcDbEntity
  8
CURVE
100
AcDbLine
 62
7
  6
CONTINUOUS
 10
43.5783118423
 20
-51.3666608715
 11
43.9063360957
 21
-51.0386366181
  0
LWPOLYLINE
  5
28D
100
AcDbEntity
  8
CURVE
100
AcDbPolyline
 62
250
  6
CONTINUOUS
 90
7
 70
0
 10
43.3519687448
 20
-48.9093406897
 10
43.3772684106
 20
-48.8853635466
 10
43.402698366
 20
-48.8617383509
 10
43.4282442113
 20
-48.8384269599
 10
43.4538915472
 20
-48.8153912311
 10
43.4796259742
 20
-48.7925930221
 10
43.5054330927
 20
-48.7699941902
  0
LINE
  5
28E
100
AcDbEntity
  8
CURVE
100
AcDbLine
 62
250
  6
CONTINUOUS
 10
42.078144919
 20
-51.2369421713
 11
43.9063360957
 21
-49.626385675
  0
LINE
  5
28F
100
AcDbEntity
  8
CURVE
100
AcDbLine
 62
250
  6
CONTINUOUS
 10
43.5054330927
 20
-48.7699941902
 11
43.5572078065
 21
-48.7252420879
  0
LINE
  5
290
100
AcDbEntity
  8
CURVE
100
AcDbLine
 62
250
  6
CONTINUOUS
 10
43.6609959555
 20
-48.6364521385
 11
43.9063361077
 21
-48.4245650811
  0
LWPOLYLINE
  5
291
100
AcDbEntity
  8
CURVE
100
AcDbPolyline
 62
250
  6
CONTINUOUS
 90
44
 70
0
 10
43.3549114068
 20
-48.4745664341
 10
43.3407422427
 20
-48.4867405498
 10
43.3265076672
 20
-48.4991652679
 10
43.3121782569
 20
-48.5119175907
 10
43.3043033869
 20
-48.5190460567
 10
43.2963993933
 20
-48.5262928067
 10
43.28847422
 20
-48.5336554268
 10
43.280535811
 20
-48.5411315025
 10
43.2725921101
 20
-48.5487186199
 10
43.2646510612
 20
-48.5564143646
 10
43.2567206083
 20
-48.5642163225
 10
43.2488086952
 20
-48.5721220794
 10
43.2409232659
 20
-48.580129221
 10
43.2330722642
 20
-48.5882353333
 10
43.2252636341
 20
-48.5964380021
 10
43.2175053194
 20
-48.6047348131
 10
43.2098052641
 20
-48.6131233521
 10
43.2021714121
 20
-48.6216012049
 10
43.1946117072
 20
-48.6301659575
 10
43.1871340934
 20
-48.6388151955
 10
43.1797465145
 20
-48.6475465049
 10
43.1724569146
 20
-48.6563574713
 10
43.1652732374
 20
-48.6652456806
 10
43.1582034269
 20
-48.6742087187
 10
43.1512554269
 20
-48.6832441713
 10
43.1444371815
 20
-48.6923496243
 10
43.1377566344
 20
-48.7015226634
 10
43.1312217297
 20
-48.7107608745
 10
43.1248404111
 20
-48.7200618433
 10
43.1186206226
 20
-48.7294231558
 10
43.1125703082
 20
-48.7388423977
 10
43.1066974116
 20
-48.7483171547
 10
43.1010098768
 20
-48.7578450128
 10
43.0955156478
 20
-48.7674235578
 10
43.0902226684
 20
-48.7770503754
 10
43.0851388824
 20
-48.7867230514
 10
43.0802722339
 20
-48.7964391717
 10
43.0756306667
 20
-48.8061963221
 10
43.0712221248
 20
-48.8159920884
 10
43.0670545519
 20
-48.8258240564
 10
43.0631358921
 20
-48.8356898119
 10
43.0594740892
 20
-48.8455869407
 10
43.0560770872
 20
-48.8555130287
 10
43.0529528299
 20
-48.8654656616
  0
LINE
  5
292
100
AcDbEntity
  8
CURVE
100
AcDbLine
 62
250
  6
CONTINUOUS
 10
43.5572078065
 20
-48.7252420879
 11
43.6609959555
 21
-48.6364521385
  0
LINE
  5
293
100
AcDbEntity
  8
CURVE
100
AcDbLine
 62
250
  6
CONTINUOUS
 10
43.3831711942
 20
-48.4506620012
 11
43.3549114068
 21
-48.4745664341
  0
LINE
  5
294
100
AcDbEntity
  8
CURVE
100
AcDbLine
 62
250
  6
CONTINUOUS
 10
43.9063360957
 20
-50.0754018708
 11
43.5413642698
 21
-50.3822748425
  0
LINE
  5
295
100
AcDbEntity
  8
CURVE
100
AcDbLine
 62
250
  6
CONTINUOUS
 10
43.5436636065
 20
-48.3161858294
 11
43.3831711942
 21
-48.4506620012
  0
LINE
  5
296
100
AcDbEntity
  8
CURVE
100
AcDbLine
 62
250
  6
CONTINUOUS
 10
43.9063361077
 20
-48.0147753031
 11
43.8410663791
 21
-48.069355276
  0
LINE
  5
297
100
AcDbEntity
  8
CURVE
100
AcDbLine
 62
250
  6
CONTINUOUS
 10
43.8410663791
 20
-48.069355276
 11
43.5436636065
 21
-48.3161858294
  0
LINE
  5
298
100
AcDbEntity
  8
CURVE
100
AcDbLine
 62
250
  6
CONTINUOUS
 10
43.2589505753
 20
-50.6194742571
 11
42.5804854479
 21
-51.1805410579
  0
LINE
  5
299
100
AcDbEntity
  8
CURVE
100
AcDbLine
 62
250
  6
CONTINUOUS
 10
42.078144919
 20
-52.5469989398
 11
43.9063360957
 21
-51.3718072563
  0
LINE
  5
29A
100
AcDbEntity
  8
CURVE
100
AcDbLine
 62
250
  6
CONTINUOUS
 10
43.9063360957
 20
-51.788576142
 11
42.7175382062
 21
-52.5161805812
  0
LWPOLYLINE
  5
29B
100
AcDbEntity
  8
CURVE
100
AcDbPolyline
 62
250
  6
CONTINUOUS
 90
59
 70
0
 10
42.6073696257
 20
-49.2160783285
 10
42.6153073423
 20
-49.2117810637
 10
42.6233064409
 20
-49.2076762662
 10
42.631355966
 20
-49.2037699345
 10
42.6394449618
 20
-49.2000680672
 10
42.647562473
 20
-49.1965766627
 10
42.6556975438
 20
-49.1933017196
 10
42.6638392188
 20
-49.1902492364
 10
42.6719765424
 20
-49.1874252117
 10
42.6800985589
 20
-49.184835644
 10
42.6881943128
 20
-49.1824865318
 10
42.6962528486
 20
-49.1803838737
 10
42.7042632107
 20
-49.1785336681
 10
42.7122144434
 20
-49.1769419137
 10
42.7200955913
 20
-49.1756146089
 10
42.7278956987
 20
-49.1745577522
 10
42.7356038101
 20
-49.1737773423
 10
42.7432089699
 20
-49.1732793775
 10
42.7507002225
 20
-49.1730698566
 10
42.7580666124
 20
-49.1731547779
 10
42.765297184
 20
-49.1735401401
 10
42.7723809817
 20
-49.1742319416
 10
42.7793070499
 20
-49.1752361809
 10
42.7860644331
 20
-49.1765588567
 10
42.7926421757
 20
-49.1782059674
 10
42.7990293222
 20
-49.1801835116
 10
42.8052149169
 20
-49.1824974878
 10
42.8111880042
 20
-49.1851538945
 10
42.8169376287
 20
-49.1881587303
 10
42.8224528347
 20
-49.1915179937
 10
42.8277226667
 20
-49.1952376832
 10
42.8326731446
 20
-49.1992632161
 10
42.8373794596
 20
-49.2036320552
 10
42.8418469312
 20
-49.2083308699
 10
42.8460808793
 20
-49.2133463295
 10
42.8500866234
 20
-49.2186651034
 10
42.8538694833
 20
-49.2242738609
 10
42.8574347786
 20
-49.2301592715
 10
42.860787829
 20
-49.2363080044
 10
42.8639339541
 20
-49.2427067291
 10
42.8668784737
 20
-49.2493421148
 10
42.8696267074
 20
-49.256200831
 10
42.8721839749
 20
-49.263269547
 10
42.8745555958
 20
-49.2705349321
 10
42.8767468899
 20
-49.2779836558
 10
42.8787631768
 20
-49.2856023873
 10
42.8806097762
 20
-49.2933777961
 10
42.8822920077
 20
-49.3012965515
 10
42.8838151911
 20
-49.3093453228
 10
42.885184646
 20
-49.3175107795
 10
42.886405692
 20
-49.3257795908
 10
42.8874836489
 20
-49.3341384262
 10
42.8884238364
 20
-49.3425739549
 10
42.889231574
 20
-49.3510728464
 10
42.8899121815
 20
-49.35962177
 10
42.8904709786
 20
-49.3682073951
 10
42.8909132849
 20
-49.376816391
 10
42.8912444201
 20
-49.3854354271
 10
42.8914697039
 20
-49.3940511727
  0
LINE
  5
29C
100
AcDbEntity
  8
CURVE
100
AcDbLine
 62
250
  6
CONTINUOUS
 10
43.0529528299
 20
-48.8654656616
 11
43.0421498158
 21
-48.8712822477
  0
LINE
  5
29D
100
AcDbEntity
  8
CURVE
100
AcDbLine
 62
250
  6
CONTINUOUS
 10
43.9063361077
 20
-49.0769687737
 11
43.1908831917
 21
-49.4621847383
  0
LINE
  5
29E
100
AcDbEntity
  8
CURVE
100
AcDbLine
 62
250
  6
CONTINUOUS
 10
42.8914697039
 20
-49.6375221639
 11
42.3895956672
 21
-49.9077424493
  0
LINE
  5
29F
100
AcDbEntity
  8
CURVE
100
AcDbLine
 62
250
  6
CONTINUOUS
 10
42.0995045774
 20
-50.4741217324
 11
43.9063361077
 21
-49.5012829402
  0
LINE
  5
2A0
100
AcDbEntity
  8
CURVE
100
AcDbLine
 62
250
  6
CONTINUOUS
 10
42.7125620756
 20
-53.5849405954
 11
43.9063360957
 21
-53.0341227775
  0
LINE
  5
2A1
100
AcDbEntity
  8
CURVE
100
AcDbLine
 62
250
  6
CONTINUOUS
 10
43.9063360957
 20
-53.4416933091
 11
42.078144919
 21
-54.2417454769
  0
LINE
  5
2A2
100
AcDbEntity
  8
CURVE
100
AcDbLine
 62
7
  6
CONTINUOUS
 10
42.2010608704
 20
-52.9539225574
 11
43.5615274257
 21
-51.5934560021
  0
LINE
  5
2A3
100
AcDbEntity
  8
CURVE
100
AcDbLine
 62
7
  6
CONTINUOUS
 10
43.8370266992
 20
-51.3179567285
 11
43.9063360957
 21
-51.2486473321
  0
LINE
  5
2A4
100
AcDbEntity
  8
CURVE
100
AcDbLine
 62
7
  6
CONTINUOUS
 10
42.439356618
 20
-52.9256375238
 11
42.8654244746
 21
-52.4995696672
  0
LINE
  5
2A5
100
AcDbEntity
  8
CURVE
100
AcDbLine
 62
7
  6
CONTINUOUS
 10
43.0559208612
 20
-52.3090732806
 11
43.9063360957
 21
-51.4586580461
  0
LINE
  5
2A6
100
AcDbEntity
  8
CURVE
100
AcDbLine
 62
7
  6
CONTINUOUS
 10
42.6776523655
 20
-52.8973524903
 11
43.1020088737
 21
-52.4729959821
  0
LINE
  5
2A7
100
AcDbEntity
  8
CURVE
100
AcDbLine
 62
7
  6
CONTINUOUS
 10
43.5972561587
 20
-51.9777486971
 11
43.9063360957
 21
-51.6686687601
  0
LINE
  5
2A8
100
AcDbEntity
  8
CURVE
100
AcDbLine
 62
7
  6
CONTINUOUS
 10
42.9159481131
 20
-52.8690674567
 11
43.3385932727
 21
-52.4464222971
  0
LINE
  5
2A9
100
AcDbEntity
  8
CURVE
100
AcDbLine
 62
7
  6
CONTINUOUS
 10
42.078144919
 20
-53.9168813648
 11
43.5751776718
 21
-52.419848612
  0
LINE
  5
2AA
100
AcDbEntity
  8
CURVE
100
AcDbLine
 62
7
  6
CONTINUOUS
 10
42.078144919
 20
-54.1268920788
 11
43.8117620709
 21
-52.3932749269
  0
LINE
  5
2AB
100
AcDbEntity
  8
CURVE
100
AcDbLine
 62
7
  6
CONTINUOUS
 10
42.247349437
 20
-54.1676982749
 11
42.9308074483
 21
-53.4842402636
  0
LINE
  5
2AC
100
AcDbEntity
  8
CURVE
100
AcDbLine
 62
7
  6
CONTINUOUS
 10
42.6207811724
 20
-54.0042772534
 11
43.3207334393
 21
-53.3043249865
  0
LINE
  5
2AD
100
AcDbEntity
  8
CURVE
100
AcDbLine
 62
7
  6
CONTINUOUS
 10
42.0780359473
 20
-54.7570331925
 11
42.2981460211
 21
-54.5369231188
  0
LINE
  5
2AE
100
AcDbEntity
  8
CURVE
100
AcDbLine
 62
7
  6
CONTINUOUS
 10
42.9942129079
 20
-53.840856232
 11
43.7106594303
 21
-53.1244097095
  0
LINE
  5
2AF
100
AcDbEntity
  8
CURVE
100
AcDbLine
 62
7
  6
CONTINUOUS
 10
42.0780359473
 20
-54.9670439066
 11
42.7531307739
 21
-54.29194908
  0
LINE
  5
2B0
100
AcDbEntity
  8
CURVE
100
AcDbLine
 62
7
  6
CONTINUOUS
 10
43.3676446433
 20
-53.6774352105
 11
43.9063360957
 21
-53.1387437582
  0
LINE
  5
2B1
100
AcDbEntity
  8
CURVE
100
AcDbLine
 62
7
  6
CONTINUOUS
 10
42.2851318525
 20
-54.9699587154
 11
43.2081155267
 21
-54.0469750412
  0
LINE
  5
2B2
100
AcDbEntity
  8
CURVE
100
AcDbLine
 62
7
  6
CONTINUOUS
 10
43.7410763788
 20
-53.5140141891
 11
43.9063360957
 21
-53.3487544722
  0
LINE
  5
2B3
100
AcDbEntity
  8
CURVE
100
AcDbLine
 62
7
  6
CONTINUOUS
 10
42.078144919
 20
-55.3869563629
 11
42.2578692276
 21
-55.2072320543
  0
LINE
  5
2B4
100
AcDbEntity
  8
CURVE
100
AcDbLine
 62
7
  6
CONTINUOUS
 10
42.7401166053
 20
-54.7249846766
 11
43.6631002795
 21
-53.8020010024
  0
LINE
  5
2B5
100
AcDbEntity
  8
CURVE
100
AcDbLine
 62
7
  6
CONTINUOUS
 10
42.078144919
 20
-55.5969670769
 11
42.5138464596
 21
-55.1612655363
  0
LINE
  5
2B6
100
AcDbEntity
  8
CURVE
100
AcDbLine
 62
7
  6
CONTINUOUS
 10
43.1951013581
 20
-54.4800106378
 11
43.9063360957
 21
-53.7687759002
  0
LINE
  5
2B7
100
AcDbEntity
  8
CURVE
100
AcDbLine
 62
7
  6
CONTINUOUS
 10
42.2598149549
 20
-55.625307755
 11
42.7698236917
 21
-55.1152990182
  0
LINE
  5
2B8
100
AcDbEntity
  8
CURVE
100
AcDbLine
 62
7
  6
CONTINUOUS
 10
43.6500861109
 20
-54.235036599
 11
43.9063360957
 21
-53.9787866142
  0
LINE
  5
2B9
100
AcDbEntity
  8
CURVE
100
AcDbLine
 62
7
  6
CONTINUOUS
 10
42.5289976512
 20
-55.5661357727
 11
43.0258009237
 21
-55.0693325002
  0
LINE
  5
2BA
100
AcDbEntity
  8
CURVE
100
AcDbLine
 62
7
  6
CONTINUOUS
 10
42.7981803476
 20
-55.5069637903
 11
43.2817781558
 21
-55.0233659821
  0
LINE
  5
2BB
100
AcDbEntity
  8
CURVE
100
AcDbLine
 62
7
  6
CONTINUOUS
 10
43.0673630439
 20
-55.447791808
 11
43.5377553878
 21
-54.9773994641
  0
LINE
  5
2BC
100
AcDbEntity
  8
CURVE
100
AcDbLine
 62
7
  6
CONTINUOUS
 10
42.078144919
 20
-56.647020647
 11
43.7937326199
 21
-54.9314329461
  0
LINE
  5
2BD
100
AcDbEntity
  8
CURVE
100
AcDbLine
 62
7
  6
CONTINUOUS
 10
42.078144919
 20
-56.857031361
 11
43.9063360957
 21
-55.0288401843
  0
LINE
  5
2BE
100
AcDbEntity
  8
CURVE
100
AcDbLine
 62
7
  6
CONTINUOUS
 10
43.4623650005
 20
-55.6828219935
 11
43.9063360957
 21
-55.2388508983
  0
LINE
  5
2BF
100
AcDbEntity
  8
CURVE
100
AcDbLine
 62
250
  6
CONTINUOUS
 10
43.9063360957
 20
-52.4424030902
 11
42.7125620756
 21
-53.5849405954
  0
LINE
  5
2C0
100
AcDbEntity
  8
CURVE
100
AcDbLine
 62
250
  6
CONTINUOUS
 10
42.078144919
 20
-53.8160697169
 11
43.0931621987
 21
-52.8480326443
  0
LINE
  5
2C1
100
AcDbEntity
  8
CURVE
100
AcDbLine
 62
250
  6
CONTINUOUS
 10
43.9063360957
 20
-55.2866499653
 11
42.078144919
 21
-56.9180133901
  0
LINE
  5
2C2
100
AcDbEntity
  8
CURVE
100
AcDbLine
 62
250
  6
CONTINUOUS
 10
42.078144919
 20
-56.4552151761
 11
43.3365457403
 21
-55.3886198257
  0
LINE
  5
2C3
100
AcDbEntity
  8
ASSI
100
AcDbLine
 62
7
  6
CONTINUOUS
 10
39.2480511443
 20
-61.6397627316
 11
39.5270270784
 21
-61.4787166561
  0
LINE
  5
2C4
100
AcDbEntity
  8
ASSI
100
AcDbLine
 62
7
  6
CONTINUOUS
 10
40.2575878617
 20
-62.2511373164
 11
40.9439862093
 21
-61.8548961119
  0
LINE
  5
2C5
100
AcDbEntity
  8
ASSI
100
AcDbLine
 62
7
  6
CONTINUOUS
 10
45.0274205459
 20
-59.8145560459
 11
44.3198832767
 21
-60.2230002398
  0
LINE
  5
2C6
100
AcDbEntity
  8
CURVE
100
AcDbLine
 62
250
  6
CONTINUOUS
 10
43.9063360957
 20
-53.6710373604
 11
42.0780359473
 21
-54.6554353402
  0
LINE
  5
2C7
100
AcDbEntity
  8
CURVE
100
AcDbLine
 62
250
  6
CONTINUOUS
 10
42.0780359473
 20
-55.0814638153
 11
43.9063360957
 21
-54.0970658355
  0
LINE
  5
2C8
100
AcDbEntity
  8
ASSI
100
AcDbLine
 62
7
  6
CONTINUOUS
 10
40.9654875612
 20
-61.8433345602
 11
40.9439862093
 21
-61.8548961119
  0
LINE
  5
2C9
100
AcDbEntity
  8
ASSI
100
AcDbLine
 62
7
  6
CONTINUOUS
 10
40.9654875612
 20
-61.8433345602
 11
45.0274205459
 21
-59.8145560459
  0
LINE
  5
2CA
100
AcDbEntity
  8
ASSI
100
AcDbLine
 62
7
  6
CONTINUOUS
 10
40.2579502919
 20
-62.251778754
 11
44.3198832767
 21
-60.2230002398
  0
ENDSEC
  0
SECTION
  2
OBJECTS
  0
DICTIONARY
  5
C
100
AcDbDictionary
280
0
281
1
  3
ACAD_GROUP
350
D
  3
ACAD_MLINESTYLE
350
17
  3
ACAD_LAYOUT
350
1A
  3
ACAD_PLOTSETTINGS
350
19
  3
ACAD_PLOTSTYLENAME
350
E
  0
DICTIONARY
  5
D
102
{ACAD_REACTORS
330
C
102
}
100
AcDbDictionary
280
0
281
1
  0
ACDBDICTIONARYWDFLT
  5
E
102
{ACAD_REACTORS
330
C
102
}
100
AcDbDictionary
281
1
  3
Normal
350
F
100
AcDbDictionaryWithDefault
340
F
  0
DICTIONARY
  5
17
102
{ACAD_REACTORS
330
C
102
}
100
AcDbDictionary
280
0
281
1
  3
Standard
350
18
  0
DICTIONARY
  5
19
102
{ACAD_REACTORS
330
C
102
}
100
AcDbDictionary
281
1
  0
DICTIONARY
  5
1A
102
{ACAD_REACTORS
330
C
102
}
100
AcDbDictionary
281
1
  3
Model
350
2CB
  3
Layout1
350
2CC
  0
ACDBPLACEHOLDER
  5
F
102
{ACAD_REACTORS
330
E
102
}
  0
MLINESTYLE
  5
18
102
{ACAD_REACTORS
330
17
102
}
100
AcDbMlineStyle
  2
STANDARD
 70
0
  3

 62
256
 51
90.0
 52
90.0
 71
2
 49
0.5
 62
256
  6
BYLAYER
 49
-0.5
 62
256
  6
BYLAYER
  0
LAYOUT
  5
2CB
102
{ACAD_REACTORS
330
1A
102
}
100
AcDbPlotSettings
  1

  2
none_device
  4
ISO_A4_(297.00_x_210.00_MM)
  6

 40
0.0
 41
0.0
 42
0.0
 43
0.0
 44
297.0
 45
210.0
 46
0.0
 47
0.0
 48
0.0
 49
0.0
140
0.0
141
0.0
142
1.0
143
1.0
 70
1024
 72
1
 73
0
 74
0
  7

 75
0
147
1.0
148
0.0
149
0.0
100
AcDbLayout
  1
Model
 70
0
 71
0
 10
0.0
 20
0.0
 11
297.0
 21
210.0
 12
0.0
 22
0.0
 32
0.0
 14
0.0
 24
0.0
 34
0.0
 15
0.0
 25
0.0
 35
0.0
146
0.0
 13
0.0
 23
0.0
 33
0.0
 16
1.0
 26
0.0
 36
0.0
 17
0.0
 27
1.0
 37
0.0
 76
0
330
21E
345
0
346
0
  0
LAYOUT
  5
2CC
102
{ACAD_REACTORS
330
1A
102
}
100
AcDbPlotSettings
  1

  2
none_device
  4
ISO_A4_(297.00_x_210.00_MM)
  6

 40
0.0
 41
0.0
 42
0.0
 43
0.0
 44
297.0
 45
210.0
 46
0.0
 47
0.0
 48
0.0
 49
0.0
140
0.0
141
0.0
142
1.0
143
1.0
 70
0
 72
1
 73
0
 74
0
  7

 75
0
147
1.0
148
0.0
149
0.0
100
AcDbLayout
  1
Layout1
 70
0
 71
1
 10
0.0
 20
0.0
 11
297.0
 21
210.0
 12
0.0
 22
0.0
 32
0.0
 14
0.0
 24
0.0
 34
0.0
 15
0.0
 25
0.0
 35
0.0
146
0.0
 13
0.0
 23
0.0
 33
0.0
 16
1.0
 26
0.0
 36
0.0
 17
0.0
 27
1.0
 37
0.0
 76
0
330
21F
345
0
346
0
  0
ENDSEC
  0
EOF
