  0
SECTION
  2
HEADER
  9
$ACADVER
  1
AC1024
  9
$DWGCODEPAGE
  3
ANSI_1252
  9
$EXTMAX
 10
297.0
 20
210.0
 30
0.0
  9
$EXTMIN
 10
0.0
 20
0.0
 30
0.0
  9
$LIMMIN
 10
0.0
 20
0.0
  9
$LIMMAX
 10
297.0
 20
210.0
  9
$VIEWCTR
 10
148.5
 20
105.0
  9
$VIEWSIZE
 40
210.0
  9
$CLAYER
  8
0
  9
$LTSCALE
 40
16.335
  9
$CELTYPE
  6
BYLAYER
  9
$DIMSCALE
 40
1.0
  9
$DIMASZ
 40
3.0
  9
$DIMEXO
 40
0.5
  9
$DIMDLI
 40
11.286
  9
$DIMEXE
 40
1.5
  9
$DIMCEN
 40
2.673
  9
$DIMLFAC
 40
1.0
  9
$DIMBLK
  1
_FILLED
  9
$DIMALT
 70
0
  9
$DIMALTF
 40
0.0393700787
  9
$DIMTXT
 40
3.0
  9
$DIMTOL
 70
1
  9
$DIMLIM
 70
0
  9
$DIMTFAC
 40
1.0
  9
$DIMTP
 40
0.01
  9
$DIMTM
 40
0.01
  9
$DIMGAP
 40
0.625
  9
$DIMDSEP
 70
44
  9
$AUNITS
 70
0
  9
$PDMODE
 70
3
  9
$PDSIZE
 40
3.0
  9
$HANDSEED
  5
2C1
  9
$TILEMODE
 70
1
  9
$MEASUREMENT
 70
1
  9
$INSUNITS
 70
4
  0
ENDSEC
  0
SECTION
  2
CLASSES
  0
CLASS
  1
ACDBDICTIONARYWDFLT
  2
AcDbDictionaryWithDefault
  3
AutoCAD 2000
 90
0
 91
1
280
0
281
0
  0
CLASS
  1
ACDBPLACEHOLDER
  2
AcDbPlaceHolder
  3
AutoCAD 2000
 90
0
 91
1
280
0
281
0
  0
CLASS
  1
LAYOUT
  2
AcDbLayout
  3
AutoCAD 2000
 90
0
 91
0
280
0
281
0
  0
ENDSEC
  0
SECTION
  2
TABLES
  0
TABLE
  2
VPORT
  5
8
100
AcDbSymbolTable
 70
2
  0
VPORT
  5
1F4
100
AcDbSymbolTableRecord
100
AcDbViewportTableRecord
  2
*ACTIVE
 70
0
 10
0.0
 20
0.0
 11
1.0
 21
1.0
 12
148.5
 22
105.0
 13
0.0
 23
0.0
 14
1.0
 24
1.0
 15
0.0
 25
0.0
 16
0.0
 26
0.0
 36
1.0
 17
0.0
 27
0.0
 37
0.0
 40
210.0
 41
1.4142857143
 42
50.0
 43
0.0
 44
0.0
 50
0.0
 51
0.0
 71
0
 72
100
 73
1
 74
1
 75
0
 76
0
 77
0
 78
0
  0
ENDTAB
  0
TABLE
  2
LTYPE
  5
5
100
AcDbSymbolTable
 70
6
  0
LTYPE
  5
14
100
AcDbSymbolTableRecord
100
AcDbLinetypeTableRecord
  2
BYBLOCK
 70
0
  3

 72
65
 73
0
 40
0.0
  0
LTYPE
  5
15
100
AcDbSymbolTableRecord
100
AcDbLinetypeTableRecord
  2
BYLAYER
 70
0
  3

 72
65
 73
0
 40
0.0
  0
LTYPE
  5
16
100
AcDbSymbolTableRecord
100
AcDbLinetypeTableRecord
  2
CONTINUOUS
 70
64
  3
Solid line
 72
65
 73
0
 40
0.0
  0
LTYPE
  5
1F5
100
AcDbSymbolTableRecord
100
AcDbLinetypeTableRecord
  2
CENTER
 70
64
  3
____ _ ____ _ ____ _ ____ _ ____ _ ____ _ ____
 72
65
 73
4
 40
0.6
 49
0.375
 74
0
 49
-0.075
 74
0
 49
0.075
 74
0
 49
-0.075
 74
0
  0
LTYPE
  5
1F6
100
AcDbSymbolTableRecord
100
AcDbLinetypeTableRecord
  2
HIDDEN
 70
64
  3
- - - - - - - - - - - - - - - - - - - -
 72
65
 73
2
 40
0.2
 49
0.1
 74
0
 49
-0.1
 74
0
  0
LTYPE
  5
1F7
100
AcDbSymbolTableRecord
100
AcDbLinetypeTableRecord
  2
PHANTOM
 70
64
  3
_____ _ _ _____ _ _ _____ _ _ _____
 72
65
 73
6
 40
0.8
 49
0.45
 74
0
 49
-0.05
 74
0
 49
0.1
 74
0
 49
-0.05
 74
0
 49
0.1
 74
0
 49
-0.05
 74
0
  0
LTYPE
  5
1F8
100
AcDbSymbolTableRecord
100
AcDbLinetypeTableRecord
  2
DOT
 70
64
  3
. . . . . . . . . . . . . . . . . . . .
 72
65
 73
2
 40
0.2
 49
0.1
 74
0
 49
-0.1
 74
0
  0
LTYPE
  5
1F9
100
AcDbSymbolTableRecord
100
AcDbLinetypeTableRecord
  2
DASHED
 70
64
  3
- - - - - - - - - - - - - - - - - - - -
 72
65
 73
2
 40
0.2
 49
0.1
 74
0
 49
-0.1
 74
0
  0
ENDTAB
  0
TABLE
  2
LAYER
  5
2
100
AcDbSymbolTable
 70
36
  0
LAYER
  5
10
100
AcDbSymbolTableRecord
100
AcDbLayerTableRecord
  2
0
 70
0
 62
7
  6
CONTINUOUS
370
-3
390
F
  0
LAYER
  5
1FA
100
AcDbSymbolTableRecord
100
AcDbLayerTableRecord
  2
DEFAULT_1
 70
0
 62
7
  6
CENTER
370
-3
390
F
  0
LAYER
  5
1FB
100
AcDbSymbolTableRecord
100
AcDbLayerTableRecord
  2
DEFAULT_2
 70
0
 62
7
  6
HIDDEN
370
-3
390
F
  0
LAYER
  5
1FC
100
AcDbSymbolTableRecord
100
AcDbLayerTableRecord
  2
DEFAULT_3
 70
0
 62
7
  6
PHANTOM
370
-3
390
F
  0
LAYER
  5
1FD
100
AcDbSymbolTableRecord
100
AcDbLayerTableRecord
  2
ASSI
 70
0
 62
7
  6
CONTINUOUS
370
-3
390
F
  0
LAYER
  5
1FE
100
AcDbSymbolTableRecord
100
AcDbLayerTableRecord
  2
COORDINATE
 70
0
 62
7
  6
CONTINUOUS
370
-3
390
F
  0
LAYER
  5
1FF
100
AcDbSymbolTableRecord
100
AcDbLayerTableRecord
  2
COORD_ORIGINE
 70
0
 62
7
  6
CONTINUOUS
370
-3
390
F
  0
LAYER
  5
200
100
AcDbSymbolTableRecord
100
AcDbLayerTableRecord
  2
COPY_PUBLISH
 70
0
 62
7
  6
CONTINUOUS
370
-3
390
F
  0
LAYER
  5
201
100
AcDbSymbolTableRecord
100
AcDbLayerTableRecord
  2
COSMETIC
 70
0
 62
7
  6
CONTINUOUS
370
-3
390
F
  0
LAYER
  5
202
100
AcDbSymbolTableRecord
100
AcDbLayerTableRecord
  2
COSMETICI
 70
0
 62
7
  6
CONTINUOUS
370
-3
390
F
  0
LAYER
  5
203
100
AcDbSymbolTableRecord
100
AcDbLayerTableRecord
  2
CURVE
 70
0
 62
7
  6
CONTINUOUS
370
-3
390
F
  0
LAYER
  5
204
100
AcDbSymbolTableRecord
100
AcDbLayerTableRecord
  2
CURVE_TASSELLI
 70
0
 62
7
  6
CONTINUOUS
370
-3
390
F
  0
LAYER
  5
205
100
AcDbSymbolTableRecord
100
AcDbLayerTableRecord
  2
DRAFT
 70
0
 62
7
  6
CONTINUOUS
370
-3
390
F
  0
LAYER
  5
206
100
AcDbSymbolTableRecord
100
AcDbLayerTableRecord
  2
IMPORT_IGES
 70
0
 62
7
  6
CONTINUOUS
370
-3
390
F
  0
LAYER
  5
207
100
AcDbSymbolTableRecord
100
AcDbLayerTableRecord
  2
INTFCLR_2
 70
0
 62
7
  6
CONTINUOUS
370
-3
390
F
  0
LAYER
  5
208
100
AcDbSymbolTableRecord
100
AcDbLayerTableRecord
  2
INTF_1
 70
0
 62
7
  6
CONTINUOUS
370
-3
390
F
  0
LAYER
  5
209
100
AcDbSymbolTableRecord
100
AcDbLayerTableRecord
  2
INTF_2
 70
0
 62
7
  6
CONTINUOUS
370
-3
390
F
  0
LAYER
  5
20A
100
AcDbSymbolTableRecord
100
AcDbLayerTableRecord
  2
INTF_21
 70
0
 62
7
  6
CONTINUOUS
370
-3
390
F
  0
LAYER
  5
20B
100
AcDbSymbolTableRecord
100
AcDbLayerTableRecord
  2
INTF_7
 70
0
 62
7
  6
CONTINUOUS
370
-3
390
F
  0
LAYER
  5
20C
100
AcDbSymbolTableRecord
100
AcDbLayerTableRecord
  2
INTF_CYAN
 70
0
 62
7
  6
CONTINUOUS
370
-3
390
F
  0
LAYER
  5
20D
100
AcDbSymbolTableRecord
100
AcDbLayerTableRecord
  2
NOTE
 70
0
 62
7
  6
CONTINUOUS
370
-3
390
F
  0
LAYER
  5
20E
100
AcDbSymbolTableRecord
100
AcDbLayerTableRecord
  2
PIANI
 70
0
 62
7
  6
CONTINUOUS
370
-3
390
F
  0
LAYER
  5
20F
100
AcDbSymbolTableRecord
100
AcDbLayerTableRecord
  2
PIANI_ORIGINE
 70
0
 62
7
  6
CONTINUOUS
370
-3
390
F
  0
LAYER
  5
210
100
AcDbSymbolTableRecord
100
AcDbLayerTableRecord
  2
PIANI_RIFERIMENTO
 70
0
 62
7
  6
CONTINUOUS
370
-3
390
F
  0
LAYER
  5
211
100
AcDbSymbolTableRecord
100
AcDbLayerTableRecord
  2
PUNTI
 70
0
 62
7
  6
CONTINUOUS
370
-3
390
F
  0
LAYER
  5
212
100
AcDbSymbolTableRecord
100
AcDbLayerTableRecord
  2
RACCORDO
 70
0
 62
7
  6
CONTINUOUS
370
-3
390
F
  0
LAYER
  5
213
100
AcDbSymbolTableRecord
100
AcDbLayerTableRecord
  2
RGB__255__255__255__
 70
0
 62
7
  6
CONTINUOUS
370
-3
390
F
  0
LAYER
  5
214
100
AcDbSymbolTableRecord
100
AcDbLayerTableRecord
  2
RGB____0____0____0__
 70
0
 62
7
  6
CONTINUOUS
370
-3
390
F
  0
LAYER
  5
215
100
AcDbSymbolTableRecord
100
AcDbLayerTableRecord
  2
SIMBOLI
 70
0
 62
7
  6
CONTINUOUS
370
-3
390
F
  0
LAYER
  5
216
100
AcDbSymbolTableRecord
100
AcDbLayerTableRecord
  2
SMUSSO
 70
0
 62
7
  6
CONTINUOUS
370
-3
390
F
  0
LAYER
  5
217
100
AcDbSymbolTableRecord
100
AcDbLayerTableRecord
  2
SUPERFICI
 70
0
 62
7
  6
CONTINUOUS
370
-3
390
F
  0
LAYER
  5
218
100
AcDbSymbolTableRecord
100
AcDbLayerTableRecord
  2
TRASH
 70
0
 62
7
  6
CONTINUOUS
370
-3
390
F
  0
LAYER
  5
219
100
AcDbSymbolTableRecord
100
AcDbLayerTableRecord
  2
XSEC_DATUMS
 70
0
 62
7
  6
CONTINUOUS
370
-3
390
F
  0
ENDTAB
  0
TABLE
  2
STYLE
  5
3
100
AcDbSymbolTable
 70
1
  0
STYLE
  5
11
100
AcDbSymbolTableRecord
100
AcDbTextStyleTableRecord
  2
STANDARD
 70
0
 40
0.0
 41
0.8
 50
0.0
 71
0
 42
0.2
  3
txt
  4

  0
STYLE
  5
21A
100
AcDbSymbolTableRecord
100
AcDbTextStyleTableRecord
  2
TEXTSTYLE_1
 70
0
 40
0.0
 41
0.8
 50
0.0
 71
0
 42
0.2
  3
gdt
  4

  0
ENDTAB
  0
TABLE
  2
VIEW
  5
6
100
AcDbSymbolTable
 70
0
  0
ENDTAB
  0
TABLE
  2
UCS
  5
7
100
AcDbSymbolTable
 70
0
  0
ENDTAB
  0
TABLE
  2
APPID
  5
9
100
AcDbSymbolTable
 70
1
  0
APPID
  5
21B
100
AcDbSymbolTableRecord
100
AcDbRegAppTableRecord
  2
ACAD
 70
0
  0
ENDTAB
  0
TABLE
  2
BLOCK_RECORD
  5
1
100
AcDbSymbolTable
 70
0
  0
BLOCK_RECORD
  5
21C
100
AcDbSymbolTableRecord
100
AcDbBlockTableRecord
  2
*Model_Space
  0
BLOCK_RECORD
  5
21D
100
AcDbSymbolTableRecord
100
AcDbBlockTableRecord
  2
*Paper_Space
  0
BLOCK_RECORD
  5
21E
100
AcDbSymbolTableRecord
100
AcDbBlockTableRecord
  2
_FILLED
  0
ENDTAB
  0
TABLE
  2
DIMSTYLE
  5
A
100
AcDbSymbolTable
 70
1
100
AcDbDimStyleTable
 71
0
  0
DIMSTYLE
105
21F
100
AcDbSymbolTableRecord
100
AcDbDimStyleTableRecord
  2
STANDARD
 70
0
  3

  4

 40
1.0
 41
3.0
 42
0.5
 43
0.38
 44
1.5
 45
0.0
 46
0.0
 47
0.01
 48
0.01
140
3.0
141
0.09
142
0.0
143
25.4
144
1.0
145
0.0
146
1.0
147
0.625
 71
1
 72
0
 73
0
 74
0
 75
0
 76
0
 77
1
 78
8
 79
2
170
0
171
1
172
0
173
0
174
0
175
0
176
0
177
0
178
0
270
2
179
2
271
2
272
2
273
2
274
2
275
0
280
0
281
0
282
0
283
1
284
8
285
0
286
0
287
3
288
0
340
11
278
44
341
21E
342
21E
343
21E
344
21E
  0
ENDTAB
  0
ENDSEC
  0
SECTION
  2
BLOCKS
  0
BLOCK
  5
20
100
AcDbEntity
  8
0
100
AcDbBlockBegin
  2
*Model_Space
 70
0
 10
0.0
 20
0.0
 30
0.0
  3
*Model_Space
  1

  0
ENDBLK
  5
21
100
AcDbEntity
  8
0
100
AcDbBlockEnd
  0
BLOCK
  5
1C
100
AcDbEntity
  8
0
100
AcDbBlockBegin
  2
*Paper_Space
 70
0
 10
0.0
 20
0.0
 30
0.0
  3
*Paper_Space
  1

  0
ENDBLK
  5
1D
100
AcDbEntity
  8
0
100
AcDbBlockEnd
  0
BLOCK
  5
220
100
AcDbEntity
  8
0
100
AcDbBlockBegin
  2
_FILLED
 70
64
 10
0.0
 20
0.0
  3
_FILLED
  1

  0
SOLID
  5
221
100
AcDbEntity
  8
0
  6
BYBLOCK
 62
0
100
AcDbTrace
 10
0.0
 20
0.0
 11
-1.0
 21
0.3166666667
 12
-1.0
 22
-0.3166666667
 13
-1.0
 23
-0.3166666667
  0
ENDBLK
  5
222
100
AcDbEntity
  8
0
  6
BYBLOCK
 62
0
100
AcDbBlockEnd
  0
ENDSEC
  0
SECTION
  2
ENTITIES
  0
LINE
  5
223
100
AcDbEntity
  8
0
100
AcDbLine
 62
7
  6
CONTINUOUS
 10
131.0928361446
 20
148.7149926003
 11
130.4064377969
 21
148.2175289181
  0
LINE
  5
224
100
AcDbEntity
  8
0
100
AcDbLine
 62
7
  6
CONTINUOUS
 10
130.7101468447
 20
147.3273716503
 11
130.4311709106
 21
147.1251852728
  0
LINE
  5
225
100
AcDbEntity
  8
0
100
AcDbLine
 62
7
  6
CONTINUOUS
 10
131.0928361446
 20
148.7149926003
 11
131.1135997587
 21
148.7285704786
  0
LINE
  5
226
100
AcDbEntity
  8
0
100
AcDbLine
 62
7
  6
CONTINUOUS
 10
131.1135997587
 20
148.7285704786
 11
134.9014135459
 21
150.9274000117
  0
LINE
  5
227
100
AcDbEntity
  8
CURVE
100
AcDbLine
 62
250
  6
CONTINUOUS
 10
161.6463764031
 20
69.7812429659
 11
160.6730078564
 21
69.6347759064
  0
LINE
  5
228
100
AcDbEntity
  8
CURVE
100
AcDbLine
 62
250
  6
CONTINUOUS
 10
160.6730078564
 20
69.9960470639
 11
162.0871068674
 21
70.1463911911
  0
LINE
  5
229
100
AcDbEntity
  8
CURVE
100
AcDbLine
 62
250
  6
CONTINUOUS
 10
161.4581198292
 20
71.9541968471
 11
160.6730078564
 21
71.9231579693
  0
LINE
  5
22A
100
AcDbEntity
  8
0
100
AcDbLine
 62
7
  6
CONTINUOUS
 10
158.3919676189
 20
64.9422770878
 11
159.8089267498
 21
64.5460464511
  0
LINE
  5
22B
100
AcDbEntity
  8
CURVE
100
AcDbLine
 62
250
  6
CONTINUOUS
 10
161.0615665682
 20
73.4051521487
 11
161.5863564724
 21
73.4875419886
  0
LINE
  5
22C
100
AcDbEntity
  8
CURVE
100
AcDbLine
 62
250
  6
CONTINUOUS
 10
161.8048022632
 20
73.5228141088
 11
162.0871068674
 21
73.5642106766
  0
LINE
  5
22D
100
AcDbEntity
  8
CURVE
100
AcDbLine
 62
250
  6
CONTINUOUS
 10
162.0871068674
 20
73.206614931
 11
160.6730078564
 21
73.0428032427
  0
LINE
  5
22E
100
AcDbEntity
  8
CURVE
100
AcDbLine
 62
250
  6
CONTINUOUS
 10
161.1675767239
 20
72.2621458331
 11
162.0871068674
 21
72.2920669899
  0
LINE
  5
22F
100
AcDbEntity
  8
0
100
AcDbLine
 62
7
  6
CONTINUOUS
 10
131.1135997587
 20
78.0502134497
 11
159.1228908324
 21
64.0455679128
  0
LINE
  5
230
100
AcDbEntity
  8
0
100
AcDbLine
 62
7
  6
CONTINUOUS
 10
130.7101468447
 20
78.4415131304
 11
158.1129916848
 21
64.7400907103
  0
LINE
  5
231
100
AcDbEntity
  8
0
100
AcDbLine
 62
7
  6
CONTINUOUS
 10
131.1135997587
 20
78.0502134497
 11
131.0928361446
 21
78.0634288977
  0
LINE
  5
232
100
AcDbEntity
  8
0
100
AcDbLine
 62
7
  6
CONTINUOUS
 10
130.7101468447
 20
78.4415131304
 11
131.0928361446
 21
78.0634288977
  0
LINE
  5
233
100
AcDbEntity
  8
0
100
AcDbLine
 62
7
  6
CONTINUOUS
 10
158.1129916848
 20
64.7400907103
 11
159.1225284022
 21
64.0485827689
  0
LINE
  5
234
100
AcDbEntity
  8
0
100
AcDbLine
 62
7
  6
CONTINUOUS
 10
130.4311709106
 20
78.922675442
 11
130.7101468447
 21
78.4415131304
  0
LINE
  5
235
100
AcDbEntity
  8
0
100
AcDbLine
 62
7
  6
CONTINUOUS
 10
130.4060624894
 20
148.2157864714
 11
130.4064377969
 21
148.2175289181
  0
LINE
  5
236
100
AcDbEntity
  8
0
100
AcDbLine
 62
7
  6
CONTINUOUS
 10
130.7101468447
 20
147.3273716503
 11
131.0928361446
 21
148.7149926003
  0
LINE
  5
237
100
AcDbEntity
  8
0
100
AcDbLine
 62
7
  6
CONTINUOUS
 10
130.4311709106
 20
78.922675442
 11
130.4064377969
 21
79.2472909276
  0
LINE
  5
238
100
AcDbEntity
  8
0
100
AcDbLine
 62
7
  6
CONTINUOUS
 10
159.1228908324
 20
134.7239249418
 11
163.1848238171
 21
136.785694876
  0
LINE
  5
239
100
AcDbEntity
  8
0
100
AcDbLine
 62
7
  6
CONTINUOUS
 10
130.4311709106
 20
147.1251852728
 11
130.4064377969
 21
148.2175289181
  0
LINE
  5
23A
100
AcDbEntity
  8
0
100
AcDbLine
 62
7
  6
CONTINUOUS
 10
130.4064377969
 20
79.2472909276
 11
130.4060624894
 21
79.2705347262
  0
LINE
  5
23B
100
AcDbEntity
  8
0
100
AcDbLine
 62
7
  6
CONTINUOUS
 10
130.4060624894
 20
148.2157864714
 11
130.4060624894
 21
79.2705347262
  0
LINE
  5
23C
100
AcDbEntity
  8
0
100
AcDbLine
 62
7
  6
CONTINUOUS
 10
130.4311709106
 20
147.1251852728
 11
130.4311709106
 21
78.922675442
  0
LINE
  5
23D
100
AcDbEntity
  8
0
100
AcDbLine
 62
7
  6
CONTINUOUS
 10
159.8304281017
 20
133.5036036652
 11
163.8923610864
 21
135.5653735995
  0
LINE
  5
23E
100
AcDbEntity
  8
0
100
AcDbLine
 62
7
  6
CONTINUOUS
 10
138.4718723028
 20
103.2012094559
 11
138.4718723028
 21
114.8059498666
  0
LINE
  5
23F
100
AcDbEntity
  8
0
100
AcDbLine
 62
7
  6
CONTINUOUS
 10
139.1789790839
 20
103.2012094559
 11
139.1789790839
 21
114.8059498666
  0
LWPOLYLINE
  5
240
100
AcDbEntity
  8
0
100
AcDbPolyline
 62
7
  6
CONTINUOUS
 90
25
 70
0
 10
138.4718723028
 20
114.8059498666
 10
138.4745349919
 20
114.9015654109
 10
138.4822318257
 20
114.9934424339
 10
138.4949628041
 20
115.0815809356
 10
138.5128249038
 20
115.1663264188
 10
138.535721148
 20
115.2473333808
 10
138.5633606074
 20
115.3235653137
 10
138.5958043689
 20
115.3949606032
 10
138.6329913455
 20
115.4615808638
 10
138.6744473459
 20
115.5225744308
 10
138.7202272323
 20
115.5778688939
 10
138.7702761424
 20
115.6275366636
 10
138.8239552981
 20
115.6709433067
 10
138.8813114274
 20
115.7080083665
 10
138.9422978023
 20
115.7388122997
 10
139.0061354604
 20
115.7629620442
 10
139.0728610822
 20
115.7803719833
 10
139.1424379872
 20
115.7911277336
 10
139.2139771722
 20
115.7950930834
 10
139.2875040925
 20
115.7921804826
 10
139.3629932927
 20
115.7824774813
 10
139.4394794036
 20
115.7661105175
 10
139.5166406354
 20
115.7431217372
 10
139.5947987777
 20
115.7134689944
 10
139.6739538308
 20
115.6771522891
  0
LWPOLYLINE
  5
241
100
AcDbEntity
  8
0
100
AcDbPolyline
 62
7
  6
CONTINUOUS
 90
13
 70
0
 10
139.1789790839
 20
114.8059498666
 10
139.1813507252
 20
114.8824092389
 10
139.1884531925
 20
114.9560756709
 10
139.2002479723
 20
115.0265365334
 10
139.2166709332
 20
115.0933991765
 10
139.2376310564
 20
115.1562861856
 10
139.2630093913
 20
115.2148389177
 10
139.2926631728
 20
115.2687291617
 10
139.3264267133
 20
115.317656818
 10
139.3641089784
 20
115.3613464591
 10
139.4054957672
 20
115.3995526332
 10
139.4503571716
 20
115.4320657389
 10
139.4908509068
 20
115.4549984271
  0
LWPOLYLINE
  5
242
100
AcDbEntity
  8
0
100
AcDbPolyline
 62
7
  6
CONTINUOUS
 90
7
 70
0
 10
139.8296946088
 20
115.4908134372
 10
139.8083966879
 20
115.4416762292
 10
139.7874369903
 20
115.3787935946
 10
139.7710133009
 20
115.3119327577
 10
139.7592172091
 20
115.2414704598
 10
139.7521135
 20
115.1677990901
 10
139.7497413072
 20
115.0913309782
  0
LINE
  5
243
100
AcDbEntity
  8
0
100
AcDbLine
 62
7
  6
CONTINUOUS
 10
158.1129916848
 20
133.6259492302
 11
159.1225284022
 21
134.7001464715
  0
LINE
  5
244
100
AcDbEntity
  8
0
100
AcDbLine
 62
250
  6
CONTINUOUS
 10
139.1789790839
 20
114.8059498666
 11
139.7497413072
 21
115.0913309782
  0
LWPOLYLINE
  5
245
100
AcDbEntity
  8
0
100
AcDbPolyline
 62
7
  6
CONTINUOUS
 90
11
 70
0
 10
139.4908509068
 20
115.4549984271
 10
139.4984485075
 20
115.4587084262
 10
139.5495048725
 20
115.4793316205
 10
139.6032383409
 20
115.4938168357
 10
139.6593457636
 20
115.5020814907
 10
139.7175141975
 20
115.504079068
 10
139.7774175895
 20
115.4997979651
 10
139.83871501
 20
115.4892631566
 10
139.9010613224
 20
115.4725356992
 10
139.9641096036
 20
115.4497103824
 10
140.0275072214
 20
115.4209162825
  0
LINE
  5
246
100
AcDbEntity
  8
0
100
AcDbLine
 62
7
  6
CONTINUOUS
 10
149.1491846987
 20
96.3903100715
 11
139.6739538308
 21
101.1279255055
  0
LWPOLYLINE
  5
247
100
AcDbEntity
  8
0
100
AcDbPolyline
 62
7
  6
CONTINUOUS
 90
25
 70
0
 10
139.6739538308
 20
101.1279255055
 10
139.5947970276
 20
101.1707650219
 10
139.5166375332
 20
101.2192714268
 10
139.4394753476
 20
101.2734447202
 10
139.3629887787
 20
101.3335645195
 10
139.2874995187
 20
101.3993512074
 10
139.213972644
 20
101.4699659307
 10
139.1424335241
 20
101.5454708213
 10
139.0728567895
 20
101.6258037475
 10
139.0061314093
 20
101.7099394614
 10
138.9422941088
 20
101.7979267927
 10
138.8813081627
 20
101.8897169117
 10
138.8239523634
 20
101.984138082
 10
138.7702733272
 20
102.0812242253
 10
138.7202244378
 20
102.1809414199
 10
138.6744446391
 20
102.2820161636
 10
138.6329888624
 20
102.384465915
 10
138.5958021765
 20
102.4882732156
 10
138.5633587319
 20
102.5921121878
 10
138.535719621
 20
102.6959834618
 10
138.5128237515
 20
102.7998864074
 10
138.4949619975
 20
102.9024932564
 10
138.482231317
 20
103.0033614195
 10
138.4745347521
 20
103.102933486
 10
138.4718723028
 20
103.2012094559
  0
LWPOLYLINE
  5
248
100
AcDbEntity
  8
0
100
AcDbPolyline
 62
7
  6
CONTINUOUS
 90
22
 70
0
 10
139.7497413072
 20
103.4865905675
 10
139.7521135063
 20
103.4077501569
 10
139.7592172291
 20
103.3269750111
 10
139.7710133346
 20
103.2447165971
 10
139.7874370222
 20
103.1614321255
 10
139.8083966994
 20
103.0775898943
 10
139.8337730675
 20
102.9936667875
 10
139.8634210301
 20
102.9101386282
 10
139.8971759412
 20
102.827465829
 10
139.9348539178
 20
102.7460992668
 10
139.9762496829
 20
102.666486237
 10
140.0211289091
 20
102.5890810385
 10
140.0692329177
 20
102.514329821
 10
140.1202864162
 20
102.442657232
 10
140.1740080079
 20
102.374455356
 10
140.2301046841
 20
102.3100958632
 10
140.2882677862
 20
102.2499347202
 10
140.348168003
 20
102.1943143297
 10
140.4094645909
 20
102.1435512064
 10
140.4718125505
 20
102.0979300236
 10
140.5348650491
 20
102.057703543
 10
140.5982694446
 20
102.0230960143
  0
LINE
  5
249
100
AcDbEntity
  8
0
100
AcDbLine
 62
7
  6
CONTINUOUS
 10
139.7497413072
 20
115.0913309782
 11
139.7497413072
 21
103.4865905675
  0
LWPOLYLINE
  5
24A
100
AcDbEntity
  8
0
100
AcDbPolyline
 62
7
  6
CONTINUOUS
 90
5
 70
0
 10
150.0735003125
 20
97.2854805803
 10
150.136904792
 20
97.2566836793
 10
150.1999573396
 20
97.2338576536
 10
150.2623053135
 20
97.2171308863
 10
150.2713128068
 20
97.2155830024
  0
LINE
  5
24B
100
AcDbEntity
  8
0
100
AcDbLine
 62
7
  6
CONTINUOUS
 10
149.5027380893
 20
97.0000994687
 11
140.0275072214
 21
101.7377149027
  0
LINE
  5
24C
100
AcDbEntity
  8
0
100
AcDbLine
 62
7
  6
CONTINUOUS
 10
140.5982694446
 20
102.0230960143
 11
150.0735003125
 21
97.2854805803
  0
LWPOLYLINE
  5
24D
100
AcDbEntity
  8
0
100
AcDbPolyline
 62
7
  6
CONTINUOUS
 90
22
 70
0
 10
140.0275072214
 20
101.7377149027
 10
139.9641101868
 20
101.7723180754
 10
139.9010622269
 20
101.8125407658
 10
139.8387159748
 20
101.8581594878
 10
139.7774182097
 20
101.9089223076
 10
139.7175142473
 20
101.9645450922
 10
139.6593454799
 20
102.0247114615
 10
139.6032381743
 20
102.0890834311
 10
139.5495050025
 20
102.15730174
 10
139.4984488397
 20
102.2289809823
 10
139.4503575433
 20
102.3037148878
 10
139.4054961121
 20
102.3810893784
 10
139.3641092433
 20
102.4606824298
 10
139.326426802
 20
102.5420546716
 10
139.2926630766
 20
102.6247463241
 10
139.2630092547
 20
102.7082905133
 10
139.2376310759
 20
102.7922210938
 10
139.2166711245
 20
102.8760674416
 10
139.2002481925
 20
102.959352609
 10
139.1884533288
 20
103.0416083672
 10
139.1813507689
 20
103.1223777063
 10
139.1789790839
 20
103.2012094559
  0
LINE
  5
24E
100
AcDbEntity
  8
0
100
AcDbLine
 62
250
  6
CONTINUOUS
 10
139.6739538308
 20
101.1279255055
 11
140.0275072214
 21
101.7377149027
  0
LINE
  5
24F
100
AcDbEntity
  8
0
100
AcDbLine
 62
250
  6
CONTINUOUS
 10
138.4718723028
 20
103.2012094559
 11
139.1789790839
 21
103.2012094559
  0
LINE
  5
250
100
AcDbEntity
  8
0
100
AcDbLine
 62
250
  6
CONTINUOUS
 10
139.1789790839
 20
103.2012094559
 11
139.7497413072
 21
103.4865905675
  0
LINE
  5
251
100
AcDbEntity
  8
0
100
AcDbLine
 62
7
  6
CONTINUOUS
 10
150.3512662267
 20
108.8662529047
 11
150.3512662267
 21
97.261512494
  0
LWPOLYLINE
  5
252
100
AcDbEntity
  8
0
100
AcDbPolyline
 62
7
  6
CONTINUOUS
 90
25
 70
0
 10
150.3512662267
 20
97.261512494
 10
150.3486035376
 20
97.1658969497
 10
150.3409067038
 20
97.0740199267
 10
150.3281757253
 20
96.985881425
 10
150.3103136257
 20
96.9011359418
 10
150.2874173814
 20
96.8201289798
 10
150.2597779221
 20
96.7438970469
 10
150.2273341605
 20
96.6725017574
 10
150.1901471839
 20
96.6058814968
 10
150.1486911836
 20
96.5448879298
 10
150.1029112972
 20
96.4895934667
 10
150.052862387
 20
96.439925697
 10
149.9991832313
 20
96.3965190539
 10
149.941827102
 20
96.3594539941
 10
149.8808407272
 20
96.3286500609
 10
149.817003069
 20
96.3045003164
 10
149.7502774473
 20
96.2870903773
 10
149.6807005422
 20
96.276334627
 10
149.6091613572
 20
96.2723692772
 10
149.535634437
 20
96.275281878
 10
149.4601452367
 20
96.2849848793
 10
149.3836591258
 20
96.3013518431
 10
149.3064978941
 20
96.3243406234
 10
149.2283397517
 20
96.3539933662
 10
149.1491846987
 20
96.3903100715
  0
LWPOLYLINE
  5
253
100
AcDbEntity
  8
0
100
AcDbPolyline
 62
7
  6
CONTINUOUS
 90
5
 70
0
 10
150.3512662267
 20
97.6150658846
 10
150.3488945854
 20
97.5386065122
 10
150.3417921181
 20
97.4649400803
 10
150.3299973384
 20
97.3944792178
 10
150.3135743774
 20
97.3276165747
  0
LINE
  5
254
100
AcDbEntity
  8
0
100
AcDbLine
 62
250
  6
CONTINUOUS
 10
140.0275072214
 20
101.7377149027
 11
140.5982694446
 21
102.0230960143
  0
LINE
  5
255
100
AcDbEntity
  8
0
100
AcDbLine
 62
7
  6
CONTINUOUS
 10
140.0275072214
 20
115.4209162825
 11
149.5027380893
 21
110.6833008485
  0
LINE
  5
256
100
AcDbEntity
  8
0
100
AcDbLine
 62
7
  6
CONTINUOUS
 10
139.6739538308
 20
115.6771522891
 11
149.1491846987
 21
110.9395368551
  0
LWPOLYLINE
  5
257
100
AcDbEntity
  8
0
100
AcDbPolyline
 62
7
  6
CONTINUOUS
 90
4
 70
0
 10
149.1491846987
 20
110.9395368551
 10
149.2283415019
 20
110.8966973386
 10
149.3065009963
 20
110.8481909338
 10
149.3896009033
 20
110.7895827944
  0
LINE
  5
258
100
AcDbEntity
  8
0
100
AcDbLine
 62
7
  6
CONTINUOUS
 10
149.5027380893
 20
110.6833008485
 11
149.542316147
 21
110.6616984758
  0
LINE
  5
259
100
AcDbEntity
  8
0
100
AcDbLine
 62
250
  6
CONTINUOUS
 10
139.6739538308
 20
115.6771522891
 11
140.0275072214
 21
115.4209162825
  0
LINE
  5
25A
100
AcDbEntity
  8
0
100
AcDbLine
 62
250
  6
CONTINUOUS
 10
149.1491846987
 20
110.9395368551
 11
149.5027380893
 21
110.6833008485
  0
LWPOLYLINE
  5
25B
100
AcDbEntity
  8
0
100
AcDbPolyline
 62
7
  6
CONTINUOUS
 90
18
 70
0
 10
149.3896009033
 20
110.7895827944
 10
149.4601497507
 20
110.7338978411
 10
149.5356390108
 20
110.6681111532
 10
149.6091658854
 20
110.5974964299
 10
149.6807050054
 20
110.5219915393
 10
149.75028174
 20
110.4416586131
 10
149.8170071202
 20
110.3575228992
 10
149.8808444206
 20
110.2695355679
 10
149.9418303667
 20
110.1777454489
 10
149.999186166
 20
110.0833242786
 10
150.0528652023
 20
109.9862381353
 10
150.1029140917
 20
109.8865209407
 10
150.1486938903
 20
109.785446197
 10
150.1901496671
 20
109.6829964456
 10
150.227336353
 20
109.579189145
 10
150.2597797975
 20
109.4753501728
 10
150.2874189085
 20
109.3714788988
 10
150.310314778
 20
109.2675759532
  0
LINE
  5
25C
100
AcDbEntity
  8
0
100
AcDbLine
 62
7
  6
CONTINUOUS
 10
150.310314778
 20
109.2675759532
 11
150.328176532
 21
109.1649691042
  0
LWPOLYLINE
  5
25D
100
AcDbEntity
  8
0
100
AcDbPolyline
 62
7
  6
CONTINUOUS
 90
4
 70
0
 10
150.328176532
 20
109.1649691042
 10
150.3409072124
 20
109.0641009411
 10
150.3486037773
 20
108.9645288746
 10
150.3512662267
 20
108.8662529047
  0
LWPOLYLINE
  5
25E
100
AcDbEntity
  8
0
100
AcDbPolyline
 62
7
  6
CONTINUOUS
 90
9
 70
0
 10
150.3135743774
 20
97.3276165747
 10
150.2926142543
 20
97.2647295656
 10
150.2672359193
 20
97.2061768335
 10
150.2375821378
 20
97.1522865895
 10
150.2038185973
 20
97.1033589331
 10
150.1661363322
 20
97.0596692921
 10
150.1247495434
 20
97.021463118
 10
150.079888139
 20
96.9889500123
 10
150.0393944039
 20
96.9660173241
  0
LINE
  5
25F
100
AcDbEntity
  8
0
100
AcDbLine
 62
250
  6
CONTINUOUS
 10
149.1491846987
 20
96.3903100715
 11
149.5027380893
 21
97.0000994687
  0
LWPOLYLINE
  5
260
100
AcDbEntity
  8
CURVE
100
AcDbPolyline
 62
250
  6
CONTINUOUS
 90
22
 70
0
 10
160.9139140625
 20
74.4986085288
 10
160.9121909693
 20
74.5103701106
 10
160.910545913
 20
74.5221860611
 10
160.9089920759
 20
74.5340651638
 10
160.9075426403
 20
74.5460162028
 10
160.9062107886
 20
74.5580479617
 10
160.9050097029
 20
74.5701692243
 10
160.9038725177
 20
74.5833598875
 10
160.9029030757
 20
74.5966607827
 10
160.9021014314
 20
74.6100676447
 10
160.9014676394
 20
74.6235762081
 10
160.9010017542
 20
74.6371822077
 10
160.9007038305
 20
74.6508813783
 10
160.9005739227
 20
74.6646694547
 10
160.9006120855
 20
74.6785421714
 10
160.9008183734
 20
74.6924952633
 10
160.9011928411
 20
74.7065244651
 10
160.9017355429
 20
74.7206255116
 10
160.9024465337
 20
74.7347941375
 10
160.9033258678
 20
74.7490260774
 10
160.9043735998
 20
74.7633170663
 10
160.9055897844
 20
74.7776628387
  0
LINE
  5
261
100
AcDbEntity
  8
0
100
AcDbLine
 62
7
  6
CONTINUOUS
 10
159.1225284022
 20
64.0485827689
 11
159.1228908324
 21
64.0455679128
  0
LINE
  5
262
100
AcDbEntity
  8
0
100
AcDbLine
 62
7
  6
CONTINUOUS
 10
158.3919676189
 20
64.9422770878
 11
158.3919676189
 21
133.1447869186
  0
LINE
  5
263
100
AcDbEntity
  8
0
100
AcDbLine
 62
7
  6
CONTINUOUS
 10
159.1228908324
 20
134.7239249418
 11
159.1225284022
 21
134.7001464715
  0
LINE
  5
264
100
AcDbEntity
  8
0
100
AcDbLine
 62
250
  6
CONTINUOUS
 10
149.5027380893
 20
97.0000994687
 11
150.0735003125
 21
97.2854805803
  0
LWPOLYLINE
  5
265
100
AcDbEntity
  8
0
100
AcDbPolyline
 62
7
  6
CONTINUOUS
 90
11
 70
0
 10
150.0393944039
 20
96.9660173241
 10
150.0317968031
 20
96.962307325
 10
149.9807404381
 20
96.9416841307
 10
149.9270069698
 20
96.9271989155
 10
149.870899547
 20
96.9189342605
 10
149.8127311131
 20
96.9169366832
 10
149.7528277212
 20
96.9212177861
 10
149.6915303007
 20
96.9317525946
 10
149.6291839883
 20
96.948480052
 10
149.566135707
 20
96.9713053688
 10
149.5027380893
 20
97.0000994687
  0
LINE
  5
266
100
AcDbEntity
  8
0
100
AcDbLine
 62
250
  6
CONTINUOUS
 10
138.4718723028
 20
114.8059498666
 11
139.1789790839
 21
114.8059498666
  0
LWPOLYLINE
  5
267
100
AcDbEntity
  8
CURVE
100
AcDbPolyline
 62
250
  6
CONTINUOUS
 90
73
 70
0
 10
161.4186622276
 20
75.3323510307
 10
161.4177781383
 20
75.3378078332
 10
161.4164229568
 20
75.3428556942
 10
161.4146489755
 20
75.3475352537
 10
161.4125084869
 20
75.3518871513
 10
161.4100537834
 20
75.355952027
 10
161.4073371573
 20
75.3597705204
 10
161.404410901
 20
75.3633832714
 10
161.401327307
 20
75.3668309198
 10
161.3981386677
 20
75.3701541053
 10
161.3948972755
 20
75.3733934678
 10
161.3867035048
 20
75.381336727
 10
161.3784650089
 20
75.3889696344
 10
161.3701399831
 20
75.3962557004
 10
161.3616866226
 20
75.4031584353
 10
161.3530631229
 20
75.4096413494
 10
161.3442276792
 20
75.4156679531
 10
161.3351384868
 20
75.4212017569
 10
161.3257537411
 20
75.426206271
 10
161.3152512967
 20
75.430983487
 10
161.3043841642
 20
75.4351074553
 10
161.2931811739
 20
75.4385848932
 10
161.2816711562
 20
75.4414225186
 10
161.2698829415
 20
75.4436270489
 10
161.2578453603
 20
75.4452052019
 10
161.2455872428
 20
75.446163695
 10
161.2331374196
 20
75.446509246
 10
161.2205247209
 20
75.4462485724
 10
161.2077779771
 20
75.4453883919
 10
161.1949341027
 20
75.4439376537
 10
161.1819926146
 20
75.441905823
 10
161.1689609236
 20
75.4393035271
 10
161.1558464409
 20
75.4361413931
 10
161.1426565774
 20
75.432430048
 10
161.1293987441
 20
75.428180119
 10
161.1141700721
 20
75.4226763057
 10
161.0988815927
 20
75.4165034025
 10
161.0835526427
 20
75.4096823039
 10
161.0682025588
 20
75.4022339046
 10
161.0528506776
 20
75.3941790992
 10
161.0375163359
 20
75.3855387824
 10
161.0225998304
 20
75.376564999
 10
161.0077365012
 20
75.3670430225
 10
160.9929444646
 20
75.3569614639
 10
160.9782418373
 20
75.3463089339
 10
160.9636467358
 20
75.3350740436
 10
160.950634266
 20
75.3244705531
 10
160.9377391327
 20
75.3133912489
 10
160.9249771495
 20
75.301840086
 10
160.91236413
 20
75.2898210192
 10
160.8999158876
 20
75.2773380033
 10
160.8865706628
 20
75.2632295981
 10
160.8734616545
 20
75.2486028972
 10
160.8606110635
 20
75.2334847374
 10
160.8480410908
 20
75.2179019558
 10
160.8357739374
 20
75.201881389
 10
160.8238318043
 20
75.185449874
 10
160.8122368923
 20
75.1686342477
 10
160.8010114025
 20
75.1514613468
 10
160.7907666828
 20
75.1349376924
 10
160.7808793436
 20
75.1181393077
 10
160.7713574259
 20
75.1010862225
 10
160.7622089707
 20
75.0837984663
 10
160.7534420192
 20
75.0662960692
 10
160.7450646123
 20
75.0485990607
 10
160.7370847912
 20
75.0307274707
 10
160.7315279494
 20
75.0176034138
 10
160.7262170705
 20
75.0044118923
 10
160.7211826073
 20
74.9911675553
 10
160.7164550124
 20
74.9778850518
 10
160.7120647385
 20
74.9645790308
 10
160.7080422385
 20
74.9512641415
 10
160.7044179649
 20
74.9379550328
  0
LINE
  5
268
100
AcDbEntity
  8
0
100
AcDbLine
 62
7
  6
CONTINUOUS
 10
159.8304281017
 20
64.5583519201
 11
159.8304281017
 21
133.5036036652
  0
LINE
  5
269
100
AcDbEntity
  8
CURVE
100
AcDbLine
 62
250
  6
CONTINUOUS
 10
160.6729230036
 20
70.4916820715
 11
160.6729230036
 21
70.1301649629
  0
LINE
  5
26A
100
AcDbEntity
  8
CURVE
100
AcDbLine
 62
250
  6
CONTINUOUS
 10
160.6730078564
 20
68.5717054746
 11
160.6730078564
 21
68.9644246125
  0
LINE
  5
26B
100
AcDbEntity
  8
CURVE
100
AcDbLine
 62
250
  6
CONTINUOUS
 10
160.6730078564
 20
69.6347759064
 11
160.6730078564
 21
69.9960470639
  0
LINE
  5
26C
100
AcDbEntity
  8
CURVE
100
AcDbLine
 62
250
  6
CONTINUOUS
 10
160.6730078564
 20
70.8427228621
 11
160.6730078564
 21
71.2039411919
  0
LINE
  5
26D
100
AcDbEntity
  8
CURVE
100
AcDbLine
 62
250
  6
CONTINUOUS
 10
160.6730078564
 20
71.9231579693
 11
160.6730078564
 21
72.2808446476
  0
LINE
  5
26E
100
AcDbEntity
  8
CURVE
100
AcDbLine
 62
250
  6
CONTINUOUS
 10
160.6730078564
 20
73.0428032427
 11
160.6730078564
 21
73.3925276834
  0
LINE
  5
26F
100
AcDbEntity
  8
CURVE
100
AcDbLine
 62
250
  6
CONTINUOUS
 10
161.3021117311
 20
74.8993110807
 11
161.3021117311
 21
74.6927073631
  0
LINE
  5
270
100
AcDbEntity
  8
CURVE
100
AcDbLine
 62
250
  6
CONTINUOUS
 10
161.5337069312
 20
74.8204923425
 11
161.5337069312
 21
75.0143294361
  0
LINE
  5
271
100
AcDbEntity
  8
CURVE
100
AcDbLine
 62
250
  6
CONTINUOUS
 10
161.5863564724
 20
73.4875419886
 11
161.5863564724
 21
73.8336689598
  0
LINE
  5
272
100
AcDbEntity
  8
CURVE
100
AcDbLine
 62
250
  6
CONTINUOUS
 10
161.8048022632
 20
74.0151408905
 11
161.8048022632
 21
73.5228141088
  0
LINE
  5
273
100
AcDbEntity
  8
CURVE
100
AcDbLine
 62
250
  6
CONTINUOUS
 10
162.0871068674
 20
74.6309703767
 11
162.0871068674
 21
74.2499460458
  0
LINE
  5
274
100
AcDbEntity
  8
CURVE
100
AcDbLine
 62
250
  6
CONTINUOUS
 10
162.0871068674
 20
73.5642106766
 11
162.0871068674
 21
73.206614931
  0
LINE
  5
275
100
AcDbEntity
  8
CURVE
100
AcDbLine
 62
250
  6
CONTINUOUS
 10
162.0871068674
 20
73.1498469658
 11
162.0871068674
 21
72.7961873056
  0
LINE
  5
276
100
AcDbEntity
  8
CURVE
100
AcDbLine
 62
250
  6
CONTINUOUS
 10
162.0871068674
 20
72.2920669899
 11
162.0871068674
 21
72.2413646666
  0
LINE
  5
277
100
AcDbEntity
  8
CURVE
100
AcDbLine
 62
250
  6
CONTINUOUS
 10
162.0871068674
 20
71.7392448695
 11
162.0871068674
 21
71.3933906963
  0
LINE
  5
278
100
AcDbEntity
  8
CURVE
100
AcDbLine
 62
250
  6
CONTINUOUS
 10
162.0871068674
 20
70.1463911911
 11
162.0871068674
 21
69.8278038278
  0
LINE
  5
279
100
AcDbEntity
  8
CURVE
100
AcDbLine
 62
250
  6
CONTINUOUS
 10
162.0871068674
 20
70.8372568948
 11
162.0871068674
 21
71.1987740035
  0
LINE
  5
27A
100
AcDbEntity
  8
CURVE
100
AcDbLine
 62
250
  6
CONTINUOUS
 10
162.087107055
 20
74.7371294507
 11
162.087107055
 21
75.0971924044
  0
LINE
  5
27B
100
AcDbEntity
  8
CURVE
100
AcDbLine
 62
250
  6
CONTINUOUS
 10
162.087107055
 20
75.6508067287
 11
162.087107055
 21
75.9985446304
  0
LWPOLYLINE
  5
27C
100
AcDbEntity
  8
CURVE
100
AcDbPolyline
 62
250
  6
CONTINUOUS
 90
48
 70
0
 10
161.5337069312
 20
75.0143294361
 10
161.5337646353
 20
75.019924607
 10
161.533938377
 20
75.0255876797
 10
161.5342291006
 20
75.0313133976
 10
161.53463775
 20
75.0370965037
 10
161.5351652695
 20
75.0429317413
 10
161.5358126032
 20
75.0488138534
 10
161.5365806953
 20
75.0547375834
 10
161.5374704898
 20
75.0606976742
 10
161.538482931
 20
75.0666888691
 10
161.5396189628
 20
75.0727059112
 10
161.5408795296
 20
75.0787435437
 10
161.5422655754
 20
75.0847965098
 10
161.5437780444
 20
75.0908595526
 10
161.5454178807
 20
75.0969274153
 10
161.5471860284
 20
75.102994841
 10
161.5490834317
 20
75.109056573
 10
161.5511110347
 20
75.1151073543
 10
161.5533256198
 20
75.1212958038
 10
161.5556738373
 20
75.1274638672
 10
161.5581514082
 20
75.1336082023
 10
161.5607540536
 20
75.1397254669
 10
161.5634774945
 20
75.1458123187
 10
161.5663174518
 20
75.1518654155
 10
161.5692696466
 20
75.1578814152
 10
161.5723298
 20
75.1638569753
 10
161.5754936328
 20
75.1697887538
 10
161.5787568661
 20
75.1756734083
 10
161.582115221
 20
75.1815075968
 10
161.5855644184
 20
75.1872879768
 10
161.5891001794
 20
75.1930112063
 10
161.5927182249
 20
75.1986739429
 10
161.596414276
 20
75.2042728445
 10
161.6001840536
 20
75.2098045688
 10
161.6040232789
 20
75.2152657735
 10
161.6079276727
 20
75.2206531166
 10
161.6118929562
 20
75.2259632556
 10
161.6159148503
 20
75.2311928485
 10
161.619989076
 20
75.2363385529
 10
161.6241113543
 20
75.2413970267
 10
161.6282774063
 20
75.2463649276
 10
161.6324829529
 20
75.2512389134
 10
161.6367237152
 20
75.2560156418
 10
161.6409954142
 20
75.2606917707
 10
161.6452937709
 20
75.2652639577
 10
161.6496145063
 20
75.2697288607
 10
161.6539533413
 20
75.2740831375
 10
161.6583059971
 20
75.2783234458
  0
LINE
  5
27D
100
AcDbEntity
  8
0
100
AcDbLine
 62
7
  6
CONTINUOUS
 10
163.8923610864
 20
66.2843957729
 11
163.8923610864
 21
135.5653735995
  0
LWPOLYLINE
  5
27E
100
AcDbEntity
  8
CURVE
100
AcDbPolyline
 62
250
  6
CONTINUOUS
 90
49
 70
0
 10
160.9055897844
 20
74.7776628387
 10
160.9062908726
 20
74.7846391095
 10
160.9071381944
 20
74.7916889489
 10
160.9081313389
 20
74.7988048535
 10
160.909269895
 20
74.8059793199
 10
160.9105534515
 20
74.8132048448
 10
160.9119815974
 20
74.8204739247
 10
160.9135539215
 20
74.8277790563
 10
160.9152700128
 20
74.8351127362
 10
160.9171294601
 20
74.842467461
 10
160.9191318525
 20
74.8498357273
 10
160.9212767786
 20
74.8572100317
 10
160.9235638276
 20
74.8645828709
 10
160.9259925882
 20
74.8719467414
 10
160.9285626494
 20
74.8792941399
 10
160.9312736001
 20
74.8866175629
 10
160.9341250291
 20
74.8939095072
 10
160.9371165255
 20
74.9011624693
 10
160.940247678
 20
74.9083689458
 10
160.9435180756
 20
74.9155214333
 10
160.9469273071
 20
74.9226124285
 10
160.9504749616
 20
74.929634428
 10
160.9541606279
 20
74.9365799283
 10
160.9579838948
 20
74.9434414262
 10
160.9619443514
 20
74.9502114181
 10
160.9660181404
 20
74.9568470741
 10
160.9702208467
 20
74.9633794932
 10
160.9745460794
 20
74.9698033832
 10
160.9789874477
 20
74.9761134522
 10
160.9835385608
 20
74.9823044082
 10
160.9881930277
 20
74.988370959
 10
160.9929444578
 20
74.9943078128
 10
160.9977864601
 20
75.0001096773
 10
161.0027126437
 20
75.0057712606
 10
161.007716618
 20
75.0112872707
 10
161.0127919919
 20
75.0166524154
 10
161.0179323747
 20
75.0218614029
 10
161.0231313756
 20
75.0269089409
 10
161.0283826036
 20
75.0317897376
 10
161.0336796681
 20
75.0364985008
 10
161.039016178
 20
75.0410299385
 10
161.0443857426
 20
75.0453787587
 10
161.0497819711
 20
75.0495396694
 10
161.0551984725
 20
75.0535073784
 10
161.0606288562
 20
75.0572765938
 10
161.0660667311
 20
75.0608420236
 10
161.0715057065
 20
75.0641983756
 10
161.0769393916
 20
75.0673403579
 10
161.0823613955
 20
75.0702626784
  0
LWPOLYLINE
  5
27F
100
AcDbEntity
  8
CURVE
100
AcDbPolyline
 62
250
  6
CONTINUOUS
 90
32
 70
0
 10
160.7044179649
 20
74.9379550328
 10
160.6985372949
 20
74.9140878449
 10
160.6931622485
 20
74.8902725544
 10
160.6882682978
 20
74.8665146422
 10
160.683830915
 20
74.8428195891
 10
160.6798255724
 20
74.8191928759
 10
160.6762277422
 20
74.7956399835
 10
160.6730128966
 20
74.7721663928
 10
160.670156508
 20
74.7487775845
 10
160.6676340485
 20
74.7254790395
 10
160.6654209903
 20
74.7022762387
 10
160.6634928058
 20
74.6791746629
 10
160.6618249671
 20
74.6561797929
 10
160.6597631794
 20
74.6218042745
 10
160.6582134658
 20
74.5876754192
 10
160.6571544787
 20
74.5537861234
 10
160.6565648702
 20
74.5201292831
 10
160.6564232927
 20
74.4866977947
 10
160.6567083982
 20
74.4534845543
 10
160.6573988391
 20
74.4204824581
 10
160.6584732676
 20
74.3876844024
 10
160.6599103359
 20
74.3550832833
 10
160.6616886963
 20
74.3226719971
 10
160.6637870011
 20
74.2904434399
 10
160.6661839023
 20
74.258390508
 10
160.6688580523
 20
74.2265060976
 10
160.6717881034
 20
74.1947831049
 10
160.6749527077
 20
74.1632144261
 10
160.6783305174
 20
74.1317929575
 10
160.6819001849
 20
74.1005115951
 10
160.6856403624
 20
74.0693632353
 10
160.689529702
 20
74.0383407742
  0
LINE
  5
280
100
AcDbEntity
  8
0
100
AcDbLine
 62
7
  6
CONTINUOUS
 10
158.3919676189
 20
133.1447869186
 11
159.8089267498
 21
133.5162844417
  0
LINE
  5
281
100
AcDbEntity
  8
0
100
AcDbLine
 62
7
  6
CONTINUOUS
 10
158.3919676189
 20
133.1447869186
 11
158.1129916848
 21
133.6259492302
  0
LINE
  5
282
100
AcDbEntity
  8
0
100
AcDbLine
 62
7
  6
CONTINUOUS
 10
159.8089267498
 20
133.5162844417
 11
159.1225284022
 21
134.7001464715
  0
LINE
  5
283
100
AcDbEntity
  8
0
100
AcDbLine
 62
7
  6
CONTINUOUS
 10
158.1129916848
 20
133.6259492302
 11
130.7101468447
 21
147.3273716503
  0
LINE
  5
284
100
AcDbEntity
  8
0
100
AcDbLine
 62
7
  6
CONTINUOUS
 10
159.1228908324
 20
134.7239249418
 11
131.1135997587
 21
148.7285704786
  0
LINE
  5
285
100
AcDbEntity
  8
0
100
AcDbLine
 62
7
  6
CONTINUOUS
 10
159.8089267498
 20
133.5162844417
 11
159.8304281017
 21
133.5036036652
  0
LINE
  5
286
100
AcDbEntity
  8
0
100
AcDbLine
 62
7
  6
CONTINUOUS
 10
163.1848238171
 20
136.785694876
 11
163.8923610864
 21
135.5653735995
  0
LINE
  5
287
100
AcDbEntity
  8
CURVE
100
AcDbLine
 62
7
  6
CONTINUOUS
 10
160.6943357187
 20
74.8933547573
 11
161.2467233269
 21
75.4457423655
  0
LINE
  5
288
100
AcDbEntity
  8
CURVE
100
AcDbLine
 62
7
  6
CONTINUOUS
 10
160.6571307072
 20
74.4361283177
 11
160.9007833772
 21
74.6797809877
  0
LINE
  5
289
100
AcDbEntity
  8
CURVE
100
AcDbLine
 62
7
  6
CONTINUOUS
 10
161.2706303989
 20
75.0496280095
 11
162.087107055
 21
75.8661046656
  0
LINE
  5
28A
100
AcDbEntity
  8
CURVE
100
AcDbLine
 62
7
  6
CONTINUOUS
 10
160.6884459608
 20
74.0474221433
 11
161.5337069312
 21
74.8926831137
  0
LINE
  5
28B
100
AcDbEntity
  8
CURVE
100
AcDbLine
 62
7
  6
CONTINUOUS
 10
161.5092423375
 20
74.448197092
 11
162.087107055
 21
75.0260618095
  0
LINE
  5
28C
100
AcDbEntity
  8
CURVE
100
AcDbLine
 62
7
  6
CONTINUOUS
 10
160.6730078564
 20
73.1919411828
 11
162.0871068674
 21
74.6060401939
  0
LINE
  5
28D
100
AcDbEntity
  8
CURVE
100
AcDbLine
 62
7
  6
CONTINUOUS
 10
160.9793822915
 20
73.07829419
 11
161.351806757
 21
73.4507186554
  0
LINE
  5
28E
100
AcDbEntity
  8
CURVE
100
AcDbLine
 62
7
  6
CONTINUOUS
 10
161.5863564724
 20
73.6852683709
 11
161.8048022632
 21
73.9037141617
  0
LINE
  5
28F
100
AcDbEntity
  8
CURVE
100
AcDbLine
 62
7
  6
CONTINUOUS
 10
161.4544346057
 20
73.1333250761
 11
161.8506460818
 21
73.5295365522
  0
LWPOLYLINE
  5
290
100
AcDbEntity
  8
CURVE
100
AcDbPolyline
 62
250
  6
CONTINUOUS
 90
7
 70
0
 10
161.6583059971
 20
75.2783234458
 10
161.6778751929
 20
75.2968952493
 10
161.6975451671
 20
75.3151592596
 10
161.7173047819
 20
75.3331488536
 10
161.7371428992
 20
75.3508974081
 10
161.757048381
 20
75.3684383
 10
161.7770100896
 20
75.3858049063
  0
LINE
  5
291
100
AcDbEntity
  8
CURVE
100
AcDbLine
 62
250
  6
CONTINUOUS
 10
160.6730078564
 20
73.3925276834
 11
162.0871068674
 21
74.6309703767
  0
LINE
  5
292
100
AcDbEntity
  8
CURVE
100
AcDbLine
 62
250
  6
CONTINUOUS
 10
161.7770100896
 20
75.3858049063
 11
161.8170576348
 21
75.4201487694
  0
LINE
  5
293
100
AcDbEntity
  8
CURVE
100
AcDbLine
 62
250
  6
CONTINUOUS
 10
161.8973373755
 20
75.4882136506
 11
162.087107055
 21
75.6508067287
  0
LWPOLYLINE
  5
294
100
AcDbEntity
  8
CURVE
100
AcDbPolyline
 62
250
  6
CONTINUOUS
 90
44
 70
0
 10
161.660582135
 20
75.6470561719
 10
161.6496223402
 20
75.6377193945
 10
161.6386119499
 20
75.62817455
 10
161.6275282052
 20
75.6183583601
 10
161.6214370231
 20
75.6128616915
 10
161.6153233139
 20
75.6072666926
 10
161.6091932224
 20
75.6015748549
 10
161.603052893
 20
75.5957876697
 10
161.5969084704
 20
75.5899066285
 10
161.5907660992
 20
75.5839332226
 10
161.5846319238
 20
75.5778689435
 10
161.578512089
 20
75.5717152826
 10
161.5724127393
 20
75.5654737312
 10
161.5663400192
 20
75.5591457808
 10
161.5603000733
 20
75.5527329228
 10
161.5542990463
 20
75.5462366486
 10
161.5483430826
 20
75.5396584495
 10
161.5424383269
 20
75.532999817
 10
161.5365909238
 20
75.5262622425
 10
161.5308070178
 20
75.5194472173
 10
161.5250927535
 20
75.512556233
 10
161.5194542755
 20
75.5055907808
 10
161.5138977284
 20
75.4985523523
 10
161.5084292567
 20
75.4914424387
 10
161.5030550051
 20
75.4842625315
 10
161.497781118
 20
75.4770141222
 10
161.4926137401
 20
75.469698702
 10
161.487559016
 20
75.4623177624
 10
161.4826230903
 20
75.4548727949
 10
161.4778121074
 20
75.4473652907
 10
161.4731322121
 20
75.4397967414
 10
161.4685895488
 20
75.4321686382
 10
161.4641902622
 20
75.4244824727
 10
161.4599404968
 20
75.4167397363
 10
161.4558463972
 20
75.4089419202
 10
161.451914108
 20
75.4010905159
 10
161.4481497738
 20
75.3931870149
 10
161.4445595392
 20
75.3852329085
 10
161.4411495486
 20
75.3772296882
 10
161.4379259468
 20
75.3691788453
 10
161.4348948783
 20
75.3610818712
 10
161.4320624876
 20
75.3529402574
 10
161.4294349194
 20
75.3447554952
 10
161.4270183182
 20
75.336529076
  0
LINE
  5
295
100
AcDbEntity
  8
CURVE
100
AcDbLine
 62
250
  6
CONTINUOUS
 10
161.8170576348
 20
75.4201487694
 11
161.8973373755
 21
75.4882136506
  0
LINE
  5
296
100
AcDbEntity
  8
CURVE
100
AcDbLine
 62
250
  6
CONTINUOUS
 10
161.6824409737
 20
75.665358639
 11
161.660582135
 21
75.6470561719
  0
LINE
  5
297
100
AcDbEntity
  8
CURVE
100
AcDbLine
 62
250
  6
CONTINUOUS
 10
161.8065812474
 20
75.7682142747
 11
161.6824409737
 21
75.665358639
  0
LINE
  5
298
100
AcDbEntity
  8
CURVE
100
AcDbLine
 62
250
  6
CONTINUOUS
 10
162.087107055
 20
75.9985446304
 11
162.0366211668
 21
75.95680767
  0
LINE
  5
299
100
AcDbEntity
  8
CURVE
100
AcDbLine
 62
250
  6
CONTINUOUS
 10
162.0366211668
 20
75.95680767
 11
161.8065812474
 21
75.7682142747
  0
LINE
  5
29A
100
AcDbEntity
  8
0
100
AcDbLine
 62
7
  6
CONTINUOUS
 10
163.1848238171
 20
136.785694876
 11
134.9014135459
 21
150.9274000117
  0
LINE
  5
29B
100
AcDbEntity
  8
CURVE
100
AcDbLine
 62
7
  6
CONTINUOUS
 10
160.6730078564
 20
71.9318768988
 11
161.5783058612
 21
72.8371749036
  0
LINE
  5
29C
100
AcDbEntity
  8
CURVE
100
AcDbLine
 62
7
  6
CONTINUOUS
 10
161.9294869198
 20
73.1883559622
 11
162.0871068674
 21
73.3459759098
  0
LINE
  5
29D
100
AcDbEntity
  8
CURVE
100
AcDbLine
 62
7
  6
CONTINUOUS
 10
161.1012402362
 20
71.9400878506
 11
161.4318991693
 21
72.2707467837
  0
LINE
  5
29E
100
AcDbEntity
  8
CURVE
100
AcDbLine
 62
7
  6
CONTINUOUS
 10
161.7775651373
 20
72.6164127517
 11
162.0871068674
 21
72.9259544818
  0
LINE
  5
29F
100
AcDbEntity
  8
CURVE
100
AcDbLine
 62
7
  6
CONTINUOUS
 10
160.6730078564
 20
71.0918340427
 11
161.8660476208
 21
72.2848738071
  0
LINE
  5
2A0
100
AcDbEntity
  8
CURVE
100
AcDbLine
 62
7
  6
CONTINUOUS
 10
160.9529190042
 20
70.9517237625
 11
161.4939955434
 21
71.4928003017
  0
LINE
  5
2A1
100
AcDbEntity
  8
CURVE
100
AcDbLine
 62
7
  6
CONTINUOUS
 10
160.6729230036
 20
70.2517063339
 11
161.1528744789
 21
70.7316578092
  0
LINE
  5
2A2
100
AcDbEntity
  8
CURVE
100
AcDbLine
 62
7
  6
CONTINUOUS
 10
161.6408162008
 20
71.2195995311
 11
162.0871068674
 21
71.6658901977
  0
LINE
  5
2A3
100
AcDbEntity
  8
CURVE
100
AcDbLine
 62
7
  6
CONTINUOUS
 10
160.6730078564
 20
69.8317697586
 11
160.8568286098
 21
70.015590512
  0
LINE
  5
2A4
100
AcDbEntity
  8
CURVE
100
AcDbLine
 62
7
  6
CONTINUOUS
 10
161.2698831177
 20
70.4286450199
 11
161.992917335
 21
71.1516792373
  0
LINE
  5
2A5
100
AcDbEntity
  8
CURVE
100
AcDbLine
 62
7
  6
CONTINUOUS
 10
160.935539767
 20
69.6742802413
 11
161.3268183947
 21
70.0655588689
  0
LINE
  5
2A6
100
AcDbEntity
  8
CURVE
100
AcDbLine
 62
7
  6
CONTINUOUS
 10
161.4299585742
 20
69.7486776204
 11
161.7968081796
 21
70.1155272258
  0
LINE
  5
2A7
100
AcDbEntity
  8
CURVE
100
AcDbLine
 62
7
  6
CONTINUOUS
 10
160.6730078564
 20
68.5717054746
 11
162.0871068674
 21
69.9858044856
  0
LINE
  5
2A8
100
AcDbEntity
  8
CURVE
100
AcDbLine
 62
250
  6
CONTINUOUS
 10
162.0871068674
 20
72.2413646666
 11
161.1637265275
 21
71.355569732
  0
LINE
  5
2A9
100
AcDbEntity
  8
CURVE
100
AcDbLine
 62
250
  6
CONTINUOUS
 10
160.6730078564
 20
71.2039411919
 11
161.4581198292
 21
71.9541968471
  0
LINE
  5
2AA
100
AcDbEntity
  8
CURVE
100
AcDbLine
 62
250
  6
CONTINUOUS
 10
162.0871068674
 20
74.2499460458
 11
161.8048022632
 21
74.0151408905
  0
LINE
  5
2AB
100
AcDbEntity
  8
CURVE
100
AcDbLine
 62
250
  6
CONTINUOUS
 10
161.5863564724
 20
73.8336689598
 11
161.0615665682
 21
73.4051521487
  0
LINE
  5
2AC
100
AcDbEntity
  8
CURVE
100
AcDbLine
 62
250
  6
CONTINUOUS
 10
160.6730078564
 20
72.2808446476
 11
162.0871068674
 21
73.1498469658
  0
LINE
  5
2AD
100
AcDbEntity
  8
CURVE
100
AcDbLine
 62
250
  6
CONTINUOUS
 10
162.0871068674
 20
72.7961873056
 11
161.1675767239
 21
72.2621458331
  0
LWPOLYLINE
  5
2AE
100
AcDbEntity
  8
CURVE
100
AcDbPolyline
 62
250
  6
CONTINUOUS
 90
59
 70
0
 10
161.0823613955
 20
75.0702626784
 10
161.0885011893
 20
75.0733524484
 10
161.0946884618
 20
75.0762745897
 10
161.1009147389
 20
75.0790247803
 10
161.1071715466
 20
75.0815986988
 10
161.1134504108
 20
75.0839920232
 10
161.1197428573
 20
75.0862004319
 10
161.1260404121
 20
75.0882196032
 10
161.1323346011
 20
75.0900452152
 10
161.1386169502
 20
75.0916729463
 10
161.1448789852
 20
75.0930984747
 10
161.1511122322
 20
75.0943174787
 10
161.1573082169
 20
75.0953256365
 10
161.1634584653
 20
75.0961186265
 10
161.1695545034
 20
75.0966921267
 10
161.175587857
 20
75.0970418157
 10
161.181550052
 20
75.0971633715
 10
161.1874326143
 20
75.0970524725
 10
161.1932270699
 20
75.0967047969
 10
161.1989249446
 20
75.0961160229
 10
161.2045177643
 20
75.095281829
 10
161.2099970551
 20
75.0941978932
 10
161.2153543426
 20
75.0928598939
 10
161.220581153
 20
75.0912635093
 10
161.225669012
 20
75.0894044177
 10
161.2306094456
 20
75.0872782974
 10
161.2353939797
 20
75.0848808266
 10
161.2400141402
 20
75.0822076835
 10
161.244461453
 20
75.0792545465
 10
161.248727444
 20
75.0760170938
 10
161.252803639
 20
75.0724910037
 10
161.256632815
 20
75.0687277831
 10
161.2602731318
 20
75.0646903676
 10
161.2637287042
 20
75.0603896961
 10
161.267003647
 20
75.0558367077
 10
161.270102075
 20
75.0510423412
 10
161.2730281028
 20
75.0460175356
 10
161.2757858452
 20
75.0407732297
 10
161.278379417
 20
75.0353203625
 10
161.2808129329
 20
75.029669873
 10
161.2830905076
 20
75.0238326999
 10
161.285216256
 20
75.0178197823
 10
161.2871942927
 20
75.0116420591
 10
161.2890287326
 20
75.0053104692
 10
161.2907236902
 20
74.9988359514
 10
161.2922832805
 20
74.9922294448
 10
161.2937116181
 20
74.9855018883
 10
161.2950128179
 20
74.9786642207
 10
161.2961909944
 20
74.971727381
 10
161.2972502626
 20
74.9647023082
 10
161.2981947371
 20
74.957599941
 10
161.2990285327
 20
74.9504312185
 10
161.2997557641
 20
74.9432070796
 10
161.3003805461
 20
74.9359384632
 10
161.3009069935
 20
74.9286363082
 10
161.3013392209
 20
74.9213115535
 10
161.3016813432
 20
74.9139751381
 10
161.301937475
 20
74.9066380009
 10
161.3021117311
 20
74.8993110807
  0
LINE
  5
2AF
100
AcDbEntity
  8
CURVE
100
AcDbLine
 62
250
  6
CONTINUOUS
 10
161.4270183182
 20
75.336529076
 11
161.4186622276
 21
75.3323510307
  0
LINE
  5
2B0
100
AcDbEntity
  8
CURVE
100
AcDbLine
 62
250
  6
CONTINUOUS
 10
162.087107055
 20
75.0971924044
 11
161.5337069312
 21
74.8204923425
  0
LINE
  5
2B1
100
AcDbEntity
  8
CURVE
100
AcDbLine
 62
250
  6
CONTINUOUS
 10
161.3021117311
 20
74.6927073631
 11
160.9139140625
 21
74.4986085288
  0
LINE
  5
2B2
100
AcDbEntity
  8
CURVE
100
AcDbLine
 62
250
  6
CONTINUOUS
 10
160.689529702
 20
74.0383407742
 11
162.087107055
 21
74.7371294507
  0
LINE
  5
2B3
100
AcDbEntity
  8
CURVE
100
AcDbLine
 62
250
  6
CONTINUOUS
 10
162.0871068674
 20
69.8278038278
 11
160.6730078564
 21
68.5717054746
  0
LINE
  5
2B4
100
AcDbEntity
  8
CURVE
100
AcDbLine
 62
250
  6
CONTINUOUS
 10
160.6730078564
 20
68.9644246125
 11
161.6463764031
 21
69.7812429659
  0
LINE
  5
2B5
100
AcDbEntity
  8
CURVE
100
AcDbLine
 62
250
  6
CONTINUOUS
 10
162.0871068674
 20
71.1987740035
 11
160.6729230036
 21
70.4916820715
  0
LINE
  5
2B6
100
AcDbEntity
  8
CURVE
100
AcDbLine
 62
250
  6
CONTINUOUS
 10
160.6729230036
 20
70.1301649629
 11
162.0871068674
 21
70.8372568948
  0
LINE
  5
2B7
100
AcDbEntity
  8
CURVE
100
AcDbLine
 62
250
  6
CONTINUOUS
 10
161.1637265275
 20
71.355569732
 11
162.0871068674
 21
71.7392448695
  0
LINE
  5
2B8
100
AcDbEntity
  8
CURVE
100
AcDbLine
 62
250
  6
CONTINUOUS
 10
162.0871068674
 20
71.3933906963
 11
160.6730078564
 21
70.8427228621
  0
LINE
  5
2B9
100
AcDbEntity
  8
0
100
AcDbLine
 62
7
  6
CONTINUOUS
 10
158.1129916848
 20
64.7400907103
 11
158.3919676189
 21
64.9422770878
  0
LINE
  5
2BA
100
AcDbEntity
  8
0
100
AcDbLine
 62
7
  6
CONTINUOUS
 10
159.1225284022
 20
64.0485827689
 11
159.8089267498
 21
64.5460464511
  0
LINE
  5
2BB
100
AcDbEntity
  8
0
100
AcDbLine
 62
7
  6
CONTINUOUS
 10
163.8923610864
 20
66.2843957729
 11
163.1848238171
 21
65.7716117657
  0
LINE
  5
2BC
100
AcDbEntity
  8
0
100
AcDbLine
 62
7
  6
CONTINUOUS
 10
159.8304281017
 20
64.5583519201
 11
159.8089267498
 21
64.5460464511
  0
LINE
  5
2BD
100
AcDbEntity
  8
0
100
AcDbLine
 62
7
  6
CONTINUOUS
 10
159.8304281017
 20
64.5583519201
 11
163.8923610864
 21
66.2843957729
  0
LINE
  5
2BE
100
AcDbEntity
  8
0
100
AcDbLine
 62
7
  6
CONTINUOUS
 10
159.1228908324
 20
64.0455679128
 11
163.1848238171
 21
65.7716117657
  0
ENDSEC
  0
SECTION
  2
OBJECTS
  0
DICTIONARY
  5
C
100
AcDbDictionary
280
0
281
1
  3
ACAD_GROUP
350
D
  3
ACAD_MLINESTYLE
350
17
  3
ACAD_LAYOUT
350
1A
  3
ACAD_PLOTSETTINGS
350
19
  3
ACAD_PLOTSTYLENAME
350
E
  0
DICTIONARY
  5
D
102
{ACAD_REACTORS
330
C
102
}
100
AcDbDictionary
280
0
281
1
  0
ACDBDICTIONARYWDFLT
  5
E
102
{ACAD_REACTORS
330
C
102
}
100
AcDbDictionary
281
1
  3
Normal
350
F
100
AcDbDictionaryWithDefault
340
F
  0
DICTIONARY
  5
17
102
{ACAD_REACTORS
330
C
102
}
100
AcDbDictionary
280
0
281
1
  3
Standard
350
18
  0
DICTIONARY
  5
19
102
{ACAD_REACTORS
330
C
102
}
100
AcDbDictionary
281
1
  0
DICTIONARY
  5
1A
102
{ACAD_REACTORS
330
C
102
}
100
AcDbDictionary
281
1
  3
Model
350
2BF
  3
Layout1
350
2C0
  0
ACDBPLACEHOLDER
  5
F
102
{ACAD_REACTORS
330
E
102
}
  0
MLINESTYLE
  5
18
102
{ACAD_REACTORS
330
17
102
}
100
AcDbMlineStyle
  2
STANDARD
 70
0
  3

 62
256
 51
90.0
 52
90.0
 71
2
 49
0.5
 62
256
  6
BYLAYER
 49
-0.5
 62
256
  6
BYLAYER
  0
LAYOUT
  5
2BF
102
{ACAD_REACTORS
330
1A
102
}
100
AcDbPlotSettings
  1

  2
none_device
  4
ISO_A4_(297.00_x_210.00_MM)
  6

 40
0.0
 41
0.0
 42
0.0
 43
0.0
 44
297.0
 45
210.0
 46
0.0
 47
0.0
 48
0.0
 49
0.0
140
0.0
141
0.0
142
1.0
143
1.0
 70
1024
 72
1
 73
0
 74
0
  7

 75
0
147
1.0
148
0.0
149
0.0
100
AcDbLayout
  1
Model
 70
0
 71
0
 10
0.0
 20
0.0
 11
297.0
 21
210.0
 12
0.0
 22
0.0
 32
0.0
 14
0.0
 24
0.0
 34
0.0
 15
0.0
 25
0.0
 35
0.0
146
0.0
 13
0.0
 23
0.0
 33
0.0
 16
1.0
 26
0.0
 36
0.0
 17
0.0
 27
1.0
 37
0.0
 76
0
330
21C
345
0
346
0
  0
LAYOUT
  5
2C0
102
{ACAD_REACTORS
330
1A
102
}
100
AcDbPlotSettings
  1

  2
none_device
  4
ISO_A4_(297.00_x_210.00_MM)
  6

 40
0.0
 41
0.0
 42
0.0
 43
0.0
 44
297.0
 45
210.0
 46
0.0
 47
0.0
 48
0.0
 49
0.0
140
0.0
141
0.0
142
1.0
143
1.0
 70
0
 72
1
 73
0
 74
0
  7

 75
0
147
1.0
148
0.0
149
0.0
100
AcDbLayout
  1
Layout1
 70
0
 71
1
 10
0.0
 20
0.0
 11
297.0
 21
210.0
 12
0.0
 22
0.0
 32
0.0
 14
0.0
 24
0.0
 34
0.0
 15
0.0
 25
0.0
 35
0.0
146
0.0
 13
0.0
 23
0.0
 33
0.0
 16
1.0
 26
0.0
 36
0.0
 17
0.0
 27
1.0
 37
0.0
 76
0
330
21D
345
0
346
0
  0
ENDSEC
  0
EOF
