  0
SECTION
  2
HEADER
  9
$ACADVER
  1
AC1015
  9
$DWGCODEPAGE
  3
ANSI_1252
  9
$EXTMAX
 10
297.0
 20
210.0
 30
0.0
  9
$EXTMIN
 10
0.0
 20
0.0
 30
0.0
  9
$LIMMIN
 10
0.0
 20
0.0
  9
$LIMMAX
 10
297.0
 20
210.0
  9
$VIEWCTR
 10
148.5
 20
105.0
  9
$VIEWSIZE
 40
210.0
  9
$CLAYER
  8
0
  9
$LTSCALE
 40
16.335
  9
$CELTYPE
  6
BYLAYER
  9
$DIMSCALE
 40
1.0
  9
$DIMASZ
 40
3.0
  9
$DIMEXO
 40
0.5
  9
$DIMDLI
 40
11.286
  9
$DIMEXE
 40
1.5
  9
$DIMCEN
 40
2.673
  9
$DIMLFAC
 40
1.0
  9
$DIMBLK
  1
_FILLED
  9
$DIMTXT
 40
3.0
  9
$DIMTOL
 70
1
  9
$DIMLIM
 70
0
  9
$DIMTFAC
 40
1.0
  9
$DIMTP
 40
0.01
  9
$DIMTM
 40
0.01
  9
$DIMGAP
 40
0.625
  9
$DIMDSEP
 70
44
  9
$PDMODE
 70
3
  9
$PDSIZE
 40
3.0
  9
$HANDSEED
  5
577
  9
$TILEMODE
 70
1
  9
$MEASUREMENT
 70
1
  9
$INSUNITS
 70
4
  0
ENDSEC
  0
SECTION
  2
CLASSES
  0
CLASS
  1
ACDBDICTIONARYWDFLT
  2
AcDbDictionaryWithDefault
  3
AutoCAD 2000
 90
0
280
0
281
0
  0
CLASS
  1
ACDBPLACEHOLDER
  2
AcDbPlaceHolder
  3
AutoCAD 2000
 90
0
280
0
281
0
  0
CLASS
  1
LAYOUT
  2
AcDbLayout
  3
AutoCAD 2000
 90
0
280
0
281
0
  0
ENDSEC
  0
SECTION
  2
TABLES
  0
TABLE
  2
VPORT
  5
8
100
AcDbSymbolTable
 70
2
  0
VPORT
  5
1F4
100
AcDbSymbolTableRecord
100
AcDbViewportTableRecord
  2
*ACTIVE
 70
0
 10
0.0
 20
0.0
 11
1.0
 21
1.0
 12
148.5
 22
105.0
 13
0.0
 23
0.0
 14
1.0
 24
1.0
 15
0.0
 25
0.0
 16
0.0
 26
0.0
 36
1.0
 17
0.0
 27
0.0
 37
0.0
 40
210.0
 41
1.4142857143
 42
50.0
 43
0.0
 44
0.0
 50
0.0
 51
0.0
 71
0
 72
100
 73
1
 74
1
 75
0
 76
0
 77
0
 78
0
  0
ENDTAB
  0
TABLE
  2
LTYPE
  5
5
100
AcDbSymbolTable
 70
6
  0
LTYPE
  5
14
100
AcDbSymbolTableRecord
100
AcDbLinetypeTableRecord
  2
BYBLOCK
 70
0
  3

 72
65
 73
0
 40
0.0
  0
LTYPE
  5
15
100
AcDbSymbolTableRecord
100
AcDbLinetypeTableRecord
  2
BYLAYER
 70
0
  3

 72
65
 73
0
 40
0.0
  0
LTYPE
  5
16
100
AcDbSymbolTableRecord
100
AcDbLinetypeTableRecord
  2
CONTINUOUS
 70
64
  3
Solid line
 72
65
 73
0
 40
0.0
  0
LTYPE
  5
1F5
100
AcDbSymbolTableRecord
100
AcDbLinetypeTableRecord
  2
CENTER
 70
64
  3
____ _ ____ _ ____ _ ____ _ ____ _ ____ _ ____
 72
65
 73
4
 40
0.6
 49
0.375
 74
0
 49
-0.075
 74
0
 49
0.075
 74
0
 49
-0.075
 74
0
  0
LTYPE
  5
1F6
100
AcDbSymbolTableRecord
100
AcDbLinetypeTableRecord
  2
HIDDEN
 70
64
  3
- - - - - - - - - - - - - - - - - - - -
 72
65
 73
2
 40
0.2
 49
0.1
 74
0
 49
-0.1
 74
0
  0
LTYPE
  5
1F7
100
AcDbSymbolTableRecord
100
AcDbLinetypeTableRecord
  2
PHANTOM
 70
64
  3
_____ _ _ _____ _ _ _____ _ _ _____
 72
65
 73
6
 40
0.8
 49
0.45
 74
0
 49
-0.05
 74
0
 49
0.1
 74
0
 49
-0.05
 74
0
 49
0.1
 74
0
 49
-0.05
 74
0
  0
LTYPE
  5
1F8
100
AcDbSymbolTableRecord
100
AcDbLinetypeTableRecord
  2
DOT
 70
64
  3
. . . . . . . . . . . . . . . . . . . .
 72
65
 73
2
 40
0.2
 49
0.1
 74
0
 49
-0.1
 74
0
  0
LTYPE
  5
1F9
100
AcDbSymbolTableRecord
100
AcDbLinetypeTableRecord
  2
DASHED
 70
64
  3
- - - - - - - - - - - - - - - - - - - -
 72
65
 73
2
 40
0.2
 49
0.1
 74
0
 49
-0.1
 74
0
  0
ENDTAB
  0
TABLE
  2
LAYER
  5
2
100
AcDbSymbolTable
 70
36
  0
LAYER
  5
10
100
AcDbSymbolTableRecord
100
AcDbLayerTableRecord
  2
0
 70
0
 62
7
  6
CONTINUOUS
370
-3
390
F
  0
LAYER
  5
1FA
100
AcDbSymbolTableRecord
100
AcDbLayerTableRecord
  2
DEFAULT_1
 70
0
 62
7
  6
CENTER
370
-3
390
F
  0
LAYER
  5
1FB
100
AcDbSymbolTableRecord
100
AcDbLayerTableRecord
  2
DEFAULT_2
 70
0
 62
7
  6
HIDDEN
370
-3
390
F
  0
LAYER
  5
1FC
100
AcDbSymbolTableRecord
100
AcDbLayerTableRecord
  2
DEFAULT_3
 70
0
 62
7
  6
PHANTOM
370
-3
390
F
  0
LAYER
  5
1FD
100
AcDbSymbolTableRecord
100
AcDbLayerTableRecord
  2
ASSI
 70
0
 62
7
  6
CONTINUOUS
370
-3
390
F
  0
LAYER
  5
1FE
100
AcDbSymbolTableRecord
100
AcDbLayerTableRecord
  2
COORDINATE
 70
0
 62
7
  6
CONTINUOUS
370
-3
390
F
  0
LAYER
  5
1FF
100
AcDbSymbolTableRecord
100
AcDbLayerTableRecord
  2
COORD_ORIGINE
 70
0
 62
7
  6
CONTINUOUS
370
-3
390
F
  0
LAYER
  5
200
100
AcDbSymbolTableRecord
100
AcDbLayerTableRecord
  2
COPY_PUBLISH
 70
0
 62
7
  6
CONTINUOUS
370
-3
390
F
  0
LAYER
  5
201
100
AcDbSymbolTableRecord
100
AcDbLayerTableRecord
  2
COSMETIC
 70
0
 62
7
  6
CONTINUOUS
370
-3
390
F
  0
LAYER
  5
202
100
AcDbSymbolTableRecord
100
AcDbLayerTableRecord
  2
COSMETICI
 70
0
 62
7
  6
CONTINUOUS
370
-3
390
F
  0
LAYER
  5
203
100
AcDbSymbolTableRecord
100
AcDbLayerTableRecord
  2
CURVE
 70
0
 62
7
  6
CONTINUOUS
370
-3
390
F
  0
LAYER
  5
204
100
AcDbSymbolTableRecord
100
AcDbLayerTableRecord
  2
DRAFT
 70
0
 62
7
  6
CONTINUOUS
370
-3
390
F
  0
LAYER
  5
205
100
AcDbSymbolTableRecord
100
AcDbLayerTableRecord
  2
IMPORT_IGES
 70
0
 62
7
  6
CONTINUOUS
370
-3
390
F
  0
LAYER
  5
206
100
AcDbSymbolTableRecord
100
AcDbLayerTableRecord
  2
INTFCLR_2
 70
0
 62
7
  6
CONTINUOUS
370
-3
390
F
  0
LAYER
  5
207
100
AcDbSymbolTableRecord
100
AcDbLayerTableRecord
  2
NOTE
 70
0
 62
7
  6
CONTINUOUS
370
-3
390
F
  0
LAYER
  5
208
100
AcDbSymbolTableRecord
100
AcDbLayerTableRecord
  2
PIANI
 70
0
 62
7
  6
CONTINUOUS
370
-3
390
F
  0
LAYER
  5
209
100
AcDbSymbolTableRecord
100
AcDbLayerTableRecord
  2
PIANI_ORIGINE
 70
0
 62
7
  6
CONTINUOUS
370
-3
390
F
  0
LAYER
  5
20A
100
AcDbSymbolTableRecord
100
AcDbLayerTableRecord
  2
PIANI_RIFERIMENTO
 70
0
 62
7
  6
CONTINUOUS
370
-3
390
F
  0
LAYER
  5
20B
100
AcDbSymbolTableRecord
100
AcDbLayerTableRecord
  2
PUNTI
 70
0
 62
7
  6
CONTINUOUS
370
-3
390
F
  0
LAYER
  5
20C
100
AcDbSymbolTableRecord
100
AcDbLayerTableRecord
  2
RACCORDO
 70
0
 62
7
  6
CONTINUOUS
370
-3
390
F
  0
LAYER
  5
20D
100
AcDbSymbolTableRecord
100
AcDbLayerTableRecord
  2
SIMBOLI
 70
0
 62
7
  6
CONTINUOUS
370
-3
390
F
  0
LAYER
  5
20E
100
AcDbSymbolTableRecord
100
AcDbLayerTableRecord
  2
SMUSSO
 70
0
 62
7
  6
CONTINUOUS
370
-3
390
F
  0
LAYER
  5
20F
100
AcDbSymbolTableRecord
100
AcDbLayerTableRecord
  2
SNAPLINE
 70
0
 62
7
  6
CONTINUOUS
370
-3
390
F
  0
LAYER
  5
210
100
AcDbSymbolTableRecord
100
AcDbLayerTableRecord
  2
SUPERFICI
 70
0
 62
7
  6
CONTINUOUS
370
-3
390
F
  0
LAYER
  5
211
100
AcDbSymbolTableRecord
100
AcDbLayerTableRecord
  2
TRASH
 70
0
 62
7
  6
CONTINUOUS
370
-3
390
F
  0
LAYER
  5
212
100
AcDbSymbolTableRecord
100
AcDbLayerTableRecord
  2
XSEC_DATUMS
 70
0
 62
7
  6
CONTINUOUS
370
-3
390
F
  0
ENDTAB
  0
TABLE
  2
STYLE
  5
3
100
AcDbSymbolTable
 70
1
  0
STYLE
  5
11
100
AcDbSymbolTableRecord
100
AcDbTextStyleTableRecord
  2
STANDARD
 70
0
 40
0.0
 41
0.8
 50
0.0
 71
0
 42
0.2
  3
txt
  4

  0
STYLE
  5
213
100
AcDbSymbolTableRecord
100
AcDbTextStyleTableRecord
  2
TEXTSTYLE_1
 70
0
 40
0.0
 41
0.8
 50
0.0
 71
0
 42
0.2
  3
gdt
  4

  0
ENDTAB
  0
TABLE
  2
VIEW
  5
6
100
AcDbSymbolTable
 70
0
  0
ENDTAB
  0
TABLE
  2
UCS
  5
7
100
AcDbSymbolTable
 70
0
  0
ENDTAB
  0
TABLE
  2
APPID
  5
9
100
AcDbSymbolTable
 70
1
  0
APPID
  5
214
100
AcDbSymbolTableRecord
100
AcDbRegAppTableRecord
  2
ACAD
 70
0
  0
ENDTAB
  0
TABLE
  2
BLOCK_RECORD
  5
1
100
AcDbSymbolTable
 70
0
  0
BLOCK_RECORD
  5
215
100
AcDbSymbolTableRecord
100
AcDbBlockTableRecord
  2
*Model_Space
  0
BLOCK_RECORD
  5
216
100
AcDbSymbolTableRecord
100
AcDbBlockTableRecord
  2
*Paper_Space
  0
ENDTAB
  0
TABLE
  2
DIMSTYLE
  5
A
100
AcDbSymbolTable
 70
1
100
AcDbDimStyleTable
 71
0
  0
DIMSTYLE
105
217
100
AcDbSymbolTableRecord
100
AcDbDimStyleTableRecord
  2
STANDARD
 70
0
  3

  4

 40
1.0
 41
3.0
 42
0.5
 43
0.38
 44
1.5
 45
0.0
 46
0.0
 47
0.01
 48
0.01
140
3.0
141
0.09
142
0.0
143
25.4
144
1.0
145
0.0
146
1.0
147
0.625
 71
1.0
 72
0.0
 73
0
 74
0
 75
0
 76
0
 77
1
 78
8
170
0
171
2
172
0
173
0
174
0
175
0
176
0
177
0
178
0
270
2
271
2
272
2
273
2
274
2
275
0
280
0
281
0
282
0
283
1
284
8
285
0
286
0
287
3
288
0
340
11
278
44
  0
ENDTAB
  0
ENDSEC
  0
SECTION
  2
BLOCKS
  0
BLOCK
  5
20
100
AcDbEntity
  8
0
100
AcDbBlockBegin
  2
*Model_Space
 70
0
 10
0.0
 20
0.0
 30
0.0
  3
*Model_Space
  1

  0
ENDBLK
  5
21
100
AcDbEntity
  8
0
100
AcDbBlockEnd
  0
BLOCK
  5
1C
100
AcDbEntity
  8
0
100
AcDbBlockBegin
  2
*Paper_Space
 70
0
 10
0.0
 20
0.0
 30
0.0
  3
*Paper_Space
  1

  0
ENDBLK
  5
1D
100
AcDbEntity
  8
0
100
AcDbBlockEnd
  0
ENDSEC
  0
SECTION
  2
ENTITIES
  0
LINE
  5
218
100
AcDbEntity
  8
DRAFT
100
AcDbLine
 62
7
  6
CONTINUOUS
 10
-57.9424123297
 20
71.5063868978
 11
-55.8459160955
 21
72.7773885505
  0
LINE
  5
219
100
AcDbEntity
  8
DRAFT
100
AcDbLine
 62
7
  6
CONTINUOUS
 10
-57.2097034307
 20
71.4399245369
 11
-55.0866809316
 21
72.7085200528
  0
LINE
  5
21A
100
AcDbEntity
  8
RACCORDO
100
AcDbLine
 62
7
  6
CONTINUOUS
 10
-59.9690848452
 20
70.7176556503
 11
-58.8393962842
 21
71.3699236671
  0
LINE
  5
21B
100
AcDbEntity
  8
SMUSSO
100
AcDbLine
 62
7
  6
CONTINUOUS
 10
-59.4000322958
 20
70.7079705995
 11
-58.3393721241
 21
71.3203824894
  0
LWPOLYLINE
  5
21C
100
AcDbEntity
  8
DRAFT
100
AcDbPolyline
 62
7
  6
CONTINUOUS
 90
15
 70
0
 10
-55.8459160955
 20
72.7773885505
 10
-55.8145501042
 20
72.7948956132
 10
-55.7684601472
 20
72.8156441897
 10
-55.7200632652
 20
72.8318862766
 10
-55.6695232178
 20
72.8435669158
 10
-55.6170110166
 20
72.8506465838
 10
-55.5627043463
 20
72.853101325
 10
-55.5067869634
 20
72.8509228336
 10
-55.4494480747
 20
72.8441184808
 10
-55.3908816968
 20
72.8327112903
 10
-55.3312859998
 20
72.8167398606
 10
-55.2708626368
 20
72.7962582339
 10
-55.2098160612
 20
72.7713357135
 10
-55.1483528354
 20
72.7420566294
 10
-55.0867834359
 20
72.7085792318
  0
LWPOLYLINE
  5
21D
100
AcDbEntity
  8
DRAFT
100
AcDbPolyline
 62
7
  6
CONTINUOUS
 90
15
 70
0
 10
-57.9424123297
 20
71.5063868978
 10
-57.9121422084
 20
71.5232822959
 10
-57.8676625489
 20
71.5433059558
 10
-57.820956564
 20
71.5589805744
 10
-57.7721822919
 20
71.5702531138
 10
-57.7215047695
 20
71.5770854314
 10
-57.6690954734
 20
71.5794544086
 10
-57.61513174
 20
71.5773520297
 10
-57.5597961655
 20
71.5707854083
 10
-57.503275988
 20
71.559776764
 10
-57.445762454
 20
71.5443633464
 10
-57.3874501709
 20
71.5245973096
 10
-57.328536449
 20
71.5005455358
 10
-57.2692206337
 20
71.4722894083
 10
-57.2097034311
 20
71.4399245371
  0
LWPOLYLINE
  5
21E
100
AcDbEntity
  8
SMUSSO
100
AcDbPolyline
 62
7
  6
CONTINUOUS
 90
13
 70
0
 10
-58.8393962842
 20
71.3699236671
 10
-58.8055974983
 20
71.3869623109
 10
-58.7698262554
 20
71.4002050646
 10
-58.7322118146
 20
71.4096091601
 10
-58.6929152891
 20
71.415134423
 10
-58.6521050315
 20
71.4167572841
 10
-58.6099562854
 20
71.4144709363
 10
-58.5666496618
 20
71.4082853978
 10
-58.5223706263
 20
71.3982273742
 10
-58.4773091576
 20
71.3843402631
 10
-58.4316583637
 20
71.3666838681
 10
-58.3856136335
 20
71.3453340471
 10
-58.339440458
 20
71.3204219408
  0
LWPOLYLINE
  5
21F
100
AcDbEntity
  8
DRAFT
100
AcDbPolyline
 62
7
  6
CONTINUOUS
 90
9
 70
0
 10
-58.1695461781
 20
71.2223460713
 10
-58.1495918954
 20
71.2688210765
 10
-58.1244281933
 20
71.3166018149
 10
-58.0961693521
 20
71.3608006071
 10
-58.0649109909
 20
71.4012678984
 10
-58.030758878
 20
71.4378667603
 10
-57.9938285733
 20
71.4704733538
 10
-57.9542450374
 20
71.4989773485
 10
-57.9424123297
 20
71.5063868978
  0
LINE
  5
220
100
AcDbEntity
  8
DRAFT
100
AcDbLine
 62
7
  6
CONTINUOUS
 10
-57.5261993257
 20
70.8917375669
 11
-57.2097034311
 21
71.4399245371
  0
LINE
  5
221
100
AcDbEntity
  8
DRAFT
100
AcDbLine
 62
7
  6
CONTINUOUS
 10
56.2472817672
 20
-70.9763213243
 11
56.8802735572
 21
-70.9763213238
  0
LINE
  5
222
100
AcDbEntity
  8
SMUSSO
100
AcDbLine
 62
7
  6
CONTINUOUS
 10
-60.107139077
 20
70.299774916
 11
-60.107139077
 21
-5.9585489365
  0
LINE
  5
223
100
AcDbEntity
  8
SMUSSO
100
AcDbLine
 62
7
  6
CONTINUOUS
 10
-57.2787119523
 20
62.9512267854
 11
-57.2787119523
 21
-5.1423942991
  0
LWPOLYLINE
  5
224
100
AcDbEntity
  8
RACCORDO
100
AcDbPolyline
 62
7
  6
CONTINUOUS
 90
13
 70
0
 10
-46.2263396313
 20
43.4555585013
 10
-46.2514613134
 20
43.4388025187
 10
-46.2821994351
 20
43.4145527926
 10
-46.3112947019
 20
43.3869959564
 10
-46.3384265659
 20
43.356137185
 10
-46.3631967836
 20
43.3221154869
 10
-46.3852150066
 20
43.2852108201
 10
-46.4042566881
 20
43.2455601641
 10
-46.42008583
 20
43.203369783
 10
-46.4324752061
 20
43.1590094956
 10
-46.4413246639
 20
43.1126793367
 10
-46.4465549759
 20
43.06444204
 10
-46.4480919985
 20
43.0192974676
  0
LWPOLYLINE
  5
225
100
AcDbEntity
  8
RACCORDO
100
AcDbPolyline
 62
7
  6
CONTINUOUS
 90
19
 70
0
 10
-45.8690006563
 20
43.4252995785
 10
-45.8872677599
 20
43.4134725785
 10
-45.9053713553
 20
43.399926798
 10
-45.9231767055
 20
43.3847630522
 10
-45.9405512927
 20
43.3680941986
 10
-45.9573658054
 20
43.3500442961
 10
-45.9734951006
 20
43.3307476823
 10
-45.9888191348
 20
43.3103479735
 10
-46.0032238579
 20
43.288996996
 10
-46.0166020615
 20
43.2668536561
 10
-46.0288541837
 20
43.2440827449
 10
-46.0398890298
 20
43.2208537482
 10
-46.0496244576
 20
43.1973395873
 10
-46.0579880163
 20
43.1737152707
 10
-46.0649174678
 20
43.150156621
 10
-46.0703612402
 20
43.1268390031
 10
-46.0742788305
 20
43.1039359644
 10
-46.0766410983
 20
43.0816179442
 10
-46.0774304765
 20
43.0600510356
  0
LINE
  5
226
100
AcDbEntity
  8
RACCORDO
100
AcDbLine
 62
7
  6
CONTINUOUS
 10
-46.2265418631
 20
43.4554337711
 11
-45.9435563202
 21
43.6304362757
  0
LINE
  5
227
100
AcDbEntity
  8
RACCORDO
100
AcDbLine
 62
7
  6
CONTINUOUS
 10
-45.8690006566
 20
43.4252995787
 11
-45.5874573899
 21
43.599410158
  0
LWPOLYLINE
  5
228
100
AcDbEntity
  8
RACCORDO
100
AcDbPolyline
 62
7
  6
CONTINUOUS
 90
12
 70
0
 10
-41.483623853
 20
34.8559229184
 10
-41.458757799
 20
34.8719773238
 10
-41.436218922
 20
34.8888492769
 10
-41.416007222
 20
34.9065387777
 10
-41.3980376161
 20
34.9251511552
 10
-41.3823951872
 20
34.9445810803
 10
-41.3693351841
 20
34.9645125659
 10
-41.3588999616
 20
34.9849538971
 10
-41.3510471648
 20
35.0058967888
 10
-41.3459049784
 20
35.0270003978
 10
-41.3435179046
 20
35.0482673724
 10
-41.3433218305
 20
35.0564561581
  0
LINE
  5
229
100
AcDbEntity
  8
DRAFT
100
AcDbLine
 62
7
  6
CONTINUOUS
 10
-41.9454618316
 20
34.2579817216
 11
-42.4592707188
 21
33.9284998475
  0
LINE
  5
22A
100
AcDbEntity
  8
RACCORDO
100
AcDbLine
 62
7
  6
CONTINUOUS
 10
-41.483623853
 20
34.8559229184
 11
-41.7200096709
 21
34.7145873119
  0
LINE
  5
22B
100
AcDbEntity
  8
RACCORDO
100
AcDbLine
 62
7
  6
CONTINUOUS
 10
-41.4407220044
 20
34.5533301136
 11
-41.9471588204
 21
34.2609208128
  0
LINE
  5
22C
100
AcDbEntity
  8
RACCORDO
100
AcDbLine
 62
7
  6
CONTINUOUS
 10
-41.2286222788
 20
34.185962613
 11
-42.1639064676
 21
33.6459430348
  0
LINE
  5
22D
100
AcDbEntity
  8
RACCORDO
100
AcDbLine
 62
7
  6
CONTINUOUS
 10
-41.7223627662
 20
35.2670918295
 11
-41.1566773412
 21
35.5823102708
  0
LINE
  5
22E
100
AcDbEntity
  8
RACCORDO
100
AcDbLine
 62
7
  6
CONTINUOUS
 10
-41.7858284544
 20
35.1289836561
 11
-41.2201430295
 21
35.4442020974
  0
LWPOLYLINE
  5
22F
100
AcDbEntity
  8
RACCORDO
100
AcDbPolyline
 62
7
  6
CONTINUOUS
 90
5
 70
0
 10
-46.447624705
 20
1.257629341
 10
-46.4441613383
 20
1.2087665649
 10
-46.4374402316
 20
1.1598168281
 10
-46.4275995282
 20
1.1109012686
 10
-46.4147839565
 20
1.062274957
  0
LINE
  5
230
100
AcDbEntity
  8
RACCORDO
100
AcDbLine
 62
7
  6
CONTINUOUS
 10
-46.4480919886
 20
1.2830954946
 11
-46.447624705
 21
1.257629341
  0
LWPOLYLINE
  5
231
100
AcDbEntity
  8
RACCORDO
100
AcDbPolyline
 62
7
  6
CONTINUOUS
 90
11
 70
0
 10
-46.4480980763
 20
1.2829592265
 10
-46.448086647
 20
1.2814472372
 10
-46.4467445993
 20
1.2665239121
 10
-46.4431798521
 20
1.2517229081
 10
-46.4374189471
 20
1.2371544058
 10
-46.4295047715
 20
1.2229268319
 10
-46.4194962364
 20
1.2091460724
 10
-46.4074678574
 20
1.1959147051
 10
-46.3935091789
 20
1.1833312041
 10
-46.3777240987
 20
1.171489209
 10
-46.3602301106
 20
1.1604768454
  0
LWPOLYLINE
  5
232
100
AcDbEntity
  8
RACCORDO
100
AcDbPolyline
 62
7
  6
CONTINUOUS
 90
11
 70
0
 10
-46.4480980763
 20
43.0192800035
 10
-46.4480866468
 20
43.0177680015
 10
-46.446744597
 20
43.0028446749
 10
-46.443179847
 20
42.9880436697
 10
-46.4374189393
 20
42.9734751674
 10
-46.4295047613
 20
42.9592475949
 10
-46.4194962247
 20
42.9454668377
 10
-46.4074678454
 20
42.932235474
 10
-46.3935091686
 20
42.9196519777
 10
-46.3777240923
 20
42.907809988
 10
-46.3602301106
 20
42.8967976303
  0
LINE
  5
233
100
AcDbEntity
  8
RACCORDO
100
AcDbLine
 62
7
  6
CONTINUOUS
 10
-46.4480980763
 20
43.0192800036
 11
-46.4480980763
 21
1.2829592265
  0
LINE
  5
234
100
AcDbEntity
  8
RACCORDO
100
AcDbLine
 62
7
  6
CONTINUOUS
 10
-46.3602301106
 20
42.8967976303
 11
-46.3602301106
 21
1.1604768454
  0
LINE
  5
235
100
AcDbEntity
  8
RACCORDO
100
AcDbLine
 62
7
  6
CONTINUOUS
 10
-44.7077792981
 20
2.3170959603
 11
-44.7077792981
 21
39.8319697372
  0
LINE
  5
236
100
AcDbEntity
  8
RACCORDO
100
AcDbLine
 62
7
  6
CONTINUOUS
 10
-44.3235743329
 20
2.2976877587
 11
-44.3235743329
 21
39.8125618209
  0
LWPOLYLINE
  5
237
100
AcDbEntity
  8
RACCORDO
100
AcDbPolyline
 62
7
  6
CONTINUOUS
 90
25
 70
0
 10
-46.3602301106
 20
42.8967976303
 10
-46.3596159191
 20
42.9178600751
 10
-46.3578159585
 20
42.937991978
 10
-46.3548302289
 20
42.9571933388
 10
-46.3506361492
 20
42.9755462363
 10
-46.3452563006
 20
42.9929685918
 10
-46.3387584258
 20
43.009214169
 10
-46.3311286964
 20
43.0242604127
 10
-46.3223809409
 20
43.0381298781
 10
-46.3126243871
 20
43.0506439941
 10
-46.3018451042
 20
43.0617858931
 10
-46.290057023
 20
43.0715724428
 10
-46.277411164
 20
43.0798756758
 10
-46.2638950746
 20
43.0866758331
 10
-46.2495212074
 20
43.0919926739
 10
-46.2344779405
 20
43.095757508
 10
-46.2187582182
 20
43.0979491262
 10
-46.2023690962
 20
43.0985887378
 10
-46.1855201202
 20
43.0976712808
 10
-46.1681980998
 20
43.0951731026
 10
-46.1504162255
 20
43.0911178558
 10
-46.1324236143
 20
43.0855714361
 10
-46.1143033052
 20
43.0785558088
 10
-46.0959722593
 20
43.0700490086
 10
-46.0774304765
 20
43.0600510356
  0
LWPOLYLINE
  5
238
100
AcDbEntity
  8
RACCORDO
100
AcDbPolyline
 62
7
  6
CONTINUOUS
 90
22
 70
0
 10
-44.7077792981
 20
39.8319697372
 10
-44.7064069091
 20
39.8707961377
 10
-44.7027627182
 20
39.9072536992
 10
-44.6968467255
 20
39.9413424217
 10
-44.688558579
 20
39.9731727884
 10
-44.6779986307
 20
40.0026343161
 10
-44.6654679364
 20
40.0293955559
 10
-44.6509490236
 20
40.0533999862
 10
-44.6344593648
 20
40.0747041286
 10
-44.6163524331
 20
40.0931460983
 10
-44.5966379773
 20
40.1086839418
 10
-44.5753062487
 20
40.1213596126
 10
-44.5526814736
 20
40.1311370863
 10
-44.5287707709
 20
40.1380062655
 10
-44.5035670219
 20
40.1419772476
 10
-44.477373097
 20
40.1430443001
 10
-44.4501960667
 20
40.1412089803
 10
-44.4220288606
 20
40.1364697309
 10
-44.3931531376
 20
40.1288161477
 10
-44.3636627841
 20
40.1182447626
 10
-44.3334639137
 20
40.1047590437
 10
-44.3025565264
 20
40.0883589909
  0
LWPOLYLINE
  5
239
100
AcDbEntity
  8
RACCORDO
100
AcDbPolyline
 62
7
  6
CONTINUOUS
 90
13
 70
0
 10
-44.3025565264
 20
1.5927656071
 10
-44.3014580561
 20
1.6182945183
 10
-44.2981740072
 20
1.6448275203
 10
-44.292738394
 20
1.6720898219
 10
-44.2852075135
 20
1.699799079
 10
-44.2756593622
 20
1.7276683202
 10
-44.2641928272
 20
1.7554089193
 10
-44.2509266638
 20
1.7827335807
 10
-44.2359982648
 20
1.8093593176
 10
-44.219562236
 20
1.8350103844
 10
-44.2017887974
 20
1.8594211279
 10
-44.1828620205
 20
1.8823387388
 10
-44.1629779208
 20
1.9035258729
  0
LWPOLYLINE
  5
23A
100
AcDbEntity
  8
RACCORDO
100
AcDbPolyline
 62
7
  6
CONTINUOUS
 90
12
 70
0
 10
-41.483623853
 20
28.4058077317
 10
-41.4587548566
 20
28.4218643749
 10
-41.4362137785
 20
28.4387384194
 10
-41.4160006186
 20
28.4564298652
 10
-41.3980304023
 20
28.4750440243
 10
-41.3823881044
 20
28.4944755848
 10
-41.3693286482
 20
28.5144086109
 10
-41.3588943049
 20
28.5348513544
 10
-41.3510428035
 20
28.5557955635
 10
-41.3459022538
 20
28.5769005479
 10
-41.3435170552
 20
28.5981689612
 10
-41.3433217706
 20
28.6063406567
  0
LINE
  5
23B
100
AcDbEntity
  8
DRAFT
100
AcDbLine
 62
7
  6
CONTINUOUS
 10
-41.9454618316
 20
28.1344546456
 11
-42.4592707188
 21
27.8049727716
  0
LINE
  5
23C
100
AcDbEntity
  8
RACCORDO
100
AcDbLine
 62
7
  6
CONTINUOUS
 10
-41.7187903586
 20
28.2652011548
 11
-41.483623853
 21
28.4058077317
  0
LINE
  5
23D
100
AcDbEntity
  8
RACCORDO
100
AcDbLine
 62
7
  6
CONTINUOUS
 10
-41.9443365676
 20
27.7307881265
 11
-41.3687770668
 21
28.0631078668
  0
LINE
  5
23E
100
AcDbEntity
  8
RACCORDO
100
AcDbLine
 62
7
  6
CONTINUOUS
 10
-41.732236842
 20
27.3634206258
 11
-41.1566773412
 21
27.6957403662
  0
LINE
  5
23F
100
AcDbEntity
  8
RACCORDO
100
AcDbLine
 62
7
  6
CONTINUOUS
 10
-42.1639064676
 20
28.5088182104
 11
-41.2286222788
 21
29.0117837802
  0
LINE
  5
240
100
AcDbEntity
  8
RACCORDO
100
AcDbLine
 62
7
  6
CONTINUOUS
 10
-42.2286687781
 20
28.3700338667
 11
-41.2933845893
 21
28.8729994364
  0
LWPOLYLINE
  5
241
100
AcDbEntity
  8
RACCORDO
100
AcDbPolyline
 62
7
  6
CONTINUOUS
 90
11
 70
0
 10
-46.4147839565
 20
1.062274957
 10
-46.3991023495
 20
1.014044524
 10
-46.3806446183
 20
0.9663300402
 10
-46.3595793005
 20
0.9194900969
 10
-46.3360044411
 20
0.8736558803
 10
-46.3099952491
 20
0.8289785671
 10
-46.2817760504
 20
0.7858471808
 10
-46.2514305831
 20
0.7443959171
 10
-46.2190263358
 20
0.7047860413
 10
-46.1848071272
 20
0.6673632561
 10
-46.148831241
 20
0.6322646459
  0
LWPOLYLINE
  5
242
100
AcDbEntity
  8
RACCORDO
100
AcDbPolyline
 62
7
  6
CONTINUOUS
 90
9
 70
0
 10
-44.3025565264
 20
40.0883589909
 10
-44.3014580533
 20
40.0640986294
 10
-44.2981740105
 20
40.0413580095
 10
-44.292738409
 20
40.0203726446
 10
-44.2852075428
 20
40.0013598697
 10
-44.2756594052
 20
39.9845165907
 10
-44.2641928816
 20
39.970017245
 10
-44.2509267251
 20
39.9580119952
 10
-44.2404342623
 20
39.9510393889
  0
LWPOLYLINE
  5
243
100
AcDbEntity
  8
RACCORDO
100
AcDbPolyline
 62
7
  6
CONTINUOUS
 90
7
 70
0
 10
-42.81525727
 20
3.4581601358
 10
-42.8152397334
 20
3.4562791144
 10
-42.8151853539
 20
3.454397177
 10
-42.8150941314
 20
3.4525143234
 10
-42.814966066
 20
3.4506305537
 10
-42.8148011577
 20
3.448745868
 10
-42.8145994064
 20
3.4468602661
  0
LINE
  5
244
100
AcDbEntity
  8
RACCORDO
100
AcDbLine
 62
7
  6
CONTINUOUS
 10
-42.81525727
 20
39.1281600551
 11
-42.81525727
 21
3.4581601358
  0
LINE
  5
245
100
AcDbEntity
  8
RACCORDO
100
AcDbLine
 62
7
  6
CONTINUOUS
 10
-42.7547163029
 20
39.0932044595
 11
-42.7547163029
 21
3.4869753052
  0
LINE
  5
246
100
AcDbEntity
  8
RACCORDO
100
AcDbLine
 62
7
  6
CONTINUOUS
 10
-42.4592707188
 20
3.657561317
 11
-42.4592707188
 21
38.922617882
  0
LINE
  5
247
100
AcDbEntity
  8
RACCORDO
100
AcDbLine
 62
7
  6
CONTINUOUS
 10
-42.1639064676
 20
33.6459430348
 11
-42.1639064676
 21
28.5088182104
  0
LINE
  5
248
100
AcDbEntity
  8
RACCORDO
100
AcDbLine
 62
7
  6
CONTINUOUS
 10
-42.1639064676
 20
15.6835969454
 11
-42.1639064676
 21
10.546472121
  0
LINE
  5
249
100
AcDbEntity
  8
RACCORDO
100
AcDbLine
 62
7
  6
CONTINUOUS
 10
-41.9454618316
 20
38.6259510701
 11
-41.9454618316
 21
34.2579817216
  0
LINE
  5
24A
100
AcDbEntity
  8
DRAFT
100
AcDbLine
 62
7
  6
CONTINUOUS
 10
-41.9454618316
 20
28.1344546456
 11
-41.9454618316
 21
16.2956356321
  0
LINE
  5
24B
100
AcDbEntity
  8
RACCORDO
100
AcDbLine
 62
7
  6
CONTINUOUS
 10
-41.9454618316
 20
10.1721085562
 11
-41.9454618316
 21
3.9539355406
  0
LINE
  5
24C
100
AcDbEntity
  8
RACCORDO
100
AcDbLine
 62
7
  6
CONTINUOUS
 10
-41.732236842
 20
17.3103722906
 11
-41.732236842
 21
27.3634206258
  0
LINE
  5
24D
100
AcDbEntity
  8
RACCORDO
100
AcDbLine
 62
7
  6
CONTINUOUS
 10
-41.7223627662
 20
3.785918774
 11
-41.7223627662
 21
9.3952987516
  0
LINE
  5
24E
100
AcDbEntity
  8
RACCORDO
100
AcDbLine
 62
7
  6
CONTINUOUS
 10
-41.7223627662
 20
35.2670918295
 11
-41.7223627662
 21
38.4971364658
  0
LINE
  5
24F
100
AcDbEntity
  8
RACCORDO
100
AcDbLine
 62
7
  6
CONTINUOUS
 10
-41.6957558874
 20
34.729088703
 11
-41.6957558874
 21
34.7005834813
  0
LINE
  5
250
100
AcDbEntity
  8
RACCORDO
100
AcDbLine
 62
7
  6
CONTINUOUS
 10
-41.6957558874
 20
16.7667426136
 11
-41.6957558874
 21
16.7382373919
  0
LINE
  5
251
100
AcDbEntity
  8
RACCORDO
100
AcDbLine
 62
7
  6
CONTINUOUS
 10
-41.5759161568
 20
28.3506259579
 11
-41.5759161568
 21
28.1827073813
  0
LINE
  5
252
100
AcDbEntity
  8
RACCORDO
100
AcDbLine
 62
7
  6
CONTINUOUS
 10
-41.5554257875
 20
34.812992382
 11
-41.5554257875
 21
34.6195586404
  0
LINE
  5
253
100
AcDbEntity
  8
RACCORDO
100
AcDbLine
 62
7
  6
CONTINUOUS
 10
-41.5554257875
 20
16.8506462925
 11
-41.5554257875
 21
16.657212551
  0
LINE
  5
254
100
AcDbEntity
  8
RACCORDO
100
AcDbLine
 62
7
  6
CONTINUOUS
 10
-41.483623853
 20
35.2973819552
 11
-41.483623853
 21
34.8559229184
  0
LINE
  5
255
100
AcDbEntity
  8
RACCORDO
100
AcDbLine
 62
7
  6
CONTINUOUS
 10
-41.483623853
 20
28.7706949168
 11
-41.483623853
 21
28.4058077317
  0
LINE
  5
256
100
AcDbEntity
  8
RACCORDO
100
AcDbLine
 62
7
  6
CONTINUOUS
 10
-41.483623853
 20
17.3401110417
 11
-41.483623853
 21
16.8935768289
  0
LINE
  5
257
100
AcDbEntity
  8
RACCORDO
100
AcDbLine
 62
7
  6
CONTINUOUS
 10
-41.483623853
 20
10.8083488274
 11
-41.483623853
 21
10.1670728724
  0
LINE
  5
258
100
AcDbEntity
  8
RACCORDO
100
AcDbLine
 62
7
  6
CONTINUOUS
 10
-41.3432937532
 20
35.3755784817
 11
-41.3432937532
 21
35.0564664369
  0
LINE
  5
259
100
AcDbEntity
  8
RACCORDO
100
AcDbLine
 62
7
  6
CONTINUOUS
 10
-41.3432937532
 20
28.8461599032
 11
-41.3432937532
 21
28.6063512502
  0
LINE
  5
25A
100
AcDbEntity
  8
RACCORDO
100
AcDbLine
 62
7
  6
CONTINUOUS
 10
-41.3432937532
 20
17.4155760281
 11
-41.3432937532
 21
17.0941203474
  0
LINE
  5
25B
100
AcDbEntity
  8
RACCORDO
100
AcDbLine
 62
7
  6
CONTINUOUS
 10
-41.3432937532
 20
10.8838138138
 11
-41.3432937532
 21
10.0840237708
  0
LINE
  5
25C
100
AcDbEntity
  8
RACCORDO
100
AcDbLine
 62
7
  6
CONTINUOUS
 10
-41.2286222788
 20
34.185962613
 11
-41.2286222788
 21
29.0117837802
  0
LINE
  5
25D
100
AcDbEntity
  8
RACCORDO
100
AcDbLine
 62
7
  6
CONTINUOUS
 10
-41.2286222788
 20
16.2236165235
 11
-41.2286222788
 21
11.0494376907
  0
LINE
  5
25E
100
AcDbEntity
  8
RACCORDO
100
AcDbLine
 62
7
  6
CONTINUOUS
 10
-41.1566773412
 20
4.123939682
 11
-41.1566773412
 21
9.7333196596
  0
LINE
  5
25F
100
AcDbEntity
  8
RACCORDO
100
AcDbLine
 62
7
  6
CONTINUOUS
 10
-41.1566773412
 20
17.6198895643
 11
-41.1566773412
 21
27.6957403662
  0
LINE
  5
260
100
AcDbEntity
  8
RACCORDO
100
AcDbLine
 62
7
  6
CONTINUOUS
 10
-41.1566773412
 20
35.5823102708
 11
-41.1566773412
 21
38.1705167912
  0
LINE
  5
261
100
AcDbEntity
  8
RACCORDO
100
AcDbLine
 62
7
  6
CONTINUOUS
 10
-40.4507704604
 20
3.9979031281
 11
-40.4507704604
 21
3.7163578961
  0
LWPOLYLINE
  5
262
100
AcDbEntity
  8
RACCORDO
100
AcDbPolyline
 62
7
  6
CONTINUOUS
 90
7
 70
0
 10
-42.7547163029
 20
3.4869753052
 10
-42.7547195866
 20
3.4862636991
 10
-42.75468881
 20
3.4855637115
 10
-42.7546239287
 20
3.4848753222
 10
-42.754524898
 20
3.4841985109
 10
-42.754391673
 20
3.4835332575
 10
-42.7542242083
 20
3.482879542
  0
LWPOLYLINE
  5
263
100
AcDbEntity
  8
RACCORDO
100
AcDbPolyline
 62
7
  6
CONTINUOUS
 90
12
 70
0
 10
-40.4507704604
 20
3.9979026859
 10
-40.4509889008
 20
3.989370429
 10
-40.4534521141
 20
3.9680434165
 10
-40.4586454974
 20
3.9468671028
 10
-40.4665415142
 20
3.9259672122
 10
-40.4770876202
 20
3.9054768169
 10
-40.4902237046
 20
3.8855026993
 10
-40.505870162
 20
3.866157877
 10
-40.5239053334
 20
3.8475758203
 10
-40.5442030722
 20
3.8298615917
 10
-40.5666467536
 20
3.8130949576
 10
-40.5911005602
 20
3.7973596096
  0
LWPOLYLINE
  5
264
100
AcDbEntity
  8
RACCORDO
100
AcDbPolyline
 62
7
  6
CONTINUOUS
 90
22
 70
0
 10
-42.8145994064
 20
3.4468602661
 10
-42.8172758653
 20
3.4313338785
 10
-42.8190991454
 20
3.4151254541
 10
-42.8200223175
 20
3.3982189507
 10
-42.8200197499
 20
3.380631915
 10
-42.8190350268
 20
3.3623404275
 10
-42.8169708812
 20
3.3432736007
 10
-42.8138345927
 20
3.3233966174
 10
-42.8095488746
 20
3.3027947072
 10
-42.8038864147
 20
3.2815915111
 10
-42.7967846218
 20
3.2597190253
 10
-42.7882881949
 20
3.2374048518
 10
-42.778371061
 20
3.2152454464
 10
-42.7670023763
 20
3.1933431758
 10
-42.7543393399
 20
3.1718741052
 10
-42.7407028228
 20
3.1515343489
 10
-42.7262886852
 20
3.1326544585
 10
-42.7111158957
 20
3.1151337347
 10
-42.6952602629
 20
3.0989915131
 10
-42.6788174744
 20
3.0843141936
 10
-42.6619020415
 20
3.0712436046
 10
-42.6446183987
 20
3.0598841361
  0
LWPOLYLINE
  5
265
100
AcDbEntity
  8
RACCORDO
100
AcDbPolyline
 62
7
  6
CONTINUOUS
 90
11
 70
0
 10
25.7498352717
 20
-34.5957567546
 10
25.7689706016
 20
-34.5908598083
 10
25.7889618064
 20
-34.5878944021
 10
25.809722032
 20
-34.5868738131
 10
25.8311633051
 20
-34.5878013429
 10
25.853189515
 20
-34.5906722914
 10
25.8757089882
 20
-34.5954746412
 10
25.8986373864
 20
-34.6021908668
 10
25.9218807557
 20
-34.6107962774
 10
25.9453352524
 20
-34.6212559369
 10
25.9689001646
 20
-34.6335274888
  0
LWPOLYLINE
  5
266
100
AcDbEntity
  8
0
100
AcDbPolyline
 62
7
  6
CONTINUOUS
 90
5
 70
0
 10
26.2387149806
 20
-34.3472242976
 10
26.2759104322
 20
-34.3428117066
 10
26.3134997172
 20
-34.3411950277
 10
26.3512046092
 20
-34.3424164873
 10
26.3887696131
 20
-34.3464859829
  0
LWPOLYLINE
  5
267
100
AcDbEntity
  8
RACCORDO
100
AcDbPolyline
 62
7
  6
CONTINUOUS
 90
22
 70
0
 10
-42.7542242083
 20
3.482879542
 10
-42.7504947896
 20
3.4718652567
 10
-42.7459910565
 20
3.460092864
 10
-42.7406432763
 20
3.4475661521
 10
-42.7343275377
 20
3.4343761632
 10
-42.7270331468
 20
3.4204707615
 10
-42.7188448087
 20
3.4056505899
 10
-42.7096596151
 20
3.3899500129
 10
-42.6994208337
 20
3.3734471661
 10
-42.688263369
 20
3.3560301184
 10
-42.6760411085
 20
3.3376898375
 10
-42.6627579567
 20
3.3186800594
 10
-42.6488253567
 20
3.2993048853
 10
-42.634257384
 20
3.2796380345
 10
-42.6190723313
 20
3.2599479065
 10
-42.6038118109
 20
3.2407808187
 10
-42.588765486
 20
3.222403669
 10
-42.573867974
 20
3.2047730125
 10
-42.5591852065
 20
3.1879156916
 10
-42.5448087607
 20
3.171920771
 10
-42.5308624868
 20
3.1569225127
 10
-42.5174595958
 20
3.1430184465
  0
LWPOLYLINE
  5
268
100
AcDbEntity
  8
RACCORDO
100
AcDbPolyline
 62
7
  6
CONTINUOUS
 90
11
 70
0
 10
-34.2987520504
 20
-0.596310449
 10
-34.3016417956
 20
-0.5680295387
 10
-34.3064107994
 20
-0.5413232678
 10
-34.3131055277
 20
-0.5160632752
 10
-34.3216795146
 20
-0.4923779221
 10
-34.3319933617
 20
-0.4706522914
 10
-34.3440755104
 20
-0.4509184185
 10
-34.3578975194
 20
-0.433144268
 10
-34.3732346666
 20
-0.417618817
 10
-34.3901117198
 20
-0.4043788247
 10
-34.4013057427
 20
-0.397316643
  0
LINE
  5
269
100
AcDbEntity
  8
RACCORDO
100
AcDbLine
 62
7
  6
CONTINUOUS
 10
-34.2977415637
 20
-0.6261659988
 11
-34.2987520504
 21
-0.596310449
  0
LINE
  5
26A
100
AcDbEntity
  8
0
100
AcDbLine
 62
7
  6
CONTINUOUS
 10
-35.0411711615
 20
-0.0074013709
 11
-35.0406594066
 21
-0.0230674001
  0
LINE
  5
26B
100
AcDbEntity
  8
RACCORDO
100
AcDbLine
 62
7
  6
CONTINUOUS
 10
-35.3584017355
 20
0.3677906927
 11
-35.3584017355
 21
-0.0939558035
  0
LINE
  5
26C
100
AcDbEntity
  8
RACCORDO
100
AcDbLine
 62
7
  6
CONTINUOUS
 10
-34.2977415637
 20
-0.6526757852
 11
-34.2977415637
 21
-0.6261659988
  0
LWPOLYLINE
  5
26D
100
AcDbEntity
  8
RACCORDO
100
AcDbPolyline
 62
7
  6
CONTINUOUS
 90
12
 70
0
 10
-41.483623853
 20
16.8935768289
 10
-41.458757799
 20
16.9096312344
 10
-41.436218922
 20
16.9265031875
 10
-41.416007222
 20
16.9441926883
 10
-41.3980376161
 20
16.9628050657
 10
-41.3823951872
 20
16.9822349909
 10
-41.3693351841
 20
17.0021664764
 10
-41.3588999616
 20
17.0226078077
 10
-41.3510471648
 20
17.0435506994
 10
-41.3459049784
 20
17.0646543084
 10
-41.3435179046
 20
17.0859212829
 10
-41.3433218305
 20
17.0941100686
  0
LINE
  5
26E
100
AcDbEntity
  8
DRAFT
100
AcDbLine
 62
7
  6
CONTINUOUS
 10
-41.9454618316
 20
16.2956356321
 11
-42.4592707188
 21
15.9661537581
  0
LINE
  5
26F
100
AcDbEntity
  8
DRAFT
100
AcDbLine
 62
7
  6
CONTINUOUS
 10
-41.9454618316
 20
10.1721085562
 11
-42.4592707188
 21
9.8426266821
  0
LINE
  5
270
100
AcDbEntity
  8
RACCORDO
100
AcDbLine
 62
7
  6
CONTINUOUS
 10
-41.483623853
 20
16.8935768289
 11
-41.7200096709
 21
16.7522412225
  0
LINE
  5
271
100
AcDbEntity
  8
RACCORDO
100
AcDbLine
 62
7
  6
CONTINUOUS
 10
-41.4407220044
 20
16.5909840242
 11
-41.9471588204
 21
16.2985747234
  0
LINE
  5
272
100
AcDbEntity
  8
RACCORDO
100
AcDbLine
 62
7
  6
CONTINUOUS
 10
-41.2286222788
 20
16.2236165235
 11
-42.1639064676
 21
15.6835969454
  0
LINE
  5
273
100
AcDbEntity
  8
RACCORDO
100
AcDbLine
 62
7
  6
CONTINUOUS
 10
-41.732236842
 20
17.3103722906
 11
-41.1566773412
 21
17.6198895643
  0
LINE
  5
274
100
AcDbEntity
  8
RACCORDO
100
AcDbLine
 62
7
  6
CONTINUOUS
 10
-41.7969991525
 20
17.1715879469
 11
-41.2214396518
 21
17.4811052205
  0
LWPOLYLINE
  5
275
100
AcDbEntity
  8
0
100
AcDbPolyline
 62
7
  6
CONTINUOUS
 90
4
 70
0
 10
32.1742633036
 20
-35.9715443154
 10
32.1876768426
 20
-35.9716293276
 10
32.201103928
 20
-35.9731911185
 10
32.2145163754
 20
-35.9759230159
  0
LWPOLYLINE
  5
276
100
AcDbEntity
  8
0
100
AcDbPolyline
 62
7
  6
CONTINUOUS
 90
12
 70
0
 10
28.2995183642
 20
-36.6830090854
 10
28.3776885798
 20
-36.6977030322
 10
28.397872524
 20
-36.7017386879
 10
28.4183023459
 20
-36.7061134017
 10
28.4389158688
 20
-36.710900753
 10
28.4596463246
 20
-36.7161787329
 10
28.4806066692
 20
-36.7220883256
 10
28.5015666616
 20
-36.7286996015
 10
28.5219600902
 20
-36.7359278732
 10
28.5416448901
 20
-36.7437671135
 10
28.5606766838
 20
-36.752296825
 10
28.5788267707
 20
-36.761459778
  0
LINE
  5
277
100
AcDbEntity
  8
SMUSSO
100
AcDbLine
 62
7
  6
CONTINUOUS
 10
-59.4000322958
 20
-7.1832938066
 11
54.4441594752
 21
-72.9155033323
  0
LINE
  5
278
100
AcDbEntity
  8
SMUSSO
100
AcDbLine
 62
7
  6
CONTINUOUS
 10
-57.2787119523
 20
-5.1423942991
 11
49.4944120069
 21
-66.7918578916
  0
LINE
  5
279
100
AcDbEntity
  8
SMUSSO
100
AcDbLine
 62
7
  6
CONTINUOUS
 10
-59.9690678896
 20
70.7176654389
 11
-57.2787119523
 21
62.9512267854
  0
LWPOLYLINE
  5
27A
100
AcDbEntity
  8
RACCORDO
100
AcDbPolyline
 62
7
  6
CONTINUOUS
 90
15
 70
0
 10
-44.3235743723
 20
39.8125618191
 10
-44.3291889466
 20
39.8315678857
 10
-44.3331665244
 20
39.8495599896
 10
-44.3355690464
 20
39.8664526977
 10
-44.3364975456
 20
39.8821680249
 10
-44.3359834238
 20
39.8966422518
 10
-44.3339876501
 20
39.9098255092
 10
-44.3305650715
 20
39.9216692281
 10
-44.3258030309
 20
39.9321380451
 10
-44.3197112207
 20
39.9412127383
 10
-44.3123565103
 20
39.9488663976
 10
-44.3038141051
 20
39.9550923206
 10
-44.2941018038
 20
39.9598987302
 10
-44.2832856285
 20
39.9632751907
 10
-44.2714338021
 20
39.9652198499
  0
LWPOLYLINE
  5
27B
100
AcDbEntity
  8
RACCORDO
100
AcDbPolyline
 62
7
  6
CONTINUOUS
 90
25
 70
0
 10
-28.1024623619
 20
-3.8288231375
 10
-28.1032035218
 20
-3.8016657253
 10
-28.1054328423
 20
-3.773738971
 10
-28.1091387049
 20
-3.7451616514
 10
-28.1143014651
 20
-3.716054605
 10
-28.120898693
 20
-3.6865423009
 10
-28.1289054115
 20
-3.6567522754
 10
-28.1382856462
 20
-3.6268112236
 10
-28.1489973291
 20
-3.5968463449
 10
-28.1609978502
 20
-3.5669868696
 10
-28.1742344778
 20
-3.5373598465
 10
-28.1886488742
 20
-3.5080911499
 10
-28.2041824056
 20
-3.479306835
 10
-28.2207675745
 20
-3.4511295185
 10
-28.2383319756
 20
-3.4236790019
 10
-28.2568031618
 20
-3.3970734036
 10
-28.2761014114
 20
-3.3714262834
 10
-28.2961429782
 20
-3.3468468484
 10
-28.3168443316
 20
-3.3234408113
 10
-28.3381203271
 20
-3.3013047393
 10
-28.3598753673
 20
-3.2805372415
 10
-28.3820061587
 20
-3.2612370986
 10
-28.4044139124
 20
-3.2434878154
 10
-28.4270054205
 20
-3.2273595855
 10
-28.4496838431
 20
-3.2129191078
  0
LINE
  5
27C
100
AcDbEntity
  8
DRAFT
100
AcDbLine
 62
7
  6
CONTINUOUS
 10
-28.534821297
 20
-4.5734649008
 11
-28.534821297
 21
-4.0338056291
  0
LINE
  5
27D
100
AcDbEntity
  8
RACCORDO
100
AcDbLine
 62
7
  6
CONTINUOUS
 10
-28.5319145923
 20
-4.5734649008
 11
-28.5319145923
 21
-4.628823337
  0
LINE
  5
27E
100
AcDbEntity
  8
0
100
AcDbLine
 62
7
  6
CONTINUOUS
 10
-27.7427376739
 20
-3.6353748415
 11
-27.7427376739
 21
-3.9864760668
  0
LINE
  5
27F
100
AcDbEntity
  8
0
100
AcDbLine
 62
7
  6
CONTINUOUS
 10
-27.5900668591
 20
-3.4277059488
 11
-27.5900668591
 21
-3.8920621448
  0
LINE
  5
280
100
AcDbEntity
  8
0
100
AcDbLine
 62
7
  6
CONTINUOUS
 10
-27.2476039819
 20
-1.6937816877
 11
-27.2476039819
 21
-2.1766032831
  0
LINE
  5
281
100
AcDbEntity
  8
0
100
AcDbLine
 62
7
  6
CONTINUOUS
 10
-27.196232947
 20
-1.6646001024
 11
-27.196232947
 21
-2.1460614053
  0
LWPOLYLINE
  5
282
100
AcDbEntity
  8
0
100
AcDbPolyline
 62
7
  6
CONTINUOUS
 90
12
 70
0
 10
-27.5900668592
 20
-3.4277126833
 10
-27.5906279757
 20
-3.4413792071
 10
-27.5938491436
 20
-3.4631482231
 10
-27.5999106095
 20
-3.4847091854
 10
-27.6087766292
 20
-3.5059408099
 10
-27.6203970296
 20
-3.5267245347
 10
-27.6347156362
 20
-3.5469546531
 10
-27.6516435201
 20
-3.5665012682
 10
-27.6710452407
 20
-3.5852183539
 10
-27.6927820866
 20
-3.6029930334
 10
-27.716728829
 20
-3.6197415096
 10
-27.7427376739
 20
-3.6353748415
  0
LINE
  5
283
100
AcDbEntity
  8
0
100
AcDbLine
 62
7
  6
CONTINUOUS
 10
-34.0734979688
 20
-0.8358431347
 11
-34.0502541903
 21
-0.7955837294
  0
LINE
  5
284
100
AcDbEntity
  8
0
100
AcDbLine
 62
7
  6
CONTINUOUS
 10
-33.8027668169
 20
-0.7751581632
 11
-33.6967007997
 21
-0.5914464327
  0
LINE
  5
285
100
AcDbEntity
  8
0
100
AcDbLine
 62
7
  6
CONTINUOUS
 10
-33.4492134263
 20
-0.5710208666
 11
-33.3431474091
 21
-0.3873091361
  0
LINE
  5
286
100
AcDbEntity
  8
0
100
AcDbLine
 62
7
  6
CONTINUOUS
 10
-33.0956600357
 20
-0.3668835699
 11
-32.9895940185
 21
-0.1831718394
  0
LINE
  5
287
100
AcDbEntity
  8
0
100
AcDbLine
 62
7
  6
CONTINUOUS
 10
-32.7421066451
 20
-0.1627462733
 11
-32.6360406279
 21
0.0209654573
  0
LINE
  5
288
100
AcDbEntity
  8
0
100
AcDbLine
 62
7
  6
CONTINUOUS
 10
-32.3885532545
 20
0.0413910234
 11
-32.2824872373
 21
0.2251027539
  0
LINE
  5
289
100
AcDbEntity
  8
0
100
AcDbLine
 62
7
  6
CONTINUOUS
 10
-32.0349998639
 20
0.2455283201
 11
-31.9289338467
 21
0.4292400506
  0
LINE
  5
28A
100
AcDbEntity
  8
0
100
AcDbLine
 62
7
  6
CONTINUOUS
 10
-31.6814464733
 20
0.4496656167
 11
-31.5753804561
 21
0.6333773473
  0
LINE
  5
28B
100
AcDbEntity
  8
RACCORDO
100
AcDbLine
 62
7
  6
CONTINUOUS
 10
-44.3235743329
 20
2.2976877587
 11
-42.8145994064
 21
3.4468602661
  0
LINE
  5
28C
100
AcDbEntity
  8
RACCORDO
100
AcDbLine
 62
7
  6
CONTINUOUS
 10
-44.1629710994
 20
1.9035219342
 11
-42.6446181094
 21
3.0598843542
  0
LWPOLYLINE
  5
28D
100
AcDbEntity
  8
RACCORDO
100
AcDbPolyline
 62
7
  6
CONTINUOUS
 90
10
 70
0
 10
-42.7542286492
 20
3.4828821039
 10
-42.7605366293
 20
3.4786164305
 10
-42.766949411
 20
3.4744137194
 10
-42.7734650232
 20
3.4702752655
 10
-42.780081463
 20
3.466202344
 10
-42.7867966964
 20
3.4621962098
 10
-42.7936086595
 20
3.4582580975
 10
-42.8005152581
 20
3.4543892206
 10
-42.8075143693
 20
3.4505907714
 10
-42.8146038414
 20
3.4468639205
  0
LWPOLYLINE
  5
28E
100
AcDbEntity
  8
RACCORDO
100
AcDbPolyline
 62
7
  6
CONTINUOUS
 90
10
 70
0
 10
-42.5107351128
 20
3.1380157015
 10
-42.5237529654
 20
3.1299598612
 10
-42.5367447706
 20
3.1213657133
 10
-42.5496928927
 20
3.1122449239
 10
-42.5625797551
 20
3.1026098741
 10
-42.5753878643
 20
3.0924736432
 10
-42.5880998338
 20
3.0818499908
 10
-42.6006984075
 20
3.0707533379
 10
-42.6131664835
 20
3.059198748
 10
-42.6254871367
 20
3.047201906
  0
LINE
  5
28F
100
AcDbEntity
  8
RACCORDO
100
AcDbLine
 62
7
  6
CONTINUOUS
 10
-41.9344948005
 20
9.762759524
 11
-41.3688093756
 21
10.1007804321
  0
LINE
  5
290
100
AcDbEntity
  8
RACCORDO
100
AcDbLine
 62
7
  6
CONTINUOUS
 10
-41.7223627662
 20
9.3952987516
 11
-41.1566773412
 21
9.7333196596
  0
LINE
  5
291
100
AcDbEntity
  8
RACCORDO
100
AcDbLine
 62
7
  6
CONTINUOUS
 10
-41.7223627662
 20
3.785918774
 11
-41.1566773412
 21
4.123939682
  0
LINE
  5
292
100
AcDbEntity
  8
RACCORDO
100
AcDbLine
 62
7
  6
CONTINUOUS
 10
-42.1639064676
 20
10.546472121
 11
-41.2286222788
 21
11.0494376907
  0
LINE
  5
293
100
AcDbEntity
  8
RACCORDO
100
AcDbLine
 62
7
  6
CONTINUOUS
 10
-42.2286687781
 20
10.4076877773
 11
-41.2933845893
 21
10.910653347
  0
LWPOLYLINE
  5
294
100
AcDbEntity
  8
RACCORDO
100
AcDbPolyline
 62
7
  6
CONTINUOUS
 90
11
 70
0
 10
9.839932695
 20
-25.4095784047
 10
9.8590680249
 20
-25.4046814584
 10
9.8790592297
 20
-25.4017160522
 10
9.8998194553
 20
-25.4006954632
 10
9.9212607284
 20
-25.4016229931
 10
9.9432869383
 20
-25.4044939416
 10
9.9658064115
 20
-25.4092962914
 10
9.9887348097
 20
-25.4160125169
 10
10.011978179
 20
-25.4246179276
 10
10.0354326757
 20
-25.435077587
 10
10.0589975879
 20
-25.4473491389
  0
LWPOLYLINE
  5
295
100
AcDbEntity
  8
0
100
AcDbPolyline
 62
7
  6
CONTINUOUS
 90
5
 70
0
 10
10.3288124039
 20
-25.1610459477
 10
10.3660078555
 20
-25.1566333567
 10
10.4035971405
 20
-25.1550166778
 10
10.4413020325
 20
-25.1562381374
 10
10.4788670364
 20
-25.160307633
  0
LWPOLYLINE
  5
296
100
AcDbEntity
  8
0
100
AcDbPolyline
 62
7
  6
CONTINUOUS
 90
6
 70
0
 10
26.3887696131
 20
-34.3464859829
 10
26.4259484933
 20
-34.3533870098
 10
26.4625129909
 20
-34.3630821714
 10
26.4982893547
 20
-34.375533278
 10
26.5332555814
 20
-34.3907704872
 10
26.5661985186
 20
-34.4081890058
  0
LINE
  5
297
100
AcDbEntity
  8
0
100
AcDbLine
 62
7
  6
CONTINUOUS
 10
28.2806916363
 20
-36.6793088421
 11
28.2995183642
 21
-36.6830090854
  0
LWPOLYLINE
  5
298
100
AcDbEntity
  8
0
100
AcDbPolyline
 62
7
  6
CONTINUOUS
 90
4
 70
0
 10
32.2145163754
 20
-35.9759230159
 10
32.2278164327
 20
-35.9797655218
 10
32.2409284827
 20
-35.9847098837
 10
32.2538828924
 20
-35.9905421023
  0
LWPOLYLINE
  5
299
100
AcDbEntity
  8
RACCORDO
100
AcDbPolyline
 62
7
  6
CONTINUOUS
 90
4
 70
0
 10
-46.1111358754
 20
0.599636048
 10
-46.0718908754
 20
0.5697443624
 10
-46.0311430972
 20
0.5427700863
 10
-46.0151926549
 20
0.5332743024
  0
LINE
  5
29A
100
AcDbEntity
  8
RACCORDO
100
AcDbLine
 62
7
  6
CONTINUOUS
 10
-46.148831241
 20
0.6322646459
 11
-46.1111358754
 21
0.599636048
  0
LWPOLYLINE
  5
29B
100
AcDbEntity
  8
RACCORDO
100
AcDbPolyline
 62
7
  6
CONTINUOUS
 90
6
 70
0
 10
-42.5174595958
 20
3.1430184465
 10
-42.5164871625
 20
3.142081367
 10
-42.5154553456
 20
3.1411855353
 10
-42.5143641885
 20
3.1403310023
 10
-42.5132137348
 20
3.1395178187
 10
-42.5120040282
 20
3.1387460349
  0
LINE
  5
29C
100
AcDbEntity
  8
DRAFT
100
AcDbLine
 62
7
  6
CONTINUOUS
 10
-23.6586912116
 20
-7.1422992276
 11
-23.6586912116
 21
-7.3166585991
  0
LINE
  5
29D
100
AcDbEntity
  8
DRAFT
100
AcDbLine
 62
7
  6
CONTINUOUS
 10
-22.7234070229
 20
-7.3892433969
 11
-22.7234070229
 21
-6.6022796495
  0
LINE
  5
29E
100
AcDbEntity
  8
RACCORDO
100
AcDbLine
 62
7
  6
CONTINUOUS
 10
-19.4484991588
 20
-8.8182632953
 11
-19.4484991588
 21
-9.2801341533
  0
LINE
  5
29F
100
AcDbEntity
  8
0
100
AcDbLine
 62
7
  6
CONTINUOUS
 10
-28.8530193486
 20
-2.4082565366
 11
-28.7469533314
 21
-2.224544806
  0
LINE
  5
2A0
100
AcDbEntity
  8
0
100
AcDbLine
 62
7
  6
CONTINUOUS
 10
-28.499465958
 20
-2.2041192399
 11
-28.3933999408
 21
-2.0204075094
  0
LINE
  5
2A1
100
AcDbEntity
  8
0
100
AcDbLine
 62
7
  6
CONTINUOUS
 10
-28.1459125674
 20
-1.9999819432
 11
-28.0398465502
 21
-1.8162702127
  0
LINE
  5
2A2
100
AcDbEntity
  8
0
100
AcDbLine
 62
7
  6
CONTINUOUS
 10
-27.7923591768
 20
-1.7958446466
 11
-27.6862931596
 21
-1.612132916
  0
LINE
  5
2A3
100
AcDbEntity
  8
0
100
AcDbLine
 62
7
  6
CONTINUOUS
 10
-27.9956701661
 20
-2.7443586593
 11
-27.8009962746
 21
-2.5016765566
  0
LINE
  5
2A4
100
AcDbEntity
  8
RACCORDO
100
AcDbLine
 62
7
  6
CONTINUOUS
 10
-36.277640551
 20
0.6422044054
 11
-35.7119551261
 21
0.9802253134
  0
LINE
  5
2A5
100
AcDbEntity
  8
RACCORDO
100
AcDbLine
 62
7
  6
CONTINUOUS
 10
-35.7514010041
 20
0.1329570488
 11
-35.3584017355
 21
0.3677906927
  0
LINE
  5
2A6
100
AcDbEntity
  8
RACCORDO
100
AcDbLine
 62
7
  6
CONTINUOUS
 10
-42.7547163029
 20
3.4869753052
 11
-41.9454618316
 21
3.9539355406
  0
LINE
  5
2A7
100
AcDbEntity
  8
RACCORDO
100
AcDbLine
 62
7
  6
CONTINUOUS
 10
-40.9446001029
 20
4.4096387773
 11
-41.1566773412
 21
4.2871876174
  0
LINE
  5
2A8
100
AcDbEntity
  8
RACCORDO
100
AcDbLine
 62
7
  6
CONTINUOUS
 10
-42.5107351128
 20
3.1380157015
 11
-41.7336205168
 21
3.5870156206
  0
LINE
  5
2A9
100
AcDbEntity
  8
SMUSSO
100
AcDbLine
 62
7
  6
CONTINUOUS
 10
-59.9690678896
 20
-6.6953217522
 11
-57.2787119523
 21
-5.1423942991
  0
LWPOLYLINE
  5
2AA
100
AcDbEntity
  8
RACCORDO
100
AcDbPolyline
 62
7
  6
CONTINUOUS
 90
10
 70
0
 10
-42.7547163029
 20
3.4869753052
 10
-42.7610463081
 20
3.4835069625
 10
-42.767480185
 20
3.4801029354
 10
-42.7740159737
 20
3.4767642609
 10
-42.7806516833
 20
3.4734919558
 10
-42.7873852926
 20
3.470287017
 10
-42.7942147505
 20
3.4671504208
 10
-42.8011379766
 20
3.4640831225
 10
-42.808152862
 20
3.4610860565
 10
-42.81525727
 20
3.4581601358
  0
LWPOLYLINE
  5
2AB
100
AcDbEntity
  8
RACCORDO
100
AcDbPolyline
 62
7
  6
CONTINUOUS
 90
10
 70
0
 10
-42.5174595929
 20
3.1430186304
 10
-42.5318119704
 20
3.1358025
 10
-42.5461532078
 20
3.128053398
 10
-42.5604636929
 20
3.1197819217
 10
-42.5747238557
 20
3.1109993824
 10
-42.588914195
 20
3.1017177904
 10
-42.603015305
 20
3.0919498385
 10
-42.6170079022
 20
3.0817088847
 10
-42.6308728511
 20
3.0710089336
 10
-42.644591191
 20
3.0598646177
  0
LWPOLYLINE
  5
2AC
100
AcDbEntity
  8
0
100
AcDbPolyline
 62
7
  6
CONTINUOUS
 90
6
 70
0
 10
10.4788670364
 20
-25.160307633
 10
10.5160459166
 20
-25.1672086599
 10
10.5526104142
 20
-25.1769038216
 10
10.588386778
 20
-25.1893549282
 10
10.6233530047
 20
-25.2045921373
 10
10.6562959419
 20
-25.2220106559
  0
LWPOLYLINE
  5
2AD
100
AcDbEntity
  8
ASSI
100
AcDbPolyline
 62
7
  6
CONTINUOUS
 90
8
 70
0
 10
16.3056050825
 20
-26.7900119365
 10
16.2924243933
 20
-26.7871950516
 10
16.2797537899
 20
-26.7856406892
 10
16.2676134415
 20
-26.7852807212
 10
16.256080912
 20
-26.7860360764
 10
16.2451969182
 20
-26.7878524439
 10
16.2349699517
 20
-26.7907058432
 10
16.2254156868
 20
-26.7945583995
  0
LWPOLYLINE
  5
2AE
100
AcDbEntity
  8
0
100
AcDbPolyline
 62
7
  6
CONTINUOUS
 90
5
 70
0
 10
-2.051178185
 20
-23.6670757293
 10
-2.0518379215
 20
-23.6669234377
 10
-2.0722588922
 20
-23.6604468883
 10
-2.0937279561
 20
-23.6520477778
 10
-2.1162862634
 20
-23.6416345986
  0
LWPOLYLINE
  5
2AF
100
AcDbEntity
  8
0
100
AcDbPolyline
 62
7
  6
CONTINUOUS
 90
8
 70
0
 10
-1.960062286
 20
-24.0376777652
 10
-1.9535522551
 20
-24.0397959277
 10
-1.9470246878
 20
-24.0410379841
 10
-1.940479584
 20
-24.0414039345
 10
-1.9339291319
 20
-24.0407333817
 10
-1.9273611434
 20
-24.0391867229
 10
-1.9207390544
 20
-24.0372451488
 10
-1.9140571433
 20
-24.0349995474
  0
LWPOLYLINE
  5
2B0
100
AcDbEntity
  8
0
100
AcDbPolyline
 62
7
  6
CONTINUOUS
 90
10
 70
0
 10
-2.458480455
 20
-23.1379441978
 10
-2.4310646949
 20
-23.1485133231
 10
-2.4037766007
 20
-23.1600402508
 10
-2.3766161721
 20
-23.1725249807
 10
-2.3496078893
 20
-23.1859490569
 10
-2.3227272721
 20
-23.2003309355
 10
-2.295900881
 20
-23.2157259845
 10
-2.2691042358
 20
-23.2321526601
 10
-2.2423618166
 20
-23.2495925061
 10
-2.2156736233
 20
-23.2680455226
  0
LWPOLYLINE
  5
2B1
100
AcDbEntity
  8
0
100
AcDbPolyline
 62
7
  6
CONTINUOUS
 90
11
 70
0
 10
26.5586720744
 20
-34.4040966724
 10
26.5389709348
 20
-34.3955687122
 10
26.5180354154
 20
-34.3894807227
 10
26.4959880711
 20
-34.385871601
 10
26.4729703063
 20
-34.3847623182
 10
26.4491042417
 20
-34.3861542357
 10
26.4245279497
 20
-34.3900349427
 10
26.3994190163
 20
-34.3963654447
 10
26.3739319556
 20
-34.4050885239
 10
26.3481937987
 20
-34.4161428111
 10
26.3223449113
 20
-34.429452221
  0
LWPOLYLINE
  5
2B2
100
AcDbEntity
  8
0
100
AcDbPolyline
 62
7
  6
CONTINUOUS
 90
11
 70
0
 10
10.6487694977
 20
-25.2179183225
 10
10.6290683581
 20
-25.2093903623
 10
10.6081328387
 20
-25.2033023728
 10
10.5860854944
 20
-25.1996932512
 10
10.5630677296
 20
-25.1985839683
 10
10.539201665
 20
-25.1999758858
 10
10.514625373
 20
-25.2038565929
 10
10.4895164396
 20
-25.2101870948
 10
10.4640293789
 20
-25.218910174
 10
10.438291222
 20
-25.2299644612
 10
10.4124423346
 20
-25.2432738711
  0
LINE
  5
2B3
100
AcDbEntity
  8
0
100
AcDbLine
 62
7
  6
CONTINUOUS
 10
-2.1162862634
 20
-23.6416345986
 11
-2.1399338143
 21
-23.6292073507
  0
LWPOLYLINE
  5
2B4
100
AcDbEntity
  8
RACCORDO
100
AcDbPolyline
 62
7
  6
CONTINUOUS
 90
16
 70
0
 10
-44.7077792981
 20
2.3170959603
 10
-44.6871432911
 20
2.3062414922
 10
-44.6648492312
 20
2.2965415103
 10
-44.6410901499
 20
2.2880800011
 10
-44.6160717631
 20
2.280930228
 10
-44.5900106906
 20
2.2751540966
 10
-44.5631325801
 20
2.2708016192
 10
-44.5356701534
 20
2.2679104813
 10
-44.5078611918
 20
2.2665057155
 10
-44.4799464769
 20
2.266599485
 10
-44.452167706
 20
2.2681909778
 10
-44.4247653993
 20
2.2712664142
 10
-44.3979768175
 20
2.2757991657
 10
-44.3720339072
 20
2.2817499858
 10
-44.3471612932
 20
2.2890673499
 10
-44.3235743329
 20
2.2976879011
  0
LWPOLYLINE
  5
2B5
100
AcDbEntity
  8
RACCORDO
100
AcDbPolyline
 62
7
  6
CONTINUOUS
 90
13
 70
0
 10
37.3653251515
 20
-47.6095918725
 10
37.4055195717
 20
-47.6309945415
 10
37.4498929292
 20
-47.6505486614
 10
37.4944213781
 20
-47.6660169507
 10
37.5390108544
 20
-47.6774380931
 10
37.5834387192
 20
-47.684800244
 10
37.6272719653
 20
-47.6881136348
 10
37.6702150924
 20
-47.6874808101
 10
37.7120374988
 20
-47.6830291073
 10
37.7523008104
 20
-47.6749555119
 10
37.7906855878
 20
-47.6635345978
 10
37.8270283489
 20
-47.6490422924
 10
37.8540895808
 20
-47.635665229
  0
LWPOLYLINE
  5
2B6
100
AcDbEntity
  8
RACCORDO
100
AcDbPolyline
 62
7
  6
CONTINUOUS
 90
12
 70
0
 10
29.2383045641
 20
-37.1420300424
 10
29.2311063956
 20
-37.1381009314
 10
29.2114980913
 20
-37.1295370375
 10
29.1906537945
 20
-37.123440223
 10
29.1685933848
 20
-37.1197708075
 10
29.1456755265
 20
-37.1185884493
 10
29.1218862029
 20
-37.1199338041
 10
29.0972394307
 20
-37.1237662162
 10
29.0721359239
 20
-37.1300233773
 10
29.0467092538
 20
-37.1386845178
 10
29.0208258492
 20
-37.1497704073
 10
28.9944857099
 20
-37.1632810456
  0
LINE
  5
2B7
100
AcDbEntity
  8
RACCORDO
100
AcDbLine
 62
7
  6
CONTINUOUS
 10
-46.015305686
 20
0.5333324504
 11
37.365305821
 21
-47.6095876293
  0
LINE
  5
2B8
100
AcDbEntity
  8
0
100
AcDbLine
 62
7
  6
CONTINUOUS
 10
-6.9657501104
 20
-21.9578738841
 11
-6.6926188024
 21
-22.1155764782
  0
LINE
  5
2B9
100
AcDbEntity
  8
0
100
AcDbLine
 62
7
  6
CONTINUOUS
 10
-6.1003270706
 20
-22.4575583009
 11
-5.7903908547
 21
-22.6365115876
  0
LINE
  5
2BA
100
AcDbEntity
  8
0
100
AcDbLine
 62
7
  6
CONTINUOUS
 10
-5.6235426457
 20
-22.7328476524
 11
-5.3270350947
 21
-22.9040473962
  0
LINE
  5
2BB
100
AcDbEntity
  8
0
100
AcDbLine
 62
7
  6
CONTINUOUS
 10
-4.8965583858
 20
-23.1525992528
 11
-4.8530904107
 21
-23.1776971169
  0
LINE
  5
2BC
100
AcDbEntity
  8
0
100
AcDbLine
 62
7
  6
CONTINUOUS
 10
-4.4208989678
 20
-23.4272390393
 11
-4.1176993582
 21
-23.6023026939
  0
LINE
  5
2BD
100
AcDbEntity
  8
0
100
AcDbLine
 62
7
  6
CONTINUOUS
 10
-4.0690313198
 20
-23.6304030094
 11
-3.7624581037
 21
-23.807414542
  0
LINE
  5
2BE
100
AcDbEntity
  8
0
100
AcDbLine
 62
7
  6
CONTINUOUS
 10
-3.174563869
 20
-24.1468573051
 11
-2.8479045777
 21
-24.3354662859
  0
LINE
  5
2BF
100
AcDbEntity
  8
0
100
AcDbLine
 62
7
  6
CONTINUOUS
 10
-2.7568922445
 20
-24.3880159912
 11
-2.4482034473
 21
-24.5662490339
  0
LINE
  5
2C0
100
AcDbEntity
  8
0
100
AcDbLine
 62
7
  6
CONTINUOUS
 10
-1.9735793903
 20
-24.840291016
 11
-1.6754570939
 21
-25.0124230936
  0
LINE
  5
2C1
100
AcDbEntity
  8
RACCORDO
100
AcDbLine
 62
7
  6
CONTINUOUS
 10
-46.0774304765
 20
0.6706535111
 11
-6.9783613767
 21
-21.9046589607
  0
LINE
  5
2C2
100
AcDbEntity
  8
RACCORDO
100
AcDbLine
 62
7
  6
CONTINUOUS
 10
-6.652841929
 20
-22.09260981
 11
-6.1003270706
 21
-22.4116249646
  0
LINE
  5
2C3
100
AcDbEntity
  8
RACCORDO
100
AcDbLine
 62
7
  6
CONTINUOUS
 10
-5.7506139813
 20
-22.6135449194
 11
-5.6199506746
 21
-22.6889882752
  0
LINE
  5
2C4
100
AcDbEntity
  8
RACCORDO
100
AcDbLine
 62
7
  6
CONTINUOUS
 10
-5.2872582213
 20
-22.881080728
 11
-4.9114766663
 21
-23.0980522883
  0
LINE
  5
2C5
100
AcDbEntity
  8
RACCORDO
100
AcDbLine
 62
7
  6
CONTINUOUS
 10
-4.8133135373
 20
-23.1547304487
 11
-4.4235225923
 21
-23.3797908551
  0
LINE
  5
2C6
100
AcDbEntity
  8
RACCORDO
100
AcDbLine
 62
7
  6
CONTINUOUS
 10
-4.0779224849
 20
-23.5793360258
 11
-4.0565535385
 21
-23.5916741876
  0
LINE
  5
2C7
100
AcDbEntity
  8
RACCORDO
100
AcDbLine
 62
7
  6
CONTINUOUS
 10
-3.7226812304
 20
-23.7844478739
 11
-3.185339136
 21
-24.0947024647
  0
LINE
  5
2C8
100
AcDbEntity
  8
RACCORDO
100
AcDbLine
 62
7
  6
CONTINUOUS
 10
-2.8081277044
 20
-24.3124996177
 11
-2.7573103745
 21
-24.3418409071
  0
LINE
  5
2C9
100
AcDbEntity
  8
RACCORDO
100
AcDbLine
 62
7
  6
CONTINUOUS
 10
-2.4084262927
 20
-24.5432822034
 11
-1.985271625
 21
-24.7876064052
  0
LINE
  5
2CA
100
AcDbEntity
  8
RACCORDO
100
AcDbLine
 62
7
  6
CONTINUOUS
 10
-1.6356799394
 20
-24.989456263
 11
37.3031810374
 21
-47.4722665725
  0
LINE
  5
2CB
100
AcDbEntity
  8
0
100
AcDbLine
 62
7
  6
CONTINUOUS
 10
-3.6769349528
 20
-23.514531014
 11
-3.2548537227
 21
-23.7582354263
  0
LINE
  5
2CC
100
AcDbEntity
  8
0
100
AcDbLine
 62
7
  6
CONTINUOUS
 10
-3.3167941554
 20
-23.4576292507
 11
-3.6135357588
 21
-23.286294368
  0
LINE
  5
2CD
100
AcDbEntity
  8
0
100
AcDbLine
 62
7
  6
CONTINUOUS
 10
-2.4482034473
 20
-23.8953105745
 11
-2.2820232317
 21
-23.9912609483
  0
LINE
  5
2CE
100
AcDbEntity
  8
0
100
AcDbLine
 62
7
  6
CONTINUOUS
 10
-3.3533497453
 20
-23.2732126739
 11
-3.4721144025
 21
-23.2046394493
  0
LINE
  5
2CF
100
AcDbEntity
  8
0
100
AcDbLine
 62
7
  6
CONTINUOUS
 10
-2.2813551705
 20
-23.7108622694
 11
-2.458480455
 21
-23.6085923501
  0
LINE
  5
2D0
100
AcDbEntity
  8
0
100
AcDbLine
 62
7
  6
CONTINUOUS
 10
-2.1399338143
 20
-23.6292073507
 11
-2.3170590987
 21
-23.5269374314
  0
LINE
  5
2D1
100
AcDbEntity
  8
0
100
AcDbLine
 62
7
  6
CONTINUOUS
 10
-3.3034779205
 20
-22.3579808814
 11
-3.6033032165
 21
-22.1848655132
  0
LINE
  5
2D2
100
AcDbEntity
  8
0
100
AcDbLine
 62
7
  6
CONTINUOUS
 10
-4.2565447245
 20
-21.8076920536
 11
-4.5631957223
 21
-21.6306356107
  0
LINE
  5
2D3
100
AcDbEntity
  8
0
100
AcDbLine
 62
7
  6
CONTINUOUS
 10
-5.1797942497
 20
-21.2746193488
 11
-5.4894737858
 21
-21.0958142658
  0
LINE
  5
2D4
100
AcDbEntity
  8
0
100
AcDbLine
 62
7
  6
CONTINUOUS
 10
-6.2153443525
 20
-20.6767056978
 11
-6.5250691435
 21
-20.4978744853
  0
LINE
  5
2D5
100
AcDbEntity
  8
0
100
AcDbLine
 62
7
  6
CONTINUOUS
 10
-7.0997744226
 20
-20.1660468599
 11
-7.436460488
 21
-19.9716485454
  0
LINE
  5
2D6
100
AcDbEntity
  8
0
100
AcDbLine
 62
7
  6
CONTINUOUS
 10
-5.7903908547
 20
-20.9219656463
 11
-6.1003270706
 21
-20.7430123597
  0
LINE
  5
2D7
100
AcDbEntity
  8
0
100
AcDbLine
 62
7
  6
CONTINUOUS
 10
-3.1620565643
 20
-22.2763259628
 11
-3.4618818603
 21
-22.1032105945
  0
LINE
  5
2D8
100
AcDbEntity
  8
0
100
AcDbLine
 62
7
  6
CONTINUOUS
 10
-4.1151233682
 20
-21.7260371349
 11
-4.421774366
 21
-21.548980692
  0
LINE
  5
2D9
100
AcDbEntity
  8
0
100
AcDbLine
 62
7
  6
CONTINUOUS
 10
-5.0383728934
 20
-21.1929644301
 11
-5.3480524296
 21
-21.0141593471
  0
LINE
  5
2DA
100
AcDbEntity
  8
0
100
AcDbLine
 62
7
  6
CONTINUOUS
 10
-6.0739229963
 20
-20.5950507792
 11
-6.3836477873
 21
-20.4162195666
  0
LINE
  5
2DB
100
AcDbEntity
  8
0
100
AcDbLine
 62
7
  6
CONTINUOUS
 10
-6.9583530663
 20
-20.0843919413
 11
-7.2950391318
 21
-19.8899936267
  0
LINE
  5
2DC
100
AcDbEntity
  8
0
100
AcDbLine
 62
7
  6
CONTINUOUS
 10
-5.6489694985
 20
-20.8403107276
 11
-5.9589057144
 21
-20.661357441
  0
LINE
  5
2DD
100
AcDbEntity
  8
RACCORDO
100
AcDbLine
 62
7
  6
CONTINUOUS
 10
35.5283070873
 20
-44.5005745278
 11
-44.3025565264
 21
1.5927656071
  0
LINE
  5
2DE
100
AcDbEntity
  8
RACCORDO
100
AcDbLine
 62
7
  6
CONTINUOUS
 10
35.6678892207
 20
-44.1898162989
 11
-44.1629710994
 21
1.9035219342
  0
LINE
  5
2DF
100
AcDbEntity
  8
RACCORDO
100
AcDbLine
 62
7
  6
CONTINUOUS
 10
-42.6254871367
 20
3.047201906
 11
35.8456618934
 21
-42.2610560695
  0
LINE
  5
2E0
100
AcDbEntity
  8
RACCORDO
100
AcDbLine
 62
7
  6
CONTINUOUS
 10
-42.5120040282
 20
3.1387460349
 11
35.8456618934
 21
-42.1039858937
  0
LWPOLYLINE
  5
2E1
100
AcDbEntity
  8
RACCORDO
100
AcDbPolyline
 62
7
  6
CONTINUOUS
 90
11
 70
0
 10
-46.015305686
 20
0.5333324504
 10
-46.0166020711
 20
0.5340940191
 10
-46.0288541936
 20
0.5427164895
 10
-46.0398890397
 20
0.5532027259
 10
-46.0496244666
 20
0.565474662
 10
-46.0579880238
 20
0.5794409529
 10
-46.0649174733
 20
0.5949976472
 10
-46.0703612437
 20
0.6120289331
 10
-46.0742788321
 20
0.6304080346
 10
-46.0766410986
 20
0.649998163
 10
-46.0774304765
 20
0.6706535111
  0
LWPOLYLINE
  5
2E2
100
AcDbEntity
  8
RACCORDO
100
AcDbPolyline
 62
7
  6
CONTINUOUS
 90
11
 70
0
 10
37.365305821
 20
-47.6095876292
 10
37.3640094469
 20
-47.6088260672
 10
37.3517573249
 20
-47.6002035995
 10
37.3407224791
 20
-47.5897173664
 10
37.3309870516
 20
-47.5774454332
 10
37.3226234934
 20
-47.5634791444
 10
37.3156940426
 20
-47.5479224511
 10
37.3102502708
 20
-47.5308911647
 10
37.3063326814
 20
-47.5125120606
 10
37.3039704146
 20
-47.4929219275
 10
37.3031810374
 20
-47.4722665725
  0
LWPOLYLINE
  5
2E3
100
AcDbEntity
  8
RACCORDO
100
AcDbPolyline
 62
7
  6
CONTINUOUS
 90
25
 70
0
 10
-46.0774304765
 20
0.6706535111
 10
-46.0959788019
 20
0.6820722662
 10
-46.1143141701
 20
0.6947372266
 10
-46.1324365812
 20
0.7086483921
 10
-46.1504284112
 20
0.7238793993
 10
-46.1682072841
 20
0.7403566117
 10
-46.1855260713
 20
0.7578591202
 10
-46.2023721538
 20
0.7763956058
 10
-46.2187581505
 20
0.7959573875
 10
-46.2344747905
 20
0.8162975134
 10
-46.2495144312
 20
0.8374276563
 10
-46.2638847152
 20
0.8593361434
 10
-46.2773992982
 20
0.8817410041
 10
-46.2900472948
 20
0.9046503317
 10
-46.3018395904
 20
0.9280560329
 10
-46.3126224978
 20
0.9516518572
 10
-46.3223811769
 20
0.9754373832
 10
-46.3311304676
 20
0.9994130324
 10
-46.3387612031
 20
1.0232738183
 10
-46.3452594949
 20
1.0470269524
 10
-46.3506392314
 20
1.0706652232
 10
-46.3548329114
 20
1.09386201
 10
-46.3578180343
 20
1.1165084392
 10
-46.3596171008
 20
1.1387133843
 10
-46.3602301106
 20
1.1604768454
  0
LWPOLYLINE
  5
2E4
100
AcDbEntity
  8
RACCORDO
100
AcDbPolyline
 62
7
  6
CONTINUOUS
 90
22
 70
0
 10
-44.3025565264
 20
1.5927656071
 10
-44.3334530619
 20
1.6120495265
 10
-44.3636413748
 20
1.633427823
 10
-44.3931214653
 20
1.6569004965
 10
-44.421984884
 20
1.6825760397
 10
-44.4501400803
 20
1.7103459599
 10
-44.4773124015
 20
1.7398847793
 10
-44.503514929
 20
1.7712067594
 10
-44.5287345816
 20
1.8042976387
 10
-44.552657463
 20
1.8387891554
 10
-44.5752854746
 20
1.8746931483
 10
-44.596616715
 20
1.9119977787
 10
-44.6163315851
 20
1.9502992687
 10
-44.6344418165
 20
1.9896536848
 10
-44.6509356776
 20
2.0300049605
 10
-44.665458374
 20
2.0707811183
 10
-44.677992056
 20
2.1120181906
 10
-44.6885545734
 20
2.153680145
 10
-44.6968446808
 20
2.1950869066
 10
-44.7027619632
 20
2.2360117839
 10
-44.7064068356
 20
2.2766814685
 10
-44.7077792981
 20
2.3170959603
  0
LWPOLYLINE
  5
2E5
100
AcDbEntity
  8
0
100
AcDbPolyline
 62
7
  6
CONTINUOUS
 90
11
 70
0
 10
-35.1437454626
 20
0.1918505541
 10
-35.1326421784
 20
0.1848430899
 10
-35.1157386357
 20
0.171566375
 10
-35.1003556746
 20
0.1560315949
 10
-35.0865774997
 20
0.1383234494
 10
-35.0744789279
 20
0.1185376342
 10
-35.0641258852
 20
0.0967806529
 10
-35.0555762585
 20
0.0731722738
 10
-35.0488780473
 20
0.0478446986
 10
-35.0440677938
 20
0.0209380053
 10
-35.0411711615
 20
-0.0074013709
  0
LWPOLYLINE
  5
2E6
100
AcDbEntity
  8
0
100
AcDbPolyline
 62
7
  6
CONTINUOUS
 90
13
 70
0
 10
-2.2820232317
 20
-23.9912609483
 10
-2.2627347541
 20
-24.0036495355
 10
-2.2444001915
 20
-24.0174757346
 10
-2.2270195439
 20
-24.0327395456
 10
-2.2106780839
 20
-24.0493355165
 10
-2.1952905389
 20
-24.0673690992
 10
-2.1806010914
 20
-24.0871566502
 10
-2.1664321015
 20
-24.1088474806
 10
-2.1529612091
 20
-24.1322922791
 10
-2.1404655159
 20
-24.1573594688
 10
-2.129037389
 20
-24.1840051908
 10
-2.1185844613
 20
-24.2122733039
 10
-2.1091067326
 20
-24.2421638082
  0
LWPOLYLINE
  5
2E7
100
AcDbEntity
  8
RACCORDO
100
AcDbPolyline
 62
7
  6
CONTINUOUS
 90
7
 70
0
 10
-42.6446181094
 20
3.0598843542
 10
-42.6415719721
 20
3.0576374352
 10
-42.6384688915
 20
3.0554437871
 10
-42.6353088677
 20
3.0533034102
 10
-42.6320919006
 20
3.0512163044
 10
-42.6288179903
 20
3.0491824696
 10
-42.6254871367
 20
3.047201906
  0
LWPOLYLINE
  5
2E8
100
AcDbEntity
  8
0
100
AcDbPolyline
 62
7
  6
CONTINUOUS
 90
16
 70
0
 10
-2.2156736233
 20
-23.2680455226
 10
-2.1951950446
 20
-23.2839545796
 10
-2.1757830003
 20
-23.3009750911
 10
-2.1574374904
 20
-23.3191070572
 10
-2.1400445433
 20
-23.3385296365
 10
-2.1237181306
 20
-23.3590636704
 10
-2.1088001677
 20
-23.3801716826
 10
-2.0954146874
 20
-23.4016991419
 10
-2.0834376569
 20
-23.4238005796
 10
-2.0728388937
 20
-23.4464021131
 10
-2.0635169481
 20
-23.4698093502
 10
-2.0555732699
 20
-23.4937166832
 10
-2.0492820253
 20
-23.517133406
 10
-2.0447346032
 20
-23.5397292833
 10
-2.0418396147
 20
-23.5618345504
 10
-2.0405970598
 20
-23.5834492073
  0
LWPOLYLINE
  5
2E9
100
AcDbEntity
  8
RACCORDO
100
AcDbPolyline
 62
7
  6
CONTINUOUS
 90
25
 70
0
 10
-12.1925597852
 20
-13.0150014874
 10
-12.1933009451
 20
-12.9878440752
 10
-12.1955302656
 20
-12.9599173208
 10
-12.1992361282
 20
-12.9313400012
 10
-12.2043988884
 20
-12.9022329549
 10
-12.2109961163
 20
-12.8727206508
 10
-12.2190028348
 20
-12.8429306253
 10
-12.2283830695
 20
-12.8129895734
 10
-12.2390947524
 20
-12.7830246948
 10
-12.2510952735
 20
-12.7531652194
 10
-12.2643319011
 20
-12.7235381963
 10
-12.2787462975
 20
-12.6942694998
 10
-12.2942798289
 20
-12.6654851849
 10
-12.3108649978
 20
-12.6373078684
 10
-12.3284293989
 20
-12.6098573518
 10
-12.3469005851
 20
-12.5832517535
 10
-12.3661988347
 20
-12.5576046333
 10
-12.3862404015
 20
-12.5330251983
 10
-12.4069417549
 20
-12.5096191611
 10
-12.4282177504
 20
-12.4874830892
 10
-12.4499727906
 20
-12.4667155914
 10
-12.472103582
 20
-12.4474154485
 10
-12.4945113357
 20
-12.4296661652
 10
-12.5171028438
 20
-12.4135379353
 10
-12.5397812664
 20
-12.3990974576
  0
LINE
  5
2EA
100
AcDbEntity
  8
RACCORDO
100
AcDbLine
 62
7
  6
CONTINUOUS
 10
-18.2674000419
 20
-9.7450842352
 11
-18.2674000419
 21
-9.7214247571
  0
LINE
  5
2EB
100
AcDbEntity
  8
DRAFT
100
AcDbLine
 62
7
  6
CONTINUOUS
 10
-12.6249187203
 20
-13.7596432506
 11
-12.6249187203
 21
-13.219983979
  0
LINE
  5
2EC
100
AcDbEntity
  8
RACCORDO
100
AcDbLine
 62
7
  6
CONTINUOUS
 10
-12.6220120156
 20
-13.7596432506
 11
-12.6220120156
 21
-13.8150016868
  0
LINE
  5
2ED
100
AcDbEntity
  8
0
100
AcDbLine
 62
7
  6
CONTINUOUS
 10
-27.2546175117
 20
-1.6980553512
 11
-28.5960041255
 21
-2.5582245432
  0
LINE
  5
2EE
100
AcDbEntity
  8
RACCORDO
100
AcDbLine
 62
7
  6
CONTINUOUS
 10
-30.6608279245
 20
-2.0583519838
 11
-31.2265133495
 21
-2.3963728918
  0
LINE
  5
2EF
100
AcDbEntity
  8
RACCORDO
100
AcDbLine
 62
7
  6
CONTINUOUS
 10
-30.4086542672
 20
-2.0818341366
 11
-30.9743396921
 21
-2.4198550446
  0
LWPOLYLINE
  5
2F0
100
AcDbEntity
  8
0
100
AcDbPolyline
 62
7
  6
CONTINUOUS
 90
11
 70
0
 10
-27.2476039819
 20
-1.6937816877
 10
-27.2373005492
 20
-1.6876591938
 10
-27.228137588
 20
-1.6824031146
 10
-27.2201716496
 20
-1.6779419605
 10
-27.2135388238
 20
-1.6741564456
 10
-27.208178137
 20
-1.670998162
 10
-27.203838091
 20
-1.6685098338
 10
-27.2005160363
 20
-1.6666298381
 10
-27.1982422042
 20
-1.6652673878
 10
-27.1968160799
 20
-1.6644536079
 10
-27.1962246473
 20
-1.6641393172
  0
LINE
  5
2F1
100
AcDbEntity
  8
0
100
AcDbLine
 62
7
  6
CONTINUOUS
 10
-27.2476039819
 20
-2.1766032831
 11
-28.2436238437
 21
-2.7616845015
  0
LINE
  5
2F2
100
AcDbEntity
  8
0
100
AcDbLine
 62
7
  6
CONTINUOUS
 10
-34.3442371246
 20
-0.6795217394
 11
-34.2977415637
 21
-0.6526757852
  0
LINE
  5
2F3
100
AcDbEntity
  8
0
100
AcDbLine
 62
7
  6
CONTINUOUS
 10
-34.2580790841
 20
-0.6755764039
 11
-34.1166577278
 21
-0.5939214853
  0
LINE
  5
2F4
100
AcDbEntity
  8
0
100
AcDbLine
 62
7
  6
CONTINUOUS
 10
-34.0502541903
 20
-0.7955837294
 11
-33.9088328341
 21
-0.7139288107
  0
LINE
  5
2F5
100
AcDbEntity
  8
0
100
AcDbLine
 62
7
  6
CONTINUOUS
 10
-33.6967007997
 20
-0.5914464327
 11
-33.5552794435
 21
-0.5097915141
  0
LINE
  5
2F6
100
AcDbEntity
  8
0
100
AcDbLine
 62
7
  6
CONTINUOUS
 10
-33.3431474091
 20
-0.3873091361
 11
-33.2017260529
 21
-0.3056542174
  0
LINE
  5
2F7
100
AcDbEntity
  8
0
100
AcDbLine
 62
7
  6
CONTINUOUS
 10
-32.9895940185
 20
-0.1831718394
 11
-32.8481726623
 21
-0.1015169207
  0
LINE
  5
2F8
100
AcDbEntity
  8
0
100
AcDbLine
 62
7
  6
CONTINUOUS
 10
-32.6360406279
 20
0.0209654573
 11
-32.4946192717
 21
0.1026203759
  0
LINE
  5
2F9
100
AcDbEntity
  8
0
100
AcDbLine
 62
7
  6
CONTINUOUS
 10
-32.2824872373
 20
0.2251027539
 11
-32.1410658811
 21
0.3067576726
  0
LINE
  5
2FA
100
AcDbEntity
  8
0
100
AcDbLine
 62
7
  6
CONTINUOUS
 10
-31.9289338467
 20
0.4292400506
 11
-31.7875124905
 21
0.5108949693
  0
LINE
  5
2FB
100
AcDbEntity
  8
0
100
AcDbLine
 62
7
  6
CONTINUOUS
 10
-31.5753804561
 20
0.6333773473
 11
-31.4339590999
 21
0.7150322659
  0
LINE
  5
2FC
100
AcDbEntity
  8
0
100
AcDbLine
 62
7
  6
CONTINUOUS
 10
-28.7469533314
 20
-2.224544806
 11
-28.6055319752
 21
-2.1428898874
  0
LINE
  5
2FD
100
AcDbEntity
  8
0
100
AcDbLine
 62
7
  6
CONTINUOUS
 10
-28.3933999408
 20
-2.0204075094
 11
-28.2519785846
 21
-1.9387525907
  0
LINE
  5
2FE
100
AcDbEntity
  8
0
100
AcDbLine
 62
7
  6
CONTINUOUS
 10
-28.0398465502
 20
-1.8162702127
 11
-27.898425194
 21
-1.734615294
  0
LINE
  5
2FF
100
AcDbEntity
  8
0
100
AcDbLine
 62
7
  6
CONTINUOUS
 10
-27.6862931596
 20
-1.612132916
 11
-27.5448718034
 21
-1.5304779974
  0
LINE
  5
300
100
AcDbEntity
  8
0
100
AcDbLine
 62
7
  6
CONTINUOUS
 10
-27.4388057862
 20
-1.5917073499
 11
-28.8530193486
 21
-2.4082565366
  0
LINE
  5
301
100
AcDbEntity
  8
RACCORDO
100
AcDbLine
 62
7
  6
CONTINUOUS
 10
-34.7220009268
 20
-0.4614056544
 11
-34.6451245968
 21
-0.4185676461
  0
LINE
  5
302
100
AcDbEntity
  8
RACCORDO
100
AcDbLine
 62
7
  6
CONTINUOUS
 10
-29.578581934
 20
-2.264625814
 11
-29.8444478059
 21
-2.4075998761
  0
LINE
  5
303
100
AcDbEntity
  8
0
100
AcDbLine
 62
7
  6
CONTINUOUS
 10
-31.5120813573
 20
0.7601509147
 11
-34.1166577278
 21
-0.5939214853
  0
LWPOLYLINE
  5
304
100
AcDbEntity
  8
0
100
AcDbPolyline
 62
7
  6
CONTINUOUS
 90
11
 70
0
 10
-35.3584017355
 20
0.1853296902
 10
-35.3356010179
 20
0.1950987051
 10
-35.3100048733
 20
0.2038188351
 10
-35.2848595185
 20
0.2101097176
 10
-35.2603036662
 20
0.2139351238
 10
-35.2364746523
 20
0.2152727328
 10
-35.2135029555
 20
0.2141144015
 10
-35.1915146973
 20
0.2104653938
 10
-35.1706331579
 20
0.2043456554
 10
-35.1509735618
 20
0.1957893176
 10
-35.1437454626
 20
0.1918505541
  0
LWPOLYLINE
  5
305
100
AcDbEntity
  8
0
100
AcDbPolyline
 62
7
  6
CONTINUOUS
 90
6
 70
0
 10
-13.3504702743
 20
-11.3978370136
 10
-13.3140674355
 20
-11.4052418912
 10
-13.2782683355
 20
-11.4153440809
 10
-13.2433359973
 20
-11.4280729363
 10
-13.2093351801
 20
-11.4434174226
 10
-13.1818401844
 20
-11.4581696189
  0
LWPOLYLINE
  5
306
100
AcDbEntity
  8
ASSI
100
AcDbPolyline
 62
7
  6
CONTINUOUS
 90
8
 70
0
 10
0.3957025058
 20
-17.6038335866
 10
0.3825218166
 20
-17.6010167018
 10
0.3698512132
 20
-17.5994623394
 10
0.3577108648
 20
-17.5991023713
 10
0.3461783353
 20
-17.5998577265
 10
0.3352943415
 20
-17.6016740941
 10
0.325067375
 20
-17.6045274933
 10
0.3155131101
 20
-17.6083800497
  0
LWPOLYLINE
  5
307
100
AcDbEntity
  8
RACCORDO
100
AcDbPolyline
 62
7
  6
CONTINUOUS
 90
22
 70
0
 10
-44.162970478
 20
1.9035224076
 10
-44.1808244898
 20
1.9111157934
 10
-44.1980000352
 20
1.9202574423
 10
-44.2144272948
 20
1.9308732349
 10
-44.2300144565
 20
1.9428649826
 10
-44.2447158207
 20
1.9561739689
 10
-44.2585332066
 20
1.9707917934
 10
-44.2714087862
 20
1.9866546881
 10
-44.2832688672
 20
2.003677988
 10
-44.2940913791
 20
2.0218310624
 10
-44.3038056747
 20
2.0410373957
 10
-44.312348364
 20
2.0612147229
 10
-44.3197037626
 20
2.0823247404
 10
-44.3257973756
 20
2.1043061458
 10
-44.3305614023
 20
2.1270447528
 10
-44.3339856514
 20
2.1504190867
 10
-44.3359826091
 20
2.1743501362
 10
-44.3364975355
 20
2.198721718
 10
-44.3355694965
 20
2.2233524094
 10
-44.3331671284
 20
2.2481127131
 10
-44.3291893935
 20
2.2729257897
 10
-44.3235743721
 20
2.2976877288
  0
LWPOLYLINE
  5
308
100
AcDbEntity
  8
0
100
AcDbPolyline
 62
7
  6
CONTINUOUS
 90
11
 70
0
 10
-13.1893646435
 20
-11.4540781522
 10
-13.2090647949
 20
-11.4455499122
 10
-13.2299995306
 20
-11.4394614037
 10
-13.2520462092
 20
-11.4358516293
 10
-13.2750633219
 20
-11.4347416075
 10
-13.2989283429
 20
-11.4361326617
 10
-13.3235035998
 20
-11.4400123496
 10
-13.3486126819
 20
-11.4463420335
 10
-13.374101535
 20
-11.4550649885
 10
-13.3998427713
 20
-11.46612009
 10
-13.4256960078
 20
-11.4794315543
  0
LWPOLYLINE
  5
309
100
AcDbEntity
  8
0
100
AcDbPolyline
 62
7
  6
CONTINUOUS
 90
11
 70
0
 10
-29.0992672202
 20
-2.2678998023
 10
-29.1189673716
 20
-2.2593715624
 10
-29.1399021073
 20
-2.2532830538
 10
-29.1619487859
 20
-2.2496732794
 10
-29.1849658986
 20
-2.2485632576
 10
-29.2088309196
 20
-2.2499543118
 10
-29.2334061765
 20
-2.2538339997
 10
-29.2585152586
 20
-2.2601636836
 10
-29.2840041117
 20
-2.2688866387
 10
-29.309745348
 20
-2.2799417401
 10
-29.3355985845
 20
-2.2932532044
  0
LINE
  5
30A
100
AcDbEntity
  8
0
100
AcDbLine
 62
7
  6
CONTINUOUS
 10
32.2538828924
 20
-35.9905421023
 11
32.2666273815
 21
-35.9972169623
  0
LINE
  5
30B
100
AcDbEntity
  8
0
100
AcDbLine
 62
7
  6
CONTINUOUS
 10
-31.3857274143
 20
0.7541712972
 11
-31.3729829252
 21
0.7474964372
  0
LWPOLYLINE
  5
30C
100
AcDbEntity
  8
ASSI
100
AcDbPolyline
 62
7
  6
CONTINUOUS
 90
5
 70
0
 10
16.3591320685
 20
-26.8124449792
 10
16.3470810588
 20
-26.8058985034
 10
16.3330910544
 20
-26.7993863641
 10
16.319220454
 20
-26.7940906988
 10
16.3056050825
 20
-26.7900119365
  0
LWPOLYLINE
  5
30D
100
AcDbEntity
  8
ASSI
100
AcDbPolyline
 62
7
  6
CONTINUOUS
 90
5
 70
0
 10
0.4492294918
 20
-17.6262666293
 10
0.4371784821
 20
-17.6197201535
 10
0.4231884777
 20
-17.6132080142
 10
0.4093178773
 20
-17.6079123489
 10
0.3957025058
 20
-17.6038335866
  0
LWPOLYLINE
  5
30E
100
AcDbEntity
  8
ASSI
100
AcDbPolyline
 62
7
  6
CONTINUOUS
 90
5
 70
0
 10
-15.4606730849
 20
-8.4400882794
 10
-15.4727240946
 20
-8.4335418037
 10
-15.486714099
 20
-8.4270296643
 10
-15.5005846994
 20
-8.4217339991
 10
-15.5142000709
 20
-8.4176552368
  0
LWPOLYLINE
  5
30F
100
AcDbEntity
  8
0
100
AcDbPolyline
 62
7
  6
CONTINUOUS
 90
12
 70
0
 10
27.8178883304
 20
-35.1308990151
 10
27.8103783538
 20
-35.1268159117
 10
27.7906782032
 20
-35.1182876727
 10
27.7697434712
 20
-35.1121991655
 10
27.747696798
 20
-35.1085893916
 10
27.7246796877
 20
-35.1074793692
 10
27.7008146614
 20
-35.1088704232
 10
27.6762393951
 20
-35.1127501128
 10
27.651130307
 20
-35.1190797991
 10
27.6256414543
 20
-35.1278027552
 10
27.5999002224
 20
-35.1388578558
 10
27.5740469944
 20
-35.1521693163
  0
LINE
  5
310
100
AcDbEntity
  8
0
100
AcDbLine
 62
7
  6
CONTINUOUS
 10
26.5661862487
 20
-34.4081819207
 11
26.5586720744
 21
-34.4040966724
  0
LWPOLYLINE
  5
311
100
AcDbEntity
  8
0
100
AcDbPolyline
 62
7
  6
CONTINUOUS
 90
12
 70
0
 10
11.9079857537
 20
-25.9447206652
 10
11.9004757771
 20
-25.9406375618
 10
11.8807756265
 20
-25.9321093228
 10
11.8598408945
 20
-25.9260208156
 10
11.8377942213
 20
-25.9224110418
 10
11.814777111
 20
-25.9213010193
 10
11.7909120847
 20
-25.9226920733
 10
11.7663368184
 20
-25.9265717629
 10
11.7412277303
 20
-25.9329014493
 10
11.7157388776
 20
-25.9416244054
 10
11.6899976457
 20
-25.9526795059
 10
11.6641444177
 20
-25.9659909664
  0
LINE
  5
312
100
AcDbEntity
  8
0
100
AcDbLine
 62
7
  6
CONTINUOUS
 10
10.656283672
 20
-25.2220035708
 11
10.6487694977
 21
-25.2179183225
  0
LWPOLYLINE
  5
313
100
AcDbEntity
  8
0
100
AcDbPolyline
 62
7
  6
CONTINUOUS
 90
12
 70
0
 10
-11.930152589
 20
-12.1808783482
 10
-11.9376667668
 20
-12.1767930982
 10
-11.9573679056
 20
-12.168265139
 10
-11.9783034214
 20
-12.162177151
 10
-12.0003507604
 20
-12.15856803
 10
-12.0233685228
 20
-12.1574587465
 10
-12.0472345928
 20
-12.1588506639
 10
-12.0718108944
 20
-12.1627313728
 10
-12.0969198338
 20
-12.1690618772
 10
-12.1224068939
 20
-12.1777849575
 10
-12.1481450461
 20
-12.1888392437
 10
-12.1739939247
 20
-12.2021486496
  0
LINE
  5
314
100
AcDbEntity
  8
0
100
AcDbLine
 62
7
  6
CONTINUOUS
 10
-13.18185467
 20
-11.4581612542
 11
-13.1893646435
 21
-11.4540781522
  0
LWPOLYLINE
  5
315
100
AcDbEntity
  8
0
100
AcDbPolyline
 62
7
  6
CONTINUOUS
 90
12
 70
0
 10
-27.8400551701
 20
-2.9946999958
 10
-27.8475693582
 20
-2.9906147409
 10
-27.8672704947
 20
-2.9820867847
 10
-27.8882059999
 20
-2.9759988007
 10
-27.910253323
 20
-2.9723896816
 10
-27.9332710786
 20
-2.9712803965
 10
-27.9571371645
 20
-2.9726723135
 10
-27.981713494
 20
-2.9765530276
 10
-28.006822451
 20
-2.9828835394
 10
-28.0323095096
 20
-2.9916066228
 10
-28.0580476483
 20
-3.0026609061
 10
-28.0838965011
 20
-3.0159702999
  0
LINE
  5
316
100
AcDbEntity
  8
0
100
AcDbLine
 62
7
  6
CONTINUOUS
 10
-29.0917572467
 20
-2.2719829043
 11
-29.0992672202
 21
-2.2678998023
  0
LWPOLYLINE
  5
317
100
AcDbEntity
  8
RACCORDO
100
AcDbPolyline
 62
7
  6
CONTINUOUS
 90
12
 70
0
 10
-40.700758765
 20
4.4309090774
 10
-40.7082687424
 20
4.4349921814
 10
-40.7279688943
 20
4.4435204209
 10
-40.748903631
 20
4.4496089292
 10
-40.770950311
 20
4.4532187031
 10
-40.7939674244
 20
4.4543287241
 10
-40.8178324453
 20
4.4529376692
 10
-40.8424077013
 20
4.4490579808
 10
-40.8675167822
 20
4.4427282966
 10
-40.8930056338
 20
4.4340053416
 10
-40.9187468683
 20
4.4229502406
 10
-40.9446001026
 20
4.4096387772
  0
LWPOLYLINE
  5
318
100
AcDbEntity
  8
RACCORDO
100
AcDbPolyline
 62
7
  6
CONTINUOUS
 90
12
 70
0
 10
-34.4013057427
 20
-0.397316643
 10
-34.4085039112
 20
-0.3933875319
 10
-34.4281122155
 20
-0.384823638
 10
-34.4489565123
 20
-0.3787268235
 10
-34.471016922
 20
-0.375057408
 10
-34.4939347803
 20
-0.3738750498
 10
-34.5177241039
 20
-0.3752204046
 10
-34.5423708761
 20
-0.3790528167
 10
-34.5674743829
 20
-0.3853099778
 10
-34.592901053
 20
-0.3939711183
 10
-34.6187844576
 20
-0.4050570078
 10
-34.6451245968
 20
-0.4185676461
  0
LINE
  5
319
100
AcDbEntity
  8
0
100
AcDbLine
 62
7
  6
CONTINUOUS
 10
28.5788267707
 20
-36.761459778
 11
28.5898826624
 21
-36.7676070875
  0
LINE
  5
31A
100
AcDbEntity
  8
0
100
AcDbLine
 62
7
  6
CONTINUOUS
 10
-35.060783536
 20
-0.0167463785
 11
-35.0497276444
 21
-0.0228936881
  0
LINE
  5
31B
100
AcDbEntity
  8
RACCORDO
100
AcDbLine
 62
7
  6
CONTINUOUS
 10
35.8456618934
 20
-41.7996291593
 11
-42.2471709932
 21
3.2901938164
  0
LINE
  5
31C
100
AcDbEntity
  8
RACCORDO
100
AcDbLine
 62
7
  6
CONTINUOUS
 10
-28.3198148667
 20
-4.4510248468
 11
-23.6586912116
 21
-7.1422992276
  0
LINE
  5
31D
100
AcDbEntity
  8
RACCORDO
100
AcDbLine
 62
7
  6
CONTINUOUS
 10
-12.40991229
 20
-13.6372031967
 11
-7.9608883605
 21
-16.2060138542
  0
LINE
  5
31E
100
AcDbEntity
  8
RACCORDO
100
AcDbLine
 62
7
  6
CONTINUOUS
 10
3.4999902867
 20
-22.8233815465
 11
7.9490142162
 21
-25.392192204
  0
LINE
  5
31F
100
AcDbEntity
  8
RACCORDO
100
AcDbLine
 62
7
  6
CONTINUOUS
 10
19.4098928634
 20
-32.0095598964
 11
23.8589167929
 21
-34.5783705539
  0
LINE
  5
320
100
AcDbEntity
  8
RACCORDO
100
AcDbLine
 62
7
  6
CONTINUOUS
 10
-41.7336205168
 20
3.5870156206
 11
-28.534821297
 21
-4.0338056291
  0
LINE
  5
321
100
AcDbEntity
  8
DRAFT
100
AcDbLine
 62
7
  6
CONTINUOUS
 10
-23.2315204381
 20
-7.095865079
 11
-12.6249187203
 21
-13.219983979
  0
LINE
  5
322
100
AcDbEntity
  8
DRAFT
100
AcDbLine
 62
7
  6
CONTINUOUS
 10
-7.3216178615
 20
-16.2820434289
 11
3.2849838563
 21
-22.4061623288
  0
LINE
  5
323
100
AcDbEntity
  8
DRAFT
100
AcDbLine
 62
7
  6
CONTINUOUS
 10
8.5882847152
 20
-25.4682217788
 11
19.194886433
 21
-31.5923406787
  0
LINE
  5
324
100
AcDbEntity
  8
RACCORDO
100
AcDbLine
 62
7
  6
CONTINUOUS
 10
24.4981872919
 20
-34.6544001287
 11
35.8456618934
 21
-41.2062897463
  0
LINE
  5
325
100
AcDbEntity
  8
0
100
AcDbLine
 62
7
  6
CONTINUOUS
 10
32.3903465152
 20
-39.1575538805
 11
29.5893561165
 21
-37.5402971289
  0
LINE
  5
326
100
AcDbEntity
  8
0
100
AcDbLine
 62
7
  6
CONTINUOUS
 10
-31.2492637916
 20
-2.412840481
 11
-34.0502541903
 21
-0.7955837294
  0
LINE
  5
327
100
AcDbEntity
  8
0
100
AcDbLine
 62
7
  6
CONTINUOUS
 10
-34.2977415637
 20
-0.6526757852
 11
-34.2580790841
 21
-0.6755764039
  0
LINE
  5
328
100
AcDbEntity
  8
0
100
AcDbLine
 62
7
  6
CONTINUOUS
 10
29.3418687431
 20
-37.3973891847
 11
29.3815312227
 21
-37.4202898034
  0
LINE
  5
329
100
AcDbEntity
  8
0
100
AcDbLine
 62
7
  6
CONTINUOUS
 10
28.9944857099
 20
-37.1632810456
 11
28.2812085713
 21
-36.7514437652
  0
LINE
  5
32A
100
AcDbEntity
  8
0
100
AcDbLine
 62
7
  6
CONTINUOUS
 10
-34.6451245968
 20
-0.4185676461
 11
-35.3584017355
 21
-0.0067303657
  0
LINE
  5
32B
100
AcDbEntity
  8
RACCORDO
100
AcDbLine
 62
7
  6
CONTINUOUS
 10
35.8456618934
 20
-41.0008865088
 11
32.6652706146
 21
-39.1645684441
  0
LINE
  5
32C
100
AcDbEntity
  8
RACCORDO
100
AcDbLine
 62
7
  6
CONTINUOUS
 10
27.3619697557
 20
-36.1025089941
 11
25.4128734075
 21
-34.9771251905
  0
LINE
  5
32D
100
AcDbEntity
  8
RACCORDO
100
AcDbLine
 62
7
  6
CONTINUOUS
 10
18.8458642033
 20
-31.18541638
 11
16.7651882659
 21
-29.9840601707
  0
LINE
  5
32E
100
AcDbEntity
  8
RACCORDO
100
AcDbLine
 62
7
  6
CONTINUOUS
 10
11.4422469511
 20
-26.9106605677
 11
9.5029708308
 21
-25.7909468407
  0
LINE
  5
32F
100
AcDbEntity
  8
RACCORDO
100
AcDbLine
 62
7
  6
CONTINUOUS
 10
2.9359616266
 20
-21.9992380301
 11
0.8552856892
 21
-20.7978818208
  0
LINE
  5
330
100
AcDbEntity
  8
RACCORDO
100
AcDbLine
 62
7
  6
CONTINUOUS
 10
-4.4676556256
 20
-17.7244822178
 11
-6.548331563
 21
-16.5231260086
  0
LINE
  5
331
100
AcDbEntity
  8
RACCORDO
100
AcDbLine
 62
7
  6
CONTINUOUS
 10
-13.1153407672
 20
-12.731417198
 11
-15.0546168875
 21
-11.611703471
  0
LINE
  5
332
100
AcDbEntity
  8
RACCORDO
100
AcDbLine
 62
7
  6
CONTINUOUS
 10
-20.3775582023
 20
-8.538303868
 11
-22.4582341397
 21
-7.3369476587
  0
LINE
  5
333
100
AcDbEntity
  8
RACCORDO
100
AcDbLine
 62
7
  6
CONTINUOUS
 10
-29.0252433439
 20
-3.5452388481
 11
-30.9743396921
 21
-2.4198550446
  0
LINE
  5
334
100
AcDbEntity
  8
RACCORDO
100
AcDbLine
 62
7
  6
CONTINUOUS
 10
-36.277640551
 20
0.6422044054
 11
-41.7223627662
 21
3.785918774
  0
LINE
  5
335
100
AcDbEntity
  8
0
100
AcDbLine
 62
7
  6
CONTINUOUS
 10
32.5268964747
 20
-39.0730862784
 11
29.7307774727
 21
-37.4586422102
  0
LINE
  5
336
100
AcDbEntity
  8
0
100
AcDbLine
 62
7
  6
CONTINUOUS
 10
-31.1127138321
 20
-2.3283728789
 11
-33.9088328341
 21
-0.7139288107
  0
LINE
  5
337
100
AcDbEntity
  8
DRAFT
100
AcDbLine
 62
7
  6
CONTINUOUS
 10
-18.2674000419
 20
-9.7450842352
 11
-18.2067551511
 21
-9.7800998351
  0
LINE
  5
338
100
AcDbEntity
  8
DRAFT
100
AcDbLine
 62
7
  6
CONTINUOUS
 10
-2.3574974652
 20
-18.9312625851
 11
-2.2968525744
 21
-18.966278185
  0
LINE
  5
339
100
AcDbEntity
  8
DRAFT
100
AcDbLine
 62
7
  6
CONTINUOUS
 10
13.5524051115
 20
-28.117440935
 11
13.6130500023
 21
-28.1524565349
  0
LINE
  5
33A
100
AcDbEntity
  8
RACCORDO
100
AcDbLine
 62
7
  6
CONTINUOUS
 10
-22.7234070229
 20
-7.1415584302
 11
-22.5129203109
 21
-7.2630908196
  0
LINE
  5
33B
100
AcDbEntity
  8
RACCORDO
100
AcDbLine
 62
7
  6
CONTINUOUS
 10
-19.4484991588
 20
-9.0324491866
 11
-18.6087194816
 21
-9.5173274473
  0
LINE
  5
33C
100
AcDbEntity
  8
RACCORDO
100
AcDbLine
 62
7
  6
CONTINUOUS
 10
-6.8135044462
 20
-16.32773678
 11
-6.6030177342
 21
-16.4492691695
  0
LINE
  5
33D
100
AcDbEntity
  8
RACCORDO
100
AcDbLine
 62
7
  6
CONTINUOUS
 10
-3.5385965821
 20
-18.2186275365
 11
-2.6988169049
 21
-18.7035057972
  0
LINE
  5
33E
100
AcDbEntity
  8
RACCORDO
100
AcDbLine
 62
7
  6
CONTINUOUS
 10
3.723620853
 20
-22.4117408666
 11
3.8621626274
 21
-22.4917331508
  0
LINE
  5
33F
100
AcDbEntity
  8
RACCORDO
100
AcDbLine
 62
7
  6
CONTINUOUS
 10
9.0963981305
 20
-25.5139151299
 11
9.388254908
 21
-25.6824295754
  0
LINE
  5
340
100
AcDbEntity
  8
RACCORDO
100
AcDbLine
 62
7
  6
CONTINUOUS
 10
12.3713059946
 20
-27.4048058864
 11
13.2110856718
 21
-27.8896841471
  0
LINE
  5
341
100
AcDbEntity
  8
RACCORDO
100
AcDbLine
 62
7
  6
CONTINUOUS
 10
19.6335234297
 20
-31.5979192164
 11
19.7720652041
 21
-31.6779115006
  0
LINE
  5
342
100
AcDbEntity
  8
RACCORDO
100
AcDbLine
 62
7
  6
CONTINUOUS
 10
25.0063007072
 20
-34.7000934798
 11
25.2981574847
 21
-34.8686079253
  0
LINE
  5
343
100
AcDbEntity
  8
0
100
AcDbLine
 62
7
  6
CONTINUOUS
 10
28.5898826624
 20
-36.7676070875
 11
28.5899562837
 21
-36.7676495946
  0
LINE
  5
344
100
AcDbEntity
  8
RACCORDO
100
AcDbLine
 62
7
  6
CONTINUOUS
 10
29.2383274325
 20
-37.1420109677
 11
28.5895702013
 21
-36.7674266732
  0
LINE
  5
345
100
AcDbEntity
  8
RACCORDO
100
AcDbLine
 62
7
  6
CONTINUOUS
 10
-34.4012828742
 20
-0.3972975682
 11
-35.0500401055
 21
-0.0227132737
  0
LINE
  5
346
100
AcDbEntity
  8
0
100
AcDbLine
 62
7
  6
CONTINUOUS
 10
-35.0497276444
 20
-0.0228936881
 11
-35.0496540231
 21
-0.0229361951
  0
LINE
  5
347
100
AcDbEntity
  8
RACCORDO
100
AcDbLine
 62
7
  6
CONTINUOUS
 10
-35.3584017355
 20
0.3157903958
 11
-35.1437453569
 21
0.1918504931
  0
LINE
  5
348
100
AcDbEntity
  8
RACCORDO
100
AcDbLine
 62
7
  6
CONTINUOUS
 10
-22.7234070229
 20
-6.9794971976
 11
-22.3773952246
 21
-7.1792800734
  0
LINE
  5
349
100
AcDbEntity
  8
RACCORDO
100
AcDbLine
 62
7
  6
CONTINUOUS
 10
-19.4484991588
 20
-8.8703879541
 11
-18.3691072095
 21
-9.4936153377
  0
LINE
  5
34A
100
AcDbEntity
  8
RACCORDO
100
AcDbLine
 62
7
  6
CONTINUOUS
 10
-6.8135044462
 20
-16.1656755475
 11
-6.4674926479
 21
-16.3654584233
  0
LINE
  5
34B
100
AcDbEntity
  8
RACCORDO
100
AcDbLine
 62
7
  6
CONTINUOUS
 10
-3.5385965821
 20
-18.056566304
 11
-2.4592046328
 21
-18.6797936876
  0
LINE
  5
34C
100
AcDbEntity
  8
RACCORDO
100
AcDbLine
 62
7
  6
CONTINUOUS
 10
3.723620853
 20
-22.249679634
 11
3.9976877136
 21
-22.4079224045
  0
LINE
  5
34D
100
AcDbEntity
  8
RACCORDO
100
AcDbLine
 62
7
  6
CONTINUOUS
 10
9.0963981305
 20
-25.3518538974
 11
9.5237799942
 21
-25.5986188291
  0
LINE
  5
34E
100
AcDbEntity
  8
RACCORDO
100
AcDbLine
 62
7
  6
CONTINUOUS
 10
12.3713059946
 20
-27.2427446538
 11
13.4506979439
 21
-27.8659720374
  0
LINE
  5
34F
100
AcDbEntity
  8
RACCORDO
100
AcDbLine
 62
7
  6
CONTINUOUS
 10
19.6335234297
 20
-31.4358579839
 11
19.9075902903
 21
-31.5941007544
  0
LINE
  5
350
100
AcDbEntity
  8
RACCORDO
100
AcDbLine
 62
7
  6
CONTINUOUS
 10
25.0063007072
 20
-34.5380322472
 11
25.4336825709
 21
-34.784797179
  0
LINE
  5
351
100
AcDbEntity
  8
RACCORDO
100
AcDbLine
 62
7
  6
CONTINUOUS
 10
28.2812085713
 20
-36.4289230037
 11
28.4958649499
 21
-36.5528629064
  0
LINE
  5
352
100
AcDbEntity
  8
0
100
AcDbLine
 62
7
  6
CONTINUOUS
 10
32.7353895997
 20
-38.9485028397
 11
29.9429095071
 21
-37.3361598322
  0
LINE
  5
353
100
AcDbEntity
  8
0
100
AcDbLine
 62
7
  6
CONTINUOUS
 10
-30.9042207071
 20
-2.2037894402
 11
-33.6967007997
 21
-0.5914464327
  0
LINE
  5
354
100
AcDbEntity
  8
0
100
AcDbLine
 62
7
  6
CONTINUOUS
 10
32.8743850164
 20
-38.865447214
 11
30.0843308633
 21
-37.2545049136
  0
LINE
  5
355
100
AcDbEntity
  8
0
100
AcDbLine
 62
7
  6
CONTINUOUS
 10
-30.7652252904
 20
-2.1207338145
 11
-33.5552794435
 21
-0.5097915141
  0
LINE
  5
356
100
AcDbEntity
  8
RACCORDO
100
AcDbLine
 62
7
  6
CONTINUOUS
 10
-27.4166214243
 20
-3.8924764739
 11
-22.7234070229
 21
-6.6022796495
  0
LINE
  5
357
100
AcDbEntity
  8
RACCORDO
100
AcDbLine
 62
7
  6
CONTINUOUS
 10
-11.5067188476
 20
-13.0786548237
 11
-7.0256041718
 21
-15.665994276
  0
LINE
  5
358
100
AcDbEntity
  8
RACCORDO
100
AcDbLine
 62
7
  6
CONTINUOUS
 10
4.403183729
 20
-22.2648331736
 11
8.8842984049
 21
-24.8521726259
  0
LINE
  5
359
100
AcDbEntity
  8
RACCORDO
100
AcDbLine
 62
7
  6
CONTINUOUS
 10
20.3130863057
 20
-31.4510115235
 11
24.7942009816
 21
-34.0383509758
  0
LINE
  5
35A
100
AcDbEntity
  8
RACCORDO
100
AcDbLine
 62
7
  6
CONTINUOUS
 10
35.8456618934
 20
-40.3362459261
 11
33.2309560396
 21
-38.826547536
  0
LINE
  5
35B
100
AcDbEntity
  8
RACCORDO
100
AcDbLine
 62
7
  6
CONTINUOUS
 10
27.9276551807
 20
-35.7644880861
 11
25.9686847566
 21
-34.6334031149
  0
LINE
  5
35C
100
AcDbEntity
  8
RACCORDO
100
AcDbLine
 62
7
  6
CONTINUOUS
 10
19.4214237041
 20
-30.8530966396
 11
17.320999615
 21
-29.6403380951
  0
LINE
  5
35D
100
AcDbEntity
  8
RACCORDO
100
AcDbLine
 62
7
  6
CONTINUOUS
 10
12.0178064519
 20
-26.5783408273
 11
10.0587821799
 21
-25.447224765
  0
LINE
  5
35E
100
AcDbEntity
  8
RACCORDO
100
AcDbLine
 62
7
  6
CONTINUOUS
 10
3.5115211274
 20
-21.6669182897
 11
1.4110970383
 21
-20.4541597452
  0
LINE
  5
35F
100
AcDbEntity
  8
RACCORDO
100
AcDbLine
 62
7
  6
CONTINUOUS
 10
-3.8920961248
 20
-17.3921624774
 11
-5.9925202139
 21
-16.1794039329
  0
LINE
  5
360
100
AcDbEntity
  8
RACCORDO
100
AcDbLine
 62
7
  6
CONTINUOUS
 10
-12.5397812664
 20
-12.3990974576
 11
-14.4988055384
 21
-11.2679813953
  0
LINE
  5
361
100
AcDbEntity
  8
RACCORDO
100
AcDbLine
 62
7
  6
CONTINUOUS
 10
-19.8019987015
 20
-8.2059841276
 11
-21.9024227906
 21
-6.993225583
  0
LINE
  5
362
100
AcDbEntity
  8
RACCORDO
100
AcDbLine
 62
7
  6
CONTINUOUS
 10
-28.4496838431
 20
-3.2129191078
 11
-30.4086542672
 21
-2.0818341366
  0
LINE
  5
363
100
AcDbEntity
  8
RACCORDO
100
AcDbLine
 62
7
  6
CONTINUOUS
 10
-35.7119551261
 20
0.9802253134
 11
-41.1566773412
 21
4.123939682
  0
LINE
  5
364
100
AcDbEntity
  8
0
100
AcDbLine
 62
7
  6
CONTINUOUS
 10
33.2310363393
 20
-38.8264084619
 11
30.2964628977
 21
-37.1320225356
  0
LINE
  5
365
100
AcDbEntity
  8
0
100
AcDbLine
 62
7
  6
CONTINUOUS
 10
-30.4085739675
 20
-2.0816950624
 11
-33.3431474091
 21
-0.3873091361
  0
LINE
  5
366
100
AcDbEntity
  8
0
100
AcDbLine
 62
7
  6
CONTINUOUS
 10
34.4330375676
 20
-39.3571072327
 11
30.4378842539
 21
-37.0503676169
  0
LINE
  5
367
100
AcDbEntity
  8
0
100
AcDbLine
 62
7
  6
CONTINUOUS
 10
-29.6978356668
 20
-2.3287566123
 11
-33.2017260529
 21
-0.3056542174
  0
LINE
  5
368
100
AcDbEntity
  8
RACCORDO
100
AcDbLine
 62
7
  6
CONTINUOUS
 10
-41.1566773412
 20
4.5320895168
 11
-40.9446001029
 21
4.4096387773
  0
LINE
  5
369
100
AcDbEntity
  8
0
100
AcDbLine
 62
7
  6
CONTINUOUS
 10
-29.3355985845
 20
-2.2932532044
 11
-28.0838965016
 21
-3.0159702996
  0
LINE
  5
36A
100
AcDbEntity
  8
0
100
AcDbLine
 62
7
  6
CONTINUOUS
 10
-13.4256960078
 20
-11.4794315543
 11
-12.1739939249
 21
-12.2021486494
  0
LINE
  5
36B
100
AcDbEntity
  8
0
100
AcDbLine
 62
7
  6
CONTINUOUS
 10
10.4124423346
 20
-25.2432738711
 11
11.6641444174
 21
-25.9659909662
  0
LINE
  5
36C
100
AcDbEntity
  8
0
100
AcDbLine
 62
7
  6
CONTINUOUS
 10
26.3223449113
 20
-34.429452221
 11
27.5740469941
 21
-35.1521693161
  0
LINE
  5
36D
100
AcDbEntity
  8
0
100
AcDbLine
 62
7
  6
CONTINUOUS
 10
34.5391035848
 20
-39.1733955022
 11
30.6500162883
 21
-36.9278852389
  0
LINE
  5
36E
100
AcDbEntity
  8
0
100
AcDbLine
 62
7
  6
CONTINUOUS
 10
-29.4619510761
 20
-2.2199886626
 11
-32.9895940185
 21
-0.1831718394
  0
LINE
  5
36F
100
AcDbEntity
  8
RACCORDO
100
AcDbLine
 62
7
  6
CONTINUOUS
 10
-41.1566773412
 20
4.6941507493
 11
-40.7007583803
 21
4.4309088553
  0
LINE
  5
370
100
AcDbEntity
  8
0
100
AcDbLine
 62
7
  6
CONTINUOUS
 10
-13.1818542852
 20
-11.4581614764
 11
-11.9301522023
 21
-12.1808785715
  0
LINE
  5
371
100
AcDbEntity
  8
0
100
AcDbLine
 62
7
  6
CONTINUOUS
 10
10.6562840572
 20
-25.2220037932
 11
11.90798614
 21
-25.9447208883
  0
LINE
  5
372
100
AcDbEntity
  8
0
100
AcDbLine
 62
7
  6
CONTINUOUS
 10
26.5661866339
 20
-34.4081821431
 11
27.8178887167
 21
-35.1308992382
  0
LINE
  5
373
100
AcDbEntity
  8
0
100
AcDbLine
 62
7
  6
CONTINUOUS
 10
34.7865909582
 20
-39.1529699361
 11
30.7914376445
 21
-36.8462303202
  0
LINE
  5
374
100
AcDbEntity
  8
0
100
AcDbLine
 62
7
  6
CONTINUOUS
 10
-27.840054779
 20
-2.9947002216
 11
-32.8481726623
 21
-0.1015169207
  0
LINE
  5
375
100
AcDbEntity
  8
0
100
AcDbLine
 62
7
  6
CONTINUOUS
 10
34.8926569754
 20
-38.9692582055
 11
31.0035696789
 21
-36.7237479422
  0
LINE
  5
376
100
AcDbEntity
  8
0
100
AcDbLine
 62
7
  6
CONTINUOUS
 10
-28.7469533314
 20
-2.224544806
 11
-32.6360406279
 21
0.0209654573
  0
LINE
  5
377
100
AcDbEntity
  8
0
100
AcDbLine
 62
7
  6
CONTINUOUS
 10
35.1401443488
 20
-38.9488326394
 11
31.1449910351
 21
-36.6420930236
  0
LINE
  5
378
100
AcDbEntity
  8
0
100
AcDbLine
 62
7
  6
CONTINUOUS
 10
-32.4946192717
 20
0.1026203759
 11
-28.499465958
 21
-2.2041192399
  0
LINE
  5
379
100
AcDbEntity
  8
0
100
AcDbLine
 62
7
  6
CONTINUOUS
 10
35.246210366
 20
-38.7651209089
 11
31.3571230695
 21
-36.5196106456
  0
LINE
  5
37A
100
AcDbEntity
  8
0
100
AcDbLine
 62
7
  6
CONTINUOUS
 10
-28.3933999408
 20
-2.0204075094
 11
-32.2824872373
 21
0.2251027539
  0
LINE
  5
37B
100
AcDbEntity
  8
0
100
AcDbLine
 62
7
  6
CONTINUOUS
 10
35.4936977394
 20
-38.7446953427
 11
31.4985444257
 21
-36.4379557269
  0
LINE
  5
37C
100
AcDbEntity
  8
0
100
AcDbLine
 62
7
  6
CONTINUOUS
 10
-32.1410658811
 20
0.3067576726
 11
-28.1459125674
 21
-1.9999819432
  0
LINE
  5
37D
100
AcDbEntity
  8
0
100
AcDbLine
 62
7
  6
CONTINUOUS
 10
35.5997637566
 20
-38.5609836122
 11
31.71067646
 21
-36.3154733489
  0
LINE
  5
37E
100
AcDbEntity
  8
0
100
AcDbLine
 62
7
  6
CONTINUOUS
 10
-28.0398465502
 20
-1.8162702127
 11
-31.9289338467
 21
0.4292400506
  0
LINE
  5
37F
100
AcDbEntity
  8
0
100
AcDbLine
 62
7
  6
CONTINUOUS
 10
35.84725113
 20
-38.5405580461
 11
31.8520978163
 21
-36.2338184302
  0
LINE
  5
380
100
AcDbEntity
  8
0
100
AcDbLine
 62
7
  6
CONTINUOUS
 10
-31.7875124905
 20
0.5108949693
 11
-27.7923591768
 21
-1.7958446466
  0
LINE
  5
381
100
AcDbEntity
  8
0
100
AcDbLine
 62
7
  6
CONTINUOUS
 10
35.8456618934
 20
-38.2946875213
 11
32.0642298506
 21
-36.1113360522
  0
LINE
  5
382
100
AcDbEntity
  8
0
100
AcDbLine
 62
7
  6
CONTINUOUS
 10
-27.6862931596
 20
-1.612132916
 11
-31.5753804561
 21
0.6333773473
  0
LINE
  5
383
100
AcDbEntity
  8
0
100
AcDbLine
 62
7
  6
CONTINUOUS
 10
35.8456618934
 20
-38.131377684
 11
32.2056512069
 21
-36.0296811336
  0
LINE
  5
384
100
AcDbEntity
  8
0
100
AcDbLine
 62
7
  6
CONTINUOUS
 10
-31.5120813573
 20
0.7601509147
 11
-31.4339539744
 21
0.715041143
  0
LINE
  5
385
100
AcDbEntity
  8
0
100
AcDbLine
 62
7
  6
CONTINUOUS
 10
-27.4388057862
 20
-1.5917073499
 11
-27.2546175117
 21
-1.6980553512
  0
LINE
  5
386
100
AcDbEntity
  8
ASSI
100
AcDbLine
 62
7
  6
CONTINUOUS
 10
-15.6021787806
 20
-8.4260274352
 11
-11.344714935
 21
-10.8842337011
  0
LINE
  5
387
100
AcDbEntity
  8
ASSI
100
AcDbLine
 62
7
  6
CONTINUOUS
 10
0.3077237961
 20
-17.6122057851
 11
4.5651876417
 21
-20.0704120509
  0
LINE
  5
388
100
AcDbEntity
  8
ASSI
100
AcDbLine
 62
7
  6
CONTINUOUS
 10
16.2176263728
 20
-26.7983841349
 11
20.4750902184
 21
-29.2565904008
  0
LINE
  5
389
100
AcDbEntity
  8
0
100
AcDbLine
 62
7
  6
CONTINUOUS
 10
32.1275289495
 20
-35.9845624848
 11
32.2056563324
 21
-36.0296722565
  0
LINE
  5
38A
100
AcDbEntity
  8
0
100
AcDbLine
 62
7
  6
CONTINUOUS
 10
-31.4339590999
 20
0.7150322659
 11
-27.4388057862
 21
-1.5917073499
  0
LINE
  5
38B
100
AcDbEntity
  8
0
100
AcDbLine
 62
7
  6
CONTINUOUS
 10
-31.3729829252
 20
0.7474964372
 11
-27.1966521992
 21
-1.663874024
  0
LINE
  5
38C
100
AcDbEntity
  8
ASSI
100
AcDbLine
 62
7
  6
CONTINUOUS
 10
-15.4600140993
 20
-8.4404617682
 11
-11.2868699522
 21
-10.849982897
  0
LINE
  5
38D
100
AcDbEntity
  8
ASSI
100
AcDbLine
 62
7
  6
CONTINUOUS
 10
0.4498884774
 20
-17.6266401181
 11
4.6230326245
 21
-20.0361612469
  0
LINE
  5
38E
100
AcDbEntity
  8
ASSI
100
AcDbLine
 62
7
  6
CONTINUOUS
 10
16.3597910541
 20
-26.8128184679
 11
20.5329352012
 21
-29.2223395967
  0
LINE
  5
38F
100
AcDbEntity
  8
0
100
AcDbLine
 62
7
  6
CONTINUOUS
 10
32.2666273815
 20
-35.9972169623
 11
35.8456618934
 21
-38.0637160753
  0
LINE
  5
390
100
AcDbEntity
  8
RACCORDO
100
AcDbLine
 62
7
  6
CONTINUOUS
 10
-41.9344948005
 20
9.762759524
 11
-41.9454618316
 21
9.7690917503
  0
LINE
  5
391
100
AcDbEntity
  8
DRAFT
100
AcDbLine
 62
7
  6
CONTINUOUS
 10
-42.3774492945
 20
10.4215327032
 11
-41.9454618316
 21
10.1721085562
  0
LINE
  5
392
100
AcDbEntity
  8
RACCORDO
100
AcDbLine
 62
7
  6
CONTINUOUS
 10
-42.3760061932
 20
10.424032067
 11
-42.4592707188
 21
10.4721079605
  0
LWPOLYLINE
  5
393
100
AcDbEntity
  8
RACCORDO
100
AcDbPolyline
 62
7
  6
CONTINUOUS
 90
22
 70
0
 10
-40.9446001029
 20
4.4096387773
 10
-40.9177445258
 20
4.3934948212
 10
-40.8910735715
 20
4.3751394133
 10
-40.8647363371
 20
4.3546751647
 10
-40.8388800538
 20
4.3322164755
 10
-40.8136492646
 20
4.3078888951
 10
-40.7891850155
 20
4.2818284205
 10
-40.7656240675
 20
4.2541807359
 10
-40.7430981319
 20
4.2251003985
 10
-40.7217331341
 20
4.1947499743
 10
-40.7016485094
 20
4.1632991293
 10
-40.6829565358
 20
4.1309236813
 10
-40.6657617057
 20
4.0978046167
 10
-40.6501601424
 20
4.064127079
 10
-40.6362390624
 20
4.0300793337
 10
-40.6240762878
 20
3.9958517157
 10
-40.6137398113
 20
3.9616355656
 10
-40.6052874164
 20
3.9276221598
 10
-40.598766354
 20
3.8940016414
 10
-40.5942130784
 20
3.860961957
 10
-40.5916530433
 20
3.8286878063
 10
-40.5911005602
 20
3.7973596096
  0
LWPOLYLINE
  5
394
100
AcDbEntity
  8
0
100
AcDbPolyline
 62
7
  6
CONTINUOUS
 90
22
 70
0
 10
11.6641444174
 20
-25.9659909662
 10
11.6909999945
 20
-25.9821349224
 10
11.7176709488
 20
-26.0004903303
 10
11.7440081832
 20
-26.0209545789
 10
11.7698644665
 20
-26.0434132681
 10
11.7950952557
 20
-26.0677408485
 10
11.8195595048
 20
-26.0938013231
 10
11.8431204528
 20
-26.1214490077
 10
11.8656463884
 20
-26.150529345
 10
11.8870113862
 20
-26.1808797693
 10
11.9070960109
 20
-26.2123306143
 10
11.9257879845
 20
-26.2447060623
 10
11.9429828146
 20
-26.2778251269
 10
11.9585843779
 20
-26.3115026646
 10
11.9725054579
 20
-26.3455504099
 10
11.9846682325
 20
-26.3797780278
 10
11.995004709
 20
-26.4139941779
 10
12.0034571038
 20
-26.4480075838
 10
12.0099781663
 20
-26.4816281022
 10
12.0145314419
 20
-26.5146677866
 10
12.0170914769
 20
-26.5469419373
 10
12.0176439601
 20
-26.578270134
  0
LWPOLYLINE
  5
395
100
AcDbEntity
  8
0
100
AcDbPolyline
 62
7
  6
CONTINUOUS
 90
22
 70
0
 10
27.5740469941
 20
-35.1521693161
 10
27.6009025712
 20
-35.1683132723
 10
27.6275735255
 20
-35.1866686802
 10
27.6539107599
 20
-35.2071329288
 10
27.6797670432
 20
-35.2295916179
 10
27.7049978324
 20
-35.2539191983
 10
27.7294620815
 20
-35.279979673
 10
27.7530230295
 20
-35.3076273575
 10
27.7755489651
 20
-35.3367076949
 10
27.7969139629
 20
-35.3670581191
 10
27.8169985876
 20
-35.3985089641
 10
27.8356905612
 20
-35.4308844122
 10
27.8528853913
 20
-35.4640034768
 10
27.8684869546
 20
-35.4976810144
 10
27.8824080346
 20
-35.5317287597
 10
27.8945708092
 20
-35.5659563777
 10
27.9049072857
 20
-35.6001725278
 10
27.9133596805
 20
-35.6341859336
 10
27.919880743
 20
-35.6678064521
 10
27.9244340186
 20
-35.7008461365
 10
27.9269940536
 20
-35.7331202872
 10
27.9275465368
 20
-35.7644484839
  0
LWPOLYLINE
  5
396
100
AcDbEntity
  8
0
100
AcDbPolyline
 62
7
  6
CONTINUOUS
 90
16
 70
0
 10
-27.8400515047
 20
-2.9947021122
 10
-27.8179517482
 20
-3.0082379925
 10
-27.7878512556
 20
-3.0293772793
 10
-27.759319511
 20
-3.0527310274
 10
-27.732515315
 20
-3.0781964449
 10
-27.7076089055
 20
-3.105640872
 10
-27.6847411283
 20
-3.1349414497
 10
-27.6640548515
 20
-3.1659545986
 10
-27.6456877613
 20
-3.1985177785
 10
-27.6297614357
 20
-3.2324652839
 10
-27.616385713
 20
-3.2676241828
 10
-27.6056634265
 20
-3.3037974565
 10
-27.5976830339
 20
-3.3407682203
 10
-27.5925099398
 20
-3.3783388338
 10
-27.5901972755
 20
-3.4162866986
 10
-27.5900668592
 20
-3.4277126833
  0
LWPOLYLINE
  5
397
100
AcDbEntity
  8
0
100
AcDbPolyline
 62
7
  6
CONTINUOUS
 90
16
 70
0
 10
-11.930148928
 20
-12.1808804621
 10
-11.9080491717
 20
-12.1944163423
 10
-11.8779486791
 20
-12.215555629
 10
-11.8494169344
 20
-12.2389093772
 10
-11.8226127385
 20
-12.2643747947
 10
-11.797706329
 20
-12.2918192217
 10
-11.7748385517
 20
-12.3211197994
 10
-11.7541522749
 20
-12.3521329483
 10
-11.7357851847
 20
-12.3846961282
 10
-11.7198588591
 20
-12.4186436336
 10
-11.7064831363
 20
-12.4538025325
 10
-11.6957608499
 20
-12.4899758062
 10
-11.6877804572
 20
-12.5269465699
 10
-11.6826073631
 20
-12.5645171834
 10
-11.6802946988
 20
-12.6024650483
 10
-11.6801642825
 20
-12.6138910332
  0
LWPOLYLINE
  5
398
100
AcDbEntity
  8
0
100
AcDbPolyline
 62
7
  6
CONTINUOUS
 90
11
 70
0
 10
28.4958648442
 20
-36.5528628454
 10
28.5069681284
 20
-36.5598703096
 10
28.5238716711
 20
-36.5731470245
 10
28.5392546322
 20
-36.5886818046
 10
28.5530328071
 20
-36.6063899501
 10
28.5651313789
 20
-36.6261757653
 10
28.5754844216
 20
-36.6479327466
 10
28.5840340483
 20
-36.6715411257
 10
28.5907322594
 20
-36.6968687009
 10
28.595542513
 20
-36.7237753942
 10
28.5984391453
 20
-36.7521147704
  0
LWPOLYLINE
  5
399
100
AcDbEntity
  8
RACCORDO
100
AcDbPolyline
 62
7
  6
CONTINUOUS
 90
9
 70
0
 10
35.9335298591
 20
-44.2441852741
 10
35.9147305928
 20
-44.232270313
 10
35.8979308217
 20
-44.2193980124
 10
35.8832760058
 20
-44.2056798258
 10
35.8708930332
 20
-44.1912345305
 10
35.8608891217
 20
-44.1761871997
 10
35.8533508901
 20
-44.1606681193
 10
35.8483436086
 20
-44.1448116599
 10
35.8459106328
 20
-44.1287551133
  0
LWPOLYLINE
  5
39A
100
AcDbEntity
  8
0
100
AcDbPolyline
 62
7
  6
CONTINUOUS
 90
22
 70
0
 10
-28.0838965016
 20
-3.0159702996
 10
-28.057952654
 20
-3.0326347888
 10
-28.0321884717
 20
-3.0515095327
 10
-28.0067480942
 20
-3.0724889352
 10
-27.9817738498
 20
-3.0954556255
 10
-27.9574054585
 20
-3.1202811146
 10
-27.9337792513
 20
-3.1468265147
 10
-27.9110274066
 20
-3.1749433154
 10
-27.8892772113
 20
-3.2044742152
 10
-27.8686503485
 20
-3.2352540014
 10
-27.8492622166
 20
-3.2671104743
 10
-27.831221284
 20
-3.2998654104
 10
-27.8146284821
 20
-3.3333355597
 10
-27.7995766406
 20
-3.367333671
 10
-27.7861499679
 20
-3.4016695395
 10
-27.7744235807
 20
-3.4361510706
 10
-27.764463083
 20
-3.4705853548
 10
-27.7563241996
 20
-3.5047797471
 10
-27.750052464
 20
-3.5385429444
 10
-27.7456829641
 20
-3.5716860558
 10
-27.7432401452
 20
-3.6040236598
 10
-27.7427376739
 20
-3.6353748415
  0
LWPOLYLINE
  5
39B
100
AcDbEntity
  8
0
100
AcDbPolyline
 62
7
  6
CONTINUOUS
 90
22
 70
0
 10
-12.1739939249
 20
-12.2021486494
 10
-12.1480500775
 20
-12.2188131385
 10
-12.1222858954
 20
-12.2376878823
 10
-12.0968455181
 20
-12.2586672846
 10
-12.0718712737
 20
-12.2816339747
 10
-12.0475028825
 20
-12.3064594638
 10
-12.0238766753
 20
-12.3330048637
 10
-12.0011248307
 20
-12.3611216642
 10
-11.9793746354
 20
-12.3906525639
 10
-11.9587477726
 20
-12.42143235
 10
-11.9393596407
 20
-12.4532888228
 10
-11.9213187081
 20
-12.4860437588
 10
-11.9047259061
 20
-12.5195139081
 10
-11.8896740644
 20
-12.5535120196
 10
-11.8762473917
 20
-12.5878478881
 10
-11.8645210043
 20
-12.6223294193
 10
-11.8545605065
 20
-12.6567637037
 10
-11.846421623
 20
-12.6909580961
 10
-11.8401498875
 20
-12.7247212935
 10
-11.8357803875
 20
-12.7578644051
 10
-11.8333375685
 20
-12.7902020094
 10
-11.8328350972
 20
-12.8215531913
  0
LWPOLYLINE
  5
39C
100
AcDbEntity
  8
0
100
AcDbPolyline
 62
7
  6
CONTINUOUS
 90
16
 70
0
 10
-1.8505965223
 20
-23.0716273136
 10
-1.8892174524
 20
-23.035047736
 10
-1.9297441048
 20
-22.9994296096
 10
-1.9721764796
 20
-22.9647729344
 10
-2.016596883
 20
-22.931142729
 10
-2.0629230088
 20
-22.8984739748
 10
-2.1109079379
 20
-22.8665716164
 10
-2.1604775669
 20
-22.8353717275
 10
-2.2117059993
 20
-22.8049382343
 10
-2.264568626
 20
-22.7752678607
 10
-2.3190773314
 20
-22.7464082762
 10
-2.3752202312
 20
-22.7183118112
 10
-2.432937063
 20
-22.690832181
 10
-2.4922077394
 20
-22.6639206241
 10
-2.5530523478
 20
-22.6376259019
 10
-2.6154708882
 20
-22.6119480146
  0
LWPOLYLINE
  5
39D
100
AcDbEntity
  8
0
100
AcDbPolyline
 62
7
  6
CONTINUOUS
 90
16
 70
0
 10
-1.9920178785
 20
-23.1532822323
 10
-2.0304605915
 20
-23.1168457572
 10
-2.0708640398
 20
-23.0813240304
 10
-2.1132282232
 20
-23.046717052
 10
-2.1576577332
 20
-23.0130707224
 10
-2.2040479785
 20
-22.9803391412
 10
-2.2520851849
 20
-22.9483846069
 10
-2.3016661391
 20
-22.9171668998
 10
-2.3528940544
 20
-22.8867262396
 10
-2.4057647963
 20
-22.8570455839
 10
-2.460298768
 20
-22.8281668342
 10
-2.5164755663
 20
-22.8000480891
 10
-2.5742298475
 20
-22.7725466011
 10
-2.6335398303
 20
-22.7456147879
 10
-2.694427296
 20
-22.719300232
 10
-2.7568922445
 20
-22.6936029332
  0
LWPOLYLINE
  5
39E
100
AcDbEntity
  8
0
100
AcDbPolyline
 62
7
  6
CONTINUOUS
 90
4
 70
0
 10
-1.771545057
 20
-24.0257758406
 10
-1.7867232608
 20
-24.0039812847
 10
-1.8024218851
 20
-23.9841072421
 10
-1.8071643915
 20
-23.9788575662
  0
LINE
  5
39F
100
AcDbEntity
  8
0
100
AcDbLine
 62
7
  6
CONTINUOUS
 10
-11.8328350972
 20
-12.8215531913
 11
-11.8328350972
 21
-13.1726544167
  0
LINE
  5
3A0
100
AcDbEntity
  8
0
100
AcDbLine
 62
7
  6
CONTINUOUS
 10
-11.6801642824
 20
-12.6138842987
 11
-11.6801642824
 21
-13.0782404947
  0
LINE
  5
3A1
100
AcDbEntity
  8
ASSI
100
AcDbLine
 62
7
  6
CONTINUOUS
 10
-11.3377014052
 20
-10.8799600376
 11
-11.3377014052
 21
-11.2811346053
  0
LINE
  5
3A2
100
AcDbEntity
  8
ASSI
100
AcDbLine
 62
7
  6
CONTINUOUS
 10
-11.2863303703
 20
-10.850917632
 11
-11.2863303703
 21
-11.2506073562
  0
LINE
  5
3A3
100
AcDbEntity
  8
RACCORDO
100
AcDbLine
 62
7
  6
CONTINUOUS
 10
-6.8135044462
 20
-16.5754217467
 11
-6.8135044462
 21
-16.0333617767
  0
LINE
  5
3A4
100
AcDbEntity
  8
0
100
AcDbLine
 62
7
  6
CONTINUOUS
 10
-6.1003270706
 20
-20.7430123597
 11
-6.1003270706
 21
-22.4575583009
  0
LWPOLYLINE
  5
3A5
100
AcDbEntity
  8
0
100
AcDbPolyline
 62
7
  6
CONTINUOUS
 90
12
 70
0
 10
-11.6801642825
 20
-12.6138910332
 10
-11.680725399
 20
-12.627557557
 10
-11.6839465669
 20
-12.6493265729
 10
-11.6900080328
 20
-12.6708875353
 10
-11.6988740525
 20
-12.6921191597
 10
-11.7104944529
 20
-12.7129028846
 10
-11.7248130595
 20
-12.733133003
 10
-11.7417409434
 20
-12.7526796181
 10
-11.761142664
 20
-12.7713967038
 10
-11.7828795099
 20
-12.7891713832
 10
-11.8068262523
 20
-12.8059198595
 10
-11.8328350972
 20
-12.8215531913
  0
LINE
  5
3A6
100
AcDbEntity
  8
ASSI
100
AcDbLine
 62
7
  6
CONTINUOUS
 10
-11.8896848239
 20
-11.8168364539
 11
-11.8224375146
 21
-11.5658779166
  0
LINE
  5
3A7
100
AcDbEntity
  8
RACCORDO
100
AcDbLine
 62
7
  6
CONTINUOUS
 10
-27.5692146361
 20
-3.8791668174
 11
-28.4724080785
 21
-4.4377151903
  0
LINE
  5
3A8
100
AcDbEntity
  8
RACCORDO
100
AcDbLine
 62
7
  6
CONTINUOUS
 10
-27.4166214243
 20
-3.8924764739
 11
-28.3198148667
 21
-4.4510248468
  0
LINE
  5
3A9
100
AcDbEntity
  8
RACCORDO
100
AcDbLine
 62
7
  6
CONTINUOUS
 10
-22.6108273517
 20
-7.3236380023
 11
-22.0550160025
 21
-6.9799159266
  0
LINE
  5
3AA
100
AcDbEntity
  8
0
100
AcDbLine
 62
7
  6
CONTINUOUS
 10
-27.9956701661
 20
-2.7443586593
 11
-28.1343537153
 21
-2.8247757042
  0
LINE
  5
3AB
100
AcDbEntity
  8
RACCORDO
100
AcDbLine
 62
7
  6
CONTINUOUS
 10
-29.0252433439
 20
-3.5452388481
 11
-28.4496838431
 21
-3.2129191078
  0
LINE
  5
3AC
100
AcDbEntity
  8
RACCORDO
100
AcDbLine
 62
7
  6
CONTINUOUS
 10
-28.534821297
 20
-4.0784609402
 11
-28.1024623619
 21
-3.8288231375
  0
LINE
  5
3AD
100
AcDbEntity
  8
DRAFT
100
AcDbLine
 62
7
  6
CONTINUOUS
 10
-23.6586912116
 20
-7.1422992276
 11
-22.7234070229
 21
-6.6022796495
  0
LINE
  5
3AE
100
AcDbEntity
  8
0
100
AcDbLine
 62
7
  6
CONTINUOUS
 10
-29.3355985845
 20
-2.2932532044
 11
-29.7016013339
 21
-2.4900776388
  0
LINE
  5
3AF
100
AcDbEntity
  8
0
100
AcDbLine
 62
7
  6
CONTINUOUS
 10
-28.4498992511
 20
-3.2127947339
 11
-28.0838965016
 21
-3.0159702996
  0
LINE
  5
3B0
100
AcDbEntity
  8
0
100
AcDbLine
 62
7
  6
CONTINUOUS
 10
-28.1024623619
 20
-3.8288231375
 11
-27.7427376739
 21
-3.6353748415
  0
LINE
  5
3B1
100
AcDbEntity
  8
DRAFT
100
AcDbLine
 62
7
  6
CONTINUOUS
 10
-28.534821297
 20
-4.0338056291
 11
-29.0770494232
 21
-4.3140693177
  0
LINE
  5
3B2
100
AcDbEntity
  8
0
100
AcDbLine
 62
7
  6
CONTINUOUS
 10
-29.578581934
 20
-2.264625814
 11
-29.5734533417
 21
-2.2619812917
  0
LWPOLYLINE
  5
3B3
100
AcDbEntity
  8
0
100
AcDbPolyline
 62
7
  6
CONTINUOUS
 90
6
 70
0
 10
-29.578581934
 20
-2.264625814
 10
-29.5466342809
 20
-2.2488856335
 10
-29.5133553433
 20
-2.2353527421
 10
-29.4789308705
 20
-2.2241701713
 10
-29.4435681321
 20
-2.215461609
 10
-29.4074841298
 20
-2.2093261544
  0
LWPOLYLINE
  5
3B4
100
AcDbEntity
  8
0
100
AcDbPolyline
 62
7
  6
CONTINUOUS
 90
11
 70
0
 10
-29.5734533417
 20
-2.2619812917
 10
-29.5534661971
 20
-2.253667384
 10
-29.5322956144
 20
-2.2478764708
 10
-29.5100599423
 20
-2.2446409247
 10
-29.4868834835
 20
-2.243978833
 10
-29.4628957998
 20
-2.2458938972
 10
-29.4382309881
 20
-2.2503754114
 10
-29.4130269306
 20
-2.257398323
 10
-29.387424524
 20
-2.2669233722
 10
-29.3615668919
 20
-2.2788973117
 10
-29.3355985845
 20
-2.2932532044
  0
LWPOLYLINE
  5
3B5
100
AcDbEntity
  8
0
100
AcDbPolyline
 62
7
  6
CONTINUOUS
 90
4
 70
0
 10
-31.5042920433
 20
0.7639766501
 10
-31.4916796484
 20
0.7685926943
 10
-31.4786490538
 20
0.7716503644
 10
-31.4653470032
 20
0.7731690841
  0
LWPOLYLINE
  5
3B6
100
AcDbEntity
  8
0
100
AcDbPolyline
 62
7
  6
CONTINUOUS
 90
5
 70
0
 10
-13.4975815531
 20
-11.3955045042
 10
-13.4609895922
 20
-11.3920160865
 10
-13.4241220367
 20
-11.3912271838
 10
-13.3872155981
 20
-11.3931648877
 10
-13.3504702743
 20
-11.3978370136
  0
LWPOLYLINE
  5
3B7
100
AcDbEntity
  8
0
100
AcDbPolyline
 62
7
  6
CONTINUOUS
 90
12
 70
0
 10
-35.3400919426
 20
0.0617043141
 10
-35.261921727
 20
0.0470103673
 10
-35.2417377828
 20
0.0429747116
 10
-35.2213079609
 20
0.0385999978
 10
-35.200694438
 20
0.0338126465
 10
-35.1799639822
 20
0.0285346666
 10
-35.1590036376
 20
0.0226250739
 10
-35.1380436452
 20
0.016013798
 10
-35.1176502166
 20
0.0087855263
 10
-35.0979654167
 20
0.000946286
 10
-35.078933623
 20
-0.0075834255
 10
-35.060783536
 20
-0.0167463785
  0
LINE
  5
3B8
100
AcDbEntity
  8
0
100
AcDbLine
 62
7
  6
CONTINUOUS
 10
-35.3589186705
 20
0.0654045574
 11
-35.3400919426
 21
0.0617043141
  0
LWPOLYLINE
  5
3B9
100
AcDbEntity
  8
0
100
AcDbPolyline
 62
7
  6
CONTINUOUS
 90
6
 70
0
 10
-29.260372851
 20
-2.2116586637
 10
-29.2239700122
 20
-2.2190635413
 10
-29.1881709122
 20
-2.229165731
 10
-29.153238574
 20
-2.2418945865
 10
-29.1192377568
 20
-2.2572390727
 10
-29.0917427611
 20
-2.271991269
  0
LWPOLYLINE
  5
3BA
100
AcDbEntity
  8
ASSI
100
AcDbPolyline
 62
7
  6
CONTINUOUS
 90
8
 70
0
 10
-15.5142000709
 20
-8.4176552368
 10
-15.5273807601
 20
-8.4148383519
 10
-15.5400513635
 20
-8.4132839895
 10
-15.5521917119
 20
-8.4129240214
 10
-15.5637242414
 20
-8.4136793767
 10
-15.5746082352
 20
-8.4154957442
 10
-15.5848352017
 20
-8.4183491434
 10
-15.5943894666
 20
-8.4222016998
  0
LWPOLYLINE
  5
3BB
100
AcDbEntity
  8
0
100
AcDbPolyline
 62
7
  6
CONTINUOUS
 90
4
 70
0
 10
-31.4250939313
 20
0.7687903836
 10
-31.4117938741
 20
0.7649478777
 10
-31.3986818241
 20
0.7600035158
 10
-31.3857274143
 20
0.7541712972
  0
LINE
  5
3BC
100
AcDbEntity
  8
RACCORDO
100
AcDbLine
 62
7
  6
CONTINUOUS
 10
-41.3688093756
 20
10.1007804321
 11
-42.0586792437
 21
10.4991026478
  0
LINE
  5
3BD
100
AcDbEntity
  8
RACCORDO
100
AcDbLine
 62
7
  6
CONTINUOUS
 10
-41.4407220044
 20
16.5909840242
 11
-41.9454618316
 21
16.8824144745
  0
LINE
  5
3BE
100
AcDbEntity
  8
SMUSSO
100
AcDbLine
 62
7
  6
CONTINUOUS
 10
54.8751238815
 20
-73.004918745
 11
49.4944120069
 21
-66.7918578916
  0
LINE
  5
3BF
100
AcDbEntity
  8
0
100
AcDbLine
 62
7
  6
CONTINUOUS
 10
-5.2601505714
 20
-21.823166544
 11
-4.8965583858
 21
-23.1525992528
  0
LINE
  5
3C0
100
AcDbEntity
  8
0
100
AcDbLine
 62
7
  6
CONTINUOUS
 10
-4.8731319382
 20
-22.4035462339
 11
-5.1797942497
 21
-21.2746193488
  0
LINE
  5
3C1
100
AcDbEntity
  8
0
100
AcDbLine
 62
7
  6
CONTINUOUS
 10
-4.7755993418
 20
-22.1603220608
 11
-5.0383728934
 21
-21.1929644301
  0
LWPOLYLINE
  5
3C2
100
AcDbEntity
  8
0
100
AcDbPolyline
 62
7
  6
CONTINUOUS
 90
6
 70
0
 10
-2.1091067326
 20
-24.2421638082
 10
-2.0934299657
 20
-24.3041667525
 10
-2.0780763317
 20
-24.3672547513
 10
-2.0630458308
 20
-24.4314278045
 10
-2.0485632491
 20
-24.4966474402
 10
-2.0198931261
 20
-24.6304572913
  0
LINE
  5
3C3
100
AcDbEntity
  8
0
100
AcDbLine
 62
7
  6
CONTINUOUS
 10
-7.436460488
 20
-19.9716485454
 11
-6.9657501104
 21
-21.9578738841
  0
LINE
  5
3C4
100
AcDbEntity
  8
0
100
AcDbLine
 62
7
  6
CONTINUOUS
 10
-2.8479045777
 20
-24.3354662859
 11
-3.3034779205
 21
-22.3579808814
  0
LINE
  5
3C5
100
AcDbEntity
  8
0
100
AcDbLine
 62
7
  6
CONTINUOUS
 10
-2.7568922445
 20
-24.0350033338
 11
-3.1620565643
 21
-22.2763259628
  0
LINE
  5
3C6
100
AcDbEntity
  8
0
100
AcDbLine
 62
7
  6
CONTINUOUS
 10
-2.0198931261
 20
-24.6304572913
 11
-1.9735793903
 21
-24.840291016
  0
LINE
  5
3C7
100
AcDbEntity
  8
0
100
AcDbLine
 62
7
  6
CONTINUOUS
 10
-6.8167443268
 20
-21.5095689834
 11
-7.0997744226
 21
-20.1660468599
  0
LINE
  5
3C8
100
AcDbEntity
  8
0
100
AcDbLine
 62
7
  6
CONTINUOUS
 10
-6.7250916868
 20
-21.1916657919
 11
-6.9583530663
 21
-20.0843919413
  0
LINE
  5
3C9
100
AcDbEntity
  8
0
100
AcDbLine
 62
7
  6
CONTINUOUS
 10
-3.2548537227
 20
-23.7582354263
 11
-3.174563869
 21
-24.1468573051
  0
LINE
  5
3CA
100
AcDbEntity
  8
0
100
AcDbLine
 62
7
  6
CONTINUOUS
 10
-1.7449715721
 20
-24.6659744963
 11
-1.7814115952
 21
-24.4872192011
  0
LINE
  5
3CB
100
AcDbEntity
  8
0
100
AcDbLine
 62
7
  6
CONTINUOUS
 10
-1.6035788623
 20
-24.5841770006
 11
-1.639990239
 21
-24.4055642824
  0
LINE
  5
3CC
100
AcDbEntity
  8
0
100
AcDbLine
 62
7
  6
CONTINUOUS
 10
-1.6754570939
 20
-25.0124230936
 11
-1.7449715721
 21
-24.6659744963
  0
LINE
  5
3CD
100
AcDbEntity
  8
0
100
AcDbLine
 62
7
  6
CONTINUOUS
 10
-1.5340357377
 20
-24.9307681749
 11
-1.6035788623
 21
-24.5841770006
  0
LINE
  5
3CE
100
AcDbEntity
  8
0
100
AcDbLine
 62
7
  6
CONTINUOUS
 10
-3.4592139464
 20
-22.7391462393
 11
-3.3167941554
 21
-23.4576292507
  0
LWPOLYLINE
  5
3CF
100
AcDbEntity
  8
0
100
AcDbPolyline
 62
7
  6
CONTINUOUS
 90
13
 70
0
 10
-1.639990239
 20
-24.4055642824
 10
-1.6473319202
 20
-24.3680159398
 10
-1.6552792506
 20
-24.3313580446
 10
-1.6638322302
 20
-24.295590597
 10
-1.6729440357
 20
-24.2606025865
 10
-1.6826614904
 20
-24.2265050234
 10
-1.693125064
 20
-24.1936309389
 10
-1.704393094
 20
-24.1619791097
 10
-1.7164072428
 20
-24.131550759
 10
-1.7291329678
 20
-24.1026825868
 10
-1.7426224733
 20
-24.0753667147
 10
-1.7568235549
 20
-24.0496110211
 10
-1.771545057
 20
-24.0257758406
  0
LWPOLYLINE
  5
3D0
100
AcDbEntity
  8
0
100
AcDbPolyline
 62
7
  6
CONTINUOUS
 90
16
 70
0
 10
-1.7814115952
 20
-24.4872192011
 10
-1.7884708201
 20
-24.450800585
 10
-1.7962654816
 20
-24.4147706884
 10
-1.8047955796
 20
-24.3791295114
 10
-1.8140384426
 20
-24.3435904756
 10
-1.8240167421
 20
-24.3084401593
 10
-1.8347984932
 20
-24.2745382977
 10
-1.8464803895
 20
-24.2419473939
 10
-1.8589657374
 20
-24.2106049448
 10
-1.8720324715
 20
-24.1811831753
 10
-1.8856856647
 20
-24.1538514438
 10
-1.8999202441
 20
-24.1284403919
 10
-1.9144989245
 20
-24.1051141696
 10
-1.9293426107
 20
-24.0839274938
 10
-1.9445303979
 20
-24.0648256476
 10
-1.960062286
 20
-24.0478086312
  0
LINE
  5
3D1
100
AcDbEntity
  8
0
100
AcDbLine
 62
7
  6
CONTINUOUS
 10
-4.1176993582
 20
-23.6023026939
 11
-4.2565447245
 21
-21.8076920536
  0
LINE
  5
3D2
100
AcDbEntity
  8
0
100
AcDbLine
 62
7
  6
CONTINUOUS
 10
-3.987391225
 20
-23.3770066235
 11
-4.1151233682
 21
-21.7260371349
  0
LINE
  5
3D3
100
AcDbEntity
  8
0
100
AcDbLine
 62
7
  6
CONTINUOUS
 10
-4.4845760548
 20
-22.2756404938
 11
-4.4208989678
 21
-23.4272390393
  0
LINE
  5
3D4
100
AcDbEntity
  8
0
100
AcDbLine
 62
7
  6
CONTINUOUS
 10
-5.7903908547
 20
-22.6365115876
 11
-5.7903908547
 21
-20.9219656463
  0
LINE
  5
3D5
100
AcDbEntity
  8
0
100
AcDbLine
 62
7
  6
CONTINUOUS
 10
-5.6489694985
 20
-22.5548566689
 11
-5.6489694985
 21
-20.8403107276
  0
LINE
  5
3D6
100
AcDbEntity
  8
RACCORDO
100
AcDbLine
 62
7
  6
CONTINUOUS
 10
-3.5385965821
 20
-18.0044416452
 11
-3.5385965821
 21
-18.4663125032
  0
LINE
  5
3D7
100
AcDbEntity
  8
0
100
AcDbLine
 62
7
  6
CONTINUOUS
 10
-2.7568922445
 20
-22.6936029332
 11
-2.7568922445
 21
-24.3880159912
  0
LINE
  5
3D8
100
AcDbEntity
  8
0
100
AcDbLine
 62
7
  6
CONTINUOUS
 10
-2.458480455
 20
-23.6085923501
 11
-2.458480455
 21
-23.1379441978
  0
LINE
  5
3D9
100
AcDbEntity
  8
0
100
AcDbLine
 62
7
  6
CONTINUOUS
 10
-2.4482034473
 20
-24.5662490339
 11
-2.4482034473
 21
-23.8953105745
  0
LINE
  5
3DA
100
AcDbEntity
  8
RACCORDO
100
AcDbLine
 62
7
  6
CONTINUOUS
 10
-2.3574974652
 20
-18.9312625851
 11
-2.3574974652
 21
-18.907603107
  0
LINE
  5
3DB
100
AcDbEntity
  8
0
100
AcDbLine
 62
7
  6
CONTINUOUS
 10
-2.3170590987
 20
-23.5269374314
 11
-2.3170590987
 21
-23.2035837699
  0
LINE
  5
3DC
100
AcDbEntity
  8
0
100
AcDbLine
 62
7
  6
CONTINUOUS
 10
-2.3067820911
 20
-24.4845941152
 11
-2.3067820911
 21
-23.9769654932
  0
LINE
  5
3DD
100
AcDbEntity
  8
0
100
AcDbLine
 62
7
  6
CONTINUOUS
 10
-1.960062286
 20
-24.0478086312
 11
-1.960062286
 21
-24.0376777652
  0
LWPOLYLINE
  5
3DE
100
AcDbEntity
  8
0
100
AcDbPolyline
 62
7
  6
CONTINUOUS
 90
10
 70
0
 10
-2.0405970598
 20
-23.5834492073
 10
-2.0416838463
 20
-23.6112047781
 10
-2.0444704571
 20
-23.6366518367
 10
-2.048956892
 20
-23.659790383
 10
-2.0553513772
 20
-23.6807628703
 10
-2.0634456867
 20
-23.6994268454
 10
-2.0726151423
 20
-23.7153549483
 10
-2.0825908527
 20
-23.7282997034
 10
-2.0936417092
 20
-23.7385085864
 10
-2.1030516818
 20
-23.7447336578
  0
LINE
  5
3DF
100
AcDbEntity
  8
0
100
AcDbLine
 62
7
  6
CONTINUOUS
 10
-5.3270350947
 20
-22.9040473962
 11
-5.2601505714
 21
-21.823166544
  0
LINE
  5
3E0
100
AcDbEntity
  8
0
100
AcDbLine
 62
7
  6
CONTINUOUS
 10
-5.1856137385
 20
-22.8223924775
 11
-5.1489432817
 21
-22.2297831169
  0
LINE
  5
3E1
100
AcDbEntity
  8
0
100
AcDbLine
 62
7
  6
CONTINUOUS
 10
-5.4894737858
 20
-21.0958142658
 11
-5.6235426457
 21
-22.7328476524
  0
LINE
  5
3E2
100
AcDbEntity
  8
0
100
AcDbLine
 62
7
  6
CONTINUOUS
 10
-6.5250691435
 20
-20.4978744853
 11
-6.8167443268
 21
-21.5095689834
  0
LINE
  5
3E3
100
AcDbEntity
  8
RACCORDO
100
AcDbLine
 62
7
  6
CONTINUOUS
 10
-22.4582341397
 20
-7.3369476587
 11
-21.9024227906
 21
-6.993225583
  0
LINE
  5
3E4
100
AcDbEntity
  8
DRAFT
100
AcDbLine
 62
7
  6
CONTINUOUS
 10
-18.452036857
 20
-9.8554789978
 11
-18.2674000419
 21
-9.7450842352
  0
LINE
  5
3E5
100
AcDbEntity
  8
RACCORDO
100
AcDbLine
 62
7
  6
CONTINUOUS
 10
-20.3775582023
 20
-8.538303868
 11
-19.8019987015
 21
-8.2059841276
  0
LINE
  5
3E6
100
AcDbEntity
  8
RACCORDO
100
AcDbLine
 62
7
  6
CONTINUOUS
 10
-19.8484659489
 20
-9.0491983415
 11
-19.4484991588
 21
-8.8182632953
  0
LINE
  5
3E7
100
AcDbEntity
  8
RACCORDO
100
AcDbLine
 62
7
  6
CONTINUOUS
 10
-18.8232067676
 20
-9.6411701433
 11
-18.6087194816
 21
-9.5173274473
  0
LINE
  5
3E8
100
AcDbEntity
  8
ASSI
100
AcDbLine
 62
7
  6
CONTINUOUS
 10
-15.6021787806
 20
-8.4260274352
 11
-18.2067551511
 21
-9.7800998351
  0
LINE
  5
3E9
100
AcDbEntity
  8
DRAFT
100
AcDbLine
 62
7
  6
CONTINUOUS
 10
-23.2315204381
 20
-7.095865079
 11
-23.7737485643
 21
-7.3761287677
  0
LWPOLYLINE
  5
3EA
100
AcDbEntity
  8
0
100
AcDbPolyline
 62
7
  6
CONTINUOUS
 90
5
 70
0
 10
-29.4074841298
 20
-2.2093261544
 10
-29.3708921689
 20
-2.2058377367
 10
-29.3340246134
 20
-2.205048834
 10
-29.2971181748
 20
-2.2069865378
 10
-29.260372851
 20
-2.2116586637
  0
LWPOLYLINE
  5
3EB
100
AcDbEntity
  8
0
100
AcDbPolyline
 62
7
  6
CONTINUOUS
 90
4
 70
0
 10
-31.4653470032
 20
0.7731690841
 10
-31.4519334642
 20
0.7730840719
 10
-31.4385063788
 20
0.771522281
 10
-31.4250939313
 20
0.7687903836
  0
LINE
  5
3EC
100
AcDbEntity
  8
DRAFT
100
AcDbLine
 62
7
  6
CONTINUOUS
 10
3.2849838563
 20
-22.9458216005
 11
3.2849838563
 21
-22.4061623288
  0
LINE
  5
3ED
100
AcDbEntity
  8
RACCORDO
100
AcDbLine
 62
7
  6
CONTINUOUS
 10
3.2878905611
 20
-22.9458216005
 11
3.2878905611
 21
-23.0011800367
  0
LINE
  5
3EE
100
AcDbEntity
  8
RACCORDO
100
AcDbLine
 62
7
  6
CONTINUOUS
 10
3.723620853
 20
-22.5774094622
 11
3.723620853
 21
-22.0342857904
  0
LINE
  5
3EF
100
AcDbEntity
  8
ASSI
100
AcDbLine
 62
7
  6
CONTINUOUS
 10
4.5722011715
 20
-20.0661383875
 11
4.5722011715
 21
-20.4673129552
  0
LINE
  5
3F0
100
AcDbEntity
  8
ASSI
100
AcDbLine
 62
7
  6
CONTINUOUS
 10
4.6235722064
 20
-20.0370959819
 11
4.6235722064
 21
-20.4367857061
  0
LINE
  5
3F1
100
AcDbEntity
  8
0
100
AcDbLine
 62
7
  6
CONTINUOUS
 10
-3.6135357588
 20
-23.286294368
 11
-3.4592139464
 21
-22.7391462393
  0
LINE
  5
3F2
100
AcDbEntity
  8
0
100
AcDbLine
 62
7
  6
CONTINUOUS
 10
-3.4721144025
 20
-23.2046394493
 11
-3.4103503056
 21
-22.9856547865
  0
LINE
  5
3F3
100
AcDbEntity
  8
0
100
AcDbLine
 62
7
  6
CONTINUOUS
 10
-3.7624581037
 20
-23.807414542
 11
-3.6769349528
 21
-23.514531014
  0
LINE
  5
3F4
100
AcDbEntity
  8
0
100
AcDbLine
 62
7
  6
CONTINUOUS
 10
-3.6210367475
 20
-23.7257596234
 11
-3.5763206674
 21
-23.5726244414
  0
LINE
  5
3F5
100
AcDbEntity
  8
0
100
AcDbLine
 62
7
  6
CONTINUOUS
 10
-3.6033032165
 20
-22.1848655132
 11
-4.0690313198
 21
-23.6304030094
  0
LINE
  5
3F6
100
AcDbEntity
  8
0
100
AcDbLine
 62
7
  6
CONTINUOUS
 10
-6.6926188024
 20
-22.1155764782
 11
-6.2153443525
 21
-20.6767056978
  0
LINE
  5
3F7
100
AcDbEntity
  8
0
100
AcDbLine
 62
7
  6
CONTINUOUS
 10
-6.5511974462
 20
-22.0339215595
 11
-6.0739229963
 21
-20.5950507792
  0
LINE
  5
3F8
100
AcDbEntity
  8
0
100
AcDbLine
 62
7
  6
CONTINUOUS
 10
-4.5631957223
 20
-21.6306356107
 11
-4.8731319382
 21
-22.4035462339
  0
LINE
  5
3F9
100
AcDbEntity
  8
0
100
AcDbLine
 62
7
  6
CONTINUOUS
 10
-4.8530904107
 20
-23.1776971169
 11
-4.4845760548
 21
-22.2756404938
  0
LINE
  5
3FA
100
AcDbEntity
  8
0
100
AcDbLine
 62
7
  6
CONTINUOUS
 10
-4.7116690544
 20
-23.0960421982
 11
-4.4716932964
 21
-22.5086248604
  0
LINE
  5
3FB
100
AcDbEntity
  8
ASSI
100
AcDbLine
 62
7
  6
CONTINUOUS
 10
-11.344714935
 20
-10.8842337011
 11
-12.6861015488
 21
-11.7444028931
  0
LWPOLYLINE
  5
3FC
100
AcDbEntity
  8
ASSI
100
AcDbPolyline
 62
7
  6
CONTINUOUS
 90
8
 70
0
 10
-11.9443720678
 20
-11.8948164237
 10
-11.9376793025
 20
-11.8905654981
 10
-11.9268836664
 20
-11.8819180999
 10
-11.917049275
 20
-11.8716580162
 10
-11.9083907344
 20
-11.8599984858
 10
-11.9009795801
 20
-11.8470105884
 10
-11.8947442766
 20
-11.8326232445
 10
-11.8896848239
 20
-11.8168364539
  0
LINE
  5
3FD
100
AcDbEntity
  8
RACCORDO
100
AcDbLine
 62
7
  6
CONTINUOUS
 10
-14.7531619172
 20
-11.2458198827
 11
-15.3089732663
 21
-11.5895419583
  0
LINE
  5
3FE
100
AcDbEntity
  8
RACCORDO
100
AcDbLine
 62
7
  6
CONTINUOUS
 10
-14.4988055384
 20
-11.2679813953
 11
-15.0546168875
 21
-11.611703471
  0
LINE
  5
3FF
100
AcDbEntity
  8
RACCORDO
100
AcDbLine
 62
7
  6
CONTINUOUS
 10
-11.6593120595
 20
-13.0653451673
 11
-12.5625055018
 21
-13.6238935402
  0
LINE
  5
400
100
AcDbEntity
  8
RACCORDO
100
AcDbLine
 62
7
  6
CONTINUOUS
 10
-11.5067188476
 20
-13.0786548237
 11
-12.40991229
 21
-13.6372031967
  0
LINE
  5
401
100
AcDbEntity
  8
ASSI
100
AcDbLine
 62
7
  6
CONTINUOUS
 10
-11.2903755509
 20
-10.8526559951
 11
-11.2880473955
 21
-10.8512871973
  0
LINE
  5
402
100
AcDbEntity
  8
ASSI
100
AcDbLine
 62
7
  6
CONTINUOUS
 10
-11.3377014052
 20
-11.2811346053
 11
-12.4038161832
 21
-11.9073909253
  0
LINE
  5
403
100
AcDbEntity
  8
ASSI
100
AcDbLine
 62
7
  6
CONTINUOUS
 10
-11.3377014052
 20
-10.8799600376
 11
-11.3296252149
 21
-10.8752540595
  0
LINE
  5
404
100
AcDbEntity
  8
ASSI
100
AcDbLine
 62
7
  6
CONTINUOUS
 10
-11.9443963982
 20
-11.8948285072
 11
-12.1843918854
 21
-12.0340837648
  0
LINE
  5
405
100
AcDbEntity
  8
ASSI
100
AcDbLine
 62
7
  6
CONTINUOUS
 10
-11.8896848239
 20
-11.8168364539
 11
-12.2244511386
 21
-12.0109540541
  0
LINE
  5
406
100
AcDbEntity
  8
RACCORDO
100
AcDbLine
 62
7
  6
CONTINUOUS
 10
-12.5397812664
 20
-12.3990974576
 11
-13.1153407672
 21
-12.731417198
  0
LINE
  5
407
100
AcDbEntity
  8
RACCORDO
100
AcDbLine
 62
7
  6
CONTINUOUS
 10
-12.1925597852
 20
-13.0150014874
 11
-12.6249187203
 21
-13.2646392901
  0
LINE
  5
408
100
AcDbEntity
  8
ASSI
100
AcDbLine
 62
7
  6
CONTINUOUS
 10
-11.3296252149
 20
-10.8752540595
 11
-11.2903755509
 21
-10.8526559951
  0
LINE
  5
409
100
AcDbEntity
  8
RACCORDO
100
AcDbLine
 62
7
  6
CONTINUOUS
 10
-13.6686793573
 20
-11.4508041638
 11
-13.9345452292
 21
-11.593778226
  0
LINE
  5
40A
100
AcDbEntity
  8
0
100
AcDbLine
 62
7
  6
CONTINUOUS
 10
-13.4256960078
 20
-11.4794315543
 11
-13.7916987572
 21
-11.6762559887
  0
LINE
  5
40B
100
AcDbEntity
  8
0
100
AcDbLine
 62
7
  6
CONTINUOUS
 10
-12.1739939249
 20
-12.2021486494
 11
-12.5399966744
 21
-12.3989730838
  0
LINE
  5
40C
100
AcDbEntity
  8
0
100
AcDbLine
 62
7
  6
CONTINUOUS
 10
-11.8328350972
 20
-12.8215531913
 11
-12.1925597852
 21
-13.0150014874
  0
LINE
  5
40D
100
AcDbEntity
  8
ASSI
100
AcDbLine
 62
7
  6
CONTINUOUS
 10
-11.2867004222
 20
-10.8504994089
 11
-11.2863304059
 21
-10.85030142
  0
LINE
  5
40E
100
AcDbEntity
  8
DRAFT
100
AcDbLine
 62
7
  6
CONTINUOUS
 10
-12.6249187203
 20
-13.219983979
 11
-13.1671468466
 21
-13.5002476676
  0
LINE
  5
40F
100
AcDbEntity
  8
0
100
AcDbLine
 62
7
  6
CONTINUOUS
 10
-13.6686793573
 20
-11.4508041638
 11
-13.663550765
 21
-11.4481596416
  0
LWPOLYLINE
  5
410
100
AcDbEntity
  8
0
100
AcDbPolyline
 62
7
  6
CONTINUOUS
 90
6
 70
0
 10
-13.6686793573
 20
-11.4508041638
 10
-13.6367317042
 20
-11.4350639833
 10
-13.6034527666
 20
-11.421531092
 10
-13.5690282938
 20
-11.4103485212
 10
-13.5336655554
 20
-11.4016399589
 10
-13.4975815531
 20
-11.3955045042
  0
LWPOLYLINE
  5
411
100
AcDbEntity
  8
0
100
AcDbPolyline
 62
7
  6
CONTINUOUS
 90
11
 70
0
 10
-13.663550765
 20
-11.4481596416
 10
-13.6435636204
 20
-11.4398457339
 10
-13.6223930377
 20
-11.4340548207
 10
-13.6001573656
 20
-11.4308192745
 10
-13.5769809068
 20
-11.4301571829
 10
-13.5529932231
 20
-11.432072247
 10
-13.5283284114
 20
-11.4365537612
 10
-13.5031243539
 20
-11.4435766728
 10
-13.4775219473
 20
-11.4531017221
 10
-13.4516643152
 20
-11.4650756616
 10
-13.4256960078
 20
-11.4794315543
  0
LINE
  5
412
100
AcDbEntity
  8
DRAFT
100
AcDbLine
 62
7
  6
CONTINUOUS
 10
56.2472817672
 20
4.3838852237
 11
56.8802735572
 21
4.3838852241
  0
LINE
  5
413
100
AcDbEntity
  8
DRAFT
100
AcDbLine
 62
7
  6
CONTINUOUS
 10
-42.3774492945
 20
28.3838787926
 11
-41.9454618316
 21
28.1344546456
  0
LINE
  5
414
100
AcDbEntity
  8
RACCORDO
100
AcDbLine
 62
7
  6
CONTINUOUS
 10
-42.3760061932
 20
28.3863781565
 11
-42.4592707188
 21
28.43445405
  0
LINE
  5
415
100
AcDbEntity
  8
RACCORDO
100
AcDbLine
 62
7
  6
CONTINUOUS
 10
-41.3687770668
 20
28.0631078668
 11
-42.0586792437
 21
28.4614487372
  0
LINE
  5
416
100
AcDbEntity
  8
RACCORDO
100
AcDbLine
 62
7
  6
CONTINUOUS
 10
9.0963981305
 20
-25.7616000966
 11
9.0963981305
 21
-25.2195401266
  0
LINE
  5
417
100
AcDbEntity
  8
0
100
AcDbLine
 62
7
  6
CONTINUOUS
 10
12.1579740599
 20
-26.3777266155
 11
12.1579740599
 21
-26.6930420977
  0
LINE
  5
418
100
AcDbEntity
  8
RACCORDO
100
AcDbLine
 62
7
  6
CONTINUOUS
 10
12.3713059946
 20
-27.1906199951
 11
12.3713059946
 21
-27.6524908531
  0
LWPOLYLINE
  5
419
100
AcDbEntity
  8
0
100
AcDbPolyline
 62
7
  6
CONTINUOUS
 90
12
 70
0
 10
12.1579740599
 20
-26.3777270577
 10
12.1577556195
 20
-26.3862593146
 10
12.1552924062
 20
-26.4075863271
 10
12.1500990229
 20
-26.4287626407
 10
12.142203006
 20
-26.4496625314
 10
12.1316569
 20
-26.4701529267
 10
12.1185208157
 20
-26.4901270443
 10
12.1028743583
 20
-26.5094718665
 10
12.0848391869
 20
-26.5280539233
 10
12.0645414481
 20
-26.5457681519
 10
12.0420977667
 20
-26.562534786
 10
12.0176439601
 20
-26.578270134
  0
LINE
  5
41A
100
AcDbEntity
  8
ASSI
100
AcDbLine
 62
7
  6
CONTINUOUS
 10
4.0202177528
 20
-21.0030148038
 11
4.087465062
 21
-20.7520562665
  0
LINE
  5
41B
100
AcDbEntity
  8
RACCORDO
100
AcDbLine
 62
7
  6
CONTINUOUS
 10
-6.700924775
 20
-16.5098163522
 11
-6.1451134258
 21
-16.1660942765
  0
LINE
  5
41C
100
AcDbEntity
  8
RACCORDO
100
AcDbLine
 62
7
  6
CONTINUOUS
 10
-6.548331563
 20
-16.5231260086
 11
-5.9925202139
 21
-16.1794039329
  0
LINE
  5
41D
100
AcDbEntity
  8
RACCORDO
100
AcDbLine
 62
7
  6
CONTINUOUS
 10
-7.9608883605
 20
-16.2060138542
 11
-7.0256041718
 21
-15.665994276
  0
LINE
  5
41E
100
AcDbEntity
  8
RACCORDO
100
AcDbLine
 62
7
  6
CONTINUOUS
 10
-7.2829126856
 20
-16.3043913124
 11
-6.8135044462
 21
-16.0333617767
  0
LINE
  5
41F
100
AcDbEntity
  8
RACCORDO
100
AcDbLine
 62
7
  6
CONTINUOUS
 10
-4.4676556256
 20
-17.7244822178
 11
-3.8920961248
 21
-17.3921624774
  0
LINE
  5
420
100
AcDbEntity
  8
DRAFT
100
AcDbLine
 62
7
  6
CONTINUOUS
 10
-7.3216178615
 20
-16.2820434289
 11
-7.8638459877
 21
-16.5623071176
  0
LINE
  5
421
100
AcDbEntity
  8
RACCORDO
100
AcDbLine
 62
7
  6
CONTINUOUS
 10
-41.4407220044
 20
34.5533301136
 11
-41.9454618316
 21
34.844760564
  0
LINE
  5
422
100
AcDbEntity
  8
RACCORDO
100
AcDbLine
 62
7
  6
CONTINUOUS
 10
-41.9454618316
 20
35.1509280394
 11
-41.9344948005
 21
35.1445958131
  0
LINE
  5
423
100
AcDbEntity
  8
RACCORDO
100
AcDbLine
 62
7
  6
CONTINUOUS
 10
-44.2404317401
 20
39.9510379326
 11
35.5904318949
 21
-6.1423022146
  0
LINE
  5
424
100
AcDbEntity
  8
RACCORDO
100
AcDbLine
 62
7
  6
CONTINUOUS
 10
-44.3025565264
 20
40.0883589909
 11
35.5283070873
 21
-6.004981144
  0
LWPOLYLINE
  5
425
100
AcDbEntity
  8
RACCORDO
100
AcDbPolyline
 62
7
  6
CONTINUOUS
 90
24
 70
0
 10
35.5904429523
 20
-6.1423083701
 10
35.5929304349
 20
-6.143763969
 10
35.6064288768
 20
-6.1523106699
 10
35.6212229979
 20
-6.1628740482
 10
35.636950106
 20
-6.1754216634
 10
35.6533932109
 20
-6.18997602
 10
35.6703180735
 20
-6.2065150086
 10
35.6873800122
 20
-6.2248566512
 10
35.7043293962
 20
-6.2448464311
 10
35.7209797782
 20
-6.2663643046
 10
35.7371329342
 20
-6.2892440795
 10
35.7525987351
 20
-6.3132808135
 10
35.7672129377
 20
-6.3382618504
 10
35.7808463729
 20
-6.3640021243
 10
35.7933632104
 20
-6.3902583655
 10
35.8046557597
 20
-6.416784025
 10
35.814654707
 20
-6.4433791391
 10
35.8232956549
 20
-6.4698141232
 10
35.8305250059
 20
-6.495819336
 10
35.8363131688
 20
-6.5211020283
 10
35.8406760117
 20
-6.5454532124
 10
35.8436402828
 20
-6.5686089413
 10
35.8452565632
 20
-6.5901483213
 10
35.8456611286
 20
-6.6067301933
  0
LINE
  5
426
100
AcDbEntity
  8
RACCORDO
100
AcDbLine
 62
7
  6
CONTINUOUS
 10
13.5524051115
 20
-28.117440935
 11
13.5524051115
 21
-28.0937814568
  0
LINE
  5
427
100
AcDbEntity
  8
ASSI
100
AcDbLine
 62
7
  6
CONTINUOUS
 10
4.5651876417
 20
-20.0704120509
 11
2.7558937712
 21
-21.2306285245
  0
LINE
  5
428
100
AcDbEntity
  8
RACCORDO
100
AcDbLine
 62
7
  6
CONTINUOUS
 10
1.1567406595
 20
-20.4319982326
 11
0.6009293104
 21
-20.7757203082
  0
LINE
  5
429
100
AcDbEntity
  8
RACCORDO
100
AcDbLine
 62
7
  6
CONTINUOUS
 10
1.4110970383
 20
-20.4541597452
 11
0.8552856892
 21
-20.7978818208
  0
LINE
  5
42A
100
AcDbEntity
  8
DRAFT
100
AcDbLine
 62
7
  6
CONTINUOUS
 10
-2.5421342803
 20
-19.0416573477
 11
-2.3574974652
 21
-18.9312625851
  0
LINE
  5
42B
100
AcDbEntity
  8
0
100
AcDbLine
 62
7
  6
CONTINUOUS
 10
-7.2950391318
 20
-19.8899936267
 11
-7.436460488
 21
-19.9716485454
  0
LINE
  5
42C
100
AcDbEntity
  8
RACCORDO
100
AcDbLine
 62
7
  6
CONTINUOUS
 10
-3.9385633722
 20
-18.2353766913
 11
-3.5385965821
 21
-18.0044416452
  0
LINE
  5
42D
100
AcDbEntity
  8
0
100
AcDbLine
 62
7
  6
CONTINUOUS
 10
-6.9583530663
 20
-20.0843919413
 11
-7.0997744226
 21
-20.1660468599
  0
LINE
  5
42E
100
AcDbEntity
  8
0
100
AcDbLine
 62
7
  6
CONTINUOUS
 10
-6.3836477873
 20
-20.4162195666
 11
-6.5250691435
 21
-20.4978744853
  0
LINE
  5
42F
100
AcDbEntity
  8
0
100
AcDbLine
 62
7
  6
CONTINUOUS
 10
-6.0739229963
 20
-20.5950507792
 11
-6.2153443525
 21
-20.6767056978
  0
LINE
  5
430
100
AcDbEntity
  8
RACCORDO
100
AcDbLine
 62
7
  6
CONTINUOUS
 10
-2.9133041909
 20
-18.8273484932
 11
-2.6988169049
 21
-18.7035057972
  0
LINE
  5
431
100
AcDbEntity
  8
0
100
AcDbLine
 62
7
  6
CONTINUOUS
 10
-5.9589057144
 20
-20.661357441
 11
-6.1003270706
 21
-20.7430123597
  0
LINE
  5
432
100
AcDbEntity
  8
0
100
AcDbLine
 62
7
  6
CONTINUOUS
 10
-5.6489694985
 20
-20.8403107276
 11
-5.7903908547
 21
-20.9219656463
  0
LINE
  5
433
100
AcDbEntity
  8
0
100
AcDbLine
 62
7
  6
CONTINUOUS
 10
-5.3480524296
 20
-21.0141593471
 11
-5.4894737858
 21
-21.0958142658
  0
LINE
  5
434
100
AcDbEntity
  8
0
100
AcDbLine
 62
7
  6
CONTINUOUS
 10
-6.5511974462
 20
-22.0339215595
 11
-6.6926188024
 21
-22.1155764782
  0
LINE
  5
435
100
AcDbEntity
  8
0
100
AcDbLine
 62
7
  6
CONTINUOUS
 10
-5.0383728934
 20
-21.1929644301
 11
-5.1797942497
 21
-21.2746193488
  0
LINE
  5
436
100
AcDbEntity
  8
0
100
AcDbLine
 62
7
  6
CONTINUOUS
 10
-4.421774366
 20
-21.548980692
 11
-4.5631957223
 21
-21.6306356107
  0
LINE
  5
437
100
AcDbEntity
  8
0
100
AcDbLine
 62
7
  6
CONTINUOUS
 10
-5.6489694985
 20
-22.5548566689
 11
-5.7903908547
 21
-22.6365115876
  0
LINE
  5
438
100
AcDbEntity
  8
0
100
AcDbLine
 62
7
  6
CONTINUOUS
 10
-4.1151233682
 20
-21.7260371349
 11
-4.2565447245
 21
-21.8076920536
  0
LINE
  5
439
100
AcDbEntity
  8
0
100
AcDbLine
 62
7
  6
CONTINUOUS
 10
-5.1856137385
 20
-22.8223924775
 11
-5.3270350947
 21
-22.9040473962
  0
LINE
  5
43A
100
AcDbEntity
  8
0
100
AcDbLine
 62
7
  6
CONTINUOUS
 10
-3.4618818603
 20
-22.1032105945
 11
-3.6033032165
 21
-22.1848655132
  0
LINE
  5
43B
100
AcDbEntity
  8
0
100
AcDbLine
 62
7
  6
CONTINUOUS
 10
-4.7116690544
 20
-23.0960421982
 11
-4.8530904107
 21
-23.1776971169
  0
LINE
  5
43C
100
AcDbEntity
  8
0
100
AcDbLine
 62
7
  6
CONTINUOUS
 10
-3.1620565643
 20
-22.2763259628
 11
-3.3034779205
 21
-22.3579808814
  0
LINE
  5
43D
100
AcDbEntity
  8
0
100
AcDbLine
 62
7
  6
CONTINUOUS
 10
-2.6154708882
 20
-22.6119480146
 11
-2.7568922445
 21
-22.6936029332
  0
LINE
  5
43E
100
AcDbEntity
  8
0
100
AcDbLine
 62
7
  6
CONTINUOUS
 10
-3.4721144025
 20
-23.2046394493
 11
-3.6135357588
 21
-23.286294368
  0
LINE
  5
43F
100
AcDbEntity
  8
0
100
AcDbLine
 62
7
  6
CONTINUOUS
 10
-4.0467862892
 20
-23.5613583766
 11
-4.1176993582
 21
-23.6023026939
  0
LINE
  5
440
100
AcDbEntity
  8
0
100
AcDbLine
 62
7
  6
CONTINUOUS
 10
-3.6210367475
 20
-23.7257596234
 11
-3.7624581037
 21
-23.807414542
  0
LINE
  5
441
100
AcDbEntity
  8
0
100
AcDbLine
 62
7
  6
CONTINUOUS
 10
-1.8505965223
 20
-23.0716273136
 11
-1.9920178785
 21
-23.1532822323
  0
LINE
  5
442
100
AcDbEntity
  8
0
100
AcDbLine
 62
7
  6
CONTINUOUS
 10
-2.3170590987
 20
-23.5269374314
 11
-2.458480455
 21
-23.6085923501
  0
LINE
  5
443
100
AcDbEntity
  8
0
100
AcDbLine
 62
7
  6
CONTINUOUS
 10
-2.1399338143
 20
-23.6292073507
 11
-2.2813551705
 21
-23.7108622694
  0
LINE
  5
444
100
AcDbEntity
  8
ASSI
100
AcDbLine
 62
7
  6
CONTINUOUS
 10
0.3077237961
 20
-17.6122057851
 11
-2.2968525744
 21
-18.966278185
  0
LWPOLYLINE
  5
445
100
AcDbEntity
  8
RACCORDO
100
AcDbPolyline
 62
7
  6
CONTINUOUS
 90
16
 70
0
 10
-44.7077792981
 20
39.8319697372
 10
-44.6871434807
 20
39.8211153856
 10
-44.6648496065
 20
39.811415483
 10
-44.6410906957
 20
39.8029540191
 10
-44.6160724543
 20
39.7958042614
 10
-44.5900114945
 20
39.7900281206
 10
-44.56313346
 20
39.7856756144
 10
-44.5356710674
 20
39.7827844341
 10
-44.5078620965
 20
39.7813796186
 10
-44.4799473334
 20
39.7814733371
 10
-44.452168476
 20
39.7830647829
 10
-44.4247660483
 20
39.7861401817
 10
-44.3979773225
 20
39.7906729087
 10
-44.372034253
 20
39.7966237203
 10
-44.3471614682
 20
39.8039410949
 10
-44.3235743329
 20
39.812561678
  0
LWPOLYLINE
  5
446
100
AcDbEntity
  8
RACCORDO
100
AcDbPolyline
 62
7
  6
CONTINUOUS
 90
14
 70
0
 10
-45.8690006566
 20
43.4252995787
 10
-45.9016011432
 20
43.4426263636
 10
-45.9340479
 20
43.457439778
 10
-45.9662008201
 20
43.4696772139
 10
-45.9979202562
 20
43.4792875736
 10
-46.0290703366
 20
43.4862298554
 10
-46.0595195465
 20
43.4904733114
 10
-46.0891370877
 20
43.4920001099
 10
-46.1177952045
 20
43.4908043753
 10
-46.1453724415
 20
43.4868905505
 10
-46.1717507081
 20
43.4802754505
 10
-46.196816422
 20
43.4709878438
 10
-46.2204627384
 20
43.459067246
 10
-46.2263535214
 20
43.4555501346
  0
LINE
  5
447
100
AcDbEntity
  8
RACCORDO
100
AcDbLine
 62
7
  6
CONTINUOUS
 10
-44.2506311502
 20
39.9565861951
 11
-44.2404341604
 21
39.9510395634
  0
LINE
  5
448
100
AcDbEntity
  8
RACCORDO
100
AcDbLine
 62
7
  6
CONTINUOUS
 10
37.3031810374
 20
-5.082869048
 11
-46.0774304765
 21
43.0600510356
  0
LINE
  5
449
100
AcDbEntity
  8
RACCORDO
100
AcDbLine
 62
7
  6
CONTINUOUS
 10
37.5116108573
 20
-4.7176205049
 11
-45.8690006566
 21
43.4252995787
  0
LINE
  5
44A
100
AcDbEntity
  8
RACCORDO
100
AcDbLine
 62
7
  6
CONTINUOUS
 10
37.8031574445
 20
-4.5492857175
 11
-45.5874573899
 21
43.599410158
  0
LWPOLYLINE
  5
44B
100
AcDbEntity
  8
RACCORDO
100
AcDbPolyline
 62
7
  6
CONTINUOUS
 90
25
 70
0
 10
37.3031810374
 20
-5.082869048
 10
37.3217293628
 20
-5.0942878031
 10
37.3400647311
 20
-5.1069527634
 10
37.3581871421
 20
-5.120863929
 10
37.3761789722
 20
-5.1360949361
 10
37.3939578451
 20
-5.1525721485
 10
37.4112766323
 20
-5.170074657
 10
37.4281227147
 20
-5.1886111426
 10
37.4445087115
 20
-5.2081729244
 10
37.4602253514
 20
-5.2285130503
 10
37.4752649922
 20
-5.2496431932
 10
37.4896352761
 20
-5.2715516802
 10
37.5031498591
 20
-5.2939565409
 10
37.5157978557
 20
-5.3168658685
 10
37.5275901514
 20
-5.3402715697
 10
37.5383730588
 20
-5.3638673941
 10
37.5481317378
 20
-5.3876529201
 10
37.5568810286
 20
-5.4116285693
 10
37.5645117641
 20
-5.4354893552
 10
37.5710100558
 20
-5.4592424893
 10
37.5763897924
 20
-5.4828807601
 10
37.5805834723
 20
-5.5060775469
 10
37.5835685953
 20
-5.528723976
 10
37.5853676617
 20
-5.5509289212
 10
37.5859806716
 20
-5.5726923822
  0
LWPOLYLINE
  5
44C
100
AcDbEntity
  8
RACCORDO
100
AcDbPolyline
 62
7
  6
CONTINUOUS
 90
6
 70
0
 10
35.5283070873
 20
-6.004981144
 10
35.5592036228
 20
-6.0242650634
 10
35.5893919358
 20
-6.0456433599
 10
35.6188720262
 20
-6.0691160334
 10
35.647735445
 20
-6.0947915765
 10
35.6758906412
 20
-6.1225614967
  0
LWPOLYLINE
  5
44D
100
AcDbEntity
  8
RACCORDO
100
AcDbPolyline
 62
7
  6
CONTINUOUS
 90
10
 70
0
 10
35.9335298591
 20
-6.7293114972
 10
35.91473058
 20
-6.7173965253
 10
35.8979308009
 20
-6.7045242146
 10
35.8832759813
 20
-6.6908060188
 10
35.8708930088
 20
-6.6763607158
 10
35.8608891004
 20
-6.6613133792
 10
35.853350874
 20
-6.645794295
 10
35.8483435988
 20
-6.629937834
 10
35.84591063
 20
-6.6138812881
 10
35.8456618934
 20
-6.6068291192
  0
LWPOLYLINE
  5
44E
100
AcDbEntity
  8
RACCORDO
100
AcDbPolyline
 62
7
  6
CONTINUOUS
 90
11
 70
0
 10
29.3408582564
 20
-37.3410238485
 10
29.3379685112
 20
-37.3127429382
 10
29.3331995074
 20
-37.2860366673
 10
29.3265047791
 20
-37.2607766747
 10
29.3179307922
 20
-37.2370913216
 10
29.3076169451
 20
-37.2153656909
 10
29.2955347964
 20
-37.195631818
 10
29.2817127874
 20
-37.1778576675
 10
29.2663756402
 20
-37.1623322165
 10
29.249498587
 20
-37.1490922242
 10
29.2383045641
 20
-37.1420300424
  0
LINE
  5
44F
100
AcDbEntity
  8
DRAFT
100
AcDbLine
 62
7
  6
CONTINUOUS
 10
19.194886433
 20
-32.1319999504
 11
19.194886433
 21
-31.5923406787
  0
LINE
  5
450
100
AcDbEntity
  8
RACCORDO
100
AcDbLine
 62
7
  6
CONTINUOUS
 10
19.1977931378
 20
-32.1319999504
 11
19.1977931378
 21
-32.1873583866
  0
LINE
  5
451
100
AcDbEntity
  8
RACCORDO
100
AcDbLine
 62
7
  6
CONTINUOUS
 10
19.6335234297
 20
-31.7635878121
 11
19.6335234297
 21
-31.2204641403
  0
LINE
  5
452
100
AcDbEntity
  8
ASSI
100
AcDbLine
 62
7
  6
CONTINUOUS
 10
20.4821037482
 20
-29.2523167374
 11
20.4821037482
 21
-29.6534913051
  0
LINE
  5
453
100
AcDbEntity
  8
ASSI
100
AcDbLine
 62
7
  6
CONTINUOUS
 10
20.5334747831
 20
-29.2232743317
 11
20.5334747831
 21
-29.622964056
  0
LINE
  5
454
100
AcDbEntity
  8
RACCORDO
100
AcDbLine
 62
7
  6
CONTINUOUS
 10
25.0063007072
 20
-34.9477784465
 11
25.0063007072
 21
-34.4057184764
  0
LWPOLYLINE
  5
455
100
AcDbEntity
  8
RACCORDO
100
AcDbPolyline
 62
7
  6
CONTINUOUS
 90
19
 70
0
 10
37.5116108573
 20
-4.7176205049
 10
37.4933437506
 20
-4.7294475053
 10
37.4752401522
 20
-4.7429932867
 10
37.4574347994
 20
-4.7581570336
 10
37.4400602099
 20
-4.7748258888
 10
37.423245695
 20
-4.7928757932
 10
37.4071163982
 20
-4.8121724091
 10
37.3917923626
 20
-4.8325721203
 10
37.3773876386
 20
-4.8539231003
 10
37.3640094345
 20
-4.8760664429
 10
37.3517573121
 20
-4.8988373572
 10
37.3407224664
 20
-4.9220663571
 10
37.33098704
 20
-4.9455805199
 10
37.3226234836
 20
-4.9692048365
 10
37.315694035
 20
-4.9927634849
 10
37.3102502657
 20
-5.0160810997
 10
37.3063326787
 20
-5.0389841333
 10
37.3039704137
 20
-5.061302147
 10
37.3031810374
 20
-5.082869048
  0
LWPOLYLINE
  5
456
100
AcDbEntity
  8
ASSI
100
AcDbPolyline
 62
7
  6
CONTINUOUS
 90
8
 70
0
 10
3.9655305089
 20
-21.0809947736
 10
3.9722232742
 20
-21.0767438479
 10
3.9830189103
 20
-21.0680964498
 10
3.9928533017
 20
-21.057836366
 10
4.0015118423
 20
-21.0461768357
 10
4.0089229966
 20
-21.0331889383
 10
4.0151583001
 20
-21.0188015943
 10
4.0202177528
 20
-21.0030148038
  0
LINE
  5
457
100
AcDbEntity
  8
RACCORDO
100
AcDbLine
 62
7
  6
CONTINUOUS
 10
4.2505905172
 20
-22.2515235171
 11
3.3473970749
 21
-22.81007189
  0
LINE
  5
458
100
AcDbEntity
  8
RACCORDO
100
AcDbLine
 62
7
  6
CONTINUOUS
 10
4.403183729
 20
-22.2648331736
 11
3.4999902867
 21
-22.8233815465
  0
LWPOLYLINE
  5
459
100
AcDbEntity
  8
0
100
AcDbPolyline
 62
7
  6
CONTINUOUS
 90
44
 70
0
 10
-1.725144435
 20
-23.931528664
 10
-1.7214418208
 20
-23.929311621
 10
-1.7146149017
 20
-23.924972326
 10
-1.7077669079
 20
-23.9202523287
 10
-1.7009492808
 20
-23.9149825501
 10
-1.6941569341
 20
-23.9091425107
 10
-1.6873949541
 20
-23.90275269
 10
-1.6807300411
 20
-23.8957054463
 10
-1.674161588
 20
-23.8879984216
 10
-1.6676902019
 20
-23.879633974
 10
-1.6613844036
 20
-23.8705115367
 10
-1.6552310441
 20
-23.8606282656
 10
-1.6492432725
 20
-23.8499870047
 10
-1.6435290569
 20
-23.8384957196
 10
-1.6380793184
 20
-23.8261559088
 10
-1.6329031358
 20
-23.8129660738
 10
-1.6281357143
 20
-23.7988296849
 10
-1.6237763383
 20
-23.7837633315
 10
-1.6198257234
 20
-23.7677504243
 10
-1.6164212207
 20
-23.7506446657
 10
-1.6135535821
 20
-23.7324558896
 10
-1.6112320558
 20
-23.7131742621
 10
-1.6096217379
 20
-23.6926239843
 10
-1.6086952891
 20
-23.6708049504
 10
-1.6084800486
 20
-23.6477172661
 10
-1.609223131
 20
-23.6231854496
 10
-1.6108418476
 20
-23.5971982429
 10
-1.6134188869
 20
-23.569766904
 10
-1.6174494289
 20
-23.5407497253
 10
-1.6229745953
 20
-23.5098973565
 10
-1.6299532644
 20
-23.4774591479
 10
-1.6387572504
 20
-23.4440414426
 10
-1.649581686
 20
-23.4094501684
 10
-1.6622314385
 20
-23.3738793975
 10
-1.6764929248
 20
-23.3385176897
 10
-1.6925187868
 20
-23.3033887354
 10
-1.7101563826
 20
-23.2684688441
 10
-1.7287342024
 20
-23.2348755041
 10
-1.7483249388
 20
-23.2026767932
 10
-1.7688558992
 20
-23.1718046337
 10
-1.7894374965
 20
-23.1431722804
 10
-1.8097732016
 20
-23.1170841518
 10
-1.8301595435
 20
-23.0932358295
 10
-1.8505965223
 20
-23.0716273136
  0
LINE
  5
45A
100
AcDbEntity
  8
DRAFT
100
AcDbLine
 62
7
  6
CONTINUOUS
 10
55.8566708801
 20
6.1568170643
 11
57.9796933811
 21
7.4254125791
  0
LINE
  5
45B
100
AcDbEntity
  8
ASSI
100
AcDbLine
 62
7
  6
CONTINUOUS
 10
4.6195270258
 20
-20.0388343449
 11
4.6218551812
 21
-20.0374655472
  0
LINE
  5
45C
100
AcDbEntity
  8
ASSI
100
AcDbLine
 62
7
  6
CONTINUOUS
 10
4.5722011715
 20
-20.4673129552
 11
3.0165536069
 21
-21.3811302468
  0
LINE
  5
45D
100
AcDbEntity
  8
ASSI
100
AcDbLine
 62
7
  6
CONTINUOUS
 10
4.5722011715
 20
-20.0661383875
 11
4.5802773618
 21
-20.0614324093
  0
LINE
  5
45E
100
AcDbEntity
  8
ASSI
100
AcDbLine
 62
7
  6
CONTINUOUS
 10
3.9655061785
 20
-21.0810068571
 11
3.2329424716
 21
-21.5060704653
  0
LINE
  5
45F
100
AcDbEntity
  8
ASSI
100
AcDbLine
 62
7
  6
CONTINUOUS
 10
4.0202177528
 20
-21.0030148038
 11
3.1927209926
 21
-21.4828470874
  0
LINE
  5
460
100
AcDbEntity
  8
0
100
AcDbLine
 62
7
  6
CONTINUOUS
 10
-2.7568922445
 20
-24.2829169053
 11
-2.8479045777
 21
-24.3354662859
  0
LINE
  5
461
100
AcDbEntity
  8
0
100
AcDbLine
 62
7
  6
CONTINUOUS
 10
-1.955675351
 20
-24.0452756699
 11
-1.960062286
 21
-24.0478086312
  0
LWPOLYLINE
  5
462
100
AcDbEntity
  8
0
100
AcDbPolyline
 62
7
  6
CONTINUOUS
 90
42
 70
0
 10
-1.8665646074
 20
-24.0131857334
 10
-1.865400597
 20
-24.0125135852
 10
-1.8582432423
 20
-24.008084704
 10
-1.8510591706
 20
-24.0031993733
 10
-1.8438560342
 20
-23.9978473095
 10
-1.8366922245
 20
-23.9918271961
 10
-1.8295604545
 20
-23.9851148196
 10
-1.8224680112
 20
-23.9777343933
 10
-1.8154951462
 20
-23.9695572411
 10
-1.8086316638
 20
-23.9605783054
 10
-1.8018877597
 20
-23.9508026438
 10
-1.7953742732
 20
-23.9401167516
 10
-1.789077814
 20
-23.9285199257
 10
-1.7830117725
 20
-23.9160128693
 10
-1.7773271587
 20
-23.9024841871
 10
-1.7720187556
 20
-23.8879480398
 10
-1.7670917803
 20
-23.8723902668
 10
-1.7627128942
 20
-23.8556569913
 10
-1.7588753959
 20
-23.8377550138
 10
-1.7555859869
 20
-23.8186775339
 10
-1.7530314322
 20
-23.7982502734
 10
-1.751196201
 20
-23.7764571395
 10
-1.7500958243
 20
-23.753314225
 10
-1.7499636593
 20
-23.728695531
 10
-1.7507222102
 20
-23.702626653
 10
-1.752448973
 20
-23.6750819955
 10
-1.7556097923
 20
-23.6458587723
 10
-1.7601089375
 20
-23.6149475158
 10
-1.7660421394
 20
-23.5823576937
 10
-1.7741624346
 20
-23.5479149228
 10
-1.7847827052
 20
-23.5109267518
 10
-1.7975900692
 20
-23.4720856319
 10
-1.8123989176
 20
-23.4332945344
 10
-1.829622002
 20
-23.3944306371
 10
-1.8488465707
 20
-23.3556167622
 10
-1.8686487601
 20
-23.3191243469
 10
-1.888728998
 20
-23.2857172463
 10
-1.9093868565
 20
-23.2546316053
 10
-1.9300971886
 20
-23.2258472962
 10
-1.9506849451
 20
-23.1993576097
 10
-1.9713251751
 20
-23.1751692551
 10
-1.9920178785
 20
-23.1532822323
  0
LINE
  5
463
100
AcDbEntity
  8
0
100
AcDbLine
 62
7
  6
CONTINUOUS
 10
-1.8102704107
 20
-23.9806509427
 11
-1.7251567446
 21
-23.9315073786
  0
LINE
  5
464
100
AcDbEntity
  8
0
100
AcDbLine
 62
7
  6
CONTINUOUS
 10
-2.3067820911
 20
-24.4845941152
 11
-2.4482034473
 21
-24.5662490339
  0
LINE
  5
465
100
AcDbEntity
  8
0
100
AcDbLine
 62
7
  6
CONTINUOUS
 10
-1.639990239
 20
-24.4055642824
 11
-1.7814115952
 21
-24.4872192011
  0
LINE
  5
466
100
AcDbEntity
  8
RACCORDO
100
AcDbLine
 62
7
  6
CONTINUOUS
 10
2.9359616266
 20
-21.9992380301
 11
3.5115211274
 21
-21.6669182897
  0
LINE
  5
467
100
AcDbEntity
  8
0
100
AcDbLine
 62
7
  6
CONTINUOUS
 10
-1.5340357377
 20
-24.9307681749
 11
-1.6754570939
 21
-25.0124230936
  0
LINE
  5
468
100
AcDbEntity
  8
RACCORDO
100
AcDbLine
 62
7
  6
CONTINUOUS
 10
3.182267676
 20
-22.3468552936
 11
3.723620853
 21
-22.0342857904
  0
LINE
  5
469
100
AcDbEntity
  8
RACCORDO
100
AcDbLine
 62
7
  6
CONTINUOUS
 10
37.5116108573
 20
-4.7176205049
 11
37.8031574445
 21
-4.5492857175
  0
LINE
  5
46A
100
AcDbEntity
  8
SMUSSO
100
AcDbLine
 62
7
  6
CONTINUOUS
 10
54.4441594752
 20
4.9757610737
 11
55.504819647
 21
5.5881729637
  0
LINE
  5
46B
100
AcDbEntity
  8
SMUSSO
100
AcDbLine
 62
7
  6
CONTINUOUS
 10
54.8751238815
 20
4.4080684461
 11
49.4944120069
 21
1.3017631929
  0
LINE
  5
46C
100
AcDbEntity
  8
RACCORDO
100
AcDbLine
 62
7
  6
CONTINUOUS
 10
38.0065102171
 20
-5.5748113398
 11
38.2980568043
 21
-5.4064765524
  0
LINE
  5
46D
100
AcDbEntity
  8
SMUSSO
100
AcDbLine
 62
7
  6
CONTINUOUS
 10
55.1512662564
 20
3.7510162036
 11
56.2119264282
 21
4.3634280936
  0
LINE
  5
46E
100
AcDbEntity
  8
ASSI
100
AcDbLine
 62
7
  6
CONTINUOUS
 10
4.5802773618
 20
-20.0614324093
 11
4.6195270258
 21
-20.0388343449
  0
LINE
  5
46F
100
AcDbEntity
  8
DRAFT
100
AcDbLine
 62
7
  6
CONTINUOUS
 10
56.8802735572
 20
4.3838852237
 11
59.0403535529
 21
5.5882952751
  0
LINE
  5
470
100
AcDbEntity
  8
0
100
AcDbLine
 62
7
  6
CONTINUOUS
 10
-1.872538887
 20
-24.0164757333
 11
-1.8665646074
 21
-24.0131857334
  0
LWPOLYLINE
  5
471
100
AcDbEntity
  8
0
100
AcDbPolyline
 62
7
  6
CONTINUOUS
 90
11
 70
0
 10
-2.1030516818
 20
-23.7447336578
 10
-2.105949708
 20
-23.7462966643
 10
-2.1194332169
 20
-23.7517529495
 10
-2.1341738681
 20
-23.7547884296
 10
-2.1505985539
 20
-23.7554511356
 10
-2.1689980908
 20
-23.7537138519
 10
-2.1890816624
 20
-23.749603794
 10
-2.2104037118
 20
-23.7432506391
 10
-2.2328157202
 20
-23.7346976129
 10
-2.2564662064
 20
-23.7239014896
 10
-2.2813551705
 20
-23.7108622694
  0
LINE
  5
472
100
AcDbEntity
  8
ASSI
100
AcDbLine
 62
7
  6
CONTINUOUS
 10
4.6232021545
 20
-20.0366777588
 11
4.6235721708
 21
-20.0364797699
  0
LINE
  5
473
100
AcDbEntity
  8
DRAFT
100
AcDbLine
 62
7
  6
CONTINUOUS
 10
3.2849838563
 20
-22.4061623288
 11
2.7427557301
 21
-22.6864260175
  0
LWPOLYLINE
  5
474
100
AcDbEntity
  8
RACCORDO
100
AcDbPolyline
 62
7
  6
CONTINUOUS
 90
19
 70
0
 10
38.0065102171
 20
-5.5748113401
 10
37.9871347356
 20
-5.5847185745
 10
37.9663524447
 20
-5.5936247196
 10
37.9443180179
 20
-5.6014634907
 10
37.9211954482
 20
-5.6081765473
 10
37.8971568266
 20
-5.6137139269
 10
37.8723810623
 20
-5.6180344173
 10
37.8470525505
 20
-5.621105863
 10
37.8213598005
 20
-5.6229054044
 10
37.7954940324
 20
-5.6234196483
 10
37.7696477405
 20
-5.6226447668
 10
37.7440133014
 20
-5.6205865263
 10
37.7187815412
 20
-5.6172602517
 10
37.6941402485
 20
-5.6126907056
 10
37.6702728112
 20
-5.6069119025
 10
37.647356888
 20
-5.5999668668
 10
37.6255630299
 20
-5.5919073003
 10
37.605053415
 20
-5.5827931923
 10
37.5859806716
 20
-5.5726923822
  0
LWPOLYLINE
  5
475
100
AcDbEntity
  8
0
100
AcDbPolyline
 62
7
  6
CONTINUOUS
 90
7
 70
0
 10
-1.9140571433
 20
-24.0349995474
 10
-1.9073211317
 20
-24.0323590307
 10
-1.9005116194
 20
-24.0295321264
 10
-1.8936158058
 20
-24.0266249698
 10
-1.8866464914
 20
-24.0235314256
 10
-1.8796226777
 20
-24.0201416148
 10
-1.872538887
 20
-24.0164757333
  0
LWPOLYLINE
  5
476
100
AcDbEntity
  8
RACCORDO
100
AcDbPolyline
 62
7
  6
CONTINUOUS
 90
12
 70
0
 10
35.6758906412
 20
-6.1225614967
 10
35.7030629625
 20
-6.1521003162
 10
35.72926549
 20
-6.1834222962
 10
35.7544851425
 20
-6.2165131755
 10
35.778408024
 20
-6.2510046923
 10
35.8010360355
 20
-6.2869086852
 10
35.822367276
 20
-6.3242133156
 10
35.8420821461
 20
-6.3625148056
 10
35.8601923775
 20
-6.4018692217
 10
35.8766862385
 20
-6.4422204974
 10
35.8912089349
 20
-6.4829966551
 10
35.903742617
 20
-6.5242337274
  0
LINE
  5
477
100
AcDbEntity
  8
RACCORDO
100
AcDbLine
 62
7
  6
CONTINUOUS
 10
29.3418687431
 20
-37.3708793983
 11
29.3408582564
 21
-37.3410238485
  0
LINE
  5
478
100
AcDbEntity
  8
0
100
AcDbLine
 62
7
  6
CONTINUOUS
 10
28.5984391453
 20
-36.7521147704
 11
28.5989509002
 21
-36.7677807996
  0
LINE
  5
479
100
AcDbEntity
  8
0
100
AcDbLine
 62
7
  6
CONTINUOUS
 10
28.0678766366
 20
-35.5639049654
 11
28.0678766366
 21
-35.8792538196
  0
LINE
  5
47A
100
AcDbEntity
  8
RACCORDO
100
AcDbLine
 62
7
  6
CONTINUOUS
 10
28.2812085713
 20
-36.3769227068
 11
28.2812085713
 21
-36.838669203
  0
LINE
  5
47B
100
AcDbEntity
  8
RACCORDO
100
AcDbLine
 62
7
  6
CONTINUOUS
 10
29.3418687431
 20
-37.3973891847
 11
29.3418687431
 21
-37.3708793983
  0
LWPOLYLINE
  5
47C
100
AcDbEntity
  8
0
100
AcDbPolyline
 62
7
  6
CONTINUOUS
 90
12
 70
0
 10
28.0678766366
 20
-35.5639054076
 10
28.0676581962
 20
-35.5724376644
 10
28.0651949829
 20
-35.5937646769
 10
28.0600015996
 20
-35.6149409906
 10
28.0521055827
 20
-35.6358408813
 10
28.0415594767
 20
-35.6563312766
 10
28.0284233924
 20
-35.6763053942
 10
28.012776935
 20
-35.6956502164
 10
27.9947417636
 20
-35.7142322732
 10
27.9744440248
 20
-35.7319465018
 10
27.9520003434
 20
-35.7487131359
 10
27.9275465368
 20
-35.7644484839
  0
LINE
  5
47D
100
AcDbEntity
  8
ASSI
100
AcDbLine
 62
7
  6
CONTINUOUS
 10
19.9301203295
 20
-30.1891931536
 11
19.9973676387
 21
-29.9382346163
  0
LINE
  5
47E
100
AcDbEntity
  8
RACCORDO
100
AcDbLine
 62
7
  6
CONTINUOUS
 10
9.8001101968
 20
-25.4277320868
 11
9.248614452
 21
-25.768785328
  0
LINE
  5
47F
100
AcDbEntity
  8
RACCORDO
100
AcDbLine
 62
7
  6
CONTINUOUS
 10
10.0587821799
 20
-25.447224765
 11
9.5029708308
 21
-25.7909468407
  0
LINE
  5
480
100
AcDbEntity
  8
RACCORDO
100
AcDbLine
 62
7
  6
CONTINUOUS
 10
9.8001160135
 20
-25.4277284752
 11
9.8045910838
 21
-25.4250536557
  0
LINE
  5
481
100
AcDbEntity
  8
DRAFT
100
AcDbLine
 62
7
  6
CONTINUOUS
 10
13.3677682964
 20
-28.2278356975
 11
13.5524051115
 21
-28.117440935
  0
LINE
  5
482
100
AcDbEntity
  8
RACCORDO
100
AcDbLine
 62
7
  6
CONTINUOUS
 10
7.9490142162
 20
-25.392192204
 11
8.8842984049
 21
-24.8521726259
  0
LINE
  5
483
100
AcDbEntity
  8
RACCORDO
100
AcDbLine
 62
7
  6
CONTINUOUS
 10
8.6269898911
 20
-25.4905696623
 11
9.0963981305
 21
-25.2195401266
  0
LINE
  5
484
100
AcDbEntity
  8
RACCORDO
100
AcDbLine
 62
7
  6
CONTINUOUS
 10
10.1562592532
 20
-25.2220041649
 11
9.8045911452
 21
-25.4250536202
  0
LINE
  5
485
100
AcDbEntity
  8
0
100
AcDbLine
 62
7
  6
CONTINUOUS
 10
10.4124423346
 20
-25.2432738711
 11
10.0589975879
 21
-25.4473491389
  0
LINE
  5
486
100
AcDbEntity
  8
0
100
AcDbLine
 62
7
  6
CONTINUOUS
 10
11.6641444174
 20
-25.9659909662
 11
11.3106996707
 21
-26.170066234
  0
LINE
  5
487
100
AcDbEntity
  8
RACCORDO
100
AcDbLine
 62
7
  6
CONTINUOUS
 10
11.4422469511
 20
-26.9106605677
 11
12.0178064519
 21
-26.5783408273
  0
LINE
  5
488
100
AcDbEntity
  8
RACCORDO
100
AcDbLine
 62
7
  6
CONTINUOUS
 10
11.9713392044
 20
-27.4215550412
 11
12.3713059946
 21
-27.1906199951
  0
LINE
  5
489
100
AcDbEntity
  8
RACCORDO
100
AcDbLine
 62
7
  6
CONTINUOUS
 10
12.9965983858
 20
-28.013526843
 11
13.2110856718
 21
-27.8896841471
  0
LINE
  5
48A
100
AcDbEntity
  8
0
100
AcDbLine
 62
7
  6
CONTINUOUS
 10
10.1562592532
 20
-25.2220041649
 11
10.166119928
 21
-25.2167156799
  0
LWPOLYLINE
  5
48B
100
AcDbEntity
  8
0
100
AcDbPolyline
 62
7
  6
CONTINUOUS
 90
6
 70
0
 10
10.1562592532
 20
-25.2220041649
 10
10.188276098
 20
-25.2050342508
 10
10.2217451437
 20
-25.1903055147
 10
10.2564739268
 20
-25.1779764565
 10
10.2922358532
 20
-25.1681874166
 10
10.3288124039
 20
-25.1610459477
  0
LINE
  5
48C
100
AcDbEntity
  8
ASSI
100
AcDbLine
 62
7
  6
CONTINUOUS
 10
16.2176263728
 20
-26.7983841349
 11
13.6130500023
 21
-28.1524565349
  0
LINE
  5
48D
100
AcDbEntity
  8
DRAFT
100
AcDbLine
 62
7
  6
CONTINUOUS
 10
8.5882847152
 20
-25.4682217788
 11
8.046056589
 21
-25.7484854674
  0
LWPOLYLINE
  5
48E
100
AcDbEntity
  8
RACCORDO
100
AcDbPolyline
 62
7
  6
CONTINUOUS
 90
3
 70
0
 10
9.8045910838
 20
-25.4250536557
 10
9.8217359707
 20
-25.4163856057
 10
9.839932695
 20
-25.4095784047
  0
LWPOLYLINE
  5
48F
100
AcDbEntity
  8
0
100
AcDbPolyline
 62
7
  6
CONTINUOUS
 90
11
 70
0
 10
10.166119928
 20
-25.2167156799
 10
10.1868095957
 20
-25.2079996263
 10
10.2087270619
 20
-25.2017844024
 10
10.2317497076
 20
-25.1981047798
 10
10.255748731
 20
-25.1969813445
 10
10.2805898679
 20
-25.1984203815
 10
10.3061341425
 20
-25.2024138401
 10
10.3322386457
 20
-25.2089393785
 10
10.3587573338
 20
-25.2179604893
 10
10.3855418461
 20
-25.229426703
 10
10.4124423346
 20
-25.2432738711
  0
LINE
  5
490
100
AcDbEntity
  8
SMUSSO
100
AcDbLine
 62
7
  6
CONTINUOUS
 10
49.4944120069
 20
1.3017631929
 11
-57.2787119523
 21
62.9512267854
  0
LINE
  5
491
100
AcDbEntity
  8
SMUSSO
100
AcDbLine
 62
7
  6
CONTINUOUS
 10
54.4441594752
 20
4.9757610737
 11
-59.4000322958
 21
70.7079705995
  0
LWPOLYLINE
  5
492
100
AcDbEntity
  8
RACCORDO
100
AcDbPolyline
 62
7
  6
CONTINUOUS
 90
9
 70
0
 10
35.5283070873
 20
-6.004981144
 10
35.5294055726
 20
-6.0292415605
 10
35.5326896338
 20
-6.0519822181
 10
35.5381252567
 20
-6.0729676043
 10
35.5456561441
 20
-6.0919803853
 10
35.5552042998
 20
-6.1088236582
 10
35.5666708363
 20
-6.1233229892
 10
35.5799369983
 20
-6.1353282185
 10
35.5904319016
 20
-6.1423022184
  0
LINE
  5
493
100
AcDbEntity
  8
RACCORDO
100
AcDbLine
 62
7
  6
CONTINUOUS
 10
35.8459106328
 20
-44.1287551133
 11
35.8456621572
 21
-44.1219325934
  0
LWPOLYLINE
  5
494
100
AcDbEntity
  8
RACCORDO
100
AcDbPolyline
 62
7
  6
CONTINUOUS
 90
25
 70
0
 10
38.0065102171
 20
-5.5748113398
 10
38.0052143401
 20
-5.5369568348
 10
38.0018186214
 20
-5.4980338336
 10
37.9963388988
 20
-5.4582082477
 10
37.9888007492
 20
-5.4176493987
 10
37.9792366053
 20
-5.3765308226
 10
37.9676856017
 20
-5.3350295263
 10
37.9541977005
 20
-5.2933228856
 10
37.9388316968
 20
-5.2515888241
 10
37.9216521724
 20
-5.210006582
 10
37.9027327405
 20
-5.1687541207
 10
37.8821551131
 20
-5.128007588
 10
37.8600069402
 20
-5.0879415046
 10
37.8363827326
 20
-5.0487275955
 10
37.8113839083
 20
-5.0105334735
 10
37.7851176951
 20
-4.9735221721
 10
37.7576957007
 20
-4.9378524384
 10
37.7292353048
 20
-4.9036771266
 10
37.6998595888
 20
-4.8711419651
 10
37.6696933176
 20
-4.84038689
 10
37.6388650682
 20
-4.8115437732
 10
37.6075085263
 20
-4.7847349602
 10
37.5757577499
 20
-4.7600752904
 10
37.5437466048
 20
-4.7376715829
 10
37.5116108573
 20
-4.7176205049
  0
LINE
  5
495
100
AcDbEntity
  8
RACCORDO
100
AcDbLine
 62
7
  6
CONTINUOUS
 10
35.8456618934
 20
-6.6068291192
 11
35.8456618934
 21
-44.1217029031
  0
LINE
  5
496
100
AcDbEntity
  8
RACCORDO
100
AcDbLine
 62
7
  6
CONTINUOUS
 10
35.9335298591
 20
-6.7293114972
 11
35.9335298591
 21
-44.2441852741
  0
LINE
  5
497
100
AcDbEntity
  8
RACCORDO
100
AcDbLine
 62
7
  6
CONTINUOUS
 10
37.5859806716
 20
-47.3090131672
 11
37.5859806716
 21
-5.5726923822
  0
LWPOLYLINE
  5
498
100
AcDbEntity
  8
RACCORDO
100
AcDbPolyline
 62
7
  6
CONTINUOUS
 90
5
 70
0
 10
35.8456622055
 20
-44.1219325935
 10
35.8455096599
 20
-44.1315171245
 10
35.8446706683
 20
-44.1458851599
 10
35.8432240972
 20
-44.1582529263
 10
35.8417802981
 20
-44.166405161
  0
LWPOLYLINE
  5
499
100
AcDbEntity
  8
RACCORDO
100
AcDbPolyline
 62
7
  6
CONTINUOUS
 90
22
 70
0
 10
35.9335298591
 20
-44.2441852741
 10
35.9321505313
 20
-44.2830802785
 10
35.9284970414
 20
-44.3195893244
 10
35.9225693894
 20
-44.3537124118
 10
35.9142673065
 20
-44.3855548744
 10
35.9036910615
 20
-44.4150113786
 10
35.8911414611
 20
-44.4417659227
 10
35.876601024
 20
-44.4657681561
 10
35.8600872314
 20
-44.4870684293
 10
35.8419533335
 20
-44.5055017932
 10
35.8222058413
 20
-44.5210252191
 10
35.8008382438
 20
-44.5336817356
 10
35.7781842578
 20
-44.5434354791
 10
35.7542529538
 20
-44.5502738383
 10
35.7290352613
 20
-44.5542094244
 10
35.7028376854
 20
-44.5552442083
 10
35.6756653798
 20
-44.5533775682
 10
35.6475131906
 20
-44.5486101257
 10
35.6186721624
 20
-44.5409457169
 10
35.5892393098
 20
-44.5303856202
 10
35.5591176181
 20
-44.5169285572
 10
35.5283070873
 20
-44.5005745278
  0
LWPOLYLINE
  5
49A
100
AcDbEntity
  8
RACCORDO
100
AcDbPolyline
 62
7
  6
CONTINUOUS
 90
13
 70
0
 10
35.5283070873
 20
-44.5005745278
 10
35.5294055604
 20
-44.4750456771
 10
35.5326896033
 20
-44.4485127268
 10
35.5381252047
 20
-44.4212504656
 10
35.545656071
 20
-44.3935412352
 10
35.5552042085
 20
-44.3656720062
 10
35.5666707321
 20
-44.3379314066
 10
35.5799368886
 20
-44.3106067318
 10
35.594865287
 20
-44.2839809699
 10
35.6113013213
 20
-44.2583298708
 10
35.6290747717
 20
-44.2339190902
 10
35.6480015674
 20
-44.2110014383
 10
35.6678856929
 20
-44.189814262
  0
LINE
  5
49B
100
AcDbEntity
  8
ASSI
100
AcDbLine
 62
7
  6
CONTINUOUS
 10
20.4750902184
 20
-29.2565904008
 11
18.6657963479
 21
-30.4168068744
  0
LWPOLYLINE
  5
49C
100
AcDbEntity
  8
ASSI
100
AcDbPolyline
 62
7
  6
CONTINUOUS
 90
8
 70
0
 10
19.8754330856
 20
-30.2671731235
 10
19.8821258509
 20
-30.2629221978
 10
19.892921487
 20
-30.2542747997
 10
19.9027558784
 20
-30.2440147159
 10
19.911414419
 20
-30.2323551855
 10
19.9188255733
 20
-30.2193672882
 10
19.9250608768
 20
-30.2049799442
 10
19.9301203295
 20
-30.1891931536
  0
LINE
  5
49D
100
AcDbEntity
  8
RACCORDO
100
AcDbLine
 62
7
  6
CONTINUOUS
 10
17.0666432362
 20
-29.6181765824
 11
16.5108318871
 21
-29.9618986581
  0
LINE
  5
49E
100
AcDbEntity
  8
RACCORDO
100
AcDbLine
 62
7
  6
CONTINUOUS
 10
17.320999615
 20
-29.6403380951
 11
16.7651882659
 21
-29.9840601707
  0
LINE
  5
49F
100
AcDbEntity
  8
RACCORDO
100
AcDbLine
 62
7
  6
CONTINUOUS
 10
20.1604930939
 20
-31.437701867
 11
19.2572996516
 21
-31.9962502399
  0
LINE
  5
4A0
100
AcDbEntity
  8
RACCORDO
100
AcDbLine
 62
7
  6
CONTINUOUS
 10
20.3130863057
 20
-31.4510115235
 11
19.4098928634
 21
-32.0095598964
  0
LINE
  5
4A1
100
AcDbEntity
  8
ASSI
100
AcDbLine
 62
7
  6
CONTINUOUS
 10
20.5294296025
 20
-29.2250126948
 11
20.5317577579
 21
-29.223643897
  0
LINE
  5
4A2
100
AcDbEntity
  8
ASSI
100
AcDbLine
 62
7
  6
CONTINUOUS
 10
20.4821037482
 20
-29.6534913051
 11
18.9264561836
 21
-30.5673085967
  0
LINE
  5
4A3
100
AcDbEntity
  8
ASSI
100
AcDbLine
 62
7
  6
CONTINUOUS
 10
20.4821037482
 20
-29.2523167374
 11
20.4901799385
 21
-29.2476107592
  0
LINE
  5
4A4
100
AcDbEntity
  8
ASSI
100
AcDbLine
 62
7
  6
CONTINUOUS
 10
19.8754087552
 20
-30.2671852069
 11
19.1428450483
 21
-30.6922488152
  0
LINE
  5
4A5
100
AcDbEntity
  8
ASSI
100
AcDbLine
 62
7
  6
CONTINUOUS
 10
19.9301203295
 20
-30.1891931536
 11
19.1026235693
 21
-30.6690254373
  0
LINE
  5
4A6
100
AcDbEntity
  8
RACCORDO
100
AcDbLine
 62
7
  6
CONTINUOUS
 10
18.8458642033
 20
-31.18541638
 11
19.4214237041
 21
-30.8530966396
  0
LINE
  5
4A7
100
AcDbEntity
  8
RACCORDO
100
AcDbLine
 62
7
  6
CONTINUOUS
 10
19.0921702527
 20
-31.5330336435
 11
19.6335234297
 21
-31.2204641403
  0
LINE
  5
4A8
100
AcDbEntity
  8
ASSI
100
AcDbLine
 62
7
  6
CONTINUOUS
 10
20.4901799385
 20
-29.2476107592
 11
20.5294296025
 21
-29.2250126948
  0
LINE
  5
4A9
100
AcDbEntity
  8
ASSI
100
AcDbLine
 62
7
  6
CONTINUOUS
 10
20.5331047312
 20
-29.2228561087
 11
20.5334747475
 21
-29.2226581197
  0
LINE
  5
4AA
100
AcDbEntity
  8
DRAFT
100
AcDbLine
 62
7
  6
CONTINUOUS
 10
19.194886433
 20
-31.5923406787
 11
18.6526583068
 21
-31.8726043673
  0
LWPOLYLINE
  5
4AB
100
AcDbEntity
  8
RACCORDO
100
AcDbPolyline
 62
7
  6
CONTINUOUS
 90
7
 70
0
 10
-44.2723808904
 20
39.9656807561
 10
-44.2739510331
 20
39.9658509603
 10
-44.2732665654
 20
39.9657045091
 10
-44.2704467699
 20
39.9649355794
 10
-44.2656589412
 20
39.9632994382
 10
-44.2589996708
 20
39.9605727857
 10
-44.2506311502
 20
39.9565861951
  0
LWPOLYLINE
  5
4AC
100
AcDbEntity
  8
SMUSSO
100
AcDbPolyline
 62
7
  6
CONTINUOUS
 90
6
 70
0
 10
-57.5261993257
 20
70.8917375669
 10
-57.5727656698
 20
70.9168156241
 10
-57.6187453462
 20
70.9381351133
 10
-57.6641383551
 20
70.9556960346
 10
-57.7091343503
 20
70.969541745
 10
-57.7462829386
 20
70.9779796819
  0
LINE
  5
4AD
100
AcDbEntity
  8
SMUSSO
100
AcDbLine
 62
7
  6
CONTINUOUS
 10
-58.3393721241
 20
71.3203824894
 11
55.8583730376
 21
5.3840751219
  0
LINE
  5
4AE
100
AcDbEntity
  8
SMUSSO
100
AcDbLine
 62
7
  6
CONTINUOUS
 10
55.540174986
 20
5.6086300938
 11
-57.5261993257
 21
70.8917375669
  0
LINE
  5
4AF
100
AcDbEntity
  8
DRAFT
100
AcDbLine
 62
7
  6
CONTINUOUS
 10
55.8566708806
 20
6.156817064
 11
-57.2097034311
 21
71.4399245371
  0
LINE
  5
4B0
100
AcDbEntity
  8
DRAFT
100
AcDbLine
 62
7
  6
CONTINUOUS
 10
58.6868001623
 20
7.0172168957
 11
-55.0866809306
 21
72.7085200523
  0
LINE
  5
4B1
100
AcDbEntity
  8
SMUSSO
100
AcDbLine
 62
7
  6
CONTINUOUS
 10
57.9797275512
 20
7.4254717596
 11
58.6868001623
 21
7.0172168957
  0
LINE
  5
4B2
100
AcDbEntity
  8
DRAFT
100
AcDbLine
 62
7
  6
CONTINUOUS
 10
-55.0867834359
 20
72.7085792318
 11
-55.0866809316
 21
72.7085200528
  0
LWPOLYLINE
  5
4B3
100
AcDbEntity
  8
SMUSSO
100
AcDbPolyline
 62
7
  6
CONTINUOUS
 90
31
 70
0
 10
58.6868001623
 20
7.0172168957
 10
58.7053376517
 20
7.005947182
 10
58.7237382777
 20
6.9936530862
 10
58.7420020401
 20
6.9803346084
 10
58.7601826735
 20
6.9659475858
 10
58.7782264434
 20
6.9505361811
 10
58.7959721466
 20
6.9342328828
 10
58.8134129748
 20
6.9170323534
 10
58.8305557364
 20
6.8989399304
 10
58.8472596526
 20
6.8801041139
 10
58.863521212
 20
6.8605187612
 10
58.8793439261
 20
6.8401900151
 10
58.8945975501
 20
6.8192848046
 10
58.9092774696
 20
6.7977980295
 10
58.923388299
 20
6.77573479
 10
58.9368136369
 20
6.7532773161
 10
58.9495474817
 20
6.7304228408
 10
58.961595835
 20
6.7071741312
 10
58.9728603001
 20
6.6837217181
 10
58.9833343794
 20
6.6600640544
 10
58.9930245706
 20
6.6362026872
 10
59.00185197
 20
6.6123327891
 10
59.0098097317
 20
6.5884540782
 10
59.0169047016
 20
6.5645668363
 10
59.0230785138
 20
6.5408670823
 10
59.0283230756
 20
6.5173517622
 10
59.0326464797
 20
6.4940239299
 10
59.0360146383
 20
6.4710887656
 10
59.0384161887
 20
6.4486146626
 10
59.0398624936
 20
6.4265332276
 10
59.0403535529
 20
6.4048444606
  0
LWPOLYLINE
  5
4B4
100
AcDbEntity
  8
DRAFT
100
AcDbPolyline
 62
7
  6
CONTINUOUS
 90
28
 70
0
 10
55.8566708806
 20
6.156817064
 10
55.9161880828
 20
6.1204529618
 10
55.9755038978
 20
6.0802126729
 10
56.0344176195
 20
6.0362323577
 10
56.0927299026
 20
5.9886608317
 10
56.1502434367
 20
5.9376590619
 10
56.2067636142
 20
5.8833996221
 10
56.2620991887
 20
5.8260661092
 10
56.3160629222
 20
5.7658525215
 10
56.3684722184
 20
5.7029626028
 10
56.4191497408
 20
5.6376091527
 10
56.4679240129
 20
5.5700133066
 10
56.5146299979
 20
5.5004037874
 10
56.5591096574
 20
5.4290161317
 10
56.6012124866
 20
5.3560918927
 10
56.6407960225
 20
5.2818778229
 10
56.6777263273
 20
5.2066250394
 10
56.7118784403
 20
5.1305881736
 10
56.7431368016
 20
5.0540245103
 10
56.7713956428
 20
4.9771931167
 10
56.796559345
 20
4.9003539658
 10
56.8185427622
 20
4.8237670571
 10
56.8372715094
 20
4.7476915364
 10
56.8526822144
 20
4.6723848192
 10
56.8647227324
 20
4.5981017195
 10
56.873352322
 20
4.5250935878
 10
56.8785417835
 20
4.4536074605
 10
56.8802735572
 20
4.3838852241
  0
LWPOLYLINE
  5
4B5
100
AcDbEntity
  8
DRAFT
100
AcDbPolyline
 62
7
  6
CONTINUOUS
 90
28
 70
0
 10
57.97969338
 20
7.4254125798
 10
58.0413652847
 20
7.3877319873
 10
58.1028285111
 20
7.3460348785
 10
58.1638750871
 20
7.3004623433
 10
58.2242984503
 20
7.2511685849
 10
58.2838941472
 20
7.1983203976
 10
58.342460525
 20
7.1420966029
 10
58.3997994138
 20
7.0826874443
 10
58.4557167966
 20
7.0202939437
 10
58.5100234669
 20
6.9551272208
 10
58.5625356681
 20
6.8874077792
 10
58.6130757155
 20
6.8173647601
 10
58.6614725976
 20
6.7452351669
 10
58.7075625545
 20
6.6712630634
 10
58.7511896327
 20
6.5956987476
 10
58.7922062117
 20
6.5187979053
 10
58.8304735045
 20
6.4408207446
 10
58.8658620266
 20
6.3620311156
 10
58.8982520346
 20
6.2826956174
 10
58.9275339308
 20
6.2030826963
 10
58.9536086347
 20
6.1234617371
 10
58.9763879176
 20
6.0441021519
 10
58.9957947018
 20
5.9652724685
 10
59.0117633207
 20
5.8872394216
 10
59.0242397416
 20
5.8102670504
 10
59.0331817482
 20
5.7346158051
 10
59.0385590837
 20
5.6605416655
 10
59.0403535529
 20
5.5882952751
  0
LWPOLYLINE
  5
4B6
100
AcDbEntity
  8
SMUSSO
100
AcDbPolyline
 62
7
  6
CONTINUOUS
 90
25
 70
0
 10
55.504819647
 20
5.5881729637
 10
55.5510611536
 20
5.5597259872
 10
55.5971059106
 20
5.5279044885
 10
55.6427567602
 20
5.4928444442
 10
55.6878183384
 20
5.4546955972
 10
55.7320975071
 20
5.4136211559
 10
55.7754042071
 20
5.3697971825
 10
55.8175529303
 20
5.3234112047
 10
55.8583631178
 20
5.2746617318
 10
55.8976595885
 20
5.2237578679
 10
55.9352740108
 20
5.1709175575
 10
55.9710452459
 20
5.1163670519
 10
56.0048197546
 20
5.0603404364
 10
56.0364528856
 20
5.003077665
 10
56.0658091663
 20
4.9448239737
 10
56.0927626523
 20
4.885829353
 10
56.1171979863
 20
4.8263464399
 10
56.1390105714
 20
4.7666300184
 10
56.1581068821
 20
4.7069364361
 10
56.1744052806
 20
4.6475213745
 10
56.1878361535
 20
4.5886391778
 10
56.198342087
 20
4.5305423576
 10
56.2058783107
 20
4.4734797383
 10
56.2104128179
 20
4.4176954088
 10
56.2119264282
 20
4.3634280936
  0
LINE
  5
4B7
100
AcDbEntity
  8
SMUSSO
100
AcDbLine
 62
7
  6
CONTINUOUS
 10
55.5867413051
 20
5.5799345218
 11
55.540174986
 21
5.6086300938
  0
LWPOLYLINE
  5
4B8
100
AcDbEntity
  8
SMUSSO
100
AcDbPolyline
 62
7
  6
CONTINUOUS
 90
22
 70
0
 10
55.8583730376
 20
5.3840751219
 10
55.8850316731
 20
5.3674896237
 10
55.9112537604
 20
5.3489381446
 10
55.9370392997
 20
5.3284206846
 10
55.9625279042
 20
5.3058003923
 10
55.9875799606
 20
5.2812141192
 10
56.0117766287
 20
5.2550724196
 10
56.0351030244
 20
5.2273492417
 10
56.0575740318
 20
5.1980706373
 10
56.0788154633
 20
5.1677253156
 10
56.0988056288
 20
5.1362977063
 10
56.1175662184
 20
5.1038033797
 10
56.1347881148
 20
5.0707777558
 10
56.1504469816
 20
5.0372098652
 10
56.1645671551
 20
5.0031106774
 10
56.1769125274
 20
4.9690485199
 10
56.1874531101
 20
4.9350234719
 10
56.1962188915
 20
4.9010354543
 10
56.2030637283
 20
4.8676525579
 10
56.2079389062
 20
4.8350641463
 10
56.2108931395
 20
4.803080856
 10
56.2119264282
 20
4.7717026869
  0
LWPOLYLINE
  5
4B9
100
AcDbEntity
  8
RACCORDO
100
AcDbPolyline
 62
7
  6
CONTINUOUS
 90
6
 70
0
 10
35.903742617
 20
-6.5242337274
 10
35.9143051343
 20
-6.5658956818
 10
35.9225952418
 20
-6.6073024435
 10
35.9285125241
 20
-6.6482273208
 10
35.9321573966
 20
-6.6888970053
 10
35.9335298591
 20
-6.7293114972
  0
LINE
  5
4BA
100
AcDbEntity
  8
RACCORDO
100
AcDbLine
 62
7
  6
CONTINUOUS
 10
38.0065102171
 20
-47.3111321247
 11
38.0065102171
 21
-5.5748113398
  0
LINE
  5
4BB
100
AcDbEntity
  8
RACCORDO
100
AcDbLine
 62
7
  6
CONTINUOUS
 10
38.2980568043
 20
-47.1543478049
 11
38.2980568043
 21
-5.4064765524
  0
LWPOLYLINE
  5
4BC
100
AcDbEntity
  8
RACCORDO
100
AcDbPolyline
 62
7
  6
CONTINUOUS
 90
25
 70
0
 10
37.5859806716
 20
-47.3090131672
 10
37.58536648
 20
-47.330075612
 10
37.5835665194
 20
-47.3502075148
 10
37.5805807898
 20
-47.3694088756
 10
37.5763867102
 20
-47.3877617732
 10
37.5710068615
 20
-47.4051841287
 10
37.5645089867
 20
-47.4214297059
 10
37.5568792574
 20
-47.4364759496
 10
37.5481315019
 20
-47.4503454149
 10
37.5383749481
 20
-47.462859531
 10
37.5275956652
 20
-47.4740014299
 10
37.5158075839
 20
-47.4837879796
 10
37.5031617249
 20
-47.4920912127
 10
37.4896456355
 20
-47.49889137
 10
37.4752717683
 20
-47.5042082107
 10
37.4602285015
 20
-47.5079730448
 10
37.4445087791
 20
-47.5101646631
 10
37.4281196571
 20
-47.5108042747
 10
37.4112706812
 20
-47.5098868177
 10
37.3939486608
 20
-47.5073886395
 10
37.3761667864
 20
-47.5033333926
 10
37.3581741752
 20
-47.4977869729
 10
37.3400538662
 20
-47.4907713456
 10
37.3217228202
 20
-47.4822645455
 10
37.3031810374
 20
-47.4722665725
  0
LINE
  5
4BD
100
AcDbEntity
  8
RACCORDO
100
AcDbLine
 62
7
  6
CONTINUOUS
 10
25.7100127735
 20
-34.6139104367
 11
25.1585170287
 21
-34.9549636779
  0
LINE
  5
4BE
100
AcDbEntity
  8
RACCORDO
100
AcDbLine
 62
7
  6
CONTINUOUS
 10
25.9686847566
 20
-34.6334031149
 11
25.4128734075
 21
-34.9771251905
  0
LINE
  5
4BF
100
AcDbEntity
  8
RACCORDO
100
AcDbLine
 62
7
  6
CONTINUOUS
 10
25.7100185902
 20
-34.6139068251
 11
25.7144936605
 21
-34.6112320055
  0
LINE
  5
4C0
100
AcDbEntity
  8
RACCORDO
100
AcDbLine
 62
7
  6
CONTINUOUS
 10
23.8589167929
 20
-34.5783705539
 11
24.7942009816
 21
-34.0383509758
  0
LINE
  5
4C1
100
AcDbEntity
  8
RACCORDO
100
AcDbLine
 62
7
  6
CONTINUOUS
 10
24.5368924678
 20
-34.6767480121
 11
25.0063007072
 21
-34.4057184764
  0
LINE
  5
4C2
100
AcDbEntity
  8
RACCORDO
100
AcDbLine
 62
7
  6
CONTINUOUS
 10
26.0661618299
 20
-34.4081825148
 11
25.7144937219
 21
-34.6112319701
  0
LINE
  5
4C3
100
AcDbEntity
  8
0
100
AcDbLine
 62
7
  6
CONTINUOUS
 10
26.3223449113
 20
-34.429452221
 11
25.9689001646
 21
-34.6335274888
  0
LINE
  5
4C4
100
AcDbEntity
  8
0
100
AcDbLine
 62
7
  6
CONTINUOUS
 10
27.5740469941
 20
-35.1521693161
 11
27.2206022474
 21
-35.3562445839
  0
LINE
  5
4C5
100
AcDbEntity
  8
0
100
AcDbLine
 62
7
  6
CONTINUOUS
 10
26.0661618299
 20
-34.4081825148
 11
26.0760225047
 21
-34.4028940298
  0
LWPOLYLINE
  5
4C6
100
AcDbEntity
  8
0
100
AcDbPolyline
 62
7
  6
CONTINUOUS
 90
6
 70
0
 10
26.0661618299
 20
-34.4081825148
 10
26.0981786747
 20
-34.3912126006
 10
26.1316477204
 20
-34.3764838646
 10
26.1663765035
 20
-34.3641548063
 10
26.2021384299
 20
-34.3543657664
 10
26.2387149806
 20
-34.3472242976
  0
LINE
  5
4C7
100
AcDbEntity
  8
DRAFT
100
AcDbLine
 62
7
  6
CONTINUOUS
 10
24.4981872919
 20
-34.6544001287
 11
23.9559591657
 21
-34.9346638173
  0
LWPOLYLINE
  5
4C8
100
AcDbEntity
  8
RACCORDO
100
AcDbPolyline
 62
7
  6
CONTINUOUS
 90
3
 70
0
 10
25.7144936605
 20
-34.6112320055
 10
25.7316385474
 20
-34.6025639556
 10
25.7498352717
 20
-34.5957567546
  0
LWPOLYLINE
  5
4C9
100
AcDbEntity
  8
0
100
AcDbPolyline
 62
7
  6
CONTINUOUS
 90
11
 70
0
 10
26.0760225047
 20
-34.4028940298
 10
26.0967121724
 20
-34.3941779761
 10
26.1186296386
 20
-34.3879627523
 10
26.1416522843
 20
-34.3842831297
 10
26.1656513077
 20
-34.3831596943
 10
26.1904924446
 20
-34.3845987314
 10
26.2160367192
 20
-34.3885921899
 10
26.2421412224
 20
-34.3951177284
 10
26.2686599105
 20
-34.4041388391
 10
26.2954444228
 20
-34.4156050529
 10
26.3223449113
 20
-34.429452221
  0
LINE
  5
4CA
100
AcDbEntity
  8
RACCORDO
100
AcDbLine
 62
7
  6
CONTINUOUS
 10
-44.2714338021
 20
39.9652198499
 11
-44.265882479
 21
39.965624108
  0
LINE
  5
4CB
100
AcDbEntity
  8
RACCORDO
100
AcDbLine
 62
7
  6
CONTINUOUS
 10
-44.0249224126
 20
39.8266055478
 11
-44.3235743329
 21
39.8125618209
  0
LINE
  5
4CC
100
AcDbEntity
  8
RACCORDO
100
AcDbLine
 62
7
  6
CONTINUOUS
 10
-44.265882479
 20
39.965624108
 11
-44.2658284932
 21
39.9656266312
  0
LWPOLYLINE
  5
4CD
100
AcDbEntity
  8
SMUSSO
100
AcDbPolyline
 62
7
  6
CONTINUOUS
 90
5
 70
0
 10
55.760258607
 20
5.4407251645
 10
55.7231099352
 20
5.4751855577
 10
55.6781139529
 20
5.5133000784
 10
55.6327209607
 20
5.54815785
 10
55.5867413051
 20
5.5799345218
  0
LINE
  5
4CE
100
AcDbEntity
  8
SMUSSO
100
AcDbLine
 62
7
  6
CONTINUOUS
 10
49.4944120069
 20
-66.7918578916
 11
49.4944120069
 21
1.3017631929
  0
LINE
  5
4CF
100
AcDbEntity
  8
RACCORDO
100
AcDbLine
 62
7
  6
CONTINUOUS
 10
35.8417802981
 20
-44.166405161
 11
35.8414062442
 21
-44.1681449469
  0
LWPOLYLINE
  5
4D0
100
AcDbEntity
  8
RACCORDO
100
AcDbPolyline
 62
7
  6
CONTINUOUS
 90
3
 70
0
 10
35.8414062442
 20
-44.1681449469
 10
35.8396864332
 20
-44.1747690007
 10
35.8386152495
 20
-44.1779208184
  0
LINE
  5
4D1
100
AcDbEntity
  8
RACCORDO
100
AcDbLine
 62
7
  6
CONTINUOUS
 10
35.8386152495
 20
-44.1779208184
 11
35.8385197395
 21
-44.1781643054
  0
LINE
  5
4D2
100
AcDbEntity
  8
0
100
AcDbLine
 62
7
  6
CONTINUOUS
 10
29.566112338
 20
-37.5805565342
 11
29.5893561165
 21
-37.5402971289
  0
LINE
  5
4D3
100
AcDbEntity
  8
0
100
AcDbLine
 62
7
  6
CONTINUOUS
 10
29.8368434899
 20
-37.5198715627
 11
29.9429095071
 21
-37.3361598322
  0
LINE
  5
4D4
100
AcDbEntity
  8
0
100
AcDbLine
 62
7
  6
CONTINUOUS
 10
30.1903968805
 20
-37.3157342661
 11
30.2964628977
 21
-37.1320225356
  0
LINE
  5
4D5
100
AcDbEntity
  8
0
100
AcDbLine
 62
7
  6
CONTINUOUS
 10
30.5439502711
 20
-37.1115969694
 11
30.6500162883
 21
-36.9278852389
  0
LINE
  5
4D6
100
AcDbEntity
  8
0
100
AcDbLine
 62
7
  6
CONTINUOUS
 10
30.8975036617
 20
-36.9074596728
 11
31.0035696789
 21
-36.7237479422
  0
LINE
  5
4D7
100
AcDbEntity
  8
DRAFT
100
AcDbLine
 62
7
  6
CONTINUOUS
 10
55.540174986
 20
5.6086300938
 11
55.8566708806
 21
6.156817064
  0
LINE
  5
4D8
100
AcDbEntity
  8
0
100
AcDbLine
 62
7
  6
CONTINUOUS
 10
31.2510570523
 20
-36.7033223761
 11
31.3571230695
 21
-36.5196106456
  0
LINE
  5
4D9
100
AcDbEntity
  8
0
100
AcDbLine
 62
7
  6
CONTINUOUS
 10
31.6046104429
 20
-36.4991850794
 11
31.71067646
 21
-36.3154733489
  0
LINE
  5
4DA
100
AcDbEntity
  8
0
100
AcDbLine
 62
7
  6
CONTINUOUS
 10
31.9581638335
 20
-36.2950477828
 11
32.0642298506
 21
-36.1113360522
  0
LINE
  5
4DB
100
AcDbEntity
  8
0
100
AcDbLine
 62
7
  6
CONTINUOUS
 10
34.4330375676
 20
-39.3571072327
 11
34.5391035848
 21
-39.1733955022
  0
LINE
  5
4DC
100
AcDbEntity
  8
0
100
AcDbLine
 62
7
  6
CONTINUOUS
 10
34.7865909582
 20
-39.1529699361
 11
34.8926569754
 21
-38.9692582055
  0
LINE
  5
4DD
100
AcDbEntity
  8
0
100
AcDbLine
 62
7
  6
CONTINUOUS
 10
35.1401443488
 20
-38.9488326394
 11
35.246210366
 21
-38.7651209089
  0
LINE
  5
4DE
100
AcDbEntity
  8
0
100
AcDbLine
 62
7
  6
CONTINUOUS
 10
35.4936977394
 20
-38.7446953427
 11
35.5997637566
 21
-38.5609836122
  0
LINE
  5
4DF
100
AcDbEntity
  8
RACCORDO
100
AcDbLine
 62
7
  6
CONTINUOUS
 10
27.3619697557
 20
-36.1025089941
 11
27.9276551807
 21
-35.7644880861
  0
LINE
  5
4E0
100
AcDbEntity
  8
RACCORDO
100
AcDbLine
 62
7
  6
CONTINUOUS
 10
27.8882093027
 20
-36.6117563507
 11
28.2812085713
 21
-36.3769227068
  0
LINE
  5
4E1
100
AcDbEntity
  8
RACCORDO
100
AcDbLine
 62
7
  6
CONTINUOUS
 10
32.9787823822
 20
-38.8030653833
 11
32.4130969573
 21
-39.1410862913
  0
LINE
  5
4E2
100
AcDbEntity
  8
RACCORDO
100
AcDbLine
 62
7
  6
CONTINUOUS
 10
33.2309560396
 20
-38.826547536
 11
32.6652706146
 21
-39.1645684441
  0
LINE
  5
4E3
100
AcDbEntity
  8
0
100
AcDbLine
 62
7
  6
CONTINUOUS
 10
29.2953731822
 20
-37.4242351389
 11
29.3418687431
 21
-37.3973891847
  0
LINE
  5
4E4
100
AcDbEntity
  8
0
100
AcDbLine
 62
7
  6
CONTINUOUS
 10
29.3815312227
 20
-37.4202898034
 11
29.522952579
 21
-37.3386348847
  0
LINE
  5
4E5
100
AcDbEntity
  8
0
100
AcDbLine
 62
7
  6
CONTINUOUS
 10
29.5893561165
 20
-37.5402971289
 11
29.7307774727
 21
-37.4586422102
  0
LINE
  5
4E6
100
AcDbEntity
  8
0
100
AcDbLine
 62
7
  6
CONTINUOUS
 10
29.9429095071
 20
-37.3361598322
 11
30.0843308633
 21
-37.2545049136
  0
LINE
  5
4E7
100
AcDbEntity
  8
0
100
AcDbLine
 62
7
  6
CONTINUOUS
 10
30.2964628977
 20
-37.1320225356
 11
30.4378842539
 21
-37.0503676169
  0
LINE
  5
4E8
100
AcDbEntity
  8
0
100
AcDbLine
 62
7
  6
CONTINUOUS
 10
30.6500162883
 20
-36.9278852389
 11
30.7914376445
 21
-36.8462303202
  0
LINE
  5
4E9
100
AcDbEntity
  8
0
100
AcDbLine
 62
7
  6
CONTINUOUS
 10
31.0035696789
 20
-36.7237479422
 11
31.1449910351
 21
-36.6420930236
  0
LINE
  5
4EA
100
AcDbEntity
  8
0
100
AcDbLine
 62
7
  6
CONTINUOUS
 10
31.3571230695
 20
-36.5196106456
 11
31.4985444257
 21
-36.4379557269
  0
LINE
  5
4EB
100
AcDbEntity
  8
0
100
AcDbLine
 62
7
  6
CONTINUOUS
 10
31.71067646
 20
-36.3154733489
 11
31.8520978163
 21
-36.2338184302
  0
LINE
  5
4EC
100
AcDbEntity
  8
0
100
AcDbLine
 62
7
  6
CONTINUOUS
 10
32.0642298506
 20
-36.1113360522
 11
32.2056512069
 21
-36.0296811336
  0
LINE
  5
4ED
100
AcDbEntity
  8
RACCORDO
100
AcDbLine
 62
7
  6
CONTINUOUS
 10
28.91760938
 20
-37.2061190539
 11
28.9944857099
 21
-37.1632810456
  0
LINE
  5
4EE
100
AcDbEntity
  8
0
100
AcDbLine
 62
7
  6
CONTINUOUS
 10
32.1275289495
 20
-35.9845624848
 11
29.522952579
 21
-37.3386348847
  0
LWPOLYLINE
  5
4EF
100
AcDbEntity
  8
0
100
AcDbPolyline
 62
7
  6
CONTINUOUS
 90
11
 70
0
 10
28.2812085713
 20
-36.5593837093
 10
28.3040092889
 20
-36.5496146944
 10
28.3296054335
 20
-36.5408945644
 10
28.3547507883
 20
-36.5346036819
 10
28.3793066406
 20
-36.5307782757
 10
28.4031356545
 20
-36.5294406667
 10
28.4261073513
 20
-36.530598998
 10
28.4480956095
 20
-36.5342480057
 10
28.4689771489
 20
-36.5403677441
 10
28.488636745
 20
-36.5489240819
 10
28.4958648442
 20
-36.5528628454
  0
LWPOLYLINE
  5
4F0
100
AcDbEntity
  8
0
100
AcDbPolyline
 62
7
  6
CONTINUOUS
 90
4
 70
0
 10
32.1353182635
 20
-35.9807367494
 10
32.1479306584
 20
-35.9761207052
 10
32.160961253
 20
-35.9730630351
 10
32.1742633036
 20
-35.9715443154
  0
LWPOLYLINE
  5
4F1
100
AcDbEntity
  8
SMUSSO
100
AcDbPolyline
 62
7
  6
CONTINUOUS
 90
5
 70
0
 10
56.2457152792
 20
4.4385581445
 10
56.2411870332
 20
4.4942637438
 10
56.2336970291
 20
4.5510020215
 10
56.2231879804
 20
4.6090250405
 10
56.2119264282
 20
4.6583954183
  0
LINE
  5
4F2
100
AcDbEntity
  8
SMUSSO
100
AcDbLine
 62
7
  6
CONTINUOUS
 10
56.2472817672
 20
4.3838852237
 11
56.2457152792
 21
4.4385581445
  0
LINE
  5
4F3
100
AcDbEntity
  8
SMUSSO
100
AcDbLine
 62
7
  6
CONTINUOUS
 10
55.1512662564
 20
-72.5073076489
 11
55.1512662564
 21
3.7510162036
  0
LINE
  5
4F4
100
AcDbEntity
  8
SMUSSO
100
AcDbLine
 62
7
  6
CONTINUOUS
 10
56.2119264282
 20
4.7717026869
 11
56.2119264282
 21
-71.8948957589
  0
LINE
  5
4F5
100
AcDbEntity
  8
SMUSSO
100
AcDbLine
 62
7
  6
CONTINUOUS
 10
56.2472817672
 20
-70.9763213243
 11
56.2472817672
 21
4.3838852237
  0
LINE
  5
4F6
100
AcDbEntity
  8
RACCORDO
100
AcDbLine
 62
7
  6
CONTINUOUS
 10
35.6678892207
 20
-44.1898162989
 11
35.8456618934
 21
-43.9525271492
  0
LWPOLYLINE
  5
4F7
100
AcDbEntity
  8
RACCORDO
100
AcDbPolyline
 62
7
  6
CONTINUOUS
 90
5
 70
0
 10
35.8426605887
 20
-44.1717543473
 10
35.8360047162
 20
-44.1801271393
 10
35.8248224478
 20
-44.1921413594
 10
35.8131583482
 20
-44.2022811243
 10
35.8010610977
 20
-44.210553781
  0
LINE
  5
4F8
100
AcDbEntity
  8
0
100
AcDbLine
 62
7
  6
CONTINUOUS
 10
35.6439401407
 20
-39.4890720588
 11
35.8386140322
 21
-39.2463899561
  0
LINE
  5
4F9
100
AcDbEntity
  8
0
100
AcDbLine
 62
7
  6
CONTINUOUS
 10
35.8456618934
 20
-38.7886167121
 11
34.5756989246
 21
-39.6029852243
  0
LINE
  5
4FA
100
AcDbEntity
  8
0
100
AcDbLine
 62
7
  6
CONTINUOUS
 10
35.8456618934
 20
-39.2422499068
 11
34.9064536765
 21
-39.7939588727
  0
LINE
  5
4FB
100
AcDbEntity
  8
0
100
AcDbLine
 62
7
  6
CONTINUOUS
 10
35.4940963382
 20
-39.6223384798
 11
35.052747625
 21
-39.8784271651
  0
LINE
  5
4FC
100
AcDbEntity
  8
0
100
AcDbLine
 62
7
  6
CONTINUOUS
 10
35.6439401407
 20
-39.4890720588
 11
35.012526146
 21
-39.8552037872
  0
LINE
  5
4FD
100
AcDbEntity
  8
0
100
AcDbLine
 62
7
  6
CONTINUOUS
 10
34.1855501942
 20
-39.3775327989
 11
34.3269715504
 21
-39.2958778802
  0
LINE
  5
4FE
100
AcDbEntity
  8
0
100
AcDbLine
 62
7
  6
CONTINUOUS
 10
34.5391035848
 20
-39.1733955022
 11
34.680524941
 21
-39.0917405835
  0
LINE
  5
4FF
100
AcDbEntity
  8
0
100
AcDbLine
 62
7
  6
CONTINUOUS
 10
34.8926569754
 20
-38.9692582055
 11
35.0340783316
 21
-38.8876032869
  0
LINE
  5
500
100
AcDbEntity
  8
0
100
AcDbLine
 62
7
  6
CONTINUOUS
 10
35.246210366
 20
-38.7651209089
 11
35.3876317222
 21
-38.6834659902
  0
LINE
  5
501
100
AcDbEntity
  8
0
100
AcDbLine
 62
7
  6
CONTINUOUS
 10
35.5997637566
 20
-38.5609836122
 11
35.7411851128
 21
-38.4793286935
  0
LINE
  5
502
100
AcDbEntity
  8
0
100
AcDbLine
 62
7
  6
CONTINUOUS
 10
35.84725113
 20
-38.5405580461
 11
34.2914453775
 21
-39.4388607887
  0
LINE
  5
503
100
AcDbEntity
  8
RACCORDO
100
AcDbLine
 62
7
  6
CONTINUOUS
 10
35.8010610977
 20
-44.210553781
 11
35.7885786522
 21
-44.2169498206
  0
LWPOLYLINE
  5
504
100
AcDbEntity
  8
RACCORDO
100
AcDbPolyline
 62
7
  6
CONTINUOUS
 90
10
 70
0
 10
35.7885786522
 20
-44.2169498206
 10
35.7757791137
 20
-44.2214584465
 10
35.762722409
 20
-44.2240839655
 10
35.7494320896
 20
-44.2248291532
 10
35.7359751089
 20
-44.2236931758
 10
35.7224166627
 20
-44.2206799888
 10
35.7087654767
 20
-44.215784074
 10
35.6950676865
 20
-44.2090008913
 10
35.6814163304
 20
-44.2003408905
 10
35.6678889955
 20
-44.1898165996
  0
LINE
  5
505
100
AcDbEntity
  8
DRAFT
100
AcDbLine
 62
7
  6
CONTINUOUS
 10
56.8802735572
 20
-70.9763213238
 11
56.8802735572
 21
4.3838852241
  0
LINE
  5
506
100
AcDbEntity
  8
DRAFT
100
AcDbLine
 62
7
  6
CONTINUOUS
 10
59.0403535529
 20
-69.771911274
 11
59.0403535529
 21
6.4048444606
  0
LWPOLYLINE
  5
507
100
AcDbEntity
  8
DRAFT
100
AcDbPolyline
 62
7
  6
CONTINUOUS
 90
15
 70
0
 10
56.8802735572
 20
-70.9763213238
 10
56.8785417836
 20
-71.0440437508
 10
56.8733523222
 20
-71.1095372179
 10
56.8647227327
 20
-71.1725801156
 10
56.8526822149
 20
-71.232959127
 10
56.8372715099
 20
-71.2904699484
 10
56.8185427628
 20
-71.3449179814
 10
56.7965593457
 20
-71.3961189911
 10
56.7713956436
 20
-71.4438997295
 10
56.7431368025
 20
-71.4880985218
 10
56.7118784412
 20
-71.528565813
 10
56.6777263283
 20
-71.5651646749
 10
56.6407960237
 20
-71.5977712684
 10
56.6012124878
 20
-71.6262752631
 10
56.5715144556
 20
-71.6440000268
  0
LWPOLYLINE
  5
508
100
AcDbEntity
  8
DRAFT
100
AcDbPolyline
 62
7
  6
CONTINUOUS
 90
15
 70
0
 10
59.0403535529
 20
-69.771911274
 10
59.0385590838
 20
-69.8420854561
 10
59.0331817483
 20
-69.9099499842
 10
59.0242397416
 20
-69.9752752248
 10
59.0117633207
 20
-70.037840138
 10
58.9957947018
 20
-70.097433024
 10
58.9763879177
 20
-70.1538522395
 10
58.9536086348
 20
-70.2069068797
 10
58.927533931
 20
-70.2564174245
 10
58.8982520347
 20
-70.3022163459
 10
58.8658620267
 20
-70.3441486748
 10
58.8304735046
 20
-70.3820725254
 10
58.7922062118
 20
-70.4158595756
 10
58.7511896328
 20
-70.4453955006
 10
58.7204164431
 20
-70.4637619537
  0
LWPOLYLINE
  5
509
100
AcDbEntity
  8
SMUSSO
100
AcDbPolyline
 62
7
  6
CONTINUOUS
 90
13
 70
0
 10
56.2119264282
 20
-71.8948957589
 10
56.2104128181
 20
-71.9474151918
 10
56.2058783075
 20
-71.9979632151
 10
56.1983420711
 20
-72.0463232491
 10
56.1878361028
 20
-72.092288187
 10
56.1744051712
 20
-72.1356608682
 10
56.158106717
 20
-72.1762550038
 10
56.139010386
 20
-72.213896607
 10
56.1171978097
 20
-72.2484243262
 10
56.0927624846
 20
-72.2796898699
 10
56.0658089879
 20
-72.3075592531
 10
56.0364526885
 20
-72.3319130275
 10
56.0048438071
 20
-72.35263262
  0
LWPOLYLINE
  5
50A
100
AcDbEntity
  8
RACCORDO
100
AcDbPolyline
 62
7
  6
CONTINUOUS
 90
14
 70
0
 10
37.8540680354
 20
-47.6356774292
 10
37.860007517
 20
-47.6323631877
 10
37.8821556061
 20
-47.6178476964
 10
37.9027331282
 20
-47.600786497
 10
37.9216525068
 20
-47.5812522856
 10
37.9388320678
 20
-47.5593289485
 10
37.9541981266
 20
-47.5351103763
 10
37.9676860215
 20
-47.5086996485
 10
37.9792369488
 20
-47.4802104166
 10
37.9888009955
 20
-47.4497648231
 10
37.9963390529
 20
-47.4174920951
 10
38.0018186995
 20
-47.3835303818
 10
38.0052143638
 20
-47.3480261801
 10
38.0065102171
 20
-47.3111321247
  0
LINE
  5
50B
100
AcDbEntity
  8
RACCORDO
100
AcDbLine
 62
7
  6
CONTINUOUS
 10
38.0065102171
 20
-47.3111321247
 11
38.2980568043
 21
-47.1543478049
  0
LINE
  5
50C
100
AcDbEntity
  8
RACCORDO
100
AcDbLine
 62
7
  6
CONTINUOUS
 10
37.8538657485
 20
-47.635786341
 11
38.1468947784
 21
-47.4782048115
  0
LWPOLYLINE
  5
50D
100
AcDbEntity
  8
RACCORDO
100
AcDbPolyline
 62
7
  6
CONTINUOUS
 90
19
 70
0
 10
38.0065102171
 20
-47.3111321247
 10
37.9871347337
 20
-47.3210393584
 10
37.9663524406
 20
-47.3299455028
 10
37.9443180115
 20
-47.3377842732
 10
37.9211954392
 20
-47.3444973289
 10
37.897156815
 20
-47.3500347078
 10
37.872381048
 20
-47.3543551973
 10
37.8470525335
 20
-47.357426642
 10
37.8213597808
 20
-47.3592261824
 10
37.7954940102
 20
-47.3597404253
 10
37.7696477155
 20
-47.3589655426
 10
37.7440132737
 20
-47.3569073009
 10
37.7187815126
 20
-47.3535810252
 10
37.694140221
 20
-47.3490114785
 10
37.6702727863
 20
-47.3432326754
 10
37.6473568674
 20
-47.3362876407
 10
37.6255630153
 20
-47.3282280764
 10
37.6050534074
 20
-47.319113972
 10
37.5859806716
 20
-47.3090131672
  0
LWPOLYLINE
  5
50E
100
AcDbEntity
  8
SMUSSO
100
AcDbPolyline
 62
7
  6
CONTINUOUS
 90
6
 70
0
 10
56.2119264282
 20
-71.210004069
 10
56.2231880004
 20
-71.1736381645
 10
56.2336970415
 20
-71.1277507419
 10
56.2411870402
 20
-71.0796617495
 10
56.2457152821
 20
-71.0291852769
 10
56.2472817672
 20
-70.9763213243
  0
LINE
  5
50F
100
AcDbEntity
  8
SMUSSO
100
AcDbLine
 62
7
  6
CONTINUOUS
 10
54.8751564987
 20
-73.0048997438
 11
54.8751238815
 21
-73.004918745
  0
LINE
  5
510
100
AcDbEntity
  8
SMUSSO
100
AcDbLine
 62
7
  6
CONTINUOUS
 10
55.1512662564
 20
-72.5073076489
 11
56.2119264282
 21
-71.8948957589
  0
LINE
  5
511
100
AcDbEntity
  8
RACCORDO
100
AcDbLine
 62
7
  6
CONTINUOUS
 10
54.8751552461
 20
-73.0049006368
 11
56.0048438071
 21
-72.35263262
  0
LINE
  5
512
100
AcDbEntity
  8
DRAFT
100
AcDbLine
 62
7
  6
CONTINUOUS
 10
56.8802735572
 20
-70.9763213232
 11
59.0403535529
 21
-69.771911274
  0
LINE
  5
513
100
AcDbEntity
  8
DRAFT
100
AcDbLine
 62
7
  6
CONTINUOUS
 10
56.5715144556
 20
-71.6440000268
 11
58.7204164431
 21
-70.4637619537
  0
LWPOLYLINE
  5
514
100
AcDbEntity
  8
DRAFT
100
AcDbPolyline
 62
7
  6
CONTINUOUS
 90
9
 70
0
 10
56.5715144556
 20
-71.6440000268
 10
56.5591096587
 20
-71.6505802105
 10
56.5146299992
 20
-71.6706038704
 10
56.4679240143
 20
-71.686278489
 10
56.4191497423
 20
-71.6975510284
 10
56.3684722199
 20
-71.704383346
 10
56.3160629237
 20
-71.7067523232
 10
56.2620991903
 20
-71.7046499443
 10
56.2119264282
 20
-71.6986959891
  0
ARC
  5
515
100
AcDbEntity
  8
0
100
AcDbCircle
 62
7
  6
CONTINUOUS
 10
27.5678766366
 20
-35.5639049654
 40
0.5
100
AcDbArc
 50
0.2703450501
 51
59.7296550152
  0
ARC
  5
516
100
AcDbEntity
  8
0
100
AcDbCircle
 62
7
  6
CONTINUOUS
 10
11.6579740599
 20
-26.3777266155
 40
0.5
100
AcDbArc
 50
0.2703450501
 51
59.7296550152
  0
ARC
  5
517
100
AcDbEntity
  8
RACCORDO
100
AcDbCircle
 62
7
  6
CONTINUOUS
 10
-40.9507704604
 20
3.9979031281
 40
0.5
100
AcDbArc
 50
0.2703450501
 51
59.729655018
  0
ELLIPSE
  5
518
100
AcDbEntity
  8
RACCORDO
100
AcDbEllipse
 62
7
  6
CONTINUOUS
 10
-45.5873066044
 20
43.0277068426
 30
0.0
 11
-0.3501235233
 21
0.606392698
 31
0.0
 40
0.5771558487
 41
-0.7852941622
 42
0.0175189984
  0
ELLIPSE
  5
519
100
AcDbEntity
  8
RACCORDO
100
AcDbEllipse
 62
7
  6
CONTINUOUS
 10
-42.2471063708
 20
3.5351348986
 30
0.0
 11
-0.1500072547
 21
0.2598034325
 31
0.0
 40
0.5775075436
 41
0.7855021057
 42
2.355993846
  0
ELLIPSE
  5
51A
100
AcDbEntity
  8
RACCORDO
100
AcDbEllipse
 62
7
  6
CONTINUOUS
 10
-41.7330386787
 20
3.8319569015
 30
0.0
 11
-0.1500073079
 21
0.2598034018
 31
0.0
 40
0.5789151826
 41
0.7867191038
 42
2.3547763749
  0
ELLIPSE
  5
51B
100
AcDbEntity
  8
RACCORDO
100
AcDbEllipse
 62
7
  6
CONTINUOUS
 10
37.803006659
 20
-5.1208149095
 30
0.0
 11
-0.3500169276
 21
0.6062080092
 31
0.0
 40
0.5775075436
 41
-2.3560905478
 42
-0.7855988075
  0
ELLIPSE
  5
51C
100
AcDbEntity
  8
RACCORDO
100
AcDbEllipse
 62
7
  6
CONTINUOUS
 10
37.803006659
 20
-46.8683379488
 30
0.0
 11
-0.3501235233
 21
0.606392698
 31
0.0
 40
0.5771558487
 41
-3.1591112814
 42
-2.3563950755
  0
ELLIPSE
  5
51D
100
AcDbEntity
  8
RACCORDO
100
AcDbEllipse
 62
7
  6
CONTINUOUS
 10
-5.9924555915
 20
-16.4244196395
 30
0.0
 11
-0.1500529386
 21
0.2598825848
 31
0.0
 40
0.5771558487
 41
-0.7852941622
 42
0.0172857704
  0
ELLIPSE
  5
51E
100
AcDbEntity
  8
RACCORDO
100
AcDbEllipse
 62
7
  6
CONTINUOUS
 10
-21.9023581682
 20
-7.2382412896
 30
0.0
 11
-0.1500529386
 21
0.2598825848
 31
0.0
 40
0.5771558487
 41
-0.7852941622
 42
0.0172857704
  0
ELLIPSE
  5
51F
100
AcDbEntity
  8
RACCORDO
100
AcDbEllipse
 62
7
  6
CONTINUOUS
 10
20.3131509281
 20
-31.6960272301
 30
0.0
 11
-0.1500529386
 21
0.2598825848
 31
0.0
 40
0.5771558487
 41
-0.7852941622
 42
0.0172857759
  0
ELLIPSE
  5
520
100
AcDbEntity
  8
RACCORDO
100
AcDbEllipse
 62
7
  6
CONTINUOUS
 10
-27.416556802
 20
-4.1374921805
 30
0.0
 11
-0.1500529386
 21
0.2598825848
 31
0.0
 40
0.5771558487
 41
-0.7852941622
 42
0.0172857759
  0
ELLIPSE
  5
521
100
AcDbEntity
  8
RACCORDO
100
AcDbEllipse
 62
7
  6
CONTINUOUS
 10
-11.5066542253
 20
-13.3236705303
 30
0.0
 11
-0.1500529386
 21
0.2598825848
 31
0.0
 40
0.5771558487
 41
-0.7852941622
 42
0.0172857759
  0
ELLIPSE
  5
522
100
AcDbEntity
  8
RACCORDO
100
AcDbEllipse
 62
7
  6
CONTINUOUS
 10
4.4032483514
 20
-22.5098488802
 30
0.0
 11
-0.1500529386
 21
0.2598825848
 31
0.0
 40
0.5771558487
 41
-0.7852941622
 42
0.0172857759
  0
ELLIPSE
  5
523
100
AcDbEntity
  8
RACCORDO
100
AcDbEllipse
 62
7
  6
CONTINUOUS
 10
33.2309560396
 20
-39.2348448601
 30
0.0
 11
-0.2499740017
 21
0.433071683
 31
0.0
 40
0.5773316645
 41
-0.7852941758
 42
0.0087624365
  0
ELLIPSE
  5
524
100
AcDbEntity
  8
RACCORDO
100
AcDbEllipse
 62
7
  6
CONTINUOUS
 10
17.321107319
 20
-30.0486976061
 30
0.0
 11
-0.2500882309
 21
0.4331376414
 31
0.0
 40
0.5771558487
 41
-0.7852941622
 42
0.0175190048
  0
ELLIPSE
  5
525
100
AcDbEntity
  8
RACCORDO
100
AcDbEllipse
 62
7
  6
CONTINUOUS
 10
1.4112047423
 20
-20.8625192562
 30
0.0
 11
-0.2500882309
 21
0.4331376414
 31
0.0
 40
0.5771558487
 41
-0.7852941622
 42
0.0175190048
  0
ELLIPSE
  5
526
100
AcDbEntity
  8
RACCORDO
100
AcDbEllipse
 62
7
  6
CONTINUOUS
 10
-14.4986978344
 20
-11.6763409063
 30
0.0
 11
-0.2500882309
 21
0.4331376414
 31
0.0
 40
0.5771558487
 41
-0.7852941622
 42
0.0175190048
  0
ELLIPSE
  5
527
100
AcDbEntity
  8
RACCORDO
100
AcDbEllipse
 62
7
  6
CONTINUOUS
 10
-30.4086542672
 20
-2.4901314606
 30
0.0
 11
-0.2499740017
 21
0.433071683
 31
0.0
 40
0.5773316645
 41
-0.7852941758
 42
0.0087624365
  0
ELLIPSE
  5
528
100
AcDbEntity
  8
ASSI
100
AcDbEllipse
 62
7
  6
CONTINUOUS
 10
20.3334747831
 20
-29.7393623612
 30
0.0
 11
0.1999995634
 21
0.1164181051
 31
0.0
 40
0.0035896273
 41
-0.7351277754
 42
-0.0020157638
  0
ELLIPSE
  5
529
100
AcDbEntity
  8
ASSI
100
AcDbEllipse
 62
7
  6
CONTINUOUS
 10
4.4235722064
 20
-20.5531840113
 30
0.0
 11
0.1999995634
 21
0.1164181051
 31
0.0
 40
0.0035896273
 41
-0.7351277754
 42
-0.0020157638
  0
ELLIPSE
  5
52A
100
AcDbEntity
  8
ASSI
100
AcDbEllipse
 62
7
  6
CONTINUOUS
 10
-11.4863303703
 20
-11.3670056614
 30
0.0
 11
0.1999995634
 21
0.1164181051
 31
0.0
 40
0.0035896273
 41
-0.7351277754
 42
-0.0020157638
  0
ELLIPSE
  5
52B
100
AcDbEntity
  8
0
100
AcDbEllipse
 62
7
  6
CONTINUOUS
 10
-27.396232947
 20
-2.2624743392
 30
0.0
 11
0.1999995634
 21
0.1164181051
 31
0.0
 40
0.0035896273
 41
-0.7351277754
 42
-0.0020757973
  0
ELLIPSE
  5
52C
100
AcDbEntity
  8
RACCORDO
100
AcDbEllipse
 62
7
  6
CONTINUOUS
 10
27.9276551807
 20
-36.1727854101
 30
0.0
 11
-0.2499740017
 21
0.433071683
 31
0.0
 40
0.5773316645
 41
-2.3560905026
 42
-0.7852941758
  0
ELLIPSE
  5
52D
100
AcDbEntity
  8
RACCORDO
100
AcDbEllipse
 62
7
  6
CONTINUOUS
 10
12.0176987479
 20
-26.9865759644
 30
0.0
 11
-0.2500120911
 21
0.4330057209
 31
0.0
 40
0.5775075436
 41
-2.3560905478
 42
-0.7855988075
  0
ELLIPSE
  5
52E
100
AcDbEntity
  8
RACCORDO
100
AcDbEllipse
 62
7
  6
CONTINUOUS
 10
19.4213590817
 20
-31.0980377219
 30
0.0
 11
-0.1500072547
 21
0.2598034325
 31
0.0
 40
0.5775075436
 41
-2.3560905478
 42
-0.7855988075
  0
ELLIPSE
  5
52F
100
AcDbEntity
  8
RACCORDO
100
AcDbEllipse
 62
7
  6
CONTINUOUS
 10
-19.8021064055
 20
-8.6142192647
 30
0.0
 11
-0.2500120911
 21
0.4330057209
 31
0.0
 40
0.5775075436
 41
-2.3560905478
 42
-0.7855988075
  0
ELLIPSE
  5
530
100
AcDbEntity
  8
RACCORDO
100
AcDbEllipse
 62
7
  6
CONTINUOUS
 10
-3.8922038288
 20
-17.8003976146
 30
0.0
 11
-0.2500120911
 21
0.4330057209
 31
0.0
 40
0.5775075436
 41
-2.3560905478
 42
-0.7855988075
  0
ELLIPSE
  5
531
100
AcDbEntity
  8
RACCORDO
100
AcDbEllipse
 62
7
  6
CONTINUOUS
 10
3.511456505
 20
-21.911859372
 30
0.0
 11
-0.1500072547
 21
0.2598034325
 31
0.0
 40
0.5775075436
 41
-2.3560905478
 42
-0.7855988075
  0
ELLIPSE
  5
532
100
AcDbEntity
  8
RACCORDO
100
AcDbEllipse
 62
7
  6
CONTINUOUS
 10
-41.3688093756
 20
35.7047926488
 30
0.0
 11
-0.149984401
 21
0.2598430098
 31
0.0
 40
0.5773316645
 41
-3.1502296861
 42
-2.3560905026
  0
ELLIPSE
  5
533
100
AcDbEntity
  8
RACCORDO
100
AcDbEllipse
 62
7
  6
CONTINUOUS
 10
-41.3688416892
 20
27.8181667846
 30
0.0
 11
-0.1500072547
 21
0.2598034325
 31
0.0
 40
0.5775075436
 41
-2.3560905478
 42
-0.7855988075
  0
ELLIPSE
  5
534
100
AcDbEntity
  8
RACCORDO
100
AcDbEllipse
 62
7
  6
CONTINUOUS
 10
-41.3688416892
 20
17.7424652169
 30
0.0
 11
-0.1500529386
 21
0.2598825848
 31
0.0
 40
0.5771558487
 41
-3.1588791223
 42
-2.3563950755
  0
ELLIPSE
  5
535
100
AcDbEntity
  8
RACCORDO
100
AcDbEllipse
 62
7
  6
CONTINUOUS
 10
-41.3688093756
 20
9.8558020376
 30
0.0
 11
-0.149984401
 21
0.2598430098
 31
0.0
 40
0.5773316645
 41
-2.3560905026
 42
-0.7852941758
  0
ELLIPSE
  5
536
100
AcDbEntity
  8
RACCORDO
100
AcDbEllipse
 62
7
  6
CONTINUOUS
 10
-35.7119551261
 20
0.5719279894
 30
0.0
 11
-0.2499740017
 21
0.433071683
 31
0.0
 40
0.5773316645
 41
-2.3560905026
 42
-0.7852941758
  0
ELLIPSE
  5
537
100
AcDbEntity
  8
0
100
AcDbEllipse
 62
7
  6
CONTINUOUS
 10
32.1275289495
 20
-36.1478565402
 30
0.0
 11
0.1082601067
 21
0.1683382284
 31
0.0
 40
0.6067084637
 41
0.7621560142
 42
0.8145158917
  0
ELLIPSE
  5
538
100
AcDbEntity
  8
0
100
AcDbEllipse
 62
7
  6
CONTINUOUS
 10
-31.5120813573
 20
0.5968568593
 30
0.0
 11
0.1082601067
 21
0.1683382284
 31
0.0
 40
0.6067084637
 41
0.7621560142
 42
0.8145158917
  0
ELLIPSE
  5
539
100
AcDbEntity
  8
ASSI
100
AcDbEllipse
 62
7
  6
CONTINUOUS
 10
-15.6021787806
 20
-8.5893214905
 30
0.0
 11
0.1082601067
 21
0.1683382284
 31
0.0
 40
0.6067084637
 41
0.7621560142
 42
0.8145158917
  0
ELLIPSE
  5
53A
100
AcDbEntity
  8
ASSI
100
AcDbEllipse
 62
7
  6
CONTINUOUS
 10
0.3077237961
 20
-17.7754998404
 30
0.0
 11
0.1082601067
 21
0.1683382284
 31
0.0
 40
0.6067084637
 41
0.7621560142
 42
0.8145158917
  0
ELLIPSE
  5
53B
100
AcDbEntity
  8
ASSI
100
AcDbEllipse
 62
7
  6
CONTINUOUS
 10
16.2176263728
 20
-26.9616781903
 30
0.0
 11
0.1082601067
 21
0.1683382284
 31
0.0
 40
0.6067084637
 41
0.7621560142
 42
0.8145158917
  0
ELLIPSE
  5
53C
100
AcDbEntity
  8
0
100
AcDbEllipse
 62
7
  6
CONTINUOUS
 10
35.4933270669
 20
-39.2759641365
 30
0.0
 11
0.2123743771
 21
0.3678550612
 31
0.0
 40
0.5773586895
 41
-2.353653638
 42
-1.8309336332
  0
ELLIPSE
  5
53D
100
AcDbEntity
  8
0
100
AcDbEllipse
 62
7
  6
CONTINUOUS
 10
-28.1462832399
 20
-2.531250737
 30
0.0
 11
0.2123743771
 21
0.3678550612
 31
0.0
 40
0.5773586895
 41
-2.195063028
 42
-1.8309336332
  0
ELLIPSE
  5
53E
100
AcDbEntity
  8
RACCORDO
100
AcDbEllipse
 62
7
  6
CONTINUOUS
 10
8.8842337825
 20
-25.0971137082
 30
0.0
 11
-0.1500072547
 21
0.2598034325
 31
0.0
 40
0.5775075436
 41
-2.3560905478
 42
-0.7855988075
  0
ELLIPSE
  5
53F
100
AcDbEntity
  8
RACCORDO
100
AcDbEllipse
 62
7
  6
CONTINUOUS
 10
-7.0256687942
 20
-15.9109353583
 30
0.0
 11
-0.1500072547
 21
0.2598034325
 31
0.0
 40
0.5775075436
 41
-2.3560905478
 42
-0.7855988075
  0
ELLIPSE
  5
540
100
AcDbEntity
  8
RACCORDO
100
AcDbEllipse
 62
7
  6
CONTINUOUS
 10
24.7941363592
 20
-34.2832920581
 30
0.0
 11
-0.1500072547
 21
0.2598034325
 31
0.0
 40
0.5775075436
 41
-2.3560905478
 42
-0.7855988075
  0
ELLIPSE
  5
541
100
AcDbEntity
  8
RACCORDO
100
AcDbEllipse
 62
7
  6
CONTINUOUS
 10
-41.4407866268
 20
11.1720133433
 30
0.0
 11
-0.1500529386
 21
0.2598825848
 31
0.0
 40
0.5771558487
 41
-3.1588791223
 42
-2.3563950755
  0
ELLIPSE
  5
542
100
AcDbEntity
  8
RACCORDO
100
AcDbEllipse
 62
7
  6
CONTINUOUS
 10
-41.4407866268
 20
16.3460429419
 30
0.0
 11
-0.1500072547
 21
0.2598034325
 31
0.0
 40
0.5775075436
 41
-2.3560905478
 42
-0.7855988075
  0
ELLIPSE
  5
543
100
AcDbEntity
  8
RACCORDO
100
AcDbEllipse
 62
7
  6
CONTINUOUS
 10
-41.4407866268
 20
29.1343594328
 30
0.0
 11
-0.1500529386
 21
0.2598825848
 31
0.0
 40
0.5771558487
 41
-3.1588791223
 42
-2.3563950755
  0
ELLIPSE
  5
544
100
AcDbEntity
  8
RACCORDO
100
AcDbEllipse
 62
7
  6
CONTINUOUS
 10
-41.4407866268
 20
34.3083890314
 30
0.0
 11
-0.1500072547
 21
0.2598034325
 31
0.0
 40
0.5775075436
 41
-2.3560905478
 42
-0.7855988075
  0
ELLIPSE
  5
545
100
AcDbEntity
  8
RACCORDO
100
AcDbEllipse
 62
7
  6
CONTINUOUS
 10
23.8588521705
 20
-34.8233116362
 30
0.0
 11
-0.1500072547
 21
0.2598034325
 31
0.0
 40
0.5775075436
 41
-2.0969453617
 42
-0.7855988075
  0
ELLIPSE
  5
546
100
AcDbEntity
  8
RACCORDO
100
AcDbEllipse
 62
7
  6
CONTINUOUS
 10
19.4099574858
 20
-32.254575603
 30
0.0
 11
-0.1500529386
 21
0.2598825848
 31
0.0
 40
0.5771558487
 41
-0.7852941622
 42
0.7851975781
  0
ELLIPSE
  5
547
100
AcDbEntity
  8
RACCORDO
100
AcDbEllipse
 62
7
  6
CONTINUOUS
 10
3.5000549091
 20
-23.0683972531
 30
0.0
 11
-0.1500529386
 21
0.2598825848
 31
0.0
 40
0.5771558487
 41
-0.7852941622
 42
0.7851975781
  0
ELLIPSE
  5
548
100
AcDbEntity
  8
RACCORDO
100
AcDbEllipse
 62
7
  6
CONTINUOUS
 10
7.9489495938
 20
-25.6371332863
 30
0.0
 11
-0.1500072547
 21
0.2598034325
 31
0.0
 40
0.5775075436
 41
-2.0969453617
 42
-0.7855988075
  0
ELLIPSE
  5
549
100
AcDbEntity
  8
RACCORDO
100
AcDbEllipse
 62
7
  6
CONTINUOUS
 10
-2.7048795584
 20
-19.1153036334
 30
0.0
 11
0.2435694555
 21
0.4367051162
 31
0.0
 40
0.5671693725
 41
5.4894081695
 42
7.0427512038
  0
ELLIPSE
  5
54A
100
AcDbEntity
  8
RACCORDO
100
AcDbEllipse
 62
7
  6
CONTINUOUS
 10
-12.4098476676
 20
-13.8822189033
 30
0.0
 11
-0.1500529386
 21
0.2598825848
 31
0.0
 40
0.5771558487
 41
-0.7852941622
 42
0.7851975781
  0
ELLIPSE
  5
54B
100
AcDbEntity
  8
RACCORDO
100
AcDbEllipse
 62
7
  6
CONTINUOUS
 10
-7.9609529829
 20
-16.4509549364
 30
0.0
 11
-0.1500072547
 21
0.2598034325
 31
0.0
 40
0.5775075436
 41
-2.0969453617
 42
-0.7855988075
  0
ELLIPSE
  5
54C
100
AcDbEntity
  8
RACCORDO
100
AcDbEllipse
 62
7
  6
CONTINUOUS
 10
-18.6147821351
 20
-9.9291252835
 30
0.0
 11
0.2435694555
 21
0.4367051162
 31
0.0
 40
0.5671693725
 41
5.4894081695
 42
7.0427512038
  0
ELLIPSE
  5
54D
100
AcDbEntity
  8
RACCORDO
100
AcDbEllipse
 62
7
  6
CONTINUOUS
 10
-28.3197502443
 20
-4.6960405534
 30
0.0
 11
-0.1500529386
 21
0.2598825848
 31
0.0
 40
0.5771558487
 41
-0.7852941622
 42
0.7851975781
  0
ELLIPSE
  5
54E
100
AcDbEntity
  8
RACCORDO
100
AcDbEllipse
 62
7
  6
CONTINUOUS
 10
13.2050230183
 20
-28.3014819833
 30
0.0
 11
0.2435694555
 21
0.4367051162
 31
0.0
 40
0.5671693725
 41
5.4894081695
 42
7.0427512038
  0
ELLIPSE
  5
54F
100
AcDbEntity
  8
RACCORDO
100
AcDbEllipse
 62
7
  6
CONTINUOUS
 10
-41.94440119
 20
17.4329479432
 30
0.0
 11
-0.1500529386
 21
0.2598825848
 31
0.0
 40
0.5771558487
 41
2.3562984914
 42
3.9267902317
  0
ELLIPSE
  5
550
100
AcDbEntity
  8
RACCORDO
100
AcDbEllipse
 62
7
  6
CONTINUOUS
 10
-41.9344948005
 20
35.3895742075
 30
0.0
 11
-0.149984401
 21
0.2598430098
 31
0.0
 40
0.5773316645
 41
2.3562984778
 42
3.9270948046
  0
ELLIPSE
  5
551
100
AcDbEntity
  8
RACCORDO
100
AcDbEllipse
 62
7
  6
CONTINUOUS
 10
9.5030785348
 20
-26.1993063516
 30
0.0
 11
-0.2500882309
 21
0.4331376414
 31
0.0
 40
0.5771558487
 41
-0.7852941622
 42
0.2653506472
  0
ELLIPSE
  5
552
100
AcDbEntity
  8
RACCORDO
100
AcDbEllipse
 62
7
  6
CONTINUOUS
 10
11.4421392471
 20
-27.3188957048
 30
0.0
 11
-0.2500120911
 21
0.4330057209
 31
0.0
 40
0.5775075436
 41
-1.8362436169
 42
-0.7855988075
  0
ELLIPSE
  5
553
100
AcDbEntity
  8
RACCORDO
100
AcDbEllipse
 62
7
  6
CONTINUOUS
 10
16.7652959699
 20
-30.3924196817
 30
0.0
 11
-0.2500882309
 21
0.4331376414
 31
0.0
 40
0.5771558487
 41
-0.7852941622
 42
0.2653506472
  0
ELLIPSE
  5
554
100
AcDbEntity
  8
RACCORDO
100
AcDbEllipse
 62
7
  6
CONTINUOUS
 10
18.8457995809
 20
-31.4303574623
 30
0.0
 11
-0.1500072547
 21
0.2598034325
 31
0.0
 40
0.5775075436
 41
-2.1940465127
 42
-0.7855988075
  0
ELLIPSE
  5
555
100
AcDbEntity
  8
RACCORDO
100
AcDbEllipse
 62
7
  6
CONTINUOUS
 10
-42.3760708156
 20
28.631393863
 30
0.0
 11
-0.1500529386
 21
0.2598825848
 31
0.0
 40
0.5771558487
 41
2.3562984914
 42
3.9267902317
  0
ELLIPSE
  5
556
100
AcDbEntity
  8
RACCORDO
100
AcDbEllipse
 62
7
  6
CONTINUOUS
 10
-42.3760708156
 20
10.6690477736
 30
0.0
 11
-0.1500529386
 21
0.2598825848
 31
0.0
 40
0.5771558487
 41
2.3562984914
 42
3.9267902317
  0
ELLIPSE
  5
557
100
AcDbEntity
  8
RACCORDO
100
AcDbEllipse
 62
7
  6
CONTINUOUS
 10
-22.4581695173
 20
-7.5819633653
 30
0.0
 11
-0.1500529386
 21
0.2598825848
 31
0.0
 40
0.5771558487
 41
-0.7852941622
 42
0.6231535431
  0
ELLIPSE
  5
558
100
AcDbEntity
  8
RACCORDO
100
AcDbEllipse
 62
7
  6
CONTINUOUS
 10
-20.3776659063
 20
-8.9465390051
 30
0.0
 11
-0.2500120911
 21
0.4330057209
 31
0.0
 40
0.5775075436
 41
-1.8362436169
 42
-0.7855988075
  0
ELLIPSE
  5
559
100
AcDbEntity
  8
RACCORDO
100
AcDbEllipse
 62
7
  6
CONTINUOUS
 10
-15.0545091835
 20
-12.020062982
 30
0.0
 11
-0.2500882309
 21
0.4331376414
 31
0.0
 40
0.5771558487
 41
-0.7852941622
 42
0.2653506472
  0
ELLIPSE
  5
55A
100
AcDbEntity
  8
RACCORDO
100
AcDbEllipse
 62
7
  6
CONTINUOUS
 10
-13.1154484712
 20
-13.1396523351
 30
0.0
 11
-0.2500120911
 21
0.4330057209
 31
0.0
 40
0.5775075436
 41
-1.8362436139
 42
-0.7855988075
  0
ELLIPSE
  5
55B
100
AcDbEntity
  8
RACCORDO
100
AcDbEllipse
 62
7
  6
CONTINUOUS
 10
-6.5482669406
 20
-16.7681417151
 30
0.0
 11
-0.1500529386
 21
0.2598825848
 31
0.0
 40
0.5771558487
 41
-0.7852941622
 42
0.6231535431
  0
ELLIPSE
  5
55C
100
AcDbEntity
  8
RACCORDO
100
AcDbEllipse
 62
7
  6
CONTINUOUS
 10
-4.4677633296
 20
-18.132717355
 30
0.0
 11
-0.2500120911
 21
0.4330057209
 31
0.0
 40
0.5775075436
 41
-1.8362436169
 42
-0.7855988075
  0
ELLIPSE
  5
55D
100
AcDbEntity
  8
RACCORDO
100
AcDbEllipse
 62
7
  6
CONTINUOUS
 10
0.8553933932
 20
-21.2062413318
 30
0.0
 11
-0.2500882309
 21
0.4331376414
 31
0.0
 40
0.5771558487
 41
-0.7852941622
 42
0.2653506472
  0
ELLIPSE
  5
55E
100
AcDbEntity
  8
RACCORDO
100
AcDbEllipse
 62
7
  6
CONTINUOUS
 10
2.9358970042
 20
-22.2441791124
 30
0.0
 11
-0.1500072547
 21
0.2598034325
 31
0.0
 40
0.5775075436
 41
-2.1940465127
 42
-0.7855988075
  0
ELLIPSE
  5
55F
100
AcDbEntity
  8
RACCORDO
100
AcDbEllipse
 62
7
  6
CONTINUOUS
 10
-41.94440119
 20
27.4858470442
 30
0.0
 11
-0.1500072547
 21
0.2598034325
 31
0.0
 40
0.5775075436
 41
-2.3560905478
 42
-0.7855988075
  0
ELLIPSE
  5
560
100
AcDbEntity
  8
0
100
AcDbEllipse
 62
7
  6
CONTINUOUS
 10
-27.2546175117
 20
-1.8613494065
 30
0.0
 11
0.0925036689
 21
0.1774691851
 31
0.0
 40
0.5463614449
 41
0.709509901
 42
0.7618697785
  0
ELLIPSE
  5
561
100
AcDbEntity
  8
RACCORDO
100
AcDbEllipse
 62
7
  6
CONTINUOUS
 10
-30.9743396921
 20
-2.8281523686
 30
0.0
 11
-0.2499740017
 21
0.433071683
 31
0.0
 40
0.5773316645
 41
-0.7852941758
 42
0.2653538377
  0
ELLIPSE
  5
562
100
AcDbEntity
  8
RACCORDO
100
AcDbEllipse
 62
7
  6
CONTINUOUS
 10
-29.0253510479
 20
-3.9534739853
 30
0.0
 11
-0.2500120911
 21
0.4330057209
 31
0.0
 40
0.5775075436
 41
-1.8362436169
 42
-0.7855988075
  0
ELLIPSE
  5
563
100
AcDbEntity
  8
RACCORDO
100
AcDbEllipse
 62
7
  6
CONTINUOUS
 10
-41.9344948005
 20
9.5177811296
 30
0.0
 11
-0.149984401
 21
0.2598430098
 31
0.0
 40
0.5773316645
 41
-2.3560905026
 42
-0.7852941758
  0
ELLIPSE
  5
564
100
AcDbEntity
  8
RACCORDO
100
AcDbEllipse
 62
7
  6
CONTINUOUS
 10
-36.277640551
 20
0.2339070813
 30
0.0
 11
-0.2499740017
 21
0.433071683
 31
0.0
 40
0.5773316645
 41
-1.8359421893
 42
-0.7852941758
  0
ELLIPSE
  5
565
100
AcDbEntity
  8
RACCORDO
100
AcDbEllipse
 62
7
  6
CONTINUOUS
 10
32.6652706146
 20
-39.5728657681
 30
0.0
 11
-0.2499740017
 21
0.433071683
 31
0.0
 40
0.5773316645
 41
-0.7852941758
 42
0.2653538377
  0
ELLIPSE
  5
566
100
AcDbEntity
  8
RACCORDO
100
AcDbEllipse
 62
7
  6
CONTINUOUS
 10
25.4129811115
 20
-35.3854847015
 30
0.0
 11
-0.2500882309
 21
0.4331376414
 31
0.0
 40
0.5771558487
 41
-0.7852941622
 42
0.2653506472
  0
ELLIPSE
  5
567
100
AcDbEntity
  8
RACCORDO
100
AcDbEllipse
 62
7
  6
CONTINUOUS
 10
27.3619697557
 20
-36.5108063182
 30
0.0
 11
-0.2499740017
 21
0.433071683
 31
0.0
 40
0.5773316645
 41
-1.8359421893
 42
-0.7852941758
  0
ELLIPSE
  5
568
100
AcDbEntity
  8
ASSI
100
AcDbEllipse
 62
7
  6
CONTINUOUS
 10
-11.344714935
 20
-11.0475277564
 30
0.0
 11
0.0925036689
 21
0.1774691851
 31
0.0
 40
0.5463614449
 41
0.709509901
 42
0.7618697785
  0
ELLIPSE
  5
569
100
AcDbEntity
  8
ASSI
100
AcDbEllipse
 62
7
  6
CONTINUOUS
 10
4.5651876417
 20
-20.2337061063
 30
0.0
 11
0.0925036689
 21
0.1774691851
 31
0.0
 40
0.5463614449
 41
0.709509901
 42
0.7618697785
  0
ELLIPSE
  5
56A
100
AcDbEntity
  8
ASSI
100
AcDbEllipse
 62
7
  6
CONTINUOUS
 10
20.4750902184
 20
-29.4198844562
 30
0.0
 11
0.0925036689
 21
0.1774691851
 31
0.0
 40
0.5463614449
 41
0.709509901
 42
0.7618697785
  0
ELLIPSE
  5
56B
100
AcDbEntity
  8
RACCORDO
100
AcDbEllipse
 62
7
  6
CONTINUOUS
 10
-42.3760708156
 20
15.8060233638
 30
0.0
 11
-0.1500072547
 21
0.2598034325
 31
0.0
 40
0.5775075436
 41
-2.3560905478
 42
-0.9003705459
  0
ELLIPSE
  5
56C
100
AcDbEntity
  8
RACCORDO
100
AcDbEllipse
 62
7
  6
CONTINUOUS
 10
-42.3760708156
 20
33.7683694532
 30
0.0
 11
-0.1500072547
 21
0.2598034325
 31
0.0
 40
0.5775075436
 41
-2.3560905478
 42
-0.9003705459
  0
ELLIPSE
  5
56D
100
AcDbEntity
  8
SMUSSO
100
AcDbEllipse
 62
7
  6
CONTINUOUS
 10
-59.6357345562
 20
69.7554087916
 30
0.0
 11
-0.304720959
 21
0.9748424485
 31
0.0
 40
0.368958844
 41
0.0825763893
 42
0.8679254863
  0
ELLIPSE
  5
56E
100
AcDbEntity
  8
SMUSSO
100
AcDbEllipse
 62
7
  6
CONTINUOUS
 10
54.2084572148
 20
-72.2351245867
 30
0.0
 11
-0.6918989454
 21
0.7512919132
 31
0.0
 40
0.368944188
 41
-4.0096023764
 42
-3.224204213
  0
ELLIPSE
  5
56F
100
AcDbEntity
  8
SMUSSO
100
AcDbEllipse
 62
7
  6
CONTINUOUS
 10
-59.6357345562
 20
-6.5029150609
 30
0.0
 11
-0.304720959
 21
0.9748424485
 31
0.0
 40
0.368958844
 41
0.8679254863
 42
1.6533236497
  0
ELLIPSE
  5
570
100
AcDbEntity
  8
SMUSSO
100
AcDbEllipse
 62
7
  6
CONTINUOUS
 10
-59.6357345562
 20
-6.5029150609
 30
0.0
 11
-0.6918989454
 21
0.7512919132
 31
0.0
 40
0.368944188
 41
1.4881847674
 42
2.2735829308
  0
ELLIPSE
  5
571
100
AcDbEntity
  8
SMUSSO
100
AcDbEllipse
 62
7
  6
CONTINUOUS
 10
54.2084572148
 20
4.0231992658
 30
0.0
 11
0.8312656652
 21
-0.6252150779
 31
0.0
 40
0.7115057303
 41
0.4913634087
 42
1.2767615721
  0
ELLIPSE
  5
572
100
AcDbEntity
  8
SMUSSO
100
AcDbEllipse
 62
7
  6
CONTINUOUS
 10
54.2084572148
 20
4.0231992658
 30
0.0
 11
-0.125886301
 21
1.0324916607
 31
0.0
 40
0.7115295703
 41
-1.2768563573
 42
-0.4914581939
  0
ELLIPSE
  5
573
100
AcDbEntity
  8
SMUSSO
100
AcDbEllipse
 62
7
  6
CONTINUOUS
 10
54.2084572148
 20
-72.2351245867
 30
0.0
 11
0.8312656652
 21
-0.6252150779
 31
0.0
 40
0.7115057303
 41
-0.2939856883
 42
0.4913634087
  0
ELLIPSE
  5
574
100
AcDbEntity
  8
SMUSSO
100
AcDbEllipse
 62
7
  6
CONTINUOUS
 10
-59.6357345562
 20
69.7554087916
 30
0.0
 11
-0.125886301
 21
1.0324916607
 31
0.0
 40
0.7115295703
 41
-0.4914581939
 42
0.2939399695
  0
ENDSEC
  0
SECTION
  2
OBJECTS
  0
DICTIONARY
  5
C
100
AcDbDictionary
280
0
281
1
  3
ACAD_GROUP
350
D
  3
ACAD_MLINESTYLE
350
17
  3
ACAD_LAYOUT
350
1A
  3
ACAD_PLOTSETTINGS
350
19
  3
ACAD_PLOTSTYLENAME
350
E
  0
DICTIONARY
  5
D
102
{ACAD_REACTORS
330
C
102
}
100
AcDbDictionary
280
0
281
1
  0
ACDBDICTIONARYWDFLT
  5
E
102
{ACAD_REACTORS
330
C
102
}
100
AcDbDictionary
281
1
  3
Normal
350
F
100
AcDbDictionaryWithDefault
340
F
  0
DICTIONARY
  5
17
102
{ACAD_REACTORS
330
C
102
}
100
AcDbDictionary
280
0
281
1
  3
Standard
350
18
  0
DICTIONARY
  5
19
102
{ACAD_REACTORS
330
C
102
}
100
AcDbDictionary
281
1
  0
DICTIONARY
  5
1A
102
{ACAD_REACTORS
330
C
102
}
100
AcDbDictionary
281
1
  3
Model
350
575
  3
Layout1
350
576
  0
ACDBPLACEHOLDER
  5
F
102
{ACAD_REACTORS
330
E
102
}
  0
MLINESTYLE
  5
18
102
{ACAD_REACTORS
330
17
102
}
100
AcDbMlineStyle
  2
STANDARD
 70
0
  3

 62
256
 51
90.0
 52
90.0
 71
2
 49
0.5
 62
256
  6
BYLAYER
 49
-0.5
 62
256
  6
BYLAYER
  0
LAYOUT
  5
575
102
{ACAD_REACTORS
330
1A
102
}
100
AcDbPlotSettings
  1

  2
none_device
  4
ISO_A4_(297.00_x_210.00_MM)
  6

 40
0.0
 41
0.0
 42
0.0
 43
0.0
 44
297.0
 45
210.0
 46
0.0
 47
0.0
 48
0.0
 49
0.0
140
0.0
141
0.0
142
1.0
143
1.0
 70
1024
 72
1
 73
0
 74
0
  7

 75
0
147
1.0
148
0.0
149
0.0
100
AcDbLayout
  1
Model
 70
0
 71
0
 10
0.0
 20
0.0
 11
297.0
 21
210.0
 12
0.0
 22
0.0
 32
0.0
 14
0.0
 24
0.0
 34
0.0
 15
0.0
 25
0.0
 35
0.0
146
0.0
 13
0.0
 23
0.0
 33
0.0
 16
1.0
 26
0.0
 36
0.0
 17
0.0
 27
1.0
 37
0.0
 76
0
330
215
345
0
346
0
  0
LAYOUT
  5
576
102
{ACAD_REACTORS
330
1A
102
}
100
AcDbPlotSettings
  1

  2
none_device
  4
ISO_A4_(297.00_x_210.00_MM)
  6

 40
0.0
 41
0.0
 42
0.0
 43
0.0
 44
297.0
 45
210.0
 46
0.0
 47
0.0
 48
0.0
 49
0.0
140
0.0
141
0.0
142
1.0
143
1.0
 70
0
 72
1
 73
0
 74
0
  7

 75
0
147
1.0
148
0.0
149
0.0
100
AcDbLayout
  1
Layout1
 70
0
 71
1
 10
0.0
 20
0.0
 11
297.0
 21
210.0
 12
0.0
 22
0.0
 32
0.0
 14
0.0
 24
0.0
 34
0.0
 15
0.0
 25
0.0
 35
0.0
146
0.0
 13
0.0
 23
0.0
 33
0.0
 16
1.0
 26
0.0
 36
0.0
 17
0.0
 27
1.0
 37
0.0
 76
0
330
216
345
0
346
0
  0
ENDSEC
  0
EOF
