  0
SECTION
  2
HEADER
  9
$ACADVER
  1
AC1015
  9
$DWGCODEPAGE
  3
ANSI_1252
  9
$EXTMAX
 10
297.0
 20
210.0
 30
0.0
  9
$EXTMIN
 10
0.0
 20
0.0
 30
0.0
  9
$LIMMIN
 10
0.0
 20
0.0
  9
$LIMMAX
 10
297.0
 20
210.0
  9
$VIEWCTR
 10
148.5
 20
105.0
  9
$VIEWSIZE
 40
210.0
  9
$CLAYER
  8
0
  9
$LTSCALE
 40
16.335
  9
$CELTYPE
  6
BYLAYER
  9
$DIMSCALE
 40
1.0
  9
$DIMASZ
 40
3.0
  9
$DIMEXO
 40
0.5
  9
$DIMDLI
 40
11.286
  9
$DIMEXE
 40
1.5
  9
$DIMCEN
 40
2.673
  9
$DIMLFAC
 40
1.0
  9
$DIMBLK
  1
_FILLED
  9
$DIMTXT
 40
3.0
  9
$DIMTOL
 70
1
  9
$DIMLIM
 70
0
  9
$DIMTFAC
 40
1.0
  9
$DIMTP
 40
0.01
  9
$DIMTM
 40
0.01
  9
$DIMGAP
 40
0.625
  9
$DIMDSEP
 70
44
  9
$PDMODE
 70
3
  9
$PDSIZE
 40
3.0
  9
$HANDSEED
  5
6DB
  9
$TILEMODE
 70
1
  9
$MEASUREMENT
 70
1
  9
$INSUNITS
 70
4
  0
ENDSEC
  0
SECTION
  2
CLASSES
  0
CLASS
  1
ACDBDICTIONARYWDFLT
  2
AcDbDictionaryWithDefault
  3
AutoCAD 2000
 90
0
280
0
281
0
  0
CLASS
  1
ACDBPLACEHOLDER
  2
AcDbPlaceHolder
  3
AutoCAD 2000
 90
0
280
0
281
0
  0
CLASS
  1
LAYOUT
  2
AcDbLayout
  3
AutoCAD 2000
 90
0
280
0
281
0
  0
ENDSEC
  0
SECTION
  2
TABLES
  0
TABLE
  2
VPORT
  5
8
100
AcDbSymbolTable
 70
2
  0
VPORT
  5
1F4
100
AcDbSymbolTableRecord
100
AcDbViewportTableRecord
  2
*ACTIVE
 70
0
 10
0.0
 20
0.0
 11
1.0
 21
1.0
 12
148.5
 22
105.0
 13
0.0
 23
0.0
 14
1.0
 24
1.0
 15
0.0
 25
0.0
 16
0.0
 26
0.0
 36
1.0
 17
0.0
 27
0.0
 37
0.0
 40
210.0
 41
1.4142857143
 42
50.0
 43
0.0
 44
0.0
 50
0.0
 51
0.0
 71
0
 72
100
 73
1
 74
1
 75
0
 76
0
 77
0
 78
0
  0
ENDTAB
  0
TABLE
  2
LTYPE
  5
5
100
AcDbSymbolTable
 70
6
  0
LTYPE
  5
14
100
AcDbSymbolTableRecord
100
AcDbLinetypeTableRecord
  2
BYBLOCK
 70
0
  3

 72
65
 73
0
 40
0.0
  0
LTYPE
  5
15
100
AcDbSymbolTableRecord
100
AcDbLinetypeTableRecord
  2
BYLAYER
 70
0
  3

 72
65
 73
0
 40
0.0
  0
LTYPE
  5
16
100
AcDbSymbolTableRecord
100
AcDbLinetypeTableRecord
  2
CONTINUOUS
 70
64
  3
Solid line
 72
65
 73
0
 40
0.0
  0
LTYPE
  5
1F5
100
AcDbSymbolTableRecord
100
AcDbLinetypeTableRecord
  2
CENTER
 70
64
  3
____ _ ____ _ ____ _ ____ _ ____ _ ____ _ ____
 72
65
 73
4
 40
0.6
 49
0.375
 74
0
 49
-0.075
 74
0
 49
0.075
 74
0
 49
-0.075
 74
0
  0
LTYPE
  5
1F6
100
AcDbSymbolTableRecord
100
AcDbLinetypeTableRecord
  2
HIDDEN
 70
64
  3
- - - - - - - - - - - - - - - - - - - -
 72
65
 73
2
 40
0.2
 49
0.1
 74
0
 49
-0.1
 74
0
  0
LTYPE
  5
1F7
100
AcDbSymbolTableRecord
100
AcDbLinetypeTableRecord
  2
PHANTOM
 70
64
  3
_____ _ _ _____ _ _ _____ _ _ _____
 72
65
 73
6
 40
0.8
 49
0.45
 74
0
 49
-0.05
 74
0
 49
0.1
 74
0
 49
-0.05
 74
0
 49
0.1
 74
0
 49
-0.05
 74
0
  0
LTYPE
  5
1F8
100
AcDbSymbolTableRecord
100
AcDbLinetypeTableRecord
  2
DOT
 70
64
  3
. . . . . . . . . . . . . . . . . . . .
 72
65
 73
2
 40
0.2
 49
0.1
 74
0
 49
-0.1
 74
0
  0
LTYPE
  5
1F9
100
AcDbSymbolTableRecord
100
AcDbLinetypeTableRecord
  2
DASHED
 70
64
  3
- - - - - - - - - - - - - - - - - - - -
 72
65
 73
2
 40
0.2
 49
0.1
 74
0
 49
-0.1
 74
0
  0
ENDTAB
  0
TABLE
  2
LAYER
  5
2
100
AcDbSymbolTable
 70
36
  0
LAYER
  5
10
100
AcDbSymbolTableRecord
100
AcDbLayerTableRecord
  2
0
 70
0
 62
7
  6
CONTINUOUS
370
-3
390
F
  0
LAYER
  5
1FA
100
AcDbSymbolTableRecord
100
AcDbLayerTableRecord
  2
DEFAULT_1
 70
0
 62
7
  6
CENTER
370
-3
390
F
  0
LAYER
  5
1FB
100
AcDbSymbolTableRecord
100
AcDbLayerTableRecord
  2
DEFAULT_2
 70
0
 62
7
  6
HIDDEN
370
-3
390
F
  0
LAYER
  5
1FC
100
AcDbSymbolTableRecord
100
AcDbLayerTableRecord
  2
DEFAULT_3
 70
0
 62
7
  6
PHANTOM
370
-3
390
F
  0
LAYER
  5
1FD
100
AcDbSymbolTableRecord
100
AcDbLayerTableRecord
  2
ASSI
 70
0
 62
7
  6
CONTINUOUS
370
-3
390
F
  0
LAYER
  5
1FE
100
AcDbSymbolTableRecord
100
AcDbLayerTableRecord
  2
COORDINATE
 70
0
 62
7
  6
CONTINUOUS
370
-3
390
F
  0
LAYER
  5
1FF
100
AcDbSymbolTableRecord
100
AcDbLayerTableRecord
  2
COPY_PUBLISH
 70
0
 62
7
  6
CONTINUOUS
370
-3
390
F
  0
LAYER
  5
200
100
AcDbSymbolTableRecord
100
AcDbLayerTableRecord
  2
COSMETIC
 70
0
 62
7
  6
CONTINUOUS
370
-3
390
F
  0
LAYER
  5
201
100
AcDbSymbolTableRecord
100
AcDbLayerTableRecord
  2
COSMETICI
 70
0
 62
7
  6
CONTINUOUS
370
-3
390
F
  0
LAYER
  5
202
100
AcDbSymbolTableRecord
100
AcDbLayerTableRecord
  2
CURVE
 70
0
 62
7
  6
CONTINUOUS
370
-3
390
F
  0
LAYER
  5
203
100
AcDbSymbolTableRecord
100
AcDbLayerTableRecord
  2
DRAFT
 70
0
 62
7
  6
CONTINUOUS
370
-3
390
F
  0
LAYER
  5
204
100
AcDbSymbolTableRecord
100
AcDbLayerTableRecord
  2
IMPORT_IGES
 70
0
 62
7
  6
CONTINUOUS
370
-3
390
F
  0
LAYER
  5
205
100
AcDbSymbolTableRecord
100
AcDbLayerTableRecord
  2
INTF_1
 70
0
 62
7
  6
CONTINUOUS
370
-3
390
F
  0
LAYER
  5
206
100
AcDbSymbolTableRecord
100
AcDbLayerTableRecord
  2
INTF_14
 70
0
 62
7
  6
CONTINUOUS
370
-3
390
F
  0
LAYER
  5
207
100
AcDbSymbolTableRecord
100
AcDbLayerTableRecord
  2
NOTE
 70
0
 62
7
  6
CONTINUOUS
370
-3
390
F
  0
LAYER
  5
208
100
AcDbSymbolTableRecord
100
AcDbLayerTableRecord
  2
PIANI
 70
0
 62
7
  6
CONTINUOUS
370
-3
390
F
  0
LAYER
  5
209
100
AcDbSymbolTableRecord
100
AcDbLayerTableRecord
  2
PUNTI
 70
0
 62
7
  6
CONTINUOUS
370
-3
390
F
  0
LAYER
  5
20A
100
AcDbSymbolTableRecord
100
AcDbLayerTableRecord
  2
RACCORDO
 70
0
 62
7
  6
CONTINUOUS
370
-3
390
F
  0
LAYER
  5
20B
100
AcDbSymbolTableRecord
100
AcDbLayerTableRecord
  2
SIMBOLI
 70
0
 62
7
  6
CONTINUOUS
370
-3
390
F
  0
LAYER
  5
20C
100
AcDbSymbolTableRecord
100
AcDbLayerTableRecord
  2
SMUSSO
 70
0
 62
7
  6
CONTINUOUS
370
-3
390
F
  0
LAYER
  5
20D
100
AcDbSymbolTableRecord
100
AcDbLayerTableRecord
  2
SNAPLINE
 70
0
 62
7
  6
CONTINUOUS
370
-3
390
F
  0
LAYER
  5
20E
100
AcDbSymbolTableRecord
100
AcDbLayerTableRecord
  2
SUPERFICI
 70
0
 62
7
  6
CONTINUOUS
370
-3
390
F
  0
LAYER
  5
20F
100
AcDbSymbolTableRecord
100
AcDbLayerTableRecord
  2
TRASH
 70
0
 62
7
  6
CONTINUOUS
370
-3
390
F
  0
LAYER
  5
210
100
AcDbSymbolTableRecord
100
AcDbLayerTableRecord
  2
XSEC_DATUMS
 70
0
 62
7
  6
CONTINUOUS
370
-3
390
F
  0
ENDTAB
  0
TABLE
  2
STYLE
  5
3
100
AcDbSymbolTable
 70
1
  0
STYLE
  5
11
100
AcDbSymbolTableRecord
100
AcDbTextStyleTableRecord
  2
STANDARD
 70
0
 40
0.0
 41
0.8
 50
0.0
 71
0
 42
0.2
  3
txt
  4

  0
STYLE
  5
211
100
AcDbSymbolTableRecord
100
AcDbTextStyleTableRecord
  2
TEXTSTYLE_1
 70
0
 40
0.0
 41
0.8
 50
0.0
 71
0
 42
0.2
  3
gdt
  4

  0
ENDTAB
  0
TABLE
  2
VIEW
  5
6
100
AcDbSymbolTable
 70
0
  0
ENDTAB
  0
TABLE
  2
UCS
  5
7
100
AcDbSymbolTable
 70
0
  0
ENDTAB
  0
TABLE
  2
APPID
  5
9
100
AcDbSymbolTable
 70
1
  0
APPID
  5
212
100
AcDbSymbolTableRecord
100
AcDbRegAppTableRecord
  2
ACAD
 70
0
  0
ENDTAB
  0
TABLE
  2
BLOCK_RECORD
  5
1
100
AcDbSymbolTable
 70
0
  0
BLOCK_RECORD
  5
213
100
AcDbSymbolTableRecord
100
AcDbBlockTableRecord
  2
*Model_Space
  0
BLOCK_RECORD
  5
214
100
AcDbSymbolTableRecord
100
AcDbBlockTableRecord
  2
*Paper_Space
  0
ENDTAB
  0
TABLE
  2
DIMSTYLE
  5
A
100
AcDbSymbolTable
 70
1
100
AcDbDimStyleTable
 71
0
  0
DIMSTYLE
105
215
100
AcDbSymbolTableRecord
100
AcDbDimStyleTableRecord
  2
STANDARD
 70
0
  3

  4

 40
1.0
 41
3.0
 42
0.5
 43
0.38
 44
1.5
 45
0.0
 46
0.0
 47
0.01
 48
0.01
140
3.0
141
0.09
142
0.0
143
25.4
144
1.0
145
0.0
146
1.0
147
0.625
 71
1.0
 72
0.0
 73
0
 74
0
 75
0
 76
0
 77
1
 78
8
170
0
171
2
172
0
173
0
174
0
175
0
176
0
177
0
178
0
270
2
271
2
272
2
273
2
274
2
275
0
280
0
281
0
282
0
283
1
284
8
285
0
286
0
287
3
288
0
340
11
278
44
  0
ENDTAB
  0
ENDSEC
  0
SECTION
  2
BLOCKS
  0
BLOCK
  5
20
100
AcDbEntity
  8
0
100
AcDbBlockBegin
  2
*Model_Space
 70
0
 10
0.0
 20
0.0
 30
0.0
  3
*Model_Space
  1

  0
ENDBLK
  5
21
100
AcDbEntity
  8
0
100
AcDbBlockEnd
  0
BLOCK
  5
1C
100
AcDbEntity
  8
0
100
AcDbBlockBegin
  2
*Paper_Space
 70
0
 10
0.0
 20
0.0
 30
0.0
  3
*Paper_Space
  1

  0
ENDBLK
  5
1D
100
AcDbEntity
  8
0
100
AcDbBlockEnd
  0
ENDSEC
  0
SECTION
  2
ENTITIES
  0
LWPOLYLINE
  5
216
100
AcDbEntity
  8
0
100
AcDbPolyline
 62
7
  6
CONTINUOUS
 90
4
 70
0
 10
87.7656142822
 20
172.8359768572
 10
87.5984207805
 20
172.7164798613
 10
87.4385519639
 20
172.5860085816
 10
87.3434233152
 20
172.4977545277
  0
LWPOLYLINE
  5
217
100
AcDbEntity
  8
0
100
AcDbPolyline
 62
7
  6
CONTINUOUS
 90
22
 70
0
 10
86.7826005907
 20
172.1240628855
 10
86.601272237
 20
171.9962000365
 10
86.4254519097
 20
171.8577730019
 10
86.2555785529
 20
171.7088636379
 10
86.092241341
 20
171.549746243
 10
85.9356743048
 20
171.3804051251
 10
85.7858186941
 20
171.2004211797
 10
85.6430147094
 20
171.0097271766
 10
85.5077982764
 20
170.8085391518
 10
85.3804502383
 20
170.5967360136
 10
85.2612779239
 20
170.3741818763
 10
85.1508005924
 20
170.141143886
 10
85.0495501103
 20
169.8980790635
 10
84.9577565788
 20
169.6448186663
 10
84.8758505825
 20
169.381729284
 10
84.80444254
 20
169.1101735498
 10
84.743680508
 20
168.8303147702
 10
84.6937272109
 20
168.5423827586
 10
84.6548980565
 20
168.248025367
 10
84.6272209778
 20
167.948028627
 10
84.6106171517
 20
167.6422047966
 10
84.6050827065
 20
167.3308331067
  0
LINE
  5
218
100
AcDbEntity
  8
0
100
AcDbLine
 62
7
  6
CONTINUOUS
 10
87.7592477858
 20
172.7748298361
 11
86.7826005907
 21
172.1240628855
  0
LWPOLYLINE
  5
219
100
AcDbEntity
  8
0
100
AcDbPolyline
 62
7
  6
CONTINUOUS
 90
19
 70
0
 10
87.4277305019
 20
173.8297118205
 10
87.3369730116
 20
173.7754789293
 10
87.1601686549
 20
173.6586876722
 10
86.9903287954
 20
173.5311523065
 10
86.8273018225
 20
173.392823488
 10
86.6715048584
 20
173.2440565413
 10
86.5228563511
 20
173.0847062878
 10
86.3814378525
 20
172.9149179061
 10
86.2479111406
 20
172.7354822582
 10
86.1223907587
 20
172.5464819389
 10
86.0047621634
 20
172.3478343533
 10
85.8953435028
 20
172.1400825783
 10
85.7941023411
 20
171.9230747725
 10
85.7010711142
 20
171.6969627774
 10
85.6166652772
 20
171.4627451942
 10
85.5409565392
 20
171.2205000455
 10
85.4738731911
 20
170.9701493087
 10
85.4156155606
 20
170.7124575181
 10
85.4001539552
 20
170.6295069078
  0
LINE
  5
21A
100
AcDbEntity
  8
0
100
AcDbLine
 62
7
  6
CONTINUOUS
 10
87.7105407763
 20
173.9930786184
 11
87.4276980638
 21
173.8297687811
  0
LWPOLYLINE
  5
21B
100
AcDbEntity
  8
0
100
AcDbPolyline
 62
7
  6
CONTINUOUS
 90
3
 70
0
 10
87.7101484312
 20
173.976177727
 10
87.5205902549
 20
173.8814767335
 10
87.4277305019
 20
173.8297118205
  0
LWPOLYLINE
  5
21C
100
AcDbEntity
  8
0
100
AcDbPolyline
 62
7
  6
CONTINUOUS
 90
20
 70
0
 10
77.0669684353
 20
153.27900148
 10
76.9467528382
 20
153.1783450949
 10
76.8305996149
 20
153.0715738436
 10
76.7189030699
 20
152.9588721484
 10
76.6119224057
 20
152.8403104452
 10
76.5101697788
 20
152.7162715152
 10
76.4143255492
 20
152.5874912461
 10
76.3250028166
 20
152.4548556999
 10
76.2420294012
 20
152.3181915718
 10
76.1649698901
 20
152.1766061301
 10
76.0938091035
 20
152.0295520826
 10
76.0293649437
 20
151.878169886
 10
75.9723954213
 20
151.7240688002
 10
75.9231214672
 20
151.5680339933
 10
75.8814715701
 20
151.4100602298
 10
75.8475143705
 20
151.2505665083
 10
75.8212729214
 20
151.0898397069
 10
75.8027789063
 20
150.9282730221
 10
75.7920467764
 20
150.7663666557
 10
75.7890018544
 20
150.6224415312
  0
LINE
  5
21D
100
AcDbEntity
  8
0
100
AcDbLine
 62
7
  6
CONTINUOUS
 10
77.0669684353
 20
153.27900148
 11
88.9967606671
 21
162.808627001
  0
LINE
  5
21E
100
AcDbEntity
  8
0
100
AcDbLine
 62
7
  6
CONTINUOUS
 10
78.9794652358
 20
153.2669564925
 11
90.8187849222
 21
162.7243117291
  0
LWPOLYLINE
  5
21F
100
AcDbEntity
  8
0
100
AcDbPolyline
 62
7
  6
CONTINUOUS
 90
20
 70
0
 10
88.9979718269
 20
162.8095937556
 10
89.021677411
 20
162.827992009
 10
89.0982728616
 20
162.8810724137
 10
89.1786387722
 20
162.9274611475
 10
89.2626846681
 20
162.9671058027
 10
89.3502318825
 20
162.9999062452
 10
89.4410847068
 20
163.0257746211
 10
89.5351375849
 20
163.0446594742
 10
89.6322446564
 20
163.0564860387
 10
89.7321423829
 20
163.0611826711
 10
89.8345355197
 20
163.0587245495
 10
89.93922491
 20
163.0490845415
 10
90.0459278795
 20
163.032270199
 10
90.1541870051
 20
163.0083945458
 10
90.2637230519
 20
162.9775247386
 10
90.3742681615
 20
162.9397585793
 10
90.4853499594
 20
162.8953667247
 10
90.5966173067
 20
162.8445706421
 10
90.7078542484
 20
162.7874915111
 10
90.8187849222
 20
162.7243117291
  0
LWPOLYLINE
  5
220
100
AcDbEntity
  8
0
100
AcDbPolyline
 62
7
  6
CONTINUOUS
 90
22
 70
0
 10
90.8187849222
 20
162.7243117291
 10
90.8485255921
 20
162.7457145818
 10
90.877933444
 20
162.7693386535
 10
90.906861776
 20
162.7950660962
 10
90.9351662791
 20
162.82276857
 10
90.9627057541
 20
162.8523078803
 10
90.9893428155
 20
162.8835366659
 10
91.0149445823
 20
162.9162991399
 10
91.0393833405
 20
162.9504318672
 10
91.0625371767
 20
162.9857645762
 10
91.0842905871
 20
163.0221210088
 10
91.104535054
 20
163.0593198
 10
91.1231695871
 20
163.0971753828
 10
91.1401012271
 20
163.1354989137
 10
91.1552455097
 20
163.1740992144
 10
91.168526887
 20
163.2127837264
 10
91.1798790981
 20
163.2513594494
 10
91.1892455197
 20
163.2896339687
 10
91.1965794372
 20
163.3274164128
 10
91.2018442565
 20
163.3645183195
 10
91.2050136983
 20
163.4007545782
 10
91.2060719409
 20
163.4359444163
  0
LINE
  5
221
100
AcDbEntity
  8
0
100
AcDbLine
 62
7
  6
CONTINUOUS
 10
91.6287908764
 20
171.7663644926
 11
92.6444467617
 21
172.414252203
  0
LINE
  5
222
100
AcDbEntity
  8
0
100
AcDbLine
 62
7
  6
CONTINUOUS
 10
92.9607944578
 20
173.4728962528
 11
92.6779517453
 21
173.3095864155
  0
LINE
  5
223
100
AcDbEntity
  8
0
100
AcDbLine
 62
7
  6
CONTINUOUS
 10
87.9055289932
 20
174.0594752984
 11
87.7101484312
 21
173.976177727
  0
LWPOLYLINE
  5
224
100
AcDbEntity
  8
0
100
AcDbPolyline
 62
7
  6
CONTINUOUS
 90
20
 70
0
 10
76.7848387966
 20
116.042803735
 10
76.7868801596
 20
115.929610253
 10
76.7930011766
 20
115.8189610219
 10
76.8031920432
 20
115.7110443469
 10
76.8174363319
 20
115.6060420728
 10
76.8357102848
 20
115.5041349777
 10
76.8579821272
 20
115.4055018937
 10
76.8842134545
 20
115.3103119854
 10
76.9143599968
 20
115.2187251254
 10
76.9483704433
 20
115.1308969144
 10
76.9861870796
 20
115.0469761944
 10
77.0277454794
 20
114.9671057574
 10
77.0729744446
 20
114.8914220272
 10
77.1217967812
 20
114.8200535725
 10
77.1741295162
 20
114.7531211239
 10
77.2298835112
 20
114.6907381962
 10
77.2889628692
 20
114.6330114045
 10
77.3512679644
 20
114.580037448
 10
77.4166960676
 20
114.5319037934
 10
77.4869789641
 20
114.4876215299
  0
LINE
  5
225
100
AcDbEntity
  8
0
100
AcDbLine
 62
7
  6
CONTINUOUS
 10
75.7890042626
 20
117.4285999818
 11
75.7890018527
 21
117.4309343443
  0
LINE
  5
226
100
AcDbEntity
  8
0
100
AcDbLine
 62
7
  6
CONTINUOUS
 10
75.7890018526
 20
150.6225048819
 11
75.7890018526
 21
117.4309373523
  0
LINE
  5
227
100
AcDbEntity
  8
0
100
AcDbLine
 62
7
  6
CONTINUOUS
 10
75.7890018544
 20
150.6224415312
 11
75.7890018527
 21
150.622501873
  0
LINE
  5
228
100
AcDbEntity
  8
0
100
AcDbLine
 62
7
  6
CONTINUOUS
 10
76.7848387966
 20
149.2343712646
 11
76.7848387966
 21
116.042803735
  0
LINE
  5
229
100
AcDbEntity
  8
0
100
AcDbLine
 62
7
  6
CONTINUOUS
 10
77.6514923901
 20
143.8971277388
 11
77.6514923901
 21
120.3792574145
  0
LWPOLYLINE
  5
22A
100
AcDbEntity
  8
0
100
AcDbPolyline
 62
7
  6
CONTINUOUS
 90
37
 70
0
 10
76.7848387966
 20
149.2343712646
 10
76.7868801595
 20
149.3499220568
 10
76.7930011759
 20
149.4676396793
 10
76.8031920414
 20
149.5873245047
 10
76.8174363283
 20
149.7087757159
 10
76.8357102783
 20
149.8317851018
 10
76.8579821186
 20
149.9561371461
 10
76.8842134457
 20
150.0816183393
 10
76.9143599902
 20
150.2080176835
 10
76.9483704406
 20
150.3351203219
 10
76.986187083
 20
150.4627107663
 10
77.0277454913
 20
150.5905718257
 10
77.0729744649
 20
150.7184848516
 10
77.1217968088
 20
150.8462321312
 10
77.1741295503
 20
150.973597121
 10
77.229883551
 20
151.1003633718
 10
77.2889629135
 20
151.2263135294
 10
77.3512680119
 20
151.3512358489
 10
77.4166961162
 20
151.4749242339
 10
77.4851370863
 20
151.597169724
 10
77.5564742894
 20
151.7177632822
 10
77.6305881845
 20
151.8365020634
 10
77.7073560681
 20
151.953188233
 10
77.7866452589
 20
152.0676189102
 10
77.8683139509
 20
152.1795893824
 10
77.9522216194
 20
152.2889078481
 10
78.0382268374
 20
152.3953908897
 10
78.1261798976
 20
152.4988541395
 10
78.2159345442
 20
152.5991264986
 10
78.3073344943
 20
152.6960343001
 10
78.4002095472
 20
152.7893994989
 10
78.4943936176
 20
152.8790592742
 10
78.5897332971
 20
152.9648716683
 10
78.6860738574
 20
153.0467002873
 10
78.7832541568
 20
153.1244103365
 10
78.8811066289
 20
153.1978698776
 10
78.9794652358
 20
153.2669564925
  0
LWPOLYLINE
  5
22B
100
AcDbEntity
  8
0
100
AcDbPolyline
 62
7
  6
CONTINUOUS
 90
49
 70
0
 10
77.6514923901
 20
120.3792574145
 10
77.6536222812
 20
120.2399188906
 10
77.6592969107
 20
120.1007524234
 10
77.6685162787
 20
119.9617580129
 10
77.6813697516
 20
119.8229243864
 10
77.6977679629
 20
119.6842628166
 10
77.7174428135
 20
119.5458071217
 10
77.7403487835
 20
119.4076056054
 10
77.7665313928
 20
119.269609964
 10
77.7958591025
 20
119.1317091047
 10
77.8282860873
 20
118.9939254059
 10
77.8638581726
 20
118.8562364891
 10
77.9025812953
 20
118.7184641268
 10
77.9444618484
 20
118.5804960939
 10
77.9894934391
 20
118.4424446154
 10
78.0376628252
 20
118.3044681387
 10
78.0890280583
 20
118.16642723
 10
78.143531087
 20
118.0284613232
 10
78.2009845141
 20
117.8911471675
 10
78.2613875869
 20
117.7545342894
 10
78.3247410582
 20
117.6185731623
 10
78.3908597899
 20
117.4836919562
 10
78.4597441255
 20
117.349912859
 10
78.5313937215
 20
117.2172136826
 10
78.6056224091
 20
117.0859560325
 10
78.6824928018
 20
116.9560689968
 10
78.7619422862
 20
116.8276234874
 10
78.8435968523
 20
116.7011938446
 10
78.9274649308
 20
116.5768165742
 10
79.0135380912
 20
116.4544551705
 10
79.1014170322
 20
116.3345744565
 10
79.1910547454
 20
116.2172605784
 10
79.2824982392
 20
116.1024273902
 10
79.3754892377
 20
115.9902812768
 10
79.4699393918
 20
115.8809091159
 10
79.5659370507
 20
115.77422403
 10
79.663488985
 20
115.670171771
 10
79.7625263621
 20
115.5687727774
 10
79.8631180148
 20
115.4700066109
 10
79.9654772124
 20
115.373757709
 10
80.0696059322
 20
115.2799643065
 10
80.175502197
 20
115.1886881686
 10
80.2833733452
 20
115.0999990284
 10
80.3932395988
 20
115.013827233
 10
80.5050807359
 20
114.9302424351
 10
80.6190434285
 20
114.8495233268
 10
80.7351765674
 20
114.7717628053
 10
80.8534312619
 20
114.6968679732
 10
80.973807512
 20
114.6248388306
  0
LINE
  5
22C
100
AcDbEntity
  8
0
100
AcDbLine
 62
7
  6
CONTINUOUS
 10
81.492557536
 20
143.5060703692
 11
81.492557536
 21
119.9882046462
  0
LWPOLYLINE
  5
22D
100
AcDbEntity
  8
0
100
AcDbPolyline
 62
7
  6
CONTINUOUS
 90
39
 70
0
 10
88.4327290004
 20
162.3580734238
 10
88.4365432514
 20
162.3821947871
 10
88.4578426652
 20
162.4892442123
 10
88.4830774311
 20
162.5932420873
 10
88.5122061017
 20
162.6942167625
 10
88.5451085998
 20
162.7915464482
 10
88.5818180263
 20
162.8851862457
 10
88.6223012803
 20
162.9751810537
 10
88.6663389824
 20
163.0610437787
 10
88.71394853
 20
163.1427230592
 10
88.7651125256
 20
163.2202702568
 10
88.8195593975
 20
163.2933523626
 10
88.8772806031
 20
163.3619228118
 10
88.938284685
 20
163.4260281693
 10
89.0023256997
 20
163.4854751212
 10
89.0694060909
 20
163.5402531544
 10
89.1395234149
 20
163.5903727821
 10
89.2124243961
 20
163.6356722301
 10
89.2881135755
 20
163.6761439813
 10
89.3665864121
 20
163.7117955529
 10
89.4475760073
 20
163.7424877217
 10
89.5310904758
 20
163.7682129937
 10
89.6171217029
 20
163.7889788629
 10
89.7053784464
 20
163.8046685887
 10
89.795905649
 20
163.8152660253
 10
89.888658368
 20
163.8207873185
 10
89.9832105328
 20
163.8211641645
 10
90.0795978493
 20
163.8163554869
 10
90.1777846115
 20
163.8064023622
 10
90.2772376315
 20
163.7913597166
 10
90.3779786046
 20
163.7711764977
 10
90.4799858355
 20
163.7459037579
 10
90.5826610499
 20
163.7157495808
 10
90.686007471
 20
163.6806642938
 10
90.7900218755
 20
163.6406975696
 10
90.8940963192
 20
163.5962065096
 10
90.9980281539
 20
163.5473101476
 10
91.1020200278
 20
163.4938894499
 10
91.2060719409
 20
163.4359444163
  0
LWPOLYLINE
  5
22E
100
AcDbEntity
  8
0
100
AcDbPolyline
 62
7
  6
CONTINUOUS
 90
49
 70
0
 10
81.4925587105
 20
119.9882048863
 10
81.461809449
 20
119.9255657303
 10
81.4337301176
 20
119.86371879
 10
81.4082847951
 20
119.8027246552
 10
81.3854707314
 20
119.7427143367
 10
81.3652191993
 20
119.6836743038
 10
81.347402028
 20
119.6254392123
 10
81.3319762008
 20
119.5680523844
 10
81.3189289375
 20
119.5115649374
 10
81.3081892899
 20
119.4558094529
 10
81.2997143686
 20
119.4008174211
 10
81.2935032191
 20
119.3466362329
 10
81.2895586042
 20
119.2931113916
 10
81.2878460452
 20
119.2402247577
 10
81.2883660328
 20
119.1880635968
 10
81.2911802345
 20
119.1366260648
 10
81.2962806106
 20
119.0858980098
 10
81.3036417997
 20
119.0359636053
 10
81.313299005
 20
118.9869689475
 10
81.3252410711
 20
118.9389755116
 10
81.3394391114
 20
118.8919969095
 10
81.3558994276
 20
118.8461087127
 10
81.3746053261
 20
118.8013593246
 10
81.3955311319
 20
118.7577764928
 10
81.4186689787
 20
118.7154050052
 10
81.444024763
 20
118.6742645447
 10
81.4715491323
 20
118.6344119241
 10
81.5011502801
 20
118.5959467133
 10
81.5328194696
 20
118.5589212017
 10
81.5665198551
 20
118.5233560116
 10
81.6021165237
 20
118.4893003595
 10
81.639573831
 20
118.4568127613
 10
81.6788826215
 20
118.4259004716
 10
81.719947939
 20
118.3965336714
 10
81.7627052724
 20
118.3687627608
 10
81.8071766901
 20
118.3425979857
 10
81.8533971633
 20
118.3179524292
 10
81.9012993847
 20
118.294858953
 10
81.9509085855
 20
118.2733496481
 10
82.0023965149
 20
118.2533475172
 10
82.0557233108
 20
118.2348765697
 10
82.1108821593
 20
118.2179935834
 10
82.1680898047
 20
118.202687074
 10
82.2273055152
 20
118.188995825
 10
82.2885144881
 20
118.1769826673
 10
82.3519657017
 20
118.1666910302
 10
82.4177178477
 20
118.1581822795
 10
82.485642601
 20
118.1515256621
 10
82.5557032285
 20
118.1467881519
  0
LWPOLYLINE
  5
22F
100
AcDbEntity
  8
0
100
AcDbPolyline
 62
7
  6
CONTINUOUS
 90
13
 70
0
 10
101.6776552224
 20
156.8967632769
 10
101.707299549
 20
156.9457087194
 10
101.7386364982
 20
156.9933908959
 10
101.7715392841
 20
157.0396168756
 10
101.8058748268
 20
157.0841996615
 10
101.8415041667
 20
157.1269588139
 10
101.8782830137
 20
157.1677212007
 10
101.916062455
 20
157.2063218113
 10
101.954689718
 20
157.2426045826
 10
101.9940086674
 20
157.2764228773
 10
102.0338602735
 20
157.3076398922
 10
102.0740832446
 20
157.3361292466
 10
102.1145148359
 20
157.361775649
  0
LWPOLYLINE
  5
230
100
AcDbEntity
  8
0
100
AcDbPolyline
 62
7
  6
CONTINUOUS
 90
8
 70
0
 10
102.3002735546
 20
157.5117850194
 10
102.3156042233
 20
157.5233361274
 10
102.32887278
 20
157.5336219495
 10
102.3403500992
 20
157.542794606
 10
102.350129446
 20
157.5509193424
 10
102.358238345
 20
157.5580119204
 10
102.3646352387
 20
157.5640396101
 10
102.3693119379
 20
157.568996749
  0
LINE
  5
231
100
AcDbEntity
  8
0
100
AcDbLine
 62
7
  6
CONTINUOUS
 10
102.1688455306
 20
157.416412664
 11
102.2051471854
 21
157.4427659127
  0
LWPOLYLINE
  5
232
100
AcDbEntity
  8
0
100
AcDbPolyline
 62
7
  6
CONTINUOUS
 90
4
 70
0
 10
102.2051471854
 20
157.4427659127
 10
102.2454546512
 20
157.4717126385
 10
102.2650330876
 20
157.4858665114
 10
102.3002735546
 20
157.5117850194
  0
LINE
  5
233
100
AcDbEntity
  8
0
100
AcDbLine
 62
7
  6
CONTINUOUS
 10
101.3549621783
 20
158.4420149912
 11
101.8789443888
 21
158.7413691725
  0
LINE
  5
234
100
AcDbEntity
  8
0
100
AcDbLine
 62
7
  6
CONTINUOUS
 10
102.3919499952
 20
158.0043549131
 11
102.7078226267
 21
158.184814843
  0
LWPOLYLINE
  5
235
100
AcDbEntity
  8
0
100
AcDbPolyline
 62
7
  6
CONTINUOUS
 90
13
 70
0
 10
101.8789443888
 20
158.7413691725
 10
101.9113242377
 20
158.7574414084
 10
101.9452873945
 20
158.7698543379
 10
101.9808338591
 20
158.7786079611
 10
102.0181176603
 20
158.7837100419
 10
102.0569847694
 20
158.7851528165
 10
102.0969730998
 20
158.7829129927
 10
102.1381060828
 20
158.7769478305
 10
102.1803602871
 20
158.76730007
 10
102.2232033314
 20
158.7540746392
 10
102.2664577552
 20
158.7373065142
 10
102.3103010189
 20
158.7169607189
 10
102.3547331226
 20
158.6930372535
  0
LWPOLYLINE
  5
236
100
AcDbEntity
  8
0
100
AcDbPolyline
 62
7
  6
CONTINUOUS
 90
11
 70
0
 10
87.0198915272
 20
161.7972853332
 10
87.021159281
 20
161.7401870278
 10
87.0249593057
 20
161.6846988411
 10
87.0312818816
 20
161.6309629015
 10
87.0401108338
 20
161.5791168217
 10
87.0514235591
 20
161.5292934356
 10
87.0651910695
 20
161.4816204457
 10
87.0813780927
 20
161.436219982
 10
87.0999431766
 20
161.3932083005
 10
87.1208387708
 20
161.3526955668
 10
87.1383235616
 20
161.3240906969
  0
LINE
  5
237
100
AcDbEntity
  8
0
100
AcDbLine
 62
7
  6
CONTINUOUS
 10
84.6050827065
 20
167.3308331067
 11
84.6050827065
 21
159.3005150776
  0
LINE
  5
238
100
AcDbEntity
  8
0
100
AcDbLine
 62
7
  6
CONTINUOUS
 10
85.0737118566
 20
166.6775937574
 11
85.0737118566
 21
159.674860265
  0
LINE
  5
239
100
AcDbEntity
  8
0
100
AcDbLine
 62
7
  6
CONTINUOUS
 10
85.6076160953
 20
160.1013477813
 11
85.6076160953
 21
160.9820128023
  0
LINE
  5
23A
100
AcDbEntity
  8
0
100
AcDbLine
 62
7
  6
CONTINUOUS
 10
86.0353206298
 20
122.6110016544
 11
86.0353206298
 21
141.7427880244
  0
LINE
  5
23B
100
AcDbEntity
  8
0
100
AcDbLine
 62
7
  6
CONTINUOUS
 10
87.8428806985
 20
122.4269757916
 11
87.8428806985
 21
140.6991254948
  0
LWPOLYLINE
  5
23C
100
AcDbEntity
  8
0
100
AcDbPolyline
 62
7
  6
CONTINUOUS
 90
34
 70
0
 10
85.6076160953
 20
160.9820128023
 10
85.6090853685
 20
161.0571827033
 10
85.6136852079
 20
161.1304174263
 10
85.6214156135
 20
161.2017169713
 10
85.6322654454
 20
161.2712780421
 10
85.6462458435
 20
161.3389039348
 10
85.6633902273
 20
161.4040045383
 10
85.6837758475
 20
161.4666281836
 10
85.7073254534
 20
161.5267265395
 10
85.7338407121
 20
161.5835645015
 10
85.7633633979
 20
161.6370397921
 10
85.7958517367
 20
161.6872546887
 10
85.8309820722
 20
161.7337809195
 10
85.86874247
 20
161.7765344319
 10
85.9091448647
 20
161.8155992784
 10
85.9519014036
 20
161.850799345
 10
85.9969878873
 20
161.8821127683
 10
86.0444285153
 20
161.9095614118
 10
86.094008034
 20
161.9330347513
 10
86.1457423066
 20
161.9525430729
 10
86.1996154698
 20
161.9680760905
 10
86.2553646803
 20
161.979492422
 10
86.3130599608
 20
161.986772915
 10
86.3726312885
 20
161.9899367219
 10
86.4336057516
 20
161.9888999177
 10
86.4960521922
 20
161.9835880331
 10
86.5599017682
 20
161.9740755373
 10
86.6244750412
 20
161.9605019141
 10
86.6897626395
 20
161.9427940331
 10
86.7557739347
 20
161.9210250247
 10
86.8218576034
 20
161.895553763
 10
86.8877965378
 20
161.8664998729
 10
86.9538078457
 20
161.8337437297
 10
87.0198915272
 20
161.7972853332
  0
LWPOLYLINE
  5
23D
100
AcDbEntity
  8
0
100
AcDbPolyline
 62
7
  6
CONTINUOUS
 90
28
 70
0
 10
90.5566314018
 20
169.842750917
 10
90.5584200553
 20
169.9172120969
 10
90.5637803604
 20
169.9935033286
 10
90.5726953682
 20
170.0713833852
 10
90.5851368901
 20
170.1506060158
 10
90.601065587
 20
170.2309207248
 10
90.6204310935
 20
170.3120735632
 10
90.6431721775
 20
170.393807932
 10
90.6692169334
 20
170.4758653935
 10
90.6984830098
 20
170.5579864884
 10
90.7308778695
 20
170.6399115561
 10
90.7662990825
 20
170.721381556
 10
90.8046346498
 20
170.802138886
 10
90.8457633571
 20
170.8819281979
 10
90.8895551588
 20
170.9604972039
 10
90.9358715884
 20
171.0375974748
 10
90.9845661971
 20
171.1129852255
 10
91.0354850161
 20
171.1864220859
 10
91.0884670441
 20
171.2576758541
 10
91.143344756
 20
171.3265212313
 10
91.1999446327
 20
171.3927405337
 10
91.2580877099
 20
171.4561243811
 10
91.3175901436
 20
171.5164723586
 10
91.3782637916
 20
171.5735936507
 10
91.4399168087
 20
171.6273076441
 10
91.5023542528
 20
171.6774444995
 10
91.5653787015
 20
171.723845688
 10
91.6287908764
 20
171.7663644926
  0
LWPOLYLINE
  5
23E
100
AcDbEntity
  8
0
100
AcDbPolyline
 62
7
  6
CONTINUOUS
 90
22
 70
0
 10
87.8428806985
 20
122.4269757916
 10
87.8409653852
 20
122.349888233
 10
87.8352259818
 20
122.2708504629
 10
87.8256819977
 20
122.1901301225
 10
87.8123658492
 20
122.1080006832
 10
87.7953226831
 20
122.0247400972
 10
87.7746101599
 20
121.9406298389
 10
87.7502982348
 20
121.8559540693
 10
87.7224693721
 20
121.7710000736
 10
87.691218345
 20
121.6860568635
 10
87.6566516185
 20
121.6014131336
 10
87.618885993
 20
121.517354273
 10
87.5780484794
 20
121.4341628422
 10
87.5342759378
 20
121.3521180806
 10
87.4877176697
 20
121.271500239
 10
87.4385345221
 20
121.1925873315
 10
87.3868867741
 20
121.1156365917
 10
87.3329557447
 20
121.0409182365
 10
87.2769496635
 20
120.9687162156
 10
87.2190696474
 20
120.8992808391
 10
87.1595057829
 20
120.8328314769
 10
87.0984614689
 20
120.7695877075
  0
LWPOLYLINE
  5
23F
100
AcDbEntity
  8
0
100
AcDbPolyline
 62
7
  6
CONTINUOUS
 90
19
 70
0
 10
92.6779517453
 20
172.4743651272
 10
92.677826022
 20
172.4708528463
 10
92.6774497464
 20
172.4672203626
 10
92.6768255943
 20
172.4634935102
 10
92.6759580049
 20
172.4596987945
 10
92.6748531484
 20
172.4558632034
 10
92.6735188826
 20
172.4520140156
 10
92.6719646966
 20
172.4481786064
 10
92.6702016438
 20
172.4443842532
 10
92.6682422631
 20
172.4406579413
 10
92.6661004895
 20
172.4370261723
 10
92.6637915552
 20
172.4335147752
 10
92.6613318815
 20
172.430148723
 10
92.6587389614
 20
172.4269519549
 10
92.6560312357
 20
172.4239472065
 10
92.6532279617
 20
172.4211558473
 10
92.6503490763
 20
172.4185977295
 10
92.6474150541
 20
172.4162910464
 10
92.6444467617
 20
172.414252203
  0
LWPOLYLINE
  5
240
100
AcDbEntity
  8
0
100
AcDbPolyline
 62
7
  6
CONTINUOUS
 90
13
 70
0
 10
106.5494002183
 20
154.0838787735
 10
106.5790443089
 20
154.1328235484
 10
106.6103810206
 20
154.18050523
 10
106.6432835834
 20
154.2267308832
 10
106.6776189267
 20
154.2713135157
 10
106.7132481084
 20
154.3140726645
 10
106.7500268617
 20
154.3548351483
 10
106.7878062809
 20
154.3934359438
 10
106.8264335979
 20
154.4297189733
 10
106.8657526908
 20
154.463537551
 10
106.9056045335
 20
154.4947548492
 10
106.9458278297
 20
154.5232444832
 10
106.9862598318
 20
154.5488911456
  0
LINE
  5
241
100
AcDbEntity
  8
0
100
AcDbLine
 62
7
  6
CONTINUOUS
 10
107.0531171324
 20
154.5963725775
 11
106.9862598318
 21
154.5488911456
  0
LWPOLYLINE
  5
242
100
AcDbEntity
  8
0
100
AcDbPolyline
 62
7
  6
CONTINUOUS
 90
3
 70
0
 10
107.0572321609
 20
154.5817989736
 10
107.0502816323
 20
154.5773832049
 10
107.0355364462
 20
154.5683692357
  0
LWPOLYLINE
  5
243
100
AcDbEntity
  8
0
100
AcDbPolyline
 62
7
  6
CONTINUOUS
 90
3
 70
0
 10
106.4621687759
 20
155.9353935949
 10
106.458392789
 20
155.9330867193
 10
106.4570053769
 20
155.9321632525
  0
LWPOLYLINE
  5
244
100
AcDbEntity
  8
0
100
AcDbPolyline
 62
7
  6
CONTINUOUS
 90
3
 70
0
 10
106.9861509609
 20
155.0309578787
 10
106.9823749845
 20
155.0286510103
 10
106.9809875841
 20
155.0277275515
  0
LINE
  5
245
100
AcDbEntity
  8
0
100
AcDbLine
 62
7
  6
CONTINUOUS
 10
106.4768327606
 20
155.9441249901
 11
106.4621687759
 21
155.9353935949
  0
LINE
  5
246
100
AcDbEntity
  8
0
100
AcDbLine
 62
7
  6
CONTINUOUS
 10
107.0008149296
 20
155.0396892629
 11
106.9861509609
 21
155.0309578787
  0
LWPOLYLINE
  5
247
100
AcDbEntity
  8
0
100
AcDbPolyline
 62
7
  6
CONTINUOUS
 90
9
 70
0
 10
107.0355364462
 20
154.5683692357
 10
107.0226458929
 20
154.56083097
 10
107.0117376521
 20
154.5548349574
 10
107.0029556868
 20
154.5504459031
 10
106.9961824519
 20
154.5475555643
 10
106.9911473589
 20
154.5459830134
 10
106.9877642658
 20
154.5456625639
 10
106.9861332109
 20
154.5466359925
 10
106.9862598318
 20
154.5488911456
  0
LINE
  5
248
100
AcDbEntity
  8
0
100
AcDbLine
 62
7
  6
CONTINUOUS
 10
106.5535950692
 20
155.9891543434
 11
106.4768327606
 21
155.9441249901
  0
LINE
  5
249
100
AcDbEntity
  8
0
100
AcDbLine
 62
7
  6
CONTINUOUS
 10
107.0775772479
 20
155.0847186238
 11
107.0008149296
 21
155.0396892629
  0
LINE
  5
24A
100
AcDbEntity
  8
0
100
AcDbLine
 62
7
  6
CONTINUOUS
 10
106.5993508466
 20
156.0158656443
 11
106.5535950692
 21
155.9891543434
  0
LINE
  5
24B
100
AcDbEntity
  8
0
100
AcDbLine
 62
7
  6
CONTINUOUS
 10
107.1233330571
 20
155.1114299404
 11
107.0775772479
 21
155.0847186238
  0
LWPOLYLINE
  5
24C
100
AcDbEntity
  8
0
100
AcDbPolyline
 62
7
  6
CONTINUOUS
 90
7
 70
0
 10
105.4465529181
 20
156.412132198
 10
105.4627995386
 20
156.4209382947
 10
105.4914297095
 20
156.4398465404
 10
105.5181275968
 20
156.4620933416
 10
105.5427783831
 20
156.4875830233
 10
105.5652760553
 20
156.5162059644
 10
105.574039531
 20
156.5298971247
  0
LINE
  5
24D
100
AcDbEntity
  8
0
100
AcDbLine
 62
7
  6
CONTINUOUS
 10
103.1202052691
 20
157.9467102737
 11
102.3693119379
 21
157.568996749
  0
LINE
  5
24E
100
AcDbEntity
  8
0
100
AcDbLine
 62
7
  6
CONTINUOUS
 10
103.1933752819
 20
157.9044628254
 11
102.1145148359
 21
157.361775649
  0
LINE
  5
24F
100
AcDbEntity
  8
0
100
AcDbLine
 62
7
  6
CONTINUOUS
 10
105.4465529215
 20
156.4121321911
 11
105.6236981333
 21
156.5012248701
  0
LINE
  5
250
100
AcDbEntity
  8
0
100
AcDbLine
 62
7
  6
CONTINUOUS
 10
102.3919499952
 20
158.0043549131
 11
102.7397186001
 21
158.1663985078
  0
LINE
  5
251
100
AcDbEntity
  8
0
100
AcDbLine
 62
7
  6
CONTINUOUS
 10
102.3723641294
 20
157.9772214836
 11
102.7569779335
 21
158.1564331849
  0
LWPOLYLINE
  5
252
100
AcDbEntity
  8
0
100
AcDbPolyline
 62
7
  6
CONTINUOUS
 90
17
 70
0
 10
105.4465527648
 20
156.412132121
 10
105.3945562151
 20
156.388020183
 10
105.3408410453
 20
156.3671648831
 10
105.2856569589
 20
156.3497208743
 10
105.2293299303
 20
156.3358308955
 10
105.1720808313
 20
156.3255776952
 10
105.1140122186
 20
156.3190213096
 10
105.0553864514
 20
156.3162434127
 10
104.9965369127
 20
156.3173010144
 10
104.9376661365
 20
156.3222282294
 10
104.8790427534
 20
156.3310443912
 10
104.8210094592
 20
156.3437305957
 10
104.7638507208
 20
156.3602463626
 10
104.7077990184
 20
156.3805462551
 10
104.6531749058
 20
156.4045311553
 10
104.6003220873
 20
156.4320471226
 10
104.5920828386
 20
156.4367469241
  0
LWPOLYLINE
  5
253
100
AcDbEntity
  8
0
100
AcDbPolyline
 62
7
  6
CONTINUOUS
 90
3
 70
0
 10
102.2932649394
 20
157.6252805132
 10
102.3336291871
 20
157.6417684274
 10
102.3723641294
 20
157.6595112654
  0
LINE
  5
254
100
AcDbEntity
  8
0
100
AcDbLine
 62
7
  6
CONTINUOUS
 10
102.2513931911
 20
157.6100973037
 11
102.2932649394
 21
157.6252805132
  0
LINE
  5
255
100
AcDbEntity
  8
0
100
AcDbLine
 62
7
  6
CONTINUOUS
 10
102.208140234
 20
157.5962646235
 11
102.2513931911
 21
157.6100973037
  0
LWPOLYLINE
  5
256
100
AcDbEntity
  8
0
100
AcDbPolyline
 62
7
  6
CONTINUOUS
 90
4
 70
0
 10
102.2736759344
 20
157.535641039
 10
102.2904009634
 20
157.5407404226
 10
102.3306714718
 20
157.5542455274
 10
102.3693119227
 20
157.5689970001
  0
LINE
  5
257
100
AcDbEntity
  8
0
100
AcDbLine
 62
7
  6
CONTINUOUS
 10
102.2736765253
 20
157.5356406187
 11
102.2715102429
 21
157.535004418
  0
LINE
  5
258
100
AcDbEntity
  8
0
100
AcDbLine
 62
7
  6
CONTINUOUS
 10
102.2715102429
 20
157.535004418
 11
102.268134333
 21
157.5340354994
  0
LWPOLYLINE
  5
259
100
AcDbEntity
  8
0
100
AcDbPolyline
 62
7
  6
CONTINUOUS
 90
25
 70
0
 10
104.4057284665
 20
156.8486985604
 10
104.41465528
 20
156.8894288873
 10
104.4258047568
 20
156.9280118107
 10
104.4391768968
 20
156.9644473307
 10
104.4548569227
 20
156.9988905361
 10
104.4727596118
 20
157.031186338
 10
104.4926292965
 20
157.0608694701
 10
104.5144682761
 20
157.0878457414
 10
104.5382742513
 20
157.1122093429
 10
104.5637846569
 20
157.1337775805
 10
104.5909750046
 20
157.1525217014
 10
104.6198697827
 20
157.1684704583
 10
104.6502798905
 20
157.1815274157
 10
104.6822307177
 20
157.1916997055
 10
104.7156968746
 20
157.1989801957
 10
104.7504130922
 20
157.2032510546
 10
104.786454533
 20
157.2044728541
 10
104.8237460346
 20
157.2026850223
 10
104.8617968404
 20
157.1978880118
 10
104.9006381386
 20
157.1900022666
 10
104.940238741
 20
157.1791073427
 10
104.9800143275
 20
157.1654423611
 10
105.0197701245
 20
157.1490870287
 10
105.0597009056
 20
157.1299616385
 10
105.0998066708
 20
157.1080661906
  0
LWPOLYLINE
  5
25A
100
AcDbEntity
  8
0
100
AcDbPolyline
 62
7
  6
CONTINUOUS
 90
31
 70
0
 10
82.555698375
 20
118.1467885094
 10
82.4644021535
 20
118.0532574231
 10
82.3746208529
 20
117.9563430504
 10
82.2865033525
 20
117.8562060995
 10
82.2001957728
 20
117.7530126233
 10
82.1158412321
 20
117.6469337408
 10
82.0335796094
 20
117.5381453527
 10
81.9535473141
 20
117.426827855
 10
81.8758770595
 20
117.3131658409
 10
81.800697642
 20
117.1973477894
 10
81.7281337273
 20
117.0795657553
 10
81.658305644
 20
116.9600150498
 10
81.5913291839
 20
116.8388939172
 10
81.5273154104
 20
116.7164032058
 10
81.4663704738
 20
116.592746035
 10
81.4085954357
 20
116.4681274586
 10
81.3540861013
 20
116.3427541244
 10
81.3029328602
 20
116.216833932
 10
81.2552205368
 20
116.0905756879
 10
81.2110282499
 20
115.9641887588
 10
81.170429281
 20
115.8378827252
 10
81.1334909531
 20
115.7118670331
 10
81.100274519
 20
115.5863506471
 10
81.0708350595
 20
115.4615417041
 10
81.0452213926
 20
115.3376471676
 10
81.0234759905
 20
115.2148724815
 10
81.0056349141
 20
115.0934212397
 10
80.991727751
 20
114.9734948478
 10
80.9817775626
 20
114.8552921757
 10
80.9758008463
 20
114.7390092284
 10
80.973807512
 20
114.6248388306
  0
LWPOLYLINE
  5
25B
100
AcDbEntity
  8
0
100
AcDbPolyline
 62
7
  6
CONTINUOUS
 90
14
 70
0
 10
102.3547331226
 20
158.6930372535
 10
102.356065595
 20
158.6462801109
 10
102.3600574323
 20
158.6012574728
 10
102.3666919183
 20
158.558157874
 10
102.3759412706
 20
158.5171617966
 10
102.3877667569
 20
158.4784409137
 10
102.4021188575
 20
158.4421573706
 10
102.4189374721
 20
158.4084631064
 10
102.4381521719
 20
158.3774992181
 10
102.4596824942
 20
158.3493953685
 10
102.4834382795
 20
158.3242692442
 10
102.5093200492
 20
158.3022260623
 10
102.5372194219
 20
158.2833581296
 10
102.5411074816
 20
158.2810740784
  0
LWPOLYLINE
  5
25C
100
AcDbEntity
  8
0
100
AcDbPolyline
 62
7
  6
CONTINUOUS
 90
13
 70
0
 10
101.1574591776
 20
158.0078483642
 10
101.1589620973
 20
158.058111481
 10
101.1632849814
 20
158.1060770392
 10
101.1704278298
 20
158.1517450386
 10
101.1804460853
 20
158.1952855871
 10
101.1932843052
 20
158.2365285769
 10
101.208776161
 20
158.2749636846
 10
101.2269461662
 20
158.3105531418
 10
101.2477698073
 20
158.343334717
 10
101.271007216
 20
158.3729113913
 10
101.2965784359
 20
158.3991508254
 10
101.3245634233
 20
158.4221853587
 10
101.3549621783
 20
158.4420149912
  0
LWPOLYLINE
  5
25D
100
AcDbEntity
  8
0
100
AcDbPolyline
 62
7
  6
CONTINUOUS
 90
10
 70
0
 10
102.3693119379
 20
157.568996749
 10
102.3699535534
 20
157.5792250096
 10
102.3705192672
 20
157.589410645
 10
102.3710090794
 20
157.5995536553
 10
102.3714226155
 20
157.6096542377
 10
102.3717602499
 20
157.619712195
 10
102.3720231062
 20
157.6297269355
 10
102.3722115587
 20
157.6396982622
 10
102.3723252332
 20
157.6496263722
 10
102.3723641294
 20
157.9772214836
  0
LWPOLYLINE
  5
25E
100
AcDbEntity
  8
0
100
AcDbPolyline
 62
7
  6
CONTINUOUS
 90
10
 70
0
 10
101.1560909714
 20
157.6540174057
 10
101.1563791743
 20
157.6580957799
 10
101.1566331
 20
157.6621584259
 10
101.156852841
 20
157.6662051283
 10
101.1570384788
 20
157.6702357003
 10
101.1571901221
 20
157.6742499065
 10
101.157307908
 20
157.6782474635
 10
101.1573919506
 20
157.6822281426
 10
101.1574423391
 20
157.6861917692
 10
101.1574591776
 20
158.0078483642
  0
LINE
  5
25F
100
AcDbEntity
  8
0
100
AcDbLine
 62
7
  6
CONTINUOUS
 10
107.0572461353
 20
154.4660977635
 11
107.057306344
 21
154.466936732
  0
LINE
  5
260
100
AcDbEntity
  8
0
100
AcDbLine
 62
7
  6
CONTINUOUS
 10
107.0573690293
 20
154.4677759803
 11
107.0574341965
 21
154.4686155036
  0
LINE
  5
261
100
AcDbEntity
  8
0
100
AcDbLine
 62
7
  6
CONTINUOUS
 10
107.0575018585
 20
154.4694553838
 11
107.0575720215
 21
154.470295615
  0
LINE
  5
262
100
AcDbEntity
  8
0
100
AcDbLine
 62
7
  6
CONTINUOUS
 10
107.0576446919
 20
154.4711361923
 11
107.0577198841
 21
154.4719771982
  0
LINE
  5
263
100
AcDbEntity
  8
0
100
AcDbLine
 62
7
  6
CONTINUOUS
 10
107.0577976053
 20
154.4728186267
 11
107.0578778628
 21
154.4736604725
  0
LWPOLYLINE
  5
264
100
AcDbEntity
  8
0
100
AcDbPolyline
 62
7
  6
CONTINUOUS
 90
37
 70
0
 10
107.3199589503
 20
154.0950772861
 10
107.3186557402
 20
154.0817862514
 10
107.3158585559
 20
154.0688930902
 10
107.3115586231
 20
154.0564033479
 10
107.3058107956
 20
154.0443123762
 10
107.2985442868
 20
154.0326383783
 10
107.2895575018
 20
154.0214206093
 10
107.2788375244
 20
154.0106088189
 10
107.2663700386
 20
154.0002678815
 10
107.2519524028
 20
153.9906110605
 10
107.2355163817
 20
153.9816492557
 10
107.21711651
 20
153.9733951639
 10
107.1967517328
 20
153.9660687883
 10
107.1743184008
 20
153.9596895989
 10
107.1499308257
 20
153.954267143
 10
107.1239468619
 20
153.9500080795
 10
107.0962352781
 20
153.9469739416
 10
107.0669773787
 20
153.9451272179
 10
107.0370422958
 20
153.9445207998
 10
107.0065098605
 20
153.9452324297
 10
106.975388668
 20
153.947188103
 10
106.9444685534
 20
153.9502040654
 10
106.9139737812
 20
153.9542830422
 10
106.883762098
 20
153.9594083961
 10
106.8540735909
 20
153.9653636652
 10
106.8249702651
 20
153.9721391305
 10
106.7964420714
 20
153.9797281379
 10
106.768611191
 20
153.987920483
 10
106.7415113471
 20
153.9966938461
 10
106.7151386237
 20
154.0060576945
 10
106.6895513244
 20
154.0158520353
 10
106.66490581
 20
154.0259945839
 10
106.6410612106
 20
154.0365596178
 10
106.6176252391
 20
154.0476241841
 10
106.5944687067
 20
154.0592130571
 10
106.5717265533
 20
154.0712981995
 10
106.5494002183
 20
154.0838787735
  0
LINE
  5
265
100
AcDbEntity
  8
0
100
AcDbLine
 62
7
  6
CONTINUOUS
 10
107.0579606727
 20
154.4745028188
 11
107.0580460431
 21
154.4753456593
  0
LINE
  5
266
100
AcDbEntity
  8
0
100
AcDbLine
 62
7
  6
CONTINUOUS
 10
107.058133982
 20
154.4761889884
 11
107.0582245075
 21
154.47703289
  0
LINE
  5
267
100
AcDbEntity
  8
0
100
AcDbLine
 62
7
  6
CONTINUOUS
 10
107.0583176285
 20
154.4778773574
 11
107.0584133539
 21
154.4787223847
  0
LINE
  5
268
100
AcDbEntity
  8
0
100
AcDbLine
 62
7
  6
CONTINUOUS
 10
107.0588226089
 20
154.4821089651
 11
107.0589315788
 21
154.4829573325
  0
LINE
  5
269
100
AcDbEntity
  8
0
100
AcDbLine
 62
7
  6
CONTINUOUS
 10
107.059043236
 20
154.4838064029
 11
107.0591576042
 21
154.4846562631
  0
LINE
  5
26A
100
AcDbEntity
  8
0
100
AcDbLine
 62
7
  6
CONTINUOUS
 10
107.0592746949
 20
154.485506905
 11
107.05939452
 21
154.486358322
  0
LINE
  5
26B
100
AcDbEntity
  8
0
100
AcDbLine
 62
7
  6
CONTINUOUS
 10
107.0595171052
 20
154.4872106023
 11
107.0596424632
 21
154.4880637373
  0
LINE
  5
26C
100
AcDbEntity
  8
0
100
AcDbLine
 62
7
  6
CONTINUOUS
 10
107.0597706066
 20
154.48891772
 11
107.0598140063
 21
154.4892010443
  0
LWPOLYLINE
  5
26D
100
AcDbEntity
  8
0
100
AcDbPolyline
 62
7
  6
CONTINUOUS
 90
4
 70
0
 10
107.0568070544
 20
154.8231611071
 10
107.0571457933
 20
154.8188027297
 10
107.0572279765
 20
154.8168686477
 10
107.0572321493
 20
154.8166687543
  0
LINE
  5
26E
100
AcDbEntity
  8
0
100
AcDbLine
 62
7
  6
CONTINUOUS
 10
107.059506484
 20
154.4620092663
 11
107.0573496918
 21
154.4905309113
  0
LINE
  5
26F
100
AcDbEntity
  8
0
100
AcDbLine
 62
7
  6
CONTINUOUS
 10
107.0573035225
 20
154.4243250188
 11
107.0572452944
 21
154.4251432238
  0
LINE
  5
270
100
AcDbEntity
  8
0
100
AcDbLine
 62
7
  6
CONTINUOUS
 10
107.057189228
 20
154.4259632706
 11
107.0571353505
 21
154.4267849494
  0
LINE
  5
271
100
AcDbEntity
  8
0
100
AcDbLine
 62
7
  6
CONTINUOUS
 10
107.0570836747
 20
154.4276082549
 11
107.0570342134
 21
154.4284331845
  0
LINE
  5
272
100
AcDbEntity
  8
0
100
AcDbLine
 62
7
  6
CONTINUOUS
 10
107.0569869904
 20
154.4292595324
 11
107.0569420172
 21
154.4300872935
  0
LINE
  5
273
100
AcDbEntity
  8
0
100
AcDbLine
 62
7
  6
CONTINUOUS
 10
107.0568993048
 20
154.4309164649
 11
107.056858874
 21
154.4317468444
  0
LINE
  5
274
100
AcDbEntity
  8
0
100
AcDbLine
 62
7
  6
CONTINUOUS
 10
107.0568207347
 20
154.4325784269
 11
107.0567848964
 21
154.4334112094
  0
LINE
  5
275
100
AcDbEntity
  8
0
100
AcDbLine
 62
7
  6
CONTINUOUS
 10
107.0567513768
 20
154.434244993
 11
107.056720184
 21
154.4350797727
  0
LINE
  5
276
100
AcDbEntity
  8
0
100
AcDbLine
 62
7
  6
CONTINUOUS
 10
107.0566913265
 20
154.4359155453
 11
107.0566648185
 21
154.4367521147
  0
LWPOLYLINE
  5
277
100
AcDbEntity
  8
0
100
AcDbPolyline
 62
7
  6
CONTINUOUS
 90
14
 70
0
 10
103.3784885646
 20
158.1019336919
 10
103.3798210297
 20
158.0551766849
 10
103.3838128506
 20
158.0101541149
 10
103.3904473217
 20
157.967054523
 10
103.399696676
 20
157.9260583784
 10
103.4115221885
 20
157.8873373858
 10
103.4258743249
 20
157.851053755
 10
103.4426929734
 20
157.8173594409
 10
103.4619077097
 20
157.7863955196
 10
103.4834380692
 20
157.7582916522
 10
103.5071938903
 20
157.7331655234
 10
103.5330756925
 20
157.7111223481
 10
103.5609750934
 20
157.692254431
 10
103.5648629282
 20
157.6899705142
  0
LWPOLYLINE
  5
278
100
AcDbEntity
  8
0
100
AcDbPolyline
 62
7
  6
CONTINUOUS
 90
14
 70
0
 10
105.0998066708
 20
157.1080661906
 10
105.1011391263
 20
157.0613093301
 10
105.1051309228
 20
157.0162868812
 10
105.111765357
 20
156.9731873847
 10
105.121014665
 20
156.9321913105
 10
105.1328401245
 20
156.8934703645
 10
105.1471922037
 20
156.8571867581
 10
105.1640107935
 20
156.823492448
 10
105.1832254723
 20
156.7925285125
 10
105.2047557775
 20
156.7644246154
 10
105.2285115502
 20
156.7392984439
 10
105.2543933119
 20
156.7172552159
 10
105.2822926813
 20
156.6983872393
 10
105.286181026
 20
156.6961030177
  0
LWPOLYLINE
  5
279
100
AcDbEntity
  8
0
100
AcDbPolyline
 62
7
  6
CONTINUOUS
 90
14
 70
0
 10
106.1235621128
 20
156.516962629
 10
106.1248945851
 20
156.4702054877
 10
106.1288864222
 20
156.4251828507
 10
106.1355209079
 20
156.3820832528
 10
106.1447702598
 20
156.3410871761
 10
106.1565957456
 20
156.3023662936
 10
106.1709478457
 20
156.2660827506
 10
106.1877664598
 20
156.2323884865
 10
106.2069811591
 20
156.201424598
 10
106.2285114809
 20
156.1733207482
 10
106.2522672657
 20
156.1481946236
 10
106.2781490351
 20
156.1261514411
 10
106.3060484075
 20
156.107283508
 10
106.3099299125
 20
156.1050032413
  0
LWPOLYLINE
  5
27A
100
AcDbEntity
  8
0
100
AcDbPolyline
 62
7
  6
CONTINUOUS
 90
13
 70
0
 10
104.0725667751
 20
157.0410619434
 10
104.0738703916
 20
156.9948050098
 10
104.0777762033
 20
156.95024046
 10
104.084268654
 20
156.9075511985
 10
104.0933217112
 20
156.8669120033
 10
104.1048986452
 20
156.8284903429
 10
104.1189518624
 20
156.7924454014
 10
104.1354236879
 20
156.7589254723
 10
104.1542469038
 20
156.7280676541
 10
104.1753444776
 20
156.6999986174
 10
104.1986308117
 20
156.6748328579
 10
104.224009939
 20
156.652674644
 10
104.2513752627
 20
156.6336166471
  0
LWPOLYLINE
  5
27B
100
AcDbEntity
  8
0
100
AcDbPolyline
 62
7
  6
CONTINUOUS
 90
14
 70
0
 10
104.4057284603
 20
156.8486985619
 10
104.4070320784
 20
156.8024416253
 10
104.4109378914
 20
156.7578770741
 10
104.4174303429
 20
156.7151878125
 10
104.4264834001
 20
156.6745486191
 10
104.4380603331
 20
156.6361269615
 10
104.452113549
 20
156.6000820223
 10
104.4685853732
 20
156.5665620947
 10
104.4874085877
 20
156.5357042774
 10
104.5085061601
 20
156.5076352411
 10
104.531792493
 20
156.4824694815
 10
104.5571716192
 20
156.4603112671
 10
104.5845369421
 20
156.4412532692
 10
104.5920828386
 20
156.4367469291
  0
LINE
  5
27C
100
AcDbEntity
  8
0
100
AcDbLine
 62
7
  6
CONTINUOUS
 10
107.0566406669
 20
154.4375894761
 11
107.0566188786
 21
154.4384276263
  0
LINE
  5
27D
100
AcDbEntity
  8
0
100
AcDbLine
 62
7
  6
CONTINUOUS
 10
107.0565994647
 20
154.4392663714
 11
107.0565824292
 21
154.4401057827
  0
LINE
  5
27E
100
AcDbEntity
  8
0
100
AcDbLine
 62
7
  6
CONTINUOUS
 10
107.0565677795
 20
154.4409457809
 11
107.0565555266
 21
154.4417859481
  0
LINE
  5
27F
100
AcDbEntity
  8
0
100
AcDbLine
 62
7
  6
CONTINUOUS
 10
107.0573496918
 20
154.4905309113
 11
107.057232161
 21
154.4989209837
  0
LINE
  5
280
100
AcDbEntity
  8
0
100
AcDbLine
 62
7
  6
CONTINUOUS
 10
107.0565456723
 20
154.442626297
 11
107.0565382192
 21
154.443466808
  0
LINE
  5
281
100
AcDbEntity
  8
0
100
AcDbLine
 62
7
  6
CONTINUOUS
 10
107.0565331714
 20
154.4443070156
 11
107.0565305276
 21
154.4451467441
  0
LINE
  5
282
100
AcDbEntity
  8
0
100
AcDbLine
 62
7
  6
CONTINUOUS
 10
107.0572321609
 20
154.8166389327
 11
107.0572321609
 21
154.49892871
  0
LINE
  5
283
100
AcDbEntity
  8
0
100
AcDbLine
 62
7
  6
CONTINUOUS
 10
107.0565302848
 20
154.4459861639
 11
107.0565324417
 21
154.446825329
  0
LWPOLYLINE
  5
284
100
AcDbEntity
  8
0
100
AcDbPolyline
 62
7
  6
CONTINUOUS
 90
10
 70
0
 10
107.3208360578
 20
154.4491917988
 10
107.3208254485
 20
154.1275316077
 10
107.3207933532
 20
154.123557419
 10
107.320739668
 20
154.119559212
 10
107.3206642764
 20
154.1155371767
 10
107.3205670916
 20
154.1114915263
 10
107.3204480574
 20
154.1074224978
 10
107.320307092
 20
154.1033303112
 10
107.3201440872
 20
154.0992151688
 10
107.3199589503
 20
154.0950772861
  0
LWPOLYLINE
  5
285
100
AcDbEntity
  8
0
100
AcDbPolyline
 62
7
  6
CONTINUOUS
 90
5
 70
0
 10
107.0572328851
 20
154.4989209837
 10
107.057176123
 20
154.4902431106
 10
107.0569341723
 20
154.4787578021
 10
107.0564848465
 20
154.4666037645
 10
107.0560496399
 20
154.4579243128
  0
LINE
  5
286
100
AcDbEntity
  8
0
100
AcDbLine
 62
7
  6
CONTINUOUS
 10
107.0565650492
 20
154.4501795732
 11
107.0565791944
 21
154.4510176239
  0
LINE
  5
287
100
AcDbEntity
  8
0
100
AcDbLine
 62
7
  6
CONTINUOUS
 10
107.0565957382
 20
154.4518555444
 11
107.0566146811
 21
154.4526933303
  0
LINE
  5
288
100
AcDbEntity
  8
0
100
AcDbLine
 62
7
  6
CONTINUOUS
 10
107.0566360236
 20
154.4535309791
 11
107.0566597687
 21
154.4543685626
  0
LINE
  5
289
100
AcDbEntity
  8
0
100
AcDbLine
 62
7
  6
CONTINUOUS
 10
107.0566859177
 20
154.4552060758
 11
107.0567144718
 21
154.4560435164
  0
LINE
  5
28A
100
AcDbEntity
  8
0
100
AcDbLine
 62
7
  6
CONTINUOUS
 10
107.0567454357
 20
154.45688096
 11
107.0567788114
 21
154.4577184019
  0
LINE
  5
28B
100
AcDbEntity
  8
0
100
AcDbLine
 62
7
  6
CONTINUOUS
 10
107.0568146011
 20
154.4585558389
 11
107.056852811
 21
154.4593933484
  0
LINE
  5
28C
100
AcDbEntity
  8
0
100
AcDbLine
 62
7
  6
CONTINUOUS
 10
107.0560485199
 20
154.4578369223
 11
107.0560533343
 21
154.4579241111
  0
LINE
  5
28D
100
AcDbEntity
  8
0
100
AcDbLine
 62
7
  6
CONTINUOUS
 10
107.0569819955
 20
154.4619063519
 11
107.0570299258
 21
154.4627442744
  0
LWPOLYLINE
  5
28E
100
AcDbEntity
  8
0
100
AcDbPolyline
 62
7
  6
CONTINUOUS
 90
3
 70
0
 10
107.0570802975
 20
154.4635823309
 10
107.0571331198
 20
154.4644206012
 10
107.0571883975
 20
154.4652590802
  0
LWPOLYLINE
  5
28F
100
AcDbEntity
  8
0
100
AcDbPolyline
 62
7
  6
CONTINUOUS
 90
4
 70
0
 10
107.0560533343
 20
154.4579241111
 10
107.0562932232
 20
154.4617341564
 10
107.0594938359
 20
154.4878003794
 10
107.0598140063
 20
154.4892010443
  0
LINE
  5
290
100
AcDbEntity
  8
0
100
AcDbLine
 62
7
  6
CONTINUOUS
 10
81.492557536
 20
119.9882046462
 11
86.0353206298
 21
122.6110016544
  0
LINE
  5
291
100
AcDbEntity
  8
0
100
AcDbLine
 62
7
  6
CONTINUOUS
 10
82.5557017954
 20
118.1467865345
 11
87.0984614688
 21
120.7695877075
  0
LWPOLYLINE
  5
292
100
AcDbEntity
  8
0
100
AcDbPolyline
 62
7
  6
CONTINUOUS
 90
19
 70
0
 10
216.9684977497
 20
42.8482156996
 10
217.0462497404
 20
42.8207674577
 10
217.2985561976
 20
42.7423568215
 10
217.5489181962
 20
42.675259624
 10
217.7965734353
 20
42.6196846969
 10
218.0416253445
 20
42.5756551214
 10
218.2839704942
 20
42.5431478164
 10
218.5225362946
 20
42.5223023708
 10
218.7571750237
 20
42.5131666254
 10
218.9880344035
 20
42.5156927394
 10
219.2144850112
 20
42.5298767799
 10
219.4366556554
 20
42.5557766333
 10
219.6544175275
 20
42.5933344132
 10
219.8667547781
 20
42.6423725277
 10
220.0735008946
 20
42.702892954
 10
220.2748223896
 20
42.7748937147
 10
220.4702029515
 20
42.8581912862
 10
220.6597611278
 20
42.9528922797
 10
220.7526208809
 20
43.0046571927
  0
LWPOLYLINE
  5
293
100
AcDbEntity
  8
0
100
AcDbPolyline
 62
7
  6
CONTINUOUS
 90
31
 70
0
 10
87.0984614688
 20
120.7695877075
 10
87.062823843
 20
120.8173258565
 10
87.0263616449
 20
120.8673088032
 10
86.9891604551
 20
120.9194192326
 10
86.951307588
 20
120.973534837
 10
86.9128918887
 20
121.0295286012
 10
86.8740035238
 20
121.0872691005
 10
86.8347337689
 20
121.1466208111
 10
86.7951747939
 20
121.2074444292
 10
86.7554194468
 20
121.2695971966
 10
86.715561037
 20
121.3329332358
 10
86.6756931171
 20
121.3973038891
 10
86.6359092632
 20
121.4625580689
 10
86.596302853
 20
121.5285426156
 10
86.556966846
 20
121.5951026575
 10
86.5179935678
 20
121.6620819719
 10
86.4794744924
 20
121.7293233517
 10
86.4415000285
 20
121.7966689738
 10
86.4041593063
 20
121.8639607704
 10
86.3675399679
 20
121.9310408021
 10
86.3317279633
 20
121.9977516234
 10
86.2968073493
 20
122.063936653
 10
86.2628600893
 20
122.1294405451
 10
86.2299658596
 20
122.1941095579
 10
86.1982018646
 20
122.25779191
 10
86.1676426575
 20
122.3203381324
 10
86.1383599641
 20
122.3816014225
 10
86.1104225127
 20
122.441437991
 10
86.0838958754
 20
122.499707396
 10
86.0588423133
 20
122.5562728722
 10
86.0353206298
 20
122.6110016544
  0
LINE
  5
294
100
AcDbEntity
  8
0
100
AcDbLine
 62
7
  6
CONTINUOUS
 10
107.0581636654
 20
154.4146715528
 11
107.058081121
 21
154.4154626578
  0
LINE
  5
295
100
AcDbEntity
  8
0
100
AcDbLine
 62
7
  6
CONTINUOUS
 10
107.0580004605
 20
154.4162565199
 11
107.0579217263
 21
154.4170529094
  0
LINE
  5
296
100
AcDbEntity
  8
0
100
AcDbLine
 62
7
  6
CONTINUOUS
 10
107.0578449371
 20
154.4178518213
 11
107.0577701114
 21
154.4186532541
  0
LWPOLYLINE
  5
297
100
AcDbEntity
  8
0
100
AcDbPolyline
 62
7
  6
CONTINUOUS
 90
3
 70
0
 10
107.0580307021
 20
154.4091954703
 10
107.0558050215
 20
154.4355061397
 10
107.0560485199
 20
154.4578369223
  0
LWPOLYLINE
  5
298
100
AcDbEntity
  8
0
100
AcDbPolyline
 62
7
  6
CONTINUOUS
 90
3
 70
0
 10
107.0574910173
 20
154.4218816986
 10
107.0574264065
 20
154.4226941465
 10
107.0573638979
 20
154.4235086579
  0
LWPOLYLINE
  5
299
100
AcDbEntity
  8
0
100
AcDbPolyline
 62
7
  6
CONTINUOUS
 90
13
 70
0
 10
102.3723641294
 20
157.9772214836
 10
102.3717851232
 20
157.9795435375
 10
102.3716197545
 20
157.981887849
 10
102.3718668782
 20
157.9842436101
 10
102.3725263185
 20
157.9866012605
 10
102.3735942263
 20
157.9889503235
 10
102.3750630802
 20
157.9912794558
 10
102.3769321172
 20
157.9935809647
 10
102.3791946498
 20
157.9958463258
 10
102.3818338085
 20
157.9980634821
 10
102.3848408507
 20
158.0002238288
 10
102.3882147934
 20
158.0023227789
 10
102.3919499952
 20
158.0043549131
  0
LINE
  5
29A
100
AcDbEntity
  8
0
100
AcDbLine
 62
7
  6
CONTINUOUS
 10
107.0627669025
 20
154.3854352159
 11
107.0626360537
 21
154.3860590786
  0
LINE
  5
29B
100
AcDbEntity
  8
0
100
AcDbLine
 62
7
  6
CONTINUOUS
 10
107.0625057191
 20
154.3866876394
 11
107.0623759248
 21
154.3873209082
  0
LINE
  5
29C
100
AcDbEntity
  8
0
100
AcDbLine
 62
7
  6
CONTINUOUS
 10
107.0622466986
 20
154.387958888
 11
107.0621180128
 21
154.3886018617
  0
LINE
  5
29D
100
AcDbEntity
  8
0
100
AcDbLine
 62
7
  6
CONTINUOUS
 10
107.0619898702
 20
154.3892499725
 11
107.0618623287
 21
154.389903087
  0
LINE
  5
29E
100
AcDbEntity
  8
0
100
AcDbLine
 62
7
  6
CONTINUOUS
 10
107.0612351895
 20
154.393241253
 11
107.0611121582
 21
154.3939230268
  0
LINE
  5
29F
100
AcDbEntity
  8
0
100
AcDbLine
 62
7
  6
CONTINUOUS
 10
107.0609900342
 20
154.394609299
 11
107.0608688472
 21
154.3953000654
  0
LINE
  5
2A0
100
AcDbEntity
  8
0
100
AcDbLine
 62
7
  6
CONTINUOUS
 10
107.0643728425
 20
154.4335990649
 11
107.059506484
 21
154.4620092663
  0
LINE
  5
2A1
100
AcDbEntity
  8
0
100
AcDbLine
 62
7
  6
CONTINUOUS
 10
107.0607486247
 20
154.3959953345
 11
107.0606294232
 21
154.3966949465
  0
LINE
  5
2A2
100
AcDbEntity
  8
0
100
AcDbLine
 62
7
  6
CONTINUOUS
 10
107.0605112718
 20
154.3973988967
 11
107.0603941977
 21
154.3981071926
  0
LINE
  5
2A3
100
AcDbEntity
  8
0
100
AcDbLine
 62
7
  6
CONTINUOUS
 10
107.0602782527
 20
154.3988196913
 11
107.0601634653
 21
154.3995363878
  0
LINE
  5
2A4
100
AcDbEntity
  8
0
100
AcDbLine
 62
7
  6
CONTINUOUS
 10
107.0600498625
 20
154.4002572884
 11
107.059937492
 21
154.4009822663
  0
LINE
  5
2A5
100
AcDbEntity
  8
0
100
AcDbLine
 62
7
  6
CONTINUOUS
 10
103.8194007639
 20
157.2718370304
 11
103.819393406
 21
157.2718849294
  0
LINE
  5
2A6
100
AcDbEntity
  8
0
100
AcDbLine
 62
7
  6
CONTINUOUS
 10
107.0598263818
 20
154.4017113164
 11
107.0597165587
 21
154.4024444435
  0
LINE
  5
2A7
100
AcDbEntity
  8
0
100
AcDbLine
 62
7
  6
CONTINUOUS
 10
107.0596080668
 20
154.4031815357
 11
107.0595009288
 21
154.4039226224
  0
LINE
  5
2A8
100
AcDbEntity
  8
0
100
AcDbLine
 62
7
  6
CONTINUOUS
 10
107.0593951764
 20
154.4046676726
 11
107.0592908652
 21
154.4054164826
  0
LINE
  5
2A9
100
AcDbEntity
  8
0
100
AcDbLine
 62
7
  6
CONTINUOUS
 10
107.0591880189
 20
154.4061690682
 11
107.0590866661
 21
154.406925411
  0
LINE
  5
2AA
100
AcDbEntity
  8
0
100
AcDbLine
 62
7
  6
CONTINUOUS
 10
107.0589868662
 20
154.4076852559
 11
107.058888644
 21
154.4084485987
  0
LINE
  5
2AB
100
AcDbEntity
  8
0
100
AcDbLine
 62
7
  6
CONTINUOUS
 10
107.0587920241
 20
154.4092154399
 11
107.0586970613
 21
154.4099855311
  0
LINE
  5
2AC
100
AcDbEntity
  8
0
100
AcDbLine
 62
7
  6
CONTINUOUS
 10
107.0586037789
 20
154.410758868
 11
107.0585121999
 21
154.4115354505
  0
LWPOLYLINE
  5
2AD
100
AcDbEntity
  8
0
100
AcDbPolyline
 62
7
  6
CONTINUOUS
 90
3
 70
0
 10
107.0584223749
 20
154.4123150367
 10
107.0583343257
 20
154.4130976221
 10
107.0582480737
 20
154.4138832059
  0
LWPOLYLINE
  5
2AE
100
AcDbEntity
  8
0
100
AcDbPolyline
 62
7
  6
CONTINUOUS
 90
37
 70
0
 10
196.0401735268
 20
47.1862680822
 10
196.141267259
 20
47.130255143
 10
196.2462772126
 20
47.0766921089
 10
196.3550255978
 20
47.0256703114
 10
196.4673302858
 20
46.9772759397
 10
196.5829990746
 20
46.9315925335
 10
196.7018294228
 20
46.8887003451
 10
196.8236172159
 20
46.8486728789
 10
196.948157589
 20
46.8115772998
 10
197.0752388146
 20
46.777476604
 10
197.2046454134
 20
46.7464285594
 10
197.3361570773
 20
46.7184859713
 10
197.4695488552
 20
46.6936965057
 10
197.6045936054
 20
46.67210217
 10
197.7410623051
 20
46.6537393837
 10
197.8787229326
 20
46.6386391787
 10
198.0173393032
 20
46.6268271853
 10
198.1566782269
 20
46.6183229993
 10
198.2965098541
 20
46.6131407038
 10
198.4365981525
 20
46.6112893962
 10
198.5767037708
 20
46.6127725885
 10
198.7165912614
 20
46.6175881778
 10
198.8560279385
 20
46.6257288157
 10
198.9947717672
 20
46.6371810355
 10
199.1325745647
 20
46.6519243845
 10
199.2691999673
 20
46.6699330635
 10
199.4044184166
 20
46.6911762987
 10
199.5379953928
 20
46.71561662
 10
199.6697095946
 20
46.7432129118
 10
199.7993324828
 20
46.7739166577
 10
199.9266247667
 20
46.8076694762
 10
200.0513623985
 20
46.8444089369
 10
200.1733457403
 20
46.8840731572
 10
200.2923793136
 20
46.92659633
 10
200.4082658168
 20
46.9719062933
 10
200.520807208
 20
47.0199238917
 10
200.6298144558
 20
47.0705665332
  0
LWPOLYLINE
  5
2AF
100
AcDbEntity
  8
0
100
AcDbPolyline
 62
7
  6
CONTINUOUS
 90
49
 70
0
 10
191.8512048114
 20
50.6056192501
 10
191.9710142861
 20
50.538913182
 10
192.0888822272
 20
50.4774302179
 10
192.2048086346
 20
50.421170358
 10
192.3187581698
 20
50.3702591563
 10
192.4307661714
 20
50.3245710587
 10
192.5409386552
 20
50.2837294025
 10
192.6492567378
 20
50.2476924219
 10
192.7557393027
 20
50.2165018826
 10
192.8605490157
 20
50.1899064187
 10
192.9636869479
 20
50.167851081
 10
193.0651520282
 20
50.1503908187
 10
193.1651037088
 20
50.1374391125
 10
193.2636344023
 20
50.1289475736
 10
193.3606516962
 20
50.1249645908
 10
193.4560378054
 20
50.1255488121
 10
193.5498893509
 20
50.1307134464
 10
193.6421097117
 20
50.1404452847
 10
193.7322912401
 20
50.1547633473
 10
193.8203923771
 20
50.1736921513
 10
193.9064546817
 20
50.1972071796
 10
193.9901951832
 20
50.225253901
 10
194.0715928862
 20
50.2578439686
 10
194.150668786
 20
50.2949657293
 10
194.2272028975
 20
50.3365296927
 10
194.3012244585
 20
50.3825900489
 10
194.3727042312
 20
50.4330926078
 10
194.4413345175
 20
50.4877853085
 10
194.5070804167
 20
50.5466990434
 10
194.5699768295
 20
50.6098029202
 10
194.6298207606
 20
50.6767522008
 10
194.6865612615
 20
50.7475226548
 10
194.7402492808
 20
50.8221385127
 10
194.790834669
 20
50.9003277282
 10
194.8382866158
 20
50.9820081471
 10
194.8826359316
 20
51.0672619236
 10
194.9239248981
 20
51.1560634744
 10
194.9621690674
 20
51.2483233092
 10
194.9973528873
 20
51.3441309183
 10
195.0294719839
 20
51.4437291894
 10
195.0585780764
 20
51.5470885225
 10
195.0846194455
 20
51.6542385177
 10
195.107436559
 20
51.7655108626
 10
195.1270796053
 20
51.8809000471
 10
195.1434983961
 20
52.0004115813
 10
195.156382834
 20
52.1243936828
 10
195.1656295533
 20
52.252962424
 10
195.1713419197
 20
52.3860017324
 10
195.1735199333
 20
52.523511608
  0
LINE
  5
2B0
100
AcDbEntity
  8
0
100
AcDbLine
 62
7
  6
CONTINUOUS
 10
77.4889197082
 20
114.4864984071
 11
196.7442544383
 21
45.6299627543
  0
LINE
  5
2B1
100
AcDbEntity
  8
0
100
AcDbLine
 62
7
  6
CONTINUOUS
 10
76.7848387966
 20
116.042803735
 11
196.0401735268
 21
47.1862680822
  0
LINE
  5
2B2
100
AcDbEntity
  8
0
100
AcDbLine
 62
7
  6
CONTINUOUS
 10
80.973807512
 20
114.6248388306
 11
191.8512048114
 21
50.6056192501
  0
LINE
  5
2B3
100
AcDbEntity
  8
0
100
AcDbLine
 62
7
  6
CONTINUOUS
 10
196.7441995926
 20
45.6299944236
 11
196.7442518355
 21
45.6299642572
  0
LINE
  5
2B4
100
AcDbEntity
  8
0
100
AcDbLine
 62
7
  6
CONTINUOUS
 10
77.4869789641
 20
114.4876215299
 11
77.4889171045
 21
114.4864999104
  0
LWPOLYLINE
  5
2B5
100
AcDbEntity
  8
0
100
AcDbPolyline
 62
7
  6
CONTINUOUS
 90
20
 70
0
 10
76.7848387966
 20
116.042803735
 10
76.6878277941
 20
116.1011739867
 10
76.5950598787
 20
116.1618054147
 10
76.5066932309
 20
116.2245953657
 10
76.4228771267
 20
116.2894386792
 10
76.3437562497
 20
116.3562243815
 10
76.2694695874
 20
116.4248355321
 10
76.2001444438
 20
116.4951542803
 10
76.1358971475
 20
116.5670623378
 10
76.0768368066
 20
116.640437454
 10
76.0230634717
 20
116.7151552144
 10
75.9746685993
 20
116.7910884154
 10
75.9317347467
 20
116.8681071689
 10
75.8943346682
 20
116.9460803244
 10
75.8625314391
 20
117.0248756484
 10
75.8363788039
 20
117.1043591747
 10
75.8159211525
 20
117.1843945332
 10
75.8011924232
 20
117.2648470827
 10
75.7922170069
 20
117.3455841104
 10
75.7890042626
 20
117.4285999818
  0
LINE
  5
2B6
100
AcDbEntity
  8
0
100
AcDbLine
 62
7
  6
CONTINUOUS
 10
107.0703651859
 20
154.3572998465
 11
107.07020668
 21
154.3577700024
  0
LINE
  5
2B7
100
AcDbEntity
  8
0
100
AcDbLine
 62
7
  6
CONTINUOUS
 10
107.0700582462
 20
154.3582139342
 11
107.0699204578
 21
154.3586291853
  0
LINE
  5
2B8
100
AcDbEntity
  8
0
100
AcDbLine
 62
7
  6
CONTINUOUS
 10
107.0696817575
 20
154.3593557656
 11
107.0695684063
 21
154.3597040135
  0
LINE
  5
2B9
100
AcDbEntity
  8
0
100
AcDbLine
 62
7
  6
CONTINUOUS
 10
107.0693464164
 20
154.3603920827
 11
107.0692262207
 21
154.3607680061
  0
LINE
  5
2BA
100
AcDbEntity
  8
0
100
AcDbLine
 62
7
  6
CONTINUOUS
 10
107.0689460845
 20
154.3616534663
 11
107.0687994487
 21
154.3621222166
  0
LINE
  5
2BB
100
AcDbEntity
  8
0
100
AcDbLine
 62
7
  6
CONTINUOUS
 10
107.0686523337
 20
154.3625961857
 11
107.0685032659
 21
154.363080259
  0
LINE
  5
2BC
100
AcDbEntity
  8
0
100
AcDbLine
 62
7
  6
CONTINUOUS
 10
107.0683545765
 20
154.3635669768
 11
107.0682069041
 21
154.3640542463
  0
LINE
  5
2BD
100
AcDbEntity
  8
0
100
AcDbLine
 62
7
  6
CONTINUOUS
 10
107.0680595663
 20
154.3645443212
 11
107.067912848
 21
154.3650362729
  0
LWPOLYLINE
  5
2BE
100
AcDbEntity
  8
0
100
AcDbPolyline
 62
7
  6
CONTINUOUS
 90
3
 70
0
 10
107.0705638393
 20
154.3567163155
 10
107.0629635425
 20
154.3828815403
 10
107.0580307021
 20
154.4091954703
  0
LINE
  5
2BF
100
AcDbEntity
  8
0
100
AcDbLine
 62
7
  6
CONTINUOUS
 10
107.0671898144
 20
154.3675201357
 11
107.0670470939
 21
154.3680225734
  0
LINE
  5
2C0
100
AcDbEntity
  8
0
100
AcDbLine
 62
7
  6
CONTINUOUS
 10
107.066762386
 20
154.3690373678
 11
107.066620128
 21
154.3695507868
  0
LINE
  5
2C1
100
AcDbEntity
  8
0
100
AcDbLine
 62
7
  6
CONTINUOUS
 10
107.0663351312
 20
154.3705924545
 11
107.0661928416
 21
154.3711192099
  0
LINE
  5
2C2
100
AcDbEntity
  8
0
100
AcDbLine
 62
7
  6
CONTINUOUS
 10
107.0659090152
 20
154.3721836245
 11
107.0657676009
 21
154.3727209365
  0
LINE
  5
2C3
100
AcDbEntity
  8
0
100
AcDbLine
 62
7
  6
CONTINUOUS
 10
107.0654859951
 20
154.3738051782
 11
107.0653458466
 21
154.3743520465
  0
LINE
  5
2C4
100
AcDbEntity
  8
0
100
AcDbLine
 62
7
  6
CONTINUOUS
 10
107.0650670617
 20
154.3754547414
 11
107.064928277
 21
154.3760112681
  0
LINE
  5
2C5
100
AcDbEntity
  8
0
100
AcDbLine
 62
7
  6
CONTINUOUS
 10
107.0646518152
 20
154.3771354596
 11
107.0645141803
 21
154.377703102
  0
LINE
  5
2C6
100
AcDbEntity
  8
0
100
AcDbLine
 62
7
  6
CONTINUOUS
 10
107.0643769537
 20
154.3782745
 11
107.0642401535
 21
154.3788496577
  0
LINE
  5
2C7
100
AcDbEntity
  8
0
100
AcDbLine
 62
7
  6
CONTINUOUS
 10
107.0641037932
 20
154.3794286007
 11
107.0639678958
 21
154.380011315
  0
LINE
  5
2C8
100
AcDbEntity
  8
0
100
AcDbLine
 62
7
  6
CONTINUOUS
 10
107.0638324708
 20
154.3805978448
 11
107.0636975139
 21
154.3811882983
  0
LINE
  5
2C9
100
AcDbEntity
  8
0
100
AcDbLine
 62
7
  6
CONTINUOUS
 10
107.0635630491
 20
154.381782663
 11
107.0634290894
 21
154.3823809759
  0
LINE
  5
2CA
100
AcDbEntity
  8
0
100
AcDbLine
 62
7
  6
CONTINUOUS
 10
107.0632956172
 20
154.3829834152
 11
107.0631626581
 21
154.383589969
  0
LINE
  5
2CB
100
AcDbEntity
  8
0
100
AcDbLine
 62
7
  6
CONTINUOUS
 10
107.0630302285
 20
154.3842006693
 11
107.0628983007
 21
154.3848157554
  0
LWPOLYLINE
  5
2CC
100
AcDbEntity
  8
0
100
AcDbPolyline
 62
7
  6
CONTINUOUS
 90
19
 70
0
 10
222.2036746833
 20
48.2284882792
 10
222.2005700052
 20
48.2301356994
 10
222.197235961
 20
48.231626221
 10
222.1936962623
 20
48.2329492435
 10
222.1899760835
 20
48.2340953577
 10
222.1861018823
 20
48.2350564123
 10
222.182101212
 20
48.2358255724
 10
222.1780025253
 20
48.2363973677
 10
222.173834972
 20
48.2367677316
 10
222.1696281916
 20
48.2369340301
 10
222.1654121028
 20
48.2368950805
 10
222.1612166901
 20
48.2366511598
 10
222.1570717915
 20
48.2362040028
 10
222.1530068852
 20
48.2355567895
 10
222.1490508809
 20
48.2347141231
 10
222.1452319135
 20
48.2336819965
 10
222.1415771436
 20
48.2324677502
 10
222.1381125637
 20
48.2310800198
 10
222.1348628139
 20
48.229528675
  0
LWPOLYLINE
  5
2CD
100
AcDbEntity
  8
0
100
AcDbPolyline
 62
7
  6
CONTINUOUS
 90
28
 70
0
 10
218.863998839
 20
47.7071276958
 10
218.9293804304
 20
47.6714426767
 10
218.9981325974
 20
47.6379359831
 10
219.070037951
 20
47.6067135607
 10
219.144869132
 20
47.5778741323
 10
219.22238953
 20
47.551508886
 10
219.3023540315
 20
47.5277011867
 10
219.3845097949
 20
47.5065263124
 10
219.46859705
 20
47.4880512166
 10
219.5543499196
 20
47.4723343159
 10
219.6414972595
 20
47.459425306
 10
219.7297635167
 20
47.4493650042
 10
219.8188696
 20
47.4421852205
 10
219.908533763
 20
47.4379086567
 10
219.9984724945
 20
47.436548835
 10
220.0884014151
 20
47.438110055
 10
220.1780361766
 20
47.4425873803
 10
220.2670933608
 20
47.4499666539
 10
220.3552913758
 20
47.4602245432
 10
220.4423513462
 20
47.4733286135
 10
220.5279979952
 20
47.4892374307
 10
220.6119605147
 20
47.5079006924
 10
220.6939734216
 20
47.5292593868
 10
220.7737773976
 20
47.5532459793
 10
220.8511201086
 20
47.5797846263
 10
220.9257570029
 20
47.6087914145
 10
220.9974520845
 20
47.6401746267
 10
221.065978659
 20
47.6738350316
  0
LWPOLYLINE
  5
2CE
100
AcDbEntity
  8
0
100
AcDbPolyline
 62
7
  6
CONTINUOUS
 90
25
 70
0
 10
213.7124114875
 20
43.8095915583
 10
213.9512406773
 20
43.6766077428
 10
214.1906105572
 20
43.553134681
 10
214.430357205
 20
43.4392638894
 10
214.6706063536
 20
43.3349691851
 10
214.910899167
 20
43.2404914207
 10
215.1501964785
 20
43.1562170794
 10
215.3882761107
 20
43.0821523427
 10
215.6250300484
 20
43.0182653497
 10
215.8595937208
 20
42.9646900559
 10
216.0917873431
 20
42.9213289002
 10
216.3214561279
 20
42.8880762184
 10
216.5477665127
 20
42.8648801935
 10
216.7702852088
 20
42.8515557207
 10
216.9891088335
 20
42.8478683883
 10
217.2041743816
 20
42.8536149221
 10
217.4152121425
 20
42.8685841724
 10
217.6221256307
 20
42.8925631058
 10
217.8250641784
 20
42.925388808
 10
218.0237533944
 20
42.9668510224
 10
218.2180662538
 20
43.0167525535
 10
218.4083129684
 20
43.0750402136
 10
218.5944320477
 20
43.1416077278
 10
218.7760327034
 20
43.2162216806
 10
218.9529035339
 20
43.298681962
  0
LWPOLYLINE
  5
2CF
100
AcDbEntity
  8
0
100
AcDbPolyline
 62
7
  6
CONTINUOUS
 90
49
 70
0
 10
213.3810792939
 20
44.5419705362
 10
213.5602544313
 20
44.4418888995
 10
213.7390015503
 20
44.3487996323
 10
213.917320651
 20
44.2627027345
 10
214.0954492442
 20
44.18349315
 10
214.2731498191
 20
44.1112759349
 10
214.4497098428
 20
44.0463662574
 10
214.6250807656
 20
43.9888147333
 10
214.7993111371
 20
43.9385707468
 10
214.9718340744
 20
43.8957976192
 10
215.1426384839
 20
43.8605205127
 10
215.311735459
 20
43.8327142652
 10
215.4785913979
 20
43.8124667114
 10
215.643203913
 20
43.799801342
 10
215.8055753917
 20
43.7946946664
 10
215.9651793951
 20
43.7971640482
 10
216.1220038796
 20
43.80723376
 10
216.2760608888
 20
43.8248795293
 10
216.4268601139
 20
43.8500459025
 10
216.5743925975
 20
43.8827568345
 10
216.7186672971
 20
43.9229883704
 10
216.859220777
 20
43.9706131916
 10
216.9960422734
 20
44.0256559101
 10
217.1291425502
 20
44.0880919138
 10
217.2580904625
 20
44.1577200486
 10
217.382872248
 20
44.2345641963
 10
217.503501669
 20
44.3186004751
 10
217.6195888689
 20
44.4095560849
 10
217.7311178729
 20
44.5074526133
 10
217.8381046556
 20
44.6122684727
 10
217.9402072846
 20
44.7236661002
 10
218.0374095474
 20
44.8416653018
 10
218.1297276564
 20
44.9662462714
 10
218.2168683162
 20
45.0970120281
 10
218.2988164759
 20
45.2339850659
 10
218.3755871864
 20
45.3771428909
 10
218.4469323047
 20
45.5260210401
 10
218.5128326908
 20
45.6806332866
 10
218.5733074846
 20
45.8409658572
 10
218.6281659628
 20
46.0065129698
 10
218.6773919225
 20
46.1772969708
 10
218.7210015666
 20
46.3532955137
 10
218.7588527802
 20
46.5339357762
 10
218.7909259674
 20
46.7192853407
 10
218.817240724
 20
46.9092766248
 10
218.8377137222
 20
47.1031340593
 10
218.8523171862
 20
47.3005991211
 10
218.8610788918
 20
47.5019303332
 10
218.863998839
 20
47.7071276958
  0
LINE
  5
2D0
100
AcDbEntity
  8
0
100
AcDbLine
 62
7
  6
CONTINUOUS
 10
82.5557017954
 20
118.1467865345
 11
193.4330924551
 21
54.1275707877
  0
LINE
  5
2D1
100
AcDbEntity
  8
0
100
AcDbLine
 62
7
  6
CONTINUOUS
 10
206.3930824816
 20
48.0356803937
 11
213.7124114875
 21
43.8095915583
  0
LINE
  5
2D2
100
AcDbEntity
  8
0
100
AcDbLine
 62
7
  6
CONTINUOUS
 10
206.9514756481
 20
48.2543430994
 11
213.3810792939
 21
44.5419705362
  0
LINE
  5
2D3
100
AcDbEntity
  8
0
100
AcDbLine
 62
7
  6
CONTINUOUS
 10
194.1776829894
 20
58.9433872194
 11
87.0984614688
 21
120.7695877075
  0
LWPOLYLINE
  5
2D4
100
AcDbEntity
  8
0
100
AcDbPolyline
 62
7
  6
CONTINUOUS
 90
3
 70
0
 10
107.0821673602
 20
154.3774553946
 10
107.0719340762
 20
154.4053860565
 10
107.0643728425
 20
154.4335990649
  0
LINE
  5
2D5
100
AcDbEntity
  8
0
100
AcDbLine
 62
7
  6
CONTINUOUS
 10
107.0705638393
 20
154.3567163155
 11
107.0705430231
 21
154.3567771629
  0
LINE
  5
2D6
100
AcDbEntity
  8
0
100
AcDbLine
 62
7
  6
CONTINUOUS
 10
135.1397139556
 20
102.4554680203
 11
135.1397139556
 21
98.7008804643
  0
LINE
  5
2D7
100
AcDbEntity
  8
0
100
AcDbLine
 62
7
  6
CONTINUOUS
 10
135.7204190357
 20
98.961462517
 11
135.7204190357
 21
99.9947595393
  0
LINE
  5
2D8
100
AcDbEntity
  8
0
100
AcDbLine
 62
7
  6
CONTINUOUS
 10
135.7204190357
 20
100.5906946626
 11
135.7204190357
 21
101.5242867841
  0
LINE
  5
2D9
100
AcDbEntity
  8
0
100
AcDbLine
 62
7
  6
CONTINUOUS
 10
135.7534960767
 20
113.0361366365
 11
135.7534960767
 21
106.6547073744
  0
LINE
  5
2DA
100
AcDbEntity
  8
0
100
AcDbLine
 62
7
  6
CONTINUOUS
 10
135.93255107
 20
99.083944895
 11
135.93255107
 21
99.8722788924
  0
LINE
  5
2DB
100
AcDbEntity
  8
0
100
AcDbLine
 62
7
  6
CONTINUOUS
 10
135.93255107
 20
100.7131770406
 11
135.93255107
 21
101.4018035993
  0
LINE
  5
2DC
100
AcDbEntity
  8
0
100
AcDbLine
 62
7
  6
CONTINUOUS
 10
136.9784291745
 20
105.9474463557
 11
136.9784291745
 21
112.3288756178
  0
LINE
  5
2DD
100
AcDbEntity
  8
0
100
AcDbLine
 62
7
  6
CONTINUOUS
 10
137.1905612089
 20
106.0699287337
 11
137.1905612089
 21
112.2063932398
  0
LINE
  5
2DE
100
AcDbEntity
  8
0
100
AcDbLine
 62
7
  6
CONTINUOUS
 10
133.9773388519
 20
114.0616675576
 11
132.9220587984
 21
110.4013661883
  0
LINE
  5
2DF
100
AcDbEntity
  8
0
100
AcDbLine
 62
7
  6
CONTINUOUS
 10
133.4126310984
 20
108.006293475
 11
135.1891203783
 21
113.3620000914
  0
LINE
  5
2E0
100
AcDbEntity
  8
0
100
AcDbLine
 62
7
  6
CONTINUOUS
 10
133.6247631327
 20
108.128775853
 11
135.3330580873
 21
113.2788922622
  0
LINE
  5
2E1
100
AcDbEntity
  8
0
100
AcDbLine
 62
7
  6
CONTINUOUS
 10
156.7601023161
 20
130.4538518782
 11
156.8312015978
 21
130.4867271189
  0
LINE
  5
2E2
100
AcDbEntity
  8
0
100
AcDbLine
 62
7
  6
CONTINUOUS
 10
197.7258456611
 20
102.4164862264
 11
197.7224135083
 21
102.4155403451
  0
LINE
  5
2E3
100
AcDbEntity
  8
0
100
AcDbLine
 62
7
  6
CONTINUOUS
 10
197.7224135083
 20
102.4155403451
 11
197.7189725307
 21
102.4146165452
  0
LWPOLYLINE
  5
2E4
100
AcDbEntity
  8
0
100
AcDbPolyline
 62
7
  6
CONTINUOUS
 90
13
 70
0
 10
144.372334504
 20
94.0959885242
 10
144.3342849649
 20
94.0860068103
 10
144.2940036398
 20
94.0791379556
 10
144.252074699
 20
94.0757294964
 10
144.2087395497
 20
94.0758038454
 10
144.1637567848
 20
94.0793385898
 10
144.1169863534
 20
94.0866140271
 10
144.0683437257
 20
94.0976275097
 10
144.0179134314
 20
94.1123816853
 10
143.9658090088
 20
94.131164794
 10
143.912068304
 20
94.1540729158
 10
143.8566534707
 20
94.1810099707
 10
143.7995645092
 20
94.2119759586
  0
LINE
  5
2E5
100
AcDbEntity
  8
0
100
AcDbLine
 62
7
  6
CONTINUOUS
 10
197.7189725307
 20
102.4146165452
 11
197.7155336135
 21
102.4137165143
  0
LINE
  5
2E6
100
AcDbEntity
  8
0
100
AcDbLine
 62
7
  6
CONTINUOUS
 10
197.7155336135
 20
102.4137165143
 11
197.7121038342
 21
102.4128408385
  0
LINE
  5
2E7
100
AcDbEntity
  8
0
100
AcDbLine
 62
7
  6
CONTINUOUS
 10
197.7121038342
 20
102.4128408385
 11
197.7086847738
 21
102.4119887054
  0
LINE
  5
2E8
100
AcDbEntity
  8
0
100
AcDbLine
 62
7
  6
CONTINUOUS
 10
197.7086847738
 20
102.4119887054
 11
197.7052774504
 21
102.4111592658
  0
LINE
  5
2E9
100
AcDbEntity
  8
0
100
AcDbLine
 62
7
  6
CONTINUOUS
 10
197.7052774504
 20
102.4111592658
 11
197.7018799636
 21
102.4103510779
  0
LINE
  5
2EA
100
AcDbEntity
  8
0
100
AcDbLine
 62
7
  6
CONTINUOUS
 10
197.7018799636
 20
102.4103510779
 11
197.6984824418
 21
102.4095609808
  0
LINE
  5
2EB
100
AcDbEntity
  8
0
100
AcDbLine
 62
7
  6
CONTINUOUS
 10
197.6984824418
 20
102.4095609808
 11
197.6950713553
 21
102.4087852505
  0
LINE
  5
2EC
100
AcDbEntity
  8
0
100
AcDbLine
 62
7
  6
CONTINUOUS
 10
197.6950713553
 20
102.4087852505
 11
197.6916378562
 21
102.4080214999
  0
LINE
  5
2ED
100
AcDbEntity
  8
0
100
AcDbLine
 62
7
  6
CONTINUOUS
 10
197.6916378562
 20
102.4080214999
 11
197.6881665677
 21
102.4072661298
  0
LINE
  5
2EE
100
AcDbEntity
  8
0
100
AcDbLine
 62
7
  6
CONTINUOUS
 10
197.6881665677
 20
102.4072661298
 11
197.6846410167
 21
102.4065156108
  0
LINE
  5
2EF
100
AcDbEntity
  8
0
100
AcDbLine
 62
7
  6
CONTINUOUS
 10
197.6846410167
 20
102.4065156108
 11
197.6810503722
 21
102.4057678786
  0
LINE
  5
2F0
100
AcDbEntity
  8
0
100
AcDbLine
 62
7
  6
CONTINUOUS
 10
197.6810503722
 20
102.4057678786
 11
197.6755052066
 21
102.4046447657
  0
LINE
  5
2F1
100
AcDbEntity
  8
0
100
AcDbLine
 62
7
  6
CONTINUOUS
 10
197.6755052066
 20
102.4046447657
 11
197.6698175924
 21
102.4035308279
  0
LINE
  5
2F2
100
AcDbEntity
  8
0
100
AcDbLine
 62
7
  6
CONTINUOUS
 10
197.6698175924
 20
102.4035308279
 11
197.6640440309
 21
102.4024373799
  0
LINE
  5
2F3
100
AcDbEntity
  8
0
100
AcDbLine
 62
7
  6
CONTINUOUS
 10
197.6640440309
 20
102.4024373799
 11
197.6581835965
 21
102.4013639379
  0
LWPOLYLINE
  5
2F4
100
AcDbEntity
  8
0
100
AcDbPolyline
 62
7
  6
CONTINUOUS
 90
3
 70
0
 10
200.8116560858
 20
101.4915050916
 10
200.8643631488
 20
101.5010283125
 10
200.8759635446
 20
101.5037606128
  0
LINE
  5
2F5
100
AcDbEntity
  8
0
100
AcDbLine
 62
7
  6
CONTINUOUS
 10
197.6581835965
 20
102.4013639379
 11
197.6522341897
 21
102.4003098416
  0
LINE
  5
2F6
100
AcDbEntity
  8
0
100
AcDbLine
 62
7
  6
CONTINUOUS
 10
197.6522341897
 20
102.4003098416
 11
197.6461927131
 21
102.3992743135
  0
LINE
  5
2F7
100
AcDbEntity
  8
0
100
AcDbLine
 62
7
  6
CONTINUOUS
 10
197.6461927131
 20
102.3992743135
 11
197.6400552296
 21
102.3982565081
  0
LINE
  5
2F8
100
AcDbEntity
  8
0
100
AcDbLine
 62
7
  6
CONTINUOUS
 10
197.6400552296
 20
102.3982565081
 11
197.6338171058
 21
102.3972555512
  0
LINE
  5
2F9
100
AcDbEntity
  8
0
100
AcDbLine
 62
7
  6
CONTINUOUS
 10
197.6338171058
 20
102.3972555512
 11
197.6274731433
 21
102.3962705717
  0
LINE
  5
2FA
100
AcDbEntity
  8
0
100
AcDbLine
 62
7
  6
CONTINUOUS
 10
197.6274731433
 20
102.3962705717
 11
197.6210176975
 21
102.3953007271
  0
LINE
  5
2FB
100
AcDbEntity
  8
0
100
AcDbLine
 62
7
  6
CONTINUOUS
 10
197.6210176975
 20
102.3953007271
 11
197.6144447886
 21
102.3943452237
  0
LINE
  5
2FC
100
AcDbEntity
  8
0
100
AcDbLine
 62
7
  6
CONTINUOUS
 10
197.6144447886
 20
102.3943452237
 11
197.6077482052
 21
102.3934033333
  0
LINE
  5
2FD
100
AcDbEntity
  8
0
100
AcDbLine
 62
7
  6
CONTINUOUS
 10
197.6077482052
 20
102.3934033333
 11
197.6009216617
 21
102.3924744143
  0
LINE
  5
2FE
100
AcDbEntity
  8
0
100
AcDbLine
 62
7
  6
CONTINUOUS
 10
197.6009216617
 20
102.3924744143
 11
197.596297644
 21
102.3918623697
  0
LWPOLYLINE
  5
2FF
100
AcDbEntity
  8
0
100
AcDbPolyline
 62
7
  6
CONTINUOUS
 90
5
 70
0
 10
144.3755691986
 20
94.2018874926
 10
144.4208307423
 20
94.1983187026
 10
144.4643472153
 20
94.1982173731
 10
144.5062574366
 20
94.2016091091
 10
144.5462652936
 20
94.2084414438
  0
LWPOLYLINE
  5
300
100
AcDbEntity
  8
0
100
AcDbPolyline
 62
7
  6
CONTINUOUS
 90
4
 70
0
 10
217.9200440939
 20
54.2309699514
 10
217.8990959141
 20
54.2421131341
 10
217.8774050053
 20
54.2555035301
 10
217.8559684712
 20
54.270590942
  0
LWPOLYLINE
  5
301
100
AcDbEntity
  8
0
100
AcDbPolyline
 62
7
  6
CONTINUOUS
 90
22
 70
0
 10
217.8562146857
 20
56.1732367762
 10
217.8251929341
 20
56.1899250621
 10
217.7922075596
 20
56.2053066758
 10
217.7574233001
 20
56.2193048202
 10
217.7210139514
 20
56.2318495838
 10
217.6831612722
 20
56.2428783693
 10
217.6440540478
 20
56.2523361741
 10
217.6038875191
 20
56.2601757624
 10
217.5628622874
 20
56.266357964
 10
217.5211830572
 20
56.2708519066
 10
217.4790572765
 20
56.2736351464
 10
217.4366959736
 20
56.2746936654
 10
217.394312571
 20
56.2740222118
 10
217.3521199967
 20
56.2716244344
 10
217.3103275806
 20
56.2675125057
 10
217.2691419644
 20
56.2617068299
 10
217.2287530193
 20
56.2542330638
 10
217.1893790037
 20
56.245130464
 10
217.1512593588
 20
56.2344575059
 10
217.1145933733
 20
56.2222775709
 10
217.0795435417
 20
56.2086524998
 10
217.0462780512
 20
56.1936546966
  0
LWPOLYLINE
  5
302
100
AcDbEntity
  8
0
100
AcDbPolyline
 62
7
  6
CONTINUOUS
 90
8
 70
0
 10
144.0116965435
 20
94.3344583366
 10
144.0685889146
 20
94.3035808684
 10
144.123851232
 20
94.2767035302
 10
144.1774834956
 20
94.2538263218
 10
144.2295115846
 20
94.2350362222
 10
144.2799096197
 20
94.2202462524
 10
144.3285999641
 20
94.2091954763
 10
144.3755691986
 20
94.2018874926
  0
LWPOLYLINE
  5
303
100
AcDbEntity
  8
0
100
AcDbPolyline
 62
7
  6
CONTINUOUS
 90
22
 70
0
 10
87.8428806985
 20
122.4269757916
 10
87.7751612017
 20
122.4638644247
 10
87.7038408553
 20
122.4984161798
 10
87.6291612045
 20
122.5305141204
 10
87.5513752937
 20
122.5600495741
 10
87.4707464178
 20
122.5869226523
 10
87.3875471836
 20
122.611042542
 10
87.3020586689
 20
122.6323277374
 10
87.2145709024
 20
122.6507060066
 10
87.1253815596
 20
122.6661149157
 10
87.034793892
 20
122.6785023134
 10
86.9431134568
 20
122.6878266533
 10
86.8506484631
 20
122.6940566468
 10
86.757709167
 20
122.697171196
 10
86.6646129274
 20
122.6971594729
 10
86.5716809424
 20
122.6940217681
 10
86.4792161259
 20
122.6877682722
 10
86.3875431465
 20
122.678420906
 10
86.2970120176
 20
122.6660180297
 10
86.2079400679
 20
122.6506086649
 10
86.1206123198
 20
122.6322477512
 10
86.0353206298
 20
122.6110016544
  0
LWPOLYLINE
  5
304
100
AcDbEntity
  8
0
100
AcDbPolyline
 62
7
  6
CONTINUOUS
 90
18
 70
0
 10
143.7980498393
 20
93.6184051479
 10
143.8827321381
 20
93.5720695648
 10
143.9649344749
 20
93.5310654749
 10
144.0446568496
 20
93.4953928782
 10
144.1219766165
 20
93.4651942828
 10
144.1968164213
 20
93.4403271807
 10
144.2689442017
 20
93.4203640476
 10
144.3380197949
 20
93.4053131356
 10
144.4043833638
 20
93.3951661926
 10
144.4688233347
 20
93.3894709388
 10
144.5316186106
 20
93.3881392254
 10
144.5924902885
 20
93.3912592011
 10
144.6513900851
 20
93.3986430321
 10
144.7085950973
 20
93.410374163
 10
144.7638282282
 20
93.4263691492
 10
144.816209904
 20
93.4461898227
 10
144.8654469334
 20
93.4696901277
 10
144.8841076086
 20
93.4800254233
  0
LWPOLYLINE
  5
305
100
AcDbEntity
  8
0
100
AcDbPolyline
 62
7
  6
CONTINUOUS
 90
4
 70
0
 10
143.7980498393
 20
97.5402698687
 10
143.7133508031
 20
97.5866148764
 10
143.6311315631
 20
97.6276277528
 10
143.5513921192
 20
97.663308498
  0
LINE
  5
306
100
AcDbEntity
  8
0
100
AcDbLine
 62
7
  6
CONTINUOUS
 10
194.1776829894
 20
61.030593637
 11
87.8428806985
 21
122.4269757916
  0
LINE
  5
307
100
AcDbEntity
  8
0
100
AcDbLine
 62
7
  6
CONTINUOUS
 10
135.1397139556
 20
98.7008804643
 11
137.4508889343
 21
97.3664369974
  0
LINE
  5
308
100
AcDbEntity
  8
0
100
AcDbLine
 62
7
  6
CONTINUOUS
 10
138.1492891097
 20
96.9631894891
 11
138.7300267167
 21
96.6278788732
  0
LINE
  5
309
100
AcDbEntity
  8
0
100
AcDbLine
 62
7
  6
CONTINUOUS
 10
139.4206437678
 20
96.2291252434
 11
140.001356626
 21
95.893828917
  0
LINE
  5
30A
100
AcDbEntity
  8
0
100
AcDbLine
 62
7
  6
CONTINUOUS
 10
141.4987118037
 20
95.0292748037
 11
142.2292245265
 21
94.6074859131
  0
LINE
  5
30B
100
AcDbEntity
  8
0
100
AcDbLine
 62
7
  6
CONTINUOUS
 10
145.9331728829
 20
92.4688725534
 11
146.492210797
 21
92.1460910682
  0
LINE
  5
30C
100
AcDbEntity
  8
0
100
AcDbLine
 62
7
  6
CONTINUOUS
 10
147.9788554283
 20
91.2877210902
 11
148.5591334159
 21
90.9526758527
  0
LINE
  5
30D
100
AcDbEntity
  8
0
100
AcDbLine
 62
7
  6
CONTINUOUS
 10
137.4508889343
 20
97.9623329301
 11
135.7204190357
 21
98.961462517
  0
LINE
  5
30E
100
AcDbEntity
  8
0
100
AcDbLine
 62
7
  6
CONTINUOUS
 10
137.6630209687
 20
98.0848153081
 11
135.93255107
 21
99.083944895
  0
LINE
  5
30F
100
AcDbEntity
  8
0
100
AcDbLine
 62
7
  6
CONTINUOUS
 10
216.9178191684
 20
52.58743612
 11
215.5493028604
 21
53.3776002847
  0
LINE
  5
310
100
AcDbEntity
  8
0
100
AcDbLine
 62
7
  6
CONTINUOUS
 10
135.7204190357
 20
99.9947595393
 11
137.3212974746
 21
99.0704454559
  0
LINE
  5
311
100
AcDbEntity
  8
0
100
AcDbLine
 62
7
  6
CONTINUOUS
 10
137.3212974746
 20
99.6663544522
 11
135.7204190357
 21
100.5906946626
  0
LINE
  5
312
100
AcDbEntity
  8
0
100
AcDbLine
 62
7
  6
CONTINUOUS
 10
137.5334295089
 20
99.7888368301
 11
135.93255107
 21
100.7131770406
  0
LINE
  5
313
100
AcDbEntity
  8
0
100
AcDbLine
 62
7
  6
CONTINUOUS
 10
135.7204190357
 20
101.5242867841
 11
137.4378187726
 21
100.5326751683
  0
LINE
  5
314
100
AcDbEntity
  8
0
100
AcDbLine
 62
7
  6
CONTINUOUS
 10
217.8559768249
 20
54.2705875385
 11
216.60469465
 21
54.993062184
  0
LINE
  5
315
100
AcDbEntity
  8
0
100
AcDbLine
 62
7
  6
CONTINUOUS
 10
148.5591334159
 20
94.7072634088
 11
148.0000877236
 21
95.030049385
  0
LINE
  5
316
100
AcDbEntity
  8
0
100
AcDbLine
 62
7
  6
CONTINUOUS
 10
146.500587184
 20
95.8958422034
 11
145.9331728829
 21
96.2234601095
  0
LINE
  5
317
100
AcDbEntity
  8
0
100
AcDbLine
 62
7
  6
CONTINUOUS
 10
142.221559489
 20
98.3664991657
 11
141.4429168361
 21
98.8160776748
  0
LINE
  5
318
100
AcDbEntity
  8
0
100
AcDbLine
 62
7
  6
CONTINUOUS
 10
140.001356626
 20
99.6484164731
 11
139.4206437678
 21
99.9837127994
  0
LINE
  5
319
100
AcDbEntity
  8
0
100
AcDbLine
 62
7
  6
CONTINUOUS
 10
138.7300267167
 20
100.3824664292
 11
138.1492891097
 21
100.7177770452
  0
LINE
  5
31A
100
AcDbEntity
  8
0
100
AcDbLine
 62
7
  6
CONTINUOUS
 10
137.4378187726
 20
101.128571101
 11
135.1397139556
 21
102.4554680203
  0
LWPOLYLINE
  5
31B
100
AcDbEntity
  8
0
100
AcDbPolyline
 62
7
  6
CONTINUOUS
 90
16
 70
0
 10
143.7995645092
 20
94.2119759586
 10
143.7433608903
 20
94.2461448087
 10
143.6885499948
 20
94.2827000815
 10
143.6351318226
 20
94.3216417772
 10
143.5831773706
 20
94.3630031564
 10
143.5326156419
 20
94.4067509583
 10
143.4832336459
 20
94.4527854011
 10
143.4346236315
 20
94.5015167508
 10
143.3871933498
 20
94.5525347413
 10
143.3419530638
 20
94.6045087922
 10
143.2990585625
 20
94.6573862013
 10
143.2583540569
 20
94.7112196708
 10
143.220382443
 20
94.7648367267
 10
143.1853246865
 20
94.8178465445
 10
143.1529998217
 20
94.8706399487
 10
143.1234078488
 20
94.9232169393
  0
LWPOLYLINE
  5
31C
100
AcDbEntity
  8
0
100
AcDbPolyline
 62
7
  6
CONTINUOUS
 90
16
 70
0
 10
143.7995645092
 20
96.944241107
 10
143.8566547917
 20
96.9092813597
 10
143.9120708535
 20
96.8722258776
 10
143.9658126944
 20
96.8330746608
 10
144.0179181748
 20
96.7916878989
 10
144.0683494344
 20
96.7482054022
 10
144.1169928925
 20
96.7030466017
 10
144.1637641078
 20
96.656311639
 10
144.2087475217
 20
96.6079003725
 10
144.2520828772
 20
96.5579318083
 10
144.2940114608
 20
96.5061048727
 10
144.3342919862
 20
96.4527206395
 10
144.3723403377
 20
96.3988013364
 10
144.4079618102
 20
96.3446877059
 10
144.4413511088
 20
96.2900390056
 10
144.4725082335
 20
96.2348552353
  0
LWPOLYLINE
  5
31D
100
AcDbEntity
  8
0
100
AcDbPolyline
 62
7
  6
CONTINUOUS
 90
28
 70
0
 10
101.3549621783
 20
158.4420149912
 10
101.380809941
 20
158.3993541032
 10
101.4085337392
 20
158.3579533357
 10
101.4380483882
 20
158.317939902
 10
101.4692632038
 20
158.2794367483
 10
101.5020822709
 20
158.2425621893
 10
101.5364047361
 20
158.2074295431
 10
101.5721251328
 20
158.1741467654
 10
101.6091337069
 20
158.14281612
 10
101.6473167421
 20
158.1135338765
 10
101.6865569136
 20
158.0863900102
 10
101.7267336483
 20
158.0614679262
 10
101.7677234949
 20
158.0388442028
 10
101.809400504
 20
158.0185883557
 10
101.8516366147
 20
158.0007626253
 10
101.8943020483
 20
157.9854217846
 10
101.9372657068
 20
157.9726129715
 10
101.9803955757
 20
157.9623755436
 10
102.02355913
 20
157.9547409575
 10
102.0666237411
 20
157.9497326721
 10
102.1094570845
 20
157.9473660764
 10
102.1519275459
 20
157.9476484422
 10
102.1939046259
 20
157.9505789019
 10
102.2352593419
 20
157.9561484512
 10
102.2758646242
 20
157.9643399761
 10
102.3155957049
 20
157.9751283069
 10
102.354330502
 20
157.9884802947
 10
102.3919499952
 20
158.0043549131
  0
LWPOLYLINE
  5
31E
100
AcDbEntity
  8
0
100
AcDbPolyline
 62
7
  6
CONTINUOUS
 90
20
 70
0
 10
101.8789443888
 20
158.7413691725
 10
101.9047921741
 20
158.6987082467
 10
101.9325159958
 20
158.6573074478
 10
101.9620306685
 20
158.6172939888
 10
101.9932455071
 20
158.5787908163
 10
102.026064596
 20
158.5419162444
 10
102.0603870818
 20
158.5067835894
 10
102.0961074974
 20
158.4735008066
 10
102.1331160881
 20
158.4421701599
 10
102.1712991377
 20
158.4128879186
 10
102.2105393209
 20
158.3857440577
 10
102.2507160642
 20
158.360821982
 10
102.2917059166
 20
158.338198269
 10
102.3333829285
 20
158.3179424342
 10
102.3756190389
 20
158.3001167173
 10
102.4182844689
 20
158.2847758909
 10
102.4612481207
 20
158.2719670924
 10
102.5043779798
 20
158.2617296789
 10
102.5475415215
 20
158.2540951064
 10
102.5906061173
 20
158.2490868335
  0
LINE
  5
31F
100
AcDbEntity
  8
0
100
AcDbLine
 62
7
  6
CONTINUOUS
 10
106.4569983124
 20
155.9321469996
 11
106.9809805204
 21
155.0277113
  0
LINE
  5
320
100
AcDbEntity
  8
0
100
AcDbLine
 62
7
  6
CONTINUOUS
 10
106.5993508466
 20
156.0158656443
 11
107.1233330571
 21
155.1114299404
  0
LWPOLYLINE
  5
321
100
AcDbEntity
  8
0
100
AcDbPolyline
 62
7
  6
CONTINUOUS
 90
16
 70
0
 10
106.9809810822
 20
155.0277116536
 10
106.9846805964
 20
155.0212520085
 10
106.9949422698
 20
155.002498265
 10
107.0045210015
 20
154.9837296759
 10
107.0133511168
 20
154.9651225272
 10
107.021349445
 20
154.9469183132
 10
107.0284918587
 20
154.9292812184
 10
107.0347705718
 20
154.9123747953
 10
107.0401627752
 20
154.8964268129
 10
107.0446886522
 20
154.881593285
 10
107.0483967918
 20
154.8679867538
 10
107.0513347515
 20
154.8557558134
 10
107.0535658542
 20
154.8450099011
 10
107.0551685365
 20
154.8358426666
 10
107.0562298718
 20
154.8283727744
 10
107.0568070544
 20
154.8231611071
  0
LWPOLYLINE
  5
322
100
AcDbEntity
  8
0
100
AcDbPolyline
 62
7
  6
CONTINUOUS
 90
13
 70
0
 10
107.1233330571
 20
155.1114299404
 10
107.1537318117
 20
155.0564965875
 10
107.1817167989
 20
155.001145692
 10
107.2072880188
 20
154.9453772539
 10
107.2305254276
 20
154.8889666022
 10
107.2513490691
 20
154.832138408
 10
107.2695190745
 20
154.7755666844
 10
107.2850109305
 20
154.719241971
 10
107.2978491504
 20
154.6631737283
 10
107.307867406
 20
154.6080643503
 10
107.3150102543
 20
154.5541479684
 10
107.3193331383
 20
154.5011904512
 10
107.3208360578
 20
154.4491917988
  0
LWPOLYLINE
  5
323
100
AcDbEntity
  8
0
100
AcDbPolyline
 62
7
  6
CONTINUOUS
 90
19
 70
0
 10
142.64056093
 20
94.864707598
 10
142.6840900379
 20
94.7833000097
 10
142.7304730359
 20
94.7024212575
 10
142.779709924
 20
94.6220713411
 10
142.8320934631
 20
94.5417658381
 10
142.8873308923
 20
94.461989171
 10
142.9445439286
 20
94.3841946079
 10
143.0034566407
 20
94.3087842242
 10
143.0643449601
 20
94.2353559445
 10
143.1271583973
 20
94.1641568095
 10
143.1916184828
 20
94.0954207075
 10
143.2580036862
 20
94.0289137503
 10
143.327098927
 20
93.9641813145
 10
143.3992436657
 20
93.9008399053
 10
143.4740984418
 20
93.8392730176
 10
143.5514297934
 20
93.7801765119
 10
143.6311598998
 20
93.7237823418
 10
143.7133665818
 20
93.6698585538
 10
143.7980498393
 20
93.6184051479
  0
LINE
  5
324
100
AcDbEntity
  8
0
100
AcDbLine
 62
7
  6
CONTINUOUS
 10
142.2292245265
 20
94.6074859131
 11
140.823095316
 21
97.6289775405
  0
LINE
  5
325
100
AcDbEntity
  8
0
100
AcDbLine
 62
7
  6
CONTINUOUS
 10
140.4166178112
 20
97.4024713592
 11
141.4987118037
 21
95.0292748037
  0
LINE
  5
326
100
AcDbEntity
  8
0
100
AcDbLine
 62
7
  6
CONTINUOUS
 10
130.5810992734
 20
116.0226137253
 11
132.3331576436
 21
108.6295679188
  0
LINE
  5
327
100
AcDbEntity
  8
0
100
AcDbLine
 62
7
  6
CONTINUOUS
 10
132.9220587984
 20
110.4013661883
 11
131.8980606194
 21
115.2622167495
  0
LINE
  5
328
100
AcDbEntity
  8
0
100
AcDbLine
 62
7
  6
CONTINUOUS
 10
133.059537952
 20
110.8782207756
 11
132.1689436051
 21
115.1058123085
  0
LINE
  5
329
100
AcDbEntity
  8
0
100
AcDbLine
 62
7
  6
CONTINUOUS
 10
143.5892659313
 20
102.1304320656
 11
143.0724615549
 21
108.8102576975
  0
LINE
  5
32A
100
AcDbEntity
  8
0
100
AcDbLine
 62
7
  6
CONTINUOUS
 10
143.8013979656
 20
102.2529144436
 11
143.3044322261
 21
108.6763207392
  0
LINE
  5
32B
100
AcDbEntity
  8
0
100
AcDbLine
 62
7
  6
CONTINUOUS
 10
142.1392897363
 20
107.3736875027
 11
142.3909561108
 21
102.8223211376
  0
LWPOLYLINE
  5
32C
100
AcDbEntity
  8
0
100
AcDbPolyline
 62
7
  6
CONTINUOUS
 90
12
 70
0
 10
143.0306838857
 20
96.2670053873
 10
143.032881756
 20
96.1728559338
 10
143.0382930796
 20
96.0794841377
 10
143.0469178566
 20
95.986889999
 10
143.0590127193
 20
95.8945316832
 10
143.0743210354
 20
95.8029510247
 10
143.0920729077
 20
95.7137735276
 10
143.1122503758
 20
95.6272777203
 10
143.1348714
 20
95.5431850744
 10
143.1592199649
 20
95.4622855077
 10
143.1852284278
 20
95.3848357813
 10
143.2129644313
 20
95.3105791343
  0
LWPOLYLINE
  5
32D
100
AcDbEntity
  8
0
100
AcDbPolyline
 62
7
  6
CONTINUOUS
 90
16
 70
0
 10
142.2342048394
 20
96.4822820117
 10
142.2364976406
 20
96.3712043478
 10
142.2429465355
 20
96.2588680435
 10
142.2535515241
 20
96.145273099
 10
142.2684902039
 20
96.0297193059
 10
142.2875849774
 20
95.9129068726
 10
142.3103030522
 20
95.7969364235
 10
142.3367806735
 20
95.6818508686
 10
142.3668815961
 20
95.567607298
 10
142.3996642917
 20
95.4561776063
 10
142.435193944
 20
95.3476978732
 10
142.4734053693
 20
95.2420320191
 10
142.5131614884
 20
95.140743699
 10
142.5540832751
 20
95.0443541313
 10
142.5965497556
 20
94.9523420976
 10
142.64056093
 20
94.864707598
  0
LINE
  5
32E
100
AcDbEntity
  8
0
100
AcDbLine
 62
7
  6
CONTINUOUS
 10
137.3212974746
 20
99.0704454559
 11
137.3212974746
 21
99.6663544522
  0
LINE
  5
32F
100
AcDbEntity
  8
0
100
AcDbLine
 62
7
  6
CONTINUOUS
 10
137.4378187726
 20
100.5326751683
 11
137.4378187726
 21
101.128571101
  0
LINE
  5
330
100
AcDbEntity
  8
0
100
AcDbLine
 62
7
  6
CONTINUOUS
 10
137.4508889343
 20
97.3664369974
 11
137.4508889343
 21
97.9623329301
  0
LINE
  5
331
100
AcDbEntity
  8
0
100
AcDbLine
 62
7
  6
CONTINUOUS
 10
137.5334295089
 20
99.1929278339
 11
137.5334295089
 21
99.7888368301
  0
LINE
  5
332
100
AcDbEntity
  8
0
100
AcDbLine
 62
7
  6
CONTINUOUS
 10
137.649950807
 20
100.6551575463
 11
137.649950807
 21
101.251053479
  0
LINE
  5
333
100
AcDbEntity
  8
0
100
AcDbLine
 62
7
  6
CONTINUOUS
 10
137.6630209687
 20
97.4889193754
 11
137.6630209687
 21
98.0848153081
  0
LINE
  5
334
100
AcDbEntity
  8
0
100
AcDbLine
 62
7
  6
CONTINUOUS
 10
138.1492891097
 20
100.7177770452
 11
138.1492891097
 21
96.9631894891
  0
LINE
  5
335
100
AcDbEntity
  8
0
100
AcDbLine
 62
7
  6
CONTINUOUS
 10
138.7300267167
 20
96.6278788732
 11
138.7300267167
 21
100.3824664292
  0
LINE
  5
336
100
AcDbEntity
  8
0
100
AcDbLine
 62
7
  6
CONTINUOUS
 10
138.9421587511
 20
96.7503612512
 11
138.9421587511
 21
100.5049488072
  0
LINE
  5
337
100
AcDbEntity
  8
0
100
AcDbLine
 62
7
  6
CONTINUOUS
 10
139.4206437678
 20
99.9837127994
 11
139.4206437678
 21
96.2291252434
  0
LINE
  5
338
100
AcDbEntity
  8
0
100
AcDbLine
 62
7
  6
CONTINUOUS
 10
140.001356626
 20
95.893828917
 11
140.0013453123
 21
97.1950547437
  0
LINE
  5
339
100
AcDbEntity
  8
0
100
AcDbLine
 62
7
  6
CONTINUOUS
 10
140.0013453123
 20
98.0114164299
 11
140.001356626
 21
99.6484164731
  0
LINE
  5
33A
100
AcDbEntity
  8
0
100
AcDbLine
 62
7
  6
CONTINUOUS
 10
140.2134886604
 20
96.016311295
 11
140.2134774904
 21
97.3010086379
  0
LINE
  5
33B
100
AcDbEntity
  8
0
100
AcDbLine
 62
7
  6
CONTINUOUS
 10
140.2134773467
 20
98.1338988079
 11
140.2134886604
 21
99.7708988511
  0
LWPOLYLINE
  5
33C
100
AcDbEntity
  8
0
100
AcDbPolyline
 62
7
  6
CONTINUOUS
 90
8
 70
0
 10
142.8185518514
 20
96.1445230093
 10
142.8207857365
 20
96.2380483572
 10
142.8262986113
 20
96.3267042831
 10
142.8350904759
 20
96.410490787
 10
142.847445064
 20
96.4896522121
 10
142.8630786419
 20
96.5639442152
 10
142.8811400079
 20
96.6326337664
 10
142.9016157315
 20
96.6953302133
  0
LINE
  5
33D
100
AcDbEntity
  8
0
100
AcDbLine
 62
7
  6
CONTINUOUS
 10
138.8097119941
 20
104.8900866071
 11
139.0740518434
 21
109.1619615092
  0
LINE
  5
33E
100
AcDbEntity
  8
0
100
AcDbLine
 62
7
  6
CONTINUOUS
 10
139.0218440285
 20
105.0125689851
 11
139.2408631165
 21
108.552035878
  0
LINE
  5
33F
100
AcDbEntity
  8
0
100
AcDbLine
 62
7
  6
CONTINUOUS
 10
138.1368750279
 20
111.6600035008
 11
137.6378500886
 21
105.5667049844
  0
LINE
  5
340
100
AcDbEntity
  8
0
100
AcDbLine
 62
7
  6
CONTINUOUS
 10
141.7001407503
 20
109.6026185309
 11
140.6036348269
 21
106.8681739698
  0
LINE
  5
341
100
AcDbEntity
  8
0
100
AcDbLine
 62
7
  6
CONTINUOUS
 10
140.6828435143
 20
103.8085639431
 11
142.1392897363
 21
107.3736875027
  0
LINE
  5
342
100
AcDbEntity
  8
0
100
AcDbLine
 62
7
  6
CONTINUOUS
 10
140.8949755487
 20
103.9310463211
 11
142.1586139649
 21
107.0242103668
  0
LWPOLYLINE
  5
343
100
AcDbEntity
  8
0
100
AcDbPolyline
 62
7
  6
CONTINUOUS
 90
22
 70
0
 10
154.4460829548
 20
125.9867072824
 10
154.4758242703
 20
126.0081106274
 10
154.5052326216
 20
126.0317351773
 10
154.5341613046
 20
126.0574630488
 10
154.5624659796
 20
126.0851658366
 10
154.5900054875
 20
126.1147053459
 10
154.616642544
 20
126.1459343023
 10
154.6422442994
 20
126.1786969518
 10
154.6666830104
 20
126.2128298182
 10
154.689836767
 20
126.2481626255
 10
154.7115900687
 20
126.2845191107
 10
154.731834403
 20
126.3217179069
 10
154.7504687864
 20
126.3595734493
 10
154.7674002644
 20
126.3978968928
 10
154.7825443788
 20
126.4364970607
 10
154.7958255895
 20
126.475181403
 10
154.8071776474
 20
126.5137569464
 10
154.8165439252
 20
126.5520312544
 10
154.8238777032
 20
126.5898133948
 10
154.829142401
 20
126.6269148926
 10
154.8323117599
 20
126.6631506706
 10
154.8333699735
 20
126.6983399696
  0
LINE
  5
344
100
AcDbEntity
  8
0
100
AcDbLine
 62
7
  6
CONTINUOUS
 10
156.7601023161
 20
126.8045957622
 11
157.5821601334
 21
127.3108776392
  0
LINE
  5
345
100
AcDbEntity
  8
0
100
AcDbLine
 62
7
  6
CONTINUOUS
 10
157.1985577299
 20
126.0804783259
 11
158.0206155472
 21
126.5867602029
  0
LINE
  5
346
100
AcDbEntity
  8
0
100
AcDbLine
 62
7
  6
CONTINUOUS
 10
133.6247631327
 20
108.128775853
 11
133.4126310984
 21
108.006293475
  0
LWPOLYLINE
  5
347
100
AcDbEntity
  8
0
100
AcDbPolyline
 62
7
  6
CONTINUOUS
 90
13
 70
0
 10
143.2203858323
 20
97.0602043002
 10
143.2583583516
 20
97.0699723022
 10
143.2990636366
 20
97.0768008226
 10
143.3419587073
 20
97.0801443761
 10
143.3871993373
 20
97.0798757553
 10
143.434629753
 20
97.0761221676
 10
143.4832396539
 20
97.0687197507
 10
143.5326212782
 20
97.0577291058
 10
143.5831823877
 20
97.0430896316
 10
143.6351359671
 20
97.0244556614
 10
143.6885530112
 20
97.0017119727
 10
143.7433625253
 20
96.9749737879
 10
143.7995645092
 20
96.944241107
  0
LINE
  5
348
100
AcDbEntity
  8
0
100
AcDbLine
 62
7
  6
CONTINUOUS
 10
152.2538455436
 20
100.4106459049
 11
152.3201368043
 21
100.426849141
  0
LINE
  5
349
100
AcDbEntity
  8
0
100
AcDbLine
 62
7
  6
CONTINUOUS
 10
151.4866120586
 20
101.5413539
 11
151.4549874149
 21
101.5346597918
  0
LINE
  5
34A
100
AcDbEntity
  8
0
100
AcDbLine
 62
7
  6
CONTINUOUS
 10
151.4549874149
 20
101.5346597918
 11
151.4216742002
 21
101.5303474217
  0
LINE
  5
34B
100
AcDbEntity
  8
0
100
AcDbLine
 62
7
  6
CONTINUOUS
 10
151.6639693515
 20
101.6567343921
 11
151.6338062346
 21
101.6528297997
  0
LINE
  5
34C
100
AcDbEntity
  8
0
100
AcDbLine
 62
7
  6
CONTINUOUS
 10
152.1934147838
 20
100.4030356915
 11
152.2538455436
 21
100.4106459049
  0
LINE
  5
34D
100
AcDbEntity
  8
0
100
AcDbLine
 62
7
  6
CONTINUOUS
 10
197.596297644
 20
102.3918623697
 11
197.5868884254
 21
102.3906577519
  0
LINE
  5
34E
100
AcDbEntity
  8
0
100
AcDbLine
 62
7
  6
CONTINUOUS
 10
197.5868884254
 20
102.3906577519
 11
197.5772839919
 21
102.389481705
  0
LINE
  5
34F
100
AcDbEntity
  8
0
100
AcDbLine
 62
7
  6
CONTINUOUS
 10
197.5772839919
 20
102.389481705
 11
197.5675077186
 21
102.3883369186
  0
LINE
  5
350
100
AcDbEntity
  8
0
100
AcDbLine
 62
7
  6
CONTINUOUS
 10
197.5675077186
 20
102.3883369186
 11
197.557584312
 21
102.3872257865
  0
LINE
  5
351
100
AcDbEntity
  8
0
100
AcDbLine
 62
7
  6
CONTINUOUS
 10
197.557584312
 20
102.3872257865
 11
197.5475375771
 21
102.3861501939
  0
LINE
  5
352
100
AcDbEntity
  8
0
100
AcDbLine
 62
7
  6
CONTINUOUS
 10
197.5475375771
 20
102.3861501939
 11
197.5373915133
 21
102.3851117067
  0
LINE
  5
353
100
AcDbEntity
  8
0
100
AcDbLine
 62
7
  6
CONTINUOUS
 10
197.5373915133
 20
102.3851117067
 11
197.5246077775
 21
102.3838678807
  0
LINE
  5
354
100
AcDbEntity
  8
0
100
AcDbLine
 62
7
  6
CONTINUOUS
 10
197.5246077775
 20
102.3838678807
 11
197.5117563815
 21
102.3826862258
  0
LINE
  5
355
100
AcDbEntity
  8
0
100
AcDbLine
 62
7
  6
CONTINUOUS
 10
197.5117563815
 20
102.3826862258
 11
197.4988875242
 21
102.3815684395
  0
LWPOLYLINE
  5
356
100
AcDbEntity
  8
0
100
AcDbPolyline
 62
7
  6
CONTINUOUS
 90
3
 70
0
 10
200.7026486827
 20
101.4797579697
 10
200.7577585005
 20
101.4844294656
 10
200.8116560858
 20
101.4915050916
  0
LINE
  5
357
100
AcDbEntity
  8
0
100
AcDbLine
 62
7
  6
CONTINUOUS
 10
197.4988875242
 20
102.3815684395
 11
197.4860525375
 21
102.3805158396
  0
LINE
  5
358
100
AcDbEntity
  8
0
100
AcDbLine
 62
7
  6
CONTINUOUS
 10
197.4860525375
 20
102.3805158396
 11
197.4733027391
 21
102.3795293161
  0
LINE
  5
359
100
AcDbEntity
  8
0
100
AcDbLine
 62
7
  6
CONTINUOUS
 10
197.4733027391
 20
102.3795293161
 11
197.4581869478
 21
102.3784333439
  0
LINE
  5
35A
100
AcDbEntity
  8
0
100
AcDbLine
 62
7
  6
CONTINUOUS
 10
197.4581869478
 20
102.3784333439
 11
197.4433030767
 21
102.3774299625
  0
LINE
  5
35B
100
AcDbEntity
  8
0
100
AcDbLine
 62
7
  6
CONTINUOUS
 10
197.4433030767
 20
102.3774299625
 11
197.4286487949
 21
102.3765139085
  0
LINE
  5
35C
100
AcDbEntity
  8
0
100
AcDbLine
 62
7
  6
CONTINUOUS
 10
197.4286487949
 20
102.3765139085
 11
197.4142199078
 21
102.3756806893
  0
LINE
  5
35D
100
AcDbEntity
  8
0
100
AcDbLine
 62
7
  6
CONTINUOUS
 10
151.4216742002
 20
101.5303474217
 11
151.3866172602
 21
101.5284616985
  0
LINE
  5
35E
100
AcDbEntity
  8
0
100
AcDbLine
 62
7
  6
CONTINUOUS
 10
151.6338062346
 20
101.6528297997
 11
151.5987492946
 21
101.6509440765
  0
LINE
  5
35F
100
AcDbEntity
  8
0
100
AcDbLine
 62
7
  6
CONTINUOUS
 10
197.4142199078
 20
102.3756806893
 11
197.4000114875
 21
102.3749265387
  0
LINE
  5
360
100
AcDbEntity
  8
0
100
AcDbLine
 62
7
  6
CONTINUOUS
 10
197.4000114875
 20
102.3749265387
 11
197.3860181018
 21
102.374248324
  0
LINE
  5
361
100
AcDbEntity
  8
0
100
AcDbLine
 62
7
  6
CONTINUOUS
 10
197.3860181018
 20
102.374248324
 11
197.3722339777
 21
102.3736434654
  0
LINE
  5
362
100
AcDbEntity
  8
0
100
AcDbLine
 62
7
  6
CONTINUOUS
 10
152.1766542318
 20
100.4023797764
 11
152.1934147838
 21
100.4030356915
  0
LINE
  5
363
100
AcDbEntity
  8
0
100
AcDbLine
 62
7
  6
CONTINUOUS
 10
197.3722339777
 20
102.3736434654
 11
197.3586531186
 21
102.3731098681
  0
LINE
  5
364
100
AcDbEntity
  8
0
100
AcDbLine
 62
7
  6
CONTINUOUS
 10
197.3586531186
 20
102.3731098681
 11
197.3452693942
 21
102.3726458649
  0
LINE
  5
365
100
AcDbEntity
  8
0
100
AcDbLine
 62
7
  6
CONTINUOUS
 10
197.3452693942
 20
102.3726458649
 11
197.3320766103
 21
102.3722501693
  0
LINE
  5
366
100
AcDbEntity
  8
0
100
AcDbLine
 62
7
  6
CONTINUOUS
 10
197.3320766103
 20
102.3722501693
 11
197.3190697747
 21
102.371921865
  0
LINE
  5
367
100
AcDbEntity
  8
0
100
AcDbLine
 62
7
  6
CONTINUOUS
 10
197.3190697747
 20
102.371921865
 11
197.3062541021
 21
102.3716605053
  0
LWPOLYLINE
  5
368
100
AcDbEntity
  8
0
100
AcDbPolyline
 62
7
  6
CONTINUOUS
 90
11
 70
0
 10
197.5739302961
 20
102.2447055497
 10
197.5700119162
 20
102.244639633
 10
197.568071482
 20
102.2457286154
 10
197.568113459
 20
102.2479788203
 10
197.5700567412
 20
102.2513374189
 10
197.5739936127
 20
102.2558666765
 10
197.5801910074
 20
102.2617500096
 10
197.5888012455
 20
102.2690764761
 10
197.599693321
 20
102.2777730283
 10
197.6127139518
 20
102.2877856083
 10
197.6282609908
 20
102.2993425648
  0
LINE
  5
369
100
AcDbEntity
  8
0
100
AcDbLine
 62
7
  6
CONTINUOUS
 10
197.3062541021
 20
102.3716605053
 11
197.2936396733
 21
102.371465763
  0
LINE
  5
36A
100
AcDbEntity
  8
0
100
AcDbLine
 62
7
  6
CONTINUOUS
 10
197.2936396733
 20
102.371465763
 11
197.2812366499
 21
102.3713372342
  0
LINE
  5
36B
100
AcDbEntity
  8
0
100
AcDbLine
 62
7
  6
CONTINUOUS
 10
197.2812366499
 20
102.3713372342
 11
197.2710697085
 21
102.3712803367
  0
LINE
  5
36C
100
AcDbEntity
  8
0
100
AcDbLine
 62
7
  6
CONTINUOUS
 10
197.2710697085
 20
102.3712803367
 11
197.2610628559
 21
102.3712686822
  0
LINE
  5
36D
100
AcDbEntity
  8
0
100
AcDbLine
 62
7
  6
CONTINUOUS
 10
197.2610628559
 20
102.3712686822
 11
197.2512249518
 21
102.3713017887
  0
LINE
  5
36E
100
AcDbEntity
  8
0
100
AcDbLine
 62
7
  6
CONTINUOUS
 10
197.2512249518
 20
102.3713017887
 11
197.2454082134
 21
102.3713428844
  0
LINE
  5
36F
100
AcDbEntity
  8
0
100
AcDbLine
 62
7
  6
CONTINUOUS
 10
151.3866172602
 20
101.5284616985
 11
151.3497607335
 21
101.5290569206
  0
LINE
  5
370
100
AcDbEntity
  8
0
100
AcDbLine
 62
7
  6
CONTINUOUS
 10
151.5987492946
 20
101.6509440765
 11
151.5618927678
 21
101.6515392986
  0
LINE
  5
371
100
AcDbEntity
  8
0
100
AcDbLine
 62
7
  6
CONTINUOUS
 10
152.1367939154
 20
100.4045950432
 11
152.1766542318
 21
100.4023797764
  0
LINE
  5
372
100
AcDbEntity
  8
0
100
AcDbLine
 62
7
  6
CONTINUOUS
 10
151.3497607335
 20
101.5290569206
 11
151.311045223
 21
101.5321967762
  0
LINE
  5
373
100
AcDbEntity
  8
0
100
AcDbLine
 62
7
  6
CONTINUOUS
 10
151.5618927678
 20
101.6515392986
 11
151.5231772573
 21
101.6546791542
  0
LINE
  5
374
100
AcDbEntity
  8
0
100
AcDbLine
 62
7
  6
CONTINUOUS
 10
151.311045223
 20
101.5321967762
 11
151.2704113318
 21
101.5379555671
  0
LINE
  5
375
100
AcDbEntity
  8
0
100
AcDbLine
 62
7
  6
CONTINUOUS
 10
151.5231772573
 20
101.6546791542
 11
151.4825433662
 21
101.6604379451
  0
LINE
  5
376
100
AcDbEntity
  8
0
100
AcDbLine
 62
7
  6
CONTINUOUS
 10
151.2704113318
 20
101.5379555671
 11
151.2278010772
 21
101.5464124944
  0
LINE
  5
377
100
AcDbEntity
  8
0
100
AcDbLine
 62
7
  6
CONTINUOUS
 10
151.4825433662
 20
101.6604379451
 11
151.4399331115
 21
101.6688948724
  0
LINE
  5
378
100
AcDbEntity
  8
0
100
AcDbLine
 62
7
  6
CONTINUOUS
 10
151.2278010772
 20
101.5464124944
 11
151.1831578905
 21
101.557652474
  0
LINE
  5
379
100
AcDbEntity
  8
0
100
AcDbLine
 62
7
  6
CONTINUOUS
 10
151.4399331115
 20
101.6688948724
 11
151.3952899249
 21
101.680134852
  0
LINE
  5
37A
100
AcDbEntity
  8
0
100
AcDbLine
 62
7
  6
CONTINUOUS
 10
152.11671279
 20
100.4097362523
 11
152.1367939154
 21
100.4045950432
  0
LINE
  5
37B
100
AcDbEntity
  8
0
100
AcDbLine
 62
7
  6
CONTINUOUS
 10
151.1831578905
 20
101.557652474
 11
151.136429446
 21
101.5717677701
  0
LINE
  5
37C
100
AcDbEntity
  8
0
100
AcDbLine
 62
7
  6
CONTINUOUS
 10
151.3952899249
 20
101.680134852
 11
151.3485614804
 21
101.6942501481
  0
LINE
  5
37D
100
AcDbEntity
  8
0
100
AcDbLine
 62
7
  6
CONTINUOUS
 10
151.136429446
 20
101.5717677701
 11
151.0875683674
 21
101.5888502382
  0
LINE
  5
37E
100
AcDbEntity
  8
0
100
AcDbLine
 62
7
  6
CONTINUOUS
 10
151.3485614804
 20
101.6942501481
 11
151.2997004018
 21
101.7113326162
  0
LWPOLYLINE
  5
37F
100
AcDbEntity
  8
0
100
AcDbPolyline
 62
7
  6
CONTINUOUS
 90
15
 70
0
 10
143.5513921192
 20
97.663308498
 10
143.4740551872
 20
97.6935146242
 10
143.3991980514
 20
97.7183886191
 10
143.3270525645
 20
97.7383579458
 10
143.2579580394
 20
97.7534143265
 10
143.1915751632
 20
97.7635660391
 10
143.1271178502
 20
97.7692653793
 10
143.0643072613
 20
97.770600147
 10
143.0034222356
 20
97.7674825423
 10
142.9445132047
 20
97.7601014617
 10
142.8873041954
 20
97.7483734465
 10
142.8320711808
 20
97.7323819553
 10
142.7796925119
 20
97.7125662602
 10
142.7304609722
 20
97.6890727849
 10
142.7117754927
 20
97.6787245816
  0
LINE
  5
380
100
AcDbEntity
  8
0
100
AcDbLine
 62
7
  6
CONTINUOUS
 10
151.0875683674
 20
101.5888502382
 11
151.0365357639
 21
101.6089949992
  0
LINE
  5
381
100
AcDbEntity
  8
0
100
AcDbLine
 62
7
  6
CONTINUOUS
 10
148.7712654503
 20
94.8297457868
 11
148.212219758
 21
95.152531763
  0
LINE
  5
382
100
AcDbEntity
  8
0
100
AcDbLine
 62
7
  6
CONTINUOUS
 10
146.7127192183
 20
96.0183245814
 11
146.1453049173
 21
96.3459424875
  0
LINE
  5
383
100
AcDbEntity
  8
0
100
AcDbLine
 62
7
  6
CONTINUOUS
 10
142.4336915233
 20
98.4889815437
 11
141.6550488704
 21
98.9385600528
  0
LINE
  5
384
100
AcDbEntity
  8
0
100
AcDbLine
 62
7
  6
CONTINUOUS
 10
140.2134886604
 20
99.7708988511
 11
139.6327758021
 21
100.1061951774
  0
LINE
  5
385
100
AcDbEntity
  8
0
100
AcDbLine
 62
7
  6
CONTINUOUS
 10
138.9421587511
 20
100.5049488072
 11
138.3614211441
 21
100.8402594232
  0
LINE
  5
386
100
AcDbEntity
  8
0
100
AcDbLine
 62
7
  6
CONTINUOUS
 10
137.649950807
 20
101.251053479
 11
135.3518459899
 21
102.5779503983
  0
LINE
  5
387
100
AcDbEntity
  8
0
100
AcDbLine
 62
7
  6
CONTINUOUS
 10
217.9200440939
 20
55.1828830938
 11
217.4541548827
 21
55.4518816854
  0
LINE
  5
388
100
AcDbEntity
  8
0
100
AcDbLine
 62
7
  6
CONTINUOUS
 10
217.9200440939
 20
56.1363824759
 11
217.8562146857
 21
56.1732367762
  0
LINE
  5
389
100
AcDbEntity
  8
0
100
AcDbLine
 62
7
  6
CONTINUOUS
 10
132.3331576436
 20
108.6295679188
 11
133.4126310984
 21
108.006293475
  0
LINE
  5
38A
100
AcDbEntity
  8
0
100
AcDbLine
 62
7
  6
CONTINUOUS
 10
135.7534960767
 20
106.6547073744
 11
136.9784291745
 21
105.9474463557
  0
LINE
  5
38B
100
AcDbEntity
  8
0
100
AcDbLine
 62
7
  6
CONTINUOUS
 10
137.6378500886
 20
105.5667049844
 11
138.8097119941
 21
104.8900866071
  0
LINE
  5
38C
100
AcDbEntity
  8
0
100
AcDbLine
 62
7
  6
CONTINUOUS
 10
140.5110476792
 20
103.9077567052
 11
140.6828435143
 21
103.8085639431
  0
LINE
  5
38D
100
AcDbEntity
  8
0
100
AcDbLine
 62
7
  6
CONTINUOUS
 10
142.3909561108
 20
102.8223211376
 11
143.5892659313
 21
102.1304320656
  0
LINE
  5
38E
100
AcDbEntity
  8
0
100
AcDbLine
 62
7
  6
CONTINUOUS
 10
143.7816131179
 20
102.0193732108
 11
144.9932568509
 21
101.3197853048
  0
LINE
  5
38F
100
AcDbEntity
  8
0
100
AcDbLine
 62
7
  6
CONTINUOUS
 10
147.3167404374
 20
99.978235002
 11
148.6077696345
 21
99.232810924
  0
LINE
  5
390
100
AcDbEntity
  8
0
100
AcDbLine
 62
7
  6
CONTINUOUS
 10
148.9674691973
 20
99.0251249046
 11
150.1874737609
 21
98.3207095598
  0
LINE
  5
391
100
AcDbEntity
  8
0
100
AcDbLine
 62
7
  6
CONTINUOUS
 10
152.0632901655
 20
97.2376366772
 11
153.2415337097
 21
96.5573336217
  0
LINE
  5
392
100
AcDbEntity
  8
0
100
AcDbLine
 62
7
  6
CONTINUOUS
 10
145.3312623776
 20
102.4773253445
 11
146.999417077
 21
101.5141537279
  0
LINE
  5
393
100
AcDbEntity
  8
0
100
AcDbLine
 62
7
  6
CONTINUOUS
 10
146.7546160022
 20
102.7022128788
 11
145.581829201
 21
103.3793652793
  0
LINE
  5
394
100
AcDbEntity
  8
0
100
AcDbLine
 62
7
  6
CONTINUOUS
 10
146.6997826798
 20
102.978837708
 11
145.7939612354
 21
103.5018476573
  0
LINE
  5
395
100
AcDbEntity
  8
0
100
AcDbLine
 62
7
  6
CONTINUOUS
 10
150.1874737609
 20
100.9724025342
 11
150.8442536311
 21
100.5931860685
  0
LINE
  5
396
100
AcDbEntity
  8
0
100
AcDbLine
 62
7
  6
CONTINUOUS
 10
150.8442536311
 20
100.5931860685
 11
150.8611216634
 21
100.5832384781
  0
LWPOLYLINE
  5
397
100
AcDbEntity
  8
0
100
AcDbPolyline
 62
7
  6
CONTINUOUS
 90
17
 70
0
 10
218.3300946003
 20
53.4027086509
 10
218.2812780742
 20
53.4323586816
 10
218.2351220237
 20
53.463396811
 10
218.1917446824
 20
53.4957435493
 10
218.1512571386
 20
53.52931608
 10
218.1137631433
 20
53.5640283964
 10
218.079358821
 20
53.5997915139
 10
218.0481323105
 20
53.6365138026
 10
218.0201635615
 20
53.6741012313
 10
217.995524206
 20
53.712457527
 10
217.9742773491
 20
53.7514844466
 10
217.9564774063
 20
53.7910820301
 10
217.9421699643
 20
53.8311488568
 10
217.9313916648
 20
53.8715823031
 10
217.9241701104
 20
53.9122788071
 10
217.9205237938
 20
53.9531341343
 10
217.9200441016
 20
53.9742083173
  0
LWPOLYLINE
  5
398
100
AcDbEntity
  8
0
100
AcDbPolyline
 62
7
  6
CONTINUOUS
 90
4
 70
0
 10
144.0101818737
 20
97.6627522467
 10
144.0946494519
 20
97.6114245214
 10
144.1766079478
 20
97.5576832118
 10
144.2560573613
 20
97.5015283179
  0
LINE
  5
399
100
AcDbEntity
  8
0
100
AcDbLine
 62
7
  6
CONTINUOUS
 10
150.8611216634
 20
100.5832384781
 11
150.9165376218
 21
100.5473686633
  0
LINE
  5
39A
100
AcDbEntity
  8
0
100
AcDbLine
 62
7
  6
CONTINUOUS
 10
144.2560573613
 20
97.5015283179
 11
144.3329657086
 21
97.4428409215
  0
LWPOLYLINE
  5
39B
100
AcDbEntity
  8
0
100
AcDbPolyline
 62
7
  6
CONTINUOUS
 90
12
 70
0
 10
144.3329657086
 20
97.4428409215
 10
144.4073649735
 20
97.3817399409
 10
144.4793511077
 20
97.3185821305
 10
144.5488240552
 20
97.2535290147
 10
144.6158838719
 20
97.186419069
 10
144.6809266776
 20
97.1171244748
 10
144.7441346751
 20
97.0454500416
 10
144.8053256615
 20
96.9715909598
 10
144.8643491483
 20
96.8960049811
 10
144.9213465632
 20
96.818495948
 10
144.9761764785
 20
96.7392600181
 10
145.0282641231
 20
96.6593434161
  0
LWPOLYLINE
  5
39C
100
AcDbEntity
  8
0
100
AcDbPolyline
 62
7
  6
CONTINUOUS
 90
3
 70
0
 10
145.0282641231
 20
96.6593434161
 10
145.0774179066
 20
96.5790948836
 10
145.1238294194
 20
96.4981656789
  0
LWPOLYLINE
  5
39D
100
AcDbEntity
  8
0
100
AcDbPolyline
 62
7
  6
CONTINUOUS
 90
16
 70
0
 10
143.3355398831
 20
95.0456993173
 10
143.3651682061
 20
94.9931083429
 10
143.3974288201
 20
94.9404091741
 10
143.4323217252
 20
94.887601811
 10
143.4699774557
 20
94.8343657803
 10
143.5102654773
 20
94.7810215553
 10
143.552794187
 20
94.7285305558
 10
143.5977425643
 20
94.6767778379
 10
143.6449316297
 20
94.6258783454
 10
143.6934328426
 20
94.5771383301
 10
143.7428789706
 20
94.5309265952
 10
143.7936372461
 20
94.4868743374
 10
143.8458808255
 20
94.4451813984
 10
143.8996674276
 20
94.4059143923
 10
143.9549393336
 20
94.369006705
 10
144.0116965435
 20
94.3344583366
  0
LINE
  5
39E
100
AcDbEntity
  8
0
100
AcDbLine
 62
7
  6
CONTINUOUS
 10
145.1238294194
 20
96.4981656789
 11
145.1674986614
 21
96.4165558022
  0
LWPOLYLINE
  5
39F
100
AcDbEntity
  8
0
100
AcDbPolyline
 62
7
  6
CONTINUOUS
 90
19
 70
0
 10
144.9553666271
 20
96.2940734242
 10
144.9118251295
 20
96.3755061457
 10
144.8654332101
 20
96.4564043114
 10
144.8161908689
 20
96.5367679212
 10
144.7638048041
 20
96.6170815872
 10
144.7085683174
 20
96.6968606974
 10
144.6513613145
 20
96.7746514153
 10
144.5924612322
 20
96.8500499478
 10
144.5315906338
 20
96.9234600881
 10
144.4687971135
 20
96.9946393796
 10
144.4043595725
 20
97.0633540118
 10
144.3379991098
 20
97.1298377951
 10
144.2689266163
 20
97.1945497049
 10
144.1968016838
 20
97.2578745809
 10
144.1219647205
 20
97.3194275833
 10
144.0446478428
 20
97.3785131677
 10
143.9649284228
 20
97.434899486
 10
143.8827290883
 20
97.4888183864
 10
143.7980498393
 20
97.5402698687
  0
LWPOLYLINE
  5
3A0
100
AcDbEntity
  8
0
100
AcDbPolyline
 62
7
  6
CONTINUOUS
 90
16
 70
0
 10
143.1234078488
 20
94.9232169393
 10
143.0912734398
 20
94.984012604
 10
143.060292706
 20
95.0480918163
 10
143.0304656473
 20
95.115454576
 10
143.001621611
 20
95.1860683894
 10
142.9739312499
 20
95.2599657503
 10
142.9479065221
 20
95.3372441404
 10
142.9234597336
 20
95.4182050694
 10
142.9006785784
 20
95.5025470277
 10
142.880338097
 20
95.5894629678
 10
142.8624206213
 20
95.6793829528
 10
142.8469438194
 20
95.7718769196
 10
142.8347357369
 20
95.8648476323
 10
142.826072389
 20
95.9575960122
 10
142.8206777605
 20
96.0508211378
 10
142.8185518514
 20
96.1445230093
  0
LWPOLYLINE
  5
3A1
100
AcDbEntity
  8
0
100
AcDbPolyline
 62
7
  6
CONTINUOUS
 90
16
 70
0
 10
144.4725082335
 20
96.2348552353
 10
144.5046416788
 20
96.1740648978
 10
144.5356214591
 20
96.1099907206
 10
144.5654475745
 20
96.0426327036
 10
144.5942906912
 20
95.9720232666
 10
144.6219801429
 20
95.8981299898
 10
144.6480039312
 20
95.820855614
 10
144.67244962
 20
95.7398991038
 10
144.6952296453
 20
95.6555614945
 10
144.715569317
 20
95.5686486327
 10
144.7334864068
 20
95.4787317356
 10
144.7489631431
 20
95.3862395859
 10
144.7611715204
 20
95.2932643784
 10
144.769835537
 20
95.2005035114
 10
144.7752311947
 20
95.1072595865
 10
144.7773584935
 20
95.0135326038
  0
LWPOLYLINE
  5
3A2
100
AcDbEntity
  8
0
100
AcDbPolyline
 62
7
  6
CONTINUOUS
 90
12
 70
0
 10
145.1674986614
 20
96.4165558022
 10
145.2115913435
 20
96.3287044066
 10
145.2540938982
 20
96.2366023938
 10
145.2950063254
 20
96.1402497638
 10
145.3346881059
 20
96.0391589188
 10
145.3727797589
 20
95.9338174566
 10
145.4082028425
 20
95.8256881707
 10
145.4409018152
 20
95.714662751
 10
145.4709322185
 20
95.6008495077
 10
145.4973822338
 20
95.4860361648
 10
145.5201417366
 20
95.3701054732
 10
145.5393208515
 20
95.2531746821
  0
LWPOLYLINE
  5
3A3
100
AcDbEntity
  8
0
100
AcDbPolyline
 62
7
  6
CONTINUOUS
 90
3
 70
0
 10
143.2719087666
 20
95.171710526
 10
143.3031170986
 20
95.1070985648
 10
143.3355398831
 20
95.0456993173
  0
LINE
  5
3A4
100
AcDbEntity
  8
0
100
AcDbLine
 62
7
  6
CONTINUOUS
 10
142.4413565609
 20
94.7299682911
 11
141.0391913011
 21
97.7429421777
  0
LINE
  5
3A5
100
AcDbEntity
  8
0
100
AcDbLine
 62
7
  6
CONTINUOUS
 10
148.0000764099
 20
92.3782617007
 11
146.500587184
 21
95.8958422034
  0
LINE
  5
3A6
100
AcDbEntity
  8
0
100
AcDbLine
 62
7
  6
CONTINUOUS
 10
148.0000790556
 20
92.9983683289
 11
146.7127192183
 21
96.0183245814
  0
LINE
  5
3A7
100
AcDbEntity
  8
0
100
AcDbLine
 62
7
  6
CONTINUOUS
 10
146.5000900879
 20
94.7643903769
 11
147.9788554283
 21
91.2877210902
  0
LWPOLYLINE
  5
3A8
100
AcDbEntity
  8
0
100
AcDbPolyline
 62
7
  6
CONTINUOUS
 90
3
 70
0
 10
143.2129644313
 20
95.3105791343
 10
143.2419148873
 20
95.2395352009
 10
143.2719087666
 20
95.171710526
  0
LINE
  5
3A9
100
AcDbEntity
  8
0
100
AcDbLine
 62
7
  6
CONTINUOUS
 10
139.0740518434
 20
109.1619615092
 11
140.5110476792
 21
103.9077567052
  0
LINE
  5
3AA
100
AcDbEntity
  8
0
100
AcDbLine
 62
7
  6
CONTINUOUS
 10
140.6036348269
 20
106.8681739698
 11
139.5187091094
 21
110.8621498206
  0
LINE
  5
3AB
100
AcDbEntity
  8
0
100
AcDbLine
 62
7
  6
CONTINUOUS
 10
140.7499335612
 20
107.2330108301
 11
139.8097615162
 21
110.6940998086
  0
LWPOLYLINE
  5
3AC
100
AcDbEntity
  8
0
100
AcDbPolyline
 62
7
  6
CONTINUOUS
 90
16
 70
0
 10
145.3617055055
 20
94.6765023238
 10
145.3594124642
 20
94.7875883769
 10
145.3529636914
 20
94.8999307273
 10
145.3423591871
 20
95.0135293748
 10
145.3274212447
 20
95.1290844743
 10
145.3083275709
 20
95.245895871
 10
145.2856112858
 20
95.3618631011
 10
145.2591365016
 20
95.4769423588
 10
145.2290391061
 20
95.5911774499
 10
145.1962598835
 20
95.7025993287
 10
145.1607339511
 20
95.8110717066
 10
145.1225261914
 20
95.9167308722
 10
145.082772036
 20
96.0180166449
 10
145.0418499621
 20
96.1144089643
 10
144.9993814925
 20
96.2064278907
 10
144.9553666271
 20
96.2940734242
  0
LINE
  5
3AD
100
AcDbEntity
  8
0
100
AcDbLine
 62
7
  6
CONTINUOUS
 10
145.9331728829
 20
96.2234601095
 11
145.9331728829
 21
92.4688725534
  0
LINE
  5
3AE
100
AcDbEntity
  8
0
100
AcDbLine
 62
7
  6
CONTINUOUS
 10
148.0000877236
 20
95.030049385
 11
148.0000764099
 21
92.3782617007
  0
LINE
  5
3AF
100
AcDbEntity
  8
0
100
AcDbLine
 62
7
  6
CONTINUOUS
 10
148.5591334159
 20
90.9526758527
 11
148.5591334159
 21
94.7072634088
  0
LINE
  5
3B0
100
AcDbEntity
  8
0
100
AcDbLine
 62
7
  6
CONTINUOUS
 10
148.7712654503
 20
91.0751582307
 11
148.7712654503
 21
94.8297457868
  0
LINE
  5
3B1
100
AcDbEntity
  8
0
100
AcDbLine
 62
7
  6
CONTINUOUS
 10
148.9674691973
 20
105.4065541666
 11
148.9674691973
 21
99.0251249046
  0
LINE
  5
3B2
100
AcDbEntity
  8
0
100
AcDbLine
 62
7
  6
CONTINUOUS
 10
150.1468568403
 20
102.1055745083
 11
150.1468568403
 21
103.9656775046
  0
LINE
  5
3B3
100
AcDbEntity
  8
0
100
AcDbLine
 62
7
  6
CONTINUOUS
 10
150.1874737609
 20
98.3207095598
 11
150.1874737609
 21
100.9724025342
  0
LINE
  5
3B4
100
AcDbEntity
  8
0
100
AcDbLine
 62
7
  6
CONTINUOUS
 10
150.3589888746
 20
102.2280568863
 11
150.3589888746
 21
103.8793985936
  0
LINE
  5
3B5
100
AcDbEntity
  8
0
100
AcDbLine
 62
7
  6
CONTINUOUS
 10
146.492210797
 20
92.1460910682
 11
146.5000900879
 21
94.7643903769
  0
LINE
  5
3B6
100
AcDbEntity
  8
0
100
AcDbLine
 62
7
  6
CONTINUOUS
 10
146.7043428314
 20
92.2685734462
 11
146.7103658144
 21
94.2700190659
  0
LWPOLYLINE
  5
3B7
100
AcDbEntity
  8
0
100
AcDbPolyline
 62
7
  6
CONTINUOUS
 90
16
 70
0
 10
145.5738375399
 20
94.7989847018
 10
145.5715438276
 20
94.6917335902
 10
145.5650846281
 20
94.5876262291
 10
145.5544599413
 20
94.4866626185
 10
145.5394653706
 20
94.3882000174
 10
145.5203053127
 20
94.2928811668
 10
145.497592957
 20
94.20263429
 10
145.4712215209
 20
94.1177564034
 10
145.4412977869
 20
94.0379504906
 10
145.408755292
 20
93.9642537261
 10
145.3736413169
 20
93.8970781094
 10
145.3359085809
 20
93.8360116409
 10
145.2963487779
 20
93.780855496
 10
145.255225806
 20
93.7315433997
 10
145.2122757672
 20
93.688141627
 10
145.1674986614
 20
93.6506501778
  0
LWPOLYLINE
  5
3B8
100
AcDbEntity
  8
0
100
AcDbPolyline
 62
7
  6
CONTINUOUS
 90
16
 70
0
 10
144.7773584935
 20
95.0135326038
 10
144.775123991
 20
94.92000204
 10
144.7696104546
 20
94.8313424633
 10
144.7608178844
 20
94.7475538738
 10
144.7484623768
 20
94.6683921448
 10
144.7328278354
 20
94.594101403
 10
144.7147659705
 20
94.5254140281
 10
144.6942904645
 20
94.4627209125
 10
144.6713876348
 20
94.4056311639
 10
144.6468681445
 20
94.3537044849
 10
144.6208138594
 20
94.3069950355
 10
144.5931429136
 20
94.2654486557
 10
144.5644203716
 20
94.2284625685
 10
144.5348345884
 20
94.1958358482
 10
144.504197209
 20
94.1677694205
 10
144.4725082335
 20
94.1442632854
  0
LINE
  5
3B9
100
AcDbEntity
  8
0
100
AcDbLine
 62
7
  6
CONTINUOUS
 10
145.581829201
 20
103.3793652793
 11
146.1917427409
 21
105.5418131945
  0
LINE
  5
3BA
100
AcDbEntity
  8
0
100
AcDbLine
 62
7
  6
CONTINUOUS
 10
145.7939612354
 20
103.5018476573
 11
146.2650381294
 21
105.1720503676
  0
LINE
  5
3BB
100
AcDbEntity
  8
0
100
AcDbLine
 62
7
  6
CONTINUOUS
 10
144.9932568509
 20
101.3197853048
 11
145.3312623776
 21
102.4773253445
  0
LINE
  5
3BC
100
AcDbEntity
  8
0
100
AcDbLine
 62
7
  6
CONTINUOUS
 10
145.2053888853
 20
101.4422676828
 11
145.4821839222
 21
102.3901851361
  0
LINE
  5
3BD
100
AcDbEntity
  8
0
100
AcDbLine
 62
7
  6
CONTINUOUS
 10
145.5151262126
 20
107.3998937379
 11
143.7816131179
 21
102.0193732108
  0
LWPOLYLINE
  5
3BE
100
AcDbEntity
  8
0
100
AcDbPolyline
 62
7
  6
CONTINUOUS
 90
9
 70
0
 10
142.9016157315
 20
96.6953302133
 10
142.9245192432
 20
96.7524242083
 10
142.949039633
 20
96.8043546784
 10
142.9750949957
 20
96.8510669122
 10
143.0027672365
 20
96.8926156211
 10
143.0314911616
 20
96.929603867
 10
143.061078373
 20
96.9622326707
 10
143.0917172688
 20
96.9903010114
 10
143.1234078488
 20
97.0138088893
  0
LWPOLYLINE
  5
3BF
100
AcDbEntity
  8
0
100
AcDbPolyline
 62
7
  6
CONTINUOUS
 90
11
 70
0
 10
143.1868425248
 20
96.9728868049
 10
143.1608834827
 20
96.9262793562
 10
143.1365276248
 20
96.8746977479
 10
143.1138315725
 20
96.8181093189
 10
143.093510184
 20
96.7559188566
 10
143.0755126944
 20
96.6878145331
 10
143.0598898686
 20
96.6141081763
 10
143.0475088596
 20
96.5351400563
 10
143.0386587182
 20
96.4510235965
 10
143.0330503936
 20
96.3616453735
 10
143.0306838857
 20
96.2670053873
  0
LWPOLYLINE
  5
3C0
100
AcDbEntity
  8
0
100
AcDbPolyline
 62
7
  6
CONTINUOUS
 90
34
 70
0
 10
164.5548801915
 20
121.8330299329
 10
164.4954913132
 20
121.7867483265
 10
164.4393337412
 20
121.7389165256
 10
164.3864074756
 20
121.6895345302
 10
164.3365338236
 20
121.6384549182
 10
164.2898914781
 20
121.5858251117
 10
164.247016517
 20
121.5320873772
 10
164.2079704093
 20
121.4772155938
 10
164.1726916862
 20
121.4212358822
 10
164.1415320189
 20
121.3646688715
 10
164.1145696459
 20
121.3075382555
 10
164.0917263288
 20
121.2498203403
 10
164.0731190234
 20
121.1919646725
 10
164.0587894768
 20
121.1340216265
 10
164.0486959419
 20
121.0759408281
 10
164.0428301334
 20
121.018020701
 10
164.0411916184
 20
120.9602796521
 10
164.0437808297
 20
120.9026992745
 10
164.0505907802
 20
120.8455227726
 10
164.0616299569
 20
120.788720197
 10
164.0768898728
 20
120.732321497
 10
164.0963380793
 20
120.6766597249
 10
164.1200348113
 20
120.6216892817
 10
164.1479198338
 20
120.5674557664
 10
164.1797799935
 20
120.5144290285
 10
164.2157101032
 20
120.4626007163
 10
164.2556153501
 20
120.4119791815
 10
164.2989981421
 20
120.3630593291
 10
164.345854537
 20
120.3159271174
 10
164.396188477
 20
120.270496588
 10
164.4495141978
 20
120.2270047707
 10
164.5056697778
 20
120.1855306753
 10
164.5648171386
 20
120.1459952919
 10
164.6269562801
 20
120.1083986206
  0
LINE
  5
3C1
100
AcDbEntity
  8
0
100
AcDbLine
 62
7
  6
CONTINUOUS
 10
164.6041927925
 20
121.8699088909
 11
164.5548801915
 21
121.8330299329
  0
LWPOLYLINE
  5
3C2
100
AcDbEntity
  8
0
100
AcDbPolyline
 62
7
  6
CONTINUOUS
 90
22
 70
0
 10
164.6269562801
 20
120.1083986206
 10
164.6566974019
 20
120.1298018165
 10
164.6861055841
 20
120.1534262052
 10
164.7150341242
 20
120.1791539098
 10
164.743338683
 20
120.2068565306
 10
164.7708781026
 20
120.2363958792
 10
164.7975151008
 20
120.267624689
 10
164.8231168273
 20
120.300387212
 10
164.8475555367
 20
120.3345199761
 10
164.8707093167
 20
120.3698527091
 10
164.8924626646
 20
120.4062091523
 10
164.9127070637
 20
120.4434079403
 10
164.9313415254
 20
120.4812635066
 10
164.9482730916
 20
120.5195870077
 10
164.9634172995
 20
120.5581872658
 10
164.9766986028
 20
120.5968717237
 10
164.9880507489
 20
120.6354474068
 10
164.9974171064
 20
120.6737218759
 10
165.0047509491
 20
120.7115041883
 10
165.0100156935
 20
120.7486058639
 10
165.0131850795
 20
120.7848418246
 10
165.0142432988
 20
120.8200313079
  0
LINE
  5
3C3
100
AcDbEntity
  8
0
100
AcDbLine
 62
7
  6
CONTINUOUS
 10
137.1905612089
 20
106.0699287337
 11
136.9784291745
 21
105.9474463557
  0
LINE
  5
3C4
100
AcDbEntity
  8
0
100
AcDbLine
 62
7
  6
CONTINUOUS
 10
139.0218440285
 20
105.0125689851
 11
138.8097119941
 21
104.8900866071
  0
LINE
  5
3C5
100
AcDbEntity
  8
0
100
AcDbLine
 62
7
  6
CONTINUOUS
 10
135.3518459899
 20
102.5779503983
 11
135.1397139556
 21
102.4554680203
  0
LINE
  5
3C6
100
AcDbEntity
  8
0
100
AcDbLine
 62
7
  6
CONTINUOUS
 10
140.8949755487
 20
103.9310463211
 11
140.6828435143
 21
103.8085639431
  0
LINE
  5
3C7
100
AcDbEntity
  8
0
100
AcDbLine
 62
7
  6
CONTINUOUS
 10
135.93255107
 20
100.7131770406
 11
135.7204190357
 21
100.5906946626
  0
LINE
  5
3C8
100
AcDbEntity
  8
0
100
AcDbLine
 62
7
  6
CONTINUOUS
 10
137.649950807
 20
101.251053479
 11
137.4378187726
 21
101.128571101
  0
LINE
  5
3C9
100
AcDbEntity
  8
0
100
AcDbLine
 62
7
  6
CONTINUOUS
 10
137.649950807
 20
100.6551575463
 11
137.4378187726
 21
100.5326751683
  0
LINE
  5
3CA
100
AcDbEntity
  8
0
100
AcDbLine
 62
7
  6
CONTINUOUS
 10
197.2454082134
 20
102.3713428844
 11
197.2358567121
 21
102.371446333
  0
LINE
  5
3CB
100
AcDbEntity
  8
0
100
AcDbLine
 62
7
  6
CONTINUOUS
 10
197.2358567121
 20
102.371446333
 11
197.2264800616
 21
102.371593014
  0
LINE
  5
3CC
100
AcDbEntity
  8
0
100
AcDbLine
 62
7
  6
CONTINUOUS
 10
197.2264800616
 20
102.371593014
 11
197.2172742203
 21
102.3717824659
  0
LINE
  5
3CD
100
AcDbEntity
  8
0
100
AcDbLine
 62
7
  6
CONTINUOUS
 10
197.2172742203
 20
102.3717824659
 11
197.2082357223
 21
102.3720142967
  0
LINE
  5
3CE
100
AcDbEntity
  8
0
100
AcDbLine
 62
7
  6
CONTINUOUS
 10
197.2082357223
 20
102.3720142967
 11
197.1993619706
 21
102.372288164
  0
LINE
  5
3CF
100
AcDbEntity
  8
0
100
AcDbLine
 62
7
  6
CONTINUOUS
 10
197.1993619706
 20
102.372288164
 11
197.190651345
 21
102.3726037525
  0
LINE
  5
3D0
100
AcDbEntity
  8
0
100
AcDbLine
 62
7
  6
CONTINUOUS
 10
197.190651345
 20
102.3726037525
 11
197.1838000119
 21
102.3728860476
  0
LINE
  5
3D1
100
AcDbEntity
  8
0
100
AcDbLine
 62
7
  6
CONTINUOUS
 10
197.1838000119
 20
102.3728860476
 11
197.1770532926
 21
102.3731946574
  0
LINE
  5
3D2
100
AcDbEntity
  8
0
100
AcDbLine
 62
7
  6
CONTINUOUS
 10
197.1770532926
 20
102.3731946574
 11
197.1720626112
 21
102.3734432535
  0
LINE
  5
3D3
100
AcDbEntity
  8
0
100
AcDbLine
 62
7
  6
CONTINUOUS
 10
197.1704126542
 20
102.3735293493
 11
197.1655048052
 21
102.3737972168
  0
LWPOLYLINE
  5
3D4
100
AcDbEntity
  8
0
100
AcDbPolyline
 62
7
  6
CONTINUOUS
 90
12
 70
0
 10
197.1401258611
 20
102.4249892419
 10
197.1893306685
 20
102.4221795321
 10
197.2387284597
 20
102.420934296
 10
197.2881701389
 20
102.4212572914
 10
197.3375064785
 20
102.4231475433
 10
197.3865885681
 20
102.4265993457
 10
197.4352682643
 20
102.4316022799
 10
197.4833986388
 20
102.438141245
 10
197.5308344221
 20
102.4461965043
 10
197.5774324414
 20
102.4557437444
 10
197.6230521196
 20
102.4667541664
 10
197.6675556942
 20
102.4791945243
  0
LINE
  5
3D5
100
AcDbEntity
  8
0
100
AcDbLine
 62
7
  6
CONTINUOUS
 10
197.1638836665
 20
102.3738896408
 11
197.1590670003
 21
102.3741761048
  0
LINE
  5
3D6
100
AcDbEntity
  8
0
100
AcDbLine
 62
7
  6
CONTINUOUS
 10
197.157477605
 20
102.3742745995
 11
197.1527620729
 21
102.3745787231
  0
LINE
  5
3D7
100
AcDbEntity
  8
0
100
AcDbLine
 62
7
  6
CONTINUOUS
 10
197.151208525
 20
102.374682894
 11
197.1466056812
 21
102.3750034284
  0
LINE
  5
3D8
100
AcDbEntity
  8
0
100
AcDbLine
 62
7
  6
CONTINUOUS
 10
197.1450918111
 20
102.3751128197
 11
197.1406150713
 21
102.3754481371
  0
LINE
  5
3D9
100
AcDbEntity
  8
0
100
AcDbLine
 62
7
  6
CONTINUOUS
 10
197.1391453574
 20
102.3755621601
 11
197.1348109007
 21
102.3759101216
  0
LINE
  5
3DA
100
AcDbEntity
  8
0
100
AcDbLine
 62
7
  6
CONTINUOUS
 10
197.1333908192
 20
102.3760280043
 11
197.1292041633
 21
102.3763870543
  0
LINE
  5
3DB
100
AcDbEntity
  8
0
100
AcDbLine
 62
7
  6
CONTINUOUS
 10
197.1278312186
 20
102.3765086306
 11
197.123776463
 21
102.3768791134
  0
LINE
  5
3DC
100
AcDbEntity
  8
0
100
AcDbLine
 62
7
  6
CONTINUOUS
 10
197.1224452627
 20
102.3770045628
 11
197.1185085007
 21
102.3773870085
  0
LINE
  5
3DD
100
AcDbEntity
  8
0
100
AcDbLine
 62
7
  6
CONTINUOUS
 10
197.1185085007
 20
102.3773870085
 11
197.1146601852
 21
102.3777780619
  0
LINE
  5
3DE
100
AcDbEntity
  8
0
100
AcDbLine
 62
7
  6
CONTINUOUS
 10
197.1146601852
 20
102.3777780619
 11
197.1110602093
 21
102.378160104
  0
LINE
  5
3DF
100
AcDbEntity
  8
0
100
AcDbLine
 62
7
  6
CONTINUOUS
 10
197.1110602093
 20
102.378160104
 11
197.1076912765
 21
102.3785326489
  0
LINE
  5
3E0
100
AcDbEntity
  8
0
100
AcDbLine
 62
7
  6
CONTINUOUS
 10
197.1076912765
 20
102.3785326489
 11
197.1043838879
 21
102.3789133919
  0
LINE
  5
3E1
100
AcDbEntity
  8
0
100
AcDbLine
 62
7
  6
CONTINUOUS
 10
197.1043838879
 20
102.3789133919
 11
197.1009948346
 21
102.3793200386
  0
LINE
  5
3E2
100
AcDbEntity
  8
0
100
AcDbLine
 62
7
  6
CONTINUOUS
 10
197.1009948346
 20
102.3793200386
 11
197.0974428836
 21
102.3797656952
  0
LWPOLYLINE
  5
3E3
100
AcDbEntity
  8
0
100
AcDbPolyline
 62
7
  6
CONTINUOUS
 90
15
 70
0
 10
197.0860787661
 20
102.3813449304
 10
197.1383066366
 20
102.3745008305
 10
197.1874479476
 20
102.3695933602
 10
197.2367787775
 20
102.3661363722
 10
197.2861501853
 20
102.3641402923
 10
197.3354131085
 20
102.3636111533
 10
197.384418812
 20
102.3645505528
 10
197.4330193353
 20
102.3669556297
 10
197.481067945
 20
102.3708191223
 10
197.5284195703
 20
102.3761293659
 10
197.5749312388
 20
102.3828702948
 10
197.6204625604
 20
102.3910215281
 10
197.6648760261
 20
102.4005584742
 10
197.7080374265
 20
102.411452369
 10
197.7330913946
 20
102.4185709397
  0
LINE
  5
3E4
100
AcDbEntity
  8
0
100
AcDbLine
 62
7
  6
CONTINUOUS
 10
197.0937409928
 20
102.3802537811
 11
197.0925174282
 21
102.3804210223
  0
LINE
  5
3E5
100
AcDbEntity
  8
0
100
AcDbLine
 62
7
  6
CONTINUOUS
 10
197.0913018895
 20
102.3805903874
 11
197.0901090857
 21
102.3807599572
  0
LINE
  5
3E6
100
AcDbEntity
  8
0
100
AcDbLine
 62
7
  6
CONTINUOUS
 10
150.1468568403
 20
103.9656775046
 11
150.2326713192
 21
103.9322349926
  0
LINE
  5
3E7
100
AcDbEntity
  8
0
100
AcDbLine
 62
7
  6
CONTINUOUS
 10
151.2997004018
 20
101.7113326162
 11
151.2486677983
 21
101.7314773772
  0
LINE
  5
3E8
100
AcDbEntity
  8
0
100
AcDbLine
 62
7
  6
CONTINUOUS
 10
150.2326713192
 20
103.9322349926
 11
150.3241511377
 21
103.894605305
  0
LINE
  5
3E9
100
AcDbEntity
  8
0
100
AcDbLine
 62
7
  6
CONTINUOUS
 10
150.3241511377
 20
103.894605305
 11
150.4094918551
 21
103.8573539856
  0
LINE
  5
3EA
100
AcDbEntity
  8
0
100
AcDbLine
 62
7
  6
CONTINUOUS
 10
151.0365357639
 20
101.6089949992
 11
150.9832991086
 21
101.632295949
  0
LINE
  5
3EB
100
AcDbEntity
  8
0
100
AcDbLine
 62
7
  6
CONTINUOUS
 10
151.2486677983
 20
101.7314773772
 11
151.1954311429
 21
101.754778327
  0
LINE
  5
3EC
100
AcDbEntity
  8
0
100
AcDbLine
 62
7
  6
CONTINUOUS
 10
150.4094918551
 20
103.8573539856
 11
150.4903007252
 21
103.819906558
  0
LINE
  5
3ED
100
AcDbEntity
  8
0
100
AcDbLine
 62
7
  6
CONTINUOUS
 10
150.9832991086
 20
101.632295949
 11
150.927842845
 21
101.6588420838
  0
LINE
  5
3EE
100
AcDbEntity
  8
0
100
AcDbLine
 62
7
  6
CONTINUOUS
 10
151.1954311429
 20
101.754778327
 11
151.1399748794
 21
101.7813244618
  0
LINE
  5
3EF
100
AcDbEntity
  8
0
100
AcDbLine
 62
7
  6
CONTINUOUS
 10
150.4903007252
 20
103.819906558
 11
150.5679085229
 21
103.7817404069
  0
LINE
  5
3F0
100
AcDbEntity
  8
0
100
AcDbLine
 62
7
  6
CONTINUOUS
 10
150.927842845
 20
101.6588420838
 11
150.8701627307
 21
101.6887166838
  0
LINE
  5
3F1
100
AcDbEntity
  8
0
100
AcDbLine
 62
7
  6
CONTINUOUS
 10
151.1399748794
 20
101.7813244618
 11
151.082294765
 21
101.8111990617
  0
LINE
  5
3F2
100
AcDbEntity
  8
0
100
AcDbLine
 62
7
  6
CONTINUOUS
 10
150.5679085229
 20
103.7817404069
 11
150.6434741961
 21
103.7423512973
  0
LINE
  5
3F3
100
AcDbEntity
  8
0
100
AcDbLine
 62
7
  6
CONTINUOUS
 10
150.8701627307
 20
101.6887166838
 11
150.8468939678
 21
101.7013818443
  0
LINE
  5
3F4
100
AcDbEntity
  8
0
100
AcDbLine
 62
7
  6
CONTINUOUS
 10
151.082294765
 20
101.8111990617
 11
151.0590260022
 21
101.8238642223
  0
LINE
  5
3F5
100
AcDbEntity
  8
0
100
AcDbLine
 62
7
  6
CONTINUOUS
 10
150.6434741961
 20
103.7423512973
 11
150.718063355
 21
103.7012137711
  0
LWPOLYLINE
  5
3F6
100
AcDbEntity
  8
0
100
AcDbPolyline
 62
7
  6
CONTINUOUS
 90
37
 70
0
 10
196.0401735268
 20
80.3778356118
 10
196.141267255
 20
80.3218226748
 10
196.2462772033
 20
80.2682596431
 10
196.3550255821
 20
80.2172378481
 10
196.46733026
 20
80.16884348
 10
196.5829990372
 20
80.1231600773
 10
196.7018293799
 20
80.0802678895
 10
196.8236171779
 20
80.0402404204
 10
196.9481575631
 20
80.0031448367
 10
197.0752388047
 20
79.9690441361
 10
197.2046454244
 20
79.9379960865
 10
197.3361571134
 20
79.9100534937
 10
197.4695489133
 20
79.8852640253
 10
197.6045936795
 20
79.8636696887
 10
197.7410623917
 20
79.8453069028
 10
197.8787230282
 20
79.830206699
 10
198.0173394047
 20
79.8183947075
 10
198.1566783307
 20
79.8098905238
 10
198.2965099556
 20
79.8047082309
 10
198.436598244
 20
79.8028569257
 10
198.5767038479
 20
79.8043401199
 10
198.7165913278
 20
79.8091557105
 10
198.8560280026
 20
79.8172963498
 10
198.9947718325
 20
79.8287485713
 10
199.1325746295
 20
79.8434919219
 10
199.2692000275
 20
79.8615006018
 10
199.4044184704
 20
79.8827438374
 10
199.5379954397
 20
79.9071841589
 10
199.6697096336
 20
79.9347804501
 10
199.7993325136
 20
79.9654841951
 10
199.9266247909
 20
79.9992370127
 10
200.0513624195
 20
80.035976473
 10
200.1733457595
 20
80.0756406933
 10
200.2923793299
 20
80.1181638657
 10
200.4082658285
 20
80.1634738277
 10
200.5208072142
 20
80.2114914241
 10
200.6298144558
 20
80.2621340628
  0
LWPOLYLINE
  5
3F7
100
AcDbEntity
  8
0
100
AcDbPolyline
 62
7
  6
CONTINUOUS
 90
49
 70
0
 10
80.973807512
 20
145.8150200967
 10
80.8539980373
 20
145.8817261648
 10
80.7361300963
 20
145.9432091288
 10
80.6202036888
 20
145.9994689888
 10
80.5062541536
 20
146.0503801905
 10
80.394246152
 20
146.096068288
 10
80.2840736682
 20
146.1369099443
 10
80.1757555856
 20
146.1729469249
 10
80.0692730207
 20
146.2041374641
 10
79.9644633077
 20
146.2307329281
 10
79.8613253755
 20
146.2527882658
 10
79.7598602953
 20
146.2702485281
 10
79.6599086146
 20
146.2832002343
 10
79.5613779211
 20
146.2916917732
 10
79.4643606272
 20
146.2956747559
 10
79.368974518
 20
146.2950905347
 10
79.2751229725
 20
146.2899259004
 10
79.1829026117
 20
146.2801940621
 10
79.0927210833
 20
146.2658759995
 10
79.0046199463
 20
146.2469471955
 10
78.9185576417
 20
146.2234321672
 10
78.8348171402
 20
146.1953854458
 10
78.7534194372
 20
146.1627953782
 10
78.6743435374
 20
146.1256736175
 10
78.5978094259
 20
146.0841096541
 10
78.5237878649
 20
146.0380492979
 10
78.4523080922
 20
145.987546739
 10
78.3836778059
 20
145.9328540383
 10
78.3179319067
 20
145.8739403034
 10
78.2550354939
 20
145.8108364266
 10
78.1951915628
 20
145.743887146
 10
78.1384510619
 20
145.673116692
 10
78.0847630426
 20
145.5985008341
 10
78.0341776544
 20
145.5203116186
 10
77.9867257076
 20
145.4386311997
 10
77.9423763918
 20
145.3533774232
 10
77.9010874253
 20
145.2645758724
 10
77.862843256
 20
145.1723160376
 10
77.8276594361
 20
145.0765084285
 10
77.7955403396
 20
144.9769101574
 10
77.766434247
 20
144.8735508242
 10
77.7403928779
 20
144.7664008291
 10
77.7175757644
 20
144.6551284842
 10
77.6979327181
 20
144.5397392997
 10
77.6815139273
 20
144.4202277654
 10
77.6686294894
 20
144.296245664
 10
77.6593827701
 20
144.1676769228
 10
77.6536704037
 20
144.0346376144
 10
77.6514923901
 20
143.8971277388
  0
LINE
  5
3F8
100
AcDbEntity
  8
0
100
AcDbLine
 62
7
  6
CONTINUOUS
 10
150.8468939678
 20
101.7013818443
 11
150.1468568403
 21
102.1055745083
  0
LINE
  5
3F9
100
AcDbEntity
  8
0
100
AcDbLine
 62
7
  6
CONTINUOUS
 10
151.0590260022
 20
101.8238642223
 11
150.3589888746
 21
102.2280568863
  0
LINE
  5
3FA
100
AcDbEntity
  8
0
100
AcDbLine
 62
7
  6
CONTINUOUS
 10
192.5553998929
 20
80.2394292769
 11
81.6778883455
 21
144.2587148139
  0
LINE
  5
3FB
100
AcDbEntity
  8
0
100
AcDbLine
 62
7
  6
CONTINUOUS
 10
191.8512048114
 20
81.7958005162
 11
80.973807512
 21
145.8150200967
  0
LINE
  5
3FC
100
AcDbEntity
  8
0
100
AcDbLine
 62
7
  6
CONTINUOUS
 10
196.0401735268
 20
80.3778356118
 11
76.7848387966
 21
149.2343712646
  0
LINE
  5
3FD
100
AcDbEntity
  8
0
100
AcDbLine
 62
7
  6
CONTINUOUS
 10
81.6778883459
 20
144.2587148137
 11
81.6777313073
 21
144.2588055026
  0
LINE
  5
3FE
100
AcDbEntity
  8
0
100
AcDbLine
 62
7
  6
CONTINUOUS
 10
150.718063355
 20
103.7012137711
 11
150.7924382604
 21
103.6579203671
  0
LWPOLYLINE
  5
3FF
100
AcDbEntity
  8
0
100
AcDbPolyline
 62
7
  6
CONTINUOUS
 90
46
 70
0
 10
192.5553998292
 20
80.2394291665
 10
192.5708021185
 20
80.2304175186
 10
192.6134172023
 20
80.2043039793
 10
192.6586656674
 20
80.1747648023
 10
192.7063363027
 20
80.1417169917
 10
192.7560921187
 20
80.1051852839
 10
192.8075099603
 20
80.0652961796
 10
192.8603132659
 20
80.0221020075
 10
192.9142630056
 20
79.9756477974
 10
192.9690424436
 20
79.9260688275
 10
193.0243990573
 20
79.8734731098
 10
193.0801111641
 20
79.8179612885
 10
193.135959455
 20
79.7596500051
 10
193.1917204821
 20
79.6986836033
 10
193.2471858833
 20
79.6352088894
 10
193.3022099053
 20
79.5693198594
 10
193.3565967747
 20
79.5011846745
 10
193.4101521021
 20
79.4309892927
 10
193.4627660474
 20
79.3588309198
 10
193.5142580391
 20
79.2849116027
 10
193.5644634378
 20
79.2094373251
 10
193.6133062032
 20
79.1324990451
 10
193.6606306046
 20
79.0543179284
 10
193.7062973853
 20
78.9751219179
 10
193.7502512135
 20
78.8950058161
 10
193.79236506
 20
78.8142056621
 10
193.8325260244
 20
78.732966139
 10
193.8706937465
 20
78.651396701
 10
193.9067730332
 20
78.5697443602
 10
193.9406790382
 20
78.4882651829
 10
193.9723828117
 20
78.4071036489
 10
194.001821279
 20
78.3265208128
 10
194.0289461833
 20
78.2467705933
 10
194.053748153
 20
78.1680320017
 10
194.0762050085
 20
78.0905572905
 10
194.0963037923
 20
78.0146138038
 10
194.114052715
 20
77.9404559662
 10
194.1294766103
 20
77.8683249905
 10
194.1426094443
 20
77.7984947947
 10
194.1534932764
 20
77.7313106566
 10
194.1622102293
 20
77.6670021705
 10
194.1688551651
 20
77.6058343224
 10
194.1735320095
 20
77.5482379294
 10
194.1763898707
 20
77.4945177834
 10
194.1776083131
 20
77.4448128541
 10
194.177682873
 20
77.4296541501
  0
LWPOLYLINE
  5
400
100
AcDbEntity
  8
0
100
AcDbPolyline
 62
7
  6
CONTINUOUS
 90
21
 70
0
 10
81.6777313073
 20
144.2588055026
 10
81.6583057067
 20
144.2702851407
 10
81.591329244
 20
144.3140635264
 10
81.5273154666
 20
144.3626327268
 10
81.4663705251
 20
144.4159122026
 10
81.4085954812
 20
144.4738136039
 10
81.3540861402
 20
144.5362409161
 10
81.302932892
 20
144.60309062
 10
81.2552205612
 20
144.6742518628
 10
81.2110282666
 20
144.7496066421
 10
81.1704292901
 20
144.8290300016
 10
81.133490955
 20
144.9123902383
 10
81.1002745143
 20
144.9995491208
 10
81.0708350492
 20
145.0903621187
 10
81.0452213778
 20
145.1846786422
 10
81.0234759729
 20
145.282342295
 10
81.0056348953
 20
145.3831911242
 10
80.9917277331
 20
145.4870578871
 10
80.9817775478
 20
145.5937703433
 10
80.9758008375
 20
145.7031515402
 10
80.973807512
 20
145.8150200967
  0
LWPOLYLINE
  5
401
100
AcDbEntity
  8
0
100
AcDbPolyline
 62
7
  6
CONTINUOUS
 90
21
 70
0
 10
192.5552857306
 20
80.2394951839
 10
192.5357029578
 20
80.2510655917
 10
192.4687264999
 20
80.2948439884
 10
192.4047127285
 20
80.3434131999
 10
192.3437677939
 20
80.3966926868
 10
192.2859927578
 20
80.4545940987
 10
192.2314834251
 20
80.5170214208
 10
192.1803301856
 20
80.5838711336
 10
192.1326178639
 20
80.6550323837
 10
192.0884255786
 20
80.7303871686
 10
192.0478266114
 20
80.8098105316
 10
192.0108882849
 20
80.8931707694
 10
191.977671852
 20
80.9803296506
 10
191.9482323936
 20
81.0711426444
 10
191.9226187275
 20
81.1654591608
 10
191.9008733272
 20
81.2631228029
 10
191.8830322522
 20
81.3639716178
 10
191.8691250866
 20
81.4678383648
 10
191.8591748903
 20
81.5745508036
 10
191.8531981619
 20
81.6839319812
 10
191.8512048114
 20
81.7958005162
  0
LWPOLYLINE
  5
402
100
AcDbEntity
  8
0
100
AcDbPolyline
 62
7
  6
CONTINUOUS
 90
20
 70
0
 10
76.7848387966
 20
149.2343712646
 10
76.6878277904
 20
149.2927415186
 10
76.5950598709
 20
149.3533729497
 10
76.5066932187
 20
149.4161629044
 10
76.4228771082
 20
149.4810062238
 10
76.3437562252
 20
149.5477919327
 10
76.2694695618
 20
149.6164030865
 10
76.2001444232
 20
149.6867218319
 10
76.1358971348
 20
149.7586298824
 10
76.0768368022
 20
149.8320049894
 10
76.023063476
 20
149.9067227377
 10
75.9746686118
 20
149.9826559242
 10
75.9317347641
 20
150.059674665
 10
75.8943346871
 20
150.1376478112
 10
75.8625314574
 20
150.2164431281
 10
75.8363788201
 20
150.2959266491
 10
75.8159211653
 20
150.3759620042
 10
75.8011924321
 20
150.4564145524
 10
75.7922170113
 20
150.5371515815
 10
75.7890018544
 20
150.6224415312
  0
LINE
  5
403
100
AcDbEntity
  8
0
100
AcDbLine
 62
7
  6
CONTINUOUS
 10
150.7924382604
 20
103.6579203671
 11
150.8673611736
 21
103.6120293323
  0
LINE
  5
404
100
AcDbEntity
  8
0
100
AcDbLine
 62
7
  6
CONTINUOUS
 10
150.8673611736
 20
103.6120293323
 11
150.9438849766
 21
103.5628796753
  0
LINE
  5
405
100
AcDbEntity
  8
0
100
AcDbLine
 62
7
  6
CONTINUOUS
 10
150.9438849766
 20
103.5628796753
 11
151.0231537681
 21
103.5096867044
  0
LINE
  5
406
100
AcDbEntity
  8
0
100
AcDbLine
 62
7
  6
CONTINUOUS
 10
151.0231537681
 20
103.5096867044
 11
151.1064813525
 21
103.4514893606
  0
LWPOLYLINE
  5
407
100
AcDbEntity
  8
0
100
AcDbPolyline
 62
7
  6
CONTINUOUS
 90
22
 70
0
 10
217.4541548827
 20
55.4518816854
 10
217.4253475005
 20
55.4731427619
 10
217.3965768315
 20
55.4969343519
 10
217.3680028403
 20
55.5231241744
 10
217.3397843978
 20
55.5515666144
 10
217.3120783985
 20
55.5821035322
 10
217.2850388872
 20
55.6145651428
 10
217.2588162035
 20
55.6487709601
 10
217.2335561451
 20
55.6845308002
 10
217.2093991578
 20
55.7216458386
 10
217.1864795539
 20
55.7599097163
 10
217.1649247664
 20
55.7991096865
 10
217.1448546395
 20
55.8390277978
 10
217.1263807631
 20
55.8794421058
 10
217.1096058515
 20
55.9201279076
 10
217.0946231732
 20
55.9608589905
 10
217.0815160316
 20
56.0014088903
 10
217.0703573022
 20
56.0415521499
 10
217.0612090276
 20
56.0810655733
 10
217.0541220719
 20
56.1197294663
 10
217.0491358387
 20
56.1573288581
 10
217.0462780512
 20
56.1936546966
  0
LINE
  5
408
100
AcDbEntity
  8
0
100
AcDbLine
 62
7
  6
CONTINUOUS
 10
151.1064813525
 20
103.4514893606
 11
151.1481150927
 21
103.420728561
  0
LINE
  5
409
100
AcDbEntity
  8
0
100
AcDbLine
 62
7
  6
CONTINUOUS
 10
150.9165376218
 20
100.5473686633
 11
150.9749835328
 21
100.5040561445
  0
LINE
  5
40A
100
AcDbEntity
  8
0
100
AcDbLine
 62
7
  6
CONTINUOUS
 10
151.1481150927
 20
103.420728561
 11
151.1890629393
 21
103.3881895275
  0
LINE
  5
40B
100
AcDbEntity
  8
0
100
AcDbLine
 62
7
  6
CONTINUOUS
 10
150.9749835328
 20
100.5040561445
 11
151.0334718702
 21
100.454807068
  0
LINE
  5
40C
100
AcDbEntity
  8
0
100
AcDbLine
 62
7
  6
CONTINUOUS
 10
151.1890629393
 20
103.3881895275
 11
151.2292464034
 21
103.353955136
  0
LINE
  5
40D
100
AcDbEntity
  8
0
100
AcDbLine
 62
7
  6
CONTINUOUS
 10
151.2292464034
 20
103.353955136
 11
151.2685884105
 21
103.3181090792
  0
LINE
  5
40E
100
AcDbEntity
  8
0
100
AcDbLine
 62
7
  6
CONTINUOUS
 10
151.0334718702
 20
100.454807068
 11
151.0906817586
 21
100.4004347119
  0
LINE
  5
40F
100
AcDbEntity
  8
0
100
AcDbLine
 62
7
  6
CONTINUOUS
 10
151.2685884105
 20
103.3181090792
 11
151.2851566295
 21
103.3022902678
  0
LINE
  5
410
100
AcDbEntity
  8
0
100
AcDbLine
 62
7
  6
CONTINUOUS
 10
151.2851566295
 20
103.3022902678
 11
151.3231579621
 21
103.2643043172
  0
LINE
  5
411
100
AcDbEntity
  8
0
100
AcDbLine
 62
7
  6
CONTINUOUS
 10
151.3231579621
 20
103.2643043172
 11
151.3601113625
 21
103.2249532868
  0
LINE
  5
412
100
AcDbEntity
  8
0
100
AcDbLine
 62
7
  6
CONTINUOUS
 10
151.0906817586
 20
100.4004347119
 11
151.1459591241
 21
100.3414032759
  0
LINE
  5
413
100
AcDbEntity
  8
0
100
AcDbLine
 62
7
  6
CONTINUOUS
 10
152.1764350287
 20
100.304152699
 11
152.11671279
 21
100.3696973664
  0
LINE
  5
414
100
AcDbEntity
  8
0
100
AcDbLine
 62
7
  6
CONTINUOUS
 10
152.3885670631
 20
100.426635077
 11
152.3760288063
 21
100.440395711
  0
LINE
  5
415
100
AcDbEntity
  8
0
100
AcDbLine
 62
7
  6
CONTINUOUS
 10
151.3601113625
 20
103.2249532868
 11
151.3959439987
 21
103.1843371982
  0
LINE
  5
416
100
AcDbEntity
  8
0
100
AcDbLine
 62
7
  6
CONTINUOUS
 10
151.1459591241
 20
100.3414032759
 11
151.1989702124
 21
100.2779536375
  0
LINE
  5
417
100
AcDbEntity
  8
0
100
AcDbLine
 62
7
  6
CONTINUOUS
 10
151.3959439987
 20
103.1843371982
 11
151.4305851599
 21
103.1425581142
  0
LINE
  5
418
100
AcDbEntity
  8
0
100
AcDbLine
 62
7
  6
CONTINUOUS
 10
152.2335367297
 20
100.2342278148
 11
152.1764350287
 21
100.304152699
  0
LINE
  5
419
100
AcDbEntity
  8
0
100
AcDbLine
 62
7
  6
CONTINUOUS
 10
152.4456687641
 20
100.3567101928
 11
152.3885670631
 21
100.426635077
  0
LWPOLYLINE
  5
41A
100
AcDbEntity
  8
0
100
AcDbPolyline
 62
7
  6
CONTINUOUS
 90
5
 70
0
 10
107.1490843727
 20
154.2702241165
 10
107.128550883
 20
154.2961947063
 10
107.1105185516
 20
154.3227772037
 10
107.0950418056
 20
154.3498913788
 10
107.0821673602
 20
154.3774553946
  0
LINE
  5
41B
100
AcDbEntity
  8
0
100
AcDbLine
 62
7
  6
CONTINUOUS
 10
151.4305851599
 20
103.1425581142
 11
151.4639683781
 21
103.0997205466
  0
LINE
  5
41C
100
AcDbEntity
  8
0
100
AcDbLine
 62
7
  6
CONTINUOUS
 10
151.1989702124
 20
100.2779536375
 11
151.2495410751
 21
100.2101658205
  0
LINE
  5
41D
100
AcDbEntity
  8
0
100
AcDbLine
 62
7
  6
CONTINUOUS
 10
152.2882653804
 20
100.1596181566
 11
152.2335367297
 21
100.2342278148
  0
LINE
  5
41E
100
AcDbEntity
  8
0
100
AcDbLine
 62
7
  6
CONTINUOUS
 10
152.5003974147
 20
100.2821005346
 11
152.4456687641
 21
100.3567101928
  0
LINE
  5
41F
100
AcDbEntity
  8
0
100
AcDbLine
 62
7
  6
CONTINUOUS
 10
151.4639683781
 20
103.0997205466
 11
151.4960300138
 21
103.0559265579
  0
LINE
  5
420
100
AcDbEntity
  8
0
100
AcDbLine
 62
7
  6
CONTINUOUS
 10
151.4960300138
 20
103.0559265579
 11
151.526711377
 21
103.0112786183
  0
LINE
  5
421
100
AcDbEntity
  8
0
100
AcDbLine
 62
7
  6
CONTINUOUS
 10
151.2495410751
 20
100.2101658205
 11
151.2975734246
 21
100.1380051303
  0
LINE
  5
422
100
AcDbEntity
  8
0
100
AcDbLine
 62
7
  6
CONTINUOUS
 10
152.3408345269
 20
100.0799432373
 11
152.2882653804
 21
100.1596181566
  0
LINE
  5
423
100
AcDbEntity
  8
0
100
AcDbLine
 62
7
  6
CONTINUOUS
 10
152.5529665613
 20
100.2024256153
 11
152.5003974147
 21
100.2821005346
  0
LINE
  5
424
100
AcDbEntity
  8
0
100
AcDbLine
 62
7
  6
CONTINUOUS
 10
151.526711377
 20
103.0112786183
 11
151.5559573135
 21
102.9658787896
  0
LINE
  5
425
100
AcDbEntity
  8
0
100
AcDbLine
 62
7
  6
CONTINUOUS
 10
152.4254964218
 20
103.3376287907
 11
152.3545474487
 21
103.4487196542
  0
LINE
  5
426
100
AcDbEntity
  8
0
100
AcDbLine
 62
7
  6
CONTINUOUS
 10
151.5559573135
 20
102.9658787896
 11
151.5837190328
 21
102.9198238264
  0
LINE
  5
427
100
AcDbEntity
  8
0
100
AcDbLine
 62
7
  6
CONTINUOUS
 10
152.3914174105
 20
99.9947470485
 11
152.3408345269
 21
100.0799432373
  0
LINE
  5
428
100
AcDbEntity
  8
0
100
AcDbLine
 62
7
  6
CONTINUOUS
 10
152.6035494449
 20
100.1172294265
 11
152.5529665613
 21
100.2024256153
  0
LINE
  5
429
100
AcDbEntity
  8
0
100
AcDbLine
 62
7
  6
CONTINUOUS
 10
151.2975734246
 20
100.1380051303
 11
151.3429993784
 21
100.0613376695
  0
LINE
  5
42A
100
AcDbEntity
  8
0
100
AcDbLine
 62
7
  6
CONTINUOUS
 10
152.4929261245
 20
103.2235633141
 11
152.4254964218
 21
103.3376287907
  0
LINE
  5
42B
100
AcDbEntity
  8
0
100
AcDbLine
 62
7
  6
CONTINUOUS
 10
151.5837190328
 20
102.9198238264
 11
151.6099491589
 21
102.8732104829
  0
LINE
  5
42C
100
AcDbEntity
  8
0
100
AcDbLine
 62
7
  6
CONTINUOUS
 10
152.5563627951
 20
103.1072752201
 11
152.4929261245
 21
103.2235633141
  0
LINE
  5
42D
100
AcDbEntity
  8
0
100
AcDbLine
 62
7
  6
CONTINUOUS
 10
152.4401554525
 20
99.9034972439
 11
152.3914174105
 21
99.9947470485
  0
LINE
  5
42E
100
AcDbEntity
  8
0
100
AcDbLine
 62
7
  6
CONTINUOUS
 10
152.6522874869
 20
100.0259796219
 11
152.6035494449
 21
100.1172294265
  0
LINE
  5
42F
100
AcDbEntity
  8
0
100
AcDbLine
 62
7
  6
CONTINUOUS
 10
151.3429993784
 20
100.0613376695
 11
151.385748226
 21
99.9799601412
  0
LINE
  5
430
100
AcDbEntity
  8
0
100
AcDbLine
 62
7
  6
CONTINUOUS
 10
151.6099491589
 20
102.8732104829
 11
151.6346073866
 21
102.8261289815
  0
LINE
  5
431
100
AcDbEntity
  8
0
100
AcDbLine
 62
7
  6
CONTINUOUS
 10
152.615496721
 20
102.9893017632
 11
152.5563627951
 21
103.1072752201
  0
LINE
  5
432
100
AcDbEntity
  8
0
100
AcDbLine
 62
7
  6
CONTINUOUS
 10
152.8276287554
 20
103.1117841412
 11
152.7810989236
 21
103.2046121587
  0
LINE
  5
433
100
AcDbEntity
  8
0
100
AcDbLine
 62
7
  6
CONTINUOUS
 10
151.6346073866
 20
102.8261289815
 11
151.6576562392
 21
102.7786670947
  0
LINE
  5
434
100
AcDbEntity
  8
0
100
AcDbLine
 62
7
  6
CONTINUOUS
 10
152.4871582545
 20
99.805573708
 11
152.4401554525
 21
99.9034972439
  0
LINE
  5
435
100
AcDbEntity
  8
0
100
AcDbLine
 62
7
  6
CONTINUOUS
 10
152.6992902888
 20
99.928056086
 11
152.6522874869
 21
100.0259796219
  0
LINE
  5
436
100
AcDbEntity
  8
0
100
AcDbLine
 62
7
  6
CONTINUOUS
 10
151.385748226
 20
99.9799601412
 11
151.4257294576
 21
99.8936120962
  0
LINE
  5
437
100
AcDbEntity
  8
0
100
AcDbLine
 62
7
  6
CONTINUOUS
 10
152.6701235483
 20
102.8700213888
 11
152.615496721
 21
102.9893017632
  0
LINE
  5
438
100
AcDbEntity
  8
0
100
AcDbLine
 62
7
  6
CONTINUOUS
 10
152.8822555827
 20
102.9925037668
 11
152.8276287554
 21
103.1117841412
  0
LINE
  5
439
100
AcDbEntity
  8
0
100
AcDbLine
 62
7
  6
CONTINUOUS
 10
151.6576562392
 20
102.7786670947
 11
151.6790617757
 21
102.7309064715
  0
LINE
  5
43A
100
AcDbEntity
  8
0
100
AcDbLine
 62
7
  6
CONTINUOUS
 10
152.5325198616
 20
99.7002501853
 11
152.4871582545
 21
99.805573708
  0
LINE
  5
43B
100
AcDbEntity
  8
0
100
AcDbLine
 62
7
  6
CONTINUOUS
 10
152.7446518959
 20
99.8227325633
 11
152.6992902888
 21
99.928056086
  0
LINE
  5
43C
100
AcDbEntity
  8
0
100
AcDbLine
 62
7
  6
CONTINUOUS
 10
152.7201075124
 20
102.7496912928
 11
152.6701235483
 21
102.8700213888
  0
LINE
  5
43D
100
AcDbEntity
  8
0
100
AcDbLine
 62
7
  6
CONTINUOUS
 10
151.6790617757
 20
102.7309064715
 11
151.6987928833
 21
102.6829254947
  0
LINE
  5
43E
100
AcDbEntity
  8
0
100
AcDbLine
 62
7
  6
CONTINUOUS
 10
151.4257294576
 20
99.8936120962
 11
151.4628214509
 21
99.8019906309
  0
LINE
  5
43F
100
AcDbEntity
  8
0
100
AcDbLine
 62
7
  6
CONTINUOUS
 10
152.5763279551
 20
99.5866530478
 11
152.5325198616
 21
99.7002501853
  0
LINE
  5
440
100
AcDbEntity
  8
0
100
AcDbLine
 62
7
  6
CONTINUOUS
 10
152.7884599895
 20
99.7091354258
 11
152.7446518959
 21
99.8227325633
  0
LINE
  5
441
100
AcDbEntity
  8
0
100
AcDbLine
 62
7
  6
CONTINUOUS
 10
151.6987928833
 20
102.6829254947
 11
151.7168219849
 21
102.63479724
  0
LINE
  5
442
100
AcDbEntity
  8
0
100
AcDbLine
 62
7
  6
CONTINUOUS
 10
151.4628214509
 20
99.8019906309
 11
151.4968636927
 21
99.7047605932
  0
LINE
  5
443
100
AcDbEntity
  8
0
100
AcDbLine
 62
7
  6
CONTINUOUS
 10
152.6186963792
 20
99.4636804624
 11
152.5763279551
 21
99.5866530478
  0
LINE
  5
444
100
AcDbEntity
  8
0
100
AcDbLine
 62
7
  6
CONTINUOUS
 10
152.8308284136
 20
99.5861628404
 11
152.7884599895
 21
99.7091354258
  0
LINE
  5
445
100
AcDbEntity
  8
0
100
AcDbLine
 62
7
  6
CONTINUOUS
 10
151.7168219849
 20
102.63479724
 11
151.7331229175
 21
102.5865898842
  0
LINE
  5
446
100
AcDbEntity
  8
0
100
AcDbLine
 62
7
  6
CONTINUOUS
 10
152.6598139314
 20
99.3298256227
 11
152.6186963792
 21
99.4636804624
  0
LINE
  5
447
100
AcDbEntity
  8
0
100
AcDbLine
 62
7
  6
CONTINUOUS
 10
152.8719459658
 20
99.4523080007
 11
152.8308284136
 21
99.5861628404
  0
LINE
  5
448
100
AcDbEntity
  8
0
100
AcDbLine
 62
7
  6
CONTINUOUS
 10
151.7331229175
 20
102.5865898842
 11
151.7476709324
 21
102.5383675214
  0
LINE
  5
449
100
AcDbEntity
  8
0
100
AcDbLine
 62
7
  6
CONTINUOUS
 10
151.4968636927
 20
99.7047605932
 11
151.5276567788
 21
99.6015635638
  0
LINE
  5
44A
100
AcDbEntity
  8
0
100
AcDbLine
 62
7
  6
CONTINUOUS
 10
152.7000476002
 20
99.1827840209
 11
152.6598139314
 21
99.3298256227
  0
LINE
  5
44B
100
AcDbEntity
  8
0
100
AcDbLine
 62
7
  6
CONTINUOUS
 10
152.9121796345
 20
99.3052663989
 11
152.8719459658
 21
99.4523080007
  0
LINE
  5
44C
100
AcDbEntity
  8
0
100
AcDbLine
 62
7
  6
CONTINUOUS
 10
151.7476709324
 20
102.5383675214
 11
151.7604426951
 21
102.4901885307
  0
LINE
  5
44D
100
AcDbEntity
  8
0
100
AcDbLine
 62
7
  6
CONTINUOUS
 10
151.5276567788
 20
99.6015635638
 11
151.5621048999
 21
99.4667619908
  0
LINE
  5
44E
100
AcDbEntity
  8
0
100
AcDbLine
 62
7
  6
CONTINUOUS
 10
151.5621048999
 20
99.4667619908
 11
151.6320717016
 21
99.171786971
  0
LINE
  5
44F
100
AcDbEntity
  8
0
100
AcDbLine
 62
7
  6
CONTINUOUS
 10
148.6077696345
 20
99.232810924
 11
146.9120536598
 21
106.5933253375
  0
LINE
  5
450
100
AcDbEntity
  8
0
100
AcDbLine
 62
7
  6
CONTINUOUS
 10
148.8199016689
 20
99.355293302
 11
147.1892793641
 21
106.4332586904
  0
LINE
  5
451
100
AcDbEntity
  8
0
100
AcDbLine
 62
7
  6
CONTINUOUS
 10
151.7604426951
 20
102.4901885307
 11
151.7714141639
 21
102.4421100662
  0
LINE
  5
452
100
AcDbEntity
  8
0
100
AcDbLine
 62
7
  6
CONTINUOUS
 10
151.6320717016
 20
99.171786971
 11
151.7538948863
 21
98.6370639917
  0
LINE
  5
453
100
AcDbEntity
  8
0
100
AcDbLine
 62
7
  6
CONTINUOUS
 10
151.7538948863
 20
98.6370639917
 11
151.9305973354
 21
97.8426681516
  0
LINE
  5
454
100
AcDbEntity
  8
0
100
AcDbLine
 62
7
  6
CONTINUOUS
 10
151.9305973354
 20
97.8426681516
 11
152.0632901655
 21
97.2376366772
  0
LINE
  5
455
100
AcDbEntity
  8
0
100
AcDbLine
 62
7
  6
CONTINUOUS
 10
146.999417077
 20
101.5141537279
 11
147.3167404374
 21
99.978235002
  0
LINE
  5
456
100
AcDbEntity
  8
0
100
AcDbLine
 62
7
  6
CONTINUOUS
 10
146.1917427409
 20
105.5418131945
 11
146.7546160022
 21
102.7022128788
  0
LWPOLYLINE
  5
457
100
AcDbEntity
  8
0
100
AcDbPolyline
 62
7
  6
CONTINUOUS
 90
5
 70
0
 10
145.5393208515
 20
95.2531746821
 10
145.5543381337
 20
95.1373832623
 10
145.5649997684
 20
95.0234443708
 10
145.5714995705
 20
94.9106448506
 10
145.5738375399
 20
94.7989847018
  0
LINE
  5
458
100
AcDbEntity
  8
0
100
AcDbLine
 62
7
  6
CONTINUOUS
 10
152.9426488657
 20
101.7591644875
 11
152.932936047
 21
101.8856615859
  0
LINE
  5
459
100
AcDbEntity
  8
0
100
AcDbLine
 62
7
  6
CONTINUOUS
 10
153.1547809001
 20
101.8816468655
 11
153.1450680813
 21
102.0081439639
  0
LINE
  5
45A
100
AcDbEntity
  8
0
100
AcDbLine
 62
7
  6
CONTINUOUS
 10
151.7932920477
 20
102.2989783401
 11
151.7968205106
 21
102.2517935095
  0
LINE
  5
45B
100
AcDbEntity
  8
0
100
AcDbLine
 62
7
  6
CONTINUOUS
 10
151.7968205106
 20
102.2517935095
 11
151.7984221074
 21
102.2049455803
  0
LINE
  5
45C
100
AcDbEntity
  8
0
100
AcDbLine
 62
7
  6
CONTINUOUS
 10
152.9469402968
 20
101.6294593716
 11
152.9426488657
 21
101.7591644875
  0
LINE
  5
45D
100
AcDbEntity
  8
0
100
AcDbLine
 62
7
  6
CONTINUOUS
 10
153.1590723311
 20
101.7519417496
 11
153.1547809001
 21
101.8816468655
  0
LWPOLYLINE
  5
45E
100
AcDbEntity
  8
0
100
AcDbPolyline
 62
7
  6
CONTINUOUS
 90
17
 70
0
 10
156.2456454053
 20
131.2982578573
 10
156.2469131592
 20
131.2411595518
 10
156.2507131839
 20
131.1856713651
 10
156.2570357598
 20
131.1319354255
 10
156.2658647121
 20
131.0800893457
 10
156.2771774374
 20
131.0302659595
 10
156.2909449477
 20
130.9825929697
 10
156.3071319709
 20
130.937192506
 10
156.3256970548
 20
130.8941808245
 10
156.346592649
 20
130.8536680908
 10
156.3697652342
 20
130.8157580699
 10
156.3951554589
 20
130.7805478606
 10
156.4226982918
 20
130.7481276466
 10
156.4523231879
 20
130.7185804656
 10
156.4839542695
 20
130.6919819969
 10
156.5175105203
 20
130.6684003672
 10
156.5354863673
 20
130.657469396
  0
LINE
  5
45F
100
AcDbEntity
  8
0
100
AcDbLine
 62
7
  6
CONTINUOUS
 10
150.3996057952
 20
98.4431919378
 11
150.3996057952
 21
100.8499201562
  0
LINE
  5
460
100
AcDbEntity
  8
0
100
AcDbLine
 62
7
  6
CONTINUOUS
 10
152.11671279
 20
100.3696973664
 11
152.11671279
 21
100.4097362523
  0
LINE
  5
461
100
AcDbEntity
  8
0
100
AcDbLine
 62
7
  6
CONTINUOUS
 10
154.8333699735
 20
126.6983399696
 11
154.8333699735
 21
130.4829853263
  0
LINE
  5
462
100
AcDbEntity
  8
0
100
AcDbLine
 62
7
  6
CONTINUOUS
 10
156.7601023161
 20
126.8045957622
 11
156.7601023161
 21
130.4538518782
  0
LINE
  5
463
100
AcDbEntity
  8
0
100
AcDbLine
 62
7
  6
CONTINUOUS
 10
151.7984221074
 20
102.2049455803
 11
151.7982813932
 21
102.1432379894
  0
LINE
  5
464
100
AcDbEntity
  8
0
100
AcDbLine
 62
7
  6
CONTINUOUS
 10
152.9454150675
 20
101.5066227283
 11
152.9469402968
 21
101.6294593716
  0
LINE
  5
465
100
AcDbEntity
  8
0
100
AcDbLine
 62
7
  6
CONTINUOUS
 10
153.1575471018
 20
101.6291051063
 11
153.1590723311
 21
101.7519417496
  0
LWPOLYLINE
  5
466
100
AcDbEntity
  8
0
100
AcDbPolyline
 62
7
  6
CONTINUOUS
 90
34
 70
0
 10
154.8333699735
 20
130.4829853263
 10
154.8348392467
 20
130.5581552273
 10
154.8394390861
 20
130.6313899503
 10
154.8471694916
 20
130.7026894953
 10
154.8580193236
 20
130.7722505661
 10
154.8719997217
 20
130.8398764589
 10
154.8891441055
 20
130.9049770623
 10
154.9095297257
 20
130.9676007076
 10
154.9330793315
 20
131.0276990635
 10
154.9595945902
 20
131.0845370256
 10
154.9891172761
 20
131.1380123161
 10
155.0216056148
 20
131.1882272127
 10
155.0567359504
 20
131.2347534435
 10
155.0944963482
 20
131.2775069559
 10
155.1348987428
 20
131.3165718024
 10
155.1776552818
 20
131.351771869
 10
155.2227417655
 20
131.3830852924
 10
155.2701823935
 20
131.4105339358
 10
155.3197619122
 20
131.4340072753
 10
155.3714961848
 20
131.4535155969
 10
155.425369348
 20
131.4690486145
 10
155.4811185585
 20
131.480464946
 10
155.5388138389
 20
131.487745439
 10
155.5983851666
 20
131.4909092459
 10
155.6593596297
 20
131.4898724418
 10
155.7218060704
 20
131.4845605571
 10
155.7856556464
 20
131.4750480613
 10
155.8502289194
 20
131.4614744381
 10
155.9155165176
 20
131.4437665571
 10
155.9815278128
 20
131.4219975487
 10
156.0476114815
 20
131.396526287
 10
156.113550416
 20
131.3674723969
 10
156.1795617239
 20
131.3347162537
 10
156.2456454053
 20
131.2982578573
  0
LINE
  5
467
100
AcDbEntity
  8
0
100
AcDbLine
 62
7
  6
CONTINUOUS
 10
151.7982813932
 20
102.1432379894
 11
151.7962265409
 21
102.0852205426
  0
LINE
  5
468
100
AcDbEntity
  8
0
100
AcDbLine
 62
7
  6
CONTINUOUS
 10
152.9382414692
 20
101.3904438987
 11
152.9454150675
 21
101.5066227283
  0
LINE
  5
469
100
AcDbEntity
  8
0
100
AcDbLine
 62
7
  6
CONTINUOUS
 10
153.1503735035
 20
101.5129262767
 11
153.1575471018
 21
101.6291051063
  0
LINE
  5
46A
100
AcDbEntity
  8
0
100
AcDbLine
 62
7
  6
CONTINUOUS
 10
151.7962265409
 20
102.0852205426
 11
151.7923339181
 21
102.0307446382
  0
LINE
  5
46B
100
AcDbEntity
  8
0
100
AcDbLine
 62
7
  6
CONTINUOUS
 10
151.7923339181
 20
102.0307446382
 11
151.7866735283
 21
101.9796694312
  0
LINE
  5
46C
100
AcDbEntity
  8
0
100
AcDbLine
 62
7
  6
CONTINUOUS
 10
152.9255644588
 20
101.2807387609
 11
152.9382414692
 21
101.3904438987
  0
LINE
  5
46D
100
AcDbEntity
  8
0
100
AcDbLine
 62
7
  6
CONTINUOUS
 10
153.1376964931
 20
101.4032211389
 11
153.1503735035
 21
101.5129262767
  0
LINE
  5
46E
100
AcDbEntity
  8
0
100
AcDbLine
 62
7
  6
CONTINUOUS
 10
151.7866735283
 20
101.9796694312
 11
151.779308304
 21
101.9318581592
  0
LINE
  5
46F
100
AcDbEntity
  8
0
100
AcDbLine
 62
7
  6
CONTINUOUS
 10
152.9075091942
 20
101.1773501372
 11
152.9255644588
 21
101.2807387609
  0
LINE
  5
470
100
AcDbEntity
  8
0
100
AcDbLine
 62
7
  6
CONTINUOUS
 10
153.1196412286
 20
101.2998325152
 11
153.1376964931
 21
101.4032211389
  0
LINE
  5
471
100
AcDbEntity
  8
0
100
AcDbLine
 62
7
  6
CONTINUOUS
 10
151.779308304
 20
101.9318581592
 11
151.7702941068
 21
101.8871838581
  0
LINE
  5
472
100
AcDbEntity
  8
0
100
AcDbLine
 62
7
  6
CONTINUOUS
 10
152.8841831557
 20
101.0801539181
 11
152.9075091942
 21
101.1773501372
  0
LINE
  5
473
100
AcDbEntity
  8
0
100
AcDbLine
 62
7
  6
CONTINUOUS
 10
153.0963151901
 20
101.2026362961
 11
153.1196412286
 21
101.2998325152
  0
LINE
  5
474
100
AcDbEntity
  8
0
100
AcDbLine
 62
7
  6
CONTINUOUS
 10
151.7702941068
 20
101.8871838581
 11
151.759680434
 21
101.8455240544
  0
LINE
  5
475
100
AcDbEntity
  8
0
100
AcDbLine
 62
7
  6
CONTINUOUS
 10
152.8556789743
 20
100.9890615116
 11
152.8841831557
 21
101.0801539181
  0
LINE
  5
476
100
AcDbEntity
  8
0
100
AcDbLine
 62
7
  6
CONTINUOUS
 10
153.0678110086
 20
101.1115438896
 11
153.0963151901
 21
101.2026362961
  0
LINE
  5
477
100
AcDbEntity
  8
0
100
AcDbLine
 62
7
  6
CONTINUOUS
 10
151.759680434
 20
101.8455240544
 11
151.7475075908
 21
101.8067681143
  0
LINE
  5
478
100
AcDbEntity
  8
0
100
AcDbLine
 62
7
  6
CONTINUOUS
 10
151.7475075908
 20
101.8067681143
 11
151.740847352
 21
101.7884440353
  0
LINE
  5
479
100
AcDbEntity
  8
0
100
AcDbLine
 62
7
  6
CONTINUOUS
 10
152.8220815027
 20
100.9040214752
 11
152.8556789743
 21
100.9890615116
  0
LINE
  5
47A
100
AcDbEntity
  8
0
100
AcDbLine
 62
7
  6
CONTINUOUS
 10
153.034213537
 20
101.0265038532
 11
153.0678110086
 21
101.1115438896
  0
LINE
  5
47B
100
AcDbEntity
  8
0
100
AcDbLine
 62
7
  6
CONTINUOUS
 10
151.740847352
 20
101.7884440353
 11
151.7338102253
 21
101.7708103029
  0
LINE
  5
47C
100
AcDbEntity
  8
0
100
AcDbLine
 62
7
  6
CONTINUOUS
 10
151.7338102253
 20
101.7708103029
 11
151.7186279356
 21
101.7375869333
  0
LINE
  5
47D
100
AcDbEntity
  8
0
100
AcDbLine
 62
7
  6
CONTINUOUS
 10
152.7834734724
 20
100.8250268642
 11
152.8220815027
 21
100.9040214752
  0
LINE
  5
47E
100
AcDbEntity
  8
0
100
AcDbLine
 62
7
  6
CONTINUOUS
 10
152.9956055068
 20
100.9475092422
 11
153.034213537
 21
101.0265038532
  0
LINE
  5
47F
100
AcDbEntity
  8
0
100
AcDbLine
 62
7
  6
CONTINUOUS
 10
151.7186279356
 20
101.7375869333
 11
151.7019875917
 21
101.707014724
  0
LINE
  5
480
100
AcDbEntity
  8
0
100
AcDbLine
 62
7
  6
CONTINUOUS
 10
152.7399461003
 20
100.7521164561
 11
152.7834734724
 21
100.8250268642
  0
LINE
  5
481
100
AcDbEntity
  8
0
100
AcDbLine
 62
7
  6
CONTINUOUS
 10
152.9520781347
 20
100.8745988341
 11
152.9956055068
 21
100.9475092422
  0
LINE
  5
482
100
AcDbEntity
  8
0
100
AcDbLine
 62
7
  6
CONTINUOUS
 10
151.7019875917
 20
101.707014724
 11
151.68390475
 21
101.6790112107
  0
LINE
  5
483
100
AcDbEntity
  8
0
100
AcDbLine
 62
7
  6
CONTINUOUS
 10
152.6916181802
 20
100.6853792393
 11
152.7399461003
 21
100.7521164561
  0
LINE
  5
484
100
AcDbEntity
  8
0
100
AcDbLine
 62
7
  6
CONTINUOUS
 10
152.9037502146
 20
100.8078616173
 11
152.9520781347
 21
100.8745988341
  0
LINE
  5
485
100
AcDbEntity
  8
0
100
AcDbLine
 62
7
  6
CONTINUOUS
 10
151.68390475
 20
101.6790112107
 11
151.6643871886
 21
101.6535065848
  0
LWPOLYLINE
  5
486
100
AcDbEntity
  8
0
100
AcDbPolyline
 62
7
  6
CONTINUOUS
 90
3
 70
0
 10
143.2431950316
 20
97.0515784704
 10
143.2144613725
 20
97.0144874331
 10
143.1868425248
 20
96.9728868049
  0
LINE
  5
487
100
AcDbEntity
  8
0
100
AcDbLine
 62
7
  6
CONTINUOUS
 10
143.2601275038
 20
97.0702690866
 11
143.2431950316
 21
97.0515784704
  0
LINE
  5
488
100
AcDbEntity
  8
0
100
AcDbLine
 62
7
  6
CONTINUOUS
 10
151.6643871886
 20
101.6535065848
 11
151.6434349076
 21
101.6304404274
  0
LINE
  5
489
100
AcDbEntity
  8
0
100
AcDbLine
 62
7
  6
CONTINUOUS
 10
151.6434349076
 20
101.6304404274
 11
151.6210387145
 21
101.6097641591
  0
LWPOLYLINE
  5
48A
100
AcDbEntity
  8
0
100
AcDbPolyline
 62
7
  6
CONTINUOUS
 90
16
 70
0
 10
142.64056093
 20
97.6306132224
 10
142.5959906234
 20
97.5933237081
 10
142.553217402
 20
97.5501545121
 10
142.5122412656
 20
97.5011056346
 10
142.4728109473
 20
97.446291225
 10
142.4351777142
 20
97.3855971338
 10
142.4000953667
 20
97.3186809121
 10
142.3674864782
 20
97.2451124795
 10
142.3374284754
 20
97.1653219164
 10
142.310907439
 20
97.080257015
 10
142.2880233527
 20
96.9894455605
 10
142.2686762328
 20
96.8933597678
 10
142.2535522086
 20
96.7943640729
 10
142.2428799898
 20
96.6932466213
 10
142.2364308668
 20
96.5892192676
 10
142.2342048394
 20
96.4822820117
  0
LINE
  5
48B
100
AcDbEntity
  8
0
100
AcDbLine
 62
7
  6
CONTINUOUS
 10
151.6210387145
 20
101.6097641591
 11
151.5971837602
 21
101.5914398147
  0
LINE
  5
48C
100
AcDbEntity
  8
0
100
AcDbLine
 62
7
  6
CONTINUOUS
 10
143.1234078488
 20
97.0138088893
 11
143.145128101
 21
97.0277603078
  0
LINE
  5
48D
100
AcDbEntity
  8
0
100
AcDbLine
 62
7
  6
CONTINUOUS
 10
151.5971837602
 20
101.5914398147
 11
151.57184671
 21
101.5754441264
  0
LWPOLYLINE
  5
48E
100
AcDbEntity
  8
0
100
AcDbPolyline
 62
7
  6
CONTINUOUS
 90
3
 70
0
 10
142.7117754927
 20
97.6787245816
 10
142.6840837783
 20
97.6617551057
 10
142.64056093
 20
97.6306132224
  0
LINE
  5
48F
100
AcDbEntity
  8
0
100
AcDbLine
 62
7
  6
CONTINUOUS
 10
138.3614211441
 20
100.8402594232
 11
138.1492891097
 21
100.7177770452
  0
LINE
  5
490
100
AcDbEntity
  8
0
100
AcDbLine
 62
7
  6
CONTINUOUS
 10
135.93255107
 20
99.083944895
 11
135.7204190357
 21
98.961462517
  0
LINE
  5
491
100
AcDbEntity
  8
0
100
AcDbLine
 62
7
  6
CONTINUOUS
 10
137.5334295089
 20
99.7888368301
 11
137.3212974746
 21
99.6663544522
  0
LINE
  5
492
100
AcDbEntity
  8
0
100
AcDbLine
 62
7
  6
CONTINUOUS
 10
138.9421587511
 20
100.5049488072
 11
138.7300267167
 21
100.3824664292
  0
LINE
  5
493
100
AcDbEntity
  8
0
100
AcDbLine
 62
7
  6
CONTINUOUS
 10
137.5334295089
 20
99.1929278339
 11
137.3212974746
 21
99.0704454559
  0
LINE
  5
494
100
AcDbEntity
  8
0
100
AcDbLine
 62
7
  6
CONTINUOUS
 10
139.6327758021
 20
100.1061951774
 11
139.4206437678
 21
99.9837127994
  0
LINE
  5
495
100
AcDbEntity
  8
0
100
AcDbLine
 62
7
  6
CONTINUOUS
 10
145.7939612354
 20
103.5018476573
 11
145.581829201
 21
103.3793652793
  0
LINE
  5
496
100
AcDbEntity
  8
0
100
AcDbLine
 62
7
  6
CONTINUOUS
 10
143.8013979656
 20
102.2529144436
 11
143.5892659313
 21
102.1304320656
  0
LINE
  5
497
100
AcDbEntity
  8
0
100
AcDbLine
 62
7
  6
CONTINUOUS
 10
140.2134886604
 20
99.7708988511
 11
140.001356626
 21
99.6484164731
  0
LINE
  5
498
100
AcDbEntity
  8
0
100
AcDbLine
 62
7
  6
CONTINUOUS
 10
137.6630209687
 20
98.0848153081
 11
137.4508889343
 21
97.9623329301
  0
LINE
  5
499
100
AcDbEntity
  8
0
100
AcDbLine
 62
7
  6
CONTINUOUS
 10
137.6630209687
 20
97.4889193754
 11
137.4508889343
 21
97.3664369974
  0
LINE
  5
49A
100
AcDbEntity
  8
0
100
AcDbLine
 62
7
  6
CONTINUOUS
 10
145.2053888853
 20
101.4422676828
 11
144.9932568509
 21
101.3197853048
  0
LINE
  5
49B
100
AcDbEntity
  8
0
100
AcDbLine
 62
7
  6
CONTINUOUS
 10
140.2134773467
 20
98.1338988079
 11
140.0013453123
 21
98.0114164299
  0
LINE
  5
49C
100
AcDbEntity
  8
0
100
AcDbLine
 62
7
  6
CONTINUOUS
 10
141.6550488704
 20
98.9385600528
 11
141.4429168361
 21
98.8160776748
  0
LINE
  5
49D
100
AcDbEntity
  8
0
100
AcDbLine
 62
7
  6
CONTINUOUS
 10
138.9421587511
 20
96.7503612512
 11
138.7300267167
 21
96.6278788732
  0
LINE
  5
49E
100
AcDbEntity
  8
0
100
AcDbLine
 62
7
  6
CONTINUOUS
 10
142.4336915233
 20
98.4889815437
 11
142.221559489
 21
98.3664991657
  0
LINE
  5
49F
100
AcDbEntity
  8
0
100
AcDbLine
 62
7
  6
CONTINUOUS
 10
150.3589888746
 20
102.2280568863
 11
150.1468568403
 21
102.1055745083
  0
LINE
  5
4A0
100
AcDbEntity
  8
0
100
AcDbLine
 62
7
  6
CONTINUOUS
 10
152.4881093116
 20
103.3737806886
 11
152.4254964218
 21
103.3376287907
  0
LINE
  5
4A1
100
AcDbEntity
  8
0
100
AcDbLine
 62
7
  6
CONTINUOUS
 10
142.92398089
 20
97.8010798499
 11
142.7118488556
 21
97.6785974719
  0
LINE
  5
4A2
100
AcDbEntity
  8
0
100
AcDbLine
 62
7
  6
CONTINUOUS
 10
152.6206013993
 20
103.2972814177
 11
152.4929261245
 21
103.2235633141
  0
LINE
  5
4A3
100
AcDbEntity
  8
0
100
AcDbLine
 62
7
  6
CONTINUOUS
 10
140.2134886604
 20
96.016311295
 11
140.001356626
 21
95.893828917
  0
LINE
  5
4A4
100
AcDbEntity
  8
0
100
AcDbLine
 62
7
  6
CONTINUOUS
 10
152.7530216902
 20
103.2208236013
 11
152.5563627951
 21
103.1072752201
  0
LINE
  5
4A5
100
AcDbEntity
  8
0
100
AcDbLine
 62
7
  6
CONTINUOUS
 10
152.8276287554
 20
103.1117841412
 11
152.615496721
 21
102.9893017632
  0
LINE
  5
4A6
100
AcDbEntity
  8
0
100
AcDbLine
 62
7
  6
CONTINUOUS
 10
152.8822555827
 20
102.9925037668
 11
152.6701235483
 21
102.8700213888
  0
LINE
  5
4A7
100
AcDbEntity
  8
0
100
AcDbLine
 62
7
  6
CONTINUOUS
 10
151.0590260022
 20
101.8238642223
 11
150.8468939678
 21
101.7013818443
  0
LINE
  5
4A8
100
AcDbEntity
  8
0
100
AcDbLine
 62
7
  6
CONTINUOUS
 10
151.082294765
 20
101.8111990617
 11
150.8701627307
 21
101.6887166838
  0
LINE
  5
4A9
100
AcDbEntity
  8
0
100
AcDbLine
 62
7
  6
CONTINUOUS
 10
152.9322395468
 20
102.8721736708
 11
152.7201075124
 21
102.7496912928
  0
LINE
  5
4AA
100
AcDbEntity
  8
0
100
AcDbLine
 62
7
  6
CONTINUOUS
 10
151.1399748794
 20
101.7813244618
 11
150.927842845
 21
101.6588420838
  0
LINE
  5
4AB
100
AcDbEntity
  8
0
100
AcDbLine
 62
7
  6
CONTINUOUS
 10
144.0101818737
 20
97.6627522467
 11
143.7980498393
 21
97.5402698687
  0
LINE
  5
4AC
100
AcDbEntity
  8
0
100
AcDbLine
 62
7
  6
CONTINUOUS
 10
151.1954311429
 20
101.754778327
 11
150.9832991086
 21
101.632295949
  0
LINE
  5
4AD
100
AcDbEntity
  8
0
100
AcDbLine
 62
7
  6
CONTINUOUS
 10
152.9774837742
 20
102.7509624596
 11
152.7653517398
 21
102.6284800816
  0
LINE
  5
4AE
100
AcDbEntity
  8
0
100
AcDbLine
 62
7
  6
CONTINUOUS
 10
151.2486677983
 20
101.7314773772
 11
151.0365357639
 21
101.6089949992
  0
LINE
  5
4AF
100
AcDbEntity
  8
0
100
AcDbLine
 62
7
  6
CONTINUOUS
 10
151.2997004018
 20
101.7113326162
 11
151.0875683674
 21
101.5888502382
  0
LINE
  5
4B0
100
AcDbEntity
  8
0
100
AcDbLine
 62
7
  6
CONTINUOUS
 10
151.3485614804
 20
101.6942501481
 11
151.136429446
 21
101.5717677701
  0
LINE
  5
4B1
100
AcDbEntity
  8
0
100
AcDbLine
 62
7
  6
CONTINUOUS
 10
153.0179111902
 20
102.6289742374
 11
152.8057791558
 21
102.5064918594
  0
LINE
  5
4B2
100
AcDbEntity
  8
0
100
AcDbLine
 62
7
  6
CONTINUOUS
 10
151.3952899249
 20
101.680134852
 11
151.1831578905
 21
101.557652474
  0
LINE
  5
4B3
100
AcDbEntity
  8
0
100
AcDbLine
 62
7
  6
CONTINUOUS
 10
151.4399331115
 20
101.6688948724
 11
151.2278010772
 21
101.5464124944
  0
LINE
  5
4B4
100
AcDbEntity
  8
0
100
AcDbLine
 62
7
  6
CONTINUOUS
 10
151.4825433662
 20
101.6604379451
 11
151.2704113318
 21
101.5379555671
  0
LINE
  5
4B5
100
AcDbEntity
  8
0
100
AcDbLine
 62
7
  6
CONTINUOUS
 10
151.5231772573
 20
101.6546791542
 11
151.311045223
 21
101.5321967762
  0
LINE
  5
4B6
100
AcDbEntity
  8
0
100
AcDbLine
 62
7
  6
CONTINUOUS
 10
151.5618927678
 20
101.6515392986
 11
151.3497607335
 21
101.5290569206
  0
LINE
  5
4B7
100
AcDbEntity
  8
0
100
AcDbLine
 62
7
  6
CONTINUOUS
 10
153.0534510841
 20
102.5062612624
 11
152.8413190498
 21
102.3837788844
  0
LINE
  5
4B8
100
AcDbEntity
  8
0
100
AcDbLine
 62
7
  6
CONTINUOUS
 10
151.5987492946
 20
101.6509440765
 11
151.3866172602
 21
101.5284616985
  0
LINE
  5
4B9
100
AcDbEntity
  8
0
100
AcDbLine
 62
7
  6
CONTINUOUS
 10
151.6338062346
 20
101.6528297997
 11
151.4216742002
 21
101.5303474217
  0
LINE
  5
4BA
100
AcDbEntity
  8
0
100
AcDbLine
 62
7
  6
CONTINUOUS
 10
151.6634960146
 20
101.6550500441
 11
151.4549874149
 21
101.5346597918
  0
LINE
  5
4BB
100
AcDbEntity
  8
0
100
AcDbLine
 62
7
  6
CONTINUOUS
 10
151.6428022469
 20
101.6315361572
 11
151.4866120586
 21
101.5413539
  0
LINE
  5
4BC
100
AcDbEntity
  8
0
100
AcDbLine
 62
7
  6
CONTINUOUS
 10
151.594808937
 20
101.5955528641
 11
151.5165997501
 21
101.5503958597
  0
LINE
  5
4BD
100
AcDbEntity
  8
0
100
AcDbLine
 62
7
  6
CONTINUOUS
 10
151.5710576956
 20
101.5768106514
 11
151.5449971584
 21
101.5617636238
  0
LINE
  5
4BE
100
AcDbEntity
  8
0
100
AcDbLine
 62
7
  6
CONTINUOUS
 10
153.0840299169
 20
102.3828390514
 11
152.8718978825
 21
102.2603566734
  0
LINE
  5
4BF
100
AcDbEntity
  8
0
100
AcDbLine
 62
7
  6
CONTINUOUS
 10
153.1095621285
 20
102.2586990365
 11
152.8974300942
 21
102.1362166585
  0
LINE
  5
4C0
100
AcDbEntity
  8
0
100
AcDbLine
 62
7
  6
CONTINUOUS
 10
153.129948017
 20
102.1338138714
 11
152.9178159827
 21
102.0113314934
  0
LINE
  5
4C1
100
AcDbEntity
  8
0
100
AcDbLine
 62
7
  6
CONTINUOUS
 10
143.0306838857
 20
96.2670053873
 11
142.8185518514
 21
96.1445230093
  0
LINE
  5
4C2
100
AcDbEntity
  8
0
100
AcDbLine
 62
7
  6
CONTINUOUS
 10
153.1450680813
 20
102.0081439639
 11
152.932936047
 21
101.8856615859
  0
LWPOLYLINE
  5
4C3
100
AcDbEntity
  8
0
100
AcDbPolyline
 62
7
  6
CONTINUOUS
 90
4
 70
0
 10
143.145128101
 20
97.0277603078
 10
143.1530010775
 20
97.0322135079
 10
143.185327072
 20
97.0476786449
 10
143.2203858323
 20
97.0602043002
  0
LINE
  5
4C4
100
AcDbEntity
  8
0
100
AcDbLine
 62
7
  6
CONTINUOUS
 10
141.6550488704
 20
98.9385600528
 11
140.2134773467
 21
98.1338988079
  0
LINE
  5
4C5
100
AcDbEntity
  8
0
100
AcDbLine
 62
7
  6
CONTINUOUS
 10
141.4429168361
 20
98.8160776748
 11
140.0013453123
 21
98.0114164299
  0
LWPOLYLINE
  5
4C6
100
AcDbEntity
  8
0
100
AcDbPolyline
 62
7
  6
CONTINUOUS
 90
18
 70
0
 10
142.9239325362
 20
97.8011636097
 10
142.9424776174
 20
97.8114474396
 10
142.9914477931
 20
97.8348867111
 10
143.0433019912
 20
97.8546270327
 10
143.0978747555
 20
97.8705429223
 10
143.1546697168
 20
97.8822579332
 10
143.2135653828
 20
97.8897546992
 10
143.2746832459
 20
97.8930505866
 10
143.3378914133
 20
97.8918212476
 10
143.4030326017
 20
97.8860735515
 10
143.4702640945
 20
97.875800629
 10
143.5399258488
 20
97.8606575243
 10
143.6121100691
 20
97.840680471
 10
143.686724551
 20
97.8158332354
 10
143.763832638
 20
97.7856621609
 10
143.8434554448
 20
97.7500160285
 10
143.9255718566
 20
97.7090460571
 10
144.0101818737
 20
97.6627522467
  0
LINE
  5
4C7
100
AcDbEntity
  8
0
100
AcDbLine
 62
7
  6
CONTINUOUS
 10
140.823095316
 20
97.6289775405
 11
142.221559489
 21
98.3664991657
  0
LINE
  5
4C8
100
AcDbEntity
  8
0
100
AcDbLine
 62
7
  6
CONTINUOUS
 10
151.57184671
 20
101.5754441264
 11
151.5449971584
 21
101.5617636238
  0
LINE
  5
4C9
100
AcDbEntity
  8
0
100
AcDbLine
 62
7
  6
CONTINUOUS
 10
140.0013453123
 20
97.1950547437
 11
140.4166178112
 21
97.4024713592
  0
LINE
  5
4CA
100
AcDbEntity
  8
0
100
AcDbLine
 62
7
  6
CONTINUOUS
 10
151.5449971584
 20
101.5617636238
 11
151.5165997501
 21
101.5503958597
  0
LINE
  5
4CB
100
AcDbEntity
  8
0
100
AcDbLine
 62
7
  6
CONTINUOUS
 10
151.5165997501
 20
101.5503958597
 11
151.4866120586
 21
101.5413539
  0
LINE
  5
4CC
100
AcDbEntity
  8
0
100
AcDbLine
 62
7
  6
CONTINUOUS
 10
197.0890134922
 20
102.3809190583
 11
197.0880138557
 21
102.3810670684
  0
LWPOLYLINE
  5
4CD
100
AcDbEntity
  8
0
100
AcDbPolyline
 62
7
  6
CONTINUOUS
 90
4
 70
0
 10
196.9951488747
 20
102.44269697
 10
197.0428882192
 20
102.4352634657
 10
197.0912625505
 20
102.4293549452
 10
197.1401258611
 20
102.4249892419
  0
LINE
  5
4CE
100
AcDbEntity
  8
0
100
AcDbLine
 62
7
  6
CONTINUOUS
 10
198.234799966
 20
84.4104208397
 11
78.9794652358
 21
153.2669564925
  0
LINE
  5
4CF
100
AcDbEntity
  8
0
100
AcDbLine
 62
7
  6
CONTINUOUS
 10
152.9322395468
 20
102.8721736708
 11
152.8822555827
 21
102.9925037668
  0
LINE
  5
4D0
100
AcDbEntity
  8
0
100
AcDbLine
 62
7
  6
CONTINUOUS
 10
152.7653517398
 20
102.6284800816
 11
152.7201075124
 21
102.7496912928
  0
LINE
  5
4D1
100
AcDbEntity
  8
0
100
AcDbLine
 62
7
  6
CONTINUOUS
 10
152.9774837742
 20
102.7509624596
 11
152.9322395468
 21
102.8721736708
  0
LINE
  5
4D2
100
AcDbEntity
  8
0
100
AcDbLine
 62
7
  6
CONTINUOUS
 10
152.8057791558
 20
102.5064918594
 11
152.7653517398
 21
102.6284800816
  0
LINE
  5
4D3
100
AcDbEntity
  8
0
100
AcDbLine
 62
7
  6
CONTINUOUS
 10
153.0179111902
 20
102.6289742374
 11
152.9774837742
 21
102.7509624596
  0
LINE
  5
4D4
100
AcDbEntity
  8
0
100
AcDbLine
 62
7
  6
CONTINUOUS
 10
152.8413190498
 20
102.3837788844
 11
152.8057791558
 21
102.5064918594
  0
LINE
  5
4D5
100
AcDbEntity
  8
0
100
AcDbLine
 62
7
  6
CONTINUOUS
 10
153.0534510841
 20
102.5062612624
 11
153.0179111902
 21
102.6289742374
  0
LINE
  5
4D6
100
AcDbEntity
  8
0
100
AcDbLine
 62
7
  6
CONTINUOUS
 10
152.8718978825
 20
102.2603566734
 11
152.8413190498
 21
102.3837788844
  0
LINE
  5
4D7
100
AcDbEntity
  8
0
100
AcDbLine
 62
7
  6
CONTINUOUS
 10
153.0840299169
 20
102.3828390514
 11
153.0534510841
 21
102.5062612624
  0
LINE
  5
4D8
100
AcDbEntity
  8
0
100
AcDbLine
 62
7
  6
CONTINUOUS
 10
152.7402133867
 20
99.018365486
 11
152.7000476002
 21
99.1827840209
  0
LINE
  5
4D9
100
AcDbEntity
  8
0
100
AcDbLine
 62
7
  6
CONTINUOUS
 10
152.952345421
 20
99.140847864
 11
152.9121796345
 21
99.3052663989
  0
LINE
  5
4DA
100
AcDbEntity
  8
0
100
AcDbLine
 62
7
  6
CONTINUOUS
 10
152.7825252422
 20
98.8265195536
 11
152.7402133867
 21
99.018365486
  0
LINE
  5
4DB
100
AcDbEntity
  8
0
100
AcDbLine
 62
7
  6
CONTINUOUS
 10
152.9946572766
 20
98.9490019316
 11
152.952345421
 21
99.140847864
  0
LINE
  5
4DC
100
AcDbEntity
  8
0
100
AcDbLine
 62
7
  6
CONTINUOUS
 10
152.82277871
 20
98.6330518178
 11
152.7825252422
 21
98.8265195536
  0
LINE
  5
4DD
100
AcDbEntity
  8
0
100
AcDbLine
 62
7
  6
CONTINUOUS
 10
153.0349107443
 20
98.7555341958
 11
152.9946572766
 21
98.9490019316
  0
LINE
  5
4DE
100
AcDbEntity
  8
0
100
AcDbLine
 62
7
  6
CONTINUOUS
 10
152.8974300942
 20
102.1362166585
 11
152.8718978825
 21
102.2603566734
  0
LINE
  5
4DF
100
AcDbEntity
  8
0
100
AcDbLine
 62
7
  6
CONTINUOUS
 10
153.1095621285
 20
102.2586990365
 11
153.0840299169
 21
102.3828390514
  0
LINE
  5
4E0
100
AcDbEntity
  8
0
100
AcDbLine
 62
7
  6
CONTINUOUS
 10
153.2415337097
 20
96.5573336217
 11
152.82277871
 21
98.6330518178
  0
LINE
  5
4E1
100
AcDbEntity
  8
0
100
AcDbLine
 62
7
  6
CONTINUOUS
 10
153.4536657441
 20
96.6798159997
 11
153.0349107443
 21
98.7555341958
  0
LINE
  5
4E2
100
AcDbEntity
  8
0
100
AcDbLine
 62
7
  6
CONTINUOUS
 10
151.7714141639
 20
102.4421100662
 11
151.7805627115
 21
102.3941827505
  0
LINE
  5
4E3
100
AcDbEntity
  8
0
100
AcDbLine
 62
7
  6
CONTINUOUS
 10
152.9178159827
 20
102.0113314934
 11
152.8974300942
 21
102.1362166585
  0
LINE
  5
4E4
100
AcDbEntity
  8
0
100
AcDbLine
 62
7
  6
CONTINUOUS
 10
153.129948017
 20
102.1338138714
 11
153.1095621285
 21
102.2586990365
  0
LINE
  5
4E5
100
AcDbEntity
  8
0
100
AcDbLine
 62
7
  6
CONTINUOUS
 10
151.7805627115
 20
102.3941827505
 11
151.787863589
 21
102.3464567978
  0
LINE
  5
4E6
100
AcDbEntity
  8
0
100
AcDbLine
 62
7
  6
CONTINUOUS
 10
152.932936047
 20
101.8856615859
 11
152.9178159827
 21
102.0113314934
  0
LINE
  5
4E7
100
AcDbEntity
  8
0
100
AcDbLine
 62
7
  6
CONTINUOUS
 10
153.1450680813
 20
102.0081439639
 11
153.129948017
 21
102.1338138714
  0
LINE
  5
4E8
100
AcDbEntity
  8
0
100
AcDbLine
 62
7
  6
CONTINUOUS
 10
151.787863589
 20
102.3464567978
 11
151.7932920477
 21
102.2989783401
  0
LWPOLYLINE
  5
4E9
100
AcDbEntity
  8
0
100
AcDbPolyline
 62
7
  6
CONTINUOUS
 90
4
 70
0
 10
156.7601024553
 20
130.4538528894
 10
156.757761128
 20
130.4798821779
 10
156.757005544
 20
130.5052729972
 10
156.7578191034
 20
130.5290972515
  0
LINE
  5
4EA
100
AcDbEntity
  8
0
100
AcDbLine
 62
7
  6
CONTINUOUS
 10
157.5821601334
 20
127.3108776392
 11
157.5821601334
 21
130.0531330722
  0
LINE
  5
4EB
100
AcDbEntity
  8
0
100
AcDbLine
 62
7
  6
CONTINUOUS
 10
158.4079025659
 20
127.2983928901
 11
158.4079025659
 21
129.5763597407
  0
LWPOLYLINE
  5
4EC
100
AcDbEntity
  8
0
100
AcDbPolyline
 62
7
  6
CONTINUOUS
 90
22
 70
0
 10
158.4079025659
 20
127.2983928901
 10
158.4068432392
 20
127.263184745
 10
158.4036705634
 20
127.2269292611
 10
158.3984004036
 20
127.1898074966
 10
158.3910591164
 20
127.1520049142
 10
158.3816833732
 20
127.1137102115
 10
158.3703199333
 20
127.0751143696
 10
158.3570255081
 20
127.0364100775
 10
158.3418664788
 20
126.9977906504
 10
158.3249184692
 20
126.9594488168
 10
158.3062657712
 20
126.9215754568
 10
158.2860017585
 20
126.8843603287
 10
158.2642285953
 20
126.8479908869
 10
158.2410559075
 20
126.8126497106
 10
158.2165989005
 20
126.7785119964
 10
158.1909785592
 20
126.7457464935
 10
158.1643120339
 20
126.7145048061
 10
158.1367424514
 20
126.684956331
 10
158.1084401736
 20
126.6572792016
 10
158.0795597322
 20
126.631614323
 10
158.0502359258
 20
126.6080715038
 10
158.0206155475
 20
126.5867602027
  0
LINE
  5
4ED
100
AcDbEntity
  8
0
100
AcDbLine
 62
7
  6
CONTINUOUS
 10
152.6386572965
 20
100.6249576786
 11
152.6916181802
 21
100.6853792393
  0
LINE
  5
4EE
100
AcDbEntity
  8
0
100
AcDbLine
 62
7
  6
CONTINUOUS
 10
152.8507893309
 20
100.7474400566
 11
152.9037502146
 21
100.8078616173
  0
LINE
  5
4EF
100
AcDbEntity
  8
0
100
AcDbLine
 62
7
  6
CONTINUOUS
 10
152.5813144721
 20
100.5710546529
 11
152.6386572965
 21
100.6249576786
  0
LINE
  5
4F0
100
AcDbEntity
  8
0
100
AcDbLine
 62
7
  6
CONTINUOUS
 10
152.7934465065
 20
100.6935370309
 11
152.8507893309
 21
100.7474400566
  0
LWPOLYLINE
  5
4F1
100
AcDbEntity
  8
0
100
AcDbPolyline
 62
7
  6
CONTINUOUS
 90
16
 70
0
 10
144.9553666271
 20
93.5281677998
 10
144.9999373505
 20
93.5654640235
 10
145.042710658
 20
93.6086393234
 10
145.0836865495
 20
93.6576936995
 10
145.1231163049
 20
93.7125132715
 10
145.1607486444
 20
93.7732119198
 10
145.1958297284
 20
93.8401312853
 10
145.2284368632
 20
93.9137012948
 10
145.2584927425
 20
93.9934920215
 10
145.285011608
 20
94.0785553263
 10
145.3078934103
 20
94.1693625957
 10
145.3272381987
 20
94.2654424432
 10
145.3423603635
 20
94.3644325696
 10
145.3530313679
 20
94.4655455421
 10
145.3594797485
 20
94.5695687935
 10
145.3617055055
 20
94.6765023238
  0
LINE
  5
4F2
100
AcDbEntity
  8
0
100
AcDbLine
 62
7
  6
CONTINUOUS
 10
152.5199779086
 20
100.5239334521
 11
152.5813144721
 21
100.5710546529
  0
LINE
  5
4F3
100
AcDbEntity
  8
0
100
AcDbLine
 62
7
  6
CONTINUOUS
 10
152.732109943
 20
100.6464158301
 11
152.7934465065
 21
100.6935370309
  0
LWPOLYLINE
  5
4F4
100
AcDbEntity
  8
0
100
AcDbPolyline
 62
7
  6
CONTINUOUS
 90
3
 70
0
 10
145.1674986614
 20
93.6506501778
 10
145.1239544937
 20
93.6195523944
 10
145.0962146165
 20
93.602551181
  0
LINE
  5
4F5
100
AcDbEntity
  8
0
100
AcDbLine
 62
7
  6
CONTINUOUS
 10
144.4725082335
 20
94.1442632854
 11
144.4493290362
 21
94.129557179
  0
LINE
  5
4F6
100
AcDbEntity
  8
0
100
AcDbLine
 62
7
  6
CONTINUOUS
 10
152.4552585462
 20
100.4839230798
 11
152.5199779086
 21
100.5239334521
  0
LINE
  5
4F7
100
AcDbEntity
  8
0
100
AcDbLine
 62
7
  6
CONTINUOUS
 10
152.6673905806
 20
100.6064054578
 11
152.732109943
 21
100.6464158301
  0
LWPOLYLINE
  5
4F8
100
AcDbEntity
  8
0
100
AcDbPolyline
 62
7
  6
CONTINUOUS
 90
3
 70
0
 10
144.8841076086
 20
93.4800254233
 10
144.9118325078
 20
93.4970161201
 10
144.9553666271
 20
93.5281677998
  0
LINE
  5
4F9
100
AcDbEntity
  8
0
100
AcDbLine
 62
7
  6
CONTINUOUS
 10
153.1547809001
 20
101.8816468655
 11
152.9426488657
 21
101.7591644875
  0
LINE
  5
4FA
100
AcDbEntity
  8
0
100
AcDbLine
 62
7
  6
CONTINUOUS
 10
148.8199016689
 20
99.355293302
 11
148.6077696345
 21
99.232810924
  0
LINE
  5
4FB
100
AcDbEntity
  8
0
100
AcDbLine
 62
7
  6
CONTINUOUS
 10
153.1590723311
 20
101.7519417496
 11
152.9469402968
 21
101.6294593716
  0
LINE
  5
4FC
100
AcDbEntity
  8
0
100
AcDbLine
 62
7
  6
CONTINUOUS
 10
153.1575471018
 20
101.6291051063
 11
152.9454150675
 21
101.5066227283
  0
LINE
  5
4FD
100
AcDbEntity
  8
0
100
AcDbLine
 62
7
  6
CONTINUOUS
 10
153.1503735035
 20
101.5129262767
 11
152.9382414692
 21
101.3904438987
  0
LINE
  5
4FE
100
AcDbEntity
  8
0
100
AcDbLine
 62
7
  6
CONTINUOUS
 10
153.1376964931
 20
101.4032211389
 11
152.9255644588
 21
101.2807387609
  0
LINE
  5
4FF
100
AcDbEntity
  8
0
100
AcDbLine
 62
7
  6
CONTINUOUS
 10
153.1196412286
 20
101.2998325152
 11
152.9075091942
 21
101.1773501372
  0
LINE
  5
500
100
AcDbEntity
  8
0
100
AcDbLine
 62
7
  6
CONTINUOUS
 10
153.0963151901
 20
101.2026362961
 11
152.8841831557
 21
101.0801539181
  0
LINE
  5
501
100
AcDbEntity
  8
0
100
AcDbLine
 62
7
  6
CONTINUOUS
 10
153.0678110086
 20
101.1115438896
 11
152.8556789743
 21
100.9890615116
  0
LINE
  5
502
100
AcDbEntity
  8
0
100
AcDbLine
 62
7
  6
CONTINUOUS
 10
153.034213537
 20
101.0265038532
 11
152.8220815027
 21
100.9040214752
  0
LINE
  5
503
100
AcDbEntity
  8
0
100
AcDbLine
 62
7
  6
CONTINUOUS
 10
152.9956055068
 20
100.9475092422
 11
152.7834734724
 21
100.8250268642
  0
LINE
  5
504
100
AcDbEntity
  8
0
100
AcDbLine
 62
7
  6
CONTINUOUS
 10
145.1674986614
 20
96.4165558022
 11
144.9553666271
 21
96.2940734242
  0
LINE
  5
505
100
AcDbEntity
  8
0
100
AcDbLine
 62
7
  6
CONTINUOUS
 10
152.9520781347
 20
100.8745988341
 11
152.7399461003
 21
100.7521164561
  0
LINE
  5
506
100
AcDbEntity
  8
0
100
AcDbLine
 62
7
  6
CONTINUOUS
 10
152.1758197776
 20
100.4038250003
 11
152.11671279
 21
100.3696973664
  0
LINE
  5
507
100
AcDbEntity
  8
0
100
AcDbLine
 62
7
  6
CONTINUOUS
 10
152.9037502146
 20
100.8078616173
 11
152.6916181802
 21
100.6853792393
  0
LINE
  5
508
100
AcDbEntity
  8
0
100
AcDbLine
 62
7
  6
CONTINUOUS
 10
152.8507893309
 20
100.7474400566
 11
152.6386572965
 21
100.6249576786
  0
LINE
  5
509
100
AcDbEntity
  8
0
100
AcDbLine
 62
7
  6
CONTINUOUS
 10
142.4413565609
 20
94.7299682911
 11
142.2292245265
 21
94.6074859131
  0
LINE
  5
50A
100
AcDbEntity
  8
0
100
AcDbLine
 62
7
  6
CONTINUOUS
 10
152.7934465065
 20
100.6935370309
 11
152.5813144721
 21
100.5710546529
  0
LINE
  5
50B
100
AcDbEntity
  8
0
100
AcDbLine
 62
7
  6
CONTINUOUS
 10
152.732109943
 20
100.6464158301
 11
152.5199779086
 21
100.5239334521
  0
LINE
  5
50C
100
AcDbEntity
  8
0
100
AcDbLine
 62
7
  6
CONTINUOUS
 10
152.6673905806
 20
100.6064054578
 11
152.5875277383
 21
100.5602936535
  0
LINE
  5
50D
100
AcDbEntity
  8
0
100
AcDbLine
 62
7
  6
CONTINUOUS
 10
152.3885670631
 20
100.426635077
 11
152.1764350287
 21
100.304152699
  0
LINE
  5
50E
100
AcDbEntity
  8
0
100
AcDbLine
 62
7
  6
CONTINUOUS
 10
152.4456687641
 20
100.3567101928
 11
152.2335367297
 21
100.2342278148
  0
LINE
  5
50F
100
AcDbEntity
  8
0
100
AcDbLine
 62
7
  6
CONTINUOUS
 10
143.3355398831
 20
95.0456993173
 11
143.1234078488
 21
94.9232169393
  0
LINE
  5
510
100
AcDbEntity
  8
0
100
AcDbLine
 62
7
  6
CONTINUOUS
 10
152.5003974147
 20
100.2821005346
 11
152.2882653804
 21
100.1596181566
  0
LINE
  5
511
100
AcDbEntity
  8
0
100
AcDbLine
 62
7
  6
CONTINUOUS
 10
152.5529665613
 20
100.2024256153
 11
152.3408345269
 21
100.0799432373
  0
LINE
  5
512
100
AcDbEntity
  8
0
100
AcDbLine
 62
7
  6
CONTINUOUS
 10
152.6035494449
 20
100.1172294265
 11
152.3914174105
 21
99.9947470485
  0
LINE
  5
513
100
AcDbEntity
  8
0
100
AcDbLine
 62
7
  6
CONTINUOUS
 10
146.1453049173
 20
96.3459424875
 11
145.9331728829
 21
96.2234601095
  0
LINE
  5
514
100
AcDbEntity
  8
0
100
AcDbLine
 62
7
  6
CONTINUOUS
 10
152.6522874869
 20
100.0259796219
 11
152.4401554525
 21
99.9034972439
  0
LINE
  5
515
100
AcDbEntity
  8
0
100
AcDbLine
 62
7
  6
CONTINUOUS
 10
152.6992902888
 20
99.928056086
 11
152.4871582545
 21
99.805573708
  0
LINE
  5
516
100
AcDbEntity
  8
0
100
AcDbLine
 62
7
  6
CONTINUOUS
 10
152.7446518959
 20
99.8227325633
 11
152.5325198616
 21
99.7002501853
  0
LINE
  5
517
100
AcDbEntity
  8
0
100
AcDbLine
 62
7
  6
CONTINUOUS
 10
150.3996057952
 20
98.4431919378
 11
150.1874737609
 21
98.3207095598
  0
LINE
  5
518
100
AcDbEntity
  8
0
100
AcDbLine
 62
7
  6
CONTINUOUS
 10
152.7884599895
 20
99.7091354258
 11
152.5763279551
 21
99.5866530478
  0
LINE
  5
519
100
AcDbEntity
  8
0
100
AcDbLine
 62
7
  6
CONTINUOUS
 10
152.8308284136
 20
99.5861628404
 11
152.6186963792
 21
99.4636804624
  0
LINE
  5
51A
100
AcDbEntity
  8
0
100
AcDbLine
 62
7
  6
CONTINUOUS
 10
146.7127192183
 20
96.0183245814
 11
146.500587184
 21
95.8958422034
  0
LINE
  5
51B
100
AcDbEntity
  8
0
100
AcDbLine
 62
7
  6
CONTINUOUS
 10
152.8719459658
 20
99.4523080007
 11
152.6598139314
 21
99.3298256227
  0
LINE
  5
51C
100
AcDbEntity
  8
0
100
AcDbLine
 62
7
  6
CONTINUOUS
 10
144.0116965435
 20
94.3344583366
 11
143.7995645092
 21
94.2119759586
  0
LINE
  5
51D
100
AcDbEntity
  8
0
100
AcDbLine
 62
7
  6
CONTINUOUS
 10
152.9121796345
 20
99.3052663989
 11
152.7000476002
 21
99.1827840209
  0
LINE
  5
51E
100
AcDbEntity
  8
0
100
AcDbLine
 62
7
  6
CONTINUOUS
 10
152.952345421
 20
99.140847864
 11
152.7402133867
 21
99.018365486
  0
LINE
  5
51F
100
AcDbEntity
  8
0
100
AcDbLine
 62
7
  6
CONTINUOUS
 10
145.5738375399
 20
94.7989847018
 11
145.3617055055
 21
94.6765023238
  0
LINE
  5
520
100
AcDbEntity
  8
0
100
AcDbLine
 62
7
  6
CONTINUOUS
 10
152.9946572766
 20
98.9490019316
 11
152.7825252422
 21
98.8265195536
  0
LINE
  5
521
100
AcDbEntity
  8
0
100
AcDbLine
 62
7
  6
CONTINUOUS
 10
153.0349107443
 20
98.7555341958
 11
152.82277871
 21
98.6330518178
  0
LINE
  5
522
100
AcDbEntity
  8
0
100
AcDbLine
 62
7
  6
CONTINUOUS
 10
145.1674986614
 20
93.6506501778
 11
144.9553666271
 21
93.5281677998
  0
LINE
  5
523
100
AcDbEntity
  8
0
100
AcDbLine
 62
7
  6
CONTINUOUS
 10
144.9583241147
 20
93.523045611
 11
145.096166696
 21
93.6026341899
  0
LINE
  5
524
100
AcDbEntity
  8
0
100
AcDbLine
 62
7
  6
CONTINUOUS
 10
153.1417842774
 20
98.230333727
 11
152.9296522431
 21
98.107851349
  0
LINE
  5
525
100
AcDbEntity
  8
0
100
AcDbLine
 62
7
  6
CONTINUOUS
 10
148.212219758
 20
95.152531763
 11
148.0000877236
 21
95.030049385
  0
LINE
  5
526
100
AcDbEntity
  8
0
100
AcDbLine
 62
7
  6
CONTINUOUS
 10
148.7712654503
 20
94.8297457868
 11
148.5591334159
 21
94.7072634088
  0
LINE
  5
527
100
AcDbEntity
  8
0
100
AcDbLine
 62
7
  6
CONTINUOUS
 10
153.357672463
 20
97.1537999057
 11
153.1455404287
 21
97.0313175277
  0
LINE
  5
528
100
AcDbEntity
  8
0
100
AcDbLine
 62
7
  6
CONTINUOUS
 10
153.4536657441
 20
96.6798159997
 11
153.2415337097
 21
96.5573336217
  0
LINE
  5
529
100
AcDbEntity
  8
0
100
AcDbLine
 62
7
  6
CONTINUOUS
 10
146.7043428314
 20
92.2685734462
 11
146.492210797
 21
92.1460910682
  0
LWPOLYLINE
  5
52A
100
AcDbEntity
  8
0
100
AcDbPolyline
 62
7
  6
CONTINUOUS
 90
4
 70
0
 10
144.4493290362
 20
94.129557179
 10
144.4413487765
 20
94.1250588391
 10
144.4079575333
 20
94.108967252
 10
144.372334504
 20
94.0959885242
  0
LINE
  5
52B
100
AcDbEntity
  8
0
100
AcDbLine
 62
7
  6
CONTINUOUS
 10
152.3881237071
 20
100.451416204
 11
152.4552585462
 21
100.4839230798
  0
LINE
  5
52C
100
AcDbEntity
  8
0
100
AcDbLine
 62
7
  6
CONTINUOUS
 10
152.3201368043
 20
100.426849141
 11
152.3881237071
 21
100.451416204
  0
LWPOLYLINE
  5
52D
100
AcDbEntity
  8
0
100
AcDbPolyline
 62
7
  6
CONTINUOUS
 90
12
 70
0
 10
199.5319822388
 20
101.9239918469
 10
199.493428586
 20
101.9390361081
 10
199.4575954805
 20
101.9552507496
 10
199.4246541419
 20
101.9727050049
 10
199.3947566561
 20
101.9915889416
 10
199.3680197553
 20
102.0118158081
 10
199.3445486785
 20
102.0330448859
 10
199.3244363722
 20
102.0553426007
 10
199.3077616219
 20
102.0787314738
 10
199.2946125662
 20
102.1028380096
 10
199.2850258854
 20
102.1277305628
 10
199.278816224
 20
102.1547669312
  0
LWPOLYLINE
  5
52E
100
AcDbEntity
  8
0
100
AcDbPolyline
 62
7
  6
CONTINUOUS
 90
8
 70
0
 10
196.6905072256
 20
102.5349863875
 10
196.729928284
 20
102.5177537132
 10
196.7709289074
 20
102.5017970581
 10
196.8133853483
 20
102.487164579
 10
196.857169479
 20
102.4739004327
 10
196.9021491542
 20
102.4620446518
 10
196.9481886067
 20
102.4516330225
 10
196.9951488747
 20
102.44269697
  0
LWPOLYLINE
  5
52F
100
AcDbEntity
  8
0
100
AcDbPolyline
 62
7
  6
CONTINUOUS
 90
20
 70
0
 10
78.9794652358
 20
153.2669564925
 10
78.8564414216
 20
153.322792565
 10
78.7341636963
 20
153.3725706259
 10
78.6129063862
 20
153.4161789995
 10
78.4929415282
 20
153.453519852
 10
78.3745382599
 20
153.4845094101
 10
78.2579622156
 20
153.5090781496
 10
78.1434749301
 20
153.5271709515
 10
78.0313332521
 20
153.5387472251
 10
77.9217887673
 20
153.5437809995
 10
77.8150872352
 20
153.5422609814
 10
77.7114680378
 20
153.5341905809
 10
77.6111636416
 20
153.5195879036
 10
77.5143990765
 20
153.4984857103
 10
77.4213914309
 20
153.4709313429
 10
77.3323493644
 20
153.4369866189
 10
77.2474726404
 20
153.3967276923
 10
77.1669516771
 20
153.3502448826
 10
77.0909671208
 20
153.2976424727
 10
77.0669684353
 20
153.27900148
  0
LWPOLYLINE
  5
530
100
AcDbEntity
  8
0
100
AcDbPolyline
 62
7
  6
CONTINUOUS
 90
10
 70
0
 10
196.6891060796
 20
102.498002906
 10
196.7285041888
 20
102.4800961489
 10
196.7694776324
 20
102.4633061571
 10
196.8119026748
 20
102.4476836477
 10
196.8556510875
 20
102.4332758208
 10
196.9005907316
 20
102.4201261834
 10
196.946585975
 20
102.4082744271
 10
196.9934979506
 20
102.3977563279
 10
197.0411850226
 20
102.3886036295
 10
197.0860787661
 20
102.3813449304
  0
LWPOLYLINE
  5
531
100
AcDbEntity
  8
0
100
AcDbPolyline
 62
7
  6
CONTINUOUS
 90
17
 70
0
 10
104.4057284611
 20
156.84869857
 10
104.4468696422
 20
156.8177279682
 10
104.4904742127
 20
156.7880762934
 10
104.536355213
 20
156.7600195866
 10
104.5842848195
 20
156.7339672708
 10
104.6340577368
 20
156.710018524
 10
104.6855168329
 20
156.6879841025
 10
104.7384418727
 20
156.6681112458
 10
104.7925786002
 20
156.6506147617
 10
104.8477450798
 20
156.6352770773
 10
104.9037289533
 20
156.6223103183
 10
104.9602572379
 20
156.6119068028
 10
105.0170989528
 20
156.6038317664
 10
105.0740845107
 20
156.5982487041
 10
105.1309404629
 20
156.5953256831
 10
105.1873511456
 20
156.5948178801
 10
105.2432332226
 20
156.5968280689
  0
LWPOLYLINE
  5
532
100
AcDbEntity
  8
0
100
AcDbPolyline
 62
7
  6
CONTINUOUS
 90
5
 70
0
 10
107.2548812553
 20
154.1739958872
 10
107.2250354241
 20
154.1967569947
 10
107.1973995507
 20
154.2204301227
 10
107.1720570408
 20
154.2449438225
 10
107.1490843727
 20
154.2702241165
  0
LWPOLYLINE
  5
533
100
AcDbEntity
  8
0
100
AcDbPolyline
 62
7
  6
CONTINUOUS
 90
9
 70
0
 10
107.2240848675
 20
154.1588356262
 10
107.1964124754
 20
154.1816806465
 10
107.1710295286
 20
154.2052092724
 10
107.1480125694
 20
154.2293505879
 10
107.127431071
 20
154.2540317654
 10
107.1093471973
 20
154.2791781727
 10
107.0938155456
 20
154.3047138278
 10
107.0808830128
 20
154.3305616882
 10
107.0705638393
 20
154.3567163155
  0
LWPOLYLINE
  5
534
100
AcDbEntity
  8
0
100
AcDbPolyline
 62
7
  6
CONTINUOUS
 90
15
 70
0
 10
164.6041928388
 20
121.4332312282
 10
164.6063997448
 20
121.3825724376
 10
164.6130176104
 20
121.3321542123
 10
164.6240620822
 20
121.2822381872
 10
164.639515482
 20
121.2330229314
 10
164.6593494909
 20
121.1847040083
 10
164.6835681751
 20
121.1373510412
 10
164.7120833084
 20
121.091185602
 10
164.7446387052
 20
121.0466148084
 10
164.7810395086
 20
121.0038206718
 10
164.8211619388
 20
120.9628550849
 10
164.8647531529
 20
120.9238982897
 10
164.9115864473
 20
120.8870662337
 10
164.961485487
 20
120.8524184825
 10
165.0142432988
 20
120.8200313079
  0
LWPOLYLINE
  5
535
100
AcDbEntity
  8
0
100
AcDbPolyline
 62
7
  6
CONTINUOUS
 90
17
 70
0
 10
163.601967867
 20
127.0508094643
 10
163.603235631
 20
126.9937109617
 10
163.6070356839
 20
126.9382225835
 10
163.6133583067
 20
126.8844864602
 10
163.6221873268
 20
126.8326401975
 10
163.6335001407
 20
126.7828166411
 10
163.6472677529
 20
126.7351435211
 10
163.6634548843
 20
126.6897429739
 10
163.6820200814
 20
126.6467312444
 10
163.7029157906
 20
126.6062184952
 10
163.7260884891
 20
126.5683084888
 10
163.7514788222
 20
126.5330983207
 10
163.7790217559
 20
126.5006781708
 10
163.8086467423
 20
126.4711310738
 10
163.840277901
 20
126.444532705
 10
163.8738342146
 20
126.4209511866
 10
163.8918835484
 20
126.4099778518
  0
LINE
  5
536
100
AcDbEntity
  8
0
100
AcDbLine
 62
7
  6
CONTINUOUS
 10
164.6041927925
 20
125.1762610995
 11
164.6041927925
 21
121.4337839063
  0
LINE
  5
537
100
AcDbEntity
  8
0
100
AcDbLine
 62
7
  6
CONTINUOUS
 10
165.0142432988
 20
124.6046766646
 11
165.0142432988
 21
120.8200313079
  0
LINE
  5
538
100
AcDbEntity
  8
0
100
AcDbLine
 62
7
  6
CONTINUOUS
 10
148.7712654503
 20
91.0751582307
 11
148.5591334159
 21
90.9526758527
  0
LINE
  5
539
100
AcDbEntity
  8
0
100
AcDbLine
 62
7
  6
CONTINUOUS
 10
197.6675556942
 20
102.4791945243
 11
197.7108086512
 21
102.4930272044
  0
LWPOLYLINE
  5
53A
100
AcDbEntity
  8
0
100
AcDbPolyline
 62
7
  6
CONTINUOUS
 90
4
 70
0
 10
197.7330913946
 20
102.4185709397
 10
197.7498164236
 20
102.4236703234
 10
197.790086932
 20
102.4371754282
 10
197.8287273829
 20
102.4519269008
  0
LINE
  5
53B
100
AcDbEntity
  8
0
100
AcDbLine
 62
7
  6
CONTINUOUS
 10
197.7330919855
 20
102.4185705195
 11
197.7309257031
 21
102.4179343188
  0
LINE
  5
53C
100
AcDbEntity
  8
0
100
AcDbLine
 62
7
  6
CONTINUOUS
 10
197.7309257031
 20
102.4179343188
 11
197.7275497932
 21
102.4169654002
  0
LWPOLYLINE
  5
53D
100
AcDbEntity
  8
0
100
AcDbPolyline
 62
7
  6
CONTINUOUS
 90
11
 70
0
 10
81.5717699821
 20
144.3140270752
 10
81.5688938544
 20
144.3148627795
 10
81.5623165509
 20
144.3169019389
 10
81.561153116
 20
144.3172897062
 10
81.5651834565
 20
144.3157498402
 10
81.5739071257
 20
144.3121540604
 10
81.5871313982
 20
144.306295421
 10
81.6045799166
 20
144.2980290312
 10
81.6255364703
 20
144.2874681349
 10
81.6495725522
 20
144.2746493736
 10
81.677731245
 20
144.2588053947
  0
LWPOLYLINE
  5
53E
100
AcDbEntity
  8
0
100
AcDbPolyline
 62
7
  6
CONTINUOUS
 90
3
 70
0
 10
164.5548801915
 20
121.8330299329
 10
164.5879901928
 20
121.817212647
 10
164.6041927925
 20
121.810708589
  0
LWPOLYLINE
  5
53F
100
AcDbEntity
  8
0
100
AcDbPolyline
 62
7
  6
CONTINUOUS
 90
19
 70
0
 10
222.2036746833
 20
89.9501194234
 10
222.2005700052
 20
89.9517668435
 10
222.197235961
 20
89.9532573651
 10
222.1936962624
 20
89.9545803876
 10
222.1899760835
 20
89.9557265018
 10
222.1861018823
 20
89.9566875564
 10
222.182101212
 20
89.9574567165
 10
222.1780025253
 20
89.9580285118
 10
222.173834972
 20
89.9583988757
 10
222.1696281916
 20
89.9585651742
 10
222.1654121027
 20
89.9585262246
 10
222.1612166901
 20
89.9582823039
 10
222.1570717914
 20
89.9578351469
 10
222.1530068852
 20
89.9571879336
 10
222.1490508809
 20
89.9563452672
 10
222.1452319135
 20
89.9553131406
 10
222.1415771436
 20
89.9540988943
 10
222.1381125637
 20
89.9527111639
 10
222.1348628139
 20
89.9511598191
  0
LWPOLYLINE
  5
540
100
AcDbEntity
  8
0
100
AcDbPolyline
 62
7
  6
CONTINUOUS
 90
28
 70
0
 10
154.8333699735
 20
126.6983399696
 10
154.8891024278
 20
126.668086224
 10
154.9479844588
 20
126.639925148
 10
155.0098839687
 20
126.6139762454
 10
155.0746953955
 20
126.5903427146
 10
155.142220323
 20
126.5691540668
 10
155.2121537774
 20
126.5505521361
 10
155.2843824759
 20
126.5346219062
 10
155.3586145934
 20
126.5214623702
 10
155.4342224428
 20
126.5111767477
 10
155.5108201257
 20
126.5038172205
 10
155.5882892081
 20
126.4993801998
 10
155.6663748504
 20
126.4978336141
 10
155.7447408698
 20
126.4991832096
 10
155.8232222872
 20
126.5034243883
 10
155.90182351
 20
126.5105214146
 10
155.9803560624
 20
126.5204910944
 10
156.0585089445
 20
126.5333276342
 10
156.1361000827
 20
126.5489805759
 10
156.2129838424
 20
126.5674714148
 10
156.2887932485
 20
126.5887566425
 10
156.3630259479
 20
126.6126572933
 10
156.4354647515
 20
126.6391236419
 10
156.5058630393
 20
126.6680784794
 10
156.5737243972
 20
126.6992369794
 10
156.6387791402
 20
126.7324179897
 10
156.7009559605
 20
126.7675762199
 10
156.7601023161
 20
126.8045957622
  0
LWPOLYLINE
  5
541
100
AcDbEntity
  8
0
100
AcDbPolyline
 62
7
  6
CONTINUOUS
 90
28
 70
0
 10
218.863998839
 20
89.4287588399
 10
218.9293804302
 20
89.3930738209
 10
218.998132597
 20
89.3595671274
 10
219.0700379504
 20
89.328344705
 10
219.1448691312
 20
89.2995052767
 10
219.222389529
 20
89.2731400305
 10
219.3023540303
 20
89.2493323311
 10
219.3845097936
 20
89.2281574569
 10
219.4685970487
 20
89.2096823609
 10
219.5543499182
 20
89.1939654602
 10
219.6414972582
 20
89.1810564503
 10
219.7297635156
 20
89.1709961484
 10
219.8188695993
 20
89.1638163646
 10
219.9085337627
 20
89.1595398008
 10
219.9984724946
 20
89.1581799791
 10
220.0884014156
 20
89.1597411991
 10
220.1780361775
 20
89.1642185245
 10
220.267093362
 20
89.1715977982
 10
220.3552913771
 20
89.1818556875
 10
220.4423513476
 20
89.1949597579
 10
220.5279979965
 20
89.2108685751
 10
220.6119605158
 20
89.2295318368
 10
220.6939734226
 20
89.2508905312
 10
220.7737773984
 20
89.2748771237
 10
220.8511201092
 20
89.3014157706
 10
220.9257570033
 20
89.3304225587
 10
220.9974520847
 20
89.3618057709
 10
221.065978659
 20
89.3954661757
  0
LWPOLYLINE
  5
542
100
AcDbEntity
  8
0
100
AcDbPolyline
 62
7
  6
CONTINUOUS
 90
3
 70
0
 10
196.6168746378
 20
102.5730680468
 10
196.6527847238
 20
102.5534430672
 10
196.6905072256
 20
102.5349863875
  0
LWPOLYLINE
  5
543
100
AcDbEntity
  8
0
100
AcDbPolyline
 62
7
  6
CONTINUOUS
 90
28
 70
0
 10
196.6168746378
 20
102.8907782649
 10
196.6527845851
 20
102.8711533603
 10
196.6905069514
 20
102.8526967381
 10
196.7299278811
 20
102.8354641048
 10
196.7709283912
 20
102.8195074731
 10
196.8133847319
 20
102.8048750038
 10
196.8571687605
 20
102.791610861
 10
196.9021483259
 20
102.7797550792
 10
196.9481876681
 20
102.7693434423
 10
196.9951478286
 20
102.7604073752
 10
197.0428870697
 20
102.7529738493
 10
197.0912613024
 20
102.7470653009
 10
197.1401245208
 20
102.7426995635
 10
197.1893292434
 20
102.7398898139
 10
197.2387269578
 20
102.7386445329
 10
197.2881685692
 20
102.7389674789
 10
197.3375048502
 20
102.7408576772
 10
197.3865868914
 20
102.7443094227
 10
197.4352665507
 20
102.7493122973
 10
197.4833969005
 20
102.7558512009
 10
197.5308326712
 20
102.7639063976
 10
197.5774306895
 20
102.7734535746
 10
197.6230503108
 20
102.7844639162
 10
197.6675538435
 20
102.7969041904
 10
197.7108069645
 20
102.8107368492
 10
197.7526791247
 20
102.8259201422
 10
197.7930439435
 20
102.8424082423
 10
197.8317795896
 20
102.8601513843
  0
LWPOLYLINE
  5
544
100
AcDbEntity
  8
0
100
AcDbPolyline
 62
7
  6
CONTINUOUS
 90
3
 70
0
 10
101.1574591776
 20
157.690138146
 10
101.1933692636
 20
157.6705131665
 10
101.2310917654
 20
157.6520564867
  0
LWPOLYLINE
  5
545
100
AcDbEntity
  8
0
100
AcDbPolyline
 62
7
  6
CONTINUOUS
 90
28
 70
0
 10
101.1574591776
 20
158.0078483642
 10
101.1933691249
 20
157.9882234596
 10
101.2310914913
 20
157.9697668373
 10
101.2705124209
 20
157.9525342041
 10
101.311512931
 20
157.9365775723
 10
101.3539692718
 20
157.921945103
 10
101.3977533003
 20
157.9086809602
 10
101.4427328657
 20
157.8968251784
 10
101.4887722079
 20
157.8864135415
 10
101.5357323684
 20
157.8774774744
 10
101.5834716095
 20
157.8700439485
 10
101.6318458422
 20
157.8641354001
 10
101.6807090606
 20
157.8597696627
 10
101.7299137832
 20
157.8569599132
 10
101.7793114976
 20
157.8557146321
 10
101.828753109
 20
157.8560375781
 10
101.87808939
 20
157.8579277764
 10
101.9271714312
 20
157.861379522
 10
101.9758510905
 20
157.8663823965
 10
102.0239814403
 20
157.8729213002
 10
102.071417211
 20
157.8809764968
 10
102.1180152293
 20
157.8905236738
 10
102.1636348506
 20
157.9015340154
 10
102.2081383833
 20
157.9139742896
 10
102.2513915043
 20
157.9278069484
 10
102.2932636645
 20
157.9429902414
 10
102.3336284833
 20
157.9594783416
 10
102.3723641294
 20
157.9772214836
  0
LWPOLYLINE
  5
546
100
AcDbEntity
  8
0
100
AcDbPolyline
 62
7
  6
CONTINUOUS
 90
15
 70
0
 10
85.6076160953
 20
160.9820128023
 10
85.658968148
 20
160.9538267529
 10
85.7127243029
 20
160.9271768285
 10
85.7687468887
 20
160.9021312959
 10
85.8268924721
 20
160.878754296
 10
85.8870120948
 20
160.8571057332
 10
85.948951641
 20
160.837241109
 10
86.0125524137
 20
160.8192113135
 10
86.0776515564
 20
160.8030625087
 10
86.1440823297
 20
160.788836054
 10
86.211674583
 20
160.7765683854
 10
86.2802551915
 20
160.7662909218
 10
86.3496485005
 20
160.7580299843
 10
86.4196767724
 20
160.7518067295
 10
86.4217486053
 20
160.7516841655
  0
LWPOLYLINE
  5
547
100
AcDbEntity
  8
0
100
AcDbPolyline
 62
7
  6
CONTINUOUS
 90
34
 70
0
 10
154.4460829548
 20
125.9867072824
 10
154.5109587046
 20
125.9509671446
 10
154.5786814119
 20
125.9172493391
 10
154.6492510768
 20
125.8855538659
 10
154.7228065574
 20
125.8557860693
 10
154.7992089955
 20
125.8280406049
 10
154.8780418173
 20
125.80260144
 10
154.959442239
 20
125.7794730287
 10
155.0432730444
 20
125.7586509169
 10
155.1287060113
 20
125.7404057091
 10
155.2157202111
 20
125.7247958814
 10
155.3043365724
 20
125.7117629578
 10
155.3937896589
 20
125.701402114
 10
155.4840020034
 20
125.6937472582
 10
155.5750510732
 20
125.6887644823
 10
155.666403833
 20
125.6864472371
 10
155.7580119022
 20
125.686798408
 10
155.8499236615
 20
125.6898151097
 10
155.9417512175
 20
125.6954821367
 10
156.0335239193
 20
125.7038006995
 10
156.1252124179
 20
125.7147695878
 10
156.2163407724
 20
125.7283699644
 10
156.3069858525
 20
125.7446319258
 10
156.3970707887
 20
125.7635253756
 10
156.4858890316
 20
125.7849411882
 10
156.5734720213
 20
125.8089300759
 10
156.6597883178
 20
125.8354413263
 10
156.7440370514
 20
125.8642136777
 10
156.8261716788
 20
125.895283378
 10
156.9062387433
 20
125.9286141792
 10
156.9835770047
 20
125.9638360752
 10
157.0579660495
 20
126.0008257306
 10
157.1296262913
 20
126.0397064809
 10
157.1985577299
 20
126.0804783259
  0
LWPOLYLINE
  5
548
100
AcDbEntity
  8
0
100
AcDbPolyline
 62
7
  6
CONTINUOUS
 90
3
 70
0
 10
196.6155063363
 20
102.5369472383
 10
196.6514021901
 20
102.5169723629
 10
196.6891060796
 20
102.498002906
  0
LWPOLYLINE
  5
549
100
AcDbEntity
  8
0
100
AcDbPolyline
 62
7
  6
CONTINUOUS
 90
3
 70
0
 10
101.1560908761
 20
157.6540173375
 10
101.1919867299
 20
157.6340424621
 10
101.2296906194
 20
157.6150730052
  0
LINE
  5
54A
100
AcDbEntity
  8
0
100
AcDbLine
 62
7
  6
CONTINUOUS
 10
215.8757343087
 20
86.9240987227
 11
217.2077348426
 21
86.1550183083
  0
LINE
  5
54B
100
AcDbEntity
  8
0
100
AcDbLine
 62
7
  6
CONTINUOUS
 10
87.0198915272
 20
161.7972853332
 11
87.4324773913
 21
161.5590634262
  0
LINE
  5
54C
100
AcDbEntity
  8
0
100
AcDbLine
 62
7
  6
CONTINUOUS
 10
215.5493028604
 20
87.5860140813
 11
216.9178191684
 21
86.7958499166
  0
LINE
  5
54D
100
AcDbEntity
  8
0
100
AcDbLine
 62
7
  6
CONTINUOUS
 10
90.8187849222
 20
162.7243117291
 11
154.4460829548
 21
125.9867072824
  0
LINE
  5
54E
100
AcDbEntity
  8
0
100
AcDbLine
 62
7
  6
CONTINUOUS
 10
164.6269562801
 20
120.1083986206
 11
212.3443517361
 21
92.5569725238
  0
LINE
  5
54F
100
AcDbEntity
  8
0
100
AcDbLine
 62
7
  6
CONTINUOUS
 10
202.0088156785
 20
98.9668086743
 11
197.1370706826
 21
101.7796931776
  0
LINE
  5
550
100
AcDbEntity
  8
0
100
AcDbLine
 62
7
  6
CONTINUOUS
 10
106.5494002183
 20
154.0838787735
 11
101.6776552224
 21
156.8967632769
  0
LINE
  5
551
100
AcDbEntity
  8
0
100
AcDbLine
 62
7
  6
CONTINUOUS
 10
91.2060719409
 20
163.4359444163
 11
101.1574591776
 21
157.690138146
  0
LINE
  5
552
100
AcDbEntity
  8
0
100
AcDbLine
 62
7
  6
CONTINUOUS
 10
107.3208360578
 20
154.1314815806
 11
154.8333699735
 21
126.6983399696
  0
LINE
  5
553
100
AcDbEntity
  8
0
100
AcDbLine
 62
7
  6
CONTINUOUS
 10
165.0142432988
 20
120.8200313079
 11
196.6168746378
 21
102.5730680468
  0
LINE
  5
554
100
AcDbEntity
  8
0
100
AcDbLine
 62
7
  6
CONTINUOUS
 10
202.780251518
 20
99.0144114814
 11
212.7316387548
 21
93.2686052111
  0
LINE
  5
555
100
AcDbEntity
  8
0
100
AcDbLine
 62
7
  6
CONTINUOUS
 10
202.445675292
 20
99.4318210464
 11
197.5739302961
 21
102.2447055497
  0
LINE
  5
556
100
AcDbEntity
  8
0
100
AcDbLine
 62
7
  6
CONTINUOUS
 10
106.9862598318
 20
154.5488911456
 11
102.1145148359
 21
157.361775649
  0
LINE
  5
557
100
AcDbEntity
  8
0
100
AcDbLine
 62
7
  6
CONTINUOUS
 10
104.2589411297
 20
156.6290987755
 11
104.5921028182
 21
156.436735392
  0
LINE
  5
558
100
AcDbEntity
  8
0
100
AcDbLine
 62
7
  6
CONTINUOUS
 10
199.7183565899
 20
101.5120286762
 11
200.0515182784
 21
101.3196652928
  0
LINE
  5
559
100
AcDbEntity
  8
0
100
AcDbLine
 62
7
  6
CONTINUOUS
 10
104.072566769
 20
157.041061949
 11
104.4057284665
 21
156.8486985604
  0
LINE
  5
55A
100
AcDbEntity
  8
0
100
AcDbLine
 62
7
  6
CONTINUOUS
 10
199.5319822291
 20
101.9239918498
 11
199.8651439267
 21
101.7316284611
  0
LINE
  5
55B
100
AcDbEntity
  8
0
100
AcDbLine
 62
7
  6
CONTINUOUS
 10
102.5411074816
 20
158.2810740784
 11
103.564862927
 21
157.6899705149
  0
LINE
  5
55C
100
AcDbEntity
  8
0
100
AcDbLine
 62
7
  6
CONTINUOUS
 10
105.286181026
 20
156.6961030177
 11
106.3099364717
 21
156.104999454
  0
LINE
  5
55D
100
AcDbEntity
  8
0
100
AcDbLine
 62
7
  6
CONTINUOUS
 10
198.0005229418
 20
103.1640039792
 11
199.0242783872
 21
102.5729004156
  0
LINE
  5
55E
100
AcDbEntity
  8
0
100
AcDbLine
 62
7
  6
CONTINUOUS
 10
200.7455964862
 20
101.5790329185
 11
201.7693519319
 21
100.9879293548
  0
LINE
  5
55F
100
AcDbEntity
  8
0
100
AcDbLine
 62
7
  6
CONTINUOUS
 10
102.5411074816
 20
158.2810740784
 11
102.5411489111
 21
158.2810501619
  0
LINE
  5
560
100
AcDbEntity
  8
0
100
AcDbLine
 62
7
  6
CONTINUOUS
 10
103.5648629282
 20
157.6899705142
 11
103.5649110205
 21
157.6899427522
  0
LINE
  5
561
100
AcDbEntity
  8
0
100
AcDbLine
 62
7
  6
CONTINUOUS
 10
102.3547331226
 20
158.6930372535
 11
103.3784885646
 21
158.1019336919
  0
LINE
  5
562
100
AcDbEntity
  8
0
100
AcDbLine
 62
7
  6
CONTINUOUS
 10
105.0998066708
 20
157.1080661906
 11
106.1235621128
 21
156.516962629
  0
LINE
  5
563
100
AcDbEntity
  8
0
100
AcDbLine
 62
7
  6
CONTINUOUS
 10
197.8141485828
 20
103.5759671542
 11
198.8379040248
 21
102.9848635926
  0
LINE
  5
564
100
AcDbEntity
  8
0
100
AcDbLine
 62
7
  6
CONTINUOUS
 10
200.559222131
 20
101.9909960913
 11
201.582977573
 21
101.3998925298
  0
LINE
  5
565
100
AcDbEntity
  8
0
100
AcDbLine
 62
7
  6
CONTINUOUS
 10
164.6041927925
 20
122.7854852131
 11
158.0206155472
 21
126.5867602029
  0
LWPOLYLINE
  5
566
100
AcDbEntity
  8
0
100
AcDbPolyline
 62
7
  6
CONTINUOUS
 90
19
 70
0
 10
106.309929908
 20
156.1050032335
 10
106.3099650693
 20
156.1049826859
 10
106.3111769067
 20
156.1042378714
 10
106.3140124277
 20
156.1023647369
 10
106.3183284513
 20
156.0993004214
 10
106.3240235569
 20
156.0949685996
 10
106.3309842309
 20
156.0893106955
 10
106.3390409048
 20
156.0823226803
 10
106.3480689833
 20
156.0739813219
 10
106.3579405801
 20
156.0642826657
 10
106.3684840666
 20
156.0532794511
 10
106.3795710466
 20
156.0409923943
 10
106.3910602767
 20
156.027475231
 10
106.4027675598
 20
156.0128592542
 10
106.4145585922
 20
155.9972308496
 10
106.426305058
 20
155.9806865179
 10
106.4378457735
 20
155.9634025858
 10
106.4490656765
 20
155.945516983
 10
106.4569988377
 20
155.9321473342
  0
LWPOLYLINE
  5
567
100
AcDbEntity
  8
0
100
AcDbPolyline
 62
7
  6
CONTINUOUS
 90
19
 70
0
 10
201.7693453682
 20
100.9879331343
 10
201.7693805295
 20
100.9879125866
 10
201.7705923669
 20
100.9871677722
 10
201.7734278879
 20
100.9852946377
 10
201.7777439115
 20
100.9822303222
 10
201.7834390171
 20
100.9778985004
 10
201.7903996911
 20
100.9722405963
 10
201.798456365
 20
100.9652525811
 10
201.8074844435
 20
100.9569112227
 10
201.8173560403
 20
100.9472125664
 10
201.8278995268
 20
100.9362093518
 10
201.8389865068
 20
100.9239222951
 10
201.8504757369
 20
100.9104051318
 10
201.86218302
 20
100.895789155
 10
201.8739740524
 20
100.8801607504
 10
201.8857205182
 20
100.8636164187
 10
201.8972612336
 20
100.8463324866
 10
201.9084811367
 20
100.8284468838
 10
201.9164142979
 20
100.8150772349
  0
LWPOLYLINE
  5
568
100
AcDbEntity
  8
0
100
AcDbPolyline
 62
7
  6
CONTINUOUS
 90
34
 70
0
 10
212.3443517361
 20
92.5569725238
 10
212.4587548821
 20
92.4900461761
 10
212.5731859348
 20
92.41682319
 10
212.6874206256
 20
92.3374104581
 10
212.8013462522
 20
92.2518769335
 10
212.9146097131
 20
92.160408419
 10
213.0266225156
 20
92.0633479016
 10
213.1371328484
 20
91.9608986141
 10
213.2459183935
 20
91.8532834372
 10
213.3524472483
 20
91.7409608178
 10
213.4564372455
 20
91.62425014
 10
213.5577282092
 20
91.5033860744
 10
213.6559917338
 20
91.3787520206
 10
213.75096209
 20
91.2507248117
 10
213.8425092576
 20
91.1195387686
 10
213.9305168277
 20
90.9853724462
 10
214.0147887032
 20
90.8485394371
 10
214.0951506582
 20
90.7093437655
 10
214.1715120635
 20
90.567942155
 10
214.2436968554
 20
90.4246369035
 10
214.3115310843
 20
90.2797551617
 10
214.3749174025
 20
90.1334886553
 10
214.4337181224
 20
89.9860662881
 10
214.4877394148
 20
89.837907552
 10
214.5368121444
 20
89.6894929168
 10
214.5808132267
 20
89.5410791659
 10
214.6196078515
 20
89.3930695277
 10
214.6530651659
 20
89.2461557464
 10
214.6811037032
 20
89.1006426454
 10
214.7036742234
 20
88.9568484475
 10
214.7207749144
 20
88.8154525941
 10
214.7324219919
 20
88.6768529586
 10
214.7386124211
 20
88.5411816152
 10
214.7393662258
 20
88.408685747
  0
LWPOLYLINE
  5
569
100
AcDbEntity
  8
0
100
AcDbPolyline
 62
7
  6
CONTINUOUS
 90
37
 70
0
 10
101.6776552224
 20
156.8967632769
 10
101.6555969821
 20
156.9098098471
 10
101.6337617642
 20
156.9234632986
 10
101.6121481289
 20
156.9377244695
 10
101.5908430308
 20
156.9524932806
 10
101.5697537619
 20
156.9678730751
 10
101.5486069211
 20
156.9841711575
 10
101.5272542731
 20
157.0014800782
 10
101.5058285579
 20
157.0197152955
 10
101.4844730887
 20
157.0389206746
 10
101.4631513699
 20
157.0591102625
 10
101.4418700696
 20
157.0802828726
 10
101.4208298247
 20
157.1024620511
 10
101.399986327
 20
157.1256862997
 10
101.3793319011
 20
157.1499334955
 10
101.3591123533
 20
157.1751378903
 10
101.3391942696
 20
157.2014747485
 10
101.3196291514
 20
157.228782683
 10
101.3009402628
 20
157.2564872896
 10
101.2831162648
 20
157.2846634611
 10
101.2660802377
 20
157.31323255
 10
101.2502845407
 20
157.341380837
 10
101.2358347781
 20
157.3689805666
 10
101.222575218
 20
157.3961355003
 10
101.2106085263
 20
157.4223740039
 10
101.2000071613
 20
157.4475792302
 10
101.1906878151
 20
157.471839004
 10
101.1825514607
 20
157.494990233
 10
101.175650683
 20
157.5169583704
 10
101.1699465163
 20
157.5377943426
 10
101.1652201392
 20
157.5575273256
 10
101.1614654794
 20
157.5761039306
 10
101.1587158795
 20
157.5935629239
 10
101.1568127447
 20
157.6100730488
 10
101.1557068052
 20
157.6256854356
 10
101.1554632856
 20
157.6403354021
 10
101.1560909714
 20
157.6540174057
  0
LWPOLYLINE
  5
56A
100
AcDbEntity
  8
0
100
AcDbPolyline
 62
7
  6
CONTINUOUS
 90
37
 70
0
 10
197.1370706826
 20
101.7796931776
 10
197.1150124423
 20
101.7927397479
 10
197.0931772244
 20
101.8063931994
 10
197.071563589
 20
101.8206543703
 10
197.050258491
 20
101.8354231813
 10
197.0291692221
 20
101.8508029759
 10
197.0080223813
 20
101.8671010582
 10
196.9866697333
 20
101.8844099789
 10
196.9652440181
 20
101.9026451963
 10
196.9438885489
 20
101.9218505754
 10
196.9225668301
 20
101.9420401633
 10
196.9012855298
 20
101.9632127734
 10
196.8802452849
 20
101.9853919519
 10
196.8594017872
 20
102.0086162004
 10
196.8387473613
 20
102.0328633963
 10
196.8185278135
 20
102.058067791
 10
196.7986097298
 20
102.0844046492
 10
196.7790446115
 20
102.1117125837
 10
196.760355723
 20
102.1394171903
 10
196.742531725
 20
102.1675933618
 10
196.7254956979
 20
102.1961624507
 10
196.7097000009
 20
102.2243107378
 10
196.6952502383
 20
102.2519104673
 10
196.6819906781
 20
102.279065401
 10
196.6700239865
 20
102.3053039047
 10
196.6594226215
 20
102.330509131
 10
196.6501032753
 20
102.3547689047
 10
196.6419669209
 20
102.3779201337
 10
196.6350661432
 20
102.3998882711
 10
196.6293619765
 20
102.4207242433
 10
196.6246355994
 20
102.4404572263
 10
196.6208809395
 20
102.4590338313
 10
196.6181313397
 20
102.4764928247
 10
196.6162282049
 20
102.4930029496
 10
196.6151222654
 20
102.5086153364
 10
196.6148787458
 20
102.5232653029
 10
196.6155064316
 20
102.5369473065
  0
LWPOLYLINE
  5
56B
100
AcDbEntity
  8
0
100
AcDbPolyline
 62
7
  6
CONTINUOUS
 90
39
 70
0
 10
217.2077395536
 20
86.1550172311
 10
217.2207921113
 20
86.1472239323
 10
217.237474333
 20
86.1365764559
 10
217.2562758108
 20
86.1237481355
 10
217.2769685537
 20
86.108697795
 10
217.2993972302
 20
86.0913506757
 10
217.3234171583
 20
86.0716363309
 10
217.3488102786
 20
86.049560485
 10
217.3754075686
 20
86.0251012083
 10
217.4030369468
 20
85.9982512193
 10
217.4314785355
 20
85.9690701411
 10
217.4605611771
 20
85.9375905967
 10
217.490098176
 20
85.9038697107
 10
217.5198579588
 20
85.8680360564
 10
217.5496874249
 20
85.8301511208
 10
217.5793828188
 20
85.7903591591
 10
217.6086491833
 20
85.7489537553
 10
217.6373253398
 20
85.7060848918
 10
217.6652486628
 20
85.6619346072
 10
217.692152412
 20
85.616888213
 10
217.7179058481
 20
85.571148915
 10
217.7423924982
 20
85.524929313
 10
217.765411443
 20
85.4786558385
 10
217.7868843556
 20
85.432560223
 10
217.8067555436
 20
85.3868554922
 10
217.8249120286
 20
85.3419464715
 10
217.8413314865
 20
85.2980874798
 10
217.8560334087
 20
85.2554417182
 10
217.8690163558
 20
85.2142739039
 10
217.880322965
 20
85.1747725856
 10
217.8900103933
 20
85.1371106434
 10
217.8981303273
 20
85.1015181933
 10
217.9047709283
 20
85.0681427667
 10
217.9100350896
 20
85.037120003
 10
217.914027261
 20
85.0086482079
 10
217.9168789482
 20
84.9828137753
 10
217.9187297429
 20
84.9597141508
 10
217.9197279955
 20
84.9395310563
 10
217.9200452515
 20
84.9213121069
  0
LWPOLYLINE
  5
56C
100
AcDbEntity
  8
0
100
AcDbPolyline
 62
7
  6
CONTINUOUS
 90
43
 70
0
 10
212.7316387548
 20
93.2686052111
 10
212.8357120984
 20
93.2063803184
 10
212.9397243595
 20
93.1396994699
 10
213.0436755379
 20
93.0685626656
 10
213.1477689768
 20
92.9928541393
 10
213.2518013331
 20
92.9126896572
 10
213.3551625777
 20
92.8284165177
 10
213.4578488834
 20
92.7399890727
 10
213.5598640774
 20
92.6474529702
 10
213.6606096124
 20
92.5512924526
 10
213.7600631556
 20
92.4514821943
 10
213.8582470397
 20
92.3480475209
 10
213.9546297156
 20
92.2415486516
 10
214.0491754008
 20
92.1319861588
 10
214.1419198778
 20
92.0193594702
 10
214.2324389441
 20
91.9042270888
 10
214.3206880003
 20
91.7866246298
 10
214.4067116458
 20
91.6665164781
 10
214.490219477
 20
91.5443542912
 10
214.5712036109
 20
91.4201397987
 10
214.6496719304
 20
91.293871271
 10
214.7253576805
 20
91.1659951772
 10
214.7982566217
 20
91.0365087216
 10
214.8683729934
 20
90.9054146998
 10
214.935452759
 20
90.7731679674
 10
214.9994934858
 20
90.6397605595
 10
215.0604976063
 20
90.5052004409
 10
215.1182183818
 20
90.3699663624
 10
215.1726643027
 20
90.234001528
 10
215.2238268786
 20
90.0973627337
 10
215.2714338989
 20
89.9606991186
 10
215.3154676438
 20
89.8239796855
 10
215.3559458331
 20
89.6872354316
 10
215.3926494161
 20
89.5512084867
 10
215.4255450274
 20
89.4158930646
 10
215.4546660324
 20
89.2812949515
 10
215.4798934766
 20
89.1481736356
 10
215.5011859525
 20
89.0165493033
 10
215.5185848675
 20
88.8864017682
 10
215.5320954891
 20
88.75842996
 10
215.541719573
 20
88.6328668553
 10
215.5474553634
 20
88.5094794775
 10
215.5493028604
 20
88.3882678266
  0
LINE
  5
56D
100
AcDbEntity
  8
0
100
AcDbLine
 62
7
  6
CONTINUOUS
 10
107.3199705115
 20
154.0950801687
 11
107.2859572851
 21
154.1154699051
  0
LINE
  5
56E
100
AcDbEntity
  8
0
100
AcDbLine
 62
7
  6
CONTINUOUS
 10
202.7793859717
 20
98.9780100695
 11
202.7453727453
 21
98.9983998058
  0
LWPOLYLINE
  5
56F
100
AcDbEntity
  8
0
100
AcDbPolyline
 62
7
  6
CONTINUOUS
 90
15
 70
0
 10
104.2589180634
 20
156.6291120949
 10
104.2322537784
 20
156.6451294693
 10
104.1836484196
 20
156.6777254473
 10
104.1371839927
 20
156.7134774943
 10
104.0930671718
 20
156.7522526682
 10
104.0515052758
 20
156.7938957857
 10
104.0126724617
 20
156.8382638196
 10
103.9767509416
 20
156.8851873036
 10
103.9439208937
 20
156.9344724102
 10
103.9143419722
 20
156.9859246279
 10
103.8881627673
 20
157.0393381415
 10
103.8655248398
 20
157.0944831585
 10
103.8465552988
 20
157.151112164
 10
103.8313576652
 20
157.2089869108
 10
103.819393406
 20
157.2718849294
  0
LWPOLYLINE
  5
570
100
AcDbEntity
  8
0
100
AcDbPolyline
 62
7
  6
CONTINUOUS
 90
15
 70
0
 10
199.7183335235
 20
101.5120419956
 10
199.6916692386
 20
101.5280593701
 10
199.6430638798
 20
101.560655348
 10
199.5965994529
 20
101.5964073951
 10
199.552482632
 20
101.6351825689
 10
199.510920736
 20
101.6768256865
 10
199.4720879218
 20
101.7211937204
 10
199.4361664018
 20
101.7681172044
 10
199.4033363539
 20
101.8174023109
 10
199.3737574324
 20
101.8688545287
 10
199.3475782274
 20
101.9222680423
 10
199.3249402999
 20
101.9774130593
 10
199.305970759
 20
102.0340420647
 10
199.2907731254
 20
102.0919168116
 10
199.2788088662
 20
102.1548148302
  0
LWPOLYLINE
  5
571
100
AcDbEntity
  8
0
100
AcDbPolyline
 62
7
  6
CONTINUOUS
 90
34
 70
0
 10
216.9178191684
 20
86.7958499166
 10
216.9836550172
 20
86.7561406068
 10
217.049380333
 20
86.7128803672
 10
217.1149951159
 20
86.666069198
 10
217.1806641514
 20
86.6156248168
 10
217.2462226539
 20
86.5616295059
 10
217.311176267
 20
86.5043301123
 10
217.3756054772
 20
86.4435909656
 10
217.4394297979
 20
86.3795477362
 10
217.5019134133
 20
86.3128542826
 10
217.562988635
 20
86.243501452
 10
217.6227231515
 20
86.1714983972
 10
217.6805842128
 20
86.097526435
 10
217.7364930571
 20
86.021644822
 10
217.7905284462
 20
85.9437943017
 10
217.8423939159
 20
85.8644784215
 10
217.8920584302
 20
85.7837430436
 10
217.9395530251
 20
85.7015423058
 10
217.9846743436
 20
85.6182421694
 10
218.0274392262
 20
85.5338145943
 10
218.0678308324
 20
85.4482876205
 10
218.1055952833
 20
85.3621113304
 10
218.1407510066
 20
85.2751942312
 10
218.1732795746
 20
85.1876278156
 10
218.202871825
 20
85.100136644
 10
218.2294976877
 20
85.0126585889
 10
218.2531872328
 20
84.9252557779
 10
218.2737215085
 20
84.8388391535
 10
218.2910324937
 20
84.7534588114
 10
218.3051882095
 20
84.669064656
 10
218.3161737669
 20
84.5864173432
 10
218.3239842031
 20
84.5057704251
 10
218.3286244808
 20
84.4268703497
 10
218.3300946003
 20
84.3497171169
  0
LWPOLYLINE
  5
572
100
AcDbEntity
  8
0
100
AcDbPolyline
 62
7
  6
CONTINUOUS
 90
17
 70
0
 10
218.3300946003
 20
84.3497171169
 10
218.2812782399
 20
84.3793670433
 10
218.2351223411
 20
84.4104050551
 10
218.1917451355
 20
84.442751663
 10
218.1512577162
 20
84.4763240448
 10
218.113763824
 20
84.5110362002
 10
218.0793595635
 20
84.5467991653
 10
218.0481330712
 20
84.5835213196
 10
218.0201643071
 20
84.6211086275
 10
217.9955249076
 20
84.659464817
 10
217.9742779815
 20
84.6984916469
 10
217.9564779488
 20
84.7380891583
 10
217.9421704008
 20
84.7781559307
 10
217.9313919836
 20
84.8185893415
 10
217.9241703041
 20
84.8592858292
 10
217.9205238596
 20
84.9001411581
 10
217.9200440939
 20
84.9213015511
  0
LWPOLYLINE
  5
573
100
AcDbEntity
  8
0
100
AcDbPolyline
 62
7
  6
CONTINUOUS
 90
30
 70
0
 10
103.5649115034
 20
157.6899435886
 10
103.5674180606
 20
157.6884178757
 10
103.5717723821
 20
157.6855506877
 10
103.5778470854
 20
157.681230591
 10
103.5853849746
 20
157.6754626659
 10
103.5942298618
 20
157.6682093037
 10
103.6042259332
 20
157.6594461735
 10
103.6151243892
 20
157.6492509033
 10
103.6267486737
 20
157.6376709935
 10
103.6389685585
 20
157.6247328883
 10
103.6516290185
 20
157.6104989461
 10
103.6645774529
 20
157.5950426418
 10
103.6776836851
 20
157.5784351752
 10
103.6908437648
 20
157.5607344102
 10
103.7039465519
 20
157.542008746
 10
103.7168371907
 20
157.5224029925
 10
103.7293575085
 20
157.5021081027
 10
103.7414085278
 20
157.4812550555
 10
103.7528689399
 20
157.4600213555
 10
103.7635796637
 20
157.4387023504
 10
103.7734724664
 20
157.4174783019
 10
103.7824881751
 20
157.3965385639
 10
103.7905254179
 20
157.3762072958
 10
103.7975809929
 20
157.3566372315
 10
103.8036476846
 20
157.3380427292
 10
103.8086829576
 20
157.3208137089
 10
103.8127425098
 20
157.3051037777
 10
103.8159103463
 20
157.2910155853
 10
103.8182583093
 20
157.2787786911
 10
103.8194112674
 20
157.2717721242
  0
LWPOLYLINE
  5
574
100
AcDbEntity
  8
0
100
AcDbPolyline
 62
7
  6
CONTINUOUS
 90
25
 70
0
 10
103.3784885646
 20
158.1019336919
 10
103.4185942763
 20
158.0775160472
 10
103.4585250119
 20
158.050530409
 10
103.4982807715
 20
158.0209767775
 10
103.5380563276
 20
157.9887099415
 10
103.5776569076
 20
157.9538751122
 10
103.6164981936
 20
157.9169079225
 10
103.6545490006
 20
157.8777648299
 10
103.6918405136
 20
157.836489377
 10
103.7278819694
 20
157.7936478247
 10
103.7625982075
 20
157.7492875336
 10
103.7960643884
 20
157.7033611431
 10
103.8280152308
 20
157.6562928318
 10
103.8584253398
 20
157.6081190569
 10
103.8873201103
 20
157.5588033612
 10
103.9145104458
 20
157.5086605512
 10
103.9400208304
 20
157.4576336078
 10
103.9638267801
 20
157.4057795501
 10
103.9856657456
 20
157.353584242
 10
104.0055354329
 20
157.3009561538
 10
104.023438136
 20
157.2479868152
 10
104.0391181879
 20
157.1954366801
 10
104.0524903661
 20
157.143559233
 10
104.0636398932
 20
157.0921009893
 10
104.072566769
 20
157.041061949
  0
LWPOLYLINE
  5
575
100
AcDbEntity
  8
0
100
AcDbPolyline
 62
7
  6
CONTINUOUS
 90
3
 70
0
 10
107.3208360578
 20
154.1314815806
 10
107.2868469596
 20
154.1522155028
 10
107.2548812553
 20
154.1739958872
  0
LWPOLYLINE
  5
576
100
AcDbEntity
  8
0
100
AcDbPolyline
 62
7
  6
CONTINUOUS
 90
16
 70
0
 10
107.3208360578
 20
154.4491917988
 10
107.2868469144
 20
154.4699257533
 10
107.2548811652
 20
154.4917061758
 10
107.2250352909
 20
154.5144673275
 10
107.1973993739
 20
154.5381405091
 10
107.1720568261
 20
154.562654269
 10
107.1490841369
 20
154.5879346191
 10
107.1285506435
 20
154.6139052572
 10
107.1105183214
 20
154.640487797
 10
107.0950415968
 20
154.6676020056
 10
107.0821671824
 20
154.6951660455
 10
107.0719339364
 20
154.7230967215
 10
107.0643727452
 20
154.7513097315
 10
107.0595064307
 20
154.7797199217
 10
107.0573496803
 20
154.8082415428
 10
107.0572321609
 20
154.8166389327
  0
LWPOLYLINE
  5
577
100
AcDbEntity
  8
0
100
AcDbPolyline
 62
7
  6
CONTINUOUS
 90
3
 70
0
 10
202.780251518
 20
99.0144114814
 10
202.7462624198
 20
99.0351454036
 10
202.7142967155
 20
99.056925788
  0
LWPOLYLINE
  5
578
100
AcDbEntity
  8
0
100
AcDbPolyline
 62
7
  6
CONTINUOUS
 90
16
 70
0
 10
202.780251518
 20
99.3321216995
 10
202.7462623746
 20
99.352855654
 10
202.7142966254
 20
99.3746360766
 10
202.6844507511
 20
99.3973972282
 10
202.6568148341
 20
99.4210704098
 10
202.6314722863
 20
99.4455841698
 10
202.608499597
 20
99.4708645199
 10
202.5879661036
 20
99.496835158
 10
202.5699337816
 20
99.5234176977
 10
202.554457057
 20
99.5505319064
 10
202.5415826426
 20
99.5780959463
 10
202.5313493965
 20
99.6060266222
 10
202.5237882054
 20
99.6342396323
 10
202.5189218908
 20
99.6626498225
 10
202.5167651405
 20
99.6911714436
 10
202.5166476211
 20
99.6995688335
  0
LWPOLYLINE
  5
579
100
AcDbEntity
  8
0
100
AcDbPolyline
 62
7
  6
CONTINUOUS
 90
15
 70
0
 10
85.0737118566
 20
166.6775937574
 10
85.0119075724
 20
166.7153442689
 10
84.9538760156
 20
166.7550409084
 10
84.8998006777
 20
166.7965581584
 10
84.8498525406
 20
166.8397647445
 10
84.8041895365
 20
166.8845240507
 10
84.7629560482
 20
166.9306945517
 10
84.726282453
 20
166.9781302598
 10
84.6942847098
 20
167.0266811871
 10
84.667063993
 20
167.0761938192
 10
84.6447063725
 20
167.1265116011
 10
84.6272825414
 20
167.1774754317
 10
84.6148475923
 20
167.2289241675
 10
84.6074408437
 20
167.2806951314
 10
84.6050827065
 20
167.3308331067
  0
LWPOLYLINE
  5
57A
100
AcDbEntity
  8
0
100
AcDbPolyline
 62
7
  6
CONTINUOUS
 90
13
 70
0
 10
106.1235621128
 20
156.516962629
 10
106.1679942152
 20
156.4895770156
 10
106.2118374782
 20
156.4592937092
 10
106.2550919019
 20
156.4261127098
 10
106.2979349468
 20
156.3898640665
 10
106.3401891523
 20
156.3507177303
 10
106.3813221363
 20
156.3091835542
 10
106.421310467
 20
156.2652458567
 10
106.4601775763
 20
156.2189203192
 10
106.4974613775
 20
156.1707638395
 10
106.5330078419
 20
156.1209620501
 10
106.5669709983
 20
156.0693293184
 10
106.5993508466
 20
156.0158656443
  0
LWPOLYLINE
  5
57B
100
AcDbEntity
  8
0
100
AcDbPolyline
 62
7
  6
CONTINUOUS
 90
3
 70
0
 10
107.2859572851
 20
154.1154699051
 10
107.2539632105
 20
154.1367431321
 10
107.2240848675
 20
154.1588356262
  0
LWPOLYLINE
  5
57C
100
AcDbEntity
  8
0
100
AcDbPolyline
 62
7
  6
CONTINUOUS
 90
22
 70
0
 10
157.1985577299
 20
126.0804783259
 10
157.1685262395
 20
126.101118126
 10
157.1384562002
 20
126.1242378248
 10
157.1085148027
 20
126.1497088587
 10
157.0788685424
 20
126.1773895711
 10
157.049682228
 20
126.2071260606
 10
157.021118069
 20
126.2387530506
 10
156.9933348612
 20
126.2720947203
 10
156.9664870995
 20
126.3069656678
 10
156.9407240564
 20
126.3431720113
 10
156.9161889734
 20
126.3805124442
 10
156.8930182649
 20
126.418779354
 10
156.8713407586
 20
126.4577599782
 10
156.8512769807
 20
126.4972375852
 10
156.8329384849
 20
126.5369926805
 10
156.8164272322
 20
126.5768042275
 10
156.8018350245
 20
126.6164508753
 10
156.7892429938
 20
126.6557121894
 10
156.7787211503
 20
126.6943698781
 10
156.770327995
 20
126.732209006
 10
156.7641101934
 20
126.7690191885
 10
156.7601023161
 20
126.8045957622
  0
LWPOLYLINE
  5
57D
100
AcDbEntity
  8
0
100
AcDbPolyline
 62
7
  6
CONTINUOUS
 90
22
 70
0
 10
158.0206155472
 20
126.5867602029
 10
157.9905843179
 20
126.6073998125
 10
157.9605144698
 20
126.6305193345
 10
157.9305731912
 20
126.6559902246
 10
157.900926955
 20
126.6836708649
 10
157.8717405941
 20
126.7134073513
 10
157.8431763843
 20
126.7450343495
 10
157.8153931422
 20
126.7783760135
 10
157.7885453423
 20
126.8132469642
 10
157.7627822581
 20
126.8494533194
 10
157.7382471321
 20
126.8867937724
 10
157.7150763792
 20
126.9250607106
 10
157.6933988286
 20
126.9640413701
 10
157.6733350073
 20
127.003519019
 10
157.6549964699
 20
127.0432741619
 10
157.6384851783
 20
127.0830857609
 10
157.6238929353
 20
127.1227324637
 10
157.6113008736
 20
127.1619938352
 10
157.6007790047
 20
127.2006515826
 10
157.5923858303
 20
127.2384907692
 10
157.5861680162
 20
127.2753010096
 10
157.5821601334
 20
127.3108776392
  0
LWPOLYLINE
  5
57E
100
AcDbEntity
  8
0
100
AcDbPolyline
 62
7
  6
CONTINUOUS
 90
31
 70
0
 10
193.4330940285
 20
54.127572181
 10
193.4567632864
 20
54.0783412094
 10
193.4805457768
 20
54.0321407223
 10
193.5044107979
 20
53.988946477
 10
193.5283077467
 20
53.9487851316
 10
193.5522361057
 20
53.9115760918
 10
193.576239049
 20
53.8771427982
 10
193.600281699
 20
53.8454551104
 10
193.6243505164
 20
53.8165060274
 10
193.6485109431
 20
53.7901731009
 10
193.6727233195
 20
53.7664294934
 10
193.6969746851
 20
53.7452812158
 10
193.7213564246
 20
53.7266758428
 10
193.7458471488
 20
53.7105850319
 10
193.7704020405
 20
53.6970358162
 10
193.7950651516
 20
53.6860736027
 10
193.8198279205
 20
53.6776938454
 10
193.8446264798
 20
53.6719044655
 10
193.8694223575
 20
53.6687689141
 10
193.894183579
 20
53.668293258
 10
193.9188836254
 20
53.670459008
 10
193.9434987623
 20
53.6752862669
 10
193.9680024495
 20
53.6827709848
 10
193.9923702457
 20
53.6928976441
 10
194.0165842441
 20
53.7056667504
 10
194.0406408973
 20
53.7210868161
 10
194.0644965918
 20
53.7391263315
 10
194.0880809737
 20
53.7597201387
 10
194.1113858085
 20
53.7828631531
 10
194.1343929868
 20
53.8085230355
 10
194.1570306315
 20
53.8365849978
  0
LINE
  5
57F
100
AcDbEntity
  8
0
100
AcDbLine
 62
7
  6
CONTINUOUS
 10
197.8287273981
 20
102.4519266498
 11
198.5796207292
 21
102.8296401745
  0
LINE
  5
580
100
AcDbEntity
  8
0
100
AcDbLine
 62
7
  6
CONTINUOUS
 10
198.652790742
 20
102.7873927261
 11
197.5739302961
 21
102.2447055497
  0
LWPOLYLINE
  5
581
100
AcDbEntity
  8
0
100
AcDbPolyline
 62
7
  6
CONTINUOUS
 90
13
 70
0
 10
197.338359849
 20
103.6242990732
 10
197.3707396979
 20
103.6403713091
 10
197.4047028547
 20
103.6527842386
 10
197.4402493192
 20
103.6615378618
 10
197.4775331205
 20
103.6666399427
 10
197.5164002296
 20
103.6680827172
 10
197.5563885599
 20
103.6658428934
 10
197.597521543
 20
103.6598777312
 10
197.6397757473
 20
103.6502299707
 10
197.6826187916
 20
103.6370045399
 10
197.7258732154
 20
103.6202364149
 10
197.7697164791
 20
103.5998906197
 10
197.8141485828
 20
103.5759671542
  0
LINE
  5
582
100
AcDbEntity
  8
0
100
AcDbLine
 62
7
  6
CONTINUOUS
 10
197.8513654553
 20
102.8872848139
 11
198.1991340603
 21
103.0493284085
  0
LINE
  5
583
100
AcDbEntity
  8
0
100
AcDbLine
 62
7
  6
CONTINUOUS
 10
197.8317795896
 20
102.8601513843
 11
198.2163933937
 21
103.0393630857
  0
LWPOLYLINE
  5
584
100
AcDbEntity
  8
0
100
AcDbPolyline
 62
7
  6
CONTINUOUS
 90
3
 70
0
 10
197.7526803996
 20
102.5082104139
 10
197.7930446473
 20
102.5246983282
 10
197.8317795896
 20
102.5424411662
  0
LINE
  5
585
100
AcDbEntity
  8
0
100
AcDbLine
 62
7
  6
CONTINUOUS
 10
197.7108086512
 20
102.4930272044
 11
197.7526803996
 21
102.5082104139
  0
LWPOLYLINE
  5
586
100
AcDbEntity
  8
0
100
AcDbPolyline
 62
7
  6
CONTINUOUS
 90
8
 70
0
 10
156.5052028712
 20
130.6738340992
 10
156.5008647858
 20
130.6751318666
 10
156.4995836533
 20
130.6755619089
 10
156.5013292219
 20
130.6748756729
 10
156.505969008
 20
130.6728724935
 10
156.5132407023
 20
130.6694336563
 10
156.5229613757
 20
130.6644365421
 10
156.5354869466
 20
130.6574703994
  0
LWPOLYLINE
  5
587
100
AcDbEntity
  8
0
100
AcDbPolyline
 62
7
  6
CONTINUOUS
 90
8
 70
0
 10
101.2310917654
 20
157.6520564867
 10
101.2705128238
 20
157.6348238125
 10
101.3115134472
 20
157.6188671574
 10
101.3539698881
 20
157.6042346783
 10
101.3977540188
 20
157.590970532
 10
101.442733694
 20
157.579114751
 10
101.4887731465
 20
157.5687031217
 10
101.5357334146
 20
157.5597670693
  0
LWPOLYLINE
  5
588
100
AcDbEntity
  8
0
100
AcDbPolyline
 62
7
  6
CONTINUOUS
 90
10
 70
0
 10
101.2296906194
 20
157.6150730052
 10
101.2690887286
 20
157.5971662482
 10
101.3100621722
 20
157.5803762564
 10
101.3524872147
 20
157.564753747
 10
101.3962356273
 20
157.55034592
 10
101.4411752715
 20
157.5371962826
 10
101.4871705148
 20
157.5253445264
 10
101.5340824904
 20
157.5148264272
 10
101.5817695624
 20
157.5056737288
 10
101.6266633059
 20
157.4984150296
  0
LWPOLYLINE
  5
589
100
AcDbEntity
  8
0
100
AcDbPolyline
 62
7
  6
CONTINUOUS
 90
22
 70
0
 10
158.4079025659
 20
127.2983928901
 10
158.3761249604
 20
127.3154592492
 10
158.342294136
 20
127.3311545864
 10
158.3065871295
 20
127.3453968147
 10
158.2691908861
 20
127.358111421
 10
158.2303009922
 20
127.3692319569
 10
158.1901206148
 20
127.3787003438
 10
158.1488599003
 20
127.386467051
 10
158.1067347611
 20
127.3924914258
 10
158.0639654232
 20
127.3967419573
 10
158.0207748788
 20
127.3991964099
 10
157.9773898351
 20
127.3998418268
 10
157.9340393886
 20
127.3986749065
 10
157.8909519051
 20
127.3957021368
 10
157.848351096
 20
127.3909392948
 10
157.8064570834
 20
127.3844110599
 10
157.7654717235
 20
127.3761475766
 10
157.7256277427
 20
127.3661944273
 10
157.6871799032
 20
127.3546187531
 10
157.6503384796
 20
127.3414924634
 10
157.6152733849
 20
127.3268850464
 10
157.5821601334
 20
127.3108776392
  0
LWPOLYLINE
  5
58A
100
AcDbEntity
  8
0
100
AcDbPolyline
 62
7
  6
CONTINUOUS
 90
31
 70
0
 10
154.8333699735
 20
130.4829853263
 10
154.8847221047
 20
130.4547992361
 10
154.9384783437
 20
130.4281492763
 10
154.9945010181
 20
130.4031037138
 10
155.0526466949
 20
130.3797266893
 10
155.1127664141
 20
130.3580781077
 10
155.1747060556
 20
130.3382134716
 10
155.2383069212
 20
130.320183671
 10
155.3034061535
 20
130.3040348672
 10
155.3698370087
 20
130.2898084201
 10
155.4374293349
 20
130.2775407652
 10
155.5060100066
 20
130.2672633203
 10
155.575403366
 20
130.2590024061
 10
155.6454316745
 20
130.252779178
 10
155.7159155688
 20
130.2486095723
 10
155.7866745201
 20
130.2465042653
 10
155.8575272932
 20
130.2464686462
 10
155.9282924147
 20
130.2485028031
 10
155.9987886394
 20
130.2526015231
 10
156.0688354065
 20
130.2587543053
 10
156.138253308
 20
130.2669453881
 10
156.2068645521
 20
130.2771537901
 10
156.274493407
 20
130.2893533625
 10
156.3409666585
 20
130.3035128566
 10
156.4061140587
 20
130.3195960059
 10
156.469768746
 20
130.337561615
 10
156.5317676879
 20
130.3573636681
 10
156.5919521033
 20
130.37895145
 10
156.6501678486
 20
130.4022696703
 10
156.7062658134
 20
130.4272586032
 10
156.7601023161
 20
130.4538542452
  0
LWPOLYLINE
  5
58B
100
AcDbEntity
  8
0
100
AcDbPolyline
 62
7
  6
CONTINUOUS
 90
23
 70
0
 10
91.6287908764
 20
171.7663644926
 10
91.3815326647
 20
171.9037888261
 10
91.1346202576
 20
172.030342045
 10
90.8883989845
 20
172.1458471523
 10
90.6432132064
 20
172.2501426032
 10
90.3994058396
 20
172.343082529
 10
90.1573178761
 20
172.4245369422
 10
89.9172878974
 20
172.494391921
 10
89.6796516078
 20
172.5525497664
 10
89.44474137
 20
172.5989291378
 10
89.2128857313
 20
172.6334651694
 10
88.9844089583
 20
172.6561095611
 10
88.7596305907
 20
172.6668306433
 10
88.538864999
 20
172.6656134214
 10
88.3224209465
 20
172.6524595972
 10
88.1106011517
 20
172.6273875676
 10
87.9037018643
 20
172.5904323982
 10
87.702012451
 20
172.5416457741
 10
87.5058149928
 20
172.4810959278
 10
87.3153838897
 20
172.408867544
 10
87.1309854766
 20
172.3250616405
 10
86.9528776513
 20
172.2297954273
 10
86.7826005907
 20
172.1240628855
  0
LWPOLYLINE
  5
58C
100
AcDbEntity
  8
0
100
AcDbPolyline
 62
7
  6
CONTINUOUS
 90
49
 70
0
 10
90.5566314018
 20
169.842750917
 10
90.3774562644
 20
169.9428325537
 10
90.1987091453
 20
170.0359218209
 10
90.0203900446
 20
170.1220187187
 10
89.8422614514
 20
170.2012283032
 10
89.6645608765
 20
170.2734455184
 10
89.4880008528
 20
170.3383551958
 10
89.3126299301
 20
170.39590672
 10
89.1383995585
 20
170.4461507064
 10
88.9658766212
 20
170.488923834
 10
88.7950722118
 20
170.5242009405
 10
88.6259752366
 20
170.552007188
 10
88.4591192977
 20
170.5722547418
 10
88.2945067826
 20
170.5849201112
 10
88.1321353039
 20
170.5900267869
 10
87.9725313005
 20
170.587557405
 10
87.815706816
 20
170.5774876932
 10
87.6616498068
 20
170.5598419239
 10
87.5108505817
 20
170.5346755507
 10
87.3633180981
 20
170.5019646187
 10
87.2190433985
 20
170.4617330828
 10
87.0784899186
 20
170.4141082616
 10
86.9416684222
 20
170.3590655431
 10
86.8085681455
 20
170.2966295394
 10
86.6796202331
 20
170.2270014046
 10
86.5548384477
 20
170.1501572569
 10
86.4342090266
 20
170.0661209781
 10
86.3181218267
 20
169.9751653684
 10
86.2065928227
 20
169.8772688399
 10
86.09960604
 20
169.7724529805
 10
85.997503411
 20
169.661055353
 10
85.9003011482
 20
169.5430561515
 10
85.8079830392
 20
169.4184751819
 10
85.7208423795
 20
169.2877094251
 10
85.6388942197
 20
169.1507363873
 10
85.5621235092
 20
169.0075785623
 10
85.4907783909
 20
168.8587004131
 10
85.4248780048
 20
168.7040881666
 10
85.364403211
 20
168.543755596
 10
85.3095447328
 20
168.3782084835
 10
85.2603187731
 20
168.2074244824
 10
85.216709129
 20
168.0314259395
 10
85.1788579155
 20
167.850785677
 10
85.1467847282
 20
167.6654361125
 10
85.1204699716
 20
167.4754448284
 10
85.0999969734
 20
167.2815873939
 10
85.0853935094
 20
167.0841223321
 10
85.0766318039
 20
166.88279112
 10
85.0737118566
 20
166.6775937574
  0
LINE
  5
58D
100
AcDbEntity
  8
0
100
AcDbLine
 62
7
  6
CONTINUOUS
 10
164.6041927925
 20
123.7207325711
 11
158.4079025659
 21
127.2983928901
  0
LINE
  5
58E
100
AcDbEntity
  8
0
100
AcDbLine
 62
7
  6
CONTINUOUS
 10
156.5355610711
 20
130.6574262538
 11
163.8918835412
 21
126.409977856
  0
LINE
  5
58F
100
AcDbEntity
  8
0
100
AcDbLine
 62
7
  6
CONTINUOUS
 10
156.2456454053
 20
131.2982578573
 11
163.601967867
 21
127.0508094643
  0
LINE
  5
590
100
AcDbEntity
  8
0
100
AcDbLine
 62
7
  6
CONTINUOUS
 10
213.3810792939
 20
98.925454056
 11
90.5566314018
 21
169.842750917
  0
LINE
  5
591
100
AcDbEntity
  8
0
100
AcDbLine
 62
7
  6
CONTINUOUS
 10
214.4532387685
 20
100.8490676316
 11
91.6287908764
 21
171.7663644926
  0
LINE
  5
592
100
AcDbEntity
  8
0
100
AcDbLine
 62
7
  6
CONTINUOUS
 10
215.4688946538
 20
101.496955342
 11
92.6444467617
 21
172.414252203
  0
LINE
  5
593
100
AcDbEntity
  8
0
100
AcDbLine
 62
7
  6
CONTINUOUS
 10
215.5023996374
 20
101.5570682662
 11
92.6779517453
 21
172.4743651272
  0
LWPOLYLINE
  5
594
100
AcDbEntity
  8
0
100
AcDbPolyline
 62
7
  6
CONTINUOUS
 90
39
 70
0
 10
163.8918882521
 20
126.4099767788
 10
163.9049408098
 20
126.4021834801
 10
163.9216230314
 20
126.3915360037
 10
163.9404245092
 20
126.3787076833
 10
163.9611172521
 20
126.3636573428
 10
163.9835459285
 20
126.3463102235
 10
164.0075658566
 20
126.3265958787
 10
164.0329589769
 20
126.3045200329
 10
164.0595562669
 20
126.2800607562
 10
164.0871856451
 20
126.2532107672
 10
164.1156272338
 20
126.224029689
 10
164.1447098755
 20
126.1925501447
 10
164.1742468744
 20
126.1588292587
 10
164.2040066572
 20
126.1229956044
 10
164.2338361233
 20
126.0851106687
 10
164.2635315172
 20
126.0453187071
 10
164.2927978817
 20
126.0039133033
 10
164.3214740381
 20
125.9610444397
 10
164.3493973612
 20
125.9168941552
 10
164.3763011104
 20
125.871847761
 10
164.4020545465
 20
125.8261084629
 10
164.4265411966
 20
125.779888861
 10
164.4495601414
 20
125.7336153864
 10
164.471033054
 20
125.687519771
 10
164.4909042421
 20
125.6418150401
 10
164.509060727
 20
125.5969060194
 10
164.525480185
 20
125.5530470278
 10
164.5401821071
 20
125.5104012661
 10
164.5531650543
 20
125.4692334519
 10
164.5644716635
 20
125.4297321335
 10
164.5741590918
 20
125.3920701913
 10
164.5822790258
 20
125.3564777411
 10
164.5889196268
 20
125.3231023145
 10
164.5941837881
 20
125.2920795508
 10
164.5981759595
 20
125.2636077557
 10
164.6010276467
 20
125.2377733231
 10
164.6028784414
 20
125.2146736986
 10
164.603876694
 20
125.1944906041
 10
164.6041939501
 20
125.1762716546
  0
LWPOLYLINE
  5
595
100
AcDbEntity
  8
0
100
AcDbPolyline
 62
7
  6
CONTINUOUS
 90
34
 70
0
 10
163.601967867
 20
127.0508094643
 10
163.6678037157
 20
127.0111001545
 10
163.7335290315
 20
126.9678399149
 10
163.7991438144
 20
126.9210287457
 10
163.8648128499
 20
126.8705843645
 10
163.9303713525
 20
126.8165890536
 10
163.9953249656
 20
126.75928966
 10
164.0597541757
 20
126.6985505133
 10
164.1235784964
 20
126.6345072839
 10
164.1860621119
 20
126.5678138303
 10
164.2471373336
 20
126.4984609997
 10
164.30687185
 20
126.4264579449
 10
164.3647329114
 20
126.3524859828
 10
164.4206417556
 20
126.2766043697
 10
164.4746771448
 20
126.1987538494
 10
164.5265426144
 20
126.1194379692
 10
164.5762071288
 20
126.0387025913
 10
164.6237017237
 20
125.9565018535
 10
164.6688230421
 20
125.8732017171
 10
164.7115879248
 20
125.788774142
 10
164.751979531
 20
125.7032471682
 10
164.7897439818
 20
125.6170708781
 10
164.8248997052
 20
125.5301537789
 10
164.8574282731
 20
125.4425873633
 10
164.8870205235
 20
125.3550961917
 10
164.9136463862
 20
125.2676181366
 10
164.9373359313
 20
125.1802153256
 10
164.957870207
 20
125.0937987012
 10
164.9751811922
 20
125.0084183591
 10
164.989336908
 20
124.9240242037
 10
165.0003224655
 20
124.8413768909
 10
165.0081329016
 20
124.7607299728
 10
165.0127731794
 20
124.6818298974
 10
165.0142432988
 20
124.6046766646
  0
LWPOLYLINE
  5
596
100
AcDbEntity
  8
0
100
AcDbPolyline
 62
7
  6
CONTINUOUS
 90
17
 70
0
 10
165.0142432988
 20
124.6046766646
 10
164.9654269384
 20
124.6343265911
 10
164.9192710396
 20
124.6653646029
 10
164.875893834
 20
124.6977112109
 10
164.8354064147
 20
124.7312835926
 10
164.7979125225
 20
124.765995748
 10
164.763508262
 20
124.8017587131
 10
164.7322817698
 20
124.8384808674
 10
164.7043130056
 20
124.8760681753
 10
164.6796736061
 20
124.9144243647
 10
164.6584266801
 20
124.9534511946
 10
164.6406266473
 20
124.9930487061
 10
164.6263190993
 20
125.0331154784
 10
164.6155406821
 20
125.0735488892
 10
164.6083190027
 20
125.1142453769
 10
164.6046725581
 20
125.1551007058
 10
164.6041927925
 20
125.1762610988
  0
LWPOLYLINE
  5
597
100
AcDbEntity
  8
0
100
AcDbPolyline
 62
7
  6
CONTINUOUS
 90
30
 70
0
 10
199.0243269636
 20
102.5728734893
 10
199.0268335208
 20
102.5713477765
 10
199.0311878423
 20
102.5684805885
 10
199.0372625455
 20
102.5641604918
 10
199.0448004348
 20
102.5583925667
 10
199.053645322
 20
102.5511392044
 10
199.0636413934
 20
102.5423760743
 10
199.0745398494
 20
102.5321808041
 10
199.0861641338
 20
102.5206008943
 10
199.0983840187
 20
102.5076627891
 10
199.1110444787
 20
102.4934288469
 10
199.1239929131
 20
102.4779725426
 10
199.1370991453
 20
102.461365076
 10
199.150259225
 20
102.443664311
 10
199.1633620121
 20
102.4249386467
 10
199.1762526509
 20
102.4053328933
 10
199.1887729687
 20
102.3850380035
 10
199.2008239879
 20
102.3641849562
 10
199.2122844
 20
102.3429512562
 10
199.2229951239
 20
102.3216322511
 10
199.2328879266
 20
102.3004082026
 10
199.2419036352
 20
102.2794684646
 10
199.2499408781
 20
102.2591371965
 10
199.2569964531
 20
102.2395671322
 10
199.2630631447
 20
102.2209726299
 10
199.2680984177
 20
102.2037436096
 10
199.27215797
 20
102.1880336785
 10
199.2753258065
 20
102.173945486
 10
199.2776737695
 20
102.1617085919
 10
199.2788267276
 20
102.154702025
  0
LWPOLYLINE
  5
598
100
AcDbEntity
  8
0
100
AcDbPolyline
 62
7
  6
CONTINUOUS
 90
25
 70
0
 10
198.8379040248
 20
102.9848635926
 10
198.8780097365
 20
102.9604459479
 10
198.9179404721
 20
102.9334603098
 10
198.9576962317
 20
102.9039066783
 10
198.9974717878
 20
102.8716398423
 10
199.0370723678
 20
102.8368050129
 10
199.0759136538
 20
102.7998378232
 10
199.1139644608
 20
102.7606947307
 10
199.1512559738
 20
102.7194192778
 10
199.1872974296
 20
102.6765777255
 10
199.2220136677
 20
102.6322174344
 10
199.2554798486
 20
102.5862910439
 10
199.287430691
 20
102.5392227325
 10
199.3178408
 20
102.4910489577
 10
199.3467355705
 20
102.441733262
 10
199.3739259059
 20
102.391590452
 10
199.3994362906
 20
102.3405635086
 10
199.4232422403
 20
102.2887094508
 10
199.4450812058
 20
102.2365141428
 10
199.4649508931
 20
102.1838860546
 10
199.4828535962
 20
102.130916716
 10
199.4985336481
 20
102.0783665809
 10
199.5119058263
 20
102.0264891337
 10
199.5230553534
 20
101.97503089
 10
199.5319822291
 20
101.9239918498
  0
LWPOLYLINE
  5
599
100
AcDbEntity
  8
0
100
AcDbPolyline
 62
7
  6
CONTINUOUS
 90
13
 70
0
 10
201.582977573
 20
101.3998925298
 10
201.6274096754
 20
101.3725069163
 10
201.6712529384
 20
101.3422236099
 10
201.714507362
 20
101.3090426106
 10
201.7573504069
 20
101.2727939673
 10
201.7996046125
 20
101.2336476311
 10
201.8407375965
 20
101.1921134549
 10
201.8807259272
 20
101.1481757574
 10
201.9195930365
 20
101.10185022
 10
201.9568768377
 20
101.0536937403
 10
201.9924233021
 20
101.0038919509
 10
202.0263864585
 20
100.9522592191
 10
202.0587663068
 20
100.8987955451
  0
LWPOLYLINE
  5
59A
100
AcDbEntity
  8
0
100
AcDbPolyline
 62
7
  6
CONTINUOUS
 90
3
 70
0
 10
202.7453727453
 20
98.9983998058
 10
202.7133786707
 20
99.0196730328
 10
202.6835003277
 20
99.041765527
  0
LWPOLYLINE
  5
59B
100
AcDbEntity
  8
0
100
AcDbPolyline
 62
7
  6
CONTINUOUS
 90
17
 70
0
 10
199.8651439213
 20
101.7316284708
 10
199.9062851023
 20
101.700657869
 10
199.9498896729
 20
101.6710061942
 10
199.9957706732
 20
101.6429494873
 10
200.0437002796
 20
101.6168971716
 10
200.093473197
 20
101.5929484247
 10
200.1449322931
 20
101.5709140033
 10
200.1978573329
 20
101.5510411465
 10
200.2519940604
 20
101.5335446625
 10
200.30716054
 20
101.5182069781
 10
200.3631444134
 20
101.5052402191
 10
200.419672698
 20
101.4948367036
 10
200.476514413
 20
101.4867616671
 10
200.5334999708
 20
101.4811786048
 10
200.5903559231
 20
101.4782555839
 10
200.6467666058
 20
101.4777477808
 10
200.7026486827
 20
101.4797579697
  0
LWPOLYLINE
  5
59C
100
AcDbEntity
  8
0
100
AcDbPolyline
 62
7
  6
CONTINUOUS
 90
5
 70
0
 10
202.7142967155
 20
99.056925788
 10
202.6844508843
 20
99.0796868954
 10
202.6568150109
 20
99.1033600234
 10
202.631472501
 20
99.1278737233
 10
202.6084998329
 20
99.1531540173
  0
LWPOLYLINE
  5
59D
100
AcDbEntity
  8
0
100
AcDbPolyline
 62
7
  6
CONTINUOUS
 90
9
 70
0
 10
202.6835003277
 20
99.041765527
 10
202.6558279356
 20
99.0646105472
 10
202.6304449888
 20
99.0881391732
 10
202.6074280295
 20
99.1122804886
 10
202.5868465312
 20
99.1369616661
 10
202.5687626575
 20
99.1621080735
 10
202.5532310057
 20
99.1876437286
 10
202.540298473
 20
99.2134915889
 10
202.5299792995
 20
99.2396462163
  0
LINE
  5
59E
100
AcDbEntity
  8
0
100
AcDbLine
 62
7
  6
CONTINUOUS
 10
197.6282609908
 20
102.2993425648
 11
197.6645626456
 21
102.3256958134
  0
LWPOLYLINE
  5
59F
100
AcDbEntity
  8
0
100
AcDbPolyline
 62
7
  6
CONTINUOUS
 90
4
 70
0
 10
197.6645626456
 20
102.3256958134
 10
197.7048701113
 20
102.3546425393
 10
197.7244485478
 20
102.3687964121
 10
197.7596890148
 20
102.3947149202
  0
LINE
  5
5A0
100
AcDbEntity
  8
0
100
AcDbLine
 62
7
  6
CONTINUOUS
 10
201.9362482208
 20
100.8270548908
 11
201.9215842361
 21
100.8183234956
  0
LINE
  5
5A1
100
AcDbEntity
  8
0
100
AcDbLine
 62
7
  6
CONTINUOUS
 10
202.0130105294
 20
100.8720842441
 11
201.9362482208
 21
100.8270548908
  0
LINE
  5
5A2
100
AcDbEntity
  8
0
100
AcDbLine
 62
7
  6
CONTINUOUS
 10
202.0587663068
 20
100.8987955451
 11
202.0130105294
 21
100.8720842441
  0
LINE
  5
5A3
100
AcDbEntity
  8
0
100
AcDbLine
 62
7
  6
CONTINUOUS
 10
196.8143776385
 20
103.324944892
 11
197.338359849
 21
103.6242990732
  0
LINE
  5
5A4
100
AcDbEntity
  8
0
100
AcDbLine
 62
7
  6
CONTINUOUS
 10
197.8513654553
 20
102.8872848139
 11
198.1672380869
 21
103.0677447438
  0
LWPOLYLINE
  5
5A5
100
AcDbEntity
  8
0
100
AcDbPolyline
 62
7
  6
CONTINUOUS
 90
7
 70
0
 10
200.9059683783
 20
101.2950620988
 10
200.9222149988
 20
101.3038681955
 10
200.9508451697
 20
101.3227764411
 10
200.9775430569
 20
101.3450232423
 10
201.0021938433
 20
101.3705129241
 10
201.0246915155
 20
101.3991358651
 10
201.0334549912
 20
101.4128270254
  0
LINE
  5
5A6
100
AcDbEntity
  8
0
100
AcDbLine
 62
7
  6
CONTINUOUS
 10
200.9059683817
 20
101.2950620919
 11
201.0831135935
 21
101.3841547708
  0
LWPOLYLINE
  5
5A7
100
AcDbEntity
  8
0
100
AcDbPolyline
 62
7
  6
CONTINUOUS
 90
17
 70
0
 10
200.905968225
 20
101.2950620217
 10
200.8539716753
 20
101.2709500838
 10
200.8002565054
 20
101.2500947838
 10
200.745072419
 20
101.2326507751
 10
200.6887453905
 20
101.2187607963
 10
200.6314962915
 20
101.208507596
 10
200.5734276788
 20
101.2019512104
 10
200.5148019116
 20
101.1991733134
 10
200.4559523729
 20
101.2002309152
 10
200.3970815967
 20
101.2051581302
 10
200.3384582136
 20
101.2139742919
 10
200.2804249193
 20
101.2266604964
 10
200.223266181
 20
101.2431762634
 10
200.1672144786
 20
101.2634761559
 10
200.112590366
 20
101.287461056
 10
200.0597375475
 20
101.3149770233
 10
200.0514982988
 20
101.3196768249
  0
LWPOLYLINE
  5
5A8
100
AcDbEntity
  8
0
100
AcDbPolyline
 62
7
  6
CONTINUOUS
 90
31
 70
0
 10
81.492557536
 20
119.9882024563
 10
81.3659109619
 20
119.9559000269
 10
81.2370916683
 20
119.9266014899
 10
81.1063132691
 20
119.9003554291
 10
80.9737926283
 20
119.8772053666
 10
80.8397494958
 20
119.8571896905
 10
80.7044061432
 20
119.8403415928
 10
80.5679870011
 20
119.8266890121
 10
80.4307182871
 20
119.8162545875
 10
80.2928276255
 20
119.8090556219
 10
80.1545436726
 20
119.8051040533
 10
80.0160957369
 20
119.8044064343
 10
79.8777133984
 20
119.8069639218
 10
79.7396261286
 20
119.812772275
 10
79.6020629099
 20
119.8218218625
 10
79.4652518553
 20
119.8340976781
 10
79.3294198309
 20
119.8495793658
 10
79.1947920793
 20
119.8682412533
 10
79.061591846
 20
119.8900523948
 10
78.9300400096
 20
119.9149766222
 10
78.800354715
 20
119.9429726054
 10
78.6727510123
 20
119.9739939205
 10
78.5474404994
 20
120.007989127
 10
78.424630972
 20
120.0449018526
 10
78.3045260784
 20
120.0846708872
 10
78.1873249782
 20
120.1272302851
 10
78.0732220236
 20
120.172509472
 10
77.9624064355
 20
120.2204333617
 10
77.8550619758
 20
120.2709224833
 10
77.7513666436
 20
120.3238931138
 10
77.6514923901
 20
120.3792574145
  0
LINE
  5
5A9
100
AcDbEntity
  8
0
100
AcDbLine
 62
7
  6
CONTINUOUS
 10
83.0889085902
 20
143.4440094089
 11
81.492557536
 21
143.5060703692
  0
LWPOLYLINE
  5
5AA
100
AcDbEntity
  8
0
100
AcDbPolyline
 62
7
  6
CONTINUOUS
 90
12
 70
0
 10
104.0725667787
 20
157.0410619462
 10
104.0340131258
 20
157.0561062073
 10
103.9981800204
 20
157.0723208488
 10
103.9652386817
 20
157.0897751042
 10
103.9353411959
 20
157.1086590408
 10
103.9086042951
 20
157.1288859073
 10
103.8851332183
 20
157.1501149852
 10
103.865020912
 20
157.1724127
 10
103.8483461617
 20
157.1958015731
 10
103.8351971061
 20
157.2199081089
 10
103.8256104252
 20
157.2448006621
 10
103.8194007639
 20
157.2718370304
  0
LWPOLYLINE
  5
5AB
100
AcDbEntity
  8
0
100
AcDbPolyline
 62
7
  6
CONTINUOUS
 90
22
 70
0
 10
92.9607944578
 20
173.4728962528
 10
92.6825349609
 20
173.6274950524
 10
92.4054370199
 20
173.7695196526
 10
92.1295006346
 20
173.8989700536
 10
91.8543434889
 20
174.0159919951
 10
91.5803478991
 20
174.1204397373
 10
91.3086608135
 20
174.2118760609
 10
91.0392919093
 20
174.2902464237
 10
90.7722315094
 20
174.3556053678
 10
90.5085975317
 20
174.4076792999
 10
90.2484043391
 20
174.4464125312
 10
89.9916375687
 20
174.4718607506
 10
89.7393720489
 20
174.4839174315
 10
89.4916266484
 20
174.4825264385
 10
89.2483824986
 20
174.467743907
 10
89.0106578221
 20
174.4396317169
 10
88.7784757558
 20
174.398133992
 10
88.5518131629
 20
174.3433066086
 10
88.3316188554
 20
174.2753790745
 10
88.1179199475
 20
174.1942964759
 10
87.9106893251
 20
174.1001137266
 10
87.7105413076
 20
173.9930789251
  0
LWPOLYLINE
  5
5AC
100
AcDbEntity
  8
0
100
AcDbPolyline
 62
7
  6
CONTINUOUS
 90
23
 70
0
 10
92.6444467617
 20
172.414252203
 10
92.3951982323
 20
172.5527827397
 10
92.1462982923
 20
172.6803546515
 10
91.8980950509
 20
172.7967895166
 10
91.6509356412
 20
172.9019244901
 10
91.40516574
 20
172.9956125291
 10
91.1611290844
 20
173.0777225999
 10
90.9191669813
 20
173.1481398639
 10
90.6796178374
 20
173.2067658357
 10
90.4428166914
 20
173.2535185199
 10
90.2090947231
 20
173.2883325307
 10
89.9787788218
 20
173.3111591765
 10
89.7521911345
 20
173.3219665324
 10
89.5296485835
 20
173.3207394896
 10
89.3114623909
 20
173.3074797715
 10
89.0979376753
 20
173.2822059238
 10
88.8893730675
 20
173.2449532937
 10
88.6860602664
 20
173.1957739827
 10
88.4882835999
 20
173.1347367646
 10
88.2963196638
 20
173.0619269953
 10
88.1104369546
 20
172.9774465059
 10
87.9308954684
 20
172.8814134575
 10
87.7592477858
 20
172.7748298361
  0
LWPOLYLINE
  5
5AD
100
AcDbEntity
  8
0
100
AcDbPolyline
 62
7
  6
CONTINUOUS
 90
23
 70
0
 10
92.6779517453
 20
172.4743651272
 10
92.4274222124
 20
172.6136107014
 10
92.1777549273
 20
172.7416042023
 10
91.9289498901
 20
172.8583456299
 10
91.6805906528
 20
172.9640040405
 10
91.4330936633
 20
173.0584103778
 10
91.1877082657
 20
173.1410574728
 10
90.9445289155
 20
173.2118542784
 10
90.7034611571
 20
173.2708918417
 10
90.465470968
 20
173.3179361357
 10
90.2305498631
 20
173.3529427266
 10
89.9987063275
 20
173.3759560483
 10
89.770931793
 20
173.3868753755
 10
89.5472523256
 20
173.3856484333
 10
89.3276418592
 20
173.3723274966
 10
89.1130136277
 20
173.3469686655
 10
88.9033855654
 20
173.3095214779
 10
88.6987397378
 20
173.2600363958
 10
88.4999355753
 20
173.1987209053
 10
88.3069985348
 20
173.1255254935
 10
88.1199031593
 20
173.0404996732
 10
87.9394325086
 20
172.9439994695
 10
87.7656142822
 20
172.8359768572
  0
LWPOLYLINE
  5
5AE
100
AcDbEntity
  8
0
100
AcDbPolyline
 62
7
  6
CONTINUOUS
 90
21
 70
0
 10
92.6779517453
 20
173.3095864155
 10
92.4183649346
 20
173.4542021952
 10
92.159689508
 20
173.5879060058
 10
91.9019254655
 20
173.710697847
 10
91.6447284489
 20
173.8227115422
 10
91.3884428163
 20
173.9238132682
 10
91.1341016424
 20
174.0136015555
 10
90.8817951851
 20
174.0920121917
 10
90.6314331865
 20
174.1591093892
 10
90.3837779474
 20
174.2146843162
 10
90.1387260383
 20
174.2587138918
 10
89.8963808886
 20
174.2912211968
 10
89.6578150881
 20
174.3120666424
 10
89.4231763591
 20
174.3212023878
 10
89.1923169792
 20
174.3186762738
 10
88.9658663716
 20
174.3044922333
 10
88.7436957273
 20
174.2785923799
 10
88.5259338552
 20
174.2410345999
 10
88.3135966046
 20
174.1919964855
 10
88.1068504881
 20
174.1314760592
 10
87.9055289932
 20
174.0594752984
  0
LINE
  5
5AF
100
AcDbEntity
  8
0
100
AcDbLine
 62
7
  6
CONTINUOUS
 10
215.5023996374
 20
102.3922895545
 11
92.6779517453
 21
173.3095864155
  0
LINE
  5
5B0
100
AcDbEntity
  8
0
100
AcDbLine
 62
7
  6
CONTINUOUS
 10
215.7852423499
 20
102.5555993918
 11
92.9607944578
 21
173.4728962528
  0
LWPOLYLINE
  5
5B1
100
AcDbEntity
  8
0
100
AcDbPolyline
 62
7
  6
CONTINUOUS
 90
8
 70
0
 10
197.7596890148
 20
102.3947149202
 10
197.7750196834
 20
102.4062660281
 10
197.7882882402
 20
102.4165518503
 10
197.7997655594
 20
102.4257245067
 10
197.8095449062
 20
102.4338492432
 10
197.8176538052
 20
102.4409418211
 10
197.8240506989
 20
102.4469695108
 10
197.8287273981
 20
102.4519266498
  0
LINE
  5
5B2
100
AcDbEntity
  8
0
100
AcDbLine
 62
7
  6
CONTINUOUS
 10
202.5125325926
 20
99.4793024783
 11
202.445675292
 21
99.4318210464
  0
LWPOLYLINE
  5
5B3
100
AcDbEntity
  8
0
100
AcDbPolyline
 62
7
  6
CONTINUOUS
 90
3
 70
0
 10
202.5166476211
 20
99.4647288744
 10
202.5096970925
 20
99.4603131056
 10
202.4949519064
 20
99.4512991365
  0
LWPOLYLINE
  5
5B4
100
AcDbEntity
  8
0
100
AcDbPolyline
 62
7
  6
CONTINUOUS
 90
3
 70
0
 10
201.9215842361
 20
100.8183234956
 10
201.9178082491
 20
100.81601662
 10
201.9164208371
 20
100.8150931533
  0
LWPOLYLINE
  5
5B5
100
AcDbEntity
  8
0
100
AcDbPolyline
 62
7
  6
CONTINUOUS
 90
3
 70
0
 10
202.4455664211
 20
99.9138877795
 10
202.4417904447
 20
99.9115809111
 10
202.4404030442
 20
99.9106574523
  0
LINE
  5
5B6
100
AcDbEntity
  8
0
100
AcDbLine
 62
7
  6
CONTINUOUS
 10
202.4602303898
 20
99.9226191637
 11
202.4455664211
 21
99.9138877795
  0
LWPOLYLINE
  5
5B7
100
AcDbEntity
  8
0
100
AcDbPolyline
 62
7
  6
CONTINUOUS
 90
9
 70
0
 10
202.4949519064
 20
99.4512991365
 10
202.4820613531
 20
99.4437608708
 10
202.4711531123
 20
99.4377648581
 10
202.462371147
 20
99.4333758039
 10
202.4555979121
 20
99.4304854651
 10
202.4505628191
 20
99.4289129142
 10
202.447179726
 20
99.4285924646
 10
202.4455486711
 20
99.4295658932
 10
202.445675292
 20
99.4318210464
  0
LINE
  5
5B8
100
AcDbEntity
  8
0
100
AcDbLine
 62
7
  6
CONTINUOUS
 10
202.5369927081
 20
99.9676485246
 11
202.4602303898
 21
99.9226191637
  0
LINE
  5
5B9
100
AcDbEntity
  8
0
100
AcDbLine
 62
7
  6
CONTINUOUS
 10
202.5827485173
 20
99.9943598412
 11
202.5369927081
 21
99.9676485246
  0
LINE
  5
5BA
100
AcDbEntity
  8
0
100
AcDbLine
 62
7
  6
CONTINUOUS
 10
215.7852423499
 20
102.5555993918
 11
215.5023996374
 21
102.3922895545
  0
LWPOLYLINE
  5
5BB
100
AcDbEntity
  8
0
100
AcDbPolyline
 62
7
  6
CONTINUOUS
 90
5
 70
0
 10
202.6084998329
 20
99.1531540173
 10
202.5879663431
 20
99.179124607
 10
202.5699340118
 20
99.2057071045
 10
202.5544572658
 20
99.2328212795
 10
202.5415828204
 20
99.2603852954
  0
LWPOLYLINE
  5
5BC
100
AcDbEntity
  8
0
100
AcDbPolyline
 62
7
  6
CONTINUOUS
 90
28
 70
0
 10
196.8143776385
 20
103.324944892
 10
196.8402254012
 20
103.2822840039
 10
196.8679491994
 20
103.2408832365
 10
196.8974638484
 20
103.2008698028
 10
196.928678664
 20
103.162366649
 10
196.961497731
 20
103.1254920901
 10
196.9958201963
 20
103.0903594439
 10
197.031540593
 20
103.0570766662
 10
197.068549167
 20
103.0257460208
 10
197.1067322023
 20
102.9964637772
 10
197.1459723738
 20
102.9693199109
 10
197.1861491084
 20
102.944397827
 10
197.227138955
 20
102.9217741035
 10
197.2688159641
 20
102.9015182565
 10
197.3110520749
 20
102.8836925261
 10
197.3537175085
 20
102.8683516854
 10
197.396681167
 20
102.8555428723
 10
197.4398110359
 20
102.8453054444
 10
197.4829745901
 20
102.8376708583
 10
197.5260392013
 20
102.8326625729
 10
197.5688725447
 20
102.8302959771
 10
197.611343006
 20
102.8305783429
 10
197.653320086
 20
102.8335088027
 10
197.6946748021
 20
102.8390783519
 10
197.7352800844
 20
102.8472698769
 10
197.7750111651
 20
102.8580582077
 10
197.8137459622
 20
102.8714101955
 10
197.8513654553
 20
102.8872848139
  0
LWPOLYLINE
  5
5BD
100
AcDbEntity
  8
0
100
AcDbPolyline
 62
7
  6
CONTINUOUS
 90
20
 70
0
 10
197.338359849
 20
103.6242990732
 10
197.3642076343
 20
103.5816381475
 10
197.391931456
 20
103.5402373485
 10
197.4214461286
 20
103.5002238896
 10
197.4526609673
 20
103.4617207171
 10
197.4854800562
 20
103.4248461451
 10
197.519802542
 20
103.3897134902
 10
197.5555229576
 20
103.3564307074
 10
197.5925315483
 20
103.3251000607
 10
197.6307145978
 20
103.2958178193
 10
197.669954781
 20
103.2686739585
 10
197.7101315244
 20
103.2437518828
 10
197.7511213768
 20
103.2211281697
 10
197.7927983887
 20
103.2008723349
 10
197.835034499
 20
103.183046618
 10
197.8776999291
 20
103.1677057916
 10
197.9206635809
 20
103.1548969931
 10
197.9637934399
 20
103.1446595796
 10
198.0069569816
 20
103.1370250072
 10
198.0500215775
 20
103.1320167342
  0
LWPOLYLINE
  5
5BE
100
AcDbEntity
  8
0
100
AcDbPolyline
 62
7
  6
CONTINUOUS
 90
20
 70
0
 10
196.0401735268
 20
47.1862680822
 10
196.0422148896
 20
47.0730746046
 10
196.0483359061
 20
46.9624253786
 10
196.0585267716
 20
46.8545087092
 10
196.0727710584
 20
46.7495064434
 10
196.0910450085
 20
46.6475993569
 10
196.1133168487
 20
46.5489662755
 10
196.1395481759
 20
46.4537763614
 10
196.1696947203
 20
46.362189491
 10
196.2037051707
 20
46.2743612682
 10
196.2415218132
 20
46.1904405346
 10
196.2830802214
 20
46.1105700833
 10
196.3283091951
 20
46.0348863426
 10
196.3771315389
 20
45.9635178819
 10
196.4294642805
 20
45.8965854303
 10
196.4852182812
 20
45.8342025019
 10
196.5442976437
 20
45.7764757113
 10
196.606602742
 20
45.7235017576
 10
196.6720308463
 20
45.6753681075
 10
196.7441995926
 20
45.6299944236
  0
LWPOLYLINE
  5
5BF
100
AcDbEntity
  8
0
100
AcDbPolyline
 62
7
  6
CONTINUOUS
 90
49
 70
0
 10
195.1735199333
 20
76.0413819322
 10
195.171380417
 20
76.1809568702
 10
195.1656882748
 20
76.3203412321
 10
195.1564435067
 20
76.459535018
 10
195.1435550471
 20
76.5985500039
 10
195.1271139615
 20
76.7373744137
 10
195.1073934471
 20
76.8759729195
 10
195.0844391175
 20
77.0142973807
 10
195.058205359
 20
77.152395938
 10
195.0288285272
 20
77.2903776856
 10
194.9963556751
 20
77.4282166925
 10
194.9607397497
 20
77.5659388898
 10
194.9219759473
 20
77.7037311649
 10
194.8800599645
 20
77.8417027075
 10
194.8349961046
 20
77.9797443279
 10
194.7867924739
 20
78.1177153435
 10
194.7353893173
 20
78.2557618207
 10
194.6808463897
 20
78.3937376932
 10
194.6233510622
 20
78.5310640793
 10
194.562902883
 20
78.6676932534
 10
194.4995023039
 20
78.8036729412
 10
194.4333380508
 20
78.9385674387
 10
194.3644105301
 20
79.0723522688
 10
194.2927193354
 20
79.2050519086
 10
194.2184519734
 20
79.3363040854
 10
194.1415468922
 20
79.4661780981
 10
194.0620656437
 20
79.5946046479
 10
193.9803803899
 20
79.7210135653
 10
193.8964818284
 20
79.8453699226
 10
193.8103792616
 20
79.9677086475
 10
193.7224727584
 20
80.0875643541
 10
193.6328087805
 20
80.2048513874
 10
193.5413408662
 20
80.3196554023
 10
193.4483296992
 20
80.4317679777
 10
193.353861836
 20
80.5411035613
 10
193.2578507201
 20
80.6477477053
 10
193.1602973651
 20
80.7517486458
 10
193.0612714976
 20
80.8530840807
 10
192.960703391
 20
80.9517763121
 10
192.8583848788
 20
81.047940482
 10
192.754315734
 20
81.1416364398
 10
192.6484961836
 20
81.2328043362
 10
192.5407187423
 20
81.3213797645
 10
192.4309630853
 20
81.4074324108
 10
192.3192495374
 20
81.490892589
 10
192.2054315872
 20
81.5714868351
 10
192.0894603976
 20
81.6491239943
 10
191.9713848056
 20
81.7238952213
 10
191.8512048114
 20
81.7958005162
  0
LWPOLYLINE
  5
5C0
100
AcDbEntity
  8
0
100
AcDbPolyline
 62
7
  6
CONTINUOUS
 90
21
 70
0
 10
194.1776830027
 20
53.9114716074
 10
194.1779131431
 20
53.8888037742
 10
194.1823425758
 20
53.808903538
 10
194.1924023097
 20
53.7291736726
 10
194.2080756632
 20
53.6497463896
 10
194.2293366461
 20
53.5707533987
 10
194.2561500025
 20
53.4923256897
 10
194.2884712693
 20
53.4145933147
 10
194.3262468499
 20
53.337685173
 10
194.3694141032
 20
53.2617287967
 10
194.4179014475
 20
53.1868501402
 10
194.4716284787
 20
53.1131733706
 10
194.5305061045
 20
53.040820662
 10
194.5944366913
 20
52.9699119926
 10
194.6633142266
 20
52.9005649465
 10
194.7370244972
 20
52.8328945149
 10
194.8154452713
 20
52.7670129149
 10
194.8984465
 20
52.7030294026
 10
194.9858905429
 20
52.6410500803
 10
195.0776323979
 20
52.5811777213
 10
195.1735199333
 20
52.523511608
  0
LWPOLYLINE
  5
5C1
100
AcDbEntity
  8
0
100
AcDbPolyline
 62
7
  6
CONTINUOUS
 90
21
 70
0
 10
194.1776829894
 20
77.4295156422
 10
194.1779131399
 20
77.4066743596
 10
194.1823425607
 20
77.3267741358
 10
194.192402282
 20
77.2470442803
 10
194.2080756224
 20
77.1676170045
 10
194.2293365923
 20
77.088624018
 10
194.2561499359
 20
77.0101963103
 10
194.2884711907
 20
76.9324639337
 10
194.3262467603
 20
76.8555557875
 10
194.3694140042
 20
76.7795994043
 10
194.4179013408
 20
76.7047207381
 10
194.4716283667
 20
76.631043956
 10
194.5305059897
 20
76.5586912319
 10
194.5944365767
 20
76.4877825446
 10
194.6633141156
 20
76.418435478
 10
194.7370243932
 20
76.3507650251
 10
194.8154451783
 20
76.2848834016
 10
194.8984464225
 20
76.2208998592
 10
194.985890486
 20
76.1589204988
 10
195.0776323667
 20
76.0990480956
 10
195.1735199333
 20
76.0413819322
  0
LINE
  5
5C2
100
AcDbEntity
  8
0
100
AcDbLine
 62
7
  6
CONTINUOUS
 10
195.1735199333
 20
52.523511608
 11
195.1735199333
 21
76.0413819322
  0
LINE
  5
5C3
100
AcDbEntity
  8
0
100
AcDbLine
 62
7
  6
CONTINUOUS
 10
196.0401735268
 20
47.1862680822
 11
196.0401735268
 21
80.3778356118
  0
LWPOLYLINE
  5
5C4
100
AcDbEntity
  8
0
100
AcDbPolyline
 62
7
  6
CONTINUOUS
 90
9
 70
0
 10
194.1776829894
 20
77.4295156398
 10
194.1776778263
 20
53.9077000323
 10
194.1772764819
 20
53.8771441437
 10
194.1763316405
 20
53.8503236417
 10
194.174986613
 20
53.8272833528
 10
194.1734235314
 20
53.8084062879
 10
194.1719012461
 20
53.7943590803
 10
194.1706814342
 20
53.7853057677
 10
194.1701424569
 20
53.7819104919
  0
LWPOLYLINE
  5
5C5
100
AcDbEntity
  8
0
100
AcDbPolyline
 62
7
  6
CONTINUOUS
 90
37
 70
0
 10
196.0401735268
 20
80.3778356118
 10
196.0422148898
 20
80.4933864086
 10
196.0483359068
 20
80.6111040367
 10
196.0585267733
 20
80.7307888689
 10
196.0727710621
 20
80.8522400907
 10
196.091045015
 20
80.9752494885
 10
196.1133168574
 20
81.0996015378
 10
196.1395481846
 20
81.2250827253
 10
196.169694727
 20
81.3514820568
 10
196.2037051735
 20
81.4785846789
 10
196.2415218098
 20
81.6061751026
 10
196.2830802096
 20
81.7340361381
 10
196.3283091748
 20
81.8619491435
 10
196.3771315113
 20
81.9896964087
 10
196.4294642464
 20
82.1170613879
 10
196.4852182414
 20
82.2438276316
 10
196.5442975993
 20
82.3697777849
 10
196.6066026946
 20
82.4947001037
 10
196.6720307978
 20
82.6183884919
 10
196.7404717708
 20
82.7406339918
 10
196.8118089795
 20
82.8612275635
 10
196.8859228788
 20
82.9799663546
 10
196.9626907624
 20
83.0966525269
 10
197.041979951
 20
83.2110832038
 10
197.123648642
 20
83.3230536773
 10
197.207556312
 20
83.4323721476
 10
197.2935615327
 20
83.5388551949
 10
197.3815145964
 20
83.6423184507
 10
197.4712692473
 20
83.7425908163
 10
197.5626692023
 20
83.8394986245
 10
197.6555442594
 20
83.9328638285
 10
197.7497283317
 20
84.0225236065
 10
197.845068012
 20
84.1083360021
 10
197.9414085741
 20
84.1901646234
 10
198.038588877
 20
84.267874676
 10
198.1364413536
 20
84.3413342208
 10
198.234799966
 20
84.4104208397
  0
LWPOLYLINE
  5
5C6
100
AcDbEntity
  8
0
100
AcDbPolyline
 62
7
  6
CONTINUOUS
 90
13
 70
0
 10
197.1370706826
 20
101.7796931776
 10
197.1667150091
 20
101.8286386202
 10
197.1980519584
 20
101.8763207966
 10
197.2309547443
 20
101.9225467764
 10
197.265290287
 20
101.9671295622
 10
197.3009196269
 20
102.0098887147
 10
197.3376984739
 20
102.0506511015
 10
197.3754779152
 20
102.089251712
 10
197.4141051782
 20
102.1255344833
 10
197.4534241276
 20
102.1593527781
 10
197.4932757336
 20
102.1905697929
 10
197.5334987048
 20
102.2190591474
 10
197.5739302961
 20
102.2447055497
  0
LINE
  5
5C7
100
AcDbEntity
  8
0
100
AcDbLine
 62
7
  6
CONTINUOUS
 10
214.4532387685
 20
100.8490676316
 11
215.4688946538
 21
101.496955342
  0
LINE
  5
5C8
100
AcDbEntity
  8
0
100
AcDbLine
 62
7
  6
CONTINUOUS
 10
198.234799966
 20
84.4104208397
 11
212.3443517361
 21
92.5569725238
  0
LWPOLYLINE
  5
5C9
100
AcDbEntity
  8
0
100
AcDbPolyline
 62
7
  6
CONTINUOUS
 90
22
 70
0
 10
214.7393662258
 20
88.408685747
 10
214.7727711349
 20
88.4237419512
 10
214.8079333452
 20
88.4373991819
 10
214.84467745
 20
88.4495893088
 10
214.8828201528
 20
88.4602515209
 10
214.9221711767
 20
88.469332628
 10
214.9625342132
 20
88.4767873273
 10
215.0037079083
 20
88.4825784302
 10
215.0454868676
 20
88.4866770479
 10
215.0876626763
 20
88.4890627342
 10
215.1300249389
 20
88.4897235876
 10
215.1723623301
 20
88.4886563114
 10
215.2144636487
 20
88.4858662292
 10
215.2561188711
 20
88.4813672593
 10
215.2971201985
 20
88.4751818446
 10
215.3372630948
 20
88.4673408409
 10
215.3763472842
 20
88.4578833685
 10
215.4141778163
 20
88.4468566023
 10
215.4505660311
 20
88.4343155272
 10
215.4853304153
 20
88.4203226892
 10
215.5182975147
 20
88.4049478918
 10
215.5493028604
 20
88.3882678266
  0
LWPOLYLINE
  5
5CA
100
AcDbEntity
  8
0
100
AcDbPolyline
 62
7
  6
CONTINUOUS
 90
22
 70
0
 10
214.7393662258
 20
87.6064320017
 10
214.7727718339
 20
87.6214884994
 10
214.8079346556
 20
87.6351459091
 10
214.8446792538
 20
87.6473361161
 10
214.8828222597
 20
87.657998315
 10
214.9221734185
 20
87.667079351
 10
214.9625365526
 20
87.6745339657
 10
215.0037103539
 20
87.6803249806
 10
215.0454893783
 20
87.6844235011
 10
215.0876652113
 20
87.6868090853
 10
215.1300274564
 20
87.6874698357
 10
215.1723647888
 20
87.6864024596
 10
215.2144660118
 20
87.6836122844
 10
215.2561211033
 20
87.6791132319
 10
215.2971222676
 20
87.6729277484
 10
215.3372649762
 20
87.6650866917
 10
215.3763489819
 20
87.6556291785
 10
215.4141793121
 20
87.6446023898
 10
215.4505672464
 20
87.6320613361
 10
215.4853312648
 20
87.6180685814
 10
215.5182979529
 20
87.6026939304
 10
215.5493028604
 20
87.5860140813
  0
LINE
  5
5CB
100
AcDbEntity
  8
0
100
AcDbLine
 62
7
  6
CONTINUOUS
 10
216.1968178185
 20
86.6818436613
 11
216.2533313168
 21
86.7060789426
  0
LWPOLYLINE
  5
5CC
100
AcDbEntity
  8
0
100
AcDbPolyline
 62
7
  6
CONTINUOUS
 90
31
 70
0
 10
81.598545418
 20
144.2778797868
 10
81.5629698889
 20
144.2721113971
 10
81.529401245
 20
144.2648250301
 10
81.4979099305
 20
144.2560275525
 10
81.46853033
 20
144.2457275433
 10
81.441272822
 20
144.2339324006
 10
81.4161716467
 20
144.2206510494
 10
81.3932469045
 20
144.205884535
 10
81.3725229905
 20
144.1896532705
 10
81.3540392697
 20
144.1720045211
 10
81.3378363529
 20
144.152962065
 10
81.3239139794
 20
144.1325476351
 10
81.3122472698
 20
144.1108201532
 10
81.3028691171
 20
144.0878240027
 10
81.2957811614
 20
144.0635783126
 10
81.2909098676
 20
144.0381096876
 10
81.2882668465
 20
144.011472443
 10
81.2878717118
 20
143.9836778449
 10
81.2896655701
 20
143.9546779415
 10
81.2936434231
 20
143.924514057
 10
81.2998451864
 20
143.8931950333
 10
81.3082877722
 20
143.8606017069
 10
81.3189716925
 20
143.8267442986
 10
81.3319425839
 20
143.7916405727
 10
81.3472968622
 20
143.7551586248
 10
81.3650476716
 20
143.7173025932
 10
81.3852415649
 20
143.6780838102
 10
81.4080380165
 20
143.6373618036
 10
81.4335183939
 20
143.5950887521
 10
81.461678914
 20
143.5513214866
 10
81.4925588288
 20
143.5060708012
  0
LINE
  5
5CD
100
AcDbEntity
  8
0
100
AcDbLine
 62
7
  6
CONTINUOUS
 10
81.6361301987
 20
144.2821283876
 11
81.598545418
 21
144.2778797868
  0
LINE
  5
5CE
100
AcDbEntity
  8
0
100
AcDbLine
 62
7
  6
CONTINUOUS
 10
101.7295132828
 20
157.489741948
 11
101.7226880045
 21
157.4900308413
  0
LINE
  5
5CF
100
AcDbEntity
  8
0
100
AcDbLine
 62
7
  6
CONTINUOUS
 10
101.7226880045
 20
157.4900308413
 11
101.7159676786
 21
157.4903459934
  0
LINE
  5
5D0
100
AcDbEntity
  8
0
100
AcDbLine
 62
7
  6
CONTINUOUS
 10
101.7159676786
 20
157.4903459934
 11
101.710997194
 21
157.4905994486
  0
LINE
  5
5D1
100
AcDbEntity
  8
0
100
AcDbLine
 62
7
  6
CONTINUOUS
 10
101.7093541152
 20
157.4906871503
 11
101.7044682063
 21
157.4909597401
  0
LWPOLYLINE
  5
5D2
100
AcDbEntity
  8
0
100
AcDbPolyline
 62
7
  6
CONTINUOUS
 90
12
 70
0
 10
101.6807104009
 20
157.5420593411
 10
101.7299152084
 20
157.5392496314
 10
101.7793129995
 20
157.5380043952
 10
101.8287546788
 20
157.5383273907
 10
101.8780910183
 20
157.5402176425
 10
101.927173108
 20
157.543669445
 10
101.9758528042
 20
157.5486723792
 10
102.0239831786
 20
157.5552113442
 10
102.0714189619
 20
157.5632666035
 10
102.1180169812
 20
157.5728138436
 10
102.1636366594
 20
157.5838242656
 10
102.208140234
 20
157.5962646235
  0
LINE
  5
5D3
100
AcDbEntity
  8
0
100
AcDbLine
 62
7
  6
CONTINUOUS
 10
101.7028545299
 20
157.4910537197
 11
101.6980621449
 21
157.4913446987
  0
LINE
  5
5D4
100
AcDbEntity
  8
0
100
AcDbLine
 62
7
  6
CONTINUOUS
 10
101.6964815641
 20
157.4914446375
 11
101.6917930648
 21
157.4917529932
  0
LINE
  5
5D5
100
AcDbEntity
  8
0
100
AcDbLine
 62
7
  6
CONTINUOUS
 10
101.6902490016
 20
157.4918585201
 11
101.6856763509
 21
157.4921829189
  0
LINE
  5
5D6
100
AcDbEntity
  8
0
100
AcDbLine
 62
7
  6
CONTINUOUS
 10
101.6841727859
 20
157.4922935503
 11
101.6797298972
 21
157.4926322593
  0
LINE
  5
5D7
100
AcDbEntity
  8
0
100
AcDbLine
 62
7
  6
CONTINUOUS
 10
101.6782725516
 20
157.4927472871
 11
101.673975359
 21
157.4930981035
  0
LINE
  5
5D8
100
AcDbEntity
  8
0
100
AcDbLine
 62
7
  6
CONTINUOUS
 10
101.6725679165
 20
157.4932168706
 11
101.6684157584
 21
157.4935787298
  0
LINE
  5
5D9
100
AcDbEntity
  8
0
100
AcDbLine
 62
7
  6
CONTINUOUS
 10
101.6670538918
 20
157.4937012402
 11
101.6630298025
 21
157.494074662
  0
LINE
  5
5DA
100
AcDbEntity
  8
0
100
AcDbLine
 62
7
  6
CONTINUOUS
 10
101.6617084661
 20
157.494201097
 11
101.6578023119
 21
157.4945863283
  0
LINE
  5
5DB
100
AcDbEntity
  8
0
100
AcDbLine
 62
7
  6
CONTINUOUS
 10
101.6578023119
 20
157.4945863283
 11
101.6540045435
 21
157.4949779582
  0
LINE
  5
5DC
100
AcDbEntity
  8
0
100
AcDbLine
 62
7
  6
CONTINUOUS
 10
101.6540045435
 20
157.4949779582
 11
101.6505009525
 21
157.4953550155
  0
LINE
  5
5DD
100
AcDbEntity
  8
0
100
AcDbLine
 62
7
  6
CONTINUOUS
 10
101.6505009525
 20
157.4953550155
 11
101.6471740842
 21
157.4957278803
  0
LINE
  5
5DE
100
AcDbEntity
  8
0
100
AcDbLine
 62
7
  6
CONTINUOUS
 10
101.6471740842
 20
157.4957278803
 11
101.6438536596
 21
157.4961153463
  0
LINE
  5
5DF
100
AcDbEntity
  8
0
100
AcDbLine
 62
7
  6
CONTINUOUS
 10
101.6438536596
 20
157.4961153463
 11
101.640417903
 21
157.4965335834
  0
LINE
  5
5E0
100
AcDbEntity
  8
0
100
AcDbLine
 62
7
  6
CONTINUOUS
 10
101.640417903
 20
157.4965335834
 11
101.6368126814
 21
157.4969931471
  0
LWPOLYLINE
  5
5E1
100
AcDbEntity
  8
0
100
AcDbPolyline
 62
7
  6
CONTINUOUS
 90
15
 70
0
 10
101.6266633059
 20
157.4984150296
 10
101.6788911765
 20
157.4915709297
 10
101.7280324874
 20
157.4866634594
 10
101.7773633173
 20
157.4832064714
 10
101.8267347251
 20
157.4812103916
 10
101.8759976483
 20
157.4806812525
 10
101.9250033518
 20
157.4816206521
 10
101.9736038752
 20
157.4840257289
 10
102.0216524849
 20
157.4878892215
 10
102.0690041101
 20
157.4931994651
 10
102.1155157786
 20
157.4999403941
 10
102.1610471003
 20
157.5080916273
 10
102.2054605659
 20
157.5176285735
 10
102.2486219664
 20
157.5285224682
 10
102.2736759344
 20
157.535641039
  0
LINE
  5
5E2
100
AcDbEntity
  8
0
100
AcDbLine
 62
7
  6
CONTINUOUS
 10
101.6343255327
 20
157.4973238803
 11
101.633101968
 21
157.4974911216
  0
LINE
  5
5E3
100
AcDbEntity
  8
0
100
AcDbLine
 62
7
  6
CONTINUOUS
 10
101.6318864294
 20
157.4976604866
 11
101.6306936255
 21
157.4978300565
  0
LINE
  5
5E4
100
AcDbEntity
  8
0
100
AcDbLine
 62
7
  6
CONTINUOUS
 10
101.629598032
 20
157.4979891575
 11
101.6285983955
 21
157.4981371676
  0
LWPOLYLINE
  5
5E5
100
AcDbEntity
  8
0
100
AcDbPolyline
 62
7
  6
CONTINUOUS
 90
4
 70
0
 10
101.5357334146
 20
157.5597670693
 10
101.583472759
 20
157.5523335649
 10
101.6318470903
 20
157.5464250445
 10
101.6807104009
 20
157.5420593411
  0
LINE
  5
5E6
100
AcDbEntity
  8
0
100
AcDbLine
 62
7
  6
CONTINUOUS
 10
201.9164137726
 20
100.8150769004
 11
202.4403959806
 21
99.9106412007
  0
LINE
  5
5E7
100
AcDbEntity
  8
0
100
AcDbLine
 62
7
  6
CONTINUOUS
 10
202.0587663068
 20
100.8987955451
 11
202.5827485173
 21
99.9943598412
  0
LWPOLYLINE
  5
5E8
100
AcDbEntity
  8
0
100
AcDbPolyline
 62
7
  6
CONTINUOUS
 90
16
 70
0
 10
202.4403965424
 20
99.9106415544
 10
202.4440960566
 20
99.9041819093
 10
202.45435773
 20
99.8854281657
 10
202.4639364617
 20
99.8666595766
 10
202.472766577
 20
99.8480524279
 10
202.4807649052
 20
99.829848214
 10
202.4879073189
 20
99.8122111192
 10
202.494186032
 20
99.7953046961
 10
202.4995782354
 20
99.7793567136
 10
202.5041041124
 20
99.7645231857
 10
202.507812252
 20
99.7509166545
 10
202.5107502116
 20
99.7386857141
 10
202.5129813144
 20
99.7279398019
 10
202.5145839967
 20
99.7187725674
 10
202.515645332
 20
99.7113026751
 10
202.5162225145
 20
99.7060910079
  0
LWPOLYLINE
  5
5E9
100
AcDbEntity
  8
0
100
AcDbPolyline
 62
7
  6
CONTINUOUS
 90
13
 70
0
 10
202.5827485173
 20
99.9943598412
 10
202.6131472719
 20
99.9394264882
 10
202.6411322591
 20
99.8840755927
 10
202.666703479
 20
99.8283071547
 10
202.6899408878
 20
99.771896503
 10
202.7107645292
 20
99.7150683087
 10
202.7289345347
 20
99.6584965851
 10
202.7444263906
 20
99.6021718718
 10
202.7572646106
 20
99.5461036291
 10
202.7672828662
 20
99.4909942511
 10
202.7744257145
 20
99.4370778692
 10
202.7787485985
 20
99.384120352
 10
202.780251518
 20
99.3321216995
  0
LWPOLYLINE
  5
5EA
100
AcDbEntity
  8
0
100
AcDbPolyline
 62
7
  6
CONTINUOUS
 90
3
 70
0
 10
202.5415828204
 20
99.2603852954
 10
202.5313495364
 20
99.2883159573
 10
202.5237883027
 20
99.3165289657
  0
LWPOLYLINE
  5
5EB
100
AcDbEntity
  8
0
100
AcDbPolyline
 62
7
  6
CONTINUOUS
 90
13
 70
0
 10
197.8317795896
 20
102.8601513843
 10
197.8312005834
 20
102.8624734382
 10
197.8310352147
 20
102.8648177497
 10
197.8312823383
 20
102.8671735108
 10
197.8319417787
 20
102.8695311613
 10
197.8330096864
 20
102.8718802243
 10
197.8344785403
 20
102.8742093566
 10
197.8363475774
 20
102.8765108655
 10
197.83861011
 20
102.8787762266
 10
197.8412492687
 20
102.8809933829
 10
197.8442563108
 20
102.8831537296
 10
197.8476302536
 20
102.8852526797
 10
197.8513654553
 20
102.8872848139
  0
LINE
  5
5EC
100
AcDbEntity
  8
0
100
AcDbLine
 62
7
  6
CONTINUOUS
 10
202.5175791256
 20
99.2976014536
 11
202.5174965812
 21
99.2983925586
  0
LWPOLYLINE
  5
5ED
100
AcDbEntity
  8
0
100
AcDbPolyline
 62
7
  6
CONTINUOUS
 90
34
 70
0
 10
200.6298144558
 20
80.2621340628
 10
200.6166545477
 20
80.3895855511
 10
200.5986211117
 20
80.5201249135
 10
200.5757546051
 20
80.6534592892
 10
200.5481063282
 20
80.7892895467
 10
200.515738309
 20
80.9273109549
 10
200.4787231643
 20
81.0672138668
 10
200.4371439364
 20
81.2086844142
 10
200.3910939071
 20
81.3514052127
 10
200.340676388
 20
81.4950560732
 10
200.286004489
 20
81.6393147196
 10
200.2272008649
 20
81.7838575119
 10
200.1643974399
 20
81.9283601726
 10
200.0977351116
 20
82.0724985143
 10
200.0273634348
 20
82.2159491672
 10
199.9534402862
 20
82.3583903041
 10
199.8761315102
 20
82.4995023626
 10
199.7956105466
 20
82.6389687622
 10
199.7120580416
 20
82.7764766144
 10
199.6256614428
 20
82.9117174246
 10
199.5366145782
 20
83.0443877841
 10
199.4451172219
 20
83.1741900509
 10
199.3513746454
 20
83.3008330177
 10
199.2555971572
 20
83.424032565
 10
199.1579996315
 20
83.5435122979
 10
199.0588010256
 20
83.6590041672
 10
198.9582238883
 20
83.7702490709
 10
198.8564938605
 20
83.8769974351
 10
198.7538391701
 20
83.9790097737
 10
198.6504901201
 20
84.0760572245
 10
198.5466785715
 20
84.1679220642
 10
198.4426374224
 20
84.2543981968
 10
198.3386000857
 20
84.3352916159
 10
198.234799966
 20
84.4104208397
  0
LINE
  5
5EE
100
AcDbEntity
  8
0
100
AcDbLine
 62
7
  6
CONTINUOUS
 10
202.5174159207
 20
99.2991864206
 11
202.5173371865
 21
99.2999828102
  0
LINE
  5
5EF
100
AcDbEntity
  8
0
100
AcDbLine
 62
7
  6
CONTINUOUS
 10
202.5172603973
 20
99.300781722
 11
202.5171855715
 21
99.3015831549
  0
LWPOLYLINE
  5
5F0
100
AcDbEntity
  8
0
100
AcDbPolyline
 62
7
  6
CONTINUOUS
 90
3
 70
0
 10
202.5174461622
 20
99.2921253711
 10
202.5152204816
 20
99.3184360405
 10
202.5154639801
 20
99.3407668231
  0
LINE
  5
5F1
100
AcDbEntity
  8
0
100
AcDbLine
 62
7
  6
CONTINUOUS
 10
202.5169064775
 20
99.3048115993
 11
202.5168418667
 21
99.3056240472
  0
LWPOLYLINE
  5
5F2
100
AcDbEntity
  8
0
100
AcDbPolyline
 62
7
  6
CONTINUOUS
 90
4
 70
0
 10
202.5162225145
 20
99.7060910079
 10
202.5165612535
 20
99.7017326305
 10
202.5166434367
 20
99.6997985485
 10
202.5166476094
 20
99.699598655
  0
LINE
  5
5F3
100
AcDbEntity
  8
0
100
AcDbLine
 62
7
  6
CONTINUOUS
 10
202.5189219442
 20
99.344939167
 11
202.516765152
 21
99.3734608121
  0
LINE
  5
5F4
100
AcDbEntity
  8
0
100
AcDbLine
 62
7
  6
CONTINUOUS
 10
202.5167793581
 20
99.3064385586
 11
202.5167189826
 21
99.3072549195
  0
LINE
  5
5F5
100
AcDbEntity
  8
0
100
AcDbLine
 62
7
  6
CONTINUOUS
 10
202.5166607546
 20
99.3080731246
 11
202.5166046881
 21
99.3088931713
  0
LINE
  5
5F6
100
AcDbEntity
  8
0
100
AcDbLine
 62
7
  6
CONTINUOUS
 10
202.5165508107
 20
99.3097148501
 11
202.5164991349
 21
99.3105381557
  0
LINE
  5
5F7
100
AcDbEntity
  8
0
100
AcDbLine
 62
7
  6
CONTINUOUS
 10
202.5164496735
 20
99.3113630852
 11
202.5164024506
 21
99.3121894332
  0
LINE
  5
5F8
100
AcDbEntity
  8
0
100
AcDbLine
 62
7
  6
CONTINUOUS
 10
202.5163574774
 20
99.3130171943
 11
202.516314765
 21
99.3138463656
  0
LINE
  5
5F9
100
AcDbEntity
  8
0
100
AcDbLine
 62
7
  6
CONTINUOUS
 10
202.5162743342
 20
99.3146767451
 11
202.5162361948
 21
99.3155083277
  0
LINE
  5
5FA
100
AcDbEntity
  8
0
100
AcDbLine
 62
7
  6
CONTINUOUS
 10
202.5162003566
 20
99.3163411102
 11
202.5161668369
 21
99.3171748937
  0
LINE
  5
5FB
100
AcDbEntity
  8
0
100
AcDbLine
 62
7
  6
CONTINUOUS
 10
202.5161356442
 20
99.3180096735
 11
202.5161067867
 21
99.318845446
  0
LINE
  5
5FC
100
AcDbEntity
  8
0
100
AcDbLine
 62
7
  6
CONTINUOUS
 10
202.5160802787
 20
99.3196820154
 11
202.5160561271
 21
99.3205193769
  0
LWPOLYLINE
  5
5FD
100
AcDbEntity
  8
0
100
AcDbPolyline
 62
7
  6
CONTINUOUS
 90
14
 70
0
 10
197.8141485828
 20
103.5759671542
 10
197.8154810552
 20
103.5292100116
 10
197.8194728925
 20
103.4841873735
 10
197.8261073785
 20
103.4410877748
 10
197.8353567308
 20
103.4000916974
 10
197.8471822171
 20
103.3613708145
 10
197.8615343177
 20
103.3250872713
 10
197.8783529323
 20
103.2913930072
 10
197.8975676321
 20
103.2604291188
 10
197.9190979544
 20
103.2323252693
 10
197.9428537397
 20
103.207199145
 10
197.9687355094
 20
103.185155963
 10
197.9966348821
 20
103.1662880304
 10
198.0005229418
 20
103.1640039792
  0
LWPOLYLINE
  5
5FE
100
AcDbEntity
  8
0
100
AcDbPolyline
 62
7
  6
CONTINUOUS
 90
14
 70
0
 10
198.8379040248
 20
102.9848635926
 10
198.8392364899
 20
102.9381065856
 10
198.8432283108
 20
102.8930840157
 10
198.8498627819
 20
102.8499844238
 10
198.8591121362
 20
102.8089882791
 10
198.8709376487
 20
102.7702672866
 10
198.8852897851
 20
102.7339836557
 10
198.9021084336
 20
102.7002893416
 10
198.9213231699
 20
102.6693254204
 10
198.9428535293
 20
102.641221553
 10
198.9666093505
 20
102.6160954241
 10
198.9924911527
 20
102.5940522489
 10
199.0203905536
 20
102.5751843317
 10
199.0242783884
 20
102.5729004149
  0
LWPOLYLINE
  5
5FF
100
AcDbEntity
  8
0
100
AcDbPolyline
 62
7
  6
CONTINUOUS
 90
14
 70
0
 10
200.559222131
 20
101.9909960913
 10
200.5605545865
 20
101.9442392309
 10
200.5645463829
 20
101.8992167819
 10
200.5711808172
 20
101.8561172855
 10
200.5804301252
 20
101.8151212113
 10
200.5922555847
 20
101.7764002653
 10
200.6066076639
 20
101.7401166589
 10
200.6234262537
 20
101.7064223488
 10
200.6426409324
 20
101.6754584132
 10
200.6641712377
 20
101.6473545162
 10
200.6879270104
 20
101.6222283447
 10
200.7138087721
 20
101.6001851167
 10
200.7417081415
 20
101.58131714
 10
200.7455964862
 20
101.5790329185
  0
LWPOLYLINE
  5
600
100
AcDbEntity
  8
0
100
AcDbPolyline
 62
7
  6
CONTINUOUS
 90
14
 70
0
 10
201.582977573
 20
101.3998925298
 10
201.5843100453
 20
101.3531353885
 10
201.5883018824
 20
101.3081127515
 10
201.5949363681
 20
101.2650131536
 10
201.60418572
 20
101.2240170768
 10
201.6160112058
 20
101.1852961943
 10
201.6303633059
 20
101.1490126514
 10
201.64718192
 20
101.1153183873
 10
201.6663966193
 20
101.0843544988
 10
201.687926941
 20
101.056250649
 10
201.7116827259
 20
101.0311245243
 10
201.7375644953
 20
101.0090813419
 10
201.7654638677
 20
100.9902134087
 10
201.7693453727
 20
100.9879331421
  0
LWPOLYLINE
  5
601
100
AcDbEntity
  8
0
100
AcDbPolyline
 62
7
  6
CONTINUOUS
 90
13
 70
0
 10
199.5319822353
 20
101.9239918442
 10
199.5332858518
 20
101.8777349106
 10
199.5371916635
 20
101.8331703608
 10
199.5436841141
 20
101.7904810993
 10
199.5527371714
 20
101.7498419041
 10
199.5643141054
 20
101.7114202436
 10
199.5783673226
 20
101.6753753021
 10
199.5948391481
 20
101.6418553731
 10
199.613662364
 20
101.6109975549
 10
199.6347599377
 20
101.5829285182
 10
199.6580462719
 20
101.5577627587
 10
199.6834253992
 20
101.5356045448
 10
199.7107907229
 20
101.5165465478
  0
LWPOLYLINE
  5
602
100
AcDbEntity
  8
0
100
AcDbPolyline
 62
7
  6
CONTINUOUS
 90
14
 70
0
 10
199.8651439205
 20
101.7316284627
 10
199.8664475386
 20
101.685371526
 10
199.8703533516
 20
101.6408069748
 10
199.8768458031
 20
101.5981177133
 10
199.8858988603
 20
101.5574785199
 10
199.8974757933
 20
101.5190568622
 10
199.9115290092
 20
101.483011923
 10
199.9280008334
 20
101.4494919954
 10
199.9468240479
 20
101.4186341782
 10
199.9679216203
 20
101.3905651419
 10
199.9912079532
 20
101.3653993823
 10
200.0165870794
 20
101.3432411679
 10
200.0439524023
 20
101.32418317
 10
200.0514982987
 20
101.3196768298
  0
LINE
  5
603
100
AcDbEntity
  8
0
100
AcDbLine
 62
7
  6
CONTINUOUS
 10
202.5160343388
 20
99.321357527
 11
202.5160149249
 21
99.3221962722
  0
LINE
  5
604
100
AcDbEntity
  8
0
100
AcDbLine
 62
7
  6
CONTINUOUS
 10
202.5159978894
 20
99.3230356834
 11
202.5159832397
 21
99.3238756816
  0
LINE
  5
605
100
AcDbEntity
  8
0
100
AcDbLine
 62
7
  6
CONTINUOUS
 10
202.516765152
 20
99.3734608121
 11
202.5166476212
 21
99.3818508845
  0
LINE
  5
606
100
AcDbEntity
  8
0
100
AcDbLine
 62
7
  6
CONTINUOUS
 10
202.5159709868
 20
99.3247158488
 11
202.5159611325
 21
99.3255561978
  0
LINE
  5
607
100
AcDbEntity
  8
0
100
AcDbLine
 62
7
  6
CONTINUOUS
 10
202.5159536794
 20
99.3263967087
 11
202.5159486316
 21
99.3272369163
  0
LINE
  5
608
100
AcDbEntity
  8
0
100
AcDbLine
 62
7
  6
CONTINUOUS
 10
202.5159459878
 20
99.3280766449
 11
202.515945745
 21
99.3289160647
  0
LINE
  5
609
100
AcDbEntity
  8
0
100
AcDbLine
 62
7
  6
CONTINUOUS
 10
200.6298144558
 20
47.0705665332
 11
200.6298144558
 21
80.2621340628
  0
LINE
  5
60A
100
AcDbEntity
  8
0
100
AcDbLine
 62
7
  6
CONTINUOUS
 10
202.5166476211
 20
99.6995688335
 11
202.5166476211
 21
99.3818586108
  0
LWPOLYLINE
  5
60B
100
AcDbEntity
  8
0
100
AcDbPolyline
 62
7
  6
CONTINUOUS
 90
10
 70
0
 10
202.780251518
 20
99.3321216995
 10
202.7802409087
 20
99.0104615084
 10
202.7802088134
 20
99.0064873198
 10
202.7801551281
 20
99.0024891128
 10
202.7800797366
 20
98.9984670775
 10
202.7799825518
 20
98.994421427
 10
202.7798635176
 20
98.9903523985
 10
202.7797225522
 20
98.986260212
 10
202.7795595474
 20
98.9821450696
 10
202.7793744105
 20
98.9780071869
  0
LINE
  5
60C
100
AcDbEntity
  8
0
100
AcDbLine
 62
7
  6
CONTINUOUS
 10
202.5159479018
 20
99.3297552298
 11
202.5159524573
 21
99.3305941326
  0
LWPOLYLINE
  5
60D
100
AcDbEntity
  8
0
100
AcDbPolyline
 62
7
  6
CONTINUOUS
 90
5
 70
0
 10
202.5166483453
 20
99.3818508845
 10
202.5165915832
 20
99.3731730114
 10
202.5163496325
 20
99.3616877028
 10
202.5159003067
 20
99.3495336652
 10
202.5154651001
 20
99.3408542135
  0
LINE
  5
60E
100
AcDbEntity
  8
0
100
AcDbLine
 62
7
  6
CONTINUOUS
 10
202.5159805093
 20
99.333109474
 11
202.5159946546
 21
99.3339475247
  0
LINE
  5
60F
100
AcDbEntity
  8
0
100
AcDbLine
 62
7
  6
CONTINUOUS
 10
202.5160111984
 20
99.3347854452
 11
202.5160301413
 21
99.3356232311
  0
LINE
  5
610
100
AcDbEntity
  8
0
100
AcDbLine
 62
7
  6
CONTINUOUS
 10
202.5160514838
 20
99.3364608798
 11
202.5160752289
 21
99.3372984633
  0
LWPOLYLINE
  5
611
100
AcDbEntity
  8
0
100
AcDbPolyline
 62
7
  6
CONTINUOUS
 90
13
 70
0
 10
196.6168746378
 20
102.8907782649
 10
196.6183775575
 20
102.9410413818
 10
196.6227004416
 20
102.98900694
 10
196.62984329
 20
103.0346749394
 10
196.6398615455
 20
103.0782154879
 10
196.6526997654
 20
103.1194584777
 10
196.6681916212
 20
103.1578935853
 10
196.6863616264
 20
103.1934830426
 10
196.7071852675
 20
103.2262646177
 10
196.7304226761
 20
103.2558412921
 10
196.7559938961
 20
103.2820807261
 10
196.7839788835
 20
103.3051152594
 10
196.8143776385
 20
103.324944892
  0
LINE
  5
612
100
AcDbEntity
  8
0
100
AcDbLine
 62
7
  6
CONTINUOUS
 10
202.5161013779
 20
99.3381359765
 11
202.516129932
 21
99.3389734172
  0
LINE
  5
613
100
AcDbEntity
  8
0
100
AcDbLine
 62
7
  6
CONTINUOUS
 10
202.5161608959
 20
99.3398108608
 11
202.5161942716
 21
99.3406483026
  0
LINE
  5
614
100
AcDbEntity
  8
0
100
AcDbLine
 62
7
  6
CONTINUOUS
 10
202.5162300613
 20
99.3414857396
 11
202.5162682712
 21
99.3423232492
  0
LINE
  5
615
100
AcDbEntity
  8
0
100
AcDbLine
 62
7
  6
CONTINUOUS
 10
202.5154639801
 20
99.3407668231
 11
202.5154687945
 21
99.3408540119
  0
LINE
  5
616
100
AcDbEntity
  8
0
100
AcDbLine
 62
7
  6
CONTINUOUS
 10
202.5163974557
 20
99.3448362527
 11
202.516445386
 21
99.3456741751
  0
LWPOLYLINE
  5
617
100
AcDbEntity
  8
0
100
AcDbPolyline
 62
7
  6
CONTINUOUS
 90
10
 70
0
 10
197.8287273981
 20
102.4519266498
 10
197.8293690135
 20
102.4621549103
 10
197.8299347274
 20
102.4723405457
 10
197.8304245396
 20
102.4824835561
 10
197.8308380756
 20
102.4925841385
 10
197.8311757101
 20
102.5026420957
 10
197.8314385663
 20
102.5126568363
 10
197.8316270189
 20
102.522628163
 10
197.8317406933
 20
102.5325562729
 10
197.8317795896
 20
102.8601513843
  0
LWPOLYLINE
  5
618
100
AcDbEntity
  8
0
100
AcDbPolyline
 62
7
  6
CONTINUOUS
 90
4
 70
0
 10
202.5154687945
 20
99.3408540119
 10
202.5157086833
 20
99.3446640572
 10
202.518909296
 20
99.3707302801
 10
202.5192294664
 20
99.3721309451
  0
LINE
  5
619
100
AcDbEntity
  8
0
100
AcDbLine
 62
7
  6
CONTINUOUS
 10
202.5164957576
 20
99.3465122316
 11
202.51654858
 21
99.347350502
  0
LINE
  5
61A
100
AcDbEntity
  8
0
100
AcDbLine
 62
7
  6
CONTINUOUS
 10
202.5166038577
 20
99.3481889809
 11
202.5166615954
 21
99.3490276643
  0
LWPOLYLINE
  5
61B
100
AcDbEntity
  8
0
100
AcDbPolyline
 62
7
  6
CONTINUOUS
 90
10
 70
0
 10
196.6155064316
 20
102.5369473065
 10
196.6157946344
 20
102.5410256806
 10
196.6160485602
 20
102.5450883266
 10
196.6162683012
 20
102.549135029
 10
196.616453939
 20
102.5531656011
 10
196.6166055823
 20
102.5571798073
 10
196.6167233682
 20
102.5611773643
 10
196.6168074108
 20
102.5651580434
 10
196.6168577993
 20
102.56912167
 10
196.6168746378
 20
102.8907782649
  0
LINE
  5
61C
100
AcDbEntity
  8
0
100
AcDbLine
 62
7
  6
CONTINUOUS
 10
202.5167218042
 20
99.3498666328
 11
202.5167844894
 21
99.350705881
  0
LINE
  5
61D
100
AcDbEntity
  8
0
100
AcDbLine
 62
7
  6
CONTINUOUS
 10
202.5168496567
 20
99.3515454044
 11
202.5169173187
 21
99.3523852845
  0
LINE
  5
61E
100
AcDbEntity
  8
0
100
AcDbLine
 62
7
  6
CONTINUOUS
 10
202.5169874817
 20
99.3532255157
 11
202.5170601521
 21
99.354066093
  0
LINE
  5
61F
100
AcDbEntity
  8
0
100
AcDbLine
 62
7
  6
CONTINUOUS
 10
202.5171353443
 20
99.354907099
 11
202.5172130655
 21
99.3557485275
  0
LWPOLYLINE
  5
620
100
AcDbEntity
  8
0
100
AcDbPolyline
 62
7
  6
CONTINUOUS
 90
25
 70
0
 10
199.8651439267
 20
101.7316284611
 10
199.8740707402
 20
101.772358788
 10
199.885220217
 20
101.8109417115
 10
199.898592357
 20
101.8473772315
 10
199.9142723828
 20
101.8818204368
 10
199.9321750719
 20
101.9141162388
 10
199.9520447567
 20
101.9437993708
 10
199.9738837363
 20
101.9707756422
 10
199.9976897115
 20
101.9951392437
 10
200.0232001171
 20
102.0167074813
 10
200.0503904648
 20
102.0354516021
 10
200.0792852429
 20
102.0514003591
 10
200.1096953507
 20
102.0644573165
 10
200.1416461778
 20
102.0746296063
 10
200.1751123347
 20
102.0819100964
 10
200.2098285524
 20
102.0861809553
 10
200.2458699932
 20
102.0874027548
 10
200.2831614947
 20
102.085614923
 10
200.3212123006
 20
102.0808179126
 10
200.3600535987
 20
102.0729321674
 10
200.3996542012
 20
102.0620372435
 10
200.4394297877
 20
102.0483722618
 10
200.4791855847
 20
102.0320169294
 10
200.5191163658
 20
102.0128915393
 10
200.559222131
 20
101.9909960913
  0
LWPOLYLINE
  5
621
100
AcDbEntity
  8
0
100
AcDbPolyline
 62
7
  6
CONTINUOUS
 90
13
 70
0
 10
202.0088156785
 20
98.9668086743
 10
202.0384597691
 20
99.0157534492
 10
202.0697964808
 20
99.0634351308
 10
202.1026990436
 20
99.1096607839
 10
202.1370343869
 20
99.1542434165
 10
202.1726635686
 20
99.1970025652
 10
202.2094423219
 20
99.2377650491
 10
202.2472217411
 20
99.2763658446
 10
202.2858490581
 20
99.3126488741
 10
202.325168151
 20
99.3464674518
 10
202.3650199937
 20
99.3776847499
 10
202.4052432899
 20
99.406174384
 10
202.445675292
 20
99.4318210464
  0
LWPOLYLINE
  5
622
100
AcDbEntity
  8
0
100
AcDbPolyline
 62
7
  6
CONTINUOUS
 90
22
 70
0
 10
212.3443517361
 20
92.5569725238
 10
212.3740923464
 20
92.5783753313
 10
212.4035001438
 20
92.6019993521
 10
212.4324284271
 20
92.6277267395
 10
212.4607328873
 20
92.6554291546
 10
212.4882723261
 20
92.6849684047
 10
212.5149093601
 20
92.7161971319
 10
212.5405111081
 20
92.7489595508
 10
212.5649498559
 20
92.7830922277
 10
212.5881036911
 20
92.8184248945
 10
212.6098571094
 20
92.8547812947
 10
212.6301015917
 20
92.8919800637
 10
212.6487361476
 20
92.9298356372
 10
212.6656678163
 20
92.9681591722
 10
212.6808121317
 20
93.0067594905
 10
212.6940935443
 20
93.0454440341
 10
212.7054457909
 20
93.0840198001
 10
212.7148122469
 20
93.1222943751
 10
212.7221461968
 20
93.160076893
 10
212.7274110437
 20
93.1971788918
 10
212.7305805047
 20
93.2334152563
 10
212.7316387547
 20
93.2686052111
  0
LINE
  5
623
100
AcDbEntity
  8
0
100
AcDbLine
 62
7
  6
CONTINUOUS
 10
200.6298144558
 20
80.2621340628
 11
214.7393662258
 21
88.408685747
  0
LINE
  5
624
100
AcDbEntity
  8
0
100
AcDbLine
 62
7
  6
CONTINUOUS
 10
223.2098635524
 20
89.6957782555
 11
222.9270208399
 21
89.5324684182
  0
LINE
  5
625
100
AcDbEntity
  8
0
100
AcDbLine
 62
7
  6
CONTINUOUS
 10
221.065978659
 20
89.3954661757
 11
222.1348628139
 21
89.9511598191
  0
LWPOLYLINE
  5
626
100
AcDbEntity
  8
0
100
AcDbPolyline
 62
7
  6
CONTINUOUS
 90
31
 70
0
 10
81.492557536
 20
143.5060727805
 10
81.36591093
 20
143.4737703482
 10
81.2370916051
 20
143.4444718123
 10
81.1063131754
 20
143.4182257566
 10
80.973792505
 20
143.3950757039
 10
80.8397493442
 20
143.3750600414
 10
80.7044059649
 20
143.3582119576
 10
80.5679867979
 20
143.3445593902
 10
80.4307180609
 20
143.334124979
 10
80.2928273788
 20
143.3269260268
 10
80.1545434081
 20
143.3229744714
 10
80.0160954571
 20
143.3222768653
 10
79.8777131064
 20
143.3248343654
 10
79.7396258275
 20
143.3306427309
 10
79.6020626029
 20
143.33969233
 10
79.4652515458
 20
143.3519681562
 10
79.3294195223
 20
143.3674498531
 10
79.1947917749
 20
143.3861117484
 10
79.0615915493
 20
143.4079228961
 10
78.9300397238
 20
143.4328471281
 10
78.8003544434
 20
143.4608431139
 10
78.6727507579
 20
143.4918644292
 10
78.5474402652
 20
143.5258596331
 10
78.4246307606
 20
143.5627723532
 10
78.3045258922
 20
143.6025413793
 10
78.1873248193
 20
143.6451007668
 10
78.0732218938
 20
143.6903799397
 10
77.9624063366
 20
143.7383038074
 10
77.8550619092
 20
143.7887928971
 10
77.7513666101
 20
143.8417634871
 10
77.6514923901
 20
143.8971277388
  0
LINE
  5
627
100
AcDbEntity
  8
0
100
AcDbLine
 62
7
  6
CONTINUOUS
 10
102.088122117
 20
157.5032202932
 11
102.0779760532
 21
157.5021818059
  0
LINE
  5
628
100
AcDbEntity
  8
0
100
AcDbLine
 62
7
  6
CONTINUOUS
 10
102.0779760532
 20
157.5021818059
 11
102.0651923174
 21
157.50093798
  0
LINE
  5
629
100
AcDbEntity
  8
0
100
AcDbLine
 62
7
  6
CONTINUOUS
 10
102.0651923174
 20
157.50093798
 11
102.0523409214
 21
157.499756325
  0
LINE
  5
62A
100
AcDbEntity
  8
0
100
AcDbLine
 62
7
  6
CONTINUOUS
 10
102.0523409214
 20
157.499756325
 11
102.0394720641
 21
157.4986385388
  0
LWPOLYLINE
  5
62B
100
AcDbEntity
  8
0
100
AcDbPolyline
 62
7
  6
CONTINUOUS
 90
3
 70
0
 10
105.2432332226
 20
156.5968280689
 10
105.2983430404
 20
156.6014995649
 10
105.3522406256
 20
156.6085751909
  0
LINE
  5
62C
100
AcDbEntity
  8
0
100
AcDbLine
 62
7
  6
CONTINUOUS
 10
102.0394720641
 20
157.4986385388
 11
102.0266370774
 21
157.4975859389
  0
LINE
  5
62D
100
AcDbEntity
  8
0
100
AcDbLine
 62
7
  6
CONTINUOUS
 10
102.0266370774
 20
157.4975859389
 11
102.013887279
 21
157.4965994153
  0
LINE
  5
62E
100
AcDbEntity
  8
0
100
AcDbLine
 62
7
  6
CONTINUOUS
 10
102.013887279
 20
157.4965994153
 11
101.9987714878
 21
157.4955034431
  0
LINE
  5
62F
100
AcDbEntity
  8
0
100
AcDbLine
 62
7
  6
CONTINUOUS
 10
101.9987714878
 20
157.4955034431
 11
101.9838876166
 21
157.4945000617
  0
LINE
  5
630
100
AcDbEntity
  8
0
100
AcDbLine
 62
7
  6
CONTINUOUS
 10
101.9838876166
 20
157.4945000617
 11
101.9692333348
 21
157.4935840077
  0
LINE
  5
631
100
AcDbEntity
  8
0
100
AcDbLine
 62
7
  6
CONTINUOUS
 10
101.9692333348
 20
157.4935840077
 11
101.9548044477
 21
157.4927507885
  0
LINE
  5
632
100
AcDbEntity
  8
0
100
AcDbLine
 62
7
  6
CONTINUOUS
 10
101.9548044477
 20
157.4927507885
 11
101.9405960274
 21
157.4919966379
  0
LINE
  5
633
100
AcDbEntity
  8
0
100
AcDbLine
 62
7
  6
CONTINUOUS
 10
101.9405960274
 20
157.4919966379
 11
101.9266026417
 21
157.4913184232
  0
LINE
  5
634
100
AcDbEntity
  8
0
100
AcDbLine
 62
7
  6
CONTINUOUS
 10
101.9266026417
 20
157.4913184232
 11
101.9128185176
 21
157.4907135647
  0
LINE
  5
635
100
AcDbEntity
  8
0
100
AcDbLine
 62
7
  6
CONTINUOUS
 10
101.9128185176
 20
157.4907135647
 11
101.8992376585
 21
157.4901799674
  0
LINE
  5
636
100
AcDbEntity
  8
0
100
AcDbLine
 62
7
  6
CONTINUOUS
 10
101.8992376585
 20
157.4901799674
 11
101.8858539341
 21
157.4897159641
  0
LINE
  5
637
100
AcDbEntity
  8
0
100
AcDbLine
 62
7
  6
CONTINUOUS
 10
101.8858539341
 20
157.4897159641
 11
101.8726611502
 21
157.4893202686
  0
LINE
  5
638
100
AcDbEntity
  8
0
100
AcDbLine
 62
7
  6
CONTINUOUS
 10
101.8726611502
 20
157.4893202686
 11
101.8596543146
 21
157.4889919642
  0
LINE
  5
639
100
AcDbEntity
  8
0
100
AcDbLine
 62
7
  6
CONTINUOUS
 10
101.8596543146
 20
157.4889919642
 11
101.846838642
 21
157.4887306046
  0
LWPOLYLINE
  5
63A
100
AcDbEntity
  8
0
100
AcDbPolyline
 62
7
  6
CONTINUOUS
 90
11
 70
0
 10
102.1145148359
 20
157.361775649
 10
102.110596456
 20
157.3617097322
 10
102.1086560219
 20
157.3627987146
 10
102.1086979988
 20
157.3650489195
 10
102.1106412811
 20
157.3684075182
 10
102.1145781525
 20
157.3729367758
 10
102.1207755472
 20
157.3788201088
 10
102.1293857853
 20
157.3861465754
 10
102.1402778608
 20
157.3948431275
 10
102.1532984916
 20
157.4048557075
 10
102.1688455306
 20
157.416412664
  0
LINE
  5
63B
100
AcDbEntity
  8
0
100
AcDbLine
 62
7
  6
CONTINUOUS
 10
101.846838642
 20
157.4887306046
 11
101.8342242131
 21
157.4885358622
  0
LINE
  5
63C
100
AcDbEntity
  8
0
100
AcDbLine
 62
7
  6
CONTINUOUS
 10
101.8342242131
 20
157.4885358622
 11
101.8218211898
 21
157.4884073335
  0
LINE
  5
63D
100
AcDbEntity
  8
0
100
AcDbLine
 62
7
  6
CONTINUOUS
 10
101.8218211898
 20
157.4884073335
 11
101.8116542484
 21
157.4883504359
  0
LINE
  5
63E
100
AcDbEntity
  8
0
100
AcDbLine
 62
7
  6
CONTINUOUS
 10
101.8116542484
 20
157.4883504359
 11
101.8016473958
 21
157.4883387814
  0
LINE
  5
63F
100
AcDbEntity
  8
0
100
AcDbLine
 62
7
  6
CONTINUOUS
 10
101.8016473958
 20
157.4883387814
 11
101.7918094917
 21
157.4883718879
  0
LINE
  5
640
100
AcDbEntity
  8
0
100
AcDbLine
 62
7
  6
CONTINUOUS
 10
101.7918094917
 20
157.4883718879
 11
101.7821508889
 21
157.4884491424
  0
LINE
  5
641
100
AcDbEntity
  8
0
100
AcDbLine
 62
7
  6
CONTINUOUS
 10
101.7821508889
 20
157.4884491424
 11
101.7726698385
 21
157.4885699445
  0
LINE
  5
642
100
AcDbEntity
  8
0
100
AcDbLine
 62
7
  6
CONTINUOUS
 10
101.7726698385
 20
157.4885699445
 11
101.7633619842
 21
157.4887337847
  0
LINE
  5
643
100
AcDbEntity
  8
0
100
AcDbLine
 62
7
  6
CONTINUOUS
 10
101.7633619842
 20
157.4887337847
 11
101.7542234453
 21
157.488940232
  0
LINE
  5
644
100
AcDbEntity
  8
0
100
AcDbLine
 62
7
  6
CONTINUOUS
 10
101.7542234453
 20
157.488940232
 11
101.7452511076
 21
157.4891889165
  0
LINE
  5
645
100
AcDbEntity
  8
0
100
AcDbLine
 62
7
  6
CONTINUOUS
 10
101.7452511076
 20
157.4891889165
 11
101.7364427361
 21
157.4894795095
  0
LINE
  5
646
100
AcDbEntity
  8
0
100
AcDbLine
 62
7
  6
CONTINUOUS
 10
101.7364427361
 20
157.4894795095
 11
101.7295132828
 21
157.489741948
  0
LINE
  5
647
100
AcDbEntity
  8
0
100
AcDbLine
 62
7
  6
CONTINUOUS
 10
202.5299792995
 20
99.2396462163
 11
202.5299584833
 21
99.2397070637
  0
LINE
  5
648
100
AcDbEntity
  8
0
100
AcDbLine
 62
7
  6
CONTINUOUS
 10
202.5297806461
 20
99.2402297473
 11
202.5296221401
 21
99.2406999032
  0
LINE
  5
649
100
AcDbEntity
  8
0
100
AcDbLine
 62
7
  6
CONTINUOUS
 10
202.5294737064
 20
99.241143835
 11
202.529335918
 21
99.241559086
  0
LINE
  5
64A
100
AcDbEntity
  8
0
100
AcDbLine
 62
7
  6
CONTINUOUS
 10
202.5290972177
 20
99.2422856664
 11
202.5289838665
 21
99.2426339143
  0
LINE
  5
64B
100
AcDbEntity
  8
0
100
AcDbLine
 62
7
  6
CONTINUOUS
 10
202.5287618766
 20
99.2433219834
 11
202.5286416808
 21
99.2436979069
  0
LINE
  5
64C
100
AcDbEntity
  8
0
100
AcDbLine
 62
7
  6
CONTINUOUS
 10
202.5283615446
 20
99.244583367
 11
202.5282149089
 21
99.2450521173
  0
LINE
  5
64D
100
AcDbEntity
  8
0
100
AcDbLine
 62
7
  6
CONTINUOUS
 10
202.5280677939
 20
99.2455260865
 11
202.5279187261
 21
99.2460101598
  0
LINE
  5
64E
100
AcDbEntity
  8
0
100
AcDbLine
 62
7
  6
CONTINUOUS
 10
202.5277700367
 20
99.2464968776
 11
202.5276223643
 21
99.246984147
  0
LINE
  5
64F
100
AcDbEntity
  8
0
100
AcDbLine
 62
7
  6
CONTINUOUS
 10
202.5274750265
 20
99.2474742219
 11
202.5273283082
 21
99.2479661737
  0
LWPOLYLINE
  5
650
100
AcDbEntity
  8
0
100
AcDbPolyline
 62
7
  6
CONTINUOUS
 90
3
 70
0
 10
202.5299792995
 20
99.2396462163
 10
202.5223790027
 20
99.265811441
 10
202.5174461622
 20
99.2921253711
  0
LINE
  5
651
100
AcDbEntity
  8
0
100
AcDbLine
 62
7
  6
CONTINUOUS
 10
202.5266052746
 20
99.2504500365
 11
202.5264625541
 21
99.2509524742
  0
LINE
  5
652
100
AcDbEntity
  8
0
100
AcDbLine
 62
7
  6
CONTINUOUS
 10
202.5261778461
 20
99.2519672685
 11
202.5260355881
 21
99.2524806876
  0
LINE
  5
653
100
AcDbEntity
  8
0
100
AcDbLine
 62
7
  6
CONTINUOUS
 10
202.5257505914
 20
99.2535223553
 11
202.5256083018
 21
99.2540491107
  0
LINE
  5
654
100
AcDbEntity
  8
0
100
AcDbLine
 62
7
  6
CONTINUOUS
 10
202.5253244754
 20
99.2551135253
 11
202.525183061
 21
99.2556508372
  0
LINE
  5
655
100
AcDbEntity
  8
0
100
AcDbLine
 62
7
  6
CONTINUOUS
 10
202.5249014553
 20
99.2567350789
 11
202.5247613068
 21
99.2572819473
  0
LINE
  5
656
100
AcDbEntity
  8
0
100
AcDbLine
 62
7
  6
CONTINUOUS
 10
202.5244825219
 20
99.2583846421
 11
202.5243437372
 21
99.2589411688
  0
LINE
  5
657
100
AcDbEntity
  8
0
100
AcDbLine
 62
7
  6
CONTINUOUS
 10
202.5240672754
 20
99.2600653604
 11
202.5239296405
 21
99.2606330028
  0
LINE
  5
658
100
AcDbEntity
  8
0
100
AcDbLine
 62
7
  6
CONTINUOUS
 10
202.5237924139
 20
99.2612044008
 11
202.5236556137
 21
99.2617795584
  0
LINE
  5
659
100
AcDbEntity
  8
0
100
AcDbLine
 62
7
  6
CONTINUOUS
 10
202.5235192534
 20
99.2623585015
 11
202.523383356
 21
99.2629412158
  0
LINE
  5
65A
100
AcDbEntity
  8
0
100
AcDbLine
 62
7
  6
CONTINUOUS
 10
202.523247931
 20
99.2635277456
 11
202.5231129741
 21
99.264118199
  0
LINE
  5
65B
100
AcDbEntity
  8
0
100
AcDbLine
 62
7
  6
CONTINUOUS
 10
202.5229785093
 20
99.2647125637
 11
202.5228445496
 21
99.2653108767
  0
LINE
  5
65C
100
AcDbEntity
  8
0
100
AcDbLine
 62
7
  6
CONTINUOUS
 10
202.5227110774
 20
99.2659133159
 11
202.5225781183
 21
99.2665198698
  0
LINE
  5
65D
100
AcDbEntity
  8
0
100
AcDbLine
 62
7
  6
CONTINUOUS
 10
202.5224456887
 20
99.26713057
 11
202.5223137608
 21
99.2677456562
  0
LINE
  5
65E
100
AcDbEntity
  8
0
100
AcDbLine
 62
7
  6
CONTINUOUS
 10
202.5221823627
 20
99.2683651167
 11
202.5220515139
 21
99.2689889794
  0
LINE
  5
65F
100
AcDbEntity
  8
0
100
AcDbLine
 62
7
  6
CONTINUOUS
 10
202.5219211793
 20
99.2696175401
 11
202.521791385
 21
99.270250809
  0
LINE
  5
660
100
AcDbEntity
  8
0
100
AcDbLine
 62
7
  6
CONTINUOUS
 10
202.5216621588
 20
99.2708887887
 11
202.521533473
 21
99.2715317625
  0
LINE
  5
661
100
AcDbEntity
  8
0
100
AcDbLine
 62
7
  6
CONTINUOUS
 10
202.5214053304
 20
99.2721798733
 11
202.5212777888
 21
99.2728329878
  0
LINE
  5
662
100
AcDbEntity
  8
0
100
AcDbLine
 62
7
  6
CONTINUOUS
 10
202.5206506497
 20
99.2761711538
 11
202.5205276184
 21
99.2768529276
  0
LINE
  5
663
100
AcDbEntity
  8
0
100
AcDbLine
 62
7
  6
CONTINUOUS
 10
202.5204054944
 20
99.2775391997
 11
202.5202843074
 21
99.2782299661
  0
LINE
  5
664
100
AcDbEntity
  8
0
100
AcDbLine
 62
7
  6
CONTINUOUS
 10
202.5237883027
 20
99.3165289657
 11
202.5189219442
 21
99.344939167
  0
LINE
  5
665
100
AcDbEntity
  8
0
100
AcDbLine
 62
7
  6
CONTINUOUS
 10
202.5201640849
 20
99.2789252353
 11
202.5200448834
 21
99.2796248472
  0
LINE
  5
666
100
AcDbEntity
  8
0
100
AcDbLine
 62
7
  6
CONTINUOUS
 10
202.519926732
 20
99.2803287975
 11
202.5198096579
 21
99.2810370934
  0
LINE
  5
667
100
AcDbEntity
  8
0
100
AcDbLine
 62
7
  6
CONTINUOUS
 10
202.5196937129
 20
99.281749592
 11
202.5195789255
 21
99.2824662885
  0
LINE
  5
668
100
AcDbEntity
  8
0
100
AcDbLine
 62
7
  6
CONTINUOUS
 10
202.5194653227
 20
99.2831871892
 11
202.5193529522
 21
99.2839121671
  0
LINE
  5
669
100
AcDbEntity
  8
0
100
AcDbLine
 62
7
  6
CONTINUOUS
 10
199.278816224
 20
102.1547669312
 11
199.2788088662
 21
102.1548148302
  0
LINE
  5
66A
100
AcDbEntity
  8
0
100
AcDbLine
 62
7
  6
CONTINUOUS
 10
202.519241842
 20
99.2846412171
 11
202.5191320189
 21
99.2853743443
  0
LINE
  5
66B
100
AcDbEntity
  8
0
100
AcDbLine
 62
7
  6
CONTINUOUS
 10
202.519023527
 20
99.2861114365
 11
202.518916389
 21
99.2868525232
  0
LINE
  5
66C
100
AcDbEntity
  8
0
100
AcDbLine
 62
7
  6
CONTINUOUS
 10
202.5188106366
 20
99.2875975733
 11
202.5187063254
 21
99.2883463833
  0
LINE
  5
66D
100
AcDbEntity
  8
0
100
AcDbLine
 62
7
  6
CONTINUOUS
 10
202.5186034791
 20
99.289098969
 11
202.5185021263
 21
99.2898553118
  0
LINE
  5
66E
100
AcDbEntity
  8
0
100
AcDbLine
 62
7
  6
CONTINUOUS
 10
202.5184023264
 20
99.2906151566
 11
202.5183041042
 21
99.2913784994
  0
LINE
  5
66F
100
AcDbEntity
  8
0
100
AcDbLine
 62
7
  6
CONTINUOUS
 10
202.5182074843
 20
99.2921453406
 11
202.5181125214
 21
99.2929154319
  0
LINE
  5
670
100
AcDbEntity
  8
0
100
AcDbLine
 62
7
  6
CONTINUOUS
 10
202.5180192391
 20
99.2936887688
 11
202.5179276601
 21
99.2944653512
  0
LWPOLYLINE
  5
671
100
AcDbEntity
  8
0
100
AcDbPolyline
 62
7
  6
CONTINUOUS
 90
3
 70
0
 10
202.5178378351
 20
99.2952449375
 10
202.5177497859
 20
99.2960275228
 10
202.5176635339
 20
99.2968131067
  0
LWPOLYLINE
  5
672
100
AcDbEntity
  8
0
100
AcDbPolyline
 62
7
  6
CONTINUOUS
 90
37
 70
0
 10
202.7793744105
 20
98.9780071869
 10
202.7780712004
 20
98.9647161521
 10
202.7752740161
 20
98.951822991
 10
202.7709740833
 20
98.9393332487
 10
202.7652262558
 20
98.9272422769
 10
202.757959747
 20
98.9155682791
 10
202.748972962
 20
98.9043505101
 10
202.7382529846
 20
98.8935387196
 10
202.7257854988
 20
98.8831977822
 10
202.711367863
 20
98.8735409613
 10
202.6949318419
 20
98.8645791564
 10
202.6765319702
 20
98.8563250646
 10
202.656167193
 20
98.848998689
 10
202.633733861
 20
98.8426194996
 10
202.6093462859
 20
98.8371970438
 10
202.5833623221
 20
98.8329379802
 10
202.5556507382
 20
98.8299038423
 10
202.5263928389
 20
98.8280571186
 10
202.496457756
 20
98.8274507006
 10
202.4659253207
 20
98.8281623304
 10
202.4348041282
 20
98.8301180038
 10
202.4038840136
 20
98.8331339662
 10
202.3733892414
 20
98.8372129429
 10
202.3431775582
 20
98.8423382969
 10
202.3134890511
 20
98.848293566
 10
202.2843857253
 20
98.8550690312
 10
202.2558575316
 20
98.8626580387
 10
202.2280266512
 20
98.8708503838
 10
202.2009268073
 20
98.8796237468
 10
202.1745540839
 20
98.8889875953
 10
202.1489667846
 20
98.8987819361
 10
202.1243212702
 20
98.9089244846
 10
202.1004766708
 20
98.9194895185
 10
202.0770406993
 20
98.9305540849
 10
202.0538841669
 20
98.9421429578
 10
202.0311420135
 20
98.9542281002
 10
202.0088156785
 20
98.9668086743
  0
LINE
  5
673
100
AcDbEntity
  8
0
100
AcDbLine
 62
7
  6
CONTINUOUS
 10
202.517293323
 20
99.3565903733
 11
202.5173761329
 21
99.3574327196
  0
LINE
  5
674
100
AcDbEntity
  8
0
100
AcDbLine
 62
7
  6
CONTINUOUS
 10
202.5174615033
 20
99.3582755601
 11
202.5175494422
 21
99.3591188891
  0
LINE
  5
675
100
AcDbEntity
  8
0
100
AcDbLine
 62
7
  6
CONTINUOUS
 10
202.5176399677
 20
99.3599627907
 11
202.5177330887
 21
99.3608072581
  0
LINE
  5
676
100
AcDbEntity
  8
0
100
AcDbLine
 62
7
  6
CONTINUOUS
 10
202.5178288141
 20
99.3616522855
 11
202.5179271639
 21
99.3624979575
  0
LINE
  5
677
100
AcDbEntity
  8
0
100
AcDbLine
 62
7
  6
CONTINUOUS
 10
202.518238069
 20
99.3650388659
 11
202.518347039
 21
99.3658872333
  0
LINE
  5
678
100
AcDbEntity
  8
0
100
AcDbLine
 62
7
  6
CONTINUOUS
 10
202.5184586962
 20
99.3667363037
 11
202.5185730644
 21
99.3675861639
  0
LINE
  5
679
100
AcDbEntity
  8
0
100
AcDbLine
 62
7
  6
CONTINUOUS
 10
202.5186901551
 20
99.3684368058
 11
202.5188099802
 21
99.3692882228
  0
LINE
  5
67A
100
AcDbEntity
  8
0
100
AcDbLine
 62
7
  6
CONTINUOUS
 10
202.5189325654
 20
99.370140503
 11
202.5190579233
 21
99.370993638
  0
LINE
  5
67B
100
AcDbEntity
  8
0
100
AcDbLine
 62
7
  6
CONTINUOUS
 10
202.5191860668
 20
99.3718476207
 11
202.5192294664
 21
99.3721309451
  0
LINE
  5
67C
100
AcDbEntity
  8
0
100
AcDbLine
 62
7
  6
CONTINUOUS
 10
102.2664302009
 20
157.5335563256
 11
102.2629980481
 21
157.5326104444
  0
LINE
  5
67D
100
AcDbEntity
  8
0
100
AcDbLine
 62
7
  6
CONTINUOUS
 10
102.2629980481
 20
157.5326104444
 11
102.2595570705
 21
157.5316866445
  0
LINE
  5
67E
100
AcDbEntity
  8
0
100
AcDbLine
 62
7
  6
CONTINUOUS
 10
102.2595570705
 20
157.5316866445
 11
102.2561181534
 21
157.5307866135
  0
LINE
  5
67F
100
AcDbEntity
  8
0
100
AcDbLine
 62
7
  6
CONTINUOUS
 10
102.2561181534
 20
157.5307866135
 11
102.252688374
 21
157.5299109377
  0
LINE
  5
680
100
AcDbEntity
  8
0
100
AcDbLine
 62
7
  6
CONTINUOUS
 10
102.252688374
 20
157.5299109377
 11
102.2492693137
 21
157.5290588046
  0
LINE
  5
681
100
AcDbEntity
  8
0
100
AcDbLine
 62
7
  6
CONTINUOUS
 10
102.2492693137
 20
157.5290588046
 11
102.2458619902
 21
157.528229365
  0
LINE
  5
682
100
AcDbEntity
  8
0
100
AcDbLine
 62
7
  6
CONTINUOUS
 10
102.2458619902
 20
157.528229365
 11
102.2424645034
 21
157.5274211771
  0
LINE
  5
683
100
AcDbEntity
  8
0
100
AcDbLine
 62
7
  6
CONTINUOUS
 10
102.2424645034
 20
157.5274211771
 11
102.2390669816
 21
157.5266310801
  0
LINE
  5
684
100
AcDbEntity
  8
0
100
AcDbLine
 62
7
  6
CONTINUOUS
 10
102.2390669816
 20
157.5266310801
 11
102.2356558951
 21
157.5258553498
  0
LINE
  5
685
100
AcDbEntity
  8
0
100
AcDbLine
 62
7
  6
CONTINUOUS
 10
102.2356558951
 20
157.5258553498
 11
102.2322223961
 21
157.5250915992
  0
LINE
  5
686
100
AcDbEntity
  8
0
100
AcDbLine
 62
7
  6
CONTINUOUS
 10
102.2322223961
 20
157.5250915992
 11
102.2287511076
 21
157.5243362291
  0
LINE
  5
687
100
AcDbEntity
  8
0
100
AcDbLine
 62
7
  6
CONTINUOUS
 10
102.2287511076
 20
157.5243362291
 11
102.2252255566
 21
157.5235857101
  0
LINE
  5
688
100
AcDbEntity
  8
0
100
AcDbLine
 62
7
  6
CONTINUOUS
 10
102.2252255566
 20
157.5235857101
 11
102.2216349121
 21
157.5228379778
  0
LINE
  5
689
100
AcDbEntity
  8
0
100
AcDbLine
 62
7
  6
CONTINUOUS
 10
102.2216349121
 20
157.5228379778
 11
102.2160897464
 21
157.521714865
  0
LINE
  5
68A
100
AcDbEntity
  8
0
100
AcDbLine
 62
7
  6
CONTINUOUS
 10
102.2160897464
 20
157.521714865
 11
102.2104021322
 21
157.5206009272
  0
LINE
  5
68B
100
AcDbEntity
  8
0
100
AcDbLine
 62
7
  6
CONTINUOUS
 10
102.2104021322
 20
157.5206009272
 11
102.2046285708
 21
157.5195074791
  0
LINE
  5
68C
100
AcDbEntity
  8
0
100
AcDbLine
 62
7
  6
CONTINUOUS
 10
102.2046285708
 20
157.5195074791
 11
102.1987681363
 21
157.5184340372
  0
LWPOLYLINE
  5
68D
100
AcDbEntity
  8
0
100
AcDbPolyline
 62
7
  6
CONTINUOUS
 90
3
 70
0
 10
105.3522406256
 20
156.6085751909
 10
105.4049476887
 20
156.6180984117
 10
105.4165480844
 20
156.6208307121
  0
LINE
  5
68E
100
AcDbEntity
  8
0
100
AcDbLine
 62
7
  6
CONTINUOUS
 10
102.1987681363
 20
157.5184340372
 11
102.1928187296
 21
157.5173799408
  0
LINE
  5
68F
100
AcDbEntity
  8
0
100
AcDbLine
 62
7
  6
CONTINUOUS
 10
102.1928187296
 20
157.5173799408
 11
102.186777253
 21
157.5163444127
  0
LINE
  5
690
100
AcDbEntity
  8
0
100
AcDbLine
 62
7
  6
CONTINUOUS
 10
102.186777253
 20
157.5163444127
 11
102.1806397694
 21
157.5153266073
  0
LINE
  5
691
100
AcDbEntity
  8
0
100
AcDbLine
 62
7
  6
CONTINUOUS
 10
102.1806397694
 20
157.5153266073
 11
102.1744016457
 21
157.5143256504
  0
LINE
  5
692
100
AcDbEntity
  8
0
100
AcDbLine
 62
7
  6
CONTINUOUS
 10
102.1744016457
 20
157.5143256504
 11
102.1680576831
 21
157.513340671
  0
LINE
  5
693
100
AcDbEntity
  8
0
100
AcDbLine
 62
7
  6
CONTINUOUS
 10
102.1680576831
 20
157.513340671
 11
102.1616022373
 21
157.5123708263
  0
LINE
  5
694
100
AcDbEntity
  8
0
100
AcDbLine
 62
7
  6
CONTINUOUS
 10
102.1616022373
 20
157.5123708263
 11
102.1550293285
 21
157.5114153229
  0
LINE
  5
695
100
AcDbEntity
  8
0
100
AcDbLine
 62
7
  6
CONTINUOUS
 10
102.1550293285
 20
157.5114153229
 11
102.1483327451
 21
157.5104734326
  0
LINE
  5
696
100
AcDbEntity
  8
0
100
AcDbLine
 62
7
  6
CONTINUOUS
 10
102.1483327451
 20
157.5104734326
 11
102.1415062015
 21
157.5095445135
  0
LINE
  5
697
100
AcDbEntity
  8
0
100
AcDbLine
 62
7
  6
CONTINUOUS
 10
102.1415062015
 20
157.5095445135
 11
102.1322036658
 21
157.5083268036
  0
LINE
  5
698
100
AcDbEntity
  8
0
100
AcDbLine
 62
7
  6
CONTINUOUS
 10
102.1322036658
 20
157.5083268036
 11
102.122693508
 21
157.5071360553
  0
LINE
  5
699
100
AcDbEntity
  8
0
100
AcDbLine
 62
7
  6
CONTINUOUS
 10
102.122693508
 20
157.5071360553
 11
102.1130003301
 21
157.5059753433
  0
LINE
  5
69A
100
AcDbEntity
  8
0
100
AcDbLine
 62
7
  6
CONTINUOUS
 10
102.1130003301
 20
157.5059753433
 11
102.1031476523
 21
157.5048471403
  0
LINE
  5
69B
100
AcDbEntity
  8
0
100
AcDbLine
 62
7
  6
CONTINUOUS
 10
102.1031476523
 20
157.5048471403
 11
102.0931592168
 21
157.5037535221
  0
LINE
  5
69C
100
AcDbEntity
  8
0
100
AcDbLine
 62
7
  6
CONTINUOUS
 10
102.0931592168
 20
157.5037535221
 11
102.088122117
 21
157.5032202932
  0
LWPOLYLINE
  5
69D
100
AcDbEntity
  8
0
100
AcDbPolyline
 62
7
  6
CONTINUOUS
 90
22
 70
0
 10
216.1968178185
 20
55.7348351953
 10
216.1996756576
 20
55.6985088734
 10
216.2046619814
 20
55.6609090715
 10
216.2117490482
 20
55.6222448578
 10
216.2208974291
 20
55.5827312445
 10
216.2320562465
 20
55.5425879073
 10
216.2451634712
 20
55.5020379611
 10
216.2601462348
 20
55.4613068349
 10
216.2769212215
 20
55.4206210227
 10
216.2953951593
 20
55.3802067367
 10
216.3154653301
 20
55.3402886801
 10
216.3370201417
 20
55.3010887946
 10
216.3599397493
 20
55.2628250263
 10
216.3840967179
 20
55.2257101197
 10
216.4093567344
 20
55.1899504297
 10
216.4355793561
 20
55.1557447717
 10
216.4626187853
 20
55.1232833263
 10
216.4903246835
 20
55.0927465748
 10
216.5185430112
 20
55.0643042923
 10
216.5471168771
 20
55.0381146135
 10
216.5758874109
 20
55.0143231516
 10
216.60469465
 20
54.993062184
  0
LWPOLYLINE
  5
69E
100
AcDbEntity
  8
0
100
AcDbPolyline
 62
7
  6
CONTINUOUS
 90
15
 70
0
 10
215.5493028604
 20
87.5860140813
 10
215.5509702806
 20
87.5241339895
 10
215.5560247145
 20
87.4635995326
 10
215.5645035997
 20
87.4046280831
 10
215.5764435222
 20
87.3474021282
 10
215.5918574264
 20
87.2921759621
 10
215.610715649
 20
87.2392586581
 10
215.6330351433
 20
87.1887833525
 10
215.6587557203
 20
87.1410097858
 10
215.687652918
 20
87.0963633468
 10
215.7195789751
 20
87.055031206
 10
215.7544715666
 20
87.017044647
 10
215.7921754958
 20
86.9825259648
 10
215.8325276469
 20
86.9515897352
 10
215.8752571302
 20
86.9243742922
  0
LWPOLYLINE
  5
69F
100
AcDbEntity
  8
0
100
AcDbPolyline
 62
7
  6
CONTINUOUS
 90
15
 70
0
 10
213.3810792939
 20
44.5419705362
 10
213.3828679474
 20
44.4695748486
 10
213.3882282525
 20
44.3994735629
 10
213.3971432603
 20
44.3318883338
 10
213.4095847822
 20
44.2670328608
 10
213.4255134791
 20
44.2051122117
 10
213.4448789856
 20
44.1463221749
 10
213.4676200696
 20
44.0908486398
 10
213.4936648255
 20
44.0388670096
 10
213.5229309019
 20
43.9905416461
 10
213.5553257616
 20
43.9460253504
 10
213.5907469746
 20
43.9054588795
 10
213.6290825419
 20
43.8689705016
 10
213.6702112492
 20
43.83667559
 10
213.7124114875
 20
43.8095915583
  0
LWPOLYLINE
  5
6A0
100
AcDbEntity
  8
0
100
AcDbPolyline
 62
7
  6
CONTINUOUS
 90
34
 70
0
 10
214.7393662258
 20
87.6064320017
 10
214.7408542391
 20
87.5338232015
 10
214.7455170341
 20
87.4628361492
 10
214.753354611
 20
87.393470845
 10
214.7643544295
 20
87.3255475645
 10
214.7785290298
 20
87.2592460319
 10
214.7959160321
 20
87.1951054206
 10
214.8165879024
 20
87.1330793429
 10
214.8404721747
 20
87.0732141863
 10
214.8673890719
 20
87.0161882872
 10
214.8973787686
 20
86.9620879313
 10
214.9304010902
 20
86.9108268329
 10
214.9661557355
 20
86.8628244708
 10
215.0046333345
 20
86.8181558049
 10
215.0458432572
 20
86.7767458752
 10
215.0895133127
 20
86.738789281
 10
215.1356218091
 20
86.7043083444
 10
215.1841904383
 20
86.6732807433
 10
215.2350120846
 20
86.64583411
 10
215.2881024709
 20
86.6219588679
 10
215.3434458743
 20
86.6016645935
 10
215.4007880103
 20
86.5851076493
 10
215.4601933765
 20
86.5722990066
 10
215.5215974754
 20
86.5632276941
 10
215.5845525292
 20
86.5580171594
 10
215.6491181738
 20
86.5567233118
 10
215.7152347733
 20
86.5592902421
 10
215.7822756432
 20
86.5656736702
 10
215.8502489016
 20
86.5759398906
 10
215.9191464304
 20
86.5900226088
 10
215.9883171904
 20
86.6076786613
 10
216.0575441686
 20
86.6288269937
 10
216.1270443779
 20
86.6535486603
 10
216.1968178185
 20
86.6818436613
  0
LINE
  5
6A1
100
AcDbEntity
  8
0
100
AcDbLine
 62
7
  6
CONTINUOUS
 10
214.7393662258
 20
88.408685747
 11
214.7393662258
 21
87.6064320017
  0
LINE
  5
6A2
100
AcDbEntity
  8
0
100
AcDbLine
 62
7
  6
CONTINUOUS
 10
214.7393662258
 20
53.3980182051
 11
214.7393662258
 21
52.5957644599
  0
LINE
  5
6A3
100
AcDbEntity
  8
0
100
AcDbLine
 62
7
  6
CONTINUOUS
 10
215.5493028604
 20
88.3882678266
 11
215.5493028604
 21
87.5860140813
  0
LINE
  5
6A4
100
AcDbEntity
  8
0
100
AcDbLine
 62
7
  6
CONTINUOUS
 10
215.5493028604
 20
53.3776002847
 11
215.5493028604
 21
52.5753465395
  0
LWPOLYLINE
  5
6A5
100
AcDbEntity
  8
0
100
AcDbPolyline
 62
7
  6
CONTINUOUS
 90
20
 70
0
 10
214.7393662258
 20
52.5957644599
 10
214.7386113764
 20
52.4680771209
 10
214.7324172703
 20
52.3431808774
 10
214.7207643349
 20
52.2214057022
 10
214.7036559254
 20
52.102998616
 10
214.6810763894
 20
51.9883746328
 10
214.6530285025
 20
51.8780789677
 10
214.6195623568
 20
51.7723927478
 10
214.5807598061
 20
51.6715899232
 10
214.5367519167
 20
51.5761213431
 10
214.4876741948
 20
51.4862355695
 10
214.4336497803
 20
51.4020904466
 10
214.3748465006
 20
51.3239265602
 10
214.311457836
 20
51.2519359059
 10
214.2436217037
 20
51.1862078606
 10
214.1714345322
 20
51.1268074566
 10
214.0950698514
 20
51.0738602955
 10
214.014703841
 20
51.027471504
 10
213.9304269128
 20
50.9876934537
 10
213.902904964
 20
50.9764729107
  0
LWPOLYLINE
  5
6A6
100
AcDbEntity
  8
0
100
AcDbPolyline
 62
7
  6
CONTINUOUS
 90
28
 70
0
 10
213.3810792939
 20
98.925454056
 10
213.3828679474
 20
98.9999152361
 10
213.3882282526
 20
99.076206468
 10
213.3971432604
 20
99.1540865247
 10
213.4095847823
 20
99.2333091556
 10
213.4255134793
 20
99.3136238647
 10
213.4448789859
 20
99.3947767033
 10
213.46762007
 20
99.4765110722
 10
213.493664826
 20
99.5585685338
 10
213.5229309024
 20
99.6406896287
 10
213.5553257621
 20
99.7226146963
 10
213.5907469751
 20
99.8040846959
 10
213.6290825422
 20
99.8848420256
 10
213.6702112494
 20
99.9646313371
 10
213.7140030508
 20
100.0432003428
 10
213.7603194803
 20
100.1203006133
 10
213.8090140887
 20
100.1956883638
 10
213.8599329075
 20
100.2691252239
 10
213.9129149354
 20
100.3403789921
 10
213.9677926473
 20
100.4092243692
 10
214.024392524
 20
100.4754436717
 10
214.0825356012
 20
100.5388275192
 10
214.1420380349
 20
100.5991754969
 10
214.2027116831
 20
100.6562967891
 10
214.2643647003
 20
100.7100107827
 10
214.3268021446
 20
100.7601476382
 10
214.3898265934
 20
100.8065488269
 10
214.4532387685
 20
100.8490676316
  0
LWPOLYLINE
  5
6A7
100
AcDbEntity
  8
0
100
AcDbPolyline
 62
7
  6
CONTINUOUS
 90
19
 70
0
 10
215.5023996374
 20
101.5570682662
 10
215.5022739141
 20
101.5535559853
 10
215.5018976385
 20
101.5499235016
 10
215.5012734864
 20
101.5461966492
 10
215.500405897
 20
101.5424019335
 10
215.4993010405
 20
101.5385663424
 10
215.4979667747
 20
101.5347171546
 10
215.4964125887
 20
101.5308817454
 10
215.4946495359
 20
101.5270873922
 10
215.4926901552
 20
101.5233610803
 10
215.4905483816
 20
101.5197293113
 10
215.4882394474
 20
101.5162179142
 10
215.4857797736
 20
101.512851862
 10
215.4831868535
 20
101.5096550939
 10
215.4804791278
 20
101.5066503455
 10
215.4776758539
 20
101.5038589863
 10
215.4747969685
 20
101.5013008685
 10
215.4718629462
 20
101.4989941854
 10
215.4688946538
 20
101.496955342
  0
LINE
  5
6A8
100
AcDbEntity
  8
0
100
AcDbLine
 62
7
  6
CONTINUOUS
 10
194.1776829894
 20
55.5415241966
 11
193.4330924551
 21
54.1275707877
  0
LWPOLYLINE
  5
6A9
100
AcDbEntity
  8
0
100
AcDbPolyline
 62
7
  6
CONTINUOUS
 90
17
 70
0
 10
216.9178191684
 20
86.7958499166
 10
216.9190869364
 20
86.7387513298
 10
216.9228870006
 20
86.6832628739
 10
216.9292096418
 20
86.62952668
 10
216.9380386874
 20
86.5776803532
 10
216.9493515333
 20
86.5278567407
 10
216.9631191829
 20
86.4801835754
 10
216.9793063562
 20
86.4347829936
 10
216.997871599
 20
86.3917712399
 10
217.0187673558
 20
86.3512584786
 10
217.0419401025
 20
86.3133484717
 10
217.0673304834
 20
86.2781383136
 10
217.0948734625
 20
86.2457181841
 10
217.1244984903
 20
86.2161711168
 10
217.1561296856
 20
86.1895727854
 10
217.1896860294
 20
86.1659913107
 10
217.2077348538
 20
86.1550183018
  0
LWPOLYLINE
  5
6AA
100
AcDbEntity
  8
0
100
AcDbPolyline
 62
7
  6
CONTINUOUS
 90
43
 70
0
 10
223.2098635524
 20
89.6957782555
 10
223.2046111586
 20
90.0201069615
 10
223.189049672
 20
90.3490468026
 10
223.1631790926
 20
90.6825977788
 10
223.1269344623
 20
91.0212388426
 10
223.0803807391
 20
91.3644910415
 10
223.0237127975
 20
91.710917518
 10
222.9568882402
 20
92.0605315782
 10
222.8799494644
 20
92.4133199161
 10
222.7932185367
 20
92.7678057556
 10
222.6966544099
 20
93.1239962127
 10
222.5902981312
 20
93.4818841714
 10
222.4745949093
 20
93.839971509
 10
222.3495055629
 20
94.1982590611
 10
222.2150692733
 20
94.556745992
 10
222.0718487921
 20
94.9139316715
 10
221.9198072973
 20
95.2698106449
 10
221.7589816111
 20
95.6243883669
 10
221.5900449514
 20
95.9761805712
 10
221.4129633182
 20
96.3251755813
 10
221.2277707116
 20
96.6713850737
 10
221.0352423499
 20
97.0133598117
 10
220.8353474826
 20
97.3510820437
 10
220.6281168602
 20
97.6845695213
 10
220.4144179523
 20
98.0124262622
 10
220.1942236448
 20
98.3346286632
 10
219.9675610519
 20
98.6512003275
 10
219.7353789856
 20
98.9608160826
 10
219.4976543091
 20
99.2634467704
 10
219.2544101592
 20
99.559121549
 10
219.0066647587
 20
99.8466027206
 10
218.754399239
 20
100.1258559386
 10
218.4976324686
 20
100.3969155496
 10
218.237439276
 20
100.6586468951
 10
217.9738052983
 20
100.9110108722
 10
217.7067448984
 20
101.1540465838
 10
217.4373759941
 20
101.3867366797
 10
217.1656889086
 20
101.6090377924
 10
216.8916933188
 20
101.8209932894
 10
216.6165361731
 20
102.0217159227
 10
216.3405997878
 20
102.2109099428
 10
216.0635018468
 20
102.3888710992
 10
215.7852423499
 20
102.5555993918
  0
LWPOLYLINE
  5
6AB
100
AcDbEntity
  8
0
100
AcDbPolyline
 62
7
  6
CONTINUOUS
 90
43
 70
0
 10
221.065978659
 20
89.3954661757
 10
221.0613544028
 20
89.6836361556
 10
221.047488101
 20
89.9767430888
 10
221.024399146
 20
90.2743770393
 10
220.9921198285
 20
90.5761217419
 10
220.9506952933
 20
90.8815551775
 10
220.9001834766
 20
91.1902501635
 10
220.8406550234
 20
91.5017749629
 10
220.7721931893
 20
91.8156938794
 10
220.6948937264
 20
92.1315678599
 10
220.6088647472
 20
92.4489551202
 10
220.5142265701
 20
92.7674117711
 10
220.4111115529
 20
93.0864924302
 10
220.2996639098
 20
93.4057508377
 10
220.1800395112
 20
93.7247404785
 10
220.0524056638
 20
94.0430152138
 10
219.9169408753
 20
94.360129907
 10
219.7738346052
 20
94.6756410451
 10
219.6232870007
 20
94.9891073573
 10
219.4655086163
 20
95.3000904323
 10
219.3007201193
 20
95.6081553324
 10
219.1291519811
 20
95.9128712015
 10
218.9510441551
 20
96.2138118668
 10
218.7666457415
 20
96.5105564356
 10
218.5762146378
 20
96.8026898838
 10
218.3800171795
 20
97.0898036361
 10
218.1783277663
 20
97.3714961381
 10
217.9714284786
 20
97.647373418
 10
217.7596086828
 20
97.9170496377
 10
217.5431646289
 20
98.1801476291
 10
217.3223990364
 20
98.4362994225
 10
217.0976206697
 20
98.6851467631
 10
216.8691438983
 20
98.9263416194
 10
216.6372882603
 20
99.1595466662
 10
216.4023780217
 20
99.3844357493
 10
216.1647417303
 20
99.6006943355
 10
215.9247117494
 20
99.8080199605
 10
215.6826237821
 20
100.0061226616
 10
215.4388164111
 20
100.1947253738
 10
215.1936306327
 20
100.3735643127
 10
214.9474093648
 20
100.5423893552
 10
214.7004969669
 20
100.7009643881
 10
214.4532387685
 20
100.8490676316
  0
LWPOLYLINE
  5
6AC
100
AcDbEntity
  8
0
100
AcDbPolyline
 62
7
  6
CONTINUOUS
 90
43
 70
0
 10
222.1348628139
 20
89.9511598191
 10
222.1302013336
 20
90.2416494386
 10
222.1162234115
 20
90.5371157513
 10
222.0929485964
 20
90.8371455212
 10
222.0604094391
 20
91.1413191321
 10
222.0186514478
 20
91.4492111676
 10
221.9677330253
 20
91.7603910061
 10
221.9077253854
 20
92.0744234351
 10
221.8387124541
 20
92.390869251
 10
221.7607907547
 20
92.7092858656
 10
221.6740692653
 20
93.0292279548
 10
221.5786692769
 20
93.35024804
 10
221.4747242299
 20
93.671897103
 10
221.3623795159
 20
93.9937252578
 10
221.2417922534
 20
94.3152824294
 10
221.1131310779
 20
94.6361189407
 10
220.976575932
 20
94.9557860768
 10
220.8323178018
 20
95.273836751
 10
220.6805584268
 20
95.5898261782
 10
220.521510041
 20
95.9033124422
 10
220.3553950968
 20
96.2138570787
 10
220.1824459388
 20
96.5210257268
 10
220.0029044517
 20
96.8243887838
 10
219.8170217408
 20
97.1235219685
 10
219.625057803
 20
97.4180068813
 10
219.4272811348
 20
97.7074316379
 10
219.223968332
 20
97.9913914768
 10
219.0154037232
 20
98.2694892884
 10
218.8018790075
 20
98.5413361246
 10
218.5836928155
 20
98.8065517871
 10
218.3611502659
 20
99.0647653871
 10
218.1345625814
 20
99.3156158092
 10
217.9042466838
 20
99.5587521887
 10
217.6705247181
 20
99.7938344455
 10
217.4337235727
 20
100.0205337881
 10
217.1941744282
 20
100.2385331635
 10
216.9522123235
 20
100.4475276722
 10
216.7081756639
 20
100.6472250171
 10
216.4624057577
 20
100.8373459028
 10
216.2152463462
 20
101.017624421
 10
215.9670431077
 20
101.1878084348
 10
215.7181431738
 20
101.3476599303
 10
215.4688946538
 20
101.496955342
  0
LWPOLYLINE
  5
6AD
100
AcDbEntity
  8
0
100
AcDbPolyline
 62
7
  6
CONTINUOUS
 90
43
 70
0
 10
222.2036746833
 20
89.9501194234
 10
222.1989918999
 20
90.2421004707
 10
222.1849953869
 20
90.5384635429
 10
222.1616851442
 20
90.8392086398
 10
222.1289993395
 20
91.14485232
 10
222.0869998051
 20
91.4548780249
 10
222.0358720382
 20
91.7677360793
 10
221.9755844191
 20
92.0833356754
 10
221.9061685674
 20
92.4017676209
 10
221.8279048386
 20
92.7217546634
 10
221.7407505076
 20
93.043331269
 10
221.6447482995
 20
93.3664629717
 10
221.5403067447
 20
93.689769121
 10
221.4273936046
 20
94.0132382336
 10
221.3060411178
 20
94.3368817928
 10
221.1767545309
 20
94.6593535982
 10
221.0394991092
 20
94.9806529968
 10
220.8943095872
 20
95.3007806417
 10
220.7417954159
 20
95.6183922908
 10
220.5819264439
 20
95.9334759589
 10
220.4147328225
 20
96.2460436314
 10
220.2409144557
 20
96.5547870221
 10
220.0604436026
 20
96.8596901644
 10
219.8733480042
 20
97.1607690249
 10
219.6804107875
 20
97.4567632174
 10
219.4816065606
 20
97.7476525354
 10
219.2769607154
 20
98.0334571853
 10
219.0673325543
 20
98.3129774001
 10
218.8527040212
 20
98.5861835751
 10
218.6330931722
 20
98.8531053148
 10
218.4094134784
 20
99.1126316667
 10
218.1816390501
 20
99.3647402609
 10
217.949795777
 20
99.6094534671
 10
217.7148747989
 20
99.8457274414
 10
217.476884524
 20
100.0735080604
 10
217.2358165442
 20
100.2928494474
 10
216.9926367742
 20
100.5028701286
 10
216.7472502508
 20
100.703588434
 10
216.4997519373
 20
100.8949860334
 10
216.2513926387
 20
101.0761264628
 10
216.0025892901
 20
101.2466975674
 10
215.7529249563
 20
101.4070115018
 10
215.5023996374
 20
101.5570682662
  0
LWPOLYLINE
  5
6AE
100
AcDbEntity
  8
0
100
AcDbPolyline
 62
7
  6
CONTINUOUS
 90
46
 70
0
 10
222.9270208399
 20
89.5324684182
 10
222.9224598643
 20
89.8348372418
 10
222.9089042777
 20
90.1413470994
 10
222.8863540802
 20
90.4519979907
 10
222.854752974
 20
90.7672200393
 10
222.8141572569
 20
91.0865831218
 10
222.7647358221
 20
91.4087968679
 10
222.7064781916
 20
91.7337631099
 10
222.6393948435
 20
92.0615800155
 10
222.5636861056
 20
92.3912517172
 10
222.4792802685
 20
92.7229390452
 10
222.3862490416
 20
93.0564811694
 10
222.28500788
 20
93.3903997309
 10
222.1755892194
 20
93.7245054325
 10
222.0579606241
 20
94.0589875715
 10
221.9324402421
 20
94.3929356815
 10
221.7989135302
 20
94.7265646294
 10
221.6574950317
 20
95.0596595484
 10
221.5088465244
 20
95.3906653722
 10
221.3530495602
 20
95.7193427478
 10
221.1900225873
 20
96.0459310283
 10
221.0201827278
 20
96.3695932065
 10
220.8433783711
 20
96.6905537029
 10
220.6597611278
 20
97.0085880972
 10
220.4702029515
 20
97.3221861212
 10
220.2748223896
 20
97.6311042682
 10
220.0735008946
 20
97.9355860451
 10
219.8667547781
 20
98.2348517044
 10
219.6544175275
 20
98.5290915534
 10
219.4366556554
 20
98.8181152849
 10
219.2144850112
 20
99.1005722294
 10
218.9880344035
 20
99.3762557555
 10
218.7571750237
 20
99.6453724946
 10
218.5225362946
 20
99.907191672
 10
218.2839704942
 20
100.1618360329
 10
218.0416253445
 20
100.4091828322
 10
217.7965734353
 20
100.6481330589
 10
217.5489181962
 20
100.8785441943
 10
217.2985561976
 20
101.1005587572
 10
217.0462497404
 20
101.3135052936
 10
216.7919085665
 20
101.5174238186
 10
216.5356229339
 20
101.7122743171
 10
216.2784259172
 20
101.8972652899
 10
216.0206618747
 20
102.0721329038
 10
215.7619864481
 20
102.237140992
 10
215.5023996374
 20
102.3922895545
  0
LWPOLYLINE
  5
6AF
100
AcDbEntity
  8
0
100
AcDbPolyline
 62
7
  6
CONTINUOUS
 90
49
 70
0
 10
218.863998839
 20
89.4287588399
 10
218.861078644
 20
89.6373318863
 10
218.8523167142
 20
89.84878366
 10
218.8377130497
 20
90.063114161
 10
218.8172398676
 20
90.2806136759
 10
218.7909249508
 20
90.5009919182
 10
218.7588516475
 20
90.723378028
 10
218.7210003992
 20
90.9477272395
 10
218.6773907645
 20
91.1740843186
 10
218.6281647674
 20
91.4017127032
 10
218.5733061634
 20
91.6306089632
 10
218.512831197
 20
91.8607765288
 10
218.4469306252
 20
92.0914891286
 10
218.3755852981
 20
92.3227550625
 10
218.2988143656
 20
92.5545660305
 10
218.2168660349
 20
92.786170861
 10
218.1297253071
 20
93.017564308
 10
218.0374071811
 20
93.2487516174
 10
217.9402048607
 20
93.4789973558
 10
217.8381020788
 20
93.7083005725
 10
217.7311151025
 20
93.9366622181
 10
217.6195859367
 20
94.163349711
 10
217.5034986486
 20
94.3883598221
 10
217.3828691709
 20
94.6116957806
 10
217.2580873073
 20
94.8326346918
 10
217.1291392566
 20
95.0511686331
 10
216.9960388199
 20
95.2673055272
 10
216.8592172037
 20
95.4803462474
 10
216.7186637003
 20
95.6902785308
 10
216.5743890175
 20
95.8971146403
 10
216.4268564856
 20
96.1001922376
 10
216.2760570587
 20
96.2994978261
 10
216.1219997826
 20
96.4950449024
 10
215.965175126
 20
96.6862116188
 10
215.8055711341
 20
96.8729874992
 10
215.6431997616
 20
97.0553830196
 10
215.4785873417
 20
97.2328077602
 10
215.3117315172
 20
97.4052409819
 10
215.1426346453
 20
97.5727034238
 10
214.9718301314
 20
97.734666883
 10
214.7993067242
 20
97.8911191471
 10
214.6250756751
 20
98.0420724285
 10
214.449704143
 20
98.1870351618
 10
214.2731433967
 20
98.3260128573
 10
214.0954421674
 20
98.4590000047
 10
213.9173138072
 20
98.5854885079
 10
213.7389961003
 20
98.7053090015
 10
213.5602512625
 20
98.8186308509
 10
213.3810792939
 20
98.925454056
  0
LINE
  5
6B0
100
AcDbEntity
  8
0
100
AcDbLine
 62
7
  6
CONTINUOUS
 10
217.0462780512
 20
56.1936546966
 11
217.0462780512
 21
86.2482414361
  0
LINE
  5
6B1
100
AcDbEntity
  8
0
100
AcDbLine
 62
7
  6
CONTINUOUS
 10
217.8562146857
 20
56.1732367762
 11
217.8562146857
 21
85.2548669042
  0
LINE
  5
6B2
100
AcDbEntity
  8
0
100
AcDbLine
 62
7
  6
CONTINUOUS
 10
217.9200440939
 20
84.9213015518
 11
217.9200440939
 21
53.9742930761
  0
LINE
  5
6B3
100
AcDbEntity
  8
0
100
AcDbLine
 62
7
  6
CONTINUOUS
 10
218.3300946003
 20
84.3497171169
 11
218.3300946003
 21
53.4027086509
  0
LINE
  5
6B4
100
AcDbEntity
  8
0
100
AcDbLine
 62
7
  6
CONTINUOUS
 10
218.863998839
 20
47.7071276958
 11
218.863998839
 21
89.4287588399
  0
LINE
  5
6B5
100
AcDbEntity
  8
0
100
AcDbLine
 62
7
  6
CONTINUOUS
 10
221.065978659
 20
47.6738350316
 11
221.065978659
 21
89.3954661757
  0
LINE
  5
6B6
100
AcDbEntity
  8
0
100
AcDbLine
 62
7
  6
CONTINUOUS
 10
222.1348628139
 20
48.229528675
 11
222.1348628139
 21
89.9511598191
  0
LINE
  5
6B7
100
AcDbEntity
  8
0
100
AcDbLine
 62
7
  6
CONTINUOUS
 10
222.2036746833
 20
48.2284882792
 11
222.2036746833
 21
89.9501194234
  0
LINE
  5
6B8
100
AcDbEntity
  8
0
100
AcDbLine
 62
7
  6
CONTINUOUS
 10
222.9270208399
 20
47.8108372741
 11
222.9270208399
 21
89.5324684182
  0
LWPOLYLINE
  5
6B9
100
AcDbEntity
  8
0
100
AcDbPolyline
 62
7
  6
CONTINUOUS
 90
6
 70
0
 10
217.9200455249
 20
53.9742083172
 10
217.9198494714
 20
53.9609390942
 10
217.9193337897
 20
53.949767617
 10
217.9186768844
 20
53.9414921315
 10
217.9180767201
 20
53.9362204755
 10
217.9179289576
 20
53.9351636474
  0
LWPOLYLINE
  5
6BA
100
AcDbEntity
  8
0
100
AcDbPolyline
 62
7
  6
CONTINUOUS
 90
39
 70
0
 10
215.5493028604
 20
52.5753465395
 10
215.5474544875
 20
52.4562440923
 10
215.5417164751
 20
52.3394580042
 10
215.5320888232
 20
52.2249882749
 10
215.5185729535
 20
52.112599291
 10
215.5011674443
 20
52.0025266661
 10
215.4798680304
 20
51.8954772409
 10
215.4546332645
 20
51.7914793659
 10
215.4255045939
 20
51.6905046907
 10
215.3926020958
 20
51.593175005
 10
215.3558926693
 20
51.4995352075
 10
215.3154094153
 20
51.4095403995
 10
215.2713717132
 20
51.3236776745
 10
215.2237621656
 20
51.241998394
 10
215.17259817
 20
51.1644511964
 10
215.1181512981
 20
51.0913690906
 10
215.0604300925
 20
51.0227986414
 10
214.9994260106
 20
50.958693284
 10
214.935384996
 20
50.899246332
 10
214.8683046047
 20
50.8444682988
 10
214.7981872807
 20
50.7943486711
 10
214.7252862995
 20
50.7490492231
 10
214.6495971201
 20
50.7085774719
 10
214.5711242835
 20
50.6729259003
 10
214.4901346883
 20
50.6422337315
 10
214.4066202198
 20
50.6165084595
 10
214.3205889927
 20
50.5957425903
 10
214.2323322492
 20
50.5800528645
 10
214.1418050466
 20
50.5694554279
 10
214.0490523276
 20
50.5639341347
 10
213.9545001628
 20
50.5635572887
 10
213.8581128463
 20
50.5683659663
 10
213.7599260841
 20
50.578319091
 10
213.6604730641
 20
50.5933617366
 10
213.559732091
 20
50.6135449555
 10
213.4577248601
 20
50.6388176953
 10
213.3550496458
 20
50.6689718724
 10
213.2517032247
 20
50.7040571594
 10
213.2292638258
 20
50.7126793235
  0
LWPOLYLINE
  5
6BB
100
AcDbEntity
  8
0
100
AcDbPolyline
 62
7
  6
CONTINUOUS
 90
34
 70
0
 10
218.3300946003
 20
53.4027086509
 10
218.3286253271
 20
53.3275387499
 10
218.3240254877
 20
53.2543040269
 10
218.3162950821
 20
53.1830044819
 10
218.3054452502
 20
53.1134434111
 10
218.2914648521
 20
53.0458175184
 10
218.2743204683
 20
52.9807169149
 10
218.2539348481
 20
52.9180932697
 10
218.2303852422
 20
52.8579949137
 10
218.2038699836
 20
52.8011569517
 10
218.1743472977
 20
52.7476816611
 10
218.1418589589
 20
52.6974667645
 10
218.1067286234
 20
52.6509405337
 10
218.0689682256
 20
52.6081870213
 10
218.0285658309
 20
52.5691221748
 10
217.985809292
 20
52.5339221082
 10
217.9407228083
 20
52.5026086849
 10
217.8932821803
 20
52.4751600414
 10
217.8437026616
 20
52.4516867019
 10
217.791968389
 20
52.4321783803
 10
217.7380952258
 20
52.4166453627
 10
217.6823460153
 20
52.4052290312
 10
217.6246507348
 20
52.3979485382
 10
217.5650794071
 20
52.3947847313
 10
217.5041049441
 20
52.3958215355
 10
217.4416585034
 20
52.4011334201
 10
217.3778089274
 20
52.4106459159
 10
217.3132356544
 20
52.4242195391
 10
217.2479480562
 20
52.4419274201
 10
217.1819367609
 20
52.4636964286
 10
217.1158530922
 20
52.4891676902
 10
217.0499141578
 20
52.5182215803
 10
216.9839028499
 20
52.5509777235
 10
216.9178191684
 20
52.58743612
  0
LWPOLYLINE
  5
6BC
100
AcDbEntity
  8
0
100
AcDbPolyline
 62
7
  6
CONTINUOUS
 90
31
 70
0
 10
216.9178191684
 20
52.58743612
 10
216.9190869235
 20
52.6459983964
 10
216.9228869492
 20
52.705874757
 10
216.9292095258
 20
52.7669118492
 10
216.9380384785
 20
52.828953382
 10
216.9493512041
 20
52.8918404199
 10
216.9631187148
 20
52.9554117858
 10
216.9793057384
 20
53.0195046184
 10
216.9978708227
 20
53.0839547936
 10
217.0187664173
 20
53.1485972361
 10
217.041939003
 20
53.2132663778
 10
217.0673292282
 20
53.2777965825
 10
217.0948720615
 20
53.3420225697
 10
217.1244969579
 20
53.4057798383
 10
217.1561280397
 20
53.4689050873
 10
217.1896842907
 20
53.5312366345
 10
217.225079764
 20
53.592614831
 10
217.2622238017
 20
53.6528824692
 10
217.3010212669
 20
53.7118851858
 10
217.3413727882
 20
53.7694718578
 10
217.383175014
 20
53.8254949889
 10
217.4263208765
 20
53.8798110873
 10
217.4706998667
 20
53.9322810337
 10
217.5161983173
 20
53.9827704373
 10
217.5626996933
 20
54.0311499798
 10
217.6100848901
 20
54.0772957456
 10
217.6582325417
 20
54.1210895435
 10
217.7070193321
 20
54.1624192088
 10
217.7563203056
 20
54.2011788847
 10
217.806009187
 20
54.2372692943
 10
217.8559587088
 20
54.2705979985
  0
LWPOLYLINE
  5
6BD
100
AcDbEntity
  8
0
100
AcDbPolyline
 62
7
  6
CONTINUOUS
 90
22
 70
0
 10
217.8562146857
 20
56.1732367762
 10
217.8551048319
 20
56.1371850438
 10
217.8517811067
 20
56.1000405488
 10
217.8462609429
 20
56.0619976445
 10
217.8385732875
 20
56.0232554824
 10
217.8287583906
 20
55.9840166601
 10
217.8168675382
 20
55.94448615
 10
217.8029629064
 20
55.9048706961
 10
217.7871172484
 20
55.8653776155
 10
217.7694133965
 20
55.8262133999
 10
217.7499435958
 20
55.7875822881
 10
217.7288099781
 20
55.7496870851
 10
217.7061242335
 20
55.7127278444
 10
217.6820061656
 20
55.6768990954
 10
217.6565812916
 20
55.6423866873
 10
217.6299810386
 20
55.609368906
 10
217.6023324355
 20
55.5780054913
 10
217.5737913211
 20
55.5484752077
 10
217.5445432216
 20
55.5209651249
 10
217.5147555472
 20
55.4956213987
 10
217.4845734278
 20
55.4725564393
 10
217.4541548827
 20
55.4518816854
  0
LWPOLYLINE
  5
6BE
100
AcDbEntity
  8
0
100
AcDbPolyline
 62
7
  6
CONTINUOUS
 90
3
 70
0
 10
216.1968178185
 20
86.6818436613
 10
216.1996756404
 20
86.7184245004
 10
216.2021350172
 20
86.7356390443
  0
LINE
  5
6BF
100
AcDbEntity
  8
0
100
AcDbLine
 62
7
  6
CONTINUOUS
 10
194.1570306315
 20
53.8365849978
 11
194.1767999574
 21
53.8636174012
  0
LWPOLYLINE
  5
6C0
100
AcDbEntity
  8
0
100
AcDbPolyline
 62
7
  6
CONTINUOUS
 90
31
 70
0
 10
193.4330956744
 20
54.1275689289
 10
193.3417994789
 20
54.0340378635
 10
193.2520182043
 20
53.9371235111
 10
193.1639007298
 20
53.8369865796
 10
193.0775931768
 20
53.7337931214
 10
192.9932386627
 20
53.6277142555
 10
192.9109770635
 20
53.5189258839
 10
192.8309447879
 20
53.4076084031
 10
192.7532745501
 20
53.2939464051
 10
192.6780951462
 20
53.178128369
 10
192.605531242
 20
53.060346349
 10
192.5357031663
 20
52.9407956563
 10
192.4687267111
 20
52.8196745346
 10
192.4047129398
 20
52.6971838321
 10
192.3437680029
 20
52.5735266682
 10
192.2859929621
 20
52.4489080962
 10
192.2314836224
 20
52.323534764
 10
192.1803303739
 20
52.1976145712
 10
192.1326180413
 20
52.0713563237
 10
192.0884257436
 20
51.9449693885
 10
192.0478267625
 20
51.8186633459
 10
192.0108884211
 20
51.6926476421
 10
191.9776719724
 20
51.5671312419
 10
191.9482324976
 20
51.442322282
 10
191.9226188147
 20
51.3184277262
 10
191.9008733978
 20
51.1956530178
 10
191.8830323065
 20
51.0742017516
 10
191.8691251253
 20
50.9542753354
 10
191.8591749144
 20
50.8360726399
 10
191.8531981731
 20
50.7197896698
 10
191.8512048114
 20
50.6056192501
  0
LINE
  5
6C1
100
AcDbEntity
  8
0
100
AcDbLine
 62
7
  6
CONTINUOUS
 10
223.2098635524
 20
47.9741471114
 11
223.2098635524
 21
89.6957782555
  0
LWPOLYLINE
  5
6C2
100
AcDbEntity
  8
0
100
AcDbPolyline
 62
7
  6
CONTINUOUS
 90
34
 70
0
 10
216.1968178185
 20
55.7348351953
 10
216.1270443722
 20
55.6955217409
 10
216.0575441598
 20
55.6528997052
 10
215.9883171815
 20
55.6069690882
 10
215.919146426
 20
55.5576006651
 10
215.8502489046
 20
55.5049236608
 10
215.7822756505
 20
55.4493257498
 10
215.7152347786
 20
55.3907485035
 10
215.649118174
 20
55.3292503506
 10
215.5845525261
 20
55.265394251
 10
215.5215974729
 20
55.1991820814
 10
215.4601933764
 20
55.1306119651
 10
215.4007880117
 20
55.0602412328
 10
215.3434458757
 20
54.988121409
 10
215.2881024715
 20
54.914200969
 10
215.2350120846
 20
54.8388826701
 10
215.1841904383
 20
54.7621913241
 10
215.1356218093
 20
54.6841021192
 10
215.089513313
 20
54.6049433767
 10
215.0458432575
 20
54.5246717557
 10
215.0046333348
 20
54.4433305971
 10
214.9661557358
 20
54.361378245
 10
214.9304010905
 20
54.27873066
 10
214.8973787689
 20
54.1954718815
 10
214.8673890721
 20
54.1123123723
 10
214.8404721743
 20
54.0292047753
 10
214.8165879013
 20
53.9461964476
 10
214.795916031
 20
53.8641399232
 10
214.7785290302
 20
53.7831518064
 10
214.7643544322
 20
53.7031154929
 10
214.753354615
 20
53.6245337039
 10
214.7455170378
 20
53.5475740132
 10
214.7408542415
 20
53.4720688469
 10
214.7393662258
 20
53.3980182051
  0
LINE
  5
6C3
100
AcDbEntity
  8
0
100
AcDbLine
 62
7
  6
CONTINUOUS
 10
217.0462780512
 20
56.1936546966
 11
216.1968178185
 21
55.7348351953
  0
LINE
  5
6C4
100
AcDbEntity
  8
0
100
AcDbLine
 62
7
  6
CONTINUOUS
 10
217.4541548827
 20
55.4518816854
 11
216.60469465
 21
54.993062184
  0
LWPOLYLINE
  5
6C5
100
AcDbEntity
  8
0
100
AcDbPolyline
 62
7
  6
CONTINUOUS
 90
28
 70
0
 10
216.60469465
 20
54.993062184
 10
216.5430630129
 20
54.9603472844
 10
216.4815279861
 20
54.9240774403
 10
216.4202662133
 20
54.8843268141
 10
216.3593525642
 20
54.8411345237
 10
216.2990787582
 20
54.7946435598
 10
216.2399396655
 20
54.7451414295
 10
216.1821254592
 20
54.6928031157
 10
216.1257877918
 20
54.6377918519
 10
216.0713328245
 20
54.5804532084
 10
216.018981722
 20
54.5210832424
 10
215.9687886872
 20
54.4598188251
 10
215.9208884569
 20
54.396792406
 10
215.8754415489
 20
54.3322704221
 10
215.8325276468
 20
54.2664245
 10
215.7921754958
 20
54.1992329535
 10
215.7544715667
 20
54.1308363606
 10
215.7195789752
 20
54.061528736
 10
215.6876529182
 20
53.9915147377
 10
215.6587557203
 20
53.9208951379
 10
215.633035143
 20
53.8500302209
 10
215.6107156487
 20
53.7795151732
 10
215.5918574263
 20
53.7096522083
 10
215.5764435226
 20
53.640581917
 10
215.5645036003
 20
53.5726393166
 10
215.556024715
 20
53.5060609831
 10
215.5509702808
 20
53.4409899257
 10
215.5493028604
 20
53.3776002847
  0
LWPOLYLINE
  5
6C6
100
AcDbEntity
  8
0
100
AcDbPolyline
 62
7
  6
CONTINUOUS
 90
22
 70
0
 10
214.7393662258
 20
53.3980182051
 10
214.7727716581
 20
53.4130746277
 10
214.8079343079
 20
53.4267319847
 10
214.8446787436
 20
53.4389221598
 10
214.8828216015
 20
53.4495843458
 10
214.922172631
 20
53.4586653853
 10
214.9625356568
 20
53.466120017
 10
215.0037093741
 20
53.4719110599
 10
215.045488341
 20
53.4760096163
 10
215.0876641423
 20
53.4783952413
 10
215.1300263828
 20
53.4790560347
 10
215.1723637374
 20
53.4779887008
 10
215.214465006
 20
53.4751985646
 10
215.2561201657
 20
53.4706995453
 10
215.297121419
 20
53.4645140868
 10
215.3372642313
 20
53.4566730457
 10
215.3763483536
 20
53.4472155363
 10
215.4141788102
 20
53.4361887389
 10
215.4505668737
 20
53.4236476655
 10
215.4853310202
 20
53.4096548807
 10
215.5182978336
 20
53.3942801877
 10
215.5493028604
 20
53.3776002847
  0
LWPOLYLINE
  5
6C7
100
AcDbEntity
  8
0
100
AcDbPolyline
 62
7
  6
CONTINUOUS
 90
22
 70
0
 10
214.7393662258
 20
52.5957644599
 10
214.7727710748
 20
52.6108206389
 10
214.807933223
 20
52.6244778509
 10
214.8446772652
 20
52.6366679654
 10
214.8828199058
 20
52.647330171
 10
214.9221708697
 20
52.6564112776
 10
214.9625338511
 20
52.6638659818
 10
215.0037074969
 20
52.6696570946
 10
215.045486414
 20
52.6737557264
 10
215.0876621901
 20
52.6761414303
 10
215.1300244307
 20
52.6768023039
 10
215.1723618106
 20
52.675735049
 10
215.2144631304
 20
52.6729449884
 10
215.2561183663
 20
52.6684460387
 10
215.297119719
 20
52.6622606418
 10
215.3372626524
 20
52.6544196518
 10
215.3763468877
 20
52.6449621887
 10
215.414177475
 20
52.6339354253
 10
215.4505657598
 20
52.621394343
 10
215.4853302277
 20
52.6074014848
 10
215.5182974188
 20
52.5920266536
 10
215.5493028604
 20
52.5753465395
  0
LWPOLYLINE
  5
6C8
100
AcDbEntity
  8
0
100
AcDbPolyline
 62
7
  6
CONTINUOUS
 90
20
 70
0
 10
199.6840860951
 20
45.4084861689
 10
199.7120580491
 20
45.4198785715
 10
199.7956105538
 20
45.4593729105
 10
199.8761315172
 20
45.5058557202
 10
199.9534402929
 20
45.5592227178
 10
200.0273634412
 20
45.6193541762
 10
200.0977351177
 20
45.6861151922
 10
200.1643974456
 20
45.7593559895
 10
200.2272008701
 20
45.8389122546
 10
200.2860044937
 20
45.9246055054
 10
200.3406763922
 20
46.0162434914
 10
200.3910939107
 20
46.1136206254
 10
200.4371439393
 20
46.2165184449
 10
200.4787231666
 20
46.3247061025
 10
200.5157383109
 20
46.437940883
 10
200.5481063297
 20
46.5559687473
 10
200.5757546062
 20
46.6785249028
 10
200.5986211124
 20
46.8053343983
 10
200.616654548
 20
46.9361127409
 10
200.6298144558
 20
47.0705665332
  0
LINE
  5
6C9
100
AcDbEntity
  8
0
100
AcDbLine
 62
7
  6
CONTINUOUS
 10
200.6298144558
 20
47.0705665332
 11
214.7393662258
 21
52.5957644599
  0
LINE
  5
6CA
100
AcDbEntity
  8
0
100
AcDbLine
 62
7
  6
CONTINUOUS
 10
199.6840860951
 20
45.4084861689
 11
213.9014649415
 21
50.975908395
  0
LWPOLYLINE
  5
6CB
100
AcDbEntity
  8
0
100
AcDbPolyline
 62
7
  6
CONTINUOUS
 90
20
 70
0
 10
199.6840860951
 20
45.4084861689
 10
199.5368045168
 20
45.3546946242
 10
199.3862581376
 20
45.3074790376
 10
199.2328038624
 20
45.267088689
 10
199.0766323762
 20
45.2337128451
 10
198.9183312468
 20
45.2076036578
 10
198.7588778603
 20
45.1889824072
 10
198.5993462204
 20
45.1779370654
 10
198.4395001555
 20
45.1744051423
 10
198.2783486022
 20
45.1784558827
 10
198.1154100297
 20
45.1903497936
 10
197.9520811325
 20
45.2102250438
 10
197.7901344497
 20
45.2379335715
 10
197.6303604726
 20
45.2732741823
 10
197.4727190561
 20
45.3161875601
 10
197.3176074306
 20
45.3665236754
 10
197.1652857137
 20
45.4241590315
 10
197.0161103246
 20
45.4889244668
 10
196.8705216054
 20
45.5605824586
 10
196.7441995926
 20
45.6299944236
  0
LINE
  5
6CC
100
AcDbEntity
  8
0
100
AcDbLine
 62
7
  6
CONTINUOUS
 10
217.8559768249
 20
54.2705875385
 11
217.9200440939
 21
54.3157703026
  0
LWPOLYLINE
  5
6CD
100
AcDbEntity
  8
0
100
AcDbPolyline
 62
7
  6
CONTINUOUS
 90
3
 70
0
 10
219.5569472675
 20
43.5975677479
 10
219.6804158074
 20
43.6356481079
 10
219.8733528479
 20
43.7088435197
  0
LWPOLYLINE
  5
6CE
100
AcDbEntity
  8
0
100
AcDbPolyline
 62
7
  6
CONTINUOUS
 90
22
 70
0
 10
221.0201827278
 20
43.175681341
 10
221.1900225873
 20
43.3032167066
 10
221.3530495602
 20
43.4415455252
 10
221.5088465244
 20
43.5903124718
 10
221.6574950317
 20
43.7496627254
 10
221.7989135302
 20
43.919451107
 10
221.9324402421
 20
44.098886755
 10
222.0579606241
 20
44.2878870743
 10
222.1755892194
 20
44.4865346599
 10
222.28500788
 20
44.6942864348
 10
222.3862490416
 20
44.9112942406
 10
222.4792802685
 20
45.1374062358
 10
222.5636861056
 20
45.371623819
 10
222.6393948435
 20
45.6138689677
 10
222.7064781916
 20
45.8642197044
 10
222.7647358221
 20
46.1219114951
 10
222.8141572569
 20
46.3870546071
 10
222.854752974
 20
46.659538773
 10
222.8863540802
 20
46.9382686563
 10
222.9089042777
 20
47.2228791448
 10
222.9224598643
 20
47.5137353507
 10
222.9270208399
 20
47.8108372741
  0
LWPOLYLINE
  5
6CF
100
AcDbEntity
  8
0
100
AcDbPolyline
 62
7
  6
CONTINUOUS
 90
22
 70
0
 10
221.0354955001
 20
43.1679097628
 10
221.2277707116
 20
43.2874114228
 10
221.4129633182
 20
43.4197651351
 10
221.5900449514
 20
43.564270714
 10
221.7589816111
 20
43.7209790982
 10
221.9198072973
 20
43.8898393489
 10
222.0718487921
 20
44.0701446152
 10
222.2150692733
 20
44.261942873
 10
222.3495055629
 20
44.4651861464
 10
222.4745949093
 20
44.6790236568
 10
222.5902981312
 20
44.9034998138
 10
222.6966544099
 20
45.1385702079
 10
222.7932185367
 20
45.3832508317
 10
222.8799494644
 20
45.6375819701
 10
222.9568882402
 20
45.9015233382
 10
223.0237127975
 20
46.1739700745
 10
223.0803807391
 20
46.4549578326
 10
223.1269344623
 20
46.7444509588
 10
223.1631790926
 20
47.041237632
 10
223.189049672
 20
47.3449139116
 10
223.2046111586
 20
47.6558837381
 10
223.2098635524
 20
47.9741471114
  0
LWPOLYLINE
  5
6D0
100
AcDbEntity
  8
0
100
AcDbPolyline
 62
7
  6
CONTINUOUS
 90
3
 70
0
 10
220.7526208809
 20
43.0046571927
 10
220.8433783711
 20
43.0588900839
 10
221.0201827278
 20
43.175681341
  0
LINE
  5
6D1
100
AcDbEntity
  8
0
100
AcDbLine
 62
7
  6
CONTINUOUS
 10
223.2098635524
 20
47.9741471114
 11
222.9270208399
 21
47.8108372741
  0
LINE
  5
6D2
100
AcDbEntity
  8
0
100
AcDbLine
 62
7
  6
CONTINUOUS
 10
221.0354960314
 20
43.1679100694
 11
220.7526533189
 21
43.0046002321
  0
LWPOLYLINE
  5
6D3
100
AcDbEntity
  8
0
100
AcDbPolyline
 62
7
  6
CONTINUOUS
 90
23
 70
0
 10
218.952903534
 20
43.298681962
 10
219.1291519935
 20
43.3930289125
 10
219.3007201314
 20
43.4996221969
 10
219.4655086281
 20
43.6173934722
 10
219.623287012
 20
43.7461780247
 10
219.7738346158
 20
43.8857957373
 10
219.916940885
 20
44.0360513423
 10
220.0524056729
 20
44.1967346938
 10
220.1800395202
 20
44.3676210627
 10
220.2996639187
 20
44.5484714482
 10
220.4111115614
 20
44.7390329121
 10
220.5142265775
 20
44.9390389336
 10
220.6088647532
 20
45.1482097887
 10
220.6948937315
 20
45.3662529398
 10
220.772193194
 20
45.5928634394
 10
220.840655028
 20
45.8277243482
 10
220.900183481
 20
46.0705071846
 10
220.9506952977
 20
46.3208723953
 10
220.9921198326
 20
46.578469821
 10
221.0243991491
 20
46.8429391777
 10
221.0474881027
 20
47.1139105765
 10
221.0613544033
 20
47.391005042
 10
221.065978659
 20
47.6738350316
  0
LWPOLYLINE
  5
6D4
100
AcDbEntity
  8
0
100
AcDbPolyline
 62
7
  6
CONTINUOUS
 90
23
 70
0
 10
220.0047787966
 20
43.8191584557
 10
220.1824459471
 20
43.9142648404
 10
220.3553951054
 20
44.0217161369
 10
220.5215100505
 20
44.1404354011
 10
220.680558437
 20
44.2702565775
 10
220.8323178124
 20
44.4109980841
 10
220.9765759429
 20
44.5624630872
 10
221.1131310886
 20
44.7244397651
 10
221.2417922633
 20
44.8967015765
 10
221.3623795247
 20
45.0790075999
 10
221.4747242373
 20
45.2711028942
 10
221.5786692823
 20
45.4727188203
 10
221.6740692687
 20
45.6835733871
 10
221.7607907568
 20
45.9033716719
 10
221.8387124558
 20
46.1318062607
 10
221.907725387
 20
46.3685576741
 10
221.9677330271
 20
46.6132947865
 10
222.01865145
 20
46.8656753113
 10
222.0604094416
 20
47.1253462708
 10
222.0929485985
 20
47.3919444807
 10
222.1162234127
 20
47.6650970747
 10
222.1302013339
 20
47.9444220268
 10
222.1348628139
 20
48.229528675
  0
LINE
  5
6D5
100
AcDbEntity
  8
0
100
AcDbLine
 62
7
  6
CONTINUOUS
 10
221.065978659
 20
47.6738350316
 11
222.1348628139
 21
48.229528675
  0
LINE
  5
6D6
100
AcDbEntity
  8
0
100
AcDbLine
 62
7
  6
CONTINUOUS
 10
220.0047788038
 20
43.8191584593
 11
218.9529035339
 21
43.298681962
  0
LWPOLYLINE
  5
6D7
100
AcDbEntity
  8
0
100
AcDbPolyline
 62
7
  6
CONTINUOUS
 90
24
 70
0
 10
219.8733528479
 20
43.7088435197
 10
220.0604482234
 20
43.7938693399
 10
220.2409188742
 20
43.8903695437
 10
220.4147371005
 20
43.998392156
 10
220.5819306022
 20
44.1178891519
 10
220.7417994189
 20
44.2483604316
 10
220.8943133535
 20
44.3898527495
 10
221.0395026032
 20
44.5423193513
 10
221.1767577983
 20
44.7051198742
 10
221.3060442707
 20
44.878295184
 10
221.4273966885
 20
45.061804415
 10
221.5403096871
 20
45.2548846068
 10
221.6447509472
 20
45.457584314
 10
221.740752788
 20
45.6698549821
 10
221.8279068029
 20
45.8907879872
 10
221.9061703226
 20
46.1203982571
 10
221.9755860164
 20
46.358670864
 10
222.0358734849
 20
46.6046524003
 10
222.0870011168
 20
46.8584707688
 10
222.1290005235
 20
47.1199980667
 10
222.16168614
 20
47.3878971783
 10
222.1849961113
 20
47.6617223983
 10
222.1989922924
 20
47.9419194319
 10
222.2036746833
 20
48.2284882792
  0
ARC
  5
6D8
100
AcDbEntity
  8
0
100
AcDbCircle
 62
7
  6
CONTINUOUS
 10
79.1890018526
 20
117.4309373523
 40
3.4
100
AcDbArc
 50
180.0782361803
 51
239.9217637996
  0
ENDSEC
  0
SECTION
  2
OBJECTS
  0
DICTIONARY
  5
C
100
AcDbDictionary
280
0
281
1
  3
ACAD_GROUP
350
D
  3
ACAD_MLINESTYLE
350
17
  3
ACAD_LAYOUT
350
1A
  3
ACAD_PLOTSETTINGS
350
19
  3
ACAD_PLOTSTYLENAME
350
E
  0
DICTIONARY
  5
D
102
{ACAD_REACTORS
330
C
102
}
100
AcDbDictionary
280
0
281
1
  0
ACDBDICTIONARYWDFLT
  5
E
102
{ACAD_REACTORS
330
C
102
}
100
AcDbDictionary
281
1
  3
Normal
350
F
100
AcDbDictionaryWithDefault
340
F
  0
DICTIONARY
  5
17
102
{ACAD_REACTORS
330
C
102
}
100
AcDbDictionary
280
0
281
1
  3
Standard
350
18
  0
DICTIONARY
  5
19
102
{ACAD_REACTORS
330
C
102
}
100
AcDbDictionary
281
1
  0
DICTIONARY
  5
1A
102
{ACAD_REACTORS
330
C
102
}
100
AcDbDictionary
281
1
  3
Model
350
6D9
  3
Layout1
350
6DA
  0
ACDBPLACEHOLDER
  5
F
102
{ACAD_REACTORS
330
E
102
}
  0
MLINESTYLE
  5
18
102
{ACAD_REACTORS
330
17
102
}
100
AcDbMlineStyle
  2
STANDARD
 70
0
  3

 62
256
 51
90.0
 52
90.0
 71
2
 49
0.5
 62
256
  6
BYLAYER
 49
-0.5
 62
256
  6
BYLAYER
  0
LAYOUT
  5
6D9
102
{ACAD_REACTORS
330
1A
102
}
100
AcDbPlotSettings
  1

  2
none_device
  4
ISO_A4_(297.00_x_210.00_MM)
  6

 40
0.0
 41
0.0
 42
0.0
 43
0.0
 44
297.0
 45
210.0
 46
0.0
 47
0.0
 48
0.0
 49
0.0
140
0.0
141
0.0
142
1.0
143
1.0
 70
1024
 72
1
 73
0
 74
0
  7

 75
0
147
1.0
148
0.0
149
0.0
100
AcDbLayout
  1
Model
 70
0
 71
0
 10
0.0
 20
0.0
 11
297.0
 21
210.0
 12
0.0
 22
0.0
 32
0.0
 14
0.0
 24
0.0
 34
0.0
 15
0.0
 25
0.0
 35
0.0
146
0.0
 13
0.0
 23
0.0
 33
0.0
 16
1.0
 26
0.0
 36
0.0
 17
0.0
 27
1.0
 37
0.0
 76
0
330
213
345
0
346
0
  0
LAYOUT
  5
6DA
102
{ACAD_REACTORS
330
1A
102
}
100
AcDbPlotSettings
  1

  2
none_device
  4
ISO_A4_(297.00_x_210.00_MM)
  6

 40
0.0
 41
0.0
 42
0.0
 43
0.0
 44
297.0
 45
210.0
 46
0.0
 47
0.0
 48
0.0
 49
0.0
140
0.0
141
0.0
142
1.0
143
1.0
 70
0
 72
1
 73
0
 74
0
  7

 75
0
147
1.0
148
0.0
149
0.0
100
AcDbLayout
  1
Layout1
 70
0
 71
1
 10
0.0
 20
0.0
 11
297.0
 21
210.0
 12
0.0
 22
0.0
 32
0.0
 14
0.0
 24
0.0
 34
0.0
 15
0.0
 25
0.0
 35
0.0
146
0.0
 13
0.0
 23
0.0
 33
0.0
 16
1.0
 26
0.0
 36
0.0
 17
0.0
 27
1.0
 37
0.0
 76
0
330
214
345
0
346
0
  0
ENDSEC
  0
EOF
