  0
SECTION
  2
HEADER
  9
$ACADVER
  1
AC1015
  9
$DWGCODEPAGE
  3
ANSI_1252
  9
$EXTMAX
 10
297.0
 20
210.0
 30
0.0
  9
$EXTMIN
 10
0.0
 20
0.0
 30
0.0
  9
$LIMMIN
 10
0.0
 20
0.0
  9
$LIMMAX
 10
297.0
 20
210.0
  9
$VIEWCTR
 10
148.5
 20
105.0
  9
$VIEWSIZE
 40
210.0
  9
$CLAYER
  8
0
  9
$LTSCALE
 40
16.335
  9
$CELTYPE
  6
BYLAYER
  9
$DIMSCALE
 40
1.0
  9
$DIMASZ
 40
3.0
  9
$DIMEXO
 40
1.85625
  9
$DIMDLI
 40
11.286
  9
$DIMEXE
 40
5.346
  9
$DIMCEN
 40
2.673
  9
$DIMLFAC
 40
1.0
  9
$DIMBLK
  1
_FILLED
  9
$DIMTXT
 40
3.0
  9
$DIMTOL
 70
1
  9
$DIMLIM
 70
0
  9
$DIMTFAC
 40
1.0
  9
$DIMTP
 40
0.01
  9
$DIMTM
 40
0.01
  9
$PDMODE
 70
3
  9
$PDSIZE
 40
3.0
  9
$HANDSEED
  5
2D9
  9
$TILEMODE
 70
1
  9
$MEASUREMENT
 70
1
  9
$INSUNITS
 70
4
  0
ENDSEC
  0
SECTION
  2
CLASSES
  0
CLASS
  1
ACDBDICTIONARYWDFLT
  2
AcDbDictionaryWithDefault
  3
AutoCAD 2000
 90
0
280
0
281
0
  0
CLASS
  1
ACDBPLACEHOLDER
  2
AcDbPlaceHolder
  3
AutoCAD 2000
 90
0
280
0
281
0
  0
CLASS
  1
LAYOUT
  2
AcDbLayout
  3
AutoCAD 2000
 90
0
280
0
281
0
  0
ENDSEC
  0
SECTION
  2
TABLES
  0
TABLE
  2
VPORT
  5
8
100
AcDbSymbolTable
 70
2
  0
VPORT
  5
1F4
100
AcDbSymbolTableRecord
100
AcDbViewportTableRecord
  2
*ACTIVE
 70
0
 10
0.0
 20
0.0
 11
1.0
 21
1.0
 12
148.5
 22
105.0
 13
0.0
 23
0.0
 14
1.0
 24
1.0
 15
0.0
 25
0.0
 16
0.0
 26
0.0
 36
1.0
 17
0.0
 27
0.0
 37
0.0
 40
210.0
 41
1.4142857143
 42
50.0
 43
0.0
 44
0.0
 50
0.0
 51
0.0
 71
0
 72
100
 73
1
 74
1
 75
0
 76
0
 77
0
 78
0
  0
ENDTAB
  0
TABLE
  2
LTYPE
  5
5
100
AcDbSymbolTable
 70
6
  0
LTYPE
  5
14
100
AcDbSymbolTableRecord
100
AcDbLinetypeTableRecord
  2
BYBLOCK
 70
0
  3

 72
65
 73
0
 40
0.0
  0
LTYPE
  5
15
100
AcDbSymbolTableRecord
100
AcDbLinetypeTableRecord
  2
BYLAYER
 70
0
  3

 72
65
 73
0
 40
0.0
  0
LTYPE
  5
16
100
AcDbSymbolTableRecord
100
AcDbLinetypeTableRecord
  2
CONTINUOUS
 70
64
  3
Solid line
 72
65
 73
0
 40
0.0
  0
LTYPE
  5
1F5
100
AcDbSymbolTableRecord
100
AcDbLinetypeTableRecord
  2
CENTER
 70
64
  3
____ _ ____ _ ____ _ ____ _ ____ _ ____ _ ____
 72
65
 73
4
 40
0.6
 49
0.375
 74
0
 49
-0.075
 74
0
 49
0.075
 74
0
 49
-0.075
 74
0
  0
LTYPE
  5
1F6
100
AcDbSymbolTableRecord
100
AcDbLinetypeTableRecord
  2
HIDDEN
 70
64
  3
- - - - - - - - - - - - - - - - - - - -
 72
65
 73
2
 40
0.2
 49
0.1
 74
0
 49
-0.1
 74
0
  0
LTYPE
  5
1F7
100
AcDbSymbolTableRecord
100
AcDbLinetypeTableRecord
  2
PHANTOM
 70
64
  3
_____ _ _ _____ _ _ _____ _ _ _____
 72
65
 73
6
 40
0.8
 49
0.45
 74
0
 49
-0.05
 74
0
 49
0.1
 74
0
 49
-0.05
 74
0
 49
0.1
 74
0
 49
-0.05
 74
0
  0
LTYPE
  5
1F8
100
AcDbSymbolTableRecord
100
AcDbLinetypeTableRecord
  2
DOT
 70
64
  3
. . . . . . . . . . . . . . . . . . . .
 72
65
 73
2
 40
0.2
 49
0.1
 74
0
 49
-0.1
 74
0
  0
LTYPE
  5
1F9
100
AcDbSymbolTableRecord
100
AcDbLinetypeTableRecord
  2
DASHED
 70
64
  3
- - - - - - - - - - - - - - - - - - - -
 72
65
 73
2
 40
0.2
 49
0.1
 74
0
 49
-0.1
 74
0
  0
ENDTAB
  0
TABLE
  2
LAYER
  5
2
100
AcDbSymbolTable
 70
36
  0
LAYER
  5
10
100
AcDbSymbolTableRecord
100
AcDbLayerTableRecord
  2
0
 70
0
 62
7
  6
CONTINUOUS
370
-3
390
F
  0
LAYER
  5
1FA
100
AcDbSymbolTableRecord
100
AcDbLayerTableRecord
  2
DEFAULT_1
 70
0
 62
7
  6
CENTER
370
-3
390
F
  0
LAYER
  5
1FB
100
AcDbSymbolTableRecord
100
AcDbLayerTableRecord
  2
DEFAULT_2
 70
0
 62
7
  6
HIDDEN
370
-3
390
F
  0
LAYER
  5
1FC
100
AcDbSymbolTableRecord
100
AcDbLayerTableRecord
  2
DEFAULT_3
 70
0
 62
7
  6
PHANTOM
370
-3
390
F
  0
LAYER
  5
1FD
100
AcDbSymbolTableRecord
100
AcDbLayerTableRecord
  2
ASSI
 70
0
 62
7
  6
CONTINUOUS
370
-3
390
F
  0
LAYER
  5
1FE
100
AcDbSymbolTableRecord
100
AcDbLayerTableRecord
  2
COLOR9
 70
0
 62
7
  6
CONTINUOUS
370
-3
390
F
  0
LAYER
  5
1FF
100
AcDbSymbolTableRecord
100
AcDbLayerTableRecord
  2
COORDINATE
 70
0
 62
7
  6
CONTINUOUS
370
-3
390
F
  0
LAYER
  5
200
100
AcDbSymbolTableRecord
100
AcDbLayerTableRecord
  2
COORD_ORIGINE
 70
0
 62
7
  6
CONTINUOUS
370
-3
390
F
  0
LAYER
  5
201
100
AcDbSymbolTableRecord
100
AcDbLayerTableRecord
  2
COPY_PUBLISH
 70
0
 62
7
  6
CONTINUOUS
370
-3
390
F
  0
LAYER
  5
202
100
AcDbSymbolTableRecord
100
AcDbLayerTableRecord
  2
COSMETIC
 70
0
 62
7
  6
CONTINUOUS
370
-3
390
F
  0
LAYER
  5
203
100
AcDbSymbolTableRecord
100
AcDbLayerTableRecord
  2
CURVE
 70
0
 62
7
  6
CONTINUOUS
370
-3
390
F
  0
LAYER
  5
204
100
AcDbSymbolTableRecord
100
AcDbLayerTableRecord
  2
DRAFT
 70
0
 62
7
  6
CONTINUOUS
370
-3
390
F
  0
LAYER
  5
205
100
AcDbSymbolTableRecord
100
AcDbLayerTableRecord
  2
IGES
 70
0
 62
7
  6
CONTINUOUS
370
-3
390
F
  0
LAYER
  5
206
100
AcDbSymbolTableRecord
100
AcDbLayerTableRecord
  2
IGS_SCRITTE
 70
0
 62
7
  6
CONTINUOUS
370
-3
390
F
  0
LAYER
  5
207
100
AcDbSymbolTableRecord
100
AcDbLayerTableRecord
  2
IMPORT_IGES
 70
0
 62
7
  6
CONTINUOUS
370
-3
390
F
  0
LAYER
  5
208
100
AcDbSymbolTableRecord
100
AcDbLayerTableRecord
  2
INTF_12
 70
0
 62
7
  6
CONTINUOUS
370
-3
390
F
  0
LAYER
  5
209
100
AcDbSymbolTableRecord
100
AcDbLayerTableRecord
  2
INTF_15
 70
0
 62
7
  6
CONTINUOUS
370
-3
390
F
  0
LAYER
  5
20A
100
AcDbSymbolTableRecord
100
AcDbLayerTableRecord
  2
INTF_3
 70
0
 62
7
  6
CONTINUOUS
370
-3
390
F
  0
LAYER
  5
20B
100
AcDbSymbolTableRecord
100
AcDbLayerTableRecord
  2
INTF_4
 70
0
 62
7
  6
CONTINUOUS
370
-3
390
F
  0
LAYER
  5
20C
100
AcDbSymbolTableRecord
100
AcDbLayerTableRecord
  2
INTF_YELLOW
 70
0
 62
7
  6
CONTINUOUS
370
-3
390
F
  0
LAYER
  5
20D
100
AcDbSymbolTableRecord
100
AcDbLayerTableRecord
  2
PIANI
 70
0
 62
7
  6
CONTINUOUS
370
-3
390
F
  0
LAYER
  5
20E
100
AcDbSymbolTableRecord
100
AcDbLayerTableRecord
  2
PIANI_ORIGINE
 70
0
 62
7
  6
CONTINUOUS
370
-3
390
F
  0
LAYER
  5
20F
100
AcDbSymbolTableRecord
100
AcDbLayerTableRecord
  2
PIANI_RIFERIMENTO
 70
0
 62
7
  6
CONTINUOUS
370
-3
390
F
  0
LAYER
  5
210
100
AcDbSymbolTableRecord
100
AcDbLayerTableRecord
  2
RACCORDO
 70
0
 62
7
  6
CONTINUOUS
370
-3
390
F
  0
LAYER
  5
211
100
AcDbSymbolTableRecord
100
AcDbLayerTableRecord
  2
SMUSSO
 70
0
 62
7
  6
CONTINUOUS
370
-3
390
F
  0
LAYER
  5
212
100
AcDbSymbolTableRecord
100
AcDbLayerTableRecord
  2
SOLIDO
 70
0
 62
7
  6
CONTINUOUS
370
-3
390
F
  0
LAYER
  5
213
100
AcDbSymbolTableRecord
100
AcDbLayerTableRecord
  2
SUPERFICI
 70
0
 62
7
  6
CONTINUOUS
370
-3
390
F
  0
LAYER
  5
214
100
AcDbSymbolTableRecord
100
AcDbLayerTableRecord
  2
TRASH
 70
0
 62
7
  6
CONTINUOUS
370
-3
390
F
  0
LAYER
  5
215
100
AcDbSymbolTableRecord
100
AcDbLayerTableRecord
  2
WHITE
 70
0
 62
7
  6
CONTINUOUS
370
-3
390
F
  0
LAYER
  5
216
100
AcDbSymbolTableRecord
100
AcDbLayerTableRecord
  2
XSEC_DATUMS
 70
0
 62
7
  6
CONTINUOUS
370
-3
390
F
  0
ENDTAB
  0
TABLE
  2
STYLE
  5
3
100
AcDbSymbolTable
 70
1
  0
STYLE
  5
11
100
AcDbSymbolTableRecord
100
AcDbTextStyleTableRecord
  2
STANDARD
 70
0
 40
0.0
 41
0.8
 50
0.0
 71
0
 42
0.2
  3
txt
  4

  0
STYLE
  5
217
100
AcDbSymbolTableRecord
100
AcDbTextStyleTableRecord
  2
TEXTSTYLE_1
 70
0
 40
0.0
 41
0.8
 50
0.0
 71
0
 42
0.2
  3
gdt
  4

  0
ENDTAB
  0
TABLE
  2
VIEW
  5
6
100
AcDbSymbolTable
 70
0
  0
ENDTAB
  0
TABLE
  2
UCS
  5
7
100
AcDbSymbolTable
 70
0
  0
ENDTAB
  0
TABLE
  2
APPID
  5
9
100
AcDbSymbolTable
 70
1
  0
APPID
  5
218
100
AcDbSymbolTableRecord
100
AcDbRegAppTableRecord
  2
ACAD
 70
0
  0
ENDTAB
  0
TABLE
  2
BLOCK_RECORD
  5
1
100
AcDbSymbolTable
 70
0
  0
BLOCK_RECORD
  5
219
100
AcDbSymbolTableRecord
100
AcDbBlockTableRecord
  2
*Model_Space
  0
BLOCK_RECORD
  5
21A
100
AcDbSymbolTableRecord
100
AcDbBlockTableRecord
  2
*Paper_Space
  0
ENDTAB
  0
TABLE
  2
DIMSTYLE
  5
A
100
AcDbSymbolTable
 70
1
100
AcDbDimStyleTable
 71
0
  0
DIMSTYLE
105
21B
100
AcDbSymbolTableRecord
100
AcDbDimStyleTableRecord
  2
STANDARD
 70
0
  3

  4

 40
1.0
 41
3.0
 42
0.0625
 43
0.38
 44
0.18
 45
0.0
 46
0.0
 47
0.01
 48
0.01
140
3.0
141
0.09
142
0.0
143
25.4
144
1.0
145
0.0
146
1.0
147
0.09
 71
1.0
 72
0.0
 73
0
 74
0
 75
0
 76
0
 77
1
 78
8
170
0
171
2
172
0
173
0
174
0
175
0
176
0
177
0
178
0
270
2
271
2
272
2
273
2
274
2
275
0
280
0
281
0
282
0
283
1
284
8
285
0
286
0
287
3
288
0
340
11
  0
ENDTAB
  0
ENDSEC
  0
SECTION
  2
BLOCKS
  0
BLOCK
  5
20
100
AcDbEntity
  8
0
100
AcDbBlockBegin
  2
*Model_Space
 70
0
 10
0.0
 20
0.0
 30
0.0
  3
*Model_Space
  1

  0
ENDBLK
  5
21
100
AcDbEntity
  8
0
100
AcDbBlockEnd
  0
BLOCK
  5
1C
100
AcDbEntity
  8
0
100
AcDbBlockBegin
  2
*Paper_Space
 70
0
 10
0.0
 20
0.0
 30
0.0
  3
*Paper_Space
  1

  0
ENDBLK
  5
1D
100
AcDbEntity
  8
0
100
AcDbBlockEnd
  0
ENDSEC
  0
SECTION
  2
ENTITIES
  0
LWPOLYLINE
  5
21C
100
AcDbEntity
  8
ASSI
100
AcDbPolyline
 62
7
  6
CONTINUOUS
 90
11
 70
0
 10
-9.3666851466
 20
12.2802765741
 10
-9.3837232063
 20
12.270480599
 10
-9.418120576
 20
12.2475046588
 10
-9.4490413711
 20
12.2222552605
 10
-9.4764877994
 20
12.194837442
 10
-9.500361465
 20
12.1654418696
 10
-9.5204911558
 20
12.134413126
 10
-9.5368304746
 20
12.1020032705
 10
-9.5493434479
 20
12.0684547256
 10
-9.5579620041
 20
12.0341497302
 10
-9.5626678383
 20
11.9995491699
  0
LWPOLYLINE
  5
21D
100
AcDbEntity
  8
RACCORDO
100
AcDbPolyline
 62
7
  6
CONTINUOUS
 90
33
 70
0
 10
-9.3665276998
 20
12.2803629338
 10
-9.3749068938
 20
12.2756674024
 10
-9.3862527432
 20
12.2689438499
 10
-9.3972109263
 20
12.2620210197
 10
-9.4077845809
 20
12.2549071771
 10
-9.4179790211
 20
12.247609214
 10
-9.4277986499
 20
12.2401341316
 10
-9.4372457878
 20
12.2324904501
 10
-9.4463241981
 20
12.2246856836
 10
-9.4550373757
 20
12.2167272409
 10
-9.4633863919
 20
12.2086248348
 10
-9.4713744527
 20
12.2003866485
 10
-9.4790056671
 20
12.1920197314
 10
-9.4862778994
 20
12.1835382516
 10
-9.4931970237
 20
12.17494794
 10
-9.4997761251
 20
12.1662440389
 10
-9.5060148353
 20
12.1574377512
 10
-9.5119151493
 20
12.1485375644
 10
-9.5174899405
 20
12.1395342606
 10
-9.5227390448
 20
12.1304371282
 10
-9.5276623251
 20
12.1212560694
 10
-9.5322690475
 20
12.1119821711
 10
-9.5365589735
 20
12.1026227544
 10
-9.5405304181
 20
12.0931893867
 10
-9.5441877013
 20
12.0836792082
 10
-9.5475298111
 20
12.0741013087
 10
-9.5505557775
 20
12.0644658315
 10
-9.5532681997
 20
12.0547714832
 10
-9.5556660478
 20
12.0450286139
 10
-9.5577490201
 20
12.0352464539
 10
-9.5595191604
 20
12.0254219881
 10
-9.5609755707
 20
12.0155650795
 10
-9.5621178375
 20
12.0056855222
  0
LINE
  5
21E
100
AcDbEntity
  8
RACCORDO
100
AcDbLine
 62
7
  6
CONTINUOUS
 10
-9.3665236266
 20
12.2803651771
 11
-5.8071261446
 21
14.2282785043
  0
LINE
  5
21F
100
AcDbEntity
  8
ASSI
100
AcDbLine
 62
7
  6
CONTINUOUS
 10
-9.3666851526
 20
12.2802765849
 11
-5.8071261446
 21
14.2282785043
  0
LINE
  5
220
100
AcDbEntity
  8
RACCORDO
100
AcDbLine
 62
253
  6
CONTINUOUS
 10
-9.2480483198
 20
12.2767846632
 11
-5.6921592413
 21
14.2227779839
  0
LINE
  5
221
100
AcDbEntity
  8
ASSI
100
AcDbLine
 62
253
  6
CONTINUOUS
 10
-9.2480483198
 20
12.2767846632
 11
-5.6921592413
 21
14.2227779839
  0
LINE
  5
222
100
AcDbEntity
  8
DRAFT
100
AcDbLine
 62
7
  6
CONTINUOUS
 10
-4.0039716357
 20
12.3394536966
 11
-4.990980063
 21
11.7281949836
  0
LINE
  5
223
100
AcDbEntity
  8
ASSI
100
AcDbLine
 62
7
  6
CONTINUOUS
 10
-4.0039716357
 20
12.3394536966
 11
-4.990980063
 21
11.7281949836
  0
LINE
  5
224
100
AcDbEntity
  8
DRAFT
100
AcDbLine
 62
7
  6
CONTINUOUS
 10
-4.0039716357
 20
13.3786841811
 11
-5.9397004975
 21
12.2025552008
  0
LINE
  5
225
100
AcDbEntity
  8
ASSI
100
AcDbLine
 62
7
  6
CONTINUOUS
 10
-4.0039716357
 20
13.3786841811
 11
-5.9397004975
 21
12.2025552008
  0
LWPOLYLINE
  5
226
100
AcDbEntity
  8
RACCORDO
100
AcDbPolyline
 62
7
  6
CONTINUOUS
 90
5
 70
0
 10
-9.5621178375
 20
12.0056855222
 10
-9.5629469555
 20
11.9957801294
 10
-9.5634623811
 20
11.9858544249
 10
-9.563663403
 20
11.97592268
 10
-9.5636663907
 20
11.9743292692
  0
LWPOLYLINE
  5
227
100
AcDbEntity
  8
0
100
AcDbPolyline
 62
7
  6
CONTINUOUS
 90
28
 70
0
 10
6.4802460987
 20
-13.6975510141
 10
6.4982211218
 20
-13.7046531683
 10
6.516408142
 20
-13.7112672639
 10
6.5347938237
 20
-13.7173875119
 10
6.5533647681
 20
-13.7230086518
 10
6.5721286019
 20
-13.7281313704
 10
6.5910723384
 20
-13.7327498208
 10
6.6101824586
 20
-13.7368587749
 10
6.6294669116
 20
-13.7404572452
 10
6.6489132937
 20
-13.7435393964
 10
6.6685076955
 20
-13.7460997553
 10
6.6882568046
 20
-13.7481354852
 10
6.7081477738
 20
-13.7496408309
 10
6.7281672259
 20
-13.7506104312
 10
6.7483220308
 20
-13.7510397434
 10
6.7686014604
 20
-13.7509230535
 10
6.7889901441
 20
-13.7502550165
 10
6.8094889997
 20
-13.7490297609
 10
6.8300866239
 20
-13.7472418317
 10
6.8507686967
 20
-13.7448864712
 10
6.8715329506
 20
-13.741957533
 10
6.8923673545
 20
-13.738450009
 10
6.9132588578
 20
-13.7343596567
 10
6.9342050443
 20
-13.729680026
 10
6.9551946081
 20
-13.7244062067
 10
6.9762149822
 20
-13.7185341303
 10
6.997263399
 20
-13.7120568715
 10
7.0183316924
 20
-13.7049685544
  0
LWPOLYLINE
  5
228
100
AcDbEntity
  8
0
100
AcDbPolyline
 62
7
  6
CONTINUOUS
 90
23
 70
0
 10
-9.4880889503
 20
3.3813807665
 10
-9.4788556289
 20
3.0092134851
 10
-9.4681831699
 20
2.6378676466
 10
-9.4560717452
 20
2.2673517066
 10
-9.4425215281
 20
1.8976736341
 10
-9.4275327059
 20
1.5288415177
 10
-9.4111055582
 20
1.1608642504
 10
-9.3932403967
 20
0.7937510037
 10
-9.3739375324
 20
0.4275104722
 10
-9.3531973349
 20
0.0621511043
 10
-9.3310202115
 20
-0.3023183064
 10
-9.3074065696
 20
-0.6658892821
 10
-9.2823568842
 20
-1.0285533575
 10
-9.2558716689
 20
-1.3903017658
 10
-9.2279514329
 20
-1.7511260674
 10
-9.1985967495
 20
-2.1110178888
 10
-9.167808233
 20
-2.4699685706
 10
-9.1355864869
 20
-2.8279698152
 10
-9.1019322007
 20
-3.185013174
 10
-9.0668461251
 20
-3.5410897694
 10
-9.0303290043
 20
-3.8961910094
 10
-8.9923815601
 20
-4.2503091551
 10
-8.9530045083
 20
-4.6034366135
  0
LWPOLYLINE
  5
229
100
AcDbEntity
  8
ASSI
100
AcDbPolyline
 62
7
  6
CONTINUOUS
 90
9
 70
0
 10
-9.5021852847
 20
4.1246642218
 10
-9.4800717124
 20
3.0550509847
 10
-9.4437427634
 20
1.9294164604
 10
-9.3941429605
 20
0.8115939121
 10
-9.3312806718
 20
-0.2981756345
 10
-9.2551669328
 20
-1.3996548538
 10
-9.16581529
 20
-2.492610527
 10
-9.0632421056
 20
-3.5768090031
 10
-8.9474666839
 20
-4.6520162788
  0
LWPOLYLINE
  5
22A
100
AcDbEntity
  8
0
100
AcDbPolyline
 62
7
  6
CONTINUOUS
 90
3
 70
0
 10
-9.5021852822
 20
4.1246640517
 10
-9.4958830101
 20
3.7543597704
 10
-9.4880889503
 20
3.3813807665
  0
LINE
  5
22B
100
AcDbEntity
  8
ASSI
100
AcDbLine
 62
7
  6
CONTINUOUS
 10
-9.514190548
 20
4.9648782802
 11
-9.5021852823
 21
4.1246640521
  0
LWPOLYLINE
  5
22C
100
AcDbEntity
  8
ASSI
100
AcDbPolyline
 62
7
  6
CONTINUOUS
 90
8
 70
0
 10
-9.5625291571
 20
11.1492467834
 10
-9.5599104754
 20
10.2597583679
 10
-9.555847327
 20
9.3710512686
 10
-9.5503397216
 20
8.4831296765
 10
-9.5433876782
 20
7.5959970894
 10
-9.5349912159
 20
6.7096567888
 10
-9.5251503604
 20
5.8241123727
 10
-9.514190548
 20
4.9648782802
  0
LINE
  5
22D
100
AcDbEntity
  8
ASSI
100
AcDbLine
 62
7
  6
CONTINUOUS
 10
-9.5636664277
 20
11.9743422877
 11
-9.5625291571
 21
11.1492467834
  0
LWPOLYLINE
  5
22E
100
AcDbEntity
  8
0
100
AcDbPolyline
 62
7
  6
CONTINUOUS
 90
10
 70
0
 10
-9.5636664277
 20
11.9743422919
 10
-9.5624282593
 20
11.1028253966
 10
-9.5597879533
 20
10.2274072781
 10
-9.5557484092
 20
9.3527461519
 10
-9.5503096363
 20
8.478845996
 10
-9.5434716527
 20
7.6057101438
 10
-9.5352344768
 20
6.7333417418
 10
-9.5255981328
 20
5.8617442139
 10
-9.5145626642
 20
4.9909216281
 10
-9.5021852823
 20
4.1246640528
  0
LINE
  5
22F
100
AcDbEntity
  8
ASSI
100
AcDbLine
 62
7
  6
CONTINUOUS
 10
-9.5626678383
 20
11.9995491699
 11
-9.5636660327
 21
11.9741049753
  0
LWPOLYLINE
  5
230
100
AcDbEntity
  8
0
100
AcDbPolyline
 62
7
  6
CONTINUOUS
 90
3
 70
0
 10
6.4449193759
 20
-13.6818781513
 10
6.4624764852
 20
-13.6899585455
 10
6.4802460987
 20
-13.6975510141
  0
LWPOLYLINE
  5
231
100
AcDbEntity
  8
ASSI
100
AcDbPolyline
 62
7
  6
CONTINUOUS
 90
9
 70
0
 10
6.4320336348
 20
-13.6755672839
 10
6.4584266052
 20
-13.6881446966
 10
6.533884995
 20
-13.7170969811
 10
6.6133344263
 20
-13.7374842629
 10
6.6956324019
 20
-13.7487570278
 10
6.7799619489
 20
-13.7506186677
 10
6.8660420243
 20
-13.7427870662
 10
6.9532695424
 20
-13.7249134808
 10
7.0403596828
 20
-13.6968916044
  0
LINE
  5
232
100
AcDbEntity
  8
0
100
AcDbLine
 62
7
  6
CONTINUOUS
 10
6.4332238923
 20
-13.6761650496
 11
6.4449193759
 21
-13.6818781513
  0
LINE
  5
233
100
AcDbEntity
  8
ASSI
100
AcDbLine
 62
7
  6
CONTINUOUS
 10
-8.4327419258
 20
-6.2431821757
 11
6.4332498512
 21
-13.6761780641
  0
LINE
  5
234
100
AcDbEntity
  8
0
100
AcDbLine
 62
7
  6
CONTINUOUS
 10
-8.4327453868
 20
-6.2431804451
 11
6.4332498512
 21
-13.6761780641
  0
LINE
  5
235
100
AcDbEntity
  8
0
100
AcDbLine
 62
253
  6
CONTINUOUS
 10
-8.680333203
 20
-5.8296662334
 11
6.1768554027
 21
-13.2582605362
  0
LINE
  5
236
100
AcDbEntity
  8
ASSI
100
AcDbLine
 62
253
  6
CONTINUOUS
 10
-8.680333203
 20
-5.8296662334
 11
6.1768554027
 21
-13.2582605362
  0
LINE
  5
237
100
AcDbEntity
  8
ASSI
100
AcDbLine
 62
7
  6
CONTINUOUS
 10
6.4320351991
 20
-13.6755680931
 11
6.4332462978
 21
-13.6761762875
  0
LINE
  5
238
100
AcDbEntity
  8
ASSI
100
AcDbLine
 62
7
  6
CONTINUOUS
 10
-8.4982837575
 20
-6.2056919075
 11
-8.4318367416
 21
-6.2436331425
  0
LWPOLYLINE
  5
239
100
AcDbEntity
  8
0
100
AcDbPolyline
 62
7
  6
CONTINUOUS
 90
4
 70
0
 10
-8.4756993486
 20
-6.2197192273
 10
-8.459952865
 20
-6.2287917763
 10
-8.4439731465
 20
-6.2374346797
 10
-8.432725992
 20
-6.2431901074
  0
LWPOLYLINE
  5
23A
100
AcDbEntity
  8
0
100
AcDbPolyline
 62
7
  6
CONTINUOUS
 90
3
 70
0
 10
-8.5064768692
 20
-6.2002928619
 10
-8.4912062415
 20
-6.2102206174
 10
-8.4756993486
 20
-6.2197192273
  0
LWPOLYLINE
  5
23B
100
AcDbEntity
  8
0
100
AcDbPolyline
 62
7
  6
CONTINUOUS
 90
32
 70
0
 10
-8.8206573696
 20
-5.6940669359
 10
-8.816601825
 20
-5.7160036012
 10
-8.8120526707
 20
-5.7376114841
 10
-8.8070183223
 20
-5.7588854018
 10
-8.801508211
 20
-5.7798162768
 10
-8.7955312154
 20
-5.8003985914
 10
-8.7890960742
 20
-5.8206283187
 10
-8.7822131319
 20
-5.8404965624
 10
-8.7748921753
 20
-5.8599973236
 10
-8.7671429668
 20
-5.8791260095
 10
-8.7589771427
 20
-5.8978740172
 10
-8.7504074493
 20
-5.9162316619
 10
-8.7414432788
 20
-5.9341979374
 10
-8.7320918949
 20
-5.9517753923
 10
-8.7223672129
 20
-5.9689537704
 10
-8.7122784323
 20
-5.9857322843
 10
-8.7018247898
 20
-6.0021253438
 10
-8.6910171599
 20
-6.0181268508
 10
-8.6798668146
 20
-6.0337307166
 10
-8.6683718452
 20
-6.0489487161
 10
-8.6565422014
 20
-6.063775335
 10
-8.6443897471
 20
-6.0782032179
 10
-8.631914153
 20
-6.092239151
 10
-8.6191260938
 20
-6.1058766235
 10
-8.6060370212
 20
-6.1191091564
 10
-8.5926468014
 20
-6.1319417003
 10
-8.5789666687
 20
-6.1443674343
 10
-8.5650078489
 20
-6.1563802675
 10
-8.5507693492
 20
-6.1679845883
 10
-8.5362628532
 20
-6.1791736769
 10
-8.5214995735
 20
-6.1899417621
 10
-8.5064768692
 20
-6.2002928619
  0
LWPOLYLINE
  5
23C
100
AcDbEntity
  8
ASSI
100
AcDbPolyline
 62
7
  6
CONTINUOUS
 90
10
 70
0
 10
-8.8267091675
 20
-5.6535976791
 10
-8.8189639989
 20
-5.703592103
 10
-8.799799709
 20
-5.7858991729
 10
-8.7736846595
 20
-5.8630733278
 10
-8.7412862885
 20
-5.9345022677
 10
-8.7030666812
 20
-6.0002269125
 10
-8.6591290749
 20
-6.0606014569
 10
-8.6100961097
 20
-6.1150807009
 10
-8.5565373676
 20
-6.1633600288
 10
-8.4982837575
 20
-6.2056919075
  0
LWPOLYLINE
  5
23D
100
AcDbEntity
  8
0
100
AcDbPolyline
 62
7
  6
CONTINUOUS
 90
3
 70
0
 10
-8.8267535604
 20
-5.6532506544
 10
-8.8242114311
 20
-5.6718053982
 10
-8.8206573696
 20
-5.6940669359
  0
LINE
  5
23E
100
AcDbEntity
  8
ASSI
100
AcDbLine
 62
7
  6
CONTINUOUS
 10
-8.8267538473
 20
-5.6532484412
 11
-8.8267091735
 21
-5.6535976799
  0
LINE
  5
23F
100
AcDbEntity
  8
ASSI
100
AcDbLine
 62
7
  6
CONTINUOUS
 10
-8.9474666839
 20
-4.6520162788
 11
-8.8267538473
 21
-5.6532484412
  0
LWPOLYLINE
  5
240
100
AcDbEntity
  8
0
100
AcDbPolyline
 62
7
  6
CONTINUOUS
 90
4
 70
0
 10
-8.9530045083
 20
-4.6034366135
 10
-8.9121986326
 20
-4.9555653326
 10
-8.8699649291
 20
-5.3066861442
 10
-8.8267538766
 20
-5.6532482099
  0
LINE
  5
241
100
AcDbEntity
  8
DRAFT
100
AcDbLine
 62
7
  6
CONTINUOUS
 10
-4.0039716357
 20
13.3786841811
 11
-4.0039716357
 21
12.3394536966
  0
LINE
  5
242
100
AcDbEntity
  8
ASSI
100
AcDbLine
 62
7
  6
CONTINUOUS
 10
-4.0039716357
 20
13.3786841811
 11
-4.0039716357
 21
12.3394536966
  0
LINE
  5
243
100
AcDbEntity
  8
DRAFT
100
AcDbLine
 62
7
  6
CONTINUOUS
 10
8.0344732174
 20
7.3594617545
 11
5.7275613921
 21
6.368924256
  0
LINE
  5
244
100
AcDbEntity
  8
ASSI
100
AcDbLine
 62
7
  6
CONTINUOUS
 10
8.0344732174
 20
7.3594617545
 11
5.7275613921
 21
6.368924256
  0
LINE
  5
245
100
AcDbEntity
  8
RACCORDO
100
AcDbLine
 62
253
  6
CONTINUOUS
 10
9.722660823
 20
6.5153679517
 11
5.909436639
 21
4.6980421838
  0
LINE
  5
246
100
AcDbEntity
  8
ASSI
100
AcDbLine
 62
253
  6
CONTINUOUS
 10
9.722660823
 20
6.5153679517
 11
5.909436639
 21
4.6980421838
  0
LINE
  5
247
100
AcDbEntity
  8
RACCORDO
100
AcDbLine
 62
253
  6
CONTINUOUS
 10
9.8994914011
 20
6.2105040074
 11
6.0814802797
 21
4.3908968566
  0
LINE
  5
248
100
AcDbEntity
  8
ASSI
100
AcDbLine
 62
253
  6
CONTINUOUS
 10
9.8994914011
 20
6.2105040074
 11
6.0814802797
 21
4.3908968566
  0
LINE
  5
249
100
AcDbEntity
  8
0
100
AcDbLine
 62
253
  6
CONTINUOUS
 10
5.4528603814
 20
-3.4570571283
 11
-9.3557318103
 21
3.9472389675
  0
LINE
  5
24A
100
AcDbEntity
  8
ASSI
100
AcDbLine
 62
253
  6
CONTINUOUS
 10
5.4528603814
 20
-3.4570571283
 11
-9.3557318103
 21
3.9472389675
  0
LINE
  5
24B
100
AcDbEntity
  8
0
100
AcDbLine
 62
7
  6
CONTINUOUS
 10
0.9427533171
 20
2.1338488952
 11
-4.9289179128
 21
5.0696845101
  0
LINE
  5
24C
100
AcDbEntity
  8
RACCORDO
100
AcDbLine
 62
7
  6
CONTINUOUS
 10
0.9427533171
 20
2.1338488952
 11
-4.9289179128
 21
5.0696845101
  0
LINE
  5
24D
100
AcDbEntity
  8
ASSI
100
AcDbLine
 62
7
  6
CONTINUOUS
 10
0.9427533171
 20
2.1338488952
 11
-4.9289179128
 21
5.0696845101
  0
LINE
  5
24E
100
AcDbEntity
  8
0
100
AcDbLine
 62
7
  6
CONTINUOUS
 10
0.9283083116
 20
4.0323259711
 11
-4.9424755377
 21
6.9677178957
  0
LINE
  5
24F
100
AcDbEntity
  8
RACCORDO
100
AcDbLine
 62
7
  6
CONTINUOUS
 10
0.9283083116
 20
4.0323259711
 11
-4.9424755377
 21
6.9677178957
  0
LINE
  5
250
100
AcDbEntity
  8
ASSI
100
AcDbLine
 62
7
  6
CONTINUOUS
 10
0.9283083116
 20
4.0323259711
 11
-4.9424755377
 21
6.9677178957
  0
LINE
  5
251
100
AcDbEntity
  8
RACCORDO
100
AcDbLine
 62
253
  6
CONTINUOUS
 10
5.3869262311
 20
4.3949634281
 11
-9.4172181984
 21
11.7970356428
  0
LINE
  5
252
100
AcDbEntity
  8
ASSI
100
AcDbLine
 62
253
  6
CONTINUOUS
 10
5.3869262311
 20
4.3949634281
 11
-9.4172181984
 21
11.7970356428
  0
LINE
  5
253
100
AcDbEntity
  8
RACCORDO
100
AcDbLine
 62
253
  6
CONTINUOUS
 10
5.5621615168
 20
4.6992501227
 11
-9.2419855013
 21
12.1013236317
  0
LINE
  5
254
100
AcDbEntity
  8
ASSI
100
AcDbLine
 62
253
  6
CONTINUOUS
 10
5.5621615168
 20
4.6992501227
 11
-9.2419855013
 21
12.1013236317
  0
LINE
  5
255
100
AcDbEntity
  8
DRAFT
100
AcDbLine
 62
7
  6
CONTINUOUS
 10
5.7275613921
 20
6.368924256
 11
-5.9397004975
 21
12.2025552008
  0
LINE
  5
256
100
AcDbEntity
  8
ASSI
100
AcDbLine
 62
7
  6
CONTINUOUS
 10
5.7275613921
 20
6.368924256
 11
-5.9397004975
 21
12.2025552008
  0
LINE
  5
257
100
AcDbEntity
  8
RACCORDO
100
AcDbLine
 62
7
  6
CONTINUOUS
 10
9.8994914011
 20
6.2105040074
 11
9.8994914011
 21
-4.8313775865
  0
LINE
  5
258
100
AcDbEntity
  8
ASSI
100
AcDbLine
 62
7
  6
CONTINUOUS
 10
9.8994914011
 20
6.2105040074
 11
9.8994914011
 21
-4.8313775865
  0
LINE
  5
259
100
AcDbEntity
  8
0
100
AcDbLine
 62
7
  6
CONTINUOUS
 10
9.3481955402
 20
-12.5455493541
 11
9.8994914011
 21
-4.8313775865
  0
LINE
  5
25A
100
AcDbEntity
  8
ASSI
100
AcDbLine
 62
7
  6
CONTINUOUS
 10
9.3481955402
 20
-12.5455493541
 11
9.8994914011
 21
-4.8313775865
  0
LINE
  5
25B
100
AcDbEntity
  8
RACCORDO
100
AcDbLine
 62
7
  6
CONTINUOUS
 10
9.722660823
 20
6.5153679517
 11
8.0344732174
 21
7.3594617545
  0
LINE
  5
25C
100
AcDbEntity
  8
ASSI
100
AcDbLine
 62
7
  6
CONTINUOUS
 10
9.722660823
 20
6.5153679517
 11
8.0344732174
 21
7.3594617545
  0
LINE
  5
25D
100
AcDbEntity
  8
RACCORDO
100
AcDbLine
 62
7
  6
CONTINUOUS
 10
-4.0039716357
 20
13.3786841811
 11
-5.6921592413
 21
14.2227779839
  0
LINE
  5
25E
100
AcDbEntity
  8
ASSI
100
AcDbLine
 62
7
  6
CONTINUOUS
 10
-4.0039716357
 20
13.3786841811
 11
-5.6921592413
 21
14.2227779839
  0
LINE
  5
25F
100
AcDbEntity
  8
0
100
AcDbLine
 62
253
  6
CONTINUOUS
 10
7.2101179809
 20
-13.4098398035
 11
9.3481955402
 21
-12.5455493541
  0
LINE
  5
260
100
AcDbEntity
  8
ASSI
100
AcDbLine
 62
253
  6
CONTINUOUS
 10
7.2101179809
 20
-13.4098398035
 11
9.3481955402
 21
-12.5455493541
  0
LINE
  5
261
100
AcDbEntity
  8
0
100
AcDbLine
 62
7
  6
CONTINUOUS
 10
7.0565061624
 20
-13.6905593321
 11
9.1791550923
 21
-12.8325057085
  0
LINE
  5
262
100
AcDbEntity
  8
ASSI
100
AcDbLine
 62
7
  6
CONTINUOUS
 10
9.1791550923
 20
-12.8325057085
 11
7.0558704835
 21
-13.6908149627
  0
LINE
  5
263
100
AcDbEntity
  8
0
100
AcDbLine
 62
7
  6
CONTINUOUS
 10
7.0403596828
 20
-13.6968916044
 11
7.0565027014
 21
-13.6905607188
  0
LINE
  5
264
100
AcDbEntity
  8
ASSI
100
AcDbLine
 62
7
  6
CONTINUOUS
 10
7.0403596828
 20
-13.6968916044
 11
7.0558704792
 21
-13.690814952
  0
LINE
  5
265
100
AcDbEntity
  8
0
100
AcDbLine
 62
7
  6
CONTINUOUS
 10
7.0183316924
 20
-13.7049685544
 11
7.0403596828
 21
-13.6968916044
  0
ARC
  5
266
100
AcDbEntity
  8
RACCORDO
100
AcDbCircle
 62
253
  6
CONTINUOUS
 10
533.8484282077
 20
12.1265507359
 40
543.2657495646
100
AcDbArc
 50
180.0347524677
 51
180.8626676024
  0
ARC
  5
267
100
AcDbEntity
  8
ASSI
100
AcDbCircle
 62
253
  6
CONTINUOUS
 10
533.8484282077
 20
12.1265507359
 40
543.2657495646
100
AcDbArc
 50
180.0347524677
 51
180.8626676024
  0
ARC
  5
268
100
AcDbEntity
  8
0
100
AcDbCircle
 62
7
  6
CONTINUOUS
 10
519.3532881954
 20
10.0284650526
 40
524.5858329042
100
AcDbArc
 50
180.3564848358
 51
180.488709561
  0
ARC
  5
269
100
AcDbEntity
  8
RACCORDO
100
AcDbCircle
 62
7
  6
CONTINUOUS
 10
525.6866701965
 20
6.810397637
 40
524.4845405935
100
AcDbArc
 50
180.3564737649
 51
180.4887240263
  0
ARC
  5
26A
100
AcDbEntity
  8
ASSI
100
AcDbCircle
 62
7
  6
CONTINUOUS
 10
525.6866701965
 20
6.810397637
 40
524.4845405935
100
AcDbArc
 50
180.3564737649
 51
180.4887240263
  0
ARC
  5
26B
100
AcDbEntity
  8
RACCORDO
100
AcDbCircle
 62
253
  6
CONTINUOUS
 10
511.2454521451
 20
4.7157789238
 40
505.8586143969
100
AcDbArc
 50
180.0363369806
 51
180.9257317565
  0
ARC
  5
26C
100
AcDbEntity
  8
ASSI
100
AcDbCircle
 62
253
  6
CONTINUOUS
 10
511.2454521451
 20
4.7157789238
 40
505.8586143969
100
AcDbArc
 50
180.0363369806
 51
180.9257317565
  0
ARC
  5
26D
100
AcDbEntity
  8
RACCORDO
100
AcDbCircle
 62
253
  6
CONTINUOUS
 10
511.3848569638
 20
4.7093163455
 40
505.3034641267
100
AcDbArc
 50
180.0361052216
 51
180.9257740598
  0
ARC
  5
26E
100
AcDbEntity
  8
ASSI
100
AcDbCircle
 62
253
  6
CONTINUOUS
 10
511.3848569638
 20
4.7093163455
 40
505.3034641267
100
AcDbArc
 50
180.0361052216
 51
180.9257740598
  0
ARC
  5
26F
100
AcDbEntity
  8
0
100
AcDbCircle
 62
7
  6
CONTINUOUS
 10
0.7730175973
 20
3.5444173162
 40
0.439272286
100
AcDbArc
 50
0.3713343587
 51
3.0207856875
  0
ARC
  5
270
100
AcDbEntity
  8
0
100
AcDbCircle
 62
7
  6
CONTINUOUS
 10
0.8118472848
 20
2.3330597044
 40
0.4093785016
100
AcDbArc
 50
357.7290130548
 51
0.5068209702
  0
ARC
  5
271
100
AcDbEntity
  8
0
100
AcDbCircle
 62
253
  6
CONTINUOUS
 10
6.6071984914
 20
-13.3282762037
 40
0.388964861
100
AcDbArc
 50
235.3376941519
 51
243.3033768423
  0
ARC
  5
272
100
AcDbEntity
  8
0
100
AcDbCircle
 62
253
  6
CONTINUOUS
 10
6.6068414849
 20
-13.3289547077
 40
0.3881982963
100
AcDbArc
 50
243.3054608346
 51
243.4335835095
  0
ARC
  5
273
100
AcDbEntity
  8
0
100
AcDbCircle
 62
253
  6
CONTINUOUS
 10
-8.2673742355
 20
-5.9136152014
 40
0.3687510883
100
AcDbArc
 50
235.0937080222
 51
237.0589444559
  0
ARC
  5
274
100
AcDbEntity
  8
0
100
AcDbCircle
 62
253
  6
CONTINUOUS
 10
-8.2703523306
 20
-5.9184075502
 40
0.3631098025
100
AcDbArc
 50
237.0421150118
 51
243.4346266922
  0
ARC
  5
275
100
AcDbEntity
  8
ASSI
100
AcDbCircle
 62
253
  6
CONTINUOUS
 10
-8.2703523306
 20
-5.9184075502
 40
0.3631098025
100
AcDbArc
 50
237.0421150118
 51
243.4346266922
  0
ARC
  5
276
100
AcDbEntity
  8
0
100
AcDbCircle
 62
7
  6
CONTINUOUS
 10
0.7762131627
 20
3.7284217509
 40
0.3398392404
100
AcDbArc
 50
60.2657070727
 51
63.4133789192
  0
ARC
  5
277
100
AcDbEntity
  8
0
100
AcDbCircle
 62
7
  6
CONTINUOUS
 10
-5.0820771425
 20
6.6888167742
 40
0.3118885116
100
AcDbArc
 50
63.4101305225
 51
66.7432273267
  0
ARC
  5
278
100
AcDbEntity
  8
0
100
AcDbCircle
 62
253
  6
CONTINUOUS
 10
-8.6543368596
 20
-5.6313779904
 40
0.1737979569
100
AcDbArc
 50
187.2298840294
 51
187.3639784988
  0
ARC
  5
279
100
AcDbEntity
  8
0
100
AcDbCircle
 62
253
  6
CONTINUOUS
 10
-8.6545126823
 20
-5.6314017003
 40
0.1736205455
100
AcDbArc
 50
187.3636554945
 51
189.2806106291
  0
ARC
  5
27A
100
AcDbEntity
  8
RACCORDO
100
AcDbCircle
 62
7
  6
CONTINUOUS
 10
-5.0521046616
 20
6.8437475078
 40
0.1520395851
100
AcDbArc
 50
125.5040224763
 51
131.3670801136
  0
ARC
  5
27B
100
AcDbEntity
  8
ASSI
100
AcDbCircle
 62
7
  6
CONTINUOUS
 10
-5.0521046616
 20
6.8437475078
 40
0.1520395851
100
AcDbArc
 50
125.5040224763
 51
131.3670801137
  0
ARC
  5
27C
100
AcDbEntity
  8
0
100
AcDbCircle
 62
7
  6
CONTINUOUS
 10
1.053871054
 20
2.2552185102
 40
0.1488190548
100
AcDbArc
 50
287.7951541957
 51
289.6181607914
  0
SPLINE
  5
27D
100
AcDbEntity
  8
0
100
AcDbSpline
 62
7
  6
CONTINUOUS
 70
0
 71
3
 72
14
 73
10
 74
8
 42
0.0000001
 43
0.0000001
 44
0.0000000001
 12
-0.1542207178
 22
-0.0495065853
 32
0.0
 13
-0.144755623
 23
0.0723778115
 33
0.0
 40
0.0
 40
0.0
 40
0.0
 40
0.0
 40
0.1023200679
 40
0.2374372834
 40
0.376996687
 40
0.5218828048
 40
0.6739155465
 40
0.8334144111
 40
1.0
 40
1.0
 40
1.0
 40
1.0
 10
1.0993523563
 20
2.1135196668
 30
0.0
 10
1.0940923982
 20
2.1118311611
 30
0.0
 10
1.0816696551
 20
2.1085879447
 30
0.0
 10
1.0614489209
 20
2.1058947472
 30
0.0
 10
1.038755294
 20
2.1058451979
 30
0.0
 10
1.0153214309
 20
2.1086308644
 30
0.0
 10
0.9912964363
 20
2.1142302106
 30
0.0
 10
0.9668602609
 20
2.1226060614
 30
0.0
 10
0.950791384
 20
2.1298298618
 30
0.0
 10
0.9427533171
 20
2.1338488952
 30
0.0
 11
1.0993523563
 21
2.1135196668
 31
0.0
 11
1.0833275666
 21
2.1093232163
 31
0.0
 11
1.0616571155
 21
2.1063934534
 31
0.0
 11
1.0390708162
 21
2.1062909176
 31
0.0
 11
1.01577938
 21
2.1090013824
 31
0.0
 11
0.9918028826
 21
2.1145281654
 31
0.0
 11
0.9673652981
 21
2.1228434993
 31
0.0
 11
0.9427533171
 21
2.1338488952
 31
0.0
  0
SPLINE
  5
27E
100
AcDbEntity
  8
0
100
AcDbSpline
 62
7
  6
CONTINUOUS
 70
0
 71
3
 72
17
 73
13
 74
11
 42
0.0000001
 43
0.0000001
 44
0.0000000001
 12
-0.0014136376
 22
0.227185663
 32
0.0
 13
0.1851112433
 23
0.1320421938
 33
0.0
 40
0.0
 40
0.0
 40
0.0
 40
0.0
 40
0.1300572035
 40
0.2552847793
 40
0.3750093211
 40
0.4890287605
 40
0.5982816005
 40
0.7029314772
 40
0.8031622927
 40
0.8998537876
 40
0.9944866023
 40
1.0
 40
1.0
 40
1.0
 40
1.0
 10
-5.2223910508
 20
6.7646000775
 30
0.0
 10
-5.2224523354
 20
6.7744491215
 30
0.0
 10
-5.2218995973
 20
6.7937944155
 30
0.0
 10
-5.2189138038
 20
6.822065726
 30
0.0
 10
-5.2138107387
 20
6.8488026114
 30
0.0
 10
-5.20663525
 20
6.8738073873
 30
0.0
 10
-5.1974327157
 20
6.8969212875
 30
0.0
 10
-5.1862541844
 20
6.917979069
 30
0.0
 10
-5.1731957106
 20
6.9367862434
 30
0.0
 10
-5.1583468181
 20
6.9532135108
 30
0.0
 10
-5.1469043132
 20
6.9628427771
 30
0.0
 10
-5.140743385
 20
6.9672764276
 30
0.0
 10
-5.1404031877
 20
6.9675190947
 30
0.0
 11
-5.2223910508
 21
6.7646000775
 31
0.0
 11
-5.2215050552
 21
6.7941344952
 31
0.0
 11
-5.2184696133
 21
6.8224225633
 31
0.0
 11
-5.2133185125
 21
6.8491305856
 31
0.0
 11
-5.2061196082
 21
6.8740142612
 31
0.0
 11
-5.1968837933
 21
6.8970531344
 31
0.0
 11
-5.1856844815
 21
6.9180256312
 31
0.0
 11
-5.1726532693
 21
6.9366998439
 31
0.0
 11
-5.1578900514
 21
6.9529667341
 31
0.0
 11
-5.1414207178
 21
6.966786841
 31
0.0
 11
-5.1404031877
 21
6.9675190947
 31
0.0
  0
SPLINE
  5
27F
100
AcDbEntity
  8
0
100
AcDbSpline
 62
7
  6
CONTINUOUS
 70
0
 71
3
 72
25
 73
21
 74
19
 42
0.0000001
 43
0.0000001
 44
0.0000000001
 12
-0.5245274336
 22
0.2622637168
 32
0.0
 13
-0.0050025685
 23
0.5864181615
 33
0.0
 40
0.0
 40
0.0
 40
0.0
 40
0.0
 40
0.0480002932
 40
0.0980590819
 40
0.1498717826
 40
0.2031749175
 40
0.2581430781
 40
0.3144923273
 40
0.3717784855
 40
0.4297960057
 40
0.4886066784
 40
0.5477370808
 40
0.6067006057
 40
0.6655412348
 40
0.7240391648
 40
0.7817066167
 40
0.8381979445
 40
0.893647016
 40
0.9477181013
 40
1.0
 40
1.0
 40
1.0
 40
1.0
 10
-4.9289179127
 20
5.0696845101
 30
0.0
 10
-4.937310403
 20
5.0738807552
 30
0.0
 10
-4.9540928519
 20
5.0831943252
 30
0.0
 10
-4.9785507114
 20
5.0993689549
 30
0.0
 10
-5.0026037962
 20
5.117891263
 30
0.0
 10
-5.0260810057
 20
5.1386142879
 30
0.0
 10
-5.0488328658
 20
5.1614004492
 30
0.0
 10
-5.0706948694
 20
5.1860898308
 30
0.0
 10
-5.0914742379
 20
5.212458804
 30
0.0
 10
-5.1110398819
 20
5.2403294433
 30
0.0
 10
-5.1292623985
 20
5.2695216776
 30
0.0
 10
-5.1459923319
 20
5.2998053454
 30
0.0
 10
-5.1610989406
 20
5.3309369304
 30
0.0
 10
-5.1744842743
 20
5.362712661
 30
0.0
 10
-5.1860521855
 20
5.3949256847
 30
0.0
 10
-5.1956942503
 20
5.4272884395
 30
0.0
 10
-5.2033435671
 20
5.4595678128
 30
0.0
 10
-5.2089456776
 20
5.4915532159
 30
0.0
 10
-5.2124477046
 20
5.523008437
 30
0.0
 10
-5.2133747572
 20
5.5437970638
 30
0.0
 10
-5.2134619384
 20
5.5540167488
 30
0.0
 11
-4.9289179127
 21
5.0696845101
 31
0.0
 11
-4.9535536486
 21
5.0833029462
 31
0.0
 11
-4.9780631406
 21
5.0994611025
 31
0.0
 11
-5.0021594929
 21
5.1179709619
 31
0.0
 11
-5.0256151391
 21
5.1386340141
 31
0.0
 11
-5.0484101112
 21
5.1614269241
 31
0.0
 11
-5.0703327854
 21
5.1861533573
 31
0.0
 11
-5.0911385964
 21
5.212530113
 31
0.0
 11
-5.1106968928
 21
5.2403705451
 31
0.0
 11
-5.1289656196
 21
5.2696235439
 31
0.0
 11
-5.1457360038
 21
5.2999749389
 31
0.0
 11
-5.1608303358
 21
5.3310850107
 31
0.0
 11
-5.1742204637
 21
5.3628875402
 31
0.0
 11
-5.185804994
 21
5.3951778757
 31
0.0
 11
-5.1954469129
 21
5.4275927245
 31
0.0
 11
-5.2030668658
 21
5.4598332289
 31
0.0
 11
-5.2086524505
 21
5.4918674406
 31
0.0
 11
-5.2121310577
 21
5.523385477
 31
0.0
 11
-5.2134619384
 21
5.5540167488
 31
0.0
  0
SPLINE
  5
280
100
AcDbEntity
  8
0
100
AcDbSpline
 62
7
  6
CONTINUOUS
 70
0
 71
3
 72
16
 73
12
 74
10
 42
0.0000001
 43
0.0000001
 44
0.0000000001
 12
0.1548355564
 22
0.110446163
 32
0.0
 13
0.1746969933
 23
-0.0749889637
 33
0.0
 40
0.0
 40
0.0
 40
0.0
 40
0.0
 40
0.1049978016
 40
0.2160721982
 40
0.3286658053
 40
0.4442432496
 40
0.5635640949
 40
0.6873708907
 40
0.8172089711
 40
0.9533450901
 40
1.0
 40
1.0
 40
1.0
 40
1.0
 10
-5.1404031877
 20
6.9675190947
 30
0.0
 10
-5.1349840567
 20
6.9713846295
 30
0.0
 10
-5.1233012498
 20
6.9785974737
 30
0.0
 10
-5.1041685458
 20
6.9869853419
 30
0.0
 10
-5.0833935741
 20
6.9927498807
 30
0.0
 10
-5.0615106173
 20
6.9956759892
 30
0.0
 10
-5.0387292935
 20
6.995741425
 30
0.0
 10
-5.0152154165
 20
6.9929631345
 30
0.0
 10
-4.9911207034
 20
6.9873628877
 30
0.0
 10
-4.9723565506
 20
6.9809397753
 30
0.0
 10
-4.9616440207
 20
6.9765288433
 30
0.0
 10
-4.9589271966
 20
6.9753626422
 30
0.0
 11
-5.1404031877
 21
6.9675190947
 31
0.0
 11
-5.1234183552
 21
6.9779935559
 31
0.0
 11
-5.1040900966
 21
6.9864761258
 31
0.0
 11
-5.0834798895
 21
6.9922229363
 31
0.0
 11
-5.0617158792
 21
6.9951759774
 31
0.0
 11
-5.0390413803
 21
6.9952937026
 31
0.0
 11
-5.0156699725
 21
6.9925899683
 31
0.0
 11
-4.9916238275
 21
6.987061816
 31
0.0
 11
-4.9671293259
 21
6.9787378067
 31
0.0
 11
-4.9589271966
 21
6.9753626422
 31
0.0
  0
LINE
  5
281
100
AcDbEntity
  8
0
100
AcDbLine
 62
7
  6
CONTINUOUS
 10
1.2122806579
 20
3.5472642231
 11
1.21342781
 21
3.3678307486
  0
LINE
  5
282
100
AcDbEntity
  8
0
100
AcDbLine
 62
7
  6
CONTINUOUS
 10
1.21342781
 20
3.3678307486
 11
1.2137241482
 21
3.3229767697
  0
LINE
  5
283
100
AcDbEntity
  8
0
100
AcDbLine
 62
7
  6
CONTINUOUS
 10
1.2137241482
 20
3.3229767697
 11
1.2162323324
 21
2.9642150789
  0
LINE
  5
284
100
AcDbEntity
  8
0
100
AcDbLine
 62
7
  6
CONTINUOUS
 10
1.2162323324
 20
2.9642150789
 11
1.2165630403
 21
2.9193786254
  0
LINE
  5
285
100
AcDbEntity
  8
0
100
AcDbLine
 62
7
  6
CONTINUOUS
 10
1.2165630403
 20
2.9193786254
 11
1.2193461803
 21
2.5607574772
  0
LINE
  5
286
100
AcDbEntity
  8
0
100
AcDbLine
 62
7
  6
CONTINUOUS
 10
1.2193461803
 20
2.5607574772
 11
1.2197112575
 21
2.5159386324
  0
LINE
  5
287
100
AcDbEntity
  8
0
100
AcDbLine
 62
7
  6
CONTINUOUS
 10
1.2197112575
 20
2.5159386324
 11
1.2212097703
 21
2.3366808944
  0
SPLINE
  5
288
100
AcDbEntity
  8
0
100
AcDbSpline
 62
7
  6
CONTINUOUS
 70
0
 71
3
 72
25
 73
21
 74
19
 42
0.0000001
 43
0.0000001
 44
0.0000000001
 12
0.4760651431
 22
-0.2716862358
 32
0.0
 13
0.028742675
 23
-0.5473191178
 33
0.0
 40
0.0
 40
0.0
 40
0.0
 40
0.0
 40
0.0173798543
 40
0.0710354597
 40
0.1265740146
 40
0.183712675
 40
0.2426367666
 40
0.3030389801
 40
0.3644410988
 40
0.4266233133
 40
0.4896463532
 40
0.5529995242
 40
0.6161603136
 40
0.6791775961
 40
0.7418114536
 40
0.8035396236
 40
0.8639953254
 40
0.9233222358
 40
0.981159128
 40
1.0
 40
1.0
 40
1.0
 40
1.0
 10
0.9447661115
 20
4.0235159948
 30
0.0
 10
0.9475240925
 20
4.0219420391
 30
0.0
 10
0.9587104511
 20
4.0153570717
 30
0.0
 10
0.9780043095
 20
4.002585437
 30
0.0
 10
1.0020806386
 20
3.9840178419
 30
0.0
 10
1.025574041
 20
3.9632397598
 30
0.0
 10
1.0483335419
 20
3.9403904985
 30
0.0
 10
1.0701933403
 20
3.915632241
 30
0.0
 10
1.0909601446
 20
3.8891909139
 30
0.0
 10
1.1105024344
 20
3.8612470191
 30
0.0
 10
1.1286906301
 20
3.8319834474
 30
0.0
 10
1.145375467
 20
3.8016336041
 30
0.0
 10
1.1604274447
 20
3.77044307
 30
0.0
 10
1.1737498776
 20
3.7386175958
 30
0.0
 10
1.1852481745
 20
3.7063656504
 30
0.0
 10
1.194815929
 20
3.6739760865
 30
0.0
 10
1.2023884046
 20
3.6416821373
 30
0.0
 10
1.2079130872
 20
3.6096945855
 30
0.0
 10
1.2106053374
 20
3.5849845586
 30
0.0
 10
1.2114989946
 20
3.5710035132
 30
0.0
 10
1.2116795069
 20
3.5675661901
 30
0.0
 11
0.9447661115
 21
4.0235159948
 31
0.0
 11
0.9529764525
 21
4.0186849436
 31
0.0
 11
0.9775147115
 21
4.0024926207
 31
0.0
 11
1.0016343793
 21
3.9839376495
 31
0.0
 11
1.0251064693
 21
3.963219661
 31
0.0
 11
1.0479095208
 21
3.940363423
 31
0.0
 11
1.0698303005
 21
3.915567878
 31
0.0
 11
1.0906235448
 21
3.8891189545
 31
0.0
 11
1.1101591405
 21
3.861204643
 31
0.0
 11
1.1283938453
 21
3.8318797394
 31
0.0
 11
1.1451191703
 21
3.8014619251
 31
0.0
 11
1.1601587971
 21
3.7702933119
 31
0.0
 11
1.1734863091
 21
3.7384403059
 31
0.0
 11
1.1850010718
 21
3.7061110195
 31
0.0
 11
1.1945684057
 21
3.6736699398
 31
0.0
 11
1.2021116008
 21
3.641415008
 31
0.0
 11
1.2076197099
 21
3.6093783382
 31
0.0
 11
1.2110221381
 21
3.5778712077
 31
0.0
 11
1.2116795069
 21
3.5675661901
 31
0.0
  0
SPLINE
  5
289
100
AcDbEntity
  8
0
100
AcDbSpline
 62
7
  6
CONTINUOUS
 70
0
 71
3
 72
18
 73
14
 74
12
 42
0.0000001
 43
0.0000001
 44
0.0000000001
 12
-0.0099005647
 22
-0.2476557594
 32
0.0
 13
-0.2335873972
 23
-0.0832697719
 33
0.0
 40
0.0
 40
0.0
 40
0.0
 40
0.0
 40
0.0392494446
 40
0.1540753989
 40
0.2637785377
 40
0.3681814313
 40
0.4681473846
 40
0.5638276364
 40
0.6554002396
 40
0.7436879507
 40
0.8300547987
 40
0.9152162534
 40
1.0
 40
1.0
 40
1.0
 40
1.0
 10
1.2209042559
 20
2.3168377448
 30
0.0
 10
1.2207747253
 20
2.3135976278
 30
0.0
 10
1.2201091112
 20
2.3008844787
 30
0.0
 10
1.2178744398
 20
2.2791905503
 30
0.0
 10
1.2128466564
 20
2.2524569591
 30
0.0
 10
1.2057495021
 20
2.2274660072
 30
0.0
 10
1.1966286994
 20
2.2043749372
 30
0.0
 10
1.1855355868
 20
2.1833475114
 30
0.0
 10
1.1725660091
 20
2.1645760782
 30
0.0
 10
1.1578091255
 20
2.1481877737
 30
0.0
 10
1.1413557134
 20
2.1343021709
 30
0.0
 10
1.123336843
 20
2.1230503765
 30
0.0
 10
1.1104385459
 20
2.1173915487
 30
0.0
 10
1.1038370744
 20
2.115038241
 30
0.0
 11
1.2209042559
 21
2.3168377448
 31
0.0
 11
1.220394095
 21
2.3071231819
 31
0.0
 11
1.2174309376
 21
2.2788261399
 31
0.0
 11
1.2123546353
 21
2.2521219199
 31
0.0
 11
1.2052332029
 21
2.2272523275
 31
0.0
 11
1.196078318
 21
2.2042365168
 31
0.0
 11
1.1849639659
 21
2.183295374
 31
0.0
 11
1.172021622
 21
2.1646585203
 31
0.0
 11
1.1573501925
 21
2.1484316353
 31
0.0
 11
1.1409761298
 21
2.1346528397
 31
0.0
 11
1.1230714666
 21
2.1234861909
 31
0.0
 11
1.1038370744
 21
2.115038241
 31
0.0
  0
SPLINE
  5
28A
100
AcDbEntity
  8
RACCORDO
100
AcDbSpline
 62
7
  6
CONTINUOUS
 70
0
 71
3
 72
16
 73
12
 74
10
 42
0.0000001
 43
0.0000001
 44
0.0000000001
 12
0.1696147045
 22
0.1209883165
 32
0.0
 13
0.1861936725
 23
-0.0930968362
 33
0.0
 40
0.0
 40
0.0
 40
0.0
 40
0.0
 40
0.0958690123
 40
0.1972796348
 40
0.3000767723
 40
0.4055993299
 40
0.5145435844
 40
0.6275877901
 40
0.7461181251
 40
0.8703585636
 40
1.0
 40
1.0
 40
1.0
 40
1.0
 10
-5.1404031877
 20
6.9675190947
 30
0.0
 10
-5.134982923
 20
6.9713854382
 30
0.0
 10
-5.1232979541
 20
6.9785993909
 30
0.0
 10
-5.1041617978
 20
6.9869878875
 30
0.0
 10
-5.0833834958
 20
6.9927520691
 30
0.0
 10
-5.0614968492
 20
6.9956770544
 30
0.0
 10
-5.0387112534
 20
6.9957405291
 30
0.0
 10
-5.0151941299
 20
6.9929594662
 30
0.0
 10
-4.9911001981
 20
6.9873568389
 30
0.0
 10
-4.966614958
 20
6.9789732782
 30
0.0
 10
-4.9505216761
 20
6.9717409649
 30
0.0
 10
-4.9424755377
 20
6.9677178957
 30
0.0
 11
-5.1404031877
 21
6.9675190947
 31
0.0
 11
-5.123414659
 21
6.9779955041
 31
0.0
 11
-5.1040833068
 21
6.9864785457
 31
0.0
 11
-5.0834699276
 21
6.9922249832
 31
0.0
 11
-5.061702452
 21
6.9951769039
 31
0.0
 11
-5.0390237291
 21
6.9952927077
 31
0.0
 11
-5.0156473951
 21
6.9925860527
 31
0.0
 11
-4.9916006945
 21
6.9870552156
 31
0.0
 11
-4.9671134746
 21
6.9787315654
 31
0.0
 11
-4.9424755377
 21
6.9677178957
 31
0.0
  0
SPLINE
  5
28B
100
AcDbEntity
  8
RACCORDO
100
AcDbSpline
 62
7
  6
CONTINUOUS
 70
0
 71
3
 72
19
 73
15
 74
13
 42
0.0000001
 43
0.0000001
 44
0.0000000001
 12
0.0023233124
 22
-0.2723466015
 32
0.0
 13
-0.2595315173
 23
-0.0833125346
 33
0.0
 40
0.0
 40
0.0
 40
0.0
 40
0.0
 40
0.1085012282
 40
0.2129420887
 40
0.312754366
 40
0.4077593882
 40
0.4987226518
 40
0.5857825686
 40
0.6691038925
 40
0.7494370233
 40
0.8280230385
 40
0.9055121163
 40
0.9826399433
 40
1.0
 40
1.0
 40
1.0
 40
1.0
 10
1.2212097703
 20
2.3366808944
 30
0.0
 10
1.2212937977
 20
2.3268309142
 30
0.0
 10
1.2207881448
 20
2.3074851269
 30
0.0
 10
1.2178774459
 20
2.2792120483
 30
0.0
 10
1.2128515781
 20
2.2524775578
 30
0.0
 10
1.2057550377
 20
2.2274819354
 30
0.0
 10
1.1966338462
 20
2.2043858567
 30
0.0
 10
1.1855399754
 20
2.1833545415
 30
0.0
 10
1.1725692118
 20
2.1645799344
 30
0.0
 10
1.1578105255
 20
2.1481889278
 30
0.0
 10
1.141354645
 20
2.1343011972
 30
0.0
 10
1.1233341268
 20
2.1230488961
 30
0.0
 10
1.1089869191
 20
2.1167548503
 30
0.0
 10
1.1008541841
 20
2.1140017699
 30
0.0
 10
1.0993523568
 20
2.1135196665
 30
0.0
 11
1.2212097703
 21
2.3366808944
 31
0.0
 11
1.2203952638
 21
2.3071411056
 31
0.0
 11
1.2174344944
 21
2.2788504656
 31
0.0
 11
1.2123598138
 21
2.2521438009
 31
0.0
 11
1.2052384671
 21
2.2272678229
 31
0.0
 11
1.1960831964
 21
2.2042470985
 31
0.0
 11
1.1849681862
 21
2.1833023148
 31
0.0
 11
1.1720247416
 21
2.1646624581
 31
0.0
 11
1.1573515157
 21
2.1484329148
 31
0.0
 11
1.1409749491
 21
2.1346519804
 31
0.0
 11
1.1230673296
 21
2.1234840074
 31
0.0
 11
1.1038341628
 21
2.1150372032
 31
0.0
 11
1.0993523568
 21
2.1135196665
 31
0.0
  0
SPLINE
  5
28C
100
AcDbEntity
  8
RACCORDO
100
AcDbSpline
 62
7
  6
CONTINUOUS
 70
0
 71
3
 72
25
 73
21
 74
19
 42
0.0000001
 43
0.0000001
 44
0.0000000001
 12
0.524939942
 22
-0.262469971
 32
0.0
 13
0.0036518538
 23
-0.5868893357
 33
0.0
 40
0.0
 40
0.0
 40
0.0
 40
0.0
 40
0.0480002896
 40
0.0980777546
 40
0.1499276073
 40
0.2032806204
 40
0.2582997211
 40
0.3146977562
 40
0.3720294192
 40
0.4300903448
 40
0.4889371177
 40
0.5480921557
 40
0.6070668692
 40
0.6659068303
 40
0.7243887663
 40
0.7820262864
 40
0.838476684
 40
0.8938625151
 40
0.9478403938
 40
1.0
 40
1.0
 40
1.0
 40
1.0
 10
0.9283083116
 20
4.0323259711
 30
0.0
 10
0.9367074014
 20
4.0281264262
 30
0.0
 10
0.9535052405
 20
4.0188016394
 30
0.0
 10
0.9779854467
 20
4.0025988408
 30
0.0
 10
1.0020618644
 20
3.9840334667
 30
0.0
 10
1.0255586984
 20
3.9632543921
 30
0.0
 10
1.0483223219
 20
3.9404026107
 30
0.0
 10
1.0701856317
 20
3.9156416317
 30
0.0
 10
1.090955583
 20
3.8891972113
 30
0.0
 10
1.1105008484
 20
3.8612495896
 30
0.0
 10
1.1286917752
 20
3.8319816763
 30
0.0
 10
1.14537888
 20
3.8016271824
 30
0.0
 10
1.1604325112
 20
3.7704320208
 30
0.0
 10
1.1737559983
 20
3.7386020212
 30
0.0
 10
1.1852548832
 20
3.7063453611
 30
0.0
 10
1.1948227915
 20
3.6739506155
 30
0.0
 10
1.2023943894
 20
3.6416530714
 30
0.0
 10
1.2079168622
 20
3.6096671155
 30
0.0
 10
1.2113400452
 20
3.5782330867
 30
0.0
 10
1.2122171649
 20
3.5574681954
 30
0.0
 10
1.2122806579
 20
3.5472642232
 30
0.0
 11
0.9283083116
 21
4.0323259711
 31
0.0
 11
0.9529617707
 21
4.0186938427
 31
0.0
 11
0.9774935931
 21
4.0025077027
 31
0.0
 11
1.0016141514
 21
3.9839543454
 31
0.0
 11
1.0250911531
 21
3.9632340803
 31
0.0
 11
1.0478983656
 21
3.9403753074
 31
0.0
 11
1.0698225109
 21
3.9155772246
 31
0.0
 11
1.0906188017
 21
3.889125349
 31
0.0
 11
1.1101573856
 21
3.8612073018
 31
0.0
 11
1.1283949032
 21
3.8318779315
 31
0.0
 11
1.1451225659
 21
3.8014553401
 31
0.0
 11
1.1601638466
 21
3.7702820949
 31
0.0
 11
1.1734923519
 21
3.7384246966
 31
0.0
 11
1.1850076134
 21
3.7060909187
 31
0.0
 11
1.1945751022
 21
3.6736446098
 31
0.0
 11
1.2021179214
 21
3.6413838858
 31
0.0
 11
1.2076240172
 21
3.6093476277
 31
0.0
 11
1.2110236589
 21
3.5778509143
 31
0.0
 11
1.2122806579
 21
3.5472642232
 31
0.0
  0
SPLINE
  5
28D
100
AcDbEntity
  8
0
100
AcDbSpline
 62
253
  6
CONTINUOUS
 70
0
 71
3
 72
17
 73
13
 74
11
 42
0.0000001
 43
0.0000001
 44
0.0000000001
 12
0.0036245442
 22
-0.2417804495
 32
0.0
 13
0.2159671725
 23
-0.1081563273
 33
0.0
 40
0.0
 40
0.0
 40
0.0
 40
0.0
 40
0.0103943541
 40
0.1011450801
 40
0.1939167887
 40
0.2903486394
 40
0.3918036089
 40
0.4993198327
 40
0.6136097523
 40
0.7350873343
 40
0.8639064207
 40
1.0
 40
1.0
 40
1.0
 40
1.0
 10
-9.5021851275
 20
4.124664054
 30
0.0
 10
-9.5021725693
 20
4.1238263368
 30
0.0
 10
-9.5019719584
 20
4.1156759347
 30
0.0
 10
-9.5001191264
 20
4.1001007484
 30
0.0
 10
-9.4938169265
 20
4.0783608941
 30
0.0
 10
-9.4839048869
 20
4.0570694597
 30
0.0
 10
-9.4704832659
 20
4.0363815896
 30
0.0
 10
-9.4536694595
 20
4.0164369775
 30
0.0
 10
-9.4335959913
 20
3.99736657
 30
0.0
 10
-9.4104113961
 20
3.9792959576
 30
0.0
 10
-9.384284895
 20
3.9623474554
 30
0.0
 10
-9.3655290588
 20
3.9521454281
 30
0.0
 10
-9.3557318103
 20
3.9472389675
 30
0.0
 11
-9.5021851275
 21
4.124664054
 31
0.0
 11
-9.5021232493
 21
4.122151436
 31
0.0
 11
-9.4995569933
 21
4.1003826159
 31
0.0
 11
-9.4933720883
 21
4.078845391
 31
0.0
 11
-9.483613538
 21
4.0576964743
 31
0.0
 11
-9.4703523493
 21
4.0370897532
 31
0.0
 11
-9.4536850155
 21
4.0171751701
 31
0.0
 11
-9.4337328145
 21
3.9980976307
 31
0.0
 11
-9.410640926
 21
3.9799959507
 31
0.0
 11
-9.3845773752
 21
3.9630018444
 31
0.0
 11
-9.3557318103
 21
3.9472389675
 31
0.0
  0
SPLINE
  5
28E
100
AcDbEntity
  8
0
100
AcDbSpline
 62
253
  6
CONTINUOUS
 70
0
 71
3
 72
10
 73
6
 74
4
 42
0.0000001
 43
0.0000001
 44
0.0000000001
 12
0.0074485003
 22
-0.0455801443
 32
0.0
 13
0.0188271118
 23
-0.0421704433
 33
0.0
 40
0.0
 40
0.0
 40
0.0
 40
0.0
 40
0.0823660372
 40
0.6298019949
 40
1.0
 40
1.0
 40
1.0
 40
1.0
 10
-8.8258605952
 20
-5.6594014599
 30
0.0
 10
-8.8256560941
 20
-5.6606528785
 30
0.0
 10
-8.8239874578
 20
-5.670204481
 30
0.0
 10
-8.8200662507
 20
-5.6851329432
 30
0.0
 10
-8.8148909727
 20
-5.6982923719
 30
0.0
 10
-8.8125677197
 20
-5.7034961766
 30
0.0
 11
-8.8258605952
 21
-5.6594014599
 31
0.0
 11
-8.8252059436
 21
-5.6631486526
 31
0.0
 11
-8.818809994
 21
-5.6875868484
 31
0.0
 11
-8.8125677197
 21
-5.7034961766
 31
0.0
  0
SPLINE
  5
28F
100
AcDbEntity
  8
0
100
AcDbSpline
 62
253
  6
CONTINUOUS
 70
0
 71
3
 72
14
 73
10
 74
8
 42
0.0000001
 43
0.0000001
 44
0.0000000001
 12
0.0759880624
 22
-0.1702040287
 32
0.0
 13
0.1662134973
 23
-0.084024983
 33
0.0
 40
0.0
 40
0.0
 40
0.0
 40
0.0
 40
0.0464367482
 40
0.188742367
 40
0.3365678636
 40
0.4909883586
 40
0.6527687187
 40
0.8223750858
 40
1.0
 40
1.0
 40
1.0
 40
1.0
 10
-8.8125677197
 20
-5.7034961766
 30
0.0
 10
-8.8113915068
 20
-5.7061307505
 30
0.0
 10
-8.8063655354
 20
-5.7167295358
 30
0.0
 10
-8.7957068986
 20
-5.7347701347
 30
0.0
 10
-8.7787571161
 20
-5.7566353239
 30
0.0
 10
-8.7585572928
 20
-5.7772559798
 30
0.0
 10
-8.7352614752
 20
-5.7964914137
 30
0.0
 10
-8.7090446269
 20
-5.8142095203
 30
0.0
 10
-8.6901744223
 20
-5.8246912566
 30
0.0
 10
-8.6803332029
 20
-5.8296662334
 30
0.0
 11
-8.8125677197
 21
-5.7034961766
 31
0.0
 11
-8.8088608224
 21
-5.7113168717
 31
0.0
 11
-8.7954308588
 21
-5.7341659677
 31
0.0
 11
-8.7786178735
 21
-5.7559677948
 31
0.0
 11
-8.7585442653
 21
-5.7765636353
 31
0.0
 11
-8.7353561704
 21
-5.7958035513
 31
0.0
 11
-8.7092223982
 21
-5.813547476
 31
0.0
 11
-8.6803332029
 21
-5.8296662334
 31
0.0
  0
SPLINE
  5
290
100
AcDbEntity
  8
0
100
AcDbSpline
 62
253
  6
CONTINUOUS
 70
0
 71
3
 72
16
 73
12
 74
10
 42
0.0000001
 43
0.0000001
 44
0.0000000001
 12
-0.3681161601
 22
0.2568535911
 32
0.0
 13
-0.0574103684
 23
0.4449243082
 33
0.0
 40
0.0
 40
0.0
 40
0.0
 40
0.0
 40
0.098066609
 40
0.1981064048
 40
0.3008454355
 40
0.4069003075
 40
0.5167665536
 40
0.6308152716
 40
0.7492972807
 40
0.8723474246
 40
1.0
 40
1.0
 40
1.0
 40
1.0
 10
-8.4783868595
 20
-6.2160239275
 30
0.0
 10
-8.4904201607
 20
-6.207627674
 30
0.0
 10
-8.5137171096
 20
-6.1892202305
 30
0.0
 10
-8.5456676703
 20
-6.1574159581
 30
0.0
 10
-8.574711544
 20
-6.1213986481
 30
0.0
 10
-8.6007040749
 20
-6.0813668218
 30
0.0
 10
-8.6235188621
 20
-6.0375358025
 30
0.0
 10
-8.6430465441
 20
-5.9901369031
 30
0.0
 10
-8.6591940224
 20
-5.9394161067
 30
0.0
 10
-8.6718840468
 20
-5.8856381399
 30
0.0
 10
-8.6778903425
 20
-5.8485981447
 30
0.0
 10
-8.680333203
 20
-5.8296662334
 30
0.0
 11
-8.4783868595
 21
-6.2160239275
 31
0.0
 11
-8.5129318687
 21
-6.1887822287
 31
0.0
 11
-8.5447809161
 21
-6.1571629906
 31
0.0
 11
-8.5737690247
 21
-6.1213302783
 31
0.0
 11
-8.5997458924
 21
-6.0814701547
 31
0.0
 11
-8.6225768766
 21
-6.0377895395
 31
0.0
 11
-8.6421436723
 21
-5.9905151478
 31
0.0
 11
-8.6583450155
 21
-5.9398919154
 31
0.0
 11
-8.6710968111
 21
-5.8861830676
 31
0.0
 11
-8.680333203
 21
-5.8296662334
 31
0.0
  0
SPLINE
  5
291
100
AcDbEntity
  8
RACCORDO
100
AcDbSpline
 62
253
  6
CONTINUOUS
 70
0
 71
3
 72
25
 73
21
 74
19
 42
0.0000001
 43
0.0000001
 44
0.0000000001
 12
-0.322542062
 22
-0.153715816
 32
0.0
 13
-0.3195783395
 23
0.1597861657
 33
0.0
 40
0.0
 40
0.0
 40
0.0
 40
0.0
 40
0.0494954376
 40
0.1011644218
 40
0.1547958882
 40
0.2101520197
 40
0.2669695962
 40
0.3249641445
 40
0.3838344909
 40
0.4432679998
 40
0.5029448047
 40
0.5625417143
 40
0.6217365154
 40
0.6802124479
 40
0.7376621202
 40
0.7937918312
 40
0.8483269394
 40
0.9010166122
 40
0.9516383009
 40
1.0
 40
1.0
 40
1.0
 40
1.0
 10
5.909436639
 20
4.6980421838
 30
0.0
 10
5.9041151855
 20
4.6955061066
 30
0.0
 10
5.8930625162
 20
4.6906858556
 30
0.0
 10
5.875744776
 20
4.6843350481
 30
0.0
 10
5.8574358779
 20
4.6787448085
 30
0.0
 10
5.8382695546
 20
4.6739562616
 30
0.0
 10
5.8183839784
 20
4.6700038779
 30
0.0
 10
5.7979229927
 20
4.6669163518
 30
0.0
 10
5.7770346807
 20
4.6647160855
 30
0.0
 10
5.7558703479
 20
4.66341907
 30
0.0
 10
5.7345833258
 20
4.6630347303
 30
0.0
 10
5.713327873
 20
4.6635658575
 30
0.0
 10
5.6922580111
 20
4.6650085817
 30
0.0
 10
5.6715263679
 20
4.6673524092
 30
0.0
 10
5.6512830686
 20
4.6705803015
 30
0.0
 10
5.6316745503
 20
4.6746688461
 30
0.0
 10
5.6128425675
 20
4.6795883825
 30
0.0
 10
5.5949227358
 20
4.6853035624
 30
0.0
 10
5.5780458484
 20
4.691772413
 30
0.0
 10
5.5673133006
 20
4.6966742792
 30
0.0
 10
5.5621615168
 20
4.6992501227
 30
0.0
 11
5.909436639
 21
4.6980421838
 31
0.0
 11
5.8932365359
 21
4.6909497473
 31
0.0
 11
5.8759113841
 21
4.6845735316
 31
0.0
 11
5.857589342
 21
4.6789609423
 31
0.0
 11
5.8384039926
 21
4.6741529284
 31
0.0
 11
5.8184948468
 21
4.6701844408
 31
0.0
 11
5.7980067167
 21
4.6670843535
 31
0.0
 11
5.7770887807
 21
4.6648752419
 31
0.0
 11
5.7558932567
 21
4.6635731781
 31
0.0
 11
5.7345743335
 21
4.6631876333
 31
0.0
 11
5.7132871621
 21
4.663721414
 31
0.0
 11
5.6921866808
 21
4.6651706314
 31
0.0
 11
5.6714263865
 21
4.6675247399
 31
0.0
 11
5.6511573458
 21
4.6707666084
 31
0.0
 11
5.631527134
 21
4.6748726263
 31
0.0
 11
5.6126785248
 21
4.6798129181
 31
0.0
 11
5.5947485735
 21
4.6855515692
 31
0.0
 11
5.5778679964
 21
4.6920467127
 31
0.0
 11
5.5621615168
 21
4.6992501227
 31
0.0
  0
SPLINE
  5
292
100
AcDbEntity
  8
RACCORDO
100
AcDbSpline
 62
253
  6
CONTINUOUS
 70
0
 71
3
 72
25
 73
21
 74
19
 42
0.0000001
 43
0.0000001
 44
0.0000000001
 12
-0.2109794759
 22
0.1054917212
 32
0.0
 13
0.2069226435
 23
0.1132424924
 33
0.0
 40
0.0
 40
0.0
 40
0.0
 40
0.0
 40
0.0696259316
 40
0.1354941003
 40
0.1975520195
 40
0.2558682771
 40
0.3106467485
 40
0.3622458225
 40
0.411194015
 40
0.4581922643
 40
0.5040904017
 40
0.549831955
 40
0.5963745027
 40
0.6446058402
 40
0.6952792112
 40
0.7489797848
 40
0.8061199722
 40
0.8669516448
 40
0.9315844569
 40
1.0
 40
1.0
 40
1.0
 40
1.0
 10
-9.2419855013
 20
12.1013236317
 30
0.0
 10
-9.2468820488
 20
12.1037719515
 30
0.0
 10
-9.2562557853
 20
12.1088575952
 30
0.0
 10
-9.2693171533
 20
12.1172945843
 30
0.0
 10
-9.2809082089
 20
12.1262770618
 30
0.0
 10
-9.2909438485
 20
12.1357439211
 30
0.0
 10
-9.2993500319
 20
12.1456329037
 30
0.0
 10
-9.306060724
 20
12.155879469
 30
0.0
 10
-9.3110172314
 20
12.1664149862
 30
0.0
 10
-9.3141689898
 20
12.1771632212
 30
0.0
 10
-9.315478253
 20
12.1880372019
 30
0.0
 10
-9.3149276686
 20
12.1989405774
 30
0.0
 10
-9.3125251878
 20
12.2097752515
 30
0.0
 10
-9.3083014807
 20
12.2204502874
 30
0.0
 10
-9.3023025244
 20
12.2308855119
 30
0.0
 10
-9.2945835936
 20
12.2410094641
 30
0.0
 10
-9.2852073517
 20
12.2507556604
 30
0.0
 10
-9.2742441074
 20
12.2600601958
 30
0.0
 10
-9.2617750128
 20
12.2688600608
 30
0.0
 10
-9.2527672281
 20
12.2742021476
 30
0.0
 10
-9.2480483198
 20
12.2767846632
 30
0.0
 11
-9.2419855013
 21
12.1013236317
 31
0.0
 11
-9.2564060653
 21
12.1091837436
 31
0.0
 11
-9.2694374927
 21
12.1176446023
 31
0.0
 11
-9.2809830327
 21
12.1266436968
 31
0.0
 11
-9.2909584546
 21
12.1361154206
 31
0.0
 11
-9.2992912394
 21
12.145990901
 31
0.0
 11
-9.3059207581
 21
12.1561983123
 31
0.0
 11
-9.3107987284
 21
12.166663336
 31
0.0
 11
-9.3138896528
 21
12.1773098214
 31
0.0
 11
-9.3151710396
 21
12.1880603199
 31
0.0
 11
-9.3146335554
 21
12.1988365842
 31
0.0
 11
-9.3122811129
 21
12.2095601887
 31
0.0
 11
-9.3081308235
 21
12.2201531236
 31
0.0
 11
-9.3022128819
 21
12.2305383052
 31
0.0
 11
-9.294570384
 21
12.2406401166
 31
0.0
 11
-9.2852589352
 21
12.2503850809
 31
0.0
 11
-9.274346223
 21
12.2597023352
 31
0.0
 11
-9.2619118669
 21
12.2685239487
 31
0.0
 11
-9.2480483198
 21
12.2767846632
 31
0.0
  0
SPLINE
  5
293
100
AcDbEntity
  8
RACCORDO
100
AcDbSpline
 62
253
  6
CONTINUOUS
 70
0
 71
3
 72
14
 73
10
 74
8
 42
0.0000001
 43
0.0000001
 44
0.0000000001
 12
0.1079825595
 22
0.0590789721
 32
0.0
 13
0.1114448285
 23
-0.0519220795
 33
0.0
 40
0.0
 40
0.0
 40
0.0
 40
0.0
 40
0.1015894819
 40
0.2371899148
 40
0.3765345955
 40
0.5213745949
 40
0.6730463026
 40
0.8324372892
 40
1.0
 40
1.0
 40
1.0
 40
1.0
 10
-9.3665234687
 20
12.2803648886
 30
0.0
 10
-9.362866838
 20
12.2823654893
 30
0.0
 10
-9.3540339138
 20
12.2864973672
 30
0.0
 10
-9.3391877283
 20
12.2909505756
 30
0.0
 10
-9.3220667378
 20
12.293228568
 30
0.0
 10
-9.304146562
 20
12.2929378441
 30
0.0
 10
-9.285626722
 20
12.2900968646
 30
0.0
 10
-9.2667094375
 20
12.2847504462
 30
0.0
 10
-9.2542729856
 20
12.2796847313
 30
0.0
 10
-9.2480483198
 20
12.2767846632
 30
0.0
 11
-9.3665234687
 21
12.2803648886
 31
0.0
 11
-9.3552052491
 21
12.2856615209
 31
0.0
 11
-9.3392446295
 21
12.2904782637
 31
0.0
 11
-9.3222683361
 21
12.2927824026
 31
0.0
 11
-9.3044622926
 21
12.2925487025
 31
0.0
 11
-9.2860215102
 21
12.2897797231
 31
0.0
 11
-9.2671479518
 21
12.28450579
 31
0.0
 11
-9.2480483198
 21
12.2767846632
 31
0.0
  0
SPLINE
  5
294
100
AcDbEntity
  8
RACCORDO
100
AcDbSpline
 62
7
  6
CONTINUOUS
 70
0
 71
3
 72
25
 73
21
 74
19
 42
0.0000001
 43
0.0000001
 44
0.0000000001
 12
-0.5245274405
 22
0.2622637203
 32
0.0
 13
-0.0050025686
 23
0.5864181692
 33
0.0
 40
0.0
 40
0.0
 40
0.0
 40
0.0
 40
0.0479689405
 40
0.0980125495
 40
0.1498255404
 40
0.2031382304
 40
0.2581145878
 40
0.3144706373
 40
0.3717636343
 40
0.4297891306
 40
0.4886088045
 40
0.5477482898
 40
0.6067200463
 40
0.6655679539
 40
0.7240731896
 40
0.7817494485
 40
0.8382510683
 40
0.8937000221
 40
0.9477535516
 40
1.0
 40
1.0
 40
1.0
 40
1.0
 10
-4.9289179128
 20
5.0696845101
 30
0.0
 10
-4.9373049213
 20
5.0738780144
 30
0.0
 10
-4.9540796387
 20
5.0831866804
 30
0.0
 10
-4.9785308954
 20
5.099354879
 30
0.0
 10
-5.0025843065
 20
5.1178750614
 30
0.0
 10
-5.0260652092
 20
5.1385992536
 30
0.0
 10
-5.0488212934
 20
5.1613879952
 30
0.0
 10
-5.0706867738
 20
5.1860800108
 30
0.0
 10
-5.0914692331
 20
5.2124519375
 30
0.0
 10
-5.1110378392
 20
5.2403261949
 30
0.0
 10
-5.1292631195
 20
5.2695227188
 30
0.0
 10
-5.1459953623
 20
5.2998109966
 30
0.0
 10
-5.1611036451
 20
5.3309471208
 30
0.0
 10
-5.1744900478
 20
5.3627272482
 30
0.0
 10
-5.1860585962
 20
5.3949449094
 30
0.0
 10
-5.195700933
 20
5.4273129789
 30
0.0
 10
-5.2033495256
 20
5.459596349
 30
0.0
 10
-5.2089495257
 20
5.4915806592
 30
0.0
 10
-5.2124487325
 20
5.5230257308
 30
0.0
 10
-5.2133748163
 20
5.5438039933
 30
0.0
 10
-5.2134619384
 20
5.5540167488
 30
0.0
 11
-4.9289179128
 21
5.0696845101
 31
0.0
 11
-4.9535379102
 21
5.0832934129
 31
0.0
 11
-4.9780409095
 21
5.099445245
 31
0.0
 11
-5.0021385508
 21
5.1179537063
 31
0.0
 11
-5.0255994486
 21
5.1386192747
 31
0.0
 11
-5.0483986538
 21
5.16141475
 31
0.0
 11
-5.0703246222
 21
5.1861435928
 31
0.0
 11
-5.0911333927
 21
5.2125231227
 31
0.0
 11
-5.110694664
 21
5.2403671819
 31
0.0
 11
-5.1289662512
 21
5.2696246183
 31
0.0
 11
-5.1457390297
 21
5.2999807765
 31
0.0
 11
-5.1608350403
 21
5.3310953999
 31
0.0
 11
-5.174226156
 21
5.3629021453
 31
0.0
 11
-5.1858112154
 21
5.3951968431
 31
0.0
 11
-5.1954533927
 21
5.4276170039
 31
0.0
 11
-5.2030731413
 21
5.4598637589
 31
0.0
 11
-5.2086568429
 21
5.4918982293
 31
0.0
 11
-5.2121326606
 21
5.5234062161
 31
0.0
 11
-5.2134619384
 21
5.5540167488
 31
0.0
  0
SPLINE
  5
295
100
AcDbEntity
  8
RACCORDO
100
AcDbSpline
 62
7
  6
CONTINUOUS
 70
0
 71
3
 72
16
 73
12
 74
10
 42
0.0000001
 43
0.0000001
 44
0.0000000001
 12
-0.0013169092
 22
0.211640437
 32
0.0
 13
0.1590675193
 23
0.1398736643
 33
0.0
 40
0.0
 40
0.0
 40
0.0
 40
0.0
 40
0.1395272774
 40
0.2739201021
 40
0.402445843
 40
0.5248674379
 40
0.6421671143
 40
0.7545208464
 40
0.8621290013
 40
0.9659378976
 40
1.0
 40
1.0
 40
1.0
 40
1.0
 10
-5.2223910508
 20
6.7646000775
 30
0.0
 10
-5.2224522991
 20
6.7744432822
 30
0.0
 10
-5.2219001916
 20
6.7937803976
 30
0.0
 10
-5.218916852
 20
6.8220442548
 30
0.0
 10
-5.2138157934
 20
6.8487816432
 30
0.0
 10
-5.2066410479
 20
6.8737908098
 30
0.0
 10
-5.1974382202
 20
6.8969096698
 30
0.0
 10
-5.1862589622
 20
6.917971445
 30
0.0
 10
-5.1731992988
 20
6.9367819226
 30
0.0
 10
-5.1615528277
 20
6.9496669957
 30
0.0
 10
-5.154390758
 20
6.9562637039
 30
0.0
 10
-5.1525847
 20
6.9578518343
 30
0.0
 11
-5.2223910508
 21
6.7646000775
 31
0.0
 11
-5.2215062394
 21
6.7941170044
 31
0.0
 11
-5.2184732202
 21
6.8223983388
 31
0.0
 11
-5.2133238579
 21
6.8491082693
 31
0.0
 11
-5.2061251738
 21
6.8739980235
 31
0.0
 11
-5.19688905
 21
6.8970418105
 31
0.0
 11
-5.1856890917
 21
6.9180180902
 31
0.0
 11
-5.1726567564
 21
6.9366954611
 31
0.0
 11
-5.1578917473
 21
6.9529650996
 31
0.0
 11
-5.1525847
 21
6.9578518343
 31
0.0
  0
LINE
  5
296
100
AcDbEntity
  8
RACCORDO
100
AcDbLine
 62
7
  6
CONTINUOUS
 10
-5.2134619384
 20
5.5540167488
 11
-5.2149604514
 21
5.7332744935
  0
LINE
  5
297
100
AcDbEntity
  8
RACCORDO
100
AcDbLine
 62
7
  6
CONTINUOUS
 10
-5.2149604514
 20
5.7332744935
 11
-5.2153255284
 21
5.7780933315
  0
LINE
  5
298
100
AcDbEntity
  8
RACCORDO
100
AcDbLine
 62
7
  6
CONTINUOUS
 10
-5.2153255284
 20
5.7780933315
 11
-5.2181086685
 21
6.1367144918
  0
LINE
  5
299
100
AcDbEntity
  8
RACCORDO
100
AcDbLine
 62
7
  6
CONTINUOUS
 10
-5.2181086685
 20
6.1367144918
 11
-5.2184393764
 21
6.1815509341
  0
LINE
  5
29A
100
AcDbEntity
  8
RACCORDO
100
AcDbLine
 62
7
  6
CONTINUOUS
 10
-5.2184393764
 20
6.1815509341
 11
-5.2209475606
 21
6.540312631
  0
LINE
  5
29B
100
AcDbEntity
  8
RACCORDO
100
AcDbLine
 62
7
  6
CONTINUOUS
 10
-5.2209475606
 20
6.540312631
 11
-5.2212438987
 21
6.585166604
  0
LINE
  5
29C
100
AcDbEntity
  8
RACCORDO
100
AcDbLine
 62
7
  6
CONTINUOUS
 10
-5.2212438987
 20
6.585166604
 11
-5.2223910508
 21
6.7646000775
  0
SPLINE
  5
29D
100
AcDbEntity
  8
RACCORDO
100
AcDbSpline
 62
7
  6
CONTINUOUS
 70
0
 71
3
 72
14
 73
10
 74
8
 42
0.0000001
 43
0.0000001
 44
0.0000000001
 12
-0.1527487844
 22
-0.0464479534
 32
0.0
 13
-0.1426836499
 23
0.071341825
 33
0.0
 40
0.0
 40
0.0
 40
0.0
 40
0.0
 40
0.0893502555
 40
0.2264496758
 40
0.3680625496
 40
0.5150875753
 40
0.6693379792
 40
0.8311090423
 40
1.0
 40
1.0
 40
1.0
 40
1.0
 10
1.0971395144
 20
2.1128281168
 30
0.0
 10
1.0925901334
 20
2.111444738
 30
0.0
 10
1.0808940127
 20
2.1084839531
 30
0.0
 10
1.0614348402
 20
2.1058936704
 30
0.0
 10
1.0387368281
 20
2.1058461244
 30
0.0
 10
1.0152994413
 20
2.1086346586
 30
0.0
 10
0.9912749944
 20
2.1142365356
 30
0.0
 10
0.9668469601
 20
2.1226117819
 30
0.0
 10
0.9507859766
 20
2.1298325655
 30
0.0
 10
0.9427533171
 20
2.1338488952
 30
0.0
 11
1.0971395144
 21
2.1128281168
 31
0.0
 11
1.0833172724
 21
2.1093211046
 31
0.0
 11
1.0616434257
 21
2.1063925168
 31
0.0
 11
1.0390528317
 21
2.1062919436
 31
0.0
 11
1.0157561339
 21
2.1090054294
 31
0.0
 11
0.9917786739
 21
2.1145350856
 31
0.0
 11
0.9673484065
 21
2.1228501556
 31
0.0
 11
0.9427533171
 21
2.1338488952
 31
0.0
  0
SPLINE
  5
29E
100
AcDbEntity
  8
RACCORDO
100
AcDbSpline
 62
253
  6
CONTINUOUS
 70
0
 71
3
 72
22
 73
18
 74
16
 42
0.0000001
 43
0.0000001
 44
0.0000000001
 12
-0.0027087752
 22
0.3665121304
 32
0.0
 13
-0.322967055
 23
0.1732938562
 33
0.0
 40
0.0
 40
0.0
 40
0.0
 40
0.0
 40
0.0629566414
 40
0.1283834588
 40
0.195913743
 40
0.2651259748
 40
0.3355575138
 40
0.4067172398
 40
0.4780975125
 40
0.5491857568
 40
0.6194759385
 40
0.6884801858
 40
0.7557408241
 40
0.8208431402
 40
0.8834292511
 40
0.9432135227
 40
1.0
 40
1.0
 40
1.0
 40
1.0
 10
6.0814788771
 20
4.3908961881
 30
0.0
 10
6.081422032
 20
4.3985876457
 30
0.0
 10
6.0806474924
 20
4.4142730844
 30
0.0
 10
6.077664477
 20
4.43804196
 30
0.0
 10
6.0728689277
 20
4.4622917841
 30
0.0
 10
6.0663131598
 20
4.486757742
 30
0.0
 10
6.0580684377
 20
4.5111750651
 30
0.0
 10
6.0482243712
 20
4.5352783829
 30
0.0
 10
6.036887966
 20
4.5588057807
 30
0.0
 10
6.0241824562
 20
4.5815014874
 30
0.0
 10
6.0102459017
 20
4.6031188436
 30
0.0
 10
5.9952296197
 20
4.6234230304
 30
0.0
 10
5.9792962882
 20
4.6421937381
 30
0.0
 10
5.9626183506
 20
4.6592273629
 30
0.0
 10
5.9453745185
 20
4.6743398506
 30
0.0
 10
5.9277522069
 20
4.6873659322
 30
0.0
 10
5.9155500261
 20
4.6947619346
 30
0.0
 10
5.909436639
 20
4.6980421838
 30
0.0
 11
6.0814788771
 21
4.3908961881
 31
0.0
 11
6.080378578
 21
4.413944943
 31
0.0
 11
6.0774230237
 21
4.4377424888
 31
0.0
 11
6.0726445832
 21
4.4620281955
 31
0.0
 11
6.0660955899
 21
4.4865360869
 31
0.0
 11
6.0578477683
 21
4.5109977534
 31
0.0
 11
6.0479914482
 21
4.5351452915
 31
0.0
 11
6.0366345756
 21
4.5587142383
 31
0.0
 11
6.0239015309
 21
4.5814464675
 31
0.0
 11
6.0099317658
 21
4.6030930165
 31
0.0
 11
5.9948782767
 21
4.6234168131
 31
0.0
 11
5.978905929
 21
4.6421952718
 31
0.0
 11
5.9621896514
 21
4.6592227317
 31
0.0
 11
5.9449125197
 21
4.6743127087
 31
0.0
 11
5.9272637527
 21
4.6872999379
 31
0.0
 11
5.909436639
 21
4.6980421838
 31
0.0
  0
SPLINE
  5
29F
100
AcDbEntity
  8
RACCORDO
100
AcDbSpline
 62
253
  6
CONTINUOUS
 70
0
 71
3
 72
22
 73
18
 74
16
 42
0.0000001
 43
0.0000001
 44
0.0000000001
 12
-0.000238189
 22
0.366577057
 32
0.0
 13
0.326468929
 23
0.166723825
 33
0.0
 40
0.0
 40
0.0
 40
0.0
 40
0.0
 40
0.0627686171
 40
0.1278905369
 40
0.1950351148
 40
0.2638167547
 40
0.3338081528
 40
0.4045525959
 40
0.4755756192
 40
0.5463962937
 40
0.6165383804
 40
0.6855415807
 40
0.7529731191
 40
0.8184399196
 40
0.8816016779
 40
0.9421851557
 40
1.0
 40
1.0
 40
1.0
 40
1.0
 10
5.3869275254
 20
4.3949627809
 30
0.0
 10
5.3869225418
 20
4.4026326259
 30
0.0
 10
5.3875897625
 20
4.4182663796
 30
0.0
 10
5.3904690122
 20
4.4419450365
 30
0.0
 10
5.3952147104
 20
4.4660703871
 30
0.0
 10
5.4017754249
 20
4.4903814389
 30
0.0
 10
5.4100804099
 20
4.5146177946
 30
0.0
 10
5.4200402235
 20
4.5385186874
 30
0.0
 10
5.4315476397
 20
4.5618270029
 30
0.0
 10
5.4444787987
 20
4.5842918595
 30
0.0
 10
5.4586945912
 20
4.6056714894
 30
0.0
 10
5.4740422119
 20
4.6257358757
 30
0.0
 10
5.490357036
 20
4.6442693263
 30
0.0
 10
5.5074641972
 20
4.6610725945
 30
0.0
 10
5.5251820219
 20
4.6759655935
 30
0.0
 10
5.5433195779
 20
4.6887867311
 30
0.0
 10
5.5558699333
 20
4.6960370854
 30
0.0
 10
5.5621615168
 20
4.6992501227
 30
0.0
 11
5.3869275254
 21
4.3949627809
 31
0.0
 11
5.3878715546
 21
4.4179529469
 31
0.0
 11
5.3907226555
 21
4.441654286
 31
0.0
 11
5.3954499054
 21
4.4658097349
 31
0.0
 11
5.4020020325
 21
4.4901573046
 31
0.0
 11
5.4103079731
 21
4.5144329227
 31
0.0
 11
5.4202776411
 21
4.538373297
 31
0.0
 11
5.431802906
 21
4.5617187713
 31
0.0
 11
5.4447587655
 21
4.5842161419
 31
0.0
 11
5.4590047009
 21
4.6056214033
 31
0.0
 11
5.4743862015
 21
4.6257023952
 31
0.0
 11
5.4907364403
 21
4.6442413201
 31
0.0
 11
5.5078780834
 21
4.6610371057
 31
0.0
 11
5.5256252134
 21
4.6759075859
 31
0.0
 11
5.5437853458
 21
4.688691476
 31
0.0
 11
5.5621615168
 21
4.6992501227
 31
0.0
  0
SPLINE
  5
2A0
100
AcDbEntity
  8
0
100
AcDbSpline
 62
253
  6
CONTINUOUS
 70
0
 71
3
 72
16
 73
12
 74
10
 42
0.0000001
 43
0.0000001
 44
0.0000000001
 12
-1.2344583664
 22
9.7271614722
 32
0.0
 13
-0.1480278181
 23
9.8040627053
 33
0.0
 40
0.0
 40
0.0
 40
0.0
 40
0.0
 40
0.1080730282
 40
0.216918925
 40
0.3265327533
 40
0.4369090339
 40
0.5480417747
 40
0.6599244812
 40
0.7725501569
 40
0.8859113138
 40
1.0
 40
1.0
 40
1.0
 40
1.0
 10
-8.680333203
 20
-5.8296662334
 30
0.0
 10
-8.7248037543
 20
-5.4792516346
 30
0.0
 10
-8.8094285407
 20
-4.7753198733
 30
0.0
 10
-8.9230862233
 20
-3.714123705
 30
0.0
 10
-9.0238957114
 20
-2.6440672076
 30
0.0
 10
-9.111835573
 20
-1.5653781087
 30
0.0
 10
-9.1868874741
 20
-0.4782827963
 30
0.0
 10
-9.2490356776
 20
0.6169896002
 30
0.0
 10
-9.2982671881
 20
1.7202090843
 30
0.0
 10
-9.3345716792
 20
2.8311414059
 30
0.0
 10
-9.3501023772
 20
3.5743947563
 30
0.0
 10
-9.3557318103
 20
3.9472389675
 30
0.0
 11
-8.680333203
 21
-5.8296662334
 31
0.0
 11
-8.8068630305
 21
-4.777571945
 31
0.0
 11
-8.9205677847
 21
-3.7163926329
 31
0.0
 11
-9.0214235566
 21
-2.6463518274
 31
0.0
 11
-9.1094091373
 21
-1.5676749692
 31
0.0
 11
-9.1845060336
 21
-0.4805892194
 31
0.0
 11
-9.246698465
 21
0.6146765586
 31
0.0
 11
-9.2959733583
 21
1.7178917202
 31
0.0
 11
-9.3323203527
 21
2.8288238519
 31
0.0
 11
-9.3557318103
 21
3.9472389675
 31
0.0
  0
SPLINE
  5
2A1
100
AcDbEntity
  8
RACCORDO
100
AcDbSpline
 62
253
  6
CONTINUOUS
 70
0
 71
3
 72
22
 73
18
 74
16
 42
0.0000001
 43
0.0000001
 44
0.0000000001
 12
-0.0002381892
 22
0.366577057
 32
0.0
 13
0.3264689291
 23
0.1667238248
 33
0.0
 40
0.0
 40
0.0
 40
0.0
 40
0.0
 40
0.0627686184
 40
0.1278905402
 40
0.1950351199
 40
0.2638167614
 40
0.333808161
 40
0.4045526051
 40
0.4755756292
 40
0.5463963039
 40
0.6165383904
 40
0.68554159
 40
0.7529731272
 40
0.8184399262
 40
0.8816016825
 40
0.9421851581
 40
1.0
 40
1.0
 40
1.0
 40
1.0
 10
-9.4172194927
 20
11.79703629
 30
0.0
 10
-9.4172244763
 20
11.8047061351
 30
0.0
 10
-9.4165572555
 20
11.8203398892
 30
0.0
 10
-9.4136780057
 20
11.8440185467
 30
0.0
 10
-9.4089323072
 20
11.8681438979
 30
0.0
 10
-9.4023715925
 20
11.8924549503
 30
0.0
 10
-9.3940666071
 20
11.9166913064
 30
0.0
 10
-9.3841067932
 20
11.9405921995
 30
0.0
 10
-9.3725993767
 20
11.9639005151
 30
0.0
 10
-9.3596682174
 20
11.9863653717
 30
0.0
 10
-9.3454524248
 20
12.0077450014
 30
0.0
 10
-9.330104804
 20
12.0278093873
 30
0.0
 10
-9.31378998
 20
12.0463428375
 30
0.0
 10
-9.2966828191
 20
12.0631461051
 30
0.0
 10
-9.2789649949
 20
12.0780391035
 30
0.0
 10
-9.2608274394
 20
12.0908602406
 30
0.0
 10
-9.2482770844
 20
12.0981105945
 30
0.0
 10
-9.2419855013
 20
12.1013236317
 30
0.0
 11
-9.4172194927
 21
11.79703629
 31
0.0
 11
-9.4162754635
 21
11.8200264564
 31
0.0
 11
-9.4134243624
 21
11.8437277962
 31
0.0
 11
-9.4086971123
 21
11.8678832457
 31
0.0
 11
-9.4021449848
 21
11.892230816
 31
0.0
 11
-9.393839044
 21
11.9165064346
 31
0.0
 11
-9.3838693756
 21
11.9404468091
 31
0.0
 11
-9.3723441103
 21
11.9637922836
 31
0.0
 11
-9.3593882506
 21
11.9862896541
 31
0.0
 11
-9.3451423151
 21
12.0076949154
 31
0.0
 11
-9.3297608144
 21
12.0277759069
 31
0.0
 11
-9.3134105758
 21
12.0463148313
 31
0.0
 11
-9.2962689329
 21
12.0631106164
 31
0.0
 11
-9.2785218033
 21
12.0779810959
 31
0.0
 11
-9.2603616715
 21
12.0907649855
 31
0.0
 11
-9.2419855013
 21
12.1013236317
 31
0.0
  0
SPLINE
  5
2A2
100
AcDbEntity
  8
RACCORDO
100
AcDbSpline
 62
253
  6
CONTINUOUS
 70
0
 71
3
 72
17
 73
13
 74
11
 42
0.0000001
 43
0.0000001
 44
0.0000000001
 12
-0.2161832152
 22
0.1080956977
 32
0.0
 13
-0.0001406965
 23
0.2419871049
 33
0.0
 40
0.0
 40
0.0
 40
0.0
 40
0.0
 40
0.1359048809
 40
0.2644265655
 40
0.3854754164
 40
0.4991772678
 40
0.6059234234
 40
0.7064077239
 40
0.8016586374
 40
0.8930453274
 40
0.9822330742
 40
1.0
 40
1.0
 40
1.0
 40
1.0
 10
-9.4172181981
 20
11.7970356425
 30
0.0
 10
-9.4270116494
 20
11.8019325534
 30
0.0
 10
-9.4457577733
 20
11.8120995445
 30
0.0
 10
-9.471880597
 20
11.8289555368
 30
0.0
 10
-9.4950615935
 20
11.8468891874
 30
0.0
 10
-9.5151320778
 20
11.8657792248
 30
0.0
 10
-9.5319440855
 20
11.8855015117
 30
0.0
 10
-9.5453657752
 20
11.905927569
 30
0.0
 10
-9.5552798132
 20
11.9269210128
 30
0.0
 10
-9.5615848013
 20
11.9483303833
 30
0.0
 10
-9.5635134708
 20
11.9642704334
 30
0.0
 10
-9.5636651829
 20
11.9728974275
 30
0.0
 10
-9.5636660161
 20
11.9743305498
 30
0.0
 11
-9.4172181981
 21
11.7970356425
 31
0.0
 11
-9.4460628651
 21
11.8127521313
 31
0.0
 11
-9.4721251738
 21
11.8296555345
 31
0.0
 11
-9.4952158573
 21
11.8476231809
 31
0.0
 11
-9.5151663038
 21
11.8665239256
 31
0.0
 11
-9.5318315135
 21
11.8862203727
 31
0.0
 11
-9.5450902383
 21
11.9065692571
 31
0.0
 11
-9.5548459255
 21
11.9274224244
 31
0.0
 11
-9.5610275923
 21
11.9486281326
 31
0.0
 11
-9.5635902664
 21
11.9700321233
 31
0.0
 11
-9.5636660161
 21
11.9743305498
 31
0.0
  0
SPLINE
  5
2A3
100
AcDbEntity
  8
RACCORDO
100
AcDbSpline
 62
253
  6
CONTINUOUS
 70
0
 71
3
 72
25
 73
21
 74
19
 42
0.0000001
 43
0.0000001
 44
0.0000000001
 12
-0.6460963923
 22
-0.3048847509
 32
0.0
 13
-0.6390010858
 23
0.3194884534
 33
0.0
 40
0.0
 40
0.0
 40
0.0
 40
0.0
 40
0.0494328262
 40
0.1010447089
 40
0.1546315361
 40
0.2099543778
 40
0.2667494203
 40
0.3247313615
 40
0.3835981563
 40
0.4430362134
 40
0.5027246367
 40
0.5623391465
 40
0.6215564156
 40
0.6800584166
 40
0.7375363898
 40
0.7936951737
 40
0.8482585284
 40
0.9009740369
 40
0.9516168911
 40
1.0
 40
1.0
 40
1.0
 40
1.0
 10
6.0814802797
 20
4.39089685
 30
0.0
 10
6.0708341561
 20
4.3858730783
 30
0.0
 10
6.0487240555
 20
4.3763303434
 30
0.0
 10
6.014087456
 20
4.3637729917
 30
0.0
 10
5.9774701349
 20
4.352734702
 30
0.0
 10
5.9391379848
 20
4.3432960393
 30
0.0
 10
5.8993674201
 20
4.3355250137
 30
0.0
 10
5.8584461024
 20
4.3294780332
 30
0.0
 10
5.8166701981
 20
4.3251989833
 30
0.0
 10
5.7743423127
 20
4.3227189669
 30
0.0
 10
5.7317691005
 20
4.3220560077
 30
0.0
 10
5.6892590515
 20
4.3232149216
 30
0.0
 10
5.6471201815
 20
4.3261872713
 30
0.0
 10
5.6056577245
 20
4.3309514429
 30
0.0
 10
5.5651719297
 20
4.3374728097
 30
0.0
 10
5.5259556769
 20
4.3457040604
 30
0.0
 10
5.4882924647
 20
4.3555855028
 30
0.0
 10
5.4524535961
 20
4.3670460393
 30
0.0
 10
5.4186992309
 20
4.380002165
 30
0.0
 10
5.3972318511
 20
4.3898108129
 30
0.0
 10
5.3869262314
 20
4.3949634277
 30
0.0
 11
6.0814802797
 21
4.39089685
 31
0.0
 11
6.0490756107
 21
4.3768561419
 31
0.0
 11
6.0144255014
 21
4.3642484501
 31
0.0
 11
5.9777814199
 21
4.3531653185
 31
0.0
 11
5.9394108701
 21
4.343687702
 31
0.0
 11
5.8995927861
 21
4.3358844743
 31
0.0
 11
5.8586168094
 21
4.3298124097
 31
0.0
 11
5.8167812871
 21
4.3255157222
 31
0.0
 11
5.7743906492
 21
4.3230256686
 31
0.0
 11
5.7317532645
 21
4.3223603578
 31
0.0
 11
5.6891794114
 21
4.3235246307
 31
0.0
 11
5.6469789033
 21
4.32651001
 31
0.0
 11
5.6054587195
 21
4.3312947782
 31
0.0
 11
5.5649209865
 21
4.3378441227
 31
0.0
 11
5.5256608459
 21
4.3461103507
 31
0.0
 11
5.4879638591
 21
4.3560333227
 31
0.0
 11
5.4521040585
 21
4.3675409184
 31
0.0
 11
5.4183431785
 21
4.3805491095
 31
0.0
 11
5.3869262314
 21
4.3949634277
 31
0.0
  0
SPLINE
  5
2A4
100
AcDbEntity
  8
0
100
AcDbSpline
 62
253
  6
CONTINUOUS
 70
0
 71
3
 72
16
 73
12
 74
10
 42
0.0000001
 43
0.0000001
 44
0.0000000001
 12
-0.0122254801
 22
-0.2821001809
 32
0.0
 13
-0.2216191132
 23
-0.1753040056
 33
0.0
 40
0.0
 40
0.0
 40
0.0
 40
0.0
 40
0.1340190606
 40
0.2631878752
 40
0.3872848552
 40
0.5062238358
 40
0.6200739375
 40
0.7290788238
 40
0.8336726683
 40
0.9344884836
 40
1.0
 40
1.0
 40
1.0
 40
1.0
 10
7.2101179809
 20
-13.4098398035
 30
0.0
 10
7.2095718318
 20
-13.4224420706
 30
0.0
 10
7.2076634852
 20
-13.4471646395
 30
0.0
 10
7.2021882583
 20
-13.4832374191
 30
0.0
 10
7.1941885317
 20
-13.5173857787
 30
0.0
 10
7.1837201849
 20
-13.5493513818
 30
0.0
 10
7.1708557897
 20
-13.5788941403
 30
0.0
 10
7.1556842025
 20
-13.6057894113
 30
0.0
 10
7.1383105659
 20
-13.6298290936
 30
0.0
 10
7.120932615
 20
-13.6485821942
 30
0.0
 10
7.1090845729
 20
-13.6588571337
 30
0.0
 10
7.1042450382
 20
-13.6626852775
 30
0.0
 11
7.2101179809
 21
-13.4098398035
 31
0.0
 11
7.2071583461
 21
-13.4475661774
 31
0.0
 11
7.2016320019
 21
-13.4836178191
 31
0.0
 11
7.1935809095
 21
-13.5177209911
 31
0.0
 11
7.1830662002
 21
-13.5496167504
 31
0.0
 11
7.1701677114
 21
-13.579062915
 31
0.0
 11
7.1549833804
 21
-13.6058359023
 31
0.0
 11
7.1376285008
 21
-13.629732427
 31
0.0
 11
7.1182348468
 21
-13.6505710445
 31
0.0
 11
7.1042450382
 21
-13.6626852775
 31
0.0
  0
SPLINE
  5
2A5
100
AcDbEntity
  8
0
100
AcDbSpline
 62
253
  6
CONTINUOUS
 70
0
 71
3
 72
10
 73
6
 74
4
 42
0.0000001
 43
0.0000001
 44
0.0000000001
 12
-0.0435010632
 22
-0.0344099862
 32
0.0
 13
-0.0514266981
 23
-0.0207923361
 33
0.0
 40
0.0
 40
0.0
 40
0.0
 40
0.0
 40
0.1648244353
 40
0.6534394098
 40
1.0
 40
1.0
 40
1.0
 40
1.0
 10
7.1042450382
 20
-13.6626852775
 30
0.0
 10
7.1018550254
 20
-13.664575813
 30
0.0
 10
7.092212714
 20
-13.6718591492
 30
0.0
 10
7.0764709559
 20
-13.6816438948
 30
0.0
 10
7.0624468333
 20
-13.688157023
 30
0.0
 10
7.056506011
 20
-13.6905589578
 30
0.0
 11
7.1042450382
 21
-13.6626852775
 31
0.0
 11
7.096949673
 21
-13.6681935288
 31
0.0
 11
7.0739345962
 21
-13.6824660735
 31
0.0
 11
7.056506011
 21
-13.6905589578
 31
0.0
  0
SPLINE
  5
2A6
100
AcDbEntity
  8
0
100
AcDbSpline
 62
253
  6
CONTINUOUS
 70
0
 71
3
 72
26
 73
22
 74
20
 42
0.0000001
 43
0.0000001
 44
0.0000000001
 12
0.0639075782
 22
-0.4718179908
 32
0.0
 13
0.4414253651
 23
0.1784377821
 33
0.0
 40
0.0
 40
0.0
 40
0.0
 40
0.0
 40
0.0604714473
 40
0.1189577881
 40
0.1754896565
 40
0.2301507618
 40
0.2830756018
 40
0.3344495457
 40
0.3845087349
 40
0.4335365193
 40
0.4818566178
 40
0.5298216896
 40
0.5777998971
 40
0.6261586397
 40
0.6752493941
 40
0.7253932963
 40
0.7768707761
 40
0.8299146356
 40
0.8847072271
 40
0.9413785448
 40
1.0
 40
1.0
 40
1.0
 40
1.0
 10
6.8674569466
 20
-13.201743301
 30
0.0
 10
6.8687451412
 20
-13.2112538066
 30
0.0
 10
6.8719154435
 20
-13.2298844078
 30
0.0
 10
6.8786036712
 20
-13.2569478726
 30
0.0
 10
6.8871142893
 20
-13.2825290919
 30
0.0
 10
6.8974060153
 20
-13.3064925369
 30
0.0
 10
6.9094291717
 20
-13.3287132289
 30
0.0
 10
6.9231251273
 20
-13.3490733577
 30
0.0
 10
6.9384259239
 20
-13.3674632583
 30
0.0
 10
6.9552538783
 20
-13.3837820675
 30
0.0
 10
6.9735212188
 20
-13.3979388944
 30
0.0
 10
6.9931302088
 20
-13.4098543878
 30
0.0
 10
7.0139738792
 20
-13.419462334
 30
0.0
 10
7.0359376185
 20
-13.4267109667
 30
0.0
 10
7.0589009951
 20
-13.4315634395
 30
0.0
 10
7.0827395584
 20
-13.43399757
 30
0.0
 10
7.1073261373
 20
-13.4340050219
 30
0.0
 10
7.1325315356
 20
-13.431590492
 30
0.0
 10
7.1582254014
 20
-13.4267705918
 30
0.0
 10
7.1842723579
 20
-13.419575069
 30
0.0
 10
7.2014923152
 20
-13.4133265643
 30
0.0
 10
7.2101179809
 20
-13.4098398035
 30
0.0
 11
6.8674569466
 21
-13.201743301
 31
0.0
 11
6.8723206671
 21
-13.2301215794
 31
0.0
 11
6.8790363871
 21
-13.2571465418
 31
0.0
 11
6.8875688932
 21
-13.2826746538
 31
0.0
 11
6.8978739002
 21
-13.3065731595
 31
0.0
 11
6.9098980764
 21
-13.3287182394
 31
0.0
 11
6.9235791137
 21
-13.3489949491
 31
0.0
 11
6.9388461004
 21
-13.367298028
 31
0.0
 11
6.9556198758
 21
-13.3835324341
 31
0.0
 11
6.9738135444
 21
-13.3976139256
 31
0.0
 11
6.9933327223
 21
-13.409469318
 31
0.0
 11
7.014076229
 21
-13.4190370379
 31
0.0
 11
7.035936417
 21
-13.4262673291
 31
0.0
 11
7.0587999761
 21
-13.4311226151
 31
0.0
 11
7.0825482586
 21
-13.4335776041
 31
0.0
 11
7.1070580124
 21
-13.4336194797
 31
0.0
 11
7.132202008
 21
-13.4312479754
 31
0.0
 11
7.1578499317
 21
-13.4264753141
 31
0.0
 11
7.1838683607
 21
-13.4193263166
 31
0.0
 11
7.2101179809
 21
-13.4098398035
 31
0.0
  0
SPLINE
  5
2A7
100
AcDbEntity
  8
0
100
AcDbSpline
 62
253
  6
CONTINUOUS
 70
0
 71
3
 72
16
 73
12
 74
10
 42
0.0000001
 43
0.0000001
 44
0.0000000001
 12
0.0601822657
 22
-0.4514343891
 32
0.0
 13
0.374886556
 23
-0.2590342016
 33
0.0
 40
0.0
 40
0.0
 40
0.0
 40
0.0
 40
0.1262159384
 40
0.2481416421
 40
0.3658424431
 40
0.4794793895
 40
0.5893225707
 40
0.6957525652
 40
0.7992616344
 40
0.9004475236
 40
1.0
 40
1.0
 40
1.0
 40
1.0
 10
6.1768554027
 20
-13.2582605362
 30
0.0
 10
6.1793873897
 20
-13.2772532746
 30
0.0
 10
6.1856167823
 20
-13.3144418477
 30
0.0
 10
6.1987648044
 20
-13.3684533895
 30
0.0
 10
6.2154947706
 20
-13.4194679303
 30
0.0
 10
6.2357261892
 20
-13.467218242
 30
0.0
 10
6.2593618758
 20
-13.5114556622
 30
0.0
 10
6.2862871926
 20
-13.5519459889
 30
0.0
 10
6.3163693925
 20
-13.5884711846
 30
0.0
 10
6.3494566338
 20
-13.6208305683
 30
0.0
 10
6.373538896
 20
-13.6396111208
 30
0.0
 10
6.3859791911
 20
-13.6482069528
 30
0.0
 11
6.1768554027
 21
-13.2582605362
 31
0.0
 11
6.1864200723
 21
-13.3149415093
 31
0.0
 11
6.1996250703
 21
-13.3688769583
 31
0.0
 11
6.2164022384
 21
-13.4197881032
 31
0.0
 11
6.2366644605
 21
-13.4674102081
 31
0.0
 11
6.2603068906
 21
-13.5114965462
 31
0.0
 11
6.2872070111
 21
-13.5518182962
 31
0.0
 11
6.3172253974
 21
-13.5881661474
 31
0.0
 11
6.3502064041
 21
-13.6203513651
 31
0.0
 11
6.3859791911
 21
-13.6482069528
 31
0.0
  0
SPLINE
  5
2A8
100
AcDbEntity
  8
0
100
AcDbSpline
 62
253
  6
CONTINUOUS
 70
0
 71
3
 72
25
 73
21
 74
19
 42
0.0000001
 43
0.0000001
 44
0.0000000001
 12
-0.604709483
 22
-0.3899745273
 32
0.0
 13
-0.6450072096
 23
0.3189347744
 33
0.0
 40
0.0
 40
0.0
 40
0.0
 40
0.0
 40
0.0519489921
 40
0.1056337261
 40
0.1608610208
 40
0.2174103325
 40
0.2750390332
 40
0.3334872945
 40
0.392482682
 40
0.4517445493
 40
0.5109883064
 40
0.56992963
 40
0.6282886781
 40
0.6857943707
 40
0.7421888042
 40
0.7972318777
 40
0.8507062212
 40
0.9024225311
 40
0.9522254347
 40
1.0
 40
1.0
 40
1.0
 40
1.0
 10
6.8674569466
 20
-13.201743301
 30
0.0
 10
6.8569855972
 20
-13.2084962289
 30
0.0
 10
6.8352191927
 20
-13.2215047345
 30
0.0
 10
6.8009105321
 20
-13.2392031305
 30
0.0
 10
6.7646138099
 20
-13.2553050152
 30
0.0
 10
6.7265932625
 20
-13.2696931542
 30
0.0
 10
6.6871232556
 20
-13.2822640561
 30
0.0
 10
6.6464895634
 20
-13.2929267439
 30
0.0
 10
6.6049863449
 20
-13.30160408
 30
0.0
 10
6.5629142176
 20
-13.3082332197
 30
0.0
 10
6.5205779568
 20
-13.3127661447
 30
0.0
 10
6.4782842504
 20
-13.3151700142
 30
0.0
 10
6.4363394162
 20
-13.3154274047
 30
0.0
 10
6.3950471152
 20
-13.3135364104
 30
0.0
 10
6.3547061193
 20
-13.3095106271
 30
0.0
 10
6.3156079839
 20
-13.3033789286
 30
0.0
 10
6.2780352565
 20
-13.2951853284
 30
0.0
 10
6.2422580806
 20
-13.2849878422
 30
0.0
 10
6.2085369521
 20
-13.2728601566
 30
0.0
 10
6.187127055
 20
-13.2633395222
 30
0.0
 10
6.1768554087
 20
-13.2582605321
 30
0.0
 11
6.8674569466
 21
-13.201743301
 31
0.0
 11
6.8353922458
 21
-13.2209556851
 31
0.0
 11
6.8010784985
 21
-13.2386971369
 31
0.0
 11
6.764765509
 21
-13.2548384985
 31
0.0
 11
6.7267176364
 21
-13.2692622604
 31
0.0
 11
6.6872118697
 21
-13.2818634177
 31
0.0
 11
6.6465358112
 21
-13.2925502336
 31
0.0
 11
6.6049855832
 21
-13.3012449081
 31
0.0
 11
6.5628636719
 21
-13.3078841439
 31
0.0
 11
6.5204767251
 21
-13.3124196071
 31
0.0
 11
6.4781333204
 21
-13.3148182797
 31
0.0
 11
6.4361417184
 21
-13.3150626992
 31
0.0
 11
6.3948076182
 21
-13.3131510862
 31
0.0
 11
6.3544319327
 21
-13.3090973573
 31
0.0
 11
6.3153085973
 21
-13.3029310237
 31
0.0
 11
6.2777224304
 21
-13.2946969765
 31
0.0
 11
6.2419470597
 21
-13.2844551594
 31
0.0
 11
6.2082429303
 21
-13.2722801332
 31
0.0
 11
6.1768554087
 21
-13.2582605321
 31
0.0
  0
SPLINE
  5
2A9
100
AcDbEntity
  8
0
100
AcDbSpline
 62
253
  6
CONTINUOUS
 70
0
 71
3
 72
16
 73
12
 74
10
 42
0.0000001
 43
0.0000001
 44
0.0000000001
 12
0.158196343
 22
-9.7777422745
 32
0.0
 13
1.3125357896
 23
-9.6905376461
 33
0.0
 40
0.0
 40
0.0
 40
0.0
 40
0.0
 40
0.1138478936
 40
0.2270231241
 40
0.3395199846
 40
0.4513332902
 40
0.562458351
 40
0.672890981
 40
0.7826274966
 40
0.891664726
 40
1.0
 40
1.0
 40
1.0
 40
1.0
 10
6.1473491299
 20
-3.4549235282
 30
0.0
 10
6.15335257
 20
-3.8259819822
 30
0.0
 10
6.1699174356
 20
-4.565840792
 30
0.0
 10
6.2086290007
 20
-5.6719162544
 30
0.0
 10
6.2611236992
 20
-6.7707860021
 30
0.0
 10
6.3273905257
 20
-7.8622162378
 30
0.0
 10
6.4074156379
 20
-8.9459778441
 30
0.0
 10
6.5011822649
 20
-10.021842341
 30
0.0
 10
6.6086708826
 20
-11.0895840058
 30
0.0
 10
6.7298585934
 20
-12.1489751763
 30
0.0
 10
6.8200589718
 20
-12.8518009506
 30
0.0
 10
6.8674569466
 20
-13.201743301
 30
0.0
 11
6.1473491299
 21
-3.4549235282
 31
0.0
 11
6.1723103383
 21
-4.5679647208
 31
0.0
 11
6.2110633854
 21
-5.6740290978
 31
0.0
 11
6.2636001189
 21
-6.7728831791
 31
0.0
 11
6.3299094924
 21
-7.8642954708
 31
0.0
 11
6.4099775672
 21
-8.9480361404
 31
0.0
 11
6.5037875181
 21
-10.0238770297
 31
0.0
 11
6.6113196279
 21
-11.0915915758
 31
0.0
 11
6.7325512834
 21
-12.1509548297
 31
0.0
 11
6.8674569466
 21
-13.201743301
 31
0.0
  0
SPLINE
  5
2AA
100
AcDbEntity
  8
0
100
AcDbSpline
 62
253
  6
CONTINUOUS
 70
0
 71
3
 72
16
 73
12
 74
10
 42
0.0000001
 43
0.0000001
 44
0.0000000001
 12
0.159049173
 22
-9.8322873465
 32
0.0
 13
1.3196312823
 23
-9.7446264363
 33
0.0
 40
0.0
 40
0.0
 40
0.0
 40
0.0
 40
0.113848609
 40
0.2270243491
 40
0.33952156
 40
0.4513350501
 40
0.562460123
 40
0.672892586
 40
0.7826287491
 40
0.8916654339
 40
1.0
 40
1.0
 40
1.0
 40
1.0
 10
5.4528603814
 20
-3.4570571283
 30
0.0
 10
5.4588962237
 20
-3.8301878742
 30
0.0
 10
5.4755505001
 20
-4.5741780205
 30
0.0
 10
5.5144710278
 20
-5.6864290648
 30
0.0
 10
5.5672490848
 20
-6.7914326659
 30
0.0
 10
5.6338736085
 20
-7.8889538965
 30
0.0
 10
5.7143306829
 20
-8.9787623606
 30
0.0
 10
5.8086034466
 20
-10.0606283035
 30
0.0
 10
5.9166722691
 20
-11.1343247436
 30
0.0
 10
6.0385141461
 20
-12.1996228648
 30
0.0
 10
6.1292015085
 20
-12.9063672438
 30
0.0
 10
6.1768554027
 20
-13.2582605362
 30
0.0
 11
5.4528603814
 21
-3.4570571283
 31
0.0
 11
5.4779563448
 21
-4.5763144968
 31
0.0
 11
5.5169185853
 21
-5.6885542516
 31
0.0
 11
5.5697389154
 21
-6.7935421316
 31
0.0
 11
5.636406229
 21
-7.8910453507
 31
0.0
 11
5.716906512
 21
-8.9808327939
 31
0.0
 11
5.8112228485
 21
-10.06267503
 31
0.0
 11
5.9193354149
 21
-11.1363442327
 31
0.0
 11
6.041221476
 21
-12.2016141983
 31
0.0
 11
6.1768554027
 21
-13.2582605362
 31
0.0
  0
SPLINE
  5
2AB
100
AcDbEntity
  8
0
100
AcDbSpline
 62
253
  6
CONTINUOUS
 70
0
 71
3
 72
25
 73
21
 74
19
 42
0.0000001
 43
0.0000001
 44
0.0000000001
 12
-0.6423647763
 22
-0.3139711931
 32
0.0
 13
-0.6397108624
 23
0.3193437466
 33
0.0
 40
0.0
 40
0.0
 40
0.0
 40
0.0
 40
0.0496825043
 40
0.1014998182
 40
0.1552483517
 40
0.2106923844
 40
0.2675699993
 40
0.3255983861
 40
0.3844786963
 40
0.4439005886
 40
0.5035465721
 40
0.5630962312
 40
0.6222304052
 40
0.6806353868
 40
0.7380072088
 40
0.7940560977
 40
0.8485111903
 40
0.9011256391
 40
0.9516822694
 40
1.0
 40
1.0
 40
1.0
 40
1.0
 10
6.1473491299
 20
-3.4549235282
 30
0.0
 10
6.1367110329
 20
-3.4601231532
 30
0.0
 10
6.1146160978
 20
-3.4700182454
 30
0.0
 10
6.0799838026
 20
-3.4830965074
 30
0.0
 10
6.0433707268
 20
-3.4946482353
 30
0.0
 10
6.0050428374
 20
-3.5045892628
 30
0.0
 10
5.9652763444
 20
-3.5128480046
 30
0.0
 10
5.9243589448
 20
-3.5193645549
 30
0.0
 10
5.8825867264
 20
-3.5240916559
 30
0.0
 10
5.8402622089
 20
-3.5269949774
 30
0.0
 10
5.7976920106
 20
-3.5280534339
 30
0.0
 10
5.7551845793
 20
-3.5272593468
 30
0.0
 10
5.7130478899
 20
-3.5246185061
 30
0.0
 10
5.6715871421
 20
-3.5201501156
 30
0.0
 10
5.6311025023
 20
-3.5138866389
 30
0.0
 10
5.5918867743
 20
-3.5058734788
 30
0.0
 10
5.5542234879
 20
-3.4961687123
 30
0.0
 10
5.5183837314
 20
-3.4848420502
 30
0.0
 10
5.4846277672
 20
-3.4719759122
 30
0.0
 10
5.4631635072
 20
-3.46220045
 30
0.0
 10
5.4528603815
 20
-3.4570571283
 30
0.0
 11
6.1473491299
 21
-3.4549235282
 31
0.0
 11
6.1149496797
 21
-3.4694879537
 31
0.0
 11
6.080304742
 21
-3.4826160019
 31
0.0
 11
6.0436664063
 21
-3.4942121482
 31
0.0
 11
6.0053012669
 21
-3.5041920147
 31
0.0
 11
5.965488483
 21
-3.512482984
 31
0.0
 11
5.9245177473
 21
-3.5190247281
 31
0.0
 11
5.8826871782
 21
-3.5237696466
 31
0.0
 11
5.8403011509
 21
-3.5266832138
 31
0.0
 11
5.7976680818
 21
-3.5277442295
 31
0.0
 11
5.7550981853
 21
-3.5269449734
 31
0.0
 11
5.7129012159
 21
-3.524291261
 31
0.0
 11
5.6713842145
 21
-3.5198024019
 31
0.0
 11
5.6308492746
 21
-3.5135110586
 31
0.0
 11
5.5915913435
 21
-3.5054630094
 31
0.0
 11
5.5538960768
 21
-3.4957168148
 31
0.0
 11
5.5180377593
 21
-3.4843433919
 31
0.0
 11
5.4842773096
 21
-3.4714254979
 31
0.0
 11
5.4528603815
 21
-3.4570571283
 31
0.0
  0
SPLINE
  5
2AC
100
AcDbEntity
  8
ASSI
100
AcDbSpline
 62
7
  6
CONTINUOUS
 70
0
 71
3
 72
16
 73
12
 74
10
 42
0.0000001
 43
0.0000001
 44
0.0000000001
 12
0.1696147045
 22
0.1209883165
 32
0.0
 13
0.1861936725
 23
-0.0930968362
 33
0.0
 40
0.0
 40
0.0
 40
0.0
 40
0.0
 40
0.0958690123
 40
0.1972796348
 40
0.3000767723
 40
0.4055993299
 40
0.5145435844
 40
0.6275877901
 40
0.7461181251
 40
0.8703585636
 40
1.0
 40
1.0
 40
1.0
 40
1.0
 10
-5.1404031877
 20
6.9675190947
 30
0.0
 10
-5.134982923
 20
6.9713854382
 30
0.0
 10
-5.1232979541
 20
6.9785993909
 30
0.0
 10
-5.1041617978
 20
6.9869878875
 30
0.0
 10
-5.0833834958
 20
6.9927520691
 30
0.0
 10
-5.0614968492
 20
6.9956770544
 30
0.0
 10
-5.0387112534
 20
6.9957405291
 30
0.0
 10
-5.0151941299
 20
6.9929594662
 30
0.0
 10
-4.9911001981
 20
6.9873568389
 30
0.0
 10
-4.966614958
 20
6.9789732782
 30
0.0
 10
-4.9505216761
 20
6.9717409649
 30
0.0
 10
-4.9424755377
 20
6.9677178957
 30
0.0
 11
-5.1404031877
 21
6.9675190947
 31
0.0
 11
-5.123414659
 21
6.9779955041
 31
0.0
 11
-5.1040833068
 21
6.9864785457
 31
0.0
 11
-5.0834699276
 21
6.9922249832
 31
0.0
 11
-5.061702452
 21
6.9951769039
 31
0.0
 11
-5.0390237291
 21
6.9952927077
 31
0.0
 11
-5.0156473951
 21
6.9925860527
 31
0.0
 11
-4.9916006945
 21
6.9870552156
 31
0.0
 11
-4.9671134746
 21
6.9787315654
 31
0.0
 11
-4.9424755377
 21
6.9677178957
 31
0.0
  0
SPLINE
  5
2AD
100
AcDbEntity
  8
ASSI
100
AcDbSpline
 62
7
  6
CONTINUOUS
 70
0
 71
3
 72
19
 73
15
 74
13
 42
0.0000001
 43
0.0000001
 44
0.0000000001
 12
0.0023233124
 22
-0.2723466015
 32
0.0
 13
-0.2595315173
 23
-0.0833125346
 33
0.0
 40
0.0
 40
0.0
 40
0.0
 40
0.0
 40
0.1085012282
 40
0.2129420887
 40
0.312754366
 40
0.4077593882
 40
0.4987226518
 40
0.5857825686
 40
0.6691038925
 40
0.7494370233
 40
0.8280230385
 40
0.9055121163
 40
0.9826399433
 40
1.0
 40
1.0
 40
1.0
 40
1.0
 10
1.2212097703
 20
2.3366808944
 30
0.0
 10
1.2212937977
 20
2.3268309142
 30
0.0
 10
1.2207881448
 20
2.3074851269
 30
0.0
 10
1.2178774459
 20
2.2792120483
 30
0.0
 10
1.2128515781
 20
2.2524775578
 30
0.0
 10
1.2057550377
 20
2.2274819354
 30
0.0
 10
1.1966338462
 20
2.2043858567
 30
0.0
 10
1.1855399754
 20
2.1833545415
 30
0.0
 10
1.1725692118
 20
2.1645799344
 30
0.0
 10
1.1578105255
 20
2.1481889278
 30
0.0
 10
1.141354645
 20
2.1343011972
 30
0.0
 10
1.1233341268
 20
2.1230488961
 30
0.0
 10
1.1089869191
 20
2.1167548503
 30
0.0
 10
1.1008541841
 20
2.1140017699
 30
0.0
 10
1.0993523568
 20
2.1135196665
 30
0.0
 11
1.2212097703
 21
2.3366808944
 31
0.0
 11
1.2203952638
 21
2.3071411056
 31
0.0
 11
1.2174344944
 21
2.2788504656
 31
0.0
 11
1.2123598138
 21
2.2521438009
 31
0.0
 11
1.2052384671
 21
2.2272678229
 31
0.0
 11
1.1960831964
 21
2.2042470985
 31
0.0
 11
1.1849681862
 21
2.1833023148
 31
0.0
 11
1.1720247416
 21
2.1646624581
 31
0.0
 11
1.1573515157
 21
2.1484329148
 31
0.0
 11
1.1409749491
 21
2.1346519804
 31
0.0
 11
1.1230673296
 21
2.1234840074
 31
0.0
 11
1.1038341628
 21
2.1150372032
 31
0.0
 11
1.0993523568
 21
2.1135196665
 31
0.0
  0
SPLINE
  5
2AE
100
AcDbEntity
  8
ASSI
100
AcDbSpline
 62
7
  6
CONTINUOUS
 70
0
 71
3
 72
25
 73
21
 74
19
 42
0.0000001
 43
0.0000001
 44
0.0000000001
 12
0.524939942
 22
-0.262469971
 32
0.0
 13
0.0036518538
 23
-0.5868893357
 33
0.0
 40
0.0
 40
0.0
 40
0.0
 40
0.0
 40
0.0480002896
 40
0.0980777546
 40
0.1499276073
 40
0.2032806204
 40
0.2582997211
 40
0.3146977562
 40
0.3720294192
 40
0.4300903448
 40
0.4889371177
 40
0.5480921557
 40
0.6070668692
 40
0.6659068303
 40
0.7243887663
 40
0.7820262864
 40
0.838476684
 40
0.8938625151
 40
0.9478403938
 40
1.0
 40
1.0
 40
1.0
 40
1.0
 10
0.9283083116
 20
4.0323259711
 30
0.0
 10
0.9367074014
 20
4.0281264262
 30
0.0
 10
0.9535052405
 20
4.0188016394
 30
0.0
 10
0.9779854467
 20
4.0025988408
 30
0.0
 10
1.0020618644
 20
3.9840334667
 30
0.0
 10
1.0255586984
 20
3.9632543921
 30
0.0
 10
1.0483223219
 20
3.9404026107
 30
0.0
 10
1.0701856317
 20
3.9156416317
 30
0.0
 10
1.090955583
 20
3.8891972113
 30
0.0
 10
1.1105008484
 20
3.8612495896
 30
0.0
 10
1.1286917752
 20
3.8319816763
 30
0.0
 10
1.14537888
 20
3.8016271824
 30
0.0
 10
1.1604325112
 20
3.7704320208
 30
0.0
 10
1.1737559983
 20
3.7386020212
 30
0.0
 10
1.1852548832
 20
3.7063453611
 30
0.0
 10
1.1948227915
 20
3.6739506155
 30
0.0
 10
1.2023943894
 20
3.6416530714
 30
0.0
 10
1.2079168622
 20
3.6096671155
 30
0.0
 10
1.2113400452
 20
3.5782330867
 30
0.0
 10
1.2122171649
 20
3.5574681954
 30
0.0
 10
1.2122806579
 20
3.5472642232
 30
0.0
 11
0.9283083116
 21
4.0323259711
 31
0.0
 11
0.9529617707
 21
4.0186938427
 31
0.0
 11
0.9774935931
 21
4.0025077027
 31
0.0
 11
1.0016141514
 21
3.9839543454
 31
0.0
 11
1.0250911531
 21
3.9632340803
 31
0.0
 11
1.0478983656
 21
3.9403753074
 31
0.0
 11
1.0698225109
 21
3.9155772246
 31
0.0
 11
1.0906188017
 21
3.889125349
 31
0.0
 11
1.1101573856
 21
3.8612073018
 31
0.0
 11
1.1283949032
 21
3.8318779315
 31
0.0
 11
1.1451225659
 21
3.8014553401
 31
0.0
 11
1.1601638466
 21
3.7702820949
 31
0.0
 11
1.1734923519
 21
3.7384246966
 31
0.0
 11
1.1850076134
 21
3.7060909187
 31
0.0
 11
1.1945751022
 21
3.6736446098
 31
0.0
 11
1.2021179214
 21
3.6413838858
 31
0.0
 11
1.2076240172
 21
3.6093476277
 31
0.0
 11
1.2110236589
 21
3.5778509143
 31
0.0
 11
1.2122806579
 21
3.5472642232
 31
0.0
  0
SPLINE
  5
2AF
100
AcDbEntity
  8
ASSI
100
AcDbSpline
 62
253
  6
CONTINUOUS
 70
0
 71
3
 72
14
 73
10
 74
8
 42
0.0000001
 43
0.0000001
 44
0.0000000001
 12
0.1079825595
 22
0.0590789721
 32
0.0
 13
0.1114448285
 23
-0.0519220795
 33
0.0
 40
0.0
 40
0.0
 40
0.0
 40
0.0
 40
0.1015894819
 40
0.2371899148
 40
0.3765345955
 40
0.5213745949
 40
0.6730463026
 40
0.8324372892
 40
1.0
 40
1.0
 40
1.0
 40
1.0
 10
-9.3665234687
 20
12.2803648886
 30
0.0
 10
-9.362866838
 20
12.2823654893
 30
0.0
 10
-9.3540339138
 20
12.2864973672
 30
0.0
 10
-9.3391877283
 20
12.2909505756
 30
0.0
 10
-9.3220667378
 20
12.293228568
 30
0.0
 10
-9.304146562
 20
12.2929378441
 30
0.0
 10
-9.285626722
 20
12.2900968646
 30
0.0
 10
-9.2667094375
 20
12.2847504462
 30
0.0
 10
-9.2542729856
 20
12.2796847313
 30
0.0
 10
-9.2480483198
 20
12.2767846632
 30
0.0
 11
-9.3665234687
 21
12.2803648886
 31
0.0
 11
-9.3552052491
 21
12.2856615209
 31
0.0
 11
-9.3392446295
 21
12.2904782637
 31
0.0
 11
-9.3222683361
 21
12.2927824026
 31
0.0
 11
-9.3044622926
 21
12.2925487025
 31
0.0
 11
-9.2860215102
 21
12.2897797231
 31
0.0
 11
-9.2671479518
 21
12.28450579
 31
0.0
 11
-9.2480483198
 21
12.2767846632
 31
0.0
  0
SPLINE
  5
2B0
100
AcDbEntity
  8
ASSI
100
AcDbSpline
 62
7
  6
CONTINUOUS
 70
0
 71
3
 72
14
 73
10
 74
8
 42
0.0000001
 43
0.0000001
 44
0.0000000001
 12
-0.1542207444
 22
-0.0495065927
 32
0.0
 13
-0.1447556237
 23
0.0723778119
 33
0.0
 40
0.0
 40
0.0
 40
0.0
 40
0.0
 40
0.1023849299
 40
0.2375219642
 40
0.3771078483
 40
0.5220284168
 40
0.6740709424
 40
0.8335264796
 40
1.0
 40
1.0
 40
1.0
 40
1.0
 10
1.0993523568
 20
2.1135196665
 30
0.0
 10
1.0940890634
 20
2.1118300902
 30
0.0
 10
1.0816617503
 20
2.1085861495
 30
0.0
 10
1.0614348402
 20
2.1058936704
 30
0.0
 10
1.0387368281
 20
2.1058461244
 30
0.0
 10
1.0152994413
 20
2.1086346586
 30
0.0
 10
0.9912749944
 20
2.1142365356
 30
0.0
 10
0.9668469601
 20
2.1226117819
 30
0.0
 10
0.9507859766
 20
2.1298325655
 30
0.0
 10
0.9427533171
 20
2.1338488952
 30
0.0
 11
1.0993523568
 21
2.1135196665
 31
0.0
 11
1.0833172724
 21
2.1093211046
 31
0.0
 11
1.0616434257
 21
2.1063925168
 31
0.0
 11
1.0390528317
 21
2.1062919436
 31
0.0
 11
1.0157561339
 21
2.1090054294
 31
0.0
 11
0.9917786739
 21
2.1145350856
 31
0.0
 11
0.9673484065
 21
2.1228501556
 31
0.0
 11
0.9427533171
 21
2.1338488952
 31
0.0
  0
SPLINE
  5
2B1
100
AcDbEntity
  8
ASSI
100
AcDbSpline
 62
253
  6
CONTINUOUS
 70
0
 71
3
 72
17
 73
13
 74
11
 42
0.0000001
 43
0.0000001
 44
0.0000000001
 12
0.0036245435
 22
-0.2417804499
 32
0.0
 13
0.2159671729
 23
-0.1081563275
 33
0.0
 40
0.0
 40
0.0
 40
0.0
 40
0.0
 40
0.0103943558
 40
0.1011450817
 40
0.1939167901
 40
0.2903486406
 40
0.3918036099
 40
0.4993198336
 40
0.613609753
 40
0.7350873348
 40
0.8639064209
 40
1.0
 40
1.0
 40
1.0
 40
1.0
 10
-9.5021851275
 20
4.1246640545
 30
0.0
 10
-9.5021725693
 20
4.1238263371
 30
0.0
 10
-9.5019719584
 20
4.1156759348
 30
0.0
 10
-9.5001191264
 20
4.1001007484
 30
0.0
 10
-9.4938169265
 20
4.0783608941
 30
0.0
 10
-9.4839048869
 20
4.0570694597
 30
0.0
 10
-9.4704832659
 20
4.0363815896
 30
0.0
 10
-9.4536694595
 20
4.0164369775
 30
0.0
 10
-9.4335959913
 20
3.99736657
 30
0.0
 10
-9.4104113961
 20
3.9792959576
 30
0.0
 10
-9.384284895
 20
3.9623474554
 30
0.0
 10
-9.3655290588
 20
3.9521454281
 30
0.0
 10
-9.3557318103
 20
3.9472389675
 30
0.0
 11
-9.5021851275
 21
4.1246640545
 31
0.0
 11
-9.5021232493
 21
4.122151436
 31
0.0
 11
-9.4995569933
 21
4.1003826159
 31
0.0
 11
-9.4933720883
 21
4.078845391
 31
0.0
 11
-9.483613538
 21
4.0576964743
 31
0.0
 11
-9.4703523493
 21
4.0370897532
 31
0.0
 11
-9.4536850155
 21
4.0171751701
 31
0.0
 11
-9.4337328145
 21
3.9980976307
 31
0.0
 11
-9.410640926
 21
3.9799959507
 31
0.0
 11
-9.3845773752
 21
3.9630018444
 31
0.0
 11
-9.3557318103
 21
3.9472389675
 31
0.0
  0
SPLINE
  5
2B2
100
AcDbEntity
  8
ASSI
100
AcDbSpline
 62
253
  6
CONTINUOUS
 70
0
 71
3
 72
16
 73
12
 74
10
 42
0.0000001
 43
0.0000001
 44
0.0000000001
 12
0.0304865542
 22
-0.2365036487
 32
0.0
 13
0.2126255254
 23
-0.107487397
 33
0.0
 40
0.0
 40
0.0
 40
0.0
 40
0.0
 40
0.0405514404
 40
0.1465799212
 40
0.254581111
 40
0.3658241733
 40
0.4813822312
 40
0.6020957272
 40
0.7285625726
 40
0.8611471594
 40
1.0
 40
1.0
 40
1.0
 40
1.0
 10
-8.8267086046
 20
-5.6535976066
 30
0.0
 10
-8.8262965134
 20
-5.6567944611
 30
0.0
 10
-8.8244854716
 20
-5.6683084883
 30
0.0
 10
-8.8193313253
 20
-5.6879308841
 30
0.0
 10
-8.8092702363
 20
-5.7118130962
 30
0.0
 10
-8.7957068986
 20
-5.7347701347
 30
0.0
 10
-8.7787571161
 20
-5.7566353239
 30
0.0
 10
-8.7585572928
 20
-5.7772559798
 30
0.0
 10
-8.7352614752
 20
-5.7964914137
 30
0.0
 10
-8.7090446269
 20
-5.8142095203
 30
0.0
 10
-8.6901744223
 20
-5.8246912566
 30
0.0
 10
-8.6803332029
 20
-5.8296662334
 30
0.0
 11
-8.8267086046
 21
-5.6535976066
 31
0.0
 11
-8.8252059436
 21
-5.6631486526
 31
0.0
 11
-8.818809994
 21
-5.6875868484
 31
0.0
 11
-8.8088608224
 21
-5.7113168717
 31
0.0
 11
-8.7954308588
 21
-5.7341659677
 31
0.0
 11
-8.7786178735
 21
-5.7559677948
 31
0.0
 11
-8.7585442653
 21
-5.7765636353
 31
0.0
 11
-8.7353561704
 21
-5.7958035513
 31
0.0
 11
-8.7092223982
 21
-5.813547476
 31
0.0
 11
-8.6803332029
 21
-5.8296662334
 31
0.0
  0
SPLINE
  5
2B3
100
AcDbEntity
  8
ASSI
100
AcDbSpline
 62
253
  6
CONTINUOUS
 70
0
 71
3
 72
17
 73
13
 74
11
 42
0.0000001
 43
0.0000001
 44
0.0000000001
 12
-0.387332328
 22
0.2509619442
 32
0.0
 13
-0.0590280372
 23
0.4574610712
 33
0.0
 40
0.0
 40
0.0
 40
0.0
 40
0.0
 40
0.0274050924
 40
0.1227841769
 40
0.2200823729
 40
0.3200058309
 40
0.4231542594
 40
0.5300096108
 40
0.6409328132
 40
0.7561678119
 40
0.8758457552
 40
1.0
 40
1.0
 40
1.0
 40
1.0
 10
-8.4678922066
 20
-6.2230823377
 30
0.0
 10
-8.4714304993
 20
-6.2207897926
 30
0.0
 10
-8.4871065628
 20
-6.2102458223
 30
0.0
 10
-8.5137171096
 20
-6.1892202305
 30
0.0
 10
-8.5456676703
 20
-6.1574159581
 30
0.0
 10
-8.574711544
 20
-6.1213986481
 30
0.0
 10
-8.6007040749
 20
-6.0813668218
 30
0.0
 10
-8.6235188621
 20
-6.0375358025
 30
0.0
 10
-8.6430465441
 20
-5.9901369031
 30
0.0
 10
-8.6591940224
 20
-5.9394161067
 30
0.0
 10
-8.6718840468
 20
-5.8856381399
 30
0.0
 10
-8.6778903425
 20
-5.8485981447
 30
0.0
 10
-8.680333203
 20
-5.8296662334
 30
0.0
 11
-8.4678922066
 21
-6.2230823377
 31
0.0
 11
-8.4783868595
 21
-6.2160239275
 31
0.0
 11
-8.5129318687
 21
-6.1887822287
 31
0.0
 11
-8.5447809161
 21
-6.1571629906
 31
0.0
 11
-8.5737690247
 21
-6.1213302783
 31
0.0
 11
-8.5997458924
 21
-6.0814701547
 31
0.0
 11
-8.6225768766
 21
-6.0377895395
 31
0.0
 11
-8.6421436723
 21
-5.9905151478
 31
0.0
 11
-8.6583450155
 21
-5.9398919154
 31
0.0
 11
-8.6710968111
 21
-5.8861830676
 31
0.0
 11
-8.680333203
 21
-5.8296662334
 31
0.0
  0
LINE
  5
2B4
100
AcDbEntity
  8
ASSI
100
AcDbLine
 62
7
  6
CONTINUOUS
 10
-5.2134619384
 20
5.5540167488
 11
-5.2149604514
 21
5.7332744935
  0
LINE
  5
2B5
100
AcDbEntity
  8
ASSI
100
AcDbLine
 62
7
  6
CONTINUOUS
 10
-5.2149604514
 20
5.7332744935
 11
-5.2153255284
 21
5.7780933315
  0
LINE
  5
2B6
100
AcDbEntity
  8
ASSI
100
AcDbLine
 62
7
  6
CONTINUOUS
 10
-5.2153255284
 20
5.7780933315
 11
-5.2181086685
 21
6.1367144918
  0
LINE
  5
2B7
100
AcDbEntity
  8
ASSI
100
AcDbLine
 62
7
  6
CONTINUOUS
 10
-5.2181086685
 20
6.1367144918
 11
-5.2184393764
 21
6.1815509341
  0
LINE
  5
2B8
100
AcDbEntity
  8
ASSI
100
AcDbLine
 62
7
  6
CONTINUOUS
 10
-5.2184393764
 20
6.1815509341
 11
-5.2209475606
 21
6.540312631
  0
LINE
  5
2B9
100
AcDbEntity
  8
ASSI
100
AcDbLine
 62
7
  6
CONTINUOUS
 10
-5.2209475606
 20
6.540312631
 11
-5.2212438987
 21
6.585166604
  0
LINE
  5
2BA
100
AcDbEntity
  8
ASSI
100
AcDbLine
 62
7
  6
CONTINUOUS
 10
-5.2212438987
 20
6.585166604
 11
-5.2223910508
 21
6.7646000775
  0
SPLINE
  5
2BB
100
AcDbEntity
  8
ASSI
100
AcDbSpline
 62
253
  6
CONTINUOUS
 70
0
 71
3
 72
25
 73
21
 74
19
 42
0.0000001
 43
0.0000001
 44
0.0000000001
 12
-0.322542062
 22
-0.153715816
 32
0.0
 13
-0.3195783395
 23
0.1597861657
 33
0.0
 40
0.0
 40
0.0
 40
0.0
 40
0.0
 40
0.0494954376
 40
0.1011644218
 40
0.1547958882
 40
0.2101520197
 40
0.2669695962
 40
0.3249641445
 40
0.3838344909
 40
0.4432679998
 40
0.5029448047
 40
0.5625417143
 40
0.6217365154
 40
0.6802124479
 40
0.7376621202
 40
0.7937918312
 40
0.8483269394
 40
0.9010166122
 40
0.9516383009
 40
1.0
 40
1.0
 40
1.0
 40
1.0
 10
5.909436639
 20
4.6980421838
 30
0.0
 10
5.9041151855
 20
4.6955061066
 30
0.0
 10
5.8930625162
 20
4.6906858556
 30
0.0
 10
5.875744776
 20
4.6843350481
 30
0.0
 10
5.8574358779
 20
4.6787448085
 30
0.0
 10
5.8382695546
 20
4.6739562616
 30
0.0
 10
5.8183839784
 20
4.6700038779
 30
0.0
 10
5.7979229927
 20
4.6669163518
 30
0.0
 10
5.7770346807
 20
4.6647160855
 30
0.0
 10
5.7558703479
 20
4.66341907
 30
0.0
 10
5.7345833258
 20
4.6630347303
 30
0.0
 10
5.713327873
 20
4.6635658575
 30
0.0
 10
5.6922580111
 20
4.6650085817
 30
0.0
 10
5.6715263679
 20
4.6673524092
 30
0.0
 10
5.6512830686
 20
4.6705803015
 30
0.0
 10
5.6316745503
 20
4.6746688461
 30
0.0
 10
5.6128425675
 20
4.6795883825
 30
0.0
 10
5.5949227358
 20
4.6853035624
 30
0.0
 10
5.5780458484
 20
4.691772413
 30
0.0
 10
5.5673133006
 20
4.6966742792
 30
0.0
 10
5.5621615168
 20
4.6992501227
 30
0.0
 11
5.909436639
 21
4.6980421838
 31
0.0
 11
5.8932365359
 21
4.6909497473
 31
0.0
 11
5.8759113841
 21
4.6845735316
 31
0.0
 11
5.857589342
 21
4.6789609423
 31
0.0
 11
5.8384039926
 21
4.6741529284
 31
0.0
 11
5.8184948468
 21
4.6701844408
 31
0.0
 11
5.7980067167
 21
4.6670843535
 31
0.0
 11
5.7770887807
 21
4.6648752419
 31
0.0
 11
5.7558932567
 21
4.6635731781
 31
0.0
 11
5.7345743335
 21
4.6631876333
 31
0.0
 11
5.7132871621
 21
4.663721414
 31
0.0
 11
5.6921866808
 21
4.6651706314
 31
0.0
 11
5.6714263865
 21
4.6675247399
 31
0.0
 11
5.6511573458
 21
4.6707666084
 31
0.0
 11
5.631527134
 21
4.6748726263
 31
0.0
 11
5.6126785248
 21
4.6798129181
 31
0.0
 11
5.5947485735
 21
4.6855515692
 31
0.0
 11
5.5778679964
 21
4.6920467127
 31
0.0
 11
5.5621615168
 21
4.6992501227
 31
0.0
  0
SPLINE
  5
2BC
100
AcDbEntity
  8
ASSI
100
AcDbSpline
 62
253
  6
CONTINUOUS
 70
0
 71
3
 72
25
 73
21
 74
19
 42
0.0000001
 43
0.0000001
 44
0.0000000001
 12
-0.2109794759
 22
0.1054917212
 32
0.0
 13
0.2069226435
 23
0.1132424924
 33
0.0
 40
0.0
 40
0.0
 40
0.0
 40
0.0
 40
0.0696259316
 40
0.1354941003
 40
0.1975520195
 40
0.2558682771
 40
0.3106467485
 40
0.3622458225
 40
0.411194015
 40
0.4581922643
 40
0.5040904017
 40
0.549831955
 40
0.5963745027
 40
0.6446058402
 40
0.6952792112
 40
0.7489797848
 40
0.8061199722
 40
0.8669516448
 40
0.9315844569
 40
1.0
 40
1.0
 40
1.0
 40
1.0
 10
-9.2419855013
 20
12.1013236317
 30
0.0
 10
-9.2468820488
 20
12.1037719515
 30
0.0
 10
-9.2562557853
 20
12.1088575952
 30
0.0
 10
-9.2693171533
 20
12.1172945843
 30
0.0
 10
-9.2809082089
 20
12.1262770618
 30
0.0
 10
-9.2909438485
 20
12.1357439211
 30
0.0
 10
-9.2993500319
 20
12.1456329037
 30
0.0
 10
-9.306060724
 20
12.155879469
 30
0.0
 10
-9.3110172314
 20
12.1664149862
 30
0.0
 10
-9.3141689898
 20
12.1771632212
 30
0.0
 10
-9.315478253
 20
12.1880372019
 30
0.0
 10
-9.3149276686
 20
12.1989405774
 30
0.0
 10
-9.3125251878
 20
12.2097752515
 30
0.0
 10
-9.3083014807
 20
12.2204502874
 30
0.0
 10
-9.3023025244
 20
12.2308855119
 30
0.0
 10
-9.2945835936
 20
12.2410094641
 30
0.0
 10
-9.2852073517
 20
12.2507556604
 30
0.0
 10
-9.2742441074
 20
12.2600601958
 30
0.0
 10
-9.2617750128
 20
12.2688600608
 30
0.0
 10
-9.2527672281
 20
12.2742021476
 30
0.0
 10
-9.2480483198
 20
12.2767846632
 30
0.0
 11
-9.2419855013
 21
12.1013236317
 31
0.0
 11
-9.2564060653
 21
12.1091837436
 31
0.0
 11
-9.2694374927
 21
12.1176446023
 31
0.0
 11
-9.2809830327
 21
12.1266436968
 31
0.0
 11
-9.2909584546
 21
12.1361154206
 31
0.0
 11
-9.2992912394
 21
12.145990901
 31
0.0
 11
-9.3059207581
 21
12.1561983123
 31
0.0
 11
-9.3107987284
 21
12.166663336
 31
0.0
 11
-9.3138896528
 21
12.1773098214
 31
0.0
 11
-9.3151710396
 21
12.1880603199
 31
0.0
 11
-9.3146335554
 21
12.1988365842
 31
0.0
 11
-9.3122811129
 21
12.2095601887
 31
0.0
 11
-9.3081308235
 21
12.2201531236
 31
0.0
 11
-9.3022128819
 21
12.2305383052
 31
0.0
 11
-9.294570384
 21
12.2406401166
 31
0.0
 11
-9.2852589352
 21
12.2503850809
 31
0.0
 11
-9.274346223
 21
12.2597023352
 31
0.0
 11
-9.2619118669
 21
12.2685239487
 31
0.0
 11
-9.2480483198
 21
12.2767846632
 31
0.0
  0
SPLINE
  5
2BD
100
AcDbEntity
  8
ASSI
100
AcDbSpline
 62
7
  6
CONTINUOUS
 70
0
 71
3
 72
25
 73
21
 74
19
 42
0.0000001
 43
0.0000001
 44
0.0000000001
 12
-0.5245274405
 22
0.2622637203
 32
0.0
 13
-0.0050025686
 23
0.5864181692
 33
0.0
 40
0.0
 40
0.0
 40
0.0
 40
0.0
 40
0.0479689405
 40
0.0980125495
 40
0.1498255404
 40
0.2031382304
 40
0.2581145878
 40
0.3144706373
 40
0.3717636343
 40
0.4297891306
 40
0.4886088045
 40
0.5477482898
 40
0.6067200463
 40
0.6655679539
 40
0.7240731896
 40
0.7817494485
 40
0.8382510683
 40
0.8937000221
 40
0.9477535516
 40
1.0
 40
1.0
 40
1.0
 40
1.0
 10
-4.9289179128
 20
5.0696845101
 30
0.0
 10
-4.9373049213
 20
5.0738780144
 30
0.0
 10
-4.9540796387
 20
5.0831866804
 30
0.0
 10
-4.9785308954
 20
5.099354879
 30
0.0
 10
-5.0025843065
 20
5.1178750614
 30
0.0
 10
-5.0260652092
 20
5.1385992536
 30
0.0
 10
-5.0488212934
 20
5.1613879952
 30
0.0
 10
-5.0706867738
 20
5.1860800108
 30
0.0
 10
-5.0914692331
 20
5.2124519375
 30
0.0
 10
-5.1110378392
 20
5.2403261949
 30
0.0
 10
-5.1292631195
 20
5.2695227188
 30
0.0
 10
-5.1459953623
 20
5.2998109966
 30
0.0
 10
-5.1611036451
 20
5.3309471208
 30
0.0
 10
-5.1744900478
 20
5.3627272482
 30
0.0
 10
-5.1860585962
 20
5.3949449094
 30
0.0
 10
-5.195700933
 20
5.4273129789
 30
0.0
 10
-5.2033495256
 20
5.459596349
 30
0.0
 10
-5.2089495257
 20
5.4915806592
 30
0.0
 10
-5.2124487325
 20
5.5230257308
 30
0.0
 10
-5.2133748163
 20
5.5438039933
 30
0.0
 10
-5.2134619384
 20
5.5540167488
 30
0.0
 11
-4.9289179128
 21
5.0696845101
 31
0.0
 11
-4.9535379102
 21
5.0832934129
 31
0.0
 11
-4.9780409095
 21
5.099445245
 31
0.0
 11
-5.0021385508
 21
5.1179537063
 31
0.0
 11
-5.0255994486
 21
5.1386192747
 31
0.0
 11
-5.0483986538
 21
5.16141475
 31
0.0
 11
-5.0703246222
 21
5.1861435928
 31
0.0
 11
-5.0911333927
 21
5.2125231227
 31
0.0
 11
-5.110694664
 21
5.2403671819
 31
0.0
 11
-5.1289662512
 21
5.2696246183
 31
0.0
 11
-5.1457390297
 21
5.2999807765
 31
0.0
 11
-5.1608350403
 21
5.3310953999
 31
0.0
 11
-5.174226156
 21
5.3629021453
 31
0.0
 11
-5.1858112154
 21
5.3951968431
 31
0.0
 11
-5.1954533927
 21
5.4276170039
 31
0.0
 11
-5.2030731413
 21
5.4598637589
 31
0.0
 11
-5.2086568429
 21
5.4918982293
 31
0.0
 11
-5.2121326606
 21
5.5234062161
 31
0.0
 11
-5.2134619384
 21
5.5540167488
 31
0.0
  0
SPLINE
  5
2BE
100
AcDbEntity
  8
ASSI
100
AcDbSpline
 62
7
  6
CONTINUOUS
 70
0
 71
3
 72
16
 73
12
 74
10
 42
0.0000001
 43
0.0000001
 44
0.0000000001
 12
-0.0013169092
 22
0.211640437
 32
0.0
 13
0.1590675193
 23
0.1398736643
 33
0.0
 40
0.0
 40
0.0
 40
0.0
 40
0.0
 40
0.1395272774
 40
0.2739201021
 40
0.402445843
 40
0.5248674379
 40
0.6421671143
 40
0.7545208464
 40
0.8621290013
 40
0.9659378976
 40
1.0
 40
1.0
 40
1.0
 40
1.0
 10
-5.2223910508
 20
6.7646000775
 30
0.0
 10
-5.2224522991
 20
6.7744432822
 30
0.0
 10
-5.2219001916
 20
6.7937803976
 30
0.0
 10
-5.218916852
 20
6.8220442548
 30
0.0
 10
-5.2138157934
 20
6.8487816432
 30
0.0
 10
-5.2066410479
 20
6.8737908098
 30
0.0
 10
-5.1974382202
 20
6.8969096698
 30
0.0
 10
-5.1862589622
 20
6.917971445
 30
0.0
 10
-5.1731992988
 20
6.9367819226
 30
0.0
 10
-5.1615528277
 20
6.9496669957
 30
0.0
 10
-5.154390758
 20
6.9562637039
 30
0.0
 10
-5.1525847
 20
6.9578518343
 30
0.0
 11
-5.2223910508
 21
6.7646000775
 31
0.0
 11
-5.2215062394
 21
6.7941170044
 31
0.0
 11
-5.2184732202
 21
6.8223983388
 31
0.0
 11
-5.2133238579
 21
6.8491082693
 31
0.0
 11
-5.2061251738
 21
6.8739980235
 31
0.0
 11
-5.19688905
 21
6.8970418105
 31
0.0
 11
-5.1856890917
 21
6.9180180902
 31
0.0
 11
-5.1726567564
 21
6.9366954611
 31
0.0
 11
-5.1578917473
 21
6.9529650996
 31
0.0
 11
-5.1525847
 21
6.9578518343
 31
0.0
  0
SPLINE
  5
2BF
100
AcDbEntity
  8
ASSI
100
AcDbSpline
 62
253
  6
CONTINUOUS
 70
0
 71
3
 72
22
 73
18
 74
16
 42
0.0000001
 43
0.0000001
 44
0.0000000001
 12
-0.0027087752
 22
0.3665121304
 32
0.0
 13
-0.322967055
 23
0.1732938562
 33
0.0
 40
0.0
 40
0.0
 40
0.0
 40
0.0
 40
0.0629566414
 40
0.1283834588
 40
0.195913743
 40
0.2651259748
 40
0.3355575138
 40
0.4067172398
 40
0.4780975125
 40
0.5491857568
 40
0.6194759385
 40
0.6884801858
 40
0.7557408241
 40
0.8208431402
 40
0.8834292511
 40
0.9432135227
 40
1.0
 40
1.0
 40
1.0
 40
1.0
 10
6.0814788771
 20
4.3908961881
 30
0.0
 10
6.081422032
 20
4.3985876457
 30
0.0
 10
6.0806474924
 20
4.4142730844
 30
0.0
 10
6.077664477
 20
4.43804196
 30
0.0
 10
6.0728689277
 20
4.4622917841
 30
0.0
 10
6.0663131598
 20
4.486757742
 30
0.0
 10
6.0580684377
 20
4.5111750651
 30
0.0
 10
6.0482243712
 20
4.5352783829
 30
0.0
 10
6.036887966
 20
4.5588057807
 30
0.0
 10
6.0241824562
 20
4.5815014874
 30
0.0
 10
6.0102459017
 20
4.6031188436
 30
0.0
 10
5.9952296197
 20
4.6234230304
 30
0.0
 10
5.9792962882
 20
4.6421937381
 30
0.0
 10
5.9626183506
 20
4.6592273629
 30
0.0
 10
5.9453745185
 20
4.6743398506
 30
0.0
 10
5.9277522069
 20
4.6873659322
 30
0.0
 10
5.9155500261
 20
4.6947619346
 30
0.0
 10
5.909436639
 20
4.6980421838
 30
0.0
 11
6.0814788771
 21
4.3908961881
 31
0.0
 11
6.080378578
 21
4.413944943
 31
0.0
 11
6.0774230237
 21
4.4377424888
 31
0.0
 11
6.0726445832
 21
4.4620281955
 31
0.0
 11
6.0660955899
 21
4.4865360869
 31
0.0
 11
6.0578477683
 21
4.5109977534
 31
0.0
 11
6.0479914482
 21
4.5351452915
 31
0.0
 11
6.0366345756
 21
4.5587142383
 31
0.0
 11
6.0239015309
 21
4.5814464675
 31
0.0
 11
6.0099317658
 21
4.6030930165
 31
0.0
 11
5.9948782767
 21
4.6234168131
 31
0.0
 11
5.978905929
 21
4.6421952718
 31
0.0
 11
5.9621896514
 21
4.6592227317
 31
0.0
 11
5.9449125197
 21
4.6743127087
 31
0.0
 11
5.9272637527
 21
4.6872999379
 31
0.0
 11
5.909436639
 21
4.6980421838
 31
0.0
  0
SPLINE
  5
2C0
100
AcDbEntity
  8
ASSI
100
AcDbSpline
 62
253
  6
CONTINUOUS
 70
0
 71
3
 72
16
 73
12
 74
10
 42
0.0000001
 43
0.0000001
 44
0.0000000001
 12
-1.2344583664
 22
9.7271614722
 32
0.0
 13
-0.1480278181
 23
9.8040627053
 33
0.0
 40
0.0
 40
0.0
 40
0.0
 40
0.0
 40
0.1080730282
 40
0.216918925
 40
0.3265327533
 40
0.4369090339
 40
0.5480417747
 40
0.6599244812
 40
0.7725501569
 40
0.8859113138
 40
1.0
 40
1.0
 40
1.0
 40
1.0
 10
-8.680333203
 20
-5.8296662334
 30
0.0
 10
-8.7248037543
 20
-5.4792516346
 30
0.0
 10
-8.8094285407
 20
-4.7753198733
 30
0.0
 10
-8.9230862233
 20
-3.714123705
 30
0.0
 10
-9.0238957114
 20
-2.6440672076
 30
0.0
 10
-9.111835573
 20
-1.5653781087
 30
0.0
 10
-9.1868874741
 20
-0.4782827963
 30
0.0
 10
-9.2490356776
 20
0.6169896002
 30
0.0
 10
-9.2982671881
 20
1.7202090843
 30
0.0
 10
-9.3345716792
 20
2.8311414059
 30
0.0
 10
-9.3501023772
 20
3.5743947563
 30
0.0
 10
-9.3557318103
 20
3.9472389675
 30
0.0
 11
-8.680333203
 21
-5.8296662334
 31
0.0
 11
-8.8068630305
 21
-4.777571945
 31
0.0
 11
-8.9205677847
 21
-3.7163926329
 31
0.0
 11
-9.0214235566
 21
-2.6463518274
 31
0.0
 11
-9.1094091373
 21
-1.5676749692
 31
0.0
 11
-9.1845060336
 21
-0.4805892194
 31
0.0
 11
-9.246698465
 21
0.6146765586
 31
0.0
 11
-9.2959733583
 21
1.7178917202
 31
0.0
 11
-9.3323203527
 21
2.8288238519
 31
0.0
 11
-9.3557318103
 21
3.9472389675
 31
0.0
  0
SPLINE
  5
2C1
100
AcDbEntity
  8
ASSI
100
AcDbSpline
 62
253
  6
CONTINUOUS
 70
0
 71
3
 72
22
 73
18
 74
16
 42
0.0000001
 43
0.0000001
 44
0.0000000001
 12
-0.000238189
 22
0.366577057
 32
0.0
 13
0.326468929
 23
0.166723825
 33
0.0
 40
0.0
 40
0.0
 40
0.0
 40
0.0
 40
0.0627686171
 40
0.1278905369
 40
0.1950351148
 40
0.2638167547
 40
0.3338081528
 40
0.4045525959
 40
0.4755756192
 40
0.5463962937
 40
0.6165383804
 40
0.6855415807
 40
0.7529731191
 40
0.8184399196
 40
0.8816016779
 40
0.9421851557
 40
1.0
 40
1.0
 40
1.0
 40
1.0
 10
5.3869275254
 20
4.3949627809
 30
0.0
 10
5.3869225418
 20
4.4026326259
 30
0.0
 10
5.3875897625
 20
4.4182663796
 30
0.0
 10
5.3904690122
 20
4.4419450365
 30
0.0
 10
5.3952147104
 20
4.4660703871
 30
0.0
 10
5.4017754249
 20
4.4903814389
 30
0.0
 10
5.4100804099
 20
4.5146177946
 30
0.0
 10
5.4200402235
 20
4.5385186874
 30
0.0
 10
5.4315476397
 20
4.5618270029
 30
0.0
 10
5.4444787987
 20
4.5842918595
 30
0.0
 10
5.4586945912
 20
4.6056714894
 30
0.0
 10
5.4740422119
 20
4.6257358757
 30
0.0
 10
5.490357036
 20
4.6442693263
 30
0.0
 10
5.5074641972
 20
4.6610725945
 30
0.0
 10
5.5251820219
 20
4.6759655935
 30
0.0
 10
5.5433195779
 20
4.6887867311
 30
0.0
 10
5.5558699333
 20
4.6960370854
 30
0.0
 10
5.5621615168
 20
4.6992501227
 30
0.0
 11
5.3869275254
 21
4.3949627809
 31
0.0
 11
5.3878715546
 21
4.4179529469
 31
0.0
 11
5.3907226555
 21
4.441654286
 31
0.0
 11
5.3954499054
 21
4.4658097349
 31
0.0
 11
5.4020020325
 21
4.4901573046
 31
0.0
 11
5.4103079731
 21
4.5144329227
 31
0.0
 11
5.4202776411
 21
4.538373297
 31
0.0
 11
5.431802906
 21
4.5617187713
 31
0.0
 11
5.4447587655
 21
4.5842161419
 31
0.0
 11
5.4590047009
 21
4.6056214033
 31
0.0
 11
5.4743862015
 21
4.6257023952
 31
0.0
 11
5.4907364403
 21
4.6442413201
 31
0.0
 11
5.5078780834
 21
4.6610371057
 31
0.0
 11
5.5256252134
 21
4.6759075859
 31
0.0
 11
5.5437853458
 21
4.688691476
 31
0.0
 11
5.5621615168
 21
4.6992501227
 31
0.0
  0
SPLINE
  5
2C2
100
AcDbEntity
  8
ASSI
100
AcDbSpline
 62
253
  6
CONTINUOUS
 70
0
 71
3
 72
17
 73
13
 74
11
 42
0.0000001
 43
0.0000001
 44
0.0000000001
 12
-0.2159827681
 22
0.1079954703
 32
0.0
 13
-0.0005697064
 23
0.2417616987
 33
0.0
 40
0.0
 40
0.0
 40
0.0
 40
0.0
 40
0.13603101
 40
0.2646719717
 40
0.3858331644
 40
0.499640539
 40
0.6064857625
 40
0.7070633195
 40
0.8024026324
 40
0.8938741356
 40
0.9831446548
 40
1.0
 40
1.0
 40
1.0
 40
1.0
 10
-9.4172181981
 20
11.7970356425
 30
0.0
 10
-9.4270116494
 20
11.8019325534
 30
0.0
 10
-9.4457577733
 20
11.8120995445
 30
0.0
 10
-9.471880597
 20
11.8289555368
 30
0.0
 10
-9.4950615935
 20
11.8468891874
 30
0.0
 10
-9.5151320778
 20
11.8657792248
 30
0.0
 10
-9.5319440855
 20
11.8855015117
 30
0.0
 10
-9.5453657752
 20
11.905927569
 30
0.0
 10
-9.5552798132
 20
11.9269210128
 30
0.0
 10
-9.5615848013
 20
11.9483303833
 30
0.0
 10
-9.5635044546
 20
11.9641959166
 30
0.0
 10
-9.5636624857
 20
11.9727478519
 30
0.0
 10
-9.5636656865
 20
11.9741061776
 30
0.0
 11
-9.4172181981
 21
11.7970356425
 31
0.0
 11
-9.4460628651
 21
11.8127521313
 31
0.0
 11
-9.4721251738
 21
11.8296555345
 31
0.0
 11
-9.4952158573
 21
11.8476231809
 31
0.0
 11
-9.5151663038
 21
11.8665239256
 31
0.0
 11
-9.5318315135
 21
11.8862203727
 31
0.0
 11
-9.5450902383
 21
11.9065692571
 31
0.0
 11
-9.5548459255
 21
11.9274224244
 31
0.0
 11
-9.5610275923
 21
11.9486281326
 31
0.0
 11
-9.5635902664
 21
11.9700321233
 31
0.0
 11
-9.5636656865
 21
11.9741061776
 31
0.0
  0
SPLINE
  5
2C3
100
AcDbEntity
  8
ASSI
100
AcDbSpline
 62
253
  6
CONTINUOUS
 70
0
 71
3
 72
22
 73
18
 74
16
 42
0.0000001
 43
0.0000001
 44
0.0000000001
 12
-0.0002381892
 22
0.366577057
 32
0.0
 13
0.3264689291
 23
0.1667238248
 33
0.0
 40
0.0
 40
0.0
 40
0.0
 40
0.0
 40
0.0627686184
 40
0.1278905402
 40
0.1950351199
 40
0.2638167614
 40
0.333808161
 40
0.4045526051
 40
0.4755756292
 40
0.5463963039
 40
0.6165383904
 40
0.68554159
 40
0.7529731272
 40
0.8184399262
 40
0.8816016825
 40
0.9421851581
 40
1.0
 40
1.0
 40
1.0
 40
1.0
 10
-9.4172194927
 20
11.79703629
 30
0.0
 10
-9.4172244763
 20
11.8047061351
 30
0.0
 10
-9.4165572555
 20
11.8203398892
 30
0.0
 10
-9.4136780057
 20
11.8440185467
 30
0.0
 10
-9.4089323072
 20
11.8681438979
 30
0.0
 10
-9.4023715925
 20
11.8924549503
 30
0.0
 10
-9.3940666071
 20
11.9166913064
 30
0.0
 10
-9.3841067932
 20
11.9405921995
 30
0.0
 10
-9.3725993767
 20
11.9639005151
 30
0.0
 10
-9.3596682174
 20
11.9863653717
 30
0.0
 10
-9.3454524248
 20
12.0077450014
 30
0.0
 10
-9.330104804
 20
12.0278093873
 30
0.0
 10
-9.31378998
 20
12.0463428375
 30
0.0
 10
-9.2966828191
 20
12.0631461051
 30
0.0
 10
-9.2789649949
 20
12.0780391035
 30
0.0
 10
-9.2608274394
 20
12.0908602406
 30
0.0
 10
-9.2482770844
 20
12.0981105945
 30
0.0
 10
-9.2419855013
 20
12.1013236317
 30
0.0
 11
-9.4172194927
 21
11.79703629
 31
0.0
 11
-9.4162754635
 21
11.8200264564
 31
0.0
 11
-9.4134243624
 21
11.8437277962
 31
0.0
 11
-9.4086971123
 21
11.8678832457
 31
0.0
 11
-9.4021449848
 21
11.892230816
 31
0.0
 11
-9.393839044
 21
11.9165064346
 31
0.0
 11
-9.3838693756
 21
11.9404468091
 31
0.0
 11
-9.3723441103
 21
11.9637922836
 31
0.0
 11
-9.3593882506
 21
11.9862896541
 31
0.0
 11
-9.3451423151
 21
12.0076949154
 31
0.0
 11
-9.3297608144
 21
12.0277759069
 31
0.0
 11
-9.3134105758
 21
12.0463148313
 31
0.0
 11
-9.2962689329
 21
12.0631106164
 31
0.0
 11
-9.2785218033
 21
12.0779810959
 31
0.0
 11
-9.2603616715
 21
12.0907649855
 31
0.0
 11
-9.2419855013
 21
12.1013236317
 31
0.0
  0
SPLINE
  5
2C4
100
AcDbEntity
  8
ASSI
100
AcDbSpline
 62
253
  6
CONTINUOUS
 70
0
 71
3
 72
18
 73
14
 74
12
 42
0.0000001
 43
0.0000001
 44
0.0000000001
 12
-0.0146251891
 22
-0.3374729221
 32
0.0
 13
-0.3134234949
 23
-0.1267203006
 33
0.0
 40
0.0
 40
0.0
 40
0.0
 40
0.0
 40
0.11202914
 40
0.220003865
 40
0.3237389448
 40
0.4231623526
 40
0.5183318675
 40
0.6094511725
 40
0.696883202
 40
0.7811571033
 40
0.8629639376
 40
0.9431361493
 40
1.0
 40
1.0
 40
1.0
 40
1.0
 10
7.2101179809
 20
-13.4098398035
 30
0.0
 10
7.2095718318
 20
-13.4224420706
 30
0.0
 10
7.2076634852
 20
-13.4471646395
 30
0.0
 10
7.2021882583
 20
-13.4832374191
 30
0.0
 10
7.1941885317
 20
-13.5173857787
 30
0.0
 10
7.1837201849
 20
-13.5493513818
 30
0.0
 10
7.1708557897
 20
-13.5788941403
 30
0.0
 10
7.1556842025
 20
-13.6057894113
 30
0.0
 10
7.1383105659
 20
-13.6298290936
 30
0.0
 10
7.1188573676
 20
-13.6508216598
 30
0.0
 10
7.0974665708
 20
-13.6685934624
 30
0.0
 10
7.0764709559
 20
-13.6816438948
 30
0.0
 10
7.0624468333
 20
-13.688157023
 30
0.0
 10
7.056506011
 20
-13.6905589578
 30
0.0
 11
7.2101179809
 21
-13.4098398035
 31
0.0
 11
7.2071583461
 21
-13.4475661774
 31
0.0
 11
7.2016320019
 21
-13.4836178191
 31
0.0
 11
7.1935809095
 21
-13.5177209911
 31
0.0
 11
7.1830662002
 21
-13.5496167504
 31
0.0
 11
7.1701677114
 21
-13.579062915
 31
0.0
 11
7.1549833804
 21
-13.6058359023
 31
0.0
 11
7.1376285008
 21
-13.629732427
 31
0.0
 11
7.1182348468
 21
-13.6505710445
 31
0.0
 11
7.096949673
 21
-13.6681935288
 31
0.0
 11
7.0739345962
 21
-13.6824660735
 31
0.0
 11
7.056506011
 21
-13.6905589578
 31
0.0
  0
SPLINE
  5
2C5
100
AcDbEntity
  8
ASSI
100
AcDbSpline
 62
253
  6
CONTINUOUS
 70
0
 71
3
 72
26
 73
22
 74
20
 42
0.0000001
 43
0.0000001
 44
0.0000000001
 12
0.0639075782
 22
-0.4718179908
 32
0.0
 13
0.4414253651
 23
0.1784377821
 33
0.0
 40
0.0
 40
0.0
 40
0.0
 40
0.0
 40
0.0604714473
 40
0.1189577881
 40
0.1754896565
 40
0.2301507618
 40
0.2830756018
 40
0.3344495457
 40
0.3845087349
 40
0.4335365193
 40
0.4818566178
 40
0.5298216896
 40
0.5777998971
 40
0.6261586397
 40
0.6752493941
 40
0.7253932963
 40
0.7768707761
 40
0.8299146356
 40
0.8847072271
 40
0.9413785448
 40
1.0
 40
1.0
 40
1.0
 40
1.0
 10
6.8674569466
 20
-13.201743301
 30
0.0
 10
6.8687451412
 20
-13.2112538066
 30
0.0
 10
6.8719154435
 20
-13.2298844078
 30
0.0
 10
6.8786036712
 20
-13.2569478726
 30
0.0
 10
6.8871142893
 20
-13.2825290919
 30
0.0
 10
6.8974060153
 20
-13.3064925369
 30
0.0
 10
6.9094291717
 20
-13.3287132289
 30
0.0
 10
6.9231251273
 20
-13.3490733577
 30
0.0
 10
6.9384259239
 20
-13.3674632583
 30
0.0
 10
6.9552538783
 20
-13.3837820675
 30
0.0
 10
6.9735212188
 20
-13.3979388944
 30
0.0
 10
6.9931302088
 20
-13.4098543878
 30
0.0
 10
7.0139738792
 20
-13.419462334
 30
0.0
 10
7.0359376185
 20
-13.4267109667
 30
0.0
 10
7.0589009951
 20
-13.4315634395
 30
0.0
 10
7.0827395584
 20
-13.43399757
 30
0.0
 10
7.1073261373
 20
-13.4340050219
 30
0.0
 10
7.1325315356
 20
-13.431590492
 30
0.0
 10
7.1582254014
 20
-13.4267705918
 30
0.0
 10
7.1842723579
 20
-13.419575069
 30
0.0
 10
7.2014923152
 20
-13.4133265643
 30
0.0
 10
7.2101179809
 20
-13.4098398035
 30
0.0
 11
6.8674569466
 21
-13.201743301
 31
0.0
 11
6.8723206671
 21
-13.2301215794
 31
0.0
 11
6.8790363871
 21
-13.2571465418
 31
0.0
 11
6.8875688932
 21
-13.2826746538
 31
0.0
 11
6.8978739002
 21
-13.3065731595
 31
0.0
 11
6.9098980764
 21
-13.3287182394
 31
0.0
 11
6.9235791137
 21
-13.3489949491
 31
0.0
 11
6.9388461004
 21
-13.367298028
 31
0.0
 11
6.9556198758
 21
-13.3835324341
 31
0.0
 11
6.9738135444
 21
-13.3976139256
 31
0.0
 11
6.9933327223
 21
-13.409469318
 31
0.0
 11
7.014076229
 21
-13.4190370379
 31
0.0
 11
7.035936417
 21
-13.4262673291
 31
0.0
 11
7.0587999761
 21
-13.4311226151
 31
0.0
 11
7.0825482586
 21
-13.4335776041
 31
0.0
 11
7.1070580124
 21
-13.4336194797
 31
0.0
 11
7.132202008
 21
-13.4312479754
 31
0.0
 11
7.1578499317
 21
-13.4264753141
 31
0.0
 11
7.1838683607
 21
-13.4193263166
 31
0.0
 11
7.2101179809
 21
-13.4098398035
 31
0.0
  0
SPLINE
  5
2C6
100
AcDbEntity
  8
ASSI
100
AcDbSpline
 62
253
  6
CONTINUOUS
 70
0
 71
3
 72
18
 73
14
 74
12
 42
0.0000001
 43
0.0000001
 44
0.0000000001
 12
0.0672629585
 22
-0.5045475144
 32
0.0
 13
0.45473559
 23
-0.229335339
 33
0.0
 40
0.0
 40
0.0
 40
0.0
 40
0.0
 40
0.1129293346
 40
0.2220200623
 40
0.3273306381
 40
0.4290051563
 40
0.5272852747
 40
0.6225115084
 40
0.7151242992
 40
0.8056584685
 40
0.8947311725
 40
0.9830205113
 40
1.0
 40
1.0
 40
1.0
 40
1.0
 10
6.1768554027
 20
-13.2582605362
 30
0.0
 10
6.1793873897
 20
-13.2772532746
 30
0.0
 10
6.1856167823
 20
-13.3144418477
 30
0.0
 10
6.1987648044
 20
-13.3684533895
 30
0.0
 10
6.2154947706
 20
-13.4194679303
 30
0.0
 10
6.2357261892
 20
-13.467218242
 30
0.0
 10
6.2593618758
 20
-13.5114556622
 30
0.0
 10
6.2862871926
 20
-13.5519459889
 30
0.0
 10
6.3163693925
 20
-13.5884711846
 30
0.0
 10
6.3494566338
 20
-13.6208305683
 30
0.0
 10
6.3853770121
 20
-13.6488430757
 30
0.0
 10
6.4135947676
 20
-13.6660448702
 30
0.0
 10
6.4294615656
 20
-13.6742699109
 30
0.0
 10
6.4320352915
 20
-13.6755679098
 30
0.0
 11
6.1768554027
 21
-13.2582605362
 31
0.0
 11
6.1864200723
 21
-13.3149415093
 31
0.0
 11
6.1996250703
 21
-13.3688769583
 31
0.0
 11
6.2164022384
 21
-13.4197881032
 31
0.0
 11
6.2366644605
 21
-13.4674102081
 31
0.0
 11
6.2603068906
 21
-13.5114965462
 31
0.0
 11
6.2872070111
 21
-13.5518182962
 31
0.0
 11
6.3172253974
 21
-13.5881661474
 31
0.0
 11
6.3502064041
 21
-13.6203513651
 31
0.0
 11
6.3859791911
 21
-13.6482069528
 31
0.0
 11
6.4243581935
 21
-13.6715881443
 31
0.0
 11
6.4320352915
 21
-13.6755679098
 31
0.0
  0
SPLINE
  5
2C7
100
AcDbEntity
  8
ASSI
100
AcDbSpline
 62
253
  6
CONTINUOUS
 70
0
 71
3
 72
25
 73
21
 74
19
 42
0.0000001
 43
0.0000001
 44
0.0000000001
 12
-0.604709483
 22
-0.3899745273
 32
0.0
 13
-0.6450072096
 23
0.3189347744
 33
0.0
 40
0.0
 40
0.0
 40
0.0
 40
0.0
 40
0.0519489921
 40
0.1056337261
 40
0.1608610208
 40
0.2174103325
 40
0.2750390332
 40
0.3334872945
 40
0.392482682
 40
0.4517445493
 40
0.5109883064
 40
0.56992963
 40
0.6282886781
 40
0.6857943707
 40
0.7421888042
 40
0.7972318777
 40
0.8507062212
 40
0.9024225311
 40
0.9522254347
 40
1.0
 40
1.0
 40
1.0
 40
1.0
 10
6.8674569466
 20
-13.201743301
 30
0.0
 10
6.8569855972
 20
-13.2084962289
 30
0.0
 10
6.8352191927
 20
-13.2215047345
 30
0.0
 10
6.8009105321
 20
-13.2392031305
 30
0.0
 10
6.7646138099
 20
-13.2553050152
 30
0.0
 10
6.7265932625
 20
-13.2696931542
 30
0.0
 10
6.6871232556
 20
-13.2822640561
 30
0.0
 10
6.6464895634
 20
-13.2929267439
 30
0.0
 10
6.6049863449
 20
-13.30160408
 30
0.0
 10
6.5629142176
 20
-13.3082332197
 30
0.0
 10
6.5205779568
 20
-13.3127661447
 30
0.0
 10
6.4782842504
 20
-13.3151700142
 30
0.0
 10
6.4363394162
 20
-13.3154274047
 30
0.0
 10
6.3950471152
 20
-13.3135364104
 30
0.0
 10
6.3547061193
 20
-13.3095106271
 30
0.0
 10
6.3156079839
 20
-13.3033789286
 30
0.0
 10
6.2780352565
 20
-13.2951853284
 30
0.0
 10
6.2422580806
 20
-13.2849878422
 30
0.0
 10
6.2085369521
 20
-13.2728601566
 30
0.0
 10
6.187127055
 20
-13.2633395222
 30
0.0
 10
6.1768554087
 20
-13.2582605321
 30
0.0
 11
6.8674569466
 21
-13.201743301
 31
0.0
 11
6.8353922458
 21
-13.2209556851
 31
0.0
 11
6.8010784985
 21
-13.2386971369
 31
0.0
 11
6.764765509
 21
-13.2548384985
 31
0.0
 11
6.7267176364
 21
-13.2692622604
 31
0.0
 11
6.6872118697
 21
-13.2818634177
 31
0.0
 11
6.6465358112
 21
-13.2925502336
 31
0.0
 11
6.6049855832
 21
-13.3012449081
 31
0.0
 11
6.5628636719
 21
-13.3078841439
 31
0.0
 11
6.5204767251
 21
-13.3124196071
 31
0.0
 11
6.4781333204
 21
-13.3148182797
 31
0.0
 11
6.4361417184
 21
-13.3150626992
 31
0.0
 11
6.3948076182
 21
-13.3131510862
 31
0.0
 11
6.3544319327
 21
-13.3090973573
 31
0.0
 11
6.3153085973
 21
-13.3029310237
 31
0.0
 11
6.2777224304
 21
-13.2946969765
 31
0.0
 11
6.2419470597
 21
-13.2844551594
 31
0.0
 11
6.2082429303
 21
-13.2722801332
 31
0.0
 11
6.1768554087
 21
-13.2582605321
 31
0.0
  0
SPLINE
  5
2C8
100
AcDbEntity
  8
ASSI
100
AcDbSpline
 62
253
  6
CONTINUOUS
 70
0
 71
3
 72
10
 73
6
 74
4
 42
0.0000001
 43
0.0000001
 44
0.0000000001
 12
0.0500555655
 22
-3.093816266
 32
0.0
 13
0.1594497296
 23
-3.0901317943
 33
0.0
 40
0.0
 40
0.0
 40
0.0
 40
0.0
 40
0.3598065517
 40
0.7174872089
 40
1.0
 40
1.0
 40
1.0
 40
1.0
 10
6.1473491299
 20
-3.4549235282
 30
0.0
 10
6.15335257
 20
-3.8259819822
 30
0.0
 10
6.1699174356
 20
-4.565840792
 30
0.0
 10
6.2059945107
 20
-5.5966430186
 30
0.0
 10
6.2366417073
 20
-6.2562447069
 30
0.0
 10
6.2516572367
 20
-6.5472452929
 30
0.0
 11
6.1473491299
 21
-3.4549235282
 31
0.0
 11
6.1723103383
 21
-4.5679647208
 31
0.0
 11
6.2110633854
 21
-5.6740290978
 31
0.0
 11
6.2516572367
 21
-6.5472452929
 31
0.0
  0
SPLINE
  5
2C9
100
AcDbEntity
  8
ASSI
100
AcDbSpline
 62
253
  6
CONTINUOUS
 70
0
 71
3
 72
14
 73
10
 74
8
 42
0.0000001
 43
0.0000001
 44
0.0000000001
 12
0.344477533
 22
-6.6759660218
 32
0.0
 13
0.8972308591
 23
-6.6243141608
 33
0.0
 40
0.0
 40
0.0
 40
0.0
 40
0.0
 40
0.033800889
 40
0.1973696782
 40
0.3599316521
 40
0.5214806867
 40
0.6820113937
 40
0.841519133
 40
1.0
 40
1.0
 40
1.0
 40
1.0
 10
6.2516572367
 20
-6.5472452929
 30
0.0
 10
6.2555384523
 20
-6.622463155
 30
0.0
 10
6.2787833272
 20
-7.0616442339
 30
0.0
 10
6.3273905257
 20
-7.8622162378
 30
0.0
 10
6.4074156379
 20
-8.9459778441
 30
0.0
 10
6.5011822649
 20
-10.021842341
 30
0.0
 10
6.6086708826
 20
-11.0895840058
 30
0.0
 10
6.7298585934
 20
-12.1489751763
 30
0.0
 10
6.8200589718
 20
-12.8518009506
 30
0.0
 10
6.8674569466
 20
-13.201743301
 30
0.0
 11
6.2516572367
 21
-6.5472452929
 31
0.0
 11
6.2636001189
 21
-6.7728831791
 31
0.0
 11
6.3299094924
 21
-7.8642954708
 31
0.0
 11
6.4099775672
 21
-8.9480361404
 31
0.0
 11
6.5037875181
 21
-10.0238770297
 31
0.0
 11
6.6113196279
 21
-11.0915915758
 31
0.0
 11
6.7325512834
 21
-12.1509548297
 31
0.0
 11
6.8674569466
 21
-13.201743301
 31
0.0
  0
SPLINE
  5
2CA
100
AcDbEntity
  8
ASSI
100
AcDbSpline
 62
253
  6
CONTINUOUS
 70
0
 71
3
 72
16
 73
12
 74
10
 42
0.0000001
 43
0.0000001
 44
0.0000000001
 12
0.159049173
 22
-9.8322873465
 32
0.0
 13
1.3196312823
 23
-9.7446264363
 33
0.0
 40
0.0
 40
0.0
 40
0.0
 40
0.0
 40
0.113848609
 40
0.2270243491
 40
0.33952156
 40
0.4513350501
 40
0.562460123
 40
0.672892586
 40
0.7826287491
 40
0.8916654339
 40
1.0
 40
1.0
 40
1.0
 40
1.0
 10
5.4528603814
 20
-3.4570571283
 30
0.0
 10
5.4588962237
 20
-3.8301878742
 30
0.0
 10
5.4755505001
 20
-4.5741780205
 30
0.0
 10
5.5144710278
 20
-5.6864290648
 30
0.0
 10
5.5672490848
 20
-6.7914326659
 30
0.0
 10
5.6338736085
 20
-7.8889538965
 30
0.0
 10
5.7143306829
 20
-8.9787623606
 30
0.0
 10
5.8086034466
 20
-10.0606283035
 30
0.0
 10
5.9166722691
 20
-11.1343247436
 30
0.0
 10
6.0385141461
 20
-12.1996228648
 30
0.0
 10
6.1292015085
 20
-12.9063672438
 30
0.0
 10
6.1768554027
 20
-13.2582605362
 30
0.0
 11
5.4528603814
 21
-3.4570571283
 31
0.0
 11
5.4779563448
 21
-4.5763144968
 31
0.0
 11
5.5169185853
 21
-5.6885542516
 31
0.0
 11
5.5697389154
 21
-6.7935421316
 31
0.0
 11
5.636406229
 21
-7.8910453507
 31
0.0
 11
5.716906512
 21
-8.9808327939
 31
0.0
 11
5.8112228485
 21
-10.06267503
 31
0.0
 11
5.9193354149
 21
-11.1363442327
 31
0.0
 11
6.041221476
 21
-12.2016141983
 31
0.0
 11
6.1768554027
 21
-13.2582605362
 31
0.0
  0
SPLINE
  5
2CB
100
AcDbEntity
  8
ASSI
100
AcDbSpline
 62
253
  6
CONTINUOUS
 70
0
 71
3
 72
25
 73
21
 74
19
 42
0.0000001
 43
0.0000001
 44
0.0000000001
 12
-0.6423647763
 22
-0.3139711931
 32
0.0
 13
-0.6397108624
 23
0.3193437466
 33
0.0
 40
0.0
 40
0.0
 40
0.0
 40
0.0
 40
0.0496825043
 40
0.1014998182
 40
0.1552483517
 40
0.2106923844
 40
0.2675699993
 40
0.3255983861
 40
0.3844786963
 40
0.4439005886
 40
0.5035465721
 40
0.5630962312
 40
0.6222304052
 40
0.6806353868
 40
0.7380072088
 40
0.7940560977
 40
0.8485111903
 40
0.9011256391
 40
0.9516822694
 40
1.0
 40
1.0
 40
1.0
 40
1.0
 10
6.1473491299
 20
-3.4549235282
 30
0.0
 10
6.1367110329
 20
-3.4601231532
 30
0.0
 10
6.1146160978
 20
-3.4700182454
 30
0.0
 10
6.0799838026
 20
-3.4830965074
 30
0.0
 10
6.0433707268
 20
-3.4946482353
 30
0.0
 10
6.0050428374
 20
-3.5045892628
 30
0.0
 10
5.9652763444
 20
-3.5128480046
 30
0.0
 10
5.9243589448
 20
-3.5193645549
 30
0.0
 10
5.8825867264
 20
-3.5240916559
 30
0.0
 10
5.8402622089
 20
-3.5269949774
 30
0.0
 10
5.7976920106
 20
-3.5280534339
 30
0.0
 10
5.7551845793
 20
-3.5272593468
 30
0.0
 10
5.7130478899
 20
-3.5246185061
 30
0.0
 10
5.6715871421
 20
-3.5201501156
 30
0.0
 10
5.6311025023
 20
-3.5138866389
 30
0.0
 10
5.5918867743
 20
-3.5058734788
 30
0.0
 10
5.5542234879
 20
-3.4961687123
 30
0.0
 10
5.5183837314
 20
-3.4848420502
 30
0.0
 10
5.4846277672
 20
-3.4719759122
 30
0.0
 10
5.4631635072
 20
-3.46220045
 30
0.0
 10
5.4528603815
 20
-3.4570571283
 30
0.0
 11
6.1473491299
 21
-3.4549235282
 31
0.0
 11
6.1149496797
 21
-3.4694879537
 31
0.0
 11
6.080304742
 21
-3.4826160019
 31
0.0
 11
6.0436664063
 21
-3.4942121482
 31
0.0
 11
6.0053012669
 21
-3.5041920147
 31
0.0
 11
5.965488483
 21
-3.512482984
 31
0.0
 11
5.9245177473
 21
-3.5190247281
 31
0.0
 11
5.8826871782
 21
-3.5237696466
 31
0.0
 11
5.8403011509
 21
-3.5266832138
 31
0.0
 11
5.7976680818
 21
-3.5277442295
 31
0.0
 11
5.7550981853
 21
-3.5269449734
 31
0.0
 11
5.7129012159
 21
-3.524291261
 31
0.0
 11
5.6713842145
 21
-3.5198024019
 31
0.0
 11
5.6308492746
 21
-3.5135110586
 31
0.0
 11
5.5915913435
 21
-3.5054630094
 31
0.0
 11
5.5538960768
 21
-3.4957168148
 31
0.0
 11
5.5180377593
 21
-3.4843433919
 31
0.0
 11
5.4842773096
 21
-3.4714254979
 31
0.0
 11
5.4528603815
 21
-3.4570571283
 31
0.0
  0
SPLINE
  5
2CC
100
AcDbEntity
  8
ASSI
100
AcDbSpline
 62
253
  6
CONTINUOUS
 70
0
 71
3
 72
25
 73
21
 74
19
 42
0.0000001
 43
0.0000001
 44
0.0000000001
 12
-0.6460963923
 22
-0.3048847509
 32
0.0
 13
-0.6390010858
 23
0.3194884534
 33
0.0
 40
0.0
 40
0.0
 40
0.0
 40
0.0
 40
0.0494328262
 40
0.1010447089
 40
0.1546315361
 40
0.2099543778
 40
0.2667494203
 40
0.3247313615
 40
0.3835981563
 40
0.4430362134
 40
0.5027246367
 40
0.5623391465
 40
0.6215564156
 40
0.6800584166
 40
0.7375363898
 40
0.7936951737
 40
0.8482585284
 40
0.9009740369
 40
0.9516168911
 40
1.0
 40
1.0
 40
1.0
 40
1.0
 10
6.0814802797
 20
4.39089685
 30
0.0
 10
6.0708341561
 20
4.3858730783
 30
0.0
 10
6.0487240555
 20
4.3763303434
 30
0.0
 10
6.014087456
 20
4.3637729917
 30
0.0
 10
5.9774701349
 20
4.352734702
 30
0.0
 10
5.9391379848
 20
4.3432960393
 30
0.0
 10
5.8993674201
 20
4.3355250137
 30
0.0
 10
5.8584461024
 20
4.3294780332
 30
0.0
 10
5.8166701981
 20
4.3251989833
 30
0.0
 10
5.7743423127
 20
4.3227189669
 30
0.0
 10
5.7317691005
 20
4.3220560077
 30
0.0
 10
5.6892590515
 20
4.3232149216
 30
0.0
 10
5.6471201815
 20
4.3261872713
 30
0.0
 10
5.6056577245
 20
4.3309514429
 30
0.0
 10
5.5651719297
 20
4.3374728097
 30
0.0
 10
5.5259556769
 20
4.3457040604
 30
0.0
 10
5.4882924647
 20
4.3555855028
 30
0.0
 10
5.4524535961
 20
4.3670460393
 30
0.0
 10
5.4186992309
 20
4.380002165
 30
0.0
 10
5.3972318511
 20
4.3898108129
 30
0.0
 10
5.3869262314
 20
4.3949634277
 30
0.0
 11
6.0814802797
 21
4.39089685
 31
0.0
 11
6.0490756107
 21
4.3768561419
 31
0.0
 11
6.0144255014
 21
4.3642484501
 31
0.0
 11
5.9777814199
 21
4.3531653185
 31
0.0
 11
5.9394108701
 21
4.343687702
 31
0.0
 11
5.8995927861
 21
4.3358844743
 31
0.0
 11
5.8586168094
 21
4.3298124097
 31
0.0
 11
5.8167812871
 21
4.3255157222
 31
0.0
 11
5.7743906492
 21
4.3230256686
 31
0.0
 11
5.7317532645
 21
4.3223603578
 31
0.0
 11
5.6891794114
 21
4.3235246307
 31
0.0
 11
5.6469789033
 21
4.32651001
 31
0.0
 11
5.6054587195
 21
4.3312947782
 31
0.0
 11
5.5649209865
 21
4.3378441227
 31
0.0
 11
5.5256608459
 21
4.3461103507
 31
0.0
 11
5.4879638591
 21
4.3560333227
 31
0.0
 11
5.4521040585
 21
4.3675409184
 31
0.0
 11
5.4183431785
 21
4.3805491095
 31
0.0
 11
5.3869262314
 21
4.3949634277
 31
0.0
  0
SPLINE
  5
2CD
100
AcDbEntity
  8
CURVE
100
AcDbSpline
 62
253
  6
CONTINUOUS
 70
0
 71
3
 72
147
 73
143
 74
141
 42
0.0000001
 43
0.0000001
 44
0.0000000001
 12
-0.1953894969
 22
3.1583556008
 32
0.0
 13
-0.1337869692
 23
4.8705012078
 33
0.0
 40
0.0
 40
0.0
 40
0.0
 40
0.0
 40
0.0625
 40
0.09375
 40
0.125
 40
0.140625
 40
0.15625
 40
0.1640625
 40
0.171875
 40
0.1875
 40
0.21875
 40
0.234375
 40
0.25
 40
0.265625
 40
0.28125
 40
0.2890625
 40
0.296875
 40
0.3046875
 40
0.3125
 40
0.31640625
 40
0.3203125
 40
0.32421875
 40
0.326171875
 40
0.328125
 40
0.330078125
 40
0.3310546875
 40
0.33203125
 40
0.3325195312
 40
0.3330078125
 40
0.3332519531
 40
0.3333740234
 40
0.3334960938
 40
0.3337402344
 40
0.333984375
 40
0.3349609375
 40
0.3359375
 40
0.3369140625
 40
0.337890625
 40
0.33984375
 40
0.34375
 40
0.34765625
 40
0.3515625
 40
0.35546875
 40
0.359375
 40
0.3671875
 40
0.375
 40
0.390625
 40
0.40625
 40
0.421875
 40
0.4375
 40
0.4453125
 40
0.453125
 40
0.4609375
 40
0.46875
 40
0.4765625
 40
0.48046875
 40
0.484375
 40
0.48828125
 40
0.490234375
 40
0.4921875
 40
0.494140625
 40
0.49609375
 40
0.4970703125
 40
0.498046875
 40
0.4985351562
 40
0.4990234375
 40
0.4995117188
 40
0.4997558594
 40
0.4998779297
 40
0.5
 40
0.5001220703
 40
0.5002441406
 40
0.5004882812
 40
0.5009765625
 40
0.5014648438
 40
0.501953125
 40
0.5029296875
 40
0.50390625
 40
0.505859375
 40
0.5078125
 40
0.509765625
 40
0.51171875
 40
0.515625
 40
0.51953125
 40
0.5234375
 40
0.53125
 40
0.5390625
 40
0.546875
 40
0.5546875
 40
0.5625
 40
0.578125
 40
0.59375
 40
0.609375
 40
0.625
 40
0.640625
 40
0.65625
 40
0.6640625
 40
0.671875
 40
0.6875
 40
0.71875
 40
0.734375
 40
0.75
 40
0.765625
 40
0.78125
 40
0.7890625
 40
0.796875
 40
0.8046875
 40
0.8125
 40
0.81640625
 40
0.8203125
 40
0.82421875
 40
0.826171875
 40
0.828125
 40
0.830078125
 40
0.8310546875
 40
0.83203125
 40
0.8325195312
 40
0.8330078125
 40
0.8332519531
 40
0.8333740234
 40
0.8334960938
 40
0.8337402344
 40
0.833984375
 40
0.8349609375
 40
0.8359375
 40
0.8369140625
 40
0.837890625
 40
0.83984375
 40
0.84375
 40
0.84765625
 40
0.8515625
 40
0.85546875
 40
0.859375
 40
0.8671875
 40
0.875
 40
0.890625
 40
0.90625
 40
0.921875
 40
0.9375
 40
0.953125
 40
0.96875
 40
1.0
 40
1.0
 40
1.0
 40
1.0
 10
-1.9164955613
 20
-4.0993497473
 30
0.0
 10
-1.9205661758
 20
-4.0335506723
 30
0.0
 10
-1.9266715632
 20
-3.9348517467
 30
0.0
 10
-1.9348142173
 20
-3.8032544314
 30
0.0
 10
-1.9398989227
 20
-3.7210035008
 30
0.0
 10
-1.9439768409
 20
-3.6552087037
 30
0.0
 10
-1.9465023818
 20
-3.6140733915
 30
0.0
 10
-1.9485758552
 20
-3.5811962085
 30
0.0
 10
-1.950455692
 20
-3.5482056096
 30
0.0
 10
-1.9536552435
 20
-3.4904192517
 30
0.0
 10
-1.9573507421
 20
-3.4244004657
 30
0.0
 10
-1.9610326788
 20
-3.3583737363
 30
0.0
 10
-1.9637959486
 20
-3.3088547536
 30
0.0
 10
-1.9665587306
 20
-3.2593354852
 30
0.0
 10
-1.9688611603
 20
-3.2180694934
 30
0.0
 10
-1.9707030808
 20
-3.1850566864
 30
0.0
 10
-1.9720845242
 20
-3.1602970828
 30
0.0
 10
-1.9734659668
 20
-3.1355374793
 30
0.0
 10
-1.9746171693
 20
-3.1149044744
 30
0.0
 10
-1.975538131
 20
-3.0983980754
 30
0.0
 10
-1.9762288528
 20
-3.0860182627
 30
0.0
 10
-1.9768044528
 20
-3.0757017947
 30
0.0
 10
-1.977264936
 20
-3.0674485248
 30
0.0
 10
-1.9776102897
 20
-3.0612588333
 30
0.0
 10
-1.9778981122
 20
-3.0560999273
 30
0.0
 10
-1.978128308
 20
-3.0519746634
 30
0.0
 10
-1.9782723219
 20
-3.049392136
 30
0.0
 10
-1.978387209
 20
-3.0473358189
 30
0.0
 10
-1.9784597528
 20
-3.0460284773
 30
0.0
 10
-1.9785090516
 20
-3.0451577164
 30
0.0
 10
-1.9785395409
 20
-3.0445907048
 30
0.0
 10
-1.9785787632
 20
-3.0437621711
 30
0.0
 10
-1.9786248062
 20
-3.0428158933
 30
0.0
 10
-1.9787377661
 20
-3.040471255
 30
0.0
 10
-1.9789061741
 20
-3.0369851985
 30
0.0
 10
-1.9791313078
 20
-3.0323194615
 30
0.0
 10
-1.9793562838
 20
-3.027658449
 30
0.0
 10
-1.9796563068
 20
-3.0214421177
 30
0.0
 10
-1.9801813215
 20
-3.0105643056
 30
0.0
 10
-1.9809313558
 20
-2.9950241727
 30
0.0
 10
-1.9818313912
 20
-2.9763761853
 30
0.0
 10
-1.9827314281
 20
-2.9577281518
 30
0.0
 10
-1.9836314647
 20
-2.9390801307
 30
0.0
 10
-1.9848315135
 20
-2.9142160981
 30
0.0
 10
-1.9863315746
 20
-2.8831360589
 30
0.0
 10
-1.9887316723
 20
-2.8334079954
 30
0.0
 10
-1.9917317944
 20
-2.7712479163
 30
0.0
 10
-1.9953319409
 20
-2.6966558212
 30
0.0
 10
-1.9989320874
 20
-2.6220637261
 30
0.0
 10
-2.0019322095
 20
-2.5599036469
 30
0.0
 10
-2.0043323072
 20
-2.5101755835
 30
0.0
 10
-2.0061323804
 20
-2.472879536
 30
0.0
 10
-2.0079324537
 20
-2.4355834885
 30
0.0
 10
-2.0097325269
 20
-2.3982874409
 30
0.0
 10
-2.011232588
 20
-2.3672074014
 30
0.0
 10
-2.0124326368
 20
-2.3423433696
 30
0.0
 10
-2.0133326734
 20
-2.3236953462
 30
0.0
 10
-2.014082704
 20
-2.3081553253
 30
0.0
 10
-2.0146827283
 20
-2.2957233116
 30
0.0
 10
-2.015132747
 20
-2.2863992931
 30
0.0
 10
-2.0155827638
 20
-2.2770753063
 30
0.0
 10
-2.015957784
 20
-2.2693052183
 30
0.0
 10
-2.0162577861
 20
-2.2630893697
 30
0.0
 10
-2.0164453194
 20
-2.2592039592
 30
0.0
 10
-2.0165952728
 20
-2.2560967876
 30
0.0
 10
-2.0167079385
 20
-2.2537632416
 30
0.0
 10
-2.016801188
 20
-2.2518286957
 30
0.0
 10
-2.016867716
 20
-2.2504547403
 30
0.0
 10
-2.016903775
 20
-2.2497004971
 30
0.0
 10
-2.0169363321
 20
-2.2490478415
 30
0.0
 10
-2.0169478163
 20
-2.2487276418
 30
0.0
 10
-2.016970479
 20
-2.2481847445
 30
0.0
 10
-2.0170067141
 20
-2.2472887042
 30
0.0
 10
-2.0170602689
 20
-2.2459803992
 30
0.0
 10
-2.0171237683
 20
-2.2444225239
 30
0.0
 10
-2.0172087019
 20
-2.2423411339
 30
0.0
 10
-2.0173147772
 20
-2.2397408423
 30
0.0
 10
-2.0174845489
 20
-2.2355795676
 30
0.0
 10
-2.0176967459
 20
-2.2303782515
 30
0.0
 10
-2.0179513899
 20
-2.2241365533
 30
0.0
 10
-2.0182060319
 20
-2.2178948869
 30
0.0
 10
-2.0185455552
 20
-2.209572654
 30
0.0
 10
-2.0189699591
 20
-2.1991698666
 30
0.0
 10
-2.0194792439
 20
-2.1866865202
 30
0.0
 10
-2.0201582903
 20
-2.1700420588
 30
0.0
 10
-2.0210070983
 20
-2.1492364818
 30
0.0
 10
-2.0220256679
 20
-2.1242697896
 30
0.0
 10
-2.0230442373
 20
-2.0993030973
 30
0.0
 10
-2.0240628076
 20
-2.0743364054
 30
0.0
 10
-2.0254208967
 20
-2.0410474804
 30
0.0
 10
-2.0271185409
 20
-1.9994363423
 30
0.0
 10
-2.0291555633
 20
-1.949502893
 30
0.0
 10
-2.0311931356
 20
-1.8995697491
 30
0.0
 10
-2.0332286592
 20
-1.8496354669
 30
0.0
 10
-2.0352718275
 20
-1.7997054327
 30
0.0
 10
-2.0369506927
 20
-1.7580838594
 30
0.0
 10
-2.0383470226
 20
-1.7248161843
 30
0.0
 10
-2.0395494213
 20
-1.691440744
 30
0.0
 10
-2.0415633388
 20
-1.6329835559
 30
0.0
 10
-2.0439038777
 20
-1.5661969677
 30
0.0
 10
-2.0462308372
 20
-1.4994028336
 30
0.0
 10
-2.0479778763
 20
-1.4493082441
 30
0.0
 10
-2.049724427
 20
-1.3992133832
 30
0.0
 10
-2.0511799975
 20
-1.3574677277
 30
0.0
 10
-2.0523444305
 20
-1.3240711904
 30
0.0
 10
-2.0532177584
 20
-1.299023789
 30
0.0
 10
-2.0540910854
 20
-1.2739763879
 30
0.0
 10
-2.0548188582
 20
-1.2531035514
 30
0.0
 10
-2.0554010763
 20
-1.2364052873
 30
0.0
 10
-2.0558377401
 20
-1.2238815753
 30
0.0
 10
-2.0562016259
 20
-1.2134451929
 30
0.0
 10
-2.056492736
 20
-1.2050959879
 30
0.0
 10
-2.0567110649
 20
-1.1988343547
 30
0.0
 10
-2.0568930171
 20
-1.1936154664
 30
0.0
 10
-2.0570385533
 20
-1.189442286
 30
0.0
 10
-2.0571295715
 20
-1.1868296529
 30
0.0
 10
-2.057202253
 20
-1.1847496128
 30
0.0
 10
-2.0572479826
 20
-1.1834266195
 30
0.0
 10
-2.0572793848
 20
-1.1825465554
 30
0.0
 10
-2.0572982809
 20
-1.1819716415
 30
0.0
 10
-2.0573207627
 20
-1.1811254645
 30
0.0
 10
-2.0573476393
 20
-1.1801604621
 30
0.0
 10
-2.0574131519
 20
-1.1777681445
 30
0.0
 10
-2.0575109972
 20
-1.17421172
 30
0.0
 10
-2.0576416997
 20
-1.1694515012
 30
0.0
 10
-2.0577723374
 20
-1.1646961827
 30
0.0
 10
-2.0579465436
 20
-1.1583540488
 30
0.0
 10
-2.058251394
 20
-1.1472561109
 30
0.0
 10
-2.0586869
 20
-1.1314014975
 30
0.0
 10
-2.0592095048
 20
-1.1123761398
 30
0.0
 10
-2.0597321103
 20
-1.0933507344
 30
0.0
 10
-2.0602547156
 20
-1.0743253417
 30
0.0
 10
-2.0609515228
 20
-1.0489581471
 30
0.0
 10
-2.0618225317
 20
-1.0172491553
 30
0.0
 10
-2.0632161459
 20
-0.9665147675
 30
0.0
 10
-2.0649581638
 20
-0.9030967831
 30
0.0
 10
-2.0670485852
 20
-0.8269952017
 30
0.0
 10
-2.0691390066
 20
-0.7508936203
 30
0.0
 10
-2.071229428
 20
-0.674792039
 30
0.0
 10
-2.0733198493
 20
-0.5986904576
 30
0.0
 10
-2.0761070779
 20
-0.4972216824
 30
0.0
 10
-2.0781974993
 20
-0.4211201011
 30
0.0
 10
-2.0795911135
 20
-0.3703857135
 30
0.0
 11
-1.9164955613
 21
-4.0993497473
 31
0.0
 11
-1.9287074049
 21
-3.9019525222
 31
0.0
 11
-1.9348133266
 21
-3.8032539097
 31
0.0
 11
-1.9409192484
 21
-3.7045552972
 31
0.0
 11
-1.9439722093
 21
-3.6552059909
 31
0.0
 11
-1.9470251702
 21
-3.6058566846
 31
0.0
 11
-1.9485516506
 21
-3.5811820315
 31
0.0
 11
-1.9499814393
 21
-3.5564507446
 31
0.0
 11
-1.9527443249
 21
-3.5069315368
 31
0.0
 11
-1.9582700961
 21
-3.4078931214
 31
0.0
 11
-1.9610329817
 21
-3.3583739137
 31
0.0
 11
-1.9637958673
 21
-3.308854706
 31
0.0
 11
-1.9665587529
 21
-3.2593354982
 31
0.0
 11
-1.9693216385
 21
-3.2098162905
 31
0.0
 11
-1.9707030813
 21
-3.1850566867
 31
0.0
 11
-1.9720845241
 21
-3.1602970828
 31
0.0
 11
-1.9734659669
 21
-3.1355374789
 31
0.0
 11
-1.9748474097
 21
-3.1107778751
 31
0.0
 11
-1.9755381311
 21
-3.0983980731
 31
0.0
 11
-1.9762288525
 21
-3.0860182712
 31
0.0
 11
-1.9769195739
 21
-3.0736384693
 31
0.0
 11
-1.9772649346
 21
-3.0674485683
 31
0.0
 11
-1.9776102953
 21
-3.0612586674
 31
0.0
 11
-1.977955656
 21
-3.0550687664
 31
0.0
 11
-1.9781283363
 21
-3.0519738159
 31
0.0
 11
-1.9783010167
 21
-3.0488788654
 31
0.0
 11
-1.9783873568
 21
-3.0473313902
 31
0.0
 11
-1.978473697
 21
-3.0457839149
 31
0.0
 11
-1.9785168671
 21
-3.0450101773
 31
0.0
 11
-1.9785406325
 21
-3.0445580145
 31
0.0
 11
-1.9785687587
 21
-3.0439752638
 31
0.0
 11
-1.9786250109
 21
-3.0428097623
 31
0.0
 11
-1.9786812632
 21
-3.0416442608
 31
0.0
 11
-1.9789062724
 21
-3.0369822549
 31
0.0
 11
-1.9791312816
 21
-3.0323202489
 31
0.0
 11
-1.9793562907
 21
-3.027658243
 31
0.0
 11
-1.9795812999
 21
-3.0229962371
 31
0.0
 11
-1.9800313182
 21
-3.0136722252
 31
0.0
 11
-1.9809313548
 21
-2.9950242014
 31
0.0
 11
-1.9818313914
 21
-2.9763761776
 31
0.0
 11
-1.9827314281
 21
-2.9577281539
 31
0.0
 11
-1.9836314647
 21
-2.9390801301
 31
0.0
 11
-1.9845315013
 21
-2.9204321064
 31
0.0
 11
-1.9863315746
 21
-2.8831360588
 31
0.0
 11
-1.9881316478
 21
-2.8458400113
 31
0.0
 11
-1.9917317944
 21
-2.7712479162
 31
0.0
 11
-1.9953319409
 21
-2.6966558212
 31
0.0
 11
-1.9989320874
 21
-2.6220637261
 31
0.0
 11
-2.0025322339
 21
-2.5474716311
 31
0.0
 11
-2.0043323072
 21
-2.5101755835
 31
0.0
 11
-2.0061323804
 21
-2.472879536
 31
0.0
 11
-2.0079324537
 21
-2.4355834885
 31
0.0
 11
-2.0097325269
 21
-2.398287441
 31
0.0
 11
-2.0115326002
 21
-2.3609913934
 31
0.0
 11
-2.0124326368
 21
-2.3423433697
 31
0.0
 11
-2.0133326734
 21
-2.3236953459
 31
0.0
 11
-2.0142327101
 21
-2.3050473221
 31
0.0
 11
-2.0146827284
 21
-2.2957233103
 31
0.0
 11
-2.0151327467
 21
-2.2863992984
 31
0.0
 11
-2.015582765
 21
-2.2770752865
 31
0.0
 11
-2.0160327833
 21
-2.2677512746
 31
0.0
 11
-2.0162577925
 21
-2.2630892687
 31
0.0
 11
-2.0164828016
 21
-2.2584272627
 31
0.0
 11
-2.0165953062
 21
-2.2560962598
 31
0.0
 11
-2.0167078108
 21
-2.2537652568
 31
0.0
 11
-2.0168203154
 21
-2.2514342538
 31
0.0
 11
-2.0168765677
 21
-2.2502687523
 31
0.0
 11
-2.0169046938
 21
-2.2496860016
 31
0.0
 11
-2.01693282
 21
-2.2491032508
 31
0.0
 11
-2.0169487351
 21
-2.2487131463
 31
0.0
 11
-2.0169646503
 21
-2.2483230417
 31
0.0
 11
-2.0169964806
 21
-2.2475428326
 31
0.0
 11
-2.0170601412
 21
-2.2459824143
 31
0.0
 11
-2.0171238018
 21
-2.244421996
 31
0.0
 11
-2.0171874624
 21
-2.2428615778
 31
0.0
 11
-2.0173147836
 21
-2.2397407412
 31
0.0
 11
-2.0174421048
 21
-2.2366199047
 31
0.0
 11
-2.0176967472
 21
-2.2303782317
 31
0.0
 11
-2.0179513895
 21
-2.2241365586
 31
0.0
 11
-2.0182060319
 21
-2.2178948855
 31
0.0
 11
-2.0184606743
 21
-2.2116532125
 31
0.0
 11
-2.0189699591
 21
-2.1991698663
 31
0.0
 11
-2.0194792439
 21
-2.1866865202
 31
0.0
 11
-2.0199885287
 21
-2.1742031741
 31
0.0
 11
-2.0210070983
 21
-2.1492364819
 31
0.0
 11
-2.0220256679
 21
-2.1242697896
 31
0.0
 11
-2.0230442375
 21
-2.0993030974
 31
0.0
 11
-2.0240628071
 21
-2.0743364051
 31
0.0
 11
-2.0250813766
 21
-2.0493697129
 31
0.0
 11
-2.0271185158
 21
-1.9994363284
 31
0.0
 11
-2.029155655
 21
-1.9495029439
 31
0.0
 11
-2.0311927941
 21
-1.8995695594
 31
0.0
 11
-2.0332299333
 21
-1.8496361749
 31
0.0
 11
-2.0352670725
 21
-1.7997027904
 31
0.0
 11
-2.0373042116
 21
-1.7497694059
 31
0.0
 11
-2.0383227812
 21
-1.7248027136
 31
0.0
 11
-2.0392445226
 21
-1.6997822151
 31
0.0
 11
-2.040991177
 21
-1.6496874119
 31
0.0
 11
-2.044484486
 21
-1.5494978054
 31
0.0
 11
-2.0462311404
 21
-1.4994030021
 31
0.0
 11
-2.0479777949
 21
-1.4493081988
 31
0.0
 11
-2.0497244493
 21
-1.3992133956
 31
0.0
 11
-2.0514711038
 21
-1.3491185923
 31
0.0
 11
-2.052344431
 21
-1.3240711907
 31
0.0
 11
-2.0532177583
 21
-1.2990237891
 31
0.0
 11
-2.0540910855
 21
-1.2739763874
 31
0.0
 11
-2.0549644127
 21
-1.2489289858
 31
0.0
 11
-2.0554010763
 21
-1.236405285
 31
0.0
 11
-2.0558377399
 21
-1.2238815842
 31
0.0
 11
-2.0562744036
 21
-1.2113578834
 31
0.0
 11
-2.0564927354
 21
-1.205096033
 31
0.0
 11
-2.0567110672
 21
-1.1988341825
 31
0.0
 11
-2.056929399
 21
-1.1925723321
 31
0.0
 11
-2.0570385649
 21
-1.1894414069
 31
0.0
 11
-2.0571477308
 21
-1.1863104817
 31
0.0
 11
-2.0572023137
 21
-1.1847450191
 31
0.0
 11
-2.0572568967
 21
-1.1831795565
 31
0.0
 11
-2.0572841882
 21
-1.1823968252
 31
0.0
 11
-2.0572987291
 21
-1.1819377336
 31
0.0
 11
-2.0573150606
 21
-1.18134319
 31
0.0
 11
-2.0573477234
 21
-1.1801541028
 31
0.0
 11
-2.0573803862
 21
-1.1789650156
 31
0.0
 11
-2.0575110376
 21
-1.1742086667
 31
0.0
 11
-2.0576416889
 21
-1.1694523179
 31
0.0
 11
-2.0577723402
 21
-1.1646959691
 31
0.0
 11
-2.0579029916
 21
-1.1599396202
 31
0.0
 11
-2.0581642942
 21
-1.1504269226
 31
0.0
 11
-2.0586868996
 21
-1.1314015272
 31
0.0
 11
-2.0592095049
 21
-1.1123761319
 31
0.0
 11
-2.0597321103
 21
-1.0933507365
 31
0.0
 11
-2.0602547156
 21
-1.0743253412
 31
0.0
 11
-2.060777321
 21
-1.0552999458
 31
0.0
 11
-2.0618225317
 21
-1.0172491551
 31
0.0
 11
-2.0628677424
 21
-0.9791983645
 31
0.0
 11
-2.0649581638
 21
-0.9030967831
 31
0.0
 11
-2.0670485852
 21
-0.8269952017
 31
0.0
 11
-2.0691390066
 21
-0.7508936203
 31
0.0
 11
-2.071229428
 21
-0.674792039
 31
0.0
 11
-2.0733198493
 21
-0.5986904576
 31
0.0
 11
-2.0754102707
 21
-0.5225888762
 31
0.0
 11
-2.0795911135
 21
-0.3703857135
 31
0.0
  0
SPLINE
  5
2CE
100
AcDbEntity
  8
CURVE
100
AcDbSpline
 62
253
  6
CONTINUOUS
 70
0
 71
3
 72
23
 73
19
 74
17
 42
0.0000001
 43
0.0000001
 44
0.0000000001
 12
0.0353315053
 22
-0.544272244
 32
0.0
 13
-0.0352138543
 23
0.5424598633
 33
0.0
 40
0.0
 40
0.0
 40
0.0
 40
0.0
 40
0.0416666667
 40
0.0833333333
 40
0.125
 40
0.1666666667
 40
0.25
 40
0.3333333333
 40
0.4166666667
 40
0.5
 40
0.5833333333
 40
0.6666666667
 40
0.75
 40
0.8333333333
 40
0.875
 40
0.9166666667
 40
0.9583333333
 40
1.0
 40
1.0
 40
1.0
 40
1.0
 10
-1.6336528488
 20
-4.2407711035
 30
0.0
 10
-1.6331621335
 20
-4.2483304402
 30
0.0
 10
-1.6330503902
 20
-4.2626148165
 30
0.0
 10
-1.6352946835
 20
-4.2824016492
 30
0.0
 10
-1.6399738265
 20
-4.3003448482
 30
0.0
 10
-1.6493011274
 20
-4.3211874708
 30
0.0
 10
-1.6664748283
 20
-4.3409012764
 30
0.0
 10
-1.6944219514
 20
-4.3528071793
 30
0.0
 10
-1.7277579266
 20
-4.3522904013
 30
0.0
 10
-1.7642468225
 20
-4.3394778419
 30
0.0
 10
-1.8015524331
 20
-4.3151696059
 30
0.0
 10
-1.8370230245
 20
-4.2810778749
 30
0.0
 10
-1.8683231411
 20
-4.2394659179
 30
0.0
 10
-1.8891409038
 20
-4.2008755119
 30
0.0
 10
-1.9018171755
 20
-4.16915742
 30
0.0
 10
-1.9091798781
 20
-4.1452999225
 30
0.0
 10
-1.9142137428
 20
-4.1219598612
 30
0.0
 10
-1.91600648
 20
-4.106883912
 30
0.0
 10
-1.9164955613
 20
-4.0993497473
 30
0.0
 11
-1.6336528488
 21
-4.2407711035
 31
0.0
 11
-1.6334523749
 21
-4.2623415279
 31
0.0
 11
-1.6357004918
 21
-4.2820943769
 31
0.0
 11
-1.640359882
 21
-4.2999596429
 31
0.0
 11
-1.6473369405
 21
-4.3155541836
 31
0.0
 11
-1.6676979419
 21
-4.3389428325
 31
0.0
 11
-1.6953200934
 21
-4.3507367325
 31
0.0
 11
-1.7282834134
 21
-4.3502411044
 31
0.0
 11
-1.7643829416
 21
-4.3375618958
 31
0.0
 11
-1.8012465966
 21
-4.3135390234
 31
0.0
 11
-1.8363279454
 21
-4.2798245039
 31
0.0
 11
-1.8672700076
 21
-4.2386831628
 31
0.0
 11
-1.8919784768
 21
-4.1928755083
 31
0.0
 11
-1.9014597587
 21
-4.1691459319
 31
0.0
 11
-1.9087917384
 21
-4.1453861619
 31
0.0
 11
-1.9138229497
 21
-4.1220808841
 31
0.0
 11
-1.9164955613
 21
-4.0993497473
 31
0.0
  0
SPLINE
  5
2CF
100
AcDbEntity
  8
CURVE
100
AcDbSpline
 62
253
  6
CONTINUOUS
 70
0
 71
3
 72
147
 73
143
 74
141
 42
0.0000001
 43
0.0000001
 44
0.0000000001
 12
0.0836451323
 22
-3.2214020198
 32
0.0
 13
0.2884436627
 23
-4.7832435576
 33
0.0
 40
0.0
 40
0.0
 40
0.0
 40
0.0
 40
0.0625
 40
0.09375
 40
0.125
 40
0.140625
 40
0.15625
 40
0.1640625
 40
0.171875
 40
0.1875
 40
0.21875
 40
0.234375
 40
0.25
 40
0.265625
 40
0.28125
 40
0.2890625
 40
0.296875
 40
0.3046875
 40
0.3125
 40
0.31640625
 40
0.3203125
 40
0.32421875
 40
0.326171875
 40
0.328125
 40
0.330078125
 40
0.3310546875
 40
0.33203125
 40
0.3325195312
 40
0.3330078125
 40
0.3332519531
 40
0.3333740234
 40
0.3334960938
 40
0.3337402344
 40
0.333984375
 40
0.3349609375
 40
0.3359375
 40
0.3369140625
 40
0.337890625
 40
0.33984375
 40
0.34375
 40
0.34765625
 40
0.3515625
 40
0.35546875
 40
0.359375
 40
0.3671875
 40
0.375
 40
0.390625
 40
0.40625
 40
0.421875
 40
0.4375
 40
0.4453125
 40
0.453125
 40
0.4609375
 40
0.46875
 40
0.4765625
 40
0.48046875
 40
0.484375
 40
0.48828125
 40
0.490234375
 40
0.4921875
 40
0.494140625
 40
0.49609375
 40
0.4970703125
 40
0.498046875
 40
0.4985351562
 40
0.4990234375
 40
0.4995117188
 40
0.4997558594
 40
0.4998779297
 40
0.5
 40
0.5001220703
 40
0.5002441406
 40
0.5004882812
 40
0.5009765625
 40
0.5014648438
 40
0.501953125
 40
0.5029296875
 40
0.50390625
 40
0.505859375
 40
0.5078125
 40
0.509765625
 40
0.51171875
 40
0.515625
 40
0.51953125
 40
0.5234375
 40
0.53125
 40
0.5390625
 40
0.546875
 40
0.5546875
 40
0.5625
 40
0.578125
 40
0.59375
 40
0.609375
 40
0.625
 40
0.640625
 40
0.65625
 40
0.6640625
 40
0.671875
 40
0.6875
 40
0.71875
 40
0.734375
 40
0.75
 40
0.765625
 40
0.78125
 40
0.7890625
 40
0.796875
 40
0.8046875
 40
0.8125
 40
0.81640625
 40
0.8203125
 40
0.82421875
 40
0.826171875
 40
0.828125
 40
0.830078125
 40
0.8310546875
 40
0.83203125
 40
0.8325195312
 40
0.8330078125
 40
0.8332519531
 40
0.8333740234
 40
0.8334960938
 40
0.8337402344
 40
0.833984375
 40
0.8349609375
 40
0.8359375
 40
0.8369140625
 40
0.837890625
 40
0.83984375
 40
0.84375
 40
0.84765625
 40
0.8515625
 40
0.85546875
 40
0.859375
 40
0.8671875
 40
0.875
 40
0.890625
 40
0.90625
 40
0.921875
 40
0.9375
 40
0.953125
 40
0.96875
 40
1.0
 40
1.0
 40
1.0
 40
1.0
 10
-1.7967484003
 20
-0.5118071026
 30
0.0
 10
-1.7950057934
 20
-0.5789196447
 30
0.0
 10
-1.7923913476
 20
-0.6795881672
 30
0.0
 10
-1.7889075615
 20
-0.8138140262
 30
0.0
 10
-1.7867257335
 20
-0.8977027667
 30
0.0
 10
-1.7849904437
 20
-0.9648192799
 30
0.0
 10
-1.783882687
 20
-1.0067545091
 30
0.0
 10
-1.7830496198
 20
-1.0403315321
 30
0.0
 10
-1.7820225603
 20
-1.0738032699
 30
0.0
 10
-1.7801348778
 20
-1.1323297871
 30
0.0
 10
-1.778016466
 20
-1.199238369
 30
0.0
 10
-1.7758844676
 20
-1.2661395771
 30
0.0
 10
-1.7742872892
 20
-1.3163164711
 30
0.0
 10
-1.7726896223
 20
-1.3664931
 30
0.0
 10
-1.7713583446
 20
-1.408307018
 30
0.0
 10
-1.7702932992
 20
-1.4417581396
 30
0.0
 10
-1.7694945183
 20
-1.4668464827
 30
0.0
 10
-1.7686957365
 20
-1.4919348247
 30
0.0
 10
-1.7680300851
 20
-1.5128417786
 30
0.0
 10
-1.7674975642
 20
-1.5295673368
 30
0.0
 10
-1.7670981729
 20
-1.5421115188
 30
0.0
 10
-1.766765349
 20
-1.5525649616
 30
0.0
 10
-1.7664990848
 20
-1.5609278103
 30
0.0
 10
-1.7662994006
 20
-1.5671996889
 30
0.0
 10
-1.7661329526
 20
-1.5724270747
 30
0.0
 10
-1.765999894
 20
-1.5766071436
 30
0.0
 10
-1.7659165053
 20
-1.5792238759
 30
0.0
 10
-1.7658503144
 20
-1.5813076674
 30
0.0
 10
-1.7658077585
 20
-1.5826319283
 30
0.0
 10
-1.7657803473
 20
-1.5835150382
 30
0.0
 10
-1.7657609633
 20
-1.5840883154
 30
0.0
 10
-1.7657275659
 20
-1.5849201356
 30
0.0
 10
-1.765690609
 20
-1.5858715398
 30
0.0
 10
-1.7655979703
 20
-1.5882276433
 30
0.0
 10
-1.7654606679
 20
-1.5917312497
 30
0.0
 10
-1.7652766517
 20
-1.5964201852
 30
0.0
 10
-1.7650928886
 20
-1.6011044502
 30
0.0
 10
-1.7648477829
 20
-1.607351766
 30
0.0
 10
-1.764418889
 20
-1.6182838095
 30
0.0
 10
-1.763806162
 20
-1.6339014115
 30
0.0
 10
-1.7630708988
 20
-1.6526423638
 30
0.0
 10
-1.7623356331
 20
-1.6713833616
 30
0.0
 10
-1.7616003681
 20
-1.6901243472
 30
0.0
 10
-1.7606200145
 20
-1.7151123323
 30
0.0
 10
-1.7593945725
 20
-1.7463473122
 30
0.0
 10
-1.7574338654
 20
-1.7963232809
 30
0.0
 10
-1.7549829815
 20
-1.8587932414
 30
0.0
 10
-1.7520419209
 20
-1.9337571942
 30
0.0
 10
-1.7491008602
 20
-2.008721147
 30
0.0
 10
-1.7466499763
 20
-2.0711911076
 30
0.0
 10
-1.7446892692
 20
-2.1211670761
 30
0.0
 10
-1.7432187389
 20
-2.1586490525
 30
0.0
 10
-1.7417482085
 20
-2.1961310289
 30
0.0
 10
-1.7402776782
 20
-2.2336130053
 30
0.0
 10
-1.7390522363
 20
-2.2648479855
 30
0.0
 10
-1.7380718827
 20
-2.2898359699
 30
0.0
 10
-1.7373366176
 20
-2.3085769577
 30
0.0
 10
-1.7367238966
 20
-2.324194449
 30
0.0
 10
-1.7362337198
 20
-2.3366884389
 30
0.0
 10
-1.7358660871
 20
-2.3460589398
 30
0.0
 10
-1.7354984551
 20
-2.3554294082
 30
0.0
 10
-1.7351920927
 20
-2.3632382332
 30
0.0
 10
-1.7349470083
 20
-2.3694850664
 30
0.0
 10
-1.7347938179
 20
-2.3733898533
 30
0.0
 10
-1.7346712945
 20
-2.3765125009
 30
0.0
 10
-1.7345793227
 20
-2.3788577225
 30
0.0
 10
-1.7345029318
 20
-2.3808017801
 30
0.0
 10
-1.7344489631
 20
-2.3821828215
 30
0.0
 10
-1.7344188968
 20
-2.3829404457
 30
0.0
 10
-1.7343941697
 20
-2.383597519
 30
0.0
 10
-1.7343777658
 20
-2.383914943
 30
0.0
 10
-1.7343529907
 20
-2.3844566485
 30
0.0
 10
-1.734310987
 20
-2.3853494341
 30
0.0
 10
-1.7342502745
 20
-2.3866537007
 30
0.0
 10
-1.7341777221
 20
-2.3882064683
 30
0.0
 10
-1.73408088
 20
-2.3902811395
 30
0.0
 10
-1.7339598635
 20
-2.3928730013
 30
0.0
 10
-1.7337662169
 20
-2.3970208057
 30
0.0
 10
-1.7335241655
 20
-2.4022052779
 30
0.0
 10
-1.7332337009
 20
-2.408426766
 30
0.0
 10
-1.7329432371
 20
-2.4146482216
 30
0.0
 10
-1.7325559518
 20
-2.4229435072
 30
0.0
 10
-1.7320718452
 20
-2.4333126102
 30
0.0
 10
-1.7314909173
 20
-2.4457555354
 30
0.0
 10
-1.7307163468
 20
-2.4623461019
 30
0.0
 10
-1.7297481336
 20
-2.4830843101
 30
0.0
 10
-1.7285862778
 20
-2.50797016
 30
0.0
 10
-1.7274244218
 20
-2.5328560097
 30
0.0
 10
-1.7262625667
 20
-2.5577418599
 30
0.0
 10
-1.7247134219
 20
-2.5909229909
 30
0.0
 10
-1.7227770238
 20
-2.6323994235
 30
0.0
 10
-1.7204531955
 20
-2.6821710563
 30
0.0
 10
-1.7181299166
 20
-2.7319430038
 30
0.0
 10
-1.7158045906
 20
-2.7817137789
 30
0.0
 10
-1.7134869037
 20
-2.8314889291
 30
0.0
 10
-1.7115317401
 20
-2.8729546143
 30
0.0
 10
-1.7100208084
 20
-2.9061576308
 30
0.0
 10
-1.7083160864
 20
-2.9392496591
 30
0.0
 10
-1.7052426083
 20
-2.9971090408
 30
0.0
 10
-1.7017689525
 20
-3.0632563219
 30
0.0
 10
-1.6982817271
 20
-3.1293958314
 30
0.0
 10
-1.6956681263
 20
-3.1790015049
 30
0.0
 10
-1.6930540375
 20
-3.2286068989
 30
0.0
 10
-1.6908757415
 20
-3.269944791
 30
0.0
 10
-1.6891330814
 20
-3.3030150913
 30
0.0
 10
-1.6878260895
 20
-3.3278178185
 30
0.0
 10
-1.6865190967
 20
-3.3526205445
 30
0.0
 10
-1.6854299361
 20
-3.3732894851
 30
0.0
 10
-1.684558608
 20
-3.3898246327
 30
0.0
 10
-1.6839051109
 20
-3.4022260068
 30
0.0
 10
-1.6833605332
 20
-3.4125604426
 30
0.0
 10
-1.6829248638
 20
-3.4208280868
 30
0.0
 10
-1.6825981315
 20
-3.4270285586
 30
0.0
 10
-1.6823257919
 20
-3.4321964501
 30
0.0
 10
-1.6821080607
 20
-3.4363288979
 30
0.0
 10
-1.6819716588
 20
-3.4389159254
 30
0.0
 10
-1.6818632699
 20
-3.4409758194
 30
0.0
 10
-1.6817938551
 20
-3.4422854494
 30
0.0
 10
-1.6817486152
 20
-3.4431577063
 30
0.0
 10
-1.6817175218
 20
-3.4437257384
 30
0.0
 10
-1.6816666839
 20
-3.4445559169
 30
0.0
 10
-1.6816098854
 20
-3.4455040372
 30
0.0
 10
-1.6814680143
 20
-3.4478532732
 30
0.0
 10
-1.6812575407
 20
-3.4513461526
 30
0.0
 10
-1.6809755757
 20
-3.4560210287
 30
0.0
 10
-1.6806939674
 20
-3.4606911693
 30
0.0
 10
-1.6803183653
 20
-3.4669196752
 30
0.0
 10
-1.6796611196
 20
-3.4778187908
 30
0.0
 10
-1.6787221669
 20
-3.4933893585
 30
0.0
 10
-1.6775954366
 20
-3.5120738672
 30
0.0
 10
-1.6764687028
 20
-3.5307584221
 30
0.0
 10
-1.6753419699
 20
-3.5494429647
 30
0.0
 10
-1.6738396591
 20
-3.5743556924
 30
0.0
 10
-1.6719617707
 20
-3.6054966005
 30
0.0
 10
-1.6689571492
 20
-3.6553220544
 30
0.0
 10
-1.6652013724
 20
-3.7176038715
 30
0.0
 10
-1.6606944401
 20
-3.7923420521
 30
0.0
 10
-1.6561875079
 20
-3.8670802327
 30
0.0
 10
-1.6516805757
 20
-3.9418184133
 30
0.0
 10
-1.6471736434
 20
-4.0165565939
 30
0.0
 10
-1.6411644005
 20
-4.1162075013
 30
0.0
 10
-1.6366574682
 20
-4.1909456819
 30
0.0
 10
-1.6336528467
 20
-4.2407711356
 30
0.0
 11
-1.7967484003
 21
-0.5118071026
 31
0.0
 11
-1.7915205795
 21
-0.7131447288
 31
0.0
 11
-1.7889066691
 21
-0.8138135419
 31
0.0
 11
-1.7862927588
 21
-0.9144823551
 31
0.0
 11
-1.7849858036
 21
-0.9648167616
 31
0.0
 11
-1.7836788484
 21
-1.0151511682
 31
0.0
 11
-1.7830253708
 21
-1.0403183715
 31
0.0
 11
-1.7822750238
 21
-1.0654330009
 31
0.0
 11
-1.7806774606
 21
-1.1156096861
 31
0.0
 11
-1.7774823342
 21
-1.2159630565
 31
0.0
 11
-1.775884771
 21
-1.2661397417
 31
0.0
 11
-1.7742872078
 21
-1.3163164269
 31
0.0
 11
-1.7726896446
 21
-1.3664931121
 31
0.0
 11
-1.7710920813
 21
-1.4166697973
 31
0.0
 11
-1.7702932997
 21
-1.4417581399
 31
0.0
 11
-1.7694945181
 21
-1.4668464825
 31
0.0
 11
-1.7686957365
 21
-1.4919348251
 31
0.0
 11
-1.7678969549
 21
-1.5170231677
 31
0.0
 11
-1.7674975641
 21
-1.529567339
 31
0.0
 11
-1.7670981733
 21
-1.5421115103
 31
0.0
 11
-1.7666987825
 21
-1.5546556816
 31
0.0
 11
-1.7664990871
 21
-1.5609277673
 31
0.0
 11
-1.7662993917
 21
-1.5671998529
 31
0.0
 11
-1.7660996963
 21
-1.5734719386
 31
0.0
 11
-1.7659998486
 21
-1.5766079814
 31
0.0
 11
-1.7659000009
 21
-1.5797440242
 31
0.0
 11
-1.765850077
 21
-1.5813120457
 31
0.0
 11
-1.7658001532
 21
-1.5828800671
 31
0.0
 11
-1.7657751913
 21
-1.5836640778
 31
0.0
 11
-1.7657592116
 21
-1.5841206333
 31
0.0
 11
-1.7657362346
 21
-1.5847062892
 31
0.0
 11
-1.7656902805
 21
-1.5858776009
 31
0.0
 11
-1.7656443264
 21
-1.5870489127
 31
0.0
 11
-1.7654605101
 21
-1.5917341597
 31
0.0
 11
-1.7652766939
 21
-1.5964194068
 31
0.0
 11
-1.7650928776
 21
-1.6011046538
 31
0.0
 11
-1.7649090613
 21
-1.6057899009
 31
0.0
 11
-1.7645414287
 21
-1.615160395
 31
0.0
 11
-1.7638061635
 21
-1.6339013832
 31
0.0
 11
-1.7630708984
 21
-1.6526423714
 31
0.0
 11
-1.7623356332
 21
-1.6713833596
 31
0.0
 11
-1.761600368
 21
-1.6901243477
 31
0.0
 11
-1.7608651029
 21
-1.7088653359
 31
0.0
 11
-1.7593945725
 21
-1.7463473123
 31
0.0
 11
-1.7579240422
 21
-1.7838292887
 31
0.0
 11
-1.7549829815
 21
-1.8587932415
 31
0.0
 11
-1.7520419209
 21
-1.9337571942
 31
0.0
 11
-1.7491008602
 21
-2.008721147
 31
0.0
 11
-1.7461597995
 21
-2.0836850997
 31
0.0
 11
-1.7446892692
 21
-2.1211670761
 31
0.0
 11
-1.7432187389
 21
-2.1586490525
 31
0.0
 11
-1.7417482085
 21
-2.1961310289
 31
0.0
 11
-1.7402776782
 21
-2.2336130053
 31
0.0
 11
-1.7388071479
 21
-2.2710949816
 31
0.0
 11
-1.7380718827
 21
-2.2898359698
 31
0.0
 11
-1.7373366175
 21
-2.308576958
 31
0.0
 11
-1.7366013524
 21
-2.3273179462
 31
0.0
 11
-1.7362337198
 21
-2.3366884403
 31
0.0
 11
-1.7358660872
 21
-2.3460589344
 31
0.0
 11
-1.7354984546
 21
-2.3554294285
 31
0.0
 11
-1.7351308221
 21
-2.3647999226
 31
0.0
 11
-1.7349470058
 21
-2.3694851696
 31
0.0
 11
-1.7347631895
 21
-2.3741704167
 31
0.0
 11
-1.7346712813
 21
-2.3765130402
 31
0.0
 11
-1.7345793732
 21
-2.3788556637
 31
0.0
 11
-1.734487465
 21
-2.3811982872
 31
0.0
 11
-1.734441511
 21
-2.382369599
 31
0.0
 11
-1.7344185339
 21
-2.3829552549
 31
0.0
 11
-1.7343955569
 21
-2.3835409108
 31
0.0
 11
-1.7343774029
 21
-2.3839297522
 31
0.0
 11
-1.7343592489
 21
-2.3843185936
 31
0.0
 11
-1.7343229409
 21
-2.3850962764
 31
0.0
 11
-1.7342503249
 21
-2.386651642
 31
0.0
 11
-1.7341777089
 21
-2.3882070076
 31
0.0
 11
-1.7341050929
 21
-2.3897623732
 31
0.0
 11
-1.733959861
 21
-2.3928731045
 31
0.0
 11
-1.733814629
 21
-2.3959838357
 31
0.0
 11
-1.733524165
 21
-2.4022052981
 31
0.0
 11
-1.7332337011
 21
-2.4084267606
 31
0.0
 11
-1.7329432371
 21
-2.4146482231
 31
0.0
 11
-1.7326527732
 21
-2.4208696855
 31
0.0
 11
-1.7320718452
 21
-2.4333126104
 31
0.0
 11
-1.7314909173
 21
-2.4457555354
 31
0.0
 11
-1.7309099894
 21
-2.4581984603
 31
0.0
 11
-1.7297481336
 21
-2.4830843101
 31
0.0
 11
-1.7285862778
 21
-2.5079701599
 31
0.0
 11
-1.727424422
 21
-2.5328560098
 31
0.0
 11
-1.7262625661
 21
-2.5577418596
 31
0.0
 11
-1.7251007103
 21
-2.5826277094
 31
0.0
 11
-1.7227769987
 21
-2.6323994091
 31
0.0
 11
-1.720453287
 21
-2.6821711088
 31
0.0
 11
-1.7181295754
 21
-2.7319428084
 31
0.0
 11
-1.7158058637
 21
-2.7817145081
 31
0.0
 11
-1.7134821521
 21
-2.8314862078
 31
0.0
 11
-1.7111584405
 21
-2.8812579074
 31
0.0
 11
-1.7099965846
 21
-2.9061437573
 31
0.0
 11
-1.708737971
 21
-2.9309741917
 31
0.0
 11
-1.7061239858
 21
-2.980579645
 31
0.0
 11
-1.7008960154
 21
-3.0797905516
 31
0.0
 11
-1.6982820301
 21
-3.129396005
 31
0.0
 11
-1.6956680449
 21
-3.1790014583
 31
0.0
 11
-1.6930540597
 21
-3.2286069116
 31
0.0
 11
-1.6904400745
 21
-3.278212365
 31
0.0
 11
-1.6891330819
 21
-3.3030150916
 31
0.0
 11
-1.6878260893
 21
-3.3278178183
 31
0.0
 11
-1.6865190967
 21
-3.3526205449
 31
0.0
 11
-1.6852121041
 21
-3.3774232716
 31
0.0
 11
-1.6845586078
 21
-3.3898246349
 31
0.0
 11
-1.6839051115
 21
-3.4022259983
 31
0.0
 11
-1.6832516152
 21
-3.4146273616
 31
0.0
 11
-1.6829248671
 21
-3.4208280433
 31
0.0
 11
-1.6825981189
 21
-3.4270287249
 31
0.0
 11
-1.6822713708
 21
-3.4332294066
 31
0.0
 11
-1.6821079967
 21
-3.4363297474
 31
0.0
 11
-1.6819446226
 21
-3.4394300883
 31
0.0
 11
-1.6818629356
 21
-3.4409802587
 31
0.0
 11
-1.6817812486
 21
-3.4425304291
 31
0.0
 11
-1.681740405
 21
-3.4433055143
 31
0.0
 11
-1.6817150537
 21
-3.4437585067
 31
0.0
 11
-1.6816798433
 21
-3.4443423988
 31
0.0
 11
-1.6816094225
 21
-3.4455101828
 31
0.0
 11
-1.6815390017
 21
-3.4466779669
 31
0.0
 11
-1.6812573184
 21
-3.4513491032
 31
0.0
 11
-1.6809756352
 21
-3.4560202395
 31
0.0
 11
-1.6806939519
 21
-3.4606913758
 31
0.0
 11
-1.6804122686
 21
-3.465362512
 31
0.0
 11
-1.6798489021
 21
-3.4747047846
 31
0.0
 11
-1.678722169
 21
-3.4933893298
 31
0.0
 11
-1.677595436
 21
-3.5120738749
 31
0.0
 11
-1.6764687029
 21
-3.5307584201
 31
0.0
 11
-1.6753419699
 21
-3.5494429652
 31
0.0
 11
-1.6742152368
 21
-3.5681275104
 31
0.0
 11
-1.6719617707
 21
-3.6054966006
 31
0.0
 11
-1.6697083046
 21
-3.6428656909
 31
0.0
 11
-1.6652013724
 21
-3.7176038715
 31
0.0
 11
-1.6606944401
 21
-3.7923420521
 31
0.0
 11
-1.6561875079
 21
-3.8670802327
 31
0.0
 11
-1.6516805757
 21
-3.9418184133
 31
0.0
 11
-1.6471736434
 21
-4.0165565939
 31
0.0
 11
-1.6426667112
 21
-4.0912947745
 31
0.0
 11
-1.6336528467
 21
-4.2407711356
 31
0.0
  0
SPLINE
  5
2D0
100
AcDbEntity
  8
CURVE
100
AcDbSpline
 62
253
  6
CONTINUOUS
 70
0
 71
3
 72
23
 73
19
 74
17
 42
0.0000001
 43
0.0000001
 44
0.0000000001
 12
-0.0127767136
 22
0.5544847513
 32
0.0
 13
0.0127462278
 23
-0.553161723
 33
0.0
 40
0.0
 40
0.0
 40
0.0
 40
0.0
 40
0.0416666667
 40
0.0833333333
 40
0.125
 40
0.1666666667
 40
0.25
 40
0.3333333333
 40
0.4166666667
 40
0.5
 40
0.5833333333
 40
0.6666666667
 40
0.75
 40
0.8333333333
 40
0.875
 40
0.9166666667
 40
0.9583333333
 40
1.0
 40
1.0
 40
1.0
 40
1.0
 10
-2.0795911128
 20
-0.3703857464
 30
0.0
 10
-2.0797685671
 20
-0.3626845693
 30
0.0
 10
-2.0792703403
 20
-0.3481185073
 30
0.0
 10
-2.0761254161
 20
-0.3278977995
 30
0.0
 10
-2.0705655685
 20
-0.3095155104
 30
0.0
 10
-2.0601205386
 20
-0.2881038398
 30
0.0
 10
-2.0416940749
 20
-0.2677361751
 30
0.0
 10
-2.0125760741
 20
-0.2551979037
 30
0.0
 10
-1.9784976814
 20
-0.2553003831
 30
0.0
 10
-1.9417493916
 20
-0.2679560376
 30
0.0
 10
-1.9047178187
 20
-0.2923577933
 30
0.0
 10
-1.869986466
 20
-0.326814069
 30
0.0
 10
-1.8398405475
 20
-0.3690460428
 30
0.0
 10
-1.820264483
 20
-0.4083255409
 30
0.0
 10
-1.8087058186
 20
-0.4406442461
 30
0.0
 10
-1.8022291593
 20
-0.4649648349
 30
0.0
 10
-1.7981057254
 20
-0.4887554889
 30
0.0
 10
-1.7969254312
 20
-0.5041243009
 30
0.0
 10
-1.7967484003
 20
-0.5118071026
 30
0.0
 11
-2.0795911128
 21
-0.3703857464
 31
0.0
 11
-2.078870743
 21
-0.3483899048
 31
0.0
 11
-2.0757229289
 21
-0.3282042026
 31
0.0
 11
-2.0701865811
 21
-0.3099027665
 31
0.0
 11
-2.0623737843
 21
-0.2938832191
 31
0.0
 11
-2.0405263675
 21
-0.2697199962
 31
0.0
 11
-2.0117493421
 21
-0.2573046955
 31
0.0
 11
-1.9780526986
 21
-0.2573925789
 31
0.0
 11
-1.9417021778
 21
-0.2699137211
 31
0.0
 11
-1.9051011888
 21
-0.2940335466
 31
0.0
 11
-1.870750705
 21
-0.3281100187
 31
0.0
 11
-1.8409496543
 21
-0.3698632801
 31
0.0
 11
-1.8177166658
 21
-0.4164798094
 31
0.0
 11
-1.8090712084
 21
-0.4406578394
 31
0.0
 11
-1.8026213635
 21
-0.4648765124
 31
0.0
 11
-1.7984978908
 21
-0.4886325829
 31
0.0
 11
-1.7967484003
 21
-0.5118071026
 31
0.0
  0
ELLIPSE
  5
2D1
100
AcDbEntity
  8
RACCORDO
100
AcDbEllipse
 62
7
  6
CONTINUOUS
 10
-5.6921053709
 20
14.0062364535
 30
0.0
 11
-0.1119858744
 21
0.2236318019
 31
0.0
 40
0.6122594231
 41
-0.6852493493
 42
0.0223275232
  0
ELLIPSE
  5
2D2
100
AcDbEntity
  8
RACCORDO
100
AcDbEllipse
 62
7
  6
CONTINUOUS
 10
9.7226069526
 20
6.2988802918
 30
0.0
 11
-0.1119259236
 21
0.2235783474
 31
0.0
 40
0.6126250184
 41
-2.2559124555
 42
-0.6854206804
  0
ELLIPSE
  5
2D3
100
AcDbEntity
  8
0
100
AcDbEllipse
 62
7
  6
CONTINUOUS
 10
8.9944849262
 20
-12.367849363
 30
0.0
 11
-0.1826272431
 21
0.4654700168
 31
0.0
 40
0.6543766329
 41
-3.1348682827
 42
-2.2008763123
  0
ELLIPSE
  5
2D4
100
AcDbEntity
  8
ASSI
100
AcDbEllipse
 62
7
  6
CONTINUOUS
 10
-5.6921053709
 20
14.0062364535
 30
0.0
 11
-0.1119858744
 21
0.2236318019
 31
0.0
 40
0.6122594231
 41
-0.6852493493
 42
0.0223275232
  0
ELLIPSE
  5
2D5
100
AcDbEntity
  8
ASSI
100
AcDbEllipse
 62
7
  6
CONTINUOUS
 10
9.7226069526
 20
6.2988802918
 30
0.0
 11
-0.1119259236
 21
0.2235783474
 31
0.0
 40
0.6126250184
 41
-2.2559124555
 42
-0.6854206804
  0
ELLIPSE
  5
2D6
100
AcDbEntity
  8
ASSI
100
AcDbEllipse
 62
7
  6
CONTINUOUS
 10
8.9944849262
 20
-12.367849363
 30
0.0
 11
-0.1826272431
 21
0.4654700168
 31
0.0
 40
0.6543766329
 41
-3.1348682827
 42
-2.2008763123
  0
ENDSEC
  0
SECTION
  2
OBJECTS
  0
DICTIONARY
  5
C
100
AcDbDictionary
280
0
281
1
  3
ACAD_GROUP
350
D
  3
ACAD_MLINESTYLE
350
17
  3
ACAD_LAYOUT
350
1A
  3
ACAD_PLOTSETTINGS
350
19
  3
ACAD_PLOTSTYLENAME
350
E
  0
DICTIONARY
  5
D
102
{ACAD_REACTORS
330
C
102
}
100
AcDbDictionary
280
0
281
1
  0
ACDBDICTIONARYWDFLT
  5
E
102
{ACAD_REACTORS
330
C
102
}
100
AcDbDictionary
281
1
  3
Normal
350
F
100
AcDbDictionaryWithDefault
340
F
  0
DICTIONARY
  5
17
102
{ACAD_REACTORS
330
C
102
}
100
AcDbDictionary
280
0
281
1
  3
Standard
350
18
  0
DICTIONARY
  5
19
102
{ACAD_REACTORS
330
C
102
}
100
AcDbDictionary
281
1
  0
DICTIONARY
  5
1A
102
{ACAD_REACTORS
330
C
102
}
100
AcDbDictionary
281
1
  3
Model
350
2D7
  3
Layout1
350
2D8
  0
ACDBPLACEHOLDER
  5
F
102
{ACAD_REACTORS
330
E
102
}
  0
MLINESTYLE
  5
18
102
{ACAD_REACTORS
330
17
102
}
100
AcDbMlineStyle
  2
STANDARD
 70
0
  3

 62
256
 51
90.0
 52
90.0
 71
2
 49
0.5
 62
256
  6
BYLAYER
 49
-0.5
 62
256
  6
BYLAYER
  0
LAYOUT
  5
2D7
102
{ACAD_REACTORS
330
1A
102
}
100
AcDbPlotSettings
  1

  2
none_device
  4
ISO_A4_(297.00_x_210.00_MM)
  6

 40
0.0
 41
0.0
 42
0.0
 43
0.0
 44
297.0
 45
210.0
 46
0.0
 47
0.0
 48
0.0
 49
0.0
140
0.0
141
0.0
142
1.0
143
1.0
 70
1024
 72
1
 73
0
 74
0
  7

 75
0
147
1.0
148
0.0
149
0.0
100
AcDbLayout
  1
Model
 70
0
 71
0
 10
0.0
 20
0.0
 11
297.0
 21
210.0
 12
0.0
 22
0.0
 32
0.0
 14
0.0
 24
0.0
 34
0.0
 15
0.0
 25
0.0
 35
0.0
146
0.0
 13
0.0
 23
0.0
 33
0.0
 16
1.0
 26
0.0
 36
0.0
 17
0.0
 27
1.0
 37
0.0
 76
0
330
219
345
0
346
0
  0
LAYOUT
  5
2D8
102
{ACAD_REACTORS
330
1A
102
}
100
AcDbPlotSettings
  1

  2
none_device
  4
ISO_A4_(297.00_x_210.00_MM)
  6

 40
0.0
 41
0.0
 42
0.0
 43
0.0
 44
297.0
 45
210.0
 46
0.0
 47
0.0
 48
0.0
 49
0.0
140
0.0
141
0.0
142
1.0
143
1.0
 70
0
 72
1
 73
0
 74
0
  7

 75
0
147
1.0
148
0.0
149
0.0
100
AcDbLayout
  1
Layout1
 70
0
 71
1
 10
0.0
 20
0.0
 11
297.0
 21
210.0
 12
0.0
 22
0.0
 32
0.0
 14
0.0
 24
0.0
 34
0.0
 15
0.0
 25
0.0
 35
0.0
146
0.0
 13
0.0
 23
0.0
 33
0.0
 16
1.0
 26
0.0
 36
0.0
 17
0.0
 27
1.0
 37
0.0
 76
0
330
21A
345
0
346
0
  0
ENDSEC
  0
EOF
