  0
SECTION
  2
HEADER
  9
$ACADVER
  1
AC1015
  9
$DWGCODEPAGE
  3
ANSI_1252
  9
$EXTMAX
 10
297.0
 20
210.0
 30
0.0
  9
$EXTMIN
 10
0.0
 20
0.0
 30
0.0
  9
$LIMMIN
 10
0.0
 20
0.0
  9
$LIMMAX
 10
297.0
 20
210.0
  9
$VIEWCTR
 10
148.5
 20
105.0
  9
$VIEWSIZE
 40
210.0
  9
$CLAYER
  8
0
  9
$LTSCALE
 40
16.335
  9
$CELTYPE
  6
BYLAYER
  9
$DIMSCALE
 40
1.0
  9
$DIMASZ
 40
3.0
  9
$DIMEXO
 40
1.85625
  9
$DIMDLI
 40
11.286
  9
$DIMEXE
 40
5.346
  9
$DIMCEN
 40
2.673
  9
$DIMLFAC
 40
1.0
  9
$DIMBLK
  1
_FILLED
  9
$DIMTXT
 40
3.0
  9
$DIMTOL
 70
1
  9
$DIMLIM
 70
0
  9
$DIMTFAC
 40
1.0
  9
$DIMTP
 40
0.01
  9
$DIMTM
 40
0.01
  9
$PDMODE
 70
3
  9
$PDSIZE
 40
3.0
  9
$HANDSEED
  5
2F6
  9
$TILEMODE
 70
1
  9
$MEASUREMENT
 70
1
  9
$INSUNITS
 70
4
  0
ENDSEC
  0
SECTION
  2
CLASSES
  0
CLASS
  1
ACDBDICTIONARYWDFLT
  2
AcDbDictionaryWithDefault
  3
AutoCAD 2000
 90
0
280
0
281
0
  0
CLASS
  1
ACDBPLACEHOLDER
  2
AcDbPlaceHolder
  3
AutoCAD 2000
 90
0
280
0
281
0
  0
CLASS
  1
LAYOUT
  2
AcDbLayout
  3
AutoCAD 2000
 90
0
280
0
281
0
  0
ENDSEC
  0
SECTION
  2
TABLES
  0
TABLE
  2
VPORT
  5
8
100
AcDbSymbolTable
 70
2
  0
VPORT
  5
1F4
100
AcDbSymbolTableRecord
100
AcDbViewportTableRecord
  2
*ACTIVE
 70
0
 10
0.0
 20
0.0
 11
1.0
 21
1.0
 12
148.5
 22
105.0
 13
0.0
 23
0.0
 14
1.0
 24
1.0
 15
0.0
 25
0.0
 16
0.0
 26
0.0
 36
1.0
 17
0.0
 27
0.0
 37
0.0
 40
210.0
 41
1.4142857143
 42
50.0
 43
0.0
 44
0.0
 50
0.0
 51
0.0
 71
0
 72
100
 73
1
 74
1
 75
0
 76
0
 77
0
 78
0
  0
ENDTAB
  0
TABLE
  2
LTYPE
  5
5
100
AcDbSymbolTable
 70
6
  0
LTYPE
  5
14
100
AcDbSymbolTableRecord
100
AcDbLinetypeTableRecord
  2
BYBLOCK
 70
0
  3

 72
65
 73
0
 40
0.0
  0
LTYPE
  5
15
100
AcDbSymbolTableRecord
100
AcDbLinetypeTableRecord
  2
BYLAYER
 70
0
  3

 72
65
 73
0
 40
0.0
  0
LTYPE
  5
16
100
AcDbSymbolTableRecord
100
AcDbLinetypeTableRecord
  2
CONTINUOUS
 70
64
  3
Solid line
 72
65
 73
0
 40
0.0
  0
LTYPE
  5
1F5
100
AcDbSymbolTableRecord
100
AcDbLinetypeTableRecord
  2
CENTER
 70
64
  3
____ _ ____ _ ____ _ ____ _ ____ _ ____ _ ____
 72
65
 73
4
 40
0.6
 49
0.375
 74
0
 49
-0.075
 74
0
 49
0.075
 74
0
 49
-0.075
 74
0
  0
LTYPE
  5
1F6
100
AcDbSymbolTableRecord
100
AcDbLinetypeTableRecord
  2
HIDDEN
 70
64
  3
- - - - - - - - - - - - - - - - - - - -
 72
65
 73
2
 40
0.2
 49
0.1
 74
0
 49
-0.1
 74
0
  0
LTYPE
  5
1F7
100
AcDbSymbolTableRecord
100
AcDbLinetypeTableRecord
  2
PHANTOM
 70
64
  3
_____ _ _ _____ _ _ _____ _ _ _____
 72
65
 73
6
 40
0.8
 49
0.45
 74
0
 49
-0.05
 74
0
 49
0.1
 74
0
 49
-0.05
 74
0
 49
0.1
 74
0
 49
-0.05
 74
0
  0
LTYPE
  5
1F8
100
AcDbSymbolTableRecord
100
AcDbLinetypeTableRecord
  2
DOT
 70
64
  3
. . . . . . . . . . . . . . . . . . . .
 72
65
 73
2
 40
0.2
 49
0.1
 74
0
 49
-0.1
 74
0
  0
LTYPE
  5
1F9
100
AcDbSymbolTableRecord
100
AcDbLinetypeTableRecord
  2
DASHED
 70
64
  3
- - - - - - - - - - - - - - - - - - - -
 72
65
 73
2
 40
0.2
 49
0.1
 74
0
 49
-0.1
 74
0
  0
ENDTAB
  0
TABLE
  2
LAYER
  5
2
100
AcDbSymbolTable
 70
36
  0
LAYER
  5
10
100
AcDbSymbolTableRecord
100
AcDbLayerTableRecord
  2
0
 70
0
 62
7
  6
CONTINUOUS
370
-3
390
F
  0
LAYER
  5
1FA
100
AcDbSymbolTableRecord
100
AcDbLayerTableRecord
  2
DEFAULT_1
 70
0
 62
7
  6
CENTER
370
-3
390
F
  0
LAYER
  5
1FB
100
AcDbSymbolTableRecord
100
AcDbLayerTableRecord
  2
DEFAULT_2
 70
0
 62
7
  6
HIDDEN
370
-3
390
F
  0
LAYER
  5
1FC
100
AcDbSymbolTableRecord
100
AcDbLayerTableRecord
  2
DEFAULT_3
 70
0
 62
7
  6
PHANTOM
370
-3
390
F
  0
LAYER
  5
1FD
100
AcDbSymbolTableRecord
100
AcDbLayerTableRecord
  2
ASSI
 70
0
 62
7
  6
CONTINUOUS
370
-3
390
F
  0
LAYER
  5
1FE
100
AcDbSymbolTableRecord
100
AcDbLayerTableRecord
  2
COLOR9
 70
0
 62
7
  6
CONTINUOUS
370
-3
390
F
  0
LAYER
  5
1FF
100
AcDbSymbolTableRecord
100
AcDbLayerTableRecord
  2
COORDINATE
 70
0
 62
7
  6
CONTINUOUS
370
-3
390
F
  0
LAYER
  5
200
100
AcDbSymbolTableRecord
100
AcDbLayerTableRecord
  2
COORD_ORIGINE
 70
0
 62
7
  6
CONTINUOUS
370
-3
390
F
  0
LAYER
  5
201
100
AcDbSymbolTableRecord
100
AcDbLayerTableRecord
  2
COPY_PUBLISH
 70
0
 62
7
  6
CONTINUOUS
370
-3
390
F
  0
LAYER
  5
202
100
AcDbSymbolTableRecord
100
AcDbLayerTableRecord
  2
COSMETIC
 70
0
 62
7
  6
CONTINUOUS
370
-3
390
F
  0
LAYER
  5
203
100
AcDbSymbolTableRecord
100
AcDbLayerTableRecord
  2
CURVE
 70
0
 62
7
  6
CONTINUOUS
370
-3
390
F
  0
LAYER
  5
204
100
AcDbSymbolTableRecord
100
AcDbLayerTableRecord
  2
DRAFT
 70
0
 62
7
  6
CONTINUOUS
370
-3
390
F
  0
LAYER
  5
205
100
AcDbSymbolTableRecord
100
AcDbLayerTableRecord
  2
IGES
 70
0
 62
7
  6
CONTINUOUS
370
-3
390
F
  0
LAYER
  5
206
100
AcDbSymbolTableRecord
100
AcDbLayerTableRecord
  2
IGS_SCRITTE
 70
0
 62
7
  6
CONTINUOUS
370
-3
390
F
  0
LAYER
  5
207
100
AcDbSymbolTableRecord
100
AcDbLayerTableRecord
  2
IMPORT_IGES
 70
0
 62
7
  6
CONTINUOUS
370
-3
390
F
  0
LAYER
  5
208
100
AcDbSymbolTableRecord
100
AcDbLayerTableRecord
  2
INTF_12
 70
0
 62
7
  6
CONTINUOUS
370
-3
390
F
  0
LAYER
  5
209
100
AcDbSymbolTableRecord
100
AcDbLayerTableRecord
  2
INTF_15
 70
0
 62
7
  6
CONTINUOUS
370
-3
390
F
  0
LAYER
  5
20A
100
AcDbSymbolTableRecord
100
AcDbLayerTableRecord
  2
INTF_3
 70
0
 62
7
  6
CONTINUOUS
370
-3
390
F
  0
LAYER
  5
20B
100
AcDbSymbolTableRecord
100
AcDbLayerTableRecord
  2
INTF_4
 70
0
 62
7
  6
CONTINUOUS
370
-3
390
F
  0
LAYER
  5
20C
100
AcDbSymbolTableRecord
100
AcDbLayerTableRecord
  2
INTF_YELLOW
 70
0
 62
7
  6
CONTINUOUS
370
-3
390
F
  0
LAYER
  5
20D
100
AcDbSymbolTableRecord
100
AcDbLayerTableRecord
  2
PIANI
 70
0
 62
7
  6
CONTINUOUS
370
-3
390
F
  0
LAYER
  5
20E
100
AcDbSymbolTableRecord
100
AcDbLayerTableRecord
  2
PIANI_ORIGINE
 70
0
 62
7
  6
CONTINUOUS
370
-3
390
F
  0
LAYER
  5
20F
100
AcDbSymbolTableRecord
100
AcDbLayerTableRecord
  2
PIANI_RIFERIMENTO
 70
0
 62
7
  6
CONTINUOUS
370
-3
390
F
  0
LAYER
  5
210
100
AcDbSymbolTableRecord
100
AcDbLayerTableRecord
  2
RACCORDO
 70
0
 62
7
  6
CONTINUOUS
370
-3
390
F
  0
LAYER
  5
211
100
AcDbSymbolTableRecord
100
AcDbLayerTableRecord
  2
SMUSSO
 70
0
 62
7
  6
CONTINUOUS
370
-3
390
F
  0
LAYER
  5
212
100
AcDbSymbolTableRecord
100
AcDbLayerTableRecord
  2
SOLIDO
 70
0
 62
7
  6
CONTINUOUS
370
-3
390
F
  0
LAYER
  5
213
100
AcDbSymbolTableRecord
100
AcDbLayerTableRecord
  2
SUPERFICI
 70
0
 62
7
  6
CONTINUOUS
370
-3
390
F
  0
LAYER
  5
214
100
AcDbSymbolTableRecord
100
AcDbLayerTableRecord
  2
TRASH
 70
0
 62
7
  6
CONTINUOUS
370
-3
390
F
  0
LAYER
  5
215
100
AcDbSymbolTableRecord
100
AcDbLayerTableRecord
  2
WHITE
 70
0
 62
7
  6
CONTINUOUS
370
-3
390
F
  0
LAYER
  5
216
100
AcDbSymbolTableRecord
100
AcDbLayerTableRecord
  2
XSEC_DATUMS
 70
0
 62
7
  6
CONTINUOUS
370
-3
390
F
  0
ENDTAB
  0
TABLE
  2
STYLE
  5
3
100
AcDbSymbolTable
 70
1
  0
STYLE
  5
11
100
AcDbSymbolTableRecord
100
AcDbTextStyleTableRecord
  2
STANDARD
 70
0
 40
0.0
 41
0.8
 50
0.0
 71
0
 42
0.2
  3
txt
  4

  0
STYLE
  5
217
100
AcDbSymbolTableRecord
100
AcDbTextStyleTableRecord
  2
TEXTSTYLE_1
 70
0
 40
0.0
 41
0.8
 50
0.0
 71
0
 42
0.2
  3
gdt
  4

  0
ENDTAB
  0
TABLE
  2
VIEW
  5
6
100
AcDbSymbolTable
 70
0
  0
ENDTAB
  0
TABLE
  2
UCS
  5
7
100
AcDbSymbolTable
 70
0
  0
ENDTAB
  0
TABLE
  2
APPID
  5
9
100
AcDbSymbolTable
 70
1
  0
APPID
  5
218
100
AcDbSymbolTableRecord
100
AcDbRegAppTableRecord
  2
ACAD
 70
0
  0
ENDTAB
  0
TABLE
  2
BLOCK_RECORD
  5
1
100
AcDbSymbolTable
 70
0
  0
BLOCK_RECORD
  5
219
100
AcDbSymbolTableRecord
100
AcDbBlockTableRecord
  2
*Model_Space
  0
BLOCK_RECORD
  5
21A
100
AcDbSymbolTableRecord
100
AcDbBlockTableRecord
  2
*Paper_Space
  0
ENDTAB
  0
TABLE
  2
DIMSTYLE
  5
A
100
AcDbSymbolTable
 70
1
100
AcDbDimStyleTable
 71
0
  0
DIMSTYLE
105
21B
100
AcDbSymbolTableRecord
100
AcDbDimStyleTableRecord
  2
STANDARD
 70
0
  3

  4

 40
1.0
 41
3.0
 42
0.0625
 43
0.38
 44
0.18
 45
0.0
 46
0.0
 47
0.01
 48
0.01
140
3.0
141
0.09
142
0.0
143
25.4
144
1.0
145
0.0
146
1.0
147
0.09
 71
1.0
 72
0.0
 73
0
 74
0
 75
0
 76
0
 77
1
 78
8
170
0
171
2
172
0
173
0
174
0
175
0
176
0
177
0
178
0
270
2
271
2
272
2
273
2
274
2
275
0
280
0
281
0
282
0
283
1
284
8
285
0
286
0
287
3
288
0
340
11
  0
ENDTAB
  0
ENDSEC
  0
SECTION
  2
BLOCKS
  0
BLOCK
  5
20
100
AcDbEntity
  8
0
100
AcDbBlockBegin
  2
*Model_Space
 70
0
 10
0.0
 20
0.0
 30
0.0
  3
*Model_Space
  1

  0
ENDBLK
  5
21
100
AcDbEntity
  8
0
100
AcDbBlockEnd
  0
BLOCK
  5
1C
100
AcDbEntity
  8
0
100
AcDbBlockBegin
  2
*Paper_Space
 70
0
 10
0.0
 20
0.0
 30
0.0
  3
*Paper_Space
  1

  0
ENDBLK
  5
1D
100
AcDbEntity
  8
0
100
AcDbBlockEnd
  0
ENDSEC
  0
SECTION
  2
ENTITIES
  0
LWPOLYLINE
  5
21C
100
AcDbEntity
  8
ASSI
100
AcDbPolyline
 62
7
  6
CONTINUOUS
 90
11
 70
0
 10
-9.4720129817
 20
12.3240119301
 10
-9.4890510413
 20
12.314215955
 10
-9.523448411
 20
12.2912400148
 10
-9.5543692062
 20
12.2659906165
 10
-9.5818156344
 20
12.2385727981
 10
-9.6056893001
 20
12.2091772256
 10
-9.6258189909
 20
12.1781484821
 10
-9.6421583097
 20
12.1457386265
 10
-9.654671283
 20
12.1121900816
 10
-9.6632898391
 20
12.0778850862
 10
-9.6679956734
 20
12.0432845259
  0
LWPOLYLINE
  5
21D
100
AcDbEntity
  8
RACCORDO
100
AcDbPolyline
 62
7
  6
CONTINUOUS
 90
33
 70
0
 10
-9.4718555349
 20
12.3240982898
 10
-9.4802347288
 20
12.3194027584
 10
-9.4915805782
 20
12.3126792059
 10
-9.5025387614
 20
12.3057563758
 10
-9.513112416
 20
12.2986425331
 10
-9.5233068562
 20
12.29134457
 10
-9.5331264849
 20
12.2838694876
 10
-9.5425736229
 20
12.2762258061
 10
-9.5516520331
 20
12.2684210396
 10
-9.5603652107
 20
12.2604625969
 10
-9.568714227
 20
12.2523601909
 10
-9.5767022877
 20
12.2441220045
 10
-9.5843335021
 20
12.2357550874
 10
-9.5916057345
 20
12.2272736076
 10
-9.5985248587
 20
12.218683296
 10
-9.6051039601
 20
12.2099793949
 10
-9.6113426703
 20
12.2011731072
 10
-9.6172429844
 20
12.1922729204
 10
-9.6228177756
 20
12.1832696166
 10
-9.6280668798
 20
12.1741724842
 10
-9.6329901601
 20
12.1649914254
 10
-9.6375968825
 20
12.1557175271
 10
-9.6418868085
 20
12.1463581104
 10
-9.6458582531
 20
12.1369247427
 10
-9.6495155364
 20
12.1274145642
 10
-9.6528576462
 20
12.1178366647
 10
-9.6558836126
 20
12.1082011875
 10
-9.6585960347
 20
12.0985068392
 10
-9.6609938829
 20
12.08876397
 10
-9.6630768551
 20
12.07898181
 10
-9.6648469955
 20
12.0691573442
 10
-9.6663034057
 20
12.0593004356
 10
-9.6674456726
 20
12.0494208782
  0
LINE
  5
21E
100
AcDbEntity
  8
RACCORDO
100
AcDbLine
 62
7
  6
CONTINUOUS
 10
-9.4718514616
 20
12.3241005332
 11
-5.9124539796
 21
14.2720138603
  0
LINE
  5
21F
100
AcDbEntity
  8
ASSI
100
AcDbLine
 62
7
  6
CONTINUOUS
 10
-9.4720129876
 20
12.324011941
 11
-5.9124539796
 21
14.2720138603
  0
LINE
  5
220
100
AcDbEntity
  8
RACCORDO
100
AcDbLine
 62
253
  6
CONTINUOUS
 10
-9.3533761548
 20
12.3205200192
 11
-5.7974870764
 21
14.2665133399
  0
LINE
  5
221
100
AcDbEntity
  8
ASSI
100
AcDbLine
 62
253
  6
CONTINUOUS
 10
-9.3533761548
 20
12.3205200192
 11
-5.7974870764
 21
14.2665133399
  0
LINE
  5
222
100
AcDbEntity
  8
DRAFT
100
AcDbLine
 62
7
  6
CONTINUOUS
 10
-4.1092994708
 20
12.3831890526
 11
-5.096307898
 21
11.7719303396
  0
LINE
  5
223
100
AcDbEntity
  8
ASSI
100
AcDbLine
 62
7
  6
CONTINUOUS
 10
-4.1092994708
 20
12.3831890526
 11
-5.096307898
 21
11.7719303396
  0
LINE
  5
224
100
AcDbEntity
  8
DRAFT
100
AcDbLine
 62
7
  6
CONTINUOUS
 10
-4.1092994708
 20
13.4224195371
 11
-6.0450283326
 21
12.2462905568
  0
LINE
  5
225
100
AcDbEntity
  8
ASSI
100
AcDbLine
 62
7
  6
CONTINUOUS
 10
-4.1092994708
 20
13.4224195371
 11
-6.0450283326
 21
12.2462905568
  0
LWPOLYLINE
  5
226
100
AcDbEntity
  8
RACCORDO
100
AcDbPolyline
 62
7
  6
CONTINUOUS
 90
5
 70
0
 10
-9.6674456726
 20
12.0494208782
 10
-9.6682747905
 20
12.0395154854
 10
-9.6687902162
 20
12.029589781
 10
-9.6689912381
 20
12.019658036
 10
-9.6689942257
 20
12.0180646252
  0
LWPOLYLINE
  5
227
100
AcDbEntity
  8
0
100
AcDbPolyline
 62
7
  6
CONTINUOUS
 90
28
 70
0
 10
6.3749182636
 20
-13.6538156581
 10
6.3928932868
 20
-13.6609178123
 10
6.411080307
 20
-13.6675319079
 10
6.4294659886
 20
-13.6736521558
 10
6.448036933
 20
-13.6792732958
 10
6.4668007668
 20
-13.6843960144
 10
6.4857445034
 20
-13.6890144648
 10
6.5048546235
 20
-13.6931234189
 10
6.5241390765
 20
-13.6967218892
 10
6.5435854586
 20
-13.6998040404
 10
6.5631798604
 20
-13.7023643993
 10
6.5829289696
 20
-13.7044001291
 10
6.6028199387
 20
-13.7059054749
 10
6.6228393908
 20
-13.7068750752
 10
6.6429941957
 20
-13.7073043874
 10
6.6632736253
 20
-13.7071876975
 10
6.6836623091
 20
-13.7065196605
 10
6.7041611646
 20
-13.7052944049
 10
6.7247587888
 20
-13.7035064757
 10
6.7454408616
 20
-13.7011511152
 10
6.7662051155
 20
-13.698222177
 10
6.7870395195
 20
-13.694714653
 10
6.8079310227
 20
-13.6906243007
 10
6.8288772093
 20
-13.68594467
 10
6.849866773
 20
-13.6806708506
 10
6.8708871472
 20
-13.6747987743
 10
6.8919355639
 20
-13.6683215155
 10
6.9130038574
 20
-13.6612331984
  0
LWPOLYLINE
  5
228
100
AcDbEntity
  8
0
100
AcDbPolyline
 62
7
  6
CONTINUOUS
 90
23
 70
0
 10
-9.5934167854
 20
3.4251161225
 10
-9.584183464
 20
3.0529488411
 10
-9.573511005
 20
2.6816030026
 10
-9.5613995802
 20
2.3110870626
 10
-9.5478493631
 20
1.9414089902
 10
-9.532860541
 20
1.5725768737
 10
-9.5164333933
 20
1.2045996064
 10
-9.4985682317
 20
0.8374863598
 10
-9.4792653674
 20
0.4712458282
 10
-9.4585251699
 20
0.1058864603
 10
-9.4363480465
 20
-0.2585829504
 10
-9.4127344046
 20
-0.6221539261
 10
-9.3876847192
 20
-0.9848180015
 10
-9.3611995039
 20
-1.3465664098
 10
-9.333279268
 20
-1.7073907114
 10
-9.3039245845
 20
-2.0672825328
 10
-9.273136068
 20
-2.4262332145
 10
-9.2409143219
 20
-2.7842344592
 10
-9.2072600358
 20
-3.141277818
 10
-9.1721739602
 20
-3.4973544134
 10
-9.1356568394
 20
-3.8524556533
 10
-9.0977093951
 20
-4.2065737991
 10
-9.0583323434
 20
-4.5597012575
  0
LWPOLYLINE
  5
229
100
AcDbEntity
  8
ASSI
100
AcDbPolyline
 62
7
  6
CONTINUOUS
 90
9
 70
0
 10
-9.6075131198
 20
4.1683995779
 10
-9.5853995475
 20
3.0987863407
 10
-9.5490705984
 20
1.9731518164
 10
-9.4994707955
 20
0.8553292681
 10
-9.4366085068
 20
-0.2544402785
 10
-9.3604947679
 20
-1.3559194978
 10
-9.271143125
 20
-2.448875171
 10
-9.1685699406
 20
-3.533073647
 10
-9.052794519
 20
-4.6082809227
  0
LWPOLYLINE
  5
22A
100
AcDbEntity
  8
0
100
AcDbPolyline
 62
7
  6
CONTINUOUS
 90
3
 70
0
 10
-9.6075131172
 20
4.1683994077
 10
-9.6012108452
 20
3.7980951264
 10
-9.5934167854
 20
3.4251161225
  0
LINE
  5
22B
100
AcDbEntity
  8
ASSI
100
AcDbLine
 62
7
  6
CONTINUOUS
 10
-9.6195183831
 20
5.0086136363
 11
-9.6075131173
 21
4.1683994082
  0
LWPOLYLINE
  5
22C
100
AcDbEntity
  8
ASSI
100
AcDbPolyline
 62
7
  6
CONTINUOUS
 90
8
 70
0
 10
-9.6678569922
 20
11.1929821395
 10
-9.6652383104
 20
10.3034937239
 10
-9.661175162
 20
9.4147866246
 10
-9.6556675567
 20
8.5268650326
 10
-9.6487155133
 20
7.6397324454
 10
-9.6403190509
 20
6.7533921448
 10
-9.6304781954
 20
5.8678477288
 10
-9.6195183831
 20
5.0086136363
  0
LINE
  5
22D
100
AcDbEntity
  8
ASSI
100
AcDbLine
 62
7
  6
CONTINUOUS
 10
-9.6689942627
 20
12.0180776437
 11
-9.6678569922
 21
11.1929821395
  0
LWPOLYLINE
  5
22E
100
AcDbEntity
  8
0
100
AcDbPolyline
 62
7
  6
CONTINUOUS
 90
10
 70
0
 10
-9.6689942627
 20
12.0180776479
 10
-9.6677560943
 20
11.1465607526
 10
-9.6651157883
 20
10.2711426341
 10
-9.6610762442
 20
9.396481508
 10
-9.6556374713
 20
8.5225813521
 10
-9.6487994877
 20
7.6494454998
 10
-9.6405623118
 20
6.7770770978
 10
-9.6309259678
 20
5.9054795699
 10
-9.6198904993
 20
5.0346569841
 10
-9.6075131173
 20
4.1683994088
  0
LINE
  5
22F
100
AcDbEntity
  8
ASSI
100
AcDbLine
 62
7
  6
CONTINUOUS
 10
-9.6679956734
 20
12.0432845259
 11
-9.6689938677
 21
12.0178403313
  0
LWPOLYLINE
  5
230
100
AcDbEntity
  8
0
100
AcDbPolyline
 62
7
  6
CONTINUOUS
 90
3
 70
0
 10
6.3395915408
 20
-13.6381427952
 10
6.3571486502
 20
-13.6462231895
 10
6.3749182636
 20
-13.6538156581
  0
LWPOLYLINE
  5
231
100
AcDbEntity
  8
ASSI
100
AcDbPolyline
 62
7
  6
CONTINUOUS
 90
9
 70
0
 10
6.3267057998
 20
-13.6318319279
 10
6.3530987701
 20
-13.6444093406
 10
6.4285571599
 20
-13.673361625
 10
6.5080065913
 20
-13.6937489068
 10
6.5903045668
 20
-13.7050216718
 10
6.6746341138
 20
-13.7068833117
 10
6.7607141892
 20
-13.6990517102
 10
6.8479417074
 20
-13.6811781248
 10
6.9350318478
 20
-13.6531562484
  0
LINE
  5
232
100
AcDbEntity
  8
0
100
AcDbLine
 62
7
  6
CONTINUOUS
 10
6.3278960572
 20
-13.6324296936
 11
6.3395915408
 21
-13.6381427952
  0
LINE
  5
233
100
AcDbEntity
  8
ASSI
100
AcDbLine
 62
7
  6
CONTINUOUS
 10
-8.5380697608
 20
-6.1994468196
 11
6.3279220161
 21
-13.6324427081
  0
LINE
  5
234
100
AcDbEntity
  8
0
100
AcDbLine
 62
7
  6
CONTINUOUS
 10
-8.5380732219
 20
-6.1994450891
 11
6.3279220161
 21
-13.6324427081
  0
LINE
  5
235
100
AcDbEntity
  8
0
100
AcDbLine
 62
253
  6
CONTINUOUS
 10
-8.785661038
 20
-5.7859308774
 11
6.0715275676
 21
-13.2145251802
  0
LINE
  5
236
100
AcDbEntity
  8
ASSI
100
AcDbLine
 62
253
  6
CONTINUOUS
 10
-8.785661038
 20
-5.7859308774
 11
6.0715275676
 21
-13.2145251802
  0
LINE
  5
237
100
AcDbEntity
  8
ASSI
100
AcDbLine
 62
7
  6
CONTINUOUS
 10
6.326707364
 20
-13.631832737
 11
6.3279184627
 21
-13.6324409314
  0
LINE
  5
238
100
AcDbEntity
  8
ASSI
100
AcDbLine
 62
7
  6
CONTINUOUS
 10
-8.6036115926
 20
-6.1619565515
 11
-8.5371645767
 21
-6.1998977865
  0
LWPOLYLINE
  5
239
100
AcDbEntity
  8
0
100
AcDbPolyline
 62
7
  6
CONTINUOUS
 90
4
 70
0
 10
-8.5810271836
 20
-6.1759838713
 10
-8.5652807
 20
-6.1850564203
 10
-8.5493009815
 20
-6.1936993237
 10
-8.5380538271
 20
-6.1994547514
  0
LWPOLYLINE
  5
23A
100
AcDbEntity
  8
0
100
AcDbPolyline
 62
7
  6
CONTINUOUS
 90
3
 70
0
 10
-8.6118047042
 20
-6.1565575059
 10
-8.5965340766
 20
-6.1664852614
 10
-8.5810271836
 20
-6.1759838713
  0
LWPOLYLINE
  5
23B
100
AcDbEntity
  8
0
100
AcDbPolyline
 62
7
  6
CONTINUOUS
 90
32
 70
0
 10
-8.9259852046
 20
-5.6503315799
 10
-8.92192966
 20
-5.6722682452
 10
-8.9173805058
 20
-5.6938761281
 10
-8.9123461573
 20
-5.7151500458
 10
-8.906836046
 20
-5.7360809208
 10
-8.9008590504
 20
-5.7566632354
 10
-8.8944239092
 20
-5.7768929627
 10
-8.887540967
 20
-5.7967612064
 10
-8.8802200104
 20
-5.8162619676
 10
-8.8724708019
 20
-5.8353906535
 10
-8.8643049778
 20
-5.8541386612
 10
-8.8557352843
 20
-5.8724963059
 10
-8.8467711138
 20
-5.8904625814
 10
-8.83741973
 20
-5.9080400363
 10
-8.827695048
 20
-5.9252184144
 10
-8.8176062673
 20
-5.9419969282
 10
-8.8071526249
 20
-5.9583899878
 10
-8.7963449949
 20
-5.9743914948
 10
-8.7851946497
 20
-5.9899953606
 10
-8.7736996802
 20
-6.0052133601
 10
-8.7618700364
 20
-6.020039979
 10
-8.7497175822
 20
-6.0344678618
 10
-8.7372419881
 20
-6.048503795
 10
-8.7244539288
 20
-6.0621412675
 10
-8.7113648562
 20
-6.0753738004
 10
-8.6979746365
 20
-6.0882063443
 10
-8.6842945038
 20
-6.1006320782
 10
-8.6703356839
 20
-6.1126449115
 10
-8.6560971843
 20
-6.1242492323
 10
-8.6415906882
 20
-6.1354383209
 10
-8.6268274085
 20
-6.1462064061
 10
-8.6118047042
 20
-6.1565575059
  0
LWPOLYLINE
  5
23C
100
AcDbEntity
  8
ASSI
100
AcDbPolyline
 62
7
  6
CONTINUOUS
 90
10
 70
0
 10
-8.9320370026
 20
-5.6098623231
 10
-8.9242918339
 20
-5.659856747
 10
-8.905127544
 20
-5.7421638169
 10
-8.8790124945
 20
-5.8193379717
 10
-8.8466141235
 20
-5.8907669117
 10
-8.8083945163
 20
-5.9564915565
 10
-8.7644569099
 20
-6.0168661009
 10
-8.7154239447
 20
-6.0713453449
 10
-8.6618652027
 20
-6.1196246728
 10
-8.6036115926
 20
-6.1619565515
  0
LWPOLYLINE
  5
23D
100
AcDbEntity
  8
0
100
AcDbPolyline
 62
7
  6
CONTINUOUS
 90
3
 70
0
 10
-8.9320813954
 20
-5.6095152984
 10
-8.9295392661
 20
-5.6280700422
 10
-8.9259852046
 20
-5.6503315799
  0
LINE
  5
23E
100
AcDbEntity
  8
ASSI
100
AcDbLine
 62
7
  6
CONTINUOUS
 10
-8.9320816823
 20
-5.6095130852
 11
-8.9320370085
 21
-5.6098623239
  0
LINE
  5
23F
100
AcDbEntity
  8
ASSI
100
AcDbLine
 62
7
  6
CONTINUOUS
 10
-9.052794519
 20
-4.6082809227
 11
-8.9320816823
 21
-5.6095130852
  0
LWPOLYLINE
  5
240
100
AcDbEntity
  8
0
100
AcDbPolyline
 62
7
  6
CONTINUOUS
 90
4
 70
0
 10
-9.0583323434
 20
-4.5597012575
 10
-9.0175264676
 20
-4.9118299766
 10
-8.9752927642
 20
-5.2629507882
 10
-8.9320817117
 20
-5.6095128538
  0
LINE
  5
241
100
AcDbEntity
  8
DRAFT
100
AcDbLine
 62
7
  6
CONTINUOUS
 10
-4.1092994708
 20
13.4224195371
 11
-4.1092994708
 21
12.3831890526
  0
LINE
  5
242
100
AcDbEntity
  8
ASSI
100
AcDbLine
 62
7
  6
CONTINUOUS
 10
-4.1092994708
 20
13.4224195371
 11
-4.1092994708
 21
12.3831890526
  0
LINE
  5
243
100
AcDbEntity
  8
DRAFT
100
AcDbLine
 62
7
  6
CONTINUOUS
 10
7.9291453824
 20
7.4031971106
 11
5.622233557
 21
6.4126596121
  0
LINE
  5
244
100
AcDbEntity
  8
ASSI
100
AcDbLine
 62
7
  6
CONTINUOUS
 10
7.9291453824
 20
7.4031971106
 11
5.622233557
 21
6.4126596121
  0
LINE
  5
245
100
AcDbEntity
  8
RACCORDO
100
AcDbLine
 62
253
  6
CONTINUOUS
 10
9.617332988
 20
6.5591033078
 11
5.8041088039
 21
4.7417775398
  0
LINE
  5
246
100
AcDbEntity
  8
ASSI
100
AcDbLine
 62
253
  6
CONTINUOUS
 10
9.617332988
 20
6.5591033078
 11
5.8041088039
 21
4.7417775398
  0
LINE
  5
247
100
AcDbEntity
  8
RACCORDO
100
AcDbLine
 62
253
  6
CONTINUOUS
 10
9.794163566
 20
6.2542393634
 11
5.9761524446
 21
4.4346322126
  0
LINE
  5
248
100
AcDbEntity
  8
ASSI
100
AcDbLine
 62
253
  6
CONTINUOUS
 10
9.794163566
 20
6.2542393634
 11
5.9761524446
 21
4.4346322126
  0
LINE
  5
249
100
AcDbEntity
  8
0
100
AcDbLine
 62
253
  6
CONTINUOUS
 10
5.3475325463
 20
-3.4133217723
 11
-9.4610596453
 21
3.9909743235
  0
LINE
  5
24A
100
AcDbEntity
  8
ASSI
100
AcDbLine
 62
253
  6
CONTINUOUS
 10
5.3475325463
 20
-3.4133217723
 11
-9.4610596453
 21
3.9909743235
  0
LINE
  5
24B
100
AcDbEntity
  8
0
100
AcDbLine
 62
7
  6
CONTINUOUS
 10
0.8374254821
 20
2.1775842512
 11
-5.0342457478
 21
5.1134198662
  0
LINE
  5
24C
100
AcDbEntity
  8
RACCORDO
100
AcDbLine
 62
7
  6
CONTINUOUS
 10
0.8374254821
 20
2.1775842512
 11
-5.0342457478
 21
5.1134198662
  0
LINE
  5
24D
100
AcDbEntity
  8
ASSI
100
AcDbLine
 62
7
  6
CONTINUOUS
 10
0.8374254821
 20
2.1775842512
 11
-5.0342457478
 21
5.1134198662
  0
LINE
  5
24E
100
AcDbEntity
  8
0
100
AcDbLine
 62
7
  6
CONTINUOUS
 10
0.8229804766
 20
4.0760613271
 11
-5.0478033727
 21
7.0114532517
  0
LINE
  5
24F
100
AcDbEntity
  8
RACCORDO
100
AcDbLine
 62
7
  6
CONTINUOUS
 10
0.8229804766
 20
4.0760613271
 11
-5.0478033727
 21
7.0114532517
  0
LINE
  5
250
100
AcDbEntity
  8
ASSI
100
AcDbLine
 62
7
  6
CONTINUOUS
 10
0.8229804766
 20
4.0760613271
 11
-5.0478033727
 21
7.0114532517
  0
LINE
  5
251
100
AcDbEntity
  8
RACCORDO
100
AcDbLine
 62
253
  6
CONTINUOUS
 10
5.281598396
 20
4.4386987841
 11
-9.5225460334
 21
11.8407709988
  0
LINE
  5
252
100
AcDbEntity
  8
ASSI
100
AcDbLine
 62
253
  6
CONTINUOUS
 10
5.281598396
 20
4.4386987841
 11
-9.5225460334
 21
11.8407709988
  0
LINE
  5
253
100
AcDbEntity
  8
RACCORDO
100
AcDbLine
 62
253
  6
CONTINUOUS
 10
5.4568336817
 20
4.7429854787
 11
-9.3473133363
 21
12.1450589877
  0
LINE
  5
254
100
AcDbEntity
  8
ASSI
100
AcDbLine
 62
253
  6
CONTINUOUS
 10
5.4568336817
 20
4.7429854787
 11
-9.3473133363
 21
12.1450589877
  0
LINE
  5
255
100
AcDbEntity
  8
DRAFT
100
AcDbLine
 62
7
  6
CONTINUOUS
 10
5.622233557
 20
6.4126596121
 11
-6.0450283326
 21
12.2462905568
  0
LINE
  5
256
100
AcDbEntity
  8
ASSI
100
AcDbLine
 62
7
  6
CONTINUOUS
 10
5.622233557
 20
6.4126596121
 11
-6.0450283326
 21
12.2462905568
  0
LINE
  5
257
100
AcDbEntity
  8
RACCORDO
100
AcDbLine
 62
7
  6
CONTINUOUS
 10
9.794163566
 20
6.2542393634
 11
9.794163566
 21
-4.7876422305
  0
LINE
  5
258
100
AcDbEntity
  8
ASSI
100
AcDbLine
 62
7
  6
CONTINUOUS
 10
9.794163566
 20
6.2542393634
 11
9.794163566
 21
-4.7876422305
  0
LINE
  5
259
100
AcDbEntity
  8
0
100
AcDbLine
 62
7
  6
CONTINUOUS
 10
9.2428677052
 20
-12.5018139981
 11
9.794163566
 21
-4.7876422305
  0
LINE
  5
25A
100
AcDbEntity
  8
ASSI
100
AcDbLine
 62
7
  6
CONTINUOUS
 10
9.2428677052
 20
-12.5018139981
 11
9.794163566
 21
-4.7876422305
  0
LINE
  5
25B
100
AcDbEntity
  8
RACCORDO
100
AcDbLine
 62
7
  6
CONTINUOUS
 10
9.617332988
 20
6.5591033078
 11
7.9291453824
 21
7.4031971106
  0
LINE
  5
25C
100
AcDbEntity
  8
ASSI
100
AcDbLine
 62
7
  6
CONTINUOUS
 10
9.617332988
 20
6.5591033078
 11
7.9291453824
 21
7.4031971106
  0
LINE
  5
25D
100
AcDbEntity
  8
RACCORDO
100
AcDbLine
 62
7
  6
CONTINUOUS
 10
-4.1092994708
 20
13.4224195371
 11
-5.7974870764
 21
14.2665133399
  0
LINE
  5
25E
100
AcDbEntity
  8
ASSI
100
AcDbLine
 62
7
  6
CONTINUOUS
 10
-4.1092994708
 20
13.4224195371
 11
-5.7974870764
 21
14.2665133399
  0
LINE
  5
25F
100
AcDbEntity
  8
0
100
AcDbLine
 62
253
  6
CONTINUOUS
 10
7.1047901459
 20
-13.3661044475
 11
9.2428677052
 21
-12.5018139981
  0
LINE
  5
260
100
AcDbEntity
  8
ASSI
100
AcDbLine
 62
253
  6
CONTINUOUS
 10
7.1047901459
 20
-13.3661044475
 11
9.2428677052
 21
-12.5018139981
  0
LINE
  5
261
100
AcDbEntity
  8
0
100
AcDbLine
 62
7
  6
CONTINUOUS
 10
6.9511783273
 20
-13.6468239761
 11
9.0738272573
 21
-12.7887703524
  0
LINE
  5
262
100
AcDbEntity
  8
ASSI
100
AcDbLine
 62
7
  6
CONTINUOUS
 10
9.0738272573
 20
-12.7887703524
 11
6.9505426484
 21
-13.6470796067
  0
LINE
  5
263
100
AcDbEntity
  8
0
100
AcDbLine
 62
7
  6
CONTINUOUS
 10
6.9350318478
 20
-13.6531562484
 11
6.9511748663
 21
-13.6468253628
  0
LINE
  5
264
100
AcDbEntity
  8
ASSI
100
AcDbLine
 62
7
  6
CONTINUOUS
 10
6.9350318478
 20
-13.6531562484
 11
6.9505426441
 21
-13.647079596
  0
LINE
  5
265
100
AcDbEntity
  8
0
100
AcDbLine
 62
7
  6
CONTINUOUS
 10
6.9130038574
 20
-13.6612331984
 11
6.9350318478
 21
-13.6531562484
  0
ARC
  5
266
100
AcDbEntity
  8
RACCORDO
100
AcDbCircle
 62
253
  6
CONTINUOUS
 10
533.7431003726
 20
12.1702860919
 40
543.2657495646
100
AcDbArc
 50
180.0347524677
 51
180.8626676024
  0
ARC
  5
267
100
AcDbEntity
  8
ASSI
100
AcDbCircle
 62
253
  6
CONTINUOUS
 10
533.7431003726
 20
12.1702860919
 40
543.2657495646
100
AcDbArc
 50
180.0347524677
 51
180.8626676024
  0
ARC
  5
268
100
AcDbEntity
  8
0
100
AcDbCircle
 62
7
  6
CONTINUOUS
 10
519.2479603603
 20
10.0722004086
 40
524.5858329042
100
AcDbArc
 50
180.3564848358
 51
180.488709561
  0
ARC
  5
269
100
AcDbEntity
  8
RACCORDO
100
AcDbCircle
 62
7
  6
CONTINUOUS
 10
525.5813423611
 20
6.854132993
 40
524.4845405931
100
AcDbArc
 50
180.3564737649
 51
180.4887240263
  0
ARC
  5
26A
100
AcDbEntity
  8
ASSI
100
AcDbCircle
 62
7
  6
CONTINUOUS
 10
525.5813423611
 20
6.854132993
 40
524.4845405931
100
AcDbArc
 50
180.3564737649
 51
180.4887240263
  0
ARC
  5
26B
100
AcDbEntity
  8
RACCORDO
100
AcDbCircle
 62
253
  6
CONTINUOUS
 10
511.14012431
 20
4.7595142798
 40
505.8586143969
100
AcDbArc
 50
180.0363369806
 51
180.9257317565
  0
ARC
  5
26C
100
AcDbEntity
  8
ASSI
100
AcDbCircle
 62
253
  6
CONTINUOUS
 10
511.14012431
 20
4.7595142798
 40
505.8586143969
100
AcDbArc
 50
180.0363369806
 51
180.9257317565
  0
ARC
  5
26D
100
AcDbEntity
  8
RACCORDO
100
AcDbCircle
 62
253
  6
CONTINUOUS
 10
511.2795291288
 20
4.7530517015
 40
505.3034641267
100
AcDbArc
 50
180.0361052216
 51
180.9257740598
  0
ARC
  5
26E
100
AcDbEntity
  8
ASSI
100
AcDbCircle
 62
253
  6
CONTINUOUS
 10
511.2795291288
 20
4.7530517015
 40
505.3034641267
100
AcDbArc
 50
180.0361052216
 51
180.9257740598
  0
ARC
  5
26F
100
AcDbEntity
  8
0
100
AcDbCircle
 62
7
  6
CONTINUOUS
 10
0.6676897623
 20
3.5881526723
 40
0.439272286
100
AcDbArc
 50
0.3713343587
 51
3.0207856874
  0
ARC
  5
270
100
AcDbEntity
  8
0
100
AcDbCircle
 62
7
  6
CONTINUOUS
 10
0.7065194497
 20
2.3767950604
 40
0.4093785016
100
AcDbArc
 50
357.7290130548
 51
0.5068209702
  0
ARC
  5
271
100
AcDbEntity
  8
0
100
AcDbCircle
 62
253
  6
CONTINUOUS
 10
6.5018706563
 20
-13.2845408476
 40
0.388964861
100
AcDbArc
 50
235.3376941519
 51
243.3033768423
  0
ARC
  5
272
100
AcDbEntity
  8
0
100
AcDbCircle
 62
253
  6
CONTINUOUS
 10
6.5015136493
 20
-13.2852193528
 40
0.388198295
100
AcDbArc
 50
243.3054608344
 51
243.4335835097
  0
ARC
  5
273
100
AcDbEntity
  8
0
100
AcDbCircle
 62
253
  6
CONTINUOUS
 10
-8.3727020706
 20
-5.8698798454
 40
0.3687510883
100
AcDbArc
 50
235.0937080222
 51
237.0589444559
  0
ARC
  5
274
100
AcDbEntity
  8
0
100
AcDbCircle
 62
253
  6
CONTINUOUS
 10
-8.3756801657
 20
-5.8746721942
 40
0.3631098025
100
AcDbArc
 50
237.0421150118
 51
243.4346266922
  0
ARC
  5
275
100
AcDbEntity
  8
ASSI
100
AcDbCircle
 62
253
  6
CONTINUOUS
 10
-8.3756801657
 20
-5.8746721942
 40
0.3631098025
100
AcDbArc
 50
237.0421150118
 51
243.4346266922
  0
ARC
  5
276
100
AcDbEntity
  8
0
100
AcDbCircle
 62
7
  6
CONTINUOUS
 10
0.6708853276
 20
3.772157107
 40
0.3398392404
100
AcDbArc
 50
60.2657070727
 51
63.4133789192
  0
ARC
  5
277
100
AcDbEntity
  8
0
100
AcDbCircle
 62
7
  6
CONTINUOUS
 10
-5.1874049776
 20
6.7325521302
 40
0.3118885116
100
AcDbArc
 50
63.4101305226
 51
66.7432273266
  0
ARC
  5
278
100
AcDbEntity
  8
0
100
AcDbCircle
 62
253
  6
CONTINUOUS
 10
-8.7596646946
 20
-5.5876426344
 40
0.173797957
100
AcDbArc
 50
187.2298840292
 51
187.3639784985
  0
ARC
  5
279
100
AcDbEntity
  8
0
100
AcDbCircle
 62
253
  6
CONTINUOUS
 10
-8.7598405173
 20
-5.5876663443
 40
0.1736205455
100
AcDbArc
 50
187.3636554945
 51
189.2806106292
  0
ARC
  5
27A
100
AcDbEntity
  8
RACCORDO
100
AcDbCircle
 62
7
  6
CONTINUOUS
 10
-5.1574324966
 20
6.8874828638
 40
0.1520395851
100
AcDbArc
 50
125.5040224762
 51
131.3670801137
  0
ARC
  5
27B
100
AcDbEntity
  8
ASSI
100
AcDbCircle
 62
7
  6
CONTINUOUS
 10
-5.1574324966
 20
6.8874828638
 40
0.1520395851
100
AcDbArc
 50
125.5040224763
 51
131.3670801136
  0
ARC
  5
27C
100
AcDbEntity
  8
0
100
AcDbCircle
 62
7
  6
CONTINUOUS
 10
0.9485432189
 20
2.2989538662
 40
0.1488190549
100
AcDbArc
 50
287.7951541957
 51
289.6181607912
  0
SPLINE
  5
27D
100
AcDbEntity
  8
0
100
AcDbSpline
 62
7
  6
CONTINUOUS
 70
0
 71
3
 72
14
 73
10
 74
8
 42
0.0000001
 43
0.0000001
 44
0.0000000001
 12
-0.1542207178
 22
-0.0495065853
 32
0.0
 13
-0.144755623
 23
0.0723778115
 33
0.0
 40
0.0
 40
0.0
 40
0.0
 40
0.0
 40
0.1023200679
 40
0.2374372834
 40
0.376996687
 40
0.5218828048
 40
0.6739155465
 40
0.8334144111
 40
1.0
 40
1.0
 40
1.0
 40
1.0
 10
0.9940245212
 20
2.1572550228
 30
0.0
 10
0.9887645631
 20
2.1555665171
 30
0.0
 10
0.97634182
 20
2.1523233007
 30
0.0
 10
0.9561210859
 20
2.1496301032
 30
0.0
 10
0.933427459
 20
2.1495805539
 30
0.0
 10
0.9099935958
 20
2.1523662204
 30
0.0
 10
0.8859686012
 20
2.1579655667
 30
0.0
 10
0.8615324258
 20
2.1663414174
 30
0.0
 10
0.845463549
 20
2.1735652178
 30
0.0
 10
0.8374254821
 20
2.1775842512
 30
0.0
 11
0.9940245212
 21
2.1572550228
 31
0.0
 11
0.9779997315
 21
2.1530585723
 31
0.0
 11
0.9563292804
 21
2.1501288094
 31
0.0
 11
0.9337429811
 21
2.1500262736
 31
0.0
 11
0.9104515449
 21
2.1527367384
 31
0.0
 11
0.8864750476
 21
2.1582635214
 31
0.0
 11
0.862037463
 21
2.1665788554
 31
0.0
 11
0.8374254821
 21
2.1775842512
 31
0.0
  0
SPLINE
  5
27E
100
AcDbEntity
  8
0
100
AcDbSpline
 62
7
  6
CONTINUOUS
 70
0
 71
3
 72
17
 73
13
 74
11
 42
0.0000001
 43
0.0000001
 44
0.0000000001
 12
-0.0014136376
 22
0.227185663
 32
0.0
 13
0.1851112433
 23
0.1320421938
 33
0.0
 40
0.0
 40
0.0
 40
0.0
 40
0.0
 40
0.1300572035
 40
0.2552847793
 40
0.3750093211
 40
0.4890287605
 40
0.5982816005
 40
0.7029314772
 40
0.8031622927
 40
0.8998537876
 40
0.9944866023
 40
1.0
 40
1.0
 40
1.0
 40
1.0
 10
-5.3277188859
 20
6.8083354336
 30
0.0
 10
-5.3277801705
 20
6.8181844776
 30
0.0
 10
-5.3272274323
 20
6.8375297715
 30
0.0
 10
-5.3242416389
 20
6.8658010821
 30
0.0
 10
-5.3191385738
 20
6.8925379674
 30
0.0
 10
-5.3119630851
 20
6.9175427433
 30
0.0
 10
-5.3027605508
 20
6.9406566435
 30
0.0
 10
-5.2915820194
 20
6.961714425
 30
0.0
 10
-5.2785235456
 20
6.9805215994
 30
0.0
 10
-5.2636746532
 20
6.9969488668
 30
0.0
 10
-5.2522321483
 20
7.0065781331
 30
0.0
 10
-5.24607122
 20
7.0110117837
 30
0.0
 10
-5.2457310227
 20
7.0112544507
 30
0.0
 11
-5.3277188859
 21
6.8083354336
 31
0.0
 11
-5.3268328903
 21
6.8378698512
 31
0.0
 11
-5.3237974483
 21
6.8661579193
 31
0.0
 11
-5.3186463476
 21
6.8928659416
 31
0.0
 11
-5.3114474432
 21
6.9177496172
 31
0.0
 11
-5.3022116284
 21
6.9407884904
 31
0.0
 11
-5.2910123165
 21
6.9617609872
 31
0.0
 11
-5.2779811043
 21
6.9804351999
 31
0.0
 11
-5.2632178864
 21
6.9967020901
 31
0.0
 11
-5.2467485529
 21
7.010522197
 31
0.0
 11
-5.2457310227
 21
7.0112544507
 31
0.0
  0
SPLINE
  5
27F
100
AcDbEntity
  8
0
100
AcDbSpline
 62
7
  6
CONTINUOUS
 70
0
 71
3
 72
25
 73
21
 74
19
 42
0.0000001
 43
0.0000001
 44
0.0000000001
 12
-0.5245274336
 22
0.2622637168
 32
0.0
 13
-0.0050025685
 23
0.5864181615
 33
0.0
 40
0.0
 40
0.0
 40
0.0
 40
0.0
 40
0.0480002932
 40
0.0980590819
 40
0.1498717826
 40
0.2031749175
 40
0.2581430781
 40
0.3144923273
 40
0.3717784855
 40
0.4297960057
 40
0.4886066784
 40
0.5477370808
 40
0.6067006057
 40
0.6655412348
 40
0.7240391648
 40
0.7817066167
 40
0.8381979445
 40
0.893647016
 40
0.9477181013
 40
1.0
 40
1.0
 40
1.0
 40
1.0
 10
-5.0342457478
 20
5.1134198662
 30
0.0
 10
-5.042638238
 20
5.1176161113
 30
0.0
 10
-5.0594206869
 20
5.1269296812
 30
0.0
 10
-5.0838785464
 20
5.143104311
 30
0.0
 10
-5.1079316312
 20
5.161626619
 30
0.0
 10
-5.1314088407
 20
5.1823496439
 30
0.0
 10
-5.1541607008
 20
5.2051358052
 30
0.0
 10
-5.1760227044
 20
5.2298251868
 30
0.0
 10
-5.196802073
 20
5.25619416
 30
0.0
 10
-5.2163677169
 20
5.2840647993
 30
0.0
 10
-5.2345902336
 20
5.3132570336
 30
0.0
 10
-5.251320167
 20
5.3435407014
 30
0.0
 10
-5.2664267756
 20
5.3746722864
 30
0.0
 10
-5.2798121093
 20
5.4064480171
 30
0.0
 10
-5.2913800205
 20
5.4386610407
 30
0.0
 10
-5.3010220854
 20
5.4710237956
 30
0.0
 10
-5.3086714022
 20
5.5033031688
 30
0.0
 10
-5.3142735126
 20
5.5352885719
 30
0.0
 10
-5.3177755397
 20
5.5667437931
 30
0.0
 10
-5.3187025922
 20
5.5875324198
 30
0.0
 10
-5.3187897735
 20
5.5977521048
 30
0.0
 11
-5.0342457478
 21
5.1134198662
 31
0.0
 11
-5.0588814837
 21
5.1270383022
 31
0.0
 11
-5.0833909757
 21
5.1431964585
 31
0.0
 11
-5.107487328
 21
5.1617063179
 31
0.0
 11
-5.1309429742
 21
5.1823693701
 31
0.0
 11
-5.1537379462
 21
5.2051622801
 31
0.0
 11
-5.1756606204
 21
5.2298887133
 31
0.0
 11
-5.1964664315
 21
5.256265469
 31
0.0
 11
-5.2160247278
 21
5.2841059011
 31
0.0
 11
-5.2342934547
 21
5.3133589
 31
0.0
 11
-5.2510638389
 21
5.3437102949
 31
0.0
 11
-5.2661581709
 21
5.3748203668
 31
0.0
 11
-5.2795482988
 21
5.4066228962
 31
0.0
 11
-5.291132829
 21
5.4389132317
 31
0.0
 11
-5.300774748
 21
5.4713280805
 31
0.0
 11
-5.3083947008
 21
5.5035685849
 31
0.0
 11
-5.3139802856
 21
5.5356027966
 31
0.0
 11
-5.3174588927
 21
5.567120833
 31
0.0
 11
-5.3187897735
 21
5.5977521048
 31
0.0
  0
SPLINE
  5
280
100
AcDbEntity
  8
0
100
AcDbSpline
 62
7
  6
CONTINUOUS
 70
0
 71
3
 72
16
 73
12
 74
10
 42
0.0000001
 43
0.0000001
 44
0.0000000001
 12
0.1548355564
 22
0.110446163
 32
0.0
 13
0.1746969933
 23
-0.0749889637
 33
0.0
 40
0.0
 40
0.0
 40
0.0
 40
0.0
 40
0.1049978016
 40
0.2160721982
 40
0.3286658053
 40
0.4442432496
 40
0.5635640949
 40
0.6873708907
 40
0.8172089711
 40
0.9533450901
 40
1.0
 40
1.0
 40
1.0
 40
1.0
 10
-5.2457310227
 20
7.0112544507
 30
0.0
 10
-5.2403118917
 20
7.0151199855
 30
0.0
 10
-5.2286290848
 20
7.0223328297
 30
0.0
 10
-5.2094963808
 20
7.0307206979
 30
0.0
 10
-5.1887214092
 20
7.0364852367
 30
0.0
 10
-5.1668384524
 20
7.0394113452
 30
0.0
 10
-5.1440571285
 20
7.039476781
 30
0.0
 10
-5.1205432516
 20
7.0366984905
 30
0.0
 10
-5.0964485385
 20
7.0310982437
 30
0.0
 10
-5.0776843856
 20
7.0246751313
 30
0.0
 10
-5.0669718558
 20
7.0202641993
 30
0.0
 10
-5.0642550316
 20
7.0190979982
 30
0.0
 11
-5.2457310227
 21
7.0112544507
 31
0.0
 11
-5.2287461903
 21
7.0217289119
 31
0.0
 11
-5.2094179317
 21
7.0302114818
 31
0.0
 11
-5.1888077245
 21
7.0359582923
 31
0.0
 11
-5.1670437143
 21
7.0389113334
 31
0.0
 11
-5.1443692154
 21
7.0390290586
 31
0.0
 11
-5.1209978075
 21
7.0363253244
 31
0.0
 11
-5.0969516626
 21
7.030797172
 31
0.0
 11
-5.0724571609
 21
7.0224731628
 31
0.0
 11
-5.0642550316
 21
7.0190979982
 31
0.0
  0
LINE
  5
281
100
AcDbEntity
  8
0
100
AcDbLine
 62
7
  6
CONTINUOUS
 10
1.1069528229
 20
3.5909995792
 11
1.108099975
 21
3.4115661046
  0
LINE
  5
282
100
AcDbEntity
  8
0
100
AcDbLine
 62
7
  6
CONTINUOUS
 10
1.108099975
 20
3.4115661046
 11
1.1083963131
 21
3.3667121258
  0
LINE
  5
283
100
AcDbEntity
  8
0
100
AcDbLine
 62
7
  6
CONTINUOUS
 10
1.1083963131
 20
3.3667121258
 11
1.1109044973
 21
3.007950435
  0
LINE
  5
284
100
AcDbEntity
  8
0
100
AcDbLine
 62
7
  6
CONTINUOUS
 10
1.1109044973
 20
3.007950435
 11
1.1112352053
 21
2.9631139815
  0
LINE
  5
285
100
AcDbEntity
  8
0
100
AcDbLine
 62
7
  6
CONTINUOUS
 10
1.1112352053
 20
2.9631139815
 11
1.1140183453
 21
2.6044928332
  0
LINE
  5
286
100
AcDbEntity
  8
0
100
AcDbLine
 62
7
  6
CONTINUOUS
 10
1.1140183453
 20
2.6044928332
 11
1.1143834224
 21
2.5596739884
  0
LINE
  5
287
100
AcDbEntity
  8
0
100
AcDbLine
 62
7
  6
CONTINUOUS
 10
1.1143834224
 20
2.5596739884
 11
1.1158819353
 21
2.3804162504
  0
SPLINE
  5
288
100
AcDbEntity
  8
0
100
AcDbSpline
 62
7
  6
CONTINUOUS
 70
0
 71
3
 72
25
 73
21
 74
19
 42
0.0000001
 43
0.0000001
 44
0.0000000001
 12
0.4760651431
 22
-0.2716862358
 32
0.0
 13
0.028742675
 23
-0.5473191178
 33
0.0
 40
0.0
 40
0.0
 40
0.0
 40
0.0
 40
0.0173798543
 40
0.0710354597
 40
0.1265740146
 40
0.183712675
 40
0.2426367666
 40
0.3030389801
 40
0.3644410988
 40
0.4266233133
 40
0.4896463532
 40
0.5529995242
 40
0.6161603136
 40
0.6791775961
 40
0.7418114536
 40
0.8035396236
 40
0.8639953254
 40
0.9233222358
 40
0.981159128
 40
1.0
 40
1.0
 40
1.0
 40
1.0
 10
0.8394382765
 20
4.0672513508
 30
0.0
 10
0.8421962574
 20
4.0656773951
 30
0.0
 10
0.853382616
 20
4.0590924277
 30
0.0
 10
0.8726764744
 20
4.046320793
 30
0.0
 10
0.8967528036
 20
4.0277531979
 30
0.0
 10
0.920246206
 20
4.0069751158
 30
0.0
 10
0.9430057069
 20
3.9841258545
 30
0.0
 10
0.9648655053
 20
3.959367597
 30
0.0
 10
0.9856323095
 20
3.93292627
 30
0.0
 10
1.0051745993
 20
3.9049823751
 30
0.0
 10
1.0233627951
 20
3.8757188034
 30
0.0
 10
1.0400476319
 20
3.8453689601
 30
0.0
 10
1.0550996096
 20
3.814178426
 30
0.0
 10
1.0684220425
 20
3.7823529518
 30
0.0
 10
1.0799203394
 20
3.7501010064
 30
0.0
 10
1.089488094
 20
3.7177114425
 30
0.0
 10
1.0970605696
 20
3.6854174933
 30
0.0
 10
1.1025852521
 20
3.6534299415
 30
0.0
 10
1.1052775024
 20
3.6287199146
 30
0.0
 10
1.1061711595
 20
3.6147388693
 30
0.0
 10
1.1063516719
 20
3.6113015461
 30
0.0
 11
0.8394382765
 21
4.0672513508
 31
0.0
 11
0.8476486174
 21
4.0624202996
 31
0.0
 11
0.8721868764
 21
4.0462279767
 31
0.0
 11
0.8963065443
 21
4.0276730055
 31
0.0
 11
0.9197786343
 21
4.006955017
 31
0.0
 11
0.9425816857
 21
3.984098779
 31
0.0
 11
0.9645024654
 21
3.959303234
 31
0.0
 11
0.9852957098
 21
3.9328543106
 31
0.0
 11
1.0048313055
 21
3.904939999
 31
0.0
 11
1.0230660102
 21
3.8756150954
 31
0.0
 11
1.0397913353
 21
3.8451972811
 31
0.0
 11
1.0548309621
 21
3.8140286679
 31
0.0
 11
1.068158474
 21
3.7821756619
 31
0.0
 11
1.0796732368
 21
3.7498463755
 31
0.0
 11
1.0892405707
 21
3.7174052958
 31
0.0
 11
1.0967837658
 21
3.685150364
 31
0.0
 11
1.1022918749
 21
3.6531136942
 31
0.0
 11
1.1056943031
 21
3.6216065637
 31
0.0
 11
1.1063516719
 21
3.6113015461
 31
0.0
  0
SPLINE
  5
289
100
AcDbEntity
  8
0
100
AcDbSpline
 62
7
  6
CONTINUOUS
 70
0
 71
3
 72
18
 73
14
 74
12
 42
0.0000001
 43
0.0000001
 44
0.0000000001
 12
-0.0099005647
 22
-0.2476557594
 32
0.0
 13
-0.2335873972
 23
-0.0832697719
 33
0.0
 40
0.0
 40
0.0
 40
0.0
 40
0.0
 40
0.0392494446
 40
0.1540753989
 40
0.2637785377
 40
0.3681814313
 40
0.4681473846
 40
0.5638276364
 40
0.6554002396
 40
0.7436879507
 40
0.8300547987
 40
0.9152162534
 40
1.0
 40
1.0
 40
1.0
 40
1.0
 10
1.1155764208
 20
2.3605731008
 30
0.0
 10
1.1154468903
 20
2.3573329838
 30
0.0
 10
1.1147812762
 20
2.3446198348
 30
0.0
 10
1.1125466047
 20
2.3229259063
 30
0.0
 10
1.1075188214
 20
2.2961923151
 30
0.0
 10
1.1004216671
 20
2.2712013632
 30
0.0
 10
1.0913008644
 20
2.2481102932
 30
0.0
 10
1.0802077518
 20
2.2270828674
 30
0.0
 10
1.067238174
 20
2.2083114343
 30
0.0
 10
1.0524812905
 20
2.1919231297
 30
0.0
 10
1.0360278784
 20
2.1780375269
 30
0.0
 10
1.018009008
 20
2.1667857325
 30
0.0
 10
1.0051107109
 20
2.1611269047
 30
0.0
 10
0.9985092393
 20
2.158773597
 30
0.0
 11
1.1155764208
 21
2.3605731008
 31
0.0
 11
1.11506626
 21
2.350858538
 31
0.0
 11
1.1121031025
 21
2.3225614959
 31
0.0
 11
1.1070268003
 21
2.295857276
 31
0.0
 11
1.0999053678
 21
2.2709876835
 31
0.0
 11
1.0907504829
 21
2.2479718728
 31
0.0
 11
1.0796361309
 21
2.22703073
 31
0.0
 11
1.0666937869
 21
2.2083938763
 31
0.0
 11
1.0520223575
 21
2.1921669913
 31
0.0
 11
1.0356482948
 21
2.1783881957
 31
0.0
 11
1.0177436316
 21
2.167221547
 31
0.0
 11
0.9985092393
 21
2.158773597
 31
0.0
  0
SPLINE
  5
28A
100
AcDbEntity
  8
RACCORDO
100
AcDbSpline
 62
7
  6
CONTINUOUS
 70
0
 71
3
 72
16
 73
12
 74
10
 42
0.0000001
 43
0.0000001
 44
0.0000000001
 12
0.1696147045
 22
0.1209883165
 32
0.0
 13
0.1861936725
 23
-0.0930968362
 33
0.0
 40
0.0
 40
0.0
 40
0.0
 40
0.0
 40
0.0958690123
 40
0.1972796348
 40
0.3000767723
 40
0.4055993299
 40
0.5145435844
 40
0.6275877901
 40
0.7461181251
 40
0.8703585636
 40
1.0
 40
1.0
 40
1.0
 40
1.0
 10
-5.2457310227
 20
7.0112544507
 30
0.0
 10
-5.240310758
 20
7.0151207942
 30
0.0
 10
-5.2286257891
 20
7.0223347469
 30
0.0
 10
-5.2094896328
 20
7.0307232435
 30
0.0
 10
-5.1887113308
 20
7.0364874251
 30
0.0
 10
-5.1668246842
 20
7.0394124105
 30
0.0
 10
-5.1440390885
 20
7.0394758851
 30
0.0
 10
-5.1205219649
 20
7.0366948223
 30
0.0
 10
-5.0964280331
 20
7.0310921949
 30
0.0
 10
-5.071942793
 20
7.0227086342
 30
0.0
 10
-5.0558495111
 20
7.0154763209
 30
0.0
 10
-5.0478033727
 20
7.0114532517
 30
0.0
 11
-5.2457310227
 21
7.0112544507
 31
0.0
 11
-5.228742494
 21
7.0217308601
 31
0.0
 11
-5.2094111419
 21
7.0302139017
 31
0.0
 11
-5.1887977626
 21
7.0359603393
 31
0.0
 11
-5.167030287
 21
7.0389122599
 31
0.0
 11
-5.1443515642
 21
7.0390280637
 31
0.0
 11
-5.1209752301
 21
7.0363214087
 31
0.0
 11
-5.0969285296
 21
7.0307905717
 31
0.0
 11
-5.0724413097
 21
7.0224669215
 31
0.0
 11
-5.0478033727
 21
7.0114532517
 31
0.0
  0
SPLINE
  5
28B
100
AcDbEntity
  8
RACCORDO
100
AcDbSpline
 62
7
  6
CONTINUOUS
 70
0
 71
3
 72
19
 73
15
 74
13
 42
0.0000001
 43
0.0000001
 44
0.0000000001
 12
0.0023233124
 22
-0.2723466015
 32
0.0
 13
-0.2595315173
 23
-0.0833125346
 33
0.0
 40
0.0
 40
0.0
 40
0.0
 40
0.0
 40
0.1085012282
 40
0.2129420887
 40
0.312754366
 40
0.4077593882
 40
0.4987226518
 40
0.5857825686
 40
0.6691038925
 40
0.7494370233
 40
0.8280230385
 40
0.9055121163
 40
0.9826399433
 40
1.0
 40
1.0
 40
1.0
 40
1.0
 10
1.1158819353
 20
2.3804162504
 30
0.0
 10
1.1159659627
 20
2.3705662702
 30
0.0
 10
1.1154603098
 20
2.351220483
 30
0.0
 10
1.1125496109
 20
2.3229474043
 30
0.0
 10
1.107523743
 20
2.2962129138
 30
0.0
 10
1.1004272026
 20
2.2712172915
 30
0.0
 10
1.0913060111
 20
2.2481212127
 30
0.0
 10
1.0802121403
 20
2.2270898976
 30
0.0
 10
1.0672413767
 20
2.2083152905
 30
0.0
 10
1.0524826904
 20
2.1919242838
 30
0.0
 10
1.03602681
 20
2.1780365532
 30
0.0
 10
1.0180062917
 20
2.1667842522
 30
0.0
 10
1.003659084
 20
2.1604902063
 30
0.0
 10
0.995526349
 20
2.157737126
 30
0.0
 10
0.9940245217
 20
2.1572550225
 30
0.0
 11
1.1158819353
 21
2.3804162504
 31
0.0
 11
1.1150674288
 21
2.3508764616
 31
0.0
 11
1.1121066593
 21
2.3225858216
 31
0.0
 11
1.1070319788
 21
2.2958791569
 31
0.0
 11
1.0999106321
 21
2.271003179
 31
0.0
 11
1.0907553614
 21
2.2479824545
 31
0.0
 11
1.0796403512
 21
2.2270376708
 31
0.0
 11
1.0666969066
 21
2.2083978141
 31
0.0
 11
1.0520236806
 21
2.1921682708
 31
0.0
 11
1.035647114
 21
2.1783873365
 31
0.0
 11
1.0177394946
 21
2.1672193634
 31
0.0
 11
0.9985063278
 21
2.1587725592
 31
0.0
 11
0.9940245217
 21
2.1572550225
 31
0.0
  0
SPLINE
  5
28C
100
AcDbEntity
  8
RACCORDO
100
AcDbSpline
 62
7
  6
CONTINUOUS
 70
0
 71
3
 72
25
 73
21
 74
19
 42
0.0000001
 43
0.0000001
 44
0.0000000001
 12
0.524939942
 22
-0.262469971
 32
0.0
 13
0.0036518538
 23
-0.5868893357
 33
0.0
 40
0.0
 40
0.0
 40
0.0
 40
0.0
 40
0.0480002896
 40
0.0980777546
 40
0.1499276073
 40
0.2032806204
 40
0.2582997211
 40
0.3146977562
 40
0.3720294192
 40
0.4300903448
 40
0.4889371177
 40
0.5480921557
 40
0.6070668692
 40
0.6659068303
 40
0.7243887663
 40
0.7820262864
 40
0.838476684
 40
0.8938625151
 40
0.9478403938
 40
1.0
 40
1.0
 40
1.0
 40
1.0
 10
0.8229804766
 20
4.0760613271
 30
0.0
 10
0.8313795663
 20
4.0718617822
 30
0.0
 10
0.8481774054
 20
4.0625369954
 30
0.0
 10
0.8726576116
 20
4.0463341968
 30
0.0
 10
0.8967340294
 20
4.0277688227
 30
0.0
 10
0.9202308633
 20
4.0069897481
 30
0.0
 10
0.9429944868
 20
3.9841379668
 30
0.0
 10
0.9648577966
 20
3.9593769877
 30
0.0
 10
0.985627748
 20
3.9329325673
 30
0.0
 10
1.0051730134
 20
3.9049849457
 30
0.0
 10
1.0233639402
 20
3.8757170323
 30
0.0
 10
1.040051045
 20
3.8453625384
 30
0.0
 10
1.0551046762
 20
3.8141673768
 30
0.0
 10
1.0684281633
 20
3.7823373773
 30
0.0
 10
1.0799270482
 20
3.7500807171
 30
0.0
 10
1.0894949565
 20
3.7176859715
 30
0.0
 10
1.0970665544
 20
3.6853884274
 30
0.0
 10
1.1025890271
 20
3.6534024716
 30
0.0
 10
1.1060122102
 20
3.6219684427
 30
0.0
 10
1.1068893298
 20
3.6012035514
 30
0.0
 10
1.1069528229
 20
3.5909995792
 30
0.0
 11
0.8229804766
 21
4.0760613271
 31
0.0
 11
0.8476339357
 21
4.0624291987
 31
0.0
 11
0.8721657581
 21
4.0462430587
 31
0.0
 11
0.8962863163
 21
4.0276897014
 31
0.0
 11
0.9197633181
 21
4.0069694363
 31
0.0
 11
0.9425705306
 21
3.9841106634
 31
0.0
 11
0.9644946758
 21
3.9593125806
 31
0.0
 11
0.9852909666
 21
3.932860705
 31
0.0
 11
1.0048295506
 21
3.9049426579
 31
0.0
 11
1.0230670682
 21
3.8756132875
 31
0.0
 11
1.0397947308
 21
3.8451906961
 31
0.0
 11
1.0548360116
 21
3.8140174509
 31
0.0
 11
1.0681645168
 21
3.7821600526
 31
0.0
 11
1.0796797783
 21
3.7498262747
 31
0.0
 11
1.0892472672
 21
3.7173799658
 31
0.0
 11
1.0967900864
 21
3.6851192418
 31
0.0
 11
1.1022961821
 21
3.6530829837
 31
0.0
 11
1.1056958238
 21
3.6215862703
 31
0.0
 11
1.1069528229
 21
3.5909995792
 31
0.0
  0
SPLINE
  5
28D
100
AcDbEntity
  8
0
100
AcDbSpline
 62
253
  6
CONTINUOUS
 70
0
 71
3
 72
17
 73
13
 74
11
 42
0.0000001
 43
0.0000001
 44
0.0000000001
 12
0.0036245442
 22
-0.2417804495
 32
0.0
 13
0.2159671725
 23
-0.1081563273
 33
0.0
 40
0.0
 40
0.0
 40
0.0
 40
0.0
 40
0.0103943541
 40
0.1011450801
 40
0.1939167887
 40
0.2903486394
 40
0.3918036089
 40
0.4993198327
 40
0.6136097523
 40
0.7350873343
 40
0.8639064207
 40
1.0
 40
1.0
 40
1.0
 40
1.0
 10
-9.6075129626
 20
4.1683994101
 30
0.0
 10
-9.6075004043
 20
4.1675616929
 30
0.0
 10
-9.6072997934
 20
4.1594112907
 30
0.0
 10
-9.6054469615
 20
4.1438361044
 30
0.0
 10
-9.5991447616
 20
4.1220962501
 30
0.0
 10
-9.589232722
 20
4.1008048158
 30
0.0
 10
-9.575811101
 20
4.0801169456
 30
0.0
 10
-9.5589972946
 20
4.0601723335
 30
0.0
 10
-9.5389238263
 20
4.041101926
 30
0.0
 10
-9.5157392312
 20
4.0230313137
 30
0.0
 10
-9.48961273
 20
4.0060828114
 30
0.0
 10
-9.4708568938
 20
3.9958807841
 30
0.0
 10
-9.4610596453
 20
3.9909743235
 30
0.0
 11
-9.6075129626
 21
4.1683994101
 31
0.0
 11
-9.6074510843
 21
4.165886792
 31
0.0
 11
-9.6048848284
 21
4.1441179719
 31
0.0
 11
-9.5986999234
 21
4.122580747
 31
0.0
 11
-9.5889413731
 21
4.1014318303
 31
0.0
 11
-9.5756801843
 21
4.0808251093
 31
0.0
 11
-9.5590128506
 21
4.0609105261
 31
0.0
 11
-9.5390606496
 21
4.0418329868
 31
0.0
 11
-9.515968761
 21
4.0237313067
 31
0.0
 11
-9.4899052102
 21
4.0067372004
 31
0.0
 11
-9.4610596453
 21
3.9909743235
 31
0.0
  0
SPLINE
  5
28E
100
AcDbEntity
  8
0
100
AcDbSpline
 62
253
  6
CONTINUOUS
 70
0
 71
3
 72
10
 73
6
 74
4
 42
0.0000001
 43
0.0000001
 44
0.0000000001
 12
0.0074485003
 22
-0.0455801443
 32
0.0
 13
0.0188271118
 23
-0.0421704433
 33
0.0
 40
0.0
 40
0.0
 40
0.0
 40
0.0
 40
0.0823660372
 40
0.6298019949
 40
1.0
 40
1.0
 40
1.0
 40
1.0
 10
-8.9311884303
 20
-5.6156661039
 30
0.0
 10
-8.9309839291
 20
-5.6169175225
 30
0.0
 10
-8.9293152929
 20
-5.626469125
 30
0.0
 10
-8.9253940858
 20
-5.6413975872
 30
0.0
 10
-8.9202188078
 20
-5.6545570159
 30
0.0
 10
-8.9178955547
 20
-5.6597608206
 30
0.0
 11
-8.9311884303
 21
-5.6156661039
 31
0.0
 11
-8.9305337787
 21
-5.6194132966
 31
0.0
 11
-8.9241378291
 21
-5.6438514924
 31
0.0
 11
-8.9178955547
 21
-5.6597608206
 31
0.0
  0
SPLINE
  5
28F
100
AcDbEntity
  8
0
100
AcDbSpline
 62
253
  6
CONTINUOUS
 70
0
 71
3
 72
14
 73
10
 74
8
 42
0.0000001
 43
0.0000001
 44
0.0000000001
 12
0.0759880624
 22
-0.1702040287
 32
0.0
 13
0.1662134973
 23
-0.084024983
 33
0.0
 40
0.0
 40
0.0
 40
0.0
 40
0.0
 40
0.0464367482
 40
0.188742367
 40
0.3365678636
 40
0.4909883586
 40
0.6527687187
 40
0.8223750858
 40
1.0
 40
1.0
 40
1.0
 40
1.0
 10
-8.9178955547
 20
-5.6597608206
 30
0.0
 10
-8.9167193419
 20
-5.6623953944
 30
0.0
 10
-8.9116933704
 20
-5.6729941798
 30
0.0
 10
-8.9010347337
 20
-5.6910347787
 30
0.0
 10
-8.8840849512
 20
-5.7128999678
 30
0.0
 10
-8.8638851278
 20
-5.7335206238
 30
0.0
 10
-8.8405893102
 20
-5.7527560577
 30
0.0
 10
-8.814372462
 20
-5.7704741643
 30
0.0
 10
-8.7955022574
 20
-5.7809559005
 30
0.0
 10
-8.785661038
 20
-5.7859308773
 30
0.0
 11
-8.9178955547
 21
-5.6597608206
 31
0.0
 11
-8.9141886574
 21
-5.6675815157
 31
0.0
 11
-8.9007586938
 21
-5.6904306117
 31
0.0
 11
-8.8839457086
 21
-5.7122324388
 31
0.0
 11
-8.8638721004
 21
-5.7328282793
 31
0.0
 11
-8.8406840054
 21
-5.7520681953
 31
0.0
 11
-8.8145502332
 21
-5.76981212
 31
0.0
 11
-8.785661038
 21
-5.7859308773
 31
0.0
  0
SPLINE
  5
290
100
AcDbEntity
  8
0
100
AcDbSpline
 62
253
  6
CONTINUOUS
 70
0
 71
3
 72
16
 73
12
 74
10
 42
0.0000001
 43
0.0000001
 44
0.0000000001
 12
-0.3681161601
 22
0.2568535911
 32
0.0
 13
-0.0574103684
 23
0.4449243082
 33
0.0
 40
0.0
 40
0.0
 40
0.0
 40
0.0
 40
0.098066609
 40
0.1981064048
 40
0.3008454355
 40
0.4069003075
 40
0.5167665536
 40
0.6308152716
 40
0.7492972807
 40
0.8723474246
 40
1.0
 40
1.0
 40
1.0
 40
1.0
 10
-8.5837146946
 20
-6.1722885715
 30
0.0
 10
-8.5957479958
 20
-6.163892318
 30
0.0
 10
-8.6190449446
 20
-6.1454848745
 30
0.0
 10
-8.6509955053
 20
-6.1136806021
 30
0.0
 10
-8.6800393791
 20
-6.0776632921
 30
0.0
 10
-8.70603191
 20
-6.0376314657
 30
0.0
 10
-8.7288466972
 20
-5.9938004465
 30
0.0
 10
-8.7483743792
 20
-5.946401547
 30
0.0
 10
-8.7645218574
 20
-5.8956807507
 30
0.0
 10
-8.7772118819
 20
-5.8419027839
 30
0.0
 10
-8.7832181776
 20
-5.8048627887
 30
0.0
 10
-8.785661038
 20
-5.7859308774
 30
0.0
 11
-8.5837146946
 21
-6.1722885715
 31
0.0
 11
-8.6182597038
 21
-6.1450468727
 31
0.0
 11
-8.6501087511
 21
-6.1134276346
 31
0.0
 11
-8.6790968598
 21
-6.0775949223
 31
0.0
 11
-8.7050737275
 21
-6.0377347987
 31
0.0
 11
-8.7279047117
 21
-5.9940541835
 31
0.0
 11
-8.7474715074
 21
-5.9467797918
 31
0.0
 11
-8.7636728505
 21
-5.8961565594
 31
0.0
 11
-8.7764246461
 21
-5.8424477116
 31
0.0
 11
-8.785661038
 21
-5.7859308774
 31
0.0
  0
SPLINE
  5
291
100
AcDbEntity
  8
RACCORDO
100
AcDbSpline
 62
253
  6
CONTINUOUS
 70
0
 71
3
 72
25
 73
21
 74
19
 42
0.0000001
 43
0.0000001
 44
0.0000000001
 12
-0.322542062
 22
-0.153715816
 32
0.0
 13
-0.3195783395
 23
0.1597861657
 33
0.0
 40
0.0
 40
0.0
 40
0.0
 40
0.0
 40
0.0494954376
 40
0.1011644218
 40
0.1547958882
 40
0.2101520197
 40
0.2669695962
 40
0.3249641445
 40
0.3838344909
 40
0.4432679998
 40
0.5029448047
 40
0.5625417143
 40
0.6217365154
 40
0.6802124479
 40
0.7376621202
 40
0.7937918312
 40
0.8483269394
 40
0.9010166122
 40
0.9516383009
 40
1.0
 40
1.0
 40
1.0
 40
1.0
 10
5.8041088039
 20
4.7417775398
 30
0.0
 10
5.7987873504
 20
4.7392414626
 30
0.0
 10
5.7877346811
 20
4.7344212116
 30
0.0
 10
5.7704169409
 20
4.7280704041
 30
0.0
 10
5.7521080429
 20
4.7224801645
 30
0.0
 10
5.7329417196
 20
4.7176916177
 30
0.0
 10
5.7130561434
 20
4.7137392339
 30
0.0
 10
5.6925951576
 20
4.7106517078
 30
0.0
 10
5.6717068456
 20
4.7084514415
 30
0.0
 10
5.6505425128
 20
4.7071544261
 30
0.0
 10
5.6292554908
 20
4.7067700864
 30
0.0
 10
5.6080000379
 20
4.7073012135
 30
0.0
 10
5.5869301761
 20
4.7087439377
 30
0.0
 10
5.5661985328
 20
4.7110877652
 30
0.0
 10
5.5459552336
 20
4.7143156575
 30
0.0
 10
5.5263467153
 20
4.7184042021
 30
0.0
 10
5.5075147324
 20
4.7233237386
 30
0.0
 10
5.4895949007
 20
4.7290389184
 30
0.0
 10
5.4727180134
 20
4.7355077691
 30
0.0
 10
5.4619854656
 20
4.7404096352
 30
0.0
 10
5.4568336817
 20
4.7429854787
 30
0.0
 11
5.8041088039
 21
4.7417775398
 31
0.0
 11
5.7879087009
 21
4.7346851033
 31
0.0
 11
5.770583549
 21
4.7283088877
 31
0.0
 11
5.7522615069
 21
4.7226962983
 31
0.0
 11
5.7330761575
 21
4.7178882844
 31
0.0
 11
5.7131670118
 21
4.7139197969
 31
0.0
 11
5.6926788817
 21
4.7108197096
 31
0.0
 11
5.6717609457
 21
4.7086105979
 31
0.0
 11
5.6505654217
 21
4.7073085342
 31
0.0
 11
5.6292464984
 21
4.7069229894
 31
0.0
 11
5.607959327
 21
4.70745677
 31
0.0
 11
5.5868588457
 21
4.7089059874
 31
0.0
 11
5.5660985515
 21
4.7112600959
 31
0.0
 11
5.5458295107
 21
4.7145019644
 31
0.0
 11
5.5261992989
 21
4.7186079823
 31
0.0
 11
5.5073506897
 21
4.7235482741
 31
0.0
 11
5.4894207385
 21
4.7292869253
 31
0.0
 11
5.4725401613
 21
4.7357820687
 31
0.0
 11
5.4568336817
 21
4.7429854787
 31
0.0
  0
SPLINE
  5
292
100
AcDbEntity
  8
RACCORDO
100
AcDbSpline
 62
253
  6
CONTINUOUS
 70
0
 71
3
 72
25
 73
21
 74
19
 42
0.0000001
 43
0.0000001
 44
0.0000000001
 12
-0.2109794759
 22
0.1054917212
 32
0.0
 13
0.2069226435
 23
0.1132424924
 33
0.0
 40
0.0
 40
0.0
 40
0.0
 40
0.0
 40
0.0696259316
 40
0.1354941003
 40
0.1975520195
 40
0.2558682771
 40
0.3106467485
 40
0.3622458225
 40
0.411194015
 40
0.4581922643
 40
0.5040904017
 40
0.549831955
 40
0.5963745027
 40
0.6446058402
 40
0.6952792112
 40
0.7489797848
 40
0.8061199722
 40
0.8669516448
 40
0.9315844569
 40
1.0
 40
1.0
 40
1.0
 40
1.0
 10
-9.3473133363
 20
12.1450589877
 30
0.0
 10
-9.3522098838
 20
12.1475073075
 30
0.0
 10
-9.3615836203
 20
12.1525929512
 30
0.0
 10
-9.3746449884
 20
12.1610299403
 30
0.0
 10
-9.3862360439
 20
12.1700124179
 30
0.0
 10
-9.3962716836
 20
12.1794792771
 30
0.0
 10
-9.404677867
 20
12.1893682597
 30
0.0
 10
-9.4113885591
 20
12.199614825
 30
0.0
 10
-9.4163450664
 20
12.2101503423
 30
0.0
 10
-9.4194968248
 20
12.2208985772
 30
0.0
 10
-9.420806088
 20
12.2317725579
 30
0.0
 10
-9.4202555037
 20
12.2426759334
 30
0.0
 10
-9.4178530229
 20
12.2535106075
 30
0.0
 10
-9.4136293158
 20
12.2641856434
 30
0.0
 10
-9.4076303594
 20
12.2746208679
 30
0.0
 10
-9.3999114287
 20
12.2847448201
 30
0.0
 10
-9.3905351867
 20
12.2944910164
 30
0.0
 10
-9.3795719425
 20
12.3037955518
 30
0.0
 10
-9.3671028478
 20
12.3125954169
 30
0.0
 10
-9.3580950632
 20
12.3179375036
 30
0.0
 10
-9.3533761548
 20
12.3205200192
 30
0.0
 11
-9.3473133363
 21
12.1450589877
 31
0.0
 11
-9.3617339004
 21
12.1529190996
 31
0.0
 11
-9.3747653277
 21
12.1613799584
 31
0.0
 11
-9.3863108678
 21
12.1703790529
 31
0.0
 11
-9.3962862896
 21
12.1798507766
 31
0.0
 11
-9.4046190744
 21
12.189726257
 31
0.0
 11
-9.4112485932
 21
12.1999336683
 31
0.0
 11
-9.4161265635
 21
12.210398692
 31
0.0
 11
-9.4192174879
 21
12.2210451774
 31
0.0
 11
-9.4204988746
 21
12.2317956759
 31
0.0
 11
-9.4199613904
 21
12.2425719402
 31
0.0
 11
-9.4176089479
 21
12.2532955447
 31
0.0
 11
-9.4134586585
 21
12.2638884797
 31
0.0
 11
-9.407540717
 21
12.2742736612
 31
0.0
 11
-9.3998982191
 21
12.2843754727
 31
0.0
 11
-9.3905867702
 21
12.2941204369
 31
0.0
 11
-9.3796740581
 21
12.3034376912
 31
0.0
 11
-9.3672397019
 21
12.3122593047
 31
0.0
 11
-9.3533761548
 21
12.3205200192
 31
0.0
  0
SPLINE
  5
293
100
AcDbEntity
  8
RACCORDO
100
AcDbSpline
 62
253
  6
CONTINUOUS
 70
0
 71
3
 72
14
 73
10
 74
8
 42
0.0000001
 43
0.0000001
 44
0.0000000001
 12
0.1079825595
 22
0.0590789721
 32
0.0
 13
0.1114448285
 23
-0.0519220795
 33
0.0
 40
0.0
 40
0.0
 40
0.0
 40
0.0
 40
0.1015894819
 40
0.2371899148
 40
0.3765345955
 40
0.5213745949
 40
0.6730463026
 40
0.8324372892
 40
1.0
 40
1.0
 40
1.0
 40
1.0
 10
-9.4718513038
 20
12.3241002446
 30
0.0
 10
-9.468194673
 20
12.3261008453
 30
0.0
 10
-9.4593617489
 20
12.3302327233
 30
0.0
 10
-9.4445155634
 20
12.3346859316
 30
0.0
 10
-9.4273945729
 20
12.336963924
 30
0.0
 10
-9.4094743971
 20
12.3366732001
 30
0.0
 10
-9.390954557
 20
12.3338322206
 30
0.0
 10
-9.3720372726
 20
12.3284858022
 30
0.0
 10
-9.3596008207
 20
12.3234200873
 30
0.0
 10
-9.3533761548
 20
12.3205200192
 30
0.0
 11
-9.4718513038
 21
12.3241002446
 31
0.0
 11
-9.4605330842
 21
12.3293968769
 31
0.0
 11
-9.4445724646
 21
12.3342136198
 31
0.0
 11
-9.4275961711
 21
12.3365177586
 31
0.0
 11
-9.4097901276
 21
12.3362840585
 31
0.0
 11
-9.3913493453
 21
12.3335150791
 31
0.0
 11
-9.3724757868
 21
12.328241146
 31
0.0
 11
-9.3533761548
 21
12.3205200192
 31
0.0
  0
SPLINE
  5
294
100
AcDbEntity
  8
RACCORDO
100
AcDbSpline
 62
7
  6
CONTINUOUS
 70
0
 71
3
 72
25
 73
21
 74
19
 42
0.0000001
 43
0.0000001
 44
0.0000000001
 12
-0.5245274405
 22
0.2622637203
 32
0.0
 13
-0.0050025686
 23
0.5864181692
 33
0.0
 40
0.0
 40
0.0
 40
0.0
 40
0.0
 40
0.0479689405
 40
0.0980125495
 40
0.1498255404
 40
0.2031382304
 40
0.2581145878
 40
0.3144706373
 40
0.3717636343
 40
0.4297891306
 40
0.4886088045
 40
0.5477482898
 40
0.6067200463
 40
0.6655679539
 40
0.7240731896
 40
0.7817494485
 40
0.8382510683
 40
0.8937000221
 40
0.9477535516
 40
1.0
 40
1.0
 40
1.0
 40
1.0
 10
-5.0342457478
 20
5.1134198662
 30
0.0
 10
-5.0426327563
 20
5.1176133704
 30
0.0
 10
-5.0594074737
 20
5.1269220364
 30
0.0
 10
-5.0838587305
 20
5.1430902351
 30
0.0
 10
-5.1079121416
 20
5.1616104175
 30
0.0
 10
-5.1313930442
 20
5.1823346097
 30
0.0
 10
-5.1541491284
 20
5.2051233512
 30
0.0
 10
-5.1760146088
 20
5.2298153668
 30
0.0
 10
-5.1967970681
 20
5.2561872935
 30
0.0
 10
-5.2163656742
 20
5.2840615509
 30
0.0
 10
-5.2345909546
 20
5.3132580748
 30
0.0
 10
-5.2513231974
 20
5.3435463526
 30
0.0
 10
-5.2664314802
 20
5.3746824768
 30
0.0
 10
-5.2798178828
 20
5.4064626042
 30
0.0
 10
-5.2913864312
 20
5.4386802654
 30
0.0
 10
-5.3010287681
 20
5.4710483349
 30
0.0
 10
-5.3086773606
 20
5.5033317051
 30
0.0
 10
-5.3142773607
 20
5.5353160152
 30
0.0
 10
-5.3177765675
 20
5.5667610868
 30
0.0
 10
-5.3187026513
 20
5.5875393493
 30
0.0
 10
-5.3187897735
 20
5.5977521048
 30
0.0
 11
-5.0342457478
 21
5.1134198662
 31
0.0
 11
-5.0588657453
 21
5.1270287689
 31
0.0
 11
-5.0833687446
 21
5.143180601
 31
0.0
 11
-5.1074663859
 21
5.1616890623
 31
0.0
 11
-5.1309272837
 21
5.1823546307
 31
0.0
 11
-5.1537264889
 21
5.205150106
 31
0.0
 11
-5.1756524573
 21
5.2298789488
 31
0.0
 11
-5.1964612278
 21
5.2562584788
 31
0.0
 11
-5.2160224991
 21
5.2841025379
 31
0.0
 11
-5.2342940863
 21
5.3133599744
 31
0.0
 11
-5.2510668647
 21
5.3437161326
 31
0.0
 11
-5.2661628753
 21
5.374830756
 31
0.0
 11
-5.279553991
 21
5.4066375013
 31
0.0
 11
-5.2911390505
 21
5.4389321992
 31
0.0
 11
-5.3007812278
 21
5.4713523599
 31
0.0
 11
-5.3084009763
 21
5.503599115
 31
0.0
 11
-5.3139846779
 21
5.5356335854
 31
0.0
 11
-5.3174604957
 21
5.5671415721
 31
0.0
 11
-5.3187897735
 21
5.5977521048
 31
0.0
  0
SPLINE
  5
295
100
AcDbEntity
  8
RACCORDO
100
AcDbSpline
 62
7
  6
CONTINUOUS
 70
0
 71
3
 72
16
 73
12
 74
10
 42
0.0000001
 43
0.0000001
 44
0.0000000001
 12
-0.0013169092
 22
0.211640437
 32
0.0
 13
0.1590675193
 23
0.1398736643
 33
0.0
 40
0.0
 40
0.0
 40
0.0
 40
0.0
 40
0.1395272774
 40
0.2739201021
 40
0.402445843
 40
0.5248674379
 40
0.6421671143
 40
0.7545208464
 40
0.8621290013
 40
0.9659378976
 40
1.0
 40
1.0
 40
1.0
 40
1.0
 10
-5.3277188859
 20
6.8083354336
 30
0.0
 10
-5.3277801341
 20
6.8181786382
 30
0.0
 10
-5.3272280267
 20
6.8375157537
 30
0.0
 10
-5.324244687
 20
6.8657796108
 30
0.0
 10
-5.3191436285
 20
6.8925169993
 30
0.0
 10
-5.311968883
 20
6.9175261658
 30
0.0
 10
-5.3027660552
 20
6.9406450258
 30
0.0
 10
-5.2915867972
 20
6.961706801
 30
0.0
 10
-5.2785271339
 20
6.9805172786
 30
0.0
 10
-5.2668806627
 20
6.9934023517
 30
0.0
 10
-5.2597185931
 20
6.9999990599
 30
0.0
 10
-5.257912535
 20
7.0015871903
 30
0.0
 11
-5.3277188859
 21
6.8083354336
 31
0.0
 11
-5.3268340744
 21
6.8378523604
 31
0.0
 11
-5.3238010553
 21
6.8661336948
 31
0.0
 11
-5.3186516929
 21
6.8928436253
 31
0.0
 11
-5.3114530088
 21
6.9177333795
 31
0.0
 11
-5.302216885
 21
6.9407771665
 31
0.0
 11
-5.2910169268
 21
6.9617534462
 31
0.0
 11
-5.2779845914
 21
6.9804308172
 31
0.0
 11
-5.2632195823
 21
6.9967004556
 31
0.0
 11
-5.257912535
 21
7.0015871903
 31
0.0
  0
LINE
  5
296
100
AcDbEntity
  8
RACCORDO
100
AcDbLine
 62
7
  6
CONTINUOUS
 10
-5.3187897735
 20
5.5977521048
 11
-5.3202882864
 21
5.7770098496
  0
LINE
  5
297
100
AcDbEntity
  8
RACCORDO
100
AcDbLine
 62
7
  6
CONTINUOUS
 10
-5.3202882864
 20
5.7770098496
 11
-5.3206533635
 21
5.8218286876
  0
LINE
  5
298
100
AcDbEntity
  8
RACCORDO
100
AcDbLine
 62
7
  6
CONTINUOUS
 10
-5.3206533635
 20
5.8218286876
 11
-5.3234365036
 21
6.1804498478
  0
LINE
  5
299
100
AcDbEntity
  8
RACCORDO
100
AcDbLine
 62
7
  6
CONTINUOUS
 10
-5.3234365036
 20
6.1804498478
 11
-5.3237672114
 21
6.2252862902
  0
LINE
  5
29A
100
AcDbEntity
  8
RACCORDO
100
AcDbLine
 62
7
  6
CONTINUOUS
 10
-5.3237672114
 20
6.2252862902
 11
-5.3262753957
 21
6.584047987
  0
LINE
  5
29B
100
AcDbEntity
  8
RACCORDO
100
AcDbLine
 62
7
  6
CONTINUOUS
 10
-5.3262753957
 20
6.584047987
 11
-5.3265717338
 21
6.62890196
  0
LINE
  5
29C
100
AcDbEntity
  8
RACCORDO
100
AcDbLine
 62
7
  6
CONTINUOUS
 10
-5.3265717338
 20
6.62890196
 11
-5.3277188859
 21
6.8083354336
  0
SPLINE
  5
29D
100
AcDbEntity
  8
RACCORDO
100
AcDbSpline
 62
7
  6
CONTINUOUS
 70
0
 71
3
 72
14
 73
10
 74
8
 42
0.0000001
 43
0.0000001
 44
0.0000000001
 12
-0.1527487844
 22
-0.0464479534
 32
0.0
 13
-0.1426836499
 23
0.071341825
 33
0.0
 40
0.0
 40
0.0
 40
0.0
 40
0.0
 40
0.0893502555
 40
0.2264496758
 40
0.3680625496
 40
0.5150875753
 40
0.6693379792
 40
0.8311090423
 40
1.0
 40
1.0
 40
1.0
 40
1.0
 10
0.9918116793
 20
2.1565634728
 30
0.0
 10
0.9872622984
 20
2.155180094
 30
0.0
 10
0.9755661777
 20
2.1522193091
 30
0.0
 10
0.9561070051
 20
2.1496290264
 30
0.0
 10
0.933408993
 20
2.1495814804
 30
0.0
 10
0.9099716063
 20
2.1523700146
 30
0.0
 10
0.8859471594
 20
2.1579718917
 30
0.0
 10
0.8615191251
 20
2.1663471379
 30
0.0
 10
0.8454581415
 20
2.1735679215
 30
0.0
 10
0.8374254821
 20
2.1775842512
 30
0.0
 11
0.9918116793
 21
2.1565634728
 31
0.0
 11
0.9779894374
 21
2.1530564607
 31
0.0
 11
0.9563155906
 21
2.1501278728
 31
0.0
 11
0.9337249967
 21
2.1500272997
 31
0.0
 11
0.9104282989
 21
2.1527407854
 31
0.0
 11
0.8864508389
 21
2.1582704416
 31
0.0
 11
0.8620205715
 21
2.1665855116
 31
0.0
 11
0.8374254821
 21
2.1775842512
 31
0.0
  0
SPLINE
  5
29E
100
AcDbEntity
  8
RACCORDO
100
AcDbSpline
 62
253
  6
CONTINUOUS
 70
0
 71
3
 72
22
 73
18
 74
16
 42
0.0000001
 43
0.0000001
 44
0.0000000001
 12
-0.0027087752
 22
0.3665121304
 32
0.0
 13
-0.322967055
 23
0.1732938562
 33
0.0
 40
0.0
 40
0.0
 40
0.0
 40
0.0
 40
0.0629566414
 40
0.1283834588
 40
0.195913743
 40
0.2651259748
 40
0.3355575138
 40
0.4067172398
 40
0.4780975125
 40
0.5491857568
 40
0.6194759385
 40
0.6884801858
 40
0.7557408241
 40
0.8208431402
 40
0.8834292511
 40
0.9432135227
 40
1.0
 40
1.0
 40
1.0
 40
1.0
 10
5.976151042
 20
4.4346315441
 30
0.0
 10
5.9760941969
 20
4.4423230017
 30
0.0
 10
5.9753196574
 20
4.4580084404
 30
0.0
 10
5.9723366419
 20
4.4817773161
 30
0.0
 10
5.9675410926
 20
4.5060271401
 30
0.0
 10
5.9609853248
 20
4.530493098
 30
0.0
 10
5.9527406027
 20
4.5549104211
 30
0.0
 10
5.9428965361
 20
4.5790137389
 30
0.0
 10
5.9315601309
 20
4.6025411367
 30
0.0
 10
5.9188546212
 20
4.6252368434
 30
0.0
 10
5.9049180666
 20
4.6468541997
 30
0.0
 10
5.8899017846
 20
4.6671583864
 30
0.0
 10
5.8739684532
 20
4.6859290941
 30
0.0
 10
5.8572905155
 20
4.7029627189
 30
0.0
 10
5.8400466834
 20
4.7180752066
 30
0.0
 10
5.8224243719
 20
4.7311012882
 30
0.0
 10
5.810222191
 20
4.7384972906
 30
0.0
 10
5.8041088039
 20
4.7417775398
 30
0.0
 11
5.976151042
 21
4.4346315441
 31
0.0
 11
5.975050743
 21
4.457680299
 31
0.0
 11
5.9720951886
 21
4.4814778448
 31
0.0
 11
5.9673167482
 21
4.5057635515
 31
0.0
 11
5.9607677549
 21
4.5302714429
 31
0.0
 11
5.9525199332
 21
4.5547331094
 31
0.0
 11
5.9426636131
 21
4.5788806475
 31
0.0
 11
5.9313067406
 21
4.6024495943
 31
0.0
 11
5.9185736958
 21
4.6251818235
 31
0.0
 11
5.9046039307
 21
4.6468283725
 31
0.0
 11
5.8895504417
 21
4.6671521691
 31
0.0
 11
5.873578094
 21
4.6859306278
 31
0.0
 11
5.8568618163
 21
4.7029580877
 31
0.0
 11
5.8395846847
 21
4.7180480647
 31
0.0
 11
5.8219359177
 21
4.7310352939
 31
0.0
 11
5.8041088039
 21
4.7417775398
 31
0.0
  0
SPLINE
  5
29F
100
AcDbEntity
  8
RACCORDO
100
AcDbSpline
 62
253
  6
CONTINUOUS
 70
0
 71
3
 72
22
 73
18
 74
16
 42
0.0000001
 43
0.0000001
 44
0.0000000001
 12
-0.000238189
 22
0.366577057
 32
0.0
 13
0.326468929
 23
0.166723825
 33
0.0
 40
0.0
 40
0.0
 40
0.0
 40
0.0
 40
0.0627686171
 40
0.1278905369
 40
0.1950351148
 40
0.2638167547
 40
0.3338081528
 40
0.4045525959
 40
0.4755756192
 40
0.5463962937
 40
0.6165383804
 40
0.6855415807
 40
0.7529731191
 40
0.8184399196
 40
0.8816016779
 40
0.9421851557
 40
1.0
 40
1.0
 40
1.0
 40
1.0
 10
5.2815996903
 20
4.4386981369
 30
0.0
 10
5.2815947067
 20
4.4463679819
 30
0.0
 10
5.2822619275
 20
4.4620017356
 30
0.0
 10
5.2851411771
 20
4.4856803925
 30
0.0
 10
5.2898868754
 20
4.5098057431
 30
0.0
 10
5.2964475899
 20
4.534116795
 30
0.0
 10
5.3047525749
 20
4.5583531506
 30
0.0
 10
5.3147123885
 20
4.5822540434
 30
0.0
 10
5.3262198047
 20
4.6055623589
 30
0.0
 10
5.3391509636
 20
4.6280272156
 30
0.0
 10
5.3533667561
 20
4.6494068454
 30
0.0
 10
5.3687143769
 20
4.6694712317
 30
0.0
 10
5.385029201
 20
4.6880046823
 30
0.0
 10
5.4021363621
 20
4.7048079505
 30
0.0
 10
5.4198541868
 20
4.7197009495
 30
0.0
 10
5.4379917429
 20
4.7325220871
 30
0.0
 10
5.4505420983
 20
4.7397724414
 30
0.0
 10
5.4568336817
 20
4.7429854787
 30
0.0
 11
5.2815996903
 21
4.4386981369
 31
0.0
 11
5.2825437195
 21
4.4616883029
 31
0.0
 11
5.2853948205
 21
4.4853896421
 31
0.0
 11
5.2901220703
 21
4.5095450909
 31
0.0
 11
5.2966741975
 21
4.5338926606
 31
0.0
 11
5.304980138
 21
4.5581682787
 31
0.0
 11
5.314949806
 21
4.582108653
 31
0.0
 11
5.326475071
 21
4.6054541273
 31
0.0
 11
5.3394309304
 21
4.6279514979
 31
0.0
 11
5.3536768658
 21
4.6493567593
 31
0.0
 11
5.3690583664
 21
4.6694377512
 31
0.0
 11
5.3854086052
 21
4.6879766761
 31
0.0
 11
5.4025502483
 21
4.7047724618
 31
0.0
 11
5.4202973783
 21
4.7196429419
 31
0.0
 11
5.4384575108
 21
4.732426832
 31
0.0
 11
5.4568336817
 21
4.7429854787
 31
0.0
  0
SPLINE
  5
2A0
100
AcDbEntity
  8
0
100
AcDbSpline
 62
253
  6
CONTINUOUS
 70
0
 71
3
 72
16
 73
12
 74
10
 42
0.0000001
 43
0.0000001
 44
0.0000000001
 12
-1.2344583664
 22
9.7271614722
 32
0.0
 13
-0.1480278181
 23
9.8040627053
 33
0.0
 40
0.0
 40
0.0
 40
0.0
 40
0.0
 40
0.1080730282
 40
0.216918925
 40
0.3265327533
 40
0.4369090339
 40
0.5480417747
 40
0.6599244812
 40
0.7725501569
 40
0.8859113138
 40
1.0
 40
1.0
 40
1.0
 40
1.0
 10
-8.785661038
 20
-5.7859308774
 30
0.0
 10
-8.8301315893
 20
-5.4355162786
 30
0.0
 10
-8.9147563758
 20
-4.7315845172
 30
0.0
 10
-9.0284140583
 20
-3.670388349
 30
0.0
 10
-9.1292235465
 20
-2.6003318516
 30
0.0
 10
-9.217163408
 20
-1.5216427527
 30
0.0
 10
-9.2922153092
 20
-0.4345474403
 30
0.0
 10
-9.3543635126
 20
0.6607249562
 30
0.0
 10
-9.4035950232
 20
1.7639444403
 30
0.0
 10
-9.4398995143
 20
2.8748767619
 30
0.0
 10
-9.4554302122
 20
3.6181301123
 30
0.0
 10
-9.4610596453
 20
3.9909743235
 30
0.0
 11
-8.785661038
 21
-5.7859308774
 31
0.0
 11
-8.9121908655
 21
-4.733836589
 31
0.0
 11
-9.0258956197
 21
-3.6726572769
 31
0.0
 11
-9.1267513917
 21
-2.6026164714
 31
0.0
 11
-9.2147369723
 21
-1.5239396132
 31
0.0
 11
-9.2898338686
 21
-0.4368538634
 31
0.0
 11
-9.3520263001
 21
0.6584119147
 31
0.0
 11
-9.4013011934
 21
1.7616270762
 31
0.0
 11
-9.4376481877
 21
2.872559208
 31
0.0
 11
-9.4610596453
 21
3.9909743235
 31
0.0
  0
SPLINE
  5
2A1
100
AcDbEntity
  8
RACCORDO
100
AcDbSpline
 62
253
  6
CONTINUOUS
 70
0
 71
3
 72
22
 73
18
 74
16
 42
0.0000001
 43
0.0000001
 44
0.0000000001
 12
-0.0002381892
 22
0.366577057
 32
0.0
 13
0.3264689291
 23
0.1667238248
 33
0.0
 40
0.0
 40
0.0
 40
0.0
 40
0.0
 40
0.0627686184
 40
0.1278905402
 40
0.1950351199
 40
0.2638167614
 40
0.333808161
 40
0.4045526051
 40
0.4755756292
 40
0.5463963039
 40
0.6165383904
 40
0.68554159
 40
0.7529731272
 40
0.8184399262
 40
0.8816016825
 40
0.9421851581
 40
1.0
 40
1.0
 40
1.0
 40
1.0
 10
-9.5225473277
 20
11.840771646
 30
0.0
 10
-9.5225523113
 20
11.8484414911
 30
0.0
 10
-9.5218850905
 20
11.8640752452
 30
0.0
 10
-9.5190058407
 20
11.8877539027
 30
0.0
 10
-9.5142601423
 20
11.9118792539
 30
0.0
 10
-9.5076994275
 20
11.9361903063
 30
0.0
 10
-9.4993944422
 20
11.9604266624
 30
0.0
 10
-9.4894346282
 20
11.9843275555
 30
0.0
 10
-9.4779272117
 20
12.0076358712
 30
0.0
 10
-9.4649960525
 20
12.0301007278
 30
0.0
 10
-9.4507802599
 20
12.0514803574
 30
0.0
 10
-9.4354326391
 20
12.0715447433
 30
0.0
 10
-9.419117815
 20
12.0900781935
 30
0.0
 10
-9.4020106542
 20
12.1068814611
 30
0.0
 10
-9.3842928299
 20
12.1217744596
 30
0.0
 10
-9.3661552744
 20
12.1345955966
 30
0.0
 10
-9.3536049195
 20
12.1418459505
 30
0.0
 10
-9.3473133363
 20
12.1450589877
 30
0.0
 11
-9.5225473277
 21
11.840771646
 31
0.0
 11
-9.5216032985
 21
11.8637618124
 31
0.0
 11
-9.5187521974
 21
11.8874631523
 31
0.0
 11
-9.5140249473
 21
11.9116186018
 31
0.0
 11
-9.5074728199
 21
11.9359661721
 31
0.0
 11
-9.499166879
 21
11.9602417906
 31
0.0
 11
-9.4891972107
 21
11.9841821651
 31
0.0
 11
-9.4776719454
 21
12.0075276396
 31
0.0
 11
-9.4647160857
 21
12.0300250102
 31
0.0
 11
-9.4504701501
 21
12.0514302714
 31
0.0
 11
-9.4350886495
 21
12.0715112629
 31
0.0
 11
-9.4187384108
 21
12.0900501873
 31
0.0
 11
-9.401596768
 21
12.1068459724
 31
0.0
 11
-9.3838496384
 21
12.121716452
 31
0.0
 11
-9.3656895065
 21
12.1345003415
 31
0.0
 11
-9.3473133363
 21
12.1450589877
 31
0.0
  0
SPLINE
  5
2A2
100
AcDbEntity
  8
RACCORDO
100
AcDbSpline
 62
253
  6
CONTINUOUS
 70
0
 71
3
 72
17
 73
13
 74
11
 42
0.0000001
 43
0.0000001
 44
0.0000000001
 12
-0.2161832152
 22
0.1080956977
 32
0.0
 13
-0.0001406965
 23
0.2419871049
 33
0.0
 40
0.0
 40
0.0
 40
0.0
 40
0.0
 40
0.1359048809
 40
0.2644265655
 40
0.3854754164
 40
0.4991772678
 40
0.6059234234
 40
0.7064077239
 40
0.8016586374
 40
0.8930453274
 40
0.9822330742
 40
1.0
 40
1.0
 40
1.0
 40
1.0
 10
-9.5225460331
 20
11.8407709985
 30
0.0
 10
-9.5323394845
 20
11.8456679095
 30
0.0
 10
-9.5510856083
 20
11.8558349005
 30
0.0
 10
-9.577208432
 20
11.8726908928
 30
0.0
 10
-9.6003894286
 20
11.8906245434
 30
0.0
 10
-9.6204599128
 20
11.9095145808
 30
0.0
 10
-9.6372719206
 20
11.9292368677
 30
0.0
 10
-9.6506936103
 20
11.949662925
 30
0.0
 10
-9.6606076483
 20
11.9706563688
 30
0.0
 10
-9.6669126364
 20
11.9920657394
 30
0.0
 10
-9.6688413059
 20
12.0080057894
 30
0.0
 10
-9.6689930179
 20
12.0166327835
 30
0.0
 10
-9.6689938512
 20
12.0180659058
 30
0.0
 11
-9.5225460331
 21
11.8407709985
 31
0.0
 11
-9.5513907002
 21
11.8564874873
 31
0.0
 11
-9.5774530088
 21
11.8733908905
 31
0.0
 11
-9.6005436923
 21
11.8913585369
 31
0.0
 11
-9.6204941388
 21
11.9102592816
 31
0.0
 11
-9.6371593486
 21
11.9299557287
 31
0.0
 11
-9.6504180734
 21
11.9503046131
 31
0.0
 11
-9.6601737605
 21
11.9711577804
 31
0.0
 11
-9.6663554273
 21
11.9923634886
 31
0.0
 11
-9.6689181015
 21
12.0137674793
 31
0.0
 11
-9.6689938512
 21
12.0180659058
 31
0.0
  0
SPLINE
  5
2A3
100
AcDbEntity
  8
RACCORDO
100
AcDbSpline
 62
253
  6
CONTINUOUS
 70
0
 71
3
 72
25
 73
21
 74
19
 42
0.0000001
 43
0.0000001
 44
0.0000000001
 12
-0.6460963923
 22
-0.3048847509
 32
0.0
 13
-0.6390010858
 23
0.3194884534
 33
0.0
 40
0.0
 40
0.0
 40
0.0
 40
0.0
 40
0.0494328262
 40
0.1010447089
 40
0.1546315361
 40
0.2099543778
 40
0.2667494203
 40
0.3247313615
 40
0.3835981563
 40
0.4430362134
 40
0.5027246367
 40
0.5623391465
 40
0.6215564156
 40
0.6800584166
 40
0.7375363898
 40
0.7936951737
 40
0.8482585284
 40
0.9009740369
 40
0.9516168911
 40
1.0
 40
1.0
 40
1.0
 40
1.0
 10
5.9761524446
 20
4.434632206
 30
0.0
 10
5.9655063211
 20
4.4296084344
 30
0.0
 10
5.9433962204
 20
4.4200656994
 30
0.0
 10
5.908759621
 20
4.4075083477
 30
0.0
 10
5.8721422999
 20
4.3964700581
 30
0.0
 10
5.8338101498
 20
4.3870313953
 30
0.0
 10
5.794039585
 20
4.3792603697
 30
0.0
 10
5.7531182674
 20
4.3732133892
 30
0.0
 10
5.7113423631
 20
4.3689343393
 30
0.0
 10
5.6690144777
 20
4.3664543229
 30
0.0
 10
5.6264412655
 20
4.3657913637
 30
0.0
 10
5.5839312164
 20
4.3669502777
 30
0.0
 10
5.5417923464
 20
4.3699226273
 30
0.0
 10
5.5003298894
 20
4.3746867989
 30
0.0
 10
5.4598440947
 20
4.3812081657
 30
0.0
 10
5.4206278418
 20
4.3894394165
 30
0.0
 10
5.3829646297
 20
4.3993208588
 30
0.0
 10
5.3471257611
 20
4.4107813953
 30
0.0
 10
5.3133713959
 20
4.423737521
 30
0.0
 10
5.2919040161
 20
4.4335461689
 30
0.0
 10
5.2815983964
 20
4.4386987838
 30
0.0
 11
5.9761524446
 21
4.434632206
 31
0.0
 11
5.9437477757
 21
4.4205914979
 31
0.0
 11
5.9090976663
 21
4.4079838061
 31
0.0
 11
5.8724535849
 21
4.3969006745
 31
0.0
 11
5.834083035
 21
4.387423058
 31
0.0
 11
5.794264951
 21
4.3796198303
 31
0.0
 11
5.7532889743
 21
4.3735477657
 31
0.0
 11
5.7114534521
 21
4.3692510782
 31
0.0
 11
5.6690628141
 21
4.3667610246
 31
0.0
 11
5.6264254295
 21
4.3660957139
 31
0.0
 11
5.5838515764
 21
4.3672599868
 31
0.0
 11
5.5416510682
 21
4.370245366
 31
0.0
 11
5.5001308844
 21
4.3750301342
 31
0.0
 11
5.4595931515
 21
4.3815794787
 31
0.0
 11
5.4203330109
 21
4.3898457068
 31
0.0
 11
5.3826360241
 21
4.3997686787
 31
0.0
 11
5.3467762234
 21
4.4112762744
 31
0.0
 11
5.3130153435
 21
4.4242844655
 31
0.0
 11
5.2815983964
 21
4.4386987838
 31
0.0
  0
SPLINE
  5
2A4
100
AcDbEntity
  8
0
100
AcDbSpline
 62
253
  6
CONTINUOUS
 70
0
 71
3
 72
16
 73
12
 74
10
 42
0.0000001
 43
0.0000001
 44
0.0000000001
 12
-0.0122254801
 22
-0.2821001809
 32
0.0
 13
-0.2216191132
 23
-0.1753040056
 33
0.0
 40
0.0
 40
0.0
 40
0.0
 40
0.0
 40
0.1340190606
 40
0.2631878752
 40
0.3872848552
 40
0.5062238358
 40
0.6200739375
 40
0.7290788238
 40
0.8336726683
 40
0.9344884836
 40
1.0
 40
1.0
 40
1.0
 40
1.0
 10
7.1047901459
 20
-13.3661044475
 30
0.0
 10
7.1042439968
 20
-13.3787067145
 30
0.0
 10
7.1023356502
 20
-13.4034292835
 30
0.0
 10
7.0968604232
 20
-13.439502063
 30
0.0
 10
7.0888606967
 20
-13.4736504227
 30
0.0
 10
7.0783923498
 20
-13.5056160257
 30
0.0
 10
7.0655279547
 20
-13.5351587843
 30
0.0
 10
7.0503563675
 20
-13.5620540553
 30
0.0
 10
7.0329827309
 20
-13.5860937376
 30
0.0
 10
7.0156047799
 20
-13.6048468382
 30
0.0
 10
7.0037567378
 20
-13.6151217777
 30
0.0
 10
6.9989172031
 20
-13.6189499214
 30
0.0
 11
7.1047901459
 21
-13.3661044475
 31
0.0
 11
7.101830511
 21
-13.4038308214
 31
0.0
 11
7.0963041668
 21
-13.4398824631
 31
0.0
 11
7.0882530744
 21
-13.473985635
 31
0.0
 11
7.0777383651
 21
-13.5058813944
 31
0.0
 11
7.0648398763
 21
-13.535327559
 31
0.0
 11
7.0496555454
 21
-13.5621005463
 31
0.0
 11
7.0323006657
 21
-13.585997071
 31
0.0
 11
7.0129070117
 21
-13.6068356885
 31
0.0
 11
6.9989172031
 21
-13.6189499214
 31
0.0
  0
SPLINE
  5
2A5
100
AcDbEntity
  8
0
100
AcDbSpline
 62
253
  6
CONTINUOUS
 70
0
 71
3
 72
10
 73
6
 74
4
 42
0.0000001
 43
0.0000001
 44
0.0000000001
 12
-0.0435010632
 22
-0.0344099862
 32
0.0
 13
-0.0514266981
 23
-0.0207923361
 33
0.0
 40
0.0
 40
0.0
 40
0.0
 40
0.0
 40
0.1648244353
 40
0.6534394098
 40
1.0
 40
1.0
 40
1.0
 40
1.0
 10
6.9989172031
 20
-13.6189499214
 30
0.0
 10
6.9965271904
 20
-13.620840457
 30
0.0
 10
6.986884879
 20
-13.6281237932
 30
0.0
 10
6.9711431209
 20
-13.6379085388
 30
0.0
 10
6.9571189982
 20
-13.644421667
 30
0.0
 10
6.951178176
 20
-13.6468236018
 30
0.0
 11
6.9989172031
 21
-13.6189499214
 31
0.0
 11
6.9916218379
 21
-13.6244581727
 31
0.0
 11
6.9686067611
 21
-13.6387307175
 31
0.0
 11
6.951178176
 21
-13.6468236018
 31
0.0
  0
SPLINE
  5
2A6
100
AcDbEntity
  8
0
100
AcDbSpline
 62
253
  6
CONTINUOUS
 70
0
 71
3
 72
26
 73
22
 74
20
 42
0.0000001
 43
0.0000001
 44
0.0000000001
 12
0.0639075782
 22
-0.4718179908
 32
0.0
 13
0.4414253651
 23
0.1784377821
 33
0.0
 40
0.0
 40
0.0
 40
0.0
 40
0.0
 40
0.0604714473
 40
0.1189577881
 40
0.1754896565
 40
0.2301507618
 40
0.2830756018
 40
0.3344495457
 40
0.3845087349
 40
0.4335365193
 40
0.4818566178
 40
0.5298216896
 40
0.5777998971
 40
0.6261586397
 40
0.6752493941
 40
0.7253932963
 40
0.7768707761
 40
0.8299146356
 40
0.8847072271
 40
0.9413785448
 40
1.0
 40
1.0
 40
1.0
 40
1.0
 10
6.7621291116
 20
-13.158007945
 30
0.0
 10
6.7634173061
 20
-13.1675184506
 30
0.0
 10
6.7665876084
 20
-13.1861490518
 30
0.0
 10
6.7732758362
 20
-13.2132125165
 30
0.0
 10
6.7817864542
 20
-13.2387937359
 30
0.0
 10
6.7920781802
 20
-13.2627571809
 30
0.0
 10
6.8041013366
 20
-13.2849778729
 30
0.0
 10
6.8177972922
 20
-13.3053380017
 30
0.0
 10
6.8330980889
 20
-13.3237279022
 30
0.0
 10
6.8499260433
 20
-13.3400467115
 30
0.0
 10
6.8681933837
 20
-13.3542035384
 30
0.0
 10
6.8878023737
 20
-13.3661190318
 30
0.0
 10
6.9086460441
 20
-13.3757269779
 30
0.0
 10
6.9306097835
 20
-13.3829756107
 30
0.0
 10
6.95357316
 20
-13.3878280835
 30
0.0
 10
6.9774117233
 20
-13.390262214
 30
0.0
 10
7.0019983022
 20
-13.3902696659
 30
0.0
 10
7.0272037006
 20
-13.387855136
 30
0.0
 10
7.0528975664
 20
-13.3830352357
 30
0.0
 10
7.0789445228
 20
-13.375839713
 30
0.0
 10
7.0961644801
 20
-13.3695912083
 30
0.0
 10
7.1047901459
 20
-13.3661044475
 30
0.0
 11
6.7621291116
 21
-13.158007945
 31
0.0
 11
6.766992832
 21
-13.1863862234
 31
0.0
 11
6.773708552
 21
-13.2134111858
 31
0.0
 11
6.7822410582
 21
-13.2389392977
 31
0.0
 11
6.7925460652
 21
-13.2628378035
 31
0.0
 11
6.8045702414
 21
-13.2849828833
 31
0.0
 11
6.8182512786
 21
-13.3052595931
 31
0.0
 11
6.8335182653
 21
-13.323562672
 31
0.0
 11
6.8502920408
 21
-13.3397970781
 31
0.0
 11
6.8684857094
 21
-13.3538785696
 31
0.0
 11
6.8880048872
 21
-13.365733962
 31
0.0
 11
6.9087483939
 21
-13.3753016819
 31
0.0
 11
6.930608582
 21
-13.3825319731
 31
0.0
 11
6.953472141
 21
-13.3873872591
 31
0.0
 11
6.9772204235
 21
-13.3898422481
 31
0.0
 11
7.0017301774
 21
-13.3898841237
 31
0.0
 11
7.026874173
 21
-13.3875126194
 31
0.0
 11
7.0525220966
 21
-13.3827399581
 31
0.0
 11
7.0785405256
 21
-13.3755909606
 31
0.0
 11
7.1047901459
 21
-13.3661044475
 31
0.0
  0
SPLINE
  5
2A7
100
AcDbEntity
  8
0
100
AcDbSpline
 62
253
  6
CONTINUOUS
 70
0
 71
3
 72
16
 73
12
 74
10
 42
0.0000001
 43
0.0000001
 44
0.0000000001
 12
0.0601822657
 22
-0.4514343891
 32
0.0
 13
0.374886556
 23
-0.2590342016
 33
0.0
 40
0.0
 40
0.0
 40
0.0
 40
0.0
 40
0.1262159384
 40
0.2481416421
 40
0.3658424431
 40
0.4794793895
 40
0.5893225707
 40
0.6957525652
 40
0.7992616344
 40
0.9004475236
 40
1.0
 40
1.0
 40
1.0
 40
1.0
 10
6.0715275676
 20
-13.2145251802
 30
0.0
 10
6.0740595546
 20
-13.2335179186
 30
0.0
 10
6.0802889472
 20
-13.2707064917
 30
0.0
 10
6.0934369693
 20
-13.3247180335
 30
0.0
 10
6.1101669355
 20
-13.3757325743
 30
0.0
 10
6.1303983541
 20
-13.423482886
 30
0.0
 10
6.1540340407
 20
-13.4677203062
 30
0.0
 10
6.1809593576
 20
-13.5082106329
 30
0.0
 10
6.2110415574
 20
-13.5447358286
 30
0.0
 10
6.2441287987
 20
-13.5770952123
 30
0.0
 10
6.268211061
 20
-13.5958757647
 30
0.0
 10
6.280651356
 20
-13.6044715968
 30
0.0
 11
6.0715275676
 21
-13.2145251802
 31
0.0
 11
6.0810922373
 21
-13.2712061533
 31
0.0
 11
6.0942972352
 21
-13.3251416022
 31
0.0
 11
6.1110744034
 21
-13.3760527472
 31
0.0
 11
6.1313366255
 21
-13.4236748521
 31
0.0
 11
6.1549790555
 21
-13.4677611902
 31
0.0
 11
6.181879176
 21
-13.5080829402
 31
0.0
 11
6.2118975624
 21
-13.5444307913
 31
0.0
 11
6.244878569
 21
-13.5766160091
 31
0.0
 11
6.280651356
 21
-13.6044715968
 31
0.0
  0
SPLINE
  5
2A8
100
AcDbEntity
  8
0
100
AcDbSpline
 62
253
  6
CONTINUOUS
 70
0
 71
3
 72
25
 73
21
 74
19
 42
0.0000001
 43
0.0000001
 44
0.0000000001
 12
-0.604709483
 22
-0.3899745273
 32
0.0
 13
-0.6450072096
 23
0.3189347744
 33
0.0
 40
0.0
 40
0.0
 40
0.0
 40
0.0
 40
0.0519489921
 40
0.1056337261
 40
0.1608610208
 40
0.2174103325
 40
0.2750390332
 40
0.3334872945
 40
0.392482682
 40
0.4517445493
 40
0.5109883064
 40
0.56992963
 40
0.6282886781
 40
0.6857943707
 40
0.7421888042
 40
0.7972318777
 40
0.8507062212
 40
0.9024225311
 40
0.9522254347
 40
1.0
 40
1.0
 40
1.0
 40
1.0
 10
6.7621291116
 20
-13.158007945
 30
0.0
 10
6.7516577622
 20
-13.1647608729
 30
0.0
 10
6.7298913577
 20
-13.1777693785
 30
0.0
 10
6.6955826971
 20
-13.1954677745
 30
0.0
 10
6.6592859748
 20
-13.2115696592
 30
0.0
 10
6.6212654275
 20
-13.2259577982
 30
0.0
 10
6.5817954206
 20
-13.2385287001
 30
0.0
 10
6.5411617283
 20
-13.2491913879
 30
0.0
 10
6.4996585099
 20
-13.257868724
 30
0.0
 10
6.4575863826
 20
-13.2644978637
 30
0.0
 10
6.4152501217
 20
-13.2690307887
 30
0.0
 10
6.3729564154
 20
-13.2714346581
 30
0.0
 10
6.3310115811
 20
-13.2716920487
 30
0.0
 10
6.2897192802
 20
-13.2698010544
 30
0.0
 10
6.2493782842
 20
-13.265775271
 30
0.0
 10
6.2102801488
 20
-13.2596435725
 30
0.0
 10
6.1727074214
 20
-13.2514499724
 30
0.0
 10
6.1369302455
 20
-13.2412524862
 30
0.0
 10
6.1032091171
 20
-13.2291248005
 30
0.0
 10
6.08179922
 20
-13.2196041661
 30
0.0
 10
6.0715275736
 20
-13.2145251761
 30
0.0
 11
6.7621291116
 21
-13.158007945
 31
0.0
 11
6.7300644108
 21
-13.1772203291
 31
0.0
 11
6.6957506634
 21
-13.1949617809
 31
0.0
 11
6.659437674
 21
-13.2111031424
 31
0.0
 11
6.6213898014
 21
-13.2255269044
 31
0.0
 11
6.5818840346
 21
-13.2381280617
 31
0.0
 11
6.5412079762
 21
-13.2488148776
 31
0.0
 11
6.4996577482
 21
-13.2575095521
 31
0.0
 11
6.4575358368
 21
-13.2641487879
 31
0.0
 11
6.4151488901
 21
-13.2686842511
 31
0.0
 11
6.3728054854
 21
-13.2710829237
 31
0.0
 11
6.3308138833
 21
-13.2713273431
 31
0.0
 11
6.2894797831
 21
-13.2694157302
 31
0.0
 11
6.2491040976
 21
-13.2653620013
 31
0.0
 11
6.2099807623
 21
-13.2591956677
 31
0.0
 11
6.1723945953
 21
-13.2509616204
 31
0.0
 11
6.1366192246
 21
-13.2407198034
 31
0.0
 11
6.1029150952
 21
-13.2285447772
 31
0.0
 11
6.0715275736
 21
-13.2145251761
 31
0.0
  0
SPLINE
  5
2A9
100
AcDbEntity
  8
0
100
AcDbSpline
 62
253
  6
CONTINUOUS
 70
0
 71
3
 72
16
 73
12
 74
10
 42
0.0000001
 43
0.0000001
 44
0.0000000001
 12
0.158196343
 22
-9.7777422745
 32
0.0
 13
1.3125357896
 23
-9.6905376461
 33
0.0
 40
0.0
 40
0.0
 40
0.0
 40
0.0
 40
0.1138478936
 40
0.2270231241
 40
0.3395199846
 40
0.4513332902
 40
0.562458351
 40
0.672890981
 40
0.7826274966
 40
0.891664726
 40
1.0
 40
1.0
 40
1.0
 40
1.0
 10
6.0420212948
 20
-3.4111881721
 30
0.0
 10
6.0480247349
 20
-3.7822466262
 30
0.0
 10
6.0645896006
 20
-4.522105436
 30
0.0
 10
6.1033011657
 20
-5.6281808984
 30
0.0
 10
6.1557958641
 20
-6.7270506461
 30
0.0
 10
6.2220626907
 20
-7.8184808817
 30
0.0
 10
6.3020878028
 20
-8.9022424881
 30
0.0
 10
6.3958544298
 20
-9.978106985
 30
0.0
 10
6.5033430475
 20
-11.0458486498
 30
0.0
 10
6.6245307584
 20
-12.1052398203
 30
0.0
 10
6.7147311368
 20
-12.8080655946
 30
0.0
 10
6.7621291116
 20
-13.158007945
 30
0.0
 11
6.0420212948
 21
-3.4111881721
 31
0.0
 11
6.0669825032
 21
-4.5242293648
 31
0.0
 11
6.1057355504
 21
-5.6302937418
 31
0.0
 11
6.1582722838
 21
-6.7291478231
 31
0.0
 11
6.2245816574
 21
-7.8205601147
 31
0.0
 11
6.3046497321
 21
-8.9043007843
 31
0.0
 11
6.398459683
 21
-9.9801416736
 31
0.0
 11
6.5059917928
 21
-11.0478562197
 31
0.0
 11
6.6272234483
 21
-12.1072194736
 31
0.0
 11
6.7621291116
 21
-13.158007945
 31
0.0
  0
SPLINE
  5
2AA
100
AcDbEntity
  8
0
100
AcDbSpline
 62
253
  6
CONTINUOUS
 70
0
 71
3
 72
16
 73
12
 74
10
 42
0.0000001
 43
0.0000001
 44
0.0000000001
 12
0.159049173
 22
-9.8322873465
 32
0.0
 13
1.3196312823
 23
-9.7446264363
 33
0.0
 40
0.0
 40
0.0
 40
0.0
 40
0.0
 40
0.113848609
 40
0.2270243491
 40
0.33952156
 40
0.4513350501
 40
0.562460123
 40
0.672892586
 40
0.7826287491
 40
0.8916654339
 40
1.0
 40
1.0
 40
1.0
 40
1.0
 10
5.3475325463
 20
-3.4133217723
 30
0.0
 10
5.3535683887
 20
-3.7864525182
 30
0.0
 10
5.370222665
 20
-4.5304426644
 30
0.0
 10
5.4091431927
 20
-5.6426937088
 30
0.0
 10
5.4619212497
 20
-6.7476973099
 30
0.0
 10
5.5285457735
 20
-7.8452185405
 30
0.0
 10
5.6090028479
 20
-8.9350270046
 30
0.0
 10
5.7032756116
 20
-10.0168929475
 30
0.0
 10
5.811344434
 20
-11.0905893875
 30
0.0
 10
5.9331863111
 20
-12.1558875088
 30
0.0
 10
6.0238736735
 20
-12.8626318878
 30
0.0
 10
6.0715275676
 20
-13.2145251802
 30
0.0
 11
5.3475325463
 21
-3.4133217723
 31
0.0
 11
5.3726285097
 21
-4.5325791408
 31
0.0
 11
5.4115907502
 21
-5.6448188956
 31
0.0
 11
5.4644110803
 21
-6.7498067756
 31
0.0
 11
5.5310783939
 21
-7.8473099947
 31
0.0
 11
5.6115786769
 21
-8.9370974379
 31
0.0
 11
5.7058950134
 21
-10.018939674
 31
0.0
 11
5.8140075799
 21
-11.0926088766
 31
0.0
 11
5.935893641
 21
-12.1578788422
 31
0.0
 11
6.0715275676
 21
-13.2145251802
 31
0.0
  0
SPLINE
  5
2AB
100
AcDbEntity
  8
0
100
AcDbSpline
 62
253
  6
CONTINUOUS
 70
0
 71
3
 72
25
 73
21
 74
19
 42
0.0000001
 43
0.0000001
 44
0.0000000001
 12
-0.6423647763
 22
-0.3139711931
 32
0.0
 13
-0.6397108624
 23
0.3193437466
 33
0.0
 40
0.0
 40
0.0
 40
0.0
 40
0.0
 40
0.0496825043
 40
0.1014998182
 40
0.1552483517
 40
0.2106923844
 40
0.2675699993
 40
0.3255983861
 40
0.3844786963
 40
0.4439005886
 40
0.5035465721
 40
0.5630962312
 40
0.6222304052
 40
0.6806353868
 40
0.7380072088
 40
0.7940560977
 40
0.8485111903
 40
0.9011256391
 40
0.9516822694
 40
1.0
 40
1.0
 40
1.0
 40
1.0
 10
6.0420212948
 20
-3.4111881721
 30
0.0
 10
6.0313831979
 20
-3.4163877972
 30
0.0
 10
6.0092882628
 20
-3.4262828894
 30
0.0
 10
5.9746559676
 20
-3.4393611514
 30
0.0
 10
5.9380428917
 20
-3.4509128793
 30
0.0
 10
5.8997150023
 20
-3.4608539068
 30
0.0
 10
5.8599485093
 20
-3.4691126486
 30
0.0
 10
5.8190311097
 20
-3.4756291989
 30
0.0
 10
5.7772588913
 20
-3.4803562999
 30
0.0
 10
5.7349343739
 20
-3.4832596213
 30
0.0
 10
5.6923641755
 20
-3.4843180779
 30
0.0
 10
5.6498567443
 20
-3.4835239908
 30
0.0
 10
5.6077200549
 20
-3.4808831501
 30
0.0
 10
5.566259307
 20
-3.4764147596
 30
0.0
 10
5.5257746672
 20
-3.4701512829
 30
0.0
 10
5.4865589392
 20
-3.4621381228
 30
0.0
 10
5.4488956528
 20
-3.4524333563
 30
0.0
 10
5.4130558964
 20
-3.4411066942
 30
0.0
 10
5.3792999322
 20
-3.4282405561
 30
0.0
 10
5.3578356721
 20
-3.418465094
 30
0.0
 10
5.3475325464
 20
-3.4133217723
 30
0.0
 11
6.0420212948
 21
-3.4111881721
 31
0.0
 11
6.0096218447
 21
-3.4257525977
 31
0.0
 11
5.974976907
 21
-3.4388806459
 31
0.0
 11
5.9383385713
 21
-3.4504767922
 31
0.0
 11
5.8999734319
 21
-3.4604566587
 31
0.0
 11
5.8601606479
 21
-3.468747628
 31
0.0
 11
5.8191899122
 21
-3.4752893721
 31
0.0
 11
5.7773593432
 21
-3.4800342906
 31
0.0
 11
5.7349733158
 21
-3.4829478578
 31
0.0
 11
5.6923402468
 21
-3.4840088735
 31
0.0
 11
5.6497703502
 21
-3.4832096174
 31
0.0
 11
5.6075733808
 21
-3.480555905
 31
0.0
 11
5.5660563795
 21
-3.4760670459
 31
0.0
 11
5.5255214396
 21
-3.4697757026
 31
0.0
 11
5.4862635085
 21
-3.4617276534
 31
0.0
 11
5.4485682417
 21
-3.4519814588
 31
0.0
 11
5.4127099242
 21
-3.4406080359
 31
0.0
 11
5.3789494745
 21
-3.4276901419
 31
0.0
 11
5.3475325464
 21
-3.4133217723
 31
0.0
  0
SPLINE
  5
2AC
100
AcDbEntity
  8
ASSI
100
AcDbSpline
 62
7
  6
CONTINUOUS
 70
0
 71
3
 72
16
 73
12
 74
10
 42
0.0000001
 43
0.0000001
 44
0.0000000001
 12
0.1696147045
 22
0.1209883165
 32
0.0
 13
0.1861936725
 23
-0.0930968362
 33
0.0
 40
0.0
 40
0.0
 40
0.0
 40
0.0
 40
0.0958690123
 40
0.1972796348
 40
0.3000767723
 40
0.4055993299
 40
0.5145435844
 40
0.6275877901
 40
0.7461181251
 40
0.8703585636
 40
1.0
 40
1.0
 40
1.0
 40
1.0
 10
-5.2457310227
 20
7.0112544507
 30
0.0
 10
-5.240310758
 20
7.0151207942
 30
0.0
 10
-5.2286257891
 20
7.0223347469
 30
0.0
 10
-5.2094896328
 20
7.0307232435
 30
0.0
 10
-5.1887113308
 20
7.0364874251
 30
0.0
 10
-5.1668246842
 20
7.0394124105
 30
0.0
 10
-5.1440390885
 20
7.0394758851
 30
0.0
 10
-5.1205219649
 20
7.0366948223
 30
0.0
 10
-5.0964280331
 20
7.0310921949
 30
0.0
 10
-5.071942793
 20
7.0227086342
 30
0.0
 10
-5.0558495111
 20
7.0154763209
 30
0.0
 10
-5.0478033727
 20
7.0114532517
 30
0.0
 11
-5.2457310227
 21
7.0112544507
 31
0.0
 11
-5.228742494
 21
7.0217308601
 31
0.0
 11
-5.2094111419
 21
7.0302139017
 31
0.0
 11
-5.1887977626
 21
7.0359603393
 31
0.0
 11
-5.167030287
 21
7.0389122599
 31
0.0
 11
-5.1443515642
 21
7.0390280637
 31
0.0
 11
-5.1209752301
 21
7.0363214087
 31
0.0
 11
-5.0969285296
 21
7.0307905717
 31
0.0
 11
-5.0724413097
 21
7.0224669215
 31
0.0
 11
-5.0478033727
 21
7.0114532517
 31
0.0
  0
SPLINE
  5
2AD
100
AcDbEntity
  8
ASSI
100
AcDbSpline
 62
7
  6
CONTINUOUS
 70
0
 71
3
 72
19
 73
15
 74
13
 42
0.0000001
 43
0.0000001
 44
0.0000000001
 12
0.0023233124
 22
-0.2723466015
 32
0.0
 13
-0.2595315173
 23
-0.0833125346
 33
0.0
 40
0.0
 40
0.0
 40
0.0
 40
0.0
 40
0.1085012282
 40
0.2129420887
 40
0.312754366
 40
0.4077593882
 40
0.4987226518
 40
0.5857825686
 40
0.6691038925
 40
0.7494370233
 40
0.8280230385
 40
0.9055121163
 40
0.9826399433
 40
1.0
 40
1.0
 40
1.0
 40
1.0
 10
1.1158819353
 20
2.3804162504
 30
0.0
 10
1.1159659627
 20
2.3705662702
 30
0.0
 10
1.1154603098
 20
2.351220483
 30
0.0
 10
1.1125496109
 20
2.3229474043
 30
0.0
 10
1.107523743
 20
2.2962129138
 30
0.0
 10
1.1004272026
 20
2.2712172915
 30
0.0
 10
1.0913060111
 20
2.2481212127
 30
0.0
 10
1.0802121403
 20
2.2270898976
 30
0.0
 10
1.0672413767
 20
2.2083152905
 30
0.0
 10
1.0524826904
 20
2.1919242838
 30
0.0
 10
1.03602681
 20
2.1780365532
 30
0.0
 10
1.0180062917
 20
2.1667842522
 30
0.0
 10
1.003659084
 20
2.1604902063
 30
0.0
 10
0.995526349
 20
2.157737126
 30
0.0
 10
0.9940245217
 20
2.1572550225
 30
0.0
 11
1.1158819353
 21
2.3804162504
 31
0.0
 11
1.1150674288
 21
2.3508764616
 31
0.0
 11
1.1121066593
 21
2.3225858216
 31
0.0
 11
1.1070319788
 21
2.2958791569
 31
0.0
 11
1.0999106321
 21
2.271003179
 31
0.0
 11
1.0907553614
 21
2.2479824545
 31
0.0
 11
1.0796403512
 21
2.2270376708
 31
0.0
 11
1.0666969066
 21
2.2083978141
 31
0.0
 11
1.0520236806
 21
2.1921682708
 31
0.0
 11
1.035647114
 21
2.1783873365
 31
0.0
 11
1.0177394946
 21
2.1672193634
 31
0.0
 11
0.9985063278
 21
2.1587725592
 31
0.0
 11
0.9940245217
 21
2.1572550225
 31
0.0
  0
SPLINE
  5
2AE
100
AcDbEntity
  8
ASSI
100
AcDbSpline
 62
7
  6
CONTINUOUS
 70
0
 71
3
 72
25
 73
21
 74
19
 42
0.0000001
 43
0.0000001
 44
0.0000000001
 12
0.524939942
 22
-0.262469971
 32
0.0
 13
0.0036518538
 23
-0.5868893357
 33
0.0
 40
0.0
 40
0.0
 40
0.0
 40
0.0
 40
0.0480002896
 40
0.0980777546
 40
0.1499276073
 40
0.2032806204
 40
0.2582997211
 40
0.3146977562
 40
0.3720294192
 40
0.4300903448
 40
0.4889371177
 40
0.5480921557
 40
0.6070668692
 40
0.6659068303
 40
0.7243887663
 40
0.7820262864
 40
0.838476684
 40
0.8938625151
 40
0.9478403938
 40
1.0
 40
1.0
 40
1.0
 40
1.0
 10
0.8229804766
 20
4.0760613271
 30
0.0
 10
0.8313795663
 20
4.0718617822
 30
0.0
 10
0.8481774054
 20
4.0625369954
 30
0.0
 10
0.8726576116
 20
4.0463341968
 30
0.0
 10
0.8967340294
 20
4.0277688227
 30
0.0
 10
0.9202308633
 20
4.0069897481
 30
0.0
 10
0.9429944868
 20
3.9841379668
 30
0.0
 10
0.9648577966
 20
3.9593769877
 30
0.0
 10
0.985627748
 20
3.9329325673
 30
0.0
 10
1.0051730134
 20
3.9049849457
 30
0.0
 10
1.0233639402
 20
3.8757170323
 30
0.0
 10
1.040051045
 20
3.8453625384
 30
0.0
 10
1.0551046762
 20
3.8141673768
 30
0.0
 10
1.0684281633
 20
3.7823373773
 30
0.0
 10
1.0799270482
 20
3.7500807171
 30
0.0
 10
1.0894949565
 20
3.7176859715
 30
0.0
 10
1.0970665544
 20
3.6853884274
 30
0.0
 10
1.1025890271
 20
3.6534024716
 30
0.0
 10
1.1060122102
 20
3.6219684427
 30
0.0
 10
1.1068893298
 20
3.6012035514
 30
0.0
 10
1.1069528229
 20
3.5909995792
 30
0.0
 11
0.8229804766
 21
4.0760613271
 31
0.0
 11
0.8476339357
 21
4.0624291987
 31
0.0
 11
0.8721657581
 21
4.0462430587
 31
0.0
 11
0.8962863163
 21
4.0276897014
 31
0.0
 11
0.9197633181
 21
4.0069694363
 31
0.0
 11
0.9425705306
 21
3.9841106634
 31
0.0
 11
0.9644946758
 21
3.9593125806
 31
0.0
 11
0.9852909666
 21
3.932860705
 31
0.0
 11
1.0048295506
 21
3.9049426579
 31
0.0
 11
1.0230670682
 21
3.8756132875
 31
0.0
 11
1.0397947308
 21
3.8451906961
 31
0.0
 11
1.0548360116
 21
3.8140174509
 31
0.0
 11
1.0681645168
 21
3.7821600526
 31
0.0
 11
1.0796797783
 21
3.7498262747
 31
0.0
 11
1.0892472672
 21
3.7173799658
 31
0.0
 11
1.0967900864
 21
3.6851192418
 31
0.0
 11
1.1022961821
 21
3.6530829837
 31
0.0
 11
1.1056958238
 21
3.6215862703
 31
0.0
 11
1.1069528229
 21
3.5909995792
 31
0.0
  0
SPLINE
  5
2AF
100
AcDbEntity
  8
ASSI
100
AcDbSpline
 62
253
  6
CONTINUOUS
 70
0
 71
3
 72
25
 73
21
 74
19
 42
0.0000001
 43
0.0000001
 44
0.0000000001
 12
-0.322542062
 22
-0.153715816
 32
0.0
 13
-0.3195783395
 23
0.1597861657
 33
0.0
 40
0.0
 40
0.0
 40
0.0
 40
0.0
 40
0.0494954376
 40
0.1011644218
 40
0.1547958882
 40
0.2101520197
 40
0.2669695962
 40
0.3249641445
 40
0.3838344909
 40
0.4432679998
 40
0.5029448047
 40
0.5625417143
 40
0.6217365154
 40
0.6802124479
 40
0.7376621202
 40
0.7937918312
 40
0.8483269394
 40
0.9010166122
 40
0.9516383009
 40
1.0
 40
1.0
 40
1.0
 40
1.0
 10
5.8041088039
 20
4.7417775398
 30
0.0
 10
5.7987873504
 20
4.7392414626
 30
0.0
 10
5.7877346811
 20
4.7344212116
 30
0.0
 10
5.7704169409
 20
4.7280704041
 30
0.0
 10
5.7521080429
 20
4.7224801645
 30
0.0
 10
5.7329417196
 20
4.7176916177
 30
0.0
 10
5.7130561434
 20
4.7137392339
 30
0.0
 10
5.6925951576
 20
4.7106517078
 30
0.0
 10
5.6717068456
 20
4.7084514415
 30
0.0
 10
5.6505425128
 20
4.7071544261
 30
0.0
 10
5.6292554908
 20
4.7067700864
 30
0.0
 10
5.6080000379
 20
4.7073012135
 30
0.0
 10
5.5869301761
 20
4.7087439377
 30
0.0
 10
5.5661985328
 20
4.7110877652
 30
0.0
 10
5.5459552336
 20
4.7143156575
 30
0.0
 10
5.5263467153
 20
4.7184042021
 30
0.0
 10
5.5075147324
 20
4.7233237386
 30
0.0
 10
5.4895949007
 20
4.7290389184
 30
0.0
 10
5.4727180134
 20
4.7355077691
 30
0.0
 10
5.4619854656
 20
4.7404096352
 30
0.0
 10
5.4568336817
 20
4.7429854787
 30
0.0
 11
5.8041088039
 21
4.7417775398
 31
0.0
 11
5.7879087009
 21
4.7346851033
 31
0.0
 11
5.770583549
 21
4.7283088877
 31
0.0
 11
5.7522615069
 21
4.7226962983
 31
0.0
 11
5.7330761575
 21
4.7178882844
 31
0.0
 11
5.7131670118
 21
4.7139197969
 31
0.0
 11
5.6926788817
 21
4.7108197096
 31
0.0
 11
5.6717609457
 21
4.7086105979
 31
0.0
 11
5.6505654217
 21
4.7073085342
 31
0.0
 11
5.6292464984
 21
4.7069229894
 31
0.0
 11
5.607959327
 21
4.70745677
 31
0.0
 11
5.5868588457
 21
4.7089059874
 31
0.0
 11
5.5660985515
 21
4.7112600959
 31
0.0
 11
5.5458295107
 21
4.7145019644
 31
0.0
 11
5.5261992989
 21
4.7186079823
 31
0.0
 11
5.5073506897
 21
4.7235482741
 31
0.0
 11
5.4894207385
 21
4.7292869253
 31
0.0
 11
5.4725401613
 21
4.7357820687
 31
0.0
 11
5.4568336817
 21
4.7429854787
 31
0.0
  0
SPLINE
  5
2B0
100
AcDbEntity
  8
ASSI
100
AcDbSpline
 62
253
  6
CONTINUOUS
 70
0
 71
3
 72
25
 73
21
 74
19
 42
0.0000001
 43
0.0000001
 44
0.0000000001
 12
-0.2109794759
 22
0.1054917212
 32
0.0
 13
0.2069226435
 23
0.1132424924
 33
0.0
 40
0.0
 40
0.0
 40
0.0
 40
0.0
 40
0.0696259316
 40
0.1354941003
 40
0.1975520195
 40
0.2558682771
 40
0.3106467485
 40
0.3622458225
 40
0.411194015
 40
0.4581922643
 40
0.5040904017
 40
0.549831955
 40
0.5963745027
 40
0.6446058402
 40
0.6952792112
 40
0.7489797848
 40
0.8061199722
 40
0.8669516448
 40
0.9315844569
 40
1.0
 40
1.0
 40
1.0
 40
1.0
 10
-9.3473133363
 20
12.1450589877
 30
0.0
 10
-9.3522098838
 20
12.1475073075
 30
0.0
 10
-9.3615836203
 20
12.1525929512
 30
0.0
 10
-9.3746449884
 20
12.1610299403
 30
0.0
 10
-9.3862360439
 20
12.1700124179
 30
0.0
 10
-9.3962716836
 20
12.1794792771
 30
0.0
 10
-9.404677867
 20
12.1893682597
 30
0.0
 10
-9.4113885591
 20
12.199614825
 30
0.0
 10
-9.4163450664
 20
12.2101503423
 30
0.0
 10
-9.4194968248
 20
12.2208985772
 30
0.0
 10
-9.420806088
 20
12.2317725579
 30
0.0
 10
-9.4202555037
 20
12.2426759334
 30
0.0
 10
-9.4178530229
 20
12.2535106075
 30
0.0
 10
-9.4136293158
 20
12.2641856434
 30
0.0
 10
-9.4076303594
 20
12.2746208679
 30
0.0
 10
-9.3999114287
 20
12.2847448201
 30
0.0
 10
-9.3905351867
 20
12.2944910164
 30
0.0
 10
-9.3795719425
 20
12.3037955518
 30
0.0
 10
-9.3671028478
 20
12.3125954169
 30
0.0
 10
-9.3580950632
 20
12.3179375036
 30
0.0
 10
-9.3533761548
 20
12.3205200192
 30
0.0
 11
-9.3473133363
 21
12.1450589877
 31
0.0
 11
-9.3617339004
 21
12.1529190996
 31
0.0
 11
-9.3747653277
 21
12.1613799584
 31
0.0
 11
-9.3863108678
 21
12.1703790529
 31
0.0
 11
-9.3962862896
 21
12.1798507766
 31
0.0
 11
-9.4046190744
 21
12.189726257
 31
0.0
 11
-9.4112485932
 21
12.1999336683
 31
0.0
 11
-9.4161265635
 21
12.210398692
 31
0.0
 11
-9.4192174879
 21
12.2210451774
 31
0.0
 11
-9.4204988746
 21
12.2317956759
 31
0.0
 11
-9.4199613904
 21
12.2425719402
 31
0.0
 11
-9.4176089479
 21
12.2532955447
 31
0.0
 11
-9.4134586585
 21
12.2638884797
 31
0.0
 11
-9.407540717
 21
12.2742736612
 31
0.0
 11
-9.3998982191
 21
12.2843754727
 31
0.0
 11
-9.3905867702
 21
12.2941204369
 31
0.0
 11
-9.3796740581
 21
12.3034376912
 31
0.0
 11
-9.3672397019
 21
12.3122593047
 31
0.0
 11
-9.3533761548
 21
12.3205200192
 31
0.0
  0
SPLINE
  5
2B1
100
AcDbEntity
  8
ASSI
100
AcDbSpline
 62
253
  6
CONTINUOUS
 70
0
 71
3
 72
14
 73
10
 74
8
 42
0.0000001
 43
0.0000001
 44
0.0000000001
 12
0.1079825595
 22
0.0590789721
 32
0.0
 13
0.1114448285
 23
-0.0519220795
 33
0.0
 40
0.0
 40
0.0
 40
0.0
 40
0.0
 40
0.1015894819
 40
0.2371899148
 40
0.3765345955
 40
0.5213745949
 40
0.6730463026
 40
0.8324372892
 40
1.0
 40
1.0
 40
1.0
 40
1.0
 10
-9.4718513038
 20
12.3241002446
 30
0.0
 10
-9.468194673
 20
12.3261008453
 30
0.0
 10
-9.4593617489
 20
12.3302327233
 30
0.0
 10
-9.4445155634
 20
12.3346859316
 30
0.0
 10
-9.4273945729
 20
12.336963924
 30
0.0
 10
-9.4094743971
 20
12.3366732001
 30
0.0
 10
-9.390954557
 20
12.3338322206
 30
0.0
 10
-9.3720372726
 20
12.3284858022
 30
0.0
 10
-9.3596008207
 20
12.3234200873
 30
0.0
 10
-9.3533761548
 20
12.3205200192
 30
0.0
 11
-9.4718513038
 21
12.3241002446
 31
0.0
 11
-9.4605330842
 21
12.3293968769
 31
0.0
 11
-9.4445724646
 21
12.3342136198
 31
0.0
 11
-9.4275961711
 21
12.3365177586
 31
0.0
 11
-9.4097901276
 21
12.3362840585
 31
0.0
 11
-9.3913493453
 21
12.3335150791
 31
0.0
 11
-9.3724757868
 21
12.328241146
 31
0.0
 11
-9.3533761548
 21
12.3205200192
 31
0.0
  0
SPLINE
  5
2B2
100
AcDbEntity
  8
ASSI
100
AcDbSpline
 62
253
  6
CONTINUOUS
 70
0
 71
3
 72
17
 73
13
 74
11
 42
0.0000001
 43
0.0000001
 44
0.0000000001
 12
0.0036245435
 22
-0.2417804499
 32
0.0
 13
0.2159671729
 23
-0.1081563275
 33
0.0
 40
0.0
 40
0.0
 40
0.0
 40
0.0
 40
0.0103943558
 40
0.1011450817
 40
0.1939167901
 40
0.2903486406
 40
0.3918036099
 40
0.4993198336
 40
0.613609753
 40
0.7350873348
 40
0.8639064209
 40
1.0
 40
1.0
 40
1.0
 40
1.0
 10
-9.6075129626
 20
4.1683994105
 30
0.0
 10
-9.6075004043
 20
4.1675616931
 30
0.0
 10
-9.6072997934
 20
4.1594112908
 30
0.0
 10
-9.6054469615
 20
4.1438361044
 30
0.0
 10
-9.5991447616
 20
4.1220962501
 30
0.0
 10
-9.589232722
 20
4.1008048158
 30
0.0
 10
-9.575811101
 20
4.0801169456
 30
0.0
 10
-9.5589972946
 20
4.0601723335
 30
0.0
 10
-9.5389238263
 20
4.041101926
 30
0.0
 10
-9.5157392312
 20
4.0230313137
 30
0.0
 10
-9.48961273
 20
4.0060828114
 30
0.0
 10
-9.4708568938
 20
3.9958807841
 30
0.0
 10
-9.4610596453
 20
3.9909743235
 30
0.0
 11
-9.6075129626
 21
4.1683994105
 31
0.0
 11
-9.6074510843
 21
4.165886792
 31
0.0
 11
-9.6048848284
 21
4.1441179719
 31
0.0
 11
-9.5986999234
 21
4.122580747
 31
0.0
 11
-9.5889413731
 21
4.1014318303
 31
0.0
 11
-9.5756801843
 21
4.0808251093
 31
0.0
 11
-9.5590128506
 21
4.0609105261
 31
0.0
 11
-9.5390606496
 21
4.0418329868
 31
0.0
 11
-9.515968761
 21
4.0237313067
 31
0.0
 11
-9.4899052102
 21
4.0067372004
 31
0.0
 11
-9.4610596453
 21
3.9909743235
 31
0.0
  0
SPLINE
  5
2B3
100
AcDbEntity
  8
ASSI
100
AcDbSpline
 62
253
  6
CONTINUOUS
 70
0
 71
3
 72
16
 73
12
 74
10
 42
0.0000001
 43
0.0000001
 44
0.0000000001
 12
0.0304865542
 22
-0.2365036487
 32
0.0
 13
0.2126255254
 23
-0.107487397
 33
0.0
 40
0.0
 40
0.0
 40
0.0
 40
0.0
 40
0.0405514404
 40
0.1465799212
 40
0.254581111
 40
0.3658241733
 40
0.4813822312
 40
0.6020957272
 40
0.7285625726
 40
0.8611471594
 40
1.0
 40
1.0
 40
1.0
 40
1.0
 10
-8.9320364397
 20
-5.6098622505
 30
0.0
 10
-8.9316243484
 20
-5.6130591051
 30
0.0
 10
-8.9298133067
 20
-5.6245731323
 30
0.0
 10
-8.9246591604
 20
-5.6441955281
 30
0.0
 10
-8.9145980714
 20
-5.6680777402
 30
0.0
 10
-8.9010347337
 20
-5.6910347787
 30
0.0
 10
-8.8840849512
 20
-5.7128999678
 30
0.0
 10
-8.8638851278
 20
-5.7335206238
 30
0.0
 10
-8.8405893102
 20
-5.7527560577
 30
0.0
 10
-8.814372462
 20
-5.7704741643
 30
0.0
 10
-8.7955022574
 20
-5.7809559005
 30
0.0
 10
-8.785661038
 20
-5.7859308773
 30
0.0
 11
-8.9320364397
 21
-5.6098622505
 31
0.0
 11
-8.9305337787
 21
-5.6194132966
 31
0.0
 11
-8.9241378291
 21
-5.6438514924
 31
0.0
 11
-8.9141886574
 21
-5.6675815157
 31
0.0
 11
-8.9007586938
 21
-5.6904306117
 31
0.0
 11
-8.8839457086
 21
-5.7122324388
 31
0.0
 11
-8.8638721004
 21
-5.7328282793
 31
0.0
 11
-8.8406840054
 21
-5.7520681953
 31
0.0
 11
-8.8145502332
 21
-5.76981212
 31
0.0
 11
-8.785661038
 21
-5.7859308773
 31
0.0
  0
SPLINE
  5
2B4
100
AcDbEntity
  8
ASSI
100
AcDbSpline
 62
253
  6
CONTINUOUS
 70
0
 71
3
 72
17
 73
13
 74
11
 42
0.0000001
 43
0.0000001
 44
0.0000000001
 12
-0.387332328
 22
0.2509619442
 32
0.0
 13
-0.0590280372
 23
0.4574610712
 33
0.0
 40
0.0
 40
0.0
 40
0.0
 40
0.0
 40
0.0274050924
 40
0.1227841769
 40
0.2200823729
 40
0.3200058309
 40
0.4231542594
 40
0.5300096108
 40
0.6409328132
 40
0.7561678119
 40
0.8758457552
 40
1.0
 40
1.0
 40
1.0
 40
1.0
 10
-8.5732200417
 20
-6.1793469816
 30
0.0
 10
-8.5767583344
 20
-6.1770544366
 30
0.0
 10
-8.5924343979
 20
-6.1665104662
 30
0.0
 10
-8.6190449446
 20
-6.1454848745
 30
0.0
 10
-8.6509955053
 20
-6.1136806021
 30
0.0
 10
-8.6800393791
 20
-6.0776632921
 30
0.0
 10
-8.70603191
 20
-6.0376314657
 30
0.0
 10
-8.7288466972
 20
-5.9938004465
 30
0.0
 10
-8.7483743792
 20
-5.946401547
 30
0.0
 10
-8.7645218574
 20
-5.8956807507
 30
0.0
 10
-8.7772118819
 20
-5.8419027839
 30
0.0
 10
-8.7832181776
 20
-5.8048627887
 30
0.0
 10
-8.785661038
 20
-5.7859308774
 30
0.0
 11
-8.5732200417
 21
-6.1793469816
 31
0.0
 11
-8.5837146946
 21
-6.1722885715
 31
0.0
 11
-8.6182597038
 21
-6.1450468727
 31
0.0
 11
-8.6501087511
 21
-6.1134276346
 31
0.0
 11
-8.6790968598
 21
-6.0775949223
 31
0.0
 11
-8.7050737275
 21
-6.0377347987
 31
0.0
 11
-8.7279047117
 21
-5.9940541835
 31
0.0
 11
-8.7474715074
 21
-5.9467797918
 31
0.0
 11
-8.7636728505
 21
-5.8961565594
 31
0.0
 11
-8.7764246461
 21
-5.8424477116
 31
0.0
 11
-8.785661038
 21
-5.7859308774
 31
0.0
  0
SPLINE
  5
2B5
100
AcDbEntity
  8
ASSI
100
AcDbSpline
 62
7
  6
CONTINUOUS
 70
0
 71
3
 72
14
 73
10
 74
8
 42
0.0000001
 43
0.0000001
 44
0.0000000001
 12
-0.1542207444
 22
-0.0495065927
 32
0.0
 13
-0.1447556237
 23
0.0723778119
 33
0.0
 40
0.0
 40
0.0
 40
0.0
 40
0.0
 40
0.1023849299
 40
0.2375219642
 40
0.3771078483
 40
0.5220284168
 40
0.6740709424
 40
0.8335264796
 40
1.0
 40
1.0
 40
1.0
 40
1.0
 10
0.9940245217
 20
2.1572550225
 30
0.0
 10
0.9887612284
 20
2.1555654462
 30
0.0
 10
0.9763339152
 20
2.1523215055
 30
0.0
 10
0.9561070051
 20
2.1496290264
 30
0.0
 10
0.933408993
 20
2.1495814804
 30
0.0
 10
0.9099716063
 20
2.1523700146
 30
0.0
 10
0.8859471594
 20
2.1579718917
 30
0.0
 10
0.8615191251
 20
2.1663471379
 30
0.0
 10
0.8454581415
 20
2.1735679215
 30
0.0
 10
0.8374254821
 20
2.1775842512
 30
0.0
 11
0.9940245217
 21
2.1572550225
 31
0.0
 11
0.9779894374
 21
2.1530564607
 31
0.0
 11
0.9563155906
 21
2.1501278728
 31
0.0
 11
0.9337249967
 21
2.1500272997
 31
0.0
 11
0.9104282989
 21
2.1527407854
 31
0.0
 11
0.8864508389
 21
2.1582704416
 31
0.0
 11
0.8620205715
 21
2.1665855116
 31
0.0
 11
0.8374254821
 21
2.1775842512
 31
0.0
  0
SPLINE
  5
2B6
100
AcDbEntity
  8
ASSI
100
AcDbSpline
 62
7
  6
CONTINUOUS
 70
0
 71
3
 72
25
 73
21
 74
19
 42
0.0000001
 43
0.0000001
 44
0.0000000001
 12
-0.5245274405
 22
0.2622637203
 32
0.0
 13
-0.0050025686
 23
0.5864181692
 33
0.0
 40
0.0
 40
0.0
 40
0.0
 40
0.0
 40
0.0479689405
 40
0.0980125495
 40
0.1498255404
 40
0.2031382304
 40
0.2581145878
 40
0.3144706373
 40
0.3717636343
 40
0.4297891306
 40
0.4886088045
 40
0.5477482898
 40
0.6067200463
 40
0.6655679539
 40
0.7240731896
 40
0.7817494485
 40
0.8382510683
 40
0.8937000221
 40
0.9477535516
 40
1.0
 40
1.0
 40
1.0
 40
1.0
 10
-5.0342457478
 20
5.1134198662
 30
0.0
 10
-5.0426327563
 20
5.1176133704
 30
0.0
 10
-5.0594074737
 20
5.1269220364
 30
0.0
 10
-5.0838587305
 20
5.1430902351
 30
0.0
 10
-5.1079121416
 20
5.1616104175
 30
0.0
 10
-5.1313930442
 20
5.1823346097
 30
0.0
 10
-5.1541491284
 20
5.2051233512
 30
0.0
 10
-5.1760146088
 20
5.2298153668
 30
0.0
 10
-5.1967970681
 20
5.2561872935
 30
0.0
 10
-5.2163656742
 20
5.2840615509
 30
0.0
 10
-5.2345909546
 20
5.3132580748
 30
0.0
 10
-5.2513231974
 20
5.3435463526
 30
0.0
 10
-5.2664314802
 20
5.3746824768
 30
0.0
 10
-5.2798178828
 20
5.4064626042
 30
0.0
 10
-5.2913864312
 20
5.4386802654
 30
0.0
 10
-5.3010287681
 20
5.4710483349
 30
0.0
 10
-5.3086773606
 20
5.5033317051
 30
0.0
 10
-5.3142773607
 20
5.5353160152
 30
0.0
 10
-5.3177765675
 20
5.5667610868
 30
0.0
 10
-5.3187026513
 20
5.5875393493
 30
0.0
 10
-5.3187897735
 20
5.5977521048
 30
0.0
 11
-5.0342457478
 21
5.1134198662
 31
0.0
 11
-5.0588657453
 21
5.1270287689
 31
0.0
 11
-5.0833687446
 21
5.143180601
 31
0.0
 11
-5.1074663859
 21
5.1616890623
 31
0.0
 11
-5.1309272837
 21
5.1823546307
 31
0.0
 11
-5.1537264889
 21
5.205150106
 31
0.0
 11
-5.1756524573
 21
5.2298789488
 31
0.0
 11
-5.1964612278
 21
5.2562584788
 31
0.0
 11
-5.2160224991
 21
5.2841025379
 31
0.0
 11
-5.2342940863
 21
5.3133599744
 31
0.0
 11
-5.2510668647
 21
5.3437161326
 31
0.0
 11
-5.2661628753
 21
5.374830756
 31
0.0
 11
-5.279553991
 21
5.4066375013
 31
0.0
 11
-5.2911390505
 21
5.4389321992
 31
0.0
 11
-5.3007812278
 21
5.4713523599
 31
0.0
 11
-5.3084009763
 21
5.503599115
 31
0.0
 11
-5.3139846779
 21
5.5356335854
 31
0.0
 11
-5.3174604957
 21
5.5671415721
 31
0.0
 11
-5.3187897735
 21
5.5977521048
 31
0.0
  0
SPLINE
  5
2B7
100
AcDbEntity
  8
ASSI
100
AcDbSpline
 62
7
  6
CONTINUOUS
 70
0
 71
3
 72
16
 73
12
 74
10
 42
0.0000001
 43
0.0000001
 44
0.0000000001
 12
-0.0013169092
 22
0.211640437
 32
0.0
 13
0.1590675193
 23
0.1398736643
 33
0.0
 40
0.0
 40
0.0
 40
0.0
 40
0.0
 40
0.1395272774
 40
0.2739201021
 40
0.402445843
 40
0.5248674379
 40
0.6421671143
 40
0.7545208464
 40
0.8621290013
 40
0.9659378976
 40
1.0
 40
1.0
 40
1.0
 40
1.0
 10
-5.3277188859
 20
6.8083354336
 30
0.0
 10
-5.3277801341
 20
6.8181786382
 30
0.0
 10
-5.3272280267
 20
6.8375157537
 30
0.0
 10
-5.324244687
 20
6.8657796108
 30
0.0
 10
-5.3191436285
 20
6.8925169993
 30
0.0
 10
-5.311968883
 20
6.9175261658
 30
0.0
 10
-5.3027660552
 20
6.9406450258
 30
0.0
 10
-5.2915867972
 20
6.961706801
 30
0.0
 10
-5.2785271339
 20
6.9805172786
 30
0.0
 10
-5.2668806627
 20
6.9934023517
 30
0.0
 10
-5.2597185931
 20
6.9999990599
 30
0.0
 10
-5.257912535
 20
7.0015871903
 30
0.0
 11
-5.3277188859
 21
6.8083354336
 31
0.0
 11
-5.3268340744
 21
6.8378523604
 31
0.0
 11
-5.3238010553
 21
6.8661336948
 31
0.0
 11
-5.3186516929
 21
6.8928436253
 31
0.0
 11
-5.3114530088
 21
6.9177333795
 31
0.0
 11
-5.302216885
 21
6.9407771665
 31
0.0
 11
-5.2910169268
 21
6.9617534462
 31
0.0
 11
-5.2779845914
 21
6.9804308172
 31
0.0
 11
-5.2632195823
 21
6.9967004556
 31
0.0
 11
-5.257912535
 21
7.0015871903
 31
0.0
  0
SPLINE
  5
2B8
100
AcDbEntity
  8
ASSI
100
AcDbSpline
 62
253
  6
CONTINUOUS
 70
0
 71
3
 72
16
 73
12
 74
10
 42
0.0000001
 43
0.0000001
 44
0.0000000001
 12
-1.2344583664
 22
9.7271614722
 32
0.0
 13
-0.1480278181
 23
9.8040627053
 33
0.0
 40
0.0
 40
0.0
 40
0.0
 40
0.0
 40
0.1080730282
 40
0.216918925
 40
0.3265327533
 40
0.4369090339
 40
0.5480417747
 40
0.6599244812
 40
0.7725501569
 40
0.8859113138
 40
1.0
 40
1.0
 40
1.0
 40
1.0
 10
-8.785661038
 20
-5.7859308774
 30
0.0
 10
-8.8301315893
 20
-5.4355162786
 30
0.0
 10
-8.9147563758
 20
-4.7315845172
 30
0.0
 10
-9.0284140583
 20
-3.670388349
 30
0.0
 10
-9.1292235465
 20
-2.6003318516
 30
0.0
 10
-9.217163408
 20
-1.5216427527
 30
0.0
 10
-9.2922153092
 20
-0.4345474403
 30
0.0
 10
-9.3543635126
 20
0.6607249562
 30
0.0
 10
-9.4035950232
 20
1.7639444403
 30
0.0
 10
-9.4398995143
 20
2.8748767619
 30
0.0
 10
-9.4554302122
 20
3.6181301123
 30
0.0
 10
-9.4610596453
 20
3.9909743235
 30
0.0
 11
-8.785661038
 21
-5.7859308774
 31
0.0
 11
-8.9121908655
 21
-4.733836589
 31
0.0
 11
-9.0258956197
 21
-3.6726572769
 31
0.0
 11
-9.1267513917
 21
-2.6026164714
 31
0.0
 11
-9.2147369723
 21
-1.5239396132
 31
0.0
 11
-9.2898338686
 21
-0.4368538634
 31
0.0
 11
-9.3520263001
 21
0.6584119147
 31
0.0
 11
-9.4013011934
 21
1.7616270762
 31
0.0
 11
-9.4376481877
 21
2.872559208
 31
0.0
 11
-9.4610596453
 21
3.9909743235
 31
0.0
  0
SPLINE
  5
2B9
100
AcDbEntity
  8
ASSI
100
AcDbSpline
 62
253
  6
CONTINUOUS
 70
0
 71
3
 72
17
 73
13
 74
11
 42
0.0000001
 43
0.0000001
 44
0.0000000001
 12
-0.2159827681
 22
0.1079954703
 32
0.0
 13
-0.0005697064
 23
0.2417616987
 33
0.0
 40
0.0
 40
0.0
 40
0.0
 40
0.0
 40
0.13603101
 40
0.2646719717
 40
0.3858331644
 40
0.499640539
 40
0.6064857625
 40
0.7070633195
 40
0.8024026324
 40
0.8938741356
 40
0.9831446548
 40
1.0
 40
1.0
 40
1.0
 40
1.0
 10
-9.5225460331
 20
11.8407709985
 30
0.0
 10
-9.5323394845
 20
11.8456679095
 30
0.0
 10
-9.5510856083
 20
11.8558349005
 30
0.0
 10
-9.577208432
 20
11.8726908928
 30
0.0
 10
-9.6003894286
 20
11.8906245434
 30
0.0
 10
-9.6204599128
 20
11.9095145808
 30
0.0
 10
-9.6372719206
 20
11.9292368677
 30
0.0
 10
-9.6506936103
 20
11.949662925
 30
0.0
 10
-9.6606076483
 20
11.9706563688
 30
0.0
 10
-9.6669126364
 20
11.9920657394
 30
0.0
 10
-9.6688322897
 20
12.0079312726
 30
0.0
 10
-9.6689903207
 20
12.016483208
 30
0.0
 10
-9.6689935216
 20
12.0178415336
 30
0.0
 11
-9.5225460331
 21
11.8407709985
 31
0.0
 11
-9.5513907002
 21
11.8564874873
 31
0.0
 11
-9.5774530088
 21
11.8733908905
 31
0.0
 11
-9.6005436923
 21
11.8913585369
 31
0.0
 11
-9.6204941388
 21
11.9102592816
 31
0.0
 11
-9.6371593486
 21
11.9299557287
 31
0.0
 11
-9.6504180734
 21
11.9503046131
 31
0.0
 11
-9.6601737605
 21
11.9711577804
 31
0.0
 11
-9.6663554273
 21
11.9923634886
 31
0.0
 11
-9.6689181015
 21
12.0137674793
 31
0.0
 11
-9.6689935216
 21
12.0178415336
 31
0.0
  0
LINE
  5
2BA
100
AcDbEntity
  8
ASSI
100
AcDbLine
 62
7
  6
CONTINUOUS
 10
-5.3187897735
 20
5.5977521048
 11
-5.3202882864
 21
5.7770098496
  0
LINE
  5
2BB
100
AcDbEntity
  8
ASSI
100
AcDbLine
 62
7
  6
CONTINUOUS
 10
-5.3202882864
 20
5.7770098496
 11
-5.3206533635
 21
5.8218286876
  0
LINE
  5
2BC
100
AcDbEntity
  8
ASSI
100
AcDbLine
 62
7
  6
CONTINUOUS
 10
-5.3206533635
 20
5.8218286876
 11
-5.3234365036
 21
6.1804498478
  0
LINE
  5
2BD
100
AcDbEntity
  8
ASSI
100
AcDbLine
 62
7
  6
CONTINUOUS
 10
-5.3234365036
 20
6.1804498478
 11
-5.3237672114
 21
6.2252862902
  0
LINE
  5
2BE
100
AcDbEntity
  8
ASSI
100
AcDbLine
 62
7
  6
CONTINUOUS
 10
-5.3237672114
 20
6.2252862902
 11
-5.3262753957
 21
6.584047987
  0
LINE
  5
2BF
100
AcDbEntity
  8
ASSI
100
AcDbLine
 62
7
  6
CONTINUOUS
 10
-5.3262753957
 20
6.584047987
 11
-5.3265717338
 21
6.62890196
  0
LINE
  5
2C0
100
AcDbEntity
  8
ASSI
100
AcDbLine
 62
7
  6
CONTINUOUS
 10
-5.3265717338
 20
6.62890196
 11
-5.3277188859
 21
6.8083354336
  0
SPLINE
  5
2C1
100
AcDbEntity
  8
ASSI
100
AcDbSpline
 62
253
  6
CONTINUOUS
 70
0
 71
3
 72
18
 73
14
 74
12
 42
0.0000001
 43
0.0000001
 44
0.0000000001
 12
-0.0146251891
 22
-0.3374729221
 32
0.0
 13
-0.3134234949
 23
-0.1267203006
 33
0.0
 40
0.0
 40
0.0
 40
0.0
 40
0.0
 40
0.11202914
 40
0.220003865
 40
0.3237389448
 40
0.4231623526
 40
0.5183318675
 40
0.6094511725
 40
0.696883202
 40
0.7811571033
 40
0.8629639376
 40
0.9431361493
 40
1.0
 40
1.0
 40
1.0
 40
1.0
 10
7.1047901459
 20
-13.3661044475
 30
0.0
 10
7.1042439968
 20
-13.3787067145
 30
0.0
 10
7.1023356502
 20
-13.4034292835
 30
0.0
 10
7.0968604232
 20
-13.439502063
 30
0.0
 10
7.0888606967
 20
-13.4736504227
 30
0.0
 10
7.0783923498
 20
-13.5056160257
 30
0.0
 10
7.0655279547
 20
-13.5351587843
 30
0.0
 10
7.0503563675
 20
-13.5620540553
 30
0.0
 10
7.0329827309
 20
-13.5860937376
 30
0.0
 10
7.0135295325
 20
-13.6070863038
 30
0.0
 10
6.9921387358
 20
-13.6248581064
 30
0.0
 10
6.9711431209
 20
-13.6379085388
 30
0.0
 10
6.9571189982
 20
-13.644421667
 30
0.0
 10
6.951178176
 20
-13.6468236018
 30
0.0
 11
7.1047901459
 21
-13.3661044475
 31
0.0
 11
7.101830511
 21
-13.4038308214
 31
0.0
 11
7.0963041668
 21
-13.4398824631
 31
0.0
 11
7.0882530744
 21
-13.473985635
 31
0.0
 11
7.0777383651
 21
-13.5058813944
 31
0.0
 11
7.0648398763
 21
-13.535327559
 31
0.0
 11
7.0496555454
 21
-13.5621005463
 31
0.0
 11
7.0323006657
 21
-13.585997071
 31
0.0
 11
7.0129070117
 21
-13.6068356885
 31
0.0
 11
6.9916218379
 21
-13.6244581727
 31
0.0
 11
6.9686067611
 21
-13.6387307175
 31
0.0
 11
6.951178176
 21
-13.6468236018
 31
0.0
  0
SPLINE
  5
2C2
100
AcDbEntity
  8
ASSI
100
AcDbSpline
 62
253
  6
CONTINUOUS
 70
0
 71
3
 72
26
 73
22
 74
20
 42
0.0000001
 43
0.0000001
 44
0.0000000001
 12
0.0639075782
 22
-0.4718179908
 32
0.0
 13
0.4414253651
 23
0.1784377821
 33
0.0
 40
0.0
 40
0.0
 40
0.0
 40
0.0
 40
0.0604714473
 40
0.1189577881
 40
0.1754896565
 40
0.2301507618
 40
0.2830756018
 40
0.3344495457
 40
0.3845087349
 40
0.4335365193
 40
0.4818566178
 40
0.5298216896
 40
0.5777998971
 40
0.6261586397
 40
0.6752493941
 40
0.7253932963
 40
0.7768707761
 40
0.8299146356
 40
0.8847072271
 40
0.9413785448
 40
1.0
 40
1.0
 40
1.0
 40
1.0
 10
6.7621291116
 20
-13.158007945
 30
0.0
 10
6.7634173061
 20
-13.1675184506
 30
0.0
 10
6.7665876084
 20
-13.1861490518
 30
0.0
 10
6.7732758362
 20
-13.2132125165
 30
0.0
 10
6.7817864542
 20
-13.2387937359
 30
0.0
 10
6.7920781802
 20
-13.2627571809
 30
0.0
 10
6.8041013366
 20
-13.2849778729
 30
0.0
 10
6.8177972922
 20
-13.3053380017
 30
0.0
 10
6.8330980889
 20
-13.3237279022
 30
0.0
 10
6.8499260433
 20
-13.3400467115
 30
0.0
 10
6.8681933837
 20
-13.3542035384
 30
0.0
 10
6.8878023737
 20
-13.3661190318
 30
0.0
 10
6.9086460441
 20
-13.3757269779
 30
0.0
 10
6.9306097835
 20
-13.3829756107
 30
0.0
 10
6.95357316
 20
-13.3878280835
 30
0.0
 10
6.9774117233
 20
-13.390262214
 30
0.0
 10
7.0019983022
 20
-13.3902696659
 30
0.0
 10
7.0272037006
 20
-13.387855136
 30
0.0
 10
7.0528975664
 20
-13.3830352357
 30
0.0
 10
7.0789445228
 20
-13.375839713
 30
0.0
 10
7.0961644801
 20
-13.3695912083
 30
0.0
 10
7.1047901459
 20
-13.3661044475
 30
0.0
 11
6.7621291116
 21
-13.158007945
 31
0.0
 11
6.766992832
 21
-13.1863862234
 31
0.0
 11
6.773708552
 21
-13.2134111858
 31
0.0
 11
6.7822410582
 21
-13.2389392977
 31
0.0
 11
6.7925460652
 21
-13.2628378035
 31
0.0
 11
6.8045702414
 21
-13.2849828833
 31
0.0
 11
6.8182512786
 21
-13.3052595931
 31
0.0
 11
6.8335182653
 21
-13.323562672
 31
0.0
 11
6.8502920408
 21
-13.3397970781
 31
0.0
 11
6.8684857094
 21
-13.3538785696
 31
0.0
 11
6.8880048872
 21
-13.365733962
 31
0.0
 11
6.9087483939
 21
-13.3753016819
 31
0.0
 11
6.930608582
 21
-13.3825319731
 31
0.0
 11
6.953472141
 21
-13.3873872591
 31
0.0
 11
6.9772204235
 21
-13.3898422481
 31
0.0
 11
7.0017301774
 21
-13.3898841237
 31
0.0
 11
7.026874173
 21
-13.3875126194
 31
0.0
 11
7.0525220966
 21
-13.3827399581
 31
0.0
 11
7.0785405256
 21
-13.3755909606
 31
0.0
 11
7.1047901459
 21
-13.3661044475
 31
0.0
  0
SPLINE
  5
2C3
100
AcDbEntity
  8
ASSI
100
AcDbSpline
 62
253
  6
CONTINUOUS
 70
0
 71
3
 72
18
 73
14
 74
12
 42
0.0000001
 43
0.0000001
 44
0.0000000001
 12
0.0672629585
 22
-0.5045475144
 32
0.0
 13
0.45473559
 23
-0.229335339
 33
0.0
 40
0.0
 40
0.0
 40
0.0
 40
0.0
 40
0.1129293346
 40
0.2220200623
 40
0.3273306381
 40
0.4290051563
 40
0.5272852747
 40
0.6225115084
 40
0.7151242992
 40
0.8056584685
 40
0.8947311725
 40
0.9830205113
 40
1.0
 40
1.0
 40
1.0
 40
1.0
 10
6.0715275676
 20
-13.2145251802
 30
0.0
 10
6.0740595546
 20
-13.2335179186
 30
0.0
 10
6.0802889472
 20
-13.2707064917
 30
0.0
 10
6.0934369693
 20
-13.3247180335
 30
0.0
 10
6.1101669355
 20
-13.3757325743
 30
0.0
 10
6.1303983541
 20
-13.423482886
 30
0.0
 10
6.1540340407
 20
-13.4677203062
 30
0.0
 10
6.1809593576
 20
-13.5082106329
 30
0.0
 10
6.2110415574
 20
-13.5447358286
 30
0.0
 10
6.2441287987
 20
-13.5770952123
 30
0.0
 10
6.2800491771
 20
-13.6051077197
 30
0.0
 10
6.3082669326
 20
-13.6223095141
 30
0.0
 10
6.3241337305
 20
-13.6305345549
 30
0.0
 10
6.3267074565
 20
-13.6318325538
 30
0.0
 11
6.0715275676
 21
-13.2145251802
 31
0.0
 11
6.0810922373
 21
-13.2712061533
 31
0.0
 11
6.0942972352
 21
-13.3251416022
 31
0.0
 11
6.1110744034
 21
-13.3760527472
 31
0.0
 11
6.1313366255
 21
-13.4236748521
 31
0.0
 11
6.1549790555
 21
-13.4677611902
 31
0.0
 11
6.181879176
 21
-13.5080829402
 31
0.0
 11
6.2118975624
 21
-13.5444307913
 31
0.0
 11
6.244878569
 21
-13.5766160091
 31
0.0
 11
6.280651356
 21
-13.6044715968
 31
0.0
 11
6.3190303585
 21
-13.6278527883
 31
0.0
 11
6.3267074565
 21
-13.6318325538
 31
0.0
  0
SPLINE
  5
2C4
100
AcDbEntity
  8
ASSI
100
AcDbSpline
 62
253
  6
CONTINUOUS
 70
0
 71
3
 72
25
 73
21
 74
19
 42
0.0000001
 43
0.0000001
 44
0.0000000001
 12
-0.604709483
 22
-0.3899745273
 32
0.0
 13
-0.6450072096
 23
0.3189347744
 33
0.0
 40
0.0
 40
0.0
 40
0.0
 40
0.0
 40
0.0519489921
 40
0.1056337261
 40
0.1608610208
 40
0.2174103325
 40
0.2750390332
 40
0.3334872945
 40
0.392482682
 40
0.4517445493
 40
0.5109883064
 40
0.56992963
 40
0.6282886781
 40
0.6857943707
 40
0.7421888042
 40
0.7972318777
 40
0.8507062212
 40
0.9024225311
 40
0.9522254347
 40
1.0
 40
1.0
 40
1.0
 40
1.0
 10
6.7621291116
 20
-13.158007945
 30
0.0
 10
6.7516577622
 20
-13.1647608729
 30
0.0
 10
6.7298913577
 20
-13.1777693785
 30
0.0
 10
6.6955826971
 20
-13.1954677745
 30
0.0
 10
6.6592859748
 20
-13.2115696592
 30
0.0
 10
6.6212654275
 20
-13.2259577982
 30
0.0
 10
6.5817954206
 20
-13.2385287001
 30
0.0
 10
6.5411617283
 20
-13.2491913879
 30
0.0
 10
6.4996585099
 20
-13.257868724
 30
0.0
 10
6.4575863826
 20
-13.2644978637
 30
0.0
 10
6.4152501217
 20
-13.2690307887
 30
0.0
 10
6.3729564154
 20
-13.2714346581
 30
0.0
 10
6.3310115811
 20
-13.2716920487
 30
0.0
 10
6.2897192802
 20
-13.2698010544
 30
0.0
 10
6.2493782842
 20
-13.265775271
 30
0.0
 10
6.2102801488
 20
-13.2596435725
 30
0.0
 10
6.1727074214
 20
-13.2514499724
 30
0.0
 10
6.1369302455
 20
-13.2412524862
 30
0.0
 10
6.1032091171
 20
-13.2291248005
 30
0.0
 10
6.08179922
 20
-13.2196041661
 30
0.0
 10
6.0715275736
 20
-13.2145251761
 30
0.0
 11
6.7621291116
 21
-13.158007945
 31
0.0
 11
6.7300644108
 21
-13.1772203291
 31
0.0
 11
6.6957506634
 21
-13.1949617809
 31
0.0
 11
6.659437674
 21
-13.2111031424
 31
0.0
 11
6.6213898014
 21
-13.2255269044
 31
0.0
 11
6.5818840346
 21
-13.2381280617
 31
0.0
 11
6.5412079762
 21
-13.2488148776
 31
0.0
 11
6.4996577482
 21
-13.2575095521
 31
0.0
 11
6.4575358368
 21
-13.2641487879
 31
0.0
 11
6.4151488901
 21
-13.2686842511
 31
0.0
 11
6.3728054854
 21
-13.2710829237
 31
0.0
 11
6.3308138833
 21
-13.2713273431
 31
0.0
 11
6.2894797831
 21
-13.2694157302
 31
0.0
 11
6.2491040976
 21
-13.2653620013
 31
0.0
 11
6.2099807623
 21
-13.2591956677
 31
0.0
 11
6.1723945953
 21
-13.2509616204
 31
0.0
 11
6.1366192246
 21
-13.2407198034
 31
0.0
 11
6.1029150952
 21
-13.2285447772
 31
0.0
 11
6.0715275736
 21
-13.2145251761
 31
0.0
  0
SPLINE
  5
2C5
100
AcDbEntity
  8
ASSI
100
AcDbSpline
 62
253
  6
CONTINUOUS
 70
0
 71
3
 72
10
 73
6
 74
4
 42
0.0000001
 43
0.0000001
 44
0.0000000001
 12
0.0500555655
 22
-3.093816266
 32
0.0
 13
0.1594497296
 23
-3.0901317943
 33
0.0
 40
0.0
 40
0.0
 40
0.0
 40
0.0
 40
0.3598065517
 40
0.7174872089
 40
1.0
 40
1.0
 40
1.0
 40
1.0
 10
6.0420212948
 20
-3.4111881721
 30
0.0
 10
6.0480247349
 20
-3.7822466262
 30
0.0
 10
6.0645896006
 20
-4.522105436
 30
0.0
 10
6.1006666757
 20
-5.5529076626
 30
0.0
 10
6.1313138723
 20
-6.2125093509
 30
0.0
 10
6.1463294017
 20
-6.5035099368
 30
0.0
 11
6.0420212948
 21
-3.4111881721
 31
0.0
 11
6.0669825032
 21
-4.5242293648
 31
0.0
 11
6.1057355504
 21
-5.6302937418
 31
0.0
 11
6.1463294017
 21
-6.5035099368
 31
0.0
  0
SPLINE
  5
2C6
100
AcDbEntity
  8
ASSI
100
AcDbSpline
 62
253
  6
CONTINUOUS
 70
0
 71
3
 72
14
 73
10
 74
8
 42
0.0000001
 43
0.0000001
 44
0.0000000001
 12
0.344477533
 22
-6.6759660218
 32
0.0
 13
0.8972308591
 23
-6.6243141608
 33
0.0
 40
0.0
 40
0.0
 40
0.0
 40
0.0
 40
0.033800889
 40
0.1973696782
 40
0.3599316521
 40
0.5214806867
 40
0.6820113937
 40
0.841519133
 40
1.0
 40
1.0
 40
1.0
 40
1.0
 10
6.1463294017
 20
-6.5035099368
 30
0.0
 10
6.1502106173
 20
-6.5787277989
 30
0.0
 10
6.1734554922
 20
-7.0179088779
 30
0.0
 10
6.2220626907
 20
-7.8184808817
 30
0.0
 10
6.3020878028
 20
-8.9022424881
 30
0.0
 10
6.3958544298
 20
-9.978106985
 30
0.0
 10
6.5033430475
 20
-11.0458486498
 30
0.0
 10
6.6245307584
 20
-12.1052398203
 30
0.0
 10
6.7147311368
 20
-12.8080655946
 30
0.0
 10
6.7621291116
 20
-13.158007945
 30
0.0
 11
6.1463294017
 21
-6.5035099368
 31
0.0
 11
6.1582722838
 21
-6.7291478231
 31
0.0
 11
6.2245816574
 21
-7.8205601147
 31
0.0
 11
6.3046497321
 21
-8.9043007843
 31
0.0
 11
6.398459683
 21
-9.9801416736
 31
0.0
 11
6.5059917928
 21
-11.0478562197
 31
0.0
 11
6.6272234483
 21
-12.1072194736
 31
0.0
 11
6.7621291116
 21
-13.158007945
 31
0.0
  0
SPLINE
  5
2C7
100
AcDbEntity
  8
ASSI
100
AcDbSpline
 62
253
  6
CONTINUOUS
 70
0
 71
3
 72
16
 73
12
 74
10
 42
0.0000001
 43
0.0000001
 44
0.0000000001
 12
0.159049173
 22
-9.8322873465
 32
0.0
 13
1.3196312823
 23
-9.7446264363
 33
0.0
 40
0.0
 40
0.0
 40
0.0
 40
0.0
 40
0.113848609
 40
0.2270243491
 40
0.33952156
 40
0.4513350501
 40
0.562460123
 40
0.672892586
 40
0.7826287491
 40
0.8916654339
 40
1.0
 40
1.0
 40
1.0
 40
1.0
 10
5.3475325463
 20
-3.4133217723
 30
0.0
 10
5.3535683887
 20
-3.7864525182
 30
0.0
 10
5.370222665
 20
-4.5304426644
 30
0.0
 10
5.4091431927
 20
-5.6426937088
 30
0.0
 10
5.4619212497
 20
-6.7476973099
 30
0.0
 10
5.5285457735
 20
-7.8452185405
 30
0.0
 10
5.6090028479
 20
-8.9350270046
 30
0.0
 10
5.7032756116
 20
-10.0168929475
 30
0.0
 10
5.811344434
 20
-11.0905893875
 30
0.0
 10
5.9331863111
 20
-12.1558875088
 30
0.0
 10
6.0238736735
 20
-12.8626318878
 30
0.0
 10
6.0715275676
 20
-13.2145251802
 30
0.0
 11
5.3475325463
 21
-3.4133217723
 31
0.0
 11
5.3726285097
 21
-4.5325791408
 31
0.0
 11
5.4115907502
 21
-5.6448188956
 31
0.0
 11
5.4644110803
 21
-6.7498067756
 31
0.0
 11
5.5310783939
 21
-7.8473099947
 31
0.0
 11
5.6115786769
 21
-8.9370974379
 31
0.0
 11
5.7058950134
 21
-10.018939674
 31
0.0
 11
5.8140075799
 21
-11.0926088766
 31
0.0
 11
5.935893641
 21
-12.1578788422
 31
0.0
 11
6.0715275676
 21
-13.2145251802
 31
0.0
  0
SPLINE
  5
2C8
100
AcDbEntity
  8
ASSI
100
AcDbSpline
 62
253
  6
CONTINUOUS
 70
0
 71
3
 72
25
 73
21
 74
19
 42
0.0000001
 43
0.0000001
 44
0.0000000001
 12
-0.6423647763
 22
-0.3139711931
 32
0.0
 13
-0.6397108624
 23
0.3193437466
 33
0.0
 40
0.0
 40
0.0
 40
0.0
 40
0.0
 40
0.0496825043
 40
0.1014998182
 40
0.1552483517
 40
0.2106923844
 40
0.2675699993
 40
0.3255983861
 40
0.3844786963
 40
0.4439005886
 40
0.5035465721
 40
0.5630962312
 40
0.6222304052
 40
0.6806353868
 40
0.7380072088
 40
0.7940560977
 40
0.8485111903
 40
0.9011256391
 40
0.9516822694
 40
1.0
 40
1.0
 40
1.0
 40
1.0
 10
6.0420212948
 20
-3.4111881721
 30
0.0
 10
6.0313831979
 20
-3.4163877972
 30
0.0
 10
6.0092882628
 20
-3.4262828894
 30
0.0
 10
5.9746559676
 20
-3.4393611514
 30
0.0
 10
5.9380428917
 20
-3.4509128793
 30
0.0
 10
5.8997150023
 20
-3.4608539068
 30
0.0
 10
5.8599485093
 20
-3.4691126486
 30
0.0
 10
5.8190311097
 20
-3.4756291989
 30
0.0
 10
5.7772588913
 20
-3.4803562999
 30
0.0
 10
5.7349343739
 20
-3.4832596213
 30
0.0
 10
5.6923641755
 20
-3.4843180779
 30
0.0
 10
5.6498567443
 20
-3.4835239908
 30
0.0
 10
5.6077200549
 20
-3.4808831501
 30
0.0
 10
5.566259307
 20
-3.4764147596
 30
0.0
 10
5.5257746672
 20
-3.4701512829
 30
0.0
 10
5.4865589392
 20
-3.4621381228
 30
0.0
 10
5.4488956528
 20
-3.4524333563
 30
0.0
 10
5.4130558964
 20
-3.4411066942
 30
0.0
 10
5.3792999322
 20
-3.4282405561
 30
0.0
 10
5.3578356721
 20
-3.418465094
 30
0.0
 10
5.3475325464
 20
-3.4133217723
 30
0.0
 11
6.0420212948
 21
-3.4111881721
 31
0.0
 11
6.0096218447
 21
-3.4257525977
 31
0.0
 11
5.974976907
 21
-3.4388806459
 31
0.0
 11
5.9383385713
 21
-3.4504767922
 31
0.0
 11
5.8999734319
 21
-3.4604566587
 31
0.0
 11
5.8601606479
 21
-3.468747628
 31
0.0
 11
5.8191899122
 21
-3.4752893721
 31
0.0
 11
5.7773593432
 21
-3.4800342906
 31
0.0
 11
5.7349733158
 21
-3.4829478578
 31
0.0
 11
5.6923402468
 21
-3.4840088735
 31
0.0
 11
5.6497703502
 21
-3.4832096174
 31
0.0
 11
5.6075733808
 21
-3.480555905
 31
0.0
 11
5.5660563795
 21
-3.4760670459
 31
0.0
 11
5.5255214396
 21
-3.4697757026
 31
0.0
 11
5.4862635085
 21
-3.4617276534
 31
0.0
 11
5.4485682417
 21
-3.4519814588
 31
0.0
 11
5.4127099242
 21
-3.4406080359
 31
0.0
 11
5.3789494745
 21
-3.4276901419
 31
0.0
 11
5.3475325464
 21
-3.4133217723
 31
0.0
  0
SPLINE
  5
2C9
100
AcDbEntity
  8
ASSI
100
AcDbSpline
 62
253
  6
CONTINUOUS
 70
0
 71
3
 72
25
 73
21
 74
19
 42
0.0000001
 43
0.0000001
 44
0.0000000001
 12
-0.6460963923
 22
-0.3048847509
 32
0.0
 13
-0.6390010858
 23
0.3194884534
 33
0.0
 40
0.0
 40
0.0
 40
0.0
 40
0.0
 40
0.0494328262
 40
0.1010447089
 40
0.1546315361
 40
0.2099543778
 40
0.2667494203
 40
0.3247313615
 40
0.3835981563
 40
0.4430362134
 40
0.5027246367
 40
0.5623391465
 40
0.6215564156
 40
0.6800584166
 40
0.7375363898
 40
0.7936951737
 40
0.8482585284
 40
0.9009740369
 40
0.9516168911
 40
1.0
 40
1.0
 40
1.0
 40
1.0
 10
5.9761524446
 20
4.434632206
 30
0.0
 10
5.9655063211
 20
4.4296084344
 30
0.0
 10
5.9433962204
 20
4.4200656994
 30
0.0
 10
5.908759621
 20
4.4075083477
 30
0.0
 10
5.8721422999
 20
4.3964700581
 30
0.0
 10
5.8338101498
 20
4.3870313953
 30
0.0
 10
5.794039585
 20
4.3792603697
 30
0.0
 10
5.7531182674
 20
4.3732133892
 30
0.0
 10
5.7113423631
 20
4.3689343393
 30
0.0
 10
5.6690144777
 20
4.3664543229
 30
0.0
 10
5.6264412655
 20
4.3657913637
 30
0.0
 10
5.5839312164
 20
4.3669502777
 30
0.0
 10
5.5417923464
 20
4.3699226273
 30
0.0
 10
5.5003298894
 20
4.3746867989
 30
0.0
 10
5.4598440947
 20
4.3812081657
 30
0.0
 10
5.4206278418
 20
4.3894394165
 30
0.0
 10
5.3829646297
 20
4.3993208588
 30
0.0
 10
5.3471257611
 20
4.4107813953
 30
0.0
 10
5.3133713959
 20
4.423737521
 30
0.0
 10
5.2919040161
 20
4.4335461689
 30
0.0
 10
5.2815983964
 20
4.4386987838
 30
0.0
 11
5.9761524446
 21
4.434632206
 31
0.0
 11
5.9437477757
 21
4.4205914979
 31
0.0
 11
5.9090976663
 21
4.4079838061
 31
0.0
 11
5.8724535849
 21
4.3969006745
 31
0.0
 11
5.834083035
 21
4.387423058
 31
0.0
 11
5.794264951
 21
4.3796198303
 31
0.0
 11
5.7532889743
 21
4.3735477657
 31
0.0
 11
5.7114534521
 21
4.3692510782
 31
0.0
 11
5.6690628141
 21
4.3667610246
 31
0.0
 11
5.6264254295
 21
4.3660957139
 31
0.0
 11
5.5838515764
 21
4.3672599868
 31
0.0
 11
5.5416510682
 21
4.370245366
 31
0.0
 11
5.5001308844
 21
4.3750301342
 31
0.0
 11
5.4595931515
 21
4.3815794787
 31
0.0
 11
5.4203330109
 21
4.3898457068
 31
0.0
 11
5.3826360241
 21
4.3997686787
 31
0.0
 11
5.3467762234
 21
4.4112762744
 31
0.0
 11
5.3130153435
 21
4.4242844655
 31
0.0
 11
5.2815983964
 21
4.4386987838
 31
0.0
  0
SPLINE
  5
2CA
100
AcDbEntity
  8
ASSI
100
AcDbSpline
 62
253
  6
CONTINUOUS
 70
0
 71
3
 72
22
 73
18
 74
16
 42
0.0000001
 43
0.0000001
 44
0.0000000001
 12
-0.0002381892
 22
0.366577057
 32
0.0
 13
0.3264689291
 23
0.1667238248
 33
0.0
 40
0.0
 40
0.0
 40
0.0
 40
0.0
 40
0.0627686184
 40
0.1278905402
 40
0.1950351199
 40
0.2638167614
 40
0.333808161
 40
0.4045526051
 40
0.4755756292
 40
0.5463963039
 40
0.6165383904
 40
0.68554159
 40
0.7529731272
 40
0.8184399262
 40
0.8816016825
 40
0.9421851581
 40
1.0
 40
1.0
 40
1.0
 40
1.0
 10
-9.5225473277
 20
11.840771646
 30
0.0
 10
-9.5225523113
 20
11.8484414911
 30
0.0
 10
-9.5218850905
 20
11.8640752452
 30
0.0
 10
-9.5190058407
 20
11.8877539027
 30
0.0
 10
-9.5142601423
 20
11.9118792539
 30
0.0
 10
-9.5076994275
 20
11.9361903063
 30
0.0
 10
-9.4993944422
 20
11.9604266624
 30
0.0
 10
-9.4894346282
 20
11.9843275555
 30
0.0
 10
-9.4779272117
 20
12.0076358712
 30
0.0
 10
-9.4649960525
 20
12.0301007278
 30
0.0
 10
-9.4507802599
 20
12.0514803574
 30
0.0
 10
-9.4354326391
 20
12.0715447433
 30
0.0
 10
-9.419117815
 20
12.0900781935
 30
0.0
 10
-9.4020106542
 20
12.1068814611
 30
0.0
 10
-9.3842928299
 20
12.1217744596
 30
0.0
 10
-9.3661552744
 20
12.1345955966
 30
0.0
 10
-9.3536049195
 20
12.1418459505
 30
0.0
 10
-9.3473133363
 20
12.1450589877
 30
0.0
 11
-9.5225473277
 21
11.840771646
 31
0.0
 11
-9.5216032985
 21
11.8637618124
 31
0.0
 11
-9.5187521974
 21
11.8874631523
 31
0.0
 11
-9.5140249473
 21
11.9116186018
 31
0.0
 11
-9.5074728199
 21
11.9359661721
 31
0.0
 11
-9.499166879
 21
11.9602417906
 31
0.0
 11
-9.4891972107
 21
11.9841821651
 31
0.0
 11
-9.4776719454
 21
12.0075276396
 31
0.0
 11
-9.4647160857
 21
12.0300250102
 31
0.0
 11
-9.4504701501
 21
12.0514302714
 31
0.0
 11
-9.4350886495
 21
12.0715112629
 31
0.0
 11
-9.4187384108
 21
12.0900501873
 31
0.0
 11
-9.401596768
 21
12.1068459724
 31
0.0
 11
-9.3838496384
 21
12.121716452
 31
0.0
 11
-9.3656895065
 21
12.1345003415
 31
0.0
 11
-9.3473133363
 21
12.1450589877
 31
0.0
  0
SPLINE
  5
2CB
100
AcDbEntity
  8
ASSI
100
AcDbSpline
 62
253
  6
CONTINUOUS
 70
0
 71
3
 72
22
 73
18
 74
16
 42
0.0000001
 43
0.0000001
 44
0.0000000001
 12
-0.000238189
 22
0.366577057
 32
0.0
 13
0.326468929
 23
0.166723825
 33
0.0
 40
0.0
 40
0.0
 40
0.0
 40
0.0
 40
0.0627686171
 40
0.1278905369
 40
0.1950351148
 40
0.2638167547
 40
0.3338081528
 40
0.4045525959
 40
0.4755756192
 40
0.5463962937
 40
0.6165383804
 40
0.6855415807
 40
0.7529731191
 40
0.8184399196
 40
0.8816016779
 40
0.9421851557
 40
1.0
 40
1.0
 40
1.0
 40
1.0
 10
5.2815996903
 20
4.4386981369
 30
0.0
 10
5.2815947067
 20
4.4463679819
 30
0.0
 10
5.2822619275
 20
4.4620017356
 30
0.0
 10
5.2851411771
 20
4.4856803925
 30
0.0
 10
5.2898868754
 20
4.5098057431
 30
0.0
 10
5.2964475899
 20
4.534116795
 30
0.0
 10
5.3047525749
 20
4.5583531506
 30
0.0
 10
5.3147123885
 20
4.5822540434
 30
0.0
 10
5.3262198047
 20
4.6055623589
 30
0.0
 10
5.3391509636
 20
4.6280272156
 30
0.0
 10
5.3533667561
 20
4.6494068454
 30
0.0
 10
5.3687143769
 20
4.6694712317
 30
0.0
 10
5.385029201
 20
4.6880046823
 30
0.0
 10
5.4021363621
 20
4.7048079505
 30
0.0
 10
5.4198541868
 20
4.7197009495
 30
0.0
 10
5.4379917429
 20
4.7325220871
 30
0.0
 10
5.4505420983
 20
4.7397724414
 30
0.0
 10
5.4568336817
 20
4.7429854787
 30
0.0
 11
5.2815996903
 21
4.4386981369
 31
0.0
 11
5.2825437195
 21
4.4616883029
 31
0.0
 11
5.2853948205
 21
4.4853896421
 31
0.0
 11
5.2901220703
 21
4.5095450909
 31
0.0
 11
5.2966741975
 21
4.5338926606
 31
0.0
 11
5.304980138
 21
4.5581682787
 31
0.0
 11
5.314949806
 21
4.582108653
 31
0.0
 11
5.326475071
 21
4.6054541273
 31
0.0
 11
5.3394309304
 21
4.6279514979
 31
0.0
 11
5.3536768658
 21
4.6493567593
 31
0.0
 11
5.3690583664
 21
4.6694377512
 31
0.0
 11
5.3854086052
 21
4.6879766761
 31
0.0
 11
5.4025502483
 21
4.7047724618
 31
0.0
 11
5.4202973783
 21
4.7196429419
 31
0.0
 11
5.4384575108
 21
4.732426832
 31
0.0
 11
5.4568336817
 21
4.7429854787
 31
0.0
  0
SPLINE
  5
2CC
100
AcDbEntity
  8
ASSI
100
AcDbSpline
 62
253
  6
CONTINUOUS
 70
0
 71
3
 72
22
 73
18
 74
16
 42
0.0000001
 43
0.0000001
 44
0.0000000001
 12
-0.0027087752
 22
0.3665121304
 32
0.0
 13
-0.322967055
 23
0.1732938562
 33
0.0
 40
0.0
 40
0.0
 40
0.0
 40
0.0
 40
0.0629566414
 40
0.1283834588
 40
0.195913743
 40
0.2651259748
 40
0.3355575138
 40
0.4067172398
 40
0.4780975125
 40
0.5491857568
 40
0.6194759385
 40
0.6884801858
 40
0.7557408241
 40
0.8208431402
 40
0.8834292511
 40
0.9432135227
 40
1.0
 40
1.0
 40
1.0
 40
1.0
 10
5.976151042
 20
4.4346315441
 30
0.0
 10
5.9760941969
 20
4.4423230017
 30
0.0
 10
5.9753196574
 20
4.4580084404
 30
0.0
 10
5.9723366419
 20
4.4817773161
 30
0.0
 10
5.9675410926
 20
4.5060271401
 30
0.0
 10
5.9609853248
 20
4.530493098
 30
0.0
 10
5.9527406027
 20
4.5549104211
 30
0.0
 10
5.9428965361
 20
4.5790137389
 30
0.0
 10
5.9315601309
 20
4.6025411367
 30
0.0
 10
5.9188546212
 20
4.6252368434
 30
0.0
 10
5.9049180666
 20
4.6468541997
 30
0.0
 10
5.8899017846
 20
4.6671583864
 30
0.0
 10
5.8739684532
 20
4.6859290941
 30
0.0
 10
5.8572905155
 20
4.7029627189
 30
0.0
 10
5.8400466834
 20
4.7180752066
 30
0.0
 10
5.8224243719
 20
4.7311012882
 30
0.0
 10
5.810222191
 20
4.7384972906
 30
0.0
 10
5.8041088039
 20
4.7417775398
 30
0.0
 11
5.976151042
 21
4.4346315441
 31
0.0
 11
5.975050743
 21
4.457680299
 31
0.0
 11
5.9720951886
 21
4.4814778448
 31
0.0
 11
5.9673167482
 21
4.5057635515
 31
0.0
 11
5.9607677549
 21
4.5302714429
 31
0.0
 11
5.9525199332
 21
4.5547331094
 31
0.0
 11
5.9426636131
 21
4.5788806475
 31
0.0
 11
5.9313067406
 21
4.6024495943
 31
0.0
 11
5.9185736958
 21
4.6251818235
 31
0.0
 11
5.9046039307
 21
4.6468283725
 31
0.0
 11
5.8895504417
 21
4.6671521691
 31
0.0
 11
5.873578094
 21
4.6859306278
 31
0.0
 11
5.8568618163
 21
4.7029580877
 31
0.0
 11
5.8395846847
 21
4.7180480647
 31
0.0
 11
5.8219359177
 21
4.7310352939
 31
0.0
 11
5.8041088039
 21
4.7417775398
 31
0.0
  0
SPLINE
  5
2CD
100
AcDbEntity
  8
CURVE
100
AcDbSpline
 62
253
  6
CONTINUOUS
 70
0
 71
3
 72
10
 73
6
 74
4
 42
0.0000001
 43
0.0000001
 44
0.0000000001
 12
-0.0555772137
 22
1.2274050667
 32
0.0
 13
-0.2317059
 23
1.3145845356
 33
0.0
 40
0.0
 40
0.0
 40
0.0
 40
0.0
 40
0.3333333333
 40
0.6666666667
 40
1.0
 40
1.0
 40
1.0
 40
1.0
 10
-0.5900574588
 20
-2.9628126928
 30
0.0
 10
-0.5962327048
 20
-2.8264343521
 30
0.0
 10
-0.6151037484
 20
-2.5502504182
 30
0.0
 10
-0.6630055503
 20
-2.1246132104
 30
0.0
 10
-0.7079096485
 20
-1.8355257859
 30
0.0
 10
-0.7336547485
 20
-1.6894608375
 30
0.0
 11
-0.5900574588
 21
-2.9628126928
 31
0.0
 11
-0.6183696211
 21
-2.548356867
 31
0.0
 11
-0.6662479412
 21
-2.1232808889
 31
0.0
 11
-0.7336547485
 21
-1.6894608375
 31
0.0
  0
SPLINE
  5
2CE
100
AcDbEntity
  8
CURVE
100
AcDbSpline
 62
253
  6
CONTINUOUS
 70
0
 71
3
 72
9
 73
5
 74
3
 42
0.0000001
 43
0.0000001
 44
0.0000000001
 12
0.0893943864
 22
-0.0134502083
 32
0.0
 13
0.0889958301
 23
-0.0286874113
 33
0.0
 40
0.0
 40
0.0
 40
0.0
 40
0.0
 40
0.5
 40
1.0
 40
1.0
 40
1.0
 40
1.0
 10
-2.5288365097
 20
-0.20559226
 30
0.0
 10
-2.5139374453
 20
-0.2078339614
 30
0.0
 10
-2.4841608607
 20
-0.2136342575
 30
0.0
 10
-2.4544578517
 20
-0.2219563778
 30
0.0
 10
-2.4396252133
 20
-0.226737613
 30
0.0
 11
-2.5288365097
 21
-0.20559226
 31
0.0
 11
-2.4841792546
 21
-0.2142647136
 31
0.0
 11
-2.4396252133
 21
-0.226737613
 31
0.0
  0
SPLINE
  5
2CF
100
AcDbEntity
  8
CURVE
100
AcDbSpline
 62
253
  6
CONTINUOUS
 70
0
 71
3
 72
14
 73
10
 74
8
 42
0.0000001
 43
0.0000001
 44
0.0000000001
 12
0.8702886239
 22
-0.5904337347
 32
0.0
 13
0.1978978681
 23
-1.1199308302
 33
0.0
 40
0.0
 40
0.0
 40
0.0
 40
0.0
 40
0.1428571429
 40
0.2857142857
 40
0.4285714286
 40
0.5714285714
 40
0.7142857143
 40
0.8571428571
 40
1.0
 40
1.0
 40
1.0
 40
1.0
 10
-1.6151434185
 20
-0.6389785105
 30
0.0
 10
-1.5737011031
 20
-0.6670944026
 30
0.0
 10
-1.4931179078
 20
-0.730597572
 30
0.0
 10
-1.3771801752
 20
-0.848372233
 30
0.0
 10
-1.2716897121
 20
-0.9840854985
 30
0.0
 10
-1.1792174857
 20
-1.1335878379
 30
0.0
 10
-1.1026514229
 20
-1.2919965412
 30
0.0
 10
-1.0443238476
 20
-1.4550965481
 30
0.0
 10
-1.0188199194
 20
-1.5619295309
 30
0.0
 10
-1.0093962114
 20
-1.6152595704
 30
0.0
 11
-1.6151434185
 21
-0.6389785105
 31
0.0
 11
-1.4939407512
 21
-0.7343508898
 31
0.0
 11
-1.3789213868
 21
-0.8513620004
 31
0.0
 11
-1.2738594182
 21
-0.9863836775
 31
0.0
 11
-1.181868513
 21
-1.1350722319
 31
0.0
 11
-1.1056911708
 21
-1.2927784251
 31
0.0
 11
-1.0476691281
 21
-1.4546214593
 31
0.0
 11
-1.0093962114
 21
-1.6152595704
 31
0.0
  0
SPLINE
  5
2D0
100
AcDbEntity
  8
CURVE
100
AcDbSpline
 62
253
  6
CONTINUOUS
 70
0
 71
3
 72
10
 73
6
 74
4
 42
0.0000001
 43
0.0000001
 44
0.0000000001
 12
0.7118690086
 22
-0.2437548284
 32
0.0
 13
0.7044725923
 23
-0.4620876901
 33
0.0
 40
0.0
 40
0.0
 40
0.0
 40
0.0
 40
0.3333333333
 40
0.6666666667
 40
1.0
 40
1.0
 40
1.0
 40
1.0
 10
-2.3831493534
 20
-0.245502281
 30
0.0
 10
-2.3040527969
 20
-0.2725861508
 30
0.0
 10
-2.1458974038
 20
-0.3351533134
 30
0.0
 10
-1.9075521946
 20
-0.4547012093
 30
0.0
 10
-1.7505232149
 20
-0.5496096398
 30
0.0
 10
-1.6722484824
 20
-0.6009527164
 30
0.0
 11
-2.3831493534
 21
-0.245502281
 31
0.0
 11
-2.1457120505
 21
-0.3394361721
 31
0.0
 11
-1.9080191512
 21
-0.4585036676
 31
0.0
 11
-1.6722484824
 21
-0.6009527164
 31
0.0
  0
SPLINE
  5
2D1
100
AcDbEntity
  8
CURVE
100
AcDbSpline
 62
253
  6
CONTINUOUS
 70
0
 71
3
 72
14
 73
10
 74
8
 42
0.0000001
 43
0.0000001
 44
0.0000000001
 12
0.1206742535
 22
0.8585283405
 32
0.0
 13
0.7514397619
 23
-0.1128789302
 33
0.0
 40
0.0
 40
0.0
 40
0.0
 40
0.0
 40
0.1428571429
 40
0.2857142857
 40
0.4285714286
 40
0.5714285714
 40
0.7142857143
 40
0.8571428571
 40
1.0
 40
1.0
 40
1.0
 40
1.0
 10
-3.009503867
 20
-0.6253308058
 30
0.0
 10
-3.003757474
 20
-0.5844485039
 30
0.0
 10
-2.9864053188
 20
-0.5080627779
 30
0.0
 10
-2.9436734357
 20
-0.4075603447
 30
0.0
 10
-2.8857716449
 20
-0.324431951
 30
0.0
 10
-2.8135259861
 20
-0.2607355512
 30
0.0
 10
-2.7287677631
 20
-0.2183166314
 30
0.0
 10
-2.6331813681
 20
-0.1980296543
 30
0.0
 10
-2.5646193555
 20
-0.2002170729
 30
0.0
 10
-2.5288365097
 20
-0.20559226
 30
0.0
 11
-3.009503867
 21
-0.6253308058
 31
0.0
 11
-2.9836213771
 21
-0.5104088038
 31
0.0
 11
-2.9411451177
 21
-0.4104560179
 31
0.0
 11
-2.8833810002
 21
-0.3276706167
 31
0.0
 11
-2.8114405587
 21
-0.2642817979
 31
0.0
 11
-2.7269630678
 21
-0.2220052885
 31
0.0
 11
-2.6319719308
 21
-0.2019576718
 31
0.0
 11
-2.5288365097
 21
-0.20559226
 31
0.0
  0
SPLINE
  5
2D2
100
AcDbEntity
  8
CURVE
100
AcDbSpline
 62
253
  6
CONTINUOUS
 70
0
 71
3
 72
10
 73
6
 74
4
 42
0.0000001
 43
0.0000001
 44
0.0000000001
 12
-0.0250665181
 22
1.0233870875
 32
0.0
 13
0.130628002
 23
0.9420653929
 33
0.0
 40
0.0
 40
0.0
 40
0.0
 40
0.0
 40
0.3333333333
 40
0.6666666667
 40
1.0
 40
1.0
 40
1.0
 40
1.0
 10
-3.0622519858
 20
-1.6096831561
 30
0.0
 10
-3.0650371545
 20
-1.4959734797
 30
0.0
 10
-3.0648391095
 20
-1.2714313505
 30
0.0
 10
-3.0472609188
 20
-0.9425194182
 30
0.0
 10
-3.0240180895
 20
-0.7300047383
 30
0.0
 10
-3.009503867
 20
-0.6253308058
 30
0.0
 11
-3.0622519858
 21
-1.6096831561
 31
0.0
 11
-3.0619589223
 21
-1.2727482274
 31
0.0
 11
-3.0443799099
 21
-0.9442094036
 31
0.0
 11
-3.009503867
 21
-0.6253308058
 31
0.0
  0
SPLINE
  5
2D3
100
AcDbEntity
  8
CURVE
100
AcDbSpline
 62
253
  6
CONTINUOUS
 70
0
 71
3
 72
10
 73
6
 74
4
 42
0.0000001
 43
0.0000001
 44
0.0000000001
 12
-0.2496579462
 22
1.2321562966
 32
0.0
 13
-0.0524975775
 23
1.1610555269
 33
0.0
 40
0.0
 40
0.0
 40
0.0
 40
0.0
 40
0.3333333333
 40
0.6666666667
 40
1.0
 40
1.0
 40
1.0
 40
1.0
 10
-2.9072011459
 20
-2.9274517242
 30
0.0
 10
-2.9349409177
 20
-2.790545469
 30
0.0
 10
-2.9830662251
 20
-2.5192137531
 30
0.0
 10
-3.0334708432
 20
-2.1185300002
 30
0.0
 10
-3.0524322674
 20
-1.8577149261
 30
0.0
 10
-3.0582653315
 20
-1.7287087565
 30
0.0
 11
-2.9072011459
 21
-2.9274517242
 31
0.0
 11
-2.9794356679
 21
-2.5202660566
 31
0.0
 11
-3.0298104296
 21
-2.1201068572
 31
0.0
 11
-3.0582653315
 21
-1.7287087565
 31
0.0
  0
SPLINE
  5
2D4
100
AcDbEntity
  8
CURVE
100
AcDbSpline
 62
253
  6
CONTINUOUS
 70
0
 71
3
 72
14
 73
10
 74
8
 42
0.0000001
 43
0.0000001
 44
0.0000000001
 12
-0.8771731078
 22
0.5880906394
 32
0.0
 13
-0.2242575783
 23
1.1073304517
 33
0.0
 40
0.0
 40
0.0
 40
0.0
 40
0.0
 40
0.1428571429
 40
0.2857142857
 40
0.4285714286
 40
0.5714285714
 40
0.7142857143
 40
0.8571428571
 40
1.0
 40
1.0
 40
1.0
 40
1.0
 10
-2.2791532491
 20
-3.8927925177
 30
0.0
 10
-2.3209233971
 20
-3.8647882015
 30
0.0
 10
-2.4024858713
 20
-3.8016884836
 30
0.0
 10
-2.5207923416
 20
-3.6850325103
 30
0.0
 10
-2.6293999461
 20
-3.5508689833
 30
0.0
 10
-2.7255274946
 20
-3.4032199798
 30
0.0
 10
-2.8060573907
 20
-3.2468211434
 30
0.0
 10
-2.8684393177
 20
-3.0857623741
 30
0.0
 10
-2.8965222136
 20
-2.9801817457
 30
0.0
 10
-2.9072011459
 20
-2.9274517242
 30
0.0
 11
-2.2791532491
 21
-3.8927925177
 31
0.0
 11
-2.4018129978
 21
-3.7980207509
 31
0.0
 11
-2.519175864
 21
-3.6821145847
 31
0.0
 11
-2.6273199367
 21
-3.5486214039
 31
0.0
 11
-2.7229278858
 21
-3.4017616743
 31
0.0
 11
-2.8030327291
 21
-3.2460444879
 31
0.0
 11
-2.8650630538
 21
-3.0862103452
 31
0.0
 11
-2.9072011459
 21
-2.9274517242
 31
0.0
  0
SPLINE
  5
2D5
100
AcDbEntity
  8
CURVE
100
AcDbSpline
 62
253
  6
CONTINUOUS
 70
0
 71
3
 72
15
 73
11
 74
9
 42
0.0000001
 43
0.0000001
 44
0.0000000001
 12
0.3144522628
 22
-1.5466849348
 32
0.0
 13
1.2265776366
 23
-0.8212727126
 33
0.0
 40
0.0
 40
0.0
 40
0.0
 40
0.0
 40
0.125
 40
0.25
 40
0.375
 40
0.5
 40
0.625
 40
0.75
 40
0.875
 40
1.0
 40
1.0
 40
1.0
 40
1.0
 10
-3.1812579066
 20
-2.852557283
 30
0.0
 10
-3.1681557289
 20
-2.9170024886
 30
0.0
 10
-3.1345686223
 20
-3.0462741883
 30
0.0
 10
-3.0621805995
 20
-3.2435183948
 30
0.0
 10
-2.9696289761
 20
-3.4370739077
 30
0.0
 10
-2.8592607695
 20
-3.623199825
 30
0.0
 10
-2.7336140521
 20
-3.7974634227
 30
0.0
 10
-2.5959455171
 20
-3.9556167465
 30
0.0
 10
-2.4489220372
 20
-4.0939874943
 30
0.0
 10
-2.3485342629
 20
-4.1702019632
 30
0.0
 10
-2.2974268614
 20
-4.2044216595
 30
0.0
 11
-3.1812579066
 21
-2.852557283
 31
0.0
 11
-3.1309007285
 21
-3.0468302978
 31
0.0
 11
-3.0588199994
 21
-3.2429036125
 31
0.0
 11
-2.9666595456
 21
-3.4358356417
 31
0.0
 11
-2.856714351
 21
-3.6212227717
 31
0.0
 11
-2.7316104158
 21
-3.794778377
 31
0.0
 11
-2.5943863596
 21
-3.9523196505
 31
0.0
 11
-2.4483290069
 21
-4.0899793202
 31
0.0
 11
-2.2974268614
 21
-4.2044216595
 31
0.0
  0
SPLINE
  5
2D6
100
AcDbEntity
  8
CURVE
100
AcDbSpline
 62
253
  6
CONTINUOUS
 70
0
 71
3
 72
10
 73
6
 74
4
 42
0.0000001
 43
0.0000001
 44
0.0000000001
 12
0.0553172448
 22
-1.2256190903
 32
0.0
 13
0.2645430375
 23
-1.3005029638
 33
0.0
 40
0.0
 40
0.0
 40
0.0
 40
0.0
 40
0.3333333333
 40
0.6666666667
 40
1.0
 40
1.0
 40
1.0
 40
1.0
 10
-3.3411518685
 20
-1.587265488
 30
0.0
 10
-3.3350055079
 20
-1.7234453869
 30
0.0
 10
-3.3149766313
 20
-1.9987538363
 30
0.0
 10
-3.2616332807
 20
-2.4216707067
 30
0.0
 10
-3.2106515774
 20
-2.7080569537
 30
0.0
 10
-3.1812579066
 20
-2.852557283
 30
0.0
 11
-3.3411518685
 21
-1.587265488
 31
0.0
 11
-3.311093292
 21
-2.000412869
 31
0.0
 11
-3.2577784133
 21
-2.4227811234
 31
0.0
 11
-3.1812579066
 21
-2.852557283
 31
0.0
  0
SPLINE
  5
2D7
100
AcDbEntity
  8
CURVE
100
AcDbSpline
 62
253
  6
CONTINUOUS
 70
0
 71
3
 72
10
 73
6
 74
4
 42
0.0000001
 43
0.0000001
 44
0.0000000001
 12
-0.1386568516
 22
-0.9962828254
 32
0.0
 13
0.0262271097
 23
-1.0774624928
 33
0.0
 40
0.0
 40
0.0
 40
0.0
 40
0.0
 40
0.3333333333
 40
0.6666666667
 40
1.0
 40
1.0
 40
1.0
 40
1.0
 10
-3.2892979372
 20
-0.4222057152
 30
0.0
 10
-3.304704254
 20
-0.5329038069
 30
0.0
 10
-3.3293708012
 20
-0.7574794719
 30
0.0
 10
-3.3480452784
 20
-1.1045231489
 30
0.0
 10
-3.3483068611
 20
-1.3411018092
 30
0.0
 10
-3.3453927378
 20
-1.4608198639
 30
0.0
 11
-3.2892979372
 21
-0.4222057152
 31
0.0
 11
-3.3263165773
 21
-0.7591761685
 31
0.0
 11
-3.3449982612
 21
-1.1058272011
 31
0.0
 11
-3.3453927378
 21
-1.4608198639
 31
0.0
  0
SPLINE
  5
2D8
100
AcDbEntity
  8
CURVE
100
AcDbSpline
 62
253
  6
CONTINUOUS
 70
0
 71
3
 72
15
 73
11
 74
9
 42
0.0000001
 43
0.0000001
 44
0.0000000001
 12
-1.2146531707
 22
0.3880469249
 32
0.0
 13
-0.1898091839
 23
-1.343852708
 33
0.0
 40
0.0
 40
0.0
 40
0.0
 40
0.0
 40
0.125
 40
0.25
 40
0.375
 40
0.5
 40
0.625
 40
0.75
 40
0.875
 40
1.0
 40
1.0
 40
1.0
 40
1.0
 10
-2.4872996556
 20
0.1327609007
 30
0.0
 10
-2.5379102044
 20
0.1489295226
 30
0.0
 10
-2.6364688205
 20
0.1708465902
 30
0.0
 10
-2.7780718906
 20
0.1726261159
 30
0.0
 10
-2.908034896
 20
0.143095471
 30
0.0
 10
-3.0236471494
 20
0.083036768
 30
0.0
 10
-3.1220069163
 20
-0.0059542028
 30
0.0
 10
-3.2008058283
 20
-0.1214164487
 30
0.0
 10
-3.2581491709
 20
-0.2609709797
 30
0.0
 10
-3.2813892212
 20
-0.3662118524
 30
0.0
 10
-3.2892979372
 20
-0.4222057152
 30
0.0
 11
-2.4872996556
 21
0.1327609007
 31
0.0
 11
-2.6354296781
 21
0.1656639109
 31
0.0
 11
-2.7761318798
 21
0.1674077542
 31
0.0
 11
-2.905643104
 21
0.1380074614
 31
0.0
 11
-3.020771735
 21
0.0782147234
 31
0.0
 11
-3.1187467738
 21
-0.010366082
 31
0.0
 11
-3.1972299001
 21
-0.1254318296
 31
0.0
 11
-3.2544019597
 21
-0.2640221094
 31
0.0
 11
-3.2892979372
 21
-0.4222057152
 31
0.0
  0
SPLINE
  5
2D9
100
AcDbEntity
  8
CURVE
100
AcDbSpline
 62
253
  6
CONTINUOUS
 70
0
 71
3
 72
10
 73
6
 74
4
 42
0.0000001
 43
0.0000001
 44
0.0000000001
 12
-0.7837770098
 22
0.5149944228
 32
0.0
 13
-0.7830787944
 23
0.2679197831
 33
0.0
 40
0.0
 40
0.0
 40
0.0
 40
0.0
 40
0.3333333333
 40
0.6666666667
 40
1.0
 40
1.0
 40
1.0
 40
1.0
 10
-1.6418183669
 20
-0.2801790357
 30
0.0
 10
-1.7289047013
 20
-0.2229574332
 30
0.0
 10
-1.9032938927
 20
-0.1176482522
 30
0.0
 10
-2.1668566222
 20
0.0141896324
 30
0.0
 10
-2.3411671932
 20
0.0832308901
 30
0.0
 10
-2.4281759482
 20
0.1129997549
 30
0.0
 11
-1.6418183669
 21
-0.2801790357
 31
0.0
 11
-1.9036237164
 21
-0.1220025667
 31
0.0
 11
-2.1665071434
 21
0.009476966
 31
0.0
 11
-2.4281759482
 21
0.1129997549
 31
0.0
  0
SPLINE
  5
2DA
100
AcDbEntity
  8
CURVE
100
AcDbSpline
 62
253
  6
CONTINUOUS
 70
0
 71
3
 72
15
 73
11
 74
9
 42
0.0000001
 43
0.0000001
 44
0.0000000001
 12
-0.2757555529
 22
1.5658239875
 32
0.0
 13
-1.215183011
 23
0.8257485422
 33
0.0
 40
0.0
 40
0.0
 40
0.0
 40
0.0
 40
0.125
 40
0.25
 40
0.375
 40
0.5
 40
0.625
 40
0.75
 40
0.875
 40
1.0
 40
1.0
 40
1.0
 40
1.0
 10
-0.7336547485
 20
-1.6894608375
 30
0.0
 10
-0.7451445632
 20
-1.6242181714
 30
0.0
 10
-0.7753576661
 20
-1.4932528329
 30
0.0
 10
-0.8423108615
 20
-1.2931488162
 30
0.0
 10
-0.9293752523
 20
-1.0966690929
 30
0.0
 10
-1.0344378506
 20
-0.9077447271
 30
0.0
 10
-1.1552170662
 20
-0.7310064132
 30
0.0
 10
-1.2887204161
 20
-0.5708316575
 30
0.0
 10
-1.4325276282
 20
-0.4309989951
 30
0.0
 10
-1.5315519146
 20
-0.3542028463
 30
0.0
 10
-1.58218454
 20
-0.319796657
 30
0.0
 11
-0.7336547485
 21
-1.6894608375
 31
0.0
 11
-0.7789632563
 21
-1.4926434981
 31
0.0
 11
-0.8456627274
 21
-1.2937528651
 31
0.0
 11
-0.9323749536
 21
-1.0979283192
 31
0.0
 11
-1.0370572868
 21
-0.9097757358
 31
0.0
 11
-1.1573377552
 21
-0.7337670062
 31
0.0
 11
-1.2904377264
 21
-0.5742220064
 31
0.0
 11
-1.4333158311
 21
-0.4351054016
 31
0.0
 11
-1.58218454
 21
-0.319796657
 31
0.0
  0
SPLINE
  5
2DB
100
AcDbEntity
  8
CURVE
100
AcDbSpline
 62
253
  6
CONTINUOUS
 70
0
 71
3
 72
10
 73
6
 74
4
 42
0.0000001
 43
0.0000001
 44
0.0000000001
 12
0.1103318973
 22
0.9823646215
 32
0.0
 13
-0.0294354503
 23
1.0758304367
 33
0.0
 40
0.0
 40
0.0
 40
0.0
 40
0.0
 40
0.3333333333
 40
0.6666666667
 40
1.0
 40
1.0
 40
1.0
 40
1.0
 10
-0.6258991332
 20
-4.1199546129
 30
0.0
 10
-0.6136400335
 20
-4.0108029883
 30
0.0
 10
-0.5943705362
 20
-3.7888692881
 30
0.0
 10
-0.5810287379
 20
-3.4444344886
 30
0.0
 10
-0.5824297082
 20
-3.2086759929
 30
0.0
 10
-0.5857003138
 20
-3.0891392777
 30
0.0
 11
-0.6258991332
 21
-4.1199546129
 31
0.0
 11
-0.5969642775
 21
-3.7869469133
 31
0.0
 11
-0.5836026136
 21
-3.4429006646
 31
0.0
 11
-0.5857003138
 21
-3.0891392777
 31
0.0
  0
SPLINE
  5
2DC
100
AcDbEntity
  8
CURVE
100
AcDbSpline
 62
253
  6
CONTINUOUS
 70
0
 71
3
 72
15
 73
11
 74
9
 42
0.0000001
 43
0.0000001
 44
0.0000000001
 12
1.205075639
 22
-0.3935398175
 32
0.0
 13
0.1513793501
 23
1.3250045713
 33
0.0
 40
0.0
 40
0.0
 40
0.0
 40
0.0
 40
0.125
 40
0.25
 40
0.375
 40
0.5
 40
0.625
 40
0.75
 40
0.875
 40
1.0
 40
1.0
 40
1.0
 40
1.0
 10
-1.3923117458
 20
-4.6569792173
 30
0.0
 10
-1.3421002608
 20
-4.6733767097
 30
0.0
 10
-1.2447897933
 20
-4.6959581381
 30
0.0
 10
-1.1063960935
 20
-4.6992244688
 30
0.0
 10
-0.9806819652
 20
-4.6717595775
 30
0.0
 10
-0.8700353857
 20
-4.6142989404
 30
0.0
 10
-0.777087226
 20
-4.5281515094
 30
0.0
 10
-0.7038687253
 20
-4.4155725551
 30
0.0
 10
-0.6520564615
 20
-4.278758755
 30
0.0
 10
-0.6322066061
 20
-4.1751631367
 30
0.0
 10
-0.6258991332
 20
-4.1199546129
 30
0.0
 11
-1.3923117458
 21
-4.6569792173
 31
0.0
 11
-1.2460517935
 21
-4.6908571695
 31
0.0
 11
-1.1085093554
 21
-4.6941025985
 31
0.0
 11
-0.9831932234
 21
-4.6667602866
 31
0.0
 11
-0.8729851223
 21
-4.6095178081
 31
0.0
 11
-0.7803755025
 21
-4.5237462555
 31
0.0
 11
-0.7074364315
 21
-4.4115334141
 31
0.0
 11
-0.655729375
 21
-4.2756621505
 31
0.0
 11
-0.6258991332
 21
-4.1199546129
 31
0.0
  0
SPLINE
  5
2DD
100
AcDbEntity
  8
CURVE
100
AcDbSpline
 62
253
  6
CONTINUOUS
 70
0
 71
3
 72
10
 73
6
 74
4
 42
0.0000001
 43
0.0000001
 44
0.0000000001
 12
0.792918253
 22
-0.5137533271
 32
0.0
 13
0.7739351055
 23
-0.2697164615
 33
0.0
 40
0.0
 40
0.0
 40
0.0
 40
0.0
 40
0.3333333333
 40
0.6666666667
 40
1.0
 40
1.0
 40
1.0
 40
1.0
 10
-2.2373159866
 20
-4.243949934
 30
0.0
 10
-2.1492139585
 20
-4.301033637
 30
0.0
 10
-1.9734646476
 20
-4.4061187457
 30
0.0
 10
-1.7098990122
 20
-4.5378971684
 30
0.0
 10
-1.5369511948
 20
-4.6071602289
 30
0.0
 10
-1.4509584053
 20
-4.6371287246
 30
0.0
 11
-2.2373159866
 21
-4.243949934
 31
0.0
 11
-1.9734743694
 21
-4.401810539
 31
0.0
 11
-1.7105896638
 21
-4.5332498631
 31
0.0
 11
-1.4509584053
 21
-4.6371287246
 31
0.0
  0
SPLINE
  5
2DE
100
AcDbEntity
  8
CURVE
100
AcDbSpline
 62
253
  6
CONTINUOUS
 70
0
 71
3
 72
10
 73
6
 74
4
 42
0.0000001
 43
0.0000001
 44
0.0000000001
 12
-0.7104608732
 22
0.2471216119
 32
0.0
 13
-0.7056981579
 23
0.4581750492
 33
0.0
 40
0.0
 40
0.0
 40
0.0
 40
0.0
 40
0.3333333333
 40
0.6666666667
 40
1.0
 40
1.0
 40
1.0
 40
1.0
 10
-1.510834378
 20
-4.2859022006
 30
0.0
 10
-1.5897744751
 20
-4.2584442437
 30
0.0
 10
-1.7477235617
 20
-4.1953327919
 30
0.0
 10
-1.9861017742
 20
-4.0757216288
 30
0.0
 10
-2.1433243426
 20
-3.9813601039
 30
0.0
 10
-2.221735249
 20
-3.9304517651
 30
0.0
 11
-1.510834378
 21
-4.2859022006
 31
0.0
 11
-1.7479659921
 21
-4.191175461
 31
0.0
 11
-1.9856777142
 21
-4.0720664414
 31
0.0
 11
-2.221735249
 21
-3.9304517651
 31
0.0
  0
SPLINE
  5
2DF
100
AcDbEntity
  8
CURVE
100
AcDbSpline
 62
253
  6
CONTINUOUS
 70
0
 71
3
 72
14
 73
10
 74
8
 42
0.0000001
 43
0.0000001
 44
0.0000000001
 12
-0.1093609884
 22
-0.9526636583
 32
0.0
 13
-0.863196777
 23
0.2794257405
 33
0.0
 40
0.0
 40
0.0
 40
0.0
 40
0.0
 40
0.1428571429
 40
0.2857142857
 40
0.4285714286
 40
0.5714285714
 40
0.7142857143
 40
0.8571428571
 40
1.0
 40
1.0
 40
1.0
 40
1.0
 10
-0.9073436095
 20
-3.9176547255
 30
0.0
 10
-0.9125512756
 20
-3.9630196616
 30
0.0
 10
-0.9304451858
 20
-4.0465001059
 30
0.0
 10
-0.9775242096
 20
-4.1533731673
 30
0.0
 10
-1.0427155082
 20
-4.2382304526
 30
0.0
 10
-1.1254773282
 20
-4.2982267131
 30
0.0
 10
-1.2235267016
 20
-4.3311847943
 30
0.0
 10
-1.3345366096
 20
-4.3353199184
 30
0.0
 10
-1.4136277472
 20
-4.3183089521
 30
0.0
 10
-1.4547323556
 20
-4.3050029644
 30
0.0
 11
-0.9073436095
 21
-3.9176547255
 31
0.0
 11
-0.9338182123
 21
-4.0434421717
 31
0.0
 11
-0.9805429221
 21
-4.1497038713
 31
0.0
 11
-1.0456439284
 21
-4.2340869485
 31
0.0
 11
-1.1280252538
 21
-4.2937203499
 31
0.0
 11
-1.2256867907
 21
-4.3263809681
 31
0.0
 11
-1.3358077427
 21
-4.3303779894
 31
0.0
 11
-1.4547323556
 21
-4.3050029644
 31
0.0
  0
SPLINE
  5
2E0
100
AcDbEntity
  8
CURVE
100
AcDbSpline
 62
253
  6
CONTINUOUS
 70
0
 71
3
 72
10
 73
6
 74
4
 42
0.0000001
 43
0.0000001
 44
0.0000000001
 12
0.0277045826
 22
-1.0193029935
 32
0.0
 13
-0.1053194391
 23
-0.9317737198
 33
0.0
 40
0.0
 40
0.0
 40
0.0
 40
0.0
 40
0.3333333333
 40
0.6666666667
 40
1.0
 40
1.0
 40
1.0
 40
1.0
 10
-0.8687937599
 20
-2.940462411
 30
0.0
 10
-0.8657154729
 20
-3.0537182992
 30
0.0
 10
-0.8644452322
 20
-3.2771318878
 30
0.0
 10
-0.8772346474
 20
-3.6036587064
 30
0.0
 10
-0.8956414496
 20
-3.8141243122
 30
0.0
 10
-0.9073436095
 20
-3.9176547255
 30
0.0
 11
-0.8687937599
 21
-2.940462411
 31
0.0
 11
-0.8668943616
 21
-3.2756996271
 31
0.0
 11
-0.8797047788
 21
-3.6018539714
 31
0.0
 11
-0.9073436095
 21
-3.9176547255
 31
0.0
  0
SPLINE
  5
2E1
100
AcDbEntity
  8
CURVE
100
AcDbSpline
 62
253
  6
CONTINUOUS
 70
0
 71
3
 72
10
 73
6
 74
4
 42
0.0000001
 43
0.0000001
 44
0.0000000001
 12
0.2204731732
 22
-1.2457908722
 32
0.0
 13
0.052538627
 23
-1.1619484895
 33
0.0
 40
0.0
 40
0.0
 40
0.0
 40
0.0
 40
0.3333333333
 40
0.6666666667
 40
1.0
 40
1.0
 40
1.0
 40
1.0
 10
-1.0093962114
 20
-1.6152595704
 30
0.0
 10
-0.9848991922
 20
-1.7536807784
 30
0.0
 10
-0.9421885496
 20
-2.027592808
 30
0.0
 10
-0.8966711453
 20
-2.430761845
 30
0.0
 10
-0.878781621
 20
-2.6922640366
 30
0.0
 10
-0.8729439957
 20
-2.8213694244
 30
0.0
 11
-1.0093962114
 21
-1.6152595704
 31
0.0
 11
-0.9452799762
 21
-2.0263096401
 31
0.0
 11
-0.8997849982
 21
-2.4289425534
 31
0.0
 11
-0.8729439957
 21
-2.8213694244
 31
0.0
  0
ELLIPSE
  5
2E2
100
AcDbEntity
  8
RACCORDO
100
AcDbEllipse
 62
7
  6
CONTINUOUS
 10
-5.7974332059
 20
14.0499718095
 30
0.0
 11
-0.1119858744
 21
0.2236318019
 31
0.0
 40
0.6122594231
 41
-0.6852493493
 42
0.0223275232
  0
ELLIPSE
  5
2E3
100
AcDbEntity
  8
RACCORDO
100
AcDbEllipse
 62
7
  6
CONTINUOUS
 10
9.6172791175
 20
6.3426156478
 30
0.0
 11
-0.1119259236
 21
0.2235783474
 31
0.0
 40
0.6126250184
 41
-2.2559124555
 42
-0.6854206804
  0
ELLIPSE
  5
2E4
100
AcDbEntity
  8
0
100
AcDbEllipse
 62
7
  6
CONTINUOUS
 10
8.8891570912
 20
-12.324114007
 30
0.0
 11
-0.1826272431
 21
0.4654700168
 31
0.0
 40
0.6543766329
 41
-3.1348682827
 42
-2.2008763123
  0
ELLIPSE
  5
2E5
100
AcDbEntity
  8
ASSI
100
AcDbEllipse
 62
7
  6
CONTINUOUS
 10
-5.7974332059
 20
14.0499718095
 30
0.0
 11
-0.1119858744
 21
0.2236318019
 31
0.0
 40
0.6122594231
 41
-0.6852493493
 42
0.0223275232
  0
ELLIPSE
  5
2E6
100
AcDbEntity
  8
ASSI
100
AcDbEllipse
 62
7
  6
CONTINUOUS
 10
9.6172791175
 20
6.3426156478
 30
0.0
 11
-0.1119259236
 21
0.2235783474
 31
0.0
 40
0.6126250184
 41
-2.2559124555
 42
-0.6854206804
  0
ELLIPSE
  5
2E7
100
AcDbEntity
  8
ASSI
100
AcDbEllipse
 62
7
  6
CONTINUOUS
 10
8.8891570912
 20
-12.324114007
 30
0.0
 11
-0.1826272431
 21
0.4654700168
 31
0.0
 40
0.6543766329
 41
-3.1348682827
 42
-2.2008763123
  0
ELLIPSE
  5
2E8
100
AcDbEntity
  8
CURVE
100
AcDbEllipse
 62
253
  6
CONTINUOUS
 10
50.9847078532
 20
38.877116335
 30
0.0
 11
466.6423263298
 21
-307.0401521525
 31
0.0
 40
0.1104344647
 41
-1.6109794125
 42
-1.6108511421
  0
ELLIPSE
  5
2E9
100
AcDbEntity
  8
CURVE
100
AcDbEllipse
 62
253
  6
CONTINUOUS
 10
49.0827922692
 20
39.828074127
 30
0.0
 11
460.3791626223
 21
-303.8640822002
 31
0.0
 40
0.1119286367
 41
-1.6072233
 42
-1.6070988442
  0
ELLIPSE
  5
2EA
100
AcDbEntity
  8
CURVE
100
AcDbEllipse
 62
253
  6
CONTINUOUS
 10
74.0493770601
 20
27.3447817316
 30
0.0
 11
459.9329656908
 21
-145.7273058791
 31
0.0
 40
0.1032930371
 41
-1.7050708705
 42
-1.7049464147
  0
ELLIPSE
  5
2EB
100
AcDbEntity
  8
CURVE
100
AcDbEllipse
 62
253
  6
CONTINUOUS
 10
72.1661737403
 20
28.2863833914
 30
0.0
 11
466.6837030704
 21
-149.2069471741
 31
0.0
 40
0.1019670536
 41
-1.6987772682
 42
-1.6986489977
  0
ELLIPSE
  5
2EC
100
AcDbEntity
  8
CURVE
100
AcDbEllipse
 62
253
  6
CONTINUOUS
 10
60.5329113144
 20
34.1030146044
 30
0.0
 11
41.1528701914
 21
80.0442867273
 31
0.0
 40
0.6065242656
 41
-3.97012105
 42
-3.9685514479
  0
ELLIPSE
  5
2ED
100
AcDbEntity
  8
CURVE
100
AcDbEllipse
 62
253
  6
CONTINUOUS
 10
60.2496745816
 20
34.2446329708
 30
0.0
 11
41.144769852
 21
80.0483782475
 31
0.0
 40
0.6065777606
 41
-3.9702793497
 42
-3.968612011
  0
ELLIPSE
  5
2EE
100
AcDbEntity
  8
CURVE
100
AcDbEllipse
 62
253
  6
CONTINUOUS
 10
24.2743838222
 20
52.2322783505
 30
0.0
 11
459.8637479613
 21
-303.6026747316
 31
0.0
 40
0.1120533725
 41
-1.5546094426
 42
-1.5544788678
  0
ELLIPSE
  5
2EF
100
AcDbEntity
  8
CURVE
100
AcDbEllipse
 62
253
  6
CONTINUOUS
 10
25.7766254764
 20
51.4811575234
 30
0.0
 11
466.9891787955
 21
-307.2160167348
 31
0.0
 40
0.110352866
 41
-1.5582823597
 42
-1.5581595085
  0
ELLIPSE
  5
2F0
100
AcDbEntity
  8
CURVE
100
AcDbEllipse
 62
253
  6
CONTINUOUS
 10
97.321698407
 20
15.7086210581
 30
0.0
 11
466.9850417227
 21
-149.3621934169
 31
0.0
 40
0.1019085944
 41
-1.7513503783
 42
-1.7512275272
  0
ELLIPSE
  5
2F1
100
AcDbEntity
  8
CURVE
100
AcDbEllipse
 62
253
  6
CONTINUOUS
 10
98.8243483117
 20
14.9572961058
 30
0.0
 11
459.9472217747
 21
-145.7346576856
 31
0.0
 40
0.1032902035
 41
-1.7577407684
 42
-1.7576101936
  0
ELLIPSE
  5
2F2
100
AcDbEntity
  8
CURVE
100
AcDbEllipse
 62
253
  6
CONTINUOUS
 10
62.7181855873
 20
33.010377468
 30
0.0
 11
41.1517816897
 21
80.0448365558
 31
0.0
 40
0.6065314552
 41
-3.9685595856
 42
-3.9669879378
  0
ELLIPSE
  5
2F3
100
AcDbEntity
  8
CURVE
100
AcDbEllipse
 62
253
  6
CONTINUOUS
 10
63.0026810604
 20
32.8681297314
 30
0.0
 11
41.1889757648
 21
80.0260452265
 31
0.0
 40
0.6062855849
 41
-3.9682816206
 42
-3.9666141364
  0
ENDSEC
  0
SECTION
  2
OBJECTS
  0
DICTIONARY
  5
C
100
AcDbDictionary
280
0
281
1
  3
ACAD_GROUP
350
D
  3
ACAD_MLINESTYLE
350
17
  3
ACAD_LAYOUT
350
1A
  3
ACAD_PLOTSETTINGS
350
19
  3
ACAD_PLOTSTYLENAME
350
E
  0
DICTIONARY
  5
D
102
{ACAD_REACTORS
330
C
102
}
100
AcDbDictionary
280
0
281
1
  0
ACDBDICTIONARYWDFLT
  5
E
102
{ACAD_REACTORS
330
C
102
}
100
AcDbDictionary
281
1
  3
Normal
350
F
100
AcDbDictionaryWithDefault
340
F
  0
DICTIONARY
  5
17
102
{ACAD_REACTORS
330
C
102
}
100
AcDbDictionary
280
0
281
1
  3
Standard
350
18
  0
DICTIONARY
  5
19
102
{ACAD_REACTORS
330
C
102
}
100
AcDbDictionary
281
1
  0
DICTIONARY
  5
1A
102
{ACAD_REACTORS
330
C
102
}
100
AcDbDictionary
281
1
  3
Model
350
2F4
  3
Layout1
350
2F5
  0
ACDBPLACEHOLDER
  5
F
102
{ACAD_REACTORS
330
E
102
}
  0
MLINESTYLE
  5
18
102
{ACAD_REACTORS
330
17
102
}
100
AcDbMlineStyle
  2
STANDARD
 70
0
  3

 62
256
 51
90.0
 52
90.0
 71
2
 49
0.5
 62
256
  6
BYLAYER
 49
-0.5
 62
256
  6
BYLAYER
  0
LAYOUT
  5
2F4
102
{ACAD_REACTORS
330
1A
102
}
100
AcDbPlotSettings
  1

  2
none_device
  4
ISO_A4_(297.00_x_210.00_MM)
  6

 40
0.0
 41
0.0
 42
0.0
 43
0.0
 44
297.0
 45
210.0
 46
0.0
 47
0.0
 48
0.0
 49
0.0
140
0.0
141
0.0
142
1.0
143
1.0
 70
1024
 72
1
 73
0
 74
0
  7

 75
0
147
1.0
148
0.0
149
0.0
100
AcDbLayout
  1
Model
 70
0
 71
0
 10
0.0
 20
0.0
 11
297.0
 21
210.0
 12
0.0
 22
0.0
 32
0.0
 14
0.0
 24
0.0
 34
0.0
 15
0.0
 25
0.0
 35
0.0
146
0.0
 13
0.0
 23
0.0
 33
0.0
 16
1.0
 26
0.0
 36
0.0
 17
0.0
 27
1.0
 37
0.0
 76
0
330
219
345
0
346
0
  0
LAYOUT
  5
2F5
102
{ACAD_REACTORS
330
1A
102
}
100
AcDbPlotSettings
  1

  2
none_device
  4
ISO_A4_(297.00_x_210.00_MM)
  6

 40
0.0
 41
0.0
 42
0.0
 43
0.0
 44
297.0
 45
210.0
 46
0.0
 47
0.0
 48
0.0
 49
0.0
140
0.0
141
0.0
142
1.0
143
1.0
 70
0
 72
1
 73
0
 74
0
  7

 75
0
147
1.0
148
0.0
149
0.0
100
AcDbLayout
  1
Layout1
 70
0
 71
1
 10
0.0
 20
0.0
 11
297.0
 21
210.0
 12
0.0
 22
0.0
 32
0.0
 14
0.0
 24
0.0
 34
0.0
 15
0.0
 25
0.0
 35
0.0
146
0.0
 13
0.0
 23
0.0
 33
0.0
 16
1.0
 26
0.0
 36
0.0
 17
0.0
 27
1.0
 37
0.0
 76
0
330
21A
345
0
346
0
  0
ENDSEC
  0
EOF
