  0
SECTION
  2
HEADER
  9
$ACADVER
  1
AC1015
  9
$DWGCODEPAGE
  3
ANSI_1252
  9
$EXTMAX
 10
297.0
 20
210.0
 30
0.0
  9
$EXTMIN
 10
0.0
 20
0.0
 30
0.0
  9
$LIMMIN
 10
0.0
 20
0.0
  9
$LIMMAX
 10
297.0
 20
210.0
  9
$VIEWCTR
 10
148.5
 20
105.0
  9
$VIEWSIZE
 40
210.0
  9
$CLAYER
  8
0
  9
$LTSCALE
 40
16.335
  9
$CELTYPE
  6
BYLAYER
  9
$DIMSCALE
 40
1.0
  9
$DIMASZ
 40
3.0
  9
$DIMEXO
 40
1.85625
  9
$DIMDLI
 40
11.286
  9
$DIMEXE
 40
5.346
  9
$DIMCEN
 40
2.673
  9
$DIMLFAC
 40
1.0
  9
$DIMBLK
  1
_FILLED
  9
$DIMTXT
 40
3.0
  9
$DIMTOL
 70
1
  9
$DIMLIM
 70
0
  9
$DIMTFAC
 40
1.0
  9
$DIMTP
 40
0.01
  9
$DIMTM
 40
0.01
  9
$PDMODE
 70
3
  9
$PDSIZE
 40
3.0
  9
$HANDSEED
  5
273
  9
$TILEMODE
 70
1
  9
$MEASUREMENT
 70
1
  9
$INSUNITS
 70
4
  0
ENDSEC
  0
SECTION
  2
CLASSES
  0
CLASS
  1
ACDBDICTIONARYWDFLT
  2
AcDbDictionaryWithDefault
  3
AutoCAD 2000
 90
0
280
0
281
0
  0
CLASS
  1
ACDBPLACEHOLDER
  2
AcDbPlaceHolder
  3
AutoCAD 2000
 90
0
280
0
281
0
  0
CLASS
  1
LAYOUT
  2
AcDbLayout
  3
AutoCAD 2000
 90
0
280
0
281
0
  0
ENDSEC
  0
SECTION
  2
TABLES
  0
TABLE
  2
VPORT
  5
8
100
AcDbSymbolTable
 70
2
  0
VPORT
  5
1F4
100
AcDbSymbolTableRecord
100
AcDbViewportTableRecord
  2
*ACTIVE
 70
0
 10
0.0
 20
0.0
 11
1.0
 21
1.0
 12
148.5
 22
105.0
 13
0.0
 23
0.0
 14
1.0
 24
1.0
 15
0.0
 25
0.0
 16
0.0
 26
0.0
 36
1.0
 17
0.0
 27
0.0
 37
0.0
 40
210.0
 41
1.4142857143
 42
50.0
 43
0.0
 44
0.0
 50
0.0
 51
0.0
 71
0
 72
100
 73
1
 74
1
 75
0
 76
0
 77
0
 78
0
  0
ENDTAB
  0
TABLE
  2
LTYPE
  5
5
100
AcDbSymbolTable
 70
6
  0
LTYPE
  5
14
100
AcDbSymbolTableRecord
100
AcDbLinetypeTableRecord
  2
BYBLOCK
 70
0
  3

 72
65
 73
0
 40
0.0
  0
LTYPE
  5
15
100
AcDbSymbolTableRecord
100
AcDbLinetypeTableRecord
  2
BYLAYER
 70
0
  3

 72
65
 73
0
 40
0.0
  0
LTYPE
  5
16
100
AcDbSymbolTableRecord
100
AcDbLinetypeTableRecord
  2
CONTINUOUS
 70
64
  3
Solid line
 72
65
 73
0
 40
0.0
  0
LTYPE
  5
1F5
100
AcDbSymbolTableRecord
100
AcDbLinetypeTableRecord
  2
CENTER
 70
64
  3
____ _ ____ _ ____ _ ____ _ ____ _ ____ _ ____
 72
65
 73
4
 40
0.6
 49
0.375
 74
0
 49
-0.075
 74
0
 49
0.075
 74
0
 49
-0.075
 74
0
  0
LTYPE
  5
1F6
100
AcDbSymbolTableRecord
100
AcDbLinetypeTableRecord
  2
HIDDEN
 70
64
  3
- - - - - - - - - - - - - - - - - - - -
 72
65
 73
2
 40
0.2
 49
0.1
 74
0
 49
-0.1
 74
0
  0
LTYPE
  5
1F7
100
AcDbSymbolTableRecord
100
AcDbLinetypeTableRecord
  2
PHANTOM
 70
64
  3
_____ _ _ _____ _ _ _____ _ _ _____
 72
65
 73
6
 40
0.8
 49
0.45
 74
0
 49
-0.05
 74
0
 49
0.1
 74
0
 49
-0.05
 74
0
 49
0.1
 74
0
 49
-0.05
 74
0
  0
LTYPE
  5
1F8
100
AcDbSymbolTableRecord
100
AcDbLinetypeTableRecord
  2
DOT
 70
64
  3
. . . . . . . . . . . . . . . . . . . .
 72
65
 73
2
 40
0.2
 49
0.1
 74
0
 49
-0.1
 74
0
  0
LTYPE
  5
1F9
100
AcDbSymbolTableRecord
100
AcDbLinetypeTableRecord
  2
DASHED
 70
64
  3
- - - - - - - - - - - - - - - - - - - -
 72
65
 73
2
 40
0.2
 49
0.1
 74
0
 49
-0.1
 74
0
  0
ENDTAB
  0
TABLE
  2
LAYER
  5
2
100
AcDbSymbolTable
 70
36
  0
LAYER
  5
10
100
AcDbSymbolTableRecord
100
AcDbLayerTableRecord
  2
0
 70
0
 62
7
  6
CONTINUOUS
370
-3
390
F
  0
LAYER
  5
1FA
100
AcDbSymbolTableRecord
100
AcDbLayerTableRecord
  2
DEFAULT_1
 70
0
 62
7
  6
CENTER
370
-3
390
F
  0
LAYER
  5
1FB
100
AcDbSymbolTableRecord
100
AcDbLayerTableRecord
  2
DEFAULT_2
 70
0
 62
7
  6
HIDDEN
370
-3
390
F
  0
LAYER
  5
1FC
100
AcDbSymbolTableRecord
100
AcDbLayerTableRecord
  2
DEFAULT_3
 70
0
 62
7
  6
PHANTOM
370
-3
390
F
  0
LAYER
  5
1FD
100
AcDbSymbolTableRecord
100
AcDbLayerTableRecord
  2
ASSI
 70
0
 62
7
  6
CONTINUOUS
370
-3
390
F
  0
LAYER
  5
1FE
100
AcDbSymbolTableRecord
100
AcDbLayerTableRecord
  2
COLOR9
 70
0
 62
7
  6
CONTINUOUS
370
-3
390
F
  0
LAYER
  5
1FF
100
AcDbSymbolTableRecord
100
AcDbLayerTableRecord
  2
COORDINATE
 70
0
 62
7
  6
CONTINUOUS
370
-3
390
F
  0
LAYER
  5
200
100
AcDbSymbolTableRecord
100
AcDbLayerTableRecord
  2
COORD_ORIGINE
 70
0
 62
7
  6
CONTINUOUS
370
-3
390
F
  0
LAYER
  5
201
100
AcDbSymbolTableRecord
100
AcDbLayerTableRecord
  2
COPY_PUBLISH
 70
0
 62
7
  6
CONTINUOUS
370
-3
390
F
  0
LAYER
  5
202
100
AcDbSymbolTableRecord
100
AcDbLayerTableRecord
  2
COSMETIC
 70
0
 62
7
  6
CONTINUOUS
370
-3
390
F
  0
LAYER
  5
203
100
AcDbSymbolTableRecord
100
AcDbLayerTableRecord
  2
CURVE
 70
0
 62
7
  6
CONTINUOUS
370
-3
390
F
  0
LAYER
  5
204
100
AcDbSymbolTableRecord
100
AcDbLayerTableRecord
  2
DRAFT
 70
0
 62
7
  6
CONTINUOUS
370
-3
390
F
  0
LAYER
  5
205
100
AcDbSymbolTableRecord
100
AcDbLayerTableRecord
  2
IGES
 70
0
 62
7
  6
CONTINUOUS
370
-3
390
F
  0
LAYER
  5
206
100
AcDbSymbolTableRecord
100
AcDbLayerTableRecord
  2
IGS_SCRITTE
 70
0
 62
7
  6
CONTINUOUS
370
-3
390
F
  0
LAYER
  5
207
100
AcDbSymbolTableRecord
100
AcDbLayerTableRecord
  2
IMPORT_IGES
 70
0
 62
7
  6
CONTINUOUS
370
-3
390
F
  0
LAYER
  5
208
100
AcDbSymbolTableRecord
100
AcDbLayerTableRecord
  2
INTF_YELLOW
 70
0
 62
7
  6
CONTINUOUS
370
-3
390
F
  0
LAYER
  5
209
100
AcDbSymbolTableRecord
100
AcDbLayerTableRecord
  2
PIANI
 70
0
 62
7
  6
CONTINUOUS
370
-3
390
F
  0
LAYER
  5
20A
100
AcDbSymbolTableRecord
100
AcDbLayerTableRecord
  2
PIANI_ORIGINE
 70
0
 62
7
  6
CONTINUOUS
370
-3
390
F
  0
LAYER
  5
20B
100
AcDbSymbolTableRecord
100
AcDbLayerTableRecord
  2
PIANI_RIFERIMENTO
 70
0
 62
7
  6
CONTINUOUS
370
-3
390
F
  0
LAYER
  5
20C
100
AcDbSymbolTableRecord
100
AcDbLayerTableRecord
  2
RACCORDO
 70
0
 62
7
  6
CONTINUOUS
370
-3
390
F
  0
LAYER
  5
20D
100
AcDbSymbolTableRecord
100
AcDbLayerTableRecord
  2
SMUSSO
 70
0
 62
7
  6
CONTINUOUS
370
-3
390
F
  0
LAYER
  5
20E
100
AcDbSymbolTableRecord
100
AcDbLayerTableRecord
  2
SOLIDO
 70
0
 62
7
  6
CONTINUOUS
370
-3
390
F
  0
LAYER
  5
20F
100
AcDbSymbolTableRecord
100
AcDbLayerTableRecord
  2
SUPERFICI
 70
0
 62
7
  6
CONTINUOUS
370
-3
390
F
  0
LAYER
  5
210
100
AcDbSymbolTableRecord
100
AcDbLayerTableRecord
  2
TRASH
 70
0
 62
7
  6
CONTINUOUS
370
-3
390
F
  0
LAYER
  5
211
100
AcDbSymbolTableRecord
100
AcDbLayerTableRecord
  2
WHITE
 70
0
 62
7
  6
CONTINUOUS
370
-3
390
F
  0
LAYER
  5
212
100
AcDbSymbolTableRecord
100
AcDbLayerTableRecord
  2
XSEC_DATUMS
 70
0
 62
7
  6
CONTINUOUS
370
-3
390
F
  0
ENDTAB
  0
TABLE
  2
STYLE
  5
3
100
AcDbSymbolTable
 70
1
  0
STYLE
  5
11
100
AcDbSymbolTableRecord
100
AcDbTextStyleTableRecord
  2
STANDARD
 70
0
 40
0.0
 41
0.8
 50
0.0
 71
0
 42
0.2
  3
txt
  4

  0
STYLE
  5
213
100
AcDbSymbolTableRecord
100
AcDbTextStyleTableRecord
  2
TEXTSTYLE_1
 70
0
 40
0.0
 41
0.8
 50
0.0
 71
0
 42
0.2
  3
gdt
  4

  0
ENDTAB
  0
TABLE
  2
VIEW
  5
6
100
AcDbSymbolTable
 70
0
  0
ENDTAB
  0
TABLE
  2
UCS
  5
7
100
AcDbSymbolTable
 70
0
  0
ENDTAB
  0
TABLE
  2
APPID
  5
9
100
AcDbSymbolTable
 70
1
  0
APPID
  5
214
100
AcDbSymbolTableRecord
100
AcDbRegAppTableRecord
  2
ACAD
 70
0
  0
ENDTAB
  0
TABLE
  2
BLOCK_RECORD
  5
1
100
AcDbSymbolTable
 70
0
  0
BLOCK_RECORD
  5
215
100
AcDbSymbolTableRecord
100
AcDbBlockTableRecord
  2
*Model_Space
  0
BLOCK_RECORD
  5
216
100
AcDbSymbolTableRecord
100
AcDbBlockTableRecord
  2
*Paper_Space
  0
ENDTAB
  0
TABLE
  2
DIMSTYLE
  5
A
100
AcDbSymbolTable
 70
1
100
AcDbDimStyleTable
 71
0
  0
DIMSTYLE
105
217
100
AcDbSymbolTableRecord
100
AcDbDimStyleTableRecord
  2
STANDARD
 70
0
  3

  4

 40
1.0
 41
3.0
 42
0.0625
 43
0.38
 44
0.18
 45
0.0
 46
0.0
 47
0.01
 48
0.01
140
3.0
141
0.09
142
0.0
143
25.4
144
1.0
145
0.0
146
1.0
147
0.09
 71
1.0
 72
0.0
 73
0
 74
0
 75
0
 76
0
 77
1
 78
8
170
0
171
2
172
0
173
0
174
0
175
0
176
0
177
0
178
0
270
2
271
2
272
2
273
2
274
2
275
0
280
0
281
0
282
0
283
1
284
8
285
0
286
0
287
3
288
0
340
11
  0
ENDTAB
  0
ENDSEC
  0
SECTION
  2
BLOCKS
  0
BLOCK
  5
20
100
AcDbEntity
  8
0
100
AcDbBlockBegin
  2
*Model_Space
 70
0
 10
0.0
 20
0.0
 30
0.0
  3
*Model_Space
  1

  0
ENDBLK
  5
21
100
AcDbEntity
  8
0
100
AcDbBlockEnd
  0
BLOCK
  5
1C
100
AcDbEntity
  8
0
100
AcDbBlockBegin
  2
*Paper_Space
 70
0
 10
0.0
 20
0.0
 30
0.0
  3
*Paper_Space
  1

  0
ENDBLK
  5
1D
100
AcDbEntity
  8
0
100
AcDbBlockEnd
  0
ENDSEC
  0
SECTION
  2
ENTITIES
  0
LWPOLYLINE
  5
218
100
AcDbEntity
  8
RACCORDO
100
AcDbPolyline
 62
7
  6
CONTINUOUS
 90
37
 70
0
 10
-9.3665276998
 20
11.9530752236
 10
-9.3749068938
 20
11.9483796922
 10
-9.3862527432
 20
11.9416561397
 10
-9.3972109263
 20
11.9347333096
 10
-9.4077845809
 20
11.9276194669
 10
-9.4179790211
 20
11.9203215038
 10
-9.4277986499
 20
11.9128464214
 10
-9.4372457878
 20
11.9052027399
 10
-9.4463241981
 20
11.8973979734
 10
-9.4550373757
 20
11.8894395307
 10
-9.4633863919
 20
11.8813371247
 10
-9.4713744527
 20
11.8730989383
 10
-9.4790056671
 20
11.8647320212
 10
-9.4862778994
 20
11.8562505414
 10
-9.4931970237
 20
11.8476602298
 10
-9.4997761251
 20
11.8389563287
 10
-9.5060148353
 20
11.830150041
 10
-9.5119151493
 20
11.8212498542
 10
-9.5174899405
 20
11.8122465504
 10
-9.5227390448
 20
11.803149418
 10
-9.5276623251
 20
11.7939683592
 10
-9.5322690475
 20
11.7846944609
 10
-9.5365589735
 20
11.7753350442
 10
-9.5405304181
 20
11.7659016765
 10
-9.5441877013
 20
11.756391498
 10
-9.5475298111
 20
11.7468135985
 10
-9.5505557775
 20
11.7371781213
 10
-9.5532681997
 20
11.727483773
 10
-9.5556660478
 20
11.7177409037
 10
-9.5577490201
 20
11.7079587437
 10
-9.5595191604
 20
11.698134278
 10
-9.5609755707
 20
11.6882773694
 10
-9.5621178375
 20
11.678397812
 10
-9.5629469555
 20
11.6684924192
 10
-9.5634623811
 20
11.6585667147
 10
-9.563663403
 20
11.6486349698
 10
-9.5636663907
 20
11.647041559
  0
LINE
  5
219
100
AcDbEntity
  8
RACCORDO
100
AcDbLine
 62
7
  6
CONTINUOUS
 10
-9.3665236266
 20
11.9530774669
 11
-5.8071261446
 21
13.9009907941
  0
LINE
  5
21A
100
AcDbEntity
  8
RACCORDO
100
AcDbLine
 62
253
  6
CONTINUOUS
 10
-9.2480483198
 20
11.949496953
 11
-5.6921592413
 21
13.8954902737
  0
LINE
  5
21B
100
AcDbEntity
  8
DRAFT
100
AcDbLine
 62
7
  6
CONTINUOUS
 10
-4.0039716357
 20
12.0121659864
 11
-4.990980063
 21
11.4009072734
  0
LINE
  5
21C
100
AcDbEntity
  8
DRAFT
100
AcDbLine
 62
7
  6
CONTINUOUS
 10
-4.0039716357
 20
13.0513964709
 11
-5.9397004975
 21
11.8752674906
  0
LWPOLYLINE
  5
21D
100
AcDbEntity
  8
0
100
AcDbPolyline
 62
7
  6
CONTINUOUS
 90
28
 70
0
 10
-9.5021852822
 20
3.7973763415
 10
-9.4958830101
 20
3.4270720602
 10
-9.4880889503
 20
3.0540930563
 10
-9.4788556289
 20
2.6819257749
 10
-9.4681831699
 20
2.3105799364
 10
-9.4560717452
 20
1.9400639964
 10
-9.4425215281
 20
1.570385924
 10
-9.4275327059
 20
1.2015538075
 10
-9.4111055582
 20
0.8335765402
 10
-9.3932403967
 20
0.4664632936
 10
-9.3739375324
 20
0.100222762
 10
-9.3531973349
 20
-0.2651366059
 10
-9.3310202115
 20
-0.6296060166
 10
-9.3074065696
 20
-0.9931769923
 10
-9.2823568842
 20
-1.3558410677
 10
-9.2558716689
 20
-1.717589476
 10
-9.2279514329
 20
-2.0784137776
 10
-9.1985967495
 20
-2.438305599
 10
-9.167808233
 20
-2.7972562808
 10
-9.1355864869
 20
-3.1552575254
 10
-9.1019322007
 20
-3.5123008842
 10
-9.0668461251
 20
-3.8683774796
 10
-9.0303290043
 20
-4.2234787196
 10
-8.9923815601
 20
-4.5775968653
 10
-8.9530045083
 20
-4.9307243237
 10
-8.9121986326
 20
-5.2828530428
 10
-8.8699649291
 20
-5.6339738544
 10
-8.8267538766
 20
-5.9805359201
  0
LWPOLYLINE
  5
21E
100
AcDbEntity
  8
0
100
AcDbPolyline
 62
7
  6
CONTINUOUS
 90
10
 70
0
 10
-9.5636664277
 20
11.6470545817
 10
-9.5624282593
 20
10.7755376864
 10
-9.5597879533
 20
9.9001195679
 10
-9.5557484092
 20
9.0254584418
 10
-9.5503096363
 20
8.1515582859
 10
-9.5434716527
 20
7.2784224336
 10
-9.5352344768
 20
6.4060540316
 10
-9.5255981328
 20
5.5344565037
 10
-9.5145626642
 20
4.6636339179
 10
-9.5021852823
 20
3.7973763426
  0
LWPOLYLINE
  5
21F
100
AcDbEntity
  8
0
100
AcDbPolyline
 62
7
  6
CONTINUOUS
 90
33
 70
0
 10
6.4332238923
 20
-14.0034527598
 10
6.4449193759
 20
-14.0091658615
 10
6.4624764852
 20
-14.0172462557
 10
6.4802460987
 20
-14.0248387243
 10
6.4982211218
 20
-14.0319408785
 10
6.516408142
 20
-14.0385549741
 10
6.5347938237
 20
-14.044675222
 10
6.5533647681
 20
-14.050296362
 10
6.5721286019
 20
-14.0554190806
 10
6.5910723384
 20
-14.060037531
 10
6.6101824586
 20
-14.0641464851
 10
6.6294669116
 20
-14.0677449554
 10
6.6489132937
 20
-14.0708271066
 10
6.6685076955
 20
-14.0733874655
 10
6.6882568046
 20
-14.0754231954
 10
6.7081477738
 20
-14.0769285411
 10
6.7281672259
 20
-14.0778981414
 10
6.7483220308
 20
-14.0783274536
 10
6.7686014604
 20
-14.0782107637
 10
6.7889901441
 20
-14.0775427267
 10
6.8094889997
 20
-14.0763174711
 10
6.8300866239
 20
-14.0745295419
 10
6.8507686967
 20
-14.0721741814
 10
6.8715329506
 20
-14.0692452432
 10
6.8923673545
 20
-14.0657377192
 10
6.9132588578
 20
-14.0616473669
 10
6.9342050443
 20
-14.0569677362
 10
6.9551946081
 20
-14.0516939169
 10
6.9762149822
 20
-14.0458218405
 10
6.997263399
 20
-14.0393445817
 10
7.0183316924
 20
-14.0322562646
 10
7.0394043936
 20
-14.024553955
 10
7.0565027014
 20
-14.017848429
  0
LINE
  5
220
100
AcDbEntity
  8
0
100
AcDbLine
 62
7
  6
CONTINUOUS
 10
-8.4327453868
 20
-6.5704681553
 11
6.4332498512
 21
-14.0034657743
  0
LINE
  5
221
100
AcDbEntity
  8
0
100
AcDbLine
 62
253
  6
CONTINUOUS
 10
-8.680333203
 20
-6.1569539436
 11
6.1768554027
 21
-13.5855482464
  0
LWPOLYLINE
  5
222
100
AcDbEntity
  8
0
100
AcDbPolyline
 62
7
  6
CONTINUOUS
 90
39
 70
0
 10
-8.8267535604
 20
-5.9805383646
 10
-8.8242114311
 20
-5.9990931084
 10
-8.8206573696
 20
-6.0213546461
 10
-8.816601825
 20
-6.0432913114
 10
-8.8120526707
 20
-6.0648991943
 10
-8.8070183223
 20
-6.086173112
 10
-8.801508211
 20
-6.107103987
 10
-8.7955312154
 20
-6.1276863016
 10
-8.7890960742
 20
-6.1479160289
 10
-8.7822131319
 20
-6.1677842726
 10
-8.7748921753
 20
-6.1872850338
 10
-8.7671429668
 20
-6.2064137197
 10
-8.7589771427
 20
-6.2251617274
 10
-8.7504074493
 20
-6.2435193721
 10
-8.7414432788
 20
-6.2614856476
 10
-8.7320918949
 20
-6.2790631025
 10
-8.7223672129
 20
-6.2962414806
 10
-8.7122784323
 20
-6.3130199944
 10
-8.7018247898
 20
-6.329413054
 10
-8.6910171599
 20
-6.345414561
 10
-8.6798668146
 20
-6.3610184268
 10
-8.6683718452
 20
-6.3762364263
 10
-8.6565422014
 20
-6.3910630452
 10
-8.6443897471
 20
-6.405490928
 10
-8.631914153
 20
-6.4195268612
 10
-8.6191260938
 20
-6.4331643337
 10
-8.6060370212
 20
-6.4463968666
 10
-8.5926468014
 20
-6.4592294105
 10
-8.5789666687
 20
-6.4716551445
 10
-8.5650078489
 20
-6.4836679777
 10
-8.5507693492
 20
-6.4952722985
 10
-8.5362628532
 20
-6.5064613871
 10
-8.5214995735
 20
-6.5172294723
 10
-8.5064768692
 20
-6.5275805721
 10
-8.4912062415
 20
-6.5375083276
 10
-8.4756993486
 20
-6.5470069375
 10
-8.459952865
 20
-6.5560794865
 10
-8.4439731465
 20
-6.5647223899
 10
-8.432725992
 20
-6.5704778176
  0
LINE
  5
223
100
AcDbEntity
  8
RACCORDO
100
AcDbLine
 62
7
  6
CONTINUOUS
 10
-4.9851063429
 20
11.4045448944
 11
-4.9851063429
 21
11.3979704133
  0
LINE
  5
224
100
AcDbEntity
  8
DRAFT
100
AcDbLine
 62
7
  6
CONTINUOUS
 10
-4.0039716357
 20
13.0513964709
 11
-4.0039716357
 21
12.0121659864
  0
LINE
  5
225
100
AcDbEntity
  8
DRAFT
100
AcDbLine
 62
7
  6
CONTINUOUS
 10
8.0344732174
 20
7.0321740444
 11
5.7275613921
 21
6.0416365458
  0
LINE
  5
226
100
AcDbEntity
  8
RACCORDO
100
AcDbLine
 62
253
  6
CONTINUOUS
 10
9.722660823
 20
6.1880802415
 11
5.909436639
 21
4.3707544736
  0
LINE
  5
227
100
AcDbEntity
  8
RACCORDO
100
AcDbLine
 62
253
  6
CONTINUOUS
 10
9.8994914011
 20
5.8832162972
 11
6.0814802797
 21
4.0636091464
  0
LINE
  5
228
100
AcDbEntity
  8
0
100
AcDbLine
 62
253
  6
CONTINUOUS
 10
5.4528603814
 20
-3.7843448385
 11
-9.3557318103
 21
3.6199512573
  0
LINE
  5
229
100
AcDbEntity
  8
0
100
AcDbLine
 62
7
  6
CONTINUOUS
 10
0.9427533171
 20
1.806561185
 11
-4.9289179128
 21
4.7423968
  0
LINE
  5
22A
100
AcDbEntity
  8
RACCORDO
100
AcDbLine
 62
7
  6
CONTINUOUS
 10
0.9427533171
 20
1.806561185
 11
-4.9289179128
 21
4.7423968
  0
LINE
  5
22B
100
AcDbEntity
  8
0
100
AcDbLine
 62
7
  6
CONTINUOUS
 10
0.9283083116
 20
3.7050382609
 11
-4.9424755377
 21
6.6404301855
  0
LINE
  5
22C
100
AcDbEntity
  8
RACCORDO
100
AcDbLine
 62
7
  6
CONTINUOUS
 10
0.9283083116
 20
3.7050382609
 11
-4.9424755377
 21
6.6404301855
  0
LINE
  5
22D
100
AcDbEntity
  8
RACCORDO
100
AcDbLine
 62
253
  6
CONTINUOUS
 10
5.3869262311
 20
4.0676757179
 11
-9.4172181984
 21
11.4697479326
  0
LINE
  5
22E
100
AcDbEntity
  8
RACCORDO
100
AcDbLine
 62
253
  6
CONTINUOUS
 10
5.5621615168
 20
4.3719624125
 11
-9.2419855013
 21
11.7740359215
  0
LINE
  5
22F
100
AcDbEntity
  8
DRAFT
100
AcDbLine
 62
7
  6
CONTINUOUS
 10
5.7275613921
 20
6.0416365458
 11
-5.9397004975
 21
11.8752674906
  0
LINE
  5
230
100
AcDbEntity
  8
RACCORDO
100
AcDbLine
 62
7
  6
CONTINUOUS
 10
9.8994914011
 20
5.8832162972
 11
9.8994914011
 21
-5.1586652967
  0
LINE
  5
231
100
AcDbEntity
  8
0
100
AcDbLine
 62
7
  6
CONTINUOUS
 10
9.3481955402
 20
-12.8728370643
 11
9.8994914011
 21
-5.1586652967
  0
LINE
  5
232
100
AcDbEntity
  8
RACCORDO
100
AcDbLine
 62
7
  6
CONTINUOUS
 10
9.722660823
 20
6.1880802415
 11
8.0344732174
 21
7.0321740444
  0
LINE
  5
233
100
AcDbEntity
  8
RACCORDO
100
AcDbLine
 62
7
  6
CONTINUOUS
 10
-4.0039716357
 20
13.0513964709
 11
-5.6921592413
 21
13.8954902737
  0
LINE
  5
234
100
AcDbEntity
  8
0
100
AcDbLine
 62
253
  6
CONTINUOUS
 10
7.2101179809
 20
-13.7371275137
 11
9.3481955402
 21
-12.8728370643
  0
LINE
  5
235
100
AcDbEntity
  8
0
100
AcDbLine
 62
7
  6
CONTINUOUS
 10
7.0565061624
 20
-14.0178470423
 11
9.1791550923
 21
-13.1597934186
  0
ARC
  5
236
100
AcDbEntity
  8
RACCORDO
100
AcDbCircle
 62
253
  6
CONTINUOUS
 10
533.8484282077
 20
11.7992630257
 40
543.2657495646
100
AcDbArc
 50
180.0347524677
 51
180.8626676024
  0
ARC
  5
237
100
AcDbEntity
  8
0
100
AcDbCircle
 62
7
  6
CONTINUOUS
 10
519.3532881953
 20
9.7011773424
 40
524.5858329042
100
AcDbArc
 50
180.3564848358
 51
180.488709561
  0
ARC
  5
238
100
AcDbEntity
  8
RACCORDO
100
AcDbCircle
 62
7
  6
CONTINUOUS
 10
525.6866701965
 20
6.4831099268
 40
524.4845405935
100
AcDbArc
 50
180.3564737649
 51
180.4887240263
  0
ARC
  5
239
100
AcDbEntity
  8
RACCORDO
100
AcDbCircle
 62
253
  6
CONTINUOUS
 10
511.245452145
 20
4.3884912136
 40
505.8586143968
100
AcDbArc
 50
180.0363369806
 51
180.9257317565
  0
ARC
  5
23A
100
AcDbEntity
  8
RACCORDO
100
AcDbCircle
 62
253
  6
CONTINUOUS
 10
511.3848569638
 20
4.3820286353
 40
505.3034641267
100
AcDbArc
 50
180.0361052216
 51
180.9257740598
  0
ARC
  5
23B
100
AcDbEntity
  8
0
100
AcDbCircle
 62
7
  6
CONTINUOUS
 10
0.7730175973
 20
3.217129606
 40
0.4392722861
100
AcDbArc
 50
0.3713343587
 51
3.0207856874
  0
ARC
  5
23C
100
AcDbEntity
  8
0
100
AcDbCircle
 62
7
  6
CONTINUOUS
 10
0.8118472848
 20
2.0057719942
 40
0.4093785016
100
AcDbArc
 50
357.7290130548
 51
0.5068209702
  0
ARC
  5
23D
100
AcDbEntity
  8
0
100
AcDbCircle
 62
7
  6
CONTINUOUS
 10
0.7762131627
 20
3.4011340407
 40
0.3398392405
100
AcDbArc
 50
60.2657070727
 51
63.4133789191
  0
ARC
  5
23E
100
AcDbEntity
  8
0
100
AcDbCircle
 62
7
  6
CONTINUOUS
 10
-5.0820771426
 20
6.361529064
 40
0.3118885116
100
AcDbArc
 50
63.4101305226
 51
66.7432273266
  0
ARC
  5
23F
100
AcDbEntity
  8
RACCORDO
100
AcDbCircle
 62
7
  6
CONTINUOUS
 10
-5.0521046616
 20
6.5164597976
 40
0.1520395851
100
AcDbArc
 50
125.5040224762
 51
131.3670801137
  0
ARC
  5
240
100
AcDbEntity
  8
0
100
AcDbCircle
 62
7
  6
CONTINUOUS
 10
1.0538710539
 20
1.9279308001
 40
0.1488190549
100
AcDbArc
 50
287.795154196
 51
289.6181607911
  0
SPLINE
  5
241
100
AcDbEntity
  8
0
100
AcDbSpline
 62
7
  6
CONTINUOUS
 70
0
 71
3
 72
14
 73
10
 74
8
 42
0.0000001
 43
0.0000001
 44
0.0000000001
 12
-0.1542207178
 22
-0.0495065853
 32
0.0
 13
-0.144755623
 23
0.0723778115
 33
0.0
 40
0.0
 40
0.0
 40
0.0
 40
0.0
 40
0.1023200679
 40
0.2374372834
 40
0.376996687
 40
0.5218828048
 40
0.6739155465
 40
0.8334144111
 40
1.0
 40
1.0
 40
1.0
 40
1.0
 10
1.0993523563
 20
1.7862319566
 30
0.0
 10
1.0940923982
 20
1.7845434509
 30
0.0
 10
1.0816696551
 20
1.7813002345
 30
0.0
 10
1.0614489209
 20
1.778607037
 30
0.0
 10
1.038755294
 20
1.7785574877
 30
0.0
 10
1.0153214309
 20
1.7813431542
 30
0.0
 10
0.9912964363
 20
1.7869425005
 30
0.0
 10
0.9668602609
 20
1.7953183512
 30
0.0
 10
0.950791384
 20
1.8025421516
 30
0.0
 10
0.9427533171
 20
1.806561185
 30
0.0
 11
1.0993523563
 21
1.7862319566
 31
0.0
 11
1.0833275666
 21
1.7820355061
 31
0.0
 11
1.0616571155
 21
1.7791057432
 31
0.0
 11
1.0390708162
 21
1.7790032074
 31
0.0
 11
1.01577938
 21
1.7817136722
 31
0.0
 11
0.9918028826
 21
1.7872404552
 31
0.0
 11
0.9673652981
 21
1.7955557891
 31
0.0
 11
0.9427533171
 21
1.806561185
 31
0.0
  0
SPLINE
  5
242
100
AcDbEntity
  8
0
100
AcDbSpline
 62
7
  6
CONTINUOUS
 70
0
 71
3
 72
17
 73
13
 74
11
 42
0.0000001
 43
0.0000001
 44
0.0000000001
 12
-0.0014136376
 22
0.227185663
 32
0.0
 13
0.1851112433
 23
0.1320421938
 33
0.0
 40
0.0
 40
0.0
 40
0.0
 40
0.0
 40
0.1300572035
 40
0.2552847793
 40
0.3750093211
 40
0.4890287605
 40
0.5982816005
 40
0.7029314772
 40
0.8031622927
 40
0.8998537876
 40
0.9944866023
 40
1.0
 40
1.0
 40
1.0
 40
1.0
 10
-5.2223910508
 20
6.4373123673
 30
0.0
 10
-5.2224523354
 20
6.4471614114
 30
0.0
 10
-5.2218995973
 20
6.4665067053
 30
0.0
 10
-5.2189138038
 20
6.4947780158
 30
0.0
 10
-5.2138107387
 20
6.5215149012
 30
0.0
 10
-5.20663525
 20
6.5465196771
 30
0.0
 10
-5.1974327157
 20
6.5696335773
 30
0.0
 10
-5.1862541844
 20
6.5906913588
 30
0.0
 10
-5.1731957106
 20
6.6094985332
 30
0.0
 10
-5.1583468181
 20
6.6259258006
 30
0.0
 10
-5.1469043132
 20
6.6355550669
 30
0.0
 10
-5.140743385
 20
6.6399887175
 30
0.0
 10
-5.1404031877
 20
6.6402313845
 30
0.0
 11
-5.2223910508
 21
6.4373123673
 31
0.0
 11
-5.2215050552
 21
6.466846785
 31
0.0
 11
-5.2184696133
 21
6.4951348531
 31
0.0
 11
-5.2133185125
 21
6.5218428754
 31
0.0
 11
-5.2061196082
 21
6.546726551
 31
0.0
 11
-5.1968837933
 21
6.5697654242
 31
0.0
 11
-5.1856844815
 21
6.590737921
 31
0.0
 11
-5.1726532693
 21
6.6094121337
 31
0.0
 11
-5.1578900514
 21
6.6256790239
 31
0.0
 11
-5.1414207178
 21
6.6394991308
 31
0.0
 11
-5.1404031877
 21
6.6402313845
 31
0.0
  0
SPLINE
  5
243
100
AcDbEntity
  8
0
100
AcDbSpline
 62
7
  6
CONTINUOUS
 70
0
 71
3
 72
25
 73
21
 74
19
 42
0.0000001
 43
0.0000001
 44
0.0000000001
 12
-0.5245274336
 22
0.2622637168
 32
0.0
 13
-0.0050025685
 23
0.5864181614
 33
0.0
 40
0.0
 40
0.0
 40
0.0
 40
0.0
 40
0.0480002932
 40
0.0980590819
 40
0.1498717826
 40
0.2031749175
 40
0.2581430781
 40
0.3144923273
 40
0.3717784855
 40
0.4297960057
 40
0.4886066784
 40
0.5477370808
 40
0.6067006057
 40
0.6655412348
 40
0.7240391648
 40
0.7817066167
 40
0.8381979445
 40
0.893647016
 40
0.9477181013
 40
1.0
 40
1.0
 40
1.0
 40
1.0
 10
-4.9289179127
 20
4.7423968
 30
0.0
 10
-4.937310403
 20
4.7465930451
 30
0.0
 10
-4.9540928519
 20
4.755906615
 30
0.0
 10
-4.9785507114
 20
4.7720812447
 30
0.0
 10
-5.0026037962
 20
4.7906035528
 30
0.0
 10
-5.0260810057
 20
4.8113265777
 30
0.0
 10
-5.0488328658
 20
4.834112739
 30
0.0
 10
-5.0706948694
 20
4.8588021206
 30
0.0
 10
-5.0914742379
 20
4.8851710938
 30
0.0
 10
-5.1110398819
 20
4.9130417331
 30
0.0
 10
-5.1292623985
 20
4.9422339674
 30
0.0
 10
-5.1459923319
 20
4.9725176352
 30
0.0
 10
-5.1610989406
 20
5.0036492202
 30
0.0
 10
-5.1744842743
 20
5.0354249509
 30
0.0
 10
-5.1860521855
 20
5.0676379745
 30
0.0
 10
-5.1956942503
 20
5.1000007294
 30
0.0
 10
-5.2033435671
 20
5.1322801026
 30
0.0
 10
-5.2089456776
 20
5.1642655057
 30
0.0
 10
-5.2124477046
 20
5.1957207269
 30
0.0
 10
-5.2133747572
 20
5.2165093536
 30
0.0
 10
-5.2134619384
 20
5.2267290386
 30
0.0
 11
-4.9289179127
 21
4.7423968
 31
0.0
 11
-4.9535536486
 21
4.756015236
 31
0.0
 11
-4.9780631406
 21
4.7721733923
 31
0.0
 11
-5.0021594929
 21
4.7906832517
 31
0.0
 11
-5.0256151391
 21
4.8113463039
 31
0.0
 11
-5.0484101112
 21
4.8341392139
 31
0.0
 11
-5.0703327854
 21
4.8588656471
 31
0.0
 11
-5.0911385964
 21
4.8852424028
 31
0.0
 11
-5.1106968928
 21
4.9130828349
 31
0.0
 11
-5.1289656196
 21
4.9423358338
 31
0.0
 11
-5.1457360038
 21
4.9726872287
 31
0.0
 11
-5.1608303358
 21
5.0037973006
 31
0.0
 11
-5.1742204637
 21
5.03559983
 31
0.0
 11
-5.185804994
 21
5.0678901655
 31
0.0
 11
-5.1954469129
 21
5.1003050143
 31
0.0
 11
-5.2030668658
 21
5.1325455187
 31
0.0
 11
-5.2086524505
 21
5.1645797304
 31
0.0
 11
-5.2121310577
 21
5.1960977668
 31
0.0
 11
-5.2134619384
 21
5.2267290386
 31
0.0
  0
SPLINE
  5
244
100
AcDbEntity
  8
0
100
AcDbSpline
 62
7
  6
CONTINUOUS
 70
0
 71
3
 72
16
 73
12
 74
10
 42
0.0000001
 43
0.0000001
 44
0.0000000001
 12
0.1548355564
 22
0.110446163
 32
0.0
 13
0.1746969933
 23
-0.0749889637
 33
0.0
 40
0.0
 40
0.0
 40
0.0
 40
0.0
 40
0.1049978016
 40
0.2160721982
 40
0.3286658053
 40
0.4442432496
 40
0.5635640949
 40
0.6873708907
 40
0.8172089711
 40
0.9533450901
 40
1.0
 40
1.0
 40
1.0
 40
1.0
 10
-5.1404031877
 20
6.6402313845
 30
0.0
 10
-5.1349840567
 20
6.6440969193
 30
0.0
 10
-5.1233012498
 20
6.6513097635
 30
0.0
 10
-5.1041685458
 20
6.6596976317
 30
0.0
 10
-5.0833935741
 20
6.6654621705
 30
0.0
 10
-5.0615106173
 20
6.668388279
 30
0.0
 10
-5.0387292935
 20
6.6684537148
 30
0.0
 10
-5.0152154165
 20
6.6656754243
 30
0.0
 10
-4.9911207034
 20
6.6600751775
 30
0.0
 10
-4.9723565506
 20
6.6536520651
 30
0.0
 10
-4.9616440207
 20
6.6492411331
 30
0.0
 10
-4.9589271966
 20
6.648074932
 30
0.0
 11
-5.1404031877
 21
6.6402313845
 31
0.0
 11
-5.1234183552
 21
6.6507058457
 31
0.0
 11
-5.1040900966
 21
6.6591884156
 31
0.0
 11
-5.0834798895
 21
6.6649352261
 31
0.0
 11
-5.0617158792
 21
6.6678882672
 31
0.0
 11
-5.0390413803
 21
6.6680059924
 31
0.0
 11
-5.0156699725
 21
6.6653022581
 31
0.0
 11
-4.9916238275
 21
6.6597741058
 31
0.0
 11
-4.9671293259
 21
6.6514500966
 31
0.0
 11
-4.9589271966
 21
6.648074932
 31
0.0
  0
LINE
  5
245
100
AcDbEntity
  8
0
100
AcDbLine
 62
7
  6
CONTINUOUS
 10
1.2122806579
 20
3.219976513
 11
1.21342781
 21
3.0405430384
  0
LINE
  5
246
100
AcDbEntity
  8
0
100
AcDbLine
 62
7
  6
CONTINUOUS
 10
1.21342781
 20
3.0405430384
 11
1.2137241482
 21
2.9956890595
  0
LINE
  5
247
100
AcDbEntity
  8
0
100
AcDbLine
 62
7
  6
CONTINUOUS
 10
1.2137241482
 20
2.9956890595
 11
1.2162323324
 21
2.6369273687
  0
LINE
  5
248
100
AcDbEntity
  8
0
100
AcDbLine
 62
7
  6
CONTINUOUS
 10
1.2162323324
 20
2.6369273687
 11
1.2165630403
 21
2.5920909152
  0
LINE
  5
249
100
AcDbEntity
  8
0
100
AcDbLine
 62
7
  6
CONTINUOUS
 10
1.2165630403
 20
2.5920909152
 11
1.2193461803
 21
2.233469767
  0
LINE
  5
24A
100
AcDbEntity
  8
0
100
AcDbLine
 62
7
  6
CONTINUOUS
 10
1.2193461803
 20
2.233469767
 11
1.2197112575
 21
2.1886509222
  0
LINE
  5
24B
100
AcDbEntity
  8
0
100
AcDbLine
 62
7
  6
CONTINUOUS
 10
1.2197112575
 20
2.1886509222
 11
1.2212097703
 21
2.0093931842
  0
SPLINE
  5
24C
100
AcDbEntity
  8
0
100
AcDbSpline
 62
7
  6
CONTINUOUS
 70
0
 71
3
 72
25
 73
21
 74
19
 42
0.0000001
 43
0.0000001
 44
0.0000000001
 12
0.4760651431
 22
-0.2716862358
 32
0.0
 13
0.028742675
 23
-0.5473191178
 33
0.0
 40
0.0
 40
0.0
 40
0.0
 40
0.0
 40
0.0173798543
 40
0.0710354597
 40
0.1265740146
 40
0.183712675
 40
0.2426367666
 40
0.3030389801
 40
0.3644410988
 40
0.4266233133
 40
0.4896463532
 40
0.5529995242
 40
0.6161603136
 40
0.6791775961
 40
0.7418114536
 40
0.8035396236
 40
0.8639953254
 40
0.9233222358
 40
0.981159128
 40
1.0
 40
1.0
 40
1.0
 40
1.0
 10
0.9447661115
 20
3.6962282846
 30
0.0
 10
0.9475240925
 20
3.6946543289
 30
0.0
 10
0.9587104511
 20
3.6880693615
 30
0.0
 10
0.9780043095
 20
3.6752977268
 30
0.0
 10
1.0020806386
 20
3.6567301317
 30
0.0
 10
1.025574041
 20
3.6359520496
 30
0.0
 10
1.0483335419
 20
3.6131027883
 30
0.0
 10
1.0701933403
 20
3.5883445308
 30
0.0
 10
1.0909601446
 20
3.5619032038
 30
0.0
 10
1.1105024344
 20
3.5339593089
 30
0.0
 10
1.1286906301
 20
3.5046957372
 30
0.0
 10
1.145375467
 20
3.4743458939
 30
0.0
 10
1.1604274447
 20
3.4431553598
 30
0.0
 10
1.1737498776
 20
3.4113298856
 30
0.0
 10
1.1852481745
 20
3.3790779402
 30
0.0
 10
1.194815929
 20
3.3466883763
 30
0.0
 10
1.2023884046
 20
3.3143944271
 30
0.0
 10
1.2079130872
 20
3.2824068753
 30
0.0
 10
1.2106053374
 20
3.2576968484
 30
0.0
 10
1.2114989946
 20
3.243715803
 30
0.0
 10
1.2116795069
 20
3.2402784799
 30
0.0
 11
0.9447661115
 21
3.6962282846
 31
0.0
 11
0.9529764525
 21
3.6913972334
 31
0.0
 11
0.9775147115
 21
3.6752049105
 31
0.0
 11
1.0016343793
 21
3.6566499393
 31
0.0
 11
1.0251064693
 21
3.6359319508
 31
0.0
 11
1.0479095208
 21
3.6130757128
 31
0.0
 11
1.0698303005
 21
3.5882801678
 31
0.0
 11
1.0906235448
 21
3.5618312444
 31
0.0
 11
1.1101591405
 21
3.5339169328
 31
0.0
 11
1.1283938453
 21
3.5045920292
 31
0.0
 11
1.1451191703
 21
3.4741742149
 31
0.0
 11
1.1601587971
 21
3.4430056017
 31
0.0
 11
1.1734863091
 21
3.4111525957
 31
0.0
 11
1.1850010718
 21
3.3788233093
 31
0.0
 11
1.1945684057
 21
3.3463822296
 31
0.0
 11
1.2021116008
 21
3.3141272978
 31
0.0
 11
1.2076197099
 21
3.282090628
 31
0.0
 11
1.2110221381
 21
3.2505834975
 31
0.0
 11
1.2116795069
 21
3.2402784799
 31
0.0
  0
SPLINE
  5
24D
100
AcDbEntity
  8
0
100
AcDbSpline
 62
7
  6
CONTINUOUS
 70
0
 71
3
 72
18
 73
14
 74
12
 42
0.0000001
 43
0.0000001
 44
0.0000000001
 12
-0.0099005647
 22
-0.2476557594
 32
0.0
 13
-0.2335873972
 23
-0.0832697719
 33
0.0
 40
0.0
 40
0.0
 40
0.0
 40
0.0
 40
0.0392494446
 40
0.1540753989
 40
0.2637785377
 40
0.3681814313
 40
0.4681473846
 40
0.5638276364
 40
0.6554002396
 40
0.7436879507
 40
0.8300547987
 40
0.9152162534
 40
1.0
 40
1.0
 40
1.0
 40
1.0
 10
1.2209042559
 20
1.9895500346
 30
0.0
 10
1.2207747253
 20
1.9863099176
 30
0.0
 10
1.2201091112
 20
1.9735967686
 30
0.0
 10
1.2178744398
 20
1.9519028401
 30
0.0
 10
1.2128466564
 20
1.9251692489
 30
0.0
 10
1.2057495021
 20
1.900178297
 30
0.0
 10
1.1966286994
 20
1.877087227
 30
0.0
 10
1.1855355868
 20
1.8560598012
 30
0.0
 10
1.1725660091
 20
1.8372883681
 30
0.0
 10
1.1578091255
 20
1.8209000635
 30
0.0
 10
1.1413557134
 20
1.8070144607
 30
0.0
 10
1.123336843
 20
1.7957626663
 30
0.0
 10
1.1104385459
 20
1.7901038385
 30
0.0
 10
1.1038370744
 20
1.7877505308
 30
0.0
 11
1.2209042559
 21
1.9895500346
 31
0.0
 11
1.220394095
 21
1.9798354718
 31
0.0
 11
1.2174309376
 21
1.9515384297
 31
0.0
 11
1.2123546353
 21
1.9248342098
 31
0.0
 11
1.2052332029
 21
1.8999646173
 31
0.0
 11
1.196078318
 21
1.8769488066
 31
0.0
 11
1.1849639659
 21
1.8560076638
 31
0.0
 11
1.172021622
 21
1.8373708101
 31
0.0
 11
1.1573501925
 21
1.8211439251
 31
0.0
 11
1.1409761298
 21
1.8073651295
 31
0.0
 11
1.1230714666
 21
1.7961984808
 31
0.0
 11
1.1038370744
 21
1.7877505308
 31
0.0
  0
SPLINE
  5
24E
100
AcDbEntity
  8
RACCORDO
100
AcDbSpline
 62
7
  6
CONTINUOUS
 70
0
 71
3
 72
16
 73
12
 74
10
 42
0.0000001
 43
0.0000001
 44
0.0000000001
 12
0.1696147045
 22
0.1209883165
 32
0.0
 13
0.1861936725
 23
-0.0930968362
 33
0.0
 40
0.0
 40
0.0
 40
0.0
 40
0.0
 40
0.0958690123
 40
0.1972796348
 40
0.3000767723
 40
0.4055993299
 40
0.5145435844
 40
0.6275877901
 40
0.7461181251
 40
0.8703585636
 40
1.0
 40
1.0
 40
1.0
 40
1.0
 10
-5.1404031877
 20
6.6402313845
 30
0.0
 10
-5.134982923
 20
6.644097728
 30
0.0
 10
-5.1232979541
 20
6.6513116807
 30
0.0
 10
-5.1041617978
 20
6.6597001773
 30
0.0
 10
-5.0833834958
 20
6.6654643589
 30
0.0
 10
-5.0614968492
 20
6.6683893443
 30
0.0
 10
-5.0387112534
 20
6.6684528189
 30
0.0
 10
-5.0151941299
 20
6.665671756
 30
0.0
 10
-4.9911001981
 20
6.6600691287
 30
0.0
 10
-4.966614958
 20
6.651685568
 30
0.0
 10
-4.9505216761
 20
6.6444532547
 30
0.0
 10
-4.9424755377
 20
6.6404301855
 30
0.0
 11
-5.1404031877
 21
6.6402313845
 31
0.0
 11
-5.123414659
 21
6.6507077939
 31
0.0
 11
-5.1040833068
 21
6.6591908355
 31
0.0
 11
-5.0834699276
 21
6.6649372731
 31
0.0
 11
-5.061702452
 21
6.6678891937
 31
0.0
 11
-5.0390237291
 21
6.6680049975
 31
0.0
 11
-5.0156473951
 21
6.6652983425
 31
0.0
 11
-4.9916006945
 21
6.6597675055
 31
0.0
 11
-4.9671134746
 21
6.6514438553
 31
0.0
 11
-4.9424755377
 21
6.6404301855
 31
0.0
  0
SPLINE
  5
24F
100
AcDbEntity
  8
RACCORDO
100
AcDbSpline
 62
7
  6
CONTINUOUS
 70
0
 71
3
 72
19
 73
15
 74
13
 42
0.0000001
 43
0.0000001
 44
0.0000000001
 12
0.0023233124
 22
-0.2723466015
 32
0.0
 13
-0.2595315173
 23
-0.0833125346
 33
0.0
 40
0.0
 40
0.0
 40
0.0
 40
0.0
 40
0.1085012282
 40
0.2129420887
 40
0.312754366
 40
0.4077593882
 40
0.4987226518
 40
0.5857825686
 40
0.6691038925
 40
0.7494370233
 40
0.8280230385
 40
0.9055121163
 40
0.9826399433
 40
1.0
 40
1.0
 40
1.0
 40
1.0
 10
1.2212097703
 20
2.0093931842
 30
0.0
 10
1.2212937977
 20
1.999543204
 30
0.0
 10
1.2207881448
 20
1.9801974167
 30
0.0
 10
1.2178774459
 20
1.9519243381
 30
0.0
 10
1.2128515781
 20
1.9251898476
 30
0.0
 10
1.2057550377
 20
1.9001942253
 30
0.0
 10
1.1966338462
 20
1.8770981465
 30
0.0
 10
1.1855399754
 20
1.8560668313
 30
0.0
 10
1.1725692118
 20
1.8372922243
 30
0.0
 10
1.1578105255
 20
1.8209012176
 30
0.0
 10
1.141354645
 20
1.807013487
 30
0.0
 10
1.1233341268
 20
1.7957611859
 30
0.0
 10
1.1089869191
 20
1.7894671401
 30
0.0
 10
1.1008541841
 20
1.7867140597
 30
0.0
 10
1.0993523568
 20
1.7862319563
 30
0.0
 11
1.2212097703
 21
2.0093931842
 31
0.0
 11
1.2203952638
 21
1.9798533954
 31
0.0
 11
1.2174344944
 21
1.9515627554
 31
0.0
 11
1.2123598138
 21
1.9248560907
 31
0.0
 11
1.2052384671
 21
1.8999801127
 31
0.0
 11
1.1960831964
 21
1.8769593883
 31
0.0
 11
1.1849681862
 21
1.8560146046
 31
0.0
 11
1.1720247416
 21
1.8373747479
 31
0.0
 11
1.1573515157
 21
1.8211452046
 31
0.0
 11
1.1409749491
 21
1.8073642703
 31
0.0
 11
1.1230673296
 21
1.7961962972
 31
0.0
 11
1.1038341628
 21
1.787749493
 31
0.0
 11
1.0993523568
 21
1.7862319563
 31
0.0
  0
SPLINE
  5
250
100
AcDbEntity
  8
RACCORDO
100
AcDbSpline
 62
7
  6
CONTINUOUS
 70
0
 71
3
 72
25
 73
21
 74
19
 42
0.0000001
 43
0.0000001
 44
0.0000000001
 12
0.524939942
 22
-0.262469971
 32
0.0
 13
0.0036518538
 23
-0.5868893357
 33
0.0
 40
0.0
 40
0.0
 40
0.0
 40
0.0
 40
0.0480002896
 40
0.0980777546
 40
0.1499276073
 40
0.2032806204
 40
0.2582997211
 40
0.3146977562
 40
0.3720294192
 40
0.4300903448
 40
0.4889371177
 40
0.5480921557
 40
0.6070668692
 40
0.6659068303
 40
0.7243887663
 40
0.7820262864
 40
0.838476684
 40
0.8938625151
 40
0.9478403938
 40
1.0
 40
1.0
 40
1.0
 40
1.0
 10
0.9283083116
 20
3.7050382609
 30
0.0
 10
0.9367074014
 20
3.700838716
 30
0.0
 10
0.9535052405
 20
3.6915139292
 30
0.0
 10
0.9779854467
 20
3.6753111306
 30
0.0
 10
1.0020618644
 20
3.6567457565
 30
0.0
 10
1.0255586984
 20
3.6359666819
 30
0.0
 10
1.0483223219
 20
3.6131149006
 30
0.0
 10
1.0701856317
 20
3.5883539215
 30
0.0
 10
1.090955583
 20
3.5619095011
 30
0.0
 10
1.1105008484
 20
3.5339618795
 30
0.0
 10
1.1286917752
 20
3.5046939661
 30
0.0
 10
1.14537888
 20
3.4743394722
 30
0.0
 10
1.1604325112
 20
3.4431443106
 30
0.0
 10
1.1737559983
 20
3.4113143111
 30
0.0
 10
1.1852548832
 20
3.3790576509
 30
0.0
 10
1.1948227915
 20
3.3466629053
 30
0.0
 10
1.2023943894
 20
3.3143653612
 30
0.0
 10
1.2079168622
 20
3.2823794054
 30
0.0
 10
1.2113400452
 20
3.2509453765
 30
0.0
 10
1.2122171649
 20
3.2301804852
 30
0.0
 10
1.2122806579
 20
3.219976513
 30
0.0
 11
0.9283083116
 21
3.7050382609
 31
0.0
 11
0.9529617707
 21
3.6914061325
 31
0.0
 11
0.9774935931
 21
3.6752199925
 31
0.0
 11
1.0016141514
 21
3.6566666352
 31
0.0
 11
1.0250911531
 21
3.6359463701
 31
0.0
 11
1.0478983656
 21
3.6130875972
 31
0.0
 11
1.0698225109
 21
3.5882895144
 31
0.0
 11
1.0906188017
 21
3.5618376388
 31
0.0
 11
1.1101573856
 21
3.5339195917
 31
0.0
 11
1.1283949032
 21
3.5045902213
 31
0.0
 11
1.1451225659
 21
3.4741676299
 31
0.0
 11
1.1601638466
 21
3.4429943847
 31
0.0
 11
1.1734923519
 21
3.4111369864
 31
0.0
 11
1.1850076134
 21
3.3788032085
 31
0.0
 11
1.1945751022
 21
3.3463568996
 31
0.0
 11
1.2021179214
 21
3.3140961756
 31
0.0
 11
1.2076240172
 21
3.2820599175
 31
0.0
 11
1.2110236589
 21
3.2505632041
 31
0.0
 11
1.2122806579
 21
3.219976513
 31
0.0
  0
SPLINE
  5
251
100
AcDbEntity
  8
0
100
AcDbSpline
 62
253
  6
CONTINUOUS
 70
0
 71
3
 72
17
 73
13
 74
11
 42
0.0000001
 43
0.0000001
 44
0.0000000001
 12
0.0036245442
 22
-0.2417804495
 32
0.0
 13
0.2159671725
 23
-0.1081563273
 33
0.0
 40
0.0
 40
0.0
 40
0.0
 40
0.0
 40
0.0103943541
 40
0.1011450801
 40
0.1939167887
 40
0.2903486394
 40
0.3918036089
 40
0.4993198327
 40
0.6136097523
 40
0.7350873343
 40
0.8639064207
 40
1.0
 40
1.0
 40
1.0
 40
1.0
 10
-9.5021851275
 20
3.7973763439
 30
0.0
 10
-9.5021725693
 20
3.7965386267
 30
0.0
 10
-9.5019719584
 20
3.7883882245
 30
0.0
 10
-9.5001191264
 20
3.7728130382
 30
0.0
 10
-9.4938169265
 20
3.7510731839
 30
0.0
 10
-9.4839048869
 20
3.7297817495
 30
0.0
 10
-9.4704832659
 20
3.7090938794
 30
0.0
 10
-9.4536694595
 20
3.6891492673
 30
0.0
 10
-9.4335959913
 20
3.6700788598
 30
0.0
 10
-9.4104113961
 20
3.6520082474
 30
0.0
 10
-9.384284895
 20
3.6350597452
 30
0.0
 10
-9.3655290588
 20
3.6248577179
 30
0.0
 10
-9.3557318103
 20
3.6199512573
 30
0.0
 11
-9.5021851275
 21
3.7973763439
 31
0.0
 11
-9.5021232493
 21
3.7948637258
 31
0.0
 11
-9.4995569933
 21
3.7730949057
 31
0.0
 11
-9.4933720883
 21
3.7515576808
 31
0.0
 11
-9.483613538
 21
3.7304087641
 31
0.0
 11
-9.4703523493
 21
3.709802043
 31
0.0
 11
-9.4536850155
 21
3.6898874599
 31
0.0
 11
-9.4337328145
 21
3.6708099206
 31
0.0
 11
-9.410640926
 21
3.6527082405
 31
0.0
 11
-9.3845773752
 21
3.6357141342
 31
0.0
 11
-9.3557318103
 21
3.6199512573
 31
0.0
  0
SPLINE
  5
252
100
AcDbEntity
  8
0
100
AcDbSpline
 62
253
  6
CONTINUOUS
 70
0
 71
3
 72
16
 73
12
 74
10
 42
0.0000001
 43
0.0000001
 44
0.0000000001
 12
0.0300544655
 22
-0.2369117407
 32
0.0
 13
0.2129374737
 23
-0.1076450945
 33
0.0
 40
0.0
 40
0.0
 40
0.0
 40
0.0
 40
0.0419570095
 40
0.1478301612
 40
0.2556731318
 40
0.3667532257
 40
0.4821419938
 40
0.6026786475
 40
0.728960222
 40
0.8613505755
 40
1.0
 40
1.0
 40
1.0
 40
1.0
 10
-8.826752983
 20
-5.9805382914
 30
0.0
 10
-8.8263326511
 20
-5.9838516608
 30
0.0
 10
-8.8245151744
 20
-5.9954831166
 30
0.0
 10
-8.8193313253
 20
-6.0152185943
 30
0.0
 10
-8.8092702363
 20
-6.0391008064
 30
0.0
 10
-8.7957068986
 20
-6.0620578449
 30
0.0
 10
-8.7787571161
 20
-6.083923034
 30
0.0
 10
-8.7585572928
 20
-6.10454369
 30
0.0
 10
-8.7352614752
 20
-6.1237791239
 30
0.0
 10
-8.7090446269
 20
-6.1414972305
 30
0.0
 10
-8.6901744223
 20
-6.1519789668
 30
0.0
 10
-8.6803332029
 20
-6.1569539436
 30
0.0
 11
-8.826752983
 21
-5.9805382914
 31
0.0
 11
-8.8252059436
 21
-5.9904363628
 31
0.0
 11
-8.818809994
 21
-6.0148745586
 31
0.0
 11
-8.8088608224
 21
-6.0386045819
 31
0.0
 11
-8.7954308588
 21
-6.0614536779
 31
0.0
 11
-8.7786178735
 21
-6.083255505
 31
0.0
 11
-8.7585442653
 21
-6.1038513455
 31
0.0
 11
-8.7353561704
 21
-6.1230912615
 31
0.0
 11
-8.7092223982
 21
-6.1408351862
 31
0.0
 11
-8.6803332029
 21
-6.1569539436
 31
0.0
  0
SPLINE
  5
253
100
AcDbEntity
  8
0
100
AcDbSpline
 62
253
  6
CONTINUOUS
 70
0
 71
3
 72
18
 73
14
 74
12
 42
0.0000001
 43
0.0000001
 44
0.0000000001
 12
-0.4490484469
 22
0.2245007759
 32
0.0
 13
-0.0642094495
 23
0.4976164706
 33
0.0
 40
0.0
 40
0.0
 40
0.0
 40
0.0
 40
0.0192452194
 40
0.1058891042
 40
0.1935715279
 40
0.2830181993
 40
0.374878286
 40
0.4697031026
 40
0.5679357104
 40
0.6699079118
 40
0.7758439671
 40
0.8858644414
 40
1.0
 40
1.0
 40
1.0
 40
1.0
 10
-8.4327417969
 20
-6.5704696281
 30
0.0
 10
-8.4356224756
 20
-6.5690294392
 30
0.0
 10
-8.4513664651
 20
-6.5608939351
 30
0.0
 10
-8.479024302
 20
-6.5439195086
 30
0.0
 10
-8.5137171096
 20
-6.5165079407
 30
0.0
 10
-8.5456676703
 20
-6.4847036683
 30
0.0
 10
-8.574711544
 20
-6.4486863583
 30
0.0
 10
-8.6007040749
 20
-6.4086545319
 30
0.0
 10
-8.6235188621
 20
-6.3648235127
 30
0.0
 10
-8.6430465441
 20
-6.3174246132
 30
0.0
 10
-8.6591940224
 20
-6.2667038169
 30
0.0
 10
-8.6718840468
 20
-6.2129258501
 30
0.0
 10
-8.6778903425
 20
-6.1758858549
 30
0.0
 10
-8.680333203
 20
-6.1569539436
 30
0.0
 11
-8.4327417969
 21
-6.5704696281
 31
0.0
 11
-8.4413250842
 21
-6.5660342156
 31
0.0
 11
-8.4783868595
 21
-6.5433116377
 31
0.0
 11
-8.5129318687
 21
-6.5160699389
 31
0.0
 11
-8.5447809161
 21
-6.4844507008
 31
0.0
 11
-8.5737690247
 21
-6.4486179885
 31
0.0
 11
-8.5997458924
 21
-6.4087578649
 31
0.0
 11
-8.6225768766
 21
-6.3650772497
 31
0.0
 11
-8.6421436723
 21
-6.317802858
 31
0.0
 11
-8.6583450155
 21
-6.2671796256
 31
0.0
 11
-8.6710968111
 21
-6.2134707778
 31
0.0
 11
-8.680333203
 21
-6.1569539436
 31
0.0
  0
SPLINE
  5
254
100
AcDbEntity
  8
RACCORDO
100
AcDbSpline
 62
253
  6
CONTINUOUS
 70
0
 71
3
 72
25
 73
21
 74
19
 42
0.0000001
 43
0.0000001
 44
0.0000000001
 12
-0.322542062
 22
-0.153715816
 32
0.0
 13
-0.3195783395
 23
0.1597861657
 33
0.0
 40
0.0
 40
0.0
 40
0.0
 40
0.0
 40
0.0494954376
 40
0.1011644218
 40
0.1547958882
 40
0.2101520197
 40
0.2669695962
 40
0.3249641445
 40
0.3838344909
 40
0.4432679998
 40
0.5029448047
 40
0.5625417143
 40
0.6217365154
 40
0.6802124479
 40
0.7376621202
 40
0.7937918312
 40
0.8483269394
 40
0.9010166122
 40
0.9516383009
 40
1.0
 40
1.0
 40
1.0
 40
1.0
 10
5.909436639
 20
4.3707544736
 30
0.0
 10
5.9041151855
 20
4.3682183964
 30
0.0
 10
5.8930625162
 20
4.3633981454
 30
0.0
 10
5.875744776
 20
4.3570473379
 30
0.0
 10
5.8574358779
 20
4.3514570983
 30
0.0
 10
5.8382695546
 20
4.3466685514
 30
0.0
 10
5.8183839784
 20
4.3427161677
 30
0.0
 10
5.7979229927
 20
4.3396286416
 30
0.0
 10
5.7770346807
 20
4.3374283753
 30
0.0
 10
5.7558703479
 20
4.3361313599
 30
0.0
 10
5.7345833258
 20
4.3357470201
 30
0.0
 10
5.713327873
 20
4.3362781473
 30
0.0
 10
5.6922580111
 20
4.3377208715
 30
0.0
 10
5.6715263679
 20
4.340064699
 30
0.0
 10
5.6512830686
 20
4.3432925913
 30
0.0
 10
5.6316745503
 20
4.3473811359
 30
0.0
 10
5.6128425675
 20
4.3523006724
 30
0.0
 10
5.5949227358
 20
4.3580158522
 30
0.0
 10
5.5780458484
 20
4.3644847029
 30
0.0
 10
5.5673133006
 20
4.369386569
 30
0.0
 10
5.5621615168
 20
4.3719624125
 30
0.0
 11
5.909436639
 21
4.3707544736
 31
0.0
 11
5.8932365359
 21
4.3636620371
 31
0.0
 11
5.8759113841
 21
4.3572858214
 31
0.0
 11
5.857589342
 21
4.3516732321
 31
0.0
 11
5.8384039926
 21
4.3468652182
 31
0.0
 11
5.8184948468
 21
4.3428967307
 31
0.0
 11
5.7980067167
 21
4.3397966434
 31
0.0
 11
5.7770887807
 21
4.3375875317
 31
0.0
 11
5.7558932567
 21
4.3362854679
 31
0.0
 11
5.7345743335
 21
4.3358999232
 31
0.0
 11
5.7132871621
 21
4.3364337038
 31
0.0
 11
5.6921866808
 21
4.3378829212
 31
0.0
 11
5.6714263865
 21
4.3402370297
 31
0.0
 11
5.6511573458
 21
4.3434788982
 31
0.0
 11
5.631527134
 21
4.3475849161
 31
0.0
 11
5.6126785248
 21
4.3525252079
 31
0.0
 11
5.5947485735
 21
4.3582638591
 31
0.0
 11
5.5778679964
 21
4.3647590025
 31
0.0
 11
5.5621615168
 21
4.3719624125
 31
0.0
  0
SPLINE
  5
255
100
AcDbEntity
  8
RACCORDO
100
AcDbSpline
 62
253
  6
CONTINUOUS
 70
0
 71
3
 72
25
 73
21
 74
19
 42
0.0000001
 43
0.0000001
 44
0.0000000001
 12
-0.2109794759
 22
0.1054917212
 32
0.0
 13
0.2069226435
 23
0.1132424924
 33
0.0
 40
0.0
 40
0.0
 40
0.0
 40
0.0
 40
0.0696259316
 40
0.1354941003
 40
0.1975520195
 40
0.2558682771
 40
0.3106467485
 40
0.3622458225
 40
0.411194015
 40
0.4581922643
 40
0.5040904017
 40
0.549831955
 40
0.5963745027
 40
0.6446058402
 40
0.6952792112
 40
0.7489797848
 40
0.8061199722
 40
0.8669516448
 40
0.9315844569
 40
1.0
 40
1.0
 40
1.0
 40
1.0
 10
-9.2419855013
 20
11.7740359215
 30
0.0
 10
-9.2468820488
 20
11.7764842413
 30
0.0
 10
-9.2562557853
 20
11.781569885
 30
0.0
 10
-9.2693171533
 20
11.7900068741
 30
0.0
 10
-9.2809082089
 20
11.7989893517
 30
0.0
 10
-9.2909438485
 20
11.8084562109
 30
0.0
 10
-9.2993500319
 20
11.8183451935
 30
0.0
 10
-9.306060724
 20
11.8285917588
 30
0.0
 10
-9.3110172314
 20
11.839127276
 30
0.0
 10
-9.3141689898
 20
11.849875511
 30
0.0
 10
-9.315478253
 20
11.8607494917
 30
0.0
 10
-9.3149276686
 20
11.8716528672
 30
0.0
 10
-9.3125251878
 20
11.8824875413
 30
0.0
 10
-9.3083014807
 20
11.8931625772
 30
0.0
 10
-9.3023025244
 20
11.9035978017
 30
0.0
 10
-9.2945835936
 20
11.9137217539
 30
0.0
 10
-9.2852073517
 20
11.9234679502
 30
0.0
 10
-9.2742441074
 20
11.9327724856
 30
0.0
 10
-9.2617750128
 20
11.9415723506
 30
0.0
 10
-9.2527672281
 20
11.9469144374
 30
0.0
 10
-9.2480483198
 20
11.949496953
 30
0.0
 11
-9.2419855013
 21
11.7740359215
 31
0.0
 11
-9.2564060653
 21
11.7818960334
 31
0.0
 11
-9.2694374927
 21
11.7903568922
 31
0.0
 11
-9.2809830327
 21
11.7993559867
 31
0.0
 11
-9.2909584546
 21
11.8088277104
 31
0.0
 11
-9.2992912394
 21
11.8187031908
 31
0.0
 11
-9.3059207581
 21
11.8289106021
 31
0.0
 11
-9.3107987284
 21
11.8393756258
 31
0.0
 11
-9.3138896528
 21
11.8500221112
 31
0.0
 11
-9.3151710396
 21
11.8607726097
 31
0.0
 11
-9.3146335554
 21
11.871548874
 31
0.0
 11
-9.3122811129
 21
11.8822724785
 31
0.0
 11
-9.3081308235
 21
11.8928654135
 31
0.0
 11
-9.3022128819
 21
11.903250595
 31
0.0
 11
-9.294570384
 21
11.9133524065
 31
0.0
 11
-9.2852589352
 21
11.9230973707
 31
0.0
 11
-9.274346223
 21
11.932414625
 31
0.0
 11
-9.2619118669
 21
11.9412362385
 31
0.0
 11
-9.2480483198
 21
11.949496953
 31
0.0
  0
SPLINE
  5
256
100
AcDbEntity
  8
RACCORDO
100
AcDbSpline
 62
253
  6
CONTINUOUS
 70
0
 71
3
 72
14
 73
10
 74
8
 42
0.0000001
 43
0.0000001
 44
0.0000000001
 12
0.1079825595
 22
0.0590789721
 32
0.0
 13
0.1114448285
 23
-0.0519220795
 33
0.0
 40
0.0
 40
0.0
 40
0.0
 40
0.0
 40
0.1015894819
 40
0.2371899148
 40
0.3765345955
 40
0.5213745949
 40
0.6730463026
 40
0.8324372892
 40
1.0
 40
1.0
 40
1.0
 40
1.0
 10
-9.3665234687
 20
11.9530771784
 30
0.0
 10
-9.362866838
 20
11.9550777791
 30
0.0
 10
-9.3540339138
 20
11.9592096571
 30
0.0
 10
-9.3391877283
 20
11.9636628654
 30
0.0
 10
-9.3220667378
 20
11.9659408578
 30
0.0
 10
-9.304146562
 20
11.9656501339
 30
0.0
 10
-9.285626722
 20
11.9628091544
 30
0.0
 10
-9.2667094375
 20
11.957462736
 30
0.0
 10
-9.2542729856
 20
11.9523970211
 30
0.0
 10
-9.2480483198
 20
11.949496953
 30
0.0
 11
-9.3665234687
 21
11.9530771784
 31
0.0
 11
-9.3552052491
 21
11.9583738107
 31
0.0
 11
-9.3392446295
 21
11.9631905536
 31
0.0
 11
-9.3222683361
 21
11.9654946924
 31
0.0
 11
-9.3044622926
 21
11.9652609923
 31
0.0
 11
-9.2860215102
 21
11.9624920129
 31
0.0
 11
-9.2671479518
 21
11.9572180798
 31
0.0
 11
-9.2480483198
 21
11.949496953
 31
0.0
  0
SPLINE
  5
257
100
AcDbEntity
  8
RACCORDO
100
AcDbSpline
 62
7
  6
CONTINUOUS
 70
0
 71
3
 72
25
 73
21
 74
19
 42
0.0000001
 43
0.0000001
 44
0.0000000001
 12
-0.5245274405
 22
0.2622637203
 32
0.0
 13
-0.0050025686
 23
0.5864181692
 33
0.0
 40
0.0
 40
0.0
 40
0.0
 40
0.0
 40
0.0479689405
 40
0.0980125495
 40
0.1498255404
 40
0.2031382304
 40
0.2581145878
 40
0.3144706373
 40
0.3717636343
 40
0.4297891306
 40
0.4886088045
 40
0.5477482898
 40
0.6067200463
 40
0.6655679539
 40
0.7240731896
 40
0.7817494485
 40
0.8382510683
 40
0.8937000221
 40
0.9477535516
 40
1.0
 40
1.0
 40
1.0
 40
1.0
 10
-4.9289179128
 20
4.7423968
 30
0.0
 10
-4.9373049213
 20
4.7465903042
 30
0.0
 10
-4.9540796387
 20
4.7558989702
 30
0.0
 10
-4.9785308954
 20
4.7720671689
 30
0.0
 10
-5.0025843065
 20
4.7905873512
 30
0.0
 10
-5.0260652092
 20
4.8113115435
 30
0.0
 10
-5.0488212934
 20
4.834100285
 30
0.0
 10
-5.0706867738
 20
4.8587923006
 30
0.0
 10
-5.0914692331
 20
4.8851642273
 30
0.0
 10
-5.1110378392
 20
4.9130384847
 30
0.0
 10
-5.1292631195
 20
4.9422350086
 30
0.0
 10
-5.1459953623
 20
4.9725232864
 30
0.0
 10
-5.1611036451
 20
5.0036594106
 30
0.0
 10
-5.1744900478
 20
5.035439538
 30
0.0
 10
-5.1860585962
 20
5.0676571992
 30
0.0
 10
-5.195700933
 20
5.1000252687
 30
0.0
 10
-5.2033495256
 20
5.1323086389
 30
0.0
 10
-5.2089495257
 20
5.164292949
 30
0.0
 10
-5.2124487325
 20
5.1957380206
 30
0.0
 10
-5.2133748163
 20
5.2165162831
 30
0.0
 10
-5.2134619384
 20
5.2267290386
 30
0.0
 11
-4.9289179128
 21
4.7423968
 31
0.0
 11
-4.9535379102
 21
4.7560057027
 31
0.0
 11
-4.9780409095
 21
4.7721575348
 31
0.0
 11
-5.0021385508
 21
4.7906659961
 31
0.0
 11
-5.0255994486
 21
4.8113315645
 31
0.0
 11
-5.0483986538
 21
4.8341270398
 31
0.0
 11
-5.0703246222
 21
4.8588558826
 31
0.0
 11
-5.0911333927
 21
4.8852354126
 31
0.0
 11
-5.110694664
 21
4.9130794717
 31
0.0
 11
-5.1289662512
 21
4.9423369082
 31
0.0
 11
-5.1457390297
 21
4.9726930663
 31
0.0
 11
-5.1608350403
 21
5.0038076897
 31
0.0
 11
-5.174226156
 21
5.0356144351
 31
0.0
 11
-5.1858112154
 21
5.0679091329
 31
0.0
 11
-5.1954533927
 21
5.1003292937
 31
0.0
 11
-5.2030731413
 21
5.1325760488
 31
0.0
 11
-5.2086568429
 21
5.1646105192
 31
0.0
 11
-5.2121326606
 21
5.1961185059
 31
0.0
 11
-5.2134619384
 21
5.2267290386
 31
0.0
  0
SPLINE
  5
258
100
AcDbEntity
  8
RACCORDO
100
AcDbSpline
 62
7
  6
CONTINUOUS
 70
0
 71
3
 72
16
 73
12
 74
10
 42
0.0000001
 43
0.0000001
 44
0.0000000001
 12
-0.0013169092
 22
0.211640437
 32
0.0
 13
0.1590675193
 23
0.1398736643
 33
0.0
 40
0.0
 40
0.0
 40
0.0
 40
0.0
 40
0.1395272774
 40
0.2739201021
 40
0.402445843
 40
0.5248674379
 40
0.6421671143
 40
0.7545208464
 40
0.8621290013
 40
0.9659378976
 40
1.0
 40
1.0
 40
1.0
 40
1.0
 10
-5.2223910508
 20
6.4373123674
 30
0.0
 10
-5.2224522991
 20
6.447155572
 30
0.0
 10
-5.2219001916
 20
6.4664926875
 30
0.0
 10
-5.218916852
 20
6.4947565446
 30
0.0
 10
-5.2138157934
 20
6.5214939331
 30
0.0
 10
-5.2066410479
 20
6.5465030996
 30
0.0
 10
-5.1974382202
 20
6.5696219596
 30
0.0
 10
-5.1862589622
 20
6.5906837348
 30
0.0
 10
-5.1731992988
 20
6.6094942124
 30
0.0
 10
-5.1615528277
 20
6.6223792855
 30
0.0
 10
-5.154390758
 20
6.6289759937
 30
0.0
 10
-5.1525847
 20
6.6305641241
 30
0.0
 11
-5.2223910508
 21
6.4373123674
 31
0.0
 11
-5.2215062394
 21
6.4668292942
 31
0.0
 11
-5.2184732202
 21
6.4951106286
 31
0.0
 11
-5.2133238579
 21
6.5218205591
 31
0.0
 11
-5.2061251738
 21
6.5467103133
 31
0.0
 11
-5.19688905
 21
6.5697541003
 31
0.0
 11
-5.1856890917
 21
6.59073038
 31
0.0
 11
-5.1726567564
 21
6.609407751
 31
0.0
 11
-5.1578917473
 21
6.6256773894
 31
0.0
 11
-5.1525847
 21
6.6305641241
 31
0.0
  0
LINE
  5
259
100
AcDbEntity
  8
RACCORDO
100
AcDbLine
 62
7
  6
CONTINUOUS
 10
-5.2134619384
 20
5.2267290386
 11
-5.2149604514
 21
5.4059867833
  0
LINE
  5
25A
100
AcDbEntity
  8
RACCORDO
100
AcDbLine
 62
7
  6
CONTINUOUS
 10
-5.2149604514
 20
5.4059867833
 11
-5.2153255284
 21
5.4508056213
  0
LINE
  5
25B
100
AcDbEntity
  8
RACCORDO
100
AcDbLine
 62
7
  6
CONTINUOUS
 10
-5.2153255284
 20
5.4508056213
 11
-5.2181086685
 21
5.8094267816
  0
LINE
  5
25C
100
AcDbEntity
  8
RACCORDO
100
AcDbLine
 62
7
  6
CONTINUOUS
 10
-5.2181086685
 20
5.8094267816
 11
-5.2184393764
 21
5.854263224
  0
LINE
  5
25D
100
AcDbEntity
  8
RACCORDO
100
AcDbLine
 62
7
  6
CONTINUOUS
 10
-5.2184393764
 20
5.854263224
 11
-5.2209475606
 21
6.2130249208
  0
LINE
  5
25E
100
AcDbEntity
  8
RACCORDO
100
AcDbLine
 62
7
  6
CONTINUOUS
 10
-5.2209475606
 20
6.2130249208
 11
-5.2212438987
 21
6.2578788938
  0
LINE
  5
25F
100
AcDbEntity
  8
RACCORDO
100
AcDbLine
 62
7
  6
CONTINUOUS
 10
-5.2212438987
 20
6.2578788938
 11
-5.2223910508
 21
6.4373123674
  0
SPLINE
  5
260
100
AcDbEntity
  8
RACCORDO
100
AcDbSpline
 62
7
  6
CONTINUOUS
 70
0
 71
3
 72
14
 73
10
 74
8
 42
0.0000001
 43
0.0000001
 44
0.0000000001
 12
-0.1527487844
 22
-0.0464479534
 32
0.0
 13
-0.1426836499
 23
0.071341825
 33
0.0
 40
0.0
 40
0.0
 40
0.0
 40
0.0
 40
0.0893502555
 40
0.2264496758
 40
0.3680625496
 40
0.5150875753
 40
0.6693379792
 40
0.8311090423
 40
1.0
 40
1.0
 40
1.0
 40
1.0
 10
1.0971395144
 20
1.7855404066
 30
0.0
 10
1.0925901334
 20
1.7841570278
 30
0.0
 10
1.0808940127
 20
1.7811962429
 30
0.0
 10
1.0614348402
 20
1.7786059602
 30
0.0
 10
1.0387368281
 20
1.7785584142
 30
0.0
 10
1.0152994413
 20
1.7813469484
 30
0.0
 10
0.9912749944
 20
1.7869488254
 30
0.0
 10
0.9668469601
 20
1.7953240717
 30
0.0
 10
0.9507859766
 20
1.8025448553
 30
0.0
 10
0.9427533171
 20
1.806561185
 30
0.0
 11
1.0971395144
 21
1.7855404066
 31
0.0
 11
1.0833172724
 21
1.7820333945
 31
0.0
 11
1.0616434257
 21
1.7791048066
 31
0.0
 11
1.0390528317
 21
1.7790042334
 31
0.0
 11
1.0157561339
 21
1.7817177192
 31
0.0
 11
0.9917786739
 21
1.7872473754
 31
0.0
 11
0.9673484065
 21
1.7955624454
 31
0.0
 11
0.9427533171
 21
1.806561185
 31
0.0
  0
SPLINE
  5
261
100
AcDbEntity
  8
RACCORDO
100
AcDbSpline
 62
253
  6
CONTINUOUS
 70
0
 71
3
 72
22
 73
18
 74
16
 42
0.0000001
 43
0.0000001
 44
0.0000000001
 12
-0.0027087752
 22
0.3665121304
 32
0.0
 13
-0.322967055
 23
0.1732938562
 33
0.0
 40
0.0
 40
0.0
 40
0.0
 40
0.0
 40
0.0629566414
 40
0.1283834588
 40
0.195913743
 40
0.2651259748
 40
0.3355575138
 40
0.4067172398
 40
0.4780975125
 40
0.5491857568
 40
0.6194759385
 40
0.6884801858
 40
0.7557408241
 40
0.8208431402
 40
0.8834292511
 40
0.9432135227
 40
1.0
 40
1.0
 40
1.0
 40
1.0
 10
6.0814788771
 20
4.0636084779
 30
0.0
 10
6.081422032
 20
4.0712999355
 30
0.0
 10
6.0806474924
 20
4.0869853742
 30
0.0
 10
6.077664477
 20
4.1107542499
 30
0.0
 10
6.0728689277
 20
4.1350040739
 30
0.0
 10
6.0663131598
 20
4.1594700318
 30
0.0
 10
6.0580684377
 20
4.1838873549
 30
0.0
 10
6.0482243712
 20
4.2079906727
 30
0.0
 10
6.036887966
 20
4.2315180705
 30
0.0
 10
6.0241824562
 20
4.2542137772
 30
0.0
 10
6.0102459017
 20
4.2758311334
 30
0.0
 10
5.9952296197
 20
4.2961353202
 30
0.0
 10
5.9792962882
 20
4.3149060279
 30
0.0
 10
5.9626183506
 20
4.3319396527
 30
0.0
 10
5.9453745185
 20
4.3470521404
 30
0.0
 10
5.9277522069
 20
4.360078222
 30
0.0
 10
5.9155500261
 20
4.3674742244
 30
0.0
 10
5.909436639
 20
4.3707544736
 30
0.0
 11
6.0814788771
 21
4.0636084779
 31
0.0
 11
6.080378578
 21
4.0866572328
 31
0.0
 11
6.0774230237
 21
4.1104547786
 31
0.0
 11
6.0726445832
 21
4.1347404853
 31
0.0
 11
6.0660955899
 21
4.1592483767
 31
0.0
 11
6.0578477683
 21
4.1837100432
 31
0.0
 11
6.0479914482
 21
4.2078575813
 31
0.0
 11
6.0366345756
 21
4.2314265281
 31
0.0
 11
6.0239015309
 21
4.2541587573
 31
0.0
 11
6.0099317658
 21
4.2758053063
 31
0.0
 11
5.9948782767
 21
4.2961291029
 31
0.0
 11
5.978905929
 21
4.3149075616
 31
0.0
 11
5.9621896514
 21
4.3319350215
 31
0.0
 11
5.9449125197
 21
4.3470249985
 31
0.0
 11
5.9272637527
 21
4.3600122277
 31
0.0
 11
5.909436639
 21
4.3707544736
 31
0.0
  0
SPLINE
  5
262
100
AcDbEntity
  8
RACCORDO
100
AcDbSpline
 62
253
  6
CONTINUOUS
 70
0
 71
3
 72
22
 73
18
 74
16
 42
0.0000001
 43
0.0000001
 44
0.0000000001
 12
-0.000238189
 22
0.366577057
 32
0.0
 13
0.326468929
 23
0.166723825
 33
0.0
 40
0.0
 40
0.0
 40
0.0
 40
0.0
 40
0.0627686171
 40
0.1278905369
 40
0.1950351148
 40
0.2638167547
 40
0.3338081528
 40
0.4045525959
 40
0.4755756192
 40
0.5463962937
 40
0.6165383804
 40
0.6855415807
 40
0.7529731191
 40
0.8184399196
 40
0.8816016779
 40
0.9421851557
 40
1.0
 40
1.0
 40
1.0
 40
1.0
 10
5.3869275254
 20
4.0676750707
 30
0.0
 10
5.3869225418
 20
4.0753449157
 30
0.0
 10
5.3875897625
 20
4.0909786694
 30
0.0
 10
5.3904690122
 20
4.1146573263
 30
0.0
 10
5.3952147104
 20
4.1387826769
 30
0.0
 10
5.4017754249
 20
4.1630937287
 30
0.0
 10
5.4100804099
 20
4.1873300844
 30
0.0
 10
5.4200402235
 20
4.2112309772
 30
0.0
 10
5.4315476397
 20
4.2345392927
 30
0.0
 10
5.4444787987
 20
4.2570041494
 30
0.0
 10
5.4586945912
 20
4.2783837792
 30
0.0
 10
5.4740422119
 20
4.2984481655
 30
0.0
 10
5.490357036
 20
4.3169816161
 30
0.0
 10
5.5074641972
 20
4.3337848843
 30
0.0
 10
5.5251820219
 20
4.3486778833
 30
0.0
 10
5.5433195779
 20
4.3614990209
 30
0.0
 10
5.5558699333
 20
4.3687493752
 30
0.0
 10
5.5621615168
 20
4.3719624125
 30
0.0
 11
5.3869275254
 21
4.0676750707
 31
0.0
 11
5.3878715546
 21
4.0906652367
 31
0.0
 11
5.3907226555
 21
4.1143665759
 31
0.0
 11
5.3954499054
 21
4.1385220247
 31
0.0
 11
5.4020020325
 21
4.1628695944
 31
0.0
 11
5.4103079731
 21
4.1871452125
 31
0.0
 11
5.4202776411
 21
4.2110855868
 31
0.0
 11
5.431802906
 21
4.2344310611
 31
0.0
 11
5.4447587655
 21
4.2569284317
 31
0.0
 11
5.4590047009
 21
4.2783336931
 31
0.0
 11
5.4743862015
 21
4.298414685
 31
0.0
 11
5.4907364403
 21
4.3169536099
 31
0.0
 11
5.5078780834
 21
4.3337493955
 31
0.0
 11
5.5256252134
 21
4.3486198757
 31
0.0
 11
5.5437853458
 21
4.3614037658
 31
0.0
 11
5.5621615168
 21
4.3719624125
 31
0.0
  0
SPLINE
  5
263
100
AcDbEntity
  8
0
100
AcDbSpline
 62
253
  6
CONTINUOUS
 70
0
 71
3
 72
16
 73
12
 74
10
 42
0.0000001
 43
0.0000001
 44
0.0000000001
 12
-1.2344583664
 22
9.7271614722
 32
0.0
 13
-0.1480278181
 23
9.8040627053
 33
0.0
 40
0.0
 40
0.0
 40
0.0
 40
0.0
 40
0.1080730282
 40
0.216918925
 40
0.3265327533
 40
0.4369090339
 40
0.5480417747
 40
0.6599244812
 40
0.7725501569
 40
0.8859113138
 40
1.0
 40
1.0
 40
1.0
 40
1.0
 10
-8.680333203
 20
-6.1569539436
 30
0.0
 10
-8.7248037543
 20
-5.8065393448
 30
0.0
 10
-8.8094285407
 20
-5.1026075834
 30
0.0
 10
-8.9230862233
 20
-4.0414114152
 30
0.0
 10
-9.0238957114
 20
-2.9713549178
 30
0.0
 10
-9.111835573
 20
-1.8926658189
 30
0.0
 10
-9.1868874741
 20
-0.8055705065
 30
0.0
 10
-9.2490356776
 20
0.28970189
 30
0.0
 10
-9.2982671881
 20
1.3929213741
 30
0.0
 10
-9.3345716792
 20
2.5038536957
 30
0.0
 10
-9.3501023772
 20
3.2471070461
 30
0.0
 10
-9.3557318103
 20
3.6199512573
 30
0.0
 11
-8.680333203
 21
-6.1569539436
 31
0.0
 11
-8.8068630305
 21
-5.1048596552
 31
0.0
 11
-8.9205677847
 21
-4.0436803431
 31
0.0
 11
-9.0214235566
 21
-2.9736395376
 31
0.0
 11
-9.1094091373
 21
-1.8949626794
 31
0.0
 11
-9.1845060336
 21
-0.8078769296
 31
0.0
 11
-9.246698465
 21
0.2873888485
 31
0.0
 11
-9.2959733583
 21
1.39060401
 31
0.0
 11
-9.3323203527
 21
2.5015361417
 31
0.0
 11
-9.3557318103
 21
3.6199512573
 31
0.0
  0
SPLINE
  5
264
100
AcDbEntity
  8
RACCORDO
100
AcDbSpline
 62
253
  6
CONTINUOUS
 70
0
 71
3
 72
22
 73
18
 74
16
 42
0.0000001
 43
0.0000001
 44
0.0000000001
 12
-0.0002381892
 22
0.366577057
 32
0.0
 13
0.3264689291
 23
0.1667238248
 33
0.0
 40
0.0
 40
0.0
 40
0.0
 40
0.0
 40
0.0627686184
 40
0.1278905402
 40
0.1950351199
 40
0.2638167614
 40
0.333808161
 40
0.4045526051
 40
0.4755756292
 40
0.5463963039
 40
0.6165383904
 40
0.68554159
 40
0.7529731272
 40
0.8184399262
 40
0.8816016825
 40
0.9421851581
 40
1.0
 40
1.0
 40
1.0
 40
1.0
 10
-9.4172194927
 20
11.4697485798
 30
0.0
 10
-9.4172244763
 20
11.4774184249
 30
0.0
 10
-9.4165572555
 20
11.493052179
 30
0.0
 10
-9.4136780057
 20
11.5167308365
 30
0.0
 10
-9.4089323072
 20
11.5408561877
 30
0.0
 10
-9.4023715925
 20
11.5651672401
 30
0.0
 10
-9.3940666071
 20
11.5894035962
 30
0.0
 10
-9.3841067932
 20
11.6133044893
 30
0.0
 10
-9.3725993767
 20
11.6366128049
 30
0.0
 10
-9.3596682174
 20
11.6590776616
 30
0.0
 10
-9.3454524248
 20
11.6804572912
 30
0.0
 10
-9.330104804
 20
11.7005216771
 30
0.0
 10
-9.31378998
 20
11.7190551273
 30
0.0
 10
-9.2966828191
 20
11.7358583949
 30
0.0
 10
-9.2789649949
 20
11.7507513933
 30
0.0
 10
-9.2608274394
 20
11.7635725304
 30
0.0
 10
-9.2482770844
 20
11.7708228843
 30
0.0
 10
-9.2419855013
 20
11.7740359215
 30
0.0
 11
-9.4172194927
 21
11.4697485798
 31
0.0
 11
-9.4162754635
 21
11.4927387462
 31
0.0
 11
-9.4134243624
 21
11.5164400861
 31
0.0
 11
-9.4086971123
 21
11.5405955356
 31
0.0
 11
-9.4021449848
 21
11.5649431058
 31
0.0
 11
-9.393839044
 21
11.5892187244
 31
0.0
 11
-9.3838693756
 21
11.6131590989
 31
0.0
 11
-9.3723441103
 21
11.6365045734
 31
0.0
 11
-9.3593882506
 21
11.6590019439
 31
0.0
 11
-9.3451423151
 21
11.6804072052
 31
0.0
 11
-9.3297608144
 21
11.7004881967
 31
0.0
 11
-9.3134105758
 21
11.7190271211
 31
0.0
 11
-9.2962689329
 21
11.7358229062
 31
0.0
 11
-9.2785218033
 21
11.7506933857
 31
0.0
 11
-9.2603616715
 21
11.7634772753
 31
0.0
 11
-9.2419855013
 21
11.7740359215
 31
0.0
  0
SPLINE
  5
265
100
AcDbEntity
  8
RACCORDO
100
AcDbSpline
 62
253
  6
CONTINUOUS
 70
0
 71
3
 72
17
 73
13
 74
11
 42
0.0000001
 43
0.0000001
 44
0.0000000001
 12
-0.2161832152
 22
0.1080956977
 32
0.0
 13
-0.0001406965
 23
0.2419871049
 33
0.0
 40
0.0
 40
0.0
 40
0.0
 40
0.0
 40
0.1359048809
 40
0.2644265655
 40
0.3854754164
 40
0.4991772678
 40
0.6059234234
 40
0.7064077239
 40
0.8016586374
 40
0.8930453274
 40
0.9822330742
 40
1.0
 40
1.0
 40
1.0
 40
1.0
 10
-9.4172181981
 20
11.4697479323
 30
0.0
 10
-9.4270116494
 20
11.4746448433
 30
0.0
 10
-9.4457577733
 20
11.4848118343
 30
0.0
 10
-9.471880597
 20
11.5016678266
 30
0.0
 10
-9.4950615935
 20
11.5196014772
 30
0.0
 10
-9.5151320778
 20
11.5384915146
 30
0.0
 10
-9.5319440855
 20
11.5582138015
 30
0.0
 10
-9.5453657752
 20
11.5786398588
 30
0.0
 10
-9.5552798132
 20
11.5996333026
 30
0.0
 10
-9.5615848013
 20
11.6210426731
 30
0.0
 10
-9.5635134708
 20
11.6369827232
 30
0.0
 10
-9.5636651829
 20
11.6456097173
 30
0.0
 10
-9.5636660161
 20
11.6470428396
 30
0.0
 11
-9.4172181981
 21
11.4697479323
 31
0.0
 11
-9.4460628651
 21
11.4854644211
 31
0.0
 11
-9.4721251738
 21
11.5023678243
 31
0.0
 11
-9.4952158573
 21
11.5203354707
 31
0.0
 11
-9.5151663038
 21
11.5392362154
 31
0.0
 11
-9.5318315135
 21
11.5589326625
 31
0.0
 11
-9.5450902383
 21
11.5792815469
 31
0.0
 11
-9.5548459255
 21
11.6001347142
 31
0.0
 11
-9.5610275923
 21
11.6213404224
 31
0.0
 11
-9.5635902664
 21
11.6427444131
 31
0.0
 11
-9.5636660161
 21
11.6470428396
 31
0.0
  0
SPLINE
  5
266
100
AcDbEntity
  8
RACCORDO
100
AcDbSpline
 62
253
  6
CONTINUOUS
 70
0
 71
3
 72
25
 73
21
 74
19
 42
0.0000001
 43
0.0000001
 44
0.0000000001
 12
-0.6460963923
 22
-0.3048847509
 32
0.0
 13
-0.6390010858
 23
0.3194884534
 33
0.0
 40
0.0
 40
0.0
 40
0.0
 40
0.0
 40
0.0494328262
 40
0.1010447089
 40
0.1546315361
 40
0.2099543778
 40
0.2667494203
 40
0.3247313615
 40
0.3835981563
 40
0.4430362134
 40
0.5027246367
 40
0.5623391465
 40
0.6215564156
 40
0.6800584166
 40
0.7375363898
 40
0.7936951737
 40
0.8482585284
 40
0.9009740369
 40
0.9516168911
 40
1.0
 40
1.0
 40
1.0
 40
1.0
 10
6.0814802797
 20
4.0636091398
 30
0.0
 10
6.0708341561
 20
4.0585853681
 30
0.0
 10
6.0487240555
 20
4.0490426332
 30
0.0
 10
6.014087456
 20
4.0364852815
 30
0.0
 10
5.9774701349
 20
4.0254469919
 30
0.0
 10
5.9391379848
 20
4.0160083291
 30
0.0
 10
5.8993674201
 20
4.0082373035
 30
0.0
 10
5.8584461024
 20
4.002190323
 30
0.0
 10
5.8166701981
 20
3.9979112731
 30
0.0
 10
5.7743423127
 20
3.9954312567
 30
0.0
 10
5.7317691005
 20
3.9947682975
 30
0.0
 10
5.6892590515
 20
3.9959272114
 30
0.0
 10
5.6471201815
 20
3.9988995611
 30
0.0
 10
5.6056577245
 20
4.0036637327
 30
0.0
 10
5.5651719297
 20
4.0101850995
 30
0.0
 10
5.5259556769
 20
4.0184163503
 30
0.0
 10
5.4882924647
 20
4.0282977926
 30
0.0
 10
5.4524535961
 20
4.0397583291
 30
0.0
 10
5.4186992309
 20
4.0527144548
 30
0.0
 10
5.3972318511
 20
4.0625231027
 30
0.0
 10
5.3869262314
 20
4.0676757175
 30
0.0
 11
6.0814802797
 21
4.0636091398
 31
0.0
 11
6.0490756107
 21
4.0495684317
 31
0.0
 11
6.0144255014
 21
4.0369607399
 31
0.0
 11
5.9777814199
 21
4.0258776083
 31
0.0
 11
5.9394108701
 21
4.0163999918
 31
0.0
 11
5.8995927861
 21
4.0085967641
 31
0.0
 11
5.8586168094
 21
4.0025246995
 31
0.0
 11
5.8167812871
 21
3.998228012
 31
0.0
 11
5.7743906492
 21
3.9957379584
 31
0.0
 11
5.7317532645
 21
3.9950726477
 31
0.0
 11
5.6891794114
 21
3.9962369205
 31
0.0
 11
5.6469789033
 21
3.9992222998
 31
0.0
 11
5.6054587195
 21
4.004007068
 31
0.0
 11
5.5649209865
 21
4.0105564125
 31
0.0
 11
5.5256608459
 21
4.0188226405
 31
0.0
 11
5.4879638591
 21
4.0287456125
 31
0.0
 11
5.4521040585
 21
4.0402532082
 31
0.0
 11
5.4183431785
 21
4.0532613993
 31
0.0
 11
5.3869262314
 21
4.0676757175
 31
0.0
  0
SPLINE
  5
267
100
AcDbEntity
  8
0
100
AcDbSpline
 62
253
  6
CONTINUOUS
 70
0
 71
3
 72
18
 73
14
 74
12
 42
0.0000001
 43
0.0000001
 44
0.0000000001
 12
-0.0146251891
 22
-0.3374729221
 32
0.0
 13
-0.3134234949
 23
-0.1267203006
 33
0.0
 40
0.0
 40
0.0
 40
0.0
 40
0.0
 40
0.11202914
 40
0.220003865
 40
0.3237389448
 40
0.4231623526
 40
0.5183318675
 40
0.6094511725
 40
0.696883202
 40
0.7811571033
 40
0.8629639376
 40
0.9431361493
 40
1.0
 40
1.0
 40
1.0
 40
1.0
 10
7.2101179809
 20
-13.7371275137
 30
0.0
 10
7.2095718318
 20
-13.7497297807
 30
0.0
 10
7.2076634852
 20
-13.7744523497
 30
0.0
 10
7.2021882583
 20
-13.8105251293
 30
0.0
 10
7.1941885317
 20
-13.8446734889
 30
0.0
 10
7.1837201849
 20
-13.8766390919
 30
0.0
 10
7.1708557897
 20
-13.9061818505
 30
0.0
 10
7.1556842025
 20
-13.9330771215
 30
0.0
 10
7.1383105659
 20
-13.9571168038
 30
0.0
 10
7.1188573676
 20
-13.97810937
 30
0.0
 10
7.0974665708
 20
-13.9958811726
 30
0.0
 10
7.0764709559
 20
-14.008931605
 30
0.0
 10
7.0624468333
 20
-14.0154447332
 30
0.0
 10
7.056506011
 20
-14.017846668
 30
0.0
 11
7.2101179809
 21
-13.7371275137
 31
0.0
 11
7.2071583461
 21
-13.7748538876
 31
0.0
 11
7.2016320019
 21
-13.8109055293
 31
0.0
 11
7.1935809095
 21
-13.8450087012
 31
0.0
 11
7.1830662002
 21
-13.8769044606
 31
0.0
 11
7.1701677114
 21
-13.9063506252
 31
0.0
 11
7.1549833804
 21
-13.9331236125
 31
0.0
 11
7.1376285008
 21
-13.9570201372
 31
0.0
 11
7.1182348468
 21
-13.9778587547
 31
0.0
 11
7.096949673
 21
-13.9954812389
 31
0.0
 11
7.0739345962
 21
-14.0097537837
 31
0.0
 11
7.056506011
 21
-14.017846668
 31
0.0
  0
SPLINE
  5
268
100
AcDbEntity
  8
0
100
AcDbSpline
 62
253
  6
CONTINUOUS
 70
0
 71
3
 72
26
 73
22
 74
20
 42
0.0000001
 43
0.0000001
 44
0.0000000001
 12
0.0639075782
 22
-0.4718179908
 32
0.0
 13
0.4414253651
 23
0.1784377821
 33
0.0
 40
0.0
 40
0.0
 40
0.0
 40
0.0
 40
0.0604714473
 40
0.1189577881
 40
0.1754896565
 40
0.2301507618
 40
0.2830756018
 40
0.3344495457
 40
0.3845087349
 40
0.4335365193
 40
0.4818566178
 40
0.5298216896
 40
0.5777998971
 40
0.6261586397
 40
0.6752493941
 40
0.7253932963
 40
0.7768707761
 40
0.8299146356
 40
0.8847072271
 40
0.9413785448
 40
1.0
 40
1.0
 40
1.0
 40
1.0
 10
6.8674569466
 20
-13.5290310112
 30
0.0
 10
6.8687451412
 20
-13.5385415168
 30
0.0
 10
6.8719154435
 20
-13.557172118
 30
0.0
 10
6.8786036712
 20
-13.5842355827
 30
0.0
 10
6.8871142893
 20
-13.6098168021
 30
0.0
 10
6.8974060153
 20
-13.6337802471
 30
0.0
 10
6.9094291717
 20
-13.6560009391
 30
0.0
 10
6.9231251273
 20
-13.6763610679
 30
0.0
 10
6.9384259239
 20
-13.6947509685
 30
0.0
 10
6.9552538783
 20
-13.7110697777
 30
0.0
 10
6.9735212188
 20
-13.7252266046
 30
0.0
 10
6.9931302088
 20
-13.737142098
 30
0.0
 10
7.0139738792
 20
-13.7467500441
 30
0.0
 10
7.0359376185
 20
-13.7539986769
 30
0.0
 10
7.0589009951
 20
-13.7588511497
 30
0.0
 10
7.0827395584
 20
-13.7612852802
 30
0.0
 10
7.1073261373
 20
-13.7612927321
 30
0.0
 10
7.1325315356
 20
-13.7588782022
 30
0.0
 10
7.1582254014
 20
-13.754058302
 30
0.0
 10
7.1842723579
 20
-13.7468627792
 30
0.0
 10
7.2014923152
 20
-13.7406142745
 30
0.0
 10
7.2101179809
 20
-13.7371275137
 30
0.0
 11
6.8674569466
 21
-13.5290310112
 31
0.0
 11
6.8723206671
 21
-13.5574092896
 31
0.0
 11
6.8790363871
 21
-13.584434252
 31
0.0
 11
6.8875688932
 21
-13.6099623639
 31
0.0
 11
6.8978739002
 21
-13.6338608697
 31
0.0
 11
6.9098980764
 21
-13.6560059495
 31
0.0
 11
6.9235791137
 21
-13.6762826593
 31
0.0
 11
6.9388461004
 21
-13.6945857382
 31
0.0
 11
6.9556198758
 21
-13.7108201443
 31
0.0
 11
6.9738135444
 21
-13.7249016358
 31
0.0
 11
6.9933327223
 21
-13.7367570282
 31
0.0
 11
7.014076229
 21
-13.7463247481
 31
0.0
 11
7.035936417
 21
-13.7535550393
 31
0.0
 11
7.0587999761
 21
-13.7584103253
 31
0.0
 11
7.0825482586
 21
-13.7608653143
 31
0.0
 11
7.1070580124
 21
-13.7609071899
 31
0.0
 11
7.132202008
 21
-13.7585356856
 31
0.0
 11
7.1578499317
 21
-13.7537630243
 31
0.0
 11
7.1838683607
 21
-13.7466140268
 31
0.0
 11
7.2101179809
 21
-13.7371275137
 31
0.0
  0
SPLINE
  5
269
100
AcDbEntity
  8
0
100
AcDbSpline
 62
253
  6
CONTINUOUS
 70
0
 71
3
 72
18
 73
14
 74
12
 42
0.0000001
 43
0.0000001
 44
0.0000000001
 12
0.0674388812
 22
-0.5058671312
 32
0.0
 13
0.4567116345
 23
-0.2283694497
 33
0.0
 40
0.0
 40
0.0
 40
0.0
 40
0.0
 40
0.1126347445
 40
0.2214408956
 40
0.3264767557
 40
0.4278860434
 40
0.525909786
 40
0.6208876103
 40
0.7132588093
 40
0.803556809
 40
0.8923971558
 40
0.980456181
 40
1.0
 40
1.0
 40
1.0
 40
1.0
 10
6.1768554027
 20
-13.5855482464
 30
0.0
 10
6.1793873897
 20
-13.6045409848
 30
0.0
 10
6.1856167823
 20
-13.6417295579
 30
0.0
 10
6.1987648044
 20
-13.6957410997
 30
0.0
 10
6.2154947706
 20
-13.7467556405
 30
0.0
 10
6.2357261892
 20
-13.7945059522
 30
0.0
 10
6.2593618758
 20
-13.8387433724
 30
0.0
 10
6.2862871926
 20
-13.8792336991
 30
0.0
 10
6.3163693925
 20
-13.9157588948
 30
0.0
 10
6.3494566338
 20
-13.9481182785
 30
0.0
 10
6.3853770121
 20
-13.9761307859
 30
0.0
 10
6.4139745219
 20
-13.9935640819
 30
0.0
 10
6.4302503588
 20
-14.0019656554
 30
0.0
 10
6.4332256553
 20
-14.0034533925
 30
0.0
 11
6.1768554027
 21
-13.5855482464
 31
0.0
 11
6.1864200723
 21
-13.6422292195
 31
0.0
 11
6.1996250703
 21
-13.6961646684
 31
0.0
 11
6.2164022384
 21
-13.7470758134
 31
0.0
 11
6.2366644605
 21
-13.7946979183
 31
0.0
 11
6.2603068906
 21
-13.8387842564
 31
0.0
 11
6.2872070111
 21
-13.8791060064
 31
0.0
 11
6.3172253974
 21
-13.9154538576
 31
0.0
 11
6.3502064041
 21
-13.9476390753
 31
0.0
 11
6.3859791911
 21
-13.975494663
 31
0.0
 11
6.4243581935
 21
-13.9988758545
 31
0.0
 11
6.4332256553
 21
-14.0034533925
 31
0.0
  0
SPLINE
  5
26A
100
AcDbEntity
  8
0
100
AcDbSpline
 62
253
  6
CONTINUOUS
 70
0
 71
3
 72
25
 73
21
 74
19
 42
0.0000001
 43
0.0000001
 44
0.0000000001
 12
-0.604709483
 22
-0.3899745273
 32
0.0
 13
-0.6450072096
 23
0.3189347744
 33
0.0
 40
0.0
 40
0.0
 40
0.0
 40
0.0
 40
0.0519489921
 40
0.1056337261
 40
0.1608610208
 40
0.2174103325
 40
0.2750390332
 40
0.3334872945
 40
0.392482682
 40
0.4517445493
 40
0.5109883064
 40
0.56992963
 40
0.6282886781
 40
0.6857943707
 40
0.7421888042
 40
0.7972318777
 40
0.8507062212
 40
0.9024225311
 40
0.9522254347
 40
1.0
 40
1.0
 40
1.0
 40
1.0
 10
6.8674569466
 20
-13.5290310112
 30
0.0
 10
6.8569855972
 20
-13.5357839391
 30
0.0
 10
6.8352191927
 20
-13.5487924447
 30
0.0
 10
6.8009105321
 20
-13.5664908407
 30
0.0
 10
6.7646138099
 20
-13.5825927254
 30
0.0
 10
6.7265932625
 20
-13.5969808644
 30
0.0
 10
6.6871232556
 20
-13.6095517663
 30
0.0
 10
6.6464895634
 20
-13.6202144541
 30
0.0
 10
6.6049863449
 20
-13.6288917902
 30
0.0
 10
6.5629142176
 20
-13.6355209299
 30
0.0
 10
6.5205779568
 20
-13.6400538549
 30
0.0
 10
6.4782842504
 20
-13.6424577244
 30
0.0
 10
6.4363394162
 20
-13.6427151149
 30
0.0
 10
6.3950471152
 20
-13.6408241206
 30
0.0
 10
6.3547061193
 20
-13.6367983373
 30
0.0
 10
6.3156079839
 20
-13.6306666388
 30
0.0
 10
6.2780352565
 20
-13.6224730386
 30
0.0
 10
6.2422580806
 20
-13.6122755524
 30
0.0
 10
6.2085369521
 20
-13.6001478667
 30
0.0
 10
6.187127055
 20
-13.5906272323
 30
0.0
 10
6.1768554087
 20
-13.5855482423
 30
0.0
 11
6.8674569466
 21
-13.5290310112
 31
0.0
 11
6.8353922458
 21
-13.5482433953
 31
0.0
 11
6.8010784985
 21
-13.5659848471
 31
0.0
 11
6.764765509
 21
-13.5821262086
 31
0.0
 11
6.7267176364
 21
-13.5965499706
 31
0.0
 11
6.6872118697
 21
-13.6091511279
 31
0.0
 11
6.6465358112
 21
-13.6198379438
 31
0.0
 11
6.6049855832
 21
-13.6285326183
 31
0.0
 11
6.5628636719
 21
-13.6351718541
 31
0.0
 11
6.5204767251
 21
-13.6397073173
 31
0.0
 11
6.4781333204
 21
-13.6421059899
 31
0.0
 11
6.4361417184
 21
-13.6423504093
 31
0.0
 11
6.3948076182
 21
-13.6404387964
 31
0.0
 11
6.3544319327
 21
-13.6363850675
 31
0.0
 11
6.3153085973
 21
-13.6302187339
 31
0.0
 11
6.2777224304
 21
-13.6219846866
 31
0.0
 11
6.2419470597
 21
-13.6117428696
 31
0.0
 11
6.2082429303
 21
-13.5995678434
 31
0.0
 11
6.1768554087
 21
-13.5855482423
 31
0.0
  0
SPLINE
  5
26B
100
AcDbEntity
  8
0
100
AcDbSpline
 62
253
  6
CONTINUOUS
 70
0
 71
3
 72
16
 73
12
 74
10
 42
0.0000001
 43
0.0000001
 44
0.0000000001
 12
0.158196343
 22
-9.7777422745
 32
0.0
 13
1.3125357896
 23
-9.6905376461
 33
0.0
 40
0.0
 40
0.0
 40
0.0
 40
0.0
 40
0.1138478936
 40
0.2270231241
 40
0.3395199846
 40
0.4513332902
 40
0.562458351
 40
0.672890981
 40
0.7826274966
 40
0.891664726
 40
1.0
 40
1.0
 40
1.0
 40
1.0
 10
6.1473491299
 20
-3.7822112383
 30
0.0
 10
6.15335257
 20
-4.1532696924
 30
0.0
 10
6.1699174356
 20
-4.8931285022
 30
0.0
 10
6.2086290007
 20
-5.9992039646
 30
0.0
 10
6.2611236992
 20
-7.0980737123
 30
0.0
 10
6.3273905257
 20
-8.189503948
 30
0.0
 10
6.4074156379
 20
-9.2732655543
 30
0.0
 10
6.5011822649
 20
-10.3491300512
 30
0.0
 10
6.6086708826
 20
-11.416871716
 30
0.0
 10
6.7298585934
 20
-12.4762628865
 30
0.0
 10
6.8200589718
 20
-13.1790886608
 30
0.0
 10
6.8674569466
 20
-13.5290310112
 30
0.0
 11
6.1473491299
 21
-3.7822112383
 31
0.0
 11
6.1723103383
 21
-4.895252431
 31
0.0
 11
6.2110633854
 21
-6.001316808
 31
0.0
 11
6.2636001189
 21
-7.1001708893
 31
0.0
 11
6.3299094924
 21
-8.1915831809
 31
0.0
 11
6.4099775672
 21
-9.2753238506
 31
0.0
 11
6.5037875181
 21
-10.3511647398
 31
0.0
 11
6.6113196279
 21
-11.4188792859
 31
0.0
 11
6.7325512834
 21
-12.4782425398
 31
0.0
 11
6.8674569466
 21
-13.5290310112
 31
0.0
  0
SPLINE
  5
26C
100
AcDbEntity
  8
0
100
AcDbSpline
 62
253
  6
CONTINUOUS
 70
0
 71
3
 72
16
 73
12
 74
10
 42
0.0000001
 43
0.0000001
 44
0.0000000001
 12
0.159049173
 22
-9.8322873465
 32
0.0
 13
1.3196312823
 23
-9.7446264363
 33
0.0
 40
0.0
 40
0.0
 40
0.0
 40
0.0
 40
0.113848609
 40
0.2270243491
 40
0.33952156
 40
0.4513350501
 40
0.562460123
 40
0.672892586
 40
0.7826287491
 40
0.8916654339
 40
1.0
 40
1.0
 40
1.0
 40
1.0
 10
5.4528603814
 20
-3.7843448385
 30
0.0
 10
5.4588962237
 20
-4.1574755844
 30
0.0
 10
5.4755505001
 20
-4.9014657306
 30
0.0
 10
5.5144710278
 20
-6.013716775
 30
0.0
 10
5.5672490848
 20
-7.1187203761
 30
0.0
 10
5.6338736085
 20
-8.2162416067
 30
0.0
 10
5.7143306829
 20
-9.3060500708
 30
0.0
 10
5.8086034466
 20
-10.3879160137
 30
0.0
 10
5.9166722691
 20
-11.4616124538
 30
0.0
 10
6.0385141461
 20
-12.526910575
 30
0.0
 10
6.1292015085
 20
-13.233654954
 30
0.0
 10
6.1768554027
 20
-13.5855482464
 30
0.0
 11
5.4528603814
 21
-3.7843448385
 31
0.0
 11
5.4779563448
 21
-4.903602207
 31
0.0
 11
5.5169185853
 21
-6.0158419618
 31
0.0
 11
5.5697389154
 21
-7.1208298418
 31
0.0
 11
5.636406229
 21
-8.2183330609
 31
0.0
 11
5.716906512
 21
-9.3081205041
 31
0.0
 11
5.8112228485
 21
-10.3899627402
 31
0.0
 11
5.9193354149
 21
-11.4636319429
 31
0.0
 11
6.041221476
 21
-12.5289019084
 31
0.0
 11
6.1768554027
 21
-13.5855482464
 31
0.0
  0
SPLINE
  5
26D
100
AcDbEntity
  8
0
100
AcDbSpline
 62
253
  6
CONTINUOUS
 70
0
 71
3
 72
25
 73
21
 74
19
 42
0.0000001
 43
0.0000001
 44
0.0000000001
 12
-0.6423647763
 22
-0.3139711931
 32
0.0
 13
-0.6397108624
 23
0.3193437466
 33
0.0
 40
0.0
 40
0.0
 40
0.0
 40
0.0
 40
0.0496825043
 40
0.1014998182
 40
0.1552483517
 40
0.2106923844
 40
0.2675699993
 40
0.3255983861
 40
0.3844786963
 40
0.4439005886
 40
0.5035465721
 40
0.5630962312
 40
0.6222304052
 40
0.6806353868
 40
0.7380072088
 40
0.7940560977
 40
0.8485111903
 40
0.9011256391
 40
0.9516822694
 40
1.0
 40
1.0
 40
1.0
 40
1.0
 10
6.1473491299
 20
-3.7822112383
 30
0.0
 10
6.1367110329
 20
-3.7874108634
 30
0.0
 10
6.1146160978
 20
-3.7973059556
 30
0.0
 10
6.0799838026
 20
-3.8103842176
 30
0.0
 10
6.0433707268
 20
-3.8219359455
 30
0.0
 10
6.0050428374
 20
-3.831876973
 30
0.0
 10
5.9652763444
 20
-3.8401357148
 30
0.0
 10
5.9243589448
 20
-3.8466522651
 30
0.0
 10
5.8825867264
 20
-3.8513793661
 30
0.0
 10
5.8402622089
 20
-3.8542826875
 30
0.0
 10
5.7976920106
 20
-3.8553411441
 30
0.0
 10
5.7551845793
 20
-3.854547057
 30
0.0
 10
5.7130478899
 20
-3.8519062163
 30
0.0
 10
5.6715871421
 20
-3.8474378258
 30
0.0
 10
5.6311025023
 20
-3.8411743491
 30
0.0
 10
5.5918867743
 20
-3.833161189
 30
0.0
 10
5.5542234879
 20
-3.8234564225
 30
0.0
 10
5.5183837314
 20
-3.8121297604
 30
0.0
 10
5.4846277672
 20
-3.7992636223
 30
0.0
 10
5.4631635072
 20
-3.7894881602
 30
0.0
 10
5.4528603815
 20
-3.7843448385
 30
0.0
 11
6.1473491299
 21
-3.7822112383
 31
0.0
 11
6.1149496797
 21
-3.7967756639
 31
0.0
 11
6.080304742
 21
-3.8099037121
 31
0.0
 11
6.0436664063
 21
-3.8214998584
 31
0.0
 11
6.0053012669
 21
-3.8314797249
 31
0.0
 11
5.965488483
 21
-3.8397706942
 31
0.0
 11
5.9245177473
 21
-3.8463124383
 31
0.0
 11
5.8826871782
 21
-3.8510573568
 31
0.0
 11
5.8403011509
 21
-3.853970924
 31
0.0
 11
5.7976680818
 21
-3.8550319397
 31
0.0
 11
5.7550981853
 21
-3.8542326836
 31
0.0
 11
5.7129012159
 21
-3.8515789712
 31
0.0
 11
5.6713842145
 21
-3.8470901121
 31
0.0
 11
5.6308492746
 21
-3.8407987688
 31
0.0
 11
5.5915913435
 21
-3.8327507196
 31
0.0
 11
5.5538960768
 21
-3.823004525
 31
0.0
 11
5.5180377593
 21
-3.8116311021
 31
0.0
 11
5.4842773096
 21
-3.7987132081
 31
0.0
 11
5.4528603815
 21
-3.7843448385
 31
0.0
  0
ELLIPSE
  5
26E
100
AcDbEntity
  8
RACCORDO
100
AcDbEllipse
 62
7
  6
CONTINUOUS
 10
-5.6921053709
 20
13.6789487433
 30
0.0
 11
-0.1119858744
 21
0.2236318019
 31
0.0
 40
0.6122594231
 41
-0.6852493493
 42
0.0223275232
  0
ELLIPSE
  5
26F
100
AcDbEntity
  8
RACCORDO
100
AcDbEllipse
 62
7
  6
CONTINUOUS
 10
9.7226069526
 20
5.9715925816
 30
0.0
 11
-0.1119259236
 21
0.2235783474
 31
0.0
 40
0.6126250184
 41
-2.2559124555
 42
-0.6854206804
  0
ELLIPSE
  5
270
100
AcDbEntity
  8
0
100
AcDbEllipse
 62
7
  6
CONTINUOUS
 10
8.9944849262
 20
-12.6951370732
 30
0.0
 11
-0.1826272431
 21
0.4654700168
 31
0.0
 40
0.6543766329
 41
-3.1348682827
 42
-2.2008763123
  0
ENDSEC
  0
SECTION
  2
OBJECTS
  0
DICTIONARY
  5
C
100
AcDbDictionary
280
0
281
1
  3
ACAD_GROUP
350
D
  3
ACAD_MLINESTYLE
350
17
  3
ACAD_LAYOUT
350
1A
  3
ACAD_PLOTSETTINGS
350
19
  3
ACAD_PLOTSTYLENAME
350
E
  0
DICTIONARY
  5
D
102
{ACAD_REACTORS
330
C
102
}
100
AcDbDictionary
280
0
281
1
  0
ACDBDICTIONARYWDFLT
  5
E
102
{ACAD_REACTORS
330
C
102
}
100
AcDbDictionary
281
1
  3
Normal
350
F
100
AcDbDictionaryWithDefault
340
F
  0
DICTIONARY
  5
17
102
{ACAD_REACTORS
330
C
102
}
100
AcDbDictionary
280
0
281
1
  3
Standard
350
18
  0
DICTIONARY
  5
19
102
{ACAD_REACTORS
330
C
102
}
100
AcDbDictionary
281
1
  0
DICTIONARY
  5
1A
102
{ACAD_REACTORS
330
C
102
}
100
AcDbDictionary
281
1
  3
Model
350
271
  3
Layout1
350
272
  0
ACDBPLACEHOLDER
  5
F
102
{ACAD_REACTORS
330
E
102
}
  0
MLINESTYLE
  5
18
102
{ACAD_REACTORS
330
17
102
}
100
AcDbMlineStyle
  2
STANDARD
 70
0
  3

 62
256
 51
90.0
 52
90.0
 71
2
 49
0.5
 62
256
  6
BYLAYER
 49
-0.5
 62
256
  6
BYLAYER
  0
LAYOUT
  5
271
102
{ACAD_REACTORS
330
1A
102
}
100
AcDbPlotSettings
  1

  2
none_device
  4
ISO_A4_(297.00_x_210.00_MM)
  6

 40
0.0
 41
0.0
 42
0.0
 43
0.0
 44
297.0
 45
210.0
 46
0.0
 47
0.0
 48
0.0
 49
0.0
140
0.0
141
0.0
142
1.0
143
1.0
 70
1024
 72
1
 73
0
 74
0
  7

 75
0
147
1.0
148
0.0
149
0.0
100
AcDbLayout
  1
Model
 70
0
 71
0
 10
0.0
 20
0.0
 11
297.0
 21
210.0
 12
0.0
 22
0.0
 32
0.0
 14
0.0
 24
0.0
 34
0.0
 15
0.0
 25
0.0
 35
0.0
146
0.0
 13
0.0
 23
0.0
 33
0.0
 16
1.0
 26
0.0
 36
0.0
 17
0.0
 27
1.0
 37
0.0
 76
0
330
215
345
0
346
0
  0
LAYOUT
  5
272
102
{ACAD_REACTORS
330
1A
102
}
100
AcDbPlotSettings
  1

  2
none_device
  4
ISO_A4_(297.00_x_210.00_MM)
  6

 40
0.0
 41
0.0
 42
0.0
 43
0.0
 44
297.0
 45
210.0
 46
0.0
 47
0.0
 48
0.0
 49
0.0
140
0.0
141
0.0
142
1.0
143
1.0
 70
0
 72
1
 73
0
 74
0
  7

 75
0
147
1.0
148
0.0
149
0.0
100
AcDbLayout
  1
Layout1
 70
0
 71
1
 10
0.0
 20
0.0
 11
297.0
 21
210.0
 12
0.0
 22
0.0
 32
0.0
 14
0.0
 24
0.0
 34
0.0
 15
0.0
 25
0.0
 35
0.0
146
0.0
 13
0.0
 23
0.0
 33
0.0
 16
1.0
 26
0.0
 36
0.0
 17
0.0
 27
1.0
 37
0.0
 76
0
330
216
345
0
346
0
  0
ENDSEC
  0
EOF
