  0
SECTION
  2
HEADER
  9
$ACADVER
  1
AC1024
  9
$DWGCODEPAGE
  3
ANSI_1252
  9
$EXTMAX
 10
297.0
 20
210.0
 30
0.0
  9
$EXTMIN
 10
0.0
 20
0.0
 30
0.0
  9
$LIMMIN
 10
0.0
 20
0.0
  9
$LIMMAX
 10
297.0
 20
210.0
  9
$VIEWCTR
 10
148.5
 20
105.0
  9
$VIEWSIZE
 40
210.0
  9
$CLAYER
  8
0
  9
$LTSCALE
 40
16.335
  9
$CELTYPE
  6
BYLAYER
  9
$DIMSCALE
 40
1.0
  9
$DIMASZ
 40
3.0
  9
$DIMEXO
 40
0.5
  9
$DIMDLI
 40
11.286
  9
$DIMEXE
 40
1.5
  9
$DIMCEN
 40
2.673
  9
$DIMLFAC
 40
1.0
  9
$DIMBLK
  1
_FILLED
  9
$DIMALT
 70
0
  9
$DIMALTF
 40
0.0393700787
  9
$DIMTXT
 40
3.0
  9
$DIMTOL
 70
1
  9
$DIMLIM
 70
0
  9
$DIMTFAC
 40
1.0
  9
$DIMTP
 40
0.01
  9
$DIMTM
 40
0.01
  9
$DIMGAP
 40
0.625
  9
$DIMDSEP
 70
44
  9
$AUNITS
 70
0
  9
$PDMODE
 70
3
  9
$PDSIZE
 40
3.0
  9
$HANDSEED
  5
5C2
  9
$TILEMODE
 70
1
  9
$MEASUREMENT
 70
1
  9
$INSUNITS
 70
4
  0
ENDSEC
  0
SECTION
  2
CLASSES
  0
CLASS
  1
ACDBDICTIONARYWDFLT
  2
AcDbDictionaryWithDefault
  3
AutoCAD 2000
 90
0
 91
1
280
0
281
0
  0
CLASS
  1
ACDBPLACEHOLDER
  2
AcDbPlaceHolder
  3
AutoCAD 2000
 90
0
 91
1
280
0
281
0
  0
CLASS
  1
LAYOUT
  2
AcDbLayout
  3
AutoCAD 2000
 90
0
 91
0
280
0
281
0
  0
ENDSEC
  0
SECTION
  2
TABLES
  0
TABLE
  2
VPORT
  5
8
100
AcDbSymbolTable
 70
2
  0
VPORT
  5
1F4
100
AcDbSymbolTableRecord
100
AcDbViewportTableRecord
  2
*ACTIVE
 70
0
 10
0.0
 20
0.0
 11
1.0
 21
1.0
 12
148.5
 22
105.0
 13
0.0
 23
0.0
 14
1.0
 24
1.0
 15
0.0
 25
0.0
 16
0.0
 26
0.0
 36
1.0
 17
0.0
 27
0.0
 37
0.0
 40
210.0
 41
1.4142857143
 42
50.0
 43
0.0
 44
0.0
 50
0.0
 51
0.0
 71
0
 72
100
 73
1
 74
1
 75
0
 76
0
 77
0
 78
0
  0
ENDTAB
  0
TABLE
  2
LTYPE
  5
5
100
AcDbSymbolTable
 70
6
  0
LTYPE
  5
14
100
AcDbSymbolTableRecord
100
AcDbLinetypeTableRecord
  2
BYBLOCK
 70
0
  3

 72
65
 73
0
 40
0.0
  0
LTYPE
  5
15
100
AcDbSymbolTableRecord
100
AcDbLinetypeTableRecord
  2
BYLAYER
 70
0
  3

 72
65
 73
0
 40
0.0
  0
LTYPE
  5
16
100
AcDbSymbolTableRecord
100
AcDbLinetypeTableRecord
  2
CONTINUOUS
 70
64
  3
Solid line
 72
65
 73
0
 40
0.0
  0
LTYPE
  5
1F5
100
AcDbSymbolTableRecord
100
AcDbLinetypeTableRecord
  2
CENTER
 70
64
  3
____ _ ____ _ ____ _ ____ _ ____ _ ____ _ ____
 72
65
 73
4
 40
0.6
 49
0.375
 74
0
 49
-0.075
 74
0
 49
0.075
 74
0
 49
-0.075
 74
0
  0
LTYPE
  5
1F6
100
AcDbSymbolTableRecord
100
AcDbLinetypeTableRecord
  2
HIDDEN
 70
64
  3
- - - - - - - - - - - - - - - - - - - -
 72
65
 73
2
 40
0.2
 49
0.1
 74
0
 49
-0.1
 74
0
  0
LTYPE
  5
1F7
100
AcDbSymbolTableRecord
100
AcDbLinetypeTableRecord
  2
PHANTOM
 70
64
  3
_____ _ _ _____ _ _ _____ _ _ _____
 72
65
 73
6
 40
0.8
 49
0.45
 74
0
 49
-0.05
 74
0
 49
0.1
 74
0
 49
-0.05
 74
0
 49
0.1
 74
0
 49
-0.05
 74
0
  0
LTYPE
  5
1F8
100
AcDbSymbolTableRecord
100
AcDbLinetypeTableRecord
  2
DOT
 70
64
  3
. . . . . . . . . . . . . . . . . . . .
 72
65
 73
2
 40
0.2
 49
0.1
 74
0
 49
-0.1
 74
0
  0
LTYPE
  5
1F9
100
AcDbSymbolTableRecord
100
AcDbLinetypeTableRecord
  2
DASHED
 70
64
  3
- - - - - - - - - - - - - - - - - - - -
 72
65
 73
2
 40
0.2
 49
0.1
 74
0
 49
-0.1
 74
0
  0
ENDTAB
  0
TABLE
  2
LAYER
  5
2
100
AcDbSymbolTable
 70
36
  0
LAYER
  5
10
100
AcDbSymbolTableRecord
100
AcDbLayerTableRecord
  2
0
 70
0
 62
7
  6
CONTINUOUS
370
-3
390
F
  0
LAYER
  5
1FA
100
AcDbSymbolTableRecord
100
AcDbLayerTableRecord
  2
DEFAULT_1
 70
0
 62
7
  6
CENTER
370
-3
390
F
  0
LAYER
  5
1FB
100
AcDbSymbolTableRecord
100
AcDbLayerTableRecord
  2
DEFAULT_2
 70
0
 62
7
  6
HIDDEN
370
-3
390
F
  0
LAYER
  5
1FC
100
AcDbSymbolTableRecord
100
AcDbLayerTableRecord
  2
DEFAULT_3
 70
0
 62
7
  6
PHANTOM
370
-3
390
F
  0
LAYER
  5
1FD
100
AcDbSymbolTableRecord
100
AcDbLayerTableRecord
  2
ASSI
 70
0
 62
7
  6
CONTINUOUS
370
-3
390
F
  0
LAYER
  5
1FE
100
AcDbSymbolTableRecord
100
AcDbLayerTableRecord
  2
COLOR6
 70
0
 62
7
  6
CONTINUOUS
370
-3
390
F
  0
LAYER
  5
1FF
100
AcDbSymbolTableRecord
100
AcDbLayerTableRecord
  2
COLOR9
 70
0
 62
7
  6
CONTINUOUS
370
-3
390
F
  0
LAYER
  5
200
100
AcDbSymbolTableRecord
100
AcDbLayerTableRecord
  2
COORDINATE
 70
0
 62
7
  6
CONTINUOUS
370
-3
390
F
  0
LAYER
  5
201
100
AcDbSymbolTableRecord
100
AcDbLayerTableRecord
  2
COORD_ORIGINE
 70
0
 62
7
  6
CONTINUOUS
370
-3
390
F
  0
LAYER
  5
202
100
AcDbSymbolTableRecord
100
AcDbLayerTableRecord
  2
COPY_GEOMETRY
 70
0
 62
7
  6
CONTINUOUS
370
-3
390
F
  0
LAYER
  5
203
100
AcDbSymbolTableRecord
100
AcDbLayerTableRecord
  2
COPY_PUBLISH
 70
0
 62
7
  6
CONTINUOUS
370
-3
390
F
  0
LAYER
  5
204
100
AcDbSymbolTableRecord
100
AcDbLayerTableRecord
  2
COSMETIC
 70
0
 62
7
  6
CONTINUOUS
370
-3
390
F
  0
LAYER
  5
205
100
AcDbSymbolTableRecord
100
AcDbLayerTableRecord
  2
COSMETICI
 70
0
 62
7
  6
CONTINUOUS
370
-3
390
F
  0
LAYER
  5
206
100
AcDbSymbolTableRecord
100
AcDbLayerTableRecord
  2
CURVE
 70
0
 62
7
  6
CONTINUOUS
370
-3
390
F
  0
LAYER
  5
207
100
AcDbSymbolTableRecord
100
AcDbLayerTableRecord
  2
DRAFT
 70
0
 62
7
  6
CONTINUOUS
370
-3
390
F
  0
LAYER
  5
208
100
AcDbSymbolTableRecord
100
AcDbLayerTableRecord
  2
IGES
 70
0
 62
7
  6
CONTINUOUS
370
-3
390
F
  0
LAYER
  5
209
100
AcDbSymbolTableRecord
100
AcDbLayerTableRecord
  2
IGS_SCRITTE
 70
0
 62
7
  6
CONTINUOUS
370
-3
390
F
  0
LAYER
  5
20A
100
AcDbSymbolTableRecord
100
AcDbLayerTableRecord
  2
IMPORT_IGES
 70
0
 62
7
  6
CONTINUOUS
370
-3
390
F
  0
LAYER
  5
20B
100
AcDbSymbolTableRecord
100
AcDbLayerTableRecord
  2
INTFCLR_13457
 70
0
 62
7
  6
CONTINUOUS
370
-3
390
F
  0
LAYER
  5
20C
100
AcDbSymbolTableRecord
100
AcDbLayerTableRecord
  2
INTFCLR_20107
 70
0
 62
7
  6
CONTINUOUS
370
-3
390
F
  0
LAYER
  5
20D
100
AcDbSymbolTableRecord
100
AcDbLayerTableRecord
  2
INTF_11
 70
0
 62
7
  6
CONTINUOUS
370
-3
390
F
  0
LAYER
  5
20E
100
AcDbSymbolTableRecord
100
AcDbLayerTableRecord
  2
INTF_20
 70
0
 62
7
  6
CONTINUOUS
370
-3
390
F
  0
LAYER
  5
20F
100
AcDbSymbolTableRecord
100
AcDbLayerTableRecord
  2
INTF_YELLOW
 70
0
 62
7
  6
CONTINUOUS
370
-3
390
F
  0
LAYER
  5
210
100
AcDbSymbolTableRecord
100
AcDbLayerTableRecord
  2
NOTE
 70
0
 62
7
  6
CONTINUOUS
370
-3
390
F
  0
LAYER
  5
211
100
AcDbSymbolTableRecord
100
AcDbLayerTableRecord
  2
PIANI
 70
0
 62
7
  6
CONTINUOUS
370
-3
390
F
  0
LAYER
  5
212
100
AcDbSymbolTableRecord
100
AcDbLayerTableRecord
  2
PIANI_ORIGINE
 70
0
 62
7
  6
CONTINUOUS
370
-3
390
F
  0
LAYER
  5
213
100
AcDbSymbolTableRecord
100
AcDbLayerTableRecord
  2
PIANI_RIFERIMENTO
 70
0
 62
7
  6
CONTINUOUS
370
-3
390
F
  0
LAYER
  5
214
100
AcDbSymbolTableRecord
100
AcDbLayerTableRecord
  2
PUBLISH_GEOMETRY
 70
0
 62
7
  6
CONTINUOUS
370
-3
390
F
  0
LAYER
  5
215
100
AcDbSymbolTableRecord
100
AcDbLayerTableRecord
  2
PUNTI
 70
0
 62
7
  6
CONTINUOUS
370
-3
390
F
  0
LAYER
  5
216
100
AcDbSymbolTableRecord
100
AcDbLayerTableRecord
  2
RACCORDO
 70
0
 62
7
  6
CONTINUOUS
370
-3
390
F
  0
LAYER
  5
217
100
AcDbSymbolTableRecord
100
AcDbLayerTableRecord
  2
SIMBOLI
 70
0
 62
7
  6
CONTINUOUS
370
-3
390
F
  0
LAYER
  5
218
100
AcDbSymbolTableRecord
100
AcDbLayerTableRecord
  2
SMUSSO
 70
0
 62
7
  6
CONTINUOUS
370
-3
390
F
  0
LAYER
  5
219
100
AcDbSymbolTableRecord
100
AcDbLayerTableRecord
  2
SNAPLINE
 70
0
 62
7
  6
CONTINUOUS
370
-3
390
F
  0
LAYER
  5
21A
100
AcDbSymbolTableRecord
100
AcDbLayerTableRecord
  2
SOLIDO
 70
0
 62
7
  6
CONTINUOUS
370
-3
390
F
  0
LAYER
  5
21B
100
AcDbSymbolTableRecord
100
AcDbLayerTableRecord
  2
SUPERFICI
 70
0
 62
7
  6
CONTINUOUS
370
-3
390
F
  0
LAYER
  5
21C
100
AcDbSymbolTableRecord
100
AcDbLayerTableRecord
  2
TRASH
 70
0
 62
7
  6
CONTINUOUS
370
-3
390
F
  0
LAYER
  5
21D
100
AcDbSymbolTableRecord
100
AcDbLayerTableRecord
  2
WHITE
 70
0
 62
7
  6
CONTINUOUS
370
-3
390
F
  0
LAYER
  5
21E
100
AcDbSymbolTableRecord
100
AcDbLayerTableRecord
  2
XSEC_DATUMS
 70
0
 62
7
  6
CONTINUOUS
370
-3
390
F
  0
LAYER
  5
21F
100
AcDbSymbolTableRecord
100
AcDbLayerTableRecord
  2
___SHELL
 70
0
 62
7
  6
CONTINUOUS
370
-3
390
F
  0
ENDTAB
  0
TABLE
  2
STYLE
  5
3
100
AcDbSymbolTable
 70
1
  0
STYLE
  5
11
100
AcDbSymbolTableRecord
100
AcDbTextStyleTableRecord
  2
STANDARD
 70
0
 40
0.0
 41
0.8
 50
0.0
 71
0
 42
0.2
  3
txt
  4

  0
STYLE
  5
220
100
AcDbSymbolTableRecord
100
AcDbTextStyleTableRecord
  2
TEXTSTYLE_1
 70
0
 40
0.0
 41
0.8
 50
0.0
 71
0
 42
0.2
  3
gdt
  4

  0
ENDTAB
  0
TABLE
  2
VIEW
  5
6
100
AcDbSymbolTable
 70
0
  0
ENDTAB
  0
TABLE
  2
UCS
  5
7
100
AcDbSymbolTable
 70
0
  0
ENDTAB
  0
TABLE
  2
APPID
  5
9
100
AcDbSymbolTable
 70
1
  0
APPID
  5
221
100
AcDbSymbolTableRecord
100
AcDbRegAppTableRecord
  2
ACAD
 70
0
  0
ENDTAB
  0
TABLE
  2
BLOCK_RECORD
  5
1
100
AcDbSymbolTable
 70
0
  0
BLOCK_RECORD
  5
222
100
AcDbSymbolTableRecord
100
AcDbBlockTableRecord
  2
*Model_Space
  0
BLOCK_RECORD
  5
223
100
AcDbSymbolTableRecord
100
AcDbBlockTableRecord
  2
*Paper_Space
  0
BLOCK_RECORD
  5
224
100
AcDbSymbolTableRecord
100
AcDbBlockTableRecord
  2
_FILLED
  0
ENDTAB
  0
TABLE
  2
DIMSTYLE
  5
A
100
AcDbSymbolTable
 70
1
100
AcDbDimStyleTable
 71
0
  0
DIMSTYLE
105
225
100
AcDbSymbolTableRecord
100
AcDbDimStyleTableRecord
  2
STANDARD
 70
0
  3

  4

 40
1.0
 41
3.0
 42
0.5
 43
0.38
 44
1.5
 45
0.0
 46
0.0
 47
0.01
 48
0.01
140
3.0
141
0.09
142
0.0
143
25.4
144
1.0
145
0.0
146
1.0
147
0.625
 71
1.0
 72
0.0
 73
0
 74
0
 75
0
 76
0
 77
1
 78
8
 79
2
170
0
171
1
172
0
173
0
174
0
175
0
176
0
177
0
178
0
270
2
179
2
271
2
272
2
273
2
274
2
275
0
280
0
281
0
282
0
283
1
284
8
285
0
286
0
287
3
288
0
340
11
278
44
341
224
342
224
343
224
344
224
  0
ENDTAB
  0
ENDSEC
  0
SECTION
  2
BLOCKS
  0
BLOCK
  5
20
100
AcDbEntity
  8
0
100
AcDbBlockBegin
  2
*Model_Space
 70
0
 10
0.0
 20
0.0
 30
0.0
  3
*Model_Space
  1

  0
ENDBLK
  5
21
100
AcDbEntity
  8
0
100
AcDbBlockEnd
  0
BLOCK
  5
1C
100
AcDbEntity
  8
0
100
AcDbBlockBegin
  2
*Paper_Space
 70
0
 10
0.0
 20
0.0
 30
0.0
  3
*Paper_Space
  1

  0
ENDBLK
  5
1D
100
AcDbEntity
  8
0
100
AcDbBlockEnd
  0
BLOCK
  5
226
100
AcDbEntity
  8
0
100
AcDbBlockBegin
  2
_FILLED
 70
64
 10
0.0
 20
0.0
  3
_FILLED
  1

  0
SOLID
  5
227
100
AcDbEntity
  8
0
  6
BYBLOCK
 62
0
100
AcDbTrace
 10
0.0
 20
0.0
 11
-1.0
 21
0.3166666667
 12
-1.0
 22
-0.3166666667
 13
-1.0
 23
-0.3166666667
  0
ENDBLK
  5
228
100
AcDbEntity
  8
0
  6
BYBLOCK
 62
0
100
AcDbBlockEnd
  0
ENDSEC
  0
SECTION
  2
ENTITIES
  0
LWPOLYLINE
  5
229
100
AcDbEntity
  8
0
100
AcDbPolyline
 62
7
  6
CONTINUOUS
 90
49
 70
0
 10
-8.5389096533
 20
22.1199350239
 10
-8.5542819382
 20
22.1104656978
 10
-8.5729039089
 20
22.0984382477
 10
-8.5913492479
 20
22.0859084651
 10
-8.6096255668
 20
22.0728706557
 10
-8.6277171109
 20
22.059335417
 10
-8.6455853646
 20
22.0453326812
 10
-8.6632289174
 20
22.0308660959
 10
-8.6806451533
 20
22.0159397789
 10
-8.6977964343
 20
22.0005890874
 10
-8.7146825185
 20
21.9848190317
 10
-8.7313020665
 20
21.9686347637
 10
-8.7476185201
 20
21.9520772369
 10
-8.7636320633
 20
21.9351533136
 10
-8.7793430133
 20
21.9178685916
 10
-8.7947176408
 20
21.9002678807
 10
-8.8097527702
 20
21.8823641686
 10
-8.8244541437
 20
21.8641590961
 10
-8.8388031087
 20
21.8456848028
 10
-8.8527964918
 20
21.826955051
 10
-8.8664403233
 20
21.8079709819
 10
-8.8797296383
 20
21.788747819
 10
-8.8926645712
 20
21.7692933517
 10
-8.9052462218
 20
21.7496133479
 10
-8.9174702956
 20
21.7297210512
 10
-8.9293355128
 20
21.709625164
 10
-8.9408428749
 20
21.6893294893
 10
-8.9519910757
 20
21.6688408454
 10
-8.9627786682
 20
21.648165841
 10
-8.9732046042
 20
21.6273090107
 10
-8.9832677573
 20
21.606274441
 10
-8.9929662842
 20
21.5850662266
 10
-9.0022971177
 20
21.5636901832
 10
-9.0112567007
 20
21.5421527063
 10
-9.0198424416
 20
21.5204563389
 10
-9.0280499387
 20
21.4986075744
 10
-9.0358725244
 20
21.4766181033
 10
-9.0433062761
 20
21.4544917711
 10
-9.0503466069
 20
21.4322332387
 10
-9.0569861787
 20
21.4098545602
 10
-9.0632202617
 20
21.387359455
 10
-9.0690433103
 20
21.364752072
 10
-9.0744477119
 20
21.3420439286
 10
-9.0794275801
 20
21.3192389673
 10
-9.0839763335
 20
21.296340945
 10
-9.0880861337
 20
21.2733590347
 10
-9.0917495277
 20
21.2502978004
 10
-9.0949589479
 20
21.2271600925
 10
-9.0972608585
 20
21.2080005555
  0
LINE
  5
22A
100
AcDbEntity
  8
0
100
AcDbLine
 62
7
  6
CONTINUOUS
 10
-8.5389091432
 20
22.1199353435
 11
-6.5578902199
 21
23.3138816778
  0
LWPOLYLINE
  5
22B
100
AcDbEntity
  8
0
100
AcDbPolyline
 62
250
  6
CONTINUOUS
 90
27
 70
0
 10
-8.5389091432
 20
22.1199353435
 10
-8.537494135
 20
22.1207795375
 10
-8.5298017383
 20
22.1250771262
 10
-8.5218991624
 20
22.1290088855
 10
-8.5137930784
 20
22.1325714965
 10
-8.5054903287
 20
22.1357619518
 10
-8.4969979221
 20
22.1385775583
 10
-8.4883230272
 20
22.1410159393
 10
-8.4794729668
 20
22.1430750365
 10
-8.4704552115
 20
22.1447531115
 10
-8.4612773735
 20
22.1460487481
 10
-8.4519472002
 20
22.1469608524
 10
-8.4424725675
 20
22.1474886546
 10
-8.4328614731
 20
22.147631709
 10
-8.4231220302
 20
22.147389895
 10
-8.4132624602
 20
22.1467634166
 10
-8.4032910858
 20
22.1457528027
 10
-8.3932163242
 20
22.1443589064
 10
-8.3830466799
 20
22.1425829044
 10
-8.3727907373
 20
22.1404262957
 10
-8.362457154
 20
22.1378909009
 10
-8.3520546527
 20
22.1349788602
 10
-8.3415920146
 20
22.1316926316
 10
-8.3310780716
 20
22.1280349894
 10
-8.3205216988
 20
22.1240090209
 10
-8.3099318073
 20
22.1196181247
 10
-8.2993173362
 20
22.1148660072
  0
LWPOLYLINE
  5
22C
100
AcDbEntity
  8
0
100
AcDbPolyline
 62
7
  6
CONTINUOUS
 90
36
 70
0
 10
6.16360886
 20
-23.5365326619
 10
6.1725577746
 20
-23.5409281277
 10
6.1886023621
 20
-23.5484194377
 10
6.2048272505
 20
-23.5555019289
 10
6.2212269397
 20
-23.5621737632
 10
6.2378063639
 20
-23.5684367438
 10
6.2545551778
 20
-23.5742863972
 10
6.271463124
 20
-23.5797187201
 10
6.2885360647
 20
-23.5847345839
 10
6.3057639876
 20
-23.5893294559
 10
6.3231365262
 20
-23.5934992194
 10
6.3406597981
 20
-23.597243581
 10
6.3583241852
 20
-23.6005581458
 10
6.3761190206
 20
-23.6034386489
 10
6.3940495847
 20
-23.6058832613
 10
6.4121059061
 20
-23.6078876309
 10
6.4302776955
 20
-23.6094477223
 10
6.4485704239
 20
-23.6105605874
 10
6.4669747135
 20
-23.611221728
 10
6.485479819
 20
-23.6114271172
 10
6.5040898984
 20
-23.6111727613
 10
6.5227970867
 20
-23.6104541433
 10
6.5415892999
 20
-23.609267168
 10
6.5604651185
 20
-23.6076073953
 10
6.5794150715
 20
-23.6054708625
 10
6.5984290285
 20
-23.6028538842
 10
6.617505456
 20
-23.5997516243
 10
6.6366352619
 20
-23.5961604303
 10
6.6558083559
 20
-23.592077028
 10
6.6750226335
 20
-23.5874963417
 10
6.6942694103
 20
-23.5824147304
 10
6.7135392725
 20
-23.5768290255
 10
6.7328301806
 20
-23.5707337457
 10
6.7521357106
 20
-23.5641244542
 10
6.7714438337
 20
-23.5569989915
 10
6.7868838262
 20
-23.5509258206
  0
LINE
  5
22D
100
AcDbEntity
  8
0
100
AcDbLine
 62
7
  6
CONTINUOUS
 10
-8.7023614305
 20
-16.1035475514
 11
6.1636268423
 21
-23.5365416878
  0
LINE
  5
22E
100
AcDbEntity
  8
0
100
AcDbLine
 62
250
  6
CONTINUOUS
 10
-8.9499527293
 20
-15.6900315984
 11
5.9072358763
 21
-23.1186259012
  0
LWPOLYLINE
  5
22F
100
AcDbEntity
  8
0
100
AcDbPolyline
 62
250
  6
CONTINUOUS
 90
31
 70
0
 10
-8.7109446105
 20
-16.0991118704
 10
-8.7235666234
 20
-16.0920475527
 10
-8.7359228356
 20
-16.0844719453
 10
-8.7480063858
 20
-16.0763892925
 10
-8.7598102005
 20
-16.0678043146
 10
-8.771327341
 20
-16.0587220368
 10
-8.782551395
 20
-16.0491475937
 10
-8.7934757812
 20
-16.0390865745
 10
-8.8040940925
 20
-16.0285448413
 10
-8.8144004424
 20
-16.0175283556
 10
-8.8243888014
 20
-16.006043516
 10
-8.8340532959
 20
-15.9940970121
 10
-8.8433885511
 20
-15.9816956433
 10
-8.8523891023
 20
-15.9688466095
 10
-8.8610496625
 20
-15.9555573749
 10
-8.8693654187
 20
-15.9418355197
 10
-8.8773315059
 20
-15.9276889985
 10
-8.8849432433
 20
-15.9131260188
 10
-8.8921964029
 20
-15.8981549045
 10
-8.8990867386
 20
-15.8827843374
 10
-8.9056102066
 20
-15.8670232125
 10
-8.9117631987
 20
-15.8508805128
 10
-8.9175421282
 20
-15.8343655382
 10
-8.9229435819
 20
-15.8174878806
 10
-8.9279645418
 20
-15.8002572804
 10
-8.9326020659
 20
-15.7826837553
 10
-8.9368534434
 20
-15.7647774161
 10
-8.9407163374
 20
-15.7465484326
 10
-8.9441885295
 20
-15.7280072725
 10
-8.9472679295
 20
-15.7091647017
 10
-8.9499527293
 20
-15.6900315984
  0
LINE
  5
230
100
AcDbEntity
  8
RACCORDO
100
AcDbLine
 62
7
  6
CONTINUOUS
 10
-4.3374819896
 20
22.3062945415
 11
-4.5177332389
 21
21.94256708
  0
LINE
  5
231
100
AcDbEntity
  8
0
100
AcDbLine
 62
7
  6
CONTINUOUS
 10
-1.7755906786
 20
-14.7259264678
 11
-1.7850808489
 21
-14.728294453
  0
LINE
  5
232
100
AcDbEntity
  8
0
100
AcDbLine
 62
7
  6
CONTINUOUS
 10
-1.7846941275
 20
-14.7282087917
 11
-1.7943972502
 21
-14.7301836046
  0
LINE
  5
233
100
AcDbEntity
  8
0
100
AcDbLine
 62
7
  6
CONTINUOUS
 10
-1.7939644214
 20
-14.7301051869
 11
-1.8038535356
 21
-14.7316794529
  0
LINE
  5
234
100
AcDbEntity
  8
0
100
AcDbLine
 62
7
  6
CONTINUOUS
 10
-1.8034028675
 20
-14.7316153772
 11
-1.8134599524
 21
-14.7327841136
  0
LINE
  5
235
100
AcDbEntity
  8
0
100
AcDbLine
 62
7
  6
CONTINUOUS
 10
-1.8130082988
 20
-14.7327397235
 11
-1.8232153567
 21
-14.7335023527
  0
LINE
  5
236
100
AcDbEntity
  8
0
100
AcDbLine
 62
7
  6
CONTINUOUS
 10
-1.8227618189
 20
-14.7334776801
 11
-1.8331250774
 21
-14.7338360619
  0
LWPOLYLINE
  5
237
100
AcDbEntity
  8
0
100
AcDbPolyline
 62
7
  6
CONTINUOUS
 90
7
 70
0
 10
-2.0105316327
 20
-14.1641210337
 10
-2.0078783161
 20
-14.1641172812
 10
-2.0052795847
 20
-14.163952017
 10
-2.0027486665
 20
-14.1636252851
 10
-2.0002850497
 20
-14.1631359434
 10
-1.9978892309
 20
-14.1624851248
 10
-1.9955759512
 20
-14.1616762859
  0
LWPOLYLINE
  5
238
100
AcDbEntity
  8
0
100
AcDbPolyline
 62
7
  6
CONTINUOUS
 90
8
 70
0
 10
-2.0107415983
 20
-14.164114518
 10
-2.0080971168
 20
-14.1641242968
 10
-2.0055023061
 20
-14.1639743162
 10
-2.0029646679
 20
-14.1636598996
 10
-2.0004795978
 20
-14.1631796976
 10
-1.9980516839
 20
-14.1625350498
 10
-1.995702217
 20
-14.161725313
 10
-1.993350119
 20
-14.1607105757
  0
LINE
  5
239
100
AcDbEntity
  8
0
100
AcDbLine
 62
7
  6
CONTINUOUS
 10
-1.8326624319
 20
-14.7338293096
 11
-1.8431839085
 21
-14.7337834236
  0
LINE
  5
23A
100
AcDbEntity
  8
0
100
AcDbLine
 62
7
  6
CONTINUOUS
 10
-1.8427112579
 20
-14.7337946243
 11
-1.8533748983
 21
-14.7333436373
  0
LINE
  5
23B
100
AcDbEntity
  8
0
100
AcDbLine
 62
7
  6
CONTINUOUS
 10
-2.0134366358
 20
-14.163945598
 11
-2.0105316327
 21
-14.1641210337
  0
LINE
  5
23C
100
AcDbEntity
  8
0
100
AcDbLine
 62
7
  6
CONTINUOUS
 10
-1.8528925725
 20
-14.7333730032
 11
-1.8637038144
 21
-14.7325145473
  0
LINE
  5
23D
100
AcDbEntity
  8
0
100
AcDbLine
 62
7
  6
CONTINUOUS
 10
-1.8632106144
 20
-14.732562898
 11
-1.8741649942
 21
-14.7312983728
  0
LINE
  5
23E
100
AcDbEntity
  8
0
100
AcDbLine
 62
7
  6
CONTINUOUS
 10
-2.0161813562
 20
-14.1636169257
 11
-2.0132396415
 21
-14.1639626003
  0
LINE
  5
23F
100
AcDbEntity
  8
0
100
AcDbLine
 62
7
  6
CONTINUOUS
 10
-1.8736612501
 20
-14.7313659205
 11
-1.8847243382
 21
-14.7297008736
  0
LINE
  5
240
100
AcDbEntity
  8
0
100
AcDbLine
 62
7
  6
CONTINUOUS
 10
-2.0189656187
 20
-14.1631313333
 11
-2.0160022478
 21
-14.1636426627
  0
LINE
  5
241
100
AcDbEntity
  8
0
100
AcDbLine
 62
7
  6
CONTINUOUS
 10
-1.8842161956
 20
-14.7297861875
 11
-1.8953804584
 21
-14.7277209158
  0
LINE
  5
242
100
AcDbEntity
  8
0
100
AcDbLine
 62
7
  6
CONTINUOUS
 10
-1.8948722027
 20
-14.727823962
 11
-1.906134828
 21
-14.7253596848
  0
LINE
  5
243
100
AcDbEntity
  8
0
100
AcDbLine
 62
7
  6
CONTINUOUS
 10
-2.0217934991
 20
-14.162487071
 11
-2.0188059193
 21
-14.1631632099
  0
LINE
  5
244
100
AcDbEntity
  8
0
100
AcDbLine
 62
7
  6
CONTINUOUS
 10
-1.9056326047
 20
-14.7254790325
 11
-1.9169576348
 21
-14.7226264172
  0
LINE
  5
245
100
AcDbEntity
  8
0
100
AcDbLine
 62
7
  6
CONTINUOUS
 10
-2.02466093
 20
-14.1616858933
 11
-2.0216516375
 21
-14.1625233237
  0
LINE
  5
246
100
AcDbEntity
  8
0
100
AcDbLine
 62
7
  6
CONTINUOUS
 10
-1.9164789856
 20
-14.7227548024
 11
-1.9278380364
 21
-14.7195240835
  0
LINE
  5
247
100
AcDbEntity
  8
0
100
AcDbLine
 62
7
  6
CONTINUOUS
 10
-1.9274144913
 20
-14.7196492389
 11
-1.938786937
 21
-14.7160497506
  0
LINE
  5
248
100
AcDbEntity
  8
0
100
AcDbLine
 62
7
  6
CONTINUOUS
 10
-2.0275455547
 20
-14.1607358884
 11
-2.0245384295
 21
-14.1617239275
  0
LINE
  5
249
100
AcDbEntity
  8
0
100
AcDbLine
 62
7
  6
CONTINUOUS
 10
-1.9384360381
 20
-14.7161644123
 11
-1.9498071388
 21
-14.7122037965
  0
LINE
  5
24A
100
AcDbEntity
  8
0
100
AcDbLine
 62
7
  6
CONTINUOUS
 10
-1.9495158604
 20
-14.7123098774
 11
-1.9609084773
 21
-14.7079836709
  0
LINE
  5
24B
100
AcDbEntity
  8
0
100
AcDbLine
 62
7
  6
CONTINUOUS
 10
-1.9606506351
 20
-14.7080865186
 11
-1.9720811536
 21
-14.7033919462
  0
LINE
  5
24C
100
AcDbEntity
  8
0
100
AcDbLine
 62
7
  6
CONTINUOUS
 10
-1.971843723
 20
-14.7034934742
 11
-1.9832985119
 21
-14.6984366805
  0
LINE
  5
24D
100
AcDbEntity
  8
0
100
AcDbLine
 62
7
  6
CONTINUOUS
 10
-1.9830773783
 20
-14.698537677
 11
-1.9945638162
 21
-14.693114557
  0
LINE
  5
24E
100
AcDbEntity
  8
0
100
AcDbLine
 62
7
  6
CONTINUOUS
 10
-1.994356038
 20
-14.693216198
 11
-2.0058738145
 21
-14.6874288998
  0
LINE
  5
24F
100
AcDbEntity
  8
0
100
AcDbLine
 62
7
  6
CONTINUOUS
 10
-2.0056752774
 20
-14.6875319735
 11
-2.0171920707
 21
-14.6813977248
  0
LINE
  5
250
100
AcDbEntity
  8
0
100
AcDbLine
 62
7
  6
CONTINUOUS
 10
-2.0170040507
 20
-14.6815007296
 11
-2.0285153602
 21
-14.6750211355
  0
LINE
  5
251
100
AcDbEntity
  8
0
100
AcDbLine
 62
7
  6
CONTINUOUS
 10
-2.0283379337
 20
-14.6751240952
 11
-2.0398468941
 21
-14.6682990201
  0
LWPOLYLINE
  5
252
100
AcDbEntity
  8
0
100
AcDbPolyline
 62
7
  6
CONTINUOUS
 90
3
 70
0
 10
-2.0396813373
 20
-14.6684004332
 10
-2.0511598832
 20
-14.661249068
 10
-2.0624453647
 20
-14.6538777555
  0
LINE
  5
253
100
AcDbEntity
  8
0
100
AcDbLine
 62
7
  6
CONTINUOUS
 10
-2.2956114546
 20
12.1385266537
 11
-2.2920717673
 21
12.1406659907
  0
LINE
  5
254
100
AcDbEntity
  8
0
100
AcDbLine
 62
7
  6
CONTINUOUS
 10
-2.2920930945
 20
12.1406508662
 11
-2.2828903203
 21
12.1458643147
  0
LINE
  5
255
100
AcDbEntity
  8
0
100
AcDbLine
 62
7
  6
CONTINUOUS
 10
-2.2828903203
 20
12.1458643147
 11
-2.2734262584
 21
12.1507228375
  0
LINE
  5
256
100
AcDbEntity
  8
0
100
AcDbLine
 62
7
  6
CONTINUOUS
 10
-2.2735230898
 20
12.1506756217
 11
-2.2638282936
 21
12.1551521831
  0
LINE
  5
257
100
AcDbEntity
  8
0
100
AcDbLine
 62
7
  6
CONTINUOUS
 10
-2.2639833563
 20
12.1550858572
 11
-2.254055083
 21
12.1591799374
  0
LINE
  5
258
100
AcDbEntity
  8
0
100
AcDbLine
 62
7
  6
CONTINUOUS
 10
-2.2542793309
 20
12.1590938857
 11
-2.2441432555
 21
12.1627963309
  0
LINE
  5
259
100
AcDbEntity
  8
0
100
AcDbLine
 62
7
  6
CONTINUOUS
 10
-2.2444354867
 20
12.1626963654
 11
-2.2340936357
 21
12.1659990131
  0
LWPOLYLINE
  5
25A
100
AcDbEntity
  8
0
100
AcDbPolyline
 62
7
  6
CONTINUOUS
 90
5
 70
0
 10
-2.0392947736
 20
-14.1554216626
 10
-2.0363152585
 20
-14.1569835168
 10
-2.0333454434
 20
-14.1583961456
 10
-2.0303853303
 20
-14.1596603372
 10
-2.0274498321
 20
-14.1607697725
  0
LINE
  5
25B
100
AcDbEntity
  8
0
100
AcDbLine
 62
7
  6
CONTINUOUS
 10
-2.0422839906
 20
-14.1537113711
 11
-2.0392136205
 21
-14.1554666215
  0
LINE
  5
25C
100
AcDbEntity
  8
0
100
AcDbLine
 62
7
  6
CONTINUOUS
 10
-2.0452680009
 20
-14.1518613251
 11
-2.0421566238
 21
-14.1537880194
  0
LWPOLYLINE
  5
25D
100
AcDbEntity
  8
0
100
AcDbPolyline
 62
7
  6
CONTINUOUS
 90
5
 70
0
 10
-2.0510164624
 20
-14.661340567
 10
-2.0623467567
 20
-14.6539419035
 10
-2.0736687336
 20
-14.6462070124
 10
-2.0849541865
 20
-14.6381544579
 10
-2.0962003999
 20
-14.6297850038
  0
LINE
  5
25E
100
AcDbEntity
  8
0
100
AcDbLine
 62
7
  6
CONTINUOUS
 10
-2.0482474137
 20
-14.1498704791
 11
-2.0451016839
 21
-14.1519681897
  0
LINE
  5
25F
100
AcDbEntity
  8
0
100
AcDbLine
 62
7
  6
CONTINUOUS
 10
-2.0512216153
 20
-14.147739876
 11
-2.0480536547
 21
-14.1500034953
  0
LWPOLYLINE
  5
260
100
AcDbEntity
  8
0
100
AcDbPolyline
 62
7
  6
CONTINUOUS
 90
4
 70
0
 10
-2.0849606135
 20
-14.6381497727
 10
-2.0962025561
 20
-14.6297819967
 10
-2.1074258869
 20
-14.6210845441
 10
-2.1185941195
 20
-14.6120835583
  0
LINE
  5
261
100
AcDbEntity
  8
0
100
AcDbLine
 62
7
  6
CONTINUOUS
 10
-2.0541738625
 20
-14.1454813309
 11
-2.0510076781
 21
-14.1478975709
  0
LINE
  5
262
100
AcDbEntity
  8
0
100
AcDbLine
 62
7
  6
CONTINUOUS
 10
-2.0571033227
 20
-14.1430947806
 11
-2.0539416042
 21
-14.1456643111
  0
LWPOLYLINE
  5
263
100
AcDbEntity
  8
0
100
AcDbPolyline
 62
7
  6
CONTINUOUS
 90
8
 70
0
 10
-2.1185629042
 20
-14.6121092032
 10
-2.1296624382
 20
-14.6028157762
 10
-2.1407051379
 20
-14.5932208078
 10
-2.1516604975
 20
-14.583350308
 10
-2.1625251358
 20
-14.5732058168
 10
-2.173302328
 20
-14.5627857303
 10
-2.183971551
 20
-14.5521113415
 10
-2.1945352722
 20
-14.5411791681
  0
LINE
  5
264
100
AcDbEntity
  8
0
100
AcDbLine
 62
7
  6
CONTINUOUS
 10
-2.0600108199
 20
-14.1405802831
 11
-2.0568512911
 21
-14.1433061855
  0
LWPOLYLINE
  5
265
100
AcDbEntity
  8
0
100
AcDbPolyline
 62
7
  6
CONTINUOUS
 90
7
 70
0
 10
-2.1407677473
 20
-14.5931645895
 10
-2.1517313483
 20
-14.5832853085
 10
-2.1625928282
 20
-14.5731416918
 10
-2.1733585828
 20
-14.5627300079
 10
-2.1840075205
 20
-14.5520747386
 10
-2.1945339592
 20
-14.5411822836
 10
-2.204943461
 20
-14.5300461708
  0
LINE
  5
266
100
AcDbEntity
  8
0
100
AcDbLine
 62
7
  6
CONTINUOUS
 10
-2.0628820938
 20
-14.1379498349
 11
-2.0597408724
 21
-14.1408207195
  0
LWPOLYLINE
  5
267
100
AcDbEntity
  8
0
100
AcDbPolyline
 62
250
  6
CONTINUOUS
 90
31
 70
0
 10
-9.0972608585
 20
21.2080005555
 10
-9.0974747226
 20
21.2058133872
 10
-9.0977494552
 20
21.2001218525
 10
-9.0976216293
 20
21.1943917787
 10
-9.0970913485
 20
21.1886278034
 10
-9.0961590419
 20
21.1828345915
 10
-9.094825464
 20
21.1770168316
 10
-9.0930916942
 20
21.1711792322
 10
-9.0909591356
 20
21.1653265177
 10
-9.0884295141
 20
21.159463425
 10
-9.0855048772
 20
21.1535946992
 10
-9.0821875916
 20
21.14772509
 10
-9.0784803423
 20
21.1418593478
 10
-9.0743861296
 20
21.1360022201
 10
-9.069908267
 20
21.130158447
 10
-9.0650503786
 20
21.1243327581
 10
-9.059816396
 20
21.1185298683
 10
-9.0542105553
 20
21.112754474
 10
-9.0482373933
 20
21.1070112495
 10
-9.0419017443
 20
21.1013048428
 10
-9.035208736
 20
21.0956398723
 10
-9.0281637852
 20
21.0900209228
 10
-9.0207725934
 20
21.0844525419
 10
-9.0130411427
 20
21.0789392362
 10
-9.0049756903
 20
21.0734854679
 10
-8.9965827637
 20
21.0680956506
 10
-8.9878691557
 20
21.0627741467
 10
-8.9788419183
 20
21.0575252629
 10
-8.9695083575
 20
21.0523532473
 10
-8.9598760272
 20
21.0472622858
 10
-8.9499527232
 20
21.0422564985
  0
LWPOLYLINE
  5
268
100
AcDbEntity
  8
0
100
AcDbPolyline
 62
7
  6
CONTINUOUS
 90
28
 70
0
 10
-9.0972607152
 20
21.2080018859
 10
-9.140437887
 20
20.8154025727
 10
-9.1825938716
 20
20.4197059729
 10
-9.2233268751
 20
20.0245089092
 10
-9.2626357406
 20
19.6298217414
 10
-9.3005195312
 20
19.2356534177
 10
-9.3369773839
 20
18.8420122839
 10
-9.3720084193
 20
18.4489069432
 10
-9.4056117364
 20
18.0563468751
 10
-9.4377864366
 20
17.6643417377
 10
-9.468531673
 20
17.2729008091
 10
-9.4978466849
 20
16.8820331213
 10
-9.5257307092
 20
16.4917479577
 10
-9.5521830148
 20
16.1020543965
 10
-9.5772029348
 20
15.7129615096
 10
-9.6007898057
 20
15.3244785663
 10
-9.622942994
 20
14.9366146311
 10
-9.6436619336
 20
14.549378704
 10
-9.662946066
 20
14.1627799529
 10
-9.6807948619
 20
13.7768273108
 10
-9.6972078506
 20
13.391529892
 10
-9.7121845666
 20
13.0068971314
 10
-9.7257245694
 20
12.6229383093
 10
-9.7378275107
 20
12.2396618007
 10
-9.7484930607
 20
11.8570756804
 10
-9.7577208861
 20
11.4751886178
 10
-9.7655106988
 20
11.0940106101
 10
-9.7718066085
 20
10.7173005613
  0
LWPOLYLINE
  5
269
100
AcDbEntity
  8
0
100
AcDbPolyline
 62
250
  6
CONTINUOUS
 90
58
 70
0
 10
-8.9499527293
 20
21.0422564966
 10
-8.9472679295
 20
21.0641699451
 10
-8.9441885295
 20
21.0862013419
 10
-8.9407163374
 20
21.1083380005
 10
-8.9368534434
 20
21.1305671502
 10
-8.9326020659
 20
21.1528760197
 10
-8.9279645418
 20
21.1752518462
 10
-8.9229435819
 20
21.1976818352
 10
-8.9175421282
 20
21.2201530001
 10
-8.9117631987
 20
21.2426522468
 10
-8.9056102066
 20
21.265166591
 10
-8.8990867386
 20
21.2876831253
 10
-8.8921964029
 20
21.3101888606
 10
-8.8849432433
 20
21.3326708814
 10
-8.8773315059
 20
21.3551162365
 10
-8.8693654187
 20
21.3775119058
 10
-8.8610496625
 20
21.3998450224
 10
-8.8523891023
 20
21.4221027453
 10
-8.8433885511
 20
21.44427215
 10
-8.8340532959
 20
21.4663405061
 10
-8.8243888014
 20
21.4882951282
 10
-8.8144004424
 20
21.5101232486
 10
-8.8040940925
 20
21.5318123231
 10
-8.7934757812
 20
21.5533499046
 10
-8.782551395
 20
21.5747234934
 10
-8.771327341
 20
21.5959208392
 10
-8.7598102005
 20
21.6169297526
 10
-8.7480063858
 20
21.6377379792
 10
-8.7359228356
 20
21.658333572
 10
-8.7235666234
 20
21.6787047202
 10
-8.7109446105
 20
21.6988395595
 10
-8.6980642016
 20
21.7187265557
 10
-8.6849329515
 20
21.7383542875
 10
-8.6715581758
 20
21.7577112763
 10
-8.6579477387
 20
21.7767864149
 10
-8.6441096091
 20
21.7955687804
 10
-8.6300514669
 20
21.8140474154
 10
-8.6157815577
 20
21.8322117459
 10
-8.6013082561
 20
21.8500513505
 10
-8.5866396221
 20
21.8675557739
 10
-8.5717842687
 20
21.8847149952
 10
-8.5567509076
 20
21.9015191881
 10
-8.5415479117
 20
21.9179584904
 10
-8.5261842076
 20
21.9340234993
 10
-8.510668807
 20
21.9497050218
 10
-8.4950103538
 20
21.9649938364
 10
-8.4792180556
 20
21.9798811914
 10
-8.4633011639
 20
21.9943585925
 10
-8.4472685054
 20
22.0084175507
 10
-8.4311294621
 20
22.0220500663
 10
-8.4148935332
 20
22.035248322
 10
-8.3985698163
 20
22.0480044754
 10
-8.3821679438
 20
22.0603112143
 10
-8.3656974936
 20
22.0721615687
 10
-8.3491675499
 20
22.083548598
 10
-8.3325876202
 20
22.0944657487
 10
-8.3159676305
 20
22.1049068662
 10
-6.3292802436
 20
23.3021936685
  0
LWPOLYLINE
  5
26A
100
AcDbEntity
  8
0
100
AcDbPolyline
 62
7
  6
CONTINUOUS
 90
15
 70
0
 10
-4.5081760917
 20
9.9823090367
 10
-4.5102401482
 20
9.9801760078
 10
-4.5121956065
 20
9.9778958727
 10
-4.514029398
 20
9.9754958496
 10
-4.5157372326
 20
9.9729790411
 10
-4.5173233891
 20
9.9703423497
 10
-4.5187876569
 20
9.9676036913
 10
-4.5201289796
 20
9.9647674118
 10
-4.5213484054
 20
9.9618291689
 10
-4.522448883
 20
9.9587938452
 10
-4.5234325254
 20
9.9556571395
 10
-4.5242972112
 20
9.9524233567
 10
-4.5250395392
 20
9.9491102882
 10
-4.525658712
 20
9.9457138964
 10
-4.5261555229
 20
9.9422382206
  0
LWPOLYLINE
  5
26B
100
AcDbEntity
  8
0
100
AcDbPolyline
 62
7
  6
CONTINUOUS
 90
16
 70
0
 10
-4.5080330396
 20
9.9824475745
 10
-4.5100636002
 20
9.98036966
 10
-4.5119923529
 20
9.9781479735
 10
-4.5138097124
 20
9.9757990706
 10
-4.5155140298
 20
9.9733238609
 10
-4.5171069402
 20
9.9707214411
 10
-4.5185837871
 20
9.9680056459
 10
-4.5199445514
 20
9.9651752853
 10
-4.5211892408
 20
9.9622315545
 10
-4.5223132427
 20
9.9591918641
 10
-4.5233157581
 20
9.9560569139
 10
-4.5241975785
 20
9.9528260075
 10
-4.5249564807
 20
9.9495144589
 10
-4.5255921583
 20
9.9461196274
 10
-4.5261049133
 20
9.9426441557
 10
-4.5265289621
 20
9.9387131648
  0
LINE
  5
26C
100
AcDbEntity
  8
0
100
AcDbLine
 62
7
  6
CONTINUOUS
 10
-4.5059038727
 20
9.9843761955
 11
-4.5081760917
 21
9.9823090367
  0
LWPOLYLINE
  5
26D
100
AcDbEntity
  8
0
100
AcDbPolyline
 62
7
  6
CONTINUOUS
 90
3
 70
0
 10
-4.9386639952
 20
10.4108839133
 10
-4.9303929011
 20
10.4176437316
 10
-4.9218915086
 20
10.424019751
  0
LWPOLYLINE
  5
26E
100
AcDbEntity
  8
0
100
AcDbPolyline
 62
7
  6
CONTINUOUS
 90
3
 70
0
 10
-4.5013454831
 20
9.9877982313
 10
-4.5037309279
 20
9.9861156162
 10
-4.5060078001
 20
9.9842858835
  0
LINE
  5
26F
100
AcDbEntity
  8
0
100
AcDbLine
 62
7
  6
CONTINUOUS
 10
-4.9218915086
 20
10.424019751
 11
-4.9131599015
 21
10.4300119342
  0
LINE
  5
270
100
AcDbEntity
  8
0
100
AcDbLine
 62
7
  6
CONTINUOUS
 10
-4.2364063675
 20
10.1614462355
 11
-4.5013401743
 21
9.9878020947
  0
LWPOLYLINE
  5
271
100
AcDbEntity
  8
0
100
AcDbPolyline
 62
7
  6
CONTINUOUS
 90
3
 70
0
 10
-4.9131558565
 20
10.4300147737
 10
-4.6268166616
 20
10.617568229
 10
-4.3394990237
 20
10.8056082239
  0
LINE
  5
272
100
AcDbEntity
  8
0
100
AcDbLine
 62
7
  6
CONTINUOUS
 10
-3.9706365167
 20
10.3355046377
 11
-4.2364137782
 21
10.1614411667
  0
LINE
  5
273
100
AcDbEntity
  8
0
100
AcDbLine
 62
7
  6
CONTINUOUS
 10
-4.3394990237
 20
10.8056082239
 11
-4.0512033459
 21
10.9941292656
  0
LINE
  5
274
100
AcDbEntity
  8
0
100
AcDbLine
 62
7
  6
CONTINUOUS
 10
-3.4365417077
 20
10.6848746991
 11
-3.7040055029
 21
10.5099898278
  0
LINE
  5
275
100
AcDbEntity
  8
0
100
AcDbLine
 62
7
  6
CONTINUOUS
 10
-3.685798218
 20
10.5218949088
 11
-3.9706280362
 21
10.3355102753
  0
LWPOLYLINE
  5
276
100
AcDbEntity
  8
0
100
AcDbPolyline
 62
7
  6
CONTINUOUS
 90
3
 70
0
 10
-4.0512033459
 20
10.9941292656
 10
-3.7619221162
 20
11.1831263402
 10
-3.4716636775
 20
11.3725934704
  0
LINE
  5
277
100
AcDbEntity
  8
0
100
AcDbLine
 62
7
  6
CONTINUOUS
 10
-3.1682248148
 20
10.860172517
 11
-3.4365417077
 21
10.6848746991
  0
LINE
  5
278
100
AcDbEntity
  8
0
100
AcDbLine
 62
7
  6
CONTINUOUS
 10
-2.6291075817
 20
11.2119822285
 11
-2.8990761116
 21
11.0358776364
  0
LINE
  5
279
100
AcDbEntity
  8
0
100
AcDbLine
 62
7
  6
CONTINUOUS
 10
-2.873810907
 20
11.0523585145
 11
-3.1682248148
 21
10.860172517
  0
LINE
  5
27A
100
AcDbEntity
  8
0
100
AcDbLine
 62
7
  6
CONTINUOUS
 10
-3.4716636775
 20
11.3725934704
 11
-3.0928201447
 21
11.6196303875
  0
LWPOLYLINE
  5
27B
100
AcDbEntity
  8
0
100
AcDbPolyline
 62
7
  6
CONTINUOUS
 90
4
 70
0
 10
-3.180452369
 20
11.5625236567
 10
-2.8882967662
 20
11.7529108288
 10
-2.59518954
 20
11.9437499054
 10
-2.3011313255
 20
12.1350353108
  0
LWPOLYLINE
  5
27C
100
AcDbEntity
  8
0
100
AcDbPolyline
 62
7
  6
CONTINUOUS
 90
3
 70
0
 10
-2.0866802364
 20
11.5653809271
 10
-2.3583080702
 20
11.3884852846
 10
-2.6291075817
 20
11.2119822285
  0
LINE
  5
27D
100
AcDbEntity
  8
0
100
AcDbLine
 62
7
  6
CONTINUOUS
 10
-2.3011313255
 20
12.1350353108
 11
-2.2956114546
 21
12.1385266537
  0
LINE
  5
27E
100
AcDbEntity
  8
0
100
AcDbLine
 62
7
  6
CONTINUOUS
 10
-2.0843028009
 20
11.5668210521
 11
-2.0866798839
 21
11.5653811326
  0
LINE
  5
27F
100
AcDbEntity
  8
0
100
AcDbLine
 62
250
  6
CONTINUOUS
 10
8.6936018555
 20
15.790752619
 11
6.5809957198
 21
14.6747094792
  0
LINE
  5
280
100
AcDbEntity
  8
0
100
AcDbLine
 62
7
  6
CONTINUOUS
 10
-2.0817594151
 20
11.5681404397
 11
-2.0842504903
 21
11.5668475087
  0
LINE
  5
281
100
AcDbEntity
  8
0
100
AcDbLine
 62
7
  6
CONTINUOUS
 10
-2.0790665444
 20
11.5693155589
 11
-2.0818590516
 21
11.5680950123
  0
LINE
  5
282
100
AcDbEntity
  8
0
100
AcDbLine
 62
7
  6
CONTINUOUS
 10
-2.0790597195
 20
11.5693181805
 11
-2.0793486453
 21
11.5692030096
  0
LINE
  5
283
100
AcDbEntity
  8
0
100
AcDbLine
 62
7
  6
CONTINUOUS
 10
-2.0708696027
 20
11.5716235455
 11
-2.0866798929
 21
11.5653811505
  0
LINE
  5
284
100
AcDbEntity
  8
0
100
AcDbLine
 62
7
  6
CONTINUOUS
 10
-1.8088309217
 20
-11.1204150077
 11
-1.802612534
 21
-11.118970912
  0
LINE
  5
285
100
AcDbEntity
  8
0
100
AcDbLine
 62
7
  6
CONTINUOUS
 10
-2.559549824
 20
-11.1714023376
 11
-2.5657465611
 21
-11.1728347057
  0
LINE
  5
286
100
AcDbEntity
  8
0
100
AcDbLine
 62
7
  6
CONTINUOUS
 10
-1.8029768495
 20
-11.1190467134
 11
-1.796661094
 21
-11.1179229551
  0
LINE
  5
287
100
AcDbEntity
  8
0
100
AcDbLine
 62
7
  6
CONTINUOUS
 10
-2.5653832256
 20
-11.1727595241
 11
-2.5716781605
 21
-11.1738720308
  0
LINE
  5
288
100
AcDbEntity
  8
0
100
AcDbLine
 62
7
  6
CONTINUOUS
 10
-1.7970167218
 20
-11.1179767679
 11
-1.7905967405
 21
-11.117172943
  0
LINE
  5
289
100
AcDbEntity
  8
0
100
AcDbLine
 62
7
  6
CONTINUOUS
 10
-2.5713233894
 20
-11.1738187905
 11
-2.5777234149
 21
-11.1746118658
  0
LINE
  5
28A
100
AcDbEntity
  8
0
100
AcDbLine
 62
7
  6
CONTINUOUS
 10
-1.790958535
 20
-11.1172076884
 11
-1.7844185959
 21
-11.1167191854
  0
LINE
  5
28B
100
AcDbEntity
  8
0
100
AcDbLine
 62
7
  6
CONTINUOUS
 10
-2.5773624132
 20
-11.1745776744
 11
-2.5838832583
 21
-11.1750559293
  0
LINE
  5
28C
100
AcDbEntity
  8
0
100
AcDbLine
 62
7
  6
CONTINUOUS
 10
-1.7847943577
 20
-11.1167369931
 11
-1.7781463372
 21
-11.1165624071
  0
LINE
  5
28D
100
AcDbEntity
  8
0
100
AcDbLine
 62
7
  6
CONTINUOUS
 10
-2.5835082641
 20
-11.1750386739
 11
-2.5901381263
 21
-11.1752035837
  0
LINE
  5
28E
100
AcDbEntity
  8
0
100
AcDbLine
 62
7
  6
CONTINUOUS
 10
-1.7785323642
 20
-11.1165633811
 11
-1.7717802574
 21
-11.1167031354
  0
LINE
  5
28F
100
AcDbEntity
  8
0
100
AcDbLine
 62
7
  6
CONTINUOUS
 10
-2.5897528494
 20
-11.1752031498
 11
-2.5964877863
 21
-11.1750543338
  0
LINE
  5
290
100
AcDbEntity
  8
0
100
AcDbLine
 62
7
  6
CONTINUOUS
 10
-1.7721733203
 20
-11.1166851527
 11
-1.7653201164
 21
-11.1171408718
  0
LINE
  5
291
100
AcDbEntity
  8
0
100
AcDbLine
 62
7
  6
CONTINUOUS
 10
-2.5960954617
 20
-11.1750728271
 11
-2.6029325238
 21
-11.1746087038
  0
LINE
  5
292
100
AcDbEntity
  8
0
100
AcDbLine
 62
7
  6
CONTINUOUS
 10
-1.765716513
 20
-11.1171040362
 11
-1.758784791
 21
-11.1178748017
  0
LINE
  5
293
100
AcDbEntity
  8
0
100
AcDbLine
 62
7
  6
CONTINUOUS
 10
-2.6025368611
 20
-11.1746460097
 11
-2.6094535509
 21
-11.1738675836
  0
LINE
  5
294
100
AcDbEntity
  8
0
100
AcDbLine
 62
7
  6
CONTINUOUS
 10
-1.7591678961
 20
-11.1178238721
 11
-1.7521742887
 21
-11.1189057943
  0
LINE
  5
295
100
AcDbEntity
  8
0
100
AcDbLine
 62
7
  6
CONTINUOUS
 10
-2.6090711533
 20
-11.1739189254
 11
-2.6160509033
 21
-11.1728301319
  0
LWPOLYLINE
  5
296
100
AcDbEntity
  8
0
100
AcDbPolyline
 62
7
  6
CONTINUOUS
 90
10
 70
0
 10
-4.4775335062
 20
-10.2534223247
 10
-4.4804031064
 20
-10.2529477759
 10
-4.4832116081
 20
-10.2526414046
 10
-4.4859504252
 20
-10.2524956748
 10
-4.4886162883
 20
-10.2525095593
 10
-4.4912124561
 20
-10.2526840794
 10
-4.4937401341
 20
-10.2530147719
 10
-4.4962033015
 20
-10.2535013225
 10
-4.4985979654
 20
-10.254144038
 10
-4.5009133743
 20
-10.2549393873
  0
LWPOLYLINE
  5
297
100
AcDbEntity
  8
0
100
AcDbPolyline
 62
7
  6
CONTINUOUS
 90
11
 70
0
 10
-4.4772448601
 20
-10.2534785896
 10
-4.4800958784
 20
-10.2529916189
 10
-4.4828976573
 20
-10.2526674997
 10
-4.4856400672
 20
-10.2525041272
 10
-4.4883237358
 20
-10.2525018941
 10
-4.4909480241
 20
-10.2526604014
 10
-4.4935009028
 20
-10.252976356
 10
-4.4959812446
 20
-10.2534499955
 10
-4.4983901633
 20
-10.2540810747
 10
-4.5007189914
 20
-10.254865577
 10
-4.5012164797
 20
-10.2550571698
  0
LINE
  5
298
100
AcDbEntity
  8
0
100
AcDbLine
 62
7
  6
CONTINUOUS
 10
-1.752518461
 20
-11.1188468935
 11
-1.7454886436
 21
-11.1202330031
  0
LINE
  5
299
100
AcDbEntity
  8
0
100
AcDbLine
 62
7
  6
CONTINUOUS
 10
-2.6157073733
 20
-11.1728893562
 11
-2.6227245866
 21
-11.1714972129
  0
LWPOLYLINE
  5
29A
100
AcDbEntity
  8
0
100
AcDbPolyline
 62
7
  6
CONTINUOUS
 90
5
 70
0
 10
-4.7544267872
 20
-9.6244193989
 10
-4.743217857
 20
-9.6268326044
 10
-4.7319211547
 20
-9.6296574422
 10
-4.7205558591
 20
-9.6328889546
 10
-4.7091186519
 20
-9.6365283906
  0
LINE
  5
29B
100
AcDbEntity
  8
0
100
AcDbLine
 62
7
  6
CONTINUOUS
 10
-4.4743427459
 20
-10.254129301
 11
-4.4775335062
 21
-10.2534223247
  0
LINE
  5
29C
100
AcDbEntity
  8
0
100
AcDbLine
 62
7
  6
CONTINUOUS
 10
-1.7457772574
 20
-11.1201708896
 11
-1.7387467695
 21
-11.1218530392
  0
LINE
  5
29D
100
AcDbEntity
  8
0
100
AcDbLine
 62
7
  6
CONTINUOUS
 10
-2.6224365272
 20
-11.1715595428
 11
-2.629455766
 21
-11.1698722738
  0
LINE
  5
29E
100
AcDbEntity
  8
0
100
AcDbLine
 62
7
  6
CONTINUOUS
 10
-4.4713914003
 20
-10.2549428685
 11
-4.4745969911
 21
-10.2540677605
  0
LINE
  5
29F
100
AcDbEntity
  8
0
100
AcDbLine
 62
7
  6
CONTINUOUS
 10
-1.7389773252
 20
-11.1217930345
 11
-1.7319473243
 21
-11.1237667138
  0
LINE
  5
2A0
100
AcDbEntity
  8
0
100
AcDbLine
 62
7
  6
CONTINUOUS
 10
-2.629225676
 20
-11.1699324003
 11
-2.6362458166
 21
-11.1679545201
  0
LINE
  5
2A1
100
AcDbEntity
  8
0
100
AcDbLine
 62
7
  6
CONTINUOUS
 10
-1.7321167712
 20
-11.1237167541
 11
-1.7250916788
 21
-11.1259732313
  0
LINE
  5
2A2
100
AcDbEntity
  8
0
100
AcDbLine
 62
7
  6
CONTINUOUS
 10
-2.636076754
 20
-11.1680045264
 11
-2.6430933919
 21
-11.165744762
  0
LINE
  5
2A3
100
AcDbEntity
  8
0
100
AcDbLine
 62
7
  6
CONTINUOUS
 10
-4.4684065337
 20
-10.2559187358
 11
-4.4715993857
 21
-10.2548813782
  0
LWPOLYLINE
  5
2A4
100
AcDbEntity
  8
0
100
AcDbPolyline
 62
7
  6
CONTINUOUS
 90
3
 70
0
 10
-4.709151159
 20
-9.6365175254
 10
-4.6976410259
 20
-9.6405641361
 10
-4.6860905232
 20
-9.6450096098
  0
LWPOLYLINE
  5
2A5
100
AcDbEntity
  8
0
100
AcDbPolyline
 62
7
  6
CONTINUOUS
 90
4
 70
0
 10
-1.7251975181
 20
-11.1259386384
 10
-1.7182583266
 20
-11.1284456062
 10
-1.7113121221
 20
-11.1312332996
 10
-1.7043459945
 20
-11.1343060846
  0
LWPOLYLINE
  5
2A6
100
AcDbEntity
  8
0
100
AcDbPolyline
 62
7
  6
CONTINUOUS
 90
4
 70
0
 10
-2.6429878564
 20
-11.1657793396
 10
-2.6499202833
 20
-11.1632699852
 10
-2.6568611397
 20
-11.1604808475
 10
-2.6638233358
 20
-11.1574075504
  0
LINE
  5
2A7
100
AcDbEntity
  8
0
100
AcDbLine
 62
7
  6
CONTINUOUS
 10
-4.4653933844
 20
-10.2570567185
 11
-4.4685667373
 21
-10.2558625917
  0
LINE
  5
2A8
100
AcDbEntity
  8
0
100
AcDbLine
 62
7
  6
CONTINUOUS
 10
-4.686067839
 20
-9.6450187163
 11
-4.6744931931
 21
-9.6498580621
  0
LINE
  5
2A9
100
AcDbEntity
  8
0
100
AcDbLine
 62
7
  6
CONTINUOUS
 10
-4.462413684
 20
-10.2583274198
 11
-4.4655077298
 21
-10.2570112065
  0
LWPOLYLINE
  5
2AA
100
AcDbEntity
  8
0
100
AcDbPolyline
 62
7
  6
CONTINUOUS
 90
3
 70
0
 10
-4.674505369
 20
-9.6498529714
 10
-4.6628878579
 20
-9.6550916116
 10
-4.6512260214
 20
-9.6607309345
  0
LINE
  5
2AB
100
AcDbEntity
  8
0
100
AcDbLine
 62
7
  6
CONTINUOUS
 10
-4.4592665369
 20
-10.2598195912
 11
-4.4623925195
 21
-10.2583374559
  0
LINE
  5
2AC
100
AcDbEntity
  8
0
100
AcDbLine
 62
7
  6
CONTINUOUS
 10
-2.6638284858
 20
-11.1574024906
 11
-2.670806875
 21
-11.1540500962
  0
LINE
  5
2AD
100
AcDbEntity
  8
0
100
AcDbLine
 62
7
  6
CONTINUOUS
 10
-1.7043407718
 20
-11.1343111872
 11
-1.6973599475
 21
-11.1376639633
  0
LINE
  5
2AE
100
AcDbEntity
  8
0
100
AcDbLine
 62
7
  6
CONTINUOUS
 10
0.1077463866
 20
-12.5433267257
 11
-1.680854697
 21
-11.6490261851
  0
LINE
  5
2AF
100
AcDbEntity
  8
0
100
AcDbLine
 62
7
  6
CONTINUOUS
 10
-2.670806875
 20
-11.1540500962
 11
-4.4592665128
 21
-10.2598202761
  0
LINE
  5
2B0
100
AcDbEntity
  8
0
100
AcDbLine
 62
7
  6
CONTINUOUS
 10
0.2666938411
 20
-12.1196908576
 11
-1.6973599475
 21
-11.1376639633
  0
LINE
  5
2B1
100
AcDbEntity
  8
0
100
AcDbLine
 62
7
  6
CONTINUOUS
 10
-2.6873129227
 20
-10.6426874757
 11
-4.6512260214
 21
-9.6607309345
  0
LWPOLYLINE
  5
2B2
100
AcDbEntity
  8
0
100
AcDbPolyline
 62
7
  6
CONTINUOUS
 90
41
 70
0
 10
0.2666938411
 20
-12.1196908576
 10
0.2783590671
 20
-12.1257146117
 10
0.2900076664
 20
-12.1321085196
 10
0.3016396462
 20
-12.1388725776
 10
0.3132648596
 20
-12.146013673
 10
0.3248734822
 20
-12.1535249027
 10
0.3364360128
 20
-12.1613855737
 10
0.3479491033
 20
-12.1695935273
 10
0.3594161581
 20
-12.1781508917
 10
0.3708178104
 20
-12.1870434011
 10
0.3821569686
 20
-12.1962745486
 10
0.3934308074
 20
-12.205840796
 10
0.4046113646
 20
-12.2157173277
 10
0.4156962967
 20
-12.225902008
 10
0.4266880534
 20
-12.2363969148
 10
0.4375658656
 20
-12.2471835512
 10
0.4483330425
 20
-12.2582671172
 10
0.458986404
 20
-12.2696423425
 10
0.469495448
 20
-12.2812750232
 10
0.4798559389
 20
-12.2931605413
 10
0.4900722562
 20
-12.3053034364
 10
0.5001268194
 20
-12.3176832417
 10
0.5100229647
 20
-12.3303057531
 10
0.5197575165
 20
-12.3431650871
 10
0.5293031221
 20
-12.3562232593
 10
0.5386554711
 20
-12.3694745895
 10
0.547819039
 20
-12.3829246676
 10
0.5567796461
 20
-12.3965524183
 10
0.5655408415
 20
-12.4103645228
 10
0.5740992512
 20
-12.424354204
 10
0.5824303007
 20
-12.438480204
 10
0.5905295521
 20
-12.4527358907
 10
0.598401612
 20
-12.4671278038
 10
0.6060354611
 20
-12.4816344499
 10
0.6134344797
 20
-12.4962629392
 10
0.6205954592
 20
-12.5110060673
 10
0.627497482
 20
-12.5258208764
 10
0.6341365755
 20
-12.5407002559
 10
0.6405168667
 20
-12.5556512314
 10
0.6466295706
 20
-12.5706520591
 10
0.6524773704
 20
-12.5857103915
  0
LINE
  5
2B3
100
AcDbEntity
  8
0
100
AcDbLine
 62
7
  6
CONTINUOUS
 10
-1.6808546969
 20
-11.6490261852
 11
-1.6878471273
 21
-11.6453957359
  0
LWPOLYLINE
  5
2B4
100
AcDbEntity
  8
0
100
AcDbPolyline
 62
7
  6
CONTINUOUS
 90
3
 70
0
 10
-2.6873129228
 20
-10.6426874757
 10
-2.6803194994
 20
-10.6463192505
 10
-2.6733292651
 20
-10.6502245948
  0
LINE
  5
2B5
100
AcDbEntity
  8
0
100
AcDbLine
 62
7
  6
CONTINUOUS
 10
0.1108819694
 20
-12.5449749622
 11
0.1077463626
 21
-12.5433260426
  0
LINE
  5
2B6
100
AcDbEntity
  8
0
100
AcDbLine
 62
7
  6
CONTINUOUS
 10
-1.6878430842
 20
-11.6453952135
 11
-1.6948162034
 21
-11.64150298
  0
LWPOLYLINE
  5
2B7
100
AcDbEntity
  8
0
100
AcDbPolyline
 62
7
  6
CONTINUOUS
 90
3
 70
0
 10
-2.6803236396
 20
-10.6463197315
 10
-2.6733512299
 20
-10.6502140683
 10
-2.6663956901
 20
-10.6543704842
  0
LWPOLYLINE
  5
2B8
100
AcDbEntity
  8
0
100
AcDbPolyline
 62
7
  6
CONTINUOUS
 90
3
 70
0
 10
0.1139969998
 20
-12.5467625343
 10
0.1108934874
 20
-12.5449810185
 10
0.107764472
 20
-12.5433357685
  0
LINE
  5
2B9
100
AcDbEntity
  8
0
100
AcDbLine
 62
7
  6
CONTINUOUS
 10
-1.6948162034
 20
-11.64150298
 11
-1.7017740509
 21
-11.6373494827
  0
LINE
  5
2BA
100
AcDbEntity
  8
0
100
AcDbLine
 62
7
  6
CONTINUOUS
 10
0.1170750104
 20
-12.5486803153
 11
0.1138936241
 21
-12.5467000922
  0
LINE
  5
2BB
100
AcDbEntity
  8
0
100
AcDbLine
 62
7
  6
CONTINUOUS
 10
-1.7017740509
 20
-11.6373494827
 11
-1.7088283984
 21
-11.6328591887
  0
LINE
  5
2BC
100
AcDbEntity
  8
0
100
AcDbLine
 62
7
  6
CONTINUOUS
 10
-2.6663956901
 20
-10.6543704842
 11
-2.6593451538
 21
-10.6588646984
  0
LINE
  5
2BD
100
AcDbEntity
  8
0
100
AcDbLine
 62
7
  6
CONTINUOUS
 10
-1.7087244321
 20
-11.6329289429
 11
-1.7158278617
 21
-11.6281290292
  0
LINE
  5
2BE
100
AcDbEntity
  8
0
100
AcDbLine
 62
7
  6
CONTINUOUS
 10
-2.6594492098
 20
-10.6587947673
 11
-2.6523512616
 21
-10.6635994494
  0
LINE
  5
2BF
100
AcDbEntity
  8
0
100
AcDbLine
 62
7
  6
CONTINUOUS
 10
-1.7156595269
 20
-11.6282471312
 11
-1.7227861537
 21
-11.6231521959
  0
LINE
  5
2C0
100
AcDbEntity
  8
0
100
AcDbLine
 62
7
  6
CONTINUOUS
 10
-2.6525195846
 20
-10.6634811214
 11
-2.6454001064
 21
-10.6685816056
  0
LINE
  5
2C1
100
AcDbEntity
  8
0
100
AcDbLine
 62
7
  6
CONTINUOUS
 10
0.1229527135
 20
-12.5527765042
 11
0.1199542357
 21
-12.5506153233
  0
LINE
  5
2C2
100
AcDbEntity
  8
0
100
AcDbLine
 62
7
  6
CONTINUOUS
 10
-1.7225558897
 20
-11.6233213675
 11
-1.7297012843
 21
-11.6179272693
  0
LINE
  5
2C3
100
AcDbEntity
  8
0
100
AcDbLine
 62
7
  6
CONTINUOUS
 10
-1.7294121058
 20
-11.6181522454
 11
-1.7365752139
 21
-11.6124556527
  0
LINE
  5
2C4
100
AcDbEntity
  8
0
100
AcDbLine
 62
7
  6
CONTINUOUS
 10
-2.0657168729
 20
-14.1352031664
 11
-2.0626006113
 21
-14.1382143917
  0
LINE
  5
2C5
100
AcDbEntity
  8
0
100
AcDbLine
 62
7
  6
CONTINUOUS
 10
-2.0685154165
 20
-14.1323405399
 11
-2.0654299899
 21
-14.1354883559
  0
LINE
  5
2C6
100
AcDbEntity
  8
0
100
AcDbLine
 62
7
  6
CONTINUOUS
 10
-2.0712642599
 20
-14.129374749
 11
-2.0682295138
 21
-14.132641451
  0
LINE
  5
2C7
100
AcDbEntity
  8
0
100
AcDbLine
 62
7
  6
CONTINUOUS
 10
-2.204943461
 20
-14.5300461708
 11
-2.2153103262
 21
-14.5185833185
  0
LINE
  5
2C8
100
AcDbEntity
  8
0
100
AcDbLine
 62
7
  6
CONTINUOUS
 10
-2.0739643768
 20
-14.1263037488
 11
-2.0709909806
 21
-14.1296766825
  0
LINE
  5
2C9
100
AcDbEntity
  8
0
100
AcDbLine
 62
7
  6
CONTINUOUS
 10
-2.2152317984
 20
-14.5186715722
 11
-2.2254921029
 21
-14.5069512264
  0
LINE
  5
2CA
100
AcDbEntity
  8
0
100
AcDbLine
 62
7
  6
CONTINUOUS
 10
-2.2254095632
 20
-14.5070458081
 11
-2.2355375415
 21
-14.4950963039
  0
LINE
  5
2CB
100
AcDbEntity
  8
0
100
AcDbLine
 62
7
  6
CONTINUOUS
 10
-2.0766147782
 20
-14.1231295751
 11
-2.0737188203
 21
-14.1265886117
  0
LWPOLYLINE
  5
2CC
100
AcDbEntity
  8
0
100
AcDbPolyline
 62
7
  6
CONTINUOUS
 90
3
 70
0
 10
-2.2354660237
 20
-14.4951814738
 10
-2.245422673
 20
-14.4830501917
 10
-2.2551485426
 20
-14.4708092637
  0
LWPOLYLINE
  5
2CD
100
AcDbEntity
  8
0
100
AcDbPolyline
 62
7
  6
CONTINUOUS
 90
7
 70
0
 10
-2.2453649692
 20
-14.4831216555
 10
-2.2551055616
 20
-14.4708636508
 10
-2.264688494
 20
-14.4584100748
 10
-2.2740798647
 20
-14.4458119971
 10
-2.2832683306
 20
-14.4330864156
 10
-2.2922650973
 20
-14.4202162496
 10
-2.3010700918
 20
-14.4072014553
  0
LINE
  5
2CE
100
AcDbEntity
  8
0
100
AcDbLine
 62
7
  6
CONTINUOUS
 10
-2.0791990548
 20
-14.1198711423
 11
-2.0764085864
 21
-14.1233826675
  0
LINE
  5
2CF
100
AcDbEntity
  8
0
100
AcDbLine
 62
7
  6
CONTINUOUS
 10
-2.0817117315
 20
-14.1165347519
 11
-2.079038761
 21
-14.1200781564
  0
LINE
  5
2D0
100
AcDbEntity
  8
0
100
AcDbLine
 62
7
  6
CONTINUOUS
 10
-2.2647139617
 20
-14.4583770597
 11
-2.2740916195
 21
-14.4457959747
  0
LINE
  5
2D1
100
AcDbEntity
  8
0
100
AcDbLine
 62
7
  6
CONTINUOUS
 10
-2.2740916195
 20
-14.4457959747
 11
-2.2832723687
 21
-14.4330801144
  0
LWPOLYLINE
  5
2D2
100
AcDbEntity
  8
0
100
AcDbPolyline
 62
7
  6
CONTINUOUS
 90
39
 70
0
 10
-9.0963730922
 20
-15.5136159761
 10
-9.093816718
 20
-15.5322674615
 10
-9.0902618317
 20
-15.5545197436
 10
-9.0862058633
 20
-15.5764473036
 10
-9.0816566831
 20
-15.5980462362
 10
-9.076622701
 20
-15.6193113723
 10
-9.0711133383
 20
-15.6402336601
 10
-9.0651374685
 20
-15.6608075867
 10
-9.0587038238
 20
-15.6810291313
 10
-9.0518227343
 20
-15.700889427
 10
-9.044503978
 20
-15.7203824823
 10
-9.0367573088
 20
-15.7395037104
 10
-9.0285943437
 20
-15.7582445369
 10
-9.020027815
 20
-15.7765952883
 10
-9.0110671049
 20
-15.7945549592
 10
-9.0017194598
 20
-15.8121261133
 10
-8.9919987713
 20
-15.8292985167
 10
-8.9819142337
 20
-15.8460713702
 10
-8.9714650956
 20
-15.86245905
 10
-8.9606622213
 20
-15.8784554634
 10
-8.9495168692
 20
-15.8940545308
 10
-8.938027142
 20
-15.9092680049
 10
-8.9262029843
 20
-15.9240903728
 10
-8.9140562437
 20
-15.9385142949
 10
-8.901586587
 20
-15.9525465593
 10
-8.8888046763
 20
-15.9661806633
 10
-8.8757219517
 20
-15.979410135
 10
-8.8623382761
 20
-15.992239927
 10
-8.8486648705
 20
-16.0046632272
 10
-8.8347129483
 20
-16.0166739502
 10
-8.8204815161
 20
-16.0282764837
 10
-8.8059822451
 20
-16.0394641151
 10
-8.7912263344
 20
-16.0502310804
 10
-8.7762111413
 20
-16.0605813995
 10
-8.7609481528
 20
-16.0705087187
 10
-8.7454490135
 20
-16.0800072429
 10
-8.7297103972
 20
-16.0890800594
 10
-8.7137386504
 20
-16.0977235889
 10
-8.7023455444
 20
-16.1035554593
  0
LWPOLYLINE
  5
2D3
100
AcDbEntity
  8
0
100
AcDbPolyline
 62
250
  6
CONTINUOUS
 90
27
 70
0
 10
-9.0963730981
 20
-15.5136159769
 10
-9.0961590477
 20
-15.5152412069
 10
-9.0948254699
 20
-15.5235140176
 10
-9.0930917002
 20
-15.5317278786
 10
-9.0909591417
 20
-15.539876142
 10
-9.0884295203
 20
-15.5479522134
 10
-9.0855048834
 20
-15.5559495564
 10
-9.0821875979
 20
-15.5638616987
 10
-9.0784803487
 20
-15.5716822367
 10
-9.074386136
 20
-15.5794048411
 10
-9.0699082734
 20
-15.5870232617
 10
-9.0650503851
 20
-15.5945313327
 10
-9.0598164025
 20
-15.6019229778
 10
-9.0542105618
 20
-15.6091922145
 10
-9.0482373998
 20
-15.6163331598
 10
-9.0419017509
 20
-15.6233400342
 10
-9.0352087425
 20
-15.630207167
 10
-9.0281637916
 20
-15.6369290003
 10
-9.0207725999
 20
-15.643500094
 10
-9.0130411491
 20
-15.6499151299
 10
-9.0049756967
 20
-15.6561689163
 10
-8.9965827701
 20
-15.6622563916
 10
-8.9878691619
 20
-15.6681726293
 10
-8.9788419245
 20
-15.673912841
 10
-8.9695083636
 20
-15.6794723811
 10
-8.9598760333
 20
-15.6848467501
 10
-8.9499527292
 20
-15.6900315983
  0
LWPOLYLINE
  5
2D4
100
AcDbEntity
  8
0
100
AcDbPolyline
 62
250
  6
CONTINUOUS
 90
28
 70
0
 10
-8.9499527293
 20
-15.6900315984
 10
-8.9935527019
 20
-15.340356703
 10
-9.0357296515
 20
-14.9896558638
 10
-9.0764825568
 20
-14.63793731
 10
-9.1158103986
 20
-14.2852093127
 10
-9.1537122571
 20
-13.9314801283
 10
-9.190187311
 20
-13.5767579979
 10
-9.2252346809
 20
-13.2210512386
 10
-9.2588535144
 20
-12.8643681972
 10
-9.2910430829
 20
-12.5067171924
 10
-9.3218026104
 20
-12.1481066134
 10
-9.3511313489
 20
-11.7885448676
 10
-9.3790286636
 20
-11.4280403342
 10
-9.4054938826
 20
-11.0666014659
 10
-9.4305263618
 20
-10.7042367356
 10
-9.4541255599
 20
-10.3409545844
 10
-9.4762909092
 20
-9.9767635232
 10
-9.4970218692
 20
-9.6116720921
 10
-9.5163179913
 20
-9.2456888063
 10
-9.5341788121
 20
-8.878822237
 10
-9.5506038951
 20
-8.511080986
 10
-9.5655928846
 20
-8.1424736448
 10
-9.5791454212
 20
-7.7730088496
 10
-9.5912611734
 20
-7.4026952558
 10
-9.601939879
 20
-7.031541513
 10
-9.6111812897
 20
-6.6595563066
 10
-9.6189851718
 20
-6.2867483577
 10
-9.6253513366
 20
-5.9131263975
  0
LWPOLYLINE
  5
2D5
100
AcDbEntity
  8
0
100
AcDbPolyline
 62
250
  6
CONTINUOUS
 90
28
 70
0
 10
-9.8332336358
 20
2.7543532144
 10
-9.8327846224
 20
2.7473152252
 10
-9.8319301624
 20
2.740262909
 10
-9.8306723654
 20
2.7332241264
 10
-9.8290122504
 20
2.7262046012
 10
-9.8269511606
 20
2.7192100415
 10
-9.8244907618
 20
2.7122460421
 10
-9.821633043
 20
2.7053182581
 10
-9.8183803164
 20
2.6984323252
 10
-9.8147352131
 20
2.6915937637
 10
-9.810700679
 20
2.6848081218
 10
-9.8062799796
 20
2.6780809188
 10
-9.8014767
 20
2.6714175657
 10
-9.7962947328
 20
2.6648234752
 10
-9.7907382672
 20
2.6583039971
 10
-9.784811793
 20
2.6518643618
 10
-9.7785201088
 20
2.6455097948
 10
-9.7718683012
 20
2.6392454511
 10
-9.7648617304
 20
2.6330763521
 10
-9.7575060312
 20
2.6270074732
 10
-9.749807179
 20
2.6210437644
 10
-9.7417714744
 20
2.6151900838
 10
-9.7334055567
 20
2.6094512569
 10
-9.7247160776
 20
2.6038318427
 10
-9.7157097297
 20
2.598336169
 10
-9.7063936517
 20
2.5929686256
 10
-9.6967754623
 20
2.5877336452
 10
-9.6868629156
 20
2.5826354775
  0
LWPOLYLINE
  5
2D6
100
AcDbEntity
  8
0
100
AcDbPolyline
 62
250
  6
CONTINUOUS
 90
29
 70
0
 10
-9.7718048086
 20
-5.7357013133
 10
-9.7717427756
 20
-5.738213929
 10
-9.7712911258
 20
-5.7454861796
 10
-9.7704354764
 20
-5.7527444101
 10
-9.7691765196
 20
-5.7599827491
 10
-9.7675152738
 20
-5.7671953415
 10
-9.7654530827
 20
-5.7743763527
 10
-9.7629916146
 20
-5.781519974
 10
-9.7601328606
 20
-5.7886204266
 10
-9.7568791331
 20
-5.7956719669
 10
-9.7532330643
 20
-5.8026688907
 10
-9.7491976035
 20
-5.809605538
 10
-9.744776015
 20
-5.8164762977
 10
-9.7399718756
 20
-5.8232756117
 10
-9.7347890715
 20
-5.8299979801
 10
-9.7292317951
 20
-5.8366379649
 10
-9.7233045418
 20
-5.8431901949
 10
-9.7170121064
 20
-5.8496493699
 10
-9.710359579
 20
-5.8560102648
 10
-9.7033523408
 20
-5.8622677342
 10
-9.6959960603
 20
-5.8684167164
 10
-9.6882966881
 20
-5.8744522371
 10
-9.6802604523
 20
-5.8803694143
 10
-9.6718938537
 20
-5.8861634613
 10
-9.6632036602
 20
-5.8918296913
 10
-9.6541969015
 20
-5.8973635206
 10
-9.6448808633
 20
-5.9027604728
 10
-9.6352630817
 20
-5.9080161823
 10
-9.6253513366
 20
-5.9131263975
  0
LWPOLYLINE
  5
2D7
100
AcDbEntity
  8
0
100
AcDbPolyline
 62
7
  6
CONTINUOUS
 90
36
 70
0
 10
-9.8333111957
 20
2.7587893123
 10
-9.8331384222
 20
2.748907401
 10
-9.8326592718
 20
2.7397550803
 10
-9.8318741991
 20
2.730624067
 10
-9.830783845
 20
2.7215181182
 10
-9.829386556
 20
2.7124295881
 10
-9.8276821854
 20
2.7033675184
 10
-9.8256711566
 20
2.6943417286
 10
-9.8233500458
 20
2.6853458303
 10
-9.820718392
 20
2.6763886377
 10
-9.817776449
 20
2.6674800837
 10
-9.8145193489
 20
2.6586155336
 10
-9.8109463778
 20
2.6498040615
 10
-9.8070575291
 20
2.6410551217
 10
-9.8028464623
 20
2.6323646392
 10
-9.7983134127
 20
2.6237438218
 10
-9.7934567754
 20
2.6151995351
 10
-9.7882641195
 20
2.606721351
 10
-9.7827347766
 20
2.5983205218
 10
-9.7768656419
 20
2.590003991
 10
-9.7706355351
 20
2.5817556866
 10
-9.7640362835
 20
2.5735809184
 10
-9.7570672854
 20
2.5654941228
 10
-9.7497136097
 20
2.5574933325
 10
-9.741958517
 20
2.5495774537
 10
-9.7338066668
 20
2.54176758
 10
-9.7252741712
 20
2.5340920471
 10
-9.7163552543
 20
2.5265567705
 10
-9.7070469329
 20
2.5191700693
 10
-9.6973717163
 20
2.5119583188
 10
-9.6873269725
 20
2.5049264412
 10
-9.6769086567
 20
2.4980786065
 10
-9.6661393251
 20
2.4914351706
 10
-9.6550250581
 20
2.4850038956
 10
-9.6435553232
 20
2.4787828084
 10
-9.6348859858
 20
2.4743409489
  0
LWPOLYLINE
  5
2D8
100
AcDbEntity
  8
0
100
AcDbPolyline
 62
7
  6
CONTINUOUS
 90
28
 70
0
 10
-9.7718048085
 20
-5.7357013133
 10
-9.7655009366
 20
-6.1060900284
 10
-9.7577067129
 20
-6.4790617809
 10
-9.7484732822
 20
-6.8512218395
 10
-9.7378007686
 20
-7.2225604846
 10
-9.7256893438
 20
-7.593069261
 10
-9.7121391813
 20
-7.9627402002
 10
-9.6971504684
 20
-8.3315652141
 10
-9.6807234846
 20
-8.6995354101
 10
-9.6628585416
 20
-9.0666416173
 10
-9.6435559504
 20
-9.4328751417
 10
-9.6228160806
 20
-9.7982275354
 10
-9.6006393394
 20
-10.1626900053
 10
-9.5770261343
 20
-10.526254074
 10
-9.5519769401
 20
-10.8889112769
 10
-9.5254922706
 20
-11.2506528477
 10
-9.4975726349
 20
-11.6114703471
 10
-9.468218606
 20
-11.9713554024
 10
-9.4374307985
 20
-12.3302993545
 10
-9.4052098157
 20
-12.6882939064
 10
-9.3715563471
 20
-13.0453306099
 10
-9.3364711432
 20
-13.4014005881
 10
-9.2999549484
 20
-13.7564952493
 10
-9.2620084843
 20
-14.1106068553
 10
-9.2226324667
 20
-14.4637278131
 10
-9.1818276791
 20
-14.8158500716
 10
-9.1395951178
 20
-15.166964463
 10
-9.0963734029
 20
-15.5136135748
  0
LWPOLYLINE
  5
2D9
100
AcDbEntity
  8
0
100
AcDbPolyline
 62
250
  6
CONTINUOUS
 90
25
 70
0
 10
-9.68686428
 20
2.582636159
 10
-9.6867700563
 20
2.5762399377
 10
-9.6864801894
 20
2.5699502907
 10
-9.6859950807
 20
2.563775925
 10
-9.6853154017
 20
2.5577253878
 10
-9.6844420932
 20
2.5518070552
 10
-9.6833763642
 20
2.5460291201
 10
-9.6821196901
 20
2.540399581
 10
-9.6806738104
 20
2.534926231
 10
-9.6790407268
 20
2.5296166471
 10
-9.6772227
 20
2.5244781795
 10
-9.6752222468
 20
2.5195179414
 10
-9.6730421363
 20
2.5147427996
 10
-9.6706853867
 20
2.5101593643
 10
-9.6681552603
 20
2.5057739806
 10
-9.6654552598
 20
2.5015927192
 10
-9.6625891229
 20
2.4976213684
 10
-9.6595608171
 20
2.4938654259
 10
-9.6563745347
 20
2.4903300911
 10
-9.6530346866
 20
2.487020258
 10
-9.6495458962
 20
2.4839405086
 10
-9.6459129931
 20
2.4810951063
 10
-9.6421410064
 20
2.47848799
 10
-9.6382351579
 20
2.4761227689
 10
-9.6348859912
 20
2.4743409381
  0
LWPOLYLINE
  5
2DA
100
AcDbEntity
  8
0
100
AcDbPolyline
 62
250
  6
CONTINUOUS
 90
10
 70
0
 10
-9.6253513366
 20
-5.9131263975
 10
-9.6378317639
 20
-5.0392585
 10
-9.6489008148
 20
-4.1646078687
 10
-9.6585584634
 20
-3.2891781337
 10
-9.6668047155
 20
-2.412975706
 10
-9.6736395414
 20
-1.536001449
 10
-9.6790628296
 20
-0.658250655
 10
-9.683074497
 20
0.2202758399
 10
-9.6856745363
 20
1.0995716316
 10
-9.6868629158
 20
1.9796330927
  0
LWPOLYLINE
  5
2DB
100
AcDbEntity
  8
0
100
AcDbPolyline
 62
250
  6
CONTINUOUS
 90
29
 70
0
 10
-9.7718066085
 20
10.7173005603
 10
-9.7717427755
 20
10.7112515064
 10
-9.7712911257
 20
10.7043114446
 10
-9.7704354763
 20
10.6973758824
 10
-9.7691765195
 20
10.69045043
 10
-9.7675152737
 20
10.6835406896
 10
-9.7654530826
 20
10.6766522507
 10
-9.7629916145
 20
10.6697906854
 10
-9.7601328605
 20
10.6629615443
 10
-9.7568791331
 20
10.6561703516
 10
-9.7532330642
 20
10.6494226008
 10
-9.7491976034
 20
10.6427237503
 10
-9.7447760149
 20
10.6360792191
 10
-9.7399718755
 20
10.6294943819
 10
-9.7347890714
 20
10.6229745655
 10
-9.729231795
 20
10.6165250438
 10
-9.7233045418
 20
10.610151034
 10
-9.7170121064
 20
10.6038576922
 10
-9.7103595789
 20
10.5976501093
 10
-9.7033523407
 20
10.5915333066
 10
-9.6959960602
 20
10.5855122322
 10
-9.688296688
 20
10.5795917566
 10
-9.6802604522
 20
10.5737766692
 10
-9.6718938536
 20
10.5680716737
 10
-9.6632036601
 20
10.5624813852
 10
-9.6541969014
 20
10.5570103257
 10
-9.6448808632
 20
10.5516629209
 10
-9.6352630816
 20
10.5464434965
 10
-9.6253513365
 20
10.5413562745
  0
LWPOLYLINE
  5
2DC
100
AcDbEntity
  8
0
100
AcDbPolyline
 62
7
  6
CONTINUOUS
 90
10
 70
0
 10
-9.833311232
 20
2.1570438569
 10
-9.8321315276
 20
1.2808588732
 10
-9.8295346278
 20
0.4006245006
 10
-9.8255231513
 20
-0.4788447612
 10
-9.8200971071
 20
-1.3575448492
 10
-9.8132565133
 20
-2.2354723661
 10
-9.8050013885
 20
-3.112624119
 10
-9.7953317569
 20
-3.9889966369
 10
-9.7842476625
 20
-4.864585789
 10
-9.7718048086
 20
-5.7357013122
  0
LWPOLYLINE
  5
2DD
100
AcDbEntity
  8
0
100
AcDbPolyline
 62
250
  6
CONTINUOUS
 90
10
 70
0
 10
-9.6868629158
 20
2.5826354769
 10
-9.6856745363
 20
3.4639724908
 10
-9.683074497
 20
4.3460572298
 10
-9.6790628296
 20
5.228886035
 10
-9.6736395414
 20
6.1124523942
 10
-9.6668047155
 20
6.9967554888
 10
-9.6585584634
 20
7.881800217
 10
-9.6489008148
 20
8.7675857862
 10
-9.6378317639
 20
9.6541056907
 10
-9.6253513366
 20
10.5413562744
  0
LWPOLYLINE
  5
2DE
100
AcDbEntity
  8
0
100
AcDbPolyline
 62
7
  6
CONTINUOUS
 90
10
 70
0
 10
-9.7718066086
 20
10.7173005603
 10
-9.7842530664
 20
9.8325681259
 10
-9.7953362644
 20
8.9451251125
 10
-9.8050050934
 20
8.0584115505
 10
-9.8132594971
 20
7.1724316244
 10
-9.8200994387
 20
6.2871888379
 10
-9.8255248875
 20
5.4026864108
 10
-9.8295358128
 20
4.5189277669
 10
-9.8321321932
 20
3.6359169854
 10
-9.8333112325
 20
2.7587780582
  0
LWPOLYLINE
  5
2DF
100
AcDbEntity
  8
0
100
AcDbPolyline
 62
250
  6
CONTINUOUS
 90
43
 70
0
 10
-9.68686428
 20
1.9796337748
 10
-9.6867700563
 20
1.98612422
 10
-9.6864801894
 20
1.992703734
 10
-9.6859950807
 20
1.9993632087
 10
-9.6853154016
 20
2.0060934251
 10
-9.684442093
 20
2.0128850665
 10
-9.683376364
 20
2.0197287308
 10
-9.6821196898
 20
2.0266149443
 10
-9.68067381
 20
2.0335341742
 10
-9.6790407263
 20
2.0404768419
 10
-9.6772226994
 20
2.0474333366
 10
-9.675222246
 20
2.0543940281
 10
-9.6730421354
 20
2.0613492806
 10
-9.6706853856
 20
2.0682894657
 10
-9.6681552592
 20
2.075204976
 10
-9.6654552585
 20
2.082086238
 10
-9.6625891214
 20
2.0889237258
 10
-9.6595608156
 20
2.0957079742
 10
-9.6563745331
 20
2.1024295914
 10
-9.6530346848
 20
2.1090792727
 10
-9.6495458943
 20
2.1156478125
 10
-9.645912991
 20
2.1221261179
 10
-9.6421410043
 20
2.1285052208
 10
-9.6382351556
 20
2.1347762905
 10
-9.6342008521
 20
2.1409306456
 10
-9.6300436785
 20
2.1469597666
 10
-9.6257693898
 20
2.1528553072
 10
-9.6213839028
 20
2.1586091059
 10
-9.6168932887
 20
2.1642131977
 10
-9.6123037638
 20
2.1696598247
 10
-9.6076216816
 20
2.1749414469
 10
-9.6028535237
 20
2.1800507528
 10
-9.5980058906
 20
2.1849806695
 10
-9.5930854933
 20
2.1897243723
 10
-9.588099143
 20
2.1942752945
 10
-9.5830537425
 20
2.198627136
 10
-9.5779562764
 20
2.2027738724
 10
-9.5728138012
 20
2.2067097634
 10
-9.5676334358
 20
2.2104293604
 10
-9.5624223515
 20
2.2139275141
 10
-9.5571877622
 20
2.2171993821
 10
-9.5519369141
 20
2.2202404349
 10
-9.5466770764
 20
2.2230464628
  0
LWPOLYLINE
  5
2E0
100
AcDbEntity
  8
0
100
AcDbPolyline
 62
250
  6
CONTINUOUS
 90
28
 70
0
 10
-9.6253513366
 20
10.5413562744
 10
-9.6189851718
 20
10.9218024858
 10
-9.6111812897
 20
11.3029758188
 10
-9.601939879
 20
11.6848673534
 10
-9.5912611734
 20
12.0674681552
 10
-9.5791454212
 20
12.4507692703
 10
-9.5655928846
 20
12.8347617257
 10
-9.5506038951
 20
13.2194365417
 10
-9.5341788121
 20
13.6047847157
 10
-9.5163179913
 20
13.9907972173
 10
-9.4970218692
 20
14.3774650157
 10
-9.4762909092
 20
14.7647790691
 10
-9.4541255599
 20
15.1527303089
 10
-9.4305263618
 20
15.541309662
 10
-9.4054938826
 20
15.9305080425
 10
-9.3790286636
 20
16.3203163418
 10
-9.3511313489
 20
16.7107254501
 10
-9.3218026104
 20
17.1017262356
 10
-9.2910430829
 20
17.4933095365
 10
-9.2588535144
 20
17.8854662046
 10
-9.2252346809
 20
18.2781870676
 10
-9.190187311
 20
18.6714629084
 10
-9.1537122571
 20
19.0652845351
 10
-9.1158103986
 20
19.4596427439
 10
-9.0764825568
 20
19.8545282816
 10
-9.0357296515
 20
20.249931908
 10
-8.9935527019
 20
20.6458443964
 10
-8.9499527293
 20
21.0422564966
  0
LINE
  5
2E1
100
AcDbEntity
  8
0
100
AcDbLine
 62
7
  6
CONTINUOUS
 10
-2.5295304262
 20
8.3967426232
 11
-2.5348716737
 21
8.3926745478
  0
LINE
  5
2E2
100
AcDbEntity
  8
0
100
AcDbLine
 62
7
  6
CONTINUOUS
 10
-2.5344967694
 20
8.3929454112
 11
-2.5400259035
 21
8.3891601315
  0
LINE
  5
2E3
100
AcDbEntity
  8
0
100
AcDbLine
 62
7
  6
CONTINUOUS
 10
-2.5396216565
 20
8.3894217372
 11
-2.5453350913
 21
8.3859249526
  0
LWPOLYLINE
  5
2E4
100
AcDbEntity
  8
0
100
AcDbPolyline
 62
250
  6
CONTINUOUS
 90
58
 70
0
 10
6.5809957198
 20
14.6747094792
 10
6.5637530637
 20
14.665046519
 10
6.5465424885
 20
14.6549006943
 10
6.5293737496
 20
14.6442779482
 10
6.5122564417
 20
14.633184601
 10
6.4952004035
 20
14.6216270406
 10
6.4782157128
 20
14.6096117109
 10
6.4613119409
 20
14.597145585
 10
6.4444987266
 20
14.584235972
 10
6.4277861803
 20
14.5708902078
 10
6.4111838149
 20
14.5571161031
 10
6.3947009985
 20
14.5429216644
 10
6.3783475301
 20
14.5283148944
 10
6.3621326664
 20
14.5133042851
 10
6.3460656097
 20
14.4978985907
 10
6.3301559596
 20
14.4821065547
 10
6.3144127387
 20
14.465937365
 10
6.2988448628
 20
14.4494004294
 10
6.2834616284
 20
14.4325051487
 10
6.2682717581
 20
14.4152613434
 10
6.253283854
 20
14.3976790401
 10
6.2385068658
 20
14.3797682491
 10
6.2239491815
 20
14.3615393851
 10
6.2096190334
 20
14.3430030289
 10
6.1955249508
 20
14.324169713
 10
6.1816749167
 20
14.3050503534
 10
6.1680767814
 20
14.2856560643
 10
6.1547386672
 20
14.2659979206
 10
6.1416681456
 20
14.2460873357
 10
6.1288726048
 20
14.2259358518
 10
6.1163596648
 20
14.2055549539
 10
6.1041364161
 20
14.1849564442
 10
6.0922097805
 20
14.1641522784
 10
6.0805868778
 20
14.143154357
 10
6.0692743082
 20
14.1219748599
 10
6.0582784599
 20
14.1006260469
 10
6.0476058711
 20
14.0791200919
 10
6.0372625903
 20
14.0574694323
 10
6.0272544721
 20
14.0356866221
 10
6.0175874848
 20
14.013784132
 10
6.0082671138
 20
13.9917746372
 10
5.9992986256
 20
13.9696708784
 10
5.9906873642
 20
13.9474855144
 10
5.9824382161
 20
13.9252313755
 10
5.9745558407
 20
13.9029213394
 10
5.9670449342
 20
13.8805681921
 10
5.9599097661
 20
13.858184873
 10
5.9531543566
 20
13.8357843094
 10
5.9467827121
 20
13.8133792914
 10
5.94079844
 20
13.790982716
 10
5.9352049327
 20
13.7686075779
 10
5.930005544
 20
13.7462668034
 10
5.9252032424
 20
13.7239733655
 10
5.9208007122
 20
13.7017400724
 10
5.916800546
 20
13.6795795588
 10
5.9132050475
 20
13.6575045534
 10
5.9100162215
 20
13.6355278696
 10
5.9072358763
 20
13.6136621938
  0
LWPOLYLINE
  5
2E5
100
AcDbEntity
  8
0
100
AcDbPolyline
 62
250
  6
CONTINUOUS
 90
58
 70
0
 10
6.9404984546
 20
14.0687035581
 10
6.9317228933
 20
14.0639421098
 10
6.9229730199
 20
14.0589448919
 10
6.9142488344
 20
14.0537119044
 10
6.905545177
 20
14.0482397735
 10
6.8968672075
 20
14.042531873
 10
6.8882304054
 20
14.0365983242
 10
6.8796349886
 20
14.0304388122
 10
6.8710807392
 20
14.0240536519
 10
6.8625824817
 20
14.0174539098
 10
6.8541403314
 20
14.0106392267
 10
6.8457541731
 20
14.0036099617
 10
6.8374384861
 20
13.9963782589
 10
6.8291933847
 20
13.9889437624
 10
6.8210187545
 20
13.981306828
 10
6.8129287323
 20
13.9734806681
 10
6.8049234653
 20
13.9654649553
 10
6.7970028062
 20
13.9572600169
 10
6.7891804498
 20
13.9488800475
 10
6.7814565665
 20
13.940324744
 10
6.7738309858
 20
13.9315944095
 10
6.7663168907
 20
13.9227041476
 10
6.758914479
 20
13.9136536878
 10
6.751623553
 20
13.9044433005
 10
6.7444567027
 20
13.8950889014
 10
6.7374141378
 20
13.8855902349
 10
6.7304956486
 20
13.8759475565
 10
6.723713196
 20
13.8661775485
 10
6.7170670194
 20
13.8562799964
 10
6.7105568794
 20
13.8462551147
 10
6.7041940181
 20
13.8361202283
 10
6.6979786874
 20
13.825875142
 10
6.6919106355
 20
13.815520051
 10
6.6860003495
 20
13.8050728664
 10
6.6802481068
 20
13.7945334372
 10
6.6746536299
 20
13.7839019143
 10
6.6692265741
 20
13.7731966616
 10
6.6639672256
 20
13.762417546
 10
6.6588752982
 20
13.7515647005
 10
6.6539595874
 20
13.7406568873
 10
6.6492203987
 20
13.7296940129
 10
6.6446574265
 20
13.7186761707
 10
6.6402785501
 20
13.7076224039
 10
6.636084088
 20
13.6965326509
 10
6.6320737216
 20
13.6854069732
 10
6.6282543739
 20
13.6742645983
 10
6.6246263776
 20
13.6631055076
 10
6.6211894
 20
13.6519297197
 10
6.6179493669
 20
13.6407565181
 10
6.6149066135
 20
13.6295858844
 10
6.6120608046
 20
13.6184178371
 10
6.6094168608
 20
13.6072717154
 10
6.6069751181
 20
13.5961474334
 10
6.6047352406
 20
13.5850450769
 10
6.6027011408
 20
13.5739842428
 10
6.6008741229
 20
13.5629714634
 10
6.5992528827
 20
13.5520002063
 10
6.5978374203
 20
13.5410704717
  0
LINE
  5
2E6
100
AcDbEntity
  8
0
100
AcDbLine
 62
7
  6
CONTINUOUS
 10
-2.5449053385
 20
8.3861717344
 11
-2.5507834101
 21
8.382979252
  0
LINE
  5
2E7
100
AcDbEntity
  8
0
100
AcDbLine
 62
7
  6
CONTINUOUS
 10
-1.823559384
 20
8.427205256
 11
-1.8176560492
 21
8.4304094156
  0
LINE
  5
2E8
100
AcDbEntity
  8
0
100
AcDbLine
 62
250
  6
CONTINUOUS
 10
9.0785760139
 20
15.1982026882
 11
6.9404984546
 21
14.0687035581
  0
LINE
  5
2E9
100
AcDbEntity
  8
0
100
AcDbLine
 62
7
  6
CONTINUOUS
 10
-2.5503391094
 20
8.3832059906
 11
-2.5563712691
 21
8.3803237849
  0
LINE
  5
2EA
100
AcDbEntity
  8
0
100
AcDbLine
 62
7
  6
CONTINUOUS
 10
-1.8181023379
 20
8.4301817538
 11
-1.8120452622
 21
8.4330754488
  0
LINE
  5
2EB
100
AcDbEntity
  8
0
100
AcDbLine
 62
7
  6
CONTINUOUS
 10
-2.5559288006
 20
8.3805230357
 11
-2.5610343636
 21
8.3783723577
  0
LINE
  5
2EC
100
AcDbEntity
  8
0
100
AcDbLine
 62
7
  6
CONTINUOUS
 10
-1.8124896725
 20
8.4328753057
 11
-1.806295708
 21
8.4354518168
  0
LINE
  5
2ED
100
AcDbEntity
  8
0
100
AcDbLine
 62
7
  6
CONTINUOUS
 10
-2.5610343636
 20
8.3783723577
 11
-2.5620983314
 21
8.3779577631
  0
LINE
  5
2EE
100
AcDbEntity
  8
0
100
AcDbLine
 62
7
  6
CONTINUOUS
 10
-1.8067272326
 20
8.4352844373
 11
-1.8004244866
 21
8.4375305524
  0
LINE
  5
2EF
100
AcDbEntity
  8
0
100
AcDbLine
 62
7
  6
CONTINUOUS
 10
-2.5616686493
 20
8.3781243084
 11
-2.5679476549
 21
8.3758891105
  0
LINE
  5
2F0
100
AcDbEntity
  8
0
100
AcDbLine
 62
7
  6
CONTINUOUS
 10
-1.8008413157
 20
8.4373941341
 11
-1.7944294886
 21
8.4393111083
  0
LINE
  5
2F1
100
AcDbEntity
  8
0
100
AcDbLine
 62
7
  6
CONTINUOUS
 10
-2.567532563
 20
8.3760247578
 11
-2.5739214166
 21
8.3741183427
  0
LINE
  5
2F2
100
AcDbEntity
  8
0
100
AcDbLine
 62
7
  6
CONTINUOUS
 10
-4.8089977277
 20
-9.6185485776
 11
-4.7983102772
 21
-9.6188942416
  0
LINE
  5
2F3
100
AcDbEntity
  8
0
100
AcDbLine
 62
250
  6
CONTINUOUS
 10
5.1832408551
 20
-13.3174224933
 11
-9.6253513366
 21
-5.9131263975
  0
LINE
  5
2F4
100
AcDbEntity
  8
0
100
AcDbLine
 62
7
  6
CONTINUOUS
 10
0.3132899145
 20
-12.1460294407
 11
0.3249024662
 21
-12.1535441555
  0
LINE
  5
2F5
100
AcDbEntity
  8
0
100
AcDbLine
 62
7
  6
CONTINUOUS
 10
0.3364680504
 20
-12.1614078839
 11
0.3479831348
 21
-12.1696182969
  0
LWPOLYLINE
  5
2F6
100
AcDbEntity
  8
0
100
AcDbPolyline
 62
7
  6
CONTINUOUS
 90
3
 70
0
 10
0.1231681562
 20
-12.5529382006
 10
0.1201343319
 20
-12.5507411266
 10
0.1169327779
 20
-12.5485881852
  0
LINE
  5
2F7
100
AcDbEntity
  8
0
100
AcDbLine
 62
7
  6
CONTINUOUS
 10
-2.6456302161
 20
-10.6684121661
 11
-2.6384936689
 21
-10.6738125731
  0
LINE
  5
2F8
100
AcDbEntity
  8
0
100
AcDbLine
 62
7
  6
CONTINUOUS
 10
0.1261560543
 20
-12.555251237
 11
0.1229527135
 21
-12.5527765042
  0
LINE
  5
2F9
100
AcDbEntity
  8
0
100
AcDbLine
 62
7
  6
CONTINUOUS
 10
-2.6387824924
 20
-10.6735872941
 11
-2.6316299388
 21
-10.6792909298
  0
LWPOLYLINE
  5
2FA
100
AcDbEntity
  8
0
100
AcDbPolyline
 62
7
  6
CONTINUOUS
 90
6
 70
0
 10
0.3708538083
 20
-12.1870720931
 10
0.3821936171
 20
-12.1963049818
 10
0.393467836
 20
-12.2058728299
 10
0.4046488883
 20
-12.2157511378
 10
0.4157346237
 20
-12.2259379306
 10
0.426727299
 20
-12.2364351253
  0
LINE
  5
2FB
100
AcDbEntity
  8
0
100
AcDbLine
 62
7
  6
CONTINUOUS
 10
0.1290963807
 20
-12.5576803957
 11
0.1259123553
 21
-12.5550567235
  0
LINE
  5
2FC
100
AcDbEntity
  8
0
100
AcDbLine
 62
7
  6
CONTINUOUS
 10
-1.7362295613
 20
-11.6127391556
 11
-1.743374247
 21
-11.6067676645
  0
LINE
  5
2FD
100
AcDbEntity
  8
0
100
AcDbLine
 62
7
  6
CONTINUOUS
 10
-2.6319749968
 20
-10.679007097
 11
-2.6248424934
 21
-10.6849862775
  0
LINE
  5
2FE
100
AcDbEntity
  8
0
100
AcDbLine
 62
7
  6
CONTINUOUS
 10
-1.7429890085
 20
-11.6070976123
 11
-1.7500891581
 21
-11.6008702002
  0
LINE
  5
2FF
100
AcDbEntity
  8
0
100
AcDbLine
 62
7
  6
CONTINUOUS
 10
0.1319907892
 20
-12.5602255122
 11
0.1288316585
 21
-12.5574553175
  0
LINE
  5
300
100
AcDbEntity
  8
0
100
AcDbLine
 62
7
  6
CONTINUOUS
 10
-2.6252269213
 20
-10.6846559908
 11
-2.6181405112
 21
-10.6908916859
  0
LINE
  5
301
100
AcDbEntity
  8
0
100
AcDbLine
 62
7
  6
CONTINUOUS
 10
-1.749690475
 20
-11.6012267104
 11
-1.7567291315
 21
-11.5947563415
  0
LINE
  5
302
100
AcDbEntity
  8
0
100
AcDbLine
 62
7
  6
CONTINUOUS
 10
-2.6185382085
 20
-10.690534858
 11
-2.6115147725
 21
-10.697014063
  0
LINE
  5
303
100
AcDbEntity
  8
0
100
AcDbLine
 62
7
  6
CONTINUOUS
 10
0.1348237998
 20
-12.5628657996
 11
0.1317121338
 21
-12.5599729454
  0
LINE
  5
304
100
AcDbEntity
  8
0
100
AcDbLine
 62
7
  6
CONTINUOUS
 10
-1.7563338916
 20
-11.595127332
 11
-1.7632880849
 21
-11.5884356847
  0
LINE
  5
305
100
AcDbEntity
  8
0
100
AcDbLine
 62
7
  6
CONTINUOUS
 10
-2.6119088743
 20
-10.6966427935
 11
-2.6049712558
 21
-10.7033437673
  0
LINE
  5
306
100
AcDbEntity
  8
0
100
AcDbLine
 62
7
  6
CONTINUOUS
 10
0.1375897729
 20
-12.5655953572
 11
0.1345424458
 21
-12.5625965865
  0
LINE
  5
307
100
AcDbEntity
  8
0
100
AcDbLine
 62
7
  6
CONTINUOUS
 10
-1.7628998643
 20
-11.5888176708
 11
-1.7697669226
 21
-11.5819089981
  0
LINE
  5
308
100
AcDbEntity
  8
0
100
AcDbLine
 62
7
  6
CONTINUOUS
 10
-2.6053582181
 20
-10.7029615312
 11
-2.5985089888
 21
-10.7098800091
  0
LINE
  5
309
100
AcDbEntity
  8
0
100
AcDbLine
 62
7
  6
CONTINUOUS
 10
0.1402943589
 20
-12.5684200797
 11
0.1373228811
 21
-12.5653269196
  0
LINE
  5
30A
100
AcDbEntity
  8
0
100
AcDbLine
 62
7
  6
CONTINUOUS
 10
-1.7693887761
 20
-11.5822968622
 11
-1.7761646875
 21
-11.5751754844
  0
LINE
  5
30B
100
AcDbEntity
  8
0
100
AcDbLine
 62
7
  6
CONTINUOUS
 10
-2.5988858078
 20
-10.7094919116
 11
-2.592128891
 21
-10.7166235495
  0
LINE
  5
30C
100
AcDbEntity
  8
0
100
AcDbLine
 62
7
  6
CONTINUOUS
 10
-1.7758001909
 20
-11.5755657416
 11
-1.7824725032
 21
-11.5682423902
  0
LINE
  5
30D
100
AcDbEntity
  8
0
100
AcDbLine
 62
7
  6
CONTINUOUS
 10
-2.5924920225
 20
-10.7162330654
 11
-2.5858397761
 21
-10.7235670718
  0
LINE
  5
30E
100
AcDbEntity
  8
0
100
AcDbLine
 62
7
  6
CONTINUOUS
 10
-1.7821134845
 20
-11.5686450517
 11
-1.7886985997
 21
-11.5610990625
  0
LINE
  5
30F
100
AcDbEntity
  8
0
100
AcDbLine
 62
7
  6
CONTINUOUS
 10
-2.5861973775
 20
-10.7231641612
 11
-2.5796333882
 21
-10.7307212081
  0
LINE
  5
310
100
AcDbEntity
  8
0
100
AcDbLine
 62
7
  6
CONTINUOUS
 10
-1.788329575
 20
-11.5615321247
 11
-1.794834682
 21
-11.5537561185
  0
LINE
  5
311
100
AcDbEntity
  8
0
100
AcDbLine
 62
7
  6
CONTINUOUS
 10
-2.5800009111
 20
-10.7302878318
 11
-2.5735179183
 21
-10.738075291
  0
LINE
  5
312
100
AcDbEntity
  8
0
100
AcDbLine
 62
7
  6
CONTINUOUS
 10
-1.7944474815
 20
-11.5542295938
 11
-1.800847087
 21
-11.5462527104
  0
LINE
  5
313
100
AcDbEntity
  8
0
100
AcDbLine
 62
7
  6
CONTINUOUS
 10
-2.5739035224
 20
-10.7376014101
 11
-2.5675268506
 21
-10.7455900554
  0
LINE
  5
314
100
AcDbEntity
  8
0
100
AcDbLine
 62
7
  6
CONTINUOUS
 10
-1.8004437324
 20
-11.5467661542
 11
-1.8067332551
 21
-11.5385888495
  0
LINE
  5
315
100
AcDbEntity
  8
0
100
AcDbLine
 62
7
  6
CONTINUOUS
 10
-2.5679285188
 20
-10.7450761152
 11
-2.5616626875
 21
-10.7532654511
  0
LINE
  5
316
100
AcDbEntity
  8
0
100
AcDbLine
 62
7
  6
CONTINUOUS
 10
-2.562077926
 20
-10.7527103938
 11
-2.5559228574
 21
-10.7611014906
  0
LINE
  5
317
100
AcDbEntity
  8
0
100
AcDbLine
 62
7
  6
CONTINUOUS
 10
-2.0841582665
 20
-14.1131140923
 11
-2.0816021656
 21
-14.1166815102
  0
LINE
  5
318
100
AcDbEntity
  8
0
100
AcDbLine
 62
7
  6
CONTINUOUS
 10
-2.0865501338
 20
-14.1095924772
 11
-2.08410596
 21
-14.1131862859
  0
LINE
  5
319
100
AcDbEntity
  8
0
100
AcDbLine
 62
7
  6
CONTINUOUS
 10
-2.2922652173
 20
-14.4202152894
 11
-2.3010700917
 21
-14.4072014554
  0
LWPOLYLINE
  5
31A
100
AcDbEntity
  8
0
100
AcDbPolyline
 62
7
  6
CONTINUOUS
 90
8
 70
0
 10
-2.3010700918
 20
-14.4072014553
 10
-2.5951177637
 20
-13.9643035438
 10
-2.8882149848
 20
-13.5206934224
 10
-3.1803611314
 20
-13.0763760382
 10
-3.4715635343
 20
-12.6313489393
 10
-3.7618136431
 20
-12.1856244978
 10
-4.0510871478
 20
-11.7392299806
 10
-4.3393757032
 20
-11.2921778839
  0
LWPOLYLINE
  5
31B
100
AcDbEntity
  8
0
100
AcDbPolyline
 62
7
  6
CONTINUOUS
 90
3
 70
0
 10
-2.6289655721
 20
-13.2854881078
 10
-2.3581665386
 20
-13.6978469792
 10
-2.0865386504
 20
-14.109609158
  0
LINE
  5
31C
100
AcDbEntity
  8
0
100
AcDbLine
 62
7
  6
CONTINUOUS
 10
-2.9213051253
 20
-12.838165107
 11
-2.6289655721
 21
-13.2854881078
  0
LWPOLYLINE
  5
31D
100
AcDbEntity
  8
0
100
AcDbPolyline
 62
7
  6
CONTINUOUS
 90
3
 70
0
 10
-3.4363940927
 20
-12.0448653453
 10
-3.1680797572
 20
-12.4589932828
 10
-2.8989353261
 20
-12.8725365394
  0
LINE
  5
31E
100
AcDbEntity
  8
0
100
AcDbLine
 62
7
  6
CONTINUOUS
 10
-3.7038689484
 20
-11.6301593759
 11
-3.4364014755
 21
-12.0448538583
  0
LINE
  5
31F
100
AcDbEntity
  8
0
100
AcDbLine
 62
7
  6
CONTINUOUS
 10
-4.339369158
 20
-11.2921880711
 11
-4.6266868074
 21
-10.8444658617
  0
LINE
  5
320
100
AcDbEntity
  8
0
100
AcDbLine
 62
7
  6
CONTINUOUS
 10
-4.6266818117
 20
-10.8444736952
 11
-4.9130189177
 21
-10.3961008282
  0
LWPOLYLINE
  5
321
100
AcDbEntity
  8
0
100
AcDbPolyline
 62
7
  6
CONTINUOUS
 90
4
 70
0
 10
-4.5011906322
 20
-10.3827006404
 10
-4.2362650728
 20
-10.7990748746
 10
-3.970492457
 20
-11.2148936766
 10
-3.7038730812
 20
-11.6301529683
  0
LINE
  5
322
100
AcDbEntity
  8
0
100
AcDbLine
 62
7
  6
CONTINUOUS
 10
-4.9130189177
 20
-10.3961008282
 11
-4.9217517186
 21
-10.3821414553
  0
LINE
  5
323
100
AcDbEntity
  8
0
100
AcDbLine
 62
7
  6
CONTINUOUS
 10
-4.5036036202
 20
-10.3787852191
 11
-4.5011906322
 21
-10.3827006404
  0
LWPOLYLINE
  5
324
100
AcDbEntity
  8
0
100
AcDbPolyline
 62
7
  6
CONTINUOUS
 90
42
 70
0
 10
-4.9217517186
 20
-10.3821414553
 10
-4.9302541385
 20
-10.3680463521
 10
-4.9385260939
 20
-10.3538154724
 10
-4.9465738727
 20
-10.3394362109
 10
-4.954391011
 20
-10.3249210752
 10
-4.961958304
 20
-10.3103076914
 10
-4.9692733784
 20
-10.2956001963
 10
-4.9763384434
 20
-10.2807943621
 10
-4.9831411834
 20
-10.2659152772
 10
-4.9896824827
 20
-10.250958643
 10
-4.9959612965
 20
-10.2359286691
 10
-5.001962433
 20
-10.2208632155
 10
-5.0076845285
 20
-10.2057654448
 10
-5.0131288051
 20
-10.1906321163
 10
-5.0182839693
 20
-10.1754914955
 10
-5.0231503199
 20
-10.160338231
 10
-5.0277274281
 20
-10.1451776029
 10
-5.0320029349
 20
-10.1300538378
 10
-5.0359749299
 20
-10.1149729986
 10
-5.0396452262
 20
-10.0999289692
 10
-5.0430070758
 20
-10.0849477222
 10
-5.0460604545
 20
-10.0700236695
 10
-5.0488053042
 20
-10.0551623545
 10
-5.0512348543
 20
-10.040406462
 10
-5.0533477441
 20
-10.0257625996
 10
-5.0551452904
 20
-10.0112241363
 10
-5.0566247664
 20
-9.9968139149
 10
-5.0577858695
 20
-9.9825258031
 10
-5.0586288739
 20
-9.9683659184
 10
-5.0591519474
 20
-9.9543754941
 10
-5.0593541793
 20
-9.9405616816
 10
-5.059236493
 20
-9.9269173376
 10
-5.0587998352
 20
-9.9134622685
 10
-5.0580435088
 20
-9.900190341
 10
-5.0569682384
 20
-9.8871077045
 10
-5.0555771313
 20
-9.8742526049
 10
-5.0538700846
 20
-9.8616319545
 10
-5.0518472687
 20
-9.849238879
 10
-5.049512228
 20
-9.8370909588
 10
-5.0468632657
 20
-9.8251825219
 10
-5.0439021581
 20
-9.8135192848
 10
-5.0406376841
 20
-9.8021359241
  0
LINE
  5
325
100
AcDbEntity
  8
0
100
AcDbLine
 62
7
  6
CONTINUOUS
 10
-4.5059027772
 20
-10.3748439745
 11
-4.503533669
 21
-10.3789046926
  0
LINE
  5
326
100
AcDbEntity
  8
0
100
AcDbLine
 62
7
  6
CONTINUOUS
 10
-4.5080880954
 20
-10.3708769022
 11
-4.5057660348
 21
-10.3750875684
  0
LWPOLYLINE
  5
327
100
AcDbEntity
  8
0
100
AcDbPolyline
 62
7
  6
CONTINUOUS
 90
4
 70
0
 10
-4.9465918562
 20
-10.339403491
 10
-4.9544112793
 20
-10.3248826504
 10
-4.9619801609
 20
-10.310264628
 10
-4.9692959891
 20
-10.2955538866
  0
LINE
  5
328
100
AcDbEntity
  8
0
100
AcDbLine
 62
7
  6
CONTINUOUS
 10
-4.5101631545
 20
-10.3668718452
 11
-4.5078963201
 21
-10.3712351375
  0
LINE
  5
329
100
AcDbEntity
  8
0
100
AcDbLine
 62
7
  6
CONTINUOUS
 10
-4.5121243577
 20
-10.3628409512
 11
-4.5099276544
 21
-10.3673392856
  0
LINE
  5
32A
100
AcDbEntity
  8
0
100
AcDbLine
 62
7
  6
CONTINUOUS
 10
-4.5139609357
 20
-10.3588206738
 11
-4.5118568913
 21
-10.3634081176
  0
LWPOLYLINE
  5
32B
100
AcDbEntity
  8
0
100
AcDbPolyline
 62
7
  6
CONTINUOUS
 90
3
 70
0
 10
-4.9831636977
 20
-10.2658649326
 10
-4.989704714
 20
-10.2509067012
 10
-4.9959830326
 20
-10.2358754546
  0
LINE
  5
32C
100
AcDbEntity
  8
0
100
AcDbLine
 62
7
  6
CONTINUOUS
 10
-5.0513696554
 20
10.190614008
 11
-5.0489394593
 21
10.2039326582
  0
LINE
  5
32D
100
AcDbEntity
  8
0
100
AcDbLine
 62
7
  6
CONTINUOUS
 10
-5.0397780123
 20
10.2425087283
 11
-5.0361075267
 21
10.2548665309
  0
LINE
  5
32E
100
AcDbEntity
  8
0
100
AcDbLine
 62
7
  6
CONTINUOUS
 10
-2.4994920142
 20
8.4306807841
 11
-2.5033891091
 21
8.4248745601
  0
LINE
  5
32F
100
AcDbEntity
  8
0
100
AcDbLine
 62
7
  6
CONTINUOUS
 10
-2.5032453722
 20
8.4250788465
 11
-2.5073555613
 21
8.4194980076
  0
LINE
  5
330
100
AcDbEntity
  8
0
100
AcDbLine
 62
7
  6
CONTINUOUS
 10
-2.5071821672
 20
8.4197228306
 11
-2.5115088436
 21
8.4143710411
  0
LINE
  5
331
100
AcDbEntity
  8
0
100
AcDbLine
 62
7
  6
CONTINUOUS
 10
-1.8614684215
 20
8.3935667699
 11
-1.8571183701
 21
8.398929786
  0
LINE
  5
332
100
AcDbEntity
  8
0
100
AcDbLine
 62
7
  6
CONTINUOUS
 10
-2.511304196
 20
8.4146127663
 11
-2.5158471804
 21
8.4094933931
  0
LINE
  5
333
100
AcDbEntity
  8
0
100
AcDbLine
 62
7
  6
CONTINUOUS
 10
-1.8573241445
 20
8.3986874978
 11
-1.8527571204
 21
8.4038183378
  0
LINE
  5
334
100
AcDbEntity
  8
0
100
AcDbLine
 62
7
  6
CONTINUOUS
 10
-2.5156097277
 20
8.409748594
 11
-2.520354232
 21
8.4048831287
  0
LINE
  5
335
100
AcDbEntity
  8
0
100
AcDbLine
 62
7
  6
CONTINUOUS
 10
-1.852995835
 20
8.4035625236
 11
-1.8482268109
 21
8.4084396092
  0
LINE
  5
336
100
AcDbEntity
  8
0
100
AcDbLine
 62
7
  6
CONTINUOUS
 10
-2.5200832673
 20
8.405148017
 11
-2.5250292257
 21
8.400542278
  0
LINE
  5
337
100
AcDbEntity
  8
0
100
AcDbLine
 62
7
  6
CONTINUOUS
 10
-1.8484991731
 20
8.4081740538
 11
-1.8435282984
 21
8.4127915274
  0
LINE
  5
338
100
AcDbEntity
  8
0
100
AcDbLine
 62
7
  6
CONTINUOUS
 10
-2.5247228067
 20
8.4008135387
 11
-2.5298730076
 21
8.3964687774
  0
LINE
  5
339
100
AcDbEntity
  8
0
100
AcDbLine
 62
7
  6
CONTINUOUS
 10
-1.8438362559
 20
8.4125195379
 11
-1.8386607998
 21
8.4168761319
  0
LINE
  5
33A
100
AcDbEntity
  8
0
100
AcDbLine
 62
7
  6
CONTINUOUS
 10
-1.8390050584
 20
8.4166014937
 11
-1.8336383847
 21
8.4206814368
  0
LINE
  5
33B
100
AcDbEntity
  8
0
100
AcDbLine
 62
7
  6
CONTINUOUS
 10
-1.834015085
 20
8.4204097272
 11
-1.8284604477
 21
8.4242068626
  0
LINE
  5
33C
100
AcDbEntity
  8
0
100
AcDbLine
 62
7
  6
CONTINUOUS
 10
-1.8288665869
 20
8.4239443688
 11
-1.8263536657
 21
8.4255350047
  0
LINE
  5
33D
100
AcDbEntity
  8
0
100
AcDbLine
 62
7
  6
CONTINUOUS
 10
-1.8263536657
 20
8.4255350047
 11
-1.8231276683
 21
8.4274529554
  0
LWPOLYLINE
  5
33E
100
AcDbEntity
  8
0
100
AcDbPolyline
 62
7
  6
CONTINUOUS
 90
34
 70
0
 10
-9.648734154
 20
2.4364633018
 10
-9.6575547132
 20
2.4315131921
 10
-9.6690973451
 20
2.4246454059
 10
-9.6802274942
 20
2.4175688136
 10
-9.6909540349
 20
2.4102858896
 10
-9.7012759477
 20
2.4028054598
 10
-9.7111812971
 20
2.3951453414
 10
-9.7206746855
 20
2.3873123889
 10
-9.7297599118
 20
2.3793139032
 10
-9.7384243287
 20
2.3711727566
 10
-9.7466689679
 20
2.3629020516
 10
-9.754502593
 20
2.354507531
 10
-9.7619242589
 20
2.3460051943
 10
-9.768931844
 20
2.3374146219
 10
-9.7755379508
 20
2.3287384952
 10
-9.7817606794
 20
2.3199690165
 10
-9.7876021791
 20
2.3111179918
 10
-9.7930666443
 20
2.3021950989
 10
-9.7981699711
 20
2.2931889058
 10
-9.8029139758
 20
2.2841089041
 10
-9.8072998196
 20
2.2749665488
 10
-9.8113379096
 20
2.2657529306
 10
-9.8150291276
 20
2.2564773946
 10
-9.8183738384
 20
2.2471515828
 10
-9.8213782103
 20
2.2377698723
 10
-9.8240420841
 20
2.2283433562
 10
-9.8263662297
 20
2.2188821843
 10
-9.8283551299
 20
2.2093791975
 10
-9.8300083603
 20
2.1998453163
 10
-9.8313260876
 20
2.190290932
 10
-9.8323106005
 20
2.1807079707
 10
-9.8329615308
 20
2.1711008721
 10
-9.8332779364
 20
2.1614866579
 10
-9.8333111954
 20
2.1570300052
  0
LINE
  5
33F
100
AcDbEntity
  8
0
100
AcDbLine
 62
7
  6
CONTINUOUS
 10
-9.6487325469
 20
2.4364641972
 11
-9.6059542022
 21
2.4598750436
  0
LWPOLYLINE
  5
340
100
AcDbEntity
  8
0
100
AcDbPolyline
 62
250
  6
CONTINUOUS
 90
20
 70
0
 10
-9.6487325469
 20
2.4364641972
 10
-9.6448663138
 20
2.4384441745
 10
-9.6405550331
 20
2.4403500948
 10
-9.6361209522
 20
2.4420053006
 10
-9.6315702702
 20
2.4434074779
 10
-9.6269093493
 20
2.4445546665
 10
-9.6221447055
 20
2.4454452624
 10
-9.617283
 20
2.4460780207
 10
-9.6123310299
 20
2.4464520566
 10
-9.6072957181
 20
2.4465668473
 10
-9.6021841043
 20
2.4464222323
 10
-9.5970033347
 20
2.4460184137
 10
-9.5917606524
 20
2.4453559561
 10
-9.5864633868
 20
2.4444357856
 10
-9.5811189438
 20
2.4432591888
 10
-9.5757347952
 20
2.4418278105
 10
-9.5703184682
 20
2.4401436518
 10
-9.5648775352
 20
2.4382090674
 10
-9.5594196028
 20
2.4360267618
 10
-9.5539523015
 20
2.433599786
  0
LWPOLYLINE
  5
341
100
AcDbEntity
  8
0
100
AcDbPolyline
 62
7
  6
CONTINUOUS
 90
3
 70
0
 10
0.448373934
 20
-12.2583100091
 10
0.4590280229
 20
-12.2696876278
 10
0.4695373979
 20
-12.281322301
  0
LINE
  5
342
100
AcDbEntity
  8
0
100
AcDbLine
 62
7
  6
CONTINUOUS
 10
0.1429390126
 20
-12.5713368732
 11
0.1400531642
 21
-12.5681632596
  0
LINE
  5
343
100
AcDbEntity
  8
0
100
AcDbLine
 62
7
  6
CONTINUOUS
 10
0.145527957
 20
-12.5743495052
 11
0.1427211164
 21
-12.5710905398
  0
LWPOLYLINE
  5
344
100
AcDbEntity
  8
0
100
AcDbPolyline
 62
7
  6
CONTINUOUS
 90
9
 70
0
 10
0.4798976791
 20
-12.2932092694
 10
0.4901133902
 20
-12.3053532139
 10
0.5001670652
 20
-12.3177336823
 10
0.5100620734
 20
-12.3303565081
 10
0.519795206
 20
-12.3432157703
 10
0.5293391254
 20
-12.3562733865
 10
0.5386894585
 20
-12.3695235778
 10
0.5478507432
 20
-12.3829720331
 10
0.5568090023
 20
-12.3965978757
  0
LINE
  5
345
100
AcDbEntity
  8
0
100
AcDbLine
 62
7
  6
CONTINUOUS
 10
0.1480569828
 20
-12.5774542006
 11
0.1453258745
 21
-12.5741081435
  0
LINE
  5
346
100
AcDbEntity
  8
0
100
AcDbLine
 62
7
  6
CONTINUOUS
 10
0.1505148966
 20
-12.5806365517
 11
0.1478683153
 21
-12.5772166799
  0
LINE
  5
347
100
AcDbEntity
  8
0
100
AcDbLine
 62
7
  6
CONTINUOUS
 10
-1.8063162335
 20
-11.5391433201
 11
-1.8124956768
 21
-11.5307644863
  0
LINE
  5
348
100
AcDbEntity
  8
0
100
AcDbLine
 62
7
  6
CONTINUOUS
 10
0.1529036967
 20
-12.5839009659
 11
0.1503388697
 21
-12.5804029213
  0
LINE
  5
349
100
AcDbEntity
  8
0
100
AcDbLine
 62
7
  6
CONTINUOUS
 10
-1.8120670106
 20
-11.5313595396
 11
-1.8181082689
 21
-11.5228186846
  0
LINE
  5
34A
100
AcDbEntity
  8
0
100
AcDbLine
 62
7
  6
CONTINUOUS
 10
-2.5563496501
 20
-10.7605057619
 11
-2.5503332392
 21
-10.7690590059
  0
LINE
  5
34B
100
AcDbEntity
  8
0
100
AcDbLine
 62
7
  6
CONTINUOUS
 10
0.1552214002
 20
-12.5872430272
 11
0.1527389207
 21
-12.5836696294
  0
LINE
  5
34C
100
AcDbEntity
  8
0
100
AcDbLine
 62
7
  6
CONTINUOUS
 10
-1.817678775
 20
-11.5234389096
 11
-1.8235651893
 21
-11.5147583867
  0
LINE
  5
34D
100
AcDbEntity
  8
0
100
AcDbLine
 62
7
  6
CONTINUOUS
 10
-2.5507608217
 20
-10.7684380435
 11
-2.544899593
 21
-10.7771310024
  0
LINE
  5
34E
100
AcDbEntity
  8
0
100
AcDbLine
 62
7
  6
CONTINUOUS
 10
0.1574508406
 20
-12.590635093
 11
0.1550671009
 21
-12.5870140341
  0
LINE
  5
34F
100
AcDbEntity
  8
0
100
AcDbLine
 62
7
  6
CONTINUOUS
 10
-1.8231510261
 20
-11.5153811019
 11
-1.8288722115
 21
-11.5065766125
  0
LINE
  5
350
100
AcDbEntity
  8
0
100
AcDbLine
 62
7
  6
CONTINUOUS
 10
-2.5453118769
 20
-10.7765075209
 11
-2.53961609
 21
-10.7853244373
  0
LINE
  5
351
100
AcDbEntity
  8
0
100
AcDbLine
 62
7
  6
CONTINUOUS
 10
-1.8284841919
 20
-11.5071864048
 11
-1.8340206813
 21
-11.498291544
  0
LINE
  5
352
100
AcDbEntity
  8
0
100
AcDbLine
 62
7
  6
CONTINUOUS
 10
-2.540002307
 20
-10.7847138723
 11
-2.53449123
 21
-10.793621073
  0
LINE
  5
353
100
AcDbEntity
  8
0
100
AcDbLine
 62
7
  6
CONTINUOUS
 10
-1.8336623797
 20
-11.4988798425
 11
-1.8390109489
 21
-11.489902854
  0
LINE
  5
354
100
AcDbEntity
  8
0
100
AcDbLine
 62
7
  6
CONTINUOUS
 10
-2.5348478297
 20
-10.7930320171
 11
-2.529524593
 21
-10.8020211968
  0
LINE
  5
355
100
AcDbEntity
  8
0
100
AcDbLine
 62
7
  6
CONTINUOUS
 10
-1.8386849841
 20
-11.4904614124
 11
-1.8438425928
 21
-11.4814108306
  0
LINE
  5
356
100
AcDbEntity
  8
0
100
AcDbLine
 62
7
  6
CONTINUOUS
 10
-2.5298489768
 20
-10.8014619182
 11
-2.5247165278
 21
-10.8105244825
  0
LINE
  5
357
100
AcDbEntity
  8
0
100
AcDbLine
 62
7
  6
CONTINUOUS
 10
-1.8435525365
 20
-11.4819310763
 11
-1.8485058058
 21
-11.4728345809
  0
LINE
  5
358
100
AcDbEntity
  8
0
100
AcDbLine
 62
7
  6
CONTINUOUS
 10
-2.5250051424
 20
-10.8100035724
 11
-2.5200766926
 21
-10.8191117752
  0
LINE
  5
359
100
AcDbEntity
  8
0
100
AcDbLine
 62
7
  6
CONTINUOUS
 10
-1.8482508552
 20
-11.4733138084
 11
-1.8530024586
 21
-11.4641699564
  0
LINE
  5
35A
100
AcDbEntity
  8
0
100
AcDbLine
 62
7
  6
CONTINUOUS
 10
-2.5203303423
 20
-10.8186319532
 11
-2.5156031609
 21
-10.8277871786
  0
LINE
  5
35B
100
AcDbEntity
  8
0
100
AcDbLine
 62
7
  6
CONTINUOUS
 10
-1.8527806354
 20
-11.4646070018
 11
-1.8573306085
 21
-11.4554210661
  0
LINE
  5
35C
100
AcDbEntity
  8
0
100
AcDbLine
 62
7
  6
CONTINUOUS
 10
-2.5158238181
 20
-10.8273496259
 11
-2.5112977871
 21
-10.8365465495
  0
LWPOLYLINE
  5
35D
100
AcDbEntity
  8
0
100
AcDbPolyline
 62
7
  6
CONTINUOUS
 90
3
 70
0
 10
-2.5114862547
 20
-10.836153985
 10
-2.5071759073
 20
-10.845358366
 10
-2.5032391667
 20
-10.8542211114
  0
LINE
  5
35E
100
AcDbEntity
  8
0
100
AcDbLine
 62
7
  6
CONTINUOUS
 10
-2.5073338411
 20
-10.8450122522
 11
-2.5033683107
 21
-10.8539229507
  0
LWPOLYLINE
  5
35F
100
AcDbEntity
  8
0
100
AcDbPolyline
 62
7
  6
CONTINUOUS
 90
5
 70
0
 10
-5.0019836941
 20
-10.2208085093
 10
-5.0077054531
 20
-10.2057087477
 10
-5.0131494132
 20
-10.1905732091
 10
-5.0183041591
 20
-10.1754304565
 10
-5.0231699815
 20
-10.1602750747
  0
LWPOLYLINE
  5
360
100
AcDbEntity
  8
0
100
AcDbPolyline
 62
7
  6
CONTINUOUS
 90
3
 70
0
 10
-5.0277464596
 20
-10.1451124073
 10
-5.032021136
 20
-10.1299871692
 10
-5.0359920316
 20
-10.1149056181
  0
LWPOLYLINE
  5
361
100
AcDbEntity
  8
0
100
AcDbPolyline
 62
7
  6
CONTINUOUS
 90
3
 70
0
 10
-5.0430214881
 20
-10.0848805216
 10
-5.0460733964
 20
-10.0699572245
 10
-5.0488166853
 20
-10.0550971358
  0
LINE
  5
362
100
AcDbEntity
  8
0
100
AcDbLine
 62
7
  6
CONTINUOUS
 10
-4.5263970338
 20
-10.3125547085
 11
-4.5259670272
 21
-10.3167083034
  0
LWPOLYLINE
  5
363
100
AcDbEntity
  8
0
100
AcDbPolyline
 62
7
  6
CONTINUOUS
 90
3
 70
0
 10
-5.0566298551
 20
-9.996758581
 10
-5.0577895478
 20
-9.9824736344
 10
-5.0586312315
 20
-9.9683171365
  0
LINE
  5
364
100
AcDbEntity
  8
0
100
AcDbLine
 62
7
  6
CONTINUOUS
 10
-4.5266412905
 20
-10.309003925
 11
-4.5263548281
 21
-10.3130398958
  0
LWPOLYLINE
  5
365
100
AcDbEntity
  8
0
100
AcDbPolyline
 62
250
  6
CONTINUOUS
 90
46
 70
0
 10
-5.4666005861
 20
0.009809732
 10
-5.4667294134
 20
0.0158760796
 10
-5.4670288572
 20
0.0220219273
 10
-5.4674985527
 20
0.0282397879
 10
-5.4681379277
 20
0.0345220866
 10
-5.4689462033
 20
0.0408611702
 10
-5.4699223948
 20
0.0472493162
 10
-5.4710653131
 20
0.0536787424
 10
-5.4723735657
 20
0.0601416164
 10
-5.473845559
 20
0.0666300648
 10
-5.4754794997
 20
0.0731361832
 10
-5.4772733972
 20
0.0796520458
 10
-5.4792250663
 20
0.0861697146
 10
-5.4813321294
 20
0.0926812498
 10
-5.4835920195
 20
0.0991787187
 10
-5.4860019836
 20
0.105654206
 10
-5.4885590858
 20
0.112099823
 10
-5.491260211
 20
0.1185077176
 10
-5.4941020686
 20
0.1248700834
 10
-5.4970811965
 20
0.1311791696
 10
-5.5001939656
 20
0.1374272903
 10
-5.5034365837
 20
0.143606834
 10
-5.5068051006
 20
0.1497102724
 10
-5.5102954127
 20
0.1557301703
 10
-5.513903268
 20
0.161659194
 10
-5.5176242712
 20
0.1674901206
 10
-5.5214538895
 20
0.1732158467
 10
-5.5253874573
 20
0.1788293971
 10
-5.5294201828
 20
0.1843239332
 10
-5.5335471531
 20
0.1896927614
 10
-5.5377633407
 20
0.1949293412
 10
-5.5420636093
 20
0.2000272933
 10
-5.5464427201
 20
0.2049804072
 10
-5.5508953385
 20
0.209782649
 10
-5.5554160401
 20
0.2144281683
 10
-5.5599993177
 20
0.2189113059
 10
-5.5646395878
 20
0.2232266003
 10
-5.5693311975
 20
0.2273687945
 10
-5.5740684313
 20
0.2313328423
 10
-5.5788455182
 20
0.2351139147
 10
-5.5836566387
 20
0.2387074054
 10
-5.5884959317
 20
0.2421089367
 10
-5.5933575018
 20
0.2453143648
 10
-5.5982354265
 20
0.2483197848
 10
-5.6031237634
 20
0.2511215353
 10
-5.6080165575
 20
0.2537162033
  0
LWPOLYLINE
  5
366
100
AcDbEntity
  8
0
100
AcDbPolyline
 62
250
  6
CONTINUOUS
 90
27
 70
0
 10
-5.748203761
 20
0.6133058993
 10
-5.7481219006
 20
0.6073325993
 10
-5.74786958
 20
0.6014516342
 10
-5.747447103
 20
0.5956700968
 10
-5.7468549788
 20
0.5899949591
 10
-5.7460939214
 20
0.5844330667
 10
-5.7451648488
 20
0.5789911304
 10
-5.7440688818
 20
0.5736757141
 10
-5.7428073419
 20
0.5684932278
 10
-5.7413817509
 20
0.5634499223
 10
-5.7397938281
 20
0.5585518801
 10
-5.7380454886
 20
0.5538050082
 10
-5.7361388413
 20
0.5492150318
 10
-5.7340761856
 20
0.5447874863
 10
-5.7318600094
 20
0.5405277116
 10
-5.7294929856
 20
0.5364408454
 10
-5.7269779691
 20
0.5325318164
 10
-5.7243179933
 20
0.528805339
 10
-5.7215162663
 20
0.5252659072
 10
-5.7185761671
 20
0.5219177895
 10
-5.7155012417
 20
0.5187650237
 10
-5.7122951997
 20
0.5158114129
 10
-5.7089619083
 20
0.5130605192
 10
-5.7055053873
 20
0.5105156596
 10
-5.7019298047
 20
0.5081799022
 10
-5.698239471
 20
0.506056063
 10
-5.6962306506
 20
0.5050132681
  0
LWPOLYLINE
  5
367
100
AcDbEntity
  8
0
100
AcDbPolyline
 62
250
  6
CONTINUOUS
 90
25
 70
0
 10
-5.2517324663
 20
1.3628842306
 10
-5.2516500825
 20
1.3564723577
 10
-5.2513714635
 20
1.3501668412
 10
-5.2508969961
 20
1.3439764357
 10
-5.2502273391
 20
1.3379097359
 10
-5.2493634223
 20
1.3319751649
 10
-5.248306445
 20
1.3261809623
 10
-5.2470578749
 20
1.3205351729
 10
-5.2456194454
 20
1.3150456353
 10
-5.2439931537
 20
1.3097199711
 10
-5.2421812577
 20
1.3045655747
 10
-5.2401862731
 20
1.2995896023
 10
-5.2380109697
 20
1.2947989628
 10
-5.2356583678
 20
1.2902003073
 10
-5.2331317337
 20
1.2858000208
 10
-5.2304345754
 20
1.2816042127
 10
-5.2275706376
 20
1.2776187083
 10
-5.2245438968
 20
1.2738490413
 10
-5.2213585551
 20
1.2703004455
 10
-5.2180190352
 20
1.2669778477
 10
-5.2145299737
 20
1.2638858611
 10
-5.2108962149
 20
1.2610287786
 10
-5.2071228038
 20
1.258410567
 10
-5.2032149795
 20
1.2560348615
 10
-5.1997566603
 20
1.2541911257
  0
LINE
  5
368
100
AcDbEntity
  8
0
100
AcDbLine
 62
250
  6
CONTINUOUS
 10
-5.7478356022
 20
-0.3794021589
 11
-5.748146935
 21
-0.0763100566
  0
LINE
  5
369
100
AcDbEntity
  8
0
100
AcDbLine
 62
250
  6
CONTINUOUS
 10
-5.4662325753
 20
-0.3797384536
 11
-5.4665437827
 21
-0.076769195
  0
LINE
  5
36A
100
AcDbEntity
  8
0
100
AcDbLine
 62
250
  6
CONTINUOUS
 10
-5.748146935
 20
-0.0763100566
 11
-5.748203761
 21
0.0103035154
  0
LINE
  5
36B
100
AcDbEntity
  8
0
100
AcDbLine
 62
250
  6
CONTINUOUS
 10
-5.4665437827
 20
-0.076769195
 11
-5.4666005861
 21
0.009809732
  0
LINE
  5
36C
100
AcDbEntity
  8
0
100
AcDbLine
 62
250
  6
CONTINUOUS
 10
-5.748203761
 20
0.6133058993
 11
-5.7478907871
 21
0.9600255404
  0
LINE
  5
36D
100
AcDbEntity
  8
0
100
AcDbLine
 62
250
  6
CONTINUOUS
 10
-5.4666005861
 20
0.6125709149
 11
-5.4662877375
 21
0.9591508841
  0
LINE
  5
36E
100
AcDbEntity
  8
0
100
AcDbLine
 62
250
  6
CONTINUOUS
 10
-5.7478907871
 20
0.9600255404
 11
-5.7478356022
 21
1.0033733647
  0
LINE
  5
36F
100
AcDbEntity
  8
0
100
AcDbLine
 62
250
  6
CONTINUOUS
 10
-5.4662877375
 20
0.9591508841
 11
-5.4662325755
 21
1.0024805836
  0
LWPOLYLINE
  5
370
100
AcDbEntity
  8
0
100
AcDbPolyline
 62
7
  6
CONTINUOUS
 90
3
 70
0
 10
-5.059354322
 20
-9.9405204216
 10
-5.0592357418
 20
-9.9268802127
 10
-5.0587983583
 20
-9.9134292127
  0
LWPOLYLINE
  5
371
100
AcDbEntity
  8
0
100
AcDbPolyline
 62
250
  6
CONTINUOUS
 90
36
 70
0
 10
-5.4662325724
 20
1.0024805851
 10
-5.4661245894
 20
1.0136546404
 10
-5.4657761574
 20
1.0247227894
 10
-5.4651862775
 20
1.0356767985
 10
-5.4643539353
 20
1.0465111335
 10
-5.4632785168
 20
1.057214816
 10
-5.4619604103
 20
1.0677718227
 10
-5.4603997922
 20
1.0781744259
 10
-5.4585970601
 20
1.0884148678
 10
-5.4565542695
 20
1.0984779469
 10
-5.4542727092
 20
1.1083563104
 10
-5.451753764
 20
1.1180432211
 10
-5.4490008997
 20
1.1275254005
 10
-5.446016987
 20
1.1367945499
 10
-5.4428038244
 20
1.145846624
 10
-5.4393639982
 20
1.1546753949
 10
-5.4357007934
 20
1.1632737038
 10
-5.4318164999
 20
1.1716373891
 10
-5.4277121532
 20
1.1797646737
 10
-5.4233901767
 20
1.1876506483
 10
-5.418853892
 20
1.1952891546
 10
-5.4141054847
 20
1.2026763238
 10
-5.4091474258
 20
1.2098078296
 10
-5.4039836075
 20
1.2166776282
 10
-5.3986185591
 20
1.2232795442
 10
-5.3930560728
 20
1.2296088946
 10
-5.3872998495
 20
1.2356614667
 10
-5.3813546706
 20
1.2414323379
 10
-5.3752251395
 20
1.2469172394
 10
-5.3689150736
 20
1.2521129562
 10
-5.3624282768
 20
1.257016464
 10
-5.3557691723
 20
1.261624424
 10
-5.3489423335
 20
1.2659336801
 10
-5.3419518611
 20
1.269941611
 10
-5.3348019247
 20
1.2736456743
 10
-5.3333823607
 20
1.2743357715
  0
LWPOLYLINE
  5
372
100
AcDbEntity
  8
0
100
AcDbPolyline
 62
250
  6
CONTINUOUS
 90
61
 70
0
 10
-5.7478356022
 20
1.0033733647
 10
-5.7476503989
 20
1.0190522708
 10
-5.7471275115
 20
1.034561282
 10
-5.7462669404
 20
1.0499003981
 10
-5.745068688
 20
1.0650852435
 10
-5.7435327511
 20
1.0801001942
 10
-5.7416591249
 20
1.0948983752
 10
-5.7394460834
 20
1.1094781653
 10
-5.7368953612
 20
1.1238411813
 10
-5.7340121525
 20
1.1379454015
 10
-5.7307948871
 20
1.1517892065
 10
-5.7272451515
 20
1.1653742076
 10
-5.7233728829
 20
1.1786632247
 10
-5.7191778544
 20
1.1916523277
 10
-5.7146603161
 20
1.2043454351
 10
-5.7098309267
 20
1.216717137
 10
-5.7046901466
 20
1.228765017
 10
-5.699237543
 20
1.2404914777
 10
-5.6934824386
 20
1.2518783355
 10
-5.6874241031
 20
1.2629263014
 10
-5.6810632969
 20
1.2736346494
 10
-5.674411583
 20
1.2839830384
 10
-5.6674674934
 20
1.293972039
 10
-5.6602325288
 20
1.3036010642
 10
-5.6527227091
 20
1.3128480344
 10
-5.6449374796
 20
1.3217117055
 10
-5.6368774304
 20
1.3301933039
 10
-5.6285603028
 20
1.3382744538
 10
-5.619986222
 20
1.345953695
 10
-5.6111550999
 20
1.3532324692
 10
-5.6020843602
 20
1.3600967527
 10
-5.59277361
 20
1.3665458569
 10
-5.5832232796
 20
1.3725804517
 10
-5.57345203
 20
1.3781885502
 10
-5.563458646
 20
1.3833696487
 10
-5.5532443797
 20
1.3881242325
 10
-5.542831594
 20
1.3924417966
 10
-5.5322195895
 20
1.3963212212
 10
-5.5214091013
 20
1.3997636085
 10
-5.5104246459
 20
1.4027617861
 10
-5.4992673727
 20
1.4053144793
 10
-5.4879361657
 20
1.4074229462
 10
-5.4764521436
 20
1.4090838137
 10
-5.4648161506
 20
1.4102966323
 10
-5.4530273727
 20
1.4110618365
 10
-5.4411044406
 20
1.4113773789
 10
-5.4290451167
 20
1.4112427012
 10
-5.4168516649
 20
1.4106583488
 10
-5.4045494682
 20
1.4096239298
 10
-5.3921354675
 20
1.4081375545
 10
-5.3796127437
 20
1.4062011019
 10
-5.3670158895
 20
1.403819834
 10
-5.3543443397
 20
1.4009914838
 10
-5.3415986764
 20
1.3977183098
 10
-5.3288152123
 20
1.3940123624
 10
-5.3159935011
 20
1.3898712924
 10
-5.3031340006
 20
1.3852974432
 10
-5.2902743777
 20
1.3803099047
 10
-5.2774271901
 20
1.3749150391
 10
-5.2645798858
 20
1.3691064813
 10
-5.2517324663
 20
1.3628842306
  0
LWPOLYLINE
  5
373
100
AcDbEntity
  8
0
100
AcDbPolyline
 62
250
  6
CONTINUOUS
 90
43
 70
0
 10
-5.2517324663
 20
-1.2327415307
 10
-5.2516500825
 20
-1.2262472729
 10
-5.2513714634
 20
-1.2196631363
 10
-5.2508969958
 20
-1.2129982623
 10
-5.2502273386
 20
-1.2062619045
 10
-5.2493634215
 20
-1.1994634157
 10
-5.248306444
 20
-1.192612235
 10
-5.2470578735
 20
-1.1857178747
 10
-5.2456194437
 20
-1.1787899068
 10
-5.2439931516
 20
-1.1718379503
 10
-5.2421812553
 20
-1.1648716572
 10
-5.2401862703
 20
-1.1579006998
 10
-5.2380109665
 20
-1.1509347564
 10
-5.2356583642
 20
-1.1439834987
 10
-5.2331317297
 20
-1.1370565778
 10
-5.230434571
 20
-1.1301636111
 10
-5.2275706329
 20
-1.1233141689
 10
-5.2245438917
 20
-1.116517761
 10
-5.2213585498
 20
-1.1097838235
 10
-5.2180190297
 20
-1.103121706
 10
-5.214529968
 20
-1.0965406581
 10
-5.2108962089
 20
-1.090049817
 10
-5.2071227977
 20
-1.0836581946
 10
-5.2032149733
 20
-1.0773746652
 10
-5.1991781614
 20
-1.0712079527
 10
-5.1950179668
 20
-1.0651666192
 10
-5.1907401654
 20
-1.0592590524
 10
-5.1863506966
 20
-1.0534934544
 10
-5.1818556549
 20
-1.0478778303
 10
-5.1772612811
 20
-1.0424199768
 10
-5.172573954
 20
-1.0371274716
 10
-5.1678001817
 20
-1.0320076629
 10
-5.1629465921
 20
-1.0270676591
 10
-5.1580199239
 20
-1.0223143188
 10
-5.1530270173
 20
-1.0177542417
 10
-5.1479748045
 20
-1.013393759
 10
-5.1428703001
 20
-1.0092389248
 10
-5.1377205911
 20
-1.0052955077
 10
-5.1325328276
 20
-1.0015689828
 10
-5.1273142121
 20
-0.9980645239
 10
-5.1220719903
 20
-0.9947869969
 10
-5.1168134405
 20
-0.991740952
 10
-5.1115458637
 20
-0.9889306186
  0
LWPOLYLINE
  5
374
100
AcDbEntity
  8
0
100
AcDbPolyline
 62
250
  6
CONTINUOUS
 90
46
 70
0
 10
-5.748203761
 20
0.0103035154
 10
-5.7481219006
 20
0.0163586758
 10
-5.74786958
 20
0.0224919616
 10
-5.747447103
 20
0.028695976
 10
-5.7468549788
 20
0.034963238
 10
-5.7460939214
 20
0.041286188
 10
-5.7451648488
 20
0.0476571968
 10
-5.7440688817
 20
0.05406858
 10
-5.7428073419
 20
0.0605126059
 10
-5.7413817509
 20
0.0669815022
 10
-5.7397938282
 20
0.0734674669
 10
-5.7380454889
 20
0.0799626779
 10
-5.7361388417
 20
0.0864593015
 10
-5.7340761861
 20
0.0929495024
 10
-5.7318600099
 20
0.0994254532
 10
-5.7294929862
 20
0.1058793431
 10
-5.7269779698
 20
0.1123033883
 10
-5.7243179941
 20
0.1186898415
 10
-5.7215162672
 20
0.1250310001
 10
-5.718576168
 20
0.1313192171
 10
-5.7155012428
 20
0.1375469082
 10
-5.7122952008
 20
0.1437065611
 10
-5.7089619094
 20
0.1497907462
 10
-5.7055053884
 20
0.1557921269
 10
-5.7019298058
 20
0.161703467
 10
-5.6982394721
 20
0.1675176399
 10
-5.6944388398
 20
0.1732276311
 10
-5.6905324973
 20
0.1788265475
 10
-5.6865251611
 20
0.1843076307
 10
-5.6824216598
 20
0.1896642779
 10
-5.6782269321
 20
0.1948900423
 10
-5.6739460262
 20
0.1999786334
 10
-5.6695841148
 20
0.2049239009
 10
-5.6651464795
 20
0.2097198576
 10
-5.6606384873
 20
0.2143607071
 10
-5.6560655618
 20
0.2188408693
 10
-5.6514331972
 20
0.2231549626
 10
-5.6467469476
 20
0.2272978117
 10
-5.6420124961
 20
0.2312643894
 10
-5.6372356293
 20
0.2350498525
 10
-5.6324218693
 20
0.2386498187
 10
-5.6275772602
 20
0.2420597615
 10
-5.6227084537
 20
0.2452750614
 10
-5.6178216018
 20
0.2482917872
 10
-5.612922334
 20
0.2511065947
 10
-5.6080165575
 20
0.2537162033
  0
LINE
  5
375
100
AcDbEntity
  8
0
100
AcDbLine
 62
7
  6
CONTINUOUS
 10
-4.5264934389
 20
9.9391112814
 11
-4.5267775475
 21
9.9351436758
  0
LWPOLYLINE
  5
376
100
AcDbEntity
  8
0
100
AcDbPolyline
 62
7
  6
CONTINUOUS
 90
3
 70
0
 10
-5.0567617776
 20
10.1494398132
 10
-5.0552815113
 20
10.1633596124
 10
-5.0534832271
 20
10.1770915675
  0
LWPOLYLINE
  5
377
100
AcDbEntity
  8
0
100
AcDbPolyline
 62
7
  6
CONTINUOUS
 90
3
 70
0
 10
-2.4787360218
 20
8.4761208685
 10
-2.4810975739
 20
8.4689807243
 10
-2.4836715161
 20
8.4620302807
  0
LINE
  5
378
100
AcDbEntity
  8
0
100
AcDbLine
 62
7
  6
CONTINUOUS
 10
-2.4864250364
 20
8.4553516079
 11
-2.4894390179
 21
8.4487620187
  0
LINE
  5
379
100
AcDbEntity
  8
0
100
AcDbLine
 62
7
  6
CONTINUOUS
 10
-1.8823433478
 20
8.3578803388
 11
-1.8793117436
 21
8.3644787363
  0
LINE
  5
37A
100
AcDbEntity
  8
RACCORDO
100
AcDbLine
 62
7
  6
CONTINUOUS
 10
3.5821139597
 20
18.3464965669
 11
3.4018627103
 21
17.9827691054
  0
LINE
  5
37B
100
AcDbEntity
  8
0
100
AcDbLine
 62
7
  6
CONTINUOUS
 10
-2.4893950144
 20
8.4488520738
 11
-2.4926326287
 21
8.4424441772
  0
LINE
  5
37C
100
AcDbEntity
  8
0
100
AcDbLine
 62
7
  6
CONTINUOUS
 10
-1.8793560424
 20
8.3643884656
 11
-1.8760996298
 21
8.3708057322
  0
LINE
  5
37D
100
AcDbEntity
  8
0
100
AcDbLine
 62
7
  6
CONTINUOUS
 10
-2.4925668649
 20
8.4425673844
 11
-2.4960220891
 21
8.4363568852
  0
LINE
  5
37E
100
AcDbEntity
  8
0
100
AcDbLine
 62
7
  6
CONTINUOUS
 10
-1.8761658265
 20
8.3706822353
 11
-1.8726907326
 21
8.3769025717
  0
LINE
  5
37F
100
AcDbEntity
  8
0
100
AcDbLine
 62
7
  6
CONTINUOUS
 10
-2.4959323061
 20
8.4365108016
 11
-2.4996076441
 21
8.4305004615
  0
LINE
  5
380
100
AcDbEntity
  8
0
100
AcDbLine
 62
7
  6
CONTINUOUS
 10
-1.8727810899
 20
8.3767482981
 11
-1.8690848662
 21
8.3827689049
  0
LINE
  5
381
100
AcDbEntity
  8
0
100
AcDbLine
 62
7
  6
CONTINUOUS
 10
-1.8692012075
 20
8.3825881686
 11
-1.8652822767
 21
8.3884050544
  0
LINE
  5
382
100
AcDbEntity
  8
0
100
AcDbLine
 62
7
  6
CONTINUOUS
 10
-1.8654268637
 20
8.3882003054
 11
-1.8612940377
 21
8.3937921051
  0
LINE
  5
383
100
AcDbEntity
  8
0
100
AcDbLine
 62
7
  6
CONTINUOUS
 10
0.1652360865
 20
7.534837661
 11
0.1670297322
 21
7.5368810951
  0
LINE
  5
384
100
AcDbEntity
  8
0
100
AcDbLine
 62
7
  6
CONTINUOUS
 10
0.1633507165
 20
7.5329360463
 11
0.1653152451
 21
7.5349202817
  0
LWPOLYLINE
  5
385
100
AcDbEntity
  8
0
100
AcDbPolyline
 62
7
  6
CONTINUOUS
 90
4
 70
0
 10
0.1571881643
 20
7.5281169466
 10
0.1593064391
 20
7.5295609329
 10
0.1613744479
 20
7.5311775834
 10
0.1634586934
 20
7.5330386398
  0
LWPOLYLINE
  5
386
100
AcDbEntity
  8
0
100
AcDbPolyline
 62
7
  6
CONTINUOUS
 90
4
 70
0
 10
0.1566938838
 20
7.5278062391
 10
0.1573231335
 20
7.5282016318
 10
0.15945857
 20
7.5296725602
 10
0.1615058259
 20
7.5312883851
  0
LINE
  5
387
100
AcDbEntity
  8
0
100
AcDbLine
 62
250
  6
CONTINUOUS
 10
0.1436460603
 20
7.5500857323
 11
0.1076049377
 21
7.5289785104
  0
LINE
  5
388
100
AcDbEntity
  8
0
100
AcDbLine
 62
7
  6
CONTINUOUS
 10
0.529186677
 20
6.8937385468
 11
0.5190917929
 21
6.8894928205
  0
LINE
  5
389
100
AcDbEntity
  8
0
100
AcDbLine
 62
7
  6
CONTINUOUS
 10
0.5190932102
 20
6.8894933638
 11
0.5098859004
 21
6.8860823614
  0
LWPOLYLINE
  5
38A
100
AcDbEntity
  8
0
100
AcDbPolyline
 62
7
  6
CONTINUOUS
 90
12
 70
0
 10
0.5190917929
 20
6.8894928205
 10
0.509910376
 20
6.8860902801
 10
0.5000158932
 20
6.8828890667
 10
0.4899629103
 20
6.8801099358
 10
0.4797480124
 20
6.8777500268
 10
0.4693885933
 20
6.8758129099
 10
0.4588801175
 20
6.8742981623
 10
0.4482269767
 20
6.8732061415
 10
0.4374599542
 20
6.8725415871
 10
0.4265822997
 20
6.8723066574
 10
0.4155906344
 20
6.8724991353
 10
0.4045057996
 20
6.8731171984
  0
LINE
  5
38B
100
AcDbEntity
  8
0
100
AcDbLine
 62
7
  6
CONTINUOUS
 10
0.1595883552
 20
-12.5940731555
 11
0.1573097149
 21
-12.5904146108
  0
LWPOLYLINE
  5
38C
100
AcDbEntity
  8
0
100
AcDbPolyline
 62
7
  6
CONTINUOUS
 90
4
 70
0
 10
0.5655678489
 20
-12.4104078721
 10
0.5741238447
 20
-12.4243951599
 10
0.5824524256
 20
-12.4385184248
 10
0.5905491
 20
-12.4527709273
  0
LINE
  5
38D
100
AcDbEntity
  8
0
100
AcDbLine
 62
7
  6
CONTINUOUS
 10
0.1616376214
 20
-12.5975612144
 11
0.1594644129
 21
-12.5938685876
  0
LINE
  5
38E
100
AcDbEntity
  8
0
100
AcDbLine
 62
7
  6
CONTINUOUS
 10
0.1635924802
 20
-12.6010836396
 11
0.1615335601
 21
-12.5973787281
  0
LWPOLYLINE
  5
38F
100
AcDbEntity
  8
0
100
AcDbPolyline
 62
7
  6
CONTINUOUS
 90
4
 70
0
 10
0.5984185277
 20
-12.4671593144
 10
0.6060498598
 20
-12.4816623578
 10
0.6134465401
 20
-12.4962872747
 10
0.6206052962
 20
-12.5110267535
  0
LINE
  5
390
100
AcDbEntity
  8
0
100
AcDbLine
 62
7
  6
CONTINUOUS
 10
0.1654510363
 20
-12.6046357401
 11
0.1635105324
 21
-12.6009318115
  0
LINE
  5
391
100
AcDbEntity
  8
0
100
AcDbLine
 62
7
  6
CONTINUOUS
 10
-1.8571411083
 20
-11.4558132229
 11
-1.8614747349
 21
-11.4466194064
  0
LINE
  5
392
100
AcDbEntity
  8
0
100
AcDbLine
 62
7
  6
CONTINUOUS
 10
-1.861315903
 20
-11.4469652103
 11
-1.8654331217
 21
-11.4377664556
  0
LINE
  5
393
100
AcDbEntity
  8
0
100
AcDbLine
 62
7
  6
CONTINUOUS
 10
-1.8653032153
 20
-11.4380644019
 11
-1.869207419
 21
-11.4288606993
  0
LINE
  5
394
100
AcDbEntity
  8
0
100
AcDbLine
 62
7
  6
CONTINUOUS
 10
-2.5033683107
 20
-10.8539229507
 11
-2.4994858542
 21
-10.8631362663
  0
LINE
  5
395
100
AcDbEntity
  8
0
100
AcDbLine
 62
7
  6
CONTINUOUS
 10
-1.8691047821
 20
-11.4291093228
 11
-1.8727871653
 21
-11.4199291511
  0
LINE
  5
396
100
AcDbEntity
  8
0
100
AcDbLine
 62
7
  6
CONTINUOUS
 10
-2.4995878628
 20
-10.8628875205
 11
-2.4959262805
 21
-10.8720768101
  0
LINE
  5
397
100
AcDbEntity
  8
0
100
AcDbLine
 62
7
  6
CONTINUOUS
 10
-1.8727095546
 20
-11.4201283478
 11
-1.8761716075
 21
-11.4109740448
  0
LINE
  5
398
100
AcDbEntity
  8
0
100
AcDbLine
 62
7
  6
CONTINUOUS
 10
-2.4960033949
 20
-10.8718775632
 11
-2.4925611309
 21
-10.8810404765
  0
LINE
  5
399
100
AcDbEntity
  8
0
100
AcDbLine
 62
7
  6
CONTINUOUS
 10
-1.8761172599
 20
-11.4111214625
 11
-1.8793614396
 21
-11.4019931143
  0
LINE
  5
39A
100
AcDbEntity
  8
0
100
AcDbLine
 62
7
  6
CONTINUOUS
 10
-2.4926151187
 20
-10.8808930597
 11
-2.489389661
 21
-10.8900294994
  0
LWPOLYLINE
  5
39B
100
AcDbEntity
  8
0
100
AcDbPolyline
 62
7
  6
CONTINUOUS
 90
7
 70
0
 10
-1.8793281107
 20
-11.4020886483
 10
-1.8823317974
 20
-11.3930582805
 10
-1.8851270108
 20
-11.3840310874
 10
-1.8877150089
 20
-11.3750063126
 10
-1.8900893442
 20
-11.3660101101
 10
-1.8922502956
 20
-11.3570414606
 10
-1.894197543
 20
-11.348101361
  0
LWPOLYLINE
  5
39C
100
AcDbEntity
  8
0
100
AcDbPolyline
 62
7
  6
CONTINUOUS
 90
7
 70
0
 10
-2.4894227622
 20
-10.8899339961
 10
-2.4864365085
 20
-10.8989719873
 10
-2.4836576114
 20
-10.9080062806
 10
-2.4810847658
 20
-10.9170376005
 10
-2.4787243277
 20
-10.9260397843
 10
-2.4765759763
 20
-10.9350138329
 10
-2.4746399913
 20
-10.9439587227
  0
LWPOLYLINE
  5
39D
100
AcDbEntity
  8
0
100
AcDbPolyline
 62
7
  6
CONTINUOUS
 90
3
 70
0
 10
-1.8823483784
 20
-11.3930066281
 10
-1.8851319854
 20
-11.384014519
 10
-1.8877126451
 20
-11.3750168246
  0
LINE
  5
39E
100
AcDbEntity
  8
0
100
AcDbLine
 62
7
  6
CONTINUOUS
 10
-2.4836526663
 20
-10.908022862
 11
-2.4810870875
 21
-10.917027172
  0
LWPOLYLINE
  5
39F
100
AcDbEntity
  8
0
100
AcDbPolyline
 62
7
  6
CONTINUOUS
 90
11
 70
0
 10
-4.5259670272
 20
-10.3167083034
 10
-4.5254548156
 20
-10.3204431768
 10
-4.5248195643
 20
-10.3242212254
 10
-4.5240609157
 20
-10.3280403124
 10
-4.5231792318
 20
-10.3319025772
 10
-4.522176967
 20
-10.3357911464
 10
-4.5210535251
 20
-10.3397068932
 10
-4.51980951
 20
-10.3436489486
 10
-4.5184491797
 20
-10.3475978284
 10
-4.5169723697
 20
-10.3515529843
 10
-4.5153792558
 20
-10.3555149708
  0
LWPOLYLINE
  5
3A0
100
AcDbEntity
  8
0
100
AcDbPolyline
 62
7
  6
CONTINUOUS
 90
12
 70
0
 10
-4.5260289048
 20
-10.3161848076
 10
-4.5255382023
 20
-10.319888061
 10
-4.5249254397
 20
-10.3236369321
 10
-4.5241898525
 20
-10.3274286571
 10
-4.523332209
 20
-10.3312660018
 10
-4.5223553271
 20
-10.3351297275
 10
-4.5212614436
 20
-10.3390136843
 10
-4.5200483297
 20
-10.3429240263
 10
-4.5187121062
 20
-10.3468599724
 10
-4.5172519959
 20
-10.3508262637
 10
-4.5156687837
 20
-10.3548181633
 10
-4.5136746101
 20
-10.3594659586
  0
LINE
  5
3A1
100
AcDbEntity
  8
0
100
AcDbLine
 62
7
  6
CONTINUOUS
 10
-4.5265757463
 20
9.9206843691
 11
-4.5262078752
 21
9.9167211513
  0
LINE
  5
3A2
100
AcDbEntity
  8
0
100
AcDbLine
 62
7
  6
CONTINUOUS
 10
-4.5268054489
 20
9.9244592678
 11
-4.5265604228
 21
9.9204705863
  0
LINE
  5
3A3
100
AcDbEntity
  8
0
100
AcDbLine
 62
7
  6
CONTINUOUS
 10
-4.526762977
 20
-10.3055262977
 11
-4.5266172631
 21
-10.3094414551
  0
LINE
  5
3A4
100
AcDbEntity
  8
DRAFT
100
AcDbLine
 62
7
  6
CONTINUOUS
 10
-4.3374819896
 20
22.3062945415
 11
-4.3202786087
 21
21.76859044
  0
LINE
  5
3A5
100
AcDbEntity
  8
0
100
AcDbLine
 62
7
  6
CONTINUOUS
 10
-5.0589423916
 20
10.0624011525
 11
-5.0593780842
 21
10.0772564954
  0
LINE
  5
3A6
100
AcDbEntity
  8
0
100
AcDbLine
 62
7
  6
CONTINUOUS
 10
-4.5269123428
 20
9.9281914763
 11
-4.5267941991
 21
9.9241882619
  0
LINE
  5
3A7
100
AcDbEntity
  8
0
100
AcDbLine
 62
7
  6
CONTINUOUS
 10
-4.5267654856
 20
-10.3021308846
 11
-4.5267552887
 21
-10.3059094809
  0
LINE
  5
3A8
100
AcDbEntity
  8
RACCORDO
100
AcDbLine
 62
250
  6
CONTINUOUS
 10
-4.5177332389
 20
21.94256708
 11
-4.5177332389
 21
21.8874821622
  0
LINE
  5
3A9
100
AcDbEntity
  8
0
100
AcDbLine
 62
7
  6
CONTINUOUS
 10
-4.5023112859
 20
0.4938292986
 11
-4.5023112859
 21
0.104094784
  0
LINE
  5
3AA
100
AcDbEntity
  8
DRAFT
100
AcDbLine
 62
7
  6
CONTINUOUS
 10
-4.1587103584
 20
0.7336679747
 11
-4.1587103584
 21
-0.2625889263
  0
LINE
  5
3AB
100
AcDbEntity
  8
0
100
AcDbLine
 62
7
  6
CONTINUOUS
 10
-4.5268959926
 20
9.9318790048
 11
-4.5269080582
 21
9.927871613
  0
LINE
  5
3AC
100
AcDbEntity
  8
0
100
AcDbLine
 62
7
  6
CONTINUOUS
 10
-4.5266496802
 20
-10.2988202655
 11
-4.5267704058
 21
-10.3024567633
  0
LINE
  5
3AD
100
AcDbEntity
  8
0
100
AcDbLine
 62
7
  6
CONTINUOUS
 10
-4.5267568298
 20
9.9355238447
 11
-4.5269027643
 21
9.9315248054
  0
LINE
  5
3AE
100
AcDbEntity
  8
0
100
AcDbLine
 62
7
  6
CONTINUOUS
 10
-4.5264147024
 20
-10.2955918638
 11
-4.5266621767
 21
-10.2990821618
  0
LWPOLYLINE
  5
3AF
100
AcDbEntity
  8
0
100
AcDbPolyline
 62
7
  6
CONTINUOUS
 90
6
 70
0
 10
-5.0580414791
 20
-9.9001611821
 10
-5.0569658239
 20
-9.8870823763
 10
-5.0555745129
 20
-9.8742310758
 10
-5.053867458
 20
-9.8616142659
 10
-5.0518448149
 20
-9.8492249992
 10
-5.0495100961
 20
-9.8370806709
  0
LINE
  5
3B0
100
AcDbEntity
  8
0
100
AcDbLine
 62
7
  6
CONTINUOUS
 10
-2.4682725852
 20
8.5309915914
 11
-2.4691043698
 21
8.5226906961
  0
LINE
  5
3B1
100
AcDbEntity
  8
0
100
AcDbLine
 62
7
  6
CONTINUOUS
 10
-4.5260613622
 20
-10.2924470038
 11
-4.5264310433
 21
-10.2957868192
  0
LINE
  5
3B2
100
AcDbEntity
  8
0
100
AcDbLine
 62
7
  6
CONTINUOUS
 10
-1.8959155088
 20
8.3145335349
 11
-1.8941881251
 21
8.3222250623
  0
LINE
  5
3B3
100
AcDbEntity
  8
0
100
AcDbLine
 62
7
  6
CONTINUOUS
 10
-1.8877021149
 20
8.3442355553
 11
-1.8851130117
 21
8.3511936362
  0
LWPOLYLINE
  5
3B4
100
AcDbEntity
  8
0
100
AcDbPolyline
 62
7
  6
CONTINUOUS
 90
8
 70
0
 10
0.1703139005
 20
7.5413593259
 10
0.1718044375
 20
7.543794129
 10
0.1731893204
 20
7.5463526793
 10
0.1744695566
 20
7.5490382932
 10
0.1756441526
 20
7.5518476605
 10
0.1767050528
 20
7.5547637047
 10
0.1776507574
 20
7.5577839957
 10
0.1784827762
 20
7.5609109682
  0
LINE
  5
3B5
100
AcDbEntity
  8
0
100
AcDbLine
 62
7
  6
CONTINUOUS
 10
0.6339766522
 20
6.981763306
 11
0.6273369502
 21
6.972771199
  0
LWPOLYLINE
  5
3B6
100
AcDbEntity
  8
0
100
AcDbPolyline
 62
7
  6
CONTINUOUS
 90
4
 70
0
 10
0.620434357
 20
6.964122388
 10
0.6132728509
 20
6.9558201931
 10
0.60587337
 20
6.9478885923
 10
0.5982391299
 20
6.9403317739
  0
LWPOLYLINE
  5
3B7
100
AcDbEntity
  8
0
100
AcDbPolyline
 62
7
  6
CONTINUOUS
 90
5
 70
0
 10
0.1653152451
 20
7.5349202817
 10
0.1670774224
 20
7.5369363597
 10
0.1687448197
 20
7.5390855434
 10
0.1703200847
 20
7.5413701191
 10
0.1718005851
 20
7.5437878075
  0
LINE
  5
3B8
100
AcDbEntity
  8
0
100
AcDbLine
 62
7
  6
CONTINUOUS
 10
-5.3333823607
 20
1.2743357715
 11
-5.3333511049
 21
1.2743508014
  0
LINE
  5
3B9
100
AcDbEntity
  8
0
100
AcDbLine
 62
250
  6
CONTINUOUS
 10
-5.0737302695
 20
1.1911779303
 11
-5.4662325755
 21
1.0024805836
  0
LWPOLYLINE
  5
3BA
100
AcDbEntity
  8
0
100
AcDbPolyline
 62
7
  6
CONTINUOUS
 90
28
 70
0
 10
-5.3333828747
 20
1.2743354705
 10
-5.3318491302
 20
1.2750489754
 10
-5.3288381389
 20
1.2763108893
 10
-5.3257213094
 20
1.2774372941
 10
-5.3225010738
 20
1.2784265865
 10
-5.3191518098
 20
1.279285242
 10
-5.3156177212
 20
1.2800212888
 10
-5.3118832214
 20
1.2806280524
 10
-5.3079526494
 20
1.2810950335
 10
-5.3038016935
 20
1.2814150341
 10
-5.2994250206
 20
1.2815772555
 10
-5.2948310347
 20
1.2815706271
 10
-5.2900179126
 20
1.2813851724
 10
-5.2849887669
 20
1.2810112405
 10
-5.2797541428
 20
1.280440369
 10
-5.2743237916
 20
1.279665364
 10
-5.2687064535
 20
1.2786799513
 10
-5.2629127651
 20
1.2774789561
 10
-5.256954125
 20
1.2760584012
 10
-5.2508413309
 20
1.2744152496
 10
-5.2445848331
 20
1.2725471099
 10
-5.2381931962
 20
1.2704516643
 10
-5.2316771568
 20
1.2681280426
 10
-5.2250461998
 20
1.2655756005
 10
-5.2183042705
 20
1.2627918595
 10
-5.2114586557
 20
1.259775922
 10
-5.2045215673
 20
1.2565296562
 10
-5.1997566668
 20
1.2541911127
  0
LINE
  5
3BB
100
AcDbEntity
  8
0
100
AcDbLine
 62
250
  6
CONTINUOUS
 10
0.685153678
 20
-4.2011846028
 11
-5.2517324663
 21
-1.2327415307
  0
LWPOLYLINE
  5
3BC
100
AcDbEntity
  8
0
100
AcDbPolyline
 62
250
  6
CONTINUOUS
 90
61
 70
0
 10
-5.2517324663
 20
-1.2327415307
 10
-5.264582238
 20
-1.2261161001
 10
-5.2774319022
 20
-1.2190789508
 10
-5.2902814573
 20
-1.2116300821
 10
-5.303143608
 20
-1.2037631827
 10
-5.316005644
 20
-1.195484561
 10
-5.3288294394
 20
-1.1868131448
 10
-5.341614384
 20
-1.1777471248
 10
-5.3543610766
 20
-1.1682883043
 10
-5.367033204
 20
-1.15846103
 10
-5.3796300951
 20
-1.1482637035
 10
-5.392152404
 20
-1.1376979146
 10
-5.4045658036
 20
-1.1267927907
 10
-5.4168671932
 20
-1.115549573
 10
-5.4290596517
 20
-1.1039670094
 10
-5.4411181213
 20
-1.092070487
 10
-5.453040441
 20
-1.0798616184
 10
-5.4648287456
 20
-1.0673387777
 10
-5.4764644199
 20
-1.0545224938
 10
-5.487948343
 20
-1.0414114086
 10
-5.4992796058
 20
-1.028006865
 10
-5.510436911
 20
-1.0143334432
 10
-5.5214213341
 20
-1.0003887748
 10
-5.5322317663
 20
-0.9861752113
 10
-5.5428436341
 20
-0.9717244129
 10
-5.5532561575
 20
-0.9570360443
 10
-5.5634700809
 20
-0.9421104228
 10
-5.5734631189
 20
-0.9269801885
 10
-5.5832340321
 20
-0.9116460651
 10
-5.5927840232
 20
-0.8961073103
 10
-5.6020944718
 20
-0.8803943663
 10
-5.6111649768
 20
-0.8645069084
 10
-5.619995902
 20
-0.8484452424
 10
-5.6285697768
 20
-0.8322407569
 10
-5.6368866896
 20
-0.8158918759
 10
-5.6449465149
 20
-0.7994001567
 10
-5.6527314641
 20
-0.7828016889
 10
-5.6602409134
 20
-0.7660958764
 10
-5.6674754511
 20
-0.7492832975
 10
-5.6744191105
 20
-0.7324018056
 10
-5.6810703822
 20
-0.7154535047
 10
-5.6874307428
 20
-0.6984362743
 10
-5.6934887074
 20
-0.6813816331
 10
-5.6992435578
 20
-0.6642909339
 10
-5.7046959821
 20
-0.6471628088
 10
-5.7098366086
 20
-0.6300246966
 10
-5.7146658921
 20
-0.6128736066
 10
-5.7191833501
 20
-0.5957125157
 10
-5.7233782098
 20
-0.5785778166
 10
-5.7272501814
 20
-0.5614658737
 10
-5.7307995314
 20
-0.5443803109
 10
-5.7340163279
 20
-0.5273684127
 10
-5.736898951
 20
-0.5104302661
 10
-5.7394490044
 20
-0.493565776
 10
-5.7416613983
 20
-0.4768219575
 10
-5.7435343977
 20
-0.4601991093
 10
-5.745069729
 20
-0.4436969285
 10
-5.7462675034
 20
-0.4273615311
 10
-5.7471277594
 20
-0.4112082899
 10
-5.7476504591
 20
-0.3952218326
 10
-5.7478356022
 20
-0.3794021589
  0
LWPOLYLINE
  5
3BD
100
AcDbEntity
  8
0
100
AcDbPolyline
 62
7
  6
CONTINUOUS
 90
4
 70
0
 10
0.1704722966
 20
-12.6155225196
 10
0.1688818447
 20
-12.611835461
 10
0.1671893417
 20
-12.6081703691
 10
0.1653960167
 20
-12.6045296231
  0
LWPOLYLINE
  5
3BE
100
AcDbEntity
  8
0
100
AcDbPolyline
 62
7
  6
CONTINUOUS
 90
48
 70
0
 10
0.6524776865
 20
-12.5857112477
 10
0.6580566799
 20
-12.600815584
 10
0.6633517303
 20
-12.615924789
 10
0.6683596087
 20
-12.6310311281
 10
0.6730836675
 20
-12.6461422676
 10
0.6775170655
 20
-12.6612363376
 10
0.6816613579
 20
-12.6763209885
 10
0.6855151048
 20
-12.6913885059
 10
0.6890669472
 20
-12.7063939863
 10
0.6923147116
 20
-12.7213296134
 10
0.6952606507
 20
-12.736203159
 10
0.6979000204
 20
-12.7509931154
 10
0.7002332138
 20
-12.765706554
 10
0.7022599051
 20
-12.7803363654
 10
0.7039742444
 20
-12.7948397855
 10
0.7053750739
 20
-12.8092096101
 10
0.7064635787
 20
-12.8234530274
 10
0.7072373963
 20
-12.8375488769
 10
0.707696105
 20
-12.8515037588
 10
0.7078401395
 20
-12.8653110647
 10
0.7076683935
 20
-12.8789298359
 10
0.7071801288
 20
-12.8923533365
 10
0.7063760552
 20
-12.9055883171
 10
0.7052572102
 20
-12.9186140644
 10
0.7038226492
 20
-12.9314361946
 10
0.702073273
 20
-12.9440491148
 10
0.7000128597
 20
-12.9564153126
 10
0.6976410106
 20
-12.9685290085
 10
0.6949580421
 20
-12.9803960265
 10
0.6919687772
 20
-12.9919962752
 10
0.6886716044
 20
-13.0033343167
 10
0.6850680381
 20
-13.0144056418
 10
0.681167564
 20
-13.0251765658
 10
0.6769701232
 20
-13.0356419297
 10
0.6724756444
 20
-13.0458069639
 10
0.6676935693
 20
-13.0556535823
 10
0.6626227974
 20
-13.0651836454
 10
0.6572642873
 20
-13.0743953708
 10
0.6516305495
 20
-13.0832652192
 10
0.6457222968
 20
-13.0917898197
 10
0.6395386561
 20
-13.0999726317
 10
0.6330897415
 20
-13.1078003702
 10
0.6263734132
 20
-13.1152751851
 10
0.6193916476
 20
-13.1223950171
 10
0.6121607193
 20
-13.1291402756
 10
0.6046859911
 20
-13.1355044649
 10
0.596961925
 20
-13.141494178
 10
0.5889884378
 20
-13.1471094612
  0
LWPOLYLINE
  5
3BF
100
AcDbEntity
  8
0
100
AcDbPolyline
 62
7
  6
CONTINUOUS
 90
5
 70
0
 10
0.1745993597
 20
-12.6266227565
 10
0.173323008
 20
-12.6228943232
 10
0.1719439906
 20
-12.6191878352
 10
0.1704616685
 20
-12.615498251
 10
0.168884516
 20
-12.6118414477
  0
LINE
  5
3C0
100
AcDbEntity
  8
0
100
AcDbLine
 62
7
  6
CONTINUOUS
 10
0.1757983414
 20
-12.6304534842
 11
0.1746249562
 21
-12.6266994023
  0
LWPOLYLINE
  5
3C1
100
AcDbEntity
  8
0
100
AcDbPolyline
 62
7
  6
CONTINUOUS
 90
4
 70
0
 10
-1.8900833171
 20
-11.366033975
 10
-1.8922455826
 20
-11.3570582493
 10
-1.8941978119
 20
-11.3480973421
 10
-1.8959281624
 20
-11.339194814
  0
LWPOLYLINE
  5
3C2
100
AcDbEntity
  8
0
100
AcDbPolyline
 62
7
  6
CONTINUOUS
 90
4
 70
0
 10
-2.4787302719
 20
-10.9260160943
 10
-2.4765806004
 20
-10.9349973318
 10
-2.4746396438
 20
-10.9439631551
 10
-2.4729191638
 20
-10.9528699749
  0
LWPOLYLINE
  5
3C3
100
AcDbEntity
  8
0
100
AcDbPolyline
 62
7
  6
CONTINUOUS
 90
8
 70
0
 10
-1.8959237535
 20
-11.3392189962
 10
-1.8974274695
 20
-11.3303951121
 10
-1.8987101204
 20
-11.3216289474
 10
-1.8997687174
 20
-11.3129474337
 10
-1.9006033372
 20
-11.3043501373
 10
-1.9012138884
 20
-11.2958374839
 10
-1.9015971445
 20
-11.2874377022
 10
-1.9017515366
 20
-11.2791515046
  0
LWPOLYLINE
  5
3C4
100
AcDbEntity
  8
0
100
AcDbPolyline
 62
7
  6
CONTINUOUS
 90
7
 70
0
 10
-2.4729236421
 20
-10.952845261
 10
-2.4714283556
 20
-10.9616726913
 10
-2.4701526767
 20
-10.9704417544
 10
-2.4690995659
 20
-10.9791255113
 10
-2.4682689307
 20
-10.9877243933
 10
-2.4676608489
 20
-10.9962379608
 10
-2.4672785505
 20
-11.0046379766
  0
LWPOLYLINE
  5
3C5
100
AcDbEntity
  8
0
100
AcDbPolyline
 62
7
  6
CONTINUOUS
 90
3
 70
0
 10
-4.5262259539
 20
9.9168874648
 10
-4.5257560706
 20
9.9130711098
 10
-4.5251460743
 20
9.9091158265
  0
LINE
  5
3C6
100
AcDbEntity
  8
0
100
AcDbLine
 62
7
  6
CONTINUOUS
 10
-2.4701452358
 20
-10.9705041833
 11
-2.4690922389
 21
-10.9791927665
  0
LWPOLYLINE
  5
3C7
100
AcDbEntity
  8
0
100
AcDbPolyline
 62
7
  6
CONTINUOUS
 90
15
 70
0
 10
-2.468263871
 20
-10.9877735983
 10
-2.46765924
 20
-10.9962554152
 10
-2.4672789865
 20
-11.0046244467
 10
-2.4671232381
 20
-11.0128807667
 10
-2.4671918671
 20
-11.0210243011
 10
-2.4674851388
 20
-11.0290410616
 10
-2.4680034039
 20
-11.0369389675
 10
-2.4687463177
 20
-11.0447101026
 10
-2.4697131167
 20
-11.0523167331
 10
-2.4709066721
 20
-11.0597573449
 10
-2.4723241408
 20
-11.0670334674
 10
-2.4739562084
 20
-11.0741119425
 10
-2.4758017339
 20
-11.0809863241
 10
-2.4778619068
 20
-11.0876630848
 10
-2.4801309228
 20
-11.0941284522
  0
LINE
  5
3C8
100
AcDbEntity
  8
0
100
AcDbLine
 62
7
  6
CONTINUOUS
 10
-2.4680022673
 20
8.5831964042
 11
-2.4674843988
 21
8.5742398349
  0
LWPOLYLINE
  5
3C9
100
AcDbEntity
  8
0
100
AcDbPolyline
 62
7
  6
CONTINUOUS
 90
14
 70
0
 10
-1.9012154488
 20
-11.2958209387
 10
-1.9015966787
 20
-11.2874521472
 10
-1.901751904
 20
-11.2791953605
 10
-1.9016812521
 20
-11.271050655
 10
-1.9013844786
 20
-11.2630320195
 10
-1.9008612343
 20
-11.2551315385
 10
-1.9001118744
 20
-11.247357131
 10
-1.8991372262
 20
-11.239746546
 10
-1.8979344483
 20
-11.2323013188
 10
-1.89650641
 20
-11.2250199295
 10
-1.8948625252
 20
-11.2179355548
 10
-1.8930039963
 20
-11.2110546747
 10
-1.8909296692
 20
-11.2043708359
 10
-1.8886454371
 20
-11.1978978228
  0
LWPOLYLINE
  5
3CA
100
AcDbEntity
  8
0
100
AcDbPolyline
 62
7
  6
CONTINUOUS
 90
4
 70
0
 10
-1.9017518638
 20
8.2565388852
 10
-1.9015962372
 20
8.2651758568
 10
-1.9012145881
 20
8.2737008755
 10
-1.9006070532
 20
8.2821138628
  0
LWPOLYLINE
  5
3CB
100
AcDbEntity
  8
0
100
AcDbPolyline
 62
7
  6
CONTINUOUS
 90
13
 70
0
 10
-2.4672794277
 20
8.5480031158
 10
-2.4676600976
 20
8.5394783816
 10
-2.4682651535
 20
8.5310664741
 10
-2.4690939375
 20
8.5227818333
 10
-2.4701473318
 20
8.5146162774
 10
-2.4714244603
 20
8.5065779856
 10
-2.472922043
 20
8.4987059332
 10
-2.4746429431
 20
8.491001645
 10
-2.4765843255
 20
8.4834635836
 10
-2.4787343835
 20
8.4761261224
 10
-2.4810915122
 20
8.4689959424
 10
-2.4836573651
 20
8.4620663406
 10
-2.4864250364
 20
8.4553516079
  0
LINE
  5
3CC
100
AcDbEntity
  8
0
100
AcDbLine
 62
7
  6
CONTINUOUS
 10
-1.9006070532
 20
8.2821138628
 11
-1.8997638885
 21
8.2904907599
  0
LWPOLYLINE
  5
3CD
100
AcDbEntity
  8
0
100
AcDbPolyline
 62
7
  6
CONTINUOUS
 90
10
 70
0
 10
-1.8997742841
 20
8.290400372
 10
-1.8987154005
 20
8.2985685872
 10
-1.8974312887
 20
8.3066103213
 10
-1.8959252641
 20
8.3144865646
 10
-1.8941944897
 20
8.3221957859
 10
-1.8922418306
 20
8.3297395036
 10
-1.8900791748
 20
8.3370832727
 10
-1.8877081861
 20
8.344220386
 10
-1.8851272492
 20
8.3511575286
 10
-1.8823433478
 20
8.3578803388
  0
LINE
  5
3CE
100
AcDbEntity
  8
0
100
AcDbLine
 62
7
  6
CONTINUOUS
 10
-4.5255893884
 20
-10.2893804417
 11
-4.5260798291
 21
-10.2925869517
  0
LWPOLYLINE
  5
3CF
100
AcDbEntity
  8
0
100
AcDbPolyline
 62
7
  6
CONTINUOUS
 90
18
 70
0
 10
-5.0406373807
 20
-9.8021349255
 10
-5.0370715823
 20
-9.7910407466
 10
-5.033202707
 20
-9.7802264126
 10
-5.0290364792
 20
-9.7697075102
 10
-5.0245700663
 20
-9.7594794632
 10
-5.0198064242
 20
-9.7495469161
 10
-5.0147599823
 20
-9.7399392981
 10
-5.0094330569
 20
-9.7306620333
 10
-5.0038234831
 20
-9.7217097812
 10
-4.9979389879
 20
-9.7130958348
 10
-4.991775894
 20
-9.7048169913
 10
-4.9853380331
 20
-9.6968765385
 10
-4.9786444128
 20
-9.6892975145
 10
-4.9716981256
 20
-9.682084058
 10
-4.9644962504
 20
-9.6752321245
 10
-4.9570487896
 20
-9.6687524852
 10
-4.9493515128
 20
-9.6626429158
 10
-4.9414088186
 20
-9.6569057328
  0
LWPOLYLINE
  5
3D0
100
AcDbEntity
  8
0
100
AcDbPolyline
 62
7
  6
CONTINUOUS
 90
8
 70
0
 10
0.6773686595
 20
7.0654904337
 10
0.6729335439
 20
7.0539591399
 10
0.6682076181
 20
7.0427140072
 10
0.6631977692
 20
7.0317712925
 10
0.6579006732
 20
7.0211262274
 10
0.6523195304
 20
7.0107835254
 10
0.6464709917
 20
7.0007736559
 10
0.6403575956
 20
6.9911020986
  0
LWPOLYLINE
  5
3D1
100
AcDbEntity
  8
0
100
AcDbPolyline
 62
7
  6
CONTINUOUS
 90
17
 70
0
 10
0.6523265126
 20
7.0107959822
 10
0.6464798684
 20
7.0007882631
 10
0.6403686072
 20
6.9911188304
 10
0.6339899857
 20
6.9817820544
 10
0.6273526953
 20
6.9727917103
 10
0.6204525698
 20
6.9641443511
 10
0.6132936211
 20
6.9558433544
 10
0.6058967907
 20
6.9479127254
 10
0.598265357
 20
6.9403566956
 10
0.5903958701
 20
6.9331709562
 10
0.5822991638
 20
6.9263666942
 10
0.5739705563
 20
6.9199414594
 10
0.5654145612
 20
6.913897626
 10
0.5566557939
 20
6.9082536123
 10
0.5476977167
 20
6.9030129885
 10
0.5385366923
 20
6.8981721052
 10
0.529186677
 20
6.8937385468
  0
LWPOLYLINE
  5
3D2
100
AcDbEntity
  8
0
100
AcDbPolyline
 62
250
  6
CONTINUOUS
 90
27
 70
0
 10
-5.5201259412
 20
0.5036443263
 10
-5.5176242712
 20
0.5049052481
 10
-5.513903268
 20
0.5070066735
 10
-5.5102954127
 20
0.5093235903
 10
-5.5068051006
 20
0.5118531761
 10
-5.5034365837
 20
0.5145923492
 10
-5.5001939656
 20
0.5175377727
 10
-5.4970811965
 20
0.5206858583
 10
-5.4941020686
 20
0.5240327711
 10
-5.491260211
 20
0.5275744336
 10
-5.4885590858
 20
0.5313065313
 10
-5.4860019836
 20
0.5352245178
 10
-5.4835920195
 20
0.5393236199
 10
-5.4813321294
 20
0.5435988441
 10
-5.4792250663
 20
0.5480449821
 10
-5.4772733972
 20
0.5526566176
 10
-5.4754794997
 20
0.5574281325
 10
-5.473845559
 20
0.5623537141
 10
-5.4723735657
 20
0.5674273617
 10
-5.4710653131
 20
0.5726428947
 10
-5.4699223948
 20
0.5779939593
 10
-5.4689462033
 20
0.5834740366
 10
-5.4681379277
 20
0.5890764507
 10
-5.4674985527
 20
0.5947943766
 10
-5.4670288572
 20
0.6006208485
 10
-5.4667294134
 20
0.6065487684
 10
-5.4666005861
 20
0.6125709149
  0
LINE
  5
3D3
100
AcDbEntity
  8
0
100
AcDbLine
 62
250
  6
CONTINUOUS
 10
-5.6080165575
 20
0.2537162033
 11
-4.4057493156
 21
0.8571874534
  0
LINE
  5
3D4
100
AcDbEntity
  8
0
100
AcDbLine
 62
250
  6
CONTINUOUS
 10
-5.4666005861
 20
0.009809732
 11
-4.5023112859
 21
0.4938292986
  0
LINE
  5
3D5
100
AcDbEntity
  8
0
100
AcDbLine
 62
250
  6
CONTINUOUS
 10
-4.5023112859
 20
0.104094784
 11
-5.4662325753
 21
-0.3797384536
  0
LINE
  5
3D6
100
AcDbEntity
  8
0
100
AcDbLine
 62
250
  6
CONTINUOUS
 10
-4.1487713576
 20
-0.5056713943
 11
-5.1115444203
 21
-0.9889313404
  0
LINE
  5
3D7
100
AcDbEntity
  8
0
100
AcDbLine
 62
250
  6
CONTINUOUS
 10
-4.6763483586
 20
0.9924869748
 11
-5.4666005861
 21
0.6125709149
  0
LINE
  5
3D8
100
AcDbEntity
  8
0
100
AcDbLine
 62
7
  6
CONTINUOUS
 10
-4.5915215717
 20
0.9500735814
 11
-5.5201259412
 21
0.5036443263
  0
LWPOLYLINE
  5
3D9
100
AcDbEntity
  8
0
100
AcDbPolyline
 62
250
  6
CONTINUOUS
 90
21
 70
0
 10
1.3188075963
 20
-3.2096958736
 10
1.3138301762
 20
-3.2073554345
 10
1.3088603232
 20
-3.20522809
 10
1.3039040916
 20
-3.2033164319
 10
1.2989675194
 20
-3.2016227888
 10
1.2940566203
 20
-3.2001492241
 10
1.289177377
 20
-3.1988975329
 10
1.2843357335
 20
-3.1978692401
 10
1.279537588
 20
-3.1970655982
 10
1.2747887857
 20
-3.1964875865
 10
1.2700951119
 20
-3.1961359089
 10
1.2654622844
 20
-3.196010994
 10
1.260895947
 20
-3.1961129938
 10
1.2564016627
 20
-3.1964417842
 10
1.2519849065
 20
-3.1969969646
 10
1.247651059
 20
-3.1977778586
 10
1.2434053997
 20
-3.1987835151
 10
1.239253101
 20
-3.2000127087
 10
1.2351992212
 20
-3.2014639422
 10
1.2312486989
 20
-3.2031354475
 10
1.2278290107
 20
-3.2048038733
  0
LWPOLYLINE
  5
3DA
100
AcDbEntity
  8
0
100
AcDbPolyline
 62
250
  6
CONTINUOUS
 90
43
 70
0
 10
-5.748203761
 20
0.6133058993
 10
-5.7428505553
 20
0.6107381437
 10
-5.7373054755
 20
0.6082562626
 10
-5.7315778092
 20
0.6058714412
 10
-5.7256794528
 20
0.6036023014
 10
-5.7196187531
 20
0.6014517102
 10
-5.7133998543
 20
0.599407326
 10
-5.7070334545
 20
0.5974801555
 10
-5.7005306994
 20
0.5956801055
 10
-5.6938959642
 20
0.5939939439
 10
-5.6871406741
 20
0.5924326208
 10
-5.6802767268
 20
0.5910056378
 10
-5.6733086969
 20
0.5896986179
 10
-5.6662485027
 20
0.5885224723
 10
-5.6591086805
 20
0.5874864127
 10
-5.6518940834
 20
0.5865747662
 10
-5.6446167648
 20
0.5857983424
 10
-5.6372897491
 20
0.5851661582
 10
-5.6299184442
 20
0.5846612382
 10
-5.6225144931
 20
0.5842941174
 10
-5.6150911896
 20
0.584073685
 10
-5.6076550767
 20
0.5839818314
 10
-5.6002165932
 20
0.5840285196
 10
-5.592788965
 20
0.5842225408
 10
-5.5853808568
 20
0.5845449951
 10
-5.5780004428
 20
0.5850048767
 10
-5.570660354
 20
0.5856108654
 10
-5.5633727952
 20
0.5863437256
 10
-5.5561424582
 20
0.5872110738
 10
-5.5489805864
 20
0.5882214379
 10
-5.5419045926
 20
0.5893556531
 10
-5.534914646
 20
0.5906196821
 10
-5.5280195264
 20
0.5920218828
 10
-5.5212432358
 20
0.5935433202
 10
-5.5145811326
 20
0.5951882659
 10
-5.5080383454
 20
0.596964995
 10
-5.5016456774
 20
0.5988546475
 10
-5.4953947043
 20
0.600859916
 10
-5.4892860864
 20
0.6029892117
 10
-5.4833556402
 20
0.6052235812
 10
-5.4776085408
 20
0.6075569435
 10
-5.4720250954
 20
0.6100033752
 10
-5.4666005861
 20
0.6125709149
  0
LWPOLYLINE
  5
3DB
100
AcDbEntity
  8
0
100
AcDbPolyline
 62
250
  6
CONTINUOUS
 90
43
 70
0
 10
-5.7478356022
 20
-0.3794021589
 10
-5.7424792531
 20
-0.3819822531
 10
-5.7369347133
 20
-0.3844605968
 10
-5.7312096516
 20
-0.3868337621
 10
-5.7253119861
 20
-0.3890984669
 10
-5.7192498739
 20
-0.3912515787
 10
-5.7130316995
 20
-0.3932901197
 10
-5.7066660633
 20
-0.3952112703
 10
-5.7001617694
 20
-0.3970123733
 10
-5.6935278141
 20
-0.3986909378
 10
-5.6867733726
 20
-0.400244642
 10
-5.679907787
 20
-0.4016713371
 10
-5.672940553
 20
-0.4029690499
 10
-5.6658813071
 20
-0.4041359853
 10
-5.6587398128
 20
-0.4051705295
 10
-5.6515259475
 20
-0.4060712516
 10
-5.6442496887
 20
-0.4068369058
 10
-5.6369211
 20
-0.4074664331
 10
-5.6295503178
 20
-0.4079589628
 10
-5.6221475364
 20
-0.4083138138
 10
-5.6147229945
 20
-0.4085304952
 10
-5.6072869612
 20
-0.4086087073
 10
-5.599849721
 20
-0.4085483419
 10
-5.5924215605
 20
-0.4083494827
 10
-5.5850127534
 20
-0.4080124045
 10
-5.5776335469
 20
-0.4075375736
 10
-5.5702941471
 20
-0.4069256467
 10
-5.5630047051
 20
-0.4061774702
 10
-5.5557753029
 20
-0.4052940789
 10
-5.5486159394
 20
-0.4042766947
 10
-5.5415365168
 20
-0.4031267245
 10
-5.5345468264
 20
-0.401845759
 10
-5.5276565359
 20
-0.4004355699
 10
-5.520875175
 20
-0.3988981076
 10
-5.5142121231
 20
-0.3972354985
 10
-5.5076765958
 20
-0.3954500422
 10
-5.5012776323
 20
-0.3935442082
 10
-5.4950240831
 20
-0.3915206323
 10
-5.4889245973
 20
-0.3893821135
 10
-5.4829876112
 20
-0.3871316094
 10
-5.4772213362
 20
-0.3847722327
 10
-5.4716337475
 20
-0.3823072467
 10
-5.4662325734
 20
-0.3797400607
  0
LWPOLYLINE
  5
3DC
100
AcDbEntity
  8
0
100
AcDbPolyline
 62
250
  6
CONTINUOUS
 90
43
 70
0
 10
-5.748203761
 20
0.0103035154
 10
-5.7428505572
 20
0.0077134529
 10
-5.7373054793
 20
0.0052366432
 10
-5.7315778152
 20
0.0028707939
 10
-5.725679461
 20
0.0006071653
 10
-5.7196187634
 20
-0.0015510605
 10
-5.7133998669
 20
-0.0035886074
 10
-5.7070334693
 20
-0.0055092786
 10
-5.7005307164
 20
-0.0073164105
 10
-5.6938959834
 20
-0.008994357
 10
-5.6871406954
 20
-0.0105480997
 10
-5.6802767502
 20
-0.0119818119
 10
-5.6733087221
 20
-0.0132792268
 10
-5.6662485297
 20
-0.0144466289
 10
-5.6591087091
 20
-0.0154892162
 10
-5.6518941135
 20
-0.0163899286
 10
-5.6446167962
 20
-0.0171563786
 10
-5.6372897815
 20
-0.0177949514
 10
-5.6299184774
 20
-0.0182877761
 10
-5.6225145269
 20
-0.0186436494
 10
-5.6150912238
 20
-0.0188702569
 10
-5.6076551111
 20
-0.0189491669
 10
-5.6002166274
 20
-0.018889958
 10
-5.5927889989
 20
-0.0187016392
 10
-5.5853808901
 20
-0.0183658753
 10
-5.5780004753
 20
-0.0178922833
 10
-5.5706603854
 20
-0.0172910575
 10
-5.5633728254
 20
-0.0165451551
 10
-5.556142487
 20
-0.0156631259
 10
-5.5489806136
 20
-0.0146559538
 10
-5.541904618
 20
-0.0135096492
 10
-5.5349146696
 20
-0.0122303647
 10
-5.5280195479
 20
-0.0108291254
 10
-5.5212432552
 20
-0.0092971081
 10
-5.5145811498
 20
-0.0076368782
 10
-5.5080383603
 20
-0.0058583917
 10
-5.5016456902
 20
-0.0039599204
 10
-5.4953947147
 20
-0.0019399051
 10
-5.4892860946
 20
0.0001940422
 10
-5.4833556463
 20
0.0024355384
 10
-5.4776085447
 20
0.0047842242
 10
-5.4720250974
 20
0.0072421842
 10
-5.4666005861
 20
0.009809732
  0
LWPOLYLINE
  5
3DD
100
AcDbEntity
  8
0
100
AcDbPolyline
 62
250
  6
CONTINUOUS
 90
55
 70
0
 10
5.1172795479
 20
-4.8194357543
 10
5.1274780665
 20
-4.8243931192
 10
5.1379540608
 20
-4.8292052307
 10
5.1486990305
 20
-4.8338682111
 10
5.1597041204
 20
-4.8383782563
 10
5.170960537
 20
-4.84273179
 10
5.1824595872
 20
-4.846925447
 10
5.1941921587
 20
-4.8509559045
 10
5.2061485889
 20
-4.8548198369
 10
5.2183190982
 20
-4.8585140621
 10
5.2306937896
 20
-4.8620355943
 10
5.2432627009
 20
-4.8653816101
 10
5.2560157011
 20
-4.8685493853
 10
5.2689424828
 20
-4.8715363779
 10
5.282032582
 20
-4.8743401822
 10
5.2952754251
 20
-4.8769584968
 10
5.3086603138
 20
-4.8793892279
 10
5.3221764087
 20
-4.881630422
 10
5.3358127519
 20
-4.8836802188
 10
5.3495583044
 20
-4.8855369852
 10
5.3634019554
 20
-4.8871992411
 10
5.3773325057
 20
-4.8886655916
 10
5.3913386822
 20
-4.8899348799
 10
5.4054091596
 20
-4.8910061038
 10
5.4195325685
 20
-4.8918783405
 10
5.43369749
 20
-4.8925509172
 10
5.4478924605
 20
-4.8930233162
 10
5.4621059936
 20
-4.8932950918
 10
5.476326592
 20
-4.8933660593
 10
5.4905427521
 20
-4.8932361918
 10
5.5047429703
 20
-4.892905525
 10
5.5189157543
 20
-4.8923743648
 10
5.533049645
 20
-4.8916431744
 10
5.5471332212
 20
-4.8907124696
 10
5.5611550948
 20
-4.889583043
 10
5.5751039184
 20
-4.8882558443
 10
5.588968407
 20
-4.8867318673
 10
5.6027373533
 20
-4.8850123857
 10
5.6163996106
 20
-4.8830988299
 10
5.6299441009
 20
-4.8809926678
 10
5.6433598551
 20
-4.8786956506
 10
5.6566360346
 20
-4.8762096762
 10
5.6697619129
 20
-4.873536666
 10
5.682726864
 20
-4.8706788299
 10
5.695520409
 20
-4.8676385215
 10
5.7081322356
 20
-4.8644181003
 10
5.7205521915
 20
-4.8610202028
 10
5.7327701754
 20
-4.8574476337
 10
5.7447761888
 20
-4.8537032242
 10
5.7565603362
 20
-4.8497901179
 10
5.7681132851
 20
-4.8457114715
 10
5.7794261289
 20
-4.8414703267
 10
5.7904898338
 20
-4.8370700416
 10
5.8012952775
 20
-4.8325143092
 10
5.8118336923
 20
-4.8278068485
  0
LWPOLYLINE
  5
3DE
100
AcDbEntity
  8
0
100
AcDbPolyline
 62
7
  6
CONTINUOUS
 90
46
 70
0
 10
5.1692544435
 20
-4.9277292655
 10
5.1779950501
 20
-4.9319947306
 10
5.1903234491
 20
-4.9376695221
 10
5.2027999906
 20
-4.9430311878
 10
5.2154162866
 20
-4.9480884269
 10
5.2281643834
 20
-4.9528493684
 10
5.241032805
 20
-4.9573199378
 10
5.2540131394
 20
-4.96150681
 10
5.2670981922
 20
-4.9654161717
 10
5.2802738487
 20
-4.9690517711
 10
5.2935316865
 20
-4.9724188324
 10
5.3068649203
 20
-4.9755223099
 10
5.320258157
 20
-4.9783650845
 10
5.3337018886
 20
-4.9809511281
 10
5.3471902563
 20
-4.983284824
 10
5.3607107522
 20
-4.9853691473
 10
5.3742499243
 20
-4.9872068383
 10
5.3878059854
 20
-4.9888022188
 10
5.4013825579
 20
-4.9901592553
 10
5.4149708736
 20
-4.9912800471
 10
5.4285651984
 20
-4.9921667924
 10
5.4421730232
 20
-4.9928217548
 10
5.4557872879
 20
-4.9932458627
 10
5.4694009995
 20
-4.9934397145
 10
5.4830214625
 20
-4.9934036108
 10
5.4966419415
 20
-4.9931371646
 10
5.5102551789
 20
-4.9926396545
 10
5.523867878
 20
-4.9919095014
 10
5.5374740672
 20
-4.9909448589
 10
5.5510654206
 20
-4.9897438393
 10
5.5646457085
 20
-4.9883031056
 10
5.578212055
 20
-4.986618994
 10
5.591752453
 20
-4.9846888027
 10
5.6052581399
 20
-4.9825091799
 10
5.6187230624
 20
-4.980076044
 10
5.6321381478
 20
-4.9773855647
 10
5.6454922632
 20
-4.9744339198
 10
5.6587786123
 20
-4.971216244
 10
5.6719888033
 20
-4.9677274045
 10
5.6851125631
 20
-4.9639624027
 10
5.6981426137
 20
-4.959915014
 10
5.7110703963
 20
-4.9555785296
 10
5.7238878938
 20
-4.9509455574
 10
5.7365881921
 20
-4.9460072788
 10
5.7491616117
 20
-4.9407551499
 10
5.7584064701
 20
-4.9366483157
  0
LINE
  5
3DF
100
AcDbEntity
  8
0
100
AcDbLine
 62
250
  6
CONTINUOUS
 10
0.8253389677
 20
-3.9573730343
 11
-5.1115444203
 21
-0.9889313404
  0
LINE
  5
3E0
100
AcDbEntity
  8
0
100
AcDbLine
 62
250
  6
CONTINUOUS
 10
5.1172795477
 20
-5.4224381391
 11
1.1786203928
 21
-3.4531085615
  0
LINE
  5
3E1
100
AcDbEntity
  8
0
100
AcDbLine
 62
250
  6
CONTINUOUS
 10
-5.748203761
 20
0.0103035154
 11
-9.6868629158
 21
1.9796330927
  0
LINE
  5
3E2
100
AcDbEntity
  8
0
100
AcDbLine
 62
7
  6
CONTINUOUS
 10
-4.1487713576
 20
-0.5056713943
 11
1.23845322
 21
-3.1992836831
  0
LINE
  5
3E3
100
AcDbEntity
  8
0
100
AcDbLine
 62
250
  6
CONTINUOUS
 10
5.2574681154
 20
-5.1790261331
 11
1.3188075963
 21
-3.2096958736
  0
LINE
  5
3E4
100
AcDbEntity
  8
0
100
AcDbLine
 62
250
  6
CONTINUOUS
 10
-5.6080165575
 20
0.2537162033
 11
-9.5466770764
 21
2.2230464628
  0
LINE
  5
3E5
100
AcDbEntity
  8
0
100
AcDbLine
 62
7
  6
CONTINUOUS
 10
-9.6348856771
 20
2.4743407811
 11
-5.6962251581
 21
0.5050105216
  0
LINE
  5
3E6
100
AcDbEntity
  8
0
100
AcDbLine
 62
7
  6
CONTINUOUS
 10
1.2305989957
 20
-2.9584015553
 11
5.1692595147
 21
-4.9277318148
  0
LINE
  5
3E7
100
AcDbEntity
  8
0
100
AcDbLine
 62
7
  6
CONTINUOUS
 10
-4.1587103584
 20
-0.2625889263
 11
1.2129182352
 21
-2.948403223
  0
LINE
  5
3E8
100
AcDbEntity
  8
0
100
AcDbLine
 62
250
  6
CONTINUOUS
 10
-9.6868629158
 20
2.5826354769
 11
-5.748203761
 21
0.6133058993
  0
LINE
  5
3E9
100
AcDbEntity
  8
0
100
AcDbLine
 62
250
  6
CONTINUOUS
 10
1.1786203928
 20
-2.8501061776
 11
5.1172795477
 21
-4.8194357549
  0
LWPOLYLINE
  5
3EA
100
AcDbEntity
  8
0
100
AcDbPolyline
 62
250
  6
CONTINUOUS
 90
61
 70
0
 10
-5.1115444157
 20
-0.988931338
 10
-5.120749067
 20
-0.984215911
 10
-5.1299643424
 20
-0.9792027675
 10
-5.1391840516
 20
-0.9738937597
 10
-5.1484043479
 20
-0.9682895645
 10
-5.1576165065
 20
-0.9623937576
 10
-5.1668069943
 20
-0.956213515
 10
-5.1759695125
 20
-0.949752198
 10
-5.1850976915
 20
-0.9430134383
 10
-5.1941780293
 20
-0.9360063806
 10
-5.2032040549
 20
-0.9287358308
 10
-5.2121698119
 20
-0.9212064243
 10
-5.2210628421
 20
-0.9134284628
 10
-5.2298752381
 20
-0.9054093937
 10
-5.2386030446
 20
-0.8971533723
 10
-5.2472399651
 20
-0.8886665349
 10
-5.2557788479
 20
-0.8799564591
 10
-5.2642154217
 20
-0.8710280609
 10
-5.2725476972
 20
-0.8618834173
 10
-5.2807707173
 20
-0.8525279605
 10
-5.2888781427
 20
-0.8429688941
 10
-5.2968658156
 20
-0.8332107526
 10
-5.3047292227
 20
-0.8232588033
 10
-5.3124618763
 20
-0.8131210226
 10
-5.3200567828
 20
-0.8028062042
 10
-5.3275085716
 20
-0.7923216562
 10
-5.3348123191
 20
-0.7816743491
 10
-5.3419619775
 20
-0.7708729104
 10
-5.348952168
 20
-0.759925646
 10
-5.3557787174
 20
-0.7488393011
 10
-5.3624375563
 20
-0.7376203251
 10
-5.36892413
 20
-0.7262763995
 10
-5.3752339916
 20
-0.7148153308
 10
-5.3813633066
 20
-0.7032438109
 10
-5.3873082615
 20
-0.6915688435
 10
-5.3930642494
 20
-0.6797993103
 10
-5.3986264538
 20
-0.6679448329
 10
-5.4039911561
 20
-0.6560133316
 10
-5.4091545921
 20
-0.6440132288
 10
-5.4141122665
 20
-0.6319550463
 10
-5.4188602748
 20
-0.6198486936
 10
-5.4233961615
 20
-0.6077009118
 10
-5.4277178053
 20
-0.5955175182
 10
-5.431821899
 20
-0.5833078613
 10
-5.4357059847
 20
-0.5710793041
 10
-5.4393690082
 20
-0.5588346707
 10
-5.4428086978
 20
-0.5465802543
 10
-5.4460217311
 20
-0.5343265553
 10
-5.449005438
 20
-0.5220827224
 10
-5.4517580237
 20
-0.5098545347
 10
-5.4542766352
 20
-0.4976530983
 10
-5.4565577755
 20
-0.4854954745
 10
-5.458600071
 20
-0.4733897348
 10
-5.4604022744
 20
-0.4613443848
 10
-5.4619623582
 20
-0.4493768374
 10
-5.4632799462
 20
-0.4374951209
 10
-5.4643548908
 20
-0.4257070289
 10
-5.4651868351
 20
-0.4140291285
 10
-5.4657764129
 20
-0.4024717404
 10
-5.4661246532
 20
-0.3910391507
 10
-5.4662325725
 20
-0.3797384522
  0
LWPOLYLINE
  5
3EB
100
AcDbEntity
  8
0
100
AcDbPolyline
 62
250
  6
CONTINUOUS
 90
29
 70
0
 10
-9.6868629156
 20
1.9796330923
 10
-9.6967754623
 20
1.9847334432
 10
-9.7063936517
 20
1.9899744571
 10
-9.7157097297
 20
1.9953518835
 10
-9.7247160776
 20
2.0008612996
 10
-9.7334055567
 20
2.006498302
 10
-9.7417714744
 20
2.0122585253
 10
-9.749807179
 20
2.0181374162
 10
-9.7575060312
 20
2.0241301377
 10
-9.7648617304
 20
2.0302317679
 10
-9.7718683012
 20
2.0364373604
 10
-9.7785201088
 20
2.042741928
 10
-9.784811793
 20
2.0491403612
 10
-9.7907382672
 20
2.0556275076
 10
-9.7962947328
 20
2.0621981287
 10
-9.8014767
 20
2.0688468813
 10
-9.8062799796
 20
2.0755684169
 10
-9.810700679
 20
2.0823573088
 10
-9.8147352131
 20
2.0892080101
 10
-9.8183803164
 20
2.0961150011
 10
-9.821633043
 20
2.1030727192
 10
-9.8244907618
 20
2.1100754855
 10
-9.8269511606
 20
2.1171176626
 10
-9.8290122504
 20
2.1241935802
 10
-9.8306723654
 20
2.131297464
 10
-9.8319301624
 20
2.1384236029
 10
-9.8327846224
 20
2.1455662572
 10
-9.8332350532
 20
2.1527195839
 10
-9.8333112245
 20
2.1570312807
  0
LWPOLYLINE
  5
3EC
100
AcDbEntity
  8
0
100
AcDbPolyline
 62
250
  6
CONTINUOUS
 90
55
 70
0
 10
-9.5466770764
 20
2.2230464628
 10
-9.5526296378
 20
2.2261099032
 10
-9.5583972312
 20
2.2292535723
 10
-9.5639798567
 20
2.2324774701
 10
-9.5693818972
 20
2.2357844159
 10
-9.5745989698
 20
2.2391715904
 10
-9.5796179251
 20
2.2426305357
 10
-9.5844381261
 20
2.2461613502
 10
-9.5890602099
 20
2.2497639355
 10
-9.5934729385
 20
2.2534295393
 10
-9.5976757883
 20
2.2571583047
 10
-9.6016692829
 20
2.2609500887
 10
-9.6054437547
 20
2.2647957096
 10
-9.6089986757
 20
2.2686952988
 10
-9.6123345738
 20
2.272648725
 10
-9.6154433652
 20
2.2766464121
 10
-9.6183245015
 20
2.2806884718
 10
-9.6209785311
 20
2.2847747925
 10
-9.6233990144
 20
2.288895463
 10
-9.6255853827
 20
2.2930505645
 10
-9.6275382048
 20
2.2972400159
 10
-9.6292527473
 20
2.3014536634
 10
-9.6307284321
 20
2.3056915643
 10
-9.6319658375
 20
2.3099536613
 10
-9.6329619642
 20
2.3142296281
 10
-9.6337162276
 20
2.3185195007
 10
-9.6342292123
 20
2.3228232431
 10
-9.6344996736
 20
2.3271304219
 10
-9.6345270225
 20
2.3314410447
 10
-9.6343118479
 20
2.3357551039
 10
-9.6338546714
 20
2.3400621417
 10
-9.6331549063
 20
2.3443621396
 10
-9.6322131392
 20
2.3486551161
 10
-9.6310316513
 20
2.3529306704
 10
-9.6296098611
 20
2.3571887614
 10
-9.62794835
 20
2.3614294301
 10
-9.6260511438
 20
2.3656423979
 10
-9.6239176688
 20
2.3698276002
 10
-9.6215484986
 20
2.3739851017
 10
-9.6189493809
 20
2.378104818
 10
-9.61611976
 20
2.3821866531
 10
-9.6130601914
 20
2.3862307029
 10
-9.6097780892
 20
2.3902271709
 10
-9.606272917
 20
2.3941759409
 10
-9.6025452112
 20
2.398077129
 10
-9.5986039952
 20
2.4019212883
 10
-9.5944487359
 20
2.4057082905
 10
-9.5900799665
 20
2.4094382637
 10
-9.5855083097
 20
2.4131021453
 10
-9.5807331096
 20
2.4166998622
 10
-9.5757550221
 20
2.4202314875
 10
-9.5705866385
 20
2.4236881769
 10
-9.5652321557
 20
2.4270669824
 10
-9.5596873767
 20
2.4303708521
 10
-9.5539523015
 20
2.433599786
  0
LWPOLYLINE
  5
3ED
100
AcDbEntity
  8
0
100
AcDbPolyline
 62
250
  6
CONTINUOUS
 90
22
 70
0
 10
1.1786203928
 20
-3.4531085615
 10
1.1734625738
 20
-3.4504431125
 10
1.1685038822
 20
-3.4476680374
 10
1.1637532108
 20
-3.4447947185
 10
1.1592204418
 20
-3.441842785
 10
1.1549116243
 20
-3.4388162527
 10
1.1508296928
 20
-3.4357033849
 10
1.1469818508
 20
-3.4325169355
 10
1.1433746686
 20
-3.429269099
 10
1.1400105604
 20
-3.4259476239
 10
1.1368954945
 20
-3.4225661886
 10
1.1340347993
 20
-3.4191375796
 10
1.1314303647
 20
-3.4156487621
 10
1.1290868173
 20
-3.4121142931
 10
1.1270081707
 20
-3.4085476456
 10
1.1251958122
 20
-3.4049348799
 10
1.1236529389
 20
-3.4012912335
 10
1.1223821825
 20
-3.3976309196
 10
1.1213844383
 20
-3.3939392193
 10
1.1206614447
 20
-3.3902316196
 10
1.1202144055
 20
-3.3865230552
 10
1.1200436426
 20
-3.3827985266
  0
LWPOLYLINE
  5
3EE
100
AcDbEntity
  8
0
100
AcDbPolyline
 62
250
  6
CONTINUOUS
 90
22
 70
0
 10
1.1789821993
 20
-3.8428110443
 10
1.1738214471
 20
-3.8401325892
 10
1.1688634317
 20
-3.8373596565
 10
1.1641150106
 20
-3.8344960817
 10
1.1595827511
 20
-3.8315458252
 10
1.155272922
 20
-3.8285129675
 10
1.1511914841
 20
-3.8254017034
 10
1.1473440823
 20
-3.822216336
 10
1.1437360381
 20
-3.818961271
 10
1.1403723417
 20
-3.8156410106
 10
1.1372576454
 20
-3.8122601468
 10
1.1343962572
 20
-3.8088233558
 10
1.1317921346
 20
-3.805335391
 10
1.1294488794
 20
-3.8018010766
 10
1.1273697325
 20
-3.7982253009
 10
1.1255575695
 20
-3.7946130095
 10
1.1240148969
 20
-3.7909691985
 10
1.1227438484
 20
-3.7872989078
 10
1.1217461819
 20
-3.7836072136
 10
1.1210232773
 20
-3.7798992219
 10
1.1205761344
 20
-3.7761800613
 10
1.1204035097
 20
-3.7720829962
  0
LWPOLYLINE
  5
3EF
100
AcDbEntity
  8
0
100
AcDbPolyline
 62
250
  6
CONTINUOUS
 90
23
 70
0
 10
1.1789821839
 20
-2.4600355283
 10
1.1738214336
 20
-2.4573576348
 10
1.16886342
 20
-2.454586028
 10
1.1641150007
 20
-2.4517245414
 10
1.1595827431
 20
-2.4487771327
 10
1.1552729157
 20
-2.4457478785
 10
1.1511914796
 20
-2.4426409684
 10
1.1473440796
 20
-2.4394606997
 10
1.1437360371
 20
-2.4362114709
 10
1.1403723424
 20
-2.4328977761
 10
1.1372576478
 20
-2.4295241984
 10
1.1343962613
 20
-2.4260954038
 10
1.1317921403
 20
-2.4226161346
 10
1.1294488866
 20
-2.4190912031
 10
1.1273697412
 20
-2.4155254844
 10
1.1255575797
 20
-2.4119239104
 10
1.1240149086
 20
-2.4082914624
 10
1.1227438614
 20
-2.4046331643
 10
1.1217461962
 20
-2.4009540761
 10
1.1210232928
 20
-2.3972592861
 10
1.1205761511
 20
-2.3935539046
 10
1.1204053896
 20
-2.3898430566
 10
1.1204035267
 20
-2.389343202
  0
LWPOLYLINE
  5
3F0
100
AcDbEntity
  8
0
100
AcDbPolyline
 62
250
  6
CONTINUOUS
 90
22
 70
0
 10
1.1786203928
 20
-2.8501061776
 10
1.1734625755
 20
-2.8474184218
 10
1.1685038856
 20
-2.8446484181
 10
1.1637532156
 20
-2.8417940718
 10
1.1592204478
 20
-2.83884765
 10
1.1549116314
 20
-2.8358134837
 10
1.1508297007
 20
-2.8327074538
 10
1.1469818593
 20
-2.8295275045
 10
1.1433746776
 20
-2.826272587
 10
1.1400105697
 20
-2.822959328
 10
1.1368955039
 20
-2.8195854742
 10
1.1340348086
 20
-2.816150137
 10
1.1314303736
 20
-2.8126709255
 10
1.1290868257
 20
-2.8091452012
 10
1.1270081785
 20
-2.8055720273
 10
1.1251958192
 20
-2.8019701967
 10
1.1236529449
 20
-2.7983365251
 10
1.1223821875
 20
-2.7946698237
 10
1.1213844422
 20
-2.7909902196
 10
1.1206614474
 20
-2.7872938684
 10
1.1202144069
 20
-2.7835791296
 10
1.120047884
 20
-2.7799597297
  0
LWPOLYLINE
  5
3F1
100
AcDbEntity
  8
0
100
AcDbPolyline
 62
7
  6
CONTINUOUS
 90
3
 70
0
 10
-5.0199558557
 20
9.8469601707
 10
-5.0247201846
 20
9.8624762892
 10
-5.0291871347
 20
9.878004018
  0
LINE
  5
3F2
100
AcDbEntity
  8
0
100
AcDbLine
 62
7
  6
CONTINUOUS
 10
0.1768579809
 20
-12.6341967719
 11
0.1757724212
 21
-12.6303680857
  0
LWPOLYLINE
  5
3F3
100
AcDbEntity
  8
0
100
AcDbPolyline
 62
7
  6
CONTINUOUS
 90
4
 70
0
 10
0.6775224583
 20
-12.6612553131
 10
0.6816674295
 20
-12.6763438547
 10
0.6855216842
 20
-12.6914151946
 10
0.689073892
 20
-12.7064245667
  0
LWPOLYLINE
  5
3F4
100
AcDbEntity
  8
0
100
AcDbPolyline
 62
7
  6
CONTINUOUS
 90
5
 70
0
 10
-4.5226686524
 20
9.8975771321
 10
-4.521616592
 20
9.8937365531
 10
-4.520456332
 20
9.8899206864
 10
-4.5191875908
 20
9.8861243118
 10
-4.5178180149
 20
9.8823637202
  0
LINE
  5
3F5
100
AcDbEntity
  8
0
100
AcDbLine
 62
7
  6
CONTINUOUS
 10
-5.0291852043
 20
9.8779970739
 11
-5.033350926
 21
9.8935244914
  0
LINE
  5
3F6
100
AcDbEntity
  8
0
100
AcDbLine
 62
7
  6
CONTINUOUS
 10
0.1778023866
 20
-12.6379255832
 11
0.1768318188
 21
-12.6340992999
  0
LWPOLYLINE
  5
3F7
100
AcDbEntity
  8
0
100
AcDbPolyline
 62
7
  6
CONTINUOUS
 90
10
 70
0
 10
-5.0333537903
 20
9.8935355915
 10
-5.0372229436
 20
9.9090788303
 10
-5.0407888264
 20
9.9246111509
 10
-5.0440523906
 20
9.940140396
 10
-5.047012569
 20
9.9556587741
 10
-5.0496605893
 20
9.9711202399
 10
-5.0519946743
 20
9.986516916
 10
-5.0540165218
 20
10.0018567146
 10
-5.0557225983
 20
10.0171172628
 10
-5.0571127346
 20
10.0323058182
  0
LINE
  5
3F8
100
AcDbEntity
  8
0
100
AcDbLine
 62
7
  6
CONTINUOUS
 10
-4.5236328717
 20
9.9015252409
 11
-4.5226896124
 21
9.8976560961
  0
LINE
  5
3F9
100
AcDbEntity
  8
0
100
AcDbLine
 62
7
  6
CONTINUOUS
 10
0.1786330564
 20
-12.641643595
 11
0.1777750968
 21
-12.6378122933
  0
LINE
  5
3FA
100
AcDbEntity
  8
0
100
AcDbLine
 62
7
  6
CONTINUOUS
 10
-4.5244587975
 20
9.9053853855
 11
-4.523612217
 21
9.9014372096
  0
LWPOLYLINE
  5
3FB
100
AcDbEntity
  8
0
100
AcDbPolyline
 62
7
  6
CONTINUOUS
 90
40
 70
0
 10
-5.0407845335
 20
9.9245916254
 10
-5.0440476649
 20
9.9401168569
 10
-5.0470075847
 20
9.9556312879
 10
-5.0496555009
 20
9.9710887313
 10
-5.051989619
 20
9.9864811815
 10
-5.0540116545
 20
10.001816679
 10
-5.0557181062
 20
10.0170730944
 10
-5.0571088206
 20
10.0322577725
 10
-5.0581838839
 20
10.047363398
 10
-5.0589401811
 20
10.0623458391
 10
-5.0593769923
 20
10.0771976729
 10
-5.05949501
 20
10.0919263337
 10
-5.059293266
 20
10.1065099639
 10
-5.0587708392
 20
10.1209554136
 10
-5.0579286375
 20
10.1352558376
 10
-5.0567684635
 20
10.1493688228
 10
-5.0552900687
 20
10.1632873884
 10
-5.0534937299
 20
10.1770185017
 10
-5.0513820667
 20
10.190540658
 10
-5.0489537341
 20
10.2038596741
 10
-5.0462101208
 20
10.2169697128
 10
-5.0431579749
 20
10.2298317769
 10
-5.0397973974
 20
10.2424398369
 10
-5.0361283694
 20
10.2547998848
 10
-5.032157487
 20
10.2668909422
 10
-5.0278828366
 20
10.2787177225
 10
-5.0233064287
 20
10.2902754684
 10
-5.0184407714
 20
10.301528984
 10
-5.0132863319
 20
10.3124728472
 10
-5.0078427729
 20
10.3231124215
 10
-5.0021214214
 20
10.3334286781
 10
-4.9961211399
 20
10.343423496
 10
-4.9898432077
 20
10.3530949326
 10
-4.9833025963
 20
10.3624182176
 10
-4.9765004769
 20
10.3713897516
 10
-4.9694358387
 20
10.3800130623
 10
-4.9621203981
 20
10.3882740638
 10
-4.9545519343
 20
10.3961749465
 10
-4.9467328316
 20
10.403713447
 10
-4.938681729
 20
10.4108687926
  0
LINE
  5
3FC
100
AcDbEntity
  8
0
100
AcDbLine
 62
7
  6
CONTINUOUS
 10
0.6923219041
 20
-12.7213642792
 11
0.6952679484
 21
-12.7362419794
  0
LINE
  5
3FD
100
AcDbEntity
  8
0
100
AcDbLine
 62
7
  6
CONTINUOUS
 10
0.1793464698
 20
-12.645338185
 11
0.1786047201
 21
-12.6415111667
  0
LINE
  5
3FE
100
AcDbEntity
  8
0
100
AcDbLine
 62
7
  6
CONTINUOUS
 10
-4.5251661057
 20
9.9092327456
 11
-4.5244387763
 21
9.905284843
  0
LINE
  5
3FF
100
AcDbEntity
  8
0
100
AcDbLine
 62
7
  6
CONTINUOUS
 10
0.1799427997
 20
-12.6490118205
 11
0.1793176916
 21
-12.6451772212
  0
LINE
  5
400
100
AcDbEntity
  8
0
100
AcDbLine
 62
7
  6
CONTINUOUS
 10
-4.5262078752
 20
9.9167211513
 11
-4.5257363577
 21
9.9129343698
  0
LWPOLYLINE
  5
401
100
AcDbEntity
  8
0
100
AcDbPolyline
 62
7
  6
CONTINUOUS
 90
3
 70
0
 10
-1.898717509
 20
-11.3215672704
 10
-1.8997759921
 20
-11.3128810084
 10
-1.9006083418
 20
-11.3043018112
  0
LINE
  5
402
100
AcDbEntity
  8
0
100
AcDbLine
 62
7
  6
CONTINUOUS
 10
0.180779685
 20
-12.6562687833
 11
0.1803925412
 21
-12.6524000689
  0
LINE
  5
403
100
AcDbEntity
  8
0
100
AcDbLine
 62
7
  6
CONTINUOUS
 10
0.1810156581
 20
-12.6598301501
 11
0.1807537201
 21
-12.6559597601
  0
LWPOLYLINE
  5
404
100
AcDbEntity
  8
0
100
AcDbPolyline
 62
7
  6
CONTINUOUS
 90
3
 70
0
 10
-1.9008623803
 20
8.2299893971
 10
-1.9013852258
 20
8.2389430561
 10
-1.9016816047
 20
8.2477898824
  0
LINE
  5
405
100
AcDbEntity
  8
0
100
AcDbLine
 62
7
  6
CONTINUOUS
 10
0.181130357
 20
-12.6633480592
 11
0.1809980044
 21
-12.6594881634
  0
LINE
  5
406
100
AcDbEntity
  8
0
100
AcDbLine
 62
7
  6
CONTINUOUS
 10
0.1808522515
 20
7.5775599569
 11
0.1809883832
 21
7.5816160371
  0
LINE
  5
407
100
AcDbEntity
  8
0
100
AcDbLine
 62
7
  6
CONTINUOUS
 10
0.1806060747
 20
7.5740402011
 11
0.1808723737
 21
7.5779570453
  0
LINE
  5
408
100
AcDbEntity
  8
0
100
AcDbLine
 62
7
  6
CONTINUOUS
 10
0.1802437289
 20
7.5706063118
 11
0.1806350401
 21
7.5743781023
  0
LWPOLYLINE
  5
409
100
AcDbEntity
  8
0
100
AcDbPolyline
 62
7
  6
CONTINUOUS
 90
5
 70
0
 10
0.7038307138
 20
7.1809344124
 10
0.7021157848
 20
7.1671873568
 10
0.7000884976
 20
7.1536327351
 10
0.6977547075
 20
7.1403101949
 10
0.6951147379
 20
7.1272269277
  0
LINE
  5
40A
100
AcDbEntity
  8
0
100
AcDbLine
 62
7
  6
CONTINUOUS
 10
0.1797641298
 20
7.5672555994
 11
0.180275841
 21
7.5708780159
  0
LWPOLYLINE
  5
40B
100
AcDbEntity
  8
0
100
AcDbPolyline
 62
7
  6
CONTINUOUS
 90
3
 70
0
 10
-2.4697196278
 20
-11.0523620813
 10
-2.4709110005
 20
-11.0597856032
 10
-2.4723254726
 20
-11.0670448195
  0
LWPOLYLINE
  5
40C
100
AcDbEntity
  8
0
100
AcDbPolyline
 62
7
  6
CONTINUOUS
 90
3
 70
0
 10
-1.8991306003
 20
-11.2397007348
 10
-1.8979300232
 20
-11.2322727076
 10
-1.8965050122
 20
-11.225008336
  0
LINE
  5
40D
100
AcDbEntity
  8
0
100
AcDbLine
 62
7
  6
CONTINUOUS
 10
0.1791682085
 20
7.5639894488
 11
0.1797953139
 21
7.5674579764
  0
LINE
  5
40E
100
AcDbEntity
  8
0
100
AcDbLine
 62
7
  6
CONTINUOUS
 10
0.1784552956
 20
7.5608024172
 11
0.1791975649
 21
7.5641348416
  0
LWPOLYLINE
  5
40F
100
AcDbEntity
  8
0
100
AcDbPolyline
 62
7
  6
CONTINUOUS
 90
5
 70
0
 10
0.6921681979
 20
7.1143757126
 10
0.6889198445
 20
7.101774567
 10
0.6853674253
 20
7.0894174485
 10
0.6815131135
 20
7.0773103647
 10
0.6773682784
 20
7.0654893962
  0
LINE
  5
410
100
AcDbEntity
  8
0
100
AcDbLine
 62
7
  6
CONTINUOUS
 10
-5.0290333869
 20
-9.7697000795
 11
-5.0245655908
 21
-9.7594696644
  0
LWPOLYLINE
  5
411
100
AcDbEntity
  8
0
100
AcDbPolyline
 62
250
  6
CONTINUOUS
 90
55
 70
0
 10
5.8777296036
 20
3.1227392961
 10
5.8671941935
 20
3.1181994539
 10
5.856391464
 20
3.1138111862
 10
5.8453301534
 20
3.1095780427
 10
5.8340192097
 20
3.1055034478
 10
5.8224677824
 20
3.1015906974
 10
5.8106852157
 20
3.0978429567
 10
5.7986810409
 20
3.0942632572
 10
5.7864649684
 20
3.0908544948
 10
5.77404688
 20
3.0876194268
 10
5.7614368211
 20
3.0845606701
 10
5.7486449921
 20
3.0816806991
 10
5.7356817406
 20
3.0789818434
 10
5.722557553
 20
3.0764662862
 10
5.7092830457
 20
3.0741360623
 10
5.6958689567
 20
3.0719930568
 10
5.6823261369
 20
3.0700390031
 10
5.6686655416
 20
3.0682754819
 10
5.6548982209
 20
3.0667039199
 10
5.6410353117
 20
3.0653255882
 10
5.627088028
 20
3.0641416018
 10
5.6130676519
 20
3.0631529186
 10
5.598985525
 20
3.0623603381
 10
5.5848530385
 20
3.0617645017
 10
5.5706816246
 20
3.0613658912
 10
5.5564827467
 20
3.0611648291
 10
5.5422678908
 20
3.0611614781
 10
5.5280485555
 20
3.0613558408
 10
5.5138362431
 20
3.0617477601
 10
5.4996424504
 20
3.062336919
 10
5.485478659
 20
3.0631228407
 10
5.4713563262
 20
3.0641048896
 10
5.457286876
 20
3.0652822713
 10
5.4432816895
 20
3.0666540333
 10
5.4293520958
 20
3.0682190661
 10
5.4155093628
 20
3.0699761036
 10
5.4017646882
 20
3.0719237245
 10
5.3881291904
 20
3.0740603534
 10
5.3746138995
 20
3.0763842618
 10
5.3612297483
 20
3.07889357
 10
5.3479875634
 20
3.081586248
 10
5.334898057
 20
3.0844601178
 10
5.3219718172
 20
3.0875128545
 10
5.3092193005
 20
3.0907419888
 10
5.2966508226
 20
3.0941449085
 10
5.2842765504
 20
3.0977188609
 10
5.2721064939
 20
3.101460955
 10
5.2601504975
 20
3.1053681638
 10
5.2484182329
 20
3.1094373265
 10
5.2369191904
 20
3.1136651516
 10
5.225662672
 20
3.1180482191
 10
5.2146577832
 20
3.1225829833
 10
5.2039134262
 20
3.1272657761
 10
5.1934382923
 20
3.1320928095
 10
5.1832408551
 20
3.1370601786
  0
LWPOLYLINE
  5
412
100
AcDbEntity
  8
0
100
AcDbPolyline
 62
250
  6
CONTINUOUS
 90
43
 70
0
 10
-5.7478355869
 20
1.0033733724
 10
-5.7424792386
 20
1.0007927153
 10
-5.7369346996
 20
0.9983130445
 10
-5.7312096385
 20
0.9959377896
 10
-5.7253119735
 20
0.9936702359
 10
-5.7192498618
 20
0.9915135195
 10
-5.7130316878
 20
0.9894706234
 10
-5.7066660519
 20
0.9875443731
 10
-5.7001617583
 20
0.9857374328
 10
-5.6935278031
 20
0.9840523018
 10
-5.6867733617
 20
0.9824913106
 10
-5.6799077761
 20
0.9810566183
 10
-5.6729405421
 20
0.9797502092
 10
-5.6658812961
 20
0.9785738902
 10
-5.6587398016
 20
0.9775292882
 10
-5.6515259361
 20
0.9766178481
 10
-5.6442496769
 20
0.9758408304
 10
-5.6369210879
 20
0.9751993099
 10
-5.6295503053
 20
0.9746941738
 10
-5.6221475234
 20
0.9743261207
 10
-5.6147229812
 20
0.9740956598
 10
-5.6072869473
 20
0.9740031098
 10
-5.5998497066
 20
0.9740485986
 10
-5.5924215455
 20
0.9742320635
 10
-5.5850127378
 20
0.9745532505
 10
-5.5776335307
 20
0.9750117155
 10
-5.5702941303
 20
0.9756068244
 10
-5.5630046876
 20
0.9763377541
 10
-5.5557752848
 20
0.9772034936
 10
-5.5486159206
 20
0.9782028456
 10
-5.5415364974
 20
0.9793344278
 10
-5.5345468064
 20
0.9805966752
 10
-5.5276565152
 20
0.9819878419
 10
-5.5208751538
 20
0.9835060039
 10
-5.5142121012
 20
0.9851490613
 10
-5.5076765733
 20
0.9869147417
 10
-5.5012776093
 20
0.9888006029
 10
-5.4950240596
 20
0.9908040367
 10
-5.4889245733
 20
0.992922272
 10
-5.4829875867
 20
0.9951523792
 10
-5.4772213113
 20
0.9974912739
 10
-5.4716337223
 20
0.999935721
 10
-5.4662325478
 20
1.0024823397
  0
LINE
  5
413
100
AcDbEntity
  8
0
100
AcDbLine
 62
7
  6
CONTINUOUS
 10
-5.1997544644
 20
1.2541900277
 11
0.7371316799
 21
-1.7142530444
  0
LINE
  5
414
100
AcDbEntity
  8
0
100
AcDbLine
 62
250
  6
CONTINUOUS
 10
-5.2517324663
 20
1.3628842306
 11
0.685153678
 21
-1.6055588416
  0
LWPOLYLINE
  5
415
100
AcDbEntity
  8
0
100
AcDbPolyline
 62
7
  6
CONTINUOUS
 90
67
 70
0
 10
0.7371326898
 20
-1.7142535744
 10
0.7421914428
 20
-1.716832006
 10
0.7498333486
 20
-1.7209110862
 10
0.7576081613
 20
-1.7252853434
 10
0.7655078599
 20
-1.7299587165
 10
0.7735214507
 20
-1.7349328231
 10
0.7816352012
 20
-1.7402067947
 10
0.7898399031
 20
-1.7457820113
 10
0.7981260717
 20
-1.7516591957
 10
0.8064800263
 20
-1.757835418
 10
0.8148919523
 20
-1.764309911
 10
0.8233525199
 20
-1.7710818455
 10
0.831849378
 20
-1.7781473128
 10
0.8403728054
 20
-1.7855039571
 10
0.8489136276
 20
-1.7931495031
 10
0.8574608757
 20
-1.8010794972
 10
0.8660051182
 20
-1.8092903287
 10
0.8745372176
 20
-1.8177782933
 10
0.8830471603
 20
-1.8265383143
 10
0.8915258134
 20
-1.8355656435
 10
0.8999642333
 20
-1.8448553515
 10
0.908353147
 20
-1.8544017079
 10
0.9166842954
 20
-1.8641996011
 10
0.9249484318
 20
-1.8742423667
 10
0.9331352563
 20
-1.8845215022
 10
0.9412368078
 20
-1.89503076
 10
0.9492443521
 20
-1.9057624412
 10
0.9571469809
 20
-1.9167052927
 10
0.9649367964
 20
-1.9278513964
 10
0.9726061197
 20
-1.9391926109
 10
0.9801449856
 20
-1.9507168031
 10
0.9875461339
 20
-1.962415163
 10
0.9948025459
 20
-1.9742786636
 10
1.0019052358
 20
-1.9862944054
 10
1.0088476683
 20
-1.998452823
 10
1.0156235709
 20
-2.0107441671
 10
1.0222249763
 20
-2.0231548824
 10
1.0286461544
 20
-2.0356747779
 10
1.0348816605
 20
-2.048293548
 10
1.0409246038
 20
-2.060997123
 10
1.0467701584
 20
-2.0737748738
 10
1.0524137586
 20
-2.0866160518
 10
1.0578495994
 20
-2.0995061069
 10
1.0630737767
 20
-2.1124339777
 10
1.0680827444
 20
-2.1253887724
 10
1.0728719762
 20
-2.1383559549
 10
1.0774385724
 20
-2.1513242401
 10
1.0817800329
 20
-2.1642827089
 10
1.0858931838
 20
-2.1772172032
 10
1.0897762645
 20
-2.1901166957
 10
1.0934277452
 20
-2.2029700741
 10
1.0968455753
 20
-2.2157629303
 10
1.1000291282
 20
-2.2284844731
 10
1.1029779818
 20
-2.2411237098
 10
1.1056912419
 20
-2.2536658675
 10
1.1081694658
 20
-2.2661005158
 10
1.1104134367
 20
-2.2784170367
 10
1.1124235371
 20
-2.2906003758
 10
1.1142015455
 20
-2.3026404844
 10
1.1157495291
 20
-2.3145272861
 10
1.1170693174
 20
-2.3262457223
 10
1.1181639709
 20
-2.3377865526
 10
1.1190368883
 20
-2.3491407358
 10
1.1196914665
 20
-2.360293742
 10
1.1201319868
 20
-2.371234827
 10
1.120363339
 20
-2.3819570272
 10
1.1204035157
 20
-2.3893425087
  0
LWPOLYLINE
  5
416
100
AcDbEntity
  8
0
100
AcDbPolyline
 62
250
  6
CONTINUOUS
 90
61
 70
0
 10
0.685153678
 20
-1.6055588416
 10
0.6980024659
 20
-1.6121847641
 10
0.7108491269
 20
-1.6192234149
 10
0.7236936626
 20
-1.6266747934
 10
0.7365487825
 20
-1.6345452081
 10
0.7494017829
 20
-1.6428283476
 10
0.7622145459
 20
-1.65150528
 10
0.7749864616
 20
-1.6605778146
 10
0.7877181516
 20
-1.6700441363
 10
0.8003733471
 20
-1.6798798766
 10
0.812951384
 20
-1.6900866301
 10
0.8254529436
 20
-1.7006627937
 10
0.8378437761
 20
-1.7115792012
 10
0.8501208004
 20
-1.7228346015
 10
0.8622871196
 20
-1.7344302347
 10
0.8743177613
 20
-1.7463406711
 10
0.8862105927
 20
-1.7585642839
 10
0.8979677728
 20
-1.7711026868
 10
0.9095707676
 20
-1.7839353105
 10
0.9210204813
 20
-1.7970635003
 10
0.93231604
 20
-1.8104858959
 10
0.9434362428
 20
-1.824177869
 10
0.9543821896
 20
-1.8381417756
 10
0.9651528139
 20
-1.852375243
 10
0.9757236648
 20
-1.8668465498
 10
0.9860939939
 20
-1.8815560156
 10
0.9962645852
 20
-1.8965033031
 10
1.0062132845
 20
-1.9116557068
 10
1.015938889
 20
-1.9270124846
 10
1.0254426384
 20
-1.9425743602
 10
1.0347060405
 20
-1.9583108275
 10
1.0437287287
 20
-1.9742221938
 10
1.052511107
 20
-1.9903081332
 10
1.0610358367
 20
-2.0065371912
 10
1.0693030367
 20
-2.0229109286
 10
1.0773126252
 20
-2.0394277662
 10
1.0850469599
 20
-2.0560515412
 10
1.0925054488
 20
-2.072782834
 10
1.0996887194
 20
-2.0896210465
 10
1.1065809554
 20
-2.1065282501
 10
1.1131806854
 20
-2.1235023218
 10
1.1194894136
 20
-2.1405453683
 10
1.1254957831
 20
-2.1576258071
 10
1.1311991091
 20
-2.1747422685
 10
1.1366001066
 20
-2.1918961071
 10
1.1416895139
 20
-2.2090598289
 10
1.1464678037
 20
-2.2262364157
 10
1.1509345312
 20
-2.2434228719
 10
1.1550790543
 20
-2.2605827393
 10
1.158901094
 20
-2.2777196481
 10
1.1624009526
 20
-2.2948299566
 10
1.1655688547
 20
-2.311866302
 10
1.1684031944
 20
-2.3288285903
 10
1.1709055938
 20
-2.3457169074
 10
1.1730711116
 20
-2.362484164
 10
1.1748980193
 20
-2.379130058
 10
1.1763880538
 20
-2.3956548872
 10
1.1775414634
 20
-2.412012467
 10
1.1783583291
 20
-2.4281874033
 10
1.1788385692
 20
-2.4441950905
 10
1.1789821839
 20
-2.4600355283
  0
LWPOLYLINE
  5
417
100
AcDbEntity
  8
0
100
AcDbPolyline
 62
7
  6
CONTINUOUS
 90
4
 70
0
 10
-4.971850213
 20
9.7254324937
 10
-4.9787963445
 20
9.7402781373
 10
-4.9854897623
 20
9.7552546855
 10
-4.9919273795
 20
9.7703547338
  0
LINE
  5
418
100
AcDbEntity
  8
0
100
AcDbLine
 62
7
  6
CONTINUOUS
 10
-4.5147812414
 20
9.8749596595
 11
-4.513038047
 21
9.8711570761
  0
LWPOLYLINE
  5
419
100
AcDbEntity
  8
0
100
AcDbPolyline
 62
7
  6
CONTINUOUS
 90
4
 70
0
 10
-5.0039743711
 20
9.8007860973
 10
-5.0095835914
 20
9.8161174817
 10
-5.0149101239
 20
9.8315064431
 10
-5.0199561256
 20
9.84696105
  0
LWPOLYLINE
  5
41A
100
AcDbEntity
  8
0
100
AcDbPolyline
 62
7
  6
CONTINUOUS
 90
4
 70
0
 10
-4.5191968465
 20
9.8861492665
 10
-4.5178156801
 20
9.8823575652
 10
-4.5163269918
 20
9.8785905659
 10
-4.5147318979
 20
9.8748507044
  0
LINE
  5
41B
100
AcDbEntity
  8
0
100
AcDbLine
 62
7
  6
CONTINUOUS
 10
-2.4853377802
 20
8.6753829643
 11
-2.4826047632
 21
8.6659990348
  0
LWPOLYLINE
  5
41C
100
AcDbEntity
  8
0
100
AcDbPolyline
 62
7
  6
CONTINUOUS
 90
6
 70
0
 10
-2.482632728
 20
8.6660972509
 10
-2.4801404201
 20
8.6568111936
 10
-2.4778621078
 20
8.64752555
 10
-2.4757964884
 20
8.6382395858
 10
-2.4739484123
 20
8.6289802537
 10
-2.4723176175
 20
8.619746526
  0
LWPOLYLINE
  5
41D
100
AcDbEntity
  8
0
100
AcDbPolyline
 62
7
  6
CONTINUOUS
 90
3
 70
0
 10
-2.4801267806
 20
8.6567580705
 10
-2.4778580859
 20
8.6475085052
 10
-2.4757982226
 20
8.6382504126
  0
LINE
  5
41E
100
AcDbEntity
  8
0
100
AcDbLine
 62
7
  6
CONTINUOUS
 10
-1.8948703351
 20
8.1842314748
 11
-1.8965129201
 21
8.1934584066
  0
LWPOLYLINE
  5
41F
100
AcDbEntity
  8
0
100
AcDbPolyline
 62
7
  6
CONTINUOUS
 90
3
 70
0
 10
-2.4739530362
 20
8.6290048203
 10
-2.4723213619
 20
8.619763799
 10
-2.470904316
 20
8.6105353
  0
LINE
  5
420
100
AcDbEntity
  8
0
100
AcDbLine
 62
7
  6
CONTINUOUS
 10
0.7002401321
 20
-12.7657530976
 11
0.7022663388
 21
-12.7803864776
  0
LINE
  5
421
100
AcDbEntity
  8
0
100
AcDbLine
 62
7
  6
CONTINUOUS
 10
0.1804218814
 20
-12.6526620297
 11
0.1799134396
 21
-12.648805056
  0
LWPOLYLINE
  5
422
100
AcDbEntity
  8
0
100
AcDbPolyline
 62
7
  6
CONTINUOUS
 90
8
 70
0
 10
-1.8979367458
 20
8.2026593761
 10
-1.8991361479
 20
8.2118043879
 10
-1.9001096734
 20
8.2208926987
 10
-1.9008587471
 20
8.2299250643
 10
-1.9013820352
 20
8.2388737326
 10
-1.9016795899
 20
8.2477391548
 10
-1.9017513442
 20
8.2565208861
 10
-1.9015957997
 20
8.2651898233
  0
LWPOLYLINE
  5
423
100
AcDbEntity
  8
0
100
AcDbPolyline
 62
7
  6
CONTINUOUS
 90
8
 70
0
 10
-2.4709043249
 20
8.610539449
 10
-2.4697141212
 20
8.6013890807
 10
-2.468748434
 20
8.5922961822
 10
-2.4680058076
 20
8.5832600053
 10
-2.467487518
 20
8.5743083379
 10
-2.4671934996
 20
8.5654407408
 10
-2.4671238034
 20
8.5566576599
 10
-2.4672798944
 20
8.5479882046
  0
LINE
  5
424
100
AcDbEntity
  8
0
100
AcDbLine
 62
7
  6
CONTINUOUS
 10
0.703684174
 20
7.3275199021
 11
0.7051183285
 21
7.3122688203
  0
LWPOLYLINE
  5
425
100
AcDbEntity
  8
0
100
AcDbPolyline
 62
7
  6
CONTINUOUS
 90
11
 70
0
 10
0.1808482227
 20
7.589137923
 10
0.1805920538
 20
7.5930008178
 10
0.1802117762
 20
7.5969063533
 10
0.179706857
 20
7.600852305
 10
0.1790778246
 20
7.6048408955
 10
0.1783259718
 20
7.6088546707
 10
0.1774507369
 20
7.6128945209
 10
0.1764526739
 20
7.6169595525
 10
0.1753347453
 20
7.6210296331
 10
0.1740967279
 20
7.6251041853
 10
0.1727388337
 20
7.6291837816
  0
LWPOLYLINE
  5
426
100
AcDbEntity
  8
0
100
AcDbPolyline
 62
7
  6
CONTINUOUS
 90
12
 70
0
 10
0.1808738702
 20
7.5885963122
 10
0.180637634
 20
7.5924267987
 10
0.1802784817
 20
7.596302475
 10
0.1797954128
 20
7.6002204591
 10
0.179189424
 20
7.6041836312
 10
0.1784620109
 20
7.6081720914
 10
0.1776150302
 20
7.6121794994
 10
0.1766466174
 20
7.616212192
 10
0.1755526839
 20
7.6202692831
 10
0.1743327675
 20
7.6243556714
 10
0.1729873229
 20
7.6284664549
 10
0.171264674
 20
7.6332500125
  0
LINE
  5
427
100
AcDbEntity
  8
0
100
AcDbLine
 62
7
  6
CONTINUOUS
 10
0.706236759
 20
7.2971308422
 11
0.7070403916
 21
7.2820990379
  0
LINE
  5
428
100
AcDbEntity
  8
0
100
AcDbLine
 62
7
  6
CONTINUOUS
 10
0.1809886848
 20
7.584839556
 11
0.1808482227
 21
7.589137923
  0
LWPOLYLINE
  5
429
100
AcDbEntity
  8
0
100
AcDbPolyline
 62
250
  6
CONTINUOUS
 90
27
 70
0
 10
1.1786203928
 20
-2.8501061776
 10
1.1787022531
 20
-2.8560794776
 10
1.1789545738
 20
-2.8619604428
 10
1.1793770508
 20
-2.8677419802
 10
1.179969175
 20
-2.873417118
 10
1.1807302324
 20
-2.8789790105
 10
1.181659305
 20
-2.8844209468
 10
1.182755272
 20
-2.8897363629
 10
1.1840168119
 20
-2.894918849
 10
1.1854424028
 20
-2.8999621543
 10
1.1870303256
 20
-2.9048601963
 10
1.1887786649
 20
-2.909607068
 10
1.1906853121
 20
-2.9141970443
 10
1.1927479677
 20
-2.9186245897
 10
1.1949641439
 20
-2.9228843643
 10
1.1973311676
 20
-2.9269712305
 10
1.1998461839
 20
-2.9308802594
 10
1.2025061597
 20
-2.9346067368
 10
1.2053078865
 20
-2.9381461686
 10
1.2082479857
 20
-2.9414942864
 10
1.211322911
 20
-2.9446470522
 10
1.214528953
 20
-2.947600663
 10
1.2178622444
 20
-2.9503515568
 10
1.2213187654
 20
-2.9528964165
 10
1.224894348
 20
-2.955232174
 10
1.2285846816
 20
-2.9573560133
 10
1.2305989472
 20
-2.958401531
  0
LWPOLYLINE
  5
42A
100
AcDbEntity
  8
0
100
AcDbPolyline
 62
250
  6
CONTINUOUS
 90
25
 70
0
 10
0.685153678
 20
-1.6055588416
 10
0.6852360618
 20
-1.6119707155
 10
0.6855146809
 20
-1.618276233
 10
0.6859891484
 20
-1.6244666395
 10
0.6866588056
 20
-1.6305333401
 10
0.6875227228
 20
-1.6364679118
 10
0.6885797003
 20
-1.6422621149
 10
0.6898282707
 20
-1.6479079048
 10
0.6912667006
 20
-1.6533974429
 10
0.6928929927
 20
-1.6587231073
 10
0.694704889
 20
-1.663877504
 10
0.696699874
 20
-1.6688534765
 10
0.6988751778
 20
-1.6736441161
 10
0.7012277801
 20
-1.6782427715
 10
0.7037544146
 20
-1.6826430579
 10
0.7064515732
 20
-1.6868388659
 10
0.7093155113
 20
-1.69082437
 10
0.7123422525
 20
-1.6945940367
 10
0.7155275945
 20
-1.6981426322
 10
0.7188671146
 20
-1.7014652296
 10
0.7223561763
 20
-1.7045572159
 10
0.7259899353
 20
-1.7074142979
 10
0.7297633466
 20
-1.7100325091
 10
0.733671171
 20
-1.7124082141
 10
0.7371316799
 20
-1.7142530444
  0
LINE
  5
42B
100
AcDbEntity
  8
0
100
AcDbLine
 62
250
  6
CONTINUOUS
 10
1.120047884
 20
-2.7799597297
 11
1.1200417457
 21
-2.7794048335
  0
LINE
  5
42C
100
AcDbEntity
  8
0
100
AcDbLine
 62
7
  6
CONTINUOUS
 10
1.1203524748
 20
-3.7314059622
 11
1.1204035271
 21
-3.7720825423
  0
LINE
  5
42D
100
AcDbEntity
  8
0
100
AcDbLine
 62
7
  6
CONTINUOUS
 10
1.1202524497
 20
-3.6432343571
 11
1.1203524748
 21
-3.7314059622
  0
LWPOLYLINE
  5
42E
100
AcDbEntity
  8
0
100
AcDbPolyline
 62
250
  6
CONTINUOUS
 90
3
 70
0
 10
1.1788300163
 20
-3.7129263301
 10
1.178877231
 20
-3.7562230279
 10
1.1789821839
 20
-3.842811052
  0
LINE
  5
42F
100
AcDbEntity
  8
0
100
AcDbLine
 62
7
  6
CONTINUOUS
 10
1.1201669731
 20
-3.5550553341
 11
1.1202524497
 21
-3.6432343571
  0
LINE
  5
430
100
AcDbEntity
  8
0
100
AcDbLine
 62
250
  6
CONTINUOUS
 10
1.1787461104
 20
-3.6263275657
 11
1.1788300163
 21
-3.7129263301
  0
LINE
  5
431
100
AcDbEntity
  8
0
100
AcDbLine
 62
7
  6
CONTINUOUS
 10
1.1200960449
 20
-3.4668688965
 11
1.1201669731
 21
-3.5550553341
  0
LINE
  5
432
100
AcDbEntity
  8
0
100
AcDbLine
 62
250
  6
CONTINUOUS
 10
1.1786762359
 20
-3.539721642
 11
1.1787461104
 21
-3.6263275657
  0
LINE
  5
433
100
AcDbEntity
  8
0
100
AcDbLine
 62
7
  6
CONTINUOUS
 10
1.1200417466
 20
-3.3823900433
 11
1.1200960449
 21
-3.4668688965
  0
LINE
  5
434
100
AcDbEntity
  8
0
100
AcDbLine
 62
250
  6
CONTINUOUS
 10
1.1786203928
 20
-3.4531085615
 11
1.1786762359
 21
-3.539721642
  0
LINE
  5
435
100
AcDbEntity
  8
0
100
AcDbLine
 62
7
  6
CONTINUOUS
 10
1.1204035267
 20
-2.389343202
 11
1.1200417465
 21
-2.7794034384
  0
LINE
  5
436
100
AcDbEntity
  8
0
100
AcDbLine
 62
250
  6
CONTINUOUS
 10
1.1789821839
 20
-2.4600355283
 11
1.1786203928
 21
-2.8501061776
  0
LINE
  5
437
100
AcDbEntity
  8
0
100
AcDbLine
 62
7
  6
CONTINUOUS
 10
0.1809811806
 20
7.581162892
 11
0.1809805773
 21
7.5853417922
  0
LINE
  5
438
100
AcDbEntity
  8
0
100
AcDbLine
 62
7
  6
CONTINUOUS
 10
0.1811214114
 20
-12.6668082733
 11
0.1811243719
 21
-12.6629812417
  0
LWPOLYLINE
  5
439
100
AcDbEntity
  8
0
100
AcDbPolyline
 62
7
  6
CONTINUOUS
 90
37
 70
0
 10
1.1204035097
 20
-3.7720829962
 10
1.1203693824
 20
-3.7788775004
 10
1.1201614799
 20
-3.7888177376
 10
1.1197720578
 20
-3.7984928098
 10
1.1192092564
 20
-3.8078879918
 10
1.118480579
 20
-3.8170083274
 10
1.1175911737
 20
-3.825876075
 10
1.1165477084
 20
-3.8344869256
 10
1.1153572996
 20
-3.8428354149
 10
1.1140235736
 20
-3.8509386087
 10
1.1125528106
 20
-3.858791839
 10
1.1109520267
 20
-3.866388339
 10
1.1092246263
 20
-3.873738578
 10
1.1073772087
 20
-3.880837291
 10
1.1054172113
 20
-3.8876776565
 10
1.1033489248
 20
-3.8942644797
 10
1.1011798523
 20
-3.9005921918
 10
1.098918404
 20
-3.9066543
 10
1.0965707989
 20
-3.9124512556
 10
1.0941457571
 20
-3.9179782592
 10
1.0916531998
 20
-3.9232296527
 10
1.0891024787
 20
-3.928202576
 10
1.0865045357
 20
-3.9328928852
 10
1.0838700544
 20
-3.9372989644
 10
1.0812093807
 20
-3.9414209683
 10
1.0785355724
 20
-3.9452565798
 10
1.0758583593
 20
-3.9488102927
 10
1.0731830508
 20
-3.9520923533
 10
1.0705230828
 20
-3.9551034373
 10
1.0678840319
 20
-3.9578548134
 10
1.065255956
 20
-3.9603715016
 10
1.0626493554
 20
-3.9626567037
 10
1.0600604472
 20
-3.9647271012
 10
1.0574490745
 20
-3.9666225049
 10
1.0547946646
 20
-3.9683596291
 10
1.052100186
 20
-3.9699378433
 10
1.0506869997
 20
-3.9706946677
  0
LWPOLYLINE
  5
43A
100
AcDbEntity
  8
0
100
AcDbPolyline
 62
250
  6
CONTINUOUS
 90
61
 70
0
 10
1.1789821839
 20
-3.842811052
 10
1.1788385167
 20
-3.85846919
 10
1.1783580969
 20
-3.8739569674
 10
1.1775409245
 20
-3.8892743841
 10
1.1763870462
 20
-3.9044370425
 10
1.1748964159
 20
-3.91942934
 10
1.1730688897
 20
-3.9342044709
 10
1.1709027309
 20
-3.9487608196
 10
1.1683996676
 20
-3.9631000062
 10
1.1655647458
 20
-3.977180083
 10
1.1623963761
 20
-3.9909994401
 10
1.1588961315
 20
-4.0045596957
 10
1.1550737936
 20
-4.0178237475
 10
1.1509290995
 20
-4.0307876833
 10
1.1464622887
 20
-4.0434554269
 10
1.1416838902
 20
-4.0558016333
 10
1.1365943276
 20
-4.0678239046
 10
1.1311931496
 20
-4.0795246525
 10
1.125489569
 20
-4.0908857484
 10
1.119482829
 20
-4.1019079166
 10
1.1131736562
 20
-4.1125904479
 10
1.1065734849
 20
-4.1229130655
 10
1.0996808192
 20
-4.1328763542
 10
1.0924971223
 20
-4.1424797456
 10
1.0850382631
 20
-4.1517012355
 10
1.0773036475
 20
-4.1605395996
 10
1.069293834
 20
-4.1689960802
 10
1.0610264182
 20
-4.1770523743
 10
1.0525014814
 20
-4.1847070434
 10
1.043718905
 20
-4.1919615447
 10
1.0346959811
 20
-4.1988019203
 10
1.0254322767
 20
-4.2052275016
 10
1.0159281874
 20
-4.2112389759
 10
1.0062022458
 20
-4.2168244203
 10
0.9962532
 20
-4.2219833498
 10
0.986082265
 20
-4.2267162679
 10
0.9757116724
 20
-4.2310127355
 10
0.9651406832
 20
-4.2348716525
 10
0.9543700008
 20
-4.2382941369
 10
0.9434240196
 20
-4.2412730773
 10
0.9323038466
 20
-4.2438072204
 10
0.9210083414
 20
-4.2458978364
 10
0.9095585268
 20
-4.2475416002
 10
0.8979552121
 20
-4.2487380797
 10
0.8861975578
 20
-4.2494877221
 10
0.8743041134
 20
-4.2497885207
 10
0.8622726168
 20
-4.2496399293
 10
0.850105304
 20
-4.2490425073
 10
0.8378274717
 20
-4.2479959061
 10
0.8254360365
 20
-4.2464982481
 10
0.8129340599
 20
-4.244551422
 10
0.8003560572
 20
-4.2421607282
 10
0.7877014358
 20
-4.2393239139
 10
0.7749707712
 20
-4.2360432405
 10
0.7622003322
 20
-4.2323307805
 10
0.7493896497
 20
-4.2281841962
 10
0.7365391813
 20
-4.223605831
 10
0.7236865863
 20
-4.2186147785
 10
0.7108444162
 20
-4.2132174041
 10
0.6980001139
 20
-4.2074073453
 10
0.685153678
 20
-4.2011846028
  0
LWPOLYLINE
  5
43B
100
AcDbEntity
  8
0
100
AcDbPolyline
 62
250
  6
CONTINUOUS
 90
43
 70
0
 10
0.685153678
 20
-4.2011846028
 10
0.6852360618
 20
-4.1946903462
 10
0.6855146808
 20
-4.1881062107
 10
0.6859891482
 20
-4.1814413377
 10
0.6866588052
 20
-4.174704981
 10
0.687522722
 20
-4.1679064931
 10
0.6885796993
 20
-4.1610553133
 10
0.6898282694
 20
-4.1541609537
 10
0.6912666989
 20
-4.1472329866
 10
0.6928929906
 20
-4.1402810308
 10
0.6947048866
 20
-4.1333147384
 10
0.6966998712
 20
-4.1263437814
 10
0.6988751745
 20
-4.1193778385
 10
0.7012277765
 20
-4.1124265811
 10
0.7037544106
 20
-4.1054996605
 10
0.7064515689
 20
-4.098606694
 10
0.7093155066
 20
-4.0917572519
 10
0.7123422475
 20
-4.084960844
 10
0.7155275892
 20
-4.0782269065
 10
0.7188671091
 20
-4.0715647889
 10
0.7223561705
 20
-4.0649837408
 10
0.7259899294
 20
-4.0584928994
 10
0.7297633405
 20
-4.0521012768
 10
0.7336711648
 20
-4.045817747
 10
0.7377079766
 20
-4.0396510341
 10
0.7418681713
 20
-4.0336097001
 10
0.7461459727
 20
-4.0277021328
 10
0.7505354415
 20
-4.0219365343
 10
0.7550304835
 20
-4.0163209097
 10
0.7596248575
 20
-4.0108630556
 10
0.7643121847
 20
-4.0055705498
 10
0.7690859573
 20
-4.0004507405
 10
0.7739395473
 20
-3.9955107361
 10
0.7788662159
 20
-3.9907573952
 10
0.7838591229
 20
-3.9861973175
 10
0.7889113361
 20
-3.9818368342
 10
0.7940158409
 20
-3.9776819995
 10
0.7991655504
 20
-3.9737385819
 10
0.8043533144
 20
-3.9700120564
 10
0.8095719304
 20
-3.9665075972
 10
0.8148141528
 20
-3.9632300697
 10
0.8200727032
 20
-3.9601840245
 10
0.8253402805
 20
-3.9573736908
  0
LWPOLYLINE
  5
43C
100
AcDbEntity
  8
0
100
AcDbPolyline
 62
250
  6
CONTINUOUS
 90
46
 70
0
 10
1.1786203928
 20
-3.4531085615
 10
1.1787022531
 20
-3.4470534011
 10
1.1789545738
 20
-3.4409201154
 10
1.1793770508
 20
-3.434716101
 10
1.1799691749
 20
-3.4284488392
 10
1.1807302324
 20
-3.4221258893
 10
1.1816593049
 20
-3.4157548804
 10
1.182755272
 20
-3.4093434971
 10
1.1840168119
 20
-3.4028994709
 10
1.1854424029
 20
-3.3964305744
 10
1.1870303257
 20
-3.3899446094
 10
1.1887786651
 20
-3.3834493981
 10
1.1906853125
 20
-3.3769527743
 10
1.1927479681
 20
-3.3704625732
 10
1.1949641444
 20
-3.3639866222
 10
1.1973311682
 20
-3.3575327322
 10
1.1998461847
 20
-3.3511086868
 10
1.2025061605
 20
-3.3447222335
 10
1.2053078874
 20
-3.3383810748
 10
1.2082479867
 20
-3.3320928578
 10
1.211322912
 20
-3.3258651667
 10
1.2145289541
 20
-3.3197055138
 10
1.2178622455
 20
-3.3136213287
 10
1.2213187665
 20
-3.3076199481
 10
1.2248943491
 20
-3.3017086081
 10
1.2285846827
 20
-3.2958944352
 10
1.232385315
 20
-3.2901844443
 10
1.2362916575
 20
-3.284585528
 10
1.2402989936
 20
-3.279104445
 10
1.2444024947
 20
-3.273747798
 10
1.2485972223
 20
-3.2685220338
 10
1.252878128
 20
-3.2634334429
 10
1.2572400393
 20
-3.2584881756
 10
1.2616776745
 20
-3.253692219
 10
1.2661856667
 20
-3.2490513696
 10
1.2707585922
 20
-3.2445712073
 10
1.2753909568
 20
-3.240257114
 10
1.2800772065
 20
-3.236114265
 10
1.2848116579
 20
-3.2321476873
 10
1.2895885246
 20
-3.2283622243
 10
1.2944022846
 20
-3.2247622581
 10
1.2992468937
 20
-3.2213523153
 10
1.3041157001
 20
-3.2181370154
 10
1.309002552
 20
-3.2151202897
 10
1.3139018198
 20
-3.2123054822
 10
1.3188075963
 20
-3.2096958736
  0
LWPOLYLINE
  5
43D
100
AcDbEntity
  8
0
100
AcDbPolyline
 62
7
  6
CONTINUOUS
 90
4
 70
0
 10
0.7075548528
 20
7.2377679691
 10
0.7070955925
 20
7.2232905734
 10
0.7063212111
 20
7.2089928881
 10
0.7052321278
 20
7.1948674276
  0
LINE
  5
43E
100
AcDbEntity
  8
0
100
AcDbLine
 62
7
  6
CONTINUOUS
 10
0.7076667185
 20
-12.8789983209
 11
0.7071767498
 21
-12.8924229713
  0
LINE
  5
43F
100
AcDbEntity
  8
0
100
AcDbLine
 62
7
  6
CONTINUOUS
 10
-2.4758066543
 20
-11.081000918
 11
-2.477873405
 21
-11.0876978227
  0
LINE
  5
440
100
AcDbEntity
  8
0
100
AcDbLine
 62
7
  6
CONTINUOUS
 10
-2.4801309228
 20
-11.0941284522
 11
-2.4826464219
 21
-11.1004687971
  0
LWPOLYLINE
  5
441
100
AcDbEntity
  8
0
100
AcDbPolyline
 62
7
  6
CONTINUOUS
 90
8
 70
0
 10
-4.5190407843
 20
-10.2707337459
 10
-4.5203165203
 20
-10.2730611485
 10
-4.5214816137
 20
-10.2755098041
 10
-4.5225368002
 20
-10.2780828931
 10
-4.5234813303
 20
-10.2807772274
 10
-4.5243085661
 20
-10.2835764395
 10
-4.525017214
 20
-10.2864782021
 10
-4.5256085578
 20
-10.289484837
  0
LINE
  5
442
100
AcDbEntity
  8
0
100
AcDbLine
 62
7
  6
CONTINUOUS
 10
-5.0147522819
 20
-9.7399252791
 11
-5.0094234132
 21
-9.7306459855
  0
LWPOLYLINE
  5
443
100
AcDbEntity
  8
0
100
AcDbPolyline
 62
7
  6
CONTINUOUS
 90
3
 70
0
 10
-4.9979249754
 20
-9.7130761897
 10
-4.9917595706
 20
-9.7047959729
 10
-4.9853192952
 20
-9.6968543933
  0
LINE
  5
444
100
AcDbEntity
  8
0
100
AcDbLine
 62
7
  6
CONTINUOUS
 10
-4.1587103584
 20
-0.2625889263
 11
-4.5769848283
 21
-0.3433128858
  0
LINE
  5
445
100
AcDbEntity
  8
RACCORDO
100
AcDbLine
 62
7
  6
CONTINUOUS
 10
9.4884074123
 20
-3.362680471
 11
9.3559170854
 21
-3.2964353076
  0
LWPOLYLINE
  5
446
100
AcDbEntity
  8
0
100
AcDbPolyline
 62
7
  6
CONTINUOUS
 90
4
 70
0
 10
-4.8985598992
 20
9.5988224456
 10
-4.9075889901
 20
9.612137476
 10
-4.9164048511
 20
9.6256549034
 10
-4.9250116341
 20
9.6393806096
  0
LWPOLYLINE
  5
447
100
AcDbEntity
  8
0
100
AcDbPolyline
 62
7
  6
CONTINUOUS
 90
3
 70
0
 10
-4.5032756844
 20
9.8537039939
 10
-4.5010356091
 20
9.8503652173
 10
-4.4985395594
 20
9.8468700797
  0
LINE
  5
448
100
AcDbEntity
  8
0
100
AcDbLine
 62
7
  6
CONTINUOUS
 10
-4.5054364219
 20
9.8571245382
 11
-4.5031216134
 21
9.853467305
  0
LINE
  5
449
100
AcDbEntity
  8
0
100
AcDbLine
 62
7
  6
CONTINUOUS
 10
-4.5075020096
 20
9.8605985304
 11
-4.5052930433
 21
9.8568900847
  0
LWPOLYLINE
  5
44A
100
AcDbEntity
  8
0
100
AcDbPolyline
 62
7
  6
CONTINUOUS
 90
5
 70
0
 10
-4.9333960544
 20
9.6532933715
 10
-4.9415612358
 20
9.6674002005
 10
-4.9495038796
 20
9.6816941644
 10
-4.9572010777
 20
9.6961331206
 10
-4.9646484523
 20
9.710710273
  0
LINE
  5
44B
100
AcDbEntity
  8
0
100
AcDbLine
 62
7
  6
CONTINUOUS
 10
-4.5094689265
 20
9.8641218918
 11
-4.5073716742
 21
9.8603726531
  0
LINE
  5
44C
100
AcDbEntity
  8
0
100
AcDbLine
 62
7
  6
CONTINUOUS
 10
-4.5113406788
 20
9.8676987076
 11
-4.5093552553
 21
9.8639121884
  0
LINE
  5
44D
100
AcDbEntity
  8
0
100
AcDbLine
 62
7
  6
CONTINUOUS
 10
-2.518593691
 20
8.7568110967
 11
-2.5138859973
 21
8.7475355575
  0
LINE
  5
44E
100
AcDbEntity
  8
0
100
AcDbLine
 62
7
  6
CONTINUOUS
 10
-4.513111997
 20
9.871312903
 11
-4.5112460217
 21
9.8675115192
  0
LINE
  5
44F
100
AcDbEntity
  8
0
100
AcDbLine
 62
7
  6
CONTINUOUS
 10
-2.5141499952
 20
8.7480688323
 11
-2.509655985
 21
8.7387427074
  0
LINE
  5
450
100
AcDbEntity
  8
0
100
AcDbLine
 62
7
  6
CONTINUOUS
 10
-1.8587145993
 20
8.0740985043
 11
-1.8630206065
 21
8.0834643168
  0
LINE
  5
451
100
AcDbEntity
  8
0
100
AcDbLine
 62
7
  6
CONTINUOUS
 10
-2.5098865581
 20
8.7392341236
 11
-2.5056034959
 21
8.729856001
  0
LINE
  5
452
100
AcDbEntity
  8
0
100
AcDbLine
 62
7
  6
CONTINUOUS
 10
-1.862820266
 20
8.0830166058
 11
-1.8669152571
 21
8.0924290493
  0
LINE
  5
453
100
AcDbEntity
  8
0
100
AcDbLine
 62
7
  6
CONTINUOUS
 10
-2.5058027659
 20
8.730304323
 11
-2.5017301798
 21
8.7208796938
  0
LINE
  5
454
100
AcDbEntity
  8
0
100
AcDbLine
 62
7
  6
CONTINUOUS
 10
-1.8667453576
 20
8.0920272007
 11
-1.8706164118
 21
8.1014512284
  0
LINE
  5
455
100
AcDbEntity
  8
0
100
AcDbLine
 62
7
  6
CONTINUOUS
 10
-2.5018991589
 20
8.7212821112
 11
-2.4980498458
 21
8.711846138
  0
LINE
  5
456
100
AcDbEntity
  8
0
100
AcDbLine
 62
7
  6
CONTINUOUS
 10
-1.8704751469
 20
8.1010967801
 11
-1.8741224013
 21
8.1105293493
  0
LINE
  5
457
100
AcDbEntity
  8
0
100
AcDbLine
 62
7
  6
CONTINUOUS
 10
-2.4981903386
 20
8.7122011114
 11
-2.4945640998
 21
8.7027568667
  0
LINE
  5
458
100
AcDbEntity
  8
0
100
AcDbLine
 62
7
  6
CONTINUOUS
 10
-1.8740078695
 20
8.1102238825
 11
-1.8774348291
 21
8.1196649466
  0
LINE
  5
459
100
AcDbEntity
  8
0
100
AcDbLine
 62
7
  6
CONTINUOUS
 10
-2.4946780035
 20
8.7030628143
 11
-2.4912712701
 21
8.6936103766
  0
LINE
  5
45A
100
AcDbEntity
  8
0
100
AcDbLine
 62
7
  6
CONTINUOUS
 10
-1.8773452224
 20
8.1194099998
 11
-1.8805446889
 21
8.1288303472
  0
LINE
  5
45B
100
AcDbEntity
  8
0
100
AcDbLine
 62
7
  6
CONTINUOUS
 10
-2.4913603878
 20
8.6938657597
 11
-2.4881802588
 21
8.684434461
  0
LINE
  5
45C
100
AcDbEntity
  8
0
100
AcDbLine
 62
7
  6
CONTINUOUS
 10
-1.8804776792
 20
8.128626048
 11
-1.8834513561
 21
8.1380232549
  0
LINE
  5
45D
100
AcDbEntity
  8
0
100
AcDbLine
 62
7
  6
CONTINUOUS
 10
-2.4882469062
 20
8.6846391393
 11
-2.4852916313
 21
8.6752314473
  0
LINE
  5
45E
100
AcDbEntity
  8
0
100
AcDbLine
 62
7
  6
CONTINUOUS
 10
-1.8834049612
 20
8.1378720417
 11
-1.8861553963
 21
8.1472459926
  0
LWPOLYLINE
  5
45F
100
AcDbEntity
  8
0
100
AcDbPolyline
 62
7
  6
CONTINUOUS
 90
3
 70
0
 10
-1.8861272867
 20
8.1471479935
 10
-1.8886358858
 20
8.156424812
 10
-1.8909294601
 20
8.1657017667
  0
LWPOLYLINE
  5
460
100
AcDbEntity
  8
0
100
AcDbPolyline
 62
7
  6
CONTINUOUS
 90
6
 70
0
 10
-1.8886495971
 20
8.1564778124
 10
-1.8909335082
 20
8.1657187966
 10
-1.8930075258
 20
8.1749688873
 10
-1.8948657153
 20
8.1842071226
 10
-1.8965092057
 20
8.1934414507
 10
-1.8979368195
 20
8.2026639453
  0
LINE
  5
461
100
AcDbEntity
  8
0
100
AcDbLine
 62
7
  6
CONTINUOUS
 10
0.6998750659
 20
7.3582963324
 11
0.7019351779
 21
7.3428771372
  0
LINE
  5
462
100
AcDbEntity
  8
RACCORDO
100
AcDbLine
 62
250
  6
CONTINUOUS
 10
3.4018627103
 20
17.9827691054
 11
3.4018627103
 21
17.9276841876
  0
LINE
  5
463
100
AcDbEntity
  8
0
100
AcDbLine
 62
7
  6
CONTINUOUS
 10
0.705250228
 20
-12.9186846998
 11
0.7038138641
 21
-12.9315064339
  0
LINE
  5
464
100
AcDbEntity
  8
0
100
AcDbLine
 62
7
  6
CONTINUOUS
 10
-1.8886454371
 20
-11.1978978228
 11
-1.8861135189
 21
-11.1915492652
  0
LINE
  5
465
100
AcDbEntity
  8
0
100
AcDbLine
 62
7
  6
CONTINUOUS
 10
-2.4826092822
 20
-11.100382106
 11
-2.4853527393
 21
-11.1065428949
  0
LINE
  5
466
100
AcDbEntity
  8
0
100
AcDbLine
 62
7
  6
CONTINUOUS
 10
-1.8861508592
 20
-11.1916359887
 11
-1.8833899242
 21
-11.1854664317
  0
LINE
  5
467
100
AcDbEntity
  8
0
100
AcDbLine
 62
7
  6
CONTINUOUS
 10
-2.4852965385
 20
-11.1064243959
 11
-2.4882630718
 21
-11.112390452
  0
LINE
  5
468
100
AcDbEntity
  8
0
100
AcDbLine
 62
7
  6
CONTINUOUS
 10
-1.8834464302
 20
-11.18558501
 11
-1.8804614324
 21
-11.1796096241
  0
LINE
  5
469
100
AcDbEntity
  8
0
100
AcDbLine
 62
7
  6
CONTINUOUS
 10
-2.4881854755
 20
-11.1122425589
 11
-2.4913776805
 21
-11.1180111564
  0
LWPOLYLINE
  5
46A
100
AcDbEntity
  8
0
100
AcDbPolyline
 62
7
  6
CONTINUOUS
 90
3
 70
0
 10
-4.5162118372
 20
-10.2665145452
 10
-4.5176781
 20
-10.2685631616
 10
-4.5190460309
 20
-10.2707440703
  0
LINE
  5
46B
100
AcDbEntity
  8
0
100
AcDbLine
 62
7
  6
CONTINUOUS
 10
-4.5145739242
 20
-10.2645175579
 11
-4.5161694791
 21
-10.2664619466
  0
LINE
  5
46C
100
AcDbEntity
  8
0
100
AcDbLine
 62
7
  6
CONTINUOUS
 10
1.4708563921
 20
-3.0785302535
 11
1.2278290107
 21
-3.2048038733
  0
LINE
  5
46D
100
AcDbEntity
  8
0
100
AcDbLine
 62
250
  6
CONTINUOUS
 10
1.5220175485
 20
-3.1041108317
 11
1.3188075963
 21
-3.2096958736
  0
LWPOLYLINE
  5
46E
100
AcDbEntity
  8
0
100
AcDbPolyline
 62
7
  6
CONTINUOUS
 90
3
 70
0
 10
-4.7984983064
 20
9.4795451112
 10
-4.8091879427
 20
9.4901938254
 10
-4.8197417878
 20
9.5011451619
  0
LINE
  5
46F
100
AcDbEntity
  8
0
100
AcDbLine
 62
7
  6
CONTINUOUS
 10
-4.4913248712
 20
9.8378938454
 11
-4.4884685464
 21
9.8347431088
  0
LINE
  5
470
100
AcDbEntity
  8
0
100
AcDbLine
 62
7
  6
CONTINUOUS
 10
-4.4938552403
 20
9.8408677812
 11
-4.4910934377
 21
9.8376321447
  0
LINE
  5
471
100
AcDbEntity
  8
0
100
AcDbLine
 62
7
  6
CONTINUOUS
 10
-4.4963209679
 20
9.8439420216
 11
-4.4936471937
 21
9.840616523
  0
LINE
  5
472
100
AcDbEntity
  8
0
100
AcDbLine
 62
7
  6
CONTINUOUS
 10
-2.5657306604
 20
8.8294910289
 11
-2.5595449594
 21
8.8215553197
  0
LINE
  5
473
100
AcDbEntity
  8
0
100
AcDbLine
 62
7
  6
CONTINUOUS
 10
-4.8703002408
 20
9.5602488105
 11
-4.8799009717
 21
9.5728557509
  0
LINE
  5
474
100
AcDbEntity
  8
0
100
AcDbLine
 62
7
  6
CONTINUOUS
 10
-4.4987179496
 20
9.8471127391
 11
-4.496128951
 21
9.8436956271
  0
LINE
  5
475
100
AcDbEntity
  8
0
100
AcDbLine
 62
7
  6
CONTINUOUS
 10
-1.8084672241
 20
7.9914050588
 11
-1.8145523062
 21
7.9995394989
  0
LINE
  5
476
100
AcDbEntity
  8
0
100
AcDbLine
 62
7
  6
CONTINUOUS
 10
-2.5599124115
 20
8.8220386692
 11
-2.5538496344
 21
8.8138933716
  0
LINE
  5
477
100
AcDbEntity
  8
0
100
AcDbLine
 62
7
  6
CONTINUOUS
 10
-1.8141696734
 20
7.999016041
 11
-1.8201278219
 21
8.0073592183
  0
LINE
  5
478
100
AcDbEntity
  8
0
100
AcDbLine
 62
7
  6
CONTINUOUS
 10
-2.5542310228
 20
8.8144177985
 11
-2.5482958023
 21
8.8060633427
  0
LINE
  5
479
100
AcDbEntity
  8
0
100
AcDbLine
 62
7
  6
CONTINUOUS
 10
-1.8197337437
 20
8.0067935808
 11
-1.8255648919
 21
8.0153466378
  0
LINE
  5
47A
100
AcDbEntity
  8
0
100
AcDbLine
 62
7
  6
CONTINUOUS
 10
-2.5486884864
 20
8.806629982
 11
-2.5428808149
 21
8.7980652623
  0
LINE
  5
47B
100
AcDbEntity
  8
0
100
AcDbLine
 62
7
  6
CONTINUOUS
 10
-4.5031216134
 20
9.853467305
 11
-4.5008700407
 21
9.8501263577
  0
LINE
  5
47C
100
AcDbEntity
  8
0
100
AcDbLine
 62
7
  6
CONTINUOUS
 10
-1.8251614283
 20
8.0147392446
 11
-1.8308391649
 21
8.0234618258
  0
LINE
  5
47D
100
AcDbEntity
  8
0
100
AcDbLine
 62
7
  6
CONTINUOUS
 10
-2.543282742
 20
8.7986736851
 11
-2.5376288544
 21
8.7899391448
  0
LINE
  5
47E
100
AcDbEntity
  8
0
100
AcDbLine
 62
7
  6
CONTINUOUS
 10
-1.8304364752
 20
8.0228284169
 11
-1.8359450625
 21
8.0316976966
  0
LINE
  5
47F
100
AcDbEntity
  8
0
100
AcDbLine
 62
7
  6
CONTINUOUS
 10
-2.5380299189
 20
8.7905735846
 11
-2.532545411
 21
8.7816921084
  0
LINE
  5
480
100
AcDbEntity
  8
0
100
AcDbLine
 62
7
  6
CONTINUOUS
 10
-1.8355583445
 20
8.0310614321
 11
-1.8408880944
 21
8.040061367
  0
LINE
  5
481
100
AcDbEntity
  8
0
100
AcDbLine
 62
7
  6
CONTINUOUS
 10
-2.5329304844
 20
8.7823293685
 11
-2.5276249258
 21
8.7733170658
  0
LINE
  5
482
100
AcDbEntity
  8
0
100
AcDbLine
 62
7
  6
CONTINUOUS
 10
-1.8405275035
 20
8.0394379889
 11
-1.8456605456
 21
8.0485342071
  0
LINE
  5
483
100
AcDbEntity
  8
0
100
AcDbLine
 62
7
  6
CONTINUOUS
 10
-2.5279838986
 20
8.7739413815
 11
-2.5228750109
 21
8.7648327198
  0
LINE
  5
484
100
AcDbEntity
  8
0
100
AcDbLine
 62
7
  6
CONTINUOUS
 10
-1.8453292151
 20
8.0479325166
 11
-1.8502627596
 21
8.0571165424
  0
LINE
  5
485
100
AcDbEntity
  8
0
100
AcDbLine
 62
7
  6
CONTINUOUS
 10
-2.5232047837
 20
8.7654352827
 11
-2.5182952545
 21
8.7562387743
  0
LINE
  5
486
100
AcDbEntity
  8
0
100
AcDbLine
 62
7
  6
CONTINUOUS
 10
-1.849962858
 20
8.0565450227
 11
-1.8546943217
 21
8.0658080797
  0
LINE
  5
487
100
AcDbEntity
  8
0
100
AcDbLine
 62
7
  6
CONTINUOUS
 10
-1.8544289794
 20
8.0652755335
 11
-1.8589463845
 21
8.0745892585
  0
LINE
  5
488
100
AcDbEntity
  8
0
100
AcDbLine
 62
7
  6
CONTINUOUS
 10
0.1681740698
 20
7.6408663248
 11
0.1661481487
 21
7.6453500737
  0
LINE
  5
489
100
AcDbEntity
  8
0
100
AcDbLine
 62
7
  6
CONTINUOUS
 10
0.1699079793
 20
7.6367217839
 11
0.167964641
 21
7.6413468008
  0
LINE
  5
48A
100
AcDbEntity
  8
0
100
AcDbLine
 62
7
  6
CONTINUOUS
 10
0.1715136352
 20
7.6325860455
 11
0.1696727971
 21
7.6373050924
  0
LWPOLYLINE
  5
48B
100
AcDbEntity
  8
0
100
AcDbPolyline
 62
7
  6
CONTINUOUS
 90
5
 70
0
 10
0.6455827571
 20
7.5603457173
 10
0.651491405
 20
7.5450178081
 10
0.6571254707
 20
7.5296061014
 10
0.6624842828
 20
7.5141151016
 10
0.6675553467
 20
7.4985833575
  0
LWPOLYLINE
  5
48C
100
AcDbEntity
  8
0
100
AcDbPolyline
 62
7
  6
CONTINUOUS
 90
3
 70
0
 10
0.6723377372
 20
7.4830139116
 10
0.6768325213
 20
7.4674037851
 10
0.6810301726
 20
7.4517824851
  0
LINE
  5
48D
100
AcDbEntity
  8
0
100
AcDbLine
 62
7
  6
CONTINUOUS
 10
0.6849307157
 20
7.4361444637
 11
0.6885342561
 21
7.4204953275
  0
LWPOLYLINE
  5
48E
100
AcDbEntity
  8
0
100
AcDbPolyline
 62
250
  6
CONTINUOUS
 90
58
 70
0
 10
6.5978374203
 20
-23.062108666
 10
6.5992528827
 20
-23.0717184606
 10
6.6008741229
 20
-23.0811778867
 10
6.6027011408
 20
-23.0904869443
 10
6.6047352406
 20
-23.0996509497
 10
6.6069751181
 20
-23.1086645866
 10
6.6094168608
 20
-23.1175119068
 10
6.6120608046
 20
-23.126192511
 10
6.6149066135
 20
-23.1347067986
 10
6.6179493669
 20
-23.1430400187
 10
6.6211894
 20
-23.1511918406
 10
6.6246263776
 20
-23.1591625951
 10
6.6282543739
 20
-23.1669385245
 10
6.6320737216
 20
-23.1745193001
 10
6.636084088
 20
-23.1819052505
 10
6.6402785501
 20
-23.1890836043
 10
6.6446574265
 20
-23.1960540028
 10
6.6492203987
 20
-23.2028168046
 10
6.6539595874
 20
-23.2093603141
 10
6.6588752982
 20
-23.2156841528
 10
6.6639672256
 20
-23.2217886992
 10
6.6692265741
 20
-23.227663393
 10
6.6746536299
 20
-23.2333078343
 10
6.6802481068
 20
-23.2387224231
 10
6.6860003495
 20
-23.2438977991
 10
6.6919106355
 20
-23.2488335529
 10
6.6979786874
 20
-23.2535300939
 10
6.7041940181
 20
-23.2579792906
 10
6.7105568794
 20
-23.2621807129
 10
6.7170670194
 20
-23.2661347908
 10
6.723713196
 20
-23.269834683
 10
6.7304956486
 20
-23.2732799516
 10
6.7374141378
 20
-23.2764710344
 10
6.7444567027
 20
-23.2794024029
 10
6.751623553
 20
-23.282073606
 10
6.758914479
 20
-23.2844850947
 10
6.7663168907
 20
-23.286632694
 10
6.7738309858
 20
-23.2885159489
 10
6.7814565665
 20
-23.2901353144
 10
6.7891804498
 20
-23.2914879801
 10
6.7970028062
 20
-23.2925734841
 10
6.8049234653
 20
-23.2933922885
 10
6.8129287323
 20
-23.2939429691
 10
6.8210187545
 20
-23.2942250612
 10
6.8291933847
 20
-23.2942390296
 10
6.8374384861
 20
-23.2939848447
 10
6.8457541731
 20
-23.2934620439
 10
6.8541403314
 20
-23.2926710897
 10
6.8625824817
 20
-23.2916133404
 10
6.8710807392
 20
-23.2902883292
 10
6.8796349886
 20
-23.2886965228
 10
6.8882304054
 20
-23.286840679
 10
6.8968672075
 20
-23.2847202795
 10
6.905545177
 20
-23.2823358425
 10
6.9142488344
 20
-23.2796916816
 10
6.9229730199
 20
-23.2767892345
 10
6.9317228933
 20
-23.2736270635
 10
6.9404984546
 20
-23.2702051685
  0
LWPOLYLINE
  5
48F
100
AcDbEntity
  8
0
100
AcDbPolyline
 62
250
  6
CONTINUOUS
 90
32
 70
0
 10
5.9072358763
 20
-23.1186259012
 10
5.9100162215
 20
-23.1378067772
 10
5.9132050475
 20
-23.156704061
 10
5.916800546
 20
-23.1753068743
 10
5.9208007122
 20
-23.1936044939
 10
5.9252032424
 20
-23.2115864095
 10
5.930005544
 20
-23.2292423232
 10
5.9352049327
 20
-23.2465621379
 10
5.94079844
 20
-23.2635358223
 10
5.9467827121
 20
-23.2801534682
 10
5.9531543566
 20
-23.2964054941
 10
5.9599097661
 20
-23.3122825897
 10
5.9670449342
 20
-23.3277755731
 10
5.9745558407
 20
-23.3428755608
 10
5.9824382161
 20
-23.3575738595
 10
5.9906873642
 20
-23.3718619112
 10
5.9992986256
 20
-23.385731519
 10
6.0082671138
 20
-23.3991747176
 10
6.0175874848
 20
-23.4121836612
 10
6.0272544721
 20
-23.4247508961
 10
6.0372625903
 20
-23.4368692118
 10
6.0476058711
 20
-23.4485315123
 10
6.0582784599
 20
-23.4597311175
 10
6.0692743082
 20
-23.4704616192
 10
6.0805868778
 20
-23.4807167301
 10
6.0922097805
 20
-23.4904905975
 10
6.1041364161
 20
-23.4997776229
 10
6.1163596648
 20
-23.5085723178
 10
6.1288726048
 20
-23.5168696655
 10
6.1416681456
 20
-23.5246649372
 10
6.1547386672
 20
-23.5319535093
 10
6.1636105101
 20
-23.5365335212
  0
LINE
  5
490
100
AcDbEntity
  8
DRAFT
100
AcDbLine
 62
7
  6
CONTINUOUS
 10
3.5821139597
 20
18.3464965669
 11
3.5993173406
 21
17.8087924653
  0
LWPOLYLINE
  5
491
100
AcDbEntity
  8
0
100
AcDbPolyline
 62
250
  6
CONTINUOUS
 90
28
 70
0
 10
5.1832408551
 20
-13.3174224933
 10
5.1900651062
 20
-13.6912734967
 10
5.1984304902
 20
-14.0643621966
 10
5.2083368185
 20
-14.4366798618
 10
5.2197838775
 20
-14.8082177813
 10
5.2327713988
 20
-15.1789672596
 10
5.247299059
 20
-15.5489196166
 10
5.2633665338
 20
-15.9180662005
 10
5.2809734568
 20
-16.2863983714
 10
5.3001193891
 20
-16.6539074966
 10
5.3208039017
 20
-17.0205849776
 10
5.343026524
 20
-17.3864222398
 10
5.3667867027
 20
-17.7514107157
 10
5.3920839045
 20
-18.1155418688
 10
5.4189175547
 20
-18.4788071846
 10
5.4472869857
 20
-18.8411981588
 10
5.4771915606
 20
-19.2027063224
 10
5.5086306003
 20
-19.5633232188
 10
5.5416033222
 20
-19.923040395
 10
5.5761089855
 20
-20.2818494472
 10
5.6121468071
 20
-20.6397419826
 10
5.6497158886
 20
-20.9967095976
 10
5.6888153849
 20
-21.3527439493
 10
5.7294444094
 20
-21.7078367167
 10
5.7716019497
 20
-22.0619795632
 10
5.8152870222
 20
-22.4151642007
 10
5.8604986716
 20
-22.7673823897
 10
5.9072358763
 20
-23.1186259012
  0
LWPOLYLINE
  5
492
100
AcDbEntity
  8
0
100
AcDbPolyline
 62
250
  6
CONTINUOUS
 90
25
 70
0
 10
5.1172809118
 20
-4.819436437
 10
5.1173751355
 20
-4.8258326585
 10
5.1176650024
 20
-4.8321223056
 10
5.1181501112
 20
-4.8382966716
 10
5.1188297903
 20
-4.8443472089
 10
5.1197030988
 20
-4.8502655417
 10
5.1207688279
 20
-4.856043477
 10
5.1220255021
 20
-4.8616730163
 10
5.1234713818
 20
-4.8671463664
 10
5.1251044655
 20
-4.8724559504
 10
5.1269224925
 20
-4.8775944182
 10
5.1289229459
 20
-4.8825546563
 10
5.1311030564
 20
-4.8873297982
 10
5.1334598062
 20
-4.8919132335
 10
5.1359899327
 20
-4.8962986173
 10
5.1386899333
 20
-4.9004798787
 10
5.1415560704
 20
-4.9044512294
 10
5.1445843763
 20
-4.9082071719
 10
5.1477706588
 20
-4.9117425067
 10
5.1511105071
 20
-4.9150523396
 10
5.1545992976
 20
-4.9181320889
 10
5.1582322009
 20
-4.9209774911
 10
5.1620041876
 20
-4.9235846073
 10
5.1659100362
 20
-4.9259498283
 10
5.1692544381
 20
-4.9277292763
  0
LWPOLYLINE
  5
493
100
AcDbEntity
  8
0
100
AcDbPolyline
 62
250
  6
CONTINUOUS
 90
10
 70
0
 10
5.1172795477
 20
-5.4224381391
 10
5.1185551005
 20
-6.3025431868
 10
5.1213440479
 20
-7.1819334325
 10
5.1256463581
 20
-8.0606052488
 10
5.1314619233
 20
-8.9385521813
 10
5.1387907609
 20
-9.8157734442
 10
5.1476330613
 20
-10.6922738961
 10
5.1579888956
 20
-11.5680527239
 10
5.1698581687
 20
-12.4431034664
 10
5.1832408551
 20
-13.3174224933
  0
LWPOLYLINE
  5
494
100
AcDbEntity
  8
0
100
AcDbPolyline
 62
250
  6
CONTINUOUS
 90
43
 70
0
 10
5.1172809118
 20
-5.4224388211
 10
5.1173751355
 20
-5.4159483761
 10
5.1176650024
 20
-5.4093688623
 10
5.1181501111
 20
-5.4027093879
 10
5.1188297902
 20
-5.3959791717
 10
5.1197030986
 20
-5.3891875306
 10
5.1207688276
 20
-5.3823438665
 10
5.1220255017
 20
-5.3754576533
 10
5.1234713814
 20
-5.3685384236
 10
5.125104465
 20
-5.3615957562
 10
5.1269224918
 20
-5.3546392617
 10
5.1289229451
 20
-5.3476785704
 10
5.1311030555
 20
-5.3407233181
 10
5.1334598052
 20
-5.3337831332
 10
5.1359899315
 20
-5.3268676231
 10
5.138689932
 20
-5.3199863612
 10
5.141556069
 20
-5.3131488735
 10
5.1445843747
 20
-5.3063646252
 10
5.1477706571
 20
-5.299643008
 10
5.1511105052
 20
-5.2929933268
 10
5.1545992956
 20
-5.286424787
 10
5.1582321988
 20
-5.2799464816
 10
5.1620041854
 20
-5.2735673786
 10
5.165910034
 20
-5.2672963089
 10
5.1699443374
 20
-5.2611419537
 10
5.1741015109
 20
-5.2551128326
 10
5.1783757997
 20
-5.249217292
 10
5.1827612866
 20
-5.2434634931
 10
5.1872519008
 20
-5.2378594011
 10
5.1918414257
 20
-5.232412774
 10
5.1965235079
 20
-5.2271311516
 10
5.2012916659
 20
-5.2220218455
 10
5.206139299
 20
-5.2170919286
 10
5.2110596965
 20
-5.2123482255
 10
5.2160460469
 20
-5.2077973031
 10
5.2210914475
 20
-5.2034454614
 10
5.2261889138
 20
-5.1992987247
 10
5.2313313892
 20
-5.1953628335
 10
5.2365117549
 20
-5.1916432364
 10
5.2417228394
 20
-5.1881450824
 10
5.2469574291
 20
-5.1848732142
 10
5.2522082774
 20
-5.1818321612
 10
5.2574681154
 20
-5.1790261331
  0
LWPOLYLINE
  5
495
100
AcDbEntity
  8
0
100
AcDbPolyline
 62
250
  6
CONTINUOUS
 90
10
 70
0
 10
5.1832408551
 20
3.1370601786
 10
5.1698581687
 20
2.2502607243
 10
5.1579888956
 20
1.364140931
 10
5.1476330613
 20
0.4787044546
 10
5.1387907609
 20
-0.4060422494
 10
5.1314619233
 20
-1.2900983382
 10
5.1256463581
 20
-2.1734685588
 10
5.1213440479
 20
-3.0561520426
 10
5.1185551005
 20
-3.9381423276
 10
5.1172795477
 20
-4.8194357549
  0
LWPOLYLINE
  5
496
100
AcDbEntity
  8
0
100
AcDbPolyline
 62
250
  6
CONTINUOUS
 90
28
 70
0
 10
5.9072358763
 20
13.6136621938
 10
5.8604986716
 20
13.2188187097
 10
5.8152870222
 20
12.8244235711
 10
5.7716019497
 20
12.4304860284
 10
5.7294444094
 20
12.0370153399
 10
5.6888153849
 20
11.6440207141
 10
5.6497158886
 20
11.2515113086
 10
5.6121468071
 20
10.8594963236
 10
5.5761089855
 20
10.4679849546
 10
5.5416033222
 20
10.0769863339
 10
5.5086306003
 20
9.6865096303
 10
5.4771915606
 20
9.2965639954
 10
5.4472869857
 20
8.9071585171
 10
5.4189175547
 20
8.5183023239
 10
5.3920839045
 20
8.1300045289
 10
5.3667867027
 20
7.7422741777
 10
5.343026524
 20
7.3551203525
 10
5.3208039017
 20
6.9685521302
 10
5.3001193891
 20
6.5825785271
 10
5.2809734568
 20
6.1972085812
 10
5.2633665338
 20
5.8124513272
 10
5.247299059
 20
5.4283157539
 10
5.2327713988
 20
5.0448108603
 10
5.2197838775
 20
4.6619456297
 10
5.2083368185
 20
4.2797290047
 10
5.1984304902
 20
3.8981699288
 10
5.1900651062
 20
3.5172773468
 10
5.1832408551
 20
3.1370601786
  0
LWPOLYLINE
  5
497
100
AcDbEntity
  8
0
100
AcDbPolyline
 62
250
  6
CONTINUOUS
 90
28
 70
0
 10
6.5978374203
 20
13.5410704717
 10
6.5513495317
 20
13.1484097441
 10
6.5063809773
 20
12.7562130649
 10
6.4629317571
 20
12.3644804342
 10
6.4210009252
 20
11.9732026924
 10
6.3805894275
 20
11.5823889991
 10
6.3417001016
 20
11.1920668326
 10
6.3043330557
 20
10.8022362398
 10
6.2684881816
 20
10.4128971738
 10
6.2341679918
 20
10.0240769719
 10
6.2013725935
 20
9.6357756743
 10
6.1701018796
 20
9.2479932409
 10
6.1403580409
 20
8.8607568882
 10
6.1121411843
 20
8.474066657
 10
6.085451203
 20
8.0879225065
 10
6.0602899661
 20
7.7023515309
 10
6.0366575808
 20
7.317353768
 10
6.01455394
 20
6.93292918
 10
5.9939805926
 20
6.5491047481
 10
5.9749376456
 20
6.1658805107
 10
5.957424992
 20
5.7832564294
 10
5.9414438591
 20
5.4012593703
 10
5.9269943541
 20
5.0198893597
 10
5.9140763698
 20
4.6391463714
 10
5.902690812
 20
4.2590571922
 10
5.8928379827
 20
3.879630751
 10
5.8845175798
 20
3.500858119
 10
5.8777296036
 20
3.1227392961
  0
LINE
  5
498
100
AcDbEntity
  8
0
100
AcDbLine
 62
7
  6
CONTINUOUS
 10
-1.8805394534
 20
-11.1797576594
 11
-1.8773278458
 21
-11.1739791846
  0
LINE
  5
499
100
AcDbEntity
  8
0
100
AcDbLine
 62
7
  6
CONTINUOUS
 10
-2.4912766593
 20
-11.1178380802
 11
-2.4946963647
 21
-11.1234053531
  0
LINE
  5
49A
100
AcDbEntity
  8
0
100
AcDbLine
 62
7
  6
CONTINUOUS
 10
-1.8774294219
 20
-11.1741524802
 11
-1.8739894225
 21
-11.168574804
  0
LINE
  5
49B
100
AcDbEntity
  8
0
100
AcDbLine
 62
7
  6
CONTINUOUS
 10
-2.494569583
 20
-11.1232095068
 11
-2.4982096826
 21
-11.1285549434
  0
LINE
  5
49C
100
AcDbEntity
  8
0
100
AcDbLine
 62
7
  6
CONTINUOUS
 10
-1.8741169016
 20
-11.1687709615
 11
-1.8704557159
 21
-11.1634146243
  0
LINE
  5
49D
100
AcDbEntity
  8
0
100
AcDbLine
 62
7
  6
CONTINUOUS
 10
-2.4980554286
 20
-11.1283396731
 11
-2.5019194398
 21
-11.1334596691
  0
LINE
  5
49E
100
AcDbEntity
  8
0
100
AcDbLine
 62
7
  6
CONTINUOUS
 10
-1.8706108141
 20
-11.1636302994
 11
-1.8667249895
 21
-11.1584989358
  0
LINE
  5
49F
100
AcDbEntity
  8
0
100
AcDbLine
 62
7
  6
CONTINUOUS
 10
-2.5017359453
 20
-11.1332285208
 11
-2.5058238981
 21
-11.1381198252
  0
LINE
  5
4A0
100
AcDbEntity
  8
0
100
AcDbLine
 62
7
  6
CONTINUOUS
 10
-4.5128800243
 20
-10.2627116783
 11
-4.5146448532
 21
-10.2645960639
  0
LINE
  5
4A1
100
AcDbEntity
  8
0
100
AcDbLine
 62
250
  6
CONTINUOUS
 10
1.1194074399
 20
-3.8045795955
 11
0.8253389677
 21
-3.9573730343
  0
LINE
  5
4A2
100
AcDbEntity
  8
0
100
AcDbLine
 62
7
  6
CONTINUOUS
 10
1.0507165994
 20
-3.97067931
 11
1.0506859341
 21
-3.9706952397
  0
LWPOLYLINE
  5
4A3
100
AcDbEntity
  8
0
100
AcDbPolyline
 62
250
  6
CONTINUOUS
 90
28
 70
0
 10
1.0506859341
 20
-3.9706952397
 10
1.0469668779
 20
-3.9725741758
 10
1.0397169842
 20
-3.9759443745
 10
1.0323202717
 20
-3.9790043276
 10
1.0247817409
 20
-3.9817520048
 10
1.0171067433
 20
-3.9841854934
 10
1.009301927
 20
-3.9863028623
 10
1.0013738461
 20
-3.9881026407
 10
0.9933270315
 20
-3.9895841025
 10
0.985165219
 20
-3.9907467379
 10
0.9768947377
 20
-3.9915896953
 10
0.9685206435
 20
-3.9921125063
 10
0.9600446578
 20
-3.9923149265
 10
0.9514710452
 20
-3.9921963301
 10
0.9428070621
 20
-3.991756298
 10
0.9340589114
 20
-3.9909948416
 10
0.9252306651
 20
-3.9899118243
 10
0.9163302513
 20
-3.988507738
 10
0.9073699179
 20
-3.9867845963
 10
0.8983557977
 20
-3.9847438224
 10
0.8892943709
 20
-3.9823871366
 10
0.8801987081
 20
-3.9797187143
 10
0.8710753253
 20
-3.9767413929
 10
0.8619305928
 20
-3.9734581805
 10
0.8527775233
 20
-3.9698752122
 10
0.8436247538
 20
-3.9659976168
 10
0.8344764654
 20
-3.9618287497
 10
0.8253389718
 20
-3.9573730322
  0
LINE
  5
4A4
100
AcDbEntity
  8
0
100
AcDbLine
 62
250
  6
CONTINUOUS
 10
-9.6253513366
 20
10.5413562744
 11
5.1832408551
 21
3.1370601786
  0
LWPOLYLINE
  5
4A5
100
AcDbEntity
  8
0
100
AcDbPolyline
 62
7
  6
CONTINUOUS
 90
4
 70
0
 10
-4.7207318701
 20
9.414264996
 10
-4.7320997901
 20
9.4225489911
 10
-4.7433982827
 20
9.4311932273
 10
-4.7546087903
 20
9.440183624
  0
LINE
  5
4A6
100
AcDbEntity
  8
0
100
AcDbLine
 62
7
  6
CONTINUOUS
 10
-4.4776232187
 20
9.8245066767
 11
-4.4744823058
 21
9.8220007299
  0
LINE
  5
4A7
100
AcDbEntity
  8
0
100
AcDbLine
 62
7
  6
CONTINUOUS
 10
-1.7454930399
 20
7.9264385498
 11
-1.7525179762
 21
7.9322059942
  0
LINE
  5
4A8
100
AcDbEntity
  8
0
100
AcDbLine
 62
7
  6
CONTINUOUS
 10
-4.4804949521
 20
9.8269701319
 11
-4.4773847162
 21
9.8243095649
  0
LINE
  5
4A9
100
AcDbEntity
  8
0
100
AcDbLine
 62
7
  6
CONTINUOUS
 10
-1.7521795977
 20
7.9319188216
 11
-1.7591672333
 21
7.937970436
  0
LINE
  5
4AA
100
AcDbEntity
  8
0
100
AcDbLine
 62
7
  6
CONTINUOUS
 10
-2.6160456029
 20
8.8815905954
 11
-2.6090717907
 21
8.8755336675
  0
LWPOLYLINE
  5
4AB
100
AcDbEntity
  8
0
100
AcDbPolyline
 62
7
  6
CONTINUOUS
 90
3
 70
0
 10
-4.7657340935
 20
9.4495237655
 10
-4.7767713286
 20
9.4592101055
 10
-4.7876934667
 20
9.4692178705
  0
LINE
  5
4AC
100
AcDbEntity
  8
0
100
AcDbLine
 62
7
  6
CONTINUOUS
 10
-1.7587910987
 20
7.9376360027
 11
-1.7657157075
 21
7.9439525984
  0
LINE
  5
4AD
100
AcDbEntity
  8
0
100
AcDbLine
 62
7
  6
CONTINUOUS
 10
-2.609447252
 20
8.8758685039
 11
-2.6025376393
 21
8.8695458234
  0
LINE
  5
4AE
100
AcDbEntity
  8
0
100
AcDbLine
 62
7
  6
CONTINUOUS
 10
-4.483310805
 20
9.8295545262
 11
-4.4802368625
 21
9.8267417374
  0
LINE
  5
4AF
100
AcDbEntity
  8
0
100
AcDbLine
 62
7
  6
CONTINUOUS
 10
-1.7653275083
 20
7.9435910214
 11
-1.7721724356
 21
7.9501594808
  0
LINE
  5
4B0
100
AcDbEntity
  8
0
100
AcDbLine
 62
7
  6
CONTINUOUS
 10
-2.6029251419
 20
8.8699079238
 11
-2.5960963178
 21
8.8633326387
  0
LINE
  5
4B1
100
AcDbEntity
  8
0
100
AcDbLine
 62
7
  6
CONTINUOUS
 10
-4.4860562209
 20
9.8322386109
 11
-4.4830402532
 21
9.8292979077
  0
LINE
  5
4B2
100
AcDbEntity
  8
0
100
AcDbLine
 62
7
  6
CONTINUOUS
 10
-1.7717888195
 20
7.9497829684
 11
-1.7785317908
 21
7.9565812659
  0
LINE
  5
4B3
100
AcDbEntity
  8
0
100
AcDbLine
 62
7
  6
CONTINUOUS
 10
-2.5964792359
 20
8.8637097901
 11
-2.5897533938
 21
8.8569039672
  0
LINE
  5
4B4
100
AcDbEntity
  8
0
100
AcDbLine
 62
7
  6
CONTINUOUS
 10
-4.48872577
 20
9.8350163805
 11
-4.4857840687
 21
9.8319647969
  0
LINE
  5
4B5
100
AcDbEntity
  8
0
100
AcDbLine
 62
7
  6
CONTINUOUS
 10
-1.7781562022
 20
7.9561933429
 11
-1.7847947698
 21
7.9632171518
  0
LINE
  5
4B6
100
AcDbEntity
  8
0
100
AcDbLine
 62
7
  6
CONTINUOUS
 10
-2.5901282749
 20
8.8572926231
 11
-2.5835078236
 21
8.8502606469
  0
LINE
  5
4B7
100
AcDbEntity
  8
0
100
AcDbLine
 62
7
  6
CONTINUOUS
 10
-1.7844299985
 20
7.9628230303
 11
-1.7909603232
 21
7.9700679643
  0
LINE
  5
4B8
100
AcDbEntity
  8
0
100
AcDbLine
 62
7
  6
CONTINUOUS
 10
-2.5838718708
 20
8.8506555607
 11
-2.577360598
 21
8.8434018635
  0
LINE
  5
4B9
100
AcDbEntity
  8
0
100
AcDbLine
 62
7
  6
CONTINUOUS
 10
-1.7906098133
 20
7.9696711694
 11
-1.7970197525
 21
7.9771263294
  0
LINE
  5
4BA
100
AcDbEntity
  8
0
100
AcDbLine
 62
7
  6
CONTINUOUS
 10
-2.5777103587
 20
8.8437994887
 11
-2.5713203339
 21
8.8363349936
  0
LINE
  5
4BB
100
AcDbEntity
  8
0
100
AcDbLine
 62
7
  6
CONTINUOUS
 10
-1.7966757099
 20
7.9767166393
 11
-1.8029808552
 21
7.9844031082
  0
LINE
  5
4BC
100
AcDbEntity
  8
0
100
AcDbLine
 62
7
  6
CONTINUOUS
 10
-2.5716635635
 20
8.8367455496
 11
-2.5653791984
 21
8.8290491853
  0
LINE
  5
4BD
100
AcDbEntity
  8
0
100
AcDbLine
 62
7
  6
CONTINUOUS
 10
-1.8026284574
 20
7.9839621694
 11
-1.808835769
 21
7.9918874692
  0
LINE
  5
4BE
100
AcDbEntity
  8
0
100
AcDbLine
 62
7
  6
CONTINUOUS
 10
-1.9957246642
 20
11.5273983047
 11
-1.9982252873
 21
11.5310547526
  0
LINE
  5
4BF
100
AcDbEntity
  8
0
100
AcDbLine
 62
7
  6
CONTINUOUS
 10
-1.7571751755
 20
11.9096364265
 11
-1.7487438037
 21
11.8966371988
  0
LINE
  5
4C0
100
AcDbEntity
  8
0
100
AcDbLine
 62
7
  6
CONTINUOUS
 10
-1.9934967571
 20
11.5239195295
 11
-1.9958675856
 21
11.527614005
  0
LWPOLYLINE
  5
4C1
100
AcDbEntity
  8
0
100
AcDbPolyline
 62
7
  6
CONTINUOUS
 90
4
 70
0
 10
-1.7405345738
 20
11.8834719
 10
-1.7325550745
 20
11.8701554147
 10
-1.724797578
 20
11.8566729136
 10
-1.7172620106
 20
11.8430244261
  0
LWPOLYLINE
  5
4C2
100
AcDbEntity
  8
0
100
AcDbPolyline
 62
7
  6
CONTINUOUS
 90
3
 70
0
 10
0.1600565183
 20
7.6571041803
 10
-0.0826862961
 20
8.0845868605
 10
-0.3244498017
 20
8.5124219895
  0
LWPOLYLINE
  5
4C3
100
AcDbEntity
  8
0
100
AcDbPolyline
 62
7
  6
CONTINUOUS
 90
3
 70
0
 10
-1.9892772011
 20
11.5166678316
 10
-1.991396942
 20
11.5204238567
 10
-1.9935937334
 20
11.5240725826
  0
LWPOLYLINE
  5
4C4
100
AcDbEntity
  8
0
100
AcDbPolyline
 62
7
  6
CONTINUOUS
 90
3
 70
0
 10
0.0683586191
 20
8.6016583637
 10
0.3280348828
 20
8.1401289214
 10
0.5888521352
 20
7.679004064
  0
LINE
  5
4C5
100
AcDbEntity
  8
0
100
AcDbLine
 62
7
  6
CONTINUOUS
 10
-0.3244498017
 20
8.5124219895
 11
-0.5652306003
 21
8.9405985635
  0
LINE
  5
4C6
100
AcDbEntity
  8
0
100
AcDbLine
 62
7
  6
CONTINUOUS
 10
-0.5652306003
 20
8.9405985635
 11
-0.8050444746
 21
9.3691350836
  0
LINE
  5
4C7
100
AcDbEntity
  8
0
100
AcDbLine
 62
7
  6
CONTINUOUS
 10
-0.1901796201
 20
9.0635914847
 11
0.0683527278
 21
8.6016688779
  0
LINE
  5
4C8
100
AcDbEntity
  8
0
100
AcDbLine
 62
7
  6
CONTINUOUS
 10
-0.8050444746
 20
9.3691350836
 11
-1.0438763217
 21
9.7980042652
  0
LINE
  5
4C9
100
AcDbEntity
  8
0
100
AcDbLine
 62
7
  6
CONTINUOUS
 10
-0.4475808549
 20
9.5259178975
 11
-0.1901822072
 21
9.0635961072
  0
LINE
  5
4CA
100
AcDbEntity
  8
0
100
AcDbLine
 62
7
  6
CONTINUOUS
 10
0.5888521352
 20
7.679004064
 11
0.5968236185
 21
7.6646524005
  0
LWPOLYLINE
  5
4CB
100
AcDbEntity
  8
0
100
AcDbPolyline
 62
7
  6
CONTINUOUS
 90
5
 70
0
 10
-1.0438728091
 20
9.797997853
 10
-1.281715433
 20
10.2271956579
 10
-1.5185606494
 20
10.65670689
 10
-1.754414425
 20
11.0865324236
 10
-1.9892772011
 20
11.5166678316
  0
LINE
  5
4CC
100
AcDbEntity
  8
0
100
AcDbLine
 62
7
  6
CONTINUOUS
 10
-0.7038412624
 20
9.9886304245
 11
-0.4475801443
 21
9.525916626
  0
LINE
  5
4CD
100
AcDbEntity
  8
0
100
AcDbLine
 62
7
  6
CONTINUOUS
 10
-1.7247975652
 20
11.8566739402
 11
-1.7172620105
 21
11.8430244261
  0
LINE
  5
4CE
100
AcDbEntity
  8
0
100
AcDbLine
 62
7
  6
CONTINUOUS
 10
-0.9589402126
 20
10.4517033057
 11
-0.7038377244
 21
9.9886240021
  0
LINE
  5
4CF
100
AcDbEntity
  8
0
100
AcDbLine
 62
7
  6
CONTINUOUS
 10
0.162259055
 20
7.6531019584
 11
0.1600486552
 21
7.6571186738
  0
LINE
  5
4D0
100
AcDbEntity
  8
0
100
AcDbLine
 62
7
  6
CONTINUOUS
 10
-1.2128727636
 20
10.9151269829
 11
-0.9589354872
 21
10.4516946819
  0
LINE
  5
4D1
100
AcDbEntity
  8
0
100
AcDbLine
 62
7
  6
CONTINUOUS
 10
-1.4656463826
 20
11.378902335
 11
-1.2128687654
 21
10.9151196471
  0
LINE
  5
4D2
100
AcDbEntity
  8
0
100
AcDbLine
 62
7
  6
CONTINUOUS
 10
-1.7172620105
 20
11.8430244261
 11
-1.4656463826
 21
11.378902335
  0
LINE
  5
4D3
100
AcDbEntity
  8
0
100
AcDbLine
 62
7
  6
CONTINUOUS
 10
0.5968177207
 20
7.6646634783
 11
0.6045361783
 21
7.650176394
  0
LINE
  5
4D4
100
AcDbEntity
  8
0
100
AcDbLine
 62
7
  6
CONTINUOUS
 10
0.1643496162
 20
7.6490564159
 11
0.1621954203
 21
7.6532245902
  0
LWPOLYLINE
  5
4D5
100
AcDbEntity
  8
0
100
AcDbPolyline
 62
7
  6
CONTINUOUS
 90
5
 70
0
 10
0.6045462155
 20
7.6501569671
 10
0.6120200096
 20
7.6355178007
 10
0.6192506901
 20
7.6207219299
 10
0.6262327434
 20
7.6057824043
 10
0.6329494422
 20
7.5907382905
  0
LINE
  5
4D6
100
AcDbEntity
  8
0
100
AcDbLine
 62
7
  6
CONTINUOUS
 10
0.1663203466
 20
7.6449820497
 11
0.1642259612
 21
7.6493065535
  0
LWPOLYLINE
  5
4D7
100
AcDbEntity
  8
0
100
AcDbPolyline
 62
7
  6
CONTINUOUS
 90
35
 70
0
 10
0.619234582
 20
7.6207555875
 10
0.6262147041
 20
7.6058219436
 10
0.632930109
 20
7.5907826158
 10
0.6393788243
 20
7.5756419411
 10
0.6455629868
 20
7.5603956557
 10
0.6514719292
 20
7.545069672
 10
0.6571064019
 20
7.5296596244
 10
0.6624658151
 20
7.5141699503
 10
0.6675374749
 20
7.4986397583
 10
0.6723203546
 20
7.4830723797
 10
0.6768156224
 20
7.4674645468
 10
0.6810138557
 20
7.4518454606
 10
0.6849150921
 20
7.436209639
 10
0.6885194241
 20
7.4205626228
 10
0.6918174866
 20
7.4049501355
 10
0.6948078536
 20
7.3893784823
 10
0.6974920487
 20
7.3738414023
 10
0.6998651044
 20
7.3583657584
 10
0.7019266664
 20
7.3429457974
 10
0.7036771716
 20
7.3275873101
 10
0.7051128124
 20
7.3123344629
 10
0.706232708
 20
7.2971941034
 10
0.7070377833
 20
7.2821594047
 10
0.7075269125
 20
7.2672540099
 10
0.707699368
 20
7.2524715742
 10
0.7075559056
 20
7.2378184562
 10
0.7070975961
 20
7.2233373404
 10
0.7063239929
 20
7.2090356104
 10
0.7052355296
 20
7.1949058778
 10
0.7038345686
 20
7.1809686571
 10
0.7021199281
 20
7.1672175725
 10
0.7000927624
 20
7.1536589884
 10
0.6977589112
 20
7.1403325167
 10
0.6951186776
 20
7.1272452729
 10
0.692171691
 20
7.1143901121
  0
LWPOLYLINE
  5
4D8
100
AcDbEntity
  8
0
100
AcDbPolyline
 62
250
  6
CONTINUOUS
 90
43
 70
0
 10
5.8118322199
 20
-5.426192376
 10
5.811689184
 20
-5.4196886442
 10
5.8113556548
 20
-5.4130917581
 10
5.8108320985
 20
-5.4064109406
 10
5.8101192471
 20
-5.3996555316
 10
5.8092180972
 20
-5.3928349757
 10
5.8081299086
 20
-5.3859588083
 10
5.8068562026
 20
-5.3790366426
 10
5.8053987601
 20
-5.3720781561
 10
5.8037596185
 20
-5.3650930771
 10
5.8019410694
 20
-5.3580911711
 10
5.7999456554
 20
-5.3510822272
 10
5.797776166
 20
-5.3440760441
 10
5.7954356343
 20
-5.3370824168
 10
5.7929273325
 20
-5.3301111228
 10
5.7902547674
 20
-5.3231719083
 10
5.7874216752
 20
-5.3162744746
 10
5.7844320168
 20
-5.3094284647
 10
5.781289972
 20
-5.3026434496
 10
5.7779999333
 20
-5.2959289151
 10
5.7745665006
 20
-5.2892942485
 10
5.7709944737
 20
-5.2827487253
 10
5.7672888468
 20
-5.2763014965
 10
5.7634548003
 20
-5.2699615757
 10
5.7594976944
 20
-5.2637378262
 10
5.7554230615
 20
-5.2576389494
 10
5.751236598
 20
-5.2516734716
 10
5.7469441567
 20
-5.2458497329
 10
5.7425517389
 20
-5.2401758751
 10
5.7380654852
 20
-5.2346598306
 10
5.7334916676
 20
-5.2293093111
 10
5.7288366806
 20
-5.2241317969
 10
5.7241070321
 20
-5.2191345263
 10
5.7193093344
 20
-5.2143244858
 10
5.7144502948
 20
-5.2097084
 10
5.7095367066
 20
-5.2052927226
 10
5.7045754391
 20
-5.2010836267
 10
5.6995734285
 20
-5.1970869969
 10
5.6945376677
 20
-5.1933084207
 10
5.6894751972
 20
-5.1897531807
 10
5.6843930943
 20
-5.1864262473
 10
5.6792984642
 20
-5.1833322717
 10
5.6741984294
 20
-5.1804755794
  0
LWPOLYLINE
  5
4D9
100
AcDbEntity
  8
0
100
AcDbPolyline
 62
250
  6
CONTINUOUS
 90
28
 70
0
 10
5.8777296036
 20
-13.3152888931
 10
5.8845175798
 20
-13.6870778258
 10
5.8928379827
 20
-14.0580915566
 10
5.902690812
 20
-14.4283300858
 10
5.9140763698
 20
-14.7978020606
 10
5.9269943541
 20
-15.1664988337
 10
5.9414438591
 20
-15.5343944628
 10
5.957424992
 20
-15.9014888744
 10
5.9749376456
 20
-16.267782142
 10
5.9939805926
 20
-16.6332485441
 10
6.01455394
 20
-16.9978880191
 10
6.0366575808
 20
-17.3617006287
 10
6.0602899661
 20
-17.7246608357
 10
6.085451203
 20
-18.0867685784
 10
6.1121411843
 20
-18.4480239185
 10
6.1403580409
 20
-18.8084015053
 10
6.1701018796
 20
-19.1679012797
 10
6.2013725935
 20
-19.5265233007
 10
6.2341679918
 20
-19.8842423946
 10
6.2684881816
 20
-20.2410585018
 10
6.3043330557
 20
-20.5969716819
 10
6.3417001016
 20
-20.9519569407
 10
6.3805894275
 20
-21.3060142241
 10
6.4210009252
 20
-21.6591435862
 10
6.4629317571
 20
-22.0113201946
 10
6.5063809773
 20
-22.362535772
 10
6.5513495317
 20
-22.7127985958
 10
6.5978374203
 20
-23.062108666
  0
LWPOLYLINE
  5
4DA
100
AcDbEntity
  8
0
100
AcDbPolyline
 62
250
  6
CONTINUOUS
 90
10
 70
0
 10
5.8118336923
 20
-5.4261916743
 10
5.8131038735
 20
-6.3056460959
 10
5.815886997
 20
-7.1843791843
 10
5.8201830628
 20
-8.0623909395
 10
5.8259921317
 20
-8.9396822718
 10
5.8333141428
 20
-9.8162522709
 10
5.8421489139
 20
-10.6920982056
 10
5.8524963839
 20
-11.5672191658
 10
5.8643566138
 20
-12.4416160616
 10
5.8777296036
 20
-13.3152888931
  0
LWPOLYLINE
  5
4DB
100
AcDbEntity
  8
0
100
AcDbPolyline
 62
250
  6
CONTINUOUS
 90
10
 70
0
 10
5.8777296036
 20
3.1227392961
 10
5.8643566138
 20
2.2365959499
 10
5.8524963839
 20
1.3511392107
 10
5.8421489139
 20
0.4663690787
 10
5.8333141428
 20
-0.4177154134
 10
5.8259921317
 20
-1.3011132983
 10
5.8201830628
 20
-2.183821675
 10
5.815886997
 20
-3.0658395763
 10
5.8131038735
 20
-3.9471679694
 10
5.8118336923
 20
-4.8278068542
  0
LWPOLYLINE
  5
4DC
100
AcDbEntity
  8
0
100
AcDbPolyline
 62
250
  6
CONTINUOUS
 90
26
 70
0
 10
5.8118322199
 20
-4.8278075254
 10
5.8116891841
 20
-4.834253481
 10
5.8113556549
 20
-4.840588178
 10
5.8108320986
 20
-4.8468027603
 10
5.8101192473
 20
-4.8528885396
 10
5.8092180975
 20
-4.8588370076
 10
5.808129909
 20
-4.8646398481
 10
5.8068562032
 20
-4.8702889485
 10
5.8053987608
 20
-4.875776411
 10
5.8037596193
 20
-4.881094564
 10
5.8019410705
 20
-4.8862359723
 10
5.7999456566
 20
-4.8911934481
 10
5.7977761674
 20
-4.8959600605
 10
5.7954356359
 20
-4.9005291456
 10
5.7929273343
 20
-4.9048943157
 10
5.7902547693
 20
-4.9090494678
 10
5.7874216773
 20
-4.9129887931
 10
5.7844320192
 20
-4.9167067841
 10
5.7812899745
 20
-4.9201982428
 10
5.777999936
 20
-4.9234582881
 10
5.7745665034
 20
-4.9264823623
 10
5.7709944767
 20
-4.9292662375
 10
5.7672888498
 20
-4.9318060217
 10
5.7634548035
 20
-4.9340981643
 10
5.7594976977
 20
-4.9361394607
 10
5.7584064755
 20
-4.9366483276
  0
LINE
  5
4DD
100
AcDbEntity
  8
0
100
AcDbLine
 62
7
  6
CONTINUOUS
 10
-1.8669094782
 20
-11.1587305816
 11
-1.8627990472
 21
-11.153827485
  0
LINE
  5
4DE
100
AcDbEntity
  8
0
100
AcDbLine
 62
7
  6
CONTINUOUS
 10
-2.50560945
 20
-11.1378761442
 11
-2.5099083106
 21
-11.142518148
  0
LINE
  5
4DF
100
AcDbEntity
  8
0
100
AcDbLine
 62
7
  6
CONTINUOUS
 10
-1.8630146408
 20
-11.1540717564
 11
-1.8586927621
 21
-11.1494176038
  0
LINE
  5
4E0
100
AcDbEntity
  8
0
100
AcDbLine
 62
7
  6
CONTINUOUS
 10
-2.5096619857
 20
-11.1422656113
 11
-2.5141720549
 21
-11.1466526821
  0
LINE
  5
4E1
100
AcDbEntity
  8
0
100
AcDbLine
 62
7
  6
CONTINUOUS
 10
-1.8589403746
 20
-11.149670816
 11
-1.8544068385
 21
-11.1452712882
  0
LINE
  5
4E2
100
AcDbEntity
  8
0
100
AcDbLine
 62
7
  6
CONTINUOUS
 10
-2.5138917594
 20
-11.1463945236
 11
-2.518615827
 21
-11.1505254234
  0
LINE
  5
4E3
100
AcDbEntity
  8
0
100
AcDbLine
 62
7
  6
CONTINUOUS
 10
-4.9414088186
 20
-9.6569057328
 11
-4.932386473
 21
-9.65102785
  0
LINE
  5
4E4
100
AcDbEntity
  8
0
100
AcDbLine
 62
7
  6
CONTINUOUS
 10
-4.933243664
 20
-9.6515585255
 11
-4.9323849938
 21
-9.6510269459
  0
LINE
  5
4E5
100
AcDbEntity
  8
0
100
AcDbLine
 62
7
  6
CONTINUOUS
 10
-4.932386473
 20
-9.65102785
 11
-4.9248199703
 21
-9.6465827297
  0
LWPOLYLINE
  5
4E6
100
AcDbEntity
  8
0
100
AcDbPolyline
 62
7
  6
CONTINUOUS
 90
19
 70
0
 10
-4.9248404476
 20
-9.6465947596
 10
-4.9162527916
 20
-9.6420411329
 10
-4.9074371918
 20
-9.6378747823
 10
-4.8984083908
 20
-9.6341044097
 10
-4.8891707338
 20
-9.6307314372
 10
-4.8797502791
 20
-9.6277672378
 10
-4.8701501838
 20
-9.6252145507
 10
-4.8603674512
 20
-9.6230707243
 10
-4.850418913
 20
-9.6213390478
 10
-4.8403003322
 20
-9.6200192478
 10
-4.8300160897
 20
-9.6191116761
 10
-4.8195959449
 20
-9.6186205606
 10
-4.8090430605
 20
-9.6185480159
 10
-4.798354403
 20
-9.6188919977
 10
-4.7875504372
 20
-9.6196504953
 10
-4.7766290201
 20
-9.6208238076
 10
-4.7655924012
 20
-9.6224116936
 10
-4.75446763
 20
-9.62441133
 10
-4.7432575822
 20
-9.626823338
  0
LINE
  5
4E7
100
AcDbEntity
  8
0
100
AcDbLine
 62
250
  6
CONTINUOUS
 10
5.8118336923
 20
-4.8278068542
 11
9.6298718748
 21
-3.0870486973
  0
LINE
  5
4E8
100
AcDbEntity
  8
0
100
AcDbLine
 62
7
  6
CONTINUOUS
 10
5.7584018965
 20
-4.9366504155
 11
9.5754835838
 21
-3.1963283535
  0
LINE
  5
4E9
100
AcDbEntity
  8
0
100
AcDbLine
 62
7
  6
CONTINUOUS
 10
0.3820093276
 20
6.8756368419
 11
0.3706710594
 21
6.8775305569
  0
LINE
  5
4EA
100
AcDbEntity
  8
0
100
AcDbLine
 62
7
  6
CONTINUOUS
 10
0.3707126454
 20
6.8775228596
 11
0.3593106131
 21
6.8798388753
  0
LWPOLYLINE
  5
4EB
100
AcDbEntity
  8
0
100
AcDbPolyline
 62
7
  6
CONTINUOUS
 90
8
 70
0
 10
0.3592702511
 20
6.8798478233
 10
0.3478039766
 20
6.882587875
 10
0.3362916211
 20
6.8857458574
 10
0.3247297788
 20
6.8893229759
 10
0.3131217992
 20
6.8933179995
 10
0.3014972069
 20
6.8977224222
 10
0.2898658337
 20
6.9025334043
 10
0.278217819
 20
6.9077537725
  0
LWPOLYLINE
  5
4EC
100
AcDbEntity
  8
0
100
AcDbPolyline
 62
7
  6
CONTINUOUS
 90
3
 70
0
 10
-2.6733518268
 20
8.3839143749
 10
-2.680323862
 20
8.3869678922
 10
-2.6873129188
 20
8.390316552
  0
LINE
  5
4ED
100
AcDbEntity
  8
0
100
AcDbLine
 62
7
  6
CONTINUOUS
 10
0.2782264522
 20
6.9077499306
 11
0.2665531555
 21
6.9133835235
  0
LINE
  5
4EE
100
AcDbEntity
  8
0
100
AcDbLine
 62
7
  6
CONTINUOUS
 10
-4.6513667075
 20
9.3723434463
 11
-2.6873129188
 21
8.390316552
  0
LINE
  5
4EF
100
AcDbEntity
  8
0
100
AcDbLine
 62
7
  6
CONTINUOUS
 10
-1.6973599437
 20
7.8953400644
 11
0.2665531555
 21
6.9133835235
  0
LINE
  5
4F0
100
AcDbEntity
  8
0
100
AcDbLine
 62
7
  6
CONTINUOUS
 10
-4.4594079617
 20
9.8124849601
 11
-2.670806878
 21
8.9181844195
  0
LINE
  5
4F1
100
AcDbEntity
  8
0
100
AcDbLine
 62
7
  6
CONTINUOUS
 10
-1.6808547
 20
8.4232083305
 11
0.1076048742
 21
7.5289784732
  0
LWPOLYLINE
  5
4F2
100
AcDbEntity
  8
0
100
AcDbPolyline
 62
7
  6
CONTINUOUS
 90
6
 70
0
 10
-4.6513667075
 20
9.3723434463
 10
-4.6630281376
 20
9.3783771596
 10
-4.6746493542
 20
9.384792151
 10
-4.6862303501
 20
9.3915884238
 10
-4.6977808135
 20
9.3987730131
 10
-4.7092910274
 20
9.4063388969
  0
LINE
  5
4F3
100
AcDbEntity
  8
0
100
AcDbLine
 62
7
  6
CONTINUOUS
 10
-1.6973599436
 20
7.8953400644
 11
-1.7043452884
 21
7.8989758785
  0
LINE
  5
4F4
100
AcDbEntity
  8
0
100
AcDbLine
 62
7
  6
CONTINUOUS
 10
-2.6708068782
 20
8.9181844196
 11
-2.6638240387
 21
8.9145491748
  0
LINE
  5
4F5
100
AcDbEntity
  8
0
100
AcDbLine
 62
7
  6
CONTINUOUS
 10
-4.4624875759
 20
9.8141070215
 11
-4.4594079857
 21
9.812484253
  0
LINE
  5
4F6
100
AcDbEntity
  8
0
100
AcDbLine
 62
7
  6
CONTINUOUS
 10
-1.7043409956
 20
7.8989764358
 11
-1.7112889908
 21
7.9028829798
  0
LWPOLYLINE
  5
4F7
100
AcDbEntity
  8
0
100
AcDbPolyline
 62
7
  6
CONTINUOUS
 90
3
 70
0
 10
-2.6638282636
 20
8.9145485614
 10
-2.6568841271
 20
8.9106418366
 10
-2.6499744649
 20
8.9064642467
  0
LINE
  5
4F8
100
AcDbEntity
  8
0
100
AcDbLine
 62
7
  6
CONTINUOUS
 10
-4.4656363881
 20
9.8159318621
 11
-4.4625492933
 21
9.8141421374
  0
LWPOLYLINE
  5
4F9
100
AcDbEntity
  8
0
100
AcDbPolyline
 62
7
  6
CONTINUOUS
 90
36
 70
0
 10
-4.6746350241
 20
9.3847838627
 10
-4.6862102712
 20
9.391576287
 10
-4.6977559526
 20
9.3987571483
 10
-4.7092623286
 20
9.4063195013
 10
-4.7207002099
 20
9.4142424971
 10
-4.732066224
 20
9.4225239889
 10
-4.7433636871
 20
9.4311661491
 10
-4.7545734357
 20
9.4401546104
 10
-4.7656981745
 20
9.4494929676
 10
-4.7767351157
 20
9.4591776637
 10
-4.7876568524
 20
9.4691836057
 10
-4.7984609939
 20
9.4795086813
 10
-4.8091498246
 20
9.4901550511
 10
-4.8197029451
 20
9.5011040333
 10
-4.8301233203
 20
9.5123610002
 10
-4.8404078563
 20
9.5239206382
 10
-4.8505270653
 20
9.5357482364
 10
-4.8604767198
 20
9.5478391727
 10
-4.8702609035
 20
9.5601981346
 10
-4.8798625959
 20
9.5728043753
 10
-4.8892847163
 20
9.5856638992
 10
-4.8985241849
 20
9.5987707748
 10
-4.9075549861
 20
9.6120863492
 10
-4.9163728611
 20
9.6256049164
 10
-4.9249819036
 20
9.6393322572
 10
-4.9333686325
 20
9.653246947
 10
-4.9415361104
 20
9.6673559102
 10
-4.9494810996
 20
9.6816523016
 10
-4.9571806777
 20
9.6960940374
 10
-4.9646305149
 20
9.7106744312
 10
-4.9718347724
 20
9.7254002455
 10
-4.978783276
 20
9.7402495643
 10
-4.9854788824
 20
9.7552297598
 10
-4.9919185634
 20
9.7703335371
 10
-4.9980833321
 20
9.7855169733
 10
-5.003969391
 20
9.8007728701
  0
LINE
  5
4FA
100
AcDbEntity
  8
0
100
AcDbLine
 62
7
  6
CONTINUOUS
 10
-1.7112889908
 20
7.9028829798
 11
-1.7182039256
 21
7.9070596982
  0
LINE
  5
4FB
100
AcDbEntity
  8
0
100
AcDbLine
 62
7
  6
CONTINUOUS
 10
-4.4686873302
 20
9.8178631773
 11
-4.4655337809
 21
9.8158690357
  0
LINE
  5
4FC
100
AcDbEntity
  8
0
100
AcDbLine
 62
7
  6
CONTINUOUS
 10
-1.7182039256
 20
7.9070596982
 11
-1.7251964693
 21
7.9115829087
  0
LINE
  5
4FD
100
AcDbEntity
  8
0
100
AcDbLine
 62
7
  6
CONTINUOUS
 10
-2.6499744649
 20
8.9064642467
 11
-2.6429888954
 21
8.9019395637
  0
LINE
  5
4FE
100
AcDbEntity
  8
0
100
AcDbLine
 62
7
  6
CONTINUOUS
 10
-4.4717086885
 20
9.8199429702
 11
-4.4685465996
 21
9.8177702962
  0
LINE
  5
4FF
100
AcDbEntity
  8
0
100
AcDbLine
 62
7
  6
CONTINUOUS
 10
-1.725093485
 20
7.9115124418
 11
-1.732116246
 21
7.9163547175
  0
LINE
  5
500
100
AcDbEntity
  8
0
100
AcDbLine
 62
7
  6
CONTINUOUS
 10
-2.6430915928
 20
8.9020099524
 11
-2.6360772674
 21
8.8971654865
  0
LINE
  5
501
100
AcDbEntity
  8
0
100
AcDbLine
 62
7
  6
CONTINUOUS
 10
-1.7319499693
 20
7.9162353664
 11
-1.7389771451
 21
7.9213820017
  0
LINE
  5
502
100
AcDbEntity
  8
0
100
AcDbLine
 62
7
  6
CONTINUOUS
 10
-2.6362431802
 20
8.8972847995
 11
-2.6292258417
 21
8.8921352201
  0
LINE
  5
503
100
AcDbEntity
  8
0
100
AcDbLine
 62
7
  6
CONTINUOUS
 10
-4.4746938896
 20
9.8221643558
 11
-4.471531148
 21
9.819815889
  0
LINE
  5
504
100
AcDbEntity
  8
0
100
AcDbLine
 62
7
  6
CONTINUOUS
 10
-1.7387502943
 20
7.9212109328
 11
-1.7457770142
 21
7.9266662535
  0
LINE
  5
505
100
AcDbEntity
  8
0
100
AcDbLine
 62
7
  6
CONTINUOUS
 10
-2.6294522506
 20
8.8923063193
 11
-2.6224367524
 21
8.8868472729
  0
LINE
  5
506
100
AcDbEntity
  8
0
100
AcDbLine
 62
7
  6
CONTINUOUS
 10
-2.6227201996
 20
8.8870751146
 11
-2.6157078359
 21
8.8813031497
  0
LINE
  5
507
100
AcDbEntity
  8
0
100
AcDbLine
 62
7
  6
CONTINUOUS
 10
-2.0106819631
 20
11.5461568284
 11
-2.013644781
 21
11.5491169147
  0
LINE
  5
508
100
AcDbEntity
  8
0
100
AcDbLine
 62
7
  6
CONTINUOUS
 10
-2.008029522
 20
11.5433189909
 11
-2.0109464594
 21
11.5464298783
  0
LWPOLYLINE
  5
509
100
AcDbEntity
  8
0
100
AcDbPolyline
 62
7
  6
CONTINUOUS
 90
4
 70
0
 10
-1.8414369908
 20
12.0162137755
 10
-1.8314133105
 20
12.005416933
 10
-1.82154304
 20
11.9943430679
 10
-1.8118239182
 20
11.9829885948
  0
LINE
  5
50A
100
AcDbEntity
  8
0
100
AcDbLine
 62
7
  6
CONTINUOUS
 10
-2.0054316549
 20
11.5403560261
 11
-2.0082969635
 21
11.5436139011
  0
LWPOLYLINE
  5
50B
100
AcDbEntity
  8
0
100
AcDbPolyline
 62
7
  6
CONTINUOUS
 90
3
 70
0
 10
-1.821509855
 20
11.9943050727
 10
-1.8118248638
 20
11.9829918941
 10
-1.8023010694
 20
11.9714129275
  0
LINE
  5
50C
100
AcDbEntity
  8
0
100
AcDbLine
 62
7
  6
CONTINUOUS
 10
-2.0029009806
 20
11.5372811506
 11
-2.0056958985
 21
11.5406677667
  0
LINE
  5
50D
100
AcDbEntity
  8
0
100
AcDbLine
 62
7
  6
CONTINUOUS
 10
-1.8022580825
 20
11.9713571481
 11
-1.7928708781
 21
11.9594817382
  0
LINE
  5
50E
100
AcDbEntity
  8
0
100
AcDbLine
 62
7
  6
CONTINUOUS
 10
-2.0004367229
 20
11.5340922209
 11
-2.0031516019
 21
11.5375944131
  0
LINE
  5
50F
100
AcDbEntity
  8
0
100
AcDbLine
 62
7
  6
CONTINUOUS
 10
-1.7929421023
 20
11.9595736437
 11
-1.7836637228
 21
11.9473623355
  0
LINE
  5
510
100
AcDbEntity
  8
0
100
AcDbLine
 62
7
  6
CONTINUOUS
 10
-1.7837383236
 20
11.9474608865
 11
-1.7746350634
 21
11.9349990233
  0
LINE
  5
511
100
AcDbEntity
  8
0
100
AcDbLine
 62
7
  6
CONTINUOUS
 10
-1.9980396426
 20
11.5307913866
 11
-2.0006600686
 21
11.5343881892
  0
LINE
  5
512
100
AcDbEntity
  8
0
100
AcDbLine
 62
7
  6
CONTINUOUS
 10
-1.7746992323
 20
11.9350878677
 11
-1.7658057931
 21
11.9224249805
  0
LWPOLYLINE
  5
513
100
AcDbEntity
  8
0
100
AcDbPolyline
 62
7
  6
CONTINUOUS
 90
5
 70
0
 10
-1.7658571671
 20
11.9224996093
 10
-1.7572132763
 20
11.9096932538
 10
-1.7487662667
 20
11.8966717163
 10
-1.7405448277
 20
11.8834886728
 10
-1.7325584799
 20
11.8701620322
  0
LWPOLYLINE
  5
514
100
AcDbEntity
  8
0
100
AcDbPolyline
 62
250
  6
CONTINUOUS
 90
55
 70
0
 10
6.9404984546
 20
14.0687035581
 10
6.9397988903
 20
14.0810838505
 10
6.9388120677
 20
14.0936080322
 10
6.9375388199
 20
14.1062655313
 10
6.9359802215
 20
14.1190456631
 10
6.9341375884
 20
14.1319376395
 10
6.9320124758
 20
14.144930578
 10
6.9296066778
 20
14.1580135106
 10
6.9269222251
 20
14.1711753938
 10
6.9239613836
 20
14.1844051172
 10
6.9207266529
 20
14.197691513
 10
6.9172207634
 20
14.2110233658
 10
6.9134466746
 20
14.2243894218
 10
6.9094075723
 20
14.2377783981
 10
6.905106866
 20
14.2511789928
 10
6.9005481861
 20
14.2645798939
 10
6.8957353808
 20
14.2779697893
 10
6.8906725127
 20
14.2913373761
 10
6.8853638555
 20
14.3046713702
 10
6.8798138904
 20
14.3179605161
 10
6.8740273024
 20
14.3311935959
 10
6.8680089761
 20
14.3443594391
 10
6.8617639918
 20
14.3574469321
 10
6.855297621
 20
14.3704450271
 10
6.8486153223
 20
14.3833427521
 10
6.8417227364
 20
14.3961292196
 10
6.8346256816
 20
14.4087936363
 10
6.8273301487
 20
14.4213253116
 10
6.8198422961
 20
14.4337136671
 10
6.8121684446
 20
14.4459482454
 10
6.8043150719
 20
14.4580187189
 10
6.7962888074
 20
14.4699148985
 10
6.7880964262
 20
14.4816267422
 10
6.7797448439
 20
14.4931443636
 10
6.7712411102
 20
14.5044580405
 10
6.7625924035
 20
14.5155582224
 10
6.7538060244
 20
14.5264355394
 10
6.7448893899
 20
14.5370808095
 10
6.7358500266
 20
14.5474850468
 10
6.7266955651
 20
14.5576394686
 10
6.717433733
 20
14.5675355033
 10
6.7080723484
 20
14.5771647973
 10
6.6986193137
 20
14.5865192222
 10
6.6890826084
 20
14.5955908816
 10
6.6794702829
 20
14.6043721178
 10
6.6697904511
 20
14.6128555183
 10
6.6600512842
 20
14.621033922
 10
6.6502610032
 20
14.6289004251
 10
6.6404278727
 20
14.6364483873
 10
6.6305601929
 20
14.6436714372
 10
6.6206662935
 20
14.6505634775
 10
6.6107545264
 20
14.6571186903
 10
6.6008332583
 20
14.6633315423
 10
6.5909108642
 20
14.6691967889
 10
6.5809957198
 20
14.6747094792
  0
LWPOLYLINE
  5
515
100
AcDbEntity
  8
0
100
AcDbPolyline
 62
250
  6
CONTINUOUS
 90
33
 70
0
 10
6.9404984546
 20
-23.2702051685
 10
6.9397988903
 20
-23.2829492636
 10
6.9388120677
 20
-23.2955282611
 10
6.9375388198
 20
-23.3079315424
 10
6.9359802214
 20
-23.3201486376
 10
6.9341375882
 20
-23.3321692338
 10
6.9320124756
 20
-23.3439831841
 10
6.9296066775
 20
-23.3555805158
 10
6.9269222247
 20
-23.3669514393
 10
6.9239613832
 20
-23.378086356
 10
6.9207266524
 20
-23.3889758666
 10
6.9172207628
 20
-23.3996107788
 10
6.9134466739
 20
-23.4099821154
 10
6.9094075714
 20
-23.4200811215
 10
6.9051068651
 20
-23.4298992724
 10
6.9005481851
 20
-23.43942828
 10
6.8957353797
 20
-23.4486601007
 10
6.8906725114
 20
-23.4575869416
 10
6.8853638541
 20
-23.4662012673
 10
6.879813889
 20
-23.4744958061
 10
6.8740273009
 20
-23.4824635562
 10
6.8680089745
 20
-23.490097792
 10
6.8617639901
 20
-23.497392069
 10
6.8552976192
 20
-23.5043402299
 10
6.8486153205
 20
-23.5109364095
 10
6.8417227345
 20
-23.5171750398
 10
6.8346256796
 20
-23.5230508545
 10
6.8273301467
 20
-23.5285588937
 10
6.8198422941
 20
-23.5336945079
 10
6.8121684425
 20
-23.5384533618
 10
6.8043150699
 20
-23.5428314385
 10
6.7962888053
 20
-23.5468250422
 10
6.7880964241
 20
-23.5504308017
  0
LWPOLYLINE
  5
516
100
AcDbEntity
  8
0
100
AcDbPolyline
 62
7
  6
CONTINUOUS
 90
15
 70
0
 10
0.1664138125
 20
-12.7082011544
 10
0.1682581802
 20
-12.7061779699
 10
0.1699877055
 20
-12.7040108013
 10
0.1715916746
 20
-12.7017256894
 10
0.1730661719
 20
-12.6993255496
 10
0.1744151242
 20
-12.6968074603
 10
0.1756395771
 20
-12.6941887094
 10
0.1767388185
 20
-12.6914734705
 10
0.1777135685
 20
-12.6886575655
 10
0.1785670187
 20
-12.6857457555
 10
0.1793009212
 20
-12.6827339197
 10
0.1799135323
 20
-12.6796261743
 10
0.1804027967
 20
-12.6764396375
 10
0.1807676715
 20
-12.6731703947
 10
0.1810092038
 20
-12.6698223583
  0
LINE
  5
517
100
AcDbEntity
  8
0
100
AcDbLine
 62
7
  6
CONTINUOUS
 10
-1.854688554
 20
-11.1455301972
 11
-1.8499406459
 21
-11.1413865822
  0
LINE
  5
518
100
AcDbEntity
  8
0
100
AcDbLine
 62
7
  6
CONTINUOUS
 10
-2.5183006363
 20
-11.1502653192
 11
-2.5232268652
 21
-11.1541250399
  0
LINE
  5
519
100
AcDbEntity
  8
0
100
AcDbLine
 62
7
  6
CONTINUOUS
 10
-1.8502573766
 20
-11.1416475027
 11
-1.8453070631
 21
-11.1377748942
  0
LWPOLYLINE
  5
51A
100
AcDbEntity
  8
0
100
AcDbPolyline
 62
7
  6
CONTINUOUS
 90
3
 70
0
 10
-2.5228801529
 20
-11.1538683243
 10
-2.5280058661
 20
-11.1574509976
 10
-2.5329522071
 20
-11.1605038712
  0
LINE
  5
51B
100
AcDbEntity
  8
0
100
AcDbLine
 62
7
  6
CONTINUOUS
 10
-1.8456554066
 20
-11.1380324773
 11
-1.8405054719
 21
-11.1344367973
  0
LINE
  5
51C
100
AcDbEntity
  8
0
100
AcDbLine
 62
7
  6
CONTINUOUS
 10
-1.8408828986
 20
-11.1346849928
 11
-1.8379759819
 21
-11.13282839
  0
LINE
  5
51D
100
AcDbEntity
  8
0
100
AcDbLine
 62
7
  6
CONTINUOUS
 10
-2.5276301277
 20
-11.1572037042
 11
-2.5325508133
 21
-11.1602713328
  0
LINE
  5
51E
100
AcDbEntity
  8
0
100
AcDbLine
 62
7
  6
CONTINUOUS
 10
-1.8379759819
 20
-11.13282839
 11
-1.8355365645
 21
-11.1313717586
  0
LINE
  5
51F
100
AcDbEntity
  8
0
100
AcDbLine
 62
7
  6
CONTINUOUS
 10
-2.5325508133
 20
-11.1602713328
 11
-2.538051153
 21
-11.1632739948
  0
LWPOLYLINE
  5
520
100
AcDbEntity
  8
0
100
AcDbPolyline
 62
7
  6
CONTINUOUS
 90
6
 70
0
 10
-4.5029689939
 20
-10.2558049211
 10
-4.5051388904
 20
-10.2568976795
 10
-4.5072161968
 20
-10.2581355668
 10
-4.5091986527
 20
-10.2595180178
 10
-4.5110885031
 20
-10.2610455891
 10
-4.5129774645
 20
-10.2628090034
  0
LINE
  5
521
100
AcDbEntity
  8
0
100
AcDbLine
 62
250
  6
CONTINUOUS
 10
9.4884074123
 20
-3.362680471
 11
5.6741984294
 21
-5.1804755794
  0
LINE
  5
522
100
AcDbEntity
  8
0
100
AcDbLine
 62
250
  6
CONTINUOUS
 10
9.6298718748
 20
-3.6065716265
 11
5.8118336923
 21
-5.4261916743
  0
LWPOLYLINE
  5
523
100
AcDbEntity
  8
0
100
AcDbPolyline
 62
250
  6
CONTINUOUS
 90
55
 70
0
 10
5.6741984294
 20
-5.1804755794
 10
5.667869504
 20
-5.1834075882
 10
5.6613902793
 20
-5.1862442351
 10
5.6547607556
 20
-5.1889855201
 10
5.6479751433
 20
-5.1916335952
 10
5.6410392318
 20
-5.1941863085
 10
5.6339703893
 20
-5.1966372042
 10
5.6267684644
 20
-5.1989859517
 10
5.6194336084
 20
-5.2012328817
 10
5.6119836428
 20
-5.2033725307
 10
5.6044183085
 20
-5.2054046308
 10
5.5967378645
 20
-5.2073294499
 10
5.5889609102
 20
-5.2091423288
 10
5.5810872094
 20
-5.2108429975
 10
5.5731169981
 20
-5.212431726
 10
5.5650695838
 20
-5.2139046643
 10
5.5569447706
 20
-5.2152615329
 10
5.5487427544
 20
-5.2165026113
 10
5.5404834299
 20
-5.217624889
 10
5.5321666631
 20
-5.2186280765
 10
5.5237925879
 20
-5.2195124631
 10
5.5153815015
 20
-5.2202759061
 10
5.5069333168
 20
-5.2209181119
 10
5.4984481208
 20
-5.221439374
 10
5.4899464716
 20
-5.2218384297
 10
5.4814283258
 20
-5.222114983
 10
5.4728937267
 20
-5.2222693299
 10
5.4643633628
 20
-5.2223010963
 10
5.4558372434
 20
-5.2222099847
 10
5.447315359
 20
-5.2219962926
 10
5.4388183696
 20
-5.2216605388
 10
5.4303463397
 20
-5.2212024273
 10
5.4218992048
 20
-5.2206222542
 10
5.4134974303
 20
-5.2199214254
 10
5.4051411238
 20
-5.2190996483
 10
5.3968301778
 20
-5.2181572157
 10
5.3885847353
 20
-5.2170964118
 10
5.3804049506
 20
-5.2159169484
 10
5.3722906696
 20
-5.2146191137
 10
5.3642615725
 20
-5.2132060567
 10
5.3563178747
 20
-5.2116774992
 10
5.3484593609
 20
-5.2100337194
 10
5.340705066
 20
-5.2082787008
 10
5.3330552447
 20
-5.2064121751
 10
5.3255096424
 20
-5.2044344106
 10
5.3180865303
 20
-5.2023501951
 10
5.310786186
 20
-5.2001592625
 10
5.303608332
 20
-5.1978618789
 10
5.2965704065
 20
-5.1954636301
 10
5.2896725973
 20
-5.1929641932
 10
5.2829147168
 20
-5.1903638911
 10
5.2763136408
 20
-5.1876692786
 10
5.2698749945
 20
-5.1848825406
 10
5.2635931527
 20
-5.1820014921
 10
5.2574681154
 20
-5.1790261331
  0
LWPOLYLINE
  5
524
100
AcDbEntity
  8
0
100
AcDbPolyline
 62
250
  6
CONTINUOUS
 90
55
 70
0
 10
5.8118336923
 20
-5.4261916799
 10
5.8012952775
 20
-5.4310349506
 10
5.7904898339
 20
-5.4357260618
 10
5.7794261289
 20
-5.4402612806
 10
5.7681132851
 20
-5.4446369922
 10
5.7565603362
 20
-5.4488497327
 10
5.7447761888
 20
-5.4528961702
 10
5.7327701754
 20
-5.4567731362
 10
5.7205521915
 20
-5.4604774716
 10
5.7081322356
 20
-5.4640060496
 10
5.695520409
 20
-5.4673560483
 10
5.682726864
 20
-5.4705248217
 10
5.6697619129
 20
-5.4735097263
 10
5.6566360346
 20
-5.4763083927
 10
5.6433598551
 20
-5.4789186006
 10
5.6299441009
 20
-5.481338153
 10
5.6163996107
 20
-5.4835651353
 10
5.6027373533
 20
-5.4855977875
 10
5.588968407
 20
-5.4874343776
 10
5.5751039184
 20
-5.4890734585
 10
5.5611550948
 20
-5.4905137486
 10
5.5471332212
 20
-5.4917540037
 10
5.533049645
 20
-5.4927932573
 10
5.5189157543
 20
-5.4936307103
 10
5.5047429703
 20
-5.4942656116
 10
5.4905427521
 20
-5.4946974816
 10
5.476326592
 20
-5.4949260089
 10
5.4621059937
 20
-5.4949509396
 10
5.4478924605
 20
-5.4947722843
 10
5.43369749
 20
-5.4943902233
 10
5.4195325685
 20
-5.493805003
 10
5.4054091596
 20
-5.4930171247
 10
5.3913386822
 20
-5.4920272588
 10
5.3773325057
 20
-5.4908361483
 10
5.3634019554
 20
-5.48944478
 10
5.3495583044
 20
-5.4878543092
 10
5.3358127519
 20
-5.4860659724
 10
5.3221764087
 20
-5.484081235
 10
5.3086603138
 20
-5.4819017298
 10
5.2952754251
 20
-5.4795291813
 10
5.282032582
 20
-5.4769655287
 10
5.2689424828
 20
-5.4742128673
 10
5.2560157011
 20
-5.4712733858
 10
5.2432627009
 20
-5.4681494768
 10
5.2306937897
 20
-5.464843685
 10
5.2183190982
 20
-5.4613586464
 10
5.206148589
 20
-5.4576971724
 10
5.1941921587
 20
-5.4538622526
 10
5.1824595872
 20
-5.4498570055
 10
5.170960537
 20
-5.4456847449
 10
5.1597041204
 20
-5.4413487994
 10
5.1486990306
 20
-5.4368524967
 10
5.1379540608
 20
-5.4321993991
 10
5.1274780665
 20
-5.4273933212
 10
5.1172795479
 20
-5.4224381394
  0
LWPOLYLINE
  5
525
100
AcDbEntity
  8
0
100
AcDbPolyline
 62
7
  6
CONTINUOUS
 90
6
 70
0
 10
-4.5012113442
 20
-10.2550551624
 10
-4.5031512021
 20
-10.2558899127
 10
-4.5053097594
 20
-10.2569930633
 10
-4.5073732502
 20
-10.2582376682
 10
-4.5093381725
 20
-10.2596233396
 10
-4.5112080139
 20
-10.2611504572
  0
LINE
  5
526
100
AcDbEntity
  8
0
100
AcDbLine
 62
7
  6
CONTINUOUS
 10
-1.7761627978
 20
8.4428040908
 11
-1.7693769412
 21
8.4434148515
  0
LINE
  5
527
100
AcDbEntity
  8
0
100
AcDbLine
 62
7
  6
CONTINUOUS
 10
-2.5921307419
 20
8.3706520718
 11
-2.5988975924
 21
8.3700501132
  0
LINE
  5
528
100
AcDbEntity
  8
0
100
AcDbLine
 62
7
  6
CONTINUOUS
 10
-1.7697664575
 20
8.4433903351
 11
-1.7628896548
 21
8.443678715
  0
LINE
  5
529
100
AcDbEntity
  8
0
100
AcDbLine
 62
7
  6
CONTINUOUS
 10
-2.5985094209
 20
8.3700741257
 11
-2.6053683883
 21
8.3697940663
  0
LINE
  5
52A
100
AcDbEntity
  8
0
100
AcDbLine
 62
7
  6
CONTINUOUS
 10
-1.7632886402
 20
8.4436714269
 11
-1.7563250606
 21
8.4436369322
  0
LINE
  5
52B
100
AcDbEntity
  8
0
100
AcDbLine
 62
7
  6
CONTINUOUS
 10
-2.6049706723
 20
8.3698008848
 11
-2.6119176752
 21
8.369843191
  0
LINE
  5
52C
100
AcDbEntity
  8
0
100
AcDbLine
 62
7
  6
CONTINUOUS
 10
-1.7567300125
 20
8.4436491119
 11
-1.7496828783
 21
8.4432900246
  0
LINE
  5
52D
100
AcDbEntity
  8
0
100
AcDbLine
 62
7
  6
CONTINUOUS
 10
-2.611513866
 20
8.3698305814
 11
-2.6185457828
 21
8.3701969441
  0
LINE
  5
52E
100
AcDbEntity
  8
0
100
AcDbLine
 62
7
  6
CONTINUOUS
 10
0.40446168
 20
6.8731204964
 11
0.3932822126
 21
6.8741659501
  0
LINE
  5
52F
100
AcDbEntity
  8
0
100
AcDbLine
 62
7
  6
CONTINUOUS
 10
-1.7500899604
 20
8.4433216208
 11
-1.7429825499
 21
8.4426385551
  0
LINE
  5
530
100
AcDbEntity
  8
0
100
AcDbLine
 62
7
  6
CONTINUOUS
 10
-2.6181396846
 20
8.3701649593
 11
-2.6252333644
 21
8.3708547459
  0
LINE
  5
531
100
AcDbEntity
  8
0
100
AcDbLine
 62
7
  6
CONTINUOUS
 10
0.3933254917
 20
6.8741610653
 11
0.382051908
 21
6.8756304689
  0
LINE
  5
532
100
AcDbEntity
  8
0
100
AcDbLine
 62
7
  6
CONTINUOUS
 10
-1.7433749048
 20
8.4426849183
 11
-1.7362241436
 21
8.4416816304
  0
LINE
  5
533
100
AcDbEntity
  8
0
100
AcDbLine
 62
7
  6
CONTINUOUS
 10
-2.6248418129
 20
8.3708080395
 11
-2.6319804052
 21
8.3718174692
  0
LINE
  5
534
100
AcDbEntity
  8
0
100
AcDbLine
 62
7
  6
CONTINUOUS
 10
-1.736575692
 20
8.4417368454
 11
-1.7294076326
 21
8.4404201252
  0
LINE
  5
535
100
AcDbEntity
  8
0
100
AcDbLine
 62
7
  6
CONTINUOUS
 10
-2.6316294405
 20
8.3717619646
 11
-2.6387869616
 21
8.3730842224
  0
LWPOLYLINE
  5
536
100
AcDbEntity
  8
0
100
AcDbPolyline
 62
7
  6
CONTINUOUS
 90
13
 70
0
 10
0.1230721252
 20
7.5232943494
 10
0.1260674766
 20
7.5226783318
 10
0.1290057601
 20
7.5222381246
 10
0.1318928154
 20
7.5219710301
 10
0.1347192203
 20
7.5218690942
 10
0.1374815255
 20
7.5219311997
 10
0.1401831911
 20
7.5221584688
 10
0.142825159
 20
7.5225463063
 10
0.1454115421
 20
7.5230944648
 10
0.1479382412
 20
7.5238031978
 10
0.1503938807
 20
7.5246686623
 10
0.1527803928
 20
7.5256935299
 10
0.1550958608
 20
7.5268751359
  0
LWPOLYLINE
  5
537
100
AcDbEntity
  8
0
100
AcDbPolyline
 62
7
  6
CONTINUOUS
 90
14
 70
0
 10
0.1228131912
 20
7.5233535456
 10
0.1257725331
 20
7.522731448
 10
0.1286906794
 20
7.5222780413
 10
0.1315694986
 20
7.5219924423
 10
0.1343983582
 20
7.5218722945
 10
0.1371779474
 20
7.5219180218
 10
0.1399075884
 20
7.5221292054
 10
0.142574598
 20
7.5225022255
 10
0.145177839
 20
7.5230373145
 10
0.1477184622
 20
7.5237342461
 10
0.1501872162
 20
7.5245887113
 10
0.1525855286
 20
7.5256022103
 10
0.1549119872
 20
7.5267732498
 10
0.1566938838
 20
7.5278062391
  0
LINE
  5
538
100
AcDbEntity
  8
0
100
AcDbLine
 62
7
  6
CONTINUOUS
 10
-1.7297015169
 20
8.4404795426
 11
-1.7225523141
 21
8.4388572556
  0
LINE
  5
539
100
AcDbEntity
  8
0
100
AcDbLine
 62
7
  6
CONTINUOUS
 10
-2.638493419
 20
8.3730245733
 11
-2.6456337918
 21
8.3746517804
  0
LINE
  5
53A
100
AcDbEntity
  8
0
100
AcDbLine
 62
7
  6
CONTINUOUS
 10
0.1198145139
 20
7.5241434472
 11
0.1230721252
 21
7.5232943494
  0
LINE
  5
53B
100
AcDbEntity
  8
0
100
AcDbLine
 62
7
  6
CONTINUOUS
 10
-1.7227863218
 20
8.4389154232
 11
-1.7156568524
 21
8.4369922075
  0
LINE
  5
53C
100
AcDbEntity
  8
0
100
AcDbLine
 62
7
  6
CONTINUOUS
 10
-2.6453999239
 20
8.3745934318
 11
-2.6525222617
 21
8.3765209427
  0
LINE
  5
53D
100
AcDbEntity
  8
0
100
AcDbLine
 62
7
  6
CONTINUOUS
 10
-1.7158283791
 20
8.4370409817
 11
-1.7087226117
 21
8.4348257821
  0
LINE
  5
53E
100
AcDbEntity
  8
0
100
AcDbLine
 62
7
  6
CONTINUOUS
 10
-2.6523507328
 20
8.3764720239
 11
-2.6594510341
 21
8.3786908968
  0
LINE
  5
53F
100
AcDbEntity
  8
0
100
AcDbLine
 62
7
  6
CONTINUOUS
 10
0.1167927269
 20
7.5251008543
 11
0.1200255373
 21
7.5240834759
  0
LWPOLYLINE
  5
540
100
AcDbEntity
  8
0
100
AcDbPolyline
 62
7
  6
CONTINUOUS
 90
4
 70
0
 10
-1.7088294459
 20
8.4348597104
 10
-1.7018286883
 20
8.4323845213
 10
-1.6948391668
 20
8.4296197161
 10
-1.6878478361
 20
8.4265609864
  0
LWPOLYLINE
  5
541
100
AcDbEntity
  8
0
100
AcDbPolyline
 62
7
  6
CONTINUOUS
 90
4
 70
0
 10
-2.6593440977
 20
8.3786568524
 10
-2.6663409038
 20
8.3811350129
 10
-2.6733281179
 20
8.3839022015
 10
-2.6803187884
 20
8.3869627151
  0
LINE
  5
542
100
AcDbEntity
  8
0
100
AcDbLine
 62
7
  6
CONTINUOUS
 10
0.113753237
 20
7.5262256666
 11
0.1169546426
 21
7.5250455662
  0
LWPOLYLINE
  5
543
100
AcDbEntity
  8
0
100
AcDbPolyline
 62
7
  6
CONTINUOUS
 90
3
 70
0
 10
0.1076230258
 20
7.5289694663
 10
0.1107578771
 20
7.5274885382
 10
0.1138684157
 20
7.5261805713
  0
LINE
  5
544
100
AcDbEntity
  8
0
100
AcDbLine
 62
7
  6
CONTINUOUS
 10
-1.6878428635
 20
8.4265558379
 11
-1.6808547
 21
8.4232083305
  0
LINE
  5
545
100
AcDbEntity
  8
0
100
AcDbLine
 62
7
  6
CONTINUOUS
 10
-2.0246848529
 20
11.5583933677
 11
-2.0277585144
 21
11.5605271125
  0
LINE
  5
546
100
AcDbEntity
  8
0
100
AcDbLine
 62
7
  6
CONTINUOUS
 10
-2.0217990029
 20
11.5562185888
 11
-2.02487365
 21
11.5585288649
  0
LINE
  5
547
100
AcDbEntity
  8
0
100
AcDbLine
 62
7
  6
CONTINUOUS
 10
-2.0189541665
 20
11.5539063383
 11
-2.0220059759
 21
11.5563797658
  0
LINE
  5
548
100
AcDbEntity
  8
0
100
AcDbLine
 62
7
  6
CONTINUOUS
 10
-2.0161512333
 20
11.5514565244
 11
-2.019177248
 21
11.5540939069
  0
LINE
  5
549
100
AcDbEntity
  8
0
100
AcDbLine
 62
7
  6
CONTINUOUS
 10
-2.0133893051
 20
11.5488692425
 11
-2.0163915455
 21
11.551673789
  0
LINE
  5
54A
100
AcDbEntity
  8
0
100
AcDbLine
 62
7
  6
CONTINUOUS
 10
-1.8722793583
 20
12.0467709465
 11
-1.8618328684
 21
12.0368533035
  0
LINE
  5
54B
100
AcDbEntity
  8
0
100
AcDbLine
 62
7
  6
CONTINUOUS
 10
-1.8618917392
 20
12.0369113911
 11
-1.8515289178
 21
12.0266441973
  0
LINE
  5
54C
100
AcDbEntity
  8
0
100
AcDbLine
 62
7
  6
CONTINUOUS
 10
-1.851595334
 20
12.0267114141
 11
-1.8413738349
 21
12.0161473822
  0
LINE
  5
54D
100
AcDbEntity
  8
0
100
AcDbLine
 62
7
  6
CONTINUOUS
 10
9.0785760139
 20
15.1982026882
 11
9.6298718748
 21
7.9981226277
  0
LINE
  5
54E
100
AcDbEntity
  8
0
100
AcDbLine
 62
7
  6
CONTINUOUS
 10
9.6298718748
 20
-3.6065716265
 11
9.6298718748
 21
-14.6917429515
  0
LINE
  5
54F
100
AcDbEntity
  8
0
100
AcDbLine
 62
7
  6
CONTINUOUS
 10
9.6298718748
 20
-3.0870486973
 11
9.6298718748
 21
7.9981226277
  0
LINE
  5
550
100
AcDbEntity
  8
0
100
AcDbLine
 62
7
  6
CONTINUOUS
 10
0.6395151989
 20
-13.1000022304
 11
0.6330669396
 21
-13.1078268691
  0
LWPOLYLINE
  5
551
100
AcDbEntity
  8
0
100
AcDbPolyline
 62
7
  6
CONTINUOUS
 90
16
 70
0
 10
0.1662853478
 20
-12.7083323985
 10
0.1681011932
 20
-12.7063618417
 10
0.1698089732
 20
-12.7042506414
 10
0.1714005981
 20
-12.7020146058
 10
0.1728745521
 20
-12.6996545779
 10
0.1742323647
 20
-12.697169707
 10
0.1754705095
 20
-12.6945732628
 10
0.1765888967
 20
-12.6918640908
 10
0.1775876276
 20
-12.6890433392
 10
0.1784634586
 20
-12.6861277342
 10
0.1792156737
 20
-12.6831179342
 10
0.1798449965
 20
-12.6800132766
 10
0.1803503389
 20
-12.6768285079
 10
0.1807312282
 20
-12.6735610706
 10
0.1809881414
 20
-12.6702135198
 10
0.1811284692
 20
-12.6664243894
  0
LINE
  5
552
100
AcDbEntity
  8
0
100
AcDbLine
 62
7
  6
CONTINUOUS
 10
0.1643641275
 20
-12.7101570462
 11
0.1664138125
 21
-12.7082011544
  0
LWPOLYLINE
  5
553
100
AcDbEntity
  8
0
100
AcDbPolyline
 62
7
  6
CONTINUOUS
 90
4
 70
0
 10
0.6121447477
 20
-13.1291545152
 10
0.604675147
 20
-13.1355135868
 10
0.5969576332
 20
-13.1414976668
 10
0.5889921228
 20
-13.1471068017
  0
LWPOLYLINE
  5
554
100
AcDbEntity
  8
0
100
AcDbPolyline
 62
7
  6
CONTINUOUS
 90
3
 70
0
 10
0.1602022872
 20
-12.7133808073
 10
0.162387661
 20
-12.7117982278
 10
0.1644581667
 20
-12.7100716783
  0
LINE
  5
555
100
AcDbEntity
  8
0
100
AcDbLine
 62
7
  6
CONTINUOUS
 10
-1.8359396692
 20
-11.1316052164
 11
-1.8304151906
 21
-11.1285895305
  0
LINE
  5
556
100
AcDbEntity
  8
0
100
AcDbLine
 62
7
  6
CONTINUOUS
 10
-1.8308336293
 20
-11.1288033381
 11
-1.8251409813
 21
-11.1260908882
  0
LINE
  5
557
100
AcDbEntity
  8
0
100
AcDbLine
 62
7
  6
CONTINUOUS
 10
-2.537634401
 20
-11.1630611013
 11
-2.5433031448
 21
-11.1657606304
  0
LINE
  5
558
100
AcDbEntity
  8
0
100
AcDbLine
 62
7
  6
CONTINUOUS
 10
-2.5428864507
 20
-11.1655743454
 11
-2.5471554597
 21
-11.1673654321
  0
LINE
  5
559
100
AcDbEntity
  8
0
100
AcDbLine
 62
7
  6
CONTINUOUS
 10
-1.8255592684
 20
-11.1262780482
 11
-1.819714378
 21
-11.123875096
  0
LINE
  5
55A
100
AcDbEntity
  8
0
100
AcDbLine
 62
7
  6
CONTINUOUS
 10
-2.5471554597
 20
-11.1673654321
 11
-2.5487078141
 21
-11.1679645559
  0
LINE
  5
55B
100
AcDbEntity
  8
0
100
AcDbLine
 62
7
  6
CONTINUOUS
 10
-1.8201221657
 20
-11.124030694
 11
-1.8141514497
 21
-11.1219496409
  0
LINE
  5
55C
100
AcDbEntity
  8
0
100
AcDbLine
 62
7
  6
CONTINUOUS
 10
-2.5483014712
 20
-11.1678097673
 11
-2.554249214
 21
-11.1698783807
  0
LINE
  5
55D
100
AcDbEntity
  8
0
100
AcDbLine
 62
7
  6
CONTINUOUS
 10
-1.8145468729
 20
-11.1220754538
 11
-1.8084501202
 21
-11.1203150893
  0
LINE
  5
55E
100
AcDbEntity
  8
0
100
AcDbLine
 62
7
  6
CONTINUOUS
 10
-2.5538550817
 20
-11.1697533109
 11
-2.5599294881
 21
-11.1715015748
  0
LINE
  5
55F
100
AcDbEntity
  8
0
100
AcDbLine
 62
7
  6
CONTINUOUS
 10
-1.79482955
 20
8.4392016725
 11
-1.7883128917
 21
8.4407940012
  0
LINE
  5
560
100
AcDbEntity
  8
0
100
AcDbLine
 62
7
  6
CONTINUOUS
 10
-2.5735229952
 20
8.3742270712
 11
-2.5800175076
 21
8.3726449131
  0
LINE
  5
561
100
AcDbEntity
  8
0
100
AcDbLine
 62
7
  6
CONTINUOUS
 10
-1.7886943765
 20
8.440709745
 11
-1.7820982283
 21
8.4419728583
  0
LINE
  5
562
100
AcDbEntity
  8
0
100
AcDbLine
 62
7
  6
CONTINUOUS
 10
-2.5796375615
 20
8.3727285298
 11
-2.586212559
 21
8.3714751505
  0
LINE
  5
563
100
AcDbEntity
  8
0
100
AcDbLine
 62
7
  6
CONTINUOUS
 10
-1.7824693173
 20
8.441911459
 11
-1.7757865867
 21
8.4428458869
  0
LINE
  5
564
100
AcDbEntity
  8
0
100
AcDbLine
 62
7
  6
CONTINUOUS
 10
-2.5858429176
 20
8.3715359701
 11
-2.5925055642
 21
8.3706108125
  0
LWPOLYLINE
  5
565
100
AcDbEntity
  8
0
100
AcDbPolyline
 62
7
  6
CONTINUOUS
 90
3
 70
0
 10
-2.0394392474
 20
11.5669928221
 10
-2.0424290056
 20
11.5682421911
 10
-2.0454137089
 20
11.5693270239
  0
LINE
  5
566
100
AcDbEntity
  8
0
100
AcDbLine
 62
7
  6
CONTINUOUS
 10
-2.0155330838
 20
12.1442214678
 11
-2.0039983855
 21
12.1388224781
  0
LINE
  5
567
100
AcDbEntity
  8
0
100
AcDbLine
 62
7
  6
CONTINUOUS
 10
-2.0364945119
 20
11.5656026472
 11
-2.039428007
 21
11.5669884734
  0
LINE
  5
568
100
AcDbEntity
  8
0
100
AcDbLine
 62
7
  6
CONTINUOUS
 10
-2.0042065026
 20
12.1389239496
 11
-1.9926930095
 21
12.1331345097
  0
LINE
  5
569
100
AcDbEntity
  8
0
100
AcDbLine
 62
7
  6
CONTINUOUS
 10
-2.0334898923
 20
11.5640183515
 11
-2.0364595059
 21
11.5655851565
  0
LINE
  5
56A
100
AcDbEntity
  8
0
100
AcDbLine
 62
7
  6
CONTINUOUS
 10
-1.9928909729
 20
12.1332378702
 11
-1.9814308452
 21
12.1270752888
  0
LINE
  5
56B
100
AcDbEntity
  8
0
100
AcDbLine
 62
7
  6
CONTINUOUS
 10
-1.9816175091
 20
12.1271789716
 11
-1.9702153343
 21
12.1206448101
  0
LINE
  5
56C
100
AcDbEntity
  8
0
100
AcDbLine
 62
7
  6
CONTINUOUS
 10
-2.0305302954
 20
11.56229325
 11
-2.0335704435
 21
11.5640636114
  0
LINE
  5
56D
100
AcDbEntity
  8
0
100
AcDbLine
 62
7
  6
CONTINUOUS
 10
-1.9703906133
 20
12.1207488435
 11
-1.9590430216
 21
12.1138430842
  0
LINE
  5
56E
100
AcDbEntity
  8
0
100
AcDbLine
 62
7
  6
CONTINUOUS
 10
-2.0275954527
 20
11.5604186202
 11
-2.0306558816
 21
11.5623707885
  0
LWPOLYLINE
  5
56F
100
AcDbEntity
  8
0
100
AcDbPolyline
 62
7
  6
CONTINUOUS
 90
3
 70
0
 10
-1.9592057699
 20
12.1139459015
 10
-1.9479400204
 20
12.1066881381
 10
-1.9369149559
 20
12.0991866171
  0
LWPOLYLINE
  5
570
100
AcDbEntity
  8
0
100
AcDbPolyline
 62
7
  6
CONTINUOUS
 90
9
 70
0
 10
-1.9480804595
 20
12.106781128
 10
-1.9370113279
 20
12.0992518831
 10
-1.9260016906
 20
12.0913608222
 10
-1.9150790271
 20
12.083126873
 10
-1.9042460781
 20
12.0745507867
 10
-1.8935000396
 20
12.0656318372
 10
-1.8828600693
 20
12.0563867384
 10
-1.8723229133
 20
12.0468121224
 10
-1.8618917392
 20
12.0369113911
  0
LINE
  5
571
100
AcDbEntity
  8
0
100
AcDbLine
 62
7
  6
CONTINUOUS
 10
9.0785760139
 20
-22.4059147191
 11
9.6298718748
 21
-14.6917429515
  0
LWPOLYLINE
  5
572
100
AcDbEntity
  8
0
100
AcDbPolyline
 62
7
  6
CONTINUOUS
 90
3
 70
0
 10
-1.2127883619
 20
-14.3584643709
 10
-1.4655693638
 20
-14.5291403354
 10
-1.7171909908
 20
-14.6992074471
  0
LWPOLYLINE
  5
573
100
AcDbEntity
  8
0
100
AcDbPolyline
 62
7
  6
CONTINUOUS
 90
3
 70
0
 10
-1.9891457056
 20
-14.1583048762
 10
-1.754278875
 20
-13.9997897353
 10
-1.5184220294
 20
-13.8407580122
  0
LINE
  5
574
100
AcDbEntity
  8
0
100
AcDbLine
 62
7
  6
CONTINUOUS
 10
-0.8558781666
 20
-14.1178092805
 11
-1.2127788313
 21
-14.3584579434
  0
LINE
  5
575
100
AcDbEntity
  8
0
100
AcDbLine
 62
7
  6
CONTINUOUS
 10
-0.7037382303
 20
-14.0153054024
 11
-0.9588371258
 21
-14.187177602
  0
LINE
  5
576
100
AcDbEntity
  8
0
100
AcDbLine
 62
7
  6
CONTINUOUS
 10
-1.5184220294
 20
-13.8407580122
 11
-1.2039682828
 21
-13.6289898988
  0
LINE
  5
577
100
AcDbEntity
  8
0
100
AcDbLine
 62
7
  6
CONTINUOUS
 10
-1.2039682828
 20
-13.6289898988
 11
-1.0437357182
 21
-13.5211644156
  0
LINE
  5
578
100
AcDbEntity
  8
0
100
AcDbLine
 62
7
  6
CONTINUOUS
 10
-0.4474678542
 20
-13.8428323035
 11
-0.7037382303
 21
-14.0153054024
  0
LWPOLYLINE
  5
579
100
AcDbEntity
  8
0
100
AcDbPolyline
 62
7
  6
CONTINUOUS
 90
6
 70
0
 10
-1.0437318521
 20
-13.5211618285
 10
-0.8048976918
 20
-13.360605377
 10
-0.565086102
 20
-13.1995452972
 10
-0.3243014937
 20
-13.037984621
 10
-0.0825388014
 20
-12.8759284346
 10
0.1602022872
 20
-12.7133808073
  0
LINE
  5
57A
100
AcDbEntity
  8
0
100
AcDbLine
 62
7
  6
CONTINUOUS
 10
-0.1813707137
 20
-13.6639362581
 11
-0.4474678542
 21
-13.8428323035
  0
LWPOLYLINE
  5
57B
100
AcDbEntity
  8
0
100
AcDbPolyline
 62
7
  6
CONTINUOUS
 90
4
 70
0
 10
0.5889921228
 20
-13.1471068017
 10
0.3281642411
 20
-13.3219055846
 10
0.0684794925
 20
-13.4961296584
 10
-0.1900625574
 20
-13.6697739509
  0
LINE
  5
57C
100
AcDbEntity
  8
0
100
AcDbLine
 62
7
  6
CONTINUOUS
 10
-1.9903067418
 20
-14.1590526939
 11
-1.9891460122
 21
-14.1583050588
  0
LINE
  5
57D
100
AcDbEntity
  8
0
100
AcDbLine
 62
7
  6
CONTINUOUS
 10
-1.7171909908
 20
-14.6992074471
 11
-1.7249452657
 21
-14.7041854853
  0
LINE
  5
57E
100
AcDbEntity
  8
0
100
AcDbLine
 62
7
  6
CONTINUOUS
 10
-1.991206809
 20
-14.1595868352
 11
-1.9903067418
 21
-14.1590526939
  0
LINE
  5
57F
100
AcDbEntity
  8
0
100
AcDbLine
 62
7
  6
CONTINUOUS
 10
-1.7249272537
 20
-14.7041720184
 11
-1.7328674495
 21
-14.7087541777
  0
LWPOLYLINE
  5
580
100
AcDbEntity
  8
0
100
AcDbPolyline
 62
7
  6
CONTINUOUS
 90
3
 70
0
 10
-1.993438288
 20
-14.1607502693
 10
-1.9912527876
 20
-14.1596101257
 10
-1.9891457056
 20
-14.1583048762
  0
LWPOLYLINE
  5
581
100
AcDbEntity
  8
0
100
AcDbPolyline
 62
250
  6
CONTINUOUS
 90
54
 70
0
 10
6.5978374203
 20
13.5410704717
 10
6.5874138462
 20
13.5381861262
 10
6.5767227284
 20
13.5354520911
 10
6.5657727196
 20
13.5328705792
 10
6.5545726817
 20
13.5304436796
 10
6.5431316794
 20
13.5281733567
 10
6.5314589722
 20
13.5260614478
 10
6.519564007
 20
13.5241096621
 10
6.5074564108
 20
13.5223195793
 10
6.4951459826
 20
13.5206926482
 10
6.4826426855
 20
13.5192301854
 10
6.4699566389
 20
13.5179333746
 10
6.4570981098
 20
13.5168032653
 10
6.444077505
 20
13.5158407721
 10
6.4309053625
 20
13.5150466741
 10
6.4175923428
 20
13.5144216139
 10
6.4041492205
 20
13.5139660973
 10
6.3905868754
 20
13.5136804931
 10
6.376916284
 20
13.5135650323
 10
6.3631485102
 20
13.5136198085
 10
6.3492946967
 20
13.5138447773
 10
6.3353660557
 20
13.5142397566
 10
6.32137386
 20
13.5148044268
 10
6.3073294339
 20
13.5155383308
 10
6.2932441439
 20
13.5164408748
 10
6.2791293896
 20
13.5175113281
 10
6.2649965945
 20
13.5187488246
 10
6.2508571967
 20
13.5201523625
 10
6.2367226394
 20
13.5217208062
 10
6.2226043623
 20
13.523452886
 10
6.2085137916
 20
13.5253472003
 10
6.1944623311
 20
13.5274022159
 10
6.1804613531
 20
13.5296162697
 10
6.166522189
 20
13.5319875696
 10
6.1526561201
 20
13.5345141966
 10
6.1388743686
 20
13.5371941059
 10
6.1251880884
 20
13.5400251284
 10
6.1116083562
 20
13.543004973
 10
6.0981461624
 20
13.546131228
 10
6.0848124024
 20
13.5494013633
 10
6.0716178675
 20
13.5528127321
 10
6.0585732364
 20
13.5563625737
 10
6.0456890665
 20
13.560048015
 10
6.0329757854
 20
13.5638660734
 10
6.0204436821
 20
13.5678136586
 10
6.0081028992
 20
13.571887576
 10
5.9959634245
 20
13.5760845282
 10
5.9840350829
 20
13.5804011187
 10
5.9723275281
 20
13.5848338539
 10
5.9608502355
 20
13.5893791462
 10
5.9496124939
 20
13.5940333171
 10
5.9386233983
 20
13.5987925998
 10
5.9278918426
 20
13.6036531424
 10
5.917426512
 20
13.6086110113
  0
LWPOLYLINE
  5
582
100
AcDbEntity
  8
0
100
AcDbPolyline
 62
7
  6
CONTINUOUS
 90
6
 70
0
 10
-2.0630329773
 20
11.5723277505
 10
-2.065868787
 20
11.5722327515
 10
-2.0686683696
 20
11.5719670618
 10
-2.0714175692
 20
11.5715311891
 10
-2.0741170735
 20
11.5709239037
 10
-2.0766771575
 20
11.5701725678
  0
LWPOLYLINE
  5
583
100
AcDbEntity
  8
0
100
AcDbPolyline
 62
7
  6
CONTINUOUS
 90
7
 70
0
 10
-2.0628095031
 20
11.5723279891
 10
-2.0656340193
 20
11.5722477507
 10
-2.0684273211
 20
11.5719985245
 10
-2.0711820186
 20
11.5715755783
 10
-2.0739032001
 20
11.5709773206
 10
-2.0765857609
 20
11.5702053493
 10
-2.0790665444
 20
11.5693155589
  0
LINE
  5
584
100
AcDbEntity
  8
0
100
AcDbLine
 62
7
  6
CONTINUOUS
 10
-2.0599527555
 20
11.5722399242
 11
-2.0630329773
 21
11.5723277505
  0
LINE
  5
585
100
AcDbEntity
  8
0
100
AcDbLine
 62
7
  6
CONTINUOUS
 10
-2.0570648056
 20
11.5719828668
 11
-2.0601609324
 21
11.5722513352
  0
LINE
  5
586
100
AcDbEntity
  8
0
100
AcDbLine
 62
7
  6
CONTINUOUS
 10
-2.1282415702
 20
12.1754035322
 11
-2.1165975893
 21
12.1740289317
  0
LINE
  5
587
100
AcDbEntity
  8
0
100
AcDbLine
 62
7
  6
CONTINUOUS
 10
-2.0541561123
 20
11.5715594897
 11
-2.0572526727
 21
11.5720042243
  0
LINE
  5
588
100
AcDbEntity
  8
0
100
AcDbLine
 62
7
  6
CONTINUOUS
 10
-2.1171310937
 20
12.1741015647
 11
-2.1054381406
 21
12.1723006382
  0
LINE
  5
589
100
AcDbEntity
  8
0
100
AcDbLine
 62
7
  6
CONTINUOUS
 10
-2.1059691151
 20
12.172392325
 11
-2.0942301225
 21
12.1701662314
  0
LINE
  5
58A
100
AcDbEntity
  8
0
100
AcDbLine
 62
7
  6
CONTINUOUS
 10
-2.0512225698
 20
11.5709680584
 11
-2.0543223969
 21
11.5715880736
  0
LINE
  5
58B
100
AcDbEntity
  8
0
100
AcDbLine
 62
7
  6
CONTINUOUS
 10
-2.0947521703
 20
12.1702756669
 11
-2.0830042798
 21
12.1676344818
  0
LINE
  5
58C
100
AcDbEntity
  8
0
100
AcDbLine
 62
7
  6
CONTINUOUS
 10
-2.0482682921
 20
11.5702103042
 11
-2.0513691924
 21
11.5710019307
  0
LINE
  5
58D
100
AcDbEntity
  8
0
100
AcDbLine
 62
7
  6
CONTINUOUS
 10
-2.0834996282
 20
12.1677545174
 11
-2.0717718954
 21
12.1647081395
  0
LINE
  5
58E
100
AcDbEntity
  8
0
100
AcDbLine
 62
7
  6
CONTINUOUS
 10
-2.0722084839
 20
12.1648267732
 11
-2.0605217483
 21
12.1613844298
  0
LINE
  5
58F
100
AcDbEntity
  8
0
100
AcDbLine
 62
7
  6
CONTINUOUS
 10
-2.0453160669
 20
11.5692940994
 11
-2.0483939803
 21
11.5702467445
  0
LINE
  5
590
100
AcDbEntity
  8
0
100
AcDbLine
 62
7
  6
CONTINUOUS
 10
-2.0608818043
 20
12.161494513
 11
-2.0492508218
 21
12.1576638381
  0
LINE
  5
591
100
AcDbEntity
  8
0
100
AcDbLine
 62
7
  6
CONTINUOUS
 10
-2.0495480611
 20
12.1577669386
 11
-2.0379489676
 21
12.1535439703
  0
LINE
  5
592
100
AcDbEntity
  8
0
100
AcDbLine
 62
7
  6
CONTINUOUS
 10
-2.0382107396
 20
12.1536448531
 11
-2.0266263705
 21
12.149027206
  0
LINE
  5
593
100
AcDbEntity
  8
0
100
AcDbLine
 62
7
  6
CONTINUOUS
 10
-2.026866392
 20
12.1491274386
 11
-2.0153105073
 21
12.1441211928
  0
LINE
  5
594
100
AcDbEntity
  8
0
100
AcDbLine
 62
7
  6
CONTINUOUS
 10
-1.7328674495
 20
-14.7087541777
 11
-1.7410961708
 21
-14.7129950302
  0
LINE
  5
595
100
AcDbEntity
  8
0
100
AcDbLine
 62
7
  6
CONTINUOUS
 10
-1.7410116654
 20
-14.7129539774
 11
-1.7495039469
 21
-14.7168292814
  0
LINE
  5
596
100
AcDbEntity
  8
0
100
AcDbLine
 62
7
  6
CONTINUOUS
 10
-1.749367449
 20
-14.7167722379
 11
-1.7548188217
 21
-14.7190135306
  0
LINE
  5
597
100
AcDbEntity
  8
0
100
AcDbLine
 62
7
  6
CONTINUOUS
 10
-1.7548194395
 20
-14.7190123746
 11
-1.7581260598
 21
-14.7202814869
  0
LINE
  5
598
100
AcDbEntity
  8
0
100
AcDbLine
 62
7
  6
CONTINUOUS
 10
-1.7580135293
 20
-14.7202382966
 11
-1.7669296592
 21
-14.7233437663
  0
LINE
  5
599
100
AcDbEntity
  8
0
100
AcDbLine
 62
7
  6
CONTINUOUS
 10
-1.7666692592
 20
-14.7232597164
 11
-1.7759144311
 21
-14.7260140247
  0
LINE
  5
59A
100
AcDbEntity
  8
0
100
AcDbLine
 62
7
  6
CONTINUOUS
 10
-2.2344544934
 20
12.1658929038
 11
-2.2239055583
 21
12.1687902713
  0
LINE
  5
59B
100
AcDbEntity
  8
0
100
AcDbLine
 62
7
  6
CONTINUOUS
 10
-2.2243338366
 20
12.1686838316
 11
-2.2136134233
 21
12.1711672898
  0
LINE
  5
59C
100
AcDbEntity
  8
0
100
AcDbLine
 62
7
  6
CONTINUOUS
 10
-2.2140902144
 20
12.171066891
 11
-2.2032285495
 21
12.1731274322
  0
LINE
  5
59D
100
AcDbEntity
  8
0
100
AcDbLine
 62
7
  6
CONTINUOUS
 10
-2.2037224187
 20
12.173041756
 11
-2.1927397661
 21
12.1746732762
  0
LINE
  5
59E
100
AcDbEntity
  8
0
100
AcDbLine
 62
7
  6
CONTINUOUS
 10
-2.1932317979
 20
12.174608697
 11
-2.182147737
 21
12.1758098278
  0
LINE
  5
59F
100
AcDbEntity
  8
0
100
AcDbLine
 62
7
  6
CONTINUOUS
 10
-2.1826388843
 20
12.1757663504
 11
-2.1714465882
 21
12.1765392509
  0
LINE
  5
5A0
100
AcDbEntity
  8
0
100
AcDbLine
 62
7
  6
CONTINUOUS
 10
-2.1719448772
 20
12.1765146769
 11
-2.1606423166
 21
12.1768593329
  0
LINE
  5
5A1
100
AcDbEntity
  8
0
100
AcDbLine
 62
7
  6
CONTINUOUS
 10
-2.1611487014
 20
12.1768536666
 11
-2.1497533873
 21
12.1767685164
  0
LINE
  5
5A2
100
AcDbEntity
  8
0
100
AcDbLine
 62
7
  6
CONTINUOUS
 10
-2.1502674761
 20
12.1767820008
 11
-2.1387740413
 21
12.1762646414
  0
LINE
  5
5A3
100
AcDbEntity
  8
0
100
AcDbLine
 62
7
  6
CONTINUOUS
 10
-2.1392969952
 20
12.1762981151
 11
-2.1277101426
 21
12.1753498263
  0
LWPOLYLINE
  5
5A4
100
AcDbEntity
  8
0
100
AcDbPolyline
 62
250
  6
CONTINUOUS
 90
55
 70
0
 10
5.8777296036
 20
-13.3152888931
 10
5.8671941935
 20
-13.3202969643
 10
5.856391464
 20
-13.3251530822
 10
5.8453301534
 20
-13.3298533187
 10
5.8340192097
 20
-13.3343938716
 10
5.8224677824
 20
-13.3387710679
 10
5.8106852157
 20
-13.3429813669
 10
5.7986810409
 20
-13.3470213628
 10
5.7864649684
 20
-13.3508877874
 10
5.77404688
 20
-13.3545775132
 10
5.7614368211
 20
-13.3580875555
 10
5.7486449921
 20
-13.3614150749
 10
5.7356817406
 20
-13.3645573797
 10
5.722557553
 20
-13.367511928
 10
5.7092830457
 20
-13.3702763298
 10
5.6958689567
 20
-13.372848349
 10
5.6823261369
 20
-13.375225905
 10
5.6686655416
 20
-13.3774070744
 10
5.6548982209
 20
-13.379390093
 10
5.6410353117
 20
-13.3811733567
 10
5.627088028
 20
-13.3827554228
 10
5.6130676519
 20
-13.3841350116
 10
5.598985525
 20
-13.3853110071
 10
5.5848530385
 20
-13.3862824582
 10
5.5706816246
 20
-13.3870485788
 10
5.5564827467
 20
-13.3876087493
 10
5.5422678908
 20
-13.3879625166
 10
5.5280485555
 20
-13.3881095945
 10
5.5138362432
 20
-13.388049864
 10
5.4996424504
 20
-13.3877833734
 10
5.485478659
 20
-13.3873103383
 10
5.4713563262
 20
-13.3866311414
 10
5.4572868761
 20
-13.3857463321
 10
5.4432816896
 20
-13.384656626
 10
5.4293520958
 20
-13.3833629047
 10
5.4155093628
 20
-13.3818662148
 10
5.4017646882
 20
-13.3801677669
 10
5.3881291905
 20
-13.3782689349
 10
5.3746138995
 20
-13.3761712549
 10
5.3612297483
 20
-13.3738764236
 10
5.3479875635
 20
-13.3713862975
 10
5.334898057
 20
-13.3687028909
 10
5.3219718172
 20
-13.3658283744
 10
5.3092193005
 20
-13.3627650733
 10
5.2966508226
 20
-13.3595154655
 10
5.2842765505
 20
-13.3560821798
 10
5.2721064939
 20
-13.3524679934
 10
5.2601504976
 20
-13.3486758299
 10
5.248418233
 20
-13.3447087569
 10
5.2369191905
 20
-13.3405699834
 10
5.2256626721
 20
-13.3362628573
 10
5.2146577833
 20
-13.3317908629
 10
5.2039134263
 20
-13.3271576175
 10
5.1934382924
 20
-13.3223668692
 10
5.1832408552
 20
-13.3174224932
  0
LINE
  5
5A5
100
AcDbEntity
  8
0
100
AcDbLine
 62
250
  6
CONTINUOUS
 10
5.917426512
 20
13.6086110113
 11
-8.9499527293
 21
21.0422564966
  0
LINE
  5
5A6
100
AcDbEntity
  8
RACCORDO
100
AcDbLine
 62
7
  6
CONTINUOUS
 10
6.7018036015
 20
16.786651746
 11
6.0290967807
 21
16.6691520702
  0
LINE
  5
5A7
100
AcDbEntity
  8
0
100
AcDbLine
 62
250
  6
CONTINUOUS
 10
6.5809957198
 20
14.6747094792
 11
-8.2993173362
 21
22.1148660072
  0
LINE
  5
5A8
100
AcDbEntity
  8
RACCORDO
100
AcDbLine
 62
7
  6
CONTINUOUS
 10
5.8359116155
 20
16.6904953279
 11
3.4536265194
 21
17.8816378759
  0
LINE
  5
5A9
100
AcDbEntity
  8
RACCORDO
100
AcDbLine
 62
7
  6
CONTINUOUS
 10
-2.0836843338
 20
20.6502933025
 11
-4.4659694299
 21
21.8414358506
  0
LINE
  5
5AA
100
AcDbEntity
  8
0
100
AcDbLine
 62
7
  6
CONTINUOUS
 10
-6.3292802436
 20
23.3021936685
 11
-4.3374819896
 21
22.3062945415
  0
LINE
  5
5AB
100
AcDbEntity
  8
DRAFT
100
AcDbLine
 62
7
  6
CONTINUOUS
 10
-1.2177923478
 20
20.7464497206
 11
3.5821139597
 21
18.3464965669
  0
LINE
  5
5AC
100
AcDbEntity
  8
0
100
AcDbLine
 62
7
  6
CONTINUOUS
 10
6.7018036015
 20
16.786651746
 11
8.6936018555
 21
15.790752619
  0
LINE
  5
5AD
100
AcDbEntity
  8
RACCORDO
100
AcDbLine
 62
7
  6
CONTINUOUS
 10
-1.2177923478
 20
20.7464497206
 11
-1.8904991686
 21
20.6289500448
  0
LWPOLYLINE
  5
5AE
100
AcDbEntity
  8
0
100
AcDbPolyline
 62
250
  6
CONTINUOUS
 90
55
 70
0
 10
6.5978374203
 20
-23.062108666
 10
6.5874138462
 20
-23.0686678067
 10
6.5767227284
 20
-23.0750736629
 10
6.5657727195
 20
-23.0813210501
 10
6.5545726817
 20
-23.0874049122
 10
6.5431316794
 20
-23.0933203253
 10
6.5314589722
 20
-23.0990625019
 10
6.519564007
 20
-23.1046267948
 10
6.5074564109
 20
-23.1100087005
 10
6.4951459827
 20
-23.1152038634
 10
6.4826426857
 20
-23.120208079
 10
6.4699566391
 20
-23.125017297
 10
6.4570981101
 20
-23.1296276254
 10
6.4440775055
 20
-23.1340353328
 10
6.430905363
 20
-23.1382368521
 10
6.4175923434
 20
-23.1422287827
 10
6.4041492212
 20
-23.1460078938
 10
6.3905868762
 20
-23.1495711271
 10
6.3769162849
 20
-23.1529155986
 10
6.3631485113
 20
-23.1560386016
 10
6.3492946978
 20
-23.1589376085
 10
6.3353660569
 20
-23.1616102731
 10
6.3213738614
 20
-23.1640544324
 10
6.3073294354
 20
-23.1662681082
 10
6.2932441456
 20
-23.1682495089
 10
6.2791293915
 20
-23.1699970309
 10
6.2649965965
 20
-23.1715092599
 10
6.2508571988
 20
-23.1727849721
 10
6.2367226417
 20
-23.1738231349
 10
6.2226043647
 20
-23.1746229082
 10
6.2085137941
 20
-23.1751836447
 10
6.1944623338
 20
-23.1755048904
 10
6.180461356
 20
-23.1755863856
 10
6.166522192
 20
-23.1754280641
 10
6.1526561233
 20
-23.1750300542
 10
6.1388743719
 20
-23.1743926779
 10
6.1251880919
 20
-23.1735164511
 10
6.1116083598
 20
-23.172402083
 10
6.0981461662
 20
-23.1710504754
 10
6.0848124064
 20
-23.1694627223
 10
6.0716178717
 20
-23.1676401086
 10
6.0585732407
 20
-23.1655841094
 10
6.045689071
 20
-23.1632963887
 10
6.03297579
 20
-23.1607787981
 10
6.0204436868
 20
-23.158033375
 10
6.0081029041
 20
-23.1550623414
 10
5.9959634296
 20
-23.1518681019
 10
5.984035088
 20
-23.1484532417
 10
5.9723275334
 20
-23.1448205244
 10
5.9608502409
 20
-23.1409728902
 10
5.9496124994
 20
-23.1369134529
 10
5.938623404
 20
-23.1326454982
 10
5.9278918484
 20
-23.12817248
 10
5.9174265179
 20
-23.1234980186
 10
5.9072358824
 20
-23.1186258971
  0
LINE
  5
5AF
100
AcDbEntity
  8
0
100
AcDbLine
 62
250
  6
CONTINUOUS
 10
6.9404984546
 20
-23.2702051685
 11
9.0785760139
 21
-22.4059147191
  0
LINE
  5
5B0
100
AcDbEntity
  8
0
100
AcDbLine
 62
7
  6
CONTINUOUS
 10
6.7868866361
 20
-23.5509246971
 11
8.9095334434
 21
-22.6928719315
  0
ARC
  5
5B1
100
AcDbEntity
  8
0
100
AcDbCircle
 62
7
  6
CONTINUOUS
 10
1.3200417148
 20
-3.3822773
 40
0.2
100
AcDbArc
 50
117.4557558562
 51
180.0322636737
  0
ARC
  5
5B2
100
AcDbEntity
  8
0
100
AcDbCircle
 62
7
  6
CONTINUOUS
 10
-5.606782439
 20
0.6838959598
 40
0.2
100
AcDbArc
 50
243.4331895644
 51
295.6760562404
  0
ARC
  5
5B3
100
AcDbEntity
  8
0
100
AcDbCircle
 62
7
  6
CONTINUOUS
 10
1.3200417148
 20
-2.7795161171
 40
0.2
100
AcDbArc
 50
179.9681152044
 51
243.4349332906
  0
ELLIPSE
  5
5B4
100
AcDbEntity
  8
0
100
AcDbEllipse
 62
7
  6
CONTINUOUS
 10
9.488364316
 20
-3.535870599
 30
0.0
 11
-0.0895407389
 21
0.1788626779
 31
0.0
 40
0.6126250184
 41
-2.2559124555
 42
-0.6854206804
  0
ELLIPSE
  5
5B5
100
AcDbEntity
  8
0
100
AcDbEllipse
 62
7
  6
CONTINUOUS
 10
8.7248653999
 20
-22.228214728
 30
0.0
 11
-0.1826272431
 21
0.4654700168
 31
0.0
 40
0.6543766329
 41
-3.1348789942
 42
-2.2008763123
  0
ELLIPSE
  5
5B6
100
AcDbEntity
  8
0
100
AcDbEllipse
 62
7
  6
CONTINUOUS
 10
-4.4003213423
 20
0.6867111087
 30
0.0
 11
0.0807832714
 21
0.2585095151
 31
0.0
 40
0.2408330052
 41
0.9361324791
 42
2.4849905069
  0
ELLIPSE
  5
5B7
100
AcDbEntity
  8
0
100
AcDbEllipse
 62
7
  6
CONTINUOUS
 10
-4.757286145
 20
-0.3781097411
 30
0.0
 11
0.7033808676
 21
-0.2019690766
 31
0.0
 40
0.1166564694
 41
0.5598402935
 42
1.3452003807
  0
ELLIPSE
  5
5B8
100
AcDbEntity
  8
0
100
AcDbEllipse
 62
7
  6
CONTINUOUS
 10
-4.757286145
 20
-0.3781097411
 30
0.0
 11
0.2019581784
 21
0.6462737877
 31
0.0
 40
0.2408330052
 41
-1.4419622338
 42
-0.6566021467
  0
ELLIPSE
  5
5B9
100
AcDbEntity
  8
0
100
AcDbEllipse
 62
7
  6
CONTINUOUS
 10
9.488364316
 20
-3.016242166
 30
0.0
 11
-0.0895886995
 21
0.1789054415
 31
0.0
 40
0.6122594231
 41
-3.1639347527
 42
-2.2563502278
  0
ELLIPSE
  5
5BA
100
AcDbEntity
  8
0
100
AcDbEllipse
 62
7
  6
CONTINUOUS
 10
-6.298877806
 20
22.8861975468
 30
0.0
 11
-0.2594468555
 21
0.4274213603
 31
0.0
 40
0.5671503027
 41
-0.7336001334
 42
-0.0017904465
  0
ELLIPSE
  5
5BB
100
AcDbEntity
  8
RACCORDO
100
AcDbEllipse
 62
7
  6
CONTINUOUS
 10
5.9773329717
 20
16.7702832996
 30
0.0
 11
0.199943508
 21
0.008945986
 31
0.0
 40
0.5313301283
 41
-2.3799630874
 42
-1.3327655362
  0
ELLIPSE
  5
5BC
100
AcDbEntity
  8
RACCORDO
100
AcDbEllipse
 62
7
  6
CONTINUOUS
 10
-1.9422629776
 20
20.7300812743
 30
0.0
 11
0.199943508
 21
0.008945986
 31
0.0
 40
0.5313301283
 41
-2.3799630874
 42
-1.3327655362
  0
ELLIPSE
  5
5BD
100
AcDbEntity
  8
0
100
AcDbEllipse
 62
7
  6
CONTINUOUS
 10
8.7248653999
 20
15.3743259439
 30
0.0
 11
-0.2598517618
 21
0.4278839677
 31
0.0
 40
0.5657790044
 41
-2.3015999851
 42
-0.7326301579
  0
ELLIPSE
  5
5BE
100
AcDbEntity
  8
RACCORDO
100
AcDbEllipse
 62
7
  6
CONTINUOUS
 10
3.5950478756
 20
17.9614258477
 30
0.0
 11
0.199943508
 21
0.008945986
 31
0.0
 40
0.5313301283
 41
2.8560246685
 42
3.9032222197
  0
ELLIPSE
  5
5BF
100
AcDbEntity
  8
RACCORDO
100
AcDbEllipse
 62
7
  6
CONTINUOUS
 10
-4.3245480737
 20
21.9212238223
 30
0.0
 11
0.199943508
 21
0.008945986
 31
0.0
 40
0.5313301283
 41
2.8560246685
 42
3.9032222197
  0
ENDSEC
  0
SECTION
  2
OBJECTS
  0
DICTIONARY
  5
C
100
AcDbDictionary
280
0
281
1
  3
ACAD_GROUP
350
D
  3
ACAD_MLINESTYLE
350
17
  3
ACAD_LAYOUT
350
1A
  3
ACAD_PLOTSETTINGS
350
19
  3
ACAD_PLOTSTYLENAME
350
E
  0
DICTIONARY
  5
D
102
{ACAD_REACTORS
330
C
102
}
100
AcDbDictionary
280
0
281
1
  0
ACDBDICTIONARYWDFLT
  5
E
102
{ACAD_REACTORS
330
C
102
}
100
AcDbDictionary
281
1
  3
Normal
350
F
100
AcDbDictionaryWithDefault
340
F
  0
DICTIONARY
  5
17
102
{ACAD_REACTORS
330
C
102
}
100
AcDbDictionary
280
0
281
1
  3
Standard
350
18
  0
DICTIONARY
  5
19
102
{ACAD_REACTORS
330
C
102
}
100
AcDbDictionary
281
1
  0
DICTIONARY
  5
1A
102
{ACAD_REACTORS
330
C
102
}
100
AcDbDictionary
281
1
  3
Model
350
5C0
  3
Layout1
350
5C1
  0
ACDBPLACEHOLDER
  5
F
102
{ACAD_REACTORS
330
E
102
}
  0
MLINESTYLE
  5
18
102
{ACAD_REACTORS
330
17
102
}
100
AcDbMlineStyle
  2
STANDARD
 70
0
  3

 62
256
 51
90.0
 52
90.0
 71
2
 49
0.5
 62
256
  6
BYLAYER
 49
-0.5
 62
256
  6
BYLAYER
  0
LAYOUT
  5
5C0
102
{ACAD_REACTORS
330
1A
102
}
100
AcDbPlotSettings
  1

  2
none_device
  4
ISO_A4_(297.00_x_210.00_MM)
  6

 40
0.0
 41
0.0
 42
0.0
 43
0.0
 44
297.0
 45
210.0
 46
0.0
 47
0.0
 48
0.0
 49
0.0
140
0.0
141
0.0
142
1.0
143
1.0
 70
1024
 72
1
 73
0
 74
0
  7

 75
0
147
1.0
148
0.0
149
0.0
100
AcDbLayout
  1
Model
 70
0
 71
0
 10
0.0
 20
0.0
 11
297.0
 21
210.0
 12
0.0
 22
0.0
 32
0.0
 14
0.0
 24
0.0
 34
0.0
 15
0.0
 25
0.0
 35
0.0
146
0.0
 13
0.0
 23
0.0
 33
0.0
 16
1.0
 26
0.0
 36
0.0
 17
0.0
 27
1.0
 37
0.0
 76
0
330
222
345
0
346
0
  0
LAYOUT
  5
5C1
102
{ACAD_REACTORS
330
1A
102
}
100
AcDbPlotSettings
  1

  2
none_device
  4
ISO_A4_(297.00_x_210.00_MM)
  6

 40
0.0
 41
0.0
 42
0.0
 43
0.0
 44
297.0
 45
210.0
 46
0.0
 47
0.0
 48
0.0
 49
0.0
140
0.0
141
0.0
142
1.0
143
1.0
 70
0
 72
1
 73
0
 74
0
  7

 75
0
147
1.0
148
0.0
149
0.0
100
AcDbLayout
  1
Layout1
 70
0
 71
1
 10
0.0
 20
0.0
 11
297.0
 21
210.0
 12
0.0
 22
0.0
 32
0.0
 14
0.0
 24
0.0
 34
0.0
 15
0.0
 25
0.0
 35
0.0
146
0.0
 13
0.0
 23
0.0
 33
0.0
 16
1.0
 26
0.0
 36
0.0
 17
0.0
 27
1.0
 37
0.0
 76
0
330
223
345
0
346
0
  0
ENDSEC
  0
EOF
