  0
SECTION
  2
HEADER
  9
$ACADVER
  1
AC1021
  9
$DWGCODEPAGE
  3
ANSI_1252
  9
$EXTMAX
 10
297.0
 20
210.0
 30
0.0
  9
$EXTMIN
 10
0.0
 20
0.0
 30
0.0
  9
$LIMMIN
 10
0.0
 20
0.0
  9
$LIMMAX
 10
297.0
 20
210.0
  9
$VIEWCTR
 10
148.5
 20
105.0
  9
$VIEWSIZE
 40
210.0
  9
$CLAYER
  8
0
  9
$LTSCALE
 40
16.335
  9
$CELTYPE
  6
BYLAYER
  9
$DIMSCALE
 40
1.0
  9
$DIMASZ
 40
3.0
  9
$DIMEXO
 40
0.5
  9
$DIMDLI
 40
11.286
  9
$DIMEXE
 40
1.5
  9
$DIMCEN
 40
2.673
  9
$DIMLFAC
 40
1.0
  9
$DIMBLK
  1
_FILLED
  9
$DIMALT
 70
0
  9
$DIMALTF
 40
25.4
  9
$DIMTXT
 40
3.0
  9
$DIMTOL
 70
1
  9
$DIMLIM
 70
0
  9
$DIMTFAC
 40
1.0
  9
$DIMTP
 40
0.01
  9
$DIMTM
 40
0.01
  9
$DIMGAP
 40
0.625
  9
$DIMDSEP
 70
44
  9
$AUNITS
 70
0
  9
$PDMODE
 70
3
  9
$PDSIZE
 40
3.0
  9
$HANDSEED
  5
325
  9
$TILEMODE
 70
1
  9
$MEASUREMENT
 70
1
  9
$INSUNITS
 70
4
  0
ENDSEC
  0
SECTION
  2
CLASSES
  0
CLASS
  1
ACDBDICTIONARYWDFLT
  2
AcDbDictionaryWithDefault
  3
AutoCAD 2000
 90
0
 91
1
280
0
281
0
  0
CLASS
  1
ACDBPLACEHOLDER
  2
AcDbPlaceHolder
  3
AutoCAD 2000
 90
0
 91
1
280
0
281
0
  0
CLASS
  1
LAYOUT
  2
AcDbLayout
  3
AutoCAD 2000
 90
0
 91
0
280
0
281
0
  0
ENDSEC
  0
SECTION
  2
TABLES
  0
TABLE
  2
VPORT
  5
8
100
AcDbSymbolTable
 70
2
  0
VPORT
  5
1F4
100
AcDbSymbolTableRecord
100
AcDbViewportTableRecord
  2
*ACTIVE
 70
0
 10
0.0
 20
0.0
 11
1.0
 21
1.0
 12
148.5
 22
105.0
 13
0.0
 23
0.0
 14
1.0
 24
1.0
 15
0.0
 25
0.0
 16
0.0
 26
0.0
 36
1.0
 17
0.0
 27
0.0
 37
0.0
 40
210.0
 41
1.4142857143
 42
50.0
 43
0.0
 44
0.0
 50
0.0
 51
0.0
 71
0
 72
100
 73
1
 74
1
 75
0
 76
0
 77
0
 78
0
  0
ENDTAB
  0
TABLE
  2
LTYPE
  5
5
100
AcDbSymbolTable
 70
6
  0
LTYPE
  5
14
100
AcDbSymbolTableRecord
100
AcDbLinetypeTableRecord
  2
BYBLOCK
 70
0
  3

 72
65
 73
0
 40
0.0
  0
LTYPE
  5
15
100
AcDbSymbolTableRecord
100
AcDbLinetypeTableRecord
  2
BYLAYER
 70
0
  3

 72
65
 73
0
 40
0.0
  0
LTYPE
  5
16
100
AcDbSymbolTableRecord
100
AcDbLinetypeTableRecord
  2
CONTINUOUS
 70
64
  3
Solid line
 72
65
 73
0
 40
0.0
  0
LTYPE
  5
1F5
100
AcDbSymbolTableRecord
100
AcDbLinetypeTableRecord
  2
CENTER
 70
64
  3
____ _ ____ _ ____ _ ____ _ ____ _ ____ _ ____
 72
65
 73
4
 40
0.6
 49
0.375
 74
0
 49
-0.075
 74
0
 49
0.075
 74
0
 49
-0.075
 74
0
  0
LTYPE
  5
1F6
100
AcDbSymbolTableRecord
100
AcDbLinetypeTableRecord
  2
HIDDEN
 70
64
  3
- - - - - - - - - - - - - - - - - - - -
 72
65
 73
2
 40
0.2
 49
0.1
 74
0
 49
-0.1
 74
0
  0
LTYPE
  5
1F7
100
AcDbSymbolTableRecord
100
AcDbLinetypeTableRecord
  2
PHANTOM
 70
64
  3
_____ _ _ _____ _ _ _____ _ _ _____
 72
65
 73
6
 40
0.8
 49
0.45
 74
0
 49
-0.05
 74
0
 49
0.1
 74
0
 49
-0.05
 74
0
 49
0.1
 74
0
 49
-0.05
 74
0
  0
LTYPE
  5
1F8
100
AcDbSymbolTableRecord
100
AcDbLinetypeTableRecord
  2
DOT
 70
64
  3
. . . . . . . . . . . . . . . . . . . .
 72
65
 73
2
 40
0.2
 49
0.1
 74
0
 49
-0.1
 74
0
  0
LTYPE
  5
1F9
100
AcDbSymbolTableRecord
100
AcDbLinetypeTableRecord
  2
DASHED
 70
64
  3
- - - - - - - - - - - - - - - - - - - -
 72
65
 73
2
 40
0.2
 49
0.1
 74
0
 49
-0.1
 74
0
  0
ENDTAB
  0
TABLE
  2
LAYER
  5
2
100
AcDbSymbolTable
 70
36
  0
LAYER
  5
10
100
AcDbSymbolTableRecord
100
AcDbLayerTableRecord
  2
0
 70
0
 62
7
  6
CONTINUOUS
370
-3
390
F
  0
LAYER
  5
1FA
100
AcDbSymbolTableRecord
100
AcDbLayerTableRecord
  2
DEFAULT_1
 70
0
 62
7
  6
CENTER
370
-3
390
F
  0
LAYER
  5
1FB
100
AcDbSymbolTableRecord
100
AcDbLayerTableRecord
  2
DEFAULT_2
 70
0
 62
7
  6
HIDDEN
370
-3
390
F
  0
LAYER
  5
1FC
100
AcDbSymbolTableRecord
100
AcDbLayerTableRecord
  2
DEFAULT_3
 70
0
 62
7
  6
PHANTOM
370
-3
390
F
  0
LAYER
  5
1FD
100
AcDbSymbolTableRecord
100
AcDbLayerTableRecord
  2
ASSI
 70
0
 62
7
  6
CONTINUOUS
370
-3
390
F
  0
LAYER
  5
1FE
100
AcDbSymbolTableRecord
100
AcDbLayerTableRecord
  2
COLOR9
 70
0
 62
7
  6
CONTINUOUS
370
-3
390
F
  0
LAYER
  5
1FF
100
AcDbSymbolTableRecord
100
AcDbLayerTableRecord
  2
COORDINATE
 70
0
 62
7
  6
CONTINUOUS
370
-3
390
F
  0
LAYER
  5
200
100
AcDbSymbolTableRecord
100
AcDbLayerTableRecord
  2
COORD_ORIGINE
 70
0
 62
7
  6
CONTINUOUS
370
-3
390
F
  0
LAYER
  5
201
100
AcDbSymbolTableRecord
100
AcDbLayerTableRecord
  2
COPY_PUBLISH
 70
0
 62
7
  6
CONTINUOUS
370
-3
390
F
  0
LAYER
  5
202
100
AcDbSymbolTableRecord
100
AcDbLayerTableRecord
  2
COSMETICI
 70
0
 62
7
  6
CONTINUOUS
370
-3
390
F
  0
LAYER
  5
203
100
AcDbSymbolTableRecord
100
AcDbLayerTableRecord
  2
CURVE
 70
0
 62
7
  6
CONTINUOUS
370
-3
390
F
  0
LAYER
  5
204
100
AcDbSymbolTableRecord
100
AcDbLayerTableRecord
  2
DRAFT
 70
0
 62
7
  6
CONTINUOUS
370
-3
390
F
  0
LAYER
  5
205
100
AcDbSymbolTableRecord
100
AcDbLayerTableRecord
  2
IGES
 70
0
 62
7
  6
CONTINUOUS
370
-3
390
F
  0
LAYER
  5
206
100
AcDbSymbolTableRecord
100
AcDbLayerTableRecord
  2
IGS_SCRITTE
 70
0
 62
7
  6
CONTINUOUS
370
-3
390
F
  0
LAYER
  5
207
100
AcDbSymbolTableRecord
100
AcDbLayerTableRecord
  2
IMPORT_IGES
 70
0
 62
7
  6
CONTINUOUS
370
-3
390
F
  0
LAYER
  5
208
100
AcDbSymbolTableRecord
100
AcDbLayerTableRecord
  2
INTF_YELLOW
 70
0
 62
7
  6
CONTINUOUS
370
-3
390
F
  0
LAYER
  5
209
100
AcDbSymbolTableRecord
100
AcDbLayerTableRecord
  2
LIVELLO_1
 70
0
 62
7
  6
CONTINUOUS
370
-3
390
F
  0
LAYER
  5
20A
100
AcDbSymbolTableRecord
100
AcDbLayerTableRecord
  2
NOTE
 70
0
 62
7
  6
CONTINUOUS
370
-3
390
F
  0
LAYER
  5
20B
100
AcDbSymbolTableRecord
100
AcDbLayerTableRecord
  2
PIANI
 70
0
 62
7
  6
CONTINUOUS
370
-3
390
F
  0
LAYER
  5
20C
100
AcDbSymbolTableRecord
100
AcDbLayerTableRecord
  2
PIANI_ORIGINE
 70
0
 62
7
  6
CONTINUOUS
370
-3
390
F
  0
LAYER
  5
20D
100
AcDbSymbolTableRecord
100
AcDbLayerTableRecord
  2
PIANI_RIFERIMENTO
 70
0
 62
7
  6
CONTINUOUS
370
-3
390
F
  0
LAYER
  5
20E
100
AcDbSymbolTableRecord
100
AcDbLayerTableRecord
  2
PUNTI
 70
0
 62
7
  6
CONTINUOUS
370
-3
390
F
  0
LAYER
  5
20F
100
AcDbSymbolTableRecord
100
AcDbLayerTableRecord
  2
RACCORDO
 70
0
 62
7
  6
CONTINUOUS
370
-3
390
F
  0
LAYER
  5
210
100
AcDbSymbolTableRecord
100
AcDbLayerTableRecord
  2
SIMBOLI
 70
0
 62
7
  6
CONTINUOUS
370
-3
390
F
  0
LAYER
  5
211
100
AcDbSymbolTableRecord
100
AcDbLayerTableRecord
  2
SMUSSO
 70
0
 62
7
  6
CONTINUOUS
370
-3
390
F
  0
LAYER
  5
212
100
AcDbSymbolTableRecord
100
AcDbLayerTableRecord
  2
SNAPLINE
 70
0
 62
7
  6
CONTINUOUS
370
-3
390
F
  0
LAYER
  5
213
100
AcDbSymbolTableRecord
100
AcDbLayerTableRecord
  2
SOLIDO
 70
0
 62
7
  6
CONTINUOUS
370
-3
390
F
  0
LAYER
  5
214
100
AcDbSymbolTableRecord
100
AcDbLayerTableRecord
  2
SUPERFICI
 70
0
 62
7
  6
CONTINUOUS
370
-3
390
F
  0
LAYER
  5
215
100
AcDbSymbolTableRecord
100
AcDbLayerTableRecord
  2
TRASH
 70
0
 62
7
  6
CONTINUOUS
370
-3
390
F
  0
LAYER
  5
216
100
AcDbSymbolTableRecord
100
AcDbLayerTableRecord
  2
WHITE
 70
0
 62
7
  6
CONTINUOUS
370
-3
390
F
  0
ENDTAB
  0
TABLE
  2
STYLE
  5
3
100
AcDbSymbolTable
 70
1
  0
STYLE
  5
11
100
AcDbSymbolTableRecord
100
AcDbTextStyleTableRecord
  2
STANDARD
 70
0
 40
0.0
 41
0.8
 50
0.0
 71
0
 42
0.2
  3
txt
  4

  0
STYLE
  5
217
100
AcDbSymbolTableRecord
100
AcDbTextStyleTableRecord
  2
TEXTSTYLE_1
 70
0
 40
0.0
 41
0.8
 50
0.0
 71
0
 42
0.2
  3
gdt
  4

  0
ENDTAB
  0
TABLE
  2
VIEW
  5
6
100
AcDbSymbolTable
 70
0
  0
ENDTAB
  0
TABLE
  2
UCS
  5
7
100
AcDbSymbolTable
 70
0
  0
ENDTAB
  0
TABLE
  2
APPID
  5
9
100
AcDbSymbolTable
 70
1
  0
APPID
  5
218
100
AcDbSymbolTableRecord
100
AcDbRegAppTableRecord
  2
ACAD
 70
0
  0
ENDTAB
  0
TABLE
  2
BLOCK_RECORD
  5
1
100
AcDbSymbolTable
 70
0
  0
BLOCK_RECORD
  5
219
100
AcDbSymbolTableRecord
100
AcDbBlockTableRecord
  2
*Model_Space
  0
BLOCK_RECORD
  5
21A
100
AcDbSymbolTableRecord
100
AcDbBlockTableRecord
  2
*Paper_Space
  0
ENDTAB
  0
TABLE
  2
DIMSTYLE
  5
A
100
AcDbSymbolTable
 70
1
100
AcDbDimStyleTable
 71
0
  0
DIMSTYLE
105
21B
100
AcDbSymbolTableRecord
100
AcDbDimStyleTableRecord
  2
STANDARD
 70
0
  3

  4

 40
1.0
 41
3.0
 42
0.5
 43
0.38
 44
1.5
 45
0.0
 46
0.0
 47
0.01
 48
0.01
140
3.0
141
0.09
142
0.0
143
25.4
144
1.0
145
0.0
146
1.0
147
0.625
 71
1.0
 72
0.0
 73
0
 74
0
 75
0
 76
0
 77
1
 78
8
170
0
171
1
172
0
173
0
174
0
175
0
176
0
177
0
178
0
270
2
271
2
272
2
273
2
274
2
275
0
280
0
281
0
282
0
283
1
284
8
285
0
286
0
287
3
288
0
340
11
278
44
  0
ENDTAB
  0
ENDSEC
  0
SECTION
  2
BLOCKS
  0
BLOCK
  5
20
100
AcDbEntity
  8
0
100
AcDbBlockBegin
  2
*Model_Space
 70
0
 10
0.0
 20
0.0
 30
0.0
  3
*Model_Space
  1

  0
ENDBLK
  5
21
100
AcDbEntity
  8
0
100
AcDbBlockEnd
  0
BLOCK
  5
1C
100
AcDbEntity
  8
0
100
AcDbBlockBegin
  2
*Paper_Space
 70
0
 10
0.0
 20
0.0
 30
0.0
  3
*Paper_Space
  1

  0
ENDBLK
  5
1D
100
AcDbEntity
  8
0
100
AcDbBlockEnd
  0
ENDSEC
  0
SECTION
  2
ENTITIES
  0
LWPOLYLINE
  5
21C
100
AcDbEntity
  8
ASSI
100
AcDbPolyline
 62
7
  6
CONTINUOUS
 90
13
 70
0
 10
-9.3704017272
 20
21.9136679075
 10
-9.4210972412
 20
21.876799225
 10
-9.4958320467
 20
21.813380718
 10
-9.5650190524
 20
21.7437441401
 10
-9.6289810936
 20
21.6682371065
 10
-9.6875740287
 20
21.5874160245
 10
-9.7401425202
 20
21.502501264
 10
-9.7865463539
 20
21.4139354921
 10
-9.8265271644
 20
21.3220851866
 10
-9.8593957144
 20
21.2282212603
 10
-9.8847908539
 20
21.1328492155
 10
-9.9023367061
 20
21.035880946
 10
-9.9051957136
 20
21.0133500088
  0
LINE
  5
21D
100
AcDbEntity
  8
ASSI
100
AcDbLine
 62
7
  6
CONTINUOUS
 10
-9.3706771721
 20
21.913480519
 11
-7.3880530836
 21
23.265382777
  0
LINE
  5
21E
100
AcDbEntity
  8
ASSI
100
AcDbLine
 62
253
  6
CONTINUOUS
 10
-9.1074962266
 20
21.8973697627
 11
-7.137459134
 21
23.2406892601
  0
LWPOLYLINE
  5
21F
100
AcDbEntity
  8
ASSI
100
AcDbPolyline
 62
253
  6
CONTINUOUS
 90
30
 70
0
 10
-9.3704017325
 20
21.9136679152
 10
-9.367425127
 20
21.9156404532
 10
-9.360401491
 20
21.9199318329
 10
-9.3531487497
 20
21.923869053
 10
-9.3456730254
 20
21.92744879
 10
-9.3379806287
 20
21.9306680221
 10
-9.3300780529
 20
21.9335240318
 10
-9.3219719688
 20
21.9360144083
 10
-9.3136692192
 20
21.9381370494
 10
-9.3051768125
 20
21.9398901633
 10
-9.2965019176
 20
21.9412722702
 10
-9.2876518572
 20
21.9422822032
 10
-9.2786341019
 20
21.94291911
 10
-9.2694562639
 20
21.9431824529
 10
-9.2601260906
 20
21.9430720096
 10
-9.2506514579
 20
21.9425878733
 10
-9.2410403635
 20
21.9417304527
 10
-9.2313009207
 20
21.9405004715
 10
-9.2214413506
 20
21.9388989681
 10
-9.2114699762
 20
21.9369272944
 10
-9.2013952146
 20
21.9345871146
 10
-9.1912255703
 20
21.9318804042
 10
-9.1809696278
 20
21.9288094481
 10
-9.1706360444
 20
21.9253768385
 10
-9.1602335431
 20
21.921585473
 10
-9.149770905
 20
21.917438552
 10
-9.139256962
 20
21.9129395761
 10
-9.1287005892
 20
21.9080923431
 10
-9.1181106977
 20
21.9029009445
 10
-9.1074962266
 20
21.8973697627
  0
LWPOLYLINE
  5
220
100
AcDbEntity
  8
ASSI
100
AcDbPolyline
 62
7
  6
CONTINUOUS
 90
11
 70
0
 10
5.3009315571
 20
-22.7361853419
 10
5.3656321195
 20
-22.7691715514
 10
5.4329534764
 20
-22.7949212149
 10
5.5027078527
 20
-22.8135211051
 10
5.5751737231
 20
-22.8249673641
 10
5.6497821737
 20
-22.8289529888
 10
5.7257450415
 20
-22.8252576183
 10
5.8032829776
 20
-22.813609753
 10
5.882166156
 20
-22.7936135656
 10
5.9615220408
 20
-22.7650533364
 10
6.0073599387
 20
-22.7445726834
  0
LINE
  5
221
100
AcDbEntity
  8
ASSI
100
AcDbLine
 62
7
  6
CONTINUOUS
 10
-9.5624288755
 20
-14.1542687234
 11
5.30171535
 21
-22.7366393077
  0
LINE
  5
222
100
AcDbEntity
  8
ASSI
100
AcDbLine
 62
7
  6
CONTINUOUS
 10
5.3009299946
 20
-22.736184475
 11
5.3017153766
 21
-22.7366393231
  0
LINE
  5
223
100
AcDbEntity
  8
ASSI
100
AcDbLine
 62
253
  6
CONTINUOUS
 10
-9.5624288755
 20
-14.1542687234
 11
-9.567989091
 21
-14.1509835068
  0
LWPOLYLINE
  5
224
100
AcDbEntity
  8
ASSI
100
AcDbPolyline
 62
253
  6
CONTINUOUS
 90
27
 70
0
 10
-9.567989091
 20
-14.1509835068
 10
-9.5795062314
 20
-14.1436851301
 10
-9.5907302855
 20
-14.1358905554
 10
-9.6016546716
 20
-14.1276043524
 10
-9.6122729829
 20
-14.1188313705
 10
-9.6225793328
 20
-14.1095765374
 10
-9.6325676919
 20
-14.099845244
 10
-9.6422321863
 20
-14.0896431768
 10
-9.6515674415
 20
-14.0789761135
 10
-9.6605679927
 20
-14.0678502605
 10
-9.6692285529
 20
-14.0562720966
 10
-9.6775443091
 20
-14.0442482018
 10
-9.6855103963
 20
-14.0317855576
 10
-9.6931221338
 20
-14.0188914082
 10
-9.7003752933
 20
-14.005573103
 10
-9.707265629
 20
-13.9918383747
 10
-9.713789097
 20
-13.9776951832
 10
-9.7199420891
 20
-13.9631515727
 10
-9.7257210186
 20
-13.9482159286
 10
-9.7311224723
 20
-13.9328969344
 10
-9.7361434322
 20
-13.9172034175
 10
-9.7407809563
 20
-13.901144508
 10
-9.7450323338
 20
-13.8847294533
 10
-9.7488952278
 20
-13.8679675667
 10
-9.7523674199
 20
-13.8508684726
 10
-9.7554468199
 20
-13.8334421084
 10
-9.7581316197
 20
-13.8156985381
  0
LINE
  5
225
100
AcDbEntity
  8
ASSI
100
AcDbLine
 62
253
  6
CONTINUOUS
 10
-9.7581316197
 20
-13.8156985381
 11
5.0990569859
 21
-22.3940530347
  0
LWPOLYLINE
  5
226
100
AcDbEntity
  8
ASSI
100
AcDbPolyline
 62
7
  6
CONTINUOUS
 90
6
 70
0
 10
-9.8030136947
 20
-13.9155634763
 10
-9.7581393607
 20
-13.9818313758
 10
-9.7067122696
 20
-14.0415588099
 10
-9.649254036
 20
-14.0943465391
 10
-9.5869311577
 20
-14.1393951779
 10
-9.5613309709
 20
-14.1548997474
  0
LWPOLYLINE
  5
227
100
AcDbEntity
  8
ASSI
100
AcDbPolyline
 62
7
  6
CONTINUOUS
 90
10
 70
0
 10
-9.9051478993
 20
21.013765586
 10
-10.0263026552
 20
19.9298386333
 10
-10.1418658616
 20
18.7874038595
 10
-10.2442634806
 20
17.6511026376
 10
-10.3334710766
 20
16.5211796937
 10
-10.4094671232
 20
15.397876597
 10
-10.4722329274
 20
14.2814312941
 10
-10.5217523379
 20
13.1720823059
 10
-10.5580118558
 20
12.0700686938
 10
-10.5799788266
 20
11.042159324
  0
LWPOLYLINE
  5
228
100
AcDbEntity
  8
ASSI
100
AcDbPolyline
 62
253
  6
CONTINUOUS
 90
58
 70
0
 10
-9.7581316197
 20
20.8147191114
 10
-9.7554468199
 20
20.8356733546
 10
-9.7523674199
 20
20.8567820951
 10
-9.7488952278
 20
20.8780331808
 10
-9.7450323338
 20
20.899414359
 10
-9.7407809563
 20
20.9209133453
 10
-9.7361434322
 20
20.9425178323
 10
-9.7311224723
 20
20.9642154729
 10
-9.7257210186
 20
20.9859937091
 10
-9.7199420891
 20
21.0078398406
 10
-9.713789097
 20
21.0297412665
 10
-9.707265629
 20
21.0516854355
 10
-9.7003752933
 20
21.0736596772
 10
-9.6931221338
 20
21.0956513889
 10
-9.6855103963
 20
21.1176479079
 10
-9.6775443091
 20
21.1396364615
 10
-9.6692285529
 20
21.161604425
 10
-9.6605679927
 20
21.1835391744
 10
-9.6515674415
 20
21.2054279581
 10
-9.6422321863
 20
21.2272582161
 10
-9.6325676919
 20
21.2490174073
 10
-9.6225793328
 20
21.2706928621
 10
-9.6122729829
 20
21.2922721334
 10
-9.6016546716
 20
21.3137428452
 10
-9.5907302855
 20
21.33509252
 10
-9.5795062314
 20
21.3563089314
 10
-9.567989091
 20
21.3773798879
 10
-9.5561852763
 20
21.3982930816
 10
-9.544101726
 20
21.4190365154
 10
-9.5317455138
 20
21.4395983028
 10
-9.519123501
 20
21.4599664507
 10
-9.506243092
 20
21.4801293018
 10
-9.4931118419
 20
21.5000752856
 10
-9.4797370662
 20
21.5197927194
 10
-9.4661266291
 20
21.5392702996
 10
-9.4522884996
 20
21.5584968821
 10
-9.4382303573
 20
21.5774612324
 10
-9.4239604481
 20
21.5961525088
 10
-9.4094871465
 20
21.6145599973
 10
-9.3948185125
 20
21.6326728921
 10
-9.3799631592
 20
21.6504808341
 10
-9.364929798
 20
21.6679736345
 10
-9.3497268021
 20
21.68514101
 10
-9.334363098
 20
21.701973151
 10
-9.3188476975
 20
21.7184604339
 10
-9.3031892442
 20
21.7345931474
 10
-9.2873969461
 20
21.7503620653
 10
-9.2714800543
 20
21.7657581979
 10
-9.2554473959
 20
21.7807725035
 10
-9.2393083525
 20
21.7953964472
 10
-9.2230724236
 20
21.8096216505
 10
-9.2067487067
 20
21.823439648
 10
-9.1903468343
 20
21.8368425244
 10
-9.173876384
 20
21.8498226939
 10
-9.1573464403
 20
21.8623725449
 10
-9.1407665107
 20
21.874484856
 10
-9.124146521
 20
21.8861528077
 10
-9.1074962266
 20
21.8973697627
  0
LINE
  5
229
100
AcDbEntity
  8
ASSI
100
AcDbLine
 62
7
  6
CONTINUOUS
 10
-5.14566088
 20
22.0906499113
 11
-5.3259121294
 21
21.6764297525
  0
LWPOLYLINE
  5
22A
100
AcDbEntity
  8
0
100
AcDbPolyline
 62
253
  6
CONTINUOUS
 90
43
 70
0
 10
-4.326090446
 20
-11.7998812294
 10
-4.3105723679
 20
-11.803635508
 10
-4.2952748621
 20
-11.8068268511
 10
-4.2801915899
 20
-11.8094617763
 10
-4.2653162122
 20
-11.8115468011
 10
-4.2506423904
 20
-11.8130884431
 10
-4.2361637856
 20
-11.8140932199
 10
-4.221877234
 20
-11.8145666755
 10
-4.207792273
 20
-11.8145104607
 10
-4.1939216149
 20
-11.8139252529
 10
-4.1802779721
 20
-11.8128117294
 10
-4.166874057
 20
-11.8111705675
 10
-4.1537225821
 20
-11.8090024445
 10
-4.1408355864
 20
-11.8063077876
 10
-4.1282224166
 20
-11.8030860226
 10
-4.1158917459
 20
-11.7993363251
 10
-4.1038522475
 20
-11.7950578707
 10
-4.0921125947
 20
-11.7902498349
 10
-4.0806814608
 20
-11.7849113934
 10
-4.0695672887
 20
-11.7790427343
 10
-4.0587775998
 20
-11.7726480967
 10
-4.0483196851
 20
-11.7657327321
 10
-4.0382008358
 20
-11.7583018922
 10
-4.0284283428
 20
-11.7503608286
 10
-4.0190094973
 20
-11.7419147928
 10
-4.0099508118
 20
-11.7329695184
 10
-4.0012556856
 20
-11.7235326666
 10
-3.9929267395
 20
-11.7136123805
 10
-3.9849665943
 20
-11.7032168032
 10
-3.9773778707
 20
-11.6923540778
 10
-3.9701631897
 20
-11.6810323474
 10
-3.9633257063
 20
-11.66926054
 10
-3.9568707129
 20
-11.6570507233
 10
-3.9508040365
 20
-11.6444157497
 10
-3.9451315036
 20
-11.6313684718
 10
-3.9398589412
 20
-11.6179217421
 10
-3.934992176
 20
-11.6040884132
 10
-3.9305366245
 20
-11.5898777535
 10
-3.9264960619
 20
-11.5752846957
 10
-3.922873853
 20
-11.5603005882
 10
-3.9196733627
 20
-11.5449167797
 10
-3.916897956
 20
-11.5291246187
 10
-3.9145509978
 20
-11.5129154537
  0
LWPOLYLINE
  5
22B
100
AcDbEntity
  8
0
100
AcDbPolyline
 62
253
  6
CONTINUOUS
 90
15
 70
0
 10
-4.4066320895
 20
-11.7724378787
 10
-4.4009337428
 20
-11.7747727704
 10
-4.395227583
 20
-11.7770465534
 10
-4.3895134927
 20
-11.7792600764
 10
-4.3837913546
 20
-11.7814141882
 10
-4.3780610513
 20
-11.7835097376
 10
-4.3723224655
 20
-11.7855475734
 10
-4.3665754798
 20
-11.7875285443
 10
-4.3608199448
 20
-11.789453519
 10
-4.3550555813
 20
-11.7913234455
 10
-4.3492820782
 20
-11.7931392916
 10
-4.3434991244
 20
-11.7949020252
 10
-4.3377064086
 20
-11.7966126141
 10
-4.3319036195
 20
-11.7982720262
 10
-4.326090446
 20
-11.7998812294
  0
LWPOLYLINE
  5
22C
100
AcDbEntity
  8
0
100
AcDbPolyline
 62
253
  6
CONTINUOUS
 90
22
 70
0
 10
-4.4633254032
 20
-11.4628984321
 10
-4.4866988432
 20
-11.4530556749
 10
-4.5101190579
 20
-11.4428154539
 10
-4.5335894718
 20
-11.4321773063
 10
-4.5571135092
 20
-11.4211407692
 10
-4.5806945943
 20
-11.4097053798
 10
-4.6043361516
 20
-11.397870675
 10
-4.6280416054
 20
-11.3856361922
 10
-4.6518119771
 20
-11.373002556
 10
-4.6756386766
 20
-11.3599747417
 10
-4.699510711
 20
-11.3465588124
 10
-4.7234170872
 20
-11.3327608311
 10
-4.7473468123
 20
-11.3185868607
 10
-4.7712888932
 20
-11.3040429641
 10
-4.795232337
 20
-11.2891352045
 10
-4.8191685592
 20
-11.2738679513
 10
-4.8430986091
 20
-11.2582388004
 10
-4.8670259447
 20
-11.2422436542
 10
-4.8909540239
 20
-11.2258784152
 10
-4.9148863045
 20
-11.2091389858
 10
-4.9388262445
 20
-11.1920212684
 10
-4.9627773017
 20
-11.1745211655
  0
LWPOLYLINE
  5
22D
100
AcDbEntity
  8
0
100
AcDbPolyline
 62
253
  6
CONTINUOUS
 90
22
 70
0
 10
-4.9456006194
 20
-11.4668648457
 10
-4.9216529125
 20
-11.4838560153
 10
-4.8977082739
 20
-11.5005256057
 10
-4.8737640018
 20
-11.5168761705
 10
-4.8498173943
 20
-11.5329102633
 10
-4.8258657496
 20
-11.5486304381
 10
-4.8019063657
 20
-11.5640392483
 10
-4.7779365409
 20
-11.5791392478
 10
-4.753955414
 20
-11.5939317308
 10
-4.7299694866
 20
-11.6084129542
 10
-4.7059871009
 20
-11.6225779156
 10
-4.6820165993
 20
-11.6364216125
 10
-4.6580663242
 20
-11.6499390425
 10
-4.6341446177
 20
-11.6631252029
 10
-4.6102598223
 20
-11.6759750914
 10
-4.5864184654
 20
-11.6884845551
 10
-4.5626198156
 20
-11.7006528405
 10
-4.5388613266
 20
-11.7124800434
 10
-4.5151404521
 20
-11.7239662599
 10
-4.491454646
 20
-11.735111586
 10
-4.4678013619
 20
-11.7459161177
 10
-4.4441780536
 20
-11.7563799509
  0
LINE
  5
22E
100
AcDbEntity
  8
ASSI
100
AcDbLine
 62
253
  6
CONTINUOUS
 10
-10.2844697996
 20
-8.4891564092
 11
-10.3244968818
 21
-7.8044628375
  0
LWPOLYLINE
  5
22F
100
AcDbEntity
  8
ASSI
100
AcDbPolyline
 62
253
  6
CONTINUOUS
 90
28
 70
0
 10
-10.579921666
 20
-4.4735302778
 10
-10.5794700162
 20
-4.4818928791
 10
-10.5786143668
 20
-4.4902402995
 10
-10.57735541
 20
-4.4985657866
 10
-10.5756941642
 20
-4.5068626057
 10
-10.5736319731
 20
-4.5151240454
 10
-10.571170505
 20
-4.5233434228
 10
-10.568311751
 20
-4.531514089
 10
-10.5650580236
 20
-4.5396294346
 10
-10.5614119547
 20
-4.5476828949
 10
-10.5573764939
 20
-4.5556679554
 10
-10.5529549054
 20
-4.5635781566
 10
-10.548150766
 20
-4.5714070999
 10
-10.5429679619
 20
-4.5791484523
 10
-10.5374106855
 20
-4.5867959516
 10
-10.5314834323
 20
-4.5943434115
 10
-10.5251909969
 20
-4.6017847268
 10
-10.5185384694
 20
-4.6091138781
 10
-10.5115312313
 20
-4.6163249365
 10
-10.5041749507
 20
-4.623412069
 10
-10.4964755785
 20
-4.6303695425
 10
-10.4884393427
 20
-4.6371917291
 10
-10.4800727441
 20
-4.64387311
 10
-10.4713825506
 20
-4.6504082807
 10
-10.4623757919
 20
-4.6567919546
 10
-10.4530597537
 20
-4.6630189678
 10
-10.4434419721
 20
-4.6690842832
 10
-10.433530227
 20
-4.6749829944
  0
LINE
  5
230
100
AcDbEntity
  8
ASSI
100
AcDbLine
 62
253
  6
CONTINUOUS
 10
-10.3244968818
 20
-7.8044628375
 11
-10.3587827856
 21
-7.115785989
  0
LINE
  5
231
100
AcDbEntity
  8
ASSI
100
AcDbLine
 62
253
  6
CONTINUOUS
 10
-10.3587827856
 20
-7.115785989
 11
-10.3873243116
 21
-6.4231903504
  0
LINE
  5
232
100
AcDbEntity
  8
ASSI
100
AcDbLine
 62
253
  6
CONTINUOUS
 10
-10.3873243116
 20
-6.4231903504
 11
-10.4101187694
 21
-5.7267407822
  0
LINE
  5
233
100
AcDbEntity
  8
ASSI
100
AcDbLine
 62
253
  6
CONTINUOUS
 10
-10.4101187694
 20
-5.7267407822
 11
-10.4271640622
 21
-5.0265024506
  0
LWPOLYLINE
  5
234
100
AcDbEntity
  8
ASSI
100
AcDbPolyline
 62
7
  6
CONTINUOUS
 90
10
 70
0
 10
-10.5799763466
 20
-4.4711452893
 10
-10.5578459558
 20
-5.4777904556
 10
-10.52148812
 20
-6.5356994875
 10
-10.4718473302
 20
-7.5847591067
 10
-10.4089312974
 20
-8.6247428787
 10
-10.3327503048
 20
-9.6554293528
 10
-10.2433169619
 20
-10.6766024998
 10
-10.1406466906
 20
-11.6880449513
 10
-10.0247579439
 20
-12.6895380126
 10
-9.903923514
 20
-13.6206910784
  0
LINE
  5
235
100
AcDbEntity
  8
ASSI
100
AcDbLine
 62
253
  6
CONTINUOUS
 10
-10.4271640622
 20
-5.0265024506
 11
-10.4459467917
 21
-3.856999197
  0
LWPOLYLINE
  5
236
100
AcDbEntity
  8
ASSI
100
AcDbPolyline
 62
253
  6
CONTINUOUS
 90
4
 70
0
 10
-10.6414648328
 20
3.5718556377
 10
-10.6413886831
 20
3.566730404
 10
-10.640938265
 20
3.558561554
 10
-10.6400838097
 20
3.5504022885
  0
LWPOLYLINE
  5
237
100
AcDbEntity
  8
ASSI
100
AcDbPolyline
 62
253
  6
CONTINUOUS
 90
24
 70
0
 10
-10.4950179094
 20
3.3681819497
 10
-10.4949161897
 20
3.3611529386
 10
-10.4946013867
 20
3.3542553115
 10
-10.4940738802
 20
3.3474973876
 10
-10.4933343064
 20
3.3408873174
 10
-10.4923835571
 20
3.3344330731
 10
-10.4912227792
 20
3.3281424392
 10
-10.4898533727
 20
3.3220230024
 10
-10.488276989
 20
3.3160821434
 10
-10.4864955294
 20
3.3103270272
 10
-10.4845111426
 20
3.304764595
 10
-10.4823262218
 20
3.2994015555
 10
-10.4799434022
 20
3.2942443769
 10
-10.4773655577
 20
3.2892992791
 10
-10.4745957974
 20
3.2845722263
 10
-10.4716374617
 20
3.2800689197
 10
-10.4684941187
 20
3.2757947906
 10
-10.4651695595
 20
3.271754994
 10
-10.4616677937
 20
3.267954402
 10
-10.4579930448
 20
3.2643975986
 10
-10.4541497447
 20
3.2610888736
 10
-10.4501425287
 20
3.2580322173
 10
-10.44597623
 20
3.2552313166
 10
-10.4435382699
 20
3.2537540994
  0
LINE
  5
238
100
AcDbEntity
  8
ASSI
100
AcDbLine
 62
7
  6
CONTINUOUS
 10
-10.6029442022
 20
-2.8713587189
 11
-10.5799763424
 21
-4.4711455561
  0
LINE
  5
239
100
AcDbEntity
  8
ASSI
100
AcDbLine
 62
253
  6
CONTINUOUS
 10
-10.4459467917
 20
-3.856999197
 11
-10.4665915553
 21
-2.2183690779
  0
LINE
  5
23A
100
AcDbEntity
  8
ASSI
100
AcDbLine
 62
7
  6
CONTINUOUS
 10
-10.6211837016
 20
-1.2027373613
 11
-10.6029442022
 21
-2.8713587189
  0
LINE
  5
23B
100
AcDbEntity
  8
ASSI
100
AcDbLine
 62
253
  6
CONTINUOUS
 10
-10.4665915553
 20
-2.2183690779
 11
-10.4816517481
 21
-0.5762165503
  0
LWPOLYLINE
  5
23C
100
AcDbEntity
  8
ASSI
100
AcDbPolyline
 62
253
  6
CONTINUOUS
 90
29
 70
0
 10
-10.5799788266
 20
11.042159324
 10
-10.5799216659
 20
11.0346748377
 10
-10.5794700161
 20
11.0266254169
 10
-10.5786143667
 20
11.0185822012
 10
-10.5773554099
 20
11.010551697
 10
-10.5756941641
 20
11.0025404003
 10
-10.573631973
 20
10.9945547915
 10
-10.5711705049
 20
10.9866013306
 10
-10.5683117509
 20
10.9786864511
 10
-10.5650580235
 20
10.9708165556
 10
-10.5614119546
 20
10.9629980102
 10
-10.5573764938
 20
10.9552371396
 10
-10.5529549053
 20
10.9475402217
 10
-10.5481507659
 20
10.9399134827
 10
-10.5429679618
 20
10.9323630919
 10
-10.5374106854
 20
10.9248951572
 10
-10.5314834322
 20
10.9175157195
 10
-10.5251909968
 20
10.9102307481
 10
-10.5185384693
 20
10.9030461361
 10
-10.5115312312
 20
10.8959676953
 10
-10.5041749506
 20
10.8890011515
 10
-10.4964755784
 20
10.8821521402
 10
-10.4884393426
 20
10.8754262016
 10
-10.480072744
 20
10.8688287766
 10
-10.4713825505
 20
10.8623652019
 10
-10.4623757918
 20
10.856040706
 10
-10.4530597537
 20
10.8498604051
 10
-10.443441972
 20
10.8438292984
 10
-10.4335302269
 20
10.8379522647
  0
LINE
  5
23D
100
AcDbEntity
  8
ASSI
100
AcDbLine
 62
7
  6
CONTINUOUS
 10
-10.6336448215
 20
0.4695265114
 11
-10.6211837016
 21
-1.2027373613
  0
LINE
  5
23E
100
AcDbEntity
  8
ASSI
100
AcDbLine
 62
253
  6
CONTINUOUS
 10
-10.4816517481
 20
-0.5762165503
 11
-10.491126902
 21
1.0694624908
  0
LWPOLYLINE
  5
23F
100
AcDbEntity
  8
ASSI
100
AcDbPolyline
 62
7
  6
CONTINUOUS
 90
3
 70
0
 10
-10.641464832
 20
2.9232489526
 10
-10.6403274304
 20
2.1454064235
 10
-10.6336448215
 20
0.4695265114
  0
LINE
  5
240
100
AcDbEntity
  8
ASSI
100
AcDbLine
 62
253
  6
CONTINUOUS
 10
-10.491126902
 20
1.0694624908
 11
-10.4950166151
 21
2.7186489638
  0
LINE
  5
241
100
AcDbEntity
  8
ASSI
100
AcDbLine
 62
7
  6
CONTINUOUS
 10
-10.6377301178
 20
5.187266611
 11
-10.6414648328
 21
3.5718556323
  0
LINE
  5
242
100
AcDbEntity
  8
ASSI
100
AcDbLine
 62
253
  6
CONTINUOUS
 10
-10.4950166151
 20
3.3681812024
 11
-10.491126902
 21
5.0221865567
  0
LINE
  5
243
100
AcDbEntity
  8
ASSI
100
AcDbLine
 62
7
  6
CONTINUOUS
 10
-10.6281771951
 20
6.8731465093
 11
-10.6377301178
 21
5.187266611
  0
LINE
  5
244
100
AcDbEntity
  8
ASSI
100
AcDbLine
 62
253
  6
CONTINUOUS
 10
-10.491126902
 20
5.0221865567
 11
-10.4816517481
 21
6.6795991931
  0
LINE
  5
245
100
AcDbEntity
  8
ASSI
100
AcDbLine
 62
7
  6
CONTINUOUS
 10
-10.6128461371
 20
8.5625316396
 11
-10.6281771951
 21
6.8731465093
  0
LINE
  5
246
100
AcDbEntity
  8
ASSI
100
AcDbLine
 62
253
  6
CONTINUOUS
 10
-10.4816517481
 20
6.6795991931
 11
-10.4665915553
 21
8.3403998967
  0
LINE
  5
247
100
AcDbEntity
  8
ASSI
100
AcDbLine
 62
253
  6
CONTINUOUS
 10
-10.4665915553
 20
8.3403998967
 11
-10.4459467917
 21
10.0045935551
  0
LWPOLYLINE
  5
248
100
AcDbEntity
  8
ASSI
100
AcDbPolyline
 62
253
  6
CONTINUOUS
 90
46
 70
0
 10
-10.4950179094
 20
2.7186497111
 10
-10.4949161897
 20
2.7257961858
 10
-10.4946013867
 20
2.7330573396
 10
-10.4940738802
 20
2.740424415
 10
-10.4933343063
 20
2.7478885267
 10
-10.492383557
 20
2.7554406726
 10
-10.4912227791
 20
2.763071744
 10
-10.4898533724
 20
2.7707725374
 10
-10.4882769887
 20
2.778533765
 10
-10.486495529
 20
2.7863460662
 10
-10.4845111421
 20
2.7942000188
 10
-10.4823262212
 20
2.8020861502
 10
-10.4799434015
 20
2.8099949494
 10
-10.4773655569
 20
2.8179168775
 10
-10.4745957965
 20
2.8258423803
 10
-10.4716374607
 20
2.8337618989
 10
-10.4684941176
 20
2.8416658818
 10
-10.4651695582
 20
2.8495447962
 10
-10.4616677923
 20
2.8573891396
 10
-10.4579930433
 20
2.865189451
 10
-10.4541497431
 20
2.8729363227
 10
-10.4501425271
 20
2.8806204115
 10
-10.4459762282
 20
2.8882324497
 10
-10.4416558714
 20
2.8957632566
 10
-10.4371866673
 20
2.9032037495
 10
-10.4325740062
 20
2.9105449546
 10
-10.4278234511
 20
2.9177780179
 10
-10.4229407318
 20
2.9248942157
 10
-10.417931737
 20
2.9318849654
 10
-10.4128025081
 20
2.9387418357
 10
-10.4075592312
 20
2.9454565565
 10
-10.4022082301
 20
2.9520210295
 10
-10.3967559586
 20
2.9584273374
 10
-10.3912089925
 20
2.9646677538
 10
-10.3855740218
 20
2.9707347521
 10
-10.3798578428
 20
2.9766210152
 10
-10.3740673496
 20
2.9823194438
 10
-10.368209526
 20
2.9878231651
 10
-10.3622914369
 20
2.9931255413
 10
-10.35632022
 20
2.9982201773
 10
-10.3503030771
 20
3.0031009285
 10
-10.3442472652
 20
3.0077619085
 10
-10.3381600882
 20
3.0121974957
 10
-10.3320488876
 20
3.0164023405
 10
-10.325921034
 20
3.0203713716
 10
-10.319783918
 20
3.0240998019
  0
LWPOLYLINE
  5
249
100
AcDbEntity
  8
ASSI
100
AcDbPolyline
 62
7
  6
CONTINUOUS
 90
3
 70
0
 10
-10.579978823
 20
11.0421595599
 10
-10.5917372626
 20
10.2553949524
 10
-10.6128461371
 20
8.5625316396
  0
LINE
  5
24A
100
AcDbEntity
  8
ASSI
100
AcDbLine
 62
253
  6
CONTINUOUS
 10
-10.4459467917
 20
10.0045935551
 11
-10.4271640622
 21
11.197352195
  0
LINE
  5
24B
100
AcDbEntity
  8
ASSI
100
AcDbLine
 62
253
  6
CONTINUOUS
 10
-10.4271640622
 20
11.197352195
 11
-10.4101187694
 21
11.918690242
  0
LINE
  5
24C
100
AcDbEntity
  8
ASSI
100
AcDbLine
 62
253
  6
CONTINUOUS
 10
-10.4101187694
 20
11.918690242
 11
-10.3873243116
 21
12.6433562511
  0
LINE
  5
24D
100
AcDbEntity
  8
ASSI
100
AcDbLine
 62
253
  6
CONTINUOUS
 10
-10.3873243116
 20
12.6433562511
 11
-10.3587827856
 21
13.3712823847
  0
LINE
  5
24E
100
AcDbEntity
  8
ASSI
100
AcDbLine
 62
253
  6
CONTINUOUS
 10
-10.3587827856
 20
13.3712823847
 11
-10.3244968818
 21
14.1024005092
  0
LINE
  5
24F
100
AcDbEntity
  8
ASSI
100
AcDbLine
 62
253
  6
CONTINUOUS
 10
-10.3244968818
 20
14.1024005092
 11
-10.2844697996
 21
14.8366421648
  0
LINE
  5
250
100
AcDbEntity
  8
ASSI
100
AcDbLine
 62
253
  6
CONTINUOUS
 10
-10.2844697996
 20
14.8366421648
 11
-10.2387052522
 21
15.5739386338
  0
LINE
  5
251
100
AcDbEntity
  8
ASSI
100
AcDbLine
 62
253
  6
CONTINUOUS
 10
-10.2387052522
 20
15.5739386338
 11
-10.187207554
 21
16.3142209373
  0
LINE
  5
252
100
AcDbEntity
  8
ASSI
100
AcDbLine
 62
253
  6
CONTINUOUS
 10
-10.187207554
 20
16.3142209373
 11
-10.1299815008
 21
17.057419825
  0
LINE
  5
253
100
AcDbEntity
  8
ASSI
100
AcDbLine
 62
253
  6
CONTINUOUS
 10
-10.1299815008
 20
17.057419825
 11
-10.0670324049
 21
17.803465732
  0
LWPOLYLINE
  5
254
100
AcDbEntity
  8
ASSI
100
AcDbPolyline
 62
253
  6
CONTINUOUS
 90
31
 70
0
 10
-9.9051957136
 20
21.0133500088
 10
-9.905653613
 20
21.0083370772
 10
-9.9059283456
 20
21.0014731698
 10
-9.9058005197
 20
20.9945722287
 10
-9.9052702389
 20
20.9876398391
 10
-9.9043379323
 20
20.9806816115
 10
-9.9030043544
 20
20.9737031774
 10
-9.9012705846
 20
20.9667101846
 10
-9.899138026
 20
20.9597082927
 10
-9.8966084046
 20
20.9527031686
 10
-9.8936837676
 20
20.9457004817
 10
-9.890366482
 20
20.9387058994
 10
-9.8866592327
 20
20.9317250828
 10
-9.88256502
 20
20.9247636814
 10
-9.8780871574
 20
20.9178273294
 10
-9.873229269
 20
20.9109216405
 10
-9.8679952864
 20
20.9040522038
 10
-9.8623894457
 20
20.8972245787
 10
-9.8564162837
 20
20.8904442912
 10
-9.8500806348
 20
20.8837168286
 10
-9.8433876264
 20
20.8770476358
 10
-9.8363426756
 20
20.8704421101
 10
-9.8289514838
 20
20.8639055978
 10
-9.8212200331
 20
20.8574433889
 10
-9.8131545807
 20
20.8510607134
 10
-9.8047616541
 20
20.8447627372
 10
-9.7960480461
 20
20.8385545572
 10
-9.7870208087
 20
20.8324411979
 10
-9.7776872479
 20
20.8264276071
 10
-9.7680549177
 20
20.8205186516
 10
-9.7581316137
 20
20.8147191139
  0
LINE
  5
255
100
AcDbEntity
  8
ASSI
100
AcDbLine
 62
253
  6
CONTINUOUS
 10
-10.0670324049
 20
17.803465732
 11
-9.9983662014
 21
18.5522888518
  0
LINE
  5
256
100
AcDbEntity
  8
ASSI
100
AcDbLine
 62
253
  6
CONTINUOUS
 10
-9.9983662014
 20
18.5522888518
 11
-9.9239892891
 21
19.3038190619
  0
LINE
  5
257
100
AcDbEntity
  8
ASSI
100
AcDbLine
 62
253
  6
CONTINUOUS
 10
-9.9239892891
 20
19.3038190619
 11
-9.8439085419
 21
20.0579859841
  0
LINE
  5
258
100
AcDbEntity
  8
ASSI
100
AcDbLine
 62
253
  6
CONTINUOUS
 10
-9.8439085419
 20
20.0579859841
 11
-9.7581316197
 21
20.8147191114
  0
LWPOLYLINE
  5
259
100
AcDbEntity
  8
0
100
AcDbPolyline
 62
253
  6
CONTINUOUS
 90
92
 70
0
 10
-4.6264220935
 20
-9.0923383571
 10
-4.6273022322
 20
-9.0919216004
 10
-4.6281544587
 20
-9.0916716805
 10
-4.6289798034
 20
-9.0915630584
 10
-4.6301716275
 20
-9.0916110522
 10
-4.6313205041
 20
-9.0918444712
 10
-4.6324383363
 20
-9.0922012382
 10
-4.6335237665
 20
-9.0926710933
 10
-4.6345720351
 20
-9.0932556844
 10
-4.6355780362
 20
-9.0939524733
 10
-4.636847714
 20
-9.0950492423
 10
-4.638039116
 20
-9.096326903
 10
-4.6391583399
 20
-9.0977732571
 10
-4.64021241
 20
-9.0993758421
 10
-4.6412120555
 20
-9.101121138
 10
-4.6421689321
 20
-9.1029953605
 10
-4.6430923315
 20
-9.1049881459
 10
-4.6439820915
 20
-9.1071028111
 10
-4.6448356858
 20
-9.1093460937
 10
-4.6456508267
 20
-9.1117240742
 10
-4.6464261782
 20
-9.1142402058
 10
-4.6471606428
 20
-9.116897285
 10
-4.6478533198
 20
-9.119698387
 10
-4.6485040969
 20
-9.1226477039
 10
-4.6491130586
 20
-9.1257497062
 10
-4.6496808395
 20
-9.1290081813
 10
-4.6502102734
 20
-9.1324241805
 10
-4.6507047439
 20
-9.1359980718
 10
-4.651167291
 20
-9.1397311735
 10
-4.6515995802
 20
-9.1436286058
 10
-4.6520029335
 20
-9.1476964397
 10
-4.6523779553
 20
-9.1519428045
 10
-4.6527223789
 20
-9.1563840642
 10
-4.6530332199
 20
-9.1610386413
 10
-4.6532425274
 20
-9.1646799528
 10
-4.6534300693
 20
-9.1684552309
 10
-4.653594649
 20
-9.1723680885
 10
-4.6537350698
 20
-9.1764221385
 10
-4.6538500991
 20
-9.180619562
 10
-4.6539383612
 20
-9.1849568142
 10
-4.6539984448
 20
-9.1894289183
 10
-4.6540289383
 20
-9.1940308977
 10
-4.6540221533
 20
-9.2003514004
 10
-4.6539630623
 20
-9.2068287693
 10
-4.6538544729
 20
-9.2133978282
 10
-4.6536994556
 20
-9.2199946614
 10
-4.6535021317
 20
-9.226560393
 10
-4.6532668852
 20
-9.2330374075
 10
-4.6529970833
 20
-9.2393784019
 10
-4.6526920255
 20
-9.2455773243
 10
-4.6523499945
 20
-9.2516384355
 10
-4.6519696857
 20
-9.2575655612
 10
-4.6515514459
 20
-9.263360787
 10
-4.6510960343
 20
-9.2690257635
 10
-4.6506041351
 20
-9.2745628756
 10
-4.6500761304
 20
-9.2799774459
 10
-4.6495123272
 20
-9.2852755314
 10
-4.6489133138
 20
-9.2904622191
 10
-4.6482808033
 20
-9.2955387166
 10
-4.6476167904
 20
-9.3005052614
 10
-4.6469228939
 20
-9.3053626568
 10
-4.6461992285
 20
-9.3101139679
 10
-4.6454455332
 20
-9.3147628258
 10
-4.6446605781
 20
-9.3193123616
 10
-4.6438392588
 20
-9.3237637072
 10
-4.6429755016
 20
-9.3281174949
 10
-4.6420637582
 20
-9.3323749839
 10
-4.6411005788
 20
-9.3365399433
 10
-4.6400830389
 20
-9.3406167689
 10
-4.6390090551
 20
-9.3446085609
 10
-4.6378799103
 20
-9.3485132347
 10
-4.6366977287
 20
-9.3523274097
 10
-4.6354640918
 20
-9.3560485294
 10
-4.6341784093
 20
-9.3596773337
 10
-4.632839548
 20
-9.3632153868
 10
-4.6317987485
 20
-9.3658086689
 10
-4.6307204797
 20
-9.3683425849
 10
-4.6295970678
 20
-9.3708110332
 10
-4.6284178177
 20
-9.3732203004
 10
-4.6271739608
 20
-9.3755748521
 10
-4.625867455
 20
-9.3778594832
 10
-4.6245062388
 20
-9.3800511293
 10
-4.6231076186
 20
-9.3821233952
 10
-4.6216728804
 20
-9.3840793751
 10
-4.6209364532
 20
-9.3850131896
 10
-4.6201837544
 20
-9.3859044243
 10
-4.6194126829
 20
-9.3867375631
 10
-4.6186238794
 20
-9.3874944149
 10
-4.6182244308
 20
-9.3878371084
 10
-4.6178234103
 20
-9.3881517224
 10
-4.6174228257
 20
-9.3884350834
 10
-4.617025136
 20
-9.388684395
  0
LWPOLYLINE
  5
25A
100
AcDbEntity
  8
0
100
AcDbPolyline
 62
253
  6
CONTINUOUS
 90
94
 70
0
 10
-4.9987109566
 20
-9.1683037859
 10
-4.9977998332
 20
-9.168735991
 10
-4.9969192582
 20
-9.1689953422
 10
-4.9960658947
 20
-9.1691094746
 10
-4.9954420663
 20
-9.1691162329
 10
-4.9948323231
 20
-9.1690675175
 10
-4.9936517726
 20
-9.1688433114
 10
-4.992505143
 20
-9.1684936777
 10
-4.9913908013
 20
-9.1680218533
 10
-4.9903183133
 20
-9.1674293498
 10
-4.9892912973
 20
-9.1667186739
 10
-4.9879941848
 20
-9.1655927025
 10
-4.9867767324
 20
-9.1642767658
 10
-4.9856348392
 20
-9.1627874392
 10
-4.9848244555
 20
-9.1615666464
 10
-4.9840460416
 20
-9.1602647461
 10
-4.9832925386
 20
-9.1588878404
 10
-4.9825615543
 20
-9.1574380368
 10
-4.9818522889
 20
-9.1559158353
 10
-4.9811656443
 20
-9.1543193005
 10
-4.980502814
 20
-9.1526459556
 10
-4.979864455
 20
-9.1508935949
 10
-4.9790522445
 20
-9.1484309939
 10
-4.9782854935
 20
-9.1458219825
 10
-4.9775652274
 20
-9.1430644236
 10
-4.9768920618
 20
-9.1401558616
 10
-4.9762649742
 20
-9.1370925682
 10
-4.9756825325
 20
-9.1338704966
 10
-4.9751427501
 20
-9.1304865232
 10
-4.9746414229
 20
-9.1269412166
 10
-4.9741737924
 20
-9.1232360682
 10
-4.973736151
 20
-9.1193704929
 10
-4.973328995
 20
-9.1153355985
 10
-4.9729538718
 20
-9.1111204163
 10
-4.9726125341
 20
-9.1067123113
 10
-4.972307555
 20
-9.1020919856
 10
-4.972041713
 20
-9.0972384753
 10
-4.9718179067
 20
-9.0921343295
 10
-4.9716395158
 20
-9.0867761509
 10
-4.97151004
 20
-9.0811640553
 10
-4.9714325831
 20
-9.0753019027
 10
-4.9714086645
 20
-9.0692085307
 10
-4.9714394076
 20
-9.0629065214
 10
-4.9715246683
 20
-9.0564287539
 10
-4.9716592318
 20
-9.0498492964
 10
-4.9718366162
 20
-9.0432525143
 10
-4.9720512886
 20
-9.0367133385
 10
-4.9723015147
 20
-9.0302689616
 10
-4.9725865092
 20
-9.023947142
 10
-4.9729056012
 20
-9.0177697264
 10
-4.9732585761
 20
-9.0117349162
 10
-4.973645333
 20
-9.0058350013
 10
-4.9740656283
 20
-9.0000632875
 10
-4.9745186462
 20
-8.9944171439
 10
-4.9750034278
 20
-8.9888949557
 10
-4.975519127
 20
-8.9834947284
 10
-4.9760653477
 20
-8.978212951
 10
-4.9766418063
 20
-8.9730457331
 10
-4.9772479031
 20
-8.9679896261
 10
-4.9778817729
 20
-8.9630429496
 10
-4.9785412342
 20
-8.9582044651
 10
-4.9792249861
 20
-8.9534724495
 10
-4.9799352488
 20
-8.9488432406
 10
-4.9806751231
 20
-8.9443126915
 10
-4.9814478784
 20
-8.939877345
 10
-4.98225746
 20
-8.935536502
 10
-4.9831079817
 20
-8.9312901528
 10
-4.9840031348
 20
-8.9271375863
 10
-4.9849449184
 20
-8.9230752846
 10
-4.9859349087
 20
-8.9190990284
 10
-4.986974157
 20
-8.915205863
 10
-4.9880616144
 20
-8.9113978938
 10
-4.989195707
 20
-8.9076784908
 10
-4.9900757235
 20
-8.9049486791
 10
-4.9909791592
 20
-8.9022695524
 10
-4.9919055184
 20
-8.8996398364
 10
-4.9928600318
 20
-8.8970572754
 10
-4.9938490617
 20
-8.8945214535
 10
-4.9948777681
 20
-8.8920402955
 10
-4.995951804
 20
-8.8896210041
 10
-4.9970799954
 20
-8.8872595536
 10
-4.9982697943
 20
-8.8849528746
 10
-4.9995199827
 20
-8.8827129534
 10
-5.000824537
 20
-8.8805581019
 10
-5.0021699595
 20
-8.8785093077
 10
-5.0035563252
 20
-8.8765627637
 10
-5.0042705699
 20
-8.8756302249
 10
-5.0050031128
 20
-8.874738564
 10
-5.0057567551
 20
-8.8739036231
 10
-5.0065311764
 20
-8.8731447338
 10
-5.0069245154
 20
-8.8728015027
 10
-5.0073199826
 20
-8.8724870486
 10
-5.0077153555
 20
-8.8722048075
 10
-5.008107914
 20
-8.871957748
  0
LWPOLYLINE
  5
25B
100
AcDbEntity
  8
0
100
AcDbPolyline
 62
253
  6
CONTINUOUS
 90
51
 70
0
 10
-1.0212111589
 20
-11.2150297894
 10
-1.0403844029
 20
-11.204307454
 10
-1.0594795401
 20
-11.1943239293
 10
-1.0785483842
 20
-11.1850457015
 10
-1.0976427487
 20
-11.1764392568
 10
-1.1168059417
 20
-11.1684798366
 10
-1.1360472489
 20
-11.1611777024
 10
-1.1553674506
 20
-11.154551871
 10
-1.1747673268
 20
-11.148621359
 10
-1.1942366356
 20
-11.1434072142
 10
-1.2137210455
 20
-11.1389386095
 10
-1.233155203
 20
-11.1352467489
 10
-1.2524737544
 20
-11.1323628363
 10
-1.271617185
 20
-11.1303152019
 10
-1.2905493354
 20
-11.1291206801
 10
-1.3092398851
 20
-11.1287932315
 10
-1.3276585138
 20
-11.1293468166
 10
-1.3437771846
 20
-11.1305894165
 10
-1.359631837
 20
-11.1325466084
 10
-1.3751972607
 20
-11.1352258284
 10
-1.3904482453
 20
-11.1386345124
 10
-1.4053595807
 20
-11.1427800965
 10
-1.4199060566
 20
-11.1476700167
 10
-1.4340624626
 20
-11.1533117091
 10
-1.4478035884
 20
-11.1597126096
 10
-1.4611042239
 20
-11.1668801544
 10
-1.4739420897
 20
-11.1748161658
 10
-1.4863066306
 20
-11.1835000122
 10
-1.4981902223
 20
-11.1929054483
 10
-1.5095852405
 20
-11.2030062289
 10
-1.5204840609
 20
-11.2137761085
 10
-1.5308790594
 20
-11.225188842
 10
-1.5407626115
 20
-11.2372181841
 10
-1.5501270931
 20
-11.2498378894
 10
-1.5589648799
 20
-11.2630217128
 10
-1.5682702953
 20
-11.2784959703
 10
-1.5769003872
 20
-11.2946186283
 10
-1.5848560796
 20
-11.3113573422
 10
-1.5921382965
 20
-11.3286797672
 10
-1.5987472808
 20
-11.3465470472
 10
-1.60468055
 20
-11.3648942787
 10
-1.6099349404
 20
-11.383650047
 10
-1.6145072883
 20
-11.4027429369
 10
-1.6183980112
 20
-11.4221120413
 10
-1.6216218505
 20
-11.4417384827
 10
-1.6241971291
 20
-11.4616138916
 10
-1.6261421696
 20
-11.481729898
 10
-1.62747141
 20
-11.5020895028
 10
-1.6281837487
 20
-11.5227411881
 10
-1.6282741995
 20
-11.5437448062
 10
-1.6277377763
 20
-11.5651602097
  0
LWPOLYLINE
  5
25C
100
AcDbEntity
  8
0
100
AcDbPolyline
 62
253
  6
CONTINUOUS
 90
51
 70
0
 10
-2.8644086807
 20
-10.1507906409
 10
-2.8835819247
 20
-10.1400683056
 10
-2.9026770619
 20
-10.1300847809
 10
-2.921745906
 20
-10.1208065531
 10
-2.9408402705
 20
-10.1122001084
 10
-2.9600034635
 20
-10.1042406881
 10
-2.9792447707
 20
-10.096938554
 10
-2.9985649724
 20
-10.0903127226
 10
-3.0179648486
 20
-10.0843822106
 10
-3.0374341574
 20
-10.0791680658
 10
-3.0569185674
 20
-10.0746994611
 10
-3.0763527248
 20
-10.0710076005
 10
-3.0956712763
 20
-10.0681236879
 10
-3.1148147068
 20
-10.0660760535
 10
-3.1337468572
 20
-10.0648815317
 10
-3.152437407
 20
-10.0645540831
 10
-3.1708560356
 20
-10.0651076682
 10
-3.1869747064
 20
-10.0663502681
 10
-3.2028293588
 20
-10.06830746
 10
-3.2183947825
 20
-10.07098668
 10
-3.2336457672
 20
-10.074395364
 10
-3.2485571026
 20
-10.0785409481
 10
-3.2631035784
 20
-10.0834308683
 10
-3.2772599844
 20
-10.0890725607
 10
-3.2910011103
 20
-10.0954734612
 10
-3.3043017457
 20
-10.102641006
 10
-3.3171396116
 20
-10.1105770174
 10
-3.3295041524
 20
-10.1192608638
 10
-3.3413877441
 20
-10.1286662999
 10
-3.3527827623
 20
-10.1387670804
 10
-3.3636815828
 20
-10.1495369601
 10
-3.3740765812
 20
-10.1609496936
 10
-3.3839601334
 20
-10.1729790356
 10
-3.393324615
 20
-10.185598741
 10
-3.4021624018
 20
-10.1987825644
 10
-3.4114678172
 20
-10.2142568218
 10
-3.420097909
 20
-10.2303794799
 10
-3.4280536014
 20
-10.2471181937
 10
-3.4353358183
 20
-10.2644406188
 10
-3.4419448026
 20
-10.2823078988
 10
-3.4478780718
 20
-10.3006551303
 10
-3.4531324622
 20
-10.3194108985
 10
-3.4577048102
 20
-10.3385037885
 10
-3.461595533
 20
-10.3578728929
 10
-3.4648193723
 20
-10.3774993343
 10
-3.4673946509
 20
-10.3973747431
 10
-3.4693396914
 20
-10.4174907496
 10
-3.4706689318
 20
-10.4378503544
 10
-3.4713812705
 20
-10.4585020396
 10
-3.4714717214
 20
-10.4795056578
 10
-3.4709352981
 20
-10.5009210613
  0
LINE
  5
25D
100
AcDbEntity
  8
0
100
AcDbLine
 62
253
  6
CONTINUOUS
 10
-2.8549111264
 20
-10.4455520229
 11
-2.1160356278
 21
-10.8721694756
  0
LINE
  5
25E
100
AcDbEntity
  8
0
100
AcDbLine
 62
253
  6
CONTINUOUS
 10
-1.0117136046
 20
-11.5097911713
 11
-0.272863051
 21
-11.936394221
  0
LINE
  5
25F
100
AcDbEntity
  8
0
100
AcDbLine
 62
253
  6
CONTINUOUS
 10
-0.2823606053
 20
-11.641632839
 11
-1.0212111589
 21
-11.2150297894
  0
LINE
  5
260
100
AcDbEntity
  8
0
100
AcDbLine
 62
253
  6
CONTINUOUS
 10
-2.1255331821
 20
-10.5774080936
 11
-2.8644086807
 21
-10.1507906409
  0
LINE
  5
261
100
AcDbEntity
  8
0
100
AcDbLine
 62
253
  6
CONTINUOUS
 10
-2.0830377728
 20
-11.7107915107
 11
-3.1918528308
 21
-11.068879566
  0
LINE
  5
262
100
AcDbEntity
  8
0
100
AcDbLine
 62
253
  6
CONTINUOUS
 10
-0.239865196
 20
-12.7750162561
 11
-1.3486802542
 21
-12.1331043114
  0
LWPOLYLINE
  5
263
100
AcDbEntity
  8
0
100
AcDbPolyline
 62
253
  6
CONTINUOUS
 90
45
 70
0
 10
-4.9627773017
 20
-11.1745211655
 10
-4.9721680672
 20
-11.1674822936
 10
-4.9814920713
 20
-11.1602269876
 10
-4.9907518571
 20
-11.1527566533
 10
-4.9999499676
 20
-11.1450726963
 10
-5.0090889458
 20
-11.1371765225
 10
-5.0181713347
 20
-11.1290695376
 10
-5.0271996774
 20
-11.1207531474
 10
-5.0376653566
 20
-11.1107894284
 10
-5.0480501432
 20
-11.1005539862
 10
-5.0583432462
 20
-11.0900582085
 10
-5.0685338745
 20
-11.0793134825
 10
-5.0786112371
 20
-11.0683311958
 10
-5.0885645431
 20
-11.0571227357
 10
-5.0983833771
 20
-11.0456988797
 10
-5.1080588269
 20
-11.0340679644
 10
-5.1175823558
 20
-11.0222377163
 10
-5.1269454274
 20
-11.010215862
 10
-5.1361395051
 20
-10.998010128
 10
-5.1451560523
 20
-10.985628241
 10
-5.153986667
 20
-10.9730786042
 10
-5.1626234851
 20
-10.9603723289
 10
-5.1710587769
 20
-10.9475212029
 10
-5.1792848128
 20
-10.9345370141
 10
-5.1872938633
 20
-10.9214315505
 10
-5.1950781985
 20
-10.9082166001
 10
-5.2026307848
 20
-10.8949036772
 10
-5.2099473713
 20
-10.8815032018
 10
-5.2170244031
 20
-10.8680253205
 10
-5.2238583251
 20
-10.8544801797
 10
-5.2304455822
 20
-10.840877926
 10
-5.2367826196
 20
-10.8272287057
 10
-5.2428653338
 20
-10.8135437842
 10
-5.2486874276
 20
-10.7998389009
 10
-5.2542420553
 20
-10.7861309142
 10
-5.2595223713
 20
-10.7724366823
 10
-5.2645215299
 20
-10.7587730636
 10
-5.2692326856
 20
-10.7451569162
 10
-5.2730368042
 20
-10.7335343314
 10
-5.2766223955
 20
-10.7219566435
 10
-5.2799875557
 20
-10.7104214869
 10
-5.2831303808
 20
-10.698926496
 10
-5.286048967
 20
-10.6874693051
 10
-5.2887414105
 20
-10.6760475485
 10
-5.2912058074
 20
-10.6646588607
  0
LWPOLYLINE
  5
264
100
AcDbEntity
  8
0
100
AcDbPolyline
 62
253
  6
CONTINUOUS
 90
44
 70
0
 10
-4.5577297115
 20
-9.4316760739
 10
-4.5483819688
 20
-9.438743057
 10
-4.5391075886
 20
-9.4460305577
 10
-4.529903899
 20
-9.4535371022
 10
-4.5207682281
 20
-9.4612612164
 10
-4.5116979041
 20
-9.4692014264
 10
-4.502690255
 20
-9.4773562581
 10
-4.4937426091
 20
-9.4857242377
 10
-4.4833784294
 20
-9.4957527744
 10
-4.4731028479
 20
-9.5060578734
 10
-4.4629264288
 20
-9.5166279853
 10
-4.4528597362
 20
-9.5274515607
 10
-4.4429133342
 20
-9.5385170503
 10
-4.4330977869
 20
-9.5498129047
 10
-4.4234232934
 20
-9.561328183
 10
-4.4138985931
 20
-9.5730543779
 10
-4.4045320603
 20
-9.5849835906
 10
-4.3953320695
 20
-9.5971079222
 10
-4.386306995
 20
-9.6094194738
 10
-4.3774652112
 20
-9.6219103466
 10
-4.3688149248
 20
-9.6345719569
 10
-4.3603636717
 20
-9.6473929813
 10
-4.3521188202
 20
-9.6603614119
 10
-4.3440877385
 20
-9.6734652403
 10
-4.3362777948
 20
-9.6866924584
 10
-4.3286963575
 20
-9.7000310582
 10
-4.3213500893
 20
-9.7134692963
 10
-4.3142428314
 20
-9.7269964886
 10
-4.3073777195
 20
-9.740602216
 10
-4.3007578892
 20
-9.7542760594
 10
-4.2943864762
 20
-9.7680075994
 10
-4.2882666163
 20
-9.781786417
 10
-4.2824019729
 20
-9.7956009981
 10
-4.27679832
 20
-9.8094354491
 10
-4.2714619595
 20
-9.8232727816
 10
-4.2663991932
 20
-9.8370960072
 10
-4.2616163229
 20
-9.8508881376
 10
-4.2571196504
 20
-9.8646321842
 10
-4.2529149029
 20
-9.8783146245
 10
-4.2490055089
 20
-9.8919357992
 10
-4.2453943223
 20
-9.9054995148
 10
-4.242084197
 20
-9.9190095779
 10
-4.2390779868
 20
-9.932469795
 10
-4.2363785457
 20
-9.9458839725
  0
LWPOLYLINE
  5
265
100
AcDbEntity
  8
0
100
AcDbPolyline
 62
253
  6
CONTINUOUS
 90
31
 70
0
 10
-3.3688039317
 20
-12.3238711435
 10
-3.3600328678
 20
-12.3309766063
 10
-3.3512913359
 20
-12.3378863949
 10
-3.3425662909
 20
-12.3446102994
 10
-3.3338446882
 20
-12.35115811
 10
-3.3251134829
 20
-12.3575396166
 10
-3.3163596302
 20
-12.3637646093
 10
-3.3075700852
 20
-12.3698428783
 10
-3.2987348391
 20
-12.3757813564
 10
-3.289856027
 20
-12.3815755489
 10
-3.28093882
 20
-12.3872181036
 10
-3.2719883892
 20
-12.3927016685
 10
-3.2630099058
 20
-12.3980188916
 10
-3.2540085408
 20
-12.403162421
 10
-3.2449894654
 20
-12.4081249046
 10
-3.2370873135
 20
-12.4123128564
 10
-3.2291790378
 20
-12.4163520755
 10
-3.2212681151
 20
-12.4202380714
 10
-3.213358022
 20
-12.4239663535
 10
-3.2054522351
 20
-12.4275324313
 10
-3.1975542311
 20
-12.430931814
 10
-3.1896674868
 20
-12.4341600112
 10
-3.1817954787
 20
-12.4372125322
 10
-3.1739402471
 20
-12.4400860955
 10
-3.1660980861
 20
-12.4427822553
 10
-3.1582638534
 20
-12.4453037749
 10
-3.1504324064
 20
-12.4476534173
 10
-3.142598603
 20
-12.449833946
 10
-3.1347573007
 20
-12.451848124
 10
-3.1269033572
 20
-12.4536987147
 10
-3.1190316301
 20
-12.4553884812
  0
LWPOLYLINE
  5
266
100
AcDbEntity
  8
0
100
AcDbPolyline
 62
253
  6
CONTINUOUS
 90
31
 70
0
 10
-1.5256064099
 20
-13.388110292
 10
-1.5168373343
 20
-13.395214066
 10
-1.5080975557
 20
-13.4021222469
 10
-1.4993740524
 20
-13.4088446135
 10
-1.4906538028
 20
-13.4153909447
 10
-1.4819237854
 20
-13.4217710197
 10
-1.4731709787
 20
-13.4279946172
 10
-1.4643823609
 20
-13.4340715164
 10
-1.4555479426
 20
-13.4400086425
 10
-1.4466698616
 20
-13.4458015069
 10
-1.437753288
 20
-13.4514427673
 10
-1.4288033916
 20
-13.4569250812
 10
-1.4198253424
 20
-13.4622411065
 10
-1.4108243104
 20
-13.4673835008
 10
-1.4018054655
 20
-13.4723449218
 10
-1.3939034308
 20
-13.4765320116
 10
-1.3859951951
 20
-13.4805704416
 10
-1.3780842371
 20
-13.4844557314
 10
-1.3701740356
 20
-13.4881834004
 10
-1.3622680694
 20
-13.4917489681
 10
-1.3543698172
 20
-13.495147954
 10
-1.3464827578
 20
-13.4983758774
 10
-1.33861037
 20
-13.5014282579
 10
-1.3307546817
 20
-13.50430186
 10
-1.322911918
 20
-13.5069984293
 10
-1.315076853
 20
-13.5095209564
 10
-1.3072442611
 20
-13.5118724318
 10
-1.2994089164
 20
-13.5140558462
 10
-1.2915655932
 20
-13.5160741902
 10
-1.2837090658
 20
-13.5179304545
 10
-1.2758341083
 20
-13.5196276296
  0
LWPOLYLINE
  5
267
100
AcDbEntity
  8
ASSI
100
AcDbPolyline
 62
7
  6
CONTINUOUS
 90
5
 70
0
 10
-9.9038293769
 20
-13.621371778
 10
-9.8946247871
 20
-13.6755245052
 10
-9.8720825693
 20
-13.7619771233
 10
-9.8412212294
 20
-13.8422889194
 10
-9.8030136947
 20
-13.9155634763
  0
LWPOLYLINE
  5
268
100
AcDbEntity
  8
ASSI
100
AcDbPolyline
 62
253
  6
CONTINUOUS
 90
26
 70
0
 10
-9.903829383
 20
-13.6213717788
 10
-9.9030043604
 20
-13.6267744186
 10
-9.9012705906
 20
-13.6360077001
 10
-9.8991380321
 20
-13.6451737866
 10
-9.8966084107
 20
-13.6542652597
 10
-9.8936837738
 20
-13.6632747615
 10
-9.8903664884
 20
-13.6721950004
 10
-9.8866592391
 20
-13.681018757
 10
-9.8825650264
 20
-13.6897388899
 10
-9.8780871639
 20
-13.6983483417
 10
-9.8732292755
 20
-13.7068401446
 10
-9.8679952929
 20
-13.715207426
 10
-9.8623894522
 20
-13.7234434138
 10
-9.8564162902
 20
-13.7315414427
 10
-9.8500806413
 20
-13.7394949585
 10
-9.843387633
 20
-13.7472975243
 10
-9.8363426821
 20
-13.7549428253
 10
-9.8289514903
 20
-13.7624246739
 10
-9.8212200396
 20
-13.7697370149
 10
-9.8131545871
 20
-13.7768739302
 10
-9.8047616605
 20
-13.7838296437
 10
-9.7960480524
 20
-13.790598526
 10
-9.7870208149
 20
-13.7971750987
 10
-9.777687254
 20
-13.8035540394
 10
-9.7680549237
 20
-13.8097301854
 10
-9.7581316196
 20
-13.8156985381
  0
LINE
  5
269
100
AcDbEntity
  8
ASSI
100
AcDbLine
 62
7
  6
CONTINUOUS
 10
-9.903923514
 20
-13.6206910784
 11
-9.903829383
 21
-13.6213717788
  0
LWPOLYLINE
  5
26A
100
AcDbEntity
  8
ASSI
100
AcDbPolyline
 62
253
  6
CONTINUOUS
 90
17
 70
0
 10
-9.7581316197
 20
-13.8156985381
 10
-9.8017315923
 20
-13.4909865624
 10
-9.8439085419
 20
-13.1651456427
 10
-9.8846614472
 20
-12.8381834291
 10
-9.9239892891
 20
-12.5101076181
 10
-9.9618911475
 20
-12.1809258895
 10
-9.9983662014
 20
-11.8506459054
 10
-10.0334135713
 20
-11.5192754132
 10
-10.0670324049
 20
-11.1868221922
 10
-10.0992219734
 20
-10.8532939901
 10
-10.1299815008
 20
-10.518698633
 10
-10.1593102393
 20
-10.1830439687
 10
-10.187207554
 20
-9.846337814
 10
-10.213672773
 20
-9.5085880658
 10
-10.2387052522
 20
-9.1698026448
 10
-10.2623044503
 20
-8.8299894382
 10
-10.2844697996
 20
-8.4891564092
  0
LWPOLYLINE
  5
26B
100
AcDbEntity
  8
ASSI
100
AcDbPolyline
 62
7
  6
CONTINUOUS
 90
5
 70
0
 10
-10.6414647493
 20
3.5719170819
 10
-10.6377809978
 20
3.5222954225
 10
-10.6273730094
 20
3.4757578483
 10
-10.6102269002
 20
3.4304218515
 10
-10.586446011
 20
3.3870595796
  0
LWPOLYLINE
  5
26C
100
AcDbEntity
  8
ASSI
100
AcDbPolyline
 62
7
  6
CONTINUOUS
 90
9
 70
0
 10
-10.4897737231
 20
3.2123977524
 10
-10.5256153717
 20
3.1821205458
 10
-10.5569645191
 20
3.1489713194
 10
-10.5836625832
 20
3.1132181456
 10
-10.6054660273
 20
3.0753031527
 10
-10.6220849415
 20
3.0360407313
 10
-10.6334887589
 20
2.9961961455
 10
-10.6398523164
 20
2.9562861725
 10
-10.6414644504
 20
2.9229962059
  0
LINE
  5
26D
100
AcDbEntity
  8
ASSI
100
AcDbLine
 62
7
  6
CONTINUOUS
 10
-10.4576000845
 20
3.2346118991
 11
-10.4897737231
 21
3.2123977524
  0
LWPOLYLINE
  5
26E
100
AcDbEntity
  8
ASSI
100
AcDbPolyline
 62
253
  6
CONTINUOUS
 90
55
 70
0
 10
5.7896585299
 20
12.1662228222
 10
5.7792349558
 20
12.1625025308
 10
5.768543838
 20
12.1589561294
 10
5.7575938291
 20
12.1555864882
 10
5.7463937913
 20
12.1523963342
 10
5.734952789
 20
12.1493882494
 10
5.7232800817
 20
12.1465646683
 10
5.7113851165
 20
12.1439278761
 10
5.6992775204
 20
12.1414800069
 10
5.6869670921
 20
12.1392230416
 10
5.6744637951
 20
12.1371588071
 10
5.6617777484
 20
12.1352889738
 10
5.6489192194
 20
12.1336150552
 10
5.6358986146
 20
12.132138406
 10
5.6227264721
 20
12.1308602211
 10
5.6094134524
 20
12.1297815353
 10
5.59597033
 20
12.1289032213
 10
5.582407985
 20
12.1282259901
 10
5.5687373936
 20
12.1277503898
 10
5.5549696198
 20
12.1274768053
 10
5.5411158063
 20
12.1274054581
 10
5.5271871652
 20
12.1275364057
 10
5.5131949695
 20
12.1278695424
 10
5.4991505434
 20
12.1284045984
 10
5.4850652534
 20
12.1291411407
 10
5.4709504992
 20
12.1300785733
 10
5.4568177041
 20
12.1312161374
 10
5.4426783063
 20
12.1325529124
 10
5.428543749
 20
12.1340878163
 10
5.4144254719
 20
12.135819607
 10
5.4003349011
 20
12.1377468829
 10
5.3862834407
 20
12.1398680841
 10
5.3722824627
 20
12.1421814939
 10
5.3583432986
 20
12.1446852401
 10
5.3444772297
 20
12.1473772962
 10
5.3306954781
 20
12.1502554836
 10
5.3170091979
 20
12.1533174727
 10
5.3034294657
 20
12.1565607855
 10
5.289967272
 20
12.1599827971
 10
5.276633512
 20
12.163580738
 10
5.2634389771
 20
12.1673516962
 10
5.250394346
 20
12.1712926197
 10
5.2375101761
 20
12.1754003192
 10
5.2247968949
 20
12.1796714701
 10
5.2122647916
 20
12.1841026157
 10
5.1999240088
 20
12.1886901697
 10
5.1877845341
 20
12.1934304193
 10
5.1758561924
 20
12.198319528
 10
5.1641486377
 20
12.2033535391
 10
5.1526713451
 20
12.2085283783
 10
5.1414336035
 20
12.2138398575
 10
5.1304445079
 20
12.219283678
 10
5.1197129522
 20
12.224855434
 10
5.1092476216
 20
12.230550616
 10
5.099056986
 20
12.2363646149
  0
LWPOLYLINE
  5
26F
100
AcDbEntity
  8
0
100
AcDbPolyline
 62
253
  6
CONTINUOUS
 90
43
 70
0
 10
-5.1057319585
 20
-8.8290576869
 10
-5.1239751988
 20
-8.8219011609
 10
-5.1420186802
 20
-8.815464852
 10
-5.159870594
 20
-8.80973743
 10
-5.1775391314
 20
-8.804707565
 10
-5.1950324839
 20
-8.8003639268
 10
-5.2123588425
 20
-8.7966951854
 10
-5.2295216681
 20
-8.7936921671
 10
-5.2465054987
 20
-8.7913543241
 10
-5.2632901421
 20
-8.7896832651
 10
-5.2798554057
 20
-8.7886805986
 10
-5.2961810971
 20
-8.7883479333
 10
-5.3122470239
 20
-8.7886868778
 10
-5.328034077
 20
-8.7896992609
 10
-5.3435274804
 20
-8.7913877913
 10
-5.3587135415
 20
-8.793755398
 10
-5.3735785677
 20
-8.7968050099
 10
-5.3881088662
 20
-8.8005395559
 10
-5.4022907445
 20
-8.804961965
 10
-5.4161107418
 20
-8.8100736008
 10
-5.4295563249
 20
-8.8158695661
 10
-5.4426151923
 20
-8.8223433983
 10
-5.4552750428
 20
-8.829488635
 10
-5.4675235749
 20
-8.8372988137
 10
-5.4793484873
 20
-8.8457674718
 10
-5.4907387674
 20
-8.8548871534
 10
-5.5016885574
 20
-8.8646464286
 10
-5.5121932882
 20
-8.8750328743
 10
-5.5222483909
 20
-8.8860340672
 10
-5.5318492962
 20
-8.8976375839
 10
-5.5409914353
 20
-8.9098310013
 10
-5.5496694605
 20
-8.9226009214
 10
-5.5578749107
 20
-8.9359300472
 10
-5.5655985461
 20
-8.9498001073
 10
-5.572831127
 20
-8.9641928301
 10
-5.5795634137
 20
-8.979089944
 10
-5.5857861665
 20
-8.9944731773
 10
-5.5914908197
 20
-9.0103293609
 10
-5.5966715042
 20
-9.0266657347
 10
-5.6013230247
 20
-9.0434946411
 10
-5.605440186
 20
-9.0608284222
 10
-5.609017793
 20
-9.0786794205
 10
-5.6120506505
 20
-9.0970599781
  0
LINE
  5
270
100
AcDbEntity
  8
ASSI
100
AcDbLine
 62
253
  6
CONTINUOUS
 10
4.3750619647
 20
-13.2252785306
 11
-10.433530227
 21
-4.6749829944
  0
LWPOLYLINE
  5
271
100
AcDbEntity
  8
ASSI
100
AcDbPolyline
 62
253
  6
CONTINUOUS
 90
26
 70
0
 10
-10.6400838097
 20
3.5504022885
 10
-10.638826009
 20
3.5422591604
 10
-10.6371658816
 20
3.5341387806
 10
-10.6351047706
 20
3.5260477406
 10
-10.6326443422
 20
3.5179925358
 10
-10.6297865856
 20
3.5099796986
 10
-10.6265338128
 20
3.5020157359
 10
-10.6228886551
 20
3.4941070516
 10
-10.6188540589
 20
3.4862600551
 10
-10.6144332896
 20
3.4784811183
 10
-10.6096299302
 20
3.4707765118
 10
-10.6044478722
 20
3.4631524864
 10
-10.5988913052
 20
3.4556152206
 10
-10.5929647205
 20
3.4481707773
 10
-10.5866729163
 20
3.4408251919
 10
-10.5800209795
 20
3.4335844171
 10
-10.573014274
 20
3.426454271
 10
-10.5656584397
 20
3.4194405049
 10
-10.5579594484
 20
3.4125488296
 10
-10.5499235905
 20
3.4057848576
 10
-10.541557411
 20
3.3991540915
 10
-10.5328676474
 20
3.3926618703
 10
-10.5238612819
 20
3.3863133979
 10
-10.5145455817
 20
3.380113797
 10
-10.5049280995
 20
3.3740681014
 10
-10.4950166148
 20
3.3681812031
  0
LWPOLYLINE
  5
272
100
AcDbEntity
  8
0
100
AcDbPolyline
 62
253
  6
CONTINUOUS
 90
25
 70
0
 10
-4.9633452338
 20
11.0299653217
 10
-4.9767844971
 20
10.9710739241
 10
-4.9892765519
 20
10.9116311088
 10
-5.0008282358
 20
10.8516321937
 10
-5.0114463866
 20
10.7910724968
 10
-5.0211378421
 20
10.729947336
 10
-5.0299094401
 20
10.6682520293
 10
-5.0377680182
 20
10.6059818947
 10
-5.0447204143
 20
10.5431322501
 10
-5.0507721022
 20
10.4797042907
 10
-5.0559230997
 20
10.4157227206
 10
-5.0601720609
 20
10.3512181212
 10
-5.0635176398
 20
10.2862210739
 10
-5.0659584902
 20
10.2207621601
 10
-5.0674932663
 20
10.154871961
 10
-5.0681206219
 20
10.088581058
 10
-5.067839211
 20
10.0219200326
 10
-5.0666469103
 20
9.9549122735
 10
-5.064538487
 20
9.8875523996
 10
-5.0615079309
 20
9.8198278371
 10
-5.0575492321
 20
9.7517260123
 10
-5.0526563802
 20
9.6832343515
 10
-5.0468233653
 20
9.6143402809
 10
-5.0400441772
 20
9.5450312269
 10
-5.0323128058
 20
9.4752946157
  0
LWPOLYLINE
  5
273
100
AcDbEntity
  8
0
100
AcDbPolyline
 62
253
  6
CONTINUOUS
 90
44
 70
0
 10
-4.7107773791
 20
10.8239057204
 10
-4.7083215643
 20
10.8338079926
 10
-4.7056318917
 20
10.8434614196
 10
-4.7027114921
 20
10.8528713516
 10
-4.6995634965
 20
10.8620431391
 10
-4.696191036
 20
10.8709821323
 10
-4.6925972413
 20
10.8796936815
 10
-4.6887852436
 20
10.8881831371
 10
-4.6840665638
 20
10.8978111385
 10
-4.6790616699
 20
10.907135827
 10
-4.6737770847
 20
10.9161489016
 10
-4.6682193312
 20
10.9248420611
 10
-4.6623949323
 20
10.9332070046
 10
-4.6563104109
 20
10.9412354308
 10
-4.6499718699
 20
10.9489192463
 10
-4.6433837319
 20
10.9562511878
 10
-4.6365499995
 20
10.9632241994
 10
-4.6294746751
 20
10.9698312253
 10
-4.6221617614
 20
10.9760652098
 10
-4.6146152607
 20
10.9819190971
 10
-4.606839607
 20
10.987385906
 10
-4.5988409586
 20
10.9924589539
 10
-4.5906259051
 20
10.9971316327
 10
-4.5822010361
 20
11.0013973344
 10
-4.5735729413
 20
11.0052494509
 10
-4.5647482102
 20
11.0086813743
 10
-4.5557337513
 20
11.0116878839
 10
-4.5465377479
 20
11.0142693083
 10
-4.5371687021
 20
11.0164273636
 10
-4.5276351161
 20
11.0181637658
 10
-4.5179454921
 20
11.0194802309
 10
-4.5081083321
 20
11.020378475
 10
-4.4981328808
 20
11.020860195
 10
-4.4880313522
 20
11.0209270113
 10
-4.4778167031
 20
11.0205805251
 10
-4.4675018901
 20
11.0198223379
 10
-4.4570998697
 20
11.0186540509
 10
-4.4466235987
 20
11.0170772653
 10
-4.4360831079
 20
11.015092384
 10
-4.4254767252
 20
11.0126950157
 10
-4.4147998531
 20
11.0098795706
 10
-4.4040478937
 20
11.006640459
 10
-4.3932162493
 20
11.002972091
 10
-4.3823003222
 20
10.9988688769
  0
LWPOLYLINE
  5
274
100
AcDbEntity
  8
ASSI
100
AcDbPolyline
 62
253
  6
CONTINUOUS
 90
58
 70
0
 10
5.7728168294
 20
13.3056634983
 10
5.7555741733
 20
13.2947885655
 10
5.7383635981
 20
13.2834616105
 10
5.7211948592
 20
13.2716892705
 10
5.7040775513
 20
13.2594785562
 10
5.6870215131
 20
13.2468364978
 10
5.6700368224
 20
13.2337701335
 10
5.6531330505
 20
13.2202870524
 10
5.6363198362
 20
13.2063951664
 10
5.6196072899
 20
13.1921023562
 10
5.6030049244
 20
13.1774169923
 10
5.5865221081
 20
13.1623476174
 10
5.5701686396
 20
13.1469027122
 10
5.5539537759
 20
13.1310912631
 10
5.5378867193
 20
13.1149224995
 10
5.5219770692
 20
13.0984055809
 10
5.5062338483
 20
13.0815501246
 10
5.4906659724
 20
13.0643659463
 10
5.4752827379
 20
13.0468627963
 10
5.4600928677
 20
13.0290508567
 10
5.4451049636
 20
13.0109404933
 10
5.4303279754
 20
12.9925419978
 10
5.4157702911
 20
12.9738660769
 10
5.401440143
 20
12.9549235798
 10
5.3873460604
 20
12.9357252504
 10
5.3734960263
 20
12.9162822248
 10
5.3598978909
 20
12.8966058147
 10
5.3465597768
 20
12.8767072369
 10
5.3334892552
 20
12.8565980524
 10
5.3206937144
 20
12.8362899278
 10
5.3081807743
 20
12.8157944182
 10
5.2959575257
 20
12.7951234004
 10
5.2840308901
 20
12.7742888813
 10
5.2724079873
 20
12.7533027601
 10
5.2610954178
 20
12.7321772176
 10
5.2500995695
 20
12.7109244909
 10
5.2394269807
 20
12.6895566814
 10
5.2290836999
 20
12.668086154
 10
5.2190755817
 20
12.6465253668
 10
5.2094085944
 20
12.6248866468
 10
5.2000882234
 20
12.603182523
 10
5.1911197351
 20
12.5814255674
 10
5.1825084738
 20
12.5596282249
 10
5.1742593257
 20
12.5378031071
 10
5.1663769503
 20
12.515962851
 10
5.1588660438
 20
12.4941199591
 10
5.1517308757
 20
12.4722870807
 10
5.1449754662
 20
12.4504768318
 10
5.1386038217
 20
12.4287016531
 10
5.1326195496
 20
12.4069740838
 10
5.1270260423
 20
12.3853067369
 10
5.1218266536
 20
12.3637121189
 10
5.117024352
 20
12.3422027723
 10
5.1126218218
 20
12.3207910597
 10
5.1086216556
 20
12.2994891407
 10
5.1050261571
 20
12.2783092507
 10
5.1018373311
 20
12.2572636913
 10
5.0990569859
 20
12.2363646148
  0
LINE
  5
275
100
AcDbEntity
  8
ASSI
100
AcDbLine
 62
7
  6
CONTINUOUS
 10
-10.457600092
 20
3.234611911
 11
-10.4388993596
 21
3.2463862291
  0
LWPOLYLINE
  5
276
100
AcDbEntity
  8
ASSI
100
AcDbPolyline
 62
253
  6
CONTINUOUS
 90
8
 70
0
 10
-10.4575049565
 20
3.2346718948
 10
-10.4568787272
 20
3.2350625046
 10
-10.4524042742
 20
3.2376483881
 10
-10.4477738114
 20
3.2399729936
 10
-10.4429929781
 20
3.2420334899
 10
-10.4380675968
 20
3.2438273677
 10
-10.4330036658
 20
3.2453524423
 10
-10.4301722696
 20
3.2460359544
  0
LWPOLYLINE
  5
277
100
AcDbEntity
  8
ASSI
100
AcDbPolyline
 62
253
  6
CONTINUOUS
 90
58
 70
0
 10
6.1323195642
 20
12.697534322
 10
6.1235440029
 20
12.692177911
 10
6.1147941295
 20
12.6866017605
 10
6.106069944
 20
12.6808058706
 10
6.0973662866
 20
12.6747865506
 10
6.0886883171
 20
12.6685474911
 10
6.0800515149
 20
12.6620997644
 10
6.0714560982
 20
12.6554430951
 10
6.0629018487
 20
12.6485777586
 10
6.0544035913
 20
12.6415156535
 10
6.045961441
 20
12.6342564525
 10
6.0375752827
 20
12.6268004827
 10
6.0292595957
 20
12.6191606248
 10
6.0210144942
 20
12.6113365541
 10
6.0128398641
 20
12.6033285951
 10
6.0047498419
 20
12.5951506014
 10
5.9967445749
 20
12.5868022789
 10
5.9888239158
 20
12.5782839216
 10
5.9810015594
 20
12.5696102654
 10
5.973277676
 20
12.5607810417
 10
5.9656520953
 20
12.5517965191
 10
5.9581380003
 20
12.5426722402
 10
5.9507355886
 20
12.5334079694
 10
5.9434446626
 20
12.5240039422
 10
5.9362778123
 20
12.514476408
 10
5.9292352474
 20
12.5048251465
 10
5.9223167582
 20
12.4950503779
 10
5.9155343056
 20
12.4851690122
 10
5.908888129
 20
12.4751808709
 10
5.9023779889
 20
12.4650861323
 10
5.8960151277
 20
12.4549022415
 10
5.889799797
 20
12.4446290392
 10
5.8837317451
 20
12.4342666846
 10
5.8778214591
 20
12.4238331004
 10
5.8720692164
 20
12.4133281718
 10
5.8664747395
 20
12.4027520136
 10
5.8610476836
 20
12.3921228931
 10
5.8557883352
 20
12.3814407133
 10
5.8506964078
 20
12.3707055712
 10
5.845780697
 20
12.3599360249
 10
5.8410415082
 20
12.3491320163
 10
5.8364785361
 20
12.3382936034
 10
5.8320996597
 20
12.3274395184
 10
5.8279051976
 20
12.3165697348
 10
5.8238948311
 20
12.3056842791
 10
5.8200754835
 20
12.2948019629
 10
5.8164474871
 20
12.2839228014
 10
5.8130105096
 20
12.2730467794
 10
5.8097704765
 20
12.2621926627
 10
5.8067277231
 20
12.2513604671
 10
5.8038819142
 20
12.2405501767
 10
5.8012379704
 20
12.2297805107
 10
5.7987962277
 20
12.2190514212
 10
5.7965563501
 20
12.2083629559
 10
5.7945222503
 20
12.1977339772
 10
5.7926952325
 20
12.1871707723
 10
5.7910739923
 20
12.176667054
 10
5.7896585299
 20
12.1662228222
  0
LINE
  5
278
100
AcDbEntity
  8
ASSI
100
AcDbLine
 62
253
  6
CONTINUOUS
 10
7.8854229651
 20
14.566665417
 11
5.7728168294
 21
13.3056634983
  0
LINE
  5
279
100
AcDbEntity
  8
ASSI
100
AcDbLine
 62
253
  6
CONTINUOUS
 10
8.2703971235
 20
13.9737399805
 11
6.1323195642
 21
12.697534322
  0
LWPOLYLINE
  5
27A
100
AcDbEntity
  8
0
100
AcDbPolyline
 62
253
  6
CONTINUOUS
 90
43
 70
0
 10
-5.5435195262
 20
-10.5723694412
 10
-5.5385782099
 20
-10.5949112957
 10
-5.5331125601
 20
-10.6175316949
 10
-5.5271273877
 20
-10.6402369912
 10
-5.5206275039
 20
-10.663033537
 10
-5.5136177196
 20
-10.685927685
 10
-5.5061028457
 20
-10.7089257874
 10
-5.4980887156
 20
-10.7320285238
 10
-5.4895852514
 20
-10.7552138818
 10
-5.4806033977
 20
-10.7784541762
 10
-5.4711540987
 20
-10.8017217214
 10
-5.4612482991
 20
-10.8249888322
 10
-5.4508969432
 20
-10.8482278232
 10
-5.44011012
 20
-10.8714126789
 10
-5.428894497
 20
-10.894524063
 10
-5.4172558858
 20
-10.917544309
 10
-5.4052000985
 20
-10.9404557504
 10
-5.3927329468
 20
-10.9632407206
 10
-5.3798602427
 20
-10.9858815534
 10
-5.3665890802
 20
-11.0083601024
 10
-5.3529316822
 20
-11.0306563033
 10
-5.3389015541
 20
-11.0527496121
 10
-5.3245122008
 20
-11.0746194846
 10
-5.3097771276
 20
-11.0962453769
 10
-5.2947098397
 20
-11.1176067449
 10
-5.2793239219
 20
-11.1386843827
 10
-5.2636332777
 20
-11.1594644367
 10
-5.2476518902
 20
-11.1799343915
 10
-5.2313937428
 20
-11.2000817318
 10
-5.2148728185
 20
-11.2198939422
 10
-5.1981031005
 20
-11.2393585072
 10
-5.1810999969
 20
-11.2584612161
 10
-5.163884615
 20
-11.2771810766
 10
-5.1464794871
 20
-11.2954954011
 10
-5.1289071454
 20
-11.3133815018
 10
-5.1111901221
 20
-11.3308166912
 10
-5.0933509495
 20
-11.3477782816
 10
-5.0754070685
 20
-11.3642472494
 10
-5.0573555551
 20
-11.3802192278
 10
-5.039188394
 20
-11.3956935138
 10
-5.0208975701
 20
-11.4106694047
 10
-5.0024750679
 20
-11.4251461976
 10
-4.9839128724
 20
-11.4391231897
  0
LWPOLYLINE
  5
27B
100
AcDbEntity
  8
0
100
AcDbPolyline
 62
253
  6
CONTINUOUS
 90
25
 70
0
 10
-5.2912058074
 20
-10.6646588607
 10
-5.3035504433
 20
-10.603278432
 10
-5.3150291792
 20
-10.5422879542
 10
-5.3256478316
 20
-10.4816762429
 10
-5.3354122168
 20
-10.4214321138
 10
-5.3443281513
 20
-10.3615443826
 10
-5.3524014515
 20
-10.3020018649
 10
-5.3596379339
 20
-10.2427933764
 10
-5.3660434149
 20
-10.1839077328
 10
-5.3716224602
 20
-10.1253401615
 10
-5.3763746328
 20
-10.0671115367
 10
-5.3802982451
 20
-10.0092491446
 10
-5.3833916094
 20
-9.9517802711
 10
-5.385653038
 20
-9.8947322022
 10
-5.3870808432
 20
-9.8381322241
 10
-5.3876733374
 20
-9.7820076227
 10
-5.3874288328
 20
-9.7263856841
 10
-5.3863449218
 20
-9.6712885353
 10
-5.3844163162
 20
-9.6167176676
 10
-5.3816370077
 20
-9.5626694133
 10
-5.3780009883
 20
-9.5091401048
 10
-5.3735022497
 20
-9.4561260742
 10
-5.3681347836
 20
-9.4036236539
 10
-5.3618925819
 20
-9.3516291762
 10
-5.3547696365
 20
-9.3001389734
  0
LINE
  5
27C
100
AcDbEntity
  8
ASSI
100
AcDbLine
 62
253
  6
CONTINUOUS
 10
-5.3259121294
 20
21.6764297525
 11
-5.3259121294
 21
21.613523414
  0
LWPOLYLINE
  5
27D
100
AcDbEntity
  8
0
100
AcDbPolyline
 62
253
  6
CONTINUOUS
 90
43
 70
0
 10
-3.6566222347
 20
8.7406292935
 10
-3.6593514479
 20
8.7292701543
 10
-3.662385493
 20
8.7182370969
 10
-3.6657204927
 20
8.7075223904
 10
-3.6693525697
 20
8.6971183041
 10
-3.6732778465
 20
8.6870171072
 10
-3.6774924458
 20
8.6772110691
 10
-3.6819922393
 20
8.6676952452
 10
-3.6867720955
 20
8.6584758365
 10
-3.6918266318
 20
8.6495618301
 10
-3.6971504656
 20
8.6409622133
 10
-3.7027382145
 20
8.6326859734
 10
-3.7085844959
 20
8.6247420974
 10
-3.7146843504
 20
8.617139389
 10
-3.7210345111
 20
8.6098859176
 10
-3.7276321345
 20
8.6029895689
 10
-3.7344743766
 20
8.5964582287
 10
-3.741558394
 20
8.5902997827
 10
-3.7488813428
 20
8.5845221167
 10
-3.7564398318
 20
8.5791329791
 10
-3.7642282803
 20
8.5741395681
 10
-3.7722405598
 20
8.5695489447
 10
-3.7804705419
 20
8.5653681698
 10
-3.7889120983
 20
8.5616043043
 10
-3.7975591007
 20
8.5582644091
 10
-3.8064049406
 20
8.555353913
 10
-3.8154410894
 20
8.5528717158
 10
-3.8246585385
 20
8.5508150851
 10
-3.8340482792
 20
8.5491812884
 10
-3.8436013029
 20
8.5479675934
 10
-3.8533086008
 20
8.5471712678
 10
-3.8631605152
 20
8.5467896264
 10
-3.8731447911
 20
8.5468201734
 10
-3.8832485243
 20
8.5472604605
 10
-3.8934588106
 20
8.548108039
 10
-3.903762746
 20
8.5493604606
 10
-3.9141474263
 20
8.5510152768
 10
-3.9246028878
 20
8.5530712864
 10
-3.9351309298
 20
8.5555322777
 10
-3.9457362918
 20
8.5584032864
 10
-3.9564237135
 20
8.5616893482
 10
-3.9671979347
 20
8.5653954985
 10
-3.978063695
 20
8.5695267731
  0
LWPOLYLINE
  5
27E
100
AcDbEntity
  8
ASSI
100
AcDbPolyline
 62
253
  6
CONTINUOUS
 90
13
 70
0
 10
4.8616124534
 20
-5.2415059148
 10
4.8745774874
 20
-5.2381840586
 10
4.88737111
 20
-5.2346512433
 10
4.8999830032
 20
-5.2309102475
 10
4.9124030072
 20
-5.2269641188
 10
4.9246210284
 20
-5.2228160949
 10
4.9366270846
 20
-5.2184694931
 10
4.9484114131
 20
-5.2139278904
 10
4.9599645416
 20
-5.2091949812
 10
4.971277194
 20
-5.2042744963
 10
4.9823402406
 20
-5.1991704066
 10
4.9931447102
 20
-5.1938869235
 10
5.003681863
 20
-5.1884283581
  0
LWPOLYLINE
  5
27F
100
AcDbEntity
  8
ASSI
100
AcDbPolyline
 62
7
  6
CONTINUOUS
 90
5
 70
0
 10
-10.586446011
 20
3.3870595796
 10
-10.5563798912
 20
3.3465548496
 10
-10.520382787
 20
3.3094827616
 10
-10.4786843647
 20
3.2761904564
 10
-10.4435382638
 20
3.25375411
  0
LWPOLYLINE
  5
280
100
AcDbEntity
  8
0
100
AcDbPolyline
 62
253
  6
CONTINUOUS
 90
43
 70
0
 10
-3.9830571769
 20
-10.0376203937
 10
-3.9876159821
 20
-10.0148534098
 10
-3.9926931779
 20
-9.9920043712
 10
-3.9982840557
 20
-9.9690669972
 10
-4.0043839073
 20
-9.9460350067
 10
-4.0109880242
 20
-9.9229021189
 10
-4.0180916981
 20
-9.899662053
 10
-4.0256893226
 20
-9.8763142733
 10
-4.0337716994
 20
-9.8528812242
 10
-4.042328732
 20
-9.8293910957
 10
-4.0513503242
 20
-9.8058720773
 10
-4.0608263797
 20
-9.782352359
 10
-4.070746802
 20
-9.7588601303
 10
-4.0811023492
 20
-9.7354219119
 10
-4.0918871967
 20
-9.7120575477
 10
-4.1030963743
 20
-9.6887852123
 10
-4.114724912
 20
-9.6656230804
 10
-4.1267678393
 20
-9.6425893268
 10
-4.1392201863
 20
-9.6197021261
 10
-4.1520757042
 20
-9.5969801356
 10
-4.165323031
 20
-9.5744439434
 10
-4.1789495259
 20
-9.5521146199
 10
-4.1929425486
 20
-9.5300132357
 10
-4.2072894583
 20
-9.5081608615
 10
-4.2219776146
 20
-9.4865785677
 10
-4.2369942509
 20
-9.4652860613
 10
-4.2523260966
 20
-9.4442975951
 10
-4.2679597554
 20
-9.4236260579
 10
-4.2838818308
 20
-9.4032843387
 10
-4.3000789263
 20
-9.3832853267
 10
-4.3165376454
 20
-9.3636419108
 10
-4.3332431821
 20
-9.3443686859
 10
-4.3501750919
 20
-9.3254870703
 10
-4.3673115206
 20
-9.3070201881
 10
-4.3846306141
 20
-9.2889911633
 10
-4.4021105184
 20
-9.2714231203
 10
-4.4197293791
 20
-9.2543391831
 10
-4.4374703881
 20
-9.2377587965
 10
-4.4553369194
 20
-9.2216866881
 10
-4.4733373932
 20
-9.2061239063
 10
-4.4914802295
 20
-9.1910714993
 10
-4.5097738481
 20
-9.1765305155
 10
-4.5282266692
 20
-9.1625020031
  0
LWPOLYLINE
  5
281
100
AcDbEntity
  8
0
100
AcDbPolyline
 62
253
  6
CONTINUOUS
 90
25
 70
0
 10
-4.2363785457
 20
-9.9458839725
 10
-4.2250143194
 20
-10.0076507038
 10
-4.214431015
 20
-10.0689958365
 10
-4.2046227888
 20
-10.1299300863
 10
-4.1955837969
 20
-10.1904641687
 10
-4.1873081956
 20
-10.2506087992
 10
-4.1797901412
 20
-10.3103746934
 10
-4.1730237898
 20
-10.369772567
 10
-4.1670032977
 20
-10.4288131353
 10
-4.1617241141
 20
-10.4875007727
 10
-4.1571868596
 20
-10.5458144878
 10
-4.1533934478
 20
-10.6037269483
 10
-4.1503457926
 20
-10.6612108215
 10
-4.1480458074
 20
-10.7182387748
 10
-4.1464954059
 20
-10.7747834756
 10
-4.1456965018
 20
-10.8308175916
 10
-4.1456510088
 20
-10.88631379
 10
-4.1463616211
 20
-10.9412498863
 10
-4.147834156
 20
-10.9956242882
 10
-4.1500752113
 20
-11.0494405513
 10
-4.1530913852
 20
-11.1027022313
 10
-4.1568892753
 20
-11.1554128837
 10
-4.1614754797
 20
-11.2075760644
 10
-4.1668565963
 20
-11.2591953288
 10
-4.173039223
 20
-11.3102742326
  0
LINE
  5
282
100
AcDbEntity
  8
ASSI
100
AcDbLine
 62
7
  6
CONTINUOUS
 10
-5.14566088
 20
22.0906499113
 11
-5.1244555907
 21
21.4741774139
  0
LWPOLYLINE
  5
283
100
AcDbEntity
  8
0
100
AcDbPolyline
 62
253
  6
CONTINUOUS
 90
25
 70
0
 10
-5.6120506505
 20
-9.0970599781
 10
-5.6197755632
 20
-9.1523943477
 10
-5.6265558176
 20
-9.208297292
 10
-5.6323966797
 20
-9.2647736038
 10
-5.6373034155
 20
-9.3218280756
 10
-5.6412812911
 20
-9.3794655002
 10
-5.6443355727
 20
-9.4376906701
 10
-5.6464715262
 20
-9.4965083779
 10
-5.6476944178
 20
-9.5559234163
 10
-5.6480087412
 20
-9.6159350015
 10
-5.6474159007
 20
-9.6765200444
 10
-5.6459165284
 20
-9.7376498794
 10
-5.6435112565
 20
-9.7992958409
 10
-5.6402007168
 20
-9.8614292634
 10
-5.6359855416
 20
-9.9240214813
 10
-5.6308663628
 20
-9.987043829
 10
-5.6248438125
 20
-10.0504676411
 10
-5.6179171589
 20
-10.1142710848
 10
-5.6100802139
 20
-10.1784596593
 10
-5.6013254259
 20
-10.2430456964
 10
-5.5916452431
 20
-10.3080415282
 10
-5.5810321135
 20
-10.3734594866
 10
-5.5694784853
 20
-10.4393119036
 10
-5.5569768069
 20
-10.5056111111
 10
-5.5435195262
 20
-10.5723694412
  0
LWPOLYLINE
  5
284
100
AcDbEntity
  8
0
100
AcDbPolyline
 62
253
  6
CONTINUOUS
 90
44
 70
0
 10
-5.3547696365
 20
-9.3001389734
 10
-5.3532375909
 20
-9.2908416604
 10
-5.3514675712
 20
-9.2817824685
 10
-5.3494626239
 20
-9.2729565169
 10
-5.3472257955
 20
-9.2643589245
 10
-5.3447601325
 20
-9.2559848105
 10
-5.3420686813
 20
-9.2478292939
 10
-5.3391544885
 20
-9.2398874936
 10
-5.3354771869
 20
-9.2308882853
 10
-5.3315059708
 20
-9.222181314
 10
-5.3272459555
 20
-9.2137745685
 10
-5.322702256
 20
-9.2056760375
 10
-5.3178799874
 20
-9.1978937097
 10
-5.3127842648
 20
-9.190435574
 10
-5.3074198234
 20
-9.1833094234
 10
-5.301789878
 20
-9.1765222684
 10
-5.2958972637
 20
-9.1700809236
 10
-5.2897448156
 20
-9.1639922037
 10
-5.2833353685
 20
-9.1582629235
 10
-5.2766717574
 20
-9.1528998977
 10
-5.2697572872
 20
-9.1479098544
 10
-5.2625971411
 20
-9.1432991751
 10
-5.2551969724
 20
-9.1390741547
 10
-5.2475624343
 20
-9.1352410881
 10
-5.2396991798
 20
-9.1318062702
 10
-5.2316128621
 20
-9.1287759959
 10
-5.2233095467
 20
-9.1261552387
 10
-5.2147969484
 20
-9.1239436867
 10
-5.2060831945
 20
-9.1221397068
 10
-5.1971764122
 20
-9.1207416655
 10
-5.1880847286
 20
-9.1197479296
 10
-5.178816271
 20
-9.119156866
 10
-5.169379902
 20
-9.1189668548
 10
-5.1597874263
 20
-9.1191763306
 10
-5.1500513841
 20
-9.1197837415
 10
-5.1401843156
 20
-9.1207875356
 10
-5.130198761
 20
-9.1221861609
 10
-5.1201072604
 20
-9.1239780656
 10
-5.1099194396
 20
-9.1261629373
 10
-5.0996332664
 20
-9.1287454213
 10
-5.0892437941
 20
-9.1317314027
 10
-5.0787460761
 20
-9.1351267663
 10
-5.0681351657
 20
-9.1389373972
 10
-5.0574061164
 20
-9.1431691801
  0
LWPOLYLINE
  5
285
100
AcDbEntity
  8
0
100
AcDbPolyline
 62
253
  6
CONTINUOUS
 90
25
 70
0
 10
-3.4019713953
 20
8.5411008939
 10
-3.389795436
 20
8.5991184717
 10
-3.3784607592
 20
8.6577368499
 10
-3.3679605844
 20
8.7169611548
 10
-3.3582881313
 20
8.7767965125
 10
-3.3494366195
 20
8.8372480491
 10
-3.3413992687
 20
8.8983208907
 10
-3.3341692983
 20
8.9600201635
 10
-3.3277399281
 20
9.0223509935
 10
-3.3221057709
 20
9.0853126706
 10
-3.3172670124
 20
9.1488811403
 10
-3.3132252315
 20
9.2130265114
 10
-3.309982007
 20
9.2777188931
 10
-3.3075389179
 20
9.3429283944
 10
-3.3058975431
 20
9.4086251245
 10
-3.3050594614
 20
9.4747791923
 10
-3.3050262519
 20
9.5413607069
 10
-3.3058003271
 20
9.6083467917
 10
-3.3073874354
 20
9.6757426265
 10
-3.3097941585
 20
9.7435604054
 10
-3.3130270787
 20
9.8118123227
 10
-3.3170927778
 20
9.8805105724
 10
-3.3219978378
 20
9.9496673487
 10
-3.3277488407
 20
10.0192948456
 10
-3.3343523685
 20
10.0894052574
  0
LINE
  5
286
100
AcDbEntity
  8
ASSI
100
AcDbLine
 62
7
  6
CONTINUOUS
 10
2.7739350693
 20
17.517974466
 11
2.5936838199
 21
17.1037543072
  0
LWPOLYLINE
  5
287
100
AcDbEntity
  8
0
100
AcDbPolyline
 62
253
  6
CONTINUOUS
 90
43
 70
0
 10
-5.0323128058
 20
9.4752946157
 10
-5.0292804812
 20
9.4516518954
 10
-5.0257029945
 20
9.4279429152
 10
-5.0215860212
 20
9.4041608456
 10
-5.0169352362
 20
9.3802988569
 10
-5.011756315
 20
9.3563501195
 10
-5.0060549328
 20
9.3323078038
 10
-4.9998372931
 20
9.3081710312
 10
-4.9931117127
 20
9.2839627267
 10
-4.9858870367
 20
9.2597117665
 10
-4.9781721102
 20
9.2354470267
 10
-4.9699757783
 20
9.2111973835
 10
-4.9613068861
 20
9.1869917129
 10
-4.9521735392
 20
9.1628571581
 10
-4.9425808856
 20
9.1388139299
 10
-4.9325333336
 20
9.1148805061
 10
-4.9220352917
 20
9.0910753646
 10
-4.9110911685
 20
9.0674169831
 10
-4.8997053722
 20
9.0439238394
 10
-4.8878836131
 20
9.0206148741
 10
-4.8756368077
 20
8.9975108778
 10
-4.8629771742
 20
8.9746331041
 10
-4.849916931
 20
8.9520028063
 10
-4.8364682962
 20
8.9296412379
 10
-4.8226434881
 20
8.9075696524
 10
-4.8084549383
 20
8.8858078921
 10
-4.793915932
 20
8.8643701561
 10
-4.7790399677
 20
8.8432692322
 10
-4.7638405439
 20
8.8225179084
 10
-4.7483311592
 20
8.8021289727
 10
-4.732525312
 20
8.7821152129
 10
-4.7164378332
 20
8.7624911566
 10
-4.7000888827
 20
8.7432782889
 10
-4.6834999529
 20
8.7244998347
 10
-4.6666925359
 20
8.7061790186
 10
-4.6496881241
 20
8.6883390654
 10
-4.6325082097
 20
8.6710031999
 10
-4.6151692811
 20
8.6541909574
 10
-4.5976678116
 20
8.6379071156
 10
-4.5799952704
 20
8.6221527628
 10
-4.5621431269
 20
8.6069289874
 10
-4.5441028504
 20
8.5922368777
 10
-4.5258659103
 20
8.578077522
  0
LWPOLYLINE
  5
288
100
AcDbEntity
  8
0
100
AcDbPolyline
 62
253
  6
CONTINUOUS
 90
25
 70
0
 10
-4.7747882042
 20
9.3862443103
 10
-4.7818731946
 20
9.4505353735
 10
-4.7880881447
 20
9.5144503205
 10
-4.7934378081
 20
9.5780006875
 10
-4.7979269384
 20
9.6411980103
 10
-4.8015602892
 20
9.7040538252
 10
-4.8043426141
 20
9.7665796681
 10
-4.8062786666
 20
9.8287870751
 10
-4.8073732004
 20
9.8906875822
 10
-4.8076302632
 20
9.9522859712
 10
-4.8070510791
 20
10.0135600072
 10
-4.8056361662
 20
10.0744807008
 10
-4.8033860429
 20
10.1350190628
 10
-4.8003012272
 20
10.195146104
 10
-4.7963822374
 20
10.2548328352
 10
-4.7916295918
 20
10.314050267
 10
-4.7860438084
 20
10.3727694103
 10
-4.7796241372
 20
10.430966745
 10
-4.7723647546
 20
10.4886406283
 10
-4.7642585689
 20
10.5457948864
 10
-4.7552984882
 20
10.6024333456
 10
-4.7454774207
 20
10.6585598323
 10
-4.7347882746
 20
10.7141781728
 10
-4.723223958
 20
10.7692921934
 10
-4.7107773791
 20
10.8239057204
  0
LWPOLYLINE
  5
289
100
AcDbEntity
  8
0
100
AcDbPolyline
 62
253
  6
CONTINUOUS
 90
25
 70
0
 10
-3.5926114096
 20
10.1782907035
 10
-3.5864868501
 20
10.1133860203
 10
-3.5811528616
 20
10.0489105733
 10
-3.5766040212
 20
9.98485309
 10
-3.5728349063
 20
9.9212022976
 10
-3.5698400944
 20
9.8579469234
 10
-3.5676141626
 20
9.7950756948
 10
-3.5661516885
 20
9.7325773391
 10
-3.5654472493
 20
9.6704405835
 10
-3.5654961811
 20
9.6086607954
 10
-3.5662968552
 20
9.5472599018
 10
-3.5678484014
 20
9.4862664699
 10
-3.5701499499
 20
9.4257090668
 10
-3.5732006304
 20
9.3656162594
 10
-3.576999573
 20
9.306016615
 10
-3.5815459077
 20
9.2469387006
 10
-3.5868387644
 20
9.1884110833
 10
-3.5928785822
 20
9.1304568621
 10
-3.599671036
 20
9.0730772645
 10
-3.6072231103
 20
9.0162680496
 10
-3.6155417892
 20
8.9600249769
 10
-3.6246340569
 20
8.9043438056
 10
-3.6345068975
 20
8.8492202951
 10
-3.6451672954
 20
8.7946502046
 10
-3.6566222347
 20
8.7406292935
  0
LWPOLYLINE
  5
28A
100
AcDbEntity
  8
0
100
AcDbPolyline
 62
253
  6
CONTINUOUS
 90
55
 70
0
 10
-3.2109069997
 20
-10.6510581419
 10
-3.2112219245
 20
-10.6387105031
 10
-3.211185705
 20
-10.6266524219
 10
-3.2108028424
 20
-10.6148491557
 10
-3.2100778377
 20
-10.603265962
 10
-3.2090151921
 20
-10.5918680984
 10
-3.2076173875
 20
-10.5806279026
 10
-3.2058788298
 20
-10.5695460341
 10
-3.2037919056
 20
-10.5586302327
 10
-3.2013490015
 20
-10.5478882383
 10
-3.1985425041
 20
-10.5373277906
 10
-3.1953656744
 20
-10.5269599378
 10
-3.1918152695
 20
-10.5168089611
 10
-3.187888921
 20
-10.5069024499
 10
-3.1835842602
 20
-10.4972679938
 10
-3.1788989188
 20
-10.4879331823
 10
-3.1747051074
 20
-10.4804053059
 10
-3.1702627974
 20
-10.4731346437
 10
-3.1655894965
 20
-10.4661511638
 10
-3.1606972194
 20
-10.4594776807
 10
-3.155576008
 20
-10.4531083939
 10
-3.1502104112
 20
-10.4470303491
 10
-3.14458848
 20
-10.4412353472
 10
-3.1387122754
 20
-10.4357342087
 10
-3.1325873608
 20
-10.4305425096
 10
-3.1262192993
 20
-10.4256758255
 10
-3.1196136544
 20
-10.4211497322
 10
-3.1127759894
 20
-10.4169798055
 10
-3.1057136784
 20
-10.413178519
 10
-3.0984413392
 20
-10.4097459384
 10
-3.0909754006
 20
-10.406679027
 10
-3.0833322911
 20
-10.4039747485
 10
-3.0755284395
 20
-10.4016300663
 10
-3.0675802744
 20
-10.3996419438
 10
-3.0594982115
 20
-10.3980067748
 10
-3.0512686141
 20
-10.3967186735
 10
-3.0428718325
 20
-10.3957711842
 10
-3.0342977809
 20
-10.3951590195
 10
-3.0255746288
 20
-10.3948815632
 10
-3.0167401097
 20
-10.3949393675
 10
-3.0060382288
 20
-10.3954490972
 10
-2.9952560255
 20
-10.3964256112
 10
-2.9844192099
 20
-10.3978521242
 10
-2.973553492
 20
-10.3997118504
 10
-2.9626845817
 20
-10.4019880044
 10
-2.9518342759
 20
-10.4046647606
 10
-2.9410087196
 20
-10.407730134
 10
-2.9302101445
 20
-10.4111730996
 10
-2.9194407824
 20
-10.4149826324
 10
-2.9087028652
 20
-10.4191477075
 10
-2.897993409
 20
-10.4236623532
 10
-2.8872885682
 20
-10.4285408119
 10
-2.8765592817
 20
-10.4338023793
 10
-2.8657764882
 20
-10.4394663511
 10
-2.8549111264
 20
-10.4455520229
  0
LINE
  5
28B
100
AcDbEntity
  8
0
100
AcDbLine
 62
253
  6
CONTINUOUS
 10
-2.624871843
 20
7.5457063189
 11
-2.6077200062
 21
8.0682295139
  0
LWPOLYLINE
  5
28C
100
AcDbEntity
  8
0
100
AcDbPolyline
 62
253
  6
CONTINUOUS
 90
4
 70
0
 10
-2.6077200062
 20
8.0682295139
 10
-2.5761820115
 20
8.8550785979
 10
-2.5641204524
 20
9.1181659919
 10
-2.5360479943
 20
9.6761263504
  0
LWPOLYLINE
  5
28D
100
AcDbEntity
  8
0
100
AcDbPolyline
 62
253
  6
CONTINUOUS
 90
3
 70
0
 10
-1.402368241
 20
9.5284623551
 10
-1.4175043767
 20
9.2638174769
 10
-1.458269788
 20
8.4722194409
  0
LWPOLYLINE
  5
28E
100
AcDbEntity
  8
0
100
AcDbPolyline
 62
253
  6
CONTINUOUS
 90
25
 70
0
 10
-3.9138115376
 20
-11.5071600186
 10
-3.9073070857
 20
-11.4523770667
 10
-3.9016494294
 20
-11.3969977736
 10
-3.8968324219
 20
-11.3410175855
 10
-3.8928499163
 20
-11.2844319487
 10
-3.8896957659
 20
-11.2272363092
 10
-3.8873638238
 20
-11.1694261132
 10
-3.8858479432
 20
-11.110996807
 10
-3.8851419774
 20
-11.0519438366
 10
-3.885240601
 20
-10.9922681345
 10
-3.8861417751
 20
-10.9319925787
 10
-3.8878442824
 20
-10.8711455331
 10
-3.8903469056
 20
-10.809755362
 10
-3.8936484273
 20
-10.7478504296
 10
-3.8977476301
 20
-10.6854590999
 10
-3.9026432968
 20
-10.6226097371
 10
-3.9083342098
 20
-10.5593307055
 10
-3.9148205443
 20
-10.4956437018
 10
-3.9221080445
 20
-10.4315437534
 10
-3.9302038471
 20
-10.3670192205
 10
-3.9391150886
 20
-10.3020584633
 10
-3.9488489057
 20
-10.2366498419
 10
-3.959412435
 20
-10.1707817164
 10
-3.9708128132
 20
-10.104442447
 10
-3.9830571769
 20
-10.0376203937
  0
LWPOLYLINE
  5
28F
100
AcDbEntity
  8
0
100
AcDbPolyline
 62
253
  6
CONTINUOUS
 90
44
 70
0
 10
-4.173039223
 20
-11.3102742326
 10
-4.1743704492
 20
-11.3194882634
 10
-4.1759406728
 20
-11.3284623334
 10
-4.1777467557
 20
-11.3372014196
 10
-4.1797855598
 20
-11.3457104992
 10
-4.182053947
 20
-11.3539945493
 10
-4.1845487792
 20
-11.3620585468
 10
-4.1872669182
 20
-11.369907469
 10
-4.1907161539
 20
-11.3787967295
 10
-4.1944602309
 20
-11.3873921823
 10
-4.1984943163
 20
-11.3956859871
 10
-4.2028135773
 20
-11.4036703033
 10
-4.207413181
 20
-11.4113372905
 10
-4.2122882945
 20
-11.4186791081
 10
-4.217434469
 20
-11.4256881009
 10
-4.2228487911
 20
-11.4323573533
 10
-4.2285287318
 20
-11.4386801351
 10
-4.2344717616
 20
-11.444649716
 10
-4.2406753513
 20
-11.4502593656
 10
-4.2471369717
 20
-11.4555023537
 10
-4.2538536369
 20
-11.4603720424
 10
-4.260820535
 20
-11.4648621641
 10
-4.2680323974
 20
-11.4689665435
 10
-4.2754839558
 20
-11.4726790054
 10
-4.2831699415
 20
-11.4759933747
 10
-4.291085086
 20
-11.4789034761
 10
-4.2992236352
 20
-11.4814045163
 10
-4.3075778916
 20
-11.4834972294
 10
-4.3161396719
 20
-11.4851837311
 10
-4.3249007931
 20
-11.4864661373
 10
-4.3338530718
 20
-11.4873465638
 10
-4.342988325
 20
-11.4878271265
 10
-4.3522976713
 20
-11.4879099386
 10
-4.3617694374
 20
-11.4875971031
 10
-4.3713912522
 20
-11.4868907203
 10
-4.3811507441
 20
-11.4857928905
 10
-4.3910355418
 20
-11.4843057141
 10
-4.4010332741
 20
-11.4824312913
 10
-4.411134472
 20
-11.4801704643
 10
-4.4213412757
 20
-11.4775190426
 10
-4.431658728
 20
-11.4744715773
 10
-4.4420918715
 20
-11.4710226196
 10
-4.452645749
 20
-11.4671667208
 10
-4.4633254032
 20
-11.4628984321
  0
LWPOLYLINE
  5
290
100
AcDbEntity
  8
ASSI
100
AcDbPolyline
 62
7
  6
CONTINUOUS
 90
13
 70
0
 10
4.3608548124
 20
-5.2941176749
 10
4.4023757009
 20
-5.3155798593
 10
4.4502284599
 20
-5.3349308505
 10
4.4997582918
 20
-5.3499446986
 10
4.550906038
 20
-5.360849801
 10
4.6033008023
 20
-5.3676747928
 10
4.6560352559
 20
-5.370389452
 10
4.7088433709
 20
-5.3690352076
 10
4.7614584277
 20
-5.3635674188
 10
4.8129624256
 20
-5.3539985106
 10
4.8629771525
 20
-5.3402978874
 10
4.9114526059
 20
-5.3222420043
 10
4.9501047345
 20
-5.303832857
  0
LWPOLYLINE
  5
291
100
AcDbEntity
  8
ASSI
100
AcDbPolyline
 62
253
  6
CONTINUOUS
 90
43
 70
0
 10
4.3091278147
 20
-5.179546251
 10
4.3193252131
 20
-5.1852699697
 10
4.3298003532
 20
-5.1908255025
 10
4.3405447618
 20
-5.1962083569
 10
4.3515497266
 20
-5.2014141759
 10
4.3628063661
 20
-5.2064387578
 10
4.3743056417
 20
-5.2112780565
 10
4.3860383096
 20
-5.2159281836
 10
4.3979948313
 20
-5.2203853552
 10
4.4101654424
 20
-5.2246459139
 10
4.4225402535
 20
-5.2287064126
 10
4.4351092948
 20
-5.2325635896
 10
4.4478624292
 20
-5.2362143131
 10
4.4607893478
 20
-5.2396556463
 10
4.4738795872
 20
-5.2428848128
 10
4.4871225698
 20
-5.245899175
 10
4.500507594
 20
-5.2486963132
 10
4.5140238228
 20
-5.2512739743
 10
4.5276603027
 20
-5.2536300357
 10
4.5414059964
 20
-5.2557626109
 10
4.5552497908
 20
-5.2576699919
 10
4.5691804865
 20
-5.2593505967
 10
4.5831868111
 20
-5.2608030887
 10
4.5972574379
 20
-5.2620263119
 10
4.6113809947
 20
-5.2630192335
 10
4.625546061
 20
-5.2637810755
 10
4.639741174
 20
-5.2643112422
 10
4.6539548478
 20
-5.2646092551
 10
4.6681755845
 20
-5.2646749006
 10
4.6823918805
 20
-5.2645081492
 10
4.6965922325
 20
-5.2641090819
 10
4.710765149
 20
-5.2634780515
 10
4.7248991696
 20
-5.2626155944
 10
4.7389828704
 20
-5.2615223495
 10
4.7530048619
 20
-5.2601992317
 10
4.7669537977
 20
-5.2586473396
 10
4.7808183926
 20
-5.2568678663
 10
4.7945874376
 20
-5.254862283
 10
4.8082497875
 20
-5.2526322427
 10
4.8217943694
 20
-5.2501794879
 10
4.8352102168
 20
-5.2475060401
 10
4.848486488
 20
-5.2446140925
 10
4.8616124534
 20
-5.2415059148
  0
LINE
  5
292
100
AcDbEntity
  8
ASSI
100
AcDbLine
 62
253
  6
CONTINUOUS
 10
4.3091278144
 20
-5.8290784902
 11
-10.4950166151
 21
2.7186489638
  0
LINE
  5
293
100
AcDbEntity
  8
ASSI
100
AcDbLine
 62
253
  6
CONTINUOUS
 10
4.4843631001
 20
-5.5236291468
 11
-10.319783918
 21
3.0240998019
  0
LINE
  5
294
100
AcDbEntity
  8
ASSI
100
AcDbLine
 62
7
  6
CONTINUOUS
 10
-10.4432473101
 20
3.2535853189
 11
4.360899708
 21
-5.2941436298
  0
LINE
  5
295
100
AcDbEntity
  8
ASSI
100
AcDbLine
 62
253
  6
CONTINUOUS
 10
-10.4950166151
 20
3.3681812024
 11
4.3091278144
 21
-5.1795462517
  0
LWPOLYLINE
  5
296
100
AcDbEntity
  8
ASSI
100
AcDbPolyline
 62
253
  6
CONTINUOUS
 90
29
 70
0
 10
-10.4950166148
 20
2.7186489636
 10
-10.5049280995
 20
2.7245377653
 10
-10.5145455817
 20
2.730588499
 10
-10.5238612819
 20
2.7367962717
 10
-10.5328676474
 20
2.7431560569
 10
-10.541557411
 20
2.7496627208
 10
-10.5499235905
 20
2.7563110299
 10
-10.5579594484
 20
2.7630956488
 10
-10.5656584397
 20
2.7700110651
 10
-10.573014274
 20
2.7770516156
 10
-10.5800209795
 20
2.7842115912
 10
-10.5866729163
 20
2.7914852301
 10
-10.5929647205
 20
2.7988666447
 10
-10.5988913052
 20
2.8063498829
 10
-10.6044478722
 20
2.8139288975
 10
-10.6096299302
 20
2.8215975365
 10
-10.6144332896
 20
2.8293496204
 10
-10.6188540589
 20
2.8371788858
 10
-10.6228886551
 20
2.8450789546
 10
-10.6265338128
 20
2.8530434526
 10
-10.6297865856
 20
2.8610659567
 10
-10.6326443422
 20
2.8691399378
 10
-10.6351047706
 20
2.8772588855
 10
-10.6371658816
 20
2.8854162527
 10
-10.638826009
 20
2.8936054022
 10
-10.6400838097
 20
2.9018197376
 10
-10.640938265
 20
2.9100526328
 10
-10.6413886831
 20
2.9182973771
 10
-10.6414644773
 20
2.9229975662
  0
LWPOLYLINE
  5
297
100
AcDbEntity
  8
ASSI
100
AcDbPolyline
 62
253
  6
CONTINUOUS
 90
48
 70
0
 10
-10.319783918
 20
3.0240998019
 10
-10.3247451212
 20
3.0270481115
 10
-10.3295519759
 20
3.0300731792
 10
-10.334204482
 20
3.0331750052
 10
-10.338706223
 20
3.0363562617
 10
-10.3430536155
 20
3.0396142763
 10
-10.3472359094
 20
3.042941032
 10
-10.351252641
 20
3.0463366603
 10
-10.355104274
 20
3.0498010295
 10
-10.3587814494
 20
3.0533257277
 10
-10.3622837335
 20
3.0569108938
 10
-10.36561156
 20
3.0605563889
 10
-10.3687568713
 20
3.0642533842
 10
-10.371719227
 20
3.0680020052
 10
-10.3744990674
 20
3.0718021264
 10
-10.3770896561
 20
3.0756445422
 10
-10.3794905357
 20
3.0795293586
 10
-10.3817021635
 20
3.0834564697
 10
-10.3837191749
 20
3.0874163523
 10
-10.3855410962
 20
3.0914090841
 10
-10.387168401
 20
3.0954345874
 10
-10.3885971451
 20
3.0994831059
 10
-10.3898268469
 20
3.1035546945
 10
-10.3908579881
 20
3.1076492985
 10
-10.3916880695
 20
3.1117569968
 10
-10.3923166039
 20
3.1158778232
 10
-10.3927440785
 20
3.120011744
 10
-10.3929694563
 20
3.1241487379
 10
-10.3929922468
 20
3.1282888118
 10
-10.3928129404
 20
3.1324319587
 10
-10.3924319721
 20
3.1365681361
 10
-10.3918488529
 20
3.1406973254
 10
-10.3910640716
 20
3.1448195452
 10
-10.3900795296
 20
3.1489248076
 10
-10.3888947423
 20
3.1530130726
 10
-10.3875101941
 20
3.1570843802
 10
-10.3859292402
 20
3.1611288629
 10
-10.3841514027
 20
3.1651464575
 10
-10.3821771593
 20
3.1691372273
 10
-10.3800112986
 20
3.1730914941
 10
-10.3776533572
 20
3.1770091661
 10
-10.3751037985
 20
3.1808903351
 10
-10.3723688007
 20
3.1847255987
 10
-10.3694479165
 20
3.1885148447
 10
-10.3663415933
 20
3.1922581853
 10
-10.3630573519
 20
3.1959465543
 10
-10.3595947505
 20
3.199579826
 10
-10.3559542309
 20
3.203158126
  0
LWPOLYLINE
  5
298
100
AcDbEntity
  8
0
100
AcDbPolyline
 62
253
  6
CONTINUOUS
 90
43
 70
0
 10
-3.3343523685
 20
10.0894052574
 10
-3.3370024555
 20
10.113279694
 10
-3.3401910997
 20
10.137223963
 10
-3.3439128037
 20
10.161244883
 10
-3.3481620702
 20
10.1853492724
 10
-3.3529334019
 20
10.2095439494
 10
-3.3582213016
 20
10.2338357325
 10
-3.3640198689
 20
10.2582254153
 10
-3.3703215912
 20
10.2826896926
 10
-3.3771185532
 20
10.3071992345
 10
-3.3844028391
 20
10.331724711
 10
-3.3921665337
 20
10.3562367923
 10
-3.4004017212
 20
10.3807061483
 10
-3.4091012269
 20
10.4051051754
 10
-3.4182608389
 20
10.4294131746
 10
-3.4278770858
 20
10.4536111733
 10
-3.4379464964
 20
10.4776801988
 10
-3.4484655994
 20
10.5016012783
 10
-3.4594309236
 20
10.5253554394
 10
-3.470837685
 20
10.5489232329
 10
-3.4826758498
 20
10.5722833052
 10
-3.4949340713
 20
10.5954138264
 10
-3.507601003
 20
10.6182929665
 10
-3.5206652983
 20
10.6408988955
 10
-3.5341156106
 20
10.6632097836
 10
-3.5479403309
 20
10.6852052439
 10
-3.5621268003
 20
10.7068706621
 10
-3.5766620978
 20
10.7281928673
 10
-3.591533302
 20
10.7491586882
 10
-3.6067274917
 20
10.7697549538
 10
-3.6222317456
 20
10.789968493
 10
-3.6380318046
 20
10.8097843666
 10
-3.6541080575
 20
10.8291805635
 10
-3.6704395551
 20
10.8481333043
 10
-3.6870053485
 20
10.8666188098
 10
-3.7037844884
 20
10.8846133008
 10
-3.7207560258
 20
10.9020929979
 10
-3.7379040027
 20
10.9190378674
 10
-3.7552324257
 20
10.9354428576
 10
-3.7727502924
 20
10.9513066623
 10
-3.7904666006
 20
10.9666279753
 10
-3.8083903478
 20
10.9814054903
 10
-3.826530532
 20
10.9956379011
  0
LWPOLYLINE
  5
299
100
AcDbEntity
  8
0
100
AcDbPolyline
 62
253
  6
CONTINUOUS
 90
55
 70
0
 10
-1.3677094779
 20
-11.7152972903
 10
-1.3680244321
 20
-11.7029492668
 10
-1.3679882696
 20
-11.6908908122
 10
-1.3676054908
 20
-11.6790871771
 10
-1.3668805961
 20
-11.6675036119
 10
-1.3658180859
 20
-11.656105367
 10
-1.3644204417
 20
-11.6448647754
 10
-1.3626820684
 20
-11.6337824997
 10
-1.3605953521
 20
-11.622866285
 10
-1.3581526787
 20
-11.6121238765
 10
-1.3553464342
 20
-11.6015630194
 10
-1.3521698782
 20
-11.5911947663
 10
-1.3486197652
 20
-11.5810434005
 10
-1.3446937233
 20
-11.5711365129
 10
-1.3403893804
 20
-11.5615016942
 10
-1.3357043648
 20
-11.5521665355
 10
-1.3315108281
 20
-11.5446383824
 10
-1.3270687906
 20
-11.5373674561
 10
-1.322395755
 20
-11.5303837256
 10
-1.3175037308
 20
-11.5237100068
 10
-1.312382756
 20
-11.5173405016
 10
-1.3070173756
 20
-11.5112622585
 10
-1.3013956374
 20
-11.5054670813
 10
-1.2955196004
 20
-11.4999657953
 10
-1.2893948265
 20
-11.494773981
 10
-1.2830268775
 20
-11.489907219
 10
-1.2764213152
 20
-11.4853810898
 10
-1.2695837014
 20
-11.481211174
 10
-1.2625214101
 20
-11.4774099486
 10
-1.255249063
 20
-11.4739774758
 10
-1.247783094
 20
-11.4709107147
 10
-1.240139937
 20
-11.4682066239
 10
-1.2323360259
 20
-11.4658621624
 10
-1.2243877945
 20
-11.4638742889
 10
-1.2163056629
 20
-11.4622393925
 10
-1.2080759959
 20
-11.4609515834
 10
-1.1996791443
 20
-11.460004402
 10
-1.1911050221
 20
-11.4593925565
 10
-1.1823817949
 20
-11.4591154261
 10
-1.1735471913
 20
-11.4591735577
 10
-1.1628451903
 20
-11.459683676
 10
-1.1520628429
 20
-11.4606605729
 10
-1.1412258555
 20
-11.4620874623
 10
-1.1303599347
 20
-11.4639475578
 10
-1.1194907869
 20
-11.4662240736
 10
-1.1086402073
 20
-11.4689011833
 10
-1.097814345
 20
-11.4719669008
 10
-1.0870154377
 20
-11.4754101998
 10
-1.0762457233
 20
-11.479220054
 10
-1.0655074395
 20
-11.4833854373
 10
-1.0547976065
 20
-11.4879003777
 10
-1.0440923741
 20
-11.4927791211
 10
-1.0333626748
 20
-11.4980409677
 10
-1.0225794408
 20
-11.5037052177
 10
-1.0117136046
 20
-11.5097911713
  0
LINE
  5
29A
100
AcDbEntity
  8
0
100
AcDbLine
 62
253
  6
CONTINUOUS
 10
-1.4815759337
 20
7.9464667214
 11
-1.5028946859
 21
7.3910260699
  0
LINE
  5
29B
100
AcDbEntity
  8
0
100
AcDbLine
 62
253
  6
CONTINUOUS
 10
-1.458269788
 20
8.4722194409
 11
-1.4815759337
 21
7.9464667214
  0
LWPOLYLINE
  5
29C
100
AcDbEntity
  8
0
100
AcDbPolyline
 62
253
  6
CONTINUOUS
 90
31
 70
0
 10
-2.1045832586
 20
-10.8680642237
 10
-2.1030372597
 20
-10.8593679184
 10
-2.101654203
 20
-10.850595196
 10
-2.1004325552
 20
-10.8417329892
 10
-2.0993707826
 20
-10.8327682309
 10
-2.0984673519
 20
-10.8236878536
 10
-2.0977207294
 20
-10.8144787903
 10
-2.0971293816
 20
-10.8051279735
 10
-2.0966926573
 20
-10.795625038
 10
-2.0964134336
 20
-10.7859704255
 10
-2.0962954698
 20
-10.7761672796
 10
-2.0963425253
 20
-10.7662187441
 10
-2.0965583594
 20
-10.7561279627
 10
-2.0969467315
 20
-10.7458980789
 10
-2.097511401
 20
-10.7355322364
 10
-2.0981529906
 20
-10.7263531182
 10
-2.0989345323
 20
-10.7170747268
 10
-2.0998581224
 20
-10.7076994755
 10
-2.100925857
 20
-10.6982297775
 10
-2.1021398324
 20
-10.6886680462
 10
-2.1035021449
 20
-10.6790166948
 10
-2.1050148905
 20
-10.6692781366
 10
-2.1066801657
 20
-10.6594547849
 10
-2.1084996529
 20
-10.6495476919
 10
-2.1104733801
 20
-10.639552465
 10
-2.1126009615
 20
-10.6294633508
 10
-2.1148820114
 20
-10.6192745956
 10
-2.1173161442
 20
-10.6089804459
 10
-2.119902974
 20
-10.598575148
 10
-2.1226421152
 20
-10.5880529484
 10
-2.1255331821
 20
-10.5774080936
  0
LWPOLYLINE
  5
29D
100
AcDbEntity
  8
0
100
AcDbPolyline
 62
253
  6
CONTINUOUS
 90
31
 70
0
 10
-2.0581185459
 20
-11.999415044
 10
-2.0567093301
 20
-11.990765648
 10
-2.0554624959
 20
-11.9820416691
 10
-2.0543767343
 20
-11.9732301153
 10
-2.0534507367
 20
-11.9643179948
 10
-2.0526831942
 20
-11.9552923154
 10
-2.0520727981
 20
-11.9461400852
 10
-2.0516182396
 20
-11.9368483123
 10
-2.0513190449
 20
-11.9274066836
 10
-2.0511780801
 20
-11.9178156022
 10
-2.0511990462
 20
-11.90807815
 10
-2.0513856442
 20
-11.8981974092
 10
-2.0517415752
 20
-11.8881764616
 10
-2.0522705401
 20
-11.8780183894
 10
-2.0529762401
 20
-11.8677262745
 10
-2.0537415467
 20
-11.8586131867
 10
-2.0546470691
 20
-11.8494021772
 10
-2.0556948767
 20
-11.8400955911
 10
-2.056887039
 20
-11.8306957735
 10
-2.0582256253
 20
-11.8212050694
 10
-2.0597127052
 20
-11.8116258239
 10
-2.061350348
 20
-11.8019603821
 10
-2.0631406231
 20
-11.792211089
 10
-2.0650852717
 20
-11.782378946
 10
-2.067184721
 20
-11.7724595794
 10
-2.06943907
 20
-11.7624472719
 10
-2.0718484176
 20
-11.752336306
 10
-2.0744128627
 20
-11.7421209643
 10
-2.0771325043
 20
-11.7317955294
 10
-2.0800074414
 20
-11.721354284
 10
-2.0830377728
 20
-11.7107915107
  0
LWPOLYLINE
  5
29E
100
AcDbEntity
  8
ASSI
100
AcDbPolyline
 62
253
  6
CONTINUOUS
 90
55
 70
0
 10
5.0695507131
 20
2.2728634768
 10
5.0590153031
 20
2.2675713494
 10
5.0482125735
 20
2.2624542966
 10
5.037151263
 20
2.2575164576
 10
5.0258403193
 20
2.2527618269
 10
5.014288892
 20
2.2481942504
 10
5.0025063253
 20
2.243817423
 10
4.9905021505
 20
2.2396348853
 10
4.978286078
 20
2.2356500205
 10
4.9658679896
 20
2.2318660522
 10
4.9532579306
 20
2.2282860413
 10
4.9404661016
 20
2.2249128836
 10
4.9275028502
 20
2.2217493079
 10
4.9143786626
 20
2.2187978732
 10
4.9011041552
 20
2.2160609671
 10
4.8876900662
 20
2.2135408033
 10
4.8741472465
 20
2.2112394207
 10
4.8604866511
 20
2.2091586807
 10
4.8467193305
 20
2.2073002666
 10
4.8328564213
 20
2.2056656817
 10
4.8189091376
 20
2.2042562482
 10
4.8048887615
 20
2.2030731063
 10
4.7908066346
 20
2.202117213
 10
4.7766741481
 20
2.2013893416
 10
4.7625027341
 20
2.2008900808
 10
4.7483038563
 20
2.2006198345
 10
4.7340890004
 20
2.2005788214
 10
4.7198696651
 20
2.2007670745
 10
4.7056573527
 20
2.2011844417
 10
4.69146356
 20
2.2018305853
 10
4.6772997685
 20
2.2027049826
 10
4.6631774358
 20
2.2038069263
 10
4.6491079856
 20
2.2051355251
 10
4.6351027991
 20
2.2066897041
 10
4.6211732054
 20
2.2084682062
 10
4.6073304724
 20
2.2104695927
 10
4.5935857978
 20
2.2126922447
 10
4.5799503
 20
2.2151343641
 10
4.5664350091
 20
2.2177939755
 10
4.5530508578
 20
2.2206689275
 10
4.539808673
 20
2.2237568945
 10
4.5267191665
 20
2.2270553785
 10
4.5137929268
 20
2.2305617114
 10
4.50104041
 20
2.2342730567
 10
4.4884719321
 20
2.2381864123
 10
4.47609766
 20
2.2422986126
 10
4.4639276035
 20
2.2466063311
 10
4.4519716071
 20
2.2511060832
 10
4.4402393425
 20
2.255794229
 10
4.4287403
 20
2.2606669762
 10
4.4174837816
 20
2.2657203829
 10
4.4064788928
 20
2.2709503616
 10
4.3957345358
 20
2.2763526814
 10
4.3852594019
 20
2.2819229723
 10
4.3750619647
 20
2.2876567285
  0
LINE
  5
29F
100
AcDbEntity
  8
ASSI
100
AcDbLine
 62
7
  6
CONTINUOUS
 10
8.6448624063
 20
-3.4351570428
 11
8.5682937607
 21
-3.3909472665
  0
LINE
  5
2A0
100
AcDbEntity
  8
ASSI
100
AcDbLine
 62
253
  6
CONTINUOUS
 10
2.5936838199
 20
17.1037543072
 11
2.5936838199
 21
17.0408479687
  0
LWPOLYLINE
  5
2A1
100
AcDbEntity
  8
0
100
AcDbPolyline
 62
253
  6
CONTINUOUS
 90
31
 70
0
 10
-0.2149210241
 20
-13.0636541924
 10
-0.2135140268
 20
-13.0550007295
 10
-0.2122693069
 20
-13.0462728881
 10
-0.211185562
 20
-13.0374576905
 10
-0.2102614899
 20
-13.0285421588
 10
-0.2094957882
 20
-13.0195133154
 10
-0.2088871547
 20
-13.0103581824
 10
-0.2084342869
 20
-13.0010637821
 10
-0.2081367157
 20
-12.9916198131
 10
-0.2079973035
 20
-12.9820266796
 10
-0.208019746
 20
-12.9722874625
 10
-0.2082077388
 20
-12.9624052423
 10
-0.2085649774
 20
-12.9523830998
 10
-0.2090951574
 20
-12.9422241158
 10
-0.2098019744
 20
-12.9319313708
 10
-0.2105681734
 20
-12.9228179615
 10
-0.2114745042
 20
-12.9136068426
 10
-0.2125230311
 20
-12.9043003565
 10
-0.2137158189
 20
-12.8949008457
 10
-0.2150549319
 20
-12.8854106526
 10
-0.2165424349
 20
-12.8758321196
 10
-0.2181803923
 20
-12.8661675891
 10
-0.2199708686
 20
-12.8564194036
 10
-0.2219156006
 20
-12.8465885633
 10
-0.2240150129
 20
-12.8366707
 10
-0.2262692024
 20
-12.8266601033
 10
-0.2286782659
 20
-12.8165510629
 10
-0.2312423002
 20
-12.8063378683
 10
-0.2339614021
 20
-12.7960148093
 10
-0.2368356685
 20
-12.7855761753
 10
-0.239865196
 20
-12.7750162561
  0
LWPOLYLINE
  5
2A2
100
AcDbEntity
  8
0
100
AcDbPolyline
 62
253
  6
CONTINUOUS
 90
31
 70
0
 10
-0.2613857368
 20
-11.9323033721
 10
-0.2598419205
 20
-11.923603022
 10
-0.2584609437
 20
-11.9148264579
 10
-0.2572412794
 20
-11.9059606268
 10
-0.2561814009
 20
-11.8969924757
 10
-0.2552797814
 20
-11.8879089518
 10
-0.2545348942
 20
-11.8786970019
 10
-0.2539452123
 20
-11.869343573
 10
-0.2535100892
 20
-11.8598383114
 10
-0.2532323986
 20
-11.8501816601
 10
-0.2531158944
 20
-11.8403767614
 10
-0.2531643308
 20
-11.8304267573
 10
-0.2533814614
 20
-11.8203347902
 10
-0.2537710404
 20
-11.8101040022
 10
-0.2543368216
 20
-11.7997375356
 10
-0.2549793016
 20
-11.7905580995
 10
-0.2557616519
 20
-11.7812796006
 10
-0.256685964
 20
-11.7719044495
 10
-0.2577543292
 20
-11.7624350566
 10
-0.2589688389
 20
-11.7528738324
 10
-0.2603315846
 20
-11.7432231873
 10
-0.2618446576
 20
-11.7334855318
 10
-0.2635101493
 20
-11.7236632764
 10
-0.2653297379
 20
-11.7137574721
 10
-0.2673034493
 20
-11.7037637318
 10
-0.2694308962
 20
-11.6936763093
 10
-0.2717116912
 20
-11.6834894582
 10
-0.2741454469
 20
-11.673197432
 10
-0.2767317761
 20
-11.6627944843
 10
-0.2794702913
 20
-11.6522748688
 10
-0.2823606053
 20
-11.641632839
  0
LWPOLYLINE
  5
2A3
100
AcDbEntity
  8
ASSI
100
AcDbPolyline
 62
253
  6
CONTINUOUS
 90
58
 70
0
 10
5.7896585299
 20
-22.3424736566
 10
5.7910739923
 20
-22.3513936547
 10
5.7926952325
 20
-22.3601515486
 10
5.7945222503
 20
-22.3687473383
 10
5.7965563501
 20
-22.3771859067
 10
5.7987962277
 20
-22.3854623709
 10
5.8012379704
 20
-22.393562082
 10
5.8038819142
 20
-22.4014846302
 10
5.8067277231
 20
-22.4092304253
 10
5.8097704765
 20
-22.416786047
 10
5.8130105096
 20
-22.4241511502
 10
5.8164474871
 20
-22.4313260799
 10
5.8200754835
 20
-22.4382984515
 10
5.8238948311
 20
-22.4450679221
 10
5.8279051976
 20
-22.4516348346
 10
5.8320996597
 20
-22.4579878324
 10
5.8364785361
 20
-22.464126546
 10
5.8410415082
 20
-22.4700513449
 10
5.845780697
 20
-22.4757519816
 10
5.8506964078
 20
-22.4812280691
 10
5.8557883352
 20
-22.4864799943
 10
5.8610476836
 20
-22.4914986708
 10
5.8664747395
 20
-22.4962836931
 10
5.8720692164
 20
-22.5008354666
 10
5.8778214591
 20
-22.5051461211
 10
5.8837317451
 20
-22.5092152431
 10
5.889799797
 20
-22.5130432461
 10
5.8960151277
 20
-22.5166235003
 10
5.9023779889
 20
-22.5199555755
 10
5.908888129
 20
-22.523039902
 10
5.9155343056
 20
-22.525871141
 10
5.9223167582
 20
-22.5284488562
 10
5.9292352474
 20
-22.5307734839
 10
5.9362778123
 20
-22.5328409943
 10
5.9434446626
 20
-22.5346509413
 10
5.9507355886
 20
-22.5362037709
 10
5.9581380003
 20
-22.5374967914
 10
5.9656520953
 20
-22.5385295542
 10
5.973277676
 20
-22.539302508
 10
5.9810015594
 20
-22.5398143063
 10
5.9888239158
 20
-22.5400644966
 10
5.9967445749
 20
-22.5400535314
 10
6.0047498419
 20
-22.5397814219
 10
6.0128398641
 20
-22.5392477152
 10
6.0210144942
 20
-22.5384528642
 10
6.0292595957
 20
-22.5373982382
 10
6.0375752827
 20
-22.5360833898
 10
6.045961441
 20
-22.5345087665
 10
6.0544035913
 20
-22.5326770798
 10
6.0629018487
 20
-22.5305878785
 10
6.0714560982
 20
-22.5282416138
 10
6.0800515149
 20
-22.5256423511
 10
6.0886883171
 20
-22.5227895801
 10
6.0973662866
 20
-22.5196838112
 10
6.106069944
 20
-22.5163306409
 10
6.1147941295
 20
-22.5127319349
 10
6.1235440029
 20
-22.5088858274
 10
6.1323195642
 20
-22.5047923187
  0
LWPOLYLINE
  5
2A4
100
AcDbEntity
  8
ASSI
100
AcDbPolyline
 62
253
  6
CONTINUOUS
 90
28
 70
0
 10
5.0990569859
 20
-22.3940530347
 10
5.1018373311
 20
-22.4118517717
 10
5.1050261571
 20
-22.4293413171
 10
5.1086216556
 20
-22.4465116067
 10
5.1126218218
 20
-22.4633527526
 10
5.117024352
 20
-22.479855081
 10
5.1218266536
 20
-22.4960091309
 10
5.1270260423
 20
-22.5118056704
 10
5.1326195496
 20
-22.5272355539
 10
5.1386038217
 20
-22.5422897602
 10
5.1449754662
 20
-22.5569596179
 10
5.1517308757
 20
-22.5712367295
 10
5.1588660438
 20
-22.585112821
 10
5.1663769503
 20
-22.598579946
 10
5.1742593257
 20
-22.6116303585
 10
5.1825084738
 20
-22.6242564385
 10
5.1911197351
 20
-22.6364509542
 10
5.2000882234
 20
-22.6482069119
 10
5.2094085944
 20
-22.6595174248
 10
5.2190755817
 20
-22.6703760261
 10
5.2290836999
 20
-22.6807764974
 10
5.2394269807
 20
-22.6907127181
 10
5.2500995695
 20
-22.7001790131
 10
5.2610954178
 20
-22.70916998
 10
5.2724079873
 20
-22.7176803153
 10
5.2840308901
 20
-22.7257051802
 10
5.2959575257
 20
-22.7332399942
 10
5.3009299946
 20
-22.736184475
  0
LINE
  5
2A5
100
AcDbEntity
  8
ASSI
100
AcDbLine
 62
7
  6
CONTINUOUS
 10
2.7739350693
 20
17.517974466
 11
2.7951403585
 21
16.9015019686
  0
LWPOLYLINE
  5
2A6
100
AcDbEntity
  8
ASSI
100
AcDbPolyline
 62
253
  6
CONTINUOUS
 90
27
 70
0
 10
4.3818862158
 20
-13.5770624801
 10
4.3902515998
 20
-13.9279753508
 10
4.4001579281
 20
-14.278008931
 10
4.4116049871
 20
-14.6271550331
 10
4.4245925084
 20
-14.9754054854
 10
4.4391201686
 20
-15.3227521322
 10
4.4551876434
 20
-15.669186852
 10
4.4727945664
 20
-16.0147015374
 10
4.4919404987
 20
-16.3592880873
 10
4.5126250113
 20
-16.7029384417
 10
4.5348476336
 20
-17.0456445654
 10
4.5586078122
 20
-17.387398429
 10
4.5839050141
 20
-17.7281920416
 10
4.6107386643
 20
-18.0680174362
 10
4.6391080952
 20
-18.4068666525
 10
4.6690126702
 20
-18.7447317741
 10
4.7004517099
 20
-19.0816048999
 10
4.7334244318
 20
-19.4174781277
 10
4.7679300951
 20
-19.7523436139
 10
4.8039679167
 20
-20.0861935283
 10
4.8415369982
 20
-20.4190200252
 10
4.8806364945
 20
-20.7508153294
 10
4.9212655189
 20
-21.0815716895
 10
4.9634230593
 20
-21.4112813329
 10
5.0071081318
 20
-21.7399365432
 10
5.0523197811
 20
-22.0675296604
 10
5.0990569859
 20
-22.3940530347
  0
LWPOLYLINE
  5
2A7
100
AcDbEntity
  8
ASSI
100
AcDbPolyline
 62
253
  6
CONTINUOUS
 90
27
 70
0
 10
5.0763386894
 20
-13.5744025652
 10
5.0846590922
 20
-13.9233639673
 10
5.0945119216
 20
-14.2714430532
 10
5.1058974794
 20
-14.6186479457
 10
5.1188154637
 20
-14.964970522
 10
5.1332649687
 20
-15.310386414
 10
5.1492461016
 20
-15.6548955416
 10
5.1667587552
 20
-15.9984979849
 10
5.1858017022
 20
-16.3411696153
 10
5.2063750496
 20
-16.6829103644
 10
5.2284786904
 20
-17.0237203006
 10
5.2521110757
 20
-17.3635755015
 10
5.2772723125
 20
-17.7024758979
 10
5.3039622939
 20
-18.040421559
 10
5.3321791505
 20
-18.3773887691
 10
5.3619229892
 20
-18.7133774621
 10
5.3931937031
 20
-19.0483877041
 10
5.4259891013
 20
-19.3823959786
 10
5.4603092911
 20
-19.7154022186
 10
5.4961541653
 20
-20.0474064911
 10
5.5335212111
 20
-20.3783854803
 10
5.5724105371
 20
-20.7083391245
 10
5.6128220348
 20
-21.0372674854
 10
5.6547528666
 20
-21.3651474321
 10
5.6982020869
 20
-21.6919712544
 10
5.7431706413
 20
-22.0177466626
 10
5.7896585299
 20
-22.3424736566
  0
LWPOLYLINE
  5
2A8
100
AcDbEntity
  8
ASSI
100
AcDbPolyline
 62
253
  6
CONTINUOUS
 90
46
 70
0
 10
5.0036804604
 20
-5.8341983199
 10
5.0035209978
 20
-5.8270420433
 10
5.0031540825
 20
-5.8197659129
 10
5.0025801613
 20
-5.8123787901
 10
5.0017999331
 20
-5.8048896715
 10
5.0008143482
 20
-5.7973076779
 10
4.999624607
 20
-5.7896420432
 10
4.9982321582
 20
-5.7819021032
 10
4.9966386978
 20
-5.7740972842
 10
4.9948461665
 20
-5.7662370914
 10
4.9928567472
 20
-5.7583310975
 10
4.9906728629
 20
-5.7503889311
 10
4.9882971732
 20
-5.7424202648
 10
4.9857325715
 20
-5.7344348033
 10
4.9829821811
 20
-5.7264422719
 10
4.9800493516
 20
-5.7184524046
 10
4.9769376548
 20
-5.710474932
 10
4.9736508805
 20
-5.7025195696
 10
4.9701930314
 20
-5.694596006
 10
4.9665683189
 20
-5.6867138912
 10
4.9627811573
 20
-5.6788828247
 10
4.9588361589
 20
-5.6711123435
 10
4.9547381283
 20
-5.6634119113
 10
4.9504920563
 20
-5.6557909061
 10
4.9461031141
 20
-5.6482586094
 10
4.941576647
 20
-5.6408241945
 10
4.9369181674
 20
-5.6334967157
 10
4.932133349
 20
-5.6262850969
 10
4.927228019
 20
-5.6191981208
 10
4.9222081515
 20
-5.6122444187
 10
4.91707986
 20
-5.6054324591
 10
4.9118493901
 20
-5.5987705382
 10
4.906523112
 20
-5.5922667694
 10
4.9011075123
 20
-5.5859290734
 10
4.8956091866
 20
-5.5797651688
 10
4.8900348311
 20
-5.5737825623
 10
4.8843912346
 20
-5.5679885401
 10
4.8786852705
 20
-5.5623901586
 10
4.8729238877
 20
-5.5569942358
 10
4.867114103
 20
-5.5518073433
 10
4.8612629919
 20
-5.5468357981
 10
4.8553776804
 20
-5.5420856549
 10
4.849465336
 20
-5.5375626988
 10
4.8435331592
 20
-5.5332724381
 10
4.8375883746
 20
-5.5292200978
 10
4.8316382222
 20
-5.5254106133
  0
LINE
  5
2A9
100
AcDbEntity
  8
ASSI
100
AcDbLine
 62
253
  6
CONTINUOUS
 10
4.3617477579
 20
-12.4067764459
 11
4.3818862158
 21
-13.5770624801
  0
LINE
  5
2AA
100
AcDbEntity
  8
ASSI
100
AcDbLine
 62
253
  6
CONTINUOUS
 10
5.0562467018
 20
-12.4066974657
 11
5.0763386894
 21
-13.5744025652
  0
LWPOLYLINE
  5
2AB
100
AcDbEntity
  8
ASSI
100
AcDbPolyline
 62
253
  6
CONTINUOUS
 90
24
 70
0
 10
4.3091291087
 20
-5.179546999
 10
4.3092308284
 20
-5.1865760102
 10
4.3095456314
 20
-5.1934736374
 10
4.3100731379
 20
-5.2002315615
 10
4.3108127118
 20
-5.2068416319
 10
4.311763461
 20
-5.2132958763
 10
4.312924239
 20
-5.2195865104
 10
4.3142936457
 20
-5.2257059473
 10
4.3158700294
 20
-5.2316468065
 10
4.3176514891
 20
-5.2374019227
 10
4.319635876
 20
-5.242964355
 10
4.3218207969
 20
-5.2483273946
 10
4.3242036166
 20
-5.2534845733
 10
4.3267814612
 20
-5.2584296711
 10
4.3295512217
 20
-5.2631567239
 10
4.3325095574
 20
-5.2676600305
 10
4.3356529005
 20
-5.2719341596
 10
4.3389774599
 20
-5.2759739562
 10
4.3424792258
 20
-5.2797745481
 10
4.3461539748
 20
-5.2833313514
 10
4.349997275
 20
-5.2866400765
 10
4.3540044911
 20
-5.2896967326
 10
4.3581707899
 20
-5.2924976333
 10
4.3608548063
 20
-5.2941176855
  0
LINE
  5
2AC
100
AcDbEntity
  8
ASSI
100
AcDbLine
 62
253
  6
CONTINUOUS
 10
4.3396105098
 20
-10.7672845849
 11
4.3617477579
 21
-12.4067764459
  0
LINE
  5
2AD
100
AcDbEntity
  8
ASSI
100
AcDbLine
 62
253
  6
CONTINUOUS
 10
5.0341274867
 20
-10.7685053968
 11
5.0562467018
 21
-12.4066974657
  0
LINE
  5
2AE
100
AcDbEntity
  8
ASSI
100
AcDbLine
 62
253
  6
CONTINUOUS
 10
4.3234617561
 20
-9.1245035359
 11
4.3396105098
 21
-10.7672845849
  0
LWPOLYLINE
  5
2AF
100
AcDbEntity
  8
ASSI
100
AcDbPolyline
 62
253
  6
CONTINUOUS
 90
3
 70
0
 10
5.0121706827
 20
-8.3050440281
 10
5.0179932325
 20
-9.1270192301
 10
5.0341274867
 20
-10.7685053968
  0
LINE
  5
2B0
100
AcDbEntity
  8
ASSI
100
AcDbLine
 62
253
  6
CONTINUOUS
 10
4.3133008191
 20
-7.4784285323
 11
4.3234617561
 21
-9.1245035359
  0
LINE
  5
2B1
100
AcDbEntity
  8
ASSI
100
AcDbLine
 62
253
  6
CONTINUOUS
 10
4.3091278144
 20
-5.8290784902
 11
4.3133008191
 21
-7.4784285323
  0
LINE
  5
2B2
100
AcDbEntity
  8
ASSI
100
AcDbLine
 62
253
  6
CONTINUOUS
 10
4.3133008191
 20
-3.5257044664
 11
4.3091278144
 21
-5.1795462517
  0
LINE
  5
2B3
100
AcDbEntity
  8
ASSI
100
AcDbLine
 62
253
  6
CONTINUOUS
 10
4.3234617561
 20
-1.8686877925
 11
4.3133008191
 21
-3.5257044664
  0
LINE
  5
2B4
100
AcDbEntity
  8
ASSI
100
AcDbLine
 62
253
  6
CONTINUOUS
 10
4.3396105098
 20
-0.2085156103
 11
4.3234617561
 21
-1.8686877925
  0
LINE
  5
2B5
100
AcDbEntity
  8
ASSI
100
AcDbLine
 62
253
  6
CONTINUOUS
 10
4.3617477579
 20
1.4548163061
 11
4.3396105098
 21
-0.2085156103
  0
LWPOLYLINE
  5
2B6
100
AcDbEntity
  8
ASSI
100
AcDbPolyline
 62
253
  6
CONTINUOUS
 90
46
 70
0
 10
4.3091291087
 20
-5.8290792375
 10
4.3092308284
 20
-5.821932763
 10
4.3095456313
 20
-5.8146716094
 10
4.3100731378
 20
-5.8073045342
 10
4.3108127117
 20
-5.7998404226
 10
4.3117634609
 20
-5.792288277
 10
4.3129242388
 20
-5.7846572058
 10
4.3142936454
 20
-5.7769564126
 10
4.3158700291
 20
-5.7691951853
 10
4.3176514886
 20
-5.7613828843
 10
4.3196358755
 20
-5.7535289319
 10
4.3218207962
 20
-5.7456428006
 10
4.3242036158
 20
-5.7377340016
 10
4.3267814603
 20
-5.7298120736
 10
4.3295512207
 20
-5.721886571
 10
4.3325095563
 20
-5.7139670526
 10
4.3356528993
 20
-5.7060630698
 10
4.3389774585
 20
-5.6981841555
 10
4.3424792243
 20
-5.6903398122
 10
4.3461539733
 20
-5.6825395009
 10
4.3499972734
 20
-5.6747926292
 10
4.3540044893
 20
-5.6671085404
 10
4.358170788
 20
-5.6594965023
 10
4.3624911448
 20
-5.6519656954
 10
4.3669603488
 20
-5.6445252025
 10
4.3715730099
 20
-5.6371839973
 10
4.3763235648
 20
-5.6299509339
 10
4.3812062842
 20
-5.622834736
 10
4.3862152789
 20
-5.6158439862
 10
4.3913445078
 20
-5.6089871159
 10
4.3965877847
 20
-5.6022723949
 10
4.4019387858
 20
-5.5957079218
 10
4.4073910574
 20
-5.5893016137
 10
4.4129380235
 20
-5.5830611972
 10
4.4185729943
 20
-5.5769941987
 10
4.4242891733
 20
-5.5711079354
 10
4.4300796666
 20
-5.5654095066
 10
4.4359374904
 20
-5.5599057851
 10
4.4418555796
 20
-5.5546034087
 10
4.4478267967
 20
-5.5495087725
 10
4.4538439398
 20
-5.5446280211
 10
4.4598997518
 20
-5.5399670409
 10
4.4659869291
 20
-5.5355314535
 10
4.4720981299
 20
-5.5313266085
 10
4.4782259838
 20
-5.5273575773
 10
4.4843631001
 20
-5.5236291468
  0
LINE
  5
2B7
100
AcDbEntity
  8
ASSI
100
AcDbLine
 62
253
  6
CONTINUOUS
 10
4.3818862158
 20
2.6467921655
 11
4.3617477579
 21
1.4548163061
  0
LINE
  5
2B8
100
AcDbEntity
  8
ASSI
100
AcDbLine
 62
253
  6
CONTINUOUS
 10
4.4001579281
 20
3.3674220933
 11
4.3818862158
 21
2.6467921655
  0
LINE
  5
2B9
100
AcDbEntity
  8
ASSI
100
AcDbLine
 62
253
  6
CONTINUOUS
 10
4.4245925084
 20
4.0911411161
 11
4.4001579281
 21
3.3674220933
  0
LINE
  5
2BA
100
AcDbEntity
  8
ASSI
100
AcDbLine
 62
253
  6
CONTINUOUS
 10
4.4551876434
 20
4.8178815217
 11
4.4245925084
 21
4.0911411161
  0
LINE
  5
2BB
100
AcDbEntity
  8
ASSI
100
AcDbLine
 62
253
  6
CONTINUOUS
 10
5.1492461016
 20
4.7890197557
 11
5.1188154637
 21
4.0663256544
  0
LINE
  5
2BC
100
AcDbEntity
  8
ASSI
100
AcDbLine
 62
253
  6
CONTINUOUS
 10
4.4919404987
 20
5.5475752593
 11
4.4551876434
 21
4.8178815217
  0
LINE
  5
2BD
100
AcDbEntity
  8
ASSI
100
AcDbLine
 62
253
  6
CONTINUOUS
 10
5.1858017022
 20
5.5146585468
 11
5.1492461016
 21
4.7890197557
  0
LINE
  5
2BE
100
AcDbEntity
  8
ASSI
100
AcDbLine
 62
253
  6
CONTINUOUS
 10
4.5348476336
 20
6.2801540085
 11
4.4919404987
 21
5.5475752593
  0
LINE
  5
2BF
100
AcDbEntity
  8
ASSI
100
AcDbLine
 62
253
  6
CONTINUOUS
 10
5.2284786904
 20
6.2431657355
 11
5.1858017022
 21
5.5146585468
  0
LINE
  5
2C0
100
AcDbEntity
  8
ASSI
100
AcDbLine
 62
253
  6
CONTINUOUS
 10
4.5839050141
 20
7.0155492369
 11
4.5348476336
 21
6.2801540085
  0
LINE
  5
2C1
100
AcDbEntity
  8
ASSI
100
AcDbLine
 62
253
  6
CONTINUOUS
 10
5.2772723125
 20
6.9744645031
 11
5.2284786904
 21
6.2431657355
  0
LINE
  5
2C2
100
AcDbEntity
  8
ASSI
100
AcDbLine
 62
253
  6
CONTINUOUS
 10
4.6391080952
 20
7.7536920988
 11
4.5839050141
 21
7.0155492369
  0
LINE
  5
2C3
100
AcDbEntity
  8
ASSI
100
AcDbLine
 62
253
  6
CONTINUOUS
 10
5.3321791505
 20
7.7085035308
 11
5.2772723125
 21
6.9744645031
  0
LINE
  5
2C4
100
AcDbEntity
  8
ASSI
100
AcDbLine
 62
253
  6
CONTINUOUS
 10
4.7004517099
 20
8.4945135581
 11
4.6391080952
 21
7.7536920988
  0
LINE
  5
2C5
100
AcDbEntity
  8
ASSI
100
AcDbLine
 62
253
  6
CONTINUOUS
 10
5.3931937031
 20
8.4452056847
 11
5.3321791505
 21
7.7085035308
  0
LINE
  5
2C6
100
AcDbEntity
  8
ASSI
100
AcDbLine
 62
253
  6
CONTINUOUS
 10
4.7679300951
 20
9.2379443102
 11
4.7004517099
 21
8.4945135581
  0
LINE
  5
2C7
100
AcDbEntity
  8
ASSI
100
AcDbLine
 62
253
  6
CONTINUOUS
 10
5.4603092911
 20
9.1844932877
 11
5.3931937031
 21
8.4452056847
  0
LINE
  5
2C8
100
AcDbEntity
  8
ASSI
100
AcDbLine
 62
253
  6
CONTINUOUS
 10
4.8415369982
 20
9.9839147321
 11
4.7679300951
 21
9.2379443102
  0
LINE
  5
2C9
100
AcDbEntity
  8
ASSI
100
AcDbLine
 62
253
  6
CONTINUOUS
 10
5.5335212111
 20
9.9263144428
 11
5.4603092911
 21
9.1844932877
  0
LINE
  5
2CA
100
AcDbEntity
  8
ASSI
100
AcDbLine
 62
253
  6
CONTINUOUS
 10
5.6128220348
 20
10.6705911471
 11
5.5335212111
 21
9.9263144428
  0
LINE
  5
2CB
100
AcDbEntity
  8
ASSI
100
AcDbLine
 62
253
  6
CONTINUOUS
 10
4.9634230593
 20
11.1074794399
 11
4.8415369982
 21
9.9839147321
  0
LINE
  5
2CC
100
AcDbEntity
  8
ASSI
100
AcDbLine
 62
253
  6
CONTINUOUS
 10
5.6982020869
 20
11.4172360023
 11
5.6128220348
 21
10.6705911471
  0
LWPOLYLINE
  5
2CD
100
AcDbEntity
  8
ASSI
100
AcDbPolyline
 62
253
  6
CONTINUOUS
 90
3
 70
0
 10
5.0990569859
 20
12.2363646148
 10
5.0523197811
 20
11.8594930851
 10
4.9634230593
 20
11.1074794399
  0
LINE
  5
2CE
100
AcDbEntity
  8
ASSI
100
AcDbLine
 62
253
  6
CONTINUOUS
 10
5.7896585299
 20
12.1662228222
 11
5.6982020869
 21
11.4172360023
  0
LINE
  5
2CF
100
AcDbEntity
  8
ASSI
100
AcDbLine
 62
253
  6
CONTINUOUS
 10
-10.433530227
 20
10.8379522647
 11
4.3750619647
 21
2.2876567285
  0
LWPOLYLINE
  5
2D0
100
AcDbEntity
  8
0
100
AcDbPolyline
 62
253
  6
CONTINUOUS
 90
22
 70
0
 10
-4.4878964436
 20
8.5501667253
 10
-4.4642876899
 20
8.5329821207
 10
-4.4406477616
 20
8.5161383207
 10
-4.4169740044
 20
8.4996327212
 10
-4.393263764
 20
8.4834627181
 10
-4.3695143862
 20
8.4676257073
 10
-4.3457232166
 20
8.4521190847
 10
-4.321887601
 20
8.4369402463
 10
-4.298006735
 20
8.4220878805
 10
-4.274087214
 20
8.4075658455
 10
-4.2501374835
 20
8.3933792922
 10
-4.2261659888
 20
8.3795333711
 10
-4.2021811752
 20
8.3660332331
 10
-4.1781914881
 20
8.352884029
 10
-4.1542053729
 20
8.3400909093
 10
-4.1302294164
 20
8.3276581792
 10
-4.1062627711
 20
8.3155867601
 10
-4.0823027309
 20
8.3038767276
 10
-4.0583465898
 20
8.2925281577
 10
-4.0343916418
 20
8.2815411259
 10
-4.0104351807
 20
8.2709157079
 10
-3.9864745005
 20
8.2606519796
  0
LWPOLYLINE
  5
2D1
100
AcDbEntity
  8
0
100
AcDbPolyline
 62
253
  6
CONTINUOUS
 90
44
 70
0
 10
-4.4775149709
 20
8.8579036802
 10
-4.4867480618
 20
8.8650468696
 10
-4.4958896943
 20
8.8724204093
 10
-4.5049426946
 20
8.8800227861
 10
-4.5139098884
 20
8.8878524866
 10
-4.5227941018
 20
8.8959079977
 10
-4.5315981608
 20
8.9041878061
 10
-4.5403248914
 20
8.9126903986
 10
-4.550409644
 20
8.9228881046
 10
-4.560382666
 20
8.9333753372
 10
-4.5702336333
 20
8.9441404488
 10
-4.5799522214
 20
8.9551717917
 10
-4.5895281061
 20
8.9664577184
 10
-4.598950963
 20
8.9779865812
 10
-4.6082107972
 20
8.9897473592
 10
-4.6172989319
 20
9.0017315383
 10
-4.6262070196
 20
9.0139312308
 10
-4.6349267128
 20
9.0263385493
 10
-4.6434496641
 20
9.0389456063
 10
-4.6517675261
 20
9.0517445142
 10
-4.6598721745
 20
9.0647266607
 10
-4.6677563775
 20
9.0778805339
 10
-4.6754131267
 20
9.091193897
 10
-4.6828354136
 20
9.1046545133
 10
-4.6900162296
 20
9.1182501461
 10
-4.6969485663
 20
9.1319685586
 10
-4.703626144
 20
9.1457977649
 10
-4.7100455982
 20
9.1597267821
 10
-4.7162042934
 20
9.1737448781
 10
-4.7220995941
 20
9.1878413209
 10
-4.7277288647
 20
9.2020053784
 10
-4.7330894696
 20
9.2162263186
 10
-4.7381783179
 20
9.230492286
 10
-4.7429904977
 20
9.2447869318
 10
-4.7475206418
 20
9.259092784
 10
-4.7517633827
 20
9.2733923702
 10
-4.7557133533
 20
9.2876682184
 10
-4.7593651862
 20
9.3019028563
 10
-4.7627138543
 20
9.3160824114
 10
-4.7657556913
 20
9.3302074086
 10
-4.768487371
 20
9.3442819725
 10
-4.7709055672
 20
9.3583102278
 10
-4.7730069536
 20
9.3722962989
 10
-4.7747882042
 20
9.3862443103
  0
LWPOLYLINE
  5
2D2
100
AcDbEntity
  8
0
100
AcDbPolyline
 62
253
  6
CONTINUOUS
 90
31
 70
0
 10
-2.8751200099
 20
7.67236885
 10
-2.866436368
 20
7.6651150057
 10
-2.8577752104
 20
7.6580810516
 10
-2.8491230383
 20
7.651256493
 10
-2.8404663531
 20
7.6446308357
 10
-2.831791656
 20
7.638193585
 10
-2.8230854483
 20
7.6319342466
 10
-2.8143342313
 20
7.6258423259
 10
-2.8055276144
 20
7.6199104372
 10
-2.7966676404
 20
7.6141436295
 10
-2.7877594603
 20
7.6085500604
 10
-2.7788082251
 20
7.6031378876
 10
-2.7698190858
 20
7.5979152687
 10
-2.7607971933
 20
7.5928903615
 10
-2.7517476987
 20
7.5880713236
 10
-2.7438108016
 20
7.5840298216
 10
-2.7358601877
 20
7.5801568453
 10
-2.7278993295
 20
7.576457056
 10
-2.7199316993
 20
7.5729351149
 10
-2.7119607696
 20
7.5695956834
 10
-2.7039900128
 20
7.5664434226
 10
-2.6960229012
 20
7.563482994
 10
-2.6880629073
 20
7.5607190588
 10
-2.680111877
 20
7.5581545029
 10
-2.6721651495
 20
7.555785111
 10
-2.6642164379
 20
7.5536048924
 10
-2.656259455
 20
7.5516078563
 10
-2.6482879136
 20
7.5497880122
 10
-2.6402955267
 20
7.5481393692
 10
-2.632276007
 20
7.5466559367
 10
-2.6242230675
 20
7.5453317241
  0
LWPOLYLINE
  5
2D3
100
AcDbEntity
  8
0
100
AcDbPolyline
 62
253
  6
CONTINUOUS
 90
33
 70
0
 10
-1.5629243131
 20
6.922593391
 10
-1.5532896601
 20
6.9136850885
 10
-1.543601864
 20
6.9050202488
 10
-1.5338612083
 20
6.8965953068
 10
-1.5240679762
 20
6.8884066972
 10
-1.5142224512
 20
6.8804508549
 10
-1.5043252506
 20
6.8727250605
 10
-1.4943783278
 20
6.8652299776
 10
-1.4843839699
 20
6.8579671157
 10
-1.4743444644
 20
6.8509379841
 10
-1.4642620985
 20
6.8441440924
 10
-1.4541391571
 20
6.8375871692
 10
-1.443977916
 20
6.8312698208
 10
-1.4337806486
 20
6.8251948727
 10
-1.4235496281
 20
6.8193651506
 10
-1.413287128
 20
6.8137834799
 10
-1.4047123891
 20
6.8093240851
 10
-1.3961171914
 20
6.8050433966
 10
-1.3875013582
 20
6.8009459005
 10
-1.3788647129
 20
6.7970360829
 10
-1.3702070789
 20
6.7933184299
 10
-1.3615282796
 20
6.7897974276
 10
-1.3528289647
 20
6.7864769595
 10
-1.3441130901
 20
6.7833584983
 10
-1.3353854383
 20
6.7804429139
 10
-1.3266507917
 20
6.7777310765
 10
-1.3179139326
 20
6.775223856
 10
-1.3091796434
 20
6.7729221225
 10
-1.2987061618
 20
6.7704297197
 10
-1.2882367685
 20
6.7682192323
 10
-1.2777649645
 20
6.7662754214
 10
-1.2672842507
 20
6.7645830483
 10
-1.2567881281
 20
6.7631268742
  0
LWPOLYLINE
  5
2D4
100
AcDbEntity
  8
ASSI
100
AcDbPolyline
 62
253
  6
CONTINUOUS
 90
3
 70
0
 10
5.003681863
 20
-5.8341975511
 10
5.0050150269
 20
-6.658633611
 10
5.0121706827
 20
-8.3050440281
  0
LINE
  5
2D5
100
AcDbEntity
  8
ASSI
100
AcDbLine
 62
253
  6
CONTINUOUS
 10
5.0078446334
 20
-3.5358941533
 11
5.003681863
 21
-5.1884283643
  0
LINE
  5
2D6
100
AcDbEntity
  8
ASSI
100
AcDbLine
 62
253
  6
CONTINUOUS
 10
5.0179932325
 20
-1.8801955579
 11
5.0078446334
 21
-3.5358941533
  0
LINE
  5
2D7
100
AcDbEntity
  8
ASSI
100
AcDbLine
 62
253
  6
CONTINUOUS
 10
5.0341274867
 20
-0.2213352995
 11
5.0179932325
 21
-1.8801955579
  0
LINE
  5
2D8
100
AcDbEntity
  8
ASSI
100
AcDbLine
 62
253
  6
CONTINUOUS
 10
5.0562467018
 20
1.4406757367
 11
5.0341274867
 21
-0.2213352995
  0
LINE
  5
2D9
100
AcDbEntity
  8
ASSI
100
AcDbLine
 62
253
  6
CONTINUOUS
 10
5.0763386894
 20
2.6300167936
 11
5.0562467018
 21
1.4406757367
  0
LWPOLYLINE
  5
2DA
100
AcDbEntity
  8
ASSI
100
AcDbPolyline
 62
253
  6
CONTINUOUS
 90
24
 70
0
 10
5.0036804604
 20
-5.1884291058
 10
5.0035209978
 20
-5.1955167275
 10
5.0031540826
 20
-5.2024671481
 10
5.0025801614
 20
-5.209271903
 10
5.0017999333
 20
-5.2159227047
 10
5.0008143485
 20
-5.2224114534
 10
4.9996246073
 20
-5.2287302467
 10
4.9982321587
 20
-5.2348713891
 10
4.9966386984
 20
-5.2408274014
 10
4.9948461672
 20
-5.24659103
 10
4.9928567481
 20
-5.2521552555
 10
4.9906728639
 20
-5.2575133013
 10
4.9882971744
 20
-5.2626586421
 10
4.9857325729
 20
-5.2675850115
 10
4.9829821826
 20
-5.2722864098
 10
4.9800493533
 20
-5.2767571112
 10
4.9769376568
 20
-5.280991671
 10
4.9736508826
 20
-5.2849849321
 10
4.9701930337
 20
-5.2887320312
 10
4.9665683213
 20
-5.2922284048
 10
4.9627811599
 20
-5.2954697947
 10
4.9588361617
 20
-5.2984522533
 10
4.9547381312
 20
-5.3011721484
 10
4.9501047407
 20
-5.3038328688
  0
LINE
  5
2DB
100
AcDbEntity
  8
ASSI
100
AcDbLine
 62
253
  6
CONTINUOUS
 10
5.0945119216
 20
3.3466270366
 11
5.0763386894
 21
2.6300167936
  0
LINE
  5
2DC
100
AcDbEntity
  8
ASSI
100
AcDbLine
 62
253
  6
CONTINUOUS
 10
5.1188154637
 20
4.0663256544
 11
5.0945119216
 21
3.3466270366
  0
LWPOLYLINE
  5
2DD
100
AcDbEntity
  8
0
100
AcDbPolyline
 62
253
  6
CONTINUOUS
 90
43
 70
0
 10
-3.9483612427
 20
8.2446335647
 10
-3.9299060091
 20
8.2375903774
 10
-3.9116102844
 20
8.2312398305
 10
-3.8934676474
 20
8.2255875772
 10
-3.8754716768
 20
8.2206392705
 10
-3.8576159513
 20
8.2164005637
 10
-3.8398940495
 20
8.2128771098
 10
-3.8223039498
 20
8.2100730418
 10
-3.8048612281
 20
8.2079864118
 10
-3.7875858599
 20
8.2066137517
 10
-3.7704978209
 20
8.2059515935
 10
-3.7536170865
 20
8.205996469
 10
-3.7369636323
 20
8.2067449101
 10
-3.7205560439
 20
8.2081937831
 10
-3.7044073483
 20
8.2103412913
 10
-3.6885291823
 20
8.2131859722
 10
-3.6729331828
 20
8.2167263635
 10
-3.6576309869
 20
8.2209610026
 10
-3.6426342315
 20
8.2258884273
 10
-3.6279549921
 20
8.2315069012
 10
-3.6136070976
 20
8.2378135922
 10
-3.5996048158
 20
8.2448053945
 10
-3.5859624141
 20
8.2524792021
 10
-3.57269416
 20
8.2608319091
 10
-3.5598143213
 20
8.2698604097
 10
-3.5473357049
 20
8.2795601061
 10
-3.5352652765
 20
8.2899204338
 10
-3.5236085412
 20
8.3009293366
 10
-3.5123710042
 20
8.3125747582
 10
-3.5015581707
 20
8.3248446422
 10
-3.4911755457
 20
8.3377269326
 10
-3.4812294461
 20
8.3512083448
 10
-3.4717294344
 20
8.3652706824
 10
-3.462685885
 20
8.3798945207
 10
-3.454109172
 20
8.395060435
 10
-3.4460096697
 20
8.4107490008
 10
-3.4383977524
 20
8.4269407934
 10
-3.4312827454
 20
8.4436217724
 10
-3.4246697787
 20
8.4607994351
 10
-3.4185629337
 20
8.4784866629
 10
-3.4129662915
 20
8.4966963372
 10
-3.4078839334
 20
8.5154413396
 10
-3.4033199406
 20
8.5347345514
  0
LWPOLYLINE
  5
2DE
100
AcDbEntity
  8
0
100
AcDbPolyline
 62
253
  6
CONTINUOUS
 90
22
 70
0
 10
-3.978063695
 20
8.5695267731
 10
-4.0018205171
 20
8.5792109723
 10
-4.0255852069
 20
8.5893090431
 10
-4.0493612576
 20
8.5998212881
 10
-4.0731521624
 20
8.6107480101
 10
-4.0969614145
 20
8.6220895117
 10
-4.1207925071
 20
8.6338460955
 10
-4.1446489333
 20
8.6460180642
 10
-4.1685318023
 20
8.6586046701
 10
-4.1924326869
 20
8.671600964
 10
-4.2163407755
 20
8.6850009463
 10
-4.2402452571
 20
8.6987986176
 10
-4.26413532
 20
8.7129879781
 10
-4.2880001532
 20
8.7275630284
 10
-4.3118289451
 20
8.742517769
 10
-4.335613222
 20
8.7578478777
 10
-4.3593538605
 20
8.7735557421
 10
-4.3830540746
 20
8.7896454275
 10
-4.4067170786
 20
8.8061209989
 10
-4.4303460866
 20
8.8229865214
 10
-4.4539443126
 20
8.8402460601
 10
-4.4775149709
 20
8.8579036802
  0
LWPOLYLINE
  5
2DF
100
AcDbEntity
  8
0
100
AcDbPolyline
 62
253
  6
CONTINUOUS
 90
43
 70
0
 10
-3.8830735527
 20
10.710621597
 10
-3.8723578431
 20
10.702235489
 10
-3.8617740908
 20
10.6935330479
 10
-3.8513176398
 20
10.6845165524
 10
-3.8409838345
 20
10.6751882814
 10
-3.830768019
 20
10.6655505136
 10
-3.8206655374
 20
10.6556055278
 10
-3.8106742028
 20
10.6453571606
 10
-3.8008017031
 20
10.6348154796
 10
-3.791058195
 20
10.6239921105
 10
-3.7814538353
 20
10.6128986788
 10
-3.7719987807
 20
10.6015468099
 10
-3.762703188
 20
10.5899481295
 10
-3.7535768926
 20
10.578113633
 10
-3.7446284444
 20
10.5660517955
 10
-3.7358660718
 20
10.5537704624
 10
-3.7272980033
 20
10.5412774787
 10
-3.7189324675
 20
10.5285806896
 10
-3.7107776928
 20
10.5156879402
 10
-3.702841659
 20
10.5026078493
 10
-3.69513135
 20
10.4893521296
 10
-3.6876535012
 20
10.4759332677
 10
-3.6804148477
 20
10.4623637497
 10
-3.6734221249
 20
10.4486560622
 10
-3.666682068
 20
10.4348226915
 10
-3.6602006644
 20
10.4208758806
 10
-3.6539809101
 20
10.4068268995
 10
-3.6480250532
 20
10.3926867747
 10
-3.6423353419
 20
10.3784665327
 10
-3.6369140244
 20
10.3641772003
 10
-3.6317633488
 20
10.3498298039
 10
-3.6268860183
 20
10.3354364883
 10
-3.6222865556
 20
10.3210138714
 10
-3.6179699387
 20
10.3065796891
 10
-3.6139411452
 20
10.2921516773
 10
-3.6102051531
 20
10.2777475722
 10
-3.6067669401
 20
10.2633851097
 10
-3.6036312138
 20
10.2490783807
 10
-3.6008016007
 20
10.2348268956
 10
-3.5982814574
 20
10.22062652
 10
-3.5960741402
 20
10.2064731192
 10
-3.5941830054
 20
10.1923625585
 10
-3.5926114096
 20
10.1782907035
  0
LWPOLYLINE
  5
2E0
100
AcDbEntity
  8
0
100
AcDbPolyline
 62
253
  6
CONTINUOUS
 90
31
 70
0
 10
-1.1515254263
 20
9.4015378313
 10
-1.1601013076
 20
9.4088516233
 10
-1.1686626648
 20
9.415940945
 10
-1.1772232379
 20
9.4228166783
 10
-1.1857967671
 20
9.4294897049
 10
-1.1943969926
 20
9.4359709066
 10
-1.2030376546
 20
9.4422711654
 10
-1.2117324933
 20
9.448401363
 10
-1.2204921162
 20
9.4543691656
 10
-1.2293145999
 20
9.4601693778
 10
-1.2381948883
 20
9.4657935881
 10
-1.2471279256
 20
9.4712333856
 10
-1.2561086556
 20
9.4764803589
 10
-1.2651320223
 20
9.4815260969
 10
-1.2741929697
 20
9.4863621885
 10
-1.2821481338
 20
9.4904153064
 10
-1.2901247038
 20
9.4942965934
 10
-1.2981191841
 20
9.4980011689
 10
-1.3061280789
 20
9.5015241523
 10
-1.3141478925
 20
9.5048606631
 10
-1.3221751291
 20
9.5080058208
 10
-1.330206293
 20
9.5109547447
 10
-1.3382378885
 20
9.5137025544
 10
-1.3462680411
 20
9.5162461659
 10
-1.3543013621
 20
9.5185896816
 10
-1.3623440839
 20
9.5207390005
 10
-1.370402439
 20
9.5227000217
 10
-1.3784826598
 20
9.5244786442
 10
-1.3865909788
 20
9.5260807671
 10
-1.3947336285
 20
9.5275122894
 10
-1.4029168415
 20
9.5287791101
  0
LWPOLYLINE
  5
2E1
100
AcDbEntity
  8
0
100
AcDbPolyline
 62
253
  6
CONTINUOUS
 90
33
 70
0
 10
-2.4641074432
 20
10.1520695669
 10
-2.4736441314
 20
10.1610071659
 10
-2.4832414557
 20
10.169696604
 10
-2.4928990872
 20
10.1781414833
 10
-2.5026166968
 20
10.1863454057
 10
-2.5123939555
 20
10.1943119731
 10
-2.5222302089
 20
10.2020439306
 10
-2.5321235018
 20
10.2095405948
 10
-2.5420715536
 20
10.2168004255
 10
-2.5520720837
 20
10.2238218823
 10
-2.5621228116
 20
10.2306034249
 10
-2.5722214622
 20
10.2371432945
 10
-2.5823657824
 20
10.2434388576
 10
-2.5925535248
 20
10.2494872623
 10
-2.6027824416
 20
10.2552856566
 10
-2.6130502854
 20
10.2608311886
 10
-2.6216352015
 20
10.2652567657
 10
-2.6302458807
 20
10.2695002137
 10
-2.638882614
 20
10.273556983
 10
-2.6475456926
 20
10.2774225237
 10
-2.6562354078
 20
10.2810922863
 10
-2.6649520507
 20
10.284561721
 10
-2.6736950493
 20
10.2878269005
 10
-2.6824603789
 20
10.2908863867
 10
-2.6912431515
 20
10.2937393638
 10
-2.7000384793
 20
10.2963850162
 10
-2.7088414743
 20
10.298822528
 10
-2.7176472485
 20
10.3010510837
 10
-2.7282133929
 20
10.3034511858
 10
-2.7387826271
 20
10.3055646437
 10
-2.7493610775
 20
10.3074068847
 10
-2.7599548703
 20
10.3089933362
 10
-2.7705701317
 20
10.3103394256
  0
LWPOLYLINE
  5
2E2
100
AcDbEntity
  8
ASSI
100
AcDbPolyline
 62
253
  6
CONTINUOUS
 90
55
 70
0
 10
6.1323195642
 20
12.697534322
 10
6.1316199999
 20
12.7091676351
 10
6.1306331773
 20
12.7209693562
 10
6.1293599295
 20
12.7329295229
 10
6.1278013311
 20
12.7450380394
 10
6.125958698
 20
12.7572846845
 10
6.1238335854
 20
12.7696591202
 10
6.1214277874
 20
12.782150901
 10
6.1187433346
 20
12.7947494821
 10
6.1157824932
 20
12.8074442287
 10
6.1125477625
 20
12.8202244246
 10
6.109041873
 20
12.8330792818
 10
6.1052677842
 20
12.8459979489
 10
6.1012286819
 20
12.8589695209
 10
6.0969279756
 20
12.871983048
 10
6.0923692957
 20
12.8850275452
 10
6.0875564904
 20
12.898092001
 10
6.0824936223
 20
12.9111653875
 10
6.0771849651
 20
12.9242366688
 10
6.071635
 20
12.9372948111
 10
6.065848412
 20
12.9503287915
 10
6.0598300857
 20
12.9633276077
 10
6.0535851013
 20
12.976280287
 10
6.0471187306
 20
12.9891758954
 10
6.0404364319
 20
13.0020035474
 10
6.033543846
 20
13.0147524148
 10
6.0264467912
 20
13.0274117358
 10
6.0191512583
 20
13.0399708242
 10
6.0116634057
 20
13.0524190786
 10
6.0039895542
 20
13.0647459908
 10
5.9961361815
 20
13.0769411554
 10
5.988109917
 20
13.088994278
 10
5.9799175358
 20
13.1008951842
 10
5.9715659535
 20
13.112633828
 10
5.9630622198
 20
13.1242003004
 10
5.9544135131
 20
13.1355848378
 10
5.945627134
 20
13.1467778301
 10
5.9367104994
 20
13.157769829
 10
5.9276711362
 20
13.1685515556
 10
5.9185166747
 20
13.1791139089
 10
5.9092548426
 20
13.1894479727
 10
5.899893458
 20
13.1995450237
 10
5.8904404233
 20
13.2093965387
 10
5.880903718
 20
13.2189942017
 10
5.8712913924
 20
13.228329911
 10
5.8616115607
 20
13.2373957859
 10
5.8518723937
 20
13.2461841737
 10
5.8420821128
 20
13.2546876559
 10
5.8322489822
 20
13.2628990542
 10
5.8223813025
 20
13.2708114373
 10
5.8124874031
 20
13.2784181259
 10
5.802575636
 20
13.2857126991
 10
5.7926543679
 20
13.2926889993
 10
5.7827319738
 20
13.2993411374
 10
5.7728168294
 20
13.3056634983
  0
LWPOLYLINE
  5
2E3
100
AcDbEntity
  8
ASSI
100
AcDbPolyline
 62
253
  6
CONTINUOUS
 90
30
 70
0
 10
6.1323195642
 20
-22.5047923187
 10
6.1316199999
 20
-22.5168457422
 10
6.1306331773
 20
-22.528710763
 10
6.1293599294
 20
-22.5403773654
 10
6.127801331
 20
-22.5518357013
 10
6.1259586978
 20
-22.5630760983
 10
6.1238335852
 20
-22.574089068
 10
6.1214277871
 20
-22.584865314
 10
6.1187433342
 20
-22.5953957397
 10
6.1157824927
 20
-22.605671456
 10
6.1125477619
 20
-22.6156837889
 10
6.1090418724
 20
-22.6254242866
 10
6.1052677834
 20
-22.6348847268
 10
6.101228681
 20
-22.6440571237
 10
6.0969279746
 20
-22.6529337344
 10
6.0923692947
 20
-22.6615070661
 10
6.0875564892
 20
-22.6697698816
 10
6.082493621
 20
-22.677715206
 10
6.0771849637
 20
-22.6853363324
 10
6.0716349985
 20
-22.6926268276
 10
6.0658484104
 20
-22.6995805374
 10
6.0598300841
 20
-22.7061915919
 10
6.0535850996
 20
-22.7124544106
 10
6.0471187288
 20
-22.7183637067
 10
6.04043643
 20
-22.7239144921
 10
6.0335438441
 20
-22.7291020812
 10
6.0264467892
 20
-22.7339220948
 10
6.0191512562
 20
-22.7383704644
 10
6.0116634036
 20
-22.7424434348
 10
6.0076679848
 20
-22.7444252243
  0
LINE
  5
2E4
100
AcDbEntity
  8
ASSI
100
AcDbLine
 62
253
  6
CONTINUOUS
 10
8.6448624063
 20
-3.4351570428
 11
4.8316382222
 21
-5.5254106133
  0
LINE
  5
2E5
100
AcDbEntity
  8
ASSI
100
AcDbLine
 62
253
  6
CONTINUOUS
 10
8.8216929844
 20
-3.7413199773
 11
5.003681863
 21
-5.8341975511
  0
LWPOLYLINE
  5
2E6
100
AcDbEntity
  8
ASSI
100
AcDbPolyline
 62
253
  6
CONTINUOUS
 90
55
 70
0
 10
4.8316382222
 20
-5.5254106133
 10
4.8263631933
 20
-5.5282211747
 10
4.820963159
 20
-5.5309398774
 10
4.8154381192
 20
-5.5335667212
 10
4.8097833274
 20
-5.5361037245
 10
4.8040035302
 20
-5.538548869
 10
4.7981129673
 20
-5.5408960999
 10
4.7921114381
 20
-5.5431451414
 10
4.7859991432
 20
-5.5452962693
 10
4.7797909253
 20
-5.5473442565
 10
4.7734865648
 20
-5.5492888465
 10
4.7670862812
 20
-5.5511302957
 10
4.7606055759
 20
-5.5528641456
 10
4.7540442524
 20
-5.5544901367
 10
4.747402507
 20
-5.5560085285
 10
4.7406964301
 20
-5.5574156415
 10
4.7339258599
 20
-5.5587112067
 10
4.727090958
 20
-5.5598954932
 10
4.7202083
 20
-5.5609656285
 10
4.7132777732
 20
-5.5619213348
 10
4.7062994901
 20
-5.56276289
 10
4.699290364
 20
-5.5634882547
 10
4.6922503217
 20
-5.5640971472
 10
4.6851794364
 20
-5.5645898492
 10
4.67809484
 20
-5.5649651672
 10
4.6709964969
 20
-5.5652228165
 10
4.6638844429
 20
-5.5653630818
 10
4.6567759168
 20
-5.5653856229
 10
4.6496709265
 20
-5.5652901541
 10
4.6425694643
 20
-5.5650769611
 10
4.6354887453
 20
-5.5647465613
 10
4.6284288232
 20
-5.5642986705
 10
4.6213896443
 20
-5.5637335728
 10
4.6143882641
 20
-5.5630526378
 10
4.6074247724
 20
-5.5622555845
 10
4.6004990792
 20
-5.561342694
 10
4.5936279698
 20
-5.5603161788
 10
4.5868115734
 20
-5.5591757624
 10
4.5800497607
 20
-5.5579217214
 10
4.573358929
 20
-5.5565570977
 10
4.5667392562
 20
-5.555081624
 10
4.5601905644
 20
-5.5534955675
 10
4.5537287173
 20
-5.551802772
 10
4.5473539267
 20
-5.5500029797
 10
4.5410659808
 20
-5.5480964484
 10
4.534880108
 20
-5.5460877942
 10
4.5287965432
 20
-5.5439767633
 10
4.5228150514
 20
-5.5417636095
 10
4.5169501568
 20
-5.5394537106
 10
4.5112020813
 20
-5.5370467954
 10
4.5055706028
 20
-5.5345431351
 10
4.5000695797
 20
-5.5319489209
 10
4.4947036312
 20
-5.5292662167
 10
4.489468138
 20
-5.5264929587
 10
4.4843631001
 20
-5.5236291468
  0
LINE
  5
2E7
100
AcDbEntity
  8
ASSI
100
AcDbLine
 62
253
  6
CONTINUOUS
 10
5.003681863
 20
-5.1884283643
 11
8.8216929844
 21
-3.169899572
  0
LINE
  5
2E8
100
AcDbEntity
  8
ASSI
100
AcDbLine
 62
7
  6
CONTINUOUS
 10
4.9500274827
 20
-5.3038737688
 11
8.7672249286
 21
-3.2857751553
  0
LWPOLYLINE
  5
2E9
100
AcDbEntity
  8
ASSI
100
AcDbPolyline
 62
253
  6
CONTINUOUS
 90
55
 70
0
 10
5.003681863
 20
-5.8341975573
 10
4.9931447102
 20
-5.8397666494
 10
4.9823402406
 20
-5.8451603224
 10
4.971277194
 20
-5.8503742503
 10
4.9599645416
 20
-5.8554042789
 10
4.9484114131
 20
-5.8602463505
 10
4.9366270846
 20
-5.8648965028
 10
4.9246210284
 20
-5.869351028
 10
4.9124030072
 20
-5.873606333
 10
4.8999830032
 20
-5.8776588663
 10
4.88737111
 20
-5.881505372
 10
4.8745774874
 20
-5.8851427917
 10
4.8616124534
 20
-5.888568123
 10
4.8484864881
 20
-5.8917786304
 10
4.8352102169
 20
-5.89477175
 10
4.8217943694
 20
-5.8975449944
 10
4.8082497875
 20
-5.9000961533
 10
4.7945874376
 20
-5.9024231948
 10
4.7808183927
 20
-5.9045241678
 10
4.7669537977
 20
-5.9063974027
 10
4.7530048619
 20
-5.9080414185
 10
4.7389828704
 20
-5.9094548242
 10
4.7248991697
 20
-5.9106365048
 10
4.7107651491
 20
-5.9115855368
 10
4.6965922325
 20
-5.9123010954
 10
4.6823918805
 20
-5.9127826282
 10
4.6681755845
 20
-5.9130297749
 10
4.6539548478
 20
-5.913042282
 10
4.639741174
 20
-5.9128201634
 10
4.625546061
 20
-5.9123636264
 10
4.6113809947
 20
-5.9116729917
 10
4.5972574379
 20
-5.9107488398
 10
4.5831868111
 20
-5.9095919438
 10
4.5691804865
 20
-5.9082031946
 10
4.5552497908
 20
-5.9065837338
 10
4.5414059964
 20
-5.9047348942
 10
4.5276603028
 20
-5.9026581327
 10
4.5140238228
 20
-5.9003551436
 10
4.500507594
 20
-5.8978278111
 10
4.4871225698
 20
-5.8950781503
 10
4.4738795872
 20
-5.8921084017
 10
4.4607893478
 20
-5.888920984
 10
4.4478624292
 20
-5.8855184457
 10
4.4351092948
 20
-5.8819035514
 10
4.4225402535
 20
-5.8780792385
 10
4.4101654424
 20
-5.8740485693
 10
4.3979948314
 20
-5.869814795
 10
4.3860383096
 20
-5.8653813644
 10
4.3743056417
 20
-5.8607518842
 10
4.3628063661
 20
-5.8559301285
 10
4.3515497266
 20
-5.8509199893
 10
4.3405447618
 20
-5.8457254831
 10
4.3298003532
 20
-5.8403508005
 10
4.3193252131
 20
-5.8348003059
 10
4.3091278147
 20
-5.8290784905
  0
LWPOLYLINE
  5
2EA
100
AcDbEntity
  8
0
100
AcDbPolyline
 62
253
  6
CONTINUOUS
 90
90
 70
0
 10
-3.9232752547
 20
11.066150221
 10
-3.924165481
 20
11.0665638453
 10
-3.9250423052
 20
11.0668041226
 10
-3.9259044616
 20
11.0668974435
 10
-3.927169602
 20
11.0668176819
 10
-3.9284076788
 20
11.0665441449
 10
-3.9296252064
 20
11.0661410309
 10
-3.9308196095
 20
11.0656193368
 10
-3.9319858573
 20
11.0649778118
 10
-3.9331181849
 20
11.0642194156
 10
-3.9345681513
 20
11.0630338583
 10
-3.9359525905
 20
11.0616601895
 10
-3.937276852
 20
11.0601109355
 10
-3.9385471942
 20
11.0583988843
 10
-3.9397735109
 20
11.0565378692
 10
-3.9409666047
 20
11.0545419849
 10
-3.9421351411
 20
11.0524218351
 10
-3.9432792369
 20
11.0501740582
 10
-3.944396872
 20
11.0477918016
 10
-3.945486214
 20
11.0452688823
 10
-3.9465461815
 20
11.0426017963
 10
-3.9475758814
 20
11.0397877092
 10
-3.9485746599
 20
11.0368234882
 10
-3.9495428219
 20
11.0337048074
 10
-3.950480912
 20
11.030427042
 10
-3.9513899895
 20
11.0269862611
 10
-3.9522731729
 20
11.0233813077
 10
-3.9531340953
 20
11.0196117183
 10
-3.9539761157
 20
11.0156760842
 10
-3.9548014978
 20
11.011569215
 10
-3.9556122314
 20
11.0072849752
 10
-3.9564097326
 20
11.0028151063
 10
-3.9571931232
 20
10.9981428587
 10
-3.9579609514
 20
10.9932493602
 10
-3.958711656
 20
10.9881173163
 10
-3.9594432381
 20
10.9827357445
 10
-3.9601535894
 20
10.9770952402
 10
-3.960840204
 20
10.9711897831
 10
-3.9614989864
 20
10.9650268895
 10
-3.9621254432
 20
10.9586174602
 10
-3.9627153032
 20
10.9519815417
 10
-3.9632651818
 20
10.9451757641
 10
-3.9637719162
 20
10.9382659033
 10
-3.9642327137
 20
10.9313172838
 10
-3.9646462615
 20
10.924393424
 10
-3.9650116167
 20
10.9175573909
 10
-3.965327743
 20
10.9108612408
 10
-3.965593231
 20
10.9043129876
 10
-3.9658065775
 20
10.8979096346
 10
-3.9659666909
 20
10.8916484268
 10
-3.9660741243
 20
10.8855275766
 10
-3.9661298419
 20
10.8795455382
 10
-3.9661347954
 20
10.8736998956
 10
-3.9660898851
 20
10.8679847523
 10
-3.9659959989
 20
10.8623933417
 10
-3.9658542211
 20
10.8569199899
 10
-3.9656664238
 20
10.8515633944
 10
-3.9654346755
 20
10.8463233458
 10
-3.9651607301
 20
10.8411990365
 10
-3.9648450823
 20
10.8361872676
 10
-3.9644879121
 20
10.8312842425
 10
-3.9640882945
 20
10.8264867249
 10
-3.9636408843
 20
10.8217937216
 10
-3.9631392316
 20
10.8172047998
 10
-3.9625775067
 20
10.8127188636
 10
-3.9619523607
 20
10.8083321642
 10
-3.9612610649
 20
10.8040402895
 10
-3.9605016365
 20
10.7998401002
 10
-3.9596750759
 20
10.7957335478
 10
-3.9587831294
 20
10.7917238567
 10
-3.9578271056
 20
10.7878134781
 10
-3.9568065629
 20
10.7840017709
 10
-3.9557206222
 20
10.7802873209
 10
-3.9548614182
 20
10.7775662145
 10
-3.9539567502
 20
10.774908963
 10
-3.9529978564
 20
10.7723221683
 10
-3.9519736589
 20
10.7697990652
 10
-3.9508749666
 20
10.7673348946
 10
-3.9497024486
 20
10.7649462853
 10
-3.9484625919
 20
10.7626583601
 10
-3.9471719035
 20
10.7604997618
 10
-3.9458322436
 20
10.758467257
 10
-3.9451380894
 20
10.7574987272
 10
-3.9444226846
 20
10.7565759778
 10
-3.9436823353
 20
10.755715539
 10
-3.9429159851
 20
10.754936673
 10
-3.9425240844
 20
10.7545853363
 10
-3.942127867
 20
10.7542638595
 10
-3.941729166
 20
10.7539755487
 10
-3.9413303313
 20
10.7537232967
  0
LWPOLYLINE
  5
2EB
100
AcDbEntity
  8
0
100
AcDbPolyline
 62
253
  6
CONTINUOUS
 90
94
 70
0
 10
-4.3232150889
 20
10.9742187696
 10
-4.322297339
 20
10.9737915139
 10
-4.3213949066
 20
10.9735429967
 10
-4.3205068248
 20
10.9734449945
 10
-4.3198499657
 20
10.973453458
 10
-4.3192024245
 20
10.9735198104
 10
-4.3179357123
 20
10.9737853375
 10
-4.3166917513
 20
10.9741821101
 10
-4.3154692087
 20
10.974706119
 10
-4.3142789803
 20
10.9753554134
 10
-4.3131254715
 20
10.976127023
 10
-4.3116469492
 20
10.9773400815
 10
-4.3102345033
 20
10.9787496925
 10
-4.3088850957
 20
10.9803393136
 10
-4.3079115247
 20
10.9816396822
 10
-4.3069640817
 20
10.9830248585
 10
-4.3060361678
 20
10.9844886041
 10
-4.3051252783
 20
10.9860282979
 10
-4.3042303768
 20
10.9876429664
 10
-4.3033522077
 20
10.9893346092
 10
-4.3024918212
 20
10.9911058741
 10
-4.3016497092
 20
10.9929590286
 10
-4.3005559397
 20
10.9955605532
 10
-4.2994961812
 20
10.9983137525
 10
-4.2984713298
 20
11.0012208579
 10
-4.2974818439
 20
11.0042844429
 10
-4.2965264293
 20
11.00750845
 10
-4.2956033538
 20
11.0108971637
 10
-4.2947103601
 20
11.0144539353
 10
-4.2938430904
 20
11.0181783821
 10
-4.2929966615
 20
11.0220691883
 10
-4.2921670654
 20
11.0261270124
 10
-4.2913537941
 20
11.0303604114
 10
-4.2905572145
 20
11.0347799165
 10
-4.2897778057
 20
11.0393978351
 10
-4.2890164967
 20
11.0442335779
 10
-4.2882743285
 20
11.0493083318
 10
-4.2875527331
 20
11.054640084
 10
-4.2868547055
 20
11.0602340248
 10
-4.2861836313
 20
11.0660921448
 10
-4.2855429097
 20
11.0722127403
 10
-4.2849359942
 20
11.0785793289
 10
-4.2843663517
 20
11.0851717338
 10
-4.2838370675
 20
11.0919589958
 10
-4.2833497009
 20
11.0988670277
 10
-4.2829054299
 20
11.1058109598
 10
-4.2825055658
 20
11.1127139979
 10
-4.2821519538
 20
11.1195316483
 10
-4.2818465727
 20
11.1262274924
 10
-4.2815909753
 20
11.1327723961
 10
-4.2813850101
 20
11.1391663631
 10
-4.2812280993
 20
11.1454166813
 10
-4.2811195596
 20
11.1515297418
 10
-4.2810582837
 20
11.157508348
 10
-4.2810430585
 20
11.1633544062
 10
-4.2810727639
 20
11.1690702594
 10
-4.2811466519
 20
11.174659998
 10
-4.281264067
 20
11.1801281492
 10
-4.2814240628
 20
11.1854786597
 10
-4.2816245263
 20
11.1907131548
 10
-4.2818630533
 20
11.1958326792
 10
-4.2821380594
 20
11.2008388321
 10
-4.2824512398
 20
11.2057354295
 10
-4.2828051097
 20
11.2105268422
 10
-4.2832025514
 20
11.2152166813
 10
-4.2836479159
 20
11.219805522
 10
-4.2841459214
 20
11.22429318
 10
-4.2847007396
 20
11.2286802513
 10
-4.2853143554
 20
11.2329704518
 10
-4.2859882074
 20
11.2371682776
 10
-4.2867232897
 20
11.2412768867
 10
-4.2875188194
 20
11.2452940841
 10
-4.2883735692
 20
11.249216337
 10
-4.2890524903
 20
11.2520940189
 10
-4.2897619168
 20
11.254917366
 10
-4.2905011049
 20
11.2576875947
 10
-4.2912747967
 20
11.2604065498
 10
-4.2920891508
 20
11.2630741639
 10
-4.2929505041
 20
11.2656820929
 10
-4.2938658621
 20
11.2682229491
 10
-4.2948447256
 20
11.2707014486
 10
-4.2958951604
 20
11.2731210894
 10
-4.2970169978
 20
11.2754683937
 10
-4.2982053387
 20
11.2777229576
 10
-4.299447286
 20
11.2798617427
 10
-4.3007424131
 20
11.2818886954
 10
-4.30141616
 20
11.2828580968
 10
-4.3021131375
 20
11.2837835418
 10
-4.3028377897
 20
11.2846481116
 10
-4.3035916151
 20
11.2854313142
 10
-4.3039784357
 20
11.2857842915
 10
-4.3043702269
 20
11.2861066564
 10
-4.3047649559
 20
11.2863948194
 10
-4.3051600124
 20
11.2866456939
  0
LINE
  5
2EC
100
AcDbEntity
  8
ASSI
100
AcDbLine
 62
7
  6
CONTINUOUS
 10
8.2703971235
 20
13.9737399805
 11
8.8216929844
 21
7.2401508513
  0
LINE
  5
2ED
100
AcDbEntity
  8
ASSI
100
AcDbLine
 62
7
  6
CONTINUOUS
 10
8.8216929844
 20
-3.7413199773
 11
8.8216929844
 21
-14.1513704006
  0
LINE
  5
2EE
100
AcDbEntity
  8
ASSI
100
AcDbLine
 62
7
  6
CONTINUOUS
 10
8.8216929844
 20
-3.169899572
 11
8.8216929844
 21
7.2401508513
  0
LINE
  5
2EF
100
AcDbEntity
  8
ASSI
100
AcDbLine
 62
7
  6
CONTINUOUS
 10
8.2703971235
 20
-21.478619747
 11
8.8216929844
 21
-14.1513704006
  0
LWPOLYLINE
  5
2F0
100
AcDbEntity
  8
0
100
AcDbPolyline
 62
253
  6
CONTINUOUS
 90
43
 70
0
 10
-4.4038113295
 20
11.3289525985
 10
-4.4223880711
 20
11.33591198
 10
-4.4408206749
 20
11.3421167596
 10
-4.4591167266
 20
11.34757877
 10
-4.4772838116
 20
11.3523098439
 10
-4.4953295156
 20
11.3563218141
 10
-4.5132614242
 20
11.3596265134
 10
-4.5310823503
 20
11.3622336559
 10
-4.5487760164
 20
11.3641444823
 10
-4.5663213724
 20
11.3653581143
 10
-4.5836973681
 20
11.3658736741
 10
-4.6008829536
 20
11.3656902836
 10
-4.6178570786
 20
11.3648070647
 10
-4.6345998676
 20
11.3632228702
 10
-4.6510961427
 20
11.3609354758
 10
-4.6673319007
 20
11.3579423878
 10
-4.6832931384
 20
11.3542411127
 10
-4.6989658524
 20
11.3498291569
 10
-4.7143360395
 20
11.3447040268
 10
-4.7293897923
 20
11.3388648431
 10
-4.7441135869
 20
11.3323171842
 10
-4.7584939955
 20
11.3250682427
 10
-4.7725175899
 20
11.3171252112
 10
-4.7861709424
 20
11.3084952823
 10
-4.7994406249
 20
11.2991856489
 10
-4.81231446
 20
11.2892044885
 10
-4.8247852728
 20
11.27856392
 10
-4.8368471388
 20
11.267277047
 10
-4.8484941338
 20
11.2553569733
 10
-4.8597203333
 20
11.2428168028
 10
-4.8705198129
 20
11.2296696391
 10
-4.8808857325
 20
11.2159296257
 10
-4.8908075885
 20
11.2016150635
 10
-4.9002739618
 20
11.1867452933
 10
-4.9092734329
 20
11.1713396555
 10
-4.9177945828
 20
11.1554174909
 10
-4.9258259921
 20
11.13899814
 10
-4.9333574213
 20
11.1220955783
 10
-4.9403833496
 20
11.1047023206
 10
-4.946899436
 20
11.0868055164
 10
-4.9529013395
 20
11.0683923154
 10
-4.9583847191
 20
11.0494498674
 10
-4.9633452338
 20
11.0299653217
  0
LINE
  5
2F1
100
AcDbEntity
  8
ASSI
100
AcDbLine
 62
253
  6
CONTINUOUS
 10
5.0990569859
 20
12.2363646148
 11
-9.7581316197
 21
20.8147191114
  0
LWPOLYLINE
  5
2F2
100
AcDbEntity
  8
ASSI
100
AcDbPolyline
 62
253
  6
CONTINUOUS
 90
55
 70
0
 10
5.0695507131
 20
-13.224558847
 10
5.0590153031
 20
-13.2302924107
 10
5.0482125735
 20
-13.2358505427
 10
5.037151263
 20
-13.241228747
 10
5.0258403193
 20
-13.2464226729
 10
5.014288892
 20
-13.2514281192
 10
5.0025063253
 20
-13.2562410366
 10
4.9905021505
 20
-13.260857532
 10
4.978286078
 20
-13.2652738709
 10
4.9658679896
 20
-13.2694864809
 10
4.9532579306
 20
-13.2734919543
 10
4.9404661016
 20
-13.277287051
 10
4.9275028502
 20
-13.280868701
 10
4.9143786626
 20
-13.2842340071
 10
4.9011041552
 20
-13.287380247
 10
4.8876900662
 20
-13.2903048757
 10
4.8741472465
 20
-13.2930055273
 10
4.8604866512
 20
-13.2954800171
 10
4.8467193305
 20
-13.2977263437
 10
4.8328564213
 20
-13.2997426898
 10
4.8189091376
 20
-13.3015274244
 10
4.8048887615
 20
-13.3030791037
 10
4.7908066346
 20
-13.3043964726
 10
4.7766741481
 20
-13.3054784654
 10
4.7625027342
 20
-13.306324207
 10
4.7483038563
 20
-13.306933013
 10
4.7340890004
 20
-13.3073043912
 10
4.7198696651
 20
-13.3074380409
 10
4.7056573527
 20
-13.3073338543
 10
4.69146356
 20
-13.3069919154
 10
4.6772997686
 20
-13.3064125009
 10
4.6631774358
 20
-13.3055960796
 10
4.6491079857
 20
-13.3045433118
 10
4.6351027991
 20
-13.3032550492
 10
4.6211732054
 20
-13.3017323338
 10
4.6073304724
 20
-13.2999763974
 10
4.5935857978
 20
-13.2979886604
 10
4.5799503
 20
-13.2957707308
 10
4.5664350091
 20
-13.2933244027
 10
4.5530508579
 20
-13.290651655
 10
4.5398086731
 20
-13.2877546496
 10
4.5267191666
 20
-13.2846357302
 10
4.5137929268
 20
-13.2812974196
 10
4.5010404101
 20
-13.2777424182
 10
4.4884719322
 20
-13.2739736019
 10
4.4760976601
 20
-13.2699940192
 10
4.4639276035
 20
-13.2658068893
 10
4.4519716072
 20
-13.2614155994
 10
4.4402393426
 20
-13.2568237016
 10
4.4287403001
 20
-13.2520349104
 10
4.4174837817
 20
-13.2470530995
 10
4.4064788929
 20
-13.2418822989
 10
4.3957345359
 20
-13.2365266914
 10
4.385259402
 20
-13.2309906092
 10
4.3750619647
 20
-13.2252785305
  0
LINE
  5
2F3
100
AcDbEntity
  8
ASSI
100
AcDbLine
 62
7
  6
CONTINUOUS
 10
5.8936247111
 20
15.7167047658
 11
5.2209178903
 21
15.586822282
  0
LINE
  5
2F4
100
AcDbEntity
  8
ASSI
100
AcDbLine
 62
253
  6
CONTINUOUS
 10
5.7728168294
 20
13.3056634983
 11
-9.1074962266
 21
21.8973697627
  0
LINE
  5
2F5
100
AcDbEntity
  8
ASSI
100
AcDbLine
 62
7
  6
CONTINUOUS
 10
5.027732725
 20
15.6124311172
 11
2.6454476289
 21
16.9879326746
  0
LINE
  5
2F6
100
AcDbEntity
  8
ASSI
100
AcDbLine
 62
7
  6
CONTINUOUS
 10
-2.8918632243
 20
20.1851065624
 11
-5.2741483203
 21
21.5606081199
  0
LINE
  5
2F7
100
AcDbEntity
  8
ASSI
100
AcDbLine
 62
7
  6
CONTINUOUS
 10
-7.137459134
 20
23.2406892601
 11
-5.14566088
 21
22.0906499113
  0
LINE
  5
2F8
100
AcDbEntity
  8
ASSI
100
AcDbLine
 62
7
  6
CONTINUOUS
 10
-2.0259712382
 20
20.289380211
 11
2.7739350693
 21
17.517974466
  0
LINE
  5
2F9
100
AcDbEntity
  8
ASSI
100
AcDbLine
 62
7
  6
CONTINUOUS
 10
5.8936247111
 20
15.7167047658
 11
7.8854229651
 21
14.566665417
  0
LINE
  5
2FA
100
AcDbEntity
  8
ASSI
100
AcDbLine
 62
7
  6
CONTINUOUS
 10
-2.0259712382
 20
20.289380211
 11
-2.698678059
 21
20.1594977273
  0
LWPOLYLINE
  5
2FB
100
AcDbEntity
  8
ASSI
100
AcDbPolyline
 62
253
  6
CONTINUOUS
 90
55
 70
0
 10
5.7896585299
 20
-22.3424736566
 10
5.7792349558
 20
-22.3496584664
 10
5.768543838
 20
-22.3566665824
 10
5.7575938291
 20
-22.3634923326
 10
5.7463937913
 20
-22.3701301928
 10
5.734952789
 20
-22.3765747908
 10
5.7232800818
 20
-22.3828209108
 10
5.7113851166
 20
-22.3888634977
 10
5.6992775205
 20
-22.394697661
 10
5.6869670923
 20
-22.400318679
 10
5.6744637953
 20
-22.4057220025
 10
5.6617777487
 20
-22.4109032584
 10
5.6489192197
 20
-22.4158582533
 10
5.635898615
 20
-22.4205829771
 10
5.6227264726
 20
-22.4250736058
 10
5.609413453
 20
-22.4293265052
 10
5.5959703308
 20
-22.4333382333
 10
5.5824079858
 20
-22.4371055432
 10
5.5687373945
 20
-22.4406253859
 10
5.5549696208
 20
-22.4438949128
 10
5.5411158074
 20
-22.4469114777
 10
5.5271871665
 20
-22.4496726393
 10
5.513194971
 20
-22.4521761628
 10
5.499150545
 20
-22.4544200222
 10
5.4850652551
 20
-22.4564024013
 10
5.470950501
 20
-22.4581216958
 10
5.4568177061
 20
-22.4595765142
 10
5.4426783084
 20
-22.4607656792
 10
5.4285437513
 20
-22.4616882281
 10
5.4144254743
 20
-22.4623434146
 10
5.4003349037
 20
-22.4627307082
 10
5.3862834434
 20
-22.4628497955
 10
5.3722824656
 20
-22.4627005801
 10
5.3583433016
 20
-22.4622831829
 10
5.3444772329
 20
-22.4615979415
 10
5.3306954815
 20
-22.4606454107
 10
5.3170092015
 20
-22.4594263613
 10
5.3034294694
 20
-22.4579417799
 10
5.2899672758
 20
-22.456192868
 10
5.276633516
 20
-22.4541810411
 10
5.2634389812
 20
-22.4519079274
 10
5.2503943503
 20
-22.4493753666
 10
5.2375101806
 20
-22.4465854083
 10
5.2247968995
 20
-22.4435403106
 10
5.2122647964
 20
-22.4402425379
 10
5.1999240137
 20
-22.4366947592
 10
5.1877845391
 20
-22.4328998458
 10
5.1758561976
 20
-22.4288608691
 10
5.164148643
 20
-22.4245810978
 10
5.1526713505
 20
-22.4200639958
 10
5.141433609
 20
-22.4153132188
 10
5.1304445136
 20
-22.4103326118
 10
5.1197129579
 20
-22.4051262056
 10
5.1092476274
 20
-22.3996982141
 10
5.099056992
 20
-22.3940530302
  0
LINE
  5
2FC
100
AcDbEntity
  8
ASSI
100
AcDbLine
 62
253
  6
CONTINUOUS
 10
6.1323195642
 20
-22.5047923187
 11
8.2703971235
 21
-21.478619747
  0
LINE
  5
2FD
100
AcDbEntity
  8
ASSI
100
AcDbLine
 62
7
  6
CONTINUOUS
 10
6.0076679848
 20
-22.7444252243
 11
8.132202045
 21
-21.7247528692
  0
ELLIPSE
  5
2FE
100
AcDbEntity
  8
ASSI
100
AcDbEllipse
 62
7
  6
CONTINUOUS
 10
8.6448085358
 20
-3.6392512803
 30
0.0
 11
-0.1251346745
 21
0.2164781009
 31
0.0
 40
0.577507303
 41
-2.3566621664
 42
-0.7861703913
  0
ELLIPSE
  5
2FF
100
AcDbEntity
  8
ASSI
100
AcDbEllipse
 62
7
  6
CONTINUOUS
 10
7.9166865095
 20
-21.2735833825
 30
0.0
 11
-0.2149783503
 21
0.4514263066
 31
0.0
 40
0.6262155472
 41
-3.1396910161
 42
-2.3109372224
  0
ELLIPSE
  5
300
100
AcDbEntity
  8
0
100
AcDbEllipse
 62
253
  6
CONTINUOUS
 10
62.2161124833
 20
28.250348752
 30
0.0
 11
45.1072630453
 21
77.880322647
 31
0.0
 40
0.5764304623
 41
-3.8718130833
 42
-3.8564524497
  0
ELLIPSE
  5
301
100
AcDbEntity
  8
0
100
AcDbEllipse
 62
253
  6
CONTINUOUS
 10
415.9836361568
 20
-176.0105856687
 30
0.0
 11
6512.3512502285
 21
-3686.3024535106
 31
0.0
 40
0.0084624833
 41
-1.6301304816
 42
-1.6299581508
  0
ELLIPSE
  5
302
100
AcDbEntity
  8
0
100
AcDbEllipse
 62
253
  6
CONTINUOUS
 10
61.9327357128
 20
28.4139669477
 30
0.0
 11
44.6069244799
 21
78.1687931187
 31
0.0
 40
0.5806816307
 41
-3.8854914261
 42
-3.8599867774
  0
ELLIPSE
  5
303
100
AcDbEntity
  8
0
100
AcDbEllipse
 62
253
  6
CONTINUOUS
 10
62.1975785044
 20
28.2610500391
 30
0.0
 11
44.7232305729
 21
78.1018660683
 31
0.0
 40
0.5797023421
 41
-3.8846221392
 42
-3.8788041972
  0
ELLIPSE
  5
304
100
AcDbEntity
  8
0
100
AcDbEllipse
 62
253
  6
CONTINUOUS
 10
77.6201557444
 20
19.356247231
 30
0.0
 11
564.6589487704
 21
-247.5391834091
 31
0.0
 40
0.0962677638
 41
-1.6754547182
 42
-1.6753476473
  0
ELLIPSE
  5
305
100
AcDbEntity
  8
0
100
AcDbEllipse
 62
253
  6
CONTINUOUS
 10
74.125774549
 20
21.3738591384
 30
0.0
 11
462.6264361547
 21
-187.2786657529
 31
0.0
 40
0.116568257
 41
-1.6955624085
 42
-1.6954796538
  0
ELLIPSE
  5
306
100
AcDbEntity
  8
0
100
AcDbEllipse
 62
253
  6
CONTINUOUS
 10
76.6870715917
 20
19.8949983265
 30
0.0
 11
480.0080405775
 21
-197.59196688
 31
0.0
 40
0.1125472862
 41
-1.6954471755
 42
-1.6953232216
  0
ELLIPSE
  5
307
100
AcDbEntity
  8
0
100
AcDbEllipse
 62
253
  6
CONTINUOUS
 10
25.9821641954
 20
49.1713763754
 30
0.0
 11
463.6208302766
 21
-337.2452874521
 31
0.0
 40
0.1172879889
 41
-1.552284524
 42
-1.5522020034
  0
ELLIPSE
  5
308
100
AcDbEntity
  8
0
100
AcDbEllipse
 62
253
  6
CONTINUOUS
 10
91.568059586
 20
11.3029023612
 30
0.0
 11
464.4900643018
 21
-188.3856121967
 31
0.0
 40
0.1161240118
 41
-1.7317058033
 42
-1.7316232827
  0
ELLIPSE
  5
309
100
AcDbEntity
  8
0
100
AcDbEllipse
 62
253
  6
CONTINUOUS
 10
40.8845544688
 20
40.5669230023
 30
0.0
 11
478.9102027219
 21
-346.1666884239
 31
0.0
 40
0.1136317975
 41
-1.5836786398
 42
-1.5835546858
  0
ELLIPSE
  5
30A
100
AcDbEntity
  8
0
100
AcDbEllipse
 62
253
  6
CONTINUOUS
 10
43.4558774084
 20
39.0822733633
 30
0.0
 11
461.1460485984
 21
-335.8008498348
 31
0.0
 40
0.1179018002
 41
-1.5890937261
 42
-1.5890109713
  0
ELLIPSE
  5
30B
100
AcDbEntity
  8
0
100
AcDbEllipse
 62
253
  6
CONTINUOUS
 10
40.0225482219
 20
41.0646346058
 30
0.0
 11
561.7705054385
 21
-394.4513341259
 31
0.0
 40
0.0971850406
 41
-1.5820407012
 42
-1.5819336303
  0
ELLIPSE
  5
30C
100
AcDbEntity
  8
0
100
AcDbEllipse
 62
253
  6
CONTINUOUS
 10
60.3730283002
 20
29.3145224601
 30
0.0
 11
45.10898286
 21
77.8793286131
 31
0.0
 40
0.5764156768
 41
-3.8718003809
 42
-3.8564397474
  0
ELLIPSE
  5
30D
100
AcDbEntity
  8
0
100
AcDbEllipse
 62
253
  6
CONTINUOUS
 10
60.0895381909
 20
29.4782060962
 30
0.0
 11
44.6069244799
 21
78.1687931187
 31
0.0
 40
0.5806816307
 41
-3.8854914261
 42
-3.8599867774
  0
ELLIPSE
  5
30E
100
AcDbEntity
  8
0
100
AcDbEllipse
 62
253
  6
CONTINUOUS
 10
414.1325883042
 20
-174.9418138377
 30
0.0
 11
6512.206290521
 21
-3686.2187473245
 31
0.0
 40
0.0084626717
 41
-1.6301305947
 42
-1.6299582639
  0
ELLIPSE
  5
30F
100
AcDbEntity
  8
0
100
AcDbEllipse
 62
253
  6
CONTINUOUS
 10
60.3541904853
 20
29.3253991783
 30
0.0
 11
44.7186368651
 21
78.1045109671
 31
0.0
 40
0.5797411229
 41
-3.884656423
 42
-3.8788384809
  0
ELLIPSE
  5
310
100
AcDbEntity
  8
ASSI
100
AcDbEllipse
 62
7
  6
CONTINUOUS
 10
-7.1070566964
 20
22.8518108678
 30
0.0
 11
-0.2807337341
 21
0.4137505634
 31
0.0
 40
0.5254492115
 41
-0.8261225424
 42
0.0012090728
  0
ELLIPSE
  5
311
100
AcDbEntity
  8
ASSI
100
AcDbEllipse
 62
7
  6
CONTINUOUS
 10
8.6448085358
 20
-3.0677065416
 30
0.0
 11
-0.1251726487
 21
0.2165441215
 31
0.0
 40
0.5771556487
 41
-3.1634096711
 42
-2.3569659634
  0
ELLIPSE
  5
312
100
AcDbEntity
  8
ASSI
100
AcDbEllipse
 62
7
  6
CONTINUOUS
 10
5.1691540813
 20
15.7026439146
 30
0.0
 11
0.1999154856
 21
0.0095814127
 31
0.0
 40
0.6067642562
 41
-2.385266879
 42
-1.3380693278
  0
ELLIPSE
  5
313
100
AcDbEntity
  8
ASSI
100
AcDbEllipse
 62
7
  6
CONTINUOUS
 10
-2.750441868
 20
20.2753193599
 30
0.0
 11
0.1999154856
 21
0.0095814127
 31
0.0
 40
0.6067642562
 41
-2.385266879
 42
-1.3380693278
  0
ELLIPSE
  5
314
100
AcDbEntity
  8
ASSI
100
AcDbEllipse
 62
7
  6
CONTINUOUS
 10
7.9166865095
 20
14.1772898325
 30
0.0
 11
-0.2810161013
 21
0.4142924366
 31
0.0
 40
0.524175859
 41
-2.3937039903
 42
-0.8247341631
  0
ELLIPSE
  5
315
100
AcDbEntity
  8
ASSI
100
AcDbEllipse
 62
7
  6
CONTINUOUS
 10
2.7868689852
 20
17.0781454721
 30
0.0
 11
0.1999154856
 21
0.0095814127
 31
0.0
 40
0.6067642562
 41
2.850720877
 42
3.8979184282
  0
ELLIPSE
  5
316
100
AcDbEntity
  8
ASSI
100
AcDbEllipse
 62
7
  6
CONTINUOUS
 10
-5.1327269641
 20
21.6508209173
 30
0.0
 11
0.1999154856
 21
0.0095814127
 31
0.0
 40
0.6067642562
 41
2.850720877
 42
3.8979184282
  0
ELLIPSE
  5
317
100
AcDbEntity
  8
0
100
AcDbEllipse
 62
253
  6
CONTINUOUS
 10
92.0803314899
 20
23.7277298966
 30
0.0
 11
489.376982369
 21
-352.2717549694
 31
0.0
 40
0.1112563467
 41
-1.6877352127
 42
-1.6876142145
  0
ELLIPSE
  5
318
100
AcDbEntity
  8
0
100
AcDbEllipse
 62
253
  6
CONTINUOUS
 10
99.1028935233
 20
19.6729905919
 30
0.0
 11
559.9178603125
 21
-393.3728125445
 31
0.0
 40
0.0975009456
 41
-1.6870225314
 42
-1.6869152524
  0
ELLIPSE
  5
319
100
AcDbEntity
  8
0
100
AcDbEllipse
 62
253
  6
CONTINUOUS
 10
93.5270779554
 20
22.8923966194
 30
0.0
 11
481.4812704207
 21
-347.6665136198
 31
0.0
 40
0.1130390303
 41
-1.6923488539
 42
-1.6922694759
  0
ELLIPSE
  5
31A
100
AcDbEntity
  8
0
100
AcDbEllipse
 62
253
  6
CONTINUOUS
 10
25.0024111749
 20
62.4576804027
 30
0.0
 11
485.3786952071
 21
-200.7739184919
 31
0.0
 40
0.1113582639
 41
-1.5853231171
 42
-1.585243739
  0
ELLIPSE
  5
31B
100
AcDbEntity
  8
0
100
AcDbEllipse
 62
253
  6
CONTINUOUS
 10
19.6278058161
 20
65.5609101772
 30
0.0
 11
560.7205594518
 21
-245.2236590999
 31
0.0
 40
0.0969226647
 41
-1.5711982916
 42
-1.5710910126
  0
ELLIPSE
  5
31C
100
AcDbEntity
  8
0
100
AcDbEllipse
 62
253
  6
CONTINUOUS
 10
26.7603858447
 20
61.4426478609
 30
0.0
 11
488.7904238356
 21
-202.7941823435
 31
0.0
 40
0.1106154206
 41
-1.5886251319
 42
-1.5885041336
  0
ELLIPSE
  5
31D
100
AcDbEntity
  8
0
100
AcDbEllipse
 62
253
  6
CONTINUOUS
 10
75.6612953588
 20
33.2078755798
 30
0.0
 11
486.6909560182
 21
-350.7052246302
 31
0.0
 40
0.1118565093
 41
-1.6553420135
 42
-1.6552631803
  0
ELLIPSE
  5
31E
100
AcDbEntity
  8
0
100
AcDbEllipse
 62
253
  6
CONTINUOUS
 10
43.1557594666
 20
51.9761646139
 30
0.0
 11
485.2434898854
 21
-200.6938391956
 31
0.0
 40
0.1113879005
 41
-1.6219612668
 42
-1.6218824336
  0
ELLIPSE
  5
31F
100
AcDbEntity
  8
0
100
AcDbEllipse
 62
253
  6
CONTINUOUS
 10
60.7375811208
 20
41.8246411428
 30
0.0
 11
44.6406854636
 21
78.1493739008
 31
0.0
 40
0.5803979196
 41
-3.9994645635
 42
-3.9645228267
  0
ELLIPSE
  5
320
100
AcDbEntity
  8
0
100
AcDbEllipse
 62
253
  6
CONTINUOUS
 10
63.3459380134
 20
40.3186085634
 30
0.0
 11
-23.4307710924
 21
100.6141494906
 31
0.0
 40
0.6956695825
 41
-4.567645087
 42
-4.5391843895
  0
ELLIPSE
  5
321
100
AcDbEntity
  8
0
100
AcDbEllipse
 62
253
  6
CONTINUOUS
 10
63.6366125006
 20
40.1507767574
 30
0.0
 11
-23.4127133494
 21
100.6109979606
 31
0.0
 40
0.6957021688
 41
-4.5741324166
 42
-4.545654763
  0
ELLIPSE
  5
322
100
AcDbEntity
  8
0
100
AcDbEllipse
 62
253
  6
CONTINUOUS
 10
62.355311942
 20
40.8905836415
 30
0.0
 11
44.6399183818
 21
78.1498151983
 31
0.0
 40
0.5804043709
 41
-3.9998019398
 42
-3.9648595942
  0
ENDSEC
  0
SECTION
  2
OBJECTS
  0
DICTIONARY
  5
C
100
AcDbDictionary
280
0
281
1
  3
ACAD_GROUP
350
D
  3
ACAD_MLINESTYLE
350
17
  3
ACAD_LAYOUT
350
1A
  3
ACAD_PLOTSETTINGS
350
19
  3
ACAD_PLOTSTYLENAME
350
E
  0
DICTIONARY
  5
D
102
{ACAD_REACTORS
330
C
102
}
100
AcDbDictionary
280
0
281
1
  0
ACDBDICTIONARYWDFLT
  5
E
102
{ACAD_REACTORS
330
C
102
}
100
AcDbDictionary
281
1
  3
Normal
350
F
100
AcDbDictionaryWithDefault
340
F
  0
DICTIONARY
  5
17
102
{ACAD_REACTORS
330
C
102
}
100
AcDbDictionary
280
0
281
1
  3
Standard
350
18
  0
DICTIONARY
  5
19
102
{ACAD_REACTORS
330
C
102
}
100
AcDbDictionary
281
1
  0
DICTIONARY
  5
1A
102
{ACAD_REACTORS
330
C
102
}
100
AcDbDictionary
281
1
  3
Model
350
323
  3
Layout1
350
324
  0
ACDBPLACEHOLDER
  5
F
102
{ACAD_REACTORS
330
E
102
}
  0
MLINESTYLE
  5
18
102
{ACAD_REACTORS
330
17
102
}
100
AcDbMlineStyle
  2
STANDARD
 70
0
  3

 62
256
 51
90.0
 52
90.0
 71
2
 49
0.5
 62
256
  6
BYLAYER
 49
-0.5
 62
256
  6
BYLAYER
  0
LAYOUT
  5
323
102
{ACAD_REACTORS
330
1A
102
}
100
AcDbPlotSettings
  1

  2
none_device
  4
ISO_A4_(297.00_x_210.00_MM)
  6

 40
0.0
 41
0.0
 42
0.0
 43
0.0
 44
297.0
 45
210.0
 46
0.0
 47
0.0
 48
0.0
 49
0.0
140
0.0
141
0.0
142
1.0
143
1.0
 70
1024
 72
1
 73
0
 74
0
  7

 75
0
147
1.0
148
0.0
149
0.0
100
AcDbLayout
  1
Model
 70
0
 71
0
 10
0.0
 20
0.0
 11
297.0
 21
210.0
 12
0.0
 22
0.0
 32
0.0
 14
0.0
 24
0.0
 34
0.0
 15
0.0
 25
0.0
 35
0.0
146
0.0
 13
0.0
 23
0.0
 33
0.0
 16
1.0
 26
0.0
 36
0.0
 17
0.0
 27
1.0
 37
0.0
 76
0
330
219
345
0
346
0
  0
LAYOUT
  5
324
102
{ACAD_REACTORS
330
1A
102
}
100
AcDbPlotSettings
  1

  2
none_device
  4
ISO_A4_(297.00_x_210.00_MM)
  6

 40
0.0
 41
0.0
 42
0.0
 43
0.0
 44
297.0
 45
210.0
 46
0.0
 47
0.0
 48
0.0
 49
0.0
140
0.0
141
0.0
142
1.0
143
1.0
 70
0
 72
1
 73
0
 74
0
  7

 75
0
147
1.0
148
0.0
149
0.0
100
AcDbLayout
  1
Layout1
 70
0
 71
1
 10
0.0
 20
0.0
 11
297.0
 21
210.0
 12
0.0
 22
0.0
 32
0.0
 14
0.0
 24
0.0
 34
0.0
 15
0.0
 25
0.0
 35
0.0
146
0.0
 13
0.0
 23
0.0
 33
0.0
 16
1.0
 26
0.0
 36
0.0
 17
0.0
 27
1.0
 37
0.0
 76
0
330
21A
345
0
346
0
  0
ENDSEC
  0
EOF
