  0
SECTION
  2
HEADER
  9
$ACADVER
  1
AC1021
  9
$DWGCODEPAGE
  3
ANSI_1252
  9
$EXTMAX
 10
297.0
 20
210.0
 30
0.0
  9
$EXTMIN
 10
0.0
 20
0.0
 30
0.0
  9
$LIMMIN
 10
0.0
 20
0.0
  9
$LIMMAX
 10
297.0
 20
210.0
  9
$VIEWCTR
 10
148.5
 20
105.0
  9
$VIEWSIZE
 40
210.0
  9
$CLAYER
  8
0
  9
$LTSCALE
 40
16.335
  9
$CELTYPE
  6
BYLAYER
  9
$DIMSCALE
 40
1.0
  9
$DIMASZ
 40
3.0
  9
$DIMEXO
 40
0.5
  9
$DIMDLI
 40
11.286
  9
$DIMEXE
 40
1.5
  9
$DIMCEN
 40
2.673
  9
$DIMLFAC
 40
1.0
  9
$DIMBLK
  1
_FILLED
  9
$DIMALT
 70
0
  9
$DIMALTF
 40
25.4
  9
$DIMTXT
 40
3.0
  9
$DIMTOL
 70
1
  9
$DIMLIM
 70
0
  9
$DIMTFAC
 40
1.0
  9
$DIMTP
 40
0.01
  9
$DIMTM
 40
0.01
  9
$DIMGAP
 40
0.625
  9
$DIMDSEP
 70
44
  9
$AUNITS
 70
0
  9
$PDMODE
 70
3
  9
$PDSIZE
 40
3.0
  9
$HANDSEED
  5
2E6
  9
$TILEMODE
 70
1
  9
$MEASUREMENT
 70
1
  9
$INSUNITS
 70
4
  0
ENDSEC
  0
SECTION
  2
CLASSES
  0
CLASS
  1
ACDBDICTIONARYWDFLT
  2
AcDbDictionaryWithDefault
  3
AutoCAD 2000
 90
0
 91
1
280
0
281
0
  0
CLASS
  1
ACDBPLACEHOLDER
  2
AcDbPlaceHolder
  3
AutoCAD 2000
 90
0
 91
1
280
0
281
0
  0
CLASS
  1
LAYOUT
  2
AcDbLayout
  3
AutoCAD 2000
 90
0
 91
0
280
0
281
0
  0
ENDSEC
  0
SECTION
  2
TABLES
  0
TABLE
  2
VPORT
  5
8
100
AcDbSymbolTable
 70
2
  0
VPORT
  5
1F4
100
AcDbSymbolTableRecord
100
AcDbViewportTableRecord
  2
*ACTIVE
 70
0
 10
0.0
 20
0.0
 11
1.0
 21
1.0
 12
148.5
 22
105.0
 13
0.0
 23
0.0
 14
1.0
 24
1.0
 15
0.0
 25
0.0
 16
0.0
 26
0.0
 36
1.0
 17
0.0
 27
0.0
 37
0.0
 40
210.0
 41
1.4142857143
 42
50.0
 43
0.0
 44
0.0
 50
0.0
 51
0.0
 71
0
 72
100
 73
1
 74
1
 75
0
 76
0
 77
0
 78
0
  0
ENDTAB
  0
TABLE
  2
LTYPE
  5
5
100
AcDbSymbolTable
 70
6
  0
LTYPE
  5
14
100
AcDbSymbolTableRecord
100
AcDbLinetypeTableRecord
  2
BYBLOCK
 70
0
  3

 72
65
 73
0
 40
0.0
  0
LTYPE
  5
15
100
AcDbSymbolTableRecord
100
AcDbLinetypeTableRecord
  2
BYLAYER
 70
0
  3

 72
65
 73
0
 40
0.0
  0
LTYPE
  5
16
100
AcDbSymbolTableRecord
100
AcDbLinetypeTableRecord
  2
CONTINUOUS
 70
64
  3
Solid line
 72
65
 73
0
 40
0.0
  0
LTYPE
  5
1F5
100
AcDbSymbolTableRecord
100
AcDbLinetypeTableRecord
  2
CENTER
 70
64
  3
____ _ ____ _ ____ _ ____ _ ____ _ ____ _ ____
 72
65
 73
4
 40
0.6
 49
0.375
 74
0
 49
-0.075
 74
0
 49
0.075
 74
0
 49
-0.075
 74
0
  0
LTYPE
  5
1F6
100
AcDbSymbolTableRecord
100
AcDbLinetypeTableRecord
  2
HIDDEN
 70
64
  3
- - - - - - - - - - - - - - - - - - - -
 72
65
 73
2
 40
0.2
 49
0.1
 74
0
 49
-0.1
 74
0
  0
LTYPE
  5
1F7
100
AcDbSymbolTableRecord
100
AcDbLinetypeTableRecord
  2
PHANTOM
 70
64
  3
_____ _ _ _____ _ _ _____ _ _ _____
 72
65
 73
6
 40
0.8
 49
0.45
 74
0
 49
-0.05
 74
0
 49
0.1
 74
0
 49
-0.05
 74
0
 49
0.1
 74
0
 49
-0.05
 74
0
  0
LTYPE
  5
1F8
100
AcDbSymbolTableRecord
100
AcDbLinetypeTableRecord
  2
DOT
 70
64
  3
. . . . . . . . . . . . . . . . . . . .
 72
65
 73
2
 40
0.2
 49
0.1
 74
0
 49
-0.1
 74
0
  0
LTYPE
  5
1F9
100
AcDbSymbolTableRecord
100
AcDbLinetypeTableRecord
  2
DASHED
 70
64
  3
- - - - - - - - - - - - - - - - - - - -
 72
65
 73
2
 40
0.2
 49
0.1
 74
0
 49
-0.1
 74
0
  0
ENDTAB
  0
TABLE
  2
LAYER
  5
2
100
AcDbSymbolTable
 70
36
  0
LAYER
  5
10
100
AcDbSymbolTableRecord
100
AcDbLayerTableRecord
  2
0
 70
0
 62
7
  6
CONTINUOUS
370
-3
390
F
  0
LAYER
  5
1FA
100
AcDbSymbolTableRecord
100
AcDbLayerTableRecord
  2
DEFAULT_1
 70
0
 62
7
  6
CENTER
370
-3
390
F
  0
LAYER
  5
1FB
100
AcDbSymbolTableRecord
100
AcDbLayerTableRecord
  2
DEFAULT_2
 70
0
 62
7
  6
HIDDEN
370
-3
390
F
  0
LAYER
  5
1FC
100
AcDbSymbolTableRecord
100
AcDbLayerTableRecord
  2
DEFAULT_3
 70
0
 62
7
  6
PHANTOM
370
-3
390
F
  0
LAYER
  5
1FD
100
AcDbSymbolTableRecord
100
AcDbLayerTableRecord
  2
ASSI
 70
0
 62
7
  6
CONTINUOUS
370
-3
390
F
  0
LAYER
  5
1FE
100
AcDbSymbolTableRecord
100
AcDbLayerTableRecord
  2
COLOR9
 70
0
 62
7
  6
CONTINUOUS
370
-3
390
F
  0
LAYER
  5
1FF
100
AcDbSymbolTableRecord
100
AcDbLayerTableRecord
  2
COORDINATE
 70
0
 62
7
  6
CONTINUOUS
370
-3
390
F
  0
LAYER
  5
200
100
AcDbSymbolTableRecord
100
AcDbLayerTableRecord
  2
COORD_ORIGINE
 70
0
 62
7
  6
CONTINUOUS
370
-3
390
F
  0
LAYER
  5
201
100
AcDbSymbolTableRecord
100
AcDbLayerTableRecord
  2
COPY_PUBLISH
 70
0
 62
7
  6
CONTINUOUS
370
-3
390
F
  0
LAYER
  5
202
100
AcDbSymbolTableRecord
100
AcDbLayerTableRecord
  2
COSMETICI
 70
0
 62
7
  6
CONTINUOUS
370
-3
390
F
  0
LAYER
  5
203
100
AcDbSymbolTableRecord
100
AcDbLayerTableRecord
  2
CURVE
 70
0
 62
7
  6
CONTINUOUS
370
-3
390
F
  0
LAYER
  5
204
100
AcDbSymbolTableRecord
100
AcDbLayerTableRecord
  2
DRAFT
 70
0
 62
7
  6
CONTINUOUS
370
-3
390
F
  0
LAYER
  5
205
100
AcDbSymbolTableRecord
100
AcDbLayerTableRecord
  2
IGES
 70
0
 62
7
  6
CONTINUOUS
370
-3
390
F
  0
LAYER
  5
206
100
AcDbSymbolTableRecord
100
AcDbLayerTableRecord
  2
IGS_SCRITTE
 70
0
 62
7
  6
CONTINUOUS
370
-3
390
F
  0
LAYER
  5
207
100
AcDbSymbolTableRecord
100
AcDbLayerTableRecord
  2
IMPORT_IGES
 70
0
 62
7
  6
CONTINUOUS
370
-3
390
F
  0
LAYER
  5
208
100
AcDbSymbolTableRecord
100
AcDbLayerTableRecord
  2
INTF_YELLOW
 70
0
 62
7
  6
CONTINUOUS
370
-3
390
F
  0
LAYER
  5
209
100
AcDbSymbolTableRecord
100
AcDbLayerTableRecord
  2
NOTE
 70
0
 62
7
  6
CONTINUOUS
370
-3
390
F
  0
LAYER
  5
20A
100
AcDbSymbolTableRecord
100
AcDbLayerTableRecord
  2
PIANI
 70
0
 62
7
  6
CONTINUOUS
370
-3
390
F
  0
LAYER
  5
20B
100
AcDbSymbolTableRecord
100
AcDbLayerTableRecord
  2
PIANI_ORIGINE
 70
0
 62
7
  6
CONTINUOUS
370
-3
390
F
  0
LAYER
  5
20C
100
AcDbSymbolTableRecord
100
AcDbLayerTableRecord
  2
PIANI_RIFERIMENTO
 70
0
 62
7
  6
CONTINUOUS
370
-3
390
F
  0
LAYER
  5
20D
100
AcDbSymbolTableRecord
100
AcDbLayerTableRecord
  2
PUNTI
 70
0
 62
7
  6
CONTINUOUS
370
-3
390
F
  0
LAYER
  5
20E
100
AcDbSymbolTableRecord
100
AcDbLayerTableRecord
  2
RACCORDO
 70
0
 62
7
  6
CONTINUOUS
370
-3
390
F
  0
LAYER
  5
20F
100
AcDbSymbolTableRecord
100
AcDbLayerTableRecord
  2
SIMBOLI
 70
0
 62
7
  6
CONTINUOUS
370
-3
390
F
  0
LAYER
  5
210
100
AcDbSymbolTableRecord
100
AcDbLayerTableRecord
  2
SMUSSO
 70
0
 62
7
  6
CONTINUOUS
370
-3
390
F
  0
LAYER
  5
211
100
AcDbSymbolTableRecord
100
AcDbLayerTableRecord
  2
SNAPLINE
 70
0
 62
7
  6
CONTINUOUS
370
-3
390
F
  0
LAYER
  5
212
100
AcDbSymbolTableRecord
100
AcDbLayerTableRecord
  2
SOLIDO
 70
0
 62
7
  6
CONTINUOUS
370
-3
390
F
  0
LAYER
  5
213
100
AcDbSymbolTableRecord
100
AcDbLayerTableRecord
  2
SUPERFICI
 70
0
 62
7
  6
CONTINUOUS
370
-3
390
F
  0
LAYER
  5
214
100
AcDbSymbolTableRecord
100
AcDbLayerTableRecord
  2
TRASH
 70
0
 62
7
  6
CONTINUOUS
370
-3
390
F
  0
LAYER
  5
215
100
AcDbSymbolTableRecord
100
AcDbLayerTableRecord
  2
WHITE
 70
0
 62
7
  6
CONTINUOUS
370
-3
390
F
  0
ENDTAB
  0
TABLE
  2
STYLE
  5
3
100
AcDbSymbolTable
 70
1
  0
STYLE
  5
11
100
AcDbSymbolTableRecord
100
AcDbTextStyleTableRecord
  2
STANDARD
 70
0
 40
0.0
 41
0.8
 50
0.0
 71
0
 42
0.2
  3
txt
  4

  0
STYLE
  5
216
100
AcDbSymbolTableRecord
100
AcDbTextStyleTableRecord
  2
TEXTSTYLE_1
 70
0
 40
0.0
 41
0.8
 50
0.0
 71
0
 42
0.2
  3
gdt
  4

  0
ENDTAB
  0
TABLE
  2
VIEW
  5
6
100
AcDbSymbolTable
 70
0
  0
ENDTAB
  0
TABLE
  2
UCS
  5
7
100
AcDbSymbolTable
 70
0
  0
ENDTAB
  0
TABLE
  2
APPID
  5
9
100
AcDbSymbolTable
 70
1
  0
APPID
  5
217
100
AcDbSymbolTableRecord
100
AcDbRegAppTableRecord
  2
ACAD
 70
0
  0
ENDTAB
  0
TABLE
  2
BLOCK_RECORD
  5
1
100
AcDbSymbolTable
 70
0
  0
BLOCK_RECORD
  5
218
100
AcDbSymbolTableRecord
100
AcDbBlockTableRecord
  2
*Model_Space
  0
BLOCK_RECORD
  5
219
100
AcDbSymbolTableRecord
100
AcDbBlockTableRecord
  2
*Paper_Space
  0
ENDTAB
  0
TABLE
  2
DIMSTYLE
  5
A
100
AcDbSymbolTable
 70
1
100
AcDbDimStyleTable
 71
0
  0
DIMSTYLE
105
21A
100
AcDbSymbolTableRecord
100
AcDbDimStyleTableRecord
  2
STANDARD
 70
0
  3

  4

 40
1.0
 41
3.0
 42
0.5
 43
0.38
 44
1.5
 45
0.0
 46
0.0
 47
0.01
 48
0.01
140
3.0
141
0.09
142
0.0
143
25.4
144
1.0
145
0.0
146
1.0
147
0.625
 71
1.0
 72
0.0
 73
0
 74
0
 75
0
 76
0
 77
1
 78
8
170
0
171
1
172
0
173
0
174
0
175
0
176
0
177
0
178
0
270
2
271
2
272
2
273
2
274
2
275
0
280
0
281
0
282
0
283
1
284
8
285
0
286
0
287
3
288
0
340
11
278
44
  0
ENDTAB
  0
ENDSEC
  0
SECTION
  2
BLOCKS
  0
BLOCK
  5
20
100
AcDbEntity
  8
0
100
AcDbBlockBegin
  2
*Model_Space
 70
0
 10
0.0
 20
0.0
 30
0.0
  3
*Model_Space
  1

  0
ENDBLK
  5
21
100
AcDbEntity
  8
0
100
AcDbBlockEnd
  0
BLOCK
  5
1C
100
AcDbEntity
  8
0
100
AcDbBlockBegin
  2
*Paper_Space
 70
0
 10
0.0
 20
0.0
 30
0.0
  3
*Paper_Space
  1

  0
ENDBLK
  5
1D
100
AcDbEntity
  8
0
100
AcDbBlockEnd
  0
ENDSEC
  0
SECTION
  2
ENTITIES
  0
LWPOLYLINE
  5
21B
100
AcDbEntity
  8
ASSI
100
AcDbPolyline
 62
7
  6
CONTINUOUS
 90
13
 70
0
 10
-9.3229076499
 20
22.0386523215
 10
-9.3736031639
 20
22.001783639
 10
-9.4483379694
 20
21.9383651319
 10
-9.517524975
 20
21.8687285541
 10
-9.5814870163
 20
21.7932215205
 10
-9.6400799514
 20
21.7124004385
 10
-9.6926484429
 20
21.627485678
 10
-9.7390522766
 20
21.538919906
 10
-9.779033087
 20
21.4470696006
 10
-9.8119016371
 20
21.3532056743
 10
-9.8372967765
 20
21.2578336295
 10
-9.8548426288
 20
21.16086536
 10
-9.8577016363
 20
21.1383344227
  0
LINE
  5
21C
100
AcDbEntity
  8
ASSI
100
AcDbLine
 62
7
  6
CONTINUOUS
 10
-9.3231830948
 20
22.0384649329
 11
-7.3405590063
 21
23.3903671909
  0
LINE
  5
21D
100
AcDbEntity
  8
ASSI
100
AcDbLine
 62
253
  6
CONTINUOUS
 10
-9.0600021493
 20
22.0223541767
 11
-7.0899650567
 21
23.365673674
  0
LWPOLYLINE
  5
21E
100
AcDbEntity
  8
ASSI
100
AcDbPolyline
 62
253
  6
CONTINUOUS
 90
30
 70
0
 10
-9.3229076552
 20
22.0386523292
 10
-9.3199310497
 20
22.0406248672
 10
-9.3129074137
 20
22.0449162468
 10
-9.3056546724
 20
22.048853467
 10
-9.2981789481
 20
22.0524332039
 10
-9.2904865514
 20
22.055652436
 10
-9.2825839756
 20
22.0585084458
 10
-9.2744778915
 20
22.0609988223
 10
-9.2661751419
 20
22.0631214634
 10
-9.2576827352
 20
22.0648745773
 10
-9.2490078403
 20
22.0662566841
 10
-9.2401577799
 20
22.0672666172
 10
-9.2311400246
 20
22.067903524
 10
-9.2219621866
 20
22.0681668669
 10
-9.2126320133
 20
22.0680564235
 10
-9.2031573806
 20
22.0675722872
 10
-9.1935462862
 20
22.0667148666
 10
-9.1838068433
 20
22.0654848855
 10
-9.1739472733
 20
22.0638833821
 10
-9.1639758989
 20
22.0619117084
 10
-9.1539011373
 20
22.0595715286
 10
-9.143731493
 20
22.0568648182
 10
-9.1334755504
 20
22.0537938621
 10
-9.1231419671
 20
22.0503612525
 10
-9.1127394658
 20
22.046569887
 10
-9.1022768277
 20
22.042422966
 10
-9.0917628847
 20
22.0379239901
 10
-9.0812065119
 20
22.033076757
 10
-9.0706166204
 20
22.0278853585
 10
-9.0600021493
 20
22.0223541767
  0
LWPOLYLINE
  5
21F
100
AcDbEntity
  8
ASSI
100
AcDbPolyline
 62
7
  6
CONTINUOUS
 90
11
 70
0
 10
5.3484256344
 20
-22.611200928
 10
5.4131261968
 20
-22.6441871375
 10
5.4804475537
 20
-22.6699368009
 10
5.55020193
 20
-22.6885366911
 10
5.6226678004
 20
-22.6999829502
 10
5.697276251
 20
-22.7039685748
 10
5.7732391188
 20
-22.7002732043
 10
5.8507770549
 20
-22.688625339
 10
5.9296602333
 20
-22.6686291517
 10
6.0090161181
 20
-22.6400689224
 10
6.054854016
 20
-22.6195882695
  0
LINE
  5
220
100
AcDbEntity
  8
ASSI
100
AcDbLine
 62
7
  6
CONTINUOUS
 10
-9.5149347981
 20
-14.0292843094
 11
5.3492094273
 21
-22.6116548937
  0
LINE
  5
221
100
AcDbEntity
  8
ASSI
100
AcDbLine
 62
7
  6
CONTINUOUS
 10
5.3484240719
 20
-22.6112000611
 11
5.3492094539
 21
-22.6116549091
  0
LINE
  5
222
100
AcDbEntity
  8
ASSI
100
AcDbLine
 62
253
  6
CONTINUOUS
 10
-9.5149347981
 20
-14.0292843094
 11
-9.5204950136
 21
-14.0259990928
  0
LWPOLYLINE
  5
223
100
AcDbEntity
  8
ASSI
100
AcDbPolyline
 62
253
  6
CONTINUOUS
 90
27
 70
0
 10
-9.5204950136
 20
-14.0259990928
 10
-9.5320121541
 20
-14.0187007161
 10
-9.5432362082
 20
-14.0109061414
 10
-9.5541605943
 20
-14.0026199384
 10
-9.5647789056
 20
-13.9938469566
 10
-9.5750852555
 20
-13.9845921234
 10
-9.5850736146
 20
-13.97486083
 10
-9.594738109
 20
-13.9646587629
 10
-9.6040733642
 20
-13.9539916995
 10
-9.6130739154
 20
-13.9428658465
 10
-9.6217344756
 20
-13.9312876826
 10
-9.6300502318
 20
-13.9192637878
 10
-9.638016319
 20
-13.9068011437
 10
-9.6456280565
 20
-13.8939069942
 10
-9.652881216
 20
-13.880588689
 10
-9.6597715517
 20
-13.8668539607
 10
-9.6662950197
 20
-13.8527107692
 10
-9.6724480118
 20
-13.8381671587
 10
-9.6782269413
 20
-13.8232315146
 10
-9.683628395
 20
-13.8079125204
 10
-9.6886493549
 20
-13.7922190035
 10
-9.693286879
 20
-13.776160094
 10
-9.6975382565
 20
-13.7597450393
 10
-9.7014011505
 20
-13.7429831527
 10
-9.7048733426
 20
-13.7258840586
 10
-9.7079527426
 20
-13.7084576944
 10
-9.7106375424
 20
-13.6907141242
  0
LINE
  5
224
100
AcDbEntity
  8
ASSI
100
AcDbLine
 62
253
  6
CONTINUOUS
 10
-9.7106375424
 20
-13.6907141242
 11
5.1465510632
 21
-22.2690686207
  0
LWPOLYLINE
  5
225
100
AcDbEntity
  8
ASSI
100
AcDbPolyline
 62
7
  6
CONTINUOUS
 90
6
 70
0
 10
-9.7555196174
 20
-13.7905790623
 10
-9.7106452834
 20
-13.8568469618
 10
-9.6592181923
 20
-13.9165743959
 10
-9.6017599587
 20
-13.9693621251
 10
-9.5394370804
 20
-14.0144107639
 10
-9.5138368936
 20
-14.0299153334
  0
LWPOLYLINE
  5
226
100
AcDbEntity
  8
ASSI
100
AcDbPolyline
 62
7
  6
CONTINUOUS
 90
10
 70
0
 10
-9.857653822
 20
21.13875
 10
-9.9788085779
 20
20.0548230473
 10
-10.0943717843
 20
18.9123882734
 10
-10.1967694033
 20
17.7760870516
 10
-10.2859769993
 20
16.6461641077
 10
-10.3619730459
 20
15.522861011
 10
-10.4247388501
 20
14.4064157081
 10
-10.4742582606
 20
13.2970667199
 10
-10.5105177785
 20
12.1950531077
 10
-10.5324847493
 20
11.167143738
  0
LWPOLYLINE
  5
227
100
AcDbEntity
  8
ASSI
100
AcDbPolyline
 62
253
  6
CONTINUOUS
 90
58
 70
0
 10
-9.7106375424
 20
20.9397035254
 10
-9.7079527426
 20
20.9606577686
 10
-9.7048733426
 20
20.9817665091
 10
-9.7014011505
 20
21.0030175947
 10
-9.6975382565
 20
21.024398773
 10
-9.693286879
 20
21.0458977593
 10
-9.6886493549
 20
21.0675022462
 10
-9.683628395
 20
21.0891998869
 10
-9.6782269413
 20
21.1109781231
 10
-9.6724480118
 20
21.1328242546
 10
-9.6662950197
 20
21.1547256805
 10
-9.6597715517
 20
21.1766698495
 10
-9.652881216
 20
21.1986440912
 10
-9.6456280565
 20
21.2206358028
 10
-9.638016319
 20
21.2426323219
 10
-9.6300502318
 20
21.2646208755
 10
-9.6217344756
 20
21.286588839
 10
-9.6130739154
 20
21.3085235883
 10
-9.6040733642
 20
21.3304123721
 10
-9.594738109
 20
21.3522426301
 10
-9.5850736146
 20
21.3740018213
 10
-9.5750852555
 20
21.3956772761
 10
-9.5647789056
 20
21.4172565473
 10
-9.5541605943
 20
21.4387272591
 10
-9.5432362082
 20
21.4600769339
 10
-9.5320121541
 20
21.4812933453
 10
-9.5204950136
 20
21.5023643018
 10
-9.508691199
 20
21.5232774956
 10
-9.4966076487
 20
21.5440209294
 10
-9.4842514365
 20
21.5645827168
 10
-9.4716294237
 20
21.5849508647
 10
-9.4587490147
 20
21.6051137157
 10
-9.4456177646
 20
21.6250596995
 10
-9.4322429889
 20
21.6447771334
 10
-9.4186325518
 20
21.6642547136
 10
-9.4047944223
 20
21.6834812961
 10
-9.39073628
 20
21.7024456463
 10
-9.3764663708
 20
21.7211369228
 10
-9.3619930692
 20
21.7395444113
 10
-9.3473244352
 20
21.7576573061
 10
-9.3324690819
 20
21.7754652481
 10
-9.3174357207
 20
21.7929580485
 10
-9.3022327248
 20
21.810125424
 10
-9.2868690207
 20
21.8269575649
 10
-9.2713536202
 20
21.8434448478
 10
-9.2556951669
 20
21.8595775613
 10
-9.2399028688
 20
21.8753464792
 10
-9.223985977
 20
21.8907426119
 10
-9.2079533185
 20
21.9057569175
 10
-9.1918142752
 20
21.9203808612
 10
-9.1755783463
 20
21.9346060644
 10
-9.1592546294
 20
21.948424062
 10
-9.142852757
 20
21.9618269383
 10
-9.1263823067
 20
21.9748071079
 10
-9.109852363
 20
21.9873569589
 10
-9.0932724333
 20
21.99946927
 10
-9.0766524437
 20
22.0111372216
 10
-9.0600021493
 20
22.0223541767
  0
LINE
  5
228
100
AcDbEntity
  8
ASSI
100
AcDbLine
 62
7
  6
CONTINUOUS
 10
-5.0981668027
 20
22.2156343253
 11
-5.2784180521
 21
21.8014141665
  0
LINE
  5
229
100
AcDbEntity
  8
ASSI
100
AcDbLine
 62
253
  6
CONTINUOUS
 10
-10.2369757223
 20
-8.3641719952
 11
-10.2770028045
 21
-7.6794784235
  0
LWPOLYLINE
  5
22A
100
AcDbEntity
  8
ASSI
100
AcDbPolyline
 62
253
  6
CONTINUOUS
 90
28
 70
0
 10
-10.5324275887
 20
-4.3485458639
 10
-10.5319759389
 20
-4.3569084652
 10
-10.5311202895
 20
-4.3652558856
 10
-10.5298613327
 20
-4.3735813727
 10
-10.5282000869
 20
-4.3818781918
 10
-10.5261378958
 20
-4.3901396315
 10
-10.5236764277
 20
-4.3983590088
 10
-10.5208176737
 20
-4.406529675
 10
-10.5175639463
 20
-4.4146450206
 10
-10.5139178774
 20
-4.422698481
 10
-10.5098824166
 20
-4.4306835414
 10
-10.5054608281
 20
-4.4385937426
 10
-10.5006566887
 20
-4.4464226859
 10
-10.4954738846
 20
-4.4541640383
 10
-10.4899166082
 20
-4.4618115376
 10
-10.483989355
 20
-4.4693589975
 10
-10.4776969196
 20
-4.4768003129
 10
-10.4710443921
 20
-4.4841294641
 10
-10.464037154
 20
-4.4913405225
 10
-10.4566808734
 20
-4.498427655
 10
-10.4489815012
 20
-4.5053851285
 10
-10.4409452654
 20
-4.5122073151
 10
-10.4325786668
 20
-4.5188886961
 10
-10.4238884733
 20
-4.5254238667
 10
-10.4148817146
 20
-4.5318075406
 10
-10.4055656764
 20
-4.5380345538
 10
-10.3959478948
 20
-4.5440998692
 10
-10.3860361497
 20
-4.5499985804
  0
LINE
  5
22B
100
AcDbEntity
  8
ASSI
100
AcDbLine
 62
253
  6
CONTINUOUS
 10
-10.2770028045
 20
-7.6794784235
 11
-10.3112887083
 21
-6.990801575
  0
LINE
  5
22C
100
AcDbEntity
  8
ASSI
100
AcDbLine
 62
253
  6
CONTINUOUS
 10
-10.3112887083
 20
-6.990801575
 11
-10.3398302343
 21
-6.2982059364
  0
LINE
  5
22D
100
AcDbEntity
  8
ASSI
100
AcDbLine
 62
253
  6
CONTINUOUS
 10
-10.3398302343
 20
-6.2982059364
 11
-10.3626246921
 21
-5.6017563683
  0
LINE
  5
22E
100
AcDbEntity
  8
ASSI
100
AcDbLine
 62
253
  6
CONTINUOUS
 10
-10.3626246921
 20
-5.6017563683
 11
-10.3796699849
 21
-4.9015180366
  0
LWPOLYLINE
  5
22F
100
AcDbEntity
  8
ASSI
100
AcDbPolyline
 62
7
  6
CONTINUOUS
 90
10
 70
0
 10
-10.5324822693
 20
-4.3461608753
 10
-10.5103518785
 20
-5.3528060416
 10
-10.4739940427
 20
-6.4107150736
 10
-10.4243532528
 20
-7.4597746927
 10
-10.3614372201
 20
-8.4997584647
 10
-10.2852562275
 20
-9.5304449388
 10
-10.1958228846
 20
-10.5516180859
 10
-10.0931526133
 20
-11.5630605373
 10
-9.9772638666
 20
-12.5645535987
 10
-9.8564294367
 20
-13.4957066644
  0
LINE
  5
230
100
AcDbEntity
  8
ASSI
100
AcDbLine
 62
253
  6
CONTINUOUS
 10
-10.3796699849
 20
-4.9015180366
 11
-10.3984527144
 21
-3.732014783
  0
LWPOLYLINE
  5
231
100
AcDbEntity
  8
ASSI
100
AcDbPolyline
 62
253
  6
CONTINUOUS
 90
4
 70
0
 10
-10.5939707555
 20
3.6968400517
 10
-10.5938946058
 20
3.6917148179
 10
-10.5934441877
 20
3.683545968
 10
-10.5925897324
 20
3.6753867025
  0
LWPOLYLINE
  5
232
100
AcDbEntity
  8
ASSI
100
AcDbPolyline
 62
253
  6
CONTINUOUS
 90
24
 70
0
 10
-10.4475238321
 20
3.4931663637
 10
-10.4474221124
 20
3.4861373525
 10
-10.4471073094
 20
3.4792397255
 10
-10.4465798029
 20
3.4724818016
 10
-10.445840229
 20
3.4658717314
 10
-10.4448894798
 20
3.4594174871
 10
-10.4437287019
 20
3.4531268531
 10
-10.4423592953
 20
3.4470074164
 10
-10.4407829117
 20
3.4410665574
 10
-10.4390014521
 20
3.4353114412
 10
-10.4370170653
 20
3.429749009
 10
-10.4348321445
 20
3.4243859695
 10
-10.4324493249
 20
3.4192287908
 10
-10.4298714804
 20
3.414283693
 10
-10.4271017201
 20
3.4095566403
 10
-10.4241433844
 20
3.4050533337
 10
-10.4210000414
 20
3.4007792046
 10
-10.4176754822
 20
3.3967394079
 10
-10.4141737164
 20
3.392938816
 10
-10.4104989675
 20
3.3893820126
 10
-10.4066556674
 20
3.3860732875
 10
-10.4026484514
 20
3.3830166313
 10
-10.3984821527
 20
3.3802157305
 10
-10.3960441926
 20
3.3787385134
  0
LINE
  5
233
100
AcDbEntity
  8
ASSI
100
AcDbLine
 62
7
  6
CONTINUOUS
 10
-10.5554501249
 20
-2.7463743049
 11
-10.5324822651
 21
-4.3461611421
  0
LINE
  5
234
100
AcDbEntity
  8
ASSI
100
AcDbLine
 62
253
  6
CONTINUOUS
 10
-10.3984527144
 20
-3.732014783
 11
-10.419097478
 21
-2.0933846639
  0
LINE
  5
235
100
AcDbEntity
  8
ASSI
100
AcDbLine
 62
7
  6
CONTINUOUS
 10
-10.5736896243
 20
-1.0777529473
 11
-10.5554501249
 21
-2.7463743049
  0
LINE
  5
236
100
AcDbEntity
  8
ASSI
100
AcDbLine
 62
253
  6
CONTINUOUS
 10
-10.419097478
 20
-2.0933846639
 11
-10.4341576708
 21
-0.4512321363
  0
LWPOLYLINE
  5
237
100
AcDbEntity
  8
ASSI
100
AcDbPolyline
 62
253
  6
CONTINUOUS
 90
29
 70
0
 10
-10.5324847493
 20
11.167143738
 10
-10.5324275886
 20
11.1596592517
 10
-10.5319759388
 20
11.1516098309
 10
-10.5311202894
 20
11.1435666152
 10
-10.5298613326
 20
11.135536111
 10
-10.5282000868
 20
11.1275248142
 10
-10.5261378957
 20
11.1195392055
 10
-10.5236764276
 20
11.1115857445
 10
-10.5208176736
 20
11.103670865
 10
-10.5175639462
 20
11.0958009696
 10
-10.5139178773
 20
11.0879824242
 10
-10.5098824165
 20
11.0802215536
 10
-10.505460828
 20
11.0725246357
 10
-10.5006566886
 20
11.0648978966
 10
-10.4954738845
 20
11.0573475059
 10
-10.4899166081
 20
11.0498795712
 10
-10.4839893549
 20
11.0425001335
 10
-10.4776969195
 20
11.0352151621
 10
-10.471044392
 20
11.0280305501
 10
-10.4640371539
 20
11.0209521093
 10
-10.4566808733
 20
11.0139855655
 10
-10.4489815011
 20
11.0071365541
 10
-10.4409452653
 20
11.0004106156
 10
-10.4325786667
 20
10.9938131905
 10
-10.4238884732
 20
10.9873496158
 10
-10.4148817145
 20
10.98102512
 10
-10.4055656764
 20
10.9748448191
 10
-10.3959478947
 20
10.9688137124
 10
-10.3860361496
 20
10.9629366787
  0
LINE
  5
238
100
AcDbEntity
  8
ASSI
100
AcDbLine
 62
7
  6
CONTINUOUS
 10
-10.5861507442
 20
0.5945109254
 11
-10.5736896243
 21
-1.0777529473
  0
LINE
  5
239
100
AcDbEntity
  8
ASSI
100
AcDbLine
 62
253
  6
CONTINUOUS
 10
-10.4341576708
 20
-0.4512321363
 11
-10.4436328247
 21
1.1944469048
  0
LWPOLYLINE
  5
23A
100
AcDbEntity
  8
ASSI
100
AcDbPolyline
 62
7
  6
CONTINUOUS
 90
3
 70
0
 10
-10.5939707547
 20
3.0482333666
 10
-10.5928333531
 20
2.2703908375
 10
-10.5861507442
 20
0.5945109254
  0
LINE
  5
23B
100
AcDbEntity
  8
ASSI
100
AcDbLine
 62
253
  6
CONTINUOUS
 10
-10.4436328247
 20
1.1944469048
 11
-10.4475225378
 21
2.8436333778
  0
LINE
  5
23C
100
AcDbEntity
  8
ASSI
100
AcDbLine
 62
7
  6
CONTINUOUS
 10
-10.5902360405
 20
5.312251025
 11
-10.5939707555
 21
3.6968400463
  0
LINE
  5
23D
100
AcDbEntity
  8
ASSI
100
AcDbLine
 62
253
  6
CONTINUOUS
 10
-10.4475225378
 20
3.4931656164
 11
-10.4436328247
 21
5.1471709706
  0
LINE
  5
23E
100
AcDbEntity
  8
ASSI
100
AcDbLine
 62
7
  6
CONTINUOUS
 10
-10.5806831178
 20
6.9981309232
 11
-10.5902360405
 21
5.312251025
  0
LINE
  5
23F
100
AcDbEntity
  8
ASSI
100
AcDbLine
 62
253
  6
CONTINUOUS
 10
-10.4436328247
 20
5.1471709706
 11
-10.4341576708
 21
6.8045836071
  0
LINE
  5
240
100
AcDbEntity
  8
ASSI
100
AcDbLine
 62
7
  6
CONTINUOUS
 10
-10.5653520597
 20
8.6875160536
 11
-10.5806831178
 21
6.9981309232
  0
LINE
  5
241
100
AcDbEntity
  8
ASSI
100
AcDbLine
 62
253
  6
CONTINUOUS
 10
-10.4341576708
 20
6.8045836071
 11
-10.419097478
 21
8.4653843107
  0
LINE
  5
242
100
AcDbEntity
  8
ASSI
100
AcDbLine
 62
253
  6
CONTINUOUS
 10
-10.419097478
 20
8.4653843107
 11
-10.3984527144
 21
10.129577969
  0
LWPOLYLINE
  5
243
100
AcDbEntity
  8
ASSI
100
AcDbPolyline
 62
253
  6
CONTINUOUS
 90
46
 70
0
 10
-10.4475238321
 20
2.8436341251
 10
-10.4474221124
 20
2.8507805998
 10
-10.4471073094
 20
2.8580417536
 10
-10.4465798029
 20
2.8654088289
 10
-10.445840229
 20
2.8728729407
 10
-10.4448894797
 20
2.8804250865
 10
-10.4437287018
 20
2.888056158
 10
-10.4423592951
 20
2.8957569514
 10
-10.4407829113
 20
2.903518179
 10
-10.4390014517
 20
2.9113304802
 10
-10.4370170648
 20
2.9191844327
 10
-10.4348321439
 20
2.9270705642
 10
-10.4324493242
 20
2.9349793633
 10
-10.4298714796
 20
2.9429012915
 10
-10.4271017192
 20
2.9508267942
 10
-10.4241433834
 20
2.9587463128
 10
-10.4210000403
 20
2.9666502958
 10
-10.4176754809
 20
2.9745292102
 10
-10.414173715
 20
2.9823735535
 10
-10.410498966
 20
2.990173865
 10
-10.4066556658
 20
2.9979207367
 10
-10.4026484498
 20
3.0056048255
 10
-10.3984821509
 20
3.0132168636
 10
-10.3941617941
 20
3.0207476705
 10
-10.38969259
 20
3.0281881634
 10
-10.3850799289
 20
3.0355293686
 10
-10.3803293738
 20
3.0427624318
 10
-10.3754466545
 20
3.0498786297
 10
-10.3704376597
 20
3.0568693794
 10
-10.3653084308
 20
3.0637262496
 10
-10.3600651539
 20
3.0704409705
 10
-10.3547141528
 20
3.0770054435
 10
-10.3492618813
 20
3.0834117514
 10
-10.3437149152
 20
3.0896521677
 10
-10.3380799445
 20
3.0957191661
 10
-10.3323637655
 20
3.1016054292
 10
-10.3265732723
 20
3.1073038578
 10
-10.3207154487
 20
3.1128075791
 10
-10.3147973596
 20
3.1181099553
 10
-10.3088261427
 20
3.1232045913
 10
-10.3028089998
 20
3.1280853425
 10
-10.2967531879
 20
3.1327463225
 10
-10.2906660109
 20
3.1371819097
 10
-10.2845548103
 20
3.1413867545
 10
-10.2784269567
 20
3.1453557855
 10
-10.2722898407
 20
3.1490842158
  0
LWPOLYLINE
  5
244
100
AcDbEntity
  8
ASSI
100
AcDbPolyline
 62
7
  6
CONTINUOUS
 90
3
 70
0
 10
-10.5324847457
 20
11.1671439739
 10
-10.5442431853
 20
10.3803793664
 10
-10.5653520597
 20
8.6875160536
  0
LINE
  5
245
100
AcDbEntity
  8
ASSI
100
AcDbLine
 62
253
  6
CONTINUOUS
 10
-10.3984527144
 20
10.129577969
 11
-10.3796699849
 21
11.322336609
  0
LINE
  5
246
100
AcDbEntity
  8
ASSI
100
AcDbLine
 62
253
  6
CONTINUOUS
 10
-10.3796699849
 20
11.322336609
 11
-10.3626246921
 21
12.043674656
  0
LINE
  5
247
100
AcDbEntity
  8
ASSI
100
AcDbLine
 62
253
  6
CONTINUOUS
 10
-10.3626246921
 20
12.043674656
 11
-10.3398302343
 21
12.768340665
  0
LINE
  5
248
100
AcDbEntity
  8
ASSI
100
AcDbLine
 62
253
  6
CONTINUOUS
 10
-10.3398302343
 20
12.768340665
 11
-10.3112887083
 21
13.4962667987
  0
LINE
  5
249
100
AcDbEntity
  8
ASSI
100
AcDbLine
 62
253
  6
CONTINUOUS
 10
-10.3112887083
 20
13.4962667987
 11
-10.2770028045
 21
14.2273849232
  0
LINE
  5
24A
100
AcDbEntity
  8
ASSI
100
AcDbLine
 62
253
  6
CONTINUOUS
 10
-10.2770028045
 20
14.2273849232
 11
-10.2369757223
 21
14.9616265788
  0
LINE
  5
24B
100
AcDbEntity
  8
ASSI
100
AcDbLine
 62
253
  6
CONTINUOUS
 10
-10.2369757223
 20
14.9616265788
 11
-10.1912111749
 21
15.6989230477
  0
LINE
  5
24C
100
AcDbEntity
  8
ASSI
100
AcDbLine
 62
253
  6
CONTINUOUS
 10
-10.1912111749
 20
15.6989230477
 11
-10.1397134767
 21
16.4392053513
  0
LINE
  5
24D
100
AcDbEntity
  8
ASSI
100
AcDbLine
 62
253
  6
CONTINUOUS
 10
-10.1397134767
 20
16.4392053513
 11
-10.0824874235
 21
17.1824042389
  0
LINE
  5
24E
100
AcDbEntity
  8
ASSI
100
AcDbLine
 62
253
  6
CONTINUOUS
 10
-10.0824874235
 20
17.1824042389
 11
-10.0195383276
 21
17.9284501459
  0
LWPOLYLINE
  5
24F
100
AcDbEntity
  8
ASSI
100
AcDbPolyline
 62
253
  6
CONTINUOUS
 90
31
 70
0
 10
-9.8577016363
 20
21.1383344227
 10
-9.8581595357
 20
21.1333214911
 10
-9.8584342683
 20
21.1264575837
 10
-9.8583064424
 20
21.1195566427
 10
-9.8577761616
 20
21.1126242531
 10
-9.856843855
 20
21.1056660254
 10
-9.8555102771
 20
21.0986875913
 10
-9.8537765073
 20
21.0916945985
 10
-9.8516439487
 20
21.0846927067
 10
-9.8491143272
 20
21.0776875826
 10
-9.8461896903
 20
21.0706848957
 10
-9.8428724047
 20
21.0636903134
 10
-9.8391651554
 20
21.0567094967
 10
-9.8350709427
 20
21.0497480953
 10
-9.8305930801
 20
21.0428117433
 10
-9.8257351917
 20
21.0359060545
 10
-9.8205012091
 20
21.0290366177
 10
-9.8148953684
 20
21.0222089927
 10
-9.8089222064
 20
21.0154287052
 10
-9.8025865575
 20
21.0087012426
 10
-9.7958935491
 20
21.0020320497
 10
-9.7888485983
 20
20.9954265241
 10
-9.7814574065
 20
20.9888900117
 10
-9.7737259558
 20
20.9824278028
 10
-9.7656605034
 20
20.9760451274
 10
-9.7572675768
 20
20.9697471511
 10
-9.7485539688
 20
20.9635389711
 10
-9.7395267314
 20
20.9574256119
 10
-9.7301931706
 20
20.951412021
 10
-9.7205608404
 20
20.9455030656
 10
-9.7106375364
 20
20.9397035278
  0
LINE
  5
250
100
AcDbEntity
  8
ASSI
100
AcDbLine
 62
253
  6
CONTINUOUS
 10
-10.0195383276
 20
17.9284501459
 11
-9.9508721241
 21
18.6772732658
  0
LINE
  5
251
100
AcDbEntity
  8
ASSI
100
AcDbLine
 62
253
  6
CONTINUOUS
 10
-9.9508721241
 20
18.6772732658
 11
-9.8764952117
 21
19.4288034758
  0
LINE
  5
252
100
AcDbEntity
  8
ASSI
100
AcDbLine
 62
253
  6
CONTINUOUS
 10
-9.8764952117
 20
19.4288034758
 11
-9.7964144646
 21
20.1829703981
  0
LINE
  5
253
100
AcDbEntity
  8
ASSI
100
AcDbLine
 62
253
  6
CONTINUOUS
 10
-9.7964144646
 20
20.1829703981
 11
-9.7106375424
 21
20.9397035254
  0
LINE
  5
254
100
AcDbEntity
  8
0
100
AcDbLine
 62
253
  6
CONTINUOUS
 10
-5.4320908729
 20
-10.1580170981
 11
-4.5482073964
 21
-10.6683603398
  0
LINE
  5
255
100
AcDbEntity
  8
0
100
AcDbLine
 62
253
  6
CONTINUOUS
 10
-3.4168365465
 20
-11.3215996891
 11
-2.3561763747
 21
-11.9340115791
  0
LINE
  5
256
100
AcDbEntity
  8
0
100
AcDbLine
 62
253
  6
CONTINUOUS
 10
-0.3409220484
 20
-13.0975941701
 11
-1.2248055248
 21
-12.5872509284
  0
LINE
  5
257
100
AcDbEntity
  8
0
100
AcDbLine
 62
253
  6
CONTINUOUS
 10
-1.2618621337
 20
-11.7921766731
 11
-0.3779786572
 21
-12.3025199148
  0
LINE
  5
258
100
AcDbEntity
  8
0
100
AcDbLine
 62
253
  6
CONTINUOUS
 10
-2.3932329836
 20
-11.1389373238
 11
-3.4538931553
 21
-10.5265254338
  0
LINE
  5
259
100
AcDbEntity
  8
0
100
AcDbLine
 62
253
  6
CONTINUOUS
 10
-4.5852640052
 20
-9.8732860845
 11
-5.4691474817
 21
-9.3629428428
  0
LWPOLYLINE
  5
25A
100
AcDbEntity
  8
ASSI
100
AcDbPolyline
 62
7
  6
CONTINUOUS
 90
5
 70
0
 10
-9.8563352996
 20
-13.496387364
 10
-9.8471307098
 20
-13.5505400912
 10
-9.824588492
 20
-13.6369927094
 10
-9.7937271521
 20
-13.7173045054
 10
-9.7555196174
 20
-13.7905790623
  0
LWPOLYLINE
  5
25B
100
AcDbEntity
  8
ASSI
100
AcDbPolyline
 62
253
  6
CONTINUOUS
 90
26
 70
0
 10
-9.8563353056
 20
-13.4963873649
 10
-9.8555102831
 20
-13.5017900046
 10
-9.8537765133
 20
-13.5110232861
 10
-9.8516439548
 20
-13.5201893726
 10
-9.8491143334
 20
-13.5292808457
 10
-9.8461896965
 20
-13.5382903476
 10
-9.8428724111
 20
-13.5472105865
 10
-9.8391651618
 20
-13.556034343
 10
-9.8350709491
 20
-13.5647544759
 10
-9.8305930865
 20
-13.5733639278
 10
-9.8257351982
 20
-13.5818557307
 10
-9.8205012156
 20
-13.590223012
 10
-9.8148953749
 20
-13.5984589999
 10
-9.8089222129
 20
-13.6065570287
 10
-9.802586564
 20
-13.6145105445
 10
-9.7958935556
 20
-13.6223131103
 10
-9.7888486048
 20
-13.6299584113
 10
-9.781457413
 20
-13.63744026
 10
-9.7737259622
 20
-13.644752601
 10
-9.7656605098
 20
-13.6518895163
 10
-9.7572675832
 20
-13.6588452298
 10
-9.748553975
 20
-13.665614112
 10
-9.7395267376
 20
-13.6721906848
 10
-9.7301931767
 20
-13.6785696255
 10
-9.7205608464
 20
-13.6847457714
 10
-9.7106375423
 20
-13.6907141241
  0
LINE
  5
25C
100
AcDbEntity
  8
ASSI
100
AcDbLine
 62
7
  6
CONTINUOUS
 10
-9.8564294367
 20
-13.4957066644
 11
-9.8563353056
 21
-13.4963873649
  0
LWPOLYLINE
  5
25D
100
AcDbEntity
  8
ASSI
100
AcDbPolyline
 62
253
  6
CONTINUOUS
 90
17
 70
0
 10
-9.7106375424
 20
-13.6907141242
 10
-9.754237515
 20
-13.3660021484
 10
-9.7964144646
 20
-13.0401612288
 10
-9.8371673699
 20
-12.7131990151
 10
-9.8764952117
 20
-12.3851232042
 10
-9.9143970702
 20
-12.0559414755
 10
-9.9508721241
 20
-11.7256614914
 10
-9.985919494
 20
-11.3942909992
 10
-10.0195383276
 20
-11.0618377782
 10
-10.0517278961
 20
-10.7283095762
 10
-10.0824874235
 20
-10.393714219
 10
-10.111816162
 20
-10.0580595548
 10
-10.1397134767
 20
-9.7213534
 10
-10.1661786957
 20
-9.3836036518
 10
-10.1912111749
 20
-9.0448182308
 10
-10.214810373
 20
-8.7050050243
 10
-10.2369757223
 20
-8.3641719952
  0
LWPOLYLINE
  5
25E
100
AcDbEntity
  8
ASSI
100
AcDbPolyline
 62
7
  6
CONTINUOUS
 90
5
 70
0
 10
-10.593970672
 20
3.6969014959
 10
-10.5902869205
 20
3.6472798365
 10
-10.5798789321
 20
3.6007422623
 10
-10.5627328229
 20
3.5554062654
 10
-10.5389519337
 20
3.5120439935
  0
LWPOLYLINE
  5
25F
100
AcDbEntity
  8
ASSI
100
AcDbPolyline
 62
7
  6
CONTINUOUS
 90
9
 70
0
 10
-10.4422796457
 20
3.3373821664
 10
-10.4781212943
 20
3.3071049598
 10
-10.5094704418
 20
3.2739557334
 10
-10.5361685059
 20
3.2382025596
 10
-10.55797195
 20
3.2002875666
 10
-10.5745908642
 20
3.1610251453
 10
-10.5859946816
 20
3.1211805595
 10
-10.5923582391
 20
3.0812705865
 10
-10.5939703731
 20
3.0479806199
  0
LINE
  5
260
100
AcDbEntity
  8
ASSI
100
AcDbLine
 62
7
  6
CONTINUOUS
 10
-10.4101060072
 20
3.359596313
 11
-10.4422796457
 21
3.3373821664
  0
LWPOLYLINE
  5
261
100
AcDbEntity
  8
ASSI
100
AcDbPolyline
 62
253
  6
CONTINUOUS
 90
55
 70
0
 10
5.8371526072
 20
12.2912072362
 10
5.8267290331
 20
12.2874869448
 10
5.8160379153
 20
12.2839405434
 10
5.8050879065
 20
12.2805709021
 10
5.7938878686
 20
12.2773807482
 10
5.7824468663
 20
12.2743726634
 10
5.770774159
 20
12.2715490823
 10
5.7588791939
 20
12.2689122901
 10
5.7467715977
 20
12.2664644208
 10
5.7344611695
 20
12.2642074556
 10
5.7219578724
 20
12.2621432211
 10
5.7092718258
 20
12.2602733878
 10
5.6964132967
 20
12.2585994692
 10
5.6833926919
 20
12.2571228199
 10
5.6702205494
 20
12.2558446351
 10
5.6569075297
 20
12.2547659492
 10
5.6434644073
 20
12.2538876353
 10
5.6299020623
 20
12.2532104041
 10
5.6162314709
 20
12.2527348038
 10
5.6024636971
 20
12.2524612193
 10
5.5886098836
 20
12.252389872
 10
5.5746812425
 20
12.2525208197
 10
5.5606890468
 20
12.2528539563
 10
5.5466446207
 20
12.2533890124
 10
5.5325593308
 20
12.2541255547
 10
5.5184445765
 20
12.2550629873
 10
5.5043117814
 20
12.2562005514
 10
5.4901723836
 20
12.2575373263
 10
5.4760378263
 20
12.2590722303
 10
5.4619195492
 20
12.260804021
 10
5.4478289784
 20
12.2627312968
 10
5.433777518
 20
12.2648524981
 10
5.41977654
 20
12.2671659079
 10
5.4058373759
 20
12.2696696541
 10
5.391971307
 20
12.2723617102
 10
5.3781895554
 20
12.2752398975
 10
5.3645032752
 20
12.2783018867
 10
5.350923543
 20
12.2815451995
 10
5.3374613493
 20
12.2849672111
 10
5.3241275893
 20
12.2885651519
 10
5.3109330544
 20
12.2923361101
 10
5.2978884233
 20
12.2962770337
 10
5.2850042534
 20
12.3003847332
 10
5.2722909722
 20
12.3046558841
 10
5.2597588689
 20
12.3090870296
 10
5.2474180861
 20
12.3136745836
 10
5.2352786114
 20
12.3184148332
 10
5.2233502697
 20
12.323303942
 10
5.211642715
 20
12.3283379531
 10
5.2001654224
 20
12.3335127923
 10
5.1889276808
 20
12.3388242715
 10
5.1779385852
 20
12.344268092
 10
5.1672070295
 20
12.349839848
 10
5.1567416989
 20
12.35553503
 10
5.1465510633
 20
12.3613490288
  0
LINE
  5
262
100
AcDbEntity
  8
ASSI
100
AcDbLine
 62
253
  6
CONTINUOUS
 10
4.422556042
 20
-13.1002941166
 11
-10.3860361497
 21
-4.5499985804
  0
LWPOLYLINE
  5
263
100
AcDbEntity
  8
ASSI
100
AcDbPolyline
 62
253
  6
CONTINUOUS
 90
26
 70
0
 10
-10.5925897324
 20
3.6753867025
 10
-10.5913319317
 20
3.6672435744
 10
-10.5896718043
 20
3.6591231945
 10
-10.5876106933
 20
3.6510321546
 10
-10.5851502649
 20
3.6429769497
 10
-10.5822925083
 20
3.6349641126
 10
-10.5790397355
 20
3.6270001499
 10
-10.5753945778
 20
3.6190914655
 10
-10.5713599816
 20
3.611244469
 10
-10.5669392123
 20
3.6034655323
 10
-10.5621358529
 20
3.5957609257
 10
-10.5569537949
 20
3.5881369003
 10
-10.5513972279
 20
3.5805996346
 10
-10.5454706432
 20
3.5731551913
 10
-10.539178839
 20
3.5658096059
 10
-10.5325269022
 20
3.558568831
 10
-10.5255201967
 20
3.5514386849
 10
-10.5181643624
 20
3.5444249188
 10
-10.5104653711
 20
3.5375332435
 10
-10.5024295132
 20
3.5307692716
 10
-10.4940633337
 20
3.5241385055
 10
-10.4853735701
 20
3.5176462842
 10
-10.4763672046
 20
3.5112978119
 10
-10.4670515044
 20
3.5050982109
 10
-10.4574340222
 20
3.4990525154
 10
-10.4475225375
 20
3.493165617
  0
LWPOLYLINE
  5
264
100
AcDbEntity
  8
0
100
AcDbPolyline
 62
253
  6
CONTINUOUS
 90
37
 70
0
 10
-3.4168365465
 20
9.9066275075
 10
-3.4263965623
 20
9.8890529389
 10
-3.4354191114
 20
9.8711367591
 10
-3.4439202577
 20
9.8528640594
 10
-3.4519160656
 20
9.8342199313
 10
-3.4594225991
 20
9.8151894662
 10
-3.4664559224
 20
9.7957577554
 10
-3.4730288162
 20
9.7759131563
 10
-3.4791409283
 20
9.7556570899
 10
-3.484788623
 20
9.7349942429
 10
-3.4899682645
 20
9.7139293022
 10
-3.4946762173
 20
9.6924669547
 10
-3.4989088456
 20
9.6706118871
 10
-3.5026625882
 20
9.6483710153
 10
-3.505934181
 20
9.6257601711
 10
-3.5087204343
 20
9.6027974154
 10
-3.5110181584
 20
9.5795008088
 10
-3.5128241637
 20
9.5558884122
 10
-3.5141352603
 20
9.5319782864
 10
-3.5149490439
 20
9.5077889224
 10
-3.5152662503
 20
9.4833405318
 10
-3.5150884009
 20
9.4586537566
 10
-3.5144170168
 20
9.4337492386
 10
-3.5132536191
 20
9.4086476196
 10
-3.5115997292
 20
9.3833695417
 10
-3.5094571336
 20
9.357933585
 10
-3.506828681
 20
9.3323500836
 10
-3.5037174854
 20
9.30662731
 10
-3.5001266611
 20
9.2807735365
 10
-3.496059322
 20
9.2547970358
 10
-3.4915185824
 20
9.2287060801
 10
-3.4865047138
 20
9.2025021882
 10
-3.4810066181
 20
9.1761598628
 10
-3.475010355
 20
9.1496468532
 10
-3.4685019838
 20
9.1229309083
 10
-3.4614675641
 20
9.0959797773
 10
-3.4538931553
 20
9.0687612092
  0
LWPOLYLINE
  5
265
100
AcDbEntity
  8
ASSI
100
AcDbPolyline
 62
253
  6
CONTINUOUS
 90
58
 70
0
 10
5.8203109067
 20
13.4306479123
 10
5.8030682506
 20
13.4197729795
 10
5.7858576754
 20
13.4084460245
 10
5.7686889365
 20
13.3966736845
 10
5.7515716286
 20
13.3844629702
 10
5.7345155904
 20
13.3718209118
 10
5.7175308997
 20
13.3587545474
 10
5.7006271278
 20
13.3452714664
 10
5.6838139135
 20
13.3313795804
 10
5.6671013672
 20
13.3170867702
 10
5.6504990018
 20
13.3024014062
 10
5.6340161854
 20
13.2873320314
 10
5.6176627169
 20
13.2718871262
 10
5.6014478532
 20
13.2560756771
 10
5.5853807966
 20
13.2399069135
 10
5.5694711465
 20
13.2233899949
 10
5.5537279256
 20
13.2065345386
 10
5.5381600497
 20
13.1893503603
 10
5.5227768152
 20
13.1718472103
 10
5.507586945
 20
13.1540352707
 10
5.4925990409
 20
13.1359249072
 10
5.4778220527
 20
13.1175264118
 10
5.4632643684
 20
13.0988504909
 10
5.4489342203
 20
13.0799079938
 10
5.4348401377
 20
13.0607096644
 10
5.4209901036
 20
13.0412666388
 10
5.4073919682
 20
13.0215902287
 10
5.3940538541
 20
13.0016916509
 10
5.3809833325
 20
12.9815824663
 10
5.3681877917
 20
12.9612743418
 10
5.3556748516
 20
12.9407788322
 10
5.343451603
 20
12.9201078144
 10
5.3315249674
 20
12.8992732953
 10
5.3199020647
 20
12.8782871741
 10
5.3085894951
 20
12.8571616315
 10
5.2975936468
 20
12.8359089048
 10
5.286921058
 20
12.8145410954
 10
5.2765777772
 20
12.7930705679
 10
5.266569659
 20
12.7715097808
 10
5.2569026717
 20
12.7498710608
 10
5.2475823007
 20
12.7281669369
 10
5.2386138125
 20
12.7064099814
 10
5.2300025511
 20
12.6846126388
 10
5.221753403
 20
12.6627875211
 10
5.2138710276
 20
12.640947265
 10
5.2063601211
 20
12.6191043731
 10
5.199224953
 20
12.5972714947
 10
5.1924695435
 20
12.5754612457
 10
5.186097899
 20
12.553686067
 10
5.1801136269
 20
12.5319584978
 10
5.1745201196
 20
12.5102911509
 10
5.1693207309
 20
12.4886965328
 10
5.1645184293
 20
12.4671871863
 10
5.1601158991
 20
12.4457754737
 10
5.1561157329
 20
12.4244735547
 10
5.1525202344
 20
12.4032936646
 10
5.1493314084
 20
12.3822481052
 10
5.1465510632
 20
12.3613490288
  0
LINE
  5
266
100
AcDbEntity
  8
ASSI
100
AcDbLine
 62
7
  6
CONTINUOUS
 10
-10.4101060147
 20
3.3595963249
 11
-10.3914052823
 21
3.3713706431
  0
LWPOLYLINE
  5
267
100
AcDbEntity
  8
ASSI
100
AcDbPolyline
 62
253
  6
CONTINUOUS
 90
8
 70
0
 10
-10.4100108792
 20
3.3596563088
 10
-10.4093846499
 20
3.3600469186
 10
-10.4049101969
 20
3.3626328021
 10
-10.4002797341
 20
3.3649574075
 10
-10.3954989008
 20
3.3670179039
 10
-10.3905735195
 20
3.3688117817
 10
-10.3855095885
 20
3.3703368562
 10
-10.3826781923
 20
3.3710203683
  0
LWPOLYLINE
  5
268
100
AcDbEntity
  8
ASSI
100
AcDbPolyline
 62
253
  6
CONTINUOUS
 90
58
 70
0
 10
6.1798136415
 20
12.8225187359
 10
6.1710380802
 20
12.8171623249
 10
6.1622882068
 20
12.8115861745
 10
6.1535640213
 20
12.8057902846
 10
6.1448603639
 20
12.7997709645
 10
6.1361823944
 20
12.7935319051
 10
6.1275455922
 20
12.7870841784
 10
6.1189501755
 20
12.7804275091
 10
6.1103959261
 20
12.7735621726
 10
6.1018976686
 20
12.7665000675
 10
6.0934555183
 20
12.7592408664
 10
6.08506936
 20
12.7517848967
 10
6.076753673
 20
12.7441450387
 10
6.0685085715
 20
12.7363209681
 10
6.0603339414
 20
12.7283130091
 10
6.0522439192
 20
12.7201350154
 10
6.0442386522
 20
12.7117866928
 10
6.0363179931
 20
12.7032683355
 10
6.0284956367
 20
12.6945946794
 10
6.0207717533
 20
12.6857654557
 10
6.0131461726
 20
12.6767809331
 10
6.0056320776
 20
12.6676566542
 10
5.9982296659
 20
12.6583923833
 10
5.9909387399
 20
12.6489883562
 10
5.9837718896
 20
12.6394608219
 10
5.9767293247
 20
12.6298095604
 10
5.9698108355
 20
12.6200347919
 10
5.9630283829
 20
12.6101534262
 10
5.9563822063
 20
12.6001652848
 10
5.9498720662
 20
12.5900705463
 10
5.943509205
 20
12.5798866555
 10
5.9372938743
 20
12.5696134532
 10
5.9312258224
 20
12.5592510986
 10
5.9253155364
 20
12.5488175144
 10
5.9195632937
 20
12.5383125858
 10
5.9139688168
 20
12.5277364275
 10
5.9085417609
 20
12.517107307
 10
5.9032824125
 20
12.5064251273
 10
5.8981904851
 20
12.4956899852
 10
5.8932747743
 20
12.4849204388
 10
5.8885355855
 20
12.4741164302
 10
5.8839726134
 20
12.4632780174
 10
5.879593737
 20
12.4524239324
 10
5.8753992749
 20
12.4415541488
 10
5.8713889085
 20
12.4306686931
 10
5.8675695608
 20
12.4197863769
 10
5.8639415644
 20
12.4089072154
 10
5.8605045869
 20
12.3980311934
 10
5.8572645538
 20
12.3871770767
 10
5.8542218004
 20
12.376344881
 10
5.8513759915
 20
12.3655345907
 10
5.8487320477
 20
12.3547649246
 10
5.846290305
 20
12.3440358351
 10
5.8440504275
 20
12.3333473699
 10
5.8420163276
 20
12.3227183911
 10
5.8401893098
 20
12.3121551863
 10
5.8385680696
 20
12.301651468
 10
5.8371526072
 20
12.2912072362
  0
LINE
  5
269
100
AcDbEntity
  8
ASSI
100
AcDbLine
 62
253
  6
CONTINUOUS
 10
7.9329170424
 20
14.691649831
 11
5.8203109067
 21
13.4306479123
  0
LINE
  5
26A
100
AcDbEntity
  8
ASSI
100
AcDbLine
 62
253
  6
CONTINUOUS
 10
8.3178912008
 20
14.0987243944
 11
6.1798136415
 21
12.8225187359
  0
LINE
  5
26B
100
AcDbEntity
  8
ASSI
100
AcDbLine
 62
253
  6
CONTINUOUS
 10
-5.2784180521
 20
21.8014141665
 11
-5.2784180521
 21
21.738507828
  0
LWPOLYLINE
  5
26C
100
AcDbEntity
  8
0
100
AcDbPolyline
 62
253
  6
CONTINUOUS
 90
37
 70
0
 10
-2.3932329836
 20
8.4563493192
 10
-2.3838831347
 20
8.4737960046
 10
-2.3750590927
 20
8.4915906307
 10
-2.3667448639
 20
8.5097481649
 10
-2.358924455
 20
8.5282835749
 10
-2.3515818725
 20
8.5472118282
 10
-2.3447011228
 20
8.5665478924
 10
-2.3382694472
 20
8.5863034899
 10
-2.3322870253
 20
8.6064773626
 10
-2.3267572714
 20
8.6270650071
 10
-2.3216835998
 20
8.6480619202
 10
-2.3170694246
 20
8.6694635985
 10
-2.3129181603
 20
8.6912655386
 10
-2.3092331687
 20
8.7134609925
 10
-2.3060176031
 20
8.7360342323
 10
-2.3032745642
 20
8.7589672852
 10
-2.301007153
 20
8.7822421787
 10
-2.2992184702
 20
8.80584094
 10
-2.2979116167
 20
8.8297455964
 10
-2.2970889516
 20
8.8539377237
 10
-2.2967498664
 20
8.8783970918
 10
-2.2968930111
 20
8.9031030193
 10
-2.2975170352
 20
8.9280348245
 10
-2.2986205888
 20
8.953171826
 10
-2.3002023215
 20
8.9784933421
 10
-2.3022606427
 20
9.0039807382
 10
-2.3047929989
 20
9.029623568
 10
-2.3077965966
 20
9.0554134317
 10
-2.3112686418
 20
9.0813419299
 10
-2.3152063407
 20
9.107400663
 10
-2.3196068996
 20
9.1335812313
 10
-2.3244703141
 20
9.1598820078
 10
-2.3298077374
 20
9.186328454
 10
-2.3356331124
 20
9.2129528041
 10
-2.3419603818
 20
9.239787292
 10
-2.3488034883
 20
9.2668641518
 10
-2.3561763747
 20
9.2942156175
  0
LWPOLYLINE
  5
26D
100
AcDbEntity
  8
ASSI
100
AcDbPolyline
 62
253
  6
CONTINUOUS
 90
13
 70
0
 10
4.9091065307
 20
-5.1165215008
 10
4.9220715647
 20
-5.1131996447
 10
4.9348651873
 20
-5.1096668293
 10
4.9474770805
 20
-5.1059258336
 10
4.9598970845
 20
-5.1019797048
 10
4.9721151057
 20
-5.097831681
 10
4.9841211619
 20
-5.0934850791
 10
4.9959054904
 20
-5.0889434764
 10
5.0074586189
 20
-5.0842105672
 10
5.0187712713
 20
-5.0792900823
 10
5.0298343179
 20
-5.0741859926
 10
5.0406387875
 20
-5.0689025096
 10
5.0511759403
 20
-5.0634439441
  0
LWPOLYLINE
  5
26E
100
AcDbEntity
  8
ASSI
100
AcDbPolyline
 62
7
  6
CONTINUOUS
 90
5
 70
0
 10
-10.5389519337
 20
3.5120439935
 10
-10.5088858138
 20
3.4715392636
 10
-10.4728887097
 20
3.4344671755
 10
-10.4311902874
 20
3.4011748703
 10
-10.3960441865
 20
3.378738524
  0
LWPOLYLINE
  5
26F
100
AcDbEntity
  8
0
100
AcDbPolyline
 62
253
  6
CONTINUOUS
 90
37
 70
0
 10
-1.2248055248
 20
-12.5872509284
 10
-1.2343655622
 20
-12.5611622935
 10
-1.2433881295
 20
-12.5353438242
 10
-1.2518892909
 20
-12.5097645115
 10
-1.2598851108
 20
-12.4843933462
 10
-1.2673916535
 20
-12.4591993194
 10
-1.2744249832
 20
-12.4341514221
 10
-1.280997881
 20
-12.4092251322
 10
-1.2871099946
 20
-12.3844218761
 10
-1.2927576887
 20
-12.3597495673
 10
-1.2979373277
 20
-12.3352161192
 10
-1.3026452762
 20
-12.3108294454
 10
-1.3068778986
 20
-12.2865974592
 10
-1.310631634
 20
-12.2625300252
 10
-1.3139032185
 20
-12.2386448123
 10
-1.3166894626
 20
-12.2149614401
 10
-1.318987177
 20
-12.1914995287
 10
-1.3207931723
 20
-12.1682786978
 10
-1.322104259
 20
-12.1453185673
 10
-1.3229180329
 20
-12.1226383307
 10
-1.32323523
 20
-12.1002554751
 10
-1.3230573717
 20
-12.0781870613
 10
-1.3223859794
 20
-12.0564501503
 10
-1.3212225743
 20
-12.0350618027
 10
-1.3195686776
 20
-12.0140390794
 10
-1.3174260763
 20
-11.9933969193
 10
-1.314797619
 20
-11.9731417741
 10
-1.31168642
 20
-11.9532779736
 10
-1.3080955935
 20
-11.9338098477
 10
-1.3040282538
 20
-11.9147417263
 10
-1.299487515
 20
-11.8960779392
 10
-1.2944736491
 20
-11.8778197975
 10
-1.2889755579
 20
-11.8599565377
 10
-1.2829793012
 20
-11.8424743777
 10
-1.2764709385
 20
-11.825359535
 10
-1.2694365294
 20
-11.8085982276
 10
-1.2618621337
 20
-11.7921766731
  0
LINE
  5
270
100
AcDbEntity
  8
ASSI
100
AcDbLine
 62
7
  6
CONTINUOUS
 10
-5.0981668027
 20
22.2156343253
 11
-5.0769615134
 21
21.5991618279
  0
LINE
  5
271
100
AcDbEntity
  8
ASSI
100
AcDbLine
 62
7
  6
CONTINUOUS
 10
2.8214291466
 20
17.64295888
 11
2.6411778972
 21
17.2287387212
  0
LWPOLYLINE
  5
272
100
AcDbEntity
  8
0
100
AcDbPolyline
 62
253
  6
CONTINUOUS
 90
37
 70
0
 10
-0.3779786572
 20
7.2927667282
 10
-0.3686288083
 20
7.3102134136
 10
-0.3598047663
 20
7.3280080397
 10
-0.3514905375
 20
7.3461655739
 10
-0.3436701286
 20
7.3647009839
 10
-0.3363275461
 20
7.3836292372
 10
-0.3294467964
 20
7.4029653014
 10
-0.3230151208
 20
7.422720899
 10
-0.317032699
 20
7.4428947716
 10
-0.3115029451
 20
7.4634824162
 10
-0.3064292734
 20
7.4844793292
 10
-0.3018150983
 20
7.5058810075
 10
-0.2976638339
 20
7.5276829476
 10
-0.2939788424
 20
7.5498784015
 10
-0.2907632767
 20
7.5724516413
 10
-0.2880202378
 20
7.5953846943
 10
-0.2857528266
 20
7.6186595877
 10
-0.2839641438
 20
7.642258349
 10
-0.2826572903
 20
7.6661630054
 10
-0.2818346252
 20
7.6903551327
 10
-0.2814955401
 20
7.7148145009
 10
-0.2816386847
 20
7.7395204283
 10
-0.2822627089
 20
7.7644522336
 10
-0.2833662624
 20
7.789589235
 10
-0.2849479952
 20
7.8149107511
 10
-0.2870063163
 20
7.8403981473
 10
-0.2895386725
 20
7.866040977
 10
-0.2925422702
 20
7.8918308407
 10
-0.2960143154
 20
7.9177593389
 10
-0.2999520143
 20
7.943818072
 10
-0.3043525732
 20
7.9699986404
 10
-0.3092159877
 20
7.9962994168
 10
-0.314553411
 20
8.022745863
 10
-0.320378786
 20
8.0493702131
 10
-0.3267060554
 20
8.076204701
 10
-0.333549162
 20
8.1032815608
 10
-0.3409220484
 20
8.1306330265
  0
LWPOLYLINE
  5
273
100
AcDbEntity
  8
0
100
AcDbPolyline
 62
253
  6
CONTINUOUS
 90
37
 70
0
 10
-1.2248055248
 20
8.6409762682
 10
-1.2343655407
 20
8.6234016996
 10
-1.2433880897
 20
8.6054855198
 10
-1.2518892361
 20
8.5872128201
 10
-1.2598850439
 20
8.568568692
 10
-1.2673915774
 20
8.5495382268
 10
-1.2744249007
 20
8.5301065161
 10
-1.2809977945
 20
8.510261917
 10
-1.2871099066
 20
8.4900058505
 10
-1.2927576013
 20
8.4693430036
 10
-1.2979372428
 20
8.4482780629
 10
-1.3026451956
 20
8.4268157153
 10
-1.306877824
 20
8.4049606478
 10
-1.3106315665
 20
8.382719776
 10
-1.3139031593
 20
8.3601089318
 10
-1.3166894126
 20
8.3371461761
 10
-1.3189871367
 20
8.3138495695
 10
-1.320793142
 20
8.2902371729
 10
-1.3221042386
 20
8.2663270471
 10
-1.3229180222
 20
8.2421376831
 10
-1.3232352286
 20
8.2176892925
 10
-1.3230573792
 20
8.1930025173
 10
-1.3223859951
 20
8.1680979993
 10
-1.3212225975
 20
8.1429963803
 10
-1.3195687075
 20
8.1177183024
 10
-1.3174261119
 20
8.0922823457
 10
-1.3147976593
 20
8.0666988443
 10
-1.3116864638
 20
8.0409760707
 10
-1.3080956394
 20
8.0151222972
 10
-1.3040283003
 20
7.9891457965
 10
-1.2994875607
 20
7.9630548408
 10
-1.2944736921
 20
7.9368509488
 10
-1.2889755965
 20
7.9105086235
 10
-1.2829793333
 20
7.8839956139
 10
-1.2764709622
 20
7.857279669
 10
-1.2694365424
 20
7.830328538
 10
-1.2618621337
 20
7.8031099699
  0
LWPOLYLINE
  5
274
100
AcDbEntity
  8
0
100
AcDbPolyline
 62
253
  6
CONTINUOUS
 90
37
 70
0
 10
-0.3779786572
 20
-12.3025199148
 10
-0.3686288027
 20
-12.3287133435
 10
-0.3598047556
 20
-12.3546311483
 10
-0.3514905226
 20
-12.3803043949
 10
-0.34367011
 20
-12.4057641488
 10
-0.3363275244
 20
-12.4310414756
 10
-0.3294467724
 20
-12.4561674408
 10
-0.323015095
 20
-12.4811665825
 10
-0.3170326719
 20
-12.5060373291
 10
-0.3115029172
 20
-12.5307715814
 10
-0.3064292453
 20
-12.5553612403
 10
-0.3018150704
 20
-12.5797982066
 10
-0.2976638067
 20
-12.6040743812
 10
-0.2939788162
 20
-12.6281797264
 10
-0.2907632521
 20
-12.6520964508
 10
-0.2880202153
 20
-12.6758048245
 10
-0.2857528068
 20
-12.6992851175
 10
-0.2839641275
 20
-12.7225176
 10
-0.2826572783
 20
-12.7454825421
 10
-0.2818346184
 20
-12.7681606689
 10
-0.2814955391
 20
-12.7905345264
 10
-0.28163869
 20
-12.8125871157
 10
-0.2822627206
 20
-12.8343014377
 10
-0.2833662805
 20
-12.8556604937
 10
-0.2849480194
 20
-12.8766472846
 10
-0.287006346
 20
-12.8972469445
 10
-0.2895387071
 20
-12.9174531396
 10
-0.2925423086
 20
-12.9372616689
 10
-0.2960143564
 20
-12.9566683316
 10
-0.2999520568
 20
-12.9756689268
 10
-0.3043526155
 20
-12.9942592536
 10
-0.3092160281
 20
-13.012438092
 10
-0.3145534477
 20
-13.0302161447
 10
-0.3203788169
 20
-13.0476070953
 10
-0.3267060784
 20
-13.0646246273
 10
-0.3335491747
 20
-13.0812824244
 10
-0.3409220484
 20
-13.0975941701
  0
LWPOLYLINE
  5
275
100
AcDbEntity
  8
ASSI
100
AcDbPolyline
 62
7
  6
CONTINUOUS
 90
13
 70
0
 10
4.4083488897
 20
-5.1691332609
 10
4.4498697782
 20
-5.1905954453
 10
4.4977225372
 20
-5.2099464365
 10
4.5472523691
 20
-5.2249602847
 10
4.5984001153
 20
-5.235865387
 10
4.6507948796
 20
-5.2426903788
 10
4.7035293332
 20
-5.245405038
 10
4.7563374482
 20
-5.2440507936
 10
4.808952505
 20
-5.2385830048
 10
4.860456503
 20
-5.2290140966
 10
4.9104712298
 20
-5.2153134734
 10
4.9589466832
 20
-5.1972575904
 10
4.9975988118
 20
-5.178848443
  0
LWPOLYLINE
  5
276
100
AcDbEntity
  8
ASSI
100
AcDbPolyline
 62
253
  6
CONTINUOUS
 90
43
 70
0
 10
4.356621892
 20
-5.054561837
 10
4.3668192904
 20
-5.0602855558
 10
4.3772944305
 20
-5.0658410886
 10
4.3880388391
 20
-5.071223943
 10
4.3990438039
 20
-5.0764297619
 10
4.4103004434
 20
-5.0814543439
 10
4.421799719
 20
-5.0862936426
 10
4.4335323869
 20
-5.0909437697
 10
4.4454889087
 20
-5.0954009412
 10
4.4576595197
 20
-5.0996615
 10
4.4700343308
 20
-5.1037219987
 10
4.4826033721
 20
-5.1075791756
 10
4.4953565065
 20
-5.1112298991
 10
4.5082834251
 20
-5.1146712323
 10
4.5213736645
 20
-5.1179003989
 10
4.5346166471
 20
-5.120914761
 10
4.5480016713
 20
-5.1237118992
 10
4.5615179001
 20
-5.1262895604
 10
4.57515438
 20
-5.1286456217
 10
4.5889000737
 20
-5.130778197
 10
4.6027438681
 20
-5.1326855779
 10
4.6166745638
 20
-5.1343661828
 10
4.6306808884
 20
-5.1358186747
 10
4.6447515152
 20
-5.1370418979
 10
4.658875072
 20
-5.1380348196
 10
4.6730401383
 20
-5.1387966616
 10
4.6872352513
 20
-5.1393268282
 10
4.7014489251
 20
-5.1396248411
 10
4.7156696618
 20
-5.1396904866
 10
4.7298859578
 20
-5.1395237352
 10
4.7440863098
 20
-5.139124668
 10
4.7582592263
 20
-5.1384936375
 10
4.7723932469
 20
-5.1376311804
 10
4.7864769477
 20
-5.1365379355
 10
4.8004989392
 20
-5.1352148178
 10
4.814447875
 20
-5.1336629256
 10
4.82831247
 20
-5.1318834523
 10
4.8420815149
 20
-5.129877869
 10
4.8557438648
 20
-5.1276478287
 10
4.8692884467
 20
-5.125195074
 10
4.8827042942
 20
-5.1225216261
 10
4.8959805654
 20
-5.1196296785
 10
4.9091065307
 20
-5.1165215008
  0
LINE
  5
277
100
AcDbEntity
  8
ASSI
100
AcDbLine
 62
253
  6
CONTINUOUS
 10
4.3566218917
 20
-5.7040940763
 11
-10.4475225378
 21
2.8436333778
  0
LINE
  5
278
100
AcDbEntity
  8
ASSI
100
AcDbLine
 62
253
  6
CONTINUOUS
 10
4.5318571774
 20
-5.3986447328
 11
-10.2722898407
 21
3.1490842158
  0
LINE
  5
279
100
AcDbEntity
  8
ASSI
100
AcDbLine
 62
7
  6
CONTINUOUS
 10
-10.3957532328
 20
3.3785697328
 11
4.4083937853
 21
-5.1691592159
  0
LINE
  5
27A
100
AcDbEntity
  8
ASSI
100
AcDbLine
 62
253
  6
CONTINUOUS
 10
-10.4475225378
 20
3.4931656164
 11
4.3566218917
 21
-5.0545618377
  0
LWPOLYLINE
  5
27B
100
AcDbEntity
  8
ASSI
100
AcDbPolyline
 62
253
  6
CONTINUOUS
 90
29
 70
0
 10
-10.4475225375
 20
2.8436333775
 10
-10.4574340222
 20
2.8495221793
 10
-10.4670515044
 20
2.8555729129
 10
-10.4763672046
 20
2.8617806857
 10
-10.4853735701
 20
2.8681404708
 10
-10.4940633337
 20
2.8746471347
 10
-10.5024295132
 20
2.8812954439
 10
-10.5104653711
 20
2.8880800627
 10
-10.5181643624
 20
2.894995479
 10
-10.5255201967
 20
2.9020360295
 10
-10.5325269022
 20
2.9091960051
 10
-10.539178839
 20
2.9164696441
 10
-10.5454706432
 20
2.9238510586
 10
-10.5513972279
 20
2.9313342969
 10
-10.5569537948
 20
2.9389133115
 10
-10.5621358529
 20
2.9465819504
 10
-10.5669392123
 20
2.9543340344
 10
-10.5713599816
 20
2.9621632998
 10
-10.5753945778
 20
2.9700633685
 10
-10.5790397355
 20
2.9780278666
 10
-10.5822925083
 20
2.9860503707
 10
-10.5851502649
 20
2.9941243518
 10
-10.5876106933
 20
3.0022432995
 10
-10.5896718043
 20
3.0104006667
 10
-10.5913319317
 20
3.0185898162
 10
-10.5925897324
 20
3.0268041516
 10
-10.5934441877
 20
3.0350370468
 10
-10.5938946058
 20
3.043281791
 10
-10.5939704
 20
3.0479819802
  0
LWPOLYLINE
  5
27C
100
AcDbEntity
  8
ASSI
100
AcDbPolyline
 62
253
  6
CONTINUOUS
 90
48
 70
0
 10
-10.2722898407
 20
3.1490842158
 10
-10.2772510439
 20
3.1520325254
 10
-10.2820578986
 20
3.1550575932
 10
-10.2867104047
 20
3.1581594191
 10
-10.2912121457
 20
3.1613406756
 10
-10.2955595382
 20
3.1645986903
 10
-10.2997418321
 20
3.167925446
 10
-10.3037585637
 20
3.1713210742
 10
-10.3076101967
 20
3.1747854434
 10
-10.3112873721
 20
3.1783101417
 10
-10.3147896562
 20
3.1818953078
 10
-10.3181174827
 20
3.1855408029
 10
-10.321262794
 20
3.1892377981
 10
-10.3242251497
 20
3.1929864192
 10
-10.3270049901
 20
3.1967865403
 10
-10.3295955788
 20
3.2006289562
 10
-10.3319964584
 20
3.2045137726
 10
-10.3342080862
 20
3.2084408837
 10
-10.3362250976
 20
3.2124007663
 10
-10.3380470189
 20
3.2163934981
 10
-10.3396743237
 20
3.2204190013
 10
-10.3411030678
 20
3.2244675199
 10
-10.3423327696
 20
3.2285391085
 10
-10.3433639108
 20
3.2326337124
 10
-10.3441939922
 20
3.2367414108
 10
-10.3448225266
 20
3.2408622372
 10
-10.3452500012
 20
3.244996158
 10
-10.345475379
 20
3.2491331519
 10
-10.3454981695
 20
3.2532732258
 10
-10.3453188631
 20
3.2574163727
 10
-10.3449378948
 20
3.26155255
 10
-10.3443547756
 20
3.2656817394
 10
-10.3435699943
 20
3.2698039592
 10
-10.3425854523
 20
3.2739092216
 10
-10.341400665
 20
3.2779974866
 10
-10.3400161168
 20
3.2820687942
 10
-10.3384351629
 20
3.2861132769
 10
-10.3366573254
 20
3.2901308715
 10
-10.334683082
 20
3.2941216412
 10
-10.3325172213
 20
3.298075908
 10
-10.3301592799
 20
3.30199358
 10
-10.3276097212
 20
3.3058747491
 10
-10.3248747234
 20
3.3097100126
 10
-10.3219538392
 20
3.3134992587
 10
-10.318847516
 20
3.3172425993
 10
-10.3155632746
 20
3.3209309683
 10
-10.3121006732
 20
3.3245642399
 10
-10.3084601536
 20
3.32814254
  0
LWPOLYLINE
  5
27D
100
AcDbEntity
  8
0
100
AcDbPolyline
 62
253
  6
CONTINUOUS
 90
37
 70
0
 10
-5.4691474817
 20
10.2323438002
 10
-5.476721886
 20
10.2595623516
 10
-5.483756302
 20
10.2865134669
 10
-5.4902646703
 20
10.3132293972
 10
-5.4962609313
 20
10.3397423933
 10
-5.5017590255
 20
10.3660847063
 10
-5.5067728934
 20
10.392288587
 10
-5.5113136329
 20
10.4183795326
 10
-5.5153809723
 20
10.4443560246
 10
-5.5189717975
 20
10.4702097904
 10
-5.5220829944
 20
10.4959325578
 10
-5.5247114486
 20
10.5215160543
 10
-5.5268540462
 20
10.5469520075
 10
-5.5285079384
 20
10.5722300835
 10
-5.5296713384
 20
10.5973317017
 10
-5.530342725
 20
10.6222362202
 10
-5.530520577
 20
10.646922997
 10
-5.5302033731
 20
10.6713713901
 10
-5.529389592
 20
10.6955607575
 10
-5.5280784976
 20
10.7194708873
 10
-5.5262724945
 20
10.7430832885
 10
-5.5239747723
 20
10.7663799003
 10
-5.5211885207
 20
10.7893426616
 10
-5.5179169294
 20
10.8119535117
 10
-5.514163188
 20
10.8341943896
 10
-5.5099305606
 20
10.8560494636
 10
-5.5052226085
 20
10.8775118176
 10
-5.5000429672
 20
10.898576765
 10
-5.4943952725
 20
10.919239619
 10
-5.48828316
 20
10.9394956926
 10
-5.4817102652
 20
10.959340299
 10
-5.4746769405
 20
10.9787720174
 10
-5.4671704051
 20
10.9978024904
 10
-5.4591745948
 20
11.0164466264
 10
-5.4506734455
 20
11.0347193341
 10
-5.4416508929
 20
11.0526355219
 10
-5.4320908729
 20
11.0702100985
  0
LWPOLYLINE
  5
27E
100
AcDbEntity
  8
0
100
AcDbPolyline
 62
253
  6
CONTINUOUS
 90
37
 70
0
 10
-5.4691474817
 20
-9.3629428428
 10
-5.4767218814
 20
-9.3793644062
 10
-5.4837562936
 20
-9.3961257224
 10
-5.4902646588
 20
-9.4132405736
 10
-5.4962609173
 20
-9.430722742
 10
-5.5017590096
 20
-9.4485860098
 10
-5.5067728761
 20
-9.4668441591
 10
-5.5113136149
 20
-9.4855079534
 10
-5.5153809542
 20
-9.5045760814
 10
-5.5189717798
 20
-9.524044213
 10
-5.5220829776
 20
-9.5439080182
 10
-5.5247114334
 20
-9.564163167
 10
-5.526854033
 20
-9.5848053294
 10
-5.5285079278
 20
-9.6058280534
 10
-5.529671331
 20
-9.6272164003
 10
-5.5303427214
 20
-9.6489533095
 10
-5.5305205779
 20
-9.6710217202
 10
-5.5302033792
 20
-9.6934045719
 10
-5.529389604
 20
-9.7160848038
 10
-5.5280785163
 20
-9.739044929
 10
-5.5262725203
 20
-9.7622657542
 10
-5.5239748054
 20
-9.7857276598
 10
-5.521188561
 20
-9.8094110262
 10
-5.5179169764
 20
-9.8332962337
 10
-5.5141632411
 20
-9.8573636627
 10
-5.5099306187
 20
-9.8815956446
 10
-5.5052226704
 20
-9.9059823147
 10
-5.5000430316
 20
-9.9305157596
 10
-5.4943953379
 20
-9.9551880655
 10
-5.4882832246
 20
-9.979991319
 10
-5.4817103273
 20
-10.0049176064
 10
-5.474676998
 20
-10.0299655013
 10
-5.467170456
 20
-10.0551595255
 10
-5.4591746367
 20
-10.0805306883
 10
-5.450673476
 20
-10.1061099986
 10
-5.4416509095
 20
-10.1319284655
 10
-5.4320908729
 20
-10.1580170981
  0
LWPOLYLINE
  5
27F
100
AcDbEntity
  8
0
100
AcDbPolyline
 62
253
  6
CONTINUOUS
 90
37
 70
0
 10
-4.5482073964
 20
10.5598668568
 10
-4.5408345094
 20
10.5325153887
 10
-4.5339914023
 20
10.5054385264
 10
-4.5276641324
 20
10.4786040359
 10
-4.521838757
 20
10.4519796832
 10
-4.5165013333
 20
10.4255332344
 10
-4.5116379186
 20
10.3992324553
 10
-4.5072373595
 20
10.3730518843
 10
-4.5032996604
 20
10.3469931485
 10
-4.4998276152
 20
10.3210646473
 10
-4.4968240176
 20
10.2952747802
 10
-4.4942916615
 20
10.2696319466
 10
-4.4922333407
 20
10.2441445459
 10
-4.4906516084
 20
10.2188230245
 10
-4.4895480554
 20
10.1936860173
 10
-4.488924032
 20
10.168754206
 10
-4.4887808884
 20
10.1440482724
 10
-4.4891199748
 20
10.1195888982
 10
-4.4899426415
 20
10.0953967653
 10
-4.4912494968
 20
10.0714921039
 10
-4.4930381816
 20
10.0478933385
 10
-4.495305595
 20
10.0246184418
 10
-4.498048636
 20
10.0016853868
 10
-4.5012642037
 20
9.9791121463
 10
-4.5049491971
 20
9.9569166931
 10
-4.509100463
 20
9.9351147553
 10
-4.5137146393
 20
9.9137130808
 10
-4.5187883117
 20
9.8927161728
 10
-4.524318066
 20
9.8721285343
 10
-4.5303004877
 20
9.8519546686
 10
-4.5367321626
 20
9.8321990786
 10
-4.543612911
 20
9.8128630224
 10
-4.5509554916
 20
9.7939347776
 10
-4.5587758979
 20
9.7753993764
 10
-4.5670901233
 20
9.7572418512
 10
-4.5759141613
 20
9.7394472345
 10
-4.5852640052
 20
9.7220005585
  0
LWPOLYLINE
  5
280
100
AcDbEntity
  8
0
100
AcDbPolyline
 62
253
  6
CONTINUOUS
 90
37
 70
0
 10
-4.5482073964
 20
-10.6683603398
 10
-4.5408345259
 20
-10.6520486015
 10
-4.5339914322
 20
-10.6353908119
 10
-4.5276641729
 20
-10.6183732873
 10
-4.5218388052
 20
-10.6009823442
 10
-4.5165013867
 20
-10.5832042988
 10
-4.5116379747
 20
-10.5650254677
 10
-4.5072374162
 20
-10.5464351478
 10
-4.5032997158
 20
-10.5274345594
 10
-4.4998276673
 20
-10.5080279032
 10
-4.496824065
 20
-10.4882193803
 10
-4.4942917028
 20
-10.4680131915
 10
-4.4922333747
 20
-10.4474135377
 10
-4.4906516343
 20
-10.4264267527
 10
-4.4895480724
 20
-10.4050677024
 10
-4.4889240397
 20
-10.3833533857
 10
-4.4887808866
 20
-10.3613008015
 10
-4.4891199636
 20
-10.3389269485
 10
-4.4899426211
 20
-10.3162488256
 10
-4.4912494677
 20
-10.2932838868
 10
-4.4930381444
 20
-10.2700514068
 10
-4.4953055504
 20
-10.2465711154
 10
-4.4980485849
 20
-10.2228627423
 10
-4.5012641468
 20
-10.1989460173
 10
-4.5049491354
 20
-10.1748406702
 10
-4.5091003976
 20
-10.1505644925
 10
-4.5137145714
 20
-10.1261275216
 10
-4.5187882426
 20
-10.1015378568
 10
-4.5243179971
 20
-10.0768035974
 10
-4.5303004206
 20
-10.0519328424
 10
-4.536732099
 20
-10.026933691
 10
-4.5436128528
 20
-10.0018077151
 10
-4.5509554407
 20
-9.9765303766
 10
-4.5587758564
 20
-9.9510706098
 10
-4.5670900933
 20
-9.9253973492
 10
-4.5759141451
 20
-9.8994795293
 10
-4.5852640052
 20
-9.8732860845
  0
LWPOLYLINE
  5
281
100
AcDbEntity
  8
0
100
AcDbPolyline
 62
253
  6
CONTINUOUS
 90
37
 70
0
 10
-3.4538931553
 20
-10.5265254338
 10
-3.461467555
 20
-10.5429469972
 10
-3.4685019672
 20
-10.5597083134
 10
-3.4750103324
 20
-10.5768231646
 10
-3.4810065909
 20
-10.594305333
 10
-3.4865046832
 20
-10.6121686008
 10
-3.4915185497
 20
-10.6304267501
 10
-3.4960592885
 20
-10.6490905444
 10
-3.5001266278
 20
-10.6681586724
 10
-3.5037174534
 20
-10.687626804
 10
-3.5068286512
 20
-10.7074906092
 10
-3.509457107
 20
-10.727745758
 10
-3.5115997066
 20
-10.7483879203
 10
-3.5132536014
 20
-10.7694106444
 10
-3.5144170046
 20
-10.7907989913
 10
-3.5150883951
 20
-10.8125359004
 10
-3.5152662515
 20
-10.8346043112
 10
-3.5149490528
 20
-10.8569871628
 10
-3.5141352776
 20
-10.8796673948
 10
-3.5128241899
 20
-10.90262752
 10
-3.5110181939
 20
-10.9258483452
 10
-3.508720479
 20
-10.9493102508
 10
-3.5059342346
 20
-10.9729936172
 10
-3.5026626501
 20
-10.9968788247
 10
-3.4989089147
 20
-11.0209462537
 10
-3.4946762924
 20
-11.0451782356
 10
-3.489968344
 20
-11.0695649057
 10
-3.4847887053
 20
-11.0940983506
 10
-3.4791410115
 20
-11.1187706565
 10
-3.4730288982
 20
-11.14357391
 10
-3.4664560009
 20
-11.1685001974
 10
-3.4594226717
 20
-11.1935480923
 10
-3.4519161296
 20
-11.2187421165
 10
-3.4439203103
 20
-11.2441132793
 10
-3.4354191496
 20
-11.2696925896
 10
-3.4263965831
 20
-11.2955110565
 10
-3.4168365465
 20
-11.3215996891
  0
LWPOLYLINE
  5
282
100
AcDbEntity
  8
ASSI
100
AcDbPolyline
 62
253
  6
CONTINUOUS
 90
55
 70
0
 10
5.1170447904
 20
2.3978478907
 10
5.1065093804
 20
2.3925557634
 10
5.0957066509
 20
2.3874387106
 10
5.0846453403
 20
2.3825008716
 10
5.0733343966
 20
2.3777462408
 10
5.0617829693
 20
2.3731786643
 10
5.0500004026
 20
2.368801837
 10
5.0379962278
 20
2.3646192993
 10
5.0257801553
 20
2.3606344345
 10
5.0133620669
 20
2.3568504662
 10
5.0007520079
 20
2.3532704552
 10
4.9879601789
 20
2.3498972976
 10
4.9749969275
 20
2.3467337219
 10
4.9618727399
 20
2.3437822872
 10
4.9485982326
 20
2.341045381
 10
4.9351841435
 20
2.3385252173
 10
4.9216413238
 20
2.3362238346
 10
4.9079807285
 20
2.3341430947
 10
4.8942134078
 20
2.3322846806
 10
4.8803504986
 20
2.3306500957
 10
4.8664032149
 20
2.3292406622
 10
4.8523828388
 20
2.3280575203
 10
4.8383007119
 20
2.327101627
 10
4.8241682254
 20
2.3263737555
 10
4.8099968114
 20
2.3258744947
 10
4.7957979336
 20
2.3256042485
 10
4.7815830777
 20
2.3255632353
 10
4.7673637424
 20
2.3257514885
 10
4.75315143
 20
2.3261688557
 10
4.7389576373
 20
2.3268149993
 10
4.7247938458
 20
2.3276893966
 10
4.7106715131
 20
2.3287913403
 10
4.6966020629
 20
2.3301199391
 10
4.6825968764
 20
2.3316741181
 10
4.6686672827
 20
2.3334526202
 10
4.6548245497
 20
2.3354540067
 10
4.6410798751
 20
2.3376766586
 10
4.6274443773
 20
2.340118778
 10
4.6139290864
 20
2.3427783895
 10
4.6005449351
 20
2.3456533415
 10
4.5873027503
 20
2.3487413085
 10
4.5742132438
 20
2.3520397925
 10
4.5612870041
 20
2.3555461253
 10
4.5485344873
 20
2.3592574706
 10
4.5359660094
 20
2.3631708262
 10
4.5235917373
 20
2.3672830265
 10
4.5114216808
 20
2.371590745
 10
4.4994656844
 20
2.3760904972
 10
4.4877334198
 20
2.380778643
 10
4.4762343773
 20
2.3856513901
 10
4.4649778589
 20
2.3907047969
 10
4.4539729701
 20
2.3959347755
 10
4.4432286131
 20
2.4013370953
 10
4.4327534792
 20
2.4069073863
 10
4.422556042
 20
2.4126411424
  0
LINE
  5
283
100
AcDbEntity
  8
ASSI
100
AcDbLine
 62
7
  6
CONTINUOUS
 10
8.6923564836
 20
-3.3101726288
 11
8.6157878381
 21
-3.2659628525
  0
LINE
  5
284
100
AcDbEntity
  8
ASSI
100
AcDbLine
 62
253
  6
CONTINUOUS
 10
2.6411778972
 20
17.2287387212
 11
2.6411778972
 21
17.1658323827
  0
LWPOLYLINE
  5
285
100
AcDbEntity
  8
0
100
AcDbPolyline
 62
253
  6
CONTINUOUS
 90
37
 70
0
 10
-2.3561763747
 20
-11.9340115791
 10
-2.3488035042
 20
-11.9176998408
 10
-2.3419604106
 20
-11.9010420512
 10
-2.3356331512
 20
-11.8840245267
 10
-2.3298077835
 20
-11.8666335835
 10
-2.324470365
 20
-11.8488555382
 10
-2.3196069531
 20
-11.830676707
 10
-2.3152063946
 20
-11.8120863871
 10
-2.3112686941
 20
-11.7930857987
 10
-2.3077966457
 20
-11.7736791426
 10
-2.3047930433
 20
-11.7538706197
 10
-2.3022606811
 20
-11.7336644308
 10
-2.3002023531
 20
-11.713064777
 10
-2.2986206126
 20
-11.692077992
 10
-2.2975170508
 20
-11.6707189418
 10
-2.2968930181
 20
-11.6490046251
 10
-2.296749865
 20
-11.6269520408
 10
-2.2970889419
 20
-11.6045781878
 10
-2.2979115994
 20
-11.5819000649
 10
-2.299218446
 20
-11.5589351261
 10
-2.3010071228
 20
-11.5357026461
 10
-2.3032745288
 20
-11.5122223547
 10
-2.3060175632
 20
-11.4885139816
 10
-2.3092331251
 20
-11.4645972566
 10
-2.3129181137
 20
-11.4404919096
 10
-2.3170693759
 20
-11.4162157318
 10
-2.3216835497
 20
-11.3917787609
 10
-2.3267572209
 20
-11.3671890961
 10
-2.3322869754
 20
-11.3424548367
 10
-2.338269399
 20
-11.3175840817
 10
-2.3447010774
 20
-11.2925849304
 10
-2.3515818311
 20
-11.2674589545
 10
-2.358924419
 20
-11.2421816159
 10
-2.3667448347
 20
-11.2167218491
 10
-2.3750590717
 20
-11.1910485885
 10
-2.3838831234
 20
-11.1651307686
 10
-2.3932329836
 20
-11.1389373238
  0
LWPOLYLINE
  5
286
100
AcDbEntity
  8
ASSI
100
AcDbPolyline
 62
253
  6
CONTINUOUS
 90
58
 70
0
 10
5.8371526072
 20
-22.2174892426
 10
5.8385680696
 20
-22.2264092407
 10
5.8401893098
 20
-22.2351671346
 10
5.8420163276
 20
-22.2437629243
 10
5.8440504275
 20
-22.2522014928
 10
5.846290305
 20
-22.260477957
 10
5.8487320477
 20
-22.268577668
 10
5.8513759915
 20
-22.2765002163
 10
5.8542218004
 20
-22.2842460114
 10
5.8572645538
 20
-22.291801633
 10
5.8605045869
 20
-22.2991667362
 10
5.8639415644
 20
-22.3063416659
 10
5.8675695608
 20
-22.3133140375
 10
5.8713889085
 20
-22.3200835081
 10
5.8753992749
 20
-22.3266504206
 10
5.879593737
 20
-22.3330034184
 10
5.8839726134
 20
-22.339142132
 10
5.8885355855
 20
-22.345066931
 10
5.8932747743
 20
-22.3507675677
 10
5.8981904851
 20
-22.3562436551
 10
5.9032824125
 20
-22.3614955804
 10
5.9085417609
 20
-22.3665142568
 10
5.9139688168
 20
-22.3712992791
 10
5.9195632937
 20
-22.3758510527
 10
5.9253155364
 20
-22.3801617072
 10
5.9312258224
 20
-22.3842308292
 10
5.9372938743
 20
-22.3880588321
 10
5.943509205
 20
-22.3916390864
 10
5.9498720662
 20
-22.3949711616
 10
5.9563822063
 20
-22.3980554881
 10
5.9630283829
 20
-22.400886727
 10
5.9698108355
 20
-22.4034644423
 10
5.9767293247
 20
-22.40578907
 10
5.9837718896
 20
-22.4078565804
 10
5.9909387399
 20
-22.4096665273
 10
5.9982296659
 20
-22.4112193569
 10
6.0056320776
 20
-22.4125123774
 10
6.0131461726
 20
-22.4135451403
 10
6.0207717533
 20
-22.414318094
 10
6.0284956367
 20
-22.4148298923
 10
6.0363179931
 20
-22.4150800826
 10
6.0442386522
 20
-22.4150691174
 10
6.0522439192
 20
-22.4147970079
 10
6.0603339414
 20
-22.4142633012
 10
6.0685085715
 20
-22.4134684502
 10
6.076753673
 20
-22.4124138242
 10
6.08506936
 20
-22.4110989758
 10
6.0934555183
 20
-22.4095243525
 10
6.1018976686
 20
-22.4076926658
 10
6.1103959261
 20
-22.4056034645
 10
6.1189501755
 20
-22.4032571998
 10
6.1275455922
 20
-22.4006579372
 10
6.1361823944
 20
-22.3978051662
 10
6.1448603639
 20
-22.3946993972
 10
6.1535640213
 20
-22.391346227
 10
6.1622882068
 20
-22.3877475209
 10
6.1710380802
 20
-22.3839014135
 10
6.1798136415
 20
-22.3798079047
  0
LWPOLYLINE
  5
287
100
AcDbEntity
  8
ASSI
100
AcDbPolyline
 62
253
  6
CONTINUOUS
 90
28
 70
0
 10
5.1465510632
 20
-22.2690686207
 10
5.1493314084
 20
-22.2868673577
 10
5.1525202344
 20
-22.3043569031
 10
5.1561157329
 20
-22.3215271928
 10
5.1601158991
 20
-22.3383683386
 10
5.1645184293
 20
-22.354870667
 10
5.1693207309
 20
-22.371024717
 10
5.1745201196
 20
-22.3868212564
 10
5.1801136269
 20
-22.4022511399
 10
5.186097899
 20
-22.4173053463
 10
5.1924695435
 20
-22.431975204
 10
5.199224953
 20
-22.4462523156
 10
5.2063601211
 20
-22.4601284071
 10
5.2138710276
 20
-22.4735955321
 10
5.221753403
 20
-22.4866459445
 10
5.2300025511
 20
-22.4992720245
 10
5.2386138125
 20
-22.5114665402
 10
5.2475823007
 20
-22.5232224979
 10
5.2569026717
 20
-22.5345330108
 10
5.266569659
 20
-22.5453916122
 10
5.2765777772
 20
-22.5557920834
 10
5.286921058
 20
-22.5657283041
 10
5.2975936468
 20
-22.5751945991
 10
5.3085894951
 20
-22.584185566
 10
5.3199020647
 20
-22.5926959013
 10
5.3315249674
 20
-22.6007207662
 10
5.343451603
 20
-22.6082555802
 10
5.3484240719
 20
-22.6112000611
  0
LINE
  5
288
100
AcDbEntity
  8
ASSI
100
AcDbLine
 62
7
  6
CONTINUOUS
 10
2.8214291466
 20
17.64295888
 11
2.8426344358
 21
17.0264863826
  0
LWPOLYLINE
  5
289
100
AcDbEntity
  8
ASSI
100
AcDbPolyline
 62
253
  6
CONTINUOUS
 90
27
 70
0
 10
4.4293802931
 20
-13.4520780661
 10
4.4377456771
 20
-13.8029909368
 10
4.4476520054
 20
-14.153024517
 10
4.4590990644
 20
-14.5021706191
 10
4.4720865857
 20
-14.8504210714
 10
4.4866142459
 20
-15.1977677183
 10
4.5026817207
 20
-15.544202438
 10
4.5202886437
 20
-15.8897171235
 10
4.539434576
 20
-16.2343036734
 10
4.5601190886
 20
-16.5779540277
 10
4.5823417109
 20
-16.9206601514
 10
4.6061018896
 20
-17.262414015
 10
4.6313990914
 20
-17.6032076277
 10
4.6582327416
 20
-17.9430330222
 10
4.6866021726
 20
-18.2818822385
 10
4.7165067475
 20
-18.6197473602
 10
4.7479457872
 20
-18.9566204859
 10
4.7809185091
 20
-19.2924937138
 10
4.8154241724
 20
-19.6273592
 10
4.851461994
 20
-19.9612091143
 10
4.8890310755
 20
-20.2940356112
 10
4.9281305718
 20
-20.6258309154
 10
4.9687595963
 20
-20.9565872756
 10
5.0109171366
 20
-21.286296919
 10
5.0546022091
 20
-21.6149521292
 10
5.0998138584
 20
-21.9425452465
 10
5.1465510632
 20
-22.2690686207
  0
LWPOLYLINE
  5
28A
100
AcDbEntity
  8
ASSI
100
AcDbPolyline
 62
253
  6
CONTINUOUS
 90
27
 70
0
 10
5.1238327667
 20
-13.4494181513
 10
5.1321531695
 20
-13.7983795533
 10
5.1420059989
 20
-14.1464586392
 10
5.1533915567
 20
-14.4936635317
 10
5.166309541
 20
-14.8399861081
 10
5.180759046
 20
-15.185402
 10
5.1967401789
 20
-15.5299111277
 10
5.2142528325
 20
-15.8735135709
 10
5.2332957795
 20
-16.2161852014
 10
5.2538691269
 20
-16.5579259504
 10
5.2759727677
 20
-16.8987358867
 10
5.299605153
 20
-17.2385910875
 10
5.3247663898
 20
-17.577491484
 10
5.3514563712
 20
-17.915437145
 10
5.3796732278
 20
-18.2524043552
 10
5.4094170665
 20
-18.5883930481
 10
5.4406877804
 20
-18.9234032902
 10
5.4734831786
 20
-19.2574115647
 10
5.5078033684
 20
-19.5904178047
 10
5.5436482426
 20
-19.9224220772
 10
5.5810152885
 20
-20.2534010663
 10
5.6199046144
 20
-20.5833547105
 10
5.6603161121
 20
-20.9122830714
 10
5.7022469439
 20
-21.2401630182
 10
5.7456961642
 20
-21.5669868405
 10
5.7906647186
 20
-21.8927622486
 10
5.8371526072
 20
-22.2174892426
  0
LWPOLYLINE
  5
28B
100
AcDbEntity
  8
ASSI
100
AcDbPolyline
 62
253
  6
CONTINUOUS
 90
46
 70
0
 10
5.0511745377
 20
-5.709213906
 10
5.0510150751
 20
-5.7020576294
 10
5.0506481598
 20
-5.694781499
 10
5.0500742386
 20
-5.6873943762
 10
5.0492940104
 20
-5.6799052576
 10
5.0483084256
 20
-5.672323264
 10
5.0471186843
 20
-5.6646576293
 10
5.0457262355
 20
-5.6569176893
 10
5.0441327751
 20
-5.6491128702
 10
5.0423402438
 20
-5.6412526774
 10
5.0403508245
 20
-5.6333466836
 10
5.0381669402
 20
-5.6254045172
 10
5.0357912505
 20
-5.6174358508
 10
5.0332266488
 20
-5.6094503893
 10
5.0304762584
 20
-5.601457858
 10
5.0275434289
 20
-5.5934679906
 10
5.0244317321
 20
-5.585490518
 10
5.0211449578
 20
-5.5775351556
 10
5.0176871087
 20
-5.5696115921
 10
5.0140623962
 20
-5.5617294773
 10
5.0102752346
 20
-5.5538984107
 10
5.0063302362
 20
-5.5461279296
 10
5.0022322056
 20
-5.5384274973
 10
4.9979861336
 20
-5.5308064921
 10
4.9935971914
 20
-5.5232741954
 10
4.9890707243
 20
-5.5158397806
 10
4.9844122448
 20
-5.5085123017
 10
4.9796274263
 20
-5.5013006829
 10
4.9747220963
 20
-5.4942137069
 10
4.9697022288
 20
-5.4872600047
 10
4.9645739373
 20
-5.4804480451
 10
4.9593434674
 20
-5.4737861243
 10
4.9540171893
 20
-5.4672823554
 10
4.9486015896
 20
-5.4609446595
 10
4.9431032639
 20
-5.4547807548
 10
4.9375289084
 20
-5.4487981484
 10
4.9318853119
 20
-5.4430041262
 10
4.9261793478
 20
-5.4374057446
 10
4.920417965
 20
-5.4320098218
 10
4.9146081803
 20
-5.4268229294
 10
4.9087570692
 20
-5.4218513841
 10
4.9028717577
 20
-5.4171012409
 10
4.8969594133
 20
-5.4125782848
 10
4.8910272365
 20
-5.4082880241
 10
4.8850824519
 20
-5.4042356839
 10
4.8791322995
 20
-5.4004261993
  0
LINE
  5
28C
100
AcDbEntity
  8
ASSI
100
AcDbLine
 62
253
  6
CONTINUOUS
 10
4.4092418352
 20
-12.2817920319
 11
4.4293802931
 21
-13.4520780661
  0
LINE
  5
28D
100
AcDbEntity
  8
ASSI
100
AcDbLine
 62
253
  6
CONTINUOUS
 10
5.1037407791
 20
-12.2817130517
 11
5.1238327667
 21
-13.4494181513
  0
LWPOLYLINE
  5
28E
100
AcDbEntity
  8
ASSI
100
AcDbPolyline
 62
253
  6
CONTINUOUS
 90
24
 70
0
 10
4.356623186
 20
-5.054562585
 10
4.3567249057
 20
-5.0615915963
 10
4.3570397087
 20
-5.0684892235
 10
4.3575672152
 20
-5.0752471475
 10
4.3583067891
 20
-5.0818572179
 10
4.3592575383
 20
-5.0883114623
 10
4.3604183163
 20
-5.0946020965
 10
4.361787723
 20
-5.1007215334
 10
4.3633641067
 20
-5.1066623925
 10
4.3651455664
 20
-5.1124175088
 10
4.3671299533
 20
-5.1179799411
 10
4.3693148742
 20
-5.1233429807
 10
4.3716976939
 20
-5.1285001594
 10
4.3742755385
 20
-5.1334452572
 10
4.377045299
 20
-5.13817231
 10
4.3800036347
 20
-5.1426756166
 10
4.3831469778
 20
-5.1469497456
 10
4.3864715372
 20
-5.1509895423
 10
4.3899733031
 20
-5.1547901341
 10
4.3936480521
 20
-5.1583469375
 10
4.3974913523
 20
-5.1616556625
 10
4.4014985684
 20
-5.1647123186
 10
4.4056648672
 20
-5.1675132193
 10
4.4083488836
 20
-5.1691332715
  0
LINE
  5
28F
100
AcDbEntity
  8
ASSI
100
AcDbLine
 62
253
  6
CONTINUOUS
 10
4.3871045871
 20
-10.642300171
 11
4.4092418352
 21
-12.2817920319
  0
LINE
  5
290
100
AcDbEntity
  8
ASSI
100
AcDbLine
 62
253
  6
CONTINUOUS
 10
5.081621564
 20
-10.6435209828
 11
5.1037407791
 21
-12.2817130517
  0
LINE
  5
291
100
AcDbEntity
  8
ASSI
100
AcDbLine
 62
253
  6
CONTINUOUS
 10
4.3709558334
 20
-8.999519122
 11
4.3871045871
 21
-10.642300171
  0
LWPOLYLINE
  5
292
100
AcDbEntity
  8
ASSI
100
AcDbPolyline
 62
253
  6
CONTINUOUS
 90
3
 70
0
 10
5.05966476
 20
-8.1800596141
 10
5.0654873098
 20
-9.0020348161
 10
5.081621564
 20
-10.6435209828
  0
LINE
  5
293
100
AcDbEntity
  8
ASSI
100
AcDbLine
 62
253
  6
CONTINUOUS
 10
4.3607948964
 20
-7.3534441183
 11
4.3709558334
 21
-8.999519122
  0
LINE
  5
294
100
AcDbEntity
  8
ASSI
100
AcDbLine
 62
253
  6
CONTINUOUS
 10
4.3566218917
 20
-5.7040940763
 11
4.3607948964
 21
-7.3534441183
  0
LINE
  5
295
100
AcDbEntity
  8
ASSI
100
AcDbLine
 62
253
  6
CONTINUOUS
 10
4.3607948964
 20
-3.4007200525
 11
4.3566218917
 21
-5.0545618377
  0
LINE
  5
296
100
AcDbEntity
  8
ASSI
100
AcDbLine
 62
253
  6
CONTINUOUS
 10
4.3709558334
 20
-1.7437033786
 11
4.3607948964
 21
-3.4007200525
  0
LINE
  5
297
100
AcDbEntity
  8
ASSI
100
AcDbLine
 62
253
  6
CONTINUOUS
 10
4.3871045871
 20
-0.0835311964
 11
4.3709558334
 21
-1.7437033786
  0
LINE
  5
298
100
AcDbEntity
  8
ASSI
100
AcDbLine
 62
253
  6
CONTINUOUS
 10
4.4092418352
 20
1.5798007201
 11
4.3871045871
 21
-0.0835311964
  0
LWPOLYLINE
  5
299
100
AcDbEntity
  8
ASSI
100
AcDbPolyline
 62
253
  6
CONTINUOUS
 90
46
 70
0
 10
4.356623186
 20
-5.7040948236
 10
4.3567249057
 20
-5.696948349
 10
4.3570397086
 20
-5.6896871954
 10
4.3575672151
 20
-5.6823201202
 10
4.358306789
 20
-5.6748560087
 10
4.3592575382
 20
-5.6673038631
 10
4.3604183161
 20
-5.6596727918
 10
4.3617877227
 20
-5.6519719987
 10
4.3633641064
 20
-5.6442107713
 10
4.3651455659
 20
-5.6363984703
 10
4.3671299528
 20
-5.6285445179
 10
4.3693148736
 20
-5.6206583866
 10
4.3716976931
 20
-5.6127495877
 10
4.3742755376
 20
-5.6048276597
 10
4.377045298
 20
-5.5969021571
 10
4.3800036336
 20
-5.5889826386
 10
4.3831469766
 20
-5.5810786558
 10
4.3864715359
 20
-5.5731997415
 10
4.3899733016
 20
-5.5653553983
 10
4.3936480506
 20
-5.5575550869
 10
4.3974913507
 20
-5.5498082152
 10
4.4014985666
 20
-5.5421241265
 10
4.4056648654
 20
-5.5345120883
 10
4.4099852221
 20
-5.5269812814
 10
4.4144544261
 20
-5.5195407885
 10
4.4190670872
 20
-5.5121995833
 10
4.4238176421
 20
-5.50496652
 10
4.4287003615
 20
-5.4978503221
 10
4.4337093562
 20
-5.4908595723
 10
4.4388385851
 20
-5.4840027019
 10
4.444081862
 20
-5.4772879809
 10
4.4494328631
 20
-5.4707235078
 10
4.4548851347
 20
-5.4643171997
 10
4.4604321008
 20
-5.4580767832
 10
4.4660670716
 20
-5.4520097847
 10
4.4717832506
 20
-5.4461235214
 10
4.4775737439
 20
-5.4404250927
 10
4.4834315677
 20
-5.4349213711
 10
4.4893496569
 20
-5.4296189947
 10
4.495320874
 20
-5.4245243586
 10
4.5013380171
 20
-5.4196436071
 10
4.5073938292
 20
-5.4149826269
 10
4.5134810064
 20
-5.4105470395
 10
4.5195922073
 20
-5.4063421945
 10
4.5257200611
 20
-5.4023731633
 10
4.5318571774
 20
-5.3986447328
  0
LINE
  5
29A
100
AcDbEntity
  8
ASSI
100
AcDbLine
 62
253
  6
CONTINUOUS
 10
4.4293802931
 20
2.7717765795
 11
4.4092418352
 21
1.5798007201
  0
LINE
  5
29B
100
AcDbEntity
  8
ASSI
100
AcDbLine
 62
253
  6
CONTINUOUS
 10
4.4476520054
 20
3.4924065073
 11
4.4293802931
 21
2.7717765795
  0
LINE
  5
29C
100
AcDbEntity
  8
ASSI
100
AcDbLine
 62
253
  6
CONTINUOUS
 10
4.4720865857
 20
4.2161255301
 11
4.4476520054
 21
3.4924065073
  0
LINE
  5
29D
100
AcDbEntity
  8
ASSI
100
AcDbLine
 62
253
  6
CONTINUOUS
 10
4.5026817207
 20
4.9428659356
 11
4.4720865857
 21
4.2161255301
  0
LINE
  5
29E
100
AcDbEntity
  8
ASSI
100
AcDbLine
 62
253
  6
CONTINUOUS
 10
5.1967401789
 20
4.9140041697
 11
5.166309541
 21
4.1913100683
  0
LINE
  5
29F
100
AcDbEntity
  8
ASSI
100
AcDbLine
 62
253
  6
CONTINUOUS
 10
4.539434576
 20
5.6725596733
 11
4.5026817207
 21
4.9428659356
  0
LINE
  5
2A0
100
AcDbEntity
  8
ASSI
100
AcDbLine
 62
253
  6
CONTINUOUS
 10
5.2332957795
 20
5.6396429608
 11
5.1967401789
 21
4.9140041697
  0
LINE
  5
2A1
100
AcDbEntity
  8
ASSI
100
AcDbLine
 62
253
  6
CONTINUOUS
 10
4.5823417109
 20
6.4051384225
 11
4.539434576
 21
5.6725596733
  0
LINE
  5
2A2
100
AcDbEntity
  8
ASSI
100
AcDbLine
 62
253
  6
CONTINUOUS
 10
5.2759727677
 20
6.3681501494
 11
5.2332957795
 21
5.6396429608
  0
LINE
  5
2A3
100
AcDbEntity
  8
ASSI
100
AcDbLine
 62
253
  6
CONTINUOUS
 10
4.6313990914
 20
7.1405336509
 11
4.5823417109
 21
6.4051384225
  0
LINE
  5
2A4
100
AcDbEntity
  8
ASSI
100
AcDbLine
 62
253
  6
CONTINUOUS
 10
5.3247663898
 20
7.0994489171
 11
5.2759727677
 21
6.3681501494
  0
LINE
  5
2A5
100
AcDbEntity
  8
ASSI
100
AcDbLine
 62
253
  6
CONTINUOUS
 10
4.6866021726
 20
7.8786765128
 11
4.6313990914
 21
7.1405336509
  0
LINE
  5
2A6
100
AcDbEntity
  8
ASSI
100
AcDbLine
 62
253
  6
CONTINUOUS
 10
5.3796732278
 20
7.8334879448
 11
5.3247663898
 21
7.0994489171
  0
LINE
  5
2A7
100
AcDbEntity
  8
ASSI
100
AcDbLine
 62
253
  6
CONTINUOUS
 10
4.7479457872
 20
8.619497972
 11
4.6866021726
 21
7.8786765128
  0
LINE
  5
2A8
100
AcDbEntity
  8
ASSI
100
AcDbLine
 62
253
  6
CONTINUOUS
 10
5.4406877804
 20
8.5701900986
 11
5.3796732278
 21
7.8334879448
  0
LINE
  5
2A9
100
AcDbEntity
  8
ASSI
100
AcDbLine
 62
253
  6
CONTINUOUS
 10
4.8154241724
 20
9.3629287242
 11
4.7479457872
 21
8.619497972
  0
LINE
  5
2AA
100
AcDbEntity
  8
ASSI
100
AcDbLine
 62
253
  6
CONTINUOUS
 10
5.5078033684
 20
9.3094777017
 11
5.4406877804
 21
8.5701900986
  0
LINE
  5
2AB
100
AcDbEntity
  8
ASSI
100
AcDbLine
 62
253
  6
CONTINUOUS
 10
4.8890310755
 20
10.108899146
 11
4.8154241724
 21
9.3629287242
  0
LINE
  5
2AC
100
AcDbEntity
  8
ASSI
100
AcDbLine
 62
253
  6
CONTINUOUS
 10
5.5810152885
 20
10.0512988568
 11
5.5078033684
 21
9.3094777017
  0
LINE
  5
2AD
100
AcDbEntity
  8
ASSI
100
AcDbLine
 62
253
  6
CONTINUOUS
 10
5.6603161121
 20
10.795575561
 11
5.5810152885
 21
10.0512988568
  0
LINE
  5
2AE
100
AcDbEntity
  8
ASSI
100
AcDbLine
 62
253
  6
CONTINUOUS
 10
5.0109171366
 20
11.2324638538
 11
4.8890310755
 21
10.108899146
  0
LINE
  5
2AF
100
AcDbEntity
  8
ASSI
100
AcDbLine
 62
253
  6
CONTINUOUS
 10
5.7456961642
 20
11.5422204163
 11
5.6603161121
 21
10.795575561
  0
LWPOLYLINE
  5
2B0
100
AcDbEntity
  8
ASSI
100
AcDbPolyline
 62
253
  6
CONTINUOUS
 90
3
 70
0
 10
5.1465510632
 20
12.3613490288
 10
5.0998138584
 20
11.984477499
 10
5.0109171366
 20
11.2324638538
  0
LINE
  5
2B1
100
AcDbEntity
  8
ASSI
100
AcDbLine
 62
253
  6
CONTINUOUS
 10
5.8371526072
 20
12.2912072362
 11
5.7456961642
 21
11.5422204163
  0
LINE
  5
2B2
100
AcDbEntity
  8
ASSI
100
AcDbLine
 62
253
  6
CONTINUOUS
 10
-10.3860361497
 20
10.9629366787
 11
4.422556042
 21
2.4126411424
  0
LWPOLYLINE
  5
2B3
100
AcDbEntity
  8
ASSI
100
AcDbPolyline
 62
253
  6
CONTINUOUS
 90
3
 70
0
 10
5.0511759403
 20
-5.7092131371
 10
5.0525091042
 20
-6.533649197
 10
5.05966476
 20
-8.1800596141
  0
LINE
  5
2B4
100
AcDbEntity
  8
ASSI
100
AcDbLine
 62
253
  6
CONTINUOUS
 10
5.0553387107
 20
-3.4109097393
 11
5.0511759403
 21
-5.0634439503
  0
LINE
  5
2B5
100
AcDbEntity
  8
ASSI
100
AcDbLine
 62
253
  6
CONTINUOUS
 10
5.0654873098
 20
-1.7552111439
 11
5.0553387107
 21
-3.4109097393
  0
LINE
  5
2B6
100
AcDbEntity
  8
ASSI
100
AcDbLine
 62
253
  6
CONTINUOUS
 10
5.081621564
 20
-0.0963508855
 11
5.0654873098
 21
-1.7552111439
  0
LINE
  5
2B7
100
AcDbEntity
  8
ASSI
100
AcDbLine
 62
253
  6
CONTINUOUS
 10
5.1037407791
 20
1.5656601507
 11
5.081621564
 21
-0.0963508855
  0
LINE
  5
2B8
100
AcDbEntity
  8
ASSI
100
AcDbLine
 62
253
  6
CONTINUOUS
 10
5.1238327667
 20
2.7550012076
 11
5.1037407791
 21
1.5656601507
  0
LWPOLYLINE
  5
2B9
100
AcDbEntity
  8
ASSI
100
AcDbPolyline
 62
253
  6
CONTINUOUS
 90
24
 70
0
 10
5.0511745377
 20
-5.0634446919
 10
5.0510150751
 20
-5.0705323135
 10
5.0506481599
 20
-5.0774827342
 10
5.0500742387
 20
-5.084287489
 10
5.0492940106
 20
-5.0909382907
 10
5.0483084258
 20
-5.0974270394
 10
5.0471186846
 20
-5.1037458328
 10
5.045726236
 20
-5.1098869751
 10
5.0441327757
 20
-5.1158429875
 10
5.0423402445
 20
-5.121606616
 10
5.0403508254
 20
-5.1271708415
 10
5.0381669413
 20
-5.1325288874
 10
5.0357912518
 20
-5.1376742282
 10
5.0332266502
 20
-5.1426005975
 10
5.0304762599
 20
-5.1473019958
 10
5.0275434306
 20
-5.1517726972
 10
5.0244317341
 20
-5.1560072571
 10
5.0211449599
 20
-5.1600005182
 10
5.017687111
 20
-5.1637476172
 10
5.0140623986
 20
-5.1672439908
 10
5.0102752372
 20
-5.1704853807
 10
5.006330239
 20
-5.1734678393
 10
5.0022322085
 20
-5.1761877345
 10
4.997598818
 20
-5.1788484548
  0
LINE
  5
2BA
100
AcDbEntity
  8
ASSI
100
AcDbLine
 62
253
  6
CONTINUOUS
 10
5.1420059989
 20
3.4716114505
 11
5.1238327667
 21
2.7550012076
  0
LINE
  5
2BB
100
AcDbEntity
  8
ASSI
100
AcDbLine
 62
253
  6
CONTINUOUS
 10
5.166309541
 20
4.1913100683
 11
5.1420059989
 21
3.4716114505
  0
LINE
  5
2BC
100
AcDbEntity
  8
0
100
AcDbLine
 62
253
  6
CONTINUOUS
 10
-3.4538931553
 20
9.0687612092
 11
-2.3932329836
 21
8.4563493192
  0
LINE
  5
2BD
100
AcDbEntity
  8
0
100
AcDbLine
 62
253
  6
CONTINUOUS
 10
-1.2618621337
 20
7.8031099699
 11
-0.3779786572
 21
7.2927667282
  0
LINE
  5
2BE
100
AcDbEntity
  8
0
100
AcDbLine
 62
253
  6
CONTINUOUS
 10
-4.5852640052
 20
9.7220005585
 11
-5.4691474817
 21
10.2323438002
  0
LINE
  5
2BF
100
AcDbEntity
  8
0
100
AcDbLine
 62
253
  6
CONTINUOUS
 10
-5.4320908729
 20
11.0702100985
 11
-4.5482073964
 21
10.5598668568
  0
LINE
  5
2C0
100
AcDbEntity
  8
0
100
AcDbLine
 62
253
  6
CONTINUOUS
 10
-0.3409220484
 20
8.1306330265
 11
-1.2248055248
 21
8.6409762682
  0
LINE
  5
2C1
100
AcDbEntity
  8
0
100
AcDbLine
 62
253
  6
CONTINUOUS
 10
-2.3561763747
 20
9.2942156175
 11
-3.4168365465
 21
9.9066275075
  0
LWPOLYLINE
  5
2C2
100
AcDbEntity
  8
ASSI
100
AcDbPolyline
 62
253
  6
CONTINUOUS
 90
55
 70
0
 10
6.1798136415
 20
12.8225187359
 10
6.1791140772
 20
12.8341520491
 10
6.1781272546
 20
12.8459537701
 10
6.1768540068
 20
12.8579139369
 10
6.1752954084
 20
12.8700224534
 10
6.1734527753
 20
12.8822690984
 10
6.1713276627
 20
12.8946435342
 10
6.1689218647
 20
12.907135315
 10
6.1662374119
 20
12.9197338961
 10
6.1632765705
 20
12.9324286427
 10
6.1600418398
 20
12.9452088386
 10
6.1565359503
 20
12.9580636957
 10
6.1527618615
 20
12.9709823628
 10
6.1487227592
 20
12.9839539348
 10
6.1444220529
 20
12.996967462
 10
6.139863373
 20
13.0100119591
 10
6.1350505677
 20
13.023076415
 10
6.1299876996
 20
13.0361498014
 10
6.1246790424
 20
13.0492210828
 10
6.1191290773
 20
13.0622792251
 10
6.1133424893
 20
13.0753132055
 10
6.107324163
 20
13.0883120217
 10
6.1010791786
 20
13.1012647009
 10
6.0946128079
 20
13.1141603093
 10
6.0879305092
 20
13.1269879614
 10
6.0810379233
 20
13.1397368288
 10
6.0739408685
 20
13.1523961497
 10
6.0666453356
 20
13.1649552382
 10
6.059157483
 20
13.1774034925
 10
6.0514836315
 20
13.1897304048
 10
6.0436302588
 20
13.2019255694
 10
6.0356039943
 20
13.213978692
 10
6.0274116131
 20
13.2258795982
 10
6.0190600308
 20
13.237618242
 10
6.0105562971
 20
13.2491847144
 10
6.0019075904
 20
13.2605692518
 10
5.9931212113
 20
13.2717622441
 10
5.9842045768
 20
13.2827542429
 10
5.9751652135
 20
13.2935359696
 10
5.966010752
 20
13.3040983228
 10
5.9567489199
 20
13.3144323866
 10
5.9473875353
 20
13.3245294377
 10
5.9379345006
 20
13.3343809527
 10
5.9283977953
 20
13.3439786157
 10
5.9187854697
 20
13.353314325
 10
5.909105638
 20
13.3623801999
 10
5.899366471
 20
13.3711685877
 10
5.8895761901
 20
13.3796720698
 10
5.8797430596
 20
13.3878834682
 10
5.8698753798
 20
13.3957958512
 10
5.8599814804
 20
13.4034025399
 10
5.8500697133
 20
13.4106971131
 10
5.8401484452
 20
13.4176734132
 10
5.8302260511
 20
13.4243255514
 10
5.8203109067
 20
13.4306479123
  0
LWPOLYLINE
  5
2C3
100
AcDbEntity
  8
ASSI
100
AcDbPolyline
 62
253
  6
CONTINUOUS
 90
30
 70
0
 10
6.1798136415
 20
-22.3798079047
 10
6.1791140772
 20
-22.3918613282
 10
6.1781272546
 20
-22.403726349
 10
6.1768540067
 20
-22.4153929514
 10
6.1752954083
 20
-22.4268512873
 10
6.1734527751
 20
-22.4380916843
 10
6.1713276625
 20
-22.449104654
 10
6.1689218644
 20
-22.4598809
 10
6.1662374115
 20
-22.4704113257
 10
6.1632765701
 20
-22.4806870421
 10
6.1600418392
 20
-22.490699375
 10
6.1565359497
 20
-22.5004398726
 10
6.1527618607
 20
-22.5099003128
 10
6.1487227583
 20
-22.5190727097
 10
6.1444220519
 20
-22.5279493205
 10
6.139863372
 20
-22.5365226521
 10
6.1350505665
 20
-22.5447854676
 10
6.1299876983
 20
-22.552730792
 10
6.124679041
 20
-22.5603519184
 10
6.1191290759
 20
-22.5676424136
 10
6.1133424878
 20
-22.5745961234
 10
6.1073241614
 20
-22.5812071779
 10
6.1010791769
 20
-22.5874699966
 10
6.0946128061
 20
-22.5933792927
 10
6.0879305073
 20
-22.5989300781
 10
6.0810379214
 20
-22.6041176672
 10
6.0739408665
 20
-22.6089376809
 10
6.0666453336
 20
-22.6133860504
 10
6.0591574809
 20
-22.6174590209
 10
6.0551620621
 20
-22.6194408103
  0
LINE
  5
2C4
100
AcDbEntity
  8
ASSI
100
AcDbLine
 62
253
  6
CONTINUOUS
 10
8.6923564836
 20
-3.3101726288
 11
4.8791322995
 21
-5.4004261993
  0
LINE
  5
2C5
100
AcDbEntity
  8
ASSI
100
AcDbLine
 62
253
  6
CONTINUOUS
 10
8.8691870617
 20
-3.6163355633
 11
5.0511759403
 21
-5.7092131371
  0
LWPOLYLINE
  5
2C6
100
AcDbEntity
  8
ASSI
100
AcDbPolyline
 62
253
  6
CONTINUOUS
 90
55
 70
0
 10
4.8791322995
 20
-5.4004261993
 10
4.8738572706
 20
-5.4032367608
 10
4.8684572363
 20
-5.4059554634
 10
4.8629321965
 20
-5.4085823072
 10
4.8572774047
 20
-5.4111193105
 10
4.8514976075
 20
-5.413564455
 10
4.8456070447
 20
-5.4159116859
 10
4.8396055154
 20
-5.4181607274
 10
4.8334932205
 20
-5.4203118554
 10
4.8272850026
 20
-5.4223598425
 10
4.8209806421
 20
-5.4243044325
 10
4.8145803585
 20
-5.4261458817
 10
4.8080996532
 20
-5.4278797317
 10
4.8015383297
 20
-5.4295057227
 10
4.7948965843
 20
-5.4310241145
 10
4.7881905074
 20
-5.4324312276
 10
4.7814199372
 20
-5.4337267928
 10
4.7745850353
 20
-5.4349110792
 10
4.7677023773
 20
-5.4359812145
 10
4.7607718505
 20
-5.4369369208
 10
4.7537935674
 20
-5.437778476
 10
4.7467844413
 20
-5.4385038407
 10
4.739744399
 20
-5.4391127332
 10
4.7326735137
 20
-5.4396054352
 10
4.7255889173
 20
-5.4399807532
 10
4.7184905742
 20
-5.4402384025
 10
4.7113785202
 20
-5.4403786678
 10
4.7042699941
 20
-5.4404012089
 10
4.6971650038
 20
-5.4403057401
 10
4.6900635416
 20
-5.4400925472
 10
4.6829828227
 20
-5.4397621474
 10
4.6759229005
 20
-5.4393142565
 10
4.6688837216
 20
-5.4387491588
 10
4.6618823414
 20
-5.4380682238
 10
4.6549188497
 20
-5.4372711706
 10
4.6479931565
 20
-5.43635828
 10
4.6411220471
 20
-5.4353317648
 10
4.6343056507
 20
-5.4341913485
 10
4.627543838
 20
-5.4329373075
 10
4.6208530064
 20
-5.4315726837
 10
4.6142333335
 20
-5.43009721
 10
4.6076846417
 20
-5.4285111536
 10
4.6012227946
 20
-5.426818358
 10
4.594848004
 20
-5.4250185658
 10
4.5885600581
 20
-5.4231120344
 10
4.5823741853
 20
-5.4211033802
 10
4.5762906205
 20
-5.4189923493
 10
4.5703091287
 20
-5.4167791955
 10
4.5644442341
 20
-5.4144692966
 10
4.5586961586
 20
-5.4120623814
 10
4.5530646801
 20
-5.4095587211
 10
4.547563657
 20
-5.406964507
 10
4.5421977085
 20
-5.4042818028
 10
4.5369622153
 20
-5.4015085447
 10
4.5318571774
 20
-5.3986447328
  0
LINE
  5
2C7
100
AcDbEntity
  8
ASSI
100
AcDbLine
 62
253
  6
CONTINUOUS
 10
5.0511759403
 20
-5.0634439503
 11
8.8691870617
 21
-3.0449151581
  0
LINE
  5
2C8
100
AcDbEntity
  8
ASSI
100
AcDbLine
 62
7
  6
CONTINUOUS
 10
4.9975215601
 20
-5.1788893548
 11
8.8147190059
 21
-3.1607907414
  0
LWPOLYLINE
  5
2C9
100
AcDbEntity
  8
ASSI
100
AcDbPolyline
 62
253
  6
CONTINUOUS
 90
55
 70
0
 10
5.0511759403
 20
-5.7092131433
 10
5.0406387875
 20
-5.7147822355
 10
5.0298343179
 20
-5.7201759084
 10
5.0187712713
 20
-5.7253898363
 10
5.0074586189
 20
-5.7304198649
 10
4.9959054904
 20
-5.7352619365
 10
4.9841211619
 20
-5.7399120888
 10
4.9721151057
 20
-5.744366614
 10
4.9598970845
 20
-5.748621919
 10
4.9474770805
 20
-5.7526744523
 10
4.9348651873
 20
-5.7565209581
 10
4.9220715647
 20
-5.7601583778
 10
4.9091065307
 20
-5.763583709
 10
4.8959805654
 20
-5.7667942165
 10
4.8827042942
 20
-5.7697873361
 10
4.8692884467
 20
-5.7725605804
 10
4.8557438648
 20
-5.7751117394
 10
4.842081515
 20
-5.7774387808
 10
4.82831247
 20
-5.7795397538
 10
4.814447875
 20
-5.7814129887
 10
4.8004989392
 20
-5.7830570046
 10
4.7864769477
 20
-5.7844704102
 10
4.772393247
 20
-5.7856520908
 10
4.7582592264
 20
-5.7866011228
 10
4.7440863098
 20
-5.7873166814
 10
4.7298859578
 20
-5.7877982142
 10
4.7156696618
 20
-5.7880453609
 10
4.7014489251
 20
-5.788057868
 10
4.6872352513
 20
-5.7878357494
 10
4.6730401383
 20
-5.7873792124
 10
4.658875072
 20
-5.7866885777
 10
4.6447515152
 20
-5.7857644258
 10
4.6306808884
 20
-5.7846075298
 10
4.6166745638
 20
-5.7832187807
 10
4.6027438681
 20
-5.7815993198
 10
4.5889000737
 20
-5.7797504802
 10
4.5751543801
 20
-5.7776737187
 10
4.5615179001
 20
-5.7753707296
 10
4.5480016714
 20
-5.7728433971
 10
4.5346166471
 20
-5.7700937363
 10
4.5213736645
 20
-5.7671239877
 10
4.5082834251
 20
-5.76393657
 10
4.4953565065
 20
-5.7605340317
 10
4.4826033721
 20
-5.7569191374
 10
4.4700343309
 20
-5.7530948246
 10
4.4576595197
 20
-5.7490641554
 10
4.4454889087
 20
-5.744830381
 10
4.4335323869
 20
-5.7403969504
 10
4.421799719
 20
-5.7357674703
 10
4.4103004434
 20
-5.7309457146
 10
4.3990438039
 20
-5.7259355753
 10
4.3880388391
 20
-5.7207410692
 10
4.3772944305
 20
-5.7153663865
 10
4.3668192904
 20
-5.7098158919
 10
4.356621892
 20
-5.7040940765
  0
LINE
  5
2CA
100
AcDbEntity
  8
ASSI
100
AcDbLine
 62
7
  6
CONTINUOUS
 10
8.3178912008
 20
14.0987243944
 11
8.8691870617
 21
7.3651352653
  0
LINE
  5
2CB
100
AcDbEntity
  8
ASSI
100
AcDbLine
 62
7
  6
CONTINUOUS
 10
8.8691870617
 20
-3.6163355633
 11
8.8691870617
 21
-14.0263859867
  0
LINE
  5
2CC
100
AcDbEntity
  8
ASSI
100
AcDbLine
 62
7
  6
CONTINUOUS
 10
8.8691870617
 20
-3.0449151581
 11
8.8691870617
 21
7.3651352653
  0
LINE
  5
2CD
100
AcDbEntity
  8
ASSI
100
AcDbLine
 62
7
  6
CONTINUOUS
 10
8.3178912008
 20
-21.353635333
 11
8.8691870617
 21
-14.0263859867
  0
LINE
  5
2CE
100
AcDbEntity
  8
ASSI
100
AcDbLine
 62
253
  6
CONTINUOUS
 10
5.1465510632
 20
12.3613490288
 11
-9.7106375424
 21
20.9397035254
  0
LWPOLYLINE
  5
2CF
100
AcDbEntity
  8
ASSI
100
AcDbPolyline
 62
253
  6
CONTINUOUS
 90
55
 70
0
 10
5.1170447904
 20
-13.0995744331
 10
5.1065093804
 20
-13.1053079967
 10
5.0957066509
 20
-13.1108661287
 10
5.0846453403
 20
-13.116244333
 10
5.0733343966
 20
-13.121438259
 10
5.0617829693
 20
-13.1264437052
 10
5.0500004026
 20
-13.1312566226
 10
5.0379962278
 20
-13.135873118
 10
5.0257801553
 20
-13.1402894569
 10
5.0133620669
 20
-13.1445020669
 10
5.0007520079
 20
-13.1485075403
 10
4.9879601789
 20
-13.152302637
 10
4.9749969275
 20
-13.1558842871
 10
4.9618727399
 20
-13.1592495932
 10
4.9485982326
 20
-13.1623958331
 10
4.9351841435
 20
-13.1653204617
 10
4.9216413238
 20
-13.1680211133
 10
4.9079807285
 20
-13.1704956032
 10
4.8942134078
 20
-13.1727419297
 10
4.8803504986
 20
-13.1747582758
 10
4.8664032149
 20
-13.1765430104
 10
4.8523828388
 20
-13.1780946897
 10
4.8383007119
 20
-13.1794120586
 10
4.8241682254
 20
-13.1804940515
 10
4.8099968115
 20
-13.181339793
 10
4.7957979336
 20
-13.1819485991
 10
4.7815830777
 20
-13.1823199772
 10
4.7673637424
 20
-13.182453627
 10
4.7531514301
 20
-13.1823494403
 10
4.7389576373
 20
-13.1820075014
 10
4.7247938459
 20
-13.181428087
 10
4.7106715131
 20
-13.1806116656
 10
4.696602063
 20
-13.1795588978
 10
4.6825968764
 20
-13.1782706352
 10
4.6686672827
 20
-13.1767479198
 10
4.6548245497
 20
-13.1749919834
 10
4.6410798751
 20
-13.1730042465
 10
4.6274443773
 20
-13.1707863169
 10
4.6139290864
 20
-13.1683399887
 10
4.6005449352
 20
-13.165667241
 10
4.5873027504
 20
-13.1627702357
 10
4.5742132439
 20
-13.1596513162
 10
4.5612870041
 20
-13.1563130056
 10
4.5485344874
 20
-13.1527580042
 10
4.5359660095
 20
-13.1489891879
 10
4.5235917374
 20
-13.1450096052
 10
4.5114216808
 20
-13.1408224754
 10
4.4994656845
 20
-13.1364311854
 10
4.4877334199
 20
-13.1318392876
 10
4.4762343774
 20
-13.1270504964
 10
4.464977859
 20
-13.1220686855
 10
4.4539729702
 20
-13.116897885
 10
4.4432286132
 20
-13.1115422774
 10
4.4327534793
 20
-13.1060061952
 10
4.422556042
 20
-13.1002941166
  0
LINE
  5
2D0
100
AcDbEntity
  8
ASSI
100
AcDbLine
 62
7
  6
CONTINUOUS
 10
5.9411187884
 20
15.8416891797
 11
5.2684119676
 21
15.711806696
  0
LINE
  5
2D1
100
AcDbEntity
  8
ASSI
100
AcDbLine
 62
253
  6
CONTINUOUS
 10
5.8203109067
 20
13.4306479123
 11
-9.0600021493
 21
22.0223541767
  0
LINE
  5
2D2
100
AcDbEntity
  8
ASSI
100
AcDbLine
 62
7
  6
CONTINUOUS
 10
5.0752268023
 20
15.7374155311
 11
2.6929417063
 21
17.1129170886
  0
LINE
  5
2D3
100
AcDbEntity
  8
ASSI
100
AcDbLine
 62
7
  6
CONTINUOUS
 10
-2.844369147
 20
20.3100909764
 11
-5.226654243
 21
21.6855925338
  0
LINE
  5
2D4
100
AcDbEntity
  8
ASSI
100
AcDbLine
 62
7
  6
CONTINUOUS
 10
-7.0899650567
 20
23.365673674
 11
-5.0981668027
 21
22.2156343253
  0
LINE
  5
2D5
100
AcDbEntity
  8
ASSI
100
AcDbLine
 62
7
  6
CONTINUOUS
 10
-1.9784771609
 20
20.414364625
 11
2.8214291466
 21
17.64295888
  0
LINE
  5
2D6
100
AcDbEntity
  8
ASSI
100
AcDbLine
 62
7
  6
CONTINUOUS
 10
5.9411187884
 20
15.8416891797
 11
7.9329170424
 21
14.691649831
  0
LINE
  5
2D7
100
AcDbEntity
  8
ASSI
100
AcDbLine
 62
7
  6
CONTINUOUS
 10
-1.9784771609
 20
20.414364625
 11
-2.6511839817
 21
20.2844821412
  0
LWPOLYLINE
  5
2D8
100
AcDbEntity
  8
ASSI
100
AcDbPolyline
 62
253
  6
CONTINUOUS
 90
55
 70
0
 10
5.8371526072
 20
-22.2174892426
 10
5.8267290331
 20
-22.2246740525
 10
5.8160379153
 20
-22.2316821684
 10
5.8050879064
 20
-22.2385079186
 10
5.7938878686
 20
-22.2451457788
 10
5.7824468663
 20
-22.2515903768
 10
5.7707741591
 20
-22.2578364969
 10
5.7588791939
 20
-22.2638790837
 10
5.7467715978
 20
-22.2697132471
 10
5.7344611696
 20
-22.2753342651
 10
5.7219578726
 20
-22.2807375885
 10
5.709271826
 20
-22.2859188444
 10
5.696413297
 20
-22.2908738393
 10
5.6833926923
 20
-22.2955985631
 10
5.6702205499
 20
-22.3000891919
 10
5.6569075303
 20
-22.3043420913
 10
5.6434644081
 20
-22.3083538193
 10
5.6299020631
 20
-22.3121211292
 10
5.6162314718
 20
-22.315640972
 10
5.6024636982
 20
-22.3189104988
 10
5.5886098847
 20
-22.3219270638
 10
5.5746812438
 20
-22.3246882253
 10
5.5606890483
 20
-22.3271917489
 10
5.5466446223
 20
-22.3294356082
 10
5.5325593325
 20
-22.3314179873
 10
5.5184445783
 20
-22.3331372818
 10
5.5043117834
 20
-22.3345921003
 10
5.4901723857
 20
-22.3357812652
 10
5.4760378286
 20
-22.3367038142
 10
5.4619195516
 20
-22.3373590006
 10
5.447828981
 20
-22.3377462942
 10
5.4337775207
 20
-22.3378653815
 10
5.4197765429
 20
-22.3377161662
 10
5.4058373789
 20
-22.3372987689
 10
5.3919713102
 20
-22.3366135276
 10
5.3781895588
 20
-22.3356609967
 10
5.3645032788
 20
-22.3344419473
 10
5.3509235467
 20
-22.3329573659
 10
5.3374613531
 20
-22.331208454
 10
5.3241275933
 20
-22.3291966271
 10
5.3109330585
 20
-22.3269235134
 10
5.2978884276
 20
-22.3243909526
 10
5.2850042579
 20
-22.3216009943
 10
5.2722909768
 20
-22.3185558966
 10
5.2597588737
 20
-22.3152581239
 10
5.247418091
 20
-22.3117103452
 10
5.2352786165
 20
-22.3079154319
 10
5.2233502749
 20
-22.3038764551
 10
5.2116427203
 20
-22.2995966839
 10
5.2001654278
 20
-22.2950795818
 10
5.1889276863
 20
-22.2903288048
 10
5.1779385909
 20
-22.2853481978
 10
5.1672070353
 20
-22.2801417917
 10
5.1567417048
 20
-22.2747138001
 10
5.1465510693
 20
-22.2690686162
  0
LINE
  5
2D9
100
AcDbEntity
  8
ASSI
100
AcDbLine
 62
253
  6
CONTINUOUS
 10
6.1798136415
 20
-22.3798079047
 11
8.3178912008
 21
-21.353635333
  0
LINE
  5
2DA
100
AcDbEntity
  8
ASSI
100
AcDbLine
 62
7
  6
CONTINUOUS
 10
6.0551620621
 20
-22.6194408103
 11
8.1796961223
 21
-21.5997684552
  0
ELLIPSE
  5
2DB
100
AcDbEntity
  8
ASSI
100
AcDbEllipse
 62
7
  6
CONTINUOUS
 10
8.6923026131
 20
-3.5142668663
 30
0.0
 11
-0.1251346745
 21
0.2164781009
 31
0.0
 40
0.577507303
 41
-2.3566621664
 42
-0.7861703913
  0
ELLIPSE
  5
2DC
100
AcDbEntity
  8
ASSI
100
AcDbEllipse
 62
7
  6
CONTINUOUS
 10
7.9641805868
 20
-21.1485989685
 30
0.0
 11
-0.2149783503
 21
0.4514263066
 31
0.0
 40
0.6262155472
 41
-3.1396910161
 42
-2.3109372224
  0
ELLIPSE
  5
2DD
100
AcDbEntity
  8
ASSI
100
AcDbEllipse
 62
7
  6
CONTINUOUS
 10
-7.0595626191
 20
22.9767952818
 30
0.0
 11
-0.2807337341
 21
0.4137505634
 31
0.0
 40
0.5254492115
 41
-0.8261225424
 42
0.0012090728
  0
ELLIPSE
  5
2DE
100
AcDbEntity
  8
ASSI
100
AcDbEllipse
 62
7
  6
CONTINUOUS
 10
8.6923026131
 20
-2.9427221276
 30
0.0
 11
-0.1251726487
 21
0.2165441215
 31
0.0
 40
0.5771556487
 41
-3.1634096711
 42
-2.3569659634
  0
ELLIPSE
  5
2DF
100
AcDbEntity
  8
ASSI
100
AcDbEllipse
 62
7
  6
CONTINUOUS
 10
5.2166481586
 20
15.8276283286
 30
0.0
 11
0.1999154856
 21
0.0095814127
 31
0.0
 40
0.6067642562
 41
-2.385266879
 42
-1.3380693278
  0
ELLIPSE
  5
2E0
100
AcDbEntity
  8
ASSI
100
AcDbEllipse
 62
7
  6
CONTINUOUS
 10
-2.7029477907
 20
20.4003037739
 30
0.0
 11
0.1999154856
 21
0.0095814127
 31
0.0
 40
0.6067642562
 41
-2.385266879
 42
-1.3380693278
  0
ELLIPSE
  5
2E1
100
AcDbEntity
  8
ASSI
100
AcDbEllipse
 62
7
  6
CONTINUOUS
 10
7.9641805868
 20
14.3022742464
 30
0.0
 11
-0.2810161013
 21
0.4142924366
 31
0.0
 40
0.524175859
 41
-2.3937039903
 42
-0.8247341631
  0
ELLIPSE
  5
2E2
100
AcDbEntity
  8
ASSI
100
AcDbEllipse
 62
7
  6
CONTINUOUS
 10
2.8343630625
 20
17.203129886
 30
0.0
 11
0.1999154856
 21
0.0095814127
 31
0.0
 40
0.6067642562
 41
2.850720877
 42
3.8979184282
  0
ELLIPSE
  5
2E3
100
AcDbEntity
  8
ASSI
100
AcDbEllipse
 62
7
  6
CONTINUOUS
 10
-5.0852328868
 20
21.7758053313
 30
0.0
 11
0.1999154856
 21
0.0095814127
 31
0.0
 40
0.6067642562
 41
2.850720877
 42
3.8979184282
  0
ENDSEC
  0
SECTION
  2
OBJECTS
  0
DICTIONARY
  5
C
100
AcDbDictionary
280
0
281
1
  3
ACAD_GROUP
350
D
  3
ACAD_MLINESTYLE
350
17
  3
ACAD_LAYOUT
350
1A
  3
ACAD_PLOTSETTINGS
350
19
  3
ACAD_PLOTSTYLENAME
350
E
  0
DICTIONARY
  5
D
102
{ACAD_REACTORS
330
C
102
}
100
AcDbDictionary
280
0
281
1
  0
ACDBDICTIONARYWDFLT
  5
E
102
{ACAD_REACTORS
330
C
102
}
100
AcDbDictionary
281
1
  3
Normal
350
F
100
AcDbDictionaryWithDefault
340
F
  0
DICTIONARY
  5
17
102
{ACAD_REACTORS
330
C
102
}
100
AcDbDictionary
280
0
281
1
  3
Standard
350
18
  0
DICTIONARY
  5
19
102
{ACAD_REACTORS
330
C
102
}
100
AcDbDictionary
281
1
  0
DICTIONARY
  5
1A
102
{ACAD_REACTORS
330
C
102
}
100
AcDbDictionary
281
1
  3
Model
350
2E4
  3
Layout1
350
2E5
  0
ACDBPLACEHOLDER
  5
F
102
{ACAD_REACTORS
330
E
102
}
  0
MLINESTYLE
  5
18
102
{ACAD_REACTORS
330
17
102
}
100
AcDbMlineStyle
  2
STANDARD
 70
0
  3

 62
256
 51
90.0
 52
90.0
 71
2
 49
0.5
 62
256
  6
BYLAYER
 49
-0.5
 62
256
  6
BYLAYER
  0
LAYOUT
  5
2E4
102
{ACAD_REACTORS
330
1A
102
}
100
AcDbPlotSettings
  1

  2
none_device
  4
ISO_A4_(297.00_x_210.00_MM)
  6

 40
0.0
 41
0.0
 42
0.0
 43
0.0
 44
297.0
 45
210.0
 46
0.0
 47
0.0
 48
0.0
 49
0.0
140
0.0
141
0.0
142
1.0
143
1.0
 70
1024
 72
1
 73
0
 74
0
  7

 75
0
147
1.0
148
0.0
149
0.0
100
AcDbLayout
  1
Model
 70
0
 71
0
 10
0.0
 20
0.0
 11
297.0
 21
210.0
 12
0.0
 22
0.0
 32
0.0
 14
0.0
 24
0.0
 34
0.0
 15
0.0
 25
0.0
 35
0.0
146
0.0
 13
0.0
 23
0.0
 33
0.0
 16
1.0
 26
0.0
 36
0.0
 17
0.0
 27
1.0
 37
0.0
 76
0
330
218
345
0
346
0
  0
LAYOUT
  5
2E5
102
{ACAD_REACTORS
330
1A
102
}
100
AcDbPlotSettings
  1

  2
none_device
  4
ISO_A4_(297.00_x_210.00_MM)
  6

 40
0.0
 41
0.0
 42
0.0
 43
0.0
 44
297.0
 45
210.0
 46
0.0
 47
0.0
 48
0.0
 49
0.0
140
0.0
141
0.0
142
1.0
143
1.0
 70
0
 72
1
 73
0
 74
0
  7

 75
0
147
1.0
148
0.0
149
0.0
100
AcDbLayout
  1
Layout1
 70
0
 71
1
 10
0.0
 20
0.0
 11
297.0
 21
210.0
 12
0.0
 22
0.0
 32
0.0
 14
0.0
 24
0.0
 34
0.0
 15
0.0
 25
0.0
 35
0.0
146
0.0
 13
0.0
 23
0.0
 33
0.0
 16
1.0
 26
0.0
 36
0.0
 17
0.0
 27
1.0
 37
0.0
 76
0
330
219
345
0
346
0
  0
ENDSEC
  0
EOF
