  0
SECTION
  2
HEADER
  9
$ACADVER
  1
AC1015
  9
$DWGCODEPAGE
  3
ANSI_1252
  9
$EXTMAX
 10
297.0
 20
210.0
 30
0.0
  9
$EXTMIN
 10
0.0
 20
0.0
 30
0.0
  9
$LIMMIN
 10
0.0
 20
0.0
  9
$LIMMAX
 10
297.0
 20
210.0
  9
$VIEWCTR
 10
148.5
 20
105.0
  9
$VIEWSIZE
 40
210.0
  9
$CLAYER
  8
0
  9
$LTSCALE
 40
16.335
  9
$CELTYPE
  6
BYLAYER
  9
$DIMSCALE
 40
1.0
  9
$DIMASZ
 40
3.0
  9
$DIMEXO
 40
0.5
  9
$DIMDLI
 40
11.286
  9
$DIMEXE
 40
1.5
  9
$DIMCEN
 40
2.673
  9
$DIMLFAC
 40
1.0
  9
$DIMBLK
  1
_FILLED
  9
$DIMTXT
 40
3.0
  9
$DIMTOL
 70
1
  9
$DIMLIM
 70
0
  9
$DIMTFAC
 40
1.0
  9
$DIMTP
 40
0.01
  9
$DIMTM
 40
0.01
  9
$DIMGAP
 40
0.625
  9
$DIMDSEP
 70
44
  9
$PDMODE
 70
3
  9
$PDSIZE
 40
3.0
  9
$HANDSEED
  5
437
  9
$TILEMODE
 70
1
  9
$MEASUREMENT
 70
1
  9
$INSUNITS
 70
4
  0
ENDSEC
  0
SECTION
  2
CLASSES
  0
CLASS
  1
ACDBDICTIONARYWDFLT
  2
AcDbDictionaryWithDefault
  3
AutoCAD 2000
 90
0
280
0
281
0
  0
CLASS
  1
ACDBPLACEHOLDER
  2
AcDbPlaceHolder
  3
AutoCAD 2000
 90
0
280
0
281
0
  0
CLASS
  1
LAYOUT
  2
AcDbLayout
  3
AutoCAD 2000
 90
0
280
0
281
0
  0
ENDSEC
  0
SECTION
  2
TABLES
  0
TABLE
  2
VPORT
  5
8
100
AcDbSymbolTable
 70
2
  0
VPORT
  5
1F4
100
AcDbSymbolTableRecord
100
AcDbViewportTableRecord
  2
*ACTIVE
 70
0
 10
0.0
 20
0.0
 11
1.0
 21
1.0
 12
148.5
 22
105.0
 13
0.0
 23
0.0
 14
1.0
 24
1.0
 15
0.0
 25
0.0
 16
0.0
 26
0.0
 36
1.0
 17
0.0
 27
0.0
 37
0.0
 40
210.0
 41
1.4142857143
 42
50.0
 43
0.0
 44
0.0
 50
0.0
 51
0.0
 71
0
 72
100
 73
1
 74
1
 75
0
 76
0
 77
0
 78
0
  0
ENDTAB
  0
TABLE
  2
LTYPE
  5
5
100
AcDbSymbolTable
 70
6
  0
LTYPE
  5
14
100
AcDbSymbolTableRecord
100
AcDbLinetypeTableRecord
  2
BYBLOCK
 70
0
  3

 72
65
 73
0
 40
0.0
  0
LTYPE
  5
15
100
AcDbSymbolTableRecord
100
AcDbLinetypeTableRecord
  2
BYLAYER
 70
0
  3

 72
65
 73
0
 40
0.0
  0
LTYPE
  5
16
100
AcDbSymbolTableRecord
100
AcDbLinetypeTableRecord
  2
CONTINUOUS
 70
64
  3
Solid line
 72
65
 73
0
 40
0.0
  0
LTYPE
  5
1F5
100
AcDbSymbolTableRecord
100
AcDbLinetypeTableRecord
  2
CENTER
 70
64
  3
____ _ ____ _ ____ _ ____ _ ____ _ ____ _ ____
 72
65
 73
4
 40
0.6
 49
0.375
 74
0
 49
-0.075
 74
0
 49
0.075
 74
0
 49
-0.075
 74
0
  0
LTYPE
  5
1F6
100
AcDbSymbolTableRecord
100
AcDbLinetypeTableRecord
  2
HIDDEN
 70
64
  3
- - - - - - - - - - - - - - - - - - - -
 72
65
 73
2
 40
0.2
 49
0.1
 74
0
 49
-0.1
 74
0
  0
LTYPE
  5
1F7
100
AcDbSymbolTableRecord
100
AcDbLinetypeTableRecord
  2
PHANTOM
 70
64
  3
_____ _ _ _____ _ _ _____ _ _ _____
 72
65
 73
6
 40
0.8
 49
0.45
 74
0
 49
-0.05
 74
0
 49
0.1
 74
0
 49
-0.05
 74
0
 49
0.1
 74
0
 49
-0.05
 74
0
  0
LTYPE
  5
1F8
100
AcDbSymbolTableRecord
100
AcDbLinetypeTableRecord
  2
DOT
 70
64
  3
. . . . . . . . . . . . . . . . . . . .
 72
65
 73
2
 40
0.2
 49
0.1
 74
0
 49
-0.1
 74
0
  0
LTYPE
  5
1F9
100
AcDbSymbolTableRecord
100
AcDbLinetypeTableRecord
  2
DASHED
 70
64
  3
- - - - - - - - - - - - - - - - - - - -
 72
65
 73
2
 40
0.2
 49
0.1
 74
0
 49
-0.1
 74
0
  0
ENDTAB
  0
TABLE
  2
LAYER
  5
2
100
AcDbSymbolTable
 70
36
  0
LAYER
  5
10
100
AcDbSymbolTableRecord
100
AcDbLayerTableRecord
  2
0
 70
0
 62
7
  6
CONTINUOUS
370
-3
390
F
  0
LAYER
  5
1FA
100
AcDbSymbolTableRecord
100
AcDbLayerTableRecord
  2
DEFAULT_1
 70
0
 62
7
  6
CENTER
370
-3
390
F
  0
LAYER
  5
1FB
100
AcDbSymbolTableRecord
100
AcDbLayerTableRecord
  2
DEFAULT_2
 70
0
 62
7
  6
HIDDEN
370
-3
390
F
  0
LAYER
  5
1FC
100
AcDbSymbolTableRecord
100
AcDbLayerTableRecord
  2
DEFAULT_3
 70
0
 62
7
  6
PHANTOM
370
-3
390
F
  0
LAYER
  5
1FD
100
AcDbSymbolTableRecord
100
AcDbLayerTableRecord
  2
ASSI
 70
0
 62
7
  6
CONTINUOUS
370
-3
390
F
  0
LAYER
  5
1FE
100
AcDbSymbolTableRecord
100
AcDbLayerTableRecord
  2
COORDINATE
 70
0
 62
7
  6
CONTINUOUS
370
-3
390
F
  0
LAYER
  5
1FF
100
AcDbSymbolTableRecord
100
AcDbLayerTableRecord
  2
COORD_ORIGINE
 70
0
 62
7
  6
CONTINUOUS
370
-3
390
F
  0
LAYER
  5
200
100
AcDbSymbolTableRecord
100
AcDbLayerTableRecord
  2
COPIA_X_PUBLISH
 70
0
 62
7
  6
CONTINUOUS
370
-3
390
F
  0
LAYER
  5
201
100
AcDbSymbolTableRecord
100
AcDbLayerTableRecord
  2
COPY_PLACCA
 70
0
 62
7
  6
CONTINUOUS
370
-3
390
F
  0
LAYER
  5
202
100
AcDbSymbolTableRecord
100
AcDbLayerTableRecord
  2
COPY_SUPP
 70
0
 62
7
  6
CONTINUOUS
370
-3
390
F
  0
LAYER
  5
203
100
AcDbSymbolTableRecord
100
AcDbLayerTableRecord
  2
CURVE
 70
0
 62
7
  6
CONTINUOUS
370
-3
390
F
  0
LAYER
  5
204
100
AcDbSymbolTableRecord
100
AcDbLayerTableRecord
  2
DRAFT
 70
0
 62
7
  6
CONTINUOUS
370
-3
390
F
  0
LAYER
  5
205
100
AcDbSymbolTableRecord
100
AcDbLayerTableRecord
  2
IMPORT_SCRITTE
 70
0
 62
7
  6
CONTINUOUS
370
-3
390
F
  0
LAYER
  5
206
100
AcDbSymbolTableRecord
100
AcDbLayerTableRecord
  2
INTF_1
 70
0
 62
7
  6
CONTINUOUS
370
-3
390
F
  0
LAYER
  5
207
100
AcDbSymbolTableRecord
100
AcDbLayerTableRecord
  2
INTF_CYAN
 70
0
 62
7
  6
CONTINUOUS
370
-3
390
F
  0
LAYER
  5
208
100
AcDbSymbolTableRecord
100
AcDbLayerTableRecord
  2
NOTE
 70
0
 62
7
  6
CONTINUOUS
370
-3
390
F
  0
LAYER
  5
209
100
AcDbSymbolTableRecord
100
AcDbLayerTableRecord
  2
PIANI
 70
0
 62
7
  6
CONTINUOUS
370
-3
390
F
  0
LAYER
  5
20A
100
AcDbSymbolTableRecord
100
AcDbLayerTableRecord
  2
PIANI_ORIGINE
 70
0
 62
7
  6
CONTINUOUS
370
-3
390
F
  0
LAYER
  5
20B
100
AcDbSymbolTableRecord
100
AcDbLayerTableRecord
  2
PIANI_RIFERIMENTO
 70
0
 62
7
  6
CONTINUOUS
370
-3
390
F
  0
LAYER
  5
20C
100
AcDbSymbolTableRecord
100
AcDbLayerTableRecord
  2
PUNTI
 70
0
 62
7
  6
CONTINUOUS
370
-3
390
F
  0
LAYER
  5
20D
100
AcDbSymbolTableRecord
100
AcDbLayerTableRecord
  2
RACCORDO
 70
0
 62
7
  6
CONTINUOUS
370
-3
390
F
  0
LAYER
  5
20E
100
AcDbSymbolTableRecord
100
AcDbLayerTableRecord
  2
SMUSSO
 70
0
 62
7
  6
CONTINUOUS
370
-3
390
F
  0
LAYER
  5
20F
100
AcDbSymbolTableRecord
100
AcDbLayerTableRecord
  2
SNAPLINE
 70
0
 62
7
  6
CONTINUOUS
370
-3
390
F
  0
LAYER
  5
210
100
AcDbSymbolTableRecord
100
AcDbLayerTableRecord
  2
SUPERFICI
 70
0
 62
7
  6
CONTINUOUS
370
-3
390
F
  0
LAYER
  5
211
100
AcDbSymbolTableRecord
100
AcDbLayerTableRecord
  2
TRASH
 70
0
 62
7
  6
CONTINUOUS
370
-3
390
F
  0
LAYER
  5
212
100
AcDbSymbolTableRecord
100
AcDbLayerTableRecord
  2
XSEC_DATUMS
 70
0
 62
7
  6
CONTINUOUS
370
-3
390
F
  0
ENDTAB
  0
TABLE
  2
STYLE
  5
3
100
AcDbSymbolTable
 70
1
  0
STYLE
  5
11
100
AcDbSymbolTableRecord
100
AcDbTextStyleTableRecord
  2
STANDARD
 70
0
 40
0.0
 41
0.8
 50
0.0
 71
0
 42
0.2
  3
txt
  4

  0
STYLE
  5
213
100
AcDbSymbolTableRecord
100
AcDbTextStyleTableRecord
  2
TEXTSTYLE_1
 70
0
 40
0.0
 41
0.8
 50
0.0
 71
0
 42
0.2
  3
gdt
  4

  0
ENDTAB
  0
TABLE
  2
VIEW
  5
6
100
AcDbSymbolTable
 70
0
  0
ENDTAB
  0
TABLE
  2
UCS
  5
7
100
AcDbSymbolTable
 70
0
  0
ENDTAB
  0
TABLE
  2
APPID
  5
9
100
AcDbSymbolTable
 70
1
  0
APPID
  5
214
100
AcDbSymbolTableRecord
100
AcDbRegAppTableRecord
  2
ACAD
 70
0
  0
ENDTAB
  0
TABLE
  2
BLOCK_RECORD
  5
1
100
AcDbSymbolTable
 70
0
  0
BLOCK_RECORD
  5
215
100
AcDbSymbolTableRecord
100
AcDbBlockTableRecord
  2
*Model_Space
  0
BLOCK_RECORD
  5
216
100
AcDbSymbolTableRecord
100
AcDbBlockTableRecord
  2
*Paper_Space
  0
ENDTAB
  0
TABLE
  2
DIMSTYLE
  5
A
100
AcDbSymbolTable
 70
1
100
AcDbDimStyleTable
 71
0
  0
DIMSTYLE
105
217
100
AcDbSymbolTableRecord
100
AcDbDimStyleTableRecord
  2
STANDARD
 70
0
  3

  4

 40
1.0
 41
3.0
 42
0.5
 43
0.38
 44
1.5
 45
0.0
 46
0.0
 47
0.01
 48
0.01
140
3.0
141
0.09
142
0.0
143
25.4
144
1.0
145
0.0
146
1.0
147
0.625
 71
1.0
 72
0.0
 73
0
 74
0
 75
0
 76
0
 77
1
 78
8
170
0
171
2
172
0
173
0
174
0
175
0
176
0
177
0
178
0
270
2
271
2
272
2
273
2
274
2
275
0
280
0
281
0
282
0
283
1
284
8
285
0
286
0
287
3
288
0
340
11
278
44
  0
ENDTAB
  0
ENDSEC
  0
SECTION
  2
BLOCKS
  0
BLOCK
  5
20
100
AcDbEntity
  8
0
100
AcDbBlockBegin
  2
*Model_Space
 70
0
 10
0.0
 20
0.0
 30
0.0
  3
*Model_Space
  1

  0
ENDBLK
  5
21
100
AcDbEntity
  8
0
100
AcDbBlockEnd
  0
BLOCK
  5
1C
100
AcDbEntity
  8
0
100
AcDbBlockBegin
  2
*Paper_Space
 70
0
 10
0.0
 20
0.0
 30
0.0
  3
*Paper_Space
  1

  0
ENDBLK
  5
1D
100
AcDbEntity
  8
0
100
AcDbBlockEnd
  0
ENDSEC
  0
SECTION
  2
ENTITIES
  0
LWPOLYLINE
  5
218
100
AcDbEntity
  8
RACCORDO
100
AcDbPolyline
 62
7
  6
CONTINUOUS
 90
11
 70
0
 10
-55.955841272
 20
67.0135426228
 10
-56.0741316695
 20
66.9298654178
 10
-56.1838272309
 20
66.8313764988
 10
-56.2830934743
 20
66.7190854016
 10
-56.3704684505
 20
66.5941698438
 10
-56.4446636252
 20
66.4580873349
 10
-56.5049872298
 20
66.3116437114
 10
-56.5507896611
 20
66.1561405459
 10
-56.5816036357
 20
65.9932279713
 10
-56.5972351983
 20
65.8236451822
 10
-56.5993177863
 20
65.732471033
  0
LINE
  5
219
100
AcDbEntity
  8
RACCORDO
100
AcDbLine
 62
7
  6
CONTINUOUS
 10
-55.9547798353
 20
67.0142040347
 11
-55.9555153943
 21
67.0137457598
  0
LINE
  5
21A
100
AcDbEntity
  8
RACCORDO
100
AcDbLine
 62
7
  6
CONTINUOUS
 10
-53.2068236448
 20
68.7259615443
 11
-55.9548077365
 21
67.0142242273
  0
LINE
  5
21B
100
AcDbEntity
  8
RACCORDO
100
AcDbLine
 62
7
  6
CONTINUOUS
 10
-52.335704329
 20
68.6849779119
 11
-55.0548981901
 21
66.9911656857
  0
LINE
  5
21C
100
AcDbEntity
  8
DRAFT
100
AcDbLine
 62
7
  6
CONTINUOUS
 10
-51.3499557342
 20
68.6477091182
 11
-51.7873623479
 21
68.3914860169
  0
LWPOLYLINE
  5
21D
100
AcDbEntity
  8
RACCORDO
100
AcDbPolyline
 62
7
  6
CONTINUOUS
 90
10
 70
0
 10
-53.2068131845
 20
68.7259412527
 10
-53.1656834061
 20
68.7495225536
 10
-53.0762973843
 20
68.7885186811
 10
-52.9815631929
 20
68.8140601085
 10
-52.8808126227
 20
68.8257611259
 10
-52.7747112524
 20
68.8240086613
 10
-52.6667962625
 20
68.809031151
 10
-52.5582468017
 20
68.7809046999
 10
-52.4478829841
 20
68.7395535458
 10
-52.335704329
 20
68.6849779119
  0
LINE
  5
21E
100
AcDbEntity
  8
DRAFT
100
AcDbLine
 62
7
  6
CONTINUOUS
 10
-50.8808760447
 20
68.6311619872
 11
-51.5401858957
 21
68.2591884948
  0
LWPOLYLINE
  5
21F
100
AcDbEntity
  8
DRAFT
100
AcDbPolyline
 62
7
  6
CONTINUOUS
 90
26
 70
0
 10
-51.349957356
 20
68.6477081682
 10
-51.3354002074
 20
68.6558077982
 10
-51.3194475405
 20
68.6637474115
 10
-51.3031209049
 20
68.6709272199
 10
-51.2864418048
 20
68.6773379728
 10
-51.2694313242
 20
68.682972923
 10
-51.2520977742
 20
68.6878306465
 10
-51.2344437357
 20
68.6919103167
 10
-51.2164746275
 20
68.6952090455
 10
-51.1982141792
 20
68.6977208673
 10
-51.1796928834
 20
68.699441649
 10
-51.1609374361
 20
68.7003706654
 10
-51.1419536249
 20
68.7005093599
 10
-51.1227409218
 20
68.6998577364
 10
-51.1033042566
 20
68.6984142732
 10
-51.0836706314
 20
68.6961793031
 10
-51.0638727964
 20
68.6931564971
 10
-51.0439378255
 20
68.6893514498
 10
-51.0238727819
 20
68.6847669581
 10
-51.0036807129
 20
68.6794038073
 10
-50.9833707167
 20
68.6732632944
 10
-50.9629676839
 20
68.6663518306
 10
-50.9424983689
 20
68.6586783139
 10
-50.9219833209
 20
68.65025097
 10
-50.9014367484
 20
68.6410761558
 10
-50.8808760447
 20
68.6311619872
  0
LWPOLYLINE
  5
220
100
AcDbEntity
  8
RACCORDO
100
AcDbPolyline
 62
7
  6
CONTINUOUS
 90
13
 70
0
 10
-55.6804884989
 20
65.9229795697
 10
-55.6752057497
 20
66.0237783452
 10
-55.6594526975
 20
66.1278546023
 10
-55.6334812008
 20
66.2335443732
 10
-55.5977064906
 20
66.3391578936
 10
-55.5527005314
 20
66.4430066186
 10
-55.4991828765
 20
66.5434302188
 10
-55.4380091643
 20
66.6388231255
 10
-55.3701574381
 20
66.7276602007
 10
-55.2967125096
 20
66.8085211213
 10
-55.2188486144
 20
66.8801130862
 10
-55.137810638
 20
66.9412914859
 10
-55.0548942131
 20
66.9910782028
  0
LWPOLYLINE
  5
221
100
AcDbEntity
  8
RACCORDO
100
AcDbPolyline
 62
7
  6
CONTINUOUS
 90
8
 70
0
 10
-55.6804885449
 20
-14.2518847343
 10
-55.6752110433
 20
-14.3477993054
 10
-55.6594622933
 20
-14.4372899383
 10
-55.6334941065
 20
-14.5189257408
 10
-55.5977216958
 20
-14.5914014135
 10
-55.5527170372
 20
-14.6535581212
 10
-55.4991997235
 20
-14.7044020219
 10
-55.4477226327
 20
-14.7380742534
  0
LWPOLYLINE
  5
222
100
AcDbEntity
  8
RACCORDO
100
AcDbPolyline
 62
7
  6
CONTINUOUS
 90
16
 70
0
 10
-56.359853641
 20
-13.0220000087
 10
-56.3558890583
 20
-13.1156849219
 10
-56.3448875717
 20
-13.2103644294
 10
-56.3268489943
 20
-13.3060384448
 10
-56.3014339557
 20
-13.4037915978
 10
-56.2689810769
 20
-13.5025389119
 10
-56.2305070592
 20
-13.5990258445
 10
-56.1858040654
 20
-13.6931686004
 10
-56.1350787112
 20
-13.7850504094
 10
-56.0799695249
 20
-13.8716673342
 10
-56.0202821788
 20
-13.9528660998
 10
-55.9562097703
 20
-14.0287994114
 10
-55.8899724356
 20
-14.0969225199
 10
-55.8223101404
 20
-14.1563871386
 10
-55.7524823015
 20
-14.2080412679
 10
-55.6804885555
 20
-14.2518847392
  0
LWPOLYLINE
  5
223
100
AcDbEntity
  8
RACCORDO
100
AcDbPolyline
 62
7
  6
CONTINUOUS
 90
3
 70
0
 10
-56.5993177597
 20
-12.7161428863
 10
-56.5939076008
 20
-12.865710251
 10
-56.5723763551
 20
-13.0518486483
  0
LINE
  5
224
100
AcDbEntity
  8
RACCORDO
100
AcDbLine
 62
7
  6
CONTINUOUS
 10
-56.599376012
 20
65.7323444484
 11
-56.599376012
 21
-12.7163171201
  0
LINE
  5
225
100
AcDbEntity
  8
RACCORDO
100
AcDbLine
 62
7
  6
CONTINUOUS
 10
-56.359853641
 20
65.4266610683
 11
-56.359853641
 21
-13.0220000087
  0
LWPOLYLINE
  5
226
100
AcDbEntity
  8
RACCORDO
100
AcDbPolyline
 62
7
  6
CONTINUOUS
 90
9
 70
0
 10
-42.139337052
 20
38.65838089
 10
-42.1414096419
 20
38.6530255484
 10
-42.1436940373
 20
38.646111265
 10
-42.1456934564
 20
38.6389239525
 10
-42.1474033856
 20
38.6314798358
 10
-42.1488199647
 20
38.6237957195
 10
-42.1499399958
 20
38.6158889499
 10
-42.1507609505
 20
38.607777376
 10
-42.1512809755
 20
38.5994793091
  0
LWPOLYLINE
  5
227
100
AcDbEntity
  8
RACCORDO
100
AcDbPolyline
 62
7
  6
CONTINUOUS
 90
13
 70
0
 10
-42.869183144
 20
39.6627834562
 10
-42.8722526336
 20
39.6607464579
 10
-42.8756230759
 20
39.6583840988
 10
-42.879286363
 20
39.6557020618
 10
-42.8832336821
 20
39.6527067989
 10
-42.8874555375
 20
39.6494055156
 10
-42.8919417727
 20
39.6458061537
 10
-42.8966815955
 20
39.6419173717
 10
-42.9016636034
 20
39.6377485249
 10
-42.9068758116
 20
39.6333096418
 10
-42.9123056812
 20
39.6286114009
 10
-42.9179401498
 20
39.6236651043
 10
-42.923765663
 20
39.6184826512
  0
LWPOLYLINE
  5
228
100
AcDbEntity
  8
RACCORDO
100
AcDbPolyline
 62
7
  6
CONTINUOUS
 90
32
 70
0
 10
-43.7198367967
 20
41.129645325
 10
-43.7277408346
 20
41.1246315146
 10
-43.7425075745
 20
41.1145839464
 10
-43.7569299517
 20
41.103857467
 10
-43.7709912253
 20
41.0924575575
 10
-43.7846749394
 20
41.0803902547
 10
-43.7979652323
 20
41.0676617028
 10
-43.8108479609
 20
41.0542779644
 10
-43.8233082
 20
41.0402472247
 10
-43.8353329196
 20
41.0255760079
 10
-43.8469122066
 20
41.0102672765
 10
-43.8580330479
 20
40.9943292596
 10
-43.8686837902
 20
40.9777687215
 10
-43.8788570303
 20
40.9605849685
 10
-43.8885449182
 20
40.9427774407
 10
-43.8977317044
 20
40.9243603429
 10
-43.9063995693
 20
40.9053552953
 10
-43.9145412374
 20
40.8857647232
 10
-43.9221448453
 20
40.8656031774
 10
-43.929189924
 20
40.8449138852
 10
-43.9356700497
 20
40.8237086032
 10
-43.9415797174
 20
40.8019986311
 10
-43.9469050929
 20
40.7798310892
 10
-43.9516430388
 20
40.7572202407
 10
-43.9557912314
 20
40.7341804614
 10
-43.9593420287
 20
40.7107634198
 10
-43.9622954966
 20
40.6869860974
 10
-43.9646525158
 20
40.6628643075
 10
-43.9664115701
 20
40.6384520156
 10
-43.9675755209
 20
40.6137802849
 10
-43.9681495109
 20
40.5888572926
 10
-43.9682167012
 20
40.576833267
  0
LINE
  5
229
100
AcDbEntity
  8
RACCORDO
100
AcDbLine
 62
7
  6
CONTINUOUS
 10
-43.1926830877
 20
41.4558877045
 11
-43.7198378866
 21
41.129644843
  0
LINE
  5
22A
100
AcDbEntity
  8
RACCORDO
100
AcDbLine
 62
7
  6
CONTINUOUS
 10
-42.9521474674
 20
41.3463365551
 11
-43.2976120808
 21
41.1325128916
  0
LINE
  5
22B
100
AcDbEntity
  8
RACCORDO
100
AcDbLine
 62
7
  6
CONTINUOUS
 10
-43.8431431034
 20
41.5963602905
 11
-43.8393504723
 21
41.5982116764
  0
LINE
  5
22C
100
AcDbEntity
  8
RACCORDO
100
AcDbLine
 62
7
  6
CONTINUOUS
 10
-43.4805047338
 20
41.3135761079
 11
-44.121080119
 21
41.005209695
  0
LWPOLYLINE
  5
22D
100
AcDbEntity
  8
RACCORDO
100
AcDbPolyline
 62
7
  6
CONTINUOUS
 90
6
 70
0
 10
-43.8431372402
 20
41.5963631147
 10
-43.7791313557
 20
41.6202070071
 10
-43.7158680725
 20
41.630521296
 10
-43.6483756746
 20
41.629869524
 10
-43.5773699056
 20
41.6182225168
 10
-43.5037378939
 20
41.595688872
  0
LWPOLYLINE
  5
22E
100
AcDbEntity
  8
RACCORDO
100
AcDbPolyline
 62
7
  6
CONTINUOUS
 90
6
 70
0
 10
-56.48300627
 20
-13.4216378498
 10
-56.41586603
 20
-13.6039405728
 10
-56.3356923616
 20
-13.7797737935
 10
-56.2430917293
 20
-13.948198603
 10
-56.13851301
 20
-14.108411173
 10
-56.0243268334
 20
-14.2568838939
  0
LWPOLYLINE
  5
22F
100
AcDbEntity
  8
RACCORDO
100
AcDbPolyline
 62
7
  6
CONTINUOUS
 90
3
 70
0
 10
-56.5723763551
 20
-13.0518486483
 10
-56.5353257158
 20
-13.2370161882
 10
-56.48300627
 20
-13.4216378498
  0
LWPOLYLINE
  5
230
100
AcDbEntity
  8
RACCORDO
100
AcDbPolyline
 62
7
  6
CONTINUOUS
 90
3
 70
0
 10
-43.4479081237
 20
41.5721290995
 10
-43.4651264636
 20
41.4965918472
 10
-43.4764572632
 20
41.4083661481
  0
LINE
  5
231
100
AcDbEntity
  8
RACCORDO
100
AcDbLine
 62
7
  6
CONTINUOUS
 10
-42.0783247763
 20
38.6278747522
 11
-42.1512809755
 21
38.5994793091
  0
LWPOLYLINE
  5
232
100
AcDbEntity
  8
RACCORDO
100
AcDbPolyline
 62
7
  6
CONTINUOUS
 90
37
 70
0
 10
-42.1512809755
 20
38.5994793091
 10
-42.1667973512
 20
38.593705982
 10
-42.1822808677
 20
38.5884917397
 10
-42.197731525
 20
38.583836582
 10
-42.2131697855
 20
38.5797332305
 10
-42.2285751868
 20
38.5761889636
 10
-42.2438863409
 20
38.5732256172
 10
-42.259101258
 20
38.5708474324
 10
-42.2742219279
 20
38.5690501679
 10
-42.2891929311
 20
38.5678429366
 10
-42.3040120047
 20
38.5672292543
 10
-42.3186814115
 20
38.5672056051
 10
-42.3331525205
 20
38.5677705532
 10
-42.3474205935
 20
38.568925951
 10
-42.3614903687
 20
38.5706699461
 10
-42.37532743
 20
38.5729955454
 10
-42.3889306598
 20
38.5759035415
 10
-42.4023011758
 20
38.5793931419
 10
-42.4154079139
 20
38.5834549751
 10
-42.4282505142
 20
38.588089782
 10
-42.4408293367
 20
38.5932968218
 10
-42.4531143974
 20
38.5990645013
 10
-42.4651058707
 20
38.6053940377
 10
-42.4768035823
 20
38.6122842137
 10
-42.4881770251
 20
38.6197197844
 10
-42.4992282593
 20
38.6277049321
 10
-42.5099552247
 20
38.6362354745
 10
-42.5203212341
 20
38.6452836189
 10
-42.5303250517
 20
38.6548532093
 10
-42.5399679132
 20
38.6649404018
 10
-42.5492168384
 20
38.6755058712
 10
-42.5580698645
 20
38.6865538156
 10
-42.5665289543
 20
38.6980800369
 10
-42.5745670165
 20
38.7100326159
 10
-42.5821750206
 20
38.7223942463
 10
-42.589361997
 20
38.7351822344
 10
-42.5961279458
 20
38.7483965802
  0
LWPOLYLINE
  5
233
100
AcDbEntity
  8
RACCORDO
100
AcDbPolyline
 62
7
  6
CONTINUOUS
 90
16
 70
0
 10
-43.9041344433
 20
41.6747219694
 10
-43.8808747448
 20
41.6816756317
 10
-43.8571099553
 20
41.6873534084
 10
-43.8328433808
 20
41.6917619287
 10
-43.8081719718
 20
41.6948875472
 10
-43.783100412
 20
41.6967244877
 10
-43.7576239708
 20
41.6972785487
 10
-43.7318254876
 20
41.6965534417
 10
-43.7056092535
 20
41.6945150399
 10
-43.6790709342
 20
41.6911974906
 10
-43.6525804583
 20
41.6867069028
 10
-43.6264046135
 20
41.6811124447
 10
-43.600276629
 20
41.6743449402
 10
-43.5737660914
 20
41.6663029845
 10
-43.5467295019
 20
41.656952789
 10
-43.5193103055
 20
41.6463281677
  0
LWPOLYLINE
  5
234
100
AcDbEntity
  8
RACCORDO
100
AcDbPolyline
 62
7
  6
CONTINUOUS
 90
14
 70
0
 10
38.1669403222
 20
-43.69499995
 10
38.140778626
 20
-43.6988707121
 10
38.1141935838
 20
-43.7014643939
 10
38.0871802269
 20
-43.7027869127
 10
38.0598264353
 20
-43.7028394598
 10
38.0320307752
 20
-43.7015907711
 10
38.0038947211
 20
-43.6990720892
 10
37.9758104899
 20
-43.695378379
 10
37.9480608978
 20
-43.6905707946
 10
37.9203631126
 20
-43.6845881904
 10
37.8922608818
 20
-43.6773420813
 10
37.8636021475
 20
-43.6688029582
 10
37.8345390185
 20
-43.6590003032
 10
37.805071518
 20
-43.647934104
  0
LWPOLYLINE
  5
235
100
AcDbEntity
  8
RACCORDO
100
AcDbPolyline
 62
7
  6
CONTINUOUS
 90
4
 70
0
 10
-56.0243268334
 20
-14.2568838939
 10
-55.9011845929
 20
-14.392883738
 10
-55.7692345239
 20
-14.5160966056
 10
-55.6304116998
 20
-14.6243707749
  0
LWPOLYLINE
  5
236
100
AcDbEntity
  8
RACCORDO
100
AcDbPolyline
 62
7
  6
CONTINUOUS
 90
34
 70
0
 10
-42.1512809755
 20
-0.138243983
 10
-42.1507609505
 20
-0.146377585
 10
-42.1499399959
 20
-0.1546605855
 10
-42.1488199648
 20
-0.1630742861
 10
-42.1474033857
 20
-0.1715996933
 10
-42.1456934566
 20
-0.1802175616
 10
-42.1436940375
 20
-0.1889084367
 10
-42.1414096421
 20
-0.1976526995
 10
-42.1388454273
 20
-0.2064306104
 10
-42.1360071817
 20
-0.2152223538
 10
-42.1329013125
 20
-0.224008083
 10
-42.1295348311
 20
-0.2327679648
 10
-42.1259153372
 20
-0.2414822244
 10
-42.1220510015
 20
-0.2501311899
 10
-42.1179505475
 20
-0.2586953369
 10
-42.1136232319
 20
-0.2671553326
 10
-42.1090788233
 20
-0.275492079
 10
-42.1043275803
 20
-0.2836867566
 10
-42.0993802286
 20
-0.2917208666
 10
-42.0942479366
 20
-0.2995762726
 10
-42.08894229
 20
-0.3072352416
 10
-42.083475266
 20
-0.3146804841
 10
-42.0778592059
 20
-0.3218951931
 10
-42.0721067877
 20
-0.3288630819
 10
-42.0662309971
 20
-0.3355684211
 10
-42.060245098
 20
-0.3419960741
 10
-42.0541626034
 20
-0.3481315307
 10
-42.047997244
 20
-0.3539609409
 10
-42.0417629375
 20
-0.3594711452
 10
-42.0354737575
 20
-0.3646497047
 10
-42.0291439013
 20
-0.3694849293
 10
-42.0227876579
 20
-0.3739659039
 10
-42.0164193763
 20
-0.3780825131
 10
-42.0100534323
 20
-0.3818254638
  0
LWPOLYLINE
  5
237
100
AcDbEntity
  8
RACCORDO
100
AcDbPolyline
 62
7
  6
CONTINUOUS
 90
28
 70
0
 10
-43.3621652505
 20
41.0114989355
 10
-43.3622888838
 20
41.0165320417
 10
-43.3621827224
 20
41.0216575241
 10
-43.3618471012
 20
41.0268592149
 10
-43.361283079
 20
41.0321207059
 10
-43.3604924347
 20
41.0374254006
 10
-43.3594776625
 20
41.0427565657
 10
-43.3582419633
 20
41.0480973848
 10
-43.356789235
 20
41.053431011
 10
-43.35512406
 20
41.0587406198
 10
-43.3532516909
 20
41.0640094628
 10
-43.351178034
 20
41.0692209201
 10
-43.3489096302
 20
41.0743585527
 10
-43.3464536351
 20
41.0794061546
 10
-43.3438177957
 20
41.0843478037
 10
-43.3410104265
 20
41.0891679121
 10
-43.3380403831
 20
41.0938512754
 10
-43.334917034
 20
41.0983831206
 10
-43.3316502315
 20
41.1027491523
 10
-43.3282502803
 20
41.1069355985
 10
-43.3247279052
 20
41.1109292536
 10
-43.3210942172
 20
41.11471752
 10
-43.3173606781
 20
41.118288448
 10
-43.3135390651
 20
41.1216307737
 10
-43.309641433
 20
41.1247339541
 10
-43.3056800764
 20
41.1275882004
 10
-43.3016674909
 20
41.1301845095
 10
-43.2976163337
 20
41.1325146914
  0
LWPOLYLINE
  5
238
100
AcDbEntity
  8
RACCORDO
100
AcDbPolyline
 62
7
  6
CONTINUOUS
 90
49
 70
0
 10
-43.9682167558
 20
-1.5426067577
 10
-43.9678947097
 20
-1.5691611496
 10
-43.9668890756
 20
-1.59684122
 10
-43.9652052056
 20
-1.6247264697
 10
-43.9628497658
 20
-1.6527889659
 10
-43.9598295597
 20
-1.68100727
 10
-43.9561503578
 20
-1.7093642565
 10
-43.951819216
 20
-1.737835331
 10
-43.9468434951
 20
-1.7663952934
 10
-43.9412292781
 20
-1.7950247822
 10
-43.9349843671
 20
-1.8236989635
 10
-43.9281167726
 20
-1.8523927992
 10
-43.9206332633
 20
-1.8810860491
 10
-43.9125425433
 20
-1.9097536893
 10
-43.9038533542
 20
-1.9383706755
 10
-43.894573242
 20
-1.9669161766
 10
-43.8847118337
 20
-1.9953651634
 10
-43.8742786735
 20
-2.0236927208
 10
-43.8632820755
 20
-2.0518779689
 10
-43.8517325196
 20
-2.0798961176
 10
-43.8396404133
 20
-2.1077223183
 10
-43.8270148897
 20
-2.1353356788
 10
-43.813867181
 20
-2.1627118793
 10
-43.8002086188
 20
-2.1898261383
 10
-43.7860493757
 20
-2.2166572693
 10
-43.7714010577
 20
-2.2431821079
 10
-43.7562762485
 20
-2.2693754841
 10
-43.7406874787
 20
-2.2952139928
 10
-43.7246475885
 20
-2.3206744058
 10
-43.7081697283
 20
-2.3457328997
 10
-43.691267683
 20
-2.3703663415
 10
-43.6739552498
 20
-2.3945519964
 10
-43.6562462056
 20
-2.4182672083
 10
-43.6381547427
 20
-2.4414902914
 10
-43.6196951581
 20
-2.4641995013
 10
-43.6008819461
 20
-2.4863730717
 10
-43.5817296248
 20
-2.5079905868
 10
-43.5622530402
 20
-2.5290311118
 10
-43.5424670367
 20
-2.5494741049
 10
-43.5223857039
 20
-2.5693008745
 10
-43.5020242445
 20
-2.5884912695
 10
-43.48139767
 20
-2.6070259375
 10
-43.46051906
 20
-2.6248880321
 10
-43.4394038136
 20
-2.6420581153
 10
-43.4180668379
 20
-2.6585177402
 10
-43.3965191362
 20
-2.6742517619
 10
-43.374773835
 20
-2.689242657
 10
-43.352849081
 20
-2.7034704561
 10
-43.3413875867
 20
-2.710558325
  0
LWPOLYLINE
  5
239
100
AcDbEntity
  8
RACCORDO
100
AcDbPolyline
 62
7
  6
CONTINUOUS
 90
52
 70
0
 10
-43.9409718333
 20
-1.5769093579
 10
-43.9407006108
 20
-1.600097807
 10
-43.9398926313
 20
-1.6235095752
 10
-43.9385478937
 20
-1.647144662
 10
-43.9366641641
 20
-1.6710251125
 10
-43.9342436723
 20
-1.6951288797
 10
-43.9312931126
 20
-1.719389825
 10
-43.9278111223
 20
-1.7438072391
 10
-43.923799056
 20
-1.7683818275
 10
-43.9192676833
 20
-1.7930495738
 10
-43.9142157052
 20
-1.8178105237
 10
-43.9086444089
 20
-1.8426646259
 10
-43.9025684431
 20
-1.8675477189
 10
-43.8959865387
 20
-1.8924598629
 10
-43.8888999497
 20
-1.9174009905
 10
-43.8813271095
 20
-1.9423067482
 10
-43.8732667918
 20
-1.9671770332
 10
-43.864720205
 20
-1.9920119398
 10
-43.8557094348
 20
-2.0167474097
 10
-43.8462332882
 20
-2.0413832265
 10
-43.8362929382
 20
-2.0659195971
 10
-43.8259140195
 20
-2.0902930978
 10
-43.8150954278
 20
-2.1145032877
 10
-43.8038382458
 20
-2.1385505973
 10
-43.7921713899
 20
-2.1623729108
 10
-43.7800937911
 20
-2.1859697056
 10
-43.7676064956
 20
-2.2093414934
 10
-43.7547415941
 20
-2.2324277103
 10
-43.7414981239
 20
-2.2552276258
 10
-43.7278770245
 20
-2.2777419596
 10
-43.7139132406
 20
-2.2999123232
 10
-43.6996058441
 20
-2.3217379154
 10
-43.6849557404
 20
-2.3432195267
 10
-43.6700006267
 20
-2.3643011576
 10
-43.6547396848
 20
-2.3849818223
 10
-43.6391737113
 20
-2.4052624964
 10
-43.6233428284
 20
-2.4250901232
 10
-43.6072463018
 20
-2.444463589
 10
-43.5908848459
 20
-2.4633839982
 10
-43.5743007589
 20
-2.4818016233
 10
-43.5574934428
 20
-2.4997151895
 10
-43.5404634781
 20
-2.5171259634
 10
-43.5232549339
 20
-2.5339880313
 10
-43.5058671939
 20
-2.5503000818
 10
-43.48830086
 20
-2.5660634195
 10
-43.4706018318
 20
-2.5812360561
 10
-43.4527686426
 20
-2.5958171242
 10
-43.4348027481
 20
-2.609807486
 10
-43.4167544356
 20
-2.6231677493
 10
-43.3986404662
 20
-2.6358847826
 10
-43.3804440724
 20
-2.6479717143
 10
-43.3621652506
 20
-2.6594285428
  0
LINE
  5
23A
100
AcDbEntity
  8
RACCORDO
100
AcDbLine
 62
7
  6
CONTINUOUS
 10
-44.2639459266
 20
-1.5526288656
 11
-44.2639459266
 21
41.0065800293
  0
LINE
  5
23B
100
AcDbEntity
  8
RACCORDO
100
AcDbLine
 62
7
  6
CONTINUOUS
 10
-44.121080119
 20
-1.5539991999
 11
-44.121080119
 21
41.005209695
  0
LINE
  5
23C
100
AcDbEntity
  8
RACCORDO
100
AcDbLine
 62
7
  6
CONTINUOUS
 10
-43.9682168554
 20
40.5768350847
 11
-43.9682168554
 21
-1.5426066132
  0
LINE
  5
23D
100
AcDbEntity
  8
RACCORDO
100
AcDbLine
 62
7
  6
CONTINUOUS
 10
-43.9409718333
 20
40.5425323399
 11
-43.9409718333
 21
-1.5769093579
  0
LINE
  5
23E
100
AcDbEntity
  8
RACCORDO
100
AcDbLine
 62
7
  6
CONTINUOUS
 10
-43.4805047338
 20
41.3135761079
 11
-43.4805047338
 21
41.2777622863
  0
LINE
  5
23F
100
AcDbEntity
  8
RACCORDO
100
AcDbLine
 62
7
  6
CONTINUOUS
 10
-42.9955908029
 20
39.7807641879
 11
-42.9955908029
 21
-1.8170028951
  0
LINE
  5
240
100
AcDbEntity
  8
RACCORDO
100
AcDbLine
 62
7
  6
CONTINUOUS
 10
-42.7163503153
 20
38.9943088817
 11
-42.7163503153
 21
-1.0418642745
  0
LINE
  5
241
100
AcDbEntity
  8
RACCORDO
100
AcDbLine
 62
7
  6
CONTINUOUS
 10
-40.8567861429
 20
0.5234912125
 11
-40.8567861429
 21
38.0171054355
  0
LWPOLYLINE
  5
242
100
AcDbEntity
  8
RACCORDO
100
AcDbPolyline
 62
7
  6
CONTINUOUS
 90
28
 70
0
 10
-44.1210799106
 20
41.0052095889
 10
-44.1206857638
 20
41.0365497436
 10
-44.1194627034
 20
41.0674544193
 10
-44.1174085775
 20
41.0978875593
 10
-44.1145228562
 20
41.1278153953
 10
-44.1108055046
 20
41.1572009094
 10
-44.1062577509
 20
41.1860044395
 10
-44.1008821885
 20
41.214193311
 10
-44.0946822482
 20
41.2417327581
 10
-44.087663552
 20
41.2685820834
 10
-44.079832254
 20
41.2947099038
 10
-44.0711953153
 20
41.3200850255
 10
-44.0617626479
 20
41.3446695546
 10
-44.0515440505
 20
41.3684340396
 10
-44.0405497692
 20
41.3913514092
 10
-44.0287927847
 20
41.4133896601
 10
-44.016286319
 20
41.4345216993
 10
-44.0030433614
 20
41.4547246247
 10
-43.9890777887
 20
41.4739740567
 10
-43.9744054967
 20
41.4922456655
 10
-43.9590417564
 20
41.5095198565
 10
-43.9429994707
 20
41.5257791087
 10
-43.9262944216
 20
41.5410034893
 10
-43.9089456588
 20
41.5551737946
 10
-43.8909706073
 20
41.5682727711
 10
-43.8723861539
 20
41.5802839395
 10
-43.8532144861
 20
41.591190802
 10
-43.8431431034
 20
41.5963602905
  0
LWPOLYLINE
  5
243
100
AcDbEntity
  8
RACCORDO
100
AcDbPolyline
 62
7
  6
CONTINUOUS
 90
30
 70
0
 10
-44.2639459266
 20
41.0065800293
 10
-44.2634953558
 20
41.0408423968
 10
-44.2621365188
 20
41.0745528584
 10
-44.2598694126
 20
41.1077114156
 10
-44.2566925561
 20
41.1403575852
 10
-44.2526074189
 20
41.1724518559
 10
-44.2476184209
 20
41.2038756872
 10
-44.2417214721
 20
41.234628006
 10
-44.2349206395
 20
41.2647098964
 10
-44.2272325757
 20
41.2940060553
 10
-44.218653173
 20
41.3225135261
 10
-44.2091865054
 20
41.3502352815
 10
-44.1988614959
 20
41.3770649123
 10
-44.1876746383
 20
41.4029980476
 10
-44.1756293956
 20
41.4280390789
 10
-44.1627651433
 20
41.4520947407
 10
-44.1490795096
 20
41.4751600186
 10
-44.1345748153
 20
41.4972399512
 10
-44.1192974748
 20
41.518256353
 10
-44.1032462086
 20
41.5382047375
 10
-44.0864222395
 20
41.5570896181
 10
-44.0688757364
 20
41.5748463076
 10
-44.0506034215
 20
41.5914727177
 10
-44.0316085119
 20
41.6069709654
 10
-44.011950922
 20
41.6212826711
 10
-43.9916258831
 20
41.6344048253
 10
-43.9706381018
 20
41.6463404668
 10
-43.9490617105
 20
41.6570402866
 10
-43.9268924121
 20
41.6664990246
 10
-43.9041344433
 20
41.6747219694
  0
LWPOLYLINE
  5
244
100
AcDbEntity
  8
RACCORDO
100
AcDbPolyline
 62
7
  6
CONTINUOUS
 90
16
 70
0
 10
-43.3621652504
 20
-2.6594285427
 10
-43.3622888893
 20
-2.6641008568
 10
-43.3621827331
 20
-2.6686501795
 10
-43.3618471167
 20
-2.6730621606
 10
-43.3612830989
 20
-2.677322883
 10
-43.3604924586
 20
-2.6814189066
 10
-43.3594776899
 20
-2.685337311
 10
-43.3582419938
 20
-2.6890657362
 10
-43.3567892681
 20
-2.6925924211
 10
-43.3551240953
 20
-2.6959062412
 10
-43.353251728
 20
-2.6989967435
 10
-43.3511780723
 20
-2.7018541794
 10
-43.3489096695
 20
-2.7044695353
 10
-43.3464536748
 20
-2.7068345615
 10
-43.3438178354
 20
-2.7089417977
 10
-43.3413896984
 20
-2.710557233
  0
LINE
  5
245
100
AcDbEntity
  8
RACCORDO
100
AcDbLine
 62
7
  6
CONTINUOUS
 10
-43.4764572632
 20
41.4083661481
 11
-43.4805047338
 21
41.313576118
  0
LWPOLYLINE
  5
246
100
AcDbEntity
  8
RACCORDO
100
AcDbPolyline
 62
7
  6
CONTINUOUS
 90
10
 70
0
 10
-43.4915084376
 20
-2.9996440873
 10
-43.4896759125
 20
-2.9845742281
 10
-43.4857079208
 20
-2.968924799
 10
-43.4797239706
 20
-2.95316713
 10
-43.4719042864
 20
-2.9377758109
 10
-43.4624843819
 20
-2.9232143977
 10
-43.4517479659
 20
-2.9099214516
 10
-43.440018398
 20
-2.8982973297
 10
-43.4276489497
 20
-2.8886921276
 10
-43.4150121643
 20
-2.8813951351
  0
LWPOLYLINE
  5
247
100
AcDbEntity
  8
RACCORDO
100
AcDbPolyline
 62
7
  6
CONTINUOUS
 90
49
 70
0
 10
-42.7163503153
 20
-1.0418642745
 10
-42.721772927
 20
-1.0708587986
 10
-42.7271977522
 20
-1.0988058636
 10
-42.7326045729
 20
-1.1257112211
 10
-42.7379651912
 20
-1.1515469548
 10
-42.7432710831
 20
-1.1763536467
 10
-42.7485353262
 20
-1.2002388183
 10
-42.7537458228
 20
-1.2232069544
 10
-42.7588889447
 20
-1.2452642611
 10
-42.7639799102
 20
-1.2665185421
 10
-42.7690100098
 20
-1.2869748964
 10
-42.773969585
 20
-1.3066371902
 10
-42.7788755366
 20
-1.3256093324
 10
-42.7837250146
 20
-1.3439086242
 10
-42.7885077694
 20
-1.3615249279
 10
-42.7932315315
 20
-1.3785195365
 10
-42.797894632
 20
-1.3949061249
 10
-42.8024888671
 20
-1.4106773124
 10
-42.8070131374
 20
-1.4258622001
 10
-42.8114646016
 20
-1.440465579
 10
-42.8158384138
 20
-1.4544887782
 10
-42.8201310155
 20
-1.4679555799
 10
-42.8243376254
 20
-1.4808624256
 10
-42.8284571555
 20
-1.4932189411
 10
-42.8324920538
 20
-1.5050684911
 10
-42.8364346244
 20
-1.5163993145
 10
-42.8402883363
 20
-1.527228783
 10
-42.844072848
 20
-1.5376431269
 10
-42.8477823466
 20
-1.5476372344
 10
-42.8514197529
 20
-1.5572203548
 10
-42.8550181388
 20
-1.566498666
 10
-42.8585741127
 20
-1.5754742252
 10
-42.8620888773
 20
-1.5841471153
 10
-42.8656024032
 20
-1.5926185276
 10
-42.8691116676
 20
-1.6008925943
 10
-42.8726175007
 20
-1.6089651721
 10
-42.8761652812
 20
-1.6169227333
 10
-42.8797569012
 20
-1.6247811288
 10
-42.8833874451
 20
-1.6325219581
 10
-42.8870913572
 20
-1.6401780772
 10
-42.8908726325
 20
-1.6477679225
 10
-42.8947226978
 20
-1.6552683647
 10
-42.8986563011
 20
-1.6626483578
 10
-42.9026794575
 20
-1.6699251217
 10
-42.9067796052
 20
-1.6770754678
 10
-42.9109431549
 20
-1.6840074966
 10
-42.9151630581
 20
-1.6906889724
 10
-42.9194385952
 20
-1.6971469732
 10
-42.9237654262
 20
-1.7033788935
  0
LINE
  5
248
100
AcDbEntity
  8
DRAFT
100
AcDbLine
 62
7
  6
CONTINUOUS
 10
56.5993546956
 20
-28.5934679458
 11
55.8347552034
 21
-28.7807952857
  0
LWPOLYLINE
  5
249
100
AcDbEntity
  8
RACCORDO
100
AcDbPolyline
 62
7
  6
CONTINUOUS
 90
16
 70
0
 10
50.8413812963
 20
-67.5128196651
 10
50.9190836263
 20
-67.5438242267
 10
50.9944562838
 20
-67.564770343
 10
51.0674989316
 20
-67.5756581957
 10
51.1390104556
 20
-67.576409521
 10
51.2081913973
 20
-67.5671028914
 10
51.2726436028
 20
-67.5479739051
 10
51.3321572652
 20
-67.5186684006
 10
51.3869410517
 20
-67.4795411545
 10
51.4352240838
 20
-67.4318914075
 10
51.4767818824
 20
-67.3754203865
 10
51.5118377956
 20
-67.3104274752
 10
51.5392925495
 20
-67.2391092229
 10
51.5587794609
 20
-67.1621979522
 10
51.5706645193
 20
-67.0789617151
 10
51.5749475517
 20
-66.989400605
  0
LWPOLYLINE
  5
24A
100
AcDbEntity
  8
RACCORDO
100
AcDbPolyline
 62
7
  6
CONTINUOUS
 90
13
 70
0
 10
51.5749475517
 20
-66.989400605
 10
51.6608343576
 20
-67.0244941153
 10
51.754702465
 20
-67.0540387414
 10
51.8551261494
 20
-67.0775857422
 10
51.9605801161
 20
-67.0947774717
 10
52.0694626677
 20
-67.1053528119
 10
52.1801200314
 20
-67.1091511379
 10
52.2908714775
 20
-67.1061147591
 10
52.4000348472
 20
-67.0962897933
 10
52.5059521026
 20
-67.079825466
 10
52.6070145095
 20
-67.0569718465
 10
52.7016870717
 20
-67.0280760496
 10
52.7885318462
 20
-66.993576962
  0
LWPOLYLINE
  5
24B
100
AcDbEntity
  8
RACCORDO
100
AcDbPolyline
 62
7
  6
CONTINUOUS
 90
10
 70
0
 10
51.0748870454
 20
-67.9993348322
 10
51.2108619908
 20
-68.0553463255
 10
51.3496289594
 20
-68.098573185
 10
51.489390931
 20
-68.1282516271
 10
51.6288279362
 20
-68.1442321448
 10
51.7668310396
 20
-68.1466010463
 10
51.9023926596
 20
-68.1355350708
 10
52.0339557642
 20
-68.1114170705
 10
52.1602146819
 20
-68.0749462358
 10
52.2115217698
 20
-68.0561112511
  0
LWPOLYLINE
  5
24C
100
AcDbEntity
  8
RACCORDO
100
AcDbPolyline
 62
7
  6
CONTINUOUS
 90
3
 70
0
 10
-55.6304116998
 20
-14.6243707749
 10
-55.4857162102
 20
-14.7168574103
 10
-55.4475498727
 20
-14.7380861759
  0
LINE
  5
24D
100
AcDbEntity
  8
RACCORDO
100
AcDbLine
 62
7
  6
CONTINUOUS
 10
-40.6974392014
 20
0.2708500326
 11
-40.6974392014
 21
37.9374319647
  0
LINE
  5
24E
100
AcDbEntity
  8
RACCORDO
100
AcDbLine
 62
7
  6
CONTINUOUS
 10
-40.6150515127
 20
0.2296561882
 11
-40.6150515127
 21
37.8962381204
  0
LINE
  5
24F
100
AcDbEntity
  8
RACCORDO
100
AcDbLine
 62
7
  6
CONTINUOUS
 10
-42.5961279458
 20
-0.6877032653
 11
-42.7163503153
 21
-1.0418642745
  0
LINE
  5
250
100
AcDbEntity
  8
RACCORDO
100
AcDbLine
 62
7
  6
CONTINUOUS
 10
-42.3341308532
 20
-0.7711326386
 11
-42.4543529177
 21
-1.125292749
  0
LWPOLYLINE
  5
251
100
AcDbEntity
  8
RACCORDO
100
AcDbPolyline
 62
7
  6
CONTINUOUS
 90
49
 70
0
 10
-42.4543529177
 20
-1.125292749
 10
-42.465260303
 20
-1.1566202539
 10
-42.476095951
 20
-1.1867620968
 10
-42.4868598616
 20
-1.2157182777
 10
-42.4975641366
 20
-1.2434403412
 10
-42.5081966743
 20
-1.2699767428
 10
-42.5187211692
 20
-1.2954728485
 10
-42.5291301683
 20
-1.3199306435
 10
-42.5394311248
 20
-1.3433481426
 10
-42.5496100917
 20
-1.3658647568
 10
-42.559661725
 20
-1.3874837738
 10
-42.5695913689
 20
-1.4082019058
 10
-42.5794011093
 20
-1.4281487002
 10
-42.5890942215
 20
-1.4473404746
 10
-42.5986674303
 20
-1.4657609115
 10
-42.608112996
 20
-1.4834906053
 10
-42.6174349565
 20
-1.5005413587
 10
-42.6266292739
 20
-1.5169013689
 10
-42.6356760952
 20
-1.5326158231
 10
-42.644575705
 20
-1.5476867941
 10
-42.6533278187
 20
-1.562112209
 10
-42.6619117294
 20
-1.5759310357
 10
-42.6703222702
 20
-1.5891369031
 10
-42.6785646079
 20
-1.6017361823
 10
-42.6866335362
 20
-1.6137869549
 10
-42.6945165866
 20
-1.6252756234
 10
-42.7022262275
 20
-1.6362157853
 10
-42.7097946581
 20
-1.6467063148
 10
-42.7172122888
 20
-1.6567422038
 10
-42.7244887091
 20
-1.6663284604
 10
-42.7316848865
 20
-1.6755789833
 10
-42.7387959823
 20
-1.6844974929
 10
-42.7458268352
 20
-1.6930802687
 10
-42.7528529284
 20
-1.7014300482
 10
-42.759870907
 20
-1.7095540876
 10
-42.7668841259
 20
-1.7174451305
 10
-42.7739781336
 20
-1.7251841454
 10
-42.7811610465
 20
-1.7327911023
 10
-42.7884247482
 20
-1.740246031
 10
-42.7958304374
 20
-1.7475699894
 10
-42.8033922802
 20
-1.7547852351
 10
-42.8110961105
 20
-1.7618695105
 10
-42.8189606286
 20
-1.7687770997
 10
-42.8270059665
 20
-1.7755276667
 10
-42.8352119922
 20
-1.7821015476
 10
-42.8435370108
 20
-1.7883940355
 10
-42.8519671238
 20
-1.7943702283
 10
-42.8605162296
 20
-1.8000650281
 10
-42.8691843282
 20
-1.8054784351
  0
LINE
  5
252
100
AcDbEntity
  8
DRAFT
100
AcDbLine
 62
7
  6
CONTINUOUS
 10
56.1043799488
 20
-28.0687790041
 11
55.8347552034
 21
-28.1348372305
  0
LINE
  5
253
100
AcDbEntity
  8
RACCORDO
100
AcDbLine
 62
7
  6
CONTINUOUS
 10
38.9977050559
 20
-62.3571384853
 11
51.0747535105
 21
-67.9993550684
  0
LWPOLYLINE
  5
254
100
AcDbEntity
  8
RACCORDO
100
AcDbPolyline
 62
7
  6
CONTINUOUS
 90
9
 70
0
 10
-55.4477226327
 20
-14.7380742534
 10
-44.1796859423
 20
-20.7678973094
 10
-32.6019440125
 20
-26.8597933467
 10
-20.9211812684
 20
-32.9022293311
 10
-9.1383481207
 20
-38.8947114807
 10
2.7457487218
 20
-44.8368347718
 10
14.7303618765
 20
-50.7282270718
 10
26.8146781616
 20
-56.5684865168
 10
38.9977050559
 20
-62.3571384853
  0
LWPOLYLINE
  5
255
100
AcDbEntity
  8
RACCORDO
100
AcDbPolyline
 62
7
  6
CONTINUOUS
 90
10
 70
0
 10
-55.6804885555
 20
-14.2518847392
 10
-44.2494268735
 20
-20.3682092074
 10
-32.7152361866
 20
-26.435924896
 10
-21.0787428455
 20
-32.4545970946
 10
-9.3407805281
 20
-38.4237946068
 10
2.4978098134
 20
-44.3430897775
 10
14.4361800127
 20
-50.2120585235
 10
26.4734747595
 20
-56.0302803688
 10
38.608831661
 20
-61.7973384745
 10
50.8413812963
 20
-67.5128196651
  0
LWPOLYLINE
  5
256
100
AcDbEntity
  8
RACCORDO
100
AcDbPolyline
 62
7
  6
CONTINUOUS
 90
7
 70
0
 10
-56.359853641
 20
-13.0220000087
 10
-56.430037054
 20
-12.9790592566
 10
-56.4891245612
 20
-12.9321277093
 10
-56.5362184142
 20
-12.8819180113
 10
-56.5706029816
 20
-12.8291926182
 10
-56.5917555995
 20
-12.7747522643
 10
-56.599376012
 20
-12.7163171674
  0
LWPOLYLINE
  5
257
100
AcDbEntity
  8
RACCORDO
100
AcDbPolyline
 62
7
  6
CONTINUOUS
 90
13
 70
0
 10
-42.9237657164
 20
-1.7033792602
 10
-42.9179402052
 20
-1.7111256305
 10
-42.9123057374
 20
-1.7190770529
 10
-42.9068758675
 20
-1.7272143991
 10
-42.9016636578
 20
-1.7355180938
 10
-42.896681647
 20
-1.7439681614
 10
-42.89194182
 20
-1.7525442742
 10
-42.8874555791
 20
-1.7612258013
 10
-42.8832337165
 20
-1.7699918581
 10
-42.8792863886
 20
-1.7788213569
 10
-42.8756230911
 20
-1.787693057
 10
-42.8722526366
 20
-1.7965856167
 10
-42.8691831333
 20
-1.8054776435
  0
LWPOLYLINE
  5
258
100
AcDbEntity
  8
RACCORDO
100
AcDbPolyline
 62
7
  6
CONTINUOUS
 90
7
 70
0
 10
-43.4915084758
 20
41.634429133
 10
-43.4896759172
 20
41.6196113275
 10
-43.4857079006
 20
41.6062732354
 10
-43.4797239342
 20
41.5948165721
 10
-43.4719042427
 20
41.5855863883
 10
-43.4624843386
 20
41.5788606779
 10
-43.4600126071
 20
41.5776417925
  0
LWPOLYLINE
  5
259
100
AcDbEntity
  8
RACCORDO
100
AcDbPolyline
 62
7
  6
CONTINUOUS
 90
10
 70
0
 10
-42.9237654262
 20
-1.7033788935
 10
-42.9322748975
 20
-1.7153976464
 10
-42.9407231874
 20
-1.7276073076
 10
-42.9490840151
 20
-1.7400042192
 10
-42.9573394375
 20
-1.7526312831
 10
-42.9654507346
 20
-1.7654400404
 10
-42.9733615354
 20
-1.7782930198
 10
-42.9810358253
 20
-1.7911466101
 10
-42.9884549741
 20
-1.8040488125
 10
-42.9955908029
 20
-1.8170028951
  0
LWPOLYLINE
  5
25A
100
AcDbEntity
  8
RACCORDO
100
AcDbPolyline
 62
7
  6
CONTINUOUS
 90
48
 70
0
 10
-42.7163503153
 20
38.9943088817
 10
-42.7217743865
 20
39.0186011698
 10
-42.727202701
 20
39.0421789202
 10
-42.7326151827
 20
39.0650364808
 10
-42.737983989
 20
39.0871414398
 10
-42.7433004695
 20
39.1085137441
 10
-42.7485770502
 20
39.1292272233
 10
-42.7538016929
 20
39.1492751759
 10
-42.7589607587
 20
39.1686537253
 10
-42.7640686173
 20
39.18744317
 10
-42.769116339
 20
39.2056385421
 10
-42.7740944275
 20
39.2232358678
 10
-42.7790194627
 20
39.2403189356
 10
-42.7838878764
 20
39.2568941975
 10
-42.7886900578
 20
39.2729480227
 10
-42.7934354901
 20
39.2885355924
 10
-42.7981227627
 20
39.3036644044
 10
-42.8027434257
 20
39.3183208008
 10
-42.8072974303
 20
39.3325289406
 10
-42.8117821628
 20
39.3462881371
 10
-42.8161925519
 20
39.3595931438
 10
-42.8205254206
 20
39.3724614505
 10
-42.824776977
 20
39.3848864756
 10
-42.8289451115
 20
39.3968689321
 10
-42.8330296118
 20
39.4084373702
 10
-42.8370236753
 20
39.4195767416
 10
-42.8409297889
 20
39.4302964931
 10
-42.844762102
 20
39.4406625156
 10
-42.8485140733
 20
39.4506628869
 10
-42.8521892672
 20
39.4603050721
 10
-42.8558172966
 20
39.4696854073
 10
-42.8593947479
 20
39.4788028696
 10
-42.8629228371
 20
39.4876558954
 10
-42.8664381463
 20
39.4963418699
 10
-42.8699371723
 20
39.5048625699
 10
-42.8734213295
 20
39.5132156224
 10
-42.876934238
 20
39.5214943541
 10
-42.8804754569
 20
39.5297115225
 10
-42.8840426706
 20
39.5378561507
 10
-42.887675961
 20
39.5459882696
 10
-42.8913783322
 20
39.5541306619
 10
-42.8951425331
 20
39.5622647139
 10
-42.8989922959
 20
39.5703902837
 10
-42.9029327266
 20
39.5785334639
 10
-42.9069523847
 20
39.5866740883
 10
-42.9110493952
 20
39.5947434919
 10
-42.9152204064
 20
39.6027208208
 10
-42.9194606104
 20
39.610632965
  0
LINE
  5
25B
100
AcDbEntity
  8
ASSI
100
AcDbLine
 62
7
  6
CONTINUOUS
 10
-26.4712669847
 20
-4.9533931626
 11
-26.4712669847
 21
-5.4655192975
  0
LINE
  5
25C
100
AcDbEntity
  8
ASSI
100
AcDbLine
 62
7
  6
CONTINUOUS
 10
-26.4198959498
 20
-4.9370711291
 11
-26.4198959498
 21
-5.448260433
  0
LINE
  5
25D
100
AcDbEntity
  8
DRAFT
100
AcDbLine
 62
7
  6
CONTINUOUS
 10
-27.0249425452
 20
-6.0418924646
 11
-27.0366924164
 21
-6.089723959
  0
LINE
  5
25E
100
AcDbEntity
  8
ASSI
100
AcDbLine
 62
7
  6
CONTINUOUS
 10
-27.0232504035
 20
-6.039329224
 11
-26.9650089835
 21
-5.8022394643
  0
LINE
  5
25F
100
AcDbEntity
  8
ASSI
100
AcDbLine
 62
7
  6
CONTINUOUS
 10
-27.0237415727
 20
-6.0412897995
 11
-27.0232504035
 21
-6.039329224
  0
LWPOLYLINE
  5
260
100
AcDbEntity
  8
DRAFT
100
AcDbPolyline
 62
7
  6
CONTINUOUS
 90
16
 70
0
 10
-27.0366924164
 20
-6.089723959
 10
-27.0389967408
 20
-6.0982843993
 10
-27.0416181638
 20
-6.1065296276
 10
-27.0445566855
 20
-6.1144596439
 10
-27.0478189697
 20
-6.1220878852
 10
-27.0513983526
 20
-6.1294009144
 10
-27.0552748421
 20
-6.1363584201
 10
-27.0594485277
 20
-6.1429565196
 10
-27.06391932
 20
-6.1491990956
 10
-27.0686669583
 20
-6.1550574848
 10
-27.0736952922
 20
-6.160532208
 10
-27.0790004721
 20
-6.1656227443
 10
-27.0845506901
 20
-6.1702988681
 10
-27.0903437196
 20
-6.1745559029
 10
-27.0963817872
 20
-6.1783985251
 10
-27.1025634487
 20
-6.1817722026
  0
LINE
  5
261
100
AcDbEntity
  8
ASSI
100
AcDbLine
 62
7
  6
CONTINUOUS
 10
-32.3086081949
 20
-3.7858157674
 11
-32.2132570214
 21
-3.6213593199
  0
LINE
  5
262
100
AcDbEntity
  8
ASSI
100
AcDbLine
 62
7
  6
CONTINUOUS
 10
-31.9550548044
 20
-3.6090390721
 11
-31.8597036308
 21
-3.4445826246
  0
LINE
  5
263
100
AcDbEntity
  8
ASSI
100
AcDbLine
 62
7
  6
CONTINUOUS
 10
-31.6015014138
 20
-3.4322623768
 11
-31.5061502402
 21
-3.2678059293
  0
LINE
  5
264
100
AcDbEntity
  8
ASSI
100
AcDbLine
 62
7
  6
CONTINUOUS
 10
-31.2479480232
 20
-3.2554856815
 11
-31.1525968496
 21
-3.091029234
  0
LINE
  5
265
100
AcDbEntity
  8
ASSI
100
AcDbLine
 62
7
  6
CONTINUOUS
 10
-30.8943946326
 20
-3.0787089862
 11
-30.799043459
 21
-2.9142525387
  0
LINE
  5
266
100
AcDbEntity
  8
RACCORDO
100
AcDbLine
 62
7
  6
CONTINUOUS
 10
38.5001306132
 20
-43.1955751132
 11
38.5582808256
 21
-43.2149769137
  0
LWPOLYLINE
  5
267
100
AcDbEntity
  8
RACCORDO
100
AcDbPolyline
 62
7
  6
CONTINUOUS
 90
52
 70
0
 10
37.5223568847
 20
-43.1016896105
 10
37.5417275882
 20
-43.1090570762
 10
37.5610108473
 20
-43.1157095586
 10
37.5802066587
 20
-43.1216470595
 10
37.5993325742
 20
-43.1268736358
 10
37.6183710359
 20
-43.1313852337
 10
37.6372693741
 20
-43.1351696906
 10
37.6560262492
 20
-43.1382247175
 10
37.6746429904
 20
-43.1405526087
 10
37.6930709279
 20
-43.1421480788
 10
37.7113094056
 20
-43.1430091986
 10
37.729359066
 20
-43.1431379043
 10
37.7471731833
 20
-43.1425347099
 10
37.7647511236
 20
-43.1411977405
 10
37.7820935044
 20
-43.1391288795
 10
37.7991554738
 20
-43.1363342803
 10
37.8159362547
 20
-43.1328120932
 10
37.8324366055
 20
-43.1285641778
 10
37.8486139746
 20
-43.1236022525
 10
37.8644675039
 20
-43.1179245043
 10
37.879998031
 20
-43.111532757
 10
37.8951655452
 20
-43.1044441853
 10
37.90996906
 20
-43.0966570504
 10
37.9244095403
 20
-43.0881731023
 10
37.9384499007
 20
-43.0790147504
 10
37.9520891124
 20
-43.069180299
 10
37.9653281822
 20
-43.0586714553
 10
37.9781330763
 20
-43.0475157333
 10
37.9905026561
 20
-43.0357115409
 10
38.0024380386
 20
-43.0232604815
 10
38.0139085716
 20
-43.0101948636
 10
38.0249130876
 20
-42.9965131342
 10
38.0354527334
 20
-42.9822168572
 10
38.0455003278
 20
-42.967343016
 10
38.055054614
 20
-42.9518901778
 10
38.0641168297
 20
-42.9358597854
 10
38.072663535
 20
-42.9192931361
 10
38.0806934291
 20
-42.9021888812
 10
38.0882077959
 20
-42.8845483783
 10
38.0951870735
 20
-42.8664169832
 10
38.1016299169
 20
-42.8477934664
 10
38.107537657
 20
-42.8286790648
 10
38.112894745
 20
-42.809122834
 10
38.1176998006
 20
-42.789123495
 10
38.1219541932
 20
-42.7686823326
 10
38.1256464995
 20
-42.7478522473
 10
38.1287752805
 20
-42.7266308832
 10
38.1313419677
 20
-42.7050206002
 10
38.133339444
 20
-42.6830813733
 10
38.1347653357
 20
-42.6608331945
 10
38.1356220127
 20
-42.6382560738
 10
38.1359094741
 20
-42.6153500116
  0
LWPOLYLINE
  5
268
100
AcDbEntity
  8
RACCORDO
100
AcDbPolyline
 62
7
  6
CONTINUOUS
 90
23
 70
0
 10
37.5540072396
 20
-43.1582353162
 10
37.5634927324
 20
-43.1619397472
 10
37.5853390037
 20
-43.1699272527
 10
37.6070880637
 20
-43.1771235253
 10
37.6287200825
 20
-43.1835289503
 10
37.650223909
 20
-43.1891477809
 10
37.6715956865
 20
-43.193985772
 10
37.6928225631
 20
-43.1980456229
 10
37.71388979
 20
-43.2013303534
 10
37.7347900943
 20
-43.2038443389
 10
37.7555093447
 20
-43.2055904206
 10
37.7760326268
 20
-43.20657199
 10
37.7963506715
 20
-43.2067934608
 10
37.8164494245
 20
-43.2062587823
 10
37.8363128965
 20
-43.2049723016
 10
37.8559278578
 20
-43.2029394113
 10
37.8752795227
 20
-43.2001658981
 10
37.8943514605
 20
-43.1966580687
 10
37.9131271836
 20
-43.1924235841
 10
37.9315913249
 20
-43.1874709878
 10
37.9497281138
 20
-43.18180934
 10
37.9675202597
 20
-43.1754491856
 10
37.9721106845
 20
-43.1736735891
  0
LINE
  5
269
100
AcDbEntity
  8
RACCORDO
100
AcDbLine
 62
7
  6
CONTINUOUS
 10
38.5691092387
 20
-43.0227053065
 11
38.4635129284
 21
-42.9805701964
  0
LWPOLYLINE
  5
26A
100
AcDbEntity
  8
RACCORDO
100
AcDbPolyline
 62
7
  6
CONTINUOUS
 90
10
 70
0
 10
37.805071518
 20
-43.647934104
 10
34.4943368849
 20
-42.3222072587
 10
31.0701899764
 20
-40.9187213802
 10
27.5334723349
 20
-39.437053197
 10
23.897799985
 20
-37.8851620767
 10
20.1512753982
 20
-36.2542363102
 10
16.2568114206
 20
-34.5185255864
 10
12.1865075483
 20
-32.6642762169
 10
7.97106747
 20
-30.7038638339
 10
3.6612544392
 20
-28.6507688848
  0
LWPOLYLINE
  5
26B
100
AcDbEntity
  8
RACCORDO
100
AcDbPolyline
 62
7
  6
CONTINUOUS
 90
22
 70
0
 10
37.1340477849
 20
-41.8818221879
 10
35.4182208808
 20
-41.1937298481
 10
33.7042935748
 20
-40.4993649505
 10
31.9922684386
 20
-39.7987285843
 10
30.2821395151
 20
-39.0918186612
 10
28.5739179174
 20
-38.3786394423
 10
26.8676317315
 20
-37.6592015892
 10
25.1632839002
 20
-36.9335061157
 10
23.4608764261
 20
-36.2015542924
 10
21.7604358106
 20
-35.4633572566
 10
20.0619644452
 20
-34.7189158823
 10
18.3654647023
 20
-33.9682316743
 10
16.6709628835
 20
-33.211316805
 10
14.9784609315
 20
-32.4481720283
 10
13.2879614841
 20
-31.6787990626
 10
11.599491711
 20
-30.9032116162
 10
9.9130564571
 20
-30.1214119178
 10
8.2286552577
 20
-29.3334003114
 10
6.5463071663
 20
-28.5391877549
 10
4.8660278125
 20
-27.7387820062
 10
3.1878057819
 20
-26.9321779605
 10
1.5116195807
 20
-26.1193672718
  0
LWPOLYLINE
  5
26C
100
AcDbEntity
  8
RACCORDO
100
AcDbPolyline
 62
7
  6
CONTINUOUS
 90
10
 70
0
 10
37.8687027165
 20
-43.5232528158
 10
34.5584978305
 20
-42.1939553481
 10
31.1348797328
 20
-40.7914411084
 10
27.5986896554
 20
-39.3130811761
 10
23.963590631
 20
-37.7616702378
 10
20.217680096
 20
-36.1291116169
 10
16.3237975074
 20
-34.3953714027
 10
12.2541627479
 20
-32.5430961018
 10
8.0394631417
 20
-30.5810459442
 10
3.7302286408
 20
-28.5285690335
  0
LWPOLYLINE
  5
26D
100
AcDbEntity
  8
RACCORDO
100
AcDbPolyline
 62
7
  6
CONTINUOUS
 90
20
 70
0
 10
37.0275904612
 20
-41.7538584474
 10
35.0903554391
 20
-40.9759401838
 10
33.1557156369
 20
-40.1900967118
 10
31.2236710547
 20
-39.3963280313
 10
29.2942147884
 20
-38.594629285
 10
27.367353742
 20
-37.7850053302
 10
25.4431086283
 20
-36.9674707393
 10
23.5214999101
 20
-36.1420347988
 10
21.6025071247
 20
-35.3086882222
 10
19.6860895961
 20
-34.4674177227
 10
17.7722023012
 20
-33.6182030402
 10
15.8608902631
 20
-32.7610644348
 10
13.9522478766
 20
-31.8960493999
 10
12.0465331432
 20
-31.0232812307
 10
10.1434880612
 20
-30.142636632
 10
8.2424330206
 20
-29.2537932115
 10
6.3334611959
 20
-28.3518236302
 10
4.4264794124
 20
-27.4416552271
 10
2.5505285361
 20
-26.5377476277
 10
0.7039462026
 20
-25.6387206668
  0
LINE
  5
26E
100
AcDbEntity
  8
RACCORDO
100
AcDbLine
 62
7
  6
CONTINUOUS
 10
38.5990024184
 20
-42.9515786374
 11
38.5686194983
 21
-42.9392669262
  0
LINE
  5
26F
100
AcDbEntity
  8
RACCORDO
100
AcDbLine
 62
7
  6
CONTINUOUS
 10
38.5001306132
 20
-43.1955751132
 11
38.2130011992
 21
-43.0790124952
  0
LWPOLYLINE
  5
270
100
AcDbEntity
  8
RACCORDO
100
AcDbPolyline
 62
7
  6
CONTINUOUS
 90
28
 70
0
 10
38.1359094741
 20
-42.6153500116
 10
38.1400242994
 20
-42.6171855905
 10
38.1443352356
 20
-42.6189049666
 10
38.1488291734
 20
-42.6205029114
 10
38.1534924473
 20
-42.6219745657
 10
38.1583108764
 20
-42.6233154542
 10
38.1632698084
 20
-42.6245214995
 10
38.1683541636
 20
-42.625589034
 10
38.1735484809
 20
-42.6265148115
 10
38.1788369647
 20
-42.6272960168
 10
38.1842035332
 20
-42.6279302743
 10
38.1896318671
 20
-42.6284156552
 10
38.1951054593
 20
-42.6287506835
 10
38.2006076651
 20
-42.6289343406
 10
38.2061217526
 20
-42.6289660677
 10
38.211630954
 20
-42.6288457686
 10
38.2171185163
 20
-42.628573809
 10
38.2225677521
 20
-42.6281510159
 10
38.227962091
 20
-42.627578675
 10
38.233285129
 20
-42.6268585268
 10
38.2385206792
 20
-42.6259927611
 10
38.2436528209
 20
-42.6249840106
 10
38.2486659475
 20
-42.623835343
 10
38.2535448146
 20
-42.6225502512
 10
38.2582745858
 20
-42.621132643
 10
38.2628408784
 20
-42.6195868293
 10
38.2672298067
 20
-42.6179175109
 10
38.2714280242
 20
-42.6161297639
  0
LWPOLYLINE
  5
271
100
AcDbEntity
  8
RACCORDO
100
AcDbPolyline
 62
7
  6
CONTINUOUS
 90
19
 70
0
 10
2.3151960724
 20
-27.6146053716
 10
4.2518705885
 20
-28.549286493
 10
6.1911453688
 20
-29.4756516195
 10
8.1330264887
 20
-30.3937036082
 10
10.0774932382
 20
-31.3034324909
 10
12.0245247935
 20
-32.2048283412
 10
13.9741270301
 20
-33.0978937877
 10
15.9262790938
 20
-33.9826189885
 10
17.880959936
 20
-34.8589941665
 10
19.8381751998
 20
-35.7270216767
 10
21.7979035403
 20
-36.5866916403
 10
23.7601240489
 20
-37.4379946109
 10
25.7248430198
 20
-38.2809330675
 10
27.6920389964
 20
-39.1154972907
 10
29.6616909817
 20
-39.9416780349
 10
31.633806271
 20
-40.7594779531
 10
33.608373294
 20
-41.568891529
 10
35.5853594406
 20
-42.3699049529
 10
37.5540073517
 20
-43.1582354849
  0
LWPOLYLINE
  5
272
100
AcDbEntity
  8
RACCORDO
100
AcDbPolyline
 62
7
  6
CONTINUOUS
 90
21
 70
0
 10
0.9980894724
 20
-26.9320688364
 10
2.8031992893
 20
-27.8095103779
 10
4.6105841364
 20
-28.6797184241
 10
6.4202459757
 20
-29.5426941078
 10
8.2321766784
 20
-30.3984334367
 10
10.0463546756
 20
-31.2469256142
 10
11.8627803702
 20
-32.0881708868
 10
13.681447028
 20
-32.9221662341
 10
15.5023221895
 20
-33.7488960548
 10
17.3253970843
 20
-34.5683565725
 10
19.1506738893
 20
-35.3805489273
 10
20.9781364035
 20
-36.185464977
 10
22.8077835945
 20
-36.9831045136
 10
24.6396098069
 20
-37.7734651624
 10
26.4735917779
 20
-38.5565355976
 10
28.3097255239
 20
-39.3323143849
 10
30.1480081695
 20
-40.1008004706
 10
31.98841797
 20
-40.8619831778
 10
33.8309453114
 20
-41.615858162
 10
35.6755927854
 20
-42.3624273721
 10
37.5223568847
 20
-43.1016896105
  0
LWPOLYLINE
  5
273
100
AcDbEntity
  8
RACCORDO
100
AcDbPolyline
 62
7
  6
CONTINUOUS
 90
10
 70
0
 10
3.7302286408
 20
-28.5285690335
 10
-0.713089931
 20
-26.3626382547
 10
-5.2482915801
 20
-24.0995129976
 10
-9.7041929137
 20
-21.8239012508
 10
-14.0583307123
 20
-19.5499254785
 10
-18.3340866122
 20
-17.2679995182
 10
-22.4316949944
 20
-15.0352557711
 10
-26.3095027748
 20
-12.880519998
 10
-30.0121815533
 20
-10.7848535616
 10
-33.5701436085
 20
-8.7355873571
  0
LWPOLYLINE
  5
274
100
AcDbEntity
  8
RACCORDO
100
AcDbPolyline
 62
7
  6
CONTINUOUS
 90
9
 70
0
 10
3.6612544392
 20
-28.6507688848
 10
-0.7827221327
 20
-26.481313518
 10
-5.3187602293
 20
-24.2180932615
 10
-9.7753021641
 20
-21.9450345258
 10
-14.1300191366
 20
-19.6700336067
 10
-18.406539386
 20
-17.385926368
 10
-22.5048373471
 20
-15.1553329126
 10
-26.3832288832
 20
-13.0020508685
 10
-30.0865260879
 20
-10.9038714588
  0
LINE
  5
275
100
AcDbEntity
  8
RACCORDO
100
AcDbLine
 62
7
  6
CONTINUOUS
 10
-0.8047389697
 20
-26.0473969533
 11
0.9980894724
 21
-26.9320688364
  0
LWPOLYLINE
  5
276
100
AcDbEntity
  8
RACCORDO
100
AcDbPolyline
 62
7
  6
CONTINUOUS
 90
3
 70
0
 10
-1.5502697552
 20
-25.7203354248
 10
0.3811424293
 20
-26.6716183145
 10
2.3151960724
 20
-27.6146053716
  0
LINE
  5
277
100
AcDbEntity
  8
RACCORDO
100
AcDbLine
 62
7
  6
CONTINUOUS
 10
-30.0865260879
 20
-10.9038714588
 11
-33.6450741591
 21
-8.8547026887
  0
LWPOLYLINE
  5
278
100
AcDbEntity
  8
RACCORDO
100
AcDbPolyline
 62
7
  6
CONTINUOUS
 90
19
 70
0
 10
-35.8526096889
 20
-7.1844677394
 10
-33.970524565
 20
-8.2841597887
 10
-32.0855967425
 20
-9.3756615748
 10
-30.1978453073
 20
-10.4589623101
 10
-28.3072900564
 20
-11.5340510951
 10
-26.413923981
 20
-12.60093211
 10
-24.5177664641
 20
-13.6595946639
 10
-22.6188375278
 20
-14.7100279597
 10
-20.717130928
 20
-15.7522355941
 10
-18.8126665829
 20
-16.786206869
 10
-16.9054643672
 20
-17.8119312697
 10
-14.9955179608
 20
-18.8294122735
 10
-13.0828474465
 20
-19.8386393617
 10
-11.1674728829
 20
-20.8396021261
 10
-9.2493879238
 20
-21.8323039288
 10
-7.3286128062
 20
-22.816734414
 10
-5.4051677949
 20
-23.7928832676
 10
-3.4790466402
 20
-24.7607536791
 10
-1.5502697552
 20
-25.7203354248
  0
LWPOLYLINE
  5
279
100
AcDbEntity
  8
RACCORDO
100
AcDbPolyline
 62
7
  6
CONTINUOUS
 90
4
 70
0
 10
-33.6450741591
 20
-8.8547026887
 10
-37.0695821247
 20
-6.8528129203
 10
-40.3513938876
 20
-4.9009621487
 10
-43.4915084776
 20
-2.9996441061
  0
LWPOLYLINE
  5
27A
100
AcDbEntity
  8
RACCORDO
100
AcDbPolyline
 62
7
  6
CONTINUOUS
 90
4
 70
0
 10
-33.5701436085
 20
-8.7355873571
 10
-36.9941095111
 20
-6.730356939
 10
-40.2753941194
 20
-4.7779324947
 10
-43.4150121744
 20
-2.8813953607
  0
LWPOLYLINE
  5
27B
100
AcDbEntity
  8
RACCORDO
100
AcDbPolyline
 62
7
  6
CONTINUOUS
 90
21
 70
0
 10
-36.3665480468
 20
-6.8435223626
 10
-34.6114236754
 20
-7.8717397871
 10
-32.8538353226
 20
-8.8928220505
 10
-31.0937849435
 20
-9.906767791
 10
-29.3312755589
 20
-10.9135749409
 10
-27.5663288296
 20
-11.9132323644
 10
-25.7989495749
 20
-12.9057371982
 10
-24.029138141
 20
-13.8910889617
 10
-22.2569096112
 20
-14.8692801556
 10
-20.4822612818
 20
-15.8403120808
 10
-18.705201129
 20
-16.8041801397
 10
-16.9257604258
 20
-17.7608680669
 10
-15.1439454387
 20
-18.7103723823
 10
-13.3597554489
 20
-19.6526934002
 10
-11.5732114424
 20
-20.5878206395
 10
-9.7843212708
 20
-21.515750102
 10
-7.9930828015
 20
-22.4364827026
 10
-6.1995021336
 20
-23.3500153732
 10
-4.4035679135
 20
-24.2563537372
 10
-2.6052972139
 20
-25.1554890863
 10
-0.8047389697
 20
-26.0473969533
  0
LWPOLYLINE
  5
27C
100
AcDbEntity
  8
RACCORDO
100
AcDbPolyline
 62
7
  6
CONTINUOUS
 90
3
 70
0
 10
-37.7524089317
 20
-4.8728165394
 10
-38.5388644358
 20
-4.4061326826
 10
-38.9110987449
 20
-4.1846707248
  0
LINE
  5
27D
100
AcDbEntity
  8
RACCORDO
100
AcDbLine
 62
7
  6
CONTINUOUS
 10
-38.9110987449
 20
-4.1846707248
 11
-39.614053663
 21
-3.7653344266
  0
LINE
  5
27E
100
AcDbEntity
  8
RACCORDO
100
AcDbLine
 62
7
  6
CONTINUOUS
 10
-39.614053663
 20
-3.7653344266
 11
-40.2623428337
 21
-3.3773868366
  0
LINE
  5
27F
100
AcDbEntity
  8
RACCORDO
100
AcDbLine
 62
7
  6
CONTINUOUS
 10
-40.2623428337
 20
-3.3773868366
 11
-40.8609464963
 21
-3.018147741
  0
LINE
  5
280
100
AcDbEntity
  8
RACCORDO
100
AcDbLine
 62
7
  6
CONTINUOUS
 10
-40.8609464963
 20
-3.018147741
 11
-41.4137576474
 21
-2.6854596122
  0
LINE
  5
281
100
AcDbEntity
  8
RACCORDO
100
AcDbLine
 62
7
  6
CONTINUOUS
 10
-41.4137576474
 20
-2.6854596122
 11
-41.9280436241
 21
-2.3751939775
  0
LINE
  5
282
100
AcDbEntity
  8
RACCORDO
100
AcDbLine
 62
7
  6
CONTINUOUS
 10
-41.3734276341
 20
-2.7979054869
 11
-42.9955908029
 21
-1.8170028945
  0
LINE
  5
283
100
AcDbEntity
  8
RACCORDO
100
AcDbLine
 62
7
  6
CONTINUOUS
 10
-41.9280436241
 20
-2.3751939775
 11
-42.4123428903
 21
-2.0823577442
  0
LWPOLYLINE
  5
284
100
AcDbEntity
  8
RACCORDO
100
AcDbPolyline
 62
7
  6
CONTINUOUS
 90
5
 70
0
 10
-43.3413896984
 20
-2.710557233
 10
-41.4817972328
 20
-3.8362530862
 10
-39.6082659408
 20
-4.9605030553
 10
-37.7318601755
 20
-6.076580394
 10
-35.8526096889
 20
-7.1844677394
  0
LWPOLYLINE
  5
285
100
AcDbEntity
  8
RACCORDO
100
AcDbPolyline
 62
7
  6
CONTINUOUS
 90
5
 70
0
 10
-43.3621652506
 20
-2.6594285428
 10
-41.6169966206
 20
-3.7161326682
 10
-39.8693369148
 20
-4.7657170476
 10
-38.1191885288
 20
-5.8081799273
 10
-36.3665480468
 20
-6.8435223626
  0
LINE
  5
286
100
AcDbEntity
  8
RACCORDO
100
AcDbLine
 62
7
  6
CONTINUOUS
 10
-42.4123428903
 20
-2.0823577442
 11
-42.8691843282
 21
-1.8054784351
  0
LWPOLYLINE
  5
287
100
AcDbEntity
  8
RACCORDO
100
AcDbPolyline
 62
7
  6
CONTINUOUS
 90
46
 70
0
 10
-43.4915084776
 20
-2.9996441061
 10
-43.5187280334
 20
-2.9825126622
 10
-43.5458363945
 20
-2.9643029946
 10
-43.5728335678
 20
-2.9450151068
 10
-43.5997512043
 20
-2.9246279928
 10
-43.6265576657
 20
-2.9031626645
 10
-43.6531580306
 20
-2.8806821549
 10
-43.6795529281
 20
-2.8571809703
 10
-43.7057417545
 20
-2.8326646164
 10
-43.7316277519
 20
-2.8072126302
 10
-43.7572100826
 20
-2.7808203969
 10
-43.7824896207
 20
-2.7534925485
 10
-43.8073721869
 20
-2.7253224978
 10
-43.8318556223
 20
-2.6963071932
 10
-43.8559421318
 20
-2.666449708
 10
-43.8795440921
 20
-2.6358526471
 10
-43.9026584332
 20
-2.6045149405
 10
-43.9252882782
 20
-2.5724376833
 10
-43.9473553019
 20
-2.539726732
 10
-43.9688564547
 20
-2.5063823805
 10
-43.9897948438
 20
-2.4724043622
 10
-44.0101013853
 20
-2.4378976955
 10
-44.0297756789
 20
-2.4028584562
 10
-44.0488181842
 20
-2.3672905966
 10
-44.067161113
 20
-2.3313109529
 10
-44.0848037703
 20
-2.2949139968
 10
-44.1017469101
 20
-2.2581052846
 10
-44.1179249211
 20
-2.2210182808
 10
-44.1333351941
 20
-2.1836491632
 10
-44.1479803949
 20
-2.1460017808
 10
-44.1618028278
 20
-2.1082211059
 10
-44.1747967364
 20
-2.0703133664
 10
-44.1869679289
 20
-2.0322723587
 10
-44.1982760565
 20
-1.9942244089
 10
-44.208736223
 20
-1.9560503229
 10
-44.2183333685
 20
-1.9178693153
 10
-44.2269818987
 20
-1.880165325
 10
-44.2346208382
 20
-1.8432512807
 10
-44.2413111995
 20
-1.8068142711
 10
-44.2471503682
 20
-1.7703994734
 10
-44.2521915417
 20
-1.7338122782
 10
-44.2563815438
 20
-1.6972473049
 10
-44.259658196
 20
-1.6608335726
 10
-44.2620007763
 20
-1.6246140898
 10
-44.2634300188
 20
-1.5885458536
 10
-44.2639459266
 20
-1.5526288656
  0
LWPOLYLINE
  5
288
100
AcDbEntity
  8
RACCORDO
100
AcDbPolyline
 62
7
  6
CONTINUOUS
 90
46
 70
0
 10
-43.4150121643
 20
-2.8813951351
 10
-43.4398681083
 20
-2.865692534
 10
-43.4646768493
 20
-2.8489702687
 10
-43.4894108297
 20
-2.8312424058
 10
-43.5140437246
 20
-2.8125242999
 10
-43.5385464442
 20
-2.7928336213
 10
-43.5628873368
 20
-2.7721912104
 10
-43.5870397908
 20
-2.7506165487
 10
-43.6109752615
 20
-2.7281313572
 10
-43.6346597235
 20
-2.7047634785
 10
-43.6580662992
 20
-2.6805370519
 10
-43.6811679743
 20
-2.655477331
 10
-43.7039313902
 20
-2.6296171769
 10
-43.7263298707
 20
-2.6029852057
 10
-43.748338451
 20
-2.5756095799
 10
-43.7699272901
 20
-2.5475249061
 10
-43.7910703233
 20
-2.5187637533
 10
-43.8117448666
 20
-2.4893563695
 10
-43.8319267346
 20
-2.4593350652
 10
-43.8515910524
 20
-2.4287350793
 10
-43.8707169124
 20
-2.3975884632
 10
-43.8892858763
 20
-2.3659227955
 10
-43.907276598
 20
-2.3337709769
 10
-43.924667056
 20
-2.3011705776
 10
-43.9414372785
 20
-2.2681560168
 10
-43.9575682123
 20
-2.234760273
 10
-43.9730388705
 20
-2.2010242287
 10
-43.9878267033
 20
-2.1669945518
 10
-44.0019144393
 20
-2.1327072936
 10
-44.0152844996
 20
-2.0982035361
 10
-44.0279155033
 20
-2.0635381703
 10
-44.0397905683
 20
-2.0287570855
 10
-44.0508987742
 20
-1.9938935934
 10
-44.0612289784
 20
-1.9589839912
 10
-44.0707980897
 20
-1.9239564914
 10
-44.0795606241
 20
-1.88896288
 10
-44.0874356124
 20
-1.8543733222
 10
-44.094381416
 20
-1.8205103965
 10
-44.100481709
 20
-1.7871194353
 10
-44.1058313059
 20
-1.7537071014
 10
-44.1104313919
 20
-1.7201427615
 10
-44.1142323731
 20
-1.6866397712
 10
-44.11721653
 20
-1.6532304097
 10
-44.119364959
 20
-1.6199552859
 10
-44.120658365
 20
-1.5868629932
 10
-44.1210797781
 20
-1.5539993733
  0
LINE
  5
289
100
AcDbEntity
  8
ASSI
100
AcDbLine
 62
7
  6
CONTINUOUS
 10
-28.430235742
 20
-5.7488397873
 11
-28.3241697249
 21
-5.5659029681
  0
LINE
  5
28A
100
AcDbEntity
  8
ASSI
100
AcDbLine
 62
7
  6
CONTINUOUS
 10
-28.0766823514
 20
-5.572063092
 11
-27.9706163343
 21
-5.3891262728
  0
LINE
  5
28B
100
AcDbEntity
  8
ASSI
100
AcDbLine
 62
7
  6
CONTINUOUS
 10
-27.7231289609
 20
-5.3952863967
 11
-27.6170629437
 21
-5.2123495775
  0
LINE
  5
28C
100
AcDbEntity
  8
ASSI
100
AcDbLine
 62
7
  6
CONTINUOUS
 10
-27.3695755703
 20
-5.2185097014
 11
-27.2635095531
 21
-5.0355728822
  0
LINE
  5
28D
100
AcDbEntity
  8
ASSI
100
AcDbLine
 62
7
  6
CONTINUOUS
 10
-27.0160221797
 20
-5.0417330061
 11
-26.9099561625
 21
-4.8587961869
  0
LWPOLYLINE
  5
28E
100
AcDbEntity
  8
RACCORDO
100
AcDbPolyline
 62
7
  6
CONTINUOUS
 90
37
 70
0
 10
-42.1512809755
 20
-0.138243983
 10
-42.1667896273
 20
-0.1464372795
 10
-42.1822664166
 20
-0.1551603085
 10
-42.1977113432
 20
-0.1644130699
 10
-42.2131448959
 20
-0.1742066288
 10
-42.2285465859
 20
-0.1845299202
 10
-42.2438549475
 20
-0.1953497485
 10
-42.2590680179
 20
-0.2066685951
 10
-42.2741877598
 20
-0.2184839787
 10
-42.2891585953
 20
-0.2307552603
 10
-42.3039784609
 20
-0.2434841494
 10
-42.31864942
 20
-0.2566689366
 10
-42.3331220852
 20
-0.2702638549
 10
-42.3473916158
 20
-0.2842664928
 10
-42.3614628526
 20
-0.2986792617
 10
-42.3753009297
 20
-0.3134636289
 10
-42.3889045975
 20
-0.3286192924
 10
-42.4022751056
 20
-0.3441465542
 10
-42.4153813375
 20
-0.3600077877
 10
-42.428222806
 20
-0.376203242
 10
-42.4407999982
 20
-0.3927326681
 10
-42.4530832593
 20
-0.4095576921
 10
-42.4650727173
 20
-0.4266795461
 10
-42.4767682442
 20
-0.4440969981
 10
-42.4881398015
 20
-0.4617679779
 10
-42.4991893382
 20
-0.4796981479
 10
-42.5099149051
 20
-0.4978818457
 10
-42.5202806161
 20
-0.5162600132
 10
-42.5302855643
 20
-0.5348357996
 10
-42.5399306565
 20
-0.5536060556
 10
-42.5491827262
 20
-0.5725022756
 10
-42.558039881
 20
-0.5915269787
 10
-42.5665040134
 20
-0.6106776458
 10
-42.5745476349
 20
-0.6298782142
 10
-42.5821615827
 20
-0.6491033299
 10
-42.5893550197
 20
-0.6683783469
 10
-42.5961279458
 20
-0.6877032653
  0
LINE
  5
28F
100
AcDbEntity
  8
RACCORDO
100
AcDbLine
 62
7
  6
CONTINUOUS
 10
-40.8567861429
 20
0.5234912125
 11
-42.1512809755
 21
-0.138243983
  0
LWPOLYLINE
  5
290
100
AcDbEntity
  8
RACCORDO
100
AcDbPolyline
 62
7
  6
CONTINUOUS
 90
37
 70
0
 10
-40.7155585997
 20
0.2799097317
 10
-42.0213445322
 20
-0.387565984
 10
-42.032630819
 20
-0.3936925459
 10
-42.0439005274
 20
-0.4002004296
 10
-42.0551483049
 20
-0.4070875078
 10
-42.0663600983
 20
-0.4143476677
 10
-42.0775133517
 20
-0.4219696775
 10
-42.0885983067
 20
-0.429947244
 10
-42.0996054991
 20
-0.4382738699
 10
-42.1105132451
 20
-0.4469355383
 10
-42.1213113595
 20
-0.4559233727
 10
-42.1319916105
 20
-0.4652295992
 10
-42.1425358564
 20
-0.474839855
 10
-42.1529323935
 20
-0.4847416651
 10
-42.1631757621
 20
-0.4949278917
 10
-42.1732575665
 20
-0.5053913533
 10
-42.183168926
 20
-0.5161213264
 10
-42.1929022848
 20
-0.5271080339
 10
-42.2024512222
 20
-0.5383458109
 10
-42.2118076694
 20
-0.5498240965
 10
-42.2209638712
 20
-0.5615322423
 10
-42.2299137382
 20
-0.5734646478
 10
-42.2386499129
 20
-0.5856109736
 10
-42.2471644881
 20
-0.5979596253
 10
-42.2554504375
 20
-0.6105031943
 10
-42.2635024914
 20
-0.6232337992
 10
-42.2713112868
 20
-0.6361365401
 10
-42.2788641689
 20
-0.6491930744
 10
-42.2861554824
 20
-0.6623928585
 10
-42.2931783105
 20
-0.6757221419
 10
-42.2999195223
 20
-0.6891570285
 10
-42.3063741674
 20
-0.7026852323
 10
-42.3125375114
 20
-0.7162936831
 10
-42.3183986195
 20
-0.7299567472
 10
-42.3239520666
 20
-0.7436572546
 10
-42.3291970634
 20
-0.7573867613
 10
-42.3341308613
 20
-0.7711326346
  0
LINE
  5
291
100
AcDbEntity
  8
RACCORDO
100
AcDbLine
 62
7
  6
CONTINUOUS
 10
-43.9682168554
 20
-1.4773676949
 11
-44.121080119
 21
-1.5539991999
  0
LWPOLYLINE
  5
292
100
AcDbEntity
  8
0
100
AcDbPolyline
 62
7
  6
CONTINUOUS
 90
10
 70
0
 10
-0.8195380207
 20
-23.2229445985
 10
-0.8240722508
 20
-23.2241511377
 10
-0.8262550618
 20
-23.2247016077
 10
-0.828383651
 20
-23.2251538557
 10
-0.8304613098
 20
-23.2255087398
 10
-0.8324847467
 20
-23.2257654021
 10
-0.8344468778
 20
-23.2258646897
 10
-0.8363453416
 20
-23.2257868853
 10
-0.8381824995
 20
-23.2255517064
 10
-0.8399583516
 20
-23.2251591528
  0
LWPOLYLINE
  5
293
100
AcDbEntity
  8
0
100
AcDbPolyline
 62
7
  6
CONTINUOUS
 90
16
 70
0
 10
-0.7619377507
 20
-23.1861488524
 10
-0.7602374144
 20
-23.1865302935
 10
-0.7584829684
 20
-23.1867660573
 10
-0.7566744129
 20
-23.1868561438
 10
-0.7548098165
 20
-23.1867836286
 10
-0.7528911106
 20
-23.1865654362
 10
-0.7509240885
 20
-23.1862523393
 10
-0.7489128243
 20
-23.1858436042
 10
-0.7468532439
 20
-23.1853399646
 10
-0.7447389191
 20
-23.1847943949
 10
-0.7425706872
 20
-23.1842234687
 10
-0.7403477109
 20
-23.1836106125
 10
-0.7380610495
 20
-23.1829590795
 10
-0.7357099556
 20
-23.1822737555
 10
-0.7332951766
 20
-23.1815497547
 10
-0.7329269078
 20
-23.1814350458
  0
LWPOLYLINE
  5
294
100
AcDbEntity
  8
0
100
AcDbPolyline
 62
7
  6
CONTINUOUS
 90
13
 70
0
 10
-0.9773234045
 20
-22.3102559262
 10
-0.9572948332
 20
-22.3150112787
 10
-0.9376860198
 20
-22.3203434259
 10
-0.9184969646
 20
-22.3262523679
 10
-0.8997172467
 20
-22.332750751
 10
-0.8813572868
 20
-22.3398259288
 10
-0.863448347
 20
-22.3474399622
 10
-0.8459939263
 20
-22.3556163096
 10
-0.8289905257
 20
-22.3643315125
 10
-0.8124589102
 20
-22.3734772567
 10
-0.7964060016
 20
-22.3830174373
 10
-0.7808248782
 20
-22.3929881591
 10
-0.7657155399
 20
-22.4033894222
  0
LWPOLYLINE
  5
295
100
AcDbEntity
  8
0
100
AcDbPolyline
 62
7
  6
CONTINUOUS
 90
28
 70
0
 10
-1.2169573398
 20
-21.9269583912
 10
-1.1777554263
 20
-21.9377753845
 10
-1.1399099363
 20
-21.9488153167
 10
-1.10342087
 20
-21.960078188
 10
-1.0683237936
 20
-21.9715790526
 10
-1.0345831408
 20
-21.9833028561
 10
-1.0020922126
 20
-21.9952044356
 10
-0.9708462047
 20
-22.0072792304
 10
-0.9408499215
 20
-22.019531801
 10
-0.9120110768
 20
-22.031930666
 10
-0.8843248913
 20
-22.0444646502
 10
-0.8577961443
 20
-22.0571449288
 10
-0.8323468884
 20
-22.0699735453
 10
-0.8079726296
 20
-22.0829673545
 10
-0.7846778618
 20
-22.0961095015
 10
-0.762398119
 20
-22.1093514659
 10
-0.7411404211
 20
-22.1226772508
 10
-0.7208977481
 20
-22.136102853
 10
-0.7015845751
 20
-22.1496277424
 10
-0.6831861603
 20
-22.1632636257
 10
-0.6657172453
 20
-22.1769987961
 10
-0.64913653
 20
-22.1907976035
 10
-0.6334533847
 20
-22.2046688264
 10
-0.6186584391
 20
-22.2186036864
 10
-0.6046822813
 20
-22.2325401973
 10
-0.5915017742
 20
-22.2464576974
 10
-0.579140055
 20
-22.2603768484
 10
-0.5675971237
 20
-22.2742976505
  0
LWPOLYLINE
  5
296
100
AcDbEntity
  8
0
100
AcDbPolyline
 62
7
  6
CONTINUOUS
 90
21
 70
0
 10
-1.0664394905
 20
-22.9345348717
 10
-1.0551109543
 20
-22.9394411691
 10
-1.0441457542
 20
-22.943748431
 10
-1.0335438901
 20
-22.9474566575
 10
-1.0233247498
 20
-22.9505293904
 10
-1.0134689455
 20
-22.9530030878
 10
-1.0039183139
 20
-22.9549871237
 10
-0.9946709777
 20
-22.9564939821
 10
-0.9857288142
 20
-22.9575111791
 10
-0.9770392914
 20
-22.9581106368
 10
-0.9686005116
 20
-22.9583019423
 10
-0.9604143725
 20
-22.9580755085
 10
-0.9524340351
 20
-22.9574744963
 10
-0.9446672422
 20
-22.9565113695
 10
-0.9371062511
 20
-22.9551736643
 10
-0.9296809946
 20
-22.9534671501
 10
-0.9223792443
 20
-22.9514000167
 10
-0.9152132288
 20
-22.9489640744
 10
-0.9081495666
 20
-22.946140523
 10
-0.9011770107
 20
-22.9429195262
 10
-0.8223805038
 20
-22.9035322177
  0
LWPOLYLINE
  5
297
100
AcDbEntity
  8
RACCORDO
100
AcDbPolyline
 62
7
  6
CONTINUOUS
 90
10
 70
0
 10
-44.2639459266
 20
-1.5526288656
 10
-44.2507443241
 20
-1.5584958124
 10
-44.2356842345
 20
-1.5631099284
 10
-44.2192354822
 20
-1.5663272687
 10
-44.2019112133
 20
-1.568047463
 10
-44.1842518871
 20
-1.5682168469
 10
-44.1668084155
 20
-1.5668301364
 10
-44.1501249765
 20
-1.5639305921
 10
-44.1347220376
 20
-1.5596086701
 10
-44.121080119
 20
-1.5539991999
  0
LINE
  5
298
100
AcDbEntity
  8
RACCORDO
100
AcDbLine
 62
7
  6
CONTINUOUS
 10
1.5116195807
 20
-26.1193672718
 11
-0.1625187699
 21
-25.3003564716
  0
LWPOLYLINE
  5
299
100
AcDbEntity
  8
RACCORDO
100
AcDbPolyline
 62
7
  6
CONTINUOUS
 90
43
 70
0
 10
0.7039462026
 20
-25.6387206668
 10
-1.1116052239
 20
-24.7459545097
 10
-2.8620977845
 20
-23.8780492777
 10
-4.5363522003
 20
-23.0403260424
 10
-6.1455477503
 20
-22.2274637323
 10
-7.6891943129
 20
-21.4420992546
 10
-9.1636796192
 20
-20.6862323632
 10
-10.5726159381
 20
-19.9578633043
 10
-11.9263499544
 20
-19.2536297232
 10
-13.2253687388
 20
-18.5734765163
 10
-14.4691852205
 20
-17.9174587871
 10
-15.6666848721
 20
-17.282379492
 10
-16.8185705343
 20
-16.6680094582
 10
-17.9241393663
 20
-16.0745778584
 10
-18.9901683192
 20
-15.4995751661
 10
-20.0171083744
 20
-14.9428602608
 10
-21.0045085503
 20
-14.404574263
 10
-21.9577928539
 20
-13.8826310076
 10
-22.8772968945
 20
-13.3769218641
 10
-23.7626850626
 20
-12.8875554631
 10
-24.6183745375
 20
-12.4127715308
 10
-25.4445528924
 20
-11.9525232579
 10
-26.241032554
 20
-11.5068574539
 10
-27.0116679805
 20
-11.0741542737
 10
-27.7566630659
 20
-10.6543435316
 10
-28.4758139162
 20
-10.2474954134
 10
-29.1723633079
 20
-9.8522006318
 10
-29.8463725312
 20
-9.4684596423
 10
-30.4977802958
 20
-9.0962719894
 10
-31.1296455075
 20
-8.7342270199
 10
-31.7423835308
 20
-8.3821121599
 10
-32.3355790012
 20
-8.0401399832
 10
-32.911044731
 20
-7.7075375578
 10
-33.4690143769
 20
-7.384186215
 10
-34.0092542823
 20
-7.0702046236
 10
-34.5328762896
 20
-6.7651758579
 10
-35.0398901151
 20
-6.4691069531
 10
-35.5302860425
 20
-6.1819908742
 10
-36.0051467655
 20
-5.9033895902
 10
-36.4645136545
 20
-5.6332898256
 10
-36.9083453391
 20
-5.3717048561
 10
-37.3376004013
 20
-5.1182364774
 10
-37.7524089317
 20
-4.8728165394
  0
LWPOLYLINE
  5
29A
100
AcDbEntity
  8
RACCORDO
100
AcDbPolyline
 62
7
  6
CONTINUOUS
 90
26
 70
0
 10
-0.1625187699
 20
-25.3003564716
 10
-1.8346169201
 20
-24.475141599
 10
-3.5047256024
 20
-23.6436984342
 10
-5.1728424433
 20
-22.8060288033
 10
-6.8389650622
 20
-21.9621332571
 10
-8.5031438063
 20
-21.1119854746
 10
-10.1653858746
 20
-20.2555819917
 10
-11.8256789266
 20
-19.3929284578
 10
-13.4840437302
 20
-18.5240120887
 10
-15.1404909628
 20
-17.6488269427
 10
-16.7950046411
 20
-16.767381069
 10
-18.4475655222
 20
-15.8796826604
 10
-20.0981736276
 20
-14.9857311295
 10
-21.7468237908
 20
-14.0855292539
 10
-23.39348914
 20
-13.1790903504
 10
-25.0381668491
 20
-12.2664154334
 10
-26.6808548002
 20
-11.3475057791
 10
-28.3215273634
 20
-10.4223751839
 10
-29.9601821615
 20
-9.4910245185
 10
-31.5968168146
 20
-8.5534552945
 10
-33.2314058651
 20
-7.6096823555
 10
-34.863947473
 20
-6.6597063532
 10
-36.4944389098
 20
-5.7035291088
 10
-38.1228535677
 20
-4.7411673075
 10
-39.7491811631
 20
-3.7726273866
 10
-41.3734276341
 20
-2.7979054869
  0
LINE
  5
29B
100
AcDbEntity
  8
0
100
AcDbLine
 62
7
  6
CONTINUOUS
 10
-5.411091155
 20
-21.9569304095
 11
-5.1769779992
 21
-22.0739869874
  0
LINE
  5
29C
100
AcDbEntity
  8
0
100
AcDbLine
 62
7
  6
CONTINUOUS
 10
-4.6692972507
 20
-22.3278273617
 11
-4.403637233
 21
-22.4606573706
  0
LINE
  5
29D
100
AcDbEntity
  8
0
100
AcDbLine
 62
7
  6
CONTINUOUS
 10
-4.2606241794
 20
-22.5321638974
 11
-4.0064737388
 21
-22.6592391177
  0
LINE
  5
29E
100
AcDbEntity
  8
0
100
AcDbLine
 62
7
  6
CONTINUOUS
 10
-3.6374933995
 20
-22.8437292873
 11
-3.600234529
 21
-22.8623587225
  0
LINE
  5
29F
100
AcDbEntity
  8
0
100
AcDbLine
 62
7
  6
CONTINUOUS
 10
-3.2297841148
 20
-23.0475839297
 11
-2.9698976239
 21
-23.1775271751
  0
LINE
  5
2A0
100
AcDbEntity
  8
0
100
AcDbLine
 62
7
  6
CONTINUOUS
 10
-2.9281818594
 20
-23.1983850574
 11
-2.6654040089
 21
-23.3297739826
  0
LINE
  5
2A1
100
AcDbEntity
  8
0
100
AcDbLine
 62
7
  6
CONTINUOUS
 10
-2.1614935537
 20
-23.5817292102
 11
-1.8814990673
 21
-23.7217264534
  0
LINE
  5
2A2
100
AcDbEntity
  8
0
100
AcDbLine
 62
7
  6
CONTINUOUS
 10
-1.8034882632
 20
-23.760731987
 11
-1.5388971083
 21
-23.8930275644
  0
LINE
  5
2A3
100
AcDbEntity
  8
0
100
AcDbLine
 62
7
  6
CONTINUOUS
 10
-1.1320753235
 20
-24.0964384568
 11
-0.8765411952
 21
-24.224205521
  0
LINE
  5
2A4
100
AcDbEntity
  8
0
100
AcDbLine
 62
7
  6
CONTINUOUS
 10
-5.3330705541
 20
-21.9179201091
 11
-5.140633424
 21
-22.0141386742
  0
LINE
  5
2A5
100
AcDbEntity
  8
0
100
AcDbLine
 62
7
  6
CONTINUOUS
 10
-4.5912766498
 20
-22.2888170613
 11
-4.3821230558
 21
-22.3933938583
  0
LINE
  5
2A6
100
AcDbEntity
  8
0
100
AcDbLine
 62
7
  6
CONTINUOUS
 10
-4.1826035785
 20
-22.4931535969
 11
-3.9817767826
 21
-22.5935669949
  0
LINE
  5
2A7
100
AcDbEntity
  8
0
100
AcDbLine
 62
7
  6
CONTINUOUS
 10
-3.1517635139
 20
-23.0085736292
 11
-2.9526978139
 21
-23.1081064792
  0
LINE
  5
2A8
100
AcDbEntity
  8
0
100
AcDbLine
 62
7
  6
CONTINUOUS
 10
-2.8501612585
 20
-23.1593747569
 11
-2.6305782415
 21
-23.2691662654
  0
LINE
  5
2A9
100
AcDbEntity
  8
0
100
AcDbLine
 62
7
  6
CONTINUOUS
 10
-2.0834729528
 20
-23.5427189098
 11
-1.874140937
 21
-23.6473849177
  0
LINE
  5
2AA
100
AcDbEntity
  8
0
100
AcDbLine
 62
7
  6
CONTINUOUS
 10
-1.7254676623
 20
-23.7217216865
 11
-1.5173829311
 21
-23.8257640521
  0
LINE
  5
2AB
100
AcDbEntity
  8
0
100
AcDbLine
 62
7
  6
CONTINUOUS
 10
-1.0540547226
 20
-24.0574281564
 11
-0.8672222412
 21
-24.1508443971
  0
LINE
  5
2AC
100
AcDbEntity
  8
0
100
AcDbLine
 62
7
  6
CONTINUOUS
 10
-2.4736215629
 20
-22.9960126016
 11
-2.1118367423
 21
-23.1769050119
  0
LINE
  5
2AD
100
AcDbEntity
  8
0
100
AcDbLine
 62
7
  6
CONTINUOUS
 10
-2.395600962
 20
-22.9570023012
 11
-2.0338161414
 21
-23.1378947115
  0
LINE
  5
2AE
100
AcDbEntity
  8
0
100
AcDbLine
 62
7
  6
CONTINUOUS
 10
-2.0732525302
 20
-22.8637342612
 11
-2.327603082
 21
-22.7365589852
  0
LINE
  5
2AF
100
AcDbEntity
  8
0
100
AcDbLine
 62
7
  6
CONTINUOUS
 10
-1.3066478629
 20
-23.1669063714
 11
-1.1642072703
 21
-23.2381266676
  0
LINE
  5
2B0
100
AcDbEntity
  8
0
100
AcDbLine
 62
7
  6
CONTINUOUS
 10
-1.228627262
 20
-23.1278960709
 11
-1.0861866694
 21
-23.1991163672
  0
LINE
  5
2B1
100
AcDbEntity
  8
0
100
AcDbLine
 62
7
  6
CONTINUOUS
 10
-1.0664394905
 20
-22.9345348717
 11
-1.2182615974
 21
-22.8586238182
  0
LINE
  5
2B2
100
AcDbEntity
  8
0
100
AcDbLine
 62
7
  6
CONTINUOUS
 10
-1.6785263966
 20
-21.6710288892
 11
-1.9355208207
 21
-21.5425316771
  0
LINE
  5
2B3
100
AcDbEntity
  8
0
100
AcDbLine
 62
7
  6
CONTINUOUS
 10
-2.4954440325
 20
-21.2625700712
 11
-2.758288351
 21
-21.131147912
  0
LINE
  5
2B4
100
AcDbEntity
  8
0
100
AcDbLine
 62
7
  6
CONTINUOUS
 10
-3.2868025866
 20
-20.8668907941
 11
-3.5522434012
 21
-20.7341703868
  0
LINE
  5
2B5
100
AcDbEntity
  8
0
100
AcDbLine
 62
7
  6
CONTINUOUS
 10
-4.1744195869
 20
-20.423082294
 11
-4.4398985853
 21
-20.2903427948
  0
LINE
  5
2B6
100
AcDbEntity
  8
0
100
AcDbLine
 62
7
  6
CONTINUOUS
 10
-4.9325045244
 20
-20.0440398253
 11
-5.2210931866
 21
-19.8997454942
  0
LINE
  5
2B7
100
AcDbEntity
  8
0
100
AcDbLine
 62
7
  6
CONTINUOUS
 10
-3.8101370097
 20
-20.6050944411
 11
-4.0757970274
 21
-20.4722644322
  0
LINE
  5
2B8
100
AcDbEntity
  8
RACCORDO
100
AcDbLine
 62
7
  6
CONTINUOUS
 10
-42.3341308532
 20
-0.7711326386
 11
37.0713600643
 21
-40.4738781009
  0
LINE
  5
2B9
100
AcDbEntity
  8
RACCORDO
100
AcDbLine
 62
7
  6
CONTINUOUS
 10
-42.0100512788
 20
-0.381824363
 11
37.0713600643
 21
-39.9225300361
  0
LINE
  5
2BA
100
AcDbEntity
  8
RACCORDO
100
AcDbLine
 62
7
  6
CONTINUOUS
 10
-40.7155585997
 20
0.2799097317
 11
37.0713600643
 21
-38.6135496003
  0
LINE
  5
2BB
100
AcDbEntity
  8
ASSI
100
AcDbLine
 62
7
  6
CONTINUOUS
 10
35.1033085476
 20
-37.4917741387
 11
31.214221251
 21
-35.5472304904
  0
LINE
  5
2BC
100
AcDbEntity
  8
ASSI
100
AcDbLine
 62
7
  6
CONTINUOUS
 10
-28.5363017592
 20
-5.6719689853
 11
-32.4253890557
 21
-3.727425337
  0
LINE
  5
2BD
100
AcDbEntity
  8
ASSI
100
AcDbLine
 62
7
  6
CONTINUOUS
 10
35.3154405819
 20
-37.3857081215
 11
31.4263532854
 21
-35.4411644732
  0
LINE
  5
2BE
100
AcDbEntity
  8
ASSI
100
AcDbLine
 62
7
  6
CONTINUOUS
 10
-28.3241697249
 20
-5.5659029681
 11
-32.2132570214
 21
-3.6213593199
  0
LINE
  5
2BF
100
AcDbEntity
  8
ASSI
100
AcDbLine
 62
7
  6
CONTINUOUS
 10
35.4568619382
 20
-37.3149974434
 11
31.5677746416
 21
-35.3704537951
  0
LINE
  5
2C0
100
AcDbEntity
  8
ASSI
100
AcDbLine
 62
7
  6
CONTINUOUS
 10
-28.1827483686
 20
-5.49519229
 11
-32.0718356652
 21
-3.5506486417
  0
LINE
  5
2C1
100
AcDbEntity
  8
ASSI
100
AcDbLine
 62
7
  6
CONTINUOUS
 10
35.6689939725
 20
-37.2089314262
 11
31.779906676
 21
-35.264387778
  0
LINE
  5
2C2
100
AcDbEntity
  8
ASSI
100
AcDbLine
 62
7
  6
CONTINUOUS
 10
-27.9706163343
 20
-5.3891262728
 11
-31.8597036308
 21
-3.4445826246
  0
LINE
  5
2C3
100
AcDbEntity
  8
ASSI
100
AcDbLine
 62
7
  6
CONTINUOUS
 10
35.8104153288
 20
-37.1382207481
 11
31.9213280322
 21
-35.1936770998
  0
LINE
  5
2C4
100
AcDbEntity
  8
ASSI
100
AcDbLine
 62
7
  6
CONTINUOUS
 10
-27.829194978
 20
-5.3184155947
 11
-31.7182822746
 21
-3.3738719464
  0
LWPOLYLINE
  5
2C5
100
AcDbEntity
  8
0
100
AcDbPolyline
 62
7
  6
CONTINUOUS
 90
31
 70
0
 10
-1.0861866694
 20
-23.1991163672
 10
-1.0802764206
 20
-23.2022610952
 10
-1.0745158058
 20
-23.2056952342
 10
-1.0689048249
 20
-23.2094187845
 10
-1.0634440546
 20
-23.2134260184
 10
-1.0581329182
 20
-23.2177226634
 10
-1.052969686
 20
-23.2223259018
 10
-1.0479465807
 20
-23.2272318247
 10
-1.0430713795
 20
-23.2324443409
 10
-1.038365684
 20
-23.2379923597
 10
-1.0338278532
 20
-23.2438718761
 10
-1.0294595282
 20
-23.2500868951
 10
-1.0252872336
 20
-23.2566783402
 10
-1.0213139346
 20
-23.2636598964
 10
-1.0175366661
 20
-23.2710178788
 10
-1.0139730579
 20
-23.2787521569
 10
-1.0106213372
 20
-23.2868760039
 10
-1.0074832768
 20
-23.2953761466
 10
-1.0045818252
 20
-23.3042126349
 10
-1.0019197177
 20
-23.3133756178
 10
-0.9994942188
 20
-23.3228749464
 10
-0.9973200713
 20
-23.3327002246
 10
-0.995394
 20
-23.3428376526
 10
-0.99371928
 20
-23.3533010302
 10
-0.9923204789
 20
-23.3641213608
 10
-0.9911878787
 20
-23.3753108729
 10
-0.9903311974
 20
-23.3868573381
 10
-0.9898041562
 20
-23.3987550743
 10
-0.989624662
 20
-23.4110021878
 10
-0.9897748079
 20
-23.4236005725
 10
-0.9902545939
 20
-23.4365502283
  0
LWPOLYLINE
  5
2C6
100
AcDbEntity
  8
RACCORDO
100
AcDbPolyline
 62
7
  6
CONTINUOUS
 90
15
 70
0
 10
-43.9409718333
 20
-1.5769093579
 10
-43.9446429881
 20
-1.574851947
 10
-43.9480817379
 20
-1.5726964808
 10
-43.9512776258
 20
-1.5704495136
 10
-43.9542209331
 20
-1.5681178784
 10
-43.9569027096
 20
-1.5657086654
 10
-43.9593148
 20
-1.5632292008
 10
-43.9614498695
 20
-1.5606870244
 10
-43.9633014252
 20
-1.5580898669
 10
-43.9648638368
 20
-1.5554456259
 10
-43.966132353
 20
-1.5527623423
 10
-43.9671031162
 20
-1.5500481757
 10
-43.9677731745
 20
-1.5473113798
 10
-43.9681404902
 20
-1.544560277
 10
-43.9682168553
 20
-1.5426067577
  0
LWPOLYLINE
  5
2C7
100
AcDbEntity
  8
RACCORDO
100
AcDbPolyline
 62
7
  6
CONTINUOUS
 90
6
 70
0
 10
38.6242376557
 20
-42.9967206568
 10
38.6125037427
 20
-42.9901198424
 10
38.6032755051
 20
-42.9825897855
 10
38.5968408297
 20
-42.9743654006
 10
38.5934004529
 20
-42.9657032629
 10
38.5928220917
 20
-42.9603878175
  0
LWPOLYLINE
  5
2C8
100
AcDbEntity
  8
0
100
AcDbPolyline
 62
7
  6
CONTINUOUS
 90
13
 70
0
 10
-0.8437361407
 20
-22.4423997227
 10
-0.8588420468
 20
-22.4320006172
 10
-0.8744202495
 20
-22.422031576
 10
-0.8904707487
 20
-22.4124925991
 10
-0.9070003085
 20
-22.4033475667
 10
-0.9240021649
 20
-22.3946325986
 10
-0.9414560262
 20
-22.3864560544
 10
-0.959365747
 20
-22.3788412459
 10
-0.9777274727
 20
-22.3717648614
 10
-0.996509347
 20
-22.3652653248
 10
-1.0157007512
 20
-22.3593554441
 10
-1.035312304
 20
-22.3540224114
 10
-1.0553440054
 20
-22.3492662266
  0
LINE
  5
2C9
100
AcDbEntity
  8
ASSI
100
AcDbLine
 62
7
  6
CONTINUOUS
 10
-28.5363017592
 20
-5.6719689853
 11
-28.430235742
 21
-5.7488397873
  0
LINE
  5
2CA
100
AcDbEntity
  8
ASSI
100
AcDbLine
 62
7
  6
CONTINUOUS
 10
-28.1827483686
 20
-5.49519229
 11
-28.0766823514
 21
-5.572063092
  0
LINE
  5
2CB
100
AcDbEntity
  8
ASSI
100
AcDbLine
 62
7
  6
CONTINUOUS
 10
-27.829194978
 20
-5.3184155947
 11
-27.7231289609
 21
-5.3952863967
  0
LINE
  5
2CC
100
AcDbEntity
  8
ASSI
100
AcDbLine
 62
7
  6
CONTINUOUS
 10
-27.4756415874
 20
-5.1416388994
 11
-27.3695755703
 21
-5.2185097014
  0
LINE
  5
2CD
100
AcDbEntity
  8
ASSI
100
AcDbLine
 62
7
  6
CONTINUOUS
 10
-27.1220881968
 20
-4.9648622041
 11
-27.0160221797
 21
-5.0417330061
  0
LINE
  5
2CE
100
AcDbEntity
  8
ASSI
100
AcDbLine
 62
7
  6
CONTINUOUS
 10
-26.7685348063
 20
-4.7880855088
 11
-26.6624687891
 21
-4.8649563108
  0
LWPOLYLINE
  5
2CF
100
AcDbEntity
  8
0
100
AcDbPolyline
 62
7
  6
CONTINUOUS
 90
37
 70
0
 10
-0.7657155399
 20
-22.4033894222
 10
-0.7592286338
 20
-22.4082388798
 10
-0.7529563229
 20
-22.4133715746
 10
-0.7468986069
 20
-22.4187875065
 10
-0.7410526807
 20
-22.4244988482
 10
-0.7354213496
 20
-22.4304934271
 10
-0.7300130293
 20
-22.4367347252
 10
-0.7248309917
 20
-22.4432109297
 10
-0.719871965
 20
-22.4499338533
 10
-0.7151345499
 20
-22.4569024168
 10
-0.7106114484
 20
-22.4641192235
 10
-0.7063099586
 20
-22.4715816701
 10
-0.7022505743
 20
-22.4792808676
 10
-0.6984288055
 20
-22.4872238339
 10
-0.6948491424
 20
-22.4954035511
 10
-0.6915455489
 20
-22.5037900766
 10
-0.6885226944
 20
-22.5123766753
 10
-0.6857759096
 20
-22.5211700824
 10
-0.6833251506
 20
-22.5301605597
 10
-0.6811771411
 20
-22.5393561975
 10
-0.6793251574
 20
-22.5487489056
 10
-0.6777689853
 20
-22.5583046758
 10
-0.6765091355
 20
-22.5680372262
 10
-0.6755450973
 20
-22.5779328386
 10
-0.6748751247
 20
-22.5879163501
 10
-0.6744997204
 20
-22.5979779284
 10
-0.6744183816
 20
-22.6081274058
 10
-0.6746278538
 20
-22.6183191158
 10
-0.6751248422
 20
-22.6285470043
 10
-0.6759126416
 20
-22.6388171254
 10
-0.6769978816
 20
-22.6491019753
 10
-0.6783795795
 20
-22.6594151145
 10
-0.6800587181
 20
-22.6697429825
 10
-0.6820448747
 20
-22.6800173936
 10
-0.6843412419
 20
-22.6902156192
 10
-0.6869446272
 20
-22.700360388
 10
-0.6898550306
 20
-22.7104516999
  0
LWPOLYLINE
  5
2D0
100
AcDbEntity
  8
RACCORDO
100
AcDbPolyline
 62
7
  6
CONTINUOUS
 90
10
 70
0
 10
-42.9194606104
 20
39.610632965
 10
-42.932267582
 20
39.6340848418
 10
-42.9407132135
 20
39.6503327371
 10
-42.9490757667
 20
39.667230604
 10
-42.9573401718
 20
39.6848404497
 10
-42.9654638815
 20
39.7031065774
 10
-42.9733810344
 20
39.7218524593
 10
-42.9810532606
 20
39.7410164714
 10
-42.9884656705
 20
39.7606549197
 10
-42.9955908029
 20
39.7807641879
  0
LWPOLYLINE
  5
2D1
100
AcDbEntity
  8
RACCORDO
100
AcDbPolyline
 62
7
  6
CONTINUOUS
 90
49
 70
0
 10
-42.4543529177
 20
39.0572796675
 10
-42.4652627043
 20
39.0792353442
 10
-42.4761053302
 20
39.1006149802
 10
-42.4868807955
 20
39.1214185754
 10
-42.4976015514
 20
39.1416341292
 10
-42.5082551467
 20
39.1612736423
 10
-42.5188042269
 20
39.1803731166
 10
-42.5292415553
 20
39.1989281844
 10
-42.5395743687
 20
39.2169432135
 10
-42.5497870236
 20
39.2344673082
 10
-42.5598738637
 20
39.2514974011
 10
-42.5698405453
 20
39.2680365597
 10
-42.5796883935
 20
39.2841430911
 10
-42.5894192824
 20
39.2998245351
 10
-42.5990313378
 20
39.3150733519
 10
-42.6085202631
 20
39.3299252292
 10
-42.6178905426
 20
39.3443892883
 10
-42.6271376918
 20
39.3584564078
 10
-42.6362439608
 20
39.3721349114
 10
-42.6452100906
 20
39.3854266781
 10
-42.6540353401
 20
39.3983298288
 10
-42.6626997368
 20
39.4108470495
 10
-42.6712001759
 20
39.4229745068
 10
-42.6795397622
 20
39.4347160341
 10
-42.6877078363
 20
39.4460858184
 10
-42.6956938372
 20
39.4570708697
 10
-42.7035083259
 20
39.4676841781
 10
-42.7111723266
 20
39.4779788995
 10
-42.7186748586
 20
39.4879435288
 10
-42.7260269026
 20
39.4975895712
 10
-42.7332824243
 20
39.5070046985
 10
-42.7404364811
 20
39.516186623
 10
-42.7474940157
 20
39.5251376324
 10
-42.7545238217
 20
39.5339522621
 10
-42.7615213669
 20
39.5426295712
 10
-42.7684911836
 20
39.5511705006
 10
-42.7755156617
 20
39.5596724086
 10
-42.7825979134
 20
39.5681441938
 10
-42.7897348266
 20
39.5765769575
 10
-42.7969994553
 20
39.5850413625
 10
-42.8044037615
 20
39.5935558564
 10
-42.8119357834
 20
39.6021019917
 10
-42.8196326889
 20
39.6106950877
 10
-42.8275130287
 20
39.6193582306
 10
-42.8355582522
 20
39.6280683342
 10
-42.8437498763
 20
39.6367714594
 10
-42.8520817399
 20
39.6454496265
 10
-42.860560004
 20
39.6541208152
 10
-42.8691846688
 20
39.6627850255
  0
LINE
  5
2D2
100
AcDbEntity
  8
RACCORDO
100
AcDbLine
 62
7
  6
CONTINUOUS
 10
-42.5961279458
 20
38.7483965802
 11
-42.7163503153
 21
38.9943088817
  0
LINE
  5
2D3
100
AcDbEntity
  8
RACCORDO
100
AcDbLine
 62
7
  6
CONTINUOUS
 10
-42.3341314787
 20
38.8113692695
 11
-42.4543529177
 21
39.0572796675
  0
LINE
  5
2D4
100
AcDbEntity
  8
ASSI
100
AcDbLine
 62
7
  6
CONTINUOUS
 10
-26.7331794672
 20
-5.6841088298
 11
-26.4784745936
 21
-5.499512779
  0
LINE
  5
2D5
100
AcDbEntity
  8
RACCORDO
100
AcDbLine
 62
7
  6
CONTINUOUS
 10
-43.2203647048
 20
-2.7838191632
 11
-43.4150121754
 21
-2.8813953839
  0
LINE
  5
2D6
100
AcDbEntity
  8
ASSI
100
AcDbLine
 62
7
  6
CONTINUOUS
 10
-32.563138759
 20
-3.7963001886
 11
-32.4253890557
 21
-3.727425337
  0
LINE
  5
2D7
100
AcDbEntity
  8
ASSI
100
AcDbLine
 62
7
  6
CONTINUOUS
 10
-32.2132570214
 20
-3.6213593199
 11
-32.0718356652
 21
-3.5506486417
  0
LINE
  5
2D8
100
AcDbEntity
  8
ASSI
100
AcDbLine
 62
7
  6
CONTINUOUS
 10
-31.8597036308
 20
-3.4445826246
 11
-31.7182822746
 21
-3.3738719464
  0
LINE
  5
2D9
100
AcDbEntity
  8
ASSI
100
AcDbLine
 62
7
  6
CONTINUOUS
 10
-31.5061502402
 20
-3.2678059293
 11
-31.364728884
 21
-3.1970952511
  0
LINE
  5
2DA
100
AcDbEntity
  8
ASSI
100
AcDbLine
 62
7
  6
CONTINUOUS
 10
-31.1525968496
 20
-3.091029234
 11
-31.0111754934
 21
-3.0203185558
  0
LINE
  5
2DB
100
AcDbEntity
  8
ASSI
100
AcDbLine
 62
7
  6
CONTINUOUS
 10
-30.799043459
 20
-2.9142525387
 11
-30.6576221028
 21
-2.8435418605
  0
LWPOLYLINE
  5
2DC
100
AcDbEntity
  8
ASSI
100
AcDbPolyline
 62
7
  6
CONTINUOUS
 90
10
 70
0
 10
17.1154435587
 20
-26.7901019201
 10
17.1098197691
 20
-26.7873920601
 10
17.0959263057
 20
-26.7814731199
 10
17.0822805355
 20
-26.7767373661
 10
17.0690618656
 20
-26.77324482
 10
17.0563452807
 20
-26.7710043871
 10
17.0441535427
 20
-26.7699500581
 10
17.0325686591
 20
-26.7700109912
 10
17.0216333036
 20
-26.7711392525
 10
17.0113557848
 20
-26.7733150359
  0
LWPOLYLINE
  5
2DD
100
AcDbEntity
  8
ASSI
100
AcDbPolyline
 62
7
  6
CONTINUOUS
 90
10
 70
0
 10
1.205540982
 20
-18.8351506318
 10
1.1999171924
 20
-18.8324407718
 10
1.186023729
 20
-18.8265218316
 10
1.1723779588
 20
-18.8217860778
 10
1.1591592889
 20
-18.8182935317
 10
1.146442704
 20
-18.8160530988
 10
1.134250966
 20
-18.8149987697
 10
1.1226660824
 20
-18.8150597028
 10
1.1117307269
 20
-18.8161879641
 10
1.1014532082
 20
-18.8183637476
  0
LWPOLYLINE
  5
2DE
100
AcDbEntity
  8
ASSI
100
AcDbPolyline
 62
7
  6
CONTINUOUS
 90
10
 70
0
 10
-14.7043615947
 20
-10.8801993434
 10
-14.7099853843
 20
-10.8774894834
 10
-14.7238788477
 20
-10.8715705432
 10
-14.7375246179
 20
-10.8668347894
 10
-14.7507432878
 20
-10.8633422433
 10
-14.7634598727
 20
-10.8611018104
 10
-14.7756516107
 20
-10.8600474814
 10
-14.7872364943
 20
-10.8601084145
 10
-14.7981718498
 20
-10.8612366758
 10
-14.8084493685
 20
-10.8634124592
  0
LWPOLYLINE
  5
2DF
100
AcDbEntity
  8
ASSI
100
AcDbPolyline
 62
7
  6
CONTINUOUS
 90
18
 70
0
 10
33.0252687359
 20
-34.6584256205
 10
33.0192891986
 20
-34.6555386621
 10
33.0119170227
 20
-34.652261358
 10
33.0047149876
 20
-34.6493685487
 10
32.9976721505
 20
-34.6468333239
 10
32.9907960995
 20
-34.6446489019
 10
32.9840915976
 20
-34.6428086076
 10
32.9775432403
 20
-34.6412878154
 10
32.9711517298
 20
-34.6400798996
 10
32.96492577
 20
-34.6391805359
 10
32.9588619818
 20
-34.6385700427
 10
32.9529646548
 20
-34.6382427116
 10
32.9472359227
 20
-34.6381940646
 10
32.9416691804
 20
-34.6384071536
 10
32.936268556
 20
-34.6388759702
 10
32.9310344132
 20
-34.6395974978
 10
32.9259552187
 20
-34.6405604467
 10
32.9210288618
 20
-34.641758851
  0
LWPOLYLINE
  5
2E0
100
AcDbEntity
  8
ASSI
100
AcDbPolyline
 62
7
  6
CONTINUOUS
 90
18
 70
0
 10
-30.6143415709
 20
-2.8386204671
 10
-30.6203211082
 20
-2.8357335087
 10
-30.6276932841
 20
-2.8324562046
 10
-30.6348953192
 20
-2.8295633953
 10
-30.6419381563
 20
-2.8270281705
 10
-30.6488142073
 20
-2.8248437485
 10
-30.6555187092
 20
-2.8230034542
 10
-30.6620670665
 20
-2.821482662
 10
-30.668458577
 20
-2.8202747462
 10
-30.6746845368
 20
-2.8193753825
 10
-30.680748325
 20
-2.8187648894
 10
-30.686645652
 20
-2.8184375582
 10
-30.6923743841
 20
-2.8183889112
 10
-30.6979411264
 20
-2.8186020002
 10
-30.7033417508
 20
-2.8190708168
 10
-30.7085758936
 20
-2.8197923444
 10
-30.7136550881
 20
-2.8207552933
 10
-30.718581445
 20
-2.8219536976
  0
LINE
  5
2E1
100
AcDbEntity
  8
ASSI
100
AcDbLine
 62
7
  6
CONTINUOUS
 10
36.0225473631
 20
-37.0321547309
 11
32.1334600666
 21
-35.0876110827
  0
LINE
  5
2E2
100
AcDbEntity
  8
ASSI
100
AcDbLine
 62
7
  6
CONTINUOUS
 10
-27.6170629437
 20
-5.2123495775
 11
-31.5061502402
 21
-3.2678059293
  0
LINE
  5
2E3
100
AcDbEntity
  8
ASSI
100
AcDbLine
 62
7
  6
CONTINUOUS
 10
36.1639687193
 20
-36.9614440528
 11
32.2748814228
 21
-35.0169004045
  0
LINE
  5
2E4
100
AcDbEntity
  8
ASSI
100
AcDbLine
 62
7
  6
CONTINUOUS
 10
-27.4756415874
 20
-5.1416388994
 11
-31.364728884
 21
-3.1970952511
  0
LINE
  5
2E5
100
AcDbEntity
  8
ASSI
100
AcDbLine
 62
7
  6
CONTINUOUS
 10
36.3761007537
 20
-36.8553780356
 11
32.4870134572
 21
-34.9108343874
  0
LINE
  5
2E6
100
AcDbEntity
  8
ASSI
100
AcDbLine
 62
7
  6
CONTINUOUS
 10
-27.2635095531
 20
-5.0355728822
 11
-31.1525968496
 21
-3.091029234
  0
LINE
  5
2E7
100
AcDbEntity
  8
ASSI
100
AcDbLine
 62
7
  6
CONTINUOUS
 10
36.5175221099
 20
-36.7846673575
 11
32.6284348134
 21
-34.8401237092
  0
LINE
  5
2E8
100
AcDbEntity
  8
ASSI
100
AcDbLine
 62
7
  6
CONTINUOUS
 10
-27.1220881968
 20
-4.9648622041
 11
-31.0111754934
 21
-3.0203185558
  0
LINE
  5
2E9
100
AcDbEntity
  8
ASSI
100
AcDbLine
 62
7
  6
CONTINUOUS
 10
36.7296541443
 20
-36.6786013403
 11
32.8405668478
 21
-34.7340576921
  0
LINE
  5
2EA
100
AcDbEntity
  8
ASSI
100
AcDbLine
 62
7
  6
CONTINUOUS
 10
-26.9099561625
 20
-4.8587961869
 11
-30.799043459
 21
-2.9142525387
  0
LINE
  5
2EB
100
AcDbEntity
  8
ASSI
100
AcDbLine
 62
7
  6
CONTINUOUS
 10
-14.8258417834
 20
-10.869872354
 11
-10.5683779379
 21
-12.9986042768
  0
LINE
  5
2EC
100
AcDbEntity
  8
ASSI
100
AcDbLine
 62
7
  6
CONTINUOUS
 10
1.0840607933
 20
-18.8248236423
 11
5.3415246388
 21
-20.9535555651
  0
LINE
  5
2ED
100
AcDbEntity
  8
ASSI
100
AcDbLine
 62
7
  6
CONTINUOUS
 10
16.99396337
 20
-26.7797749307
 11
21.2514272155
 21
-28.9085068535
  0
LINE
  5
2EE
100
AcDbEntity
  8
ASSI
100
AcDbLine
 62
7
  6
CONTINUOUS
 10
-14.7040542785
 20
-10.8803643895
 11
-10.5112800046
 21
-12.9767515264
  0
LINE
  5
2EF
100
AcDbEntity
  8
ASSI
100
AcDbLine
 62
7
  6
CONTINUOUS
 10
1.2058482982
 20
-18.8353156778
 11
5.3986225721
 21
-20.9317028148
  0
LINE
  5
2F0
100
AcDbEntity
  8
ASSI
100
AcDbLine
 62
7
  6
CONTINUOUS
 10
17.1157508749
 20
-26.7902669662
 11
21.3085251488
 21
-28.8866541031
  0
LINE
  5
2F1
100
AcDbEntity
  8
ASSI
100
AcDbLine
 62
7
  6
CONTINUOUS
 10
-30.7357443601
 20
-2.8283185253
 11
-30.6814598962
 21
-2.8554607572
  0
LINE
  5
2F2
100
AcDbEntity
  8
ASSI
100
AcDbLine
 62
7
  6
CONTINUOUS
 10
-26.6624687891
 20
-4.8649563108
 11
-26.4782805146
 21
-4.9570504481
  0
LINE
  5
2F3
100
AcDbEntity
  8
ASSI
100
AcDbLine
 62
7
  6
CONTINUOUS
 10
32.9038659467
 20
-34.6481236787
 11
32.9581504106
 21
-34.6752659106
  0
LINE
  5
2F4
100
AcDbEntity
  8
ASSI
100
AcDbLine
 62
7
  6
CONTINUOUS
 10
36.9771415177
 20
-36.6847614642
 11
37.0713600643
 21
-36.7318707375
  0
LINE
  5
2F5
100
AcDbEntity
  8
ASSI
100
AcDbLine
 62
7
  6
CONTINUOUS
 10
36.8710755005
 20
-36.6078906622
 11
32.981988204
 21
-34.6633470139
  0
LINE
  5
2F6
100
AcDbEntity
  8
ASSI
100
AcDbLine
 62
7
  6
CONTINUOUS
 10
-26.7685348063
 20
-4.7880855088
 11
-30.6576221028
 21
-2.8435418605
  0
LINE
  5
2F7
100
AcDbEntity
  8
ASSI
100
AcDbLine
 62
7
  6
CONTINUOUS
 10
-30.6140901541
 20
-2.8387439113
 11
-26.4210492824
 21
-4.9352643471
  0
LINE
  5
2F8
100
AcDbEntity
  8
ASSI
100
AcDbLine
 62
7
  6
CONTINUOUS
 10
33.0255201527
 20
-34.6585490647
 11
37.0713600643
 21
-36.6814690205
  0
LWPOLYLINE
  5
2F9
100
AcDbEntity
  8
ASSI
100
AcDbPolyline
 62
7
  6
CONTINUOUS
 90
5
 70
0
 10
-26.4209199489
 20
-4.9353312781
 10
-26.4207676933
 20
-4.9354131567
 10
-26.4201965443
 20
-4.9359254384
 10
-26.4199203357
 20
-4.9366368744
 10
-26.4198959605
 20
-4.9369666094
  0
LWPOLYLINE
  5
2FA
100
AcDbEntity
  8
ASSI
100
AcDbPolyline
 62
7
  6
CONTINUOUS
 90
3
 70
0
 10
-10.5110095249
 20
-12.9768753783
 10
-10.5103390391
 20
-12.977407702
 10
-10.5099934045
 20
-12.9785215788
  0
LWPOLYLINE
  5
2FB
100
AcDbEntity
  8
ASSI
100
AcDbPolyline
 62
7
  6
CONTINUOUS
 90
3
 70
0
 10
5.3988930518
 20
-20.9318266667
 10
5.3995635376
 20
-20.9323589904
 10
5.3999091722
 20
-20.9334728671
  0
LWPOLYLINE
  5
2FC
100
AcDbEntity
  8
0
100
AcDbPolyline
 62
7
  6
CONTINUOUS
 90
78
 70
0
 10
-0.5675971237
 20
-22.2742976505
 10
-0.5614261116
 20
-22.2821824175
 10
-0.5552762188
 20
-22.2908380512
 10
-0.5491474452
 20
-22.3002645516
 10
-0.5430315368
 20
-22.310433432
 10
-0.5369367477
 20
-22.3213731792
 10
-0.5308878399
 20
-22.3331692533
 10
-0.5248453457
 20
-22.3458725431
 10
-0.5188487329
 20
-22.35943216
 10
-0.513041167
 20
-22.3737808978
 10
-0.5074001328
 20
-22.3890087239
 10
-0.5019481455
 20
-22.405025671
 10
-0.4968959169
 20
-22.4214946315
 10
-0.4922891076
 20
-22.4383627343
 10
-0.4880820571
 20
-22.4556828504
 10
-0.484348495
 20
-22.4732764854
 10
-0.481107441
 20
-22.4910881877
 10
-0.4783398755
 20
-22.5091734088
 10
-0.4760624692
 20
-22.527520009
 10
-0.4742724573
 20
-22.5461281152
 10
-0.4729726047
 20
-22.5649976005
 10
-0.472187876
 20
-22.5841159442
 10
-0.4719154338
 20
-22.6034704357
 10
-0.4721581156
 20
-22.6230737856
 10
-0.4729493981
 20
-22.6429516049
 10
-0.4742807824
 20
-22.6630854338
 10
-0.4761607674
 20
-22.6834937321
 10
-0.4786483267
 20
-22.7042574898
 10
-0.4817363969
 20
-22.7253835847
 10
-0.4854320414
 20
-22.746865139
 10
-0.4898154244
 20
-22.7687625106
 10
-0.4949635457
 20
-22.7913175381
 10
-0.5007994055
 20
-22.8142883827
 10
-0.5071721684
 20
-22.8370098862
 10
-0.5141523587
 20
-22.8595475976
 10
-0.5216694522
 20
-22.8818359678
 10
-0.529361041
 20
-22.9030131909
 10
-0.5371611871
 20
-22.9227851395
 10
-0.5451358285
 20
-22.9414459409
 10
-0.5531203713
 20
-22.9590161709
 10
-0.5610812158
 20
-22.975434025
 10
-0.5690519618
 20
-22.9907613076
 10
-0.5769688148
 20
-23.0052040084
 10
-0.5848262042
 20
-23.0187792881
 10
-0.5926297005
 20
-23.0314699858
 10
-0.6003322215
 20
-23.0434306087
 10
-0.6079276342
 20
-23.0546686248
 10
-0.6154220714
 20
-23.0651765662
 10
-0.6227868498
 20
-23.0750865352
 10
-0.6300168958
 20
-23.0844068342
 10
-0.6371172829
 20
-23.0931291609
 10
-0.6440745485
 20
-23.1013607112
 10
-0.6508858157
 20
-23.1091080845
 10
-0.6575539614
 20
-23.1163646815
 10
-0.6640741529
 20
-23.1232178999
 10
-0.6704443337
 20
-23.1296733433
 10
-0.6766665604
 20
-23.135725408
 10
-0.6827421699
 20
-23.1414446807
 10
-0.6886700067
 20
-23.1468355177
 10
-0.6944512265
 20
-23.1518935627
 10
-0.7000906329
 20
-23.1566763329
 10
-0.7055876808
 20
-23.1611869979
 10
-0.7109429155
 20
-23.1654223882
 10
-0.7161627758
 20
-23.1694305115
 10
-0.721246814
 20
-23.1732142449
 10
-0.7261954779
 20
-23.1767707114
 10
-0.7310165497
 20
-23.1801392881
 10
-0.7357096837
 20
-23.1833225472
 10
-0.7402752256
 20
-23.1863179163
 10
-0.7447219949
 20
-23.1891570558
 10
-0.7490498016
 20
-23.1918436217
 10
-0.7532588357
 20
-23.1943739579
 10
-0.757358487
 20
-23.1967687555
 10
-0.761349091
 20
-23.1990297337
 10
-0.7652303121
 20
-23.2011551733
 10
-0.7690105337
 20
-23.203160608
 10
-0.7726902033
 20
-23.2050464618
 10
-0.7733083449
 20
-23.2053561463
  0
LWPOLYLINE
  5
2FD
100
AcDbEntity
  8
0
100
AcDbPolyline
 62
7
  6
CONTINUOUS
 90
33
 70
0
 10
-0.8434652097
 20
-23.2361232531
 10
-0.8389593279
 20
-23.2423900877
 10
-0.8346265283
 20
-23.248972446
 10
-0.8304668109
 20
-23.2558703282
 10
-0.8264738156
 20
-23.263097659
 10
-0.8226539025
 20
-23.2706405135
 10
-0.8190261524
 20
-23.2784571173
 10
-0.8155902542
 20
-23.2865530878
 10
-0.8123465188
 20
-23.2949228075
 10
-0.8093149603
 20
-23.3035076496
 10
-0.8065036947
 20
-23.3122778234
 10
-0.8039046059
 20
-23.3212631196
 10
-0.80151336
 20
-23.3304942828
 10
-0.7993318582
 20
-23.3399519813
 10
-0.7973581993
 20
-23.3496555468
 10
-0.7955823452
 20
-23.3596937199
 10
-0.7939998663
 20
-23.3700676465
 10
-0.7926151922
 20
-23.3807761806
 10
-0.7914315741
 20
-23.3919046249
 10
-0.7904467509
 20
-23.4034559337
 10
-0.7896629838
 20
-23.4154271527
 10
-0.789090307
 20
-23.4278947215
 10
-0.7887260581
 20
-23.4408714373
 10
-0.7885728995
 20
-23.4543445028
 10
-0.7886488533
 20
-23.4683519661
 10
-0.7889570826
 20
-23.4829130207
 10
-0.7894944242
 20
-23.4980084731
 10
-0.7902694102
 20
-23.5136187901
 10
-0.7912929941
 20
-23.5297438444
 10
-0.7925542223
 20
-23.5463837634
 10
-0.7940287664
 20
-23.5635193969
 10
-0.7957292443
 20
-23.581143993
 10
-0.7976430381
 20
-23.5992643037
  0
LINE
  5
2FE
100
AcDbEntity
  8
ASSI
100
AcDbLine
 62
7
  6
CONTINUOUS
 10
-10.561364408
 20
-12.9949469913
 11
-10.561364408
 21
-13.463771856
  0
LINE
  5
2FF
100
AcDbEntity
  8
ASSI
100
AcDbLine
 62
7
  6
CONTINUOUS
 10
-10.5099933731
 20
-12.9791939225
 11
-10.5099933731
 21
-13.4464382776
  0
LINE
  5
300
100
AcDbEntity
  8
ASSI
100
AcDbLine
 62
7
  6
CONTINUOUS
 10
-11.1133478268
 20
-13.9942805124
 11
-11.0651290826
 21
-13.7979911625
  0
LINE
  5
301
100
AcDbEntity
  8
RACCORDO
100
AcDbLine
 62
7
  6
CONTINUOUS
 10
-26.4782805146
 20
-4.9570504481
 11
-28.2613447668
 21
-5.9471971847
  0
LINE
  5
302
100
AcDbEntity
  8
ASSI
100
AcDbLine
 62
7
  6
CONTINUOUS
 10
-26.7331794672
 20
-5.6841088298
 11
-27.7506255041
 21
-6.2025568161
  0
LINE
  5
303
100
AcDbEntity
  8
DRAFT
100
AcDbLine
 62
7
  6
CONTINUOUS
 10
-27.4463342941
 20
-6.3547024211
 11
-27.1025633205
 21
-6.1817721228
  0
LINE
  5
304
100
AcDbEntity
  8
DRAFT
100
AcDbLine
 62
7
  6
CONTINUOUS
 10
-27.5053353961
 20
-6.3252018701
 11
-27.0366924164
 21
-6.089723959
  0
LINE
  5
305
100
AcDbEntity
  8
DRAFT
100
AcDbLine
 62
7
  6
CONTINUOUS
 10
-27.0232504035
 20
-6.039329224
 11
-27.5489863783
 21
-6.303376379
  0
LINE
  5
306
100
AcDbEntity
  8
DRAFT
100
AcDbLine
 62
7
  6
CONTINUOUS
 10
-27.0237415727
 20
-6.0412897995
 11
-27.5475003576
 21
-6.3041193893
  0
LINE
  5
307
100
AcDbEntity
  8
ASSI
100
AcDbLine
 62
7
  6
CONTINUOUS
 10
-28.6740514624
 20
-5.7408438369
 11
-28.5363017592
 21
-5.6719689853
  0
LINE
  5
308
100
AcDbEntity
  8
ASSI
100
AcDbLine
 62
7
  6
CONTINUOUS
 10
-28.3241697249
 20
-5.5659029681
 11
-28.1827483686
 21
-5.49519229
  0
LINE
  5
309
100
AcDbEntity
  8
ASSI
100
AcDbLine
 62
7
  6
CONTINUOUS
 10
-27.9706163343
 20
-5.3891262728
 11
-27.829194978
 21
-5.3184155947
  0
LINE
  5
30A
100
AcDbEntity
  8
ASSI
100
AcDbLine
 62
7
  6
CONTINUOUS
 10
-27.6170629437
 20
-5.2123495775
 11
-27.4756415874
 21
-5.1416388994
  0
LINE
  5
30B
100
AcDbEntity
  8
ASSI
100
AcDbLine
 62
7
  6
CONTINUOUS
 10
-27.2635095531
 20
-5.0355728822
 11
-27.1220881968
 21
-4.9648622041
  0
LINE
  5
30C
100
AcDbEntity
  8
ASSI
100
AcDbLine
 62
7
  6
CONTINUOUS
 10
-26.9099561625
 20
-4.8587961869
 11
-26.7685348063
 21
-4.7880855088
  0
LINE
  5
30D
100
AcDbEntity
  8
ASSI
100
AcDbLine
 62
7
  6
CONTINUOUS
 10
-26.6624687891
 20
-4.8649563108
 11
-28.5441476519
 21
-5.8057957422
  0
LINE
  5
30E
100
AcDbEntity
  8
ASSI
100
AcDbLine
 62
7
  6
CONTINUOUS
 10
-26.4712669847
 20
-5.4655192975
 11
-27.8504603973
 21
-6.1526393695
  0
LWPOLYLINE
  5
30F
100
AcDbEntity
  8
ASSI
100
AcDbPolyline
 62
7
  6
CONTINUOUS
 90
20
 70
0
 10
-26.4712669847
 20
-4.9533931626
 10
-26.4672451303
 20
-4.9514379449
 10
-26.463334236
 20
-4.9495773021
 10
-26.4595416661
 20
-4.9478120043
 10
-26.4558779894
 20
-4.9461412966
 10
-26.4523472744
 20
-4.944568055
 10
-26.4489485111
 20
-4.9430983079
 10
-26.4456896648
 20
-4.9417312708
 10
-26.4425808202
 20
-4.9404699741
 10
-26.4396264862
 20
-4.9393258088
 10
-26.4368364147
 20
-4.9382994435
 10
-26.4342212267
 20
-4.9373934214
 10
-26.43178851
 20
-4.9366219403
 10
-26.4295507519
 20
-4.9359874329
 10
-26.427517365
 20
-4.9354921697
 10
-26.4256943088
 20
-4.9351500943
 10
-26.4240947724
 20
-4.9349636687
 10
-26.4227324801
 20
-4.9349366066
 10
-26.4216184435
 20
-4.935084841
 10
-26.4209199489
 20
-4.9353312781
  0
LINE
  5
310
100
AcDbEntity
  8
ASSI
100
AcDbLine
 62
7
  6
CONTINUOUS
 10
-30.7357443601
 20
-2.8283185253
 11
-32.7160378334
 21
-3.7198506514
  0
LWPOLYLINE
  5
311
100
AcDbEntity
  8
ASSI
100
AcDbPolyline
 62
7
  6
CONTINUOUS
 90
3
 70
0
 10
-30.718581445
 20
-2.8219536976
 10
-30.723348611
 20
-2.8233862045
 10
-30.7279550461
 20
-2.8250491319
  0
LWPOLYLINE
  5
312
100
AcDbEntity
  8
RACCORDO
100
AcDbPolyline
 62
7
  6
CONTINUOUS
 90
34
 70
0
 10
-42.7163503153
 20
-1.0418642745
 10
-42.7099932934
 20
-1.0425273281
 10
-42.7033646917
 20
-1.0433473001
 10
-42.6964786327
 20
-1.0443224435
 10
-42.6893497878
 20
-1.0454506808
 10
-42.6819933452
 20
-1.0467296081
 10
-42.6744249783
 20
-1.0481565005
 10
-42.6666608122
 20
-1.049728318
 10
-42.6587173886
 20
-1.0514417118
 10
-42.6506116317
 20
-1.0532930313
 10
-42.6423608111
 20
-1.0552783321
 10
-42.6339825058
 20
-1.0573933845
 10
-42.6254945663
 20
-1.0596336821
 10
-42.6169150766
 20
-1.0619944519
 10
-42.6082623157
 20
-1.0644706642
 10
-42.599554719
 20
-1.0670570431
 10
-42.5908108384
 20
-1.0697480782
 10
-42.5820493032
 20
-1.0725380362
 10
-42.5732887804
 20
-1.0754209728
 10
-42.5645479347
 20
-1.0783907458
 10
-42.555845389
 20
-1.0814410278
 10
-42.5471996846
 20
-1.0845653202
 10
-42.5386292414
 20
-1.0877569663
 10
-42.5301523193
 20
-1.0910091663
 10
-42.5217869788
 20
-1.0943149911
 10
-42.5135510427
 20
-1.0976673974
 10
-42.5054620579
 20
-1.1010592429
 10
-42.4975372584
 20
-1.104483301
 10
-42.4897935284
 20
-1.1079322765
 10
-42.4822473663
 20
-1.1113988212
 10
-42.4749148494
 20
-1.1148755495
 10
-42.4678115999
 20
-1.1183550541
 10
-42.4609527516
 20
-1.1218299217
 10
-42.4543529177
 20
-1.125292749
  0
LINE
  5
313
100
AcDbEntity
  8
ASSI
100
AcDbLine
 62
7
  6
CONTINUOUS
 10
35.1033085476
 20
-37.4917741387
 11
35.2093745647
 21
-37.5686449407
  0
LINE
  5
314
100
AcDbEntity
  8
ASSI
100
AcDbLine
 62
7
  6
CONTINUOUS
 10
35.4568619382
 20
-37.3149974434
 11
35.5629279553
 21
-37.3918682454
  0
LINE
  5
315
100
AcDbEntity
  8
ASSI
100
AcDbLine
 62
7
  6
CONTINUOUS
 10
35.8104153288
 20
-37.1382207481
 11
35.9164813459
 21
-37.2150915501
  0
LINE
  5
316
100
AcDbEntity
  8
ASSI
100
AcDbLine
 62
7
  6
CONTINUOUS
 10
36.1639687193
 20
-36.9614440528
 11
36.2700347365
 21
-37.0383148548
  0
LINE
  5
317
100
AcDbEntity
  8
ASSI
100
AcDbLine
 62
7
  6
CONTINUOUS
 10
36.5175221099
 20
-36.7846673575
 11
36.6235881271
 21
-36.8615381595
  0
LINE
  5
318
100
AcDbEntity
  8
ASSI
100
AcDbLine
 62
7
  6
CONTINUOUS
 10
36.8710755005
 20
-36.6078906622
 11
36.9771415177
 21
-36.6847614642
  0
LWPOLYLINE
  5
319
100
AcDbEntity
  8
ASSI
100
AcDbPolyline
 62
7
  6
CONTINUOUS
 90
3
 70
0
 10
21.3087956285
 20
-28.886777955
 10
21.3094661143
 20
-28.8873102787
 10
21.3098117489
 20
-28.8884241555
  0
LWPOLYLINE
  5
31A
100
AcDbEntity
  8
0
100
AcDbPolyline
 62
7
  6
CONTINUOUS
 90
31
 70
0
 10
-1.0682751946
 20
-23.4755605272
 10
-1.0677963158
 20
-23.4627153106
 10
-1.067643317
 20
-23.4502091023
 10
-1.0678161982
 20
-23.4380419023
 10
-1.0683315204
 20
-23.4262138528
 10
-1.0691727226
 20
-23.4147248115
 10
-1.0702901222
 20
-23.4035743518
 10
-1.0716746097
 20
-23.3927699888
 10
-1.0733352948
 20
-23.3823042074
 10
-1.0752498238
 20
-23.3721540352
 10
-1.0774166321
 20
-23.3623034723
 10
-1.0798372845
 20
-23.3527685185
 10
-1.0824941217
 20
-23.3435742014
 10
-1.0853892905
 20
-23.3347158254
 10
-1.0885206442
 20
-23.326198086
 10
-1.0918640828
 20
-23.3180600968
 10
-1.0954171856
 20
-23.3103158602
 10
-1.0991823734
 20
-23.3029513738
 10
-1.1031428077
 20
-23.2959637439
 10
-1.1073012608
 20
-23.2893661268
 10
-1.1116549604
 20
-23.2831453662
 10
-1.116178752
 20
-23.2772590995
 10
-1.1208691733
 20
-23.2717043679
 10
-1.1257296866
 20
-23.2664841301
 10
-1.1307455245
 20
-23.2615649002
 10
-1.1359067853
 20
-23.2569420732
 10
-1.1412233707
 20
-23.252620254
 10
-1.1467102181
 20
-23.248579771
 10
-1.1523723068
 20
-23.244814067
 10
-1.1582046575
 20
-23.2413296992
 10
-1.1642072703
 20
-23.2381266676
  0
LINE
  5
31B
100
AcDbEntity
  8
0
100
AcDbLine
 62
7
  6
CONTINUOUS
 10
-3.5616230568
 20
-21.4763286237
 11
-3.6374933995
 21
-22.8437292873
  0
LINE
  5
31C
100
AcDbEntity
  8
0
100
AcDbLine
 62
7
  6
CONTINUOUS
 10
-3.4836024559
 20
-21.4373183233
 11
-3.5592751928
 21
-22.8011575632
  0
LINE
  5
31D
100
AcDbEntity
  8
0
100
AcDbLine
 62
7
  6
CONTINUOUS
 10
-3.3534419194
 20
-22.0284708741
 11
-3.2868025866
 21
-20.8668907941
  0
LWPOLYLINE
  5
31E
100
AcDbEntity
  8
0
100
AcDbPolyline
 62
7
  6
CONTINUOUS
 90
5
 70
0
 10
-0.9902545939
 20
-23.4365502283
 10
-0.9911100122
 20
-23.4503991005
 10
-0.9920602762
 20
-23.4642179784
 10
-0.9931053858
 20
-23.478006862
 10
-0.9942589831
 20
-23.491753119
  0
LINE
  5
31F
100
AcDbEntity
  8
0
100
AcDbLine
 62
7
  6
CONTINUOUS
 10
-5.2210931866
 20
-19.8997454942
 11
-5.411091155
 21
-21.9569304095
  0
LINE
  5
320
100
AcDbEntity
  8
0
100
AcDbLine
 62
7
  6
CONTINUOUS
 10
-5.1499603594
 20
-19.9353119078
 11
-5.3330705541
 21
-21.9179201091
  0
LINE
  5
321
100
AcDbEntity
  8
0
100
AcDbLine
 62
7
  6
CONTINUOUS
 10
-1.8814990673
 20
-23.7217264534
 11
-1.6785263966
 21
-21.6710288892
  0
LINE
  5
322
100
AcDbEntity
  8
0
100
AcDbLine
 62
7
  6
CONTINUOUS
 10
-5.0984067844
 20
-21.4425032279
 11
-4.9325045244
 21
-20.0440398253
  0
LINE
  5
323
100
AcDbEntity
  8
0
100
AcDbLine
 62
7
  6
CONTINUOUS
 10
-2.1118367423
 20
-23.1769050119
 11
-2.1614935537
 21
-23.5817292102
  0
LWPOLYLINE
  5
324
100
AcDbEntity
  8
RACCORDO
100
AcDbPolyline
 62
7
  6
CONTINUOUS
 90
34
 70
0
 10
-42.5961279458
 20
-0.6877032653
 10
-42.5897709291
 20
-0.6883663182
 10
-42.5831423329
 20
-0.6891862894
 10
-42.5762562796
 20
-0.6901614317
 10
-42.5691274405
 20
-0.6912896677
 10
-42.5617710039
 20
-0.6925685935
 10
-42.554202643
 20
-0.6939954843
 10
-42.5464384826
 20
-0.6955673001
 10
-42.5384950647
 20
-0.6972806921
 10
-42.5303893131
 20
-0.6991320097
 10
-42.5221384977
 20
-0.7011173086
 10
-42.513760197
 20
-0.7032323591
 10
-42.5052722617
 20
-0.7054726549
 10
-42.4966927756
 20
-0.707833423
 10
-42.4880400177
 20
-0.7103096336
 10
-42.4793324233
 20
-0.712896011
 10
-42.4705885444
 20
-0.7155870448
 10
-42.4618270101
 20
-0.7183770017
 10
-42.4530664875
 20
-0.7212599374
 10
-42.4443256413
 20
-0.7242297098
 10
-42.4356230942
 20
-0.7272799915
 10
-42.4269773875
 20
-0.7304042839
 10
-42.4184069414
 20
-0.7335959303
 10
-42.4099300157
 20
-0.736848131
 10
-42.4015646708
 20
-0.7401539568
 10
-42.3933287295
 20
-0.7435063645
 10
-42.385239739
 20
-0.7468982117
 10
-42.3773149333
 20
-0.7503222719
 10
-42.3695711966
 20
-0.7537712499
 10
-42.3620250273
 20
-0.7572377975
 10
-42.354692503
 20
-0.760714529
 10
-42.3475892459
 20
-0.7641940371
 10
-42.3407303898
 20
-0.7676689085
 10
-42.3341305481
 20
-0.7711317398
  0
LINE
  5
325
100
AcDbEntity
  8
DRAFT
100
AcDbLine
 62
7
  6
CONTINUOUS
 10
56.1043799488
 20
-28.0687790041
 11
56.5993546956
 21
-28.3162663776
  0
LWPOLYLINE
  5
326
100
AcDbEntity
  8
RACCORDO
100
AcDbPolyline
 62
7
  6
CONTINUOUS
 90
10
 70
0
 10
37.1340477944
 20
-41.8818221824
 10
37.119911389
 20
-41.8672393576
 10
37.1063485741
 20
-41.8526678525
 10
37.0933495046
 20
-41.8381347869
 10
37.0808638529
 20
-41.8236396838
 10
37.068920874
 20
-41.8092341047
 10
37.0576258264
 20
-41.7950224594
 10
37.0470019119
 20
-41.7810548602
 10
37.0369940272
 20
-41.7673262573
 10
37.0275862757
 20
-41.7538567275
  0
LINE
  5
327
100
AcDbEntity
  8
ASSI
100
AcDbLine
 62
7
  6
CONTINUOUS
 10
5.3485381687
 20
-20.9498982797
 11
5.3485381687
 21
-21.4187231444
  0
LINE
  5
328
100
AcDbEntity
  8
ASSI
100
AcDbLine
 62
7
  6
CONTINUOUS
 10
5.3999092036
 20
-20.9341452108
 11
5.3999092036
 21
-21.4013895659
  0
LWPOLYLINE
  5
329
100
AcDbEntity
  8
0
100
AcDbPolyline
 62
7
  6
CONTINUOUS
 90
5
 70
0
 10
-1.0723034323
 20
-23.5310369202
 10
-1.0711428004
 20
-23.5172246517
 10
-1.0700914839
 20
-23.5033681589
 10
-1.0691356153
 20
-23.4894801174
 10
-1.0682751946
 20
-23.4755605272
  0
LINE
  5
32A
100
AcDbEntity
  8
0
100
AcDbLine
 62
7
  6
CONTINUOUS
 10
-0.9942589831
 20
-23.491753119
 11
-0.9968097885
 21
-23.5191935466
  0
LINE
  5
32B
100
AcDbEntity
  8
0
100
AcDbLine
 62
7
  6
CONTINUOUS
 10
-1.0748694373
 20
-23.5586048377
 11
-1.0723034323
 21
-23.5310369202
  0
LINE
  5
32C
100
AcDbEntity
  8
0
100
AcDbLine
 62
7
  6
CONTINUOUS
 10
-1.0776479137
 20
-23.5861954727
 11
-1.0748694373
 21
-23.5586048377
  0
LINE
  5
32D
100
AcDbEntity
  8
0
100
AcDbLine
 62
7
  6
CONTINUOUS
 10
-0.9968097885
 20
-23.5191935466
 11
-0.9995734709
 21
-23.5466617067
  0
LINE
  5
32E
100
AcDbEntity
  8
0
100
AcDbLine
 62
7
  6
CONTINUOUS
 10
-0.9995734709
 20
-23.5466617067
 11
-1.0309066393
 21
-23.8465881031
  0
LINE
  5
32F
100
AcDbEntity
  8
0
100
AcDbLine
 62
7
  6
CONTINUOUS
 10
-1.1090072098
 20
-23.8863391271
 11
-1.0776479137
 21
-23.5861954727
  0
LINE
  5
330
100
AcDbEntity
  8
0
100
AcDbLine
 62
7
  6
CONTINUOUS
 10
-1.1320753235
 20
-24.0964384568
 11
-1.1090072098
 21
-23.8863391271
  0
LINE
  5
331
100
AcDbEntity
  8
0
100
AcDbLine
 62
7
  6
CONTINUOUS
 10
-1.0309066393
 20
-23.8465881031
 11
-1.0540547226
 21
-24.0574281564
  0
LWPOLYLINE
  5
332
100
AcDbEntity
  8
0
100
AcDbPolyline
 62
7
  6
CONTINUOUS
 90
3
 70
0
 10
-0.7976430381
 20
-23.5992643037
 10
-0.8019032984
 20
-23.6369957547
 10
-0.804249765
 20
-23.6566068951
  0
LINE
  5
333
100
AcDbEntity
  8
0
100
AcDbLine
 62
7
  6
CONTINUOUS
 10
-2.0338161414
 20
-23.1378947115
 11
-2.0834729528
 21
-23.5427189098
  0
LINE
  5
334
100
AcDbEntity
  8
0
100
AcDbLine
 62
7
  6
CONTINUOUS
 10
-0.804249765
 20
-23.6566068951
 11
-0.830885118
 21
-23.8690749654
  0
LINE
  5
335
100
AcDbEntity
  8
0
100
AcDbLine
 62
7
  6
CONTINUOUS
 10
-0.830885118
 20
-23.8690749654
 11
-0.8765411952
 21
-24.224205521
  0
LINE
  5
336
100
AcDbEntity
  8
0
100
AcDbLine
 62
7
  6
CONTINUOUS
 10
-1.9750843768
 20
-22.1141151744
 11
-2.0732525302
 21
-22.8637342612
  0
LINE
  5
337
100
AcDbEntity
  8
0
100
AcDbLine
 62
7
  6
CONTINUOUS
 10
-1.8970637759
 20
-22.075104874
 11
-1.9952319293
 21
-22.8247239607
  0
LINE
  5
338
100
AcDbEntity
  8
0
100
AcDbLine
 62
7
  6
CONTINUOUS
 10
-2.9698976239
 20
-23.1775271751
 11
-2.4954440325
 21
-21.2625700712
  0
LINE
  5
339
100
AcDbEntity
  8
0
100
AcDbLine
 62
7
  6
CONTINUOUS
 10
-2.898458654
 20
-21.8137700232
 11
-3.2297841148
 21
-23.0475839297
  0
LINE
  5
33A
100
AcDbEntity
  8
0
100
AcDbLine
 62
7
  6
CONTINUOUS
 10
-2.8204380531
 20
-21.7747597228
 11
-3.1517635139
 21
-23.0085736292
  0
LWPOLYLINE
  5
33B
100
AcDbEntity
  8
0
100
AcDbPolyline
 62
7
  6
CONTINUOUS
 90
37
 70
0
 10
-0.7678756312
 20
-22.7494619994
 10
-0.7650105839
 20
-22.7395523343
 10
-0.7624404334
 20
-22.7295665429
 10
-0.7601651798
 20
-22.7195046252
 10
-0.7581859229
 20
-22.7093447985
 10
-0.7565015627
 20
-22.6991088456
 10
-0.7551088
 20
-22.6888621143
 10
-0.7540068091
 20
-22.6786150049
 10
-0.7531964155
 20
-22.6683571172
 10
-0.752676797
 20
-22.6581225983
 10
-0.7524458661
 20
-22.6479016719
 10
-0.7525057102
 20
-22.6377041143
 10
-0.7528617689
 20
-22.6275934012
 10
-0.7535154082
 20
-22.6175646069
 10
-0.754465262
 20
-22.6076226571
 10
-0.7557126716
 20
-22.5978458043
 10
-0.7572574477
 20
-22.5882504337
 10
-0.7590997797
 20
-22.5788201602
 10
-0.7612415766
 20
-22.5695840803
 10
-0.7636908231
 20
-22.5605461428
 10
-0.7664395347
 20
-22.5517023989
 10
-0.7694656671
 20
-22.5430700986
 10
-0.7727739323
 20
-22.5346446626
 10
-0.7763596184
 20
-22.5264306703
 10
-0.7801865453
 20
-22.5184591094
 10
-0.7842486403
 20
-22.5107393266
 10
-0.7885519761
 20
-22.5032619753
 10
-0.7930785913
 20
-22.4960300039
 10
-0.7978222931
 20
-22.4890435888
 10
-0.8027892742
 20
-22.4823025536
 10
-0.8079801516
 20
-22.4758093179
 10
-0.8133985505
 20
-22.4695520517
 10
-0.8190408456
 20
-22.4635425849
 10
-0.8248967781
 20
-22.4578188276
 10
-0.8309629283
 20
-22.4523934165
 10
-0.8372427158
 20
-22.4472537148
 10
-0.8437361407
 20
-22.4423997227
  0
LINE
  5
33C
100
AcDbEntity
  8
0
100
AcDbLine
 62
7
  6
CONTINUOUS
 10
-4.0757970274
 20
-20.4722644322
 11
-4.6692972507
 21
-22.3278273617
  0
LINE
  5
33D
100
AcDbEntity
  8
0
100
AcDbLine
 62
7
  6
CONTINUOUS
 10
-4.0192906037
 20
-20.5005176441
 11
-4.5912766498
 21
-22.2888170613
  0
LINE
  5
33E
100
AcDbEntity
  8
0
100
AcDbLine
 62
7
  6
CONTINUOUS
 10
-4.403637233
 20
-22.4606573706
 11
-3.8101370097
 21
-20.6050944411
  0
LINE
  5
33F
100
AcDbEntity
  8
0
100
AcDbLine
 62
7
  6
CONTINUOUS
 10
-1.2169573398
 20
-21.9269583912
 11
-1.8034882632
 21
-23.760731987
  0
LINE
  5
340
100
AcDbEntity
  8
0
100
AcDbLine
 62
7
  6
CONTINUOUS
 10
-1.1568266796
 20
-21.9438805226
 11
-1.7254676623
 21
-23.7217216865
  0
LINE
  5
341
100
AcDbEntity
  8
0
100
AcDbLine
 62
7
  6
CONTINUOUS
 10
-1.2182615974
 20
-22.8586238182
 11
-1.0553440054
 21
-22.3492662266
  0
LINE
  5
342
100
AcDbEntity
  8
0
100
AcDbLine
 62
7
  6
CONTINUOUS
 10
-1.5388971083
 20
-23.8930275644
 11
-1.3066478629
 21
-23.1669063714
  0
LINE
  5
343
100
AcDbEntity
  8
0
100
AcDbLine
 62
7
  6
CONTINUOUS
 10
-0.8434652097
 20
-23.2361232531
 11
-0.8399583516
 21
-23.2251591528
  0
LWPOLYLINE
  5
344
100
AcDbEntity
  8
0
100
AcDbPolyline
 62
7
  6
CONTINUOUS
 90
24
 70
0
 10
-0.6898550306
 20
-22.7104516999
 10
-0.694463041
 20
-22.7248384417
 10
-0.6991910854
 20
-22.7385927558
 10
-0.7040391637
 20
-22.751714642
 10
-0.7090067539
 20
-22.7641818436
 10
-0.714094378
 20
-22.7760166173
 10
-0.7193036025
 20
-22.787285734
 10
-0.7246363209
 20
-22.7979974035
 10
-0.7300906396
 20
-22.808143416
 10
-0.7356624445
 20
-22.817765912
 10
-0.7413604465
 20
-22.8268692429
 10
-0.7471759347
 20
-22.8354490574
 10
-0.7530786618
 20
-22.8435344428
 10
-0.7590660128
 20
-22.851113728
 10
-0.7651406028
 20
-22.858198584
 10
-0.7712800298
 20
-22.8648531113
 10
-0.7774670537
 20
-22.8710781362
 10
-0.7837189146
 20
-22.8768728323
 10
-0.7900649312
 20
-22.8822988209
 10
-0.7965142562
 20
-22.8873794995
 10
-0.8030577368
 20
-22.8920914708
 10
-0.809697234
 20
-22.8964261637
 10
-0.8164324443
 20
-22.9003828804
 10
-0.8223825147
 20
-22.9035247783
  0
LINE
  5
345
100
AcDbEntity
  8
0
100
AcDbLine
 62
7
  6
CONTINUOUS
 10
-4.0064737388
 20
-22.6592391177
 11
-3.5616230568
 21
-21.4763286237
  0
LINE
  5
346
100
AcDbEntity
  8
0
100
AcDbLine
 62
7
  6
CONTINUOUS
 10
-3.5522434012
 20
-20.7341703868
 11
-4.2606241794
 21
-22.5321638974
  0
LINE
  5
347
100
AcDbEntity
  8
0
100
AcDbLine
 62
7
  6
CONTINUOUS
 10
-3.4999028986
 20
-20.7603406382
 11
-4.1826035785
 21
-22.4931535969
  0
LINE
  5
348
100
AcDbEntity
  8
0
100
AcDbLine
 62
7
  6
CONTINUOUS
 10
-4.4398985853
 20
-20.2903427948
 11
-5.0984067844
 21
-21.4425032279
  0
LINE
  5
349
100
AcDbEntity
  8
0
100
AcDbLine
 62
7
  6
CONTINUOUS
 10
-4.3965591653
 20
-20.3120125048
 11
-5.0203861836
 21
-21.4034929275
  0
LINE
  5
34A
100
AcDbEntity
  8
ASSI
100
AcDbLine
 62
7
  6
CONTINUOUS
 10
-10.7879215514
 20
-13.6567377877
 11
-10.5685720169
 21
-13.4977653375
  0
LINE
  5
34B
100
AcDbEntity
  8
ASSI
100
AcDbLine
 62
7
  6
CONTINUOUS
 10
-10.5683779379
 20
-12.9986042768
 11
-12.2693782966
 21
-13.9431804198
  0
LINE
  5
34C
100
AcDbEntity
  8
ASSI
100
AcDbLine
 62
7
  6
CONTINUOUS
 10
-14.8258417834
 20
-10.869872354
 11
-16.7149940695
 21
-11.7203725334
  0
LINE
  5
34D
100
AcDbEntity
  8
ASSI
100
AcDbLine
 62
7
  6
CONTINUOUS
 10
-14.8084493685
 20
-10.8634124592
 11
-14.8180524694
 21
-10.8666029606
  0
LWPOLYLINE
  5
34E
100
AcDbEntity
  8
RACCORDO
100
AcDbPolyline
 62
7
  6
CONTINUOUS
 90
10
 70
0
 10
-42.8691852309
 20
-1.8054778847
 10
-42.8831811355
 20
-1.8072425055
 10
-42.8972604239
 20
-1.8089252535
 10
-42.9114050851
 20
-1.8105070883
 10
-42.925638407
 20
-1.8119540619
 10
-42.9399004522
 20
-1.813257344
 10
-42.9540519966
 20
-1.8144340569
 10
-42.9680391526
 20
-1.8154739988
 10
-42.9818896082
 20
-1.8163388622
 10
-42.9955907919
 20
-1.8170028898
  0
LWPOLYLINE
  5
34F
100
AcDbEntity
  8
RACCORDO
100
AcDbPolyline
 62
7
  6
CONTINUOUS
 90
10
 70
0
 10
37.0275861931
 20
-0.2856037614
 10
37.0369940479
 20
-0.2861351707
 10
37.0470020012
 20
-0.2864895298
 10
37.0576259469
 20
-0.2866689726
 10
37.0689209647
 20
-0.2866914442
 10
37.0808638705
 20
-0.2865475822
 10
37.0933494689
 20
-0.2862036984
 10
37.1063485281
 20
-0.2856578051
 10
37.1199113547
 20
-0.2849367565
 10
37.1340477944
 20
-0.2840551013
  0
LWPOLYLINE
  5
350
100
AcDbEntity
  8
RACCORDO
100
AcDbPolyline
 62
7
  6
CONTINUOUS
 90
10
 70
0
 10
-42.8691857965
 20
39.6627855233
 10
-42.8831708208
 20
39.6739458347
 10
-42.8972463356
 20
39.6856302848
 10
-42.9113939187
 20
39.6978362119
 10
-42.9256415211
 20
39.7105902291
 10
-42.9399233906
 20
39.7238559235
 10
-42.9540852345
 20
39.7375299186
 10
-42.9680690651
 20
39.7515669764
 10
-42.9819082135
 20
39.7659838162
 10
-42.9955907918
 20
39.780764192
  0
LINE
  5
351
100
AcDbEntity
  8
ASSI
100
AcDbLine
 62
7
  6
CONTINUOUS
 10
4.7965547499
 20
-21.9492318007
 11
4.8447734941
 21
-21.7529424508
  0
LINE
  5
352
100
AcDbEntity
  8
0
100
AcDbLine
 62
7
  6
CONTINUOUS
 10
-2.327603082
 20
-22.7365589852
 11
-1.9750843768
 21
-22.1141151744
  0
LINE
  5
353
100
AcDbEntity
  8
0
100
AcDbLine
 62
7
  6
CONTINUOUS
 10
-2.6654040089
 20
-23.3297739826
 11
-2.4736215629
 21
-22.9960126016
  0
LINE
  5
354
100
AcDbEntity
  8
0
100
AcDbLine
 62
7
  6
CONTINUOUS
 10
-1.9355208207
 20
-21.5425316771
 11
-2.9281818594
 21
-23.1983850574
  0
LINE
  5
355
100
AcDbEntity
  8
0
100
AcDbLine
 62
7
  6
CONTINUOUS
 10
-1.8934859972
 20
-21.5635490889
 11
-2.8501612585
 21
-23.1593747569
  0
LINE
  5
356
100
AcDbEntity
  8
0
100
AcDbLine
 62
7
  6
CONTINUOUS
 10
-5.1769779992
 20
-22.0739869874
 11
-4.1744195869
 21
-20.423082294
  0
LINE
  5
357
100
AcDbEntity
  8
0
100
AcDbLine
 62
7
  6
CONTINUOUS
 10
-2.758288351
 20
-21.131147912
 11
-3.3534419194
 21
-22.0284708741
  0
LINE
  5
358
100
AcDbEntity
  8
0
100
AcDbLine
 62
7
  6
CONTINUOUS
 10
-2.719128114
 20
-21.1507280304
 11
-3.2754213185
 21
-21.9894605737
  0
LINE
  5
359
100
AcDbEntity
  8
0
100
AcDbLine
 62
7
  6
CONTINUOUS
 10
-3.600234529
 20
-22.8623587225
 11
-2.898458654
 21
-21.8137700232
  0
LWPOLYLINE
  5
35A
100
AcDbEntity
  8
ASSI
100
AcDbPolyline
 62
7
  6
CONTINUOUS
 90
9
 70
0
 10
-11.1838505339
 20
-14.0927621371
 10
-11.1818713332
 20
-14.0917453139
 10
-11.1682515825
 20
-14.0832971376
 10
-11.1557934551
 20
-14.0728454977
 10
-11.1444711418
 20
-14.0604348891
 10
-11.1345398968
 20
-14.0463451067
 10
-11.1260848051
 20
-14.0306694156
 10
-11.1190207817
 20
-14.0133145509
 10
-11.1133478268
 20
-13.9942805124
  0
LINE
  5
35B
100
AcDbEntity
  8
RACCORDO
100
AcDbLine
 62
7
  6
CONTINUOUS
 10
51.4210473064
 20
13.7531929374
 11
54.4410340787
 21
15.2966087081
  0
LINE
  5
35C
100
AcDbEntity
  8
ASSI
100
AcDbLine
 62
7
  6
CONTINUOUS
 10
-10.7879215514
 20
-13.6567377877
 11
-11.8053675883
 21
-14.175185774
  0
LINE
  5
35D
100
AcDbEntity
  8
ASSI
100
AcDbLine
 62
7
  6
CONTINUOUS
 10
-11.1838655369
 20
-14.0928022866
 11
-11.5759169442
 21
-14.289911096
  0
LINE
  5
35E
100
AcDbEntity
  8
ASSI
100
AcDbLine
 62
7
  6
CONTINUOUS
 10
-11.1133478268
 20
-13.9942805124
 11
-11.6390838016
 21
-14.2583276673
  0
LINE
  5
35F
100
AcDbEntity
  8
ASSI
100
AcDbLine
 62
7
  6
CONTINUOUS
 10
-10.561364408
 20
-13.463771856
 11
-11.8971786539
 21
-14.1292802412
  0
LWPOLYLINE
  5
360
100
AcDbEntity
  8
ASSI
100
AcDbPolyline
 62
7
  6
CONTINUOUS
 90
11
 70
0
 10
-10.561364408
 20
-12.9949469913
 10
-10.5532495018
 20
-12.9910123926
 10
-10.5456266409
 20
-12.9875092802
 10
-10.5385614339
 20
-12.9844459447
 10
-10.5321130162
 20
-12.9818167786
 10
-10.5263577323
 20
-12.9796528806
 10
-10.5213786952
 20
-12.9780245396
 10
-10.517225911
 20
-12.9769841428
 10
-10.5139635813
 20
-12.9765281764
 10
-10.5116591298
 20
-12.9766526106
 10
-10.5110095249
 20
-12.9768753783
  0
LINE
  5
361
100
AcDbEntity
  8
DRAFT
100
AcDbLine
 62
7
  6
CONTINUOUS
 10
55.7421126479
 20
13.6390891099
 11
56.5993546956
 21
14.0250212132
  0
LINE
  5
362
100
AcDbEntity
  8
DRAFT
100
AcDbLine
 62
7
  6
CONTINUOUS
 10
55.0985925463
 20
14.796830634
 11
55.8922479145
 21
15.2446000076
  0
LINE
  5
363
100
AcDbEntity
  8
RACCORDO
100
AcDbLine
 62
7
  6
CONTINUOUS
 10
52.7885318462
 20
11.455084115
 11
55.8347552034
 21
13.0119162539
  0
LINE
  5
364
100
AcDbEntity
  8
RACCORDO
100
AcDbLine
 62
7
  6
CONTINUOUS
 10
37.5917642715
 20
0.6878247154
 11
37.9371157699
 21
0.8630461066
  0
LINE
  5
365
100
AcDbEntity
  8
RACCORDO
100
AcDbLine
 62
7
  6
CONTINUOUS
 10
38.2714280242
 20
-0.4966880661
 11
38.5903362534
 21
-0.3348612563
  0
LINE
  5
366
100
AcDbEntity
  8
0
100
AcDbLine
 62
7
  6
CONTINUOUS
 10
-5.0984067844
 20
-21.4425032279
 11
-5.0203861836
 21
-21.4034929275
  0
LINE
  5
367
100
AcDbEntity
  8
0
100
AcDbLine
 62
7
  6
CONTINUOUS
 10
-5.411091155
 20
-21.9569304095
 11
-5.3330705541
 21
-21.9179201091
  0
LINE
  5
368
100
AcDbEntity
  8
0
100
AcDbLine
 62
7
  6
CONTINUOUS
 10
-3.5616230568
 20
-21.4763286237
 11
-3.4836024559
 21
-21.4373183233
  0
LINE
  5
369
100
AcDbEntity
  8
0
100
AcDbLine
 62
7
  6
CONTINUOUS
 10
-4.6692972507
 20
-22.3278273617
 11
-4.5912766498
 21
-22.2888170613
  0
LINE
  5
36A
100
AcDbEntity
  8
0
100
AcDbLine
 62
7
  6
CONTINUOUS
 10
-3.3534419194
 20
-22.0284708741
 11
-3.2754213185
 21
-21.9894605737
  0
LINE
  5
36B
100
AcDbEntity
  8
0
100
AcDbLine
 62
7
  6
CONTINUOUS
 10
-2.898458654
 20
-21.8137700232
 11
-2.8204380531
 21
-21.7747597228
  0
LINE
  5
36C
100
AcDbEntity
  8
0
100
AcDbLine
 62
7
  6
CONTINUOUS
 10
-4.2606241794
 20
-22.5321638974
 11
-4.1826035785
 21
-22.4931535969
  0
LINE
  5
36D
100
AcDbEntity
  8
ASSI
100
AcDbLine
 62
7
  6
CONTINUOUS
 10
1.0840607933
 20
-18.8248236423
 11
-0.8050914928
 21
-19.6753238217
  0
LINE
  5
36E
100
AcDbEntity
  8
ASSI
100
AcDbLine
 62
7
  6
CONTINUOUS
 10
1.1014532082
 20
-18.8183637476
 11
1.0918501073
 21
-18.821554249
  0
LWPOLYLINE
  5
36F
100
AcDbEntity
  8
RACCORDO
100
AcDbPolyline
 62
7
  6
CONTINUOUS
 90
28
 70
0
 10
38.1359094741
 20
-0.4959083138
 10
38.1400242938
 20
-0.4977438903
 10
38.1443352244
 20
-0.4994632646
 10
38.1488291568
 20
-0.501061208
 10
38.1534924254
 20
-0.5025328613
 10
38.1583108498
 20
-0.5038737494
 10
38.1632697774
 20
-0.5050797945
 10
38.1683541287
 20
-0.5061473293
 10
38.1735484427
 20
-0.5070731074
 10
38.1788369238
 20
-0.5078543134
 10
38.1842034903
 20
-0.5084885719
 10
38.1896318228
 20
-0.5089739539
 10
38.1951054144
 20
-0.5093089835
 10
38.2006076201
 20
-0.5094926417
 10
38.2061217084
 20
-0.5095243701
 10
38.2116309111
 20
-0.5094040722
 10
38.2171184752
 20
-0.5091321137
 10
38.2225677136
 20
-0.5087093215
 10
38.2279620553
 20
-0.5081369814
 10
38.2332850967
 20
-0.5074168337
 10
38.2385206507
 20
-0.5065510683
 10
38.2436527963
 20
-0.5055423179
 10
38.248665927
 20
-0.5043936501
 10
38.2535447983
 20
-0.5031085579
 10
38.2582745738
 20
-0.501690949
 10
38.2628408706
 20
-0.5001451343
 10
38.2672298028
 20
-0.4984758146
 10
38.2714280242
 20
-0.4966880661
  0
LWPOLYLINE
  5
370
100
AcDbEntity
  8
RACCORDO
100
AcDbPolyline
 62
7
  6
CONTINUOUS
 90
34
 70
0
 10
-42.3341305481
 20
38.811367366
 10
-42.3407303898
 20
38.8143534418
 10
-42.3475892459
 20
38.8170406622
 10
-42.354692503
 20
38.8194233019
 10
-42.3620250273
 20
38.8214962847
 10
-42.3695711966
 20
38.8232551939
 10
-42.3773149333
 20
38.824696282
 10
-42.385239739
 20
38.8258164788
 10
-42.3933287295
 20
38.8266133976
 10
-42.4015646708
 20
38.8270853405
 10
-42.4099300157
 20
38.8272313021
 10
-42.4184069414
 20
38.8270509713
 10
-42.4269773875
 20
38.8265447324
 10
-42.4356230942
 20
38.825713664
 10
-42.4443256413
 20
38.8245595366
 10
-42.4530664875
 20
38.8230848092
 10
-42.4618270101
 20
38.8212926237
 10
-42.4705885444
 20
38.8191867986
 10
-42.4793324233
 20
38.8167718204
 10
-42.4880400177
 20
38.8140528344
 10
-42.4966927756
 20
38.8110356334
 10
-42.5052722617
 20
38.8077266457
 10
-42.513760197
 20
38.8041329214
 10
-42.5221384977
 20
38.8002621171
 10
-42.5303893131
 20
38.7961224797
 10
-42.5384950647
 20
38.7917228289
 10
-42.5464384826
 20
38.7870725384
 10
-42.554202643
 20
38.7821815159
 10
-42.5617710039
 20
38.777060182
 10
-42.5691274405
 20
38.7717194479
 10
-42.5762562796
 20
38.7661706924
 10
-42.5831423329
 20
38.7604257373
 10
-42.5897709291
 20
38.7544968226
 10
-42.5961279458
 20
38.7483965802
  0
LWPOLYLINE
  5
371
100
AcDbEntity
  8
RACCORDO
100
AcDbPolyline
 62
7
  6
CONTINUOUS
 90
34
 70
0
 10
-42.4543529177
 20
39.0572796675
 10
-42.4609527507
 20
39.0602657396
 10
-42.4678115981
 20
39.0629529574
 10
-42.4749148466
 20
39.0653355955
 10
-42.4822473627
 20
39.0674085775
 10
-42.489793524
 20
39.0691674866
 10
-42.4975372532
 20
39.0706085755
 10
-42.5054620519
 20
39.0717287737
 10
-42.5135510361
 20
39.0725256944
 10
-42.5217869716
 20
39.0729976397
 10
-42.5301523116
 20
39.073143604
 10
-42.5386292333
 20
39.0729632762
 10
-42.5471996761
 20
39.0724570405
 10
-42.5558453803
 20
39.0716259753
 10
-42.5645479259
 20
39.0704718512
 10
-42.5732887714
 20
39.068997127
 10
-42.5820492943
 20
39.0672049446
 10
-42.5908108296
 20
39.0650991223
 10
-42.5995547104
 20
39.0626841466
 10
-42.6082623074
 20
39.0599651626
 10
-42.6169150686
 20
39.0569479633
 10
-42.6254945587
 20
39.0536389769
 10
-42.6339824988
 20
39.0500452533
 10
-42.6423608046
 20
39.0461744491
 10
-42.6506116257
 20
39.0420348112
 10
-42.6587173833
 20
39.0376351594
 10
-42.6666608075
 20
39.0329848673
 10
-42.6744249744
 20
39.0280938426
 10
-42.6819933419
 20
39.0229725058
 10
-42.6893497852
 20
39.0176317683
 10
-42.6964786308
 20
39.0120830088
 10
-42.7033646904
 20
39.0063380492
 10
-42.7099932928
 20
39.0004091296
 10
-42.7163503153
 20
38.9943088817
  0
LWPOLYLINE
  5
372
100
AcDbEntity
  8
RACCORDO
100
AcDbPolyline
 62
7
  6
CONTINUOUS
 90
49
 70
0
 10
-42.9955908029
 20
39.7807641873
 10
-41.3734278157
 20
39.0458410393
 10
-39.7491814926
 20
38.3066367293
 10
-38.1228540116
 20
37.5631525436
 10
-36.4944394279
 20
36.8153863914
 10
-34.8639480314
 20
36.0633429416
 10
-33.2314064484
 20
35.3070335743
 10
-31.5968174078
 20
34.5464594077
 10
-29.9601827491
 20
33.7816217965
 10
-28.321527947
 20
33.0125323888
 10
-26.6808553876
 20
32.239192062
 10
-25.038167442
 20
31.4616023208
 10
-23.3934897384
 20
30.6797756686
 10
-21.7468244062
 20
29.8937127641
 10
-20.0981742601
 20
29.1034152392
 10
-18.4475661354
 20
28.30889697
 10
-16.7950051797
 20
27.5101600135
 10
-15.1404913901
 20
26.707204503
 10
-13.4840440287
 20
25.9000413536
 10
-11.8256790695
 20
25.0886781441
 10
-10.1653858443
 20
24.2731094033
 10
-8.5031436308
 20
23.4533264805
 10
-6.8389647784
 20
22.6293357579
 10
-5.1728420796
 20
21.8011330386
 10
-3.5047252073
 20
20.9686939365
 10
-1.8346165555
 20
20.1320202911
 10
-0.1625184847
 20
19.2911126396
 10
1.5116197576
 20
18.4459448308
 10
3.1878058128
 20
17.5965136383
 10
4.8660276682
 20
16.742824859
 10
6.546306864
 20
15.8848660122
 10
8.2286548234
 20
15.0226315242
 10
9.9130559081
 20
14.1561296216
 10
11.5994910844
 20
13.2853685341
 10
13.2879608363
 20
12.4103478846
 10
14.9784603
 20
11.531070623
 10
16.6709622683
 20
10.6475498923
 10
18.3654640914
 20
9.759786793
 10
20.0619638387
 20
8.867782697
 10
21.7604352066
 20
7.9715510645
 10
23.4608758167
 20
7.0710927662
 10
25.1632832836
 20
6.1664093103
 10
26.8676311237
 20
5.257515025
 10
28.5739173341
 20
4.3444104775
 10
30.2821389725
 20
3.4270973852
 10
31.9922679725
 20
2.5055917113
 10
33.7042932279
 20
1.5798994841
 10
35.4182206892
 20
0.6500168483
 10
37.1340477849
 20
-0.2840551069
  0
LWPOLYLINE
  5
373
100
AcDbEntity
  8
RACCORDO
100
AcDbPolyline
 62
7
  6
CONTINUOUS
 90
50
 70
0
 10
-42.8691846688
 20
39.6627850255
 10
-41.0350247564
 20
38.8313274094
 10
-39.1983681
 20
37.9944759481
 10
-37.3592146998
 20
37.1522306415
 10
-35.517557158
 20
36.3045872905
 10
-33.6734028723
 20
35.4515500942
 10
-31.8267740359
 20
34.5931316499
 10
-29.9776888708
 20
33.7293405472
 10
-28.126129155
 20
32.8601681964
 10
-26.2720624161
 20
31.9856014265
 10
-24.4154532316
 20
31.1056233821
 10
-22.5563370241
 20
30.2202509185
 10
-20.6947875881
 20
29.3295214303
 10
-18.8310233699
 20
28.4335420324
 10
-16.9648259233
 20
27.5322056099
 10
-15.0956137047
 20
26.6252282127
 10
-13.2133661399
 20
25.7076100658
 10
-11.328103803
 20
24.7843509442
 10
-9.4693068724
 20
23.8701662231
 10
-7.6352016131
 20
22.9639199259
 10
-5.82756176
 20
22.0667480293
 10
-4.0811886966
 20
21.1967738388
 10
-2.4072163055
 20
20.3594466929
 10
-0.7945107041
 20
19.5493172533
 10
0.7555283715
 20
18.7681608104
 10
2.239297088
 20
18.0178675381
 10
3.6603992787
 20
17.2965472627
 10
5.028246707
 20
16.6003047531
 10
6.3432537889
 20
15.9290170402
 10
7.6050061084
 20
15.2828070931
 10
8.8216721804
 20
14.6581485888
 10
9.993875496
 20
14.0547846345
 10
11.1209925641
 20
13.472972123
 10
12.2093214262
 20
12.90995541
 10
13.2592691406
 20
12.3655687203
 10
14.2704286489
 20
11.8399778291
 10
15.2478768173
 20
11.3309244174
 10
16.1919150614
 20
10.8382843134
 10
17.1022419656
 20
10.362181689
 10
17.9830301488
 20
9.9007307403
 10
18.8344432491
 20
9.4538706409
 10
19.6563176286
 20
9.0216622173
 10
20.4523349918
 20
8.6024021453
 10
21.2226800661
 20
8.1960123245
 10
21.9671681242
 20
7.8025708553
 10
22.6889266886
 20
7.4206087157
 10
23.3880009562
 20
7.0501172078
 10
24.06434573
 20
6.6911050294
 10
24.7209529417
 20
6.3421292518
 10
25.3582431628
 20
6.0029772814
  0
LINE
  5
374
100
AcDbEntity
  8
RACCORDO
100
AcDbLine
 62
7
  6
CONTINUOUS
 10
37.0713600643
 20
-0.9469676681
 11
-42.2302046019
 21
38.703814665
  0
LINE
  5
375
100
AcDbEntity
  8
RACCORDO
100
AcDbLine
 62
7
  6
CONTINUOUS
 10
37.0713600643
 20
-0.8913774669
 11
-42.3341314787
 21
38.8113692695
  0
LWPOLYLINE
  5
376
100
AcDbEntity
  8
RACCORDO
100
AcDbPolyline
 62
7
  6
CONTINUOUS
 90
16
 70
0
 10
-42.2303022768
 20
38.7038635329
 10
-42.2386766385
 20
38.7082885088
 10
-42.2471924759
 20
38.7132897312
 10
-42.2554794666
 20
38.7186823558
 10
-42.2635324823
 20
38.7244640537
 10
-42.2713420162
 20
38.7306289858
 10
-42.2788947611
 20
38.737167273
 10
-42.2861849575
 20
38.74407365
 10
-42.2932059506
 20
38.751341411
 10
-42.2999445866
 20
38.758956239
 10
-42.3063959286
 20
38.7669103297
 10
-42.3125554319
 20
38.7751955639
 10
-42.3184124061
 20
38.7837947289
 10
-42.3239615597
 20
38.792695196
 10
-42.3292021444
 20
38.8018900333
 10
-42.3341315033
 20
38.8113692818
  0
LWPOLYLINE
  5
377
100
AcDbEntity
  8
RACCORDO
100
AcDbPolyline
 62
7
  6
CONTINUOUS
 90
3
 70
0
 10
25.3582431628
 20
6.0029772814
 10
26.5753411353
 20
5.3539773949
 10
27.1571097519
 20
5.0432082993
  0
LINE
  5
378
100
AcDbEntity
  8
RACCORDO
100
AcDbLine
 62
7
  6
CONTINUOUS
 10
27.1571097519
 20
5.0432082993
 11
28.2676632222
 21
4.4489068121
  0
LINE
  5
379
100
AcDbEntity
  8
RACCORDO
100
AcDbLine
 62
7
  6
CONTINUOUS
 10
28.2676632222
 20
4.4489068121
 11
29.3103460466
 21
3.8897099958
  0
LINE
  5
37A
100
AcDbEntity
  8
RACCORDO
100
AcDbLine
 62
7
  6
CONTINUOUS
 10
29.3103460466
 20
3.8897099958
 11
30.2882802526
 21
3.3641875263
  0
LINE
  5
37B
100
AcDbEntity
  8
RACCORDO
100
AcDbLine
 62
7
  6
CONTINUOUS
 10
30.2882802526
 20
3.3641875263
 11
31.203410693
 21
2.871449185
  0
LINE
  5
37C
100
AcDbEntity
  8
RACCORDO
100
AcDbLine
 62
7
  6
CONTINUOUS
 10
31.203410693
 20
2.871449185
 11
32.058708482
 21
2.4101118304
  0
LINE
  5
37D
100
AcDbEntity
  8
RACCORDO
100
AcDbLine
 62
7
  6
CONTINUOUS
 10
32.058708482
 20
2.4101118304
 11
32.8554807162
 21
1.9796483217
  0
LINE
  5
37E
100
AcDbEntity
  8
RACCORDO
100
AcDbLine
 62
7
  6
CONTINUOUS
 10
32.8554807162
 20
1.9796483217
 11
33.5947191758
 21
1.5796364346
  0
LINE
  5
37F
100
AcDbEntity
  8
RACCORDO
100
AcDbLine
 62
7
  6
CONTINUOUS
 10
33.5947191758
 20
1.5796364346
 11
34.5988066454
 21
1.0353784974
  0
LINE
  5
380
100
AcDbEntity
  8
RACCORDO
100
AcDbLine
 62
7
  6
CONTINUOUS
 10
34.5988066454
 20
1.0353784974
 11
35.4906460722
 21
0.5510546959
  0
LINE
  5
381
100
AcDbEntity
  8
RACCORDO
100
AcDbLine
 62
7
  6
CONTINUOUS
 10
35.4906460722
 20
0.5510546959
 11
36.2923167895
 21
0.1149694583
  0
LWPOLYLINE
  5
382
100
AcDbEntity
  8
RACCORDO
100
AcDbPolyline
 62
7
  6
CONTINUOUS
 90
46
 70
0
 10
37.5223568847
 20
0.5692378678
 10
35.6755928008
 20
1.5751442621
 10
33.8309453355
 20
2.576234757
 10
31.988417996
 20
3.5725081546
 10
30.1480081882
 20
4.5639659201
 10
28.3097255285
 20
5.5506041929
 10
26.4735917699
 20
6.5324137481
 10
24.6396097892
 20
7.509393685
 10
22.8077835684
 20
8.4815424162
 10
20.9781363732
 20
9.4488496091
 10
19.1506738648
 20
10.4113128236
 10
17.3253970698
 20
11.3689319171
 10
15.5023221754
 20
12.321699936
 10
13.6814469979
 20
13.2696184392
 10
11.8627803143
 20
14.2126832317
 10
10.0463545898
 20
15.1508786445
 10
8.2321765568
 20
16.0842014282
 10
6.4202458143
 20
17.0126520583
 10
4.6105839422
 20
17.9362203579
 10
2.8031990738
 20
18.854902474
 10
0.9980892426
 20
19.7686993999
 10
-0.8047392088
 20
20.6776081838
 10
-2.6052974577
 20
21.5816345348
 10
-4.403568157
 20
22.4807698842
 10
-6.1995023717
 20
23.3749897645
 10
-7.9930830298
 20
24.2642855351
 10
-9.7843214844
 20
25.1486627518
 10
-11.5732116343
 20
26.0281181448
 10
-13.3597556081
 20
26.9026527681
 10
-15.1439455582
 20
27.7722624844
 10
-16.9257605099
 20
28.6369361932
 10
-18.7052011837
 20
29.4966739798
 10
-20.4822613112
 20
30.3514725933
 10
-22.256909625
 20
31.2013158361
 10
-24.0291381549
 20
32.0461995295
 10
-25.7989495986
 20
32.8861245554
 10
-27.5663288588
 20
33.7210822252
 10
-29.3312755841
 20
34.5510719928
 10
-31.0937849605
 20
35.3760910604
 10
-32.8538353303
 20
36.196127299
 10
-34.611423671
 20
37.0111787938
 10
-36.366548029
 20
37.8212440302
 10
-38.1191885041
 20
38.6263114063
 10
-39.8693368919
 20
39.4263758719
 10
-41.616996606
 20
40.2214389662
 10
-43.3621652506
 20
41.0114989355
  0
LWPOLYLINE
  5
383
100
AcDbEntity
  8
RACCORDO
100
AcDbPolyline
 62
7
  6
CONTINUOUS
 90
46
 70
0
 10
37.5917642715
 20
0.6878247154
 10
35.7448973866
 20
1.6938012804
 10
33.9001454911
 20
2.6949605401
 10
32.0575106308
 20
3.691302921
 10
30.2169965987
 20
4.6828277924
 10
28.3786120236
 20
5.66953175
 10
26.542367159
 20
6.6514105129
 10
24.7082751172
 20
7.6284582601
 10
22.8763475626
 20
8.600669885
 10
21.0465932822
 20
9.5680417676
 10
19.2190224263
 20
10.5305694883
 10
17.3936429048
 20
11.488249728
 10
15.5704594723
 20
12.4410808205
 10
13.7494764341
 20
13.3890612646
 10
11.9307073596
 20
14.3321845925
 10
10.1141711474
 20
15.2704415912
 10
8.2998822527
 20
16.2038253737
 10
6.4878484647
 20
17.1323324369
 10
4.6780786598
 20
18.0559586867
 10
2.8705854282
 20
18.9746980863
 10
1.065371862
 20
19.8885492991
 10
-0.7375674186
 20
20.7975152065
 10
-2.5382358436
 20
21.7015975989
 10
-4.336609898
 20
22.6007846258
 10
-6.1326545723
 20
23.4950587824
 10
-7.9263465304
 20
24.3844084939
 10
-9.7176894456
 20
25.2688355214
 10
-11.5066888718
 20
26.1483424504
 10
-13.2933419134
 20
27.0229276235
 10
-15.0776363865
 20
27.8925846908
 10
-16.8595638059
 20
28.7573090655
 10
-18.6391167559
 20
29.617096648
 10
-20.416281475
 20
30.4719402171
 10
-22.1910399879
 20
31.3218305488
 10
-23.9633795901
 20
32.1667609736
 10
-25.7332966875
 20
33.0067290432
 10
-27.5007872695
 20
33.8417320413
 10
-29.265844294
 20
34.6717658111
 10
-31.0284586985
 20
35.4968251659
 10
-32.7886227613
 20
36.3169054712
 10
-34.5463259762
 20
37.1320007481
 10
-36.3015566217
 20
37.9421044008
 10
-38.0543058329
 20
38.7472111511
 10
-39.8045663124
 20
39.5473164405
 10
-41.5523353917
 20
40.3424176688
 10
-43.2976120808
 20
41.1325128916
  0
LINE
  5
384
100
AcDbEntity
  8
RACCORDO
100
AcDbLine
 62
7
  6
CONTINUOUS
 10
36.2923167895
 20
0.1149694583
 11
37.027590423
 21
-0.2856060648
  0
LWPOLYLINE
  5
385
100
AcDbEntity
  8
RACCORDO
100
AcDbPolyline
 62
7
  6
CONTINUOUS
 90
15
 70
0
 10
-43.9409718333
 20
40.5425323399
 10
-43.9446429912
 20
40.5445897526
 10
-43.9480817434
 20
40.5467452207
 10
-43.951277633
 20
40.5489921896
 10
-43.9542209415
 20
40.5513238265
 10
-43.9569027185
 20
40.5537330411
 10
-43.9593148091
 20
40.5562125071
 10
-43.9614498782
 20
40.5587546847
 10
-43.9633014332
 20
40.5613518433
 10
-43.9648638438
 20
40.5639960852
 10
-43.9661323587
 20
40.5666793695
 10
-43.9671031205
 20
40.5693935364
 10
-43.9677731772
 20
40.5721303325
 10
-43.9681404913
 20
40.5748814354
 10
-43.9682168553
 20
40.576833267
  0
LWPOLYLINE
  5
386
100
AcDbEntity
  8
RACCORDO
100
AcDbPolyline
 62
7
  6
CONTINUOUS
 90
6
 70
0
 10
38.6242376557
 20
-0.4375117619
 10
38.6125037622
 20
-0.4309109606
 10
38.6032755301
 20
-0.4233809158
 10
38.5968408495
 20
-0.4151565397
 10
38.593400461
 20
-0.4064944052
 10
38.592822032
 20
-0.4011243213
  0
LINE
  5
387
100
AcDbEntity
  8
ASSI
100
AcDbLine
 62
7
  6
CONTINUOUS
 10
21.2584407454
 20
-28.904849568
 11
21.2584407454
 21
-29.3736744327
  0
LINE
  5
388
100
AcDbEntity
  8
ASSI
100
AcDbLine
 62
7
  6
CONTINUOUS
 10
21.3098117803
 20
-28.8890964992
 11
21.3098117803
 21
-29.3563408543
  0
LINE
  5
389
100
AcDbEntity
  8
ASSI
100
AcDbLine
 62
7
  6
CONTINUOUS
 10
5.1219810253
 20
-21.6116890761
 11
5.3413305598
 21
-21.4527166259
  0
LINE
  5
38A
100
AcDbEntity
  8
ASSI
100
AcDbLine
 62
7
  6
CONTINUOUS
 10
5.3415246388
 20
-20.9535555651
 11
3.6405242801
 21
-21.8981317082
  0
LWPOLYLINE
  5
38B
100
AcDbEntity
  8
0
100
AcDbPolyline
 62
7
  6
CONTINUOUS
 90
24
 70
0
 10
-0.900403189
 20
-22.9425348092
 10
-0.8943068083
 20
-22.9393109205
 10
-0.8875393197
 20
-22.9353254152
 10
-0.8808761478
 20
-22.9309634338
 10
-0.8743156898
 20
-22.9262245527
 10
-0.8678534975
 20
-22.9211182111
 10
-0.8614987839
 20
-22.9156686783
 10
-0.8552423361
 20
-22.9098516849
 10
-0.8490520677
 20
-22.903603861
 10
-0.8429085679
 20
-22.8969232952
 10
-0.8368312476
 20
-22.889811899
 10
-0.8308462521
 20
-22.8822120373
 10
-0.8249526579
 20
-22.8741129648
 10
-0.8191513884
 20
-22.8655254267
 10
-0.8134713603
 20
-22.8564240235
 10
-0.8079229719
 20
-22.8468177135
 10
-0.8024958247
 20
-22.8366975385
 10
-0.7971876398
 20
-22.8260112239
 10
-0.7919960482
 20
-22.814757562
 10
-0.7869234188
 20
-22.8029377607
 10
-0.7819745797
 20
-22.7905031689
 10
-0.77715114
 20
-22.7774375695
 10
-0.7724514905
 20
-22.7637571797
 10
-0.7678756312
 20
-22.7494619994
  0
LWPOLYLINE
  5
38C
100
AcDbEntity
  8
ASSI
100
AcDbPolyline
 62
7
  6
CONTINUOUS
 90
9
 70
0
 10
4.7260520428
 20
-22.0477134255
 10
4.7280312435
 20
-22.0466966022
 10
4.7416509942
 20
-22.038248426
 10
4.7541091216
 20
-22.0277967861
 10
4.7654314349
 20
-22.0153861774
 10
4.7753626799
 20
-22.001296395
 10
4.7838177716
 20
-21.985620704
 10
4.790881795
 20
-21.9682658392
 10
4.7965547499
 20
-21.9492318007
  0
LINE
  5
38D
100
AcDbEntity
  8
ASSI
100
AcDbLine
 62
7
  6
CONTINUOUS
 10
5.1219810253
 20
-21.6116890761
 11
4.1045349884
 21
-22.1301370623
  0
LINE
  5
38E
100
AcDbEntity
  8
ASSI
100
AcDbLine
 62
7
  6
CONTINUOUS
 10
4.7260370398
 20
-22.0477535749
 11
4.3339856325
 21
-22.2448623844
  0
LINE
  5
38F
100
AcDbEntity
  8
ASSI
100
AcDbLine
 62
7
  6
CONTINUOUS
 10
4.7965547499
 20
-21.9492318007
 11
4.2708187751
 21
-22.2132789557
  0
LINE
  5
390
100
AcDbEntity
  8
0
100
AcDbLine
 62
7
  6
CONTINUOUS
 10
-3.6374933995
 20
-22.8437292873
 11
-3.5627580378
 21
-22.8063616064
  0
LINE
  5
391
100
AcDbEntity
  8
0
100
AcDbLine
 62
7
  6
CONTINUOUS
 10
-1.9750843768
 20
-22.1141151744
 11
-1.8970637759
 21
-22.075104874
  0
LINE
  5
392
100
AcDbEntity
  8
0
100
AcDbLine
 62
7
  6
CONTINUOUS
 10
-3.2297841148
 20
-23.0475839297
 11
-3.1517635139
 21
-23.0085736292
  0
LINE
  5
393
100
AcDbEntity
  8
0
100
AcDbLine
 62
7
  6
CONTINUOUS
 10
-2.9281818594
 20
-23.1983850574
 11
-2.8501612585
 21
-23.1593747569
  0
LINE
  5
394
100
AcDbEntity
  8
0
100
AcDbLine
 62
7
  6
CONTINUOUS
 10
-2.4736215629
 20
-22.9960126016
 11
-2.395600962
 21
-22.9570023012
  0
LINE
  5
395
100
AcDbEntity
  8
0
100
AcDbLine
 62
7
  6
CONTINUOUS
 10
-1.0553440054
 20
-22.3492662266
 11
-0.9773234045
 21
-22.3102559262
  0
LINE
  5
396
100
AcDbEntity
  8
0
100
AcDbLine
 62
7
  6
CONTINUOUS
 10
-2.0732525302
 20
-22.8637342612
 11
-1.9952319293
 21
-22.8247239607
  0
LINE
  5
397
100
AcDbEntity
  8
0
100
AcDbLine
 62
7
  6
CONTINUOUS
 10
-0.8437361415
 20
-22.4423997221
 11
-0.7657155406
 21
-22.4033894216
  0
LINE
  5
398
100
AcDbEntity
  8
0
100
AcDbLine
 62
7
  6
CONTINUOUS
 10
-2.1118367423
 20
-23.1769050119
 11
-2.0338161414
 21
-23.1378947115
  0
LINE
  5
399
100
AcDbEntity
  8
0
100
AcDbLine
 62
7
  6
CONTINUOUS
 10
-0.7678756574
 20
-22.7494620758
 11
-0.6898550565
 21
-22.7104517753
  0
LINE
  5
39A
100
AcDbEntity
  8
0
100
AcDbLine
 62
7
  6
CONTINUOUS
 10
-2.1614935537
 20
-23.5817292102
 11
-2.0834729528
 21
-23.5427189098
  0
LINE
  5
39B
100
AcDbEntity
  8
0
100
AcDbLine
 62
7
  6
CONTINUOUS
 10
-1.3066478629
 20
-23.1669063714
 11
-1.228627262
 21
-23.1278960709
  0
LINE
  5
39C
100
AcDbEntity
  8
0
100
AcDbLine
 62
7
  6
CONTINUOUS
 10
-1.1642072703
 20
-23.2381266676
 11
-1.0861866694
 21
-23.1991163672
  0
LINE
  5
39D
100
AcDbEntity
  8
0
100
AcDbLine
 62
7
  6
CONTINUOUS
 10
-0.8399583516
 20
-23.2251591528
 11
-0.7619377507
 21
-23.1861488524
  0
LINE
  5
39E
100
AcDbEntity
  8
0
100
AcDbLine
 62
7
  6
CONTINUOUS
 10
-1.8034882632
 20
-23.760731987
 11
-1.7254676623
 21
-23.7217216865
  0
LINE
  5
39F
100
AcDbEntity
  8
0
100
AcDbLine
 62
7
  6
CONTINUOUS
 10
-1.0682752171
 20
-23.4755608717
 11
-0.9902546162
 21
-23.4365505712
  0
LINE
  5
3A0
100
AcDbEntity
  8
0
100
AcDbLine
 62
7
  6
CONTINUOUS
 10
-1.1320753235
 20
-24.0964384568
 11
-1.0540547226
 21
-24.0574281564
  0
LINE
  5
3A1
100
AcDbEntity
  8
ASSI
100
AcDbLine
 62
7
  6
CONTINUOUS
 10
5.3485381687
 20
-21.4187231444
 11
4.0127239228
 21
-22.0842315295
  0
LWPOLYLINE
  5
3A2
100
AcDbEntity
  8
0
100
AcDbPolyline
 62
7
  6
CONTINUOUS
 90
17
 70
0
 10
-0.7733083449
 20
-23.2053561463
 10
-0.7762688734
 20
-23.2068123107
 10
-0.7797535848
 20
-23.2084724161
 10
-0.7831449498
 20
-23.2100269471
 10
-0.7864423561
 20
-23.2114757347
 10
-0.7896510083
 20
-23.2128325326
 10
-0.7927707715
 20
-23.214095881
 10
-0.7958017805
 20
-23.2152672398
 10
-0.7987496438
 20
-23.2163647426
 10
-0.8016137824
 20
-23.2173887173
 10
-0.8043947753
 20
-23.2183388361
 10
-0.8070999684
 20
-23.2192322489
 10
-0.8097289064
 20
-23.2200701232
 10
-0.8122820445
 20
-23.2208512915
 10
-0.8147680946
 20
-23.2215894011
 10
-0.8171866017
 20
-23.2222885292
 10
-0.8195380207
 20
-23.2229445985
  0
LWPOLYLINE
  5
3A3
100
AcDbEntity
  8
ASSI
100
AcDbPolyline
 62
7
  6
CONTINUOUS
 90
11
 70
0
 10
5.3485381687
 20
-20.9498982797
 10
5.3566530749
 20
-20.945963681
 10
5.3642759358
 20
-20.9424605685
 10
5.3713411428
 20
-20.939397233
 10
5.3777895605
 20
-20.936768067
 10
5.3835448444
 20
-20.934604169
 10
5.3885238815
 20
-20.932975828
 10
5.3926766657
 20
-20.9319354312
 10
5.3959389954
 20
-20.9314794648
 10
5.3982434469
 20
-20.931603899
 10
5.3988930518
 20
-20.9318266667
  0
LINE
  5
3A4
100
AcDbEntity
  8
RACCORDO
100
AcDbLine
 62
7
  6
CONTINUOUS
 10
-43.5037378939
 20
41.595688872
 11
-43.4600127758
 21
41.5776414167
  0
LWPOLYLINE
  5
3A5
100
AcDbEntity
  8
RACCORDO
100
AcDbPolyline
 62
7
  6
CONTINUOUS
 90
24
 70
0
 10
-43.2976120391
 20
41.1325129174
 10
-43.3180602923
 20
41.1412060555
 10
-43.338446275
 20
41.1491131902
 10
-43.3587510429
 20
41.1562285377
 10
-43.3789543323
 20
41.1625475572
 10
-43.3990388867
 20
41.1680652919
 10
-43.4189904451
 20
41.1727762335
 10
-43.4387911231
 20
41.1766772346
 10
-43.4584221402
 20
41.179765755
 10
-43.4778681373
 20
41.1820381406
 10
-43.4971112142
 20
41.1834932561
 10
-43.5161338259
 20
41.1841308166
 10
-43.5349214783
 20
41.1839494886
 10
-43.5534571599
 20
41.1829501913
 10
-43.5717238798
 20
41.1811346655
 10
-43.5897075566
 20
41.1785037953
 10
-43.6073919745
 20
41.1750605455
 10
-43.6247610533
 20
41.1708086924
 10
-43.6418013526
 20
41.1657513089
 10
-43.6584976254
 20
41.1598933595
 10
-43.6748347576
 20
41.1532406163
 10
-43.690799996
 20
41.1457983022
 10
-43.7063791267
 20
41.1375733567
 10
-43.7198350239
 20
41.1296466147
  0
LINE
  5
3A6
100
AcDbEntity
  8
RACCORDO
100
AcDbLine
 62
7
  6
CONTINUOUS
 10
-43.5193103055
 20
41.6463281677
 11
-43.4915084776
 21
41.6344291321
  0
LWPOLYLINE
  5
3A7
100
AcDbEntity
  8
RACCORDO
100
AcDbPolyline
 62
7
  6
CONTINUOUS
 90
52
 70
0
 10
-43.3621652506
 20
41.0114989355
 10
-43.3804465354
 20
41.0194111106
 10
-43.3986448038
 20
41.0266060883
 10
-43.4167600596
 20
41.0330838671
 10
-43.4348088723
 20
41.0388489947
 10
-43.4527746789
 20
41.0438969202
 10
-43.4706077857
 20
41.0482139928
 10
-43.4883069391
 20
41.0517978805
 10
-43.5058734038
 20
41.05465091
 10
-43.5232612678
 20
41.0567664168
 10
-43.5404699258
 20
41.0581424464
 10
-43.5574999976
 20
41.0587809465
 10
-43.574307412
 20
41.0586811036
 10
-43.5908915874
 20
41.0578410165
 10
-43.6072531228
 20
41.0562625782
 10
-43.6233497207
 20
41.0539506648
 10
-43.6391806669
 20
41.0509033951
 10
-43.6547466953
 20
41.0471226409
 10
-43.6700076834
 20
41.042618906
 10
-43.6849628424
 20
41.037390343
 10
-43.6996129827
 20
41.0314387891
 10
-43.7139203826
 20
41.0247802746
 10
-43.7278841333
 20
41.0174130217
 10
-43.7415051662
 20
41.0093387974
 10
-43.754748522
 20
41.0005789478
 10
-43.7676132525
 20
40.991131737
 10
-43.7801003289
 20
40.98099889
 10
-43.7921776722
 20
40.9702069433
 10
-43.8038442306
 20
40.9587542616
 10
-43.8151010787
 20
40.9466424694
 10
-43.825919328
 20
40.9339029933
 10
-43.8362978984
 20
40.9205342368
 10
-43.8462378918
 20
40.906537786
 10
-43.8557136932
 20
40.8919498413
 10
-43.8647241369
 20
40.8767689243
 10
-43.8732704086
 20
40.8609965039
 10
-43.881330421
 20
40.8446732011
 10
-43.8889029645
 20
40.8277976215
 10
-43.8959892666
 20
40.8103711509
 10
-43.902570895
 20
40.7924385804
 10
-43.9086465962
 20
40.7739986347
 10
-43.9142176386
 20
40.7550525819
 10
-43.9192693726
 20
40.7356490282
 10
-43.9238005079
 20
40.7157866493
 10
-43.9278123464
 20
40.6954667639
 10
-43.9312941254
 20
40.6747419424
 10
-43.9342444961
 20
40.6536097834
 10
-43.9366648152
 20
40.6320726845
 10
-43.9385483773
 20
40.6101904146
 10
-43.9398929486
 20
40.5879828961
 10
-43.9407007669
 20
40.5654302047
 10
-43.9409718333
 20
40.5425323399
  0
LWPOLYLINE
  5
3A8
100
AcDbEntity
  8
RACCORDO
100
AcDbPolyline
 62
7
  6
CONTINUOUS
 90
10
 70
0
 10
-44.2639459266
 20
41.0065800293
 10
-44.2507442978
 20
41.0007130728
 10
-44.2356841841
 20
40.996098954
 10
-44.2192354142
 20
40.9928816163
 10
-44.2019111388
 20
40.9911614279
 10
-44.1842518173
 20
40.9909920504
 10
-44.1668083576
 20
40.9923787657
 10
-44.1501249353
 20
40.9952783121
 10
-44.1347220167
 20
40.9996002319
 10
-44.121080119
 20
41.005209695
  0
LWPOLYLINE
  5
3A9
100
AcDbEntity
  8
RACCORDO
100
AcDbPolyline
 62
7
  6
CONTINUOUS
 90
22
 70
0
 10
-43.4915084776
 20
41.6344291321
 10
-40.3610631615
 20
40.218965105
 10
-37.1081345095
 20
38.7302986803
 10
-33.7318762012
 20
37.1688505156
 10
-30.2436673967
 20
35.5436920454
 10
-26.6304246765
 20
33.8466108612
 10
-22.854267188
 20
32.0522725795
 10
-18.8854580938
 20
30.1479204565
 10
-14.7509795028
 20
28.1477121224
 10
-10.4981007078
 20
26.066657708
 10
-6.0851768648
 20
23.8819549667
 10
-1.551684489
 20
21.6175636536
 10
2.9313559033
 20
19.3576159678
 10
7.3401257284
 20
17.1091477067
 10
11.6969841906
 20
14.8644758709
 10
15.8976063696
 20
12.6843549824
 10
19.8957717445
 20
10.5904196389
 10
23.7345211294
 20
8.5594702727
 10
27.4428242021
 20
6.5846957322
 10
31.0297394117
 20
4.6635286291
 10
34.4841510934
 20
2.7975096451
 10
37.805071518
 20
0.9861391343
  0
LWPOLYLINE
  5
3AA
100
AcDbEntity
  8
RACCORDO
100
AcDbPolyline
 62
7
  6
CONTINUOUS
 90
12
 70
0
 10
-43.4600126071
 20
41.5776417925
 10
-37.0498184174
 20
38.6581403919
 10
-30.3949209893
 20
35.5726576849
 10
-23.703351216
 20
32.4150945623
 10
-16.9759398303
 20
29.1858582695
 10
-10.2135432924
 20
25.8853724273
 10
-3.4170253764
 20
22.5140657128
 10
3.4127084358
 20
19.0723891385
 10
10.2747425378
 20
15.5608003822
 10
17.1681615246
 20
11.9797603772
 10
24.0920349056
 20
8.3297388662
 10
31.0454233461
 20
4.6112123163
  0
LINE
  5
3AB
100
AcDbEntity
  8
RACCORDO
100
AcDbLine
 62
7
  6
CONTINUOUS
 10
31.0454233461
 20
4.6112123163
 11
37.8257838047
 21
0.9347329078
  0
LWPOLYLINE
  5
3AC
100
AcDbEntity
  8
RACCORDO
100
AcDbPolyline
 62
7
  6
CONTINUOUS
 90
8
 70
0
 10
37.805071518
 20
0.9861391343
 10
37.8339218487
 20
0.9698230778
 10
37.8626554748
 20
0.9524260428
 10
37.8912723895
 20
0.9339480256
 10
37.9198061307
 20
0.914368964
 10
37.9482231487
 20
0.893708914
 10
37.9764227993
 20
0.8720280471
 10
38.0044057235
 20
0.849320876
  0
LWPOLYLINE
  5
3AD
100
AcDbEntity
  8
RACCORDO
100
AcDbPolyline
 62
7
  6
CONTINUOUS
 90
3
 70
0
 10
37.8258543293
 20
0.9346943111
 10
37.8831212035
 20
0.9009438323
 10
37.9720132587
 20
0.8385522446
  0
LWPOLYLINE
  5
3AE
100
AcDbEntity
  8
RACCORDO
100
AcDbPolyline
 62
7
  6
CONTINUOUS
 90
10
 70
0
 10
37.1340477849
 20
-41.8818221886
 10
37.1268642173
 20
-41.861708416
 10
37.1201124982
 20
-41.8417207832
 10
37.1137991625
 20
-41.8218733802
 10
37.1079224901
 20
-41.8021266598
 10
37.1024929791
 20
-41.7825474924
 10
37.097528853
 20
-41.7633106508
 10
37.0930309175
 20
-41.7444843571
 10
37.0889872545
 20
-41.7260287203
 10
37.0853905489
 20
-41.7079568806
  0
LWPOLYLINE
  5
3AF
100
AcDbEntity
  8
RACCORDO
100
AcDbPolyline
 62
7
  6
CONTINUOUS
 90
37
 70
0
 10
37.0275904612
 20
-41.7538584474
 10
37.0245153237
 20
-41.7434156193
 10
37.0215913691
 20
-41.7324711739
 10
37.0188185975
 20
-41.7210251114
 10
37.016188197
 20
-41.7090819494
 10
37.0137089796
 20
-41.6966371701
 10
37.0114073806
 20
-41.6836772203
 10
37.009282958
 20
-41.6701891683
 10
37.0073361539
 20
-41.6561859458
 10
37.0055947306
 20
-41.6416927939
 10
37.0040613461
 20
-41.6267274571
 10
37.0027333425
 20
-41.611272191
 10
37.0016305085
 20
-41.5952990037
 10
37.0007512218
 20
-41.5788184946
 10
37.0000971049
 20
-41.5618200644
 10
36.9996928138
 20
-41.5442439222
 10
36.9995355945
 20
-41.5260857929
 10
36.9996282011
 20
-41.5073499517
 10
37.0000035517
 20
-41.4879894334
 10
37.0006590216
 20
-41.468007092
 10
37.0015972354
 20
-41.4474000734
 10
37.002858985
 20
-41.426112851
 10
37.0044409291
 20
-41.4041478233
 10
37.006346409
 20
-41.3815025918
 10
37.0086262411
 20
-41.3581144328
 10
37.0112765253
 20
-41.3339836971
 10
37.0143011616
 20
-41.3091100339
 10
37.0177626666
 20
-41.2834296685
 10
37.0216541616
 20
-41.2569524341
 10
37.0259825253
 20
-41.2296684975
 10
37.0308309108
 20
-41.2014845832
 10
37.036190943
 20
-41.1724028308
 10
37.042070997
 20
-41.1424211008
 10
37.0485793517
 20
-41.1114396998
 10
37.0557064309
 20
-41.0794532817
 10
37.0634618107
 20
-41.0464671925
 10
37.0713600643
 20
-41.0148865369
  0
LINE
  5
3B0
100
AcDbEntity
  8
ASSI
100
AcDbLine
 62
7
  6
CONTINUOUS
 10
20.7064573266
 20
-29.9041830891
 11
20.7546760708
 21
-29.7078937392
  0
LWPOLYLINE
  5
3B1
100
AcDbEntity
  8
RACCORDO
100
AcDbPolyline
 62
7
  6
CONTINUOUS
 90
13
 70
0
 10
51.5749475517
 20
11.459260472
 10
51.6608293419
 20
11.4241689086
 10
51.7546926734
 20
11.3946252733
 10
51.8551122566
 20
11.3710784405
 10
51.9605631822
 20
11.3538862264
 10
52.06944398
 20
11.3433099625
 10
52.1801009289
 20
11.3395104984
 10
52.2908533901
 20
11.3425457465
 10
52.4000190911
 20
11.3523698103
 10
52.5059395958
 20
11.3688336251
 10
52.6070058724
 20
11.3916872448
 10
52.7016827177
 20
11.4205836837
 10
52.7885318452
 20
11.455084142
  0
LWPOLYLINE
  5
3B2
100
AcDbEntity
  8
RACCORDO
100
AcDbPolyline
 62
7
  6
CONTINUOUS
 90
7
 70
0
 10
-56.359853641
 20
65.4266610683
 10
-56.4300406612
 20
65.4696044714
 10
-56.4891299126
 20
65.5165385256
 10
-56.5362239125
 20
65.5667503686
 10
-56.5706073693
 20
65.6194773531
 10
-56.5917580467
 20
65.6739186303
 10
-56.599376012
 20
65.7323444484
  0
LWPOLYLINE
  5
3B3
100
AcDbEntity
  8
RACCORDO
100
AcDbPolyline
 62
7
  6
CONTINUOUS
 90
4
 70
0
 10
37.9720132587
 20
0.8385522446
 10
38.0590631486
 20
0.7650461588
 10
38.1429855212
 20
0.681369462
 10
38.2225445419
 20
0.5886470343
  0
LWPOLYLINE
  5
3B4
100
AcDbEntity
  8
RACCORDO
100
AcDbPolyline
 62
7
  6
CONTINUOUS
 90
11
 70
0
 10
38.0044057235
 20
0.849320876
 10
38.0321712562
 20
0.8255928752
 10
38.0596167828
 20
0.8009206537
 10
38.0867413784
 20
0.7752995528
 10
38.1135459334
 20
0.7487342128
 10
38.1399305457
 20
0.7213151851
 10
38.1658928794
 20
0.6930393297
 10
38.1914352271
 20
0.6639097636
 10
38.2164646195
 20
0.6340264188
 10
38.2409777472
 20
0.6033881055
 10
38.2649778694
 20
0.5719959868
  0
LWPOLYLINE
  5
3B5
100
AcDbEntity
  8
RACCORDO
100
AcDbPolyline
 62
7
  6
CONTINUOUS
 90
18
 70
0
 10
37.0853905489
 20
-41.7079568806
 10
37.0838597447
 20
-41.6995082232
 10
37.0823962277
 20
-41.6905997511
 10
37.0810041235
 20
-41.6812318042
 10
37.0796874036
 20
-41.6714111021
 10
37.078450539
 20
-41.6611318296
 10
37.0772983374
 20
-41.6503756617
 10
37.0762342585
 20
-41.6391323601
 10
37.0752633603
 20
-41.6274135852
 10
37.0743919355
 20
-41.6152340936
 10
37.0736243575
 20
-41.602609869
 10
37.0729627513
 20
-41.5895270374
 10
37.0724097323
 20
-41.5759557272
 10
37.0719694149
 20
-41.5619068685
 10
37.0716453188
 20
-41.5473720245
 10
37.0714408467
 20
-41.5322923314
 10
37.071361023
 20
-41.5166663939
 10
37.0713600776
 20
-41.5149613979
  0
LWPOLYLINE
  5
3B6
100
AcDbEntity
  8
RACCORDO
100
AcDbPolyline
 62
7
  6
CONTINUOUS
 90
18
 70
0
 10
37.5223568848
 20
-43.1016896104
 10
37.522717684
 20
-43.1066041336
 10
37.5232938509
 20
-43.1113884519
 10
37.5240835679
 20
-43.1160274736
 10
37.525084344
 20
-43.1205065655
 10
37.5262930223
 20
-43.1248115988
 10
37.5277057903
 20
-43.1289289938
 10
37.5293181915
 20
-43.1328457627
 10
37.5311251398
 20
-43.1365495506
 10
37.5331209354
 20
-43.1400286741
 10
37.5352992828
 20
-43.143272159
 10
37.5376533106
 20
-43.1462697738
 10
37.5401755934
 20
-43.1490120632
 10
37.5428581749
 20
-43.1514903767
 10
37.5456925932
 20
-43.153696897
 10
37.5486699075
 20
-43.1556246637
 10
37.5517807261
 20
-43.1572675959
 10
37.5540072396
 20
-43.1582353162
  0
LWPOLYLINE
  5
3B7
100
AcDbEntity
  8
RACCORDO
100
AcDbPolyline
 62
7
  6
CONTINUOUS
 90
10
 70
0
 10
37.0853905489
 20
-0.3860950373
 10
37.0889872517
 20
-0.3765326688
 10
37.0930309136
 20
-0.3665253216
 10
37.0975288502
 20
-0.3560598556
 10
37.1024929824
 20
-0.3450784367
 10
37.1079225032
 20
-0.3336105674
 10
37.1137991821
 20
-0.3217746489
 10
37.1201125171
 20
-0.3096015361
 10
37.1268642299
 20
-0.2970330517
 10
37.1340477849
 20
-0.2840551063
  0
LINE
  5
3B8
100
AcDbEntity
  8
ASSI
100
AcDbLine
 62
7
  6
CONTINUOUS
 10
21.031883602
 20
-29.5666403644
 11
21.2512331365
 21
-29.4076679142
  0
LINE
  5
3B9
100
AcDbEntity
  8
ASSI
100
AcDbLine
 62
7
  6
CONTINUOUS
 10
21.2514272155
 20
-28.9085068535
 11
19.5504268568
 21
-29.8530829965
  0
LWPOLYLINE
  5
3BA
100
AcDbEntity
  8
ASSI
100
AcDbPolyline
 62
7
  6
CONTINUOUS
 90
9
 70
0
 10
20.6359546195
 20
-30.0026647138
 10
20.6379338202
 20
-30.0016478906
 10
20.6515535709
 20
-29.9931997143
 10
20.6640116983
 20
-29.9827480744
 10
20.6753340116
 20
-29.9703374658
 10
20.6852652566
 20
-29.9562476834
 10
20.6937203483
 20
-29.9405719923
 10
20.7007843717
 20
-29.9232171276
 10
20.7064573266
 20
-29.9041830891
  0
LINE
  5
3BB
100
AcDbEntity
  8
ASSI
100
AcDbLine
 62
7
  6
CONTINUOUS
 10
21.031883602
 20
-29.5666403644
 11
20.0144375651
 21
-30.0850883507
  0
LINE
  5
3BC
100
AcDbEntity
  8
ASSI
100
AcDbLine
 62
7
  6
CONTINUOUS
 10
20.6359396165
 20
-30.0027048633
 11
20.2438882092
 21
-30.1998136727
  0
LINE
  5
3BD
100
AcDbEntity
  8
ASSI
100
AcDbLine
 62
7
  6
CONTINUOUS
 10
20.7064573266
 20
-29.9041830891
 11
20.1807213518
 21
-30.168230244
  0
LINE
  5
3BE
100
AcDbEntity
  8
ASSI
100
AcDbLine
 62
7
  6
CONTINUOUS
 10
21.2584407454
 20
-29.3736744327
 11
19.9226264995
 21
-30.0391828179
  0
LWPOLYLINE
  5
3BF
100
AcDbEntity
  8
ASSI
100
AcDbPolyline
 62
7
  6
CONTINUOUS
 90
11
 70
0
 10
21.2584407454
 20
-28.904849568
 10
21.2665556516
 20
-28.9009149693
 10
21.2741785125
 20
-28.8974118569
 10
21.2812437195
 20
-28.8943485214
 10
21.2876921372
 20
-28.8917193553
 10
21.2934474211
 20
-28.8895554573
 10
21.2984264582
 20
-28.8879271163
 10
21.3025792424
 20
-28.8868867195
 10
21.3058415721
 20
-28.8864307531
 10
21.3081460235
 20
-28.8865551873
 10
21.3087956285
 20
-28.886777955
  0
LINE
  5
3C0
100
AcDbEntity
  8
ASSI
100
AcDbLine
 62
7
  6
CONTINUOUS
 10
16.99396337
 20
-26.7797749307
 11
15.1048110839
 21
-27.63027511
  0
LINE
  5
3C1
100
AcDbEntity
  8
ASSI
100
AcDbLine
 62
7
  6
CONTINUOUS
 10
17.0113557848
 20
-26.7733150359
 11
17.001752684
 21
-26.7765055373
  0
LWPOLYLINE
  5
3C2
100
AcDbEntity
  8
RACCORDO
100
AcDbPolyline
 62
7
  6
CONTINUOUS
 90
10
 70
0
 10
50.8413812963
 20
12.6620446176
 10
38.6088316489
 20
18.3776251079
 10
26.4734747385
 20
24.1447576883
 10
14.4361799858
 20
29.9630291836
 10
2.4978097837
 20
35.8320227547
 10
-9.3407805576
 20
41.7513179255
 10
-21.0787428719
 20
47.7204906129
 10
-32.7152362069
 20
53.7391131617
 10
-44.2494268851
 20
59.8067543753
 10
-55.6804885555
 20
65.9229795435
  0
LWPOLYLINE
  5
3C3
100
AcDbEntity
  8
RACCORDO
100
AcDbPolyline
 62
7
  6
CONTINUOUS
 90
10
 70
0
 10
51.4210473064
 20
13.7531929369
 10
39.1939044562
 20
19.466260856
 10
27.0637409712
 20
25.2309319751
 10
15.0315605786
 20
31.0467317882
 10
3.0983295102
 20
36.913199895
 10
-8.7351334389
 20
42.8299313666
 10
-20.468045707
 20
48.7965349095
 10
-32.0995972934
 20
54.8126010757
 10
-43.6288653855
 20
60.8776457624
 10
-55.0548981803
 20
66.9911656797
  0
LWPOLYLINE
  5
3C4
100
AcDbEntity
  8
RACCORDO
100
AcDbPolyline
 62
7
  6
CONTINUOUS
 90
16
 70
0
 10
-55.6804885555
 20
65.9229795435
 10
-55.7524823
 20
65.9568383979
 10
-55.8223101382
 20
65.9805569238
 10
-55.8899724336
 20
65.9941349527
 10
-55.9562097705
 20
65.9975233715
 10
-56.020282182
 20
65.990771007
 10
-56.0799695289
 20
65.97402445
 10
-56.1350787108
 20
65.9469211858
 10
-56.1858040581
 20
65.9098231593
 10
-56.2305070497
 20
65.8639634325
 10
-56.2689810748
 20
65.8090342983
 10
-56.3014339653
 20
65.7453428984
 10
-56.326849011
 20
65.6750445001
 10
-56.3448875876
 20
65.5988573968
 10
-56.3558890687
 20
65.5160629484
 10
-56.359853641
 20
65.4266610683
  0
LWPOLYLINE
  5
3C5
100
AcDbEntity
  8
RACCORDO
100
AcDbPolyline
 62
7
  6
CONTINUOUS
 90
10
 70
0
 10
-52.335704329
 20
68.6849779119
 10
-40.8792934401
 20
62.5531042685
 10
-29.3189874125
 20
56.4701745475
 10
-17.6556225769
 20
50.4366288201
 10
-5.8900426809
 20
44.452903565
 10
5.9769010557
 20
38.5194316967
 10
17.9443499988
 20
32.6366425322
 10
30.0114383194
 20
26.8049616815
 10
42.1772930602
 20
21.0248110184
 10
54.4410340787
 20
15.2966087081
  0
LWPOLYLINE
  5
3C6
100
AcDbEntity
  8
RACCORDO
100
AcDbPolyline
 62
7
  6
CONTINUOUS
 90
7
 70
0
 10
38.2225445419
 20
0.5886470343
 10
38.2965985799
 20
0.4881383744
 10
38.364181926
 20
0.3810920945
 10
38.4243644963
 20
0.2689157971
 10
38.4762819133
 20
0.1531935971
 10
38.5192328755
 20
0.0355257595
 10
38.5526651968
 20
-0.08246903
  0
LWPOLYLINE
  5
3C7
100
AcDbEntity
  8
RACCORDO
100
AcDbPolyline
 62
7
  6
CONTINUOUS
 90
16
 70
0
 10
38.2649778694
 20
0.5719959868
 10
38.2883818627
 20
0.5399535204
 10
38.3111864343
 20
0.5072608783
 10
38.3333948226
 20
0.4739178596
 10
38.3549336952
 20
0.4400273584
 10
38.3758025669
 20
0.4055854082
 10
38.396001867
 20
0.3705959459
 10
38.4154596297
 20
0.3351737192
 10
38.4341750576
 20
0.2993131484
 10
38.4521488924
 20
0.2630197837
 10
38.4693114733
 20
0.2264250648
 10
38.4856599741
 20
0.1895250612
 10
38.5011971674
 20
0.152323675
 10
38.5158617888
 20
0.1149640944
 10
38.5296476778
 20
0.077452345
 10
38.5425609459
 20
0.0397823752
  0
LWPOLYLINE
  5
3C8
100
AcDbEntity
  8
RACCORDO
100
AcDbPolyline
 62
7
  6
CONTINUOUS
 90
37
 70
0
 10
37.0713600643
 20
-0.6487351338
 10
37.0634618108
 20
-0.6288508969
 10
37.0557064308
 20
-0.6084397986
 10
37.0485793515
 20
-0.5889320997
 10
37.0420709969
 20
-0.5703232624
 10
37.036190943
 20
-0.5526178245
 10
37.0308309109
 20
-0.5356926524
 10
37.0259825254
 20
-0.5195407208
 10
37.0216541616
 20
-0.5041690551
 10
37.0177626666
 20
-0.4894755977
 10
37.0143011616
 20
-0.4754509562
 10
37.0112765253
 20
-0.4621045231
 10
37.0086262411
 20
-0.4493624175
 10
37.006346409
 20
-0.4372216576
 10
37.0044409291
 20
-0.4256852252
 10
37.002858985
 20
-0.4146881853
 10
37.0015972354
 20
-0.4042270418
 10
37.0006590216
 20
-0.3943052907
 10
37.0000035517
 20
-0.3848684847
 10
36.9996282011
 20
-0.3759134428
 10
36.9995355945
 20
-0.367443346
 10
36.9996928138
 20
-0.3594132894
 10
37.0000971049
 20
-0.3518231959
 10
37.0007512218
 20
-0.3446731426
 10
37.0016305085
 20
-0.3379184562
 10
37.0027333425
 20
-0.3315532078
 10
37.0040613461
 20
-0.3255833263
 10
37.0055947306
 20
-0.3199819252
 10
37.0073361539
 20
-0.3147429711
 10
37.0092829579
 20
-0.3098724974
 10
37.0114073806
 20
-0.3053617181
 10
37.013708981
 20
-0.3012161113
 10
37.0161882
 20
-0.2974301988
 10
37.0188185977
 20
-0.2939787599
 10
37.0215913608
 20
-0.2908533879
 10
37.0245153025
 20
-0.2880624895
 10
37.027590423
 20
-0.2856060648
  0
LWPOLYLINE
  5
3C9
100
AcDbEntity
  8
RACCORDO
100
AcDbPolyline
 62
7
  6
CONTINUOUS
 90
13
 70
0
 10
37.0853898155
 20
-0.3860951824
 10
37.0828258956
 20
-0.3767180165
 10
37.0798207685
 20
-0.3674519238
 10
37.0763816634
 20
-0.3583191951
 10
37.0725168537
 20
-0.3493418005
 10
37.0682356365
 20
-0.340541336
 10
37.063548311
 20
-0.3319389725
 10
37.0584661531
 20
-0.3235554039
 10
37.0530013886
 20
-0.315410798
 10
37.0471671637
 20
-0.3075247477
 10
37.0409775134
 20
-0.2999162239
 10
37.0344473278
 20
-0.2926035299
 10
37.027592316
 20
-0.2856042572
  0
LWPOLYLINE
  5
3CA
100
AcDbEntity
  8
RACCORDO
100
AcDbPolyline
 62
7
  6
CONTINUOUS
 90
6
 70
0
 10
37.8050715557
 20
0.9861391543
 10
37.8053235632
 20
0.9721115614
 10
37.8076348523
 20
0.9596017728
 10
37.8119358117
 20
0.9489865586
 10
37.8180969049
 20
0.9405856281
 10
37.8257837146
 20
0.9347327416
  0
LWPOLYLINE
  5
3CB
100
AcDbEntity
  8
RACCORDO
100
AcDbPolyline
 62
7
  6
CONTINUOUS
 90
52
 70
0
 10
38.2714280242
 20
-0.4966880661
 10
38.2710063776
 20
-0.4710055334
 10
38.2699533035
 20
-0.4450499149
 10
38.268270715
 20
-0.4188435249
 10
38.2659617027
 20
-0.3924090363
 10
38.2630285294
 20
-0.3657690725
 10
38.2594725302
 20
-0.3389461499
 10
38.2552973192
 20
-0.3119629352
 10
38.2505073997
 20
-0.2848430559
 10
38.2451060925
 20
-0.2576106665
 10
38.2390986041
 20
-0.2302895678
 10
38.2324907934
 20
-0.2029030014
 10
38.2252876355
 20
-0.1754744156
 10
38.2174956498
 20
-0.1480275385
 10
38.209122109
 20
-0.1205860479
 10
38.2001737323
 20
-0.0931733608
 10
38.1906583797
 20
-0.065813283
 10
38.1805846309
 20
-0.038529443
 10
38.1699608767
 20
-0.0113449591
 10
38.1587962372
 20
0.0157165219
 10
38.1471005563
 20
0.0426315242
 10
38.1348838764
 20
0.0693772968
 10
38.1221565585
 20
0.0959304282
 10
38.1089296052
 20
0.1222678612
 10
38.0952145531
 20
0.1483675635
 10
38.0810228476
 20
0.1742066777
 10
38.0663666375
 20
0.1997625746
 10
38.0512590128
 20
0.2250138296
 10
38.0357125236
 20
0.2499381393
 10
38.0197402977
 20
0.274513644
 10
38.0033567536
 20
0.2987199271
 10
37.9865753477
 20
0.3225355633
 10
37.9694101891
 20
0.3459394519
 10
37.9518770963
 20
0.3689120841
 10
37.9339904322
 20
0.3914329493
 10
37.9157651074
 20
0.4134820042
 10
37.8972181429
 20
0.4350409452
 10
37.8783646557
 20
0.4560903974
 10
37.8592202966
 20
0.4766114628
 10
37.8398032211
 20
0.4965871386
 10
37.820129254
 20
0.5159992764
 10
37.8002146119
 20
0.5348303428
 10
37.7800783159
 20
0.5530649138
 10
37.7597365357
 20
0.5706864168
 10
37.73920617
 20
0.5876785879
 10
37.7185075625
 20
0.6040272295
 10
37.6976579618
 20
0.6197168675
 10
37.6766739911
 20
0.6347333954
 10
37.6555752098
 20
0.6490654112
 10
37.6343795944
 20
0.6627002555
 10
37.6131035387
 20
0.67562414
 10
37.5917643178
 20
0.6878247389
  0
LINE
  5
3CC
100
AcDbEntity
  8
RACCORDO
100
AcDbLine
 62
7
  6
CONTINUOUS
 10
38.6236902262
 20
-0.4016105348
 11
38.6242376557
 21
-0.4375117619
  0
LWPOLYLINE
  5
3CD
100
AcDbEntity
  8
RACCORDO
100
AcDbPolyline
 62
7
  6
CONTINUOUS
 90
52
 70
0
 10
38.1359094741
 20
-0.4959083138
 10
38.1356220127
 20
-0.4727311851
 10
38.1347653357
 20
-0.4493462461
 10
38.133339444
 20
-0.425753496
 10
38.1313419677
 20
-0.401930707
 10
38.1287752805
 20
-0.3779001049
 10
38.1256464995
 20
-0.3537283701
 10
38.1219541932
 20
-0.3294165059
 10
38.1176998006
 20
-0.304963505
 10
38.112894745
 20
-0.2804330306
 10
38.107537657
 20
-0.2558250658
 10
38.1016299169
 20
-0.2311396218
 10
38.0951870735
 20
-0.2064404038
 10
38.0882077959
 20
-0.1817273803
 10
38.0806934291
 20
-0.1570005753
 10
38.072663535
 20
-0.132323777
 10
38.0641168297
 20
-0.1076971152
 10
38.055054614
 20
-0.0831204511
 10
38.0455003278
 20
-0.0586571693
 10
38.0354527334
 20
-0.0343075267
 10
38.0249130876
 20
-0.0100712562
 10
38.0139085716
 20
0.0139890435
 10
38.0024380386
 20
0.0378729108
 10
37.9905026561
 20
0.0615808182
 10
37.9781330763
 20
0.0850515691
 10
37.9653281822
 20
0.1082846344
 10
37.9520891124
 20
0.1312805546
 10
37.9384499007
 20
0.1539797364
 10
37.9244095403
 20
0.1763814441
 10
37.90996906
 20
0.1984864251
 10
37.8951655452
 20
0.2202373107
 10
37.879998031
 20
0.2416332823
 10
37.8644675039
 20
0.2626751698
 10
37.8486139746
 20
0.283308077
 10
37.8324366055
 20
0.3035309904
 10
37.8159362547
 20
0.3233449343
 10
37.7991554738
 20
0.3426980676
 10
37.7820935044
 20
0.3615892646
 10
37.7647511236
 20
0.380019661
 10
37.7471731833
 20
0.397940806
 10
37.729359066
 20
0.4153514147
 10
37.7113094056
 20
0.4322527807
 10
37.6930709279
 20
0.448600319
 10
37.6746429904
 20
0.4643927129
 10
37.6560262492
 20
0.4796312864
 10
37.6372693741
 20
0.4942754129
 10
37.6183710359
 20
0.5083240628
 10
37.5993325742
 20
0.5217782714
 10
37.5802066587
 20
0.5346005079
 10
37.5610108473
 20
0.5467782628
 10
37.5417275882
 20
0.5583240488
 10
37.5223568847
 20
0.5692378678
  0
LINE
  5
3CE
100
AcDbEntity
  8
RACCORDO
100
AcDbLine
 62
7
  6
CONTINUOUS
 10
37.0713600776
 20
-41.5149613979
 11
37.0713600659
 21
-41.5146551889
  0
LINE
  5
3CF
100
AcDbEntity
  8
RACCORDO
100
AcDbLine
 62
7
  6
CONTINUOUS
 10
37.0713600643
 20
-41.5143738996
 11
37.0713600643
 21
-0.506089029
  0
LINE
  5
3D0
100
AcDbEntity
  8
RACCORDO
100
AcDbLine
 62
7
  6
CONTINUOUS
 10
37.1340477849
 20
-41.8818221886
 11
37.1340477849
 21
-0.2840551063
  0
LINE
  5
3D1
100
AcDbEntity
  8
RACCORDO
100
AcDbLine
 62
7
  6
CONTINUOUS
 10
38.1359094741
 20
-42.6153500116
 11
38.1359094741
 21
-0.4959083138
  0
LINE
  5
3D2
100
AcDbEntity
  8
RACCORDO
100
AcDbLine
 62
7
  6
CONTINUOUS
 10
38.2714280242
 20
-42.6161297639
 11
38.2714280242
 21
-0.4966880661
  0
LINE
  5
3D3
100
AcDbEntity
  8
RACCORDO
100
AcDbLine
 62
7
  6
CONTINUOUS
 10
38.592822032
 20
-0.4011243213
 11
38.592822032
 21
-42.9603332162
  0
LINE
  5
3D4
100
AcDbEntity
  8
RACCORDO
100
AcDbLine
 62
7
  6
CONTINUOUS
 10
38.6242376557
 20
-0.4375117619
 11
38.6242376557
 21
-42.9967206568
  0
LINE
  5
3D5
100
AcDbEntity
  8
RACCORDO
100
AcDbLine
 62
7
  6
CONTINUOUS
 10
37.0713600645
 20
-0.5057501523
 11
37.0713600776
 21
-0.5055745288
  0
LWPOLYLINE
  5
3D6
100
AcDbEntity
  8
RACCORDO
100
AcDbPolyline
 62
7
  6
CONTINUOUS
 90
18
 70
0
 10
37.0713600776
 20
-0.5055745288
 10
37.071361023
 20
-0.5044157832
 10
37.0714408467
 20
-0.4938544732
 10
37.0716453188
 20
-0.4837689396
 10
37.0719694149
 20
-0.4741563464
 10
37.0724097323
 20
-0.4649709596
 10
37.0729627513
 20
-0.4562045711
 10
37.0736243575
 20
-0.4478628959
 10
37.0743919355
 20
-0.4399211428
 10
37.0752633603
 20
-0.4323696015
 10
37.0762342585
 20
-0.4252158728
 10
37.0772983374
 20
-0.4184612905
 10
37.078450539
 20
-0.4121128672
 10
37.0796874036
 20
-0.4061621682
 10
37.0810041235
 20
-0.4005875893
 10
37.0823962276
 20
-0.3953816362
 10
37.0838597447
 20
-0.3905508989
 10
37.0853905489
 20
-0.3860950373
  0
LWPOLYLINE
  5
3D7
100
AcDbEntity
  8
RACCORDO
100
AcDbPolyline
 62
7
  6
CONTINUOUS
 90
4
 70
0
 10
38.6242376557
 20
-42.9967206568
 10
38.6237595552
 20
-43.0309967891
 10
38.6223176957
 20
-43.064748762
 10
38.6199120797
 20
-43.097976574
  0
LWPOLYLINE
  5
3D8
100
AcDbEntity
  8
RACCORDO
100
AcDbPolyline
 62
7
  6
CONTINUOUS
 90
10
 70
0
 10
37.8050715197
 20
-43.647934103
 10
37.8053235617
 20
-43.6320739973
 10
37.8076348778
 20
-43.6155962388
 10
37.811935856
 20
-43.5989971032
 10
37.8180969599
 20
-43.5827765217
 10
37.8259326299
 20
-43.5674230243
 10
37.835206872
 20
-43.553399026
 10
37.8456403655
 20
-43.5411269005
 10
37.8569188753
 20
-43.5309762584
 10
37.8687027165
 20
-43.5232528158
  0
LWPOLYLINE
  5
3D9
100
AcDbEntity
  8
RACCORDO
100
AcDbPolyline
 62
7
  6
CONTINUOUS
 90
3
 70
0
 10
38.5928218958
 20
-42.9603878172
 10
38.5898645191
 20
-43.0407276217
 10
38.5761190571
 20
-43.1455053897
  0
LWPOLYLINE
  5
3DA
100
AcDbEntity
  8
RACCORDO
100
AcDbPolyline
 62
7
  6
CONTINUOUS
 90
28
 70
0
 10
37.522356885
 20
0.5692378679
 10
37.5227176793
 20
0.5740287598
 10
37.5232938417
 20
0.5789192418
 10
37.5240835547
 20
0.5838938876
 10
37.5250843271
 20
0.5889370051
 10
37.5262930023
 20
0.5940326864
 10
37.5277057675
 20
0.5991648578
 10
37.5293181664
 20
0.6043173304
 10
37.5311251128
 20
0.6094738514
 10
37.5331209069
 20
0.614618155
 10
37.5352992532
 20
0.6197340141
 10
37.5376532804
 20
0.6248052914
 10
37.5401755629
 20
0.62981599
 10
37.5428581445
 20
0.6347503043
 10
37.5456925634
 20
0.6395926696
 10
37.5486698785
 20
0.6443278112
 10
37.5517806984
 20
0.6489407925
 10
37.5550152103
 20
0.6534170625
 10
37.5583632113
 20
0.6577425012
 10
37.5618141405
 20
0.6619034647
 10
37.5653571124
 20
0.6658868275
 10
37.568980951
 20
0.6696800246
 10
37.5726742254
 20
0.6732710908
 10
37.5764252855
 20
0.6766486985
 10
37.5802222991
 20
0.6798021935
 10
37.5840532889
 20
0.6827216282
 10
37.5879061704
 20
0.6853977939
 10
37.5917687902
 20
0.6878222487
  0
LWPOLYLINE
  5
3DB
100
AcDbEntity
  8
RACCORDO
100
AcDbPolyline
 62
7
  6
CONTINUOUS
 90
8
 70
0
 10
-55.0548942131
 20
66.9910782028
 10
-55.1958947839
 20
67.0516780667
 10
-55.3347904666
 20
67.0938470334
 10
-55.4700416409
 20
67.1169988741
 10
-55.6003186187
 20
67.1209819297
 10
-55.7242467864
 20
67.1057338039
 10
-55.8404366903
 20
67.0714353794
 10
-55.9547798353
 20
67.0142040347
  0
LINE
  5
3DC
100
AcDbEntity
  8
DRAFT
100
AcDbLine
 62
7
  6
CONTINUOUS
 10
-50.8808760447
 20
68.6311619872
 11
55.8922479145
 21
15.2446000076
  0
LWPOLYLINE
  5
3DD
100
AcDbEntity
  8
RACCORDO
100
AcDbPolyline
 62
7
  6
CONTINUOUS
 90
19
 70
0
 10
54.4410340787
 20
15.2966087081
 10
54.5621565417
 20
15.2345337829
 10
54.6813393139
 20
15.1611116421
 10
54.7985819487
 20
15.0763420454
 10
54.9151581814
 20
14.9790739444
 10
55.0297935913
 20
14.8704580189
 10
55.1386646737
 20
14.7539461751
 10
55.2410494354
 20
14.6298452712
 10
55.3376674335
 20
14.4978471339
 10
55.4268564422
 20
14.3604805571
 10
55.5085838293
 20
14.2176835642
 10
55.5828797886
 20
14.0695168143
 10
55.6481759633
 20
13.9186928555
 10
55.7044307767
 20
13.7643165025
 10
55.7516837066
 20
13.6072818059
 10
55.7884878583
 20
13.452985103
 10
55.814360461
 20
13.3032249174
 10
55.8297830122
 20
13.156202037
 10
55.8347552034
 20
13.0119162949
  0
LWPOLYLINE
  5
3DE
100
AcDbEntity
  8
DRAFT
100
AcDbPolyline
 62
7
  6
CONTINUOUS
 90
8
 70
0
 10
55.8922479145
 20
15.2446000076
 10
55.9128086181
 20
15.2339534726
 10
55.9333551907
 20
15.2225817142
 10
55.9538702386
 20
15.2104940102
 10
55.9743395536
 20
15.1976982118
 10
55.9947425865
 20
15.1842066428
 10
56.0150525826
 20
15.1700371595
 10
56.0336710864
 20
15.1563907013
  0
LWPOLYLINE
  5
3DF
100
AcDbEntity
  8
RACCORDO
100
AcDbPolyline
 62
7
  6
CONTINUOUS
 90
13
 70
0
 10
38.5425609459
 20
0.0397823752
 10
38.5545587361
 20
0.0020792567
 10
38.5656570281
 20
-0.0357757666
 10
38.5758398008
 20
-0.0736639605
 10
38.5850161966
 20
-0.1111040181
 10
38.5931214785
 20
-0.1477848912
 10
38.6002203485
 20
-0.1840176465
 10
38.6064161099
 20
-0.2202541478
 10
38.6117651863
 20
-0.2566873916
 10
38.616211134
 20
-0.293124392
 10
38.6196879592
 20
-0.3294380378
 10
38.6221736597
 20
-0.3655859606
 10
38.6236902262
 20
-0.4016105348
  0
LWPOLYLINE
  5
3E0
100
AcDbEntity
  8
RACCORDO
100
AcDbPolyline
 62
7
  6
CONTINUOUS
 90
4
 70
0
 10
38.5526651968
 20
-0.08246903
 10
38.5761693906
 20
-0.199115102
 10
38.589502378
 20
-0.3126551555
 10
38.5928218153
 20
-0.4010517689
  0
LWPOLYLINE
  5
3E1
100
AcDbEntity
  8
RACCORDO
100
AcDbPolyline
 62
7
  6
CONTINUOUS
 90
9
 70
0
 10
50.8413813487
 20
-67.5128196368
 10
50.8462770864
 20
-67.6085291689
 10
50.8608743808
 20
-67.6974302526
 10
50.8849398501
 20
-67.7781015406
 10
50.9180887359
 20
-67.849253263
 10
50.959791055
 20
-67.9097478488
 10
51.0093800723
 20
-67.958618113
 10
51.0660629605
 20
-67.9950827195
 10
51.0747847513
 20
-67.9992874816
  0
LINE
  5
3E2
100
AcDbEntity
  8
RACCORDO
100
AcDbLine
 62
7
  6
CONTINUOUS
 10
38.6199120797
 20
-43.097976574
 11
38.6165411456
 21
-43.1307197825
  0
LWPOLYLINE
  5
3E3
100
AcDbEntity
  8
RACCORDO
100
AcDbPolyline
 62
7
  6
CONTINUOUS
 90
10
 70
0
 10
38.6165411456
 20
-43.1307197825
 10
38.6122064661
 20
-43.1629388243
 10
38.6069127485
 20
-43.1945150155
 10
38.6006556743
 20
-43.225447397
 10
38.5934395839
 20
-43.2557369162
 10
38.5852821755
 20
-43.2852677474
 10
38.5761791227
 20
-43.3140370433
 10
38.5661347838
 20
-43.3420476343
 10
38.5551798858
 20
-43.3691922093
 10
38.5433107504
 20
-43.3954664836
  0
LINE
  5
3E4
100
AcDbEntity
  8
DRAFT
100
AcDbLine
 62
7
  6
CONTINUOUS
 10
36.6146677616
 20
-37.861697618
 11
36.6029178904
 21
-37.9095291124
  0
LINE
  5
3E5
100
AcDbEntity
  8
ASSI
100
AcDbLine
 62
7
  6
CONTINUOUS
 10
36.6163599033
 20
-37.8591343774
 11
36.6746013233
 21
-37.6220446177
  0
LINE
  5
3E6
100
AcDbEntity
  8
ASSI
100
AcDbLine
 62
7
  6
CONTINUOUS
 10
36.6158687341
 20
-37.8610949529
 11
36.6163599033
 21
-37.8591343774
  0
LWPOLYLINE
  5
3E7
100
AcDbEntity
  8
RACCORDO
100
AcDbPolyline
 62
7
  6
CONTINUOUS
 90
4
 70
0
 10
38.5761190571
 20
-43.1455053897
 10
38.551677608
 20
-43.2406933412
 10
38.517381702
 20
-43.3247809492
 10
38.4742005602
 20
-43.3968121166
  0
LWPOLYLINE
  5
3E8
100
AcDbEntity
  8
DRAFT
100
AcDbPolyline
 62
7
  6
CONTINUOUS
 90
16
 70
0
 10
36.6029178904
 20
-37.9095291124
 10
36.600613566
 20
-37.9180895527
 10
36.597992143
 20
-37.926334781
 10
36.5950536213
 20
-37.9342647973
 10
36.5917913371
 20
-37.9418930386
 10
36.5882119542
 20
-37.9492060678
 10
36.5843354647
 20
-37.9561635735
 10
36.5801617791
 20
-37.962761673
 10
36.5756909868
 20
-37.969004249
 10
36.5709433484
 20
-37.9748626382
 10
36.5659150146
 20
-37.9803373614
 10
36.5606098346
 20
-37.9854278977
 10
36.5550596167
 20
-37.9901040215
 10
36.5492665871
 20
-37.9943610563
 10
36.5432285196
 20
-37.9982036785
 10
36.5370468581
 20
-38.001577356
  0
LINE
  5
3E9
100
AcDbEntity
  8
ASSI
100
AcDbLine
 62
7
  6
CONTINUOUS
 10
31.3310021118
 20
-35.6056209208
 11
31.4263532854
 21
-35.4411644732
  0
LINE
  5
3EA
100
AcDbEntity
  8
ASSI
100
AcDbLine
 62
7
  6
CONTINUOUS
 10
31.6845555024
 20
-35.4288442255
 11
31.779906676
 21
-35.264387778
  0
LINE
  5
3EB
100
AcDbEntity
  8
ASSI
100
AcDbLine
 62
7
  6
CONTINUOUS
 10
32.038108893
 20
-35.2520675302
 11
32.1334600666
 21
-35.0876110827
  0
LINE
  5
3EC
100
AcDbEntity
  8
ASSI
100
AcDbLine
 62
7
  6
CONTINUOUS
 10
32.3916622836
 20
-35.0752908349
 11
32.4870134572
 21
-34.9108343874
  0
LINE
  5
3ED
100
AcDbEntity
  8
ASSI
100
AcDbLine
 62
7
  6
CONTINUOUS
 10
32.7452156742
 20
-34.8985141396
 11
32.8405668478
 21
-34.7340576921
  0
LINE
  5
3EE
100
AcDbEntity
  8
ASSI
100
AcDbLine
 62
7
  6
CONTINUOUS
 10
31.0764715478
 20
-35.616105342
 11
31.214221251
 21
-35.5472304904
  0
LINE
  5
3EF
100
AcDbEntity
  8
ASSI
100
AcDbLine
 62
7
  6
CONTINUOUS
 10
31.4263532854
 20
-35.4411644732
 11
31.5677746416
 21
-35.3704537951
  0
LINE
  5
3F0
100
AcDbEntity
  8
ASSI
100
AcDbLine
 62
7
  6
CONTINUOUS
 10
31.779906676
 20
-35.264387778
 11
31.9213280322
 21
-35.1936770998
  0
LINE
  5
3F1
100
AcDbEntity
  8
ASSI
100
AcDbLine
 62
7
  6
CONTINUOUS
 10
32.1334600666
 20
-35.0876110827
 11
32.2748814228
 21
-35.0169004045
  0
LINE
  5
3F2
100
AcDbEntity
  8
ASSI
100
AcDbLine
 62
7
  6
CONTINUOUS
 10
32.4870134572
 20
-34.9108343874
 11
32.6284348134
 21
-34.8401237092
  0
LINE
  5
3F3
100
AcDbEntity
  8
ASSI
100
AcDbLine
 62
7
  6
CONTINUOUS
 10
32.8405668478
 20
-34.7340576921
 11
32.981988204
 21
-34.6633470139
  0
LINE
  5
3F4
100
AcDbEntity
  8
RACCORDO
100
AcDbLine
 62
7
  6
CONTINUOUS
 10
32.9038659467
 20
-34.6481236787
 11
30.9235724734
 21
-35.5396558048
  0
LWPOLYLINE
  5
3F5
100
AcDbEntity
  8
ASSI
100
AcDbPolyline
 62
7
  6
CONTINUOUS
 90
3
 70
0
 10
32.9210288618
 20
-34.641758851
 10
32.9162616957
 20
-34.6431913579
 10
32.9116552607
 20
-34.6448542853
  0
LINE
  5
3F6
100
AcDbEntity
  8
SMUSSO
100
AcDbLine
 62
7
  6
CONTINUOUS
 10
56.0336692707
 20
15.1563920631
 11
56.3165119832
 21
14.9442600288
  0
LWPOLYLINE
  5
3F7
100
AcDbEntity
  8
DRAFT
100
AcDbPolyline
 62
7
  6
CONTINUOUS
 90
48
 70
0
 10
56.0336710864
 20
15.1563907013
 10
56.0553096952
 20
15.1397276895
 10
56.0752446662
 20
15.1235977658
 10
56.0950425011
 20
15.1068227368
 10
56.1146761263
 20
15.0894240817
 10
56.1341127915
 20
15.0714308798
 10
56.1533254946
 20
15.0528698002
 10
56.1723093058
 20
15.0337472944
 10
56.1910647531
 20
15.0140628308
 10
56.2095860489
 20
14.9938207533
 10
56.2278464972
 20
14.9730484832
 10
56.2458156054
 20
14.9517806461
 10
56.2634696439
 20
14.9300469375
 10
56.2808031939
 20
14.907855664
 10
56.2978136745
 20
14.8852102331
 10
56.3144927747
 20
14.8621203801
 10
56.3308194103
 20
14.8386139361
 10
56.3467720771
 20
14.8147216559
 10
56.3623342493
 20
14.7904690351
 10
56.3774963038
 20
14.7658718336
 10
56.3922479145
 20
14.7409470395
 10
56.4065766038
 20
14.7157157354
 10
56.4204702519
 20
14.6901992629
 10
56.4339192037
 20
14.6644150964
 10
56.4469145198
 20
14.6383794914
 10
56.4594421299
 20
14.6121197231
 10
56.4714857018
 20
14.5856702948
 10
56.483031119
 20
14.5590640873
 10
56.4940738258
 20
14.5323135575
 10
56.5046120936
 20
14.5054227305
 10
56.5146413521
 20
14.4784005281
 10
56.5241470428
 20
14.4512832923
 10
56.5331133426
 20
14.4241162804
 10
56.5415287605
 20
14.3969379335
 10
56.5493921126
 20
14.3697559321
 10
56.5567036174
 20
14.3425695201
 10
56.56346002
 20
14.3153863628
 10
56.5696505684
 20
14.2882449068
 10
56.57526489
 20
14.2611904492
 10
56.5802964997
 20
14.2342593909
 10
56.5847447976
 20
14.2074606827
 10
56.588609181
 20
14.1807983581
 10
56.5918869944
 20
14.1542848877
 10
56.5945733111
 20
14.1279532196
 10
56.5966644739
 20
14.1018379496
 10
56.5981588096
 20
14.075965082
 10
56.5990557083
 20
14.0503523233
 10
56.5993546956
 20
14.0250212132
  0
LWPOLYLINE
  5
3F8
100
AcDbEntity
  8
SMUSSO
100
AcDbPolyline
 62
7
  6
CONTINUOUS
 90
35
 70
0
 10
56.3165192506
 20
14.9442528348
 10
56.3304121696
 20
14.9334760066
 10
56.3441582398
 20
14.9220903618
 10
56.3577672193
 20
14.9100920603
 10
56.3711730652
 20
14.8975393286
 10
56.38437479
 20
14.8844294717
 10
56.3973733813
 20
14.8707651847
 10
56.4101057582
 20
14.8566127786
 10
56.4225706268
 20
14.841969881
 10
56.4347692811
 20
14.8268388643
 10
56.4466425223
 20
14.8112931579
 10
56.4581887688
 20
14.7953307458
 10
56.4694096023
 20
14.778953644
 10
56.4802505692
 20
14.7622413285
 10
56.4907098233
 20
14.74519217
 10
56.5007892109
 20
14.7278077979
 10
56.510439818
 20
14.7101725766
 10
56.5196595602
 20
14.6922852868
 10
56.5284505218
 20
14.6741471477
 10
56.5367700412
 20
14.6558461819
 10
56.544615827
 20
14.6373815977
 10
56.5519901706
 20
14.6187541866
 10
56.5588572851
 20
14.6000543454
 10
56.5652147052
 20
14.5812817221
 10
56.5710648962
 20
14.5624366686
 10
56.5763794679
 20
14.5436106379
 10
56.5811558168
 20
14.5248037225
 10
56.5853965463
 20
14.5060158299
 10
56.5890810767
 20
14.4873381357
 10
56.5922067044
 20
14.4687711754
 10
56.594776133
 20
14.4503144135
 10
56.5967768934
 20
14.4320574186
 10
56.5982048291
 20
14.4140300467
 10
56.5990640965
 20
14.3962024418
 10
56.5993546956
 20
14.3785746038
  0
LWPOLYLINE
  5
3F9
100
AcDbEntity
  8
RACCORDO
100
AcDbPolyline
 62
7
  6
CONTINUOUS
 90
16
 70
0
 10
52.7884659568
 20
11.4551207302
 10
52.7775778452
 20
11.6285333846
 10
52.752224224
 20
11.8073147217
 10
52.712734544
 20
11.989487377
 10
52.6595661138
 20
12.1730497418
 10
52.5932028836
 20
12.3560986152
 10
52.5143786746
 20
12.5367976445
 10
52.4239560018
 20
12.7132191481
 10
52.3228384466
 20
12.8832984698
 10
52.212152863
 20
13.0451403974
 10
52.093226229
 20
13.1969971461
 10
51.9673220397
 20
13.3371614998
 10
51.8356873578
 20
13.4641343119
 10
51.6997241664
 20
13.5765896799
 10
51.5609573243
 20
13.6732519897
 10
51.4210509717
 20
13.7531055978
  0
LWPOLYLINE
  5
3FA
100
AcDbEntity
  8
RACCORDO
100
AcDbPolyline
 62
7
  6
CONTINUOUS
 90
16
 70
0
 10
51.5749475517
 20
11.459260472
 10
51.5706645081
 20
11.5527861547
 10
51.5587794438
 20
11.6470238734
 10
51.5392925315
 20
11.7419737213
 10
51.5118377852
 20
11.8387070206
 10
51.4767818847
 20
11.9361528238
 10
51.4352240941
 20
12.0310978699
 10
51.3869410595
 20
12.1234506055
 10
51.3321572657
 20
12.2133031946
 10
51.2726435984
 20
12.297717879
 10
51.2081913938
 20
12.3765342153
 10
51.1390104554
 20
12.449913262
 10
51.0674989337
 20
12.515399277
 10
50.9944562862
 20
12.5721737195
 10
50.919083628
 20
12.6210554391
 10
50.8413812963
 20
12.6620446176
  0
LINE
  5
3FB
100
AcDbEntity
  8
RACCORDO
100
AcDbLine
 62
7
  6
CONTINUOUS
 10
51.5749475517
 20
-66.989400605
 11
51.5749475517
 21
11.459260472
  0
LINE
  5
3FC
100
AcDbEntity
  8
RACCORDO
100
AcDbLine
 62
7
  6
CONTINUOUS
 10
52.7885318462
 20
-66.993576962
 11
52.7885318462
 21
11.455084115
  0
LWPOLYLINE
  5
3FD
100
AcDbEntity
  8
RACCORDO
100
AcDbPolyline
 62
7
  6
CONTINUOUS
 90
13
 70
0
 10
50.8413813061
 20
12.6620446229
 10
50.8462719766
 20
12.76304328
 10
50.8608651111
 20
12.8677048552
 10
50.8849273758
 20
12.9743558835
 10
50.9180740318
 20
13.0812910894
 10
50.9597750873
 20
13.1868006542
 10
51.0093637718
 20
13.289197554
 10
51.066047197
 20
13.3868445343
 10
51.1289190346
 20
13.4781802881
 10
51.196974009
 20
13.5617444204
 10
51.2691239692
 20
13.6362007993
 10
51.3442152875
 20
13.7003589192
 10
51.4210473064
 20
13.7531929369
  0
LINE
  5
3FE
100
AcDbEntity
  8
RACCORDO
100
AcDbLine
 62
7
  6
CONTINUOUS
 10
38.5433107504
 20
-43.3954664836
 11
38.5305310967
 21
-43.4208747204
  0
LINE
  5
3FF
100
AcDbEntity
  8
ASSI
100
AcDbLine
 62
7
  6
CONTINUOUS
 10
35.2093745647
 20
-37.5686449407
 11
35.3154405819
 21
-37.3857081215
  0
LINE
  5
400
100
AcDbEntity
  8
ASSI
100
AcDbLine
 62
7
  6
CONTINUOUS
 10
35.5629279553
 20
-37.3918682454
 11
35.6689939725
 21
-37.2089314262
  0
LINE
  5
401
100
AcDbEntity
  8
ASSI
100
AcDbLine
 62
7
  6
CONTINUOUS
 10
35.9164813459
 20
-37.2150915501
 11
36.0225473631
 21
-37.0321547309
  0
LINE
  5
402
100
AcDbEntity
  8
ASSI
100
AcDbLine
 62
7
  6
CONTINUOUS
 10
36.2700347365
 20
-37.0383148548
 11
36.3761007537
 21
-36.8553780356
  0
LINE
  5
403
100
AcDbEntity
  8
ASSI
100
AcDbLine
 62
7
  6
CONTINUOUS
 10
36.6235881271
 20
-36.8615381595
 11
36.7296541443
 21
-36.6786013403
  0
LINE
  5
404
100
AcDbEntity
  8
ASSI
100
AcDbLine
 62
7
  6
CONTINUOUS
 10
36.9064308396
 20
-37.5039139832
 11
37.0713600643
 21
-37.3843823735
  0
LINE
  5
405
100
AcDbEntity
  8
DRAFT
100
AcDbLine
 62
7
  6
CONTINUOUS
 10
56.5993546956
 20
-22.1648013721
 11
55.8347552034
 21
-22.6659225072
  0
LINE
  5
406
100
AcDbEntity
  8
ASSI
100
AcDbLine
 62
7
  6
CONTINUOUS
 10
37.0713600643
 20
-36.8268163543
 11
35.37826554
 21
-37.7670023381
  0
LINE
  5
407
100
AcDbEntity
  8
ASSI
100
AcDbLine
 62
7
  6
CONTINUOUS
 10
36.9064308396
 20
-37.5039139832
 11
35.8889848027
 21
-38.0223619695
  0
LINE
  5
408
100
AcDbEntity
  8
DRAFT
100
AcDbLine
 62
7
  6
CONTINUOUS
 10
36.1932760127
 20
-38.1745075745
 11
36.5370469863
 21
-38.0015772762
  0
LINE
  5
409
100
AcDbEntity
  8
DRAFT
100
AcDbLine
 62
7
  6
CONTINUOUS
 10
36.1342749107
 20
-38.1450070235
 11
36.6029178904
 21
-37.9095291124
  0
LINE
  5
40A
100
AcDbEntity
  8
DRAFT
100
AcDbLine
 62
7
  6
CONTINUOUS
 10
36.6163599033
 20
-37.8591343774
 11
36.0906238998
 21
-38.123181518
  0
LINE
  5
40B
100
AcDbEntity
  8
DRAFT
100
AcDbLine
 62
7
  6
CONTINUOUS
 10
36.6158687341
 20
-37.8610949529
 11
36.0921099492
 21
-38.1239245427
  0
LINE
  5
40C
100
AcDbEntity
  8
ASSI
100
AcDbLine
 62
7
  6
CONTINUOUS
 10
34.9655588444
 20
-37.5606489903
 11
35.1033085476
 21
-37.4917741387
  0
LINE
  5
40D
100
AcDbEntity
  8
ASSI
100
AcDbLine
 62
7
  6
CONTINUOUS
 10
35.3154405819
 20
-37.3857081215
 11
35.4568619382
 21
-37.3149974434
  0
LINE
  5
40E
100
AcDbEntity
  8
ASSI
100
AcDbLine
 62
7
  6
CONTINUOUS
 10
35.6689939725
 20
-37.2089314262
 11
35.8104153288
 21
-37.1382207481
  0
LINE
  5
40F
100
AcDbEntity
  8
ASSI
100
AcDbLine
 62
7
  6
CONTINUOUS
 10
36.0225473631
 20
-37.0321547309
 11
36.1639687193
 21
-36.9614440528
  0
LINE
  5
410
100
AcDbEntity
  8
ASSI
100
AcDbLine
 62
7
  6
CONTINUOUS
 10
36.3761007537
 20
-36.8553780356
 11
36.5175221099
 21
-36.7846673575
  0
LINE
  5
411
100
AcDbEntity
  8
ASSI
100
AcDbLine
 62
7
  6
CONTINUOUS
 10
36.7296541443
 20
-36.6786013403
 11
36.8710755005
 21
-36.6078906622
  0
LINE
  5
412
100
AcDbEntity
  8
ASSI
100
AcDbLine
 62
7
  6
CONTINUOUS
 10
36.9771415177
 20
-36.6847614642
 11
35.0954626549
 21
-37.6256008956
  0
LINE
  5
413
100
AcDbEntity
  8
ASSI
100
AcDbLine
 62
7
  6
CONTINUOUS
 10
37.0713600643
 20
-37.3336419258
 11
35.7891499095
 21
-37.9724445229
  0
LINE
  5
414
100
AcDbEntity
  8
RACCORDO
100
AcDbLine
 62
7
  6
CONTINUOUS
 10
38.592822032
 20
-42.4898334635
 11
38.2714280242
 21
-42.6161297639
  0
LINE
  5
415
100
AcDbEntity
  8
RACCORDO
100
AcDbLine
 62
7
  6
CONTINUOUS
 10
37.9721150213
 20
-43.1736720662
 11
38.592822032
 21
-42.9297561545
  0
LINE
  5
416
100
AcDbEntity
  8
RACCORDO
100
AcDbLine
 62
7
  6
CONTINUOUS
 10
55.8347552034
 20
13.0119162539
 11
55.8347552034
 21
-65.8075772702
  0
LINE
  5
417
100
AcDbEntity
  8
DRAFT
100
AcDbLine
 62
7
  6
CONTINUOUS
 10
56.5993546956
 20
-22.1648013721
 11
56.5993546956
 21
14.3785746038
  0
LINE
  5
418
100
AcDbEntity
  8
DRAFT
100
AcDbLine
 62
7
  6
CONTINUOUS
 10
56.5993546956
 20
-28.3162663776
 11
56.5993546956
 21
-64.7832905312
  0
LWPOLYLINE
  5
419
100
AcDbEntity
  8
DRAFT
100
AcDbPolyline
 62
7
  6
CONTINUOUS
 90
33
 70
0
 10
56.5993546956
 20
-64.7832905312
 10
56.5990557083
 20
-64.8083226539
 10
56.5981588096
 20
-64.8330385138
 10
56.5966644739
 20
-64.8574170457
 10
56.5945733111
 20
-64.881441153
 10
56.5918869944
 20
-64.9050865044
 10
56.588609181
 20
-64.9283221613
 10
56.5847447976
 20
-64.9511201026
 10
56.5802964997
 20
-64.9734705129
 10
56.57526489
 20
-64.9953699615
 10
56.5696505684
 20
-65.0168100976
 10
56.56346002
 20
-65.037761005
 10
56.5567036174
 20
-65.0581877598
 10
56.5493921126
 20
-65.078062667
 10
56.5415287605
 20
-65.0973813164
 10
56.5331133426
 20
-65.1161442452
 10
56.5241470428
 20
-65.1343449574
 10
56.5146413521
 20
-65.1519565025
 10
56.5046120936
 20
-65.1689494464
 10
56.4940738258
 20
-65.1853020056
 10
56.483031119
 20
-65.2010098286
 10
56.4714857018
 20
-65.2160706189
 10
56.4594421299
 20
-65.2304764753
 10
56.4469145198
 20
-65.2442086335
 10
56.4339192037
 20
-65.2572489223
 10
56.4204702519
 20
-65.269584137
 10
56.4065766038
 20
-65.2812069614
 10
56.3922479145
 20
-65.2921095763
 10
56.3774963038
 20
-65.3022827597
 10
56.3623342493
 20
-65.3117179067
 10
56.3467720771
 20
-65.3204083553
 10
56.3308194103
 20
-65.3283479687
 10
56.3168558642
 20
-65.3345453635
  0
LWPOLYLINE
  5
41A
100
AcDbEntity
  8
RACCORDO
100
AcDbPolyline
 62
7
  6
CONTINUOUS
 90
12
 70
0
 10
55.8347552034
 20
-65.8075773112
 10
55.8297830122
 20
-65.9472664939
 10
55.814360461
 20
-66.0800317425
 10
55.7884878583
 20
-66.2058728899
 10
55.7516837066
 20
-66.3261429382
 10
55.7044307767
 20
-66.4394881968
 10
55.6481759633
 20
-66.541848361
 10
55.5828797886
 20
-66.6322909264
 10
55.5085838293
 20
-66.7117472626
 10
55.4268564422
 20
-66.7789529399
 10
55.3376674335
 20
-66.833817032
 10
55.2590623835
 20
-66.8696499171
  0
LWPOLYLINE
  5
41B
100
AcDbEntity
  8
RACCORDO
100
AcDbPolyline
 62
7
  6
CONTINUOUS
 90
19
 70
0
 10
38.5305310967
 20
-43.4208747204
 10
38.5168827485
 20
-43.4453224301
 10
38.5023632392
 20
-43.4688046458
 10
38.4869750836
 20
-43.491326309
 10
38.4707675774
 20
-43.5128077937
 10
38.4537394187
 20
-43.5332446245
 10
38.435891963
 20
-43.5526412483
 10
38.4172784903
 20
-43.5709314227
 10
38.3978955831
 20
-43.5881131289
 10
38.3777467162
 20
-43.6041883553
 10
38.3568955058
 20
-43.6190968713
 10
38.3353369547
 20
-43.6328357815
 10
38.3130761188
 20
-43.6454079503
 10
38.2901916888
 20
-43.6567617895
 10
38.2666791668
 20
-43.6668921393
 10
38.2425431078
 20
-43.6758041292
 10
38.2178757752
 20
-43.6834616086
 10
38.1926736594
 20
-43.6898580484
 10
38.1669403222
 20
-43.69499995
  0
LWPOLYLINE
  5
41C
100
AcDbEntity
  8
RACCORDO
100
AcDbPolyline
 62
7
  6
CONTINUOUS
 90
13
 70
0
 10
37.0853904278
 20
-41.7079569046
 10
37.0828265345
 20
-41.711508557
 10
37.0798214236
 20
-41.7151401829
 10
37.0763823245
 20
-41.7188430457
 10
37.0725175105
 20
-41.7226082377
 10
37.0682362793
 20
-41.726426701
 10
37.0635489302
 20
-41.7302892497
 10
37.0584667395
 20
-41.7341865917
 10
37.0530019336
 20
-41.7381093514
 10
37.047167659
 20
-41.7420480918
 10
37.0409779512
 20
-41.7459933377
 10
37.0344477008
 20
-41.7499355981
 10
37.0275926176
 20
-41.7538653892
  0
LWPOLYLINE
  5
41D
100
AcDbEntity
  8
RACCORDO
100
AcDbPolyline
 62
7
  6
CONTINUOUS
 90
4
 70
0
 10
38.4742005602
 20
-43.3968121166
 10
38.4229294207
 20
-43.4564163211
 10
38.3646967529
 20
-43.5030547268
 10
38.3320484108
 20
-43.5221408691
  0
LINE
  5
41E
100
AcDbEntity
  8
RACCORDO
100
AcDbLine
 62
7
  6
CONTINUOUS
 10
38.3320530153
 20
-43.5221384795
 11
38.3319840285
 21
-43.5221742882
  0
LINE
  5
41F
100
AcDbEntity
  8
RACCORDO
100
AcDbLine
 62
7
  6
CONTINUOUS
 10
38.5001306132
 20
-43.1955751132
 11
37.8687027173
 21
-43.5232528303
  0
LWPOLYLINE
  5
420
100
AcDbEntity
  8
RACCORDO
100
AcDbPolyline
 62
7
  6
CONTINUOUS
 90
20
 70
0
 10
38.3319840285
 20
-43.5221742882
 10
38.3142974264
 20
-43.5308551175
 10
38.2926891307
 20
-43.540174142
 10
38.2705320191
 20
-43.5483637806
 10
38.2478611251
 20
-43.5554108293
 10
38.2247014319
 20
-43.5613067842
 10
38.2010802302
 20
-43.5660450707
 10
38.1770377116
 20
-43.5696194349
 10
38.1526080604
 20
-43.5720267084
 10
38.1278137323
 20
-43.5732670933
 10
38.1026780727
 20
-43.5733417871
 10
38.077140884
 20
-43.5722456302
 10
38.0513183674
 20
-43.5699784181
 10
38.025507302
 20
-43.5665856669
 10
38.0000028708
 20
-43.5621576663
 10
37.9745853912
 20
-43.5567061629
 10
37.9487744982
 20
-43.5501317451
 10
37.9224215726
 20
-43.5423583985
 10
37.8957217222
 20
-43.533404657
 10
37.8687026886
 20
-43.5232523228
  0
LWPOLYLINE
  5
421
100
AcDbEntity
  8
RACCORDO
100
AcDbPolyline
 62
7
  6
CONTINUOUS
 90
33
 70
0
 10
37.9721148184
 20
-43.1736721459
 10
37.9865753472
 20
-43.1676568136
 10
38.0033567531
 20
-43.1598064157
 10
38.0197402973
 20
-43.1511792634
 10
38.0357125232
 20
-43.1417827899
 10
38.0512590125
 20
-43.1316255172
 10
38.0663666371
 20
-43.1207162987
 10
38.0810228472
 20
-43.1090645726
 10
38.0952145528
 20
-43.0966806461
 10
38.1089296048
 20
-43.0835753531
 10
38.1221565582
 20
-43.0697600087
 10
38.1348838761
 20
-43.0552465083
 10
38.147100556
 20
-43.0400474824
 10
38.1587962369
 20
-43.0241761058
 10
38.1699608764
 20
-43.0076459105
 10
38.1805846306
 20
-42.9904713286
 10
38.1906583794
 20
-42.9726672276
 10
38.2001737321
 20
-42.9542485701
 10
38.2091221088
 20
-42.9352314199
 10
38.2174956496
 20
-42.9156322795
 10
38.2252876353
 20
-42.8954674916
 10
38.2324907932
 20
-42.8747546844
 10
38.239098604
 20
-42.8535118358
 10
38.2451060924
 20
-42.8317564763
 10
38.2505073996
 20
-42.8095074147
 10
38.2552973191
 20
-42.7867842151
 10
38.2594725301
 20
-42.7636061811
 10
38.2630285294
 20
-42.73999406
 10
38.2659617026
 20
-42.7159680818
 10
38.2682707149
 20
-42.6915473157
 10
38.2699533034
 20
-42.666752466
 10
38.2710063776
 20
-42.6416059252
 10
38.2714280242
 20
-42.6161297639
  0
LWPOLYLINE
  5
422
100
AcDbEntity
  8
RACCORDO
100
AcDbPolyline
 62
7
  6
CONTINUOUS
 90
10
 70
0
 10
52.2116345776
 20
-68.0560673512
 10
52.322838231
 20
-68.001269183
 10
52.4239557816
 20
-67.9283099253
 10
52.5143784595
 20
-67.8377222969
 10
52.5932026854
 20
-67.7306925998
 10
52.6595659451
 20
-67.6083997706
 10
52.7127344155
 20
-67.4720215029
 10
52.7522241373
 20
-67.3230203914
 10
52.7775777918
 20
-67.1629692881
 10
52.7884659273
 20
-66.9935403853
  0
LINE
  5
423
100
AcDbEntity
  8
DRAFT
100
AcDbLine
 62
7
  6
CONTINUOUS
 10
56.5993546956
 20
-64.7832905312
 11
55.8347552034
 21
-65.1275147687
  0
LINE
  5
424
100
AcDbEntity
  8
DRAFT
100
AcDbLine
 62
7
  6
CONTINUOUS
 10
56.3168581286
 20
-65.334544413
 11
55.8347552034
 21
-65.5368976859
  0
LINE
  5
425
100
AcDbEntity
  8
RACCORDO
100
AcDbLine
 62
7
  6
CONTINUOUS
 10
55.8347552034
 20
-65.8075772702
 11
52.7885318462
 21
-66.993576962
  0
LINE
  5
426
100
AcDbEntity
  8
RACCORDO
100
AcDbLine
 62
7
  6
CONTINUOUS
 10
52.2099848505
 20
-68.0567122513
 11
55.2590706782
 21
-66.8696672889
  0
ELLIPSE
  5
427
100
AcDbEntity
  8
RACCORDO
100
AcDbEllipse
 62
7
  6
CONTINUOUS
 10
-40.7151707076
 20
0.4531585637
 30
0.0
 11
-0.0893486075
 21
0.1789386858
 31
0.0
 40
0.6140178746
 41
0.8880524522
 42
2.4561097232
  0
ELLIPSE
  5
428
100
AcDbEntity
  8
ASSI
100
AcDbEllipse
 62
7
  6
CONTINUOUS
 10
-30.7357443601
 20
-3.001523606
 30
0.0
 11
0.0974129977
 21
0.1748074534
 31
0.0
 40
0.6437101552
 41
0.6611775963
 42
0.7135374739
  0
ELLIPSE
  5
429
100
AcDbEntity
  8
ASSI
100
AcDbEllipse
 62
7
  6
CONTINUOUS
 10
32.9038659467
 20
-34.8213287594
 30
0.0
 11
0.0974129977
 21
0.1748074534
 31
0.0
 40
0.6437101552
 41
0.6611775963
 42
0.7135374739
  0
ELLIPSE
  5
42A
100
AcDbEntity
  8
ASSI
100
AcDbEllipse
 62
7
  6
CONTINUOUS
 10
16.99396337
 20
-26.9529800114
 30
0.0
 11
0.0974129977
 21
0.1748074534
 31
0.0
 40
0.6437101552
 41
0.6611775963
 42
0.7135374739
  0
ELLIPSE
  5
42B
100
AcDbEntity
  8
ASSI
100
AcDbEllipse
 62
7
  6
CONTINUOUS
 10
-14.8258417834
 20
-11.0430774348
 30
0.0
 11
0.0974129977
 21
0.1748074534
 31
0.0
 40
0.6437101552
 41
0.6611775963
 42
0.7135374739
  0
ELLIPSE
  5
42C
100
AcDbEntity
  8
ASSI
100
AcDbEllipse
 62
7
  6
CONTINUOUS
 10
1.0840607933
 20
-18.9980287231
 30
0.0
 11
0.0974129977
 21
0.1748074534
 31
0.0
 40
0.6437101552
 41
0.6611775963
 42
0.7135374739
  0
ELLIPSE
  5
42D
100
AcDbEntity
  8
ASSI
100
AcDbEllipse
 62
7
  6
CONTINUOUS
 10
21.2514272155
 20
-29.0817119342
 30
0.0
 11
0.0823576675
 21
0.1823694112
 31
0.0
 40
0.5796795686
 41
0.6094740628
 42
0.6618339404
  0
ELLIPSE
  5
42E
100
AcDbEntity
  8
ASSI
100
AcDbEllipse
 62
7
  6
CONTINUOUS
 10
-10.5683779379
 20
-13.1718093575
 30
0.0
 11
0.0823576675
 21
0.1823694112
 31
0.0
 40
0.5796795686
 41
0.6094740628
 42
0.6618339404
  0
ELLIPSE
  5
42F
100
AcDbEntity
  8
ASSI
100
AcDbEllipse
 62
7
  6
CONTINUOUS
 10
5.3415246388
 20
-21.1267606459
 30
0.0
 11
0.0823576675
 21
0.1823694112
 31
0.0
 40
0.5796795686
 41
0.6094740628
 42
0.6618339404
  0
ELLIPSE
  5
430
100
AcDbEntity
  8
ASSI
100
AcDbEllipse
 62
7
  6
CONTINUOUS
 10
-26.4782805146
 20
-5.1302555288
 30
0.0
 11
0.0823576675
 21
0.1823694112
 31
0.0
 40
0.5796795686
 41
0.6094740628
 42
0.6618339404
  0
ELLIPSE
  5
431
100
AcDbEntity
  8
ASSI
100
AcDbEllipse
 62
7
  6
CONTINUOUS
 10
-26.6198959498
 20
-5.5716485285
 30
0.0
 11
0.1997674032
 21
0.1243735635
 31
0.0
 40
0.0775313764
 41
5.4495541764
 42
6.9679906257
  0
ELLIPSE
  5
432
100
AcDbEntity
  8
ASSI
100
AcDbEllipse
 62
7
  6
CONTINUOUS
 10
21.1098117803
 20
-29.4798036638
 30
0.0
 11
0.1997674032
 21
0.1243735635
 31
0.0
 40
0.0775313764
 41
5.4495541764
 42
6.9679906257
  0
ELLIPSE
  5
433
100
AcDbEntity
  8
ASSI
100
AcDbEllipse
 62
7
  6
CONTINUOUS
 10
-10.7099933731
 20
-13.5699010871
 30
0.0
 11
0.1997674032
 21
0.1243735635
 31
0.0
 40
0.0775313764
 41
5.4495541764
 42
6.9679906257
  0
ELLIPSE
  5
434
100
AcDbEntity
  8
ASSI
100
AcDbEllipse
 62
7
  6
CONTINUOUS
 10
5.1999092036
 20
-21.5248523754
 30
0.0
 11
0.1997674032
 21
0.1243735635
 31
0.0
 40
0.0775313764
 41
5.4495541764
 42
6.9679906257
  0
ENDSEC
  0
SECTION
  2
OBJECTS
  0
DICTIONARY
  5
C
100
AcDbDictionary
280
0
281
1
  3
ACAD_GROUP
350
D
  3
ACAD_MLINESTYLE
350
17
  3
ACAD_LAYOUT
350
1A
  3
ACAD_PLOTSETTINGS
350
19
  3
ACAD_PLOTSTYLENAME
350
E
  0
DICTIONARY
  5
D
102
{ACAD_REACTORS
330
C
102
}
100
AcDbDictionary
280
0
281
1
  0
ACDBDICTIONARYWDFLT
  5
E
102
{ACAD_REACTORS
330
C
102
}
100
AcDbDictionary
281
1
  3
Normal
350
F
100
AcDbDictionaryWithDefault
340
F
  0
DICTIONARY
  5
17
102
{ACAD_REACTORS
330
C
102
}
100
AcDbDictionary
280
0
281
1
  3
Standard
350
18
  0
DICTIONARY
  5
19
102
{ACAD_REACTORS
330
C
102
}
100
AcDbDictionary
281
1
  0
DICTIONARY
  5
1A
102
{ACAD_REACTORS
330
C
102
}
100
AcDbDictionary
281
1
  3
Model
350
435
  3
Layout1
350
436
  0
ACDBPLACEHOLDER
  5
F
102
{ACAD_REACTORS
330
E
102
}
  0
MLINESTYLE
  5
18
102
{ACAD_REACTORS
330
17
102
}
100
AcDbMlineStyle
  2
STANDARD
 70
0
  3

 62
256
 51
90.0
 52
90.0
 71
2
 49
0.5
 62
256
  6
BYLAYER
 49
-0.5
 62
256
  6
BYLAYER
  0
LAYOUT
  5
435
102
{ACAD_REACTORS
330
1A
102
}
100
AcDbPlotSettings
  1

  2
none_device
  4
ISO_A4_(297.00_x_210.00_MM)
  6

 40
0.0
 41
0.0
 42
0.0
 43
0.0
 44
297.0
 45
210.0
 46
0.0
 47
0.0
 48
0.0
 49
0.0
140
0.0
141
0.0
142
1.0
143
1.0
 70
1024
 72
1
 73
0
 74
0
  7

 75
0
147
1.0
148
0.0
149
0.0
100
AcDbLayout
  1
Model
 70
0
 71
0
 10
0.0
 20
0.0
 11
297.0
 21
210.0
 12
0.0
 22
0.0
 32
0.0
 14
0.0
 24
0.0
 34
0.0
 15
0.0
 25
0.0
 35
0.0
146
0.0
 13
0.0
 23
0.0
 33
0.0
 16
1.0
 26
0.0
 36
0.0
 17
0.0
 27
1.0
 37
0.0
 76
0
330
215
345
0
346
0
  0
LAYOUT
  5
436
102
{ACAD_REACTORS
330
1A
102
}
100
AcDbPlotSettings
  1

  2
none_device
  4
ISO_A4_(297.00_x_210.00_MM)
  6

 40
0.0
 41
0.0
 42
0.0
 43
0.0
 44
297.0
 45
210.0
 46
0.0
 47
0.0
 48
0.0
 49
0.0
140
0.0
141
0.0
142
1.0
143
1.0
 70
0
 72
1
 73
0
 74
0
  7

 75
0
147
1.0
148
0.0
149
0.0
100
AcDbLayout
  1
Layout1
 70
0
 71
1
 10
0.0
 20
0.0
 11
297.0
 21
210.0
 12
0.0
 22
0.0
 32
0.0
 14
0.0
 24
0.0
 34
0.0
 15
0.0
 25
0.0
 35
0.0
146
0.0
 13
0.0
 23
0.0
 33
0.0
 16
1.0
 26
0.0
 36
0.0
 17
0.0
 27
1.0
 37
0.0
 76
0
330
216
345
0
346
0
  0
ENDSEC
  0
EOF
