  0
SECTION
  2
HEADER
  9
$ACADVER
  1
AC1024
  9
$DWGCODEPAGE
  3
ANSI_1252
  9
$EXTMAX
 10
558.8
 20
431.8
 30
0.0
  9
$EXTMIN
 10
0.0
 20
0.0
 30
0.0
  9
$LIMMIN
 10
0.0
 20
0.0
  9
$LIMMAX
 10
558.8
 20
431.8
  9
$VIEWCTR
 10
279.4
 20
215.9
  9
$VIEWSIZE
 40
431.8
  9
$CLAYER
  8
0
  9
$LTSCALE
 40
30.734
  9
$CELTYPE
  6
BYLAYER
  9
$DIMSCALE
 40
1.0
  9
$DIMASZ
 40
3.0
  9
$DIMEXO
 40
0.5
  9
$DIMDLI
 40
21.2344
  9
$DIMEXE
 40
1.5
  9
$DIMCEN
 40
5.0292
  9
$DIMLFAC
 40
1.0
  9
$DIMBLK
  1
_FILLED
  9
$DIMALT
 70
0
  9
$DIMALTF
 40
0.0393700787
  9
$DIMTXT
 40
3.0
  9
$DIMTOL
 70
1
  9
$DIMLIM
 70
0
  9
$DIMTFAC
 40
1.0
  9
$DIMTP
 40
0.01
  9
$DIMTM
 40
0.01
  9
$DIMGAP
 40
0.625
  9
$DIMDSEP
 70
44
  9
$AUNITS
 70
0
  9
$PDMODE
 70
3
  9
$PDSIZE
 40
3.0
  9
$HANDSEED
  5
618
  9
$TILEMODE
 70
1
  9
$MEASUREMENT
 70
1
  9
$INSUNITS
 70
4
  0
ENDSEC
  0
SECTION
  2
CLASSES
  0
CLASS
  1
ACDBDICTIONARYWDFLT
  2
AcDbDictionaryWithDefault
  3
AutoCAD 2000
 90
0
 91
1
280
0
281
0
  0
CLASS
  1
ACDBPLACEHOLDER
  2
AcDbPlaceHolder
  3
AutoCAD 2000
 90
0
 91
1
280
0
281
0
  0
CLASS
  1
LAYOUT
  2
AcDbLayout
  3
AutoCAD 2000
 90
0
 91
0
280
0
281
0
  0
ENDSEC
  0
SECTION
  2
TABLES
  0
TABLE
  2
VPORT
  5
8
100
AcDbSymbolTable
 70
2
  0
VPORT
  5
1F4
100
AcDbSymbolTableRecord
100
AcDbViewportTableRecord
  2
*ACTIVE
 70
0
 10
0.0
 20
0.0
 11
1.0
 21
1.0
 12
279.4
 22
215.9
 13
0.0
 23
0.0
 14
1.0
 24
1.0
 15
0.0
 25
0.0
 16
0.0
 26
0.0
 36
1.0
 17
0.0
 27
0.0
 37
0.0
 40
431.8
 41
1.2941176471
 42
50.0
 43
0.0
 44
0.0
 50
0.0
 51
0.0
 71
0
 72
100
 73
1
 74
1
 75
0
 76
0
 77
0
 78
0
  0
ENDTAB
  0
TABLE
  2
LTYPE
  5
5
100
AcDbSymbolTable
 70
6
  0
LTYPE
  5
14
100
AcDbSymbolTableRecord
100
AcDbLinetypeTableRecord
  2
BYBLOCK
 70
0
  3

 72
65
 73
0
 40
0.0
  0
LTYPE
  5
15
100
AcDbSymbolTableRecord
100
AcDbLinetypeTableRecord
  2
BYLAYER
 70
0
  3

 72
65
 73
0
 40
0.0
  0
LTYPE
  5
16
100
AcDbSymbolTableRecord
100
AcDbLinetypeTableRecord
  2
CONTINUOUS
 70
64
  3
Solid line
 72
65
 73
0
 40
0.0
  0
LTYPE
  5
1F5
100
AcDbSymbolTableRecord
100
AcDbLinetypeTableRecord
  2
CENTER
 70
64
  3
____ _ ____ _ ____ _ ____ _ ____ _ ____ _ ____
 72
65
 73
4
 40
0.6
 49
0.375
 74
0
 49
-0.075
 74
0
 49
0.075
 74
0
 49
-0.075
 74
0
  0
LTYPE
  5
1F6
100
AcDbSymbolTableRecord
100
AcDbLinetypeTableRecord
  2
HIDDEN
 70
64
  3
- - - - - - - - - - - - - - - - - - - -
 72
65
 73
2
 40
0.2
 49
0.1
 74
0
 49
-0.1
 74
0
  0
LTYPE
  5
1F7
100
AcDbSymbolTableRecord
100
AcDbLinetypeTableRecord
  2
PHANTOM
 70
64
  3
_____ _ _ _____ _ _ _____ _ _ _____
 72
65
 73
6
 40
0.8
 49
0.45
 74
0
 49
-0.05
 74
0
 49
0.1
 74
0
 49
-0.05
 74
0
 49
0.1
 74
0
 49
-0.05
 74
0
  0
LTYPE
  5
1F8
100
AcDbSymbolTableRecord
100
AcDbLinetypeTableRecord
  2
DOT
 70
64
  3
. . . . . . . . . . . . . . . . . . . .
 72
65
 73
2
 40
0.2
 49
0.1
 74
0
 49
-0.1
 74
0
  0
LTYPE
  5
1F9
100
AcDbSymbolTableRecord
100
AcDbLinetypeTableRecord
  2
DASHED
 70
64
  3
- - - - - - - - - - - - - - - - - - - -
 72
65
 73
2
 40
0.2
 49
0.1
 74
0
 49
-0.1
 74
0
  0
ENDTAB
  0
TABLE
  2
LAYER
  5
2
100
AcDbSymbolTable
 70
36
  0
LAYER
  5
10
100
AcDbSymbolTableRecord
100
AcDbLayerTableRecord
  2
0
 70
0
 62
7
  6
CONTINUOUS
370
-3
390
F
  0
LAYER
  5
1FA
100
AcDbSymbolTableRecord
100
AcDbLayerTableRecord
  2
DEFAULT_1
 70
0
 62
7
  6
CENTER
370
-3
390
F
  0
LAYER
  5
1FB
100
AcDbSymbolTableRecord
100
AcDbLayerTableRecord
  2
DEFAULT_2
 70
0
 62
7
  6
HIDDEN
370
-3
390
F
  0
LAYER
  5
1FC
100
AcDbSymbolTableRecord
100
AcDbLayerTableRecord
  2
DEFAULT_3
 70
0
 62
7
  6
PHANTOM
370
-3
390
F
  0
LAYER
  5
1FD
100
AcDbSymbolTableRecord
100
AcDbLayerTableRecord
  2
06___PRT_ALL_SURFS_13
 70
0
 62
7
  6
CONTINUOUS
370
-3
390
F
  0
LAYER
  5
1FE
100
AcDbSymbolTableRecord
100
AcDbLayerTableRecord
  2
06___PRT_ALL_SURFS_22
 70
0
 62
7
  6
CONTINUOUS
370
-3
390
F
  0
LAYER
  5
1FF
100
AcDbSymbolTableRecord
100
AcDbLayerTableRecord
  2
06___PRT_ALL_SURFS_23
 70
0
 62
7
  6
CONTINUOUS
370
-3
390
F
  0
LAYER
  5
200
100
AcDbSymbolTableRecord
100
AcDbLayerTableRecord
  2
06___PRT_ALL_SURFS_3
 70
0
 62
7
  6
CONTINUOUS
370
-3
390
F
  0
LAYER
  5
201
100
AcDbSymbolTableRecord
100
AcDbLayerTableRecord
  2
06___PRT_ALL_SURFS_5
 70
0
 62
7
  6
CONTINUOUS
370
-3
390
F
  0
LAYER
  5
202
100
AcDbSymbolTableRecord
100
AcDbLayerTableRecord
  2
06___PRT_ALL_SURFS_8
 70
0
 62
7
  6
CONTINUOUS
370
-3
390
F
  0
LAYER
  5
203
100
AcDbSymbolTableRecord
100
AcDbLayerTableRecord
  2
06___PRT_ALL_SURFS_9
 70
0
 62
7
  6
CONTINUOUS
370
-3
390
F
  0
LAYER
  5
204
100
AcDbSymbolTableRecord
100
AcDbLayerTableRecord
  2
1608-FL-RF-VIMAR_80000
 70
0
 62
7
  6
CONTINUOUS
370
-3
390
F
  0
LAYER
  5
205
100
AcDbSymbolTableRecord
100
AcDbLayerTableRecord
  2
1608-FL-RF-VIMAR_80000_1
 70
0
 62
7
  6
CONTINUOUS
370
-3
390
F
  0
LAYER
  5
206
100
AcDbSymbolTableRecord
100
AcDbLayerTableRecord
  2
2125-CC-RF-VIMAR_110000
 70
0
 62
7
  6
CONTINUOUS
370
-3
390
F
  0
LAYER
  5
207
100
AcDbSymbolTableRecord
100
AcDbLayerTableRecord
  2
2125-CC-RF-VIMAR_110000_1
 70
0
 62
7
  6
CONTINUOUS
370
-3
390
F
  0
LAYER
  5
208
100
AcDbSymbolTableRecord
100
AcDbLayerTableRecord
  2
2125-DL-RF-FINE_VIMAR_110000
 70
0
 62
7
  6
CONTINUOUS
370
-3
390
F
  0
LAYER
  5
209
100
AcDbSymbolTableRecord
100
AcDbLayerTableRecord
  2
2125-DL-RF-FINE_VIMAR_110000_1
 70
0
 62
7
  6
CONTINUOUS
370
-3
390
F
  0
LAYER
  5
20A
100
AcDbSymbolTableRecord
100
AcDbLayerTableRecord
  2
2125-R1-RF-VIMAR_60000
 70
0
 62
7
  6
CONTINUOUS
370
-3
390
F
  0
LAYER
  5
20B
100
AcDbSymbolTableRecord
100
AcDbLayerTableRecord
  2
2125-R1-RF-VIMAR_60000_1
 70
0
 62
7
  6
CONTINUOUS
370
-3
390
F
  0
LAYER
  5
20C
100
AcDbSymbolTableRecord
100
AcDbLayerTableRecord
  2
2125-R1-RF-VIMAR_60000_2
 70
0
 62
7
  6
CONTINUOUS
370
-3
390
F
  0
LAYER
  5
20D
100
AcDbSymbolTableRecord
100
AcDbLayerTableRecord
  2
2125-R1-RF-VIMAR_60000_3
 70
0
 62
7
  6
CONTINUOUS
370
-3
390
F
  0
LAYER
  5
20E
100
AcDbSymbolTableRecord
100
AcDbLayerTableRecord
  2
2125-R1-RF-VIMAR_60000_4
 70
0
 62
7
  6
CONTINUOUS
370
-3
390
F
  0
LAYER
  5
20F
100
AcDbSymbolTableRecord
100
AcDbLayerTableRecord
  2
3216-CF-RF-VIMAR_100000
 70
0
 62
7
  6
CONTINUOUS
370
-3
390
F
  0
LAYER
  5
210
100
AcDbSymbolTableRecord
100
AcDbLayerTableRecord
  2
3216-CF-RF-VIMAR_100000_1
 70
0
 62
7
  6
CONTINUOUS
370
-3
390
F
  0
LAYER
  5
211
100
AcDbSymbolTableRecord
100
AcDbLayerTableRecord
  2
3216-CF-RF-VIMAR_100000_2
 70
0
 62
7
  6
CONTINUOUS
370
-3
390
F
  0
LAYER
  5
212
100
AcDbSymbolTableRecord
100
AcDbLayerTableRecord
  2
3216-R1-RF-VIMAR_60000
 70
0
 62
7
  6
CONTINUOUS
370
-3
390
F
  0
LAYER
  5
213
100
AcDbSymbolTableRecord
100
AcDbLayerTableRecord
  2
43000771B0
 70
0
 62
7
  6
CONTINUOUS
370
-3
390
F
  0
LAYER
  5
214
100
AcDbSymbolTableRecord
100
AcDbLayerTableRecord
  2
43000773A1
 70
0
 62
7
  6
CONTINUOUS
370
-3
390
F
  0
LAYER
  5
215
100
AcDbSymbolTableRecord
100
AcDbLayerTableRecord
  2
43900771A0
 70
0
 62
7
  6
CONTINUOUS
370
-3
390
F
  0
LAYER
  5
216
100
AcDbSymbolTableRecord
100
AcDbLayerTableRecord
  2
43900772A0
 70
0
 62
7
  6
CONTINUOUS
370
-3
390
F
  0
LAYER
  5
217
100
AcDbSymbolTableRecord
100
AcDbLayerTableRecord
  2
43900773A1
 70
0
 62
7
  6
CONTINUOUS
370
-3
390
F
  0
LAYER
  5
218
100
AcDbSymbolTableRecord
100
AcDbLayerTableRecord
  2
ASSI
 70
0
 62
7
  6
CONTINUOUS
370
-3
390
F
  0
LAYER
  5
219
100
AcDbSymbolTableRecord
100
AcDbLayerTableRecord
  2
BZ-BST-0841A_450000
 70
0
 62
7
  6
CONTINUOUS
370
-3
390
F
  0
LAYER
  5
21A
100
AcDbSymbolTableRecord
100
AcDbLayerTableRecord
  2
CAP-E-SMD-10_8-10_8-5_5_580000
 70
0
 62
7
  6
CONTINUOUS
370
-3
390
F
  0
LAYER
  5
21B
100
AcDbSymbolTableRecord
100
AcDbLayerTableRecord
  2
CAPC1608N_80000
 70
0
 62
7
  6
CONTINUOUS
370
-3
390
F
  0
LAYER
  5
21C
100
AcDbSymbolTableRecord
100
AcDbLayerTableRecord
  2
CAPC1608N_80000_1
 70
0
 62
7
  6
CONTINUOUS
370
-3
390
F
  0
LAYER
  5
21D
100
AcDbSymbolTableRecord
100
AcDbLayerTableRecord
  2
CAPC1608N_80000_10
 70
0
 62
7
  6
CONTINUOUS
370
-3
390
F
  0
LAYER
  5
21E
100
AcDbSymbolTableRecord
100
AcDbLayerTableRecord
  2
CAPC1608N_80000_11
 70
0
 62
7
  6
CONTINUOUS
370
-3
390
F
  0
LAYER
  5
21F
100
AcDbSymbolTableRecord
100
AcDbLayerTableRecord
  2
CAPC1608N_80000_12
 70
0
 62
7
  6
CONTINUOUS
370
-3
390
F
  0
LAYER
  5
220
100
AcDbSymbolTableRecord
100
AcDbLayerTableRecord
  2
CAPC1608N_80000_13
 70
0
 62
7
  6
CONTINUOUS
370
-3
390
F
  0
LAYER
  5
221
100
AcDbSymbolTableRecord
100
AcDbLayerTableRecord
  2
CAPC1608N_80000_14
 70
0
 62
7
  6
CONTINUOUS
370
-3
390
F
  0
LAYER
  5
222
100
AcDbSymbolTableRecord
100
AcDbLayerTableRecord
  2
CAPC1608N_80000_15
 70
0
 62
7
  6
CONTINUOUS
370
-3
390
F
  0
LAYER
  5
223
100
AcDbSymbolTableRecord
100
AcDbLayerTableRecord
  2
CAPC1608N_80000_16
 70
0
 62
7
  6
CONTINUOUS
370
-3
390
F
  0
LAYER
  5
224
100
AcDbSymbolTableRecord
100
AcDbLayerTableRecord
  2
CAPC1608N_80000_17
 70
0
 62
7
  6
CONTINUOUS
370
-3
390
F
  0
LAYER
  5
225
100
AcDbSymbolTableRecord
100
AcDbLayerTableRecord
  2
CAPC1608N_80000_18
 70
0
 62
7
  6
CONTINUOUS
370
-3
390
F
  0
LAYER
  5
226
100
AcDbSymbolTableRecord
100
AcDbLayerTableRecord
  2
CAPC1608N_80000_19
 70
0
 62
7
  6
CONTINUOUS
370
-3
390
F
  0
LAYER
  5
227
100
AcDbSymbolTableRecord
100
AcDbLayerTableRecord
  2
CAPC1608N_80000_2
 70
0
 62
7
  6
CONTINUOUS
370
-3
390
F
  0
LAYER
  5
228
100
AcDbSymbolTableRecord
100
AcDbLayerTableRecord
  2
CAPC1608N_80000_20
 70
0
 62
7
  6
CONTINUOUS
370
-3
390
F
  0
LAYER
  5
229
100
AcDbSymbolTableRecord
100
AcDbLayerTableRecord
  2
CAPC1608N_80000_21
 70
0
 62
7
  6
CONTINUOUS
370
-3
390
F
  0
LAYER
  5
22A
100
AcDbSymbolTableRecord
100
AcDbLayerTableRecord
  2
CAPC1608N_80000_22
 70
0
 62
7
  6
CONTINUOUS
370
-3
390
F
  0
LAYER
  5
22B
100
AcDbSymbolTableRecord
100
AcDbLayerTableRecord
  2
CAPC1608N_80000_23
 70
0
 62
7
  6
CONTINUOUS
370
-3
390
F
  0
LAYER
  5
22C
100
AcDbSymbolTableRecord
100
AcDbLayerTableRecord
  2
CAPC1608N_80000_24
 70
0
 62
7
  6
CONTINUOUS
370
-3
390
F
  0
LAYER
  5
22D
100
AcDbSymbolTableRecord
100
AcDbLayerTableRecord
  2
CAPC1608N_80000_25
 70
0
 62
7
  6
CONTINUOUS
370
-3
390
F
  0
LAYER
  5
22E
100
AcDbSymbolTableRecord
100
AcDbLayerTableRecord
  2
CAPC1608N_80000_26
 70
0
 62
7
  6
CONTINUOUS
370
-3
390
F
  0
LAYER
  5
22F
100
AcDbSymbolTableRecord
100
AcDbLayerTableRecord
  2
CAPC1608N_80000_27
 70
0
 62
7
  6
CONTINUOUS
370
-3
390
F
  0
LAYER
  5
230
100
AcDbSymbolTableRecord
100
AcDbLayerTableRecord
  2
CAPC1608N_80000_28
 70
0
 62
7
  6
CONTINUOUS
370
-3
390
F
  0
LAYER
  5
231
100
AcDbSymbolTableRecord
100
AcDbLayerTableRecord
  2
CAPC1608N_80000_29
 70
0
 62
7
  6
CONTINUOUS
370
-3
390
F
  0
LAYER
  5
232
100
AcDbSymbolTableRecord
100
AcDbLayerTableRecord
  2
CAPC1608N_80000_3
 70
0
 62
7
  6
CONTINUOUS
370
-3
390
F
  0
LAYER
  5
233
100
AcDbSymbolTableRecord
100
AcDbLayerTableRecord
  2
CAPC1608N_80000_30
 70
0
 62
7
  6
CONTINUOUS
370
-3
390
F
  0
LAYER
  5
234
100
AcDbSymbolTableRecord
100
AcDbLayerTableRecord
  2
CAPC1608N_80000_31
 70
0
 62
7
  6
CONTINUOUS
370
-3
390
F
  0
LAYER
  5
235
100
AcDbSymbolTableRecord
100
AcDbLayerTableRecord
  2
CAPC1608N_80000_32
 70
0
 62
7
  6
CONTINUOUS
370
-3
390
F
  0
LAYER
  5
236
100
AcDbSymbolTableRecord
100
AcDbLayerTableRecord
  2
CAPC1608N_80000_33
 70
0
 62
7
  6
CONTINUOUS
370
-3
390
F
  0
LAYER
  5
237
100
AcDbSymbolTableRecord
100
AcDbLayerTableRecord
  2
CAPC1608N_80000_34
 70
0
 62
7
  6
CONTINUOUS
370
-3
390
F
  0
LAYER
  5
238
100
AcDbSymbolTableRecord
100
AcDbLayerTableRecord
  2
CAPC1608N_80000_35
 70
0
 62
7
  6
CONTINUOUS
370
-3
390
F
  0
LAYER
  5
239
100
AcDbSymbolTableRecord
100
AcDbLayerTableRecord
  2
CAPC1608N_80000_36
 70
0
 62
7
  6
CONTINUOUS
370
-3
390
F
  0
LAYER
  5
23A
100
AcDbSymbolTableRecord
100
AcDbLayerTableRecord
  2
CAPC1608N_80000_4
 70
0
 62
7
  6
CONTINUOUS
370
-3
390
F
  0
LAYER
  5
23B
100
AcDbSymbolTableRecord
100
AcDbLayerTableRecord
  2
CAPC1608N_80000_5
 70
0
 62
7
  6
CONTINUOUS
370
-3
390
F
  0
LAYER
  5
23C
100
AcDbSymbolTableRecord
100
AcDbLayerTableRecord
  2
CAPC1608N_80000_6
 70
0
 62
7
  6
CONTINUOUS
370
-3
390
F
  0
LAYER
  5
23D
100
AcDbSymbolTableRecord
100
AcDbLayerTableRecord
  2
CAPC1608N_80000_7
 70
0
 62
7
  6
CONTINUOUS
370
-3
390
F
  0
LAYER
  5
23E
100
AcDbSymbolTableRecord
100
AcDbLayerTableRecord
  2
CAPC1608N_80000_8
 70
0
 62
7
  6
CONTINUOUS
370
-3
390
F
  0
LAYER
  5
23F
100
AcDbSymbolTableRecord
100
AcDbLayerTableRecord
  2
CAPC1608N_80000_9
 70
0
 62
7
  6
CONTINUOUS
370
-3
390
F
  0
LAYER
  5
240
100
AcDbSymbolTableRecord
100
AcDbLayerTableRecord
  2
CN-MRT4P5_2-VIMAR_1750000
 70
0
 62
7
  6
CONTINUOUS
370
-3
390
F
  0
LAYER
  5
241
100
AcDbSymbolTableRecord
100
AcDbLayerTableRecord
  2
CN-MRT4P5_3-VIMAR_1750000
 70
0
 62
7
  6
CONTINUOUS
370
-3
390
F
  0
LAYER
  5
242
100
AcDbSymbolTableRecord
100
AcDbLayerTableRecord
  2
CN-SOCKET-SMD2_0-2_430000
 70
0
 62
7
  6
CONTINUOUS
370
-3
390
F
  0
LAYER
  5
243
100
AcDbSymbolTableRecord
100
AcDbLayerTableRecord
  2
CN1-REF_SQUAREHOLE12_SPEA-VIMAR
 70
0
 62
7
  6
CONTINUOUS
370
-3
390
F
  0
LAYER
  5
244
100
AcDbSymbolTableRecord
100
AcDbLayerTableRecord
  2
CN1-REF_SQUAREHOLE12_SPEA-VIM_1
 70
0
 62
7
  6
CONTINUOUS
370
-3
390
F
  0
LAYER
  5
245
100
AcDbSymbolTableRecord
100
AcDbLayerTableRecord
  2
CN1-REF_SQUAREHOLE12_SPEA-VIM_2
 70
0
 62
7
  6
CONTINUOUS
370
-3
390
F
  0
LAYER
  5
246
100
AcDbSymbolTableRecord
100
AcDbLayerTableRecord
  2
CN1-REF_SQUAREHOLE12_SPEA-VIM_3
 70
0
 62
7
  6
CONTINUOUS
370
-3
390
F
  0
LAYER
  5
247
100
AcDbSymbolTableRecord
100
AcDbLayerTableRecord
  2
CN1-TP10_SMD-VIMAR_01_10000
 70
0
 62
7
  6
CONTINUOUS
370
-3
390
F
  0
LAYER
  5
248
100
AcDbSymbolTableRecord
100
AcDbLayerTableRecord
  2
CN1-TP10_SMD-VIMAR_01_10000_1
 70
0
 62
7
  6
CONTINUOUS
370
-3
390
F
  0
LAYER
  5
249
100
AcDbSymbolTableRecord
100
AcDbLayerTableRecord
  2
CN1-TP10_SMD-VIMAR_01_10000_2
 70
0
 62
7
  6
CONTINUOUS
370
-3
390
F
  0
LAYER
  5
24A
100
AcDbSymbolTableRecord
100
AcDbLayerTableRecord
  2
CN1-TP10_SMD-VIMAR_01_10000_3
 70
0
 62
7
  6
CONTINUOUS
370
-3
390
F
  0
LAYER
  5
24B
100
AcDbSymbolTableRecord
100
AcDbLayerTableRecord
  2
CN1-TP15_SMD-VIMAR_5000
 70
0
 62
7
  6
CONTINUOUS
370
-3
390
F
  0
LAYER
  5
24C
100
AcDbSymbolTableRecord
100
AcDbLayerTableRecord
  2
CN10-HEADER-SMD2_0-2-VIMAR_6500
 70
0
 62
7
  6
CONTINUOUS
370
-3
390
F
  0
LAYER
  5
24D
100
AcDbSymbolTableRecord
100
AcDbLayerTableRecord
  2
CN_MICROUSB_TYPEB_SMT_SET_30000
 70
0
 62
7
  6
CONTINUOUS
370
-3
390
F
  0
LAYER
  5
24E
100
AcDbSymbolTableRecord
100
AcDbLayerTableRecord
  2
CN_STRIP_2_P2_54_1-VIMAR_254000
 70
0
 62
7
  6
CONTINUOUS
370
-3
390
F
  0
LAYER
  5
24F
100
AcDbSymbolTableRecord
100
AcDbLayerTableRecord
  2
CN_STRIP_2_P2_54_1-VIMAR_2540_1
 70
0
 62
7
  6
CONTINUOUS
370
-3
390
F
  0
LAYER
  5
250
100
AcDbSymbolTableRecord
100
AcDbLayerTableRecord
  2
COLOR13
 70
0
 62
7
  6
CONTINUOUS
370
-3
390
F
  0
LAYER
  5
251
100
AcDbSymbolTableRecord
100
AcDbLayerTableRecord
  2
COLOR21
 70
0
 62
7
  6
CONTINUOUS
370
-3
390
F
  0
LAYER
  5
252
100
AcDbSymbolTableRecord
100
AcDbLayerTableRecord
  2
COLOR22
 70
0
 62
7
  6
CONTINUOUS
370
-3
390
F
  0
LAYER
  5
253
100
AcDbSymbolTableRecord
100
AcDbLayerTableRecord
  2
COLOR23
 70
0
 62
7
  6
CONTINUOUS
370
-3
390
F
  0
LAYER
  5
254
100
AcDbSymbolTableRecord
100
AcDbLayerTableRecord
  2
COLOR24
 70
0
 62
7
  6
CONTINUOUS
370
-3
390
F
  0
LAYER
  5
255
100
AcDbSymbolTableRecord
100
AcDbLayerTableRecord
  2
COLOR6
 70
0
 62
7
  6
CONTINUOUS
370
-3
390
F
  0
LAYER
  5
256
100
AcDbSymbolTableRecord
100
AcDbLayerTableRecord
  2
COORDINATE
 70
0
 62
7
  6
CONTINUOUS
370
-3
390
F
  0
LAYER
  5
257
100
AcDbSymbolTableRecord
100
AcDbLayerTableRecord
  2
COORD_ORIGINE
 70
0
 62
7
  6
CONTINUOUS
370
-3
390
F
  0
LAYER
  5
258
100
AcDbSymbolTableRecord
100
AcDbLayerTableRecord
  2
COPY_PUBLISH
 70
0
 62
7
  6
CONTINUOUS
370
-3
390
F
  0
LAYER
  5
259
100
AcDbSymbolTableRecord
100
AcDbLayerTableRecord
  2
COSMETIC
 70
0
 62
7
  6
CONTINUOUS
370
-3
390
F
  0
LAYER
  5
25A
100
AcDbSymbolTableRecord
100
AcDbLayerTableRecord
  2
COSMETICI
 70
0
 62
7
  6
CONTINUOUS
370
-3
390
F
  0
LAYER
  5
25B
100
AcDbSymbolTableRecord
100
AcDbLayerTableRecord
  2
CP-CE11-RF-VIMAR_630000
 70
0
 62
7
  6
CONTINUOUS
370
-3
390
F
  0
LAYER
  5
25C
100
AcDbSymbolTableRecord
100
AcDbLayerTableRecord
  2
CP-CE4-RF_550000
 70
0
 62
7
  6
CONTINUOUS
370
-3
390
F
  0
LAYER
  5
25D
100
AcDbSymbolTableRecord
100
AcDbLayerTableRecord
  2
CP-CE6-RF_820000
 70
0
 62
7
  6
CONTINUOUS
370
-3
390
F
  0
LAYER
  5
25E
100
AcDbSymbolTableRecord
100
AcDbLayerTableRecord
  2
CP-CE9-RF-VIMAR_1080000
 70
0
 62
7
  6
CONTINUOUS
370
-3
390
F
  0
LAYER
  5
25F
100
AcDbSymbolTableRecord
100
AcDbLayerTableRecord
  2
CP-CE9-RF-VIMAR_1080000_1
 70
0
 62
7
  6
CONTINUOUS
370
-3
390
F
  0
LAYER
  5
260
100
AcDbSymbolTableRecord
100
AcDbLayerTableRecord
  2
CP-DO-214AC-D-VIMAR_240000
 70
0
 62
7
  6
CONTINUOUS
370
-3
390
F
  0
LAYER
  5
261
100
AcDbSymbolTableRecord
100
AcDbLayerTableRecord
  2
CP-DO-214AC-D-VIMAR_240000_1
 70
0
 62
7
  6
CONTINUOUS
370
-3
390
F
  0
LAYER
  5
262
100
AcDbSymbolTableRecord
100
AcDbLayerTableRecord
  2
CP-L4-RF-FINE-VIMAR_470000
 70
0
 62
7
  6
CONTINUOUS
370
-3
390
F
  0
LAYER
  5
263
100
AcDbSymbolTableRecord
100
AcDbLayerTableRecord
  2
CP-L5-RF-VIMAR_280000
 70
0
 62
7
  6
CONTINUOUS
370
-3
390
F
  0
LAYER
  5
264
100
AcDbSymbolTableRecord
100
AcDbLayerTableRecord
  2
CURVE
 70
0
 62
7
  6
CONTINUOUS
370
-3
390
F
  0
LAYER
  5
265
100
AcDbSymbolTableRecord
100
AcDbLayerTableRecord
  2
DIOMELF3515N_160000
 70
0
 62
7
  6
CONTINUOUS
370
-3
390
F
  0
LAYER
  5
266
100
AcDbSymbolTableRecord
100
AcDbLayerTableRecord
  2
DRAFT
 70
0
 62
7
  6
CONTINUOUS
370
-3
390
F
  0
LAYER
  5
267
100
AcDbSymbolTableRecord
100
AcDbLayerTableRecord
  2
E4_MARK_10000
 70
0
 62
7
  6
CONTINUOUS
370
-3
390
F
  0
LAYER
  5
268
100
AcDbSymbolTableRecord
100
AcDbLayerTableRecord
  2
GEOMETRIA_SOLIDA
 70
0
 62
7
  6
CONTINUOUS
370
-3
390
F
  0
LAYER
  5
269
100
AcDbSymbolTableRecord
100
AcDbLayerTableRecord
  2
HVQFN64-9_0-9_0-9_0-9_0-1_0-0_5
 70
0
 62
7
  6
CONTINUOUS
370
-3
390
F
  0
LAYER
  5
26A
100
AcDbSymbolTableRecord
100
AcDbLayerTableRecord
  2
IMPORT_IGES
 70
0
 62
7
  6
CONTINUOUS
370
-3
390
F
  0
LAYER
  5
26B
100
AcDbSymbolTableRecord
100
AcDbLayerTableRecord
  2
IND-PS-10_0-6_0_600000
 70
0
 62
7
  6
CONTINUOUS
370
-3
390
F
  0
LAYER
  5
26C
100
AcDbSymbolTableRecord
100
AcDbLayerTableRecord
  2
IND-PS-7_3-4_5_450000
 70
0
 62
7
  6
CONTINUOUS
370
-3
390
F
  0
LAYER
  5
26D
100
AcDbSymbolTableRecord
100
AcDbLayerTableRecord
  2
INDC2012X130N_130000
 70
0
 62
7
  6
CONTINUOUS
370
-3
390
F
  0
LAYER
  5
26E
100
AcDbSymbolTableRecord
100
AcDbLayerTableRecord
  2
INDC2012X130N_130000_1
 70
0
 62
7
  6
CONTINUOUS
370
-3
390
F
  0
LAYER
  5
26F
100
AcDbSymbolTableRecord
100
AcDbLayerTableRecord
  2
IND_7X7_8X5_550000
 70
0
 62
7
  6
CONTINUOUS
370
-3
390
F
  0
LAYER
  5
270
100
AcDbSymbolTableRecord
100
AcDbLayerTableRecord
  2
INTFCLR_1
 70
0
 62
7
  6
CONTINUOUS
370
-3
390
F
  0
LAYER
  5
271
100
AcDbSymbolTableRecord
100
AcDbLayerTableRecord
  2
INTF_1
 70
0
 62
7
  6
CONTINUOUS
370
-3
390
F
  0
LAYER
  5
272
100
AcDbSymbolTableRecord
100
AcDbLayerTableRecord
  2
INTF_11
 70
0
 62
7
  6
CONTINUOUS
370
-3
390
F
  0
LAYER
  5
273
100
AcDbSymbolTableRecord
100
AcDbLayerTableRecord
  2
INTF_12
 70
0
 62
7
  6
CONTINUOUS
370
-3
390
F
  0
LAYER
  5
274
100
AcDbSymbolTableRecord
100
AcDbLayerTableRecord
  2
INTF_2
 70
0
 62
7
  6
CONTINUOUS
370
-3
390
F
  0
LAYER
  5
275
100
AcDbSymbolTableRecord
100
AcDbLayerTableRecord
  2
INTF_5
 70
0
 62
7
  6
CONTINUOUS
370
-3
390
F
  0
LAYER
  5
276
100
AcDbSymbolTableRecord
100
AcDbLayerTableRecord
  2
INTF_BLANK
 70
0
 62
7
  6
CONTINUOUS
370
-3
390
F
  0
LAYER
  5
277
100
AcDbSymbolTableRecord
100
AcDbLayerTableRecord
  2
INTF_CYAN
 70
0
 62
7
  6
CONTINUOUS
370
-3
390
F
  0
LAYER
  5
278
100
AcDbSymbolTableRecord
100
AcDbLayerTableRecord
  2
INTF_MAGENTA
 70
0
 62
7
  6
CONTINUOUS
370
-3
390
F
  0
LAYER
  5
279
100
AcDbSymbolTableRecord
100
AcDbLayerTableRecord
  2
INTF_YELLOW
 70
0
 62
7
  6
CONTINUOUS
370
-3
390
F
  0
LAYER
  5
27A
100
AcDbSymbolTableRecord
100
AcDbLayerTableRecord
  2
K-THT-HONGFA-HF3F-L-H_1550000
 70
0
 62
7
  6
CONTINUOUS
370
-3
390
F
  0
LAYER
  5
27B
100
AcDbSymbolTableRecord
100
AcDbLayerTableRecord
  2
LEDC2812X90N_SIDE_90000
 70
0
 62
7
  6
CONTINUOUS
370
-3
390
F
  0
LAYER
  5
27C
100
AcDbSymbolTableRecord
100
AcDbLayerTableRecord
  2
LEDC2812X90N_SIDE_90000_1
 70
0
 62
7
  6
CONTINUOUS
370
-3
390
F
  0
LAYER
  5
27D
100
AcDbSymbolTableRecord
100
AcDbLayerTableRecord
  2
LEDC2812X90N_SIDE_90000_2
 70
0
 62
7
  6
CONTINUOUS
370
-3
390
F
  0
LAYER
  5
27E
100
AcDbSymbolTableRecord
100
AcDbLayerTableRecord
  2
LOGO_RESIST-RESTYLING_10000
 70
0
 62
7
  6
CONTINUOUS
370
-3
390
F
  0
LAYER
  5
27F
100
AcDbSymbolTableRecord
100
AcDbLayerTableRecord
  2
MM2-SWITCH-1-VIMAR_150000
 70
0
 62
7
  6
CONTINUOUS
370
-3
390
F
  0
LAYER
  5
280
100
AcDbSymbolTableRecord
100
AcDbLayerTableRecord
  2
MM2-X-2-VIMAR_250000
 70
0
 62
7
  6
CONTINUOUS
370
-3
390
F
  0
LAYER
  5
281
100
AcDbSymbolTableRecord
100
AcDbLayerTableRecord
  2
MM3-MPAK-RF-VIMAR_120000
 70
0
 62
7
  6
CONTINUOUS
370
-3
390
F
  0
LAYER
  5
282
100
AcDbSymbolTableRecord
100
AcDbLayerTableRecord
  2
MM3-MPAK-RF-VIMAR_120000_1
 70
0
 62
7
  6
CONTINUOUS
370
-3
390
F
  0
LAYER
  5
283
100
AcDbSymbolTableRecord
100
AcDbLayerTableRecord
  2
MM3-MPAK-RF-VIMAR_120000_2
 70
0
 62
7
  6
CONTINUOUS
370
-3
390
F
  0
LAYER
  5
284
100
AcDbSymbolTableRecord
100
AcDbLayerTableRecord
  2
MM3-MPAK-RF-VIMAR_120000_3
 70
0
 62
7
  6
CONTINUOUS
370
-3
390
F
  0
LAYER
  5
285
100
AcDbSymbolTableRecord
100
AcDbLayerTableRecord
  2
MM3-MPAK-RF-VIMAR_120000_4
 70
0
 62
7
  6
CONTINUOUS
370
-3
390
F
  0
LAYER
  5
286
100
AcDbSymbolTableRecord
100
AcDbLayerTableRecord
  2
MM3-SOT-89-RF-VIMAR_150000
 70
0
 62
7
  6
CONTINUOUS
370
-3
390
F
  0
LAYER
  5
287
100
AcDbSymbolTableRecord
100
AcDbLayerTableRecord
  2
MM4-ABS-VIMAR_180000
 70
0
 62
7
  6
CONTINUOUS
370
-3
390
F
  0
LAYER
  5
288
100
AcDbSymbolTableRecord
100
AcDbLayerTableRecord
  2
MM4-X-9-VIMAR_50000
 70
0
 62
7
  6
CONTINUOUS
370
-3
390
F
  0
LAYER
  5
289
100
AcDbSymbolTableRecord
100
AcDbLayerTableRecord
  2
NO-PB_MARK_10000
 70
0
 62
7
  6
CONTINUOUS
370
-3
390
F
  0
LAYER
  5
28A
100
AcDbSymbolTableRecord
100
AcDbLayerTableRecord
  2
NOTE
 70
0
 62
7
  6
CONTINUOUS
370
-3
390
F
  0
LAYER
  5
28B
100
AcDbSymbolTableRecord
100
AcDbLayerTableRecord
  2
PIANI
 70
0
 62
7
  6
CONTINUOUS
370
-3
390
F
  0
LAYER
  5
28C
100
AcDbSymbolTableRecord
100
AcDbLayerTableRecord
  2
PIANI_DI_RIFERIMENTO
 70
0
 62
7
  6
CONTINUOUS
370
-3
390
F
  0
LAYER
  5
28D
100
AcDbSymbolTableRecord
100
AcDbLayerTableRecord
  2
PIANI_ORIGINE
 70
0
 62
7
  6
CONTINUOUS
370
-3
390
F
  0
LAYER
  5
28E
100
AcDbSymbolTableRecord
100
AcDbLayerTableRecord
  2
PUNTI
 70
0
 62
7
  6
CONTINUOUS
370
-3
390
F
  0
LAYER
  5
28F
100
AcDbSymbolTableRecord
100
AcDbLayerTableRecord
  2
RACCORDO
 70
0
 62
7
  6
CONTINUOUS
370
-3
390
F
  0
LAYER
  5
290
100
AcDbSymbolTableRecord
100
AcDbLayerTableRecord
  2
RD-R50-1W-1-VIMAR_1700000
 70
0
 62
7
  6
CONTINUOUS
370
-3
390
F
  0
LAYER
  5
291
100
AcDbSymbolTableRecord
100
AcDbLayerTableRecord
  2
RD-ZNR50-1-VIMAR_1150000
 70
0
 62
7
  6
CONTINUOUS
370
-3
390
F
  0
LAYER
  5
292
100
AcDbSymbolTableRecord
100
AcDbLayerTableRecord
  2
RD_D6H8_5_VIMAR_850000
 70
0
 62
7
  6
CONTINUOUS
370
-3
390
F
  0
LAYER
  5
293
100
AcDbSymbolTableRecord
100
AcDbLayerTableRecord
  2
RESC1608N_45000
 70
0
 62
7
  6
CONTINUOUS
370
-3
390
F
  0
LAYER
  5
294
100
AcDbSymbolTableRecord
100
AcDbLayerTableRecord
  2
RESC1608N_45000_1
 70
0
 62
7
  6
CONTINUOUS
370
-3
390
F
  0
LAYER
  5
295
100
AcDbSymbolTableRecord
100
AcDbLayerTableRecord
  2
RESC1608N_45000_10
 70
0
 62
7
  6
CONTINUOUS
370
-3
390
F
  0
LAYER
  5
296
100
AcDbSymbolTableRecord
100
AcDbLayerTableRecord
  2
RESC1608N_45000_11
 70
0
 62
7
  6
CONTINUOUS
370
-3
390
F
  0
LAYER
  5
297
100
AcDbSymbolTableRecord
100
AcDbLayerTableRecord
  2
RESC1608N_45000_12
 70
0
 62
7
  6
CONTINUOUS
370
-3
390
F
  0
LAYER
  5
298
100
AcDbSymbolTableRecord
100
AcDbLayerTableRecord
  2
RESC1608N_45000_13
 70
0
 62
7
  6
CONTINUOUS
370
-3
390
F
  0
LAYER
  5
299
100
AcDbSymbolTableRecord
100
AcDbLayerTableRecord
  2
RESC1608N_45000_14
 70
0
 62
7
  6
CONTINUOUS
370
-3
390
F
  0
LAYER
  5
29A
100
AcDbSymbolTableRecord
100
AcDbLayerTableRecord
  2
RESC1608N_45000_15
 70
0
 62
7
  6
CONTINUOUS
370
-3
390
F
  0
LAYER
  5
29B
100
AcDbSymbolTableRecord
100
AcDbLayerTableRecord
  2
RESC1608N_45000_16
 70
0
 62
7
  6
CONTINUOUS
370
-3
390
F
  0
LAYER
  5
29C
100
AcDbSymbolTableRecord
100
AcDbLayerTableRecord
  2
RESC1608N_45000_17
 70
0
 62
7
  6
CONTINUOUS
370
-3
390
F
  0
LAYER
  5
29D
100
AcDbSymbolTableRecord
100
AcDbLayerTableRecord
  2
RESC1608N_45000_18
 70
0
 62
7
  6
CONTINUOUS
370
-3
390
F
  0
LAYER
  5
29E
100
AcDbSymbolTableRecord
100
AcDbLayerTableRecord
  2
RESC1608N_45000_19
 70
0
 62
7
  6
CONTINUOUS
370
-3
390
F
  0
LAYER
  5
29F
100
AcDbSymbolTableRecord
100
AcDbLayerTableRecord
  2
RESC1608N_45000_2
 70
0
 62
7
  6
CONTINUOUS
370
-3
390
F
  0
LAYER
  5
2A0
100
AcDbSymbolTableRecord
100
AcDbLayerTableRecord
  2
RESC1608N_45000_20
 70
0
 62
7
  6
CONTINUOUS
370
-3
390
F
  0
LAYER
  5
2A1
100
AcDbSymbolTableRecord
100
AcDbLayerTableRecord
  2
RESC1608N_45000_21
 70
0
 62
7
  6
CONTINUOUS
370
-3
390
F
  0
LAYER
  5
2A2
100
AcDbSymbolTableRecord
100
AcDbLayerTableRecord
  2
RESC1608N_45000_22
 70
0
 62
7
  6
CONTINUOUS
370
-3
390
F
  0
LAYER
  5
2A3
100
AcDbSymbolTableRecord
100
AcDbLayerTableRecord
  2
RESC1608N_45000_23
 70
0
 62
7
  6
CONTINUOUS
370
-3
390
F
  0
LAYER
  5
2A4
100
AcDbSymbolTableRecord
100
AcDbLayerTableRecord
  2
RESC1608N_45000_24
 70
0
 62
7
  6
CONTINUOUS
370
-3
390
F
  0
LAYER
  5
2A5
100
AcDbSymbolTableRecord
100
AcDbLayerTableRecord
  2
RESC1608N_45000_25
 70
0
 62
7
  6
CONTINUOUS
370
-3
390
F
  0
LAYER
  5
2A6
100
AcDbSymbolTableRecord
100
AcDbLayerTableRecord
  2
RESC1608N_45000_26
 70
0
 62
7
  6
CONTINUOUS
370
-3
390
F
  0
LAYER
  5
2A7
100
AcDbSymbolTableRecord
100
AcDbLayerTableRecord
  2
RESC1608N_45000_27
 70
0
 62
7
  6
CONTINUOUS
370
-3
390
F
  0
LAYER
  5
2A8
100
AcDbSymbolTableRecord
100
AcDbLayerTableRecord
  2
RESC1608N_45000_28
 70
0
 62
7
  6
CONTINUOUS
370
-3
390
F
  0
LAYER
  5
2A9
100
AcDbSymbolTableRecord
100
AcDbLayerTableRecord
  2
RESC1608N_45000_29
 70
0
 62
7
  6
CONTINUOUS
370
-3
390
F
  0
LAYER
  5
2AA
100
AcDbSymbolTableRecord
100
AcDbLayerTableRecord
  2
RESC1608N_45000_3
 70
0
 62
7
  6
CONTINUOUS
370
-3
390
F
  0
LAYER
  5
2AB
100
AcDbSymbolTableRecord
100
AcDbLayerTableRecord
  2
RESC1608N_45000_30
 70
0
 62
7
  6
CONTINUOUS
370
-3
390
F
  0
LAYER
  5
2AC
100
AcDbSymbolTableRecord
100
AcDbLayerTableRecord
  2
RESC1608N_45000_31
 70
0
 62
7
  6
CONTINUOUS
370
-3
390
F
  0
LAYER
  5
2AD
100
AcDbSymbolTableRecord
100
AcDbLayerTableRecord
  2
RESC1608N_45000_32
 70
0
 62
7
  6
CONTINUOUS
370
-3
390
F
  0
LAYER
  5
2AE
100
AcDbSymbolTableRecord
100
AcDbLayerTableRecord
  2
RESC1608N_45000_33
 70
0
 62
7
  6
CONTINUOUS
370
-3
390
F
  0
LAYER
  5
2AF
100
AcDbSymbolTableRecord
100
AcDbLayerTableRecord
  2
RESC1608N_45000_34
 70
0
 62
7
  6
CONTINUOUS
370
-3
390
F
  0
LAYER
  5
2B0
100
AcDbSymbolTableRecord
100
AcDbLayerTableRecord
  2
RESC1608N_45000_35
 70
0
 62
7
  6
CONTINUOUS
370
-3
390
F
  0
LAYER
  5
2B1
100
AcDbSymbolTableRecord
100
AcDbLayerTableRecord
  2
RESC1608N_45000_36
 70
0
 62
7
  6
CONTINUOUS
370
-3
390
F
  0
LAYER
  5
2B2
100
AcDbSymbolTableRecord
100
AcDbLayerTableRecord
  2
RESC1608N_45000_37
 70
0
 62
7
  6
CONTINUOUS
370
-3
390
F
  0
LAYER
  5
2B3
100
AcDbSymbolTableRecord
100
AcDbLayerTableRecord
  2
RESC1608N_45000_38
 70
0
 62
7
  6
CONTINUOUS
370
-3
390
F
  0
LAYER
  5
2B4
100
AcDbSymbolTableRecord
100
AcDbLayerTableRecord
  2
RESC1608N_45000_39
 70
0
 62
7
  6
CONTINUOUS
370
-3
390
F
  0
LAYER
  5
2B5
100
AcDbSymbolTableRecord
100
AcDbLayerTableRecord
  2
RESC1608N_45000_4
 70
0
 62
7
  6
CONTINUOUS
370
-3
390
F
  0
LAYER
  5
2B6
100
AcDbSymbolTableRecord
100
AcDbLayerTableRecord
  2
RESC1608N_45000_40
 70
0
 62
7
  6
CONTINUOUS
370
-3
390
F
  0
LAYER
  5
2B7
100
AcDbSymbolTableRecord
100
AcDbLayerTableRecord
  2
RESC1608N_45000_41
 70
0
 62
7
  6
CONTINUOUS
370
-3
390
F
  0
LAYER
  5
2B8
100
AcDbSymbolTableRecord
100
AcDbLayerTableRecord
  2
RESC1608N_45000_42
 70
0
 62
7
  6
CONTINUOUS
370
-3
390
F
  0
LAYER
  5
2B9
100
AcDbSymbolTableRecord
100
AcDbLayerTableRecord
  2
RESC1608N_45000_43
 70
0
 62
7
  6
CONTINUOUS
370
-3
390
F
  0
LAYER
  5
2BA
100
AcDbSymbolTableRecord
100
AcDbLayerTableRecord
  2
RESC1608N_45000_44
 70
0
 62
7
  6
CONTINUOUS
370
-3
390
F
  0
LAYER
  5
2BB
100
AcDbSymbolTableRecord
100
AcDbLayerTableRecord
  2
RESC1608N_45000_5
 70
0
 62
7
  6
CONTINUOUS
370
-3
390
F
  0
LAYER
  5
2BC
100
AcDbSymbolTableRecord
100
AcDbLayerTableRecord
  2
RESC1608N_45000_6
 70
0
 62
7
  6
CONTINUOUS
370
-3
390
F
  0
LAYER
  5
2BD
100
AcDbSymbolTableRecord
100
AcDbLayerTableRecord
  2
RESC1608N_45000_7
 70
0
 62
7
  6
CONTINUOUS
370
-3
390
F
  0
LAYER
  5
2BE
100
AcDbSymbolTableRecord
100
AcDbLayerTableRecord
  2
RESC1608N_45000_8
 70
0
 62
7
  6
CONTINUOUS
370
-3
390
F
  0
LAYER
  5
2BF
100
AcDbSymbolTableRecord
100
AcDbLayerTableRecord
  2
RESC1608N_45000_9
 70
0
 62
7
  6
CONTINUOUS
370
-3
390
F
  0
LAYER
  5
2C0
100
AcDbSymbolTableRecord
100
AcDbLayerTableRecord
  2
RGB__255__255__255__
 70
0
 62
7
  6
CONTINUOUS
370
-3
390
F
  0
LAYER
  5
2C1
100
AcDbSymbolTableRecord
100
AcDbLayerTableRecord
  2
RY-S13-3_2-VIMAR_1500000
 70
0
 62
7
  6
CONTINUOUS
370
-3
390
F
  0
LAYER
  5
2C2
100
AcDbSymbolTableRecord
100
AcDbLayerTableRecord
  2
SC70-6_REF_H1_1_110000
 70
0
 62
7
  6
CONTINUOUS
370
-3
390
F
  0
LAYER
  5
2C3
100
AcDbSymbolTableRecord
100
AcDbLayerTableRecord
  2
SIMBOLI
 70
0
 62
7
  6
CONTINUOUS
370
-3
390
F
  0
LAYER
  5
2C4
100
AcDbSymbolTableRecord
100
AcDbLayerTableRecord
  2
SMUSSO
 70
0
 62
7
  6
CONTINUOUS
370
-3
390
F
  0
LAYER
  5
2C5
100
AcDbSymbolTableRecord
100
AcDbLayerTableRecord
  2
SNAPLINE
 70
0
 62
7
  6
CONTINUOUS
370
-3
390
F
  0
LAYER
  5
2C6
100
AcDbSymbolTableRecord
100
AcDbLayerTableRecord
  2
SOD123_135000
 70
0
 62
7
  6
CONTINUOUS
370
-3
390
F
  0
LAYER
  5
2C7
100
AcDbSymbolTableRecord
100
AcDbLayerTableRecord
  2
SOD123_135000_1
 70
0
 62
7
  6
CONTINUOUS
370
-3
390
F
  0
LAYER
  5
2C8
100
AcDbSymbolTableRecord
100
AcDbLayerTableRecord
  2
SOIC-8-7A-5_0-6_2-1_75-REF_1750
 70
0
 62
7
  6
CONTINUOUS
370
-3
390
F
  0
LAYER
  5
2C9
100
AcDbSymbolTableRecord
100
AcDbLayerTableRecord
  2
SOP8-T1-RF-FINE-VIMAR_150000
 70
0
 62
7
  6
CONTINUOUS
370
-3
390
F
  0
LAYER
  5
2CA
100
AcDbSymbolTableRecord
100
AcDbLayerTableRecord
  2
SOT95P280X110-6N_110000
 70
0
 62
7
  6
CONTINUOUS
370
-3
390
F
  0
LAYER
  5
2CB
100
AcDbSymbolTableRecord
100
AcDbLayerTableRecord
  2
SOT95P280X110-6N_110000_1
 70
0
 62
7
  6
CONTINUOUS
370
-3
390
F
  0
LAYER
  5
2CC
100
AcDbSymbolTableRecord
100
AcDbLayerTableRecord
  2
STANDARD
 70
0
 62
7
  6
CONTINUOUS
370
-3
390
F
  0
LAYER
  5
2CD
100
AcDbSymbolTableRecord
100
AcDbLayerTableRecord
  2
SUPERFICI
 70
0
 62
7
  6
CONTINUOUS
370
-3
390
F
  0
LAYER
  5
2CE
100
AcDbSymbolTableRecord
100
AcDbLayerTableRecord
  2
TP10_SMD_0
 70
0
 62
7
  6
CONTINUOUS
370
-3
390
F
  0
LAYER
  5
2CF
100
AcDbSymbolTableRecord
100
AcDbLayerTableRecord
  2
TP10_SMD_0_1
 70
0
 62
7
  6
CONTINUOUS
370
-3
390
F
  0
LAYER
  5
2D0
100
AcDbSymbolTableRecord
100
AcDbLayerTableRecord
  2
TRASH
 70
0
 62
7
  6
CONTINUOUS
370
-3
390
F
  0
LAYER
  5
2D1
100
AcDbSymbolTableRecord
100
AcDbLayerTableRecord
  2
TSSOP14-RF-3-VIMAR_110000
 70
0
 62
7
  6
CONTINUOUS
370
-3
390
F
  0
LAYER
  5
2D2
100
AcDbSymbolTableRecord
100
AcDbLayerTableRecord
  2
TSSOP8-RF-1-VIMAR_0
 70
0
 62
7
  6
CONTINUOUS
370
-3
390
F
  0
LAYER
  5
2D3
100
AcDbSymbolTableRecord
100
AcDbLayerTableRecord
  2
XSEC_DATUMS
 70
0
 62
7
  6
CONTINUOUS
370
-3
390
F
  0
LAYER
  5
2D4
100
AcDbSymbolTableRecord
100
AcDbLayerTableRecord
  2
___SHELL
 70
0
 62
7
  6
CONTINUOUS
370
-3
390
F
  0
ENDTAB
  0
TABLE
  2
STYLE
  5
3
100
AcDbSymbolTable
 70
1
  0
STYLE
  5
11
100
AcDbSymbolTableRecord
100
AcDbTextStyleTableRecord
  2
STANDARD
 70
0
 40
0.0
 41
0.8
 50
0.0
 71
0
 42
0.2
  3
txt
  4

  0
STYLE
  5
2D5
100
AcDbSymbolTableRecord
100
AcDbTextStyleTableRecord
  2
TEXTSTYLE_1
 70
0
 40
0.0
 41
0.8
 50
0.0
 71
0
 42
0.2
  3
gdt
  4

  0
ENDTAB
  0
TABLE
  2
VIEW
  5
6
100
AcDbSymbolTable
 70
0
  0
ENDTAB
  0
TABLE
  2
UCS
  5
7
100
AcDbSymbolTable
 70
0
  0
ENDTAB
  0
TABLE
  2
APPID
  5
9
100
AcDbSymbolTable
 70
1
  0
APPID
  5
2D6
100
AcDbSymbolTableRecord
100
AcDbRegAppTableRecord
  2
ACAD
 70
0
  0
ENDTAB
  0
TABLE
  2
BLOCK_RECORD
  5
1
100
AcDbSymbolTable
 70
0
  0
BLOCK_RECORD
  5
2D7
100
AcDbSymbolTableRecord
100
AcDbBlockTableRecord
  2
*Model_Space
  0
BLOCK_RECORD
  5
2D8
100
AcDbSymbolTableRecord
100
AcDbBlockTableRecord
  2
*Paper_Space
  0
BLOCK_RECORD
  5
2D9
100
AcDbSymbolTableRecord
100
AcDbBlockTableRecord
  2
_FILLED
  0
ENDTAB
  0
TABLE
  2
DIMSTYLE
  5
A
100
AcDbSymbolTable
 70
1
100
AcDbDimStyleTable
 71
0
  0
DIMSTYLE
105
2DA
100
AcDbSymbolTableRecord
100
AcDbDimStyleTableRecord
  2
STANDARD
 70
0
  3

  4

 40
1.0
 41
3.0
 42
0.5
 43
0.38
 44
1.5
 45
0.0
 46
0.0
 47
0.01
 48
0.01
140
3.0
141
0.09
142
0.0
143
25.4
144
1.0
145
0.0
146
1.0
147
0.625
 71
1.0
 72
0.0
 73
0
 74
0
 75
0
 76
0
 77
1
 78
8
 79
2
170
0
171
1
172
0
173
0
174
0
175
0
176
0
177
0
178
0
270
2
179
2
271
2
272
2
273
2
274
2
275
0
280
0
281
0
282
0
283
1
284
8
285
0
286
0
287
3
288
0
340
11
278
44
341
2D9
342
2D9
343
2D9
344
2D9
  0
ENDTAB
  0
ENDSEC
  0
SECTION
  2
BLOCKS
  0
BLOCK
  5
20
100
AcDbEntity
  8
0
100
AcDbBlockBegin
  2
*Model_Space
 70
0
 10
0.0
 20
0.0
 30
0.0
  3
*Model_Space
  1

  0
ENDBLK
  5
21
100
AcDbEntity
  8
0
100
AcDbBlockEnd
  0
BLOCK
  5
1C
100
AcDbEntity
  8
0
100
AcDbBlockBegin
  2
*Paper_Space
 70
0
 10
0.0
 20
0.0
 30
0.0
  3
*Paper_Space
  1

  0
ENDBLK
  5
1D
100
AcDbEntity
  8
0
100
AcDbBlockEnd
  0
BLOCK
  5
2DB
100
AcDbEntity
  8
0
100
AcDbBlockBegin
  2
_FILLED
 70
64
 10
0.0
 20
0.0
  3
_FILLED
  1

  0
SOLID
  5
2DC
100
AcDbEntity
  8
0
  6
BYBLOCK
 62
0
100
AcDbTrace
 10
0.0
 20
0.0
 11
-1.0
 21
0.3166666667
 12
-1.0
 22
-0.3166666667
 13
-1.0
 23
-0.3166666667
  0
ENDBLK
  5
2DD
100
AcDbEntity
  8
0
  6
BYBLOCK
 62
0
100
AcDbBlockEnd
  0
ENDSEC
  0
SECTION
  2
ENTITIES
  0
LWPOLYLINE
  5
2DE
100
AcDbEntity
  8
RACCORDO
100
AcDbPolyline
 62
7
  6
CONTINUOUS
 90
14
 70
0
 10
-40.1957001687
 20
32.2365024067
 10
-40.3005867985
 20
32.1329655699
 10
-40.395110872
 20
32.0248085728
 10
-40.4824276913
 20
31.9098557777
 10
-40.5623152962
 20
31.7889317382
 10
-40.6344771027
 20
31.6626466671
 10
-40.6984652027
 20
31.5317829932
 10
-40.7535870549
 20
31.3973606549
 10
-40.7992013607
 20
31.2603037824
 10
-40.8349252022
 20
31.1203408382
 10
-40.8595488109
 20
30.9794087627
 10
-40.8720988421
 20
30.8412201923
 10
-40.8723652668
 20
30.7072028466
 10
-40.8631075089
 20
30.5988062296
  0
LINE
  5
2DF
100
AcDbEntity
  8
RACCORDO
100
AcDbLine
 62
250
  6
CONTINUOUS
 10
-39.9503390409
 20
32.2085409118
 11
-34.093887192
 21
37.5542499298
  0
LINE
  5
2E0
100
AcDbEntity
  8
RACCORDO
100
AcDbLine
 62
7
  6
CONTINUOUS
 10
-31.274901175
 20
35.5605291488
 11
-35.9069891126
 21
31.4528928027
  0
LWPOLYLINE
  5
2E1
100
AcDbEntity
  8
RACCORDO
100
AcDbPolyline
 62
7
  6
CONTINUOUS
 90
6
 70
0
 10
-34.2058976566
 20
37.6864178166
 10
-34.2404509356
 20
37.6625961456
 10
-34.2717651303
 20
37.6391613265
 10
-34.3023439473
 20
37.6144962178
 10
-34.3321733702
 20
37.5886477761
 10
-40.1959162606
 20
32.2363400759
  0
LINE
  5
2E2
100
AcDbEntity
  8
RACCORDO
100
AcDbLine
 62
7
  6
CONTINUOUS
 10
-34.2059252903
 20
37.6863995654
 11
-28.787114525
 21
41.260054303
  0
LINE
  5
2E3
100
AcDbEntity
  8
RACCORDO
100
AcDbLine
 62
250
  6
CONTINUOUS
 10
-33.9491558682
 20
37.6659890815
 11
-28.6337061102
 21
41.1714782069
  0
LINE
  5
2E4
100
AcDbEntity
  8
0
100
AcDbLine
 62
7
  6
CONTINUOUS
 10
-25.4645312475
 20
40.2882931213
 11
-26.3545914302
 21
39.7267796396
  0
LINE
  5
2E5
100
AcDbEntity
  8
0
100
AcDbLine
 62
7
  6
CONTINUOUS
 10
-29.0472765717
 20
42.1612680347
 11
-27.4640965027
 21
43.0967723216
  0
LINE
  5
2E6
100
AcDbEntity
  8
0
100
AcDbLine
 62
250
  6
CONTINUOUS
 10
-28.9211238124
 20
42.1495560422
 11
-27.3383672092
 21
43.0848101022
  0
LINE
  5
2E7
100
AcDbEntity
  8
0
100
AcDbLine
 62
7
  6
CONTINUOUS
 10
-27.4640964886
 20
43.0967723295
 11
-27.4626422455
 21
43.0976119912
  0
LINE
  5
2E8
100
AcDbEntity
  8
0
100
AcDbLine
 62
250
  6
CONTINUOUS
 10
-27.242585742
 20
41.1803891973
 11
-25.1130377794
 21
42.4099628128
  0
LINE
  5
2E9
100
AcDbEntity
  8
0
100
AcDbLine
 62
250
  6
CONTINUOUS
 10
-27.0658120383
 20
40.8742081614
 11
-24.9362640757
 21
42.1037817769
  0
LINE
  5
2EA
100
AcDbEntity
  8
0
100
AcDbLine
 62
7
  6
CONTINUOUS
 10
-24.7615382932
 20
40.6941929016
 11
-17.438713326
 21
44.9223279677
  0
LINE
  5
2EB
100
AcDbEntity
  8
0
100
AcDbLine
 62
7
  6
CONTINUOUS
 10
-27.4626422596
 20
43.0976119833
 11
-26.9277639582
 21
43.399298998
  0
LINE
  5
2EC
100
AcDbEntity
  8
0
100
AcDbLine
 62
250
  6
CONTINUOUS
 10
-27.3383672092
 20
43.0848101022
 11
-26.8039173305
 21
43.3862554739
  0
LINE
  5
2ED
100
AcDbEntity
  8
0
100
AcDbLine
 62
7
  6
CONTINUOUS
 10
-5.8545200096
 20
50.8211218453
 11
-5.8543009839
 21
50.8212396829
  0
LINE
  5
2EE
100
AcDbEntity
  8
RACCORDO
100
AcDbLine
 62
7
  6
CONTINUOUS
 10
-17.1420783667
 20
44.7510382932
 11
-5.854301441
 21
50.8212394371
  0
LINE
  5
2EF
100
AcDbEntity
  8
0
100
AcDbLine
 62
250
  6
CONTINUOUS
 10
-25.4645312475
 20
41.11332421
 11
-24.9362640757
 21
41.7761364764
  0
LINE
  5
2F0
100
AcDbEntity
  8
0
100
AcDbLine
 62
7
  6
CONTINUOUS
 10
-25.4645312475
 20
41.0367723671
 11
-24.9185640752
 21
41.7217926716
  0
LINE
  5
2F1
100
AcDbEntity
  8
RACCORDO
100
AcDbLine
 62
7
  6
CONTINUOUS
 10
-33.0965014453
 20
31.0591420273
 11
-32.8216247631
 21
31.3028967802
  0
LINE
  5
2F2
100
AcDbEntity
  8
SUPERFICI
100
AcDbLine
 62
7
  6
CONTINUOUS
 10
-32.3084568259
 20
31.7043196319
 11
-32.8890220915
 21
31.2094344182
  0
LINE
  5
2F3
100
AcDbEntity
  8
0
100
AcDbLine
 62
7
  6
CONTINUOUS
 10
-23.8735409898
 20
38.0806674153
 11
-23.1664342086
 21
38.5317314027
  0
LINE
  5
2F4
100
AcDbEntity
  8
0
100
AcDbLine
 62
7
  6
CONTINUOUS
 10
-21.045113865
 20
37.736576913
 11
-21.2572458994
 21
37.6012577168
  0
LINE
  5
2F5
100
AcDbEntity
  8
0
100
AcDbLine
 62
7
  6
CONTINUOUS
 10
-23.4846322601
 20
40.4514767029
 11
-24.5391216916
 21
39.8283767771
  0
LINE
  5
2F6
100
AcDbEntity
  8
0
100
AcDbLine
 62
7
  6
CONTINUOUS
 10
-23.8735409898
 20
39.4440788216
 11
-23.0258356038
 21
39.9392278624
  0
LINE
  5
2F7
100
AcDbEntity
  8
0
100
AcDbLine
 62
250
  6
CONTINUOUS
 10
-21.3994900071
 20
39.0001962977
 11
-21.1865352213
 21
39.1245842746
  0
LINE
  5
2F8
100
AcDbEntity
  8
0
100
AcDbLine
 62
250
  6
CONTINUOUS
 10
-21.2572458994
 20
38.7557251335
 11
-21.045113865
 21
38.879632537
  0
LINE
  5
2F9
100
AcDbEntity
  8
0
100
AcDbLine
 62
7
  6
CONTINUOUS
 10
-16.8264968453
 20
41.2339226881
 11
-15.7225299762
 21
41.8713393224
  0
LINE
  5
2FA
100
AcDbEntity
  8
0
100
AcDbLine
 62
7
  6
CONTINUOUS
 10
-20.3380070839
 20
38.1405764389
 11
-21.045113865
 21
37.736576913
  0
LINE
  5
2FB
100
AcDbEntity
  8
0
100
AcDbLine
 62
7
  6
CONTINUOUS
 10
-17.5075230805
 20
43.0912234494
 11
-22.1057740368
 21
40.4671403474
  0
LINE
  5
2FC
100
AcDbEntity
  8
0
100
AcDbLine
 62
7
  6
CONTINUOUS
 10
-17.7924226716
 20
41.6222874047
 11
-17.4763761409
 21
41.8026456253
  0
LINE
  5
2FD
100
AcDbEntity
  8
0
100
AcDbLine
 62
7
  6
CONTINUOUS
 10
-14.6770390771
 20
42.9942432872
 11
-16.8264968453
 21
41.7676125831
  0
LINE
  5
2FE
100
AcDbEntity
  8
0
100
AcDbLine
 62
250
  6
CONTINUOUS
 10
-21.1865352213
 20
39.1245842746
 11
-20.4794284401
 21
39.5281087828
  0
LINE
  5
2FF
100
AcDbEntity
  8
0
100
AcDbLine
 62
250
  6
CONTINUOUS
 10
-21.045113865
 20
38.879632537
 11
-20.3380070839
 21
39.2831570453
  0
LINE
  5
300
100
AcDbEntity
  8
0
100
AcDbLine
 62
7
  6
CONTINUOUS
 10
-18.1484088542
 20
43.461262863
 11
-23.4846322601
 21
40.4514767029
  0
LINE
  5
301
100
AcDbEntity
  8
0
100
AcDbLine
 62
250
  6
CONTINUOUS
 10
-16.5706924786
 20
44.4211272426
 11
-4.877172623
 21
50.7095238038
  0
LINE
  5
302
100
AcDbEntity
  8
RACCORDO
100
AcDbLine
 62
250
  6
CONTINUOUS
 10
-31.274901175
 20
35.5605291488
 11
-32.8216247631
 21
31.3028967802
  0
LINE
  5
303
100
AcDbEntity
  8
RACCORDO
100
AcDbLine
 62
250
  6
CONTINUOUS
 10
-30.6442408281
 20
35.7577725576
 11
-32.1740646055
 21
31.5466599302
  0
LINE
  5
304
100
AcDbEntity
  8
RACCORDO
100
AcDbLine
 62
7
  6
CONTINUOUS
 10
-20.2622035278
 20
38.346103476
 11
-17.8244767192
 21
40.5607340406
  0
LINE
  5
305
100
AcDbEntity
  8
RACCORDO
100
AcDbLine
 62
250
  6
CONTINUOUS
 10
-20.1946770503
 20
38.3071145342
 11
-17.7217119935
 21
40.5537584078
  0
LINE
  5
306
100
AcDbEntity
  8
0
100
AcDbLine
 62
7
  6
CONTINUOUS
 10
-17.1913819076
 20
35.5114803794
 11
-18.2582128197
 21
34.8384473065
  0
LINE
  5
307
100
AcDbEntity
  8
0
100
AcDbLine
 62
7
  6
CONTINUOUS
 10
-16.743618579
 20
35.0572901108
 11
-15.16043851
 21
35.9927943977
  0
LINE
  5
308
100
AcDbEntity
  8
0
100
AcDbLine
 62
250
  6
CONTINUOUS
 10
-16.6174658197
 20
35.0455781183
 11
-15.0347092166
 21
35.9808321783
  0
LINE
  5
309
100
AcDbEntity
  8
0
100
AcDbLine
 62
7
  6
CONTINUOUS
 10
-19.5897725187
 20
38.1544649903
 11
-19.8024846133
 21
38.0302187707
  0
LINE
  5
30A
100
AcDbEntity
  8
0
100
AcDbLine
 62
250
  6
CONTINUOUS
 10
-19.4894789464
 20
38.1447252506
 11
-19.7024337322
 21
38.0203372737
  0
LINE
  5
30B
100
AcDbEntity
  8
0
100
AcDbLine
 62
7
  6
CONTINUOUS
 10
-18.0760881355
 20
37.0813057091
 11
-18.9237935215
 21
36.5861566683
  0
LINE
  5
30C
100
AcDbEntity
  8
0
100
AcDbLine
 62
7
  6
CONTINUOUS
 10
-19.5891908123
 20
38.154800849
 11
-19.5897725142
 21
38.154464993
  0
LINE
  5
30D
100
AcDbEntity
  8
0
100
AcDbLine
 62
7
  6
CONTINUOUS
 10
-11.9168898384
 20
39.8632618825
 11
-18.2582128197
 21
36.2018587127
  0
LINE
  5
30E
100
AcDbEntity
  8
0
100
AcDbLine
 62
7
  6
CONTINUOUS
 10
-17.1913819076
 20
35.5114803794
 11
-11.8840712414
 21
38.5758585077
  0
LINE
  5
30F
100
AcDbEntity
  8
0
100
AcDbLine
 62
7
  6
CONTINUOUS
 10
-15.1604384959
 20
35.9927944056
 11
-15.1589842529
 21
35.9936340673
  0
LINE
  5
310
100
AcDbEntity
  8
0
100
AcDbLine
 62
7
  6
CONTINUOUS
 10
-18.8820840266
 20
38.5583253598
 11
-19.5891908078
 21
38.1548008516
  0
LINE
  5
311
100
AcDbEntity
  8
0
100
AcDbLine
 62
250
  6
CONTINUOUS
 10
-18.7823721652
 20
38.5482497588
 11
-19.4894789464
 21
38.1447252506
  0
LINE
  5
312
100
AcDbEntity
  8
0
100
AcDbLine
 62
7
  6
CONTINUOUS
 10
-12.5577756122
 20
40.2333012961
 11
-17.1560265685
 21
37.6092181941
  0
LINE
  5
313
100
AcDbEntity
  8
0
100
AcDbLine
 62
7
  6
CONTINUOUS
 10
-11.7532363903
 20
39.7919746668
 11
-10.43439839
 21
40.5445957272
  0
LINE
  5
314
100
AcDbEntity
  8
0
100
AcDbLine
 62
7
  6
CONTINUOUS
 10
-15.158984267
 20
35.9936340594
 11
-14.6241059655
 21
36.2953210741
  0
LINE
  5
315
100
AcDbEntity
  8
0
100
AcDbLine
 62
250
  6
CONTINUOUS
 10
-15.0347092166
 20
35.9808321783
 11
-14.5002593379
 21
36.28227755
  0
LINE
  5
316
100
AcDbEntity
  8
0
100
AcDbLine
 62
7
  6
CONTINUOUS
 10
-13.1608732548
 20
33.1843151974
 11
-14.0509334375
 21
32.6228017157
  0
LINE
  5
317
100
AcDbEntity
  8
0
100
AcDbLine
 62
7
  6
CONTINUOUS
 10
-6.4961827471
 20
38.06694272
 11
-7.4226740846
 21
37.4939865792
  0
LINE
  5
318
100
AcDbEntity
  8
0
100
AcDbLine
 62
7
  6
CONTINUOUS
 10
-6.4961827471
 20
37.5089420319
 11
-6.9640673402
 21
37.2291927927
  0
LINE
  5
319
100
AcDbEntity
  8
0
100
AcDbLine
 62
250
  6
CONTINUOUS
 10
-14.9389277493
 20
34.0764112734
 11
-12.8093797867
 21
35.3059848889
  0
LINE
  5
31A
100
AcDbEntity
  8
0
100
AcDbLine
 62
250
  6
CONTINUOUS
 10
-14.7621540456
 20
33.7702302375
 11
-12.6326060831
 21
34.999803853
  0
LINE
  5
31B
100
AcDbEntity
  8
0
100
AcDbLine
 62
7
  6
CONTINUOUS
 10
-6.6201086044
 20
37.0601755544
 11
-6.64594967
 21
37.0455156369
  0
LINE
  5
31C
100
AcDbEntity
  8
0
100
AcDbLine
 62
7
  6
CONTINUOUS
 10
-7.3839185407
 20
38.7832868938
 11
-13.1018277848
 21
35.5582187514
  0
LINE
  5
31D
100
AcDbEntity
  8
0
100
AcDbLine
 62
7
  6
CONTINUOUS
 10
-12.5604082261
 20
34.9515120473
 11
-7.705842256
 21
37.6574843325
  0
LWPOLYLINE
  5
31E
100
AcDbEntity
  8
RACCORDO
100
AcDbPolyline
 62
7
  6
CONTINUOUS
 90
10
 70
0
 10
-40.8631986173
 20
30.5992248897
 10
-40.7640457524
 20
29.8516054808
 10
-40.6407754094
 20
29.0000950897
 10
-40.5074873624
 20
28.1563969591
 10
-40.3642012101
 20
27.3206451425
 10
-40.2109379904
 20
26.4929727423
 10
-40.0477195378
 20
25.673508001
 10
-39.8745697937
 20
24.8623814222
 10
-39.691514145
 20
24.0597225504
 10
-39.5263995257
 20
23.3771734996
  0
LINE
  5
31F
100
AcDbEntity
  8
RACCORDO
100
AcDbLine
 62
7
  6
CONTINUOUS
 10
-40.8631617741
 20
30.5992295658
 11
-40.8631075089
 21
30.5988062296
  0
LINE
  5
320
100
AcDbEntity
  8
0
100
AcDbLine
 62
250
  6
CONTINUOUS
 10
-13.1608732548
 20
34.0093462861
 11
-12.6326060831
 21
34.6721585525
  0
LINE
  5
321
100
AcDbEntity
  8
0
100
AcDbLine
 62
7
  6
CONTINUOUS
 10
-13.1608732548
 20
33.9327944432
 11
-12.6149060825
 21
34.6178147477
  0
LINE
  5
322
100
AcDbEntity
  8
0
100
AcDbLine
 62
7
  6
CONTINUOUS
 10
-10.052702176
 20
33.4274911134
 11
-5.2162307501
 21
36.2200138511
  0
LINE
  5
323
100
AcDbEntity
  8
0
100
AcDbLine
 62
7
  6
CONTINUOUS
 10
-9.3174324404
 20
32.586498437
 11
-5.2162307501
 21
34.9544849221
  0
LINE
  5
324
100
AcDbEntity
  8
0
100
AcDbLine
 62
7
  6
CONTINUOUS
 10
-8.5376575391
 20
32.1385265888
 11
-3.3168890752
 21
35.1529379974
  0
LINE
  5
325
100
AcDbEntity
  8
0
100
AcDbLine
 62
7
  6
CONTINUOUS
 10
-5.1705666274
 20
34.92811903
 11
-4.039168853
 21
35.5699732888
  0
LINE
  5
326
100
AcDbEntity
  8
DRAFT
100
AcDbLine
 62
7
  6
CONTINUOUS
 10
-2.6159798109
 20
34.5474309571
 11
-7.707680605
 21
31.659308309
  0
LWPOLYLINE
  5
327
100
AcDbEntity
  8
RACCORDO
100
AcDbPolyline
 62
7
  6
CONTINUOUS
 90
10
 70
0
 10
-36.0299073033
 20
10.4985738935
 10
-35.781099321
 20
9.6807361335
 10
-35.4890118217
 20
8.7773289956
 10
-35.1828676078
 20
7.8876093044
 10
-34.862744568
 20
7.0118129304
 10
-34.5287133319
 20
6.1501286922
 10
-34.1808396259
 20
5.3027277451
 10
-33.8191964433
 20
4.4697956538
 10
-33.4438798962
 20
3.6515491966
 10
-33.1012508931
 20
2.9415491244
  0
LINE
  5
328
100
AcDbEntity
  8
RACCORDO
100
AcDbLine
 62
250
  6
CONTINUOUS
 10
-35.889493771
 20
10.3289078128
 11
-35.9466713405
 21
10.5227077738
  0
LWPOLYLINE
  5
329
100
AcDbEntity
  8
RACCORDO
100
AcDbPolyline
 62
7
  6
CONTINUOUS
 90
10
 70
0
 10
-39.526399647
 20
23.3771739509
 10
-39.181607074
 20
22.0023702866
 10
-38.8053022421
 20
20.531170189
 10
-38.4228044777
 20
19.0655741532
 10
-38.0341216156
 20
17.6056128031
 10
-37.6392603916
 20
16.1513114316
 10
-37.2382270496
 20
14.7026932691
 10
-36.8310284094
 20
13.2597834388
 10
-36.417672948
 20
11.822611883
 10
-36.0299072337
 20
10.4985734644
  0
LINE
  5
32A
100
AcDbEntity
  8
0
100
AcDbLine
 62
7
  6
CONTINUOUS
 10
-29.1700953731
 20
41.9460357353
 11
-29.1700953731
 21
41.6255155624
  0
LINE
  5
32B
100
AcDbEntity
  8
0
100
AcDbLine
 62
250
  6
CONTINUOUS
 10
-29.0968720684
 20
41.8439670869
 11
-29.0968720684
 21
41.5234469141
  0
LINE
  5
32C
100
AcDbEntity
  8
0
100
AcDbLine
 62
7
  6
CONTINUOUS
 10
-28.4671024188
 20
41.0752833235
 11
-28.4671024188
 21
40.7958558243
  0
LINE
  5
32D
100
AcDbEntity
  8
0
100
AcDbLine
 62
250
  6
CONTINUOUS
 10
-28.3938791141
 20
41.0330051051
 11
-28.3938791141
 21
40.6906539951
  0
LINE
  5
32E
100
AcDbEntity
  8
0
100
AcDbLine
 62
250
  6
CONTINUOUS
 10
-27.4183339979
 20
40.5542800693
 11
-27.4183339979
 21
40.8748002421
  0
LINE
  5
32F
100
AcDbEntity
  8
0
100
AcDbLine
 62
250
  6
CONTINUOUS
 10
-27.0658120383
 20
40.5536879886
 11
-27.0658120383
 21
40.8742081614
  0
LINE
  5
330
100
AcDbEntity
  8
0
100
AcDbLine
 62
250
  6
CONTINUOUS
 10
-26.7071133898
 20
39.7167366061
 11
-26.7071133898
 21
40.3495971249
  0
LINE
  5
331
100
AcDbEntity
  8
0
100
AcDbLine
 62
250
  6
CONTINUOUS
 10
-26.3545914302
 20
39.7267796396
 11
-26.3545914302
 21
40.4881979758
  0
LINE
  5
332
100
AcDbEntity
  8
DRAFT
100
AcDbLine
 62
7
  6
CONTINUOUS
 10
-5.2578778621
 20
30.2448229085
 11
0.114738823
 21
33.1340422971
  0
LWPOLYLINE
  5
333
100
AcDbEntity
  8
RACCORDO
100
AcDbPolyline
 62
7
  6
CONTINUOUS
 90
7
 70
0
 10
-33.1008194703
 20
2.9406813229
 10
-33.0636337629
 20
2.8746175139
 10
-33.0178407052
 20
2.8107318541
 10
-32.9657728045
 20
2.7532110196
 10
-32.908449681
 20
2.7028522152
 10
-32.8469373876
 20
2.6601150719
 10
-32.830411296
 20
2.6502962869
  0
LINE
  5
334
100
AcDbEntity
  8
RACCORDO
100
AcDbLine
 62
7
  6
CONTINUOUS
 10
-33.1012508931
 20
2.9415491244
 11
-33.1008201807
 21
2.940680968
  0
LINE
  5
335
100
AcDbEntity
  8
0
100
AcDbLine
 62
7
  6
CONTINUOUS
 10
-25.4645312475
 20
40.2882931213
 11
-25.4645312475
 21
41.7987665877
  0
LINE
  5
336
100
AcDbEntity
  8
0
100
AcDbLine
 62
250
  6
CONTINUOUS
 10
-24.9362640757
 20
42.1037817769
 11
-24.9362640757
 21
41.7761364764
  0
LINE
  5
337
100
AcDbEntity
  8
0
100
AcDbLine
 62
7
  6
CONTINUOUS
 10
-24.8640662187
 20
42.2052548899
 11
-24.8640662187
 21
41.8776095894
  0
LINE
  5
338
100
AcDbEntity
  8
0
100
AcDbLine
 62
7
  6
CONTINUOUS
 10
-24.5391216916
 20
39.8283767771
 11
-24.5391216916
 21
38.4649653708
  0
LINE
  5
339
100
AcDbEntity
  8
0
100
AcDbLine
 62
7
  6
CONTINUOUS
 10
-23.8735409898
 20
38.0806674153
 11
-23.8735409898
 21
39.4440788216
  0
LINE
  5
33A
100
AcDbEntity
  8
0
100
AcDbLine
 62
7
  6
CONTINUOUS
 10
-23.1664342086
 20
39.6947566982
 11
-23.1664342086
 21
38.5317314027
  0
LINE
  5
33B
100
AcDbEntity
  8
0
100
AcDbLine
 62
250
  6
CONTINUOUS
 10
-21.5400886119
 20
37.592699838
 11
-21.5400886119
 21
38.7557251335
  0
LINE
  5
33C
100
AcDbEntity
  8
0
100
AcDbLine
 62
250
  6
CONTINUOUS
 10
-21.2572458994
 20
37.6012577168
 11
-21.2572458994
 21
38.7557251335
  0
LINE
  5
33D
100
AcDbEntity
  8
0
100
AcDbLine
 62
7
  6
CONTINUOUS
 10
-10.052702176
 20
33.4274911134
 11
-10.2312622747
 21
33.1163927372
  0
LINE
  5
33E
100
AcDbEntity
  8
RACCORDO
100
AcDbLine
 62
7
  6
CONTINUOUS
 10
-3.9740516552
 20
29.5035577468
 11
-1.9145741425
 21
31.3745556908
  0
LINE
  5
33F
100
AcDbEntity
  8
RACCORDO
100
AcDbLine
 62
250
  6
CONTINUOUS
 10
-3.9065251777
 20
29.464568805
 11
-1.8118094168
 21
31.367580058
  0
LINE
  5
340
100
AcDbEntity
  8
RACCORDO
100
AcDbLine
 62
7
  6
CONTINUOUS
 10
1.1808937685
 20
26.5271568658
 11
2.8550953391
 21
27.4600768002
  0
LINE
  5
341
100
AcDbEntity
  8
SUPERFICI
100
AcDbLine
 62
7
  6
CONTINUOUS
 10
-32.8890220915
 20
31.2094344182
 11
-32.6512550854
 21
30.3221177249
  0
LINE
  5
342
100
AcDbEntity
  8
SUPERFICI
100
AcDbLine
 62
7
  6
CONTINUOUS
 10
-31.1143766894
 20
30.9348094085
 11
-30.6388426772
 21
29.1601760218
  0
LINE
  5
343
100
AcDbEntity
  8
0
100
AcDbLine
 62
7
  6
CONTINUOUS
 10
-20.3380070839
 20
39.2831570453
 11
-20.3380070839
 21
38.1405764389
  0
LINE
  5
344
100
AcDbEntity
  8
0
100
AcDbLine
 62
7
  6
CONTINUOUS
 10
-19.9016109808
 20
37.8575210282
 11
-19.9016109808
 21
36.6970022774
  0
LINE
  5
345
100
AcDbEntity
  8
0
100
AcDbLine
 62
250
  6
CONTINUOUS
 10
-19.843032337
 20
37.7758661095
 11
-19.843032337
 21
36.612840814
  0
LINE
  5
346
100
AcDbEntity
  8
0
100
AcDbLine
 62
7
  6
CONTINUOUS
 10
-18.9237935215
 20
36.5861566683
 11
-18.9237935215
 21
35.222745262
  0
LINE
  5
347
100
AcDbEntity
  8
0
100
AcDbLine
 62
7
  6
CONTINUOUS
 10
-18.2582128197
 20
34.8384473065
 11
-18.2582128197
 21
36.2018587127
  0
LINE
  5
348
100
AcDbEntity
  8
DRAFT
100
AcDbLine
 62
250
  6
CONTINUOUS
 10
-17.7924226716
 20
40.579335431
 11
-17.7924226716
 21
41.6222874047
  0
LINE
  5
349
100
AcDbEntity
  8
0
100
AcDbLine
 62
250
  6
CONTINUOUS
 10
-17.4763761409
 20
41.8026456253
 11
-17.4763761409
 21
43.1074099169
  0
LINE
  5
34A
100
AcDbEntity
  8
0
100
AcDbLine
 62
7
  6
CONTINUOUS
 10
-17.3436830033
 20
41.9860897657
 11
-17.3436830033
 21
43.1629265529
  0
LINE
  5
34B
100
AcDbEntity
  8
0
100
AcDbLine
 62
7
  6
CONTINUOUS
 10
-17.1913819076
 20
35.5114803794
 11
-17.1913819076
 21
36.8178328223
  0
LINE
  5
34C
100
AcDbEntity
  8
0
100
AcDbLine
 62
7
  6
CONTINUOUS
 10
-16.8664373804
 20
34.8420578114
 11
-16.8664373804
 21
34.5215376385
  0
LINE
  5
34D
100
AcDbEntity
  8
RACCORDO
100
AcDbLine
 62
250
  6
CONTINUOUS
 10
2.7136739828
 20
28.7546226607
 11
0.6189582219
 21
26.8516114077
  0
LINE
  5
34E
100
AcDbEntity
  8
RACCORDO
100
AcDbLine
 62
250
  6
CONTINUOUS
 10
2.8550953391
 20
28.5030930283
 11
0.8747063978
 21
26.7039456162
  0
LINE
  5
34F
100
AcDbEntity
  8
0
100
AcDbLine
 62
7
  6
CONTINUOUS
 10
2.7718193144
 20
23.7906435928
 11
4.3558023779
 21
24.7244703806
  0
LINE
  5
350
100
AcDbEntity
  8
0
100
AcDbLine
 62
250
  6
CONTINUOUS
 10
2.8978579866
 20
23.7788635998
 11
4.4814385126
 21
24.7124530743
  0
LINE
  5
351
100
AcDbEntity
  8
DRAFT
100
AcDbLine
 62
7
  6
CONTINUOUS
 10
2.811339287
 20
25.5857580577
 11
7.9996149111
 21
28.5814136646
  0
LINE
  5
352
100
AcDbEntity
  8
DRAFT
100
AcDbLine
 62
7
  6
CONTINUOUS
 10
7.9996149111
 20
28.4181196092
 11
2.9527467337
 21
25.5041111702
  0
LINE
  5
353
100
AcDbEntity
  8
0
100
AcDbLine
 62
250
  6
CONTINUOUS
 10
4.5782484517
 20
22.8086272055
 11
6.706767374
 21
24.0376061131
  0
LINE
  5
354
100
AcDbEntity
  8
0
100
AcDbLine
 62
250
  6
CONTINUOUS
 10
4.7550227238
 20
22.5024451851
 11
6.8835410777
 21
23.7314250772
  0
LINE
  5
355
100
AcDbEntity
  8
0
100
AcDbLine
 62
7
  6
CONTINUOUS
 10
4.3558023913
 20
24.7244703882
 11
4.3571843289
 21
24.7252673736
  0
LINE
  5
356
100
AcDbEntity
  8
0
100
AcDbLine
 62
7
  6
CONTINUOUS
 10
10.7393628738
 20
27.0370342882
 11
10.7135218081
 21
27.0223743707
  0
LINE
  5
357
100
AcDbEntity
  8
0
100
AcDbLine
 62
7
  6
CONTINUOUS
 10
4.3571843155
 20
24.725267366
 11
4.8920411952
 21
25.0269422982
  0
LINE
  5
358
100
AcDbEntity
  8
0
100
AcDbLine
 62
250
  6
CONTINUOUS
 10
4.4814379442
 20
24.7124534025
 11
5.0158878229
 21
25.0138987742
  0
LINE
  5
359
100
AcDbEntity
  8
0
100
AcDbLine
 62
7
  6
CONTINUOUS
 10
5.0317613957
 20
25.0580785102
 11
9.6536292221
 21
27.6343430663
  0
LINE
  5
35A
100
AcDbEntity
  8
0
100
AcDbLine
 62
7
  6
CONTINUOUS
 10
9.9910165187
 20
27.4395398697
 11
10.017083096
 21
27.4540695796
  0
LINE
  5
35B
100
AcDbEntity
  8
0
100
AcDbLine
 62
250
  6
CONTINUOUS
 10
19.1871990703
 20
-22.6365839343
 11
18.6589318986
 21
-22.5909409913
  0
LINE
  5
35C
100
AcDbEntity
  8
0
100
AcDbLine
 62
250
  6
CONTINUOUS
 10
19.097785275
 20
-22.3073054968
 11
18.703141627
 21
-22.273207793
  0
LINE
  5
35D
100
AcDbEntity
  8
0
100
AcDbLine
 62
7
  6
CONTINUOUS
 10
-16.8264968453
 20
41.7676125831
 11
-16.8264968453
 21
41.2339226881
  0
LINE
  5
35E
100
AcDbEntity
  8
0
100
AcDbLine
 62
250
  6
CONTINUOUS
 10
-16.7932140757
 20
34.739989163
 11
-16.7932140757
 21
34.4194689902
  0
LINE
  5
35F
100
AcDbEntity
  8
DRAFT
100
AcDbLine
 62
250
  6
CONTINUOUS
 10
-16.3782091092
 20
40.498925802
 11
-16.3782091092
 21
41.0844838152
  0
LINE
  5
360
100
AcDbEntity
  8
0
100
AcDbLine
 62
7
  6
CONTINUOUS
 10
-16.1634444261
 20
33.9713053996
 11
-16.1634444261
 21
33.6918779004
  0
LINE
  5
361
100
AcDbEntity
  8
0
100
AcDbLine
 62
250
  6
CONTINUOUS
 10
-16.0902211214
 20
33.9290271812
 11
-16.0902211214
 21
33.5866760712
  0
LINE
  5
362
100
AcDbEntity
  8
0
100
AcDbLine
 62
250
  6
CONTINUOUS
 10
-15.1146760053
 20
33.4503021454
 11
-15.1146760053
 21
33.7708223182
  0
LINE
  5
363
100
AcDbEntity
  8
0
100
AcDbLine
 62
250
  6
CONTINUOUS
 10
-14.7621540456
 20
33.4497100647
 11
-14.7621540456
 21
33.7702302375
  0
LINE
  5
364
100
AcDbEntity
  8
0
100
AcDbLine
 62
250
  6
CONTINUOUS
 10
-14.4034553972
 20
32.6127586822
 11
-14.4034553972
 21
33.245619201
  0
LINE
  5
365
100
AcDbEntity
  8
0
100
AcDbLine
 62
250
  6
CONTINUOUS
 10
-14.0509334375
 20
32.6228017157
 11
-14.0509334375
 21
33.3842200518
  0
LINE
  5
366
100
AcDbEntity
  8
0
100
AcDbLine
 62
7
  6
CONTINUOUS
 10
-13.9740460532
 20
42.5836861891
 11
-13.9740460532
 21
42.1460687767
  0
LINE
  5
367
100
AcDbEntity
  8
0
100
AcDbLine
 62
7
  6
CONTINUOUS
 10
-13.1608732548
 20
33.1843151974
 11
-13.1608732548
 21
34.6947886638
  0
LINE
  5
368
100
AcDbEntity
  8
0
100
AcDbLine
 62
250
  6
CONTINUOUS
 10
-12.6326060831
 20
34.999803853
 11
-12.6326060831
 21
34.6721585525
  0
LINE
  5
369
100
AcDbEntity
  8
0
100
AcDbLine
 62
7
  6
CONTINUOUS
 10
-12.5604082261
 20
35.101276966
 11
-12.5604082261
 21
34.7736316655
  0
LINE
  5
36A
100
AcDbEntity
  8
0
100
AcDbLine
 62
7
  6
CONTINUOUS
 10
6.3552739059
 20
21.9159364216
 11
5.4658319413
 21
21.3541909723
  0
LINE
  5
36B
100
AcDbEntity
  8
0
100
AcDbLine
 62
7
  6
CONTINUOUS
 10
8.3351728933
 20
22.0791200031
 11
7.2800663759
 21
21.4570889015
  0
LINE
  5
36C
100
AcDbEntity
  8
0
100
AcDbLine
 62
7
  6
CONTINUOUS
 10
7.9462641636
 20
21.0724346483
 11
8.7940518239
 21
21.5670622222
  0
LINE
  5
36D
100
AcDbEntity
  8
0
100
AcDbLine
 62
250
  6
CONTINUOUS
 10
10.4203974207
 20
20.6280306576
 11
10.6332699321
 21
20.7522275748
  0
LINE
  5
36E
100
AcDbEntity
  8
0
100
AcDbLine
 62
7
  6
CONTINUOUS
 10
7.3067693021
 20
23.4043498472
 11
12.143240728
 21
26.1968725849
  0
LINE
  5
36F
100
AcDbEntity
  8
0
100
AcDbLine
 62
7
  6
CONTINUOUS
 10
7.7612598145
 20
22.7277359822
 11
14.3810918274
 21
26.5499712679
  0
LINE
  5
370
100
AcDbEntity
  8
0
100
AcDbLine
 62
7
  6
CONTINUOUS
 10
14.3122820729
 20
24.7188667496
 11
9.7140311166
 21
22.0947836477
  0
LINE
  5
371
100
AcDbEntity
  8
0
100
AcDbLine
 62
7
  6
CONTINUOUS
 10
14.0273824818
 20
23.2499307049
 11
14.3434290125
 21
23.4302889256
  0
LINE
  5
372
100
AcDbEntity
  8
0
100
AcDbLine
 62
7
  6
CONTINUOUS
 10
17.1427660763
 20
24.6218865874
 11
14.9933083081
 21
23.3952558834
  0
LINE
  5
373
100
AcDbEntity
  8
0
100
AcDbLine
 62
250
  6
CONTINUOUS
 10
10.6332699321
 20
20.7522275748
 11
11.3403767133
 21
21.155752083
  0
LINE
  5
374
100
AcDbEntity
  8
0
100
AcDbLine
 62
7
  6
CONTINUOUS
 10
13.6713962992
 20
25.0889061632
 11
8.3351728933
 21
22.0791200031
  0
LWPOLYLINE
  5
375
100
AcDbEntity
  8
RACCORDO
100
AcDbPolyline
 62
7
  6
CONTINUOUS
 90
10
 70
0
 10
13.881130365
 20
-24.3203656587
 10
13.9356508069
 20
-24.3485640261
 10
14.0142488837
 20
-24.3789866237
 10
14.0972654106
 20
-24.3997314521
 10
14.1837601779
 20
-24.4102243089
 10
14.2723573183
 20
-24.4100440305
 10
14.3612893236
 20
-24.3991954515
 10
14.44955609
 20
-24.3779348368
 10
14.5366341211
 20
-24.3465283032
 10
14.5889217542
 20
-24.3225050325
  0
LINE
  5
376
100
AcDbEntity
  8
RACCORDO
100
AcDbLine
 62
7
  6
CONTINUOUS
 10
-32.8304655865
 20
2.6503250591
 11
-32.8316447175
 21
2.6510026145
  0
LINE
  5
377
100
AcDbEntity
  8
RACCORDO
100
AcDbLine
 62
7
  6
CONTINUOUS
 10
13.8807197744
 20
-24.3201311997
 11
13.8810789638
 21
-24.3203382985
  0
LINE
  5
378
100
AcDbEntity
  8
0
100
AcDbLine
 62
7
  6
CONTINUOUS
 10
13.880718843
 20
-24.3201306619
 11
-32.8316437746
 21
2.65100207
  0
LINE
  5
379
100
AcDbEntity
  8
RACCORDO
100
AcDbLine
 62
250
  6
CONTINUOUS
 10
-32.9756075536
 20
2.8097738453
 11
13.73421907
 21
-24.1598946356
  0
LINE
  5
37A
100
AcDbEntity
  8
0
100
AcDbLine
 62
7
  6
CONTINUOUS
 10
15.7788974786
 20
-23.7297778906
 11
16.7578260007
 21
-24.2949989504
  0
LINE
  5
37B
100
AcDbEntity
  8
0
100
AcDbLine
 62
250
  6
CONTINUOUS
 10
15.8575059055
 20
-23.6906229233
 11
16.7060553454
 21
-24.1805647351
  0
LINE
  5
37C
100
AcDbEntity
  8
0
100
AcDbLine
 62
250
  6
CONTINUOUS
 10
-11.8840712414
 20
38.5758585077
 11
-11.8840712414
 21
39.0156618691
  0
LINE
  5
37D
100
AcDbEntity
  8
0
100
AcDbLine
 62
250
  6
CONTINUOUS
 10
-11.8840712414
 20
39.3514927799
 11
-11.8840712414
 21
39.8804265712
  0
LINE
  5
37E
100
AcDbEntity
  8
0
100
AcDbLine
 62
7
  6
CONTINUOUS
 10
-11.7532363903
 20
38.7582359561
 11
-11.7532363903
 21
39.9350727433
  0
LINE
  5
37F
100
AcDbEntity
  8
SUPERFICI
100
AcDbLine
 62
7
  6
CONTINUOUS
 10
-11.6979823931
 20
18.9154900983
 11
-11.6979823931
 21
18.2239606785
  0
LINE
  5
380
100
AcDbEntity
  8
0
100
AcDbLine
 62
250
  6
CONTINUOUS
 10
6.9012807958
 20
23.3494860912
 11
6.9012410782
 21
23.3494359719
  0
LINE
  5
381
100
AcDbEntity
  8
0
100
AcDbLine
 62
250
  6
CONTINUOUS
 10
6.3552739059
 20
22.7409675102
 11
6.8835410777
 21
23.4037797767
  0
LINE
  5
382
100
AcDbEntity
  8
0
100
AcDbLine
 62
7
  6
CONTINUOUS
 10
6.3552739059
 20
22.6644156674
 11
6.9012410782
 21
23.3494359719
  0
LINE
  5
383
100
AcDbEntity
  8
0
100
AcDbLine
 62
7
  6
CONTINUOUS
 10
8.6533709448
 20
20.1593747029
 11
7.9462641636
 21
19.7083107155
  0
LINE
  5
384
100
AcDbEntity
  8
0
100
AcDbLine
 62
7
  6
CONTINUOUS
 10
10.7746912884
 20
19.3642202133
 11
10.562559254
 21
19.2289010171
  0
LINE
  5
385
100
AcDbEntity
  8
0
100
AcDbLine
 62
250
  6
CONTINUOUS
 10
10.562559254
 20
20.3835114641
 11
10.7746501499
 21
20.5072523608
  0
LINE
  5
386
100
AcDbEntity
  8
0
100
AcDbLine
 62
7
  6
CONTINUOUS
 10
12.2300491935
 20
19.782118116
 11
12.0174070798
 21
19.6580556205
  0
LINE
  5
387
100
AcDbEntity
  8
0
100
AcDbLine
 62
250
  6
CONTINUOUS
 10
12.330326207
 20
19.7723685508
 11
12.1174536955
 21
19.6481716336
  0
LINE
  5
388
100
AcDbEntity
  8
0
100
AcDbLine
 62
7
  6
CONTINUOUS
 10
13.7437992922
 20
18.7091400689
 11
12.8960116319
 21
18.214512495
  0
LINE
  5
389
100
AcDbEntity
  8
0
100
AcDbLine
 62
7
  6
CONTINUOUS
 10
14.9933083081
 20
22.8615659883
 11
16.0972751772
 21
23.4989826226
  0
LINE
  5
38A
100
AcDbEntity
  8
0
100
AcDbLine
 62
7
  6
CONTINUOUS
 10
19.902915315
 20
21.4909051828
 11
13.5622094196
 21
17.8298582418
  0
LINE
  5
38B
100
AcDbEntity
  8
0
100
AcDbLine
 62
7
  6
CONTINUOUS
 10
12.2306023758
 20
19.782437321
 11
12.2300491974
 21
19.7821181183
  0
LINE
  5
38C
100
AcDbEntity
  8
0
100
AcDbLine
 62
7
  6
CONTINUOUS
 10
11.4817980695
 20
19.7682197392
 11
10.7746912884
 21
19.3642202133
  0
LINE
  5
38D
100
AcDbEntity
  8
0
100
AcDbLine
 62
250
  6
CONTINUOUS
 10
10.7746501499
 20
20.5072523608
 11
11.4817980695
 21
20.9108003455
  0
LINE
  5
38E
100
AcDbEntity
  8
0
100
AcDbLine
 62
7
  6
CONTINUOUS
 10
12.9377211268
 20
20.1859686601
 11
12.23060238
 21
19.7824373234
  0
LINE
  5
38F
100
AcDbEntity
  8
0
100
AcDbLine
 62
250
  6
CONTINUOUS
 10
13.0374329881
 20
20.175893059
 11
12.330326207
 21
19.7723685508
  0
LINE
  5
390
100
AcDbEntity
  8
0
100
AcDbLine
 62
7
  6
CONTINUOUS
 10
19.2620295412
 20
21.8609445964
 11
14.6637785849
 21
19.2368614944
  0
LINE
  5
391
100
AcDbEntity
  8
0
100
AcDbLine
 62
7
  6
CONTINUOUS
 10
20.0665687631
 20
21.4196179671
 11
21.3854067634
 21
22.1722390275
  0
LINE
  5
392
100
AcDbEntity
  8
0
100
AcDbLine
 62
250
  6
CONTINUOUS
 10
16.7060553454
 20
-23.8589751161
 11
16.156523059
 21
-23.5416820612
  0
LINE
  5
393
100
AcDbEntity
  8
0
100
AcDbLine
 62
250
  6
CONTINUOUS
 10
16.7944436931
 20
-23.6311697917
 11
16.4157908745
 21
-23.4125403999
  0
LINE
  5
394
100
AcDbEntity
  8
0
100
AcDbLine
 62
250
  6
CONTINUOUS
 10
18.8833058285
 20
-22.1834677525
 11
19.097785275
 21
-22.3073054968
  0
LINE
  5
395
100
AcDbEntity
  8
0
100
AcDbLine
 62
7
  6
CONTINUOUS
 10
18.8924552825
 20
-22.1789103967
 11
19.1344029674
 21
-22.3186079576
  0
LINE
  5
396
100
AcDbEntity
  8
RACCORDO
100
AcDbLine
 62
250
  6
CONTINUOUS
 10
-35.889493771
 20
10.3289078128
 11
10.717386895
 21
-16.5813209624
  0
LINE
  5
397
100
AcDbEntity
  8
0
100
AcDbLine
 62
250
  6
CONTINUOUS
 10
-6.4961827471
 20
38.06694272
 11
-6.4961827471
 21
37.5089420319
  0
LINE
  5
398
100
AcDbEntity
  8
0
100
AcDbLine
 62
7
  6
CONTINUOUS
 10
-6.3558526473
 20
38.2674862385
 11
-6.3558526473
 21
37.7094855504
  0
LINE
  5
399
100
AcDbEntity
  8
0
100
AcDbLine
 62
7
  6
CONTINUOUS
 10
-5.9130287477
 20
36.622336282
 11
-5.9130287477
 21
36.6448393683
  0
LINE
  5
39A
100
AcDbEntity
  8
DRAFT
100
AcDbLine
 62
7
  6
CONTINUOUS
 10
-5.2162307501
 20
34.9544849221
 11
-5.2162307501
 21
36.2200138511
  0
LINE
  5
39B
100
AcDbEntity
  8
0
100
AcDbLine
 62
7
  6
CONTINUOUS
 10
7.3067693021
 20
23.4043498472
 11
7.1282092034
 21
23.093251471
  0
LINE
  5
39C
100
AcDbEntity
  8
RACCORDO
100
AcDbLine
 62
7
  6
CONTINUOUS
 10
11.5576016256
 20
19.9737467763
 11
13.9953284342
 21
22.1883773409
  0
LINE
  5
39D
100
AcDbEntity
  8
RACCORDO
100
AcDbLine
 62
250
  6
CONTINUOUS
 10
11.6251281031
 20
19.9347578345
 11
14.0980931599
 21
22.1814017081
  0
LINE
  5
39E
100
AcDbEntity
  8
0
100
AcDbLine
 62
7
  6
CONTINUOUS
 10
14.6284232458
 20
17.1391236796
 11
13.5622094196
 21
16.465734309
  0
LINE
  5
39F
100
AcDbEntity
  8
0
100
AcDbLine
 62
7
  6
CONTINUOUS
 10
15.075477307
 20
16.6866656689
 11
16.6594603705
 21
17.6204924567
  0
LINE
  5
3A0
100
AcDbEntity
  8
0
100
AcDbLine
 62
250
  6
CONTINUOUS
 10
15.2015159793
 20
16.6748856759
 11
16.7850965052
 21
17.6084751504
  0
LINE
  5
3A1
100
AcDbEntity
  8
0
100
AcDbLine
 62
7
  6
CONTINUOUS
 10
14.6284232458
 20
17.1391236796
 11
19.935733912
 21
20.203501808
  0
LINE
  5
3A2
100
AcDbEntity
  8
0
100
AcDbLine
 62
250
  6
CONTINUOUS
 10
16.8819064444
 20
15.7046492816
 11
19.0104253666
 21
16.9336281892
  0
LINE
  5
3A3
100
AcDbEntity
  8
0
100
AcDbLine
 62
250
  6
CONTINUOUS
 10
17.0586807164
 20
15.3984672612
 11
19.1871990703
 21
16.6274471533
  0
LINE
  5
3A4
100
AcDbEntity
  8
0
100
AcDbLine
 62
7
  6
CONTINUOUS
 10
16.659460384
 20
17.6204924643
 11
16.6608423215
 21
17.6212894497
  0
LINE
  5
3A5
100
AcDbEntity
  8
0
100
AcDbLine
 62
7
  6
CONTINUOUS
 10
16.6608423081
 20
17.6212894421
 11
17.1956991879
 21
17.9229643743
  0
LINE
  5
3A6
100
AcDbEntity
  8
0
100
AcDbLine
 62
250
  6
CONTINUOUS
 10
16.7850959368
 20
17.6084754786
 11
17.3195458155
 21
17.9099208503
  0
LINE
  5
3A7
100
AcDbEntity
  8
0
100
AcDbLine
 62
7
  6
CONTINUOUS
 10
24.4358866126
 20
20.410930194
 11
18.7179773686
 21
17.1858620516
  0
LINE
  5
3A8
100
AcDbEntity
  8
RACCORDO
100
AcDbLine
 62
250
  6
CONTINUOUS
 10
4.0372030344
 20
7.9096722409
 11
4.9143798202
 21
8.3187394986
  0
LINE
  5
3A9
100
AcDbEntity
  8
0
100
AcDbLine
 62
7
  6
CONTINUOUS
 10
20.804320302
 20
11.7341709379
 11
19.4013940188
 21
11.2326652676
  0
LINE
  5
3AA
100
AcDbEntity
  8
0
100
AcDbLine
 62
7
  6
CONTINUOUS
 10
-2.6159798109
 20
34.5474309571
 11
-2.6159798109
 21
34.7411646339
  0
LINE
  5
3AB
100
AcDbEntity
  8
RACCORDO
100
AcDbLine
 62
250
  6
CONTINUOUS
 10
9.410359602
 20
12.6307482713
 11
7.3224598789
 21
10.4541733045
  0
LINE
  5
3AC
100
AcDbEntity
  8
RACCORDO
100
AcDbLine
 62
7
  6
CONTINUOUS
 10
9.2489649521
 20
12.1625567303
 11
4.6168770145
 21
8.0549203842
  0
LINE
  5
3AD
100
AcDbEntity
  8
RACCORDO
100
AcDbLine
 62
250
  6
CONTINUOUS
 10
12.5679947813
 20
10.6122640891
 11
6.5034613605
 21
5.3866987629
  0
LINE
  5
3AE
100
AcDbEntity
  8
0
100
AcDbLine
 62
7
  6
CONTINUOUS
 10
18.6589318986
 20
14.8119584977
 11
17.7694899339
 21
14.2502130484
  0
LINE
  5
3AF
100
AcDbEntity
  8
0
100
AcDbLine
 62
7
  6
CONTINUOUS
 10
25.3236224063
 20
19.6945860202
 11
18.7013437206
 21
15.5992695447
  0
LINE
  5
3B0
100
AcDbEntity
  8
RACCORDO
100
AcDbLine
 62
250
  6
CONTINUOUS
 10
19.0121372841
 20
14.6080221348
 11
12.7152746421
 21
10.7225317475
  0
LINE
  5
3B1
100
AcDbEntity
  8
RACCORDO
100
AcDbLine
 62
250
  6
CONTINUOUS
 10
19.36542155
 20
13.995618238
 11
13.0811073822
 21
10.1178709091
  0
LINE
  5
3B2
100
AcDbEntity
  8
0
100
AcDbLine
 62
7
  6
CONTINUOUS
 10
25.3236224063
 20
19.1365853322
 11
19.0605397348
 21
15.3918742679
  0
LINE
  5
3B3
100
AcDbEntity
  8
0
100
AcDbLine
 62
7
  6
CONTINUOUS
 10
20.0672831749
 20
11.6378781954
 11
20.7682191287
 21
12.0568409753
  0
LINE
  5
3B4
100
AcDbEntity
  8
RACCORDO
100
AcDbLine
 62
250
  6
CONTINUOUS
 10
19.7137342717
 20
15.0147279288
 11
19.0127983179
 21
14.6076404621
  0
LINE
  5
3B5
100
AcDbEntity
  8
RACCORDO
100
AcDbLine
 62
250
  6
CONTINUOUS
 10
20.0672831749
 20
14.4023719018
 11
19.3663552288
 21
13.9952890859
  0
LINE
  5
3B6
100
AcDbEntity
  8
0
100
AcDbLine
 62
250
  6
CONTINUOUS
 10
20.0672831749
 20
14.2369549742
 11
39.179158691
 21
25.2719502586
  0
LINE
  5
3B7
100
AcDbEntity
  8
0
100
AcDbLine
 62
250
  6
CONTINUOUS
 10
20.804320302
 20
11.3969681386
 11
40.5931568618
 21
22.8228335875
  0
LINE
  5
3B8
100
AcDbEntity
  8
0
100
AcDbLine
 62
7
  6
CONTINUOUS
 10
19.3663472211
 20
11.2192716769
 11
20.7682191287
 21
11.7550153029
  0
LINE
  5
3B9
100
AcDbEntity
  8
RACCORDO
100
AcDbLine
 62
250
  6
CONTINUOUS
 10
-39.38380507
 20
23.1993025555
 11
7.0990479764
 21
-3.6393142265
  0
LINE
  5
3BA
100
AcDbEntity
  8
0
100
AcDbLine
 62
7
  6
CONTINUOUS
 10
2.648783583
 20
23.5752832564
 11
2.648783583
 21
23.2536936374
  0
LINE
  5
3BB
100
AcDbEntity
  8
0
100
AcDbLine
 62
250
  6
CONTINUOUS
 10
2.7220068877
 20
23.473214608
 11
2.7220068877
 21
23.1516249891
  0
LINE
  5
3BC
100
AcDbEntity
  8
RACCORDO
100
AcDbLine
 62
250
  6
CONTINUOUS
 10
2.8550953391
 20
28.5030930283
 11
2.8550953391
 21
27.4600768002
  0
LINE
  5
3BD
100
AcDbEntity
  8
RACCORDO
100
AcDbLine
 62
7
  6
CONTINUOUS
 10
3.1479885579
 20
28.91794828
 11
3.1479885579
 21
27.8582740317
  0
LINE
  5
3BE
100
AcDbEntity
  8
0
100
AcDbLine
 62
7
  6
CONTINUOUS
 10
3.3521879279
 20
22.7032238667
 11
3.3521879279
 21
22.4237963675
  0
LINE
  5
3BF
100
AcDbEntity
  8
0
100
AcDbLine
 62
250
  6
CONTINUOUS
 10
3.4254112326
 20
22.6609456483
 11
3.4254112326
 21
22.3185945383
  0
LINE
  5
3C0
100
AcDbEntity
  8
0
100
AcDbLine
 62
250
  6
CONTINUOUS
 10
4.4023973528
 20
22.1813885948
 11
4.4023973528
 21
22.5029782137
  0
LINE
  5
3C1
100
AcDbEntity
  8
0
100
AcDbLine
 62
250
  6
CONTINUOUS
 10
4.7550227238
 20
22.1808555662
 11
4.7550227238
 21
22.5024451851
  0
LINE
  5
3C2
100
AcDbEntity
  8
0
100
AcDbLine
 62
250
  6
CONTINUOUS
 10
18.6589318986
 20
15.6369895863
 11
19.1871990703
 21
16.2998018528
  0
LINE
  5
3C3
100
AcDbEntity
  8
0
100
AcDbLine
 62
7
  6
CONTINUOUS
 10
18.6589318986
 20
15.5604377435
 11
19.2048990709
 21
16.245458048
  0
LINE
  5
3C4
100
AcDbEntity
  8
RACCORDO
100
AcDbLine
 62
250
  6
CONTINUOUS
 10
13.0068303174
 20
10.0631049533
 11
6.9422968967
 21
4.8375396271
  0
LINE
  5
3C5
100
AcDbEntity
  8
0
100
AcDbLine
 62
250
  6
CONTINUOUS
 10
5.1132065703
 20
21.3440826634
 11
5.1132065703
 21
21.9769091413
  0
LINE
  5
3C6
100
AcDbEntity
  8
0
100
AcDbLine
 62
250
  6
CONTINUOUS
 10
5.4658319413
 20
21.3541909723
 11
5.4658319413
 21
22.1156030851
  0
LINE
  5
3C7
100
AcDbEntity
  8
0
100
AcDbLine
 62
7
  6
CONTINUOUS
 10
6.3552739059
 20
21.9159364216
 11
6.3552739059
 21
23.426409888
  0
LINE
  5
3C8
100
AcDbEntity
  8
0
100
AcDbLine
 62
250
  6
CONTINUOUS
 10
6.8835410777
 20
23.7314250772
 11
6.8835410777
 21
23.4037797767
  0
LINE
  5
3C9
100
AcDbEntity
  8
0
100
AcDbLine
 62
7
  6
CONTINUOUS
 10
6.9557389347
 20
23.8328981902
 11
6.9557389347
 21
23.5052528897
  0
LINE
  5
3CA
100
AcDbEntity
  8
0
100
AcDbLine
 62
7
  6
CONTINUOUS
 10
7.2800663759
 20
21.4570889015
 11
7.2800663759
 21
20.0929649687
  0
LINE
  5
3CB
100
AcDbEntity
  8
0
100
AcDbLine
 62
7
  6
CONTINUOUS
 10
7.9462641636
 20
19.7083107155
 11
7.9462641636
 21
21.0724346483
  0
LINE
  5
3CC
100
AcDbEntity
  8
DRAFT
100
AcDbLine
 62
7
  6
CONTINUOUS
 10
7.9996149111
 20
28.4181196092
 11
7.9996149111
 21
28.5814136646
  0
LINE
  5
3CD
100
AcDbEntity
  8
0
100
AcDbLine
 62
7
  6
CONTINUOUS
 10
8.6533709448
 20
21.3225430288
 11
8.6533709448
 21
20.1593747029
  0
LINE
  5
3CE
100
AcDbEntity
  8
0
100
AcDbLine
 62
250
  6
CONTINUOUS
 10
19.2049387884
 20
16.2455081673
 11
19.2048990709
 21
16.245458048
  0
LINE
  5
3CF
100
AcDbEntity
  8
RACCORDO
100
AcDbLine
 62
250
  6
CONTINUOUS
 10
-40.7173835036
 20
30.4039311675
 11
5.7183549685
 21
3.5925177502
  0
LINE
  5
3D0
100
AcDbEntity
  8
RACCORDO
100
AcDbLine
 62
250
  6
CONTINUOUS
 10
-39.9503390409
 20
32.2085409118
 11
6.5034613605
 21
5.3866987629
  0
LINE
  5
3D1
100
AcDbEntity
  8
RACCORDO
100
AcDbLine
 62
7
  6
CONTINUOUS
 10
-35.9829028462
 20
31.0167798066
 11
4.0372030344
 21
7.9096722409
  0
LINE
  5
3D2
100
AcDbEntity
  8
0
100
AcDbLine
 62
250
  6
CONTINUOUS
 10
10.2797165415
 20
19.2203431383
 11
10.2797165415
 21
20.3835114641
  0
LINE
  5
3D3
100
AcDbEntity
  8
0
100
AcDbLine
 62
250
  6
CONTINUOUS
 10
10.562559254
 20
19.2289010171
 11
10.562559254
 21
20.3835114641
  0
LINE
  5
3D4
100
AcDbEntity
  8
0
100
AcDbLine
 62
7
  6
CONTINUOUS
 10
11.4464427305
 20
26.5991950158
 11
11.4464427305
 21
26.6216981021
  0
LINE
  5
3D5
100
AcDbEntity
  8
0
100
AcDbLine
 62
7
  6
CONTINUOUS
 10
11.4817980695
 20
20.9108003455
 11
11.4817980695
 21
19.7682197392
  0
LINE
  5
3D6
100
AcDbEntity
  8
0
100
AcDbLine
 62
7
  6
CONTINUOUS
 10
11.9181941726
 20
19.4853073588
 11
11.9181941726
 21
18.3246455776
  0
LINE
  5
3D7
100
AcDbEntity
  8
0
100
AcDbLine
 62
250
  6
CONTINUOUS
 10
11.9767728164
 20
19.4036524401
 11
11.9767728164
 21
18.2404841143
  0
LINE
  5
3D8
100
AcDbEntity
  8
DRAFT
100
AcDbLine
 62
7
  6
CONTINUOUS
 10
12.143240728
 20
25.2578397042
 11
12.143240728
 21
26.1968725849
  0
LINE
  5
3D9
100
AcDbEntity
  8
0
100
AcDbLine
 62
7
  6
CONTINUOUS
 10
12.8960116319
 20
18.214512495
 11
12.8960116319
 21
16.8503885622
  0
LINE
  5
3DA
100
AcDbEntity
  8
0
100
AcDbLine
 62
7
  6
CONTINUOUS
 10
13.5622094196
 20
16.465734309
 11
13.5622094196
 21
17.8298582418
  0
LINE
  5
3DB
100
AcDbEntity
  8
RACCORDO
100
AcDbLine
 62
7
  6
CONTINUOUS
 10
-33.1724151789
 20
30.6230290312
 11
5.1284617142
 21
8.5085827358
  0
LINE
  5
3DC
100
AcDbEntity
  8
SUPERFICI
100
AcDbLine
 62
7
  6
CONTINUOUS
 10
-32.8890220915
 20
31.2094344182
 11
-32.9795459834
 21
31.2617017789
  0
LINE
  5
3DD
100
AcDbEntity
  8
RACCORDO
100
AcDbLine
 62
7
  6
CONTINUOUS
 10
-32.1740646055
 20
31.5466599302
 11
6.1529807671
 21
9.4171042828
  0
LINE
  5
3DE
100
AcDbEntity
  8
DRAFT
100
AcDbLine
 62
250
  6
CONTINUOUS
 10
14.0273824818
 20
22.2069787313
 11
14.0273824818
 21
23.2499307049
  0
LINE
  5
3DF
100
AcDbEntity
  8
0
100
AcDbLine
 62
250
  6
CONTINUOUS
 10
14.3434290125
 20
24.7350532171
 11
14.3434290125
 21
23.4302889256
  0
LINE
  5
3E0
100
AcDbEntity
  8
0
100
AcDbLine
 62
7
  6
CONTINUOUS
 10
14.4761221501
 20
24.7905698531
 11
14.4761221501
 21
23.613733066
  0
LINE
  5
3E1
100
AcDbEntity
  8
0
100
AcDbLine
 62
7
  6
CONTINUOUS
 10
14.6284232458
 20
17.1391236796
 11
14.6284232458
 21
18.4454761225
  0
LINE
  5
3E2
100
AcDbEntity
  8
0
100
AcDbLine
 62
7
  6
CONTINUOUS
 10
14.9524415756
 20
16.4713053325
 11
14.9524415756
 21
16.1497157135
  0
LINE
  5
3E3
100
AcDbEntity
  8
0
100
AcDbLine
 62
7
  6
CONTINUOUS
 10
14.9933083081
 20
23.3952558834
 11
14.9933083081
 21
22.8615659883
  0
LINE
  5
3E4
100
AcDbEntity
  8
0
100
AcDbLine
 62
250
  6
CONTINUOUS
 10
15.0256648804
 20
16.3692366841
 11
15.0256648804
 21
16.0476470652
  0
LINE
  5
3E5
100
AcDbEntity
  8
DRAFT
100
AcDbLine
 62
250
  6
CONTINUOUS
 10
15.4415960442
 20
22.1265691023
 11
15.4415960442
 21
22.7121271155
  0
LINE
  5
3E6
100
AcDbEntity
  8
0
100
AcDbLine
 62
7
  6
CONTINUOUS
 10
15.6558459206
 20
15.5992459428
 11
15.6558459206
 21
15.3198184436
  0
LINE
  5
3E7
100
AcDbEntity
  8
0
100
AcDbLine
 62
250
  6
CONTINUOUS
 10
15.7290692253
 20
15.5569677244
 11
15.7290692253
 21
15.2146166144
  0
LINE
  5
3E8
100
AcDbEntity
  8
0
100
AcDbLine
 62
250
  6
CONTINUOUS
 10
16.7060553454
 20
-24.1805647351
 11
16.7060553454
 21
-23.8589751161
  0
LINE
  5
3E9
100
AcDbEntity
  8
0
100
AcDbLine
 62
250
  6
CONTINUOUS
 10
16.7060553454
 20
15.0774106709
 11
16.7060553454
 21
15.3990002898
  0
LINE
  5
3EA
100
AcDbEntity
  8
0
100
AcDbLine
 62
250
  6
CONTINUOUS
 10
17.0586807164
 20
-24.1810977637
 11
17.0586807164
 21
-23.8595081448
  0
LINE
  5
3EB
100
AcDbEntity
  8
0
100
AcDbLine
 62
250
  6
CONTINUOUS
 10
17.0586807164
 20
15.0768776423
 11
17.0586807164
 21
15.3984672612
  0
LINE
  5
3EC
100
AcDbEntity
  8
0
100
AcDbLine
 62
250
  6
CONTINUOUS
 10
17.4168645629
 20
14.2401047395
 11
17.4168645629
 21
14.8729312174
  0
LINE
  5
3ED
100
AcDbEntity
  8
0
100
AcDbLine
 62
250
  6
CONTINUOUS
 10
17.7694899339
 20
-22.9819819576
 11
17.7694899339
 21
-22.7382610063
  0
LINE
  5
3EE
100
AcDbEntity
  8
0
100
AcDbLine
 62
250
  6
CONTINUOUS
 10
17.7694899339
 20
14.2502130484
 11
17.7694899339
 21
15.0116251612
  0
LINE
  5
3EF
100
AcDbEntity
  8
0
100
AcDbLine
 62
7
  6
CONTINUOUS
 10
17.8457591002
 20
24.2113294893
 11
17.8457591002
 21
23.773712077
  0
LINE
  5
3F0
100
AcDbEntity
  8
0
100
AcDbLine
 62
7
  6
CONTINUOUS
 10
16.8599780687
 20
14.9305261189
 11
17.4873716359
 21
14.8729312174
  0
LINE
  5
3F1
100
AcDbEntity
  8
0
100
AcDbLine
 62
250
  6
CONTINUOUS
 10
17.0586807164
 20
15.0768776423
 11
17.7694899339
 21
15.0116251612
  0
LINE
  5
3F2
100
AcDbEntity
  8
RACCORDO
100
AcDbLine
 62
250
  6
CONTINUOUS
 10
-34.093887192
 20
37.5542499298
 11
-30.9889207086
 21
35.7614811966
  0
LINE
  5
3F3
100
AcDbEntity
  8
RACCORDO
100
AcDbLine
 62
250
  6
CONTINUOUS
 10
9.4630282979
 20
12.4050328223
 11
12.5679947813
 21
10.6122640891
  0
LINE
  5
3F4
100
AcDbEntity
  8
RACCORDO
100
AcDbLine
 62
250
  6
CONTINUOUS
 10
-33.9491558682
 20
37.6659890815
 11
-30.6442888985
 21
35.757800301
  0
LINE
  5
3F5
100
AcDbEntity
  8
RACCORDO
100
AcDbLine
 62
7
  6
CONTINUOUS
 10
-30.6442888985
 20
35.757800301
 11
9.4104076528
 21
12.6307205155
  0
LINE
  5
3F6
100
AcDbEntity
  8
RACCORDO
100
AcDbLine
 62
250
  6
CONTINUOUS
 10
9.4104076528
 20
12.6307205155
 11
12.7152746421
 21
10.7225317475
  0
LINE
  5
3F7
100
AcDbEntity
  8
0
100
AcDbLine
 62
7
  6
CONTINUOUS
 10
18.6589318986
 20
-22.2952287206
 11
18.6589318986
 21
-23.276383369
  0
LINE
  5
3F8
100
AcDbEntity
  8
0
100
AcDbLine
 62
7
  6
CONTINUOUS
 10
18.6589318986
 20
14.8119584977
 11
18.6589318986
 21
16.3224319641
  0
LINE
  5
3F9
100
AcDbEntity
  8
0
100
AcDbLine
 62
250
  6
CONTINUOUS
 10
19.1871990703
 20
16.6274471533
 11
19.1871990703
 21
16.2998018528
  0
LINE
  5
3FA
100
AcDbEntity
  8
0
100
AcDbLine
 62
250
  6
CONTINUOUS
 10
19.1871990703
 20
-22.6365839343
 11
19.1871990703
 21
-22.9642292348
  0
LINE
  5
3FB
100
AcDbEntity
  8
0
100
AcDbLine
 62
7
  6
CONTINUOUS
 10
19.2593969273
 20
16.7289202663
 11
19.2593969273
 21
16.4012749658
  0
LINE
  5
3FC
100
AcDbEntity
  8
0
100
AcDbLine
 62
7
  6
CONTINUOUS
 10
19.2593969273
 20
-22.5351108212
 11
19.2593969273
 21
-22.8627561217
  0
LINE
  5
3FD
100
AcDbEntity
  8
RACCORDO
100
AcDbLine
 62
7
  6
CONTINUOUS
 10
19.3663632334
 20
-21.766131806
 11
19.3663472211
 21
-18.9901285644
  0
LINE
  5
3FE
100
AcDbEntity
  8
RACCORDO
100
AcDbLine
 62
7
  6
CONTINUOUS
 10
19.3663552288
 20
13.9952890859
 11
19.3663472211
 21
11.2192716769
  0
LINE
  5
3FF
100
AcDbEntity
  8
0
100
AcDbLine
 62
250
  6
CONTINUOUS
 10
19.935733912
 20
21.5080698714
 11
19.935733912
 21
20.9791360801
  0
LINE
  5
400
100
AcDbEntity
  8
0
100
AcDbLine
 62
250
  6
CONTINUOUS
 10
19.935733912
 20
20.6433051693
 11
19.935733912
 21
20.203501808
  0
LINE
  5
401
100
AcDbEntity
  8
0
100
AcDbLine
 62
7
  6
CONTINUOUS
 10
20.0665687631
 20
21.5627160435
 11
20.0665687631
 21
20.3858792564
  0
LINE
  5
402
100
AcDbEntity
  8
0
100
AcDbLine
 62
7
  6
CONTINUOUS
 10
20.0672831749
 20
14.4023719018
 11
20.0672831749
 21
11.6378781954
  0
LINE
  5
403
100
AcDbEntity
  8
0
100
AcDbLine
 62
7
  6
CONTINUOUS
 10
20.0672831749
 20
-18.5850599794
 11
20.0672831749
 21
-21.3495536858
  0
LINE
  5
404
100
AcDbEntity
  8
0
100
AcDbLine
 62
7
  6
CONTINUOUS
 10
20.7682191287
 20
12.0568409753
 11
20.7682191287
 21
11.7550153029
  0
LINE
  5
405
100
AcDbEntity
  8
0
100
AcDbLine
 62
7
  6
CONTINUOUS
 10
20.7682191287
 20
-17.9267195591
 11
20.7682191287
 21
-18.1803476559
  0
LINE
  5
406
100
AcDbEntity
  8
0
100
AcDbLine
 62
7
  6
CONTINUOUS
 10
20.804320302
 20
11.7341709379
 11
20.804320302
 21
-17.8993663484
  0
LINE
  5
407
100
AcDbEntity
  8
0
100
AcDbLine
 62
250
  6
CONTINUOUS
 10
19.2593969273
 20
-22.5351108212
 11
19.2593947528
 21
-22.5357128745
  0
LINE
  5
408
100
AcDbEntity
  8
0
100
AcDbLine
 62
7
  6
CONTINUOUS
 10
17.8457591002
 20
23.773712077
 11
16.0972751772
 21
23.4989826226
  0
LINE
  5
409
100
AcDbEntity
  8
0
100
AcDbLine
 62
7
  6
CONTINUOUS
 10
4.556320076
 20
22.0345040428
 11
5.1837136433
 21
21.9769091413
  0
LINE
  5
40A
100
AcDbEntity
  8
0
100
AcDbLine
 62
7
  6
CONTINUOUS
 10
20.804320302
 20
11.7341709379
 11
20.7682191287
 21
11.7550153029
  0
LINE
  5
40B
100
AcDbEntity
  8
0
100
AcDbLine
 62
7
  6
CONTINUOUS
 10
-28.3938791141
 20
40.6906539951
 11
-26.7071133898
 21
39.7167366061
  0
LINE
  5
40C
100
AcDbEntity
  8
0
100
AcDbLine
 62
7
  6
CONTINUOUS
 10
-24.5391216916
 20
38.4649653708
 11
-23.8735409898
 21
38.0806674153
  0
LINE
  5
40D
100
AcDbEntity
  8
0
100
AcDbLine
 62
7
  6
CONTINUOUS
 10
-18.9237935215
 20
35.222745262
 11
-18.2582128197
 21
34.8384473065
  0
LINE
  5
40E
100
AcDbEntity
  8
0
100
AcDbLine
 62
7
  6
CONTINUOUS
 10
-16.0902211214
 20
33.5866760712
 11
-14.4034553972
 21
32.6127586822
  0
LINE
  5
40F
100
AcDbEntity
  8
0
100
AcDbLine
 62
7
  6
CONTINUOUS
 10
7.2800663759
 20
20.0929649687
 11
7.9462641636
 21
19.7083107155
  0
LINE
  5
410
100
AcDbEntity
  8
0
100
AcDbLine
 62
7
  6
CONTINUOUS
 10
12.8960116319
 20
16.8503885622
 11
13.5622094196
 21
16.465734309
  0
LINE
  5
411
100
AcDbEntity
  8
0
100
AcDbLine
 62
7
  6
CONTINUOUS
 10
17.4168645629
 20
14.2401047395
 11
15.7290692253
 21
15.2146166144
  0
LINE
  5
412
100
AcDbEntity
  8
0
100
AcDbLine
 62
7
  6
CONTINUOUS
 10
5.1132065703
 20
21.3440826634
 11
3.4254112326
 21
22.3185945383
  0
LINE
  5
413
100
AcDbEntity
  8
0
100
AcDbLine
 62
7
  6
CONTINUOUS
 10
-29.0451014131
 20
41.4090126988
 11
-27.3665633427
 21
40.439845854
  0
LINE
  5
414
100
AcDbEntity
  8
0
100
AcDbLine
 62
7
  6
CONTINUOUS
 10
-16.7414434204
 20
34.3050347749
 11
-15.06290535
 21
33.3358679301
  0
LINE
  5
415
100
AcDbEntity
  8
0
100
AcDbLine
 62
7
  6
CONTINUOUS
 10
2.773777543
 20
23.0371907738
 11
4.4541680081
 21
22.0669543795
  0
LINE
  5
416
100
AcDbEntity
  8
0
100
AcDbLine
 62
7
  6
CONTINUOUS
 10
15.0774355356
 20
15.9332128499
 11
16.7578260007
 21
14.9629764556
  0
LINE
  5
417
100
AcDbEntity
  8
0
100
AcDbLine
 62
250
  6
CONTINUOUS
 10
-29.0968720684
 20
41.5234469141
 11
-27.4183339979
 21
40.5542800693
  0
LINE
  5
418
100
AcDbEntity
  8
0
100
AcDbLine
 62
250
  6
CONTINUOUS
 10
-16.7932140757
 20
34.4194689902
 11
-15.1146760053
 21
33.4503021454
  0
LINE
  5
419
100
AcDbEntity
  8
0
100
AcDbLine
 62
250
  6
CONTINUOUS
 10
2.7220068877
 20
23.1516249891
 11
4.4023973528
 21
22.1813885948
  0
LINE
  5
41A
100
AcDbEntity
  8
0
100
AcDbLine
 62
250
  6
CONTINUOUS
 10
15.0256648804
 20
16.0476470652
 11
16.7060553454
 21
15.0774106709
  0
LINE
  5
41B
100
AcDbEntity
  8
0
100
AcDbLine
 62
250
  6
CONTINUOUS
 10
-15.1146760053
 20
33.7708223182
 11
-16.7932140757
 21
34.739989163
  0
LINE
  5
41C
100
AcDbEntity
  8
0
100
AcDbLine
 62
250
  6
CONTINUOUS
 10
-27.4183339979
 20
40.8748002421
 11
-29.0968720684
 21
41.8439670869
  0
LINE
  5
41D
100
AcDbEntity
  8
0
100
AcDbLine
 62
250
  6
CONTINUOUS
 10
16.7060553454
 20
15.3990002898
 11
15.0256648804
 21
16.3692366841
  0
LINE
  5
41E
100
AcDbEntity
  8
0
100
AcDbLine
 62
250
  6
CONTINUOUS
 10
4.4023973528
 20
22.5029782137
 11
2.7220068877
 21
23.473214608
  0
LINE
  5
41F
100
AcDbEntity
  8
0
100
AcDbLine
 62
7
  6
CONTINUOUS
 10
12.8960116319
 20
17.7097271429
 11
11.9767728164
 21
18.2404841143
  0
LINE
  5
420
100
AcDbEntity
  8
0
100
AcDbLine
 62
7
  6
CONTINUOUS
 10
10.2797165415
 20
19.2203431383
 11
8.6533709448
 21
20.1593747029
  0
LINE
  5
421
100
AcDbEntity
  8
0
100
AcDbLine
 62
7
  6
CONTINUOUS
 10
-18.9237935215
 20
36.0820838427
 11
-19.843032337
 21
36.612840814
  0
LINE
  5
422
100
AcDbEntity
  8
0
100
AcDbLine
 62
7
  6
CONTINUOUS
 10
-21.5400886119
 20
37.592699838
 11
-23.1664342086
 21
38.5317314027
  0
LINE
  5
423
100
AcDbEntity
  8
0
100
AcDbLine
 62
250
  6
CONTINUOUS
 10
-14.9389277493
 20
34.0764112734
 11
-16.6174658197
 21
35.0455781183
  0
LINE
  5
424
100
AcDbEntity
  8
0
100
AcDbLine
 62
250
  6
CONTINUOUS
 10
-27.242585742
 20
41.1803891973
 11
-28.9211238124
 21
42.1495560422
  0
LINE
  5
425
100
AcDbEntity
  8
0
100
AcDbLine
 62
250
  6
CONTINUOUS
 10
16.8819064444
 20
15.7046492816
 11
15.2015159793
 21
16.6748856759
  0
LINE
  5
426
100
AcDbEntity
  8
0
100
AcDbLine
 62
250
  6
CONTINUOUS
 10
4.5782484517
 20
22.8086272055
 11
2.8978579866
 21
23.7788635998
  0
LINE
  5
427
100
AcDbEntity
  8
0
100
AcDbLine
 62
7
  6
CONTINUOUS
 10
-21.045113865
 20
37.736576913
 11
-19.9016109808
 21
37.0763326791
  0
LINE
  5
428
100
AcDbEntity
  8
0
100
AcDbLine
 62
7
  6
CONTINUOUS
 10
10.7746912884
 20
19.3642202133
 11
11.9181941726
 21
18.7039759794
  0
LINE
  5
429
100
AcDbEntity
  8
RACCORDO
100
AcDbLine
 62
7
  6
CONTINUOUS
 10
19.0127983179
 20
14.6076404621
 11
18.6589318986
 21
14.8119584977
  0
LINE
  5
42A
100
AcDbEntity
  8
0
100
AcDbLine
 62
7
  6
CONTINUOUS
 10
15.2420121048
 20
16.7848451626
 11
14.6284232458
 21
17.1391236796
  0
LINE
  5
42B
100
AcDbEntity
  8
0
100
AcDbLine
 62
7
  6
CONTINUOUS
 10
7.2800663759
 20
21.3819728398
 11
6.3552739059
 21
21.9159364216
  0
LINE
  5
42C
100
AcDbEntity
  8
0
100
AcDbLine
 62
7
  6
CONTINUOUS
 10
2.9383541121
 20
23.8888230865
 11
-13.1608732548
 21
33.1843151974
  0
LINE
  5
42D
100
AcDbEntity
  8
0
100
AcDbLine
 62
7
  6
CONTINUOUS
 10
-16.5761452446
 20
35.1562504409
 11
-17.1913819076
 21
35.5114803794
  0
LINE
  5
42E
100
AcDbEntity
  8
0
100
AcDbLine
 62
7
  6
CONTINUOUS
 10
-24.5391216916
 20
39.7539732419
 11
-25.4645312475
 21
40.2882931213
  0
LINE
  5
42F
100
AcDbEntity
  8
0
100
AcDbLine
 62
7
  6
CONTINUOUS
 10
-24.5391216916
 20
39.8283767771
 11
-23.8735409898
 21
39.4440788216
  0
LINE
  5
430
100
AcDbEntity
  8
0
100
AcDbLine
 62
7
  6
CONTINUOUS
 10
-18.9237935215
 20
36.5861566683
 11
-18.2582128197
 21
36.2018587127
  0
LINE
  5
431
100
AcDbEntity
  8
0
100
AcDbLine
 62
7
  6
CONTINUOUS
 10
13.5622094196
 20
17.8298582418
 11
12.8960116319
 21
18.214512495
  0
LINE
  5
432
100
AcDbEntity
  8
0
100
AcDbLine
 62
7
  6
CONTINUOUS
 10
7.9462641636
 20
21.0724346483
 11
7.2800663759
 21
21.4570889015
  0
LINE
  5
433
100
AcDbEntity
  8
0
100
AcDbLine
 62
250
  6
CONTINUOUS
 10
-27.3666122562
 20
40.4398741181
 11
-27.3665633427
 21
40.439845854
  0
LINE
  5
434
100
AcDbEntity
  8
0
100
AcDbLine
 62
250
  6
CONTINUOUS
 10
25.3236224063
 20
-15.5498729258
 11
25.3236224063
 21
-15.3704520498
  0
LINE
  5
435
100
AcDbEntity
  8
0
100
AcDbLine
 62
250
  6
CONTINUOUS
 10
25.3236224063
 20
19.1365853322
 11
25.3236224063
 21
19.6945860202
  0
LINE
  5
436
100
AcDbEntity
  8
0
100
AcDbLine
 62
7
  6
CONTINUOUS
 10
25.4639525061
 20
-15.4688365348
 11
25.4639525061
 21
-15.283669811
  0
LINE
  5
437
100
AcDbEntity
  8
0
100
AcDbLine
 62
7
  6
CONTINUOUS
 10
25.4639525061
 20
19.3371288507
 11
25.4639525061
 21
19.8951295387
  0
LINE
  5
438
100
AcDbEntity
  8
0
100
AcDbLine
 62
250
  6
CONTINUOUS
 10
20.804320302
 20
-17.5055896639
 11
40.5931568618
 21
-5.2678762966
  0
LINE
  5
439
100
AcDbEntity
  8
RACCORDO
100
AcDbLine
 62
7
  6
CONTINUOUS
 10
20.3834693355
 20
-18.4255168126
 11
40.2013913165
 21
-6.1698165845
  0
LINE
  5
43A
100
AcDbEntity
  8
0
100
AcDbLine
 62
7
  6
CONTINUOUS
 10
40.2013918414
 20
-6.1698162599
 11
40.2010982057
 21
-6.1699977435
  0
LINE
  5
43B
100
AcDbEntity
  8
0
100
AcDbLine
 62
7
  6
CONTINUOUS
 10
20.0672831749
 20
-18.5850599794
 11
20.7682191287
 21
-18.1803476559
  0
LINE
  5
43C
100
AcDbEntity
  8
0
100
AcDbLine
 62
7
  6
CONTINUOUS
 10
20.9502289297
 20
-18.075024178
 11
25.4639646122
 21
-15.4688295453
  0
LINE
  5
43D
100
AcDbEntity
  8
0
100
AcDbLine
 62
250
  6
CONTINUOUS
 10
4.7550227238
 20
22.1808555662
 11
5.4658319413
 21
22.1156030851
  0
LINE
  5
43E
100
AcDbEntity
  8
RACCORDO
100
AcDbLine
 62
250
  6
CONTINUOUS
 10
-33.1724151789
 20
30.6230290312
 11
-35.9829028462
 21
31.0167798066
  0
LINE
  5
43F
100
AcDbEntity
  8
RACCORDO
100
AcDbLine
 62
250
  6
CONTINUOUS
 10
-33.0965014453
 20
31.0591420273
 11
-35.9069891126
 21
31.4528928027
  0
LINE
  5
440
100
AcDbEntity
  8
0
100
AcDbLine
 62
250
  6
CONTINUOUS
 10
-18.3564610326
 20
36.9175384695
 11
-19.843032337
 21
37.7758661095
  0
LINE
  5
441
100
AcDbEntity
  8
0
100
AcDbLine
 62
250
  6
CONTINUOUS
 10
-21.5400886119
 20
38.7557251335
 11
-23.1664342086
 21
39.6947566982
  0
LINE
  5
442
100
AcDbEntity
  8
0
100
AcDbLine
 62
250
  6
CONTINUOUS
 10
13.4631818429
 20
18.5454184973
 11
11.9767728164
 21
19.4036524401
  0
LINE
  5
443
100
AcDbEntity
  8
0
100
AcDbLine
 62
250
  6
CONTINUOUS
 10
10.2797165415
 20
20.3835114641
 11
8.6533709448
 21
21.3225430288
  0
LINE
  5
444
100
AcDbEntity
  8
0
100
AcDbLine
 62
7
  6
CONTINUOUS
 10
19.7137342717
 20
15.0147279288
 11
18.6934936511
 21
15.6038020765
  0
LINE
  5
445
100
AcDbEntity
  8
0
100
AcDbLine
 62
7
  6
CONTINUOUS
 10
-24.7615382932
 20
40.6941929016
 11
-25.4299694949
 21
41.0801367001
  0
LINE
  5
446
100
AcDbEntity
  8
0
100
AcDbLine
 62
7
  6
CONTINUOUS
 10
11.9206459906
 20
19.5148344496
 11
11.4817980695
 21
19.7682197392
  0
LINE
  5
447
100
AcDbEntity
  8
0
100
AcDbLine
 62
7
  6
CONTINUOUS
 10
-19.8990810799
 20
37.8871460653
 11
-20.3380070839
 21
38.1405764389
  0
LINE
  5
448
100
AcDbEntity
  8
0
100
AcDbLine
 62
250
  6
CONTINUOUS
 10
-18.0760881355
 20
37.0813057091
 11
-19.7024337322
 21
38.0203372737
  0
LINE
  5
449
100
AcDbEntity
  8
0
100
AcDbLine
 62
250
  6
CONTINUOUS
 10
-21.3994900071
 20
39.0001962977
 11
-23.0258356038
 21
39.9392278624
  0
LINE
  5
44A
100
AcDbEntity
  8
0
100
AcDbLine
 62
250
  6
CONTINUOUS
 10
13.7437992922
 20
18.7091400689
 11
12.1174536955
 21
19.6481716336
  0
LINE
  5
44B
100
AcDbEntity
  8
0
100
AcDbLine
 62
250
  6
CONTINUOUS
 10
10.4203974207
 20
20.6280306576
 11
8.7940518239
 21
21.5670622222
  0
LINE
  5
44C
100
AcDbEntity
  8
0
100
AcDbLine
 62
7
  6
CONTINUOUS
 10
-20.3380070839
 20
38.3898714993
 11
-19.759050185
 21
38.0555890419
  0
LINE
  5
44D
100
AcDbEntity
  8
0
100
AcDbLine
 62
7
  6
CONTINUOUS
 10
11.4817980695
 20
20.0175147995
 11
12.0606568644
 21
19.6832889862
  0
LINE
  5
44E
100
AcDbEntity
  8
0
100
AcDbLine
 62
7
  6
CONTINUOUS
 10
-23.4846322601
 20
40.4514767029
 11
-21.1865352213
 21
39.1245842746
  0
LINE
  5
44F
100
AcDbEntity
  8
0
100
AcDbLine
 62
7
  6
CONTINUOUS
 10
-19.4894789464
 20
38.1447252506
 11
-17.1913819076
 21
36.8178328223
  0
LINE
  5
450
100
AcDbEntity
  8
0
100
AcDbLine
 62
7
  6
CONTINUOUS
 10
8.3351728933
 20
22.0791200031
 11
10.6332699321
 21
20.7522275748
  0
LINE
  5
451
100
AcDbEntity
  8
0
100
AcDbLine
 62
7
  6
CONTINUOUS
 10
12.330326207
 20
19.7723685508
 11
14.6284232458
 21
18.4454761225
  0
LINE
  5
452
100
AcDbEntity
  8
0
100
AcDbLine
 62
7
  6
CONTINUOUS
 10
-12.6832087924
 20
34.5321159265
 11
4.3296946149
 21
24.7090787208
  0
LINE
  5
453
100
AcDbEntity
  8
0
100
AcDbLine
 62
7
  6
CONTINUOUS
 10
6.8329383683
 20
23.2637371506
 11
7.7612598145
 21
22.7277359822
  0
LINE
  5
454
100
AcDbEntity
  8
0
100
AcDbLine
 62
7
  6
CONTINUOUS
 10
18.4821581949
 20
16.628613
 11
16.7850959368
 21
17.6084754786
  0
LINE
  5
455
100
AcDbEntity
  8
0
100
AcDbLine
 62
7
  6
CONTINUOUS
 10
6.1785002023
 20
23.7325909239
 11
4.4814379442
 21
24.7124534025
  0
LINE
  5
456
100
AcDbEntity
  8
0
100
AcDbLine
 62
7
  6
CONTINUOUS
 10
-13.3376469585
 20
35.0009696997
 11
-15.0347092166
 21
35.9808321783
  0
LINE
  5
457
100
AcDbEntity
  8
0
100
AcDbLine
 62
7
  6
CONTINUOUS
 10
-25.6413049511
 20
42.1049476236
 11
-27.3383672092
 21
43.0848101022
  0
LINE
  5
458
100
AcDbEntity
  8
0
100
AcDbLine
 62
7
  6
CONTINUOUS
 10
7.3067693021
 20
23.4043498472
 11
6.9557389347
 21
23.6070303819
  0
LINE
  5
459
100
AcDbEntity
  8
0
100
AcDbLine
 62
7
  6
CONTINUOUS
 10
-10.052702176
 20
33.4274911134
 11
-12.5604082261
 21
34.8754091578
  0
LINE
  5
45A
100
AcDbEntity
  8
0
100
AcDbLine
 62
7
  6
CONTINUOUS
 10
14.6637785849
 20
19.2368614944
 11
13.0374329881
 21
20.175893059
  0
LINE
  5
45B
100
AcDbEntity
  8
0
100
AcDbLine
 62
7
  6
CONTINUOUS
 10
11.3403767133
 20
21.155752083
 11
9.7140311166
 21
22.0947836477
  0
LINE
  5
45C
100
AcDbEntity
  8
0
100
AcDbLine
 62
7
  6
CONTINUOUS
 10
-17.1560265685
 20
37.6092181941
 11
-18.7823721652
 21
38.5482497588
  0
LINE
  5
45D
100
AcDbEntity
  8
0
100
AcDbLine
 62
7
  6
CONTINUOUS
 10
-20.4794284401
 20
39.5281087828
 11
-22.1057740368
 21
40.4671403474
  0
LINE
  5
45E
100
AcDbEntity
  8
0
100
AcDbLine
 62
250
  6
CONTINUOUS
 10
-26.8039173305
 20
43.3862554739
 11
-25.1130377794
 21
42.4099628128
  0
LINE
  5
45F
100
AcDbEntity
  8
0
100
AcDbLine
 62
250
  6
CONTINUOUS
 10
-14.5002593379
 20
36.28227755
 11
-12.8093797867
 21
35.3059848889
  0
LINE
  5
460
100
AcDbEntity
  8
0
100
AcDbLine
 62
250
  6
CONTINUOUS
 10
5.0158878229
 20
25.0138987742
 11
6.706767374
 21
24.0376061131
  0
LINE
  5
461
100
AcDbEntity
  8
0
100
AcDbLine
 62
250
  6
CONTINUOUS
 10
17.3195458155
 20
17.9099208503
 11
19.0104253666
 21
16.9336281892
  0
LINE
  5
462
100
AcDbEntity
  8
0
100
AcDbLine
 62
7
  6
CONTINUOUS
 10
-26.6799397298
 20
43.3980504147
 11
-24.9890601787
 21
42.4217577536
  0
LINE
  5
463
100
AcDbEntity
  8
0
100
AcDbLine
 62
7
  6
CONTINUOUS
 10
-14.3762817372
 20
36.2940724908
 11
-12.685402186
 21
35.3177798297
  0
LINE
  5
464
100
AcDbEntity
  8
0
100
AcDbLine
 62
7
  6
CONTINUOUS
 10
5.1398654236
 20
25.0256937149
 11
6.8307449747
 21
24.0494010538
  0
LINE
  5
465
100
AcDbEntity
  8
0
100
AcDbLine
 62
7
  6
CONTINUOUS
 10
17.4435234162
 20
17.921715791
 11
19.1344029674
 21
16.9454231299
  0
LINE
  5
466
100
AcDbEntity
  8
RACCORDO
100
AcDbLine
 62
7
  6
CONTINUOUS
 10
16.9440833576
 20
20.5381626366
 11
14.0980931599
 21
22.1814017081
  0
LINE
  5
467
100
AcDbEntity
  8
RACCORDO
100
AcDbLine
 62
7
  6
CONTINUOUS
 10
2.7136739828
 20
28.7546226607
 11
-1.8118094168
 21
31.367580058
  0
LINE
  5
468
100
AcDbEntity
  8
RACCORDO
100
AcDbLine
 62
7
  6
CONTINUOUS
 10
-14.8757217958
 20
38.9105193363
 11
-17.7217119935
 21
40.5537584078
  0
LINE
  5
469
100
AcDbEntity
  8
0
100
AcDbLine
 62
7
  6
CONTINUOUS
 10
20.073145461
 20
13.2607438816
 11
20.7682191287
 21
12.0568409753
  0
LINE
  5
46A
100
AcDbEntity
  8
0
100
AcDbLine
 62
250
  6
CONTINUOUS
 10
17.3474211597
 20
-22.9484940527
 11
16.7944436931
 21
-23.6311697917
  0
LINE
  5
46B
100
AcDbEntity
  8
0
100
AcDbLine
 62
250
  6
CONTINUOUS
 10
17.7694899339
 20
-22.9819819576
 11
17.0586807164
 21
-23.8595081448
  0
LINE
  5
46C
100
AcDbEntity
  8
0
100
AcDbLine
 62
7
  6
CONTINUOUS
 10
19.4013940188
 20
-18.9623383999
 11
19.3663472211
 21
-18.9901285644
  0
LINE
  5
46D
100
AcDbEntity
  8
0
100
AcDbLine
 62
7
  6
CONTINUOUS
 10
20.804320302
 20
-17.8993663484
 11
19.4013940188
 21
-18.9623383999
  0
LWPOLYLINE
  5
46E
100
AcDbEntity
  8
0
100
AcDbPolyline
 62
7
  6
CONTINUOUS
 90
16
 70
0
 10
40.2010937483
 20
-6.1699945602
 10
40.2595188535
 20
-6.1317366437
 10
40.337207535
 20
-6.0736298574
 10
40.4109611612
 20
-6.0096196227
 10
40.4802206152
 20
-5.9400999274
 10
40.5447239224
 20
-5.8652670722
 10
40.6044305941
 20
-5.7849920165
 10
40.6589584172
 20
-5.6995081617
 10
40.707917618
 20
-5.6091721749
 10
40.75118169
 20
-5.5138646616
 10
40.788413662
 20
-5.4137868908
 10
40.8192683533
 20
-5.309273984
 10
40.8435468062
 20
-5.2001852369
 10
40.8609394488
 20
-5.0865240997
 10
40.871099069
 20
-4.9686615651
 10
40.8738170508
 20
-4.8668733274
  0
LINE
  5
46F
100
AcDbEntity
  8
RACCORDO
100
AcDbLine
 62
250
  6
CONTINUOUS
 10
19.3663632334
 20
-21.766131806
 11
20.0672831749
 21
-21.3495536858
  0
LINE
  5
470
100
AcDbEntity
  8
0
100
AcDbLine
 62
7
  6
CONTINUOUS
 10
19.2748963018
 20
-21.9878338345
 11
19.9655607208
 21
-21.5773508844
  0
LINE
  5
471
100
AcDbEntity
  8
0
100
AcDbLine
 62
250
  6
CONTINUOUS
 10
18.6589318986
 20
-23.276383369
 11
19.1871990703
 21
-22.9642292348
  0
LINE
  5
472
100
AcDbEntity
  8
0
100
AcDbLine
 62
7
  6
CONTINUOUS
 10
18.6079086622
 20
-23.3903802706
 11
19.1365781259
 21
-23.0779884212
  0
LINE
  5
473
100
AcDbEntity
  8
0
100
AcDbLine
 62
7
  6
CONTINUOUS
 10
18.6079086755
 20
-23.3903802627
 11
18.6065275419
 21
-23.39117864
  0
LINE
  5
474
100
AcDbEntity
  8
0
100
AcDbLine
 62
250
  6
CONTINUOUS
 10
17.0586807164
 20
-24.1810977637
 11
18.6589318986
 21
-23.2763827127
  0
LINE
  5
475
100
AcDbEntity
  8
0
100
AcDbLine
 62
7
  6
CONTINUOUS
 10
17.0058695706
 20
-24.2961236729
 11
18.6065275286
 21
-23.3911786478
  0
LINE
  5
476
100
AcDbEntity
  8
RACCORDO
100
AcDbLine
 62
7
  6
CONTINUOUS
 10
19.274906673
 20
-21.987828691
 11
19.2625229605
 21
-21.994579169
  0
LINE
  5
477
100
AcDbEntity
  8
RACCORDO
100
AcDbLine
 62
250
  6
CONTINUOUS
 10
14.7136091605
 20
-24.0824804367
 11
19.3654297674
 21
-21.7654020906
  0
LINE
  5
478
100
AcDbEntity
  8
RACCORDO
100
AcDbLine
 62
7
  6
CONTINUOUS
 10
14.5892067346
 20
-24.322364513
 11
19.2625567334
 21
-21.9945623467
  0
LINE
  5
479
100
AcDbEntity
  8
RACCORDO
100
AcDbLine
 62
250
  6
CONTINUOUS
 10
-16.5903411436
 20
40.5537584078
 11
-14.3067263722
 21
39.2352278592
  0
LINE
  5
47A
100
AcDbEntity
  8
RACCORDO
100
AcDbLine
 62
250
  6
CONTINUOUS
 10
-0.6804385669
 20
31.367580058
 11
2.7136739828
 21
29.40786201
  0
LINE
  5
47B
100
AcDbEntity
  8
RACCORDO
100
AcDbLine
 62
250
  6
CONTINUOUS
 10
15.2294640098
 20
22.1814017081
 11
17.5130787812
 21
20.8628711595
  0
LINE
  5
47C
100
AcDbEntity
  8
RACCORDO
100
AcDbLine
 62
7
  6
CONTINUOUS
 10
-16.4903363115
 20
40.5636666434
 11
-14.2478009403
 21
39.2688548256
  0
LINE
  5
47D
100
AcDbEntity
  8
RACCORDO
100
AcDbLine
 62
7
  6
CONTINUOUS
 10
-0.5804337348
 20
31.3774882935
 11
2.8136788146
 21
29.4177702457
  0
LINE
  5
47E
100
AcDbEntity
  8
RACCORDO
100
AcDbLine
 62
7
  6
CONTINUOUS
 10
15.3294688419
 20
22.1913099436
 11
17.5720042131
 21
20.8964981258
  0
LINE
  5
47F
100
AcDbEntity
  8
0
100
AcDbLine
 62
7
  6
CONTINUOUS
 10
-16.3782091092
 20
41.0844838152
 11
-13.7377584419
 21
39.5599206926
  0
LINE
  5
480
100
AcDbEntity
  8
0
100
AcDbLine
 62
7
  6
CONTINUOUS
 10
15.4415960442
 20
22.7121271155
 11
18.0820467115
 21
21.1875639928
  0
LINE
  5
481
100
AcDbEntity
  8
0
100
AcDbLine
 62
7
  6
CONTINUOUS
 10
-5.2162307501
 20
34.9544849221
 11
-5.1705666274
 21
34.92811903
  0
LINE
  5
482
100
AcDbEntity
  8
0
100
AcDbLine
 62
7
  6
CONTINUOUS
 10
-15.7225299762
 20
41.8713393224
 11
-12.7226205898
 21
40.1392292404
  0
LINE
  5
483
100
AcDbEntity
  8
0
100
AcDbLine
 62
7
  6
CONTINUOUS
 10
16.0972751772
 20
23.4989826226
 11
19.0971845636
 21
21.7668725406
  0
LINE
  5
484
100
AcDbEntity
  8
0
100
AcDbLine
 62
250
  6
CONTINUOUS
 10
19.902915315
 20
21.4909051828
 11
19.2620295412
 21
21.8609445964
  0
LINE
  5
485
100
AcDbEntity
  8
0
100
AcDbLine
 62
250
  6
CONTINUOUS
 10
14.3122820729
 20
24.7188667496
 11
13.6713962992
 21
25.0889061632
  0
LINE
  5
486
100
AcDbEntity
  8
0
100
AcDbLine
 62
250
  6
CONTINUOUS
 10
-11.9168898384
 20
39.8632618825
 11
-12.5577756122
 21
40.2333012961
  0
LINE
  5
487
100
AcDbEntity
  8
0
100
AcDbLine
 62
250
  6
CONTINUOUS
 10
-17.5075230805
 20
43.0912234494
 11
-18.1484088542
 21
43.461262863
  0
LINE
  5
488
100
AcDbEntity
  8
0
100
AcDbLine
 62
7
  6
CONTINUOUS
 10
20.0661690582
 20
21.5634006247
 11
19.5944995718
 21
21.8357366747
  0
LINE
  5
489
100
AcDbEntity
  8
0
100
AcDbLine
 62
7
  6
CONTINUOUS
 10
14.4757224452
 20
24.7912544343
 11
14.0040529588
 21
25.0635904843
  0
LINE
  5
48A
100
AcDbEntity
  8
0
100
AcDbLine
 62
7
  6
CONTINUOUS
 10
-11.7536360952
 20
39.9357573244
 11
-12.2253055816
 21
40.2080933745
  0
LINE
  5
48B
100
AcDbEntity
  8
0
100
AcDbLine
 62
7
  6
CONTINUOUS
 10
-17.3440827082
 20
43.163611134
 11
-17.8157521946
 21
43.4359471841
  0
LINE
  5
48C
100
AcDbEntity
  8
DRAFT
100
AcDbLine
 62
7
  6
CONTINUOUS
 10
7.9996149111
 20
28.5814136646
 11
0.114738823
 21
33.1340422971
  0
LINE
  5
48D
100
AcDbEntity
  8
DRAFT
100
AcDbLine
 62
7
  6
CONTINUOUS
 10
12.143240728
 20
26.1968725849
 11
9.6536292221
 21
27.6343430663
  0
LINE
  5
48E
100
AcDbEntity
  8
DRAFT
100
AcDbLine
 62
7
  6
CONTINUOUS
 10
-5.2162307501
 20
36.2200138511
 11
-7.705842256
 21
37.6574843325
  0
LINE
  5
48F
100
AcDbEntity
  8
0
100
AcDbLine
 62
7
  6
CONTINUOUS
 10
-6.9388988859
 20
37.2442410676
 11
-6.6201086044
 21
37.0601755544
  0
LINE
  5
490
100
AcDbEntity
  8
0
100
AcDbLine
 62
7
  6
CONTINUOUS
 10
-4.039168853
 20
35.5699732888
 11
-3.3168890752
 21
35.1529379974
  0
LINE
  5
491
100
AcDbEntity
  8
0
100
AcDbLine
 62
7
  6
CONTINUOUS
 10
10.017083096
 20
27.4540695796
 11
10.7393628738
 21
27.0370342882
  0
LINE
  5
492
100
AcDbEntity
  8
0
100
AcDbLine
 62
7
  6
CONTINUOUS
 10
21.0001688931
 20
21.9523953966
 11
17.8457591002
 21
23.773712077
  0
LINE
  5
493
100
AcDbEntity
  8
0
100
AcDbLine
 62
7
  6
CONTINUOUS
 10
-10.8196362603
 20
40.3247520964
 11
-13.9740460532
 21
42.1460687767
  0
LINE
  5
494
100
AcDbEntity
  8
0
100
AcDbLine
 62
250
  6
CONTINUOUS
 10
-17.7275189263
 20
44.7555521206
 11
-14.6770390771
 21
42.9942432872
  0
LINE
  5
495
100
AcDbEntity
  8
0
100
AcDbLine
 62
250
  6
CONTINUOUS
 10
-10.43439839
 20
40.5445957272
 11
-7.3839185407
 21
38.7832868938
  0
LINE
  5
496
100
AcDbEntity
  8
0
100
AcDbLine
 62
250
  6
CONTINUOUS
 10
14.0922862271
 20
26.3831954209
 11
17.1427660763
 21
24.6218865874
  0
LINE
  5
497
100
AcDbEntity
  8
0
100
AcDbLine
 62
250
  6
CONTINUOUS
 10
21.3854067634
 20
22.1722390275
 11
24.4358866126
 21
20.410930194
  0
LINE
  5
498
100
AcDbEntity
  8
0
100
AcDbLine
 62
7
  6
CONTINUOUS
 10
-17.4387274995
 20
44.9223197846
 11
-14.1811286742
 21
43.0414230502
  0
LINE
  5
499
100
AcDbEntity
  8
0
100
AcDbLine
 62
7
  6
CONTINUOUS
 10
-9.9384879871
 20
40.5917754902
 11
-6.6808891619
 21
38.7108787559
  0
LINE
  5
49A
100
AcDbEntity
  8
0
100
AcDbLine
 62
7
  6
CONTINUOUS
 10
14.3810776539
 20
26.5499630849
 11
17.6386764792
 21
24.6690663505
  0
LINE
  5
49B
100
AcDbEntity
  8
0
100
AcDbLine
 62
7
  6
CONTINUOUS
 10
21.8813171663
 20
22.2194187905
 11
25.1389159915
 21
20.3385220561
  0
LINE
  5
49C
100
AcDbEntity
  8
0
100
AcDbLine
 62
7
  6
CONTINUOUS
 10
-5.9130287477
 20
36.6448393683
 11
-6.6201086044
 21
37.0601755544
  0
LINE
  5
49D
100
AcDbEntity
  8
0
100
AcDbLine
 62
7
  6
CONTINUOUS
 10
11.4464427305
 20
26.6216981021
 11
10.7393628738
 21
27.0370342882
  0
LINE
  5
49E
100
AcDbEntity
  8
0
100
AcDbLine
 62
7
  6
CONTINUOUS
 10
-2.6159798109
 20
34.7411646339
 11
-3.3168890752
 21
35.1529379974
  0
LINE
  5
49F
100
AcDbEntity
  8
0
100
AcDbLine
 62
7
  6
CONTINUOUS
 10
-14.9608226204
 20
33.3034239684
 11
-14.3330636691
 21
33.245619201
  0
LINE
  5
4A0
100
AcDbEntity
  8
0
100
AcDbLine
 62
250
  6
CONTINUOUS
 10
-14.7621540456
 20
33.4497100647
 11
-14.0509334375
 21
33.3842200518
  0
LINE
  5
4A1
100
AcDbEntity
  8
0
100
AcDbLine
 62
7
  6
CONTINUOUS
 10
-27.2644806131
 20
40.4074018923
 11
-26.6367216617
 21
40.3495971249
  0
LINE
  5
4A2
100
AcDbEntity
  8
0
100
AcDbLine
 62
250
  6
CONTINUOUS
 10
-27.0658120383
 20
40.5536879886
 11
-26.3545914302
 21
40.4881979758
  0
LWPOLYLINE
  5
4A3
100
AcDbEntity
  8
0
100
AcDbPolyline
 62
7
  6
CONTINUOUS
 90
22
 70
0
 10
40.8738169544
 20
23.2236535294
 10
40.8731713521
 20
23.2740807052
 10
40.8661788114
 20
23.3980977028
 10
40.8517659246
 20
23.5221006679
 10
40.8301480465
 20
23.6460696883
 10
40.8015474423
 20
23.7697282374
 10
40.7662844605
 20
23.89238082
 10
40.7245291702
 20
24.0139246005
 10
40.6764182856
 20
24.1341634263
 10
40.6223979463
 20
24.2521440017
 10
40.5626244509
 20
24.3676848508
 10
40.4972010279
 20
24.4805808363
 10
40.4266982412
 20
24.5898579113
 10
40.3512426866
 20
24.6953154206
 10
40.2709224552
 20
24.7967359094
 10
40.1863326511
 20
24.8932603703
 10
40.0975810822
 20
24.9846846642
 10
40.0046795706
 20
25.0708011715
 10
39.908069506
 20
25.1509983155
 10
39.8078701273
 20
25.2249594834
 10
39.7039870843
 20
25.2924909117
 10
39.6666048282
 20
25.3146273031
  0
LINE
  5
4A4
100
AcDbEntity
  8
0
100
AcDbLine
 62
250
  6
CONTINUOUS
 10
40.5931568618
 20
22.8228335875
 11
40.5931568618
 21
-5.2678762966
  0
LINE
  5
4A5
100
AcDbEntity
  8
0
100
AcDbLine
 62
7
  6
CONTINUOUS
 10
40.8738170614
 20
23.2239206245
 11
40.8738170614
 21
-4.8667892707
  0
LINE
  5
4A6
100
AcDbEntity
  8
0
100
AcDbLine
 62
7
  6
CONTINUOUS
 10
-13.9740460532
 20
42.1460687767
 11
-15.7225299762
 21
41.8713393224
  0
LWPOLYLINE
  5
4A7
100
AcDbEntity
  8
0
100
AcDbPolyline
 62
7
  6
CONTINUOUS
 90
16
 70
0
 10
-4.3895560321
 20
50.7521025502
 10
-4.4803959022
 20
50.8013196972
 10
-4.5874684857
 20
50.8513160256
 10
-4.6945338731
 20
50.8929730987
 10
-4.8010909805
 20
50.9263936395
 10
-4.9069746785
 20
50.9518402042
 10
-5.0122011892
 20
50.9695588117
 10
-5.1163107183
 20
50.9796739664
 10
-5.218961752
 20
50.9823761753
 10
-5.3201855699
 20
50.9778430895
 10
-5.4194803594
 20
50.9662361534
 10
-5.5164492534
 20
50.9477612616
 10
-5.6111731496
 20
50.9225278653
 10
-5.703351853
 20
50.890676357
 10
-5.792371913
 20
50.8524939169
 10
-5.8544798278
 20
50.8211394394
  0
LINE
  5
4A8
100
AcDbEntity
  8
0
100
AcDbLine
 62
250
  6
CONTINUOUS
 10
-4.877172623
 20
50.7095238038
 11
39.179158691
 21
25.2719502586
  0
LINE
  5
4A9
100
AcDbEntity
  8
0
100
AcDbLine
 62
7
  6
CONTINUOUS
 10
-4.3894891778
 20
50.7520639597
 11
39.6668421458
 21
25.3144904089
  0
ARC
  5
4AA
100
AcDbEntity
  8
RACCORDO
100
AcDbCircle
 62
250
  6
CONTINUOUS
 10
-38.4476006777
 20
30.5610449294
 40
2.2301150792
100
AcDbArc
 50
135.2190321158
 51
138.1390662792
  0
ARC
  5
4AB
100
AcDbEntity
  8
RACCORDO
100
AcDbCircle
 62
250
  6
CONTINUOUS
 10
-38.5669990103
 20
30.6798713999
 40
2.0616644045
100
AcDbArc
 50
132.1429135291
 51
135.2256906014
  0
ARC
  5
4AC
100
AcDbEntity
  8
0
100
AcDbCircle
 62
7
  6
CONTINUOUS
 10
-12.3410800153
 20
39.8543836677
 40
0.436503781
100
AcDbArc
 50
115.1556736124
 51
119.764396616
  0
ARC
  5
4AD
100
AcDbEntity
  8
0
100
AcDbCircle
 62
7
  6
CONTINUOUS
 10
-17.2908274836
 20
42.712305821
 40
0.436503781
100
AcDbArc
 50
115.1556736123
 51
119.7643966161
  0
ARC
  5
4AE
100
AcDbEntity
  8
0
100
AcDbCircle
 62
250
  6
CONTINUOUS
 10
-14.9378961419
 20
33.835094167
 40
0.427082416
100
AcDbArc
 50
265.9322544226
 51
278.5865079559
  0
ARC
  5
4AF
100
AcDbEntity
  8
0
100
AcDbCircle
 62
250
  6
CONTINUOUS
 10
-27.241554036
 20
40.9390675495
 40
0.4270778848
100
AcDbArc
 50
265.9339186804
 51
278.5892684136
  0
ARC
  5
4B0
100
AcDbEntity
  8
0
100
AcDbCircle
 62
250
  6
CONTINUOUS
 10
-13.0505519949
 20
34.9626207393
 40
0.4233182501
100
AcDbArc
 50
22.791186298
 51
37.2160226283
  0
ARC
  5
4B1
100
AcDbEntity
  8
0
100
AcDbCircle
 62
250
  6
CONTINUOUS
 10
-25.3542099875
 20
42.0665986632
 40
0.4233182501
100
AcDbArc
 50
22.791186298
 51
37.2160226283
  0
ARC
  5
4B2
100
AcDbEntity
  8
0
100
AcDbCircle
 62
250
  6
CONTINUOUS
 10
-16.3886246992
 20
34.7079190566
 40
0.4085767929
100
AcDbArc
 50
157.2249780417
 51
158.8560715088
  0
ARC
  5
4B3
100
AcDbEntity
  8
0
100
AcDbCircle
 62
250
  6
CONTINUOUS
 10
-28.6922826918
 20
41.8118969805
 40
0.4085767929
100
AcDbArc
 50
157.2249780417
 51
158.8560715088
  0
ARC
  5
4B4
100
AcDbEntity
  8
0
100
AcDbCircle
 62
7
  6
CONTINUOUS
 10
-12.8104082261
 20
34.7736316655
 40
0.25
100
AcDbArc
 50
321.4448482191
 51
0.0013161804
  0
ARC
  5
4B5
100
AcDbEntity
  8
0
100
AcDbCircle
 62
7
  6
CONTINUOUS
 10
-14.93789931
 20
33.5523707937
 40
0.25
100
AcDbArc
 50
239.9974155496
 51
264.7392192903
  0
ARC
  5
4B6
100
AcDbEntity
  8
0
100
AcDbCircle
 62
7
  6
CONTINUOUS
 10
-16.6164373804
 20
34.5215376385
 40
0.25
100
AcDbArc
 50
179.9475679812
 51
240.0600347285
  0
ARC
  5
4B7
100
AcDbEntity
  8
0
100
AcDbCircle
 62
7
  6
CONTINUOUS
 10
-25.1140662187
 20
41.8776095894
 40
0.25
100
AcDbArc
 50
321.4448482191
 51
0.0013161804
  0
ARC
  5
4B8
100
AcDbEntity
  8
0
100
AcDbCircle
 62
7
  6
CONTINUOUS
 10
-27.2415573026
 20
40.6563487176
 40
0.25
100
AcDbArc
 50
239.9854544562
 51
264.7389744545
  0
ARC
  5
4B9
100
AcDbEntity
  8
0
100
AcDbCircle
 62
7
  6
CONTINUOUS
 10
-28.9200953731
 20
41.6255155624
 40
0.25
100
AcDbArc
 50
179.8620186348
 51
239.9984015652
  0
ARC
  5
4BA
100
AcDbEntity
  8
0
100
AcDbCircle
 62
7
  6
CONTINUOUS
 10
-28.9200953731
 20
41.9460357353
 40
0.25
100
AcDbArc
 50
120.5789262155
 51
180.0103080938
  0
ARC
  5
4BB
100
AcDbEntity
  8
0
100
AcDbCircle
 62
7
  6
CONTINUOUS
 10
-14.5012877772
 20
36.0775696272
 40
0.25
100
AcDbArc
 50
59.9881156925
 51
119.4242703296
  0
ARC
  5
4BC
100
AcDbEntity
  8
0
100
AcDbCircle
 62
7
  6
CONTINUOUS
 10
-16.6164373804
 20
34.8420578114
 40
0.25
100
AcDbArc
 50
120.5789262155
 51
180.0103080938
  0
ARC
  5
4BD
100
AcDbEntity
  8
0
100
AcDbCircle
 62
7
  6
CONTINUOUS
 10
-12.8104082261
 20
35.101276966
 40
0.25
100
AcDbArc
 50
359.9913623597
 51
59.9984015652
  0
ARC
  5
4BE
100
AcDbEntity
  8
0
100
AcDbCircle
 62
7
  6
CONTINUOUS
 10
-26.8049457699
 20
43.1815475511
 40
0.25
100
AcDbArc
 50
59.9984015652
 51
119.4355171729
  0
ARC
  5
4BF
100
AcDbEntity
  8
0
100
AcDbCircle
 62
7
  6
CONTINUOUS
 10
-25.1140662187
 20
42.2052548899
 40
0.25
100
AcDbArc
 50
359.9913623597
 51
59.9984015652
  0
ARC
  5
4C0
100
AcDbEntity
  8
0
100
AcDbCircle
 62
250
  6
CONTINUOUS
 10
-16.4933465436
 20
34.8332030079
 40
0.2459853293
100
AcDbArc
 50
120.3034754385
 51
122.5874570101
  0
ARC
  5
4C1
100
AcDbEntity
  8
0
100
AcDbCircle
 62
250
  6
CONTINUOUS
 10
-28.7970045363
 20
41.9371809318
 40
0.2459853293
100
AcDbArc
 50
120.3034754386
 51
122.58745701
  0
ARC
  5
4C2
100
AcDbEntity
  8
0
100
AcDbCircle
 62
250
  6
CONTINUOUS
 10
-12.8756955771
 20
35.0009575241
 40
0.2430922316
100
AcDbArc
 50
359.7280837269
 51
2.0517323724
  0
ARC
  5
4C3
100
AcDbEntity
  8
0
100
AcDbCircle
 62
250
  6
CONTINUOUS
 10
-25.1793535698
 20
42.104935448
 40
0.2430922316
100
AcDbArc
 50
359.7280837269
 51
2.0517323723
  0
ARC
  5
4C4
100
AcDbEntity
  8
0
100
AcDbCircle
 62
7
  6
CONTINUOUS
 10
-19.7016109808
 20
37.8575210282
 40
0.2
100
AcDbArc
 50
120.2927981073
 51
180.0
  0
ARC
  5
4C5
100
AcDbEntity
  8
0
100
AcDbCircle
 62
250
  6
CONTINUOUS
 10
-16.7824554663
 20
34.5215614567
 40
0.0839816594
100
AcDbArc
 50
180.0162497695
 51
188.007383032
  0
ARC
  5
4C6
100
AcDbEntity
  8
0
100
AcDbCircle
 62
250
  6
CONTINUOUS
 10
-29.0861573511
 20
41.6255366961
 40
0.0839377666
100
AcDbArc
 50
180.0144258247
 51
187.7047868624
  0
ARC
  5
4C7
100
AcDbEntity
  8
0
100
AcDbCircle
 62
250
  6
CONTINUOUS
 10
-26.7218401571
 20
43.3254505602
 40
0.0838232749
100
AcDbArc
 50
60.0089493222
 51
67.0799553488
  0
ARC
  5
4C8
100
AcDbEntity
  8
0
100
AcDbCircle
 62
250
  6
CONTINUOUS
 10
-14.4181789975
 20
36.2214788956
 40
0.0838162704
100
AcDbArc
 50
60.0086855125
 51
67.0217863001
  0
ARC
  5
4C9
100
AcDbEntity
  8
0
100
AcDbCircle
 62
250
  6
CONTINUOUS
 10
-14.5829513637
 20
36.2223267232
 40
0.0837963786
100
AcDbArc
 50
112.4526900999
 51
119.4145341879
  0
ARC
  5
4CA
100
AcDbEntity
  8
0
100
AcDbCircle
 62
250
  6
CONTINUOUS
 10
-26.8866175187
 20
43.3263211465
 40
0.083777997
100
AcDbArc
 50
112.6036410673
 51
119.4152133642
  0
ARC
  5
4CB
100
AcDbEntity
  8
0
100
AcDbCircle
 62
250
  6
CONTINUOUS
 10
-16.6996392938
 20
34.3774177452
 40
0.0835875548
100
AcDbArc
 50
234.9607456569
 51
239.9918084205
  0
ARC
  5
4CC
100
AcDbEntity
  8
RACCORDO
100
AcDbCircle
 62
7
  6
CONTINUOUS
 10
-1.8810602849
 20
31.3376611625
 40
0.0498435158
100
AcDbArc
 50
119.6353431741
 51
132.2510089755
  0
ARC
  5
4CD
100
AcDbEntity
  8
RACCORDO
100
AcDbCircle
 62
7
  6
CONTINUOUS
 10
-17.7909628616
 20
40.5238395123
 40
0.0498435158
100
AcDbArc
 50
119.6353431742
 51
132.2510089754
  0
ARC
  5
4CE
100
AcDbEntity
  8
0
100
AcDbCircle
 62
250
  6
CONTINUOUS
 10
39.8497002612
 20
-5.601146838
 40
0.6686291686
100
AcDbArc
 50
301.7345133998
 51
304.6674408571
  0
ARC
  5
4CF
100
AcDbEntity
  8
0
100
AcDbCircle
 62
250
  6
CONTINUOUS
 10
16.8828355126
 20
-23.7957895723
 40
0.4270656009
100
AcDbArc
 50
265.9362785757
 51
278.5971755285
  0
ARC
  5
4D0
100
AcDbEntity
  8
0
100
AcDbCircle
 62
250
  6
CONTINUOUS
 10
16.8812348294
 20
-23.8104390406
 40
0.412339908
100
AcDbArc
 50
259.5292195743
 51
266.013885326
  0
ARC
  5
4D1
100
AcDbEntity
  8
0
100
AcDbCircle
 62
7
  6
CONTINUOUS
 10
19.0093969273
 20
-22.5351108212
 40
0.25
100
AcDbArc
 50
359.8620186348
 51
59.9984015652
  0
ARC
  5
4D2
100
AcDbEntity
  8
0
100
AcDbCircle
 62
7
  6
CONTINUOUS
 10
16.8828320407
 20
-24.0784960867
 40
0.25
100
AcDbArc
 50
239.9984015652
 51
299.4930719115
  0
ARC
  5
4D3
100
AcDbEntity
  8
0
100
AcDbCircle
 62
7
  6
CONTINUOUS
 10
19.0093969273
 20
-22.8627561217
 40
0.25
100
AcDbArc
 50
300.5800649782
 51
0.0010024107
  0
ARC
  5
4D4
100
AcDbEntity
  8
0
100
AcDbCircle
 62
250
  6
CONTINUOUS
 10
16.9368063754
 20
-23.967674521
 40
0.2457698833
100
AcDbArc
 50
297.4379823709
 51
299.728324518
  0
ARC
  5
4D5
100
AcDbEntity
  8
0
100
AcDbCircle
 62
250
  6
CONTINUOUS
 10
19.0100536132
 20
-22.4597585578
 40
0.1758942304
100
AcDbArc
 50
56.8978201749
 51
60.0810059152
  0
ARC
  5
4D6
100
AcDbEntity
  8
0
100
AcDbCircle
 62
250
  6
CONTINUOUS
 10
19.1755747062
 20
-22.8627416474
 40
0.0838219643
100
AcDbArc
 50
353.0549856082
 51
359.9901061571
  0
ARC
  5
4D7
100
AcDbEntity
  8
RACCORDO
100
AcDbCircle
 62
250
  6
CONTINUOUS
 10
15.9673287976
 20
36.9495486993
 40
57.0334751654
100
AcDbArc
 50
193.6108678458
 51
193.9509291839
  0
ARC
  5
4D8
100
AcDbEntity
  8
RACCORDO
100
AcDbCircle
 62
250
  6
CONTINUOUS
 10
4.6632762439
 20
21.4073119973
 40
41.9827821713
100
AcDbArc
 50
206.0598739048
 51
206.2941800823
  0
ARC
  5
4D9
100
AcDbEntity
  8
RACCORDO
100
AcDbCircle
 62
7
  6
CONTINUOUS
 10
1.2885313505
 20
29.5867068621
 40
1.9048206401
100
AcDbArc
 50
325.3278578346
 51
325.728485289
  0
ARC
  5
4DA
100
AcDbEntity
  8
0
100
AcDbCircle
 62
7
  6
CONTINUOUS
 10
19.4787251381
 20
21.482026968
 40
0.436503781
100
AcDbArc
 50
115.1556736123
 51
119.7643966161
  0
ARC
  5
4DB
100
AcDbEntity
  8
0
100
AcDbCircle
 62
7
  6
CONTINUOUS
 10
14.5289776698
 20
24.3399491212
 40
0.436503781
100
AcDbArc
 50
115.1556736124
 51
119.764396616
  0
ARC
  5
4DC
100
AcDbEntity
  8
0
100
AcDbCircle
 62
250
  6
CONTINUOUS
 10
16.8828356808
 20
15.462181172
 40
0.4270609439
100
AcDbArc
 50
265.9402242547
 51
278.5995995542
  0
ARC
  5
4DD
100
AcDbEntity
  8
0
100
AcDbCircle
 62
250
  6
CONTINUOUS
 10
4.5791776881
 20
22.5661590959
 40
0.4270609439
100
AcDbArc
 50
265.9402242547
 51
278.5995995542
  0
ARC
  5
4DE
100
AcDbEntity
  8
0
100
AcDbCircle
 62
250
  6
CONTINUOUS
 10
6.4655940489
 20
23.6942414415
 40
0.4233194721
100
AcDbArc
 50
22.7885133968
 51
37.2114866547
  0
ARC
  5
4DF
100
AcDbEntity
  8
0
100
AcDbCircle
 62
250
  6
CONTINUOUS
 10
18.7692520415
 20
16.5902635176
 40
0.4233194721
100
AcDbArc
 50
22.7885133968
 51
37.2114866547
  0
ARC
  5
4E0
100
AcDbEntity
  8
0
100
AcDbCircle
 62
250
  6
CONTINUOUS
 10
3.1266189766
 20
23.4411353623
 40
0.408601274
100
AcDbArc
 50
157.2205096636
 51
158.8519173489
  0
ARC
  5
4E1
100
AcDbEntity
  8
0
100
AcDbCircle
 62
250
  6
CONTINUOUS
 10
15.4302769693
 20
16.3371574384
 40
0.408601274
100
AcDbArc
 50
157.2205096636
 51
158.8519173489
  0
ARC
  5
4E2
100
AcDbEntity
  8
0
100
AcDbCircle
 62
250
  6
CONTINUOUS
 10
3.0669962258
 20
23.5046789981
 40
0.3225392914
100
AcDbArc
 50
128.8825287726
 51
132.7022788684
  0
ARC
  5
4E3
100
AcDbEntity
  8
0
100
AcDbCircle
 62
250
  6
CONTINUOUS
 10
15.3706542184
 20
16.4007010742
 40
0.3225392914
100
AcDbArc
 50
128.8825287726
 51
132.7022788684
  0
ARC
  5
4E4
100
AcDbEntity
  8
0
100
AcDbCircle
 62
7
  6
CONTINUOUS
 10
6.7057389347
 20
23.5052528897
 40
0.25
100
AcDbArc
 50
321.459504129
 51
0.0555548277
  0
ARC
  5
4E5
100
AcDbEntity
  8
0
100
AcDbCircle
 62
7
  6
CONTINUOUS
 10
19.0093969273
 20
16.4012749658
 40
0.25
100
AcDbArc
 50
321.459504129
 51
0.0555548277
  0
ARC
  5
4E6
100
AcDbEntity
  8
0
100
AcDbCircle
 62
7
  6
CONTINUOUS
 10
2.898783583
 20
23.2536936374
 40
0.25
100
AcDbArc
 50
179.9475230408
 51
240.0599502591
  0
ARC
  5
4E7
100
AcDbEntity
  8
0
100
AcDbCircle
 62
7
  6
CONTINUOUS
 10
4.5791740481
 20
22.2834572431
 40
0.25
100
AcDbArc
 50
239.9975129514
 51
264.7551536819
  0
ARC
  5
4E8
100
AcDbEntity
  8
0
100
AcDbCircle
 62
7
  6
CONTINUOUS
 10
15.2024415756
 20
16.1497157135
 40
0.25
100
AcDbArc
 50
180.0
 51
240.1093450623
  0
ARC
  5
4E9
100
AcDbEntity
  8
0
100
AcDbCircle
 62
7
  6
CONTINUOUS
 10
16.8828320407
 20
15.1794793192
 40
0.25
100
AcDbArc
 50
239.9975129514
 51
264.7551536819
  0
ARC
  5
4EA
100
AcDbEntity
  8
0
100
AcDbCircle
 62
7
  6
CONTINUOUS
 10
19.0093969273
 20
16.7289202663
 40
0.25
100
AcDbArc
 50
0.0007993011
 51
59.9992007504
  0
ARC
  5
4EB
100
AcDbEntity
  8
0
100
AcDbCircle
 62
7
  6
CONTINUOUS
 10
15.2024415756
 20
16.4713053325
 40
0.25
100
AcDbArc
 50
120.5222281352
 51
180.0009050294
  0
ARC
  5
4EC
100
AcDbEntity
  8
0
100
AcDbCircle
 62
7
  6
CONTINUOUS
 10
17.3185173762
 20
17.7052129274
 40
0.25
100
AcDbArc
 50
59.9984015652
 51
119.4355171729
  0
ARC
  5
4ED
100
AcDbEntity
  8
0
100
AcDbCircle
 62
7
  6
CONTINUOUS
 10
6.7057389347
 20
23.8328981902
 40
0.25
100
AcDbArc
 50
0.0007993011
 51
59.9992007504
  0
ARC
  5
4EE
100
AcDbEntity
  8
0
100
AcDbCircle
 62
7
  6
CONTINUOUS
 10
2.898783583
 20
23.5752832564
 40
0.25
100
AcDbArc
 50
120.5222281352
 51
180.0009050294
  0
ARC
  5
4EF
100
AcDbEntity
  8
0
100
AcDbCircle
 62
7
  6
CONTINUOUS
 10
5.0148593835
 20
24.8091908513
 40
0.25
100
AcDbArc
 50
59.9984015652
 51
119.4355171729
  0
ARC
  5
4F0
100
AcDbEntity
  8
0
100
AcDbCircle
 62
250
  6
CONTINUOUS
 10
3.0217744147
 20
23.5665921441
 40
0.2457935151
100
AcDbArc
 50
120.2748431573
 51
122.564657872
  0
ARC
  5
4F1
100
AcDbEntity
  8
0
100
AcDbCircle
 62
250
  6
CONTINUOUS
 10
15.3254324074
 20
16.4626142202
 40
0.2457935151
100
AcDbArc
 50
120.2748431574
 51
122.5646578719
  0
ARC
  5
4F2
100
AcDbEntity
  8
0
100
AcDbCircle
 62
250
  6
CONTINUOUS
 10
6.6404526679
 20
23.73257876
 40
0.2430911474
100
AcDbArc
 50
359.7280797562
 51
2.0514150515
  0
ARC
  5
4F3
100
AcDbEntity
  8
0
100
AcDbCircle
 62
250
  6
CONTINUOUS
 10
18.9441106605
 20
16.6286008361
 40
0.2430911474
100
AcDbArc
 50
359.7280797562
 51
2.0514150515
  0
ARC
  5
4F4
100
AcDbEntity
  8
0
100
AcDbCircle
 62
7
  6
CONTINUOUS
 10
12.1181941726
 20
19.4853073588
 40
0.2
100
AcDbArc
 50
120.2617633244
 51
180.0009049925
  0
ARC
  5
4F5
100
AcDbEntity
  8
0
100
AcDbCircle
 62
250
  6
CONTINUOUS
 10
2.7327614777
 20
23.253717202
 40
0.0839776393
100
AcDbArc
 50
180.0160775256
 51
187.984569717
  0
ARC
  5
4F6
100
AcDbEntity
  8
0
100
AcDbCircle
 62
250
  6
CONTINUOUS
 10
17.4016229889
 20
17.8491159366
 40
0.0838232749
100
AcDbArc
 50
60.0089493223
 51
67.0799553488
  0
ARC
  5
4F7
100
AcDbEntity
  8
0
100
AcDbCircle
 62
250
  6
CONTINUOUS
 10
5.0979649963
 20
24.9530938605
 40
0.0838232749
100
AcDbArc
 50
60.0089493219
 51
67.079955349
  0
ARC
  5
4F8
100
AcDbEntity
  8
0
100
AcDbCircle
 62
250
  6
CONTINUOUS
 10
17.2368456273
 20
17.8499865229
 40
0.083777997
100
AcDbArc
 50
112.6036410672
 51
119.4152133644
  0
ARC
  5
4F9
100
AcDbEntity
  8
0
100
AcDbCircle
 62
250
  6
CONTINUOUS
 10
4.9331876347
 20
24.9539644468
 40
0.083777997
100
AcDbArc
 50
112.6036410674
 51
119.4152133642
  0
ARC
  5
4FA
100
AcDbEntity
  8
0
100
AcDbCircle
 62
250
  6
CONTINUOUS
 10
2.8155820242
 20
23.1095743092
 40
0.0835882214
100
AcDbArc
 50
234.9549140473
 51
239.9917916695
  0
ARC
  5
4FB
100
AcDbEntity
  8
0
100
AcDbCircle
 62
250
  6
CONTINUOUS
 10
15.1192079028
 20
16.0055449619
 40
0.0835276307
100
AcDbArc
 50
235.5043253736
 51
239.9932261257
  0
ARC
  5
4FC
100
AcDbEntity
  8
RACCORDO
100
AcDbCircle
 62
7
  6
CONTINUOUS
 10
14.0288422918
 20
22.1514828126
 40
0.0498435158
100
AcDbArc
 50
119.635343174
 51
132.2510089756
  0
SPLINE
  5
4FD
100
AcDbEntity
  8
RACCORDO
100
AcDbSpline
 62
7
  6
CONTINUOUS
 70
0
 71
3
 72
11
 73
7
 74
0
 42
0.0000001
 43
0.0000001
 44
0.0000000001
 40
0.0
 40
0.0
 40
0.0
 40
0.0
 40
0.2408493031
 40
0.4996172304
 40
0.7586078141
 40
1.0
 40
1.0
 40
1.0
 40
1.0
 10
-0.5804337348
 20
31.3774882935
 30
0.0
 10
-0.6760018446
 20
31.4326681223
 30
0.0
 10
-0.8940755855
 20
31.5135471875
 30
0.0
 10
-1.24215615
 20
31.5526029043
 30
0.0
 10
-1.5906734636
 20
31.5152578341
 30
0.0
 10
-1.8095165835
 20
31.4355787126
 30
0.0
 10
-1.905706632
 20
31.3809846362
 30
0.0
  0
SPLINE
  5
4FE
100
AcDbEntity
  8
RACCORDO
100
AcDbSpline
 62
7
  6
CONTINUOUS
 70
0
 71
3
 72
11
 73
7
 74
0
 42
0.0000001
 43
0.0000001
 44
0.0000000001
 40
0.0
 40
0.0
 40
0.0
 40
0.0
 40
0.2636507539
 40
0.5147760284
 40
0.7587157051
 40
1.0
 40
1.0
 40
1.0
 40
1.0
 10
2.8136788145
 20
29.4177702457
 30
0.0
 10
2.861517795
 20
29.390148618
 30
0.0
 10
2.9505867938
 20
29.3279358223
 30
0.0
 10
3.059226199
 20
29.2098063695
 30
0.0
 10
3.1309743681
 20
29.0708683659
 30
0.0
 10
3.1479885579
 20
28.968502605
 30
0.0
 10
3.1479885579
 20
28.91794828
 30
0.0
  0
SPLINE
  5
4FF
100
AcDbEntity
  8
RACCORDO
100
AcDbSpline
 62
7
  6
CONTINUOUS
 70
0
 71
3
 72
11
 73
7
 74
0
 42
0.0000001
 43
0.0000001
 44
0.0000000001
 40
0.0
 40
0.0
 40
0.0
 40
0.0
 40
0.2408493031
 40
0.4996172304
 40
0.7586078141
 40
1.0
 40
1.0
 40
1.0
 40
1.0
 10
-16.4903363115
 20
40.5636666434
 30
0.0
 10
-16.5859044213
 20
40.6188464722
 30
0.0
 10
-16.8039781622
 20
40.6997255373
 30
0.0
 10
-17.1520587267
 20
40.7387812542
 30
0.0
 10
-17.5005760403
 20
40.701436184
 30
0.0
 10
-17.7194191602
 20
40.6217570625
 30
0.0
 10
-17.8156092087
 20
40.567162986
 30
0.0
  0
SPLINE
  5
500
100
AcDbEntity
  8
RACCORDO
100
AcDbSpline
 62
7
  6
CONTINUOUS
 70
0
 71
3
 72
11
 73
7
 74
0
 42
0.0000001
 43
0.0000001
 44
0.0000000001
 40
0.0
 40
0.0
 40
0.0
 40
0.0
 40
0.2408493031
 40
0.4996172304
 40
0.7586078141
 40
1.0
 40
1.0
 40
1.0
 40
1.0
 10
15.3294688419
 20
22.1913099436
 30
0.0
 10
15.2339007321
 20
22.2464897725
 30
0.0
 10
15.0158269912
 20
22.3273688376
 30
0.0
 10
14.6677464267
 20
22.3664245544
 30
0.0
 10
14.3192291131
 20
22.3290794843
 30
0.0
 10
14.1003859932
 20
22.2494003627
 30
0.0
 10
14.0041959447
 20
22.1948062863
 30
0.0
  0
SPLINE
  5
501
100
AcDbEntity
  8
0
100
AcDbSpline
 62
250
  6
CONTINUOUS
 70
0
 71
3
 72
11
 73
7
 74
0
 42
0.0000001
 43
0.0000001
 44
0.0000000001
 40
0.0
 40
0.0
 40
0.0
 40
0.0
 40
0.2187470201
 40
0.452289293
 40
0.7113103994
 40
1.0
 40
1.0
 40
1.0
 40
1.0
 10
-4.3895561503
 20
50.7521023455
 30
0.0
 10
-4.421799911
 20
50.7707056725
 30
0.0
 10
-4.4955936216
 20
50.797821686
 30
0.0
 10
-4.6181700538
 20
50.802189871
 30
0.0
 10
-4.7489497638
 20
50.7724728531
 30
0.0
 10
-4.8342574779
 20
50.7334375278
 30
0.0
 10
-4.877172623
 20
50.7095238038
 30
0.0
  0
SPLINE
  5
502
100
AcDbEntity
  8
0
100
AcDbSpline
 62
250
  6
CONTINUOUS
 70
0
 71
3
 72
11
 73
7
 74
0
 42
0.0000001
 43
0.0000001
 44
0.0000000001
 40
0.0
 40
0.0
 40
0.0
 40
0.0
 40
0.2187566953
 40
0.4523038513
 40
0.7113218705
 40
1.0
 40
1.0
 40
1.0
 40
1.0
 10
40.8738168114
 20
-4.8668733273
 30
0.0
 10
40.8738040607
 20
-4.9040995253
 30
0.0
 10
40.8603891664
 20
-4.9815643345
 30
0.0
 10
40.8028884242
 20
-5.0899030948
 30
0.0
 10
40.7117720874
 20
-5.1883042034
 30
0.0
 10
40.6353200451
 20
-5.242666837
 30
0.0
 10
40.5931568618
 20
-5.2678762966
 30
0.0
  0
SPLINE
  5
503
100
AcDbEntity
  8
0
100
AcDbSpline
 62
250
  6
CONTINUOUS
 70
0
 71
3
 72
11
 73
7
 74
0
 42
0.0000001
 43
0.0000001
 44
0.0000000001
 40
0.0
 40
0.0
 40
0.0
 40
0.0
 40
0.2187458133
 40
0.4522971001
 40
0.7113215508
 40
1.0
 40
1.0
 40
1.0
 40
1.0
 10
39.6666047011
 20
25.3146270828
 30
0.0
 10
39.6343623768
 20
25.3332040844
 30
0.0
 10
39.5605833481
 20
25.3602715963
 30
0.0
 10
39.438052559
 20
25.3646002478
 30
0.0
 10
39.3073280555
 20
25.3348762856
 30
0.0
 10
39.2220558227
 20
25.2958539434
 30
0.0
 10
39.179158691
 20
25.2719502586
 30
0.0
  0
SPLINE
  5
504
100
AcDbEntity
  8
0
100
AcDbSpline
 62
250
  6
CONTINUOUS
 70
0
 71
3
 72
11
 73
7
 74
0
 42
0.0000001
 43
0.0000001
 44
0.0000000001
 40
0.0
 40
0.0
 40
0.0
 40
0.0
 40
0.2187555741
 40
0.452311112
 40
0.7113322381
 40
1.0
 40
1.0
 40
1.0
 40
1.0
 10
40.8738166982
 20
23.2236535295
 30
0.0
 10
40.8737834136
 20
23.1864407334
 30
0.0
 10
40.8603362816
 20
23.1090103079
 30
0.0
 10
40.8028249231
 20
23.0007267008
 30
0.0
 10
40.7117286662
 20
22.9023732935
 30
0.0
 10
40.635303582
 20
22.8480332052
 30
0.0
 10
40.5931568618
 20
22.8228335875
 30
0.0
  0
SPLINE
  5
505
100
AcDbEntity
  8
0
100
AcDbSpline
 62
250
  6
CONTINUOUS
 70
0
 71
3
 72
11
 73
7
 74
0
 42
0.0000001
 43
0.0000001
 44
0.0000000001
 40
0.0
 40
0.0
 40
0.0
 40
0.0
 40
0.2181907198
 40
0.4517823961
 40
0.7109356222
 40
1.0
 40
1.0
 40
1.0
 40
1.0
 10
-5.8542997718
 20
50.8212362288
 30
0.0
 10
-5.7886405284
 20
50.8565514854
 30
0.0
 10
-5.6390890625
 20
50.9064625644
 30
0.0
 10
-5.3930146884
 20
50.9082861279
 30
0.0
 10
-5.1318687125
 20
50.8420189602
 30
0.0
 10
-4.962338152
 20
50.7595492203
 30
0.0
 10
-4.877172623
 20
50.7095238038
 30
0.0
  0
SPLINE
  5
506
100
AcDbEntity
  8
RACCORDO
100
AcDbSpline
 62
7
  6
CONTINUOUS
 70
0
 71
3
 72
9
 73
5
 74
0
 42
0.0000001
 43
0.0000001
 44
0.0000000001
 40
0.0
 40
0.0
 40
0.0
 40
0.0
 40
0.2347555177
 40
1.0
 40
1.0
 40
1.0
 40
1.0
 10
-1.9057068131
 20
31.3809846516
 30
0.0
 10
-1.9031781614
 20
31.3824211013
 30
0.0
 10
-1.8918633993
 20
31.3876052281
 30
0.0
 10
-1.8789681497
 20
31.3886373282
 30
0.0
 10
-1.8695214988
 20
31.3878438411
 30
0.0
  0
SPLINE
  5
507
100
AcDbEntity
  8
RACCORDO
100
AcDbSpline
 62
7
  6
CONTINUOUS
 70
0
 71
3
 72
9
 73
5
 74
0
 42
0.0000001
 43
0.0000001
 44
0.0000000001
 40
0.0
 40
0.0
 40
0.0
 40
0.0
 40
0.2215057555
 40
1.0
 40
1.0
 40
1.0
 40
1.0
 10
-1.8695214988
 20
31.3878438411
 30
0.0
 10
-1.8649998356
 20
31.3874640365
 30
0.0
 10
-1.8447174763
 20
31.3841526527
 30
0.0
 10
-1.8256202199
 20
31.3755542426
 30
0.0
 10
-1.8118094168
 20
31.367580058
 30
0.0
  0
SPLINE
  5
508
100
AcDbEntity
  8
RACCORDO
100
AcDbSpline
 62
250
  6
CONTINUOUS
 70
0
 71
3
 72
9
 73
5
 74
0
 42
0.0000001
 43
0.0000001
 44
0.0000000001
 40
0.0
 40
0.0
 40
0.0
 40
0.0
 40
0.4492433651
 40
1.0
 40
1.0
 40
1.0
 40
1.0
 10
2.8136738919
 20
29.4177730877
 30
0.0
 10
2.8001816578
 20
29.4255618006
 30
0.0
 10
2.7632666196
 20
29.4311452087
 30
0.0
 10
2.7302141751
 20
29.4174121098
 30
0.0
 10
2.7136739828
 20
29.40786201
 30
0.0
  0
SPLINE
  5
509
100
AcDbEntity
  8
RACCORDO
100
AcDbSpline
 62
250
  6
CONTINUOUS
 70
0
 71
3
 72
9
 73
5
 74
0
 42
0.0000001
 43
0.0000001
 44
0.0000000001
 40
0.0
 40
0.0
 40
0.0
 40
0.0
 40
0.4492417779
 40
1.0
 40
1.0
 40
1.0
 40
1.0
 10
-0.5804337348
 20
31.3774882935
 30
0.0
 10
-0.5939259544
 20
31.3852785453
 30
0.0
 10
-0.6308430375
 20
31.3908644716
 30
0.0
 10
-0.663897465
 20
31.3771306829
 30
0.0
 10
-0.6804385669
 20
31.367580058
 30
0.0
  0
SPLINE
  5
50A
100
AcDbEntity
  8
RACCORDO
100
AcDbSpline
 62
7
  6
CONTINUOUS
 70
0
 71
3
 72
9
 73
5
 74
0
 42
0.0000001
 43
0.0000001
 44
0.0000000001
 40
0.0
 40
0.0
 40
0.0
 40
0.0
 40
0.2347555177
 40
1.0
 40
1.0
 40
1.0
 40
1.0
 10
-17.8156093898
 20
40.5671630015
 30
0.0
 10
-17.8130807381
 20
40.5685994512
 30
0.0
 10
-17.801765976
 20
40.573783578
 30
0.0
 10
-17.7888707264
 20
40.5748156781
 30
0.0
 10
-17.7794240755
 20
40.5740221909
 30
0.0
  0
SPLINE
  5
50B
100
AcDbEntity
  8
RACCORDO
100
AcDbSpline
 62
7
  6
CONTINUOUS
 70
0
 71
3
 72
9
 73
5
 74
0
 42
0.0000001
 43
0.0000001
 44
0.0000000001
 40
0.0
 40
0.0
 40
0.0
 40
0.0
 40
0.2215057555
 40
1.0
 40
1.0
 40
1.0
 40
1.0
 10
-17.7794240755
 20
40.5740221909
 30
0.0
 10
-17.7749024123
 20
40.5736423863
 30
0.0
 10
-17.754620053
 20
40.5703310025
 30
0.0
 10
-17.7355227966
 20
40.5617325925
 30
0.0
 10
-17.7217119935
 20
40.5537584078
 30
0.0
  0
SPLINE
  5
50C
100
AcDbEntity
  8
RACCORDO
100
AcDbSpline
 62
250
  6
CONTINUOUS
 70
0
 71
3
 72
9
 73
5
 74
0
 42
0.0000001
 43
0.0000001
 44
0.0000000001
 40
0.0
 40
0.0
 40
0.0
 40
0.0
 40
0.4492417779
 40
1.0
 40
1.0
 40
1.0
 40
1.0
 10
-16.4903363115
 20
40.5636666434
 30
0.0
 10
-16.5038285311
 20
40.5714568951
 30
0.0
 10
-16.5407456142
 20
40.5770428214
 30
0.0
 10
-16.5738000416
 20
40.5633090328
 30
0.0
 10
-16.5903411436
 20
40.5537584078
 30
0.0
  0
SPLINE
  5
50D
100
AcDbEntity
  8
RACCORDO
100
AcDbSpline
 62
7
  6
CONTINUOUS
 70
0
 71
3
 72
9
 73
5
 74
0
 42
0.0000001
 43
0.0000001
 44
0.0000000001
 40
0.0
 40
0.0
 40
0.0
 40
0.0
 40
0.2347555177
 40
1.0
 40
1.0
 40
1.0
 40
1.0
 10
14.0041957636
 20
22.1948063017
 30
0.0
 10
14.0067244153
 20
22.1962427514
 30
0.0
 10
14.0180391774
 20
22.2014268782
 30
0.0
 10
14.0309344269
 20
22.2024589783
 30
0.0
 10
14.0403810779
 20
22.2016654912
 30
0.0
  0
SPLINE
  5
50E
100
AcDbEntity
  8
RACCORDO
100
AcDbSpline
 62
7
  6
CONTINUOUS
 70
0
 71
3
 72
9
 73
5
 74
0
 42
0.0000001
 43
0.0000001
 44
0.0000000001
 40
0.0
 40
0.0
 40
0.0
 40
0.0
 40
0.2215057555
 40
1.0
 40
1.0
 40
1.0
 40
1.0
 10
14.0403810779
 20
22.2016654912
 30
0.0
 10
14.0449027411
 20
22.2012856866
 30
0.0
 10
14.0651851004
 20
22.1979743028
 30
0.0
 10
14.0842823568
 20
22.1893758927
 30
0.0
 10
14.0980931599
 20
22.1814017081
 30
0.0
  0
SPLINE
  5
50F
100
AcDbEntity
  8
RACCORDO
100
AcDbSpline
 62
250
  6
CONTINUOUS
 70
0
 71
3
 72
9
 73
5
 74
0
 42
0.0000001
 43
0.0000001
 44
0.0000000001
 40
0.0
 40
0.0
 40
0.0
 40
0.0
 40
0.4492417779
 40
1.0
 40
1.0
 40
1.0
 40
1.0
 10
15.3294688419
 20
22.1913099436
 30
0.0
 10
15.3159766223
 20
22.1991001954
 30
0.0
 10
15.2790595392
 20
22.2046861217
 30
0.0
 10
15.2460051117
 20
22.190952333
 30
0.0
 10
15.2294640098
 20
22.1814017081
 30
0.0
  0
SPLINE
  5
510
100
AcDbEntity
  8
RACCORDO
100
AcDbSpline
 62
250
  6
CONTINUOUS
 70
0
 71
3
 72
11
 73
7
 74
0
 42
0.0000001
 43
0.0000001
 44
0.0000000001
 40
0.0
 40
0.0
 40
0.0
 40
0.0
 40
0.2184349154
 40
0.4519194585
 40
0.7109294061
 40
1.0
 40
1.0
 40
1.0
 40
1.0
 10
3.1479843821
 20
28.9179482799
 30
0.0
 10
3.1479850749
 20
28.8803753092
 30
0.0
 10
3.1343323987
 20
28.8021250998
 30
0.0
 10
3.0757657262
 20
28.6929070453
 30
0.0
 10
2.9831309981
 20
28.5938560205
 30
0.0
 10
2.9054606748
 20
28.5393367724
 30
0.0
 10
2.8626338999
 20
28.5140732644
 30
0.0
  0
SPLINE
  5
511
100
AcDbEntity
  8
0
100
AcDbSpline
 62
250
  6
CONTINUOUS
 70
0
 71
3
 72
11
 73
7
 74
0
 42
0.0000001
 43
0.0000001
 44
0.0000000001
 40
0.0
 40
0.0
 40
0.0
 40
0.0
 40
0.287993691
 40
0.5473140537
 40
0.7817164592
 40
1.0
 40
1.0
 40
1.0
 40
1.0
 10
40.5931568618
 20
-5.2678762966
 30
0.0
 10
40.5938675058
 20
-5.3630123542
 30
0.0
 10
40.5814937411
 20
-5.5444643375
 30
0.0
 10
40.513849084
 20
-5.7957508391
 30
0.0
 10
40.3988010512
 20
-6.003998274
 30
0.0
 10
40.2893332919
 20
-6.1100562051
 30
0.0
 10
40.230024714
 20
-6.1510725382
 30
0.0
  0
SPLINE
  5
512
100
AcDbEntity
  8
0
100
AcDbSpline
 62
250
  6
CONTINUOUS
 70
0
 71
3
 72
11
 73
7
 74
0
 42
0.0000001
 43
0.0000001
 44
0.0000000001
 40
0.0
 40
0.0
 40
0.0
 40
0.0
 40
0.2374672688
 40
0.4999708398
 40
0.7624805707
 40
1.0
 40
1.0
 40
1.0
 40
1.0
 10
39.179158691
 20
25.2719502586
 30
0.0
 10
39.3811876466
 20
25.1572871655
 30
0.0
 10
39.7635609645
 20
24.8393581552
 30
0.0
 10
40.208613767
 20
24.2336542924
 30
0.0
 10
40.5107064605
 20
23.5453478331
 30
0.0
 10
40.5948769982
 20
23.0551783184
 30
0.0
 10
40.5931568618
 20
22.8228335875
 30
0.0
  0
SPLINE
  5
513
100
AcDbEntity
  8
RACCORDO
100
AcDbSpline
 62
250
  6
CONTINUOUS
 70
0
 71
3
 72
11
 73
7
 74
0
 42
0.0000001
 43
0.0000001
 44
0.0000000001
 40
0.0
 40
0.0
 40
0.0
 40
0.0
 40
0.2371562538
 40
0.4999977323
 40
0.7628404689
 40
1.0
 40
1.0
 40
1.0
 40
1.0
 10
-1.8118094168
 20
31.367580058
 30
0.0
 10
-1.7315273901
 20
31.413933894
 30
0.0
 10
-1.5447713638
 20
31.4816097229
 30
0.0
 10
-1.2461261975
 20
31.5140434478
 30
0.0
 10
-0.9474796644
 20
31.4816105367
 30
0.0
 10
-0.760721703
 20
31.4139345346
 30
0.0
 10
-0.6804385669
 20
31.367580058
 30
0.0
  0
SPLINE
  5
514
100
AcDbEntity
  8
RACCORDO
100
AcDbSpline
 62
7
  6
CONTINUOUS
 70
0
 71
3
 72
13
 73
9
 74
0
 42
0.0000001
 43
0.0000001
 44
0.0000000001
 40
0.0
 40
0.0
 40
0.0
 40
0.0
 40
0.1198350124
 40
0.2396555536
 40
0.366478027
 40
0.4981684318
 40
0.7614855405
 40
1.0
 40
1.0
 40
1.0
 40
1.0
 10
2.8626338999
 20
28.5140732644
 30
0.0
 10
2.869318716
 20
28.5238832308
 30
0.0
 10
2.8674229467
 20
28.5507034153
 30
0.0
 10
2.8567678427
 20
28.5844198777
 30
0.0
 10
2.8407808575
 20
28.6187503654
 30
0.0
 10
2.8138027757
 20
28.6628265726
 30
0.0
 10
2.7733689139
 20
28.7113585094
 30
0.0
 10
2.7341358068
 20
28.74280826
 30
0.0
 10
2.7136739828
 20
28.7546226607
 30
0.0
  0
SPLINE
  5
515
100
AcDbEntity
  8
RACCORDO
100
AcDbSpline
 62
250
  6
CONTINUOUS
 70
0
 71
3
 72
9
 73
5
 74
0
 42
0.0000001
 43
0.0000001
 44
0.0000000001
 40
0.0
 40
0.0
 40
0.0
 40
0.0
 40
0.2598853925
 40
1.0
 40
1.0
 40
1.0
 40
1.0
 10
2.7136739828
 20
29.40786201
 30
0.0
 10
2.722750588
 20
29.4026212919
 30
0.0
 10
2.7572460448
 20
29.3817311115
 30
0.0
 10
2.7899781968
 20
29.357846326
 30
0.0
 10
2.8125890743
 20
29.3383615063
 30
0.0
  0
SPLINE
  5
516
100
AcDbEntity
  8
RACCORDO
100
AcDbSpline
 62
250
  6
CONTINUOUS
 70
0
 71
3
 72
13
 73
9
 74
0
 42
0.0000001
 43
0.0000001
 44
0.0000000001
 40
0.0
 40
0.0
 40
0.0
 40
0.0
 40
0.2541994067
 40
0.367629969
 40
0.4782924954
 40
0.5925623066
 40
0.7158692939
 40
1.0
 40
1.0
 40
1.0
 40
1.0
 10
2.8125890743
 20
29.3383615063
 30
0.0
 10
2.8586244808
 20
29.2986907063
 30
0.0
 10
2.9176574363
 20
29.2280906175
 30
0.0
 10
2.949723692
 20
29.1168051626
 30
0.0
 10
2.9480398201
 20
29.0346615782
 30
0.0
 10
2.9215105717
 20
28.9545553915
 30
0.0
 10
2.8522451192
 20
28.8495277887
 30
0.0
 10
2.7724985516
 20
28.7885872294
 30
0.0
 10
2.7136739828
 20
28.7546226607
 30
0.0
  0
SPLINE
  5
517
100
AcDbEntity
  8
RACCORDO
100
AcDbSpline
 62
250
  6
CONTINUOUS
 70
0
 71
3
 72
11
 73
7
 74
0
 42
0.0000001
 43
0.0000001
 44
0.0000000001
 40
0.0
 40
0.0
 40
0.0
 40
0.0
 40
0.2371562538
 40
0.4999977323
 40
0.7628404689
 40
1.0
 40
1.0
 40
1.0
 40
1.0
 10
-17.7217119935
 20
40.5537584078
 30
0.0
 10
-17.6414299668
 20
40.6001122439
 30
0.0
 10
-17.4546739405
 20
40.6677880728
 30
0.0
 10
-17.1560287742
 20
40.7002217976
 30
0.0
 10
-16.8573822411
 20
40.6677888865
 30
0.0
 10
-16.6706242797
 20
40.6001128845
 30
0.0
 10
-16.5903411436
 20
40.5537584078
 30
0.0
  0
SPLINE
  5
518
100
AcDbEntity
  8
RACCORDO
100
AcDbSpline
 62
250
  6
CONTINUOUS
 70
0
 71
3
 72
11
 73
7
 74
0
 42
0.0000001
 43
0.0000001
 44
0.0000000001
 40
0.0
 40
0.0
 40
0.0
 40
0.0
 40
0.2371562538
 40
0.4999977323
 40
0.7628404689
 40
1.0
 40
1.0
 40
1.0
 40
1.0
 10
14.0980931599
 20
22.1814017081
 30
0.0
 10
14.1783751866
 20
22.2277555441
 30
0.0
 10
14.3651312129
 20
22.2954313731
 30
0.0
 10
14.6637763792
 20
22.3278650979
 30
0.0
 10
14.9624229123
 20
22.2954321868
 30
0.0
 10
15.1491808737
 20
22.2277561847
 30
0.0
 10
15.2294640098
 20
22.1814017081
 30
0.0
  0
SPLINE
  5
519
100
AcDbEntity
  8
0
100
AcDbSpline
 62
7
  6
CONTINUOUS
 70
0
 71
3
 72
8
 73
4
 74
0
 42
0.0000001
 43
0.0000001
 44
0.0000000001
 40
0.0
 40
0.0
 40
0.0
 40
0.0
 40
1.0
 40
1.0
 40
1.0
 40
1.0
 10
-18.1152061565
 20
43.4782057767
 30
0.0
 10
-18.0946288723
 20
43.4875947771
 30
0.0
 10
-18.0722568519
 20
43.493563496
 30
0.0
 10
-18.0498017956
 20
43.4962742901
 30
0.0
  0
SPLINE
  5
51A
100
AcDbEntity
  8
0
100
AcDbSpline
 62
7
  6
CONTINUOUS
 70
0
 71
3
 72
9
 73
5
 74
0
 42
0.0000001
 43
0.0000001
 44
0.0000000001
 40
0.0
 40
0.0
 40
0.0
 40
0.0
 40
0.2370353493
 40
1.0
 40
1.0
 40
1.0
 40
1.0
 10
-18.0498017956
 20
43.4962742901
 30
0.0
 10
-18.030639541
 20
43.4985875743
 30
0.0
 10
-17.9485593848
 20
43.4986970437
 30
0.0
 10
-17.8695547969
 20
43.4670122542
 30
0.0
 10
-17.8157521511
 20
43.4359473743
 30
0.0
  0
SPLINE
  5
51B
100
AcDbEntity
  8
0
100
AcDbSpline
 62
7
  6
CONTINUOUS
 70
0
 71
3
 72
8
 73
4
 74
0
 42
0.0000001
 43
0.0000001
 44
0.0000000001
 40
0.0
 40
0.0
 40
0.0
 40
0.0
 40
1.0
 40
1.0
 40
1.0
 40
1.0
 10
-12.5266286726
 20
40.2494877636
 30
0.0
 10
-12.5060879263
 20
40.2591104118
 30
0.0
 10
-12.4836985075
 20
40.265300699
 30
0.0
 10
-12.4612003721
 20
40.2681905985
 30
0.0
  0
SPLINE
  5
51C
100
AcDbEntity
  8
0
100
AcDbSpline
 62
7
  6
CONTINUOUS
 70
0
 71
3
 72
9
 73
5
 74
0
 42
0.0000001
 43
0.0000001
 44
0.0000000001
 40
0.0
 40
0.0
 40
0.0
 40
0.0
 40
0.2369273909
 40
1.0
 40
1.0
 40
1.0
 40
1.0
 10
-12.4612003721
 20
40.2681905985
 30
0.0
 10
-12.4419229624
 20
40.2706667938
 30
0.0
 10
-12.3592158016
 20
40.2712698623
 30
0.0
 10
-12.2795151692
 20
40.239393544
 30
0.0
 10
-12.2253055381
 20
40.2080935671
 30
0.0
  0
SPLINE
  5
51D
100
AcDbEntity
  8
0
100
AcDbSpline
 62
7
  6
CONTINUOUS
 70
0
 71
3
 72
9
 73
5
 74
0
 42
0.0000001
 43
0.0000001
 44
0.0000000001
 40
0.0
 40
0.0
 40
0.0
 40
0.0
 40
0.5492696804
 40
1.0
 40
1.0
 40
1.0
 40
1.0
 10
25.3236224063
 20
19.1365853322
 30
0.0
 10
25.3634061151
 20
19.1603721002
 30
0.0
 10
25.4316763884
 20
19.2144145044
 30
0.0
 10
25.4639525862
 20
19.2990920251
 30
0.0
 10
25.4639522482
 20
19.3371288506
 30
0.0
  0
SPLINE
  5
51E
100
AcDbEntity
  8
0
100
AcDbSpline
 62
7
  6
CONTINUOUS
 70
0
 71
3
 72
11
 73
7
 74
0
 42
0.0000001
 43
0.0000001
 44
0.0000000001
 40
0.0
 40
0.0
 40
0.0
 40
0.0
 40
0.28947051
 40
0.5485983516
 40
0.7819107998
 40
1.0
 40
1.0
 40
1.0
 40
1.0
 10
-10.43439839
 20
40.5445957272
 30
0.0
 10
-10.3908199945
 20
40.5694646029
 30
0.0
 10
-10.3041948891
 20
40.6101828215
 30
0.0
 10
-10.1711338989
 20
40.6416403274
 30
0.0
 10
-10.0463556666
 20
40.6380814547
 30
0.0
 10
-9.9712252505
 20
40.6106774145
 30
0.0
 10
-9.9384879886
 20
40.5917754876
 30
0.0
  0
SPLINE
  5
51F
100
AcDbEntity
  8
0
100
AcDbSpline
 62
7
  6
CONTINUOUS
 70
0
 71
3
 72
11
 73
7
 74
0
 42
0.0000001
 43
0.0000001
 44
0.0000000001
 40
0.0
 40
0.0
 40
0.0
 40
0.0
 40
0.2897992873
 40
0.5490484732
 40
0.7822275275
 40
1.0
 40
1.0
 40
1.0
 40
1.0
 10
-13.9740460532
 20
42.5836861891
 30
0.0
 10
-13.9740460532
 20
42.6343661868
 30
0.0
 10
-13.9816993554
 20
42.7307152594
 30
0.0
 10
-14.0207601577
 20
42.8630829668
 30
0.0
 10
-14.0864188928
 20
42.9705077571
 30
0.0
 10
-14.1481474496
 20
43.0223802598
 30
0.0
 10
-14.1811286758
 20
43.0414230475
 30
0.0
  0
SPLINE
  5
520
100
AcDbEntity
  8
0
100
AcDbSpline
 62
7
  6
CONTINUOUS
 70
0
 71
3
 72
9
 73
5
 74
0
 42
0.0000001
 43
0.0000001
 44
0.0000000001
 40
0.0
 40
0.0
 40
0.0
 40
0.0
 40
0.4507303196
 40
1.0
 40
1.0
 40
1.0
 40
1.0
 10
-6.3558529052
 20
37.7094855504
 30
0.0
 10
-6.3558525672
 20
37.6714487248
 30
0.0
 10
-6.388128765
 20
37.5867712041
 30
0.0
 10
-6.4563990383
 20
37.5327288
 30
0.0
 10
-6.4961827471
 20
37.5089420319
 30
0.0
  0
SPLINE
  5
521
100
AcDbEntity
  8
0
100
AcDbSpline
 62
7
  6
CONTINUOUS
 70
0
 71
3
 72
11
 73
7
 74
0
 42
0.0000001
 43
0.0000001
 44
0.0000000001
 40
0.0
 40
0.0
 40
0.0
 40
0.0
 40
0.2897992873
 40
0.5490484732
 40
0.7822275275
 40
1.0
 40
1.0
 40
1.0
 40
1.0
 10
17.8457591002
 20
24.2113294893
 30
0.0
 10
17.8457591002
 20
24.262009487
 30
0.0
 10
17.838105798
 20
24.3583585596
 30
0.0
 10
17.7990449957
 20
24.4907262671
 30
0.0
 10
17.7333862606
 20
24.5981510574
 30
0.0
 10
17.6716577038
 20
24.6500235601
 30
0.0
 10
17.6386764776
 20
24.6690663478
 30
0.0
  0
SPLINE
  5
522
100
AcDbEntity
  8
0
100
AcDbSpline
 62
7
  6
CONTINUOUS
 70
0
 71
3
 72
11
 73
7
 74
0
 42
0.0000001
 43
0.0000001
 44
0.0000000001
 40
0.0
 40
0.0
 40
0.0
 40
0.0
 40
0.28947051
 40
0.5485983516
 40
0.7819107998
 40
1.0
 40
1.0
 40
1.0
 40
1.0
 10
21.3854067634
 20
22.1722390275
 30
0.0
 10
21.4289851589
 20
22.1971079031
 30
0.0
 10
21.5156102643
 20
22.2378261217
 30
0.0
 10
21.6486712545
 20
22.2692836277
 30
0.0
 10
21.7734494868
 20
22.265724755
 30
0.0
 10
21.8485799029
 20
22.2383207148
 30
0.0
 10
21.8813171648
 20
22.2194187878
 30
0.0
  0
SPLINE
  5
523
100
AcDbEntity
  8
0
100
AcDbSpline
 62
7
  6
CONTINUOUS
 70
0
 71
3
 72
8
 73
4
 74
0
 42
0.0000001
 43
0.0000001
 44
0.0000000001
 40
0.0
 40
0.0
 40
0.0
 40
0.0
 40
1.0
 40
1.0
 40
1.0
 40
1.0
 10
19.2931764808
 20
21.8771310639
 30
0.0
 10
19.3137258886
 20
21.8867577697
 30
0.0
 10
19.3361256018
 20
21.8929491589
 30
0.0
 10
19.3586335685
 20
21.8958375949
 30
0.0
  0
SPLINE
  5
524
100
AcDbEntity
  8
0
100
AcDbSpline
 62
7
  6
CONTINUOUS
 70
0
 71
3
 72
9
 73
5
 74
0
 42
0.0000001
 43
0.0000001
 44
0.0000000001
 40
0.0
 40
0.0
 40
0.0
 40
0.0
 40
0.2369291196
 40
1.0
 40
1.0
 40
1.0
 40
1.0
 10
19.3586335685
 20
21.8958375949
 30
0.0
 10
19.3779091974
 20
21.8983112266
 30
0.0
 10
19.4606065921
 20
21.8989065028
 30
0.0
 10
19.5402963389
 20
21.867033174
 30
0.0
 10
19.5944996153
 20
21.8357368673
 30
0.0
  0
SPLINE
  5
525
100
AcDbEntity
  8
0
100
AcDbSpline
 62
7
  6
CONTINUOUS
 70
0
 71
3
 72
8
 73
4
 74
0
 42
0.0000001
 43
0.0000001
 44
0.0000000001
 40
0.0
 40
0.0
 40
0.0
 40
0.0
 40
1.0
 40
1.0
 40
1.0
 40
1.0
 10
13.7045989969
 20
25.105849077
 30
0.0
 10
13.7251846122
 20
25.1152418786
 30
0.0
 10
13.7475664845
 20
25.1212115724
 30
0.0
 10
13.7700309392
 20
25.1239209185
 30
0.0
  0
SPLINE
  5
526
100
AcDbEntity
  8
0
100
AcDbSpline
 62
7
  6
CONTINUOUS
 70
0
 71
3
 72
9
 73
5
 74
0
 42
0.0000001
 43
0.0000001
 44
0.0000000001
 40
0.0
 40
0.0
 40
0.0
 40
0.0
 40
0.2370370188
 40
1.0
 40
1.0
 40
1.0
 40
1.0
 10
13.7700309392
 20
25.1239209185
 30
0.0
 10
13.789191465
 20
25.1262317912
 30
0.0
 10
13.8712622342
 20
25.126333964
 30
0.0
 10
13.9502564424
 20
25.0946520396
 30
0.0
 10
14.0040530023
 20
25.0635906744
 30
0.0
  0
SPLINE
  5
527
100
AcDbEntity
  8
0
100
AcDbSpline
 62
7
  6
CONTINUOUS
 70
0
 71
3
 72
10
 73
6
 74
0
 42
0.0000001
 43
0.0000001
 44
0.0000000001
 40
0.0
 40
0.0
 40
0.0
 40
0.0
 40
0.424203075
 40
0.698053422
 40
1.0
 40
1.0
 40
1.0
 40
1.0
 10
19.9008704029
 20
20.5934975083
 30
0.0
 10
19.9496249791
 20
20.6438744802
 30
0.0
 10
19.9775813272
 20
20.7709055188
 30
0.0
 10
19.9535325165
 20
20.9329285303
 30
0.0
 10
19.9216130035
 20
21.0238173647
 30
0.0
 10
19.9008704029
 20
21.0692032476
 30
0.0
  0
SPLINE
  5
528
100
AcDbEntity
  8
0
100
AcDbSpline
 62
7
  6
CONTINUOUS
 70
0
 71
3
 72
10
 73
6
 74
0
 42
0.0000001
 43
0.0000001
 44
0.0000000001
 40
0.0
 40
0.0
 40
0.0
 40
0.0
 40
0.424203075
 40
0.698053422
 40
1.0
 40
1.0
 40
1.0
 40
1.0
 10
-11.9189347505
 20
38.9658542081
 30
0.0
 10
-11.8701801743
 20
39.0162311799
 30
0.0
 10
-11.8422238262
 20
39.1432622185
 30
0.0
 10
-11.8662726369
 20
39.3052852301
 30
0.0
 10
-11.8981921499
 20
39.3961740645
 30
0.0
 10
-11.9189347505
 20
39.4415599473
 30
0.0
  0
SPLINE
  5
529
100
AcDbEntity
  8
RACCORDO
100
AcDbSpline
 62
250
  6
CONTINUOUS
 70
0
 71
3
 72
9
 73
5
 74
0
 42
0.0000001
 43
0.0000001
 44
0.0000000001
 40
0.0
 40
0.0
 40
0.0
 40
0.0
 40
0.4283183314
 40
1.0
 40
1.0
 40
1.0
 40
1.0
 10
-34.3394523968
 20
37.5820438846
 30
0.0
 10
-34.3223974835
 20
37.597626563
 30
0.0
 10
-34.2666524848
 20
37.6156327114
 30
0.0
 10
-34.2128335917
 20
37.6034627871
 30
0.0
 10
-34.1834882064
 20
37.5939973906
 30
0.0
  0
SPLINE
  5
52A
100
AcDbEntity
  8
RACCORDO
100
AcDbSpline
 62
250
  6
CONTINUOUS
 70
0
 71
3
 72
9
 73
5
 74
0
 42
0.0000001
 43
0.0000001
 44
0.0000000001
 40
0.0
 40
0.0
 40
0.0
 40
0.0
 40
0.232948176
 40
1.0
 40
1.0
 40
1.0
 40
1.0
 10
-34.1834882064
 20
37.5939973906
 30
0.0
 10
-34.1762378679
 20
37.5916587835
 30
0.0
 10
-34.1454170869
 20
37.5806820911
 30
0.0
 10
-34.1158306988
 20
37.5664049752
 30
0.0
 10
-34.093887192
 20
37.5542499298
 30
0.0
  0
SPLINE
  5
52B
100
AcDbEntity
  8
0
100
AcDbSpline
 62
250
  6
CONTINUOUS
 70
0
 71
3
 72
9
 73
5
 74
0
 42
0.0000001
 43
0.0000001
 44
0.0000000001
 40
0.0
 40
0.0
 40
0.0
 40
0.0
 40
0.2909924118
 40
1.0
 40
1.0
 40
1.0
 40
1.0
 10
-16.7932140757
 20
34.4194689902
 30
0.0
 10
-16.8031138621
 20
34.4251850028
 30
0.0
 10
-16.8355238048
 20
34.4467799744
 30
0.0
 10
-16.8617413987
 20
34.4822809273
 30
0.0
 10
-16.8656183151
 20
34.5098627525
 30
0.0
  0
SPLINE
  5
52C
100
AcDbEntity
  8
0
100
AcDbSpline
 62
250
  6
CONTINUOUS
 70
0
 71
3
 72
9
 73
5
 74
0
 42
0.0000001
 43
0.0000001
 44
0.0000000001
 40
0.0
 40
0.0
 40
0.0
 40
0.0
 40
0.5507325176
 40
1.0
 40
1.0
 40
1.0
 40
1.0
 10
-16.7932140757
 20
34.739989163
 30
0.0
 10
-16.8138823817
 20
34.7519227839
 30
0.0
 10
-16.8493934724
 20
34.7791132706
 30
0.0
 10
-16.8664265334
 20
34.822543753
 30
0.0
 10
-16.8664371099
 20
34.8420128339
 30
0.0
  0
SPLINE
  5
52D
100
AcDbEntity
  8
0
100
AcDbSpline
 62
250
  6
CONTINUOUS
 70
0
 71
3
 72
9
 73
5
 74
0
 42
0.0000001
 43
0.0000001
 44
0.0000000001
 40
0.0
 40
0.0
 40
0.0
 40
0.0
 40
0.4996213974
 40
1.0
 40
1.0
 40
1.0
 40
1.0
 10
-15.1146760053
 20
33.7708223182
 30
0.0
 10
-15.0624108719
 20
33.7406450852
 30
0.0
 10
-14.9385353214
 20
33.7166315694
 30
0.0
 10
-14.8146495657
 20
33.740270622
 30
0.0
 10
-14.7621540456
 20
33.7702302375
 30
0.0
  0
SPLINE
  5
52E
100
AcDbEntity
  8
0
100
AcDbSpline
 62
250
  6
CONTINUOUS
 70
0
 71
3
 72
9
 73
5
 74
0
 42
0.0000001
 43
0.0000001
 44
0.0000000001
 40
0.0
 40
0.0
 40
0.0
 40
0.0
 40
0.2302858567
 40
1.0
 40
1.0
 40
1.0
 40
1.0
 10
-15.1146760053
 20
33.4503021454
 30
0.0
 10
-15.1045108926
 20
33.4444329367
 30
0.0
 10
-15.0584790937
 20
33.4222495974
 30
0.0
 10
-15.0073274461
 20
33.4118463866
 30
0.0
 10
-14.9681916293
 20
33.4090876254
 30
0.0
  0
SPLINE
  5
52F
100
AcDbEntity
  8
0
100
AcDbSpline
 62
250
  6
CONTINUOUS
 70
0
 71
3
 72
9
 73
5
 74
0
 42
0.0000001
 43
0.0000001
 44
0.0000000001
 40
0.0
 40
0.0
 40
0.0
 40
0.0
 40
0.2661002356
 40
1.0
 40
1.0
 40
1.0
 40
1.0
 10
-14.8741316667
 20
33.412798676
 30
0.0
 10
-14.863762341
 20
33.4143781557
 30
0.0
 10
-14.8250776621
 20
33.421821976
 30
0.0
 10
-14.7872786267
 20
33.4353712642
 30
0.0
 10
-14.7621540456
 20
33.4497100647
 30
0.0
  0
SPLINE
  5
530
100
AcDbEntity
  8
0
100
AcDbSpline
 62
250
  6
CONTINUOUS
 70
0
 71
3
 72
9
 73
5
 74
0
 42
0.0000001
 43
0.0000001
 44
0.0000000001
 40
0.0
 40
0.0
 40
0.0
 40
0.0
 40
0.4996216404
 40
1.0
 40
1.0
 40
1.0
 40
1.0
 10
-27.4183339979
 20
40.8748002421
 30
0.0
 10
-27.3660688391
 20
40.8446229945
 30
0.0
 10
-27.2421932789
 20
40.8206094933
 30
0.0
 10
-27.1183075328
 20
40.8442485605
 30
0.0
 10
-27.0658120383
 20
40.8742081614
 30
0.0
  0
SPLINE
  5
531
100
AcDbEntity
  8
0
100
AcDbSpline
 62
250
  6
CONTINUOUS
 70
0
 71
3
 72
9
 73
5
 74
0
 42
0.0000001
 43
0.0000001
 44
0.0000000001
 40
0.0
 40
0.0
 40
0.0
 40
0.0
 40
0.2302852215
 40
1.0
 40
1.0
 40
1.0
 40
1.0
 10
-27.4183339979
 20
40.5542800693
 30
0.0
 10
-27.408168068
 20
40.5484103887
 30
0.0
 10
-27.3621322926
 20
40.5262254698
 30
0.0
 10
-27.3109760146
 20
40.5158224642
 30
0.0
 10
-27.271836828
 20
40.5130646478
 30
0.0
  0
SPLINE
  5
532
100
AcDbEntity
  8
0
100
AcDbSpline
 62
250
  6
CONTINUOUS
 70
0
 71
3
 72
9
 73
5
 74
0
 42
0.0000001
 43
0.0000001
 44
0.0000000001
 40
0.0
 40
0.0
 40
0.0
 40
0.0
 40
0.2660992735
 40
1.0
 40
1.0
 40
1.0
 40
1.0
 10
-27.1777698919
 20
40.5167796114
 30
0.0
 10
-27.1674024235
 20
40.5183593319
 30
0.0
 10
-27.1287245625
 20
40.5258036152
 30
0.0
 10
-27.0909324319
 20
40.539351578
 30
0.0
 10
-27.0658120383
 20
40.5536879886
 30
0.0
  0
SPLINE
  5
533
100
AcDbEntity
  8
RACCORDO
100
AcDbSpline
 62
250
  6
CONTINUOUS
 70
0
 71
3
 72
9
 73
5
 74
0
 42
0.0000001
 43
0.0000001
 44
0.0000000001
 40
0.0
 40
0.0
 40
0.0
 40
0.0
 40
0.4419576016
 40
1.0
 40
1.0
 40
1.0
 40
1.0
 10
-34.205896529
 20
37.686416107
 30
0.0
 10
-34.1730272896
 20
37.7081011426
 30
0.0
 10
-34.0776955049
 20
37.7248617691
 30
0.0
 10
-33.992600715
 20
37.6901702478
 30
0.0
 10
-33.9491558682
 20
37.6659890815
 30
0.0
  0
SPLINE
  5
534
100
AcDbEntity
  8
0
100
AcDbSpline
 62
250
  6
CONTINUOUS
 70
0
 71
3
 72
9
 73
5
 74
0
 42
0.0000001
 43
0.0000001
 44
0.0000000001
 40
0.0
 40
0.0
 40
0.0
 40
0.0
 40
0.2911735636
 40
1.0
 40
1.0
 40
1.0
 40
1.0
 10
-29.0968720684
 20
41.5234469141
 30
0.0
 10
-29.106812904
 20
41.529186628
 30
0.0
 10
-29.1393314482
 20
41.5508588372
 30
0.0
 10
-29.1655935768
 20
41.5865912503
 30
0.0
 10
-29.1693373278
 20
41.6142832455
 30
0.0
  0
SPLINE
  5
535
100
AcDbEntity
  8
0
100
AcDbSpline
 62
250
  6
CONTINUOUS
 70
0
 71
3
 72
9
 73
5
 74
0
 42
0.0000001
 43
0.0000001
 44
0.0000000001
 40
0.0
 40
0.0
 40
0.0
 40
0.0
 40
0.5507325176
 40
1.0
 40
1.0
 40
1.0
 40
1.0
 10
-29.0968720684
 20
41.8439670869
 30
0.0
 10
-29.1175403744
 20
41.8559007078
 30
0.0
 10
-29.153051465
 20
41.8830911945
 30
0.0
 10
-29.170084526
 20
41.9265216769
 30
0.0
 10
-29.1700951025
 20
41.9459907578
 30
0.0
  0
SPLINE
  5
536
100
AcDbEntity
  8
0
100
AcDbSpline
 62
7
  6
CONTINUOUS
 70
0
 71
3
 72
9
 73
5
 74
0
 42
0.0000001
 43
0.0000001
 44
0.0000000001
 40
0.0
 40
0.0
 40
0.0
 40
0.0
 40
0.2405737399
 40
1.0
 40
1.0
 40
1.0
 40
1.0
 10
5.1837139131
 20
21.9769087908
 30
0.0
 10
5.2093976638
 20
21.9745519915
 30
0.0
 10
5.3177585327
 20
21.9846809013
 30
0.0
 10
5.4145859058
 20
22.0523368335
 30
0.0
 10
5.4658319413
 20
22.1156030851
 30
0.0
  0
SPLINE
  5
537
100
AcDbEntity
  8
0
100
AcDbSpline
 62
250
  6
CONTINUOUS
 70
0
 71
3
 72
9
 73
5
 74
0
 42
0.0000001
 43
0.0000001
 44
0.0000000001
 40
0.0
 40
0.0
 40
0.0
 40
0.0
 40
0.4497475774
 40
1.0
 40
1.0
 40
1.0
 40
1.0
 10
19.2593966693
 20
16.4012749658
 30
0.0
 10
19.2593967507
 20
16.3819522566
 30
0.0
 10
19.2426712139
 20
16.3388701237
 30
0.0
 10
19.207612231
 20
16.3117260999
 30
0.0
 10
19.1871990703
 20
16.2998018528
 30
0.0
  0
SPLINE
  5
538
100
AcDbEntity
  8
0
100
AcDbSpline
 62
250
  6
CONTINUOUS
 70
0
 71
3
 72
9
 73
5
 74
0
 42
0.0000001
 43
0.0000001
 44
0.0000000001
 40
0.0
 40
0.0
 40
0.0
 40
0.0
 40
0.4497477727
 40
1.0
 40
1.0
 40
1.0
 40
1.0
 10
19.2593966691
 20
16.7289202663
 30
0.0
 10
19.259396747
 20
16.7095975486
 30
0.0
 10
19.2426712109
 20
16.6665154147
 30
0.0
 10
19.2076122239
 20
16.6393713962
 30
0.0
 10
19.1871990703
 20
16.6274471533
 30
0.0
  0
SPLINE
  5
539
100
AcDbEntity
  8
0
100
AcDbSpline
 62
7
  6
CONTINUOUS
 70
0
 71
3
 72
9
 73
5
 74
0
 42
0.0000001
 43
0.0000001
 44
0.0000000001
 40
0.0
 40
0.0
 40
0.0
 40
0.0
 40
0.2405737399
 40
1.0
 40
1.0
 40
1.0
 40
1.0
 10
17.4873719057
 20
14.8729308669
 30
0.0
 10
17.5130556565
 20
14.8705740676
 30
0.0
 10
17.6214165254
 20
14.8807029774
 30
0.0
 10
17.7182438985
 20
14.9483589096
 30
0.0
 10
17.7694899339
 20
15.0116251612
 30
0.0
  0
SPLINE
  5
53A
100
AcDbEntity
  8
0
100
AcDbSpline
 62
250
  6
CONTINUOUS
 70
0
 71
3
 72
9
 73
5
 74
0
 42
0.0000001
 43
0.0000001
 44
0.0000000001
 40
0.0
 40
0.0
 40
0.0
 40
0.0
 40
0.4497475774
 40
1.0
 40
1.0
 40
1.0
 40
1.0
 10
6.9557386767
 20
23.5052528897
 30
0.0
 10
6.9557387581
 20
23.4859301805
 30
0.0
 10
6.9390132212
 20
23.4428480476
 30
0.0
 10
6.9039542384
 20
23.4157040238
 30
0.0
 10
6.8835410777
 20
23.4037797767
 30
0.0
  0
SPLINE
  5
53B
100
AcDbEntity
  8
0
100
AcDbSpline
 62
250
  6
CONTINUOUS
 70
0
 71
3
 72
9
 73
5
 74
0
 42
0.0000001
 43
0.0000001
 44
0.0000000001
 40
0.0
 40
0.0
 40
0.0
 40
0.0
 40
0.4497477727
 40
1.0
 40
1.0
 40
1.0
 40
1.0
 10
6.9557386765
 20
23.8328981902
 30
0.0
 10
6.9557387544
 20
23.8135754725
 30
0.0
 10
6.9390132182
 20
23.7704933386
 30
0.0
 10
6.9039542312
 20
23.7433493201
 30
0.0
 10
6.8835410777
 20
23.7314250772
 30
0.0
  0
SPLINE
  5
53C
100
AcDbEntity
  8
0
100
AcDbSpline
 62
250
  6
CONTINUOUS
 70
0
 71
3
 72
9
 73
5
 74
0
 42
0.0000001
 43
0.0000001
 44
0.0000000001
 40
0.0
 40
0.0
 40
0.0
 40
0.0
 40
0.2325476758
 40
1.0
 40
1.0
 40
1.0
 40
1.0
 10
-16.7932140757
 20
34.739989163
 30
0.0
 10
-16.7932140757
 20
34.7491410987
 30
0.0
 10
-16.790920014
 20
34.7884907556
 30
0.0
 10
-16.780588224
 20
34.8271272675
 30
0.0
 10
-16.7696949797
 20
34.8552976066
 30
0.0
  0
SPLINE
  5
53D
100
AcDbEntity
  8
0
100
AcDbSpline
 62
250
  6
CONTINUOUS
 70
0
 71
3
 72
9
 73
5
 74
0
 42
0.0000001
 43
0.0000001
 44
0.0000000001
 40
0.0
 40
0.0
 40
0.0
 40
0.0
 40
0.2542516813
 40
1.0
 40
1.0
 40
1.0
 40
1.0
 10
-16.7653455771
 20
34.866084716
 30
0.0
 10
-16.7596470402
 20
34.8796593914
 30
0.0
 10
-16.7344098693
 20
34.9317832944
 30
0.0
 10
-16.6987640257
 20
34.9791601036
 30
0.0
 10
-16.6670201725
 20
35.0084349416
 30
0.0
  0
SPLINE
  5
53E
100
AcDbEntity
  8
0
100
AcDbSpline
 62
250
  6
CONTINUOUS
 70
0
 71
3
 72
8
 73
4
 74
0
 42
0.0000001
 43
0.0000001
 44
0.0000000001
 40
0.0
 40
0.0
 40
0.0
 40
0.0
 40
1.0
 40
1.0
 40
1.0
 40
1.0
 10
-16.6670201725
 20
35.0084349416
 30
0.0
 10
-16.6542349795
 20
35.020225711
 30
0.0
 10
-16.6404871689
 20
35.0310993629
 30
0.0
 10
-16.6258308831
 20
35.0404629461
 30
0.0
  0
SPLINE
  5
53F
100
AcDbEntity
  8
0
100
AcDbSpline
 62
250
  6
CONTINUOUS
 70
0
 71
3
 72
9
 73
5
 74
0
 42
0.0000001
 43
0.0000001
 44
0.0000000001
 40
0.0
 40
0.0
 40
0.0
 40
0.0
 40
0.4996151883
 40
1.0
 40
1.0
 40
1.0
 40
1.0
 10
-15.1146760053
 20
33.7708223182
 30
0.0
 10
-15.1146760053
 20
33.8311727998
 30
0.0
 10
-15.0735314482
 20
33.9504566856
 30
0.0
 10
-14.9911199839
 20
34.0459255229
 30
0.0
 10
-14.9389277493
 20
34.0764112734
 30
0.0
  0
SPLINE
  5
540
100
AcDbEntity
  8
0
100
AcDbSpline
 62
250
  6
CONTINUOUS
 70
0
 71
3
 72
9
 73
5
 74
0
 42
0.0000001
 43
0.0000001
 44
0.0000000001
 40
0.0
 40
0.0
 40
0.0
 40
0.0
 40
0.2325476758
 40
1.0
 40
1.0
 40
1.0
 40
1.0
 10
-29.0968720684
 20
41.8439670869
 30
0.0
 10
-29.0968720684
 20
41.8531190226
 30
0.0
 10
-29.0945780067
 20
41.8924686796
 30
0.0
 10
-29.0842462167
 20
41.9311051914
 30
0.0
 10
-29.0733529724
 20
41.9592755305
 30
0.0
  0
SPLINE
  5
541
100
AcDbEntity
  8
0
100
AcDbSpline
 62
250
  6
CONTINUOUS
 70
0
 71
3
 72
9
 73
5
 74
0
 42
0.0000001
 43
0.0000001
 44
0.0000000001
 40
0.0
 40
0.0
 40
0.0
 40
0.0
 40
0.2542516813
 40
1.0
 40
1.0
 40
1.0
 40
1.0
 10
-29.0690035698
 20
41.9700626399
 30
0.0
 10
-29.0633050329
 20
41.9836373153
 30
0.0
 10
-29.0380678619
 20
42.0357612183
 30
0.0
 10
-29.0024220183
 20
42.0831380275
 30
0.0
 10
-28.9706781652
 20
42.1124128655
 30
0.0
  0
SPLINE
  5
542
100
AcDbEntity
  8
0
100
AcDbSpline
 62
250
  6
CONTINUOUS
 70
0
 71
3
 72
8
 73
4
 74
0
 42
0.0000001
 43
0.0000001
 44
0.0000000001
 40
0.0
 40
0.0
 40
0.0
 40
0.0
 40
1.0
 40
1.0
 40
1.0
 40
1.0
 10
-28.9706781652
 20
42.1124128655
 30
0.0
 10
-28.9578929721
 20
42.1242036349
 30
0.0
 10
-28.9441451616
 20
42.1350772868
 30
0.0
 10
-28.9294888758
 20
42.14444087
 30
0.0
  0
SPLINE
  5
543
100
AcDbEntity
  8
0
100
AcDbSpline
 62
250
  6
CONTINUOUS
 70
0
 71
3
 72
9
 73
5
 74
0
 42
0.0000001
 43
0.0000001
 44
0.0000000001
 40
0.0
 40
0.0
 40
0.0
 40
0.0
 40
0.499615312
 40
1.0
 40
1.0
 40
1.0
 40
1.0
 10
-27.4183339979
 20
40.8748002421
 30
0.0
 10
-27.4183339979
 20
40.9351507386
 30
0.0
 10
-27.3771894317
 20
41.0544346249
 30
0.0
 10
-27.2947779636
 20
41.1499034544
 30
0.0
 10
-27.242585742
 20
41.1803891973
 30
0.0
  0
SPLINE
  5
544
100
AcDbEntity
  8
0
100
AcDbSpline
 62
250
  6
CONTINUOUS
 70
0
 71
3
 72
9
 73
5
 74
0
 42
0.0000001
 43
0.0000001
 44
0.0000000001
 40
0.0
 40
0.0
 40
0.0
 40
0.0
 40
0.2208663963
 40
1.0
 40
1.0
 40
1.0
 40
1.0
 10
17.4342676447
 20
17.9263212982
 30
0.0
 10
17.4262374012
 20
17.9297173845
 30
0.0
 10
17.3872871412
 20
17.9393676117
 30
0.0
 10
17.3462589208
 20
17.9251652136
 30
0.0
 10
17.3195458155
 20
17.9099208503
 30
0.0
  0
SPLINE
  5
545
100
AcDbEntity
  8
0
100
AcDbSpline
 62
250
  6
CONTINUOUS
 70
0
 71
3
 72
9
 73
5
 74
0
 42
0.0000001
 43
0.0000001
 44
0.0000000001
 40
0.0
 40
0.0
 40
0.0
 40
0.0
 40
0.2208663963
 40
1.0
 40
1.0
 40
1.0
 40
1.0
 10
5.1306096521
 20
25.0302992222
 30
0.0
 10
5.1225794086
 20
25.0336953084
 30
0.0
 10
5.0836291486
 20
25.0433455356
 30
0.0
 10
5.0426009281
 20
25.0291431375
 30
0.0
 10
5.0158878229
 20
25.0138987742
 30
0.0
  0
SPLINE
  5
546
100
AcDbEntity
  8
0
100
AcDbSpline
 62
7
  6
CONTINUOUS
 70
0
 71
3
 72
11
 73
7
 74
0
 42
0.0000001
 43
0.0000001
 44
0.0000000001
 40
0.0
 40
0.0
 40
0.0
 40
0.0
 40
0.2180892002
 40
0.4514016484
 40
0.71052949
 40
1.0
 40
1.0
 40
1.0
 40
1.0
 10
17.6386764776
 20
24.6690663478
 30
0.0
 10
17.6059392157
 20
24.6879682748
 30
0.0
 10
17.5308087997
 20
24.715372315
 30
0.0
 10
17.4060305674
 20
24.7189311876
 30
0.0
 10
17.2729695772
 20
24.6874736817
 30
0.0
 10
17.1863444718
 20
24.6467554631
 30
0.0
 10
17.1427660763
 20
24.6218865874
 30
0.0
  0
SPLINE
  5
547
100
AcDbEntity
  8
RACCORDO
100
AcDbSpline
 62
250
  6
CONTINUOUS
 70
0
 71
3
 72
9
 73
5
 74
0
 42
0.0000001
 43
0.0000001
 44
0.0000000001
 40
0.0
 40
0.0
 40
0.0
 40
0.0
 40
0.2414728088
 40
1.0
 40
1.0
 40
1.0
 40
1.0
 10
-32.8316427088
 20
2.6510023299
 30
0.0
 10
-32.8467091745
 20
2.6597026624
 30
0.0
 10
-32.906291018
 20
2.700654098
 30
0.0
 10
-32.9512742708
 20
2.7608379969
 30
0.0
 10
-32.9756075536
 20
2.8097738453
 30
0.0
  0
SPLINE
  5
548
100
AcDbEntity
  8
0
100
AcDbSpline
 62
7
  6
CONTINUOUS
 70
0
 71
3
 72
11
 73
7
 74
0
 42
0.0000001
 43
0.0000001
 44
0.0000000001
 40
0.0
 40
0.0
 40
0.0
 40
0.0
 40
0.2180892002
 40
0.4514016484
 40
0.71052949
 40
1.0
 40
1.0
 40
1.0
 40
1.0
 10
-14.1811286758
 20
43.0414230475
 30
0.0
 10
-14.2138659377
 20
43.0603249745
 30
0.0
 10
-14.2889963537
 20
43.0877290147
 30
0.0
 10
-14.413774586
 20
43.0912878874
 30
0.0
 10
-14.5468355762
 20
43.0598303814
 30
0.0
 10
-14.6334606816
 20
43.0191121628
 30
0.0
 10
-14.6770390771
 20
42.9942432872
 30
0.0
  0
SPLINE
  5
549
100
AcDbEntity
  8
0
100
AcDbSpline
 62
250
  6
CONTINUOUS
 70
0
 71
3
 72
9
 73
5
 74
0
 42
0.0000001
 43
0.0000001
 44
0.0000000001
 40
0.0
 40
0.0
 40
0.0
 40
0.0
 40
0.449755478
 40
1.0
 40
1.0
 40
1.0
 40
1.0
 10
-24.8640664852
 20
42.2052172012
 30
0.0
 10
-24.8640751296
 20
42.1858995458
 30
0.0
 10
-24.8808084086
 20
42.1428373712
 30
0.0
 10
-24.9158569036
 20
42.1157025258
 30
0.0
 10
-24.9362640757
 20
42.1037817769
 30
0.0
  0
SPLINE
  5
54A
100
AcDbEntity
  8
0
100
AcDbSpline
 62
250
  6
CONTINUOUS
 70
0
 71
3
 72
9
 73
5
 74
0
 42
0.0000001
 43
0.0000001
 44
0.0000000001
 40
0.0
 40
0.0
 40
0.0
 40
0.0
 40
0.4497324226
 40
1.0
 40
1.0
 40
1.0
 40
1.0
 10
-24.9890603077
 20
42.4217575301
 30
0.0
 10
-25.0057936029
 20
42.431419217
 30
0.0
 10
-25.051468233
 20
42.4384739087
 30
0.0
 10
-25.0925043327
 20
42.4216806314
 30
0.0
 10
-25.1130377794
 20
42.4099628128
 30
0.0
  0
SPLINE
  5
54B
100
AcDbEntity
  8
0
100
AcDbSpline
 62
250
  6
CONTINUOUS
 70
0
 71
3
 72
9
 73
5
 74
0
 42
0.0000001
 43
0.0000001
 44
0.0000000001
 40
0.0
 40
0.0
 40
0.0
 40
0.0
 40
0.2208663963
 40
1.0
 40
1.0
 40
1.0
 40
1.0
 10
-26.6891955013
 20
43.4026559219
 30
0.0
 10
-26.6972257448
 20
43.4060520081
 30
0.0
 10
-26.7361760048
 20
43.4157022354
 30
0.0
 10
-26.7772042253
 20
43.4014998372
 30
0.0
 10
-26.8039173305
 20
43.3862554739
 30
0.0
  0
SPLINE
  5
54C
100
AcDbEntity
  8
0
100
AcDbSpline
 62
250
  6
CONTINUOUS
 70
0
 71
3
 72
9
 73
5
 74
0
 42
0.0000001
 43
0.0000001
 44
0.0000000001
 40
0.0
 40
0.0
 40
0.0
 40
0.0
 40
0.4497324226
 40
1.0
 40
1.0
 40
1.0
 40
1.0
 10
-12.685402315
 20
35.3177796062
 30
0.0
 10
-12.7021356102
 20
35.3274412931
 30
0.0
 10
-12.7478102404
 20
35.3344959848
 30
0.0
 10
-12.7888463401
 20
35.3177027075
 30
0.0
 10
-12.8093797867
 20
35.3059848889
 30
0.0
  0
SPLINE
  5
54D
100
AcDbEntity
  8
0
100
AcDbSpline
 62
250
  6
CONTINUOUS
 70
0
 71
3
 72
9
 73
5
 74
0
 42
0.0000001
 43
0.0000001
 44
0.0000000001
 40
0.0
 40
0.0
 40
0.0
 40
0.0
 40
0.220864927
 40
1.0
 40
1.0
 40
1.0
 40
1.0
 10
-14.3854587109
 20
36.2986446266
 30
0.0
 10
-14.3934909426
 20
36.302051153
 30
0.0
 10
-14.4324612104
 20
36.3117418082
 30
0.0
 10
-14.4735279209
 20
36.2975323633
 30
0.0
 10
-14.5002593379
 20
36.28227755
 30
0.0
  0
SPLINE
  5
54E
100
AcDbEntity
  8
0
100
AcDbSpline
 62
250
  6
CONTINUOUS
 70
0
 71
3
 72
9
 73
5
 74
0
 42
0.0000001
 43
0.0000001
 44
0.0000000001
 40
0.0
 40
0.0
 40
0.0
 40
0.0
 40
0.4497476902
 40
1.0
 40
1.0
 40
1.0
 40
1.0
 10
-24.8640664768
 20
41.8776095894
 30
0.0
 10
-24.8640663976
 20
41.8582868753
 30
0.0
 10
-24.8807919338
 20
41.8152047418
 30
0.0
 10
-24.9158509191
 20
41.7880607211
 30
0.0
 10
-24.9362640757
 20
41.7761364764
 30
0.0
  0
SPLINE
  5
54F
100
AcDbEntity
  8
0
100
AcDbSpline
 62
250
  6
CONTINUOUS
 70
0
 71
3
 72
9
 73
5
 74
0
 42
0.0000001
 43
0.0000001
 44
0.0000000001
 40
0.0
 40
0.0
 40
0.0
 40
0.0
 40
0.4498754841
 40
1.0
 40
1.0
 40
1.0
 40
1.0
 10
19.2593944991
 20
-22.5357128738
 30
0.0
 10
19.2592556977
 20
-22.5549544066
 30
0.0
 10
19.2424082024
 20
-22.5977180734
 30
0.0
 10
19.2075164989
 20
-22.6247156086
 30
0.0
 10
19.1871990703
 20
-22.6365839343
 30
0.0
  0
SPLINE
  5
550
100
AcDbEntity
  8
RACCORDO
100
AcDbSpline
 62
250
  6
CONTINUOUS
 70
0
 71
3
 72
9
 73
5
 74
0
 42
0.0000001
 43
0.0000001
 44
0.0000000001
 40
0.0
 40
0.0
 40
0.0
 40
0.0
 40
0.2460038084
 40
1.0
 40
1.0
 40
1.0
 40
1.0
 10
-33.1008220561
 20
2.9406800373
 30
0.0
 10
-33.0941483408
 20
2.9272725172
 30
0.0
 10
-33.0628601762
 20
2.8748612058
 30
0.0
 10
-33.0152887877
 20
2.8328496365
 30
0.0
 10
-32.9756074764
 20
2.8097739298
 30
0.0
  0
SPLINE
  5
551
100
AcDbEntity
  8
0
100
AcDbSpline
 62
250
  6
CONTINUOUS
 70
0
 71
3
 72
9
 73
5
 74
0
 42
0.0000001
 43
0.0000001
 44
0.0000000001
 40
0.0
 40
0.0
 40
0.0
 40
0.0
 40
0.4497476902
 40
1.0
 40
1.0
 40
1.0
 40
1.0
 10
-12.5604084842
 20
34.7736316655
 30
0.0
 10
-12.5604084049
 20
34.7543089514
 30
0.0
 10
-12.5771339411
 20
34.7112268179
 30
0.0
 10
-12.6121929265
 20
34.6840827972
 30
0.0
 10
-12.6326060831
 20
34.6721585525
 30
0.0
  0
SPLINE
  5
552
100
AcDbEntity
  8
0
100
AcDbSpline
 62
7
  6
CONTINUOUS
 70
0
 71
3
 72
9
 73
5
 74
0
 42
0.0000001
 43
0.0000001
 44
0.0000000001
 40
0.0
 40
0.0
 40
0.0
 40
0.0
 40
0.4996151883
 40
1.0
 40
1.0
 40
1.0
 40
1.0
 10
-23.1664342086
 20
39.6947566982
 30
0.0
 10
-23.1664342086
 20
39.743037083
 30
0.0
 10
-23.1335185525
 20
39.8384641861
 30
0.0
 10
-23.0675893911
 20
39.9148392622
 30
0.0
 10
-23.0258356038
 20
39.9392278624
 30
0.0
  0
SPLINE
  5
553
100
AcDbEntity
  8
0
100
AcDbSpline
 62
250
  6
CONTINUOUS
 70
0
 71
3
 72
9
 73
5
 74
0
 42
0.0000001
 43
0.0000001
 44
0.0000000001
 40
0.0
 40
0.0
 40
0.0
 40
0.0
 40
0.4996153153
 40
1.0
 40
1.0
 40
1.0
 40
1.0
 10
-21.5400886119
 20
38.7557251335
 30
0.0
 10
-21.5400886119
 20
38.804005531
 30
0.0
 10
-21.5071729587
 20
38.8994326401
 30
0.0
 10
-21.4412437842
 20
38.9758077035
 30
0.0
 10
-21.3994900071
 20
39.0001962977
 30
0.0
  0
SPLINE
  5
554
100
AcDbEntity
  8
0
100
AcDbSpline
 62
7
  6
CONTINUOUS
 70
0
 71
3
 72
9
 73
5
 74
0
 42
0.0000001
 43
0.0000001
 44
0.0000000001
 40
0.0
 40
0.0
 40
0.0
 40
0.0
 40
0.2663191477
 40
1.0
 40
1.0
 40
1.0
 40
1.0
 10
-16.8264968453
 20
41.2339226881
 30
0.0
 10
-16.7849174478
 20
41.2274899185
 30
0.0
 10
-16.6299494698
 20
41.1972627873
 30
0.0
 10
-16.4785881145
 20
41.1424413948
 30
0.0
 10
-16.3782091092
 20
41.0844838152
 30
0.0
  0
SPLINE
  5
555
100
AcDbEntity
  8
0
100
AcDbSpline
 62
250
  6
CONTINUOUS
 70
0
 71
3
 72
9
 73
5
 74
0
 42
0.0000001
 43
0.0000001
 44
0.0000000001
 40
0.0
 40
0.0
 40
0.0
 40
0.0
 40
0.2372071957
 40
1.0
 40
1.0
 40
1.0
 40
1.0
 10
-19.843032337
 20
37.7758661095
 30
0.0
 10
-19.843032337
 20
37.7804715835
 30
0.0
 10
-19.8423195506
 20
37.7998855006
 30
0.0
 10
-19.8389720691
 20
37.8191597608
 30
0.0
 10
-19.835318711
 20
37.8335120101
 30
0.0
  0
SPLINE
  5
556
100
AcDbEntity
  8
0
100
AcDbSpline
 62
250
  6
CONTINUOUS
 70
0
 71
3
 72
9
 73
5
 74
0
 42
0.0000001
 43
0.0000001
 44
0.0000000001
 40
0.0
 40
0.0
 40
0.0
 40
0.0
 40
0.2429575947
 40
1.0
 40
1.0
 40
1.0
 40
1.0
 10
-19.835318711
 20
37.8335120101
 30
0.0
 10
-19.8336557007
 20
37.8400451605
 30
0.0
 10
-19.8258489933
 20
37.8666850488
 30
0.0
 10
-19.8144696059
 20
37.8922459644
 30
0.0
 10
-19.8042484567
 20
37.9105976519
 30
0.0
  0
SPLINE
  5
557
100
AcDbEntity
  8
0
100
AcDbSpline
 62
250
  6
CONTINUOUS
 70
0
 71
3
 72
9
 73
5
 74
0
 42
0.0000001
 43
0.0000001
 44
0.0000000001
 40
0.0
 40
0.0
 40
0.0
 40
0.0
 40
0.2667693943
 40
1.0
 40
1.0
 40
1.0
 40
1.0
 10
-19.8042484567
 20
37.9105976519
 30
0.0
 10
-19.79773247
 20
37.9222968599
 30
0.0
 10
-19.7708379385
 20
37.9645896617
 30
0.0
 10
-19.7342161678
 20
38.001772991
 30
0.0
 10
-19.7024337322
 20
38.0203372737
 30
0.0
  0
SPLINE
  5
558
100
AcDbEntity
  8
0
100
AcDbSpline
 62
250
  6
CONTINUOUS
 70
0
 71
3
 72
9
 73
5
 74
0
 42
0.0000001
 43
0.0000001
 44
0.0000000001
 40
0.0
 40
0.0
 40
0.0
 40
0.0
 40
0.449755478
 40
1.0
 40
1.0
 40
1.0
 40
1.0
 10
-12.5604084925
 20
35.1012392773
 30
0.0
 10
-12.5604171369
 20
35.0819216219
 30
0.0
 10
-12.577150416
 20
35.0388594473
 30
0.0
 10
-12.6121989109
 20
35.0117246019
 30
0.0
 10
-12.6326060831
 20
34.999803853
 30
0.0
  0
SPLINE
  5
559
100
AcDbEntity
  8
0
100
AcDbSpline
 62
7
  6
CONTINUOUS
 70
0
 71
3
 72
12
 73
8
 74
0
 42
0.0000001
 43
0.0000001
 44
0.0000000001
 40
0.0
 40
0.0
 40
0.0
 40
0.0
 40
0.0220018919
 40
0.0691158497
 40
0.2504041033
 40
0.5599990344
 40
1.0
 40
1.0
 40
1.0
 40
1.0
 10
-17.3440824765
 20
43.1636112179
 30
0.0
 10
-17.3449978235
 20
43.1641397335
 30
0.0
 10
-17.3486286948
 20
43.1633889405
 30
0.0
 10
-17.3597693697
 20
43.1602567075
 30
0.0
 10
-17.3840076088
 20
43.1498462965
 30
0.0
 10
-17.4245457068
 20
43.1317441607
 30
0.0
 10
-17.4572347719
 20
43.116377004
 30
0.0
 10
-17.4763761409
 20
43.1074099169
 30
0.0
  0
SPLINE
  5
55A
100
AcDbEntity
  8
0
100
AcDbSpline
 62
7
  6
CONTINUOUS
 70
0
 71
3
 72
12
 73
8
 74
0
 42
0.0000001
 43
0.0000001
 44
0.0000000001
 40
0.0
 40
0.0
 40
0.0
 40
0.0
 40
0.0220787779
 40
0.069240157
 40
0.2505100375
 40
0.5599511372
 40
1.0
 40
1.0
 40
1.0
 40
1.0
 10
-11.7536358676
 20
39.9357574082
 30
0.0
 10
-11.7545413573
 20
39.9362801889
 30
0.0
 10
-11.7581265963
 20
39.9355503915
 30
0.0
 10
-11.7691203542
 20
39.9324703066
 30
0.0
 10
-11.7930131077
 20
39.9222332463
 30
0.0
 10
-11.8329780438
 20
39.9044047486
 30
0.0
 10
-11.8651996381
 20
39.8892656083
 30
0.0
 10
-11.8840712414
 20
39.8804265712
 30
0.0
  0
SPLINE
  5
55B
100
AcDbEntity
  8
0
100
AcDbSpline
 62
250
  6
CONTINUOUS
 70
0
 71
3
 72
9
 73
5
 74
0
 42
0.0000001
 43
0.0000001
 44
0.0000000001
 40
0.0
 40
0.0
 40
0.0
 40
0.0
 40
0.550742017
 40
1.0
 40
1.0
 40
1.0
 40
1.0
 10
-19.843032337
 20
37.7758661095
 30
0.0
 10
-19.8595727211
 20
37.78541632
 30
0.0
 10
-19.8879916227
 20
37.8071774134
 30
0.0
 10
-19.9016107706
 20
37.8419409532
 30
0.0
 10
-19.9016107706
 20
37.8575210282
 30
0.0
  0
SPLINE
  5
55C
100
AcDbEntity
  8
0
100
AcDbSpline
 62
7
  6
CONTINUOUS
 70
0
 71
3
 72
12
 73
8
 74
0
 42
0.0000001
 43
0.0000001
 44
0.0000000001
 40
0.0
 40
0.0
 40
0.0
 40
0.0
 40
0.0220018991
 40
0.0691158726
 40
0.2504042248
 40
0.5599992244
 40
1.0
 40
1.0
 40
1.0
 40
1.0
 10
14.475722677
 20
24.7912545182
 30
0.0
 10
14.4748073299
 20
24.7917830343
 30
0.0
 10
14.4711764571
 20
24.7910322399
 30
0.0
 10
14.4600357773
 20
24.7879000065
 30
0.0
 10
14.4357975299
 20
24.7774895894
 30
0.0
 10
14.3952594332
 20
24.7593874548
 30
0.0
 10
14.3625703733
 20
24.7440203004
 30
0.0
 10
14.3434290125
 20
24.7350532171
 30
0.0
  0
SPLINE
  5
55D
100
AcDbEntity
  8
0
100
AcDbSpline
 62
250
  6
CONTINUOUS
 70
0
 71
3
 72
9
 73
5
 74
0
 42
0.0000001
 43
0.0000001
 44
0.0000000001
 40
0.0
 40
0.0
 40
0.0
 40
0.0
 40
0.5516788361
 40
1.0
 40
1.0
 40
1.0
 40
1.0
 10
-19.7024337322
 20
38.0203372737
 30
0.0
 10
-19.7190143023
 20
38.0299106871
 30
0.0
 10
-19.752072736
 20
38.043693566
 30
0.0
 10
-19.7890495453
 20
38.0380659454
 30
0.0
 10
-19.8024845075
 20
38.0302185896
 30
0.0
  0
SPLINE
  5
55E
100
AcDbEntity
  8
0
100
AcDbSpline
 62
7
  6
CONTINUOUS
 70
0
 71
3
 72
12
 73
8
 74
0
 42
0.0000001
 43
0.0000001
 44
0.0000000001
 40
0.0
 40
0.0
 40
0.0
 40
0.0
 40
0.0220787851
 40
0.0692401797
 40
0.2505101545
 40
0.5599513195
 40
1.0
 40
1.0
 40
1.0
 40
1.0
 10
20.0661692859
 20
21.5634007086
 30
0.0
 10
20.0652637961
 20
21.5639234896
 30
0.0
 10
20.0616785556
 20
21.563193691
 30
0.0
 10
20.050684793
 20
21.5601136056
 30
0.0
 10
20.0267920317
 20
21.5498765397
 30
0.0
 10
19.9868270969
 20
21.532048043
 30
0.0
 10
19.9546055075
 20
21.5169089049
 30
0.0
 10
19.935733912
 20
21.5080698714
 30
0.0
  0
SPLINE
  5
55F
100
AcDbEntity
  8
0
100
AcDbSpline
 62
7
  6
CONTINUOUS
 70
0
 71
3
 72
9
 73
5
 74
0
 42
0.0000001
 43
0.0000001
 44
0.0000000001
 40
0.0
 40
0.0
 40
0.0
 40
0.0
 40
0.5506677075
 40
1.0
 40
1.0
 40
1.0
 40
1.0
 10
-19.4894789464
 20
38.1447252506
 30
0.0
 10
-19.5059661222
 20
38.1542447392
 30
0.0
 10
-19.538902795
 20
38.1679374734
 30
0.0
 10
-19.5756985206
 20
38.1625003728
 30
0.0
 10
-19.5891908072
 20
38.1548008506
 30
0.0
  0
SPLINE
  5
560
100
AcDbEntity
  8
0
100
AcDbSpline
 62
7
  6
CONTINUOUS
 70
0
 71
3
 72
9
 73
5
 74
0
 42
0.0000001
 43
0.0000001
 44
0.0000000001
 40
0.0
 40
0.0
 40
0.0
 40
0.0
 40
0.5000069433
 40
1.0
 40
1.0
 40
1.0
 40
1.0
 10
-21.1865352213
 20
39.1245842746
 30
0.0
 10
-21.1445590283
 20
39.1003477468
 30
0.0
 10
-21.0782345269
 20
39.0238100882
 30
0.0
 10
-21.045113865
 20
38.9281019043
 30
0.0
 10
-21.045113865
 20
38.879632537
 30
0.0
  0
SPLINE
  5
561
100
AcDbEntity
  8
0
100
AcDbSpline
 62
250
  6
CONTINUOUS
 70
0
 71
3
 72
9
 73
5
 74
0
 42
0.0000001
 43
0.0000001
 44
0.0000000001
 40
0.0
 40
0.0
 40
0.0
 40
0.0
 40
0.5003864655
 40
1.0
 40
1.0
 40
1.0
 40
1.0
 10
-21.3994900071
 20
39.0001962977
 30
0.0
 10
-21.3574956473
 20
38.9759492807
 30
0.0
 10
-21.2910824509
 20
38.8996269427
 30
0.0
 10
-21.2574905585
 20
38.8041413027
 30
0.0
 10
-21.2572458994
 20
38.7557251335
 30
0.0
  0
SPLINE
  5
562
100
AcDbEntity
  8
0
100
AcDbSpline
 62
250
  6
CONTINUOUS
 70
0
 71
3
 72
9
 73
5
 74
0
 42
0.0000001
 43
0.0000001
 44
0.0000000001
 40
0.0
 40
0.0
 40
0.0
 40
0.0
 40
0.5000001316
 40
1.0
 40
1.0
 40
1.0
 40
1.0
 10
-21.5400886119
 20
38.7557251335
 30
0.0
 10
-21.4981131346
 20
38.731489019
 30
0.0
 10
-21.3986672403
 20
38.7123163351
 30
0.0
 10
-21.2992213546
 20
38.7314890318
 30
0.0
 10
-21.2572458994
 20
38.7557251335
 30
0.0
  0
SPLINE
  5
563
100
AcDbEntity
  8
0
100
AcDbSpline
 62
7
  6
CONTINUOUS
 70
0
 71
3
 72
9
 73
5
 74
0
 42
0.0000001
 43
0.0000001
 44
0.0000000001
 40
0.0
 40
0.0
 40
0.0
 40
0.0
 40
0.2663191477
 40
1.0
 40
1.0
 40
1.0
 40
1.0
 10
14.9933083081
 20
22.8615659883
 30
0.0
 10
15.0348877056
 20
22.8551332187
 30
0.0
 10
15.1898556836
 20
22.8249060875
 30
0.0
 10
15.3412170389
 20
22.7700846951
 30
0.0
 10
15.4415960442
 20
22.7121271155
 30
0.0
  0
SPLINE
  5
564
100
AcDbEntity
  8
RACCORDO
100
AcDbSpline
 62
250
  6
CONTINUOUS
 70
0
 71
3
 72
9
 73
5
 74
0
 42
0.0000001
 43
0.0000001
 44
0.0000000001
 40
0.0
 40
0.0
 40
0.0
 40
0.0
 40
0.482848071
 40
1.0
 40
1.0
 40
1.0
 40
1.0
 10
-36.0298931656
 20
10.4985776194
 30
0.0
 10
-36.0196690484
 20
10.4639544521
 30
0.0
 10
-35.9825511558
 20
10.3962826606
 30
0.0
 10
-35.9229230848
 20
10.3483382106
 30
0.0
 10
-35.8894937696
 20
10.3289078141
 30
0.0
  0
SPLINE
  5
565
100
AcDbEntity
  8
RACCORDO
100
AcDbSpline
 62
7
  6
CONTINUOUS
 70
0
 71
3
 72
9
 73
5
 74
0
 42
0.0000001
 43
0.0000001
 44
0.0000000001
 40
0.0
 40
0.0
 40
0.0
 40
0.0
 40
0.5201866526
 40
1.0
 40
1.0
 40
1.0
 40
1.0
 10
-30.9889207086
 20
35.7614811966
 30
0.0
 10
-30.9340172519
 20
35.7894461184
 30
0.0
 10
-30.8134208996
 20
35.8176813768
 30
0.0
 10
-30.6934513728
 20
35.7862110447
 30
0.0
 10
-30.6442333402
 20
35.7577931695
 30
0.0
  0
SPLINE
  5
566
100
AcDbEntity
  8
RACCORDO
100
AcDbSpline
 62
7
  6
CONTINUOUS
 70
0
 71
3
 72
10
 73
6
 74
0
 42
0.0000001
 43
0.0000001
 44
0.0000000001
 40
0.0
 40
0.0
 40
0.0
 40
0.0
 40
0.2696665751
 40
0.5035180858
 40
1.0
 40
1.0
 40
1.0
 40
1.0
 10
9.4103751144
 20
12.6307644425
 30
0.0
 10
9.4308848966
 20
12.6189223513
 30
0.0
 10
9.4673404398
 20
12.5925465292
 30
0.0
 10
9.5126346732
 20
12.51187873
 30
0.0
 10
9.4854694656
 20
12.4424172099
 30
0.0
 10
9.4630282979
 20
12.4050328223
 30
0.0
  0
SPLINE
  5
567
100
AcDbEntity
  8
RACCORDO
100
AcDbSpline
 62
250
  6
CONTINUOUS
 70
0
 71
3
 72
9
 73
5
 74
0
 42
0.0000001
 43
0.0000001
 44
0.0000000001
 40
0.0
 40
0.0
 40
0.0
 40
0.0
 40
0.4796132742
 40
1.0
 40
1.0
 40
1.0
 40
1.0
 10
-39.5263853157
 20
23.3771770302
 30
0.0
 10
-39.51741284
 20
23.3410722534
 30
0.0
 10
-39.4806138106
 20
23.2695378354
 30
0.0
 10
-39.4187079142
 20
23.2195801559
 30
0.0
 10
-39.3838050615
 20
23.1993025629
 30
0.0
  0
SPLINE
  5
568
100
AcDbEntity
  8
0
100
AcDbSpline
 62
250
  6
CONTINUOUS
 70
0
 71
3
 72
9
 73
5
 74
0
 42
0.0000001
 43
0.0000001
 44
0.0000000001
 40
0.0
 40
0.0
 40
0.0
 40
0.0
 40
0.4497333502
 40
1.0
 40
1.0
 40
1.0
 40
1.0
 10
19.1343998183
 20
16.9454246498
 30
0.0
 10
19.1176665151
 20
16.9550854049
 30
0.0
 10
19.0719931252
 20
16.962138553
 30
0.0
 10
19.0309582487
 20
16.9453456855
 30
0.0
 10
19.0104253666
 20
16.9336281892
 30
0.0
  0
SPLINE
  5
569
100
AcDbEntity
  8
RACCORDO
100
AcDbSpline
 62
250
  6
CONTINUOUS
 70
0
 71
3
 72
9
 73
5
 74
0
 42
0.0000001
 43
0.0000001
 44
0.0000000001
 40
0.0
 40
0.0
 40
0.0
 40
0.0
 40
0.4682244466
 40
1.0
 40
1.0
 40
1.0
 40
1.0
 10
-40.8631008763
 20
30.5988070796
 30
0.0
 10
-40.8580846956
 20
30.5601130396
 30
0.0
 10
-40.8227064869
 20
30.4798544186
 30
0.0
 10
-40.7556830116
 20
30.4261844192
 30
0.0
 10
-40.7173461176
 20
30.4039587438
 30
0.0
  0
SPLINE
  5
56A
100
AcDbEntity
  8
0
100
AcDbSpline
 62
7
  6
CONTINUOUS
 70
0
 71
3
 72
9
 73
5
 74
0
 42
0.0000001
 43
0.0000001
 44
0.0000000001
 40
0.0
 40
0.0
 40
0.0
 40
0.0
 40
0.2405431387
 40
1.0
 40
1.0
 40
1.0
 40
1.0
 10
-26.6367213735
 20
40.3495966881
 30
0.0
 10
-26.6110441742
 20
40.3472334817
 30
0.0
 10
-26.5026914435
 20
40.3573352067
 30
0.0
 10
-26.4058604474
 20
40.424956922
 30
0.0
 10
-26.3545914302
 20
40.4881979758
 30
0.0
  0
SPLINE
  5
56B
100
AcDbEntity
  8
0
100
AcDbSpline
 62
250
  6
CONTINUOUS
 70
0
 71
3
 72
9
 73
5
 74
0
 42
0.0000001
 43
0.0000001
 44
0.0000000001
 40
0.0
 40
0.0
 40
0.0
 40
0.0
 40
0.4497333502
 40
1.0
 40
1.0
 40
1.0
 40
1.0
 10
6.8307418257
 20
24.0494025737
 30
0.0
 10
6.8140085224
 20
24.0590633288
 30
0.0
 10
6.7683351325
 20
24.0661164769
 30
0.0
 10
6.7273002561
 20
24.0493236094
 30
0.0
 10
6.706767374
 20
24.0376061131
 30
0.0
  0
SPLINE
  5
56C
100
AcDbEntity
  8
RACCORDO
100
AcDbSpline
 62
250
  6
CONTINUOUS
 70
0
 71
3
 72
10
 73
6
 74
0
 42
0.0000001
 43
0.0000001
 44
0.0000000001
 40
0.0
 40
0.0
 40
0.0
 40
0.0
 40
0.1838041241
 40
0.5311522471
 40
1.0
 40
1.0
 40
1.0
 40
1.0
 10
-40.1957092976
 20
32.2365124483
 30
0.0
 10
-40.1839214894
 20
32.2472177378
 30
0.0
 10
-40.1402829924
 20
32.2679121834
 30
0.0
 10
-40.0506072878
 20
32.2572888075
 30
0.0
 10
-39.9858697017
 20
32.2282222162
 30
0.0
 10
-39.9503390409
 20
32.2085409118
 30
0.0
  0
SPLINE
  5
56D
100
AcDbEntity
  8
0
100
AcDbSpline
 62
250
  6
CONTINUOUS
 70
0
 71
3
 72
9
 73
5
 74
0
 42
0.0000001
 43
0.0000001
 44
0.0000000001
 40
0.0
 40
0.0
 40
0.0
 40
0.0
 40
0.2325453081
 40
1.0
 40
1.0
 40
1.0
 40
1.0
 10
2.7220068877
 20
23.473214608
 30
0.0
 10
2.7220068877
 20
23.4823687081
 30
0.0
 10
2.724302057
 20
23.5217280691
 30
0.0
 10
2.734638542
 20
23.5603737881
 30
0.0
 10
2.7455365503
 20
23.5885503732
 30
0.0
  0
SPLINE
  5
56E
100
AcDbEntity
  8
0
100
AcDbSpline
 62
250
  6
CONTINUOUS
 70
0
 71
3
 72
9
 73
5
 74
0
 42
0.0000001
 43
0.0000001
 44
0.0000000001
 40
0.0
 40
0.0
 40
0.0
 40
0.0
 40
0.2542622186
 40
1.0
 40
1.0
 40
1.0
 40
1.0
 10
2.7498878632
 20
23.5993398796
 30
0.0
 10
2.7555889804
 20
23.6129177343
 30
0.0
 10
2.7808364765
 20
23.6650510871
 30
0.0
 10
2.816496888
 20
23.7124348378
 30
0.0
 10
2.8482536587
 20
23.7417091308
 30
0.0
  0
SPLINE
  5
56F
100
AcDbEntity
  8
0
100
AcDbSpline
 62
250
  6
CONTINUOUS
 70
0
 71
3
 72
8
 73
4
 74
0
 42
0.0000001
 43
0.0000001
 44
0.0000000001
 40
0.0
 40
0.0
 40
0.0
 40
0.0
 40
1.0
 40
1.0
 40
1.0
 40
1.0
 10
2.8645300174
 20
23.7557547415
 30
0.0
 10
2.8725139471
 20
23.7621854489
 30
0.0
 10
2.8808344986
 20
23.7682272405
 30
0.0
 10
2.8894758027
 20
23.7737431261
 30
0.0
  0
SPLINE
  5
570
100
AcDbEntity
  8
0
100
AcDbSpline
 62
250
  6
CONTINUOUS
 70
0
 71
3
 72
9
 73
5
 74
0
 42
0.0000001
 43
0.0000001
 44
0.0000000001
 40
0.0
 40
0.0
 40
0.0
 40
0.0
 40
0.4996530366
 40
1.0
 40
1.0
 40
1.0
 40
1.0
 10
4.4023973528
 20
22.5029782137
 30
0.0
 10
4.4023973528
 20
22.5633522901
 30
0.0
 10
4.4435676436
 20
22.6826712707
 30
0.0
 10
4.5260284445
 20
22.7781603131
 30
0.0
 10
4.5782484517
 20
22.8086272055
 30
0.0
  0
SPLINE
  5
571
100
AcDbEntity
  8
0
100
AcDbSpline
 62
250
  6
CONTINUOUS
 70
0
 71
3
 72
9
 73
5
 74
0
 42
0.0000001
 43
0.0000001
 44
0.0000000001
 40
0.0
 40
0.0
 40
0.0
 40
0.0
 40
0.2325453081
 40
1.0
 40
1.0
 40
1.0
 40
1.0
 10
15.0256648804
 20
16.3692366841
 30
0.0
 10
15.0256648804
 20
16.3783907842
 30
0.0
 10
15.0279600496
 20
16.4177501452
 30
0.0
 10
15.0382965347
 20
16.4563958642
 30
0.0
 10
15.0491945429
 20
16.4845724493
 30
0.0
  0
SPLINE
  5
572
100
AcDbEntity
  8
0
100
AcDbSpline
 62
250
  6
CONTINUOUS
 70
0
 71
3
 72
9
 73
5
 74
0
 42
0.0000001
 43
0.0000001
 44
0.0000000001
 40
0.0
 40
0.0
 40
0.0
 40
0.0
 40
0.2542622186
 40
1.0
 40
1.0
 40
1.0
 40
1.0
 10
15.0535458559
 20
16.4953619557
 30
0.0
 10
15.0592469731
 20
16.5089398104
 30
0.0
 10
15.0844944692
 20
16.5610731632
 30
0.0
 10
15.1201548806
 20
16.6084569139
 30
0.0
 10
15.1519116513
 20
16.6377312069
 30
0.0
  0
SPLINE
  5
573
100
AcDbEntity
  8
0
100
AcDbSpline
 62
250
  6
CONTINUOUS
 70
0
 71
3
 72
8
 73
4
 74
0
 42
0.0000001
 43
0.0000001
 44
0.0000000001
 40
0.0
 40
0.0
 40
0.0
 40
0.0
 40
1.0
 40
1.0
 40
1.0
 40
1.0
 10
15.16818801
 20
16.6517768176
 30
0.0
 10
15.1761719398
 20
16.658207525
 30
0.0
 10
15.1844924912
 20
16.6642493166
 30
0.0
 10
15.1931337954
 20
16.6697652022
 30
0.0
  0
SPLINE
  5
574
100
AcDbEntity
  8
0
100
AcDbSpline
 62
250
  6
CONTINUOUS
 70
0
 71
3
 72
9
 73
5
 74
0
 42
0.0000001
 43
0.0000001
 44
0.0000000001
 40
0.0
 40
0.0
 40
0.0
 40
0.0
 40
0.4996530366
 40
1.0
 40
1.0
 40
1.0
 40
1.0
 10
16.7060553454
 20
15.3990002898
 30
0.0
 10
16.7060553454
 20
15.4593743662
 30
0.0
 10
16.7472256363
 20
15.5786933468
 30
0.0
 10
16.8296864372
 20
15.6741823892
 30
0.0
 10
16.8819064444
 20
15.7046492816
 30
0.0
  0
SPLINE
  5
575
100
AcDbEntity
  8
0
100
AcDbSpline
 62
250
  6
CONTINUOUS
 70
0
 71
3
 72
9
 73
5
 74
0
 42
0.0000001
 43
0.0000001
 44
0.0000000001
 40
0.0
 40
0.0
 40
0.0
 40
0.0
 40
0.5502608703
 40
1.0
 40
1.0
 40
1.0
 40
1.0
 10
19.1871990703
 20
-22.9642292348
 30
0.0
 10
19.18731781
 20
-22.9878648277
 30
0.0
 10
19.1817863602
 20
-23.0318469638
 30
0.0
 10
19.1532132727
 20
-23.068157235
 30
0.0
 10
19.1365822718
 20
-23.0779856702
 30
0.0
  0
SPLINE
  5
576
100
AcDbEntity
  8
0
100
AcDbSpline
 62
7
  6
CONTINUOUS
 70
0
 71
3
 72
9
 73
5
 74
0
 42
0.0000001
 43
0.0000001
 44
0.0000000001
 40
0.0
 40
0.0
 40
0.0
 40
0.0
 40
0.5505526274
 40
1.0
 40
1.0
 40
1.0
 40
1.0
 10
18.6589318986
 20
-23.276383369
 30
0.0
 10
18.6589318986
 20
-23.30009565
 30
0.0
 10
18.6532161695
 20
-23.3441459697
 30
0.0
 10
18.6245742116
 20
-23.3805324533
 30
0.0
 10
18.607908535
 20
-23.3903800447
 30
0.0
  0
SPLINE
  5
577
100
AcDbEntity
  8
0
100
AcDbSpline
 62
250
  6
CONTINUOUS
 70
0
 71
3
 72
9
 73
5
 74
0
 42
0.0000001
 43
0.0000001
 44
0.0000000001
 40
0.0
 40
0.0
 40
0.0
 40
0.0
 40
0.5511799507
 40
1.0
 40
1.0
 40
1.0
 40
1.0
 10
17.0586807164
 20
-24.1810977637
 30
0.0
 10
17.0585712719
 20
-24.2051702216
 30
0.0
 10
17.0525440782
 20
-24.2498452925
 30
0.0
 10
17.0229697009
 20
-24.2864424501
 30
0.0
 10
17.0059114866
 20
-24.2960996599
 30
0.0
  0
SPLINE
  5
578
100
AcDbEntity
  8
0
100
AcDbSpline
 62
250
  6
CONTINUOUS
 70
0
 71
3
 72
9
 73
5
 74
0
 42
0.0000001
 43
0.0000001
 44
0.0000000001
 40
0.0
 40
0.0
 40
0.0
 40
0.0
 40
0.4996593091
 40
1.0
 40
1.0
 40
1.0
 40
1.0
 10
16.7060553454
 20
-23.8589751161
 30
0.0
 10
16.7583409189
 20
-23.889164151
 30
0.0
 10
16.8822597321
 20
-23.913172926
 30
0.0
 10
17.0061876519
 20
-23.8895012393
 30
0.0
 10
17.0586807164
 20
-23.8595081448
 30
0.0
  0
SPLINE
  5
579
100
AcDbEntity
  8
0
100
AcDbSpline
 62
250
  6
CONTINUOUS
 70
0
 71
3
 72
9
 73
5
 74
0
 42
0.0000001
 43
0.0000001
 44
0.0000000001
 40
0.0
 40
0.0
 40
0.0
 40
0.0
 40
0.2335397264
 40
1.0
 40
1.0
 40
1.0
 40
1.0
 10
16.7060553454
 20
-24.1805647351
 30
0.0
 10
16.7132410149
 20
-24.1847136506
 30
0.0
 10
16.7449451446
 20
-24.2008504124
 30
0.0
 10
16.779524608
 20
-24.2109416431
 30
0.0
 10
16.8062986223
 20
-24.2159125473
 30
0.0
  0
SPLINE
  5
57A
100
AcDbEntity
  8
0
100
AcDbSpline
 62
250
  6
CONTINUOUS
 70
0
 71
3
 72
9
 73
5
 74
0
 42
0.0000001
 43
0.0000001
 44
0.0000000001
 40
0.0
 40
0.0
 40
0.0
 40
0.0
 40
0.2639969149
 40
1.0
 40
1.0
 40
1.0
 40
1.0
 10
16.9466760977
 20
-24.218056558
 30
0.0
 10
16.9561192793
 20
-24.2166163068
 30
0.0
 10
16.9916613299
 20
-24.2098990976
 30
0.0
 10
17.0264216711
 20
-24.1980749074
 30
0.0
 10
17.0500542453
 20
-24.1857977786
 30
0.0
  0
SPLINE
  5
57B
100
AcDbEntity
  8
0
100
AcDbSpline
 62
250
  6
CONTINUOUS
 70
0
 71
3
 72
9
 73
5
 74
0
 42
0.0000001
 43
0.0000001
 44
0.0000000001
 40
0.0
 40
0.0
 40
0.0
 40
0.0
 40
0.5507491706
 40
1.0
 40
1.0
 40
1.0
 40
1.0
 10
16.7060553454
 20
-24.1805647351
 30
0.0
 10
16.7060553454
 20
-24.2044361811
 30
0.0
 10
16.7118478493
 20
-24.248795376
 30
0.0
 10
16.7409630667
 20
-24.2852621217
 30
0.0
 10
16.75782613
 20
-24.2949987265
 30
0.0
  0
SPLINE
  5
57C
100
AcDbEntity
  8
0
100
AcDbSpline
 62
250
  6
CONTINUOUS
 70
0
 71
3
 72
9
 73
5
 74
0
 42
0.0000001
 43
0.0000001
 44
0.0000000001
 40
0.0
 40
0.0
 40
0.0
 40
0.0
 40
0.4488016209
 40
1.0
 40
1.0
 40
1.0
 40
1.0
 10
15.075477439
 20
16.686665445
 30
0.0
 10
15.0923713386
 20
16.6966249547
 30
0.0
 10
15.1388772543
 20
16.7039616607
 30
0.0
 10
15.1806031197
 20
16.6868340541
 30
0.0
 10
15.2015159793
 20
16.6748856759
 30
0.0
  0
SPLINE
  5
57D
100
AcDbEntity
  8
0
100
AcDbSpline
 62
250
  6
CONTINUOUS
 70
0
 71
3
 72
9
 73
5
 74
0
 42
0.0000001
 43
0.0000001
 44
0.0000000001
 40
0.0
 40
0.0
 40
0.0
 40
0.0
 40
0.2208584562
 40
1.0
 40
1.0
 40
1.0
 40
1.0
 10
17.2046452198
 20
17.9273291796
 30
0.0
 10
17.2127181762
 20
17.9306908072
 30
0.0
 10
17.2518532404
 20
17.9401288167
 30
0.0
 10
17.2929070896
 20
17.9254806773
 30
0.0
 10
17.3195458155
 20
17.9099208503
 30
0.0
  0
SPLINE
  5
57E
100
AcDbEntity
  8
0
100
AcDbSpline
 62
7
  6
CONTINUOUS
 70
0
 71
3
 72
9
 73
5
 74
0
 42
0.0000001
 43
0.0000001
 44
0.0000000001
 40
0.0
 40
0.0
 40
0.0
 40
0.0
 40
0.4494392967
 40
1.0
 40
1.0
 40
1.0
 40
1.0
 10
16.6608424401
 20
17.6212892189
 30
0.0
 10
16.6777052253
 20
17.6308005084
 30
0.0
 10
16.7235452732
 20
17.6374132369
 30
0.0
 10
16.7645574657
 20
17.6203341344
 30
0.0
 10
16.7850959368
 20
17.6084754786
 30
0.0
  0
SPLINE
  5
57F
100
AcDbEntity
  8
0
100
AcDbSpline
 62
250
  6
CONTINUOUS
 70
0
 71
3
 72
9
 73
5
 74
0
 42
0.0000001
 43
0.0000001
 44
0.0000000001
 40
0.0
 40
0.0
 40
0.0
 40
0.0
 40
0.4488016209
 40
1.0
 40
1.0
 40
1.0
 40
1.0
 10
2.7718194464
 20
23.7906433689
 30
0.0
 10
2.7887133459
 20
23.8006028786
 30
0.0
 10
2.8352192616
 20
23.8079395846
 30
0.0
 10
2.876945127
 20
23.790811978
 30
0.0
 10
2.8978579866
 20
23.7788635998
 30
0.0
  0
SPLINE
  5
580
100
AcDbEntity
  8
0
100
AcDbSpline
 62
250
  6
CONTINUOUS
 70
0
 71
3
 72
9
 73
5
 74
0
 42
0.0000001
 43
0.0000001
 44
0.0000000001
 40
0.0
 40
0.0
 40
0.0
 40
0.0
 40
0.2208584562
 40
1.0
 40
1.0
 40
1.0
 40
1.0
 10
4.9009872272
 20
25.0313071035
 30
0.0
 10
4.9090601836
 20
25.0346687311
 30
0.0
 10
4.9481952478
 20
25.0441067406
 30
0.0
 10
4.989249097
 20
25.0294586012
 30
0.0
 10
5.0158878229
 20
25.0138987742
 30
0.0
  0
SPLINE
  5
581
100
AcDbEntity
  8
0
100
AcDbSpline
 62
7
  6
CONTINUOUS
 70
0
 71
3
 72
9
 73
5
 74
0
 42
0.0000001
 43
0.0000001
 44
0.0000000001
 40
0.0
 40
0.0
 40
0.0
 40
0.0
 40
0.4494392967
 40
1.0
 40
1.0
 40
1.0
 40
1.0
 10
4.3571844475
 20
24.7252671428
 30
0.0
 10
4.3740472326
 20
24.7347784323
 30
0.0
 10
4.4198872806
 20
24.7413911608
 30
0.0
 10
4.4608994731
 20
24.7243120583
 30
0.0
 10
4.4814379442
 20
24.7124534025
 30
0.0
  0
SPLINE
  5
582
100
AcDbEntity
  8
0
100
AcDbSpline
 62
250
  6
CONTINUOUS
 70
0
 71
3
 72
9
 73
5
 74
0
 42
0.0000001
 43
0.0000001
 44
0.0000000001
 40
0.0
 40
0.0
 40
0.0
 40
0.0
 40
0.4487522227
 40
1.0
 40
1.0
 40
1.0
 40
1.0
 10
-29.0472764398
 20
42.1612678116
 30
0.0
 10
-29.0303796174
 20
42.1712519849
 30
0.0
 10
-28.9838340207
 20
42.1786283026
 30
0.0
 10
-28.9420629604
 20
42.1615053735
 30
0.0
 10
-28.9211238124
 20
42.1495560422
 30
0.0
  0
SPLINE
  5
583
100
AcDbEntity
  8
0
100
AcDbSpline
 62
250
  6
CONTINUOUS
 70
0
 71
3
 72
9
 73
5
 74
0
 42
0.0000001
 43
0.0000001
 44
0.0000000001
 40
0.0
 40
0.0
 40
0.0
 40
0.0
 40
0.5515859631
 40
1.0
 40
1.0
 40
1.0
 40
1.0
 10
12.1174536955
 20
19.6481716336
 30
0.0
 10
12.1008770457
 20
19.6577427834
 30
0.0
 10
12.0678188591
 20
19.6715207515
 30
0.0
 10
12.0308479457
 20
19.6658971541
 30
0.0
 10
12.0174071855
 20
19.6580554394
 30
0.0
  0
SPLINE
  5
584
100
AcDbEntity
  8
0
100
AcDbSpline
 62
7
  6
CONTINUOUS
 70
0
 71
3
 72
9
 73
5
 74
0
 42
0.0000001
 43
0.0000001
 44
0.0000000001
 40
0.0
 40
0.0
 40
0.0
 40
0.0
 40
0.5506265817
 40
1.0
 40
1.0
 40
1.0
 40
1.0
 10
12.330326207
 20
19.7723685508
 30
0.0
 10
12.3138383555
 20
19.7818884296
 30
0.0
 10
12.2808961649
 20
19.7955807582
 30
0.0
 10
12.244097463
 20
19.7901384401
 30
0.0
 10
12.2306023806
 20
19.7824373225
 30
0.0
  0
SPLINE
  5
585
100
AcDbEntity
  8
0
100
AcDbSpline
 62
250
  6
CONTINUOUS
 70
0
 71
3
 72
9
 73
5
 74
0
 42
0.0000001
 43
0.0000001
 44
0.0000000001
 40
0.0
 40
0.0
 40
0.0
 40
0.0
 40
0.2208584562
 40
1.0
 40
1.0
 40
1.0
 40
1.0
 10
-26.9188179262
 20
43.4036638032
 30
0.0
 10
-26.9107449698
 20
43.4070254309
 30
0.0
 10
-26.8716099056
 20
43.4164634403
 30
0.0
 10
-26.8305560564
 20
43.4018153009
 30
0.0
 10
-26.8039173305
 20
43.3862554739
 30
0.0
  0
SPLINE
  5
586
100
AcDbEntity
  8
0
100
AcDbSpline
 62
250
  6
CONTINUOUS
 70
0
 71
3
 72
9
 73
5
 74
0
 42
0.0000001
 43
0.0000001
 44
0.0000000001
 40
0.0
 40
0.0
 40
0.0
 40
0.0
 40
0.2371987781
 40
1.0
 40
1.0
 40
1.0
 40
1.0
 10
11.9767728164
 20
19.4036524401
 30
0.0
 10
11.9767728164
 20
19.408262006
 30
0.0
 10
11.977486902
 20
19.4276938599
 30
0.0
 10
11.9808402381
 20
19.4469856729
 30
0.0
 10
11.984499761
 20
19.4613506421
 30
0.0
  0
SPLINE
  5
587
100
AcDbEntity
  8
0
100
AcDbSpline
 62
250
  6
CONTINUOUS
 70
0
 71
3
 72
9
 73
5
 74
0
 42
0.0000001
 43
0.0000001
 44
0.0000000001
 40
0.0
 40
0.0
 40
0.0
 40
0.0
 40
0.2429646231
 40
1.0
 40
1.0
 40
1.0
 40
1.0
 10
11.984499761
 20
19.4613506421
 30
0.0
 10
11.9861645785
 20
19.4678856614
 30
0.0
 10
11.9939788391
 20
19.4945321813
 30
0.0
 10
12.0053669884
 20
19.5200986455
 30
0.0
 10
12.0155953844
 20
19.5384534276
 30
0.0
  0
SPLINE
  5
588
100
AcDbEntity
  8
0
100
AcDbSpline
 62
250
  6
CONTINUOUS
 70
0
 71
3
 72
9
 73
5
 74
0
 42
0.0000001
 43
0.0000001
 44
0.0000000001
 40
0.0
 40
0.0
 40
0.0
 40
0.0
 40
0.2667983017
 40
1.0
 40
1.0
 40
1.0
 40
1.0
 10
12.0155953844
 20
19.5384534276
 30
0.0
 10
12.0221154061
 20
19.5501535589
 30
0.0
 10
12.0490226234
 20
19.59244381
 30
0.0
 10
12.0856600844
 20
19.6296221813
 30
0.0
 10
12.1174536955
 20
19.6481716336
 30
0.0
  0
SPLINE
  5
589
100
AcDbEntity
  8
0
100
AcDbSpline
 62
250
  6
CONTINUOUS
 70
0
 71
3
 72
9
 73
5
 74
0
 42
0.0000001
 43
0.0000001
 44
0.0000000001
 40
0.0
 40
0.0
 40
0.0
 40
0.0
 40
0.5507409757
 40
1.0
 40
1.0
 40
1.0
 40
1.0
 10
11.9767728164
 20
19.4036524401
 30
0.0
 10
11.9602329425
 20
19.4132023561
 30
0.0
 10
11.9318149229
 20
19.4349626816
 30
0.0
 10
11.9181951231
 20
19.4697245397
 30
0.0
 10
11.918194383
 20
19.4853041998
 30
0.0
  0
SPLINE
  5
58A
100
AcDbEntity
  8
0
100
AcDbSpline
 62
250
  6
CONTINUOUS
 70
0
 71
3
 72
9
 73
5
 74
0
 42
0.0000001
 43
0.0000001
 44
0.0000000001
 40
0.0
 40
0.0
 40
0.0
 40
0.0
 40
0.5000001315
 40
1.0
 40
1.0
 40
1.0
 40
1.0
 10
10.2797165415
 20
20.3835114641
 30
0.0
 10
10.3216920188
 20
20.3592753496
 30
0.0
 10
10.421137913
 20
20.3401026657
 30
0.0
 10
10.5205837988
 20
20.3592753624
 30
0.0
 10
10.562559254
 20
20.3835114641
 30
0.0
  0
SPLINE
  5
58B
100
AcDbEntity
  8
0
100
AcDbSpline
 62
7
  6
CONTINUOUS
 70
0
 71
3
 72
9
 73
5
 74
0
 42
0.0000001
 43
0.0000001
 44
0.0000000001
 40
0.0
 40
0.0
 40
0.0
 40
0.0
 40
0.4999878858
 40
1.0
 40
1.0
 40
1.0
 40
1.0
 10
10.6332699321
 20
20.7522275748
 30
0.0
 10
10.6752451511
 20
20.7279916095
 30
0.0
 10
10.7415651862
 20
20.6514433867
 30
0.0
 10
10.7746623594
 20
20.5557242967
 30
0.0
 10
10.7746501499
 20
20.5072523608
 30
0.0
  0
SPLINE
  5
58C
100
AcDbEntity
  8
0
100
AcDbSpline
 62
250
  6
CONTINUOUS
 70
0
 71
3
 72
9
 73
5
 74
0
 42
0.0000001
 43
0.0000001
 44
0.0000000001
 40
0.0
 40
0.0
 40
0.0
 40
0.0
 40
0.5003484297
 40
1.0
 40
1.0
 40
1.0
 40
1.0
 10
10.4203974207
 20
20.6280306576
 30
0.0
 10
10.4623899308
 20
20.6037847085
 30
0.0
 10
10.5287942351
 20
20.527440932
 30
0.0
 10
10.5623391012
 20
20.4319329851
 30
0.0
 10
10.562559254
 20
20.3835114641
 30
0.0
  0
SPLINE
  5
58D
100
AcDbEntity
  8
0
100
AcDbSpline
 62
7
  6
CONTINUOUS
 70
0
 71
3
 72
9
 73
5
 74
0
 42
0.0000001
 43
0.0000001
 44
0.0000000001
 40
0.0
 40
0.0
 40
0.0
 40
0.0
 40
0.4996529129
 40
1.0
 40
1.0
 40
1.0
 40
1.0
 10
8.6533709448
 20
21.3225430288
 30
0.0
 10
8.6533709448
 20
21.3708422774
 30
0.0
 10
8.6863071806
 20
21.466297456
 30
0.0
 10
8.7522758083
 20
21.5426887025
 30
0.0
 10
8.7940518239
 20
21.5670622222
 30
0.0
  0
SPLINE
  5
58E
100
AcDbEntity
  8
0
100
AcDbSpline
 62
250
  6
CONTINUOUS
 70
0
 71
3
 72
9
 73
5
 74
0
 42
0.0000001
 43
0.0000001
 44
0.0000000001
 40
0.0
 40
0.0
 40
0.0
 40
0.0
 40
0.4996530401
 40
1.0
 40
1.0
 40
1.0
 40
1.0
 10
10.2797165415
 20
20.3835114641
 30
0.0
 10
10.2797165415
 20
20.4318107255
 30
0.0
 10
10.3126527744
 20
20.5272659101
 30
0.0
 10
10.3786214152
 20
20.6036571438
 30
0.0
 10
10.4203974207
 20
20.6280306576
 30
0.0
  0
SPLINE
  5
58F
100
AcDbEntity
  8
0
100
AcDbSpline
 62
7
  6
CONTINUOUS
 70
0
 71
3
 72
9
 73
5
 74
0
 42
0.0000001
 43
0.0000001
 44
0.0000000001
 40
0.0
 40
0.0
 40
0.0
 40
0.0
 40
0.4494244407
 40
1.0
 40
1.0
 40
1.0
 40
1.0
 10
-27.4626421307
 20
43.0976117583
 30
0.0
 10
-27.4457775398
 20
43.1071240663
 30
0.0
 10
-27.399933553
 20
43.1137356595
 30
0.0
 10
-27.3589091129
 20
43.09667074
 30
0.0
 10
-27.3383672092
 20
43.0848101022
 30
0.0
  0
SPLINE
  5
590
100
AcDbEntity
  8
0
100
AcDbSpline
 62
250
  6
CONTINUOUS
 70
0
 71
3
 72
9
 73
5
 74
0
 42
0.0000001
 43
0.0000001
 44
0.0000000001
 40
0.0
 40
0.0
 40
0.0
 40
0.0
 40
0.2388095079
 40
1.0
 40
1.0
 40
1.0
 40
1.0
 10
-12.8093797867
 20
35.3059848889
 30
0.0
 10
-12.8050792087
 20
35.3035303464
 30
0.0
 10
-12.7873976114
 20
35.2926824531
 30
0.0
 10
-12.7710302051
 20
35.2797527069
 30
0.0
 10
-12.7593576739
 20
35.2691288275
 30
0.0
  0
SPLINE
  5
591
100
AcDbEntity
  8
0
100
AcDbSpline
 62
250
  6
CONTINUOUS
 70
0
 71
3
 72
8
 73
4
 74
0
 42
0.0000001
 43
0.0000001
 44
0.0000000001
 40
0.0
 40
0.0
 40
0.0
 40
0.0
 40
1.0
 40
1.0
 40
1.0
 40
1.0
 10
-12.7593576739
 20
35.2691288275
 30
0.0
 10
-12.7425359185
 20
35.2538183265
 30
0.0
 10
-12.7272043615
 20
35.2367599942
 30
0.0
 10
-12.7134379294
 20
35.2186528618
 30
0.0
  0
SPLINE
  5
592
100
AcDbEntity
  8
0
100
AcDbSpline
 62
250
  6
CONTINUOUS
 70
0
 71
3
 72
9
 73
5
 74
0
 42
0.0000001
 43
0.0000001
 44
0.0000000001
 40
0.0
 40
0.0
 40
0.0
 40
0.0
 40
0.2645422567
 40
1.0
 40
1.0
 40
1.0
 40
1.0
 10
-12.660285269
 20
35.1266031272
 30
0.0
 10
-12.6561746066
 20
35.1168062784
 30
0.0
 10
-12.6420997748
 20
35.0792121739
 30
0.0
 10
-12.633809446
 20
35.0391787683
 30
0.0
 10
-12.6327591898
 20
35.0096606715
 30
0.0
  0
SPLINE
  5
593
100
AcDbEntity
  8
0
100
AcDbSpline
 62
7
  6
CONTINUOUS
 70
0
 71
3
 72
9
 73
5
 74
0
 42
0.0000001
 43
0.0000001
 44
0.0000000001
 40
0.0
 40
0.0
 40
0.0
 40
0.0
 40
0.5000063111
 40
1.0
 40
1.0
 40
1.0
 40
1.0
 10
-13.3376469585
 20
35.0009696997
 30
0.0
 10
-13.2851780976
 20
34.970674837
 30
0.0
 10
-13.2022735775
 20
34.8750062955
 30
0.0
 10
-13.1608732548
 20
34.7553739322
 30
0.0
 10
-13.1608732548
 20
34.6947886638
 30
0.0
  0
SPLINE
  5
594
100
AcDbEntity
  8
0
100
AcDbSpline
 62
250
  6
CONTINUOUS
 70
0
 71
3
 72
9
 73
5
 74
0
 42
0.0000001
 43
0.0000001
 44
0.0000000001
 40
0.0
 40
0.0
 40
0.0
 40
0.0
 40
0.5000062314
 40
1.0
 40
1.0
 40
1.0
 40
1.0
 10
-14.9389277493
 20
34.0764112734
 30
0.0
 10
-14.8866464779
 20
34.0458693836
 30
0.0
 10
-14.8041636297
 20
33.9500961258
 30
0.0
 10
-14.7624617659
 20
33.8307765911
 30
0.0
 10
-14.7621540456
 20
33.7702302375
 30
0.0
  0
SPLINE
  5
595
100
AcDbEntity
  8
0
100
AcDbSpline
 62
250
  6
CONTINUOUS
 70
0
 71
3
 72
9
 73
5
 74
0
 42
0.0000001
 43
0.0000001
 44
0.0000000001
 40
0.0
 40
0.0
 40
0.0
 40
0.0
 40
0.2388095079
 40
1.0
 40
1.0
 40
1.0
 40
1.0
 10
-25.1130377794
 20
42.4099628128
 30
0.0
 10
-25.1087372014
 20
42.4075082703
 30
0.0
 10
-25.091055604
 20
42.396660377
 30
0.0
 10
-25.0746881977
 20
42.3837306308
 30
0.0
 10
-25.0630156665
 20
42.3731067514
 30
0.0
  0
SPLINE
  5
596
100
AcDbEntity
  8
0
100
AcDbSpline
 62
250
  6
CONTINUOUS
 70
0
 71
3
 72
8
 73
4
 74
0
 42
0.0000001
 43
0.0000001
 44
0.0000000001
 40
0.0
 40
0.0
 40
0.0
 40
0.0
 40
1.0
 40
1.0
 40
1.0
 40
1.0
 10
-25.0630156665
 20
42.3731067514
 30
0.0
 10
-25.0461939111
 20
42.3577962505
 30
0.0
 10
-25.0308623541
 20
42.3407379181
 30
0.0
 10
-25.0170959221
 20
42.3226307857
 30
0.0
  0
SPLINE
  5
597
100
AcDbEntity
  8
0
100
AcDbSpline
 62
250
  6
CONTINUOUS
 70
0
 71
3
 72
9
 73
5
 74
0
 42
0.0000001
 43
0.0000001
 44
0.0000000001
 40
0.0
 40
0.0
 40
0.0
 40
0.0
 40
0.2645422567
 40
1.0
 40
1.0
 40
1.0
 40
1.0
 10
-24.9639432616
 20
42.2305810511
 30
0.0
 10
-24.9598325993
 20
42.2207842023
 30
0.0
 10
-24.9457577674
 20
42.1831900978
 30
0.0
 10
-24.9374674387
 20
42.1431566922
 30
0.0
 10
-24.9364171824
 20
42.1136385954
 30
0.0
  0
SPLINE
  5
598
100
AcDbEntity
  8
0
100
AcDbSpline
 62
7
  6
CONTINUOUS
 70
0
 71
3
 72
9
 73
5
 74
0
 42
0.0000001
 43
0.0000001
 44
0.0000000001
 40
0.0
 40
0.0
 40
0.0
 40
0.0
 40
0.5000063111
 40
1.0
 40
1.0
 40
1.0
 40
1.0
 10
-25.6413049511
 20
42.1049476236
 30
0.0
 10
-25.5888360902
 20
42.0746527609
 30
0.0
 10
-25.5059315702
 20
41.9789842194
 30
0.0
 10
-25.4645312475
 20
41.8593518561
 30
0.0
 10
-25.4645312475
 20
41.7987665877
 30
0.0
  0
SPLINE
  5
599
100
AcDbEntity
  8
0
100
AcDbSpline
 62
250
  6
CONTINUOUS
 70
0
 71
3
 72
9
 73
5
 74
0
 42
0.0000001
 43
0.0000001
 44
0.0000000001
 40
0.0
 40
0.0
 40
0.0
 40
0.0
 40
0.5000063554
 40
1.0
 40
1.0
 40
1.0
 40
1.0
 10
-27.242585742
 20
41.1803891973
 30
0.0
 10
-27.1903044576
 20
41.1498472999
 30
0.0
 10
-27.1078216132
 20
41.0540740343
 30
0.0
 10
-27.0661197585
 20
40.9347545
 30
0.0
 10
-27.0658120383
 20
40.8742081614
 30
0.0
  0
SPLINE
  5
59A
100
AcDbEntity
  8
0
100
AcDbSpline
 62
250
  6
CONTINUOUS
 70
0
 71
3
 72
9
 73
5
 74
0
 42
0.0000001
 43
0.0000001
 44
0.0000000001
 40
0.0
 40
0.0
 40
0.0
 40
0.0
 40
0.4487522227
 40
1.0
 40
1.0
 40
1.0
 40
1.0
 10
-16.7436184472
 20
35.0572898877
 30
0.0
 10
-16.7267216247
 20
35.067274061
 30
0.0
 10
-16.680176028
 20
35.0746503787
 30
0.0
 10
-16.6384049678
 20
35.0575274496
 30
0.0
 10
-16.6174658197
 20
35.0455781183
 30
0.0
  0
SPLINE
  5
59B
100
AcDbEntity
  8
0
100
AcDbSpline
 62
250
  6
CONTINUOUS
 70
0
 71
3
 72
9
 73
5
 74
0
 42
0.0000001
 43
0.0000001
 44
0.0000000001
 40
0.0
 40
0.0
 40
0.0
 40
0.0
 40
0.2388044596
 40
1.0
 40
1.0
 40
1.0
 40
1.0
 10
6.706767374
 20
24.0376061131
 30
0.0
 10
6.7110704563
 20
24.0351501412
 30
0.0
 10
6.72876253
 20
24.0242953642
 30
0.0
 10
6.745138853
 20
24.0113564014
 30
0.0
 10
6.7568173095
 20
24.0007247263
 30
0.0
  0
SPLINE
  5
59C
100
AcDbEntity
  8
0
100
AcDbSpline
 62
250
  6
CONTINUOUS
 70
0
 71
3
 72
8
 73
4
 74
0
 42
0.0000001
 43
0.0000001
 44
0.0000000001
 40
0.0
 40
0.0
 40
0.0
 40
0.0
 40
1.0
 40
1.0
 40
1.0
 40
1.0
 10
6.7568173095
 20
24.0007247263
 30
0.0
 10
6.7736362745
 20
23.9854133048
 30
0.0
 10
6.7889652698
 20
23.9683547157
 30
0.0
 10
6.802729356
 20
23.9502476137
 30
0.0
  0
SPLINE
  5
59D
100
AcDbEntity
  8
0
100
AcDbSpline
 62
250
  6
CONTINUOUS
 70
0
 71
3
 72
9
 73
5
 74
0
 42
0.0000001
 43
0.0000001
 44
0.0000000001
 40
0.0
 40
0.0
 40
0.0
 40
0.0
 40
0.2645417479
 40
1.0
 40
1.0
 40
1.0
 40
1.0
 10
6.8558695509
 20
23.8582060962
 30
0.0
 10
6.8599791067
 20
23.8484105561
 30
0.0
 10
6.8740501595
 20
23.8108215431
 30
0.0
 10
6.882338084
 20
23.7707941606
 30
0.0
 10
6.8833880199
 20
23.7412805231
 30
0.0
  0
SPLINE
  5
59E
100
AcDbEntity
  8
0
100
AcDbSpline
 62
7
  6
CONTINUOUS
 70
0
 71
3
 72
9
 73
5
 74
0
 42
0.0000001
 43
0.0000001
 44
0.0000000001
 40
0.0
 40
0.0
 40
0.0
 40
0.0
 40
0.5000063089
 40
1.0
 40
1.0
 40
1.0
 40
1.0
 10
6.1785002023
 20
23.7325909239
 30
0.0
 10
6.2309707053
 20
23.702295113
 30
0.0
 10
6.3139151192
 20
23.6066515005
 30
0.0
 10
6.3552739059
 20
23.486997053
 30
0.0
 10
6.3552739059
 20
23.426409888
 30
0.0
  0
SPLINE
  5
59F
100
AcDbEntity
  8
0
100
AcDbSpline
 62
250
  6
CONTINUOUS
 70
0
 71
3
 72
9
 73
5
 74
0
 42
0.0000001
 43
0.0000001
 44
0.0000000001
 40
0.0
 40
0.0
 40
0.0
 40
0.0
 40
0.500006351
 40
1.0
 40
1.0
 40
1.0
 40
1.0
 10
4.5782484517
 20
22.8086272055
 30
0.0
 10
4.6305488291
 20
22.7781100718
 30
0.0
 10
4.7130740466
 20
22.6823468743
 30
0.0
 10
4.7547459955
 20
22.562995677
 30
0.0
 10
4.7550227238
 20
22.5024451851
 30
0.0
  0
SPLINE
  5
5A0
100
AcDbEntity
  8
0
100
AcDbSpline
 62
250
  6
CONTINUOUS
 70
0
 71
3
 72
9
 73
5
 74
0
 42
0.0000001
 43
0.0000001
 44
0.0000000001
 40
0.0
 40
0.0
 40
0.0
 40
0.0
 40
0.2208619069
 40
1.0
 40
1.0
 40
1.0
 40
1.0
 10
-14.6149549136
 20
36.2997709344
 30
0.0
 10
-14.6068873012
 20
36.3031054699
 30
0.0
 10
-14.5678048789
 20
36.3124387076
 30
0.0
 10
-14.5268508697
 20
36.2978098107
 30
0.0
 10
-14.5002593379
 20
36.28227755
 30
0.0
  0
SPLINE
  5
5A1
100
AcDbEntity
  8
0
100
AcDbSpline
 62
250
  6
CONTINUOUS
 70
0
 71
3
 72
9
 73
5
 74
0
 42
0.0000001
 43
0.0000001
 44
0.0000000001
 40
0.0
 40
0.0
 40
0.0
 40
0.0
 40
0.2388044596
 40
1.0
 40
1.0
 40
1.0
 40
1.0
 10
19.0104253666
 20
16.9336281892
 30
0.0
 10
19.0147284489
 20
16.9311722173
 30
0.0
 10
19.0324205226
 20
16.9203174403
 30
0.0
 10
19.0487968457
 20
16.9073784775
 30
0.0
 10
19.0604753022
 20
16.8967468024
 30
0.0
  0
SPLINE
  5
5A2
100
AcDbEntity
  8
0
100
AcDbSpline
 62
250
  6
CONTINUOUS
 70
0
 71
3
 72
8
 73
4
 74
0
 42
0.0000001
 43
0.0000001
 44
0.0000000001
 40
0.0
 40
0.0
 40
0.0
 40
0.0
 40
1.0
 40
1.0
 40
1.0
 40
1.0
 10
19.0604753022
 20
16.8967468024
 30
0.0
 10
19.0772942671
 20
16.8814353809
 30
0.0
 10
19.0926232625
 20
16.8643767918
 30
0.0
 10
19.1063873486
 20
16.8462696898
 30
0.0
  0
SPLINE
  5
5A3
100
AcDbEntity
  8
0
100
AcDbSpline
 62
250
  6
CONTINUOUS
 70
0
 71
3
 72
9
 73
5
 74
0
 42
0.0000001
 43
0.0000001
 44
0.0000000001
 40
0.0
 40
0.0
 40
0.0
 40
0.0
 40
0.2645417479
 40
1.0
 40
1.0
 40
1.0
 40
1.0
 10
19.1595275435
 20
16.7542281723
 30
0.0
 10
19.1636370993
 20
16.7444326322
 30
0.0
 10
19.1777081522
 20
16.7068436192
 30
0.0
 10
19.1859960766
 20
16.6668162367
 30
0.0
 10
19.1870460126
 20
16.6373025992
 30
0.0
  0
SPLINE
  5
5A4
100
AcDbEntity
  8
0
100
AcDbSpline
 62
7
  6
CONTINUOUS
 70
0
 71
3
 72
9
 73
5
 74
0
 42
0.0000001
 43
0.0000001
 44
0.0000000001
 40
0.0
 40
0.0
 40
0.0
 40
0.0
 40
0.5000063089
 40
1.0
 40
1.0
 40
1.0
 40
1.0
 10
18.4821581949
 20
16.628613
 30
0.0
 10
18.534628698
 20
16.5983171891
 30
0.0
 10
18.6175731118
 20
16.5026735766
 30
0.0
 10
18.6589318986
 20
16.3830191291
 30
0.0
 10
18.6589318986
 20
16.3224319641
 30
0.0
  0
SPLINE
  5
5A5
100
AcDbEntity
  8
0
100
AcDbSpline
 62
250
  6
CONTINUOUS
 70
0
 71
3
 72
9
 73
5
 74
0
 42
0.0000001
 43
0.0000001
 44
0.0000000001
 40
0.0
 40
0.0
 40
0.0
 40
0.0
 40
0.500006351
 40
1.0
 40
1.0
 40
1.0
 40
1.0
 10
16.8819064444
 20
15.7046492816
 30
0.0
 10
16.9342068218
 20
15.6741321479
 30
0.0
 10
17.0167320392
 20
15.5783689504
 30
0.0
 10
17.0584039881
 20
15.4590177531
 30
0.0
 10
17.0586807164
 20
15.3984672612
 30
0.0
  0
SPLINE
  5
5A6
100
AcDbEntity
  8
0
100
AcDbSpline
 62
250
  6
CONTINUOUS
 70
0
 71
3
 72
9
 73
5
 74
0
 42
0.0000001
 43
0.0000001
 44
0.0000000001
 40
0.0
 40
0.0
 40
0.0
 40
0.0
 40
0.5507379972
 40
1.0
 40
1.0
 40
1.0
 40
1.0
 10
-27.4183339979
 20
40.5542800693
 30
0.0
 10
-27.4183339979
 20
40.5304189635
 30
0.0
 10
-27.4125457125
 20
40.486079994
 30
0.0
 10
-27.3834619796
 20
40.4496187066
 30
0.0
 10
-27.3666122553
 20
40.4398741197
 30
0.0
  0
SPLINE
  5
5A7
100
AcDbEntity
  8
0
100
AcDbSpline
 62
250
  6
CONTINUOUS
 70
0
 71
3
 72
9
 73
5
 74
0
 42
0.0000001
 43
0.0000001
 44
0.0000000001
 40
0.0
 40
0.0
 40
0.0
 40
0.0
 40
0.5507500281
 40
1.0
 40
1.0
 40
1.0
 40
1.0
 10
-29.0968720684
 20
41.5234469141
 30
0.0
 10
-29.0968720684
 20
41.4995753973
 30
0.0
 10
-29.0910798646
 20
41.4552159102
 30
0.0
 10
-29.0619642829
 20
41.4187496191
 30
0.0
 10
-29.045101413
 20
41.409012699
 30
0.0
  0
SPLINE
  5
5A8
100
AcDbEntity
  8
0
100
AcDbSpline
 62
250
  6
CONTINUOUS
 70
0
 71
3
 72
9
 73
5
 74
0
 42
0.0000001
 43
0.0000001
 44
0.0000000001
 40
0.0
 40
0.0
 40
0.0
 40
0.0
 40
0.5342180114
 40
1.0
 40
1.0
 40
1.0
 40
1.0
 10
-27.0658120383
 20
40.5536879886
 30
0.0
 10
-27.082668346
 20
40.5105502879
 30
0.0
 10
-27.1334689891
 20
40.4339318562
 30
0.0
 10
-27.2242696304
 20
40.40369989
 30
0.0
 10
-27.2644805776
 20
40.4074022775
 30
0.0
  0
SPLINE
  5
5A9
100
AcDbEntity
  8
0
100
AcDbSpline
 62
7
  6
CONTINUOUS
 70
0
 71
3
 72
9
 73
5
 74
0
 42
0.0000001
 43
0.0000001
 44
0.0000000001
 40
0.0
 40
0.0
 40
0.0
 40
0.0
 40
0.4494244407
 40
1.0
 40
1.0
 40
1.0
 40
1.0
 10
-15.1589841381
 20
35.9936338344
 30
0.0
 10
-15.1421195472
 20
36.0031461424
 30
0.0
 10
-15.0962755603
 20
36.0097577355
 30
0.0
 10
-15.0552511203
 20
35.9926928161
 30
0.0
 10
-15.0347092166
 20
35.9808321783
 30
0.0
  0
SPLINE
  5
5AA
100
AcDbEntity
  8
0
100
AcDbSpline
 62
250
  6
CONTINUOUS
 70
0
 71
3
 72
9
 73
5
 74
0
 42
0.0000001
 43
0.0000001
 44
0.0000000001
 40
0.0
 40
0.0
 40
0.0
 40
0.0
 40
0.6517397319
 40
1.0
 40
1.0
 40
1.0
 40
1.0
 10
-24.9362640757
 20
41.7761364764
 30
0.0
 10
-24.9289020295
 20
41.7656266993
 30
0.0
 10
-24.9181529562
 20
41.7503481473
 30
0.0
 10
-24.9142904287
 20
41.7271546454
 30
0.0
 10
-24.9185642849
 20
41.7217928388
 30
0.0
  0
SPLINE
  5
5AB
100
AcDbEntity
  8
0
100
AcDbSpline
 62
250
  6
CONTINUOUS
 70
0
 71
3
 72
8
 73
4
 74
0
 42
0.0000001
 43
0.0000001
 44
0.0000000001
 40
0.0
 40
0.0
 40
0.0
 40
0.0
 40
1.0
 40
1.0
 40
1.0
 40
1.0
 10
19.1344029673
 20
-22.3186079578
 30
0.0
 10
19.1233405866
 20
-22.3122203429
 30
0.0
 10
19.1105088019
 20
-22.3084411698
 30
0.0
 10
19.097785275
 20
-22.3073054968
 30
0.0
  0
SPLINE
  5
5AC
100
AcDbEntity
  8
0
100
AcDbSpline
 62
250
  6
CONTINUOUS
 70
0
 71
3
 72
9
 73
5
 74
0
 42
0.0000001
 43
0.0000001
 44
0.0000000001
 40
0.0
 40
0.0
 40
0.0
 40
0.0
 40
0.5507489885
 40
1.0
 40
1.0
 40
1.0
 40
1.0
 10
-15.1146760053
 20
33.4503021454
 30
0.0
 10
-15.1146760053
 20
33.4264314268
 30
0.0
 10
-15.1088841015
 20
33.3820735045
 30
0.0
 10
-15.0797709498
 20
33.3456075878
 30
0.0
 10
-15.0629090757
 20
33.3358700816
 30
0.0
  0
SPLINE
  5
5AD
100
AcDbEntity
  8
RACCORDO
100
AcDbSpline
 62
250
  6
CONTINUOUS
 70
0
 71
3
 72
9
 73
5
 74
0
 42
0.0000001
 43
0.0000001
 44
0.0000000001
 40
0.0
 40
0.0
 40
0.0
 40
0.0
 40
0.2429581486
 40
1.0
 40
1.0
 40
1.0
 40
1.0
 10
-33.0513456563
 20
2.9638499101
 30
0.0
 10
-33.3323514295
 20
3.5384697797
 30
0.0
 10
-34.435016155
 20
5.9297840715
 30
0.0
 10
-35.3248027669
 20
8.4174673752
 30
0.0
 10
-35.889493771
 20
10.3289078128
 30
0.0
  0
SPLINE
  5
5AE
100
AcDbEntity
  8
0
100
AcDbSpline
 62
250
  6
CONTINUOUS
 70
0
 71
3
 72
9
 73
5
 74
0
 42
0.0000001
 43
0.0000001
 44
0.0000000001
 40
0.0
 40
0.0
 40
0.0
 40
0.0
 40
0.5489348081
 40
1.0
 40
1.0
 40
1.0
 40
1.0
 10
-16.7932140757
 20
34.4194689902
 30
0.0
 10
-16.7932140757
 20
34.3969615292
 30
0.0
 10
-16.7879307564
 20
34.3552304019
 30
0.0
 10
-16.762773197
 20
34.3195973822
 30
0.0
 10
-16.7476300449
 20
34.3089796921
 30
0.0
  0
SPLINE
  5
5AF
100
AcDbEntity
  8
0
100
AcDbSpline
 62
7
  6
CONTINUOUS
 70
0
 71
3
 72
9
 73
5
 74
0
 42
0.0000001
 43
0.0000001
 44
0.0000000001
 40
0.0
 40
0.0
 40
0.0
 40
0.0
 40
0.2584584436
 40
1.0
 40
1.0
 40
1.0
 40
1.0
 10
-14.0509334375
 20
33.3842200518
 30
0.0
 10
-14.0683133136
 20
33.3627817303
 30
0.0
 10
-14.1430468546
 20
33.287401561
 30
0.0
 10
-14.2542150657
 20
33.2383566332
 30
0.0
 10
-14.3330631546
 20
33.2456195364
 30
0.0
  0
SPLINE
  5
5B0
100
AcDbEntity
  8
RACCORDO
100
AcDbSpline
 62
250
  6
CONTINUOUS
 70
0
 71
3
 72
9
 73
5
 74
0
 42
0.0000001
 43
0.0000001
 44
0.0000000001
 40
0.0
 40
0.0
 40
0.0
 40
0.0
 40
0.2479135647
 40
1.0
 40
1.0
 40
1.0
 40
1.0
 10
-35.9466713405
 20
10.5227077738
 30
0.0
 10
-36.2534665221
 20
11.5638863081
 30
0.0
 10
-37.467781602
 20
15.7704566711
 30
0.0
 10
-38.5899647385
 20
20.0035696147
 30
0.0
 10
-39.38380507
 20
23.1993025555
 30
0.0
  0
SPLINE
  5
5B1
100
AcDbEntity
  8
0
100
AcDbSpline
 62
250
  6
CONTINUOUS
 70
0
 71
3
 72
9
 73
5
 74
0
 42
0.0000001
 43
0.0000001
 44
0.0000000001
 40
0.0
 40
0.0
 40
0.0
 40
0.0
 40
0.5342178314
 40
1.0
 40
1.0
 40
1.0
 40
1.0
 10
-14.7621540456
 20
33.4497100647
 30
0.0
 10
-14.7790102828
 20
33.4065725446
 30
0.0
 10
-14.8298106401
 20
33.3299544302
 30
0.0
 10
-14.9206106874
 20
33.2997221605
 30
0.0
 10
-14.9608215212
 20
33.3034242557
 30
0.0
  0
SPLINE
  5
5B2
100
AcDbEntity
  8
RACCORDO
100
AcDbSpline
 62
250
  6
CONTINUOUS
 70
0
 71
3
 72
9
 73
5
 74
0
 42
0.0000001
 43
0.0000001
 44
0.0000000001
 40
0.0
 40
0.0
 40
0.0
 40
0.0
 40
0.2442449663
 40
1.0
 40
1.0
 40
1.0
 40
1.0
 10
-39.4644400044
 20
23.5280623091
 30
0.0
 10
-39.5983867299
 20
24.0812611998
 30
0.0
 10
-40.113037522
 20
26.3543000528
 30
0.0
 10
-40.495400053
 20
28.6567781467
 30
0.0
 10
-40.7173835036
 20
30.4039311675
 30
0.0
  0
SPLINE
  5
5B3
100
AcDbEntity
  8
RACCORDO
100
AcDbSpline
 62
250
  6
CONTINUOUS
 70
0
 71
3
 72
11
 73
7
 74
0
 42
0.0000001
 43
0.0000001
 44
0.0000000001
 40
0.0
 40
0.0
 40
0.0
 40
0.0
 40
0.2205208904
 40
0.4709895059
 40
0.7368347901
 40
1.0
 40
1.0
 40
1.0
 40
1.0
 10
-40.7173835036
 20
30.4039311675
 30
0.0
 10
-40.7341405775
 20
30.5351138443
 30
0.0
 10
-40.7227214438
 20
30.8214686628
 30
0.0
 10
-40.6066200959
 20
31.250480307
 30
0.0
 10
-40.4019490206
 20
31.673522256
 30
0.0
 10
-40.2138679243
 20
31.9317443081
 30
0.0
 10
-40.1085161814
 20
32.0492562572
 30
0.0
  0
SPLINE
  5
5B4
100
AcDbEntity
  8
RACCORDO
100
AcDbSpline
 62
250
  6
CONTINUOUS
 70
0
 71
3
 72
9
 73
5
 74
0
 42
0.0000001
 43
0.0000001
 44
0.0000000001
 40
0.0
 40
0.0
 40
0.0
 40
0.0
 40
0.2581222844
 40
1.0
 40
1.0
 40
1.0
 40
1.0
 10
-34.093887192
 20
37.5542499298
 30
0.0
 10
-34.0821849778
 20
37.5647780267
 30
0.0
 10
-34.0361259857
 20
37.6047468751
 30
0.0
 10
-33.9871129766
 20
37.6413699643
 30
0.0
 10
-33.9491558682
 20
37.6659890815
 30
0.0
  0
SPLINE
  5
5B5
100
AcDbEntity
  8
0
100
AcDbSpline
 62
250
  6
CONTINUOUS
 70
0
 71
3
 72
9
 73
5
 74
0
 42
0.0000001
 43
0.0000001
 44
0.0000000001
 40
0.0
 40
0.0
 40
0.0
 40
0.0
 40
0.6517397319
 40
1.0
 40
1.0
 40
1.0
 40
1.0
 10
-12.6326060831
 20
34.6721585525
 30
0.0
 10
-12.6252440369
 20
34.6616487754
 30
0.0
 10
-12.6144949636
 20
34.6463702234
 30
0.0
 10
-12.610632436
 20
34.6231767215
 30
0.0
 10
-12.6149062923
 20
34.6178149149
 30
0.0
  0
SPLINE
  5
5B6
100
AcDbEntity
  8
RACCORDO
100
AcDbSpline
 62
7
  6
CONTINUOUS
 70
0
 71
3
 72
11
 73
7
 74
0
 42
0.0000001
 43
0.0000001
 44
0.0000000001
 40
0.0
 40
0.0
 40
0.0
 40
0.0
 40
0.2370504115
 40
0.4979115415
 40
0.7560752669
 40
1.0
 40
1.0
 40
1.0
 40
1.0
 10
19.0121372841
 20
14.6080221348
 30
0.0
 10
19.0630488332
 20
14.5786264444
 30
0.0
 10
19.1635069076
 20
14.5028539381
 30
0.0
 10
19.2743227313
 20
14.3524555872
 30
0.0
 10
19.3772392837
 20
14.1850425641
 30
0.0
 10
19.3654379847
 20
14.056121752
 30
0.0
 10
19.3654379847
 20
13.9956283791
 30
0.0
  0
SPLINE
  5
5B7
100
AcDbEntity
  8
RACCORDO
100
AcDbSpline
 62
250
  6
CONTINUOUS
 70
0
 71
3
 72
9
 73
5
 74
0
 42
0.0000001
 43
0.0000001
 44
0.0000000001
 40
0.0
 40
0.0
 40
0.0
 40
0.0
 40
0.2419740087
 40
1.0
 40
1.0
 40
1.0
 40
1.0
 10
12.7152746421
 20
10.7225317475
 30
0.0
 10
12.7026965327
 20
10.7146403825
 30
0.0
 10
12.6514300528
 20
10.6808944615
 30
0.0
 10
12.6030170218
 20
10.6428775091
 30
0.0
 10
12.5679947813
 20
10.6122640891
 30
0.0
  0
SPLINE
  5
5B8
100
AcDbEntity
  8
RACCORDO
100
AcDbSpline
 62
250
  6
CONTINUOUS
 70
0
 71
3
 72
9
 73
5
 74
0
 42
0.0000001
 43
0.0000001
 44
0.0000000001
 40
0.0
 40
0.0
 40
0.0
 40
0.0
 40
0.2421182461
 40
1.0
 40
1.0
 40
1.0
 40
1.0
 10
13.0811073822
 20
10.1178709091
 30
0.0
 10
13.0747652636
 20
10.1139574601
 30
0.0
 10
13.0489254532
 20
10.0972225939
 30
0.0
 10
13.0245023376
 20
10.0783322216
 30
0.0
 10
13.0068303174
 20
10.0631049533
 30
0.0
  0
SPLINE
  5
5B9
100
AcDbEntity
  8
RACCORDO
100
AcDbSpline
 62
250
  6
CONTINUOUS
 70
0
 71
3
 72
11
 73
7
 74
0
 42
0.0000001
 43
0.0000001
 44
0.0000000001
 40
0.0
 40
0.0
 40
0.0
 40
0.0
 40
0.2346011465
 40
0.4977691994
 40
0.7621442581
 40
1.0
 40
1.0
 40
1.0
 40
1.0
 10
13.0811073822
 20
10.1178709091
 30
0.0
 10
13.0784088611
 20
10.1748186926
 30
0.0
 10
13.0516331512
 20
10.2946523149
 30
0.0
 10
12.9715575827
 20
10.4629442772
 30
0.0
 10
12.8590889307
 20
10.6125554728
 30
0.0
 10
12.7648636388
 20
10.6928320506
 30
0.0
 10
12.7152746421
 20
10.7225317475
 30
0.0
  0
SPLINE
  5
5BA
100
AcDbEntity
  8
RACCORDO
100
AcDbSpline
 62
250
  6
CONTINUOUS
 70
0
 71
3
 72
11
 73
7
 74
0
 42
0.0000001
 43
0.0000001
 44
0.0000000001
 40
0.0
 40
0.0
 40
0.0
 40
0.0
 40
0.2221033207
 40
0.4845679007
 40
0.7552398145
 40
1.0
 40
1.0
 40
1.0
 40
1.0
 10
13.0068303174
 20
10.0631049533
 30
0.0
 10
12.9929360428
 20
10.1142226571
 30
0.0
 10
12.944605228
 20
10.2206396452
 30
0.0
 10
12.8424878368
 20
10.3696811322
 30
0.0
 10
12.7155763886
 20
10.50588762
 30
0.0
 10
12.6180159182
 20
10.5821700054
 30
0.0
 10
12.5679947813
 20
10.6122640891
 30
0.0
  0
SPLINE
  5
5BB
100
AcDbEntity
  8
RACCORDO
100
AcDbSpline
 62
250
  6
CONTINUOUS
 70
0
 71
3
 72
11
 73
7
 74
0
 42
0.0000001
 43
0.0000001
 44
0.0000000001
 40
0.0
 40
0.0
 40
0.0
 40
0.0
 40
0.2221032128
 40
0.4845677274
 40
0.7552397184
 40
1.0
 40
1.0
 40
1.0
 40
1.0
 10
6.9422968967
 20
4.8375396271
 30
0.0
 10
6.9284026317
 20
4.8886573071
 30
0.0
 10
6.8800718494
 20
4.9950742641
 30
0.0
 10
6.7779544849
 20
5.1441157437
 30
0.0
 10
6.6510430303
 20
5.2803222626
 30
0.0
 10
6.5534825272
 20
5.3566046772
 30
0.0
 10
6.5034613682
 20
5.3866987694
 30
0.0
  0
SPLINE
  5
5BC
100
AcDbEntity
  8
RACCORDO
100
AcDbSpline
 62
250
  6
CONTINUOUS
 70
0
 71
3
 72
11
 73
7
 74
0
 42
0.0000001
 43
0.0000001
 44
0.0000000001
 40
0.0
 40
0.0
 40
0.0
 40
0.0
 40
0.2569879433
 40
0.5236742563
 40
0.7776153477
 40
1.0
 40
1.0
 40
1.0
 40
1.0
 10
6.5034613605
 20
5.3866987629
 30
0.0
 10
6.3727258715
 20
5.2729491673
 30
0.0
 10
6.135669834
 20
5.0063982728
 30
0.0
 10
5.8736095857
 20
4.5481269775
 30
0.0
 10
5.7190759746
 20
4.0677901859
 30
0.0
 10
5.6989464969
 20
3.7412163559
 30
0.0
 10
5.7183549685
 20
3.5925177502
 30
0.0
  0
SPLINE
  5
5BD
100
AcDbEntity
  8
RACCORDO
100
AcDbSpline
 62
250
  6
CONTINUOUS
 70
0
 71
3
 72
11
 73
7
 74
0
 42
0.0000001
 43
0.0000001
 44
0.0000000001
 40
0.0
 40
0.0
 40
0.0
 40
0.0
 40
0.2571885152
 40
0.5238474716
 40
0.7776595194
 40
1.0
 40
1.0
 40
1.0
 40
1.0
 10
6.9422968967
 20
4.8375396271
 30
0.0
 10
6.8547117531
 20
4.762044818
 30
0.0
 10
6.6957905237
 20
4.5849744933
 30
0.0
 10
6.5200150028
 20
4.2799709566
 30
0.0
 10
6.4163573324
 20
3.9599741329
 30
0.0
 10
6.4028757235
 20
3.7422711087
 30
0.0
 10
6.4158823138
 20
3.6431570739
 30
0.0
  0
SPLINE
  5
5BE
100
AcDbEntity
  8
RACCORDO
100
AcDbSpline
 62
250
  6
CONTINUOUS
 70
0
 71
3
 72
9
 73
5
 74
0
 42
0.0000001
 43
0.0000001
 44
0.0000000001
 40
0.0
 40
0.0
 40
0.0
 40
0.0
 40
0.2558343673
 40
1.0
 40
1.0
 40
1.0
 40
1.0
 10
5.7183549685
 20
3.5925177502
 30
0.0
 10
5.8000587855
 20
2.9697899494
 30
0.0
 10
6.1534673671
 20
0.5403515739
 30
0.0
 10
6.6461324319
 20
-1.8694448511
 30
0.0
 10
7.0990479764
 20
-3.6393142265
 30
0.0
  0
SPLINE
  5
5BF
100
AcDbEntity
  8
RACCORDO
100
AcDbSpline
 62
250
  6
CONTINUOUS
 70
0
 71
3
 72
9
 73
5
 74
0
 42
0.0000001
 43
0.0000001
 44
0.0000000001
 40
0.0
 40
0.0
 40
0.0
 40
0.0
 40
0.2558334263
 40
1.0
 40
1.0
 40
1.0
 40
1.0
 10
6.4158823138
 20
3.6431570739
 30
0.0
 10
6.4971400794
 20
3.0238836932
 30
0.0
 10
6.8486200854
 20
0.6079138424
 30
0.0
 10
7.3385954009
 20
-1.7885195745
 30
0.0
 10
7.7890356789
 20
-3.5485736234
 30
0.0
  0
SPLINE
  5
5C0
100
AcDbEntity
  8
RACCORDO
100
AcDbSpline
 62
250
  6
CONTINUOUS
 70
0
 71
3
 72
9
 73
5
 74
0
 42
0.0000001
 43
0.0000001
 44
0.0000000001
 40
0.0
 40
0.0
 40
0.0
 40
0.0
 40
0.5098221991
 40
1.0
 40
1.0
 40
1.0
 40
1.0
 10
6.4158823138
 20
3.6431570739
 30
0.0
 10
6.315815793
 20
3.5716000747
 30
0.0
 10
6.0744551336
 20
3.4964309017
 30
0.0
 10
5.8208907355
 20
3.5335572661
 30
0.0
 10
5.7183549739
 20
3.5925177542
 30
0.0
  0
SPLINE
  5
5C1
100
AcDbEntity
  8
RACCORDO
100
AcDbSpline
 62
250
  6
CONTINUOUS
 70
0
 71
3
 72
9
 73
5
 74
0
 42
0.0000001
 43
0.0000001
 44
0.0000000001
 40
0.0
 40
0.0
 40
0.0
 40
0.0
 40
0.5163568714
 40
1.0
 40
1.0
 40
1.0
 40
1.0
 10
7.7890356789
 20
-3.5485736234
 30
0.0
 10
7.6938091568
 20
-3.6291455223
 30
0.0
 10
7.4590194809
 20
-3.7260636595
 30
0.0
 10
7.200387056
 20
-3.6974620787
 30
0.0
 10
7.0990479773
 20
-3.6393142258
 30
0.0
  0
SPLINE
  5
5C2
100
AcDbEntity
  8
RACCORDO
100
AcDbSpline
 62
250
  6
CONTINUOUS
 70
0
 71
3
 72
9
 73
5
 74
0
 42
0.0000001
 43
0.0000001
 44
0.0000000001
 40
0.0
 40
0.0
 40
0.0
 40
0.0
 40
0.2519960468
 40
1.0
 40
1.0
 40
1.0
 40
1.0
 10
7.0990479764
 20
-3.6393142265
 30
0.0
 10
7.3789243512
 20
-4.7329210467
 30
0.0
 10
8.513187738
 20
-9.0666113258
 30
0.0
 10
9.7426361561
 20
-13.3754433788
 30
0.0
 10
10.717386895
 20
-16.5813209624
 30
0.0
  0
SPLINE
  5
5C3
100
AcDbEntity
  8
RACCORDO
100
AcDbSpline
 62
250
  6
CONTINUOUS
 70
0
 71
3
 72
9
 73
5
 74
0
 42
0.0000001
 43
0.0000001
 44
0.0000000001
 40
0.0
 40
0.0
 40
0.0
 40
0.0
 40
0.251995975
 40
1.0
 40
1.0
 40
1.0
 40
1.0
 10
7.7890356789
 20
-3.5485736234
 30
0.0
 10
8.0686370076
 20
-4.6410897081
 30
0.0
 10
9.2017858847
 20
-8.9704587678
 30
0.0
 10
10.430025897
 20
-13.2749937577
 30
0.0
 10
11.4038182723
 20
-16.4776741586
 30
0.0
  0
SPLINE
  5
5C4
100
AcDbEntity
  8
RACCORDO
100
AcDbSpline
 62
250
  6
CONTINUOUS
 70
0
 71
3
 72
9
 73
5
 74
0
 42
0.0000001
 43
0.0000001
 44
0.0000000001
 40
0.0
 40
0.0
 40
0.0
 40
0.0
 40
0.5184609114
 40
1.0
 40
1.0
 40
1.0
 40
1.0
 10
11.4038182723
 20
-16.4776741586
 30
0.0
 10
11.3104073207
 20
-16.561043914
 30
0.0
 10
11.0783721736
 20
-16.6649927751
 30
0.0
 10
10.8182619238
 20
-16.6391753352
 30
0.0
 10
10.7173869418
 20
-16.5813209193
 30
0.0
  0
SPLINE
  5
5C5
100
AcDbEntity
  8
RACCORDO
100
AcDbSpline
 62
250
  6
CONTINUOUS
 70
0
 71
3
 72
9
 73
5
 74
0
 42
0.0000001
 43
0.0000001
 44
0.0000000001
 40
0.0
 40
0.0
 40
0.0
 40
0.0
 40
0.2569836687
 40
1.0
 40
1.0
 40
1.0
 40
1.0
 10
10.717386895
 20
-16.5813209624
 30
0.0
 10
10.9207796709
 20
-17.2503056884
 30
0.0
 10
11.7639992189
 20
-19.8372884532
 30
0.0
 10
12.8208013426
 20
-22.3563550888
 30
0.0
 10
13.73421907
 20
-24.1598946356
 30
0.0
  0
SPLINE
  5
5C6
100
AcDbEntity
  8
RACCORDO
100
AcDbSpline
 62
250
  6
CONTINUOUS
 70
0
 71
3
 72
9
 73
5
 74
0
 42
0.0000001
 43
0.0000001
 44
0.0000000001
 40
0.0
 40
0.0
 40
0.0
 40
0.0
 40
0.2569819846
 40
1.0
 40
1.0
 40
1.0
 40
1.0
 10
11.4038182723
 20
-16.4776741586
 30
0.0
 10
11.6061010594
 20
-17.1429547209
 30
0.0
 10
12.4447211211
 20
-19.7156287821
 30
0.0
 10
13.4957542454
 20
-22.2207525698
 30
0.0
 10
14.4041762295
 20
-24.014309755
 30
0.0
  0
SPLINE
  5
5C7
100
AcDbEntity
  8
RACCORDO
100
AcDbSpline
 62
250
  6
CONTINUOUS
 70
0
 71
3
 72
10
 73
6
 74
0
 42
0.0000001
 43
0.0000001
 44
0.0000000001
 40
0.0
 40
0.0
 40
0.0
 40
0.0
 40
0.2627493596
 40
0.5279986065
 40
1.0
 40
1.0
 40
1.0
 40
1.0
 10
14.4041762295
 20
-24.014309755
 30
0.0
 10
14.3607249029
 20
-24.0606458068
 30
0.0
 10
14.2572497151
 20
-24.1398815605
 30
0.0
 10
14.0317187826
 20
-24.2284389949
 30
0.0
 10
13.833218838
 20
-24.2166425524
 30
0.0
 10
13.7342198035
 20
-24.1598938323
 30
0.0
  0
SPLINE
  5
5C8
100
AcDbEntity
  8
RACCORDO
100
AcDbSpline
 62
250
  6
CONTINUOUS
 70
0
 71
3
 72
9
 73
5
 74
0
 42
0.0000001
 43
0.0000001
 44
0.0000000001
 40
0.0
 40
0.0
 40
0.0
 40
0.0
 40
0.2633900886
 40
1.0
 40
1.0
 40
1.0
 40
1.0
 10
13.73421907
 20
-24.1598946356
 30
0.0
 10
13.7428583052
 20
-24.1770544151
 30
0.0
 10
13.7794699329
 20
-24.2401427946
 30
0.0
 10
13.8341903716
 20
-24.2932612912
 30
0.0
 10
13.880718548
 20
-24.3201296581
 30
0.0
  0
SPLINE
  5
5C9
100
AcDbEntity
  8
RACCORDO
100
AcDbSpline
 62
250
  6
CONTINUOUS
 70
0
 71
3
 72
11
 73
7
 74
0
 42
0.0000001
 43
0.0000001
 44
0.0000000001
 40
0.0
 40
0.0
 40
0.0
 40
0.0
 40
0.2364632843
 40
0.4638098904
 40
0.7121150665
 40
1.0
 40
1.0
 40
1.0
 40
1.0
 10
14.4041762295
 20
-24.014309755
 30
0.0
 10
14.4167962338
 20
-24.0392218002
 30
0.0
 10
14.4511456625
 20
-24.0845704687
 30
0.0
 10
14.530314437
 20
-24.1213614595
 30
0.0
 10
14.622823013
 20
-24.1197048478
 30
0.0
 10
14.6831775306
 20
-24.0976414246
 30
0.0
 10
14.7136091605
 20
-24.0824804367
 30
0.0
  0
SPLINE
  5
5CA
100
AcDbEntity
  8
RACCORDO
100
AcDbSpline
 62
7
  6
CONTINUOUS
 70
0
 71
3
 72
9
 73
5
 74
0
 42
0.0000001
 43
0.0000001
 44
0.0000000001
 40
0.0
 40
0.0
 40
0.0
 40
0.0
 40
0.5077452575
 40
1.0
 40
1.0
 40
1.0
 40
1.0
 10
19.36542155
 20
-21.7654061837
 30
0.0
 10
19.36542155
 20
-21.8084716492
 30
0.0
 10
19.3796389414
 20
-21.8989146
 30
0.0
 10
19.3108771715
 20
-21.9664706689
 30
0.0
 10
19.2749770299
 20
-21.9877867751
 30
0.0
  0
SPLINE
  5
5CB
100
AcDbEntity
  8
RACCORDO
100
AcDbSpline
 62
250
  6
CONTINUOUS
 70
0
 71
3
 72
9
 73
5
 74
0
 42
0.0000001
 43
0.0000001
 44
0.0000000001
 40
0.0
 40
0.0
 40
0.0
 40
0.0
 40
0.5498576758
 40
1.0
 40
1.0
 40
1.0
 40
1.0
 10
14.7136091605
 20
-24.0824804367
 30
0.0
 10
14.7113011644
 20
-24.1337606168
 30
0.0
 10
14.6940852045
 20
-24.2286996392
 30
0.0
 10
14.6268279124
 20
-24.3036404259
 30
0.0
 10
14.5892057134
 20
-24.322362462
 30
0.0
  0
SPLINE
  5
5CC
100
AcDbEntity
  8
0
100
AcDbSpline
 62
250
  6
CONTINUOUS
 70
0
 71
3
 72
10
 73
6
 74
0
 42
0.0000001
 43
0.0000001
 44
0.0000000001
 40
0.0
 40
0.0
 40
0.0
 40
0.0
 40
0.2087553224
 40
0.4704848641
 40
1.0
 40
1.0
 40
1.0
 40
1.0
 10
17.0586807164
 20
-23.8595081448
 30
0.0
 10
17.0446119354
 20
-23.8395557938
 30
0.0
 10
17.0079777629
 20
-23.7981444705
 30
0.0
 10
16.9224382451
 20
-23.7184663182
 30
0.0
 10
16.8479053935
 20
-23.6624218141
 30
0.0
 10
16.7944436931
 20
-23.6311697917
 30
0.0
  0
SPLINE
  5
5CD
100
AcDbEntity
  8
0
100
AcDbSpline
 62
7
  6
CONTINUOUS
 70
0
 71
3
 72
9
 73
5
 74
0
 42
0.0000001
 43
0.0000001
 44
0.0000000001
 40
0.0
 40
0.0
 40
0.0
 40
0.0
 40
0.4469448178
 40
1.0
 40
1.0
 40
1.0
 40
1.0
 10
17.7694899339
 20
-22.9819819576
 30
0.0
 10
17.7222698894
 20
-22.9776465007
 30
0.0
 10
17.6184921114
 20
-22.9520720343
 30
0.0
 10
17.5188527361
 20
-22.9148616588
 30
0.0
 10
17.4659700684
 20
-22.8894382732
 30
0.0
  0
SPLINE
  5
5CE
100
AcDbEntity
  8
0
100
AcDbSpline
 62
250
  6
CONTINUOUS
 70
0
 71
3
 72
9
 73
5
 74
0
 42
0.0000001
 43
0.0000001
 44
0.0000000001
 40
0.0
 40
0.0
 40
0.0
 40
0.0
 40
0.2293775855
 40
1.0
 40
1.0
 40
1.0
 40
1.0
 10
16.7060553454
 20
-23.8589751161
 30
0.0
 10
16.7060553454
 20
-23.8400988832
 30
0.0
 10
16.7158523502
 20
-23.7579575497
 30
0.0
 10
16.754711833
 20
-23.6805975232
 30
0.0
 10
16.7944436931
 20
-23.6311697917
 30
0.0
  0
SPLINE
  5
5CF
100
AcDbEntity
  8
0
100
AcDbSpline
 62
250
  6
CONTINUOUS
 70
0
 71
3
 72
9
 73
5
 74
0
 42
0.0000001
 43
0.0000001
 44
0.0000000001
 40
0.0
 40
0.0
 40
0.0
 40
0.0
 40
0.5341649546
 40
1.0
 40
1.0
 40
1.0
 40
1.0
 10
17.0586807164
 20
15.0768776423
 30
0.0
 10
17.0418319233
 20
15.0337288022
 30
0.0
 10
16.9910242589
 20
14.9570828358
 30
0.0
 10
16.9002062751
 20
14.9268340766
 30
0.0
 10
16.8599790644
 20
14.9305264165
 30
0.0
  0
SPLINE
  5
5D0
100
AcDbEntity
  8
0
100
AcDbSpline
 62
250
  6
CONTINUOUS
 70
0
 71
3
 72
9
 73
5
 74
0
 42
0.0000001
 43
0.0000001
 44
0.0000000001
 40
0.0
 40
0.0
 40
0.0
 40
0.0
 40
0.4996593633
 40
1.0
 40
1.0
 40
1.0
 40
1.0
 10
16.7060553454
 20
15.3990002898
 30
0.0
 10
16.7583409245
 20
15.3688112517
 30
0.0
 10
16.88225974
 20
15.34480248
 30
0.0
 10
17.0061876576
 20
15.3684741699
 30
0.0
 10
17.0586807164
 20
15.3984672612
 30
0.0
  0
SPLINE
  5
5D1
100
AcDbEntity
  8
0
100
AcDbSpline
 62
250
  6
CONTINUOUS
 70
0
 71
3
 72
9
 73
5
 74
0
 42
0.0000001
 43
0.0000001
 44
0.0000000001
 40
0.0
 40
0.0
 40
0.0
 40
0.0
 40
0.2302828286
 40
1.0
 40
1.0
 40
1.0
 40
1.0
 10
16.7060553454
 20
15.0774106709
 30
0.0
 10
16.7162243713
 20
15.0715392028
 30
0.0
 10
16.7622752072
 20
15.0493483017
 30
0.0
 10
16.8134490229
 20
15.038946075
 30
0.0
 10
16.8526009712
 20
15.0361918386
 30
0.0
  0
SPLINE
  5
5D2
100
AcDbEntity
  8
0
100
AcDbSpline
 62
250
  6
CONTINUOUS
 70
0
 71
3
 72
9
 73
5
 74
0
 42
0.0000001
 43
0.0000001
 44
0.0000000001
 40
0.0
 40
0.0
 40
0.0
 40
0.0
 40
0.2661219788
 40
1.0
 40
1.0
 40
1.0
 40
1.0
 10
16.9466934345
 20
15.0399214923
 30
0.0
 10
16.9570653189
 20
15.0415038464
 30
0.0
 10
16.995755791
 20
15.0489589334
 30
0.0
 10
17.0335590258
 20
15.0625237986
 30
0.0
 10
17.0586807164
 20
15.0768776423
 30
0.0
  0
SPLINE
  5
5D3
100
AcDbEntity
  8
0
100
AcDbSpline
 62
250
  6
CONTINUOUS
 70
0
 71
3
 72
9
 73
5
 74
0
 42
0.0000001
 43
0.0000001
 44
0.0000000001
 40
0.0
 40
0.0
 40
0.0
 40
0.0
 40
0.5507490787
 40
1.0
 40
1.0
 40
1.0
 40
1.0
 10
16.7060553454
 20
15.0774106709
 30
0.0
 10
16.7060553454
 20
15.053539874
 30
0.0
 10
16.7118472787
 20
15.0091817973
 30
0.0
 10
16.7409606701
 20
14.9727158431
 30
0.0
 10
16.757822643
 20
14.9629783945
 30
0.0
  0
SPLINE
  5
5D4
100
AcDbEntity
  8
0
100
AcDbSpline
 62
250
  6
CONTINUOUS
 70
0
 71
3
 72
9
 73
5
 74
0
 42
0.0000001
 43
0.0000001
 44
0.0000000001
 40
0.0
 40
0.0
 40
0.0
 40
0.0
 40
0.5491549644
 40
1.0
 40
1.0
 40
1.0
 40
1.0
 10
15.0256648804
 20
16.0476470652
 30
0.0
 10
15.0256648804
 20
16.0249907297
 30
0.0
 10
15.0310034204
 20
15.9829780506
 30
0.0
 10
15.056572269
 20
15.9472377258
 30
0.0
 10
15.0719025287
 20
15.9367040826
 30
0.0
  0
SPLINE
  5
5D5
100
AcDbEntity
  8
0
100
AcDbSpline
 62
250
  6
CONTINUOUS
 70
0
 71
3
 72
9
 73
5
 74
0
 42
0.0000001
 43
0.0000001
 44
0.0000000001
 40
0.0
 40
0.0
 40
0.0
 40
0.0
 40
0.5507420781
 40
1.0
 40
1.0
 40
1.0
 40
1.0
 10
15.0256648804
 20
16.0476470652
 30
0.0
 10
15.0049893968
 20
16.0595848303
 30
0.0
 10
14.9694657084
 20
16.0867861867
 30
0.0
 10
14.9524419077
 20
16.1302406213
 30
0.0
 10
14.9524418342
 20
16.1497157135
 30
0.0
  0
SPLINE
  5
5D6
100
AcDbEntity
  8
0
100
AcDbSpline
 62
250
  6
CONTINUOUS
 70
0
 71
3
 72
9
 73
5
 74
0
 42
0.0000001
 43
0.0000001
 44
0.0000000001
 40
0.0
 40
0.0
 40
0.0
 40
0.0
 40
0.550741049
 40
1.0
 40
1.0
 40
1.0
 40
1.0
 10
15.0256648804
 20
16.3692366841
 30
0.0
 10
15.0049900341
 20
16.3811740813
 30
0.0
 10
14.9694674486
 20
16.4083744783
 30
0.0
 10
14.9524428329
 20
16.4518268105
 30
0.0
 10
14.9524418344
 20
16.4713013835
 30
0.0
  0
SPLINE
  5
5D7
100
AcDbEntity
  8
0
100
AcDbSpline
 62
250
  6
CONTINUOUS
 70
0
 71
3
 72
9
 73
5
 74
0
 42
0.0000001
 43
0.0000001
 44
0.0000000001
 40
0.0
 40
0.0
 40
0.0
 40
0.0
 40
0.2208721985
 40
1.0
 40
1.0
 40
1.0
 40
1.0
 10
19.2587816394
 20
-22.8728771278
 30
0.0
 10
19.2577262695
 20
-22.881545922
 30
0.0
 10
19.2466678858
 20
-22.9201897177
 30
0.0
 10
19.2137983745
 20
-22.9486913825
 30
0.0
 10
19.1871990703
 20
-22.9642292348
 30
0.0
  0
SPLINE
  5
5D8
100
AcDbEntity
  8
0
100
AcDbSpline
 62
7
  6
CONTINUOUS
 70
0
 71
3
 72
9
 73
5
 74
0
 42
0.0000001
 43
0.0000001
 44
0.0000000001
 40
0.0
 40
0.0
 40
0.0
 40
0.0
 40
0.4448457122
 40
1.0
 40
1.0
 40
1.0
 40
1.0
 10
14.6284232458
 20
17.5735308159
 30
0.0
 10
14.6544849252
 20
17.6206162948
 30
0.0
 10
14.6751341894
 20
17.7460010062
 30
0.0
 10
14.6499098937
 20
17.8657899192
 30
0.0
 10
14.6284232458
 20
17.9294219586
 30
0.0
  0
SPLINE
  5
5D9
100
AcDbEntity
  8
0
100
AcDbSpline
 62
250
  6
CONTINUOUS
 70
0
 71
3
 72
9
 73
5
 74
0
 42
0.0000001
 43
0.0000001
 44
0.0000000001
 40
0.0
 40
0.0
 40
0.0
 40
0.0
 40
0.5341649546
 40
1.0
 40
1.0
 40
1.0
 40
1.0
 10
4.7550227238
 20
22.1808555662
 30
0.0
 10
4.7381739306
 20
22.1377067261
 30
0.0
 10
4.6873662662
 20
22.0610607597
 30
0.0
 10
4.5965482825
 20
22.0308120005
 30
0.0
 10
4.5563210718
 20
22.0345043404
 30
0.0
  0
SPLINE
  5
5DA
100
AcDbEntity
  8
0
100
AcDbSpline
 62
250
  6
CONTINUOUS
 70
0
 71
3
 72
9
 73
5
 74
0
 42
0.0000001
 43
0.0000001
 44
0.0000000001
 40
0.0
 40
0.0
 40
0.0
 40
0.0
 40
0.4996593633
 40
1.0
 40
1.0
 40
1.0
 40
1.0
 10
4.4023973528
 20
22.5029782137
 30
0.0
 10
4.4546829319
 20
22.4727891756
 30
0.0
 10
4.5786017473
 20
22.4487804039
 30
0.0
 10
4.7025296649
 20
22.4724520938
 30
0.0
 10
4.7550227238
 20
22.5024451851
 30
0.0
  0
SPLINE
  5
5DB
100
AcDbEntity
  8
0
100
AcDbSpline
 62
250
  6
CONTINUOUS
 70
0
 71
3
 72
9
 73
5
 74
0
 42
0.0000001
 43
0.0000001
 44
0.0000000001
 40
0.0
 40
0.0
 40
0.0
 40
0.0
 40
0.2302828286
 40
1.0
 40
1.0
 40
1.0
 40
1.0
 10
4.4023973528
 20
22.1813885948
 30
0.0
 10
4.4125663787
 20
22.1755171267
 30
0.0
 10
4.4586172146
 20
22.1533262256
 30
0.0
 10
4.5097910303
 20
22.1429239989
 30
0.0
 10
4.5489429786
 20
22.1401697625
 30
0.0
  0
SPLINE
  5
5DC
100
AcDbEntity
  8
0
100
AcDbSpline
 62
250
  6
CONTINUOUS
 70
0
 71
3
 72
9
 73
5
 74
0
 42
0.0000001
 43
0.0000001
 44
0.0000000001
 40
0.0
 40
0.0
 40
0.0
 40
0.0
 40
0.2661219788
 40
1.0
 40
1.0
 40
1.0
 40
1.0
 10
4.6430354418
 20
22.1438994162
 30
0.0
 10
4.6534073263
 20
22.1454817703
 30
0.0
 10
4.6920977983
 20
22.1529368573
 30
0.0
 10
4.7299010331
 20
22.1665017225
 30
0.0
 10
4.7550227238
 20
22.1808555662
 30
0.0
  0
SPLINE
  5
5DD
100
AcDbEntity
  8
0
100
AcDbSpline
 62
250
  6
CONTINUOUS
 70
0
 71
3
 72
9
 73
5
 74
0
 42
0.0000001
 43
0.0000001
 44
0.0000000001
 40
0.0
 40
0.0
 40
0.0
 40
0.0
 40
0.5507490787
 40
1.0
 40
1.0
 40
1.0
 40
1.0
 10
4.4023973528
 20
22.1813885948
 30
0.0
 10
4.4023973528
 20
22.1575177979
 30
0.0
 10
4.408189286
 20
22.1131597212
 30
0.0
 10
4.4373026774
 20
22.076693767
 30
0.0
 10
4.4541646504
 20
22.0669563184
 30
0.0
  0
SPLINE
  5
5DE
100
AcDbEntity
  8
0
100
AcDbSpline
 62
250
  6
CONTINUOUS
 70
0
 71
3
 72
9
 73
5
 74
0
 42
0.0000001
 43
0.0000001
 44
0.0000000001
 40
0.0
 40
0.0
 40
0.0
 40
0.0
 40
0.5489324138
 40
1.0
 40
1.0
 40
1.0
 40
1.0
 10
2.7220068877
 20
23.1516249891
 30
0.0
 10
2.7220068877
 20
23.1291191276
 30
0.0
 10
2.727289614
 20
23.0873910189
 30
0.0
 10
2.7524427816
 20
23.0517591723
 30
0.0
 10
2.7675839248
 20
23.0411405952
 30
0.0
  0
SPLINE
  5
5DF
100
AcDbEntity
  8
0
100
AcDbSpline
 62
250
  6
CONTINUOUS
 70
0
 71
3
 72
9
 73
5
 74
0
 42
0.0000001
 43
0.0000001
 44
0.0000000001
 40
0.0
 40
0.0
 40
0.0
 40
0.0
 40
0.2910061141
 40
1.0
 40
1.0
 40
1.0
 40
1.0
 10
2.7220068877
 20
23.1516249891
 30
0.0
 10
2.7121040004
 20
23.1573427921
 30
0.0
 10
2.6796858485
 20
23.1789436029
 30
0.0
 10
2.6534648782
 20
23.2144620001
 30
0.0
 10
2.6495979585
 20
23.2420521698
 30
0.0
  0
SPLINE
  5
5E0
100
AcDbEntity
  8
0
100
AcDbSpline
 62
7
  6
CONTINUOUS
 70
0
 71
3
 72
9
 73
5
 74
0
 42
0.0000001
 43
0.0000001
 44
0.0000000001
 40
0.0
 40
0.0
 40
0.0
 40
0.0
 40
0.4448457122
 40
1.0
 40
1.0
 40
1.0
 40
1.0
 10
-17.1913819076
 20
35.9458875156
 30
0.0
 10
-17.1653202282
 20
35.9929729946
 30
0.0
 10
-17.144670964
 20
36.118357706
 30
0.0
 10
-17.1698952597
 20
36.2381466189
 30
0.0
 10
-17.1913819076
 20
36.3017786583
 30
0.0
  0
SPLINE
  5
5E1
100
AcDbEntity
  8
0
100
AcDbSpline
 62
250
  6
CONTINUOUS
 70
0
 71
3
 72
9
 73
5
 74
0
 42
0.0000001
 43
0.0000001
 44
0.0000000001
 40
0.0
 40
0.0
 40
0.0
 40
0.0
 40
0.550741049
 40
1.0
 40
1.0
 40
1.0
 40
1.0
 10
2.7220068877
 20
23.473214608
 30
0.0
 10
2.7013320414
 20
23.4851520052
 30
0.0
 10
2.6658094559
 20
23.5123524022
 30
0.0
 10
2.6487848403
 20
23.5558047344
 30
0.0
 10
2.6487838418
 20
23.5752793074
 30
0.0
  0
SPLINE
  5
5E2
100
AcDbEntity
  8
0
100
AcDbSpline
 62
250
  6
CONTINUOUS
 70
0
 71
3
 72
9
 73
5
 74
0
 42
0.0000001
 43
0.0000001
 44
0.0000000001
 40
0.0
 40
0.0
 40
0.0
 40
0.0
 40
0.6514143297
 40
1.0
 40
1.0
 40
1.0
 40
1.0
 10
19.1871990703
 20
16.2998018528
 30
0.0
 10
19.1945507267
 20
16.2893069077
 30
0.0
 10
19.2052749818
 20
16.2740268617
 30
0.0
 10
19.2091825914
 20
16.2508939778
 30
0.0
 10
19.2049385813
 20
16.2455083323
 30
0.0
  0
SPLINE
  5
5E3
100
AcDbEntity
  8
0
100
AcDbSpline
 62
250
  6
CONTINUOUS
 70
0
 71
3
 72
9
 73
5
 74
0
 42
0.0000001
 43
0.0000001
 44
0.0000000001
 40
0.0
 40
0.0
 40
0.0
 40
0.0
 40
0.6514143297
 40
1.0
 40
1.0
 40
1.0
 40
1.0
 10
6.8835410777
 20
23.4037797767
 30
0.0
 10
6.8908927341
 20
23.3932848316
 30
0.0
 10
6.9016169892
 20
23.3780047856
 30
0.0
 10
6.9055245988
 20
23.3548719017
 30
0.0
 10
6.9012805887
 20
23.3494862562
 30
0.0
  0
SPLINE
  5
5E4
100
AcDbEntity
  8
0
100
AcDbSpline
 62
250
  6
CONTINUOUS
 70
0
 71
3
 72
8
 73
4
 74
0
 42
0.0000001
 43
0.0000001
 44
0.0000000001
 40
0.0
 40
0.0
 40
0.0
 40
0.0
 40
1.0
 40
1.0
 40
1.0
 40
1.0
 10
19.1871990703
 20
-22.6365839343
 30
0.0
 10
19.2026551446
 20
-22.5964622514
 30
0.0
 10
19.20950649
 20
-22.5521169254
 30
0.0
 10
19.2073258987
 20
-22.5091764469
 30
0.0
  0
SPLINE
  5
5E5
100
AcDbEntity
  8
0
100
AcDbSpline
 62
250
  6
CONTINUOUS
 70
0
 71
3
 72
8
 73
4
 74
0
 42
0.0000001
 43
0.0000001
 44
0.0000000001
 40
0.0
 40
0.0
 40
0.0
 40
0.0
 40
1.0
 40
1.0
 40
1.0
 40
1.0
 10
19.2073258987
 20
-22.5091764469
 30
0.0
 10
19.2061468386
 20
-22.4859582471
 30
0.0
 10
19.2023348425
 20
-22.4627006532
 30
0.0
 10
19.195790505
 20
-22.4403926584
 30
0.0
  0
SPLINE
  5
5E6
100
AcDbEntity
  8
0
100
AcDbSpline
 62
250
  6
CONTINUOUS
 70
0
 71
3
 72
9
 73
5
 74
0
 42
0.0000001
 43
0.0000001
 44
0.0000000001
 40
0.0
 40
0.0
 40
0.0
 40
0.0
 40
0.26139544
 40
1.0
 40
1.0
 40
1.0
 40
1.0
 10
19.195790505
 20
-22.4403926584
 30
0.0
 10
19.19287363
 20
-22.4304497681
 30
0.0
 10
19.1796694846
 20
-22.393080019
 30
0.0
 10
19.1577083602
 20
-22.3585131051
 30
0.0
 10
19.1370805106
 20
-22.3377346936
 30
0.0
  0
SPLINE
  5
5E7
100
AcDbEntity
  8
0
100
AcDbSpline
 62
250
  6
CONTINUOUS
 70
0
 71
3
 72
8
 73
4
 74
0
 42
0.0000001
 43
0.0000001
 44
0.0000000001
 40
0.0
 40
0.0
 40
0.0
 40
0.0
 40
1.0
 40
1.0
 40
1.0
 40
1.0
 10
19.1370805106
 20
-22.3377346936
 30
0.0
 10
19.1276865878
 20
-22.3282722049
 30
0.0
 10
19.1172859349
 20
-22.3196926874
 30
0.0
 10
19.1061154032
 20
-22.3124123234
 30
0.0
  0
ELLIPSE
  5
5E8
100
AcDbEntity
  8
SUPERFICI
100
AcDbEllipse
 62
7
  6
CONTINUOUS
 10
-11.1979823931
 20
17.8381745368
 30
0.0
 11
-0.4214576756
 21
1.3324008006
 31
0.0
 40
0.2019085389
 41
-1.7880770106
 42
0.5681174795
  0
ELLIPSE
  5
5E9
100
AcDbEntity
  8
RACCORDO
100
AcDbEllipse
 62
7
  6
CONTINUOUS
 10
19.3658232554
 20
-16.7033026958
 30
0.0
 11
-1.0003529238
 21
1.7325505656
 31
0.0
 40
0.5771558487
 41
3.0012341156
 42
3.2819384767
  0
ELLIPSE
  5
5EA
100
AcDbEntity
  8
RACCORDO
100
AcDbEllipse
 62
7
  6
CONTINUOUS
 10
2.1479885579
 20
27.8683513935
 30
0.0
 11
0.9999644838
 21
-0.0148582918
 31
0.0
 40
0.5672251703
 41
-0.7769700665
 42
0.0084280965
  0
ELLIPSE
  5
5EB
100
AcDbEntity
  8
RACCORDO
100
AcDbEllipse
 62
7
  6
CONTINUOUS
 10
19.3658232554
 20
12.1992476174
 30
0.0
 11
-1.0000483645
 21
1.7320228834
 31
0.0
 40
0.5775075436
 41
-1.7113204917
 42
-1.4303688828
  0
ELLIPSE
  5
5EC
100
AcDbEntity
  8
0
100
AcDbEllipse
 62
7
  6
CONTINUOUS
 10
-18.1504776994
 20
43.0518539266
 30
0.0
 11
0.2522054935
 21
0.4317367776
 31
0.0
 40
0.580680601
 41
0.689040114
 42
0.7825716451
  0
ELLIPSE
  5
5ED
100
AcDbEntity
  8
0
100
AcDbEllipse
 62
7
  6
CONTINUOUS
 10
-20.4794284401
 20
39.3648119639
 30
0.0
 11
-0.1000031398
 21
0.1732052219
 31
0.0
 40
0.5773316701
 41
-2.3562258892
 42
-0.7854295624
  0
ELLIPSE
  5
5EE
100
AcDbEntity
  8
0
100
AcDbEllipse
 62
7
  6
CONTINUOUS
 10
13.0374329881
 20
20.0125962402
 30
0.0
 11
-0.1000031398
 21
0.1732052219
 31
0.0
 40
0.5773316701
 41
-0.7854295624
 42
-0.0029086511
  0
ELLIPSE
  5
5EF
100
AcDbEntity
  8
0
100
AcDbEllipse
 62
7
  6
CONTINUOUS
 10
-18.7823721652
 20
38.3849529399
 30
0.0
 11
-0.1000031398
 21
0.1732052219
 31
0.0
 40
0.5773316701
 41
-0.7854295624
 42
-0.0029086511
  0
ELLIPSE
  5
5F0
100
AcDbEntity
  8
RACCORDO
100
AcDbEllipse
 62
7
  6
CONTINUOUS
 10
-32.4847574446
 20
31.0038802172
 30
0.0
 11
0.7746182049
 21
0.2849299186
 31
0.0
 40
0.4306346284
 41
2.3083836553
 42
3.4861141697
  0
ELLIPSE
  5
5F1
100
AcDbEntity
  8
RACCORDO
100
AcDbEllipse
 62
7
  6
CONTINUOUS
 10
-32.7545321693
 20
30.7646497709
 30
0.0
 11
0.6015820811
 21
0.76775495
 31
0.0
 40
0.4288142819
 41
0.0607957205
 42
1.168047241
  0
ELLIPSE
  5
5F2
100
AcDbEntity
  8
0
100
AcDbEllipse
 62
7
  6
CONTINUOUS
 10
13.669327454
 20
24.6794972268
 30
0.0
 11
0.2522054935
 21
0.4317367776
 31
0.0
 40
0.580680601
 41
0.689040114
 42
0.7825716451
  0
ELLIPSE
  5
5F3
100
AcDbEntity
  8
0
100
AcDbEllipse
 62
7
  6
CONTINUOUS
 10
11.3403767133
 20
20.9924552642
 30
0.0
 11
-0.1000031398
 21
0.1732052219
 31
0.0
 40
0.5773316701
 41
-2.3562258892
 42
-0.7854295624
  0
ELLIPSE
  5
5F4
100
AcDbEntity
  8
0
100
AcDbEllipse
 62
7
  6
CONTINUOUS
 10
19.7137163216
 20
-21.14538789
 30
0.0
 11
-0.2500332324
 21
0.4330240487
 31
0.0
 40
0.5773023583
 41
-3.1343210679
 42
-2.3562893423
  0
ELLIPSE
  5
5F5
100
AcDbEntity
  8
0
100
AcDbEllipse
 62
7
  6
CONTINUOUS
 10
19.7137163216
 20
14.6064962458
 30
0.0
 11
-0.2500205442
 21
0.4330020622
 31
0.0
 40
0.577360979
 41
-2.3562385877
 42
-0.7854930296
  0
ELLIPSE
  5
5F6
100
AcDbEntity
  8
RACCORDO
100
AcDbEllipse
 62
7
  6
CONTINUOUS
 10
4.4121244344
 20
8.4710934668
 30
0.0
 11
0.4008843016
 21
0.5444461846
 31
0.0
 40
0.6417350089
 41
-3.0701496378
 42
-1.8924191234
  0
ELLIPSE
  5
5F7
100
AcDbEntity
  8
0
100
AcDbEllipse
 62
7
  6
CONTINUOUS
 10
-15.9134444261
 20
33.699442068
 30
0.0
 11
0.249894357
 21
0.0119767658
 31
0.0
 40
0.6067642562
 41
3.1125202636
 42
3.8979184282
  0
ELLIPSE
  5
5F8
100
AcDbEntity
  8
0
100
AcDbEllipse
 62
7
  6
CONTINUOUS
 10
-28.2171024188
 20
40.8034199919
 30
0.0
 11
0.249894357
 21
0.0119767658
 31
0.0
 40
0.6067642562
 41
3.1125202636
 42
3.8979184282
  0
ELLIPSE
  5
5F9
100
AcDbEntity
  8
0
100
AcDbEllipse
 62
7
  6
CONTINUOUS
 10
-26.5303366945
 20
39.8295026029
 30
0.0
 11
0.249894357
 21
0.0119767658
 31
0.0
 40
0.6067642562
 41
-2.385266879
 42
-0.8202883164
  0
ELLIPSE
  5
5FA
100
AcDbEntity
  8
0
100
AcDbEllipse
 62
7
  6
CONTINUOUS
 10
25.1388676701
 20
19.1838308186
 30
0.0
 11
-0.7070896968
 21
1.224754734
 31
0.0
 40
0.5773595689
 41
5.1712092008
 42
6.2773917037
  0
ELLIPSE
  5
5FB
100
AcDbEntity
  8
0
100
AcDbEllipse
 62
7
  6
CONTINUOUS
 10
-6.6809374833
 20
37.5561875183
 30
0.0
 11
-0.7070896968
 21
1.224754734
 31
0.0
 40
0.5773595689
 41
5.1712092008
 42
6.2773917037
  0
ELLIPSE
  5
5FC
100
AcDbEntity
  8
0
100
AcDbEllipse
 62
7
  6
CONTINUOUS
 10
14.734489263
 20
22.8416561116
 30
0.0
 11
0.9999958657
 21
-0.0050094262
 31
0.0
 40
0.5740189913
 41
1.3118724487
 42
2.3590699999
  0
ELLIPSE
  5
5FD
100
AcDbEntity
  8
0
100
AcDbEllipse
 62
7
  6
CONTINUOUS
 10
14.0230794402
 20
23.6152547537
 30
0.0
 11
0.4530408369
 21
-0.002269484
 31
0.0
 40
0.5740189913
 41
-0.7825226537
 42
0.0028755098
  0
ELLIPSE
  5
5FE
100
AcDbEntity
  8
0
100
AcDbEllipse
 62
7
  6
CONTINUOUS
 10
-12.2062791002
 20
38.7597576439
 30
0.0
 11
0.4530408369
 21
-0.002269484
 31
0.0
 40
0.5740189913
 41
-0.7767048895
 42
0.0028755096
  0
ELLIPSE
  5
5FF
100
AcDbEntity
  8
0
100
AcDbEllipse
 62
7
  6
CONTINUOUS
 10
-17.0853158904
 20
41.2140128113
 30
0.0
 11
0.9999958657
 21
-0.0050094262
 31
0.0
 40
0.5740189913
 41
1.3118724487
 42
2.3590699999
  0
ELLIPSE
  5
600
100
AcDbEntity
  8
0
100
AcDbEllipse
 62
7
  6
CONTINUOUS
 10
-17.7967257132
 20
41.9876114535
 30
0.0
 11
0.4530408369
 21
-0.002269484
 31
0.0
 40
0.5740189913
 41
-0.7825226537
 42
0.0028755098
  0
ELLIPSE
  5
601
100
AcDbEntity
  8
0
100
AcDbEllipse
 62
7
  6
CONTINUOUS
 10
19.6135260532
 20
20.3874009441
 30
0.0
 11
0.4530408369
 21
-0.002269484
 31
0.0
 40
0.5740189913
 41
-0.7767048895
 42
0.0028755096
  0
ELLIPSE
  5
602
100
AcDbEntity
  8
0
100
AcDbEllipse
 62
7
  6
CONTINUOUS
 10
-19.7016109808
 20
36.7030536115
 30
0.0
 11
0.1999154856
 21
0.0095814127
 31
0.0
 40
0.6067642562
 41
3.1125202645
 42
3.8979184282
  0
ELLIPSE
  5
603
100
AcDbEntity
  8
0
100
AcDbEllipse
 62
7
  6
CONTINUOUS
 10
-21.3986672556
 20
37.6829126355
 30
0.0
 11
0.1999154856
 21
0.0095814127
 31
0.0
 40
0.6067642562
 41
-2.385266879
 42
-0.8144705522
  0
ELLIPSE
  5
604
100
AcDbEntity
  8
0
100
AcDbEllipse
 62
7
  6
CONTINUOUS
 10
-6.8558526473
 20
38.6756592007
 30
0.0
 11
-0.3535448484
 21
0.612377367
 31
0.0
 40
0.5773595689
 41
-3.1241152003
 42
-2.2255673615
  0
ELLIPSE
  5
605
100
AcDbEntity
  8
RACCORDO
100
AcDbEllipse
 62
7
  6
CONTINUOUS
 10
-35.2952451118
 20
31.3976309926
 30
0.0
 11
0.7746182049
 21
0.2849299186
 31
0.0
 40
0.4306346284
 41
2.3083836553
 42
3.4861141697
  0
ELLIPSE
  5
606
100
AcDbEntity
  8
0
100
AcDbEllipse
 62
7
  6
CONTINUOUS
 10
69.0038243324
 20
49.5145986248
 30
0.0
 11
60.4168506882
 21
35.2934066151
 31
0.0
 40
0.0050378458
 41
2.5166802681
 42
2.6876229173
  0
ELLIPSE
  5
607
100
AcDbEntity
  8
0
100
AcDbEllipse
 62
7
  6
CONTINUOUS
 10
19.9008704029
 20
21.0814824277
 30
0.0
 11
0.247841934
 21
0.4342563559
 31
0.0
 40
0.5739631936
 41
0.6832219561
 42
0.7767534872
  0
ELLIPSE
  5
608
100
AcDbEntity
  8
0
100
AcDbEllipse
 62
7
  6
CONTINUOUS
 10
69.0038243324
 20
49.5145986248
 30
0.0
 11
60.4168506882
 21
35.2934066151
 31
0.0
 40
0.0050378458
 41
-2.6935087662
 42
-2.5225661169
  0
ELLIPSE
  5
609
100
AcDbEntity
  8
RACCORDO
100
AcDbEllipse
 62
7
  6
CONTINUOUS
 10
-31.2078085812
 20
35.0222821395
 30
0.0
 11
0.6015820811
 21
0.76775495
 31
0.0
 40
0.4288142819
 41
0.7451893432
 42
1.168047241
  0
ELLIPSE
  5
60A
100
AcDbEntity
  8
0
100
AcDbEllipse
 62
7
  6
CONTINUOUS
 10
37.184019179
 20
67.8869553245
 30
0.0
 11
60.4168506882
 21
35.2934066151
 31
0.0
 40
0.0050378458
 41
2.5166802681
 42
2.6876229173
  0
ELLIPSE
  5
60B
100
AcDbEntity
  8
0
100
AcDbEllipse
 62
7
  6
CONTINUOUS
 10
-11.9189347505
 20
39.4538391275
 30
0.0
 11
0.247841934
 21
0.4342563559
 31
0.0
 40
0.5739631936
 41
0.6832219561
 42
0.7767534872
  0
ELLIPSE
  5
60C
100
AcDbEntity
  8
RACCORDO
100
AcDbEllipse
 62
7
  6
CONTINUOUS
 10
8.499560965
 20
12.0957446138
 30
0.0
 11
0.999848249
 21
0.5167871588
 31
0.0
 40
0.3220421599
 41
5.3795463147
 42
5.8024042125
  0
ELLIPSE
  5
60D
100
AcDbEntity
  8
0
100
AcDbEllipse
 62
7
  6
CONTINUOUS
 10
37.184019179
 20
67.8869553245
 30
0.0
 11
60.4168506882
 21
35.2934066151
 31
0.0
 40
0.0050378458
 41
-2.6935087662
 42
-2.5225661169
  0
ELLIPSE
  5
60E
100
AcDbEntity
  8
0
100
AcDbEllipse
 62
7
  6
CONTINUOUS
 10
12.1181941726
 20
18.3306969117
 30
0.0
 11
0.1999154856
 21
0.0095814127
 31
0.0
 40
0.6067642562
 41
3.1125202645
 42
3.8979184282
  0
ELLIPSE
  5
60F
100
AcDbEntity
  8
0
100
AcDbEllipse
 62
7
  6
CONTINUOUS
 10
10.4211378978
 20
19.3105559357
 30
0.0
 11
0.1999154856
 21
0.0095814127
 31
0.0
 40
0.6067642562
 41
-2.385266879
 42
-0.8144705522
  0
ELLIPSE
  5
610
100
AcDbEntity
  8
0
100
AcDbEllipse
 62
7
  6
CONTINUOUS
 10
24.9639525061
 20
20.3033025009
 30
0.0
 11
-0.3535448484
 21
0.612377367
 31
0.0
 40
0.5773595689
 41
-3.1241152003
 42
-2.2255673615
  0
ELLIPSE
  5
611
100
AcDbEntity
  8
0
100
AcDbEllipse
 62
7
  6
CONTINUOUS
 10
17.5936412582
 20
14.3528707363
 30
0.0
 11
0.249894357
 21
0.0119767658
 31
0.0
 40
0.6067642562
 41
-2.385266879
 42
-0.8197065399
  0
ELLIPSE
  5
612
100
AcDbEntity
  8
0
100
AcDbEllipse
 62
7
  6
CONTINUOUS
 10
15.9058459206
 20
15.3273826112
 30
0.0
 11
0.249894357
 21
0.0119767658
 31
0.0
 40
0.6067642562
 41
3.1125202637
 42
3.8979184282
  0
ELLIPSE
  5
613
100
AcDbEntity
  8
0
100
AcDbEllipse
 62
7
  6
CONTINUOUS
 10
5.2899832656
 20
21.4568486602
 30
0.0
 11
0.249894357
 21
0.0119767658
 31
0.0
 40
0.6067642562
 41
-2.385266879
 42
-0.81970654
  0
ELLIPSE
  5
614
100
AcDbEntity
  8
0
100
AcDbEllipse
 62
7
  6
CONTINUOUS
 10
-14.2266787019
 20
32.725524679
 30
0.0
 11
0.249894357
 21
0.0119767658
 31
0.0
 40
0.6067642562
 41
-2.385266879
 42
-0.8202883164
  0
ELLIPSE
  5
615
100
AcDbEntity
  8
0
100
AcDbEllipse
 62
7
  6
CONTINUOUS
 10
3.6021879279
 20
22.4313605351
 30
0.0
 11
0.249894357
 21
0.0119767658
 31
0.0
 40
0.6067642562
 41
3.1125202637
 42
3.8979184282
  0
ENDSEC
  0
SECTION
  2
OBJECTS
  0
DICTIONARY
  5
C
100
AcDbDictionary
280
0
281
1
  3
ACAD_GROUP
350
D
  3
ACAD_MLINESTYLE
350
17
  3
ACAD_LAYOUT
350
1A
  3
ACAD_PLOTSETTINGS
350
19
  3
ACAD_PLOTSTYLENAME
350
E
  0
DICTIONARY
  5
D
102
{ACAD_REACTORS
330
C
102
}
100
AcDbDictionary
280
0
281
1
  0
ACDBDICTIONARYWDFLT
  5
E
102
{ACAD_REACTORS
330
C
102
}
100
AcDbDictionary
281
1
  3
Normal
350
F
100
AcDbDictionaryWithDefault
340
F
  0
DICTIONARY
  5
17
102
{ACAD_REACTORS
330
C
102
}
100
AcDbDictionary
280
0
281
1
  3
Standard
350
18
  0
DICTIONARY
  5
19
102
{ACAD_REACTORS
330
C
102
}
100
AcDbDictionary
281
1
  0
DICTIONARY
  5
1A
102
{ACAD_REACTORS
330
C
102
}
100
AcDbDictionary
281
1
  3
Model
350
616
  3
Layout1
350
617
  0
ACDBPLACEHOLDER
  5
F
102
{ACAD_REACTORS
330
E
102
}
  0
MLINESTYLE
  5
18
102
{ACAD_REACTORS
330
17
102
}
100
AcDbMlineStyle
  2
STANDARD
 70
0
  3

 62
256
 51
90.0
 52
90.0
 71
2
 49
0.5
 62
256
  6
BYLAYER
 49
-0.5
 62
256
  6
BYLAYER
  0
LAYOUT
  5
616
102
{ACAD_REACTORS
330
1A
102
}
100
AcDbPlotSettings
  1

  2
none_device
  4
ANSI_C_(22.00_x_17.00_Inches)
  6

 40
0.0
 41
0.0
 42
0.0
 43
0.0
 44
558.8
 45
431.8
 46
0.0
 47
0.0
 48
0.0
 49
0.0
140
0.0
141
0.0
142
1.0
143
1.0
 70
1024
 72
1
 73
0
 74
0
  7

 75
0
147
1.0
148
0.0
149
0.0
100
AcDbLayout
  1
Model
 70
0
 71
0
 10
0.0
 20
0.0
 11
558.8
 21
431.8
 12
0.0
 22
0.0
 32
0.0
 14
0.0
 24
0.0
 34
0.0
 15
0.0
 25
0.0
 35
0.0
146
0.0
 13
0.0
 23
0.0
 33
0.0
 16
1.0
 26
0.0
 36
0.0
 17
0.0
 27
1.0
 37
0.0
 76
0
330
2D7
345
0
346
0
  0
LAYOUT
  5
617
102
{ACAD_REACTORS
330
1A
102
}
100
AcDbPlotSettings
  1

  2
none_device
  4
ANSI_C_(22.00_x_17.00_Inches)
  6

 40
0.0
 41
0.0
 42
0.0
 43
0.0
 44
558.8
 45
431.8
 46
0.0
 47
0.0
 48
0.0
 49
0.0
140
0.0
141
0.0
142
1.0
143
1.0
 70
0
 72
1
 73
0
 74
0
  7

 75
0
147
1.0
148
0.0
149
0.0
100
AcDbLayout
  1
Layout1
 70
0
 71
1
 10
0.0
 20
0.0
 11
558.8
 21
431.8
 12
0.0
 22
0.0
 32
0.0
 14
0.0
 24
0.0
 34
0.0
 15
0.0
 25
0.0
 35
0.0
146
0.0
 13
0.0
 23
0.0
 33
0.0
 16
1.0
 26
0.0
 36
0.0
 17
0.0
 27
1.0
 37
0.0
 76
0
330
2D8
345
0
346
0
  0
ENDSEC
  0
EOF
