  0
SECTION
  2
HEADER
  9
$ACADVER
  1
AC1015
  9
$DWGCODEPAGE
  3
ANSI_1252
  9
$EXTMAX
 10
297.0
 20
210.0
 30
0.0
  9
$EXTMIN
 10
0.0
 20
0.0
 30
0.0
  9
$LIMMIN
 10
0.0
 20
0.0
  9
$LIMMAX
 10
297.0
 20
210.0
  9
$VIEWCTR
 10
148.5
 20
105.0
  9
$VIEWSIZE
 40
210.0
  9
$CLAYER
  8
0
  9
$LTSCALE
 40
16.335
  9
$CELTYPE
  6
BYLAYER
  9
$DIMSCALE
 40
1.0
  9
$DIMASZ
 40
3.0
  9
$DIMEXO
 40
0.5
  9
$DIMDLI
 40
11.286
  9
$DIMEXE
 40
1.5
  9
$DIMCEN
 40
2.673
  9
$DIMLFAC
 40
1.0
  9
$DIMBLK
  1
_FILLED
  9
$DIMTXT
 40
3.0
  9
$DIMTOL
 70
1
  9
$DIMLIM
 70
0
  9
$DIMTFAC
 40
1.0
  9
$DIMTP
 40
0.01
  9
$DIMTM
 40
0.01
  9
$DIMGAP
 40
0.625
  9
$DIMDSEP
 70
44
  9
$PDMODE
 70
3
  9
$PDSIZE
 40
3.0
  9
$HANDSEED
  5
32F
  9
$TILEMODE
 70
1
  9
$MEASUREMENT
 70
1
  9
$INSUNITS
 70
4
  0
ENDSEC
  0
SECTION
  2
CLASSES
  0
CLASS
  1
ACDBDICTIONARYWDFLT
  2
AcDbDictionaryWithDefault
  3
AutoCAD 2000
 90
0
280
0
281
0
  0
CLASS
  1
ACDBPLACEHOLDER
  2
AcDbPlaceHolder
  3
AutoCAD 2000
 90
0
280
0
281
0
  0
CLASS
  1
LAYOUT
  2
AcDbLayout
  3
AutoCAD 2000
 90
0
280
0
281
0
  0
ENDSEC
  0
SECTION
  2
TABLES
  0
TABLE
  2
VPORT
  5
8
100
AcDbSymbolTable
 70
2
  0
VPORT
  5
1F4
100
AcDbSymbolTableRecord
100
AcDbViewportTableRecord
  2
*ACTIVE
 70
0
 10
0.0
 20
0.0
 11
1.0
 21
1.0
 12
148.5
 22
105.0
 13
0.0
 23
0.0
 14
1.0
 24
1.0
 15
0.0
 25
0.0
 16
0.0
 26
0.0
 36
1.0
 17
0.0
 27
0.0
 37
0.0
 40
210.0
 41
1.4142857143
 42
50.0
 43
0.0
 44
0.0
 50
0.0
 51
0.0
 71
0
 72
100
 73
1
 74
1
 75
0
 76
0
 77
0
 78
0
  0
ENDTAB
  0
TABLE
  2
LTYPE
  5
5
100
AcDbSymbolTable
 70
6
  0
LTYPE
  5
14
100
AcDbSymbolTableRecord
100
AcDbLinetypeTableRecord
  2
BYBLOCK
 70
0
  3

 72
65
 73
0
 40
0.0
  0
LTYPE
  5
15
100
AcDbSymbolTableRecord
100
AcDbLinetypeTableRecord
  2
BYLAYER
 70
0
  3

 72
65
 73
0
 40
0.0
  0
LTYPE
  5
16
100
AcDbSymbolTableRecord
100
AcDbLinetypeTableRecord
  2
CONTINUOUS
 70
64
  3
Solid line
 72
65
 73
0
 40
0.0
  0
LTYPE
  5
1F5
100
AcDbSymbolTableRecord
100
AcDbLinetypeTableRecord
  2
CENTER
 70
64
  3
____ _ ____ _ ____ _ ____ _ ____ _ ____ _ ____
 72
65
 73
4
 40
0.6
 49
0.375
 74
0
 49
-0.075
 74
0
 49
0.075
 74
0
 49
-0.075
 74
0
  0
LTYPE
  5
1F6
100
AcDbSymbolTableRecord
100
AcDbLinetypeTableRecord
  2
HIDDEN
 70
64
  3
- - - - - - - - - - - - - - - - - - - -
 72
65
 73
2
 40
0.2
 49
0.1
 74
0
 49
-0.1
 74
0
  0
LTYPE
  5
1F7
100
AcDbSymbolTableRecord
100
AcDbLinetypeTableRecord
  2
PHANTOM
 70
64
  3
_____ _ _ _____ _ _ _____ _ _ _____
 72
65
 73
6
 40
0.8
 49
0.45
 74
0
 49
-0.05
 74
0
 49
0.1
 74
0
 49
-0.05
 74
0
 49
0.1
 74
0
 49
-0.05
 74
0
  0
LTYPE
  5
1F8
100
AcDbSymbolTableRecord
100
AcDbLinetypeTableRecord
  2
DOT
 70
64
  3
. . . . . . . . . . . . . . . . . . . .
 72
65
 73
2
 40
0.2
 49
0.1
 74
0
 49
-0.1
 74
0
  0
LTYPE
  5
1F9
100
AcDbSymbolTableRecord
100
AcDbLinetypeTableRecord
  2
DASHED
 70
64
  3
- - - - - - - - - - - - - - - - - - - -
 72
65
 73
2
 40
0.2
 49
0.1
 74
0
 49
-0.1
 74
0
  0
ENDTAB
  0
TABLE
  2
LAYER
  5
2
100
AcDbSymbolTable
 70
36
  0
LAYER
  5
10
100
AcDbSymbolTableRecord
100
AcDbLayerTableRecord
  2
0
 70
0
 62
7
  6
CONTINUOUS
370
-3
390
F
  0
LAYER
  5
1FA
100
AcDbSymbolTableRecord
100
AcDbLayerTableRecord
  2
DEFAULT_1
 70
0
 62
7
  6
CENTER
370
-3
390
F
  0
LAYER
  5
1FB
100
AcDbSymbolTableRecord
100
AcDbLayerTableRecord
  2
DEFAULT_2
 70
0
 62
7
  6
HIDDEN
370
-3
390
F
  0
LAYER
  5
1FC
100
AcDbSymbolTableRecord
100
AcDbLayerTableRecord
  2
DEFAULT_3
 70
0
 62
7
  6
PHANTOM
370
-3
390
F
  0
LAYER
  5
1FD
100
AcDbSymbolTableRecord
100
AcDbLayerTableRecord
  2
ASSI
 70
0
 62
7
  6
CONTINUOUS
370
-3
390
F
  0
LAYER
  5
1FE
100
AcDbSymbolTableRecord
100
AcDbLayerTableRecord
  2
COORDINATE
 70
0
 62
7
  6
CONTINUOUS
370
-3
390
F
  0
LAYER
  5
1FF
100
AcDbSymbolTableRecord
100
AcDbLayerTableRecord
  2
COORD_ORIGINE
 70
0
 62
7
  6
CONTINUOUS
370
-3
390
F
  0
LAYER
  5
200
100
AcDbSymbolTableRecord
100
AcDbLayerTableRecord
  2
COSMETICI
 70
0
 62
7
  6
CONTINUOUS
370
-3
390
F
  0
LAYER
  5
201
100
AcDbSymbolTableRecord
100
AcDbLayerTableRecord
  2
CURVE
 70
0
 62
7
  6
CONTINUOUS
370
-3
390
F
  0
LAYER
  5
202
100
AcDbSymbolTableRecord
100
AcDbLayerTableRecord
  2
NOTE
 70
0
 62
7
  6
CONTINUOUS
370
-3
390
F
  0
LAYER
  5
203
100
AcDbSymbolTableRecord
100
AcDbLayerTableRecord
  2
PIANI
 70
0
 62
7
  6
CONTINUOUS
370
-3
390
F
  0
LAYER
  5
204
100
AcDbSymbolTableRecord
100
AcDbLayerTableRecord
  2
PIANI_ORIGINE
 70
0
 62
7
  6
CONTINUOUS
370
-3
390
F
  0
LAYER
  5
205
100
AcDbSymbolTableRecord
100
AcDbLayerTableRecord
  2
PUNTI
 70
0
 62
7
  6
CONTINUOUS
370
-3
390
F
  0
LAYER
  5
206
100
AcDbSymbolTableRecord
100
AcDbLayerTableRecord
  2
RACCORDO
 70
0
 62
7
  6
CONTINUOUS
370
-3
390
F
  0
LAYER
  5
207
100
AcDbSymbolTableRecord
100
AcDbLayerTableRecord
  2
SIMBOLI
 70
0
 62
7
  6
CONTINUOUS
370
-3
390
F
  0
LAYER
  5
208
100
AcDbSymbolTableRecord
100
AcDbLayerTableRecord
  2
SMUSSO
 70
0
 62
7
  6
CONTINUOUS
370
-3
390
F
  0
LAYER
  5
209
100
AcDbSymbolTableRecord
100
AcDbLayerTableRecord
  2
SNAPLINE
 70
0
 62
7
  6
CONTINUOUS
370
-3
390
F
  0
LAYER
  5
20A
100
AcDbSymbolTableRecord
100
AcDbLayerTableRecord
  2
SUPERFICI
 70
0
 62
7
  6
CONTINUOUS
370
-3
390
F
  0
LAYER
  5
20B
100
AcDbSymbolTableRecord
100
AcDbLayerTableRecord
  2
TRASH
 70
0
 62
7
  6
CONTINUOUS
370
-3
390
F
  0
ENDTAB
  0
TABLE
  2
STYLE
  5
3
100
AcDbSymbolTable
 70
1
  0
STYLE
  5
11
100
AcDbSymbolTableRecord
100
AcDbTextStyleTableRecord
  2
STANDARD
 70
0
 40
0.0
 41
0.8
 50
0.0
 71
0
 42
0.2
  3
txt
  4

  0
STYLE
  5
20C
100
AcDbSymbolTableRecord
100
AcDbTextStyleTableRecord
  2
TEXTSTYLE_1
 70
0
 40
0.0
 41
0.8
 50
0.0
 71
0
 42
0.2
  3
gdt
  4

  0
ENDTAB
  0
TABLE
  2
VIEW
  5
6
100
AcDbSymbolTable
 70
0
  0
ENDTAB
  0
TABLE
  2
UCS
  5
7
100
AcDbSymbolTable
 70
0
  0
ENDTAB
  0
TABLE
  2
APPID
  5
9
100
AcDbSymbolTable
 70
1
  0
APPID
  5
20D
100
AcDbSymbolTableRecord
100
AcDbRegAppTableRecord
  2
ACAD
 70
0
  0
ENDTAB
  0
TABLE
  2
BLOCK_RECORD
  5
1
100
AcDbSymbolTable
 70
0
  0
BLOCK_RECORD
  5
20E
100
AcDbSymbolTableRecord
100
AcDbBlockTableRecord
  2
*Model_Space
  0
BLOCK_RECORD
  5
20F
100
AcDbSymbolTableRecord
100
AcDbBlockTableRecord
  2
*Paper_Space
  0
ENDTAB
  0
TABLE
  2
DIMSTYLE
  5
A
100
AcDbSymbolTable
 70
1
100
AcDbDimStyleTable
 71
0
  0
DIMSTYLE
105
210
100
AcDbSymbolTableRecord
100
AcDbDimStyleTableRecord
  2
STANDARD
 70
0
  3

  4

 40
1.0
 41
3.0
 42
0.5
 43
0.38
 44
1.5
 45
0.0
 46
0.0
 47
0.01
 48
0.01
140
3.0
141
0.09
142
0.0
143
25.4
144
1.0
145
0.0
146
1.0
147
0.625
 71
1.0
 72
0.0
 73
0
 74
0
 75
0
 76
0
 77
1
 78
8
170
0
171
2
172
0
173
0
174
0
175
0
176
0
177
0
178
0
270
2
271
2
272
2
273
2
274
2
275
0
280
0
281
0
282
0
283
1
284
8
285
0
286
0
287
3
288
0
340
11
278
44
  0
ENDTAB
  0
ENDSEC
  0
SECTION
  2
BLOCKS
  0
BLOCK
  5
20
100
AcDbEntity
  8
0
100
AcDbBlockBegin
  2
*Model_Space
 70
0
 10
0.0
 20
0.0
 30
0.0
  3
*Model_Space
  1

  0
ENDBLK
  5
21
100
AcDbEntity
  8
0
100
AcDbBlockEnd
  0
BLOCK
  5
1C
100
AcDbEntity
  8
0
100
AcDbBlockBegin
  2
*Paper_Space
 70
0
 10
0.0
 20
0.0
 30
0.0
  3
*Paper_Space
  1

  0
ENDBLK
  5
1D
100
AcDbEntity
  8
0
100
AcDbBlockEnd
  0
ENDSEC
  0
SECTION
  2
ENTITIES
  0
LWPOLYLINE
  5
211
100
AcDbEntity
  8
0
100
AcDbPolyline
 62
7
  6
CONTINUOUS
 90
33
 70
0
 10
121.7154308364
 20
115.3112683668
 10
121.7165604794
 20
115.2646164807
 10
121.7280392406
 20
115.1559802261
 10
121.7519762347
 20
115.0478739606
 10
121.788372181
 20
114.9411007984
 10
121.8376649329
 20
114.8354052182
 10
121.9005011756
 20
114.7308641756
 10
121.9767408044
 20
114.6288961677
 10
122.0656455495
 20
114.5310227532
 10
122.1671702594
 20
114.4375866744
 10
122.2809739858
 20
114.34920709
 10
122.4050968586
 20
114.2674055827
 10
122.5384912681
 20
114.1926048296
 10
122.6807780768
 20
114.1248174862
 10
122.8302872059
 20
114.0646369304
 10
122.9857533351
 20
114.0122873345
 10
123.1465984527
 20
113.9677244591
 10
123.3118786577
 20
113.9310387107
 10
123.4805608099
 20
113.9023088545
 10
123.6517902968
 20
113.8815547989
 10
123.8248064411
 20
113.8687845678
 10
123.9986476118
 20
113.8640151644
 10
124.1723904602
 20
113.867234845
 10
124.3453178362
 20
113.8784259572
 10
124.5165481187
 20
113.8975624439
 10
124.6851011477
 20
113.9245832012
 10
124.8501499763
 20
113.9594260783
 10
125.0108992479
 20
114.0020313448
 10
125.1663440536
 20
114.0522670304
 10
125.3154706421
 20
114.1099472647
 10
125.4574447803
 20
114.1749117747
 10
125.5915016149
 20
114.2470193754
 10
125.7168154285
 20
114.326088157
  0
LINE
  5
212
100
AcDbEntity
  8
0
100
AcDbLine
 62
7
  6
CONTINUOUS
 10
125.0050352581
 20
122.9238760795
 11
124.0873129599
 21
122.1721219829
  0
LWPOLYLINE
  5
213
100
AcDbEntity
  8
0
100
AcDbPolyline
 62
253
  6
CONTINUOUS
 90
21
 70
0
 10
122.5431876375
 20
115.798670815
 10
122.5409649473
 20
115.831483108
 10
122.5343349075
 20
115.8652060814
 10
122.5234109599
 20
115.8992627257
 10
122.5083800163
 20
115.9330703223
 10
122.4894992604
 20
115.9660504139
 10
122.467091747
 20
115.9976387019
 10
122.441540875
 20
116.0272947019
 10
122.4132838269
 20
116.0545109917
 10
122.3828040885
 20
116.0788218928
 10
122.3506231767
 20
116.0998114392
 10
122.3172917158
 20
116.1171204937
 10
122.2833800163
 20
116.1304528937
 10
122.2494683168
 20
116.1395805181
 10
122.2161368559
 20
116.1443471908
 10
122.1839559441
 20
116.1446713527
 10
122.1534762058
 20
116.1405474571
 10
122.1252191576
 20
116.1320460652
 10
122.0996682856
 20
116.1193126382
 10
122.0772607723
 20
116.1025650484
 10
122.0719446893
 20
116.0975337413
  0
LWPOLYLINE
  5
214
100
AcDbEntity
  8
0
100
AcDbPolyline
 62
7
  6
CONTINUOUS
 90
34
 70
0
 10
122.3154319165
 20
115.3100253302
 10
122.3179096613
 20
115.2689665339
 10
122.3291938809
 20
115.2116640036
 10
122.3496708149
 20
115.15389492
 10
122.3791510505
 20
115.0961900327
 10
122.4173975061
 20
115.0389020492
 10
122.464433832
 20
114.9820892774
 10
122.5197048695
 20
114.9265410158
 10
122.5826617017
 20
114.8728125944
 10
122.6539406468
 20
114.8205326696
 10
122.7335918318
 20
114.7700294955
 10
122.8208367329
 20
114.7220939936
 10
122.9156701495
 20
114.676977457
 10
123.0178853477
 20
114.6350613291
 10
123.1267141708
 20
114.5969082523
 10
123.2414163818
 20
114.5629616567
 10
123.3613474515
 20
114.5335630288
 10
123.4857783114
 20
114.5090220381
 10
123.6138075378
 20
114.489618641
 10
123.7446550979
 20
114.4755491745
 10
123.8774906756
 20
114.4669677752
 10
124.0113120049
 20
114.463980633
 10
124.1452914707
 20
114.4666273337
 10
124.278546725
 20
114.4749001526
 10
124.4099881181
 20
114.4887128209
 10
124.5387531136
 20
114.5079266945
 10
124.664057481
 20
114.532363455
 10
124.7849487052
 20
114.5617511566
 10
124.9006667589
 20
114.5957876711
 10
125.0105429118
 20
114.6341389726
 10
125.1137923926
 20
114.6763594661
 10
125.2097772831
 20
114.7219672741
 10
125.298054019
 20
114.7704925982
 10
125.3782239918
 20
114.8214222251
  0
LWPOLYLINE
  5
215
100
AcDbEntity
  8
0
100
AcDbPolyline
 62
253
  6
CONTINUOUS
 90
6
 70
0
 10
122.4948153434
 20
115.6718808195
 10
122.5083800163
 20
115.687324709
 10
122.5234109599
 20
115.7111771762
 10
122.5343349075
 20
115.7379987915
 10
122.5409649473
 20
115.7673306297
 10
122.5431876375
 20
115.798670815
  0
LWPOLYLINE
  5
216
100
AcDbEntity
  8
0
100
AcDbPolyline
 62
7
  6
CONTINUOUS
 90
9
 70
0
 10
122.0719446893
 20
116.0975337413
 10
121.9826067095
 20
116.0004177848
 10
121.9064256237
 20
115.9001261329
 10
121.8433130289
 20
115.7973402311
 10
121.7933137907
 20
115.6932256982
 10
121.7559050308
 20
115.5880247019
 10
121.7305648447
 20
115.4810515378
 10
121.7174252435
 20
115.3729289764
 10
121.7154308364
 20
115.3112683668
  0
LWPOLYLINE
  5
217
100
AcDbEntity
  8
0
100
AcDbPolyline
 62
7
  6
CONTINUOUS
 90
8
 70
0
 10
122.4948153434
 20
115.6718808195
 10
122.4437420127
 20
115.6165440029
 10
122.4003300834
 20
115.5594422303
 10
122.3653948368
 20
115.5013060787
 10
122.3393946013
 20
115.4425404129
 10
122.322816687
 20
115.3839465051
 10
122.3157458138
 20
115.326148939
 10
122.3154319165
 20
115.3100253302
  0
LINE
  5
218
100
AcDbEntity
  8
0
100
AcDbLine
 62
7
  6
CONTINUOUS
 10
125.9237577436
 20
119.9241695343
 11
122.0719446893
 21
116.0975337413
  0
LWPOLYLINE
  5
219
100
AcDbEntity
  8
ASSI
100
AcDbPolyline
 62
7
  6
CONTINUOUS
 90
7
 70
0
 10
124.6867600749
 20
115.0561646381
 10
124.6904775632
 20
114.9676441594
 10
124.7009184957
 20
114.8778142062
 10
124.7180828726
 20
114.7866747785
 10
124.7422024834
 20
114.6935159343
 10
124.7730455385
 20
114.5990476155
 10
124.787441267
 20
114.5624843016
  0
LINE
  5
21A
100
AcDbEntity
  8
0
100
AcDbLine
 62
7
  6
CONTINUOUS
 10
124.0873129599
 20
122.1721219829
 11
124.0873129599
 21
118.8955138057
  0
LINE
  5
21B
100
AcDbEntity
  8
0
100
AcDbLine
 62
7
  6
CONTINUOUS
 10
124.0873129599
 20
113.1614494957
 11
124.0873129599
 21
109.8848413185
  0
LINE
  5
21C
100
AcDbEntity
  8
0
100
AcDbLine
 62
7
  6
CONTINUOUS
 10
125.3160410264
 20
112.6679646032
 11
125.3160410264
 21
113.8214149639
  0
LINE
  5
21D
100
AcDbEntity
  8
0
100
AcDbLine
 62
7
  6
CONTINUOUS
 10
125.3160410264
 20
115.8690896758
 11
125.3160410264
 21
118.4020289132
  0
LWPOLYLINE
  5
21E
100
AcDbEntity
  8
ASSI
100
AcDbPolyline
 62
7
  6
CONTINUOUS
 90
10
 70
0
 10
124.6867600749
 20
115.0561646381
 10
124.6904775632
 20
115.1411067534
 10
124.7009184957
 20
115.2208865201
 10
124.7180828726
 20
115.2955039383
 10
124.7422024834
 20
115.3654458349
 10
124.7730455385
 20
115.4302253829
 10
124.8099166688
 20
115.4883821014
 10
124.8529528088
 20
115.5397655455
 10
124.902017024
 20
115.5845261602
 10
124.9290240181
 20
115.6044922198
  0
LINE
  5
21F
100
AcDbEntity
  8
0
100
AcDbLine
 62
7
  6
CONTINUOUS
 10
126.3359609071
 20
119.4879188496
 11
122.4948153434
 21
115.6718808195
  0
LWPOLYLINE
  5
220
100
AcDbEntity
  8
0
100
AcDbPolyline
 62
7
  6
CONTINUOUS
 90
10
 70
0
 10
125.6211313341
 20
108.2542442497
 10
125.6218577929
 20
108.2800210976
 10
125.6271556432
 20
108.3286747182
 10
125.6377633648
 20
108.3775046814
 10
125.6538640606
 20
108.426094205
 10
125.6755037953
 20
108.4738071241
 10
125.7029530235
 20
108.5205633186
 10
125.7364400522
 20
108.5660181689
 10
125.775943578
 20
108.6095328768
 10
125.8214490577
 20
108.6506212452
  0
LWPOLYLINE
  5
221
100
AcDbEntity
  8
ASSI
100
AcDbPolyline
 62
7
  6
CONTINUOUS
 90
8
 70
0
 10
125.8358267395
 20
114.5031328983
 10
125.8341010626
 20
114.4748203884
 10
125.8294812493
 20
114.4490271981
 10
125.8219672997
 20
114.4257533274
 10
125.8113809423
 20
114.4047543943
 10
125.7979004485
 20
114.3862747807
 10
125.7820606333
 20
114.3710476327
 10
125.7753891161
 20
114.3661516279
  0
LWPOLYLINE
  5
222
100
AcDbEntity
  8
0
100
AcDbPolyline
 62
253
  6
CONTINUOUS
 90
7
 70
0
 10
125.7773330431
 20
114.4631488431
 10
125.7753669582
 20
114.4320188566
 10
125.7695023437
 20
114.4033140181
 10
125.7598395447
 20
114.3775254753
 10
125.7465438946
 20
114.3550944773
 10
125.7298428855
 20
114.3364048248
 10
125.7168154285
 20
114.326088157
  0
LWPOLYLINE
  5
223
100
AcDbEntity
  8
0
100
AcDbPolyline
 62
7
  6
CONTINUOUS
 90
4
 70
0
 10
125.6289703578
 20
108.171530041
 10
125.6265844721
 20
108.1830331195
 10
125.6216884768
 20
108.2313028323
 10
125.6211313341
 20
108.2542442497
  0
LINE
  5
224
100
AcDbEntity
  8
0
100
AcDbLine
 62
7
  6
CONTINUOUS
 10
125.0050352581
 20
113.9132035923
 11
124.0873129599
 21
113.1614494957
  0
LINE
  5
225
100
AcDbEntity
  8
ASSI
100
AcDbLine
 62
7
  6
CONTINUOUS
 10
128.4641623866
 20
118.0210251123
 11
124.9288305333
 21
115.6044073825
  0
LWPOLYLINE
  5
226
100
AcDbEntity
  8
ASSI
100
AcDbPolyline
 62
7
  6
CONTINUOUS
 90
29
 70
0
 10
128.4643558714
 20
118.0211099496
 10
128.4913349954
 20
118.0382725291
 10
128.5503548228
 20
118.067595824
 10
128.614296553
 20
118.0892871434
 10
128.681718594
 20
118.1028574478
 10
128.7527000051
 20
118.1081222593
 10
128.827161727
 20
118.1052660559
 10
128.9034249904
 20
118.0943532317
 10
128.9815307192
 20
118.0752007717
 10
129.0614379896
 20
118.047991691
 10
129.1413452599
 20
118.0133394292
 10
129.2212525302
 20
117.9710749061
 10
129.3011598005
 20
117.921367202
 10
129.3792655294
 20
117.8653369969
 10
129.4555287928
 20
117.8028406682
 10
129.5299905147
 20
117.7340218385
 10
129.6009719258
 20
117.660432056
 10
129.6683939668
 20
117.5819629432
 10
129.732335697
 20
117.4987228775
 10
129.7913555244
 20
117.4125885397
 10
129.8453416424
 20
117.3234941831
 10
129.8944058577
 20
117.2315055544
 10
129.9374419977
 20
117.138696574
 10
129.974313128
 20
117.0450486068
 10
130.0051561831
 20
116.950580288
 10
130.0292757939
 20
116.8574214438
 10
130.0464401708
 20
116.766282016
 10
130.0568811033
 20
116.6764520629
 10
130.0605985916
 20
116.5879315842
  0
LWPOLYLINE
  5
227
100
AcDbEntity
  8
ASSI
100
AcDbPolyline
 62
7
  6
CONTINUOUS
 90
29
 70
0
 10
124.9290240181
 20
115.6044922198
 10
124.9560031421
 20
115.6216547994
 10
125.0150229695
 20
115.6509780943
 10
125.0789646997
 20
115.6726694137
 10
125.1463867407
 20
115.6862397181
 10
125.2173681518
 20
115.6915045296
 10
125.2918298737
 20
115.6886483262
 10
125.3680931371
 20
115.677735502
 10
125.4461988659
 20
115.658583042
 10
125.5261061363
 20
115.6313739612
 10
125.6060134066
 20
115.5967216994
 10
125.6859206769
 20
115.5544571764
 10
125.7658279473
 20
115.5047494722
 10
125.8439336761
 20
115.4487192671
 10
125.9201969395
 20
115.3862229384
 10
125.9946586614
 20
115.3174041088
 10
126.0656400725
 20
115.2438143263
 10
126.1330621135
 20
115.1653452134
 10
126.1970038437
 20
115.0821051478
 10
126.2560236711
 20
114.99597081
 10
126.3100097892
 20
114.9068764534
 10
126.3590740044
 20
114.8148878246
 10
126.4021101444
 20
114.7220788443
 10
126.4389812747
 20
114.6284308771
 10
126.4698243298
 20
114.5339625583
 10
126.4939439406
 20
114.440803714
 10
126.5111083175
 20
114.3496642863
 10
126.5215492501
 20
114.2598343331
 10
126.5252667383
 20
114.1713138545
  0
LWPOLYLINE
  5
228
100
AcDbEntity
  8
0
100
AcDbPolyline
 62
253
  6
CONTINUOUS
 90
21
 70
0
 10
129.5059800139
 20
113.0022564241
 10
129.5037573237
 20
113.0350687172
 10
129.4971272839
 20
113.0687916905
 10
129.4862033363
 20
113.1028483349
 10
129.4711723928
 20
113.1366559315
 10
129.4522916369
 20
113.169636023
 10
129.4298841235
 20
113.201224311
 10
129.4043332515
 20
113.2308803111
 10
129.3760762034
 20
113.2580966008
 10
129.345596465
 20
113.282407502
 10
129.3134155532
 20
113.3033970483
 10
129.2800840923
 20
113.3207061028
 10
129.2461723928
 20
113.3340385028
 10
129.2122606933
 20
113.3431661273
 10
129.1789292324
 20
113.3479328
 10
129.1467483206
 20
113.3482569618
 10
129.1162685822
 20
113.3441330663
 10
129.0880115341
 20
113.3356316744
 10
129.0624606621
 20
113.3228982473
 10
129.0400531487
 20
113.3061506575
 10
129.0347370657
 20
113.3011193505
  0
LWPOLYLINE
  5
229
100
AcDbEntity
  8
0
100
AcDbPolyline
 62
7
  6
CONTINUOUS
 90
34
 70
0
 10
129.278224293
 20
112.5136109393
 10
129.2807020378
 20
112.472552143
 10
129.2919862574
 20
112.4152496127
 10
129.3124631914
 20
112.3574805291
 10
129.341943427
 20
112.2997756418
 10
129.3801898826
 20
112.2424876584
 10
129.4272262085
 20
112.1856748865
 10
129.482497246
 20
112.1301266249
 10
129.5454540781
 20
112.0763982036
 10
129.6167330232
 20
112.0241182787
 10
129.6963842082
 20
111.9736151046
 10
129.7836291094
 20
111.9256796027
 10
129.8784625259
 20
111.8805630661
 10
129.9806777241
 20
111.8386469382
 10
130.0895065472
 20
111.8004938614
 10
130.2042087583
 20
111.7665472658
 10
130.324139828
 20
111.737148638
 10
130.4485706878
 20
111.7126076472
 10
130.5765999143
 20
111.6932042501
 10
130.7074474743
 20
111.6791347836
 10
130.8402830521
 20
111.6705533843
 10
130.9741043813
 20
111.6675662421
 10
131.1080838471
 20
111.6702129428
 10
131.2413391015
 20
111.6784857617
 10
131.3727804945
 20
111.69229843
 10
131.5015454901
 20
111.7115123036
 10
131.6268498574
 20
111.7359490641
 10
131.7477410817
 20
111.7653367657
 10
131.8634591353
 20
111.7993732802
 10
131.9733352883
 20
111.8377245817
 10
132.0765847691
 20
111.8799450752
 10
132.1725696596
 20
111.9255528833
 10
132.2608463954
 20
111.9740782073
 10
132.3410163683
 20
112.0250078343
  0
LWPOLYLINE
  5
22A
100
AcDbEntity
  8
0
100
AcDbPolyline
 62
7
  6
CONTINUOUS
 90
33
 70
0
 10
128.6782232129
 20
112.5148539759
 10
128.6793528558
 20
112.4682020898
 10
128.690831617
 20
112.3595658352
 10
128.7147686111
 20
112.2514595698
 10
128.7511645575
 20
112.1446864075
 10
128.8004573094
 20
112.0389908274
 10
128.863293552
 20
111.9344497847
 10
128.9395331809
 20
111.8324817769
 10
129.0284379259
 20
111.7346083624
 10
129.1299626359
 20
111.6411722835
 10
129.2437663623
 20
111.5527926991
 10
129.3678892351
 20
111.4709911919
 10
129.5012836445
 20
111.3961904387
 10
129.6435704533
 20
111.3284030953
 10
129.7930795824
 20
111.2682225395
 10
129.9485457116
 20
111.2158729436
 10
130.1093908291
 20
111.1713100682
 10
130.2746710342
 20
111.1346243199
 10
130.4433531864
 20
111.1058944636
 10
130.6145826733
 20
111.085140408
 10
130.7875988176
 20
111.0723701769
 10
130.9614399883
 20
111.0676007735
 10
131.1351828366
 20
111.0708204541
 10
131.3081102127
 20
111.0820115663
 10
131.4793404952
 20
111.101148053
 10
131.6478935242
 20
111.1281688104
 10
131.8129423527
 20
111.1630116874
 10
131.9736916243
 20
111.205616954
 10
132.12913643
 20
111.2558526395
 10
132.2782630186
 20
111.3135328738
 10
132.4202371567
 20
111.3784973838
 10
132.5542939913
 20
111.4506049845
 10
132.6796078049
 20
111.5296737662
  0
LWPOLYLINE
  5
22B
100
AcDbEntity
  8
0
100
AcDbPolyline
 62
7
  6
CONTINUOUS
 90
7
 70
0
 10
128.8383948168
 20
110.434155867
 10
128.8365495037
 20
110.4057539292
 10
128.8316094124
 20
110.3797213313
 10
128.8235745429
 20
110.3560580733
 10
128.8122542645
 20
110.3345105347
 10
128.7978392079
 20
110.315332336
 10
128.7827207229
 20
110.3007499317
  0
LINE
  5
22C
100
AcDbEntity
  8
SMUSSO
100
AcDbLine
 62
7
  6
CONTINUOUS
 10
133.8649669883
 20
119.3655277541
 11
137.8478361339
 21
122.6281031568
  0
LWPOLYLINE
  5
22D
100
AcDbEntity
  8
ASSI
100
AcDbPolyline
 62
7
  6
CONTINUOUS
 90
10
 70
0
 10
126.2830027951
 20
113.6229862727
 10
126.3100097892
 20
113.6429523323
 10
126.3590740044
 20
113.687712947
 10
126.4021101444
 20
113.7390963911
 10
126.4389812747
 20
113.7972531097
 10
126.4698243298
 20
113.8620326577
 10
126.4939439406
 20
113.9319745543
 10
126.5111083175
 20
114.0065919724
 10
126.5215492501
 20
114.0863717392
 10
126.5252667383
 20
114.1713138545
  0
LWPOLYLINE
  5
22E
100
AcDbEntity
  8
ASSI
100
AcDbPolyline
 62
7
  6
CONTINUOUS
 90
10
 70
0
 10
129.8183346484
 20
116.0396040025
 10
129.8453416424
 20
116.0595700621
 10
129.8944058577
 20
116.1043306767
 10
129.9374419977
 20
116.1557141209
 10
129.974313128
 20
116.2138708394
 10
130.0051561831
 20
116.2786503874
 10
130.0292757939
 20
116.348592284
 10
130.0464401708
 20
116.4232097022
 10
130.0568811033
 20
116.5029894689
 10
130.0605985916
 20
116.5879315842
  0
LINE
  5
22F
100
AcDbEntity
  8
0
100
AcDbLine
 62
7
  6
CONTINUOUS
 10
125.3782239918
 20
114.8214222251
 11
125.4367176883
 21
114.8614062803
  0
LINE
  5
230
100
AcDbEntity
  8
0
100
AcDbLine
 62
7
  6
CONTINUOUS
 10
129.573361039
 20
117.6890575668
 11
130.3177296739
 21
118.1978795148
  0
LINE
  5
231
100
AcDbEntity
  8
0
100
AcDbLine
 62
7
  6
CONTINUOUS
 10
125.7168154285
 20
114.326088157
 11
125.7753091249
 21
114.3660722122
  0
LINE
  5
232
100
AcDbEntity
  8
0
100
AcDbLine
 62
7
  6
CONTINUOUS
 10
129.9119321046
 20
117.1937095738
 11
130.6686108407
 21
117.7109462365
  0
LWPOLYLINE
  5
233
100
AcDbEntity
  8
0
100
AcDbPolyline
 62
253
  6
CONTINUOUS
 90
5
 70
0
 10
125.3782239918
 20
114.8214222251
 10
125.385017144
 20
114.8257340794
 10
125.4076182172
 20
114.8360511727
 10
125.4326130437
 20
114.841880309
 10
125.4595739551
 20
114.8431217503
  0
LWPOLYLINE
  5
234
100
AcDbEntity
  8
ASSI
100
AcDbPolyline
 62
7
  6
CONTINUOUS
 90
22
 70
0
 10
125.4366376971
 20
114.8613268646
 10
125.4482601731
 20
114.8682747771
 10
125.4689134877
 20
114.8768662288
 10
125.4911067401
 20
114.8818643642
 10
125.5149018434
 20
114.8831247144
 10
125.5402368844
 20
114.8807917483
 10
125.5661067401
 20
114.8749580223
 10
125.5925329129
 20
114.8654827885
 10
125.6194939004
 20
114.8525067948
 10
125.6459200731
 20
114.8365448408
 10
125.6717899288
 20
114.8174768761
 10
125.6971249698
 20
114.7954229511
 10
125.7209200731
 20
114.7712580163
 10
125.7431133255
 20
114.7448971987
 10
125.7637666401
 20
114.7164253712
 10
125.7820606333
 20
114.6869721034
 10
125.7979004485
 20
114.6564979365
 10
125.8113809423
 20
114.6250423292
 10
125.8219672997
 20
114.5938532272
 10
125.8294812493
 20
114.5633466123
 10
125.8341010626
 20
114.5331065027
 10
125.8358267395
 20
114.5031328983
  0
LWPOLYLINE
  5
235
100
AcDbEntity
  8
ASSI
100
AcDbPolyline
 62
7
  6
CONTINUOUS
 90
11
 70
0
 10
129.1121989303
 20
103.5903706238
 10
129.1242290931
 20
103.5856639902
 10
129.2186839543
 20
103.557546717
 10
129.3181219101
 20
103.5433065108
 10
129.4224714077
 20
103.5427441096
 10
129.5302196025
 20
103.555867667
 10
129.6414160077
 20
103.5828765638
 10
129.7560111099
 20
103.6235714193
 10
129.8723435253
 20
103.677362245
 10
129.9898594589
 20
103.7440523781
 10
130.0202330587
 20
103.7643737633
  0
LINE
  5
236
100
AcDbEntity
  8
ASSI
100
AcDbLine
 62
7
  6
CONTINUOUS
 10
143.0376231533
 20
97.9974781249
 11
139.7610149762
 21
99.3134378383
  0
LINE
  5
237
100
AcDbEntity
  8
ASSI
100
AcDbLine
 62
7
  6
CONTINUOUS
 10
125.8354302233
 20
104.90626662
 11
129.1120384004
 21
103.5903069067
  0
LWPOLYLINE
  5
238
100
AcDbEntity
  8
ASSI
100
AcDbPolyline
 62
7
  6
CONTINUOUS
 90
10
 70
0
 10
139.7608613053
 20
99.3135265796
 10
139.7276871952
 20
99.3278961706
 10
139.6414707635
 20
99.3762845057
 10
139.5608455967
 20
99.4381213484
 10
139.4869805874
 20
99.5125101967
 10
139.4199742193
 20
99.5996339116
 10
139.3597280087
 20
99.6993096322
 10
139.307115397
 20
99.8100922734
 10
139.2622475924
 20
99.9321436438
 10
139.2250133865
 20
100.0653019349
  0
LWPOLYLINE
  5
239
100
AcDbEntity
  8
ASSI
100
AcDbPolyline
 62
7
  6
CONTINUOUS
 90
14
 70
0
 10
143.0374694825
 20
97.9975668663
 10
143.0042953723
 20
98.0119364573
 10
142.9180789407
 20
98.0603247923
 10
142.8374537738
 20
98.122161635
 10
142.7635887645
 20
98.1965504834
 10
142.6965823965
 20
98.2836741983
 10
142.6363361859
 20
98.3833499188
 10
142.5837235741
 20
98.49413256
 10
142.5388557695
 20
98.6161839305
 10
142.5016215637
 20
98.7493422216
 10
142.4725607731
 20
98.8916769226
 10
142.4518533366
 20
99.04254453
 10
142.4393193153
 20
99.2025885474
 10
142.4349587092
 20
99.3718089748
  0
LWPOLYLINE
  5
23A
100
AcDbEntity
  8
0
100
AcDbPolyline
 62
7
  6
CONTINUOUS
 90
7
 70
0
 10
130.7291284554
 20
117.8480069227
 10
130.7268888193
 20
117.816146445
 10
130.7210576532
 20
117.7876053224
 10
130.711634957
 20
117.7623835548
 10
130.6983398336
 20
117.7401667976
 10
130.6814531801
 20
117.7212693954
 10
130.6684777448
 20
117.7108852102
  0
LWPOLYLINE
  5
23B
100
AcDbEntity
  8
0
100
AcDbPolyline
 62
253
  6
CONTINUOUS
 90
6
 70
0
 10
129.4576077199
 20
112.8754664287
 10
129.4711723928
 20
112.8909103182
 10
129.4862033363
 20
112.9147627853
 10
129.4971272839
 20
112.9415844006
 10
129.5037573237
 20
112.9709162388
 10
129.5059800139
 20
113.0022564241
  0
LWPOLYLINE
  5
23C
100
AcDbEntity
  8
0
100
AcDbPolyline
 62
7
  6
CONTINUOUS
 90
9
 70
0
 10
129.0347370657
 20
113.3011193505
 10
128.9453990859
 20
113.2040033939
 10
128.8692180002
 20
113.103711742
 10
128.8061054053
 20
113.0009258402
 10
128.7561061671
 20
112.8968113073
 10
128.7186974072
 20
112.7916103111
 10
128.6933572211
 20
112.6846371469
 10
128.6802176199
 20
112.5765145855
 10
128.6782232129
 20
112.5148539759
  0
LWPOLYLINE
  5
23D
100
AcDbEntity
  8
0
100
AcDbPolyline
 62
7
  6
CONTINUOUS
 90
8
 70
0
 10
129.4576077199
 20
112.8754664287
 10
129.4065343892
 20
112.820129612
 10
129.3631224598
 20
112.7630278394
 10
129.3281872133
 20
112.7048916878
 10
129.3021869777
 20
112.646126022
 10
129.2856090634
 20
112.5875321143
 10
129.2785381903
 20
112.5297345481
 10
129.278224293
 20
112.5136109393
  0
LINE
  5
23E
100
AcDbEntity
  8
0
100
AcDbLine
 62
7
  6
CONTINUOUS
 10
132.88655012
 20
117.1277551435
 11
129.0347370657
 21
113.3011193505
  0
LINE
  5
23F
100
AcDbEntity
  8
0
100
AcDbLine
 62
7
  6
CONTINUOUS
 10
133.2987532836
 20
116.6915044588
 11
129.4576077199
 21
112.8754664287
  0
LINE
  5
240
100
AcDbEntity
  8
ASSI
100
AcDbLine
 62
7
  6
CONTINUOUS
 10
129.8185281331
 20
116.0396888398
 11
126.2831962799
 21
113.62307111
  0
LWPOLYLINE
  5
241
100
AcDbEntity
  8
ASSI
100
AcDbPolyline
 62
7
  6
CONTINUOUS
 90
8
 70
0
 10
130.1177335366
 20
103.7252576355
 10
130.155207663
 20
103.7117286591
 10
130.2413593248
 20
103.6915998594
 10
130.3324922402
 20
103.6844720967
 10
130.4270915875
 20
103.6904638495
 10
130.5252153071
 20
103.7097944068
 10
130.6268054585
 20
103.7422444797
 10
130.6840465781
 20
103.7671804417
  0
LINE
  5
242
100
AcDbEntity
  8
ASSI
100
AcDbLine
 62
7
  6
CONTINUOUS
 10
139.2245186287
 20
100.0677251726
 11
139.128207076
 21
100.1064060635
  0
LINE
  5
243
100
AcDbEntity
  8
ASSI
100
AcDbLine
 62
7
  6
CONTINUOUS
 10
129.2983825446
 20
104.0542852035
 11
130.1175345889
 21
103.7252952752
  0
LINE
  5
244
100
AcDbEntity
  8
ASSI
100
AcDbLine
 62
7
  6
CONTINUOUS
 10
130.2107066609
 20
103.9572844236
 11
138.7480539223
 21
100.5284932934
  0
LWPOLYLINE
  5
245
100
AcDbEntity
  8
ASSI
100
AcDbPolyline
 62
7
  6
CONTINUOUS
 90
34
 70
0
 10
139.1284060238
 20
100.1063684238
 10
139.0847930023
 20
100.1261865928
 10
139.0086871079
 20
100.1725347751
 10
138.938827508
 20
100.2311135897
 10
138.8753186075
 20
100.3021274682
 10
138.8180560016
 20
100.3853719789
 10
138.7679915155
 20
100.4794634221
 10
138.7252454641
 20
100.5845831012
 10
138.6896975326
 20
100.7005497128
 10
138.6619386029
 20
100.8254356467
 10
138.6420988659
 20
100.9593899869
 10
138.6300481307
 20
101.1022636493
 10
138.6259867059
 20
101.2516817717
 10
138.6300481307
 20
101.4077537429
 10
138.6420988659
 20
101.5703701741
 10
138.6619386029
 20
101.7368280364
 10
138.6896975326
 20
101.9071915384
 10
138.7252454641
 20
102.0813964715
 10
138.7679915155
 20
102.2565471815
 10
138.8180560016
 20
102.4326594768
 10
138.8753186075
 20
102.609717549
 10
138.938827508
 20
102.7847783187
 10
139.0086871079
 20
102.9578084015
 10
139.0847930023
 20
103.1288411817
 10
139.1658801502
 20
103.2950337331
 10
139.252031812
 20
103.4563051525
 10
139.3431647274
 20
103.6127363431
 10
139.4377640746
 20
103.7617270877
 10
139.5358877942
 20
103.9031530214
 10
139.6374779457
 20
104.0371385091
 10
139.740845886
 20
104.1614564289
 10
139.8454287341
 20
104.2753644067
 10
139.9517893711
 20
104.3796048165
 10
140.0599277968
 20
104.4741776584
  0
LWPOLYLINE
  5
246
100
AcDbEntity
  8
ASSI
100
AcDbPolyline
 62
7
  6
CONTINUOUS
 90
18
 70
0
 10
125.1045896941
 20
114.0323096406
 10
125.1463867407
 20
113.9836641663
 10
125.2173681518
 20
113.9100743838
 10
125.2918298737
 20
113.8412555541
 10
125.3680931371
 20
113.7787592254
 10
125.4461988659
 20
113.7227290203
 10
125.5261061363
 20
113.6730213162
 10
125.6060134066
 20
113.6307567931
 10
125.6859206769
 20
113.5961045313
 10
125.7658279473
 20
113.5688954506
 10
125.8439336761
 20
113.5497429906
 10
125.9201969395
 20
113.5388301664
 10
125.9946586614
 20
113.535973963
 10
126.0656400725
 20
113.5412387745
 10
126.1330621135
 20
113.5548090789
 10
126.1970038437
 20
113.5765003983
 10
126.2560236711
 20
113.6058236932
 10
126.2830027951
 20
113.6229862727
  0
LWPOLYLINE
  5
247
100
AcDbEntity
  8
ASSI
100
AcDbPolyline
 62
7
  6
CONTINUOUS
 90
7
 70
0
 10
131.6495524513
 20
112.2597502472
 10
131.6532699396
 20
112.1712297686
 10
131.6637108722
 20
112.0813998154
 10
131.680875249
 20
111.9902603877
 10
131.7049948598
 20
111.8971015434
 10
131.7358379149
 20
111.8026332246
 10
131.7502336434
 20
111.7660699107
  0
LWPOLYLINE
  5
248
100
AcDbEntity
  8
RACCORDO
100
AcDbPolyline
 62
7
  6
CONTINUOUS
 90
31
 70
0
 10
132.3338622442
 20
106.5123874207
 10
132.3383177882
 20
106.3968754572
 10
132.3518366259
 20
106.2808757674
 10
132.3746635607
 20
106.164911952
 10
132.407707893
 20
106.0475406727
 10
132.4509056035
 20
105.9314998554
 10
132.5019794385
 20
105.8223959782
 10
132.5604233039
 20
105.7197001237
 10
132.626567155
 20
105.6221973845
 10
132.6979766353
 20
105.5327120246
 10
132.7741089857
 20
105.4508211176
 10
132.8559740133
 20
105.3749628853
 10
132.942469242
 20
105.3059801456
 10
133.0340437679
 20
105.2434152523
 10
133.1308562259
 20
105.1873281282
 10
133.2300596719
 20
105.1392805599
 10
133.3295808777
 20
105.0996949277
 10
133.4303509909
 20
105.0676803008
 10
133.5331771032
 20
105.0428335962
 10
133.6371517087
 20
105.0253417542
 10
133.7420304671
 20
105.0152010861
 10
133.849595619
 20
105.0124699369
 10
133.9611604235
 20
105.0177987923
 10
134.0741561413
 20
105.0317596235
 10
134.1843937051
 20
105.0539198372
 10
134.2882699815
 20
105.0828723173
 10
134.3880482008
 20
105.1185158625
 10
134.4880904274
 20
105.1625779965
 10
134.5890407132
 20
105.2163530158
 10
134.6881832198
 20
105.2794498079
 10
134.7843931555
 20
105.3520034392
  0
LWPOLYLINE
  5
249
100
AcDbEntity
  8
ASSI
100
AcDbPolyline
 62
7
  6
CONTINUOUS
 90
10
 70
0
 10
131.6495524513
 20
112.2597502472
 10
131.6532699396
 20
112.3446923625
 10
131.6637108722
 20
112.4244721293
 10
131.680875249
 20
112.4990895474
 10
131.7049948598
 20
112.569031444
 10
131.7358379149
 20
112.633810992
 10
131.7727090453
 20
112.6919677106
 10
131.8157451853
 20
112.7433511547
 10
131.8648094005
 20
112.7881117693
 10
131.8918163945
 20
112.808077829
  0
LWPOLYLINE
  5
24A
100
AcDbEntity
  8
ASSI
100
AcDbPolyline
 62
7
  6
CONTINUOUS
 90
8
 70
0
 10
132.798619116
 20
111.7067185075
 10
132.796893439
 20
111.6784059976
 10
132.7922736257
 20
111.6526128073
 10
132.7847596762
 20
111.6293389366
 10
132.7741733187
 20
111.6083400034
 10
132.760692825
 20
111.5898603898
 10
132.7448530097
 20
111.5746332418
 10
132.7381814926
 20
111.5697372371
  0
LWPOLYLINE
  5
24B
100
AcDbEntity
  8
0
100
AcDbPolyline
 62
253
  6
CONTINUOUS
 90
7
 70
0
 10
132.7401254195
 20
111.6667344523
 10
132.7381593346
 20
111.6356044658
 10
132.7322947201
 20
111.6068996272
 10
132.7226319212
 20
111.5811110844
 10
132.709336271
 20
111.5586800864
 10
132.6926352619
 20
111.5399904339
 10
132.6796078049
 20
111.5296737662
  0
LWPOLYLINE
  5
24C
100
AcDbEntity
  8
ASSI
100
AcDbPolyline
 62
7
  6
CONTINUOUS
 90
36
 70
0
 10
126.9534950882
 20
110.1475925339
 10
126.8325045285
 20
110.0422552787
 10
126.7132512818
 20
109.9266683004
 10
126.5957353481
 20
109.8008315989
 10
126.4794029328
 20
109.6640345529
 10
126.3648078305
 20
109.5169877838
 10
126.2536114254
 20
109.3618231554
 10
126.1458632306
 20
109.1984224048
 10
126.0415137329
 20
109.0269037949
 10
125.9420757771
 20
108.8497539792
 10
125.847620916
 20
108.6668909207
 10
125.7580775967
 20
108.4783966564
 10
125.6747440061
 20
108.2870039503
 10
125.5977106093
 20
108.0926705772
 10
125.5268869411
 20
107.8954387623
 10
125.4632997935
 20
107.6981679455
 10
125.4070545901
 20
107.5008575586
 10
125.3580459072
 20
107.3035081698
 10
125.316984266
 20
107.1089809236
 10
125.2839854413
 20
106.9173169336
 10
125.2589336583
 20
106.7284750863
 10
125.2421921143
 20
106.5451931847
 10
125.2338818753
 20
106.3675522278
 10
125.2338818753
 20
106.1954712168
 10
125.2421921143
 20
106.0314449585
 10
125.2589336583
 20
105.8755907969
 10
125.2839854413
 20
105.727791388
 10
125.316984266
 20
105.5901895076
 10
125.3580459072
 20
105.4629337159
 10
125.4070545901
 20
105.3458754527
 10
125.4632997935
 20
105.2407118126
 10
125.5268869411
 20
105.1476160797
 10
125.5977106093
 20
105.0664149699
 10
125.6747440061
 20
104.9982857258
 10
125.7580775967
 20
104.9434187818
 10
125.8355907532
 20
104.9063303371
  0
LINE
  5
24D
100
AcDbEntity
  8
0
100
AcDbLine
 62
7
  6
CONTINUOUS
 10
125.8214490577
 20
108.6506212452
 11
125.8522492378
 21
108.6758512758
  0
LINE
  5
24E
100
AcDbEntity
  8
0
100
AcDbLine
 62
7
  6
CONTINUOUS
 10
128.0547409386
 20
110.480026855
 11
128.4025430212
 21
110.764929642
  0
LWPOLYLINE
  5
24F
100
AcDbEntity
  8
0
100
AcDbPolyline
 62
7
  6
CONTINUOUS
 90
23
 70
0
 10
128.4025776842
 20
110.7649557594
 10
128.404397142
 20
110.7664213528
 10
128.4239594037
 20
110.7792133
 10
128.4460445518
 20
110.7888750463
 10
128.4697763969
 20
110.7950232788
 10
128.4952211444
 20
110.797516737
 10
128.5223125891
 20
110.7964966815
 10
128.5499759256
 20
110.7920035812
 10
128.5782341469
 20
110.7838978026
 10
128.6070642601
 20
110.7723189792
 10
128.6353224814
 20
110.7577264803
 10
128.662985818
 20
110.7399991414
 10
128.6900772626
 20
110.719258127
 10
128.7155220102
 20
110.6963263003
 10
128.7392538553
 20
110.6711155797
 10
128.7613390033
 20
110.6437140468
 10
128.780901265
 20
110.615208809
 10
128.7978392079
 20
110.5855554918
 10
128.8122542645
 20
110.5547984696
 10
128.8235745429
 20
110.524157973
 10
128.8316094124
 20
110.4940407455
 10
128.8365495037
 20
110.4640400435
 10
128.8383948168
 20
110.434155867
  0
LWPOLYLINE
  5
250
100
AcDbEntity
  8
0
100
AcDbPolyline
 62
7
  6
CONTINUOUS
 90
21
 70
0
 10
144.2674684543
 20
101.0596345995
 10
144.2583417006
 20
101.0625793471
 10
144.2417244837
 20
101.0646467965
 10
144.2239078797
 20
101.0627649314
 10
144.2049382459
 20
101.0570863966
 10
144.1855681691
 20
101.0478364779
 10
144.1657815496
 20
101.0348715881
 10
144.145594487
 20
101.0183353146
 10
144.1258078674
 20
100.9988837045
 10
144.1064377906
 20
100.9763995472
 10
144.0874681568
 20
100.9510000535
 10
144.0696515528
 20
100.9236929034
 10
144.053034336
 20
100.8944013997
 10
144.0375701488
 20
100.8632022397
 10
144.0238725057
 20
100.8313331948
 10
144.0120124304
 20
100.7987673324
 10
144.0019188991
 20
100.7655315851
 10
143.9939923549
 20
100.7329445226
 10
143.9883662786
 20
100.701445668
 10
143.9849071895
 20
100.6705954981
 10
143.9836150874
 20
100.6403940129
  0
LWPOLYLINE
  5
251
100
AcDbEntity
  8
0
100
AcDbPolyline
 62
253
  6
CONTINUOUS
 90
19
 70
0
 10
145.086646549
 20
100.7307449557
 10
145.0795914259
 20
100.7331283742
 10
145.060876528
 20
100.7356568682
 10
145.0406895224
 20
100.7333380396
 10
145.0193758142
 20
100.7262115642
 10
144.997300087
 20
100.7143993781
 10
144.9748400626
 20
100.6981035909
 10
144.9523800381
 20
100.6776030282
 10
144.9303043109
 20
100.6532484602
 10
144.9089906027
 20
100.6254566003
 10
144.8888035971
 20
100.5947029751
 10
144.8700886992
 20
100.5615137874
 10
144.8531661263
 20
100.5264569136
 10
144.838325428
 20
100.4901321864
 10
144.8258205331
 20
100.4531611321
 10
144.8158654036
 20
100.4161763355
 10
144.8086303746
 20
100.3798106169
 10
144.8042392394
 20
100.3446862038
 10
144.8027671316
 20
100.3114040845
  0
LWPOLYLINE
  5
252
100
AcDbEntity
  8
0
100
AcDbPolyline
 62
7
  6
CONTINUOUS
 90
16
 70
0
 10
144.8630335761
 20
100.1739709995
 10
144.9297185079
 20
100.1501111529
 10
144.9982447239
 20
100.1310925404
 10
145.0681078934
 20
100.1167565985
 10
145.1388671549
 20
100.1069687358
 10
145.2101691789
 20
100.1016242742
 10
145.2816607301
 20
100.1006641892
 10
145.3529469403
 20
100.1040650915
 10
145.4236248015
 20
100.1118289722
 10
145.4933426818
 20
100.123993776
 10
145.5621555637
 20
100.1407551871
 10
145.6291940604
 20
100.1621605653
 10
145.6929878511
 20
100.1879005869
 10
145.7529836223
 20
100.2178141276
 10
145.8092226439
 20
100.2520691912
 10
145.8613104851
 20
100.2907093722
  0
LWPOLYLINE
  5
253
100
AcDbEntity
  8
0
100
AcDbPolyline
 62
7
  6
CONTINUOUS
 90
19
 70
0
 10
145.086646549
 20
100.7307449557
 10
145.1055177567
 20
100.723845269
 10
145.1272644199
 20
100.7173282804
 10
145.1516583261
 20
100.7115131065
 10
145.1785108854
 20
100.7066732851
 10
145.207312859
 20
100.7030974517
 10
145.2372191325
 20
100.7010149568
 10
145.2677370187
 20
100.7005255537
 10
145.2982973365
 20
100.701673871
 10
145.3278939785
 20
100.7043880247
 10
145.356001516
 20
100.7085160783
 10
145.3821864087
 20
100.7138595309
 10
145.4056972201
 20
100.7200669498
 10
145.4261833396
 20
100.7267727811
 10
145.4435814344
 20
100.7336504318
 10
145.4577244857
 20
100.7402918353
 10
145.4685879477
 20
100.7462869983
 10
145.4763109397
 20
100.7512653014
 10
145.4810981206
 20
100.7548629651
  0
LINE
  5
254
100
AcDbEntity
  8
0
100
AcDbLine
 62
7
  6
CONTINUOUS
 10
144.0438815318
 20
100.5029609279
 11
144.8630335761
 21
100.1739709995
  0
LINE
  5
255
100
AcDbEntity
  8
0
100
AcDbLine
 62
7
  6
CONTINUOUS
 10
144.2674945048
 20
101.0597348841
 11
145.086646549
 21
100.7307449557
  0
LWPOLYLINE
  5
256
100
AcDbEntity
  8
ASSI
100
AcDbPolyline
 62
7
  6
CONTINUOUS
 90
8
 70
0
 10
132.3611291842
 20
107.9429910136
 10
132.3411915909
 20
107.992020885
 10
132.2911271049
 20
108.0861123282
 10
132.2338644989
 20
108.1693568388
 10
132.1703555985
 20
108.2403707173
 10
132.1004959986
 20
108.2989495319
 10
132.0243901042
 20
108.3452977143
 10
131.9807770827
 20
108.3651158832
  0
LWPOLYLINE
  5
257
100
AcDbEntity
  8
ASSI
100
AcDbPolyline
 62
7
  6
CONTINUOUS
 90
9
 70
0
 10
131.8666140875
 20
108.4741235812
 10
131.8255524464
 20
108.6013793728
 10
131.7765437635
 20
108.7184376361
 10
131.72029856
 20
108.8236012762
 10
131.6567114124
 20
108.9166970091
 10
131.5858877443
 20
108.9978981189
 10
131.5088543474
 20
109.066027363
 10
131.4255207569
 20
109.120894307
 10
131.3480076004
 20
109.1579827517
  0
LINE
  5
258
100
AcDbEntity
  8
ASSI
100
AcDbLine
 62
7
  6
CONTINUOUS
 10
131.8833631095
 20
108.4042817932
 11
131.8666140875
 21
108.4741235812
  0
LINE
  5
259
100
AcDbEntity
  8
0
100
AcDbLine
 62
7
  6
CONTINUOUS
 10
133.631936441
 20
108.2859928087
 11
133.6294992465
 21
108.3449830543
  0
LINE
  5
25A
100
AcDbEntity
  8
0
100
AcDbLine
 62
7
  6
CONTINUOUS
 10
128.690681069
 20
110.2253531842
 11
128.7827553858
 21
110.3007760491
  0
LINE
  5
25B
100
AcDbEntity
  8
SMUSSO
100
AcDbLine
 62
7
  6
CONTINUOUS
 10
137.9607272098
 20
117.7205781124
 11
141.9435963553
 21
120.9831535151
  0
LINE
  5
25C
100
AcDbEntity
  8
SMUSSO
100
AcDbLine
 62
7
  6
CONTINUOUS
 10
138.4975352671
 20
117.5049838946
 11
141.9435963553
 21
120.3278318797
  0
LWPOLYLINE
  5
25D
100
AcDbEntity
  8
RACCORDO
100
AcDbPolyline
 62
253
  6
CONTINUOUS
 90
14
 70
0
 10
145.0351727998
 20
122.5816041942
 10
145.1984814324
 20
122.7109502042
 10
145.3706454872
 20
122.8376976332
 10
145.5513235698
 20
122.9600272837
 10
145.7409101685
 20
123.0764709918
 10
145.938014636
 20
123.1843401811
 10
146.1395237049
 20
123.2803414262
 10
146.3447257049
 20
123.3627408157
 10
146.552859508
 20
123.4297747794
 10
146.7607901414
 20
123.4791943679
 10
146.9676675778
 20
123.5098079123
 10
147.172669904
 20
123.5204625308
 10
147.3729264746
 20
123.5102331965
 10
147.5674066924
 20
123.4787293743
  0
LWPOLYLINE
  5
25E
100
AcDbEntity
  8
0
100
AcDbPolyline
 62
253
  6
CONTINUOUS
 90
3
 70
0
 10
125.8214490577
 20
108.6506212452
 10
125.8377868503
 20
108.6621021411
 10
125.8475508924
 20
108.6667435168
  0
LINE
  5
25F
100
AcDbEntity
  8
ASSI
100
AcDbLine
 62
7
  6
CONTINUOUS
 10
135.4269547631
 20
115.2246107214
 11
131.8916229098
 21
112.8079929917
  0
LWPOLYLINE
  5
260
100
AcDbEntity
  8
ASSI
100
AcDbPolyline
 62
7
  6
CONTINUOUS
 90
29
 70
0
 10
135.4271482478
 20
115.2246955587
 10
135.4541273718
 20
115.2418581383
 10
135.5131471992
 20
115.2711814331
 10
135.5770889294
 20
115.2928727525
 10
135.6445109705
 20
115.3064430569
 10
135.7154923815
 20
115.3117078685
 10
135.7899541034
 20
115.308851665
 10
135.8662173668
 20
115.2979388409
 10
135.9443230957
 20
115.2787863809
 10
136.024230366
 20
115.2515773001
 10
136.1041376363
 20
115.2169250383
 10
136.1840449067
 20
115.1746605152
 10
136.263952177
 20
115.1249528111
 10
136.3420579059
 20
115.068922606
 10
136.4183211692
 20
115.0064262773
 10
136.4927828912
 20
114.9376074476
 10
136.5637643022
 20
114.8640176652
 10
136.6311863433
 20
114.7855485523
 10
136.6951280735
 20
114.7023084867
 10
136.7541479008
 20
114.6161741489
 10
136.8081340189
 20
114.5270797923
 10
136.8571982341
 20
114.4350911635
 10
136.9002343741
 20
114.3422821832
 10
136.9371055045
 20
114.248634216
 10
136.9679485596
 20
114.1541658972
 10
136.9920681704
 20
114.0610070529
 10
137.0092325472
 20
113.9698676252
 10
137.0196734798
 20
113.880037672
 10
137.0233909681
 20
113.7915171934
  0
LWPOLYLINE
  5
261
100
AcDbEntity
  8
ASSI
100
AcDbPolyline
 62
7
  6
CONTINUOUS
 90
29
 70
0
 10
131.8918163945
 20
112.808077829
 10
131.9187955186
 20
112.8252404085
 10
131.9778153459
 20
112.8545637034
 10
132.0417570761
 20
112.8762550228
 10
132.1091791172
 20
112.8898253272
 10
132.1801605282
 20
112.8950901387
 10
132.2546222502
 20
112.8922339353
 10
132.3308855135
 20
112.8813211111
 10
132.4089912424
 20
112.8621686511
 10
132.4888985127
 20
112.8349595704
 10
132.5688057831
 20
112.8003073086
 10
132.6487130534
 20
112.7580427855
 10
132.7286203237
 20
112.7083350814
 10
132.8067260526
 20
112.6523048763
 10
132.882989316
 20
112.5898085476
 10
132.9574510379
 20
112.5209897179
 10
133.0284324489
 20
112.4473999354
 10
133.09585449
 20
112.3689308226
 10
133.1597962202
 20
112.2856907569
 10
133.2188160476
 20
112.1995564191
 10
133.2728021656
 20
112.1104620625
 10
133.3218663809
 20
112.0184734338
 10
133.3649025209
 20
111.9256644534
 10
133.4017736512
 20
111.8320164862
 10
133.4326167063
 20
111.7375481674
 10
133.4567363171
 20
111.6443893231
 10
133.4739006939
 20
111.5532498954
 10
133.4843416265
 20
111.4634199423
 10
133.4880591148
 20
111.3748994636
  0
LINE
  5
262
100
AcDbEntity
  8
0
100
AcDbLine
 62
7
  6
CONTINUOUS
 10
124.0873129599
 20
109.8848413185
 11
126.0772472962
 21
109.0856388271
  0
LINE
  5
263
100
AcDbEntity
  8
0
100
AcDbLine
 62
7
  6
CONTINUOUS
 10
145.7537239588
 20
101.1831222035
 11
145.9215987062
 21
101.1156999204
  0
LINE
  5
264
100
AcDbEntity
  8
0
100
AcDbLine
 62
7
  6
CONTINUOUS
 10
146.5569373967
 20
100.8605335789
 11
152.75763451
 21
98.3701938267
  0
LWPOLYLINE
  5
265
100
AcDbEntity
  8
0
100
AcDbPolyline
 62
7
  6
CONTINUOUS
 90
33
 70
0
 10
135.6410155893
 20
109.718439585
 10
135.6421452323
 20
109.671787699
 10
135.6536239935
 20
109.5631514443
 10
135.6775609876
 20
109.4550451789
 10
135.7139569339
 20
109.3482720166
 10
135.7632496858
 20
109.2425764365
 10
135.8260859285
 20
109.1380353938
 10
135.9023255574
 20
109.036067386
 10
135.9912303024
 20
108.9381939715
 10
136.0927550123
 20
108.8447578927
 10
136.2065587388
 20
108.7563783082
 10
136.3306816115
 20
108.674576801
 10
136.464076021
 20
108.5997760478
 10
136.6063628297
 20
108.5319887044
 10
136.7558719588
 20
108.4718081487
 10
136.9113380881
 20
108.4194585527
 10
137.0721832056
 20
108.3748956774
 10
137.2374634107
 20
108.338209929
 10
137.4061455628
 20
108.3094800728
 10
137.5773750497
 20
108.2887260171
 10
137.750391194
 20
108.2759557861
 10
137.9242323647
 20
108.2711863826
 10
138.0979752131
 20
108.2744060632
 10
138.2709025891
 20
108.2855971755
 10
138.4421328717
 20
108.3047336621
 10
138.6106859006
 20
108.3317544195
 10
138.7757347292
 20
108.3665972966
 10
138.9364840008
 20
108.4092025631
 10
139.0919288065
 20
108.4594382487
 10
139.2410553951
 20
108.517118483
 10
139.3830295332
 20
108.582082993
 10
139.5170863678
 20
108.6541905937
 10
139.6424001814
 20
108.7332593753
  0
LWPOLYLINE
  5
266
100
AcDbEntity
  8
RACCORDO
100
AcDbPolyline
 62
253
  6
CONTINUOUS
 90
11
 70
0
 10
135.0625903106
 20
106.0189025291
 10
135.0591545377
 20
105.9284594496
 10
135.0488664333
 20
105.8412819321
 10
135.0317835326
 20
105.7578575088
 10
135.0080013702
 20
105.6786527228
 10
134.9776529455
 20
105.6041105195
 10
134.9409079792
 20
105.534647769
 10
134.8979719641
 20
105.4706529352
 10
134.8490850158
 20
105.4124839032
 10
134.7945205299
 20
105.3604659779
 10
134.7843931555
 20
105.3520034392
  0
LWPOLYLINE
  5
267
100
AcDbEntity
  8
ASSI
100
AcDbPolyline
 62
7
  6
CONTINUOUS
 90
36
 70
0
 10
130.2301032653
 20
108.8316328206
 10
130.1091127056
 20
108.7262955654
 10
129.9898594589
 20
108.610708587
 10
129.8723435253
 20
108.4848718855
 10
129.7560111099
 20
108.3480748396
 10
129.6414160077
 20
108.2010280704
 10
129.5302196025
 20
108.0458634421
 10
129.4224714077
 20
107.8824626914
 10
129.3181219101
 20
107.7109440816
 10
129.2186839543
 20
107.5337942659
 10
129.1242290931
 20
107.3509312074
 10
129.0346857738
 20
107.1624369431
 10
128.9513521833
 20
106.971044237
 10
128.8743187864
 20
106.7767108638
 10
128.8034951183
 20
106.5794790489
 10
128.7399079707
 20
106.3822082321
 10
128.6836627672
 20
106.1848978452
 10
128.6346540843
 20
105.9875484564
 10
128.5935924432
 20
105.7930212102
 10
128.5605936184
 20
105.6013572203
 10
128.5355418354
 20
105.4125153729
 10
128.5188002915
 20
105.2292334714
 10
128.5104900524
 20
105.0515925145
 10
128.5104900524
 20
104.8795115034
 10
128.5188002915
 20
104.7154852452
 10
128.5355418354
 20
104.5596310835
 10
128.5605936184
 20
104.4118316747
 10
128.5935924432
 20
104.2742297943
 10
128.6346540843
 20
104.1469740026
 10
128.6836627672
 20
104.0299157394
 10
128.7399079707
 20
103.9247520993
 10
128.8034951183
 20
103.8316563663
 10
128.8743187864
 20
103.7504552565
 10
128.9513521833
 20
103.6823260124
 10
129.0346857738
 20
103.6274590685
 10
129.1121989303
 20
103.5903706238
  0
LWPOLYLINE
  5
268
100
AcDbEntity
  8
ASSI
100
AcDbPolyline
 62
7
  6
CONTINUOUS
 90
36
 70
0
 10
130.2301032653
 20
108.4220567984
 10
130.1292777989
 20
108.3342757524
 10
130.0299000933
 20
108.2379532705
 10
129.9319701486
 20
108.1330893526
 10
129.8350264692
 20
108.0190918142
 10
129.7395305506
 20
107.89655284
 10
129.6468668797
 20
107.767248983
 10
129.5570767173
 20
107.6310816908
 10
129.4701188026
 20
107.4881495159
 10
129.3872538395
 20
107.3405246695
 10
129.3085414552
 20
107.1881387874
 10
129.2339220224
 20
107.0310602338
 10
129.1644773636
 20
106.8715663121
 10
129.1002828662
 20
106.7096218345
 10
129.0412631428
 20
106.5452619887
 10
128.9882738531
 20
106.3808696414
 10
128.9414028502
 20
106.216444319
 10
128.9005622812
 20
106.051986495
 10
128.8663442469
 20
105.8898804565
 10
128.8388452263
 20
105.7301604649
 10
128.8179687404
 20
105.5727922587
 10
128.8040174538
 20
105.4200573408
 10
128.7970922546
 20
105.27202321
 10
128.7970922546
 20
105.1286223675
 10
128.8040174538
 20
104.9919338189
 10
128.8179687404
 20
104.8620553509
 10
128.8388452263
 20
104.7388891768
 10
128.8663442469
 20
104.6242209432
 10
128.9005622812
 20
104.5181744501
 10
128.9414028502
 20
104.4206258974
 10
128.9882738531
 20
104.3329895307
 10
129.0412631428
 20
104.2554097532
 10
129.1002828662
 20
104.1877421617
 10
129.1644773636
 20
104.1309677916
 10
129.2339220224
 20
104.0852453383
 10
129.2985163195
 20
104.0543383011
  0
LWPOLYLINE
  5
269
100
AcDbEntity
  8
ASSI
100
AcDbPolyline
 62
253
  6
CONTINUOUS
 90
21
 70
0
 10
146.2639008662
 20
122.0881193016
 10
146.1108068875
 20
121.9588203103
 10
145.9496029946
 20
121.8142422717
 10
145.7805680407
 20
121.6532952643
 10
145.6033631267
 20
121.4741818934
 10
145.4191342217
 20
121.2765044566
 10
145.2304673916
 20
121.0616674905
 10
145.0379310524
 20
120.8290927547
 10
144.8421632419
 20
120.5782717297
 10
144.6458290138
 20
120.3115102
 10
144.4496145248
 20
120.0288210521
 10
144.2542450191
 20
119.7302927894
 10
144.062286363
 20
119.4191016805
 10
143.8746094355
 20
119.0961788424
 10
143.6916542885
 20
118.7617813963
 10
143.5151035681
 20
118.4186059639
 10
143.3456650915
 20
118.0678479293
 10
143.1837114108
 20
117.7100894831
 10
143.0302145774
 20
117.3473516519
 10
142.8857450197
 20
116.9809976886
 10
142.750552481
 20
116.6116770899
  0
LINE
  5
26A
100
AcDbEntity
  8
0
100
AcDbLine
 62
7
  6
CONTINUOUS
 10
132.3410163683
 20
112.0250078343
 11
132.3995100647
 21
112.0649918895
  0
LINE
  5
26B
100
AcDbEntity
  8
0
100
AcDbLine
 62
7
  6
CONTINUOUS
 10
136.5361534155
 20
114.8926431759
 11
137.2805220503
 21
115.4014651239
  0
LINE
  5
26C
100
AcDbEntity
  8
0
100
AcDbLine
 62
7
  6
CONTINUOUS
 10
132.6796078049
 20
111.5296737662
 11
132.7381015014
 21
111.5696578214
  0
LINE
  5
26D
100
AcDbEntity
  8
0
100
AcDbLine
 62
7
  6
CONTINUOUS
 10
136.8747244811
 20
114.397295183
 11
137.6314032172
 21
114.9145318457
  0
LWPOLYLINE
  5
26E
100
AcDbEntity
  8
0
100
AcDbPolyline
 62
253
  6
CONTINUOUS
 90
5
 70
0
 10
132.3410163683
 20
112.0250078343
 10
132.3478095205
 20
112.0293196885
 10
132.3704105936
 20
112.0396367818
 10
132.3954054201
 20
112.0454659182
 10
132.4223663315
 20
112.0467073594
  0
LWPOLYLINE
  5
26F
100
AcDbEntity
  8
ASSI
100
AcDbPolyline
 62
7
  6
CONTINUOUS
 90
22
 70
0
 10
132.3994300735
 20
112.0649124737
 10
132.4110525495
 20
112.0718603863
 10
132.4317058642
 20
112.0804518379
 10
132.4538991166
 20
112.0854499734
 10
132.4776942198
 20
112.0867103235
 10
132.5030292608
 20
112.0843773574
 10
132.5288991166
 20
112.0785436314
 10
132.5553252893
 20
112.0690683976
 10
132.5822862768
 20
112.0560924039
 10
132.6087124495
 20
112.0401304499
 10
132.6345823053
 20
112.0210624852
 10
132.6599173463
 20
111.9990085602
 10
132.6837124495
 20
111.9748436254
 10
132.7059057019
 20
111.9484828078
 10
132.7265590166
 20
111.9200109804
 10
132.7448530097
 20
111.8905577125
 10
132.760692825
 20
111.8600835456
 10
132.7741733187
 20
111.8286279383
 10
132.7847596762
 20
111.7974388363
 10
132.7922736257
 20
111.7669322214
 10
132.796893439
 20
111.7366921118
 10
132.798619116
 20
111.7067185075
  0
LWPOLYLINE
  5
270
100
AcDbEntity
  8
ASSI
100
AcDbPolyline
 62
7
  6
CONTINUOUS
 90
10
 70
0
 10
143.2899226397
 20
116.7863893028
 10
143.2006231476
 20
116.7530374369
 10
143.1561303432
 20
116.7361793098
 10
143.1102885752
 20
116.7179855443
 10
143.0631139698
 20
116.6978083668
 10
143.0152175123
 20
116.6752753981
 10
142.9664346781
 20
116.6494974484
 10
142.9167312855
 20
116.6194452179
 10
142.867502067
 20
116.5847245892
 10
142.8495063378
 20
116.5705137948
  0
LWPOLYLINE
  5
271
100
AcDbEntity
  8
ASSI
100
AcDbPolyline
 62
7
  6
CONTINUOUS
 90
11
 70
0
 10
131.9807770827
 20
108.3651158832
 10
131.9433029563
 20
108.3786448597
 10
131.8571512945
 20
108.3987736593
 10
131.7660183791
 20
108.405901422
 10
131.6714190318
 20
108.3999096692
 10
131.5732953122
 20
108.3805791119
 10
131.4717051607
 20
108.3481290391
 10
131.3683372204
 20
108.3030988396
 10
131.2637543723
 20
108.2456683098
 10
131.1573937354
 20
108.1756576533
 10
131.0492553096
 20
108.0930668701
  0
LWPOLYLINE
  5
272
100
AcDbEntity
  8
ASSI
100
AcDbPolyline
 62
7
  6
CONTINUOUS
 90
12
 70
0
 10
131.8876835609
 20
108.1330413073
 10
131.8786609388
 20
108.1365712825
 10
131.8078197929
 20
108.1576592374
 10
131.7332413261
 20
108.1683393921
 10
131.6549792029
 20
108.168761193
 10
131.5741680567
 20
108.1589185249
 10
131.4907707529
 20
108.1386618523
 10
131.4048244262
 20
108.1081407107
 10
131.3175751147
 20
108.0677975914
 10
131.2294381645
 20
108.0177799916
 10
131.1399982294
 20
107.9579404141
 10
131.0492553096
 20
107.888278859
  0
LWPOLYLINE
  5
273
100
AcDbEntity
  8
ASSI
100
AcDbPolyline
 62
7
  6
CONTINUOUS
 90
12
 70
0
 10
131.1616902112
 20
108.6940150743
 10
131.1516650755
 20
108.697937269
 10
131.0729526912
 20
108.72136833
 10
130.9900877281
 20
108.7332351685
 10
130.9031298134
 20
108.7337038362
 10
130.813339651
 20
108.7227675383
 10
130.7206759801
 20
108.7002601243
 10
130.6251800615
 20
108.6663477447
 10
130.5282363821
 20
108.6215220566
 10
130.4303064374
 20
108.5659469458
 10
130.3309287318
 20
108.4994585263
 10
130.2301032653
 20
108.4220567984
  0
LWPOLYLINE
  5
274
100
AcDbEntity
  8
ASSI
100
AcDbPolyline
 62
7
  6
CONTINUOUS
 90
12
 70
0
 10
131.3480076004
 20
109.1579827517
 10
131.3359774376
 20
109.1626893852
 10
131.2415225764
 20
109.1908066584
 10
131.1420846206
 20
109.2050468647
 10
131.037735123
 20
109.2056092659
 10
130.9299869282
 20
109.1924857084
 10
130.818790523
 20
109.1654768116
 10
130.7041954208
 20
109.1247819561
 10
130.5878630054
 20
109.0709911304
 10
130.4703470718
 20
109.0043009974
 10
130.3510938251
 20
108.9245148941
 10
130.2301032653
 20
108.8316328206
  0
LWPOLYLINE
  5
275
100
AcDbEntity
  8
ASSI
100
AcDbPolyline
 62
7
  6
CONTINUOUS
 90
12
 70
0
 10
128.0713994232
 20
110.473942465
 10
128.0593692604
 20
110.4786490986
 10
127.9649143992
 20
110.5067663718
 10
127.8654764435
 20
110.521006578
 10
127.7611269458
 20
110.5215689792
 10
127.653378751
 20
110.5084454217
 10
127.5421823459
 20
110.4814365249
 10
127.4275872436
 20
110.4407416695
 10
127.3112548283
 20
110.3869508438
 10
127.1937388946
 20
110.3202607107
 10
127.0744856479
 20
110.2404746074
 10
126.9534950882
 20
110.1475925339
  0
LINE
  5
276
100
AcDbEntity
  8
ASSI
100
AcDbLine
 62
7
  6
CONTINUOUS
 10
131.8878039583
 20
108.1330890952
 11
132.9328830309
 21
107.7133617788
  0
LINE
  5
277
100
AcDbEntity
  8
ASSI
100
AcDbLine
 62
7
  6
CONTINUOUS
 10
136.6390253922
 20
106.2248914535
 11
140.4251365283
 21
104.7043038654
  0
LINE
  5
278
100
AcDbEntity
  8
ASSI
100
AcDbLine
 62
7
  6
CONTINUOUS
 10
141.0888868138
 20
104.7071359399
 11
140.9916485176
 21
104.7461890319
  0
LINE
  5
279
100
AcDbEntity
  8
ASSI
100
AcDbLine
 62
7
  6
CONTINUOUS
 10
131.1618239861
 20
108.6940681719
 11
131.9809760304
 21
108.3650782436
  0
LINE
  5
27A
100
AcDbEntity
  8
ASSI
100
AcDbLine
 62
7
  6
CONTINUOUS
 10
145.2737528832
 20
103.565217687
 11
141.997144706
 21
104.8811774004
  0
LINE
  5
27B
100
AcDbEntity
  8
ASSI
100
AcDbLine
 62
7
  6
CONTINUOUS
 10
128.0715599531
 20
110.4740061821
 11
131.3481681303
 21
109.1580464687
  0
LWPOLYLINE
  5
27C
100
AcDbEntity
  8
ASSI
100
AcDbPolyline
 62
7
  6
CONTINUOUS
 90
14
 70
0
 10
145.2739065541
 20
103.5651289457
 10
145.3070806642
 20
103.5507593547
 10
145.3932970959
 20
103.5023710197
 10
145.4739222627
 20
103.4405341769
 10
145.547787272
 20
103.3661453286
 10
145.6147936401
 20
103.2790216137
 10
145.6750398506
 20
103.1793458931
 10
145.7276524624
 20
103.0685632519
 10
145.772520267
 20
102.9465118815
 10
145.8097544728
 20
102.8133535904
 10
145.8388152634
 20
102.6710188893
 10
145.8595227
 20
102.5201512819
 10
145.8720567213
 20
102.3601072645
 10
145.8764173273
 20
102.1908868372
  0
LWPOLYLINE
  5
27D
100
AcDbEntity
  8
ASSI
100
AcDbPolyline
 62
7
  6
CONTINUOUS
 90
18
 70
0
 10
132.0673820706
 20
111.2358952497
 10
132.1091791172
 20
111.1872497754
 10
132.1801605282
 20
111.1136599929
 10
132.2546222502
 20
111.0448411633
 10
132.3308855135
 20
110.9823448346
 10
132.4089912424
 20
110.9263146295
 10
132.4888985127
 20
110.8766069253
 10
132.5688057831
 20
110.8343424023
 10
132.6487130534
 20
110.7996901404
 10
132.7286203237
 20
110.7724810597
 10
132.8067260526
 20
110.7533285997
 10
132.882989316
 20
110.7424157755
 10
132.9574510379
 20
110.7395595721
 10
133.0284324489
 20
110.7448243836
 10
133.09585449
 20
110.758394688
 10
133.1597962202
 20
110.7800860074
 10
133.2188160476
 20
110.8094093023
 10
133.2457951716
 20
110.8265718819
  0
LWPOLYLINE
  5
27E
100
AcDbEntity
  8
0
100
AcDbPolyline
 62
253
  6
CONTINUOUS
 90
21
 70
0
 10
136.4687723904
 20
110.2058420332
 10
136.4665497002
 20
110.2386543263
 10
136.4599196604
 20
110.2723772997
 10
136.4489957128
 20
110.306433944
 10
136.4339647692
 20
110.3402415406
 10
136.4150840133
 20
110.3732216322
 10
136.3926765
 20
110.4048099201
 10
136.367125628
 20
110.4344659202
 10
136.3388685798
 20
110.4616822099
 10
136.3083888415
 20
110.4859931111
 10
136.2762079297
 20
110.5069826574
 10
136.2428764687
 20
110.524291712
 10
136.2089647692
 20
110.537624112
 10
136.1750530698
 20
110.5467517364
 10
136.1417216088
 20
110.5515184091
 10
136.109540697
 20
110.5518425709
 10
136.0790609587
 20
110.5477186754
 10
136.0508039105
 20
110.5392172835
 10
136.0252530385
 20
110.5264838564
 10
136.0028455252
 20
110.5097362667
 10
135.9975294422
 20
110.5047049596
  0
LWPOLYLINE
  5
27F
100
AcDbEntity
  8
0
100
AcDbPolyline
 62
7
  6
CONTINUOUS
 90
34
 70
0
 10
136.2410166694
 20
109.7171965485
 10
136.2434944142
 20
109.6761377522
 10
136.2547786338
 20
109.6188352218
 10
136.2752555678
 20
109.5610661383
 10
136.3047358034
 20
109.5033612509
 10
136.342982259
 20
109.4460732675
 10
136.3900185849
 20
109.3892604956
 10
136.4452896224
 20
109.3337122341
 10
136.5082464546
 20
109.2799838127
 10
136.5795253997
 20
109.2277038879
 10
136.6591765847
 20
109.1772007137
 10
136.7464214858
 20
109.1292652119
 10
136.8412549024
 20
109.0841486752
 10
136.9434701006
 20
109.0422325474
 10
137.0522989237
 20
109.0040794706
 10
137.1670011347
 20
108.970132875
 10
137.2869322045
 20
108.9407342471
 10
137.4113630643
 20
108.9161932564
 10
137.5393922907
 20
108.8967898593
 10
137.6702398508
 20
108.8827203927
 10
137.8030754285
 20
108.8741389934
 10
137.9368967578
 20
108.8711518513
 10
138.0708762236
 20
108.8737985519
 10
138.2041314779
 20
108.8820713709
 10
138.335572871
 20
108.8958840391
 10
138.4643378665
 20
108.9150979128
 10
138.5896422339
 20
108.9395346732
 10
138.7105334581
 20
108.9689223749
 10
138.8262515118
 20
109.0029588894
 10
138.9361276647
 20
109.0413101908
 10
139.0393771455
 20
109.0835306843
 10
139.135362036
 20
109.1291384924
 10
139.2236387719
 20
109.1776638165
 10
139.3038087447
 20
109.2285934434
  0
LWPOLYLINE
  5
280
100
AcDbEntity
  8
0
100
AcDbPolyline
 62
7
  6
CONTINUOUS
 90
32
 70
0
 10
136.4965314015
 20
107.1935183051
 10
136.4923336652
 20
107.2951209843
 10
136.4804321304
 20
107.3979188668
 10
136.460826797
 20
107.5019119527
 10
136.4332915734
 20
107.6077871999
 10
136.3980525513
 20
107.7148576506
 10
136.3557880054
 20
107.8210624306
 10
136.3063618363
 20
107.9263847702
 10
136.2499101434
 20
108.0308414391
 10
136.1875194994
 20
108.1324218732
 10
136.1190748541
 20
108.2310703535
 10
136.0446912576
 20
108.3268425989
 10
135.9658004329
 20
108.4178952014
 10
135.8823150654
 20
108.5041367314
 10
135.7943224696
 20
108.5856586184
 10
135.7035163123
 20
108.660891743
 10
135.6098420886
 20
108.7297142784
 10
135.5133543034
 20
108.7922480514
 10
135.4159101371
 20
108.8472894223
 10
135.3174910627
 20
108.8946932476
 10
135.2181156074
 20
108.9346046708
 10
135.119696533
 20
108.9662554837
 10
135.0222523667
 20
108.9894856608
 10
134.9257645815
 20
109.0044552275
 10
134.8320903578
 20
109.0108760521
 10
134.7412842005
 20
109.0085825275
 10
134.6532916047
 20
108.9977402609
 10
134.5698062372
 20
108.9785579423
 10
134.4909154125
 20
108.9508740074
 10
134.416531816
 20
108.9148500205
 10
134.3480871707
 20
108.8711793654
 10
134.3174619422
 20
108.8474978893
  0
LWPOLYLINE
  5
281
100
AcDbEntity
  8
0
100
AcDbPolyline
 62
7
  6
CONTINUOUS
 90
32
 70
0
 10
136.9061074236
 20
107.0290233409
 10
136.900510442
 20
107.1644935798
 10
136.8846417288
 20
107.3015574232
 10
136.8585012843
 20
107.440214871
 10
136.8217876529
 20
107.5813818674
 10
136.7748022901
 20
107.7241424682
 10
136.7184495621
 20
107.8657488416
 10
136.6525480034
 20
108.0061786277
 10
136.5772790795
 20
108.1454541863
 10
136.4940915541
 20
108.280894765
 10
136.4028320271
 20
108.4124260722
 10
136.3036538985
 20
108.5401223994
 10
136.1984661322
 20
108.6615258693
 10
136.0871523088
 20
108.776514576
 10
135.9698288478
 20
108.8852104254
 10
135.8487539713
 20
108.9855212581
 10
135.7238550065
 20
109.0772846387
 10
135.5952046261
 20
109.1606630026
 10
135.4652790711
 20
109.2340514972
 10
135.3340536386
 20
109.2972565975
 10
135.2015530315
 20
109.3504718285
 10
135.070327599
 20
109.3926729124
 10
134.940402044
 20
109.4236464818
 10
134.8117516636
 20
109.4436059041
 10
134.6868526988
 20
109.4521670037
 10
134.5657778223
 20
109.4491089708
 10
134.4484543613
 20
109.4346526153
 10
134.3371405379
 20
109.4090761906
 10
134.2319527716
 20
109.3721642773
 10
134.132774643
 20
109.3241322948
 10
134.041515116
 20
109.2659047546
 10
134.0006814779
 20
109.2343294532
  0
LWPOLYLINE
  5
282
100
AcDbEntity
  8
0
100
AcDbPolyline
 62
7
  6
CONTINUOUS
 90
10
 70
0
 10
136.4965314015
 20
107.1935183051
 10
136.4923336652
 20
107.095287437
 10
136.4804321304
 20
107.0020494039
 10
136.460826797
 20
106.9138042058
 10
136.4332915734
 20
106.8300464916
 10
136.3980525513
 20
106.7512816124
 10
136.3557880054
 20
106.6790256214
 10
136.3063618363
 20
106.6134046094
 10
136.2499101434
 20
106.5542924855
 10
136.2181447279
 20
106.526508506
  0
LWPOLYLINE
  5
283
100
AcDbEntity
  8
0
100
AcDbPolyline
 62
7
  6
CONTINUOUS
 90
10
 70
0
 10
136.9061074236
 20
107.0290233409
 10
136.900510442
 20
106.8980488501
 10
136.8846417288
 20
106.7737314727
 10
136.8585012843
 20
106.6560712085
 10
136.8217876529
 20
106.5443942563
 10
136.7748022901
 20
106.4393744174
 10
136.7184495621
 20
106.343033096
 10
136.6525480034
 20
106.2555384133
 10
136.5772790795
 20
106.1767222481
 10
136.5349251922
 20
106.1396769421
  0
LWPOLYLINE
  5
284
100
AcDbEntity
  8
0
100
AcDbPolyline
 62
7
  6
CONTINUOUS
 90
9
 70
0
 10
135.9975294422
 20
110.5047049596
 10
135.9081914624
 20
110.4075890031
 10
135.8320103766
 20
110.3072973512
 10
135.7688977818
 20
110.2045114493
 10
135.7188985436
 20
110.1003969165
 10
135.6814897837
 20
109.9951959202
 10
135.6561495976
 20
109.888222756
 10
135.6430099964
 20
109.7801001947
 10
135.6410155893
 20
109.718439585
  0
LWPOLYLINE
  5
285
100
AcDbEntity
  8
ASSI
100
AcDbPolyline
 62
253
  6
CONTINUOUS
 90
16
 70
0
 10
146.5260432215
 20
121.3894105519
 10
146.3027322245
 20
121.1857699381
 10
146.0798863214
 20
120.9647093523
 10
145.8595829364
 20
120.7282976164
 10
145.6418398754
 20
120.4763786544
 10
145.4266393325
 20
120.2091085424
 10
145.2160053154
 20
119.9290243298
 10
145.0100175259
 20
119.6360685296
 10
144.8085962621
 20
119.3302986289
 10
144.6135264252
 20
119.014424139
 10
144.4247378449
 20
118.6880705202
 10
144.2423006915
 20
118.3516123122
 10
144.0682103768
 20
118.008882646
 10
143.9031320378
 20
117.6611592319
 10
143.7464005375
 20
117.3071643596
 10
143.5980158758
 20
116.9468980291
  0
LWPOLYLINE
  5
286
100
AcDbEntity
  8
ASSI
100
AcDbPolyline
 62
7
  6
CONTINUOUS
 90
34
 70
0
 10
131.0492553096
 20
108.0930668701
 10
130.9411168839
 20
107.9984940282
 10
130.834756247
 20
107.8942536184
 10
130.7301733989
 20
107.7803456406
 10
130.6268054585
 20
107.6560277208
 10
130.5252153071
 20
107.5220422331
 10
130.4270915875
 20
107.3806162994
 10
130.3324922402
 20
107.2316255548
 10
130.2413593248
 20
107.0751943643
 10
130.155207663
 20
106.9139229448
 10
130.0741205151
 20
106.7477303934
 10
129.9980146207
 20
106.5766976132
 10
129.9281550208
 20
106.4036675304
 10
129.8646461204
 20
106.2286067607
 10
129.8073835144
 20
106.0515486885
 10
129.7573190284
 20
105.8754363932
 10
129.7145729769
 20
105.7002856832
 10
129.6790250454
 20
105.5260807501
 10
129.6512661157
 20
105.3557172481
 10
129.6314263788
 20
105.1892593858
 10
129.6193756435
 20
105.0266429546
 10
129.6153142188
 20
104.8705709834
 10
129.6193756435
 20
104.721152861
 10
129.6314263788
 20
104.5782791986
 10
129.6512661157
 20
104.4443248584
 10
129.6790250454
 20
104.3194389245
 10
129.7145729769
 20
104.2034723129
 10
129.7573190284
 20
104.0983526338
 10
129.8073835144
 20
104.0042611906
 10
129.8646461204
 20
103.9210166799
 10
129.9281550208
 20
103.8500028014
 10
129.9980146207
 20
103.7914239868
 10
130.0741205151
 20
103.7450758045
 10
130.1177335366
 20
103.7252576355
  0
LWPOLYLINE
  5
287
100
AcDbEntity
  8
0
100
AcDbPolyline
 62
7
  6
CONTINUOUS
 90
10
 70
0
 10
134.0006814779
 20
109.2343294532
 10
133.9583275906
 20
109.1972841472
 10
133.8830586667
 20
109.118467982
 10
133.817157108
 20
109.0309732993
 10
133.76080438
 20
108.9346319779
 10
133.7138190172
 20
108.829612139
 10
133.6771053858
 20
108.7179351868
 10
133.6509649413
 20
108.6002749226
 10
133.6350962282
 20
108.4759575451
 10
133.6294992465
 20
108.3449830543
  0
LWPOLYLINE
  5
288
100
AcDbEntity
  8
ASSI
100
AcDbPolyline
 62
7
  6
CONTINUOUS
 90
36
 70
0
 10
131.0492553096
 20
107.888278859
 10
130.9585123898
 20
107.8092759176
 10
130.8690724548
 20
107.7225856839
 10
130.7809355046
 20
107.6282081577
 10
130.6936861931
 20
107.5256103733
 10
130.6077398664
 20
107.4153252964
 10
130.5243425625
 20
107.2989518252
 10
130.4435314164
 20
107.1764012622
 10
130.3652692932
 20
107.0477623048
 10
130.2906908264
 20
106.914899943
 10
130.2198496805
 20
106.7777526491
 10
130.152692191
 20
106.6363819509
 10
130.0901919981
 20
106.4928374213
 10
130.0324169504
 20
106.3470873915
 10
129.9792991993
 20
106.1991635303
 10
129.9316088386
 20
106.0512104177
 10
129.889424936
 20
105.9032276275
 10
129.8526684239
 20
105.7552155859
 10
129.821872193
 20
105.6093201513
 10
129.7971230745
 20
105.4655721588
 10
129.7783342372
 20
105.3239407733
 10
129.7657780792
 20
105.1864793471
 10
129.7595453999
 20
105.0532486295
 10
129.7595453999
 20
104.9241878712
 10
129.7657780792
 20
104.8011681775
 10
129.7783342372
 20
104.6842775562
 10
129.7971230745
 20
104.5734279996
 10
129.821872193
 20
104.4702265893
 10
129.8526684239
 20
104.3747847455
 10
129.889424936
 20
104.2869910481
 10
129.9316088386
 20
104.208118318
 10
129.9792991993
 20
104.1382965183
 10
130.0324169504
 20
104.077395686
 10
130.0901919981
 20
104.0262987529
 10
130.152692191
 20
103.9851485449
 10
130.2108270584
 20
103.9573322114
  0
LWPOLYLINE
  5
289
100
AcDbEntity
  8
ASSI
100
AcDbPolyline
 62
7
  6
CONTINUOUS
 90
10
 70
0
 10
133.2457951716
 20
110.8265718819
 10
133.2728021656
 20
110.8465379415
 10
133.3218663809
 20
110.8912985561
 10
133.3649025209
 20
110.9426820003
 10
133.4017736512
 20
111.0008387188
 10
133.4326167063
 20
111.0656182668
 10
133.4567363171
 20
111.1355601634
 10
133.4739006939
 20
111.2101775816
 10
133.4843416265
 20
111.2899573483
 10
133.4880591148
 20
111.3748994636
  0
LWPOLYLINE
  5
28A
100
AcDbEntity
  8
ASSI
100
AcDbPolyline
 62
7
  6
CONTINUOUS
 90
10
 70
0
 10
136.7811270249
 20
113.2431896116
 10
136.8081340189
 20
113.2631556712
 10
136.8571982341
 20
113.3079162859
 10
136.9002343741
 20
113.35929973
 10
136.9371055045
 20
113.4174564486
 10
136.9679485596
 20
113.4822359966
 10
136.9920681704
 20
113.5521778931
 10
137.0092325472
 20
113.6267953113
 10
137.0196734798
 20
113.706575078
 10
137.0233909681
 20
113.7915171934
  0
LINE
  5
28B
100
AcDbEntity
  8
ASSI
100
AcDbLine
 62
7
  6
CONTINUOUS
 10
136.7813205096
 20
113.2432744489
 11
133.2459886563
 21
110.8266567192
  0
LWPOLYLINE
  5
28C
100
AcDbEntity
  8
0
100
AcDbPolyline
 62
253
  6
CONTINUOUS
 90
16
 70
0
 10
146.3479510845
 20
106.4538785777
 10
146.3764167721
 20
106.4505110824
 10
146.4059001802
 20
106.4425922694
 10
146.4358968395
 20
106.4302576318
 10
146.4658934988
 20
106.4137182186
 10
146.4953769069
 20
106.3932570237
 10
146.5238425946
 20
106.3692241439
 10
146.550803506
 20
106.3420307885
 10
146.5757983325
 20
106.3121422432
 10
146.5983994056
 20
106.2800699094
 10
146.6182200148
 20
106.2463625536
 10
146.634921024
 20
106.211596918
 10
146.6482166741
 20
106.1763678522
 10
146.657879473
 20
106.1412781354
 10
146.6637440875
 20
106.1069281623
 10
146.6657101724
 20
106.0739056705
  0
LINE
  5
28D
100
AcDbEntity
  8
0
100
AcDbLine
 62
7
  6
CONTINUOUS
 10
152.75763451
 20
101.6468020039
 11
151.5289064436
 21
102.1402868964
  0
LINE
  5
28E
100
AcDbEntity
  8
0
100
AcDbLine
 62
7
  6
CONTINUOUS
 10
124.0873129599
 20
113.1614494957
 11
125.3160410264
 21
112.6679646032
  0
LWPOLYLINE
  5
28F
100
AcDbEntity
  8
0
100
AcDbPolyline
 62
7
  6
CONTINUOUS
 90
7
 70
0
 10
136.7931153406
 20
109.1070508376
 10
136.7720425686
 20
109.1313721797
 10
136.6607287452
 20
109.2463608864
 10
136.5434052842
 20
109.3550567358
 10
136.4223304077
 20
109.4553675685
 10
136.2974314428
 20
109.5471309491
 10
136.2750544685
 20
109.5616334753
  0
LINE
  5
290
100
AcDbEntity
  8
ASSI
100
AcDbLine
 62
7
  6
CONTINUOUS
 10
139.2250133865
 20
100.0653019349
 11
139.1959525959
 21
100.207636636
  0
LWPOLYLINE
  5
291
100
AcDbEntity
  8
ASSI
100
AcDbPolyline
 62
7
  6
CONTINUOUS
 90
7
 70
0
 10
138.6123448278
 20
109.4633358563
 10
138.6160623161
 20
109.3748153777
 10
138.6265032486
 20
109.2849854245
 10
138.6436676255
 20
109.1938459968
 10
138.6677872363
 20
109.1006871525
 10
138.6986302914
 20
109.0062188337
 10
138.7130260199
 20
108.9696555199
  0
LWPOLYLINE
  5
292
100
AcDbEntity
  8
0
100
AcDbPolyline
 62
7
  6
CONTINUOUS
 90
7
 70
0
 10
137.47968386
 20
107.4988696513
 10
137.4740868783
 20
107.6343398902
 10
137.4582181652
 20
107.7714037336
 10
137.4320777207
 20
107.9100611814
 10
137.3953640893
 20
108.0512281778
 10
137.3483787264
 20
108.1939887786
 10
137.2948768784
 20
108.3284312971
  0
LINE
  5
293
100
AcDbEntity
  8
0
100
AcDbLine
 62
7
  6
CONTINUOUS
 10
137.47968386
 20
107.4988696513
 11
137.4740868783
 21
107.3678951605
  0
LWPOLYLINE
  5
294
100
AcDbEntity
  8
ASSI
100
AcDbPolyline
 62
7
  6
CONTINUOUS
 90
10
 70
0
 10
138.6123448278
 20
109.4633358563
 10
138.6160623161
 20
109.5482779716
 10
138.6265032486
 20
109.6280577384
 10
138.6436676255
 20
109.7026751566
 10
138.6677872363
 20
109.7726170531
 10
138.6986302914
 20
109.8373966011
 10
138.7355014217
 20
109.8955533197
 10
138.7785375617
 20
109.9469367638
 10
138.827601777
 20
109.9916973785
 10
138.854608771
 20
110.0116634381
  0
LWPOLYLINE
  5
295
100
AcDbEntity
  8
0
100
AcDbPolyline
 62
7
  6
CONTINUOUS
 90
7
 70
0
 10
137.6919208318
 20
115.0515925318
 10
137.6896811957
 20
115.0197320541
 10
137.6838500296
 20
114.9911909315
 10
137.6744273335
 20
114.9659691639
 10
137.66113221
 20
114.9437524067
 10
137.6442455565
 20
114.9248550046
 10
137.6312701213
 20
114.9144708193
  0
LWPOLYLINE
  5
296
100
AcDbEntity
  8
0
100
AcDbPolyline
 62
7
  6
CONTINUOUS
 90
9
 70
0
 10
137.4740868783
 20
107.3678951605
 10
137.4582181652
 20
107.243577783
 10
137.4320777207
 20
107.1259175189
 10
137.3953640893
 20
107.0142405667
 10
137.3483787264
 20
106.9092207278
 10
137.2920259985
 20
106.8128794063
 10
137.2261244397
 20
106.7253847237
 10
137.1508555159
 20
106.6465685585
 10
137.1085016285
 20
106.6095232525
  0
LWPOLYLINE
  5
297
100
AcDbEntity
  8
0
100
AcDbPolyline
 62
253
  6
CONTINUOUS
 90
6
 70
0
 10
136.4204000963
 20
110.0790520378
 10
136.4339647692
 20
110.0944959273
 10
136.4489957128
 20
110.1183483944
 10
136.4599196604
 20
110.1451700097
 10
136.4665497002
 20
110.174501848
 10
136.4687723904
 20
110.2058420332
  0
LWPOLYLINE
  5
298
100
AcDbEntity
  8
0
100
AcDbPolyline
 62
7
  6
CONTINUOUS
 90
8
 70
0
 10
136.4204000963
 20
110.0790520378
 10
136.3693267656
 20
110.0237152211
 10
136.3259148363
 20
109.9666134485
 10
136.2909795897
 20
109.9084772969
 10
136.2649793542
 20
109.8497116311
 10
136.2484014399
 20
109.7911177234
 10
136.2413305667
 20
109.7333201572
 10
136.2410166694
 20
109.7171965485
  0
LINE
  5
299
100
AcDbEntity
  8
0
100
AcDbLine
 62
7
  6
CONTINUOUS
 10
139.8493424965
 20
114.3313407526
 11
135.9975294422
 21
110.5047049596
  0
LINE
  5
29A
100
AcDbEntity
  8
0
100
AcDbLine
 62
7
  6
CONTINUOUS
 10
140.26154566
 20
113.8950900679
 11
136.4204000963
 21
110.0790520378
  0
LWPOLYLINE
  5
29B
100
AcDbEntity
  8
RACCORDO
100
AcDbPolyline
 62
7
  6
CONTINUOUS
 90
13
 70
0
 10
132.8833313328
 20
107.672771404
 10
132.8022939402
 20
107.6013622454
 10
132.7260427514
 20
107.5236913001
 10
132.6551976889
 20
107.4401534838
 10
132.5903925787
 20
107.3513052822
 10
132.5320858346
 20
107.2576243756
 10
132.4806014983
 20
107.1594464248
 10
132.4363660497
 20
107.0573684885
 10
132.3997718857
 20
106.9521427686
 10
132.371046804
 20
106.8443075747
 10
132.3504003996
 20
106.7345137554
 10
132.3379914662
 20
106.6236048032
 10
132.3338622442
 20
106.5123874207
  0
LWPOLYLINE
  5
29C
100
AcDbEntity
  8
ASSI
100
AcDbPolyline
 62
7
  6
CONTINUOUS
 90
12
 70
0
 10
137.1882987002
 20
110.6371223098
 10
137.1942006492
 20
110.6422895237
 10
137.2072668797
 20
110.6568183685
 10
137.2178607484
 20
110.6737675883
 10
137.2260778146
 20
110.6930436331
 10
137.2315920807
 20
110.71388176
 10
137.2342948808
 20
110.7363447723
 10
137.2342948808
 20
110.7603698666
 10
137.2315920807
 20
110.7850038899
 10
137.2260778146
 20
110.8102713239
 10
137.2178607484
 20
110.8361476868
 10
137.2075115024
 20
110.8610185136
  0
LINE
  5
29D
100
AcDbEntity
  8
ASSI
100
AcDbLine
 62
7
  6
CONTINUOUS
 10
142.1832224306
 20
116.0247288378
 11
142.8489004246
 21
116.5700203275
  0
LINE
  5
29E
100
AcDbEntity
  8
0
100
AcDbLine
 62
7
  6
CONTINUOUS
 10
134.574005223
 20
109.7040281512
 11
134.0004287866
 21
109.2341818408
  0
LINE
  5
29F
100
AcDbEntity
  8
ASSI
100
AcDbLine
 62
7
  6
CONTINUOUS
 10
143.5980158758
 20
116.9468980291
 11
146.6734768884
 21
119.4661682046
  0
LINE
  5
2A0
100
AcDbEntity
  8
ASSI
100
AcDbLine
 62
7
  6
CONTINUOUS
 10
135.7085078017
 20
110.0711760493
 11
135.4951606342
 21
109.8964122809
  0
LINE
  5
2A1
100
AcDbEntity
  8
0
100
AcDbLine
 62
7
  6
CONTINUOUS
 10
134.3172724237
 20
108.84738718
 11
132.8833313328
 21
107.672771404
  0
LINE
  5
2A2
100
AcDbEntity
  8
ASSI
100
AcDbLine
 62
7
  6
CONTINUOUS
 10
143.2421202481
 20
115.599451602
 11
146.9903205255
 21
118.6697975217
  0
LINE
  5
2A3
100
AcDbEntity
  8
ASSI
100
AcDbLine
 62
7
  6
CONTINUOUS
 10
137.1883370782
 20
110.6370434526
 11
136.2864647663
 21
109.8982729045
  0
LWPOLYLINE
  5
2A4
100
AcDbEntity
  8
ASSI
100
AcDbPolyline
 62
7
  6
CONTINUOUS
 90
9
 70
0
 10
143.5980158758
 20
116.9468980291
 10
143.5674131622
 20
116.9232590136
 10
143.5343641908
 20
116.900834869
 10
143.4988701017
 20
116.8795505286
 10
143.4605875472
 20
116.8591191525
 10
143.4198769937
 20
116.8395103078
 10
143.3778064481
 20
116.8209802864
 10
143.334490099
 20
116.8034304633
 10
143.2899226397
 20
116.7863893028
  0
LWPOLYLINE
  5
2A5
100
AcDbEntity
  8
RACCORDO
100
AcDbPolyline
 62
253
  6
CONTINUOUS
 90
34
 70
0
 10
132.8833313328
 20
107.672771404
 10
132.9331408351
 20
107.7098847787
 10
132.9981149112
 20
107.7487638011
 10
133.0677628255
 20
107.7807285052
 10
133.1416950784
 20
107.8056001315
 10
133.219498211
 20
107.8232395878
 10
133.3007371164
 20
107.833548227
 10
133.3849574737
 20
107.836468399
 10
133.4716882886
 20
107.8319837732
 10
133.5604445273
 20
107.8201194293
 10
133.6507298286
 20
107.8009417175
 10
133.7420392808
 20
107.7745578874
 10
133.8338622442
 20
107.7411154881
 10
133.9256852076
 20
107.700801543
 10
134.0169946597
 20
107.6538415041
 10
134.1072799611
 20
107.6004979909
 10
134.1960361997
 20
107.5410693221
 10
134.2827670146
 20
107.4758878468
 10
134.366987372
 20
107.4053180863
 10
134.4482262774
 20
107.3297546953
 10
134.5260294099
 20
107.2496202549
 10
134.5999616629
 20
107.1653629095
 10
134.6696095771
 20
107.0774538603
 10
134.7345836533
 20
106.9863847304
 10
134.7945205299
 20
106.8926648152
 10
134.8490850158
 20
106.7968182346
 10
134.8979719641
 20
106.6993810015
 10
134.9409079792
 20
106.6008980244
 10
134.9776529455
 20
106.5019200602
 10
135.0080013702
 20
106.4030006338
 10
135.0317835326
 20
106.3046929426
 10
135.0488664333
 20
106.2075467632
 10
135.0591545377
 20
106.1121053764
 10
135.0625903106
 20
106.0189025291
  0
LWPOLYLINE
  5
2A6
100
AcDbEntity
  8
0
100
AcDbPolyline
 62
253
  6
CONTINUOUS
 90
16
 70
0
 10
139.385158708
 20
109.2502929685
 10
139.4136243957
 20
109.2469254733
 10
139.4431078038
 20
109.2390066603
 10
139.4731044631
 20
109.2266720226
 10
139.5031011223
 20
109.2101326094
 10
139.5325845304
 20
109.1896714146
 10
139.5610502181
 20
109.1656385348
 10
139.5880111295
 20
109.1384451794
 10
139.613005956
 20
109.1085566341
 10
139.6356070292
 20
109.0764843003
 10
139.6554276384
 20
109.0427769445
 10
139.6721286475
 20
109.0080113089
 10
139.6854242977
 20
108.9727822431
 10
139.6950870966
 20
108.9376925263
 10
139.7009517111
 20
108.9033425532
 10
139.702917796
 20
108.8703200614
  0
LWPOLYLINE
  5
2A7
100
AcDbEntity
  8
0
100
AcDbPolyline
 62
7
  6
CONTINUOUS
 90
12
 70
0
 10
135.6526828833
 20
109.8596960132
 10
135.6439040353
 20
109.8625192228
 10
135.5139784803
 20
109.8934927922
 10
135.3853281
 20
109.9134522145
 10
135.2604291351
 20
109.922013314
 10
135.1393542586
 20
109.9189552812
 10
135.0220307976
 20
109.9044989257
 10
134.9107169743
 20
109.878922501
 10
134.805529208
 20
109.8420105877
 10
134.7063510794
 20
109.7939786052
 10
134.6150915523
 20
109.735751065
 10
134.5742579143
 20
109.7041757636
  0
LINE
  5
2A8
100
AcDbEntity
  8
0
100
AcDbLine
 62
7
  6
CONTINUOUS
 10
153.6753568082
 20
102.3985561005
 11
152.4466287418
 21
102.892040993
  0
LINE
  5
2A9
100
AcDbEntity
  8
0
100
AcDbLine
 62
7
  6
CONTINUOUS
 10
125.0050352581
 20
113.9132035923
 11
125.3160410264
 21
113.7882966643
  0
LWPOLYLINE
  5
2AA
100
AcDbEntity
  8
ASSI
100
AcDbPolyline
 62
7
  6
CONTINUOUS
 90
18
 70
0
 10
139.030174447
 20
108.4394808588
 10
139.0719714936
 20
108.3908353845
 10
139.1429529047
 20
108.3172456021
 10
139.2174146266
 20
108.2484267724
 10
139.29367789
 20
108.1859304437
 10
139.3717836189
 20
108.1299002386
 10
139.4516908892
 20
108.0801925345
 10
139.5315981595
 20
108.0379280114
 10
139.6115054298
 20
108.0032757496
 10
139.6914127002
 20
107.9760666688
 10
139.769518429
 20
107.9569142088
 10
139.8457816924
 20
107.9460013847
 10
139.9202434143
 20
107.9431451812
 10
139.9912248254
 20
107.9484099927
 10
140.0586468664
 20
107.9619802972
 10
140.1225885966
 20
107.9836716166
 10
140.181608424
 20
108.0129949114
 10
140.208587548
 20
108.030157491
  0
LWPOLYLINE
  5
2AB
100
AcDbEntity
  8
ASSI
100
AcDbPolyline
 62
7
  6
CONTINUOUS
 90
4
 70
0
 10
139.1959525959
 20
100.207636636
 10
139.1752451594
 20
100.3585042434
 10
139.1627111381
 20
100.5185482608
 10
139.1583505321
 20
100.6877686881
  0
LWPOLYLINE
  5
2AC
100
AcDbEntity
  8
ASSI
100
AcDbPolyline
 62
7
  6
CONTINUOUS
 90
24
 70
0
 10
139.1583505321
 20
100.6877686881
 10
139.1627111381
 20
100.8641331142
 10
139.1752451594
 20
101.04471167
 10
139.1959525959
 20
101.2295043553
 10
139.2250133865
 20
101.4194494684
 10
139.2622475924
 20
101.6136087111
 10
139.307115397
 20
101.8091671894
 10
139.3597280087
 20
102.0061452875
 10
139.4199742193
 20
102.2045226212
 10
139.4869805874
 20
102.4014231428
 10
139.5608455967
 20
102.5968253379
 10
139.6414707635
 20
102.7907507211
 10
139.7276871952
 20
102.9803877886
 10
139.8195763467
 20
103.1656740671
 10
139.9170567631
 20
103.34667203
 10
140.0187151866
 20
103.5207575935
 10
140.1246124835
 20
103.6878300559
 10
140.2346877875
 20
103.847990119
 10
140.3473452419
 20
103.998915804
 10
140.4626224641
 20
104.1404725821
 10
140.5804818368
 20
104.2727949821
 10
140.6992146507
 20
104.393964612
 10
140.8188336305
 20
104.5038189952
 10
140.9393260517
 20
104.6025206083
  0
LWPOLYLINE
  5
2AD
100
AcDbEntity
  8
ASSI
100
AcDbPolyline
 62
7
  6
CONTINUOUS
 90
8
 70
0
 10
139.7614114925
 20
108.9103041166
 10
139.7596858155
 20
108.8819916067
 10
139.7550660022
 20
108.8561984164
 10
139.7475520526
 20
108.8329245457
 10
139.7369656952
 20
108.8119256125
 10
139.7234852014
 20
108.793445999
 10
139.7076453862
 20
108.778218851
 10
139.7009738691
 20
108.7733228462
  0
LWPOLYLINE
  5
2AE
100
AcDbEntity
  8
0
100
AcDbPolyline
 62
253
  6
CONTINUOUS
 90
7
 70
0
 10
139.702917796
 20
108.8703200614
 10
139.7009517111
 20
108.8391900749
 10
139.6950870966
 20
108.8104852363
 10
139.6854242977
 20
108.7846966935
 10
139.6721286475
 20
108.7622656956
 10
139.6554276384
 20
108.743576043
 10
139.6424001814
 20
108.7332593753
  0
LWPOLYLINE
  5
2AF
100
AcDbEntity
  8
ASSI
100
AcDbPolyline
 62
253
  6
CONTINUOUS
 90
23
 70
0
 10
141.288511536
 20
116.3840649039
 10
141.369027008
 20
116.6489779369
 10
141.4935941443
 20
117.0242754139
 10
141.6282176663
 20
117.3981362786
 10
141.7724236878
 20
117.7692265939
 10
141.9259147012
 20
118.1367651082
 10
142.0881523883
 20
118.4994480765
 10
142.258167012
 20
118.8552263878
 10
142.4355773515
 20
119.2034836302
 10
142.6196631957
 20
119.5429789568
 10
142.8087330997
 20
119.8709684644
 10
143.0023466291
 20
120.1871844204
 10
143.1996001302
 20
120.4906277894
 10
143.3978588563
 20
120.777999823
 10
143.5963751358
 20
121.049192581
 10
143.7944363364
 20
121.3041702469
 10
143.9892912911
 20
121.5405278224
 10
144.180279082
 20
121.7587791202
 10
144.3668071584
 20
121.9595068196
 10
144.5461976241
 20
122.141241686
 10
144.7172623296
 20
122.3043877543
 10
144.8803504475
 20
122.4508010047
 10
145.0351727998
 20
122.5816041942
  0
LWPOLYLINE
  5
2B0
100
AcDbEntity
  8
ASSI
100
AcDbPolyline
 62
7
  6
CONTINUOUS
 90
21
 70
0
 10
138.5808571755
 20
110.0778394317
 10
138.5867591245
 20
110.0830066455
 10
138.599825355
 20
110.0975354904
 10
138.6104192237
 20
110.1144847101
 10
138.6186362899
 20
110.133760755
 10
138.624150556
 20
110.1545988818
 10
138.6268533561
 20
110.1770618941
 10
138.6268533561
 20
110.2010869885
 10
138.624150556
 20
110.2257210117
 10
138.6186362899
 20
110.2509884457
 10
138.6104192237
 20
110.2768648086
 10
138.599825355
 20
110.3023235014
 10
138.5867591245
 20
110.3273477317
 10
138.5713160916
 20
110.351954292
 10
138.5541089311
 20
110.3751669603
 10
138.5350667166
 20
110.3969296954
 10
138.5142603745
 20
110.4172985386
 10
138.4925153599
 20
110.435465392
 10
138.4701068242
 20
110.4511608897
 10
138.4467596159
 20
110.4646543977
 10
138.422473735
 20
110.4759459159
  0
LINE
  5
2B1
100
AcDbEntity
  8
ASSI
100
AcDbLine
 62
7
  6
CONTINUOUS
 10
138.2640519164
 20
110.4645552352
 11
136.7121124315
 21
109.1932808335
  0
LINE
  5
2B2
100
AcDbEntity
  8
ASSI
100
AcDbLine
 62
7
  6
CONTINUOUS
 10
138.5808955535
 20
110.0777605744
 11
137.21451376
 21
108.9584861349
  0
LINE
  5
2B3
100
AcDbEntity
  8
ASSI
100
AcDbLine
 62
7
  6
CONTINUOUS
 10
142.3897471395
 20
112.4281963305
 11
138.8544152863
 21
110.0115786008
  0
LWPOLYLINE
  5
2B4
100
AcDbEntity
  8
ASSI
100
AcDbPolyline
 62
7
  6
CONTINUOUS
 90
29
 70
0
 10
142.3899406243
 20
112.4282811678
 10
142.4169197483
 20
112.4454437474
 10
142.4759395757
 20
112.4747670423
 10
142.5398813059
 20
112.4964583617
 10
142.6073033469
 20
112.5100286661
 10
142.678284758
 20
112.5152934776
 10
142.7527464799
 20
112.5124372742
 10
142.8290097433
 20
112.50152445
 10
142.9071154721
 20
112.48237199
 10
142.9870227425
 20
112.4551629092
 10
143.0669300128
 20
112.4205106474
 10
143.1468372831
 20
112.3782461244
 10
143.2267445535
 20
112.3285384202
 10
143.3048502823
 20
112.2725082151
 10
143.3811135457
 20
112.2100118864
 10
143.4555752676
 20
112.1411930568
 10
143.5265566787
 20
112.0676032743
 10
143.5939787197
 20
111.9891341615
 10
143.6579204499
 20
111.9058940958
 10
143.7169402773
 20
111.819759758
 10
143.7709263954
 20
111.7306654014
 10
143.8199906106
 20
111.6386767726
 10
143.8630267506
 20
111.5458677923
 10
143.8998978809
 20
111.4522198251
 10
143.930740936
 20
111.3577515063
 10
143.9548605468
 20
111.264592662
 10
143.9720249237
 20
111.1734532343
 10
143.9824658562
 20
111.0836232811
 10
143.9861833445
 20
110.9951028025
  0
LWPOLYLINE
  5
2B5
100
AcDbEntity
  8
ASSI
100
AcDbPolyline
 62
7
  6
CONTINUOUS
 90
29
 70
0
 10
138.854608771
 20
110.0116634381
 10
138.881587895
 20
110.0288260177
 10
138.9406077224
 20
110.0581493125
 10
139.0045494526
 20
110.0798406319
 10
139.0719714936
 20
110.0934109363
 10
139.1429529047
 20
110.0986757479
 10
139.2174146266
 20
110.0958195444
 10
139.29367789
 20
110.0849067203
 10
139.3717836189
 20
110.0657542602
 10
139.4516908892
 20
110.0385451795
 10
139.5315981595
 20
110.0038929177
 10
139.6115054298
 20
109.9616283946
 10
139.6914127002
 20
109.9119206905
 10
139.769518429
 20
109.8558904854
 10
139.8457816924
 20
109.7933941567
 10
139.9202434143
 20
109.724575327
 10
139.9912248254
 20
109.6509855445
 10
140.0586468664
 20
109.5725164317
 10
140.1225885966
 20
109.4892763661
 10
140.181608424
 20
109.4031420282
 10
140.2355945421
 20
109.3140476717
 10
140.2846587573
 20
109.2220590429
 10
140.3276948973
 20
109.1292500625
 10
140.3645660276
 20
109.0356020954
 10
140.3954090827
 20
108.9411337766
 10
140.4195286936
 20
108.8479749323
 10
140.4366930704
 20
108.7568355046
 10
140.447134003
 20
108.6670055514
 10
140.4508514913
 20
108.5784850728
  0
LWPOLYLINE
  5
2B6
100
AcDbEntity
  8
ASSI
100
AcDbPolyline
 62
7
  6
CONTINUOUS
 90
9
 70
0
 10
138.422473735
 20
110.4759459159
 10
138.3981878541
 20
110.4841619123
 10
138.3748406458
 20
110.4894219347
 10
138.3524321101
 20
110.4917259832
 10
138.3306870954
 20
110.491025706
 10
138.3098807534
 20
110.4873694549
 10
138.2908385389
 20
110.4809022851
 10
138.2736313784
 20
110.4715111839
 10
138.2640902945
 20
110.4644763779
  0
LINE
  5
2B7
100
AcDbEntity
  8
ASSI
100
AcDbLine
 62
253
  6
CONTINUOUS
 10
142.750552481
 20
116.6116770899
 11
142.6933974671
 21
116.442639762
  0
LINE
  5
2B8
100
AcDbEntity
  8
ASSI
100
AcDbLine
 62
7
  6
CONTINUOUS
 10
138.6691811754
 20
109.0964176959
 11
138.4441538804
 21
108.9120861272
  0
LINE
  5
2B9
100
AcDbEntity
  8
ASSI
100
AcDbLine
 62
7
  6
CONTINUOUS
 10
137.67442687
 20
108.2815626731
 11
137.3949131179
 21
108.0525984116
  0
LINE
  5
2BA
100
AcDbEntity
  8
0
100
AcDbLine
 62
7
  6
CONTINUOUS
 10
136.2183342464
 20
106.5266192152
 11
134.7843931555
 21
105.3520034392
  0
LINE
  5
2BB
100
AcDbEntity
  8
ASSI
100
AcDbLine
 62
7
  6
CONTINUOUS
 10
138.5038181123
 20
108.3146224309
 11
137.4786578601
 21
107.4748603145
  0
LINE
  5
2BC
100
AcDbEntity
  8
0
100
AcDbLine
 62
7
  6
CONTINUOUS
 10
137.1087543199
 20
106.6096708648
 11
136.5351778835
 21
106.1398245544
  0
LWPOLYLINE
  5
2BD
100
AcDbEntity
  8
0
100
AcDbPolyline
 62
7
  6
CONTINUOUS
 90
11
 70
0
 10
136.5349251922
 20
106.1396769421
 10
136.4940915541
 20
106.1081016406
 10
136.4028320271
 20
106.0498741004
 10
136.3036538985
 20
106.0018421179
 10
136.1984661322
 20
105.9649302047
 10
136.0871523088
 20
105.9393537799
 10
135.9698288478
 20
105.9248974244
 10
135.8487539713
 20
105.9218393916
 10
135.7238550065
 20
105.9304004912
 10
135.5952046261
 20
105.9503599134
 10
135.5329649217
 20
105.9651975318
  0
LINE
  5
2BE
100
AcDbEntity
  8
0
100
AcDbLine
 62
7
  6
CONTINUOUS
 10
139.3038087447
 20
109.2285934434
 11
139.3623024412
 21
109.2685774986
  0
LINE
  5
2BF
100
AcDbEntity
  8
0
100
AcDbLine
 62
7
  6
CONTINUOUS
 10
143.4989457919
 20
112.0962287851
 11
144.2433144268
 21
112.6050507331
  0
LINE
  5
2C0
100
AcDbEntity
  8
0
100
AcDbLine
 62
7
  6
CONTINUOUS
 10
139.6424001814
 20
108.7332593753
 11
139.7008938778
 21
108.7732434305
  0
LINE
  5
2C1
100
AcDbEntity
  8
0
100
AcDbLine
 62
7
  6
CONTINUOUS
 10
143.8375168576
 20
111.6008807921
 11
144.5941955937
 21
112.1181174548
  0
LWPOLYLINE
  5
2C2
100
AcDbEntity
  8
0
100
AcDbPolyline
 62
253
  6
CONTINUOUS
 90
5
 70
0
 10
139.3038087447
 20
109.2285934434
 10
139.3106018969
 20
109.2329052976
 10
139.3332029701
 20
109.2432223909
 10
139.3581977966
 20
109.2490515273
 10
139.385158708
 20
109.2502929685
  0
LWPOLYLINE
  5
2C3
100
AcDbEntity
  8
ASSI
100
AcDbPolyline
 62
7
  6
CONTINUOUS
 90
22
 70
0
 10
139.36222245
 20
109.2684980829
 10
139.373844926
 20
109.2754459954
 10
139.3944982406
 20
109.2840374471
 10
139.4166914931
 20
109.2890355825
 10
139.4404865963
 20
109.2902959327
 10
139.4658216373
 20
109.2879629666
 10
139.4916914931
 20
109.2821292405
 10
139.5181176658
 20
109.2726540068
 10
139.5450786533
 20
109.2596780131
 10
139.571504826
 20
109.243716059
 10
139.5973746818
 20
109.2246480944
 10
139.6227097227
 20
109.2025941694
 10
139.646504826
 20
109.1784292345
 10
139.6686980784
 20
109.1520684169
 10
139.689351393
 20
109.1235965895
 10
139.7076453862
 20
109.0941433217
 10
139.7234852014
 20
109.0636691548
 10
139.7369656952
 20
109.0322135475
 10
139.7475520526
 20
109.0010244454
 10
139.7550660022
 20
108.9705178306
 10
139.7596858155
 20
108.9402777209
 10
139.7614114925
 20
108.9103041166
  0
LWPOLYLINE
  5
2C4
100
AcDbEntity
  8
0
100
AcDbPolyline
 62
253
  6
CONTINUOUS
 90
16
 70
0
 10
132.4223663315
 20
112.0467073594
 10
132.4508320192
 20
112.0433398641
 10
132.4803154273
 20
112.0354210511
 10
132.5103120866
 20
112.0230864135
 10
132.5403087459
 20
112.0065470003
 10
132.569792154
 20
111.9860858054
 10
132.5982578416
 20
111.9620529257
 10
132.6252187531
 20
111.9348595702
 10
132.6502135796
 20
111.9049710249
 10
132.6728146527
 20
111.8728986911
 10
132.6926352619
 20
111.8391913353
 10
132.709336271
 20
111.8044256997
 10
132.7226319212
 20
111.769196634
 10
132.7322947201
 20
111.7341069172
 10
132.7381593346
 20
111.6997569441
 10
132.7401254195
 20
111.6667344523
  0
LINE
  5
2C5
100
AcDbEntity
  8
0
100
AcDbLine
 62
7
  6
CONTINUOUS
 10
152.75763451
 20
107.3808663139
 11
151.5289064436
 21
107.8743512064
  0
LINE
  5
2C6
100
AcDbEntity
  8
0
100
AcDbLine
 62
7
  6
CONTINUOUS
 10
124.0873129599
 20
118.8955138057
 11
124.657733096
 21
118.6664202192
  0
LINE
  5
2C7
100
AcDbEntity
  8
0
100
AcDbLine
 62
7
  6
CONTINUOUS
 10
125.2639748973
 20
118.4229398444
 11
125.3160410264
 21
118.4020289132
  0
LWPOLYLINE
  5
2C8
100
AcDbEntity
  8
ASSI
100
AcDbPolyline
 62
7
  6
CONTINUOUS
 90
18
 70
0
 10
145.9929668235
 20
105.643066468
 10
146.0347638701
 20
105.5944209937
 10
146.1057452812
 20
105.5208312112
 10
146.1802070031
 20
105.4520123815
 10
146.2564702664
 20
105.3895160528
 10
146.3345759953
 20
105.3334858477
 10
146.4144832656
 20
105.2837781436
 10
146.494390536
 20
105.2415136205
 10
146.5742978063
 20
105.2068613587
 10
146.6542050766
 20
105.179652278
 10
146.7323108055
 20
105.160499818
 10
146.8085740689
 20
105.1495869938
 10
146.8830357908
 20
105.1467307904
 10
146.9540172018
 20
105.1519956019
 10
147.0214392429
 20
105.1655659063
 10
147.0853809731
 20
105.1872572257
 10
147.1444008005
 20
105.2165805206
 10
147.1713799245
 20
105.2337431001
  0
LWPOLYLINE
  5
2C9
100
AcDbEntity
  8
0
100
AcDbPolyline
 62
253
  6
CONTINUOUS
 90
21
 70
0
 10
143.4315647668
 20
107.4094276424
 10
143.4293420766
 20
107.4422399354
 10
143.4227120368
 20
107.4759629088
 10
143.4117880893
 20
107.5100195531
 10
143.3967571457
 20
107.5438271497
 10
143.3778763898
 20
107.5768072413
 10
143.3554688764
 20
107.6083955293
 10
143.3299180044
 20
107.6380515293
 10
143.3016609563
 20
107.6652678191
 10
143.2711812179
 20
107.6895787202
 10
143.2390003061
 20
107.7105682666
 10
143.2056688452
 20
107.7278773211
 10
143.1717571457
 20
107.7412097211
 10
143.1378454462
 20
107.7503373456
 10
143.1045139853
 20
107.7551040182
 10
143.0723330735
 20
107.7554281801
 10
143.0418533351
 20
107.7513042845
 10
143.013596287
 20
107.7428028926
 10
142.988045415
 20
107.7300694656
 10
142.9656379016
 20
107.7133218758
 10
142.9603218186
 20
107.7082905687
  0
LWPOLYLINE
  5
2CA
100
AcDbEntity
  8
0
100
AcDbPolyline
 62
7
  6
CONTINUOUS
 90
34
 70
0
 10
143.2038090459
 20
106.9207821576
 10
143.2062867907
 20
106.8797233613
 10
143.2175710103
 20
106.822420831
 10
143.2380479443
 20
106.7646517474
 10
143.2675281799
 20
106.7069468601
 10
143.3057746355
 20
106.6496588766
 10
143.3528109614
 20
106.5928461048
 10
143.4080819989
 20
106.5372978432
 10
143.471038831
 20
106.4835694218
 10
143.5423177761
 20
106.431289497
 10
143.6219689611
 20
106.3807863229
 10
143.7092138623
 20
106.332850821
 10
143.8040472789
 20
106.2877342844
 10
143.906262477
 20
106.2458181565
 10
144.0150913002
 20
106.2076650797
 10
144.1297935112
 20
106.1737184841
 10
144.2497245809
 20
106.1443198562
 10
144.3741554408
 20
106.1197788655
 10
144.5021846672
 20
106.1003754684
 10
144.6330322272
 20
106.0863060019
 10
144.765867805
 20
106.0777246026
 10
144.8996891342
 20
106.0747374604
 10
145.0336686
 20
106.0773841611
 10
145.1669238544
 20
106.08565698
 10
145.2983652474
 20
106.0994696483
 10
145.427130243
 20
106.1186835219
 10
145.5524346103
 20
106.1431202824
 10
145.6733258346
 20
106.172507984
 10
145.7890438882
 20
106.2065444985
 10
145.8989200412
 20
106.2448958
 10
146.002169522
 20
106.2871162935
 10
146.0981544125
 20
106.3327241015
 10
146.1864311483
 20
106.3812494256
 10
146.2666011212
 20
106.4321790525
  0
LWPOLYLINE
  5
2CB
100
AcDbEntity
  8
0
100
AcDbPolyline
 62
7
  6
CONTINUOUS
 90
33
 70
0
 10
142.6038079658
 20
106.9220251942
 10
142.6049376087
 20
106.8753733081
 10
142.6164163699
 20
106.7667370535
 10
142.640353364
 20
106.658630788
 10
142.6767493104
 20
106.5518576258
 10
142.7260420623
 20
106.4461620456
 10
142.7888783049
 20
106.341621003
 10
142.8651179338
 20
106.2396529951
 10
142.9540226789
 20
106.1417795806
 10
143.0555473888
 20
106.0483435018
 10
143.1693511152
 20
105.9599639174
 10
143.293473988
 20
105.8781624101
 10
143.4268683974
 20
105.803361657
 10
143.5691552062
 20
105.7355743136
 10
143.7186643353
 20
105.6753937578
 10
143.8741304645
 20
105.6230441619
 10
144.034975582
 20
105.5784812865
 10
144.2002557871
 20
105.5417955381
 10
144.3689379393
 20
105.5130656819
 10
144.5401674262
 20
105.4923116263
 10
144.7131835705
 20
105.4795413952
 10
144.8870247412
 20
105.4747719918
 10
145.0607675895
 20
105.4779916724
 10
145.2336949656
 20
105.4891827846
 10
145.4049252481
 20
105.5083192713
 10
145.5734782771
 20
105.5353400286
 10
145.7385271056
 20
105.5701829057
 10
145.8992763773
 20
105.6127881722
 10
146.0547211829
 20
105.6630238578
 10
146.2038477715
 20
105.7207040921
 10
146.3458219096
 20
105.7856686021
 10
146.4798787442
 20
105.8577762028
 10
146.6051925578
 20
105.9368449844
  0
LINE
  5
2CC
100
AcDbEntity
  8
SMUSSO
100
AcDbLine
 62
7
  6
CONTINUOUS
 10
141.9435963553
 20
120.9831535151
 11
141.9435963553
 21
120.3278318797
  0
LWPOLYLINE
  5
2CD
100
AcDbEntity
  8
ASSI
100
AcDbPolyline
 62
7
  6
CONTINUOUS
 90
34
 70
0
 10
142.4349587092
 20
99.3718089748
 10
142.4393193153
 20
99.5481734009
 10
142.4518533366
 20
99.7287519566
 10
142.4725607731
 20
99.913544642
 10
142.5016215637
 20
100.1034897551
 10
142.5388557695
 20
100.2976489978
 10
142.5837235741
 20
100.493207476
 10
142.6363361859
 20
100.6901855742
 10
142.6965823965
 20
100.8885629078
 10
142.7635887645
 20
101.0854634295
 10
142.8374537738
 20
101.2808656246
 10
142.9180789407
 20
101.4747910077
 10
143.0042953723
 20
101.6644280752
 10
143.0961845239
 20
101.8497143538
 10
143.1936649402
 20
102.0307123166
 10
143.2953233637
 20
102.2047978801
 10
143.4012206606
 20
102.3718703426
 10
143.5112959646
 20
102.5320304057
 10
143.623953419
 20
102.6829560907
 10
143.7392306413
 20
102.8245128688
 10
143.8570900139
 20
102.9568352688
 10
143.9758228279
 20
103.0780048986
 10
144.0954418077
 20
103.1878592819
 10
144.2159342288
 20
103.2865608949
 10
144.3355532086
 20
103.3726787754
 10
144.4542860226
 20
103.4460296001
 10
144.5721453952
 20
103.5067966922
 10
144.6874226175
 20
103.5540990586
 10
144.8000800719
 20
103.5877405418
 10
144.9101553759
 20
103.6079172993
 10
145.0160526728
 20
103.6143368113
 10
145.1177110963
 20
103.6067986587
 10
145.2151915127
 20
103.5855032605
 10
145.2739065541
 20
103.5651289457
  0
LWPOLYLINE
  5
2CE
100
AcDbEntity
  8
ASSI
100
AcDbPolyline
 62
7
  6
CONTINUOUS
 90
10
 70
0
 10
140.208587548
 20
108.030157491
 10
140.2355945421
 20
108.0501235506
 10
140.2846587573
 20
108.0948841653
 10
140.3276948973
 20
108.1462676094
 10
140.3645660276
 20
108.2044243279
 10
140.3954090827
 20
108.269203876
 10
140.4195286936
 20
108.3391457725
 10
140.4366930704
 20
108.4137631907
 10
140.447134003
 20
108.4935429574
 10
140.4508514913
 20
108.5784850728
  0
LWPOLYLINE
  5
2CF
100
AcDbEntity
  8
ASSI
100
AcDbPolyline
 62
7
  6
CONTINUOUS
 90
10
 70
0
 10
143.7439194013
 20
110.4467752207
 10
143.7709263954
 20
110.4667412804
 10
143.8199906106
 20
110.511501895
 10
143.8630267506
 20
110.5628853391
 10
143.8998978809
 20
110.6210420577
 10
143.930740936
 20
110.6858216057
 10
143.9548605468
 20
110.7557635023
 10
143.9720249237
 20
110.8303809204
 10
143.9824658562
 20
110.9101606872
 10
143.9861833445
 20
110.9951028025
  0
LINE
  5
2D0
100
AcDbEntity
  8
ASSI
100
AcDbLine
 62
7
  6
CONTINUOUS
 10
143.7441128861
 20
110.446860058
 11
140.2087810328
 21
108.0302423283
  0
LWPOLYLINE
  5
2D1
100
AcDbEntity
  8
0
100
AcDbPolyline
 62
253
  6
CONTINUOUS
 90
16
 70
0
 10
125.4595739551
 20
114.8431217503
 10
125.4880396428
 20
114.839754255
 10
125.5175230509
 20
114.831835442
 10
125.5475197101
 20
114.8195008044
 10
125.5775163694
 20
114.8029613911
 10
125.6069997775
 20
114.7825001963
 10
125.6354654652
 20
114.7584673165
 10
125.6624263766
 20
114.7312739611
 10
125.6874212031
 20
114.7013854158
 10
125.7100222763
 20
114.669313082
 10
125.7298428855
 20
114.6356057262
 10
125.7465438946
 20
114.6008400906
 10
125.7598395447
 20
114.5656110248
 10
125.7695023437
 20
114.530521308
 10
125.7753669582
 20
114.4961713349
 10
125.7773330431
 20
114.4631488431
  0
LWPOLYLINE
  5
2D2
100
AcDbEntity
  8
0
100
AcDbPolyline
 62
7
  6
CONTINUOUS
 90
9
 70
0
 10
147.0235702
 20
111.5678455141
 10
146.9887470189
 20
111.5769824641
 10
146.9556056615
 20
111.5817219505
 10
146.9241461278
 20
111.5820639731
 10
146.8938931575
 20
111.5778655455
 10
146.8653220108
 20
111.5692696542
 10
146.8398584693
 20
111.5567052586
 10
146.8176602344
 20
111.539970969
 10
146.8123050594
 20
111.5348742812
  0
LWPOLYLINE
  5
2D3
100
AcDbEntity
  8
0
100
AcDbPolyline
 62
7
  6
CONTINUOUS
 90
13
 70
0
 10
130.4993151224
 20
118.2043588839
 10
130.5301180346
 20
118.1871389154
 10
130.5594332862
 20
118.1667944194
 10
130.5872608775
 20
118.1433253961
 10
130.6140212008
 20
118.1162291444
 10
130.6392938637
 20
118.0860083653
 10
130.6618176886
 20
118.0541711615
 10
130.6814531801
 20
118.0206355043
 10
130.6983398336
 20
117.9854834224
 10
130.711634957
 20
117.9504691044
 10
130.7210576532
 20
117.9161772798
 10
130.7268888193
 20
117.8820232193
 10
130.7291284554
 20
117.8480069227
  0
LWPOLYLINE
  5
2D4
100
AcDbEntity
  8
0
100
AcDbPolyline
 62
7
  6
CONTINUOUS
 90
13
 70
0
 10
137.4621074989
 20
115.407944493
 10
137.492910411
 20
115.3907245245
 10
137.5222256627
 20
115.3703800285
 10
137.5500532539
 20
115.3469110052
 10
137.5768135773
 20
115.3198147535
 10
137.6020862402
 20
115.2895939745
 10
137.624610065
 20
115.2577567707
 10
137.6442455565
 20
115.2242211135
 10
137.66113221
 20
115.1890690315
 10
137.6744273335
 20
115.1540547135
 10
137.6838500296
 20
115.119762889
 10
137.6896811957
 20
115.0856088284
 10
137.6919208318
 20
115.0515925318
  0
LWPOLYLINE
  5
2D5
100
AcDbEntity
  8
0
100
AcDbPolyline
 62
253
  6
CONTINUOUS
 90
8
 70
0
 10
144.8027671316
 20
100.3114040845
 10
144.8042392394
 20
100.2805337255
 10
144.8086303746
 20
100.252603327
 10
144.8158654036
 20
100.228090786
 10
144.8258205331
 20
100.2074155188
 10
144.838325428
 20
100.190931285
 10
144.8531661263
 20
100.1789201344
 10
144.8630335761
 20
100.1739709995
  0
LWPOLYLINE
  5
2D6
100
AcDbEntity
  8
0
100
AcDbPolyline
 62
7
  6
CONTINUOUS
 90
9
 70
0
 10
143.9836150874
 20
100.6403940129
 10
143.9849071895
 20
100.6123093838
 10
143.9883662786
 20
100.5871262538
 10
143.9939923549
 20
100.5648446229
 10
144.0019188991
 20
100.5452436502
 10
144.0120124304
 20
100.5285441766
 10
144.0238725057
 20
100.5154087241
 10
144.0375701488
 20
100.5059805839
 10
144.0439075823
 20
100.5030612124
  0
LWPOLYLINE
  5
2D7
100
AcDbEntity
  8
0
100
AcDbPolyline
 62
7
  6
CONTINUOUS
 90
7
 70
0
 10
144.6547132083
 20
112.2551781409
 10
144.6524735722
 20
112.2233176633
 10
144.6466424061
 20
112.1947765406
 10
144.6372197099
 20
112.1695547731
 10
144.6239245865
 20
112.1473380159
 10
144.607037933
 20
112.1284406137
 10
144.5940624977
 20
112.1180564284
  0
LWPOLYLINE
  5
2D8
100
AcDbEntity
  8
0
100
AcDbPolyline
 62
7
  6
CONTINUOUS
 90
9
 70
0
 10
142.9603218186
 20
107.7082905687
 10
142.8709838388
 20
107.6111746122
 10
142.7948027531
 20
107.5108829603
 10
142.7316901583
 20
107.4080970585
 10
142.6816909201
 20
107.3039825256
 10
142.6442821601
 20
107.1987815293
 10
142.6189419741
 20
107.0918083652
 10
142.6058023729
 20
106.9836858038
 10
142.6038079658
 20
106.9220251942
  0
LINE
  5
2D9
100
AcDbEntity
  8
0
100
AcDbLine
 62
7
  6
CONTINUOUS
 10
146.8121348729
 20
111.5349263617
 11
142.9603218186
 21
107.7082905687
  0
LINE
  5
2DA
100
AcDbEntity
  8
SMUSSO
100
AcDbLine
 62
7
  6
CONTINUOUS
 10
154.5101253697
 20
116.0765469308
 11
154.2308770197
 21
116.0483045901
  0
LWPOLYLINE
  5
2DB
100
AcDbEntity
  8
0
100
AcDbPolyline
 62
7
  6
CONTINUOUS
 90
9
 70
0
 10
140.0607778236
 20
114.364259905
 10
140.0259546424
 20
114.373396855
 10
139.992813285
 20
114.3781363413
 10
139.9613537514
 20
114.3784783639
 10
139.931100781
 20
114.3742799364
 10
139.9025296344
 20
114.3656840451
 10
139.8770660929
 20
114.3531196495
 10
139.854867858
 20
114.3363853599
 10
139.849512683
 20
114.3312886721
  0
LWPOLYLINE
  5
2DC
100
AcDbEntity
  8
0
100
AcDbPolyline
 62
7
  6
CONTINUOUS
 90
9
 70
0
 10
133.0979854471
 20
117.1606742959
 10
133.063162266
 20
117.1698112459
 10
133.0300209086
 20
117.1745507322
 10
132.9985613749
 20
117.1748927548
 10
132.9683084045
 20
117.1706943272
 10
132.9397372579
 20
117.1620984359
 10
132.9142737164
 20
117.1495340403
 10
132.8920754815
 20
117.1327997508
 10
132.8867203065
 20
117.127703063
  0
LINE
  5
2DD
100
AcDbEntity
  8
0
100
AcDbLine
 62
7
  6
CONTINUOUS
 10
152.75763451
 20
110.6574744911
 11
124.0873129599
 21
122.1721219829
  0
LWPOLYLINE
  5
2DE
100
AcDbEntity
  8
0
100
AcDbPolyline
 62
7
  6
CONTINUOUS
 90
13
 70
0
 10
144.4248998753
 20
112.6115301022
 10
144.4557027875
 20
112.5943101336
 10
144.4850180391
 20
112.5739656377
 10
144.5128456304
 20
112.5504966143
 10
144.5396059537
 20
112.5234003627
 10
144.5648786166
 20
112.4931795836
 10
144.5874024415
 20
112.4613423798
 10
144.607037933
 20
112.4278067226
 10
144.6239245865
 20
112.3926546406
 10
144.6372197099
 20
112.3576403226
 10
144.6466424061
 20
112.3233484981
 10
144.6524735722
 20
112.2891944375
 10
144.6547132083
 20
112.2551781409
  0
LWPOLYLINE
  5
2DF
100
AcDbEntity
  8
ASSI
100
AcDbPolyline
 62
7
  6
CONTINUOUS
 90
7
 70
0
 10
145.5751372042
 20
106.6669214655
 10
145.5788546925
 20
106.5784009868
 10
145.5892956251
 20
106.4885710336
 10
145.6064600019
 20
106.3974316059
 10
145.6305796128
 20
106.3042727617
 10
145.6614226678
 20
106.2098044429
 10
145.6758183963
 20
106.173241129
  0
LWPOLYLINE
  5
2E0
100
AcDbEntity
  8
ASSI
100
AcDbPolyline
 62
7
  6
CONTINUOUS
 90
8
 70
0
 10
145.8764173273
 20
102.1908868372
 10
145.8720567213
 20
102.0145224111
 10
145.8595227
 20
101.8339438553
 10
145.8388152634
 20
101.64915117
 10
145.8097544728
 20
101.4592060569
 10
145.772520267
 20
101.2650468142
 10
145.7276524624
 20
101.0694883359
 10
145.6891333815
 20
100.9252754744
  0
LWPOLYLINE
  5
2E1
100
AcDbEntity
  8
ASSI
100
AcDbPolyline
 62
7
  6
CONTINUOUS
 90
10
 70
0
 10
145.5751372042
 20
106.6669214655
 10
145.5788546925
 20
106.7518635808
 10
145.5892956251
 20
106.8316433475
 10
145.6064600019
 20
106.9062607657
 10
145.6305796128
 20
106.9762026623
 10
145.6614226678
 20
107.0409822103
 10
145.6982937982
 20
107.0991389288
 10
145.7413299382
 20
107.1505223729
 10
145.7903941534
 20
107.1952829876
 10
145.8174011474
 20
107.2152490472
  0
LWPOLYLINE
  5
2E2
100
AcDbEntity
  8
0
100
AcDbPolyline
 62
253
  6
CONTINUOUS
 90
6
 70
0
 10
143.3831924728
 20
107.2826376469
 10
143.3967571457
 20
107.2980815364
 10
143.4117880893
 20
107.3219340036
 10
143.4227120368
 20
107.3487556189
 10
143.4293420766
 20
107.3780874571
 10
143.4315647668
 20
107.4094276424
  0
LWPOLYLINE
  5
2E3
100
AcDbEntity
  8
0
100
AcDbPolyline
 62
7
  6
CONTINUOUS
 90
8
 70
0
 10
143.3831924728
 20
107.2826376469
 10
143.3321191421
 20
107.2273008303
 10
143.2887072127
 20
107.1701990577
 10
143.2537719662
 20
107.1120629061
 10
143.2277717306
 20
107.0532972403
 10
143.2111938163
 20
106.9947033325
 10
143.2041229432
 20
106.9369057664
 10
143.2038090459
 20
106.9207821576
  0
LINE
  5
2E4
100
AcDbEntity
  8
0
100
AcDbLine
 62
7
  6
CONTINUOUS
 10
147.2243380365
 20
111.098675677
 11
143.3831924728
 21
107.2826376469
  0
LINE
  5
2E5
100
AcDbEntity
  8
SMUSSO
100
AcDbLine
 62
7
  6
CONTINUOUS
 10
150.2480078741
 20
112.7857291874
 11
154.2308770197
 21
116.0483045901
  0
LWPOLYLINE
  5
2E6
100
AcDbEntity
  8
ASSI
100
AcDbPolyline
 62
7
  6
CONTINUOUS
 90
11
 70
0
 10
140.0599277968
 20
104.4741776584
 10
140.1680662226
 20
104.5567684416
 10
140.2744268595
 20
104.6267790981
 10
140.3790097076
 20
104.6842096279
 10
140.4823776479
 20
104.7292398274
 10
140.5839677994
 20
104.7616899002
 10
140.682091519
 20
104.7810204575
 10
140.7766908663
 20
104.7870122103
 10
140.8678237816
 20
104.7798844476
 10
140.9539754434
 20
104.759755648
 10
140.9914495699
 20
104.7462266715
  0
LINE
  5
2E7
100
AcDbEntity
  8
ASSI
100
AcDbLine
 62
7
  6
CONTINUOUS
 10
140.9393260517
 20
104.6025206083
 11
141.0589450315
 21
104.6886384888
  0
LWPOLYLINE
  5
2E8
100
AcDbEntity
  8
ASSI
100
AcDbPolyline
 62
7
  6
CONTINUOUS
 90
29
 70
0
 10
149.3527330007
 20
109.631866777
 10
149.3797121247
 20
109.6490293565
 10
149.4387319521
 20
109.6783526514
 10
149.5026736823
 20
109.7000439708
 10
149.5700957234
 20
109.7136142752
 10
149.6410771344
 20
109.7188790867
 10
149.7155388563
 20
109.7160228833
 10
149.7918021197
 20
109.7051100591
 10
149.8699078486
 20
109.6859575991
 10
149.9498151189
 20
109.6587485184
 10
150.0297223893
 20
109.6240962566
 10
150.1096296596
 20
109.5818317335
 10
150.1895369299
 20
109.5321240294
 10
150.2676426588
 20
109.4760938243
 10
150.3439059222
 20
109.4135974956
 10
150.4183676441
 20
109.3447786659
 10
150.4893490551
 20
109.2711888834
 10
150.5567710962
 20
109.1927197706
 10
150.6207128264
 20
109.1094797049
 10
150.6797326538
 20
109.0233453671
 10
150.7337187718
 20
108.9342510105
 10
150.782782987
 20
108.8422623818
 10
150.8258191271
 20
108.7494534014
 10
150.8626902574
 20
108.6558054342
 10
150.8935333125
 20
108.5613371154
 10
150.9176529233
 20
108.4681782712
 10
150.9348173001
 20
108.3770388435
 10
150.9452582327
 20
108.2872088903
 10
150.948975721
 20
108.1986884116
  0
LWPOLYLINE
  5
2E9
100
AcDbEntity
  8
ASSI
100
AcDbPolyline
 62
7
  6
CONTINUOUS
 90
29
 70
0
 10
145.8174011474
 20
107.2152490472
 10
145.8443802715
 20
107.2324116268
 10
145.9034000989
 20
107.2617349217
 10
145.967341829
 20
107.2834262411
 10
146.0347638701
 20
107.2969965455
 10
146.1057452812
 20
107.302261357
 10
146.1802070031
 20
107.2994051536
 10
146.2564702664
 20
107.2884923294
 10
146.3345759953
 20
107.2693398694
 10
146.4144832656
 20
107.2421307886
 10
146.494390536
 20
107.2074785268
 10
146.5742978063
 20
107.1652140038
 10
146.6542050766
 20
107.1155062996
 10
146.7323108055
 20
107.0594760945
 10
146.8085740689
 20
106.9969797658
 10
146.8830357908
 20
106.9281609362
 10
146.9540172018
 20
106.8545711537
 10
147.0214392429
 20
106.7761020409
 10
147.0853809731
 20
106.6928619752
 10
147.1444008005
 20
106.6067276374
 10
147.1983869185
 20
106.5176332808
 10
147.2474511338
 20
106.425644652
 10
147.2904872738
 20
106.3328356717
 10
147.3273584041
 20
106.2391877045
 10
147.3582014592
 20
106.1447193857
 10
147.38232107
 20
106.0515605414
 10
147.3994854469
 20
105.9604211137
 10
147.4099263794
 20
105.8705911605
 10
147.4136438677
 20
105.7820706819
  0
LWPOLYLINE
  5
2EA
100
AcDbEntity
  8
ASSI
100
AcDbPolyline
 62
7
  6
CONTINUOUS
 90
10
 70
0
 10
141.0589450315
 20
104.6886384888
 10
141.1776778454
 20
104.7619893134
 10
141.2955372181
 20
104.8227564055
 10
141.4108144403
 20
104.870058772
 10
141.5234718947
 20
104.9037002551
 10
141.6335471987
 20
104.9238770126
 10
141.7394444956
 20
104.9302965247
 10
141.8411029191
 20
104.922758372
 10
141.9385833355
 20
104.9014629739
 10
141.9972983769
 20
104.881088659
  0
LWPOLYLINE
  5
2EB
100
AcDbEntity
  8
0
100
AcDbPolyline
 62
7
  6
CONTINUOUS
 90
9
 70
0
 10
126.1351930706
 20
119.9570886867
 10
126.1003698895
 20
119.9662256367
 10
126.0672285321
 20
119.9709651231
 10
126.0357689984
 20
119.9713071457
 10
126.0055160281
 20
119.9671087181
 10
125.9769448815
 20
119.9585128268
 10
125.9514813399
 20
119.9459484312
 10
125.929283105
 20
119.9292141416
 10
125.9239279301
 20
119.9241174538
  0
LINE
  5
2EC
100
AcDbEntity
  8
0
100
AcDbLine
 62
7
  6
CONTINUOUS
 10
153.6753568082
 20
111.4092285877
 11
125.0050352581
 21
122.9238760795
  0
LWPOLYLINE
  5
2ED
100
AcDbEntity
  8
0
100
AcDbPolyline
 62
7
  6
CONTINUOUS
 90
13
 70
0
 10
151.3876922518
 20
109.8151157113
 10
151.4184951639
 20
109.7978957428
 10
151.4478104156
 20
109.7775512468
 10
151.4756380068
 20
109.7540822235
 10
151.5023983302
 20
109.7269859718
 10
151.5276709931
 20
109.6967651927
 10
151.5501948179
 20
109.6649279889
 10
151.5698303095
 20
109.6313923317
 10
151.5867169629
 20
109.5962402498
 10
151.6000120864
 20
109.5612259318
 10
151.6094347825
 20
109.5269341072
 10
151.6152659486
 20
109.4927800467
 10
151.6175055847
 20
109.4587637501
  0
LINE
  5
2EE
100
AcDbEntity
  8
SMUSSO
100
AcDbLine
 62
7
  6
CONTINUOUS
 10
141.8943573369
 20
121.1433237886
 11
141.9435963553
 21
120.9831535151
  0
LWPOLYLINE
  5
2EF
100
AcDbEntity
  8
ASSI
100
AcDbPolyline
 62
7
  6
CONTINUOUS
 90
8
 70
0
 10
147.0830529105
 20
118.8920972183
 10
147.0805767734
 20
118.8494007778
 10
147.0738652987
 20
118.8098170797
 10
147.0629184862
 20
118.7733461239
 10
147.0475243018
 20
118.7396694698
 10
147.0278947798
 20
118.7091055581
 10
147.0046660225
 20
118.6826097107
 10
146.9904210374
 20
118.6699316289
  0
LWPOLYLINE
  5
2F0
100
AcDbEntity
  8
ASSI
100
AcDbPolyline
 62
7
  6
CONTINUOUS
 90
8
 70
0
 10
146.7242038689
 20
106.1138897257
 10
146.7224781919
 20
106.0855772159
 10
146.7178583787
 20
106.0597840255
 10
146.7103444291
 20
106.0365101548
 10
146.6997580716
 20
106.0155112217
 10
146.6862775779
 20
105.9970316081
 10
146.6704377626
 20
105.9818044601
 10
146.6637662455
 20
105.9769084554
  0
LWPOLYLINE
  5
2F1
100
AcDbEntity
  8
0
100
AcDbPolyline
 62
253
  6
CONTINUOUS
 90
7
 70
0
 10
146.6657101724
 20
106.0739056705
 10
146.6637440875
 20
106.042775684
 10
146.657879473
 20
106.0140708455
 10
146.6482166741
 20
105.9882823027
 10
146.634921024
 20
105.9658513047
 10
146.6182200148
 20
105.9471616522
 10
146.6051925578
 20
105.9368449844
  0
LWPOLYLINE
  5
2F2
100
AcDbEntity
  8
0
100
AcDbPolyline
 62
253
  6
CONTINUOUS
 90
7
 70
0
 10
145.9169499162
 20
100.4240891902
 10
145.9148475284
 20
100.3928573173
 10
145.9085763374
 20
100.3638485632
 10
145.8982436452
 20
100.3375592755
 10
145.8840262468
 20
100.3144392714
 10
145.866167406
 20
100.2948841404
 10
145.8613104851
 20
100.2907093722
  0
LWPOLYLINE
  5
2F3
100
AcDbEntity
  8
ASSI
100
AcDbPolyline
 62
253
  6
CONTINUOUS
 90
47
 70
0
 10
149.11965319
 20
113.2389018667
 10
149.1634533177
 20
113.3214350579
 10
149.3349018639
 20
113.6668848629
 10
149.498619632
 20
114.019947395
 10
149.6530967481
 20
114.3773629986
 10
149.7982506316
 20
114.7391782762
 10
149.934163863
 20
115.1053466253
 10
150.0595743106
 20
115.4724685828
 10
150.1743837355
 20
115.8405518444
 10
150.2786903765
 20
116.2095887144
 10
150.3715268181
 20
116.5761566416
 10
150.452786455
 20
116.9402332179
 10
150.5225758925
 20
117.3018408515
 10
150.5802475304
 20
117.657624216
 10
150.6256885117
 20
118.0075287218
 10
150.6590116935
 20
118.3516089586
 10
150.6799080467
 20
118.6866733689
 10
150.688261973
 20
119.0126380684
 10
150.6841890707
 20
119.3295869414
 10
150.6677271055
 20
119.6345800835
 10
150.6387608121
 20
119.9275063376
 10
150.5974054558
 20
120.2084768607
 10
150.544044599
 20
120.4748852192
 10
150.4785664496
 20
120.7265960259
 10
150.4010827998
 20
120.963744668
 10
150.3123125879
 20
121.1841308727
 10
150.2121507596
 20
121.3875985012
 10
150.1007023693
 20
121.5743036923
 10
149.9790015191
 20
121.7425145899
 10
149.8469531737
 20
121.8920589279
 10
149.7046523685
 20
122.0231089723
 10
149.553418312
 20
122.1344496654
 10
149.3931686267
 20
122.2258981129
 10
149.2239856901
 20
122.297637209
 10
149.0474358434
 20
122.3490005791
 10
148.863452012
 20
122.3798002457
 10
148.6721012706
 20
122.3902241862
 10
148.4751511842
 20
122.3801699585
 10
148.2725505781
 20
122.3494498758
 10
148.0643506269
 20
122.2982516249
 10
147.8524724197
 20
122.2270358239
 10
147.6368807178
 20
122.1356183514
 10
147.4176107598
 20
122.0241833288
 10
147.1966893507
 20
121.8937437392
 10
146.9740865771
 20
121.7441090454
 10
146.7498323524
 20
121.5754697847
 10
146.5260432215
 20
121.3894105519
  0
LWPOLYLINE
  5
2F4
100
AcDbEntity
  8
RACCORDO
100
AcDbPolyline
 62
7
  6
CONTINUOUS
 90
35
 70
0
 10
149.176922007
 20
113.2159014187
 10
149.186383373
 20
113.2336629527
 10
149.3622147994
 20
113.5860814446
 10
149.5295384583
 20
113.9447215853
 10
149.6879936937
 20
114.3087521503
 10
149.8371504241
 20
114.6771556636
 10
149.9765974946
 20
115.0488978637
 10
150.1060071059
 20
115.4231183799
 10
150.2250010615
 20
115.7987744175
 10
150.3332279134
 20
116.1748280502
 10
150.4304085332
 20
116.5504375006
 10
150.516221056
 20
116.9245562976
 10
150.5903714812
 20
117.2961532511
 10
150.652626501
 20
117.664439217
 10
150.7027187662
 20
118.028400052
 10
150.7404007289
 20
118.3870043102
 10
150.7654639918
 20
118.7394921173
 10
150.777684436
 20
119.0849729221
 10
150.7768458492
 20
119.4223505971
 10
150.7627593692
 20
119.7506722576
 10
150.7352098698
 20
120.0693713972
 10
150.6940405308
 20
120.3771504131
 10
150.6392760104
 20
120.6722626852
 10
150.5707212975
 20
120.9545537986
 10
150.4884292573
 20
121.2227059142
 10
150.3932315747
 20
121.4739223176
 10
150.2854364992
 20
121.7078965912
 10
150.1652990706
 20
121.9244367324
 10
150.0342087436
 20
122.1217477542
 10
149.8932262061
 20
122.2994038084
 10
149.7426350137
 20
122.4580812708
 10
149.5830741552
 20
122.5978853098
 10
149.4153474714
 20
122.718809095
 10
149.2403638834
 20
122.8208656617
 10
149.0590630282
 20
122.9041534222
  0
LINE
  5
2F5
100
AcDbEntity
  8
ASSI
100
AcDbLine
 62
7
  6
CONTINUOUS
 10
149.352539516
 20
109.6317819397
 11
145.8172076627
 21
107.2151642099
  0
LINE
  5
2F6
100
AcDbEntity
  8
0
100
AcDbLine
 62
7
  6
CONTINUOUS
 10
146.2666011212
 20
106.4321790525
 11
146.3250948177
 21
106.4721631077
  0
LINE
  5
2F7
100
AcDbEntity
  8
0
100
AcDbLine
 62
7
  6
CONTINUOUS
 10
150.4617381684
 20
109.2998143942
 11
151.2061068032
 21
109.8086363422
  0
LWPOLYLINE
  5
2F8
100
AcDbEntity
  8
0
100
AcDbPolyline
 62
253
  6
CONTINUOUS
 90
5
 70
0
 10
146.2666011212
 20
106.4321790525
 10
146.2733942734
 20
106.4364909068
 10
146.2959953465
 20
106.4468080001
 10
146.320990173
 20
106.4526371364
 10
146.3479510845
 20
106.4538785777
  0
LWPOLYLINE
  5
2F9
100
AcDbEntity
  8
ASSI
100
AcDbPolyline
 62
7
  6
CONTINUOUS
 90
22
 70
0
 10
146.3250148264
 20
106.472083692
 10
146.3366373025
 20
106.4790316045
 10
146.3572906171
 20
106.4876230562
 10
146.3794838695
 20
106.4926211916
 10
146.4032789727
 20
106.4938815418
 10
146.4286140137
 20
106.4915485757
 10
146.4544838695
 20
106.4857148497
 10
146.4809100422
 20
106.4762396159
 10
146.5078710297
 20
106.4632636222
 10
146.5342972024
 20
106.4473016682
 10
146.5601670582
 20
106.4282337035
 10
146.5855020992
 20
106.4061797785
 10
146.6092972024
 20
106.3820148437
 10
146.6314904548
 20
106.3556540261
 10
146.6521437695
 20
106.3271821986
 10
146.6704377626
 20
106.2977289308
 10
146.6862775779
 20
106.2672547639
 10
146.6997580716
 20
106.2357991566
 10
146.7103444291
 20
106.2046100546
 10
146.7178583787
 20
106.1741034397
 10
146.7224781919
 20
106.1438633301
 10
146.7242038689
 20
106.1138897257
  0
LINE
  5
2FA
100
AcDbEntity
  8
SMUSSO
100
AcDbLine
 62
7
  6
CONTINUOUS
 10
155.2754233801
 20
115.9901164678
 11
154.5101253697
 21
116.0765469308
  0
LINE
  5
2FB
100
AcDbEntity
  8
SMUSSO
100
AcDbLine
 62
7
  6
CONTINUOUS
 10
141.7594146494
 20
121.4184502853
 11
141.8943573369
 21
121.1433237886
  0
LWPOLYLINE
  5
2FC
100
AcDbEntity
  8
0
100
AcDbPolyline
 62
7
  6
CONTINUOUS
 90
7
 70
0
 10
148.4980438797
 20
102.5383975869
 10
148.4961985667
 20
102.5099956492
 10
148.4912584754
 20
102.4839630512
 10
148.4832236058
 20
102.4602997932
 10
148.4719033275
 20
102.4387522546
 10
148.4574882709
 20
102.4195740559
 10
148.4423697858
 20
102.4049916516
  0
LWPOLYLINE
  5
2FD
100
AcDbEntity
  8
ASSI
100
AcDbPolyline
 62
7
  6
CONTINUOUS
 90
24
 70
0
 10
145.4022683014
 20
100.1094829856
 10
145.3932970959
 20
100.0879048042
 10
145.3070806642
 20
99.8982677367
 10
145.2151915127
 20
99.7129814582
 10
145.1177110963
 20
99.5319834953
 10
145.0160526728
 20
99.3578979318
 10
144.9101553759
 20
99.1908254694
 10
144.8000800719
 20
99.0306654063
 10
144.6874226175
 20
98.8797397213
 10
144.5721453952
 20
98.7381829432
 10
144.4542860226
 20
98.6058605432
 10
144.3355532086
 20
98.4846909133
 10
144.2159342288
 20
98.3748365301
 10
144.0954418077
 20
98.276134917
 10
143.9758228279
 20
98.1900170365
 10
143.8570900139
 20
98.1166662119
 10
143.7392306413
 20
98.0558991198
 10
143.623953419
 20
98.0085967533
 10
143.5112959646
 20
97.9749552702
 10
143.4012206606
 20
97.9547785127
 10
143.2953233637
 20
97.9483590006
 10
143.1936649402
 20
97.9558971533
 10
143.0961845239
 20
97.9771925514
 10
143.0374694825
 20
97.9975668663
  0
LINE
  5
2FE
100
AcDbEntity
  8
0
100
AcDbLine
 62
7
  6
CONTINUOUS
 10
153.6753568082
 20
111.4092285877
 11
152.75763451
 21
110.6574744911
  0
LINE
  5
2FF
100
AcDbEntity
  8
SMUSSO
100
AcDbLine
 62
7
  6
CONTINUOUS
 10
153.6753568082
 20
110.5932490732
 11
158.3266372411
 21
114.4033549484
  0
LWPOLYLINE
  5
300
100
AcDbEntity
  8
ASSI
100
AcDbPolyline
 62
7
  6
CONTINUOUS
 90
10
 70
0
 10
147.1713799245
 20
105.2337431001
 10
147.1983869185
 20
105.2537091597
 10
147.2474511338
 20
105.2984697744
 10
147.2904872738
 20
105.3498532185
 10
147.3273584041
 20
105.4080099371
 10
147.3582014592
 20
105.4727894851
 10
147.38232107
 20
105.5427313817
 10
147.3994854469
 20
105.6173487998
 10
147.4099263794
 20
105.6971285666
 10
147.4136438677
 20
105.7820706819
  0
LWPOLYLINE
  5
301
100
AcDbEntity
  8
ASSI
100
AcDbPolyline
 62
7
  6
CONTINUOUS
 90
10
 70
0
 10
150.7067117778
 20
107.6503608299
 10
150.7337187718
 20
107.6703268895
 10
150.782782987
 20
107.7150875041
 10
150.8258191271
 20
107.7664709483
 10
150.8626902574
 20
107.8246276668
 10
150.8935333125
 20
107.8894072148
 10
150.9176529233
 20
107.9593491114
 10
150.9348173001
 20
108.0339665296
 10
150.9452582327
 20
108.1137462963
 10
150.948975721
 20
108.1986884116
  0
LINE
  5
302
100
AcDbEntity
  8
0
100
AcDbLine
 62
7
  6
CONTINUOUS
 10
146.6051925578
 20
105.9368449844
 11
146.6636862543
 21
105.9768290396
  0
LINE
  5
303
100
AcDbEntity
  8
0
100
AcDbLine
 62
7
  6
CONTINUOUS
 10
150.800309234
 20
108.8044664012
 11
151.5569879701
 21
109.3217030639
  0
LINE
  5
304
100
AcDbEntity
  8
ASSI
100
AcDbLine
 62
7
  6
CONTINUOUS
 10
150.7069052625
 20
107.6504456672
 11
147.1715734092
 21
105.2338279374
  0
LINE
  5
305
100
AcDbEntity
  8
SMUSSO
100
AcDbLine
 62
7
  6
CONTINUOUS
 10
153.6753568082
 20
109.9379274378
 11
158.3266372411
 21
113.748033313
  0
LINE
  5
306
100
AcDbEntity
  8
SMUSSO
100
AcDbLine
 62
7
  6
CONTINUOUS
 10
138.127084484
 20
122.6563454976
 11
141.8943573369
 21
121.1433237886
  0
LINE
  5
307
100
AcDbEntity
  8
SMUSSO
100
AcDbLine
 62
7
  6
CONTINUOUS
 10
154.5101253697
 20
116.0765469308
 11
158.2773982227
 21
114.5635252219
  0
LINE
  5
308
100
AcDbEntity
  8
SMUSSO
100
AcDbLine
 62
7
  6
CONTINUOUS
 10
138.8923824944
 20
122.5699150345
 11
141.7594146494
 21
121.4184502853
  0
LINE
  5
309
100
AcDbEntity
  8
SMUSSO
100
AcDbLine
 62
7
  6
CONTINUOUS
 10
155.2754233801
 20
115.9901164678
 11
158.1424555352
 21
114.8386517186
  0
LINE
  5
30A
100
AcDbEntity
  8
0
100
AcDbLine
 62
7
  6
CONTINUOUS
 10
151.5289064436
 20
107.8743512064
 11
151.5289064436
 21
102.1402868964
  0
LWPOLYLINE
  5
30B
100
AcDbEntity
  8
0
100
AcDbPolyline
 62
7
  6
CONTINUOUS
 90
7
 70
0
 10
151.6175055847
 20
109.4587637501
 10
151.6152659486
 20
109.4269032724
 10
151.6094347825
 20
109.3983621498
 10
151.6000120864
 20
109.3731403822
 10
151.5867169629
 20
109.350923625
 10
151.5698303095
 20
109.3320262228
 10
151.5568548742
 20
109.3216420376
  0
LINE
  5
30C
100
AcDbEntity
  8
0
100
AcDbLine
 62
7
  6
CONTINUOUS
 10
153.6753568082
 20
108.1326204105
 11
152.75763451
 21
107.3808663139
  0
LINE
  5
30D
100
AcDbEntity
  8
0
100
AcDbLine
 62
7
  6
CONTINUOUS
 10
145.4810981206
 20
100.7548629651
 11
148.0621920842
 21
102.8691713619
  0
LINE
  5
30E
100
AcDbEntity
  8
0
100
AcDbLine
 62
7
  6
CONTINUOUS
 10
145.8613104851
 20
100.2907093722
 11
148.4424044487
 21
102.405017769
  0
LWPOLYLINE
  5
30F
100
AcDbEntity
  8
0
100
AcDbPolyline
 62
7
  6
CONTINUOUS
 90
23
 70
0
 10
148.0622267471
 20
102.8691974793
 10
148.064046205
 20
102.8706630727
 10
148.0836084667
 20
102.88345502
 10
148.1056936147
 20
102.8931167662
 10
148.1294254598
 20
102.8992649987
 10
148.1548702074
 20
102.9017584569
 10
148.181961652
 20
102.9007384014
 10
148.2096249885
 20
102.8962453011
 10
148.2378832098
 20
102.8881395225
 10
148.2667133231
 20
102.8765606991
 10
148.2949715444
 20
102.8619682002
 10
148.3226348809
 20
102.8442408613
 10
148.3497263256
 20
102.8234998469
 10
148.3751710731
 20
102.8005680202
 10
148.3989029182
 20
102.7753572996
 10
148.4209880662
 20
102.7479557667
 10
148.4405503279
 20
102.7194505289
 10
148.4574882709
 20
102.6897972117
 10
148.4719033275
 20
102.6590401895
 10
148.4832236058
 20
102.6283996929
 10
148.4912584754
 20
102.5982824654
 10
148.4961985667
 20
102.5682817634
 10
148.4980438797
 20
102.5383975869
  0
LWPOLYLINE
  5
310
100
AcDbEntity
  8
0
100
AcDbPolyline
 62
253
  6
CONTINUOUS
 90
20
 70
0
 10
145.4810981206
 20
100.7548629651
 10
145.4974359133
 20
100.7663438611
 10
145.5216038522
 20
100.7778321855
 10
145.5483314962
 20
100.7849566019
 10
145.5771615281
 20
100.7875952095
 10
145.6076006579
 20
100.785702861
 10
145.6391280637
 20
100.779311935
 10
145.6712043029
 20
100.768531782
 10
145.703280542
 20
100.7535468534
 10
145.7348079478
 20
100.7346135455
 10
145.7652470777
 20
100.7120558125
 10
145.7940771095
 20
100.6862596234
 10
145.8208047536
 20
100.6576663582
 10
145.8449726925
 20
100.6267652555
 10
145.866167406
 20
100.5940850418
 10
145.8840262468
 20
100.5601848847
 10
145.8982436452
 20
100.5256448251
 10
145.9085763374
 20
100.4910558531
 10
145.9148475284
 20
100.4570097957
 10
145.9169499162
 20
100.4240891902
  0
LINE
  5
311
100
AcDbEntity
  8
SMUSSO
100
AcDbLine
 62
7
  6
CONTINUOUS
 10
138.127084484
 20
122.6563454976
 11
137.8478361339
 21
122.6281031568
  0
LINE
  5
312
100
AcDbEntity
  8
SMUSSO
100
AcDbLine
 62
7
  6
CONTINUOUS
 10
138.8923824944
 20
122.5699150345
 11
138.127084484
 21
122.6563454976
  0
LWPOLYLINE
  5
313
100
AcDbEntity
  8
ASSI
100
AcDbPolyline
 62
7
  6
CONTINUOUS
 90
16
 70
0
 10
146.6734768884
 20
119.4661682046
 10
146.7169897528
 20
119.4462552072
 10
146.7591337083
 20
119.4226617325
 10
146.7999087549
 20
119.3953877806
 10
146.8397277047
 20
119.3640594788
 10
146.8781777455
 20
119.3290506998
 10
146.9140204414
 20
119.2914830615
 10
146.9471736102
 20
119.2512698155
 10
146.977719434
 20
119.2084977102
 10
147.0046660225
 20
119.1645486087
 10
147.0278947798
 20
119.1193943761
 10
147.0475243018
 20
119.0730631472
 10
147.0629184862
 20
119.0270211902
 10
147.0738652987
 20
118.981757261
 10
147.0805767734
 20
118.9367826037
 10
147.0830529105
 20
118.8920972183
  0
LINE
  5
314
100
AcDbEntity
  8
0
100
AcDbLine
 62
7
  6
CONTINUOUS
 10
152.4466287418
 20
107.5057732419
 11
152.4466287418
 21
102.892040993
  0
LINE
  5
315
100
AcDbEntity
  8
0
100
AcDbLine
 62
7
  6
CONTINUOUS
 10
152.75763451
 20
98.3701938267
 11
152.75763451
 21
101.6468020039
  0
LINE
  5
316
100
AcDbEntity
  8
0
100
AcDbLine
 62
7
  6
CONTINUOUS
 10
152.75763451
 20
107.3808663139
 11
152.75763451
 21
110.6574744911
  0
LINE
  5
317
100
AcDbEntity
  8
0
100
AcDbLine
 62
7
  6
CONTINUOUS
 10
153.6753568082
 20
99.1219479233
 11
153.6753568082
 21
102.3985561005
  0
LINE
  5
318
100
AcDbEntity
  8
0
100
AcDbLine
 62
7
  6
CONTINUOUS
 10
153.6753568082
 20
108.1326204105
 11
153.6753568082
 21
111.4092285877
  0
LINE
  5
319
100
AcDbEntity
  8
0
100
AcDbLine
 62
7
  6
CONTINUOUS
 10
151.5289064436
 20
102.1402868964
 11
152.4466287418
 21
102.892040993
  0
LWPOLYLINE
  5
31A
100
AcDbEntity
  8
RACCORDO
100
AcDbPolyline
 62
253
  6
CONTINUOUS
 90
3
 70
0
 10
147.5674066924
 20
123.4787293743
 10
147.7556614979
 20
123.4255613629
 10
147.8299157327
 20
123.3978066201
  0
LWPOLYLINE
  5
31B
100
AcDbEntity
  8
RACCORDO
100
AcDbPolyline
 62
7
  6
CONTINUOUS
 90
34
 70
0
 10
147.8303349624
 20
123.3976383145
 10
147.6361559664
 20
123.464528159
 10
147.4326126785
 20
123.5124941611
 10
147.2203299108
 20
123.5406173351
 10
146.999694767
 20
123.5480634917
 10
146.7715959235
 20
123.5340458439
 10
146.5373261743
 20
123.4980367829
 10
146.2970020994
 20
123.4394914422
 10
146.0514126322
 20
123.3580187632
 10
145.8027541351
 20
123.254017118
 10
145.5512627494
 20
123.1274259537
 10
145.2975434366
 20
122.978348212
 10
145.0444825303
 20
122.8085614821
 10
144.7932354758
 20
122.6192612678
 10
144.5436782444
 20
122.4107324268
 10
144.2969604779
 20
122.1842711084
 10
144.0539053959
 20
121.9410437327
 10
143.8148162725
 20
121.6817378731
 10
143.5801873335
 20
121.4072080721
 10
143.3506575998
 20
121.1184999257
 10
143.1267341131
 20
120.8165336712
 10
142.9087897132
 20
120.5020460618
 10
142.6973867795
 20
120.176043303
 10
142.493080307
 20
119.8395660467
 10
142.296273024
 20
119.493431618
 10
142.1074923901
 20
119.1386892967
 10
141.9272569256
 20
118.7764268333
 10
141.7559694289
 20
118.4075407391
 10
141.5941133888
 20
118.0331299777
 10
141.4421483326
 20
117.6543052075
 10
141.3004387597
 20
117.2719893974
 10
141.1694097783
 20
116.8873059582
 10
141.0494592501
 20
116.5013810996
 10
141.0440780935
 20
116.482234885
  0
LWPOLYLINE
  5
31C
100
AcDbEntity
  8
RACCORDO
100
AcDbPolyline
 62
253
  6
CONTINUOUS
 90
16
 70
0
 10
149.0586437992
 20
122.9043217276
 10
148.9843895643
 20
122.9320764704
 10
148.7961347588
 20
122.9852444818
 10
148.601654541
 20
123.016748304
 10
148.4013979704
 20
123.0269776383
 10
148.1963956442
 20
123.0163230198
 10
147.9895182078
 20
122.9857094754
 10
147.7815875745
 20
122.9362898869
 10
147.5734537713
 20
122.8692559232
 10
147.3682517713
 20
122.7868565337
 10
147.1667427024
 20
122.6908552886
 10
146.9696382349
 20
122.5829860993
 10
146.7800516362
 20
122.4665423912
 10
146.5993735537
 20
122.3442127407
 10
146.4272094988
 20
122.2174653116
 10
146.2639008662
 20
122.0881193016
  0
LINE
  5
31D
100
AcDbEntity
  8
RACCORDO
100
AcDbLine
 62
253
  6
CONTINUOUS
 10
149.0590630282
 20
122.9041534222
 11
149.0586437992
 21
122.9043217276
  0
LINE
  5
31E
100
AcDbEntity
  8
RACCORDO
100
AcDbLine
 62
253
  6
CONTINUOUS
 10
147.8299157327
 20
123.3978066201
 11
147.8303349624
 21
123.3976383145
  0
LINE
  5
31F
100
AcDbEntity
  8
ASSI
100
AcDbLine
 62
7
  6
CONTINUOUS
 10
147.8303349621
 20
123.3976383146
 11
149.0590630286
 21
122.9041534221
  0
LINE
  5
320
100
AcDbEntity
  8
0
100
AcDbLine
 62
7
  6
CONTINUOUS
 10
153.6753568082
 20
102.3985561005
 11
152.75763451
 21
101.6468020039
  0
LINE
  5
321
100
AcDbEntity
  8
0
100
AcDbLine
 62
7
  6
CONTINUOUS
 10
153.6753568082
 20
99.1219479233
 11
152.75763451
 21
98.3701938267
  0
LINE
  5
322
100
AcDbEntity
  8
SMUSSO
100
AcDbLine
 62
7
  6
CONTINUOUS
 10
158.3266372411
 20
114.4033549484
 11
158.3266372411
 21
113.748033313
  0
LINE
  5
323
100
AcDbEntity
  8
SMUSSO
100
AcDbLine
 62
7
  6
CONTINUOUS
 10
158.1424555352
 20
114.8386517186
 11
158.2773982227
 21
114.5635252219
  0
LINE
  5
324
100
AcDbEntity
  8
SMUSSO
100
AcDbLine
 62
7
  6
CONTINUOUS
 10
158.2773982227
 20
114.5635252219
 11
158.3266372411
 21
114.4033549484
  0
ELLIPSE
  5
325
100
AcDbEntity
  8
0
100
AcDbEllipse
 62
7
  6
CONTINUOUS
 10
137.4621074989
 20
115.1621988797
 30
0.0
 11
0.1915993344
 21
-0.2317390404
 31
0.0
 40
0.6704942534
 41
2.2521854991
 42
3.0806755493
  0
ELLIPSE
  5
326
100
AcDbEntity
  8
0
100
AcDbEllipse
 62
7
  6
CONTINUOUS
 10
140.0607778236
 20
114.1185142917
 30
0.0
 11
0.1915993344
 21
-0.2317390404
 31
0.0
 40
0.6704942534
 41
6.3443604121
 42
8.5353708063
  0
ELLIPSE
  5
327
100
AcDbEntity
  8
0
100
AcDbEllipse
 62
7
  6
CONTINUOUS
 10
130.4993151224
 20
117.9586132706
 30
0.0
 11
0.1915993344
 21
-0.2317390404
 31
0.0
 40
0.6704942534
 41
2.2521854991
 42
3.0806755493
  0
ELLIPSE
  5
328
100
AcDbEntity
  8
0
100
AcDbEllipse
 62
7
  6
CONTINUOUS
 10
151.3876922518
 20
109.569370098
 30
0.0
 11
0.1915993344
 21
-0.2317390404
 31
0.0
 40
0.6704942534
 41
2.2521854991
 42
3.0806755493
  0
ELLIPSE
  5
329
100
AcDbEntity
  8
0
100
AcDbEllipse
 62
7
  6
CONTINUOUS
 10
133.0979854471
 20
116.9149286826
 30
0.0
 11
0.1915993344
 21
-0.2317390404
 31
0.0
 40
0.6704942534
 41
6.3443604121
 42
8.5353708063
  0
ELLIPSE
  5
32A
100
AcDbEntity
  8
0
100
AcDbEllipse
 62
7
  6
CONTINUOUS
 10
126.1351930706
 20
119.7113430734
 30
0.0
 11
0.1915993344
 21
-0.2317390404
 31
0.0
 40
0.6704942534
 41
0.0611751049
 42
2.2521854991
  0
ELLIPSE
  5
32B
100
AcDbEntity
  8
0
100
AcDbEllipse
 62
7
  6
CONTINUOUS
 10
147.0235702
 20
111.3220999008
 30
0.0
 11
0.1915993344
 21
-0.2317390404
 31
0.0
 40
0.6704942534
 41
0.0611751049
 42
2.2521854991
  0
ELLIPSE
  5
32C
100
AcDbEntity
  8
0
100
AcDbEllipse
 62
7
  6
CONTINUOUS
 10
144.4248998753
 20
112.3657844889
 30
0.0
 11
0.1915993344
 21
-0.2317390404
 31
0.0
 40
0.6704942534
 41
2.2521854991
 42
3.0806755493
  0
ENDSEC
  0
SECTION
  2
OBJECTS
  0
DICTIONARY
  5
C
100
AcDbDictionary
280
0
281
1
  3
ACAD_GROUP
350
D
  3
ACAD_MLINESTYLE
350
17
  3
ACAD_LAYOUT
350
1A
  3
ACAD_PLOTSETTINGS
350
19
  3
ACAD_PLOTSTYLENAME
350
E
  0
DICTIONARY
  5
D
102
{ACAD_REACTORS
330
C
102
}
100
AcDbDictionary
280
0
281
1
  0
ACDBDICTIONARYWDFLT
  5
E
102
{ACAD_REACTORS
330
C
102
}
100
AcDbDictionary
281
1
  3
Normal
350
F
100
AcDbDictionaryWithDefault
340
F
  0
DICTIONARY
  5
17
102
{ACAD_REACTORS
330
C
102
}
100
AcDbDictionary
280
0
281
1
  3
Standard
350
18
  0
DICTIONARY
  5
19
102
{ACAD_REACTORS
330
C
102
}
100
AcDbDictionary
281
1
  0
DICTIONARY
  5
1A
102
{ACAD_REACTORS
330
C
102
}
100
AcDbDictionary
281
1
  3
Model
350
32D
  3
Layout1
350
32E
  0
ACDBPLACEHOLDER
  5
F
102
{ACAD_REACTORS
330
E
102
}
  0
MLINESTYLE
  5
18
102
{ACAD_REACTORS
330
17
102
}
100
AcDbMlineStyle
  2
STANDARD
 70
0
  3

 62
256
 51
90.0
 52
90.0
 71
2
 49
0.5
 62
256
  6
BYLAYER
 49
-0.5
 62
256
  6
BYLAYER
  0
LAYOUT
  5
32D
102
{ACAD_REACTORS
330
1A
102
}
100
AcDbPlotSettings
  1

  2
none_device
  4
ISO_A4_(297.00_x_210.00_MM)
  6

 40
0.0
 41
0.0
 42
0.0
 43
0.0
 44
297.0
 45
210.0
 46
0.0
 47
0.0
 48
0.0
 49
0.0
140
0.0
141
0.0
142
1.0
143
1.0
 70
1024
 72
1
 73
0
 74
0
  7

 75
0
147
1.0
148
0.0
149
0.0
100
AcDbLayout
  1
Model
 70
0
 71
0
 10
0.0
 20
0.0
 11
297.0
 21
210.0
 12
0.0
 22
0.0
 32
0.0
 14
0.0
 24
0.0
 34
0.0
 15
0.0
 25
0.0
 35
0.0
146
0.0
 13
0.0
 23
0.0
 33
0.0
 16
1.0
 26
0.0
 36
0.0
 17
0.0
 27
1.0
 37
0.0
 76
0
330
20E
345
0
346
0
  0
LAYOUT
  5
32E
102
{ACAD_REACTORS
330
1A
102
}
100
AcDbPlotSettings
  1

  2
none_device
  4
ISO_A4_(297.00_x_210.00_MM)
  6

 40
0.0
 41
0.0
 42
0.0
 43
0.0
 44
297.0
 45
210.0
 46
0.0
 47
0.0
 48
0.0
 49
0.0
140
0.0
141
0.0
142
1.0
143
1.0
 70
0
 72
1
 73
0
 74
0
  7

 75
0
147
1.0
148
0.0
149
0.0
100
AcDbLayout
  1
Layout1
 70
0
 71
1
 10
0.0
 20
0.0
 11
297.0
 21
210.0
 12
0.0
 22
0.0
 32
0.0
 14
0.0
 24
0.0
 34
0.0
 15
0.0
 25
0.0
 35
0.0
146
0.0
 13
0.0
 23
0.0
 33
0.0
 16
1.0
 26
0.0
 36
0.0
 17
0.0
 27
1.0
 37
0.0
 76
0
330
20F
345
0
346
0
  0
ENDSEC
  0
EOF
