  0
SECTION
  2
HEADER
  9
$ACADVER
  1
AC1021
  9
$DWGCODEPAGE
  3
ANSI_1252
  9
$EXTMAX
 10
210.0
 20
297.0
 30
0.0
  9
$EXTMIN
 10
0.0
 20
0.0
 30
0.0
  9
$LIMMIN
 10
0.0
 20
0.0
  9
$LIMMAX
 10
210.0
 20
297.0
  9
$VIEWCTR
 10
105.0
 20
148.5
  9
$VIEWSIZE
 40
297.0
  9
$CLAYER
  8
0
  9
$LTSCALE
 40
19.36
  9
$CELTYPE
  6
BYLAYER
  9
$DIMSCALE
 40
1.0
  9
$DIMASZ
 40
3.0
  9
$DIMEXO
 40
0.5
  9
$DIMDLI
 40
13.376
  9
$DIMEXE
 40
1.5
  9
$DIMCEN
 40
3.168
  9
$DIMLFAC
 40
1.0
  9
$DIMBLK
  1
_FILLED
  9
$DIMALT
 70
0
  9
$DIMALTF
 40
0.0393700787
  9
$DIMTXT
 40
3.0
  9
$DIMTOL
 70
1
  9
$DIMLIM
 70
0
  9
$DIMTFAC
 40
1.0
  9
$DIMTP
 40
0.01
  9
$DIMTM
 40
0.01
  9
$DIMGAP
 40
0.625
  9
$DIMDSEP
 70
44
  9
$AUNITS
 70
0
  9
$PDMODE
 70
3
  9
$PDSIZE
 40
3.0
  9
$HANDSEED
  5
587
  9
$TILEMODE
 70
1
  9
$MEASUREMENT
 70
1
  9
$INSUNITS
 70
4
  0
ENDSEC
  0
SECTION
  2
CLASSES
  0
CLASS
  1
ACDBDICTIONARYWDFLT
  2
AcDbDictionaryWithDefault
  3
AutoCAD 2000
 90
0
 91
1
280
0
281
0
  0
CLASS
  1
ACDBPLACEHOLDER
  2
AcDbPlaceHolder
  3
AutoCAD 2000
 90
0
 91
1
280
0
281
0
  0
CLASS
  1
LAYOUT
  2
AcDbLayout
  3
AutoCAD 2000
 90
0
 91
0
280
0
281
0
  0
ENDSEC
  0
SECTION
  2
TABLES
  0
TABLE
  2
VPORT
  5
8
100
AcDbSymbolTable
 70
2
  0
VPORT
  5
1F4
100
AcDbSymbolTableRecord
100
AcDbViewportTableRecord
  2
*ACTIVE
 70
0
 10
0.0
 20
0.0
 11
1.0
 21
1.0
 12
105.0
 22
148.5
 13
0.0
 23
0.0
 14
1.0
 24
1.0
 15
0.0
 25
0.0
 16
0.0
 26
0.0
 36
1.0
 17
0.0
 27
0.0
 37
0.0
 40
297.0
 41
0.7070707071
 42
50.0
 43
0.0
 44
0.0
 50
0.0
 51
0.0
 71
0
 72
100
 73
1
 74
1
 75
0
 76
0
 77
0
 78
0
  0
ENDTAB
  0
TABLE
  2
LTYPE
  5
5
100
AcDbSymbolTable
 70
6
  0
LTYPE
  5
14
100
AcDbSymbolTableRecord
100
AcDbLinetypeTableRecord
  2
BYBLOCK
 70
0
  3

 72
65
 73
0
 40
0.0
  0
LTYPE
  5
15
100
AcDbSymbolTableRecord
100
AcDbLinetypeTableRecord
  2
BYLAYER
 70
0
  3

 72
65
 73
0
 40
0.0
  0
LTYPE
  5
16
100
AcDbSymbolTableRecord
100
AcDbLinetypeTableRecord
  2
CONTINUOUS
 70
64
  3
Solid line
 72
65
 73
0
 40
0.0
  0
LTYPE
  5
1F5
100
AcDbSymbolTableRecord
100
AcDbLinetypeTableRecord
  2
CENTER
 70
64
  3
____ _ ____ _ ____ _ ____ _ ____ _ ____ _ ____
 72
65
 73
4
 40
0.6
 49
0.375
 74
0
 49
-0.075
 74
0
 49
0.075
 74
0
 49
-0.075
 74
0
  0
LTYPE
  5
1F6
100
AcDbSymbolTableRecord
100
AcDbLinetypeTableRecord
  2
HIDDEN
 70
64
  3
- - - - - - - - - - - - - - - - - - - -
 72
65
 73
2
 40
0.2
 49
0.1
 74
0
 49
-0.1
 74
0
  0
LTYPE
  5
1F7
100
AcDbSymbolTableRecord
100
AcDbLinetypeTableRecord
  2
PHANTOM
 70
64
  3
_____ _ _ _____ _ _ _____ _ _ _____
 72
65
 73
6
 40
0.8
 49
0.45
 74
0
 49
-0.05
 74
0
 49
0.1
 74
0
 49
-0.05
 74
0
 49
0.1
 74
0
 49
-0.05
 74
0
  0
LTYPE
  5
1F8
100
AcDbSymbolTableRecord
100
AcDbLinetypeTableRecord
  2
DOT
 70
64
  3
. . . . . . . . . . . . . . . . . . . .
 72
65
 73
2
 40
0.2
 49
0.1
 74
0
 49
-0.1
 74
0
  0
LTYPE
  5
1F9
100
AcDbSymbolTableRecord
100
AcDbLinetypeTableRecord
  2
DASHED
 70
64
  3
- - - - - - - - - - - - - - - - - - - -
 72
65
 73
2
 40
0.2
 49
0.1
 74
0
 49
-0.1
 74
0
  0
ENDTAB
  0
TABLE
  2
LAYER
  5
2
100
AcDbSymbolTable
 70
36
  0
LAYER
  5
10
100
AcDbSymbolTableRecord
100
AcDbLayerTableRecord
  2
0
 70
0
 62
7
  6
CONTINUOUS
370
-3
390
F
  0
LAYER
  5
1FA
100
AcDbSymbolTableRecord
100
AcDbLayerTableRecord
  2
DEFAULT_1
 70
0
 62
7
  6
CENTER
370
-3
390
F
  0
LAYER
  5
1FB
100
AcDbSymbolTableRecord
100
AcDbLayerTableRecord
  2
DEFAULT_2
 70
0
 62
7
  6
HIDDEN
370
-3
390
F
  0
LAYER
  5
1FC
100
AcDbSymbolTableRecord
100
AcDbLayerTableRecord
  2
DEFAULT_3
 70
0
 62
7
  6
PHANTOM
370
-3
390
F
  0
LAYER
  5
1FD
100
AcDbSymbolTableRecord
100
AcDbLayerTableRecord
  2
ASSI
 70
0
 62
7
  6
CONTINUOUS
370
-3
390
F
  0
LAYER
  5
1FE
100
AcDbSymbolTableRecord
100
AcDbLayerTableRecord
  2
COLOR5
 70
0
 62
7
  6
CONTINUOUS
370
-3
390
F
  0
LAYER
  5
1FF
100
AcDbSymbolTableRecord
100
AcDbLayerTableRecord
  2
COORDINATE
 70
0
 62
7
  6
CONTINUOUS
370
-3
390
F
  0
LAYER
  5
200
100
AcDbSymbolTableRecord
100
AcDbLayerTableRecord
  2
COORD_ORIGINE
 70
0
 62
7
  6
CONTINUOUS
370
-3
390
F
  0
LAYER
  5
201
100
AcDbSymbolTableRecord
100
AcDbLayerTableRecord
  2
COSMETICHE
 70
0
 62
7
  6
CONTINUOUS
370
-3
390
F
  0
LAYER
  5
202
100
AcDbSymbolTableRecord
100
AcDbLayerTableRecord
  2
CURVE
 70
0
 62
7
  6
CONTINUOUS
370
-3
390
F
  0
LAYER
  5
203
100
AcDbSymbolTableRecord
100
AcDbLayerTableRecord
  2
DRAFT
 70
0
 62
7
  6
CONTINUOUS
370
-3
390
F
  0
LAYER
  5
204
100
AcDbSymbolTableRecord
100
AcDbLayerTableRecord
  2
IMPORT
 70
0
 62
7
  6
CONTINUOUS
370
-3
390
F
  0
LAYER
  5
205
100
AcDbSymbolTableRecord
100
AcDbLayerTableRecord
  2
INTF_2
 70
0
 62
7
  6
CONTINUOUS
370
-3
390
F
  0
LAYER
  5
206
100
AcDbSymbolTableRecord
100
AcDbLayerTableRecord
  2
INTF_3
 70
0
 62
7
  6
CONTINUOUS
370
-3
390
F
  0
LAYER
  5
207
100
AcDbSymbolTableRecord
100
AcDbLayerTableRecord
  2
INTF_5
 70
0
 62
7
  6
CONTINUOUS
370
-3
390
F
  0
LAYER
  5
208
100
AcDbSymbolTableRecord
100
AcDbLayerTableRecord
  2
INTF_9
 70
0
 62
7
  6
CONTINUOUS
370
-3
390
F
  0
LAYER
  5
209
100
AcDbSymbolTableRecord
100
AcDbLayerTableRecord
  2
INTF_CYAN
 70
0
 62
7
  6
CONTINUOUS
370
-3
390
F
  0
LAYER
  5
20A
100
AcDbSymbolTableRecord
100
AcDbLayerTableRecord
  2
NOTE
 70
0
 62
7
  6
CONTINUOUS
370
-3
390
F
  0
LAYER
  5
20B
100
AcDbSymbolTableRecord
100
AcDbLayerTableRecord
  2
PIANI
 70
0
 62
7
  6
CONTINUOUS
370
-3
390
F
  0
LAYER
  5
20C
100
AcDbSymbolTableRecord
100
AcDbLayerTableRecord
  2
PIANI_ORIGINE
 70
0
 62
7
  6
CONTINUOUS
370
-3
390
F
  0
LAYER
  5
20D
100
AcDbSymbolTableRecord
100
AcDbLayerTableRecord
  2
PIANI_RIFERIMENTO
 70
0
 62
7
  6
CONTINUOUS
370
-3
390
F
  0
LAYER
  5
20E
100
AcDbSymbolTableRecord
100
AcDbLayerTableRecord
  2
PIANI_SFORMO
 70
0
 62
7
  6
CONTINUOUS
370
-3
390
F
  0
LAYER
  5
20F
100
AcDbSymbolTableRecord
100
AcDbLayerTableRecord
  2
PUNTI
 70
0
 62
7
  6
CONTINUOUS
370
-3
390
F
  0
LAYER
  5
210
100
AcDbSymbolTableRecord
100
AcDbLayerTableRecord
  2
RACCORDO
 70
0
 62
7
  6
CONTINUOUS
370
-3
390
F
  0
LAYER
  5
211
100
AcDbSymbolTableRecord
100
AcDbLayerTableRecord
  2
RGB__255__127____0__
 70
0
 62
7
  6
CONTINUOUS
370
-3
390
F
  0
LAYER
  5
212
100
AcDbSymbolTableRecord
100
AcDbLayerTableRecord
  2
RGB__255__255__255__
 70
0
 62
7
  6
CONTINUOUS
370
-3
390
F
  0
LAYER
  5
213
100
AcDbSymbolTableRecord
100
AcDbLayerTableRecord
  2
RGB____0____0____0__
 70
0
 62
7
  6
CONTINUOUS
370
-3
390
F
  0
LAYER
  5
214
100
AcDbSymbolTableRecord
100
AcDbLayerTableRecord
  2
SHELL
 70
0
 62
7
  6
CONTINUOUS
370
-3
390
F
  0
LAYER
  5
215
100
AcDbSymbolTableRecord
100
AcDbLayerTableRecord
  2
SMUSSO
 70
0
 62
7
  6
CONTINUOUS
370
-3
390
F
  0
LAYER
  5
216
100
AcDbSymbolTableRecord
100
AcDbLayerTableRecord
  2
SNAPLINE
 70
0
 62
7
  6
CONTINUOUS
370
-3
390
F
  0
LAYER
  5
217
100
AcDbSymbolTableRecord
100
AcDbLayerTableRecord
  2
SUPERFICI
 70
0
 62
7
  6
CONTINUOUS
370
-3
390
F
  0
LAYER
  5
218
100
AcDbSymbolTableRecord
100
AcDbLayerTableRecord
  2
TRASH
 70
0
 62
7
  6
CONTINUOUS
370
-3
390
F
  0
LAYER
  5
219
100
AcDbSymbolTableRecord
100
AcDbLayerTableRecord
  2
XSEC_DATUMS
 70
0
 62
7
  6
CONTINUOUS
370
-3
390
F
  0
ENDTAB
  0
TABLE
  2
STYLE
  5
3
100
AcDbSymbolTable
 70
1
  0
STYLE
  5
11
100
AcDbSymbolTableRecord
100
AcDbTextStyleTableRecord
  2
STANDARD
 70
0
 40
0.0
 41
0.8
 50
0.0
 71
0
 42
0.2
  3
txt
  4

  0
STYLE
  5
21A
100
AcDbSymbolTableRecord
100
AcDbTextStyleTableRecord
  2
TEXTSTYLE_1
 70
0
 40
0.0
 41
0.8
 50
0.0
 71
0
 42
0.2
  3
gdt
  4

  0
ENDTAB
  0
TABLE
  2
VIEW
  5
6
100
AcDbSymbolTable
 70
0
  0
ENDTAB
  0
TABLE
  2
UCS
  5
7
100
AcDbSymbolTable
 70
0
  0
ENDTAB
  0
TABLE
  2
APPID
  5
9
100
AcDbSymbolTable
 70
1
  0
APPID
  5
21B
100
AcDbSymbolTableRecord
100
AcDbRegAppTableRecord
  2
ACAD
 70
0
  0
ENDTAB
  0
TABLE
  2
BLOCK_RECORD
  5
1
100
AcDbSymbolTable
 70
0
  0
BLOCK_RECORD
  5
21C
100
AcDbSymbolTableRecord
100
AcDbBlockTableRecord
  2
*Model_Space
  0
BLOCK_RECORD
  5
21D
100
AcDbSymbolTableRecord
100
AcDbBlockTableRecord
  2
*Paper_Space
  0
ENDTAB
  0
TABLE
  2
DIMSTYLE
  5
A
100
AcDbSymbolTable
 70
1
100
AcDbDimStyleTable
 71
0
  0
DIMSTYLE
105
21E
100
AcDbSymbolTableRecord
100
AcDbDimStyleTableRecord
  2
STANDARD
 70
0
  3

  4

 40
1.0
 41
3.0
 42
0.5
 43
0.38
 44
1.5
 45
0.0
 46
0.0
 47
0.01
 48
0.01
140
3.0
141
0.09
142
0.0
143
25.4
144
1.0
145
0.0
146
1.0
147
0.625
 71
1.0
 72
0.0
 73
0
 74
0
 75
0
 76
0
 77
1
 78
8
170
0
171
2
172
0
173
0
174
0
175
0
176
0
177
0
178
0
270
2
271
2
272
2
273
2
274
2
275
0
280
0
281
0
282
0
283
1
284
8
285
0
286
0
287
3
288
0
340
11
278
44
  0
ENDTAB
  0
ENDSEC
  0
SECTION
  2
BLOCKS
  0
BLOCK
  5
20
100
AcDbEntity
  8
0
100
AcDbBlockBegin
  2
*Model_Space
 70
0
 10
0.0
 20
0.0
 30
0.0
  3
*Model_Space
  1

  0
ENDBLK
  5
21
100
AcDbEntity
  8
0
100
AcDbBlockEnd
  0
BLOCK
  5
1C
100
AcDbEntity
  8
0
100
AcDbBlockBegin
  2
*Paper_Space
 70
0
 10
0.0
 20
0.0
 30
0.0
  3
*Paper_Space
  1

  0
ENDBLK
  5
1D
100
AcDbEntity
  8
0
100
AcDbBlockEnd
  0
ENDSEC
  0
SECTION
  2
ENTITIES
  0
LWPOLYLINE
  5
21F
100
AcDbEntity
  8
0
100
AcDbPolyline
 62
7
  6
CONTINUOUS
 90
14
 70
0
 10
-35.3973314245
 20
20.9376242473
 10
-35.4152523
 20
20.9192864878
 10
-35.4638910734
 20
20.8638975591
 10
-35.5091814729
 20
20.8039700598
 10
-35.5513832905
 20
20.7395416461
 10
-35.590378346
 20
20.6711028758
 10
-35.6262720303
 20
20.598693786
 10
-35.6590394743
 20
20.5223813848
 10
-35.6881980803
 20
20.4432732944
 10
-35.7136417475
 20
20.3616000574
 10
-35.7351563671
 20
20.2776793038
 10
-35.7522536312
 20
20.192969899
 10
-35.7647171537
 20
20.1080519272
 10
-35.7705396303
 20
20.0490045946
  0
LINE
  5
220
100
AcDbEntity
  8
0
100
AcDbLine
 62
7
  6
CONTINUOUS
 10
-35.3977833557
 20
20.9371754799
 11
-32.3659738213
 21
23.9557260446
  0
LINE
  5
221
100
AcDbEntity
  8
0
100
AcDbLine
 62
253
  6
CONTINUOUS
 10
-35.0580895904
 20
21.0039363571
 11
-32.1546159459
 21
23.8947122815
  0
LWPOLYLINE
  5
222
100
AcDbEntity
  8
0
100
AcDbPolyline
 62
253
  6
CONTINUOUS
 90
24
 70
0
 10
-35.3973314814
 20
20.9376243046
 10
-35.3918764525
 20
20.9428781797
 10
-35.3808663636
 20
20.9526303016
 10
-35.3693121405
 20
20.9617833327
 10
-35.3572325026
 20
20.9703224441
 10
-35.3446470202
 20
20.9782338013
 10
-35.3315760833
 20
20.9855045871
 10
-35.3180408684
 20
20.9921230219
 10
-35.3040633041
 20
20.998078383
 10
-35.2896660357
 20
21.0033610221
 10
-35.2748723885
 20
21.0079623807
 10
-35.25970633
 20
21.011875004
 10
-35.2441924309
 20
21.0150925531
 10
-35.2283558256
 20
21.0176098152
 10
-35.2122221713
 20
21.0194227121
 10
-35.1958176064
 20
21.0205283066
 10
-35.1791687083
 20
21.0209248076
 10
-35.16230245
 20
21.0206115726
 10
-35.145246157
 20
21.0195891092
 10
-35.1280274625
 20
21.0178590738
 10
-35.1106742627
 20
21.0154242694
 10
-35.093214672
 20
21.0122886405
 10
-35.0756769768
 20
21.0084572673
 10
-35.0580895904
 20
21.0039363571
  0
LWPOLYLINE
  5
223
100
AcDbEntity
  8
0
100
AcDbPolyline
 62
7
  6
CONTINUOUS
 90
8
 70
0
 10
-32.5456964041
 20
24.7485008014
 10
-32.5592063806
 20
24.7356370717
 10
-32.5805499167
 20
24.7106433898
 10
-32.5984682994
 20
24.6829979195
 10
-32.6126650664
 20
24.6530615832
 10
-32.6228280029
 20
24.6213114026
 10
-32.6286926779
 20
24.588340171
 10
-32.6301765608
 20
24.5610894583
  0
LINE
  5
224
100
AcDbEntity
  8
0
100
AcDbLine
 62
253
  6
CONTINUOUS
 10
-32.3867581898
 20
24.7716487599
 11
-32.3808310789
 21
24.7770791418
  0
LINE
  5
225
100
AcDbEntity
  8
0
100
AcDbLine
 62
7
  6
CONTINUOUS
 10
-32.5459386574
 20
24.7482867235
 11
-31.4302123581
 21
25.7365361573
  0
LINE
  5
226
100
AcDbEntity
  8
0
100
AcDbLine
 62
253
  6
CONTINUOUS
 10
-32.3808310789
 20
24.7770791418
 11
-31.2653852337
 21
25.7650801646
  0
LINE
  5
227
100
AcDbEntity
  8
0
100
AcDbLine
 62
253
  6
CONTINUOUS
 10
-32.5459386574
 20
24.7482867235
 11
-32.5456964041
 21
24.7485008014
  0
LWPOLYLINE
  5
228
100
AcDbEntity
  8
0
100
AcDbPolyline
 62
253
  6
CONTINUOUS
 90
20
 70
0
 10
-32.5456964041
 20
24.7485008014
 10
-32.5447058988
 20
24.7493658718
 10
-32.5377748308
 20
24.7549877542
 10
-32.530486684
 20
24.7601704054
 10
-32.5228579883
 20
24.7649020765
 10
-32.5149060551
 20
24.7691720403
 10
-32.5066488844
 20
24.7729706408
 10
-32.4981051319
 20
24.7762892965
 10
-32.4892940703
 20
24.7791205081
 10
-32.48023574
 20
24.781457823
 10
-32.4709508644
 20
24.7832959072
 10
-32.4614606205
 20
24.7846306093
 10
-32.4517863983
 20
24.7854589613
 10
-32.4419499402
 20
24.7857791159
 10
-32.4319720314
 20
24.7855902813
 10
-32.4218767419
 20
24.7848927996
 10
-32.411691343
 20
24.783688877
 10
-32.4014404769
 20
24.7819821709
 10
-32.3911459523
 20
24.7797770514
 10
-32.3808310789
 20
24.7770791418
  0
LINE
  5
229
100
AcDbEntity
  8
0
100
AcDbLine
 62
253
  6
CONTINUOUS
 10
-29.1869176329
 20
25.1650782501
 11
-28.8149765357
 21
25.4877744036
  0
LINE
  5
22A
100
AcDbEntity
  8
0
100
AcDbLine
 62
253
  6
CONTINUOUS
 10
-28.9704149459
 20
24.8860766209
 11
-28.5984738488
 21
25.2087727744
  0
LINE
  5
22B
100
AcDbEntity
  8
0
100
AcDbLine
 62
7
  6
CONTINUOUS
 10
-31.4302123595
 20
25.7365361561
 11
-31.4277049502
 21
25.738704883
  0
LINE
  5
22C
100
AcDbEntity
  8
0
100
AcDbLine
 62
253
  6
CONTINUOUS
 10
-30.3227814748
 20
24.1829713953
 11
-29.186918329
 21
25.1650784511
  0
LINE
  5
22D
100
AcDbEntity
  8
0
100
AcDbLine
 62
253
  6
CONTINUOUS
 10
-30.1062780917
 20
23.9039688689
 11
-28.9704149459
 21
24.8860759247
  0
LINE
  5
22E
100
AcDbEntity
  8
0
100
AcDbLine
 62
7
  6
CONTINUOUS
 10
-31.4277049523
 20
25.7387048813
 11
-31.0479045065
 21
26.0594575907
  0
LINE
  5
22F
100
AcDbEntity
  8
0
100
AcDbLine
 62
253
  6
CONTINUOUS
 10
-31.2653859299
 20
25.7650803655
 11
-30.8858725942
 21
26.085590602
  0
LWPOLYLINE
  5
230
100
AcDbEntity
  8
0
100
AcDbPolyline
 62
7
  6
CONTINUOUS
 90
19
 70
0
 10
-31.4277049502
 20
25.738704883
 10
-31.4220615366
 20
25.7432276606
 10
-31.4147751222
 20
25.7484106684
 10
-31.4071503799
 20
25.7531409046
 10
-31.3992045617
 20
25.7574076715
 10
-31.3909556721
 20
25.7612012996
 10
-31.3824224296
 20
25.7645131694
 10
-31.3736241299
 20
25.7673358087
 10
-31.3645806931
 20
25.769662833
 10
-31.3553126671
 20
25.7714889209
 10
-31.3458409979
 20
25.7728099782
 10
-31.336187116
 20
25.773623035
 10
-31.3263729793
 20
25.7739261761
 10
-31.3164207454
 20
25.773718768
 10
-31.3063529307
 20
25.7730013148
 10
-31.2961924944
 20
25.7717753517
 10
-31.2859624617
 20
25.7700436689
 10
-31.2756858705
 20
25.7678102987
 10
-31.2653859299
 20
25.7650803655
  0
LWPOLYLINE
  5
231
100
AcDbEntity
  8
0
100
AcDbPolyline
 62
253
  6
CONTINUOUS
 90
3
 70
0
 10
-31.0479045065
 20
26.0594575907
 10
-31.0422436095
 20
26.0639937936
 10
-31.0352168685
 20
26.0689905565
  0
LINE
  5
232
100
AcDbEntity
  8
0
100
AcDbLine
 62
7
  6
CONTINUOUS
 10
-31.0252174524
 20
26.0765089367
 11
-31.0479757374
 21
26.0593973937
  0
LWPOLYLINE
  5
233
100
AcDbEntity
  8
0
100
AcDbPolyline
 62
253
  6
CONTINUOUS
 90
4
 70
0
 10
-31.0349555034
 20
26.0691764151
 10
-31.0273312794
 20
26.07390423
 10
-31.0193882387
 20
26.07816652
 10
-31.0111443609
 20
26.0819536466
  0
LWPOLYLINE
  5
234
100
AcDbEntity
  8
0
100
AcDbPolyline
 62
7
  6
CONTINUOUS
 90
7
 70
0
 10
-35.61584111
 20
-17.0667531154
 10
-35.5682725686
 20
-17.1215285083
 10
-35.5156265952
 20
-17.1696666074
 10
-35.4588592019
 20
-17.2105975384
 10
-35.3986458205
 20
-17.24416883
 10
-35.3358280873
 20
-17.2702035389
 10
-35.3051240513
 20
-17.279964452
  0
LWPOLYLINE
  5
235
100
AcDbEntity
  8
0
100
AcDbPolyline
 62
253
  6
CONTINUOUS
 90
25
 70
0
 10
-35.7684373765
 20
-16.6564648019
 10
-35.766137538
 20
-16.6683790979
 10
-35.7630537959
 20
-16.6801828405
 10
-35.7591910427
 20
-16.6918573022
 10
-35.7545554069
 20
-16.7033839609
 10
-35.7491542432
 20
-16.7147445287
 10
-35.742996121
 20
-16.7259209814
 10
-35.7360908104
 20
-16.7368955868
 10
-35.7284492673
 20
-16.7476509331
 10
-35.7200836153
 20
-16.7581699562
 10
-35.7110071271
 20
-16.768435967
 10
-35.7012342031
 20
-16.7784326779
 10
-35.6907803486
 20
-16.7881442284
 10
-35.6796621495
 20
-16.7975552106
 10
-35.6678972453
 20
-16.8066506934
 10
-35.6555043019
 20
-16.8154162461
 10
-35.6425029814
 20
-16.8238379618
 10
-35.6289139113
 20
-16.8319024788
 10
-35.6147586513
 20
-16.8395970022
 10
-35.6000596599
 20
-16.8469093243
 10
-35.5848402577
 20
-16.8538278435
 10
-35.5691245915
 20
-16.8603415832
 10
-35.5529375949
 20
-16.866440209
 10
-35.5363049498
 20
-16.8721140449
 10
-35.5192530449
 20
-16.8773540892
  0
LWPOLYLINE
  5
236
100
AcDbEntity
  8
0
100
AcDbPolyline
 62
7
  6
CONTINUOUS
 90
7
 70
0
 10
-35.7699638772
 20
-16.6443046943
 10
-35.7612260603
 20
-16.7141492171
 10
-35.744934795
 20
-16.7938458353
 10
-35.7222509255
 20
-16.8691876299
 10
-35.6930527067
 20
-16.9401869599
 10
-35.6575071386
 20
-17.0061933352
 10
-35.61584111
 20
-17.0667531154
  0
LINE
  5
237
100
AcDbEntity
  8
0
100
AcDbLine
 62
7
  6
CONTINUOUS
 10
-35.7699728639
 20
-16.6442069146
 11
-35.7699639005
 21
-16.6443046965
  0
LWPOLYLINE
  5
238
100
AcDbEntity
  8
0
100
AcDbPolyline
 62
253
  6
CONTINUOUS
 90
16
 70
0
 10
-35.519253046
 20
-16.8773540905
 10
-35.5743157989
 20
-16.2551561701
 10
-35.6260990727
 20
-15.6291694992
 10
-35.6745988173
 20
-14.9994416235
 10
-35.7198111393
 20
-14.3660204237
 10
-35.7617326035
 20
-13.7289539525
 10
-35.8003602314
 20
-13.0882904306
 10
-35.8356910267
 20
-12.4440784555
 10
-35.8677221995
 20
-11.7963669952
 10
-35.8964514675
 20
-11.1452052253
 10
-35.9218766061
 20
-10.4906426256
 10
-35.9439956063
 20
-9.8327288535
 10
-35.9628068968
 20
-9.171513735
 10
-35.9783090588
 20
-8.5070474247
 10
-35.9905008268
 20
-7.839380403
 10
-35.9993812474
 20
-7.1685633506
  0
LWPOLYLINE
  5
239
100
AcDbEntity
  8
RACCORDO
100
AcDbPolyline
 62
7
  6
CONTINUOUS
 90
17
 70
0
 10
-34.3364575542
 20
-12.3543338887
 10
-34.3298045367
 20
-12.4297346285
 10
-34.3158321162
 20
-12.5104134125
 10
-34.2947359658
 20
-12.5910659844
 10
-34.2666291607
 20
-12.6710544817
 10
-34.2318753943
 20
-12.749333994
 10
-34.1905784359
 20
-12.8257057072
 10
-34.1429209469
 20
-12.899730013
 10
-34.0896809996
 20
-12.9701581393
 10
-34.0311134494
 20
-13.0367557821
 10
-33.9674311945
 20
-13.0991930003
 10
-33.899764261
 20
-13.1563801008
 10
-33.8284799175
 20
-13.2080924804
 10
-33.7537990426
 20
-13.2541124356
 10
-33.6768790454
 20
-13.2937395303
 10
-33.5983343037
 20
-13.3267122735
 10
-33.5226330002
 20
-13.3517727262
  0
LWPOLYLINE
  5
23A
100
AcDbEntity
  8
0
100
AcDbPolyline
 62
253
  6
CONTINUOUS
 90
27
 70
0
 10
-36.2493708594
 20
-6.9508311054
 10
-36.2487411739
 20
-6.9610629592
 10
-36.24731949
 20
-6.9712675402
 10
-36.2451080627
 20
-6.9814286622
 10
-36.2421103997
 20
-6.9915302079
 10
-36.2383312558
 20
-7.0015561546
 10
-36.2337766254
 20
-7.0114905994
 10
-36.2284537329
 20
-7.0213177845
 10
-36.2223710213
 20
-7.0310221224
 10
-36.2155381388
 20
-7.0405882203
 10
-36.2079659236
 20
-7.0500009047
 10
-36.1996663864
 20
-7.0592452457
 10
-36.1906526918
 20
-7.0683065799
 10
-36.1809391371
 20
-7.0771705347
 10
-36.1705411295
 20
-7.0858230503
 10
-36.159475162
 20
-7.0942504023
 10
-36.1477587873
 20
-7.1024392235
 10
-36.1354105894
 20
-7.110376525
 10
-36.1224501547
 20
-7.1180497169
 10
-36.1088980407
 20
-7.1254466283
 10
-36.0947757434
 20
-7.1325555263
 10
-36.080105663
 20
-7.1393651351
 10
-36.0649110689
 20
-7.1458646533
 10
-36.0492160622
 20
-7.1520437718
 10
-36.033045538
 20
-7.1578926894
 10
-36.0164251454
 20
-7.1634021286
 10
-35.9993812473
 20
-7.1685633505
  0
LWPOLYLINE
  5
23B
100
AcDbEntity
  8
RACCORDO
100
AcDbPolyline
 62
253
  6
CONTINUOUS
 90
13
 70
0
 10
-35.0756127447
 20
-12.379760281
 10
-35.0991884953
 20
-11.9151315826
 10
-35.1205176602
 20
-11.4589903215
 10
-35.1397114149
 20
-11.0114650841
 10
-35.1568751485
 20
-10.5726891286
 10
-35.1721188177
 20
-10.1427725743
 10
-35.185556645
 20
-9.7218022354
 10
-35.1972904002
 20
-9.3098842596
 10
-35.2074187533
 20
-8.9071290721
 10
-35.2160473004
 20
-8.5136232386
 10
-35.223273101
 20
-8.1294595728
 10
-35.2291848029
 20
-7.754737363
 10
-35.2338716192
 20
-7.3895469456
  0
LWPOLYLINE
  5
23C
100
AcDbEntity
  8
RACCORDO
100
AcDbPolyline
 62
253
  6
CONTINUOUS
 90
11
 70
0
 10
-34.3979277772
 20
-12.256109291
 10
-34.4211957544
 20
-11.7938609569
 10
-34.4424466023
 20
-11.3402988511
 10
-34.4616803208
 20
-10.8954229736
 10
-34.4787901636
 20
-10.4591274687
 10
-34.4938828771
 20
-10.0315181922
 10
-34.5072787004
 20
-9.6129127104
 10
-34.5189853549
 20
-9.2033199416
 10
-34.5289951191
 20
-8.8027309675
 10
-34.537605068
 20
-8.4114366006
 10
-34.5449142266
 20
-8.0295337782
  0
LWPOLYLINE
  5
23D
100
AcDbEntity
  8
RACCORDO
100
AcDbPolyline
 62
253
  6
CONTINUOUS
 90
10
 70
0
 10
-34.0862213343
 20
-12.5812641029
 10
-34.1086945311
 20
-12.0770213342
 10
-34.1291839857
 20
-11.5707552778
 10
-34.1476890237
 20
-11.0624892848
 10
-34.1642085429
 20
-10.5522632501
 10
-34.1787427089
 20
-10.0400843596
 10
-34.1912922967
 20
-9.5259264623
 10
-34.2018567363
 20
-9.0097960444
 10
-34.2104347712
 20
-8.491732855
 10
-34.2170256937
 20
-7.9717602145
  0
LWPOLYLINE
  5
23E
100
AcDbEntity
  8
RACCORDO
100
AcDbPolyline
 62
253
  6
CONTINUOUS
 90
12
 70
0
 10
-33.7042738565
 20
-13.9983293899
 10
-33.7053989108
 20
-13.9396644995
 10
-33.7017795817
 20
-13.8771892446
 10
-33.693484603
 20
-13.8120900345
 10
-33.6806714992
 20
-13.7456031069
 10
-33.663583594
 20
-13.6789910498
 10
-33.6425453882
 20
-13.6135188247
 10
-33.6179563997
 20
-13.5504297495
 10
-33.5902835746
 20
-13.4909218841
 10
-33.5600524192
 20
-13.4361252779
 10
-33.5278370231
 20
-13.3870805157
 10
-33.5040947897
 20
-13.3571364276
  0
LINE
  5
23F
100
AcDbEntity
  8
RACCORDO
100
AcDbLine
 62
253
  6
CONTINUOUS
 10
-34.5449142266
 20
-8.0295337782
 11
-34.5508235699
 21
-7.656925563
  0
LWPOLYLINE
  5
240
100
AcDbEntity
  8
0
100
AcDbPolyline
 62
7
  6
CONTINUOUS
 90
10
 70
0
 10
-36.2493975289
 20
-6.9492396828
 10
-36.2343076599
 20
-7.9827332952
 10
-36.2085359141
 20
-9.1129911486
 10
-36.1731803503
 20
-10.2339352769
 10
-36.1282460068
 20
-11.3453224928
 10
-36.0737396181
 20
-12.4469157532
 10
-36.009669693
 20
-13.538478707
 10
-35.9360463686
 20
-14.6197784608
 10
-35.8528819033
 20
-15.6905794828
 10
-35.7699728639
 20
-16.6442069146
  0
LINE
  5
241
100
AcDbEntity
  8
RACCORDO
100
AcDbLine
 62
253
  6
CONTINUOUS
 10
-34.5508235699
 20
-7.656925563
 11
-34.5553330979
 21
-7.2936119549
  0
LWPOLYLINE
  5
242
100
AcDbEntity
  8
RACCORDO
100
AcDbPolyline
 62
7
  6
CONTINUOUS
 90
10
 70
0
 10
-34.4670419708
 20
-7.7524368659
 10
-34.4611955484
 20
-8.2207399565
 10
-34.4525520206
 20
-8.753263956
 10
-34.4418062847
 20
-9.2838036299
 10
-34.4289585683
 20
-9.8123299024
 10
-34.4140092095
 20
-10.3388187354
 10
-34.3969585414
 20
-10.8632481495
 10
-34.3778069756
 20
-11.3855945363
 10
-34.356555306
 20
-11.9058297465
 10
-34.3364731723
 20
-12.3542400803
  0
LWPOLYLINE
  5
243
100
AcDbEntity
  8
RACCORDO
100
AcDbPolyline
 62
253
  6
CONTINUOUS
 90
10
 70
0
 10
-35.2338716192
 20
-7.3895469456
 10
-35.2522391149
 20
-5.5766415601
 10
-35.2660146295
 20
-3.7598340167
 10
-35.2751981677
 20
-1.9391569228
 10
-35.2797897871
 20
-0.1146650886
 10
-35.2797897863
 20
1.713630788
 10
-35.2751981658
 20
3.5457645895
 10
-35.2660146269
 20
5.3817261352
 10
-35.2522391129
 20
7.221460714
 10
-35.2338716192
 20
9.0649357263
  0
LWPOLYLINE
  5
244
100
AcDbEntity
  8
RACCORDO
100
AcDbPolyline
 62
253
  6
CONTINUOUS
 90
10
 70
0
 10
-34.5553330979
 20
-7.2936119549
 10
-34.5736826203
 20
-5.4824667349
 10
-34.5874447618
 20
-3.6674876069
 10
-34.5966195222
 20
-1.8486745708
 10
-34.6012069011
 20
-0.026016535
 10
-34.6012068991
 20
1.8004754089
 10
-34.5966195175
 20
3.6307679853
 10
-34.5874447571
 20
5.4648501024
 10
-34.5736826172
 20
7.3027328521
 10
-34.5553330979
 20
9.1444162343
  0
LWPOLYLINE
  5
245
100
AcDbEntity
  8
0
100
AcDbPolyline
 62
253
  6
CONTINUOUS
 90
13
 70
0
 10
-35.9993812474
 20
-7.1685633506
 10
-36.0127545399
 20
-5.8094762782
 10
-36.0236961764
 20
-4.4481546497
 10
-36.0322061945
 20
-3.0846122541
 10
-36.0382846258
 20
-1.718872054
 10
-36.0419316234
 20
-0.3509387558
 10
-36.0431472951
 20
1.0192013369
 10
-36.0419316243
 20
2.3915344892
 10
-36.0382846272
 20
3.7660469342
 10
-36.0322061963
 20
5.1427525497
 10
-36.0236961781
 20
6.5216468932
 10
-36.0127545411
 20
7.9027070582
 10
-35.9993812474
 20
9.2859193213
  0
LWPOLYLINE
  5
246
100
AcDbEntity
  8
RACCORDO
100
AcDbPolyline
 62
253
  6
CONTINUOUS
 90
10
 70
0
 10
-34.2170256937
 20
-7.9717602145
 10
-34.234316218
 20
-6.1591665176
 10
-34.2472840079
 20
-4.3425926619
 10
-34.2559290662
 20
-2.522071253
 10
-34.2602514483
 20
-0.6976569899
 10
-34.2602514504
 20
1.1306393224
 10
-34.2559290719
 20
2.9628512384
 10
-34.2472840153
 20
4.7989684671
 10
-34.234316224
 20
6.6389364067
 10
-34.2170256937
 20
8.4827224574
  0
LWPOLYLINE
  5
247
100
AcDbEntity
  8
0
100
AcDbPolyline
 62
253
  6
CONTINUOUS
 90
28
 70
0
 10
-36.2493986139
 20
9.4994281794
 10
-36.2493708583
 20
9.4953425387
 10
-36.2487411728
 20
9.4856736262
 10
-36.2473194888
 20
9.4760181736
 10
-36.2451080615
 20
9.4663914959
 10
-36.2421103984
 20
9.4568088628
 10
-36.2383312545
 20
9.4472854739
 10
-36.233776624
 20
9.437836435
 10
-36.2284537315
 20
9.4284767339
 10
-36.2223710199
 20
9.4192212166
 10
-36.2155381374
 20
9.4100845639
 10
-36.2079659221
 20
9.4010812682
 10
-36.199666385
 20
9.3922256102
 10
-36.1906526904
 20
9.3835316364
 10
-36.1809391356
 20
9.3750131371
 10
-36.170541128
 20
9.3666836241
 10
-36.1594751606
 20
9.3585563092
 10
-36.1477587858
 20
9.3506440839
 10
-36.135410588
 20
9.3429594983
 10
-36.1224501533
 20
9.3355147414
 10
-36.1088980394
 20
9.328321622
 10
-36.094775742
 20
9.3213915494
 10
-36.0801056617
 20
9.3147355161
 10
-36.0649110676
 20
9.3083640795
 10
-36.049216061
 20
9.3022873459
 10
-36.0330455368
 20
9.2965149541
 10
-36.0164251443
 20
9.29105606
 10
-35.9993812462
 20
9.2859193223
  0
LWPOLYLINE
  5
248
100
AcDbEntity
  8
RACCORDO
100
AcDbPolyline
 62
253
  6
CONTINUOUS
 90
12
 70
0
 10
-34.4670430558
 20
8.6962315502
 10
-34.4670153026
 20
8.6921456751
 10
-34.4637316492
 20
8.667040872
 10
-34.4551265976
 20
8.6421923735
 10
-34.4412923455
 20
8.617866415
 10
-34.4223771179
 20
8.5943236334
 10
-34.3985835792
 20
8.5718162744
 10
-34.3701666616
 20
8.5505854896
 10
-34.337430834
 20
8.5308587531
 10
-34.3007268395
 20
8.5128474241
 10
-34.2604479376
 20
8.4967444822
 10
-34.2170256904
 20
8.4827224601
  0
LWPOLYLINE
  5
249
100
AcDbEntity
  8
RACCORDO
100
AcDbPolyline
 62
253
  6
CONTINUOUS
 90
12
 70
0
 10
-34.3365413124
 20
13.5309589615
 10
-34.3365879655
 20
13.523980168
 10
-34.3332405584
 20
13.5012218322
 10
-34.3245761039
 20
13.4785519268
 10
-34.31068744
 20
13.4562133559
 10
-34.2917233814
 20
13.4344454731
 10
-34.2678871246
 20
13.4134815177
 10
-34.2394340708
 20
13.3935461146
 10
-34.2066690896
 20
13.3748528682
 10
-34.169943252
 20
13.3576020734
 10
-34.1296500687
 20
13.3419785693
 10
-34.0862212743
 20
13.3281497591
  0
LWPOLYLINE
  5
24A
100
AcDbEntity
  8
0
100
AcDbPolyline
 62
7
  6
CONTINUOUS
 90
10
 70
0
 10
-36.2493986122
 20
9.4994284513
 10
-36.2659985484
 20
7.7390293273
 10
-36.2793039112
 20
5.8746601563
 10
-36.2881705069
 20
4.0142007135
 10
-36.2925981257
 20
2.1576862332
 10
-36.292586647
 20
0.3051495201
 10
-36.2881360146
 20
-1.5433773154
 10
-36.2792462359
 20
-3.3878615863
 10
-36.2659174084
 20
-5.2282683277
 10
-36.2493975256
 20
-6.9492400538
  0
LWPOLYLINE
  5
24B
100
AcDbEntity
  8
RACCORDO
100
AcDbPolyline
 62
7
  6
CONTINUOUS
 90
10
 70
0
 10
-34.4670430584
 20
8.696231586
 10
-34.4838997512
 20
6.9048912336
 10
-34.4970762241
 20
5.0499270799
 10
-34.505858392
 20
3.1988324043
 10
-34.5102459649
 20
1.3516452611
 10
-34.510238848
 20
-0.4916027564
 10
-34.5058369849
 20
-2.3308825358
 10
-34.4970403557
 20
-4.1661626023
 10
-34.4838491362
 20
-5.9974053706
 10
-34.4670419717
 20
-7.7524369156
  0
LWPOLYLINE
  5
24C
100
AcDbEntity
  8
RACCORDO
100
AcDbPolyline
 62
253
  6
CONTINUOUS
 90
8
 70
0
 10
-34.5553330979
 20
9.1444162343
 10
-34.5492143022
 20
9.641879354
 10
-34.5404342773
 20
10.1599777923
 10
-34.5289930231
 20
10.6987115493
 10
-34.5151324622
 20
11.2579167643
 10
-34.498610672
 20
11.837757298
 10
-34.4787018852
 20
12.4387247318
 10
-34.4551641792
 20
13.0609829264
  0
LWPOLYLINE
  5
24D
100
AcDbEntity
  8
RACCORDO
100
AcDbPolyline
 62
253
  6
CONTINUOUS
 90
10
 70
0
 10
-34.2170256937
 20
8.4827224574
 10
-34.2104347735
 20
9.0145826549
 10
-34.2018567439
 20
9.5481172057
 10
-34.191292314
 20
10.0833015625
 10
-34.1787427464
 20
10.6200936144
 10
-34.164208609
 20
11.1584860704
 10
-34.1476891085
 20
11.6985069805
 10
-34.1291840665
 20
12.2401496366
 10
-34.1086945855
 20
12.7833720532
 10
-34.0862213343
 20
13.3281497155
  0
LWPOLYLINE
  5
24E
100
AcDbEntity
  8
0
100
AcDbPolyline
 62
253
  6
CONTINUOUS
 90
16
 70
0
 10
-35.9993812474
 20
9.2859193213
 10
-35.9905008268
 20
9.972753559
 10
-35.9783090587
 20
10.6624100619
 10
-35.9628068968
 20
11.3548364981
 10
-35.9439956062
 20
12.0499803153
 10
-35.9218766061
 20
12.7477887812
 10
-35.8964514675
 20
13.4482089883
 10
-35.8677221995
 20
14.1511878534
 10
-35.8356910267
 20
14.8566719897
 10
-35.8003602314
 20
15.5646077462
 10
-35.7617326035
 20
16.2749413765
 10
-35.7198111393
 20
16.9876190396
 10
-35.6745988173
 20
17.7025866739
 10
-35.6260990727
 20
18.4197900486
 10
-35.5743157989
 20
19.1391747673
 10
-35.519253046
 20
19.8606862691
  0
LWPOLYLINE
  5
24F
100
AcDbEntity
  8
RACCORDO
100
AcDbPolyline
 62
253
  6
CONTINUOUS
 90
10
 70
0
 10
-35.2338716192
 20
9.0649357263
 10
-35.227352021
 20
9.5654401744
 10
-35.2185952515
 20
10.0863874645
 10
-35.2073884026
 20
10.6279290217
 10
-35.1935185131
 20
11.1902033896
 10
-35.1767501979
 20
11.7733775146
 10
-35.1568250365
 20
12.3776467481
 10
-35.1334917859
 20
13.0031783812
 10
-35.1065071044
 20
13.6501105719
 10
-35.0756127447
 20
14.3185939059
  0
LWPOLYLINE
  5
250
100
AcDbEntity
  8
RACCORDO
100
AcDbPolyline
 62
253
  6
CONTINUOUS
 90
9
 70
0
 10
-33.7042738565
 20
15.3079617294
 10
-33.7053989119
 20
15.2473482398
 10
-33.7017795913
 20
15.1911418802
 10
-33.6934846255
 20
15.1404100098
 10
-33.6806715359
 20
15.0961160275
 10
-33.6635836434
 20
15.0591010764
 10
-33.6425454472
 20
15.0300680709
 10
-33.6179564628
 20
15.009568348
 10
-33.5944902417
 20
14.9991130222
  0
LWPOLYLINE
  5
251
100
AcDbEntity
  8
RACCORDO
100
AcDbPolyline
 62
7
  6
CONTINUOUS
 90
10
 70
0
 10
-34.3365539712
 20
13.5309595094
 10
-34.3568649026
 20
13.0405614555
 10
-34.3780753432
 20
12.482482517
 10
-34.3971896141
 20
11.9260214795
 10
-34.4142064232
 20
11.3712083493
 10
-34.429124858
 20
10.8180680551
 10
-34.4419440845
 20
10.2666238715
 10
-34.4526632685
 20
9.716900919
 10
-34.4612816916
 20
9.1689290409
 10
-34.4670430558
 20
8.6962315502
  0
LWPOLYLINE
  5
252
100
AcDbEntity
  8
RACCORDO
100
AcDbPolyline
 62
253
  6
CONTINUOUS
 90
3
 70
0
 10
-34.4551641792
 20
13.0609829264
 10
-34.4282394766
 20
13.7043680211
 10
-34.3979277772
 20
14.3688800159
  0
LWPOLYLINE
  5
253
100
AcDbEntity
  8
0
100
AcDbPolyline
 62
253
  6
CONTINUOUS
 90
29
 70
0
 10
-35.7705396303
 20
20.0490045946
 10
-35.7706031411
 20
20.0480667129
 10
-35.7706718989
 20
20.0404546942
 10
-35.7699495593
 20
20.032794677
 10
-35.7684372681
 20
20.0250988142
 10
-35.7661374249
 20
20.017379316
 10
-35.7630536784
 20
20.0096484297
 10
-35.7591909212
 20
20.0019184209
 10
-35.7545552818
 20
19.9942015538
 10
-35.7491541149
 20
19.9865100715
 10
-35.7429959898
 20
19.9788561772
 10
-35.7360906767
 20
19.9712520142
 10
-35.7284491314
 20
19.9637096469
 10
-35.7200834777
 20
19.9562410419
 10
-35.7110069881
 20
19.9488580485
 10
-35.7012340631
 20
19.9415723803
 10
-35.6907802081
 20
19.9343955965
 10
-35.6796620087
 20
19.9273390835
 10
-35.6678971046
 20
19.9204140368
 10
-35.6555041616
 20
19.9136314435
 10
-35.6425028419
 20
19.9070020646
 10
-35.6289137729
 20
19.900536418
 10
-35.6147585144
 20
19.8942447619
 10
-35.6000595247
 20
19.8881370784
 10
-35.5848401246
 20
19.8822230576
 10
-35.5691244606
 20
19.8765120826
 10
-35.5529374667
 20
19.8710132142
 10
-35.5363048244
 20
19.8657351766
 10
-35.5192529226
 20
19.8606863438
  0
LWPOLYLINE
  5
254
100
AcDbEntity
  8
0
100
AcDbPolyline
 62
7
  6
CONTINUOUS
 90
10
 70
0
 10
-35.7705163199
 20
20.0493111434
 10
-35.8540035705
 20
18.9379741845
 10
-35.9369569723
 20
17.7191667523
 10
-36.0104028118
 20
16.5067842561
 10
-36.0743238744
 20
15.3010887216
 10
-36.1287049886
 20
14.102337819
 10
-36.1735326391
 20
12.9107909233
 10
-36.2087952549
 20
11.7267027225
 10
-36.2344830229
 20
10.5503297296
 10
-36.2493986139
 20
9.4994281794
  0
LWPOLYLINE
  5
255
100
AcDbEntity
  8
RACCORDO
100
AcDbPolyline
 62
253
  6
CONTINUOUS
 90
22
 70
0
 10
-34.0862213343
 20
13.3281497155
 10
-34.0835184985
 20
13.3618432971
 10
-34.0784699906
 20
13.3943546483
 10
-34.0710761609
 20
13.425683509
 10
-34.0612695057
 20
13.4560090912
 10
-34.0491181267
 20
13.4851517386
 10
-34.0348261631
 20
13.5125726126
 10
-34.0183581648
 20
13.538226343
 10
-33.9997509759
 20
13.5621572832
 10
-33.9793178191
 20
13.5839607174
 10
-33.957029948
 20
13.6035981041
 10
-33.9329178481
 20
13.6211067244
 10
-33.9073840007
 20
13.6361953019
 10
-33.8804024195
 20
13.648822595
 10
-33.8520008262
 20
13.6590285929
 10
-33.8226624534
 20
13.6666437302
 10
-33.792359423
 20
13.6716179103
 10
-33.7611210043
 20
13.6740002287
 10
-33.7295161435
 20
13.6737699132
 10
-33.697734761
 20
13.6709198447
 10
-33.6655877047
 20
13.6654565906
 10
-33.6330751655
 20
13.6573800136
  0
LWPOLYLINE
  5
256
100
AcDbEntity
  8
0
100
AcDbPolyline
 62
253
  6
CONTINUOUS
 90
43
 70
0
 10
-35.519253046
 20
19.8606862691
 10
-35.5166019044
 20
19.8908633935
 10
-35.5134363747
 20
19.9213280755
 10
-35.5097598812
 20
19.9520479723
 10
-35.5055764957
 20
19.9829903458
 10
-35.5008906474
 20
20.0141224791
 10
-35.4957070928
 20
20.0454117198
 10
-35.4900313876
 20
20.0768251248
 10
-35.4838696545
 20
20.10832911
 10
-35.4772282876
 20
20.1398898715
 10
-35.4701145043
 20
20.1714737959
 10
-35.4625359276
 20
20.2030475042
 10
-35.4545003328
 20
20.234577509
 10
-35.4460163972
 20
20.2660303953
 10
-35.4370932498
 20
20.2973727702
 10
-35.4277400612
 20
20.3285713042
 10
-35.4179669198
 20
20.3595929542
 10
-35.4077843512
 20
20.3904047736
 10
-35.3972028625
 20
20.4209738638
 10
-35.3862338953
 20
20.4512677796
 10
-35.374889245
 20
20.4812544319
 10
-35.3631805779
 20
20.5109018978
 10
-35.351120534
 20
20.540178752
 10
-35.3387220993
 20
20.5690539514
 10
-35.325998025
 20
20.5974967361
 10
-35.3129620277
 20
20.6254769953
 10
-35.2996281624
 20
20.6529650321
 10
-35.2860101937
 20
20.6799314485
 10
-35.272122839
 20
20.7063476396
 10
-35.2579810413
 20
20.7321856504
 10
-35.2435993412
 20
20.7574179379
 10
-35.2289932646
 20
20.7820177584
 10
-35.2141785423
 20
20.8059590684
 10
-35.1991703817
 20
20.8292163744
 10
-35.1839849115
 20
20.8517651387
 10
-35.1686385556
 20
20.8735813719
 10
-35.1531472547
 20
20.8946415469
 10
-35.1375278469
 20
20.9149232175
 10
-35.1217970477
 20
20.9344051119
 10
-35.1059708192
 20
20.9530666906
 10
-35.0900658899
 20
20.9708882021
 10
-35.0740997418
 20
20.9878507457
 10
-35.0580895904
 20
21.0039363571
  0
LWPOLYLINE
  5
257
100
AcDbEntity
  8
RACCORDO
100
AcDbPolyline
 62
253
  6
CONTINUOUS
 90
28
 70
0
 10
-35.0756127447
 20
14.3185939059
 10
-35.0644085955
 20
14.4316383258
 10
-35.0458511624
 20
14.5384300324
 10
-35.0199498823
 20
14.6389620782
 10
-34.9857804552
 20
14.7336817016
 10
-34.9442840274
 20
14.8221293363
 10
-34.8982719785
 20
14.9029352163
 10
-34.8479246754
 20
14.9753971648
 10
-34.7930856038
 20
15.040200324
 10
-34.7360638233
 20
15.0980538416
 10
-34.6770933672
 20
15.1487971605
 10
-34.6159582416
 20
15.1925781045
 10
-34.5542903216
 20
15.2305699336
 10
-34.4923012171
 20
15.2627527103
 10
-34.4297911609
 20
15.2891380839
 10
-34.3677723367
 20
15.3109485427
 10
-34.3063822101
 20
15.3282301851
 10
-34.2454902502
 20
15.3409320889
 10
-34.1857046278
 20
15.3501326216
 10
-34.1270449646
 20
15.3558767592
 10
-34.0694953131
 20
15.3581169805
 10
-34.0136092274
 20
15.3577937831
 10
-33.9599456285
 20
15.3550691435
 10
-33.9079473007
 20
15.3497799072
 10
-33.8564928782
 20
15.3423793685
 10
-33.8052087006
 20
15.3330185372
 10
-33.7544689797
 20
15.3215460232
 10
-33.7042738565
 20
15.3079617294
  0
LWPOLYLINE
  5
258
100
AcDbEntity
  8
RACCORDO
100
AcDbPolyline
 62
253
  6
CONTINUOUS
 90
11
 70
0
 10
-34.3979277772
 20
14.3688800159
 10
-34.3896078442
 20
14.4449602306
 10
-34.3755379372
 20
14.5172938793
 10
-34.3561407584
 20
14.5855683743
 10
-34.3317366652
 20
14.6497739838
 10
-34.3028700747
 20
14.709478417
 10
-34.2704637317
 20
14.7639339152
 10
-34.2352736901
 20
14.8129870415
 10
-34.1977286303
 20
14.8569845703
 10
-34.1583541569
 20
14.8961037955
 10
-34.1256911076
 20
14.9241536766
  0
LWPOLYLINE
  5
259
100
AcDbEntity
  8
0
100
AcDbPolyline
 62
253
  6
CONTINUOUS
 90
24
 70
0
 10
-32.4939546183
 20
24.5522665655
 10
-32.491371756
 20
24.5637482164
 10
-32.488538677
 20
24.575224004
 10
-32.4854617565
 20
24.5866681048
 10
-32.4821479183
 20
24.5980547669
 10
-32.4786046194
 20
24.6093583674
 10
-32.4748398331
 20
24.6205534704
 10
-32.470862031
 20
24.6316148842
 10
-32.4666801642
 20
24.6425177178
 10
-32.4623036429
 20
24.6532374372
 10
-32.4577423154
 20
24.6637499204
 10
-32.4530064458
 20
24.6740315116
 10
-32.4481066911
 20
24.6840590748
 10
-32.4430540767
 20
24.6938100454
 10
-32.4378599725
 20
24.7032624813
 10
-32.4325360663
 20
24.7123951123
 10
-32.4270943383
 20
24.7211873876
 10
-32.4215470338
 20
24.7296195224
 10
-32.4159066356
 20
24.7376725425
 10
-32.4101858358
 20
24.7453283263
 10
-32.4043975079
 20
24.7525696467
 10
-32.3985546768
 20
24.7593802087
 10
-32.3926704905
 20
24.765744687
 10
-32.3867581898
 20
24.7716487599
  0
LWPOLYLINE
  5
25A
100
AcDbEntity
  8
0
100
AcDbPolyline
 62
253
  6
CONTINUOUS
 90
32
 70
0
 10
-30.1062780917
 20
23.5628605793
 10
-30.1095144814
 20
23.5514715888
 10
-30.1132309441
 20
23.540247923
 10
-30.1174194179
 20
23.5292150102
 10
-30.1220711291
 20
23.5183970808
 10
-30.1271755894
 20
23.507819535
 10
-30.1327202854
 20
23.4975086972
 10
-30.1386921951
 20
23.4874886508
 10
-30.1450782666
 20
23.4777811724
 10
-30.151864222
 20
23.4684079943
 10
-30.1590348616
 20
23.4593901825
 10
-30.1665739279
 20
23.4507482499
 10
-30.1744642562
 20
23.4425018963
 10
-30.1826879667
 20
23.4346697996
 10
-30.1912265466
 20
23.4272695829
 10
-30.2000607343
 20
23.4203179422
 10
-30.2091705963
 20
23.4138305689
 10
-30.2185355504
 20
23.407822126
 10
-30.2281344298
 20
23.4023061961
 10
-30.2379455513
 20
23.3972952383
 10
-30.2479467669
 20
23.392800564
 10
-30.2581154929
 20
23.3888323227
 10
-30.2684287669
 20
23.3853994752
 10
-30.2788632997
 20
23.3825097736
 10
-30.2893955285
 20
23.3801697434
 10
-30.3000016822
 20
23.3783846669
 10
-30.3106577982
 20
23.3771585782
 10
-30.3213397756
 20
23.3764942473
 10
-30.3320234678
 20
23.376393168
 10
-30.342684775
 20
23.3768555603
 10
-30.3532996606
 20
23.3778803788
 10
-30.3556623728
 20
23.3781859878
  0
LWPOLYLINE
  5
25B
100
AcDbEntity
  8
0
100
AcDbPolyline
 62
7
  6
CONTINUOUS
 90
4
 70
0
 10
-28.5947806024
 20
24.806093482
 10
-28.5821337677
 20
24.833975758
 10
-28.5730331991
 20
24.8630191802
 10
-28.5675428466
 20
24.8928421956
  0
LINE
  5
25C
100
AcDbEntity
  8
0
100
AcDbLine
 62
253
  6
CONTINUOUS
 10
-28.9704149459
 20
24.1590317684
 11
-28.5984738488
 21
24.8612412576
  0
LINE
  5
25D
100
AcDbEntity
  8
0
100
AcDbLine
 62
7
  6
CONTINUOUS
 10
-28.9704149459
 20
24.0969112956
 11
-28.5947806024
 21
24.806093482
  0
LWPOLYLINE
  5
25E
100
AcDbEntity
  8
0
100
AcDbPolyline
 62
7
  6
CONTINUOUS
 90
37
 70
0
 10
-29.6017435518
 20
23.4945642723
 10
-29.6065175952
 20
23.4860692116
 10
-29.6115903776
 20
23.4776348422
 10
-29.6169617235
 20
23.4692743005
 10
-29.622634074
 20
23.4610017687
 10
-29.6286031757
 20
23.4528297511
 10
-29.6348582187
 20
23.4447691293
 10
-29.6413972793
 20
23.4368337346
 10
-29.6482177449
 20
23.429037186
 10
-29.6553072909
 20
23.4213903381
 10
-29.6626625241
 20
23.4139072998
 10
-29.670279408
 20
23.4066019193
 10
-29.6781441762
 20
23.3994849577
 10
-29.6862519032
 20
23.3925706615
 10
-29.6945970444
 20
23.385872988
 10
-29.703164419
 20
23.3794025811
 10
-29.7119475078
 20
23.3731736702
 10
-29.7209391605
 20
23.367200192
 10
-29.7301227321
 20
23.3614926794
 10
-29.7394900292
 20
23.3560651769
 10
-29.7490321966
 20
23.3509314337
 10
-29.7587310171
 20
23.3461018578
 10
-29.7685765292
 20
23.3415901064
 10
-29.7785580727
 20
23.3374095278
 10
-29.7886557158
 20
23.3335703306
 10
-29.7988576203
 20
23.3300855347
 10
-29.8091512396
 20
23.3269678088
 10
-29.8195148086
 20
23.3242269806
 10
-29.8299344891
 20
23.3218751232
 10
-29.8403958198
 20
23.3199238683
 10
-29.8508752326
 20
23.3183823406
 10
-29.8613567915
 20
23.3172612857
 10
-29.871824151
 20
23.31657088
 10
-29.8822521923
 20
23.3163191153
 10
-29.8926118977
 20
23.316514581
 10
-29.9028961587
 20
23.3171648753
 10
-29.9136239742
 20
23.3183494696
  0
LWPOLYLINE
  5
25F
100
AcDbEntity
  8
0
100
AcDbPolyline
 62
7
  6
CONTINUOUS
 90
7
 70
0
 10
-21.8886492213
 20
27.0049257339
 10
-21.8890317194
 20
27.0044876633
 10
-21.8900123679
 20
27.0036130998
 10
-21.8915672944
 20
27.0023430028
 10
-21.8936694353
 20
27.0006922573
 10
-21.8962955784
 20
26.9986638236
 10
-21.8994401177
 20
26.996280428
  0
LWPOLYLINE
  5
260
100
AcDbEntity
  8
RACCORDO
100
AcDbPolyline
 62
7
  6
CONTINUOUS
 90
11
 70
0
 10
-34.067224782
 20
14.1331389696
 10
-34.0988263756
 20
14.102047173
 10
-34.1448307984
 20
14.0500007925
 10
-34.1866273436
 20
13.9937862145
 10
-34.2238560492
 20
13.9337574761
 10
-34.2561939442
 20
13.87028096
 10
-34.2833964693
 20
13.8037156006
 10
-34.305247224
 20
13.7344827281
 10
-34.3215572592
 20
13.6630103949
 10
-34.3321986994
 20
13.5896973398
 10
-34.3365380205
 20
13.5310347356
  0
LINE
  5
261
100
AcDbEntity
  8
0
100
AcDbLine
 62
7
  6
CONTINUOUS
 10
-25.9728196817
 20
22.1072263748
 11
-26.4728196817
 21
21.6288272047
  0
LINE
  5
262
100
AcDbEntity
  8
0
100
AcDbLine
 62
7
  6
CONTINUOUS
 10
-28.9704149459
 20
23.2839259599
 11
-29.6017435518
 21
22.6869387517
  0
LINE
  5
263
100
AcDbEntity
  8
0
100
AcDbLine
 62
7
  6
CONTINUOUS
 10
-26.5455438153
 20
23.9695666059
 11
-27.2887420055
 21
23.31128223
  0
LINE
  5
264
100
AcDbEntity
  8
0
100
AcDbLine
 62
7
  6
CONTINUOUS
 10
-26.4728196817
 20
23.0757457433
 11
-25.8733432781
 21
23.6003442371
  0
LINE
  5
265
100
AcDbEntity
  8
0
100
AcDbLine
 62
7
  6
CONTINUOUS
 10
-23.5229576647
 20
28.0101407414
 11
-28.4754533343
 21
23.7133547308
  0
LINE
  5
266
100
AcDbEntity
  8
0
100
AcDbLine
 62
7
  6
CONTINUOUS
 10
-23.9232217768
 20
27.7643230314
 11
-28.5878606076
 21
23.7458039156
  0
LINE
  5
267
100
AcDbEntity
  8
0
100
AcDbLine
 62
7
  6
CONTINUOUS
 10
-21.9713652489
 20
26.9431188768
 11
-25.2228196817
 21
24.1600409194
  0
LINE
  5
268
100
AcDbEntity
  8
0
100
AcDbLine
 62
7
  6
CONTINUOUS
 10
-22.7562868134
 20
27.1697062151
 11
-26.5455438153
 21
23.9695666059
  0
LINE
  5
269
100
AcDbEntity
  8
RACCORDO
100
AcDbLine
 62
7
  6
CONTINUOUS
 10
-20.8540232812
 20
27.411149132
 11
-11.8965950482
 21
34.6021178461
  0
LINE
  5
26A
100
AcDbEntity
  8
0
100
AcDbLine
 62
7
  6
CONTINUOUS
 10
-21.8994401177
 20
26.996280428
 11
-21.9072258697
 21
26.9904884676
  0
LINE
  5
26B
100
AcDbEntity
  8
0
100
AcDbLine
 62
7
  6
CONTINUOUS
 10
-21.9072258697
 20
26.9904884676
 11
-21.9169536288
 21
26.983380116
  0
LINE
  5
26C
100
AcDbEntity
  8
0
100
AcDbLine
 62
7
  6
CONTINUOUS
 10
-21.9169536288
 20
26.983380116
 11
-21.9285544879
 21
26.975021504
  0
LWPOLYLINE
  5
26D
100
AcDbEntity
  8
RACCORDO
100
AcDbPolyline
 62
253
  6
CONTINUOUS
 90
12
 70
0
 10
-11.8965953484
 20
34.6021176051
 10
-11.7728788749
 20
34.6909031379
 10
-11.6503356277
 20
34.7609483875
 10
-11.520390948
 20
34.8192300905
 10
-11.3837731349
 20
34.8654205069
 10
-11.2412497352
 20
34.8992594235
 10
-11.0936184234
 20
34.920558341
 10
-10.9417026328
 20
34.9291992184
 10
-10.7863512488
 20
34.9251327555
 10
-10.6284318643
 20
34.9083815479
 10
-10.468826077
 20
34.8790404435
 10
-10.3084249625
 20
34.8372741932
  0
LWPOLYLINE
  5
26E
100
AcDbEntity
  8
0
100
AcDbPolyline
 62
7
  6
CONTINUOUS
 90
7
 70
0
 10
-21.9493410367
 20
26.9602859279
 10
-21.9529959185
 20
26.9576714499
 10
-21.9566571283
 20
26.954958293
 10
-21.9603246663
 20
26.9521464573
 10
-21.9639985324
 20
26.9492359426
 10
-21.9676787266
 20
26.9462267492
 10
-21.9713652489
 20
26.9431188768
  0
LWPOLYLINE
  5
26F
100
AcDbEntity
  8
0
100
AcDbPolyline
 62
7
  6
CONTINUOUS
 90
3
 70
0
 10
-21.9285544879
 20
26.975021504
 10
-21.9419764714
 20
26.965481934
 10
-21.9493410367
 20
26.9602859279
  0
LWPOLYLINE
  5
270
100
AcDbEntity
  8
0
100
AcDbPolyline
 62
7
  6
CONTINUOUS
 90
7
 70
0
 10
-22.7327095481
 20
27.1877252318
 10
-22.7248747801
 20
27.1926749011
 10
-22.7165927686
 20
27.1970925359
 10
-22.7078694131
 20
27.2009699908
 10
-22.6987169104
 20
27.2043010037
 10
-22.6891371761
 20
27.2070758897
 10
-22.6791194295
 20
27.2092805756
  0
LWPOLYLINE
  5
271
100
AcDbEntity
  8
0
100
AcDbPolyline
 62
253
  6
CONTINUOUS
 90
14
 70
0
 10
-31.0111443609
 20
26.0819536466
 10
-31.0026182715
 20
26.0852570544
 10
-30.9938292035
 20
26.0880692781
 10
-30.984797147
 20
26.0903839087
 10
-30.9755427654
 20
26.092195664
 10
-30.9660871661
 20
26.093500453
 10
-30.9564516602
 20
26.0942953754
 10
-30.9466579026
 20
26.0945786592
 10
-30.9367265898
 20
26.0943495901
 10
-30.9266816788
 20
26.0936086064
 10
-30.916550299
 20
26.0923580333
 10
-30.9063569558
 20
26.0906016443
 10
-30.8961233316
 20
26.0883439188
 10
-30.8858725942
 20
26.085590602
  0
LWPOLYLINE
  5
272
100
AcDbEntity
  8
RACCORDO
100
AcDbPolyline
 62
253
  6
CONTINUOUS
 90
4
 70
0
 10
-34.2740112883
 20
-12.6500458582
 10
-34.2827016066
 20
-12.6347707918
 10
-34.3176580402
 20
-12.562671303
 10
-34.347358307
 20
-12.4880463245
  0
LWPOLYLINE
  5
273
100
AcDbEntity
  8
RACCORDO
100
AcDbPolyline
 62
253
  6
CONTINUOUS
 90
3
 70
0
 10
-34.347358307
 20
-12.4880463245
 10
-34.3710027002
 20
-12.4117095942
 10
-34.3880747601
 20
-12.3341345197
  0
LWPOLYLINE
  5
274
100
AcDbEntity
  8
RACCORDO
100
AcDbPolyline
 62
253
  6
CONTINUOUS
 90
11
 70
0
 10
-34.3364687457
 20
-12.3543344141
 10
-34.3332522729
 20
-12.3793715946
 10
-34.3245869621
 20
-12.4076256715
 10
-34.3106972902
 20
-12.4350582138
 10
-34.2917320862
 20
-12.4613752798
 10
-34.2678945635
 20
-12.4862948804
 10
-34.2394401428
 20
-12.5095500002
 10
-34.2066737153
 20
-12.530891459
 10
-34.1699463757
 20
-12.5500905814
 10
-34.1296516599
 20
-12.5669416477
 10
-34.0862213287
 20
-12.5812640973
  0
LINE
  5
275
100
AcDbEntity
  8
RACCORDO
100
AcDbLine
 62
253
  6
CONTINUOUS
 10
-34.3880747601
 20
-12.3341345197
 11
-34.3979277772
 21
-12.256109291
  0
LWPOLYLINE
  5
276
100
AcDbEntity
  8
RACCORDO
100
AcDbPolyline
 62
253
  6
CONTINUOUS
 90
11
 70
0
 10
-34.4670419717
 20
-7.7524369156
 10
-34.4637316524
 20
-7.7805673257
 10
-34.4551266011
 20
-7.806747734
 10
-34.4412923492
 20
-7.8322886882
 10
-34.4223771217
 20
-7.8569165335
 10
-34.398583583
 20
-7.8803673985
 10
-34.3701666654
 20
-7.9023900224
 10
-34.3374308377
 20
-7.9227484472
 10
-34.300726843
 20
-7.9412245456
 10
-34.2604479408
 20
-7.957620358
 10
-34.2170256933
 20
-7.9717602142
  0
LWPOLYLINE
  5
277
100
AcDbEntity
  8
0
100
AcDbPolyline
 62
253
  6
CONTINUOUS
 90
22
 70
0
 10
-32.5051765834
 20
24.1117811033
 10
-32.5050575803
 20
24.1024390658
 10
-32.5047007974
 20
24.0933209352
 10
-32.5041069143
 20
24.084444073
 10
-32.503277064
 20
24.0758254039
 10
-32.5022128255
 20
24.0674813141
 10
-32.5009162137
 20
24.0594276276
 10
-32.4993896807
 20
24.0516796348
 10
-32.4976361357
 20
24.0442521523
 10
-32.4956589383
 20
24.0371594169
 10
-32.4934618712
 20
24.0304149725
 10
-32.4910491086
 20
24.0240316093
 10
-32.488425228
 20
24.0180214357
 10
-32.4855952027
 20
24.0123958595
 10
-32.4825644379
 20
24.0071656405
 10
-32.4793387517
 20
24.0023408088
 10
-32.4759243242
 20
23.997930574
 10
-32.4723276353
 20
23.9939432735
 10
-32.4685554926
 20
23.9903864432
 10
-32.4646145951
 20
23.9872665075
 10
-32.4605128904
 20
23.9845898613
 10
-32.4562596956
 20
23.9823622992
  0
LWPOLYLINE
  5
278
100
AcDbEntity
  8
0
100
AcDbPolyline
 62
253
  6
CONTINUOUS
 90
24
 70
0
 10
-30.4471269793
 20
23.5176733569
 10
-30.4470083047
 20
23.5083440715
 10
-30.4466523439
 20
23.4992349807
 10
-30.4460595309
 20
23.4903636301
 10
-30.4452306431
 20
23.4817461775
 10
-30.4441670715
 20
23.4734003194
 10
-30.4428710847
 20
23.4653449371
 10
-30.4413453437
 20
23.4575962638
 10
-30.4395926148
 20
23.4501680879
 10
-30.4376162114
 20
23.4430744731
 10
-30.4354198696
 20
23.4363288814
 10
-30.4330077799
 20
23.4299442307
 10
-30.4303845663
 20
23.4239327719
 10
-30.4275552459
 20
23.4183059866
 10
-30.4245251901
 20
23.413074542
 10
-30.4213001464
 20
23.4082483631
 10
-30.4178862301
 20
23.403836617
 10
-30.41428996
 20
23.3998477427
 10
-30.4105182303
 20
23.3962893835
 10
-30.4065782554
 20
23.3931683241
 10
-30.4024775155
 20
23.39049047
 10
-30.3982237863
 20
23.3882608918
 10
-30.3938251547
 20
23.3864838304
 10
-30.3914645039
 20
23.3857343016
  0
LINE
  5
279
100
AcDbEntity
  8
0
100
AcDbLine
 62
253
  6
CONTINUOUS
 10
-32.6301760366
 20
24.2197728356
 11
-32.6301765834
 21
24.2200342788
  0
LINE
  5
27A
100
AcDbEntity
  8
0
100
AcDbLine
 62
253
  6
CONTINUOUS
 10
-32.6301765608
 20
24.5610894583
 11
-32.6301765834
 21
24.5611425683
  0
LINE
  5
27B
100
AcDbEntity
  8
0
100
AcDbLine
 62
7
  6
CONTINUOUS
 10
-32.6301765834
 20
24.5611425683
 11
-32.6301765834
 21
24.2200342788
  0
LINE
  5
27C
100
AcDbEntity
  8
0
100
AcDbLine
 62
253
  6
CONTINUOUS
 10
-32.5051765834
 20
24.4528893929
 11
-32.5051765834
 21
24.1117811033
  0
LINE
  5
27D
100
AcDbEntity
  8
0
100
AcDbLine
 62
7
  6
CONTINUOUS
 10
-32.1347111232
 20
23.8889662541
 11
-32.1347111232
 21
23.3411165709
  0
LINE
  5
27E
100
AcDbEntity
  8
0
100
AcDbLine
 62
253
  6
CONTINUOUS
 10
-32.0097111232
 20
23.8528818623
 11
-32.0097111232
 21
23.2271900869
  0
LINE
  5
27F
100
AcDbEntity
  8
0
100
AcDbLine
 62
253
  6
CONTINUOUS
 10
-30.4471269793
 20
23.5176733569
 11
-30.4471269793
 21
23.8587816464
  0
LINE
  5
280
100
AcDbEntity
  8
0
100
AcDbLine
 62
253
  6
CONTINUOUS
 10
-30.1062780917
 20
23.5628605793
 11
-30.1062780917
 21
23.9039688689
  0
LINE
  5
281
100
AcDbEntity
  8
0
100
AcDbLine
 62
253
  6
CONTINUOUS
 10
-29.9425924395
 20
22.6304643226
 11
-29.9425924395
 21
23.3243770498
  0
LWPOLYLINE
  5
282
100
AcDbEntity
  8
0
100
AcDbPolyline
 62
253
  6
CONTINUOUS
 90
10
 70
0
 10
-32.5051765834
 20
24.4528893929
 10
-32.5050359429
 20
24.4632786646
 10
-32.504614338
 20
24.4738881543
 10
-32.5039127173
 20
24.484693988
 10
-32.5029326597
 20
24.49567185
 10
-32.5016763706
 20
24.5067970372
 10
-32.5001466768
 20
24.5180445154
 10
-32.4983470207
 20
24.5293889749
 10
-32.4962814518
 20
24.5408048878
 10
-32.4939546183
 20
24.5522665655
  0
LWPOLYLINE
  5
283
100
AcDbEntity
  8
0
100
AcDbPolyline
 62
253
  6
CONTINUOUS
 90
34
 70
0
 10
-30.4471269793
 20
23.8587816464
 10
-30.4469863001
 20
23.869172368
 10
-30.446564578
 20
23.8797833809
 10
-30.4458627612
 20
23.8905908019
 10
-30.4448824274
 20
23.9015703127
 10
-30.4436257824
 20
23.9126971935
 10
-30.4420956566
 20
23.9239463779
 10
-30.4402954958
 20
23.9352925388
 10
-30.4382293513
 20
23.9467101432
 10
-30.435901875
 20
23.9581734877
 10
-30.433318306
 20
23.9696567714
 10
-30.4304844603
 20
23.9811341449
 10
-30.4274067198
 20
23.9925797651
 10
-30.4240920136
 20
24.003967868
 10
-30.4205478034
 20
24.0152728223
 10
-30.4167820688
 20
24.0264691793
 10
-30.4128032851
 20
24.0375317439
 10
-30.408620411
 20
24.048435611
 10
-30.4042428707
 20
24.0591562192
 10
-30.3996805324
 20
24.0696694113
 10
-30.394943655
 20
24.079951557
 10
-30.3900428693
 20
24.0899795811
 10
-30.3849891568
 20
24.099731
 10
-30.3797939363
 20
24.1091837674
 10
-30.3744690162
 20
24.1183164109
 10
-30.3690264624
 20
24.1271082779
 10
-30.3634784597
 20
24.1355397255
 10
-30.3578373932
 20
24.1435919464
 10
-30.3521150926
 20
24.1512479385
 10
-30.3463252815
 20
24.158489227
 10
-30.3404835298
 20
24.1652966619
 10
-30.3346038895
 20
24.1716546157
 10
-30.3286987767
 20
24.1775504035
 10
-30.3227814748
 20
24.1829713953
  0
LINE
  5
284
100
AcDbEntity
  8
0
100
AcDbLine
 62
7
  6
CONTINUOUS
 10
-28.5675428466
 20
24.8928421956
 11
-28.5657037909
 21
24.9231799621
  0
LWPOLYLINE
  5
285
100
AcDbEntity
  8
0
100
AcDbPolyline
 62
253
  6
CONTINUOUS
 90
11
 70
0
 10
-28.5659416699
 20
24.9176582969
 10
-28.5667394654
 20
24.9117439714
 10
-28.5680970907
 20
24.9058554042
 10
-28.5700114662
 20
24.9000057555
 10
-28.572478309
 20
24.89420806
 10
-28.5754923388
 20
24.8884748925
 10
-28.5790465992
 20
24.8828196192
 10
-28.5831321266
 20
24.8772561892
 10
-28.587739022
 20
24.8717974463
 10
-28.5928568733
 20
24.8664551639
 10
-28.5984738488
 20
24.8612412576
  0
LWPOLYLINE
  5
286
100
AcDbEntity
  8
RACCORDO
100
AcDbPolyline
 62
253
  6
CONTINUOUS
 90
13
 70
0
 10
-33.3883483098
 20
14.2653533058
 10
-33.4188180033
 20
14.2348080508
 10
-33.448767064
 20
14.1983047257
 10
-33.4777478543
 20
14.1563889321
 10
-33.5053272091
 20
14.1096871699
 10
-33.5310929099
 20
14.0588974733
 10
-33.554659846
 20
14.004778977
 10
-33.5756757711
 20
13.9481405702
 10
-33.5938265679
 20
13.8898288065
 10
-33.6088409431
 20
13.8307152502
 10
-33.6204944825
 20
13.7716834498
 10
-33.6286130048
 20
13.713615732
 10
-33.6330751655
 20
13.6573800136
  0
LINE
  5
287
100
AcDbEntity
  8
0
100
AcDbLine
 62
7
  6
CONTINUOUS
 10
-23.7077561722
 20
21.5779062089
 11
-23.5577561722
 21
21.7214259599
  0
LINE
  5
288
100
AcDbEntity
  8
RACCORDO
100
AcDbLine
 62
7
  6
CONTINUOUS
 10
-34.0676899184
 20
14.1327066995
 11
-33.2468144229
 21
14.8987472773
  0
LINE
  5
289
100
AcDbEntity
  8
RACCORDO
100
AcDbLine
 62
253
  6
CONTINUOUS
 10
-33.3883483098
 20
14.2653533058
 11
-32.8365312227
 21
14.7803087192
  0
LINE
  5
28A
100
AcDbEntity
  8
0
100
AcDbLine
 62
253
  6
CONTINUOUS
 10
-23.8814848494
 20
23.0253442371
 11
-23.730961253
 21
23.1570666059
  0
LINE
  5
28B
100
AcDbEntity
  8
0
100
AcDbLine
 62
253
  6
CONTINUOUS
 10
-23.7077561722
 20
22.8025949784
 11
-23.5577852615
 21
22.933833695
  0
LINE
  5
28C
100
AcDbEntity
  8
0
100
AcDbLine
 62
7
  6
CONTINUOUS
 10
-21.7838781474
 20
22.5346571965
 11
-21.9342092594
 21
22.4031032698
  0
LINE
  5
28D
100
AcDbEntity
  8
0
100
AcDbLine
 62
253
  6
CONTINUOUS
 10
-21.6525002839
 20
22.5570666059
 11
-21.8030238803
 21
22.4253442371
  0
LINE
  5
28E
100
AcDbEntity
  8
0
100
AcDbLine
 62
253
  6
CONTINUOUS
 10
-21.9340914024
 20
22.4032062601
 11
-21.9342092594
 21
22.4031032698
  0
LINE
  5
28F
100
AcDbEntity
  8
0
100
AcDbLine
 62
7
  6
CONTINUOUS
 10
-23.1109962705
 20
23.5021136016
 11
-20.5261718186
 21
25.7406372412
  0
LINE
  5
290
100
AcDbEntity
  8
0
100
AcDbLine
 62
7
  6
CONTINUOUS
 10
-21.7829466485
 20
22.5354633867
 11
-21.7838781557
 21
22.5346571893
  0
LWPOLYLINE
  5
291
100
AcDbEntity
  8
RACCORDO
100
AcDbPolyline
 62
253
  6
CONTINUOUS
 90
13
 70
0
 10
-34.0671846056
 20
14.1331777064
 10
-34.0312319576
 20
14.1640640422
 10
-33.9843702227
 20
14.197608996
 10
-33.9342669709
 20
14.2266092817
 10
-33.8811886565
 20
14.250908785
 10
-33.8254328704
 20
14.270371562
 10
-33.7673341695
 20
14.2848755097
 10
-33.7072250003
 20
14.2943415961
 10
-33.645429965
 20
14.298725928
 10
-33.5822905309
 20
14.2980012321
 10
-33.5181573748
 20
14.2921700941
 10
-33.4533892156
 20
14.2812673163
 10
-33.3883483098
 20
14.2653533058
  0
LINE
  5
292
100
AcDbEntity
  8
0
100
AcDbLine
 62
7
  6
CONTINUOUS
 10
-23.5577561722
 20
21.7214259599
 11
-23.0577561722
 21
22.1499041219
  0
LINE
  5
293
100
AcDbEntity
  8
0
100
AcDbLine
 62
7
  6
CONTINUOUS
 10
-24.0122553962
 20
23.8105811114
 11
-21.9493410367
 21
25.576329825
  0
LINE
  5
294
100
AcDbEntity
  8
0
100
AcDbLine
 62
7
  6
CONTINUOUS
 10
-19.7868981141
 20
26.9316332478
 11
-23.5792426943
 21
23.6855811114
  0
LINE
  5
295
100
AcDbEntity
  8
0
100
AcDbLine
 62
253
  6
CONTINUOUS
 10
-23.730961253
 20
23.1570666059
 11
-23.230961253
 21
23.5850409194
  0
LINE
  5
296
100
AcDbEntity
  8
0
100
AcDbLine
 62
253
  6
CONTINUOUS
 10
-23.5577852615
 20
22.933833695
 11
-23.0577561722
 21
23.3618329074
  0
LINE
  5
297
100
AcDbEntity
  8
0
100
AcDbLine
 62
7
  6
CONTINUOUS
 10
-21.2829366945
 20
22.9634462204
 11
-21.7829466449
 21
22.5354633898
  0
LINE
  5
298
100
AcDbEntity
  8
0
100
AcDbLine
 62
253
  6
CONTINUOUS
 10
-21.1525002839
 20
22.9850409194
 11
-21.6525002839
 21
22.5570666059
  0
LINE
  5
299
100
AcDbEntity
  8
RACCORDO
100
AcDbLine
 62
7
  6
CONTINUOUS
 10
-34.1256911076
 20
14.9241536766
 11
-34.1250727529
 21
14.9246506859
  0
LINE
  5
29A
100
AcDbEntity
  8
RACCORDO
100
AcDbLine
 62
253
  6
CONTINUOUS
 10
-19.9013467739
 20
27.1361351131
 11
-10.3084249625
 21
34.8372741932
  0
LINE
  5
29B
100
AcDbEntity
  8
RACCORDO
100
AcDbLine
 62
253
  6
CONTINUOUS
 10
-33.6084829452
 20
15.0026415087
 11
-34.3979277772
 21
14.3688800159
  0
LWPOLYLINE
  5
29C
100
AcDbEntity
  8
RACCORDO
100
AcDbPolyline
 62
7
  6
CONTINUOUS
 90
10
 70
0
 10
-34.1256565408
 20
14.924176722
 10
-34.1139733488
 20
14.9332787913
 10
-34.0606674542
 20
14.9678288762
 10
-34.0025067781
 20
14.9949228204
 10
-33.9393400221
 20
15.0145411468
 10
-33.8710305856
 20
15.0264275153
 10
-33.7986551025
 20
15.0300936214
 10
-33.7245132614
 20
15.0254968532
 10
-33.6502442477
 20
15.0131722612
 10
-33.5944902385
 20
14.9991130333
  0
LWPOLYLINE
  5
29D
100
AcDbEntity
  8
0
100
AcDbPolyline
 62
7
  6
CONTINUOUS
 90
4
 70
0
 10
-30.939825907
 20
26.1127263512
 10
-30.9699443098
 20
26.1041564378
 10
-30.9984715152
 20
26.092030759
 10
-31.0252174524
 20
26.0765089367
  0
LINE
  5
29E
100
AcDbEntity
  8
0
100
AcDbLine
 62
253
  6
CONTINUOUS
 10
-28.5986856973
 20
25.2191757459
 11
-28.5984738488
 21
25.2087727744
  0
LINE
  5
29F
100
AcDbEntity
  8
0
100
AcDbLine
 62
253
  6
CONTINUOUS
 10
-29.6017435518
 20
22.6869387517
 11
-29.6017435518
 21
23.4945642723
  0
LINE
  5
2A0
100
AcDbEntity
  8
0
100
AcDbLine
 62
7
  6
CONTINUOUS
 10
-28.9704149459
 20
23.2839259599
 11
-28.9704149459
 21
24.8860766209
  0
LINE
  5
2A1
100
AcDbEntity
  8
0
100
AcDbLine
 62
253
  6
CONTINUOUS
 10
-28.5984738488
 20
25.2087727744
 11
-28.5984738488
 21
24.8612412576
  0
LINE
  5
2A2
100
AcDbEntity
  8
0
100
AcDbLine
 62
7
  6
CONTINUOUS
 10
-28.5657037522
 20
25.2706419288
 11
-28.5657037522
 21
24.923110412
  0
LINE
  5
2A3
100
AcDbEntity
  8
0
100
AcDbLine
 62
7
  6
CONTINUOUS
 10
-27.2887420055
 20
23.31128223
 11
-27.2887420055
 21
21.8643636914
  0
LINE
  5
2A4
100
AcDbEntity
  8
0
100
AcDbLine
 62
7
  6
CONTINUOUS
 10
-26.4728196817
 20
21.6288272047
 11
-26.4728196817
 21
23.0757457433
  0
LINE
  5
2A5
100
AcDbEntity
  8
0
100
AcDbLine
 62
253
  6
CONTINUOUS
 10
-28.5657037522
 20
25.2706419288
 11
-28.5657038179
 21
25.2705512837
  0
LWPOLYLINE
  5
2A6
100
AcDbEntity
  8
0
100
AcDbPolyline
 62
7
  6
CONTINUOUS
 90
34
 70
0
 10
-25.9728196817
 20
23.340992438
 10
-25.9727055635
 20
23.3493314308
 10
-25.9723686728
 20
23.3578108391
 10
-25.9718090096
 20
23.3664306631
 10
-25.9710238794
 20
23.3752138752
 10
-25.9700159767
 20
23.3841375029
 10
-25.9687933846
 20
23.3931326285
 10
-25.9673559854
 20
23.4021921616
 10
-25.9657038968
 20
23.4113231926
 10
-25.9638455548
 20
23.4204780749
 10
-25.9617772172
 20
23.4296672776
 10
-25.9595026263
 20
23.4388803315
 10
-25.9570414445
 20
23.4480381824
 10
-25.9543958881
 20
23.4571283982
 10
-25.9515637408
 20
23.4661634111
 10
-25.9485580169
 20
23.4751014622
 10
-25.9453730873
 20
23.4839546175
 10
-25.942014581
 20
23.4927108111
 10
-25.9385123986
 20
23.501292087
 10
-25.9348706624
 20
23.5096850883
 10
-25.93108525
 20
23.5179031719
 10
-25.9271736955
 20
23.5259084527
 10
-25.923129941
 20
23.5337100703
 10
-25.9189600443
 20
23.541298885
 10
-25.9146997127
 20
23.5486095925
 10
-25.9103530999
 20
23.5556320763
 10
-25.9059160522
 20
23.5623764529
 10
-25.9014118159
 20
23.5688077677
 10
-25.8968362381
 20
23.5749294514
 10
-25.8921934716
 20
23.5807380733
 10
-25.8875192219
 20
23.5861883875
 10
-25.8828253906
 20
23.5912653118
 10
-25.878100076
 20
23.5959839284
 10
-25.8733432781
 20
23.6003442371
  0
LINE
  5
2A7
100
AcDbEntity
  8
0
100
AcDbLine
 62
253
  6
CONTINUOUS
 10
-28.5657037522
 20
24.923110412
 11
-28.5659416699
 21
24.9176582969
  0
LWPOLYLINE
  5
2A8
100
AcDbEntity
  8
0
100
AcDbPolyline
 62
253
  6
CONTINUOUS
 90
12
 70
0
 10
-28.5657038179
 20
25.2705512837
 10
-28.5659400293
 20
25.2652086342
 10
-28.566736122
 20
25.2592938107
 10
-28.568092191
 20
25.2534045076
 10
-28.5700051875
 20
25.2475539703
 10
-28.5724708092
 20
25.2417553598
 10
-28.575483513
 20
25.2360217153
 10
-28.5790365223
 20
25.2303659362
 10
-28.5831218384
 20
25.2248007535
 10
-28.5877302674
 20
25.2193386875
 10
-28.5928514444
 20
25.2139920194
 10
-28.5984738488
 20
25.2087727744
  0
LWPOLYLINE
  5
2A9
100
AcDbEntity
  8
0
100
AcDbPolyline
 62
7
  6
CONTINUOUS
 90
25
 70
0
 10
-18.8379177216
 20
20.8196991518
 10
-18.8310861067
 20
20.8325428983
 10
-18.824831217
 20
20.845755355
 10
-18.8191530527
 20
20.8593365218
 10
-18.8140453028
 20
20.8733065783
 10
-18.8095142782
 20
20.887645345
 10
-18.8055789113
 20
20.9022922834
 10
-18.8022416959
 20
20.9172486743
 10
-18.7995001381
 20
20.932513237
 10
-18.7973656897
 20
20.9480215903
 10
-18.7958408901
 20
20.9637747494
 10
-18.7949231999
 20
20.9797716992
 10
-18.7946164514
 20
20.9959450127
 10
-18.7949231999
 20
21.0122954275
 10
-18.7958408901
 20
21.028822206
 10
-18.7973656897
 20
21.0454557086
 10
-18.7995001381
 20
21.0621963863
 10
-18.8022416959
 20
21.079043788
 10
-18.8055789113
 20
21.0959269212
 10
-18.8095142782
 20
21.1128459447
 10
-18.8140453028
 20
21.1298006997
 10
-18.8191530527
 20
21.146719717
 10
-18.824831217
 20
21.1635791736
 10
-18.8310861067
 20
21.1804028924
 10
-18.8379177216
 20
21.1971908736
  0
LWPOLYLINE
  5
2AA
100
AcDbEntity
  8
0
100
AcDbPolyline
 62
7
  6
CONTINUOUS
 90
7
 70
0
 10
-15.0417740044
 20
25.0284272747
 10
-15.042089866
 20
25.0280351388
 10
-15.0430019699
 20
25.0272099494
 10
-15.044486373
 20
25.0259904062
 10
-15.0465161418
 20
25.0243909079
 10
-15.049067982
 20
25.0224148409
 10
-15.0521351051
 20
25.0200861122
  0
LWPOLYLINE
  5
2AB
100
AcDbEntity
  8
0
100
AcDbPolyline
 62
7
  6
CONTINUOUS
 90
31
 70
0
 10
-15.1257056347
 20
24.0146595145
 10
-15.1155245761
 20
24.0265702005
 10
-15.1059968858
 20
24.0390243794
 10
-15.0971225638
 20
24.0520220513
 10
-15.0888886159
 20
24.0655874007
 10
-15.0813080363
 20
24.0796962432
 10
-15.0744198076
 20
24.0942760242
 10
-15.0682274963
 20
24.1093291697
 10
-15.0627275358
 20
24.1248532538
 10
-15.0579482094
 20
24.1407684445
 10
-15.0538932292
 20
24.1570767564
 10
-15.050558883
 20
24.1737761748
 10
-15.0479623175
 20
24.1907808237
 10
-15.0461073331
 20
24.2080922753
 10
-15.0449901294
 20
24.2257089574
 10
-15.0446164514
 20
24.2435402769
 10
-15.0449901294
 20
24.2615873395
 10
-15.0461073331
 20
24.2798490394
 10
-15.0479623175
 20
24.2982314668
 10
-15.050558883
 20
24.3167352435
 10
-15.0538932292
 20
24.3353597476
 10
-15.0579482094
 20
24.3540092034
 10
-15.0627275358
 20
24.3726837395
 10
-15.0682274963
 20
24.3913832273
 10
-15.0744198076
 20
24.4100115054
 10
-15.0813080363
 20
24.4285682071
 10
-15.0888886159
 20
24.4470536992
 10
-15.0971225638
 20
24.4653729207
 10
-15.1059968858
 20
24.4834941847
 10
-15.1155245761
 20
24.5014491782
 10
-15.1257056347
 20
24.5192379011
  0
LWPOLYLINE
  5
2AC
100
AcDbEntity
  8
0
100
AcDbPolyline
 62
7
  6
CONTINUOUS
 90
8
 70
0
 10
-17.4768543782
 20
20.3985008014
 10
-17.4903643548
 20
20.3856370717
 10
-17.5117078908
 20
20.3606433898
 10
-17.5296262736
 20
20.3329979195
 10
-17.5438230405
 20
20.3030615832
 10
-17.553985977
 20
20.2713114026
 10
-17.559850652
 20
20.238340171
 10
-17.561334535
 20
20.2110894583
  0
LINE
  5
2AD
100
AcDbEntity
  8
0
100
AcDbLine
 62
7
  6
CONTINUOUS
 10
-18.8379177216
 20
20.3589259599
 11
-19.5947195314
 21
19.6432907181
  0
LINE
  5
2AE
100
AcDbEntity
  8
0
100
AcDbLine
 62
253
  6
CONTINUOUS
 10
-17.317916164
 20
20.4216487599
 11
-17.311989053
 21
20.4270791418
  0
LINE
  5
2AF
100
AcDbEntity
  8
0
100
AcDbLine
 62
7
  6
CONTINUOUS
 10
-17.4770966316
 20
20.3982867235
 11
-16.3613703322
 21
21.3865361573
  0
LINE
  5
2B0
100
AcDbEntity
  8
0
100
AcDbLine
 62
253
  6
CONTINUOUS
 10
-17.311989053
 20
20.4270791418
 11
-16.1965432079
 21
21.4150801646
  0
LINE
  5
2B1
100
AcDbEntity
  8
0
100
AcDbLine
 62
253
  6
CONTINUOUS
 10
-17.4770966316
 20
20.3982867235
 11
-17.4768543782
 21
20.3985008014
  0
LINE
  5
2B2
100
AcDbEntity
  8
0
100
AcDbLine
 62
7
  6
CONTINUOUS
 10
-19.8111654516
 20
21.8503442371
 11
-20.4106418552
 21
21.3257457433
  0
LWPOLYLINE
  5
2B3
100
AcDbEntity
  8
0
100
AcDbPolyline
 62
253
  6
CONTINUOUS
 90
20
 70
0
 10
-17.4768543782
 20
20.3985008014
 10
-17.475863873
 20
20.3993658718
 10
-17.4689328049
 20
20.4049877542
 10
-17.4616446581
 20
20.4101704054
 10
-17.4540159624
 20
20.4149020765
 10
-17.4460640292
 20
20.4191720403
 10
-17.4378068586
 20
20.4229706408
 10
-17.4292631061
 20
20.4262892965
 10
-17.4204520445
 20
20.4291205081
 10
-17.4113937142
 20
20.431457823
 10
-17.4021088386
 20
20.4332959072
 10
-17.3926185947
 20
20.4346306093
 10
-17.3829443724
 20
20.4354589613
 10
-17.3731079144
 20
20.4357791159
 10
-17.3631300056
 20
20.4355902813
 10
-17.3530347161
 20
20.4348927996
 10
-17.3428493172
 20
20.433688877
 10
-17.3325984511
 20
20.4319821709
 10
-17.3223039264
 20
20.4297770514
 10
-17.311989053
 20
20.4270791418
  0
LINE
  5
2B4
100
AcDbEntity
  8
0
100
AcDbLine
 62
7
  6
CONTINUOUS
 10
-18.8379177216
 20
21.7445666059
 11
-15.1242658578
 21
24.9665315386
  0
LINE
  5
2B5
100
AcDbEntity
  8
0
100
AcDbLine
 62
7
  6
CONTINUOUS
 10
-18.8379177216
 20
20.3589259599
 11
-15.1011590179
 21
23.6009383904
  0
LINE
  5
2B6
100
AcDbEntity
  8
0
100
AcDbLine
 62
7
  6
CONTINUOUS
 10
-16.3613703336
 20
21.3865361561
 11
-16.3588629243
 21
21.388704883
  0
LINE
  5
2B7
100
AcDbEntity
  8
0
100
AcDbLine
 62
7
  6
CONTINUOUS
 10
-19.5947195314
 20
21.0902092567
 11
-18.8379177216
 21
21.7445666059
  0
LINE
  5
2B8
100
AcDbEntity
  8
0
100
AcDbLine
 62
7
  6
CONTINUOUS
 10
-15.9091874224
 20
25.1931188768
 11
-19.1606418552
 21
22.4100409194
  0
LINE
  5
2B9
100
AcDbEntity
  8
0
100
AcDbLine
 62
7
  6
CONTINUOUS
 10
-15.0502456624
 20
25.0383248785
 11
-14.5907456914
 21
25.4316332478
  0
LINE
  5
2BA
100
AcDbEntity
  8
0
100
AcDbLine
 62
7
  6
CONTINUOUS
 10
-16.3588629264
 20
21.3887048813
 11
-15.9790624807
 21
21.7094575907
  0
LINE
  5
2BB
100
AcDbEntity
  8
0
100
AcDbLine
 62
253
  6
CONTINUOUS
 10
-16.196543904
 20
21.4150803655
 11
-15.8170305683
 21
21.735590602
  0
LWPOLYLINE
  5
2BC
100
AcDbEntity
  8
0
100
AcDbPolyline
 62
7
  6
CONTINUOUS
 90
19
 70
0
 10
-14.5907456914
 20
25.4316332478
 10
-14.5744258419
 20
25.445139263
 10
-14.5581572491
 20
25.4576849431
 10
-14.5419399132
 20
25.4692702881
 10
-14.5257531696
 20
25.4799073971
 10
-14.5096176828
 20
25.4895841711
 10
-14.4935954458
 20
25.4982643125
 10
-14.4776954405
 20
25.5059407965
 10
-14.4619086851
 20
25.5126206479
 10
-14.446270227
 20
25.5182886446
 10
-14.4307698581
 20
25.5229448477
 10
-14.4154177865
 20
25.526589196
 10
-14.400279684
 20
25.5292062841
 10
-14.38536733
 20
25.5307913235
 10
-14.3706689452
 20
25.5313491028
 10
-14.3562148628
 20
25.5308785814
 10
-14.3419958135
 20
25.5293761045
 10
-14.3280210668
 20
25.5268453271
 10
-14.3163045656
 20
25.5238719016
  0
LWPOLYLINE
  5
2BD
100
AcDbEntity
  8
0
100
AcDbPolyline
 62
253
  6
CONTINUOUS
 90
3
 70
0
 10
-15.9790624807
 20
21.7094575907
 10
-15.973417413
 20
21.7139817633
 10
-15.966131043
 20
21.7191647395
  0
LWPOLYLINE
  5
2BE
100
AcDbEntity
  8
0
100
AcDbPolyline
 62
7
  6
CONTINUOUS
 90
19
 70
0
 10
-16.3588629243
 20
21.388704883
 10
-16.3532195108
 20
21.3932276606
 10
-16.3459330963
 20
21.3984106684
 10
-16.338308354
 20
21.4031409046
 10
-16.3303625359
 20
21.4074076715
 10
-16.3221136463
 20
21.4112012996
 10
-16.3135804038
 20
21.4145131694
 10
-16.3047821041
 20
21.4173358087
 10
-16.2957386673
 20
21.419662833
 10
-16.2864706412
 20
21.4214889209
 10
-16.2769989721
 20
21.4228099782
 10
-16.2673450901
 20
21.423623035
 10
-16.2575309534
 20
21.4239261761
 10
-16.2475787196
 20
21.423718768
 10
-16.2375109049
 20
21.4230013148
 10
-16.2273504685
 20
21.4217753517
 10
-16.2171204358
 20
21.4200436689
 10
-16.2068438447
 20
21.4178102987
 10
-16.196543904
 20
21.4150803655
  0
LINE
  5
2BF
100
AcDbEntity
  8
0
100
AcDbLine
 62
7
  6
CONTINUOUS
 10
-15.0521351051
 20
25.0200861122
 11
-15.0597539846
 21
25.0144104278
  0
LWPOLYLINE
  5
2C0
100
AcDbEntity
  8
0
100
AcDbPolyline
 62
7
  6
CONTINUOUS
 90
7
 70
0
 10
-15.9790624807
 20
21.7094575907
 10
-15.9508151455
 20
21.7301049061
 10
-15.9192878607
 20
21.746910993
 10
-15.8851470036
 20
21.7592042449
 10
-15.8492572856
 20
21.7664657133
 10
-15.8125888857
 20
21.7684043266
 10
-15.7759992704
 20
21.7649459088
  0
LINE
  5
2C1
100
AcDbEntity
  8
0
100
AcDbLine
 62
7
  6
CONTINUOUS
 10
-15.0597539846
 20
25.0144104278
 11
-15.0692990752
 21
25.0074277299
  0
LINE
  5
2C2
100
AcDbEntity
  8
0
100
AcDbLine
 62
7
  6
CONTINUOUS
 10
-15.0692990752
 20
25.0074277299
 11
-15.0807009768
 21
24.9992038637
  0
LWPOLYLINE
  5
2C3
100
AcDbEntity
  8
0
100
AcDbPolyline
 62
7
  6
CONTINUOUS
 90
7
 70
0
 10
-15.8871632102
 20
25.2102859279
 10
-15.890818092
 20
25.2076714499
 10
-15.8944793018
 20
25.204958293
 10
-15.8981468398
 20
25.2021464573
 10
-15.9018207059
 20
25.1992359426
 10
-15.9055009001
 20
25.1962267492
 10
-15.9091874224
 20
25.1931188768
  0
LWPOLYLINE
  5
2C4
100
AcDbEntity
  8
0
100
AcDbPolyline
 62
7
  6
CONTINUOUS
 90
3
 70
0
 10
-15.0807009768
 20
24.9992038637
 10
-15.093907984
 20
24.9898077396
 10
-15.1011590179
 20
24.9846863553
  0
LWPOLYLINE
  5
2C5
100
AcDbEntity
  8
0
100
AcDbPolyline
 62
7
  6
CONTINUOUS
 90
7
 70
0
 10
-15.8871632102
 20
25.2102859279
 10
-15.8793626078
 20
25.2153526738
 10
-15.8711102452
 20
25.2198830563
 10
-15.862412234
 20
25.2238688611
 10
-15.8532807968
 20
25.2273036568
 10
-15.8437182504
 20
25.2301778043
 10
-15.8337146352
 20
25.2324775194
  0
LWPOLYLINE
  5
2C6
100
AcDbEntity
  8
0
100
AcDbPolyline
 62
253
  6
CONTINUOUS
 90
4
 70
0
 10
-15.966131043
 20
21.7191647395
 10
-15.9585085743
 20
21.7238930703
 10
-15.9505672735
 20
21.7281560448
 10
-15.9423251295
 20
21.7319440066
  0
LWPOLYLINE
  5
2C7
100
AcDbEntity
  8
0
100
AcDbPolyline
 62
253
  6
CONTINUOUS
 90
25
 70
0
 10
4.1952379321
 20
-28.1120275165
 10
4.2070085112
 20
-28.112739794
 10
4.218833388
 20
-28.1131722337
 10
4.2306859638
 20
-28.1133238635
 10
4.2425395705
 20
-28.1131943432
 10
4.2543675452
 20
-28.1127839654
 10
4.2661432864
 20
-28.1120936544
 10
4.277840305
 20
-28.1111249645
 10
4.2894322987
 20
-28.1098800753
 10
4.3008931897
 20
-28.1083617886
 10
4.3121971807
 20
-28.1065735244
 10
4.3233188184
 20
-28.1045193138
 10
4.3342331228
 20
-28.1022037752
 10
4.344915618
 20
-28.0996321019
 10
4.3553423722
 20
-28.0968100479
 10
4.3654898303
 20
-28.0937439813
 10
4.3753349574
 20
-28.09044087
 10
4.3848555027
 20
-28.0869082052
 10
4.3940302081
 20
-28.0831539013
 10
4.402838623
 20
-28.0791863371
 10
4.4112621746
 20
-28.0750137928
 10
4.4192805612
 20
-28.0706462354
 10
4.4268725567
 20
-28.0660954957
 10
4.4340206583
 20
-28.0613727284
 10
4.4407105236
 20
-28.0564881128
  0
LWPOLYLINE
  5
2C8
100
AcDbEntity
  8
0
100
AcDbPolyline
 62
7
  6
CONTINUOUS
 90
10
 70
0
 10
2.4215928763
 20
-28.1707294623
 10
2.4550641425
 20
-28.1793790832
 10
2.5235790633
 20
-28.1908739135
 10
2.5934350875
 20
-28.1944205689
 10
2.6646327163
 20
-28.189792356
 10
2.7365304739
 20
-28.1766435476
 10
2.8079462697
 20
-28.1548494564
 10
2.8783741891
 20
-28.124257482
 10
2.9473864567
 20
-28.0846603727
 10
2.9870888817
 20
-28.0571182745
  0
LINE
  5
2C9
100
AcDbEntity
  8
0
100
AcDbLine
 62
7
  6
CONTINUOUS
 10
2.4219834679
 20
-28.1708426761
 11
-35.3054747287
 21
-17.2798636033
  0
LINE
  5
2CA
100
AcDbEntity
  8
0
100
AcDbLine
 62
253
  6
CONTINUOUS
 10
-35.3054747228
 20
-17.279863605
 11
-35.3129620345
 21
-17.2775262578
  0
LWPOLYLINE
  5
2CB
100
AcDbEntity
  8
0
100
AcDbPolyline
 62
253
  6
CONTINUOUS
 90
26
 70
0
 10
-35.3129620345
 20
-17.2775262578
 10
-35.3259979948
 20
-17.2725869502
 10
-35.3387220432
 20
-17.2666337685
 10
-35.3511204574
 20
-17.2596731019
 10
-35.363180492
 20
-17.2517122205
 10
-35.3748891728
 20
-17.2427596228
 10
-35.3862338453
 20
-17.2328248859
 10
-35.3972028128
 20
-17.2219184758
 10
-35.4077842561
 20
-17.2100520438
 10
-35.4179667641
 20
-17.1972382404
 10
-35.4277398772
 20
-17.183490555
 10
-35.4370930914
 20
-17.168823607
 10
-35.4460162873
 20
-17.1532530415
 10
-35.4545002621
 20
-17.1367953471
 10
-35.4625358808
 20
-17.1194680688
 10
-35.4701144743
 20
-17.1012896328
 10
-35.4772282616
 20
-17.0822792301
 10
-35.4838696053
 20
-17.0624570441
 10
-35.4900313098
 20
-17.0418441916
 10
-35.4957070206
 20
-17.0204625509
 10
-35.5008906378
 20
-16.9983348869
 10
-35.5055765602
 20
-16.9754847018
 10
-35.5097599762
 20
-16.9519361629
 10
-35.5134364537
 20
-16.9277142543
 10
-35.5166019482
 20
-16.9028447555
 10
-35.519253046
 20
-16.8773540905
  0
LINE
  5
2CC
100
AcDbEntity
  8
0
100
AcDbLine
 62
7
  6
CONTINUOUS
 10
-25.9728196817
 20
23.340992438
 11
-25.9728196817
 21
22.1072263748
  0
LINE
  5
2CD
100
AcDbEntity
  8
0
100
AcDbLine
 62
253
  6
CONTINUOUS
 10
-23.980961253
 20
21.5322263748
 11
-23.980961253
 21
22.765992438
  0
LINE
  5
2CE
100
AcDbEntity
  8
0
100
AcDbLine
 62
253
  6
CONTINUOUS
 10
-23.7077561722
 20
21.5779062089
 11
-23.7077561722
 21
22.8025949784
  0
LINE
  5
2CF
100
AcDbEntity
  8
0
100
AcDbLine
 62
7
  6
CONTINUOUS
 10
-23.0577561722
 20
22.1499041219
 11
-23.0577561722
 21
23.3618329074
  0
LWPOLYLINE
  5
2D0
100
AcDbEntity
  8
0
100
AcDbPolyline
 62
253
  6
CONTINUOUS
 90
34
 70
0
 10
-23.980961253
 20
22.765992438
 10
-23.9808491275
 20
22.7742893953
 10
-23.9805128002
 20
22.7827658128
 10
-23.9799527235
 20
22.7914028897
 10
-23.9791697197
 20
22.8001827498
 10
-23.978165318
 20
22.8090845303
 10
-23.9769420825
 20
22.8180842627
 10
-23.9755030085
 20
22.8271602652
 10
-23.973851161
 20
22.836293508
 10
-23.9719902239
 20
22.8454635949
 10
-23.9699243482
 20
22.8546500018
 10
-23.9676581952
 20
22.8638319396
 10
-23.9651969056
 20
22.8729885604
 10
-23.9625460452
 20
22.8820991752
 10
-23.9597115611
 20
22.8911433582
 10
-23.9566998145
 20
22.9001008114
 10
-23.9535175729
 20
22.9089513976
 10
-23.9501720054
 20
22.9176751682
 10
-23.9466706483
 20
22.9262524672
 10
-23.9430213846
 20
22.9346639817
 10
-23.9392324251
 20
22.9428907835
 10
-23.9353122979
 20
22.9509143534
 10
-23.9312698253
 20
22.9587166322
 10
-23.9271141068
 20
22.9662800546
 10
-23.9228544997
 20
22.9735875886
 10
-23.9185005927
 20
22.9806227837
 10
-23.9140621849
 20
22.9873698052
 10
-23.9095492678
 20
22.9938134641
 10
-23.9049719966
 20
22.9999392593
 10
-23.900340677
 20
23.0057333979
 10
-23.8956657436
 20
23.0111828259
 10
-23.8909577228
 20
23.0162752754
 10
-23.8862272087
 20
23.0209992896
 10
-23.8814848494
 20
23.0253442371
  0
LWPOLYLINE
  5
2D1
100
AcDbEntity
  8
0
100
AcDbPolyline
 62
7
  6
CONTINUOUS
 90
7
 70
0
 10
-22.0025002839
 20
22.2525949784
 10
-21.9998771217
 20
22.2848739642
 10
-21.9921738603
 20
22.3160273021
 10
-21.9796842891
 20
22.3453625821
 10
-21.9624136171
 20
22.3727099265
 10
-21.940863093
 20
22.3970099443
 10
-21.9340914024
 20
22.4032062601
  0
LWPOLYLINE
  5
2D2
100
AcDbEntity
  8
0
100
AcDbPolyline
 62
253
  6
CONTINUOUS
 90
29
 70
0
 10
-21.8997043489
 20
22.2090845303
 10
-21.8984811134
 20
22.2180842627
 10
-21.8970420394
 20
22.2271602652
 10
-21.8953901919
 20
22.236293508
 10
-21.8935292548
 20
22.2454635949
 10
-21.8914633792
 20
22.2546500018
 10
-21.8891972261
 20
22.2638319396
 10
-21.8867359366
 20
22.2729885604
 10
-21.8840850761
 20
22.2820991752
 10
-21.881250592
 20
22.2911433582
 10
-21.8782388455
 20
22.3001008114
 10
-21.8750566038
 20
22.3089513976
 10
-21.8717110363
 20
22.3176751682
 10
-21.8682096793
 20
22.3262524672
 10
-21.8645604155
 20
22.3346639817
 10
-21.860771456
 20
22.3428907835
 10
-21.8568513289
 20
22.3509143534
 10
-21.8528088562
 20
22.3587166322
 10
-21.8486531377
 20
22.3662800546
 10
-21.8443935306
 20
22.3735875886
 10
-21.8400396236
 20
22.3806227837
 10
-21.8356012158
 20
22.3873698052
 10
-21.8310882987
 20
22.3938134641
 10
-21.8265110275
 20
22.3999392593
 10
-21.8218797079
 20
22.4057333979
 10
-21.8172047745
 20
22.4111828259
 10
-21.8124967537
 20
22.4162752754
 10
-21.8077662397
 20
22.4209992896
 10
-21.8030238803
 20
22.4253442371
  0
LWPOLYLINE
  5
2D3
100
AcDbEntity
  8
0
100
AcDbPolyline
 62
7
  6
CONTINUOUS
 90
8
 70
0
 10
-13.0592260393
 20
19.1218306109
 10
-13.0725549711
 20
19.1091192902
 10
-13.0938822817
 20
19.0841302208
 10
-13.1117867269
 20
19.0564924406
 10
-13.1259722305
 20
19.0265666151
 10
-13.1361271234
 20
18.9948291725
 10
-13.1419874205
 20
18.9618721169
 10
-13.1434706204
 20
18.9346278503
  0
LINE
  5
2D4
100
AcDbEntity
  8
0
100
AcDbLine
 62
7
  6
CONTINUOUS
 10
-13.90157292
 20
18.9339259599
 11
-14.532901526
 21
18.3369387517
  0
LINE
  5
2D5
100
AcDbEntity
  8
0
100
AcDbLine
 62
7
  6
CONTINUOUS
 10
-9.9515135569
 20
23.7310382805
 11
-13.5895218604
 21
20.336050858
  0
LINE
  5
2D6
100
AcDbEntity
  8
0
100
AcDbLine
 62
253
  6
CONTINUOUS
 10
-12.9001226687
 20
19.1451194937
 11
-12.8941978592
 21
19.1505536518
  0
LINE
  5
2D7
100
AcDbEntity
  8
0
100
AcDbLine
 62
7
  6
CONTINUOUS
 10
-9.9515135569
 20
23.1391701074
 11
-13.90157292
 21
19.5761222437
  0
LINE
  5
2D8
100
AcDbEntity
  8
0
100
AcDbLine
 62
7
  6
CONTINUOUS
 10
-13.0594644591
 20
19.1216193869
 11
-11.9447861097
 21
20.1114079019
  0
LINE
  5
2D9
100
AcDbEntity
  8
0
100
AcDbLine
 62
253
  6
CONTINUOUS
 10
-12.8941978592
 20
19.1505536518
 11
-11.7798143447
 21
20.1400803655
  0
LINE
  5
2DA
100
AcDbEntity
  8
0
100
AcDbLine
 62
253
  6
CONTINUOUS
 10
-13.0594644591
 20
19.1216193869
 11
-13.0592260393
 21
19.1218306109
  0
LWPOLYLINE
  5
2DB
100
AcDbEntity
  8
0
100
AcDbPolyline
 62
253
  6
CONTINUOUS
 90
20
 70
0
 10
-13.0592260393
 20
19.1218306109
 10
-13.0581015185
 20
19.1228139865
 10
-13.0511707083
 20
19.1284356401
 10
-13.0438825914
 20
19.1336182708
 10
-13.0362536978
 20
19.1383501298
 10
-13.0283013389
 20
19.1426204896
 10
-13.0200435157
 20
19.1464196933
 10
-13.0114988852
 20
19.1497391581
 10
-13.0026867221
 20
19.1525713828
 10
-12.9936270689
 20
19.1549099128
 10
-12.9843406523
 20
19.1567494112
 10
-12.974848653
 20
19.1580857235
 10
-12.9651724645
 20
19.1589158782
 10
-12.955333833
 20
19.1592380238
 10
-12.9453535493
 20
19.1590513648
 10
-12.9352556876
 20
19.1583562378
 10
-12.9250675226
 20
19.1571548421
 10
-12.914813702
 20
19.155450828
 10
-12.9045160419
 20
19.1532485592
 10
-12.8941978592
 20
19.1505536518
  0
LINE
  5
2DC
100
AcDbEntity
  8
0
100
AcDbLine
 62
253
  6
CONTINUOUS
 10
-14.118075607
 20
20.8150782501
 11
-13.7461345099
 21
21.1377744036
  0
LINE
  5
2DD
100
AcDbEntity
  8
0
100
AcDbLine
 62
253
  6
CONTINUOUS
 10
-13.90157292
 20
20.5360766209
 11
-13.5296318229
 21
20.8587727744
  0
LINE
  5
2DE
100
AcDbEntity
  8
0
100
AcDbLine
 62
7
  6
CONTINUOUS
 10
-10.3697453208
 20
22.5043097924
 11
-13.8491086932
 21
19.4910927229
  0
LINE
  5
2DF
100
AcDbEntity
  8
0
100
AcDbLine
 62
7
  6
CONTINUOUS
 10
-11.9447861113
 20
20.1114079006
 11
-11.9421484764
 21
20.113692121
  0
LINE
  5
2E0
100
AcDbEntity
  8
0
100
AcDbLine
 62
253
  6
CONTINUOUS
 10
-15.253939449
 20
19.8329713953
 11
-14.1180763032
 21
20.8150784511
  0
LINE
  5
2E1
100
AcDbEntity
  8
0
100
AcDbLine
 62
253
  6
CONTINUOUS
 10
-15.0374360658
 20
19.5539688689
 11
-13.90157292
 21
20.5360759247
  0
LINE
  5
2E2
100
AcDbEntity
  8
0
100
AcDbLine
 62
7
  6
CONTINUOUS
 10
-10.8546861408
 20
24.3531257541
 11
-14.3908298882
 21
21.3667477745
  0
LINE
  5
2E3
100
AcDbEntity
  8
0
100
AcDbLine
 62
7
  6
CONTINUOUS
 10
-11.9421484786
 20
20.1136921192
 11
-11.5623329214
 21
20.4344575907
  0
LINE
  5
2E4
100
AcDbEntity
  8
0
100
AcDbLine
 62
253
  6
CONTINUOUS
 10
-11.7798143447
 20
20.1400803655
 11
-11.400301009
 21
20.460590602
  0
LWPOLYLINE
  5
2E5
100
AcDbEntity
  8
0
100
AcDbPolyline
 62
7
  6
CONTINUOUS
 90
19
 70
0
 10
-11.9421484764
 20
20.113692121
 10
-11.936505152
 20
20.1182148235
 10
-11.9292187309
 20
20.1233978361
 10
-11.9215938649
 20
20.1281281748
 10
-11.9136478054
 20
20.1323951425
 10
-11.9053985576
 20
20.1361890695
 10
-11.8968648445
 20
20.1395013335
 10
-11.8880659611
 20
20.1423244635
 10
-11.8790218286
 20
20.1446520748
 10
-11.8697530016
 20
20.1464788422
 10
-11.8602804256
 20
20.1478006728
 10
-11.850625532
 20
20.1486145968
 10
-11.8408102877
 20
20.1489186941
 10
-11.8308568623
 20
20.148712333
 10
-11.8207877604
 20
20.147996019
 10
-11.8106259138
 20
20.1467712753
 10
-11.8003943374
 20
20.1450408827
 10
-11.7901160781
 20
20.1428088727
 10
-11.7798143447
 20
20.1400803655
  0
LWPOLYLINE
  5
2E6
100
AcDbEntity
  8
0
100
AcDbPolyline
 62
253
  6
CONTINUOUS
 90
3
 70
0
 10
-11.5623329214
 20
20.4344575907
 10
-11.5566720244
 20
20.4389937936
 10
-11.5496452834
 20
20.4439905565
  0
LINE
  5
2E7
100
AcDbEntity
  8
0
100
AcDbLine
 62
7
  6
CONTINUOUS
 10
-11.5396458673
 20
20.4515089367
 11
-11.5624041522
 21
20.4343973937
  0
LWPOLYLINE
  5
2E8
100
AcDbEntity
  8
0
100
AcDbPolyline
 62
253
  6
CONTINUOUS
 90
4
 70
0
 10
-11.5493839182
 20
20.4441764151
 10
-11.5417596943
 20
20.44890423
 10
-11.5338166535
 20
20.45316652
 10
-11.5255727758
 20
20.4569536466
  0
LWPOLYLINE
  5
2E9
100
AcDbEntity
  8
0
100
AcDbPolyline
 62
253
  6
CONTINUOUS
 90
14
 70
0
 10
-15.9423251295
 20
21.7319440066
 10
-15.9338008126
 20
21.7352483751
 10
-15.9250136321
 20
21.7380616651
 10
-15.9159834932
 20
21.7403775038
 10
-15.906730851
 20
21.7421906455
 10
-15.8972766649
 20
21.7434969829
 10
-15.8876423507
 20
21.7442935569
 10
-15.8778497324
 20
21.744578563
 10
-15.8679209922
 20
21.7443513557
 10
-15.8578786212
 20
21.7436124496
 10
-15.8477453676
 20
21.7423635185
 10
-15.8375441853
 20
21.7406073916
 10
-15.8272981824
 20
21.7383480468
 10
-15.8170305683
 20
21.735590602
  0
LWPOLYLINE
  5
2EA
100
AcDbEntity
  8
0
100
AcDbPolyline
 62
253
  6
CONTINUOUS
 90
14
 70
0
 10
-11.5255727758
 20
20.4569536466
 10
-11.5170466864
 20
20.4602570544
 10
-11.5082576183
 20
20.4630692781
 10
-11.4992255618
 20
20.4653839087
 10
-11.4899711802
 20
20.467195664
 10
-11.4805155809
 20
20.468500453
 10
-11.4708800751
 20
20.4692953754
 10
-11.4610863174
 20
20.4695786592
 10
-11.4511550046
 20
20.4693495901
 10
-11.4411100936
 20
20.4686086064
 10
-11.4309787138
 20
20.4673580333
 10
-11.4207853706
 20
20.4656016443
 10
-11.4105517464
 20
20.4633439188
 10
-11.400301009
 20
20.460590602
  0
LWPOLYLINE
  5
2EB
100
AcDbEntity
  8
0
100
AcDbPolyline
 62
7
  6
CONTINUOUS
 90
4
 70
0
 10
-11.4542543218
 20
20.4877263512
 10
-11.4843727246
 20
20.4791564378
 10
-11.5128999301
 20
20.467030759
 10
-11.5396458673
 20
20.4515089367
  0
LINE
  5
2EC
100
AcDbEntity
  8
0
100
AcDbLine
 62
253
  6
CONTINUOUS
 10
5.9559397622
 20
-26.4133628818
 11
5.5839986651
 21
-26.3641179382
  0
LINE
  5
2ED
100
AcDbEntity
  8
0
100
AcDbLine
 62
253
  6
CONTINUOUS
 10
5.8012098588
 20
-26.1098671396
 11
5.6340158382
 21
-26.0877306772
  0
LWPOLYLINE
  5
2EE
100
AcDbEntity
  8
0
100
AcDbPolyline
 62
7
  6
CONTINUOUS
 90
7
 70
0
 10
4.9519661352
 20
-26.7799206326
 10
4.9471895439
 20
-26.7792612334
 10
4.9421144292
 20
-26.7785026187
 10
4.9367409509
 20
-26.7776506694
 10
4.9310666443
 20
-26.7767178532
 10
4.9250957534
 20
-26.7757042644
 10
4.918839096
 20
-26.7745975905
  0
LINE
  5
2EF
100
AcDbEntity
  8
0
100
AcDbLine
 62
7
  6
CONTINUOUS
 10
4.918839096
 20
-26.7745975905
 11
4.9054768078
 21
-26.772133545
  0
LWPOLYLINE
  5
2F0
100
AcDbEntity
  8
0
100
AcDbPolyline
 62
7
  6
CONTINUOUS
 90
3
 70
0
 10
4.9054768078
 20
-26.772133545
 10
4.8910298911
 20
-26.7693233618
 10
4.8834121542
 20
-26.7678002197
  0
LINE
  5
2F1
100
AcDbEntity
  8
0
100
AcDbLine
 62
7
  6
CONTINUOUS
 10
4.8834121542
 20
-26.7678002197
 11
4.8674384361
 21
-26.7644953075
  0
LINE
  5
2F2
100
AcDbEntity
  8
0
100
AcDbLine
 62
7
  6
CONTINUOUS
 10
4.8674384361
 20
-26.7644953075
 11
4.8505253202
 21
-26.7608803523
  0
LINE
  5
2F3
100
AcDbEntity
  8
0
100
AcDbLine
 62
7
  6
CONTINUOUS
 10
4.8505253202
 20
-26.7608803523
 11
4.8327506557
 21
-26.756961251
  0
LINE
  5
2F4
100
AcDbEntity
  8
0
100
AcDbLine
 62
7
  6
CONTINUOUS
 10
4.8327506557
 20
-26.756961251
 11
4.8142006161
 21
-26.752745007
  0
LINE
  5
2F5
100
AcDbEntity
  8
0
100
AcDbLine
 62
7
  6
CONTINUOUS
 10
4.8142006161
 20
-26.752745007
 11
4.7949612509
 21
-26.7482642919
  0
LINE
  5
2F6
100
AcDbEntity
  8
0
100
AcDbLine
 62
7
  6
CONTINUOUS
 10
4.7949612509
 20
-26.7482642919
 11
4.7751367049
 21
-26.7435316551
  0
LWPOLYLINE
  5
2F7
100
AcDbEntity
  8
RACCORDO
100
AcDbPolyline
 62
7
  6
CONTINUOUS
 90
12
 70
0
 10
-0.7526638546
 20
-22.8116489296
 10
-0.6692375123
 20
-22.8318923045
 10
-0.5899724854
 20
-22.8441018609
 10
-0.5116342352
 20
-22.8493887263
 10
-0.4345481934
 20
-22.8478752129
 10
-0.3590199007
 20
-22.8396443069
 10
-0.2856150251
 20
-22.8248160188
 10
-0.2147606104
 20
-22.8035740516
 10
-0.1467419542
 20
-22.7760464052
 10
-0.0821515629
 20
-22.742482936
 10
-0.0214879817
 20
-22.7032175265
 10
0.0110456883
 20
-22.6785243484
  0
LINE
  5
2F8
100
AcDbEntity
  8
0
100
AcDbLine
 62
7
  6
CONTINUOUS
 10
4.7751367049
 20
-26.7435316551
 11
4.7581747669
 21
-26.7393832466
  0
LWPOLYLINE
  5
2F9
100
AcDbEntity
  8
0
100
AcDbPolyline
 62
253
  6
CONTINUOUS
 90
3
 70
0
 10
5.8080330421
 20
-26.1112973592
 10
5.8058664338
 20
-26.1107283396
 10
5.8012098588
 20
-26.1098671396
  0
LWPOLYLINE
  5
2FA
100
AcDbEntity
  8
0
100
AcDbPolyline
 62
253
  6
CONTINUOUS
 90
9
 70
0
 10
4.1061522762
 20
-28.0965772565
 10
4.1165579278
 20
-28.0994187876
 10
4.1272213405
 20
-28.1020104485
 10
4.1381185312
 20
-28.1043464089
 10
4.1492249978
 20
-28.1064214148
 10
4.1605157536
 20
-28.1082307965
 10
4.1719653818
 20
-28.1097704802
 10
4.1835481234
 20
-28.1110370027
 10
4.1952379321
 20
-28.1120275165
  0
LWPOLYLINE
  5
2FB
100
AcDbEntity
  8
0
100
AcDbPolyline
 62
253
  6
CONTINUOUS
 90
34
 70
0
 10
4.1061522762
 20
-27.7566033223
 10
4.116553663
 20
-27.7594437536
 10
4.1272133586
 20
-27.76203469
 10
4.1381074553
 20
-27.7643702543
 10
4.1492117741
 20
-27.7664451871
 10
4.1605011352
 20
-27.7682547092
 10
4.1719493731
 20
-27.7697945953
 10
4.1835304607
 20
-27.7710613553
 10
4.1952186326
 20
-27.7720521812
 10
4.2069876323
 20
-27.7727648465
 10
4.2188110156
 20
-27.7731977472
 10
4.2306621763
 20
-27.7733499067
 10
4.2425144314
 20
-27.7732209815
 10
4.2543411157
 20
-27.772811263
 10
4.2661156483
 20
-27.7721216729
 10
4.2778115592
 20
-27.7711537617
 10
4.2894025498
 20
-27.7699097059
 10
4.3008625541
 20
-27.7683923031
 10
4.3121658043
 20
-27.7666049652
 10
4.3232868837
 20
-27.7645517111
 10
4.3342007839
 20
-27.7622371578
 10
4.3448829632
 20
-27.75966651
 10
4.3553093995
 20
-27.7568455485
 10
4.3654566485
 20
-27.7537806163
 10
4.3753018965
 20
-27.7504786039
 10
4.3848230129
 20
-27.7469469327
 10
4.3939985779
 20
-27.7431935468
 10
4.4028079378
 20
-27.7392268956
 10
4.4112312736
 20
-27.735055906
 10
4.419249659
 20
-27.7306899528
 10
4.426845079
 20
-27.7261388461
 10
4.4340004584
 20
-27.7214128169
 10
4.4406997024
 20
-27.716522495
 10
4.4469277468
 20
-27.711478877
  0
LINE
  5
2FC
100
AcDbEntity
  8
0
100
AcDbLine
 62
253
  6
CONTINUOUS
 10
2.2016427366
 20
-27.7664387576
 11
-35.519253046
 21
-16.8773540905
  0
LINE
  5
2FD
100
AcDbEntity
  8
0
100
AcDbLine
 62
7
  6
CONTINUOUS
 10
3.1495002958
 20
-27.9362862999
 11
4.1618147517
 21
-28.2285163117
  0
LINE
  5
2FE
100
AcDbEntity
  8
0
100
AcDbLine
 62
253
  6
CONTINUOUS
 10
3.2617013587
 20
-27.8528052742
 11
4.1061522762
 21
-28.0965772565
  0
LINE
  5
2FF
100
AcDbEntity
  8
0
100
AcDbLine
 62
253
  6
CONTINUOUS
 10
4.1061522762
 20
-27.7566033223
 11
3.5909083326
 21
-27.6078652075
  0
LINE
  5
300
100
AcDbEntity
  8
0
100
AcDbLine
 62
253
  6
CONTINUOUS
 10
4.1686522762
 20
-27.5149767346
 11
3.8423534167
 21
-27.4207823674
  0
LINE
  5
301
100
AcDbEntity
  8
0
100
AcDbLine
 62
253
  6
CONTINUOUS
 10
5.6593166503
 20
-26.0689060985
 11
5.8012098588
 21
-26.1098671396
  0
LINE
  5
302
100
AcDbEntity
  8
0
100
AcDbLine
 62
7
  6
CONTINUOUS
 10
5.6598390317
 20
-26.0685174308
 11
5.8080473834
 21
-26.1113014966
  0
LINE
  5
303
100
AcDbEntity
  8
RACCORDO
100
AcDbLine
 62
253
  6
CONTINUOUS
 10
-0.1553134372
 20
-23.6830800545
 11
-33.7042738565
 21
-13.9983293899
  0
LINE
  5
304
100
AcDbEntity
  8
0
100
AcDbLine
 62
253
  6
CONTINUOUS
 10
4.1613488771
 20
-28.228379207
 11
4.1618147517
 21
-28.2285163117
  0
LWPOLYLINE
  5
305
100
AcDbEntity
  8
RACCORDO
100
AcDbPolyline
 62
253
  6
CONTINUOUS
 90
25
 70
0
 10
-33.7042738565
 20
-13.9983293899
 10
-33.7583388348
 20
-13.9820360128
 10
-33.8140375537
 20
-13.96261806
 10
-33.8713697855
 20
-13.9400752942
 10
-33.930275328
 20
-13.9147297146
 10
-33.9908134431
 20
-13.8862583421
 10
-34.0531625651
 20
-13.8536929153
 10
-34.1175977605
 20
-13.8169942305
 10
-34.1838409788
 20
-13.7761983854
 10
-34.25123964
 20
-13.7304486798
 10
-34.3199431014
 20
-13.6797325276
 10
-34.3897952528
 20
-13.6240555025
 10
-34.45968286
 20
-13.5625856006
 10
-34.5298634088
 20
-13.4952056761
 10
-34.6000663309
 20
-13.4220193412
 10
-34.668382565
 20
-13.3425218672
 10
-34.7351416076
 20
-13.2564219657
 10
-34.7999917208
 20
-13.1639880465
 10
-34.859997852
 20
-13.0655507005
 10
-34.9155039999
 20
-12.9600575733
 10
-34.9661330112
 20
-12.8485271898
 10
-35.0078707322
 20
-12.7343992392
 10
-35.039372757
 20
-12.6188139523
 10
-35.0619581796
 20
-12.5006057075
 10
-35.0756127447
 20
-12.379760281
  0
LWPOLYLINE
  5
306
100
AcDbEntity
  8
RACCORDO
100
AcDbPolyline
 62
253
  6
CONTINUOUS
 90
22
 70
0
 10
-33.6330751655
 20
-13.1240239421
 10
-33.665584213
 20
-13.1134718943
 10
-33.6977279328
 20
-13.1007884001
 10
-33.729506134
 20
-13.0859732658
 10
-33.7611080568
 20
-13.0689164667
 10
-33.7923436932
 20
-13.049727249
 10
-33.822643833
 20
-13.0287341773
 10
-33.8519785457
 20
-13.0059088173
 10
-33.8803763717
 20
-12.9812781957
 10
-33.9073557998
 20
-12.955254061
 10
-33.9328898981
 20
-12.9278135231
 10
-33.9570038625
 20
-12.898977718
 10
-33.979294563
 20
-12.8692246255
 10
-33.9997318682
 20
-12.838534853
 10
-34.0183441681
 20
-12.8069260389
 10
-34.0348165244
 20
-12.7749321258
 10
-34.0491114203
 20
-12.7425328055
 10
-34.0612649789
 20
-12.7097469888
 10
-34.0710733643
 20
-12.677168096
 10
-34.078468576
 20
-12.6449938818
 10
-34.0835180162
 20
-12.6130259998
 10
-34.0862213343
 20
-12.5812641029
  0
LWPOLYLINE
  5
307
100
AcDbEntity
  8
RACCORDO
100
AcDbPolyline
 62
253
  6
CONTINUOUS
 90
9
 70
0
 10
-33.5226602979
 20
-13.3517770271
 10
-33.5310941777
 20
-13.3489024597
 10
-33.5546610501
 20
-13.335602704
 10
-33.5756768182
 20
-13.3153646122
 10
-33.5938273951
 20
-13.2884907342
 10
-33.6088415168
 20
-13.2553828069
 10
-33.6204948061
 20
-13.2165357363
 10
-33.6286131236
 20
-13.1725301936
 10
-33.6330751655
 20
-13.1240239421
  0
LWPOLYLINE
  5
308
100
AcDbEntity
  8
0
100
AcDbPolyline
 62
7
  6
CONTINUOUS
 90
7
 70
0
 10
5.8080330421
 20
-26.1112973592
 10
5.8384325117
 20
-26.1222458573
 10
5.8680122241
 20
-26.1375301781
 10
5.8954791489
 20
-26.1567544409
 10
5.9201681937
 20
-26.1795262827
 10
5.9416368
 20
-26.2054777831
 10
5.9595695178
 20
-26.234357008
  0
LWPOLYLINE
  5
309
100
AcDbEntity
  8
0
100
AcDbPolyline
 62
253
  6
CONTINUOUS
 90
9
 70
0
 10
-28.5918881757
 20
24.842948051
 10
-28.5906977489
 20
24.8371941735
 10
-28.5900151473
 20
24.8316342039
 10
-28.5898419116
 20
24.8262806907
 10
-28.5901784327
 20
24.8211457164
 10
-28.5910239512
 20
24.8162408705
 10
-28.5923765587
 20
24.8115772228
 10
-28.5942332025
 20
24.8071652989
 10
-28.5947806024
 20
24.806093482
  0
LWPOLYLINE
  5
30A
100
AcDbEntity
  8
0
100
AcDbPolyline
 62
7
  6
CONTINUOUS
 90
32
 70
0
 10
-19.2898069798
 20
26.4961160502
 10
-19.2900742524
 20
26.5241545654
 10
-19.2908706356
 20
26.5516514084
 10
-19.2921961294
 20
26.5786065791
 10
-19.2940539603
 20
26.6050531081
 10
-19.2964409017
 20
26.6309579647
 10
-19.2993472744
 20
26.6562220572
 10
-19.3027726954
 20
26.6808301558
 10
-19.3067175477
 20
26.7047974901
 10
-19.3111733
 20
26.7280706574
 10
-19.3161449618
 20
26.7506630512
 10
-19.3216275236
 20
26.772561278
 10
-19.3275974264
 20
26.7936717543
 10
-19.3340516136
 20
26.8139766934
 10
-19.3409931419
 20
26.833493882
 10
-19.3484076218
 20
26.8521830969
 10
-19.3563017443
 20
26.8700546661
 10
-19.3646688184
 20
26.8870982615
 10
-19.3734743824
 20
26.9032426756
 10
-19.3827151154
 20
26.9184758937
 10
-19.3923943384
 20
26.9328099304
 10
-19.4024875523
 20
26.9462096216
 10
-19.4129989824
 20
26.9586768679
 10
-19.4239244036
 20
26.9702097687
 10
-19.4352266413
 20
26.9807674572
 10
-19.4469072924
 20
26.9903458013
 10
-19.45896476
 20
26.9989489333
 10
-19.4713570797
 20
27.0065483834
 10
-19.484081066
 20
27.01313956
 10
-19.4971399044
 20
27.0187270548
 10
-19.5105011863
 20
27.0232961738
 10
-19.5124569883
 20
27.0238719016
  0
LINE
  5
30B
100
AcDbEntity
  8
0
100
AcDbLine
 62
7
  6
CONTINUOUS
 10
-22.0025002839
 20
22.2525949784
 11
-22.0025002839
 21
21.023367562
  0
LINE
  5
30C
100
AcDbEntity
  8
0
100
AcDbLine
 62
253
  6
CONTINUOUS
 10
-21.9493410367
 20
25.576329825
 11
-21.9493410367
 21
26.9602859279
  0
LINE
  5
30D
100
AcDbEntity
  8
0
100
AcDbLine
 62
253
  6
CONTINUOUS
 10
-21.9025002839
 20
22.165992438
 11
-21.9025002839
 21
20.9322263748
  0
LINE
  5
30E
100
AcDbEntity
  8
0
100
AcDbLine
 62
7
  6
CONTINUOUS
 10
-21.8886448225
 20
25.6884491999
 11
-21.8886448225
 21
27.0049488428
  0
LINE
  5
30F
100
AcDbEntity
  8
0
100
AcDbLine
 62
7
  6
CONTINUOUS
 10
-20.4106418552
 20
21.3257457433
 11
-20.4106418552
 21
19.8788272047
  0
LINE
  5
310
100
AcDbEntity
  8
0
100
AcDbLine
 62
7
  6
CONTINUOUS
 10
-19.5947195314
 20
19.6432907181
 11
-19.5947195314
 21
21.0902092567
  0
LINE
  5
311
100
AcDbEntity
  8
0
100
AcDbLine
 62
7
  6
CONTINUOUS
 10
-19.2898069798
 20
26.4961160502
 11
-19.2898069798
 21
26.0319377365
  0
LINE
  5
312
100
AcDbEntity
  8
0
100
AcDbLine
 62
7
  6
CONTINUOUS
 10
-18.8379177216
 20
20.3589259599
 11
-18.8379177216
 21
21.7445666059
  0
LWPOLYLINE
  5
313
100
AcDbEntity
  8
0
100
AcDbPolyline
 62
253
  6
CONTINUOUS
 90
6
 70
0
 10
-21.9025002839
 20
22.165992438
 10
-21.9023881584
 20
22.1742893953
 10
-21.9020518311
 20
22.1827658128
 10
-21.9014917544
 20
22.1914028897
 10
-21.9007087507
 20
22.2001827498
 10
-21.8997043489
 20
22.2090845303
  0
LWPOLYLINE
  5
314
100
AcDbEntity
  8
0
100
AcDbPolyline
 62
253
  6
CONTINUOUS
 90
24
 70
0
 10
-17.4251125924
 20
20.2022665655
 10
-17.4225297301
 20
20.2137482164
 10
-17.4196966512
 20
20.225224004
 10
-17.4166197307
 20
20.2366681048
 10
-17.4133058925
 20
20.2480547669
 10
-17.4097625936
 20
20.2593583674
 10
-17.4059978072
 20
20.2705534704
 10
-17.4020200051
 20
20.2816148842
 10
-17.3978381383
 20
20.2925177178
 10
-17.393461617
 20
20.3032374372
 10
-17.3889002896
 20
20.3137499204
 10
-17.38416442
 20
20.3240315116
 10
-17.3792646652
 20
20.3340590748
 10
-17.3742120509
 20
20.3438100454
 10
-17.3690179466
 20
20.3532624813
 10
-17.3636940404
 20
20.3623951123
 10
-17.3582523125
 20
20.3711873876
 10
-17.352705008
 20
20.3796195224
 10
-17.3470646097
 20
20.3876725425
 10
-17.34134381
 20
20.3953283263
 10
-17.335555482
 20
20.4025696467
 10
-17.329712651
 20
20.4093802087
 10
-17.3238284646
 20
20.415744687
 10
-17.317916164
 20
20.4216487599
  0
LWPOLYLINE
  5
315
100
AcDbEntity
  8
0
100
AcDbPolyline
 62
253
  6
CONTINUOUS
 90
32
 70
0
 10
-15.0374360658
 20
19.2128605793
 10
-15.0406755058
 20
19.2014616688
 10
-15.0443949708
 20
19.1902308833
 10
-15.0485860631
 20
19.1791935797
 10
-15.05323932
 20
19.1683746776
 10
-15.0583442357
 20
19.1577986037
 10
-15.0638892843
 20
19.1474892366
 10
-15.0698619463
 20
19.1374698523
 10
-15.0762487368
 20
19.1277630726
 10
-15.0830352358
 20
19.1183908131
 10
-15.090206121
 20
19.1093742343
 10
-15.097745202
 20
19.1007336937
 10
-15.1056354572
 20
19.0924886996
 10
-15.1138590723
 20
19.0846578676
 10
-15.1223974802
 20
19.0772588778
 10
-15.1312314029
 20
19.0703084355
 10
-15.1403408955
 20
19.0638222332
 10
-15.1497053907
 20
19.0578149155
 10
-15.1593037456
 20
19.0523000454
 10
-15.1691142892
 20
19.0472900744
 10
-15.1791148716
 20
19.0427963138
 10
-15.1892829135
 20
19.0388289095
 10
-15.1995954579
 20
19.0353968191
 10
-15.2100292213
 20
19.0325077915
 10
-15.2205606464
 20
19.0301683494
 10
-15.2311659559
 20
19.0283837748
 10
-15.2418212051
 20
19.0271580969
 10
-15.2525023369
 20
19.026494083
 10
-15.2631852357
 20
19.0263932322
 10
-15.2738457819
 20
19.0268557723
 10
-15.2844599062
 20
19.027880659
 10
-15.2868203469
 20
19.0281859878
  0
LWPOLYLINE
  5
316
100
AcDbEntity
  8
0
100
AcDbPolyline
 62
7
  6
CONTINUOUS
 90
4
 70
0
 10
-13.5259385766
 20
20.456093482
 10
-13.5132917418
 20
20.483975758
 10
-13.5041911733
 20
20.5130191802
 10
-13.4987008207
 20
20.5428421956
  0
LINE
  5
317
100
AcDbEntity
  8
0
100
AcDbLine
 62
253
  6
CONTINUOUS
 10
-13.90157292
 20
19.8090317684
 11
-13.5296318229
 21
20.5112412576
  0
LINE
  5
318
100
AcDbEntity
  8
0
100
AcDbLine
 62
7
  6
CONTINUOUS
 10
-13.90157292
 20
19.7469112956
 11
-13.5259385766
 21
20.456093482
  0
LINE
  5
319
100
AcDbEntity
  8
0
100
AcDbLine
 62
7
  6
CONTINUOUS
 10
-9.4848433607
 20
17.6589259599
 11
-10.1168758907
 21
17.062051385
  0
LINE
  5
31A
100
AcDbEntity
  8
0
100
AcDbLine
 62
253
  6
CONTINUOUS
 10
-9.7013460477
 20
19.5400782501
 11
-9.3294049506
 21
19.8627744036
  0
LINE
  5
31B
100
AcDbEntity
  8
0
100
AcDbLine
 62
253
  6
CONTINUOUS
 10
-9.4848433607
 20
19.2610766209
 11
-9.1129022636
 21
19.5837727744
  0
LINE
  5
31C
100
AcDbEntity
  8
0
100
AcDbLine
 62
7
  6
CONTINUOUS
 10
-4.0373860796
 20
22.3851407414
 11
-8.9898817491
 21
18.0883547308
  0
LINE
  5
31D
100
AcDbEntity
  8
0
100
AcDbLine
 62
253
  6
CONTINUOUS
 10
-10.8384169661
 20
18.5571008257
 11
-9.7013460477
 21
19.5400782501
  0
LINE
  5
31E
100
AcDbEntity
  8
0
100
AcDbLine
 62
253
  6
CONTINUOUS
 10
-10.6219142791
 20
18.2780991965
 11
-9.4848433607
 21
19.2610766209
  0
LINE
  5
31F
100
AcDbEntity
  8
0
100
AcDbLine
 62
7
  6
CONTINUOUS
 10
-4.4376501916
 20
22.1393230314
 11
-9.1022890225
 21
18.1208039156
  0
LINE
  5
320
100
AcDbEntity
  8
0
100
AcDbLine
 62
7
  6
CONTINUOUS
 10
-3.2707152282
 20
21.5447062151
 11
-7.0599722301
 21
18.3445666059
  0
LINE
  5
321
100
AcDbEntity
  8
0
100
AcDbLine
 62
7
  6
CONTINUOUS
 10
-2.4138764095
 20
21.3712745
 11
-2.4216641214
 21
21.3654811895
  0
LINE
  5
322
100
AcDbEntity
  8
0
100
AcDbLine
 62
7
  6
CONTINUOUS
 10
-2.4216641214
 20
21.3654811895
 11
-2.4313922056
 21
21.3583727781
  0
LINE
  5
323
100
AcDbEntity
  8
0
100
AcDbLine
 62
7
  6
CONTINUOUS
 10
-2.4313922056
 20
21.3583727781
 11
-2.4429910779
 21
21.3500156527
  0
LWPOLYLINE
  5
324
100
AcDbEntity
  8
0
100
AcDbPolyline
 62
7
  6
CONTINUOUS
 90
7
 70
0
 10
-2.4637694515
 20
21.3352859279
 10
-2.4674243333
 20
21.3326714499
 10
-2.4710855432
 20
21.329958293
 10
-2.4747530812
 20
21.3271464573
 10
-2.4784269473
 20
21.3242359426
 10
-2.4821071414
 20
21.3212267492
 10
-2.4857936637
 20
21.3181188768
  0
LWPOLYLINE
  5
325
100
AcDbEntity
  8
0
100
AcDbPolyline
 62
7
  6
CONTINUOUS
 90
3
 70
0
 10
-2.4429910779
 20
21.3500156527
 10
-2.4564083973
 20
21.3404795604
 10
-2.4637694515
 20
21.3352859279
  0
LWPOLYLINE
  5
326
100
AcDbEntity
  8
0
100
AcDbPolyline
 62
7
  6
CONTINUOUS
 90
7
 70
0
 10
-3.247137963
 20
21.5627252318
 10
-3.2392993884
 20
21.5676770077
 10
-3.2310136207
 20
21.5720961439
 10
-3.2222866367
 20
21.575974508
 10
-3.2131306977
 20
21.5793057896
 10
-3.2035478036
 20
21.5820803846
 10
-3.193527281
 20
21.5842844301
  0
LWPOLYLINE
  5
327
100
AcDbEntity
  8
RACCORDO
100
AcDbPolyline
 62
253
  6
CONTINUOUS
 90
11
 70
0
 10
-35.075612736
 20
-12.3797602721
 10
-35.0176353237
 20
-12.3937056289
 10
-34.9564596367
 20
-12.4031937763
 10
-34.8931093915
 20
-12.4080659392
 10
-34.8286446937
 20
-12.408240587
 10
-34.7641442978
 20
-12.403714797
 10
-34.7006875556
 20
-12.3945643038
 10
-34.6393363545
 20
-12.380942232
 10
-34.581117348
 20
-12.3630765338
 10
-34.5270047752
 20
-12.3412661749
 10
-34.477904158
 20
-12.3158761308
  0
LINE
  5
328
100
AcDbEntity
  8
RACCORDO
100
AcDbLine
 62
7
  6
CONTINUOUS
 10
-0.7526668181
 20
-22.8116592379
 11
-33.5226602979
 21
-13.3517770271
  0
LINE
  5
329
100
AcDbEntity
  8
RACCORDO
100
AcDbLine
 62
253
  6
CONTINUOUS
 10
0.0890337641
 20
-22.9945957096
 11
-0.4234214165
 21
-22.8466626414
  0
LINE
  5
32A
100
AcDbEntity
  8
RACCORDO
100
AcDbLine
 62
253
  6
CONTINUOUS
 10
-0.8631877511
 20
-22.5838756021
 11
-33.6330751655
 21
-13.1240239421
  0
LWPOLYLINE
  5
32B
100
AcDbEntity
  8
RACCORDO
100
AcDbPolyline
 62
253
  6
CONTINUOUS
 90
9
 70
0
 10
1.075274378
 20
-22.8156041642
 10
1.0214529277
 20
-22.7972795687
 10
0.9727002838
 20
-22.7750373838
 10
0.9298323627
 20
-22.7492498513
 10
0.8935665952
 20
-22.7203485475
 10
0.8645099193
 20
-22.6888171603
 10
0.8431486227
 20
-22.6551833944
 10
0.829840205
 20
-22.6200101395
 10
0.8249783815
 20
-22.588407748
  0
LWPOLYLINE
  5
32C
100
AcDbEntity
  8
RACCORDO
100
AcDbPolyline
 62
253
  6
CONTINUOUS
 90
9
 70
0
 10
-0.7527728436
 20
-22.8116286986
 10
-0.761205497
 20
-22.8087546149
 10
-0.7847724326
 20
-22.795455249
 10
-0.8057883574
 20
-22.7752174919
 10
-0.8239391539
 20
-22.7483438302
 10
-0.8389535289
 20
-22.7152359345
 10
-0.8506070682
 20
-22.6763886562
 10
-0.8587255904
 20
-22.6323826315
 10
-0.8631877511
 20
-22.5838756021
  0
LWPOLYLINE
  5
32D
100
AcDbEntity
  8
0
100
AcDbPolyline
 62
253
  6
CONTINUOUS
 90
22
 70
0
 10
-17.4363345575
 20
19.7617811033
 10
-17.4362155544
 20
19.7524390658
 10
-17.4358587716
 20
19.7433209352
 10
-17.4352648884
 20
19.734444073
 10
-17.4344350382
 20
19.7258254039
 10
-17.4333707996
 20
19.7174813141
 10
-17.4320741878
 20
19.7094276276
 10
-17.4305476548
 20
19.7016796348
 10
-17.4287941099
 20
19.6942521523
 10
-17.4268169125
 20
19.6871594169
 10
-17.4246198454
 20
19.6804149725
 10
-17.4222070828
 20
19.6740316093
 10
-17.4195832022
 20
19.6680214357
 10
-17.4167531768
 20
19.6623958595
 10
-17.413722412
 20
19.6571656405
 10
-17.4104967258
 20
19.6523408088
 10
-17.4070822983
 20
19.647930574
 10
-17.4034856095
 20
19.6439432735
 10
-17.3997134667
 20
19.6403864432
 10
-17.3957725693
 20
19.6372665075
 10
-17.3916708645
 20
19.6345898613
 10
-17.3874176697
 20
19.6323622992
  0
LWPOLYLINE
  5
32E
100
AcDbEntity
  8
0
100
AcDbPolyline
 62
253
  6
CONTINUOUS
 90
24
 70
0
 10
-15.3782849535
 20
19.1676733569
 10
-15.3781659504
 20
19.1583313193
 10
-15.3778091676
 20
19.1492131887
 10
-15.3772152844
 20
19.1403363265
 10
-15.3763854341
 20
19.1317176574
 10
-15.3753211956
 20
19.1233735676
 10
-15.3740245838
 20
19.1153198812
 10
-15.3724980508
 20
19.1075718884
 10
-15.3707445058
 20
19.1001444059
 10
-15.3687673084
 20
19.0930516705
 10
-15.3665702413
 20
19.0863072261
 10
-15.3641574787
 20
19.0799238628
 10
-15.3615335981
 20
19.0739136893
 10
-15.3587035728
 20
19.0682881131
 10
-15.355672808
 20
19.0630578941
 10
-15.3524471218
 20
19.0582330623
 10
-15.3490326943
 20
19.0538228275
 10
-15.3454360054
 20
19.049835527
 10
-15.3416638627
 20
19.0462786967
 10
-15.3377229652
 20
19.043158761
 10
-15.3336212605
 20
19.0404821149
 10
-15.3293680657
 20
19.0382545528
 10
-15.3249721485
 20
19.036480024
 10
-15.322623059
 20
19.0357344693
  0
LINE
  5
32F
100
AcDbEntity
  8
0
100
AcDbLine
 62
253
  6
CONTINUOUS
 10
-17.5613340107
 20
19.8697728356
 11
-17.5613345575
 21
19.8700342788
  0
LINE
  5
330
100
AcDbEntity
  8
0
100
AcDbLine
 62
253
  6
CONTINUOUS
 10
-17.561334535
 20
20.2110894583
 11
-17.5613345575
 21
20.2111425683
  0
LINE
  5
331
100
AcDbEntity
  8
0
100
AcDbLine
 62
7
  6
CONTINUOUS
 10
-17.5613345575
 20
20.2111425683
 11
-17.5613345575
 21
19.8700342788
  0
LINE
  5
332
100
AcDbEntity
  8
0
100
AcDbLine
 62
253
  6
CONTINUOUS
 10
-17.4363345575
 20
20.1028893929
 11
-17.4363345575
 21
19.7617811033
  0
LINE
  5
333
100
AcDbEntity
  8
0
100
AcDbLine
 62
7
  6
CONTINUOUS
 10
-17.0658690974
 20
19.5389662541
 11
-17.0658690974
 21
18.9911165709
  0
LINE
  5
334
100
AcDbEntity
  8
0
100
AcDbLine
 62
253
  6
CONTINUOUS
 10
-16.9408690974
 20
19.5028818623
 11
-16.9408690974
 21
18.8771900869
  0
LINE
  5
335
100
AcDbEntity
  8
0
100
AcDbLine
 62
253
  6
CONTINUOUS
 10
-15.3782849535
 20
19.1676733569
 11
-15.3782849535
 21
19.5087816464
  0
LINE
  5
336
100
AcDbEntity
  8
0
100
AcDbLine
 62
253
  6
CONTINUOUS
 10
-15.1011590179
 20
23.6009383904
 11
-15.1011590179
 21
24.0461101059
  0
LINE
  5
337
100
AcDbEntity
  8
0
100
AcDbLine
 62
253
  6
CONTINUOUS
 10
-15.1011590179
 20
24.4736153139
 11
-15.1011590179
 21
24.9846863553
  0
LINE
  5
338
100
AcDbEntity
  8
0
100
AcDbLine
 62
7
  6
CONTINUOUS
 10
-15.0417740044
 20
23.7119278449
 11
-15.0417740044
 21
25.0284274879
  0
LINE
  5
339
100
AcDbEntity
  8
0
100
AcDbLine
 62
253
  6
CONTINUOUS
 10
-15.0374360658
 20
19.2128605793
 11
-15.0374360658
 21
19.5539688689
  0
LINE
  5
33A
100
AcDbEntity
  8
0
100
AcDbLine
 62
253
  6
CONTINUOUS
 10
-14.8737504136
 20
18.2804643226
 11
-14.8737504136
 21
18.9743770498
  0
LWPOLYLINE
  5
33B
100
AcDbEntity
  8
0
100
AcDbPolyline
 62
253
  6
CONTINUOUS
 90
10
 70
0
 10
-17.4363345575
 20
20.1028893929
 10
-17.4361939171
 20
20.1132786646
 10
-17.4357723121
 20
20.1238881543
 10
-17.4350706915
 20
20.134693988
 10
-17.4340906339
 20
20.14567185
 10
-17.4328343447
 20
20.1567970372
 10
-17.431304651
 20
20.1680445154
 10
-17.4295049948
 20
20.1793889749
 10
-17.427439426
 20
20.1908048878
 10
-17.4251125924
 20
20.2022665655
  0
LWPOLYLINE
  5
33C
100
AcDbEntity
  8
0
100
AcDbPolyline
 62
253
  6
CONTINUOUS
 90
34
 70
0
 10
-15.3782849535
 20
19.5087816464
 10
-15.378144313
 20
19.5191709181
 10
-15.3777227081
 20
19.5297804078
 10
-15.3770210874
 20
19.5405862416
 10
-15.3760410298
 20
19.5515641035
 10
-15.3747847407
 20
19.5626892908
 10
-15.3732550469
 20
19.573936769
 10
-15.3714553908
 20
19.5852812284
 10
-15.3693898219
 20
19.5966971413
 10
-15.3670629884
 20
19.608158819
 10
-15.3644801261
 20
19.61964047
 10
-15.3616470471
 20
19.6311162575
 10
-15.3585701266
 20
19.6425603584
 10
-15.3552562884
 20
19.6539470205
 10
-15.3517129895
 20
19.665250621
 10
-15.3479482032
 20
19.676445724
 10
-15.3439704011
 20
19.6875071378
 10
-15.3397885343
 20
19.6984099714
 10
-15.335412013
 20
19.7091296908
 10
-15.3308506855
 20
19.7196421739
 10
-15.3261148159
 20
19.7299237652
 10
-15.3212150612
 20
19.7399513283
 10
-15.3161624468
 20
19.7497022989
 10
-15.3109683426
 20
19.7591547349
 10
-15.3056444364
 20
19.7682873658
 10
-15.3002027084
 20
19.7770796411
 10
-15.2946554039
 20
19.785511776
 10
-15.2890150057
 20
19.793564796
 10
-15.2832942059
 20
19.8012205799
 10
-15.277505878
 20
19.8084619002
 10
-15.2716630469
 20
19.8152724623
 10
-15.2657788606
 20
19.8216369406
 10
-15.2598665599
 20
19.8275410134
 10
-15.253939449
 20
19.8329713953
  0
LINE
  5
33D
100
AcDbEntity
  8
0
100
AcDbLine
 62
7
  6
CONTINUOUS
 10
-13.4987008207
 20
20.5428421956
 11
-13.496861765
 21
20.5731799621
  0
LWPOLYLINE
  5
33E
100
AcDbEntity
  8
0
100
AcDbPolyline
 62
253
  6
CONTINUOUS
 90
11
 70
0
 10
-13.497099644
 20
20.5676582969
 10
-13.4978974395
 20
20.5617439714
 10
-13.4992550648
 20
20.5558554042
 10
-13.5011694403
 20
20.5500057555
 10
-13.5036362832
 20
20.54420806
 10
-13.5066503129
 20
20.5384748925
 10
-13.5102045734
 20
20.5328196192
 10
-13.5142901008
 20
20.5272561892
 10
-13.5188969961
 20
20.5217974463
 10
-13.5240148474
 20
20.5164551639
 10
-13.5296318229
 20
20.5112412576
  0
LWPOLYLINE
  5
33F
100
AcDbEntity
  8
0
100
AcDbPolyline
 62
253
  6
CONTINUOUS
 90
24
 70
0
 10
-13.0072568895
 20
18.9257663688
 10
-13.0046758805
 20
18.9372437288
 10
-13.0018448181
 20
18.9487153257
 10
-12.9987700681
 20
18.9601553648
 10
-12.9954585444
 20
18.9715381223
 10
-12.9919176932
 20
18.9828380033
 10
-12.9881554764
 20
18.994029599
 10
-12.9841803535
 20
19.0050877443
 10
-12.980001263
 20
19.0159875742
 10
-12.9756276019
 20
19.0267045796
 10
-12.9710692046
 20
19.0372146624
 10
-12.966336321
 20
19.04749419
 10
-12.9614395935
 20
19.057520048
 10
-12.9563900326
 20
19.0672696925
 10
-12.9511989928
 20
19.0767212008
 10
-12.9458781463
 20
19.0858533204
 10
-12.9404394576
 20
19.094645517
 10
-12.934895156
 20
19.1030780208
 10
-12.9292577083
 20
19.1111318705
 10
-12.9235397906
 20
19.1187889566
 10
-12.9177542602
 20
19.1260320614
 10
-12.9119141262
 20
19.1328448983
 10
-12.9060325206
 20
19.1392121482
 10
-12.9001226687
 20
19.1451194937
  0
LWPOLYLINE
  5
340
100
AcDbEntity
  8
0
100
AcDbPolyline
 62
253
  6
CONTINUOUS
 90
32
 70
0
 10
-10.6219142791
 20
17.9381252623
 10
-10.6251529178
 20
17.9267392935
 10
-10.6288712818
 20
17.9155187272
 10
-10.633061307
 20
17.9044889752
 10
-10.6377142184
 20
17.893674253
 10
-10.6428195286
 20
17.8830999426
 10
-10.6483647278
 20
17.8727923474
 10
-10.6543367985
 20
17.8627755332
 10
-10.6607226927
 20
17.8530712627
 10
-10.667508138
 20
17.8437012532
 10
-10.6746779412
 20
17.8346865558
 10
-10.6822158528
 20
17.8260476687
 10
-10.6901047175
 20
17.8178042769
 10
-10.6983266653
 20
17.8099750448
 10
-10.7068631942
 20
17.8025775827
 10
-10.7156950544
 20
17.7956285739
 10
-10.7248023251
 20
17.7891436983
 10
-10.7341644376
 20
17.7831376077
 10
-10.7437602391
 20
17.7776238743
 10
-10.7535680618
 20
17.7726149477
 10
-10.7635657732
 20
17.7681221305
 10
-10.7737308058
 20
17.7641555641
 10
-10.7840402142
 20
17.7607242024
 10
-10.7944707266
 20
17.7578357911
 10
-10.8049987977
 20
17.7554968505
 10
-10.815600675
 20
17.7537126584
 10
-10.8262524143
 20
17.7524872454
 10
-10.8369299336
 20
17.751823379
 10
-10.8476091053
 20
17.7517225513
 10
-10.8582658487
 20
17.7521849819
 10
-10.8688761467
 20
17.7532096255
 10
-10.8712623518
 20
17.7535184876
  0
LINE
  5
341
100
AcDbEntity
  8
0
100
AcDbLine
 62
7
  6
CONTINUOUS
 10
-9.0969347895
 20
19.2080050119
 11
-9.1092431618
 21
19.1810291591
  0
LINE
  5
342
100
AcDbEntity
  8
0
100
AcDbLine
 62
253
  6
CONTINUOUS
 10
-9.4848433607
 20
18.5340317684
 11
-9.1129022636
 21
19.2362412576
  0
LINE
  5
343
100
AcDbEntity
  8
0
100
AcDbLine
 62
7
  6
CONTINUOUS
 10
-9.4848433607
 20
18.4719112956
 11
-9.1092090173
 21
19.181093482
  0
LWPOLYLINE
  5
344
100
AcDbEntity
  8
0
100
AcDbPolyline
 62
7
  6
CONTINUOUS
 90
37
 70
0
 10
-10.1168758907
 20
17.8696835068
 10
-10.1216524819
 20
17.8611932736
 10
-10.1267275967
 20
17.8527635741
 10
-10.132101075
 20
17.8444075366
 10
-10.1377753815
 20
17.8361393267
 10
-10.1437462725
 20
17.8279714528
 10
-10.1500029299
 20
17.8199148187
 10
-10.1565434449
 20
17.8119832506
 10
-10.1633652181
 20
17.8041903644
 10
-10.1704559084
 20
17.7965470372
 10
-10.1778121347
 20
17.7890673745
 10
-10.1854298716
 20
17.781765222
 10
-10.1932953286
 20
17.7746513628
 10
-10.2014035897
 20
17.7677400394
 10
-10.2097491192
 20
17.7610452071
 10
-10.2183167056
 20
17.754577529
 10
-10.227099837
 20
17.7483512295
 10
-10.2360913702
 20
17.7423802416
 10
-10.2452746237
 20
17.7366751142
 10
-10.2546414097
 20
17.731249884
 10
-10.2641828792
 20
17.7261182937
 10
-10.2738807749
 20
17.721290762
 10
-10.2837251401
 20
17.7167809344
 10
-10.293705321
 20
17.7126021488
 10
-10.3038013447
 20
17.708764617
 10
-10.3140013785
 20
17.7052813423
 10
-10.3242928839
 20
17.7021649782
 10
-10.3346540585
 20
17.6994253462
 10
-10.345071071
 20
17.6970744977
 10
-10.3555294727
 20
17.6951240434
 10
-10.3660056673
 20
17.6935830914
 10
-10.3764837297
 20
17.6924623604
 10
-10.3869473335
 20
17.6917720005
 10
-10.3973713464
 20
17.6915199773
 10
-10.4077255561
 20
17.691714807
 10
-10.4180041022
 20
17.6923639838
 10
-10.4287811083
 20
17.6935543467
  0
LWPOLYLINE
  5
345
100
AcDbEntity
  8
0
100
AcDbPolyline
 62
7
  6
CONTINUOUS
 90
7
 70
0
 10
-2.4030777303
 20
21.3799254537
 10
-2.4034611608
 20
21.3794866346
 10
-2.4044430036
 20
21.3786111683
 10
-2.4059993058
 20
21.3773401204
 10
-2.4081028981
 20
21.3756883335
 10
-2.4107305102
 20
21.3736588098
 10
-2.4138764095
 20
21.3712745
  0
LINE
  5
346
100
AcDbEntity
  8
0
100
AcDbLine
 62
7
  6
CONTINUOUS
 10
-6.4872480965
 20
16.4822263748
 11
-6.9872480965
 21
16.0038272047
  0
LINE
  5
347
100
AcDbEntity
  8
0
100
AcDbLine
 62
7
  6
CONTINUOUS
 10
-7.0599722301
 20
18.3445666059
 11
-7.8024146475
 21
17.6853082843
  0
LINE
  5
348
100
AcDbEntity
  8
0
100
AcDbLine
 62
7
  6
CONTINUOUS
 10
-6.9872480965
 20
17.4499899705
 11
-6.3878298697
 21
17.9751415861
  0
LINE
  5
349
100
AcDbEntity
  8
0
100
AcDbLine
 62
253
  6
CONTINUOUS
 10
-4.395971441
 20
17.4001415861
 11
-4.2453896678
 21
17.5320666059
  0
LINE
  5
34A
100
AcDbEntity
  8
0
100
AcDbLine
 62
253
  6
CONTINUOUS
 10
-4.2221845871
 20
17.1774432669
 11
-4.0721845871
 21
17.308858594
  0
LINE
  5
34B
100
AcDbEntity
  8
0
100
AcDbLine
 62
7
  6
CONTINUOUS
 10
-3.6254246853
 20
17.8771136016
 11
-1.0406002334
 21
20.1156372412
  0
LINE
  5
34C
100
AcDbEntity
  8
0
100
AcDbLine
 62
7
  6
CONTINUOUS
 10
-4.0721845871
 20
16.0964259599
 11
-3.5721845871
 21
16.5249041219
  0
LINE
  5
34D
100
AcDbEntity
  8
0
100
AcDbLine
 62
7
  6
CONTINUOUS
 10
-2.4857936637
 20
21.3181188768
 11
-5.7372480965
 21
18.5350409194
  0
LINE
  5
34E
100
AcDbEntity
  8
0
100
AcDbLine
 62
7
  6
CONTINUOUS
 10
-4.5266838111
 20
18.1855811114
 11
-2.4637694515
 21
19.951329825
  0
LINE
  5
34F
100
AcDbEntity
  8
0
100
AcDbLine
 62
7
  6
CONTINUOUS
 10
-0.301326529
 20
21.3066332478
 11
-4.0936711092
 21
18.0605811114
  0
LINE
  5
350
100
AcDbEntity
  8
0
100
AcDbLine
 62
253
  6
CONTINUOUS
 10
-4.2453896678
 20
17.5320666059
 11
-3.7453896678
 21
17.9600409194
  0
LINE
  5
351
100
AcDbEntity
  8
0
100
AcDbLine
 62
253
  6
CONTINUOUS
 10
-4.0721845871
 20
17.308858594
 11
-3.5721845871
 21
17.7368329074
  0
LWPOLYLINE
  5
352
100
AcDbEntity
  8
RACCORDO
100
AcDbPolyline
 62
253
  6
CONTINUOUS
 90
13
 70
0
 10
-35.2338716187
 20
-7.3895469452
 10
-35.1758854593
 20
-7.4037842466
 10
-35.114687134
 20
-7.4140235601
 10
-35.0513006596
 20
-7.4200935536
 10
-34.9867866666
 20
-7.4218926595
 10
-34.9222246519
 20
-7.4193907738
 10
-34.8586949161
 20
-7.4126297599
 10
-34.7972604868
 20
-7.4017227482
 10
-34.7389493314
 20
-7.3868522431
 10
-34.6847371562
 20
-7.3682670691
 10
-34.6355310805
 20
-7.3462782075
 10
-34.5921544576
 20
-7.3212535925
 10
-34.5553330979
 20
-7.2936119549
  0
LINE
  5
353
100
AcDbEntity
  8
RACCORDO
100
AcDbLine
 62
253
  6
CONTINUOUS
 10
-0.5906061115
 20
-17.6788714134
 11
-34.2170256937
 21
-7.9717602145
  0
LINE
  5
354
100
AcDbEntity
  8
RACCORDO
100
AcDbLine
 62
253
  6
CONTINUOUS
 10
1.6917494422
 20
-18.0490555754
 11
0.926239814
 21
-17.8280719805
  0
LINE
  5
355
100
AcDbEntity
  8
RACCORDO
100
AcDbLine
 62
253
  6
CONTINUOUS
 10
-35.2338716192
 20
-7.3895469456
 11
-35.9993812474
 21
-7.1685633506
  0
LINE
  5
356
100
AcDbEntity
  8
0
100
AcDbLine
 62
7
  6
CONTINUOUS
 10
9.3467481747
 20
-18.3479830148
 11
9.1158262643
 21
-18.2813216013
  0
LWPOLYLINE
  5
357
100
AcDbEntity
  8
RACCORDO
100
AcDbPolyline
 62
253
  6
CONTINUOUS
 90
9
 70
0
 10
0.9262398151
 20
-17.8280719795
 10
0.8724356832
 20
-17.8100382035
 10
0.8237142769
 20
-17.7885464237
 10
0.7808908397
 20
-17.7639562567
 10
0.7446819257
 20
-17.736679164
 10
0.7156934098
 20
-17.7071715664
 10
0.69441035
 20
-17.6759272073
 10
0.6811888704
 20
-17.6434688912
 10
0.6762235368
 20
-17.6087486831
  0
LWPOLYLINE
  5
358
100
AcDbEntity
  8
0
100
AcDbPolyline
 62
253
  6
CONTINUOUS
 90
10
 70
0
 10
5.8855911998
 20
-26.1575711921
 10
5.8772760768
 20
-26.1503268765
 10
5.868648218
 20
-26.1435365826
 10
5.8597270961
 20
-26.1372156357
 10
5.8505328454
 20
-26.1313783018
 10
5.8410862168
 20
-26.1260377554
 10
5.8314085309
 20
-26.1212060499
 10
5.8215216295
 20
-26.11689409
 10
5.8114478268
 20
-26.1131116076
 10
5.8012098588
 20
-26.1098671396
  0
LWPOLYLINE
  5
359
100
AcDbEntity
  8
0
100
AcDbPolyline
 62
7
  6
CONTINUOUS
 90
6
 70
0
 10
-32.5831359387
 20
24.0740633928
 10
-32.6010668431
 20
24.1029552747
 10
-32.6150247812
 20
24.1343235798
 10
-32.6246014141
 20
24.1675328885
 10
-32.629526572
 20
24.2020180859
 10
-32.6301760366
 20
24.2197728356
  0
LWPOLYLINE
  5
35A
100
AcDbEntity
  8
0
100
AcDbPolyline
 62
253
  6
CONTINUOUS
 90
4
 70
0
 10
-28.5984738488
 20
24.8612412576
 10
-28.5957806181
 20
24.8549851766
 10
-28.593583741
 20
24.8488828502
 10
-28.5918881757
 20
24.842948051
  0
LWPOLYLINE
  5
35B
100
AcDbEntity
  8
0
100
AcDbPolyline
 62
253
  6
CONTINUOUS
 90
10
 70
0
 10
-28.6222978819
 20
25.3151598473
 10
-28.6178100316
 20
25.3045761677
 10
-28.6137705785
 20
25.2939155915
 10
-28.6101886757
 20
25.2832022724
 10
-28.6070724413
 20
25.2724604885
 10
-28.6044289357
 20
25.2617145743
 10
-28.602264151
 20
25.2509888837
 10
-28.6005829954
 20
25.2403077382
 10
-28.5993892769
 20
25.2296953457
 10
-28.5986856973
 20
25.2191757459
  0
LWPOLYLINE
  5
35C
100
AcDbEntity
  8
0
100
AcDbPolyline
 62
7
  6
CONTINUOUS
 90
5
 70
0
 10
-28.5928388209
 20
25.3839169147
 10
-28.579280639
 20
25.3519074985
 10
-28.5702821401
 20
25.3182678402
 10
-28.5660489161
 20
25.2837744382
 10
-28.5657038179
 20
25.2705512837
  0
LWPOLYLINE
  5
35D
100
AcDbEntity
  8
0
100
AcDbPolyline
 62
7
  6
CONTINUOUS
 90
5
 70
0
 10
-13.4968617966
 20
20.9205482286
 10
-13.4989847811
 20
20.9531535245
 10
-13.5052384018
 20
20.9848148908
 10
-13.5155526237
 20
21.0154896841
 10
-13.5297966671
 20
21.0446691841
  0
LINE
  5
35E
100
AcDbEntity
  8
0
100
AcDbLine
 62
253
  6
CONTINUOUS
 10
-13.5298436083
 20
20.8691743044
 11
-13.5296318229
 21
20.8587727744
  0
LWPOLYLINE
  5
35F
100
AcDbEntity
  8
0
100
AcDbPolyline
 62
253
  6
CONTINUOUS
 90
22
 70
0
 10
-13.0184706428
 20
18.4864536431
 10
-13.0183516396
 20
18.4771116045
 10
-13.0179948568
 20
18.467993473
 10
-13.0174009734
 20
18.4591166098
 10
-13.016571123
 20
18.4504979398
 10
-13.0155068842
 20
18.4421538491
 10
-13.0142102721
 20
18.4341001621
 10
-13.0126837389
 20
18.426352169
 10
-13.0109301937
 20
18.4189246864
 10
-13.008952996
 20
18.411831951
 10
-13.0067559286
 20
18.4050875065
 10
-13.0043431656
 20
18.3987041433
 10
-13.0017192847
 20
18.3926939697
 10
-12.998889259
 20
18.3870683936
 10
-12.9958584939
 20
18.3818381748
 10
-12.9926328075
 20
18.3770133435
 10
-12.9892183801
 20
18.3726031095
 10
-12.9856216915
 20
18.3686158099
 10
-12.981849549
 20
18.3650589804
 10
-12.9779086519
 20
18.3619390454
 10
-12.9738069475
 20
18.3592623998
 10
-12.9695537531
 20
18.3570348382
  0
LINE
  5
360
100
AcDbEntity
  8
0
100
AcDbLine
 62
253
  6
CONTINUOUS
 10
-13.1434700922
 20
18.5944444682
 11
-13.1434706428
 21
18.5947068186
  0
LINE
  5
361
100
AcDbEntity
  8
0
100
AcDbLine
 62
253
  6
CONTINUOUS
 10
-13.1434706204
 20
18.9346278503
 11
-13.1434706428
 21
18.9346807527
  0
LINE
  5
362
100
AcDbEntity
  8
0
100
AcDbLine
 62
253
  6
CONTINUOUS
 10
-14.532901526
 20
18.3369387517
 11
-14.532901526
 21
19.1445642723
  0
LINE
  5
363
100
AcDbEntity
  8
0
100
AcDbLine
 62
7
  6
CONTINUOUS
 10
-13.90157292
 20
18.9339259599
 11
-13.90157292
 21
20.5360766209
  0
LINE
  5
364
100
AcDbEntity
  8
0
100
AcDbLine
 62
253
  6
CONTINUOUS
 10
-13.5296318229
 20
20.8587727744
 11
-13.5296318229
 21
20.5112412576
  0
LINE
  5
365
100
AcDbEntity
  8
0
100
AcDbLine
 62
7
  6
CONTINUOUS
 10
-13.4968617263
 20
20.9206419288
 11
-13.4968617263
 21
20.573110412
  0
LINE
  5
366
100
AcDbEntity
  8
0
100
AcDbLine
 62
7
  6
CONTINUOUS
 10
-13.1434706428
 20
18.9346807527
 11
-13.1434706428
 21
18.5947068186
  0
LINE
  5
367
100
AcDbEntity
  8
0
100
AcDbLine
 62
253
  6
CONTINUOUS
 10
-13.0184706428
 20
18.8264275772
 11
-13.0184706428
 21
18.4864536431
  0
LINE
  5
368
100
AcDbEntity
  8
0
100
AcDbLine
 62
7
  6
CONTINUOUS
 10
-12.6485090312
 20
18.2637842424
 11
-12.6485090312
 21
17.7159345592
  0
LINE
  5
369
100
AcDbEntity
  8
0
100
AcDbLine
 62
253
  6
CONTINUOUS
 10
-12.5235090312
 20
18.2276998506
 11
-12.5235090312
 21
17.6020080752
  0
LINE
  5
36A
100
AcDbEntity
  8
0
100
AcDbLine
 62
253
  6
CONTINUOUS
 10
-10.9626897496
 20
17.8930008171
 11
-10.9626897496
 21
18.2329747512
  0
LINE
  5
36B
100
AcDbEntity
  8
0
100
AcDbLine
 62
253
  6
CONTINUOUS
 10
-13.4968617263
 20
20.9206419288
 11
-13.4968617966
 21
20.9205482286
  0
LWPOLYLINE
  5
36C
100
AcDbEntity
  8
0
100
AcDbPolyline
 62
253
  6
CONTINUOUS
 90
10
 70
0
 10
-13.0184706428
 20
18.8264275772
 10
-13.0183301068
 20
18.8368129458
 10
-13.0179088149
 20
18.8474183776
 10
-13.0172077143
 20
18.8582200254
 10
-13.0162283816
 20
18.8691936009
 10
-13.0149730187
 20
18.8803144293
 10
-13.0134444486
 20
18.8915575045
 10
-13.0116461083
 20
18.9028975455
 10
-13.0095820416
 20
18.9143090535
 10
-13.0072568895
 20
18.9257663688
  0
LWPOLYLINE
  5
36D
100
AcDbEntity
  8
0
100
AcDbPolyline
 62
253
  6
CONTINUOUS
 90
34
 70
0
 10
-10.9626897496
 20
18.2329747512
 10
-10.9625492137
 20
18.2433601198
 10
-10.9621279217
 20
18.2539655515
 10
-10.9614268211
 20
18.2647671994
 10
-10.9604474884
 20
18.2757407749
 10
-10.9591921256
 20
18.2868616033
 10
-10.9576635554
 20
18.2981046784
 10
-10.9558652152
 20
18.3094447195
 10
-10.9538011484
 20
18.3208562275
 10
-10.9514759963
 20
18.3323135428
 10
-10.9488949873
 20
18.3437909027
 10
-10.9460639249
 20
18.3552624997
 10
-10.9429891749
 20
18.3667025388
 10
-10.9396776513
 20
18.3780852963
 10
-10.9361368001
 20
18.3893851772
 10
-10.9323745832
 20
18.400576773
 10
-10.9283994604
 20
18.4116349183
 10
-10.9242203698
 20
18.4225347482
 10
-10.9198467087
 20
18.4332517536
 10
-10.9152883114
 20
18.4437618364
 10
-10.9105554278
 20
18.4540413639
 10
-10.9056587003
 20
18.464067222
 10
-10.9006091395
 20
18.4738168665
 10
-10.8954180996
 20
18.4832683748
 10
-10.8900972532
 20
18.4924004944
 10
-10.8846585645
 20
18.501192691
 10
-10.8791142629
 20
18.5096251948
 10
-10.8734768151
 20
18.5176790445
 10
-10.8677588974
 20
18.5253361306
 10
-10.861973367
 20
18.5325792354
 10
-10.856133233
 20
18.5393920723
 10
-10.8502516274
 20
18.5457593221
 10
-10.8443417755
 20
18.5516666677
 10
-10.8384169661
 20
18.5571008257
  0
LINE
  5
36E
100
AcDbEntity
  8
0
100
AcDbLine
 62
253
  6
CONTINUOUS
 10
-13.4968617263
 20
20.573110412
 11
-13.497099644
 21
20.5676582969
  0
LWPOLYLINE
  5
36F
100
AcDbEntity
  8
0
100
AcDbPolyline
 62
253
  6
CONTINUOUS
 90
12
 70
0
 10
-13.4968617966
 20
20.9205482286
 10
-13.4971003257
 20
20.9151820117
 10
-13.4978989187
 20
20.909267391
 10
-13.4992574012
 20
20.9033785415
 10
-13.5011726935
 20
20.8975286256
 10
-13.5036405089
 20
20.8917306879
 10
-13.5066557918
 20
20.8859969109
 10
-13.5102114299
 20
20.880341069
 10
-13.5142975444
 20
20.8747782687
 10
-13.5189035666
 20
20.8693216662
 10
-13.5240190362
 20
20.8639825618
 10
-13.5296318229
 20
20.8587727744
  0
LWPOLYLINE
  5
370
100
AcDbEntity
  8
0
100
AcDbPolyline
 62
253
  6
CONTINUOUS
 90
11
 70
0
 10
-9.0803691514
 20
19.2926689966
 10
-9.0811658664
 20
19.2867550042
 10
-9.082522401
 20
19.2808665453
 10
-9.0844357049
 20
19.2750168605
 10
-9.0869014759
 20
19.2692191033
 10
-9.0899141695
 20
19.2634863104
 10
-9.0934670114
 20
19.2578313724
 10
-9.0975520129
 20
19.2522670049
 10
-9.1021599885
 20
19.2468057197
 10
-9.1072805767
 20
19.2414597971
 10
-9.1129022636
 20
19.2362412576
  0
LINE
  5
371
100
AcDbEntity
  8
0
100
AcDbLine
 62
7
  6
CONTINUOUS
 10
-4.2221845871
 20
15.9529062089
 11
-4.0721845871
 21
16.0964259599
  0
LINE
  5
372
100
AcDbEntity
  8
0
100
AcDbLine
 62
7
  6
CONTINUOUS
 10
-2.2983445314
 20
16.9096237517
 11
-2.4487235017
 21
16.7778764079
  0
LINE
  5
373
100
AcDbEntity
  8
0
100
AcDbLine
 62
253
  6
CONTINUOUS
 10
-2.1669286988
 20
16.9320666059
 11
-2.3175104719
 21
16.8001415861
  0
LINE
  5
374
100
AcDbEntity
  8
0
100
AcDbLine
 62
7
  6
CONTINUOUS
 10
-0.3256520432
 20
16.2251415861
 11
-0.92507027
 21
15.6999899705
  0
LINE
  5
375
100
AcDbEntity
  8
0
100
AcDbLine
 62
253
  6
CONTINUOUS
 10
-2.4486054613
 20
16.7779796768
 11
-2.4487235017
 21
16.7778764079
  0
LINE
  5
376
100
AcDbEntity
  8
0
100
AcDbLine
 62
7
  6
CONTINUOUS
 10
0.6476538635
 20
16.1195666059
 11
4.3613057273
 21
19.3415315386
  0
LINE
  5
377
100
AcDbEntity
  8
0
100
AcDbLine
 62
7
  6
CONTINUOUS
 10
-2.2973651131
 20
16.9104719036
 11
-2.2983445403
 21
16.9096237439
  0
LINE
  5
378
100
AcDbEntity
  8
0
100
AcDbLine
 62
7
  6
CONTINUOUS
 10
-0.1099037191
 20
15.4646716567
 11
0.6476538635
 21
16.1195666059
  0
LINE
  5
379
100
AcDbEntity
  8
RACCORDO
100
AcDbLine
 62
253
  6
CONTINUOUS
 10
-34.3429876639
 20
-12.2087791753
 11
-34.3979277772
 21
-12.256109291
  0
LINE
  5
37A
100
AcDbEntity
  8
0
100
AcDbLine
 62
7
  6
CONTINUOUS
 10
-1.7973651093
 20
17.3384462204
 11
-2.2973651093
 21
16.9104719069
  0
LINE
  5
37B
100
AcDbEntity
  8
0
100
AcDbLine
 62
253
  6
CONTINUOUS
 10
-1.6669286988
 20
17.3600409194
 11
-2.1669286988
 21
16.9320666059
  0
LINE
  5
37C
100
AcDbEntity
  8
0
100
AcDbLine
 62
7
  6
CONTINUOUS
 10
3.5763841628
 20
19.5681188768
 11
0.32492973
 21
16.7850409194
  0
LINE
  5
37D
100
AcDbEntity
  8
0
100
AcDbLine
 62
7
  6
CONTINUOUS
 10
4.4353257169
 20
19.4133247023
 11
4.8948258937
 21
19.8066332478
  0
LWPOLYLINE
  5
37E
100
AcDbEntity
  8
0
100
AcDbPolyline
 62
7
  6
CONTINUOUS
 90
19
 70
0
 10
4.8948258937
 20
19.8066332478
 10
4.9111457433
 20
19.820139263
 10
4.927414336
 20
19.8326849431
 10
4.943631672
 20
19.8442702881
 10
4.9598184156
 20
19.8549073971
 10
4.9759539024
 20
19.8645841711
 10
4.9919761394
 20
19.8732643125
 10
5.0078761446
 20
19.8809407965
 10
5.0236629001
 20
19.8876206479
 10
5.0393013582
 20
19.8932886446
 10
5.0548017271
 20
19.8979448477
 10
5.0701537987
 20
19.901589196
 10
5.0852919012
 20
19.9042062841
 10
5.1002042551
 20
19.9057913235
 10
5.11490264
 20
19.9063491028
 10
5.1293567224
 20
19.9058785814
 10
5.1435757716
 20
19.9043761045
 10
5.1575505184
 20
19.9018453271
 10
5.1692670195
 20
19.8988719016
  0
LINE
  5
37F
100
AcDbEntity
  8
0
100
AcDbLine
 62
7
  6
CONTINUOUS
 10
4.4334290531
 20
19.3950805135
 11
4.4258083687
 21
19.3894035991
  0
LWPOLYLINE
  5
380
100
AcDbEntity
  8
0
100
AcDbPolyline
 62
7
  6
CONTINUOUS
 90
7
 70
0
 10
3.5065091045
 20
16.0844575907
 10
3.5347564396
 20
16.1051049061
 10
3.5662837245
 20
16.121910993
 10
3.6004245816
 20
16.1342042449
 10
3.6363142995
 20
16.1414657133
 10
3.6729826994
 20
16.1434043266
 10
3.7095723147
 20
16.1399459088
  0
LINE
  5
381
100
AcDbEntity
  8
0
100
AcDbLine
 62
7
  6
CONTINUOUS
 10
4.4258083687
 20
19.3894035991
 11
4.4162629955
 21
19.3824208469
  0
LINE
  5
382
100
AcDbEntity
  8
0
100
AcDbLine
 62
7
  6
CONTINUOUS
 10
4.4162629955
 20
19.3824208469
 11
4.4048629002
 21
19.374198341
  0
LWPOLYLINE
  5
383
100
AcDbEntity
  8
0
100
AcDbPolyline
 62
7
  6
CONTINUOUS
 90
7
 70
0
 10
3.598408375
 20
19.5852859279
 10
3.5947534932
 20
19.5826714499
 10
3.5910922833
 20
19.579958293
 10
3.5874247453
 20
19.5771464573
 10
3.5837508792
 20
19.5742359426
 10
3.5800706851
 20
19.5712267492
 10
3.5763841628
 20
19.5681188768
  0
LWPOLYLINE
  5
384
100
AcDbEntity
  8
0
100
AcDbPolyline
 62
7
  6
CONTINUOUS
 90
3
 70
0
 10
4.4048629002
 20
19.374198341
 10
4.3916602781
 20
19.3648054935
 10
4.3844125672
 20
19.3596863553
  0
LWPOLYLINE
  5
385
100
AcDbEntity
  8
0
100
AcDbPolyline
 62
7
  6
CONTINUOUS
 90
7
 70
0
 10
3.598408375
 20
19.5852859279
 10
3.6062129208
 20
19.5903549226
 10
3.6144691913
 20
19.5948869176
 10
3.6231709942
 20
19.5988737113
 10
3.6323060587
 20
19.6023088246
 10
3.6418719636
 20
19.605182698
 10
3.6518784968
 20
19.6074817588
  0
LWPOLYLINE
  5
386
100
AcDbEntity
  8
0
100
AcDbPolyline
 62
253
  6
CONTINUOUS
 90
4
 70
0
 10
3.5194405421
 20
16.0941647395
 10
3.5270630108
 20
16.0988930703
 10
3.5350043116
 20
16.1031560448
 10
3.5432464556
 20
16.1069440066
  0
LWPOLYLINE
  5
387
100
AcDbEntity
  8
0
100
AcDbPolyline
 62
253
  6
CONTINUOUS
 90
14
 70
0
 10
3.5432464556
 20
16.1069440066
 10
3.5517707726
 20
16.1102483751
 10
3.560557953
 20
16.1130616651
 10
3.569588092
 20
16.1153775038
 10
3.5788407341
 20
16.1171906455
 10
3.5882949202
 20
16.1184969829
 10
3.5979292344
 20
16.1192935569
 10
3.6077218528
 20
16.119578563
 10
3.6176505929
 20
16.1193513557
 10
3.6276929639
 20
16.1186124496
 10
3.6378262176
 20
16.1173635185
 10
3.6480273999
 20
16.1156073916
 10
3.6582734028
 20
16.1133480468
 10
3.6685410168
 20
16.110590602
  0
LINE
  5
388
100
AcDbEntity
  8
0
100
AcDbLine
 62
7
  6
CONTINUOUS
 10
9.1158262643
 20
-17.2420911167
 11
8.939918713
 21
-17.1913109807
  0
LWPOLYLINE
  5
389
100
AcDbEntity
  8
0
100
AcDbPolyline
 62
7
  6
CONTINUOUS
 90
5
 70
0
 10
-9.0801322373
 20
19.6455482286
 10
-9.0822552218
 20
19.6781535245
 10
-9.0885088425
 20
19.7098148908
 10
-9.0988230644
 20
19.7404896841
 10
-9.1130671078
 20
19.7696691841
  0
LINE
  5
38A
100
AcDbEntity
  8
0
100
AcDbLine
 62
253
  6
CONTINUOUS
 10
-9.113114049
 20
19.5941743044
 11
-9.1129022636
 21
19.5837727744
  0
LWPOLYLINE
  5
38B
100
AcDbEntity
  8
0
100
AcDbPolyline
 62
253
  6
CONTINUOUS
 90
24
 70
0
 10
-10.9626897496
 20
17.8930008171
 10
-10.9625710743
 20
17.8836715074
 10
-10.962215112
 20
17.8745623998
 10
-10.961622297
 20
17.8656910397
 10
-10.9607934076
 20
17.8570735862
 10
-10.9597298352
 20
17.8487277335
 10
-10.9584338477
 20
17.8406723562
 10
-10.9569081058
 20
17.832923686
 10
-10.9551553761
 20
17.8254955131
 10
-10.9531789721
 20
17.8184019014
 10
-10.9509826299
 20
17.8116563131
 10
-10.94857054
 20
17.8052716657
 10
-10.9459473263
 20
17.7992602101
 10
-10.9431180059
 20
17.7936334278
 10
-10.9400879502
 20
17.7884019859
 10
-10.9368629068
 20
17.7835758096
 10
-10.933448991
 20
17.779164066
 10
-10.9298527215
 20
17.775175194
 10
-10.9260809927
 20
17.7716168368
 10
-10.9221410187
 20
17.7684957794
 10
-10.91804028
 20
17.7658179268
 10
-10.9137865521
 20
17.7635883499
 10
-10.9093879219
 20
17.7618112895
 10
-10.9070272742
 20
17.7610617618
  0
LINE
  5
38C
100
AcDbEntity
  8
0
100
AcDbLine
 62
253
  6
CONTINUOUS
 10
-10.6219142791
 20
17.9381252623
 11
-10.6219142791
 21
18.2780991965
  0
LINE
  5
38D
100
AcDbEntity
  8
0
100
AcDbLine
 62
253
  6
CONTINUOUS
 10
-10.4576513612
 20
17.0056463343
 11
-10.4576513612
 21
17.6995590615
  0
LINE
  5
38E
100
AcDbEntity
  8
0
100
AcDbLine
 62
7
  6
CONTINUOUS
 10
-10.3697453208
 20
22.5043097924
 11
-10.3697453208
 21
22.7619150699
  0
LINE
  5
38F
100
AcDbEntity
  8
0
100
AcDbLine
 62
253
  6
CONTINUOUS
 10
-10.1168758907
 20
17.062051385
 11
-10.1168758907
 21
17.8696835068
  0
LINE
  5
390
100
AcDbEntity
  8
0
100
AcDbLine
 62
253
  6
CONTINUOUS
 10
-9.9515135569
 20
23.7310382805
 11
-9.9515135569
 21
23.1391701074
  0
LINE
  5
391
100
AcDbEntity
  8
0
100
AcDbLine
 62
7
  6
CONTINUOUS
 10
-9.8888234104
 20
23.8522406856
 11
-9.8888234104
 21
23.2603725124
  0
LINE
  5
392
100
AcDbEntity
  8
0
100
AcDbLine
 62
7
  6
CONTINUOUS
 10
-9.4848433607
 20
17.6589259599
 11
-9.4848433607
 21
19.2610766209
  0
LINE
  5
393
100
AcDbEntity
  8
0
100
AcDbLine
 62
253
  6
CONTINUOUS
 10
-9.1129022636
 20
19.5837727744
 11
-9.1129022636
 21
19.2362412576
  0
LINE
  5
394
100
AcDbEntity
  8
0
100
AcDbLine
 62
7
  6
CONTINUOUS
 10
-9.080132167
 20
19.6456419288
 11
-9.080132167
 21
19.298110412
  0
LINE
  5
395
100
AcDbEntity
  8
0
100
AcDbLine
 62
7
  6
CONTINUOUS
 10
-7.8024146475
 20
17.6853082843
 11
-7.8024146475
 21
16.2391455185
  0
LINE
  5
396
100
AcDbEntity
  8
0
100
AcDbLine
 62
253
  6
CONTINUOUS
 10
-9.080132167
 20
19.6456419288
 11
-9.0801322373
 21
19.6455482286
  0
LWPOLYLINE
  5
397
100
AcDbEntity
  8
0
100
AcDbPolyline
 62
7
  6
CONTINUOUS
 90
14
 70
0
 10
-9.8888246524
 20
23.2603725123
 10
-9.8890221196
 20
23.2533250011
 10
-9.8899809137
 20
23.2433851753
 10
-9.8917316366
 20
23.2334565163
 10
-9.8942659794
 20
23.2235861447
 10
-9.8975876671
 20
23.2137743378
 10
-9.9016929748
 20
23.2040208183
 10
-9.9065624188
 20
23.1943718761
 10
-9.9121996316
 20
23.1848280081
 10
-9.9186009808
 20
23.1753887173
 10
-9.925736086
 20
23.166098802
 10
-9.9335948203
 20
23.1569731949
 10
-9.9421873106
 20
23.1479969634
 10
-9.9515135569
 20
23.1391701074
  0
LINE
  5
398
100
AcDbEntity
  8
0
100
AcDbLine
 62
253
  6
CONTINUOUS
 10
-9.080132167
 20
19.298110412
 11
-9.0803691514
 21
19.2926689966
  0
LWPOLYLINE
  5
399
100
AcDbEntity
  8
0
100
AcDbPolyline
 62
253
  6
CONTINUOUS
 90
12
 70
0
 10
-9.0801322373
 20
19.6455482286
 10
-9.0803707664
 20
19.6401820117
 10
-9.0811693594
 20
19.634267391
 10
-9.0825278419
 20
19.6283785415
 10
-9.0844431342
 20
19.6225286256
 10
-9.0869109496
 20
19.6167306879
 10
-9.0899262325
 20
19.6109969109
 10
-9.0934818706
 20
19.605341069
 10
-9.0975679851
 20
19.5997782687
 10
-9.1021740073
 20
19.5943216662
 10
-9.1072894769
 20
19.5889825618
 10
-9.1129022636
 20
19.5837727744
  0
LWPOLYLINE
  5
39A
100
AcDbEntity
  8
0
100
AcDbPolyline
 62
7
  6
CONTINUOUS
 90
4
 70
0
 10
-9.080132167
 20
19.298110412
 10
-9.0820207617
 20
19.2674422391
 10
-9.0876510541
 20
19.2372598614
 10
-9.0969347895
 20
19.2080050119
  0
LWPOLYLINE
  5
39B
100
AcDbEntity
  8
0
100
AcDbPolyline
 62
7
  6
CONTINUOUS
 90
7
 70
0
 10
4.4437975807
 20
19.4034272573
 10
4.4434808587
 20
19.4030342521
 10
4.4425676461
 20
19.4022082216
 10
4.4410819465
 20
19.4009877773
 10
4.4390507816
 20
19.3993872667
 10
4.4364975045
 20
19.3974101285
 10
4.4334290531
 20
19.3950805135
  0
LWPOLYLINE
  5
39C
100
AcDbEntity
  8
0
100
AcDbPolyline
 62
7
  6
CONTINUOUS
 90
31
 70
0
 10
4.3598659505
 20
18.3896595145
 10
4.3700470091
 20
18.4015702005
 10
4.3795746994
 20
18.4140243794
 10
4.3884490214
 20
18.4270220513
 10
4.3966829693
 20
18.4405874007
 10
4.4042635489
 20
18.4546962432
 10
4.4111517776
 20
18.4692760242
 10
4.4173440889
 20
18.4843291697
 10
4.4228440493
 20
18.4998532538
 10
4.4276233758
 20
18.5157684445
 10
4.431678356
 20
18.5320767564
 10
4.4350127022
 20
18.5487761748
 10
4.4376092677
 20
18.5657808237
 10
4.4394642521
 20
18.5830922753
 10
4.4405814558
 20
18.6007089574
 10
4.4409551337
 20
18.6185402769
 10
4.4405814558
 20
18.6365873395
 10
4.4394642521
 20
18.6548490394
 10
4.4376092677
 20
18.6732314668
 10
4.4350127022
 20
18.6917352435
 10
4.431678356
 20
18.7103597476
 10
4.4276233758
 20
18.7290092034
 10
4.4228440493
 20
18.7476837395
 10
4.4173440889
 20
18.7663832273
 10
4.4111517776
 20
18.7850115054
 10
4.4042635489
 20
18.8035682071
 10
4.3966829693
 20
18.8220536992
 10
4.3884490214
 20
18.8403729207
 10
4.3795746994
 20
18.8584941847
 10
4.3700470091
 20
18.8764491782
 10
4.3598659505
 20
18.8942379011
  0
LWPOLYLINE
  5
39D
100
AcDbEntity
  8
0
100
AcDbPolyline
 62
7
  6
CONTINUOUS
 90
8
 70
0
 10
2.0093775668
 20
14.7716193869
 10
1.9880364607
 20
14.7502251138
 10
1.9691518392
 20
14.7260067598
 10
1.9532051276
 20
14.6993199909
 10
1.9405996752
 20
14.6706006363
 10
1.9316742252
 20
14.6404628746
 10
1.926611998
 20
14.6095558076
 10
1.9253724389
 20
14.5843174654
  0
LINE
  5
39E
100
AcDbEntity
  8
0
100
AcDbLine
 62
7
  6
CONTINUOUS
 10
0.6476538635
 20
14.7339259599
 11
-0.1099037191
 21
14.0185088909
  0
LINE
  5
39F
100
AcDbEntity
  8
0
100
AcDbLine
 62
253
  6
CONTINUOUS
 10
2.1687291617
 20
14.795128889
 11
2.1746441666
 21
14.8005536518
  0
LINE
  5
3A0
100
AcDbEntity
  8
0
100
AcDbLine
 62
7
  6
CONTINUOUS
 10
2.0093775668
 20
14.7716193869
 11
3.1240559161
 21
15.7614079019
  0
LINE
  5
3A1
100
AcDbEntity
  8
0
100
AcDbLine
 62
253
  6
CONTINUOUS
 10
2.1746441666
 20
14.8005536518
 11
3.2890276811
 21
15.7900803655
  0
LWPOLYLINE
  5
3A2
100
AcDbEntity
  8
0
100
AcDbPolyline
 62
253
  6
CONTINUOUS
 90
20
 70
0
 10
2.0093775668
 20
14.7716193869
 10
2.0107263852
 20
14.7728017671
 10
2.0176554934
 20
14.7784236143
 10
2.0249418634
 20
14.7836065905
 10
2.03256899
 20
14.7883389551
 10
2.040519596
 20
14.7926099882
 10
2.0487756715
 20
14.796410015
 10
2.0573185147
 20
14.7997304277
 10
2.066128774
 20
14.8025637046
 10
2.0751864924
 20
14.8049034278
 10
2.084471152
 20
14.8067442974
 10
2.0939617209
 20
14.8080821432
 10
2.103636701
 20
14.8089139349
 10
2.1134741762
 20
14.8092377882
 10
2.1234518624
 20
14.8090529694
 10
2.133547158
 20
14.8083598974
 10
2.1437371948
 20
14.8071601419
 10
2.1539988902
 20
14.8054564209
 10
2.164308999
 20
14.8032525934
 10
2.1746441666
 20
14.8005536518
  0
LINE
  5
3A3
100
AcDbEntity
  8
0
100
AcDbLine
 62
7
  6
CONTINUOUS
 10
0.6476538635
 20
14.7339259599
 11
4.3844125672
 21
17.9759383904
  0
LINE
  5
3A4
100
AcDbEntity
  8
0
100
AcDbLine
 62
253
  6
CONTINUOUS
 10
5.3674959781
 20
15.1900782501
 11
5.7394370753
 21
15.5127744036
  0
LINE
  5
3A5
100
AcDbEntity
  8
0
100
AcDbLine
 62
253
  6
CONTINUOUS
 10
5.5839986651
 20
14.9110766209
 11
5.9559397622
 21
15.2337727744
  0
LINE
  5
3A6
100
AcDbEntity
  8
0
100
AcDbLine
 62
7
  6
CONTINUOUS
 10
3.1240559146
 20
15.7614079006
 11
3.1266935494
 21
15.763692121
  0
LINE
  5
3A7
100
AcDbEntity
  8
0
100
AcDbLine
 62
253
  6
CONTINUOUS
 10
4.2304250598
 20
14.2071008257
 11
5.3674959781
 21
15.1900782501
  0
LINE
  5
3A8
100
AcDbEntity
  8
0
100
AcDbLine
 62
253
  6
CONTINUOUS
 10
4.4469277468
 20
13.9280991965
 11
5.5839986651
 21
14.9110766209
  0
LINE
  5
3A9
100
AcDbEntity
  8
0
100
AcDbLine
 62
7
  6
CONTINUOUS
 10
3.1266935472
 20
15.7636921192
 11
3.5065091045
 21
16.0844575907
  0
LINE
  5
3AA
100
AcDbEntity
  8
0
100
AcDbLine
 62
253
  6
CONTINUOUS
 10
3.2890276811
 20
15.7900803655
 11
3.6685410168
 21
16.110590602
  0
LINE
  5
3AB
100
AcDbEntity
  8
0
100
AcDbLine
 62
7
  6
CONTINUOUS
 10
8.6308854443
 20
18.7281257541
 11
5.094741697
 21
15.7417477745
  0
LWPOLYLINE
  5
3AC
100
AcDbEntity
  8
0
100
AcDbPolyline
 62
253
  6
CONTINUOUS
 90
3
 70
0
 10
3.5065091045
 20
16.0844575907
 10
3.5121541721
 20
16.0889817633
 10
3.5194405421
 20
16.0941647395
  0
LWPOLYLINE
  5
3AD
100
AcDbEntity
  8
0
100
AcDbPolyline
 62
7
  6
CONTINUOUS
 90
19
 70
0
 10
3.1266935494
 20
15.763692121
 10
3.1323368738
 20
15.7682148235
 10
3.1396232949
 20
15.7733978361
 10
3.1472481609
 20
15.7781281748
 10
3.1551942205
 20
15.7823951425
 10
3.1634434682
 20
15.7861890695
 10
3.1719771813
 20
15.7895013335
 10
3.1807760647
 20
15.7923244635
 10
3.1898201972
 20
15.7946520748
 10
3.1990890242
 20
15.7964788422
 10
3.2085616002
 20
15.7978006728
 10
3.2182164938
 20
15.7986145968
 10
3.2280317381
 20
15.7989186941
 10
3.2379851636
 20
15.798712333
 10
3.2480542654
 20
15.797996019
 10
3.2582161121
 20
15.7967712753
 10
3.2684476884
 20
15.7950408827
 10
3.2787259478
 20
15.7928088727
 10
3.2890276811
 20
15.7900803655
  0
LWPOLYLINE
  5
3AE
100
AcDbEntity
  8
RACCORDO
100
AcDbPolyline
 62
253
  6
CONTINUOUS
 90
3
 70
0
 10
-34.477904158
 20
-12.3158761308
 10
-34.434637148
 20
-12.2873312793
 10
-34.3979277772
 20
-12.256109291
  0
LWPOLYLINE
  5
3AF
100
AcDbEntity
  8
0
100
AcDbPolyline
 62
253
  6
CONTINUOUS
 90
34
 70
0
 10
4.4469277468
 20
-27.711478877
 10
4.4436859954
 20
-27.7050643486
 10
4.4399645499
 20
-27.6985218146
 10
4.4357718097
 20
-27.691866042
 10
4.4311172406
 20
-27.6851120566
 10
4.4260113459
 20
-27.6782750987
 10
4.4204656401
 20
-27.6713705879
 10
4.4144926299
 20
-27.6644140987
 10
4.4081058014
 20
-27.6574213407
 10
4.4013195834
 20
-27.6504081123
 10
4.3941492996
 20
-27.6433902489
 10
4.3866111288
 20
-27.6363835839
 10
4.378722082
 20
-27.6294039288
 10
4.3704999643
 20
-27.6224670362
 10
4.3619633345
 20
-27.6155885636
 10
4.3531314599
 20
-27.6087840361
 10
4.3440242749
 20
-27.6020688117
 10
4.3346623345
 20
-27.5954580468
 10
4.3250667679
 20
-27.5889666613
 10
4.3152592343
 20
-27.5826093075
 10
4.3052618679
 20
-27.5764003332
 10
4.2950972268
 20
-27.5703537484
 10
4.2847882398
 20
-27.5644831936
 10
4.274358187
 20
-27.5588019271
 10
4.2638306419
 20
-27.5533227885
 10
4.2532293857
 20
-27.5480581525
 10
4.242578327
 20
-27.5430198897
 10
4.2319014793
 20
-27.5382193583
 10
4.2212226698
 20
-27.5336672809
 10
4.2105662725
 20
-27.5293740571
 10
4.1999571193
 20
-27.5253496633
 10
4.1894193974
 20
-27.5216032101
 10
4.1789766045
 20
-27.5181429864
 10
4.1686522762
 20
-27.5149767346
  0
LWPOLYLINE
  5
3B0
100
AcDbEntity
  8
0
100
AcDbPolyline
 62
253
  6
CONTINUOUS
 90
9
 70
0
 10
-13.5230461498
 20
20.492948051
 10
-13.521855723
 20
20.4871941735
 10
-13.5211731215
 20
20.4816342039
 10
-13.5209998858
 20
20.4762806907
 10
-13.5213364069
 20
20.4711457164
 10
-13.5221819254
 20
20.4662408705
 10
-13.5235345328
 20
20.4615772228
 10
-13.5253911766
 20
20.4571652989
 10
-13.5259385766
 20
20.456093482
  0
LINE
  5
3B1
100
AcDbEntity
  8
0
100
AcDbLine
 62
7
  6
CONTINUOUS
 10
-6.9872480965
 20
16.0038272047
 11
-6.9872480965
 21
17.4499899705
  0
LINE
  5
3B2
100
AcDbEntity
  8
0
100
AcDbLine
 62
7
  6
CONTINUOUS
 10
-6.4872480965
 20
17.7158407265
 11
-6.4872480965
 21
16.4822263748
  0
LINE
  5
3B3
100
AcDbEntity
  8
0
100
AcDbLine
 62
253
  6
CONTINUOUS
 10
-4.4953896678
 20
15.9072263748
 11
-4.4953896678
 21
17.1408407265
  0
LINE
  5
3B4
100
AcDbEntity
  8
0
100
AcDbLine
 62
253
  6
CONTINUOUS
 10
-4.2221845871
 20
15.9529062089
 11
-4.2221845871
 21
17.1774432669
  0
LINE
  5
3B5
100
AcDbEntity
  8
0
100
AcDbLine
 62
7
  6
CONTINUOUS
 10
-3.5721845871
 20
16.5249041219
 11
-3.5721845871
 21
17.7368329074
  0
LWPOLYLINE
  5
3B6
100
AcDbEntity
  8
0
100
AcDbPolyline
 62
253
  6
CONTINUOUS
 90
34
 70
0
 10
-4.4953896678
 20
17.1408407265
 10
-4.4952772073
 20
17.1491502086
 10
-4.4949400778
 20
17.1576358024
 10
-4.4943790366
 20
17.1662784229
 10
-4.4935953438
 20
17.1750586376
 10
-4.4925907613
 20
17.1839566926
 10
-4.4913675505
 20
17.1929525551
 10
-4.489928464
 20
17.2020259855
 10
-4.4882767381
 20
17.2111565809
 10
-4.4864160889
 20
17.2203238023
 10
-4.4843507013
 20
17.2295070321
 10
-4.4820852217
 20
17.2386856134
 10
-4.4796247483
 20
17.2478388934
 10
-4.4769748169
 20
17.2569462823
 10
-4.4741413881
 20
17.2659872983
 10
-4.4711308359
 20
17.2749416057
 10
-4.4679499304
 20
17.2837890711
 10
-4.4646058289
 20
17.2925097893
 10
-4.4611060614
 20
17.301084128
 10
-4.457458512
 20
17.30949278
 10
-4.4536713763
 20
17.3177168601
 10
-4.4497531477
 20
17.3257379251
 10
-4.4457126021
 20
17.3335379997
 10
-4.4415588601
 20
17.3410994676
 10
-4.4373013479
 20
17.348405179
 10
-4.4329497003
 20
17.3554386309
 10
-4.4285136569
 20
17.3621841112
 10
-4.4240031194
 20
17.3686265736
 10
-4.4194275143
 20
17.3747524579
 10
-4.4147978322
 20
17.3805469555
 10
-4.410126599
 20
17.3859946576
 10
-4.4054250734
 20
17.3910830558
 10
-4.4007031494
 20
17.3958020591
 10
-4.395971441
 20
17.4001415861
  0
LWPOLYLINE
  5
3B7
100
AcDbEntity
  8
0
100
AcDbPolyline
 62
7
  6
CONTINUOUS
 90
34
 70
0
 10
-6.4872480965
 20
17.7158407265
 10
-6.4871340644
 20
17.7241765657
 10
-6.4867974235
 20
17.732652737
 10
-6.4862381739
 20
17.7412692404
 10
-6.4854536252
 20
17.7500490224
 10
-6.4844464677
 20
17.7589691366
 10
-6.4832247728
 20
17.7679607431
 10
-6.4817884228
 20
17.7770167597
 10
-6.4801375353
 20
17.7861442687
 10
-6.478280534
 20
17.7952956772
 10
-6.4762136819
 20
17.8044814434
 10
-6.4739407159
 20
17.8136911091
 10
-6.47148127
 20
17.8228457074
 10
-6.4688375572
 20
17.8319328204
 10
-6.4660073646
 20
17.840964866
 10
-6.4630036876
 20
17.8499001301
 10
-6.4598209052
 20
17.8587506671
 10
-6.4564646384
 20
17.8675044227
 10
-6.4529647458
 20
17.8760835203
 10
-6.4493253436
 20
17.8844746178
 10
-6.4455423156
 20
17.8926910573
 10
-6.4416331717
 20
17.9006949892
 10
-6.4375918619
 20
17.9084955468
 10
-6.4334244361
 20
17.9160835968
 10
-6.4291665543
 20
17.9233938898
 10
-6.424822364
 20
17.9304163195
 10
-6.4203877176
 20
17.9371609922
 10
-6.4158858316
 20
17.9435929776
 10
-6.4113125576
 20
17.9497157064
 10
-6.406672044
 20
17.9555257479
 10
-6.4019999523
 20
17.9609778789
 10
-6.3973081696
 20
17.9660570251
 10
-6.3925848087
 20
17.9707782608
 10
-6.3878298697
 20
17.9751415861
  0
LWPOLYLINE
  5
3B8
100
AcDbEntity
  8
0
100
AcDbPolyline
 62
7
  6
CONTINUOUS
 90
7
 70
0
 10
-2.5169286988
 20
16.6274432669
 10
-2.5143069784
 20
16.6597134425
 10
-2.5066077715
 20
16.6908591557
 10
-2.4941244606
 20
16.7201884122
 10
-2.4768622754
 20
16.7475312603
 10
-2.4553220033
 20
16.7718290098
 10
-2.4486054613
 20
16.7779796768
  0
LWPOLYLINE
  5
3B9
100
AcDbEntity
  8
0
100
AcDbPolyline
 62
253
  6
CONTINUOUS
 90
29
 70
0
 10
-2.4141348261
 20
16.5839162428
 10
-2.4129124885
 20
16.59291245
 10
-2.4114744657
 20
16.6019849172
 10
-2.4098238187
 20
16.6111146353
 10
-2.4079642257
 20
16.620281231
 10
-2.4058998318
 20
16.6294642032
 10
-2.4036352913
 20
16.638642786
 10
-2.4011757378
 20
16.6477961549
 10
-2.3985267285
 20
16.6569036436
 10
-2.3956942023
 20
16.6659448484
 10
-2.3926845113
 20
16.6748994931
 10
-2.3895044131
 20
16.6837474618
 10
-2.3861610669
 20
16.6924688265
 10
-2.3826619983
 20
16.7010439513
 10
-2.3790150792
 20
16.7094535427
 10
-2.3752285091
 20
16.7176786907
 10
-2.3713108045
 20
16.7257008937
 10
-2.3672707755
 20
16.733502109
 10
-2.3631175094
 20
16.7410647867
 10
-2.3588603511
 20
16.7483719091
 10
-2.3545088766
 20
16.755407039
 10
-2.3500728723
 20
16.7621543536
 10
-2.3455623168
 20
16.7685986743
 10
-2.3409873524
 20
16.7747255096
 10
-2.336358272
 20
16.7805210743
 10
-2.3316854975
 20
16.7859723209
 10
-2.3269795426
 20
16.7910669867
 10
-2.3222509888
 20
16.7957936182
 10
-2.3175104719
 20
16.8001415861
  0
LWPOLYLINE
  5
3BA
100
AcDbEntity
  8
0
100
AcDbPolyline
 62
7
  6
CONTINUOUS
 90
25
 70
0
 10
0.6476538635
 20
15.1946991518
 10
0.6544854785
 20
15.2075428983
 10
0.6607403681
 20
15.220755355
 10
0.6664185325
 20
15.2343365218
 10
0.6715262824
 20
15.2483065783
 10
0.676057307
 20
15.262645345
 10
0.6799926738
 20
15.2772922834
 10
0.6833298893
 20
15.2922486743
 10
0.686071447
 20
15.307513237
 10
0.6882058955
 20
15.3230215903
 10
0.689730695
 20
15.3387747494
 10
0.6906483853
 20
15.3547716992
 10
0.6909551337
 20
15.3709450127
 10
0.6906483853
 20
15.3872954275
 10
0.689730695
 20
15.403822206
 10
0.6882058955
 20
15.4204557086
 10
0.686071447
 20
15.4371963863
 10
0.6833298893
 20
15.454043788
 10
0.6799926738
 20
15.4709269212
 10
0.676057307
 20
15.4878459447
 10
0.6715262824
 20
15.5048006997
 10
0.6664185325
 20
15.521719717
 10
0.6607403681
 20
15.5385791736
 10
0.6544854785
 20
15.5554028924
 10
0.6476538635
 20
15.5721908736
  0
LWPOLYLINE
  5
3BB
100
AcDbEntity
  8
RACCORDO
100
AcDbPolyline
 62
253
  6
CONTINUOUS
 90
13
 70
0
 10
-0.6184608953
 20
4.8055016458
 10
-0.6489310171
 20
4.7749558993
 10
-0.6788804167
 20
4.7384520099
 10
-0.7078614457
 20
4.696535641
 10
-0.7354409405
 20
4.6498333389
 10
-0.7612066794
 20
4.5990431961
 10
-0.7847735479
 20
4.5449244234
 10
-0.805789318
 20
4.4882859518
 10
-0.8239399022
 20
4.429974346
 10
-0.838954036
 20
4.3708611867
 10
-0.8506073425
 20
4.311830012
 10
-0.8587256821
 20
4.2537631117
 10
-0.8631877511
 20
4.1975283535
  0
LWPOLYLINE
  5
3BC
100
AcDbEntity
  8
0
100
AcDbPolyline
 62
253
  6
CONTINUOUS
 90
43
 70
0
 10
2.6769625696
 20
10.1107650958
 10
2.6604600692
 20
10.0948216134
 10
2.6440039836
 20
10.0780005026
 10
2.6276115281
 20
10.0603197277
 10
2.6112996818
 20
10.0417983348
 10
2.5950856762
 20
10.0224559301
 10
2.5789869829
 20
10.0023126174
 10
2.563020313
 20
9.9813896695
 10
2.5472025091
 20
9.9597095317
 10
2.5315510335
 20
9.9372952915
 10
2.5160823383
 20
9.9141709304
 10
2.5008125241
 20
9.8903609941
 10
2.4857582367
 20
9.8658905609
 10
2.4709352248
 20
9.8407856692
 10
2.4563589964
 20
9.8150730677
 10
2.442045476
 20
9.7887799
 10
2.4280096338
 20
9.7619341133
 10
2.41426616
 20
9.7345643203
 10
2.4008301225
 20
9.7066995428
 10
2.3877156069
 20
9.6783694688
 10
2.3749362993
 20
9.6496042179
 10
2.362506162
 20
9.6204342005
 10
2.3504382153
 20
9.5908904497
 10
2.3387450648
 20
9.5610044007
 10
2.3274394849
 20
9.5308076566
 10
2.3165333087
 20
9.5003322957
 10
2.3060379399
 20
9.4696107738
 10
2.2959648807
 20
9.4386757027
 10
2.2863246975
 20
9.4075600169
 10
2.2771274378
 20
9.3762967714
 10
2.2683831443
 20
9.3449190439
 10
2.2601009909
 20
9.3134602144
 10
2.25228961
 20
9.2819537109
 10
2.2449575143
 20
9.250432808
 10
2.2381123708
 20
9.2189308717
 10
2.2317613528
 20
9.1874815283
 10
2.225911461
 20
9.1561184067
 10
2.220568869
 20
9.1248750761
 10
2.2157390814
 20
9.0937844945
 10
2.2114273077
 20
9.0628791835
 10
2.2076381277
 20
9.0321918164
 10
2.2043754627
 20
9.001755175
 10
2.2016427366
 20
8.971601602
  0
LWPOLYLINE
  5
3BD
100
AcDbEntity
  8
0
100
AcDbPolyline
 62
253
  6
CONTINUOUS
 90
43
 70
0
 10
3.118630209
 20
9.560917371
 10
3.1102472379
 20
9.5529714041
 10
3.1019036232
 20
9.5446036027
 10
3.093599365
 20
9.5358139668
 10
3.0853252474
 20
9.5265918295
 10
3.0770904862
 20
9.5169478577
 10
3.0689227292
 20
9.5069140522
 10
3.0608226475
 20
9.4964895861
 10
3.0527895699
 20
9.4856752863
 10
3.0448491305
 20
9.4745056346
 10
3.0370016598
 20
9.4629795383
 10
3.0292468273
 20
9.4510980902
 10
3.0216092755
 20
9.4388990507
 10
3.014089371
 20
9.426381404
 10
3.0066867471
 20
9.413546166
 10
2.9994249459
 20
9.4004341446
 10
2.9923044001
 20
9.3870444237
 10
2.9853246769
 20
9.3733779193
 10
2.9785080201
 20
9.3594781871
 10
2.9718549635
 20
9.3453445071
 10
2.9653649734
 20
9.3309775992
 10
2.9590586924
 20
9.3164231788
 10
2.9529367089
 20
9.3016806577
 10
2.9469984344
 20
9.286750624
 10
2.9412627462
 20
9.2716805579
 10
2.9357302833
 20
9.2564699958
 10
2.9304004067
 20
9.2411194013
 10
2.9252900761
 20
9.2256776447
 10
2.9203999983
 20
9.2101444566
 10
2.9157294665
 20
9.1945201064
 10
2.9112933201
 20
9.1788542734
 10
2.907092305
 20
9.1631468385
 10
2.9031256753
 20
9.1473979208
 10
2.899406033
 20
9.1316575564
 10
2.8959341571
 20
9.1159257078
 10
2.8927092685
 20
9.1002024125
 10
2.8897416322
 20
9.0845378189
 10
2.8870319825
 20
9.068931088
 10
2.884579585
 20
9.0533830588
 10
2.8823925017
 20
9.0379463962
 10
2.8804734198
 20
9.0226386551
 10
2.8788196519
 20
9.0074422806
 10
2.8774311982
 20
8.9923572726
  0
LWPOLYLINE
  5
3BE
100
AcDbEntity
  8
0
100
AcDbPolyline
 62
7
  6
CONTINUOUS
 90
14
 70
0
 10
9.5340580283
 20
17.5141701074
 10
9.5433842746
 20
17.5229969634
 10
9.5519767649
 20
17.5319731949
 10
9.5598354992
 20
17.541098802
 10
9.5669706043
 20
17.5503887173
 10
9.5733719535
 20
17.5598280081
 10
9.5790091663
 20
17.5693718761
 10
9.5838786104
 20
17.5790208183
 10
9.587983918
 20
17.5887743378
 10
9.5913056058
 20
17.5985861447
 10
9.5938399486
 20
17.6084565163
 10
9.5955906715
 20
17.6183851753
 10
9.5965494656
 20
17.6283250011
 10
9.5967469327
 20
17.6353725123
  0
LINE
  5
3BF
100
AcDbEntity
  8
0
100
AcDbLine
 62
7
  6
CONTINUOUS
 10
5.5839986651
 20
13.3089259599
 11
4.9519661352
 21
12.712051385
  0
LINE
  5
3C0
100
AcDbEntity
  8
0
100
AcDbLine
 62
7
  6
CONTINUOUS
 10
9.5340580283
 20
18.1060382805
 11
5.8960497247
 21
14.711050858
  0
LINE
  5
3C1
100
AcDbEntity
  8
0
100
AcDbLine
 62
253
  6
CONTINUOUS
 10
6.0165851496
 20
13.1840489983
 11
2.6769625696
 21
10.1107650958
  0
LINE
  5
3C2
100
AcDbEntity
  8
0
100
AcDbLine
 62
253
  6
CONTINUOUS
 10
6.4492800094
 20
12.6259440832
 11
3.118630209
 21
9.560917371
  0
LINE
  5
3C3
100
AcDbEntity
  8
0
100
AcDbLine
 62
7
  6
CONTINUOUS
 10
9.5340580283
 20
17.5141701074
 11
5.5839986651
 21
13.9511222437
  0
LINE
  5
3C4
100
AcDbEntity
  8
0
100
AcDbLine
 62
253
  6
CONTINUOUS
 10
6.5098370581
 20
13.6139713179
 11
6.0173947473
 21
13.1838152875
  0
LINE
  5
3C5
100
AcDbEntity
  8
0
100
AcDbLine
 62
253
  6
CONTINUOUS
 10
6.9428442642
 20
13.0559748584
 11
6.4504019534
 21
12.6258188279
  0
LINE
  5
3C6
100
AcDbEntity
  8
RACCORDO
100
AcDbLine
 62
253
  6
CONTINUOUS
 10
6.9428442642
 20
12.6322938663
 11
21.7980576846
 21
25.5689309937
  0
LINE
  5
3C7
100
AcDbEntity
  8
0
100
AcDbLine
 62
7
  6
CONTINUOUS
 10
9.1158262643
 20
16.8793097924
 11
5.636462892
 21
13.8660927229
  0
LINE
  5
3C8
100
AcDbEntity
  8
RACCORDO
100
AcDbLine
 62
253
  6
CONTINUOUS
 10
-0.6184608953
 20
4.8055016458
 11
-0.0325849005
 21
5.3102253704
  0
LWPOLYLINE
  5
3C9
100
AcDbEntity
  8
0
100
AcDbPolyline
 62
253
  6
CONTINUOUS
 90
40
 70
0
 10
2.8774311982
 20
8.9923572726
 10
2.8669505268
 20
8.9865927716
 10
2.8558065089
 20
8.9810417015
 10
2.844016825
 20
8.9757128692
 10
2.8316001804
 20
8.9706147293
 10
2.8185762747
 20
8.9657553705
 10
2.8049657712
 20
8.9611425022
 10
2.7907902639
 20
8.9567834432
 10
2.776072243
 20
8.9526851093
 10
2.7608350596
 20
8.9488540029
 10
2.7451028885
 20
8.9452962021
 10
2.7289006898
 20
8.9420173517
 10
2.7122541692
 20
8.9390226539
 10
2.6951897375
 20
8.9363168597
 10
2.6777344684
 20
8.9339042623
 10
2.659916056
 20
8.9317886892
 10
2.6417627701
 20
8.9299734971
 10
2.6233034121
 20
8.9284615657
 10
2.604567269
 20
8.927255294
 10
2.5855840668
 20
8.9263565956
 10
2.5663839235
 20
8.9257668965
 10
2.5469973015
 20
8.9254871323
 10
2.5274549586
 20
8.9255177468
 10
2.5077879002
 20
8.9258586914
 10
2.4880273293
 20
8.9265094252
 10
2.4682045971
 20
8.9274689158
 10
2.4483511538
 20
8.9287356409
 10
2.4284984981
 20
8.9303075907
 10
2.4086781274
 20
8.9321822713
 10
2.388921488
 20
8.9343567083
 10
2.369259925
 20
8.936827452
 10
2.3497246328
 20
8.9395905822
 10
2.3303466054
 20
8.9426417151
 10
2.3111565871
 20
8.9459760099
 10
2.2921850241
 20
8.9495881765
 10
2.273462016
 20
8.953472484
 10
2.2550172681
 20
8.9576227697
 10
2.2368800441
 20
8.9620324489
 10
2.2190791197
 20
8.9666945254
 10
2.2016427374
 20
8.9716016025
  0
LWPOLYLINE
  5
3CA
100
AcDbEntity
  8
0
100
AcDbPolyline
 62
7
  6
CONTINUOUS
 90
3
 70
0
 10
-28.6319542357
 20
25.4401592012
 10
-28.6105297836
 20
25.4134831951
 10
-28.5928388209
 20
25.3839169147
  0
LWPOLYLINE
  5
3CB
100
AcDbEntity
  8
0
100
AcDbPolyline
 62
7
  6
CONTINUOUS
 90
6
 70
0
 10
-17.5142939128
 20
19.7240633928
 10
-17.5322248172
 20
19.7529552747
 10
-17.5461827554
 20
19.7843235798
 10
-17.5557593883
 20
19.8175328885
 10
-17.5606845461
 20
19.8520180859
 10
-17.5613340107
 20
19.8697728356
  0
LWPOLYLINE
  5
3CC
100
AcDbEntity
  8
0
100
AcDbPolyline
 62
7
  6
CONTINUOUS
 90
5
 70
0
 10
5.9595695178
 20
-26.234357008
 10
5.9735321981
 20
-26.2657122088
 10
5.9831167117
 20
-26.2989087052
 10
5.9880529063
 20
-26.3333817234
 10
5.9887093082
 20
-26.351231377
  0
LWPOLYLINE
  5
3CD
100
AcDbEntity
  8
0
100
AcDbPolyline
 62
253
  6
CONTINUOUS
 90
4
 70
0
 10
-13.5296318229
 20
20.5112412576
 10
-13.5269385923
 20
20.5049851766
 10
-13.5247417152
 20
20.4988828502
 10
-13.5230461498
 20
20.492948051
  0
LWPOLYLINE
  5
3CE
100
AcDbEntity
  8
0
100
AcDbPolyline
 62
253
  6
CONTINUOUS
 90
10
 70
0
 10
-13.5534492125
 20
20.9651449792
 10
-13.5489625866
 20
20.9545626658
 10
-13.5449242465
 20
20.9439035142
 10
-13.5413433401
 20
20.93319167
 10
-13.5382279788
 20
20.9224513978
 10
-13.5355852198
 20
20.9117070267
 10
-13.5334210493
 20
20.9009828952
 10
-13.5317403698
 20
20.8903032958
 10
-13.5305469884
 20
20.8796924202
 10
-13.5298436083
 20
20.8691743044
  0
LWPOLYLINE
  5
3CF
100
AcDbEntity
  8
0
100
AcDbPolyline
 62
253
  6
CONTINUOUS
 90
9
 70
0
 10
-9.1063194165
 20
19.2179594927
 10
-9.1051281228
 20
19.2122060006
 10
-9.1044444194
 20
19.206645123
 10
-9.1042701714
 20
19.2012907144
 10
-9.104605724
 20
19.196155268
 10
-9.1054502853
 20
19.1912499327
 10
-9.1068019811
 20
19.1865856881
 10
-9.1086578193
 20
19.1821730194
 10
-9.1092090173
 20
19.181093482
  0
LWPOLYLINE
  5
3D0
100
AcDbEntity
  8
0
100
AcDbPolyline
 62
253
  6
CONTINUOUS
 90
43
 70
0
 10
2.8774311982
 20
-27.6165421728
 10
2.8788215737
 20
-27.6293291927
 10
2.8804770244
 20
-27.6417829431
 10
2.8823975502
 20
-27.6539034239
 10
2.8845857496
 20
-27.6657027657
 10
2.8870390242
 20
-27.677168838
 10
2.8897495787
 20
-27.6882652485
 10
2.8927182406
 20
-27.6989908572
 10
2.8959441826
 20
-27.7093468041
 10
2.8994171272
 20
-27.7193001172
 10
2.9031378543
 20
-27.7288494942
 10
2.9071055841
 20
-27.7379962374
 10
2.9113077007
 20
-27.7467112814
 10
2.9157449564
 20
-27.7549932649
 10
2.9204165988
 20
-27.7628435493
 10
2.9253077542
 20
-27.770237153
 10
2.9304191144
 20
-27.7771726118
 10
2.9357499876
 20
-27.7836513899
 10
2.9412834248
 20
-27.789652898
 10
2.947020078
 20
-27.7951756243
 10
2.9529592952
 20
-27.8002210807
 10
2.9590821722
 20
-27.8047732136
 10
2.9653892873
 20
-27.8088304476
 10
2.9718800622
 20
-27.8123943582
 10
2.9785338576
 20
-27.8154536181
 10
2.985351198
 20
-27.8180066231
 10
2.9923315589
 20
-27.8200549773
 10
2.9994527275
 20
-27.8215921657
 10
3.0067151479
 20
-27.8226165596
 10
3.0141183761
 20
-27.8231297876
 10
3.0216388666
 20
-27.8231302207
 10
3.0292769956
 20
-27.8226162263
 10
3.0370323869
 20
-27.821589437
 10
3.0448803663
 20
-27.8200531216
 10
3.0528212273
 20
-27.8180056579
 10
3.0608546763
 20
-27.8154486681
 10
3.0689551593
 20
-27.8123902886
 10
3.077122403
 20
-27.8088292833
 10
3.0853566806
 20
-27.8047668882
 10
3.0936332573
 20
-27.8002149475
 10
3.1019438882
 20
-27.7951774094
 10
3.1102968183
 20
-27.7896503257
 10
3.1186920476
 20
-27.7836336964
  0
LWPOLYLINE
  5
3D1
100
AcDbEntity
  8
0
100
AcDbPolyline
 62
253
  6
CONTINUOUS
 90
27
 70
0
 10
2.2016427366
 20
-27.7664387576
 10
2.2043754266
 20
-27.7919529762
 10
2.2076380646
 20
-27.8168505179
 10
2.211427237
 20
-27.8411049588
 10
2.2157390514
 20
-27.8646905631
 10
2.2205689236
 20
-27.8875823029
 10
2.2259115857
 20
-27.9097558792
 10
2.2317614853
 20
-27.9311878039
 10
2.2381124739
 20
-27.951855298
 10
2.2449575943
 20
-27.9717363093
 10
2.252289697
 20
-27.9908097342
 10
2.2601010987
 20
-28.0090553761
 10
2.2683832787
 20
-28.0264538306
 10
2.277127612
 20
-28.042986684
 10
2.2863249196
 20
-28.0586363787
 10
2.2959651264
 20
-28.0733861744
 10
2.3060381537
 20
-28.0872204375
 10
2.3165334567
 20
-28.100124537
 10
2.3274395821
 20
-28.1120846967
 10
2.338745157
 20
-28.123088277
 10
2.3504383239
 20
-28.1331236155
 10
2.3625062774
 20
-28.1421799264
 10
2.374936397
 20
-28.1502476421
 10
2.3877156747
 20
-28.1573182545
 10
2.4008301543
 20
-28.1633841439
 10
2.4142661446
 20
-28.1684389303
 10
2.4215911978
 20
-28.1707289882
  0
LWPOLYLINE
  5
3D2
100
AcDbEntity
  8
RACCORDO
100
AcDbPolyline
 62
7
  6
CONTINUOUS
 90
9
 70
0
 10
0.8249783815
 20
-22.588407748
 10
0.825813936
 20
-22.6275154074
 10
0.822550856
 20
-22.6859897114
 10
0.814075599
 20
-22.7386853344
 10
0.8010639567
 20
-22.785062893
 10
0.7841362754
 20
-22.8250876634
 10
0.7638319936
 20
-22.8590533106
 10
0.7404939128
 20
-22.8874726128
 10
0.7296122177
 20
-22.8981113982
  0
LWPOLYLINE
  5
3D3
100
AcDbEntity
  8
RACCORDO
100
AcDbPolyline
 62
253
  6
CONTINUOUS
 90
13
 70
0
 10
-0.1553134372
 20
-23.6830800545
 10
-0.1564384927
 20
-23.6244152182
 10
-0.152819172
 20
-23.5619400113
 10
-0.1445242062
 20
-23.4968408386
 10
-0.1317111166
 20
-23.4303539342
 10
-0.1146232241
 20
-23.3637418851
 10
-0.0935850279
 20
-23.2982696548
 10
-0.0689960435
 20
-23.2351805616
 10
-0.041323216
 20
-23.1756726682
 10
-0.0110920527
 20
-23.1208760299
 10
0.0211233563
 20
-23.0718312357
 10
0.0547112399
 20
-23.0294696466
 10
0.0890337641
 20
-22.9945957096
  0
LWPOLYLINE
  5
3D4
100
AcDbEntity
  8
RACCORDO
100
AcDbPolyline
 62
253
  6
CONTINUOUS
 90
10
 70
0
 10
-0.5906061115
 20
-17.6788714134
 10
-0.5836065038
 20
-18.1989623078
 10
-0.5744966915
 20
-18.7171791948
 10
-0.5632773834
 20
-19.233498755
 10
-0.5499498251
 20
-19.7478812194
 10
-0.5345145997
 20
-20.2603201238
 10
-0.5169709682
 20
-20.7708416824
 10
-0.4973187765
 20
-21.2794387301
 10
-0.4755591155
 20
-21.7860713513
 10
-0.4516926596
 20
-22.2907161951
  0
LWPOLYLINE
  5
3D5
100
AcDbEntity
  8
RACCORDO
100
AcDbPolyline
 62
253
  6
CONTINUOUS
 90
10
 70
0
 10
0.0879324098
 20
-17.5829364228
 10
0.0948955397
 20
-18.100175199
 10
0.1039559836
 20
-18.6155057736
 10
0.1151137413
 20
-19.1289281466
 10
0.128369081
 20
-19.640450607
 10
0.1437217346
 20
-20.1500648659
 10
0.1611708982
 20
-20.6577460561
 10
0.1807163039
 20
-21.1634858884
 10
0.2023582197
 20
-21.6672926521
 10
0.2260966455
 20
-22.169166347
  0
LWPOLYLINE
  5
3D6
100
AcDbEntity
  8
RACCORDO
100
AcDbPolyline
 62
7
  6
CONTINUOUS
 90
10
 70
0
 10
0.6762235357
 20
-17.6087485807
 10
0.6821199111
 20
-18.080559056
 10
0.6917427224
 20
-18.6653611526
 10
0.7039017413
 20
-19.247763284
 10
0.7185966099
 20
-19.8277288155
 10
0.7358268707
 20
-20.4052271768
 10
0.7555921203
 20
-20.9802296228
 10
0.7778916449
 20
-21.5527032456
 10
0.8027241773
 20
-22.1226090334
 10
0.8249783815
 20
-22.588407748
  0
LWPOLYLINE
  5
3D7
100
AcDbEntity
  8
RACCORDO
100
AcDbPolyline
 62
253
  6
CONTINUOUS
 90
22
 70
0
 10
-0.4516926596
 20
-22.2907161951
 10
-0.4513679047
 20
-22.3217878062
 10
-0.4534183112
 20
-22.3517027255
 10
-0.4578442295
 20
-22.3804612994
 10
-0.4646960719
 20
-22.4082279387
 10
-0.473924024
 20
-22.4348388241
 10
-0.4853784777
 20
-22.4598023425
 10
-0.4990994047
 20
-22.4830770394
 10
-0.5150482271
 20
-22.5047057667
 10
-0.5329581545
 20
-22.5243240202
 10
-0.552862402
 20
-22.5418971282
 10
-0.5747294935
 20
-22.5574615142
 10
-0.5981960121
 20
-22.5707597324
 10
-0.6232927871
 20
-22.5817547355
 10
-0.6499907247
 20
-22.5904853243
 10
-0.6778367126
 20
-22.5968080183
 10
-0.7068639645
 20
-22.6006773419
 10
-0.7370406579
 20
-22.6021401791
 10
-0.7678161195
 20
-22.6011915829
 10
-0.7990070633
 20
-22.5978301795
 10
-0.8307975434
 20
-22.5920581213
 10
-0.8631877511
 20
-22.5838756021
  0
LWPOLYLINE
  5
3D8
100
AcDbEntity
  8
0
100
AcDbPolyline
 62
7
  6
CONTINUOUS
 90
32
 70
0
 10
0.1957646054
 20
20.8711160502
 10
0.1954973327
 20
20.8991545654
 10
0.1947009495
 20
20.9266514084
 10
0.1933754557
 20
20.9536065791
 10
0.1915176249
 20
20.9800531081
 10
0.1891306834
 20
21.0059579647
 10
0.1862243108
 20
21.0312220572
 10
0.1827988897
 20
21.0558301558
 10
0.1788540374
 20
21.0797974901
 10
0.1743982851
 20
21.1030706574
 10
0.1694266234
 20
21.1256630512
 10
0.1639440616
 20
21.147561278
 10
0.1579741588
 20
21.1686717543
 10
0.1515199715
 20
21.1889766934
 10
0.1445784433
 20
21.208493882
 10
0.1371639633
 20
21.2271830969
 10
0.1292698409
 20
21.2450546661
 10
0.1209027667
 20
21.2620982615
 10
0.1120972027
 20
21.2782426756
 10
0.1028564697
 20
21.2934758937
 10
0.0931772468
 20
21.3078099304
 10
0.0830840329
 20
21.3212096216
 10
0.0725726027
 20
21.3336768679
 10
0.0616471816
 20
21.3452097687
 10
0.0503449438
 20
21.3557674572
 10
0.0386642928
 20
21.3653458013
 10
0.0266068251
 20
21.3739489333
 10
0.0142145055
 20
21.3815483834
 10
0.0014905191
 20
21.38813956
 10
-0.0115683192
 20
21.3937270548
 10
-0.0249296012
 20
21.3982961738
 10
-0.0268854032
 20
21.3988719016
  0
LINE
  5
3D9
100
AcDbEntity
  8
0
100
AcDbLine
 62
7
  6
CONTINUOUS
 10
-2.5169286988
 20
16.6274432669
 11
-2.5169286988
 21
15.398367562
  0
LINE
  5
3DA
100
AcDbEntity
  8
0
100
AcDbLine
 62
253
  6
CONTINUOUS
 10
-2.4637694515
 20
21.3352859279
 11
-2.4637694515
 21
19.951329825
  0
LINE
  5
3DB
100
AcDbEntity
  8
0
100
AcDbLine
 62
253
  6
CONTINUOUS
 10
-2.4169286988
 20
16.5408407265
 11
-2.4169286988
 21
15.3072263748
  0
LINE
  5
3DC
100
AcDbEntity
  8
0
100
AcDbLine
 62
7
  6
CONTINUOUS
 10
-2.4030732374
 20
21.3799488428
 11
-2.4030732374
 21
20.0634491999
  0
LINE
  5
3DD
100
AcDbEntity
  8
0
100
AcDbLine
 62
7
  6
CONTINUOUS
 10
-0.92507027
 20
15.6999899705
 11
-0.92507027
 21
14.2538272047
  0
LINE
  5
3DE
100
AcDbEntity
  8
0
100
AcDbLine
 62
7
  6
CONTINUOUS
 10
-0.1099037191
 20
14.0185088909
 11
-0.1099037191
 21
15.4646716567
  0
LINE
  5
3DF
100
AcDbEntity
  8
0
100
AcDbLine
 62
7
  6
CONTINUOUS
 10
0.1957646054
 20
20.8711160502
 11
0.1957646054
 21
20.4069377365
  0
LWPOLYLINE
  5
3E0
100
AcDbEntity
  8
RACCORDO
100
AcDbPolyline
 62
253
  6
CONTINUOUS
 90
10
 70
0
 10
-0.5906061115
 20
-1.2243887415
 10
-0.6089736065
 20
-3.0678638992
 10
-0.6227491213
 20
-4.9075986691
 10
-0.6319326602
 20
-6.7435604514
 10
-0.6365242798
 20
-8.5756946442
 10
-0.6365242776
 20
-10.4039909565
 10
-0.6319326542
 20
-12.2284829429
 10
-0.6227491136
 20
-14.0491597982
 10
-0.6089736003
 20
-15.8659668236
 10
-0.5906061115
 20
-17.6788714134
  0
LWPOLYLINE
  5
3E1
100
AcDbEntity
  8
RACCORDO
100
AcDbPolyline
 62
253
  6
CONTINUOUS
 90
10
 70
0
 10
0.0879324098
 20
-1.1449082335
 10
0.0695828838
 20
-2.9865929348
 10
0.0558207406
 20
-4.8244766314
 10
0.0466459799
 20
-6.6585593232
 10
0.0420586036
 20
-8.4888520457
 10
0.0420586099
 20
-10.3153437634
 10
0.0466459941
 20
-12.1380013706
 10
0.0558207547
 20
-13.9568138319
 10
0.0695828933
 20
-15.7717921826
 10
0.0879324098
 20
-17.5829364228
  0
LWPOLYLINE
  5
3E2
100
AcDbEntity
  8
0
100
AcDbPolyline
 62
253
  6
CONTINUOUS
 90
6
 70
0
 10
-2.4169286988
 20
16.5408407265
 10
-2.416816656
 20
16.5491345854
 10
-2.4164805772
 20
16.5576077754
 10
-2.4159209141
 20
16.5662415166
 10
-2.4151384881
 20
16.5750179519
 10
-2.4141348261
 20
16.5839162428
  0
LWPOLYLINE
  5
3E3
100
AcDbEntity
  8
RACCORDO
100
AcDbPolyline
 62
253
  6
CONTINUOUS
 90
9
 70
0
 10
-0.1553134372
 20
5.6232110648
 10
-0.1564384916
 20
5.5625975224
 10
-0.1528191624
 20
5.5063911289
 10
-0.1445241836
 20
5.455659243
 10
-0.1317110797
 20
5.4113652621
 10
-0.1146231742
 20
5.3743503253
 10
-0.0935849684
 20
5.3453173417
 10
-0.0689959798
 20
5.3248176443
 10
-0.0452781835
 20
5.3142893346
  0
LWPOLYLINE
  5
3E4
100
AcDbEntity
  8
RACCORDO
100
AcDbPolyline
 62
253
  6
CONTINUOUS
 90
10
 70
0
 10
-0.4516926596
 20
3.6186976233
 10
-0.4755591838
 20
3.0743220342
 10
-0.497318881
 20
2.5314661794
 10
-0.5169710827
 20
1.9901545737
 10
-0.5345146993
 20
1.4504291778
 10
-0.5499498963
 20
0.9122967246
 10
-0.5632774291
 20
0.3757292372
 10
-0.5744967183
 20
-0.1592659702
 10
-0.583606515
 20
-0.6926468118
 10
-0.5906061115
 20
-1.2243887415
  0
LWPOLYLINE
  5
3E5
100
AcDbEntity
  8
RACCORDO
100
AcDbPolyline
 62
253
  6
CONTINUOUS
 90
10
 70
0
 10
0.2260966455
 20
3.6712655934
 10
0.2023581269
 20
3.1298820452
 10
0.1807161457
 20
2.590055176
 10
0.1611707018
 20
2.0517849857
 10
0.1437215329
 20
1.515062672
 10
0.1283689014
 20
0.9798970372
 10
0.1151135946
 20
0.4463144886
 10
0.103955875
 20
-0.0856761716
 10
0.09489548
 20
-0.6160837456
 10
0.0879324098
 20
-1.1449082335
  0
LWPOLYLINE
  5
3E6
100
AcDbEntity
  8
0
100
AcDbPolyline
 62
253
  6
CONTINUOUS
 90
24
 70
0
 10
2.0615882737
 20
14.5757810338
 10
2.0641699891
 20
14.5872600263
 10
2.0670018178
 20
14.5987332091
 10
2.0700773874
 20
14.6101747676
 10
2.0733897787
 20
14.6215589659
 10
2.0769315408
 20
14.632860201
 10
2.0806947055
 20
14.6440530511
 10
2.0846708096
 20
14.6551123479
 10
2.0888509072
 20
14.666013212
 10
2.0932255872
 20
14.676731107
 10
2.0977849952
 20
14.6872418998
 10
2.1025188865
 20
14.6975219831
 10
2.1074166448
 20
14.7075483031
 10
2.1124673037
 20
14.7172983973
 10
2.1176594598
 20
14.7267502384
 10
2.1229813199
 20
14.7358823715
 10
2.1284208337
 20
14.74467416
 10
2.1339658325
 20
14.7531059765
 10
2.1396039477
 20
14.7611590272
 10
2.145323365
 20
14.7688163221
 10
2.1511103773
 20
14.7760593961
 10
2.1569494323
 20
14.7828691066
 10
2.1628264942
 20
14.7892298312
 10
2.1687291617
 20
14.795128889
  0
LINE
  5
3E7
100
AcDbEntity
  8
0
100
AcDbLine
 62
7
  6
CONTINUOUS
 10
5.9664290055
 20
14.8449406963
 11
5.9596417256
 21
14.8311099487
  0
LINE
  5
3E8
100
AcDbEntity
  8
0
100
AcDbLine
 62
253
  6
CONTINUOUS
 10
5.5839986651
 20
14.1840317684
 11
5.9559397622
 21
14.8862412576
  0
LINE
  5
3E9
100
AcDbEntity
  8
0
100
AcDbLine
 62
7
  6
CONTINUOUS
 10
5.5839986651
 20
14.1219112956
 11
5.9596330086
 21
14.831093482
  0
LINE
  5
3EA
100
AcDbEntity
  8
RACCORDO
100
AcDbLine
 62
253
  6
CONTINUOUS
 10
6.9643847721
 20
7.9762591297
 11
23.9627914444
 21
22.7792924244
  0
LINE
  5
3EB
100
AcDbEntity
  8
RACCORDO
100
AcDbLine
 62
253
  6
CONTINUOUS
 10
0.2260966455
 20
3.6712655934
 11
0.8232801176
 21
4.1857305468
  0
LWPOLYLINE
  5
3EC
100
AcDbEntity
  8
RACCORDO
100
AcDbPolyline
 62
253
  6
CONTINUOUS
 90
16
 70
0
 10
0.2260966455
 20
3.6712655934
 10
0.1972641008
 20
3.6534394777
 10
0.1641481947
 20
3.6371840376
 10
0.1271037665
 20
3.6226734514
 10
0.0865277497
 20
3.6100632012
 10
0.0428549194
 20
3.5994884065
 10
-0.003446767
 20
3.5910623769
 10
-0.0518811836
 20
3.5848753978
 10
-0.1019293523
 20
3.5809937633
 10
-0.1530550033
 20
3.5794590653
 10
-0.2047103216
 20
3.5802877482
 10
-0.2563418169
 20
3.5834709326
 10
-0.307396254
 20
3.5889745104
 10
-0.3573265809
 20
3.5967395105
 10
-0.4055977908
 20
3.6066827302
 10
-0.451692654
 20
3.6186976274
  0
LWPOLYLINE
  5
3ED
100
AcDbEntity
  8
RACCORDO
100
AcDbPolyline
 62
253
  6
CONTINUOUS
 90
6
 70
0
 10
21.2443216416
 20
-4.935861573
 10
21.3152197999
 20
-4.9440038912
 10
21.3715514027
 20
-4.9481949247
 10
21.4128959383
 20
-4.9484033879
 10
21.4389447725
 20
-4.9446277246
 10
21.4495569113
 20
-4.9366974302
  0
LWPOLYLINE
  5
3EE
100
AcDbEntity
  8
RACCORDO
100
AcDbPolyline
 62
253
  6
CONTINUOUS
 90
13
 70
0
 10
-35.2338716183
 20
9.064935727
 10
-35.1758854589
 20
9.0505236931
 10
-35.1146871337
 20
9.0398372419
 10
-35.0513006594
 20
9.0330551874
 10
-34.9867866665
 20
9.0302910121
 10
-34.9222246519
 20
9.0315909681
 10
-34.8586949161
 20
9.0369333036
 10
-34.7972604868
 20
9.0462286267
 10
-34.7389493314
 20
9.0593214009
 10
-34.6847371563
 20
9.0759925481
 10
-34.6355310806
 20
9.095963114
 10
-34.5921544576
 20
9.1188989359
 10
-34.5553330979
 20
9.1444162343
  0
LINE
  5
3EF
100
AcDbEntity
  8
RACCORDO
100
AcDbLine
 62
253
  6
CONTINUOUS
 10
-0.5906061115
 20
-1.2243887415
 11
-34.2170256937
 21
8.4827224574
  0
LINE
  5
3F0
100
AcDbEntity
  8
RACCORDO
100
AcDbLine
 62
253
  6
CONTINUOUS
 10
1.6917494422
 20
-1.5945729035
 11
0.926239814
 21
-1.3735893086
  0
LINE
  5
3F1
100
AcDbEntity
  8
RACCORDO
100
AcDbLine
 62
253
  6
CONTINUOUS
 10
-35.2338716192
 20
9.0649357263
 11
-35.9993812474
 21
9.2859193213
  0
LWPOLYLINE
  5
3F2
100
AcDbEntity
  8
RACCORDO
100
AcDbPolyline
 62
253
  6
CONTINUOUS
 90
10
 70
0
 10
0.9262398145
 20
-1.3735893082
 10
0.8724356825
 20
-1.3557302647
 10
0.8237142761
 20
-1.3346856225
 10
0.7808908388
 20
-1.3108075165
 10
0.7446819248
 20
-1.2844954931
 10
0.715693409
 20
-1.2561898251
 10
0.6944103492
 20
-1.2263641444
 10
0.6811888697
 20
-1.1955175167
 10
0.6762502023
 20
-1.1641660913
 10
0.6762224489
 20
-1.1600802425
  0
LWPOLYLINE
  5
3F3
100
AcDbEntity
  8
0
100
AcDbPolyline
 62
253
  6
CONTINUOUS
 90
13
 70
0
 10
-28.7064876729
 20
25.4277706539
 10
-28.6976755097
 20
25.4198773924
 10
-28.6891308792
 20
25.4116460923
 10
-28.6808730561
 20
25.4030953349
 10
-28.6729206972
 20
25.3942444383
 10
-28.6652918035
 20
25.3851134276
 10
-28.6580036867
 20
25.375723013
 10
-28.6510728764
 20
25.3660944866
 10
-28.6445150819
 20
25.3562496687
 10
-28.6383451604
 20
25.34621086
 10
-28.632577096
 20
25.336000809
 10
-28.6272239591
 20
25.3256426478
 10
-28.6222978819
 20
25.3151598473
  0
LINE
  5
3F4
100
AcDbEntity
  8
0
100
AcDbLine
 62
7
  6
CONTINUOUS
 10
-13.5297966671
 20
21.0446691841
 11
-13.5478045651
 21
21.0718908844
  0
LWPOLYLINE
  5
3F5
100
AcDbEntity
  8
0
100
AcDbPolyline
 62
7
  6
CONTINUOUS
 90
6
 70
0
 10
-13.096397584
 20
18.4486908743
 10
-13.1143303018
 20
18.4775700992
 10
-13.1282929821
 20
18.5089253
 10
-13.1378774957
 20
18.5421217964
 10
-13.1428136903
 20
18.5765948146
 10
-13.1434700922
 20
18.5944444682
  0
LWPOLYLINE
  5
3F6
100
AcDbEntity
  8
0
100
AcDbPolyline
 62
253
  6
CONTINUOUS
 90
4
 70
0
 10
-9.1129022636
 20
19.2362412576
 10
-9.1102111732
 20
19.2299905849
 10
-9.1080151299
 20
19.2238920455
 10
-9.1063194165
 20
19.2179594927
  0
LWPOLYLINE
  5
3F7
100
AcDbEntity
  8
0
100
AcDbPolyline
 62
253
  6
CONTINUOUS
 90
10
 70
0
 10
-9.1367196532
 20
19.6901449792
 10
-9.1322330273
 20
19.6795626658
 10
-9.1281946872
 20
19.6689035142
 10
-9.1246137808
 20
19.65819167
 10
-9.1214984195
 20
19.6474513978
 10
-9.1188556605
 20
19.6367070267
 10
-9.11669149
 20
19.6259828952
 10
-9.1150108105
 20
19.6153032958
 10
-9.1138174291
 20
19.6046924202
 10
-9.113114049
 20
19.5941743044
  0
LWPOLYLINE
  5
3F8
100
AcDbEntity
  8
0
100
AcDbPolyline
 62
253
  6
CONTINUOUS
 90
13
 70
0
 10
5.9549729016
 20
-26.2730609231
 10
5.9516337914
 20
-26.2618955908
 10
5.9478141246
 20
-26.2509324761
 10
5.9435225217
 20
-26.2401963223
 10
5.9387686688
 20
-26.2297113602
 10
5.9335632949
 20
-26.2195012536
 10
5.9279181484
 20
-26.2095890463
 10
5.9218459699
 20
-26.1999971094
 10
5.9153604641
 20
-26.1907470915
 10
5.9084762682
 20
-26.1818598692
 10
5.9012089196
 20
-26.1733555006
 10
5.8935748202
 20
-26.1652531794
 10
5.8855911998
 20
-26.1575711921
  0
LWPOLYLINE
  5
3F9
100
AcDbEntity
  8
0
100
AcDbPolyline
 62
253
  6
CONTINUOUS
 90
40
 70
0
 10
3.118630209
 20
9.560917371
 10
3.1177407445
 20
9.5779720692
 10
3.1161583651
 20
9.5952077426
 10
3.1138856345
 20
9.6125964672
 10
3.1109262346
 20
9.6301100714
 10
3.1072849601
 20
9.6477201811
 10
3.1029677102
 20
9.6653982657
 10
3.0979814794
 20
9.6831156847
 10
3.0923343459
 20
9.7008437339
 10
3.0860354588
 20
9.7185536916
 10
3.0790950229
 20
9.7362168657
 10
3.0715242825
 20
9.7538046397
 10
3.0633355032
 20
9.7712885194
 10
3.0545419516
 20
9.7886401787
 10
3.0451578745
 20
9.8058315061
 10
3.035198475
 20
9.8228346494
 10
3.0246798886
 20
9.8396220616
 10
3.0136191565
 20
9.8561665451
 10
3.0020341985
 20
9.8724412958
 10
2.9899437836
 20
9.8884199467
 10
2.9773674997
 20
9.9040766105
 10
2.9643257217
 20
9.9193859216
 10
2.950839579
 20
9.934323077
 10
2.9369309206
 20
9.9488638767
 10
2.9226222803
 20
9.962984763
 10
2.9079368397
 20
9.9766628584
 10
2.8928983909
 20
9.9898760026
 10
2.8775312981
 20
10.0026027888
 10
2.8618604577
 20
10.014822598
 10
2.8459112583
 20
10.0265156328
 10
2.8297095396
 20
10.0376629491
 10
2.8132815503
 20
10.0482464868
 10
2.7966539055
 20
10.0582490993
 10
2.7798535442
 20
10.0676545812
 10
2.7629076848
 20
10.0764476945
 10
2.7458437817
 20
10.0846141933
 10
2.7286894805
 20
10.092140847
 10
2.711472573
 20
10.0990154613
 10
2.6942209529
 20
10.1052268987
 10
2.6769625696
 20
10.1107650958
  0
LWPOLYLINE
  5
3FA
100
AcDbEntity
  8
0
100
AcDbPolyline
 62
253
  6
CONTINUOUS
 90
12
 70
0
 10
2.4287897392
 20
-20.603454746
 10
2.4521545322
 20
-21.2581421915
 10
2.4790092139
 20
-21.9095067888
 10
2.5093545788
 20
-22.5575476623
 10
2.5431898323
 20
-23.2022656876
 10
2.5805072717
 20
-23.843514027
 10
2.6213077075
 20
-24.4812920609
 10
2.6655903291
 20
-25.1156004088
 10
2.7133450025
 20
-25.7462940918
 10
2.7645683494
 20
-26.3733247837
 10
2.8192637479
 20
-26.9967408106
 10
2.8774311982
 20
-27.6165421728
  0
LWPOLYLINE
  5
3FB
100
AcDbEntity
  8
0
100
AcDbPolyline
 62
253
  6
CONTINUOUS
 90
16
 70
0
 10
1.6917494422
 20
-18.0490555754
 10
1.7011805212
 20
-18.7200315893
 10
1.7141280867
 20
-19.3879167909
 10
1.7305911849
 20
-20.0526604996
 10
1.7505686545
 20
-20.714212265
 10
1.7740589726
 20
-21.3725219025
 10
1.8010602562
 20
-22.027539496
 10
1.831570543
 20
-22.6792154017
 10
1.8655875616
 20
-23.3275001264
 10
1.9031085776
 20
-23.9723443637
 10
1.9441308474
 20
-24.6136991592
 10
1.9886513285
 20
-25.2515159019
 10
2.0366664514
 20
-25.8857462007
 10
2.0881725835
 20
-26.5163419457
 10
2.1431660286
 20
-27.1432553133
 10
2.2016427366
 20
-27.7664387576
  0
LWPOLYLINE
  5
3FC
100
AcDbEntity
  8
0
100
AcDbPolyline
 62
253
  6
CONTINUOUS
 90
5
 70
0
 10
2.3702879634
 20
-17.9531205848
 10
2.3796701525
 20
-18.6204517463
 10
2.3925475493
 20
-19.2846095234
 10
2.4089201538
 20
-19.9455939162
 10
2.4287897392
 20
-20.603454746
  0
LWPOLYLINE
  5
3FD
100
AcDbEntity
  8
0
100
AcDbPolyline
 62
253
  6
CONTINUOUS
 90
22
 70
0
 10
4.1061522762
 20
-28.0965772565
 10
4.106292851
 20
-28.106720592
 10
4.10671426
 20
-28.1165976448
 10
4.1074155566
 20
-28.1261861981
 10
4.1083951654
 20
-28.1354646899
 10
4.1096508839
 20
-28.144412243
 10
4.1111798857
 20
-28.153008715
 10
4.1129787304
 20
-28.1612347667
 10
4.1150433724
 20
-28.1690719009
 10
4.1173691668
 20
-28.1765024886
 10
4.1199508823
 20
-28.1835098188
 10
4.122782711
 20
-28.1900781304
 10
4.1258582806
 20
-28.1961926461
 10
4.1291706718
 20
-28.2018396145
 10
4.132712434
 20
-28.2070063375
 10
4.1364755987
 20
-28.2116811952
 10
4.1404517028
 20
-28.2158536776
 10
4.1446318004
 20
-28.2195144003
 10
4.1490064804
 20
-28.2226551273
 10
4.1535658883
 20
-28.2252687939
 10
4.1582997797
 20
-28.2273495369
 10
4.1613488771
 20
-28.228379207
  0
LWPOLYLINE
  5
3FE
100
AcDbEntity
  8
0
100
AcDbPolyline
 62
253
  6
CONTINUOUS
 90
22
 70
0
 10
2.050371383
 20
14.1364536431
 10
2.0504903862
 20
14.1271116045
 10
2.0508471691
 20
14.117993473
 10
2.0514410524
 20
14.1091166098
 10
2.0522709028
 20
14.1004979398
 10
2.0533351416
 20
14.0921538491
 10
2.0546317537
 20
14.0841001621
 10
2.056158287
 20
14.076352169
 10
2.0579118322
 20
14.0689246864
 10
2.0598890298
 20
14.061831951
 10
2.0620860972
 20
14.0550875065
 10
2.0644988602
 20
14.0487041433
 10
2.0671227411
 20
14.0426939697
 10
2.0699527668
 20
14.0370683936
 10
2.072983532
 20
14.0318381748
 10
2.0762092184
 20
14.0270133435
 10
2.0796236458
 20
14.0226031095
 10
2.0832203344
 20
14.0186158099
 10
2.0869924768
 20
14.0150589804
 10
2.0909333739
 20
14.0119390454
 10
2.0950350783
 20
14.0092623998
 10
2.0992882727
 20
14.0070348382
  0
LWPOLYLINE
  5
3FF
100
AcDbEntity
  8
0
100
AcDbPolyline
 62
253
  6
CONTINUOUS
 90
24
 70
0
 10
4.1061522762
 20
13.5430008171
 10
4.1062712794
 20
13.5336587785
 10
4.1066280623
 20
13.5245406469
 10
4.1072219456
 20
13.5156637838
 10
4.108051796
 20
13.5070451138
 10
4.1091160348
 20
13.4987010231
 10
4.1104126469
 20
13.4906473361
 10
4.1119391801
 20
13.482899343
 10
4.1136927253
 20
13.4754718604
 10
4.115669923
 20
13.468379125
 10
4.1178669904
 20
13.4616346805
 10
4.1202797534
 20
13.4552513172
 10
4.1229036343
 20
13.4492411437
 10
4.12573366
 20
13.4436155676
 10
4.1287644251
 20
13.4383853488
 10
4.1319901116
 20
13.4335605175
 10
4.135404539
 20
13.4291502835
 10
4.1390012276
 20
13.4251629839
 10
4.14277337
 20
13.4216061544
 10
4.1467142671
 20
13.4184862194
 10
4.1508159715
 20
13.4158095738
 10
4.1550691659
 20
13.4135820121
 10
4.1594650825
 20
13.4118074837
 10
4.1618141643
 20
13.4110619314
  0
LWPOLYLINE
  5
400
100
AcDbEntity
  8
RACCORDO
100
AcDbPolyline
 62
253
  6
CONTINUOUS
 90
10
 70
0
 10
0.926239814
 20
-17.8280719805
 10
0.9323998283
 20
-18.3175635674
 10
0.9406407284
 20
-18.8237664364
 10
0.9511755032
 20
-19.3464631742
 10
0.964231406
 20
-19.8854110553
 10
0.9800297119
 20
-20.4403815707
 10
0.9987863306
 20
-21.0111593697
 10
1.02073841
 20
-21.5974888019
 10
1.0461436115
 20
-22.199074099
 10
1.0752603042
 20
-22.8156184241
  0
LINE
  5
401
100
AcDbEntity
  8
0
100
AcDbLine
 62
253
  6
CONTINUOUS
 10
1.9253719337
 20
14.2444444682
 11
1.925371383
 21
14.2447068186
  0
LINE
  5
402
100
AcDbEntity
  8
0
100
AcDbLine
 62
7
  6
CONTINUOUS
 10
0.6476538635
 20
14.7339259599
 11
0.6476538635
 21
16.1195666059
  0
LINE
  5
403
100
AcDbEntity
  8
0
100
AcDbLine
 62
7
  6
CONTINUOUS
 10
1.925371383
 20
14.5846807527
 11
1.925371383
 21
14.2447068186
  0
LINE
  5
404
100
AcDbEntity
  8
0
100
AcDbLine
 62
253
  6
CONTINUOUS
 10
2.050371383
 20
14.4764275772
 11
2.050371383
 21
14.1364536431
  0
LINE
  5
405
100
AcDbEntity
  8
0
100
AcDbLine
 62
7
  6
CONTINUOUS
 10
2.4203329946
 20
13.9137842424
 11
2.4203329946
 21
13.3659345592
  0
LINE
  5
406
100
AcDbEntity
  8
0
100
AcDbLine
 62
253
  6
CONTINUOUS
 10
2.5453329946
 20
13.8776998506
 11
2.5453329946
 21
13.2520080752
  0
LINE
  5
407
100
AcDbEntity
  8
0
100
AcDbLine
 62
253
  6
CONTINUOUS
 10
4.1061522762
 20
-28.0965772565
 11
4.1061522762
 21
-27.7566033223
  0
LINE
  5
408
100
AcDbEntity
  8
0
100
AcDbLine
 62
253
  6
CONTINUOUS
 10
4.1061522762
 20
13.5430008171
 11
4.1061522762
 21
13.8829747512
  0
LWPOLYLINE
  5
409
100
AcDbEntity
  8
RACCORDO
100
AcDbPolyline
 62
253
  6
CONTINUOUS
 90
28
 70
0
 10
1.0752603042
 20
-22.8156184241
 10
1.0749065426
 20
-22.9195405725
 10
1.0669592173
 20
-23.0173353715
 10
1.0514087067
 20
-23.1090124052
 10
1.0273738908
 20
-23.1949610983
 10
0.9957186967
 20
-23.274809229
 10
0.9590473783
 20
-23.3474277584
 10
0.9174499155
 20
-23.4122035626
 10
0.8708123299
 20
-23.4697741952
 10
0.821430058
 20
-23.5208896422
 10
0.7694978113
 20
-23.565431653
 10
0.7148028365
 20
-23.6035369935
 10
0.6590315844
 20
-23.6363359319
 10
0.6023734995
 20
-23.6638289397
 10
0.5446273198
 20
-23.6860277437
 10
0.4868960738
 20
-23.7040767849
 10
0.4293114627
 20
-23.7180275508
 10
0.371734868
 20
-23.7278357233
 10
0.3148658558
 20
-23.7344999489
 10
0.2587239562
 20
-23.7380648379
 10
0.2032859781
 20
-23.7384895853
 10
0.1491886662
 20
-23.7366434057
 10
0.096988636
 20
-23.7326895566
 10
0.0461275746
 20
-23.726466548
 10
-0.0044294533
 20
-23.7183557325
 10
-0.0550275534
 20
-23.7084843603
 10
-0.105322168
 20
-23.6967257523
 10
-0.1553134372
 20
-23.6830800545
  0
LWPOLYLINE
  5
40A
100
AcDbEntity
  8
RACCORDO
100
AcDbPolyline
 62
7
  6
CONTINUOUS
 90
10
 70
0
 10
0.6762224496
 20
-1.1600801777
 10
0.6597033366
 20
-2.9107723794
 10
0.6463749007
 20
-4.7751620286
 10
0.6374851789
 20
-6.6356435891
 10
0.6330344662
 20
-8.4921784363
 10
0.6330228588
 20
-10.3447345174
 10
0.6374504144
 20
-12.1932822951
 10
0.646317152
 20
-14.0377897885
 10
0.6596228921
 20
-15.8782188013
 10
0.6762235361
 20
-17.6087486831
  0
LWPOLYLINE
  5
40B
100
AcDbEntity
  8
RACCORDO
100
AcDbPolyline
 62
253
  6
CONTINUOUS
 90
10
 70
0
 10
0.926239814
 20
-1.3735893086
 10
0.9089492849
 20
-3.2173752139
 10
0.8959814943
 20
-5.0573429623
 10
0.8873364378
 20
-6.8934599545
 10
0.8830140585
 20
-8.7256714792
 10
0.8830140578
 20
-10.5539673558
 10
0.887336436
 20
-12.3783814668
 10
0.8959814919
 20
-14.1989031143
 10
0.9089492829
 20
-16.015477488
 10
0.926239814
 20
-17.8280719805
  0
LWPOLYLINE
  5
40C
100
AcDbEntity
  8
0
100
AcDbPolyline
 62
253
  6
CONTINUOUS
 90
13
 70
0
 10
1.6917494422
 20
-1.5945729035
 10
1.6775431741
 20
-2.9775447076
 10
1.6659200157
 20
-4.3584081343
 10
1.6568799291
 20
-5.7371494603
 10
1.6504228866
 20
-7.1137457801
 10
1.6465487311
 20
-8.48819265
 10
1.6452573433
 20
-9.8605039447
 10
1.646548732
 20
-11.2306658951
 10
1.6504228882
 20
-12.5986647683
 10
1.656879931
 20
-13.9645142641
 10
1.6659200175
 20
-15.3282096773
 10
1.6775431753
 20
-16.6897280441
 10
1.6917494422
 20
-18.0490555754
  0
LWPOLYLINE
  5
40D
100
AcDbEntity
  8
0
100
AcDbPolyline
 62
253
  6
CONTINUOUS
 90
13
 70
0
 10
2.3702879634
 20
-1.5150923956
 10
2.3560955909
 20
-2.8967037725
 10
2.3444837027
 20
-4.2761815881
 10
2.3354522989
 20
-5.6535258424
 10
2.3290014441
 20
-7.0287410754
 10
2.3251310737
 20
-8.4018227471
 10
2.3238409937
 20
-9.7727572379
 10
2.325131075
 20
-11.1415446582
 10
2.3290014468
 20
-12.5081848976
 10
2.3354523022
 20
-13.8726640051
 10
2.3444837057
 20
-15.2349773302
 10
2.3560955927
 20
-16.5951295235
 10
2.3702879634
 20
-17.9531205848
  0
LWPOLYLINE
  5
40E
100
AcDbEntity
  8
0
100
AcDbPolyline
 62
253
  6
CONTINUOUS
 90
10
 70
0
 10
2.050371383
 20
14.4764275772
 10
2.0505119578
 20
14.4868143954
 10
2.0509333668
 20
14.49742135
 10
2.0516346634
 20
14.5082245847
 10
2.0526142722
 20
14.5191998086
 10
2.0538699907
 20
14.53032233
 10
2.0553989925
 20
14.5415671109
 10
2.0571978373
 20
14.552908853
 10
2.0592624793
 20
14.564322052
 10
2.0615882737
 20
14.5757810338
  0
LWPOLYLINE
  5
40F
100
AcDbEntity
  8
0
100
AcDbPolyline
 62
253
  6
CONTINUOUS
 90
34
 70
0
 10
4.1061522762
 20
13.8829747512
 10
4.106292851
 20
13.8933615694
 10
4.10671426
 20
13.9039685239
 10
4.1074155566
 20
13.9147717587
 10
4.1083951654
 20
13.9257469826
 10
4.1096508839
 20
13.936869504
 10
4.1111798857
 20
13.9481142848
 10
4.1129787304
 20
13.9594560269
 10
4.1150433724
 20
13.970869226
 10
4.1173691668
 20
13.9823282078
 10
4.1199508823
 20
13.9938072003
 10
4.122782711
 20
14.005280383
 10
4.1258582806
 20
14.0167219415
 10
4.1291706718
 20
14.0281061399
 10
4.132712434
 20
14.039407375
 10
4.1364755987
 20
14.0506002251
 10
4.1404517028
 20
14.0616595218
 10
4.1446318004
 20
14.072560386
 10
4.1490064804
 20
14.083278281
 10
4.1535658883
 20
14.0937890738
 10
4.1582997797
 20
14.1040691571
 10
4.1631975379
 20
14.1140954771
 10
4.1682481969
 20
14.1238455713
 10
4.173440353
 20
14.1332974123
 10
4.178762213
 20
14.1424295454
 10
4.1842017269
 20
14.151221334
 10
4.1897467257
 20
14.1596531504
 10
4.1953848409
 20
14.1677062012
 10
4.2011042582
 20
14.1753634961
 10
4.2068912705
 20
14.18260657
 10
4.2127303255
 20
14.1894162806
 10
4.2186073874
 20
14.1957770052
 10
4.2245100549
 20
14.201676063
 10
4.2304250598
 20
14.2071008257
  0
LWPOLYLINE
  5
410
100
AcDbEntity
  8
RACCORDO
100
AcDbPolyline
 62
253
  6
CONTINUOUS
 90
11
 70
0
 10
0.2260966455
 20
-22.169166347
 10
0.2249104918
 20
-22.2322452518
 10
0.2188935457
 20
-22.2935516995
 10
0.2080915328
 20
-22.3527348952
 10
0.1925870215
 20
-22.4094468481
 10
0.1724681731
 20
-22.4633729665
 10
0.1478268583
 20
-22.5142329939
 10
0.1188068768
 20
-22.5617401955
 10
0.0855825046
 20
-22.605616868
 10
0.0483282145
 20
-22.6456262629
 10
0.0110566919
 20
-22.6785234311
  0
LWPOLYLINE
  5
411
100
AcDbEntity
  8
RACCORDO
100
AcDbPolyline
 62
7
  6
CONTINUOUS
 90
10
 70
0
 10
0.8248816298
 20
4.0845789766
 10
0.803073147
 20
3.5894971765
 10
0.7782218143
 20
2.9753210576
 10
0.7558986195
 20
2.3630767571
 10
0.7361052037
 20
1.7528017227
 10
0.7188428773
 20
1.1445297276
 10
0.7041128719
 20
0.5382941163
 10
0.6919162954
 20
-0.0658707511
 10
0.6822541978
 20
-0.6679293017
 10
0.6762224516
 20
-1.1600802425
  0
LWPOLYLINE
  5
412
100
AcDbEntity
  8
RACCORDO
100
AcDbPolyline
 62
253
  6
CONTINUOUS
 90
13
 70
0
 10
1.0752603042
 20
3.8827357628
 10
1.0530512612
 20
3.3784802192
 10
1.0329700654
 20
2.8864961204
 10
1.0149055921
 20
2.4067195263
 10
0.9987462342
 20
1.9390957436
 10
0.9843883486
 20
1.4835499225
 10
0.9717365575
 20
1.039987413
 10
0.9606895885
 20
0.6083385302
 10
0.9511483561
 20
0.1885424241
 10
0.9430247358
 20
-0.2194820806
 10
0.9362275147
 20
-0.6158052112
 10
0.9306622679
 20
-1.0004862345
 10
0.926239814
 20
-1.3735893086
  0
LWPOLYLINE
  5
413
100
AcDbEntity
  8
0
100
AcDbPolyline
 62
253
  6
CONTINUOUS
 90
16
 70
0
 10
2.2016427366
 20
8.971601602
 10
2.1431660286
 20
8.2510756241
 10
2.0881725835
 20
7.5326176021
 10
2.0366664514
 20
6.8162820967
 10
1.9886513285
 20
6.1021235613
 10
1.9441308474
 20
5.3901961698
 10
1.9031085776
 20
4.6805538131
 10
1.8655875616
 20
3.9732503188
 10
1.831570543
 20
3.2683394468
 10
1.8010602562
 20
2.5658747175
 10
1.7740589726
 20
1.8659095043
 10
1.7505686545
 20
1.1684969038
 10
1.7305911849
 20
0.4736897335
 10
1.7141280866
 20
-0.2184593042
 10
1.7011805212
 20
-0.9078976273
 10
1.6917494422
 20
-1.5945729035
  0
LWPOLYLINE
  5
414
100
AcDbEntity
  8
0
100
AcDbPolyline
 62
253
  6
CONTINUOUS
 90
16
 70
0
 10
2.8774311982
 20
8.9923572726
 10
2.8192636844
 20
8.2757481427
 10
2.7645682405
 20
7.5613030313
 10
2.7133448663
 20
6.8490219382
 10
2.6655901899
 20
6.1388509877
 10
2.6213075832
 20
5.4308440555
 10
2.5805071627
 20
4.7251627695
 10
2.5431897331
 20
4.0218077868
 10
2.5093544897
 20
3.3207784502
 10
2.4790091348
 20
2.6222344168
 10
2.4521544619
 20
1.9261760644
 10
2.4287896774
 20
1.2326030151
 10
2.4089201032
 20
0.5416737922
 10
2.3925475131
 20
-0.1465587634
 10
2.3796701331
 20
-0.8321474927
 10
2.3702879634
 20
-1.5150923956
  0
LWPOLYLINE
  5
415
100
AcDbEntity
  8
0
100
AcDbPolyline
 62
253
  6
CONTINUOUS
 90
32
 70
0
 10
4.4469277468
 20
13.5881252623
 10
4.443686061
 20
13.5767293929
 10
4.439964699
 20
13.5655017211
 10
4.4357720598
 20
13.5544675872
 10
4.4311176057
 20
13.5436518944
 10
4.4260118418
 20
13.5330790532
 10
4.4204662913
 20
13.5227729259
 10
4.4144934702
 20
13.5127567727
 10
4.4081068589
 20
13.5030531996
 10
4.4013208716
 20
13.4936841069
 10
4.3941508238
 20
13.4846706401
 10
4.3866128979
 20
13.4760331422
 10
4.3787241065
 20
13.4677911073
 10
4.3705022543
 20
13.4599631374
 10
4.3619658974
 20
13.4525668996
 10
4.3531343018
 20
13.4456190868
 10
4.3440274001
 20
13.4391353799
 10
4.3346657458
 20
13.4331304121
 10
4.3250704678
 20
13.4276177364
 10
4.3152632219
 20
13.4226097945
 10
4.3052661427
 20
13.4181178891
 10
4.2951017928
 20
13.414152158
 10
4.2847931126
 20
13.4107215519
 10
4.2743633682
 20
13.4078338132
 10
4.2638360989
 20
13.4054954595
 10
4.2532350642
 20
13.4037117682
 10
4.2425841899
 20
13.4024867652
 10
4.2319075145
 20
13.4018232151
 10
4.2212291346
 20
13.4017226155
 10
4.2105731506
 20
13.4021851935
 10
4.1999636124
 20
13.4032099051
 10
4.1975796741
 20
13.4035184876
  0
LINE
  5
416
100
AcDbEntity
  8
RACCORDO
100
AcDbLine
 62
253
  6
CONTINUOUS
 10
24.2323590741
 20
18.9725117966
 11
24.9656574216
 21
19.6111034048
  0
LWPOLYLINE
  5
417
100
AcDbEntity
  8
0
100
AcDbPolyline
 62
253
  6
CONTINUOUS
 90
40
 70
0
 10
2.3702879634
 20
-1.5150923956
 10
2.3596957973
 20
-1.5231939443
 10
2.3484406254
 20
-1.5310784081
 10
2.3365403003
 20
-1.5387332807
 10
2.324013698
 20
-1.5461464203
 10
2.3108806878
 20
-1.5533060684
 10
2.2971621009
 20
-1.5602008685
 10
2.2828796974
 20
-1.5668198844
 10
2.2680561315
 20
-1.573152617
 10
2.2527149159
 20
-1.5791890217
 10
2.2368803845
 20
-1.5849195237
 10
2.2205776535
 20
-1.5903350333
 10
2.2038325818
 20
-1.5954269608
 10
2.18667173
 20
-1.6001872294
 10
2.1691223181
 20
-1.6046082884
 10
2.1512121824
 20
-1.6086831255
 10
2.1329697315
 20
-1.6124052771
 10
2.1144239011
 20
-1.6157688394
 10
2.0956041079
 20
-1.6187684771
 10
2.0765402034
 20
-1.6213994323
 10
2.0572624262
 20
-1.6236575318
 10
2.0378013541
 20
-1.625539194
 10
2.0181878557
 20
-1.6270414342
 10
1.9984530414
 20
-1.6281618695
 10
1.9786282139
 20
-1.6288987228
 10
1.9587448188
 20
-1.6292508253
 10
1.9388343946
 20
-1.6292176185
 10
1.9189285225
 20
-1.628799155
 10
1.8990587767
 20
-1.6279960987
 10
1.8792566741
 20
-1.6268097234
 10
1.859553624
 20
-1.6252419107
 10
1.8399808789
 20
-1.6232951475
 10
1.8205694846
 20
-1.6209725218
 10
1.8013502307
 20
-1.6182777176
 10
1.7823536024
 20
-1.6152150093
 10
1.7636097314
 20
-1.6117892549
 10
1.7451483489
 20
-1.6080058882
 10
1.7269987376
 20
-1.6038709104
 10
1.709189686
 20
-1.5993908801
 10
1.6917494422
 20
-1.5945729035
  0
LWPOLYLINE
  5
418
100
AcDbEntity
  8
RACCORDO
100
AcDbPolyline
 62
253
  6
CONTINUOUS
 90
16
 70
0
 10
0.0879324098
 20
-1.1449082335
 10
0.0590211096
 20
-1.165515506
 10
0.0258275797
 20
-1.1845224103
 10
-0.0112925326
 20
-1.2017252999
 10
-0.0519415095
 20
-1.2169398569
 10
-0.0956838237
 20
-1.2300030672
 10
-0.1420508045
 20
-1.2407749671
 10
-0.1905456601
 20
-1.2491401426
 10
-0.2406487994
 20
-1.2550089663
 10
-0.2918233999
 20
-1.2583185575
 10
-0.343521159
 20
-1.2590334563
 10
-0.3951881688
 20
-1.2571460028
 10
-0.4462708508
 20
-1.2526764199
 10
-0.4962218873
 20
-1.2456725962
 10
-0.5445060854
 20
-1.2362095733
 10
-0.5906061112
 20
-1.2243887413
  0
LINE
  5
419
100
AcDbEntity
  8
RACCORDO
100
AcDbLine
 62
253
  6
CONTINUOUS
 10
-33.6330751655
 20
13.6573800136
 11
-0.8631877511
 21
4.1975283535
  0
LWPOLYLINE
  5
41A
100
AcDbEntity
  8
RACCORDO
100
AcDbPolyline
 62
253
  6
CONTINUOUS
 90
10
 70
0
 10
1.075260313
 20
3.882735769
 10
1.0214432864
 20
3.9002841256
 10
0.9726953074
 20
3.9205349837
 10
0.9298321264
 20
3.9431494647
 10
0.8935710175
 20
3.967749137
 10
0.8645187754
 20
3.9939223487
 10
0.8431615611
 20
4.0212311163
 10
0.8298567672
 20
4.0492184536
 10
0.8248270367
 20
4.0774160197
 10
0.8248816298
 20
4.0845789766
  0
LWPOLYLINE
  5
41B
100
AcDbEntity
  8
RACCORDO
100
AcDbPolyline
 62
253
  6
CONTINUOUS
 90
22
 70
0
 10
-0.8631877511
 20
4.1975283535
 10
-0.8308010106
 20
4.1868703848
 10
-0.7990137977
 20
4.1738781466
 10
-0.7678259215
 20
4.1585517758
 10
-0.7370532513
 20
4.1407768228
 10
-0.70687915
 20
4.1206682889
 10
-0.6778545199
 20
4.0985705933
 10
-0.650011781
 20
4.0744531462
 10
-0.6233171231
 20
4.0483475377
 10
-0.5982220965
 20
4.0206914634
 10
-0.5747550322
 20
3.9914608216
 10
-0.5528858631
 20
3.9606809667
 10
-0.5329787309
 20
3.9288636435
 10
-0.5150648318
 20
3.8959885371
 10
-0.4991112284
 20
3.8620772244
 10
-0.4853862723
 20
3.8277039929
 10
-0.4739291562
 20
3.7928470832
 10
-0.4646992938
 20
3.7575292713
 10
-0.4578460114
 20
3.7223911842
 10
-0.4534190293
 20
3.6876464078
 10
-0.4513680289
 20
3.6530818007
 10
-0.4516926596
 20
3.6186976233
  0
LWPOLYLINE
  5
41C
100
AcDbEntity
  8
0
100
AcDbPolyline
 62
7
  6
CONTINUOUS
 90
3
 70
0
 10
-28.6846463608
 20
25.4835357512
 10
-28.6568146236
 20
25.4636555159
 10
-28.6319542357
 20
25.4401592012
  0
LWPOLYLINE
  5
41D
100
AcDbEntity
  8
0
100
AcDbPolyline
 62
7
  6
CONTINUOUS
 90
6
 70
0
 10
-13.5478045651
 20
21.0718908844
 10
-13.5693479128
 20
21.0966784193
 10
-13.5940860956
 20
21.1185297849
 10
-13.6215926849
 20
21.1369927256
 10
-13.6513964314
 20
21.1516968086
 10
-13.6774375687
 20
21.1608090603
  0
LINE
  5
41E
100
AcDbEntity
  8
0
100
AcDbLine
 62
7
  6
CONTINUOUS
 10
-9.1130671078
 20
19.7696691841
 11
-9.1310750058
 21
19.7968908844
  0
LINE
  5
41F
100
AcDbEntity
  8
0
100
AcDbLine
 62
253
  6
CONTINUOUS
 10
5.9557279137
 20
15.2441757459
 11
5.9559397622
 21
15.2337727744
  0
LINE
  5
420
100
AcDbEntity
  8
0
100
AcDbLine
 62
253
  6
CONTINUOUS
 10
4.3844125672
 20
19.3596863553
 11
4.3844125672
 21
18.8486153139
  0
LINE
  5
421
100
AcDbEntity
  8
0
100
AcDbLine
 62
253
  6
CONTINUOUS
 10
4.3844125672
 20
18.4211101059
 11
4.3844125672
 21
17.9759383904
  0
LINE
  5
422
100
AcDbEntity
  8
0
100
AcDbLine
 62
7
  6
CONTINUOUS
 10
4.4437975807
 20
19.4034274879
 11
4.4437975807
 21
18.0869278449
  0
LINE
  5
423
100
AcDbEntity
  8
0
100
AcDbLine
 62
253
  6
CONTINUOUS
 10
4.4469277468
 20
-28.0514528112
 11
4.4469277468
 21
-27.711478877
  0
LINE
  5
424
100
AcDbEntity
  8
0
100
AcDbLine
 62
253
  6
CONTINUOUS
 10
4.4469277468
 20
13.5881252623
 11
4.4469277468
 21
13.9280991965
  0
LINE
  5
425
100
AcDbEntity
  8
0
100
AcDbLine
 62
253
  6
CONTINUOUS
 10
4.6111906646
 20
12.6556463343
 11
4.6111906646
 21
13.3495590615
  0
LINE
  5
426
100
AcDbEntity
  8
0
100
AcDbLine
 62
253
  6
CONTINUOUS
 10
4.9519661352
 20
-26.7799206326
 11
4.9519661352
 21
-26.595196536
  0
LINE
  5
427
100
AcDbEntity
  8
0
100
AcDbLine
 62
253
  6
CONTINUOUS
 10
4.9519661352
 20
12.712051385
 11
4.9519661352
 21
13.5196835068
  0
LINE
  5
428
100
AcDbEntity
  8
0
100
AcDbLine
 62
7
  6
CONTINUOUS
 10
5.5839986651
 20
13.3089259599
 11
5.5839986651
 21
14.9110766209
  0
LINE
  5
429
100
AcDbEntity
  8
0
100
AcDbLine
 62
7
  6
CONTINUOUS
 10
5.5839986651
 20
-26.1249449852
 11
5.5839986651
 21
-27.0911627906
  0
LINE
  5
42A
100
AcDbEntity
  8
0
100
AcDbLine
 62
253
  6
CONTINUOUS
 10
5.9559397622
 20
15.2337727744
 11
5.9559397622
 21
14.8862412576
  0
LINE
  5
42B
100
AcDbEntity
  8
0
100
AcDbLine
 62
253
  6
CONTINUOUS
 10
5.9559397622
 20
-26.4133628818
 11
5.9559397622
 21
-26.7608943985
  0
LINE
  5
42C
100
AcDbEntity
  8
0
100
AcDbLine
 62
7
  6
CONTINUOUS
 10
5.9887098588
 20
15.2956419288
 11
5.9887098588
 21
14.948110412
  0
LINE
  5
42D
100
AcDbEntity
  8
0
100
AcDbLine
 62
7
  6
CONTINUOUS
 10
5.9887098588
 20
-26.3514937274
 11
5.9887098588
 21
-26.6990252441
  0
LINE
  5
42E
100
AcDbEntity
  8
0
100
AcDbLine
 62
7
  6
CONTINUOUS
 10
6.4504019534
 20
-25.3061231694
 11
6.4504019534
 21
-25.0463008925
  0
LINE
  5
42F
100
AcDbEntity
  8
0
100
AcDbLine
 62
7
  6
CONTINUOUS
 10
6.4504019534
 20
12.6258188279
 11
6.4504019534
 21
12.365996551
  0
LINE
  5
430
100
AcDbEntity
  8
0
100
AcDbLine
 62
7
  6
CONTINUOUS
 10
6.9428442642
 20
-24.8658903621
 11
6.9428442642
 21
-24.1561577788
  0
LINE
  5
431
100
AcDbEntity
  8
0
100
AcDbLine
 62
7
  6
CONTINUOUS
 10
6.9428442642
 20
12.3011909699
 11
6.9428442642
 21
13.0559748584
  0
LINE
  5
432
100
AcDbEntity
  8
0
100
AcDbLine
 62
7
  6
CONTINUOUS
 10
6.9643847721
 20
-24.1173246827
 11
6.9643847721
 21
12.2949727608
  0
LINE
  5
433
100
AcDbEntity
  8
0
100
AcDbLine
 62
253
  6
CONTINUOUS
 10
5.9887098588
 20
15.2956419288
 11
5.9887097931
 21
15.2955512837
  0
LWPOLYLINE
  5
434
100
AcDbEntity
  8
0
100
AcDbPolyline
 62
253
  6
CONTINUOUS
 90
25
 70
0
 10
4.1061522762
 20
-27.7566033223
 10
4.1062712485
 20
-27.7470564149
 10
4.106627939
 20
-27.7373216145
 10
4.1072216685
 20
-27.7274174518
 10
4.1080513071
 20
-27.71736278
 10
4.1091152753
 20
-27.7071767388
 10
4.1104115479
 20
-27.6968787178
 10
4.1119376574
 20
-27.6864883199
 10
4.1136906986
 20
-27.6760253238
 10
4.1156673347
 20
-27.6655096465
 10
4.1178638028
 20
-27.6549613051
 10
4.1202759221
 20
-27.6444003789
 10
4.1228991007
 20
-27.6338469714
 10
4.1257283455
 20
-27.6233211715
 10
4.1287582707
 20
-27.6128430156
 10
4.1319831087
 20
-27.6024324496
 10
4.1353967208
 20
-27.5921092906
 10
4.1389926091
 20
-27.5818931892
 10
4.1427639286
 20
-27.5718035924
 10
4.1467035003
 20
-27.5618597063
 10
4.150803825
 20
-27.5520804597
 10
4.1550570976
 20
-27.5424844679
 10
4.1594552217
 20
-27.5330899975
 10
4.1639898252
 20
-27.5239149313
 10
4.1686522762
 20
-27.5149767346
  0
LWPOLYLINE
  5
435
100
AcDbEntity
  8
0
100
AcDbPolyline
 62
7
  6
CONTINUOUS
 90
20
 70
0
 10
6.4492682424
 20
-25.3055830477
 10
6.4489694175
 20
-25.3216325255
 10
6.4480674274
 20
-25.3375145888
 10
6.4465611036
 20
-25.3532055311
 10
6.4444488553
 20
-25.3686935378
 10
6.4417315401
 20
-25.3839428215
 10
6.4384172037
 20
-25.3988959228
 10
6.4345146692
 20
-25.413523557
 10
6.43002953
 20
-25.4278141678
 10
6.4249715403
 20
-25.4417403823
 10
6.4193581748
 20
-25.4552665545
 10
6.4131938246
 20
-25.4683931403
 10
6.4064655516
 20
-25.4811447284
 10
6.3991682581
 20
-25.4935200112
 10
6.3913199638
 20
-25.5054781888
 10
6.3829408295
 20
-25.5169834451
 10
6.3740405764
 20
-25.5280210256
 10
6.3646334889
 20
-25.5385720215
 10
6.3547531346
 20
-25.5486007357
 10
6.3474170835
 20
-25.5554362234
  0
LWPOLYLINE
  5
436
100
AcDbEntity
  8
0
100
AcDbPolyline
 62
253
  6
CONTINUOUS
 90
3
 70
0
 10
5.9559397622
 20
-26.7608943985
 10
5.9557279137
 20
-26.7710970447
 10
5.9550243341
 20
-26.7811364
  0
LWPOLYLINE
  5
437
100
AcDbEntity
  8
0
100
AcDbPolyline
 62
7
  6
CONTINUOUS
 90
16
 70
0
 10
5.5839986651
 20
-27.0911627906
 10
5.5837533357
 20
-27.1013937211
 10
5.5830182641
 20
-27.1114597798
 10
5.5817950411
 20
-27.1213382282
 10
5.5800863081
 20
-27.1310068019
 10
5.5778959289
 20
-27.1404436019
 10
5.5752289816
 20
-27.149627144
 10
5.5720914638
 20
-27.1585366614
 10
5.5684904168
 20
-27.167152027
 10
5.5644340879
 20
-27.1754536405
 10
5.5599316378
 20
-27.1834227193
 10
5.5549932135
 20
-27.1910412547
 10
5.5496300643
 20
-27.1982919299
 10
5.5438543274
 20
-27.2051583293
 10
5.5376790493
 20
-27.2116249294
 10
5.5324677416
 20
-27.216494073
  0
LWPOLYLINE
  5
438
100
AcDbEntity
  8
0
100
AcDbPolyline
 62
253
  6
CONTINUOUS
 90
17
 70
0
 10
4.4469277468
 20
-28.0514528112
 10
4.4466484078
 20
-28.0617125659
 10
4.4458809218
 20
-28.0718060792
 10
4.4446270273
 20
-28.0817104871
 10
4.4428895647
 20
-28.0914033538
 10
4.4406724697
 20
-28.1008627229
 10
4.4379807645
 20
-28.1100671668
 10
4.4348205464
 20
-28.1189958353
 10
4.4311989741
 20
-28.127628503
 10
4.4271242512
 20
-28.135945615
 10
4.4226056078
 20
-28.1439283312
 10
4.4176532798
 20
-28.1515585688
 10
4.4122784852
 20
-28.1588190438
 10
4.4064933992
 20
-28.1656933095
 10
4.4003111263
 20
-28.1721657941
 10
4.3937456706
 20
-28.1782218361
 10
4.3924569722
 20
-28.1793235445
  0
LWPOLYLINE
  5
439
100
AcDbEntity
  8
0
100
AcDbPolyline
 62
7
  6
CONTINUOUS
 90
5
 70
0
 10
5.9887098522
 20
14.9481391269
 10
5.9879937466
 20
14.929201596
 10
5.9841165695
 20
14.900407728
 10
5.9769041709
 20
14.8721928953
 10
5.9664290055
 20
14.8449406963
  0
LINE
  5
43A
100
AcDbEntity
  8
0
100
AcDbLine
 62
253
  6
CONTINUOUS
 10
5.9887098588
 20
-26.6990252441
 11
5.9884735817
 21
-26.7044585386
  0
LWPOLYLINE
  5
43B
100
AcDbEntity
  8
0
100
AcDbPolyline
 62
253
  6
CONTINUOUS
 90
12
 70
0
 10
5.9887098588
 20
14.948110412
 10
5.9884729748
 20
14.9426701476
 10
5.9876763455
 20
14.936756024
 10
5.9863198697
 20
14.930867424
 10
5.9844065971
 20
14.9250175949
 10
5.9819408357
 20
14.9192197046
 10
5.9789281377
 20
14.9134867984
 10
5.9753752776
 20
14.9078317591
 10
5.9712902396
 20
14.9022672924
 10
5.9666822065
 20
14.8968059076
 10
5.9615615425
 20
14.8914598889
 10
5.9559397622
 20
14.8862412576
  0
LWPOLYLINE
  5
43C
100
AcDbEntity
  8
0
100
AcDbPolyline
 62
253
  6
CONTINUOUS
 90
12
 70
0
 10
5.9887098588
 20
-26.3514937274
 10
5.9884719411
 20
-26.3569458425
 10
5.9876741456
 20
-26.362860168
 10
5.9863165203
 20
-26.3687487352
 10
5.9844021448
 20
-26.3745983839
 10
5.981935302
 20
-26.3803960794
 10
5.9789212722
 20
-26.3861292469
 10
5.9753670118
 20
-26.3917845202
 10
5.9712814844
 20
-26.3973479502
 10
5.966674589
 20
-26.4028066931
 10
5.9615567377
 20
-26.4081489755
 10
5.9559397622
 20
-26.4133628818
  0
LWPOLYLINE
  5
43D
100
AcDbEntity
  8
0
100
AcDbPolyline
 62
253
  6
CONTINUOUS
 90
12
 70
0
 10
5.9887097931
 20
15.2955512837
 10
5.9884735817
 20
15.2902086342
 10
5.987677489
 20
15.2842938107
 10
5.98632142
 20
15.2784045076
 10
5.9844084235
 20
15.2725539703
 10
5.9819428018
 20
15.2667553598
 10
5.978930098
 20
15.2610217153
 10
5.9753770887
 20
15.2553659362
 10
5.9712917726
 20
15.2498007535
 10
5.9666833436
 20
15.2443386875
 10
5.9615621666
 20
15.2389920194
 10
5.9559397622
 20
15.2337727744
  0
LWPOLYLINE
  5
43E
100
AcDbEntity
  8
0
100
AcDbPolyline
 62
253
  6
CONTINUOUS
 90
20
 70
0
 10
3.1186788959
 20
-27.7836434817
 10
3.1177896216
 20
-27.801391951
 10
3.1162074309
 20
-27.818903061
 10
3.1139348874
 20
-27.8361484413
 10
3.1109756878
 20
-27.8531001413
 10
3.107334612
 20
-27.869730708
 10
3.1030175154
 20
-27.8860132302
 10
3.0980313956
 20
-27.9019213258
 10
3.0923843278
 20
-27.917429224
 10
3.0860854077
 20
-27.9325118398
 10
3.0791448413
 20
-27.9471447368
 10
3.0715738719
 20
-27.9613042089
 10
3.0633847086
 20
-27.9749673583
 10
3.0545905982
 20
-27.9881120643
 10
3.0452058073
 20
-28.0007170168
 10
3.0352455426
 20
-28.0127617927
 10
3.0247259244
 20
-28.0242268901
 10
3.0136640092
 20
-28.0350937244
 10
3.0020777655
 20
-28.0453446548
 10
2.9899859698
 20
-28.0549630699
  0
LINE
  5
43F
100
AcDbEntity
  8
0
100
AcDbLine
 62
7
  6
CONTINUOUS
 10
5.9872266365
 20
-26.7262166083
 11
5.9887098364
 21
-26.6989723417
  0
LWPOLYLINE
  5
440
100
AcDbEntity
  8
RACCORDO
100
AcDbPolyline
 62
7
  6
CONTINUOUS
 90
9
 70
0
 10
24.633710649
 20
14.505856718
 10
24.6943818977
 20
14.5666595617
 10
24.7622027835
 20
14.6466211692
 10
24.8233835808
 20
14.7331967785
 10
24.8773577771
 20
14.8258733625
 10
24.9235847424
 20
14.9240301962
 10
24.9617118286
 20
15.0271187197
 10
24.9914638702
 20
15.1345662004
 10
25.0125784321
 20
15.2457312646
  0
LINE
  5
441
100
AcDbEntity
  8
RACCORDO
100
AcDbLine
 62
253
  6
CONTINUOUS
 10
24.2323590741
 20
14.6569442351
 11
24.9656574216
 21
15.3412578647
  0
LINE
  5
442
100
AcDbEntity
  8
RACCORDO
100
AcDbLine
 62
7
  6
CONTINUOUS
 10
24.2323590741
 20
14.1313130003
 11
24.6345230097
 21
14.5066121721
  0
LWPOLYLINE
  5
443
100
AcDbEntity
  8
RACCORDO
100
AcDbPolyline
 62
253
  6
CONTINUOUS
 90
13
 70
0
 10
-35.075599045
 20
14.3186037542
 10
-35.0176226787
 20
14.3038774621
 10
-34.9564472784
 20
14.2923937572
 10
-34.8930966628
 20
14.2843448287
 10
-34.828631055
 20
14.2798653819
 10
-34.7641293379
 20
14.2790303841
 10
-34.7006709987
 20
14.2818538101
 10
-34.6393180629
 20
14.2882884082
 10
-34.5810973207
 20
14.2982264904
 10
-34.5269831424
 20
14.3115017345
 10
-34.4778811716
 20
14.3278919691
 10
-34.4346131689
 20
14.347122891
 10
-34.3979032586
 20
14.3688726559
  0
LINE
  5
444
100
AcDbEntity
  8
RACCORDO
100
AcDbLine
 62
253
  6
CONTINUOUS
 10
-33.3883483098
 20
14.2653533058
 11
-0.6184608953
 21
4.8055016458
  0
LINE
  5
445
100
AcDbEntity
  8
RACCORDO
100
AcDbLine
 62
7
  6
CONTINUOUS
 10
-33.5942386027
 20
14.9990399991
 11
-0.0452781835
 21
5.3142893346
  0
LINE
  5
446
100
AcDbEntity
  8
RACCORDO
100
AcDbLine
 62
253
  6
CONTINUOUS
 10
-33.7042738565
 20
15.3079617294
 11
-0.1553134372
 21
5.6232110648
  0
LWPOLYLINE
  5
447
100
AcDbEntity
  8
RACCORDO
100
AcDbPolyline
 62
253
  6
CONTINUOUS
 90
25
 70
0
 10
-0.1553134372
 20
5.6232110648
 10
-0.1012076444
 20
5.6067988213
 10
-0.0458139657
 20
5.5869656962
 10
0.0108678284
 20
5.5637118477
 10
0.0688157686
 20
5.5373934846
 10
0.1280527709
 20
5.5076550512
 10
0.1886469289
 20
5.4734294292
 10
0.2508840431
 20
5.4346824842
 10
0.3144813133
 20
5.3914504244
 10
0.3786552737
 20
5.3427725737
 10
0.4435644141
 20
5.2886457228
 10
0.5090570218
 20
5.2290777821
 10
0.5738867827
 20
5.1631264624
 10
0.6383198204
 20
5.0906790709
 10
0.7021031236
 20
5.0118574474
 10
0.7632154109
 20
4.9260737201
 10
0.8219840175
 20
4.8330300859
 10
0.8781038589
 20
4.7330399999
 10
0.9286091014
 20
4.6264353769
 10
0.9737577345
 20
4.5120908579
 10
1.0133248011
 20
4.3911553131
 10
1.0436172258
 20
4.2673700921
 10
1.063410116
 20
4.1419868281
 10
1.0739531508
 20
4.0137719637
 10
1.0752603042
 20
3.8827357628
  0
LWPOLYLINE
  5
448
100
AcDbEntity
  8
RACCORDO
100
AcDbPolyline
 62
7
  6
CONTINUOUS
 90
20
 70
0
 10
-0.0451949013
 20
5.3142650362
 10
0.0039266355
 20
5.2985287494
 10
0.0776976632
 20
5.2690772069
 10
0.1516726313
 20
5.2324355596
 10
0.2249786344
 20
5.1888168758
 10
0.2967806446
 20
5.1385448747
 10
0.3662537413
 20
5.0820824218
 10
0.4326875058
 20
5.0199290689
 10
0.4955375503
 20
4.9525428112
 10
0.5541534176
 20
4.8805779871
 10
0.6079722771
 20
4.8047428599
 10
0.6566399182
 20
4.7255657703
 10
0.6996917246
 20
4.6438238275
 10
0.7367529638
 20
4.5603704457
 10
0.7676066232
 20
4.4758558761
 10
0.7920051845
 20
4.3911603881
 10
0.8098202609
 20
4.3071845762
 10
0.8210300291
 20
4.224665987
 10
0.8256640761
 20
4.1444786258
 10
0.8248580882
 20
4.0846593181
  0
LWPOLYLINE
  5
449
100
AcDbEntity
  8
RACCORDO
100
AcDbPolyline
 62
253
  6
CONTINUOUS
 90
22
 70
0
 10
-0.6184608953
 20
4.8055016458
 10
-0.5541689317
 20
4.7840805015
 10
-0.4903341523
 20
4.7578588691
 10
-0.4273123944
 20
4.7269835785
 10
-0.3654608952
 20
4.6916263674
 10
-0.3051209129
 20
4.6519843888
 10
-0.2466164752
 20
4.6082773115
 10
-0.1902740419
 20
4.5607372951
 10
-0.1364171452
 20
4.5096326303
 10
-0.0853478595
 20
4.4552688749
 10
-0.0373660084
 20
4.3979542833
 10
0.0072663575
 20
4.3379976119
 10
0.0483272985
 20
4.2757288504
 10
0.0855818024
 20
4.2114765949
 10
0.1188064354
 20
4.1456038728
 10
0.1478265421
 20
4.078507268
 10
0.1724677918
 20
4.0105604045
 10
0.1925865768
 20
3.9421299018
 10
0.2080911769
 20
3.873609202
 10
0.2188933714
 20
3.8053796595
 10
0.2249104635
 20
3.7378085145
 10
0.2260966455
 20
3.6712655934
  0
LWPOLYLINE
  5
44A
100
AcDbEntity
  8
0
100
AcDbPolyline
 62
253
  6
CONTINUOUS
 90
13
 70
0
 10
-13.6376191173
 20
21.0777477456
 10
-13.628808858
 20
21.0698545124
 10
-13.6202660148
 20
21.0616232792
 10
-13.6120099393
 20
21.0530726916
 10
-13.6040593333
 20
21.0442221187
 10
-13.5964322067
 20
21.035091609
 10
-13.5891458366
 20
21.0257018451
 10
-13.5822167284
 20
21.016074097
 10
-13.575660578
 20
21.0062301736
 10
-13.5694922366
 20
20.9961923737
 10
-13.5637256768
 20
20.9859834351
 10
-13.5583739611
 20
20.9756264833
 10
-13.5534492125
 20
20.9651449792
  0
LWPOLYLINE
  5
44B
100
AcDbEntity
  8
0
100
AcDbPolyline
 62
7
  6
CONTINUOUS
 90
6
 70
0
 10
-9.1310750058
 20
19.7968908844
 10
-9.1526183535
 20
19.8216784193
 10
-9.1773565363
 20
19.8435297849
 10
-9.2048631256
 20
19.8619927256
 10
-9.234666872
 20
19.8766968086
 10
-9.2607080094
 20
19.8858090603
  0
LWPOLYLINE
  5
44C
100
AcDbEntity
  8
0
100
AcDbPolyline
 62
7
  6
CONTINUOUS
 90
28
 70
0
 10
9.5967469327
 20
-18.5644893659
 10
9.5967125665
 20
-18.5615858315
 10
9.5960837386
 20
-18.5516236193
 10
9.5946659663
 20
-18.5416975204
 10
9.5924554993
 20
-18.5318077067
 10
9.589456088
 20
-18.5219540062
 10
9.5856819673
 20
-18.5121831843
 10
9.5811294546
 20
-18.5024956348
 10
9.5758022326
 20
-18.4928909638
 10
9.5697255839
 20
-18.4834147545
 10
9.5628959462
 20
-18.4740676175
 10
9.5553168817
 20
-18.4648489422
 10
9.5470243603
 20
-18.4558024799
 10
9.5380149907
 20
-18.4469290492
 10
9.5282921642
 20
-18.4382278315
 10
9.5179020248
 20
-18.4297401222
 10
9.5068414004
 20
-18.4214669363
 10
9.495113463
 20
-18.4134072589
 10
9.4827738729
 20
-18.4055993407
 10
9.4698197225
 20
-18.3980443784
 10
9.4562539193
 20
-18.3907411754
 10
9.4421408458
 20
-18.3837243921
 10
9.4274779005
 20
-18.3769953902
 10
9.412267685
 20
-18.370552808
 10
9.396582386
 20
-18.3644272218
 10
9.3804460657
 20
-18.3586288236
 10
9.363834662
 20
-18.3531474212
 10
9.3467481747
 20
-18.3479830148
  0
LINE
  5
44D
100
AcDbEntity
  8
0
100
AcDbLine
 62
7
  6
CONTINUOUS
 10
9.1158262643
 20
-18.2813216013
 11
9.1158262643
 21
-17.2420911167
  0
LINE
  5
44E
100
AcDbEntity
  8
0
100
AcDbLine
 62
7
  6
CONTINUOUS
 10
9.1158262643
 20
16.8793097924
 11
9.1158262643
 21
17.1369150699
  0
LINE
  5
44F
100
AcDbEntity
  8
0
100
AcDbLine
 62
253
  6
CONTINUOUS
 10
9.5340580283
 20
-19.277559944
 11
9.5340580283
 21
-18.6856917708
  0
LINE
  5
450
100
AcDbEntity
  8
0
100
AcDbLine
 62
253
  6
CONTINUOUS
 10
9.5340580283
 20
17.5141701074
 11
9.5340580283
 21
18.1060382805
  0
LINE
  5
451
100
AcDbEntity
  8
0
100
AcDbLine
 62
7
  6
CONTINUOUS
 10
9.5967481747
 20
-19.2143042909
 11
9.5967481747
 21
-18.5644893658
  0
LINE
  5
452
100
AcDbEntity
  8
0
100
AcDbLine
 62
7
  6
CONTINUOUS
 10
9.5967481747
 20
17.6353725124
 11
9.5967481747
 21
18.2272406856
  0
LWPOLYLINE
  5
453
100
AcDbEntity
  8
0
100
AcDbPolyline
 62
253
  6
CONTINUOUS
 90
12
 70
0
 10
5.9550243341
 20
-26.7811364
 10
5.9538306156
 20
-26.790989716
 10
5.95214946
 20
-26.8006346712
 10
5.9499846753
 20
-26.8100494048
 10
5.9473411697
 20
-26.8192125677
 10
5.9442249353
 20
-26.8281033936
 10
5.9406430325
 20
-26.8367017418
 10
5.9366035794
 20
-26.8449881274
 10
5.9321157291
 20
-26.8529437766
 10
5.9271896519
 20
-26.8605506624
 10
5.921836515
 20
-26.867791544
 10
5.9160684506
 20
-26.8746500156
  0
LWPOLYLINE
  5
454
100
AcDbEntity
  8
0
100
AcDbPolyline
 62
253
  6
CONTINUOUS
 90
11
 70
0
 10
5.9884735817
 20
-26.7044585386
 10
5.987677489
 20
-26.7103733622
 10
5.98632142
 20
-26.7162626653
 10
5.9844084235
 20
-26.7221132025
 10
5.9819428018
 20
-26.7279118131
 10
5.978930098
 20
-26.7336454575
 10
5.9753770887
 20
-26.7393012367
 10
5.9712917726
 20
-26.7448664193
 10
5.9666833436
 20
-26.7503284854
 10
5.9615621666
 20
-26.7556751535
 10
5.9559397622
 20
-26.7608943985
  0
LWPOLYLINE
  5
455
100
AcDbEntity
  8
0
100
AcDbPolyline
 62
253
  6
CONTINUOUS
 90
13
 70
0
 10
5.9559397622
 20
-26.4133628818
 10
5.9586329929
 20
-26.401808687
 10
5.9608298699
 20
-26.3901409343
 10
5.9625254353
 20
-26.3783859572
 10
5.9637158621
 20
-26.3665702859
 10
5.9643984637
 20
-26.3547205877
 10
5.9645716994
 20
-26.3428636067
 10
5.9642351783
 20
-26.3310261033
 10
5.9633896598
 20
-26.3192347942
 10
5.9620370523
 20
-26.3075162915
 10
5.9601804085
 20
-26.2958970434
 10
5.9578239188
 20
-26.2844032736
 10
5.9549729016
 20
-26.2730609231
  0
LWPOLYLINE
  5
456
100
AcDbEntity
  8
RACCORDO
100
AcDbPolyline
 62
253
  6
CONTINUOUS
 90
3
 70
0
 10
24.722222128
 20
14.6001816575
 10
24.6547241861
 20
14.5260254291
 10
24.6345238161
 20
14.5066129246
  0
LWPOLYLINE
  5
457
100
AcDbEntity
  8
RACCORDO
100
AcDbPolyline
 62
253
  6
CONTINUOUS
 90
6
 70
0
 10
23.9627914444
 20
5.9259222314
 10
24.033691419
 20
5.9177797372
 10
24.0900239943
 20
5.913588754
 10
24.1313686273
 20
5.9133805692
 10
24.1574165815
 20
5.9171567104
 10
24.1680271154
 20
5.9250879696
  0
LINE
  5
458
100
AcDbEntity
  8
0
100
AcDbLine
 62
253
  6
CONTINUOUS
 10
-35.519253046
 20
19.8606862691
 11
2.2016427366
 21
8.971601602
  0
LINE
  5
459
100
AcDbEntity
  8
0
100
AcDbLine
 62
253
  6
CONTINUOUS
 10
-35.0580895904
 20
21.0039363571
 11
2.6769625696
 21
10.1107650958
  0
LWPOLYLINE
  5
45A
100
AcDbEntity
  8
0
100
AcDbPolyline
 62
7
  6
CONTINUOUS
 90
6
 70
0
 10
-32.4494999305
 20
23.9798379578
 10
-32.4799150028
 20
23.9907932745
 10
-32.5095017569
 20
24.0060845191
 10
-32.5369742244
 20
24.0253178188
 10
-32.5616665614
 20
24.0481002306
 10
-32.5831359387
 20
24.0740633928
  0
LWPOLYLINE
  5
45B
100
AcDbEntity
  8
0
100
AcDbPolyline
 62
253
  6
CONTINUOUS
 90
3
 70
0
 10
-32.4562596956
 20
23.9823622992
 10
-32.4518637784
 20
23.9805877704
 10
-32.4495141079
 20
23.9798420481
  0
LWPOLYLINE
  5
45C
100
AcDbEntity
  8
0
100
AcDbPolyline
 62
253
  6
CONTINUOUS
 90
3
 70
0
 10
-17.3874176697
 20
19.6323622992
 10
-17.3830217526
 20
19.6305877704
 10
-17.3806720821
 20
19.6298420481
  0
LWPOLYLINE
  5
45D
100
AcDbEntity
  8
0
100
AcDbPolyline
 62
253
  6
CONTINUOUS
 90
7
 70
0
 10
-28.7638208457
 20
25.4670857319
 10
-28.753840562
 20
25.4615668182
 10
-28.7440019305
 20
25.4556161519
 10
-28.734325742
 20
25.4492464235
 10
-28.7248337427
 20
25.4424719339
 10
-28.7155473261
 20
25.4353079113
 10
-28.7064876729
 20
25.4277706539
  0
LWPOLYLINE
  5
45E
100
AcDbEntity
  8
0
100
AcDbPolyline
 62
253
  6
CONTINUOUS
 90
7
 70
0
 10
-13.6949422057
 20
21.117066412
 10
-13.6849645194
 20
21.111547129
 10
-13.6751270442
 20
21.105595403
 10
-13.6654520642
 20
21.0992247159
 10
-13.6559614952
 20
21.0924494988
 10
-13.6466768357
 20
21.085285099
 10
-13.6376191173
 20
21.0777477456
  0
LWPOLYLINE
  5
45F
100
AcDbEntity
  8
0
100
AcDbPolyline
 62
253
  6
CONTINUOUS
 90
13
 70
0
 10
-9.220889558
 20
19.8027477456
 10
-9.2120792987
 20
19.7948545124
 10
-9.2035364555
 20
19.7866232792
 10
-9.19528038
 20
19.7780726916
 10
-9.187329774
 20
19.7692221187
 10
-9.1797026474
 20
19.760091609
 10
-9.1724162773
 20
19.7507018451
 10
-9.1654871691
 20
19.741074097
 10
-9.1589310187
 20
19.7312301736
 10
-9.1527626773
 20
19.7211923737
 10
-9.1469961175
 20
19.7109834351
 10
-9.1416444018
 20
19.7006264833
 10
-9.1367196532
 20
19.6901449792
  0
LWPOLYLINE
  5
460
100
AcDbEntity
  8
0
100
AcDbPolyline
 62
7
  6
CONTINUOUS
 90
6
 70
0
 10
1.9724444418
 20
14.0986908743
 10
1.9545117241
 20
14.1275700992
 10
1.9405490438
 20
14.1589253
 10
1.9309645302
 20
14.1921217964
 10
1.9260283356
 20
14.2265948146
 10
1.9253719337
 20
14.2444444682
  0
LWPOLYLINE
  5
461
100
AcDbEntity
  8
0
100
AcDbPolyline
 62
253
  6
CONTINUOUS
 90
4
 70
0
 10
5.9559397622
 20
14.8862412576
 10
5.9586330389
 20
14.8799850601
 10
5.9608299433
 20
14.8738826233
 10
5.9625255169
 20
14.8679477206
  0
LWPOLYLINE
  5
462
100
AcDbEntity
  8
0
100
AcDbPolyline
 62
253
  6
CONTINUOUS
 90
10
 70
0
 10
5.9321157291
 20
15.3401598473
 10
5.9366035794
 20
15.3295761677
 10
5.9406430325
 20
15.3189155915
 10
5.9442249353
 20
15.3082022724
 10
5.9473411697
 20
15.2974604885
 10
5.9499846753
 20
15.2867145743
 10
5.95214946
 20
15.2759888837
 10
5.9538306156
 20
15.2653077382
 10
5.9550243341
 20
15.2546953457
 10
5.9557279137
 20
15.2441757459
  0
LWPOLYLINE
  5
463
100
AcDbEntity
  8
0
100
AcDbPolyline
 62
7
  6
CONTINUOUS
 90
5
 70
0
 10
5.9615747901
 20
15.4089169147
 10
5.975132972
 20
15.3769074985
 10
5.9841314709
 20
15.3432678402
 10
5.9883646949
 20
15.3087744382
 10
5.9887097931
 20
15.2955512837
  0
LWPOLYLINE
  5
464
100
AcDbEntity
  8
0
100
AcDbPolyline
 62
253
  6
CONTINUOUS
 90
9
 70
0
 10
5.9625255169
 20
14.8679477206
 10
5.9637159322
 20
14.8621937502
 10
5.9643985035
 20
14.8566336958
 10
5.9645716901
 20
14.8512800977
 10
5.9642350979
 20
14.8461450338
 10
5.9633894833
 20
14.8412401023
 10
5.9620367561
 20
14.8365763851
 10
5.9601799719
 20
14.8321644116
 10
5.9596417256
 20
14.8311099487
  0
LINE
  5
465
100
AcDbEntity
  8
RACCORDO
100
AcDbLine
 62
253
  6
CONTINUOUS
 10
24.1138652704
 20
6.0951399576
 11
24.0456345199
 21
6.0089003996
  0
LINE
  5
466
100
AcDbEntity
  8
RACCORDO
100
AcDbLine
 62
253
  6
CONTINUOUS
 10
24.0456345199
 20
6.0089003996
 11
23.9627914444
 21
5.9259222314
  0
LWPOLYLINE
  5
467
100
AcDbEntity
  8
0
100
AcDbPolyline
 62
253
  6
CONTINUOUS
 90
40
 70
0
 10
2.3702879634
 20
-17.9531205848
 10
2.3596957973
 20
-17.961877432
 10
2.3484406253
 20
-17.9704161548
 10
2.3365403002
 20
-17.9787232093
 10
2.3240136979
 20
-17.9867854192
 10
2.3108806877
 20
-17.9945899963
 10
2.2971621008
 20
-18.0021245613
 10
2.2828796972
 20
-18.0093771631
 10
2.2680561313
 20
-18.0163362978
 10
2.2527149158
 20
-18.022990927
 10
2.2368803844
 20
-18.0293304954
 10
2.2205776534
 20
-18.0353449473
 10
2.2038325817
 20
-18.0410247428
 10
2.1866717299
 20
-18.0463608728
 10
2.169122318
 20
-18.0513448732
 10
2.1512121823
 20
-18.0559688385
 10
2.1329697315
 20
-18.0602254345
 10
2.1144239011
 20
-18.0641079093
 10
2.0956041079
 20
-18.0676101048
 10
2.0765402034
 20
-18.0707264658
 10
2.0572624263
 20
-18.0734520492
 10
2.0378013542
 20
-18.0757825319
 10
2.0181878559
 20
-18.0777142172
 10
1.9984530416
 20
-18.0792440412
 10
1.9786282141
 20
-18.0803695774
 10
1.958744819
 20
-18.0810890404
 10
1.9388343948
 20
-18.0814012891
 10
1.9189285228
 20
-18.0813058281
 10
1.8990587771
 20
-18.0808028089
 10
1.8792566744
 20
-18.0798930294
 10
1.8595536244
 20
-18.0785779326
 10
1.8399808794
 20
-18.0768596044
 10
1.8205694851
 20
-18.0747407706
 10
1.8013502312
 20
-18.0722247918
 10
1.7823536029
 20
-18.0693156589
 10
1.763609732
 20
-18.0660179862
 10
1.7451483495
 20
-18.0623370044
 10
1.7269987383
 20
-18.0582785523
 10
1.7091896867
 20
-18.053849067
 10
1.691749443
 20
-18.0490555747
  0
LWPOLYLINE
  5
468
100
AcDbEntity
  8
RACCORDO
100
AcDbPolyline
 62
253
  6
CONTINUOUS
 90
16
 70
0
 10
0.0879324098
 20
-17.5829364228
 10
0.0590211094
 20
-17.6052448773
 10
0.0258275795
 20
-17.6259347367
 10
-0.0112925329
 20
-17.6447843225
 10
-0.0519415098
 20
-17.6615916736
 10
-0.0956838239
 20
-17.6761767102
 10
-0.1420508047
 20
-17.688383163
 10
-0.1905456601
 20
-17.698080248
 10
-0.2406487992
 20
-17.705164067
 10
-0.2918233996
 20
-17.7095587217
 10
-0.3435211584
 20
-17.7112171261
 10
-0.395188168
 20
-17.7101215115
 10
-0.4462708498
 20
-17.7062836167
 10
-0.4962218861
 20
-17.6997445622
 10
-0.544506084
 20
-17.6905744098
 10
-0.5906061096
 20
-17.6788714117
  0
LWPOLYLINE
  5
469
100
AcDbEntity
  8
0
100
AcDbPolyline
 62
7
  6
CONTINUOUS
 90
37
 70
0
 10
4.6400605952
 20
13.3435547155
 10
4.6508934273
 20
13.3423597732
 10
4.6612103124
 20
13.3417151391
 10
4.6716027962
 20
13.3415203893
 10
4.6820356861
 20
13.3417760914
 10
4.6925005218
 20
13.3424776757
 10
4.7029800226
 20
13.3436013921
 10
4.7134539314
 20
13.3451449194
 10
4.7239028156
 20
13.3471048586
 10
4.7343116473
 20
13.349455683
 10
4.7446620587
 20
13.3521939252
 10
4.7549364957
 20
13.3553155164
 10
4.7651221025
 20
13.3587940016
 10
4.7752024542
 20
13.3626250369
 10
4.7851618401
 20
13.3668040188
 10
4.7949893233
 20
13.3713041772
 10
4.8046703916
 20
13.3761205243
 10
4.8141911156
 20
13.3812480243
 10
4.8235421604
 20
13.3866599702
 10
4.8327108445
 20
13.3923509084
 10
4.8416849535
 20
13.3983154564
 10
4.8504564718
 20
13.4045271727
 10
4.8590144502
 20
13.410980266
 10
4.8673483266
 20
13.4176690829
 10
4.8754511976
 20
13.4245675463
 10
4.8833137532
 20
13.4316696147
 10
4.8909270289
 20
13.4389694365
 10
4.8982851184
 20
13.4464413616
 10
4.9053802707
 20
13.4540791579
 10
4.9122050747
 20
13.4618768488
 10
4.9187545878
 20
13.4698092878
 10
4.9250225522
 20
13.4778700967
 10
4.9310030725
 20
13.4860532482
 10
4.9366921985
 20
13.4943342263
 10
4.9420854541
 20
13.5027007258
 10
4.9471780393
 20
13.5111525771
 10
4.9519661352
 20
13.5196835068
  0
LINE
  5
46A
100
AcDbEntity
  8
0
100
AcDbLine
 62
7
  6
CONTINUOUS
 10
6.9428442642
 20
12.3011909699
 11
6.4504019534
 21
12.365996551
  0
LINE
  5
46B
100
AcDbEntity
  8
0
100
AcDbLine
 62
7
  6
CONTINUOUS
 10
4.1975796741
 20
13.4035184876
 11
4.6400606218
 21
13.3435543868
  0
LINE
  5
46C
100
AcDbEntity
  8
0
100
AcDbLine
 62
253
  6
CONTINUOUS
 10
4.4469277468
 20
13.5881252623
 11
4.9519661352
 21
13.5196835068
  0
LINE
  5
46D
100
AcDbEntity
  8
0
100
AcDbLine
 62
7
  6
CONTINUOUS
 10
6.9643847721
 20
12.2949727608
 11
6.4750240689
 21
12.362756272
  0
LWPOLYLINE
  5
46E
100
AcDbEntity
  8
0
100
AcDbPolyline
 62
7
  6
CONTINUOUS
 90
10
 70
0
 10
4.1975796741
 20
13.4035184876
 10
4.1934941309
 20
13.4041065384
 10
4.1894135432
 20
13.4047628605
 10
4.1853395549
 20
13.4054874477
 10
4.181272881
 20
13.4062804308
 10
4.1772162099
 20
13.4071415169
 10
4.1731741058
 20
13.4080698406
 10
4.1691491755
 20
13.4090647783
 10
4.165142168
 20
13.4101260896
 10
4.1618141643
 20
13.4110619314
  0
LWPOLYLINE
  5
46F
100
AcDbEntity
  8
0
100
AcDbPolyline
 62
7
  6
CONTINUOUS
 90
3
 70
0
 10
-10.8714213192
 20
17.7535400951
 10
-10.8939519368
 20
17.7576673171
 10
-10.906844966
 20
17.7610095333
  0
LWPOLYLINE
  5
470
100
AcDbEntity
  8
0
100
AcDbPolyline
 62
253
  6
CONTINUOUS
 90
19
 70
0
 10
-2.3175104719
 20
16.8001415861
 10
-2.3257524424
 20
16.8023253627
 10
-2.3339744311
 20
16.8041128621
 10
-2.3421578068
 20
16.805500032
 10
-2.3502840312
 20
16.8064837278
 10
-2.3583346846
 20
16.8070617174
 10
-2.3662915078
 20
16.8072326894
 10
-2.3741364663
 20
16.8069962571
 10
-2.3818517882
 20
16.8063529571
 10
-2.3894199888
 20
16.8053042479
 10
-2.3968239203
 20
16.8038525066
 10
-2.4040468043
 20
16.8020010237
 10
-2.411072268
 20
16.7997539976
 10
-2.4178843912
 20
16.7971165229
 10
-2.4244677405
 20
16.7940945772
 10
-2.430807399
 20
16.7906950103
 10
-2.4368890067
 20
16.7869255245
 10
-2.4426987796
 20
16.7827946655
 10
-2.4486054613
 20
16.7779796768
  0
LWPOLYLINE
  5
471
100
AcDbEntity
  8
0
100
AcDbPolyline
 62
253
  6
CONTINUOUS
 90
34
 70
0
 10
-4.4953896678
 20
17.1408407265
 10
-4.4870337391
 20
17.1385594042
 10
-4.4784701332
 20
17.136479488
 10
-4.4697182545
 20
17.134605692
 10
-4.4607979277
 20
17.1329422622
 10
-4.4517293714
 20
17.1314929701
 10
-4.4425331529
 20
17.1302611031
 10
-4.4332301164
 20
17.1292494528
 10
-4.4238413376
 20
17.1284603107
 10
-4.414388094
 20
17.1278954645
 10
-4.4048918048
 20
17.1275561939
 10
-4.3953739906
 20
17.1274432672
 10
-4.3858562271
 20
17.1275569396
 10
-4.3763600839
 20
17.1278969524
 10
-4.3669070763
 20
17.1284625339
 10
-4.3575186252
 20
17.1292524015
 10
-4.3482159973
 20
17.1302647651
 10
-4.3390202784
 20
17.1314973291
 10
-4.3299523258
 20
17.1329472957
 10
-4.3210327114
 20
17.1346113717
 10
-4.3122816173
 20
17.1364857879
 10
-4.3037188148
 20
17.1385663088
 10
-4.2953636325
 20
17.1408482436
 10
-4.2872350836
 20
17.1433264049
 10
-4.2793517501
 20
17.1459951213
 10
-4.2717315789
 20
17.1488482972
 10
-4.2643917154
 20
17.1518794917
 10
-4.257348646
 20
17.1550818886
 10
-4.2506172788
 20
17.1584487827
 10
-4.2442140191
 20
17.1619720457
 10
-4.2381560894
 20
17.1656419687
 10
-4.2324575725
 20
17.1694494476
 10
-4.2271298983
 20
17.1733862369
 10
-4.2221845871
 20
17.1774432669
  0
LWPOLYLINE
  5
472
100
AcDbEntity
  8
0
100
AcDbPolyline
 62
253
  6
CONTINUOUS
 90
34
 70
0
 10
-23.980961253
 20
22.765992438
 10
-23.9726065573
 20
22.7637114335
 10
-23.9640442556
 20
22.7616317788
 10
-23.9552937441
 20
22.7597581851
 10
-23.9463748456
 20
22.7580948965
 10
-23.9373077644
 20
22.756645681
 10
-23.9281130401
 20
22.7554138215
 10
-23.9188115019
 20
22.7544021087
 10
-23.9094242206
 20
22.7536128342
 10
-23.8999724616
 20
22.7530477861
 10
-23.8904776362
 20
22.7527082445
 10
-23.880961253
 20
22.7525949784
 10
-23.8714448698
 20
22.7527082445
 10
-23.8619500443
 20
22.7530477861
 10
-23.8524982853
 20
22.7536128342
 10
-23.8431110041
 20
22.7544021087
 10
-23.8338094659
 20
22.7554138215
 10
-23.8246147416
 20
22.756645681
 10
-23.8155476603
 20
22.7580948965
 10
-23.8066287619
 20
22.7597581851
 10
-23.7978782504
 20
22.7616317788
 10
-23.7893159486
 20
22.7637114335
 10
-23.780961253
 20
22.765992438
 10
-23.7728330895
 20
22.7684696251
 10
-23.7649498711
 20
22.7711373832
 10
-23.7573294557
 20
22.7739896689
 10
-23.7499891062
 20
22.7770200209
 10
-23.7429454507
 20
22.7802215746
 10
-23.7362144454
 20
22.7835870772
 10
-23.7298113381
 20
22.787108905
 10
-23.723750634
 20
22.7907790798
 10
-23.7180460626
 20
22.7945892874
 10
-23.7127105464
 20
22.7985308966
 10
-23.7077561722
 20
22.8025949784
  0
LWPOLYLINE
  5
473
100
AcDbEntity
  8
0
100
AcDbPolyline
 62
253
  6
CONTINUOUS
 90
34
 70
0
 10
4.1061522762
 20
13.5430008171
 10
4.1165572281
 20
13.5401594664
 10
4.1272198926
 20
13.537567956
 10
4.1381162904
 20
13.5352321138
 10
4.1492219035
 20
13.5331571953
 10
4.1605117692
 20
13.5313478639
 10
4.1719605383
 20
13.5298081835
 10
4.1835424921
 20
13.528541617
 10
4.1952315584
 20
13.5275510196
 10
4.2070014086
 20
13.5268386241
 10
4.2188255591
 20
13.526406033
 10
4.2306774318
 20
13.526254218
 10
4.2425303719
 20
13.5263835207
 10
4.2543577226
 20
13.5267936502
 10
4.2661328851
 20
13.5274836841
 10
4.2778293782
 20
13.5284520706
 10
4.2894209056
 20
13.5296966328
 10
4.3008813898
 20
13.5312145712
 10
4.3121850326
 20
13.5330024678
 10
4.3233063979
 20
13.5350562969
 10
4.3342204923
 20
13.5373714403
 10
4.3449027955
 20
13.5399426955
 10
4.3553293604
 20
13.542764302
 10
4.3654766578
 20
13.545829896
 10
4.3753216724
 20
13.5491325144
 10
4.3848421572
 20
13.552664667
 10
4.3940168582
 20
13.5564184402
 10
4.40282534
 20
13.5603854623
 10
4.4112484626
 20
13.5645571592
 10
4.419266553
 20
13.5689238357
 10
4.4268599326
 20
13.573474636
 10
4.434011305
 20
13.5781988516
 10
4.4407054839
 20
13.5830860875
 10
4.4469277468
 20
13.5881252623
  0
LWPOLYLINE
  5
474
100
AcDbEntity
  8
0
100
AcDbPolyline
 62
253
  6
CONTINUOUS
 90
34
 70
0
 10
-10.9626897496
 20
17.8930008171
 10
-10.9522855528
 20
17.8901596611
 10
-10.9416236786
 20
17.8875683092
 10
-10.9307281011
 20
17.8852325881
 10
-10.9196233199
 20
17.8831577499
 10
-10.9083343048
 20
17.8813484601
 10
-10.8968864401
 20
17.8798087869
 10
-10.8853054671
 20
17.8785421925
 10
-10.8736174266
 20
17.8775515249
 10
-10.8618486
 20
17.8768390116
 10
-10.8500254504
 20
17.8764062548
 10
-10.838174563
 20
17.8762542276
 10
-10.8263225855
 20
17.8763832718
 10
-10.8144961679
 20
17.8767930973
 10
-10.8027219029
 20
17.8774827825
 10
-10.7910262657
 20
17.8784507767
 10
-10.7794355548
 20
17.8796949032
 10
-10.767975833
 20
17.8812123645
 10
-10.7566728681
 20
17.8829997485
 10
-10.7455520759
 20
17.8850530361
 10
-10.7346384622
 20
17.8873676104
 10
-10.7239565671
 20
17.8899382668
 10
-10.7135304096
 20
17.892759225
 10
-10.7033834339
 20
17.895824142
 10
-10.693538456
 20
17.8991261259
 10
-10.6840176133
 20
17.9026577521
 10
-10.674842314
 20
17.9064110794
 10
-10.6660331894
 20
17.9103776681
 10
-10.6576100477
 20
17.9145485992
 10
-10.6495918287
 20
17.9189144939
 10
-10.6419965622
 20
17.9234655352
 10
-10.6348413267
 20
17.9281914897
 10
-10.6281422111
 20
17.9330817308
 10
-10.6219142791
 20
17.9381252623
  0
LWPOLYLINE
  5
475
100
AcDbEntity
  8
0
100
AcDbPolyline
 62
253
  6
CONTINUOUS
 90
34
 70
0
 10
-15.3782849535
 20
19.1676733569
 10
-15.3678760832
 20
19.1648309957
 10
-15.3572093175
 20
19.162238663
 10
-15.3463086628
 20
19.1599021927
 10
-15.3351986647
 20
19.1578268457
 10
-15.3239043145
 20
19.1560172897
 10
-15.3124509904
 20
19.1544775923
 10
-15.30086444
 20
19.153211219
 10
-15.2891707656
 20
19.1522210267
 10
-15.2773963258
 20
19.1515092488
 10
-15.2655676342
 20
19.1510774877
 10
-15.253711299
 20
19.1509267141
 10
-15.2418540046
 20
19.1510572673
 10
-15.2300224376
 20
19.1514688534
 10
-15.2182432261
 20
19.1521605461
 10
-15.2065428801
 20
19.1531307887
 10
-15.1949477241
 20
19.1543773986
 10
-15.183483863
 20
19.1558975694
 10
-15.1721771221
 20
19.1576878757
 10
-15.1610529632
 20
19.1597442833
 10
-15.1501364046
 20
19.1620621647
 10
-15.1394519905
 20
19.1646363075
 10
-15.1290236903
 20
19.1674609405
 10
-15.1188750548
 20
19.1705296881
 10
-15.1090291196
 20
19.1738355749
 10
-15.0995081502
 20
19.1773710977
 10
-15.0903334176
 20
19.1811283296
 10
-15.0815253721
 20
19.1850988848
 10
-15.0731031666
 20
19.1892741757
 10
-15.0650864872
 20
19.193644491
 10
-15.0574950247
 20
19.1981989572
 10
-15.0503460837
 20
19.2029268489
 10
-15.0436548552
 20
19.2078177555
 10
-15.0374360658
 20
19.2128605793
  0
LWPOLYLINE
  5
476
100
AcDbEntity
  8
0
100
AcDbPolyline
 62
253
  6
CONTINUOUS
 90
34
 70
0
 10
4.1061522762
 20
13.8829747512
 10
4.1165579278
 20
13.8801332201
 10
4.1272213405
 20
13.8775415592
 10
4.1381185312
 20
13.8752055988
 10
4.1492249978
 20
13.8731305928
 10
4.1605157536
 20
13.8713212112
 10
4.1719653818
 20
13.8697815274
 10
4.1835481234
 20
13.8685150049
 10
4.1952379321
 20
13.8675244911
 10
4.2070085112
 20
13.8668122136
 10
4.218833388
 20
13.8663797739
 10
4.2306859638
 20
13.8662281441
 10
4.2425395705
 20
13.8663576645
 10
4.2543675452
 20
13.8667680423
 10
4.2661432864
 20
13.8674583533
 10
4.277840305
 20
13.8684270431
 10
4.2894322987
 20
13.8696719324
 10
4.3008931897
 20
13.8711902191
 10
4.3121971807
 20
13.8729784833
 10
4.3233188184
 20
13.8750326939
 10
4.3342331228
 20
13.8773482324
 10
4.344915618
 20
13.8799199058
 10
4.3553423722
 20
13.8827419598
 10
4.3654898303
 20
13.8858080263
 10
4.3753349574
 20
13.8891111376
 10
4.3848555027
 20
13.8926438025
 10
4.3940302081
 20
13.8963981063
 10
4.402838623
 20
13.9003656706
 10
4.4112621746
 20
13.9045382149
 10
4.4192805612
 20
13.9089057723
 10
4.4268725567
 20
13.9134565119
 10
4.4340206583
 20
13.9181792793
 10
4.4407105236
 20
13.9230638948
 10
4.4469277468
 20
13.9280991965
  0
LWPOLYLINE
  5
477
100
AcDbEntity
  8
0
100
AcDbPolyline
 62
253
  6
CONTINUOUS
 90
34
 70
0
 10
-30.4471269793
 20
23.5176733569
 10
-30.4367188654
 20
23.5148311908
 10
-30.4260528913
 20
23.5122390167
 10
-30.4151530583
 20
23.5099026677
 10
-30.4040438935
 20
23.5078274011
 10
-30.3927503954
 20
23.5060178868
 10
-30.3812979771
 20
23.5044781966
 10
-30.3697124094
 20
23.5032117952
 10
-30.3580197628
 20
23.5022215323
 10
-30.3462463485
 20
23.5015096363
 10
-30.3344186596
 20
23.5010777091
 10
-30.3225633114
 20
23.5009267227
 10
-30.3107069814
 20
23.5010570168
 10
-30.2988763492
 20
23.5014682982
 10
-30.2870980367
 20
23.5021596414
 10
-30.2753985479
 20
23.5031294907
 10
-30.2638042097
 20
23.5043756638
 10
-30.2523411122
 20
23.5058953564
 10
-30.2410350501
 20
23.5076851489
 10
-30.2299114649
 20
23.5097410138
 10
-30.2189953875
 20
23.5120583248
 10
-30.2083113817
 20
23.5146318674
 10
-30.1978834891
 20
23.5174558507
 10
-30.1877351751
 20
23.5205239197
 10
-30.177889276
 20
23.5238291708
 10
-30.1683679474
 20
23.5273641662
 10
-30.1591926146
 20
23.5311209513
 10
-30.1503839245
 20
23.5350910724
 10
-30.1419616988
 20
23.5392655958
 10
-30.1339448896
 20
23.5436351277
 10
-30.1263515366
 20
23.5481898357
 10
-30.1191987268
 20
23.5529194705
 10
-30.1125025558
 20
23.5578133892
 10
-30.1062780917
 20
23.5628605793
  0
LWPOLYLINE
  5
478
100
AcDbEntity
  8
0
100
AcDbPolyline
 62
253
  6
CONTINUOUS
 90
34
 70
0
 10
-10.9626897496
 20
18.2329747512
 10
-10.9523024434
 20
18.2301379514
 10
-10.941653733
 20
18.2275491136
 10
-10.9307671981
 20
18.2252143622
 10
-10.9196654389
 20
18.2231389916
 10
-10.9083746664
 20
18.221328341
 10
-10.8969248874
 20
18.2197874078
 10
-10.8853435511
 20
18.2185198226
 10
-10.8736550486
 20
18.2175281922
 10
-10.8618854603
 20
18.2168147365
 10
-10.8500611032
 20
18.2163810709
 10
-10.8382087163
 20
18.216228196
 10
-10.8263551965
 20
18.2163564648
 10
-10.8145273091
 20
18.2167655816
 10
-10.8027515503
 20
18.2174546236
 10
-10.7910543292
 20
18.2184220457
 10
-10.7794619237
 20
18.2196656789
 10
-10.7680004397
 20
18.2211827268
 10
-10.7566956761
 20
18.2229697768
 10
-10.7455730651
 20
18.2250228101
 10
-10.734657619
 20
18.2273372114
 10
-10.723973893
 20
18.2299077758
 10
-10.7135459163
 20
18.2327287232
 10
-10.703397146
 20
18.2357937095
 10
-10.6935504174
 20
18.2390958395
 10
-10.6840278797
 20
18.2426276861
 10
-10.6748509502
 20
18.2463813065
 10
-10.666040273
 20
18.2503482573
 10
-10.6576156614
 20
18.2545196186
 10
-10.6495960692
 20
18.2588860063
 10
-10.6419995482
 20
18.2634375914
 10
-10.6348431868
 20
18.2681641327
 10
-10.6281430745
 20
18.2730550014
 10
-10.6219142791
 20
18.2780991965
  0
LWPOLYLINE
  5
479
100
AcDbEntity
  8
0
100
AcDbPolyline
 62
253
  6
CONTINUOUS
 90
34
 70
0
 10
-15.3782849535
 20
19.5087816464
 10
-15.3678937925
 20
19.5059438524
 10
-15.3572410311
 20
19.5033542014
 10
-15.3463502745
 20
19.5010188251
 10
-15.3352441436
 20
19.4989430237
 10
-15.3239488821
 20
19.4971321434
 10
-15.3124945431
 20
19.4955911884
 10
-15.3009086113
 20
19.4943237922
 10
-15.2892155015
 20
19.4933325627
 10
-15.2774413229
 20
19.4926197205
 10
-15.2656124219
 20
19.4921868809
 10
-15.2537555682
 20
19.4920350434
 10
-15.2418976898
 20
19.492164559
 10
-15.2300655818
 20
19.4925751288
 10
-15.2182857693
 20
19.4932658263
 10
-15.2065846902
 20
19.4942351014
 10
-15.1949886504
 20
19.4954807793
 10
-15.1835237834
 20
19.497000057
 10
-15.1722159153
 20
19.4987895143
 10
-15.161090504
 20
19.5008451241
 10
-15.1501725868
 20
19.5031622617
 10
-15.1394867428
 20
19.5057357122
 10
-15.1290570239
 20
19.5085596848
 10
-15.1189069085
 20
19.5116278238
 10
-15.1090592519
 20
19.5149332217
 10
-15.099536222
 20
19.5184684387
 10
-15.0903592531
 20
19.5222255183
 10
-15.0815490048
 20
19.5261960032
 10
-15.0731253041
 20
19.5303709587
 10
-15.0651071169
 20
19.5347409858
 10
-15.0575125053
 20
19.5392962399
 10
-15.0503585662
 20
19.5440264639
 10
-15.0436613956
 20
19.5489210127
 10
-15.0374360658
 20
19.5539688689
  0
LWPOLYLINE
  5
47A
100
AcDbEntity
  8
0
100
AcDbPolyline
 62
253
  6
CONTINUOUS
 90
34
 70
0
 10
-30.4471269793
 20
23.8587816464
 10
-30.4367174103
 20
23.8559391051
 10
-30.4260498974
 20
23.8533466221
 10
-30.4151484507
 20
23.8510100337
 10
-30.4040376001
 20
23.8489345994
 10
-30.3927423608
 20
23.8471249934
 10
-30.3812881785
 20
23.8455852927
 10
-30.3697008417
 20
23.8443189635
 10
-30.3580064265
 20
23.8433288547
 10
-30.3462312593
 20
23.8426171948
 10
-30.334401843
 20
23.8421855851
 10
-30.3225448061
 20
23.8420349965
 10
-30.3106868468
 20
23.8421657671
 10
-30.2988546576
 20
23.8425776013
 10
-30.2870748691
 20
23.8432695707
 10
-30.2753739993
 20
23.8442401163
 10
-30.2637783788
 20
23.8454870527
 10
-30.2523141128
 20
23.8470075712
 10
-30.2410070254
 20
23.8487982443
 10
-30.2298825959
 20
23.8508550326
 10
-30.2189658289
 20
23.8531733084
 10
-30.2082812241
 20
23.8557478685
 10
-30.1978527361
 20
23.8585729479
 10
-30.1877039411
 20
23.861642167
 10
-30.1778578936
 20
23.864948546
 10
-30.1683368626
 20
23.8684845809
 10
-30.1591621236
 20
23.8722423435
 10
-30.1503541431
 20
23.8762134412
 10
-30.1419315081
 20
23.8803895795
 10
-30.133914532
 20
23.8847607757
 10
-30.1263244507
 20
23.8893151819
 10
-30.1191787745
 20
23.8940416267
 10
-30.1124918517
 20
23.8989299152
 10
-30.1062780917
 20
23.9039688689
  0
LINE
  5
47B
100
AcDbEntity
  8
0
100
AcDbLine
 62
7
  6
CONTINUOUS
 10
4.6111906646
 20
12.6556463343
 11
2.5453329946
 21
13.2520080752
  0
LINE
  5
47C
100
AcDbEntity
  8
0
100
AcDbLine
 62
7
  6
CONTINUOUS
 10
-0.1099037191
 20
14.0185088909
 11
-0.92507027
 21
14.2538272047
  0
LINE
  5
47D
100
AcDbEntity
  8
0
100
AcDbLine
 62
7
  6
CONTINUOUS
 10
-6.9872480965
 20
16.0038272047
 11
-7.8024146475
 21
16.2391455185
  0
LINE
  5
47E
100
AcDbEntity
  8
0
100
AcDbLine
 62
7
  6
CONTINUOUS
 10
-10.4576513612
 20
17.0056463343
 11
-12.5235090312
 21
17.6020080752
  0
LINE
  5
47F
100
AcDbEntity
  8
0
100
AcDbLine
 62
7
  6
CONTINUOUS
 10
-19.5947195314
 20
19.6432907181
 11
-20.4106418552
 21
19.8788272047
  0
LINE
  5
480
100
AcDbEntity
  8
0
100
AcDbLine
 62
7
  6
CONTINUOUS
 10
-26.4728196817
 20
21.6288272047
 11
-27.2887420055
 21
21.8643636914
  0
LINE
  5
481
100
AcDbEntity
  8
0
100
AcDbLine
 62
7
  6
CONTINUOUS
 10
-32.0097111232
 20
23.2271900869
 11
-29.9425924395
 21
22.6304643226
  0
LINE
  5
482
100
AcDbEntity
  8
0
100
AcDbLine
 62
7
  6
CONTINUOUS
 10
-16.9408690974
 20
18.8771900869
 11
-14.8737504136
 21
18.2804643226
  0
LINE
  5
483
100
AcDbEntity
  8
0
100
AcDbLine
 62
7
  6
CONTINUOUS
 10
6.9643847721
 20
12.2949727608
 11
6.9428442642
 21
12.3011909699
  0
LINE
  5
484
100
AcDbEntity
  8
0
100
AcDbLine
 62
7
  6
CONTINUOUS
 10
-25.9728196817
 20
22.1072263748
 11
-23.980961253
 21
21.5322263748
  0
LINE
  5
485
100
AcDbEntity
  8
0
100
AcDbLine
 62
7
  6
CONTINUOUS
 10
-21.9025002839
 20
20.9322263748
 11
-20.4106418552
 21
20.5015639421
  0
LINE
  5
486
100
AcDbEntity
  8
0
100
AcDbLine
 62
7
  6
CONTINUOUS
 10
-6.4872480965
 20
16.4822263748
 11
-4.4953896678
 21
15.9072263748
  0
LINE
  5
487
100
AcDbEntity
  8
0
100
AcDbLine
 62
7
  6
CONTINUOUS
 10
-2.4169286988
 20
15.3072263748
 11
-0.92507027
 21
14.8765639421
  0
LINE
  5
488
100
AcDbEntity
  8
0
100
AcDbLine
 62
7
  6
CONTINUOUS
 10
-32.4495141079
 20
23.9798420481
 11
-30.3914645039
 21
23.3857343016
  0
LINE
  5
489
100
AcDbEntity
  8
0
100
AcDbLine
 62
7
  6
CONTINUOUS
 10
-17.3806720821
 20
19.6298420481
 11
-15.322622478
 21
19.0357343016
  0
LINE
  5
48A
100
AcDbEntity
  8
0
100
AcDbLine
 62
7
  6
CONTINUOUS
 10
-12.9628081673
 20
18.3545145879
 11
-10.9070272742
 21
17.7610617618
  0
LINE
  5
48B
100
AcDbEntity
  8
0
100
AcDbLine
 62
7
  6
CONTINUOUS
 10
2.1060338585
 20
14.0045145879
 11
4.1618147517
 21
13.4110617618
  0
LINE
  5
48C
100
AcDbEntity
  8
0
100
AcDbLine
 62
253
  6
CONTINUOUS
 10
-32.5051765834
 20
24.1117811033
 11
-30.4471269793
 21
23.5176733569
  0
LINE
  5
48D
100
AcDbEntity
  8
0
100
AcDbLine
 62
253
  6
CONTINUOUS
 10
-17.4363345575
 20
19.7617811033
 11
-15.3782849535
 21
19.1676733569
  0
LINE
  5
48E
100
AcDbEntity
  8
0
100
AcDbLine
 62
253
  6
CONTINUOUS
 10
-13.0184706428
 20
18.4864536431
 11
-10.9626897496
 21
17.8930008171
  0
LINE
  5
48F
100
AcDbEntity
  8
0
100
AcDbLine
 62
253
  6
CONTINUOUS
 10
2.050371383
 20
14.1364536431
 11
4.1061522762
 21
13.5430008171
  0
LINE
  5
490
100
AcDbEntity
  8
0
100
AcDbLine
 62
7
  6
CONTINUOUS
 10
-2.5169286988
 20
15.647462257
 11
-4.0721845871
 21
16.0964259599
  0
LINE
  5
491
100
AcDbEntity
  8
0
100
AcDbLine
 62
7
  6
CONTINUOUS
 10
-22.0025002839
 20
21.272462257
 11
-23.5577561722
 21
21.7214259599
  0
LINE
  5
492
100
AcDbEntity
  8
0
100
AcDbLine
 62
7
  6
CONTINUOUS
 10
-28.9704149459
 20
23.2839259599
 11
-27.2887420055
 21
22.7984687975
  0
LINE
  5
493
100
AcDbEntity
  8
0
100
AcDbLine
 62
7
  6
CONTINUOUS
 10
-18.8379177216
 20
20.3589259599
 11
-17.5613345575
 21
19.9904081432
  0
LINE
  5
494
100
AcDbEntity
  8
0
100
AcDbLine
 62
7
  6
CONTINUOUS
 10
-13.90157292
 20
18.9339259599
 11
-13.1434706428
 21
18.715080683
  0
LINE
  5
495
100
AcDbEntity
  8
0
100
AcDbLine
 62
7
  6
CONTINUOUS
 10
-9.4848433607
 20
17.6589259599
 11
-7.8024146475
 21
17.1732506247
  0
LINE
  5
496
100
AcDbEntity
  8
0
100
AcDbLine
 62
7
  6
CONTINUOUS
 10
0.6476538635
 20
14.7339259599
 11
1.925371383
 21
14.365080683
  0
LINE
  5
497
100
AcDbEntity
  8
0
100
AcDbLine
 62
7
  6
CONTINUOUS
 10
5.5839986651
 20
13.3089259599
 11
6.0165851496
 21
13.1840489983
  0
LINE
  5
498
100
AcDbEntity
  8
0
100
AcDbLine
 62
253
  6
CONTINUOUS
 10
4.1061522762
 20
13.8829747512
 11
2.050371383
 21
14.4764275772
  0
LINE
  5
499
100
AcDbEntity
  8
0
100
AcDbLine
 62
253
  6
CONTINUOUS
 10
-10.9626897496
 20
18.2329747512
 11
-13.0184706428
 21
18.8264275772
  0
LINE
  5
49A
100
AcDbEntity
  8
0
100
AcDbLine
 62
253
  6
CONTINUOUS
 10
-15.3782849535
 20
19.5087816464
 11
-17.4363345575
 21
20.1028893929
  0
LINE
  5
49B
100
AcDbEntity
  8
0
100
AcDbLine
 62
253
  6
CONTINUOUS
 10
-30.4471269793
 20
23.8587816464
 11
-32.5051765834
 21
24.4528893929
  0
LINE
  5
49C
100
AcDbEntity
  8
0
100
AcDbLine
 62
253
  6
CONTINUOUS
 10
4.2304250598
 20
14.2071008257
 11
2.1746441666
 21
14.8005536518
  0
LINE
  5
49D
100
AcDbEntity
  8
0
100
AcDbLine
 62
253
  6
CONTINUOUS
 10
-10.8384169661
 20
18.5571008257
 11
-12.8941978592
 21
19.1505536518
  0
LINE
  5
49E
100
AcDbEntity
  8
0
100
AcDbLine
 62
253
  6
CONTINUOUS
 10
-15.253939449
 20
19.8329713953
 11
-17.311989053
 21
20.4270791418
  0
LINE
  5
49F
100
AcDbEntity
  8
0
100
AcDbLine
 62
253
  6
CONTINUOUS
 10
-30.3227814748
 20
24.1829713953
 11
-32.3808310789
 21
24.7770791418
  0
LINE
  5
4A0
100
AcDbEntity
  8
0
100
AcDbLine
 62
7
  6
CONTINUOUS
 10
-7.8024146475
 20
17.6853082843
 11
-6.9872480965
 21
17.4499899705
  0
LINE
  5
4A1
100
AcDbEntity
  8
0
100
AcDbLine
 62
7
  6
CONTINUOUS
 10
-0.92507027
 20
15.6999899705
 11
-0.1099037191
 21
15.4646716567
  0
LINE
  5
4A2
100
AcDbEntity
  8
0
100
AcDbLine
 62
7
  6
CONTINUOUS
 10
-19.5947195314
 20
21.0902092567
 11
-20.4106418552
 21
21.3257457433
  0
LINE
  5
4A3
100
AcDbEntity
  8
0
100
AcDbLine
 62
7
  6
CONTINUOUS
 10
-26.4728196817
 20
23.0757457433
 11
-27.2887420055
 21
23.31128223
  0
LINE
  5
4A4
100
AcDbEntity
  8
0
100
AcDbLine
 62
7
  6
CONTINUOUS
 10
-28.9704149459
 20
23.8562378407
 11
-28.4754533343
 21
23.7133547308
  0
LINE
  5
4A5
100
AcDbEntity
  8
0
100
AcDbLine
 62
7
  6
CONTINUOUS
 10
-13.90157292
 20
19.5062378407
 11
-12.9391868866
 21
19.2284209229
  0
LINE
  5
4A6
100
AcDbEntity
  8
0
100
AcDbLine
 62
7
  6
CONTINUOUS
 10
-9.4848433607
 20
18.2312378407
 11
-8.9898817491
 21
18.0883547308
  0
LINE
  5
4A7
100
AcDbEntity
  8
0
100
AcDbLine
 62
7
  6
CONTINUOUS
 10
5.5839986651
 20
13.8812378407
 11
6.5098370581
 21
13.6139713179
  0
LINE
  5
4A8
100
AcDbEntity
  8
0
100
AcDbLine
 62
7
  6
CONTINUOUS
 10
-23.0577561722
 20
22.1499041219
 11
-22.0025002839
 21
21.8452779863
  0
LINE
  5
4A9
100
AcDbEntity
  8
0
100
AcDbLine
 62
7
  6
CONTINUOUS
 10
-3.5721845871
 20
16.5249041219
 11
-2.5169286988
 21
16.2202779863
  0
LINE
  5
4AA
100
AcDbEntity
  8
0
100
AcDbLine
 62
253
  6
CONTINUOUS
 10
-0.5729099747
 20
16.0085183731
 11
-2.4169286988
 21
16.5408407265
  0
LINE
  5
4AB
100
AcDbEntity
  8
0
100
AcDbLine
 62
253
  6
CONTINUOUS
 10
-4.4953896678
 20
17.1408407265
 11
-6.4872480965
 21
17.7158407265
  0
LINE
  5
4AC
100
AcDbEntity
  8
0
100
AcDbLine
 62
253
  6
CONTINUOUS
 10
-20.0586956834
 20
21.6337318968
 11
-21.9025002839
 21
22.165992438
  0
LINE
  5
4AD
100
AcDbEntity
  8
0
100
AcDbLine
 62
253
  6
CONTINUOUS
 10
-23.980961253
 20
22.765992438
 11
-25.9728196817
 21
23.340992438
  0
LINE
  5
4AE
100
AcDbEntity
  8
0
100
AcDbLine
 62
253
  6
CONTINUOUS
 10
-0.3256520432
 20
16.2251415861
 11
-2.3175104719
 21
16.8001415861
  0
LINE
  5
4AF
100
AcDbEntity
  8
0
100
AcDbLine
 62
253
  6
CONTINUOUS
 10
-4.395971441
 20
17.4001415861
 11
-6.3878298697
 21
17.9751415861
  0
LINE
  5
4B0
100
AcDbEntity
  8
0
100
AcDbLine
 62
253
  6
CONTINUOUS
 10
-19.8111654516
 20
21.8503442371
 11
-21.8030238803
 21
22.4253442371
  0
LINE
  5
4B1
100
AcDbEntity
  8
0
100
AcDbLine
 62
253
  6
CONTINUOUS
 10
-23.8814848494
 20
23.0253442371
 11
-25.8733432781
 21
23.6003442371
  0
LINE
  5
4B2
100
AcDbEntity
  8
0
100
AcDbLine
 62
7
  6
CONTINUOUS
 10
-26.5455438153
 20
23.9695666059
 11
-23.730961253
 21
23.1570666059
  0
LINE
  5
4B3
100
AcDbEntity
  8
0
100
AcDbLine
 62
7
  6
CONTINUOUS
 10
-21.6525002839
 20
22.5570666059
 11
-18.8379177216
 21
21.7445666059
  0
LINE
  5
4B4
100
AcDbEntity
  8
0
100
AcDbLine
 62
7
  6
CONTINUOUS
 10
-7.0599722301
 20
18.3445666059
 11
-4.2453896678
 21
17.5320666059
  0
LINE
  5
4B5
100
AcDbEntity
  8
0
100
AcDbLine
 62
7
  6
CONTINUOUS
 10
-2.1669286988
 20
16.9320666059
 11
0.6476538635
 21
16.1195666059
  0
LWPOLYLINE
  5
4B6
100
AcDbEntity
  8
0
100
AcDbPolyline
 62
253
  6
CONTINUOUS
 90
23
 70
0
 10
-32.5051765834
 20
24.1117811033
 10
-32.5153041324
 20
24.1148670958
 10
-32.5251275673
 20
24.1181897744
 10
-32.5346247799
 20
24.1217416613
 10
-32.5437743854
 20
24.1255147581
 10
-32.5525558034
 20
24.1295005771
 10
-32.5609492995
 20
24.1336901633
 10
-32.5689359976
 20
24.1380741001
 10
-32.5764978982
 20
24.1426425135
 10
-32.5836179536
 20
24.1473851065
 10
-32.5902801316
 20
24.1522911997
 10
-32.5964694468
 20
24.1573497567
 10
-32.6021719692
 20
24.1625493923
 10
-32.6073748646
 20
24.1678784042
 10
-32.6120664234
 20
24.1733247987
 10
-32.6162360869
 20
24.1788763185
 10
-32.6198744734
 20
24.1845204732
 10
-32.6229733908
 20
24.1902445561
 10
-32.6255258598
 20
24.1960356717
 10
-32.6275261368
 20
24.2018807776
 10
-32.6289697277
 20
24.2077667268
 10
-32.6298533886
 20
24.2136802853
 10
-32.6301760366
 20
24.2197728356
  0
LWPOLYLINE
  5
4B7
100
AcDbEntity
  8
0
100
AcDbPolyline
 62
253
  6
CONTINUOUS
 90
23
 70
0
 10
-17.4363345575
 20
19.7617811033
 10
-17.4464621065
 20
19.7648670958
 10
-17.4562855415
 20
19.7681897744
 10
-17.465782754
 20
19.7717416613
 10
-17.4749323595
 20
19.7755147581
 10
-17.4837137775
 20
19.7795005771
 10
-17.4921072737
 20
19.7836901633
 10
-17.5000939718
 20
19.7880741001
 10
-17.5076558724
 20
19.7926425135
 10
-17.5147759277
 20
19.7973851065
 10
-17.5214381057
 20
19.8022911997
 10
-17.5276274209
 20
19.8073497567
 10
-17.5333299433
 20
19.8125493923
 10
-17.5385328387
 20
19.8178784042
 10
-17.5432243975
 20
19.8233247987
 10
-17.5473940611
 20
19.8288763185
 10
-17.5510324475
 20
19.8345204732
 10
-17.554131365
 20
19.8402445561
 10
-17.5566838339
 20
19.8460356717
 10
-17.558684111
 20
19.8518807776
 10
-17.5601277019
 20
19.8577667268
 10
-17.5610113628
 20
19.8636802853
 10
-17.5613340107
 20
19.8697728356
  0
LWPOLYLINE
  5
4B8
100
AcDbEntity
  8
0
100
AcDbPolyline
 62
253
  6
CONTINUOUS
 90
23
 70
0
 10
-13.0184706428
 20
18.4864536431
 10
-13.0285944825
 20
18.4895384441
 10
-13.0384144424
 20
18.492859758
 10
-13.0479084386
 20
18.4964101156
 10
-13.0570551094
 20
18.5001815279
 10
-13.0658338963
 20
18.5041655174
 10
-13.0742250855
 20
18.5083531397
 10
-13.0822098199
 20
18.5127349895
 10
-13.089770118
 20
18.517301205
 10
-13.0968889483
 20
18.5220415019
 10
-13.1035502935
 20
18.5269452137
 10
-13.109739181
 20
18.5320013176
 10
-13.1154416922
 20
18.5371984426
 10
-13.1206450025
 20
18.5425249004
 10
-13.1253374099
 20
18.5479687123
 10
-13.1295083619
 20
18.5535176356
 10
-13.1331484806
 20
18.5591591953
 10
-13.1362495763
 20
18.5648806998
 10
-13.1388046699
 20
18.570669269
 10
-13.1408080162
 20
18.576511876
 10
-13.1422551175
 20
18.5823953892
 10
-13.1431427243
 20
18.5883065898
 10
-13.1434700922
 20
18.5944444682
  0
LWPOLYLINE
  5
4B9
100
AcDbEntity
  8
0
100
AcDbPolyline
 62
253
  6
CONTINUOUS
 90
23
 70
0
 10
-32.5051765834
 20
24.4528893929
 10
-32.5152873674
 20
24.4559700006
 10
-32.5250991551
 20
24.459287956
 10
-32.5345895238
 20
24.4628361038
 10
-32.5437379827
 20
24.4666072989
 10
-32.5525221501
 20
24.4705928505
 10
-32.5609183321
 20
24.4747822472
 10
-32.5689064926
 20
24.4791654048
 10
-32.5764699073
 20
24.4837330551
 10
-32.5835916755
 20
24.4884750028
 10
-32.5902558263
 20
24.4933806474
 10
-32.5964472434
 20
24.4984388969
 10
-32.602151855
 20
24.5036382667
 10
-32.6073567811
 20
24.5089670047
 10
-32.6120503643
 20
24.5144131618
 10
-32.6162220701
 20
24.5199645153
 10
-32.6198625125
 20
24.5256085868
 10
-32.6229634799
 20
24.5313326586
 10
-32.625517983
 20
24.5371238378
 10
-32.627520268
 20
24.5429690871
 10
-32.6289658265
 20
24.5488552528
 10
-32.6298514015
 20
24.5547690842
 10
-32.6301765608
 20
24.5610894583
  0
LWPOLYLINE
  5
4BA
100
AcDbEntity
  8
0
100
AcDbPolyline
 62
253
  6
CONTINUOUS
 90
23
 70
0
 10
2.050371383
 20
14.1364536431
 10
2.0402475434
 20
14.1395384441
 10
2.0304275834
 20
14.142859758
 10
2.0209335873
 20
14.1464101156
 10
2.0117869165
 20
14.1501815279
 10
2.0030081295
 20
14.1541655174
 10
1.9946169404
 20
14.1583531397
 10
1.9866322059
 20
14.1627349895
 10
1.9790719078
 20
14.167301205
 10
1.9719530775
 20
14.1720415019
 10
1.9652917324
 20
14.1769452137
 10
1.9591028449
 20
14.1820013176
 10
1.9534003336
 20
14.1871984426
 10
1.9481970234
 20
14.1925249004
 10
1.9435046159
 20
14.1979687123
 10
1.9393336639
 20
14.2035176356
 10
1.9356935453
 20
14.2091591953
 10
1.9325924495
 20
14.2148806998
 10
1.930037356
 20
14.220669269
 10
1.9280340097
 20
14.226511876
 10
1.9265869084
 20
14.2323953892
 10
1.9256993015
 20
14.2383065898
 10
1.9253719337
 20
14.2444444682
  0
LWPOLYLINE
  5
4BB
100
AcDbEntity
  8
0
100
AcDbPolyline
 62
253
  6
CONTINUOUS
 90
23
 70
0
 10
-17.4363345575
 20
20.1028893929
 10
-17.4464453415
 20
20.1059700006
 10
-17.4562571293
 20
20.109287956
 10
-17.4657474979
 20
20.1128361038
 10
-17.4748959568
 20
20.1166072989
 10
-17.4836801243
 20
20.1205928505
 10
-17.4920763062
 20
20.1247822472
 10
-17.5000644667
 20
20.1291654048
 10
-17.5076278815
 20
20.1337330551
 10
-17.5147496497
 20
20.1384750028
 10
-17.5214138004
 20
20.1433806474
 10
-17.5276052175
 20
20.1484388969
 10
-17.5333098291
 20
20.1536382667
 10
-17.5385147553
 20
20.1589670047
 10
-17.5432083384
 20
20.1644131618
 10
-17.5473800442
 20
20.1699645153
 10
-17.5510204867
 20
20.1756085868
 10
-17.5541214541
 20
20.1813326586
 10
-17.5566759571
 20
20.1871238378
 10
-17.5586782422
 20
20.1929690871
 10
-17.5601238007
 20
20.1988552528
 10
-17.5610093757
 20
20.2047690842
 10
-17.561334535
 20
20.2110894583
  0
LWPOLYLINE
  5
4BC
100
AcDbEntity
  8
0
100
AcDbPolyline
 62
253
  6
CONTINUOUS
 90
23
 70
0
 10
-13.0184706428
 20
18.8264275772
 10
-13.0285777773
 20
18.8295070129
 10
-13.0383861311
 20
18.8328236208
 10
-13.0478733066
 20
18.836370253
 10
-13.0570188335
 20
18.8401397704
 10
-13.0658003586
 20
18.8441234931
 10
-13.0741942226
 20
18.8483109262
 10
-13.0821804128
 20
18.8526919994
 10
-13.0897422184
 20
18.8572574541
 10
-13.096862754
 20
18.8619971075
 10
-13.1035260635
 20
18.8669003716
 10
-13.109717044
 20
18.8719561682
 10
-13.1154216357
 20
18.8771530273
 10
-13.1206269683
 20
18.8824792111
 10
-13.125321392
 20
18.8879227852
 10
-13.1294943782
 20
18.8934715416
 10
-13.1331365451
 20
18.899113017
 10
-13.1362396832
 20
18.9048345091
 10
-13.1387968036
 20
18.9106231403
 10
-13.140802151
 20
18.9164658889
 10
-13.1422512134
 20
18.9223496164
 10
-13.1431407283
 20
18.9282610876
 10
-13.1434706204
 20
18.9346278503
  0
LWPOLYLINE
  5
4BD
100
AcDbEntity
  8
0
100
AcDbPolyline
 62
253
  6
CONTINUOUS
 90
23
 70
0
 10
2.050371383
 20
14.4764275772
 10
2.040246881
 20
14.479512591
 10
2.0304262863
 20
14.4828341537
 10
2.0209316888
 20
14.4863847954
 10
2.0117844398
 20
14.4901565336
 10
2.003005121
 20
14.4941408834
 10
1.9946134964
 20
14.498328876
 10
1.9866284443
 20
14.502711089
 10
1.9790679196
 20
14.5072776677
 10
1.9719489293
 20
14.5120183392
 10
1.9652874833
 20
14.5169224412
 10
1.9590985649
 20
14.5219789422
 10
1.9533960974
 20
14.5271764647
 10
1.9481929053
 20
14.5325033168
 10
1.9435006884
 20
14.5379475179
 10
1.9393299992
 20
14.5434968204
 10
1.9356902138
 20
14.5491387455
 10
1.9325895179
 20
14.5548606003
 10
1.9300348869
 20
14.5606495041
 10
1.9280320651
 20
14.5664924197
 10
1.9265855433
 20
14.5723762215
 10
1.9256985647
 20
14.5782877143
 10
1.9253724389
 20
14.5843174654
  0
LWPOLYLINE
  5
4BE
100
AcDbEntity
  8
0
100
AcDbPolyline
 62
253
  6
CONTINUOUS
 90
23
 70
0
 10
-21.9025002839
 20
22.165992438
 10
-21.9106284474
 20
22.1684696251
 10
-21.9185116658
 20
22.1711373832
 10
-21.9261320811
 20
22.1739896689
 10
-21.9334724307
 20
22.1770200209
 10
-21.9405160862
 20
22.1802215746
 10
-21.9472470915
 20
22.1835870772
 10
-21.9536501988
 20
22.187108905
 10
-21.9597109029
 20
22.1907790798
 10
-21.9654154743
 20
22.1945892874
 10
-21.9707509905
 20
22.1985308966
 10
-21.9757053647
 20
22.2025949784
 10
-21.9802673736
 20
22.2067723262
 10
-21.984426683
 20
22.2110534771
 10
-21.9881738705
 20
22.2154287328
 10
-21.9915004476
 20
22.219888182
 10
-21.9943988786
 20
22.2244217227
 10
-21.9968625976
 20
22.2290190848
 10
-21.9988860234
 20
22.2336698539
 10
-22.0004645723
 20
22.2383634945
 10
-22.0015946684
 20
22.243089374
 10
-22.0022737517
 20
22.2478367868
 10
-22.0025002839
 20
22.2525949784
  0
LWPOLYLINE
  5
4BF
100
AcDbEntity
  8
0
100
AcDbPolyline
 62
253
  6
CONTINUOUS
 90
23
 70
0
 10
-2.4169286988
 20
16.5408407265
 10
-2.4250568622
 20
16.5433179136
 10
-2.4329400807
 20
16.5459856717
 10
-2.440560496
 20
16.5488379574
 10
-2.4479008455
 20
16.5518683094
 10
-2.454944501
 20
16.5550698631
 10
-2.4616755064
 20
16.5584353657
 10
-2.4680786136
 20
16.5619571935
 10
-2.4741393177
 20
16.5656273682
 10
-2.4798438892
 20
16.5694375759
 10
-2.4851794053
 20
16.5733791851
 10
-2.4901337795
 20
16.5774432669
 10
-2.4946957885
 20
16.5816206147
 10
-2.4988550978
 20
16.5859017656
 10
-2.5026022854
 20
16.5902770213
 10
-2.5059288625
 20
16.5947364705
 10
-2.5088272935
 20
16.5992700112
 10
-2.5112910124
 20
16.6038673733
 10
-2.5133144382
 20
16.6085181424
 10
-2.5148929871
 20
16.613211783
 10
-2.5160230833
 20
16.6179376625
 10
-2.5167021666
 20
16.6226850753
 10
-2.5169286988
 20
16.6274432669
  0
LWPOLYLINE
  5
4C0
100
AcDbEntity
  8
0
100
AcDbPolyline
 62
7
  6
CONTINUOUS
 90
43
 70
0
 10
6.0165851496
 20
13.1840489983
 10
6.0326791976
 20
13.1791040899
 10
6.0487793675
 20
13.1735559533
 10
6.0648634453
 20
13.1674093112
 10
6.0809220485
 20
13.1606642294
 10
6.0969194082
 20
13.1533318329
 10
6.1127940629
 20
13.1454387482
 10
6.1285151573
 20
13.1370016962
 10
6.144069969
 20
13.1280294529
 10
6.1594255275
 20
13.1185429551
 10
6.1745406569
 20
13.1085713844
 10
6.1894161008
 20
13.0981179339
 10
6.2040806385
 20
13.0871618925
 10
6.2185352683
 20
13.0756971114
 10
6.23273462
 20
13.0637540484
 10
6.2466371639
 20
13.0513652902
 10
6.260225786
 20
13.0385441219
 10
6.273477535
 20
13.025310957
 10
6.2863460555
 20
13.0117143556
 10
6.2987988207
 20
12.9977931266
 10
6.3108369615
 20
12.9835509082
 10
6.3224658546
 20
12.9689847987
 10
6.3336687531
 20
12.9541151912
 10
6.3444299862
 20
12.9389620105
 10
6.3547531346
 20
12.9235192656
 10
6.3646334889
 20
12.9077861692
 10
6.3740405764
 20
12.8918033864
 10
6.3829408295
 20
12.8756278017
 10
6.3913199637
 20
12.8592850884
 10
6.3991682581
 20
12.8427948735
 10
6.4064655516
 20
12.8262070803
 10
6.4131938245
 20
12.8095714893
 10
6.4193581748
 20
12.7928850561
 10
6.4249715403
 20
12.7761182967
 10
6.43002953
 20
12.7592721736
 10
6.4345146691
 20
12.7423912054
 10
6.4384172037
 20
12.7255109799
 10
6.4417315401
 20
12.7086446926
 10
6.4444488553
 20
12.6918255714
 10
6.4465611036
 20
12.6751187053
 10
6.4480674274
 20
12.6585602318
 10
6.4489694175
 20
12.6421579443
 10
6.4492682424
 20
12.6259332546
  0
LWPOLYLINE
  5
4C1
100
AcDbEntity
  8
0
100
AcDbPolyline
 62
7
  6
CONTINUOUS
 90
37
 70
0
 10
-23.730961253
 20
23.1570666059
 10
-23.7234061126
 20
23.1547207244
 10
-23.7158654044
 20
23.1520495528
 10
-23.708353486
 20
23.1490581739
 10
-23.7008846708
 20
23.1457522704
 10
-23.6934731742
 20
23.1421381377
 10
-23.6861330867
 20
23.1382226717
 10
-23.6788783972
 20
23.1340133116
 10
-23.6717229226
 20
23.1295180646
 10
-23.6646802544
 20
23.124745514
 10
-23.6577638207
 20
23.1197047258
 10
-23.6509868003
 20
23.1144052847
 10
-23.6443620531
 20
23.1088573144
 10
-23.6379022169
 20
23.1030713526
 10
-23.6316196066
 20
23.0970583973
 10
-23.6255261307
 20
23.0908299396
 10
-23.6196334201
 20
23.0843978083
 10
-23.6139527154
 20
23.0777742267
 10
-23.6084947696
 20
23.0709718565
 10
-23.6032700078
 20
23.0640036153
 10
-23.598288404
 20
23.0568827424
 10
-23.5935593718
 20
23.0496228535
 10
-23.5890919521
 20
23.0422377338
 10
-23.5848946817
 20
23.0347414122
 10
-23.5809754735
 20
23.0271482251
 10
-23.5773418298
 20
23.0194725898
 10
-23.574000704
 20
23.0117290846
 10
-23.5709583734
 20
23.0039325212
 10
-23.5682206728
 20
22.9960977021
 10
-23.5657928535
 20
22.9882395058
 10
-23.5636794497
 20
22.980372966
 10
-23.5618845293
 20
22.9725130171
 10
-23.5604115516
 20
22.964674583
 10
-23.55926323
 20
22.9568726624
 10
-23.5584417503
 20
22.9491221058
 10
-23.5579487662
 20
22.9414375875
 10
-23.5577852615
 20
22.933833695
  0
LWPOLYLINE
  5
4C2
100
AcDbEntity
  8
0
100
AcDbPolyline
 62
7
  6
CONTINUOUS
 90
37
 70
0
 10
-4.2453896678
 20
17.5320666059
 10
-4.2378344919
 20
17.5297207449
 10
-4.2302936929
 20
17.5270496411
 10
-4.2227816286
 20
17.5240583771
 10
-4.2153126137
 20
17.5207526347
 10
-4.2079008638
 20
17.5171387093
 10
-4.2005604689
 20
17.513223497
 10
-4.1933054194
 20
17.5090144361
 10
-4.1861495332
 20
17.5045195329
 10
-4.1791064011
 20
17.4997473715
 10
-4.1721894533
 20
17.4947070161
 10
-4.1654118701
 20
17.48940805
 10
-4.1587865105
 20
17.4838605982
 10
-4.1523260148
 20
17.4780751959
 10
-4.1460427002
 20
17.4720628393
 10
-4.1399484737
 20
17.4658350209
 10
-4.1340549693
 20
17.4594035668
 10
-4.1283734305
 20
17.4527806979
 10
-4.1229146085
 20
17.4459790774
 10
-4.1176889321
 20
17.4390116199
 10
-4.1127063783
 20
17.4318915618
 10
-4.107976359
 20
17.4246325205
 10
-4.1035079189
 20
17.4172482779
 10
-4.0993095984
 20
17.4097528597
 10
-4.0953893086
 20
17.4021606039
 10
-4.0917545558
 20
17.3944859242
 10
-4.0884122974
 20
17.3867433953
 10
-4.0853688084
 20
17.3789478311
 10
-4.0826299282
 20
17.3711140298
 10
-4.0802009125
 20
17.3632568661
 10
-4.0780862929
 20
17.3553913759
 10
-4.0762901422
 20
17.3475324893
 10
-4.074815924
 20
17.3396951263
 10
-4.0736663494
 20
17.3318942875
 10
-4.0728436066
 20
17.3241448213
 10
-4.0723493563
 20
17.3164613957
 10
-4.0721845871
 20
17.308858594
  0
LWPOLYLINE
  5
4C3
100
AcDbEntity
  8
0
100
AcDbPolyline
 62
253
  6
CONTINUOUS
 90
34
 70
0
 10
-23.8814848494
 20
23.0253442371
 10
-23.8732416283
 20
23.0227690722
 10
-23.8650158871
 20
23.0198082911
 10
-23.8568262654
 20
23.0164686014
 10
-23.8486913156
 20
23.0127575662
 10
-23.8406294772
 20
23.0086835954
 10
-23.8326590348
 20
23.004255928
 10
-23.8247980537
 20
22.9994846006
 10
-23.8170643423
 20
22.9943804231
 10
-23.8094754269
 20
22.9889549633
 10
-23.802048502
 20
22.9832205148
 10
-23.7948003984
 20
22.9771900738
 10
-23.7877475459
 20
22.9708773112
 10
-23.7809059269
 20
22.964296535
 10
-23.7742910414
 20
22.9574626565
 10
-23.7679178782
 20
22.950391163
 10
-23.7618008727
 20
22.943098074
 10
-23.7559538895
 20
22.9355999215
 10
-23.7503901884
 20
22.9279137148
 10
-23.7451223883
 20
22.9200568961
 10
-23.7401624049
 20
22.9120472475
 10
-23.7355214438
 20
22.9039028658
 10
-23.7312099858
 20
22.8956421288
 10
-23.7272378466
 20
22.8872838276
 10
-23.723614101
 20
22.8788470764
 10
-23.7203469811
 20
22.8703511069
 10
-23.7174438201
 20
22.8618150617
 10
-23.7149111325
 20
22.8532581244
 10
-23.7127543429
 20
22.8446983178
 10
-23.7109787736
 20
22.8361564054
 10
-23.7095889996
 20
22.8276556478
 10
-23.7085877585
 20
22.8192165189
 10
-23.7079765353
 20
22.8108567053
 10
-23.7077561722
 20
22.8025949784
  0
LWPOLYLINE
  5
4C4
100
AcDbEntity
  8
0
100
AcDbPolyline
 62
253
  6
CONTINUOUS
 90
34
 70
0
 10
-4.395971441
 20
17.4001415861
 10
-4.3877293524
 20
17.3975668817
 10
-4.379504617
 20
17.3946067926
 10
-4.3713158663
 20
17.3912680243
 10
-4.3631816505
 20
17.3875581403
 10
-4.3551203962
 20
17.3834855446
 10
-4.3471503648
 20
17.3790594629
 10
-4.3392896109
 20
17.3742899218
 10
-4.3315559417
 20
17.3691877258
 10
-4.3239668764
 20
17.363764433
 10
-4.3165396067
 20
17.3580323289
 10
-4.3092909578
 20
17.3520043985
 10
-4.3022373501
 20
17.3456942972
 10
-4.2953947624
 20
17.3391163192
 10
-4.2887786953
 20
17.3322853659
 10
-4.2824041363
 20
17.3252169115
 10
-4.2762855259
 20
17.3179269683
 10
-4.2704367247
 20
17.3104320504
 10
-4.2648709822
 20
17.3027491363
 10
-4.2596009064
 20
17.2948956301
 10
-4.2546384358
 20
17.2868893226
 10
-4.249994812
 20
17.2787483507
 10
-4.2456805544
 20
17.2704911563
 10
-4.2417054361
 20
17.2621364446
 10
-4.2380784619
 20
17.2537031416
 10
-4.2348078483
 20
17.2452103516
 10
-4.2319010041
 20
17.2366773135
 10
-4.2293645143
 20
17.2281233572
 10
-4.2272041249
 20
17.2195678604
 10
-4.2254247298
 20
17.2110302038
 10
-4.22403036
 20
17.2025297282
 10
-4.2230241741
 20
17.1940856897
 10
-4.2224084516
 20
17.1857172168
 10
-4.2221845871
 20
17.1774432669
  0
LWPOLYLINE
  5
4C5
100
AcDbEntity
  8
0
100
AcDbPolyline
 62
7
  6
CONTINUOUS
 90
34
 70
0
 10
-29.1869176329
 20
25.1650782501
 10
-29.1766145314
 20
25.1618605973
 10
-29.1663346889
 20
25.1581598363
 10
-29.1561014595
 20
25.1539842842
 10
-29.1459381321
 20
25.149343282
 10
-29.1358677467
 20
25.1442473376
 10
-29.1259130417
 20
25.1387081075
 10
-29.1160966179
 20
25.1327381116
 10
-29.1064407607
 20
25.1263508134
 10
-29.0969672585
 20
25.1195607561
 10
-29.0876975958
 20
25.1123832984
 10
-29.0786528194
 20
25.1048346568
 10
-29.069853362
 20
25.0969319826
 10
-29.0613191667
 20
25.0886931679
 10
-29.0530696004
 20
25.0801368457
 10
-29.0451233235
 20
25.0712824262
 10
-29.0374983316
 20
25.0621499709
 10
-29.0302119172
 20
25.0527601498
 10
-29.0232805881
 20
25.0431342362
 10
-29.0167200256
 20
25.0332940526
 10
-29.0105450958
 20
25.0232618852
 10
-29.0047698174
 20
25.013060437
 10
-28.9994072382
 20
25.0027128467
 10
-28.994469495
 20
24.9922425631
 10
-28.9899678318
 20
24.9816732556
 10
-28.9859123973
 20
24.9710289084
 10
-28.9823123521
 20
24.9603336549
 10
-28.9791759368
 20
24.9496116491
 10
-28.9765101913
 20
24.9388872185
 10
-28.974321118
 20
24.9281847033
 10
-28.9726137921
 20
24.9175282897
 10
-28.9713920715
 20
24.9069421327
 10
-28.970658594
 20
24.896450302
 10
-28.9704149459
 20
24.8860766209
  0
LWPOLYLINE
  5
4C6
100
AcDbEntity
  8
0
100
AcDbPolyline
 62
7
  6
CONTINUOUS
 90
34
 70
0
 10
-14.118075607
 20
20.8150782501
 10
-14.1077725056
 20
20.8118605973
 10
-14.097492663
 20
20.8081598363
 10
-14.0872594337
 20
20.8039842842
 10
-14.0770961062
 20
20.799343282
 10
-14.0670257209
 20
20.7942473376
 10
-14.0570710159
 20
20.7887081075
 10
-14.047254592
 20
20.7827381116
 10
-14.0375987349
 20
20.7763508134
 10
-14.0281252326
 20
20.7695607561
 10
-14.0188555699
 20
20.7623832984
 10
-14.0098107936
 20
20.7548346568
 10
-14.0010113362
 20
20.7469319826
 10
-13.9924771409
 20
20.7386931679
 10
-13.9842275745
 20
20.7301368457
 10
-13.9762812977
 20
20.7212824262
 10
-13.9686563058
 20
20.7121499709
 10
-13.9613698913
 20
20.7027601498
 10
-13.9544385622
 20
20.6931342362
 10
-13.9478779998
 20
20.6832940526
 10
-13.94170307
 20
20.6732618852
 10
-13.9359277916
 20
20.663060437
 10
-13.9305652124
 20
20.6527128467
 10
-13.9256274691
 20
20.6422425631
 10
-13.921125806
 20
20.6316732556
 10
-13.9170703715
 20
20.6210289084
 10
-13.9134703263
 20
20.6103336549
 10
-13.910333911
 20
20.5996116491
 10
-13.9076681655
 20
20.5888872185
 10
-13.9054790921
 20
20.5781847033
 10
-13.9037717662
 20
20.5675282897
 10
-13.9025500457
 20
20.5569421327
 10
-13.9018165681
 20
20.546450302
 10
-13.90157292
 20
20.5360766209
  0
LWPOLYLINE
  5
4C7
100
AcDbEntity
  8
0
100
AcDbPolyline
 62
253
  6
CONTINUOUS
 90
34
 70
0
 10
-30.3227814748
 20
24.1829713953
 10
-30.3125104082
 20
24.1797257927
 10
-30.3022611254
 20
24.1759983935
 10
-30.2920568436
 20
24.1717976411
 10
-30.281920678
 20
24.1671330513
 10
-30.2718755894
 20
24.1620151904
 10
-30.2619443323
 20
24.1564556517
 10
-30.2521494036
 20
24.1504670288
 10
-30.242512991
 20
24.1440628876
 10
-30.2330569235
 20
24.1372577348
 10
-30.2238026212
 20
24.1300669858
 10
-30.2147710475
 20
24.1225069294
 10
-30.2059826609
 20
24.114594691
 10
-30.1974573695
 20
24.1063481937
 10
-30.1892144849
 20
24.0977861178
 10
-30.1812726794
 20
24.0889278585
 10
-30.173649943
 20
24.0797934819
 10
-30.1663635432
 20
24.0704036795
 10
-30.1594299853
 20
24.0607797217
 10
-30.1528649756
 20
24.0509434089
 10
-30.1466833853
 20
24.0409170228
 10
-30.1408992174
 20
24.0307232756
 10
-30.1355255743
 20
24.0203852586
 10
-30.1305746287
 20
24.0099263899
 10
-30.1260575956
 20
23.9993703614
 10
-30.1219847072
 20
23.9887410851
 10
-30.1183651896
 20
23.9780626388
 10
-30.1152072419
 20
23.9673592119
 10
-30.1125180175
 20
23.9566550501
 10
-30.1103036084
 20
23.945974401
 10
-30.1085690305
 20
23.9353414589
 10
-30.1073182132
 20
23.9247803099
 10
-30.1065539899
 20
23.9143148777
 10
-30.1062780917
 20
23.9039688689
  0
LWPOLYLINE
  5
4C8
100
AcDbEntity
  8
0
100
AcDbPolyline
 62
253
  6
CONTINUOUS
 90
34
 70
0
 10
-15.253939449
 20
19.8329713953
 10
-15.2436852769
 20
19.829731533
 10
-15.2334483852
 20
19.8260097431
 10
-15.2232519494
 20
19.8218138216
 10
-15.2131176578
 20
19.8171519548
 10
-15.2030700245
 20
19.8120346755
 10
-15.1931361901
 20
19.8064754849
 10
-15.183340119
 20
19.8004879074
 10
-15.1737025116
 20
19.7940847103
 10
-15.1642450281
 20
19.7872802705
 10
-15.1549889844
 20
19.7800898839
 10
-15.1459554914
 20
19.7725299095
 10
-15.1371652157
 20
19.7646176295
 10
-15.1286381504
 20
19.7563710532
 10
-15.1203935308
 20
19.7478087961
 10
-15.112449984
 20
19.7389502025
 10
-15.1048254911
 20
19.7298153151
 10
-15.0975373539
 20
19.7204248532
 10
-15.0906021022
 20
19.7108001091
 10
-15.0840354554
 20
19.7009628946
 10
-15.0778522908
 20
19.6909354936
 10
-15.0720666227
 20
19.6807406289
 10
-15.0666915616
 20
19.6704013983
 10
-15.0617392894
 20
19.6599412303
 10
-15.0572210326
 20
19.6493838337
 10
-15.0531470307
 20
19.6387531318
 10
-15.049526515
 20
19.6280732108
 10
-15.0463676912
 20
19.6173682735
 10
-15.0436777163
 20
19.6066625708
 10
-15.0414626878
 20
19.5959803659
 10
-15.0397276278
 20
19.585345882
 10
-15.0384764664
 20
19.5747832216
 10
-15.0377120357
 20
19.5643163118
 10
-15.0374360658
 20
19.5539688689
  0
LWPOLYLINE
  5
4C9
100
AcDbEntity
  8
0
100
AcDbPolyline
 62
253
  6
CONTINUOUS
 90
34
 70
0
 10
-10.8384169661
 20
18.5571008257
 10
-10.8281662286
 20
18.5538579974
 10
-10.8179326044
 20
18.5501333949
 10
-10.8077392612
 20
18.5459348213
 10
-10.7976078814
 20
18.5412704696
 10
-10.7875629704
 20
18.536150879
 10
-10.7776316576
 20
18.5305895552
 10
-10.7678379
 20
18.524600027
 10
-10.7582023941
 20
18.5181950664
 10
-10.7487467948
 20
18.5113890535
 10
-10.7394924132
 20
18.5041972877
 10
-10.7304603567
 20
18.496636131
 10
-10.7216712887
 20
18.4887228684
 10
-10.7131451993
 20
18.4804755113
 10
-10.7049013215
 20
18.4719126768
 10
-10.6969582808
 20
18.4630537105
 10
-10.6893340568
 20
18.4539186557
 10
-10.6820459507
 20
18.4445282318
 10
-10.675110492
 20
18.4349037311
 10
-10.6685434004
 20
18.4250669647
 10
-10.6623595543
 20
18.4150402151
 10
-10.6565729691
 20
18.4048462035
 10
-10.6511967574
 20
18.3945080256
 10
-10.6462431037
 20
18.3840491072
 10
-10.6417232374
 20
18.3734931543
 10
-10.6376474014
 20
18.3628640865
 10
-10.6340248315
 20
18.3521859862
 10
-10.6308637377
 20
18.3414830517
 10
-10.6281712821
 20
18.3307795294
 10
-10.6259535677
 20
18.3200996773
 10
-10.6242156228
 20
18.3094677128
 10
-10.622961384
 20
18.2989077324
 10
-10.6221936902
 20
18.2884436571
 10
-10.6219142791
 20
18.2780991965
  0
LWPOLYLINE
  5
4CA
100
AcDbEntity
  8
0
100
AcDbPolyline
 62
253
  6
CONTINUOUS
 90
34
 70
0
 10
4.2304250598
 20
14.2071008257
 10
4.2406926738
 20
14.2038522566
 10
4.2509386768
 20
14.2001220457
 10
4.261139859
 20
14.1959186429
 10
4.2712731127
 20
14.1912515697
 10
4.2813154837
 20
14.1861313981
 10
4.2912442238
 20
14.1805697265
 10
4.3010368422
 20
14.1745791534
 10
4.3106711564
 20
14.1681732486
 10
4.3201253425
 20
14.161366523
 10
4.3293779847
 20
14.1541743954
 10
4.3384081236
 20
14.1466131575
 10
4.347195304
 20
14.1386999373
 10
4.355719621
 20
14.1304526599
 10
4.363961765
 20
14.1218900073
 10
4.3719030658
 20
14.1130313759
 10
4.3795255345
 20
14.1038968323
 10
4.3868119045
 20
14.0945070684
 10
4.3937456706
 20
14.0848833541
 10
4.4003111263
 20
14.0750474893
 10
4.4064933992
 20
14.0650217545
 10
4.4122784852
 20
14.05482886
 10
4.4176532798
 20
14.0444918952
 10
4.4226056078
 20
14.0340342756
 10
4.4271242512
 20
14.02347969
 10
4.4311989741
 20
14.0128520469
 10
4.4348205464
 20
14.0021754204
 10
4.4379807645
 20
13.9914739953
 10
4.4406724697
 20
13.9807720129
 10
4.4428895647
 20
13.9700937154
 10
4.4446270273
 20
13.9594632916
 10
4.4458809218
 20
13.9489048219
 10
4.4466484078
 20
13.9384422234
 10
4.4469277468
 20
13.9280991965
  0
LWPOLYLINE
  5
4CB
100
AcDbEntity
  8
0
100
AcDbPolyline
 62
7
  6
CONTINUOUS
 90
6
 70
0
 10
-17.3806579046
 20
19.6298379578
 10
-17.411072977
 20
19.6407932745
 10
-17.4406597311
 20
19.6560845191
 10
-17.4681321985
 20
19.6753178188
 10
-17.4928245355
 20
19.6981002306
 10
-17.5142939128
 20
19.7240633928
  0
LWPOLYLINE
  5
4CC
100
AcDbEntity
  8
0
100
AcDbPolyline
 62
7
  6
CONTINUOUS
 90
6
 70
0
 10
-12.9627938261
 20
18.3545104504
 10
-12.9931932957
 20
18.3654589486
 10
-13.022773008
 20
18.3807432693
 10
-13.0502399328
 20
18.3999675321
 10
-13.0749289777
 20
18.4227393739
 10
-13.096397584
 20
18.4486908743
  0
LWPOLYLINE
  5
4CD
100
AcDbEntity
  8
0
100
AcDbPolyline
 62
7
  6
CONTINUOUS
 90
6
 70
0
 10
2.1060481997
 20
14.0045104504
 10
2.0756487302
 20
14.0154589486
 10
2.0460690178
 20
14.0307432693
 10
2.018602093
 20
14.0499675321
 10
1.9939130482
 20
14.0727393739
 10
1.9724444418
 20
14.0986908743
  0
LWPOLYLINE
  5
4CE
100
AcDbEntity
  8
0
100
AcDbPolyline
 62
7
  6
CONTINUOUS
 90
3
 70
0
 10
-28.7463662276
 20
25.5108341595
 10
-28.7147307103
 20
25.4993429764
 10
-28.6846463608
 20
25.4835357512
  0
LWPOLYLINE
  5
4CF
100
AcDbEntity
  8
0
100
AcDbPolyline
 62
253
  6
CONTINUOUS
 90
3
 70
0
 10
-12.9695537531
 20
18.3570348382
 10
-12.9651578365
 20
18.3552603098
 10
-12.9628081673
 20
18.3545145879
  0
LWPOLYLINE
  5
4D0
100
AcDbEntity
  8
0
100
AcDbPolyline
 62
253
  6
CONTINUOUS
 90
3
 70
0
 10
2.0992882727
 20
14.0070348382
 10
2.1036841893
 20
14.0052603098
 10
2.1060338585
 20
14.0045145879
  0
LWPOLYLINE
  5
4D1
100
AcDbEntity
  8
0
100
AcDbPolyline
 62
253
  6
CONTINUOUS
 90
7
 70
0
 10
-9.2782126464
 20
19.842066412
 10
-9.2682349601
 20
19.836547129
 10
-9.2583974849
 20
19.830595403
 10
-9.2487225049
 20
19.8242247159
 10
-9.2392319359
 20
19.8174494988
 10
-9.2299472764
 20
19.810285099
 10
-9.220889558
 20
19.8027477456
  0
LWPOLYLINE
  5
4D2
100
AcDbEntity
  8
0
100
AcDbPolyline
 62
253
  6
CONTINUOUS
 90
13
 70
0
 10
5.8479259381
 20
15.4527706539
 10
5.8567381013
 20
15.4448773924
 10
5.8652827318
 20
15.4366460923
 10
5.8735405549
 20
15.4280953349
 10
5.8814929138
 20
15.4192444383
 10
5.8891218075
 20
15.4101134276
 10
5.8964099243
 20
15.400723013
 10
5.9033407346
 20
15.3910944866
 10
5.9098985291
 20
15.3812496687
 10
5.9160684506
 20
15.37121086
 10
5.921836515
 20
15.361000809
 10
5.9271896519
 20
15.3506426478
 10
5.9321157291
 20
15.3401598473
  0
LWPOLYLINE
  5
4D3
100
AcDbEntity
  8
0
100
AcDbPolyline
 62
7
  6
CONTINUOUS
 90
3
 70
0
 10
5.9224593753
 20
15.4651592012
 10
5.9438838274
 20
15.4384831951
 10
5.9615747901
 20
15.4089169147
  0
LINE
  5
4D4
100
AcDbEntity
  8
0
100
AcDbLine
 62
7
  6
CONTINUOUS
 10
6.4504019534
 20
-25.0463008925
 11
6.4750240689
 21
-24.9995411715
  0
LINE
  5
4D5
100
AcDbEntity
  8
0
100
AcDbLine
 62
253
  6
CONTINUOUS
 10
4.474850391
 20
-26.9501852558
 11
4.1686522762
 21
-27.5149767346
  0
LINE
  5
4D6
100
AcDbEntity
  8
0
100
AcDbLine
 62
253
  6
CONTINUOUS
 10
4.9519661352
 20
-26.7799206326
 11
4.4469277468
 21
-27.711478877
  0
LINE
  5
4D7
100
AcDbEntity
  8
0
100
AcDbLine
 62
7
  6
CONTINUOUS
 10
6.9643847721
 20
-24.1173246827
 11
6.4750240689
 21
-24.9995411715
  0
LWPOLYLINE
  5
4D8
100
AcDbEntity
  8
RACCORDO
100
AcDbPolyline
 62
253
  6
CONTINUOUS
 90
10
 70
0
 10
20.7169922253
 20
-6.200700205
 10
20.8188515633
 20
-6.092983526
 10
20.9109177507
 20
-5.9753561374
 10
20.9926051565
 20
-5.8485329186
 10
21.0634823117
 20
-5.7131915432
 10
21.1231926657
 20
-5.570043302
 10
21.1713467633
 20
-5.4199175002
 10
21.2076750652
 20
-5.2636339509
 10
21.2320346151
 20
-5.1020017983
 10
21.2443208529
 20
-4.9358836672
  0
LWPOLYLINE
  5
4D9
100
AcDbEntity
  8
RACCORDO
100
AcDbPolyline
 62
7
  6
CONTINUOUS
 90
10
 70
0
 10
20.6998147361
 20
-6.216979497
 10
20.7349125756
 20
-6.1835866522
 10
20.8694483579
 20
-6.0427596386
 10
20.9933575537
 20
-5.8915132514
 10
21.106421069
 20
-5.7299326585
 10
21.2076651356
 20
-5.5590490233
 10
21.2958289416
 20
-5.3807335068
 10
21.370568168
 20
-5.19579277
 10
21.431811473
 20
-5.0038943488
 10
21.4495588073
 20
-4.9366979042
  0
LINE
  5
4DA
100
AcDbEntity
  8
RACCORDO
100
AcDbLine
 62
253
  6
CONTINUOUS
 10
0.8121519678
 20
-22.3197821848
 11
0.0890337641
 21
-22.9945957096
  0
LINE
  5
4DB
100
AcDbEntity
  8
RACCORDO
100
AcDbLine
 62
253
  6
CONTINUOUS
 10
6.9643847721
 20
-18.2618920218
 11
21.2443146672
 21
-4.9358894398
  0
LINE
  5
4DC
100
AcDbEntity
  8
RACCORDO
100
AcDbLine
 62
7
  6
CONTINUOUS
 10
6.9643847721
 20
-19.0348782083
 11
20.6995606891
 21
-6.2172193155
  0
LINE
  5
4DD
100
AcDbEntity
  8
RACCORDO
100
AcDbLine
 62
7
  6
CONTINUOUS
 10
20.6995738866
 20
-6.2172069996
 11
20.6998016241
 21
-6.2169944329
  0
LINE
  5
4DE
100
AcDbEntity
  8
RACCORDO
100
AcDbLine
 62
7
  6
CONTINUOUS
 10
0.7310959222
 20
-22.8967382668
 11
0.7295928169
 21
-22.8981346979
  0
LINE
  5
4DF
100
AcDbEntity
  8
0
100
AcDbLine
 62
7
  6
CONTINUOUS
 10
9.1158262643
 20
-17.2420911167
 11
6.9643847721
 21
-19.1052941038
  0
LWPOLYLINE
  5
4E0
100
AcDbEntity
  8
RACCORDO
100
AcDbPolyline
 62
253
  6
CONTINUOUS
 90
16
 70
0
 10
0.2260836579
 20
-22.169162443
 10
0.1972515226
 20
-22.194120372
 10
0.1641361753
 20
-22.2174312621
 10
0.1270924411
 20
-22.2388453414
 10
0.0865172373
 20
-22.2581331616
 10
0.0428453198
 20
-22.2750880572
 10
-0.0034553743
 20
-22.2895283592
 10
-0.0518887414
 20
-22.3012993423
 10
-0.1019358264
 20
-22.3102748826
 10
-0.1530603835
 20
-22.3163588086
 10
-0.2047146223
 20
-22.3194859322
 10
-0.2563450766
 20
-22.3196227468
 10
-0.3073985352
 20
-22.3167677864
 10
-0.3573279694
 20
-22.3109516415
 10
-0.4055983939
 20
-22.3022366311
 10
-0.4516925997
 20
-22.2907161348
  0
LWPOLYLINE
  5
4E1
100
AcDbEntity
  8
RACCORDO
100
AcDbPolyline
 62
253
  6
CONTINUOUS
 90
19
 70
0
 10
0.7295928169
 20
-22.8981346979
 10
0.6957295182
 20
-22.9265667511
 10
0.6605835191
 20
-22.9508828985
 10
0.62430618
 20
-22.9715240253
 10
0.5872698682
 20
-22.988722571
 10
0.5498153638
 20
-23.0027202612
 10
0.5120668458
 20
-23.0138158915
 10
0.4742715477
 20
-23.0222394138
 10
0.4366777054
 20
-23.0282139774
 10
0.3993371241
 20
-23.0319677306
 10
0.36237011
 20
-23.0337063038
 10
0.3259894114
 20
-23.0336230172
 10
0.2903422377
 20
-23.031894293
 10
0.2558615124
 20
-23.0287458717
 10
0.2223449264
 20
-23.0243615447
 10
0.1889393306
 20
-23.0187238867
 10
0.1553911232
 20
-23.0118149474
 10
0.1220709454
 20
-23.0037510176
 10
0.0890337641
 20
-22.9945957096
  0
LINE
  5
4E2
100
AcDbEntity
  8
RACCORDO
100
AcDbLine
 62
253
  6
CONTINUOUS
 10
0.2260966455
 20
-22.169166347
 11
0.7851954462
 21
-21.7203252422
  0
LINE
  5
4E3
100
AcDbEntity
  8
RACCORDO
100
AcDbLine
 62
7
  6
CONTINUOUS
 10
0.0110588697
 20
-22.6785216828
 11
0.7993716647
 21
-22.0456689824
  0
LWPOLYLINE
  5
4E4
100
AcDbEntity
  8
0
100
AcDbPolyline
 62
7
  6
CONTINUOUS
 90
11
 70
0
 10
3.6518784968
 20
19.6074817588
 10
3.6623122125
 20
19.6091986202
 10
3.6731721319
 20
19.6103232814
 10
3.6844919192
 20
19.6108354037
 10
3.6962586275
 20
19.6107297936
 10
3.708473949
 20
19.6099900699
 10
3.7212020418
 20
19.6085733673
 10
3.734455311
 20
19.6064664437
 10
3.7482155803
 20
19.6036518484
 10
3.7625067825
 20
19.600074822
 10
3.7681253635
 20
19.5984955357
  0
LWPOLYLINE
  5
4E5
100
AcDbEntity
  8
0
100
AcDbPolyline
 62
7
  6
CONTINUOUS
 90
37
 70
0
 10
-14.8447822355
 20
18.968349827
 10
-14.8340040917
 20
18.967160893
 10
-14.8236855379
 20
18.9665151433
 10
-14.8132912568
 20
18.9663194779
 10
-14.8028551222
 20
18.9665743337
 10
-14.7923868913
 20
18.9672753493
 10
-14.7819039049
 20
18.9683988086
 10
-14.7714264321
 20
18.9699424044
 10
-14.7609739212
 20
18.9719027375
 10
-14.7505614694
 20
18.9742542867
 10
-14.7402074607
 20
18.976993593
 10
-14.7299294661
 20
18.9801165833
 10
-14.7197404121
 20
18.9835967822
 10
-14.709656741
 20
18.9874298477
 10
-14.6996941786
 20
18.9916111691
 10
-14.6898637274
 20
18.9961139346
 10
-14.6801799146
 20
19.0009331528
 10
-14.6706566816
 20
19.0060637782
 10
-14.66130342
 20
19.0114790468
 10
-14.6521328221
 20
19.0171734968
 10
-14.6431571088
 20
19.0231417338
 10
-14.6343843426
 20
19.0293572499
 10
-14.6258254765
 20
19.0358142418
 10
-14.6174910736
 20
19.0425070432
 10
-14.6093880724
 20
19.0494095061
 10
-14.6015257795
 20
19.0565155741
 10
-14.5939131534
 20
19.0638193829
 10
-14.5865561244
 20
19.0712952104
 10
-14.5794624322
 20
19.0789368085
 10
-14.5726394743
 20
19.0867381881
 10
-14.5660922057
 20
19.0946741343
 10
-14.5598268647
 20
19.1027382525
 10
-14.5538493258
 20
19.1109245044
 10
-14.5481635408
 20
19.1192083112
 10
-14.542773966
 20
19.1275773377
 10
-14.5376853648
 20
19.1360314194
 10
-14.532901526
 20
19.1445642723
  0
LINE
  5
4E6
100
AcDbEntity
  8
0
100
AcDbLine
 62
7
  6
CONTINUOUS
 10
-15.2868203469
 20
19.0281859878
 11
-14.8447822095
 21
18.968349505
  0
LINE
  5
4E7
100
AcDbEntity
  8
0
100
AcDbLine
 62
253
  6
CONTINUOUS
 10
-15.0374360658
 20
19.2128605793
 11
-14.532901526
 21
19.1445642723
  0
LINE
  5
4E8
100
AcDbEntity
  8
0
100
AcDbLine
 62
7
  6
CONTINUOUS
 10
-30.3556623728
 20
23.3781859878
 11
-29.9136242354
 21
23.318349505
  0
LINE
  5
4E9
100
AcDbEntity
  8
0
100
AcDbLine
 62
253
  6
CONTINUOUS
 10
-30.1062780917
 20
23.5628605793
 11
-29.6017435518
 21
23.4945642723
  0
LINE
  5
4EA
100
AcDbEntity
  8
0
100
AcDbLine
 62
7
  6
CONTINUOUS
 10
-10.8712623518
 20
17.7535184876
 11
-10.4287814041
 21
17.6935543868
  0
LINE
  5
4EB
100
AcDbEntity
  8
0
100
AcDbLine
 62
253
  6
CONTINUOUS
 10
-10.6219142791
 20
17.9381252623
 11
-10.1168758907
 21
17.8696835068
  0
LWPOLYLINE
  5
4EC
100
AcDbEntity
  8
0
100
AcDbPolyline
 62
7
  6
CONTINUOUS
 90
10
 70
0
 10
-15.2868203469
 20
19.0281859878
 10
-15.2909090446
 20
19.0287738917
 10
-15.2949927936
 20
19.0294301712
 10
-15.2990699467
 20
19.0301548204
 10
-15.3031397893
 20
19.0309479713
 10
-15.307199626
 20
19.0318093308
 10
-15.3112448782
 20
19.0327380311
 10
-15.3152729323
 20
19.0337334472
 10
-15.3192830392
 20
19.0347953384
 10
-15.322623059
 20
19.0357344693
  0
LWPOLYLINE
  5
4ED
100
AcDbEntity
  8
0
100
AcDbPolyline
 62
7
  6
CONTINUOUS
 90
3
 70
0
 10
-30.3558226849
 20
23.378207754
 10
-30.3783194429
 20
23.3823237636
 10
-30.3912818328
 20
23.3856819699
  0
LWPOLYLINE
  5
4EE
100
AcDbEntity
  8
0
100
AcDbPolyline
 62
253
  6
CONTINUOUS
 90
13
 70
0
 10
3.7357685387
 20
16.1340267369
 10
3.7307178797
 20
16.1350288331
 10
3.7255257237
 20
16.1354875961
 10
3.7202038636
 20
16.1354019972
 10
3.7147643498
 20
16.1347722714
 10
3.7092193509
 20
16.1335998681
 10
3.7035812357
 20
16.1318874169
 10
3.6978618185
 20
16.1296383906
 10
3.6920748062
 20
16.1268580652
 10
3.6862357512
 20
16.1235542357
 10
3.6803586892
 20
16.1197355905
 10
3.6744560218
 20
16.1154109283
 10
3.6685410168
 20
16.110590602
  0
LWPOLYLINE
  5
4EF
100
AcDbEntity
  8
0
100
AcDbPolyline
 62
253
  6
CONTINUOUS
 90
13
 70
0
 10
-15.7498030464
 20
21.7590267369
 10
-15.7548537054
 20
21.7600288331
 10
-15.7600458615
 20
21.7604875961
 10
-15.7653677215
 20
21.7604019972
 10
-15.7708072354
 20
21.7597722714
 10
-15.7763522342
 20
21.7585998681
 10
-15.7819903494
 20
21.7568874169
 10
-15.7877097667
 20
21.7546383906
 10
-15.793496779
 20
21.7518580652
 10
-15.799335834
 20
21.7485542357
 10
-15.8052128959
 20
21.7447355905
 10
-15.8111155634
 20
21.7404109283
 10
-15.8170305683
 20
21.735590602
  0
LWPOLYLINE
  5
4F0
100
AcDbEntity
  8
0
100
AcDbPolyline
 62
7
  6
CONTINUOUS
 90
5
 70
0
 10
-11.3316907009
 20
20.4836503579
 10
-11.3617544524
 20
20.4903537251
 10
-11.3924815121
 20
20.4933118242
 10
-11.4234083728
 20
20.4924543701
 10
-11.4542543218
 20
20.4877263512
  0
LWPOLYLINE
  5
4F1
100
AcDbEntity
  8
0
100
AcDbPolyline
 62
7
  6
CONTINUOUS
 90
5
 70
0
 10
-30.817262286
 20
26.1086503579
 10
-30.8473260375
 20
26.1153537251
 10
-30.8780530973
 20
26.1183118242
 10
-30.9089799579
 20
26.1174543701
 10
-30.939825907
 20
26.1127263512
  0
LINE
  5
4F2
100
AcDbEntity
  8
0
100
AcDbLine
 62
7
  6
CONTINUOUS
 10
3.7095723147
 20
16.1399459088
 11
3.7376171996
 21
16.1335132532
  0
LINE
  5
4F3
100
AcDbEntity
  8
0
100
AcDbLine
 62
7
  6
CONTINUOUS
 10
-15.7759992704
 20
21.7649459088
 11
-15.7479543856
 21
21.7585132532
  0
LWPOLYLINE
  5
4F4
100
AcDbEntity
  8
0
100
AcDbPolyline
 62
253
  6
CONTINUOUS
 90
19
 70
0
 10
-21.8030238803
 20
22.4253442371
 10
-21.8112659149
 20
22.4275279556
 10
-21.8194880994
 20
22.4293152817
 10
-21.8276718022
 20
22.4307021636
 10
-21.8357984844
 20
22.4316854573
 10
-21.843849725
 20
22.4322629317
 10
-21.8518072636
 20
22.4324332764
 10
-21.8596530641
 20
22.4321961063
 10
-21.8673693526
 20
22.4315519595
 10
-21.8749386422
 20
22.4305022966
 10
-21.8823437827
 20
22.4290494966
 10
-21.889567993
 20
22.4271968527
 10
-21.8965948973
 20
22.4249485659
 10
-21.9034085721
 20
22.4223097334
 10
-21.9099935805
 20
22.419286336
 10
-21.9163350017
 20
22.415885227
 10
-21.922418472
 20
22.4121141119
 10
-21.9282302029
 20
22.4079815403
 10
-21.9340914024
 20
22.4032062601
  0
LWPOLYLINE
  5
4F5
100
AcDbEntity
  8
0
100
AcDbPolyline
 62
7
  6
CONTINUOUS
 90
21
 70
0
 10
-2.1669286988
 20
16.9320666059
 10
-2.1744838923
 20
16.9340827329
 10
-2.1820246891
 20
16.9357653108
 10
-2.189536738
 20
16.9371111346
 10
-2.1970057535
 20
16.9381176302
 10
-2.2044175159
 20
16.9387828842
 10
-2.2117578977
 20
16.9391056471
 10
-2.2190129435
 20
16.9390852899
 10
-2.2261688503
 20
16.9387218455
 10
-2.2332119655
 20
16.9380160334
 10
-2.2401289054
 20
16.9369691774
 10
-2.246906517
 20
16.935583259
 10
-2.2535318561
 20
16.9338609544
 10
-2.2599923398
 20
16.9318055175
 10
-2.2662756901
 20
16.9294208447
 10
-2.2723698929
 20
16.9267115227
 10
-2.2782633814
 20
16.9236826803
 10
-2.2839449626
 20
16.9203400616
 10
-2.289403758
 20
16.9166900858
 10
-2.294629415
 20
16.9127396684
 10
-2.2973651131
 20
16.9104719036
  0
LWPOLYLINE
  5
4F6
100
AcDbEntity
  8
0
100
AcDbPolyline
 62
7
  6
CONTINUOUS
 90
21
 70
0
 10
-21.6525002839
 20
22.5570666059
 10
-21.6600554963
 20
22.5590827075
 10
-21.6675963685
 20
22.5607652131
 10
-21.6751085486
 20
22.5621109179
 10
-21.6825777506
 20
22.5631172486
 10
-21.6899897543
 20
22.5637822918
 10
-21.6973304326
 20
22.5641047978
 10
-21.7045858289
 20
22.5640841387
 10
-21.711742139
 20
22.5637203481
 10
-21.7187857112
 20
22.5630141448
 10
-21.7257031596
 20
22.5619668544
 10
-21.7324813298
 20
22.5605804597
 10
-21.7391072783
 20
22.5588576359
 10
-21.74556842
 20
22.5568016391
 10
-21.7518524744
 20
22.5544163674
 10
-21.7579474287
 20
22.5517064064
 10
-21.763841713
 20
22.5486768874
 10
-21.7695241316
 20
22.545333557
 10
-21.7749838075
 20
22.5416828327
 10
-21.7802103844
 20
22.5377316331
 10
-21.7829466485
 20
22.5354633867
  0
LINE
  5
4F7
100
AcDbEntity
  8
0
100
AcDbLine
 62
253
  6
CONTINUOUS
 10
3.737151325
 20
16.1336503579
 11
3.7357685387
 21
16.1340267369
  0
LWPOLYLINE
  5
4F8
100
AcDbEntity
  8
0
100
AcDbPolyline
 62
253
  6
CONTINUOUS
 90
14
 70
0
 10
-9.2607946425
 20
19.8858341595
 10
-9.2621774287
 20
19.8862105385
 10
-9.2672280877
 20
19.8872126347
 10
-9.2724202438
 20
19.8876713977
 10
-9.2777421038
 20
19.8875857988
 10
-9.2831816177
 20
19.886956073
 10
-9.2887266165
 20
19.8857836697
 10
-9.2943647317
 20
19.8840712185
 10
-9.300084149
 20
19.8818221922
 10
-9.3058711613
 20
19.8790418668
 10
-9.3117102163
 20
19.8757380373
 10
-9.3175872782
 20
19.8719193921
 10
-9.3234899457
 20
19.86759473
 10
-9.3294049506
 20
19.8627744036
  0
LWPOLYLINE
  5
4F9
100
AcDbEntity
  8
0
100
AcDbPolyline
 62
253
  6
CONTINUOUS
 90
14
 70
0
 10
-13.6775242018
 20
21.1608341595
 10
-13.678906988
 20
21.1612105385
 10
-13.683957647
 20
21.1622126347
 10
-13.6891498031
 20
21.1626713977
 10
-13.6944716631
 20
21.1625857988
 10
-13.699911177
 20
21.161956073
 10
-13.7054561758
 20
21.1607836697
 10
-13.711094291
 20
21.1590712185
 10
-13.7168137083
 20
21.1568221922
 10
-13.7226007206
 20
21.1540418668
 10
-13.7284397756
 20
21.1507380373
 10
-13.7343168375
 20
21.1469193921
 10
-13.740219505
 20
21.14259473
 10
-13.7461345099
 20
21.1377744036
  0
LINE
  5
4FA
100
AcDbEntity
  8
0
100
AcDbLine
 62
253
  6
CONTINUOUS
 10
-15.7484202602
 20
21.7586503579
 11
-15.7498030464
 21
21.7590267369
  0
LWPOLYLINE
  5
4FB
100
AcDbEntity
  8
0
100
AcDbPolyline
 62
253
  6
CONTINUOUS
 90
14
 70
0
 10
5.8080473834
 20
15.5358341595
 10
5.8066788095
 20
15.5362069
 10
5.8016292487
 20
15.5372104486
 10
5.7964382088
 20
15.5376708121
 10
5.7911173624
 20
15.5375869553
 10
5.7856786737
 20
15.5369590668
 10
5.7801343721
 20
15.5357885585
 10
5.7744969243
 20
15.5340780623
 10
5.7687790066
 20
15.5318314244
 10
5.7629934762
 20
15.5290536965
 10
5.7571533422
 20
15.5257511247
 10
5.7512717366
 20
15.5219311348
 10
5.7453618847
 20
15.5176023166
 10
5.7394370753
 20
15.5127744036
  0
LWPOLYLINE
  5
4FC
100
AcDbEntity
  8
0
100
AcDbPolyline
 62
253
  6
CONTINUOUS
 90
14
 70
0
 10
-11.3316907009
 20
20.4836503579
 10
-11.3330592747
 20
20.4840230984
 10
-11.3381088356
 20
20.485026647
 10
-11.3432998755
 20
20.4854870105
 10
-11.3486207219
 20
20.4854031537
 10
-11.3540594106
 20
20.4847752652
 10
-11.3596037122
 20
20.4836047569
 10
-11.3652411599
 20
20.4818942607
 10
-11.3709590776
 20
20.4796476228
 10
-11.3767446081
 20
20.4768698949
 10
-11.3825847421
 20
20.473567323
 10
-11.3884663476
 20
20.4697473332
 10
-11.3943761995
 20
20.465418515
 10
-11.400301009
 20
20.460590602
  0
LWPOLYLINE
  5
4FD
100
AcDbEntity
  8
0
100
AcDbPolyline
 62
253
  6
CONTINUOUS
 90
14
 70
0
 10
-28.7463662276
 20
25.5108341595
 10
-28.7477348015
 20
25.5112069
 10
-28.7527843623
 20
25.5122104486
 10
-28.7579754022
 20
25.5126708121
 10
-28.7632962486
 20
25.5125869553
 10
-28.7687349373
 20
25.5119590668
 10
-28.7742792389
 20
25.5107885585
 10
-28.7799166867
 20
25.5090780623
 10
-28.7856346044
 20
25.5068314244
 10
-28.7914201348
 20
25.5040536965
 10
-28.7972602688
 20
25.5007511247
 10
-28.8031418744
 20
25.4969311348
 10
-28.8090517263
 20
25.4926023166
 10
-28.8149765357
 20
25.4877744036
  0
LWPOLYLINE
  5
4FE
100
AcDbEntity
  8
0
100
AcDbPolyline
 62
253
  6
CONTINUOUS
 90
14
 70
0
 10
-30.817262286
 20
26.1086503579
 10
-30.8186308599
 20
26.1090230984
 10
-30.8236804207
 20
26.110026647
 10
-30.8288714606
 20
26.1104870105
 10
-30.8341923071
 20
26.1104031537
 10
-30.8396309957
 20
26.1097752652
 10
-30.8451752973
 20
26.1086047569
 10
-30.8508127451
 20
26.1068942607
 10
-30.8565306628
 20
26.1046476228
 10
-30.8623161932
 20
26.1018698949
 10
-30.8681563272
 20
26.098567323
 10
-30.8740379328
 20
26.0947473332
 10
-30.8799477847
 20
26.090418515
 10
-30.8858725942
 20
26.085590602
  0
LINE
  5
4FF
100
AcDbEntity
  8
0
100
AcDbLine
 62
7
  6
CONTINUOUS
 10
5.3674959781
 20
15.1900782501
 11
3.2890276811
 21
15.7900803655
  0
LINE
  5
500
100
AcDbEntity
  8
0
100
AcDbLine
 62
7
  6
CONTINUOUS
 10
-9.7013460477
 20
19.5400782501
 11
-11.7798143447
 21
20.1400803655
  0
LINE
  5
501
100
AcDbEntity
  8
0
100
AcDbLine
 62
7
  6
CONTINUOUS
 10
-14.118075607
 20
20.8150782501
 11
-16.196543904
 21
21.4150803655
  0
LINE
  5
502
100
AcDbEntity
  8
0
100
AcDbLine
 62
7
  6
CONTINUOUS
 10
-29.1869176329
 20
25.1650782501
 11
-31.2653859299
 21
25.7650803655
  0
LINE
  5
503
100
AcDbEntity
  8
0
100
AcDbLine
 62
7
  6
CONTINUOUS
 10
-25.2228196817
 20
24.1600409194
 11
-23.230961253
 21
23.5850409194
  0
LINE
  5
504
100
AcDbEntity
  8
0
100
AcDbLine
 62
7
  6
CONTINUOUS
 10
-21.1525002839
 20
22.9850409194
 11
-19.1606418552
 21
22.4100409194
  0
LINE
  5
505
100
AcDbEntity
  8
0
100
AcDbLine
 62
7
  6
CONTINUOUS
 10
-5.7372480965
 20
18.5350409194
 11
-3.7453896678
 21
17.9600409194
  0
LINE
  5
506
100
AcDbEntity
  8
0
100
AcDbLine
 62
7
  6
CONTINUOUS
 10
-1.6669286988
 20
17.3600409194
 11
0.32492973
 21
16.7850409194
  0
LINE
  5
507
100
AcDbEntity
  8
0
100
AcDbLine
 62
253
  6
CONTINUOUS
 10
-30.8858725942
 20
26.085590602
 11
-28.8149765357
 21
25.4877744036
  0
LINE
  5
508
100
AcDbEntity
  8
0
100
AcDbLine
 62
253
  6
CONTINUOUS
 10
-15.8170305683
 20
21.735590602
 11
-13.7461345099
 21
21.1377744036
  0
LINE
  5
509
100
AcDbEntity
  8
0
100
AcDbLine
 62
253
  6
CONTINUOUS
 10
-11.400301009
 20
20.460590602
 11
-9.3294049506
 21
19.8627744036
  0
LINE
  5
50A
100
AcDbEntity
  8
0
100
AcDbLine
 62
253
  6
CONTINUOUS
 10
3.6685410168
 20
16.110590602
 11
5.7394370753
 21
15.5127744036
  0
LINE
  5
50B
100
AcDbEntity
  8
0
100
AcDbLine
 62
7
  6
CONTINUOUS
 10
-30.817262286
 20
26.1086503579
 11
-28.7463662276
 21
25.5108341595
  0
LINE
  5
50C
100
AcDbEntity
  8
0
100
AcDbLine
 62
7
  6
CONTINUOUS
 10
-15.7484202602
 20
21.7586503579
 11
-13.6775242018
 21
21.1608341595
  0
LINE
  5
50D
100
AcDbEntity
  8
0
100
AcDbLine
 62
7
  6
CONTINUOUS
 10
-11.3316907009
 20
20.4836503579
 11
-9.2607946425
 21
19.8858341595
  0
LINE
  5
50E
100
AcDbEntity
  8
0
100
AcDbLine
 62
7
  6
CONTINUOUS
 10
3.737151325
 20
16.1336503579
 11
5.8080473834
 21
15.5358341595
  0
LINE
  5
50F
100
AcDbEntity
  8
0
100
AcDbLine
 62
7
  6
CONTINUOUS
 10
-20.5261718186
 20
25.7406372412
 11
-16.5952558529
 21
24.6058795458
  0
LINE
  5
510
100
AcDbEntity
  8
0
100
AcDbLine
 62
7
  6
CONTINUOUS
 10
-1.0406002334
 20
20.1156372412
 11
2.8903157323
 21
18.9808795458
  0
LWPOLYLINE
  5
511
100
AcDbEntity
  8
0
100
AcDbPolyline
 62
253
  6
CONTINUOUS
 90
6
 70
0
 10
-28.8149765357
 20
25.4877744036
 10
-28.8046583531
 20
25.4845899846
 10
-28.794360693
 20
25.4809208389
 10
-28.7841068724
 20
25.4767746401
 10
-28.7739187074
 20
25.4721594659
 10
-28.7638208457
 20
25.4670857319
  0
LWPOLYLINE
  5
512
100
AcDbEntity
  8
0
100
AcDbPolyline
 62
253
  6
CONTINUOUS
 90
6
 70
0
 10
5.7394370753
 20
15.5127744036
 10
5.7497552579
 20
15.5095899846
 10
5.760052918
 20
15.5059208389
 10
5.7703067386
 20
15.5017746401
 10
5.7804949036
 20
15.4971594659
 10
5.7905927653
 20
15.4920857319
  0
LWPOLYLINE
  5
513
100
AcDbEntity
  8
0
100
AcDbPolyline
 62
253
  6
CONTINUOUS
 90
6
 70
0
 10
-13.7461345099
 20
21.1377744036
 10
-13.7357993423
 20
21.1345843376
 10
-13.7254892335
 20
21.1309096441
 10
-13.7152275381
 20
21.1267586471
 10
-13.7050375013
 20
21.1221407495
 10
-13.6949422057
 20
21.117066412
  0
LWPOLYLINE
  5
514
100
AcDbEntity
  8
0
100
AcDbPolyline
 62
253
  6
CONTINUOUS
 90
6
 70
0
 10
-9.3294049506
 20
19.8627744036
 10
-9.319069783
 20
19.8595843376
 10
-9.3087596742
 20
19.8559096441
 10
-9.2984979788
 20
19.8517586471
 10
-9.288307942
 20
19.8471407495
 10
-9.2782126464
 20
19.842066412
  0
LWPOLYLINE
  5
515
100
AcDbEntity
  8
0
100
AcDbPolyline
 62
7
  6
CONTINUOUS
 90
34
 70
0
 10
-9.7013460477
 20
19.5400782501
 10
-9.6910445427
 20
19.5368591147
 10
-9.6807662349
 20
19.5331569549
 10
-9.6705344787
 20
19.5289800923
 10
-9.6603725774
 20
19.5243378753
 10
-9.6503035552
 20
19.5192408136
 10
-9.6403501047
 20
19.5137005546
 10
-9.6305348138
 20
19.50772961
 10
-9.6208799814
 20
19.5013414482
 10
-9.6114073908
 20
19.4945506191
 10
-9.6021385262
 20
19.4873724811
 10
-9.5930944352
 20
19.4798232494
 10
-9.5842955479
 20
19.4719200805
 10
-9.5757618069
 20
19.4636808669
 10
-9.5675125802
 20
19.4551242406
 10
-9.5595665275
 20
19.4462696153
 10
-9.551941644
 20
19.437137053
 10
-9.5446552228
 20
19.4277472233
 10
-9.5377237735
 20
19.4181214013
 10
-9.5311629765
 20
19.4082814103
 10
-9.5249876985
 20
19.3982495359
 10
-9.5192119615
 20
19.3880484811
 10
-9.5138488124
 20
19.3777013857
 10
-9.5089103881
 20
19.3672316977
 10
-9.5044079379
 20
19.3566630847
 10
-9.500351609
 20
19.3460195317
 10
-9.496750562
 20
19.3353251713
 10
-9.4936130443
 20
19.3246041534
 10
-9.4909460969
 20
19.3138808196
 10
-9.4887557177
 20
19.3031794956
 10
-9.4870469848
 20
19.2925243214
 10
-9.4858237618
 20
19.2819394372
 10
-9.4850886902
 20
19.2714489288
 10
-9.4848433607
 20
19.2610766209
  0
LWPOLYLINE
  5
516
100
AcDbEntity
  8
0
100
AcDbPolyline
 62
7
  6
CONTINUOUS
 90
34
 70
0
 10
5.3674959781
 20
15.1900782501
 10
5.3777974832
 20
15.1868591147
 10
5.388075791
 20
15.1831569549
 10
5.3983075472
 20
15.1789800923
 10
5.4084694484
 20
15.1743378753
 10
5.4185384706
 20
15.1692408136
 10
5.4284919211
 20
15.1637005546
 10
5.438307212
 20
15.15772961
 10
5.4479620444
 20
15.1513414482
 10
5.457434635
 20
15.1445506191
 10
5.4667034997
 20
15.1373724811
 10
5.4757475906
 20
15.1298232494
 10
5.4845464779
 20
15.1219200805
 10
5.4930802189
 20
15.1136808669
 10
5.5013294457
 20
15.1051242406
 10
5.5092754983
 20
15.0962696153
 10
5.5169003819
 20
15.087137053
 10
5.524186803
 20
15.0777472233
 10
5.5311182523
 20
15.0681214013
 10
5.5376790493
 20
15.0582814103
 10
5.5438543274
 20
15.0482495359
 10
5.5496300643
 20
15.0380484811
 10
5.5549932135
 20
15.0277013857
 10
5.5599316378
 20
15.0172316977
 10
5.5644340879
 20
15.0066630847
 10
5.5684904168
 20
14.9960195317
 10
5.5720914638
 20
14.9853251713
 10
5.5752289816
 20
14.9746041534
 10
5.5778959289
 20
14.9638808196
 10
5.5800863081
 20
14.9531794956
 10
5.5817950411
 20
14.9425243214
 10
5.5830182641
 20
14.9319394372
 10
5.5837533357
 20
14.9214489288
 10
5.5839986651
 20
14.9110766209
  0
LWPOLYLINE
  5
517
100
AcDbEntity
  8
0
100
AcDbPolyline
 62
7
  6
CONTINUOUS
 90
3
 70
0
 10
5.8080473834
 20
15.5358341595
 10
5.8396829007
 20
15.5243429764
 10
5.8697672502
 20
15.5085357512
  0
LWPOLYLINE
  5
518
100
AcDbEntity
  8
0
100
AcDbPolyline
 62
253
  6
CONTINUOUS
 90
7
 70
0
 10
5.7905927653
 20
15.4920857319
 10
5.800573049
 20
15.4865668182
 10
5.8104116805
 20
15.4806161519
 10
5.820087869
 20
15.4742464235
 10
5.8295798683
 20
15.4674719339
 10
5.8388662849
 20
15.4603079113
 10
5.8479259381
 20
15.4527706539
  0
LWPOLYLINE
  5
519
100
AcDbEntity
  8
0
100
AcDbPolyline
 62
7
  6
CONTINUOUS
 90
3
 70
0
 10
5.8697672502
 20
15.5085357512
 10
5.8975989874
 20
15.4886555159
 10
5.9224593753
 20
15.4651592012
  0
LWPOLYLINE
  5
51A
100
AcDbEntity
  8
RACCORDO
100
AcDbPolyline
 62
253
  6
CONTINUOUS
 90
7
 70
0
 10
24.2323590741
 20
23.3004627616
 10
24.2263694732
 20
23.2202764019
 10
24.2045685628
 20
23.12817892
 10
24.1669730589
 20
23.0373636655
 10
24.1138627669
 20
22.9485065332
 10
24.0456329615
 20
22.8622688441
 10
23.9627914444
 20
22.7792924244
  0
LWPOLYLINE
  5
51B
100
AcDbEntity
  8
RACCORDO
100
AcDbPolyline
 62
7
  6
CONTINUOUS
 90
3
 70
0
 10
25.0125784321
 20
15.2457312646
 10
25.0248739194
 20
15.3600399993
 10
25.0283321058
 20
15.462382845
  0
LWPOLYLINE
  5
51C
100
AcDbEntity
  8
RACCORDO
100
AcDbPolyline
 62
253
  6
CONTINUOUS
 90
5
 70
0
 10
25.0283475681
 20
19.7323053769
 10
25.0248817966
 20
19.7029214604
 10
25.0131415181
 20
19.6711199737
 10
24.9932893329
 20
19.6403422907
 10
24.9656574216
 20
19.6111034048
  0
LWPOLYLINE
  5
51D
100
AcDbEntity
  8
RACCORDO
100
AcDbPolyline
 62
253
  6
CONTINUOUS
 90
5
 70
0
 10
25.0283475441
 20
15.4623828267
 10
25.0248820908
 20
15.4330771625
 10
25.0131419605
 20
15.4012753102
 10
24.9932896909
 20
15.3704972043
 10
24.9656574217
 20
15.3412578668
  0
LINE
  5
51E
100
AcDbEntity
  8
RACCORDO
100
AcDbLine
 62
253
  6
CONTINUOUS
 10
21.2443146672
 20
-4.9358894398
 11
23.9627914444
 21
5.9259222314
  0
LINE
  5
51F
100
AcDbEntity
  8
RACCORDO
100
AcDbLine
 62
7
  6
CONTINUOUS
 10
21.4495589545
 20
-4.9366892892
 11
24.1680287573
 21
5.9250945151
  0
LWPOLYLINE
  5
520
100
AcDbEntity
  8
0
100
AcDbPolyline
 62
253
  6
CONTINUOUS
 90
3
 70
0
 10
5.9160684506
 20
-26.8746500156
 10
5.9098985291
 20
-26.8811105397
 10
5.9047036751
 20
-26.8859638783
  0
LWPOLYLINE
  5
521
100
AcDbEntity
  8
0
100
AcDbPolyline
 62
253
  6
CONTINUOUS
 90
40
 70
0
 10
2.8774311982
 20
-27.6165421728
 10
2.8669505288
 20
-27.6274503156
 10
2.8558065131
 20
-27.6381368671
 10
2.8440168316
 20
-27.6485848724
 10
2.8316001893
 20
-27.6587777552
 10
2.8185762861
 20
-27.6686993437
 10
2.8049657851
 20
-27.6783338967
 10
2.7907902803
 20
-27.6876661284
 10
2.7760722619
 20
-27.6966812327
 10
2.7608350809
 20
-27.7053649064
 10
2.7451029122
 20
-27.7137033723
 10
2.7289007158
 20
-27.7216834011
 10
2.7122541973
 20
-27.7292923318
 10
2.6951897677
 20
-27.7365180923
 10
2.6777345006
 20
-27.7433492186
 10
2.6599160899
 20
-27.7497748726
 10
2.6417628057
 20
-27.7557848596
 10
2.6233034492
 20
-27.7613696444
 10
2.6045673074
 20
-27.7665203663
 10
2.5855841063
 20
-27.7712288535
 10
2.566383964
 20
-27.7754876355
 10
2.5469973427
 20
-27.7792899555
 10
2.5274550004
 20
-27.782629781
 10
2.5077879425
 20
-27.785501813
 10
2.4880273717
 20
-27.7879014949
 10
2.4682046397
 20
-27.7898250194
 10
2.4483511963
 20
-27.7912693347
 10
2.4284985402
 20
-27.7922321494
 10
2.4086781691
 20
-27.7927119358
 10
2.3889215291
 20
-27.7927079328
 10
2.3692599655
 20
-27.7922201466
 10
2.3497246724
 20
-27.7912493512
 10
2.330346644
 20
-27.7897970868
 10
2.3111566246
 20
-27.7878656575
 10
2.2921850604
 20
-27.7854581275
 10
2.2734620511
 20
-27.7825783167
 10
2.2550173018
 20
-27.779230794
 10
2.2368800764
 20
-27.7754208705
 10
2.2190791506
 20
-27.7711545908
 10
2.2016427668
 20
-27.7664387236
  0
LWPOLYLINE
  5
522
100
AcDbEntity
  8
0
100
AcDbPolyline
 62
7
  6
CONTINUOUS
 90
14
 70
0
 10
9.5340580283
 20
-18.6856917708
 10
9.5433842746
 20
-18.6768649148
 10
9.5519767649
 20
-18.6678886832
 10
9.5598354992
 20
-18.6587630762
 10
9.5669706043
 20
-18.6494731609
 10
9.5733719535
 20
-18.6400338701
 10
9.5790091663
 20
-18.6304900021
 10
9.5838786104
 20
-18.6208410599
 10
9.587983918
 20
-18.6110875404
 10
9.5913056058
 20
-18.6012757335
 10
9.5938399486
 20
-18.5914053619
 10
9.5955906715
 20
-18.5814767029
 10
9.5965494656
 20
-18.5715368771
 10
9.5967469327
 20
-18.5644893659
  0
LINE
  5
523
100
AcDbEntity
  8
0
100
AcDbLine
 62
7
  6
CONTINUOUS
 10
9.5340580283
 20
-18.6856917708
 11
6.9643847721
 21
-21.0035984057
  0
LINE
  5
524
100
AcDbEntity
  8
0
100
AcDbLine
 62
253
  6
CONTINUOUS
 10
6.4504019534
 20
-25.3061231694
 11
6.9428442642
 21
-24.8658903621
  0
LINE
  5
525
100
AcDbEntity
  8
0
100
AcDbLine
 62
7
  6
CONTINUOUS
 10
6.3480524522
 20
-25.5561467435
 11
6.8404898885
 21
-25.115918294
  0
LWPOLYLINE
  5
526
100
AcDbEntity
  8
0
100
AcDbPolyline
 62
7
  6
CONTINUOUS
 90
4
 70
0
 10
6.3474170835
 20
-25.5554362234
 10
6.3444299862
 20
-25.558083598
 10
6.3336687531
 20
-25.5670232958
 10
6.3272592999
 20
-25.5719363193
  0
LINE
  5
527
100
AcDbEntity
  8
0
100
AcDbLine
 62
7
  6
CONTINUOUS
 10
9.5340580283
 20
-19.277559944
 11
6.9643847721
 21
-21.5153554916
  0
LINE
  5
528
100
AcDbEntity
  8
0
100
AcDbLine
 62
7
  6
CONTINUOUS
 10
9.1158262643
 20
-18.2813216013
 11
6.9643847721
 21
-20.1445245883
  0
LINE
  5
529
100
AcDbEntity
  8
0
100
AcDbLine
 62
7
  6
CONTINUOUS
 10
-1.0406002334
 20
20.1156372412
 11
0.1957646054
 21
20.4069377365
  0
LWPOLYLINE
  5
52A
100
AcDbEntity
  8
0
100
AcDbPolyline
 62
7
  6
CONTINUOUS
 90
11
 70
0
 10
-3.193527281
 20
21.5842844301
 10
-3.1830826295
 20
21.5859107258
 10
-3.1722142467
 20
21.5869491093
 10
-3.160886467
 20
21.5873783111
 10
-3.1491103782
 20
21.5871929779
 10
-3.1368853138
 20
21.5863766257
 10
-3.1241496437
 20
21.5848855964
 10
-3.1108911264
 20
21.5827062457
 10
-3.0971276944
 20
21.5798215761
 10
-3.0828378197
 20
21.5761776023
 10
-3.0787451038
 20
21.5750175975
  0
LWPOLYLINE
  5
52B
100
AcDbEntity
  8
0
100
AcDbPolyline
 62
7
  6
CONTINUOUS
 90
19
 70
0
 10
-0.0268854032
 20
21.3988719016
 10
-0.0386019043
 20
21.4018453271
 10
-0.0525766511
 20
21.4043761045
 10
-0.0667957003
 20
21.4058785814
 10
-0.0812497827
 20
21.4063491028
 10
-0.0959481676
 20
21.4057913235
 10
-0.1108605216
 20
21.4042062841
 10
-0.1259986241
 20
21.401589196
 10
-0.1413506956
 20
21.3979448477
 10
-0.1568510645
 20
21.3932886446
 10
-0.1724895226
 20
21.3876206479
 10
-0.1882762781
 20
21.3809407965
 10
-0.2041762833
 20
21.3732643125
 10
-0.2201985203
 20
21.3645841711
 10
-0.2363340071
 20
21.3549073971
 10
-0.2525207507
 20
21.3442702881
 10
-0.2687380867
 20
21.3326849431
 10
-0.2850066795
 20
21.320139263
 10
-0.301326529
 20
21.3066332478
  0
LWPOLYLINE
  5
52C
100
AcDbEntity
  8
0
100
AcDbPolyline
 62
7
  6
CONTINUOUS
 90
19
 70
0
 10
-19.5124569883
 20
27.0238719016
 10
-19.5241734895
 20
27.0268453271
 10
-19.5381482362
 20
27.0293761045
 10
-19.5523672855
 20
27.0308785814
 10
-19.5668213679
 20
27.0313491028
 10
-19.5815197528
 20
27.0307913235
 10
-19.5964321067
 20
27.0292062841
 10
-19.6115702092
 20
27.026589196
 10
-19.6269222808
 20
27.0229448477
 10
-19.6424226497
 20
27.0182886446
 10
-19.6580611078
 20
27.0126206479
 10
-19.6738478632
 20
27.0059407965
 10
-19.6897478685
 20
26.9982643125
 10
-19.7057701055
 20
26.9895841711
 10
-19.7219055923
 20
26.9799073971
 10
-19.7380923359
 20
26.9692702881
 10
-19.7543096719
 20
26.9576849431
 10
-19.7705782646
 20
26.945139263
 10
-19.7868981141
 20
26.9316332478
  0
LINE
  5
52D
100
AcDbEntity
  8
0
100
AcDbLine
 62
7
  6
CONTINUOUS
 10
-19.2898069798
 20
26.0319377365
 11
-16.0289489988
 21
25.09060912
  0
LINE
  5
52E
100
AcDbEntity
  8
0
100
AcDbLine
 62
7
  6
CONTINUOUS
 10
0.1957646054
 20
20.4069377365
 11
3.4566225864
 21
19.46560912
  0
LINE
  5
52F
100
AcDbEntity
  8
0
100
AcDbLine
 62
253
  6
CONTINUOUS
 10
-22.7562868134
 20
27.1697062151
 11
-21.9713652489
 21
26.9431188768
  0
LINE
  5
530
100
AcDbEntity
  8
0
100
AcDbLine
 62
253
  6
CONTINUOUS
 10
-15.9091874224
 20
25.1931188768
 11
-15.1242658578
 21
24.9665315386
  0
LINE
  5
531
100
AcDbEntity
  8
0
100
AcDbLine
 62
253
  6
CONTINUOUS
 10
-3.2707152282
 20
21.5447062151
 11
-2.4857936637
 21
21.3181188768
  0
LINE
  5
532
100
AcDbEntity
  8
0
100
AcDbLine
 62
253
  6
CONTINUOUS
 10
3.5763841628
 20
19.5681188768
 11
4.3613057273
 21
19.3415315386
  0
LINE
  5
533
100
AcDbEntity
  8
0
100
AcDbLine
 62
7
  6
CONTINUOUS
 10
-22.5643152517
 20
27.2000204903
 11
-21.8886670052
 21
27.0049776417
  0
LINE
  5
534
100
AcDbEntity
  8
0
100
AcDbLine
 62
7
  6
CONTINUOUS
 10
-15.7174444336
 20
25.2234991353
 11
-15.0417961871
 21
25.0284562868
  0
LINE
  5
535
100
AcDbEntity
  8
0
100
AcDbLine
 62
7
  6
CONTINUOUS
 10
-3.0787436666
 20
21.5750204903
 11
-2.40309542
 21
21.3799776417
  0
LINE
  5
536
100
AcDbEntity
  8
0
100
AcDbLine
 62
7
  6
CONTINUOUS
 10
3.7681271515
 20
19.5984991353
 11
4.4437753981
 21
19.4034562868
  0
LINE
  5
537
100
AcDbEntity
  8
0
100
AcDbLine
 62
253
  6
CONTINUOUS
 10
-23.5229576647
 20
28.0101407414
 11
-19.7868981141
 21
26.9316332478
  0
LINE
  5
538
100
AcDbEntity
  8
0
100
AcDbLine
 62
253
  6
CONTINUOUS
 10
-14.5907456914
 20
25.4316332478
 11
-10.8546861408
 21
24.3531257541
  0
LINE
  5
539
100
AcDbEntity
  8
0
100
AcDbLine
 62
253
  6
CONTINUOUS
 10
-4.0373860796
 20
22.3851407414
 11
-0.301326529
 21
21.3066332478
  0
LINE
  5
53A
100
AcDbEntity
  8
0
100
AcDbLine
 62
253
  6
CONTINUOUS
 10
4.8948258937
 20
19.8066332478
 11
8.6308854443
 21
18.7281257541
  0
LINE
  5
53B
100
AcDbEntity
  8
0
100
AcDbLine
 62
7
  6
CONTINUOUS
 10
-23.3939504881
 20
28.1443629604
 11
-19.5124568817
 21
27.0238722711
  0
LINE
  5
53C
100
AcDbEntity
  8
0
100
AcDbLine
 62
7
  6
CONTINUOUS
 10
-14.316304459
 20
25.5238722711
 11
-10.5802449084
 21
24.4453647775
  0
LINE
  5
53D
100
AcDbEntity
  8
0
100
AcDbLine
 62
7
  6
CONTINUOUS
 10
-3.9083789029
 20
22.5193629604
 11
-0.0268852965
 21
21.3988722711
  0
LINE
  5
53E
100
AcDbEntity
  8
0
100
AcDbLine
 62
7
  6
CONTINUOUS
 10
5.1692671262
 20
19.8988722711
 11
8.9053266768
 21
18.8203647775
  0
LWPOLYLINE
  5
53F
100
AcDbEntity
  8
RACCORDO
100
AcDbPolyline
 62
7
  6
CONTINUOUS
 90
19
 70
0
 10
24.2323373895
 20
23.3011743896
 10
24.2321203749
 20
23.3327901755
 10
24.2215401847
 20
23.5307281175
 10
24.1950685904
 20
23.7279701797
 10
24.1524966718
 20
23.9243301643
 10
24.0939792446
 20
24.1180940532
 10
24.0203363689
 20
24.3064440944
 10
23.9313841544
 20
24.4898172088
 10
23.8273148702
 20
24.6671976927
 10
23.7103628354
 20
24.8347370556
 10
23.5805401287
 20
24.9928182671
 10
23.4376672614
 20
25.1412906574
 10
23.2850949326
 20
25.2767805077
 10
23.1234195899
 20
25.3991694266
 10
22.9521739457
 20
25.5087736595
 10
22.7744163057
 20
25.6036901043
 10
22.591786868
 20
25.6833864266
 10
22.4039717997
 20
25.7482746694
 10
22.3759580091
 20
25.7565490135
  0
LWPOLYLINE
  5
540
100
AcDbEntity
  8
RACCORDO
100
AcDbPolyline
 62
7
  6
CONTINUOUS
 90
14
 70
0
 10
25.0283284183
 20
19.7323053959
 10
25.0282159672
 20
19.750935001
 10
25.0200399451
 20
19.8936302646
 10
24.999011394
 20
20.0371906799
 10
24.9653120831
 20
20.1808755168
 10
24.9191928571
 20
20.3235760073
 10
24.8611594097
 20
20.4637614272
 10
24.7916560212
 20
20.6005788318
 10
24.7111082188
 20
20.7330420104
 10
24.6205211693
 20
20.8595143771
 10
24.5205681738
 20
20.9791834505
 10
24.4118703489
 20
21.0911837307
 10
24.295830729
 20
21.1941252676
 10
24.2323590741
 20
21.2424029819
  0
LINE
  5
541
100
AcDbEntity
  8
RACCORDO
100
AcDbLine
 62
253
  6
CONTINUOUS
 10
23.9627914444
 20
5.9259222314
 11
23.9627914444
 21
22.7792924244
  0
LINE
  5
542
100
AcDbEntity
  8
RACCORDO
100
AcDbLine
 62
7
  6
CONTINUOUS
 10
24.232358603
 20
23.3011744004
 11
24.2323590741
 21
6.4470925732
  0
LINE
  5
543
100
AcDbEntity
  8
RACCORDO
100
AcDbLine
 62
253
  6
CONTINUOUS
 10
24.9656574216
 20
19.6111034048
 11
24.9656574216
 21
15.3412578647
  0
LINE
  5
544
100
AcDbEntity
  8
RACCORDO
100
AcDbLine
 62
7
  6
CONTINUOUS
 10
25.0283475681
 20
19.7323058096
 11
25.0283475681
 21
15.462460268
  0
LWPOLYLINE
  5
545
100
AcDbEntity
  8
RACCORDO
100
AcDbPolyline
 62
7
  6
CONTINUOUS
 90
6
 70
0
 10
24.2323590515
 20
6.4472484247
 10
24.2302974609
 20
6.3529613534
 10
24.2206149621
 20
6.2226783355
 10
24.203023171
 20
6.0931380852
 10
24.1775514427
 20
5.9647348858
 10
24.1680271154
 20
5.9250879696
  0
LWPOLYLINE
  5
546
100
AcDbEntity
  8
RACCORDO
100
AcDbPolyline
 62
253
  6
CONTINUOUS
 90
9
 70
0
 10
24.9656574216
 20
15.3412578647
 10
24.9626142411
 20
15.2438656944
 10
24.9526075702
 20
15.1461960303
 10
24.9351096202
 20
15.0489254269
 10
24.9095151031
 20
14.9524684095
 10
24.8754207821
 20
14.8579972879
 10
24.8329008156
 20
14.767281326
 10
24.7818512492
 20
14.6810868766
 10
24.722222128
 20
14.6001816575
  0
LWPOLYLINE
  5
547
100
AcDbEntity
  8
RACCORDO
100
AcDbPolyline
 62
253
  6
CONTINUOUS
 90
5
 70
0
 10
24.2323590741
 20
6.4470925732
 10
24.2263707583
 20
6.3669148052
 10
24.2045708625
 20
6.2748158153
 10
24.166975866
 20
6.183999039
 10
24.1138652704
 20
6.0951399576
  0
LWPOLYLINE
  5
548
100
AcDbEntity
  8
0
100
AcDbPolyline
 62
7
  6
CONTINUOUS
 90
7
 70
0
 10
5.9044652553
 20
-26.8861751023
 10
5.9177941871
 20
-26.8734637816
 10
5.9391214977
 20
-26.8484747122
 10
5.9570259429
 20
-26.820836932
 10
5.9712114466
 20
-26.7909111065
 10
5.9813663395
 20
-26.7591736639
 10
5.9872266365
 20
-26.7262166083
  0
LINE
  5
549
100
AcDbEntity
  8
0
100
AcDbLine
 62
253
  6
CONTINUOUS
 10
5.5839986651
 20
-27.0911627906
 11
5.9559397622
 21
-26.7608943985
  0
LINE
  5
54A
100
AcDbEntity
  8
0
100
AcDbLine
 62
7
  6
CONTINUOUS
 10
5.5324677431
 20
-27.2164940717
 11
5.9047036751
 21
-26.8859638783
  0
LINE
  5
54B
100
AcDbEntity
  8
0
100
AcDbLine
 62
7
  6
CONTINUOUS
 10
5.5324677416
 20
-27.216494073
 11
5.5298301142
 21
-27.218778287
  0
LINE
  5
54C
100
AcDbEntity
  8
0
100
AcDbLine
 62
253
  6
CONTINUOUS
 10
4.4469277468
 20
-28.0514528112
 11
5.5839986651
 21
-27.0911627906
  0
LINE
  5
54D
100
AcDbEntity
  8
0
100
AcDbLine
 62
7
  6
CONTINUOUS
 10
4.3924569722
 20
-28.1793235445
 11
5.529830112
 21
-27.2187782889
  0
LINE
  5
54E
100
AcDbEntity
  8
0
100
AcDbLine
 62
253
  6
CONTINUOUS
 10
4.4407105236
 20
-28.0564881128
 11
4.4469277468
 21
-28.0514528112
  0
LINE
  5
54F
100
AcDbEntity
  8
0
100
AcDbLine
 62
253
  6
CONTINUOUS
 10
3.1186920476
 20
-27.7836336964
 11
6.4492800094
 21
-25.3055742927
  0
LINE
  5
550
100
AcDbEntity
  8
0
100
AcDbLine
 62
7
  6
CONTINUOUS
 10
2.9885538434
 20
-28.0560353875
 11
6.3272592999
 21
-25.5719363193
  0
LWPOLYLINE
  5
551
100
AcDbEntity
  8
0
100
AcDbPolyline
 62
7
  6
CONTINUOUS
 90
8
 70
0
 10
4.3924569722
 20
-28.1793235445
 10
4.364209637
 20
-28.1999708599
 10
4.3326823522
 20
-28.2167769468
 10
4.298541495
 20
-28.2290701987
 10
4.2626517771
 20
-28.2363316671
 10
4.2259833772
 20
-28.2382702804
 10
4.1893937619
 20
-28.2348118626
 10
4.1613488771
 20
-28.228379207
  0
LINE
  5
552
100
AcDbEntity
  8
0
100
AcDbLine
 62
7
  6
CONTINUOUS
 10
-20.5261718186
 20
25.7406372412
 11
-19.2898069798
 21
26.0319377365
  0
LWPOLYLINE
  5
553
100
AcDbEntity
  8
0
100
AcDbPolyline
 62
7
  6
CONTINUOUS
 90
11
 70
0
 10
-15.8337146352
 20
25.2324775194
 10
-15.8232832718
 20
25.2341954015
 10
-15.8124250999
 20
25.235321404
 10
-15.8011064084
 20
25.2358349218
 10
-15.7893400118
 20
25.2357307083
 10
-15.777124213
 20
25.234992361
 10
-15.7643950254
 20
25.2335768028
 10
-15.7511398503
 20
25.2314706769
 10
-15.7373769745
 20
25.2286565768
 10
-15.7230831677
 20
25.2250798162
 10
-15.717446223
 20
25.223495533
  0
LWPOLYLINE
  5
554
100
AcDbEntity
  8
0
100
AcDbPolyline
 62
7
  6
CONTINUOUS
 90
11
 70
0
 10
-22.6791194295
 20
27.2092805756
 10
-22.668677121
 20
27.2109078446
 10
-22.6578105568
 20
27.2119475008
 10
-22.6464838893
 20
27.212378027
 10
-22.6347079841
 20
27.2121940166
 10
-22.6224822444
 20
27.2113789554
 10
-22.609745317
 20
27.2098889785
 10
-22.5964848327
 20
27.2077103352
 10
-22.5827187799
 20
27.2048260704
 10
-22.5684262598
 20
27.201182263
 10
-22.5643166918
 20
27.2000175917
  0
LWPOLYLINE
  5
555
100
AcDbEntity
  8
RACCORDO
100
AcDbPolyline
 62
253
  6
CONTINUOUS
 90
8
 70
0
 10
22.3755991636
 20
25.7566653196
 10
22.3275935075
 20
25.7674086875
 10
22.2458568073
 20
25.7725154998
 10
22.1606476682
 20
25.7621306154
 10
22.0726002659
 20
25.7363313062
 10
21.9823698979
 20
25.6953095692
 10
21.8906281054
 20
25.6393706944
 10
21.7980576817
 20
25.5689309945
  0
LINE
  5
556
100
AcDbEntity
  8
RACCORDO
100
AcDbLine
 62
253
  6
CONTINUOUS
 10
-10.3084249625
 20
34.8372741932
 11
21.7980576846
 21
25.5689309937
  0
LWPOLYLINE
  5
557
100
AcDbEntity
  8
RACCORDO
100
AcDbPolyline
 62
253
  6
CONTINUOUS
 90
4
 70
0
 10
24.9341893609
 20
19.9276063993
 10
24.9521811392
 20
19.8182317033
 10
24.9625054308
 20
19.7125890712
 10
24.9656574216
 20
19.6111034048
  0
LWPOLYLINE
  5
558
100
AcDbEntity
  8
RACCORDO
100
AcDbPolyline
 62
253
  6
CONTINUOUS
 90
8
 70
0
 10
-9.731336614
 20
35.0251390397
 10
-9.7788905139
 20
35.0357521209
 10
-9.860627122
 20
35.0408586868
 10
-9.9458361075
 20
35.0304736157
 10
-10.033883301
 20
35.004674199
 10
-10.1241134092
 20
34.9636524495
 10
-10.2158548925
 20
34.9077136723
 10
-10.3084249625
 20
34.8372741932
  0
LWPOLYLINE
  5
559
100
AcDbEntity
  8
RACCORDO
100
AcDbPolyline
 62
7
  6
CONTINUOUS
 90
15
 70
0
 10
-9.731342087
 20
35.025120032
 10
-9.761314867
 20
35.0335591383
 10
-9.9379349629
 20
35.0752387367
 10
-10.1164651488
 20
35.1037694599
 10
-10.2958647428
 20
35.118982259
 10
-10.4753205395
 20
35.1208781637
 10
-10.6540012601
 20
35.1094860403
 10
-10.8306978378
 20
35.0849013104
 10
-11.0044784092
 20
35.0473220439
 10
-11.174693503
 20
34.9969620284
 10
-11.3401462504
 20
34.9342238965
 10
-11.4998611275
 20
34.8595470893
 10
-11.6534124203
 20
34.7731831087
 10
-11.7999842334
 20
34.6756283267
 10
-11.8979740084
 20
34.600996209
  0
LINE
  5
55A
100
AcDbEntity
  8
RACCORDO
100
AcDbLine
 62
7
  6
CONTINUOUS
 10
-9.731336614
 20
35.0251390397
 11
22.3755991636
 21
25.7566653196
  0
LINE
  5
55B
100
AcDbEntity
  8
RACCORDO
100
AcDbLine
 62
7
  6
CONTINUOUS
 10
22.375961347
 20
25.7565605828
 11
22.3755991636
 21
25.7566653196
  0
LWPOLYLINE
  5
55C
100
AcDbEntity
  8
RACCORDO
100
AcDbPolyline
 62
253
  6
CONTINUOUS
 90
22
 70
0
 10
21.7980576846
 20
25.5689309937
 10
21.9611541534
 20
25.5173112589
 10
22.1232343822
 20
25.4537893272
 10
22.2833912236
 20
25.3787196037
 10
22.4407270194
 20
25.2925209802
 10
22.5943628641
 20
25.1956750456
 10
22.7434433297
 20
25.0887229015
 10
22.8871361591
 20
24.9722603479
 10
23.0246354051
 20
24.8469388876
 10
23.1551705312
 20
24.7134629353
 10
23.2780103561
 20
24.5725816822
 10
23.3924702181
 20
24.4250801991
 10
23.4979135849
 20
24.2717787171
 10
23.5937527339
 20
24.1135318608
 10
23.6794494636
 20
23.9512263577
 10
23.7545217786
 20
23.7857718259
 10
23.8185502898
 20
23.6180956543
 10
23.8711785548
 20
23.4491338797
 10
23.9121116852
 20
23.2798279761
 10
23.9411209379
 20
23.1111239186
 10
23.9580454321
 20
22.9439669196
 10
23.9627914444
 20
22.7792924244
  0
LWPOLYLINE
  5
55D
100
AcDbEntity
  8
RACCORDO
100
AcDbPolyline
 62
253
  6
CONTINUOUS
 90
12
 70
0
 10
24.2323590741
 20
21.0978506959
 10
24.3086180191
 20
21.0296186015
 10
24.402423691
 20
20.9350531028
 10
24.4909974574
 20
20.8344566967
 10
24.5737239521
 20
20.7283448599
 10
24.6493768586
 20
20.6182674112
 10
24.7175795903
 20
20.504936603
 10
24.7779728741
 20
20.3891085721
 10
24.829820174
 20
20.2726038337
 10
24.8731310225
 20
20.1561821509
 10
24.9079603931
 20
20.0405813808
 10
24.9341893609
 20
19.9276063993
  0
ELLIPSE
  5
55E
100
AcDbEntity
  8
0
100
AcDbEllipse
 62
7
  6
CONTINUOUS
 10
-4.0090665413
 20
22.4435102646
 30
0.0
 11
0.4997407816
 21
0.3758839594
 31
0.0
 40
0.0428275111
 41
1.6697908327
 42
2.5683386715
  0
ELLIPSE
  5
55F
100
AcDbEntity
  8
0
100
AcDbEllipse
 62
7
  6
CONTINUOUS
 10
9.0967481747
 20
-19.5893042909
 30
0.0
 11
0.4997407816
 21
0.3758839594
 31
0.0
 40
0.0428275111
 41
-0.5383473971
 42
-0.0322019109
  0
ELLIPSE
  5
560
100
AcDbEntity
  8
0
100
AcDbEllipse
 62
7
  6
CONTINUOUS
 10
-3.2721843171
 20
21.1104454962
 30
0.0
 11
0.1404028218
 21
0.4798850524
 31
0.0
 40
0.4373714979
 41
0.4902265354
 42
0.5837580666
  0
ELLIPSE
  5
561
100
AcDbEntity
  8
0
100
AcDbEllipse
 62
7
  6
CONTINUOUS
 10
-3.7453896678
 20
17.7868329074
 30
0.0
 11
-0.1309273426
 21
0.1511906453
 31
0.0
 40
0.7500018128
 41
-2.4278383642
 42
-0.8570420374
  0
ELLIPSE
  5
562
100
AcDbEntity
  8
0
100
AcDbEllipse
 62
7
  6
CONTINUOUS
 10
-23.4946381264
 20
28.0685102646
 30
0.0
 11
0.4997407816
 21
0.3758839594
 31
0.0
 40
0.0428275111
 41
1.6697908327
 42
2.5683386715
  0
ELLIPSE
  5
563
100
AcDbEntity
  8
0
100
AcDbEllipse
 62
7
  6
CONTINUOUS
 10
-21.1525002839
 20
22.8118329074
 30
0.0
 11
-0.1309273426
 21
0.1511906453
 31
0.0
 40
0.7500018128
 41
-0.8570420374
 42
-0.0043187093
  0
ELLIPSE
  5
564
100
AcDbEntity
  8
0
100
AcDbEllipse
 62
7
  6
CONTINUOUS
 10
-1.6669286988
 20
17.1868329074
 30
0.0
 11
-0.1309273426
 21
0.1511906453
 31
0.0
 40
0.7500018128
 41
-0.8570420374
 42
-0.0043187093
  0
ELLIPSE
  5
565
100
AcDbEntity
  8
0
100
AcDbEllipse
 62
7
  6
CONTINUOUS
 10
-22.7577559022
 20
26.7354454962
 30
0.0
 11
0.1404028218
 21
0.4798850524
 31
0.0
 40
0.4373714979
 41
0.4902265354
 42
0.5837580666
  0
ELLIPSE
  5
566
100
AcDbEntity
  8
0
100
AcDbEllipse
 62
7
  6
CONTINUOUS
 10
-23.230961253
 20
23.4118329074
 30
0.0
 11
-0.1309273426
 21
0.1511906453
 31
0.0
 40
0.7500018128
 41
-2.4278383642
 42
-0.8570420374
  0
ELLIPSE
  5
567
100
AcDbEntity
  8
0
100
AcDbEllipse
 62
7
  6
CONTINUOUS
 10
6.5098150738
 20
13.1809576343
 30
0.0
 11
0.3273463761
 21
-0.3779501209
 31
0.0
 40
0.7500354192
 41
0.7136994154
 42
2.2844449736
  0
ELLIPSE
  5
568
100
AcDbEntity
  8
0
100
AcDbEllipse
 62
7
  6
CONTINUOUS
 10
6.5098150738
 20
-24.7408636185
 30
0.0
 11
-0.3273534212
 21
0.3779772567
 31
0.0
 40
0.7499600483
 41
-3.1297950122
 42
-2.4279180913
  0
ELLIPSE
  5
569
100
AcDbEntity
  8
0
100
AcDbEllipse
 62
7
  6
CONTINUOUS
 10
38.9321572699
 20
48.9887975339
 30
0.0
 11
42.5377953771
 21
37.3409903942
 31
0.0
 40
0.0057492859
 41
2.5145763347
 42
2.685518984
  0
ELLIPSE
  5
56A
100
AcDbEntity
  8
0
100
AcDbEllipse
 62
7
  6
CONTINUOUS
 10
4.3598659505
 20
18.907262358
 30
0.0
 11
0.1369629412
 21
0.4808780972
 31
0.0
 40
0.428644886
 41
0.4871257459
 42
0.5806572771
  0
ELLIPSE
  5
56B
100
AcDbEntity
  8
0
100
AcDbEllipse
 62
7
  6
CONTINUOUS
 10
38.9321572699
 20
48.9887975339
 30
0.0
 11
42.5377953771
 21
37.3409903942
 31
0.0
 40
0.0057492859
 41
-2.6956126996
 42
-2.5246700503
  0
ELLIPSE
  5
56C
100
AcDbEntity
  8
0
100
AcDbEllipse
 62
7
  6
CONTINUOUS
 10
3.9907548708
 20
18.0880691475
 30
0.0
 11
0.4530420893
 21
-0.0015129667
 31
0.0
 40
0.4956324579
 41
-0.5161258126
 42
0.0016551987
  0
ELLIPSE
  5
56D
100
AcDbEntity
  8
0
100
AcDbEllipse
 62
7
  6
CONTINUOUS
 10
-22.3416875325
 20
25.6895905025
 30
0.0
 11
0.4530420893
 21
-0.0015129667
 31
0.0
 40
0.4956324579
 41
-0.5219435768
 42
0.0016551986
  0
ELLIPSE
  5
56E
100
AcDbEntity
  8
0
100
AcDbEllipse
 62
7
  6
CONTINUOUS
 10
-2.8561159473
 20
20.0645905025
 30
0.0
 11
0.4530420893
 21
-0.0015129667
 31
0.0
 40
0.4956324579
 41
-0.5219435768
 42
0.0016551986
  0
ELLIPSE
  5
56F
100
AcDbEntity
  8
0
100
AcDbEllipse
 62
7
  6
CONTINUOUS
 10
-15.4948167144
 20
23.7130691475
 30
0.0
 11
0.4530420893
 21
-0.0015129667
 31
0.0
 40
0.4956324579
 41
-0.5161258126
 42
0.0016551987
  0
ELLIPSE
  5
570
100
AcDbEntity
  8
0
100
AcDbEllipse
 62
7
  6
CONTINUOUS
 10
-9.9915842586
 20
23.2346000854
 30
0.0
 11
-0.8494782499
 21
1.1293882431
 31
0.0
 40
0.4671764921
 41
5.203386954
 42
6.309569457
  0
ELLIPSE
  5
571
100
AcDbEntity
  8
0
100
AcDbEllipse
 62
7
  6
CONTINUOUS
 10
-10.3888234104
 20
24.2851874375
 30
0.0
 11
-0.4247391249
 21
0.5646941216
 31
0.0
 40
0.4671764921
 41
-3.0919374471
 42
-2.1933896083
  0
ELLIPSE
  5
572
100
AcDbEntity
  8
0
100
AcDbEllipse
 62
7
  6
CONTINUOUS
 10
9.4939873266
 20
17.6096000854
 30
0.0
 11
-0.8494782499
 21
1.1293882431
 31
0.0
 40
0.4671764921
 41
5.203386954
 42
6.309569457
  0
ELLIPSE
  5
573
100
AcDbEntity
  8
0
100
AcDbEllipse
 62
7
  6
CONTINUOUS
 10
9.0967481747
 20
18.6601874375
 30
0.0
 11
-0.4247391249
 21
0.5646941216
 31
0.0
 40
0.4671764921
 41
-3.0919374471
 42
-2.1933896083
  0
ELLIPSE
  5
574
100
AcDbEntity
  8
0
100
AcDbEllipse
 62
7
  6
CONTINUOUS
 10
-4.9063056932
 20
21.7666066111
 30
0.0
 11
0.9994815632
 21
0.7517679188
 31
0.0
 40
0.0428275111
 41
-0.5499829254
 42
0.5561995775
  0
ELLIPSE
  5
575
100
AcDbEntity
  8
0
100
AcDbEllipse
 62
7
  6
CONTINUOUS
 10
19.4465856847
 20
54.6137975339
 30
0.0
 11
42.5377953771
 21
37.3409903942
 31
0.0
 40
0.0057492859
 41
2.5145763347
 42
2.685518984
  0
ELLIPSE
  5
576
100
AcDbEntity
  8
0
100
AcDbEllipse
 62
7
  6
CONTINUOUS
 10
-15.1257056347
 20
24.532262358
 30
0.0
 11
0.1369629412
 21
0.4808780972
 31
0.0
 40
0.428644886
 41
0.4871257459
 42
0.5806572771
  0
ELLIPSE
  5
577
100
AcDbEntity
  8
0
100
AcDbEllipse
 62
7
  6
CONTINUOUS
 10
19.4465856847
 20
54.6137975339
 30
0.0
 11
42.5377953771
 21
37.3409903942
 31
0.0
 40
0.0057492859
 41
-2.6956126996
 42
-2.5246700503
  0
ELLIPSE
  5
578
100
AcDbEntity
  8
0
100
AcDbEllipse
 62
7
  6
CONTINUOUS
 10
-24.3918772783
 20
27.3916066111
 30
0.0
 11
0.9994815632
 21
0.7517679188
 31
0.0
 40
0.0428275111
 41
-0.5499829254
 42
0.5561995775
  0
ELLIPSE
  5
579
100
AcDbEntity
  8
0
100
AcDbEllipse
 62
7
  6
CONTINUOUS
 10
-31.8847111232
 20
23.3467898794
 30
0.0
 11
0.249962854
 21
0.0079965939
 31
0.0
 40
0.5389145921
 41
3.1243538795
 42
4.1715514265
  0
ELLIPSE
  5
57A
100
AcDbEntity
  8
0
100
AcDbEllipse
 62
7
  6
CONTINUOUS
 10
-16.8158690974
 20
18.9967898794
 30
0.0
 11
0.249962854
 21
0.0079965939
 31
0.0
 40
0.5389145921
 41
3.1243538795
 42
4.1715514265
  0
ELLIPSE
  5
57B
100
AcDbEntity
  8
0
100
AcDbEllipse
 62
7
  6
CONTINUOUS
 10
-14.7487504136
 20
18.4000641151
 30
0.0
 11
0.249962854
 21
0.0079965939
 31
0.0
 40
0.5389145921
 41
-2.1116338807
 42
-0.5460735417
  0
ELLIPSE
  5
57C
100
AcDbEntity
  8
0
100
AcDbEllipse
 62
7
  6
CONTINUOUS
 10
-29.8175924395
 20
22.7500641151
 30
0.0
 11
0.249962854
 21
0.0079965939
 31
0.0
 40
0.5389145921
 41
-2.1116338807
 42
-0.5460735417
  0
ELLIPSE
  5
57D
100
AcDbEntity
  8
0
100
AcDbEllipse
 62
7
  6
CONTINUOUS
 10
-23.880961253
 20
21.6279062089
 30
0.0
 11
0.1999702832
 21
0.0063972751
 31
0.0
 40
0.5389145921
 41
-2.1116338807
 42
-0.5408375539
  0
ELLIPSE
  5
57E
100
AcDbEntity
  8
0
100
AcDbEllipse
 62
7
  6
CONTINUOUS
 10
-21.8025002839
 20
21.0279062089
 30
0.0
 11
0.1999702832
 21
0.0063972751
 31
0.0
 40
0.5389145921
 41
3.12435388
 42
4.1715514265
  0
ELLIPSE
  5
57F
100
AcDbEntity
  8
0
100
AcDbEllipse
 62
7
  6
CONTINUOUS
 10
-4.3953896678
 20
16.0029062089
 30
0.0
 11
0.1999702832
 21
0.0063972751
 31
0.0
 40
0.5389145921
 41
-2.1116338807
 42
-0.5408375539
  0
ELLIPSE
  5
580
100
AcDbEntity
  8
0
100
AcDbEllipse
 62
7
  6
CONTINUOUS
 10
-2.3169286988
 20
15.4029062089
 30
0.0
 11
0.1999702832
 21
0.0063972751
 31
0.0
 40
0.5389145921
 41
3.12435388
 42
4.1715514265
  0
ELLIPSE
  5
581
100
AcDbEntity
  8
0
100
AcDbEllipse
 62
7
  6
CONTINUOUS
 10
-12.3985090312
 20
17.7216078677
 30
0.0
 11
0.249962854
 21
0.0079965939
 31
0.0
 40
0.5389145921
 41
3.1243538794
 42
4.1715514265
  0
ELLIPSE
  5
582
100
AcDbEntity
  8
0
100
AcDbEllipse
 62
7
  6
CONTINUOUS
 10
-10.3326513612
 20
17.1252461268
 30
0.0
 11
0.249962854
 21
0.0079965939
 31
0.0
 40
0.5389145921
 41
-2.1116338807
 42
-0.5466553181
  0
ELLIPSE
  5
583
100
AcDbEntity
  8
0
100
AcDbEllipse
 62
7
  6
CONTINUOUS
 10
2.6703329946
 20
13.3716078677
 30
0.0
 11
0.249962854
 21
0.0079965939
 31
0.0
 40
0.5389145921
 41
3.1243538794
 42
4.1715514265
  0
ELLIPSE
  5
584
100
AcDbEntity
  8
0
100
AcDbEllipse
 62
7
  6
CONTINUOUS
 10
4.7361906646
 20
12.7752461268
 30
0.0
 11
0.249962854
 21
0.0079965939
 31
0.0
 40
0.5389145921
 41
-2.1116338807
 42
-0.5466553181
  0
ENDSEC
  0
SECTION
  2
OBJECTS
  0
DICTIONARY
  5
C
100
AcDbDictionary
280
0
281
1
  3
ACAD_GROUP
350
D
  3
ACAD_MLINESTYLE
350
17
  3
ACAD_LAYOUT
350
1A
  3
ACAD_PLOTSETTINGS
350
19
  3
ACAD_PLOTSTYLENAME
350
E
  0
DICTIONARY
  5
D
102
{ACAD_REACTORS
330
C
102
}
100
AcDbDictionary
280
0
281
1
  0
ACDBDICTIONARYWDFLT
  5
E
102
{ACAD_REACTORS
330
C
102
}
100
AcDbDictionary
281
1
  3
Normal
350
F
100
AcDbDictionaryWithDefault
340
F
  0
DICTIONARY
  5
17
102
{ACAD_REACTORS
330
C
102
}
100
AcDbDictionary
280
0
281
1
  3
Standard
350
18
  0
DICTIONARY
  5
19
102
{ACAD_REACTORS
330
C
102
}
100
AcDbDictionary
281
1
  0
DICTIONARY
  5
1A
102
{ACAD_REACTORS
330
C
102
}
100
AcDbDictionary
281
1
  3
Model
350
585
  3
Layout1
350
586
  0
ACDBPLACEHOLDER
  5
F
102
{ACAD_REACTORS
330
E
102
}
  0
MLINESTYLE
  5
18
102
{ACAD_REACTORS
330
17
102
}
100
AcDbMlineStyle
  2
STANDARD
 70
0
  3

 62
256
 51
90.0
 52
90.0
 71
2
 49
0.5
 62
256
  6
BYLAYER
 49
-0.5
 62
256
  6
BYLAYER
  0
LAYOUT
  5
585
102
{ACAD_REACTORS
330
1A
102
}
100
AcDbPlotSettings
  1

  2
none_device
  4

  6

 40
0.0
 41
0.0
 42
0.0
 43
0.0
 44
210.0
 45
297.0
 46
0.0
 47
0.0
 48
0.0
 49
0.0
140
0.0
141
0.0
142
1.0
143
1.0
 70
1024
 72
1
 73
0
 74
0
  7

 75
0
147
1.0
148
0.0
149
0.0
100
AcDbLayout
  1
Model
 70
0
 71
0
 10
0.0
 20
0.0
 11
210.0
 21
297.0
 12
0.0
 22
0.0
 32
0.0
 14
0.0
 24
0.0
 34
0.0
 15
0.0
 25
0.0
 35
0.0
146
0.0
 13
0.0
 23
0.0
 33
0.0
 16
1.0
 26
0.0
 36
0.0
 17
0.0
 27
1.0
 37
0.0
 76
0
330
21C
345
0
346
0
  0
LAYOUT
  5
586
102
{ACAD_REACTORS
330
1A
102
}
100
AcDbPlotSettings
  1

  2
none_device
  4

  6

 40
0.0
 41
0.0
 42
0.0
 43
0.0
 44
210.0
 45
297.0
 46
0.0
 47
0.0
 48
0.0
 49
0.0
140
0.0
141
0.0
142
1.0
143
1.0
 70
0
 72
1
 73
0
 74
0
  7

 75
0
147
1.0
148
0.0
149
0.0
100
AcDbLayout
  1
Layout1
 70
0
 71
1
 10
0.0
 20
0.0
 11
210.0
 21
297.0
 12
0.0
 22
0.0
 32
0.0
 14
0.0
 24
0.0
 34
0.0
 15
0.0
 25
0.0
 35
0.0
146
0.0
 13
0.0
 23
0.0
 33
0.0
 16
1.0
 26
0.0
 36
0.0
 17
0.0
 27
1.0
 37
0.0
 76
0
330
21D
345
0
346
0
  0
ENDSEC
  0
EOF
