  0
SECTION
  2
HEADER
  9
$ACADVER
  1
AC1021
  9
$DWGCODEPAGE
  3
ANSI_1252
  9
$EXTMAX
 10
558.8
 20
431.8
 30
0.0
  9
$EXTMIN
 10
0.0
 20
0.0
 30
0.0
  9
$LIMMIN
 10
0.0
 20
0.0
  9
$LIMMAX
 10
558.8
 20
431.8
  9
$VIEWCTR
 10
279.4
 20
215.9
  9
$VIEWSIZE
 40
431.8
  9
$CLAYER
  8
0
  9
$LTSCALE
 40
30.734
  9
$CELTYPE
  6
BYLAYER
  9
$DIMSCALE
 40
1.0
  9
$DIMASZ
 40
3.0
  9
$DIMEXO
 40
0.5
  9
$DIMDLI
 40
21.2344
  9
$DIMEXE
 40
1.5
  9
$DIMCEN
 40
5.0292
  9
$DIMLFAC
 40
1.0
  9
$DIMBLK
  1
_FILLED
  9
$DIMALT
 70
0
  9
$DIMALTF
 40
25.4
  9
$DIMTXT
 40
3.0
  9
$DIMTOL
 70
1
  9
$DIMLIM
 70
0
  9
$DIMTFAC
 40
1.0
  9
$DIMTP
 40
0.01
  9
$DIMTM
 40
0.01
  9
$DIMGAP
 40
0.625
  9
$DIMDSEP
 70
44
  9
$AUNITS
 70
0
  9
$PDMODE
 70
3
  9
$PDSIZE
 40
3.0
  9
$HANDSEED
  5
512
  9
$TILEMODE
 70
1
  9
$MEASUREMENT
 70
1
  9
$INSUNITS
 70
4
  0
ENDSEC
  0
SECTION
  2
CLASSES
  0
CLASS
  1
ACDBDICTIONARYWDFLT
  2
AcDbDictionaryWithDefault
  3
AutoCAD 2000
 90
0
 91
1
280
0
281
0
  0
CLASS
  1
ACDBPLACEHOLDER
  2
AcDbPlaceHolder
  3
AutoCAD 2000
 90
0
 91
1
280
0
281
0
  0
CLASS
  1
LAYOUT
  2
AcDbLayout
  3
AutoCAD 2000
 90
0
 91
0
280
0
281
0
  0
ENDSEC
  0
SECTION
  2
TABLES
  0
TABLE
  2
VPORT
  5
8
100
AcDbSymbolTable
 70
2
  0
VPORT
  5
1F4
100
AcDbSymbolTableRecord
100
AcDbViewportTableRecord
  2
*ACTIVE
 70
0
 10
0.0
 20
0.0
 11
1.0
 21
1.0
 12
279.4
 22
215.9
 13
0.0
 23
0.0
 14
1.0
 24
1.0
 15
0.0
 25
0.0
 16
0.0
 26
0.0
 36
1.0
 17
0.0
 27
0.0
 37
0.0
 40
431.8
 41
1.2941176471
 42
50.0
 43
0.0
 44
0.0
 50
0.0
 51
0.0
 71
0
 72
100
 73
1
 74
1
 75
0
 76
0
 77
0
 78
0
  0
ENDTAB
  0
TABLE
  2
LTYPE
  5
5
100
AcDbSymbolTable
 70
6
  0
LTYPE
  5
14
100
AcDbSymbolTableRecord
100
AcDbLinetypeTableRecord
  2
BYBLOCK
 70
0
  3

 72
65
 73
0
 40
0.0
  0
LTYPE
  5
15
100
AcDbSymbolTableRecord
100
AcDbLinetypeTableRecord
  2
BYLAYER
 70
0
  3

 72
65
 73
0
 40
0.0
  0
LTYPE
  5
16
100
AcDbSymbolTableRecord
100
AcDbLinetypeTableRecord
  2
CONTINUOUS
 70
64
  3
Solid line
 72
65
 73
0
 40
0.0
  0
LTYPE
  5
1F5
100
AcDbSymbolTableRecord
100
AcDbLinetypeTableRecord
  2
CENTER
 70
64
  3
____ _ ____ _ ____ _ ____ _ ____ _ ____ _ ____
 72
65
 73
4
 40
0.6
 49
0.375
 74
0
 49
-0.075
 74
0
 49
0.075
 74
0
 49
-0.075
 74
0
  0
LTYPE
  5
1F6
100
AcDbSymbolTableRecord
100
AcDbLinetypeTableRecord
  2
HIDDEN
 70
64
  3
- - - - - - - - - - - - - - - - - - - -
 72
65
 73
2
 40
0.2
 49
0.1
 74
0
 49
-0.1
 74
0
  0
LTYPE
  5
1F7
100
AcDbSymbolTableRecord
100
AcDbLinetypeTableRecord
  2
PHANTOM
 70
64
  3
_____ _ _ _____ _ _ _____ _ _ _____
 72
65
 73
6
 40
0.8
 49
0.45
 74
0
 49
-0.05
 74
0
 49
0.1
 74
0
 49
-0.05
 74
0
 49
0.1
 74
0
 49
-0.05
 74
0
  0
LTYPE
  5
1F8
100
AcDbSymbolTableRecord
100
AcDbLinetypeTableRecord
  2
DOT
 70
64
  3
. . . . . . . . . . . . . . . . . . . .
 72
65
 73
2
 40
0.2
 49
0.1
 74
0
 49
-0.1
 74
0
  0
LTYPE
  5
1F9
100
AcDbSymbolTableRecord
100
AcDbLinetypeTableRecord
  2
DASHED
 70
64
  3
- - - - - - - - - - - - - - - - - - - -
 72
65
 73
2
 40
0.2
 49
0.1
 74
0
 49
-0.1
 74
0
  0
ENDTAB
  0
TABLE
  2
LAYER
  5
2
100
AcDbSymbolTable
 70
36
  0
LAYER
  5
10
100
AcDbSymbolTableRecord
100
AcDbLayerTableRecord
  2
0
 70
0
 62
7
  6
CONTINUOUS
370
-3
390
F
  0
LAYER
  5
1FA
100
AcDbSymbolTableRecord
100
AcDbLayerTableRecord
  2
DEFAULT_1
 70
0
 62
7
  6
CENTER
370
-3
390
F
  0
LAYER
  5
1FB
100
AcDbSymbolTableRecord
100
AcDbLayerTableRecord
  2
DEFAULT_2
 70
0
 62
7
  6
HIDDEN
370
-3
390
F
  0
LAYER
  5
1FC
100
AcDbSymbolTableRecord
100
AcDbLayerTableRecord
  2
DEFAULT_3
 70
0
 62
7
  6
PHANTOM
370
-3
390
F
  0
LAYER
  5
1FD
100
AcDbSymbolTableRecord
100
AcDbLayerTableRecord
  2
ASSI
 70
0
 62
7
  6
CONTINUOUS
370
-3
390
F
  0
LAYER
  5
1FE
100
AcDbSymbolTableRecord
100
AcDbLayerTableRecord
  2
COORDINATE
 70
0
 62
7
  6
CONTINUOUS
370
-3
390
F
  0
LAYER
  5
1FF
100
AcDbSymbolTableRecord
100
AcDbLayerTableRecord
  2
COORD_ORIGINE
 70
0
 62
7
  6
CONTINUOUS
370
-3
390
F
  0
LAYER
  5
200
100
AcDbSymbolTableRecord
100
AcDbLayerTableRecord
  2
COPY_PUBLISH
 70
0
 62
7
  6
CONTINUOUS
370
-3
390
F
  0
LAYER
  5
201
100
AcDbSymbolTableRecord
100
AcDbLayerTableRecord
  2
COSMETICI
 70
0
 62
7
  6
CONTINUOUS
370
-3
390
F
  0
LAYER
  5
202
100
AcDbSymbolTableRecord
100
AcDbLayerTableRecord
  2
CURVE
 70
0
 62
7
  6
CONTINUOUS
370
-3
390
F
  0
LAYER
  5
203
100
AcDbSymbolTableRecord
100
AcDbLayerTableRecord
  2
DRAFT
 70
0
 62
7
  6
CONTINUOUS
370
-3
390
F
  0
LAYER
  5
204
100
AcDbSymbolTableRecord
100
AcDbLayerTableRecord
  2
IMPORT_IGES
 70
0
 62
7
  6
CONTINUOUS
370
-3
390
F
  0
LAYER
  5
205
100
AcDbSymbolTableRecord
100
AcDbLayerTableRecord
  2
NOTE
 70
0
 62
7
  6
CONTINUOUS
370
-3
390
F
  0
LAYER
  5
206
100
AcDbSymbolTableRecord
100
AcDbLayerTableRecord
  2
PIANI
 70
0
 62
7
  6
CONTINUOUS
370
-3
390
F
  0
LAYER
  5
207
100
AcDbSymbolTableRecord
100
AcDbLayerTableRecord
  2
PIANI_ORIGINE
 70
0
 62
7
  6
CONTINUOUS
370
-3
390
F
  0
LAYER
  5
208
100
AcDbSymbolTableRecord
100
AcDbLayerTableRecord
  2
PIANI_SFORMI
 70
0
 62
7
  6
CONTINUOUS
370
-3
390
F
  0
LAYER
  5
209
100
AcDbSymbolTableRecord
100
AcDbLayerTableRecord
  2
PUNTI
 70
0
 62
7
  6
CONTINUOUS
370
-3
390
F
  0
LAYER
  5
20A
100
AcDbSymbolTableRecord
100
AcDbLayerTableRecord
  2
RACCORDO
 70
0
 62
7
  6
CONTINUOUS
370
-3
390
F
  0
LAYER
  5
20B
100
AcDbSymbolTableRecord
100
AcDbLayerTableRecord
  2
SIMBOLI
 70
0
 62
7
  6
CONTINUOUS
370
-3
390
F
  0
LAYER
  5
20C
100
AcDbSymbolTableRecord
100
AcDbLayerTableRecord
  2
SMUSSO
 70
0
 62
7
  6
CONTINUOUS
370
-3
390
F
  0
LAYER
  5
20D
100
AcDbSymbolTableRecord
100
AcDbLayerTableRecord
  2
SNAPLINE
 70
0
 62
7
  6
CONTINUOUS
370
-3
390
F
  0
LAYER
  5
20E
100
AcDbSymbolTableRecord
100
AcDbLayerTableRecord
  2
SUPERFICI
 70
0
 62
7
  6
CONTINUOUS
370
-3
390
F
  0
LAYER
  5
20F
100
AcDbSymbolTableRecord
100
AcDbLayerTableRecord
  2
TRASH
 70
0
 62
7
  6
CONTINUOUS
370
-3
390
F
  0
LAYER
  5
210
100
AcDbSymbolTableRecord
100
AcDbLayerTableRecord
  2
XSEC_DATUMS
 70
0
 62
7
  6
CONTINUOUS
370
-3
390
F
  0
ENDTAB
  0
TABLE
  2
STYLE
  5
3
100
AcDbSymbolTable
 70
1
  0
STYLE
  5
11
100
AcDbSymbolTableRecord
100
AcDbTextStyleTableRecord
  2
STANDARD
 70
0
 40
0.0
 41
0.8
 50
0.0
 71
0
 42
0.2
  3
txt
  4

  0
STYLE
  5
211
100
AcDbSymbolTableRecord
100
AcDbTextStyleTableRecord
  2
TEXTSTYLE_1
 70
0
 40
0.0
 41
0.8
 50
0.0
 71
0
 42
0.2
  3
gdt
  4

  0
ENDTAB
  0
TABLE
  2
VIEW
  5
6
100
AcDbSymbolTable
 70
0
  0
ENDTAB
  0
TABLE
  2
UCS
  5
7
100
AcDbSymbolTable
 70
0
  0
ENDTAB
  0
TABLE
  2
APPID
  5
9
100
AcDbSymbolTable
 70
1
  0
APPID
  5
212
100
AcDbSymbolTableRecord
100
AcDbRegAppTableRecord
  2
ACAD
 70
0
  0
ENDTAB
  0
TABLE
  2
BLOCK_RECORD
  5
1
100
AcDbSymbolTable
 70
0
  0
BLOCK_RECORD
  5
213
100
AcDbSymbolTableRecord
100
AcDbBlockTableRecord
  2
*Model_Space
  0
BLOCK_RECORD
  5
214
100
AcDbSymbolTableRecord
100
AcDbBlockTableRecord
  2
*Paper_Space
  0
ENDTAB
  0
TABLE
  2
DIMSTYLE
  5
A
100
AcDbSymbolTable
 70
1
100
AcDbDimStyleTable
 71
0
  0
DIMSTYLE
105
215
100
AcDbSymbolTableRecord
100
AcDbDimStyleTableRecord
  2
STANDARD
 70
0
  3

  4

 40
1.0
 41
3.0
 42
0.5
 43
0.38
 44
1.5
 45
0.0
 46
0.0
 47
0.01
 48
0.01
140
3.0
141
0.09
142
0.0
143
25.4
144
1.0
145
0.0
146
1.0
147
0.625
 71
1.0
 72
0.0
 73
0
 74
0
 75
0
 76
0
 77
1
 78
8
170
0
171
1
172
0
173
0
174
0
175
0
176
0
177
0
178
0
270
2
271
2
272
2
273
2
274
2
275
0
280
0
281
0
282
0
283
1
284
8
285
0
286
0
287
3
288
0
340
11
278
44
  0
ENDTAB
  0
ENDSEC
  0
SECTION
  2
BLOCKS
  0
BLOCK
  5
20
100
AcDbEntity
  8
0
100
AcDbBlockBegin
  2
*Model_Space
 70
0
 10
0.0
 20
0.0
 30
0.0
  3
*Model_Space
  1

  0
ENDBLK
  5
21
100
AcDbEntity
  8
0
100
AcDbBlockEnd
  0
BLOCK
  5
1C
100
AcDbEntity
  8
0
100
AcDbBlockBegin
  2
*Paper_Space
 70
0
 10
0.0
 20
0.0
 30
0.0
  3
*Paper_Space
  1

  0
ENDBLK
  5
1D
100
AcDbEntity
  8
0
100
AcDbBlockEnd
  0
ENDSEC
  0
SECTION
  2
ENTITIES
  0
LINE
  5
216
100
AcDbEntity
  8
0
100
AcDbLine
 62
7
  6
CONTINUOUS
 10
-10.0635482662
 20
22.7466999932
 11
-8.4803681973
 21
23.6822042801
  0
LINE
  5
217
100
AcDbEntity
  8
0
100
AcDbLine
 62
253
  6
CONTINUOUS
 10
-9.9373955069
 20
22.7349880007
 11
-8.3546389038
 21
23.6702420608
  0
LINE
  5
218
100
AcDbEntity
  8
0
100
AcDbLine
 62
7
  6
CONTINUOUS
 10
-8.4803681831
 20
23.6822042881
 11
-8.4789139401
 21
23.6830439498
  0
LINE
  5
219
100
AcDbEntity
  8
0
100
AcDbLine
 62
7
  6
CONTINUOUS
 10
-8.4789139542
 20
23.6830439418
 11
-7.9440356527
 21
23.9847309565
  0
LINE
  5
21A
100
AcDbEntity
  8
0
100
AcDbLine
 62
253
  6
CONTINUOUS
 10
-8.3546389038
 20
23.6702420608
 11
-7.8201890251
 21
23.9716874325
  0
LWPOLYLINE
  5
21B
100
AcDbEntity
  8
0
100
AcDbPolyline
 62
253
  6
CONTINUOUS
 90
18
 70
0
 10
-10.0635482662
 20
22.7466999932
 10
-10.0597924389
 20
22.74879059
 10
-10.0535620777
 20
22.7517318796
 10
-10.0470662191
 20
22.7541740812
 10
-10.040319567
 20
22.7561116759
 10
-10.0333373643
 20
22.7575402866
 10
-10.026135361
 20
22.7584566784
 10
-10.0187299377
 20
22.7588587546
 10
-10.0111380363
 20
22.7587456079
 10
-10.0033769729
 20
22.758117535
 10
-9.9954642397
 20
22.7569759895
 10
-9.9874176198
 20
22.7553235504
 10
-9.9792541169
 20
22.7531636012
 10
-9.9709934226
 20
22.7505012453
 10
-9.96265785
 20
22.7473439769
 10
-9.9542675664
 20
22.7437001348
 10
-9.9458404244
 20
22.7395781673
 10
-9.9373955069
 20
22.7349880007
  0
LWPOLYLINE
  5
21C
100
AcDbEntity
  8
0
100
AcDbPolyline
 62
7
  6
CONTINUOUS
 90
18
 70
0
 10
-8.4789139401
 20
23.6830439498
 10
-8.476627069
 20
23.6842871569
 10
-8.4704013973
 20
23.6872273485
 10
-8.4639134648
 20
23.6896666794
 10
-8.4571779759
 20
23.6915996202
 10
-8.4502102367
 20
23.6930217669
 10
-8.4430259796
 20
23.6939299282
 10
-8.435641464
 20
23.6943220568
 10
-8.4280735096
 20
23.6941972158
 10
-8.4203391881
 20
23.6935557308
 10
-8.4124559822
 20
23.6923990779
 10
-8.4044418827
 20
23.6907298061
 10
-8.3963149523
 20
23.6885517507
 10
-8.3880935413
 20
23.6858698813
 10
-8.3797964446
 20
23.6826901798
 10
-8.3714424512
 20
23.6790198552
 10
-8.3630503021
 20
23.6748673265
 10
-8.3546389038
 20
23.6702420608
  0
LWPOLYLINE
  5
21D
100
AcDbEntity
  8
0
100
AcDbPolyline
 62
253
  6
CONTINUOUS
 90
3
 70
0
 10
-7.9440356527
 20
23.9847309565
 10
-7.9417348508
 20
23.9859814399
 10
-7.9355110936
 20
23.9889189164
  0
LINE
  5
21E
100
AcDbEntity
  8
0
100
AcDbLine
 62
7
  6
CONTINUOUS
 10
-7.9165416931
 20
23.9980925588
 11
-7.944078389
 21
23.9847068354
  0
LWPOLYLINE
  5
21F
100
AcDbEntity
  8
0
100
AcDbPolyline
 62
253
  6
CONTINUOUS
 90
16
 70
0
 10
-7.9355110936
 20
23.9889189164
 10
-7.9290284128
 20
23.9913535093
 10
-7.9223014825
 20
23.9932797169
 10
-7.9153455009
 20
23.9946931879
 10
-7.908176159
 20
23.9955907213
 10
-7.9008097633
 20
23.9959702635
 10
-7.8932631663
 20
23.9958309586
 10
-7.8855535802
 20
23.9951731634
 10
-7.877698381
 20
23.9939983984
 10
-7.8697152223
 20
23.9923093177
 10
-7.8616209747
 20
23.9901093813
 10
-7.853435164
 20
23.9874037886
 10
-7.8451798978
 20
23.9842001522
 10
-7.8368751421
 20
23.9805069274
 10
-7.8285385606
 20
23.9763326714
 10
-7.8201890251
 20
23.9716874325
  0
LWPOLYLINE
  5
220
100
AcDbEntity
  8
RACCORDO
100
AcDbPolyline
 62
253
  6
CONTINUOUS
 90
6
 70
0
 10
-12.6801179671
 20
18.7011827195
 10
-12.6547067795
 20
18.7221324662
 10
-12.6300192319
 20
18.7414369207
 10
-12.6063445831
 20
18.7590002822
 10
-12.5838078654
 20
18.7748701547
 10
-12.5623654183
 20
18.7892081445
  0
LWPOLYLINE
  5
221
100
AcDbEntity
  8
RACCORDO
100
AcDbPolyline
 62
253
  6
CONTINUOUS
 90
10
 70
0
 10
-9.544170743
 20
21.1905945292
 10
-9.5205614845
 20
21.2079766353
 10
-9.4978328471
 20
21.2293745432
 10
-9.4766302638
 20
21.2541806091
 10
-9.4575558319
 20
21.2816904064
 10
-9.4411512147
 20
21.3111227299
 10
-9.4278822597
 20
21.3416417795
 10
-9.4181257701
 20
21.3723808952
 10
-9.4121588044
 20
21.4024671675
 10
-9.4101508086
 20
21.4310462261
  0
LWPOLYLINE
  5
222
100
AcDbEntity
  8
RACCORDO
100
AcDbPolyline
 62
253
  6
CONTINUOUS
 90
16
 70
0
 10
-9.5460165488
 20
21.5761129052
 10
-9.5777800847
 20
21.5532162081
 10
-9.6051466984
 20
21.5292069278
 10
-9.6281163898
 20
21.5040850644
 10
-9.646804794
 20
21.477570508
 10
-9.6610962759
 20
21.4499433684
 10
-9.6706439306
 20
21.4220439754
 10
-9.6753412546
 20
21.3938855008
 10
-9.6752947514
 20
21.3654547727
 10
-9.6704770255
 20
21.3375526057
 10
-9.6607733696
 20
21.3101587705
 10
-9.6462984911
 20
21.2832934963
 10
-9.6273691166
 20
21.2578182849
 10
-9.6040908214
 20
21.2340203036
 10
-9.5763580302
 20
21.211612385
 10
-9.544170743
 20
21.1905945292
  0
LWPOLYLINE
  5
223
100
AcDbEntity
  8
RACCORDO
100
AcDbPolyline
 62
7
  6
CONTINUOUS
 90
10
 70
0
 10
-12.6206570228
 20
18.7887236487
 10
-12.6766761398
 20
18.7489301432
 10
-12.7315378237
 20
18.7048467149
 10
-12.7849793615
 20
18.6567461297
 10
-12.8367309268
 20
18.6049207002
 10
-12.8865033906
 20
18.5497048865
 10
-12.9340395531
 20
18.4914268163
 10
-12.9790894372
 20
18.4304243263
 10
-13.0213858873
 20
18.3670939517
 10
-13.0606947421
 20
18.3018169527
  0
LWPOLYLINE
  5
224
100
AcDbEntity
  8
0
100
AcDbPolyline
 62
7
  6
CONTINUOUS
 90
15
 70
0
 10
-13.6455126133
 20
19.3116397163
 10
-13.6762924387
 20
19.2905303409
 10
-13.7398169245
 20
19.2415347161
 10
-13.7997883805
 20
19.1879529342
 10
-13.8563924769
 20
19.1299827483
 10
-13.9095429486
 20
19.0679517916
 10
-13.9588395512
 20
19.0025482077
 10
-14.004231745
 20
18.9340260484
 10
-14.0456179229
 20
18.8625937522
 10
-14.0825410525
 20
18.7890629779
 10
-14.1148865512
 20
18.7136473727
 10
-14.1424812869
 20
18.6365300161
 10
-14.1649432577
 20
18.5584360142
 10
-14.1820559431
 20
18.4796311367
 10
-14.1922718701
 20
18.4116944594
  0
LINE
  5
225
100
AcDbEntity
  8
0
100
AcDbLine
 62
7
  6
CONTINUOUS
 10
-13.6457083426
 20
19.3115109571
 11
-9.8033862196
 21
21.8454862615
  0
LINE
  5
226
100
AcDbEntity
  8
0
100
AcDbLine
 62
253
  6
CONTINUOUS
 10
-13.3889389206
 20
19.2911004732
 11
-9.6499778048
 21
21.7569101655
  0
LINE
  5
227
100
AcDbEntity
  8
RACCORDO
100
AcDbLine
 62
253
  6
CONTINUOUS
 10
-9.4790374895
 20
21.6193152373
 11
-9.5460165488
 21
21.5761129052
  0
LWPOLYLINE
  5
228
100
AcDbEntity
  8
0
100
AcDbPolyline
 62
253
  6
CONTINUOUS
 90
22
 70
0
 10
-13.6455126638
 20
19.311639793
 10
-13.6425254827
 20
19.3135546492
 10
-13.6328109266
 20
19.3191484285
 10
-13.6226712912
 20
19.324053593
 10
-13.6121230038
 20
19.3282621957
 10
-13.6011831539
 20
19.3317674182
 10
-13.5898694652
 20
19.3345635815
 10
-13.5782002675
 20
19.3366461556
 10
-13.566194466
 20
19.3380117665
 10
-13.5538715117
 20
19.3386582017
 10
-13.5412513691
 20
19.338584414
 10
-13.5283544844
 20
19.3377905228
 10
-13.5152017522
 20
19.3362778143
 10
-13.5018144812
 20
19.3340487394
 10
-13.4882143606
 20
19.3311069093
 10
-13.4744234241
 20
19.3274570902
 10
-13.4604640146
 20
19.3231051953
 10
-13.4463587481
 20
19.3180582751
 10
-13.4321304768
 20
19.3123245063
 10
-13.4178022521
 20
19.3059131781
 10
-13.4033972874
 20
19.2988346778
 10
-13.3889389206
 20
19.2911004732
  0
LINE
  5
229
100
AcDbEntity
  8
RACCORDO
100
AcDbLine
 62
7
  6
CONTINUOUS
 10
-12.5908338532
 20
18.807834316
 11
-12.6206570228
 21
18.7887236487
  0
LINE
  5
22A
100
AcDbEntity
  8
RACCORDO
100
AcDbLine
 62
253
  6
CONTINUOUS
 10
-12.5623654183
 20
18.7892081445
 11
-12.542046288
 21
18.8021152812
  0
LINE
  5
22B
100
AcDbEntity
  8
RACCORDO
100
AcDbLine
 62
253
  6
CONTINUOUS
 10
-12.7923038657
 20
18.9466108701
 11
-11.3654651939
 21
19.8270442317
  0
LINE
  5
22C
100
AcDbEntity
  8
RACCORDO
100
AcDbLine
 62
7
  6
CONTINUOUS
 10
-12.5908581907
 20
18.8078193328
 11
-11.1660676005
 21
19.686988922
  0
LINE
  5
22D
100
AcDbEntity
  8
RACCORDO
100
AcDbLine
 62
253
  6
CONTINUOUS
 10
-12.542046288
 20
18.8021152812
 11
-11.1152076163
 21
19.6825486428
  0
LINE
  5
22E
100
AcDbEntity
  8
0
100
AcDbLine
 62
253
  6
CONTINUOUS
 10
-8.2588574365
 20
21.7658211559
 11
-6.129309474
 21
22.9953947713
  0
LINE
  5
22F
100
AcDbEntity
  8
0
100
AcDbLine
 62
253
  6
CONTINUOUS
 10
-8.0820837329
 20
21.45964012
 11
-5.9525357703
 21
22.6892137354
  0
LWPOLYLINE
  5
230
100
AcDbEntity
  8
0
100
AcDbPolyline
 62
7
  6
CONTINUOUS
 90
7
 70
0
 10
0.8907126742
 20
24.0722693365
 10
0.9023542611
 20
24.075692915
 10
0.9143388272
 20
24.0785128128
 10
0.9266622687
 20
24.0807195494
 10
0.9393361168
 20
24.0822988679
 10
0.9523408358
 20
24.0832438305
 10
0.96567355
 20
24.0835440849
  0
LINE
  5
231
100
AcDbEntity
  8
0
100
AcDbLine
 62
253
  6
CONTINUOUS
 10
6.3511222224
 20
-23.678795276
 11
5.8228550506
 21
-23.633152333
  0
LINE
  5
232
100
AcDbEntity
  8
0
100
AcDbLine
 62
253
  6
CONTINUOUS
 10
6.261708427
 20
-23.3495168385
 11
5.8670647791
 21
-23.3154191348
  0
LWPOLYLINE
  5
233
100
AcDbEntity
  8
0
100
AcDbPolyline
 62
7
  6
CONTINUOUS
 90
40
 70
0
 10
4.9327948679
 20
-24.0239551085
 10
4.9270561846
 20
-24.0233895655
 10
4.9211304649
 20
-24.0227111579
 10
4.9150189834
 20
-24.0219230642
 10
4.908720407
 20
-24.0210324857
 10
4.9022393518
 20
-24.0200391452
 10
4.8955863242
 20
-24.0189352546
 10
4.8887634395
 20
-24.0177249067
 10
4.8817732372
 20
-24.0164119925
 10
4.8746271206
 20
-24.0149886435
 10
4.8673279362
 20
-24.0134594682
 10
4.8598789185
 20
-24.0118289046
 10
4.85229231
 20
-24.0100890482
 10
4.8445717146
 20
-24.0082450227
 10
4.8367210791
 20
-24.0063018089
 10
4.8287534192
 20
-24.0042515108
 10
4.8206730948
 20
-24.0020997571
 10
4.812484808
 20
-23.9998520749
 10
4.8042023538
 20
-23.9975006443
 10
4.7958308758
 20
-23.9950515927
 10
4.7873758527
 20
-23.9925109931
 10
4.778851866
 20
-23.9898711867
 10
4.7702648659
 20
-23.9871387854
 10
4.7616211364
 20
-23.9843204108
 10
4.7529360682
 20
-23.9814086765
 10
4.7442164458
 20
-23.9784106572
 10
4.7354693816
 20
-23.9753335234
 10
4.7267110998
 20
-23.9721703051
 10
4.7179492484
 20
-23.9689285065
 10
4.7091917814
 20
-23.9656158402
 10
4.7004557588
 20
-23.9622259316
 10
4.6917497201
 20
-23.9587666654
 10
4.6830824551
 20
-23.9552462756
 10
4.6744718053
 20
-23.951659191
 10
4.6659272513
 20
-23.9480136267
 10
4.6574583565
 20
-23.9443182772
 10
4.649083511
 20
-23.9405685534
 10
4.6408131077
 20
-23.9367729122
 10
4.6326574517
 20
-23.9329404453
 10
4.6299441909
 20
-23.9316306289
  0
LWPOLYLINE
  5
234
100
AcDbEntity
  8
RACCORDO
100
AcDbPolyline
 62
253
  6
CONTINUOUS
 90
13
 70
0
 10
-12.9951211374
 20
18.3294910694
 10
-12.9713964783
 20
18.3668985675
 10
-12.9467158049
 20
18.4036551355
 10
-12.9213151354
 20
18.4394259827
 10
-12.8952526005
 20
18.4741607702
 10
-12.8685958067
 20
18.5078011192
 10
-12.8416308018
 20
18.5400439496
 10
-12.8144324887
 20
18.5708702272
 10
-12.7870747456
 20
18.6002648091
 10
-12.7598668097
 20
18.6279867479
 10
-12.7328857095
 20
18.6540591356
 10
-12.7061998956
 20
18.6785134671
 10
-12.6801179671
 20
18.7011827195
  0
LWPOLYLINE
  5
235
100
AcDbEntity
  8
RACCORDO
100
AcDbPolyline
 62
253
  6
CONTINUOUS
 90
10
 70
0
 10
-7.8574050187
 20
20.2166771401
 10
-7.833795926
 20
20.2340591074
 10
-7.8110673944
 20
20.2554568683
 10
-7.7898648543
 20
20.280262811
 10
-7.7707904045
 20
20.3077725407
 10
-7.7543857262
 20
20.3372048642
 10
-7.7411166935
 20
20.3677239695
 10
-7.7313601282
 20
20.3984631874
 10
-7.7253931037
 20
20.4285496055
 10
-7.7233850844
 20
20.4571288371
  0
LINE
  5
236
100
AcDbEntity
  8
RACCORDO
100
AcDbLine
 62
253
  6
CONTINUOUS
 10
-7.3708631248
 20
20.475679962
 11
-6.480802942
 21
21.0371934437
  0
LINE
  5
237
100
AcDbEntity
  8
RACCORDO
100
AcDbLine
 62
253
  6
CONTINUOUS
 10
-7.2228654914
 20
20.2347546005
 11
-6.3394222527
 21
20.7920936417
  0
LINE
  5
238
100
AcDbEntity
  8
0
100
AcDbLine
 62
7
  6
CONTINUOUS
 10
-4.5009039547
 20
21.0369086614
 11
-5.5553933861
 21
20.4138087356
  0
LINE
  5
239
100
AcDbEntity
  8
0
100
AcDbLine
 62
7
  6
CONTINUOUS
 10
0.8353194512
 20
24.0466948215
 11
-4.5009039547
 21
21.0369086614
  0
LINE
  5
23A
100
AcDbEntity
  8
DRAFT
100
AcDbLine
 62
7
  6
CONTINUOUS
 10
1.3435288276
 20
25.290566924
 11
-5.7778099878
 21
21.2796248602
  0
LWPOLYLINE
  5
23B
100
AcDbEntity
  8
RACCORDO
100
AcDbPolyline
 62
253
  6
CONTINUOUS
 90
6
 70
0
 10
-12.590833861
 20
18.8078343287
 10
-12.5858550905
 20
18.8102758254
 10
-12.5763028618
 20
18.8122799522
 10
-12.565595982
 20
18.8115595931
 10
-12.5540601517
 20
18.8081366612
 10
-12.542046288
 20
18.8021152812
  0
LWPOLYLINE
  5
23C
100
AcDbEntity
  8
0
100
AcDbPolyline
 62
7
  6
CONTINUOUS
 90
7
 70
0
 10
1.5073521646
 20
23.6928418754
 10
1.5021833812
 20
23.6903767129
 10
1.4970056485
 20
23.6878185176
 10
1.4918189665
 20
23.6851672894
 10
1.4866233353
 20
23.6824230284
 10
1.4814187548
 20
23.6795857346
 10
1.476205225
 20
23.6766554079
  0
LINE
  5
23D
100
AcDbEntity
  8
0
100
AcDbLine
 62
7
  6
CONTINUOUS
 10
1.5473800792
 20
23.7115179828
 11
1.5073521646
 21
23.6928418754
  0
LINE
  5
23E
100
AcDbEntity
  8
0
100
AcDbLine
 62
7
  6
CONTINUOUS
 10
1.565130221
 20
23.7197039423
 11
1.5473800792
 21
23.7115179828
  0
LINE
  5
23F
100
AcDbEntity
  8
0
100
AcDbLine
 62
7
  6
CONTINUOUS
 10
1.5812649345
 20
23.7270441624
 11
1.565130221
 21
23.7197039423
  0
LWPOLYLINE
  5
240
100
AcDbEntity
  8
0
100
AcDbPolyline
 62
7
  6
CONTINUOUS
 90
3
 70
0
 10
0.8685221489
 20
24.0636377352
 10
0.8794319758
 20
24.0682482172
 10
0.8907126742
 20
24.0722693365
  0
LWPOLYLINE
  5
241
100
AcDbEntity
  8
0
100
AcDbPolyline
 62
7
  6
CONTINUOUS
 90
11
 70
0
 10
1.0439039308
 20
-25.3619142561
 10
1.0959559804
 20
-25.3890964913
 10
1.1653103881
 20
-25.4169828121
 10
1.2387226127
 20
-25.4374082346
 10
1.3152105846
 20
-25.4497677893
 10
1.3940893644
 20
-25.4536874685
 10
1.474395654
 20
-25.4489080518
 10
1.5549265385
 20
-25.4354223038
 10
1.6350011981
 20
-25.4133631104
 10
1.7142348414
 20
-25.3828388808
 10
1.7527778881
 20
-25.3647506463
  0
LINE
  5
242
100
AcDbEntity
  8
0
100
AcDbLine
 62
7
  6
CONTINUOUS
 10
1.04464154
 20
-25.362341741
 11
-13.8479149892
 21
-16.7635662485
  0
LINE
  5
243
100
AcDbEntity
  8
0
100
AcDbLine
 62
253
  6
CONTINUOUS
 10
0.8437265718
 20
-25.0207876679
 11
-14.0453532875
 21
-16.4240195611
  0
LWPOLYLINE
  5
244
100
AcDbEntity
  8
0
100
AcDbPolyline
 62
253
  6
CONTINUOUS
 90
20
 70
0
 10
-13.8560153984
 20
-16.758732354
 10
-13.8716284414
 20
-16.7484844538
 10
-13.8866899187
 20
-16.7373302172
 10
-13.9011836785
 20
-16.7252815854
 10
-13.9150945958
 20
-16.7123512062
 10
-13.9284077825
 20
-16.6985528869
 10
-13.9411089679
 20
-16.6839013616
 10
-13.9531849132
 20
-16.6684120448
 10
-13.964622706
 20
-16.6521014347
 10
-13.9754100713
 20
-16.634986934
 10
-13.9855357498
 20
-16.6170866153
 10
-13.9949889108
 20
-16.598419546
 10
-14.0037594174
 20
-16.5790056051
 10
-14.0118381307
 20
-16.5588652971
 10
-14.0192164206
 20
-16.5380200322
 10
-14.0258863597
 20
-16.5164920093
 10
-14.0318409872
 20
-16.4943040306
 10
-14.0370739875
 20
-16.4714796605
 10
-14.0415796958
 20
-16.4480431993
 10
-14.0453532875
 20
-16.4240195611
  0
LWPOLYLINE
  5
245
100
AcDbEntity
  8
0
100
AcDbPolyline
 62
7
  6
CONTINUOUS
 90
7
 70
0
 10
-14.0813625192
 20
-16.5376514665
 10
-14.0441033113
 20
-16.5911463612
 10
-14.0027401437
 20
-16.6400594042
 10
-13.9578974296
 20
-16.6840021653
 10
-13.9102067453
 20
-16.7227586167
 10
-13.8602071468
 20
-16.7562897315
 10
-13.8472938118
 20
-16.7639236563
  0
LWPOLYLINE
  5
246
100
AcDbEntity
  8
RACCORDO
100
AcDbPolyline
 62
7
  6
CONTINUOUS
 90
5
 70
0
 10
-13.1534524132
 20
18.105190414
 10
-13.1780130983
 20
18.0369497718
 10
-13.1990623356
 20
17.9684864948
 10
-13.2164439595
 20
17.9001872106
 10
-13.2300296964
 20
17.8324049488
  0
LWPOLYLINE
  5
247
100
AcDbEntity
  8
RACCORDO
100
AcDbPolyline
 62
253
  6
CONTINUOUS
 90
3
 70
0
 10
-13.0942676451
 20
18.140635983
 10
-13.0777212607
 20
18.1774034219
 10
-13.0600028364
 20
18.2144205294
  0
LWPOLYLINE
  5
248
100
AcDbEntity
  8
RACCORDO
100
AcDbPolyline
 62
7
  6
CONTINUOUS
 90
3
 70
0
 10
-13.0946336086
 20
18.2392164308
 10
-13.1255462888
 20
18.1728399464
 10
-13.1534524132
 20
18.105190414
  0
LWPOLYLINE
  5
249
100
AcDbEntity
  8
RACCORDO
100
AcDbPolyline
 62
253
  6
CONTINUOUS
 90
4
 70
0
 10
-13.0600028364
 20
18.2144205294
 10
-13.0394323584
 20
18.2532199401
 10
-13.0177928498
 20
18.2916025447
 10
-12.9951211374
 20
18.3294910694
  0
LINE
  5
24A
100
AcDbEntity
  8
RACCORDO
100
AcDbLine
 62
7
  6
CONTINUOUS
 10
-13.0606947421
 20
18.3018169527
 11
-13.0946294801
 21
18.2392245968
  0
LINE
  5
24B
100
AcDbEntity
  8
0
100
AcDbLine
 62
253
  6
CONTINUOUS
 10
-6.480802942
 20
21.6987561685
 11
-5.9525357703
 21
22.3615684349
  0
LINE
  5
24C
100
AcDbEntity
  8
0
100
AcDbLine
 62
7
  6
CONTINUOUS
 10
-6.480802942
 20
21.6222043257
 11
-5.9348357698
 21
22.3072246302
  0
LWPOLYLINE
  5
24D
100
AcDbEntity
  8
0
100
AcDbPolyline
 62
7
  6
CONTINUOUS
 90
37
 70
0
 10
-7.3708631248
 20
21.0736299343
 10
-7.376601808
 20
21.066718807
 10
-7.3825275277
 20
21.0598933506
 10
-7.3886390093
 20
21.0531619996
 10
-7.3949375856
 20
21.0465337508
 10
-7.4014186409
 20
21.040016567
 10
-7.4080716685
 20
21.033617417
 10
-7.4148945531
 20
21.0273449422
 10
-7.4218847554
 20
21.0212076345
 10
-7.4290308721
 20
21.0152123493
 10
-7.4363300564
 20
21.0093677566
 10
-7.4437790742
 20
21.0036823524
 10
-7.4513656827
 20
20.9981628419
 10
-7.4590862781
 20
20.9928178571
 10
-7.4669369136
 20
20.9876558259
 10
-7.4749045734
 20
20.9826832653
 10
-7.4829848979
 20
20.9779086838
 10
-7.4911731847
 20
20.973340385
 10
-7.4994556388
 20
20.968984705
 10
-7.5078271168
 20
20.9648499514
 10
-7.5162821399
 20
20.9609442192
 10
-7.5248061267
 20
20.9572736506
 10
-7.5333931267
 20
20.95384626
 10
-7.5420368562
 20
20.9506698394
 10
-7.5507219244
 20
20.9477503097
 10
-7.5594415469
 20
20.9450952838
 10
-7.5681886111
 20
20.9427121362
 10
-7.5769468929
 20
20.940606507
 10
-7.5857087442
 20
20.9387854794
 10
-7.5944662112
 20
20.9372558694
 10
-7.6032022339
 20
20.9360229317
 10
-7.6119082725
 20
20.9350930655
 10
-7.6205755375
 20
20.9344723581
 10
-7.6291861873
 20
20.9341655181
 10
-7.6377307413
 20
20.9341780775
 10
-7.6461996362
 20
20.9345151952
 10
-7.6529939022
 20
20.9350291337
  0
LINE
  5
24E
100
AcDbEntity
  8
0
100
AcDbLine
 62
7
  6
CONTINUOUS
 10
-4.1827059032
 20
19.1171633612
 11
-4.8898126844
 21
18.6660993738
  0
LINE
  5
24F
100
AcDbEntity
  8
0
100
AcDbLine
 62
7
  6
CONTINUOUS
 10
-4.8898126844
 20
20.0295107801
 11
-4.0421072984
 21
20.5246598209
  0
LINE
  5
250
100
AcDbEntity
  8
0
100
AcDbLine
 62
7
  6
CONTINUOUS
 10
1.476205225
 20
23.6766554079
 11
-3.1220457314
 21
21.052572306
  0
LINE
  5
251
100
AcDbEntity
  8
0
100
AcDbLine
 62
7
  6
CONTINUOUS
 10
-1.9841648576
 20
20.3955741505
 11
1.5073521646
 21
22.3880775839
  0
LINE
  5
252
100
AcDbEntity
  8
0
100
AcDbLine
 62
7
  6
CONTINUOUS
 10
4.3066892284
 20
23.5796752457
 11
-1.630611467
 21
20.1914368538
  0
LWPOLYLINE
  5
253
100
AcDbEntity
  8
0
100
AcDbPolyline
 62
253
  6
CONTINUOUS
 90
15
 70
0
 10
-1.230475231
 20
-22.1709776083
 10
-1.2068226361
 20
-22.1831675963
 10
-1.1824205264
 20
-22.1918888259
 10
-1.157446297
 20
-22.1970467515
 10
-1.1320073121
 20
-22.1985767526
 10
-1.1063794296
 20
-22.1963366731
 10
-1.0809374494
 20
-22.1901403043
 10
-1.0554173819
 20
-22.1795049179
 10
-1.0303619513
 20
-22.1647503887
 10
-1.0070312475
 20
-22.1470550068
 10
-0.9853246788
 20
-22.1264422612
 10
-0.9649726914
 20
-22.1030558969
 10
-0.9466293907
 20
-22.0784355361
 10
-0.9301945488
 20
-22.0529846563
 10
-0.9144816842
 20
-22.0251684778
  0
LWPOLYLINE
  5
254
100
AcDbEntity
  8
0
100
AcDbPolyline
 62
253
  6
CONTINUOUS
 90
31
 70
0
 10
-1.2817567401
 20
-22.3936584492
 10
-1.2438021862
 20
-22.4141325799
 10
-1.2062238993
 20
-22.4306014183
 10
-1.1690209513
 20
-22.4430642911
 10
-1.1318312297
 20
-22.4517129694
 10
-1.0950129643
 20
-22.4563528687
 10
-1.0596447662
 20
-22.4564030786
 10
-1.0255946101
 20
-22.4513346997
 10
-0.9929861964
 20
-22.4416706117
 10
-0.9632832067
 20
-22.4284086482
 10
-0.9370067764
 20
-22.411249843
 10
-0.9136302052
 20
-22.3904891599
 10
-0.8930504975
 20
-22.3680189991
 10
-0.8754896525
 20
-22.3440704917
 10
-0.8607258234
 20
-22.3184126393
 10
-0.8479943433
 20
-22.2922476021
 10
-0.8372574541
 20
-22.2658074001
 10
-0.8285552349
 20
-22.238861702
 10
-0.8212411393
 20
-22.2119201219
 10
-0.8152411037
 20
-22.1850841313
 10
-0.8106315837
 20
-22.1582539899
 10
-0.8069919146
 20
-22.1316375658
 10
-0.8042724236
 20
-22.1052927305
 10
-0.8025248638
 20
-22.0791631133
 10
-0.8014804668
 20
-22.0532850434
 10
-0.8011039385
 20
-22.0276953353
 10
-0.8014321934
 20
-22.0023583412
 10
-0.8023044048
 20
-21.9772014308
 10
-0.8036672555
 20
-21.9522006043
 10
-0.8055751511
 20
-21.9273806449
 10
-0.8515425885
 20
-21.4825012794
  0
LWPOLYLINE
  5
255
100
AcDbEntity
  8
0
100
AcDbPolyline
 62
253
  6
CONTINUOUS
 90
34
 70
0
 10
3.8690523001
 20
-25.221171856
 10
3.877632503
 20
-25.2258963851
 10
3.8865910263
 20
-25.2303807219
 10
3.8959077221
 20
-25.2346147789
 10
3.905561643
 20
-25.2385890343
 10
3.9155310707
 20
-25.2422945451
 10
3.9257935634
 20
-25.2457229694
 10
3.9363260323
 20
-25.2488665945
 10
3.9471047927
 20
-25.2517183522
 10
3.9581055972
 20
-25.2542718277
 10
3.9693037038
 20
-25.2565212789
 10
3.9806739235
 20
-25.2584616464
 10
3.9921906731
 20
-25.2600885656
 10
4.0038280464
 20
-25.2613983783
 10
4.0155598703
 20
-25.2623881403
 10
4.0273597534
 20
-25.2630556268
 10
4.0392011616
 20
-25.2633993383
 10
4.0510574552
 20
-25.2634185031
 10
4.0629019457
 20
-25.2631130807
 10
4.0747079604
 20
-25.2624837639
 10
4.0864489799
 20
-25.2615319712
 10
4.098098674
 20
-25.2602598375
 10
4.1096309478
 20
-25.2586702049
 10
4.1210197525
 20
-25.2567666564
 10
4.1322392312
 20
-25.2545535218
 10
4.1432640137
 20
-25.2520358318
 10
4.1540694692
 20
-25.2492192378
 10
4.1646315071
 20
-25.2461100294
 10
4.174927901
 20
-25.2427146671
 10
4.1849338817
 20
-25.2390412346
 10
4.1946228225
 20
-25.2350997563
 10
4.2039720427
 20
-25.2309000587
 10
4.2129624194
 20
-25.2264513529
 10
4.2215742598
 20
-25.2217639366
  0
LWPOLYLINE
  5
256
100
AcDbEntity
  8
0
100
AcDbPolyline
 62
253
  6
CONTINUOUS
 90
34
 70
0
 10
3.8690523001
 20
-24.9006516831
 10
3.8776289529
 20
-24.9053743482
 10
3.8865842607
 20
-24.9098573213
 10
3.8958981731
 20
-24.9140904741
 10
3.9055500571
 20
-24.918064327
 10
3.915518065
 20
-24.921769786
 10
3.9257791099
 20
-24.9251982283
 10
3.9363098583
 20
-24.9283418711
 10
3.9470868762
 20
-24.9311937323
 10
3.9580859542
 20
-24.9337474044
 10
3.9692823797
 20
-24.9359971466
 10
3.9806509583
 20
-24.9379378934
 10
3.9921660942
 20
-24.9395652745
 10
4.0038018799
 20
-24.9408756298
 10
4.0155321632
 20
-24.9418660153
 10
4.0273305733
 20
-24.9425342049
 10
4.0391705811
 20
-24.9428786961
 10
4.0510255607
 20
-24.9428987143
 10
4.0628688562
 20
-24.9425942144
 10
4.0746738365
 20
-24.941965881
 10
4.0864139555
 20
-24.9410151269
 10
4.0980628136
 20
-24.93974409
 10
4.1095942148
 20
-24.9381556284
 10
4.1209822303
 20
-24.936253314
 10
4.132201257
 20
-24.9340414232
 10
4.1432260768
 20
-24.9315249268
 10
4.1540318876
 20
-24.9287094852
 10
4.1645943655
 20
-24.9256014365
 10
4.1748897462
 20
-24.9222077762
 10
4.1848948954
 20
-24.9185361329
 10
4.1945873339
 20
-24.9145947569
 10
4.2039452724
 20
-24.9103925084
 10
4.2129476621
 20
-24.9059388391
 10
4.2215742598
 20
-24.9012437638
  0
LINE
  5
257
100
AcDbEntity
  8
0
100
AcDbLine
 62
253
  6
CONTINUOUS
 10
-12.3126225266
 20
-16.0245747933
 11
-1.2817567401
 21
-22.3936584492
  0
LINE
  5
258
100
AcDbEntity
  8
0
100
AcDbLine
 62
7
  6
CONTINUOUS
 10
2.943815012
 20
-24.7714939295
 11
3.9208229554
 21
-25.3356060712
  0
LINE
  5
259
100
AcDbEntity
  8
0
100
AcDbLine
 62
253
  6
CONTINUOUS
 10
3.0224234389
 20
-24.7323389622
 11
3.8690523001
 21
-25.221171856
  0
LINE
  5
25A
100
AcDbEntity
  8
0
100
AcDbLine
 62
253
  6
CONTINUOUS
 10
-12.2613410175
 20
-15.8018939524
 11
-1.230475231
 21
-22.1709776083
  0
LINE
  5
25B
100
AcDbEntity
  8
0
100
AcDbLine
 62
253
  6
CONTINUOUS
 10
3.8690523001
 20
-24.9006516831
 11
3.320446211
 21
-24.5838934029
  0
LINE
  5
25C
100
AcDbEntity
  8
0
100
AcDbLine
 62
253
  6
CONTINUOUS
 10
3.9574406478
 20
-24.6728463587
 11
3.5797140266
 21
-24.4547517416
  0
LWPOLYLINE
  5
25D
100
AcDbEntity
  8
0
100
AcDbPolyline
 62
253
  6
CONTINUOUS
 90
9
 70
0
 10
-17.6381934266
 20
-4.1262081154
 10
-17.6381652288
 20
-4.1542193472
 10
-17.6324620053
 20
-4.1803462917
 10
-17.6213794238
 20
-4.2065066702
 10
-17.6050389076
 20
-4.2324138641
 10
-17.5836194868
 20
-4.2577840289
 10
-17.5573558369
 20
-4.2823392036
 10
-17.5265357081
 20
-4.3058103566
 10
-17.4914967721
 20
-4.3279403331
  0
LINE
  5
25E
100
AcDbEntity
  8
0
100
AcDbLine
 62
7
  6
CONTINUOUS
 10
-14.1922390716
 20
18.4119724912
 11
-14.1922718701
 21
18.4116944594
  0
LWPOLYLINE
  5
25F
100
AcDbEntity
  8
0
100
AcDbPolyline
 62
253
  6
CONTINUOUS
 90
37
 70
0
 10
-17.4914967721
 20
-4.3279403331
 10
-17.4495947719
 20
-3.9863853333
 10
-17.4033413433
 20
-3.6499313251
 10
-17.3530842928
 20
-3.3188281401
 10
-17.2993835837
 20
-2.9945818806
 10
-17.2423878143
 20
-2.6761451047
 10
-17.1816557417
 20
-2.3598620254
 10
-17.1171564429
 20
-2.0449614334
 10
-17.0492185969
 20
-1.7324838682
 10
-16.9777328391
 20
-1.4214202682
 10
-16.9027951138
 20
-1.1118120622
 10
-16.8245348413
 20
-0.8038405632
 10
-16.7428123388
 20
-0.4966830103
 10
-16.6577099679
 20
-0.1904513463
 10
-16.5693019744
 20
0.114775211
 10
-16.4773663414
 20
0.4198824327
 10
-16.3819381165
 20
0.7248099681
 10
-16.2830695627
 20
1.0294445632
 10
-16.1804984741
 20
1.3345992181
 10
-16.0742288225
 20
1.6402190277
 10
-15.9642863494
 20
1.9461882571
 10
-15.8503837303
 20
2.2532283013
 10
-15.7325071679
 20
2.5612616302
 10
-15.6106532159
 20
2.870185514
 10
-15.4844983122
 20
3.1806770535
 10
-15.3540002286
 20
3.4926650649
 10
-15.2191419393
 20
3.8060187811
 10
-15.0795913773
 20
4.1213138195
 10
-14.9354445839
 20
4.4381252994
 10
-14.7865212691
 20
4.7566450825
 10
-14.6320015481
 20
5.0783474805
 10
-14.4724667677
 20
5.4017367543
 10
-14.3071840186
 20
5.7280163939
 10
-14.1331228684
 20
6.0626101002
 10
-13.9490064273
 20
6.4071116854
 10
-13.7555238979
 20
6.7593634411
 10
-13.5524086434
 20
7.1190520879
  0
LWPOLYLINE
  5
260
100
AcDbEntity
  8
0
100
AcDbPolyline
 62
253
  6
CONTINUOUS
 90
43
 70
0
 10
-14.0453532875
 20
18.2118212008
 10
-14.0415796248
 20
18.2402798914
 10
-14.0370738601
 20
18.2690112758
 10
-14.0318408358
 20
18.2979848617
 10
-14.0258862654
 20
18.327169799
 10
-14.0192164577
 20
18.3565352276
 10
-14.0118382748
 20
18.386050318
 10
-14.0037595584
 20
18.4156840166
 10
-13.9949889825
 20
18.4454046557
 10
-13.985535771
 20
18.4751803046
 10
-13.9754101176
 20
18.5049792771
 10
-13.9646228162
 20
18.5347700994
 10
-13.9531850829
 20
18.5645211261
 10
-13.941109176
 20
18.5942008579
 10
-13.9284080191
 20
18.6237778075
 10
-13.9150948421
 20
18.6532204652
 10
-13.9011839
 20
18.6824976816
 10
-13.8866900904
 20
18.7115783907
 10
-13.87162857
 20
18.7404314761
 10
-13.8560155083
 20
18.7690263523
 10
-13.8398675977
 20
18.7973327617
 10
-13.8232016681
 20
18.8253204964
 10
-13.8060355849
 20
18.8529599321
 10
-13.7883877233
 20
18.8802217973
 10
-13.7702764782
 20
18.9070769706
 10
-13.7517212386
 20
18.9334970662
 10
-13.7327418905
 20
18.9594540823
 10
-13.7133582894
 20
18.984920172
 10
-13.6935912408
 20
19.0098683689
 10
-13.6734618854
 20
19.0342723137
 10
-13.6529912003
 20
19.0581059002
 10
-13.632201137
 20
19.0813439158
 10
-13.6111139477
 20
19.1039618041
 10
-13.5897515689
 20
19.1259353858
 10
-13.5681368013
 20
19.1472415288
 10
-13.5462928804
 20
19.1678576123
 10
-13.5242428044
 20
19.1877613025
 10
-13.5020103876
 20
19.2069314359
 10
-13.4796192677
 20
19.2253479569
 10
-13.4570924697
 20
19.2429913497
 10
-13.4344538016
 20
19.2598429416
 10
-13.4117278365
 20
19.275884962
 10
-13.3889389206
 20
19.2911004732
  0
LWPOLYLINE
  5
261
100
AcDbEntity
  8
RACCORDO
100
AcDbPolyline
 62
253
  6
CONTINUOUS
 90
3
 70
0
 10
-13.1979688263
 20
17.8074973657
 10
-13.1923401141
 20
17.8362475492
 10
-13.1857553433
 20
17.8663230752
  0
LWPOLYLINE
  5
262
100
AcDbEntity
  8
RACCORDO
100
AcDbPolyline
 62
253
  6
CONTINUOUS
 90
9
 70
0
 10
-13.1857553433
 20
17.8663230752
 10
-13.178188291
 20
17.8975219643
 10
-13.1695730835
 20
17.9298305384
 10
-13.1598483135
 20
17.9632099197
 10
-13.1490267978
 20
17.9974051185
 10
-13.1370662298
 20
18.0323707447
 10
-13.1239249657
 20
18.0680562844
 10
-13.1096543494
 20
18.1041889495
 10
-13.0942676451
 20
18.140635983
  0
LINE
  5
263
100
AcDbEntity
  8
0
100
AcDbLine
 62
7
  6
CONTINUOUS
 10
-5.9172888677
 20
22.3322360535
 11
-5.9348233016
 21
22.3072403019
  0
LINE
  5
264
100
AcDbEntity
  8
0
100
AcDbLine
 62
7
  6
CONTINUOUS
 10
-2.273517594
 20
18.1866896753
 11
-2.0613855596
 21
18.3220088716
  0
LINE
  5
265
100
AcDbEntity
  8
DRAFT
100
AcDbLine
 62
7
  6
CONTINUOUS
 10
-5.879762178
 20
17.6049405011
 11
-6.6711564916
 21
17.1166092205
  0
LINE
  5
266
100
AcDbEntity
  8
0
100
AcDbLine
 62
253
  6
CONTINUOUS
 10
-2.4157617017
 20
19.5856282562
 11
-2.2028069158
 21
19.7100162331
  0
LINE
  5
267
100
AcDbEntity
  8
0
100
AcDbLine
 62
253
  6
CONTINUOUS
 10
-2.273517594
 20
19.341157092
 11
-2.0613855596
 21
19.4650644956
  0
LINE
  5
268
100
AcDbEntity
  8
0
100
AcDbLine
 62
7
  6
CONTINUOUS
 10
-0.6060442133
 20
18.7398969489
 11
-0.8187563078
 21
18.6156507292
  0
LINE
  5
269
100
AcDbEntity
  8
0
100
AcDbLine
 62
253
  6
CONTINUOUS
 10
-0.505750641
 20
18.7301572091
 11
-0.7187054268
 21
18.6057692323
  0
LINE
  5
26A
100
AcDbEntity
  8
0
100
AcDbLine
 62
7
  6
CONTINUOUS
 10
-1.3542787784
 20
19.7918526444
 11
3.2611983292
 21
22.4567712809
  0
LINE
  5
26B
100
AcDbEntity
  8
0
100
AcDbLine
 62
7
  6
CONTINUOUS
 10
-0.6054625068
 20
18.7402328075
 11
-0.6060442088
 21
18.7398969515
  0
LINE
  5
26C
100
AcDbEntity
  8
0
100
AcDbLine
 62
7
  6
CONTINUOUS
 10
-2.0613855596
 20
18.3220088716
 11
-1.3542787784
 21
18.7260083975
  0
LINE
  5
26D
100
AcDbEntity
  8
0
100
AcDbLine
 62
253
  6
CONTINUOUS
 10
-2.2028069158
 20
19.7100162331
 11
-1.4957001347
 21
20.1135407413
  0
LINE
  5
26E
100
AcDbEntity
  8
0
100
AcDbLine
 62
253
  6
CONTINUOUS
 10
-2.0613855596
 20
19.4650644956
 11
-1.3542787784
 21
19.8685890038
  0
LINE
  5
26F
100
AcDbEntity
  8
0
100
AcDbLine
 62
7
  6
CONTINUOUS
 10
0.1016442788
 20
19.1437573183
 11
-0.6054625023
 21
18.7402328101
  0
LINE
  5
270
100
AcDbEntity
  8
0
100
AcDbLine
 62
253
  6
CONTINUOUS
 10
0.2013561402
 20
19.1336817173
 11
-0.505750641
 21
18.7301572091
  0
LINE
  5
271
100
AcDbEntity
  8
SMUSSO
100
AcDbLine
 62
7
  6
CONTINUOUS
 10
-5.879762178
 20
16.8523071364
 11
-6.0525086176
 21
16.7594096915
  0
LWPOLYLINE
  5
272
100
AcDbEntity
  8
0
100
AcDbPolyline
 62
7
  6
CONTINUOUS
 90
3
 70
0
 10
6.4570996329
 20
20.8349197221
 10
6.4680054355
 20
20.8396554214
 10
6.4792859609
 20
20.8437967949
  0
LWPOLYLINE
  5
273
100
AcDbEntity
  8
0
100
AcDbPolyline
 62
7
  6
CONTINUOUS
 90
8
 70
0
 10
6.4792859609
 20
20.8437967949
 10
6.4909309824
 20
20.8473356196
 10
6.5029225993
 20
20.8502656038
 10
6.5152562187
 20
20.8525773449
 10
6.5279423512
 20
20.8542569364
 10
6.5409615774
 20
20.8552972785
 10
6.5543103831
 20
20.855688232
 10
6.5680266638
 20
20.8554073851
  0
LWPOLYLINE
  5
274
100
AcDbEntity
  8
0
100
AcDbPolyline
 62
253
  6
CONTINUOUS
 90
7
 70
0
 10
6.2980929683
 20
-23.3606851821
 10
6.292733457
 20
-23.3578670088
 10
6.2869327711
 20
-23.3553438481
 10
6.2809178459
 20
-23.3532440861
 10
6.274701081
 20
-23.3515714455
 10
6.2682938185
 20
-23.350328392
 10
6.261708427
 20
-23.3495168385
  0
LINE
  5
275
100
AcDbEntity
  8
0
100
AcDbLine
 62
253
  6
CONTINUOUS
 10
6.2983261194
 20
-23.3608192993
 11
6.2980929683
 21
-23.3606851821
  0
LINE
  5
276
100
AcDbEntity
  8
0
100
AcDbLine
 62
253
  6
CONTINUOUS
 10
6.0472289806
 20
-23.2256790942
 11
6.261708427
 21
-23.3495168385
  0
LINE
  5
277
100
AcDbEntity
  8
0
100
AcDbLine
 62
7
  6
CONTINUOUS
 10
6.0563784345
 20
-23.2211217384
 11
6.2983261194
 21
-23.3608192993
  0
LINE
  5
278
100
AcDbEntity
  8
0
100
AcDbLine
 62
7
  6
CONTINUOUS
 10
-10.9351992794
 20
-12.5498774212
 11
-1.8135218021
 21
-17.8166196751
  0
LINE
  5
279
100
AcDbEntity
  8
0
100
AcDbLine
 62
7
  6
CONTINUOUS
 10
-1.1952327184
 20
-18.0722859646
 11
-1.7619111633
 21
-17.7450929326
  0
LINE
  5
27A
100
AcDbEntity
  8
0
100
AcDbLine
 62
253
  6
CONTINUOUS
 10
6.2700410194
 20
-23.3546247533
 11
6.261708427
 21
-23.3495168385
  0
LINE
  5
27B
100
AcDbEntity
  8
0
100
AcDbLine
 62
7
  6
CONTINUOUS
 10
6.2980929683
 20
-23.3606851821
 11
6.3181888718
 21
-23.3735765788
  0
LINE
  5
27C
100
AcDbEntity
  8
0
100
AcDbLine
 62
7
  6
CONTINUOUS
 10
-10.9351992794
 20
-12.5498774212
 11
-14.7070913047
 21
-8.5077569478
  0
LWPOLYLINE
  5
27D
100
AcDbEntity
  8
0
100
AcDbPolyline
 62
7
  6
CONTINUOUS
 90
10
 70
0
 10
-17.3862206527
 20
-5.038182794
 10
-17.44543031
 20
-4.9675976332
 10
-17.498779697
 20
-4.8884091943
 10
-17.5453471337
 20
-4.8007463449
 10
-17.5844344878
 20
-4.704275341
 10
-17.614912939
 20
-4.5997807359
 10
-17.6357857364
 20
-4.4892202615
 10
-17.6467621377
 20
-4.3734778744
 10
-17.6476745039
 20
-4.2523578398
 10
-17.6381934266
 20
-4.1262081154
  0
LINE
  5
27E
100
AcDbEntity
  8
0
100
AcDbLine
 62
253
  6
CONTINUOUS
 10
-17.3102730002
 20
-5.098433642
 11
-17.358034563
 21
-5.0397947291
  0
LWPOLYLINE
  5
27F
100
AcDbEntity
  8
0
100
AcDbPolyline
 62
253
  6
CONTINUOUS
 90
3
 70
0
 10
-17.358034563
 20
-5.0397947291
 10
-17.3993950522
 20
-4.9731563781
 10
-17.434065628
 20
-4.898983956
  0
LWPOLYLINE
  5
280
100
AcDbEntity
  8
0
100
AcDbPolyline
 62
253
  6
CONTINUOUS
 90
7
 70
0
 10
-17.434065628
 20
-4.898983956
 10
-17.4618041694
 20
-4.8177954435
 10
-17.4824169649
 20
-4.7301578182
 10
-17.4957600657
 20
-4.6366830954
 10
-17.5017402906
 20
-4.5380240531
 10
-17.500315877
 20
-4.4348696738
 10
-17.4914967721
 20
-4.3279403331
  0
LWPOLYLINE
  5
281
100
AcDbEntity
  8
0
100
AcDbPolyline
 62
7
  6
CONTINUOUS
 90
6
 70
0
 10
-14.1909379336
 20
-16.2305087284
 10
-14.1815536172
 20
-16.2849782931
 10
-14.1645082421
 20
-16.3529202412
 10
-14.1419804961
 20
-16.4179904846
 10
-14.1141313216
 20
-16.4797942544
 10
-14.0813625192
 20
-16.5376514665
  0
LWPOLYLINE
  5
282
100
AcDbEntity
  8
0
100
AcDbPolyline
 62
253
  6
CONTINUOUS
 90
18
 70
0
 10
-14.1909381368
 20
-16.2305087568
 10
-14.1905404017
 20
-16.2332098205
 10
-14.1879218951
 20
-16.2471833428
 10
-14.1843869872
 20
-16.2609969329
 10
-14.1799422597
 20
-16.2746248704
 10
-14.1745959887
 20
-16.2880417805
 10
-14.1683581287
 20
-16.3012226814
 10
-14.1612402944
 20
-16.3141430308
 10
-14.1532557389
 20
-16.3267787714
 10
-14.1444193291
 20
-16.3391063759
 10
-14.1347475183
 20
-16.3511028908
 10
-14.1242583149
 20
-16.3627459789
 10
-14.1129712495
 20
-16.3740139612
 10
-14.1009073382
 20
-16.3848858572
 10
-14.0880890436
 20
-16.3953414238
 10
-14.0745402328
 20
-16.405361193
 10
-14.0602861334
 20
-16.4149265085
 10
-14.0453532859
 20
-16.4240195599
  0
LINE
  5
283
100
AcDbEntity
  8
0
100
AcDbLine
 62
7
  6
CONTINUOUS
 10
-14.1909921632
 20
-16.230122601
 11
-14.1909381368
 21
-16.2305087568
  0
LWPOLYLINE
  5
284
100
AcDbEntity
  8
0
100
AcDbPolyline
 62
253
  6
CONTINUOUS
 90
3
 70
0
 10
-14.703061632
 20
-8.5355459294
 10
-14.7205292722
 20
-7.9061600027
 10
-14.7207618137
 20
-7.894602244
  0
LWPOLYLINE
  5
285
100
AcDbEntity
  8
0
100
AcDbPolyline
 62
7
  6
CONTINUOUS
 90
10
 70
0
 10
-14.8647338567
 20
-7.7403156581
 10
-14.8574096723
 20
-8.0683912043
 10
-14.8203754492
 20
-9.1298811303
 10
-14.769739388
 20
-10.1825960493
 10
-14.7055098694
 20
-11.2263114559
 10
-14.6276976213
 20
-12.260808788
 10
-14.5363157932
 20
-13.285870558
 10
-14.4313798328
 20
-14.301281863
 10
-14.3129081768
 20
-15.306825136
 10
-14.1909921632
 20
-16.230122601
  0
LWPOLYLINE
  5
286
100
AcDbEntity
  8
0
100
AcDbPolyline
 62
253
  6
CONTINUOUS
 90
20
 70
0
 10
-14.8796989719
 20
8.4435022884
 10
-14.8797000774
 20
8.4384396024
 10
-14.8790445862
 20
8.4262243248
 10
-14.8774596802
 20
8.4140263059
 10
-14.8749483096
 20
8.4018682522
 10
-14.8715151495
 20
8.3897727961
 10
-14.8671665905
 20
8.3777624533
 10
-14.8619107277
 20
8.3658595812
 10
-14.8557573448
 20
8.3540863369
 10
-14.8487178964
 20
8.3424646364
 10
-14.8408054864
 20
8.3310161136
 10
-14.8320348438
 20
8.31976208
 10
-14.8224222952
 20
8.308723485
 10
-14.8119857345
 20
8.2979208769
 10
-14.8007445893
 20
8.2873743649
 10
-14.788719785
 20
8.2771035814
 10
-14.775933706
 20
8.2671276454
 10
-14.7624101535
 20
8.2574651273
 10
-14.7481743017
 20
8.2481340139
 10
-14.7332526507
 20
8.239151675
  0
LWPOLYLINE
  5
287
100
AcDbEntity
  8
0
100
AcDbPolyline
 62
253
  6
CONTINUOUS
 90
4
 70
0
 10
-14.7715359805
 20
5.2656848327
 10
-14.7680917771
 20
5.6329017145
 10
-14.7524142872
 20
6.9350045739
 10
-14.7332526523
 20
8.239151674
  0
LWPOLYLINE
  5
288
100
AcDbEntity
  8
0
100
AcDbPolyline
 62
7
  6
CONTINUOUS
 90
3
 70
0
 10
-14.8796989692
 20
8.443502559
 10
-14.9037714308
 20
6.7610526452
 10
-14.9230877234
 20
4.9561142121
  0
LWPOLYLINE
  5
289
100
AcDbEntity
  8
0
100
AcDbPolyline
 62
253
  6
CONTINUOUS
 90
16
 70
0
 10
-14.7332526523
 20
8.239151674
 10
-14.7205292722
 20
8.8867399315
 10
-14.703061632
 20
9.5370096697
 10
-14.6808510803
 20
10.1899115509
 10
-14.6538993756
 20
10.8453960405
 10
-14.6222085556
 20
11.503413413
 10
-14.5857809355
 20
12.1639137571
 10
-14.5446193424
 20
12.8268470317
 10
-14.4987269365
 20
13.4921628998
 10
-14.4481070806
 20
14.1598107355
 10
-14.3927637063
 20
14.8297398718
 10
-14.3327010648
 20
15.5018995441
 10
-14.267923545
 20
16.1762387249
 10
-14.1984360639
 20
16.8527062667
 10
-14.1242440689
 20
17.531250905
 10
-14.0453532875
 20
18.2118212008
  0
LWPOLYLINE
  5
28A
100
AcDbEntity
  8
RACCORDO
100
AcDbPolyline
 62
7
  6
CONTINUOUS
 90
3
 70
0
 10
-13.676541821
 20
13.2675249332
 10
-13.6777476449
 20
13.24412694
 10
-13.6771206037
 20
13.1982821902
  0
LWPOLYLINE
  5
28B
100
AcDbEntity
  8
RACCORDO
100
AcDbPolyline
 62
253
  6
CONTINUOUS
 90
10
 70
0
 10
-13.6472399221
 20
13.2268105737
 10
-13.6090148442
 20
13.7222825255
 10
-13.5681921694
 20
14.2190074271
 10
-13.5247736309
 20
14.7169645626
 10
-13.4787611083
 20
15.2161331867
 10
-13.4301565192
 20
15.7164924631
 10
-13.3789618197
 20
16.2180214649
 10
-13.3251791477
 20
16.7206992596
 10
-13.268810823
 20
17.224504909
 10
-13.2098592393
 20
17.7294174085
  0
LWPOLYLINE
  5
28C
100
AcDbEntity
  8
RACCORDO
100
AcDbPolyline
 62
253
  6
CONTINUOUS
 90
10
 70
0
 10
-13.9170613088
 20
13.376901859
 10
-13.8774560943
 20
13.8722299162
 10
-13.8351561337
 20
14.3687389211
 10
-13.7901635215
 20
14.8664079152
 10
-13.7424818821
 20
15.3652010567
 10
-13.6921122683
 20
15.8651120683
 10
-13.6390523763
 20
16.3661645819
 10
-13.5833023819
 20
16.868352704
 10
-13.5248657245
 20
17.3716406736
 10
-13.4637444565
 20
17.876007551
  0
LWPOLYLINE
  5
28D
100
AcDbEntity
  8
0
100
AcDbPolyline
 62
253
  6
CONTINUOUS
 90
21
 70
0
 10
-14.1922718701
 20
18.4116944594
 10
-14.192857194
 20
18.405030297
 10
-14.193010272
 20
18.3945599841
 10
-14.1922374743
 20
18.3840119165
 10
-14.1905402401
 20
18.3734057343
 10
-14.1879217293
 20
18.3627611859
 10
-14.1843868176
 20
18.352098091
 10
-14.1799420869
 20
18.3414363039
 10
-14.1745958132
 20
18.3307956766
 10
-14.1683579508
 20
18.3201960214
 10
-14.1612401147
 20
18.3096570745
 10
-14.1532555578
 20
18.2991984591
 10
-14.1444191472
 20
18.2888396488
 10
-14.134747336
 20
18.2785999312
 10
-14.1242581327
 20
18.2684983724
 10
-14.1129710678
 20
18.2585537811
 10
-14.1009071574
 20
18.2487846738
 10
-14.0880888641
 20
18.2392092402
 10
-14.0745400552
 20
18.2298453094
 10
-14.0602859579
 20
18.2207103167
 10
-14.045353113
 20
18.2118212712
  0
LWPOLYLINE
  5
28E
100
AcDbEntity
  8
0
100
AcDbPolyline
 62
7
  6
CONTINUOUS
 90
10
 70
0
 10
-14.1922392101
 20
18.4119725077
 10
-14.3146123766
 20
17.3385536906
 10
-14.4327397253
 20
16.1938983653
 10
-14.5373842666
 20
15.0552828008
 10
-14.6285217246
 20
13.9229494789
 10
-14.7061306879
 20
12.7971365203
 10
-14.7701920623
 20
11.6780829874
 10
-14.8206893816
 20
10.5660242665
 10
-14.8576085984
 20
9.4611977803
 10
-14.8796989719
 20
8.4435022884
  0
LWPOLYLINE
  5
28F
100
AcDbEntity
  8
RACCORDO
100
AcDbPolyline
 62
7
  6
CONTINUOUS
 90
10
 70
0
 10
-13.2392364249
 20
17.7694476457
 10
-13.2925872371
 20
17.3134138516
 10
-13.3508132291
 20
16.7948513595
 10
-13.4063011831
 20
16.2774773149
 10
-13.4590481979
 20
15.7613176309
 10
-13.5090520854
 20
15.2463938095
 10
-13.5563108758
 20
14.7327256694
 10
-13.600822497
 20
14.2203346381
 10
-13.6425847589
 20
13.7092462854
 10
-13.6765479853
 20
13.2674456871
  0
LWPOLYLINE
  5
290
100
AcDbEntity
  8
RACCORDO
100
AcDbPolyline
 62
253
  6
CONTINUOUS
 90
4
 70
0
 10
-13.2098592393
 20
17.7294174085
 10
-13.2066464388
 20
17.7541153544
 10
-13.202707648
 20
17.780140491
 10
-13.1979688263
 20
17.8074973657
  0
LWPOLYLINE
  5
291
100
AcDbEntity
  8
RACCORDO
100
AcDbPolyline
 62
253
  6
CONTINUOUS
 90
8
 70
0
 10
-13.4664138132
 20
12.4932162047
 10
-13.4625847723
 20
12.5218541262
 10
-13.4550644479
 20
12.5515445554
 10
-13.4440553218
 20
12.5814880949
 10
-13.4298538099
 20
12.6108785323
 10
-13.4128422804
 20
12.6389245492
 10
-13.3934787582
 20
12.6648710258
 10
-13.3823103986
 20
12.67706915
  0
LINE
  5
292
100
AcDbEntity
  8
RACCORDO
100
AcDbLine
 62
7
  6
CONTINUOUS
 10
-13.2300296964
 20
17.8324049488
 11
-13.2392404454
 21
17.7694130115
  0
LWPOLYLINE
  5
293
100
AcDbEntity
  8
RACCORDO
100
AcDbPolyline
 62
253
  6
CONTINUOUS
 90
19
 70
0
 10
-13.4637444565
 20
17.876007551
 10
-13.4535998363
 20
17.9425394422
 10
-13.4394346717
 20
18.0102936159
 10
-13.4213269564
 20
18.0788801528
 10
-13.3993870245
 20
18.1478686256
 10
-13.3737309708
 20
18.2168959338
 10
-13.3444622762
 20
18.285667884
 10
-13.3116937214
 20
18.3538531314
 10
-13.2756260812
 20
18.4209779734
 10
-13.2365259463
 20
18.4865411763
 10
-13.1946168106
 20
18.5501582985
 10
-13.1501402811
 20
18.6114569904
 10
-13.1034414067
 20
18.6699897006
 10
-13.0548475905
 20
18.7253734822
 10
-13.004599293
 20
18.7773619468
 10
-12.9529298633
 20
18.8257410603
 10
-12.9001132814
 20
18.8702546573
 10
-12.8464696057
 20
18.9106217618
 10
-12.7923038657
 20
18.9466108701
  0
LWPOLYLINE
  5
294
100
AcDbEntity
  8
0
100
AcDbPolyline
 62
253
  6
CONTINUOUS
 90
8
 70
0
 10
-14.0477462101
 20
6.9223832305
 10
-14.0541921988
 20
6.8849669135
 10
-14.0594909316
 20
6.8482294147
 10
-14.0635657753
 20
6.8120893622
 10
-14.0667648185
 20
6.7764370966
 10
-14.069204209
 20
6.7412359991
 10
-14.0707682353
 20
6.7065224455
 10
-14.0714571148
 20
6.6722963147
  0
LWPOLYLINE
  5
295
100
AcDbEntity
  8
0
100
AcDbPolyline
 62
253
  6
CONTINUOUS
 90
27
 70
0
 10
-8.0820837329
 20
21.1391199472
 10
-8.0865002203
 20
21.1284398219
 10
-8.0913038226
 20
21.1180127606
 10
-8.0964839668
 20
21.1078624444
 10
-8.1020296434
 20
21.0980112367
 10
-8.1079282075
 20
21.0884823388
 10
-8.1141651491
 20
21.0792994888
 10
-8.1207258456
 20
21.0704841134
 10
-8.1275959808
 20
21.0620553514
 10
-8.1347601958
 20
21.0540320691
 10
-8.1422024392
 20
21.0464323015
 10
-8.1499058343
 20
21.0392733394
 10
-8.1578528455
 20
21.0325714996
 10
-8.1660254725
 20
21.0263419545
 10
-8.1744053255
 20
21.0205987147
 10
-8.1829735077
 20
21.0153547332
 10
-8.191710692
 20
21.0106218442
 10
-8.2005971449
 20
21.0064107423
 10
-8.2096127879
 20
21.0027309443
 10
-8.2187372634
 20
20.9995907587
 10
-8.227949981
 20
20.996997271
 10
-8.2372301451
 20
20.9949563353
 10
-8.2465568078
 20
20.9934725588
 10
-8.2559089156
 20
20.9925492909
 10
-8.2652653577
 20
20.9921886158
 10
-8.2746050244
 20
20.9923913482
 10
-8.280751244
 20
20.9928337529
  0
LWPOLYLINE
  5
296
100
AcDbEntity
  8
0
100
AcDbPolyline
 62
7
  6
CONTINUOUS
 90
16
 70
0
 10
-13.9096076179
 20
6.9168181907
 10
-14.1434403744
 20
6.4913917157
 10
-14.5334490016
 20
5.7480379154
 10
-14.9041051368
 20
4.9971059231
 10
-15.25474372
 20
4.2399237856
 10
-15.5847475405
 20
3.4777985718
 10
-15.8935452464
 20
2.712009781
 10
-16.1805774688
 20
1.9438895216
 10
-16.4453177768
 20
1.1747802377
 10
-16.6872917304
 20
0.4059746942
 10
-16.9060455874
 20
-0.3611960816
 10
-17.1011578052
 20
-1.1253866126
 10
-17.2722544094
 20
-1.8852977133
 10
-17.4189925571
 20
-2.6396199864
 10
-17.5410619747
 20
-3.3870262071
 10
-17.6381934266
 20
-4.1262081154
  0
LINE
  5
297
100
AcDbEntity
  8
0
100
AcDbLine
 62
7
  6
CONTINUOUS
 10
-13.9095942964
 20
6.9168420215
 11
-13.909890078
 21
6.916312337
  0
LINE
  5
298
100
AcDbEntity
  8
0
100
AcDbLine
 62
253
  6
CONTINUOUS
 10
-0.7260797458
 20
18.6012396244
 11
-0.7187054268
 21
18.6057692323
  0
LINE
  5
299
100
AcDbEntity
  8
0
100
AcDbLine
 62
7
  6
CONTINUOUS
 10
0.9076401699
 20
17.6667376676
 11
0.0599347839
 21
17.1715886268
  0
LINE
  5
29A
100
AcDbEntity
  8
0
100
AcDbLine
 62
7
  6
CONTINUOUS
 10
6.4259526933
 20
20.8187332546
 11
1.8277017369
 21
18.1946501527
  0
LWPOLYLINE
  5
29B
100
AcDbEntity
  8
0
100
AcDbPolyline
 62
7
  6
CONTINUOUS
 90
24
 70
0
 10
8.5493299155
 20
21.1300276858
 10
8.5739576915
 20
21.1435841856
 10
8.5984946929
 20
21.1561070153
 10
8.6229409197
 20
21.1675961748
 10
8.647328802
 20
21.1780640629
 10
8.6716259098
 20
21.1874982808
 10
8.6957349526
 20
21.1958616322
 10
8.71964741
 20
21.2031481138
 10
8.7433718024
 20
21.2093637289
 10
8.7668364006
 20
21.2144892905
 10
8.7900508145
 20
21.2185225735
 10
8.8130054342
 20
21.2214658029
 10
8.8355997013
 20
21.2233064668
 10
8.8578198948
 20
21.2240401643
 10
8.8796797357
 20
21.2236712962
 10
8.9011198276
 20
21.2222005525
 10
8.92215217
 20
21.2196224097
 10
8.9427647635
 20
21.2159423912
 10
8.9628622131
 20
21.2111777573
 10
8.9824288686
 20
21.2053284296
 10
9.0014803802
 20
21.1983944863
 10
9.0199683031
 20
21.1903934232
 10
9.0379038358
 20
21.1813151012
 10
9.0452372442
 20
21.1772021248
  0
LWPOLYLINE
  5
29C
100
AcDbEntity
  8
0
100
AcDbPolyline
 62
7
  6
CONTINUOUS
 90
7
 70
0
 10
6.4570996329
 20
20.8349197221
 10
6.4519308495
 20
20.8324545596
 10
6.4467531168
 20
20.8298963643
 10
6.4415664348
 20
20.8272451361
 10
6.4363708036
 20
20.8245008751
 10
6.4311662231
 20
20.8216635813
 10
6.4259526933
 20
20.8187332546
  0
LINE
  5
29D
100
AcDbEntity
  8
0
100
AcDbLine
 62
7
  6
CONTINUOUS
 10
7.1392389509
 20
20.4843185989
 11
7.099657064
 21
20.4658585297
  0
LINE
  5
29E
100
AcDbEntity
  8
0
100
AcDbLine
 62
7
  6
CONTINUOUS
 10
7.1567857738
 20
20.4924039184
 11
7.1392389509
 21
20.4843185989
  0
LWPOLYLINE
  5
29F
100
AcDbEntity
  8
0
100
AcDbPolyline
 62
253
  6
CONTINUOUS
 90
16
 70
0
 10
4.3681311289
 20
16.8849343232
 10
4.3746123929
 20
16.8873699096
 10
4.3813379117
 20
16.8892972514
 10
4.3882924507
 20
16.8907119829
 10
4.3954602561
 20
16.8916108993
 10
4.4028250913
 20
16.8919919644
 10
4.4103702734
 20
16.8918543149
 10
4.4180787107
 20
16.8911982628
 10
4.4259329419
 20
16.8900252941
 10
4.4339151755
 20
16.8883380658
 10
4.4420073299
 20
16.8861403999
 10
4.4501910745
 20
16.8834372746
 10
4.4584478714
 20
16.8802348131
 10
4.466759017
 20
16.8765402696
 10
4.4751056847
 20
16.8723620132
 10
4.4834689675
 20
16.8677095086
  0
LWPOLYLINE
  5
2A0
100
AcDbEntity
  8
0
100
AcDbPolyline
 62
253
  6
CONTINUOUS
 90
28
 70
0
 10
-1.1197971259
 20
-16.3327423705
 10
-1.1018644486
 20
-16.3420814314
 10
-1.084338559
 20
-16.3488926416
 10
-1.0672311989
 20
-16.3530850914
 10
-1.0504543062
 20
-16.3545912422
 10
-1.0341366635
 20
-16.353281213
 10
-1.0186555674
 20
-16.3490324983
 10
-1.0042153209
 20
-16.3417796117
 10
-0.9907546156
 20
-16.3315528722
 10
-0.9782867998
 20
-16.3184494537
 10
-0.9669205469
 20
-16.3024739936
 10
-0.9567024008
 20
-16.2836199019
 10
-0.9475554791
 20
-16.2619705001
 10
-0.9395619094
 20
-16.2375136558
 10
-0.9328010536
 20
-16.2102590219
 10
-0.9271940522
 20
-16.1803093795
 10
-0.9228357524
 20
-16.1476900271
 10
-0.9198061692
 20
-16.1123882794
 10
-0.9180128288
 20
-16.0744305584
 10
-0.9175590977
 20
-16.0338704908
 10
-0.9185426763
 20
-15.9906674432
 10
-0.9208890421
 20
-15.9446653576
 10
-0.924741882
 20
-15.8958798091
 10
-0.9302245049
 20
-15.8442922322
 10
-0.9372905076
 20
-15.7896397682
 10
-0.9460706393
 20
-15.7318179648
 10
-0.9568375176
 20
-15.6709258659
 10
-0.9698085584
 20
-15.6069946711
  0
LWPOLYLINE
  5
2A1
100
AcDbEntity
  8
0
100
AcDbPolyline
 62
253
  6
CONTINUOUS
 90
28
 70
0
 10
-1.0815787783
 20
-16.442103847
 10
-1.0524986802
 20
-16.4576489265
 10
-1.0232276102
 20
-16.4698369756
 10
-0.993764945
 20
-16.4786676078
 10
-0.9638532089
 20
-16.4842701497
 10
-0.9337472479
 20
-16.486513645
 10
-0.9042142637
 20
-16.4850068772
 10
-0.875399587
 20
-16.4796017089
 10
-0.847152573
 20
-16.470442991
 10
-0.8197960551
 20
-16.4575787405
 10
-0.7933704754
 20
-16.4409975804
 10
-0.7678280894
 20
-16.4207063873
 10
-0.7433593565
 20
-16.3967805064
 10
-0.7199503925
 20
-16.3692066352
 10
-0.6976060816
 20
-16.3379925563
 10
-0.6765451763
 20
-16.3032453381
 10
-0.6567664784
 20
-16.2649906998
 10
-0.6382611531
 20
-16.2231968078
 10
-0.6212367545
 20
-16.1778845709
 10
-0.6056702291
 20
-16.1291317215
 10
-0.5915736109
 20
-16.076853862
 10
-0.5792068411
 20
-16.0208285727
 10
-0.5685000616
 20
-15.9611054152
 10
-0.559510161
 20
-15.8976270437
 10
-0.5526863493
 20
-15.8300101799
 10
-0.5481731334
 20
-15.7581239501
 10
-0.5458106457
 20
-15.6820900871
 10
-0.5455907953
 20
-15.6019038008
  0
LWPOLYLINE
  5
2A2
100
AcDbEntity
  8
0
100
AcDbPolyline
 62
253
  6
CONTINUOUS
 90
19
 70
0
 10
-1.2258631431
 20
-16.2715011815
 10
-1.251295079
 20
-16.2571803341
 10
-1.2749487056
 20
-16.2448079845
 10
-1.2968240228
 20
-16.2343841327
 10
-1.3171457106
 20
-16.2257986009
 10
-1.3356890891
 20
-16.219161567
 10
-1.3517801188
 20
-16.2148035643
 10
-1.3652305511
 20
-16.2128559263
 10
-1.3762286346
 20
-16.2131873196
 10
-1.384665076
 20
-16.2157342777
 10
-1.3904917141
 20
-16.2205131135
 10
-1.3937567101
 20
-16.2275075141
 10
-1.3944952539
 20
-16.2366050752
 10
-1.3927271717
 20
-16.247780544
 10
-1.3884326373
 20
-16.2610591733
 10
-1.3815873617
 20
-16.2764043169
 10
-1.3722332985
 20
-16.2937815656
 10
-1.3603284941
 20
-16.3132253286
 10
-1.3457227981
 20
-16.3348021884
  0
LINE
  5
2A3
100
AcDbEntity
  8
0
100
AcDbLine
 62
7
  6
CONTINUOUS
 10
-10.2255477057
 20
-12.6288624716
 11
-3.861586675
 21
-16.3033338116
  0
LINE
  5
2A4
100
AcDbEntity
  8
0
100
AcDbLine
 62
7
  6
CONTINUOUS
 10
-6.2950654011
 20
-13.6955141513
 11
-12.6590264317
 21
-10.0210428114
  0
LINE
  5
2A5
100
AcDbEntity
  8
0
100
AcDbLine
 62
253
  6
CONTINUOUS
 10
-1.1876447955
 20
-16.380862658
 11
-1.0815787783
 21
-16.442103847
  0
LINE
  5
2A6
100
AcDbEntity
  8
0
100
AcDbLine
 62
7
  6
CONTINUOUS
 10
-14.7070913047
 20
-8.5077569478
 11
-5.5854138274
 21
-13.7744992018
  0
LINE
  5
2A7
100
AcDbEntity
  8
0
100
AcDbLine
 62
253
  6
CONTINUOUS
 10
-1.2258631431
 20
-16.2715011815
 11
-1.1197971259
 21
-16.3327423705
  0
LWPOLYLINE
  5
2A8
100
AcDbEntity
  8
0
100
AcDbPolyline
 62
253
  6
CONTINUOUS
 90
4
 70
0
 10
-17.3862206526
 20
-5.0381827942
 10
-17.3774521229
 20
-5.0472201368
 10
-17.3456428566
 20
-5.0748967184
 10
-17.3102729992
 20
-5.098433643
  0
LINE
  5
2A9
100
AcDbEntity
  8
0
100
AcDbLine
 62
253
  6
CONTINUOUS
 10
-14.1962238108
 20
-7.7997500605
 11
-15.7081813794
 21
-6.1922920694
  0
LINE
  5
2AA
100
AcDbEntity
  8
0
100
AcDbLine
 62
253
  6
CONTINUOUS
 10
-13.8128098015
 20
-7.6848542155
 11
-15.0390888011
 21
-6.381119231
  0
LINE
  5
2AB
100
AcDbEntity
  8
0
100
AcDbLine
 62
7
  6
CONTINUOUS
 10
-14.4635525484
 20
-8.1702386699
 11
-17.3862206527
 21
-5.0381827941
  0
LINE
  5
2AC
100
AcDbEntity
  8
0
100
AcDbLine
 62
253
  6
CONTINUOUS
 10
-14.4549512852
 20
-8.1583182529
 11
-17.3102730002
 21
-5.098433642
  0
LINE
  5
2AD
100
AcDbEntity
  8
0
100
AcDbLine
 62
7
  6
CONTINUOUS
 10
-12.6590264317
 20
-10.0210428114
 11
-10.2255477057
 21
-12.6288624716
  0
LWPOLYLINE
  5
2AE
100
AcDbEntity
  8
0
100
AcDbPolyline
 62
253
  6
CONTINUOUS
 90
19
 70
0
 10
-15.7081813794
 20
-6.1922920694
 10
-15.735289619
 20
-6.1625567617
 10
-15.7590289479
 20
-6.1353303867
 10
-15.7793993659
 20
-6.1106129446
 10
-15.7961970476
 20
-6.0885237503
 10
-15.8096258184
 20
-6.0689434887
 10
-15.8202971552
 20
-6.0515142147
 10
-15.8282533803
 20
-6.0362102328
 10
-15.8334521713
 20
-6.0230572384
 10
-15.836378038
 20
-6.0117743733
 10
-15.8370511961
 20
-6.0023584204
 10
-15.83545143
 20
-5.9948125968
 10
-15.8320026026
 20
-5.9888656947
 10
-15.8267326748
 20
-5.9845065326
 10
-15.8196136858
 20
-5.9817462919
 10
-15.8109856163
 20
-5.9803473095
 10
-15.8009617935
 20
-5.9802303642
 10
-15.7894288903
 20
-5.9814746771
 10
-15.7763869068
 20
-5.9840802482
  0
LWPOLYLINE
  5
2AF
100
AcDbEntity
  8
0
100
AcDbPolyline
 62
253
  6
CONTINUOUS
 90
4
 70
0
 10
-15.5513816716
 20
-6.0715859135
 10
-15.5379730143
 20
-6.0884252217
 10
-15.5221382004
 20
-6.1018577692
 10
-15.5155328218
 20
-6.1060264188
  0
LWPOLYLINE
  5
2B0
100
AcDbEntity
  8
0
100
AcDbPolyline
 62
253
  6
CONTINUOUS
 90
22
 70
0
 10
-12.9702652758
 20
-14.8804189411
 10
-12.9599688419
 20
-14.9532847183
 10
-12.9466544498
 20
-15.0250055774
 10
-12.9303303067
 20
-15.0955872971
 10
-12.9107604334
 20
-15.1652058751
 10
-12.8881960912
 20
-15.2336961164
 10
-12.8633760342
 20
-15.3005518122
 10
-12.8363294926
 20
-15.3658287985
 10
-12.8070407086
 20
-15.4294808332
 10
-12.7761812115
 20
-15.4908487942
 10
-12.7438105527
 20
-15.5498493659
 10
-12.7098815072
 20
-15.6065747
 10
-12.6749055386
 20
-15.6606289605
 10
-12.639213203
 20
-15.7117329185
 10
-12.6024837821
 20
-15.7601728895
 10
-12.5642510497
 20
-15.8064008011
 10
-12.5239872682
 20
-15.8510784439
 10
-12.4822264571
 20
-15.8935485674
 10
-12.4400948908
 20
-15.9322844447
 10
-12.3979698226
 20
-15.966778492
 10
-12.3554786511
 20
-15.9975416634
 10
-12.3126225266
 20
-16.0245747933
  0
LWPOLYLINE
  5
2B1
100
AcDbEntity
  8
0
100
AcDbPolyline
 62
253
  6
CONTINUOUS
 90
14
 70
0
 10
-14.0453532875
 20
-16.4240195611
 10
-14.1242440689
 20
-15.8377692774
 10
-14.1984360639
 20
-15.2479264688
 10
-14.2679235449
 20
-14.6545359603
 10
-14.3327010648
 20
-14.0576429118
 10
-14.3927637063
 20
-13.4572926068
 10
-14.4481070806
 20
-12.8535304473
 10
-14.4987269365
 20
-12.2464022453
 10
-14.5446193424
 20
-11.6359541711
 10
-14.5857809355
 20
-11.0222325412
 10
-14.6222085556
 20
-10.4052839994
 10
-14.6538993756
 20
-9.7851553659
 10
-14.6808510803
 20
-9.1618935845
 10
-14.703061632
 20
-8.5355459294
  0
LINE
  5
2B2
100
AcDbEntity
  8
RACCORDO
100
AcDbLine
 62
7
  6
CONTINUOUS
 10
-13.6771206037
 20
13.1982821902
 11
-13.6727028654
 21
13.1516308207
  0
LWPOLYLINE
  5
2B3
100
AcDbEntity
  8
RACCORDO
100
AcDbPolyline
 62
253
  6
CONTINUOUS
 90
6
 70
0
 10
-13.6460105368
 20
13.1486816621
 10
-13.6473977396
 20
13.1661199667
 10
-13.6481975423
 20
13.1826741551
 10
-13.6484651065
 20
13.1982707092
 10
-13.6481458186
 20
13.2129828872
 10
-13.6472399221
 20
13.2268105737
  0
LWPOLYLINE
  5
2B4
100
AcDbEntity
  8
RACCORDO
100
AcDbPolyline
 62
253
  6
CONTINUOUS
 90
6
 70
0
 10
-13.6765479853
 20
13.2674456871
 10
-13.6761527126
 20
13.2603269635
 10
-13.6730141215
 20
13.2513033933
 10
-13.6670170382
 20
13.2425383934
 10
-13.6583396811
 20
13.2342924376
 10
-13.6472399195
 20
13.226810575
  0
LWPOLYLINE
  5
2B5
100
AcDbEntity
  8
0
100
AcDbPolyline
 62
253
  6
CONTINUOUS
 90
15
 70
0
 10
-13.3072427757
 20
-10.4386080502
 10
-13.2937072161
 20
-10.7197684922
 10
-13.2788715585
 20
-11.0061628006
 10
-13.262654365
 20
-11.2980673508
 10
-13.2450075118
 20
-11.5951120696
 10
-13.2258780405
 20
-11.8970566211
 10
-13.205235821
 20
-12.2033579
 10
-13.1829847935
 20
-12.5144637742
 10
-13.1589580937
 20
-12.8316093233
 10
-13.1330994543
 20
-13.154395834
 10
-13.105298528
 20
-13.4830951806
 10
-13.0752598917
 20
-13.8199147367
 10
-13.0427909997
 20
-14.1655193389
 10
-13.0078348404
 20
-14.5190535616
 10
-12.9702652758
 20
-14.8804189411
  0
LWPOLYLINE
  5
2B6
100
AcDbEntity
  8
0
100
AcDbPolyline
 62
253
  6
CONTINUOUS
 90
15
 70
0
 10
-12.8814895003
 20
-10.4641497556
 10
-12.8722756058
 20
-10.6577669769
 10
-12.8574120118
 20
-10.9462917117
 10
-12.841222579
 20
-11.2402991845
 10
-12.8236455102
 20
-11.5396528166
 10
-12.8044954134
 20
-11.8439428714
 10
-12.7838182618
 20
-12.1526569799
 10
-12.7615680823
 20
-12.4663075112
 10
-12.737421564
 20
-12.7860218355
 10
-12.7114435601
 20
-13.1114672161
 10
-12.6835692175
 20
-13.4429763898
 10
-12.6532806663
 20
-13.7826749376
 10
-12.6204052833
 20
-14.1312713867
 10
-12.5851156916
 20
-14.4880572099
 10
-12.5474118914
 20
-14.8530324074
  0
LWPOLYLINE
  5
2B7
100
AcDbEntity
  8
RACCORDO
100
AcDbPolyline
 62
253
  6
CONTINUOUS
 90
6
 70
0
 10
-13.2392404454
 20
17.7694130115
 10
-13.2388970351
 20
17.7617366272
 10
-13.2357087523
 20
17.7532142862
 10
-13.2296736465
 20
17.7448225635
 10
-13.2209709309
 20
17.7368108848
 10
-13.209859147
 20
17.7294174427
  0
LINE
  5
2B8
100
AcDbEntity
  8
0
100
AcDbLine
 62
253
  6
CONTINUOUS
 10
-13.3267601267
 20
-9.9869787488
 11
-13.3072427757
 21
-10.4386080502
  0
LINE
  5
2B9
100
AcDbEntity
  8
0
100
AcDbLine
 62
253
  6
CONTINUOUS
 10
-14.0714571148
 20
6.6722963147
 11
-14.0720806751
 21
6.6212208541
  0
LWPOLYLINE
  5
2BA
100
AcDbEntity
  8
RACCORDO
100
AcDbPolyline
 62
253
  6
CONTINUOUS
 90
7
 70
0
 10
-13.0946794015
 20
18.239123495
 10
-13.0946922296
 20
18.2383812061
 10
-13.0927184808
 20
18.2359167614
 10
-13.0881056371
 20
18.2321914739
 10
-13.0809910823
 20
18.2272445788
 10
-13.0715351657
 20
18.2212648856
 10
-13.0600027526
 20
18.2144205643
  0
LWPOLYLINE
  5
2BB
100
AcDbEntity
  8
0
100
AcDbPolyline
 62
253
  6
CONTINUOUS
 90
10
 70
0
 10
-13.4912398097
 20
7.3219568373
 10
-13.4923284535
 20
7.3006685163
 10
-13.4949237611
 20
7.2786906243
 10
-13.499007116
 20
7.2561801196
 10
-13.5045492676
 20
7.2332977938
 10
-13.511510572
 20
7.2102069884
 10
-13.5198413041
 20
7.1870724256
 10
-13.5294819582
 20
7.1640592187
 10
-13.5403636469
 20
7.1413316953
 10
-13.5524086434
 20
7.1190520879
  0
LWPOLYLINE
  5
2BC
100
AcDbEntity
  8
0
100
AcDbPolyline
 62
253
  6
CONTINUOUS
 90
8
 70
0
 10
-0.7759660821
 20
18.5583022028
 10
-0.7691622075
 20
18.565525818
 10
-0.7622187527
 20
18.5724158157
 10
-0.7551546109
 20
18.5789534463
 10
-0.7479890146
 20
18.5851209091
 10
-0.7407414896
 20
18.5909013993
 10
-0.7334317704
 20
18.5962791805
 10
-0.7260797458
 20
18.6012396244
  0
LINE
  5
2BD
100
AcDbEntity
  8
DRAFT
100
AcDbLine
 62
7
  6
CONTINUOUS
 10
-1.6371214909
 20
15.1552929411
 11
-2.4013620959
 21
14.6512834495
  0
LINE
  5
2BE
100
AcDbEntity
  8
0
100
AcDbLine
 62
7
  6
CONTINUOUS
 10
1.7923463979
 20
16.0969123379
 11
0.7255154857
 21
15.423879265
  0
LINE
  5
2BF
100
AcDbEntity
  8
0
100
AcDbLine
 62
7
  6
CONTINUOUS
 10
2.2401097264
 20
15.6427220693
 11
3.8232897954
 21
16.5782263562
  0
LINE
  5
2C0
100
AcDbEntity
  8
0
100
AcDbLine
 62
253
  6
CONTINUOUS
 10
2.3662624857
 20
15.6310100768
 11
3.9490190889
 21
16.5662641369
  0
LINE
  5
2C1
100
AcDbEntity
  8
0
100
AcDbLine
 62
7
  6
CONTINUOUS
 10
0.7255154857
 20
16.7872906713
 11
7.066838467
 21
20.4486938411
  0
LINE
  5
2C2
100
AcDbEntity
  8
0
100
AcDbLine
 62
7
  6
CONTINUOUS
 10
1.7923463979
 20
16.0969123379
 11
7.099657064
 21
19.1612904662
  0
LINE
  5
2C3
100
AcDbEntity
  8
0
100
AcDbLine
 62
7
  6
CONTINUOUS
 10
3.8232898095
 20
16.5782263642
 11
3.8247440526
 21
16.5790660259
  0
LINE
  5
2C4
100
AcDbEntity
  8
0
100
AcDbLine
 62
7
  6
CONTINUOUS
 10
7.2304919152
 20
20.3774066253
 11
8.5493299155
 21
21.1300276858
  0
LINE
  5
2C5
100
AcDbEntity
  8
0
100
AcDbLine
 62
7
  6
CONTINUOUS
 10
3.8247440384
 20
16.5790660179
 11
4.3596223399
 21
16.8807530326
  0
LINE
  5
2C6
100
AcDbEntity
  8
0
100
AcDbLine
 62
253
  6
CONTINUOUS
 10
3.9490190889
 20
16.5662641369
 11
4.4834689675
 21
16.8677095086
  0
LWPOLYLINE
  5
2C7
100
AcDbEntity
  8
0
100
AcDbPolyline
 62
253
  6
CONTINUOUS
 90
18
 70
0
 10
2.2401097264
 20
15.6427220693
 10
2.2438512054
 20
15.6448051552
 10
2.2500801202
 20
15.6477472723
 10
2.2565745438
 20
15.6501904568
 10
2.2633197648
 20
15.6521291744
 10
2.2703005037
 20
15.6535590334
 10
2.2775009477
 20
15.6544767949
 10
2.2849047861
 20
15.6548803799
 10
2.2924952476
 20
15.6547688743
 10
2.300255138
 20
15.6541425305
 10
2.3081668795
 20
15.6530027675
 10
2.3162125502
 20
15.651352167
 10
2.3243739249
 20
15.6491944681
 10
2.3326325162
 20
15.6465345583
 10
2.3409696165
 20
15.643378463
 10
2.3493663405
 20
15.6397333314
 10
2.3578036677
 20
15.6356074207
 10
2.3662624857
 20
15.6310100768
  0
LWPOLYLINE
  5
2C8
100
AcDbEntity
  8
0
100
AcDbPolyline
 62
253
  6
CONTINUOUS
 90
3
 70
0
 10
4.3596223399
 20
16.8807530326
 10
4.3619088013
 20
16.8819960095
 10
4.3681311289
 20
16.8849343232
  0
LWPOLYLINE
  5
2C9
100
AcDbEntity
  8
0
100
AcDbPolyline
 62
7
  6
CONTINUOUS
 90
18
 70
0
 10
3.8247440526
 20
16.5790660259
 10
3.8270309236
 20
16.580309233
 10
3.8332565954
 20
16.5832494246
 10
3.8397445279
 20
16.5856887555
 10
3.8464800167
 20
16.5876216963
 10
3.853447756
 20
16.589043843
 10
3.860632013
 20
16.5899520043
 10
3.8680165287
 20
16.5903441329
 10
3.875584483
 20
16.5902192919
 10
3.8833188045
 20
16.5895778069
 10
3.8912020105
 20
16.588421154
 10
3.89921611
 20
16.5867518821
 10
3.9073430403
 20
16.5845738268
 10
3.9155644514
 20
16.5818919574
 10
3.9238615481
 20
16.5787122559
 10
3.9322155414
 20
16.5750419313
 10
3.9406076906
 20
16.5708894026
 10
3.9490190889
 20
16.5662641369
  0
LWPOLYLINE
  5
2CA
100
AcDbEntity
  8
0
100
AcDbPolyline
 62
7
  6
CONTINUOUS
 90
6
 70
0
 10
4.3596223399
 20
16.8807530326
 10
4.3881656634
 20
16.8945439309
 10
4.4186569936
 20
16.9047274741
 10
4.4505411364
 20
16.9109580916
 10
4.4832322428
 20
16.9130002944
 10
4.5160180545
 20
16.9107364002
  0
LWPOLYLINE
  5
2CB
100
AcDbEntity
  8
0
100
AcDbPolyline
 62
253
  6
CONTINUOUS
 90
10
 70
0
 10
-15.7081813794
 20
-6.1922920694
 10
-15.6794423165
 20
-6.205941932
 10
-15.6482666809
 20
-6.2153164305
 10
-15.6151782522
 20
-6.2202580788
 10
-15.5807329532
 20
-6.2206838669
 10
-15.5455094819
 20
-6.2165866559
 10
-15.5100995878
 20
-6.2080352858
 10
-15.4750981795
 20
-6.1951734267
 10
-15.4410933016
 20
-6.1782171676
 10
-15.4171027442
 20
-6.162858718
  0
LWPOLYLINE
  5
2CC
100
AcDbEntity
  8
0
100
AcDbPolyline
 62
253
  6
CONTINUOUS
 90
13
 70
0
 10
-0.5455907953
 20
-15.6019038008
 10
-0.5750940048
 20
-15.5870080492
 10
-0.6077212519
 20
-15.5745499817
 10
-0.6429142752
 20
-15.5647427593
 10
-0.6800709124
 20
-15.5577541862
 10
-0.7185554031
 20
-15.5537038389
 10
-0.7577092671
 20
-15.55266102
 10
-0.7968625708
 20
-15.5546435724
 10
-0.8353453904
 20
-15.5596175741
 10
-0.8724992741
 20
-15.5674979184
 10
-0.9076885088
 20
-15.5781497706
 10
-0.9403109968
 20
-15.5913908745
 10
-0.9698085584
 20
-15.6069946711
  0
LWPOLYLINE
  5
2CD
100
AcDbEntity
  8
0
100
AcDbPolyline
 62
253
  6
CONTINUOUS
 90
13
 70
0
 10
-0.5479945107
 20
-15.464173853
 10
-0.5774977888
 20
-15.4492741737
 10
-0.6101252403
 20
-15.4368043904
 10
-0.6453186005
 20
-15.4269778645
 10
-0.6824757012
 20
-15.4199627307
 10
-0.7209607742
 20
-15.4158790197
 10
-0.7601153292
 20
-15.414796605
 10
-0.7992694209
 20
-15.4167340071
 10
-0.8377531119
 20
-15.4216580763
 10
-0.8749079357
 20
-15.4294845607
 10
-0.9100981628
 20
-15.4400795468
 10
-0.9427216788
 20
-15.4532617514
 10
-0.9722202861
 20
-15.4688056235
  0
LINE
  5
2CE
100
AcDbEntity
  8
0
100
AcDbLine
 62
253
  6
CONTINUOUS
 10
-15.6169870085
 20
-6.0363776883
 11
-15.5851213797
 21
-6.0527812566
  0
LINE
  5
2CF
100
AcDbEntity
  8
0
100
AcDbLine
 62
253
  6
CONTINUOUS
 10
-15.5851213797
 20
-6.0527812566
 11
-15.5513816716
 21
-6.0715859135
  0
LINE
  5
2D0
100
AcDbEntity
  8
0
100
AcDbLine
 62
7
  6
CONTINUOUS
 10
-15.5427799407
 20
-6.0907315362
 11
-15.5155328218
 21
-6.1060264188
  0
LINE
  5
2D1
100
AcDbEntity
  8
0
100
AcDbLine
 62
7
  6
CONTINUOUS
 10
-5.0061858621
 20
-12.9717521222
 11
-5.2183178964
 21
-12.8492697442
  0
LINE
  5
2D2
100
AcDbEntity
  8
0
100
AcDbLine
 62
7
  6
CONTINUOUS
 10
-13.915731305
 20
-7.8274922463
 11
-14.1278633394
 21
-7.7050098683
  0
LINE
  5
2D3
100
AcDbEntity
  8
0
100
AcDbLine
 62
253
  6
CONTINUOUS
 10
0.1315241103
 20
-15.8565193883
 11
-0.5479945107
 21
-15.464173853
  0
LINE
  5
2D4
100
AcDbEntity
  8
0
100
AcDbLine
 62
253
  6
CONTINUOUS
 10
-4.9359043294
 20
-12.2432390252
 11
-6.4697904228
 21
-11.357592419
  0
LINE
  5
2D5
100
AcDbEntity
  8
0
100
AcDbLine
 62
253
  6
CONTINUOUS
 10
-15.7763869068
 20
-5.9840802482
 11
-17.3102730002
 21
-5.098433642
  0
LINE
  5
2D6
100
AcDbEntity
  8
0
100
AcDbLine
 62
7
  6
CONTINUOUS
 10
-15.5155050739
 20
-6.1060424461
 11
-6.7800731649
 21
-11.1497713496
  0
LINE
  5
2D7
100
AcDbEntity
  8
0
100
AcDbLine
 62
253
  6
CONTINUOUS
 10
-15.5513816716
 20
-6.0715859135
 11
-6.8159502198
 21
-11.1153145531
  0
LINE
  5
2D8
100
AcDbEntity
  8
0
100
AcDbLine
 62
253
  6
CONTINUOUS
 10
-5.1171281014
 20
-11.4727457164
 11
-17.4914967721
 21
-4.3279403331
  0
LWPOLYLINE
  5
2D9
100
AcDbEntity
  8
0
100
AcDbPolyline
 62
253
  6
CONTINUOUS
 90
5
 70
0
 10
-6.8159502198
 20
-11.1153145531
 10
-6.797179032
 20
-11.1263451379
 10
-6.7780079239
 20
-11.1380067828
 10
-6.7584340415
 20
-11.1502960192
 10
-6.7385848761
 20
-11.1631028224
  0
LINE
  5
2DA
100
AcDbEntity
  8
0
100
AcDbLine
 62
7
  6
CONTINUOUS
 10
-6.780013823
 20
-11.1498055858
 11
-6.7585868561
 21
-11.1624274953
  0
LINE
  5
2DB
100
AcDbEntity
  8
0
100
AcDbLine
 62
7
  6
CONTINUOUS
 10
-6.7585868561
 20
-11.1624274953
 11
-6.7244106599
 21
-11.1835045848
  0
LINE
  5
2DC
100
AcDbEntity
  8
0
100
AcDbLine
 62
7
  6
CONTINUOUS
 10
-6.7244106599
 20
-11.1835045848
 11
-6.6876801755
 21
-11.207276076
  0
LWPOLYLINE
  5
2DD
100
AcDbEntity
  8
0
100
AcDbPolyline
 62
253
  6
CONTINUOUS
 90
5
 70
0
 10
-6.7385848761
 20
-11.1631028224
 10
-6.7183218741
 20
-11.1765236869
 10
-6.6972384355
 20
-11.1908591329
 10
-6.6751172679
 20
-11.2062227269
 10
-6.6521465745
 20
-11.2224645284
  0
LWPOLYLINE
  5
2DE
100
AcDbEntity
  8
0
100
AcDbPolyline
 62
7
  6
CONTINUOUS
 90
4
 70
0
 10
-6.6876801755
 20
-11.207276076
 10
-6.6488731902
 20
-11.2334278864
 10
-6.6081283774
 20
-11.261780088
 10
-6.5655779667
 20
-11.2920814278
  0
LWPOLYLINE
  5
2DF
100
AcDbEntity
  8
0
100
AcDbPolyline
 62
253
  6
CONTINUOUS
 90
3
 70
0
 10
-5.8548233685
 20
-11.8814974933
 10
-5.8809580354
 20
-11.8634639676
 10
-5.9012229846
 20
-11.8444527827
  0
LWPOLYLINE
  5
2E0
100
AcDbEntity
  8
0
100
AcDbPolyline
 62
253
  6
CONTINUOUS
 90
5
 70
0
 10
-15.7763869033
 20
-5.9840802483
 10
-15.749402089
 20
-6.003013463
 10
-15.7204406506
 20
-6.0184476057
 10
-15.6898928053
 20
-6.0301750197
 10
-15.6691701061
 20
-6.0357811306
  0
LWPOLYLINE
  5
2E1
100
AcDbEntity
  8
0
100
AcDbPolyline
 62
253
  6
CONTINUOUS
 90
4
 70
0
 10
-6.6521465745
 20
-11.2224645284
 10
-6.6285202856
 20
-11.2394798863
 10
-6.6043576878
 20
-11.2571308923
 10
-6.5794905541
 20
-11.2754917188
  0
LWPOLYLINE
  5
2E2
100
AcDbEntity
  8
0
100
AcDbPolyline
 62
7
  6
CONTINUOUS
 90
12
 70
0
 10
-6.5655779667
 20
-11.2920814278
 10
-6.4512671517
 20
-11.37477941
 10
-6.3970513036
 20
-11.4148597045
 10
-6.3429525339
 20
-11.4559214556
 10
-6.2894552556
 20
-11.4975915874
 10
-6.2369254593
 20
-11.5395801108
 10
-6.1857239636
 20
-11.5816086073
 10
-6.1362166438
 20
-11.6233758751
 10
-6.0888519683
 20
-11.6645028335
 10
-6.0439234825
 20
-11.7047385283
 10
-6.0017974227
 20
-11.7437608935
 10
-5.9631467018
 20
-11.7809397526
  0
LWPOLYLINE
  5
2E3
100
AcDbEntity
  8
0
100
AcDbPolyline
 62
253
  6
CONTINUOUS
 90
15
 70
0
 10
-6.4697904228
 20
-11.357592419
 10
-6.4258972927
 20
-11.3897560241
 10
-6.3841822546
 20
-11.4207735098
 10
-6.3446453087
 20
-11.450644876
 10
-6.3073767195
 20
-11.4793654287
 10
-6.2722862224
 20
-11.5069398619
 10
-6.2391030233
 20
-11.5333822577
 10
-6.2078342378
 20
-11.5586645393
 10
-6.1784727504
 20
-11.5828147834
 10
-6.1507264203
 20
-11.605931302
 10
-6.1245832362
 20
-11.6280091083
 10
-6.1000552094
 20
-11.649053189
 10
-6.0768862335
 20
-11.6691768161
 10
-6.0550652364
 20
-11.688379151
 10
-6.0346032901
 20
-11.7066610322
  0
LINE
  5
2E4
100
AcDbEntity
  8
0
100
AcDbLine
 62
253
  6
CONTINUOUS
 10
-6.5794905541
 20
-11.2754917188
 11
-6.4697904228
 21
-11.357592419
  0
LWPOLYLINE
  5
2E5
100
AcDbEntity
  8
0
100
AcDbPolyline
 62
7
  6
CONTINUOUS
 90
5
 70
0
 10
6.3181888718
 20
-23.3735765788
 10
6.3439283096
 20
-23.3945864062
 10
6.3667991428
 20
-23.4190001746
 10
6.3862382833
 20
-23.4463039543
 10
6.4018896145
 20
-23.4760504141
  0
LWPOLYLINE
  5
2E6
100
AcDbEntity
  8
0
100
AcDbPolyline
 62
253
  6
CONTINUOUS
 90
13
 70
0
 10
-6.0346032901
 20
-11.7066610322
 10
-6.0152775043
 20
-11.7241382475
 10
-5.9970782643
 20
-11.7408115543
 10
-5.9800151847
 20
-11.756680195
 10
-5.96389422
 20
-11.7718576843
 10
-5.948706474
 20
-11.7863459377
 10
-5.9344608428
 20
-11.8001430395
 10
-5.920989969
 20
-11.8133567577
 10
-5.9082853465
 20
-11.8259899057
 10
-5.8963554815
 20
-11.8380396701
 10
-5.885058535
 20
-11.8496053783
 10
-5.8743472276
 20
-11.8607201394
 10
-5.8642688387
 20
-11.8713508444
  0
LWPOLYLINE
  5
2E7
100
AcDbEntity
  8
0
100
AcDbPolyline
 62
7
  6
CONTINUOUS
 90
3
 70
0
 10
-5.9631467018
 20
-11.7809397526
 10
-5.9284826499
 20
-11.8157466817
 10
-5.9017037656
 20
-11.8439314542
  0
LINE
  5
2E8
100
AcDbEntity
  8
0
100
AcDbLine
 62
7
  6
CONTINUOUS
 10
-3.861586675
 20
-16.3033338116
 11
-6.2950654011
 21
-13.6955141513
  0
LINE
  5
2E9
100
AcDbEntity
  8
0
100
AcDbLine
 62
7
  6
CONTINUOUS
 10
-1.8135218021
 20
-17.8166196751
 11
-5.5854138274
 21
-13.7744992018
  0
LINE
  5
2EA
100
AcDbEntity
  8
0
100
AcDbLine
 62
7
  6
CONTINUOUS
 10
-1.2474871752
 20
-16.9997340511
 11
-5.0061858621
 21
-12.9717521222
  0
LINE
  5
2EB
100
AcDbEntity
  8
0
100
AcDbLine
 62
253
  6
CONTINUOUS
 10
-5.8642688387
 20
-11.8713508444
 11
-1.2538220908
 21
-16.8525260167
  0
LINE
  5
2EC
100
AcDbEntity
  8
0
100
AcDbLine
 62
7
  6
CONTINUOUS
 10
-1.2533048514
 20
-16.8661713653
 11
-5.9017037655
 21
-11.8439314543
  0
LWPOLYLINE
  5
2ED
100
AcDbEntity
  8
0
100
AcDbPolyline
 62
253
  6
CONTINUOUS
 90
4
 70
0
 10
-6.8159502198
 20
-11.1153145531
 10
-6.8025414051
 20
-11.1321539181
 10
-6.7867064954
 20
-11.1455865383
 10
-6.7800731649
 20
-11.1497713496
  0
LINE
  5
2EE
100
AcDbEntity
  8
0
100
AcDbLine
 62
7
  6
CONTINUOUS
 10
-10.1863670676
 20
22.5314676938
 11
-10.1863670676
 21
22.210947521
  0
LINE
  5
2EF
100
AcDbEntity
  8
0
100
AcDbLine
 62
253
  6
CONTINUOUS
 10
-10.1131437629
 20
22.4293990455
 11
-10.1131437629
 21
22.1088788726
  0
LWPOLYLINE
  5
2F0
100
AcDbEntity
  8
0
100
AcDbPolyline
 62
253
  6
CONTINUOUS
 90
34
 70
0
 10
-10.1131437629
 20
22.4293990455
 10
-10.112945015
 20
22.4391901605
 10
-10.1123492183
 20
22.4491887686
 10
-10.1113577123
 20
22.4593723871
 10
-10.1099727266
 20
22.4697181173
 10
-10.1081973755
 20
22.4802026961
 10
-10.1060356509
 20
22.4908025481
 10
-10.1034924137
 20
22.5014938388
 10
-10.1005733825
 20
22.512252528
 10
-10.0972851209
 20
22.523054424
 10
-10.093635023
 20
22.5338752378
 10
-10.0896312961
 20
22.544690638
 10
-10.085282943
 20
22.5554763055
 10
-10.0805997413
 20
22.5662079878
 10
-10.0755922215
 20
22.5768615539
 10
-10.0702716434
 20
22.5874130485
 10
-10.0646499708
 20
22.5978387457
 10
-10.0587398443
 20
22.6081152026
 10
-10.0525545534
 20
22.6182193118
 10
-10.0461080061
 20
22.6281283534
 10
-10.039414698
 20
22.6378200461
 10
-10.0324896795
 20
22.6472725976
 10
-10.025348522
 20
22.656464753
 10
-10.0180072831
 20
22.665375843
 10
-10.0104824699
 20
22.6739858304
 10
-10.0027910026
 20
22.682275355
 10
-9.9949501761
 20
22.6902257771
 10
-9.986977621
 20
22.6978192197
 10
-9.9788912642
 20
22.7050386083
 10
-9.9707092886
 20
22.7118677096
 10
-9.9624500919
 20
22.7182911677
 10
-9.9541322456
 20
22.7242945392
 10
-9.9457744529
 20
22.7298643249
 10
-9.9373955069
 20
22.7349880007
  0
LWPOLYLINE
  5
2F1
100
AcDbEntity
  8
0
100
AcDbPolyline
 62
7
  6
CONTINUOUS
 90
9
 70
0
 10
-10.1863670675
 20
22.5314633194
 10
-10.184457047
 20
22.562311853
 10
-10.1784348773
 20
22.593943093
 10
-10.1683564225
 20
22.6246392518
 10
-10.154322546
 20
22.6539234386
 10
-10.1364915787
 20
22.6813015353
 10
-10.1151269806
 20
22.7062386682
 10
-10.0905856551
 20
22.7282331056
 10
-10.0635525438
 20
22.7466974654
  0
LWPOLYLINE
  5
2F2
100
AcDbEntity
  8
0
100
AcDbPolyline
 62
253
  6
CONTINUOUS
 90
22
 70
0
 10
-12.5474118914
 20
-14.8530324074
 10
-12.552443888
 20
-14.9187209037
 10
-12.5544688193
 20
-14.983177459
 10
-12.5538333341
 20
-15.0462207446
 10
-12.5509814113
 20
-15.1076426313
 10
-12.5461191263
 20
-15.1673033362
 10
-12.5391605664
 20
-15.2251657463
 10
-12.5302830917
 20
-15.2812011869
 10
-12.5197525612
 20
-15.3352014049
 10
-12.5075434818
 20
-15.3869028417
 10
-12.4938303928
 20
-15.4361509707
 10
-12.4788062274
 20
-15.482899522
 10
-12.46244521
 20
-15.5270645434
 10
-12.4450890096
 20
-15.5683638391
 10
-12.4266987731
 20
-15.606910664
 10
-12.406679581
 20
-15.6432257935
 10
-12.3849526216
 20
-15.6777351834
 10
-12.3619699122
 20
-15.7098311261
 10
-12.3379437464
 20
-15.7384823552
 10
-12.3130498591
 20
-15.7632852825
 10
-12.2874577642
 20
-15.7844544047
 10
-12.2613410175
 20
-15.8018939524
  0
LWPOLYLINE
  5
2F3
100
AcDbEntity
  8
RACCORDO
100
AcDbPolyline
 62
7
  6
CONTINUOUS
 90
4
 70
0
 10
-9.4833695417
 20
21.5387004171
 10
-9.4838094267
 20
21.5334096306
 10
-9.4845314354
 20
21.5304969998
 10
-9.4846472427
 20
21.530184483
  0
LWPOLYLINE
  5
2F4
100
AcDbEntity
  8
0
100
AcDbPolyline
 62
253
  6
CONTINUOUS
 90
15
 70
0
 10
-5.8820079189
 20
22.4463850065
 10
-5.8836546819
 20
22.4396065624
 10
-5.8858561309
 20
22.4328808137
 10
-5.8886073156
 20
22.4262228836
 10
-5.8919020499
 20
22.4196477431
 10
-5.8957329252
 20
22.4131701769
 10
-5.9000913277
 20
22.4068047502
 10
-5.904967457
 20
22.4005657762
 10
-5.9103503488
 20
22.3944672838
 10
-5.9162278994
 20
22.3885229857
 10
-5.9225868925
 20
22.3827462483
 10
-5.9294130295
 20
22.3771500609
 10
-5.9366909613
 20
22.371747007
 10
-5.9444043229
 20
22.3665492358
 10
-5.9525357703
 20
22.3615684349
  0
LWPOLYLINE
  5
2F5
100
AcDbEntity
  8
RACCORDO
100
AcDbPolyline
 62
253
  6
CONTINUOUS
 90
16
 70
0
 10
2.7576414438
 20
14.4721349813
 10
2.7258779079
 20
14.4492382842
 10
2.6985112942
 20
14.4252290039
 10
2.6755416028
 20
14.4001071405
 10
2.6568531986
 20
14.3735925841
 10
2.6425617167
 20
14.3459654445
 10
2.6330140621
 20
14.3180660515
 10
2.628316738
 20
14.2899075769
 10
2.6283632413
 20
14.2614768488
 10
2.6331809671
 20
14.2335746818
 10
2.642884623
 20
14.2061808466
 10
2.6573595015
 20
14.1793155724
 10
2.6762888761
 20
14.153840361
 10
2.6995671712
 20
14.1300423796
 10
2.7272999624
 20
14.1076344611
 10
2.7594872497
 20
14.0866166053
  0
LWPOLYLINE
  5
2F6
100
AcDbEntity
  8
0
100
AcDbPolyline
 62
7
  6
CONTINUOUS
 90
9
 70
0
 10
2.2401097264
 20
15.6427220693
 10
2.2138965296
 20
15.6248973868
 10
2.1898334655
 20
15.6035823435
 10
2.1684973206
 20
15.5790849638
 10
2.1503848422
 20
15.5517947673
 10
2.1359540689
 20
15.5222697655
 10
2.1255297605
 20
15.4911414732
 10
2.1192473676
 20
15.4587042657
 10
2.1172909372
 20
15.4274447924
  0
LINE
  5
2F7
100
AcDbEntity
  8
RACCORDO
100
AcDbLine
 62
253
  6
CONTINUOUS
 10
2.8246205032
 20
14.5153373134
 11
2.7576414438
 21
14.4721349813
  0
LINE
  5
2F8
100
AcDbEntity
  8
DRAFT
100
AcDbLine
 62
7
  6
CONTINUOUS
 10
11.5124903162
 20
19.4191360075
 11
5.8647413535
 21
16.1535581979
  0
LINE
  5
2F9
100
AcDbEntity
  8
0
100
AcDbLine
 62
253
  6
CONTINUOUS
 10
4.0448005561
 20
14.661843232
 11
6.1743485187
 21
15.8914168474
  0
LINE
  5
2FA
100
AcDbEntity
  8
0
100
AcDbLine
 62
253
  6
CONTINUOUS
 10
4.2215742598
 20
14.3556621961
 11
6.3511222224
 21
15.5852358115
  0
LINE
  5
2FB
100
AcDbEntity
  8
0
100
AcDbLine
 62
253
  6
CONTINUOUS
 10
-15.6469462989
 20
-6.0223357612
 11
-15.6169870085
 21
-6.0363776883
  0
LINE
  5
2FC
100
AcDbEntity
  8
0
100
AcDbLine
 62
253
  6
CONTINUOUS
 10
-4.9359043294
 20
-12.2432390252
 11
-1.1197971259
 21
-16.3327423705
  0
LINE
  5
2FD
100
AcDbEntity
  8
0
100
AcDbLine
 62
253
  6
CONTINUOUS
 10
-4.2927369561
 20
-12.0460027822
 11
-0.9698085584
 21
-15.6069946711
  0
LWPOLYLINE
  5
2FE
100
AcDbEntity
  8
0
100
AcDbPolyline
 62
253
  6
CONTINUOUS
 90
5
 70
0
 10
-1.3457227981
 20
-16.3348021884
 10
-1.3284717294
 20
-16.3584740146
 10
-1.3085197691
 20
-16.3842789375
 10
-1.2855502099
 20
-16.4123979307
 10
-1.2730782577
 20
-16.4269733359
  0
LWPOLYLINE
  5
2FF
100
AcDbEntity
  8
0
100
AcDbPolyline
 62
253
  6
CONTINUOUS
 90
34
 70
0
 10
4.2215742598
 20
-24.9012437638
 10
4.2171536474
 20
-24.8951418678
 10
4.2123463507
 20
-24.8888220361
 10
4.2071632201
 20
-24.8822985325
 10
4.2016159571
 20
-24.8755860847
 10
4.1957170794
 20
-24.8686998393
 10
4.18947989
 20
-24.8616553266
 10
4.1829184562
 20
-24.8544684364
 10
4.1760475937
 20
-24.8471553981
 10
4.168882825
 20
-24.8397327335
 10
4.1614403284
 20
-24.8322172025
 10
4.1537368963
 20
-24.824625762
 10
4.1457899127
 20
-24.8169755429
 10
4.1376173133
 20
-24.8092838112
 10
4.1292375451
 20
-24.8015679285
 10
4.1206695215
 20
-24.7938453096
 10
4.1119325813
 20
-24.786133385
 10
4.1030464437
 20
-24.7784495607
 10
4.094031164
 20
-24.7708111782
 10
4.0849070916
 20
-24.763235479
 10
4.0756948184
 20
-24.7557395605
 10
4.0664151308
 20
-24.7483403365
 10
4.0570889618
 20
-24.7410544987
 10
4.0477373725
 20
-24.7338985009
 10
4.0383814986
 20
-24.7268885163
 10
4.0290424737
 20
-24.720040378
 10
4.019741359
 20
-24.7133695282
 10
4.0104991241
 20
-24.706891006
 10
4.0013363977
 20
-24.7006192772
 10
3.9922740966
 20
-24.6945686648
 10
3.9833333289
 20
-24.6887532451
 10
3.9745344573
 20
-24.6831862224
 10
3.9658970808
 20
-24.6778799562
 10
3.9574406478
 20
-24.6728463587
  0
LWPOLYLINE
  5
300
100
AcDbEntity
  8
RACCORDO
100
AcDbPolyline
 62
7
  6
CONTINUOUS
 90
10
 70
0
 10
-13.6727028654
 20
13.1516308207
 10
-13.6646038352
 20
13.1045584214
 10
-13.652972654
 20
13.0575646094
 10
-13.6379768294
 20
13.0110821101
 10
-13.6197663076
 20
12.9654425599
 10
-13.5985134012
 20
12.9210381033
 10
-13.5743899369
 20
12.8782328161
 10
-13.547593767
 20
12.8374178908
 10
-13.5183534507
 20
12.7990028201
 10
-13.4868022085
 20
12.7632606563
  0
LINE
  5
301
100
AcDbEntity
  8
0
100
AcDbLine
 62
7
  6
CONTINUOUS
 10
-10.1837737993
 20
22.1750322171
 11
-10.1863667537
 21
22.2111762853
  0
LWPOLYLINE
  5
302
100
AcDbEntity
  8
RACCORDO
100
AcDbPolyline
 62
253
  6
CONTINUOUS
 90
9
 70
0
 10
-9.4833741117
 20
21.5387400391
 10
-9.4830166224
 20
21.5303278692
 10
-9.4802973979
 20
21.514218194
 10
-9.4749103811
 20
21.498469164
 10
-9.4668961623
 20
21.4832521701
 10
-9.4563106146
 20
21.4687447588
 10
-9.4432385287
 20
21.45511059
 10
-9.427802587
 20
21.4424958444
 10
-9.4101508086
 20
21.4310462261
  0
LWPOLYLINE
  5
303
100
AcDbEntity
  8
0
100
AcDbPolyline
 62
253
  6
CONTINUOUS
 90
17
 70
0
 10
-10.1131437629
 20
22.1088788726
 10
-10.112975467
 20
22.1000714073
 10
-10.1124708998
 20
22.0914750556
 10
-10.111631022
 20
22.0831061852
 10
-10.1104574363
 20
22.0749807525
 10
-10.1089523753
 20
22.0671142058
 10
-10.107118689
 20
22.0595214637
 10
-10.1049598449
 20
22.0522169416
 10
-10.1024799575
 20
22.0452146078
 10
-10.0996837777
 20
22.0385278842
 10
-10.0965766552
 20
22.0321695392
 10
-10.0931644931
 20
22.0261516308
 10
-10.0894537651
 20
22.0204855745
 10
-10.0854515044
 20
22.0151821247
 10
-10.0811653552
 20
22.0102514251
 10
-10.0766035457
 20
22.0057029316
 10
-10.0717748162
 20
22.0015453265
  0
LWPOLYLINE
  5
304
100
AcDbEntity
  8
0
100
AcDbPolyline
 62
253
  6
CONTINUOUS
 90
19
 70
0
 10
-8.4346056925
 20
21.1397120278
 10
-8.4344378603
 20
21.130916563
 10
-8.4339344536
 20
21.1223287188
 10
-8.4330960865
 20
21.1139650365
 10
-8.4319238599
 20
21.1058407506
 10
-8.4304197414
 20
21.0979725426
 10
-8.4285869382
 20
21.090378207
 10
-8.4264292133
 20
21.0830730464
 10
-8.4239504792
 20
21.0760700618
 10
-8.4211554219
 20
21.0693825119
 10
-8.418049325
 20
21.0630230885
 10
-8.4146381147
 20
21.0570039694
 10
-8.4109283303
 20
21.0513367044
 10
-8.4069270671
 20
21.0460321173
 10
-8.4026419212
 20
21.0411002646
 10
-8.3980810211
 20
21.036550503
 10
-8.3932530151
 20
21.0323914746
 10
-8.388167122
 20
21.0286311349
 10
-8.3828387635
 20
21.0252799641
  0
LINE
  5
305
100
AcDbEntity
  8
0
100
AcDbLine
 62
7
  6
CONTINUOUS
 10
-9.4833741133
 20
21.6607152821
 11
-9.4833741133
 21
21.5387564542
  0
LINE
  5
306
100
AcDbEntity
  8
RACCORDO
100
AcDbLine
 62
253
  6
CONTINUOUS
 10
-9.4101508086
 20
21.6184370636
 11
-9.4101508086
 21
21.4310462261
  0
LINE
  5
307
100
AcDbEntity
  8
0
100
AcDbLine
 62
253
  6
CONTINUOUS
 10
-8.4346056925
 20
21.1397120278
 11
-8.4346056925
 21
21.4602322006
  0
LINE
  5
308
100
AcDbEntity
  8
0
100
AcDbLine
 62
253
  6
CONTINUOUS
 10
-8.0820837329
 20
21.1391199472
 11
-8.0820837329
 21
21.45964012
  0
LWPOLYLINE
  5
309
100
AcDbEntity
  8
0
100
AcDbPolyline
 62
253
  6
CONTINUOUS
 90
34
 70
0
 10
-8.4346056925
 20
21.4602322006
 10
-8.4344069446
 20
21.4700233157
 10
-8.4338111478
 20
21.4800219238
 10
-8.4328196419
 20
21.4902055422
 10
-8.4314346562
 20
21.5005512725
 10
-8.4296593051
 20
21.5110358513
 10
-8.4274975805
 20
21.5216357033
 10
-8.4249543433
 20
21.532326994
 10
-8.4220353121
 20
21.5430856832
 10
-8.4187470505
 20
21.5538875791
 10
-8.4150969526
 20
21.5647083929
 10
-8.4110932257
 20
21.5755237932
 10
-8.4067448726
 20
21.5863094607
 10
-8.4020616709
 20
21.597041143
 10
-8.3970541511
 20
21.6076947091
 10
-8.391733573
 20
21.6182462037
 10
-8.3861119003
 20
21.6286719009
 10
-8.3802017739
 20
21.6389483578
 10
-8.3740164829
 20
21.6490524669
 10
-8.3675699357
 20
21.6589615085
 10
-8.3608766276
 20
21.6686532013
 10
-8.3539516091
 20
21.6781057528
 10
-8.3468104516
 20
21.6872979081
 10
-8.3394692126
 20
21.6962089982
 10
-8.3319443995
 20
21.7048189856
 10
-8.3242529322
 20
21.7131085102
 10
-8.3164121056
 20
21.7210589323
 10
-8.3084395506
 20
21.7286523749
 10
-8.3003531938
 20
21.7358717635
 10
-8.2921712182
 20
21.7427008647
 10
-8.2839120215
 20
21.7491243229
 10
-8.2755941752
 20
21.7551276944
 10
-8.2672363825
 20
21.76069748
 10
-8.2588574365
 20
21.7658211559
  0
LINE
  5
30A
100
AcDbEntity
  8
0
100
AcDbLine
 62
253
  6
CONTINUOUS
 10
-5.8809195446
 20
22.453200904
 11
-5.8820079189
 21
22.4463850065
  0
LWPOLYLINE
  5
30B
100
AcDbEntity
  8
0
100
AcDbPolyline
 62
253
  6
CONTINUOUS
 90
11
 70
0
 10
-0.8325041291
 20
18.4724205206
 10
-0.8280280485
 20
18.4817770635
 10
-0.8232522032
 20
18.4910279101
 10
-0.8181895492
 20
18.5001479622
 10
-0.8128538396
 20
18.5091124298
 10
-0.8072596117
 20
18.5178968758
 10
-0.8014221054
 20
18.5264773623
 10
-0.7953572116
 20
18.5348305278
 10
-0.7890814322
 20
18.5429336411
 10
-0.7826118529
 20
18.5507646381
 10
-0.7759660821
 20
18.5583022028
  0
LWPOLYLINE
  5
30C
100
AcDbEntity
  8
RACCORDO
100
AcDbPolyline
 62
253
  6
CONTINUOUS
 90
10
 70
0
 10
2.7594872497
 20
14.0866166053
 10
2.7830965082
 20
14.1039987114
 10
2.8058251456
 20
14.1253966193
 10
2.8270277288
 20
14.1502026852
 10
2.8461021607
 20
14.1777124825
 10
2.862506778
 20
14.207144806
 10
2.875775733
 20
14.2376638556
 10
2.8855322225
 20
14.2684029713
 10
2.8914991882
 20
14.2984892436
 10
2.893507184
 20
14.3270683022
  0
LWPOLYLINE
  5
30D
100
AcDbEntity
  8
RACCORDO
100
AcDbPolyline
 62
253
  6
CONTINUOUS
 90
4
 70
0
 10
0.9150645177
 20
11.0321481593
 10
0.8624044565
 20
10.9952896908
 10
0.8102354951
 20
10.9540711048
 10
0.758862663
 20
10.9087239047
  0
LWPOLYLINE
  5
30E
100
AcDbEntity
  8
RACCORDO
100
AcDbPolyline
 62
7
  6
CONTINUOUS
 90
15
 70
0
 10
0.8124563264
 20
11.0403603365
 10
0.7782990147
 20
11.0168363977
 10
0.7107661844
 20
10.9642881512
 10
0.6459531094
 20
10.9057952135
 10
0.5842124384
 20
10.8420009612
 10
0.5258105605
 20
10.7734316416
 10
0.4710310865
 20
10.7005927587
 10
0.420228434
 20
10.6241027394
 10
0.3737722464
 20
10.5445566404
 10
0.3319782905
 20
10.4625515396
 10
0.2951796174
 20
10.378722046
 10
0.2637049152
 20
10.293675901
 10
0.2378151578
 20
10.2079215701
 10
0.2178272381
 20
10.1219804963
 10
0.2033622593
 20
10.0308074447
  0
LWPOLYLINE
  5
30F
100
AcDbEntity
  8
RACCORDO
100
AcDbPolyline
 62
253
  6
CONTINUOUS
 90
22
 70
0
 10
0.66480694
 20
11.1766437482
 10
0.6450954
 20
11.1633568743
 10
0.6243366826
 20
11.1486503393
 10
0.6025593815
 20
11.1324275494
 10
0.5797319984
 20
11.1145365076
 10
0.5559653282
 20
11.0949302813
 10
0.5315085811
 20
11.0736928705
 10
0.5064142942
 20
11.0507519859
 10
0.4807467828
 20
11.0260437117
 10
0.4547726463
 20
10.9997162861
 10
0.428560106
 20
10.9717365545
 10
0.4021851021
 20
10.9420793056
 10
0.3759164633
 20
10.9109594642
 10
0.3498290439
 20
10.8783869757
 10
0.3240004556
 20
10.8443765093
 10
0.2986833672
 20
10.8092011911
 10
0.2739449892
 20
10.7729063179
 10
0.2498557468
 20
10.7355439906
 10
0.2266412306
 20
10.6974396452
 10
0.2044009994
 20
10.6587580011
 10
0.1831291202
 20
10.619485569
 10
0.1628719364
 20
10.5796986921
  0
LWPOLYLINE
  5
310
100
AcDbEntity
  8
RACCORDO
100
AcDbPolyline
 62
253
  6
CONTINUOUS
 90
22
 70
0
 10
0.740441631
 20
11.0571366553
 10
0.7226102189
 20
11.0452595123
 10
0.7038948194
 20
11.031918599
 10
0.6842954323
 20
11.0171139153
 10
0.6637067291
 20
11.0008691423
 10
0.6422340384
 20
10.9831605989
 10
0.6201933461
 20
10.963917242
 10
0.5975697135
 20
10.9430987985
 10
0.5743780794
 20
10.9207455414
 10
0.5509792456
 20
10.8969072471
 10
0.5273677171
 20
10.871539647
 10
0.5035489889
 20
10.8446870096
 10
0.4799003486
 20
10.8165319164
 10
0.4564282088
 20
10.7870337425
 10
0.4331261569
 20
10.7562331127
 10
0.4103522416
 20
10.7244344826
 10
0.388123093
 20
10.691605996
 10
0.3664220812
 20
10.657779509
 10
0.3455573654
 20
10.6233550462
 10
0.3256316655
 20
10.5884659489
 10
0.3065422617
 20
10.5529788758
 10
0.288289154
 20
10.5168938268
  0
LINE
  5
311
100
AcDbEntity
  8
RACCORDO
100
AcDbLine
 62
253
  6
CONTINUOUS
 10
2.0426890287
 20
12.0853440272
 11
0.66480694
 21
11.1766437482
  0
LINE
  5
312
100
AcDbEntity
  8
RACCORDO
100
AcDbLine
 62
253
  6
CONTINUOUS
 10
2.1134750742
 20
11.9626392982
 11
0.740441631
 21
11.0571366553
  0
LINE
  5
313
100
AcDbEntity
  8
RACCORDO
100
AcDbLine
 62
7
  6
CONTINUOUS
 10
2.1897009799
 20
11.9486579197
 11
0.8123567531
 21
11.0403123556
  0
LINE
  5
314
100
AcDbEntity
  8
RACCORDO
100
AcDbLine
 62
253
  6
CONTINUOUS
 10
2.2929466064
 20
11.9408484383
 11
0.9150645177
 21
11.0321481593
  0
LWPOLYLINE
  5
315
100
AcDbEntity
  8
0
100
AcDbPolyline
 62
253
  6
CONTINUOUS
 90
43
 70
0
 10
1.5116995726
 20
10.6876585562
 10
1.4885086554
 20
10.6726751554
 10
1.4653826578
 20
10.6568641087
 10
1.4423459264
 20
10.6402423537
 10
1.4194226231
 20
10.6228278981
 10
1.3966369668
 20
10.6046391774
 10
1.3740132149
 20
10.585694996
 10
1.3515750019
 20
10.5660154112
 10
1.3293461453
 20
10.5456215847
 10
1.3073508859
 20
10.5245351329
 10
1.2856124821
 20
10.5027786633
 10
1.2641537118
 20
10.4803753212
 10
1.242997686
 20
10.4573486079
 10
1.2221666713
 20
10.4337230712
 10
1.2016826047
 20
10.4095239322
 10
1.1815675933
 20
10.3847766446
 10
1.1618427999
 20
10.3595075551
 10
1.1425290078
 20
10.3337436428
 10
1.1236471368
 20
10.3075121401
 10
1.1052170977
 20
10.2808410344
 10
1.0872582547
 20
10.2537587259
 10
1.0697899914
 20
10.2262937653
 10
1.0528307113
 20
10.1984754074
 10
1.0363982516
 20
10.1703332931
 10
1.0205103467
 20
10.141897108
 10
1.00518372
 20
10.1131970915
 10
0.9904345102
 20
10.0842638474
 10
0.9762786861
 20
10.0551280227
 10
0.9627311791
 20
10.0258206643
 10
0.9498062104
 20
9.9963729407
 10
0.9375177222
 20
9.9668159507
 10
0.9258786747
 20
9.9371811604
 10
0.9149012894
 20
9.9075000902
 10
0.9045973847
 20
9.8778040377
 10
0.8949777902
 20
9.8481244562
 10
0.8860526639
 20
9.8184930526
 10
0.8778317247
 20
9.7889414716
 10
0.8703236884
 20
9.759501357
 10
0.8635363547
 20
9.7302037865
 10
0.8574769557
 20
9.7010793759
 10
0.8521519234
 20
9.6721589142
 10
0.8475668479
 20
9.6434733228
 10
0.8437265718
 20
9.615053094
  0
LINE
  5
316
100
AcDbEntity
  8
RACCORDO
100
AcDbLine
 62
253
  6
CONTINUOUS
 10
4.9327948679
 20
13.3717020381
 11
5.8228550506
 21
13.9332155198
  0
LINE
  5
317
100
AcDbEntity
  8
RACCORDO
100
AcDbLine
 62
253
  6
CONTINUOUS
 10
5.0807925013
 20
13.1307766766
 11
5.96423574
 21
13.6881157178
  0
LWPOLYLINE
  5
318
100
AcDbEntity
  8
0
100
AcDbPolyline
 62
7
  6
CONTINUOUS
 90
21
 70
0
 10
12.4875455583
 20
18.0943739905
 10
12.5011231374
 20
18.1028259997
 10
12.514069285
 20
18.1115542781
 10
12.5263840013
 20
18.1205588255
 10
12.5380847977
 20
18.1298547852
 10
12.5491541626
 20
18.139427014
 10
12.5595395616
 20
18.1492300826
 10
12.5692377435
 20
18.1592650885
 10
12.5782519593
 20
18.1695309342
 10
12.5865394283
 20
18.1799788986
 10
12.5940966957
 20
18.1906098475
 10
12.6009272163
 20
18.2014229152
 10
12.6069985727
 20
18.2123667835
 10
12.6123071563
 20
18.2234420741
 10
12.6168565757
 20
18.2346481653
 10
12.6206252397
 20
18.2459318735
 10
12.6236094369
 20
18.2572935679
 10
12.6258128787
 20
18.2687328794
 10
12.6272251076
 20
18.2801955176
 10
12.6278423627
 20
18.2916815936
 10
12.6278733728
 20
18.2949175089
  0
LINE
  5
319
100
AcDbEntity
  8
0
100
AcDbLine
 62
253
  6
CONTINUOUS
 10
6.1760604361
 20
13.5658107931
 11
1.5116995726
 21
10.6876585562
  0
LINE
  5
31A
100
AcDbEntity
  8
DRAFT
100
AcDbLine
 62
7
  6
CONTINUOUS
 10
12.4875455583
 20
18.546482508
 11
5.8736010641
 21
14.5522461453
  0
LINE
  5
31B
100
AcDbEntity
  8
0
100
AcDbLine
 62
7
  6
CONTINUOUS
 10
12.4875455583
 20
18.0943739905
 11
6.2244628868
 21
14.3496629262
  0
LINE
  5
31C
100
AcDbEntity
  8
0
100
AcDbLine
 62
253
  6
CONTINUOUS
 10
6.8776574237
 20
13.972516587
 11
6.1767214699
 21
13.5654291204
  0
LWPOLYLINE
  5
31D
100
AcDbEntity
  8
0
100
AcDbPolyline
 62
253
  6
CONTINUOUS
 90
37
 70
0
 10
1.5406561538
 20
9.5483634393
 10
1.5249900126
 20
9.5426285921
 10
1.5087063265
 20
9.5372910952
 10
1.4918354152
 20
9.5323608867
 10
1.4744086916
 20
9.5278471466
 10
1.4564586038
 20
9.5237582793
 10
1.4380185741
 20
9.5201018981
 10
1.4191229372
 20
9.516884811
 10
1.3998068763
 20
9.5141130083
 10
1.380106357
 20
9.5117916508
 10
1.360058061
 20
9.5099250608
 10
1.3396993176
 20
9.508516714
 10
1.3190680341
 20
9.5075692325
 10
1.2982026251
 20
9.5070843805
 10
1.2771419414
 20
9.5070630609
 10
1.2559251971
 20
9.5075053133
 10
1.2345918971
 20
9.5084103143
 10
1.2131817633
 20
9.5097763787
 10
1.1917346605
 20
9.5116009631
 10
1.1702905226
 20
9.5138806701
 10
1.1488892777
 20
9.5166112549
 10
1.1275707743
 20
9.5197876334
 10
1.1063747065
 20
9.5234038912
 10
1.0853405409
 20
9.527453295
 10
1.0645074421
 20
9.5319283048
 10
1.0439142008
 20
9.5368205885
 10
1.0235991608
 20
9.5421210368
 10
1.003600148
 20
9.5478197803
 10
0.9839543999
 20
9.5539062083
 10
0.9646984961
 20
9.5603689881
 10
0.9458682905
 20
9.5671960861
 10
0.9274988443
 20
9.5743747905
 10
0.9096243606
 20
9.5818917349
 10
0.8922781213
 20
9.5897329229
 10
0.8754924243
 20
9.5978837546
 10
0.859298524
 20
9.6063290534
 10
0.843726573
 20
9.6150530944
  0
LWPOLYLINE
  5
31E
100
AcDbEntity
  8
RACCORDO
100
AcDbPolyline
 62
253
  6
CONTINUOUS
 90
10
 70
0
 10
0.1476184399
 20
10.0841189553
 10
0.1343689475
 20
10.080015697
 10
0.1194485844
 20
10.0772688696
 10
0.1033008162
 20
10.0759601146
 10
0.086405589
 20
10.0761283311
 10
0.0692650654
 20
10.0777685194
 10
0.0523886986
 20
10.0808319294
 10
0.0362780905
 20
10.0852275101
 10
0.0214120829
 20
10.0908246153
 10
0.0082325256
 20
10.0974568871
  0
LINE
  5
31F
100
AcDbEntity
  8
0
100
AcDbLine
 62
7
  6
CONTINUOUS
 10
-15.6691701061
 20
-6.0357811306
 11
-15.6689998213
 21
-6.0358197945
  0
LWPOLYLINE
  5
320
100
AcDbEntity
  8
0
100
AcDbPolyline
 62
7
  6
CONTINUOUS
 90
9
 70
0
 10
-15.6689998213
 20
-6.0358197945
 10
-15.666446546
 20
-6.036461108
 10
-15.6595215373
 20
-6.0384415163
 10
-15.6486041833
 20
-6.0420168798
 10
-15.6338643573
 20
-6.0474562029
 10
-15.6157315335
 20
-6.0548829044
 10
-15.594411702
 20
-6.064464793
 10
-15.5699887713
 20
-6.0764026495
 10
-15.5427799407
 20
-6.0907315362
  0
LINE
  5
321
100
AcDbEntity
  8
0
100
AcDbLine
 62
253
  6
CONTINUOUS
 10
7.248794078
 20
-13.4401456977
 11
7.4940748128
 21
-13.5817677199
  0
LWPOLYLINE
  5
322
100
AcDbEntity
  8
0
100
AcDbPolyline
 62
7
  6
CONTINUOUS
 90
10
 70
0
 10
-1.285100499
 20
-16.3864406417
 10
-1.2863927952
 20
-16.3842539503
 10
-1.2867963394
 20
-16.3835388811
 10
-1.2856616534
 20
-16.3858660252
 10
-1.2833231335
 20
-16.3912735641
 10
-1.2798857853
 20
-16.4005925202
 10
-1.2759041124
 20
-16.4140052246
 10
-1.2721213874
 20
-16.431364503
 10
-1.2692715106
 20
-16.4530240493
 10
-1.2684721747
 20
-16.4661052601
  0
LINE
  5
323
100
AcDbEntity
  8
RACCORDO
100
AcDbLine
 62
253
  6
CONTINUOUS
 10
-7.7233850844
 20
20.4571288371
 11
-7.7233850844
 21
20.9415108349
  0
LINE
  5
324
100
AcDbEntity
  8
RACCORDO
100
AcDbLine
 62
253
  6
CONTINUOUS
 10
-7.3708631248
 20
20.475679962
 11
-7.3708631248
 21
21.0736299343
  0
LINE
  5
325
100
AcDbEntity
  8
0
100
AcDbLine
 62
7
  6
CONTINUOUS
 10
-6.480802942
 20
22.3841985462
 11
-6.480802942
 21
21.6987561685
  0
LINE
  5
326
100
AcDbEntity
  8
RACCORDO
100
AcDbLine
 62
7
  6
CONTINUOUS
 10
-6.480802942
 20
21.0371934437
 11
-6.480802942
 21
21.6987561685
  0
LINE
  5
327
100
AcDbEntity
  8
0
100
AcDbLine
 62
253
  6
CONTINUOUS
 10
-5.9525357703
 20
22.6892137354
 11
-5.9525357703
 21
22.3615684349
  0
LWPOLYLINE
  5
328
100
AcDbEntity
  8
0
100
AcDbPolyline
 62
253
  6
CONTINUOUS
 90
3
 70
0
 10
-5.8803379133
 20
22.463041548
 10
-5.8803920065
 20
22.460038929
 10
-5.8809195446
 20
22.453200904
  0
LWPOLYLINE
  5
329
100
AcDbEntity
  8
0
100
AcDbPolyline
 62
253
  6
CONTINUOUS
 90
18
 70
0
 10
-5.8803379133
 20
22.7906868485
 10
-5.8803925928
 20
22.7876680013
 10
-5.8809215658
 20
22.780829141
 10
-5.8820115043
 20
22.774012496
 10
-5.8836599514
 20
22.7672333785
 10
-5.8858632097
 20
22.7605069912
 10
-5.8886163568
 20
22.7538484008
 10
-5.8919131871
 20
22.7472726477
 10
-5.8957462017
 20
22.7407946613
 10
-5.9001066877
 20
22.7344290901
 10
-5.9049848573
 20
22.7281901555
 10
-5.9103698174
 20
22.7220917672
 10
-5.9162503784
 20
22.7161467584
 10
-5.9226125402
 20
22.7103694305
 10
-5.9294389411
 20
22.7047751576
 10
-5.9367125622
 20
22.699377035
 10
-5.9444174502
 20
22.6941861041
 10
-5.9525357703
 20
22.6892137354
  0
LWPOLYLINE
  5
32A
100
AcDbEntity
  8
0
100
AcDbPolyline
 62
7
  6
CONTINUOUS
 90
5
 70
0
 10
-5.8803379133
 20
22.463041548
 10
-5.8826360769
 20
22.4292296067
 10
-5.8895954325
 20
22.3956419909
 10
-5.9012007746
 20
22.3630606914
 10
-5.9172888677
 20
22.3322360535
  0
LWPOLYLINE
  5
32B
100
AcDbEntity
  8
0
100
AcDbPolyline
 62
7
  6
CONTINUOUS
 90
25
 70
0
 10
1.7923463979
 20
16.5313194742
 10
1.7979243881
 20
16.5420668929
 10
1.8030314841
 20
16.5532768524
 10
1.8076676859
 20
16.5649493528
 10
1.8118381462
 20
16.5771021612
 10
1.8155377123
 20
16.5897175105
 10
1.8187509259
 20
16.602742099
 10
1.8214757509
 20
16.6161776312
 10
1.8237142234
 20
16.6300224028
 10
1.8254569933
 20
16.6442179985
 10
1.8267019869
 20
16.6587658817
 10
1.8274512779
 20
16.6736645891
 10
1.8277017369
 20
16.6888513159
 10
1.8274512779
 20
16.7043272664
 10
1.8267019869
 20
16.7200912362
 10
1.8254569933
 20
16.7360768069
 10
1.8237142234
 20
16.7522849096
 10
1.8214757509
 20
16.768714613
 10
1.8187509259
 20
16.785296705
 10
1.8155377123
 20
16.802031832
 10
1.8118381462
 20
16.8189193474
 10
1.8076676859
 20
16.8358880989
 10
1.8030314841
 20
16.8529143688
 10
1.7979243881
 20
16.8700218749
 10
1.7923463979
 20
16.8872106169
  0
LINE
  5
32C
100
AcDbEntity
  8
0
100
AcDbLine
 62
7
  6
CONTINUOUS
 10
-14.1278633394
 20
-7.7050098683
 11
-14.7070913047
 21
-8.5077569478
  0
LINE
  5
32D
100
AcDbEntity
  8
0
100
AcDbLine
 62
7
  6
CONTINUOUS
 10
-13.5093904266
 20
-7.2643479009
 11
-13.915731305
 21
-7.8274922463
  0
LWPOLYLINE
  5
32E
100
AcDbEntity
  8
0
100
AcDbPolyline
 62
7
  6
CONTINUOUS
 90
31
 70
0
 10
7.0647935549
 20
19.5512861666
 10
7.0731063545
 20
19.5604864449
 10
7.080885681
 20
19.5703293188
 10
7.0881315346
 20
19.5808147882
 10
7.0948545249
 20
19.5919630645
 10
7.1010440422
 20
19.6037539364
 10
7.1066682574
 20
19.6161267696
 10
7.1117242584
 20
19.6290845618
 10
7.1162149573
 20
19.6426243153
 10
7.120117261
 20
19.6566764023
 10
7.1234281385
 20
19.671243462
 10
7.1261506207
 20
19.6863228552
 10
7.1282707076
 20
19.7018370367
 10
7.129785296
 20
19.7177882462
 10
7.1306974891
 20
19.734174244
 10
7.1310025958
 20
19.7509107658
 10
7.1306974891
 20
19.7679996173
 10
7.129785296
 20
19.7854389927
 10
7.1282707076
 20
19.8031392109
 10
7.1261506207
 20
19.8211016156
 10
7.1234281385
 20
19.8393248631
 10
7.120117261
 20
19.8577152411
 10
7.1162149573
 20
19.8762736106
 10
7.1117242584
 20
19.8949991106
 10
7.1066682574
 20
19.9137954461
 10
7.1010440422
 20
19.932662982
 10
7.0948545249
 20
19.9516013533
 10
7.0881315346
 20
19.9705131703
 10
7.080885681
 20
19.9893659698
 10
7.0731063545
 20
20.008192215
 10
7.0647935549
 20
20.0269919059
  0
LWPOLYLINE
  5
32F
100
AcDbEntity
  8
RACCORDO
100
AcDbPolyline
 62
253
  6
CONTINUOUS
 90
13
 70
0
 10
0.758862663
 20
10.9087239047
 10
0.7086134622
 20
10.8595247689
 10
0.6597544291
 20
10.8067341604
 10
0.6124965816
 20
10.7505790073
 10
0.5670808315
 20
10.6913054372
 10
0.5238341305
 20
10.6292966577
 10
0.4830778424
 20
10.5650138958
 10
0.445051715
 20
10.4988305743
 10
0.4099811014
 20
10.4311300617
 10
0.3781144837
 20
10.3624240472
 10
0.349650048
 20
10.293187728
 10
0.3247031635
 20
10.2237509543
 10
0.3033669685
 20
10.1544138914
  0
LINE
  5
330
100
AcDbEntity
  8
0
100
AcDbLine
 62
7
  6
CONTINUOUS
 10
7.0669396968
 20
13.7997793411
 11
12.1361591528
 21
17.7864905947
  0
LINE
  5
331
100
AcDbEntity
  8
0
100
AcDbLine
 62
253
  6
CONTINUOUS
 10
7.0205852128
 20
13.8550692973
 11
12.1762534607
 21
17.8900891228
  0
LWPOLYLINE
  5
332
100
AcDbEntity
  8
RACCORDO
100
AcDbPolyline
 62
253
  6
CONTINUOUS
 90
10
 70
0
 10
4.4462529739
 20
13.1126992162
 10
4.4698620666
 20
13.1300811835
 10
4.4925905982
 20
13.1514789444
 10
4.5137931384
 20
13.1762848871
 10
4.5328675881
 20
13.2037946168
 10
4.5492722665
 20
13.2332269403
 10
4.5625412991
 20
13.2637460456
 10
4.5722978645
 20
13.2944852635
 10
4.578264889
 20
13.3245716816
 10
4.5802729082
 20
13.3531509132
  0
LWPOLYLINE
  5
333
100
AcDbEntity
  8
0
100
AcDbPolyline
 62
253
  6
CONTINUOUS
 90
43
 70
0
 10
1.8775323126
 20
10.0829977178
 10
1.8658240427
 20
10.0755548111
 10
1.8541707409
 20
10.0677139807
 10
1.8425724072
 20
10.0594752267
 10
1.8310161701
 20
10.0508285455
 10
1.8195149011
 20
10.0417839407
 10
1.808107215
 20
10.0323714222
 10
1.7967940491
 20
10.0225902067
 10
1.7855744661
 20
10.0124410775
 10
1.7744842683
 20
10.0019563956
 10
1.7635239175
 20
9.9911351287
 10
1.752692952
 20
9.979978309
 10
1.7420257891
 20
9.9685213941
 10
1.7315229412
 20
9.9567634241
 10
1.7211838959
 20
9.944705359
 10
1.7110415338
 20
9.9323855356
 10
1.7010964593
 20
9.9198030878
 10
1.691348068
 20
9.9069588817
 10
1.6818274272
 20
9.8938938523
 10
1.6725352824
 20
9.8806073176
 10
1.6634708881
 20
9.8670999596
 10
1.6546630753
 20
9.8534147586
 10
1.6461126659
 20
9.8395511565
 10
1.6378188379
 20
9.8255097114
 10
1.6298079567
 20
9.8113350774
 10
1.622080915
 20
9.797026814
 10
1.6146368199
 20
9.7825853617
 10
1.6074993589
 20
9.7680566967
 10
1.600669519
 20
9.7534405608
 10
1.5941463131
 20
9.7387372122
 10
1.587950467
 20
9.7239934018
 10
1.5820830224
 20
9.709209013
 10
1.5765429376
 20
9.6943841623
 10
1.5713478134
 20
9.67956595
 10
1.5664987378
 20
9.6647543363
 10
1.5619946229
 20
9.649949361
 10
1.5578498052
 20
9.6351982436
 10
1.5540653105
 20
9.6205001892
 10
1.5506401131
 20
9.6058559926
 10
1.5475854727
 20
9.5913152589
 10
1.5449051427
 20
9.5768945229
 10
1.5425953697
 20
9.5625772497
 10
1.5406561538
 20
9.5483634393
  0
LINE
  5
334
100
AcDbEntity
  8
0
100
AcDbLine
 62
253
  6
CONTINUOUS
 10
6.5293611367
 20
12.9534170373
 11
1.8775323126
 21
10.0829977178
  0
LINE
  5
335
100
AcDbEntity
  8
0
100
AcDbLine
 62
253
  6
CONTINUOUS
 10
7.231206327
 20
13.3601605601
 11
6.5302703732
 21
12.9530730935
  0
LINE
  5
336
100
AcDbEntity
  8
DRAFT
100
AcDbLine
 62
7
  6
CONTINUOUS
 10
9.4882670034
 20
-7.1226306959
 11
9.7887766745
 21
-7.0963576221
  0
LWPOLYLINE
  5
337
100
AcDbEntity
  8
0
100
AcDbPolyline
 62
253
  6
CONTINUOUS
 90
7
 70
0
 10
-15.7763869068
 20
-5.9840802482
 10
-15.7622506068
 20
-5.9853424945
 10
-15.7450003363
 20
-5.9884560123
 10
-15.7247490604
 20
-5.9935822212
 10
-15.7013695751
 20
-6.0009226082
 10
-15.6751767993
 20
-6.0105304581
 10
-15.6469462989
 20
-6.0223357612
  0
LINE
  5
338
100
AcDbEntity
  8
0
100
AcDbLine
 62
253
  6
CONTINUOUS
 10
7.248794078
 20
-12.9545523889
 11
7.6988664766
 21
-13.2144185511
  0
LINE
  5
339
100
AcDbEntity
  8
0
100
AcDbLine
 62
253
  6
CONTINUOUS
 10
7.248794078
 20
-12.9247937489
 11
7.6988664766
 21
-13.1846599111
  0
LINE
  5
33A
100
AcDbEntity
  8
0
100
AcDbLine
 62
253
  6
CONTINUOUS
 10
7.248794078
 20
-12.8286026907
 11
7.6611724718
 21
-13.0667048069
  0
LINE
  5
33B
100
AcDbEntity
  8
0
100
AcDbLine
 62
7
  6
CONTINUOUS
 10
12.4814290488
 20
-15.6294027643
 11
12.1762534607
 21
-15.4531982045
  0
LINE
  5
33C
100
AcDbEntity
  8
0
100
AcDbLine
 62
7
  6
CONTINUOUS
 10
11.6928607245
 20
-14.4392700478
 11
8.5412829528
 21
-12.619588541
  0
LINE
  5
33D
100
AcDbEntity
  8
0
100
AcDbLine
 62
7
  6
CONTINUOUS
 10
7.8301020145
 20
-11.5410532187
 11
7.4791414359
 21
-11.3384129792
  0
LWPOLYLINE
  5
33E
100
AcDbEntity
  8
0
100
AcDbPolyline
 62
253
  6
CONTINUOUS
 90
4
 70
0
 10
-10.1845265903
 20
22.1934644868
 10
-10.1856830865
 20
22.2002772077
 10
-10.1862788849
 20
22.2071139306
 10
-10.1863670676
 20
22.210947521
  0
LINE
  5
33F
100
AcDbEntity
  8
0
100
AcDbLine
 62
7
  6
CONTINUOUS
 10
-5.8803379133
 20
22.7906868485
 11
-5.8803379133
 21
22.463041548
  0
LINE
  5
340
100
AcDbEntity
  8
DRAFT
100
AcDbLine
 62
7
  6
CONTINUOUS
 10
-5.879762178
 20
16.8523071364
 11
-5.879762178
 21
17.6049405011
  0
LINE
  5
341
100
AcDbEntity
  8
0
100
AcDbLine
 62
7
  6
CONTINUOUS
 10
-5.5553933861
 20
20.4138087356
 11
-5.5553933861
 21
19.0503973293
  0
LINE
  5
342
100
AcDbEntity
  8
0
100
AcDbLine
 62
7
  6
CONTINUOUS
 10
-4.8898126844
 20
18.6660993738
 11
-4.8898126844
 21
20.0295107801
  0
LINE
  5
343
100
AcDbEntity
  8
0
100
AcDbLine
 62
7
  6
CONTINUOUS
 10
-4.1827059032
 20
20.2801886567
 11
-4.1827059032
 21
19.1171633612
  0
LWPOLYLINE
  5
344
100
AcDbEntity
  8
0
100
AcDbPolyline
 62
7
  6
CONTINUOUS
 90
31
 70
0
 10
-4.1827059032
 20
20.2801886567
 10
-4.1825091733
 20
20.2888550109
 10
-4.1819330834
 20
20.2976712624
 10
-4.1809776337
 20
20.3066374112
 10
-4.1796381754
 20
20.3157785936
 10
-4.1779193573
 20
20.3250696734
 10
-4.1758351248
 20
20.3344352414
 10
-4.17338248
 20
20.3438759758
 10
-4.170564421
 20
20.3533911984
 10
-4.1674038866
 20
20.3629034666
 10
-4.1638981368
 20
20.3724126348
 10
-4.1600499117
 20
20.3819188484
 10
-4.1558903707
 20
20.3913451011
 10
-4.1514169216
 20
20.4006908747
 10
-4.1466321565
 20
20.4099566872
 10
-4.1415750117
 20
20.4190670859
 10
-4.1362432494
 20
20.4280207939
 10
-4.1306391074
 20
20.4368190882
 10
-4.1248082345
 20
20.445390346
 10
-4.1187488708
 20
20.453732602
 10
-4.1124627763
 20
20.4618478215
 10
-4.1060008792
 20
20.4696702778
 10
-4.0993616677
 20
20.47719769
 10
-4.0925466537
 20
20.484432339
 10
-4.0856113019
 20
20.4913153403
 10
-4.0785546828
 20
20.4978437751
 10
-4.0713777259
 20
20.5040205622
 10
-4.0641386837
 20
20.5097955731
 10
-4.0568569739
 20
20.5151520985
 10
-4.0495131788
 20
20.5201068477
 10
-4.0421072984
 20
20.5246598209
  0
LWPOLYLINE
  5
345
100
AcDbEntity
  8
0
100
AcDbPolyline
 62
253
  6
CONTINUOUS
 90
10
 70
0
 10
-5.1171281014
 20
-11.4727457164
 10
-5.1259472062
 20
-11.5796750571
 10
-5.1273716199
 20
-11.6828294364
 10
-5.1213913949
 20
-11.7814884786
 10
-5.1080482942
 20
-11.8749632015
 10
-5.0874354986
 20
-11.9626008267
 10
-5.0596969573
 20
-12.0437893392
 10
-5.0250263815
 20
-12.1179617613
 10
-4.9836658923
 20
-12.1846001123
 10
-4.9359043294
 20
-12.2432390252
  0
LWPOLYLINE
  5
346
100
AcDbEntity
  8
RACCORDO
100
AcDbPolyline
 62
253
  6
CONTINUOUS
 90
13
 70
0
 10
0.288289154
 20
10.5207954321
 10
0.2673078536
 20
10.4780281442
 10
0.2481286708
 20
10.4362093579
 10
0.2307516055
 20
10.3953390731
 10
0.2152463919
 20
10.3553061956
 10
0.2015432959
 20
10.3162218197
 10
0.1894331148
 20
10.2784192278
 10
0.1789270923
 20
10.2418268753
 10
0.1700139848
 20
10.2065163068
 10
0.1624508591
 20
10.173035439
 10
0.1561567375
 20
10.1415669105
 10
0.1512125978
 20
10.1119280826
 10
0.1476184399
 20
10.0841189553
  0
LWPOLYLINE
  5
347
100
AcDbEntity
  8
0
100
AcDbPolyline
 62
253
  6
CONTINUOUS
 90
10
 70
0
 10
-12.2613410175
 20
-15.8018939524
 10
-12.2738576222
 20
-15.8271665934
 10
-12.2848449525
 20
-15.8528384957
 10
-12.2942051193
 20
-15.8786809415
 10
-12.3018547303
 20
-15.9044636936
 10
-12.3077256334
 20
-15.9299570467
 10
-12.3117655229
 20
-15.9549338738
 10
-12.3139384064
 20
-15.9791716497
 10
-12.3142249252
 20
-16.0024544337
 10
-12.3126225266
 20
-16.0245747933
  0
LWPOLYLINE
  5
348
100
AcDbEntity
  8
RACCORDO
100
AcDbPolyline
 62
253
  6
CONTINUOUS
 90
16
 70
0
 10
0.1628719364
 20
10.5796986921
 10
0.1446505935
 20
10.5431351224
 10
0.1276122473
 20
10.5067605114
 10
0.111747653
 20
10.4706443283
 10
0.0970128629
 20
10.4347706443
 10
0.083428514
 20
10.3992808385
 10
0.0710585982
 20
10.3644749679
 10
0.0598634399
 20
10.3304027269
 10
0.0498011021
 20
10.297110987
 10
0.040890114
 20
10.2648855235
 10
0.0330692215
 20
10.2337670778
 10
0.0262698981
 20
10.2037675057
 10
0.0204634753
 20
10.1751132341
 10
0.0155805241
 20
10.1478796444
 10
0.0115289781
 20
10.1219960369
 10
0.0082325235
 20
10.0974568863
  0
LINE
  5
349
100
AcDbEntity
  8
0
100
AcDbLine
 62
253
  6
CONTINUOUS
 10
-12.5474118914
 20
-14.8530324074
 11
-11.1851436309
 21
-12.2820263868
  0
LINE
  5
34A
100
AcDbEntity
  8
0
100
AcDbLine
 62
253
  6
CONTINUOUS
 10
6.3688619385
 20
15.2032968231
 11
6.3688222229
 21
15.2032467063
  0
LINE
  5
34B
100
AcDbEntity
  8
0
100
AcDbLine
 62
253
  6
CONTINUOUS
 10
5.8228550506
 20
14.5947782446
 11
6.3511222224
 21
15.257590511
  0
LINE
  5
34C
100
AcDbEntity
  8
0
100
AcDbLine
 62
7
  6
CONTINUOUS
 10
5.8228550506
 20
14.5182264018
 11
6.3688222229
 21
15.2032467063
  0
LINE
  5
34D
100
AcDbEntity
  8
RACCORDO
100
AcDbLine
 62
7
  6
CONTINUOUS
 10
-0.2992217327
 20
5.3513493073
 11
-0.3094077136
 21
5.344015166
  0
LINE
  5
34E
100
AcDbEntity
  8
RACCORDO
100
AcDbLine
 62
7
  6
CONTINUOUS
 10
-0.309331404
 20
5.3440582631
 11
-0.3094234118
 21
5.3440023407
  0
LWPOLYLINE
  5
34F
100
AcDbEntity
  8
RACCORDO
100
AcDbPolyline
 62
253
  6
CONTINUOUS
 90
9
 70
0
 10
-0.3094234118
 20
5.3440023407
 10
-0.318954455
 20
5.338551844
 10
-0.3414617836
 20
5.3281632897
 10
-0.3641981576
 20
5.3208013953
 10
-0.3870211696
 20
5.316179726
 10
-0.4096873357
 20
5.3140635814
 10
-0.4320140929
 20
5.3142081759
 10
-0.4540039723
 20
5.316351982
 10
-0.475514391
 20
5.3202835798
  0
LINE
  5
350
100
AcDbEntity
  8
RACCORDO
100
AcDbLine
 62
253
  6
CONTINUOUS
 10
-0.3047903402
 20
5.59547265
 11
-0.2254756023
 21
5.6389111802
  0
LINE
  5
351
100
AcDbEntity
  8
RACCORDO
100
AcDbLine
 62
7
  6
CONTINUOUS
 10
-0.4302308491
 20
5.3545881724
 11
-0.2445559349
 21
5.4562772858
  0
LWPOLYLINE
  5
352
100
AcDbEntity
  8
RACCORDO
100
AcDbPolyline
 62
253
  6
CONTINUOUS
 90
7
 70
0
 10
-0.5460224357
 20
5.410353192
 10
-0.5580328448
 20
5.4041372104
 10
-0.5703643187
 20
5.3989915981
 10
-0.5830215364
 20
5.3949541508
 10
-0.5960004521
 20
5.3919867722
 10
-0.6090780287
 20
5.3900176386
 10
-0.6222667378
 20
5.3890803428
  0
LWPOLYLINE
  5
353
100
AcDbEntity
  8
RACCORDO
100
AcDbPolyline
 62
253
  6
CONTINUOUS
 90
10
 70
0
 10
-0.3047904357
 20
5.5954727071
 10
-0.3181252465
 20
5.5905120806
 10
-0.3331281276
 20
5.5869331489
 10
-0.3493532316
 20
5.5848422687
 10
-0.36631839
 20
5.5843015755
 10
-0.3835194414
 20
5.5853271374
 10
-0.4004452145
 20
5.5878884774
 10
-0.4165927185
 20
5.5919094788
 10
-0.4314820908
 20
5.5972706479
 10
-0.4446708573
 20
5.6038126644
  0
LINE
  5
354
100
AcDbEntity
  8
0
100
AcDbLine
 62
7
  6
CONTINUOUS
 10
8.4020860742
 20
-10.3991359945
 11
7.248794078
 21
-9.7332396501
  0
LWPOLYLINE
  5
355
100
AcDbEntity
  8
0
100
AcDbPolyline
 62
253
  6
CONTINUOUS
 90
12
 70
0
 10
6.3435580491
 20
-23.4406780419
 10
6.3385332115
 20
-23.4309089254
 10
6.3331354977
 20
-23.421470255
 10
6.32737709
 20
-23.4123833331
 10
6.3212709846
 20
-23.4036686684
 10
6.3148309628
 20
-23.3953459294
 10
6.3080715593
 20
-23.3874339
 10
6.3010080297
 20
-23.3799504372
 10
6.2936563159
 20
-23.3729124307
 10
6.2860330103
 20
-23.3663357649
 10
6.2781553183
 20
-23.360235283
 10
6.2700410194
 20
-23.3546247533
  0
LWPOLYLINE
  5
356
100
AcDbEntity
  8
0
100
AcDbPolyline
 62
253
  6
CONTINUOUS
 90
7
 70
0
 10
-0.8955925588
 20
-21.7849013489
 10
-0.8936215778
 20
-21.7972094836
 10
-0.8858633507
 20
-21.8214221262
 10
-0.8731678491
 20
-21.8444618749
 10
-0.8557522963
 20
-21.865934513
 10
-0.8339146772
 20
-21.8854726377
 10
-0.8080286394
 20
-21.9027419463
  0
LINE
  5
357
100
AcDbEntity
  8
0
100
AcDbLine
 62
7
  6
CONTINUOUS
 10
-0.895618547
 20
-21.7846597229
 11
-0.8955925588
 21
-21.7849013489
  0
LWPOLYLINE
  5
358
100
AcDbEntity
  8
0
100
AcDbPolyline
 62
253
  6
CONTINUOUS
 90
14
 70
0
 10
-0.8515425885
 20
-21.4825012794
 10
-0.8917437122
 20
-21.0707399195
 10
-0.9287958749
 20
-20.6675882762
 10
-0.9628153845
 20
-20.2736951508
 10
-0.994007508
 20
-19.8886615953
 10
-1.0226402594
 20
-19.5110232056
 10
-1.0488727769
 20
-19.1403900789
 10
-1.0727905132
 20
-18.7773385652
 10
-1.0945214991
 20
-18.4218313315
 10
-1.1140439417
 20
-18.0764948927
 10
-1.1316307021
 20
-17.7388845542
 10
-1.1477471092
 20
-17.4012866146
 10
-1.1625119665
 20
-17.0611116473
 10
-1.1758073799
 20
-16.7209653232
  0
LWPOLYLINE
  5
359
100
AcDbEntity
  8
0
100
AcDbPolyline
 62
7
  6
CONTINUOUS
 90
9
 70
0
 10
-0.8955925588
 20
-21.7849013489
 10
-0.8912656876
 20
-21.8414709793
 10
-0.8905685935
 20
-21.8885700771
 10
-0.8925691157
 20
-21.9288696475
 10
-0.8965959378
 20
-21.9623884385
 10
-0.9018742146
 20
-21.9889203193
 10
-0.9074917231
 20
-22.0083919106
 10
-0.9125033542
 20
-22.021144048
 10
-0.9142667534
 20
-22.0247642771
  0
LWPOLYLINE
  5
35A
100
AcDbEntity
  8
0
100
AcDbPolyline
 62
253
  6
CONTINUOUS
 90
10
 70
0
 10
-1.1876447981
 20
-16.3808626565
 10
-1.1885764939
 20
-16.3658228688
 10
-1.1903656377
 20
-16.3513782473
 10
-1.1930050075
 20
-16.3375875209
 10
-1.1964839195
 20
-16.3245068137
 10
-1.2007882801
 20
-16.3121892699
 10
-1.205900677
 20
-16.3006848705
 10
-1.2118004196
 20
-16.2900404124
 10
-1.2184635882
 20
-16.280299285
 10
-1.2258631643
 20
-16.2715011693
  0
LWPOLYLINE
  5
35B
100
AcDbEntity
  8
0
100
AcDbPolyline
 62
253
  6
CONTINUOUS
 90
10
 70
0
 10
-1.0815787783
 20
-16.442103847
 10
-1.0825096994
 20
-16.4270617207
 10
-1.0842985533
 20
-16.4126155596
 10
-1.0869379879
 20
-16.3988240262
 10
-1.0904171823
 20
-16.3857431551
 10
-1.0947219252
 20
-16.3734259946
 10
-1.0998347
 20
-16.3619224171
 10
-1.1057346992
 20
-16.3512790837
 10
-1.1123978823
 20
-16.3415392286
 10
-1.1197971259
 20
-16.3327423705
  0
LWPOLYLINE
  5
35C
100
AcDbEntity
  8
0
100
AcDbPolyline
 62
7
  6
CONTINUOUS
 90
9
 70
0
 10
-1.2525671424
 20
-16.8856329464
 10
-1.2248114373
 20
-17.5090536178
 10
-1.1922326588
 20
-18.1294125279
 10
-1.1548328902
 20
-18.7466631524
 10
-1.1126145986
 20
-19.3607586943
 10
-1.0655806526
 20
-19.9716521233
 10
-1.0137342544
 20
-20.5792971541
 10
-0.9570789223
 20
-21.1836482132
 10
-0.895618547
 20
-21.7846597229
  0
LINE
  5
35D
100
AcDbEntity
  8
0
100
AcDbLine
 62
7
  6
CONTINUOUS
 10
-1.2684661571
 20
-16.4661993154
 11
-1.2525671424
 21
-16.8856329464
  0
LINE
  5
35E
100
AcDbEntity
  8
0
100
AcDbLine
 62
253
  6
CONTINUOUS
 10
-2.5563603064
 20
18.1781317965
 11
-2.5563603064
 21
19.341157092
  0
LINE
  5
35F
100
AcDbEntity
  8
0
100
AcDbLine
 62
253
  6
CONTINUOUS
 10
-2.273517594
 20
18.1866896753
 11
-2.273517594
 21
19.341157092
  0
LWPOLYLINE
  5
360
100
AcDbEntity
  8
0
100
AcDbPolyline
 62
253
  6
CONTINUOUS
 90
31
 70
0
 10
-2.5563603064
 20
19.341157092
 10
-2.5561678462
 20
19.3497845089
 10
-2.5555909876
 20
19.3586107119
 10
-2.5546312981
 20
19.367611679
 10
-2.5532913858
 20
19.3767629217
 10
-2.5515748959
 20
19.3860395235
 10
-2.5494865049
 20
19.395416207
 10
-2.5470319
 20
19.4048674426
 10
-2.5442177617
 20
19.4143675127
 10
-2.5410517529
 20
19.4238905523
 10
-2.5375424926
 20
19.4334106416
 10
-2.5336995341
 20
19.4429018684
 10
-2.5295333425
 20
19.4523383912
 10
-2.5250552564
 20
19.4616945327
 10
-2.5202774694
 20
19.4709448216
 10
-2.5152130031
 20
19.4800640547
 10
-2.5098756675
 20
19.4890273796
 10
-2.5042799745
 20
19.4978104393
 10
-2.4984411061
 20
19.5063894057
 10
-2.4923748702
 20
19.5147410362
 10
-2.486097851
 20
19.5228424826
 10
-2.479627334
 20
19.5306714545
 10
-2.4729810771
 20
19.5382065229
 10
-2.4661770558
 20
19.5454273637
 10
-2.459233602
 20
19.5523145419
 10
-2.4521681429
 20
19.5588506251
 10
-2.4450013308
 20
19.5650163648
 10
-2.4377569755
 20
19.5707916813
 10
-2.4304563461
 20
19.5761605519
 10
-2.4231179361
 20
19.5811103012
 10
-2.4157617017
 20
19.5856282562
  0
LWPOLYLINE
  5
361
100
AcDbEntity
  8
0
100
AcDbPolyline
 62
7
  6
CONTINUOUS
 90
9
 70
0
 10
-0.9178826754
 20
18.4429529867
 10
-0.9162616008
 20
18.4683605838
 10
-0.9113350507
 20
18.4937074114
 10
-0.9030801905
 20
18.5184637832
 10
-0.8915664107
 20
18.5421192513
 10
-0.8769945402
 20
18.5641280941
 10
-0.8596665494
 20
18.5840108935
 10
-0.8397323535
 20
18.6015487745
 10
-0.8187265573
 20
18.6156680963
  0
LWPOLYLINE
  5
362
100
AcDbEntity
  8
0
100
AcDbPolyline
 62
253
  6
CONTINUOUS
 90
10
 70
0
 10
-4.4135528041
 20
-11.5323405762
 10
-4.4194201221
 20
-11.6041524491
 10
-4.4203797792
 20
-11.6726397789
 10
-4.4164317756
 20
-11.7378025655
 10
-4.4074629971
 20
-11.8001208497
 10
-4.3935865578
 20
-11.8591145908
 10
-4.3751417999
 20
-11.9133436668
 10
-4.3522418373
 20
-11.962328037
 10
-4.324773556
 20
-12.0065477421
 10
-4.2927369561
 20
-12.0460027822
  0
LWPOLYLINE
  5
363
100
AcDbEntity
  8
0
100
AcDbPolyline
 62
253
  6
CONTINUOUS
 90
10
 70
0
 10
-0.8575814606
 20
18.3877017967
 10
-0.8562444254
 20
18.3968476988
 10
-0.8545300429
 20
18.4061244737
 10
-0.8524436583
 20
18.4155015061
 10
-0.8499914946
 20
18.4249513147
 10
-0.8471798332
 20
18.4344501073
 10
-0.8440162323
 20
18.4439723019
 10
-0.8405092002
 20
18.4534921724
 10
-0.8366683124
 20
18.4629836212
 10
-0.8325041291
 20
18.4724205206
  0
LWPOLYLINE
  5
364
100
AcDbEntity
  8
RACCORDO
100
AcDbPolyline
 62
253
  6
CONTINUOUS
 90
3
 70
0
 10
0.3033669685
 20
10.1544138914
 10
0.2857541098
 20
10.0855416304
 10
0.2719783694
 20
10.0175626081
  0
LWPOLYLINE
  5
365
100
AcDbEntity
  8
RACCORDO
100
AcDbPolyline
 62
253
  6
CONTINUOUS
 90
19
 70
0
 10
-0.2079792006
 20
5.2859958367
 10
-0.2266007289
 20
5.242448271
 10
-0.2489116776
 20
5.2033632451
 10
-0.273454214
 20
5.1693683325
 10
-0.3002052974
 20
5.1408704085
 10
-0.3291987882
 20
5.1174574738
 10
-0.3590640843
 20
5.0985278862
 10
-0.3896623982
 20
5.0842188899
 10
-0.4211407944
 20
5.0743892961
 10
-0.4525565756
 20
5.0680202246
 10
-0.4837716227
 20
5.0650965334
 10
-0.5149288653
 20
5.0656310627
 10
-0.5455058744
 20
5.0686475277
 10
-0.5754151155
 20
5.074082024
 10
-0.6047463679
 20
5.0819973792
 10
-0.633242284
 20
5.0916078329
 10
-0.6608172647
 20
5.1026513769
 10
-0.6875576544
 20
5.1153896615
 10
-0.7134636307
 20
5.1298226013
  0
LWPOLYLINE
  5
366
100
AcDbEntity
  8
RACCORDO
100
AcDbPolyline
 62
253
  6
CONTINUOUS
 90
10
 70
0
 10
-0.3368024251
 20
5.4596546486
 10
-0.3448781817
 20
5.4434784904
 10
-0.3539310128
 20
5.4280027981
 10
-0.3639833998
 20
5.4133134364
 10
-0.3749311292
 20
5.3996344677
 10
-0.3867587117
 20
5.3870284862
 10
-0.3994549632
 20
5.3755484088
 10
-0.41287096
 20
5.3653386117
 10
-0.4269553409
 20
5.3564242864
 10
-0.4300231719
 20
5.3547020795
  0
LINE
  5
367
100
AcDbEntity
  8
0
100
AcDbLine
 62
253
  6
CONTINUOUS
 10
-12.2613410175
 20
-15.8018939524
 11
-10.6312286259
 21
-12.7253862669
  0
LWPOLYLINE
  5
368
100
AcDbEntity
  8
RACCORDO
100
AcDbPolyline
 62
253
  6
CONTINUOUS
 90
7
 70
0
 10
-0.4862345981
 20
5.4684882063
 10
-0.4945182736
 20
5.4565483268
 10
-0.5034987672
 20
5.4454596547
 10
-0.5132052263
 20
5.435262061
 10
-0.5236089389
 20
5.4259154694
 10
-0.5345430882
 20
5.4175975057
 10
-0.5460224357
 20
5.410353192
  0
LINE
  5
369
100
AcDbEntity
  8
0
100
AcDbLine
 62
7
  6
CONTINUOUS
 10
6.386988329
 20
15.2292719483
 11
6.3688619385
 21
15.2032968231
  0
LINE
  5
36A
100
AcDbEntity
  8
0
100
AcDbLine
 62
7
  6
CONTINUOUS
 10
7.248794078
 20
-8.6083085647
 11
6.5587879856
 21
-8.2099076948
  0
LINE
  5
36B
100
AcDbEntity
  8
0
100
AcDbLine
 62
253
  6
CONTINUOUS
 10
-14.0714571148
 20
6.6722963147
 11
-14.0512905715
 21
6.6590455825
  0
LINE
  5
36C
100
AcDbEntity
  8
0
100
AcDbLine
 62
7
  6
CONTINUOUS
 10
7.248794078
 20
-12.6211616232
 11
7.6611724718
 21
-13.0667048069
  0
LINE
  5
36D
100
AcDbEntity
  8
0
100
AcDbLine
 62
7
  6
CONTINUOUS
 10
8.3556703832
 20
-12.1088894774
 11
7.8301020145
 21
-11.5410532187
  0
LWPOLYLINE
  5
36E
100
AcDbEntity
  8
0
100
AcDbPolyline
 62
7
  6
CONTINUOUS
 90
4
 70
0
 10
6.4018896145
 20
-23.4760504141
 10
6.4134955907
 20
-23.507926747
 10
6.4207268111
 20
-23.5414068591
 10
6.4233197654
 20
-23.5775509273
  0
LWPOLYLINE
  5
36F
100
AcDbEntity
  8
0
100
AcDbPolyline
 62
7
  6
CONTINUOUS
 90
3
 70
0
 10
-10.1649366027
 20
22.1096757722
 10
-10.176542579
 20
22.141552105
 10
-10.1837737993
 20
22.1750322171
  0
LWPOLYLINE
  5
370
100
AcDbEntity
  8
0
100
AcDbPolyline
 62
253
  6
CONTINUOUS
 90
43
 70
0
 10
1.5406561538
 20
-24.9657260234
 10
1.5425975906
 20
-24.9777864357
 10
1.5449090063
 20
-24.9895342297
 10
1.5475904008
 20
-25.0009694055
 10
1.5506453933
 20
-25.0121033663
 10
1.5540703647
 20
-25.0229247089
 10
1.5578544568
 20
-25.0333992234
 10
1.561998832
 20
-25.043525876
 10
1.566502328
 20
-25.0533057005
 10
1.5713506
 20
-25.0627075881
 10
1.5765447407
 20
-25.071730323
 10
1.5820836574
 20
-25.080375121
 10
1.587949727
 20
-25.0886145213
 10
1.5941439856
 20
-25.0964472314
 10
1.6006653971
 20
-25.1038745437
 10
1.6074932295
 20
-25.1108728751
 10
1.6146284587
 20
-25.1174408649
 10
1.6220701088
 20
-25.1235798739
 10
1.6297945204
 20
-25.1292704004
 10
1.6378025906
 20
-25.1345110181
 10
1.6460934224
 20
-25.1393031533
 10
1.6546406655
 20
-25.1436315845
 10
1.663445135
 20
-25.1474948379
 10
1.6725060159
 20
-25.1508943872
 10
1.6817945121
 20
-25.1538194312
 10
1.6913113483
 20
-25.1562684619
 10
1.7010557999
 20
-25.1582429873
 10
1.7109968973
 20
-25.1597367301
 10
1.7211352639
 20
-25.1607481622
 10
1.7314702763
 20
-25.1612788118
 10
1.741969094
 20
-25.1613269861
 10
1.7526322395
 20
-25.1608911517
 10
1.7634591904
 20
-25.1599728419
 10
1.7744155387
 20
-25.1585749643
 10
1.7855016967
 20
-25.1566959941
 10
1.7967172521
 20
-25.1543374561
 10
1.8080265611
 20
-25.1515068317
 10
1.8194294574
 20
-25.1482028466
 10
1.8309261071
 20
-25.1444267752
 10
1.8424813649
 20
-25.1401899226
 10
1.8540835157
 20
-25.1354960574
 10
1.8657442746
 20
-25.130341411
 10
1.8774636415
 20
-25.1247259835
  0
LWPOLYLINE
  5
371
100
AcDbEntity
  8
0
100
AcDbPolyline
 62
253
  6
CONTINUOUS
 90
21
 70
0
 10
0.8437265718
 20
-25.0207876679
 10
0.8475667792
 20
-25.0448497691
 10
0.8521518006
 20
-25.0683320247
 10
0.8574768113
 20
-25.0912095205
 10
0.8635362707
 20
-25.1134580278
 10
0.8703237392
 20
-25.1350539107
 10
0.8778318834
 20
-25.1559741519
 10
0.8860528157
 20
-25.1761965754
 10
0.8949778664
 20
-25.195699748
 10
0.9045974056
 20
-25.2144628819
 10
0.9149013341
 20
-25.23246612
 10
0.9258787836
 20
-25.249690373
 10
0.9375178907
 20
-25.2661172194
 10
0.9498064157
 20
-25.2817292771
 10
0.9627314111
 20
-25.2965100274
 10
0.9762789266
 20
-25.3104436454
 10
0.9904347254
 20
-25.3235154159
 10
1.0051838854
 20
-25.3357115127
 10
1.0205104704
 20
-25.3470188191
 10
1.0363983593
 20
-25.3574254119
 10
1.043902875
 20
-25.3619140048
  0
LWPOLYLINE
  5
372
100
AcDbEntity
  8
0
100
AcDbPolyline
 62
253
  6
CONTINUOUS
 90
8
 70
0
 10
0.3743355507
 20
-20.8339221222
 10
0.4267437143
 20
-21.4420828706
 10
0.4840423056
 20
-22.0469739479
 10
0.5462270355
 20
-22.6485495202
 10
0.6132930327
 20
-23.2467639067
 10
0.6852352188
 20
-23.8415717312
 10
0.7620483078
 20
-24.4329279266
 10
0.8437265718
 20
-25.0207876679
  0
LINE
  5
373
100
AcDbEntity
  8
0
100
AcDbLine
 62
253
  6
CONTINUOUS
 10
-1.1758073799
 20
-16.7209653232
 11
-1.1876447955
 21
-16.380862658
  0
LWPOLYLINE
  5
374
100
AcDbEntity
  8
0
100
AcDbPolyline
 62
253
  6
CONTINUOUS
 90
9
 70
0
 10
0.1315241103
 20
-15.8565193883
 10
0.1446971012
 20
-16.4891554057
 10
0.1627818474
 20
-17.1188976416
 10
0.1857770002
 20
-17.7456983156
 10
0.2136808862
 20
-18.3695098745
 10
0.2464913826
 20
-18.9902849951
 10
0.2842059197
 20
-19.6079765867
 10
0.3268217085
 20
-20.2225378509
 10
0.3743355507
 20
-20.8339221222
  0
LWPOLYLINE
  5
375
100
AcDbEntity
  8
0
100
AcDbPolyline
 62
253
  6
CONTINUOUS
 90
16
 70
0
 10
-1.2684692275
 20
-16.4661120037
 10
-1.2686834035
 20
-16.4534252939
 10
-1.2682470559
 20
-16.4383884384
 10
-1.2670002869
 20
-16.4247347903
 10
-1.2649301039
 20
-16.4124004503
 10
-1.2620294085
 20
-16.4014031414
 10
-1.2582766572
 20
-16.3919622106
 10
-1.2536510518
 20
-16.3840528733
 10
-1.2481575042
 20
-16.3776467248
 10
-1.2418266966
 20
-16.3729596655
 10
-1.23467628
 20
-16.3700248139
 10
-1.2267195749
 20
-16.368762329
 10
-1.2180057553
 20
-16.3692258145
 10
-1.2085737205
 20
-16.3714218772
 10
-1.1984431902
 20
-16.3753067288
 10
-1.1876447955
 20
-16.380862658
  0
LWPOLYLINE
  5
376
100
AcDbEntity
  8
0
100
AcDbPolyline
 62
253
  6
CONTINUOUS
 90
10
 70
0
 10
-0.9698085584
 20
-15.6069946711
 10
-0.9957741543
 20
-13.8872906186
 10
-1.0139321825
 20
-12.3025991969
 10
-1.0266943708
 20
-10.7147313583
 10
-1.0340607509
 20
-9.1236516384
 10
-1.0360312912
 20
-7.5293955017
 10
-1.0326058961
 20
-5.9320693411
 10
-1.0237845338
 20
-4.331708621
 10
-1.0095672362
 20
-2.728277877
 10
-0.9899540032
 20
-1.1217771092
  0
LWPOLYLINE
  5
377
100
AcDbEntity
  8
0
100
AcDbPolyline
 62
253
  6
CONTINUOUS
 90
10
 70
0
 10
-0.5455907953
 20
-15.6019038008
 10
-0.5715340432
 20
-13.8836189027
 10
-0.5896813584
 20
-12.2998565584
 10
-0.6024361796
 20
-10.7129109776
 10
-0.6097983121
 20
-9.1228063664
 10
-0.6117676438
 20
-7.5295669791
 10
-0.6083441444
 20
-5.9332171175
 10
-0.5995278663
 20
-4.3337811313
 10
-0.585318944
 20
-2.731283417
 10
-0.5657175941
 20
-1.1257484179
  0
LWPOLYLINE
  5
378
100
AcDbEntity
  8
0
100
AcDbPolyline
 62
253
  6
CONTINUOUS
 90
25
 70
0
 10
-0.5657175941
 20
-1.1257484179
 10
-0.5666008098
 20
-1.0507444296
 10
-0.5699949577
 20
-0.977087244
 10
-0.5759012789
 20
-0.9047775561
 10
-0.5844671643
 20
-0.8337775101
 10
-0.5955475711
 20
-0.7641262759
 10
-0.6087049622
 20
-0.6959400163
 10
-0.6238893547
 20
-0.6291772746
 10
-0.6411526649
 20
-0.563880588
 10
-0.6602101112
 20
-0.5002920582
 10
-0.6811011846
 20
-0.4382852293
 10
-0.7037881062
 20
-0.3779875126
 10
-0.7278702596
 20
-0.3200218496
 10
-0.7532435178
 20
-0.2645942756
 10
-0.780013671
 20
-0.2114996821
 10
-0.8080949911
 20
-0.1607443015
 10
-0.8373806105
 20
-0.1123225289
 10
-0.8679786446
 20
-0.066240664
 10
-0.9001257694
 20
-0.0225227566
 10
-0.9342406511
 20
0.019301846
 10
-0.9699055474
 20
0.058761977
 10
-1.0061025493
 20
0.0944208417
 10
-1.0424926061
 20
0.1257993684
 10
-1.0794154167
 20
0.1533762685
 10
-1.1168711389
 20
0.1771514541
  0
LINE
  5
379
100
AcDbEntity
  8
0
100
AcDbLine
 62
7
  6
CONTINUOUS
 10
-1.3542787784
 20
18.7260083975
 11
-1.3542787784
 21
19.8685890038
  0
LINE
  5
37A
100
AcDbEntity
  8
0
100
AcDbLine
 62
7
  6
CONTINUOUS
 10
-0.9178826754
 20
18.4429529867
 11
-0.9178826754
 21
17.2824342359
  0
LINE
  5
37B
100
AcDbEntity
  8
0
100
AcDbLine
 62
253
  6
CONTINUOUS
 10
-0.8593040316
 20
18.3612980681
 11
-0.8593040316
 21
17.1982727725
  0
LINE
  5
37C
100
AcDbEntity
  8
0
100
AcDbLine
 62
7
  6
CONTINUOUS
 10
0.0599347839
 20
17.1715886268
 11
0.0599347839
 21
15.8081772205
  0
LWPOLYLINE
  5
37D
100
AcDbEntity
  8
0
100
AcDbPolyline
 62
253
  6
CONTINUOUS
 90
13
 70
0
 10
0.1315241103
 20
-0.3435841293
 10
0.1116823547
 20
-1.6473385362
 10
0.0954484049
 20
-2.9491201027
 10
0.0828222073
 20
-4.2489158907
 10
0.0738037216
 20
-5.5467043058
 10
0.0683927265
 20
-6.8424811582
 10
0.0665890571
 20
-8.1362595275
 10
0.0683927278
 20
-9.4280264317
 10
0.0738037238
 20
-10.7177689246
 10
0.08282221
 20
-12.0054999231
 10
0.0954484075
 20
-13.2912149917
 10
0.1116823564
 20
-14.5748924801
 10
0.1315241103
 20
-15.8565193883
  0
LWPOLYLINE
  5
37E
100
AcDbEntity
  8
0
100
AcDbPolyline
 62
253
  6
CONTINUOUS
 90
4
 70
0
 10
-0.8593040316
 20
18.3612980681
 10
-0.8591125149
 20
18.3699040518
 10
-0.8585380312
 20
18.3787131471
 10
-0.8575814606
 20
18.3877017967
  0
LWPOLYLINE
  5
37F
100
AcDbEntity
  8
0
100
AcDbPolyline
 62
253
  6
CONTINUOUS
 90
10
 70
0
 10
-1.1168711389
 20
0.1771514541
 10
-1.1179598931
 20
0.1558647758
 10
-1.1205551058
 20
0.1338881574
 10
-1.1246382489
 20
0.1113784984
 10
-1.1301801713
 20
0.0884965037
 10
-1.1371413072
 20
0.0654055367
 10
-1.1454719582
 20
0.0422704525
 10
-1.1551126488
 20
0.0192564214
 10
-1.1659945503
 20
-0.0034722507
 10
-1.1780399727
 20
-0.0257532953
  0
LINE
  5
380
100
AcDbEntity
  8
RACCORDO
100
AcDbLine
 62
7
  6
CONTINUOUS
 10
-0.234325889
 20
5.5238058121
 11
-0.2343067635
 21
5.5240721741
  0
LINE
  5
381
100
AcDbEntity
  8
RACCORDO
100
AcDbLine
 62
253
  6
CONTINUOUS
 10
-0.1374300739
 20
5.938911095
 11
-0.1756792273
 21
5.4428000651
  0
LWPOLYLINE
  5
382
100
AcDbEntity
  8
RACCORDO
100
AcDbPolyline
 62
253
  6
CONTINUOUS
 90
9
 70
0
 10
-0.2652490112
 20
6.0896424304
 10
-0.3061036258
 20
5.5792328515
 10
-0.308039723
 20
5.5625800906
 10
-0.3106748149
 20
5.5455929714
 10
-0.3141015971
 20
5.5283028733
 10
-0.3183893967
 20
5.5108673935
 10
-0.3235608921
 20
5.4935520344
 10
-0.3296811431
 20
5.476441025
 10
-0.3368024251
 20
5.4596546486
  0
LWPOLYLINE
  5
383
100
AcDbEntity
  8
RACCORDO
100
AcDbPolyline
 62
253
  6
CONTINUOUS
 90
11
 70
0
 10
-0.4446708588
 20
5.6038126637
 10
-0.4458048571
 20
5.5905851473
 10
-0.4475709614
 20
5.5771599903
 10
-0.4499689286
 20
5.563537308
 10
-0.452957219
 20
5.5495941655
 10
-0.4565768256
 20
5.5354537566
 10
-0.4609514342
 20
5.5214853286
 10
-0.4661148128
 20
5.507684824
 10
-0.4720329204
 20
5.4940564306
 10
-0.4787280565
 20
5.4809816097
 10
-0.4862345981
 20
5.4684882063
  0
LWPOLYLINE
  5
384
100
AcDbEntity
  8
0
100
AcDbPolyline
 62
253
  6
CONTINUOUS
 90
11
 70
0
 10
0.4840423056
 20
6.2400585307
 10
0.4267437144
 20
5.5712583122
 10
0.3743355507
 20
4.904643023
 10
0.3268217086
 20
4.2402633518
 10
0.2842059198
 20
3.5781697116
 10
0.2464913826
 20
2.9184124172
 10
0.2136808862
 20
2.2610415319
 10
0.1857770002
 20
1.6061068198
 10
0.1627818474
 20
0.9536579575
 10
0.1446971012
 20
0.3037445285
 10
0.1315241103
 20
-0.3435841293
  0
LWPOLYLINE
  5
385
100
AcDbEntity
  8
RACCORDO
100
AcDbPolyline
 62
7
  6
CONTINUOUS
 90
8
 70
0
 10
-0.234325889
 20
5.5238058121
 10
-0.2382374512
 20
5.4888509679
 10
-0.2446111272
 20
5.4559927528
 10
-0.2532398486
 20
5.4262733148
 10
-0.2637506614
 20
5.4004064725
 10
-0.2754097797
 20
5.3792781281
 10
-0.2874175756
 20
5.3630886413
 10
-0.2992217327
 20
5.3513493073
  0
LWPOLYLINE
  5
386
100
AcDbEntity
  8
RACCORDO
100
AcDbPolyline
 62
253
  6
CONTINUOUS
 90
9
 70
0
 10
0.2621177408
 20
9.9508667437
 10
0.2030891487
 20
9.4452915815
 10
0.1466531218
 20
8.9408484729
 10
0.0928117127
 20
8.4375583576
 10
0.0415683817
 20
7.9354569845
 10
-0.0070767164
 20
7.434550259
 10
-0.0531259484
 20
6.934814586
 10
-0.0965782828
 20
6.4362562547
 10
-0.1374300739
 20
5.938911095
  0
LWPOLYLINE
  5
387
100
AcDbEntity
  8
RACCORDO
100
AcDbPolyline
 62
7
  6
CONTINUOUS
 90
10
 70
0
 10
0.2033633673
 20
10.0309272081
 10
0.1519158491
 20
9.5914608569
 10
0.0932067602
 20
9.0692547345
 10
0.0372738446
 20
8.5482486051
 10
-0.0158798788
 20
8.0284689516
 10
-0.0662521184
 20
7.5099377744
 10
-0.1138408167
 20
6.9926753057
 10
-0.158643815
 20
6.4767032959
 10
-0.2006588398
 20
5.9620476944
 10
-0.2342952599
 20
5.5240713247
  0
LWPOLYLINE
  5
388
100
AcDbEntity
  8
0
100
AcDbPolyline
 62
253
  6
CONTINUOUS
 90
6
 70
0
 10
0.8437265718
 20
9.615053094
 10
0.7620483078
 20
8.9360922558
 10
0.6852352188
 20
8.2590610042
 10
0.6132930327
 20
7.5840107784
 10
0.5462270356
 20
6.9109929357
 10
0.4840423056
 20
6.2400585307
  0
LWPOLYLINE
  5
389
100
AcDbEntity
  8
RACCORDO
100
AcDbPolyline
 62
253
  6
CONTINUOUS
 90
10
 70
0
 10
0.0082325235
 20
10.0974568863
 10
-0.052811395
 20
9.5937524747
 10
-0.1111802109
 20
9.0911018837
 10
-0.1668715304
 20
8.5895261183
 10
-0.2198831058
 20
8.0890461578
 10
-0.2702127271
 20
7.5896828934
 10
-0.3178582225
 20
7.0914571273
 10
-0.3628176023
 20
6.5943896542
 10
-0.4050890588
 20
6.0985012611
 10
-0.4446708588
 20
5.6038126637
  0
LWPOLYLINE
  5
38A
100
AcDbEntity
  8
RACCORDO
100
AcDbPolyline
 62
253
  6
CONTINUOUS
 90
9
 70
0
 10
0.1476184399
 20
10.0841189553
 10
0.0866376507
 20
9.5809425458
 10
0.0283335024
 20
9.0788592733
 10
-0.0272940049
 20
8.5778691376
 10
-0.0802470656
 20
8.0779503445
 10
-0.1305234853
 20
7.5791246882
 10
-0.1781166809
 20
7.0814575523
 10
-0.2230244581
 20
6.5849707312
 10
-0.2652490112
 20
6.0896424304
  0
LWPOLYLINE
  5
38B
100
AcDbEntity
  8
RACCORDO
100
AcDbPolyline
 62
253
  6
CONTINUOUS
 90
4
 70
0
 10
-0.1756792273
 20
5.4428000651
 10
-0.1827662114
 20
5.3860649008
 10
-0.193531528
 20
5.3337974491
 10
-0.2079792006
 20
5.2859958367
  0
LWPOLYLINE
  5
38C
100
AcDbEntity
  8
RACCORDO
100
AcDbPolyline
 62
253
  6
CONTINUOUS
 90
8
 70
0
 10
-0.7134636307
 20
5.1298226013
 10
-0.7096345931
 20
5.1584605067
 10
-0.7021142745
 20
5.1881509235
 10
-0.6911051548
 20
5.2180944556
 10
-0.6769036479
 20
5.2474848918
 10
-0.6598921204
 20
5.2755309127
 10
-0.6405285975
 20
5.3014773965
 10
-0.6193344298
 20
5.3246257501
  0
LINE
  5
38D
100
AcDbEntity
  8
RACCORDO
100
AcDbLine
 62
253
  6
CONTINUOUS
 10
0.2719783694
 20
10.0175626081
 11
0.2621177408
 21
9.9508667437
  0
LWPOLYLINE
  5
38E
100
AcDbEntity
  8
0
100
AcDbPolyline
 62
253
  6
CONTINUOUS
 90
25
 70
0
 10
-0.9899540034
 20
-1.1217771331
 10
-0.9781829572
 20
-1.052904292
 10
-0.9688353445
 20
-0.985553123
 10
-0.9617127845
 20
-0.9198621164
 10
-0.9565763374
 20
-0.856081629
 10
-0.953290115
 20
-0.7942327752
 10
-0.9518619889
 20
-0.7340765973
 10
-0.952173026
 20
-0.6756257321
 10
-0.9540976987
 20
-0.6190544826
 10
-0.9576914044
 20
-0.5643252737
 10
-0.9628784277
 20
-0.5113952709
 10
-0.9695358148
 20
-0.4604629167
 10
-0.9776651153
 20
-0.4118412603
 10
-0.9871333579
 20
-0.3657680065
 10
-0.9978839194
 20
-0.3221564769
 10
-1.0100389253
 20
-0.2808272315
 10
-1.0234150673
 20
-0.2418258283
 10
-1.0380144918
 20
-0.205241441
 10
-1.0542247627
 20
-0.1709617526
 10
-1.0721406304
 20
-0.1387112966
 10
-1.0914085622
 20
-0.1089346405
 10
-1.1117488644
 20
-0.0825958962
 10
-1.133012676
 20
-0.0600549595
 10
-1.1551441776
 20
-0.0410862131
 10
-1.1780399727
 20
-0.0257532953
  0
LWPOLYLINE
  5
38F
100
AcDbEntity
  8
0
100
AcDbPolyline
 62
253
  6
CONTINUOUS
 90
27
 70
0
 10
4.2215742598
 20
14.0351420232
 10
4.2171537343
 20
14.0244526541
 10
4.212346539
 20
14.0140191094
 10
4.2071635234
 20
14.003864937
 10
4.2016163853
 20
13.9940130544
 10
4.1957176443
 20
13.9844856967
 10
4.1894806135
 20
13.9753043665
 10
4.1829193694
 20
13.9664897855
 10
4.1760487205
 20
13.9580618478
 10
4.1688841733
 20
13.9500395747
 10
4.1614418979
 20
13.942441072
 10
4.153738691
 20
13.9352834891
 10
4.1457919383
 20
13.9285829802
 10
4.1376195751
 20
13.922354668
 10
4.129240046
 20
13.9166126093
 10
4.120672263
 20
13.9113697638
 10
4.1119355633
 20
13.9066379641
 10
4.1030496649
 20
13.9024278897
 10
4.0940346229
 20
13.8987490425
 10
4.0849107836
 20
13.8956097253
 10
4.075698739
 20
13.8930170236
 10
4.0664192802
 20
13.8909767887
 10
4.0570933503
 20
13.8894936255
 10
4.0477419974
 20
13.8885708813
 10
4.038386327
 20
13.8882106387
 10
4.0290474543
 20
13.8884137108
 10
4.022905685
 20
13.8888559269
  0
LWPOLYLINE
  5
390
100
AcDbEntity
  8
0
100
AcDbPolyline
 62
253
  6
CONTINUOUS
 90
34
 70
0
 10
-0.9899540032
 20
-1.1217771092
 10
-1.1572955796
 20
-1.4363980763
 10
-1.3198234425
 20
-1.7494711714
 10
-1.477537592
 20
-2.0609963947
 10
-1.6302843309
 20
-2.3708456018
 10
-1.7782173564
 20
-2.679146937
 10
-1.9217977599
 20
-2.9862848331
 10
-2.0610650403
 20
-3.2922732445
 10
-2.1959796988
 20
-3.5970982169
 10
-2.3268843305
 20
-3.9011023195
 10
-2.453784328
 20
-4.2042207106
 10
-2.5766742986
 20
-4.5065182319
 10
-2.6958806589
 20
-4.8085319785
 10
-2.8114313627
 20
-5.1102388119
 10
-2.9232984562
 20
-5.4116618704
 10
-3.0317244947
 20
-5.7134076638
 10
-3.1367347397
 20
-6.0154310558
 10
-3.2383039296
 20
-6.3177771827
 10
-3.3365988353
 20
-6.6211879627
 10
-3.4316629573
 20
-6.925653113
 10
-3.523452795
 20
-7.2311829164
 10
-3.6120046178
 20
-7.5385501394
 10
-3.6973739381
 20
-7.8477724664
 10
-3.7795052435
 20
-8.158832213
 10
-3.858268266
 20
-8.4724490917
 10
-3.9335889458
 20
-8.7878260319
 10
-4.0055413428
 20
-9.1057601043
 10
-4.0742173686
 20
-9.4293622329
 10
-4.13979954
 20
-9.7583318167
 10
-4.2021053403
 20
-10.0929694567
 10
-4.2606791307
 20
-10.4372878799
 10
-4.3153690317
 20
-10.7926246621
 10
-4.3663269229
 20
-11.1576422275
 10
-4.4135528041
 20
-11.5323405762
  0
LWPOLYLINE
  5
391
100
AcDbEntity
  8
0
100
AcDbPolyline
 62
253
  6
CONTINUOUS
 90
37
 70
0
 10
-1.1780399727
 20
-0.0257532953
 10
-1.361394053
 20
-0.3500038441
 10
-1.5389562571
 20
-0.6719980881
 10
-1.7107999753
 20
-0.9915601709
 10
-1.8767272069
 20
-1.3079909804
 10
-2.0371057653
 20
-1.6216587709
 10
-2.1928115216
 20
-1.9340214079
 10
-2.3440368199
 20
-2.2452804631
 10
-2.4906558446
 20
-2.554990072
 10
-2.6329988441
 20
-2.8636700246
 10
-2.7710781802
 20
-3.1711907488
 10
-2.904928536
 20
-3.4774703342
 10
-3.034873015
 20
-3.7831157051
 10
-3.1609066291
 20
-4.0880084474
 10
-3.2830464761
 20
-4.3920808516
 10
-3.4016020159
 20
-4.6960267523
 10
-3.5165471306
 20
-4.9997344283
 10
-3.6278766056
 20
-5.3031440868
 10
-3.7358776698
 20
-5.6070329659
 10
-3.8404911825
 20
-5.9112685051
 10
-3.941692734
 20
-6.2158147379
 10
-4.0397581102
 20
-6.5215930949
 10
-4.1346162688
 20
-6.8285329769
 10
-4.2261849715
 20
-7.1365257212
 10
-4.3146533629
 20
-7.4464277809
 10
-4.3998860736
 20
-7.7580499684
 10
-4.4817968079
 20
-8.0713769431
 10
-4.5605664045
 20
-8.3875087504
 10
-4.6358544432
 20
-8.7055442549
 10
-4.707698417
 20
-9.0261377239
 10
-4.7766541573
 20
-9.3526712408
 10
-4.8423341056
 20
-9.6845788531
 10
-4.9045005633
 20
-10.0220476926
 10
-4.9635748828
 20
-10.3694705708
 10
-5.0192286287
 20
-10.7280672901
 10
-5.0706116987
 20
-11.0959515988
 10
-5.1171281014
 20
-11.4727457164
  0
LINE
  5
392
100
AcDbEntity
  8
0
100
AcDbLine
 62
7
  6
CONTINUOUS
 10
-10.2255477057
 20
-12.6288624716
 11
-9.6129197507
 21
-11.7798266323
  0
LINE
  5
393
100
AcDbEntity
  8
0
100
AcDbLine
 62
7
  6
CONTINUOUS
 10
8.3552026484
 20
12.9746304473
 11
7.248794078
 21
11.4478979323
  0
LWPOLYLINE
  5
394
100
AcDbEntity
  8
0
100
AcDbPolyline
 62
253
  6
CONTINUOUS
 90
15
 70
0
 10
-13.5524086434
 20
7.1190520879
 10
-13.5762565277
 20
7.1310588375
 10
-13.6014075426
 20
7.1389301306
 10
-13.6276756384
 20
7.1425644207
 10
-13.6548791254
 20
7.1419493437
 10
-13.6827899262
 20
7.1368839559
 10
-13.7111808812
 20
7.1270057721
 10
-13.7401202752
 20
7.1119444919
 10
-13.7691799737
 20
7.0919106444
 10
-13.7975623107
 20
7.0675119644
 10
-13.8255586264
 20
7.0382819232
 10
-13.8528206851
 20
7.0047052077
 10
-13.8779862063
 20
6.9690167571
 10
-13.9011922448
 20
6.9315608543
 10
-13.9095942964
 20
6.9168420215
  0
LWPOLYLINE
  5
395
100
AcDbEntity
  8
0
100
AcDbPolyline
 62
253
  6
CONTINUOUS
 90
13
 70
0
 10
-0.5657175941
 20
-1.1257484179
 10
-0.5952209593
 20
-1.1107751394
 10
-0.6278486786
 20
-1.0980858148
 10
-0.6630424831
 20
-1.087897562
 10
-0.7002001974
 20
-1.080384705
 10
-0.7386860429
 20
-1.0756757911
 10
-0.7778415155
 20
-1.0738513916
 10
-0.8169966544
 20
-1.0749427224
 10
-0.8554815042
 20
-1.0789311108
 10
-0.8926375778
 20
-1.0857483144
 10
-0.9278291242
 20
-1.0952776888
 10
-0.9604540063
 20
-1.1073561838
 10
-0.9899540034
 20
-1.1217771331
  0
LWPOLYLINE
  5
396
100
AcDbEntity
  8
0
100
AcDbPolyline
 62
253
  6
CONTINUOUS
 90
21
 70
0
 10
-13.4912398097
 20
7.3219568373
 10
-13.5294668478
 20
7.3422279325
 10
-13.5679283084
 20
7.357712784
 10
-13.6066239887
 20
7.3684115049
 10
-13.6458880464
 20
7.3745738448
 10
-13.6853854768
 20
7.3759505251
 10
-13.7241120871
 20
7.371793252
 10
-13.7621616653
 20
7.3617126097
 10
-13.7994385403
 20
7.3460990618
 10
-13.8346543346
 20
7.3253741325
 10
-13.8677224532
 20
7.2988486664
 10
-13.8987272884
 20
7.2672130458
 10
-13.9266379951
 20
7.2329575164
 10
-13.9509802364
 20
7.1961161156
 10
-13.9722278908
 20
7.1566550629
 10
-13.9907740418
 20
7.1169619835
 10
-14.0064517377
 20
7.0776000249
 10
-14.0194288671
 20
7.0380055189
 10
-14.0306014911
 20
6.9988754664
 10
-14.0400756781
 20
6.9603973583
 10
-14.0477462101
 20
6.9223832305
  0
LINE
  5
397
100
AcDbEntity
  8
RACCORDO
100
AcDbLine
 62
7
  6
CONTINUOUS
 10
9.4882670034
 20
-7.1226306959
 11
6.8389161395
 21
-5.5929287113
  0
LINE
  5
398
100
AcDbEntity
  8
0
100
AcDbLine
 62
253
  6
CONTINUOUS
 10
-1.1780399727
 20
-0.0257532953
 11
-13.5524086434
 21
7.1190520879
  0
LINE
  5
399
100
AcDbEntity
  8
0
100
AcDbLine
 62
253
  6
CONTINUOUS
 10
-1.1168711389
 20
0.1771514541
 11
-13.4912398097
 21
7.3219568373
  0
LINE
  5
39A
100
AcDbEntity
  8
0
100
AcDbLine
 62
253
  6
CONTINUOUS
 10
0.1315241103
 20
-0.3435841293
 11
-14.7332526523
 21
8.239151674
  0
LWPOLYLINE
  5
39B
100
AcDbEntity
  8
RACCORDO
100
AcDbPolyline
 62
7
  6
CONTINUOUS
 90
4
 70
0
 10
-13.4868022085
 20
12.7632606563
 10
-13.4532149114
 20
12.7306289448
 10
-13.4180420433
 20
12.7016315657
 10
-13.3815801145
 20
12.6765671429
  0
LINE
  5
39C
100
AcDbEntity
  8
0
100
AcDbLine
 62
7
  6
CONTINUOUS
 10
6.0675944786
 20
-8.4740556672
 11
5.8098953261
 21
-8.1978942571
  0
LINE
  5
39D
100
AcDbEntity
  8
0
100
AcDbLine
 62
7
  6
CONTINUOUS
 10
5.8098953261
 20
-7.6212337578
 11
6.4258999356
 21
-8.2813705876
  0
LINE
  5
39E
100
AcDbEntity
  8
0
100
AcDbLine
 62
7
  6
CONTINUOUS
 10
7.248794078
 20
-9.1632190705
 11
8.4020860742
 21
-10.3991359945
  0
LWPOLYLINE
  5
39F
100
AcDbEntity
  8
0
100
AcDbPolyline
 62
253
  6
CONTINUOUS
 90
6
 70
0
 10
6.3627229985
 20
-23.4936853503
 10
6.3597149683
 20
-23.4826078706
 10
6.3562862557
 20
-23.4717441555
 10
6.3524445994
 20
-23.4611187236
 10
6.3481986695
 20
-23.4507555561
 10
6.3435580491
 20
-23.4406780419
  0
LWPOLYLINE
  5
3A0
100
AcDbEntity
  8
0
100
AcDbPolyline
 62
253
  6
CONTINUOUS
 90
16
 70
0
 10
0.8323428639
 20
-15.8523313668
 10
0.8454467146
 20
-16.4815310987
 10
0.8634322277
 20
-17.1077592038
 10
0.8862994033
 20
-17.731015682
 10
0.9140507176
 20
-18.3513475141
 10
0.9466836945
 20
-18.9687077194
 10
0.9841909047
 20
-19.5829553558
 10
1.0265734581
 20
-20.1940896025
 10
1.073830245
 20
-20.8021112802
 10
1.125950507
 20
-21.4068819091
 10
1.1829353761
 20
-22.0084009097
 10
1.2447837205
 20
-22.6066688615
 10
1.3114813859
 20
-23.2015490229
 10
1.3830236542
 20
-23.7929958135
 10
1.4594152435
 20
-24.3810548136
 10
1.5406561538
 20
-24.9657260234
  0
LINE
  5
3A1
100
AcDbEntity
  8
RACCORDO
100
AcDbLine
 62
7
  6
CONTINUOUS
 10
0.288289154
 20
10.3601036856
 11
0.288289154
 21
10.5207954321
  0
LINE
  5
3A2
100
AcDbEntity
  8
0
100
AcDbLine
 62
7
  6
CONTINUOUS
 10
0.7255154857
 20
15.423879265
 11
0.7255154857
 21
16.7872906713
  0
LINE
  5
3A3
100
AcDbEntity
  8
0
100
AcDbLine
 62
253
  6
CONTINUOUS
 10
1.5073521646
 20
23.6928418754
 11
1.5073521646
 21
22.3880775839
  0
LINE
  5
3A4
100
AcDbEntity
  8
0
100
AcDbLine
 62
7
  6
CONTINUOUS
 10
1.6400453021
 20
23.7483585114
 11
1.6400453021
 21
22.5715217243
  0
LINE
  5
3A5
100
AcDbEntity
  8
0
100
AcDbLine
 62
7
  6
CONTINUOUS
 10
1.7923463979
 20
16.0969123379
 11
1.7923463979
 21
17.4032647808
  0
LINE
  5
3A6
100
AcDbEntity
  8
RACCORDO
100
AcDbLine
 62
7
  6
CONTINUOUS
 10
2.1134750742
 20
11.8983876518
 11
2.1134750742
 21
11.9626392982
  0
LINE
  5
3A7
100
AcDbEntity
  8
0
100
AcDbLine
 62
7
  6
CONTINUOUS
 10
2.117290925
 20
15.4274897699
 11
2.117290925
 21
15.1069695971
  0
LINE
  5
3A8
100
AcDbEntity
  8
0
100
AcDbLine
 62
253
  6
CONTINUOUS
 10
2.1905142297
 20
15.3254211216
 11
2.1905142297
 21
15.0049009487
  0
LWPOLYLINE
  5
3A9
100
AcDbEntity
  8
0
100
AcDbPolyline
 62
253
  6
CONTINUOUS
 90
13
 70
0
 10
0.8323428639
 20
-0.354909043
 10
0.8125207597
 20
-1.6573808671
 10
0.7963027484
 20
-2.9578561081
 10
0.78368883
 20
-4.2563347661
 10
0.774679095
 20
-5.5528211215
 10
0.7692734529
 20
-6.8473108939
 10
0.7674716329
 20
-8.1397912417
 10
0.7692734548
 20
-9.4302622684
 10
0.7746790987
 20
-10.7187238706
 10
0.7836888346
 20
-12.0051628967
 10
0.7963027525
 20
-13.2895749628
 10
0.8125207622
 20
-14.5719644529
 10
0.8323428639
 20
-15.8523313668
  0
LWPOLYLINE
  5
3AA
100
AcDbEntity
  8
0
100
AcDbPolyline
 62
253
  6
CONTINUOUS
 90
34
 70
0
 10
2.1905142297
 20
15.3254211216
 10
2.1907130325
 20
15.3352136033
 10
2.1913089948
 20
15.345213647
 10
2.192300778
 20
15.3553987616
 10
2.193686154
 20
15.3657460459
 10
2.1954620081
 20
15.3762322209
 10
2.1976243432
 20
15.3868336811
 10
2.2001682938
 20
15.3975265755
 10
2.2030881386
 20
15.4082868591
 10
2.2063773086
 20
15.4190903262
 10
2.2100284055
 20
15.4299126792
 10
2.2140332161
 20
15.4407295746
 10
2.2183827283
 20
15.4515166746
 10
2.223067157
 20
15.4622497153
 10
2.228075965
 20
15.4729045581
 10
2.2333978836
 20
15.4834572354
 10
2.239020944
 20
15.4938840182
 10
2.2449324947
 20
15.5041614502
 10
2.2511192264
 20
15.5142663982
 10
2.257567203
 20
15.5241761093
 10
2.2642619363
 20
15.533868326
 10
2.2711884125
 20
15.5433213132
 10
2.278331123
 20
15.5525138925
 10
2.2856739404
 20
15.5614252964
 10
2.2932001871
 20
15.5700352966
 10
2.3008928214
 20
15.5783244365
 10
2.3087346339
 20
15.5862742107
 10
2.3167081329
 20
15.5938669001
 10
2.3247966104
 20
15.6010864857
 10
2.3329806817
 20
15.607915558
 10
2.3412383525
 20
15.6143360686
 10
2.3495497731
 20
15.6203332878
 10
2.3578974055
 20
15.6258952594
 10
2.3662624857
 20
15.6310100768
  0
LWPOLYLINE
  5
3AB
100
AcDbEntity
  8
RACCORDO
100
AcDbPolyline
 62
7
  6
CONTINUOUS
 90
4
 70
0
 10
2.8202884509
 20
14.4347224932
 10
2.8198485659
 20
14.4294317067
 10
2.8191265572
 20
14.4265190759
 10
2.8190107499
 20
14.4262065591
  0
LWPOLYLINE
  5
3AC
100
AcDbEntity
  8
0
100
AcDbPolyline
 62
253
  6
CONTINUOUS
 90
12
 70
0
 10
1.244783526
 20
6.8593612016
 10
1.1829352026
 20
6.1921229413
 10
1.1259503547
 20
5.5270571535
 10
1.0738301065
 20
4.8641644531
 10
1.0265733338
 20
4.2034442253
 10
0.9841907943
 20
3.5450469467
 10
0.9466835963
 20
2.888972969
 10
0.9140506314
 20
2.2352219406
 10
0.8862993325
 20
1.5839432831
 10
0.8634321771
 20
0.9351868036
 10
0.8454466875
 20
0.2889026949
 10
0.8323428639
 20
-0.354909043
  0
LWPOLYLINE
  5
3AD
100
AcDbEntity
  8
0
100
AcDbPolyline
 62
253
  6
CONTINUOUS
 90
5
 70
0
 10
1.5406561538
 20
9.5483634393
 10
1.4594151548
 20
8.8730953457
 10
1.3830235021
 20
8.1998474038
 10
1.3114811957
 20
7.5286196137
 10
1.244783526
 20
6.8593612016
  0
LINE
  5
3AE
100
AcDbEntity
  8
0
100
AcDbLine
 62
253
  6
CONTINUOUS
 10
-6.4697904169
 20
-11.3575924233
 11
-6.4716475219
 21
-11.3599874963
  0
LWPOLYLINE
  5
3AF
100
AcDbEntity
  8
0
100
AcDbPolyline
 62
253
  6
CONTINUOUS
 90
37
 70
0
 10
0.8323428639
 20
-0.354909043
 10
0.8165079845
 20
-0.3630300338
 10
0.800056027
 20
-0.3707493307
 10
0.7830176166
 20
-0.3780525643
 10
0.7654244705
 20
-0.3849261394
 10
0.7473093384
 20
-0.391357261
 10
0.7287059417
 20
-0.3973339575
 10
0.7096489108
 20
-0.4028451031
 10
0.6901737203
 20
-0.407880439
 10
0.6703166234
 20
-0.4124305917
 10
0.6501145843
 20
-0.4164870912
 10
0.629605209
 20
-0.4200423863
 10
0.6088266759
 20
-0.4230898587
 10
0.5878176644
 20
-0.4256238356
 10
0.5666172827
 20
-0.4276396
 10
0.5452649956
 20
-0.4291333995
 10
0.5238005504
 20
-0.4301024534
 10
0.5022639032
 20
-0.4305449579
 10
0.4806951446
 20
-0.430460089
 10
0.4591344251
 20
-0.429848005
 10
0.4376218798
 20
-0.4287098451
 10
0.4161975547
 20
-0.4270477281
 10
0.394901331
 20
-0.424864748
 10
0.3737728519
 20
-0.4221649684
 10
0.3528514482
 20
-0.4189534149
 10
0.332176065
 20
-0.415236066
 10
0.3117851898
 20
-0.4110198414
 10
0.2917167802
 20
-0.4063125897
 10
0.2720081937
 20
-0.4011230734
 10
0.2526961179
 20
-0.3954609529
 10
0.2338165023
 20
-0.3893367682
 10
0.2154044914
 20
-0.3827619195
 10
0.1974943593
 20
-0.375748646
 10
0.1801194457
 20
-0.3683100028
 10
0.1633120942
 20
-0.360459837
 10
0.1471035917
 20
-0.3522127619
 10
0.1315241103
 20
-0.3435841292
  0
LINE
  5
3B0
100
AcDbEntity
  8
DRAFT
100
AcDbLine
 62
7
  6
CONTINUOUS
 10
6.6355660741
 20
-1.7159912419
 11
5.8403306126
 21
-1.256832253
  0
LWPOLYLINE
  5
3B1
100
AcDbEntity
  8
RACCORDO
100
AcDbPolyline
 62
253
  6
CONTINUOUS
 90
6
 70
0
 10
-13.3688456157
 20
12.6689332585
 10
-13.3753105661
 20
12.6737872577
 10
-13.3821204388
 20
12.6825585233
 10
-13.3868116542
 20
12.6937731749
 10
-13.3892271416
 20
12.7070557214
 10
-13.3892860263
 20
12.7219614343
  0
LINE
  5
3B2
100
AcDbEntity
  8
DRAFT
100
AcDbLine
 62
7
  6
CONTINUOUS
 10
5.8098953261
 20
-3.1400845032
 11
6.7894214361
 21
-3.8821205403
  0
LINE
  5
3B3
100
AcDbEntity
  8
0
100
AcDbLine
 62
7
  6
CONTINUOUS
 10
5.8098953261
 20
-4.7742887822
 11
8.242407695
 21
-7.3810728529
  0
LINE
  5
3B4
100
AcDbEntity
  8
RACCORDO
100
AcDbLine
 62
7
  6
CONTINUOUS
 10
6.8186236875
 20
-5.5210744931
 11
5.8098953261
 21
-4.4400781299
  0
LINE
  5
3B5
100
AcDbEntity
  8
DRAFT
100
AcDbLine
 62
7
  6
CONTINUOUS
 10
9.7887766745
 20
-7.0963576221
 11
6.7894214361
 21
-3.8821205403
  0
LWPOLYLINE
  5
3B6
100
AcDbEntity
  8
ASSI
100
AcDbPolyline
 62
7
  6
CONTINUOUS
 90
9
 70
0
 10
6.171851371
 20
-4.2667668036
 10
6.1367017121
 20
-4.2277258564
 10
6.107371208
 20
-4.1924010644
 10
6.0838598589
 20
-4.1607924275
 10
6.066090996
 20
-4.1327438302
 10
6.054141288
 20
-4.108411388
 10
6.0482407409
 20
-4.0882634476
 10
6.0485065397
 20
-4.0723810718
 10
6.0525195561
 20
-4.063427127
  0
LWPOLYLINE
  5
3B7
100
AcDbEntity
  8
ASSI
100
AcDbPolyline
 62
7
  6
CONTINUOUS
 90
9
 70
0
 10
7.7981969677
 20
-5.2057983683
 10
7.8333466267
 20
-5.2448393154
 10
7.8626771307
 20
-5.2801641075
 10
7.8861884798
 20
-5.3117727444
 10
7.9039573427
 20
-5.3398213417
 10
7.9159070507
 20
-5.3641537839
 10
7.9218075978
 20
-5.3843017243
 10
7.921541799
 20
-5.4001841
 10
7.9175287826
 20
-5.4091380449
  0
LWPOLYLINE
  5
3B8
100
AcDbEntity
  8
RACCORDO
100
AcDbPolyline
 62
253
  6
CONTINUOUS
 90
10
 70
0
 10
0.740441631
 20
11.0571366553
 10
0.7387160907
 20
11.0715349106
 10
0.7348549745
 20
11.0867154094
 10
0.7289756407
 20
11.1022164217
 10
0.721256832
 20
11.1175664636
 10
0.7119332861
 20
11.1322985518
 10
0.7012886286
 20
11.1459644251
 10
0.6896466705
 20
11.1581483044
 10
0.6773615337
 20
11.1684795268
 10
0.6648069407
 20
11.1766437486
  0
LINE
  5
3B9
100
AcDbEntity
  8
0
100
AcDbLine
 62
7
  6
CONTINUOUS
 10
2.1198841933
 20
15.0710542932
 11
2.117291239
 21
15.1071983614
  0
LWPOLYLINE
  5
3BA
100
AcDbEntity
  8
0
100
AcDbPolyline
 62
253
  6
CONTINUOUS
 90
40
 70
0
 10
1.8775323126
 20
10.0829977178
 10
1.8764935585
 20
10.0991495428
 10
1.8748937732
 20
10.1156116482
 10
1.8727355484
 20
10.1323573634
 10
1.8700223809
 20
10.1493595583
 10
1.8667586661
 20
10.1665906875
 10
1.8629496917
 20
10.1840228344
 10
1.8586016286
 20
10.201627757
 10
1.8537215212
 20
10.2193769332
 10
1.8483172759
 20
10.2372416073
 10
1.8423976481
 20
10.2551928363
 10
1.8359722283
 20
10.2732015373
 10
1.8290514264
 20
10.2912385339
 10
1.821646455
 20
10.309274604
 10
1.8137693109
 20
10.3272805273
 10
1.8054327561
 20
10.3452271318
 10
1.7966502967
 20
10.363085342
 10
1.7874361613
 20
10.3808262255
 10
1.777805278
 20
10.3984210399
 10
1.7677732498
 20
10.4158412795
 10
1.7573563299
 20
10.4330587216
 10
1.7465713948
 20
10.4500454717
 10
1.7354359175
 20
10.4667740094
 10
1.7239679388
 20
10.4832172325
 10
1.712186038
 20
10.4993485008
 10
1.7001093033
 20
10.5151416799
 10
1.6877573004
 20
10.530571183
 10
1.675150041
 20
10.5456120124
 10
1.6623079504
 20
10.5602398001
 10
1.6492518342
 20
10.5744308475
 10
1.636002845
 20
10.5881621633
 10
1.6225824476
 20
10.6014115011
 10
1.6090123847
 20
10.6141573955
 10
1.5953146414
 20
10.6263791965
 10
1.5815114097
 20
10.6380571034
 10
1.5676250525
 20
10.6491721966
 10
1.5536780672
 20
10.6597064684
 10
1.5396930498
 20
10.6696428518
 10
1.5256926574
 20
10.6789652489
 10
1.5116995726
 20
10.6876585562
  0
LWPOLYLINE
  5
3BB
100
AcDbEntity
  8
RACCORDO
100
AcDbPolyline
 62
253
  6
CONTINUOUS
 90
9
 70
0
 10
2.820283881
 20
14.4347621152
 10
2.8206413702
 20
14.4263499453
 10
2.8233605947
 20
14.4102402701
 10
2.8287476115
 20
14.3944912401
 10
2.8367618304
 20
14.3792742462
 10
2.8473473781
 20
14.3647668349
 10
2.8604194639
 20
14.3511326661
 10
2.8758554057
 20
14.3385179205
 10
2.893507184
 20
14.3270683022
  0
LWPOLYLINE
  5
3BC
100
AcDbEntity
  8
0
100
AcDbPolyline
 62
253
  6
CONTINUOUS
 90
18
 70
0
 10
3.8690523001
 20
-25.221171856
 10
3.8692511029
 20
-25.2307347652
 10
3.8698470652
 20
-25.2400466066
 10
3.8708388484
 20
-25.2490864349
 10
3.8722242244
 20
-25.2578339217
 10
3.8740000785
 20
-25.2662693848
 10
3.8761624137
 20
-25.2743738346
 10
3.8787063643
 20
-25.2821290386
 10
3.881626209
 20
-25.2895175587
 10
3.884915379
 20
-25.2965227747
 10
3.8885664759
 20
-25.3031289325
 10
3.8925712865
 20
-25.309321173
 10
3.8969207987
 20
-25.3150855653
 10
3.9016052274
 20
-25.3204091453
 10
3.9066140355
 20
-25.3252799421
 10
3.911935954
 20
-25.3296870012
 10
3.9175590144
 20
-25.3336204148
 10
3.9207840943
 20
-25.3355836194
  0
LWPOLYLINE
  5
3BD
100
AcDbEntity
  8
0
100
AcDbPolyline
 62
253
  6
CONTINUOUS
 90
17
 70
0
 10
2.1905142297
 20
15.0049009487
 10
2.1906825256
 20
14.9960934834
 10
2.1911870928
 20
14.9874971317
 10
2.1920269707
 20
14.9791282613
 10
2.1932005564
 20
14.9710028286
 10
2.1947056173
 20
14.9631362819
 10
2.1965393037
 20
14.9555435398
 10
2.1986981477
 20
14.9482390177
 10
2.2011780351
 20
14.9412366839
 10
2.2039742149
 20
14.9345499603
 10
2.2070813374
 20
14.9281916153
 10
2.2104934995
 20
14.9221737069
 10
2.2142042275
 20
14.9165076506
 10
2.2182064882
 20
14.9112042008
 10
2.2224926374
 20
14.9062735012
 10
2.2270544469
 20
14.9017250077
 10
2.2318831764
 20
14.8975674026
  0
LWPOLYLINE
  5
3BE
100
AcDbEntity
  8
0
100
AcDbPolyline
 62
253
  6
CONTINUOUS
 90
19
 70
0
 10
3.8690523001
 20
14.0357341039
 10
3.869220596
 20
14.0269266386
 10
3.8697251632
 20
14.0183302868
 10
3.8705650411
 20
14.0099614165
 10
3.8717386268
 20
14.0018359837
 10
3.8732436877
 20
13.993969437
 10
3.8750773741
 20
13.986376695
 10
3.8772362181
 20
13.9790721729
 10
3.8797161056
 20
13.9720698391
 10
3.8825122853
 20
13.9653831155
 10
3.8856194078
 20
13.9590247704
 10
3.8890315699
 20
13.9530068621
 10
3.8927422979
 20
13.9473408058
 10
3.8967445587
 20
13.9420373559
 10
3.9010307078
 20
13.9371066564
 10
3.9055925173
 20
13.9325581629
 10
3.9104212468
 20
13.9284005578
 10
3.9155077326
 20
13.9246417006
 10
3.9207723234
 20
13.9213291466
  0
LINE
  5
3BF
100
AcDbEntity
  8
0
100
AcDbLine
 62
7
  6
CONTINUOUS
 10
2.8202838793
 20
14.5567373582
 11
2.8202838793
 21
14.4347785303
  0
LINE
  5
3C0
100
AcDbEntity
  8
RACCORDO
100
AcDbLine
 62
253
  6
CONTINUOUS
 10
2.893507184
 20
14.5144591397
 11
2.893507184
 21
14.3270683022
  0
LINE
  5
3C1
100
AcDbEntity
  8
0
100
AcDbLine
 62
253
  6
CONTINUOUS
 10
3.8690523001
 20
-25.221171856
 11
3.8690523001
 21
-24.9006516831
  0
LINE
  5
3C2
100
AcDbEntity
  8
0
100
AcDbLine
 62
253
  6
CONTINUOUS
 10
3.8690523001
 20
14.0357341039
 11
3.8690523001
 21
14.3562542767
  0
LINE
  5
3C3
100
AcDbEntity
  8
0
100
AcDbLine
 62
253
  6
CONTINUOUS
 10
4.2215742598
 20
-25.2217639366
 11
4.2215742598
 21
-24.9012437638
  0
LINE
  5
3C4
100
AcDbEntity
  8
0
100
AcDbLine
 62
253
  6
CONTINUOUS
 10
4.2215742598
 20
14.0351420232
 11
4.2215742598
 21
14.3556621961
  0
LWPOLYLINE
  5
3C5
100
AcDbEntity
  8
0
100
AcDbPolyline
 62
253
  6
CONTINUOUS
 90
25
 70
0
 10
3.8690523001
 20
-24.9006516831
 10
3.8692205524
 20
-24.8916510531
 10
3.8697249888
 20
-24.8824732628
 10
3.8705646493
 20
-24.8731357826
 10
3.8717379354
 20
-24.8636563871
 10
3.8732426137
 20
-24.8540531207
 10
3.87507582
 20
-24.8443442639
 10
3.8772340646
 20
-24.834548298
 10
3.8797132393
 20
-24.8246838702
 10
3.8825086248
 20
-24.8147697579
 10
3.8856148999
 20
-24.8048248333
 10
3.8890261517
 20
-24.7948680271
 10
3.8927358865
 20
-24.7849182926
 10
3.8967370428
 20
-24.7749945697
 10
3.9010220041
 20
-24.7651157488
 10
3.9055826137
 20
-24.7553006348
 10
3.9104101903
 20
-24.7455679113
 10
3.9154955443
 20
-24.7359361051
 10
3.9208289954
 20
-24.7264235508
 10
3.9264003912
 20
-24.7170483563
 10
3.932199126
 20
-24.7078283677
 10
3.9382141618
 20
-24.6987811357
 10
3.9444340485
 20
-24.6899238823
 10
3.9508469463
 20
-24.6812734678
 10
3.9574406478
 20
-24.6728463587
  0
LWPOLYLINE
  5
3C6
100
AcDbEntity
  8
0
100
AcDbPolyline
 62
253
  6
CONTINUOUS
 90
34
 70
0
 10
3.8690523001
 20
14.3562542767
 10
3.8692511029
 20
14.3660467584
 10
3.8698470652
 20
14.3760468022
 10
3.8708388484
 20
14.3862319168
 10
3.8722242244
 20
14.3965792011
 10
3.8740000785
 20
14.4070653761
 10
3.8761624137
 20
14.4176668362
 10
3.8787063643
 20
14.4283597307
 10
3.881626209
 20
14.4391200142
 10
3.884915379
 20
14.4499234814
 10
3.8885664759
 20
14.4607458343
 10
3.8925712865
 20
14.4715627297
 10
3.8969207987
 20
14.4823498297
 10
3.9016052274
 20
14.4930828705
 10
3.9066140355
 20
14.5037377133
 10
3.911935954
 20
14.5142903906
 10
3.9175590144
 20
14.5247171734
 10
3.9234705651
 20
14.5349946054
 10
3.9296572969
 20
14.5450995534
 10
3.9361052735
 20
14.5550092644
 10
3.9428000067
 20
14.5647014812
 10
3.9497264829
 20
14.5741544683
 10
3.9568691934
 20
14.5833470477
 10
3.9642120109
 20
14.5922584515
 10
3.9717382575
 20
14.6008684517
 10
3.9794308918
 20
14.6091575917
 10
3.9872727044
 20
14.6171073659
 10
3.9952462033
 20
14.6247000553
 10
4.0033346808
 20
14.6319196409
 10
4.0115187521
 20
14.6387487132
 10
4.0197764229
 20
14.6451692237
 10
4.0280878435
 20
14.651166443
 10
4.0364354759
 20
14.6567284146
 10
4.0448005561
 20
14.661843232
  0
LWPOLYLINE
  5
3C7
100
AcDbEntity
  8
0
100
AcDbPolyline
 62
253
  6
CONTINUOUS
 90
22
 70
0
 10
1.8774511557
 20
-25.1247322028
 10
1.8764120844
 20
-25.141392349
 10
1.8748119845
 20
-25.1576890554
 10
1.8726534477
 20
-25.1735959195
 10
1.8699399461
 20
-25.1890871829
 10
1.8666758999
 20
-25.2041377358
 10
1.8628666697
 20
-25.2187231585
 10
1.8585184212
 20
-25.2328198236
 10
1.8536382039
 20
-25.2464048904
 10
1.848234013
 20
-25.2594563053
 10
1.8423146021
 20
-25.2719529243
 10
1.8358895635
 20
-25.2838745003
 10
1.828969401
 20
-25.2952016718
 10
1.8215653602
 20
-25.3059160703
 10
1.813689405
 20
-25.316000353
 10
1.8053542913
 20
-25.3254381839
 10
1.7965735506
 20
-25.334214259
 10
1.7873613864
 20
-25.342314371
 10
1.7777326449
 20
-25.3497254358
 10
1.7677029174
 20
-25.3564354509
 10
1.7572884689
 20
-25.3624335372
 10
1.7530630363
 20
-25.364609153
  0
LWPOLYLINE
  5
3C8
100
AcDbEntity
  8
0
100
AcDbPolyline
 62
253
  6
CONTINUOUS
 90
15
 70
0
 10
6.4216504544
 20
15.3424089744
 10
6.4200038061
 20
15.3356303768
 10
6.4178024473
 20
15.3289044721
 10
6.4150513285
 20
15.3222463856
 10
6.4117566355
 20
15.3156710881
 10
6.407925775
 20
15.3091933627
 10
6.4035673563
 20
15.3028277699
 10
6.3986911825
 20
15.2965886302
 10
6.393308231
 20
15.2904899879
 10
6.3874306176
 20
15.2845455641
 10
6.3810715546
 20
15.2787687163
 10
6.3742453309
 20
15.2731724238
 10
6.366967292
 20
15.2677692674
 10
6.3592538075
 20
15.2625714004
 10
6.3511222224
 20
15.257590511
  0
LINE
  5
3C9
100
AcDbEntity
  8
DRAFT
100
AcDbLine
 62
7
  6
CONTINUOUS
 10
7.248794078
 20
2.9079413433
 11
11.0855028754
 21
8.2574391469
  0
LINE
  5
3CA
100
AcDbEntity
  8
RACCORDO
100
AcDbLine
 62
253
  6
CONTINUOUS
 10
7.248794078
 20
4.5560083323
 11
11.8566718994
 21
10.9529187309
  0
LINE
  5
3CB
100
AcDbEntity
  8
RACCORDO
100
AcDbLine
 62
253
  6
CONTINUOUS
 10
7.248794078
 20
3.8397314567
 11
12.1904758364
 21
10.7000469105
  0
LINE
  5
3CC
100
AcDbEntity
  8
0
100
AcDbLine
 62
7
  6
CONTINUOUS
 10
11.7500531823
 20
11.0141124574
 11
12.3292811477
 21
11.8168595369
  0
LINE
  5
3CD
100
AcDbEntity
  8
0
100
AcDbLine
 62
7
  6
CONTINUOUS
 10
-5.2183178964
 20
-12.8492697442
 11
-5.110063071
 21
-12.6992403082
  0
LINE
  5
3CE
100
AcDbEntity
  8
0
100
AcDbLine
 62
7
  6
CONTINUOUS
 10
12.506057843
 20
11.7147908886
 11
13.0852858083
 21
12.5175379681
  0
LINE
  5
3CF
100
AcDbEntity
  8
0
100
AcDbLine
 62
7
  6
CONTINUOUS
 10
-5.5854138274
 20
-13.7744992018
 11
-5.0061858621
 21
-12.9717521222
  0
LINE
  5
3D0
100
AcDbEntity
  8
0
100
AcDbLine
 62
7
  6
CONTINUOUS
 10
13.2974178427
 20
12.3950555901
 11
13.876645808
 21
13.1978026696
  0
LWPOLYLINE
  5
3D1
100
AcDbEntity
  8
0
100
AcDbPolyline
 62
253
  6
CONTINUOUS
 90
16
 70
0
 10
-4.2927369561
 20
-12.0460027822
 10
-4.3249466632
 20
-12.086839456
 10
-4.3606770788
 20
-12.1249921437
 10
-4.3995367332
 20
-12.1600428366
 10
-4.4410998718
 20
-12.1916075118
 10
-4.4849111202
 20
-12.2193403401
 10
-4.5304904732
 20
-12.242937475
 10
-4.5773385538
 20
-12.2621403812
 10
-4.6249420847
 20
-12.2767386677
 10
-4.6727795116
 20
-12.2865723927
 10
-4.7203267177
 20
-12.2915338157
 10
-4.7670627658
 20
-12.2915685783
 10
-4.8124756061
 20
-12.2866762998
 10
-4.8560676858
 20
-12.2769105809
 10
-4.8973614011
 20
-12.2623784169
 10
-4.9359043294
 20
-12.2432390252
  0
LINE
  5
3D2
100
AcDbEntity
  8
0
100
AcDbLine
 62
7
  6
CONTINUOUS
 10
7.248794078
 20
-0.4436057968
 11
5.8098953261
 21
-1.2744051478
  0
LWPOLYLINE
  5
3D3
100
AcDbEntity
  8
RACCORDO
100
AcDbPolyline
 62
7
  6
CONTINUOUS
 90
11
 70
0
 10
-0.7328264247
 20
5.3730541877
 10
-0.7248306098
 20
5.3685475845
 10
-0.6887968934
 20
5.350906894
 10
-0.6527165417
 20
5.3375117231
 10
-0.6168002957
 20
5.3283571408
 10
-0.5813169653
 20
5.323442852
 10
-0.5466523071
 20
5.3227349436
 10
-0.5132587469
 20
5.3261049241
 10
-0.4812816236
 20
5.3333911591
 10
-0.4507421593
 20
5.3445114693
 10
-0.4300331607
 20
5.3546968266
  0
LINE
  5
3D4
100
AcDbEntity
  8
RACCORDO
100
AcDbLine
 62
253
  6
CONTINUOUS
 10
-0.7432187069
 20
5.4204079145
 11
-0.7532856988
 21
5.4260932115
  0
LINE
  5
3D5
100
AcDbEntity
  8
RACCORDO
100
AcDbLine
 62
7
  6
CONTINUOUS
 10
7.5919412476
 20
-0.3929878738
 11
7.248794078
 21
-0.1948589988
  0
LINE
  5
3D6
100
AcDbEntity
  8
RACCORDO
100
AcDbLine
 62
253
  6
CONTINUOUS
 10
-0.7134636307
 20
5.1298226013
 11
-13.4664138132
 21
12.4932162047
  0
LINE
  5
3D7
100
AcDbEntity
  8
RACCORDO
100
AcDbLine
 62
7
  6
CONTINUOUS
 10
-0.7328452882
 20
5.3730650357
 11
-13.3688456157
 21
12.6689332585
  0
LINE
  5
3D8
100
AcDbEntity
  8
RACCORDO
100
AcDbLine
 62
253
  6
CONTINUOUS
 10
-0.7532856988
 20
5.4260932115
 11
-13.3892860263
 21
12.7219614343
  0
LWPOLYLINE
  5
3D9
100
AcDbEntity
  8
RACCORDO
100
AcDbPolyline
 62
253
  6
CONTINUOUS
 90
29
 70
0
 10
-13.3892860263
 20
12.7219614343
 10
-13.3990972179
 20
12.7277372121
 10
-13.4092615736
 20
12.7343024854
 10
-13.4197790813
 20
12.74165726
 10
-13.4306963849
 20
12.7497724764
 10
-13.4419667878
 20
12.7586772192
 10
-13.4534502386
 20
12.7684587244
 10
-13.4651657269
 20
12.7791451896
 10
-13.4770941018
 20
12.7907084941
 10
-13.4890380472
 20
12.8031514218
 10
-13.5010000964
 20
12.8164967546
 10
-13.5129774006
 20
12.8307218609
 10
-13.5247645072
 20
12.8457614341
 10
-13.5363604335
 20
12.8616397054
 10
-13.5477656756
 20
12.8783326752
 10
-13.5587769552
 20
12.8957027109
 10
-13.5693916959
 20
12.9137834924
 10
-13.5796118443
 20
12.9325416389
 10
-13.5892409242
 20
12.951738919
 10
-13.5982658113
 20
12.9714132609
 10
-13.6066989621
 20
12.9915270527
 10
-13.614382411
 20
13.0117286866
 10
-13.6212834666
 20
13.0320308389
 10
-13.627434313
 20
13.0524210725
 10
-13.6327745825
 20
13.0725099743
 10
-13.6372647471
 20
13.0922885642
 10
-13.6409441632
 20
13.1117659022
 10
-13.6438711705
 20
13.1305794534
 10
-13.6460105368
 20
13.1486816621
  0
LWPOLYLINE
  5
3DA
100
AcDbEntity
  8
RACCORDO
100
AcDbPolyline
 62
253
  6
CONTINUOUS
 90
22
 70
0
 10
-13.4664138132
 20
12.4932162047
 10
-13.492249476
 20
12.5086582431
 10
-13.5186278988
 20
12.5265900974
 10
-13.5455489039
 20
12.5470118529
 10
-13.5731266729
 20
12.5697776392
 10
-13.6012462788
 20
12.5950336847
 10
-13.6295634915
 20
12.6232184101
 10
-13.6581677054
 20
12.6543724432
 10
-13.6869672813
 20
12.6884562331
 10
-13.7153455481
 20
12.7257883586
 10
-13.7434318654
 20
12.7665131933
 10
-13.7710920631
 20
12.8104886655
 10
-13.7973128707
 20
12.857604309
 10
-13.8222031024
 20
12.9081490578
 10
-13.845645667
 20
12.9618379226
 10
-13.866287563
 20
13.0176999625
 10
-13.8840928894
 20
13.0761459926
 10
-13.8990867275
 20
13.1367703219
 10
-13.9100094278
 20
13.1973763469
 10
-13.9164395982
 20
13.2572325646
 10
-13.9187915663
 20
13.3170737775
 10
-13.9170613088
 20
13.376901859
  0
LINE
  5
3DB
100
AcDbEntity
  8
RACCORDO
100
AcDbLine
 62
7
  6
CONTINUOUS
 10
-13.3815801145
 20
12.6765671429
 11
-13.3687742842
 21
12.6688922665
  0
LWPOLYLINE
  5
3DC
100
AcDbEntity
  8
RACCORDO
100
AcDbPolyline
 62
253
  6
CONTINUOUS
 90
6
 70
0
 10
-0.7328452882
 20
5.3730650357
 10
-0.7393102299
 20
5.3779190265
 10
-0.7461201052
 20
5.3866902898
 10
-0.7508113237
 20
5.3979049417
 10
-0.7532268135
 20
5.4111874916
 10
-0.7532856988
 20
5.4260932115
  0
LINE
  5
3DD
100
AcDbEntity
  8
DRAFT
100
AcDbLine
 62
7
  6
CONTINUOUS
 10
6.6355660741
 20
-1.7159912419
 11
7.748252643
 21
-2.5589024452
  0
LINE
  5
3DE
100
AcDbEntity
  8
DRAFT
100
AcDbLine
 62
7
  6
CONTINUOUS
 10
7.5919412476
 20
-0.3929878738
 11
8.7008737217
 21
-1.2330551779
  0
LINE
  5
3DF
100
AcDbEntity
  8
DRAFT
100
AcDbLine
 62
7
  6
CONTINUOUS
 10
10.7495430718
 20
-5.7752133596
 11
7.748252643
 21
-2.5589024452
  0
LWPOLYLINE
  5
3E0
100
AcDbEntity
  8
0
100
AcDbPolyline
 62
253
  6
CONTINUOUS
 90
4
 70
0
 10
6.3691599434
 20
-23.527948292
 10
6.3674508213
 20
-23.5163811726
 10
6.3653035576
 20
-23.5049515934
 10
6.3627229985
 20
-23.4936853503
  0
LWPOLYLINE
  5
3E1
100
AcDbEntity
  8
0
100
AcDbPolyline
 62
7
  6
CONTINUOUS
 90
24
 70
0
 10
5.0096822523
 20
23.1691181476
 10
5.0092511132
 20
23.1973093808
 10
5.0079696386
 20
23.2249105374
 10
5.0058378284
 20
23.2519216172
 10
5.0028503929
 20
23.2783770481
 10
4.9990126219
 20
23.3042424023
 10
4.9943403849
 20
23.3294143966
 10
4.988832694
 20
23.3538826287
 10
4.9824905372
 20
23.3776575008
 10
4.9753327478
 20
23.4006669363
 10
4.9673526497
 20
23.4229182213
 10
4.9585569191
 20
23.4444040696
 10
4.9489844183
 20
23.4650305455
 10
4.9386381174
 20
23.4847835008
 10
4.9275150463
 20
23.5036770836
 10
4.9156451575
 20
23.5216598032
 10
4.9030177371
 20
23.5387394011
 10
4.889643499
 20
23.5549081357
 10
4.8755845376
 20
23.5700912915
 10
4.8608485195
 20
23.5842751727
 10
4.845427778
 20
23.597473475
 10
4.8293614075
 20
23.60965257
 10
4.8126350926
 20
23.6208172192
 10
4.8025965571
 20
23.6268496848
  0
LINE
  5
3E2
100
AcDbEntity
  8
RACCORDO
100
AcDbLine
 62
253
  6
CONTINUOUS
 10
4.5802729082
 20
13.3531509132
 11
4.5802729082
 21
13.837532911
  0
LINE
  5
3E3
100
AcDbEntity
  8
RACCORDO
100
AcDbLine
 62
253
  6
CONTINUOUS
 10
4.9327948679
 20
-24.0239551085
 11
4.9327948679
 21
-23.7807802833
  0
LINE
  5
3E4
100
AcDbEntity
  8
RACCORDO
100
AcDbLine
 62
253
  6
CONTINUOUS
 10
4.9327948679
 20
13.3717020381
 11
4.9327948679
 21
13.9696520104
  0
LINE
  5
3E5
100
AcDbEntity
  8
0
100
AcDbLine
 62
7
  6
CONTINUOUS
 10
5.0096822523
 20
23.1691181476
 11
5.0096822523
 21
22.7315007353
  0
LINE
  5
3E6
100
AcDbEntity
  8
0
100
AcDbLine
 62
7
  6
CONTINUOUS
 10
5.8098953261
 20
-9.3821017489
 11
5.8098953261
 21
-1.2744051478
  0
LINE
  5
3E7
100
AcDbEntity
  8
0
100
AcDbLine
 62
7
  6
CONTINUOUS
 10
5.8228550506
 20
15.2802206223
 11
5.8228550506
 21
14.5947782446
  0
LINE
  5
3E8
100
AcDbEntity
  8
RACCORDO
100
AcDbLine
 62
7
  6
CONTINUOUS
 10
5.8228550506
 20
-23.633152333
 11
5.8228550506
 21
-23.3374400623
  0
LINE
  5
3E9
100
AcDbEntity
  8
0
100
AcDbLine
 62
7
  6
CONTINUOUS
 10
5.8228550506
 20
-23.633152333
 11
5.8228550506
 21
-24.3185947107
  0
LINE
  5
3EA
100
AcDbEntity
  8
RACCORDO
100
AcDbLine
 62
7
  6
CONTINUOUS
 10
5.8228550506
 20
13.9332155198
 11
5.8228550506
 21
14.5947782446
  0
LINE
  5
3EB
100
AcDbEntity
  8
0
100
AcDbLine
 62
253
  6
CONTINUOUS
 10
6.3511222224
 20
15.5852358115
 11
6.3511222224
 21
15.257590511
  0
LINE
  5
3EC
100
AcDbEntity
  8
0
100
AcDbLine
 62
253
  6
CONTINUOUS
 10
6.3511222224
 20
-23.678795276
 11
6.3511222224
 21
-24.0064405765
  0
LINE
  5
3ED
100
AcDbEntity
  8
0
100
AcDbLine
 62
7
  6
CONTINUOUS
 10
6.4233200794
 20
15.6867089246
 11
6.4233200794
 21
15.3590636241
  0
LINE
  5
3EE
100
AcDbEntity
  8
0
100
AcDbLine
 62
7
  6
CONTINUOUS
 10
6.4233200794
 20
-23.577322163
 11
6.4233200794
 21
-23.9049674635
  0
LINE
  5
3EF
100
AcDbEntity
  8
0
100
AcDbLine
 62
253
  6
CONTINUOUS
 10
6.4233200794
 20
-23.577322163
 11
6.4233197654
 21
-23.5775509273
  0
LWPOLYLINE
  5
3F0
100
AcDbEntity
  8
0
100
AcDbPolyline
 62
253
  6
CONTINUOUS
 90
18
 70
0
 10
6.4233200708
 20
15.6866712358
 10
6.4232665178
 20
15.6837210967
 10
6.4227400904
 20
15.6768821684
 10
6.4216526781
 20
15.6700653324
 10
6.4200067234
 20
15.6632859181
 10
6.4178059262
 20
15.6565591757
 10
6.4150552333
 20
15.6499002343
 10
6.4117608295
 20
15.6433240723
 10
6.407930125
 20
15.636845486
 10
6.4035717354
 20
15.6304790481
 10
6.3986954618
 20
15.6242390773
 10
6.3933122723
 20
15.6181396107
 10
6.3874342712
 20
15.6121943643
 10
6.381074681
 20
15.6064167136
 10
6.3742478182
 20
15.6008196641
 10
6.3669690441
 20
15.5954158069
 10
6.359254728
 20
15.5902172922
 10
6.3511222224
 20
15.5852358115
  0
LWPOLYLINE
  5
3F1
100
AcDbEntity
  8
0
100
AcDbPolyline
 62
7
  6
CONTINUOUS
 90
18
 70
0
 10
5.8228550506
 20
-24.3185947107
 10
5.8226546717
 20
-24.3281913477
 10
5.8220545028
 20
-24.3375349246
 10
5.8210557991
 20
-24.3466043355
 10
5.8196606408
 20
-24.355379142
 10
5.8178721799
 20
-24.363839469
 10
5.815694634
 20
-24.3719660498
 10
5.8131328754
 20
-24.3797405094
 10
5.8101926145
 20
-24.3871452885
 10
5.8068806402
 20
-24.3941635335
 10
5.8032044163
 20
-24.4007793673
 10
5.7991721974
 20
-24.4069778442
 10
5.7947932056
 20
-24.4127448674
 10
5.7900773444
 20
-24.4180673813
 10
5.7850352448
 20
-24.4229333582
 10
5.7796783744
 20
-24.4273317462
 10
5.774018875
 20
-24.4312525771
 10
5.7718106544
 20
-24.4326041157
  0
LWPOLYLINE
  5
3F2
100
AcDbEntity
  8
0
100
AcDbPolyline
 62
253
  6
CONTINUOUS
 90
18
 70
0
 10
4.2215742598
 20
-25.2217639366
 10
4.2213259915
 20
-25.2313876819
 10
4.2206801832
 20
-25.2407570778
 10
4.2196382978
 20
-25.2498509004
 10
4.2182026954
 20
-25.2586485501
 10
4.2163766279
 20
-25.2671300984
 10
4.2141642319
 20
-25.2752763327
 10
4.2115705188
 20
-25.2830687998
 10
4.208601364
 20
-25.2904898481
 10
4.2052634934
 20
-25.2975226673
 10
4.2015644679
 20
-25.3041513264
 10
4.1975126666
 20
-25.3103608101
 10
4.1931172679
 20
-25.3161370525
 10
4.1883882282
 20
-25.321466969
 10
4.18333626
 20
-25.3263384863
 10
4.1779728069
 20
-25.3307405693
 10
4.1723100186
 20
-25.3346632463
 10
4.1686471838
 20
-25.3368546545
  0
LWPOLYLINE
  5
3F3
100
AcDbEntity
  8
0
100
AcDbPolyline
 62
7
  6
CONTINUOUS
 90
6
 70
0
 10
6.4233197268
 20
15.3593060521
 10
6.4227216869
 20
15.3417787164
 10
6.418918362
 20
15.3123572696
 10
6.4116374473
 20
15.2835333111
 10
6.4009590801
 20
15.2557172166
 10
6.386988329
 20
15.2292719483
  0
LWPOLYLINE
  5
3F4
100
AcDbEntity
  8
0
100
AcDbPolyline
 62
253
  6
CONTINUOUS
 90
3
 70
0
 10
6.4231638629
 20
15.3547379974
 10
6.4227386896
 20
15.349225022
 10
6.4216504544
 20
15.3424089744
  0
LINE
  5
3F5
100
AcDbEntity
  8
DRAFT
100
AcDbLine
 62
7
  6
CONTINUOUS
 10
5.8098953261
 20
-2.8623809782
 11
6.6355660741
 21
-1.7159912419
  0
LINE
  5
3F6
100
AcDbEntity
  8
DRAFT
100
AcDbLine
 62
7
  6
CONTINUOUS
 10
6.6355660741
 20
-1.7159912419
 11
7.5919412476
 21
-0.3929878738
  0
LWPOLYLINE
  5
3F7
100
AcDbEntity
  8
0
100
AcDbPolyline
 62
253
  6
CONTINUOUS
 90
13
 70
0
 10
-12.5474118914
 20
-14.8530324074
 10
-12.5767322972
 20
-14.8715468849
 10
-12.6091806813
 20
-14.8876486507
 10
-12.6442017728
 20
-14.9010622229
 10
-12.6811963086
 20
-14.911558127
 10
-12.7195312442
 20
-14.9189568082
 10
-12.7585505822
 20
-14.9231317139
 10
-12.7975866663
 20
-14.9240114699
 10
-12.8359715987
 20
-14.9215810856
 10
-12.8730486215
 20
-14.9158822072
 10
-12.9081833829
 20
-14.9070124039
 10
-12.9407747888
 20
-14.895123493
 10
-12.9702652756
 20
-14.8804189422
  0
LWPOLYLINE
  5
3F8
100
AcDbEntity
  8
RACCORDO
100
AcDbPolyline
 62
253
  6
CONTINUOUS
 90
11
 70
0
 10
-0.6222667378
 20
5.3890803428
 10
-0.635554622
 20
5.3891410475
 10
-0.6486819739
 20
5.390026797
 10
-0.6616248118
 20
5.3917607908
 10
-0.6744074641
 20
5.3943196643
 10
-0.6868426252
 20
5.3974606461
 10
-0.6988864133
 20
5.4011750231
 10
-0.7105828824
 20
5.4054714263
 10
-0.7218765699
 20
5.4101331298
 10
-0.7327490016
 20
5.4150878852
 10
-0.7432187069
 20
5.4204079145
  0
LWPOLYLINE
  5
3F9
100
AcDbEntity
  8
RACCORDO
100
AcDbPolyline
 62
253
  6
CONTINUOUS
 90
3
 70
0
 10
-0.475514391
 20
5.3202835798
 10
-0.4964111999
 20
5.3257981609
 10
-0.5037175553
 20
5.3282789585
  0
LWPOLYLINE
  5
3FA
100
AcDbEntity
  8
RACCORDO
100
AcDbPolyline
 62
253
  6
CONTINUOUS
 90
12
 70
0
 10
-13.9170613035
 20
13.3769018615
 10
-13.897629545
 20
13.3668816096
 10
-13.8761662722
 20
13.3581401884
 10
-13.8530306573
 20
13.350823879
 10
-13.8286098576
 20
13.3450551145
 10
-13.8033125371
 20
13.3409304307
 10
-13.7775620274
 20
13.3385188511
 10
-13.751789244
 20
13.3378607316
 10
-13.7264254756
 20
13.3389670854
 10
-13.7018951657
 20
13.341819399
 10
-13.6786088111
 20
13.346369941
 10
-13.6702986005
 20
13.3487389634
  0
LINE
  5
3FB
100
AcDbEntity
  8
0
100
AcDbLine
 62
7
  6
CONTINUOUS
 10
13.0241328985
 20
-2.398718995
 11
10.2738940712
 21
-0.8107655647
  0
LINE
  5
3FC
100
AcDbEntity
  8
DRAFT
100
AcDbLine
 62
7
  6
CONTINUOUS
 10
9.6032944699
 20
-0.1733687985
 11
9.8755235855
 21
-0.3305504781
  0
LWPOLYLINE
  5
3FD
100
AcDbEntity
  8
RACCORDO
100
AcDbPolyline
 62
253
  6
CONTINUOUS
 90
8
 70
0
 10
-0.1756670415
 20
5.4428058113
 10
-0.1927515713
 20
5.4538665311
 10
-0.2071935556
 20
5.4658536375
 10
-0.2187512683
 20
5.4785664931
 10
-0.2272312591
 20
5.4917923131
 10
-0.2324915923
 20
5.5053097268
 10
-0.2344442217
 20
5.518892483
 10
-0.234325889
 20
5.5238058121
  0
LINE
  5
3FE
100
AcDbEntity
  8
DRAFT
100
AcDbLine
 62
7
  6
CONTINUOUS
 10
11.7002289602
 20
-4.4472922597
 11
8.7008737217
 21
-1.2330551779
  0
LWPOLYLINE
  5
3FF
100
AcDbEntity
  8
0
100
AcDbPolyline
 62
253
  6
CONTINUOUS
 90
4
 70
0
 10
2.1191314023
 20
15.0894865629
 10
2.1179749062
 20
15.0962992838
 10
2.1173791077
 20
15.1031360067
 10
2.117290925
 20
15.1069695971
  0
LINE
  5
400
100
AcDbEntity
  8
0
100
AcDbLine
 62
7
  6
CONTINUOUS
 10
6.5302703732
 20
12.9530730935
 11
6.5302703732
 21
12.7081181933
  0
LINE
  5
401
100
AcDbEntity
  8
0
100
AcDbLine
 62
7
  6
CONTINUOUS
 10
6.5302703732
 20
-22.8083526644
 11
6.5302703732
 21
-22.5633977642
  0
LINE
  5
402
100
AcDbEntity
  8
0
100
AcDbLine
 62
253
  6
CONTINUOUS
 10
7.099657064
 20
20.4658585297
 11
7.099657064
 21
19.9369067876
  0
LINE
  5
403
100
AcDbEntity
  8
0
100
AcDbLine
 62
253
  6
CONTINUOUS
 10
7.099657064
 20
19.6011117785
 11
7.099657064
 21
19.1612904662
  0
LINE
  5
404
100
AcDbEntity
  8
0
100
AcDbLine
 62
7
  6
CONTINUOUS
 10
7.2304919152
 20
20.5205047018
 11
7.2304919152
 21
19.3436679147
  0
LINE
  5
405
100
AcDbEntity
  8
0
100
AcDbLine
 62
7
  6
CONTINUOUS
 10
7.231206327
 20
-22.3917650275
 11
7.231206327
 21
-21.7116559874
  0
LINE
  5
406
100
AcDbEntity
  8
0
100
AcDbLine
 62
7
  6
CONTINUOUS
 10
7.231206327
 20
12.6485664109
 11
7.231206327
 21
13.3601605601
  0
LINE
  5
407
100
AcDbEntity
  8
0
100
AcDbLine
 62
7
  6
CONTINUOUS
 10
7.248794078
 20
-21.6903258254
 11
7.248794078
 21
-8.6083085647
  0
LINE
  5
408
100
AcDbEntity
  8
0
100
AcDbLine
 62
7
  6
CONTINUOUS
 10
7.248794078
 20
-0.4436057968
 11
7.248794078
 21
12.6384114639
  0
LINE
  5
409
100
AcDbEntity
  8
0
100
AcDbLine
 62
7
  6
CONTINUOUS
 10
7.2697017842
 20
-16.5937018561
 11
7.2697017842
 21
-15.0851769302
  0
LINE
  5
40A
100
AcDbEntity
  8
0
100
AcDbLine
 62
7
  6
CONTINUOUS
 10
7.6988664766
 20
-13.1846599111
 11
7.6988664766
 21
-13.2144185511
  0
LWPOLYLINE
  5
40B
100
AcDbEntity
  8
0
100
AcDbPolyline
 62
253
  6
CONTINUOUS
 90
18
 70
0
 10
6.3511222224
 20
-24.0064405765
 10
6.3509694405
 20
-24.0160104624
 10
6.3504141311
 20
-24.0253287535
 10
6.349457551
 20
-24.0343743351
 10
6.3481018652
 20
-24.0431267149
 10
6.3463501444
 20
-24.0515660547
 10
6.3442063603
 20
-24.0596732171
 10
6.3416753722
 20
-24.0674298292
 10
6.3387629145
 20
-24.0748183199
 10
6.3354755881
 20
-24.0818219463
 10
6.3318208419
 20
-24.0884248408
 10
6.3278069583
 20
-24.0946120422
 10
6.3234430364
 20
-24.1003695278
 10
6.3187389666
 20
-24.1056842533
 10
6.3137054083
 20
-24.1105441792
 10
6.30835377
 20
-24.1149382945
 10
6.3026961763
 20
-24.1188566473
 10
6.3005055556
 20
-24.1201972351
  0
LWPOLYLINE
  5
40C
100
AcDbEntity
  8
0
100
AcDbPolyline
 62
7
  6
CONTINUOUS
 90
21
 70
0
 10
6.5293447021
 20
-22.8076175254
 10
6.5290626493
 20
-22.8238365418
 10
6.5282083243
 20
-22.8397293163
 10
6.5267813933
 20
-22.8552676733
 10
6.52478157
 20
-22.8704364611
 10
6.5222102854
 20
-22.8851947872
 10
6.5190755746
 20
-22.8994801015
 10
6.5153887177
 20
-22.9132572698
 10
6.5111557474
 20
-22.9265183375
 10
6.5063822181
 20
-22.9392462813
 10
6.5010828622
 20
-22.9514109927
 10
6.4952644545
 20
-22.9630048718
 10
6.4889174213
 20
-22.9740410783
 10
6.4820375248
 20
-22.98451551
 10
6.4746448104
 20
-22.9943870479
 10
6.4667669065
 20
-23.0036145011
 10
6.4584209576
 20
-23.0121806217
 10
6.4496195903
 20
-23.0200753979
 10
6.4403900078
 20
-23.0272779134
 10
6.4307673792
 20
-23.0337694725
 10
6.4281091596
 20
-23.0353971139
  0
LWPOLYLINE
  5
40D
100
AcDbEntity
  8
0
100
AcDbPolyline
 62
253
  6
CONTINUOUS
 90
3
 70
0
 10
6.4233200794
 20
-23.9049674635
 10
6.4232665178
 20
-23.9079552913
 10
6.4227400904
 20
-23.9147942197
  0
LWPOLYLINE
  5
40E
100
AcDbEntity
  8
0
100
AcDbPolyline
 62
253
  6
CONTINUOUS
 90
18
 70
0
 10
6.4233197654
 20
-23.5775509273
 10
6.4232656565
 20
-23.580333917
 10
6.4227373034
 20
-23.5871724733
 10
6.4216480314
 20
-23.5939888523
 10
6.4200002934
 20
-23.6007677345
 10
6.4177977932
 20
-23.6074938899
 10
6.4150454616
 20
-23.6141522409
 10
6.4117495026
 20
-23.6207277631
 10
6.4079174112
 20
-23.6272055394
 10
6.4035578992
 20
-23.6335709238
 10
6.3986807534
 20
-23.6398096974
 10
6.3932968582
 20
-23.6459079609
 10
6.3874178231
 20
-23.6518524772
 10
6.3810572863
 20
-23.6576293766
 10
6.3742311266
 20
-23.6632244396
 10
6.3669555542
 20
-23.6686248192
 10
6.3592467206
 20
-23.673818939
 10
6.3511222224
 20
-23.678795276
  0
LWPOLYLINE
  5
40F
100
AcDbEntity
  8
0
100
AcDbPolyline
 62
7
  6
CONTINUOUS
 90
6
 70
0
 10
6.4233200792
 20
-23.9049630891
 10
6.4214100587
 20
-23.9358116226
 10
6.4153878891
 20
-23.9674428626
 10
6.4053094342
 20
-23.9981390215
 10
6.3912755578
 20
-24.0274232082
 10
6.3734445905
 20
-24.0548013049
  0
LINE
  5
410
100
AcDbEntity
  8
DRAFT
100
AcDbLine
 62
7
  6
CONTINUOUS
 10
13.8840034103
 20
5.2584465376
 11
12.4132662084
 21
3.2078073448
  0
LINE
  5
411
100
AcDbEntity
  8
DRAFT
100
AcDbLine
 62
7
  6
CONTINUOUS
 10
9.8755235855
 20
-0.3305504781
 11
8.9990573893
 21
-1.5526015222
  0
LINE
  5
412
100
AcDbEntity
  8
DRAFT
100
AcDbLine
 62
7
  6
CONTINUOUS
 10
7.748252643
 20
-2.5589024452
 11
8.7008737217
 21
-1.2330551779
  0
LINE
  5
413
100
AcDbEntity
  8
0
100
AcDbLine
 62
7
  6
CONTINUOUS
 10
13.628928829
 20
5.405723404
 11
12.1518975174
 21
3.3587183513
  0
LINE
  5
414
100
AcDbEntity
  8
0
100
AcDbLine
 62
7
  6
CONTINUOUS
 10
9.6032944699
 20
-0.1733687985
 11
8.778582027
 21
-1.3163307143
  0
LINE
  5
415
100
AcDbEntity
  8
0
100
AcDbLine
 62
7
  6
CONTINUOUS
 10
10.0027875604
 20
-0.466931985
 11
12.4966403369
 21
2.9892772327
  0
LINE
  5
416
100
AcDbEntity
  8
0
100
AcDbLine
 62
7
  6
CONTINUOUS
 10
15.5862007411
 20
7.0610431779
 11
16.101173173
 21
7.7747390635
  0
LINE
  5
417
100
AcDbEntity
  8
DRAFT
100
AcDbLine
 62
7
  6
CONTINUOUS
 10
6.7894214361
 20
-3.8821205403
 11
7.748252643
 21
-2.5589024452
  0
LWPOLYLINE
  5
418
100
AcDbEntity
  8
ASSI
100
AcDbPolyline
 62
7
  6
CONTINUOUS
 90
33
 70
0
 10
6.0525195561
 20
-4.063427127
 10
6.0548214994
 20
-4.0606831979
 10
6.0670640707
 20
-4.0533949846
 10
6.085349084
 20
-4.0506018563
 10
6.1095617088
 20
-4.0522183886
 10
6.1392359048
 20
-4.0582134667
 10
6.174477474
 20
-4.0686719124
 10
6.2151806143
 20
-4.083508904
 10
6.2605618785
 20
-4.1024388614
 10
6.3107118918
 20
-4.1255410742
 10
6.3655400289
 20
-4.152736253
 10
6.4239909672
 20
-4.1835009494
 10
6.4861348881
 20
-4.2179043127
 10
6.55190161
 20
-4.2558771938
 10
6.6200252664
 20
-4.2966886969
 10
6.690551516
 20
-4.3403938123
 10
6.7634347
 20
-4.3869375497
 10
6.8372719751
 20
-4.4354240433
 10
6.9120818242
 20
-4.4858909283
 10
6.9878457644
 20
-4.5383005694
 10
7.0631055043
 20
-4.5916441947
 10
7.1378512763
 20
-4.6459398974
 10
7.212092848
 20
-4.7011695842
 10
7.2844012301
 20
-4.7562702036
 10
7.3547389725
 20
-4.8112392551
 10
7.4231435254
 20
-4.8660792391
 10
7.4882982493
 20
-4.9197346048
 10
7.5501401882
 20
-4.9721824037
 10
7.6087322983
 20
-5.0234455843
 10
7.6629468083
 20
-5.0725374415
 10
7.7124077948
 20
-5.1191290738
 10
7.7574911812
 20
-5.1635493827
 10
7.7981969677
 20
-5.2057983683
  0
LWPOLYLINE
  5
419
100
AcDbEntity
  8
RACCORDO
100
AcDbPolyline
 62
253
  6
CONTINUOUS
 90
8
 70
0
 10
0.262117744
 20
9.950866745
 10
0.2450234408
 20
9.9618219341
 10
0.2305557323
 20
9.9735375892
 10
0.2189567627
 20
9.9858176266
 10
0.2104206628
 20
9.9984565167
 10
0.2050903002
 20
10.0112427239
 10
0.2030548886
 20
10.0239622466
 10
0.203349427
 20
10.0308089591
  0
LINE
  5
41A
100
AcDbEntity
  8
RACCORDO
100
AcDbLine
 62
7
  6
CONTINUOUS
 10
10.2547374161
 20
-0.7369322032
 11
9.8755235855
 21
-0.3305504781
  0
LINE
  5
41B
100
AcDbEntity
  8
0
100
AcDbLine
 62
7
  6
CONTINUOUS
 10
13.0241328985
 20
-2.398718995
 11
13.6730605588
 21
-3.094137571
  0
LWPOLYLINE
  5
41C
100
AcDbEntity
  8
0
100
AcDbPolyline
 62
253
  6
CONTINUOUS
 90
15
 70
0
 10
-5.9525357703
 20
22.3615684349
 10
-5.9485663542
 20
22.3557302252
 10
-5.9450057216
 20
22.3501325684
 10
-5.9418621744
 20
22.3447882472
 10
-5.9391428968
 20
22.3397091205
 10
-5.9368545596
 20
22.3349072369
 10
-5.9350029812
 20
22.3303945969
 10
-5.9335924375
 20
22.3261817157
 10
-5.9326259445
 20
22.3222777247
 10
-5.9321056774
 20
22.318691366
 10
-5.9320328394
 20
22.3154307122
 10
-5.9324076319
 20
22.3125031934
 10
-5.9332292146
 20
22.3099154867
 10
-5.9344957221
 20
22.3076734485
 10
-5.9348233016
 20
22.3072403019
  0
LWPOLYLINE
  5
41D
100
AcDbEntity
  8
0
100
AcDbPolyline
 62
7
  6
CONTINUOUS
 90
3
 70
0
 10
2.1387213899
 20
15.0056978483
 10
2.1271154137
 20
15.0375741811
 10
2.1198841933
 20
15.0710542932
  0
LWPOLYLINE
  5
41E
100
AcDbEntity
  8
0
100
AcDbPolyline
 62
253
  6
CONTINUOUS
 90
16
 70
0
 10
6.4227400904
 20
-23.9147942197
 10
6.4216526781
 20
-23.9216110556
 10
6.4200067234
 20
-23.92839047
 10
6.4178059262
 20
-23.9351172123
 10
6.4150552333
 20
-23.9417761537
 10
6.4117608295
 20
-23.9483523157
 10
6.407930125
 20
-23.9548309021
 10
6.4035717354
 20
-23.9611973399
 10
6.3986954618
 20
-23.9674373107
 10
6.3933122723
 20
-23.9735367773
 10
6.3874342712
 20
-23.9794820237
 10
6.381074681
 20
-23.9852596744
 10
6.3742478182
 20
-23.990856724
 10
6.3669690441
 20
-23.9962605811
 10
6.359254728
 20
-24.0014590958
 10
6.3511222224
 20
-24.0064405765
  0
LWPOLYLINE
  5
41F
100
AcDbEntity
  8
0
100
AcDbPolyline
 62
253
  6
CONTINUOUS
 90
10
 70
0
 10
-1.230475231
 20
-22.1709776083
 10
-1.2429916403
 20
-22.1962501765
 10
-1.253978839
 20
-22.221922019
 10
-1.2633389328
 20
-22.247764422
 10
-1.2709885225
 20
-22.2735471476
 10
-1.2768594503
 20
-22.2990404942
 10
-1.2808994043
 20
-22.3240173427
 10
-1.2830723824
 20
-22.3482551666
 10
-1.2833590152
 20
-22.3715380158
 10
-1.2817567401
 20
-22.3936584492
  0
LINE
  5
420
100
AcDbEntity
  8
0
100
AcDbLine
 62
7
  6
CONTINUOUS
 10
-0.9144816842
 20
-22.0251684778
 11
-0.9142579125
 21
-22.02474578
  0
LINE
  5
421
100
AcDbEntity
  8
0
100
AcDbLine
 62
253
  6
CONTINUOUS
 10
-0.916675757
 20
-21.5787445214
 11
-1.230475231
 21
-22.1709776083
  0
LINE
  5
422
100
AcDbEntity
  8
RACCORDO
100
AcDbLine
 62
253
  6
CONTINUOUS
 10
9.3804226423
 20
-1.9612888035
 11
10.2547374161
 21
-0.7369322032
  0
LINE
  5
423
100
AcDbEntity
  8
RACCORDO
100
AcDbLine
 62
253
  6
CONTINUOUS
 10
12.7862507553
 20
2.8081011859
 11
15.720504853
 21
6.9171171596
  0
LINE
  5
424
100
AcDbEntity
  8
RACCORDO
100
AcDbLine
 62
7
  6
CONTINUOUS
 10
9.419531653
 20
-2.0031996884
 11
10.2859032237
 21
-0.7899664425
  0
LINE
  5
425
100
AcDbEntity
  8
RACCORDO
100
AcDbLine
 62
7
  6
CONTINUOUS
 10
12.8174165629
 20
2.7550669466
 11
15.7516706607
 21
6.8640829204
  0
LINE
  5
426
100
AcDbEntity
  8
0
100
AcDbLine
 62
7
  6
CONTINUOUS
 10
-1.403762226
 20
-16.8322630371
 11
-1.3515996561
 21
-16.7599713779
  0
LINE
  5
427
100
AcDbEntity
  8
0
100
AcDbLine
 62
7
  6
CONTINUOUS
 10
16.2779498683
 20
7.6726704152
 11
16.8571778337
 21
8.4754174947
  0
LINE
  5
428
100
AcDbEntity
  8
0
100
AcDbLine
 62
7
  6
CONTINUOUS
 10
-1.8135218021
 20
-17.8166196751
 11
-1.2461275392
 21
-17.0302728227
  0
LINE
  5
429
100
AcDbEntity
  8
0
100
AcDbLine
 62
7
  6
CONTINUOUS
 10
17.069309868
 20
8.3529351167
 11
17.6485378333
 21
9.1556821962
  0
LINE
  5
42A
100
AcDbEntity
  8
0
100
AcDbLine
 62
7
  6
CONTINUOUS
 10
6.9149053125
 20
-5.9584646439
 11
7.0787438457
 21
-5.7314022231
  0
LINE
  5
42B
100
AcDbEntity
  8
RACCORDO
100
AcDbLine
 62
253
  6
CONTINUOUS
 10
6.6818346992
 20
-5.7086962276
 11
6.8186236875
 21
-5.5210744931
  0
LINE
  5
42C
100
AcDbEntity
  8
RACCORDO
100
AcDbLine
 62
7
  6
CONTINUOUS
 10
6.7210373713
 20
-5.7507074841
 11
6.8497547827
 21
-5.57415684
  0
LWPOLYLINE
  5
42D
100
AcDbEntity
  8
ASSI
100
AcDbPolyline
 62
7
  6
CONTINUOUS
 90
33
 70
0
 10
7.9175287826
 20
-5.4091380449
 10
7.9152268393
 20
-5.411881974
 10
7.902984268
 20
-5.4191701873
 10
7.8846992547
 20
-5.4219633156
 10
7.8604866299
 20
-5.4203467833
 10
7.8308124339
 20
-5.4143517051
 10
7.7955708647
 20
-5.4038932594
 10
7.7548677244
 20
-5.3890562679
 10
7.7094864602
 20
-5.3701263105
 10
7.659336447
 20
-5.3470240976
 10
7.6045083098
 20
-5.3198289189
 10
7.5460573715
 20
-5.2890642224
 10
7.4839134507
 20
-5.2546608591
 10
7.4181467287
 20
-5.2166879781
 10
7.3500230723
 20
-5.175876475
 10
7.2794968227
 20
-5.1321713596
 10
7.2066136387
 20
-5.0856276221
 10
7.1327763636
 20
-5.0371411285
 10
7.0579665145
 20
-4.9866742436
 10
6.9822025743
 20
-4.9342646025
 10
6.9069428344
 20
-4.8809209772
 10
6.8321970624
 20
-4.8266252745
 10
6.7579554907
 20
-4.7713955876
 10
6.6856471086
 20
-4.7162949683
 10
6.6153093662
 20
-4.6613259168
 10
6.5469048133
 20
-4.6064859328
 10
6.4817500894
 20
-4.5528305671
 10
6.4199081505
 20
-4.5003827682
 10
6.3613160405
 20
-4.4491195876
 10
6.3071015304
 20
-4.4000277303
 10
6.257640544
 20
-4.3534360981
 10
6.2125571575
 20
-4.3090157892
 10
6.171851371
 20
-4.2667668036
  0
LINE
  5
42E
100
AcDbEntity
  8
0
100
AcDbLine
 62
7
  6
CONTINUOUS
 10
6.5587879856
 20
-8.2099076948
 11
5.8098953261
 21
-8.6126379319
  0
LWPOLYLINE
  5
42F
100
AcDbEntity
  8
0
100
AcDbPolyline
 62
253
  6
CONTINUOUS
 90
16
 70
0
 10
-4.4135528041
 20
-11.5323405762
 10
-4.4520768586
 20
-11.5463310895
 10
-4.4940524403
 20
-11.5579317489
 10
-4.5390196561
 20
-11.5670154551
 10
-4.5864858358
 20
-11.5734826852
 10
-4.6359309298
 20
-11.5772625827
 10
-4.6868132076
 20
-11.5783137344
 10
-4.7385751921
 20
-11.5766246237
 10
-4.7906497683
 20
-11.5722137567
 10
-4.8424663963
 20
-11.5651294598
 10
-4.8934573621
 20
-11.5554493502
 10
-4.9430639981
 20
-11.5432794851
 10
-4.9907428036
 20
-11.5287531999
 10
-5.0359713996
 20
-11.5120296475
 10
-5.078254252
 20
-11.4932920548
 10
-5.1171281012
 20
-11.4727457147
  0
LWPOLYLINE
  5
430
100
AcDbEntity
  8
RACCORDO
100
AcDbPolyline
 62
253
  6
CONTINUOUS
 90
3
 70
0
 10
0.2882893412
 20
10.5169541271
 10
0.2778971667
 20
10.5217508332
 10
0.2655457332
 20
10.5275520191
  0
LWPOLYLINE
  5
431
100
AcDbEntity
  8
RACCORDO
100
AcDbPolyline
 62
253
  6
CONTINUOUS
 90
7
 70
0
 10
0.2655457332
 20
10.5275520191
 10
0.2366442327
 20
10.541331953
 10
0.2210259174
 20
10.5488615987
 10
0.2053646917
 20
10.5566834794
 10
0.1901677081
 20
10.5646140408
 10
0.1758638272
 20
10.5723610869
 10
0.1628726046
 20
10.5796983677
  0
LWPOLYLINE
  5
432
100
AcDbEntity
  8
RACCORDO
100
AcDbPolyline
 62
253
  6
CONTINUOUS
 90
8
 70
0
 10
0.9150645177
 20
11.0321481593
 10
0.8963599302
 20
11.0412371389
 10
0.8781016935
 20
11.0474565257
 10
0.8606018641
 20
11.0507000856
 10
0.8441594964
 20
11.0509124478
 10
0.82905562
 20
11.048090045
 10
0.8155484127
 20
11.0422812242
 10
0.8124482619
 20
11.0403725887
  0
LWPOLYLINE
  5
433
100
AcDbEntity
  8
RACCORDO
100
AcDbPolyline
 62
253
  6
CONTINUOUS
 90
11
 70
0
 10
-13.4637297463
 20
17.8760134794
 10
-13.4443103362
 20
17.8658859272
 10
-13.4228757176
 20
17.8568715581
 10
-13.3997845992
 20
17.8491212278
 10
-13.3754234107
 20
17.842764638
 10
-13.3501998369
 20
17.8379081663
 10
-13.3245359944
 20
17.8346330853
 10
-13.2988613677
 20
17.8329942037
 10
-13.2736056217
 20
17.833018948
 10
-13.2491914115
 20
17.8347069042
 10
-13.2289874004
 20
17.8376051954
  0
LINE
  5
434
100
AcDbEntity
  8
RACCORDO
100
AcDbLine
 62
253
  6
CONTINUOUS
 10
-14.0453532875
 20
18.2118212008
 11
-13.4637444565
 21
17.876007551
  0
LINE
  5
435
100
AcDbEntity
  8
RACCORDO
100
AcDbLine
 62
253
  6
CONTINUOUS
 10
-13.2098592393
 20
17.7294174085
 11
0.0082325235
 21
10.0974568863
  0
LINE
  5
436
100
AcDbEntity
  8
RACCORDO
100
AcDbLine
 62
253
  6
CONTINUOUS
 10
0.2621177408
 20
9.9508667437
 11
0.8437265718
 21
9.615053094
  0
LINE
  5
437
100
AcDbEntity
  8
RACCORDO
100
AcDbLine
 62
7
  6
CONTINUOUS
 10
12.4588992745
 20
2.9369722175
 11
12.6957932083
 21
2.8001926291
  0
LINE
  5
438
100
AcDbEntity
  8
DRAFT
100
AcDbLine
 62
7
  6
CONTINUOUS
 10
12.1518975174
 20
3.3587183513
 11
12.4132662084
 21
3.2078073448
  0
LINE
  5
439
100
AcDbEntity
  8
RACCORDO
100
AcDbLine
 62
253
  6
CONTINUOUS
 10
-13.3889389206
 20
19.2911004732
 11
-12.7923038657
 21
18.9466108701
  0
LINE
  5
43A
100
AcDbEntity
  8
RACCORDO
100
AcDbLine
 62
253
  6
CONTINUOUS
 10
-12.542046288
 20
18.8021152812
 11
0.66480694
 21
11.1766437482
  0
LINE
  5
43B
100
AcDbEntity
  8
RACCORDO
100
AcDbLine
 62
253
  6
CONTINUOUS
 10
0.9150645177
 20
11.0321481593
 11
1.5116995726
 21
10.6876585562
  0
LWPOLYLINE
  5
43C
100
AcDbEntity
  8
RACCORDO
100
AcDbPolyline
 62
253
  6
CONTINUOUS
 90
11
 70
0
 10
-12.7923038657
 20
18.9466108701
 10
-12.7741159894
 20
18.9343987709
 10
-12.7561124587
 20
18.9196814787
 10
-12.7386009613
 20
18.902710518
 10
-12.7218807763
 20
18.8837759296
 10
-12.7062376581
 20
18.8632013134
 10
-12.6919389536
 20
18.8413382987
 10
-12.6792290335
 20
18.8185605335
 10
-12.6683251155
 20
18.795257299
 10
-12.659413552
 20
18.7718268572
 10
-12.656840248
 20
18.7630206843
  0
LWPOLYLINE
  5
43D
100
AcDbEntity
  8
0
100
AcDbPolyline
 62
7
  6
CONTINUOUS
 90
21
 70
0
 10
12.6278733728
 20
-15.833540061
 10
12.6276684049
 20
-15.8252665736
 10
12.6267040599
 20
-15.8137884669
 10
12.6249455706
 20
-15.8023418052
 10
12.6223966939
 20
-15.7909264397
 10
12.6190695269
 20
-15.7795965469
 10
12.6149603698
 20
-15.7683525333
 10
12.6100729223
 20
-15.7571939924
 10
12.6044303799
 20
-15.7461738822
 10
12.5980291533
 20
-15.7352928606
 10
12.5908728317
 20
-15.7245502696
 10
12.5829953788
 20
-15.7139970929
 10
12.5743933666
 20
-15.7036342309
 10
12.565070223
 20
-15.6934607832
 10
12.5550701951
 20
-15.6835250324
 10
12.5443900653
 20
-15.6738281084
 10
12.5330330512
 20
-15.6643688813
 10
12.5210530525
 20
-15.655192244
 10
12.5084680359
 20
-15.6463131609
 10
12.4952600346
 20
-15.6377166677
 10
12.4814290488
 20
-15.6294027643
  0
LINE
  5
43E
100
AcDbEntity
  8
0
100
AcDbLine
 62
7
  6
CONTINUOUS
 10
12.1762534607
 20
-15.4531982045
 11
12.1762534607
 21
-14.6680279619
  0
LINE
  5
43F
100
AcDbEntity
  8
0
100
AcDbLine
 62
7
  6
CONTINUOUS
 10
12.1762534607
 20
17.8900891228
 11
12.1762534607
 21
17.9082517527
  0
LINE
  5
440
100
AcDbEntity
  8
DRAFT
100
AcDbLine
 62
253
  6
CONTINUOUS
 10
12.4875455583
 20
-16.4861920969
 11
12.4875455583
 21
-16.0340835795
  0
LINE
  5
441
100
AcDbEntity
  8
DRAFT
100
AcDbLine
 62
253
  6
CONTINUOUS
 10
12.4875455583
 20
18.0943739905
 11
12.4875455583
 21
18.546482508
  0
LINE
  5
442
100
AcDbEntity
  8
0
100
AcDbLine
 62
7
  6
CONTINUOUS
 10
12.6278756582
 20
-16.4016810223
 11
12.6278756582
 21
-15.833540061
  0
LINE
  5
443
100
AcDbEntity
  8
0
100
AcDbLine
 62
7
  6
CONTINUOUS
 10
12.6278756582
 20
18.294917509
 11
12.6278756582
 21
18.8630584703
  0
LWPOLYLINE
  5
444
100
AcDbEntity
  8
0
100
AcDbPolyline
 62
7
  6
CONTINUOUS
 90
7
 70
0
 10
12.1762534607
 20
17.8900891228
 10
12.1748090379
 20
17.8649843158
 10
12.1705705634
 20
17.8425495186
 10
12.1635380373
 20
17.8227847314
 10
12.15338868
 20
17.805337462
 10
12.140445271
 20
17.7905602026
 10
12.1360262291
 20
17.7866943758
  0
LINE
  5
445
100
AcDbEntity
  8
DRAFT
100
AcDbLine
 62
7
  6
CONTINUOUS
 10
10.7495430718
 20
-5.7752133596
 11
11.7002289602
 21
-4.4472922597
  0
LINE
  5
446
100
AcDbEntity
  8
0
100
AcDbLine
 62
7
  6
CONTINUOUS
 10
8.242407695
 20
-7.3810728529
 11
8.7404447815
 21
-6.6908475174
  0
LINE
  5
447
100
AcDbEntity
  8
ASSI
100
AcDbLine
 62
7
  6
CONTINUOUS
 10
7.248794078
 20
-10.3120690864
 11
7.5436219978
 21
-9.9034695959
  0
LINE
  5
448
100
AcDbEntity
  8
0
100
AcDbLine
 62
7
  6
CONTINUOUS
 10
11.61323683
 20
-4.3540677803
 11
13.0241328985
 21
-2.398718995
  0
LINE
  5
449
100
AcDbEntity
  8
DRAFT
100
AcDbLine
 62
7
  6
CONTINUOUS
 10
9.7887766745
 20
-7.0963576221
 11
10.7495430718
 21
-5.7752133596
  0
LINE
  5
44A
100
AcDbEntity
  8
0
100
AcDbLine
 62
7
  6
CONTINUOUS
 10
7.248794078
 20
-8.6083085647
 11
5.8098953261
 21
-9.3821017489
  0
LINE
  5
44B
100
AcDbEntity
  8
RACCORDO
100
AcDbLine
 62
7
  6
CONTINUOUS
 10
-11.3654651939
 20
19.8270442317
 11
2.2929466064
 21
11.9408484383
  0
LINE
  5
44C
100
AcDbEntity
  8
DRAFT
100
AcDbLine
 62
7
  6
CONTINUOUS
 10
13.8840034103
 20
5.2584465376
 11
13.628928829
 21
5.405723404
  0
LINE
  5
44D
100
AcDbEntity
  8
DRAFT
100
AcDbLine
 62
7
  6
CONTINUOUS
 10
-5.879762178
 20
17.6049405011
 11
-1.6371214909
 21
15.1552929411
  0
LWPOLYLINE
  5
44E
100
AcDbEntity
  8
0
100
AcDbPolyline
 62
253
  6
CONTINUOUS
 90
3
 70
0
 10
-10.0717748162
 20
22.0015453265
 10
-10.0666883304
 20
21.9977864693
 10
-10.0613731077
 20
21.9944446574
  0
LINE
  5
44F
100
AcDbEntity
  8
0
100
AcDbLine
 62
7
  6
CONTINUOUS
 10
12.1518975174
 20
3.3587183513
 11
12.4966403369
 21
2.9892772327
  0
LINE
  5
450
100
AcDbEntity
  8
RACCORDO
100
AcDbLine
 62
7
  6
CONTINUOUS
 10
12.4132662084
 20
3.2078073448
 11
12.7862507553
 21
2.8081011859
  0
LWPOLYLINE
  5
451
100
AcDbEntity
  8
0
100
AcDbPolyline
 62
7
  6
CONTINUOUS
 90
3
 70
0
 10
1.6400453021
 20
23.7483564707
 10
1.6398002403
 20
23.7489324464
 10
1.6396456144
 20
23.7490437817
  0
LWPOLYLINE
  5
452
100
AcDbEntity
  8
0
100
AcDbPolyline
 62
253
  6
CONTINUOUS
 90
14
 70
0
 10
6.3511222224
 20
-23.678795276
 10
6.3550949361
 20
-23.6678473459
 10
6.3586573947
 20
-23.6566951058
 10
6.361801558
 20
-23.6453637257
 10
6.3645203297
 20
-23.6338787798
 10
6.3668075737
 20
-23.622266189
 10
6.3686581279
 20
-23.6105521621
 10
6.3700678156
 20
-23.5987631371
 10
6.3710334554
 20
-23.5869257211
 10
6.3715528677
 20
-23.5750666304
 10
6.3716248803
 20
-23.5632126304
 10
6.3712493307
 20
-23.5513904747
 10
6.3704270664
 20
-23.5396268453
 10
6.3691599434
 20
-23.527948292
  0
LINE
  5
453
100
AcDbEntity
  8
ASSI
100
AcDbLine
 62
7
  6
CONTINUOUS
 10
8.228996001
 20
-10.2991959556
 11
7.248794078
 21
-11.657649411
  0
LINE
  5
454
100
AcDbEntity
  8
0
100
AcDbLine
 62
7
  6
CONTINUOUS
 10
13.6730605588
 20
-3.094137571
 11
8.4020860742
 21
-10.3991359945
  0
LINE
  5
455
100
AcDbEntity
  8
0
100
AcDbLine
 62
7
  6
CONTINUOUS
 10
7.248794078
 20
-11.8886185273
 11
7.8301020145
 21
-11.5410532187
  0
LWPOLYLINE
  5
456
100
AcDbEntity
  8
0
100
AcDbPolyline
 62
253
  6
CONTINUOUS
 90
37
 70
0
 10
0.8323428639
 20
-15.8523313668
 10
0.8165079845
 20
-15.8611216117
 10
0.8000560269
 20
-15.869508917
 10
0.7830176166
 20
-15.8774776695
 10
0.7654244705
 20
-15.8850130355
 10
0.7473093384
 20
-15.8921009878
 10
0.7287059417
 20
-15.8987283321
 10
0.7096489108
 20
-15.9048827317
 10
0.6901737203
 20
-15.91055273
 10
0.6703166234
 20
-15.9157277724
 10
0.6501145843
 20
-15.9203982255
 10
0.6296052091
 20
-15.9245553952
 10
0.608826676
 20
-15.9281915429
 10
0.5878176645
 20
-15.9312998999
 10
0.5666172829
 20
-15.93387468
 10
0.5452649958
 20
-15.9359110903
 10
0.5238005506
 20
-15.9374053399
 10
0.5022639035
 20
-15.9383546473
 10
0.480695145
 20
-15.9387572454
 10
0.4591344254
 20
-15.9386123847
 10
0.4376218802
 20
-15.9379203348
 10
0.4161975551
 20
-15.9366823841
 10
0.3949013315
 20
-15.9349008369
 10
0.3737728525
 20
-15.9325790097
 10
0.3528514488
 20
-15.9297212245
 10
0.3321760656
 20
-15.9263328012
 10
0.3117851905
 20
-15.9224200472
 10
0.2917167809
 20
-15.9179902461
 10
0.2720081944
 20
-15.9130516442
 10
0.2526961187
 20
-15.9076134346
 10
0.2338165031
 20
-15.9016857405
 10
0.2154044923
 20
-15.8952795965
 10
0.1974943602
 20
-15.8884069275
 10
0.1801194467
 20
-15.881080527
 10
0.1633120952
 20
-15.8733140333
 10
0.1471035927
 20
-15.8651219036
 10
0.1315241114
 20
-15.8565193876
  0
LWPOLYLINE
  5
457
100
AcDbEntity
  8
0
100
AcDbPolyline
 62
7
  6
CONTINUOUS
 90
37
 70
0
 10
4.6506648414
 20
13.831050171
 10
4.657593
 20
13.8305278507
 10
4.6660591553
 20
13.8301992114
 10
4.6746021766
 20
13.8301898776
 10
4.6832088537
 20
13.8304995673
 10
4.6918663067
 20
13.8311274448
 10
4.7005643838
 20
13.8320585063
 10
4.7092906625
 20
13.8332916877
 10
4.7180330614
 20
13.8348255786
 10
4.7267824463
 20
13.8366445853
 10
4.7355272541
 20
13.8387469949
 10
4.7442562159
 20
13.8411309014
 10
4.7529611145
 20
13.8437804094
 10
4.7616312643
 20
13.8466932737
 10
4.7702562202
 20
13.8498671585
 10
4.7788285588
 20
13.8532860595
 10
4.7873384665
 20
13.8569472944
 10
4.7957763216
 20
13.8608481547
 10
4.8041353754
 20
13.8649726444
 10
4.8124066684
 20
13.8693177191
 10
4.8205813961
 20
13.8738803473
 10
4.8286533862
 20
13.8786446082
 10
4.8366145114
 20
13.8836071516
 10
4.8444567769
 20
13.8887646691
 10
4.8521745215
 20
13.894101354
 10
4.8597604284
 20
13.8996135944
 10
4.8672073069
 20
13.9052978469
 10
4.8745099737
 20
13.9111384519
 10
4.8816619032
 20
13.9171315673
 10
4.8886567067
 20
13.9232734584
 10
4.8954896846
 20
13.9295486588
 10
4.9021550886
 20
13.9359531264
 10
4.9086473291
 20
13.942482976
 10
4.9149622183
 20
13.9491230014
 10
4.9210950671
 20
13.9558654219
 10
4.9270407709
 20
13.9627098207
 10
4.9327948679
 20
13.9696520104
  0
LINE
  5
458
100
AcDbEntity
  8
0
100
AcDbLine
 62
7
  6
CONTINUOUS
 10
7.231206327
 20
12.6485664109
 11
6.5302703732
 21
12.7081181933
  0
LINE
  5
459
100
AcDbEntity
  8
0
100
AcDbLine
 62
7
  6
CONTINUOUS
 10
4.022905685
 20
13.8888559269
 11
4.6506646364
 21
13.8310511595
  0
LINE
  5
45A
100
AcDbEntity
  8
0
100
AcDbLine
 62
253
  6
CONTINUOUS
 10
4.2215742598
 20
14.0351420232
 11
4.9327948679
 21
13.9696520104
  0
LINE
  5
45B
100
AcDbEntity
  8
0
100
AcDbLine
 62
7
  6
CONTINUOUS
 10
7.248794078
 20
12.6384114639
 11
6.5653171709
 21
12.7051406042
  0
LWPOLYLINE
  5
45C
100
AcDbEntity
  8
0
100
AcDbPolyline
 62
7
  6
CONTINUOUS
 90
9
 70
0
 10
4.022905685
 20
13.8888559269
 10
4.009519579
 20
13.8904535789
 10
3.9961497635
 20
13.892788537
 10
3.98285199
 20
13.8958649569
 10
3.9696277007
 20
13.8996990738
 10
3.9565982175
 20
13.9042693109
 10
3.9439789671
 20
13.909490309
 10
3.9318532552
 20
13.9152953901
 10
3.9207723234
 20
13.9213291466
  0
LWPOLYLINE
  5
45D
100
AcDbEntity
  8
RACCORDO
100
AcDbPolyline
 62
253
  6
CONTINUOUS
 90
5
 70
0
 10
2.7576414438
 20
14.4721349813
 10
2.7761408113
 20
14.462905303
 10
2.7941971166
 20
14.4565495882
 10
2.8115015289
 20
14.4531765201
 10
2.8202838793
 20
14.4529967544
  0
LWPOLYLINE
  5
45E
100
AcDbEntity
  8
RACCORDO
100
AcDbPolyline
 62
253
  6
CONTINUOUS
 90
16
 70
0
 10
4.4462529739
 20
13.1126992162
 10
4.4824447763
 20
13.0942358447
 10
4.5207024002
 20
13.0785417257
 10
4.5610258455
 20
13.0656168593
 10
4.6038929601
 20
13.0554115509
 10
4.6488258962
 20
13.047975495
 10
4.69439111
 20
13.0434577758
 10
4.7405495995
 20
13.041926915
 10
4.7873403668
 20
13.0433143909
 10
4.8334468747
 20
13.0475637228
 10
4.8788854959
 20
13.0547401227
 10
4.9236398577
 20
13.0647783788
 10
4.9663443046
 20
13.0774263738
 10
5.0065436183
 20
13.092600069
 10
5.0446930172
 20
13.1103835033
 10
5.0807925013
 20
13.1307766766
  0
LWPOLYLINE
  5
45F
100
AcDbEntity
  8
RACCORDO
100
AcDbPolyline
 62
253
  6
CONTINUOUS
 90
16
 70
0
 10
-7.8574050187
 20
20.2166771401
 10
-7.8212132163
 20
20.1982137686
 10
-7.7829555924
 20
20.1825196496
 10
-7.7426321471
 20
20.1695947832
 10
-7.6997650325
 20
20.1593894748
 10
-7.6548320965
 20
20.1519534189
 10
-7.6092668826
 20
20.1474356997
 10
-7.5631083931
 20
20.1459048389
 10
-7.5163176258
 20
20.1472923148
 10
-7.4702111179
 20
20.1515416467
 10
-7.4247724968
 20
20.1587180467
 10
-7.380018135
 20
20.1687563027
 10
-7.337313688
 20
20.1814042977
 10
-7.2971143743
 20
20.1965779929
 10
-7.2589649754
 20
20.2143614272
 10
-7.2228654914
 20
20.2347546005
  0
LWPOLYLINE
  5
460
100
AcDbEntity
  8
RACCORDO
100
AcDbPolyline
 62
253
  6
CONTINUOUS
 90
16
 70
0
 10
4.5802729082
 20
13.3531509132
 10
4.5998950024
 20
13.3430790653
 10
4.6211933296
 20
13.3344839046
 10
4.6439155396
 20
13.3274508957
 10
4.667789015
 20
13.3220620984
 10
4.6925497481
 20
13.3183552452
 10
4.7179485609
 20
13.3163289225
 10
4.7436848116
 20
13.3160087631
 10
4.7695026837
 20
13.3173950489
 10
4.795222027
 20
13.320445299
 10
4.8205810573
 20
13.3251555716
 10
4.8452905595
 20
13.3314949074
 10
4.8691276907
 20
13.3393816741
 10
4.8918379254
 20
13.3487528602
 10
4.9131436681
 20
13.3595543837
 10
4.9327948679
 20
13.3717020381
  0
LWPOLYLINE
  5
461
100
AcDbEntity
  8
RACCORDO
100
AcDbPolyline
 62
253
  6
CONTINUOUS
 90
16
 70
0
 10
-7.7233850844
 20
20.4571288371
 10
-7.7037629902
 20
20.4470569892
 10
-7.682464663
 20
20.4384618285
 10
-7.6597424531
 20
20.4314288196
 10
-7.6358689776
 20
20.4260400223
 10
-7.6111082446
 20
20.4223331691
 10
-7.5857094318
 20
20.4203068464
 10
-7.559973181
 20
20.419986687
 10
-7.5341553089
 20
20.4213729728
 10
-7.5084359656
 20
20.4244232229
 10
-7.4830769354
 20
20.4291334955
 10
-7.4583674331
 20
20.4354728313
 10
-7.434530302
 20
20.443359598
 10
-7.4118200673
 20
20.4527307841
 10
-7.3905143245
 20
20.4635323076
 10
-7.3708631248
 20
20.475679962
  0
LWPOLYLINE
  5
462
100
AcDbEntity
  8
0
100
AcDbPolyline
 62
253
  6
CONTINUOUS
 90
34
 70
0
 10
3.8690523001
 20
14.0357341039
 10
3.8776319206
 20
14.0310098806
 10
3.886589799
 20
14.0265258235
 10
3.8959057902
 20
14.0222920169
 10
3.9055589319
 20
14.0183179866
 10
3.9155275259
 20
14.0146126647
 10
3.9257891904
 20
14.0111843726
 10
3.9363208757
 20
14.0080408161
 10
3.9470988757
 20
14.0051890762
 10
3.9580989149
 20
14.0026355779
 10
3.9692962417
 20
14.0003860664
 10
3.9806656864
 20
13.9984455974
 10
3.9921816794
 20
13.9968185351
 10
4.0038183215
 20
13.9955085386
 10
4.0155494429
 20
13.994518554
 10
4.0273486614
 20
13.9938508076
 10
4.0391894498
 20
13.993506801
 10
4.0510451703
 20
13.9934873086
 10
4.0628891342
 20
13.993792373
 10
4.0746946883
 20
13.994421305
 10
4.0864353004
 20
13.9953726883
 10
4.0980845926
 20
13.9966443843
 10
4.1096164519
 20
13.9982335461
 10
4.1210048568
 20
14.0001365915
 10
4.1322239716
 20
14.002349193
 10
4.1432484306
 20
14.0048663206
 10
4.1540536071
 20
14.0076823235
 10
4.1646154289
 20
14.0107909171
 10
4.1749109698
 20
14.0141853982
 10
4.1849162085
 20
14.0178578925
 10
4.1946065176
 20
14.0217992316
 10
4.2039596468
 20
14.0260000559
 10
4.2129555466
 20
14.0304510398
 10
4.2215742598
 20
14.0351420232
  0
LWPOLYLINE
  5
463
100
AcDbEntity
  8
0
100
AcDbPolyline
 62
253
  6
CONTINUOUS
 90
34
 70
0
 10
3.8690523001
 20
14.3562542767
 10
3.877632503
 20
14.3515297476
 10
3.8865910263
 20
14.3470454108
 10
3.8959077221
 20
14.3428113538
 10
3.905561643
 20
14.3388370984
 10
3.9155310707
 20
14.3351315876
 10
3.9257935634
 20
14.3317031633
 10
3.9363260323
 20
14.3285595382
 10
3.9471047927
 20
14.3257077805
 10
3.9581055972
 20
14.3231543049
 10
3.9693037038
 20
14.3209048538
 10
3.9806739235
 20
14.3189644863
 10
3.9921906731
 20
14.3173375671
 10
4.0038280464
 20
14.3160277544
 10
4.0155598703
 20
14.3150379924
 10
4.0273597534
 20
14.3143705059
 10
4.0392011616
 20
14.3140267944
 10
4.0510574552
 20
14.3140076296
 10
4.0629019457
 20
14.314313052
 10
4.0747079604
 20
14.3149423688
 10
4.0864489799
 20
14.3158941615
 10
4.098098674
 20
14.3171662952
 10
4.1096309478
 20
14.3187559278
 10
4.1210197525
 20
14.3206594763
 10
4.1322392312
 20
14.3228726109
 10
4.1432640137
 20
14.3253903009
 10
4.1540694692
 20
14.3282068949
 10
4.1646315071
 20
14.3313161033
 10
4.174927901
 20
14.3347114656
 10
4.1849338817
 20
14.3383848981
 10
4.1946228225
 20
14.3423263764
 10
4.2039720427
 20
14.346526074
 10
4.2129624194
 20
14.3509747798
 10
4.2215742598
 20
14.3556621961
  0
LWPOLYLINE
  5
464
100
AcDbEntity
  8
0
100
AcDbPolyline
 62
253
  6
CONTINUOUS
 90
34
 70
0
 10
-8.4346056925
 20
21.1397120278
 10
-8.4260267006
 20
21.1349881345
 10
-8.4170695035
 20
21.1305043723
 10
-8.407754242
 20
21.1262708233
 10
-8.3981018622
 20
21.1222970069
 10
-8.3881340683
 20
21.1185918586
 10
-8.3778732736
 20
21.1151637097
 10
-8.3673425503
 20
21.1120202686
 10
-8.3565655774
 20
21.1091686036
 10
-8.3455665878
 20
21.1066151269
 10
-8.3343703137
 20
21.1043655802
 10
-8.3230019306
 20
21.1024250217
 10
-8.3114870012
 20
21.100797815
 10
-8.2998514177
 20
21.0994876189
 10
-8.2881213437
 20
21.0984973794
 10
-8.276323155
 20
21.0978293234
 10
-8.2644833808
 20
21.0974849528
 10
-8.2526286437
 20
21.0974650421
 10
-8.2407856
 20
21.097769636
 10
-8.2289808797
 20
21.0983980497
 10
-8.2172410266
 20
21.09934887
 10
-8.2055924385
 20
21.100619959
 10
-8.1940613084
 20
21.1022084586
 10
-8.1826735647
 20
21.1041107969
 10
-8.1714548137
 20
21.1063226963
 10
-8.1604302815
 20
21.1088391833
 10
-8.1496247578
 20
21.1116545992
 10
-8.1390625395
 20
21.1147626135
 10
-8.1287673765
 20
21.1181562375
 10
-8.1187624184
 20
21.1218278404
 10
-8.109070162
 20
21.1257691664
 10
-8.0997124011
 20
21.129971353
 10
-8.0907101773
 20
21.1344249513
 10
-8.0820837329
 20
21.1391199472
  0
LWPOLYLINE
  5
465
100
AcDbEntity
  8
0
100
AcDbPolyline
 62
253
  6
CONTINUOUS
 90
34
 70
0
 10
-8.4346056925
 20
21.4602322006
 10
-8.4260407608
 20
21.4555156904
 10
-8.4170949775
 20
21.4510366997
 10
-8.4077879485
 20
21.4468055836
 10
-8.3981387635
 20
21.442831625
 10
-8.3881699763
 20
21.4391246962
 10
-8.3779079849
 20
21.4356948558
 10
-8.3673774234
 20
21.4325502552
 10
-8.3566005027
 20
21.4296974473
 10
-8.3456012652
 20
21.4271428056
 10
-8.3344042951
 20
21.4248920647
 10
-8.3230349023
 20
21.4229503366
 10
-8.3115188846
 20
21.4213220345
 10
-8.2998822483
 20
21.4200108282
 10
-8.2881510644
 20
21.4190196481
 10
-8.2763516419
 20
21.4183507173
 10
-8.2645104861
 20
21.4180055432
 10
-8.252654261
 20
21.417984908
 10
-8.2408096527
 20
21.4182888606
 10
-8.2290033072
 20
21.4189167188
 10
-8.2172617736
 20
21.4198670724
 10
-8.2056114647
 20
21.4211377851
 10
-8.1940785829
 20
21.4227260007
 10
-8.1826890699
 20
21.4246281482
 10
-8.1714685522
 20
21.4268399489
 10
-8.1604422687
 20
21.4293564285
 10
-8.1496350186
 20
21.4321719278
 10
-8.1390711131
 20
21.4352801139
 10
-8.1287743078
 20
21.4386739981
 10
-8.1187677679
 20
21.4423459457
 10
-8.1090740182
 20
21.4462876908
 10
-8.0997148661
 20
21.4504903637
 10
-8.0907113547
 20
21.4549445132
 10
-8.0820837329
 20
21.45964012
  0
LINE
  5
466
100
AcDbEntity
  8
RACCORDO
100
AcDbLine
 62
253
  6
CONTINUOUS
 10
-9.544170743
 20
21.1905945292
 11
-7.8574050187
 21
20.2166771401
  0
LINE
  5
467
100
AcDbEntity
  8
RACCORDO
100
AcDbLine
 62
253
  6
CONTINUOUS
 10
2.7594872497
 20
14.0866166053
 11
4.4462529739
 21
13.1126992162
  0
LINE
  5
468
100
AcDbEntity
  8
0
100
AcDbLine
 62
7
  6
CONTINUOUS
 10
0.7255154857
 20
15.423879265
 11
0.0599347839
 21
15.8081772205
  0
LINE
  5
469
100
AcDbEntity
  8
0
100
AcDbLine
 62
7
  6
CONTINUOUS
 10
-4.8898126844
 20
18.6660993738
 11
-5.5553933861
 21
19.0503973293
  0
LINE
  5
46A
100
AcDbEntity
  8
RACCORDO
100
AcDbLine
 62
253
  6
CONTINUOUS
 10
-9.4101508086
 20
21.4310462261
 11
-7.7233850844
 21
20.4571288371
  0
LINE
  5
46B
100
AcDbEntity
  8
RACCORDO
100
AcDbLine
 62
253
  6
CONTINUOUS
 10
2.893507184
 20
14.3270683022
 11
4.5802729082
 21
13.3531509132
  0
LINE
  5
46C
100
AcDbEntity
  8
0
100
AcDbLine
 62
7
  6
CONTINUOUS
 10
-10.0613731077
 20
21.9944446574
 11
-8.3828350372
 21
21.0252778125
  0
LINE
  5
46D
100
AcDbEntity
  8
0
100
AcDbLine
 62
7
  6
CONTINUOUS
 10
2.242284885
 20
14.8904667334
 11
3.9208229554
 21
13.9212998886
  0
LINE
  5
46E
100
AcDbEntity
  8
0
100
AcDbLine
 62
253
  6
CONTINUOUS
 10
-10.1131437629
 20
22.1088788726
 11
-8.4346056925
 21
21.1397120278
  0
LINE
  5
46F
100
AcDbEntity
  8
0
100
AcDbLine
 62
253
  6
CONTINUOUS
 10
2.1905142297
 20
15.0049009487
 11
3.8690523001
 21
14.0357341039
  0
LINE
  5
470
100
AcDbEntity
  8
0
100
AcDbLine
 62
253
  6
CONTINUOUS
 10
3.8690523001
 20
14.3562542767
 11
2.1905142297
 21
15.3254211216
  0
LINE
  5
471
100
AcDbEntity
  8
0
100
AcDbLine
 62
253
  6
CONTINUOUS
 10
-8.4346056925
 20
21.4602322006
 11
-10.1131437629
 21
22.4293990455
  0
LINE
  5
472
100
AcDbEntity
  8
0
100
AcDbLine
 62
7
  6
CONTINUOUS
 10
-4.1827059032
 20
19.1171633612
 11
-2.5563603064
 21
18.1781317965
  0
LINE
  5
473
100
AcDbEntity
  8
0
100
AcDbLine
 62
7
  6
CONTINUOUS
 10
-0.8593040316
 20
17.1982727725
 11
0.0599347839
 21
16.6675158012
  0
LINE
  5
474
100
AcDbEntity
  8
0
100
AcDbLine
 62
7
  6
CONTINUOUS
 10
7.248794078
 20
12.6384114639
 11
7.231206327
 21
12.6485664109
  0
LINE
  5
475
100
AcDbEntity
  8
0
100
AcDbLine
 62
253
  6
CONTINUOUS
 10
4.0448005561
 20
14.661843232
 11
2.3662624857
 21
15.6310100768
  0
LINE
  5
476
100
AcDbEntity
  8
0
100
AcDbLine
 62
253
  6
CONTINUOUS
 10
-8.2588574365
 20
21.7658211559
 11
-9.9373955069
 21
22.7349880007
  0
LINE
  5
477
100
AcDbEntity
  8
0
100
AcDbLine
 62
253
  6
CONTINUOUS
 10
3.9207723234
 20
13.9213291466
 11
3.9208229554
 21
13.9212998886
  0
LWPOLYLINE
  5
478
100
AcDbEntity
  8
0
100
AcDbPolyline
 62
253
  6
CONTINUOUS
 90
15
 70
0
 10
-10.1131437629
 20
22.1088788726
 10
-10.1213258306
 20
22.1138326379
 10
-10.1290919449
 20
22.1190048047
 10
-10.1364246407
 20
22.1243837413
 10
-10.1433074196
 20
22.1299573443
 10
-10.1497248119
 20
22.1357130855
 10
-10.1556624055
 20
22.141638042
 10
-10.1611068543
 20
22.1477189051
 10
-10.1660458944
 20
22.1539419872
 10
-10.1704683982
 20
22.160293272
 10
-10.1743644155
 20
22.1667584681
 10
-10.1777251898
 20
22.173323043
 10
-10.1805431628
 20
22.179972233
 10
-10.1828119971
 20
22.1866910844
 10
-10.1845265903
 20
22.1934644868
  0
LWPOLYLINE
  5
479
100
AcDbEntity
  8
0
100
AcDbPolyline
 62
253
  6
CONTINUOUS
 90
18
 70
0
 10
-10.1131437629
 20
22.4293990455
 10
-10.121312472
 20
22.4343443297
 10
-10.1290698116
 20
22.4395095129
 10
-10.1363978476
 20
22.4448832748
 10
-10.1432805024
 20
22.4504545933
 10
-10.1497006776
 20
22.456210446
 10
-10.1556409528
 20
22.4621355913
 10
-10.1610872099
 20
22.4682158055
 10
-10.1660280998
 20
22.4744382644
 10
-10.170452584
 20
22.4807890863
 10
-10.1743507304
 20
22.4872540765
 10
-10.1777136855
 20
22.4938186214
 10
-10.1805338057
 20
22.5004678257
 10
-10.1828047353
 20
22.5071866737
 10
-10.1845213991
 20
22.5139601122
 10
-10.1856799466
 20
22.5207729509
 10
-10.1862777671
 20
22.5276098858
 10
-10.1863670675
 20
22.5314633194
  0
LWPOLYLINE
  5
47A
100
AcDbEntity
  8
0
100
AcDbPolyline
 62
253
  6
CONTINUOUS
 90
15
 70
0
 10
2.1905142297
 20
15.0049009487
 10
2.182332162
 20
15.009854714
 10
2.1745660477
 20
15.0150268808
 10
2.167233352
 20
15.0204058174
 10
2.160350573
 20
15.0259794204
 10
2.1539331808
 20
15.0317351616
 10
2.1479955872
 20
15.0376601181
 10
2.1425511384
 20
15.0437409812
 10
2.1376120983
 20
15.0499640633
 10
2.1331895945
 20
15.0563153481
 10
2.1292935771
 20
15.0627805442
 10
2.1259328028
 20
15.0693451191
 10
2.1231148298
 20
15.0759943091
 10
2.1208459955
 20
15.0827131605
 10
2.1191314023
 20
15.0894865629
  0
LWPOLYLINE
  5
47B
100
AcDbEntity
  8
0
100
AcDbPolyline
 62
253
  6
CONTINUOUS
 90
18
 70
0
 10
2.1905142297
 20
15.3254211216
 10
2.1823316324
 20
15.3303752232
 10
2.1745650337
 20
15.3355477623
 10
2.1672319042
 20
15.3409271057
 10
2.1603487354
 20
15.3465011586
 10
2.1539310159
 20
15.3522573812
 10
2.1479931935
 20
15.3581828158
 10
2.1425486258
 20
15.3642641314
 10
2.1376095549
 20
15.3704876526
 10
2.1331870904
 20
15.3768393792
 10
2.1292911777
 20
15.3833050256
 10
2.1259305791
 20
15.389870048
 10
2.123112854
 20
15.3965196748
 10
2.1208443379
 20
15.4032389483
 10
2.1191301303
 20
15.4100127564
 10
2.1179740842
 20
15.416825861
 10
2.1173787968
 20
15.4236629417
 10
2.1172909372
 20
15.4274447924
  0
LWPOLYLINE
  5
47C
100
AcDbEntity
  8
0
100
AcDbPolyline
 62
253
  6
CONTINUOUS
 90
34
 70
0
 10
-8.2588574365
 20
21.7658211559
 10
-8.2505079011
 20
21.7607144158
 10
-8.2421713196
 20
21.7551572195
 10
-8.2338665639
 20
21.7491615551
 10
-8.2256112977
 20
21.7427394812
 10
-8.2174254869
 20
21.7359058312
 10
-8.2093312393
 20
21.728678759
 10
-8.2013480807
 20
21.7210758048
 10
-8.1934928814
 20
21.7131131437
 10
-8.1857832954
 20
21.7048086575
 10
-8.1782366984
 20
21.696181025
 10
-8.1708703026
 20
21.6872498856
 10
-8.1637009608
 20
21.6780356593
 10
-8.1567449791
 20
21.6685593156
 10
-8.1500180488
 20
21.6588422433
 10
-8.143535368
 20
21.6489063956
 10
-8.1373116108
 20
21.6387742542
 10
-8.1313609003
 20
21.6284688017
 10
-8.1256967327
 20
21.6180134058
 10
-8.1203319463
 20
21.6074317613
 10
-8.1152786956
 20
21.5967478383
 10
-8.1105484336
 20
21.5859858478
 10
-8.106151879
 20
21.5751701729
 10
-8.1020989961
 20
21.5643253217
 10
-8.0983989725
 20
21.5534758752
 10
-8.0950601931
 20
21.5426464184
 10
-8.0920902234
 20
21.5318614878
 10
-8.0894957945
 20
21.5211455242
 10
-8.0872827846
 20
21.5105228035
 10
-8.0854562099
 20
21.5000174007
 10
-8.0840202118
 20
21.4896531376
 10
-8.0829780431
 20
21.4794535036
 10
-8.0823320627
 20
21.4694416028
 10
-8.0820837329
 20
21.45964012
  0
LWPOLYLINE
  5
47D
100
AcDbEntity
  8
0
100
AcDbPolyline
 62
253
  6
CONTINUOUS
 90
34
 70
0
 10
4.0448005561
 20
14.661843232
 10
4.0531638389
 20
14.6567277057
 10
4.0615105067
 20
14.6511627481
 10
4.0698216523
 20
14.6451609651
 10
4.0780784492
 20
14.6387359522
 10
4.0862621938
 20
14.6319022632
 10
4.0943543482
 20
14.6246753782
 10
4.1023365818
 20
14.6170716677
 10
4.110190813
 20
14.6091083556
 10
4.1178992503
 20
14.6008034808
 10
4.1254444323
 20
14.5921758556
 10
4.1328092676
 20
14.5832450235
 10
4.139977073
 20
14.5740312149
 10
4.1469316119
 20
14.5645553011
 10
4.1536571308
 20
14.5548387471
 10
4.1601383948
 20
14.5449035632
 10
4.1663607224
 20
14.5347722548
 10
4.1723100186
 20
14.5244677715
 10
4.1779728069
 20
14.5140134553
 10
4.18333626
 20
14.5034329875
 10
4.1883882282
 20
14.4927503354
 10
4.1931172679
 20
14.4819896975
 10
4.1975126666
 20
14.471175449
 10
4.2015644679
 20
14.4603320867
 10
4.2052634934
 20
14.4494841732
 10
4.208601364
 20
14.4386562814
 10
4.2115705188
 20
14.427872939
 10
4.2141642319
 20
14.4171585726
 10
4.2163766279
 20
14.4065374527
 10
4.2182026954
 20
14.3960336386
 10
4.2196382978
 20
14.3856709235
 10
4.2206801832
 20
14.3754727816
 10
4.2213259915
 20
14.3654623138
 10
4.2215742598
 20
14.3556621961
  0
LWPOLYLINE
  5
47E
100
AcDbEntity
  8
0
100
AcDbPolyline
 62
7
  6
CONTINUOUS
 90
6
 70
0
 10
-10.0611399565
 20
21.9943105401
 10
-10.0812358601
 20
22.0072019368
 10
-10.1069752979
 20
22.0282117643
 10
-10.1298461311
 20
22.0526255326
 10
-10.1492852715
 20
22.0799293123
 10
-10.1649366027
 20
22.1096757722
  0
LWPOLYLINE
  5
47F
100
AcDbEntity
  8
0
100
AcDbPolyline
 62
7
  6
CONTINUOUS
 90
6
 70
0
 10
2.2425180361
 20
14.8903326162
 10
2.2224221325
 20
14.9032240129
 10
2.1966826948
 20
14.9242338403
 10
2.1738118615
 20
14.9486476087
 10
2.1543727211
 20
14.9759513884
 10
2.1387213899
 20
15.0056978483
  0
LWPOLYLINE
  5
480
100
AcDbEntity
  8
RACCORDO
100
AcDbPolyline
 62
253
  6
CONTINUOUS
 90
13
 70
0
 10
-7.2228654914
 20
20.2347546005
 10
-7.2412770333
 20
20.2468367786
 10
-7.2595002619
 20
20.2614283124
 10
-7.2772234934
 20
20.2782796334
 10
-7.2941435958
 20
20.2971025225
 10
-7.3099711736
 20
20.3175750395
 10
-7.3244355172
 20
20.3393470295
 10
-7.3372892336
 20
20.362046112
 10
-7.3483124772
 20
20.3852840497
 10
-7.3573167103
 20
20.4086633889
 10
-7.3641479277
 20
20.4317842575
 10
-7.3686892905
 20
20.4542512042
 10
-7.3708631248
 20
20.475679962
  0
LWPOLYLINE
  5
481
100
AcDbEntity
  8
RACCORDO
100
AcDbPolyline
 62
253
  6
CONTINUOUS
 90
13
 70
0
 10
5.0807925013
 20
13.1307766766
 10
5.0623809594
 20
13.1428588547
 10
5.0441577308
 20
13.1574503885
 10
5.0264344992
 20
13.1743017095
 10
5.0095143968
 20
13.1931245986
 10
4.9936868191
 20
13.2135971156
 10
4.9792224754
 20
13.2353691056
 10
4.966368759
 20
13.2580681881
 10
4.9553455154
 20
13.2813061258
 10
4.9463412823
 20
13.304685465
 10
4.939510065
 20
13.3278063336
 10
4.9349687022
 20
13.3502732803
 10
4.9327948679
 20
13.3717020381
  0
LWPOLYLINE
  5
482
100
AcDbEntity
  8
0
100
AcDbPolyline
 62
253
  6
CONTINUOUS
 90
3
 70
0
 10
2.2318831764
 20
14.8975674026
 10
2.2369696622
 20
14.8938085454
 10
2.242284885
 20
14.8904667334
  0
LINE
  5
483
100
AcDbEntity
  8
0
100
AcDbLine
 62
7
  6
CONTINUOUS
 10
11.0343774867
 20
8.1861553542
 11
13.628928829
 21
5.405723404
  0
LINE
  5
484
100
AcDbEntity
  8
DRAFT
100
AcDbLine
 62
7
  6
CONTINUOUS
 10
11.0855028754
 20
8.2574391469
 11
13.8840034103
 21
5.2584465376
  0
LWPOLYLINE
  5
485
100
AcDbEntity
  8
0
100
AcDbPolyline
 62
253
  6
CONTINUOUS
 90
15
 70
0
 10
6.3511222224
 20
15.257590511
 10
6.3550950071
 20
15.2517471852
 10
6.3586575211
 20
15.2461460753
 10
6.3618017237
 20
15.2407998232
 10
6.364520517
 20
15.2357204984
 10
6.3668077663
 20
15.2309195619
 10
6.3686583122
 20
15.2264078423
 10
6.3700679771
 20
15.2221955189
 10
6.3710335746
 20
15.2182921066
 10
6.3715529222
 20
15.2147064247
 10
6.3716248488
 20
15.2114465686
 10
6.3712491933
 20
15.2085198919
 10
6.3704268038
 20
15.205932999
 10
6.3691595366
 20
15.2036917279
 10
6.3688619385
 20
15.2032968231
  0
LWPOLYLINE
  5
486
100
AcDbEntity
  8
0
100
AcDbPolyline
 62
7
  6
CONTINUOUS
 90
3
 70
0
 10
7.2304919151
 20
20.5205028458
 10
7.2302927174
 20
20.5210342899
 10
7.2300922281
 20
20.5211900001
  0
LINE
  5
487
100
AcDbEntity
  8
0
100
AcDbLine
 62
7
  6
CONTINUOUS
 10
7.248794078
 20
-13.7334530055
 11
7.4940748128
 21
-13.5817677199
  0
LINE
  5
488
100
AcDbEntity
  8
0
100
AcDbLine
 62
7
  6
CONTINUOUS
 10
7.5201820882
 20
-14.5354108421
 11
7.248794078
 21
-14.7032412585
  0
LINE
  5
489
100
AcDbEntity
  8
0
100
AcDbLine
 62
253
  6
CONTINUOUS
 10
7.2697017842
 20
-15.0851769302
 11
7.248794078
 21
-15.0970362327
  0
LWPOLYLINE
  5
48A
100
AcDbEntity
  8
0
100
AcDbPolyline
 62
7
  6
CONTINUOUS
 90
5
 70
0
 10
-8.3828387635
 20
21.0252799641
 10
-8.3551621879
 20
21.0115063832
 10
-8.3247576507
 20
21.0009061127
 10
-8.2931347745
 20
20.9942862275
 10
-8.280751244
 20
20.9928337529
  0
LWPOLYLINE
  5
48B
100
AcDbEntity
  8
RACCORDO
100
AcDbPolyline
 62
253
  6
CONTINUOUS
 90
5
 70
0
 10
-9.5460165488
 20
21.5761129052
 10
-9.5275171813
 20
21.5668832269
 10
-9.509460876
 20
21.5605275121
 10
-9.4921564638
 20
21.557154444
 10
-9.4833741133
 20
21.5569746783
  0
LWPOLYLINE
  5
48C
100
AcDbEntity
  8
0
100
AcDbPolyline
 62
253
  6
CONTINUOUS
 90
18
 70
0
 10
-0.7187054268
 20
18.6057692323
 10
-0.7254345736
 20
18.6094706262
 10
-0.7321466182
 20
18.6127946989
 10
-0.738826351
 20
18.6157339165
 10
-0.7454586401
 20
18.6182816184
 10
-0.7520284519
 20
18.6204320276
 10
-0.7585208859
 20
18.6221802664
 10
-0.7649212268
 20
18.623522373
 10
-0.7712149752
 20
18.6244553081
 10
-0.7773878681
 20
18.624976958
 10
-0.783425919
 20
18.6250861416
 10
-0.789315445
 20
18.6247826121
 10
-0.7950430956
 20
18.6240670591
 10
-0.8005958916
 20
18.6229411063
 10
-0.8059612527
 20
18.6214073069
 10
-0.8111270217
 20
18.6194691386
 10
-0.8160814978
 20
18.6171309934
 10
-0.8187265573
 20
18.6156680963
  0
LWPOLYLINE
  5
48D
100
AcDbEntity
  8
0
100
AcDbPolyline
 62
253
  6
CONTINUOUS
 90
34
 70
0
 10
-2.5563603064
 20
19.341157092
 10
-2.5494699984
 20
19.3373637431
 10
-2.5422748342
 20
19.333764013
 10
-2.5347911166
 20
19.3303660596
 10
-2.5270357972
 20
19.3271775816
 10
-2.5190264533
 20
19.3242058073
 10
-2.5107812496
 20
19.3214574772
 10
-2.5023188751
 20
19.3189388199
 10
-2.4936585013
 20
19.316655541
 10
-2.484819755
 20
19.3146128143
 10
-2.4758226634
 20
19.3128152679
 10
-2.466687616
 20
19.311266975
 10
-2.4574353213
 20
19.3099714445
 10
-2.4480867477
 20
19.3089316109
 10
-2.438663077
 20
19.308149829
 10
-2.4291856641
 20
19.3076278691
 10
-2.4196759776
 20
19.3073669125
 10
-2.4101555731
 20
19.3073675496
 10
-2.4006460456
 20
19.3076297768
 10
-2.3911689706
 20
19.3081529949
 10
-2.3817457936
 20
19.3089360155
 10
-2.3723978045
 20
19.3099770691
 10
-2.3631461018
 20
19.3112738115
 10
-2.3540117358
 20
19.3128232982
 10
-2.3450155911
 20
19.3146219799
 10
-2.3361781584
 20
19.3166657393
 10
-2.3275193331
 20
19.3189499544
 10
-2.3190585678
 20
19.3214694858
 10
-2.3108137337
 20
19.3242190823
 10
-2.3028048846
 20
19.3271921287
 10
-2.295053682
 20
19.3303803695
 10
-2.2875784412
 20
19.3337757541
 10
-2.280394471
 20
19.3373707933
 10
-2.273517594
 20
19.341157092
  0
LWPOLYLINE
  5
48E
100
AcDbEntity
  8
0
100
AcDbPolyline
 62
7
  6
CONTINUOUS
 90
19
 70
0
 10
-0.505750641
 20
18.7301572091
 10
-0.5119194359
 20
18.7335635537
 10
-0.5180764701
 20
18.7366525684
 10
-0.5242100277
 20
18.739418371
 10
-0.5303084536
 20
18.741855685
 10
-0.536360136
 20
18.7439598732
 10
-0.5423535287
 20
18.7457269461
 10
-0.5482772477
 20
18.7471535261
 10
-0.5541200273
 20
18.7482368922
 10
-0.5598707017
 20
18.7489750081
 10
-0.5655183571
 20
18.7493664503
 10
-0.5710522623
 20
18.7494104629
 10
-0.5764618228
 20
18.7491069981
 10
-0.5817367821
 20
18.7484566104
 10
-0.5868671268
 20
18.7474605225
 10
-0.5918430155
 20
18.7461206753
 10
-0.5966550239
 20
18.7444395923
 10
-0.6012940282
 20
18.7424204533
 10
-0.6054625068
 20
18.7402328075
  0
LINE
  5
48F
100
AcDbEntity
  8
0
100
AcDbLine
 62
7
  6
CONTINUOUS
 10
16.101173173
 20
7.7747390635
 11
16.2779498683
 21
7.6726704152
  0
LINE
  5
490
100
AcDbEntity
  8
RACCORDO
100
AcDbLine
 62
7
  6
CONTINUOUS
 10
-6.3394222527
 20
20.7920936417
 11
-5.5553933861
 21
20.3394052004
  0
LINE
  5
491
100
AcDbEntity
  8
RACCORDO
100
AcDbLine
 62
7
  6
CONTINUOUS
 10
1.7923463979
 20
16.0969123379
 11
2.4075830608
 21
15.7416823995
  0
LINE
  5
492
100
AcDbEntity
  8
RACCORDO
100
AcDbLine
 62
7
  6
CONTINUOUS
 10
5.96423574
 20
13.6881157178
 11
6.1760604361
 21
13.5658107931
  0
LINE
  5
493
100
AcDbEntity
  8
0
100
AcDbLine
 62
7
  6
CONTINUOUS
 10
-0.9178826754
 20
17.6617646377
 11
-2.0613855596
 21
18.3220088716
  0
LINE
  5
494
100
AcDbEntity
  8
0
100
AcDbLine
 62
7
  6
CONTINUOUS
 10
-5.5553933861
 20
20.4138087356
 11
-4.8898126844
 21
20.0295107801
  0
LINE
  5
495
100
AcDbEntity
  8
0
100
AcDbLine
 62
7
  6
CONTINUOUS
 10
0.0599347839
 20
17.1715886268
 11
0.7255154857
 21
16.7872906713
  0
LINE
  5
496
100
AcDbEntity
  8
0
100
AcDbLine
 62
7
  6
CONTINUOUS
 10
7.2197687173
 20
13.4694739908
 11
8.2730778555
 21
12.8613064954
  0
LINE
  5
497
100
AcDbEntity
  8
0
100
AcDbLine
 62
7
  6
CONTINUOUS
 10
11.8566718994
 20
10.9529187309
 11
7.1479077866
 21
13.6713335305
  0
LINE
  5
498
100
AcDbEntity
  8
0
100
AcDbLine
 62
253
  6
CONTINUOUS
 10
0.6272672728
 20
17.502970428
 11
-0.8593040316
 21
18.3612980681
  0
LINE
  5
499
100
AcDbEntity
  8
0
100
AcDbLine
 62
253
  6
CONTINUOUS
 10
-2.5563603064
 20
19.341157092
 11
-4.1827059032
 21
20.2801886567
  0
LINE
  5
49A
100
AcDbEntity
  8
DRAFT
100
AcDbLine
 62
7
  6
CONTINUOUS
 10
-6.4462411895
 20
21.6655686586
 11
-5.7778099878
 21
21.2796248602
  0
LINE
  5
49B
100
AcDbEntity
  8
DRAFT
100
AcDbLine
 62
7
  6
CONTINUOUS
 10
5.8574168032
 20
14.5615907347
 11
6.8776574237
 21
13.972516587
  0
LINE
  5
49C
100
AcDbEntity
  8
0
100
AcDbLine
 62
7
  6
CONTINUOUS
 10
-1.3542787784
 20
18.7260083975
 11
-0.9154328854
 21
18.4726242788
  0
LINE
  5
49D
100
AcDbEntity
  8
0
100
AcDbLine
 62
253
  6
CONTINUOUS
 10
0.9076401699
 20
17.6667376676
 11
-0.7187054268
 21
18.6057692323
  0
LINE
  5
49E
100
AcDbEntity
  8
0
100
AcDbLine
 62
253
  6
CONTINUOUS
 10
-2.4157617017
 20
19.5856282562
 11
-4.0421072984
 21
20.5246598209
  0
LINE
  5
49F
100
AcDbEntity
  8
0
100
AcDbLine
 62
7
  6
CONTINUOUS
 10
16.8571778337
 20
8.4754174947
 11
17.069309868
 21
8.3529351167
  0
LINE
  5
4A0
100
AcDbEntity
  8
0
100
AcDbLine
 62
7
  6
CONTINUOUS
 10
-4.5009039547
 20
21.0369086614
 11
-2.2028069158
 21
19.7100162331
  0
LINE
  5
4A1
100
AcDbEntity
  8
0
100
AcDbLine
 62
7
  6
CONTINUOUS
 10
-0.505750641
 20
18.7301572091
 11
1.7923463979
 21
17.4032647808
  0
LINE
  5
4A2
100
AcDbEntity
  8
0
100
AcDbLine
 62
7
  6
CONTINUOUS
 10
5.6460813469
 20
15.5864016582
 11
3.9490190889
 21
16.5662641369
  0
LINE
  5
4A3
100
AcDbEntity
  8
0
100
AcDbLine
 62
7
  6
CONTINUOUS
 10
-6.6575766457
 20
22.6903795821
 11
-8.3546389038
 21
23.6702420608
  0
LINE
  5
4A4
100
AcDbEntity
  8
0
100
AcDbLine
 62
7
  6
CONTINUOUS
 10
12.3292811477
 20
11.8168595369
 11
12.506057843
 21
11.7147908886
  0
LINE
  5
4A5
100
AcDbEntity
  8
0
100
AcDbLine
 62
7
  6
CONTINUOUS
 10
-3.1220457314
 20
21.052572306
 11
-1.4957001347
 21
20.1135407413
  0
LINE
  5
4A6
100
AcDbEntity
  8
0
100
AcDbLine
 62
7
  6
CONTINUOUS
 10
0.2013561402
 20
19.1336817173
 11
1.8277017369
 21
18.1946501527
  0
LWPOLYLINE
  5
4A7
100
AcDbEntity
  8
0
100
AcDbPolyline
 62
253
  6
CONTINUOUS
 90
34
 70
0
 10
-6.129309474
 20
22.9953947713
 10
-6.120850656
 20
22.9903344059
 10
-6.1124133288
 20
22.9848217939
 10
-6.1040166048
 20
22.9788694228
 10
-6.0956795044
 20
22.9724907761
 10
-6.0874209131
 20
22.9657003027
 10
-6.0792595385
 20
22.9585133846
 10
-6.0712138677
 20
22.9509463018
 10
-6.0633021263
 20
22.9430161955
 10
-6.0555422358
 20
22.934741029
 10
-6.0479517744
 20
22.9261395476
 10
-6.040547936
 20
22.9172312355
 10
-6.033347492
 20
22.9080362719
 10
-6.026366753
 20
22.8985754857
 10
-6.0196215321
 20
22.8888703075
 10
-6.0131271085
 20
22.8789427218
 10
-6.0068981937
 20
22.8688152167
 10
-6.0009488974
 20
22.8585107334
 10
-5.9952926963
 20
22.8480526138
 10
-5.9899424029
 20
22.8374645479
 10
-5.9849101367
 20
22.82677052
 10
-5.9802072971
 20
22.8159947545
 10
-5.9758445369
 20
22.805161661
 10
-5.9718317388
 20
22.7942957787
 10
-5.9681779927
 20
22.7834217214
 10
-5.9648915752
 20
22.7725641213
 10
-5.9619799307
 20
22.7617475732
 10
-5.9594496548
 20
22.750996579
 10
-5.957306479
 20
22.7403354922
 10
-5.9555552582
 20
22.7297884625
 10
-5.9541999592
 20
22.7193793812
 10
-5.9532436522
 20
22.7091318274
 10
-5.9526885034
 20
22.699069014
 10
-5.9525357703
 20
22.6892137354
  0
LWPOLYLINE
  5
4A8
100
AcDbEntity
  8
0
100
AcDbPolyline
 62
7
  6
CONTINUOUS
 90
40
 70
0
 10
6.1760604361
 20
13.5658107931
 10
6.1902128648
 20
13.5573127372
 10
6.204367029
 20
13.5481556632
 10
6.218500474
 20
13.5383511168
 10
6.2326033451
 20
13.5279022776
 10
6.246639828
 20
13.5168314632
 10
6.2605488298
 20
13.5051852683
 10
6.2742950972
 20
13.4929954891
 10
6.2878699485
 20
13.4802729968
 10
6.3012531242
 20
13.4670386689
 10
6.3144111931
 20
13.4533280377
 10
6.3273358166
 20
13.439152101
 10
6.3400431553
 20
13.4244919534
 10
6.352532971
 20
13.4093411694
 10
6.3647605012
 20
13.3937475584
 10
6.3766755134
 20
13.3777739464
 10
6.3882545183
 20
13.3614515684
 10
6.3994828143
 20
13.3448023679
 10
6.4103275619
 20
13.3278801176
 10
6.4207543538
 20
13.3107441608
 10
6.4307673792
 20
13.2933933884
 10
6.4403900078
 20
13.2757899355
 10
6.4496195902
 20
13.2579294224
 10
6.4584209575
 20
13.2398701197
 10
6.4667669064
 20
13.2216671419
 10
6.4746448104
 20
13.2033427166
 10
6.4820375248
 20
13.1849329124
 10
6.4889174213
 20
13.1665148598
 10
6.4952644545
 20
13.1481501849
 10
6.5010828622
 20
13.129835848
 10
6.5063822181
 20
13.1115521531
 10
6.5111557474
 20
13.093312495
 10
6.5153887177
 20
13.075161784
 10
6.5190755746
 20
13.0571280034
 10
6.5222102854
 20
13.0392233817
 10
6.52478157
 20
13.0214940694
 10
6.5267813933
 20
13.0040170889
 10
6.5282083243
 20
12.9868347111
 10
6.5290626493
 20
12.9699563327
 10
6.5293447021
 20
12.9534068963
  0
LWPOLYLINE
  5
4A9
100
AcDbEntity
  8
0
100
AcDbPolyline
 62
7
  6
CONTINUOUS
 90
37
 70
0
 10
-2.2028069158
 20
19.7100162331
 10
-2.1966381457
 20
19.7062990223
 10
-2.1904811085
 20
19.7022780464
 10
-2.1843475291
 20
19.6979609579
 10
-2.1782491041
 20
19.6933559631
 10
-2.1721974395
 20
19.6884718303
 10
-2.1662040282
 20
19.6833178729
 10
-2.160280304
 20
19.6779038877
 10
-2.1544375535
 20
19.6722401751
 10
-2.1486868552
 20
19.6663375426
 10
-2.1430391886
 20
19.6602072074
 10
-2.1375053236
 20
19.6538608283
 10
-2.132095734
 20
19.6473105217
 10
-2.1268207577
 20
19.6405687335
 10
-2.1216904635
 20
19.6336482812
 10
-2.1167145414
 20
19.6265623832
 10
-2.1119025104
 20
19.6193245004
 10
-2.1072635661
 20
19.6119483902
 10
-2.1028064487
 20
19.6044481463
 10
-2.0985396959
 20
19.5968380149
 10
-2.0944714722
 20
19.5891324572
 10
-2.090609419
 20
19.5813462014
 10
-2.0869609461
 20
19.5734940348
 10
-2.0835330478
 20
19.5655908756
 10
-2.0803321354
 20
19.5576518339
 10
-2.0773643645
 20
19.5496919853
 10
-2.0746354391
 20
19.5417264495
 10
-2.0721504312
 20
19.5337704602
 10
-2.0699141365
 20
19.5258391233
 10
-2.0679308717
 20
19.5179475012
 10
-2.0662042823
 20
19.5101106907
 10
-2.0647377223
 20
19.5023435695
 10
-2.063534047
 20
19.4946608851
 10
-2.0625954135
 20
19.4870773388
 10
-2.0619236086
 20
19.4796073655
 10
-2.0615200453
 20
19.4722651058
 10
-2.0613855596
 20
19.4650644956
  0
LWPOLYLINE
  5
4AA
100
AcDbEntity
  8
0
100
AcDbPolyline
 62
253
  6
CONTINUOUS
 90
34
 70
0
 10
-2.4157617017
 20
19.5856282562
 10
-2.4090316707
 20
19.5815585432
 10
-2.4023150216
 20
19.5771292182
 10
-2.3956269698
 20
19.5723503151
 10
-2.3889826658
 20
19.5672326596
 10
-2.3823971612
 20
19.5617878449
 10
-2.3758853742
 20
19.5560282053
 10
-2.3694620561
 20
19.5499667881
 10
-2.3631417577
 20
19.5436173244
 10
-2.3569387967
 20
19.5369941979
 10
-2.3508672247
 20
19.530112412
 10
-2.3449407957
 20
19.5229875562
 10
-2.3391729351
 20
19.5156357705
 10
-2.3335767089
 20
19.5080737091
 10
-2.3281647943
 20
19.5003185026
 10
-2.3229494511
 20
19.492387719
 10
-2.3179424937
 20
19.484299324
 10
-2.3131552645
 20
19.4760716405
 10
-2.308598608
 20
19.4677233067
 10
-2.3042828467
 20
19.4592732345
 10
-2.300217757
 20
19.4507405658
 10
-2.2964125477
 20
19.44214463
 10
-2.2928758388
 20
19.4335048996
 10
-2.2896156421
 20
19.4248409463
 10
-2.2866393431
 20
19.4161723969
 10
-2.2839536839
 20
19.4075188883
 10
-2.2815647484
 20
19.3989000235
 10
-2.2794779484
 20
19.3903353271
 10
-2.2776980112
 20
19.3818442009
 10
-2.2762289688
 20
19.3734458799
 10
-2.2750741492
 20
19.365159389
 10
-2.2742361683
 20
19.3570034999
 10
-2.2737169245
 20
19.3489966883
 10
-2.273517594
 20
19.341157092
  0
LWPOLYLINE
  5
4AB
100
AcDbEntity
  8
0
100
AcDbPolyline
 62
7
  6
CONTINUOUS
 90
34
 70
0
 10
-6.6575766457
 20
22.6903795821
 10
-6.6491655703
 20
22.6852917624
 10
-6.6407733527
 20
22.6797532081
 10
-6.6324191049
 20
22.6737764037
 10
-6.624121931
 20
22.6673747812
 10
-6.6159006326
 20
22.6605628364
 10
-6.6077736668
 20
22.6533560957
 10
-6.5997595014
 20
22.6457708483
 10
-6.5918763821
 20
22.6378242226
 10
-6.5841420399
 20
22.629534295
 10
-6.5765740323
 20
22.6209198214
 10
-6.5691895754
 20
22.6120002731
 10
-6.5620053128
 20
22.6027959086
 10
-6.5550375342
 20
22.5933275686
 10
-6.548302075
 20
22.5836166712
 10
-6.5418141522
 20
22.5736852441
 10
-6.5355884556
 20
22.5635557884
 10
-6.5296391177
 20
22.5532512329
 10
-6.5239796183
 20
22.5427949252
 10
-6.5186227479
 20
22.5322105688
 10
-6.5135806482
 20
22.5215221359
 10
-6.5088647871
 20
22.5107538182
 10
-6.5044857953
 20
22.4999300386
 10
-6.5004535763
 20
22.4890753242
 10
-6.4967773524
 20
22.4782142177
 10
-6.4934653781
 20
22.4673713639
 10
-6.4905251173
 20
22.4565713452
 10
-6.4879633586
 20
22.445838555
 10
-6.4857858127
 20
22.4351973578
 10
-6.4839973518
 20
22.424671891
 10
-6.4826021935
 20
22.4142859015
 10
-6.4816034899
 20
22.404062919
 10
-6.4810033209
 20
22.3940262029
 10
-6.480802942
 20
22.3841985462
  0
LWPOLYLINE
  5
4AC
100
AcDbEntity
  8
0
100
AcDbPolyline
 62
7
  6
CONTINUOUS
 90
34
 70
0
 10
5.6460813469
 20
15.5864016582
 10
5.6544924224
 20
15.5813138385
 10
5.66288464
 20
15.5757752842
 10
5.6712388877
 20
15.5697984798
 10
5.6795360617
 20
15.5633968573
 10
5.68775736
 20
15.5565849125
 10
5.6958843258
 20
15.5493781718
 10
5.7038984912
 20
15.5417929244
 10
5.7117816106
 20
15.5338462987
 10
5.7195159528
 20
15.5255563711
 10
5.7270839603
 20
15.5169418974
 10
5.7344684173
 20
15.5080223492
 10
5.7416526798
 20
15.4988179847
 10
5.7486204585
 20
15.4893496447
 10
5.7553559177
 20
15.4796387473
 10
5.7618438404
 20
15.4697073202
 10
5.768069537
 20
15.4595778645
 10
5.774018875
 20
15.449273309
 10
5.7796783744
 20
15.4388170013
 10
5.7850352448
 20
15.4282326449
 10
5.7900773444
 20
15.417544212
 10
5.7947932056
 20
15.4067758943
 10
5.7991721974
 20
15.3959521147
 10
5.8032044163
 20
15.3850974003
 10
5.8068806402
 20
15.3742362938
 10
5.8101926145
 20
15.36339344
 10
5.8131328754
 20
15.3525934213
 10
5.815694634
 20
15.3418606311
 10
5.8178721799
 20
15.3312194339
 10
5.8196606408
 20
15.3206939671
 10
5.8210557991
 20
15.3103079776
 10
5.8220545028
 20
15.3000849951
 10
5.8226546717
 20
15.290048279
 10
5.8228550506
 20
15.2802206223
  0
LWPOLYLINE
  5
4AD
100
AcDbEntity
  8
0
100
AcDbPolyline
 62
253
  6
CONTINUOUS
 90
18
 70
0
 10
-0.8593040316
 20
18.3612980681
 10
-0.8658729482
 20
18.3652758529
 10
-0.8721066193
 20
18.3694296013
 10
-0.8779909235
 20
18.3737499039
 10
-0.8835125311
 20
18.3782269738
 10
-0.8886589338
 20
18.3828506689
 10
-0.8934184733
 20
18.387610515
 10
-0.8977803677
 20
18.3924957297
 10
-0.9017347361
 20
18.3974952462
 10
-0.9052726204
 20
18.4025977392
 10
-0.9083860061
 20
18.4077916498
 10
-0.9110678406
 20
18.4130652121
 10
-0.9133120486
 20
18.4184064799
 10
-0.9151135461
 20
18.4238033534
 10
-0.9164682523
 20
18.4292436069
 10
-0.9173730983
 20
18.4347149167
 10
-0.9178260343
 20
18.4402048883
 10
-0.9178826754
 20
18.4429529867
  0
LWPOLYLINE
  5
4AE
100
AcDbEntity
  8
0
100
AcDbPolyline
 62
7
  6
CONTINUOUS
 90
9
 70
0
 10
6.2983261194
 20
15.9032117882
 10
6.3248389802
 20
15.8855596773
 10
6.3492164428
 20
15.8643608538
 10
6.3708689098
 20
15.8399226955
 10
6.3892843961
 20
15.8126430155
 10
6.4039984553
 20
15.7830804675
 10
6.4146821437
 20
15.7518576307
 10
6.4211896223
 20
15.7192763853
 10
6.4233200708
 20
15.6866712358
  0
LINE
  5
4AF
100
AcDbEntity
  8
RACCORDO
100
AcDbLine
 62
7
  6
CONTINUOUS
 10
15.720504853
 20
6.9171171596
 11
12.1904758364
 21
10.7000469105
  0
LINE
  5
4B0
100
AcDbEntity
  8
0
100
AcDbLine
 62
253
  6
CONTINUOUS
 10
4.5098516802
 20
-23.9914488763
 11
3.9574406478
 21
-24.6728463587
  0
LINE
  5
4B1
100
AcDbEntity
  8
0
100
AcDbLine
 62
253
  6
CONTINUOUS
 10
12.1762534607
 20
-14.6680279619
 11
7.2697017842
 21
-16.5937018561
  0
LINE
  5
4B2
100
AcDbEntity
  8
0
100
AcDbLine
 62
7
  6
CONTINUOUS
 10
11.9054244098
 20
-14.3604390434
 11
7.2697017842
 21
-16.0796352009
  0
LWPOLYLINE
  5
4B3
100
AcDbEntity
  8
0
100
AcDbPolyline
 62
7
  6
CONTINUOUS
 90
21
 70
0
 10
11.9054467653
 20
-14.3604834988
 10
11.9131841665
 20
-14.3580527326
 10
11.9294622833
 20
-14.3553347071
 10
11.9467620651
 20
-14.3556104983
 10
11.965067795
 20
-14.3588018117
 10
11.9836872123
 20
-14.3647097637
 10
12.0026187179
 20
-14.373404548
 10
12.0218639109
 20
-14.3848159708
 10
12.0407353286
 20
-14.3985345674
 10
12.0592456472
 20
-14.4146576246
 10
12.0773821904
 20
-14.4330878556
 10
12.0944194672
 20
-14.453123935
 10
12.1103242173
 20
-14.4748666894
 10
12.125129701
 20
-14.4982152922
 10
12.1382102085
 20
-14.5221659384
 10
12.1494669432
 20
-14.546697995
 10
12.1589987017
 20
-14.5718320951
 10
12.1664761647
 20
-14.5966263325
 10
12.1717895589
 20
-14.6207667383
 10
12.1750486576
 20
-14.6445672815
 10
12.1762534607
 20
-14.6680279619
  0
LWPOLYLINE
  5
4B4
100
AcDbEntity
  8
0
100
AcDbPolyline
 62
7
  6
CONTINUOUS
 90
3
 70
0
 10
4.5160180545
 20
16.9107364002
 10
4.5481894179
 20
16.9042008467
 10
4.579423546
 20
16.8934234713
  0
LWPOLYLINE
  5
4B5
100
AcDbEntity
  8
0
100
AcDbPolyline
 62
253
  6
CONTINUOUS
 90
16
 70
0
 10
4.5986122268
 20
16.8839303796
 10
4.5921642502
 20
16.8863941289
 10
4.5854695169
 20
16.8883554355
 10
4.5785430407
 20
16.8898099015
 10
4.5714003303
 20
16.8907542579
 10
4.5640575128
 20
16.8911863602
 10
4.5565312661
 20
16.8911052394
 10
4.5488386319
 20
16.8905111181
 10
4.5409968193
 20
16.8894053637
 10
4.5330233203
 20
16.8877904563
 10
4.5249348429
 20
16.885669671
 10
4.5167507716
 20
16.8830479828
 10
4.5084931008
 20
16.8799327421
 10
4.5001816801
 20
16.8763321411
 10
4.4918340477
 20
16.8722544761
 10
4.4834689675
 20
16.8677095086
  0
LWPOLYLINE
  5
4B6
100
AcDbEntity
  8
0
100
AcDbPolyline
 62
7
  6
CONTINUOUS
 90
6
 70
0
 10
-7.6962114244
 20
23.9834823732
 10
-7.7247031411
 20
23.9975973464
 10
-7.7551911015
 20
24.0081024233
 10
-7.7871180596
 20
24.0146430527
 10
-7.8198926973
 20
24.0169759616
 10
-7.8527985598
 20
24.0149767325
  0
LINE
  5
4B7
100
AcDbEntity
  8
0
100
AcDbLine
 62
7
  6
CONTINUOUS
 10
4.579423546
 20
16.8934234713
 11
4.6074854293
 21
16.8794819975
  0
LWPOLYLINE
  5
4B8
100
AcDbEntity
  8
0
100
AcDbPolyline
 62
253
  6
CONTINUOUS
 90
3
 70
0
 10
4.6074465683
 20
16.8795044493
 10
4.6047989585
 20
16.8809697144
 10
4.5986122268
 20
16.8839303796
  0
LWPOLYLINE
  5
4B9
100
AcDbEntity
  8
0
100
AcDbPolyline
 62
253
  6
CONTINUOUS
 90
18
 70
0
 10
-6.0053348932
 20
23.0071914557
 10
-6.007979483
 20
23.0086549771
 10
-6.0141662147
 20
23.0116156424
 10
-6.0206141913
 20
23.0140793917
 10
-6.0273089246
 20
23.0160406982
 10
-6.0342354008
 20
23.0174951643
 10
-6.0413781112
 20
23.0184395207
 10
-6.0487209287
 20
23.0188716229
 10
-6.0562471754
 20
23.0187905021
 10
-6.0639398096
 20
23.0181963809
 10
-6.0717816222
 20
23.0170906265
 10
-6.0797551212
 20
23.0154757191
 10
-6.0878435986
 20
23.0133549337
 10
-6.0960276699
 20
23.0107332456
 10
-6.1042853407
 20
23.0076180049
 10
-6.1125967614
 20
23.0040174039
 10
-6.1209443938
 20
22.9999397389
 10
-6.129309474
 20
22.9953947713
  0
LWPOLYLINE
  5
4BA
100
AcDbEntity
  8
0
100
AcDbPolyline
 62
253
  6
CONTINUOUS
 90
18
 70
0
 10
6.2983261194
 20
15.9032117882
 10
6.295692856
 20
15.9046694485
 10
6.2895075651
 20
15.9076309387
 10
6.2830610178
 20
15.9100956691
 10
6.2763677097
 20
15.9120580975
 10
6.2694426912
 20
15.9135138112
 10
6.2623015338
 20
15.9144595369
 10
6.2549602948
 20
15.9148931482
 10
6.2474354816
 20
15.9148136699
 10
6.2397440143
 20
15.9142212809
 10
6.2319031878
 20
15.9131173131
 10
6.2239306327
 20
15.9115042489
 10
6.215844276
 20
15.9093857154
 10
6.2076623004
 20
15.9067664763
 10
6.1994031037
 20
15.9036524212
 10
6.1910852573
 20
15.9000505521
 10
6.1827274646
 20
15.8959689683
 10
6.1743485187
 20
15.8914168474
  0
LWPOLYLINE
  5
4BB
100
AcDbEntity
  8
0
100
AcDbPolyline
 62
253
  6
CONTINUOUS
 90
3
 70
0
 10
-7.6962114244
 20
23.9834823732
 10
-7.6988446878
 20
23.9849400335
 10
-7.7050299787
 20
23.9879015238
  0
LINE
  5
4BC
100
AcDbEntity
  8
0
100
AcDbLine
 62
253
  6
CONTINUOUS
 10
-7.8201890251
 20
23.9716874325
 11
-6.129309474
 21
22.9953947713
  0
LINE
  5
4BD
100
AcDbEntity
  8
0
100
AcDbLine
 62
253
  6
CONTINUOUS
 10
4.4834689675
 20
16.8677095086
 11
6.1743485187
 21
15.8914168474
  0
LINE
  5
4BE
100
AcDbEntity
  8
0
100
AcDbLine
 62
7
  6
CONTINUOUS
 10
-7.6962114244
 20
23.9834823732
 11
-6.0053318732
 21
23.0071897121
  0
LINE
  5
4BF
100
AcDbEntity
  8
0
100
AcDbLine
 62
7
  6
CONTINUOUS
 10
4.6074465683
 20
16.8795044493
 11
6.2983261194
 21
15.9032117882
  0
LINE
  5
4C0
100
AcDbEntity
  8
0
100
AcDbLine
 62
7
  6
CONTINUOUS
 10
13.0852858083
 20
12.5175379681
 11
13.2974178427
 21
12.3950555901
  0
LINE
  5
4C1
100
AcDbEntity
  8
0
100
AcDbLine
 62
7
  6
CONTINUOUS
 10
13.876645808
 20
13.1978026696
 11
9.5084703038
 21
15.7199324596
  0
LWPOLYLINE
  5
4C2
100
AcDbEntity
  8
0
100
AcDbPolyline
 62
253
  6
CONTINUOUS
 90
34
 70
0
 10
6.1743485187
 20
15.8914168474
 10
6.1827934361
 20
15.8863651797
 10
6.1912205781
 20
15.8808602719
 10
6.1996108617
 20
15.8749139903
 10
6.2079464344
 20
15.8685382842
 10
6.2162071286
 20
15.8617478711
 10
6.2243706316
 20
15.854560786
 10
6.2324172514
 20
15.8469944735
 10
6.2403299847
 20
15.8390650319
 10
6.2480910481
 20
15.830790268
 10
6.2556829494
 20
15.8221887937
 10
6.2630883727
 20
15.8132801883
 10
6.270290376
 20
15.8040848203
 10
6.2772725788
 20
15.7946236163
 10
6.2840192308
 20
15.7849179312
 10
6.2905150895
 20
15.7749896922
 10
6.2967454507
 20
15.7648613639
 10
6.3026961763
 20
15.7545559201
 10
6.30835377
 20
15.7440967285
 10
6.3137054083
 20
15.7335074924
 10
6.3187389666
 20
15.7228121993
 10
6.3234430364
 20
15.7120350858
 10
6.3278069583
 20
15.7012005691
 10
6.3318208419
 20
15.6903332002
 10
6.3354755881
 20
15.6794576111
 10
6.3387629145
 20
15.668598446
 10
6.3416753722
 20
15.6577803087
 10
6.3442063603
 20
15.6470277152
 10
6.3463501444
 20
15.6363650244
 10
6.3481018652
 20
15.6258164019
 10
6.349457551
 20
15.6154057675
 10
6.3504141311
 20
15.6051567156
 10
6.3509694405
 20
15.5950924625
 10
6.3511222224
 20
15.5852358115
  0
LINE
  5
4C3
100
AcDbEntity
  8
0
100
AcDbLine
 62
7
  6
CONTINUOUS
 10
16.101173173
 20
7.7747390635
 11
12.3292811477
 21
11.8168595369
  0
LINE
  5
4C4
100
AcDbEntity
  8
0
100
AcDbLine
 62
7
  6
CONTINUOUS
 10
16.2779498683
 20
7.6726704152
 11
12.506057843
 21
11.7147908886
  0
LINE
  5
4C5
100
AcDbEntity
  8
0
100
AcDbLine
 62
7
  6
CONTINUOUS
 10
16.8571778337
 20
8.4754174947
 11
13.0852858083
 21
12.5175379681
  0
LINE
  5
4C6
100
AcDbEntity
  8
0
100
AcDbLine
 62
7
  6
CONTINUOUS
 10
17.069309868
 20
8.3529351167
 11
13.2974178427
 21
12.3950555901
  0
LINE
  5
4C7
100
AcDbEntity
  8
0
100
AcDbLine
 62
7
  6
CONTINUOUS
 10
6.5302703732
 20
-22.5633977642
 11
6.5653171709
 21
-22.5192364199
  0
LINE
  5
4C8
100
AcDbEntity
  8
0
100
AcDbLine
 62
253
  6
CONTINUOUS
 10
4.9327948679
 20
-24.0239551085
 11
4.2215742598
 21
-24.9012437638
  0
LINE
  5
4C9
100
AcDbEntity
  8
0
100
AcDbLine
 62
7
  6
CONTINUOUS
 10
7.248794078
 20
-21.6903258254
 11
6.5653171709
 21
-22.5192364199
  0
LWPOLYLINE
  5
4CA
100
AcDbEntity
  8
0
100
AcDbPolyline
 62
7
  6
CONTINUOUS
 90
4
 70
0
 10
6.3734445905
 20
-24.0548013049
 10
6.3520799924
 20
-24.0797384379
 10
6.3275386669
 20
-24.1017328752
 10
6.3005055556
 20
-24.1201972351
  0
LWPOLYLINE
  5
4CB
100
AcDbEntity
  8
0
100
AcDbPolyline
 62
7
  6
CONTINUOUS
 90
21
 70
0
 10
12.4875455583
 20
-16.0340835795
 10
12.5011231374
 20
-16.0256315702
 10
12.514069285
 20
-16.0169032919
 10
12.5263840013
 20
-16.0078987444
 10
12.5380847977
 20
-15.9986027847
 10
12.5491541626
 20
-15.9890305559
 10
12.5595395616
 20
-15.9792274873
 10
12.5692377435
 20
-15.9691924815
 10
12.5782519593
 20
-15.9589266358
 10
12.5865394283
 20
-15.9484786713
 10
12.5940966957
 20
-15.9378477224
 10
12.6009272163
 20
-15.9270346547
 10
12.6069985727
 20
-15.9160907864
 10
12.6123071563
 20
-15.9050154959
 10
12.6168565757
 20
-15.8938094047
 10
12.6206252397
 20
-15.8825256964
 10
12.6236094369
 20
-15.871164002
 10
12.6258128787
 20
-15.8597246906
 10
12.6272251076
 20
-15.8482620523
 10
12.6278423627
 20
-15.8367759763
 10
12.6278733728
 20
-15.833540061
  0
LINE
  5
4CC
100
AcDbEntity
  8
0
100
AcDbLine
 62
7
  6
CONTINUOUS
 10
12.4875455583
 20
-16.0340835795
 11
7.248794078
 21
-19.1663447454
  0
LINE
  5
4CD
100
AcDbEntity
  8
DRAFT
100
AcDbLine
 62
7
  6
CONTINUOUS
 10
12.4875455583
 20
-16.4861920969
 11
7.248794078
 21
-19.5869727804
  0
LINE
  5
4CE
100
AcDbEntity
  8
0
100
AcDbLine
 62
7
  6
CONTINUOUS
 10
12.1762534607
 20
-15.4531982045
 11
7.248794078
 21
-18.3483454679
  0
LINE
  5
4CF
100
AcDbEntity
  8
0
100
AcDbLine
 62
7
  6
CONTINUOUS
 10
-8.2807523077
 20
20.9928338508
 11
-7.6529933563
 21
20.9350290834
  0
LINE
  5
4D0
100
AcDbEntity
  8
0
100
AcDbLine
 62
253
  6
CONTINUOUS
 10
-8.0820837329
 20
21.1391199472
 11
-7.3708631248
 21
21.0736299343
  0
LWPOLYLINE
  5
4D1
100
AcDbEntity
  8
0
100
AcDbPolyline
 62
253
  6
CONTINUOUS
 90
16
 70
0
 10
-7.7050299787
 20
23.9879015238
 10
-7.711476526
 20
23.9903662541
 10
-7.7181698341
 20
23.9923286825
 10
-7.7250948526
 20
23.9937843962
 10
-7.73223601
 20
23.9947301219
 10
-7.739577249
 20
23.9951637332
 10
-7.7471020622
 20
23.9950842549
 10
-7.7547935295
 20
23.9944918659
 10
-7.762634356
 20
23.9933878981
 10
-7.7706069111
 20
23.991774834
 10
-7.7786932678
 20
23.9896563005
 10
-7.7868752434
 20
23.9870370614
 10
-7.7951344401
 20
23.9839230062
 10
-7.8034522865
 20
23.9803211372
 10
-7.8118100792
 20
23.9762395533
 10
-7.8201890251
 20
23.9716874325
  0
LINE
  5
4D2
100
AcDbEntity
  8
0
100
AcDbLine
 62
7
  6
CONTINUOUS
 10
17.6485378333
 20
9.1556821962
 11
13.876645808
 21
13.1978026696
  0
LWPOLYLINE
  5
4D3
100
AcDbEntity
  8
0
100
AcDbPolyline
 62
253
  6
CONTINUOUS
 90
37
 70
0
 10
1.5406561538
 20
-24.9657260234
 10
1.5249900124
 20
-24.9767140523
 10
1.5087063263
 20
-24.9872949494
 10
1.4918354152
 20
-24.9974490136
 10
1.474408692
 20
-25.0071573384
 10
1.4564586048
 20
-25.0164018471
 10
1.4380185761
 20
-25.0251653268
 10
1.4191229406
 20
-25.0334314603
 10
1.3998068812
 20
-25.0411848561
 10
1.3801063641
 20
-25.0484110779
 10
1.3600580708
 20
-25.0550966707
 10
1.3396993305
 20
-25.061229186
 10
1.3190680506
 20
-25.0667972055
 10
1.2982026459
 20
-25.0717903617
 10
1.277141967
 20
-25.0761993574
 10
1.2559252282
 20
-25.0800159835
 10
1.2345919343
 20
-25.0832331334
 10
1.2131818071
 20
-25.085844817
 10
1.1917347116
 20
-25.0878461715
 10
1.1702905815
 20
-25.0892334705
 10
1.148889345
 20
-25.0900041308
 10
1.1275708503
 20
-25.0901567176
 10
1.1063747919
 20
-25.0896909469
 10
1.0853406359
 20
-25.0886076859
 10
1.0645075471
 20
-25.0869089516
 10
1.0439143159
 20
-25.084597907
 10
1.0235992863
 20
-25.0816788553
 10
1.0036002839
 20
-25.0781572317
 10
0.9839545462
 20
-25.0740395933
 10
0.9646986527
 20
-25.0693336069
 10
0.9458684571
 20
-25.0640480351
 10
0.9274990207
 20
-25.0581927194
 10
0.9096245464
 20
-25.0517785621
 10
0.8922783159
 20
-25.0448175061
 10
0.8754926272
 20
-25.0373225127
 10
0.8592987346
 20
-25.0293075373
 10
0.8437267906
 20
-25.0207875035
  0
LINE
  5
4D4
100
AcDbEntity
  8
0
100
AcDbLine
 62
253
  6
CONTINUOUS
 10
6.5302703732
 20
-22.8083526644
 11
7.231206327
 21
-22.3917650275
  0
LINE
  5
4D5
100
AcDbEntity
  8
0
100
AcDbLine
 62
7
  6
CONTINUOUS
 10
3.2611983292
 20
22.4567712809
 11
5.0096822523
 21
22.7315007353
  0
LWPOLYLINE
  5
4D6
100
AcDbEntity
  8
0
100
AcDbPolyline
 62
7
  6
CONTINUOUS
 90
13
 70
0
 10
6.5680266638
 20
20.8554073851
 10
6.5820904939
 20
20.8544493016
 10
6.5964997598
 20
20.8527970347
 10
6.6113243454
 20
20.8504032228
 10
6.6265711493
 20
20.8472518325
 10
6.6422118106
 20
20.8433255242
 10
6.6582658883
 20
20.8385679087
 10
6.6747240967
 20
20.8329579242
 10
6.6915650568
 20
20.826479161
 10
6.7087887091
 20
20.8190788963
 10
6.7263772341
 20
20.8107330033
 10
6.74430507
 20
20.8014260367
 10
6.7584231412
 20
20.7935258063
  0
LWPOLYLINE
  5
4D7
100
AcDbEntity
  8
0
100
AcDbPolyline
 62
7
  6
CONTINUOUS
 90
15
 70
0
 10
7.2300922281
 20
20.5211900001
 10
7.2293862411
 20
20.5213968798
 10
7.2277780936
 20
20.5213532635
 10
7.2255010659
 20
20.5209332171
 10
7.2225890588
 20
20.5201468882
 10
7.2190755271
 20
20.5190091562
 10
7.214989818
 20
20.517555123
 10
7.2103651971
 20
20.5157936813
 10
7.205232539
 20
20.5137336932
 10
7.1996124482
 20
20.5114092739
 10
7.1935404391
 20
20.5088330518
 10
7.1870388625
 20
20.5060047099
 10
7.1800971203
 20
20.5029402103
 10
7.1727311556
 20
20.4996495272
 10
7.1567857738
 20
20.4924039184
  0
LWPOLYLINE
  5
4D8
100
AcDbEntity
  8
0
100
AcDbPolyline
 62
7
  6
CONTINUOUS
 90
24
 70
0
 10
4.8025965571
 20
23.6268496848
 10
4.7952631486
 20
23.6309626611
 10
4.777327616
 20
23.6400409832
 10
4.7588396931
 20
23.6480420463
 10
4.7397881815
 20
23.6549759895
 10
4.720221526
 20
23.6608253173
 10
4.7001240764
 20
23.6655899512
 10
4.6795114829
 20
23.6692699697
 10
4.6584791404
 20
23.6718481125
 10
4.6370390486
 20
23.6733188562
 10
4.6151792077
 20
23.6736877243
 10
4.5929590142
 20
23.6729540267
 10
4.5703647471
 20
23.6711133629
 10
4.5474101274
 20
23.6681701334
 10
4.5241957135
 20
23.6641368504
 10
4.5007311153
 20
23.6590112889
 10
4.4770067229
 20
23.6527956738
 10
4.4530942655
 20
23.6455091922
 10
4.4289852227
 20
23.6371458408
 10
4.4046881149
 20
23.6277116229
 10
4.3803002326
 20
23.6172437348
 10
4.3558540058
 20
23.6057545753
 10
4.3313170044
 20
23.5932317456
 10
4.3066892284
 20
23.5796752457
  0
LINE
  5
4D9
100
AcDbEntity
  8
0
100
AcDbLine
 62
7
  6
CONTINUOUS
 10
3.2611983292
 20
22.4567712809
 11
6.2611077156
 21
20.7246611989
  0
LINE
  5
4DA
100
AcDbEntity
  8
0
100
AcDbLine
 62
253
  6
CONTINUOUS
 10
0.8353194512
 20
24.0466948215
 11
1.476205225
 21
23.6766554079
  0
LINE
  5
4DB
100
AcDbEntity
  8
0
100
AcDbLine
 62
253
  6
CONTINUOUS
 10
6.4259526933
 20
20.8187332546
 11
7.066838467
 21
20.4486938411
  0
LINE
  5
4DC
100
AcDbEntity
  8
0
100
AcDbLine
 62
7
  6
CONTINUOUS
 10
1.1679761108
 20
24.0213791426
 11
1.6396455973
 21
23.7490430926
  0
LINE
  5
4DD
100
AcDbEntity
  8
0
100
AcDbLine
 62
7
  6
CONTINUOUS
 10
6.7584227238
 20
20.793525333
 11
7.2300922103
 21
20.521189283
  0
LINE
  5
4DE
100
AcDbEntity
  8
0
100
AcDbLine
 62
7
  6
CONTINUOUS
 10
5.0096822523
 20
22.7315007353
 11
8.1640920451
 21
20.9101840549
  0
LINE
  5
4DF
100
AcDbEntity
  8
DRAFT
100
AcDbLine
 62
253
  6
CONTINUOUS
 10
1.3435288276
 20
25.290566924
 11
4.3066892284
 21
23.5796752457
  0
LINE
  5
4E0
100
AcDbEntity
  8
DRAFT
100
AcDbLine
 62
253
  6
CONTINUOUS
 10
8.5493299155
 20
21.1300276858
 11
11.5124903162
 21
19.4191360075
  0
LINE
  5
4E1
100
AcDbEntity
  8
0
100
AcDbLine
 62
7
  6
CONTINUOUS
 10
1.6384406095
 20
25.4538007717
 11
4.8025996312
 21
23.6268550087
  0
LINE
  5
4E2
100
AcDbEntity
  8
0
100
AcDbLine
 62
7
  6
CONTINUOUS
 10
9.0452403183
 20
21.1772074488
 11
12.2093993401
 21
19.3502616858
  0
LINE
  5
4E3
100
AcDbEntity
  8
0
100
AcDbLine
 62
7
  6
CONTINUOUS
 10
6.4285541635
 20
-23.0361461517
 11
7.1294838729
 21
-22.6195622261
  0
LINE
  5
4E4
100
AcDbEntity
  8
0
100
AcDbLine
 62
253
  6
CONTINUOUS
 10
5.8228550506
 20
-24.3185947107
 11
6.3511222224
 21
-24.0064405765
  0
LINE
  5
4E5
100
AcDbEntity
  8
0
100
AcDbLine
 62
7
  6
CONTINUOUS
 10
5.7718106404
 20
-24.4326041239
 11
6.300501278
 21
-24.1201997629
  0
LINE
  5
4E6
100
AcDbEntity
  8
0
100
AcDbLine
 62
7
  6
CONTINUOUS
 10
5.7718106544
 20
-24.4326041157
 11
5.7703564113
 21
-24.4334437774
  0
LWPOLYLINE
  5
4E7
100
AcDbEntity
  8
0
100
AcDbPolyline
 62
7
  6
CONTINUOUS
 90
3
 70
0
 10
6.4281091596
 20
-23.0353971139
 10
6.4207543538
 20
-23.0395565779
 10
6.4167166197
 20
-23.0416367847
  0
LINE
  5
4E8
100
AcDbEntity
  8
0
100
AcDbLine
 62
253
  6
CONTINUOUS
 10
4.2215742598
 20
-25.2217639366
 11
5.8228550506
 21
-24.3185947107
  0
LINE
  5
4E9
100
AcDbEntity
  8
0
100
AcDbLine
 62
7
  6
CONTINUOUS
 10
4.1686471838
 20
-25.3368546545
 11
5.7703563974
 21
-24.4334437857
  0
LINE
  5
4EA
100
AcDbEntity
  8
0
100
AcDbLine
 62
253
  6
CONTINUOUS
 10
1.8774636415
 20
-25.1247259835
 11
6.5293611367
 21
-22.8076093393
  0
LINE
  5
4EB
100
AcDbEntity
  8
0
100
AcDbLine
 62
7
  6
CONTINUOUS
 10
1.7530630363
 20
-25.364609153
 11
6.4167166197
 21
-23.0416367847
  0
LWPOLYLINE
  5
4EC
100
AcDbEntity
  8
0
100
AcDbPolyline
 62
7
  6
CONTINUOUS
 90
9
 70
0
 10
4.1686471838
 20
-25.3368546545
 10
4.1401038602
 20
-25.3506455528
 10
4.10961253
 20
-25.360829096
 10
4.0777283872
 20
-25.3670597135
 10
4.0450372809
 20
-25.3691019163
 10
4.0122514691
 20
-25.3668380221
 10
3.9800801057
 20
-25.3603024686
 10
3.9488459776
 20
-25.3495250933
 10
3.9207840943
 20
-25.3355836194
  0
LWPOLYLINE
  5
4ED
100
AcDbEntity
  8
0
100
AcDbPolyline
 62
7
  6
CONTINUOUS
 90
14
 70
0
 10
0.96567355
 20
24.0835440849
 10
0.979374405
 20
24.0831761481
 10
0.9934255612
 20
24.0821342523
 10
1.0078234879
 20
24.0804013649
 10
1.0226348957
 20
24.0779295108
 10
1.0378664766
 20
24.0747022854
 10
1.0534901804
 20
24.0707027651
 10
1.0695228449
 20
24.0658755171
 10
1.0859546272
 20
24.0601996306
 10
1.1027646539
 20
24.053658967
 10
1.1199516179
 20
24.0462022106
 10
1.1374973082
 20
24.037805692
 10
1.1553766243
 20
24.0284541405
 10
1.1679765467
 20
24.021379637
  0
LWPOLYLINE
  5
4EE
100
AcDbEntity
  8
0
100
AcDbPolyline
 62
7
  6
CONTINUOUS
 90
13
 70
0
 10
1.6396456144
 20
23.7490437817
 10
1.6388306531
 20
23.7492626461
 10
1.6371562291
 20
23.7491845937
 10
1.6348102784
 20
23.7487288868
 10
1.6318273378
 20
23.7479057556
 10
1.6282413319
 20
23.746730036
 10
1.6240816975
 20
23.7452374523
 10
1.6193822107
 20
23.743437147
 10
1.6141739552
 20
23.7413377041
 10
1.608476704
 20
23.7389731381
 10
1.6023262258
 20
23.736356559
 10
1.5957447102
 20
23.7334872237
 10
1.5812649345
 20
23.7270441624
  0
LWPOLYLINE
  5
4EF
100
AcDbEntity
  8
0
100
AcDbPolyline
 62
7
  6
CONTINUOUS
 90
3
 70
0
 10
-7.8527985598
 20
24.0149767325
 10
-7.8851238875
 20
24.0086734671
 10
-7.9165416931
 20
23.9980925588
  0
ARC
  5
4F0
100
AcDbEntity
  8
0
100
AcDbCircle
 62
7
  6
CONTINUOUS
 10
-6.1303379133
 20
22.7906868485
 40
0.25
100
AcDbArc
 50
0.0007993011
 51
59.999200789
  0
ELLIPSE
  5
4F1
100
AcDbEntity
  8
RACCORDO
100
AcDbEllipse
 62
7
  6
CONTINUOUS
 10
-11.1152722124
 20
19.6008268642
 30
0.0
 11
-0.0499260605
 21
0.0866804662
 31
0.0
 40
0.5778584463
 41
-0.7846820092
 42
0.0175093263
  0
ELLIPSE
  5
4F2
100
AcDbEntity
  8
RACCORDO
100
AcDbEllipse
 62
7
  6
CONTINUOUS
 10
2.0427536249
 20
12.0035476545
 30
0.0
 11
-0.0499720045
 21
0.08675949
 31
0.0
 40
0.5768037941
 41
-2.355482613
 42
-0.7837728977
  0
ELLIPSE
  5
4F3
100
AcDbEntity
  8
RACCORDO
100
AcDbEllipse
 62
7
  6
CONTINUOUS
 10
15.5083700437
 20
7.0396018726
 30
0.0
 11
0.2432833199
 21
-0.1755430488
 31
0.0
 40
0.141744935
 41
0.0006975193
 42
0.6226835586
  0
ELLIPSE
  5
4F4
100
AcDbEntity
  8
RACCORDO
100
AcDbEllipse
 62
7
  6
CONTINUOUS
 10
11.9783439922
 20
10.8225284459
 30
0.0
 11
0.243280709
 21
-0.1755407479
 31
0.0
 40
0.1417482079
 41
0.6226916879
 42
2.1934758301
  0
ELLIPSE
  5
4F5
100
AcDbEntity
  8
RACCORDO
100
AcDbEllipse
 62
7
  6
CONTINUOUS
 10
10.0426026068
 20
-0.6144474902
 30
0.0
 11
0.2432833199
 21
-0.1755430488
 31
0.0
 40
0.141744935
 41
0.0006975193
 42
0.6226835586
  0
ELLIPSE
  5
4F6
100
AcDbEntity
  8
RACCORDO
100
AcDbEllipse
 62
7
  6
CONTINUOUS
 10
6.6064888782
 20
-5.3985897801
 30
0.0
 11
0.2432833199
 21
-0.1755430488
 31
0.0
 40
0.141744935
 41
-0.0006975419
 42
0.6226835586
  0
ELLIPSE
  5
4F7
100
AcDbEntity
  8
RACCORDO
100
AcDbEllipse
 62
7
  6
CONTINUOUS
 10
12.574115946
 20
2.9305858989
 30
0.0
 11
0.2432833199
 21
-0.1755430488
 31
0.0
 40
0.141744935
 41
5.3350847236
 42
6.9058688658
  0
ELLIPSE
  5
4F8
100
AcDbEntity
  8
0
100
AcDbEllipse
 62
7
  6
CONTINUOUS
 10
0.833250606
 20
23.6372858851
 30
0.0
 11
0.2522054935
 21
0.4317367776
 31
0.0
 40
0.580680601
 41
0.689040114
 42
0.7825716451
  0
ELLIPSE
  5
4F9
100
AcDbEntity
  8
0
100
AcDbEllipse
 62
7
  6
CONTINUOUS
 10
-1.4957001347
 20
19.9502439225
 30
0.0
 11
-0.1000031398
 21
0.1732052219
 31
0.0
 40
0.5773316701
 41
-2.3562258892
 42
-0.7854295624
  0
ELLIPSE
  5
4FA
100
AcDbEntity
  8
0
100
AcDbEllipse
 62
7
  6
CONTINUOUS
 10
0.2013561402
 20
18.9703848985
 30
0.0
 11
-0.1000031398
 21
0.1732052219
 31
0.0
 40
0.5773316701
 41
-0.7854295624
 42
-0.0029086502
  0
ELLIPSE
  5
4FB
100
AcDbEntity
  8
DRAFT
100
AcDbEllipse
 62
7
  6
CONTINUOUS
 10
0.6322694851
 20
24.8800322309
 30
0.0
 11
1.0061852078
 21
0.5737549327
 31
0.0
 40
0.0052693892
 41
0.003079628
 42
0.7827085602
  0
ELLIPSE
  5
4FC
100
AcDbEntity
  8
RACCORDO
100
AcDbEllipse
 62
7
  6
CONTINUOUS
 10
-6.3393791925
 20
20.9555869306
 30
0.0
 11
-0.0998556708
 21
0.1734136355
 31
0.0
 40
0.5775064956
 41
0.7868572898
 42
2.3573491378
  0
ELLIPSE
  5
4FD
100
AcDbEntity
  8
RACCORDO
100
AcDbEllipse
 62
7
  6
CONTINUOUS
 10
5.9642788002
 20
13.8516090067
 30
0.0
 11
-0.0998556708
 21
0.1734136355
 31
0.0
 40
0.5775064956
 41
0.7868572898
 42
2.3573491378
  0
ELLIPSE
  5
4FE
100
AcDbEntity
  8
0
100
AcDbEllipse
 62
7
  6
CONTINUOUS
 10
6.8776394736
 20
-22.1875992317
 30
0.0
 11
-0.2500332324
 21
0.4330240487
 31
0.0
 40
0.5773023583
 41
-3.1343210675
 42
-2.3562893423
  0
ELLIPSE
  5
4FF
100
AcDbEntity
  8
0
100
AcDbEllipse
 62
7
  6
CONTINUOUS
 10
6.8776394736
 20
13.5642849041
 30
0.0
 11
-0.2500205442
 21
0.4330020622
 31
0.0
 40
0.577360979
 41
-2.3562385877
 42
-0.7854930296
  0
ELLIPSE
  5
500
100
AcDbEntity
  8
0
100
AcDbEllipse
 62
7
  6
CONTINUOUS
 10
7.5019941278
 20
-13.3217665775
 30
0.0
 11
0.7307083665
 21
1.3101153486
 31
0.0
 40
0.5671693725
 41
-2.347120172
 42
-0.1829118995
  0
ELLIPSE
  5
501
100
AcDbEntity
  8
0
100
AcDbEllipse
 62
7
  6
CONTINUOUS
 10
6.9161349309
 20
-14.8810940436
 30
0.0
 11
-0.2499739954
 21
0.4330387087
 31
0.0
 40
0.577419602
 41
-2.3560524088
 42
-2.0135755186
  0
ELLIPSE
  5
502
100
AcDbEntity
  8
DRAFT
100
AcDbEllipse
 62
7
  6
CONTINUOUS
 10
12.1278756582
 20
-16.693909471
 30
0.0
 11
0.4999975532
 21
0.2922382515
 31
0.0
 40
0.0053525714
 41
-0.7710733282
 42
-0.0031285684
  0
ELLIPSE
  5
503
100
AcDbEntity
  8
0
100
AcDbEllipse
 62
7
  6
CONTINUOUS
 10
-2.4149389502
 20
18.268344594
 30
0.0
 11
0.1999154856
 21
0.0095814127
 31
0.0
 40
0.6067642562
 41
-2.385266879
 42
-0.8144705522
  0
ELLIPSE
  5
504
100
AcDbEntity
  8
0
100
AcDbEllipse
 62
7
  6
CONTINUOUS
 10
-0.7178826754
 20
17.28848557
 30
0.0
 11
0.1999154856
 21
0.0095814127
 31
0.0
 40
0.6067642562
 41
3.1125202648
 42
3.8979184282
  0
ELLIPSE
  5
505
100
AcDbEntity
  8
DRAFT
100
AcDbEllipse
 62
7
  6
CONTINUOUS
 10
12.2155221442
 20
18.1920073177
 30
0.0
 11
-0.7006352283
 21
1.22850495
 31
0.0
 40
0.5737642108
 41
5.0913839874
 42
6.2865911274
  0
ELLIPSE
  5
506
100
AcDbEntity
  8
0
100
AcDbEllipse
 62
7
  6
CONTINUOUS
 10
6.7774492052
 20
19.3451896024
 30
0.0
 11
0.4530408369
 21
-0.002269484
 31
0.0
 40
0.5740189913
 41
-0.7767048895
 42
0.0028755094
  0
ELLIPSE
  5
507
100
AcDbEntity
  8
0
100
AcDbEllipse
 62
7
  6
CONTINUOUS
 10
1.1870025922
 20
22.573043412
 30
0.0
 11
0.4530408369
 21
-0.002269484
 31
0.0
 40
0.5740189913
 41
-0.7825226537
 42
0.0028755093
  0
ELLIPSE
  5
508
100
AcDbEntity
  8
RACCORDO
100
AcDbEllipse
 62
7
  6
CONTINUOUS
 10
2.2930757987
 20
11.777255693
 30
0.0
 11
-0.0999440089
 21
0.17351898
 31
0.0
 40
0.5768037941
 41
-0.7837728977
 42
0.034893124
  0
ELLIPSE
  5
509
100
AcDbEntity
  8
RACCORDO
100
AcDbEllipse
 62
7
  6
CONTINUOUS
 10
-11.3655943862
 20
19.6636006744
 30
0.0
 11
-0.099852121
 21
0.1733609324
 31
0.0
 40
0.5778584463
 41
-1.992275079
 42
-0.7846820092
  0
ELLIPSE
  5
50A
100
AcDbEntity
  8
0
100
AcDbEllipse
 62
7
  6
CONTINUOUS
 10
7.4904372207
 20
-13.309280227
 30
0.0
 11
0.1461416733
 21
0.2620230697
 31
0.0
 40
0.5671693725
 41
-0.7937771377
 42
-0.1829118995
  0
ELLIPSE
  5
50B
100
AcDbEntity
  8
0
100
AcDbEllipse
 62
7
  6
CONTINUOUS
 10
7.4904372207
 20
-13.3390388669
 30
0.0
 11
0.1461416733
 21
0.2620230697
 31
0.0
 40
0.5671693725
 41
-2.347120172
 42
-0.7937771377
  0
ELLIPSE
  5
50C
100
AcDbEntity
  8
0
100
AcDbEllipse
 62
7
  6
CONTINUOUS
 10
56.1677474844
 20
48.4723872831
 30
0.0
 11
60.4168506882
 21
35.2934066151
 31
0.0
 40
0.0050378458
 41
2.5166802681
 42
2.6876229173
  0
ELLIPSE
  5
50D
100
AcDbEntity
  8
0
100
AcDbEllipse
 62
7
  6
CONTINUOUS
 10
7.0647935549
 20
20.039271086
 30
0.0
 11
0.247841934
 21
0.4342563559
 31
0.0
 40
0.5739631936
 41
0.6832219561
 42
0.7767534872
  0
ELLIPSE
  5
50E
100
AcDbEntity
  8
0
100
AcDbEllipse
 62
7
  6
CONTINUOUS
 10
56.1677474844
 20
48.4723872831
 30
0.0
 11
60.4168506882
 21
35.2934066151
 31
0.0
 40
0.0050378458
 41
-2.6935087662
 42
-2.5225661169
  0
ELLIPSE
  5
50F
100
AcDbEntity
  8
DRAFT
100
AcDbEllipse
 62
7
  6
CONTINUOUS
 10
12.1278756582
 20
19.1552869191
 30
0.0
 11
-0.3567823072
 21
0.610519958
 31
0.0
 40
0.573764555
 41
-3.1333143349
 42
-2.1059759599
  0
ENDSEC
  0
SECTION
  2
OBJECTS
  0
DICTIONARY
  5
C
100
AcDbDictionary
280
0
281
1
  3
ACAD_GROUP
350
D
  3
ACAD_MLINESTYLE
350
17
  3
ACAD_LAYOUT
350
1A
  3
ACAD_PLOTSETTINGS
350
19
  3
ACAD_PLOTSTYLENAME
350
E
  0
DICTIONARY
  5
D
102
{ACAD_REACTORS
330
C
102
}
100
AcDbDictionary
280
0
281
1
  0
ACDBDICTIONARYWDFLT
  5
E
102
{ACAD_REACTORS
330
C
102
}
100
AcDbDictionary
281
1
  3
Normal
350
F
100
AcDbDictionaryWithDefault
340
F
  0
DICTIONARY
  5
17
102
{ACAD_REACTORS
330
C
102
}
100
AcDbDictionary
280
0
281
1
  3
Standard
350
18
  0
DICTIONARY
  5
19
102
{ACAD_REACTORS
330
C
102
}
100
AcDbDictionary
281
1
  0
DICTIONARY
  5
1A
102
{ACAD_REACTORS
330
C
102
}
100
AcDbDictionary
281
1
  3
Model
350
510
  3
Layout1
350
511
  0
ACDBPLACEHOLDER
  5
F
102
{ACAD_REACTORS
330
E
102
}
  0
MLINESTYLE
  5
18
102
{ACAD_REACTORS
330
17
102
}
100
AcDbMlineStyle
  2
STANDARD
 70
0
  3

 62
256
 51
90.0
 52
90.0
 71
2
 49
0.5
 62
256
  6
BYLAYER
 49
-0.5
 62
256
  6
BYLAYER
  0
LAYOUT
  5
510
102
{ACAD_REACTORS
330
1A
102
}
100
AcDbPlotSettings
  1

  2
none_device
  4
ANSI_C_(22.00_x_17.00_Inches)
  6

 40
0.0
 41
0.0
 42
0.0
 43
0.0
 44
558.8
 45
431.8
 46
0.0
 47
0.0
 48
0.0
 49
0.0
140
0.0
141
0.0
142
1.0
143
1.0
 70
1024
 72
1
 73
0
 74
0
  7

 75
0
147
1.0
148
0.0
149
0.0
100
AcDbLayout
  1
Model
 70
0
 71
0
 10
0.0
 20
0.0
 11
558.8
 21
431.8
 12
0.0
 22
0.0
 32
0.0
 14
0.0
 24
0.0
 34
0.0
 15
0.0
 25
0.0
 35
0.0
146
0.0
 13
0.0
 23
0.0
 33
0.0
 16
1.0
 26
0.0
 36
0.0
 17
0.0
 27
1.0
 37
0.0
 76
0
330
213
345
0
346
0
  0
LAYOUT
  5
511
102
{ACAD_REACTORS
330
1A
102
}
100
AcDbPlotSettings
  1

  2
none_device
  4
ANSI_C_(22.00_x_17.00_Inches)
  6

 40
0.0
 41
0.0
 42
0.0
 43
0.0
 44
558.8
 45
431.8
 46
0.0
 47
0.0
 48
0.0
 49
0.0
140
0.0
141
0.0
142
1.0
143
1.0
 70
0
 72
1
 73
0
 74
0
  7

 75
0
147
1.0
148
0.0
149
0.0
100
AcDbLayout
  1
Layout1
 70
0
 71
1
 10
0.0
 20
0.0
 11
558.8
 21
431.8
 12
0.0
 22
0.0
 32
0.0
 14
0.0
 24
0.0
 34
0.0
 15
0.0
 25
0.0
 35
0.0
146
0.0
 13
0.0
 23
0.0
 33
0.0
 16
1.0
 26
0.0
 36
0.0
 17
0.0
 27
1.0
 37
0.0
 76
0
330
214
345
0
346
0
  0
ENDSEC
  0
EOF
