  0
SECTION
  2
HEADER
  9
$ACADVER
  1
AC1021
  9
$DWGCODEPAGE
  3
ANSI_1252
  9
$EXTMAX
 10
558.8
 20
431.8
 30
0.0
  9
$EXTMIN
 10
0.0
 20
0.0
 30
0.0
  9
$LIMMIN
 10
0.0
 20
0.0
  9
$LIMMAX
 10
558.8
 20
431.8
  9
$VIEWCTR
 10
279.4
 20
215.9
  9
$VIEWSIZE
 40
431.8
  9
$CLAYER
  8
0
  9
$LTSCALE
 40
30.734
  9
$CELTYPE
  6
BYLAYER
  9
$DIMSCALE
 40
1.0
  9
$DIMASZ
 40
3.0
  9
$DIMEXO
 40
0.5
  9
$DIMDLI
 40
21.2344
  9
$DIMEXE
 40
1.5
  9
$DIMCEN
 40
5.0292
  9
$DIMLFAC
 40
1.0
  9
$DIMBLK
  1
_FILLED
  9
$DIMALT
 70
0
  9
$DIMALTF
 40
25.4
  9
$DIMTXT
 40
3.0
  9
$DIMTOL
 70
1
  9
$DIMLIM
 70
0
  9
$DIMTFAC
 40
1.0
  9
$DIMTP
 40
0.01
  9
$DIMTM
 40
0.01
  9
$DIMGAP
 40
0.625
  9
$DIMDSEP
 70
44
  9
$AUNITS
 70
0
  9
$PDMODE
 70
3
  9
$PDSIZE
 40
3.0
  9
$HANDSEED
  5
534
  9
$TILEMODE
 70
1
  9
$MEASUREMENT
 70
1
  9
$INSUNITS
 70
4
  0
ENDSEC
  0
SECTION
  2
CLASSES
  0
CLASS
  1
ACDBDICTIONARYWDFLT
  2
AcDbDictionaryWithDefault
  3
AutoCAD 2000
 90
0
 91
1
280
0
281
0
  0
CLASS
  1
ACDBPLACEHOLDER
  2
AcDbPlaceHolder
  3
AutoCAD 2000
 90
0
 91
1
280
0
281
0
  0
CLASS
  1
LAYOUT
  2
AcDbLayout
  3
AutoCAD 2000
 90
0
 91
0
280
0
281
0
  0
ENDSEC
  0
SECTION
  2
TABLES
  0
TABLE
  2
VPORT
  5
8
100
AcDbSymbolTable
 70
2
  0
VPORT
  5
1F4
100
AcDbSymbolTableRecord
100
AcDbViewportTableRecord
  2
*ACTIVE
 70
0
 10
0.0
 20
0.0
 11
1.0
 21
1.0
 12
279.4
 22
215.9
 13
0.0
 23
0.0
 14
1.0
 24
1.0
 15
0.0
 25
0.0
 16
0.0
 26
0.0
 36
1.0
 17
0.0
 27
0.0
 37
0.0
 40
431.8
 41
1.2941176471
 42
50.0
 43
0.0
 44
0.0
 50
0.0
 51
0.0
 71
0
 72
100
 73
1
 74
1
 75
0
 76
0
 77
0
 78
0
  0
ENDTAB
  0
TABLE
  2
LTYPE
  5
5
100
AcDbSymbolTable
 70
6
  0
LTYPE
  5
14
100
AcDbSymbolTableRecord
100
AcDbLinetypeTableRecord
  2
BYBLOCK
 70
0
  3

 72
65
 73
0
 40
0.0
  0
LTYPE
  5
15
100
AcDbSymbolTableRecord
100
AcDbLinetypeTableRecord
  2
BYLAYER
 70
0
  3

 72
65
 73
0
 40
0.0
  0
LTYPE
  5
16
100
AcDbSymbolTableRecord
100
AcDbLinetypeTableRecord
  2
CONTINUOUS
 70
64
  3
Solid line
 72
65
 73
0
 40
0.0
  0
LTYPE
  5
1F5
100
AcDbSymbolTableRecord
100
AcDbLinetypeTableRecord
  2
CENTER
 70
64
  3
____ _ ____ _ ____ _ ____ _ ____ _ ____ _ ____
 72
65
 73
4
 40
0.6
 49
0.375
 74
0
 49
-0.075
 74
0
 49
0.075
 74
0
 49
-0.075
 74
0
  0
LTYPE
  5
1F6
100
AcDbSymbolTableRecord
100
AcDbLinetypeTableRecord
  2
HIDDEN
 70
64
  3
- - - - - - - - - - - - - - - - - - - -
 72
65
 73
2
 40
0.2
 49
0.1
 74
0
 49
-0.1
 74
0
  0
LTYPE
  5
1F7
100
AcDbSymbolTableRecord
100
AcDbLinetypeTableRecord
  2
PHANTOM
 70
64
  3
_____ _ _ _____ _ _ _____ _ _ _____
 72
65
 73
6
 40
0.8
 49
0.45
 74
0
 49
-0.05
 74
0
 49
0.1
 74
0
 49
-0.05
 74
0
 49
0.1
 74
0
 49
-0.05
 74
0
  0
LTYPE
  5
1F8
100
AcDbSymbolTableRecord
100
AcDbLinetypeTableRecord
  2
DOT
 70
64
  3
. . . . . . . . . . . . . . . . . . . .
 72
65
 73
2
 40
0.2
 49
0.1
 74
0
 49
-0.1
 74
0
  0
LTYPE
  5
1F9
100
AcDbSymbolTableRecord
100
AcDbLinetypeTableRecord
  2
DASHED
 70
64
  3
- - - - - - - - - - - - - - - - - - - -
 72
65
 73
2
 40
0.2
 49
0.1
 74
0
 49
-0.1
 74
0
  0
ENDTAB
  0
TABLE
  2
LAYER
  5
2
100
AcDbSymbolTable
 70
36
  0
LAYER
  5
10
100
AcDbSymbolTableRecord
100
AcDbLayerTableRecord
  2
0
 70
0
 62
7
  6
CONTINUOUS
370
-3
390
F
  0
LAYER
  5
1FA
100
AcDbSymbolTableRecord
100
AcDbLayerTableRecord
  2
DEFAULT_1
 70
0
 62
7
  6
CENTER
370
-3
390
F
  0
LAYER
  5
1FB
100
AcDbSymbolTableRecord
100
AcDbLayerTableRecord
  2
DEFAULT_2
 70
0
 62
7
  6
HIDDEN
370
-3
390
F
  0
LAYER
  5
1FC
100
AcDbSymbolTableRecord
100
AcDbLayerTableRecord
  2
DEFAULT_3
 70
0
 62
7
  6
PHANTOM
370
-3
390
F
  0
LAYER
  5
1FD
100
AcDbSymbolTableRecord
100
AcDbLayerTableRecord
  2
ASSI
 70
0
 62
7
  6
CONTINUOUS
370
-3
390
F
  0
LAYER
  5
1FE
100
AcDbSymbolTableRecord
100
AcDbLayerTableRecord
  2
COORDINATE
 70
0
 62
7
  6
CONTINUOUS
370
-3
390
F
  0
LAYER
  5
1FF
100
AcDbSymbolTableRecord
100
AcDbLayerTableRecord
  2
COORD_ORIGINE
 70
0
 62
7
  6
CONTINUOUS
370
-3
390
F
  0
LAYER
  5
200
100
AcDbSymbolTableRecord
100
AcDbLayerTableRecord
  2
COPY_PUBLISH
 70
0
 62
7
  6
CONTINUOUS
370
-3
390
F
  0
LAYER
  5
201
100
AcDbSymbolTableRecord
100
AcDbLayerTableRecord
  2
COSMETICI
 70
0
 62
7
  6
CONTINUOUS
370
-3
390
F
  0
LAYER
  5
202
100
AcDbSymbolTableRecord
100
AcDbLayerTableRecord
  2
CURVE
 70
0
 62
7
  6
CONTINUOUS
370
-3
390
F
  0
LAYER
  5
203
100
AcDbSymbolTableRecord
100
AcDbLayerTableRecord
  2
DRAFT
 70
0
 62
7
  6
CONTINUOUS
370
-3
390
F
  0
LAYER
  5
204
100
AcDbSymbolTableRecord
100
AcDbLayerTableRecord
  2
IMPORT_IGES
 70
0
 62
7
  6
CONTINUOUS
370
-3
390
F
  0
LAYER
  5
205
100
AcDbSymbolTableRecord
100
AcDbLayerTableRecord
  2
NOTE
 70
0
 62
7
  6
CONTINUOUS
370
-3
390
F
  0
LAYER
  5
206
100
AcDbSymbolTableRecord
100
AcDbLayerTableRecord
  2
PIANI
 70
0
 62
7
  6
CONTINUOUS
370
-3
390
F
  0
LAYER
  5
207
100
AcDbSymbolTableRecord
100
AcDbLayerTableRecord
  2
PIANI_ORIGINE
 70
0
 62
7
  6
CONTINUOUS
370
-3
390
F
  0
LAYER
  5
208
100
AcDbSymbolTableRecord
100
AcDbLayerTableRecord
  2
PIANI_SFORMI
 70
0
 62
7
  6
CONTINUOUS
370
-3
390
F
  0
LAYER
  5
209
100
AcDbSymbolTableRecord
100
AcDbLayerTableRecord
  2
PUNTI
 70
0
 62
7
  6
CONTINUOUS
370
-3
390
F
  0
LAYER
  5
20A
100
AcDbSymbolTableRecord
100
AcDbLayerTableRecord
  2
RACCORDO
 70
0
 62
7
  6
CONTINUOUS
370
-3
390
F
  0
LAYER
  5
20B
100
AcDbSymbolTableRecord
100
AcDbLayerTableRecord
  2
SIMBOLI
 70
0
 62
7
  6
CONTINUOUS
370
-3
390
F
  0
LAYER
  5
20C
100
AcDbSymbolTableRecord
100
AcDbLayerTableRecord
  2
SMUSSO
 70
0
 62
7
  6
CONTINUOUS
370
-3
390
F
  0
LAYER
  5
20D
100
AcDbSymbolTableRecord
100
AcDbLayerTableRecord
  2
SNAPLINE
 70
0
 62
7
  6
CONTINUOUS
370
-3
390
F
  0
LAYER
  5
20E
100
AcDbSymbolTableRecord
100
AcDbLayerTableRecord
  2
SUPERFICI
 70
0
 62
7
  6
CONTINUOUS
370
-3
390
F
  0
LAYER
  5
20F
100
AcDbSymbolTableRecord
100
AcDbLayerTableRecord
  2
TRASH
 70
0
 62
7
  6
CONTINUOUS
370
-3
390
F
  0
LAYER
  5
210
100
AcDbSymbolTableRecord
100
AcDbLayerTableRecord
  2
XSEC_DATUMS
 70
0
 62
7
  6
CONTINUOUS
370
-3
390
F
  0
ENDTAB
  0
TABLE
  2
STYLE
  5
3
100
AcDbSymbolTable
 70
1
  0
STYLE
  5
11
100
AcDbSymbolTableRecord
100
AcDbTextStyleTableRecord
  2
STANDARD
 70
0
 40
0.0
 41
0.8
 50
0.0
 71
0
 42
0.2
  3
txt
  4

  0
STYLE
  5
211
100
AcDbSymbolTableRecord
100
AcDbTextStyleTableRecord
  2
TEXTSTYLE_1
 70
0
 40
0.0
 41
0.8
 50
0.0
 71
0
 42
0.2
  3
gdt
  4

  0
ENDTAB
  0
TABLE
  2
VIEW
  5
6
100
AcDbSymbolTable
 70
0
  0
ENDTAB
  0
TABLE
  2
UCS
  5
7
100
AcDbSymbolTable
 70
0
  0
ENDTAB
  0
TABLE
  2
APPID
  5
9
100
AcDbSymbolTable
 70
1
  0
APPID
  5
212
100
AcDbSymbolTableRecord
100
AcDbRegAppTableRecord
  2
ACAD
 70
0
  0
ENDTAB
  0
TABLE
  2
BLOCK_RECORD
  5
1
100
AcDbSymbolTable
 70
0
  0
BLOCK_RECORD
  5
213
100
AcDbSymbolTableRecord
100
AcDbBlockTableRecord
  2
*Model_Space
  0
BLOCK_RECORD
  5
214
100
AcDbSymbolTableRecord
100
AcDbBlockTableRecord
  2
*Paper_Space
  0
ENDTAB
  0
TABLE
  2
DIMSTYLE
  5
A
100
AcDbSymbolTable
 70
1
100
AcDbDimStyleTable
 71
0
  0
DIMSTYLE
105
215
100
AcDbSymbolTableRecord
100
AcDbDimStyleTableRecord
  2
STANDARD
 70
0
  3

  4

 40
1.0
 41
3.0
 42
0.5
 43
0.38
 44
1.5
 45
0.0
 46
0.0
 47
0.01
 48
0.01
140
3.0
141
0.09
142
0.0
143
25.4
144
1.0
145
0.0
146
1.0
147
0.625
 71
1.0
 72
0.0
 73
0
 74
0
 75
0
 76
0
 77
1
 78
8
170
0
171
1
172
0
173
0
174
0
175
0
176
0
177
0
178
0
270
2
271
2
272
2
273
2
274
2
275
0
280
0
281
0
282
0
283
1
284
8
285
0
286
0
287
3
288
0
340
11
278
44
  0
ENDTAB
  0
ENDSEC
  0
SECTION
  2
BLOCKS
  0
BLOCK
  5
20
100
AcDbEntity
  8
0
100
AcDbBlockBegin
  2
*Model_Space
 70
0
 10
0.0
 20
0.0
 30
0.0
  3
*Model_Space
  1

  0
ENDBLK
  5
21
100
AcDbEntity
  8
0
100
AcDbBlockEnd
  0
BLOCK
  5
1C
100
AcDbEntity
  8
0
100
AcDbBlockBegin
  2
*Paper_Space
 70
0
 10
0.0
 20
0.0
 30
0.0
  3
*Paper_Space
  1

  0
ENDBLK
  5
1D
100
AcDbEntity
  8
0
100
AcDbBlockEnd
  0
ENDSEC
  0
SECTION
  2
ENTITIES
  0
LINE
  5
216
100
AcDbEntity
  8
0
100
AcDbLine
 62
7
  6
CONTINUOUS
 10
-8.9130812784
 20
22.7466999932
 11
-7.3299012095
 21
23.6822042801
  0
LINE
  5
217
100
AcDbEntity
  8
0
100
AcDbLine
 62
253
  6
CONTINUOUS
 10
-8.7869285192
 20
22.7349880007
 11
-7.204171916
 21
23.6702420608
  0
LINE
  5
218
100
AcDbEntity
  8
0
100
AcDbLine
 62
7
  6
CONTINUOUS
 10
-7.3299011953
 20
23.6822042881
 11
-7.3284469523
 21
23.6830439498
  0
LINE
  5
219
100
AcDbEntity
  8
0
100
AcDbLine
 62
7
  6
CONTINUOUS
 10
-7.3284469664
 20
23.6830439418
 11
-6.793568665
 21
23.9847309565
  0
LINE
  5
21A
100
AcDbEntity
  8
0
100
AcDbLine
 62
253
  6
CONTINUOUS
 10
-7.204171916
 20
23.6702420608
 11
-6.6697220373
 21
23.9716874325
  0
LWPOLYLINE
  5
21B
100
AcDbEntity
  8
0
100
AcDbPolyline
 62
253
  6
CONTINUOUS
 90
18
 70
0
 10
-8.9130812784
 20
22.7466999932
 10
-8.9093254512
 20
22.74879059
 10
-8.9030950899
 20
22.7517318796
 10
-8.8965992313
 20
22.7541740812
 10
-8.8898525792
 20
22.7561116759
 10
-8.8828703765
 20
22.7575402866
 10
-8.8756683732
 20
22.7584566784
 10
-8.8682629499
 20
22.7588587546
 10
-8.8606710485
 20
22.7587456079
 10
-8.8529099851
 20
22.758117535
 10
-8.8449972519
 20
22.7569759895
 10
-8.836950632
 20
22.7553235504
 10
-8.8287871291
 20
22.7531636012
 10
-8.8205264348
 20
22.7505012453
 10
-8.8121908622
 20
22.7473439769
 10
-8.8038005786
 20
22.7437001348
 10
-8.7953734366
 20
22.7395781673
 10
-8.7869285192
 20
22.7349880007
  0
LWPOLYLINE
  5
21C
100
AcDbEntity
  8
0
100
AcDbPolyline
 62
7
  6
CONTINUOUS
 90
18
 70
0
 10
-7.3284469523
 20
23.6830439498
 10
-7.3261600812
 20
23.6842871569
 10
-7.3199344095
 20
23.6872273485
 10
-7.313446477
 20
23.6896666794
 10
-7.3067109881
 20
23.6915996202
 10
-7.2997432489
 20
23.6930217669
 10
-7.2925589918
 20
23.6939299282
 10
-7.2851744762
 20
23.6943220568
 10
-7.2776065218
 20
23.6941972158
 10
-7.2698722003
 20
23.6935557308
 10
-7.2619889944
 20
23.6923990779
 10
-7.2539748949
 20
23.6907298061
 10
-7.2458479645
 20
23.6885517507
 10
-7.2376265535
 20
23.6858698813
 10
-7.2293294568
 20
23.6826901798
 10
-7.2209754634
 20
23.6790198552
 10
-7.2125833143
 20
23.6748673265
 10
-7.204171916
 20
23.6702420608
  0
LWPOLYLINE
  5
21D
100
AcDbEntity
  8
0
100
AcDbPolyline
 62
253
  6
CONTINUOUS
 90
3
 70
0
 10
-6.793568665
 20
23.9847309565
 10
-6.791267863
 20
23.9859814399
 10
-6.7850441058
 20
23.9889189164
  0
LINE
  5
21E
100
AcDbEntity
  8
0
100
AcDbLine
 62
7
  6
CONTINUOUS
 10
-6.7660747053
 20
23.9980925588
 11
-6.7936114013
 21
23.9847068354
  0
LWPOLYLINE
  5
21F
100
AcDbEntity
  8
0
100
AcDbPolyline
 62
253
  6
CONTINUOUS
 90
16
 70
0
 10
-6.7850441058
 20
23.9889189164
 10
-6.778561425
 20
23.9913535093
 10
-6.7718344947
 20
23.9932797169
 10
-6.7648785131
 20
23.9946931879
 10
-6.7577091712
 20
23.9955907213
 10
-6.7503427755
 20
23.9959702635
 10
-6.7427961785
 20
23.9958309586
 10
-6.7350865924
 20
23.9951731634
 10
-6.7272313932
 20
23.9939983984
 10
-6.7192482345
 20
23.9923093177
 10
-6.7111539869
 20
23.9901093813
 10
-6.7029681762
 20
23.9874037886
 10
-6.69471291
 20
23.9842001522
 10
-6.6864081543
 20
23.9805069274
 10
-6.6780715728
 20
23.9763326714
 10
-6.6697220373
 20
23.9716874325
  0
LWPOLYLINE
  5
220
100
AcDbEntity
  8
RACCORDO
100
AcDbPolyline
 62
253
  6
CONTINUOUS
 90
10
 70
0
 10
-8.3937037552
 20
21.1905945292
 10
-8.3700944967
 20
21.2079766353
 10
-8.3473658593
 20
21.2293745432
 10
-8.326163276
 20
21.2541806091
 10
-8.3070888441
 20
21.2816904064
 10
-8.2906842269
 20
21.3111227299
 10
-8.2774152719
 20
21.3416417795
 10
-8.2676587823
 20
21.3723808952
 10
-8.2616918167
 20
21.4024671675
 10
-8.2596838209
 20
21.4310462261
  0
LWPOLYLINE
  5
221
100
AcDbEntity
  8
RACCORDO
100
AcDbPolyline
 62
253
  6
CONTINUOUS
 90
16
 70
0
 10
-8.3955495611
 20
21.5761129052
 10
-8.427313097
 20
21.5532162081
 10
-8.4546797106
 20
21.5292069278
 10
-8.477649402
 20
21.5040850644
 10
-8.4963378062
 20
21.477570508
 10
-8.5106292881
 20
21.4499433684
 10
-8.5201769428
 20
21.4220439754
 10
-8.5248742668
 20
21.3938855008
 10
-8.5248277636
 20
21.3654547727
 10
-8.5200100377
 20
21.3375526057
 10
-8.5103063819
 20
21.3101587705
 10
-8.4958315034
 20
21.2832934963
 10
-8.4769021288
 20
21.2578182849
 10
-8.4536238336
 20
21.2340203036
 10
-8.4258910424
 20
21.211612385
 10
-8.3937037552
 20
21.1905945292
  0
LWPOLYLINE
  5
222
100
AcDbEntity
  8
0
100
AcDbPolyline
 62
7
  6
CONTINUOUS
 90
15
 70
0
 10
-12.4950456255
 20
19.3116397163
 10
-12.5258254509
 20
19.2905303409
 10
-12.5893499368
 20
19.2415347161
 10
-12.6493213927
 20
19.1879529342
 10
-12.7059254891
 20
19.1299827483
 10
-12.7590759608
 20
19.0679517916
 10
-12.8083725634
 20
19.0025482077
 10
-12.8537647572
 20
18.9340260484
 10
-12.8951509351
 20
18.8625937522
 10
-12.9320740647
 20
18.7890629779
 10
-12.9644195634
 20
18.7136473727
 10
-12.9920142991
 20
18.6365300161
 10
-13.0144762699
 20
18.5584360142
 10
-13.0315889553
 20
18.4796311367
 10
-13.0418048823
 20
18.4116944594
  0
LINE
  5
223
100
AcDbEntity
  8
0
100
AcDbLine
 62
7
  6
CONTINUOUS
 10
-12.4952413548
 20
19.3115109571
 11
-8.6529192318
 21
21.8454862615
  0
LINE
  5
224
100
AcDbEntity
  8
0
100
AcDbLine
 62
253
  6
CONTINUOUS
 10
-12.2384719328
 20
19.2911004732
 11
-8.499510817
 21
21.7569101655
  0
LINE
  5
225
100
AcDbEntity
  8
RACCORDO
100
AcDbLine
 62
253
  6
CONTINUOUS
 10
-8.3285705017
 20
21.6193152373
 11
-8.3955495611
 21
21.5761129052
  0
LWPOLYLINE
  5
226
100
AcDbEntity
  8
0
100
AcDbPolyline
 62
253
  6
CONTINUOUS
 90
22
 70
0
 10
-12.495045676
 20
19.311639793
 10
-12.4920584949
 20
19.3135546492
 10
-12.4823439389
 20
19.3191484285
 10
-12.4722043034
 20
19.324053593
 10
-12.461656016
 20
19.3282621957
 10
-12.4507161661
 20
19.3317674182
 10
-12.4394024775
 20
19.3345635815
 10
-12.4277332797
 20
19.3366461556
 10
-12.4157274782
 20
19.3380117665
 10
-12.4034045239
 20
19.3386582017
 10
-12.3907843813
 20
19.338584414
 10
-12.3778874967
 20
19.3377905228
 10
-12.3647347644
 20
19.3362778143
 10
-12.3513474934
 20
19.3340487394
 10
-12.3377473728
 20
19.3311069093
 10
-12.3239564363
 20
19.3274570902
 10
-12.3099970269
 20
19.3231051953
 10
-12.2958917604
 20
19.3180582751
 10
-12.281663489
 20
19.3123245063
 10
-12.2673352643
 20
19.3059131781
 10
-12.2529302996
 20
19.2988346778
 10
-12.2384719328
 20
19.2911004732
  0
LINE
  5
227
100
AcDbEntity
  8
RACCORDO
100
AcDbLine
 62
7
  6
CONTINUOUS
 10
-11.4403668655
 20
18.807834316
 11
-11.470190035
 21
18.7887236487
  0
LINE
  5
228
100
AcDbEntity
  8
RACCORDO
100
AcDbLine
 62
253
  6
CONTINUOUS
 10
-11.4118984305
 20
18.7892081445
 11
-11.3915793002
 21
18.8021152812
  0
LINE
  5
229
100
AcDbEntity
  8
RACCORDO
100
AcDbLine
 62
253
  6
CONTINUOUS
 10
-11.6418368779
 20
18.9466108701
 11
-10.2149982062
 21
19.8270442317
  0
LINE
  5
22A
100
AcDbEntity
  8
RACCORDO
100
AcDbLine
 62
7
  6
CONTINUOUS
 10
-11.4403912029
 20
18.8078193328
 11
-10.0156006127
 21
19.686988922
  0
LINE
  5
22B
100
AcDbEntity
  8
RACCORDO
100
AcDbLine
 62
253
  6
CONTINUOUS
 10
-11.3915793002
 20
18.8021152812
 11
-9.9647406285
 21
19.6825486428
  0
LINE
  5
22C
100
AcDbEntity
  8
0
100
AcDbLine
 62
253
  6
CONTINUOUS
 10
-7.1083904487
 20
21.7658211559
 11
-4.9788424862
 21
22.9953947713
  0
LINE
  5
22D
100
AcDbEntity
  8
0
100
AcDbLine
 62
253
  6
CONTINUOUS
 10
-6.9316167451
 20
21.45964012
 11
-4.8020687825
 21
22.6892137354
  0
LWPOLYLINE
  5
22E
100
AcDbEntity
  8
0
100
AcDbPolyline
 62
7
  6
CONTINUOUS
 90
7
 70
0
 10
2.041179662
 20
24.0722693365
 10
2.0528212488
 20
24.075692915
 10
2.064805815
 20
24.0785128128
 10
2.0771292565
 20
24.0807195494
 10
2.0898031046
 20
24.0822988679
 10
2.1028078235
 20
24.0832438305
 10
2.1161405378
 20
24.0835440849
  0
LINE
  5
22F
100
AcDbEntity
  8
0
100
AcDbLine
 62
253
  6
CONTINUOUS
 10
7.5015892102
 20
-23.678795276
 11
6.9733220384
 21
-23.633152333
  0
LINE
  5
230
100
AcDbEntity
  8
0
100
AcDbLine
 62
253
  6
CONTINUOUS
 10
7.4121754148
 20
-23.3495168385
 11
7.0175317669
 21
-23.3154191348
  0
LWPOLYLINE
  5
231
100
AcDbEntity
  8
0
100
AcDbPolyline
 62
7
  6
CONTINUOUS
 90
40
 70
0
 10
6.0832618557
 20
-24.0239551085
 10
6.0775231724
 20
-24.0233895655
 10
6.0715974527
 20
-24.0227111579
 10
6.0654859712
 20
-24.0219230642
 10
6.0591873948
 20
-24.0210324857
 10
6.0527063396
 20
-24.0200391452
 10
6.046053312
 20
-24.0189352546
 10
6.0392304273
 20
-24.0177249067
 10
6.032240225
 20
-24.0164119925
 10
6.0250941084
 20
-24.0149886435
 10
6.017794924
 20
-24.0134594682
 10
6.0103459063
 20
-24.0118289046
 10
6.0027592978
 20
-24.0100890482
 10
5.9950387024
 20
-24.0082450227
 10
5.9871880669
 20
-24.0063018089
 10
5.979220407
 20
-24.0042515108
 10
5.9711400826
 20
-24.0020997571
 10
5.9629517958
 20
-23.9998520749
 10
5.9546693416
 20
-23.9975006443
 10
5.9462978636
 20
-23.9950515927
 10
5.9378428405
 20
-23.9925109931
 10
5.9293188538
 20
-23.9898711867
 10
5.9207318537
 20
-23.9871387854
 10
5.9120881242
 20
-23.9843204108
 10
5.903403056
 20
-23.9814086765
 10
5.8946834336
 20
-23.9784106572
 10
5.8859363694
 20
-23.9753335234
 10
5.8771780876
 20
-23.9721703051
 10
5.8684162362
 20
-23.9689285065
 10
5.8596587692
 20
-23.9656158402
 10
5.8509227466
 20
-23.9622259316
 10
5.8422167079
 20
-23.9587666654
 10
5.8335494429
 20
-23.9552462756
 10
5.8249387931
 20
-23.951659191
 10
5.8163942391
 20
-23.9480136267
 10
5.8079253443
 20
-23.9443182772
 10
5.7995504988
 20
-23.9405685534
 10
5.7912800955
 20
-23.9367729122
 10
5.7831244395
 20
-23.9329404453
 10
5.7804111787
 20
-23.9316306289
  0
LWPOLYLINE
  5
232
100
AcDbEntity
  8
RACCORDO
100
AcDbPolyline
 62
253
  6
CONTINUOUS
 90
6
 70
0
 10
-11.5296509793
 20
18.7011827195
 10
-11.5042397917
 20
18.7221324662
 10
-11.4795522441
 20
18.7414369207
 10
-11.4558775953
 20
18.7590002822
 10
-11.4333408776
 20
18.7748701547
 10
-11.4118984305
 20
18.7892081445
  0
LWPOLYLINE
  5
233
100
AcDbEntity
  8
RACCORDO
100
AcDbPolyline
 62
253
  6
CONTINUOUS
 90
10
 70
0
 10
-6.7069380309
 20
20.2166771401
 10
-6.6833289382
 20
20.2340591074
 10
-6.6606004066
 20
20.2554568683
 10
-6.6393978665
 20
20.280262811
 10
-6.6203234167
 20
20.3077725407
 10
-6.6039187384
 20
20.3372048642
 10
-6.5906497057
 20
20.3677239695
 10
-6.5808931404
 20
20.3984631874
 10
-6.5749261159
 20
20.4285496055
 10
-6.5729180966
 20
20.4571288371
  0
LWPOLYLINE
  5
234
100
AcDbEntity
  8
RACCORDO
100
AcDbPolyline
 62
7
  6
CONTINUOUS
 90
10
 70
0
 10
-11.470190035
 20
18.7887236487
 10
-11.526209152
 20
18.7489301432
 10
-11.5810708359
 20
18.7048467149
 10
-11.6345123737
 20
18.6567461297
 10
-11.686263939
 20
18.6049207002
 10
-11.7360364028
 20
18.5497048865
 10
-11.7835725653
 20
18.4914268163
 10
-11.8286224494
 20
18.4304243263
 10
-11.8709188995
 20
18.3670939517
 10
-11.9102277543
 20
18.3018169527
  0
LINE
  5
235
100
AcDbEntity
  8
RACCORDO
100
AcDbLine
 62
253
  6
CONTINUOUS
 10
-6.220396137
 20
20.475679962
 11
-5.3303359542
 21
21.0371934437
  0
LINE
  5
236
100
AcDbEntity
  8
RACCORDO
100
AcDbLine
 62
253
  6
CONTINUOUS
 10
-6.0723985036
 20
20.2347546005
 11
-5.1889552649
 21
20.7920936417
  0
LINE
  5
237
100
AcDbEntity
  8
0
100
AcDbLine
 62
7
  6
CONTINUOUS
 10
1.985786439
 20
24.0466948215
 11
-3.3504369669
 21
21.0369086614
  0
LINE
  5
238
100
AcDbEntity
  8
DRAFT
100
AcDbLine
 62
7
  6
CONTINUOUS
 10
2.4939958154
 20
25.290566924
 11
-4.627343
 21
21.2796248602
  0
LWPOLYLINE
  5
239
100
AcDbEntity
  8
RACCORDO
100
AcDbPolyline
 62
253
  6
CONTINUOUS
 90
6
 70
0
 10
-11.4403668733
 20
18.8078343287
 10
-11.4353881027
 20
18.8102758254
 10
-11.425835874
 20
18.8122799522
 10
-11.4151289943
 20
18.8115595931
 10
-11.4035931639
 20
18.8081366612
 10
-11.3915793002
 20
18.8021152812
  0
LWPOLYLINE
  5
23A
100
AcDbEntity
  8
0
100
AcDbPolyline
 62
7
  6
CONTINUOUS
 90
7
 70
0
 10
2.6578191523
 20
23.6928418754
 10
2.6526503689
 20
23.6903767129
 10
2.6474726363
 20
23.6878185176
 10
2.6422859543
 20
23.6851672894
 10
2.6370903231
 20
23.6824230284
 10
2.6318857425
 20
23.6795857346
 10
2.6266722128
 20
23.6766554079
  0
LINE
  5
23B
100
AcDbEntity
  8
0
100
AcDbLine
 62
7
  6
CONTINUOUS
 10
2.697847067
 20
23.7115179828
 11
2.6578191523
 21
23.6928418754
  0
LINE
  5
23C
100
AcDbEntity
  8
0
100
AcDbLine
 62
7
  6
CONTINUOUS
 10
2.7155972088
 20
23.7197039423
 11
2.697847067
 21
23.7115179828
  0
LINE
  5
23D
100
AcDbEntity
  8
0
100
AcDbLine
 62
7
  6
CONTINUOUS
 10
2.7317319223
 20
23.7270441624
 11
2.7155972088
 21
23.7197039423
  0
LWPOLYLINE
  5
23E
100
AcDbEntity
  8
0
100
AcDbPolyline
 62
7
  6
CONTINUOUS
 90
3
 70
0
 10
2.0189891367
 20
24.0636377352
 10
2.0298989636
 20
24.0682482172
 10
2.041179662
 20
24.0722693365
  0
LWPOLYLINE
  5
23F
100
AcDbEntity
  8
0
100
AcDbPolyline
 62
7
  6
CONTINUOUS
 90
11
 70
0
 10
2.1943709186
 20
-25.3619142561
 10
2.2464229681
 20
-25.3890964913
 10
2.3157773759
 20
-25.4169828121
 10
2.3891896005
 20
-25.4374082346
 10
2.4656775724
 20
-25.4497677893
 10
2.5445563522
 20
-25.4536874685
 10
2.6248626418
 20
-25.4489080518
 10
2.7053935263
 20
-25.4354223038
 10
2.7854681859
 20
-25.4133631104
 10
2.8647018292
 20
-25.3828388808
 10
2.9032448759
 20
-25.3647506463
  0
LINE
  5
240
100
AcDbEntity
  8
0
100
AcDbLine
 62
7
  6
CONTINUOUS
 10
2.1951085278
 20
-25.362341741
 11
-12.6974480014
 21
-16.7635662485
  0
LINE
  5
241
100
AcDbEntity
  8
0
100
AcDbLine
 62
253
  6
CONTINUOUS
 10
1.9941935596
 20
-25.0207876679
 11
-12.8948862998
 21
-16.4240195611
  0
LWPOLYLINE
  5
242
100
AcDbEntity
  8
0
100
AcDbPolyline
 62
253
  6
CONTINUOUS
 90
20
 70
0
 10
-12.7055484106
 20
-16.758732354
 10
-12.7211614536
 20
-16.7484844538
 10
-12.736222931
 20
-16.7373302172
 10
-12.7507166907
 20
-16.7252815854
 10
-12.764627608
 20
-16.7123512062
 10
-12.7779407947
 20
-16.6985528869
 10
-12.7906419802
 20
-16.6839013616
 10
-12.8027179254
 20
-16.6684120448
 10
-12.8141557182
 20
-16.6521014347
 10
-12.8249430835
 20
-16.634986934
 10
-12.835068762
 20
-16.6170866153
 10
-12.844521923
 20
-16.598419546
 10
-12.8532924296
 20
-16.5790056051
 10
-12.8613711429
 20
-16.5588652971
 10
-12.8687494328
 20
-16.5380200322
 10
-12.8754193719
 20
-16.5164920093
 10
-12.8813739994
 20
-16.4943040306
 10
-12.8866069997
 20
-16.4714796605
 10
-12.891112708
 20
-16.4480431993
 10
-12.8948862998
 20
-16.4240195611
  0
LWPOLYLINE
  5
243
100
AcDbEntity
  8
0
100
AcDbPolyline
 62
7
  6
CONTINUOUS
 90
7
 70
0
 10
-12.9308955314
 20
-16.5376514665
 10
-12.8936363235
 20
-16.5911463612
 10
-12.8522731559
 20
-16.6400594042
 10
-12.8074304418
 20
-16.6840021653
 10
-12.7597397576
 20
-16.7227586167
 10
-12.709740159
 20
-16.7562897315
 10
-12.696826824
 20
-16.7639236563
  0
LWPOLYLINE
  5
244
100
AcDbEntity
  8
RACCORDO
100
AcDbPolyline
 62
253
  6
CONTINUOUS
 90
3
 70
0
 10
-11.9438006573
 20
18.140635983
 10
-11.9272542729
 20
18.1774034219
 10
-11.9095358486
 20
18.2144205294
  0
LWPOLYLINE
  5
245
100
AcDbEntity
  8
RACCORDO
100
AcDbPolyline
 62
7
  6
CONTINUOUS
 90
3
 70
0
 10
-11.9441666208
 20
18.2392164308
 10
-11.975079301
 20
18.1728399464
 10
-12.0029854254
 20
18.105190414
  0
LWPOLYLINE
  5
246
100
AcDbEntity
  8
RACCORDO
100
AcDbPolyline
 62
253
  6
CONTINUOUS
 90
4
 70
0
 10
-11.9095358486
 20
18.2144205294
 10
-11.8889653706
 20
18.2532199401
 10
-11.8673258621
 20
18.2916025447
 10
-11.8446541496
 20
18.3294910694
  0
LINE
  5
247
100
AcDbEntity
  8
RACCORDO
100
AcDbLine
 62
7
  6
CONTINUOUS
 10
-11.9102277543
 20
18.3018169527
 11
-11.9441624923
 21
18.2392245968
  0
LWPOLYLINE
  5
248
100
AcDbEntity
  8
RACCORDO
100
AcDbPolyline
 62
253
  6
CONTINUOUS
 90
13
 70
0
 10
-11.8446541496
 20
18.3294910694
 10
-11.8209294905
 20
18.3668985675
 10
-11.7962488171
 20
18.4036551355
 10
-11.7708481476
 20
18.4394259827
 10
-11.7447856127
 20
18.4741607702
 10
-11.7181288189
 20
18.5078011192
 10
-11.691163814
 20
18.5400439496
 10
-11.6639655009
 20
18.5708702272
 10
-11.6366077578
 20
18.6002648091
 10
-11.6093998219
 20
18.6279867479
 10
-11.5824187217
 20
18.6540591356
 10
-11.5557329078
 20
18.6785134671
 10
-11.5296509793
 20
18.7011827195
  0
LWPOLYLINE
  5
249
100
AcDbEntity
  8
0
100
AcDbPolyline
 62
7
  6
CONTINUOUS
 90
37
 70
0
 10
-6.220396137
 20
21.0736299343
 10
-6.2261348202
 20
21.066718807
 10
-6.2320605399
 20
21.0598933506
 10
-6.2381720215
 20
21.0531619996
 10
-6.2444705978
 20
21.0465337508
 10
-6.2509516531
 20
21.040016567
 10
-6.2576046807
 20
21.033617417
 10
-6.2644275653
 20
21.0273449422
 10
-6.2714177676
 20
21.0212076345
 10
-6.2785638843
 20
21.0152123493
 10
-6.2858630686
 20
21.0093677566
 10
-6.2933120864
 20
21.0036823524
 10
-6.3008986949
 20
20.9981628419
 10
-6.3086192903
 20
20.9928178571
 10
-6.3164699258
 20
20.9876558259
 10
-6.3244375856
 20
20.9826832653
 10
-6.3325179101
 20
20.9779086838
 10
-6.3407061969
 20
20.973340385
 10
-6.348988651
 20
20.968984705
 10
-6.3573601291
 20
20.9648499514
 10
-6.3658151521
 20
20.9609442192
 10
-6.3743391389
 20
20.9572736506
 10
-6.3829261389
 20
20.95384626
 10
-6.3915698684
 20
20.9506698394
 10
-6.4002549366
 20
20.9477503097
 10
-6.4089745591
 20
20.9450952838
 10
-6.4177216233
 20
20.9427121362
 10
-6.4264799051
 20
20.940606507
 10
-6.4352417565
 20
20.9387854794
 10
-6.4439992234
 20
20.9372558694
 10
-6.4527352461
 20
20.9360229317
 10
-6.4614412847
 20
20.9350930655
 10
-6.4701085497
 20
20.9344723581
 10
-6.4787191996
 20
20.9341655181
 10
-6.4872637535
 20
20.9341780775
 10
-6.4957326484
 20
20.9345151952
 10
-6.5025269144
 20
20.9350291337
  0
LINE
  5
24A
100
AcDbEntity
  8
0
100
AcDbLine
 62
7
  6
CONTINUOUS
 10
-3.3504369669
 20
21.0369086614
 11
-4.4049263983
 21
20.4138087356
  0
LINE
  5
24B
100
AcDbEntity
  8
0
100
AcDbLine
 62
7
  6
CONTINUOUS
 10
-3.7393456966
 20
20.0295107801
 11
-2.8916403106
 21
20.5246598209
  0
LINE
  5
24C
100
AcDbEntity
  8
0
100
AcDbLine
 62
7
  6
CONTINUOUS
 10
2.6266722128
 20
23.6766554079
 11
-1.9715787436
 21
21.052572306
  0
LINE
  5
24D
100
AcDbEntity
  8
0
100
AcDbLine
 62
7
  6
CONTINUOUS
 10
-0.8336978698
 20
20.3955741505
 11
2.6578191523
 21
22.3880775839
  0
LWPOLYLINE
  5
24E
100
AcDbEntity
  8
0
100
AcDbPolyline
 62
253
  6
CONTINUOUS
 90
15
 70
0
 10
-0.0800082432
 20
-22.1709776083
 10
-0.0563556483
 20
-22.1831675963
 10
-0.0319535386
 20
-22.1918888259
 10
-0.0069793092
 20
-22.1970467515
 10
0.0184596757
 20
-22.1985767526
 10
0.0440875582
 20
-22.1963366731
 10
0.0695295384
 20
-22.1901403043
 10
0.0950496059
 20
-22.1795049179
 10
0.1201050365
 20
-22.1647503887
 10
0.1434357403
 20
-22.1470550068
 10
0.165142309
 20
-22.1264422612
 10
0.1854942964
 20
-22.1030558969
 10
0.2038375971
 20
-22.0784355361
 10
0.220272439
 20
-22.0529846563
 10
0.2359853036
 20
-22.0251684778
  0
LWPOLYLINE
  5
24F
100
AcDbEntity
  8
0
100
AcDbPolyline
 62
253
  6
CONTINUOUS
 90
31
 70
0
 10
-0.1312897523
 20
-22.3936584492
 10
-0.0933351984
 20
-22.4141325799
 10
-0.0557569115
 20
-22.4306014183
 10
-0.0185539635
 20
-22.4430642911
 10
0.0186357581
 20
-22.4517129694
 10
0.0554540235
 20
-22.4563528687
 10
0.0908222216
 20
-22.4564030786
 10
0.1248723777
 20
-22.4513346997
 10
0.1574807914
 20
-22.4416706117
 10
0.1871837811
 20
-22.4284086482
 10
0.2134602114
 20
-22.411249843
 10
0.2368367825
 20
-22.3904891599
 10
0.2574164903
 20
-22.3680189991
 10
0.2749773353
 20
-22.3440704917
 10
0.2897411644
 20
-22.3184126393
 10
0.3024726445
 20
-22.2922476021
 10
0.3132095337
 20
-22.2658074001
 10
0.3219117529
 20
-22.238861702
 10
0.3292258485
 20
-22.2119201219
 10
0.3352258841
 20
-22.1850841313
 10
0.3398354041
 20
-22.1582539899
 10
0.3434750732
 20
-22.1316375658
 10
0.3461945641
 20
-22.1052927305
 10
0.347942124
 20
-22.0791631133
 10
0.3489865209
 20
-22.0532850434
 10
0.3493630493
 20
-22.0276953353
 10
0.3490347944
 20
-22.0023583412
 10
0.348162583
 20
-21.9772014308
 10
0.3467997322
 20
-21.9522006043
 10
0.3448918367
 20
-21.9273806449
 10
0.2989243993
 20
-21.4825012794
  0
LWPOLYLINE
  5
250
100
AcDbEntity
  8
0
100
AcDbPolyline
 62
253
  6
CONTINUOUS
 90
34
 70
0
 10
5.0195192879
 20
-25.221171856
 10
5.0280994908
 20
-25.2258963851
 10
5.0370580141
 20
-25.2303807219
 10
5.0463747099
 20
-25.2346147789
 10
5.0560286308
 20
-25.2385890343
 10
5.0659980585
 20
-25.2422945451
 10
5.0762605512
 20
-25.2457229694
 10
5.0867930201
 20
-25.2488665945
 10
5.0975717805
 20
-25.2517183522
 10
5.108572585
 20
-25.2542718277
 10
5.1197706916
 20
-25.2565212789
 10
5.1311409113
 20
-25.2584616464
 10
5.1426576609
 20
-25.2600885656
 10
5.1542950342
 20
-25.2613983783
 10
5.166026858
 20
-25.2623881403
 10
5.1778267412
 20
-25.2630556268
 10
5.1896681494
 20
-25.2633993383
 10
5.201524443
 20
-25.2634185031
 10
5.2133689335
 20
-25.2631130807
 10
5.2251749482
 20
-25.2624837639
 10
5.2369159677
 20
-25.2615319712
 10
5.2485656618
 20
-25.2602598375
 10
5.2600979356
 20
-25.2586702049
 10
5.2714867402
 20
-25.2567666564
 10
5.282706219
 20
-25.2545535218
 10
5.2937310014
 20
-25.2520358318
 10
5.304536457
 20
-25.2492192378
 10
5.3150984949
 20
-25.2461100294
 10
5.3253948888
 20
-25.2427146671
 10
5.3354008695
 20
-25.2390412346
 10
5.3450898103
 20
-25.2350997563
 10
5.3544390305
 20
-25.2309000587
 10
5.3634294072
 20
-25.2264513529
 10
5.3720412476
 20
-25.2217639366
  0
LWPOLYLINE
  5
251
100
AcDbEntity
  8
0
100
AcDbPolyline
 62
253
  6
CONTINUOUS
 90
34
 70
0
 10
5.0195192879
 20
-24.9006516831
 10
5.0280959406
 20
-24.9053743482
 10
5.0370512485
 20
-24.9098573213
 10
5.0463651609
 20
-24.9140904741
 10
5.0560170449
 20
-24.918064327
 10
5.0659850528
 20
-24.921769786
 10
5.0762460977
 20
-24.9251982283
 10
5.0867768461
 20
-24.9283418711
 10
5.097553864
 20
-24.9311937323
 10
5.108552942
 20
-24.9337474044
 10
5.1197493674
 20
-24.9359971466
 10
5.1311179461
 20
-24.9379378934
 10
5.142633082
 20
-24.9395652745
 10
5.1542688677
 20
-24.9408756298
 10
5.165999151
 20
-24.9418660153
 10
5.1777975611
 20
-24.9425342049
 10
5.1896375689
 20
-24.9428786961
 10
5.2014925485
 20
-24.9428987143
 10
5.213335844
 20
-24.9425942144
 10
5.2251408243
 20
-24.941965881
 10
5.2368809433
 20
-24.9410151269
 10
5.2485298014
 20
-24.93974409
 10
5.2600612026
 20
-24.9381556284
 10
5.2714492181
 20
-24.936253314
 10
5.2826682448
 20
-24.9340414232
 10
5.2936930646
 20
-24.9315249268
 10
5.3044988754
 20
-24.9287094852
 10
5.3150613533
 20
-24.9256014365
 10
5.325356734
 20
-24.9222077762
 10
5.3353618832
 20
-24.9185361329
 10
5.3450543217
 20
-24.9145947569
 10
5.3544122602
 20
-24.9103925084
 10
5.3634146499
 20
-24.9059388391
 10
5.3720412476
 20
-24.9012437638
  0
LINE
  5
252
100
AcDbEntity
  8
0
100
AcDbLine
 62
253
  6
CONTINUOUS
 10
-11.1621555388
 20
-16.0245747933
 11
-0.1312897523
 21
-22.3936584492
  0
LINE
  5
253
100
AcDbEntity
  8
0
100
AcDbLine
 62
7
  6
CONTINUOUS
 10
4.0942819998
 20
-24.7714939295
 11
5.0712899432
 21
-25.3356060712
  0
LINE
  5
254
100
AcDbEntity
  8
0
100
AcDbLine
 62
253
  6
CONTINUOUS
 10
4.1728904267
 20
-24.7323389622
 11
5.0195192879
 21
-25.221171856
  0
LINE
  5
255
100
AcDbEntity
  8
0
100
AcDbLine
 62
253
  6
CONTINUOUS
 10
-11.1108740297
 20
-15.8018939524
 11
-0.0800082432
 21
-22.1709776083
  0
LINE
  5
256
100
AcDbEntity
  8
0
100
AcDbLine
 62
253
  6
CONTINUOUS
 10
5.0195192879
 20
-24.9006516831
 11
4.4709131988
 21
-24.5838934029
  0
LINE
  5
257
100
AcDbEntity
  8
0
100
AcDbLine
 62
253
  6
CONTINUOUS
 10
5.1079076356
 20
-24.6728463587
 11
4.7301810143
 21
-24.4547517416
  0
LWPOLYLINE
  5
258
100
AcDbEntity
  8
0
100
AcDbPolyline
 62
253
  6
CONTINUOUS
 90
9
 70
0
 10
-16.4877264388
 20
-4.1262081154
 10
-16.4876982411
 20
-4.1542193472
 10
-16.4819950175
 20
-4.1803462917
 10
-16.470912436
 20
-4.2065066702
 10
-16.4545719198
 20
-4.2324138641
 10
-16.433152499
 20
-4.2577840289
 10
-16.4068888491
 20
-4.2823392036
 10
-16.3760687203
 20
-4.3058103566
 10
-16.3410297844
 20
-4.3279403331
  0
LWPOLYLINE
  5
259
100
AcDbEntity
  8
RACCORDO
100
AcDbPolyline
 62
253
  6
CONTINUOUS
 90
9
 70
0
 10
-12.0352883555
 20
17.8663230752
 10
-12.0277213032
 20
17.8975219643
 10
-12.0191060957
 20
17.9298305384
 10
-12.0093813258
 20
17.9632099197
 10
-11.99855981
 20
17.9974051185
 10
-11.986599242
 20
18.0323707447
 10
-11.973457978
 20
18.0680562844
 10
-11.9591873616
 20
18.1041889495
 10
-11.9438006573
 20
18.140635983
  0
LWPOLYLINE
  5
25A
100
AcDbEntity
  8
RACCORDO
100
AcDbPolyline
 62
7
  6
CONTINUOUS
 90
5
 70
0
 10
-12.0029854254
 20
18.105190414
 10
-12.0275461105
 20
18.0369497718
 10
-12.0485953478
 20
17.9684864948
 10
-12.0659769718
 20
17.9001872106
 10
-12.0795627086
 20
17.8324049488
  0
LINE
  5
25B
100
AcDbEntity
  8
0
100
AcDbLine
 62
7
  6
CONTINUOUS
 10
-4.7668218799
 20
22.3322360535
 11
-4.7843563138
 21
22.3072403019
  0
LINE
  5
25C
100
AcDbEntity
  8
0
100
AcDbLine
 62
253
  6
CONTINUOUS
 10
-5.3303359542
 20
21.6987561685
 11
-4.8020687825
 21
22.3615684349
  0
LINE
  5
25D
100
AcDbEntity
  8
0
100
AcDbLine
 62
7
  6
CONTINUOUS
 10
-5.3303359542
 20
21.6222043257
 11
-4.784368782
 21
22.3072246302
  0
LINE
  5
25E
100
AcDbEntity
  8
0
100
AcDbLine
 62
7
  6
CONTINUOUS
 10
-3.0322389154
 20
19.1171633612
 11
-3.7393456966
 21
18.6660993738
  0
LINE
  5
25F
100
AcDbEntity
  8
0
100
AcDbLine
 62
7
  6
CONTINUOUS
 10
-1.1230506062
 20
18.1866896753
 11
-0.9109185718
 21
18.3220088716
  0
LINE
  5
260
100
AcDbEntity
  8
DRAFT
100
AcDbLine
 62
7
  6
CONTINUOUS
 10
-4.7292951902
 20
17.6049405011
 11
-5.5206895038
 21
17.1166092205
  0
LINE
  5
261
100
AcDbEntity
  8
0
100
AcDbLine
 62
253
  6
CONTINUOUS
 10
-1.2652947139
 20
19.5856282562
 11
-1.0523399281
 21
19.7100162331
  0
LINE
  5
262
100
AcDbEntity
  8
0
100
AcDbLine
 62
253
  6
CONTINUOUS
 10
-1.1230506062
 20
19.341157092
 11
-0.9109185718
 21
19.4650644956
  0
LINE
  5
263
100
AcDbEntity
  8
0
100
AcDbLine
 62
7
  6
CONTINUOUS
 10
0.5444227745
 20
18.7398969489
 11
0.33171068
 21
18.6156507292
  0
LINE
  5
264
100
AcDbEntity
  8
0
100
AcDbLine
 62
7
  6
CONTINUOUS
 10
-0.2038117906
 20
19.7918526444
 11
4.411665317
 21
22.4567712809
  0
LINE
  5
265
100
AcDbEntity
  8
0
100
AcDbLine
 62
7
  6
CONTINUOUS
 10
0.545004481
 20
18.7402328075
 11
0.544422779
 21
18.7398969515
  0
LINE
  5
266
100
AcDbEntity
  8
0
100
AcDbLine
 62
7
  6
CONTINUOUS
 10
-0.9109185718
 20
18.3220088716
 11
-0.2038117906
 21
18.7260083975
  0
LINE
  5
267
100
AcDbEntity
  8
0
100
AcDbLine
 62
7
  6
CONTINUOUS
 10
5.4571562161
 20
23.5796752457
 11
-0.4801444793
 21
20.1914368538
  0
LINE
  5
268
100
AcDbEntity
  8
0
100
AcDbLine
 62
253
  6
CONTINUOUS
 10
-1.0523399281
 20
19.7100162331
 11
-0.3452331469
 21
20.1135407413
  0
LINE
  5
269
100
AcDbEntity
  8
0
100
AcDbLine
 62
253
  6
CONTINUOUS
 10
-0.9109185718
 20
19.4650644956
 11
-0.2038117906
 21
19.8685890038
  0
LINE
  5
26A
100
AcDbEntity
  8
0
100
AcDbLine
 62
7
  6
CONTINUOUS
 10
1.2521112666
 20
19.1437573183
 11
0.5450044854
 21
18.7402328101
  0
LINE
  5
26B
100
AcDbEntity
  8
0
100
AcDbLine
 62
253
  6
CONTINUOUS
 10
1.351823128
 20
19.1336817173
 11
0.6447163468
 21
18.7301572091
  0
LINE
  5
26C
100
AcDbEntity
  8
SMUSSO
100
AcDbLine
 62
7
  6
CONTINUOUS
 10
-4.7292951902
 20
16.8523071364
 11
-4.9020416298
 21
16.7594096915
  0
LWPOLYLINE
  5
26D
100
AcDbEntity
  8
0
100
AcDbPolyline
 62
7
  6
CONTINUOUS
 90
3
 70
0
 10
7.6075666207
 20
20.8349197221
 10
7.6184724233
 20
20.8396554214
 10
7.6297529487
 20
20.8437967949
  0
LWPOLYLINE
  5
26E
100
AcDbEntity
  8
0
100
AcDbPolyline
 62
7
  6
CONTINUOUS
 90
8
 70
0
 10
7.6297529487
 20
20.8437967949
 10
7.6413979701
 20
20.8473356196
 10
7.6533895871
 20
20.8502656038
 10
7.6657232065
 20
20.8525773449
 10
7.678409339
 20
20.8542569364
 10
7.6914285652
 20
20.8552972785
 10
7.7047773709
 20
20.855688232
 10
7.7184936516
 20
20.8554073851
  0
LWPOLYLINE
  5
26F
100
AcDbEntity
  8
0
100
AcDbPolyline
 62
253
  6
CONTINUOUS
 90
7
 70
0
 10
7.448559956
 20
-23.3606851821
 10
7.4432004448
 20
-23.3578670088
 10
7.4373997588
 20
-23.3553438481
 10
7.4313848337
 20
-23.3532440861
 10
7.4251680688
 20
-23.3515714455
 10
7.4187608063
 20
-23.350328392
 10
7.4121754148
 20
-23.3495168385
  0
LINE
  5
270
100
AcDbEntity
  8
0
100
AcDbLine
 62
253
  6
CONTINUOUS
 10
7.4487931072
 20
-23.3608192993
 11
7.448559956
 21
-23.3606851821
  0
LINE
  5
271
100
AcDbEntity
  8
0
100
AcDbLine
 62
253
  6
CONTINUOUS
 10
7.1976959683
 20
-23.2256790942
 11
7.4121754148
 21
-23.3495168385
  0
LINE
  5
272
100
AcDbEntity
  8
0
100
AcDbLine
 62
7
  6
CONTINUOUS
 10
7.2068454223
 20
-23.2211217384
 11
7.4487931072
 21
-23.3608192993
  0
LINE
  5
273
100
AcDbEntity
  8
0
100
AcDbLine
 62
253
  6
CONTINUOUS
 10
7.4205080072
 20
-23.3546247533
 11
7.4121754148
 21
-23.3495168385
  0
LWPOLYLINE
  5
274
100
AcDbEntity
  8
0
100
AcDbPolyline
 62
7
  6
CONTINUOUS
 90
30
 70
0
 10
-11.4695440178
 20
-11.4513767738
 10
-11.4212377645
 20
-11.5013771252
 10
-11.3674603259
 20
-11.5540453968
 10
-11.308211702
 20
-11.6093815885
 10
-11.2429604039
 20
-11.6678451114
 10
-11.1722379206
 20
-11.7289765545
 10
-11.0976387187
 20
-11.7913976848
 10
-11.0190747343
 20
-11.8551377991
 10
-10.9366340313
 20
-11.9201676006
 10
-10.8521752686
 20
-11.9850209664
 10
-10.7656526036
 20
-12.0496938886
 10
-10.6771118788
 20
-12.1141903751
 10
-10.5885492803
 20
-12.1770563267
 10
-10.4999643114
 20
-12.2382547041
 10
-10.4113574687
 20
-12.2978225466
 10
-10.3247264293
 20
-12.3544168733
 10
-10.2401160756
 20
-12.4079701376
 10
-10.157481525
 20
-12.458549886
 10
-10.0786858067
 20
-12.505015778
 10
-10.0038161241
 20
-12.5472743626
 10
-9.9327852737
 20
-12.5854190908
 10
-9.8671946746
 20
-12.6185899743
 10
-9.8071679081
 20
-12.6466740266
 10
-9.7525813929
 20
-12.6697842343
 10
-9.7046658039
 20
-12.6873995684
 10
-9.6635726785
 20
-12.6993952067
 10
-9.6291504793
 20
-12.7058959715
 10
-9.6021752686
 20
-12.7067553002
 10
-9.582816213
 20
-12.7018450416
 10
-9.5720899974
 20
-12.6930691614
  0
LWPOLYLINE
  5
275
100
AcDbEntity
  8
ASSI
100
AcDbPolyline
 62
7
  6
CONTINUOUS
 90
33
 70
0
 10
-12.5302041896
 20
-10.8389648838
 10
-12.4328642653
 20
-10.9399950667
 10
-12.3250561673
 20
-11.0462175445
 10
-12.2067798954
 20
-11.1576323173
 10
-12.0771365018
 20
-11.275025889
 10
-11.9370249343
 20
-11.3976117556
 10
-11.7891420369
 20
-11.5230304051
 10
-11.6333372623
 20
-11.6513367144
 10
-11.4697611576
 20
-11.7824758066
 10
-11.3015622083
 20
-11.9139235384
 10
-11.1286508599
 20
-12.0456858891
 10
-10.9511166667
 20
-12.1777568794
 10
-10.772376777
 20
-12.3075944293
 10
-10.5924078339
 20
-12.4351552723
 10
-10.4112331942
 20
-12.560482675
 10
-10.2323400768
 20
-12.6811643565
 10
-10.0557726798
 20
-12.7971103194
 10
-9.881486805
 20
-12.9084105612
 10
-9.7128370778
 20
-13.0129227936
 10
-9.5499326821
 20
-13.1105155184
 10
-9.3926644339
 20
-13.2013202339
 10
-9.2440594058
 20
-13.2835891462
 10
-9.1042854229
 20
-13.3571568986
 10
-8.9731746601
 20
-13.4221888478
 10
-8.8532507154
 20
-13.4774332697
 10
-8.744730301
 20
-13.5227005593
 10
-8.6473967046
 20
-13.5581803217
 10
-8.5631233869
 20
-13.5831896483
 10
-8.4921633532
 20
-13.5975257047
 10
-8.434263598
 20
-13.6013913254
 10
-8.3905385663
 20
-13.5947121056
 10
-8.3612628523
 20
-13.5772837694
 10
-8.3557582052
 20
-13.5707221999
  0
LWPOLYLINE
  5
276
100
AcDbEntity
  8
0
100
AcDbPolyline
 62
253
  6
CONTINUOUS
 90
3
 70
0
 10
-16.2075675752
 20
-5.0397947291
 10
-16.2489280645
 20
-4.9731563781
 10
-16.2835986402
 20
-4.898983956
  0
LWPOLYLINE
  5
277
100
AcDbEntity
  8
0
100
AcDbPolyline
 62
253
  6
CONTINUOUS
 90
7
 70
0
 10
-16.2835986402
 20
-4.898983956
 10
-16.3113371816
 20
-4.8177954435
 10
-16.3319499771
 20
-4.7301578182
 10
-16.3452930779
 20
-4.6366830954
 10
-16.3512733028
 20
-4.5380240531
 10
-16.3498488892
 20
-4.4348696738
 10
-16.3410297844
 20
-4.3279403331
  0
LWPOLYLINE
  5
278
100
AcDbEntity
  8
0
100
AcDbPolyline
 62
253
  6
CONTINUOUS
 90
21
 70
0
 10
-13.0418048823
 20
18.4116944594
 10
-13.0423902062
 20
18.405030297
 10
-13.0425432842
 20
18.3945599841
 10
-13.0417704866
 20
18.3840119165
 10
-13.0400732523
 20
18.3734057343
 10
-13.0374547415
 20
18.3627611859
 10
-13.0339198298
 20
18.352098091
 10
-13.0294750991
 20
18.3414363039
 10
-13.0241288254
 20
18.3307956766
 10
-13.0178909631
 20
18.3201960214
 10
-13.0107731269
 20
18.3096570745
 10
-13.00278857
 20
18.2991984591
 10
-12.9939521595
 20
18.2888396488
 10
-12.9842803482
 20
18.2785999312
 10
-12.9737911449
 20
18.2684983724
 10
-12.96250408
 20
18.2585537811
 10
-12.9504401696
 20
18.2487846738
 10
-12.9376218763
 20
18.2392092402
 10
-12.9240730674
 20
18.2298453094
 10
-12.9098189701
 20
18.2207103167
 10
-12.8948861252
 20
18.2118212712
  0
LWPOLYLINE
  5
279
100
AcDbEntity
  8
0
100
AcDbPolyline
 62
7
  6
CONTINUOUS
 90
10
 70
0
 10
-13.0417722223
 20
18.4119725077
 10
-13.1641453888
 20
17.3385536906
 10
-13.2822727375
 20
16.1938983653
 10
-13.3869172788
 20
15.0552828008
 10
-13.4780547368
 20
13.9229494789
 10
-13.5556637001
 20
12.7971365203
 10
-13.6197250745
 20
11.6780829874
 10
-13.6702223938
 20
10.5660242665
 10
-13.7071416106
 20
9.4611977803
 10
-13.7292319841
 20
8.4435022884
  0
LWPOLYLINE
  5
27A
100
AcDbEntity
  8
RACCORDO
100
AcDbPolyline
 62
7
  6
CONTINUOUS
 90
10
 70
0
 10
-12.0887694371
 20
17.7694476457
 10
-12.1421202493
 20
17.3134138516
 10
-12.2003462413
 20
16.7948513595
 10
-12.2558341953
 20
16.2774773149
 10
-12.3085812101
 20
15.7613176309
 10
-12.3585850976
 20
15.2463938095
 10
-12.405843888
 20
14.7327256694
 10
-12.4503555092
 20
14.2203346381
 10
-12.4921177711
 20
13.7092462854
 10
-12.5260809976
 20
13.2674456871
  0
LWPOLYLINE
  5
27B
100
AcDbEntity
  8
0
100
AcDbPolyline
 62
253
  6
CONTINUOUS
 90
37
 70
0
 10
-16.3410297844
 20
-4.3279403331
 10
-16.2991277841
 20
-3.9863853333
 10
-16.2528743555
 20
-3.6499313251
 10
-16.202617305
 20
-3.3188281401
 10
-16.1489165959
 20
-2.9945818806
 10
-16.0919208265
 20
-2.6761451047
 10
-16.0311887539
 20
-2.3598620254
 10
-15.9666894551
 20
-2.0449614334
 10
-15.8987516091
 20
-1.7324838682
 10
-15.8272658513
 20
-1.4214202682
 10
-15.752328126
 20
-1.1118120622
 10
-15.6740678535
 20
-0.8038405632
 10
-15.592345351
 20
-0.4966830103
 10
-15.5072429801
 20
-0.1904513463
 10
-15.4188349866
 20
0.114775211
 10
-15.3268993536
 20
0.4198824327
 10
-15.2314711287
 20
0.7248099681
 10
-15.1326025749
 20
1.0294445632
 10
-15.0300314864
 20
1.3345992181
 10
-14.9237618347
 20
1.6402190277
 10
-14.8138193616
 20
1.9461882571
 10
-14.6999167425
 20
2.2532283013
 10
-14.5820401801
 20
2.5612616302
 10
-14.4601862281
 20
2.870185514
 10
-14.3340313245
 20
3.1806770535
 10
-14.2035332408
 20
3.4926650649
 10
-14.0686749516
 20
3.8060187811
 10
-13.9291243895
 20
4.1213138195
 10
-13.7849775961
 20
4.4381252994
 10
-13.6360542813
 20
4.7566450825
 10
-13.4815345603
 20
5.0783474805
 10
-13.3219997799
 20
5.4017367543
 10
-13.1567170309
 20
5.7280163939
 10
-12.9826558807
 20
6.0626101002
 10
-12.7985394395
 20
6.4071116854
 10
-12.6050569101
 20
6.7593634411
 10
-12.4019416556
 20
7.1190520879
  0
LWPOLYLINE
  5
27C
100
AcDbEntity
  8
RACCORDO
100
AcDbPolyline
 62
253
  6
CONTINUOUS
 90
4
 70
0
 10
-12.0593922515
 20
17.7294174085
 10
-12.056179451
 20
17.7541153544
 10
-12.0522406602
 20
17.780140491
 10
-12.0475018385
 20
17.8074973657
  0
LWPOLYLINE
  5
27D
100
AcDbEntity
  8
0
100
AcDbPolyline
 62
253
  6
CONTINUOUS
 90
43
 70
0
 10
-12.8948862998
 20
18.2118212008
 10
-12.891112637
 20
18.2402798914
 10
-12.8866068723
 20
18.2690112758
 10
-12.881373848
 20
18.2979848617
 10
-12.8754192776
 20
18.327169799
 10
-12.8687494699
 20
18.3565352276
 10
-12.861371287
 20
18.386050318
 10
-12.8532925707
 20
18.4156840166
 10
-12.8445219947
 20
18.4454046557
 10
-12.8350687832
 20
18.4751803046
 10
-12.8249431298
 20
18.5049792771
 10
-12.8141558284
 20
18.5347700994
 10
-12.8027180951
 20
18.5645211261
 10
-12.7906421882
 20
18.5942008579
 10
-12.7779410313
 20
18.6237778075
 10
-12.7646278543
 20
18.6532204652
 10
-12.7507169122
 20
18.6824976816
 10
-12.7362231026
 20
18.7115783907
 10
-12.7211615822
 20
18.7404314761
 10
-12.7055485205
 20
18.7690263523
 10
-12.6894006099
 20
18.7973327617
 10
-12.6727346803
 20
18.8253204964
 10
-12.6555685971
 20
18.8529599321
 10
-12.6379207355
 20
18.8802217973
 10
-12.6198094904
 20
18.9070769706
 10
-12.6012542508
 20
18.9334970662
 10
-12.5822749027
 20
18.9594540823
 10
-12.5628913016
 20
18.984920172
 10
-12.543124253
 20
19.0098683689
 10
-12.5229948976
 20
19.0342723137
 10
-12.5025242125
 20
19.0581059002
 10
-12.4817341492
 20
19.0813439158
 10
-12.46064696
 20
19.1039618041
 10
-12.4392845811
 20
19.1259353858
 10
-12.4176698135
 20
19.1472415288
 10
-12.3958258926
 20
19.1678576123
 10
-12.3737758167
 20
19.1877613025
 10
-12.3515433998
 20
19.2069314359
 10
-12.3291522799
 20
19.2253479569
 10
-12.3066254819
 20
19.2429913497
 10
-12.2839868138
 20
19.2598429416
 10
-12.2612608487
 20
19.275884962
 10
-12.2384719328
 20
19.2911004732
  0
LINE
  5
27E
100
AcDbEntity
  8
RACCORDO
100
AcDbLine
 62
7
  6
CONTINUOUS
 10
-12.0795627086
 20
17.8324049488
 11
-12.0887734576
 21
17.7694130115
  0
LWPOLYLINE
  5
27F
100
AcDbEntity
  8
RACCORDO
100
AcDbPolyline
 62
253
  6
CONTINUOUS
 90
19
 70
0
 10
-12.3132774687
 20
17.876007551
 10
-12.3031328485
 20
17.9425394422
 10
-12.2889676839
 20
18.0102936159
 10
-12.2708599686
 20
18.0788801528
 10
-12.2489200367
 20
18.1478686256
 10
-12.223263983
 20
18.2168959338
 10
-12.1939952884
 20
18.285667884
 10
-12.1612267337
 20
18.3538531314
 10
-12.1251590934
 20
18.4209779734
 10
-12.0860589585
 20
18.4865411763
 10
-12.0441498228
 20
18.5501582985
 10
-11.9996732933
 20
18.6114569904
 10
-11.9529744189
 20
18.6699897006
 10
-11.9043806027
 20
18.7253734822
 10
-11.8541323052
 20
18.7773619468
 10
-11.8024628755
 20
18.8257410603
 10
-11.7496462936
 20
18.8702546573
 10
-11.6960026179
 20
18.9106217618
 10
-11.6418368779
 20
18.9466108701
  0
LWPOLYLINE
  5
280
100
AcDbEntity
  8
0
100
AcDbPolyline
 62
253
  6
CONTINUOUS
 90
8
 70
0
 10
-12.8972792224
 20
6.9223832305
 10
-12.903725211
 20
6.8849669135
 10
-12.9090239438
 20
6.8482294147
 10
-12.9130987875
 20
6.8120893622
 10
-12.9162978307
 20
6.7764370966
 10
-12.9187372212
 20
6.7412359991
 10
-12.9203012475
 20
6.7065224455
 10
-12.920990127
 20
6.6722963147
  0
LWPOLYLINE
  5
281
100
AcDbEntity
  8
RACCORDO
100
AcDbPolyline
 62
253
  6
CONTINUOUS
 90
3
 70
0
 10
-12.0475018385
 20
17.8074973657
 10
-12.0418731263
 20
17.8362475492
 10
-12.0352883555
 20
17.8663230752
  0
LWPOLYLINE
  5
282
100
AcDbEntity
  8
0
100
AcDbPolyline
 62
253
  6
CONTINUOUS
 90
27
 70
0
 10
-6.9316167451
 20
21.1391199472
 10
-6.9360332325
 20
21.1284398219
 10
-6.9408368348
 20
21.1180127606
 10
-6.946016979
 20
21.1078624444
 10
-6.9515626556
 20
21.0980112367
 10
-6.9574612197
 20
21.0884823388
 10
-6.9636981613
 20
21.0792994888
 10
-6.9702588578
 20
21.0704841134
 10
-6.977128993
 20
21.0620553514
 10
-6.984293208
 20
21.0540320691
 10
-6.9917354514
 20
21.0464323015
 10
-6.9994388465
 20
21.0392733394
 10
-7.0073858577
 20
21.0325714996
 10
-7.0155584847
 20
21.0263419545
 10
-7.0239383377
 20
21.0205987147
 10
-7.0325065199
 20
21.0153547332
 10
-7.0412437043
 20
21.0106218442
 10
-7.0501301571
 20
21.0064107423
 10
-7.0591458001
 20
21.0027309443
 10
-7.0682702756
 20
20.9995907587
 10
-7.0774829932
 20
20.996997271
 10
-7.0867631574
 20
20.9949563353
 10
-7.09608982
 20
20.9934725588
 10
-7.1054419278
 20
20.9925492909
 10
-7.1147983699
 20
20.9921886158
 10
-7.1241380366
 20
20.9923913482
 10
-7.1302842563
 20
20.9928337529
  0
LWPOLYLINE
  5
283
100
AcDbEntity
  8
0
100
AcDbPolyline
 62
7
  6
CONTINUOUS
 90
16
 70
0
 10
-12.7591406301
 20
6.9168181907
 10
-12.9929733866
 20
6.4913917157
 10
-13.3829820138
 20
5.7480379154
 10
-13.753638149
 20
4.9971059231
 10
-14.1042767322
 20
4.2399237856
 10
-14.4342805527
 20
3.4777985718
 10
-14.7430782586
 20
2.712009781
 10
-15.030110481
 20
1.9438895216
 10
-15.294850789
 20
1.1747802377
 10
-15.5368247426
 20
0.4059746942
 10
-15.7555785996
 20
-0.3611960816
 10
-15.9506908174
 20
-1.1253866126
 10
-16.1217874216
 20
-1.8852977133
 10
-16.2685255693
 20
-2.6396199864
 10
-16.3905949869
 20
-3.3870262071
 10
-16.4877264388
 20
-4.1262081154
  0
LINE
  5
284
100
AcDbEntity
  8
0
100
AcDbLine
 62
7
  6
CONTINUOUS
 10
-12.7591273086
 20
6.9168420215
 11
-12.7594230902
 21
6.916312337
  0
LINE
  5
285
100
AcDbEntity
  8
0
100
AcDbLine
 62
253
  6
CONTINUOUS
 10
0.424387242
 20
18.6012396244
 11
0.431761561
 21
18.6057692323
  0
LINE
  5
286
100
AcDbEntity
  8
0
100
AcDbLine
 62
253
  6
CONTINUOUS
 10
0.6447163468
 20
18.7301572091
 11
0.431761561
 21
18.6057692323
  0
LINE
  5
287
100
AcDbEntity
  8
0
100
AcDbLine
 62
7
  6
CONTINUOUS
 10
2.0581071577
 20
17.6667376676
 11
1.2104017717
 21
17.1715886268
  0
LINE
  5
288
100
AcDbEntity
  8
0
100
AcDbLine
 62
7
  6
CONTINUOUS
 10
7.5764196811
 20
20.8187332546
 11
2.9781687247
 21
18.1946501527
  0
LWPOLYLINE
  5
289
100
AcDbEntity
  8
0
100
AcDbPolyline
 62
7
  6
CONTINUOUS
 90
7
 70
0
 10
7.6075666207
 20
20.8349197221
 10
7.6023978372
 20
20.8324545596
 10
7.5972201046
 20
20.8298963643
 10
7.5920334226
 20
20.8272451361
 10
7.5868377914
 20
20.8245008751
 10
7.5816332109
 20
20.8216635813
 10
7.5764196811
 20
20.8187332546
  0
LINE
  5
28A
100
AcDbEntity
  8
0
100
AcDbLine
 62
7
  6
CONTINUOUS
 10
8.2897059387
 20
20.4843185989
 11
8.2501240518
 21
20.4658585297
  0
LINE
  5
28B
100
AcDbEntity
  8
0
100
AcDbLine
 62
7
  6
CONTINUOUS
 10
8.3072527616
 20
20.4924039184
 11
8.2897059387
 21
20.4843185989
  0
LWPOLYLINE
  5
28C
100
AcDbEntity
  8
0
100
AcDbPolyline
 62
253
  6
CONTINUOUS
 90
28
 70
0
 10
0.0306698618
 20
-16.3327423705
 10
0.0486025391
 20
-16.3420814314
 10
0.0661284288
 20
-16.3488926416
 10
0.0832357889
 20
-16.3530850914
 10
0.1000126816
 20
-16.3545912422
 10
0.1163303243
 20
-16.353281213
 10
0.1318114204
 20
-16.3490324983
 10
0.1462516668
 20
-16.3417796117
 10
0.1597123722
 20
-16.3315528722
 10
0.172180188
 20
-16.3184494537
 10
0.1835464409
 20
-16.3024739936
 10
0.193764587
 20
-16.2836199019
 10
0.2029115087
 20
-16.2619705001
 10
0.2109050784
 20
-16.2375136558
 10
0.2176659342
 20
-16.2102590219
 10
0.2232729356
 20
-16.1803093795
 10
0.2276312354
 20
-16.1476900271
 10
0.2306608186
 20
-16.1123882794
 10
0.232454159
 20
-16.0744305584
 10
0.23290789
 20
-16.0338704908
 10
0.2319243114
 20
-15.9906674432
 10
0.2295779457
 20
-15.9446653576
 10
0.2257251058
 20
-15.8958798091
 10
0.2202424829
 20
-15.8442922322
 10
0.2131764802
 20
-15.7896397682
 10
0.2043963485
 20
-15.7318179648
 10
0.1936294702
 20
-15.6709258659
 10
0.1806584294
 20
-15.6069946711
  0
LWPOLYLINE
  5
28D
100
AcDbEntity
  8
0
100
AcDbPolyline
 62
253
  6
CONTINUOUS
 90
28
 70
0
 10
0.0688882095
 20
-16.442103847
 10
0.0979683076
 20
-16.4576489265
 10
0.1272393775
 20
-16.4698369756
 10
0.1567020428
 20
-16.4786676078
 10
0.1866137789
 20
-16.4842701497
 10
0.2167197399
 20
-16.486513645
 10
0.2462527241
 20
-16.4850068772
 10
0.2750674008
 20
-16.4796017089
 10
0.3033144148
 20
-16.470442991
 10
0.3306709327
 20
-16.4575787405
 10
0.3570965124
 20
-16.4409975804
 10
0.3826388984
 20
-16.4207063873
 10
0.4071076313
 20
-16.3967805064
 10
0.4305165953
 20
-16.3692066352
 10
0.4528609062
 20
-16.3379925563
 10
0.4739218115
 20
-16.3032453381
 10
0.4937005094
 20
-16.2649906998
 10
0.5122058347
 20
-16.2231968078
 10
0.5292302333
 20
-16.1778845709
 10
0.5447967587
 20
-16.1291317215
 10
0.5588933769
 20
-16.076853862
 10
0.5712601467
 20
-16.0208285727
 10
0.5819669262
 20
-15.9611054152
 10
0.5909568268
 20
-15.8976270437
 10
0.5977806385
 20
-15.8300101799
 10
0.6022938543
 20
-15.7581239501
 10
0.6046563421
 20
-15.6820900871
 10
0.6048761925
 20
-15.6019038008
  0
LWPOLYLINE
  5
28E
100
AcDbEntity
  8
0
100
AcDbPolyline
 62
253
  6
CONTINUOUS
 90
19
 70
0
 10
-0.0753961553
 20
-16.2715011815
 10
-0.1008280912
 20
-16.2571803341
 10
-0.1244817178
 20
-16.2448079845
 10
-0.146357035
 20
-16.2343841327
 10
-0.1666787228
 20
-16.2257986009
 10
-0.1852221013
 20
-16.219161567
 10
-0.201313131
 20
-16.2148035643
 10
-0.2147635633
 20
-16.2128559263
 10
-0.2257616468
 20
-16.2131873196
 10
-0.2341980882
 20
-16.2157342777
 10
-0.2400247263
 20
-16.2205131135
 10
-0.2432897223
 20
-16.2275075141
 10
-0.2440282661
 20
-16.2366050752
 10
-0.2422601839
 20
-16.247780544
 10
-0.2379656495
 20
-16.2610591733
 10
-0.2311203739
 20
-16.2764043169
 10
-0.2217663107
 20
-16.2937815656
 10
-0.2098615063
 20
-16.3132253286
 10
-0.1952558103
 20
-16.3348021884
  0
LINE
  5
28F
100
AcDbEntity
  8
0
100
AcDbLine
 62
7
  6
CONTINUOUS
 10
-0.0447657306
 20
-18.0722859646
 11
-3.7494758257
 21
-15.9332327865
  0
LINE
  5
290
100
AcDbEntity
  8
0
100
AcDbLine
 62
7
  6
CONTINUOUS
 10
-8.022480013
 20
-13.4660537221
 11
-8.2042485472
 21
-13.3611028486
  0
LINE
  5
291
100
AcDbEntity
  8
0
100
AcDbLine
 62
253
  6
CONTINUOUS
 10
-12.3054804613
 20
-9.2972984637
 11
-12.1994144441
 21
-9.3585396527
  0
LINE
  5
292
100
AcDbEntity
  8
0
100
AcDbLine
 62
253
  6
CONTINUOUS
 10
-0.0371778077
 20
-16.380862658
 11
0.0688882095
 21
-16.442103847
  0
LINE
  5
293
100
AcDbEntity
  8
0
100
AcDbLine
 62
253
  6
CONTINUOUS
 10
-12.3436988089
 20
-9.1879369873
 11
-12.2376327917
 21
-9.2491781763
  0
LINE
  5
294
100
AcDbEntity
  8
0
100
AcDbLine
 62
253
  6
CONTINUOUS
 10
-0.0753961553
 20
-16.2715011815
 11
0.0306698618
 21
-16.3327423705
  0
LINE
  5
295
100
AcDbEntity
  8
0
100
AcDbLine
 62
7
  6
CONTINUOUS
 10
-1.6609681546
 20
-15.1827312504
 11
-3.3532118317
 21
-14.20565096
  0
LINE
  5
296
100
AcDbEntity
  8
0
100
AcDbLine
 62
7
  6
CONTINUOUS
 10
-7.3562666134
 20
-11.8943372991
 11
-7.601578311
 21
-11.7526973994
  0
LWPOLYLINE
  5
297
100
AcDbEntity
  8
0
100
AcDbPolyline
 62
253
  6
CONTINUOUS
 90
6
 70
0
 10
-12.1994144441
 20
-9.3585396527
 10
-12.1881373068
 20
-9.3656632541
 10
-12.1761805337
 20
-9.3744997738
 10
-12.1635660426
 20
-9.385025971
 10
-12.1502705529
 20
-9.3972804252
 10
-12.1364109169
 20
-9.4111303549
  0
LINE
  5
298
100
AcDbEntity
  8
0
100
AcDbLine
 62
7
  6
CONTINUOUS
 10
7.448559956
 20
-23.3606851821
 11
7.4686558596
 21
-23.3735765788
  0
LWPOLYLINE
  5
299
100
AcDbEntity
  8
0
100
AcDbPolyline
 62
253
  6
CONTINUOUS
 90
4
 70
0
 10
-12.136318487
 20
-9.3128149232
 10
-12.1724926918
 20
-9.2889969288
 10
-12.2062641267
 20
-9.2677846798
 10
-12.2376327917
 20
-9.2491781763
  0
LINE
  5
29A
100
AcDbEntity
  8
0
100
AcDbLine
 62
253
  6
CONTINUOUS
 10
-12.0972956114
 20
-9.3395398753
 11
-12.136318487
 21
-9.3128149232
  0
LINE
  5
29B
100
AcDbEntity
  8
0
100
AcDbLine
 62
253
  6
CONTINUOUS
 10
-12.0670048383
 20
-9.3609867229
 11
-12.0972956114
 21
-9.3395398753
  0
LWPOLYLINE
  5
29C
100
AcDbEntity
  8
0
100
AcDbPolyline
 62
253
  6
CONTINUOUS
 90
4
 70
0
 10
-16.2357536648
 20
-5.0381827942
 10
-16.2269851351
 20
-5.0472201368
 10
-16.1951758688
 20
-5.0748967184
 10
-16.1598060114
 20
-5.098433643
  0
LWPOLYLINE
  5
29D
100
AcDbEntity
  8
0
100
AcDbPolyline
 62
7
  6
CONTINUOUS
 90
30
 70
0
 10
-9.7017770649
 20
-12.4720632571
 10
-9.7500833182
 20
-12.4220629057
 10
-9.8038607568
 20
-12.3693946341
 10
-9.8631093807
 20
-12.3140584424
 10
-9.9283606788
 20
-12.2555949195
 10
-9.9990831621
 20
-12.1944634764
 10
-10.073682364
 20
-12.1320423461
 10
-10.1522463484
 20
-12.0683022318
 10
-10.2346870513
 20
-12.0032724303
 10
-10.3191458141
 20
-11.9384190645
 10
-10.4056684791
 20
-11.8737461423
 10
-10.4942092039
 20
-11.8092496558
 10
-10.5827718023
 20
-11.7463837041
 10
-10.6713567713
 20
-11.6851853268
 10
-10.7599636139
 20
-11.6256174843
 10
-10.8465946534
 20
-11.5690231576
 10
-10.9312050071
 20
-11.5154698933
 10
-11.0138395576
 20
-11.4648901449
 10
-11.0926352759
 20
-11.4184242529
 10
-11.1675049586
 20
-11.3761656682
 10
-11.238535809
 20
-11.3380209401
 10
-11.3041264081
 20
-11.3048500566
 10
-11.3641531746
 20
-11.2767660042
 10
-11.4187396898
 20
-11.2536557966
 10
-11.4666552788
 20
-11.2360404625
 10
-11.5077484042
 20
-11.2240448242
 10
-11.5421706033
 20
-11.2175440594
 10
-11.5691458141
 20
-11.2166847306
 10
-11.5885048697
 20
-11.2215949893
 10
-11.5992310853
 20
-11.2303708695
  0
LWPOLYLINE
  5
29E
100
AcDbEntity
  8
0
100
AcDbPolyline
 62
7
  6
CONTINUOUS
 90
30
 70
0
 10
-7.0147712963
 20
-14.0235067117
 10
-6.966465043
 20
-14.0735070632
 10
-6.9126876044
 20
-14.1261753347
 10
-6.8534389805
 20
-14.1815115265
 10
-6.7881876824
 20
-14.2399750494
 10
-6.7174651991
 20
-14.3011064924
 10
-6.6428659972
 20
-14.3635276228
 10
-6.5643020128
 20
-14.427267737
 10
-6.4818613099
 20
-14.4922975386
 10
-6.3974025471
 20
-14.5571509044
 10
-6.3108798821
 20
-14.6218238266
 10
-6.2223391573
 20
-14.6863203131
 10
-6.1337765589
 20
-14.7491862647
 10
-6.0451915899
 20
-14.8103846421
 10
-5.9565847473
 20
-14.8699524846
 10
-5.8699537078
 20
-14.9265468113
 10
-5.7853433541
 20
-14.9801000755
 10
-5.7027088036
 20
-15.030679824
 10
-5.6239130853
 20
-15.077145716
 10
-5.5490434026
 20
-15.1194043006
 10
-5.4780125522
 20
-15.1575490288
 10
-5.4124219531
 20
-15.1907199122
 10
-5.3523951866
 20
-15.2188039646
 10
-5.2978086714
 20
-15.2419141723
 10
-5.2498930824
 20
-15.2595295064
 10
-5.2087999571
 20
-15.2715251447
 10
-5.1743777579
 20
-15.2780259094
 10
-5.1474025471
 20
-15.2788852382
 10
-5.1280434915
 20
-15.2739749795
 10
-5.1173172759
 20
-15.2651990993
  0
LWPOLYLINE
  5
29F
100
AcDbEntity
  8
0
100
AcDbPolyline
 62
7
  6
CONTINUOUS
 90
30
 70
0
 10
-5.2470043434
 20
-15.0441931951
 10
-5.2953105967
 20
-14.9941928437
 10
-5.3490880353
 20
-14.9415245721
 10
-5.4083366592
 20
-14.8861883803
 10
-5.4735879573
 20
-14.8277248574
 10
-5.5443104407
 20
-14.7665934144
 10
-5.6189096425
 20
-14.7041722841
 10
-5.6974736269
 20
-14.6404321698
 10
-5.7799143299
 20
-14.5754023683
 10
-5.8643730926
 20
-14.5105490024
 10
-5.9508957576
 20
-14.4458760802
 10
-6.0394364824
 20
-14.3813795937
 10
-6.1279990809
 20
-14.3185136421
 10
-6.2165840498
 20
-14.2573152647
 10
-6.3051908925
 20
-14.1977474222
 10
-6.3918219319
 20
-14.1411530955
 10
-6.4764322856
 20
-14.0875998313
 10
-6.5590668362
 20
-14.0370200828
 10
-6.6378625545
 20
-13.9905541909
 10
-6.7127322371
 20
-13.9482956062
 10
-6.7837630875
 20
-13.910150878
 10
-6.8493536866
 20
-13.8769799946
 10
-6.9093804531
 20
-13.8488959422
 10
-6.9639669683
 20
-13.8257857345
 10
-7.0118825573
 20
-13.8081704004
 10
-7.0529756827
 20
-13.7961747621
 10
-7.0873978819
 20
-13.7896739974
 10
-7.1143730926
 20
-13.7888146686
 10
-7.1337321482
 20
-13.7937249273
 10
-7.1444583638
 20
-13.8025008075
  0
LWPOLYLINE
  5
2A0
100
AcDbEntity
  8
ASSI
100
AcDbPolyline
 62
7
  6
CONTINUOUS
 90
33
 70
0
 10
-8.6411168931
 20
-13.0844751471
 10
-8.7384568173
 20
-12.9834449642
 10
-8.8462649154
 20
-12.8772224863
 10
-8.9645411873
 20
-12.7658077136
 10
-9.0941845809
 20
-12.6484141419
 10
-9.2342961484
 20
-12.5258282753
 10
-9.3821790458
 20
-12.4004096258
 10
-9.5379838204
 20
-12.2721033165
 10
-9.701559925
 20
-12.1409642243
 10
-9.8697588744
 20
-12.0095164924
 10
-10.0426702228
 20
-11.8777541418
 10
-10.2202044159
 20
-11.7456831515
 10
-10.3989443056
 20
-11.6158456016
 10
-10.5789132488
 20
-11.4882847585
 10
-10.7600878885
 20
-11.3629573559
 10
-10.9389810058
 20
-11.2422756744
 10
-11.1155484029
 20
-11.1263297115
 10
-11.2898342776
 20
-11.0150294697
 10
-11.4584840049
 20
-10.9105172373
 10
-11.6213884006
 20
-10.8129245124
 10
-11.7786566488
 20
-10.7221197969
 10
-11.9272616769
 20
-10.6398508847
 10
-12.0670356598
 20
-10.5662831323
 10
-12.1981464226
 20
-10.5012511831
 10
-12.3180703673
 20
-10.4460067612
 10
-12.4265907817
 20
-10.4007394716
 10
-12.523924378
 20
-10.3652597092
 10
-12.6081976958
 20
-10.3402503826
 10
-12.6791577295
 20
-10.3259143261
 10
-12.7370574846
 20
-10.3220487054
 10
-12.7807825164
 20
-10.3287279252
 10
-12.8100582303
 20
-10.3461562615
 10
-12.8155628775
 20
-10.3527178309
  0
LWPOLYLINE
  5
2A1
100
AcDbEntity
  8
ASSI
100
AcDbPolyline
 62
7
  6
CONTINUOUS
 90
33
 70
0
 10
-8.0754314681
 20
-13.4110948218
 10
-7.9780915439
 20
-13.5121250047
 10
-7.8702834458
 20
-13.6183474825
 10
-7.7520071739
 20
-13.7297622553
 10
-7.6223637803
 20
-13.847155827
 10
-7.4822522128
 20
-13.9697416936
 10
-7.3343693154
 20
-14.095160343
 10
-7.1785645408
 20
-14.2234666524
 10
-7.0149884362
 20
-14.3546057445
 10
-6.8467894868
 20
-14.4860534764
 10
-6.6738781384
 20
-14.617815827
 10
-6.4963439453
 20
-14.7498868174
 10
-6.3176040556
 20
-14.8797243673
 10
-6.1376351124
 20
-15.0072852103
 10
-5.9564604727
 20
-15.1326126129
 10
-5.7775673554
 20
-15.2532942944
 10
-5.6009999583
 20
-15.3692402573
 10
-5.4267140836
 20
-15.4805404991
 10
-5.2580643563
 20
-15.5850527315
 10
-5.0951599606
 20
-15.6826454564
 10
-4.9378917124
 20
-15.7734501719
 10
-4.7892866844
 20
-15.8557190842
 10
-4.6495127014
 20
-15.9292868366
 10
-4.5184019386
 20
-15.9943187857
 10
-4.3984779939
 20
-16.0495632077
 10
-4.2899575795
 20
-16.0948304973
 10
-4.1926239832
 20
-16.1303102596
 10
-4.1083506654
 20
-16.1553195863
 10
-4.0373906317
 20
-16.1696556427
 10
-3.9794908766
 20
-16.1735212634
 10
-3.9357658448
 20
-16.1668420436
 10
-3.9064901309
 20
-16.1494137074
 10
-3.9009854838
 20
-16.1428521379
  0
LWPOLYLINE
  5
2A2
100
AcDbEntity
  8
0
100
AcDbPolyline
 62
253
  6
CONTINUOUS
 90
6
 70
0
 10
-12.4341301366
 20
-9.1121648055
 10
-12.4267919882
 20
-9.1198994847
 10
-12.4052610434
 20
-9.1410857526
 10
-12.3843308056
 20
-9.1593980399
 10
-12.3637957086
 20
-9.1750338789
 10
-12.3436988089
 20
-9.1879369873
  0
LINE
  5
2A3
100
AcDbEntity
  8
0
100
AcDbLine
 62
253
  6
CONTINUOUS
 10
-11.638319393
 20
-9.2960860627
 11
-14.5577143916
 21
-6.1922920694
  0
LINE
  5
2A4
100
AcDbEntity
  8
0
100
AcDbLine
 62
253
  6
CONTINUOUS
 10
-11.2080424837
 20
-9.2310131393
 11
-13.8886218133
 21
-6.381119231
  0
LINE
  5
2A5
100
AcDbEntity
  8
0
100
AcDbLine
 62
7
  6
CONTINUOUS
 10
-12.4341195538
 20
-9.1121761559
 11
-16.2357536649
 21
-5.0381827941
  0
LINE
  5
2A6
100
AcDbEntity
  8
0
100
AcDbLine
 62
253
  6
CONTINUOUS
 10
-12.3436988089
 20
-9.1879369873
 11
-16.1598060124
 21
-5.098433642
  0
LWPOLYLINE
  5
2A7
100
AcDbEntity
  8
0
100
AcDbPolyline
 62
253
  6
CONTINUOUS
 90
6
 70
0
 10
-12.4617154249
 20
-9.1628324157
 10
-12.4309168582
 20
-9.1964611623
 10
-12.3998054522
 20
-9.2268637783
 10
-12.3686735677
 20
-9.2535662411
 10
-12.3372316738
 20
-9.2770443267
 10
-12.3054804613
 20
-9.2972984637
  0
LWPOLYLINE
  5
2A8
100
AcDbEntity
  8
0
100
AcDbPolyline
 62
253
  6
CONTINUOUS
 90
19
 70
0
 10
-14.5577143916
 20
-6.1922920694
 10
-14.5848226312
 20
-6.1625567617
 10
-14.6085619601
 20
-6.1353303867
 10
-14.6289323782
 20
-6.1106129446
 10
-14.6457300598
 20
-6.0885237503
 10
-14.6591588307
 20
-6.0689434887
 10
-14.6698301674
 20
-6.0515142147
 10
-14.6777863925
 20
-6.0362102328
 10
-14.6829851835
 20
-6.0230572384
 10
-14.6859110502
 20
-6.0117743733
 10
-14.6865842083
 20
-6.0023584204
 10
-14.6849844422
 20
-5.9948125968
 10
-14.6815356148
 20
-5.9888656947
 10
-14.676265687
 20
-5.9845065326
 10
-14.669146698
 20
-5.9817462919
 10
-14.6605186286
 20
-5.9803473095
 10
-14.6504948057
 20
-5.9802303642
 10
-14.6389619025
 20
-5.9814746771
 10
-14.625919919
 20
-5.9840802482
  0
LWPOLYLINE
  5
2A9
100
AcDbEntity
  8
SMUSSO
100
AcDbPolyline
 62
7
  6
CONTINUOUS
 90
3
 70
0
 10
-7.9460433347
 20
-12.1211786517
 10
-7.8681319255
 20
-12.2073591982
 10
-7.8548051661
 20
-12.2232509153
  0
LWPOLYLINE
  5
2AA
100
AcDbEntity
  8
0
100
AcDbPolyline
 62
253
  6
CONTINUOUS
 90
10
 70
0
 10
-12.2376327822
 20
-9.2491781818
 10
-12.2302318779
 20
-9.2579768187
 10
-12.223567658
 20
-9.2677182656
 10
-12.2176671682
 20
-9.2783628821
 10
-12.2125543683
 20
-9.2898673266
 10
-12.2082499722
 20
-9.3021848294
 10
-12.2047713831
 20
-9.3152654014
 10
-12.2021326997
 20
-9.3290558992
 10
-12.2003446388
 20
-9.343500223
 10
-12.199414443
 20
-9.3585396534
  0
LWPOLYLINE
  5
2AB
100
AcDbEntity
  8
0
100
AcDbPolyline
 62
7
  6
CONTINUOUS
 90
10
 70
0
 10
-16.2357536649
 20
-5.038182794
 10
-16.2949633222
 20
-4.9675976332
 10
-16.3483127092
 20
-4.8884091943
 10
-16.3948801459
 20
-4.8007463449
 10
-16.4339675
 20
-4.704275341
 10
-16.4644459512
 20
-4.5997807359
 10
-16.4853187486
 20
-4.4892202615
 10
-16.4962951499
 20
-4.3734778744
 10
-16.4972075161
 20
-4.2523578398
 10
-16.4877264388
 20
-4.1262081154
  0
LINE
  5
2AC
100
AcDbEntity
  8
0
100
AcDbLine
 62
253
  6
CONTINUOUS
 10
-16.1598060124
 20
-5.098433642
 11
-16.2075675752
 21
-5.0397947291
  0
LWPOLYLINE
  5
2AD
100
AcDbEntity
  8
0
100
AcDbPolyline
 62
253
  6
CONTINUOUS
 90
4
 70
0
 10
-14.4009146838
 20
-6.0715859135
 10
-14.3875060265
 20
-6.0884252217
 10
-14.3716712126
 20
-6.1018577692
 10
-14.365065834
 20
-6.1060264188
  0
LWPOLYLINE
  5
2AE
100
AcDbEntity
  8
0
100
AcDbPolyline
 62
253
  6
CONTINUOUS
 90
5
 70
0
 10
-12.5721556115
 20
-9.0117126752
 10
-12.5461948995
 20
-9.0519962656
 10
-12.5193562368
 20
-9.0906010748
 10
-12.4913275128
 20
-9.1274017409
 10
-12.4617154249
 20
-9.1628324157
  0
LWPOLYLINE
  5
2AF
100
AcDbEntity
  8
0
100
AcDbPolyline
 62
253
  6
CONTINUOUS
 90
4
 70
0
 10
-12.638971195
 20
-8.8926483944
 10
-12.621532924
 20
-8.926272279
 10
-12.597285385
 20
-8.9698331875
 10
-12.5721556115
 20
-9.0117126752
  0
LWPOLYLINE
  5
2B0
100
AcDbEntity
  8
0
100
AcDbPolyline
 62
7
  6
CONTINUOUS
 90
6
 70
0
 10
-13.0404709458
 20
-16.2305087284
 10
-13.0310866294
 20
-16.2849782931
 10
-13.0140412543
 20
-16.3529202412
 10
-12.9915135083
 20
-16.4179904846
 10
-12.9636643338
 20
-16.4797942544
 10
-12.9308955314
 20
-16.5376514665
  0
LWPOLYLINE
  5
2B1
100
AcDbEntity
  8
0
100
AcDbPolyline
 62
253
  6
CONTINUOUS
 90
18
 70
0
 10
-13.040471149
 20
-16.2305087568
 10
-13.0400734139
 20
-16.2332098205
 10
-13.0374549074
 20
-16.2471833428
 10
-13.0339199994
 20
-16.2609969329
 10
-13.0294752719
 20
-16.2746248704
 10
-13.0241290009
 20
-16.2880417805
 10
-13.0178911409
 20
-16.3012226814
 10
-13.0107733066
 20
-16.3141430308
 10
-13.0027887511
 20
-16.3267787714
 10
-12.9939523414
 20
-16.3391063759
 10
-12.9842805305
 20
-16.3511028908
 10
-12.9737913271
 20
-16.3627459789
 10
-12.9625042617
 20
-16.3740139612
 10
-12.9504403504
 20
-16.3848858572
 10
-12.9376220558
 20
-16.3953414238
 10
-12.9240732451
 20
-16.405361193
 10
-12.9098191456
 20
-16.4149265085
 10
-12.8948862981
 20
-16.4240195599
  0
LINE
  5
2B2
100
AcDbEntity
  8
0
100
AcDbLine
 62
7
  6
CONTINUOUS
 10
-13.0405251754
 20
-16.230122601
 11
-13.040471149
 21
-16.2305087568
  0
LWPOLYLINE
  5
2B3
100
AcDbEntity
  8
0
100
AcDbPolyline
 62
253
  6
CONTINUOUS
 90
16
 70
0
 10
-12.8948862998
 20
-16.4240195611
 10
-12.9737770811
 20
-15.8377692774
 10
-13.0479690761
 20
-15.2479264688
 10
-13.1174565571
 20
-14.6545359603
 10
-13.182234077
 20
-14.0576429118
 10
-13.2422967185
 20
-13.4572926068
 10
-13.2976400928
 20
-12.8535304473
 10
-13.3482599487
 20
-12.2464022453
 10
-13.3941523546
 20
-11.6359541711
 10
-13.4353139477
 20
-11.0222325412
 10
-13.4717415678
 20
-10.4052839994
 10
-13.5034323878
 20
-9.7851553659
 10
-13.5303840925
 20
-9.1618935845
 10
-13.5525946442
 20
-8.5355459294
 10
-13.5700622844
 20
-7.9061600027
 10
-13.5702948259
 20
-7.894602244
  0
LWPOLYLINE
  5
2B4
100
AcDbEntity
  8
0
100
AcDbPolyline
 62
253
  6
CONTINUOUS
 90
11
 70
0
 10
-12.094540524
 20
-11.5951120696
 10
-12.0754110527
 20
-11.8970566211
 10
-12.0547688332
 20
-12.2033579
 10
-12.0325178057
 20
-12.5144637742
 10
-12.0084911059
 20
-12.8316093233
 10
-11.9826324665
 20
-13.154395834
 10
-11.9548315402
 20
-13.4830951806
 10
-11.9247929039
 20
-13.8199147367
 10
-11.8923240119
 20
-14.1655193389
 10
-11.8573678526
 20
-14.5190535616
 10
-11.819798288
 20
-14.8804189411
  0
LWPOLYLINE
  5
2B5
100
AcDbEntity
  8
0
100
AcDbPolyline
 62
253
  6
CONTINUOUS
 90
11
 70
0
 10
-11.6679433488
 20
-11.6228383628
 10
-11.6540284256
 20
-11.8439428714
 10
-11.633351274
 20
-12.1526569799
 10
-11.6111010945
 20
-12.4663075112
 10
-11.5869545762
 20
-12.7860218355
 10
-11.5609765723
 20
-13.1114672161
 10
-11.5331022297
 20
-13.4429763898
 10
-11.5028136785
 20
-13.7826749376
 10
-11.4699382955
 20
-14.1312713867
 10
-11.4346487038
 20
-14.4880572099
 10
-11.3969449036
 20
-14.8530324074
  0
LWPOLYLINE
  5
2B6
100
AcDbEntity
  8
0
100
AcDbPolyline
 62
253
  6
CONTINUOUS
 90
10
 70
0
 10
-12.3054804613
 20
-9.2972984637
 10
-12.3064114224
 20
-9.282257923
 10
-12.3082001393
 20
-9.2678127903
 10
-12.3108393423
 20
-9.2540217722
 10
-12.3143183046
 20
-9.2409409176
 10
-12.3186228876
 20
-9.228623388
 10
-12.3237355984
 20
-9.2171192412
 10
-12.329635659
 20
-9.2064752312
 10
-12.3362990903
 20
-9.1967346171
 10
-12.3436988115
 20
-9.1879369861
  0
LINE
  5
2B7
100
AcDbEntity
  8
0
100
AcDbLine
 62
253
  6
CONTINUOUS
 10
-12.115392001
 20
-11.2403850981
 11
-12.094540524
 21
-11.5951120696
  0
LINE
  5
2B8
100
AcDbEntity
  8
0
100
AcDbLine
 62
253
  6
CONTINUOUS
 10
-12.1994144441
 20
-9.3585396527
 11
-12.1948304826
 21
-9.4920935309
  0
LWPOLYLINE
  5
2B9
100
AcDbEntity
  8
0
100
AcDbPolyline
 62
7
  6
CONTINUOUS
 90
10
 70
0
 10
-13.7142668689
 20
-7.7403156581
 10
-13.7069426845
 20
-8.0683912043
 10
-13.6699084615
 20
-9.1298811303
 10
-13.6192724002
 20
-10.1825960493
 10
-13.5550428816
 20
-11.2263114559
 10
-13.4772306335
 20
-12.260808788
 10
-13.3858488054
 20
-13.285870558
 10
-13.280912845
 20
-14.301281863
 10
-13.162441189
 20
-15.306825136
 10
-13.0405251754
 20
-16.230122601
  0
LWPOLYLINE
  5
2BA
100
AcDbEntity
  8
0
100
AcDbPolyline
 62
253
  6
CONTINUOUS
 90
20
 70
0
 10
-13.7292319841
 20
8.4435022884
 10
-13.7292330896
 20
8.4384396024
 10
-13.7285775984
 20
8.4262243248
 10
-13.7269926924
 20
8.4140263059
 10
-13.7244813218
 20
8.4018682522
 10
-13.7210481617
 20
8.3897727961
 10
-13.7166996027
 20
8.3777624533
 10
-13.7114437399
 20
8.3658595812
 10
-13.705290357
 20
8.3540863369
 10
-13.6982509086
 20
8.3424646364
 10
-13.6903384986
 20
8.3310161136
 10
-13.681567856
 20
8.31976208
 10
-13.6719553075
 20
8.308723485
 10
-13.6615187467
 20
8.2979208769
 10
-13.6502776015
 20
8.2873743649
 10
-13.6382527972
 20
8.2771035814
 10
-13.6254667182
 20
8.2671276454
 10
-13.6119431657
 20
8.2574651273
 10
-13.5977073139
 20
8.2481340139
 10
-13.5827856629
 20
8.239151675
  0
LWPOLYLINE
  5
2BB
100
AcDbEntity
  8
0
100
AcDbPolyline
 62
253
  6
CONTINUOUS
 90
4
 70
0
 10
-13.6210689927
 20
5.2656848327
 10
-13.6176247893
 20
5.6329017145
 10
-13.6019472994
 20
6.9350045739
 10
-13.5827856645
 20
8.239151674
  0
LINE
  5
2BC
100
AcDbEntity
  8
0
100
AcDbLine
 62
253
  6
CONTINUOUS
 10
-12.920990127
 20
6.6722963147
 11
-12.9216136874
 21
6.6212208541
  0
LWPOLYLINE
  5
2BD
100
AcDbEntity
  8
0
100
AcDbPolyline
 62
7
  6
CONTINUOUS
 90
3
 70
0
 10
-13.7292319814
 20
8.443502559
 10
-13.753304443
 20
6.7610526452
 10
-13.7726207356
 20
4.9561142121
  0
LWPOLYLINE
  5
2BE
100
AcDbEntity
  8
RACCORDO
100
AcDbPolyline
 62
253
  6
CONTINUOUS
 90
7
 70
0
 10
-11.9442124137
 20
18.239123495
 10
-11.9442252418
 20
18.2383812061
 10
-11.942251493
 20
18.2359167614
 10
-11.9376386493
 20
18.2321914739
 10
-11.9305240945
 20
18.2272445788
 10
-11.9210681779
 20
18.2212648856
 10
-11.9095357649
 20
18.2144205643
  0
LWPOLYLINE
  5
2BF
100
AcDbEntity
  8
0
100
AcDbPolyline
 62
253
  6
CONTINUOUS
 90
16
 70
0
 10
-13.5827856645
 20
8.239151674
 10
-13.5700622844
 20
8.8867399315
 10
-13.5525946442
 20
9.5370096697
 10
-13.5303840925
 20
10.1899115509
 10
-13.5034323878
 20
10.8453960405
 10
-13.4717415678
 20
11.503413413
 10
-13.4353139477
 20
12.1639137571
 10
-13.3941523546
 20
12.8268470317
 10
-13.3482599487
 20
13.4921628998
 10
-13.2976400928
 20
14.1598107355
 10
-13.2422967185
 20
14.8297398718
 10
-13.182234077
 20
15.5018995441
 10
-13.1174565572
 20
16.1762387249
 10
-13.0479690761
 20
16.8527062667
 10
-12.9737770811
 20
17.531250905
 10
-12.8948862998
 20
18.2118212008
  0
LWPOLYLINE
  5
2C0
100
AcDbEntity
  8
0
100
AcDbPolyline
 62
253
  6
CONTINUOUS
 90
10
 70
0
 10
-12.3407728219
 20
7.3219568373
 10
-12.3418614657
 20
7.3006685163
 10
-12.3444567733
 20
7.2786906243
 10
-12.3485401282
 20
7.2561801196
 10
-12.3540822798
 20
7.2332977938
 10
-12.3610435842
 20
7.2102069884
 10
-12.3693743163
 20
7.1870724256
 10
-12.3790149704
 20
7.1640592187
 10
-12.3898966591
 20
7.1413316953
 10
-12.4019416556
 20
7.1190520879
  0
LWPOLYLINE
  5
2C1
100
AcDbEntity
  8
RACCORDO
100
AcDbPolyline
 62
7
  6
CONTINUOUS
 90
3
 70
0
 10
-12.5260748332
 20
13.2675249332
 10
-12.5272806571
 20
13.24412694
 10
-12.5266536159
 20
13.1982821902
  0
LWPOLYLINE
  5
2C2
100
AcDbEntity
  8
RACCORDO
100
AcDbPolyline
 62
253
  6
CONTINUOUS
 90
10
 70
0
 10
-12.4967729343
 20
13.2268105737
 10
-12.4585478565
 20
13.7222825255
 10
-12.4177251816
 20
14.2190074271
 10
-12.3743066431
 20
14.7169645626
 10
-12.3282941205
 20
15.2161331867
 10
-12.2796895314
 20
15.7164924631
 10
-12.228494832
 20
16.2180214649
 10
-12.1747121599
 20
16.7206992596
 10
-12.1183438352
 20
17.224504909
 10
-12.0593922515
 20
17.7294174085
  0
LWPOLYLINE
  5
2C3
100
AcDbEntity
  8
RACCORDO
100
AcDbPolyline
 62
253
  6
CONTINUOUS
 90
10
 70
0
 10
-12.766594321
 20
13.376901859
 10
-12.7269891066
 20
13.8722299162
 10
-12.6846891459
 20
14.3687389211
 10
-12.6396965337
 20
14.8664079152
 10
-12.5920148943
 20
15.3652010567
 10
-12.5416452805
 20
15.8651120683
 10
-12.4885853885
 20
16.3661645819
 10
-12.4328353941
 20
16.868352704
 10
-12.3743987367
 20
17.3716406736
 10
-12.3132774687
 20
17.876007551
  0
LWPOLYLINE
  5
2C4
100
AcDbEntity
  8
RACCORDO
100
AcDbPolyline
 62
253
  6
CONTINUOUS
 90
8
 70
0
 10
-12.3159468254
 20
12.4932162047
 10
-12.3121177846
 20
12.5218541262
 10
-12.3045974601
 20
12.5515445554
 10
-12.293588334
 20
12.5814880949
 10
-12.2793868221
 20
12.6108785323
 10
-12.2623752926
 20
12.6389245492
 10
-12.2430117705
 20
12.6648710258
 10
-12.2318434108
 20
12.67706915
  0
LWPOLYLINE
  5
2C5
100
AcDbEntity
  8
0
100
AcDbPolyline
 62
253
  6
CONTINUOUS
 90
8
 70
0
 10
0.3745009057
 20
18.5583022028
 10
0.3813047803
 20
18.565525818
 10
0.3882482351
 20
18.5724158157
 10
0.3953123769
 20
18.5789534463
 10
0.4024779732
 20
18.5851209091
 10
0.4097254982
 20
18.5909013993
 10
0.4170352174
 20
18.5962791805
 10
0.424387242
 20
18.6012396244
  0
LINE
  5
2C6
100
AcDbEntity
  8
DRAFT
100
AcDbLine
 62
7
  6
CONTINUOUS
 10
-0.4866545031
 20
15.1552929411
 11
-1.2508951082
 21
14.6512834495
  0
LINE
  5
2C7
100
AcDbEntity
  8
0
100
AcDbLine
 62
7
  6
CONTINUOUS
 10
2.9428133856
 20
16.0969123379
 11
1.8759824735
 21
15.423879265
  0
LINE
  5
2C8
100
AcDbEntity
  8
0
100
AcDbLine
 62
7
  6
CONTINUOUS
 10
1.8759824735
 20
16.7872906713
 11
8.2173054548
 21
20.4486938411
  0
LINE
  5
2C9
100
AcDbEntity
  8
0
100
AcDbLine
 62
7
  6
CONTINUOUS
 10
2.9428133856
 20
16.0969123379
 11
8.2501240518
 21
19.1612904662
  0
LINE
  5
2CA
100
AcDbEntity
  8
0
100
AcDbLine
 62
7
  6
CONTINUOUS
 10
4.9737567973
 20
16.5782263642
 11
4.9752110404
 21
16.5790660259
  0
LINE
  5
2CB
100
AcDbEntity
  8
0
100
AcDbLine
 62
7
  6
CONTINUOUS
 10
8.3809589029
 20
20.3774066253
 11
9.6997969033
 21
21.1300276858
  0
LINE
  5
2CC
100
AcDbEntity
  8
0
100
AcDbLine
 62
7
  6
CONTINUOUS
 10
4.9752110262
 20
16.5790660179
 11
5.5100893277
 21
16.8807530326
  0
LINE
  5
2CD
100
AcDbEntity
  8
0
100
AcDbLine
 62
253
  6
CONTINUOUS
 10
5.0994860766
 20
16.5662641369
 11
5.6339359553
 21
16.8677095086
  0
LWPOLYLINE
  5
2CE
100
AcDbEntity
  8
0
100
AcDbPolyline
 62
253
  6
CONTINUOUS
 90
18
 70
0
 10
3.3905767142
 20
15.6427220693
 10
3.3943181932
 20
15.6448051552
 10
3.400547108
 20
15.6477472723
 10
3.4070415316
 20
15.6501904568
 10
3.4137867526
 20
15.6521291744
 10
3.4207674915
 20
15.6535590334
 10
3.4279679355
 20
15.6544767949
 10
3.4353717739
 20
15.6548803799
 10
3.4429622354
 20
15.6547688743
 10
3.4507221258
 20
15.6541425305
 10
3.4586338673
 20
15.6530027675
 10
3.466679538
 20
15.651352167
 10
3.4748409127
 20
15.6491944681
 10
3.4830995039
 20
15.6465345583
 10
3.4914366043
 20
15.643378463
 10
3.4998333283
 20
15.6397333314
 10
3.5082706555
 20
15.6356074207
 10
3.5167294735
 20
15.6310100768
  0
LWPOLYLINE
  5
2CF
100
AcDbEntity
  8
0
100
AcDbPolyline
 62
7
  6
CONTINUOUS
 90
24
 70
0
 10
9.6997969033
 20
21.1300276858
 10
9.7244246793
 20
21.1435841856
 10
9.7489616807
 20
21.1561070153
 10
9.7734079075
 20
21.1675961748
 10
9.7977957898
 20
21.1780640629
 10
9.8220928976
 20
21.1874982808
 10
9.8462019404
 20
21.1958616322
 10
9.8701143978
 20
21.2031481138
 10
9.8938387902
 20
21.2093637289
 10
9.9173033884
 20
21.2144892905
 10
9.9405178023
 20
21.2185225735
 10
9.963472422
 20
21.2214658029
 10
9.9860666891
 20
21.2233064668
 10
10.0082868826
 20
21.2240401643
 10
10.0301467235
 20
21.2236712962
 10
10.0515868154
 20
21.2222005525
 10
10.0726191578
 20
21.2196224097
 10
10.0932317513
 20
21.2159423912
 10
10.1133292009
 20
21.2111777573
 10
10.1328958564
 20
21.2053284296
 10
10.151947368
 20
21.1983944863
 10
10.1704352909
 20
21.1903934232
 10
10.1883708236
 20
21.1813151012
 10
10.195704232
 20
21.1772021248
  0
LWPOLYLINE
  5
2D0
100
AcDbEntity
  8
0
100
AcDbPolyline
 62
253
  6
CONTINUOUS
 90
3
 70
0
 10
5.5100893277
 20
16.8807530326
 10
5.5123757891
 20
16.8819960095
 10
5.5185981167
 20
16.8849343232
  0
LWPOLYLINE
  5
2D1
100
AcDbEntity
  8
0
100
AcDbPolyline
 62
7
  6
CONTINUOUS
 90
18
 70
0
 10
4.9752110404
 20
16.5790660259
 10
4.9774979114
 20
16.580309233
 10
4.9837235832
 20
16.5832494246
 10
4.9902115157
 20
16.5856887555
 10
4.9969470045
 20
16.5876216963
 10
5.0039147438
 20
16.589043843
 10
5.0110990008
 20
16.5899520043
 10
5.0184835165
 20
16.5903441329
 10
5.0260514708
 20
16.5902192919
 10
5.0337857923
 20
16.5895778069
 10
5.0416689982
 20
16.588421154
 10
5.0496830977
 20
16.5867518821
 10
5.0578100281
 20
16.5845738268
 10
5.0660314391
 20
16.5818919574
 10
5.0743285359
 20
16.5787122559
 10
5.0826825292
 20
16.5750419313
 10
5.0910746784
 20
16.5708894026
 10
5.0994860766
 20
16.5662641369
  0
LWPOLYLINE
  5
2D2
100
AcDbEntity
  8
0
100
AcDbPolyline
 62
7
  6
CONTINUOUS
 90
6
 70
0
 10
5.5100893277
 20
16.8807530326
 10
5.5386326512
 20
16.8945439309
 10
5.5691239814
 20
16.9047274741
 10
5.6010081242
 20
16.9109580916
 10
5.6336992306
 20
16.9130002944
 10
5.6664850423
 20
16.9107364002
  0
LWPOLYLINE
  5
2D3
100
AcDbEntity
  8
0
100
AcDbPolyline
 62
253
  6
CONTINUOUS
 90
16
 70
0
 10
5.5185981167
 20
16.8849343232
 10
5.5250793806
 20
16.8873699096
 10
5.5318048995
 20
16.8892972514
 10
5.5387594384
 20
16.8907119829
 10
5.5459272439
 20
16.8916108993
 10
5.5532920791
 20
16.8919919644
 10
5.5608372611
 20
16.8918543149
 10
5.5685456984
 20
16.8911982628
 10
5.5763999297
 20
16.8900252941
 10
5.5843821633
 20
16.8883380658
 10
5.5924743177
 20
16.8861403999
 10
5.6006580623
 20
16.8834372746
 10
5.6089148592
 20
16.8802348131
 10
5.6172260048
 20
16.8765402696
 10
5.6255726725
 20
16.8723620132
 10
5.6339359553
 20
16.8677095086
  0
LWPOLYLINE
  5
2D4
100
AcDbEntity
  8
0
100
AcDbPolyline
 62
253
  6
CONTINUOUS
 90
13
 70
0
 10
0.6048761925
 20
-15.6019038008
 10
0.575372983
 20
-15.5870080492
 10
0.5427457359
 20
-15.5745499817
 10
0.5075527126
 20
-15.5647427593
 10
0.4703960754
 20
-15.5577541862
 10
0.4319115847
 20
-15.5537038389
 10
0.3927577207
 20
-15.55266102
 10
0.353604417
 20
-15.5546435724
 10
0.3151215974
 20
-15.5596175741
 10
0.2779677137
 20
-15.5674979184
 10
0.242778479
 20
-15.5781497706
 10
0.210155991
 20
-15.5913908745
 10
0.1806584294
 20
-15.6069946711
  0
LWPOLYLINE
  5
2D5
100
AcDbEntity
  8
0
100
AcDbPolyline
 62
253
  6
CONTINUOUS
 90
13
 70
0
 10
0.6024724771
 20
-15.464173853
 10
0.572969199
 20
-15.4492741737
 10
0.5403417475
 20
-15.4368043904
 10
0.5051483873
 20
-15.4269778645
 10
0.4679912866
 20
-15.4199627307
 10
0.4295062136
 20
-15.4158790197
 10
0.3903516586
 20
-15.414796605
 10
0.3511975669
 20
-15.4167340071
 10
0.3127138758
 20
-15.4216580763
 10
0.2755590521
 20
-15.4294845607
 10
0.240368825
 20
-15.4400795468
 10
0.207745309
 20
-15.4532617514
 10
0.1782467017
 20
-15.4688056235
  0
LINE
  5
2D6
100
AcDbEntity
  8
0
100
AcDbLine
 62
253
  6
CONTINUOUS
 10
-14.4665200207
 20
-6.0363776883
 11
-14.4346543919
 21
-6.0527812566
  0
LINE
  5
2D7
100
AcDbEntity
  8
0
100
AcDbLine
 62
253
  6
CONTINUOUS
 10
-14.4346543919
 20
-6.0527812566
 11
-14.4009146838
 21
-6.0715859135
  0
LINE
  5
2D8
100
AcDbEntity
  8
0
100
AcDbLine
 62
7
  6
CONTINUOUS
 10
-14.3923129529
 20
-6.0907315362
 11
-14.365065834
 21
-6.1060264188
  0
LINE
  5
2D9
100
AcDbEntity
  8
0
100
AcDbLine
 62
7
  6
CONTINUOUS
 10
-7.5672050091
 20
-11.1110263647
 11
-6.5142802457
 21
-11.7189719269
  0
LINE
  5
2DA
100
AcDbEntity
  8
0
100
AcDbLine
 62
7
  6
CONTINUOUS
 10
-3.1124322876
 20
-13.6831563027
 11
-2.9760193629
 21
-13.7619194158
  0
LINE
  5
2DB
100
AcDbEntity
  8
0
100
AcDbLine
 62
253
  6
CONTINUOUS
 10
1.281991098
 20
-15.8565193883
 11
0.6024724771
 21
-15.464173853
  0
LINE
  5
2DC
100
AcDbEntity
  8
0
100
AcDbLine
 62
253
  6
CONTINUOUS
 10
-3.7854373416
 20
-12.2432390252
 11
-5.319323435
 21
-11.357592419
  0
LINE
  5
2DD
100
AcDbEntity
  8
0
100
AcDbLine
 62
253
  6
CONTINUOUS
 10
-14.625919919
 20
-5.9840802482
 11
-16.1598060124
 21
-5.098433642
  0
LINE
  5
2DE
100
AcDbEntity
  8
0
100
AcDbLine
 62
7
  6
CONTINUOUS
 10
-14.3650380861
 20
-6.1060424461
 11
-5.6296061771
 21
-11.1497713496
  0
LINE
  5
2DF
100
AcDbEntity
  8
0
100
AcDbLine
 62
253
  6
CONTINUOUS
 10
-14.4009146838
 20
-6.0715859135
 11
-5.665483232
 21
-11.1153145531
  0
LINE
  5
2E0
100
AcDbEntity
  8
0
100
AcDbLine
 62
253
  6
CONTINUOUS
 10
-3.9666611136
 20
-11.4727457164
 11
-16.3410297844
 21
-4.3279403331
  0
LWPOLYLINE
  5
2E1
100
AcDbEntity
  8
0
100
AcDbPolyline
 62
253
  6
CONTINUOUS
 90
5
 70
0
 10
-5.665483232
 20
-11.1153145531
 10
-5.6467120442
 20
-11.1263451379
 10
-5.6275409362
 20
-11.1380067828
 10
-5.6079670537
 20
-11.1502960192
 10
-5.5881178883
 20
-11.1631028224
  0
LINE
  5
2E2
100
AcDbEntity
  8
0
100
AcDbLine
 62
7
  6
CONTINUOUS
 10
-5.6295468352
 20
-11.1498055858
 11
-5.6081198683
 21
-11.1624274953
  0
LINE
  5
2E3
100
AcDbEntity
  8
0
100
AcDbLine
 62
7
  6
CONTINUOUS
 10
-5.6081198683
 20
-11.1624274953
 11
-5.5739436721
 21
-11.1835045848
  0
LWPOLYLINE
  5
2E4
100
AcDbEntity
  8
SMUSSO
100
AcDbPolyline
 62
7
  6
CONTINUOUS
 90
18
 70
0
 10
-9.9262947719
 20
-9.6850603804
 10
-9.8032370582
 20
-9.7636459455
 10
-9.677740632
 20
-9.8460746197
 10
-9.5506193869
 20
-9.9318118203
 10
-9.4226977537
 20
-10.0203015078
 10
-9.2948053571
 20
-10.1109697899
 10
-9.1677716289
 20
-10.203228647
 10
-9.0424204318
 20
-10.2964797446
 10
-8.9195647197
 20
-10.3901183105
 10
-8.8000012579
 20
-10.4835370629
 10
-8.6845054611
 20
-10.5761301451
 10
-8.5738263667
 20
-10.6672970522
 10
-8.468681768
 20
-10.7564465335
 10
-8.3697535665
 20
-10.8430004207
 10
-8.2776833521
 20
-10.9263973752
 10
-8.1930682323
 20
-11.0060965366
 10
-8.1164569615
 20
-11.0815810301
 10
-8.0483463873
 20
-11.1523613134
  0
LINE
  5
2E5
100
AcDbEntity
  8
0
100
AcDbLine
 62
7
  6
CONTINUOUS
 10
-5.5739436721
 20
-11.1835045848
 11
-5.5372131877
 21
-11.207276076
  0
LWPOLYLINE
  5
2E6
100
AcDbEntity
  8
0
100
AcDbPolyline
 62
253
  6
CONTINUOUS
 90
5
 70
0
 10
-5.5881178883
 20
-11.1631028224
 10
-5.5678548863
 20
-11.1765236869
 10
-5.5467714477
 20
-11.1908591329
 10
-5.5246502801
 20
-11.2062227269
 10
-5.5016795867
 20
-11.2224645284
  0
LWPOLYLINE
  5
2E7
100
AcDbEntity
  8
0
100
AcDbPolyline
 62
7
  6
CONTINUOUS
 90
4
 70
0
 10
-5.5372131877
 20
-11.207276076
 10
-5.4984062024
 20
-11.2334278864
 10
-5.4576613896
 20
-11.261780088
 10
-5.4151109789
 20
-11.2920814278
  0
LWPOLYLINE
  5
2E8
100
AcDbEntity
  8
0
100
AcDbPolyline
 62
253
  6
CONTINUOUS
 90
3
 70
0
 10
-4.7043563807
 20
-11.8814974933
 10
-4.7304910476
 20
-11.8634639676
 10
-4.7507559968
 20
-11.8444527827
  0
LWPOLYLINE
  5
2E9
100
AcDbEntity
  8
0
100
AcDbPolyline
 62
253
  6
CONTINUOUS
 90
5
 70
0
 10
-14.6259199155
 20
-5.9840802483
 10
-14.5989351012
 20
-6.003013463
 10
-14.5699736628
 20
-6.0184476057
 10
-14.5394258175
 20
-6.0301750197
 10
-14.5187031183
 20
-6.0357811306
  0
LWPOLYLINE
  5
2EA
100
AcDbEntity
  8
0
100
AcDbPolyline
 62
253
  6
CONTINUOUS
 90
4
 70
0
 10
-5.5016795867
 20
-11.2224645284
 10
-5.4780532978
 20
-11.2394798863
 10
-5.4538907
 20
-11.2571308923
 10
-5.4290235663
 20
-11.2754917188
  0
LWPOLYLINE
  5
2EB
100
AcDbEntity
  8
0
100
AcDbPolyline
 62
7
  6
CONTINUOUS
 90
12
 70
0
 10
-5.4151109789
 20
-11.2920814278
 10
-5.3008001639
 20
-11.37477941
 10
-5.2465843158
 20
-11.4148597045
 10
-5.1924855462
 20
-11.4559214556
 10
-5.1389882678
 20
-11.4975915874
 10
-5.0864584716
 20
-11.5395801108
 10
-5.0352569758
 20
-11.5816086073
 10
-4.985749656
 20
-11.6233758751
 10
-4.9383849805
 20
-11.6645028335
 10
-4.8934564947
 20
-11.7047385283
 10
-4.8513304349
 20
-11.7437608935
 10
-4.812679714
 20
-11.7809397526
  0
LWPOLYLINE
  5
2EC
100
AcDbEntity
  8
0
100
AcDbPolyline
 62
253
  6
CONTINUOUS
 90
15
 70
0
 10
-5.319323435
 20
-11.357592419
 10
-5.2754303049
 20
-11.3897560241
 10
-5.2337152668
 20
-11.4207735098
 10
-5.1941783209
 20
-11.450644876
 10
-5.1569097317
 20
-11.4793654287
 10
-5.1218192346
 20
-11.5069398619
 10
-5.0886360356
 20
-11.5333822577
 10
-5.0573672501
 20
-11.5586645393
 10
-5.0280057626
 20
-11.5828147834
 10
-5.0002594325
 20
-11.605931302
 10
-4.9741162484
 20
-11.6280091083
 10
-4.9495882216
 20
-11.649053189
 10
-4.9264192457
 20
-11.6691768161
 10
-4.9045982486
 20
-11.688379151
 10
-4.8841363023
 20
-11.7066610322
  0
LINE
  5
2ED
100
AcDbEntity
  8
0
100
AcDbLine
 62
253
  6
CONTINUOUS
 10
-5.4290235663
 20
-11.2754917188
 11
-5.319323435
 21
-11.357592419
  0
LWPOLYLINE
  5
2EE
100
AcDbEntity
  8
0
100
AcDbPolyline
 62
7
  6
CONTINUOUS
 90
5
 70
0
 10
7.4686558596
 20
-23.3735765788
 10
7.4943952974
 20
-23.3945864062
 10
7.5172661306
 20
-23.4190001746
 10
7.536705271
 20
-23.4463039543
 10
7.5523566022
 20
-23.4760504141
  0
LWPOLYLINE
  5
2EF
100
AcDbEntity
  8
0
100
AcDbPolyline
 62
253
  6
CONTINUOUS
 90
13
 70
0
 10
-4.8841363023
 20
-11.7066610322
 10
-4.8648105166
 20
-11.7241382475
 10
-4.8466112765
 20
-11.7408115543
 10
-4.8295481969
 20
-11.756680195
 10
-4.8134272322
 20
-11.7718576843
 10
-4.7982394862
 20
-11.7863459377
 10
-4.783993855
 20
-11.8001430395
 10
-4.7705229812
 20
-11.8133567577
 10
-4.7578183587
 20
-11.8259899057
 10
-4.7458884937
 20
-11.8380396701
 10
-4.7345915472
 20
-11.8496053783
 10
-4.7238802398
 20
-11.8607201394
 10
-4.7138018509
 20
-11.8713508444
  0
LWPOLYLINE
  5
2F0
100
AcDbEntity
  8
ASSI
100
AcDbPolyline
 62
7
  6
CONTINUOUS
 90
33
 70
0
 10
-4.1863441716
 20
-15.6566050851
 10
-4.2836840959
 20
-15.5555749021
 10
-4.3914921939
 20
-15.4493524243
 10
-4.5097684658
 20
-15.3379376515
 10
-4.6394118594
 20
-15.2205440798
 10
-4.7795234269
 20
-15.0979582132
 10
-4.9274063243
 20
-14.9725395638
 10
-5.0832110989
 20
-14.8442332544
 10
-5.2467872036
 20
-14.7130941623
 10
-5.4149861529
 20
-14.5816464304
 10
-5.5878975013
 20
-14.4498840798
 10
-5.7654316945
 20
-14.3178130895
 10
-5.9441715842
 20
-14.1879755395
 10
-6.1241405273
 20
-14.0604146965
 10
-6.305315167
 20
-13.9350872939
 10
-6.4842082844
 20
-13.8144056124
 10
-6.6607756814
 20
-13.6984596495
 10
-6.8350615562
 20
-13.5871594077
 10
-7.0037112834
 20
-13.4826471753
 10
-7.1666156791
 20
-13.3850544504
 10
-7.3238839273
 20
-13.2942497349
 10
-7.4724889554
 20
-13.2119808227
 10
-7.6122629383
 20
-13.1384130702
 10
-7.7433737011
 20
-13.0733811211
 10
-7.8632976458
 20
-13.0181366991
 10
-7.9718180602
 20
-12.9728694095
 10
-8.0691516566
 20
-12.9373896472
 10
-8.1534249743
 20
-12.9123803205
 10
-8.2243850081
 20
-12.8980442641
 10
-8.2822847632
 20
-12.8941786434
 10
-8.3260097949
 20
-12.9008578632
 10
-8.3552855089
 20
-12.9182861994
 10
-8.360790156
 20
-12.9248477689
  0
LINE
  5
2F1
100
AcDbEntity
  8
0
100
AcDbLine
 62
7
  6
CONTINUOUS
 10
-7.82378593
 20
-11.5418006347
 11
-7.475266089
 21
-11.9123341834
  0
LINE
  5
2F2
100
AcDbEntity
  8
ASSI
100
AcDbLine
 62
7
  6
CONTINUOUS
 10
-11.6760715352
 20
-7.6586180318
 11
-10.6662238219
 21
-8.7408139403
  0
LINE
  5
2F3
100
AcDbEntity
  8
0
100
AcDbLine
 62
7
  6
CONTINUOUS
 10
-7.601578311
 20
-11.7526973994
 11
-7.829539311
 21
-11.5084046627
  0
LINE
  5
2F4
100
AcDbEntity
  8
ASSI
100
AcDbLine
 62
7
  6
CONTINUOUS
 10
-10.7921880588
 20
-8.1689612735
 11
-10.488458634
 21
-8.4944506878
  0
LINE
  5
2F5
100
AcDbEntity
  8
ASSI
100
AcDbLine
 62
7
  6
CONTINUOUS
 10
-6.3607738583
 20
-11.5198890103
 11
-7.963760934
 21
-9.8020596468
  0
LINE
  5
2F6
100
AcDbEntity
  8
ASSI
100
AcDbLine
 62
7
  6
CONTINUOUS
 10
-6.3374153373
 20
-10.7410912115
 11
-6.0336859125
 21
-11.0665806258
  0
LWPOLYLINE
  5
2F7
100
AcDbEntity
  8
SMUSSO
100
AcDbPolyline
 62
7
  6
CONTINUOUS
 90
8
 70
0
 10
-3.4912706132
 20
-14.6933085896
 10
-3.413359204
 20
-14.7794891361
 10
-3.3467577271
 20
-14.8589091815
 10
-3.2918387096
 20
-14.9311245427
 10
-3.2489093632
 20
-14.9957313021
 10
-3.2182098187
 20
-15.0523681347
 10
-3.1999118249
 20
-15.100718302
 10
-3.1960634442
 20
-15.1178316625
  0
LWPOLYLINE
  5
2F8
100
AcDbEntity
  8
SMUSSO
100
AcDbPolyline
 62
7
  6
CONTINUOUS
 90
7
 70
0
 10
-8.0483463873
 20
-11.1523613134
 10
-7.9891782181
 20
-11.2179783635
 10
-7.9393361705
 20
-11.2780066427
 10
-7.8991434944
 20
-11.3320568417
 10
-7.8688608596
 20
-11.3797784224
 10
-7.8486846672
 20
-11.4208618871
 10
-7.8390176675
 20
-11.4533867651
  0
LWPOLYLINE
  5
2F9
100
AcDbEntity
  8
0
100
AcDbPolyline
 62
253
  6
CONTINUOUS
 90
22
 70
0
 10
-11.819798288
 20
-14.8804189411
 10
-11.8095018541
 20
-14.9532847183
 10
-11.796187462
 20
-15.0250055774
 10
-11.7798633189
 20
-15.0955872971
 10
-11.7602934456
 20
-15.1652058751
 10
-11.7377291034
 20
-15.2336961164
 10
-11.7129090464
 20
-15.3005518122
 10
-11.6858625048
 20
-15.3658287985
 10
-11.6565737208
 20
-15.4294808332
 10
-11.6257142237
 20
-15.4908487942
 10
-11.5933435649
 20
-15.5498493659
 10
-11.5594145194
 20
-15.6065747
 10
-11.5244385508
 20
-15.6606289605
 10
-11.4887462152
 20
-15.7117329185
 10
-11.4520167944
 20
-15.7601728895
 10
-11.413784062
 20
-15.8064008011
 10
-11.3735202804
 20
-15.8510784439
 10
-11.3317594693
 20
-15.8935485674
 10
-11.289627903
 20
-15.9322844447
 10
-11.2475028348
 20
-15.966778492
 10
-11.2050116633
 20
-15.9975416634
 10
-11.1621555388
 20
-16.0245747933
  0
LINE
  5
2FA
100
AcDbEntity
  8
RACCORDO
100
AcDbLine
 62
7
  6
CONTINUOUS
 10
-12.5266536159
 20
13.1982821902
 11
-12.5222358776
 21
13.1516308207
  0
LWPOLYLINE
  5
2FB
100
AcDbEntity
  8
RACCORDO
100
AcDbPolyline
 62
253
  6
CONTINUOUS
 90
6
 70
0
 10
-12.495543549
 20
13.1486816621
 10
-12.4969307518
 20
13.1661199667
 10
-12.4977305545
 20
13.1826741551
 10
-12.4979981187
 20
13.1982707092
 10
-12.4976788308
 20
13.2129828872
 10
-12.4967729343
 20
13.2268105737
  0
LWPOLYLINE
  5
2FC
100
AcDbEntity
  8
RACCORDO
100
AcDbPolyline
 62
253
  6
CONTINUOUS
 90
6
 70
0
 10
-12.5260809976
 20
13.2674456871
 10
-12.5256857248
 20
13.2603269635
 10
-12.5225471337
 20
13.2513033933
 10
-12.5165500504
 20
13.2425383934
 10
-12.5078726934
 20
13.2342924376
 10
-12.4967729317
 20
13.226810575
  0
LWPOLYLINE
  5
2FD
100
AcDbEntity
  8
RACCORDO
100
AcDbPolyline
 62
253
  6
CONTINUOUS
 90
6
 70
0
 10
-12.0887734576
 20
17.7694130115
 10
-12.0884300473
 20
17.7617366272
 10
-12.0852417645
 20
17.7532142862
 10
-12.0792066587
 20
17.7448225635
 10
-12.0705039431
 20
17.7368108848
 10
-12.0593921592
 20
17.7294174427
  0
LWPOLYLINE
  5
2FE
100
AcDbEntity
  8
0
100
AcDbPolyline
 62
7
  6
CONTINUOUS
 90
9
 70
0
 10
-9.0359000797
 20
22.5314633194
 10
-9.0339900592
 20
22.562311853
 10
-9.0279678895
 20
22.593943093
 10
-9.0178894347
 20
22.6246392518
 10
-9.0038555583
 20
22.6539234386
 10
-8.9860245909
 20
22.6813015353
 10
-8.9646599929
 20
22.7062386682
 10
-8.9401186673
 20
22.7282331056
 10
-8.913085556
 20
22.7466974654
  0
LWPOLYLINE
  5
2FF
100
AcDbEntity
  8
0
100
AcDbPolyline
 62
253
  6
CONTINUOUS
 90
22
 70
0
 10
-11.3969449036
 20
-14.8530324074
 10
-11.4019769002
 20
-14.9187209037
 10
-11.4040018316
 20
-14.983177459
 10
-11.4033663463
 20
-15.0462207446
 10
-11.4005144235
 20
-15.1076426313
 10
-11.3956521385
 20
-15.1673033362
 10
-11.3886935786
 20
-15.2251657463
 10
-11.3798161039
 20
-15.2812011869
 10
-11.3692855734
 20
-15.3352014049
 10
-11.357076494
 20
-15.3869028417
 10
-11.343363405
 20
-15.4361509707
 10
-11.3283392396
 20
-15.482899522
 10
-11.3119782222
 20
-15.5270645434
 10
-11.2946220218
 20
-15.5683638391
 10
-11.2762317853
 20
-15.606910664
 10
-11.2562125932
 20
-15.6432257935
 10
-11.2344856338
 20
-15.6777351834
 10
-11.2115029244
 20
-15.7098311261
 10
-11.1874767586
 20
-15.7384823552
 10
-11.1625828713
 20
-15.7632852825
 10
-11.1369907764
 20
-15.7844544047
 10
-11.1108740297
 20
-15.8018939524
  0
LWPOLYLINE
  5
300
100
AcDbEntity
  8
RACCORDO
100
AcDbPolyline
 62
7
  6
CONTINUOUS
 90
4
 70
0
 10
-8.3329025539
 20
21.5387004171
 10
-8.3333424389
 20
21.5334096306
 10
-8.3340644476
 20
21.5304969998
 10
-8.3341802549
 20
21.530184483
  0
LWPOLYLINE
  5
301
100
AcDbEntity
  8
0
100
AcDbPolyline
 62
253
  6
CONTINUOUS
 90
15
 70
0
 10
-4.7315409311
 20
22.4463850065
 10
-4.7331876941
 20
22.4396065624
 10
-4.7353891431
 20
22.4328808137
 10
-4.7381403278
 20
22.4262228836
 10
-4.7414350621
 20
22.4196477431
 10
-4.7452659375
 20
22.4131701769
 10
-4.7496243399
 20
22.4068047502
 10
-4.7545004692
 20
22.4005657762
 10
-4.759883361
 20
22.3944672838
 10
-4.7657609116
 20
22.3885229857
 10
-4.7721199047
 20
22.3827462483
 10
-4.7789460417
 20
22.3771500609
 10
-4.7862239735
 20
22.371747007
 10
-4.7939373351
 20
22.3665492358
 10
-4.8020687825
 20
22.3615684349
  0
LWPOLYLINE
  5
302
100
AcDbEntity
  8
0
100
AcDbPolyline
 62
7
  6
CONTINUOUS
 90
9
 70
0
 10
3.3905767142
 20
15.6427220693
 10
3.3643635173
 20
15.6248973868
 10
3.3403004533
 20
15.6035823435
 10
3.3189643084
 20
15.5790849638
 10
3.30085183
 20
15.5517947673
 10
3.2864210567
 20
15.5222697655
 10
3.2759967483
 20
15.4911414732
 10
3.2697143554
 20
15.4587042657
 10
3.2677579249
 20
15.4274447924
  0
LINE
  5
303
100
AcDbEntity
  8
RACCORDO
100
AcDbLine
 62
253
  6
CONTINUOUS
 10
3.975087491
 20
14.5153373134
 11
3.9081084316
 21
14.4721349813
  0
LINE
  5
304
100
AcDbEntity
  8
0
100
AcDbLine
 62
7
  6
CONTINUOUS
 10
3.3905767142
 20
15.6427220693
 11
4.9737567832
 21
16.5782263562
  0
LINE
  5
305
100
AcDbEntity
  8
0
100
AcDbLine
 62
253
  6
CONTINUOUS
 10
3.5167294735
 20
15.6310100768
 11
5.0994860766
 21
16.5662641369
  0
LINE
  5
306
100
AcDbEntity
  8
DRAFT
100
AcDbLine
 62
7
  6
CONTINUOUS
 10
12.662957304
 20
19.4191360075
 11
7.0152083413
 21
16.1535581979
  0
LINE
  5
307
100
AcDbEntity
  8
0
100
AcDbLine
 62
253
  6
CONTINUOUS
 10
5.1952675439
 20
14.661843232
 11
7.3248155065
 21
15.8914168474
  0
LINE
  5
308
100
AcDbEntity
  8
SMUSSO
100
AcDbLine
 62
7
  6
CONTINUOUS
 10
-6.5143003851
 20
-11.7670025462
 11
-7.6102441916
 21
-11.9327475952
  0
LWPOLYLINE
  5
309
100
AcDbEntity
  8
SMUSSO
100
AcDbPolyline
 62
7
  6
CONTINUOUS
 90
31
 70
0
 10
-6.5143003851
 20
-11.7670025462
 10
-6.497985725
 20
-11.7656044546
 10
-6.4571046026
 20
-11.7683338149
 10
-6.4065948
 20
-11.7785863673
 10
-6.346783891
 20
-11.7962956214
 10
-6.278059771
 20
-11.8213467272
 10
-6.200868143
 20
-11.853577219
 10
-6.1157096238
 20
-11.8927780703
 10
-6.0231364989
 20
-11.938695049
 10
-5.9237491429
 20
-11.9910303649
 10
-5.8181921213
 20
-12.0494446033
 10
-5.7071500126
 20
-12.1135589253
 10
-5.5913429709
 20
-12.1829575227
 10
-5.4715220504
 20
-12.2571903184
 10
-5.3484643367
 20
-12.3357758835
 10
-5.2229679105
 20
-12.4182045576
 10
-5.0958466654
 20
-12.5039417582
 10
-4.9679250322
 20
-12.5924314458
 10
-4.8400326356
 20
-12.6830997278
 10
-4.7129989074
 20
-12.775358585
 10
-4.5876477103
 20
-12.8686096826
 10
-4.4647919982
 20
-12.9622482485
 10
-4.3452285365
 20
-13.0556670009
 10
-4.2297327397
 20
-13.1482600831
 10
-4.1190536452
 20
-13.2394269902
 10
-4.0139090466
 20
-13.3285764714
 10
-3.9149808451
 20
-13.4151303587
 10
-3.8229106306
 20
-13.4985273132
 10
-3.7382955108
 20
-13.5782264746
 10
-3.66168424
 20
-13.6537109681
 10
-3.5935736659
 20
-13.7244912514
  0
LWPOLYLINE
  5
30A
100
AcDbEntity
  8
SMUSSO
100
AcDbPolyline
 62
7
  6
CONTINUOUS
 90
33
 70
0
 10
-7.6102441916
 20
-11.9327475952
 10
-7.5760469062
 20
-11.9307052532
 10
-7.5202306928
 20
-11.9360421658
 10
-7.4527575193
 20
-11.9505199937
 10
-7.374004721
 20
-11.9740577638
 10
-7.2844126929
 20
-12.006523849
 10
-7.1844824517
 20
-12.0477366952
 10
-7.0747728634
 20
-12.0974658199
 10
-6.9558974898
 20
-12.1554331081
 10
-6.828521146
 20
-12.2213143747
 10
-6.6933561707
 20
-12.2947411847
 10
-6.55115846
 20
-12.375302906
 10
-6.4027232468
 20
-12.4625490017
 10
-6.2488806471
 20
-12.5559915526
 10
-6.0904910095
 20
-12.6551079913
 10
-5.9284401078
 20
-12.7593440225
 10
-5.7636342134
 20
-12.8681167057
 10
-5.5969950207
 20
-12.9808177181
 10
-5.4294544797
 20
-13.0968167638
 10
-5.2619495233
 20
-13.2154651428
 10
-5.0954168542
 20
-13.3360993632
 10
-4.930787751
 20
-13.4580448215
 10
-4.7689829442
 20
-13.5806195095
 10
-4.6109074022
 20
-13.7031378715
 10
-4.457445026
 20
-13.8249148306
 10
-4.3094541767
 20
-13.945269253
 10
-4.1677628983
 20
-14.0635277112
 10
-4.0331637059
 20
-14.179028718
 10
-3.9064090504
 20
-14.2911265477
 10
-3.7882075675
 20
-14.3991944766
 10
-3.6792201794
 20
-14.5026282233
 10
-3.5800563654
 20
-14.6008493425
 10
-3.4912706132
 20
-14.6933085896
  0
LINE
  5
30B
100
AcDbEntity
  8
0
100
AcDbLine
 62
253
  6
CONTINUOUS
 10
-14.4964793111
 20
-6.0223357612
 11
-14.4665200207
 21
-6.0363776883
  0
LWPOLYLINE
  5
30C
100
AcDbEntity
  8
0
100
AcDbPolyline
 62
253
  6
CONTINUOUS
 90
10
 70
0
 10
-14.5577143916
 20
-6.1922920694
 10
-14.5289753287
 20
-6.205941932
 10
-14.4977996931
 20
-6.2153164305
 10
-14.4647112644
 20
-6.2202580788
 10
-14.4302659654
 20
-6.2206838669
 10
-14.3950424941
 20
-6.2165866559
 10
-14.3596326
 20
-6.2080352858
 10
-14.3246311917
 20
-6.1951734267
 10
-14.2906263138
 20
-6.1782171676
 10
-14.2666357564
 20
-6.162858718
  0
LWPOLYLINE
  5
30D
100
AcDbEntity
  8
0
100
AcDbPolyline
 62
7
  6
CONTINUOUS
 90
3
 70
0
 10
-4.812679714
 20
-11.7809397526
 10
-4.7780156621
 20
-11.8157466817
 10
-4.7512367778
 20
-11.8439314542
  0
LINE
  5
30E
100
AcDbEntity
  8
0
100
AcDbLine
 62
253
  6
CONTINUOUS
 10
-3.7854373416
 20
-12.2432390252
 11
0.0306698618
 21
-16.3327423705
  0
LINE
  5
30F
100
AcDbEntity
  8
0
100
AcDbLine
 62
253
  6
CONTINUOUS
 10
-3.1422699684
 20
-12.0460027822
 11
0.1806584294
 21
-15.6069946711
  0
LINE
  5
310
100
AcDbEntity
  8
0
100
AcDbLine
 62
253
  6
CONTINUOUS
 10
-4.7138018509
 20
-11.8713508444
 11
-0.1033551031
 21
-16.8525260167
  0
LINE
  5
311
100
AcDbEntity
  8
0
100
AcDbLine
 62
7
  6
CONTINUOUS
 10
-0.1028378637
 20
-16.8661713653
 11
-4.7512367777
 21
-11.8439314543
  0
LWPOLYLINE
  5
312
100
AcDbEntity
  8
SMUSSO
100
AcDbPolyline
 62
7
  6
CONTINUOUS
 90
7
 70
0
 10
-3.5935736659
 20
-13.7244912514
 10
-3.5344054966
 20
-13.7901083015
 10
-3.484563449
 20
-13.8501365806
 10
-3.444370773
 20
-13.9041867797
 10
-3.4140881381
 20
-13.9519083603
 10
-3.3939119457
 20
-13.992991825
 10
-3.384244946
 20
-14.025516703
  0
LWPOLYLINE
  5
313
100
AcDbEntity
  8
0
100
AcDbPolyline
 62
253
  6
CONTINUOUS
 90
4
 70
0
 10
-5.665483232
 20
-11.1153145531
 10
-5.6520744173
 20
-11.1321539181
 10
-5.6362395076
 20
-11.1455865383
 10
-5.6296061771
 20
-11.1497713496
  0
LWPOLYLINE
  5
314
100
AcDbEntity
  8
0
100
AcDbPolyline
 62
253
  6
CONTINUOUS
 90
34
 70
0
 10
5.3720412476
 20
-24.9012437638
 10
5.3676206351
 20
-24.8951418678
 10
5.3628133385
 20
-24.8888220361
 10
5.3576302079
 20
-24.8822985325
 10
5.3520829449
 20
-24.8755860847
 10
5.3461840671
 20
-24.8686998393
 10
5.3399468778
 20
-24.8616553266
 10
5.333385444
 20
-24.8544684364
 10
5.3265145815
 20
-24.8471553981
 10
5.3193498128
 20
-24.8397327335
 10
5.3119073162
 20
-24.8322172025
 10
5.3042038841
 20
-24.824625762
 10
5.2962569005
 20
-24.8169755429
 10
5.2880843011
 20
-24.8092838112
 10
5.2797045329
 20
-24.8015679285
 10
5.2711365093
 20
-24.7938453096
 10
5.2623995691
 20
-24.786133385
 10
5.2535134315
 20
-24.7784495607
 10
5.2444981518
 20
-24.7708111782
 10
5.2353740794
 20
-24.763235479
 10
5.2261618061
 20
-24.7557395605
 10
5.2168821186
 20
-24.7483403365
 10
5.2075559496
 20
-24.7410544987
 10
5.1982043603
 20
-24.7338985009
 10
5.1888484864
 20
-24.7268885163
 10
5.1795094615
 20
-24.720040378
 10
5.1702083467
 20
-24.7133695282
 10
5.1609661119
 20
-24.706891006
 10
5.1518033855
 20
-24.7006192772
 10
5.1427410844
 20
-24.6945686648
 10
5.1338003167
 20
-24.6887532451
 10
5.1250014451
 20
-24.6831862224
 10
5.1163640686
 20
-24.6778799562
 10
5.1079076356
 20
-24.6728463587
  0
LWPOLYLINE
  5
315
100
AcDbEntity
  8
RACCORDO
100
AcDbPolyline
 62
7
  6
CONTINUOUS
 90
10
 70
0
 10
-12.5222358776
 20
13.1516308207
 10
-12.5141368474
 20
13.1045584214
 10
-12.5025056662
 20
13.0575646094
 10
-12.4875098417
 20
13.0110821101
 10
-12.4692993198
 20
12.9654425599
 10
-12.4480464135
 20
12.9210381033
 10
-12.4239229491
 20
12.8782328161
 10
-12.3971267792
 20
12.8374178908
 10
-12.3678864629
 20
12.7990028201
 10
-12.3363352207
 20
12.7632606563
  0
LWPOLYLINE
  5
316
100
AcDbEntity
  8
0
100
AcDbPolyline
 62
253
  6
CONTINUOUS
 90
17
 70
0
 10
-8.9626767751
 20
22.1088788726
 10
-8.9625084793
 20
22.1000714073
 10
-8.962003912
 20
22.0914750556
 10
-8.9611640342
 20
22.0831061852
 10
-8.9599904485
 20
22.0749807525
 10
-8.9584853876
 20
22.0671142058
 10
-8.9566517012
 20
22.0595214637
 10
-8.9544928571
 20
22.0522169416
 10
-8.9520129697
 20
22.0452146078
 10
-8.94921679
 20
22.0385278842
 10
-8.9461096674
 20
22.0321695392
 10
-8.9426975053
 20
22.0261516308
 10
-8.9389867773
 20
22.0204855745
 10
-8.9349845166
 20
22.0151821247
 10
-8.9306983674
 20
22.0102514251
 10
-8.9261365579
 20
22.0057029316
 10
-8.9213078284
 20
22.0015453265
  0
LINE
  5
317
100
AcDbEntity
  8
0
100
AcDbLine
 62
7
  6
CONTINUOUS
 10
-9.0359000798
 20
22.5314676938
 11
-9.0359000798
 21
22.210947521
  0
LINE
  5
318
100
AcDbEntity
  8
0
100
AcDbLine
 62
253
  6
CONTINUOUS
 10
-8.9626767751
 20
22.4293990455
 11
-8.9626767751
 21
22.1088788726
  0
LINE
  5
319
100
AcDbEntity
  8
0
100
AcDbLine
 62
7
  6
CONTINUOUS
 10
-8.3329071256
 20
21.6607152821
 11
-8.3329071256
 21
21.5387564542
  0
LINE
  5
31A
100
AcDbEntity
  8
RACCORDO
100
AcDbLine
 62
253
  6
CONTINUOUS
 10
-8.2596838209
 20
21.6184370636
 11
-8.2596838209
 21
21.4310462261
  0
LWPOLYLINE
  5
31B
100
AcDbEntity
  8
0
100
AcDbPolyline
 62
253
  6
CONTINUOUS
 90
34
 70
0
 10
-8.9626767751
 20
22.4293990455
 10
-8.9624780272
 20
22.4391901605
 10
-8.9618822305
 20
22.4491887686
 10
-8.9608907245
 20
22.4593723871
 10
-8.9595057389
 20
22.4697181173
 10
-8.9577303877
 20
22.4802026961
 10
-8.9555686631
 20
22.4908025481
 10
-8.9530254259
 20
22.5014938388
 10
-8.9501063947
 20
22.512252528
 10
-8.9468181331
 20
22.523054424
 10
-8.9431680352
 20
22.5338752378
 10
-8.9391643083
 20
22.544690638
 10
-8.9348159552
 20
22.5554763055
 10
-8.9301327535
 20
22.5662079878
 10
-8.9251252337
 20
22.5768615539
 10
-8.9198046556
 20
22.5874130485
 10
-8.914182983
 20
22.5978387457
 10
-8.9082728565
 20
22.6081152026
 10
-8.9020875656
 20
22.6182193118
 10
-8.8956410183
 20
22.6281283534
 10
-8.8889477102
 20
22.6378200461
 10
-8.8820226917
 20
22.6472725976
 10
-8.8748815343
 20
22.656464753
 10
-8.8675402953
 20
22.665375843
 10
-8.8600154821
 20
22.6739858304
 10
-8.8523240148
 20
22.682275355
 10
-8.8444831883
 20
22.6902257771
 10
-8.8365106332
 20
22.6978192197
 10
-8.8284242764
 20
22.7050386083
 10
-8.8202423008
 20
22.7118677096
 10
-8.8119831041
 20
22.7182911677
 10
-8.8036652578
 20
22.7242945392
 10
-8.7953074651
 20
22.7298643249
 10
-8.7869285192
 20
22.7349880007
  0
LINE
  5
31C
100
AcDbEntity
  8
0
100
AcDbLine
 62
253
  6
CONTINUOUS
 10
-4.7304525569
 20
22.453200904
 11
-4.7315409311
 21
22.4463850065
  0
LWPOLYLINE
  5
31D
100
AcDbEntity
  8
RACCORDO
100
AcDbPolyline
 62
253
  6
CONTINUOUS
 90
10
 70
0
 10
3.9099542375
 20
14.0866166053
 10
3.933563496
 20
14.1039987114
 10
3.9562921334
 20
14.1253966193
 10
3.9774947166
 20
14.1502026852
 10
3.9965691485
 20
14.1777124825
 10
4.0129737658
 20
14.207144806
 10
4.0262427208
 20
14.2376638556
 10
4.0359992103
 20
14.2684029713
 10
4.041966176
 20
14.2984892436
 10
4.0439741718
 20
14.3270683022
  0
LWPOLYLINE
  5
31E
100
AcDbEntity
  8
RACCORDO
100
AcDbPolyline
 62
253
  6
CONTINUOUS
 90
16
 70
0
 10
3.9081084316
 20
14.4721349813
 10
3.8763448957
 20
14.4492382842
 10
3.848978282
 20
14.4252290039
 10
3.8260085906
 20
14.4001071405
 10
3.8073201864
 20
14.3735925841
 10
3.7930287045
 20
14.3459654445
 10
3.7834810499
 20
14.3180660515
 10
3.7787837258
 20
14.2899075769
 10
3.778830229
 20
14.2614768488
 10
3.7836479549
 20
14.2335746818
 10
3.7933516108
 20
14.2061808466
 10
3.8078264893
 20
14.1793155724
 10
3.8267558639
 20
14.153840361
 10
3.850034159
 20
14.1300423796
 10
3.8777669502
 20
14.1076344611
 10
3.9099542375
 20
14.0866166053
  0
LWPOLYLINE
  5
31F
100
AcDbEntity
  8
RACCORDO
100
AcDbPolyline
 62
253
  6
CONTINUOUS
 90
4
 70
0
 10
2.0655315055
 20
11.0321481593
 10
2.0128714443
 20
10.9952896908
 10
1.9607024829
 20
10.9540711048
 10
1.9093296508
 20
10.9087239047
  0
LWPOLYLINE
  5
320
100
AcDbEntity
  8
RACCORDO
100
AcDbPolyline
 62
7
  6
CONTINUOUS
 90
15
 70
0
 10
1.9629233142
 20
11.0403603365
 10
1.9287660025
 20
11.0168363977
 10
1.8612331722
 20
10.9642881512
 10
1.7964200972
 20
10.9057952135
 10
1.7346794262
 20
10.8420009612
 10
1.6762775483
 20
10.7734316416
 10
1.6214980743
 20
10.7005927587
 10
1.5706954218
 20
10.6241027394
 10
1.5242392342
 20
10.5445566404
 10
1.4824452783
 20
10.4625515396
 10
1.4456466052
 20
10.378722046
 10
1.414171903
 20
10.293675901
 10
1.3882821456
 20
10.2079215701
 10
1.3682942259
 20
10.1219804963
 10
1.3538292471
 20
10.0308074447
  0
LWPOLYLINE
  5
321
100
AcDbEntity
  8
RACCORDO
100
AcDbPolyline
 62
253
  6
CONTINUOUS
 90
22
 70
0
 10
1.8152739278
 20
11.1766437482
 10
1.7955623878
 20
11.1633568743
 10
1.7748036704
 20
11.1486503393
 10
1.7530263693
 20
11.1324275494
 10
1.7301989862
 20
11.1145365076
 10
1.706432316
 20
11.0949302813
 10
1.6819755689
 20
11.0736928705
 10
1.6568812819
 20
11.0507519859
 10
1.6312137706
 20
11.0260437117
 10
1.6052396341
 20
10.9997162861
 10
1.5790270938
 20
10.9717365545
 10
1.5526520899
 20
10.9420793056
 10
1.5263834511
 20
10.9109594642
 10
1.5002960317
 20
10.8783869757
 10
1.4744674434
 20
10.8443765093
 10
1.449150355
 20
10.8092011911
 10
1.424411977
 20
10.7729063179
 10
1.4003227346
 20
10.7355439906
 10
1.3771082184
 20
10.6974396452
 10
1.3548679872
 20
10.6587580011
 10
1.333596108
 20
10.619485569
 10
1.3133389242
 20
10.5796986921
  0
LWPOLYLINE
  5
322
100
AcDbEntity
  8
RACCORDO
100
AcDbPolyline
 62
253
  6
CONTINUOUS
 90
22
 70
0
 10
1.8909086188
 20
11.0571366553
 10
1.8730772067
 20
11.0452595123
 10
1.8543618072
 20
11.031918599
 10
1.8347624201
 20
11.0171139153
 10
1.8141737169
 20
11.0008691423
 10
1.7927010262
 20
10.9831605989
 10
1.7706603339
 20
10.963917242
 10
1.7480367013
 20
10.9430987985
 10
1.7248450671
 20
10.9207455414
 10
1.7014462334
 20
10.8969072471
 10
1.6778347048
 20
10.871539647
 10
1.6540159767
 20
10.8446870096
 10
1.6303673364
 20
10.8165319164
 10
1.6068951966
 20
10.7870337425
 10
1.5835931447
 20
10.7562331127
 10
1.5608192294
 20
10.7244344826
 10
1.5385900808
 20
10.691605996
 10
1.516889069
 20
10.657779509
 10
1.4960243532
 20
10.6233550462
 10
1.4760986533
 20
10.5884659489
 10
1.4570092495
 20
10.5529788758
 10
1.4387561418
 20
10.5168938268
  0
LINE
  5
323
100
AcDbEntity
  8
RACCORDO
100
AcDbLine
 62
253
  6
CONTINUOUS
 10
3.1931560165
 20
12.0853440272
 11
1.8152739278
 21
11.1766437482
  0
LINE
  5
324
100
AcDbEntity
  8
RACCORDO
100
AcDbLine
 62
253
  6
CONTINUOUS
 10
3.263942062
 20
11.9626392982
 11
1.8909086188
 21
11.0571366553
  0
LINE
  5
325
100
AcDbEntity
  8
RACCORDO
100
AcDbLine
 62
7
  6
CONTINUOUS
 10
3.3401679677
 20
11.9486579197
 11
1.9628237409
 21
11.0403123556
  0
LINE
  5
326
100
AcDbEntity
  8
RACCORDO
100
AcDbLine
 62
253
  6
CONTINUOUS
 10
3.4434135942
 20
11.9408484383
 11
2.0655315055
 21
11.0321481593
  0
LINE
  5
327
100
AcDbEntity
  8
RACCORDO
100
AcDbLine
 62
253
  6
CONTINUOUS
 10
6.0832618557
 20
13.3717020381
 11
6.9733220384
 21
13.9332155198
  0
LWPOLYLINE
  5
328
100
AcDbEntity
  8
0
100
AcDbPolyline
 62
7
  6
CONTINUOUS
 90
21
 70
0
 10
13.6380125461
 20
18.0943739905
 10
13.6515901252
 20
18.1028259997
 10
13.6645362728
 20
18.1115542781
 10
13.6768509891
 20
18.1205588255
 10
13.6885517854
 20
18.1298547852
 10
13.6996211504
 20
18.139427014
 10
13.7100065494
 20
18.1492300826
 10
13.7197047312
 20
18.1592650885
 10
13.7287189471
 20
18.1695309342
 10
13.7370064161
 20
18.1799788986
 10
13.7445636835
 20
18.1906098475
 10
13.7513942041
 20
18.2014229152
 10
13.7574655605
 20
18.2123667835
 10
13.7627741441
 20
18.2234420741
 10
13.7673235635
 20
18.2346481653
 10
13.7710922275
 20
18.2459318735
 10
13.7740764247
 20
18.2572935679
 10
13.7762798665
 20
18.2687328794
 10
13.7776920954
 20
18.2801955176
 10
13.7783093505
 20
18.2916815936
 10
13.7783403606
 20
18.2949175089
  0
LINE
  5
329
100
AcDbEntity
  8
DRAFT
100
AcDbLine
 62
7
  6
CONTINUOUS
 10
13.6380125461
 20
18.546482508
 11
7.0240680519
 21
14.5522461453
  0
LINE
  5
32A
100
AcDbEntity
  8
0
100
AcDbLine
 62
7
  6
CONTINUOUS
 10
13.6380125461
 20
18.0943739905
 11
7.3749298746
 21
14.3496629262
  0
LINE
  5
32B
100
AcDbEntity
  8
0
100
AcDbLine
 62
253
  6
CONTINUOUS
 10
8.0281244115
 20
13.972516587
 11
7.3271884577
 21
13.5654291204
  0
LINE
  5
32C
100
AcDbEntity
  8
0
100
AcDbLine
 62
253
  6
CONTINUOUS
 10
5.3720412476
 20
14.3556621961
 11
7.5015892102
 21
15.5852358115
  0
LWPOLYLINE
  5
32D
100
AcDbEntity
  8
0
100
AcDbPolyline
 62
253
  6
CONTINUOUS
 90
37
 70
0
 10
2.6911231416
 20
9.5483634393
 10
2.6754570004
 20
9.5426285921
 10
2.6591733143
 20
9.5372910952
 10
2.642302403
 20
9.5323608867
 10
2.6248756794
 20
9.5278471466
 10
2.6069255916
 20
9.5237582793
 10
2.5884855619
 20
9.5201018981
 10
2.569589925
 20
9.516884811
 10
2.5502738641
 20
9.5141130083
 10
2.5305733447
 20
9.5117916508
 10
2.5105250488
 20
9.5099250608
 10
2.4901663054
 20
9.508516714
 10
2.4695350219
 20
9.5075692325
 10
2.4486696129
 20
9.5070843805
 10
2.4276089291
 20
9.5070630609
 10
2.4063921849
 20
9.5075053133
 10
2.3850588849
 20
9.5084103143
 10
2.3636487511
 20
9.5097763787
 10
2.3422016483
 20
9.5116009631
 10
2.3207575104
 20
9.5138806701
 10
2.2993562655
 20
9.5166112549
 10
2.2780377621
 20
9.5197876334
 10
2.2568416943
 20
9.5234038912
 10
2.2358075287
 20
9.527453295
 10
2.2149744299
 20
9.5319283048
 10
2.1943811886
 20
9.5368205885
 10
2.1740661486
 20
9.5421210368
 10
2.1540671358
 20
9.5478197803
 10
2.1344213877
 20
9.5539062083
 10
2.1151654839
 20
9.5603689881
 10
2.0963352783
 20
9.5671960861
 10
2.0779658321
 20
9.5743747905
 10
2.0600913484
 20
9.5818917349
 10
2.0427451091
 20
9.5897329229
 10
2.0259594121
 20
9.5978837546
 10
2.0097655118
 20
9.6063290534
 10
1.9941935608
 20
9.6150530944
  0
LWPOLYLINE
  5
32E
100
AcDbEntity
  8
RACCORDO
100
AcDbPolyline
 62
253
  6
CONTINUOUS
 90
10
 70
0
 10
1.2980854277
 20
10.0841189553
 10
1.2848359352
 20
10.080015697
 10
1.2699155722
 20
10.0772688696
 10
1.253767804
 20
10.0759601146
 10
1.2368725768
 20
10.0761283311
 10
1.2197320532
 20
10.0777685194
 10
1.2028556864
 20
10.0808319294
 10
1.1867450783
 20
10.0852275101
 10
1.1718790707
 20
10.0908246153
 10
1.1586995134
 20
10.0974568871
  0
LINE
  5
32F
100
AcDbEntity
  8
SMUSSO
100
AcDbLine
 62
7
  6
CONTINUOUS
 10
10.0372333571
 20
-7.2213377621
 11
10.4895238474
 21
-7.181794737
  0
LWPOLYLINE
  5
330
100
AcDbEntity
  8
SMUSSO
100
AcDbPolyline
 62
7
  6
CONTINUOUS
 90
14
 70
0
 10
-10.9690731066
 20
-9.1948726083
 10
-10.9527584465
 20
-9.1934745166
 10
-10.9118773241
 20
-9.196203877
 10
-10.8613675215
 20
-9.2064564294
 10
-10.8015566125
 20
-9.2241656835
 10
-10.7328324925
 20
-9.2492167893
 10
-10.6556408645
 20
-9.2814472811
 10
-10.5704823453
 20
-9.3206481323
 10
-10.4779092204
 20
-9.366565111
 10
-10.3785218643
 20
-9.4189004269
 10
-10.2729648428
 20
-9.4773146654
 10
-10.161922734
 20
-9.5414289873
 10
-10.0461156924
 20
-9.6108275847
 10
-9.9262947719
 20
-9.6850603804
  0
LWPOLYLINE
  5
331
100
AcDbEntity
  8
SMUSSO
100
AcDbPolyline
 62
7
  6
CONTINUOUS
 90
33
 70
0
 10
-12.0650169131
 20
-9.3606176572
 10
-12.0308196277
 20
-9.3585753153
 10
-11.9750034143
 20
-9.3639122278
 10
-11.9075302408
 20
-9.3783900557
 10
-11.8287774425
 20
-9.4019278258
 10
-11.7391854144
 20
-9.434393911
 10
-11.6392551732
 20
-9.4756067573
 10
-11.5295455848
 20
-9.5253358819
 10
-11.4106702113
 20
-9.5833031702
 10
-11.2832938675
 20
-9.6491844367
 10
-11.1481288922
 20
-9.7226112467
 10
-11.0059311815
 20
-9.803172968
 10
-10.8574959682
 20
-9.8904190637
 10
-10.7036533686
 20
-9.9838616146
 10
-10.545263731
 20
-10.0829780533
 10
-10.3832128293
 20
-10.1872140845
 10
-10.2184069349
 20
-10.2959867677
 10
-10.0517677422
 20
-10.4086877801
 10
-9.8842272012
 20
-10.5246868259
 10
-9.7167222448
 20
-10.6433352048
 10
-9.5501895757
 20
-10.7639694253
 10
-9.3855604724
 20
-10.8859148835
 10
-9.2237556656
 20
-11.0084895715
 10
-9.0656801237
 20
-11.1310079335
 10
-8.9122177475
 20
-11.2527848926
 10
-8.7642268982
 20
-11.373139315
 10
-8.6225356198
 20
-11.4913977733
 10
-8.4879364274
 20
-11.6068987801
 10
-8.3611817718
 20
-11.7189966097
 10
-8.242980289
 20
-11.8270645386
 10
-8.1339929009
 20
-11.9304982853
 10
-8.0348290869
 20
-12.0287194045
 10
-7.9460433347
 20
-12.1211786517
  0
LINE
  5
332
100
AcDbEntity
  8
0
100
AcDbLine
 62
7
  6
CONTINUOUS
 10
-14.5187031183
 20
-6.0357811306
 11
-14.5185328335
 21
-6.0358197945
  0
LWPOLYLINE
  5
333
100
AcDbEntity
  8
0
100
AcDbPolyline
 62
7
  6
CONTINUOUS
 90
9
 70
0
 10
-14.5185328335
 20
-6.0358197945
 10
-14.5159795582
 20
-6.036461108
 10
-14.5090545495
 20
-6.0384415163
 10
-14.4981371955
 20
-6.0420168798
 10
-14.4833973695
 20
-6.0474562029
 10
-14.4652645458
 20
-6.0548829044
 10
-14.4439447143
 20
-6.064464793
 10
-14.4195217835
 20
-6.0764026495
 10
-14.3923129529
 20
-6.0907315362
  0
LWPOLYLINE
  5
334
100
AcDbEntity
  8
0
100
AcDbPolyline
 62
253
  6
CONTINUOUS
 90
5
 70
0
 10
-0.1952558103
 20
-16.3348021884
 10
-0.1780047416
 20
-16.3584740146
 10
-0.1580527813
 20
-16.3842789375
 10
-0.1350832221
 20
-16.4123979307
 10
-0.1226112699
 20
-16.4269733359
  0
LWPOLYLINE
  5
335
100
AcDbEntity
  8
0
100
AcDbPolyline
 62
7
  6
CONTINUOUS
 90
10
 70
0
 10
-0.1346335112
 20
-16.3864406417
 10
-0.1359258074
 20
-16.3842539503
 10
-0.1363293516
 20
-16.3835388811
 10
-0.1351946656
 20
-16.3858660252
 10
-0.1328561457
 20
-16.3912735641
 10
-0.1294187975
 20
-16.4005925202
 10
-0.1254371246
 20
-16.4140052246
 10
-0.1216543996
 20
-16.431364503
 10
-0.1188045228
 20
-16.4530240493
 10
-0.1180051869
 20
-16.4661052601
  0
LINE
  5
336
100
AcDbEntity
  8
SMUSSO
100
AcDbLine
 62
7
  6
CONTINUOUS
 10
-7.8390176675
 20
-11.4533867651
 11
-7.7349933085
 21
-12.0572046874
  0
LINE
  5
337
100
AcDbEntity
  8
0
100
AcDbLine
 62
7
  6
CONTINUOUS
 10
-9.0333068115
 20
22.1750322171
 11
-9.0358997659
 21
22.2111762853
  0
LWPOLYLINE
  5
338
100
AcDbEntity
  8
RACCORDO
100
AcDbPolyline
 62
253
  6
CONTINUOUS
 90
9
 70
0
 10
-8.3329071239
 20
21.5387400391
 10
-8.3325496346
 20
21.5303278692
 10
-8.3298304101
 20
21.514218194
 10
-8.3244433933
 20
21.498469164
 10
-8.3164291745
 20
21.4832521701
 10
-8.3058436268
 20
21.4687447588
 10
-8.2927715409
 20
21.45511059
 10
-8.2773355992
 20
21.4424958444
 10
-8.2596838209
 20
21.4310462261
  0
LWPOLYLINE
  5
339
100
AcDbEntity
  8
0
100
AcDbPolyline
 62
253
  6
CONTINUOUS
 90
19
 70
0
 10
-7.2841387047
 20
21.1397120278
 10
-7.2839708725
 20
21.130916563
 10
-7.2834674658
 20
21.1223287188
 10
-7.2826290988
 20
21.1139650365
 10
-7.2814568721
 20
21.1058407506
 10
-7.2799527536
 20
21.0979725426
 10
-7.2781199504
 20
21.090378207
 10
-7.2759622255
 20
21.0830730464
 10
-7.2734834914
 20
21.0760700618
 10
-7.2706884341
 20
21.0693825119
 10
-7.2675823372
 20
21.0630230885
 10
-7.2641711269
 20
21.0570039694
 10
-7.2604613425
 20
21.0513367044
 10
-7.2564600793
 20
21.0460321173
 10
-7.2521749334
 20
21.0411002646
 10
-7.2476140334
 20
21.036550503
 10
-7.2427860273
 20
21.0323914746
 10
-7.2377001342
 20
21.0286311349
 10
-7.2323717757
 20
21.0252799641
  0
LINE
  5
33A
100
AcDbEntity
  8
0
100
AcDbLine
 62
253
  6
CONTINUOUS
 10
-7.2841387047
 20
21.1397120278
 11
-7.2841387047
 21
21.4602322006
  0
LINE
  5
33B
100
AcDbEntity
  8
0
100
AcDbLine
 62
253
  6
CONTINUOUS
 10
-6.9316167451
 20
21.1391199472
 11
-6.9316167451
 21
21.45964012
  0
LINE
  5
33C
100
AcDbEntity
  8
RACCORDO
100
AcDbLine
 62
253
  6
CONTINUOUS
 10
-6.5729180966
 20
20.4571288371
 11
-6.5729180966
 21
20.9415108349
  0
LINE
  5
33D
100
AcDbEntity
  8
RACCORDO
100
AcDbLine
 62
253
  6
CONTINUOUS
 10
-6.220396137
 20
20.475679962
 11
-6.220396137
 21
21.0736299343
  0
LWPOLYLINE
  5
33E
100
AcDbEntity
  8
0
100
AcDbPolyline
 62
253
  6
CONTINUOUS
 90
34
 70
0
 10
-7.2841387047
 20
21.4602322006
 10
-7.2839399568
 20
21.4700233157
 10
-7.2833441601
 20
21.4800219238
 10
-7.2823526541
 20
21.4902055422
 10
-7.2809676684
 20
21.5005512725
 10
-7.2791923173
 20
21.5110358513
 10
-7.2770305927
 20
21.5216357033
 10
-7.2744873555
 20
21.532326994
 10
-7.2715683243
 20
21.5430856832
 10
-7.2682800627
 20
21.5538875791
 10
-7.2646299648
 20
21.5647083929
 10
-7.2606262379
 20
21.5755237932
 10
-7.2562778848
 20
21.5863094607
 10
-7.2515946831
 20
21.597041143
 10
-7.2465871633
 20
21.6076947091
 10
-7.2412665852
 20
21.6182462037
 10
-7.2356449126
 20
21.6286719009
 10
-7.2297347861
 20
21.6389483578
 10
-7.2235494952
 20
21.6490524669
 10
-7.2171029479
 20
21.6589615085
 10
-7.2104096398
 20
21.6686532013
 10
-7.2034846213
 20
21.6781057528
 10
-7.1963434638
 20
21.6872979081
 10
-7.1890022249
 20
21.6962089982
 10
-7.1814774117
 20
21.7048189856
 10
-7.1737859444
 20
21.7131085102
 10
-7.1659451179
 20
21.7210589323
 10
-7.1579725628
 20
21.7286523749
 10
-7.149886206
 20
21.7358717635
 10
-7.1417042304
 20
21.7427008647
 10
-7.1334450337
 20
21.7491243229
 10
-7.1251271874
 20
21.7551276944
 10
-7.1167693947
 20
21.76069748
 10
-7.1083904487
 20
21.7658211559
  0
LWPOLYLINE
  5
33F
100
AcDbEntity
  8
0
100
AcDbPolyline
 62
7
  6
CONTINUOUS
 90
5
 70
0
 10
-4.7298709255
 20
22.463041548
 10
-4.7321690891
 20
22.4292296067
 10
-4.7391284447
 20
22.3956419909
 10
-4.7507337868
 20
22.3630606914
 10
-4.7668218799
 20
22.3322360535
  0
LWPOLYLINE
  5
340
100
AcDbEntity
  8
ASSI
100
AcDbPolyline
 62
7
  6
CONTINUOUS
 90
9
 70
0
 10
-12.8155628775
 20
-10.3527178309
 10
-12.8251592209
 20
-10.3741294382
 10
-12.8257948268
 20
-10.4121090325
 10
-12.8116848228
 20
-10.4602888898
 10
-12.7831094342
 20
-10.5184751647
 10
-12.7406186751
 20
-10.5855478975
 10
-12.6843958837
 20
-10.6611337683
 10
-12.6142577219
 20
-10.7456060971
 10
-12.5302041896
 20
-10.8389648838
  0
LWPOLYLINE
  5
341
100
AcDbEntity
  8
0
100
AcDbPolyline
 62
253
  6
CONTINUOUS
 90
11
 70
0
 10
0.3179628587
 20
18.4724205206
 10
0.3224389392
 20
18.4817770635
 10
0.3272147846
 20
18.4910279101
 10
0.3322774386
 20
18.5001479622
 10
0.3376131482
 20
18.5091124298
 10
0.3432073761
 20
18.5178968758
 10
0.3490448824
 20
18.5264773623
 10
0.3551097762
 20
18.5348305278
 10
0.3613855556
 20
18.5429336411
 10
0.3678551349
 20
18.5507646381
 10
0.3745009057
 20
18.5583022028
  0
LWPOLYLINE
  5
342
100
AcDbEntity
  8
0
100
AcDbPolyline
 62
7
  6
CONTINUOUS
 90
31
 70
0
 10
8.2152605427
 20
19.5512861666
 10
8.2235733423
 20
19.5604864449
 10
8.2313526688
 20
19.5703293188
 10
8.2385985224
 20
19.5808147882
 10
8.2453215127
 20
19.5919630645
 10
8.25151103
 20
19.6037539364
 10
8.2571352452
 20
19.6161267696
 10
8.2621912462
 20
19.6290845618
 10
8.2666819451
 20
19.6426243153
 10
8.2705842488
 20
19.6566764023
 10
8.2738951263
 20
19.671243462
 10
8.2766176085
 20
19.6863228552
 10
8.2787376954
 20
19.7018370367
 10
8.2802522838
 20
19.7177882462
 10
8.2811644768
 20
19.734174244
 10
8.2814695836
 20
19.7509107658
 10
8.2811644768
 20
19.7679996173
 10
8.2802522838
 20
19.7854389927
 10
8.2787376954
 20
19.8031392109
 10
8.2766176085
 20
19.8211016156
 10
8.2738951263
 20
19.8393248631
 10
8.2705842488
 20
19.8577152411
 10
8.2666819451
 20
19.8762736106
 10
8.2621912462
 20
19.8949991106
 10
8.2571352452
 20
19.9137954461
 10
8.25151103
 20
19.932662982
 10
8.2453215127
 20
19.9516013533
 10
8.2385985224
 20
19.9705131703
 10
8.2313526688
 20
19.9893659698
 10
8.2235733423
 20
20.008192215
 10
8.2152605427
 20
20.0269919059
  0
LWPOLYLINE
  5
343
100
AcDbEntity
  8
RACCORDO
100
AcDbPolyline
 62
253
  6
CONTINUOUS
 90
13
 70
0
 10
1.9093296508
 20
10.9087239047
 10
1.85908045
 20
10.8595247689
 10
1.8102214169
 20
10.8067341604
 10
1.7629635694
 20
10.7505790073
 10
1.7175478193
 20
10.6913054372
 10
1.6743011183
 20
10.6292966577
 10
1.6335448301
 20
10.5650138958
 10
1.5955187028
 20
10.4988305743
 10
1.5604480892
 20
10.4311300617
 10
1.5285814714
 20
10.3624240472
 10
1.5001170358
 20
10.293187728
 10
1.4751701513
 20
10.2237509543
 10
1.4538339562
 20
10.1544138914
  0
LINE
  5
344
100
AcDbEntity
  8
0
100
AcDbLine
 62
253
  6
CONTINUOUS
 10
8.1710522006
 20
13.8550692973
 11
13.3267204485
 21
17.8900891228
  0
LWPOLYLINE
  5
345
100
AcDbEntity
  8
RACCORDO
100
AcDbPolyline
 62
253
  6
CONTINUOUS
 90
10
 70
0
 10
5.5967199617
 20
13.1126992162
 10
5.6203290544
 20
13.1300811835
 10
5.643057586
 20
13.1514789444
 10
5.6642601261
 20
13.1762848871
 10
5.6833345759
 20
13.2037946168
 10
5.6997392542
 20
13.2332269403
 10
5.7130082869
 20
13.2637460456
 10
5.7227648523
 20
13.2944852635
 10
5.7287318768
 20
13.3245716816
 10
5.730739896
 20
13.3531509132
  0
LWPOLYLINE
  5
346
100
AcDbEntity
  8
0
100
AcDbPolyline
 62
253
  6
CONTINUOUS
 90
43
 70
0
 10
2.6621665604
 20
10.6876585562
 10
2.6389756432
 20
10.6726751554
 10
2.6158496456
 20
10.6568641087
 10
2.5928129142
 20
10.6402423537
 10
2.5698896109
 20
10.6228278981
 10
2.5471039545
 20
10.6046391774
 10
2.5244802027
 20
10.585694996
 10
2.5020419896
 20
10.5660154112
 10
2.4798131331
 20
10.5456215847
 10
2.4578178737
 20
10.5245351329
 10
2.4360794699
 20
10.5027786633
 10
2.4146206996
 20
10.4803753212
 10
2.3934646737
 20
10.4573486079
 10
2.3726336591
 20
10.4337230712
 10
2.3521495925
 20
10.4095239322
 10
2.3320345811
 20
10.3847766446
 10
2.3123097876
 20
10.3595075551
 10
2.2929959956
 20
10.3337436428
 10
2.2741141246
 20
10.3075121401
 10
2.2556840855
 20
10.2808410344
 10
2.2377252424
 20
10.2537587259
 10
2.2202569792
 20
10.2262937653
 10
2.2032976991
 20
10.1984754074
 10
2.1868652393
 20
10.1703332931
 10
2.1709773345
 20
10.141897108
 10
2.1556507078
 20
10.1131970915
 10
2.1409014979
 20
10.0842638474
 10
2.1267456739
 20
10.0551280227
 10
2.1131981669
 20
10.0258206643
 10
2.1002731982
 20
9.9963729407
 10
2.08798471
 20
9.9668159507
 10
2.0763456625
 20
9.9371811604
 10
2.0653682772
 20
9.9075000902
 10
2.0550643725
 20
9.8778040377
 10
2.045444778
 20
9.8481244562
 10
2.0365196517
 20
9.8184930526
 10
2.0282987125
 20
9.7889414716
 10
2.0207906761
 20
9.759501357
 10
2.0140033425
 20
9.7302037865
 10
2.0079439435
 20
9.7010793759
 10
2.0026189111
 20
9.6721589142
 10
1.9980338357
 20
9.6434733228
 10
1.9941935596
 20
9.615053094
  0
LWPOLYLINE
  5
347
100
AcDbEntity
  8
0
100
AcDbPolyline
 62
253
  6
CONTINUOUS
 90
43
 70
0
 10
3.0279993004
 20
10.0829977178
 10
3.0162910305
 20
10.0755548111
 10
3.0046377287
 20
10.0677139807
 10
2.993039395
 20
10.0594752267
 10
2.9814831579
 20
10.0508285455
 10
2.9699818889
 20
10.0417839407
 10
2.9585742027
 20
10.0323714222
 10
2.9472610369
 20
10.0225902067
 10
2.9360414539
 20
10.0124410775
 10
2.9249512561
 20
10.0019563956
 10
2.9139909053
 20
9.9911351287
 10
2.9031599398
 20
9.979978309
 10
2.8924927769
 20
9.9685213941
 10
2.881989929
 20
9.9567634241
 10
2.8716508837
 20
9.944705359
 10
2.8615085216
 20
9.9323855356
 10
2.8515634471
 20
9.9198030878
 10
2.8418150558
 20
9.9069588817
 10
2.832294415
 20
9.8938938523
 10
2.8230022702
 20
9.8806073176
 10
2.8139378759
 20
9.8670999596
 10
2.8051300631
 20
9.8534147586
 10
2.7965796536
 20
9.8395511565
 10
2.7882858257
 20
9.8255097114
 10
2.7802749445
 20
9.8113350774
 10
2.7725479027
 20
9.797026814
 10
2.7651038077
 20
9.7825853617
 10
2.7579663466
 20
9.7680566967
 10
2.7511365068
 20
9.7534405608
 10
2.7446133009
 20
9.7387372122
 10
2.7384174548
 20
9.7239934018
 10
2.7325500102
 20
9.709209013
 10
2.7270099254
 20
9.6943841623
 10
2.7218148012
 20
9.67956595
 10
2.7169657256
 20
9.6647543363
 10
2.7124616106
 20
9.649949361
 10
2.708316793
 20
9.6351982436
 10
2.7045322983
 20
9.6205001892
 10
2.7011071008
 20
9.6058559926
 10
2.6980524605
 20
9.5913152589
 10
2.6953721305
 20
9.5768945229
 10
2.6930623575
 20
9.5625772497
 10
2.6911231416
 20
9.5483634393
  0
LINE
  5
348
100
AcDbEntity
  8
RACCORDO
100
AcDbLine
 62
253
  6
CONTINUOUS
 10
6.2312594891
 20
13.1307766766
 11
7.1147027278
 21
13.6881157178
  0
LINE
  5
349
100
AcDbEntity
  8
0
100
AcDbLine
 62
253
  6
CONTINUOUS
 10
7.3265274239
 20
13.5658107931
 11
2.6621665604
 21
10.6876585562
  0
LINE
  5
34A
100
AcDbEntity
  8
0
100
AcDbLine
 62
253
  6
CONTINUOUS
 10
7.6798281245
 20
12.9534170373
 11
3.0279993004
 21
10.0829977178
  0
LINE
  5
34B
100
AcDbEntity
  8
0
100
AcDbLine
 62
253
  6
CONTINUOUS
 10
8.3816733148
 20
13.3601605601
 11
7.680737361
 21
12.9530730935
  0
LINE
  5
34C
100
AcDbEntity
  8
SMUSSO
100
AcDbLine
 62
7
  6
CONTINUOUS
 10
-10.9690731066
 20
-9.1948726083
 11
-12.0650169131
 21
-9.3606176572
  0
LWPOLYLINE
  5
34D
100
AcDbEntity
  8
0
100
AcDbPolyline
 62
253
  6
CONTINUOUS
 90
7
 70
0
 10
-14.625919919
 20
-5.9840802482
 10
-14.611783619
 20
-5.9853424945
 10
-14.5945333485
 20
-5.9884560123
 10
-14.5742820726
 20
-5.9935822212
 10
-14.5509025873
 20
-6.0009226082
 10
-14.5247098115
 20
-6.0105304581
 10
-14.4964793111
 20
-6.0223357612
  0
LINE
  5
34E
100
AcDbEntity
  8
0
100
AcDbLine
 62
253
  6
CONTINUOUS
 10
8.3992610658
 20
-13.4401456977
 11
8.6445418006
 21
-13.5817677199
  0
LINE
  5
34F
100
AcDbEntity
  8
0
100
AcDbLine
 62
253
  6
CONTINUOUS
 10
8.3992610658
 20
-12.9545523889
 11
8.8493334644
 21
-13.2144185511
  0
LINE
  5
350
100
AcDbEntity
  8
0
100
AcDbLine
 62
253
  6
CONTINUOUS
 10
8.3992610658
 20
-12.9247937489
 11
8.8493334644
 21
-13.1846599111
  0
LINE
  5
351
100
AcDbEntity
  8
0
100
AcDbLine
 62
253
  6
CONTINUOUS
 10
8.3992610658
 20
-12.8286026907
 11
8.8116394596
 21
-13.0667048069
  0
LINE
  5
352
100
AcDbEntity
  8
0
100
AcDbLine
 62
7
  6
CONTINUOUS
 10
13.6318960365
 20
-15.6294027643
 11
13.3267204485
 21
-15.4531982045
  0
LINE
  5
353
100
AcDbEntity
  8
0
100
AcDbLine
 62
7
  6
CONTINUOUS
 10
12.8433277123
 20
-14.4392700478
 11
9.6917499406
 21
-12.619588541
  0
LWPOLYLINE
  5
354
100
AcDbEntity
  8
SMUSSO
100
AcDbPolyline
 62
7
  6
CONTINUOUS
 90
4
 70
0
 10
-3.1960634442
 20
-15.1178316625
 10
-3.19411783
 20
-15.1405113793
 10
-3.2008603886
 20
-15.1715246739
 10
-3.2057427154
 20
-15.1796777228
  0
LINE
  5
355
100
AcDbEntity
  8
0
100
AcDbLine
 62
7
  6
CONTINUOUS
 10
-5.3303359542
 20
22.3841985462
 11
-5.3303359542
 21
21.6987561685
  0
LINE
  5
356
100
AcDbEntity
  8
RACCORDO
100
AcDbLine
 62
7
  6
CONTINUOUS
 10
-5.3303359542
 20
21.0371934437
 11
-5.3303359542
 21
21.6987561685
  0
LINE
  5
357
100
AcDbEntity
  8
0
100
AcDbLine
 62
253
  6
CONTINUOUS
 10
-4.8020687825
 20
22.6892137354
 11
-4.8020687825
 21
22.3615684349
  0
LINE
  5
358
100
AcDbEntity
  8
0
100
AcDbLine
 62
7
  6
CONTINUOUS
 10
-4.7298709255
 20
22.7906868485
 11
-4.7298709255
 21
22.463041548
  0
LINE
  5
359
100
AcDbEntity
  8
DRAFT
100
AcDbLine
 62
7
  6
CONTINUOUS
 10
-4.7292951902
 20
16.8523071364
 11
-4.7292951902
 21
17.6049405011
  0
LINE
  5
35A
100
AcDbEntity
  8
0
100
AcDbLine
 62
7
  6
CONTINUOUS
 10
-4.4049263983
 20
20.4138087356
 11
-4.4049263983
 21
19.0503973293
  0
LWPOLYLINE
  5
35B
100
AcDbEntity
  8
0
100
AcDbPolyline
 62
253
  6
CONTINUOUS
 90
3
 70
0
 10
-4.7298709255
 20
22.463041548
 10
-4.7299250187
 20
22.460038929
 10
-4.7304525569
 20
22.453200904
  0
LWPOLYLINE
  5
35C
100
AcDbEntity
  8
0
100
AcDbPolyline
 62
253
  6
CONTINUOUS
 90
18
 70
0
 10
-4.7298709255
 20
22.7906868485
 10
-4.7299256051
 20
22.7876680013
 10
-4.7304545781
 20
22.780829141
 10
-4.7315445165
 20
22.774012496
 10
-4.7331929636
 20
22.7672333785
 10
-4.7353962219
 20
22.7605069912
 10
-4.738149369
 20
22.7538484008
 10
-4.7414461993
 20
22.7472726477
 10
-4.7452792139
 20
22.7407946613
 10
-4.7496396999
 20
22.7344290901
 10
-4.7545178695
 20
22.7281901555
 10
-4.7599028296
 20
22.7220917672
 10
-4.7657833906
 20
22.7161467584
 10
-4.7721455525
 20
22.7103694305
 10
-4.7789719533
 20
22.7047751576
 10
-4.7862455744
 20
22.699377035
 10
-4.7939504624
 20
22.6941861041
 10
-4.8020687825
 20
22.6892137354
  0
LWPOLYLINE
  5
35D
100
AcDbEntity
  8
0
100
AcDbPolyline
 62
7
  6
CONTINUOUS
 90
25
 70
0
 10
2.9428133856
 20
16.5313194742
 10
2.9483913759
 20
16.5420668929
 10
2.9534984719
 20
16.5532768524
 10
2.9581346737
 20
16.5649493528
 10
2.962305134
 20
16.5771021612
 10
2.9660047001
 20
16.5897175105
 10
2.9692179137
 20
16.602742099
 10
2.9719427387
 20
16.6161776312
 10
2.9741812112
 20
16.6300224028
 10
2.9759239811
 20
16.6442179985
 10
2.9771689747
 20
16.6587658817
 10
2.9779182657
 20
16.6736645891
 10
2.9781687247
 20
16.6888513159
 10
2.9779182657
 20
16.7043272664
 10
2.9771689747
 20
16.7200912362
 10
2.9759239811
 20
16.7360768069
 10
2.9741812112
 20
16.7522849096
 10
2.9719427387
 20
16.768714613
 10
2.9692179137
 20
16.785296705
 10
2.9660047001
 20
16.802031832
 10
2.962305134
 20
16.8189193474
 10
2.9581346737
 20
16.8358880989
 10
2.9534984719
 20
16.8529143688
 10
2.9483913759
 20
16.8700218749
 10
2.9428133856
 20
16.8872106169
  0
LINE
  5
35E
100
AcDbEntity
  8
ASSI
100
AcDbLine
 62
7
  6
CONTINUOUS
 10
-12.1206585289
 20
-9.3892992552
 11
-12.8157320873
 21
-10.3525957506
  0
LINE
  5
35F
100
AcDbEntity
  8
0
100
AcDbLine
 62
7
  6
CONTINUOUS
 10
8.2174066846
 20
13.7997793411
 11
13.2866261406
 21
17.7864905947
  0
LINE
  5
360
100
AcDbEntity
  8
RACCORDO
100
AcDbLine
 62
7
  6
CONTINUOUS
 10
0.8512452551
 20
5.3513493073
 11
0.8410592742
 21
5.344015166
  0
LINE
  5
361
100
AcDbEntity
  8
RACCORDO
100
AcDbLine
 62
7
  6
CONTINUOUS
 10
0.8411355838
 20
5.3440582631
 11
0.8410435759
 21
5.3440023407
  0
LWPOLYLINE
  5
362
100
AcDbEntity
  8
RACCORDO
100
AcDbPolyline
 62
253
  6
CONTINUOUS
 90
9
 70
0
 10
0.8410435759
 20
5.3440023407
 10
0.8315125328
 20
5.338551844
 10
0.8090052042
 20
5.3281632897
 10
0.7862688301
 20
5.3208013953
 10
0.7634458182
 20
5.316179726
 10
0.7407796521
 20
5.3140635814
 10
0.7184528949
 20
5.3142081759
 10
0.6964630155
 20
5.316351982
 10
0.6749525968
 20
5.3202835798
  0
LINE
  5
363
100
AcDbEntity
  8
RACCORDO
100
AcDbLine
 62
253
  6
CONTINUOUS
 10
0.8456766476
 20
5.59547265
 11
0.9249913855
 21
5.6389111802
  0
LINE
  5
364
100
AcDbEntity
  8
RACCORDO
100
AcDbLine
 62
7
  6
CONTINUOUS
 10
0.7202361387
 20
5.3545881724
 11
0.9059110529
 21
5.4562772858
  0
LWPOLYLINE
  5
365
100
AcDbEntity
  8
RACCORDO
100
AcDbPolyline
 62
253
  6
CONTINUOUS
 90
7
 70
0
 10
0.6044445521
 20
5.410353192
 10
0.5924341429
 20
5.4041372104
 10
0.5801026691
 20
5.3989915981
 10
0.5674454514
 20
5.3949541508
 10
0.5544665357
 20
5.3919867722
 10
0.5413889591
 20
5.3900176386
 10
0.52820025
 20
5.3890803428
  0
LWPOLYLINE
  5
366
100
AcDbEntity
  8
RACCORDO
100
AcDbPolyline
 62
253
  6
CONTINUOUS
 90
10
 70
0
 10
0.8456765521
 20
5.5954727071
 10
0.8323417413
 20
5.5905120806
 10
0.8173388602
 20
5.5869331489
 10
0.8011137561
 20
5.5848422687
 10
0.7841485978
 20
5.5843015755
 10
0.7669475464
 20
5.5853271374
 10
0.7500217733
 20
5.5878884774
 10
0.7338742693
 20
5.5919094788
 10
0.718984897
 20
5.5972706479
 10
0.7057961305
 20
5.6038126644
  0
LINE
  5
367
100
AcDbEntity
  8
0
100
AcDbLine
 62
7
  6
CONTINUOUS
 10
8.9805690023
 20
-11.5410532187
 11
8.6296084237
 21
-11.3384129792
  0
LINE
  5
368
100
AcDbEntity
  8
0
100
AcDbLine
 62
7
  6
CONTINUOUS
 10
9.552553062
 20
-10.3991359945
 11
8.3992610658
 21
-9.7332396501
  0
LWPOLYLINE
  5
369
100
AcDbEntity
  8
0
100
AcDbPolyline
 62
253
  6
CONTINUOUS
 90
12
 70
0
 10
7.4940250368
 20
-23.4406780419
 10
7.4890001993
 20
-23.4309089254
 10
7.4836024855
 20
-23.421470255
 10
7.4778440777
 20
-23.4123833331
 10
7.4717379724
 20
-23.4036686684
 10
7.4652979506
 20
-23.3953459294
 10
7.4585385471
 20
-23.3874339
 10
7.4514750175
 20
-23.3799504372
 10
7.4441233037
 20
-23.3729124307
 10
7.4364999981
 20
-23.3663357649
 10
7.4286223061
 20
-23.360235283
 10
7.4205080072
 20
-23.3546247533
  0
LINE
  5
36A
100
AcDbEntity
  8
SMUSSO
100
AcDbLine
 62
7
  6
CONTINUOUS
 10
-3.384244946
 20
-14.025516703
 11
-3.1960634442
 21
-15.1178316625
  0
LWPOLYLINE
  5
36B
100
AcDbEntity
  8
0
100
AcDbPolyline
 62
253
  6
CONTINUOUS
 90
4
 70
0
 10
-9.0340596025
 20
22.1934644868
 10
-9.0352160987
 20
22.2002772077
 10
-9.0358118971
 20
22.2071139306
 10
-9.0359000798
 20
22.210947521
  0
LINE
  5
36C
100
AcDbEntity
  8
0
100
AcDbLine
 62
7
  6
CONTINUOUS
 10
0.2548484408
 20
-21.7846597229
 11
0.254874429
 21
-21.7849013489
  0
LWPOLYLINE
  5
36D
100
AcDbEntity
  8
0
100
AcDbPolyline
 62
253
  6
CONTINUOUS
 90
14
 70
0
 10
0.2989243993
 20
-21.4825012794
 10
0.2587232756
 20
-21.0707399195
 10
0.2216711128
 20
-20.6675882762
 10
0.1876516033
 20
-20.2736951508
 10
0.1564594798
 20
-19.8886615953
 10
0.1278267284
 20
-19.5110232056
 10
0.1015942109
 20
-19.1403900789
 10
0.0776764746
 20
-18.7773385652
 10
0.0559454887
 20
-18.4218313315
 10
0.036423046
 20
-18.0764948927
 10
0.0188362857
 20
-17.7388845542
 10
0.0027198786
 20
-17.4012866146
 10
-0.0120449787
 20
-17.0611116473
 10
-0.0253403921
 20
-16.7209653232
  0
LINE
  5
36E
100
AcDbEntity
  8
0
100
AcDbLine
 62
7
  6
CONTINUOUS
 10
-3.7393456966
 20
18.6660993738
 11
-3.7393456966
 21
20.0295107801
  0
LINE
  5
36F
100
AcDbEntity
  8
0
100
AcDbLine
 62
7
  6
CONTINUOUS
 10
-3.0322389154
 20
20.2801886567
 11
-3.0322389154
 21
19.1171633612
  0
LWPOLYLINE
  5
370
100
AcDbEntity
  8
0
100
AcDbPolyline
 62
253
  6
CONTINUOUS
 90
31
 70
0
 10
-1.4058933187
 20
19.341157092
 10
-1.4057008584
 20
19.3497845089
 10
-1.4051239998
 20
19.3586107119
 10
-1.4041643103
 20
19.367611679
 10
-1.402824398
 20
19.3767629217
 10
-1.4011079081
 20
19.3860395235
 10
-1.3990195171
 20
19.395416207
 10
-1.3965649122
 20
19.4048674426
 10
-1.3937507739
 20
19.4143675127
 10
-1.3905847651
 20
19.4238905523
 10
-1.3870755049
 20
19.4334106416
 10
-1.3832325463
 20
19.4429018684
 10
-1.3790663547
 20
19.4523383912
 10
-1.3745882686
 20
19.4616945327
 10
-1.3698104816
 20
19.4709448216
 10
-1.3647460153
 20
19.4800640547
 10
-1.3594086798
 20
19.4890273796
 10
-1.3538129867
 20
19.4978104393
 10
-1.3479741183
 20
19.5063894057
 10
-1.3419078824
 20
19.5147410362
 10
-1.3356308632
 20
19.5228424826
 10
-1.3291603462
 20
19.5306714545
 10
-1.3225140893
 20
19.5382065229
 10
-1.315710068
 20
19.5454273637
 10
-1.3087666142
 20
19.5523145419
 10
-1.3017011551
 20
19.5588506251
 10
-1.294534343
 20
19.5650163648
 10
-1.2872899877
 20
19.5707916813
 10
-1.2799893583
 20
19.5761605519
 10
-1.2726509483
 20
19.5811103012
 10
-1.2652947139
 20
19.5856282562
  0
LWPOLYLINE
  5
371
100
AcDbEntity
  8
0
100
AcDbPolyline
 62
7
  6
CONTINUOUS
 90
31
 70
0
 10
-3.0322389154
 20
20.2801886567
 10
-3.0320421855
 20
20.2888550109
 10
-3.0314660956
 20
20.2976712624
 10
-3.0305106459
 20
20.3066374112
 10
-3.0291711876
 20
20.3157785936
 10
-3.0274523695
 20
20.3250696734
 10
-3.025368137
 20
20.3344352414
 10
-3.0229154923
 20
20.3438759758
 10
-3.0200974332
 20
20.3533911984
 10
-3.0169368988
 20
20.3629034666
 10
-3.013431149
 20
20.3724126348
 10
-3.0095829239
 20
20.3819188484
 10
-3.0054233829
 20
20.3913451011
 10
-3.0009499338
 20
20.4006908747
 10
-2.9961651687
 20
20.4099566872
 10
-2.9911080239
 20
20.4190670859
 10
-2.9857762616
 20
20.4280207939
 10
-2.9801721196
 20
20.4368190882
 10
-2.9743412467
 20
20.445390346
 10
-2.968281883
 20
20.453732602
 10
-2.9619957885
 20
20.4618478215
 10
-2.9555338915
 20
20.4696702778
 10
-2.9488946799
 20
20.47719769
 10
-2.9420796659
 20
20.484432339
 10
-2.9351443141
 20
20.4913153403
 10
-2.928087695
 20
20.4978437751
 10
-2.9209107381
 20
20.5040205622
 10
-2.9136716959
 20
20.5097955731
 10
-2.9063899861
 20
20.5151520985
 10
-2.899046191
 20
20.5201068477
 10
-2.8916403106
 20
20.5246598209
  0
LWPOLYLINE
  5
372
100
AcDbEntity
  8
0
100
AcDbPolyline
 62
253
  6
CONTINUOUS
 90
10
 70
0
 10
-3.2630858163
 20
-11.5323405762
 10
-3.2689531343
 20
-11.6041524491
 10
-3.2699127914
 20
-11.6726397789
 10
-3.2659647878
 20
-11.7378025655
 10
-3.2569960093
 20
-11.8001208497
 10
-3.24311957
 20
-11.8591145908
 10
-3.2246748121
 20
-11.9133436668
 10
-3.2017748495
 20
-11.962328037
 10
-3.1743065683
 20
-12.0065477421
 10
-3.1422699684
 20
-12.0460027822
  0
LWPOLYLINE
  5
373
100
AcDbEntity
  8
0
100
AcDbPolyline
 62
253
  6
CONTINUOUS
 90
10
 70
0
 10
-3.9666611136
 20
-11.4727457164
 10
-3.9754802184
 20
-11.5796750571
 10
-3.9769046321
 20
-11.6828294364
 10
-3.9709244072
 20
-11.7814884786
 10
-3.9575813064
 20
-11.8749632015
 10
-3.9369685108
 20
-11.9626008267
 10
-3.9092299695
 20
-12.0437893392
 10
-3.8745593937
 20
-12.1179617613
 10
-3.8331989045
 20
-12.1846001123
 10
-3.7854373416
 20
-12.2432390252
  0
LWPOLYLINE
  5
374
100
AcDbEntity
  8
0
100
AcDbPolyline
 62
253
  6
CONTINUOUS
 90
10
 70
0
 10
0.2928855272
 20
18.3877017967
 10
0.2942225624
 20
18.3968476988
 10
0.2959369449
 20
18.4061244737
 10
0.2980233295
 20
18.4155015061
 10
0.3004754932
 20
18.4249513147
 10
0.3032871545
 20
18.4344501073
 10
0.3064507555
 20
18.4439723019
 10
0.3099577876
 20
18.4534921724
 10
0.3137986754
 20
18.4629836212
 10
0.3179628587
 20
18.4724205206
  0
LWPOLYLINE
  5
375
100
AcDbEntity
  8
ASSI
100
AcDbPolyline
 62
7
  6
CONTINUOUS
 90
9
 70
0
 10
-8.360790156
 20
-12.9248477689
 10
-8.3703864994
 20
-12.9462593762
 10
-8.3710221053
 20
-12.9842389705
 10
-8.3569121014
 20
-13.0324188278
 10
-8.3283367127
 20
-13.0906051027
 10
-8.2858459536
 20
-13.1576778355
 10
-8.2296231622
 20
-13.2332637063
 10
-8.1594850004
 20
-13.3177360351
 10
-8.0754314681
 20
-13.4110948218
  0
LWPOLYLINE
  5
376
100
AcDbEntity
  8
ASSI
100
AcDbPolyline
 62
7
  6
CONTINUOUS
 90
9
 70
0
 10
-8.3557582052
 20
-13.5707221999
 10
-8.3461618618
 20
-13.5493105927
 10
-8.3455262559
 20
-13.5113309984
 10
-8.3596362598
 20
-13.463151141
 10
-8.3882116485
 20
-13.4049648662
 10
-8.4307024076
 20
-13.3378921334
 10
-8.486925199
 20
-13.2623062625
 10
-8.5570633608
 20
-13.1778339338
 10
-8.6411168931
 20
-13.0844751471
  0
LWPOLYLINE
  5
377
100
AcDbEntity
  8
RACCORDO
100
AcDbPolyline
 62
253
  6
CONTINUOUS
 90
13
 70
0
 10
1.4387561418
 20
10.5207954321
 10
1.4177748414
 20
10.4780281442
 10
1.3985956586
 20
10.4362093579
 10
1.3812185933
 20
10.3953390731
 10
1.3657133797
 20
10.3553061956
 10
1.3520102837
 20
10.3162218197
 10
1.3399001026
 20
10.2784192278
 10
1.3293940801
 20
10.2418268753
 10
1.3204809726
 20
10.2065163068
 10
1.3129178469
 20
10.173035439
 10
1.3066237253
 20
10.1415669105
 10
1.3016795856
 20
10.1119280826
 10
1.2980854277
 20
10.0841189553
  0
LWPOLYLINE
  5
378
100
AcDbEntity
  8
0
100
AcDbPolyline
 62
253
  6
CONTINUOUS
 90
10
 70
0
 10
-11.1108740297
 20
-15.8018939524
 10
-11.1233906345
 20
-15.8271665934
 10
-11.1343779647
 20
-15.8528384957
 10
-11.1437381315
 20
-15.8786809415
 10
-11.1513877426
 20
-15.9044636936
 10
-11.1572586456
 20
-15.9299570467
 10
-11.1612985351
 20
-15.9549338738
 10
-11.1634714186
 20
-15.9791716497
 10
-11.1637579374
 20
-16.0024544337
 10
-11.1621555388
 20
-16.0245747933
  0
LWPOLYLINE
  5
379
100
AcDbEntity
  8
RACCORDO
100
AcDbPolyline
 62
253
  6
CONTINUOUS
 90
16
 70
0
 10
1.3133389242
 20
10.5796986921
 10
1.2951175813
 20
10.5431351224
 10
1.2780792351
 20
10.5067605114
 10
1.2622146408
 20
10.4706443283
 10
1.2474798507
 20
10.4347706443
 10
1.2338955018
 20
10.3992808385
 10
1.221525586
 20
10.3644749679
 10
1.2103304277
 20
10.3304027269
 10
1.2002680898
 20
10.297110987
 10
1.1913571018
 20
10.2648855235
 10
1.1835362093
 20
10.2337670778
 10
1.1767368859
 20
10.2037675057
 10
1.1709304631
 20
10.1751132341
 10
1.1660475119
 20
10.1478796444
 10
1.1619959659
 20
10.1219960369
 10
1.1586995113
 20
10.0974568863
  0
LINE
  5
37A
100
AcDbEntity
  8
0
100
AcDbLine
 62
253
  6
CONTINUOUS
 10
-11.3969449036
 20
-14.8530324074
 11
-10.242523217
 21
-12.6742947882
  0
LINE
  5
37B
100
AcDbEntity
  8
0
100
AcDbLine
 62
253
  6
CONTINUOUS
 10
-11.1108740297
 20
-15.8018939524
 11
-9.6523237594
 21
-13.0491750973
  0
LWPOLYLINE
  5
37C
100
AcDbEntity
  8
0
100
AcDbPolyline
 62
7
  6
CONTINUOUS
 90
9
 70
0
 10
-11.5992310853
 20
-11.2303708695
 10
-11.6004169369
 20
-11.2321466839
 10
-11.6046134533
 20
-11.2481019222
 10
-11.6009191515
 20
-11.2695834519
 10
-11.589509299
 20
-11.2964685252
 10
-11.5706411354
 20
-11.3281510076
 10
-11.5444004073
 20
-11.364428854
 10
-11.5107013681
 20
-11.4055041094
 10
-11.4695440178
 20
-11.4513767738
  0
LWPOLYLINE
  5
37D
100
AcDbEntity
  8
RACCORDO
100
AcDbPolyline
 62
253
  6
CONTINUOUS
 90
7
 70
0
 10
0.6642323897
 20
5.4684882063
 10
0.6559487142
 20
5.4565483268
 10
0.6469682206
 20
5.4454596547
 10
0.6372617615
 20
5.435262061
 10
0.6268580489
 20
5.4259154694
 10
0.6159238996
 20
5.4175975057
 10
0.6044445521
 20
5.410353192
  0
LINE
  5
37E
100
AcDbEntity
  8
0
100
AcDbLine
 62
7
  6
CONTINUOUS
 10
7.5374553168
 20
15.2292719483
 11
7.5193289263
 21
15.2032968231
  0
LINE
  5
37F
100
AcDbEntity
  8
ASSI
100
AcDbLine
 62
7
  6
CONTINUOUS
 10
-10.4119947905
 20
-8.3884801016
 11
-10.9968884851
 21
-9.1990792667
  0
LINE
  5
380
100
AcDbEntity
  8
0
100
AcDbLine
 62
253
  6
CONTINUOUS
 10
7.5193289263
 20
15.2032968231
 11
7.5192892107
 21
15.2032467063
  0
LINE
  5
381
100
AcDbEntity
  8
0
100
AcDbLine
 62
253
  6
CONTINUOUS
 10
6.9733220384
 20
14.5947782446
 11
7.5015892102
 21
15.257590511
  0
LINE
  5
382
100
AcDbEntity
  8
0
100
AcDbLine
 62
7
  6
CONTINUOUS
 10
6.9733220384
 20
14.5182264018
 11
7.5192892107
 21
15.2032467063
  0
LINE
  5
383
100
AcDbEntity
  8
0
100
AcDbLine
 62
7
  6
CONTINUOUS
 10
8.3992610658
 20
-8.6083085647
 11
7.7092549734
 21
-8.2099076948
  0
LINE
  5
384
100
AcDbEntity
  8
0
100
AcDbLine
 62
7
  6
CONTINUOUS
 10
8.3992610658
 20
-12.6211616232
 11
8.8116394596
 21
-13.0667048069
  0
LWPOLYLINE
  5
385
100
AcDbEntity
  8
0
100
AcDbPolyline
 62
253
  6
CONTINUOUS
 90
7
 70
0
 10
0.254874429
 20
-21.7849013489
 10
0.25684541
 20
-21.7972094836
 10
0.264603637
 20
-21.8214221262
 10
0.2772991387
 20
-21.8444618749
 10
0.2947146915
 20
-21.865934513
 10
0.3165523106
 20
-21.8854726377
 10
0.3424383484
 20
-21.9027419463
  0
LWPOLYLINE
  5
386
100
AcDbEntity
  8
0
100
AcDbPolyline
 62
253
  6
CONTINUOUS
 90
21
 70
0
 10
1.9941935596
 20
-25.0207876679
 10
1.998033767
 20
-25.0448497691
 10
2.0026187883
 20
-25.0683320247
 10
2.007943799
 20
-25.0912095205
 10
2.0140032585
 20
-25.1134580278
 10
2.020790727
 20
-25.1350539107
 10
2.0282988712
 20
-25.1559741519
 10
2.0365198035
 20
-25.1761965754
 10
2.0454448542
 20
-25.195699748
 10
2.0550643933
 20
-25.2144628819
 10
2.0653683219
 20
-25.23246612
 10
2.0763457713
 20
-25.249690373
 10
2.0879848785
 20
-25.2661172194
 10
2.1002734035
 20
-25.2817292771
 10
2.1131983989
 20
-25.2965100274
 10
2.1267459144
 20
-25.3104436454
 10
2.1409017132
 20
-25.3235154159
 10
2.1556508732
 20
-25.3357115127
 10
2.1709774582
 20
-25.3470188191
 10
2.1868653471
 20
-25.3574254119
 10
2.1943698628
 20
-25.3619140048
  0
LWPOLYLINE
  5
387
100
AcDbEntity
  8
0
100
AcDbPolyline
 62
253
  6
CONTINUOUS
 90
8
 70
0
 10
1.5248025385
 20
-20.8339221222
 10
1.5772107021
 20
-21.4420828706
 10
1.6345092934
 20
-22.0469739479
 10
1.6966940233
 20
-22.6485495202
 10
1.7637600204
 20
-23.2467639067
 10
1.8357022066
 20
-23.8415717312
 10
1.9125152955
 20
-24.4329279266
 10
1.9941935596
 20
-25.0207876679
  0
LWPOLYLINE
  5
388
100
AcDbEntity
  8
0
100
AcDbPolyline
 62
7
  6
CONTINUOUS
 90
9
 70
0
 10
0.254874429
 20
-21.7849013489
 10
0.2592013001
 20
-21.8414709793
 10
0.2598983943
 20
-21.8885700771
 10
0.2578978721
 20
-21.9288696475
 10
0.25387105
 20
-21.9623884385
 10
0.2485927732
 20
-21.9889203193
 10
0.2429752647
 20
-22.0083919106
 10
0.2379636335
 20
-22.021144048
 10
0.2362002344
 20
-22.0247642771
  0
LWPOLYLINE
  5
389
100
AcDbEntity
  8
0
100
AcDbPolyline
 62
253
  6
CONTINUOUS
 90
10
 70
0
 10
-0.0371778103
 20
-16.3808626565
 10
-0.0381095061
 20
-16.3658228688
 10
-0.0398986499
 20
-16.3513782473
 10
-0.0425380197
 20
-16.3375875209
 10
-0.0460169317
 20
-16.3245068137
 10
-0.0503212923
 20
-16.3121892699
 10
-0.0554336892
 20
-16.3006848705
 10
-0.0613334318
 20
-16.2900404124
 10
-0.0679966004
 20
-16.280299285
 10
-0.0753961765
 20
-16.2715011693
  0
LWPOLYLINE
  5
38A
100
AcDbEntity
  8
0
100
AcDbPolyline
 62
253
  6
CONTINUOUS
 90
10
 70
0
 10
0.0688882095
 20
-16.442103847
 10
0.0679572884
 20
-16.4270617207
 10
0.0661684345
 20
-16.4126155596
 10
0.0635289999
 20
-16.3988240262
 10
0.0600498055
 20
-16.3857431551
 10
0.0557450626
 20
-16.3734259946
 10
0.0506322878
 20
-16.3619224171
 10
0.0447322886
 20
-16.3512790837
 10
0.0380691055
 20
-16.3415392286
 10
0.0306698618
 20
-16.3327423705
  0
LWPOLYLINE
  5
38B
100
AcDbEntity
  8
0
100
AcDbPolyline
 62
7
  6
CONTINUOUS
 90
10
 70
0
 10
-0.1179991693
 20
-16.4661993154
 10
-0.1021001547
 20
-16.8856329464
 10
-0.0743444495
 20
-17.5090536178
 10
-0.0417656711
 20
-18.1294125279
 10
-0.0043659024
 20
-18.7466631524
 10
0.0378523892
 20
-19.3607586943
 10
0.0848863352
 20
-19.9716521233
 10
0.1367327334
 20
-20.5792971541
 10
0.1933880655
 20
-21.1836482132
 10
0.2548484408
 20
-21.7846597229
  0
LINE
  5
38C
100
AcDbEntity
  8
0
100
AcDbLine
 62
253
  6
CONTINUOUS
 10
-0.0253403921
 20
-16.7209653232
 11
-0.0371778077
 21
-16.380862658
  0
LWPOLYLINE
  5
38D
100
AcDbEntity
  8
0
100
AcDbPolyline
 62
253
  6
CONTINUOUS
 90
16
 70
0
 10
-0.1180022397
 20
-16.4661120037
 10
-0.1182164157
 20
-16.4534252939
 10
-0.1177800681
 20
-16.4383884384
 10
-0.1165332991
 20
-16.4247347903
 10
-0.1144631161
 20
-16.4124004503
 10
-0.1115624207
 20
-16.4014031414
 10
-0.1078096694
 20
-16.3919622106
 10
-0.103184064
 20
-16.3840528733
 10
-0.0976905164
 20
-16.3776467248
 10
-0.0913597088
 20
-16.3729596655
 10
-0.0842092922
 20
-16.3700248139
 10
-0.0762525871
 20
-16.368762329
 10
-0.0675387675
 20
-16.3692258145
 10
-0.0581067328
 20
-16.3714218772
 10
-0.0479762024
 20
-16.3753067288
 10
-0.0371778077
 20
-16.380862658
  0
LWPOLYLINE
  5
38E
100
AcDbEntity
  8
0
100
AcDbPolyline
 62
253
  6
CONTINUOUS
 90
10
 70
0
 10
0.1806584294
 20
-15.6069946711
 10
0.1546928335
 20
-13.8872906186
 10
0.1365348053
 20
-12.3025991969
 10
0.123772617
 20
-10.7147313583
 10
0.1164062369
 20
-9.1236516384
 10
0.1144356966
 20
-7.5293955017
 10
0.1178610917
 20
-5.9320693411
 10
0.126682454
 20
-4.331708621
 10
0.1408997516
 20
-2.728277877
 10
0.1605129846
 20
-1.1217771092
  0
LINE
  5
38F
100
AcDbEntity
  8
0
100
AcDbLine
 62
253
  6
CONTINUOUS
 10
-1.4058933187
 20
18.1781317965
 11
-1.4058933187
 21
19.341157092
  0
LINE
  5
390
100
AcDbEntity
  8
0
100
AcDbLine
 62
253
  6
CONTINUOUS
 10
-1.1230506062
 20
18.1866896753
 11
-1.1230506062
 21
19.341157092
  0
LINE
  5
391
100
AcDbEntity
  8
0
100
AcDbLine
 62
7
  6
CONTINUOUS
 10
-0.2038117906
 20
18.7260083975
 11
-0.2038117906
 21
19.8685890038
  0
LINE
  5
392
100
AcDbEntity
  8
0
100
AcDbLine
 62
7
  6
CONTINUOUS
 10
0.2325843124
 20
18.4429529867
 11
0.2325843124
 21
17.2824342359
  0
LWPOLYLINE
  5
393
100
AcDbEntity
  8
0
100
AcDbPolyline
 62
253
  6
CONTINUOUS
 90
4
 70
0
 10
0.2911629562
 20
18.3612980681
 10
0.2913544728
 20
18.3699040518
 10
0.2919289566
 20
18.3787131471
 10
0.2928855272
 20
18.3877017967
  0
LWPOLYLINE
  5
394
100
AcDbEntity
  8
0
100
AcDbPolyline
 62
253
  6
CONTINUOUS
 90
10
 70
0
 10
0.0335958488
 20
0.1771514541
 10
0.0325070947
 20
0.1558647758
 10
0.029911882
 20
0.1338881574
 10
0.0258287389
 20
0.1113784984
 10
0.0202868164
 20
0.0884965037
 10
0.0133256806
 20
0.0654055367
 10
0.0049950296
 20
0.0422704525
 10
-0.004645661
 20
0.0192564214
 10
-0.0155275625
 20
-0.0034722507
 10
-0.0275729849
 20
-0.0257532953
  0
LWPOLYLINE
  5
395
100
AcDbEntity
  8
0
100
AcDbPolyline
 62
7
  6
CONTINUOUS
 90
9
 70
0
 10
0.2325843124
 20
18.4429529867
 10
0.2342053869
 20
18.4683605838
 10
0.2391319371
 20
18.4937074114
 10
0.2473867973
 20
18.5184637832
 10
0.2589005771
 20
18.5421192513
 10
0.2734724476
 20
18.5641280941
 10
0.2908004384
 20
18.5840108935
 10
0.3107346343
 20
18.6015487745
 10
0.3317404305
 20
18.6156680963
  0
LWPOLYLINE
  5
396
100
AcDbEntity
  8
RACCORDO
100
AcDbPolyline
 62
253
  6
CONTINUOUS
 90
11
 70
0
 10
0.7057961289
 20
5.6038126637
 10
0.7046621307
 20
5.5905851473
 10
0.7028960264
 20
5.5771599903
 10
0.7004980592
 20
5.563537308
 10
0.6975097688
 20
5.5495941655
 10
0.6938901621
 20
5.5354537566
 10
0.6895155536
 20
5.5214853286
 10
0.684352175
 20
5.507684824
 10
0.6784340673
 20
5.4940564306
 10
0.6717389312
 20
5.4809816097
 10
0.6642323897
 20
5.4684882063
  0
LWPOLYLINE
  5
397
100
AcDbEntity
  8
RACCORDO
100
AcDbPolyline
 62
253
  6
CONTINUOUS
 90
9
 70
0
 10
1.4125847286
 20
9.9508667437
 10
1.3535561365
 20
9.4452915815
 10
1.2971201096
 20
8.9408484729
 10
1.2432787005
 20
8.4375583576
 10
1.1920353695
 20
7.9354569845
 10
1.1433902714
 20
7.434550259
 10
1.0973410393
 20
6.934814586
 10
1.053888705
 20
6.4362562547
 10
1.0130369139
 20
5.938911095
  0
LWPOLYLINE
  5
398
100
AcDbEntity
  8
RACCORDO
100
AcDbPolyline
 62
7
  6
CONTINUOUS
 90
10
 70
0
 10
1.3538303551
 20
10.0309272081
 10
1.3023828369
 20
9.5914608569
 10
1.243673748
 20
9.0692547345
 10
1.1877408323
 20
8.5482486051
 10
1.134587109
 20
8.0284689516
 10
1.0842148694
 20
7.5099377744
 10
1.0366261711
 20
6.9926753057
 10
0.9918231728
 20
6.4767032959
 10
0.949808148
 20
5.9620476944
 10
0.9161717279
 20
5.5240713247
  0
LWPOLYLINE
  5
399
100
AcDbEntity
  8
RACCORDO
100
AcDbPolyline
 62
253
  6
CONTINUOUS
 90
10
 70
0
 10
1.1586995113
 20
10.0974568863
 10
1.0976555928
 20
9.5937524747
 10
1.0392867769
 20
9.0911018837
 10
0.9835954574
 20
8.5895261183
 10
0.930583882
 20
8.0890461578
 10
0.8802542607
 20
7.5896828934
 10
0.8326087653
 20
7.0914571273
 10
0.7876493855
 20
6.5943896542
 10
0.745377929
 20
6.0985012611
 10
0.7057961289
 20
5.6038126637
  0
LWPOLYLINE
  5
39A
100
AcDbEntity
  8
RACCORDO
100
AcDbPolyline
 62
253
  6
CONTINUOUS
 90
9
 70
0
 10
1.2980854277
 20
10.0841189553
 10
1.2371046385
 20
9.5809425458
 10
1.1788004902
 20
9.0788592733
 10
1.1231729829
 20
8.5778691376
 10
1.0702199222
 20
8.0779503445
 10
1.0199435025
 20
7.5791246882
 10
0.9723503069
 20
7.0814575523
 10
0.9274425297
 20
6.5849707312
 10
0.8852179766
 20
6.0896424304
  0
LWPOLYLINE
  5
39B
100
AcDbEntity
  8
RACCORDO
100
AcDbPolyline
 62
253
  6
CONTINUOUS
 90
8
 70
0
 10
0.4370033571
 20
5.1298226013
 10
0.4408323947
 20
5.1584605067
 10
0.4483527133
 20
5.1881509235
 10
0.459361833
 20
5.2180944556
 10
0.4735633399
 20
5.2474848918
 10
0.4905748674
 20
5.2755309127
 10
0.5099383903
 20
5.3014773965
 10
0.5311325579
 20
5.3246257501
  0
LINE
  5
39C
100
AcDbEntity
  8
RACCORDO
100
AcDbLine
 62
253
  6
CONTINUOUS
 10
1.4224453572
 20
10.0175626081
 11
1.4125847286
 21
9.9508667437
  0
LWPOLYLINE
  5
39D
100
AcDbEntity
  8
RACCORDO
100
AcDbPolyline
 62
253
  6
CONTINUOUS
 90
3
 70
0
 10
1.4538339562
 20
10.1544138914
 10
1.4362210976
 20
10.0855416304
 10
1.4224453572
 20
10.0175626081
  0
LWPOLYLINE
  5
39E
100
AcDbEntity
  8
0
100
AcDbPolyline
 62
253
  6
CONTINUOUS
 90
27
 70
0
 10
5.3720412476
 20
14.0351420232
 10
5.3676207221
 20
14.0244526541
 10
5.3628135268
 20
14.0140191094
 10
5.3576305112
 20
14.003864937
 10
5.3520833731
 20
13.9940130544
 10
5.3461846321
 20
13.9844856967
 10
5.3399476013
 20
13.9753043665
 10
5.3333863572
 20
13.9664897855
 10
5.3265157083
 20
13.9580618478
 10
5.3193511611
 20
13.9500395747
 10
5.3119088857
 20
13.942441072
 10
5.3042056788
 20
13.9352834891
 10
5.296258926
 20
13.9285829802
 10
5.2880865629
 20
13.922354668
 10
5.2797070338
 20
13.9166126093
 10
5.2711392508
 20
13.9113697638
 10
5.2624025511
 20
13.9066379641
 10
5.2535166527
 20
13.9024278897
 10
5.2445016107
 20
13.8987490425
 10
5.2353777714
 20
13.8956097253
 10
5.2261657268
 20
13.8930170236
 10
5.216886268
 20
13.8909767887
 10
5.2075603381
 20
13.8894936255
 10
5.1982089852
 20
13.8885708813
 10
5.1888533148
 20
13.8882106387
 10
5.179514442
 20
13.8884137108
 10
5.1733726728
 20
13.8888559269
  0
LWPOLYLINE
  5
39F
100
AcDbEntity
  8
RACCORDO
100
AcDbPolyline
 62
253
  6
CONTINUOUS
 90
19
 70
0
 10
0.9424877872
 20
5.2859958367
 10
0.9238662589
 20
5.242448271
 10
0.9015553102
 20
5.2033632451
 10
0.8770127738
 20
5.1693683325
 10
0.8502616904
 20
5.1408704085
 10
0.8212681996
 20
5.1174574738
 10
0.7914029035
 20
5.0985278862
 10
0.7608045896
 20
5.0842188899
 10
0.7293261934
 20
5.0743892961
 10
0.6979104122
 20
5.0680202246
 10
0.6666953651
 20
5.0650965334
 10
0.6355381225
 20
5.0656310627
 10
0.6049611133
 20
5.0686475277
 10
0.5750518723
 20
5.074082024
 10
0.5457206199
 20
5.0819973792
 10
0.5172247038
 20
5.0916078329
 10
0.4896497231
 20
5.1026513769
 10
0.4629093334
 20
5.1153896615
 10
0.4370033571
 20
5.1298226013
  0
LWPOLYLINE
  5
3A0
100
AcDbEntity
  8
RACCORDO
100
AcDbPolyline
 62
253
  6
CONTINUOUS
 90
10
 70
0
 10
0.8136645626
 20
5.4596546486
 10
0.8055888061
 20
5.4434784904
 10
0.7965359749
 20
5.4280027981
 10
0.7864835879
 20
5.4133134364
 10
0.7755358586
 20
5.3996344677
 10
0.7637082761
 20
5.3870284862
 10
0.7510120246
 20
5.3755484088
 10
0.7375960278
 20
5.3653386117
 10
0.7235116469
 20
5.3564242864
 10
0.7204438159
 20
5.3547020795
  0
LWPOLYLINE
  5
3A1
100
AcDbEntity
  8
0
100
AcDbPolyline
 62
253
  6
CONTINUOUS
 90
37
 70
0
 10
-0.0275729849
 20
-0.0257532953
 10
-0.2109270652
 20
-0.3500038441
 10
-0.3884892693
 20
-0.6719980881
 10
-0.5603329875
 20
-0.9915601709
 10
-0.7262602192
 20
-1.3079909804
 10
-0.8866387775
 20
-1.6216587709
 10
-1.0423445338
 20
-1.9340214079
 10
-1.1935698321
 20
-2.2452804631
 10
-1.3401888568
 20
-2.554990072
 10
-1.4825318563
 20
-2.8636700246
 10
-1.6206111925
 20
-3.1711907488
 10
-1.7544615482
 20
-3.4774703342
 10
-1.8844060272
 20
-3.7831157051
 10
-2.0104396413
 20
-4.0880084474
 10
-2.1325794883
 20
-4.3920808516
 10
-2.2511350281
 20
-4.6960267523
 10
-2.3660801429
 20
-4.9997344283
 10
-2.4774096178
 20
-5.3031440868
 10
-2.585410682
 20
-5.6070329659
 10
-2.6900241947
 20
-5.9112685051
 10
-2.7912257463
 20
-6.2158147379
 10
-2.8892911224
 20
-6.5215930949
 10
-2.984149281
 20
-6.8285329769
 10
-3.0757179837
 20
-7.1365257212
 10
-3.1641863751
 20
-7.4464277809
 10
-3.2494190858
 20
-7.7580499684
 10
-3.3313298201
 20
-8.0713769431
 10
-3.4100994167
 20
-8.3875087504
 10
-3.4853874554
 20
-8.7055442549
 10
-3.5572314292
 20
-9.0261377239
 10
-3.6261871695
 20
-9.3526712408
 10
-3.6918671178
 20
-9.6845788531
 10
-3.7540335755
 20
-10.0220476926
 10
-3.8131078951
 20
-10.3694705708
 10
-3.8687616409
 20
-10.7280672901
 10
-3.9201447109
 20
-11.0959515988
 10
-3.9666611136
 20
-11.4727457164
  0
LWPOLYLINE
  5
3A2
100
AcDbEntity
  8
0
100
AcDbPolyline
 62
7
  6
CONTINUOUS
 90
9
 70
0
 10
-9.5720899974
 20
-12.6930691614
 10
-9.5709041458
 20
-12.691293347
 10
-9.5667076294
 20
-12.6753381086
 10
-9.5704019312
 20
-12.653856579
 10
-9.5818117837
 20
-12.6269715057
 10
-9.6006799473
 20
-12.5952890233
 10
-9.6269206754
 20
-12.5590111769
 10
-9.6606197146
 20
-12.5179359215
 10
-9.7017770649
 20
-12.4720632571
  0
LWPOLYLINE
  5
3A3
100
AcDbEntity
  8
SMUSSO
100
AcDbPolyline
 62
7
  6
CONTINUOUS
 90
4
 70
0
 10
-12.1206585289
 20
-9.3892992552
 10
-12.1062994081
 20
-9.3753923694
 10
-12.0746667033
 20
-9.3624091763
 10
-12.0650169131
 20
-9.3606176572
  0
LWPOLYLINE
  5
3A4
100
AcDbEntity
  8
0
100
AcDbPolyline
 62
253
  6
CONTINUOUS
 90
13
 70
0
 10
0.5847493937
 20
-1.1257484179
 10
0.5552460285
 20
-1.1107751394
 10
0.5226183092
 20
-1.0980858148
 10
0.4874245047
 20
-1.087897562
 10
0.4502667904
 20
-1.080384705
 10
0.4117809449
 20
-1.0756757911
 10
0.3726254723
 20
-1.0738513916
 10
0.3334703333
 20
-1.0749427224
 10
0.2949854835
 20
-1.0789311108
 10
0.25782941
 20
-1.0857483144
 10
0.2226378636
 20
-1.0952776888
 10
0.1900129815
 20
-1.1073561838
 10
0.1605129844
 20
-1.1217771331
  0
LWPOLYLINE
  5
3A5
100
AcDbEntity
  8
ASSI
100
AcDbPolyline
 62
7
  6
CONTINUOUS
 90
11
 70
0
 10
8.2641507097
 20
-5.4959723303
 10
8.3403093857
 20
-5.5388237783
 10
8.4103774177
 20
-5.5761675016
 10
8.4743548055
 20
-5.6080035
 10
8.5327077949
 20
-5.634519191
 10
8.5849701401
 20
-5.6555271573
 10
8.6297431039
 20
-5.6704651464
 10
8.6668244378
 20
-5.6791692404
 10
8.6964163903
 20
-5.6818033574
 10
8.7177269691
 20
-5.6782969983
 10
8.7301997023
 20
-5.6689676705
  0
LWPOLYLINE
  5
3A6
100
AcDbEntity
  8
ASSI
100
AcDbPolyline
 62
7
  6
CONTINUOUS
 90
8
 70
0
 10
7.331317198
 20
-4.4963081272
 10
7.2551585219
 20
-4.4534566791
 10
7.18509049
 20
-4.4161129559
 10
7.1211131022
 20
-4.3842769575
 10
7.0627601128
 20
-4.3577612664
 10
7.0104977676
 20
-4.3367533002
 10
6.9657248038
 20
-4.3218153111
 10
6.9603623139
 20
-4.3205565749
  0
LINE
  5
3A7
100
AcDbEntity
  8
SMUSSO
100
AcDbLine
 62
7
  6
CONTINUOUS
 10
10.0372333571
 20
-7.2213377621
 11
8.3169533748
 21
-6.2280696605
  0
LINE
  5
3A8
100
AcDbEntity
  8
0
100
AcDbLine
 62
253
  6
CONTINUOUS
 10
-0.0275729849
 20
-0.0257532953
 11
-12.4019416556
 21
7.1190520879
  0
LINE
  5
3A9
100
AcDbEntity
  8
0
100
AcDbLine
 62
253
  6
CONTINUOUS
 10
0.0335958488
 20
0.1771514541
 11
-12.3407728219
 21
7.3219568373
  0
LINE
  5
3AA
100
AcDbEntity
  8
0
100
AcDbLine
 62
253
  6
CONTINUOUS
 10
-12.920990127
 20
6.6722963147
 11
-12.9008235837
 21
6.6590455825
  0
LINE
  5
3AB
100
AcDbEntity
  8
0
100
AcDbLine
 62
7
  6
CONTINUOUS
 10
7.2180614664
 20
-8.4740556672
 11
6.9603623139
 21
-8.1978942571
  0
LINE
  5
3AC
100
AcDbEntity
  8
0
100
AcDbLine
 62
7
  6
CONTINUOUS
 10
6.9603623139
 20
-7.6212337578
 11
7.5763669234
 21
-8.2813705876
  0
LINE
  5
3AD
100
AcDbEntity
  8
0
100
AcDbLine
 62
7
  6
CONTINUOUS
 10
8.3992610658
 20
-9.1632190705
 11
9.552553062
 21
-10.3991359945
  0
LINE
  5
3AE
100
AcDbEntity
  8
0
100
AcDbLine
 62
7
  6
CONTINUOUS
 10
9.5061373709
 20
-12.1088894774
 11
8.9805690023
 21
-11.5410532187
  0
LWPOLYLINE
  5
3AF
100
AcDbEntity
  8
0
100
AcDbPolyline
 62
7
  6
CONTINUOUS
 90
4
 70
0
 10
7.5523566022
 20
-23.4760504141
 10
7.5639625785
 20
-23.507926747
 10
7.5711937989
 20
-23.5414068591
 10
7.5737867532
 20
-23.5775509273
  0
LWPOLYLINE
  5
3B0
100
AcDbEntity
  8
0
100
AcDbPolyline
 62
7
  6
CONTINUOUS
 90
3
 70
0
 10
-9.0144696149
 20
22.1096757722
 10
-9.0260755912
 20
22.141552105
 10
-9.0333068115
 20
22.1750322171
  0
LWPOLYLINE
  5
3B1
100
AcDbEntity
  8
0
100
AcDbPolyline
 62
253
  6
CONTINUOUS
 90
43
 70
0
 10
2.6911231416
 20
-24.9657260234
 10
2.6930645784
 20
-24.9777864357
 10
2.6953759941
 20
-24.9895342297
 10
2.6980573885
 20
-25.0009694055
 10
2.7011123811
 20
-25.0121033663
 10
2.7045373525
 20
-25.0229247089
 10
2.7083214446
 20
-25.0333992234
 10
2.7124658198
 20
-25.043525876
 10
2.7169693158
 20
-25.0533057005
 10
2.7218175878
 20
-25.0627075881
 10
2.7270117285
 20
-25.071730323
 10
2.7325506452
 20
-25.080375121
 10
2.7384167148
 20
-25.0886145213
 10
2.7446109734
 20
-25.0964472314
 10
2.7511323849
 20
-25.1038745437
 10
2.7579602173
 20
-25.1108728751
 10
2.7650954465
 20
-25.1174408649
 10
2.7725370966
 20
-25.1235798739
 10
2.7802615082
 20
-25.1292704004
 10
2.7882695784
 20
-25.1345110181
 10
2.7965604102
 20
-25.1393031533
 10
2.8051076533
 20
-25.1436315845
 10
2.8139121228
 20
-25.1474948379
 10
2.8229730037
 20
-25.1508943872
 10
2.8322614999
 20
-25.1538194312
 10
2.8417783361
 20
-25.1562684619
 10
2.8515227877
 20
-25.1582429873
 10
2.8614638851
 20
-25.1597367301
 10
2.8716022517
 20
-25.1607481622
 10
2.8819372641
 20
-25.1612788118
 10
2.8924360818
 20
-25.1613269861
 10
2.9030992273
 20
-25.1608911517
 10
2.9139261782
 20
-25.1599728419
 10
2.9248825265
 20
-25.1585749643
 10
2.9359686845
 20
-25.1566959941
 10
2.9471842399
 20
-25.1543374561
 10
2.9584935489
 20
-25.1515068317
 10
2.9698964451
 20
-25.1482028466
 10
2.9813930949
 20
-25.1444267752
 10
2.9929483527
 20
-25.1401899226
 10
3.0045505035
 20
-25.1354960574
 10
3.0162112624
 20
-25.130341411
 10
3.0279306293
 20
-25.1247259835
  0
LWPOLYLINE
  5
3B2
100
AcDbEntity
  8
0
100
AcDbPolyline
 62
253
  6
CONTINUOUS
 90
9
 70
0
 10
1.281991098
 20
-15.8565193883
 10
1.295164089
 20
-16.4891554057
 10
1.3132488352
 20
-17.1188976416
 10
1.336243988
 20
-17.7456983156
 10
1.364147874
 20
-18.3695098745
 10
1.3969583704
 20
-18.9902849951
 10
1.4346729075
 20
-19.6079765867
 10
1.4772886963
 20
-20.2225378509
 10
1.5248025385
 20
-20.8339221222
  0
LWPOLYLINE
  5
3B3
100
AcDbEntity
  8
0
100
AcDbPolyline
 62
253
  6
CONTINUOUS
 90
16
 70
0
 10
1.9828098517
 20
-15.8523313668
 10
1.9959137024
 20
-16.4815310987
 10
2.0138992155
 20
-17.1077592038
 10
2.036766391
 20
-17.731015682
 10
2.0645177054
 20
-18.3513475141
 10
2.0971506823
 20
-18.9687077194
 10
2.1346578925
 20
-19.5829553558
 10
2.1770404459
 20
-20.1940896025
 10
2.2242972327
 20
-20.8021112802
 10
2.2764174947
 20
-21.4068819091
 10
2.3334023639
 20
-22.0084009097
 10
2.3952507083
 20
-22.6066688615
 10
2.4619483737
 20
-23.2015490229
 10
2.533490642
 20
-23.7929958135
 10
2.6098822313
 20
-24.3810548136
 10
2.6911231416
 20
-24.9657260234
  0
LWPOLYLINE
  5
3B4
100
AcDbEntity
  8
0
100
AcDbPolyline
 62
253
  6
CONTINUOUS
 90
10
 70
0
 10
0.6048761925
 20
-15.6019038008
 10
0.5789329446
 20
-13.8836189027
 10
0.5607856293
 20
-12.2998565584
 10
0.5480308082
 20
-10.7129109776
 10
0.5406686756
 20
-9.1228063664
 10
0.538699344
 20
-7.5295669791
 10
0.5421228434
 20
-5.9332171175
 10
0.5509391214
 20
-4.3337811313
 10
0.5651480438
 20
-2.731283417
 10
0.5847493937
 20
-1.1257484179
  0
LWPOLYLINE
  5
3B5
100
AcDbEntity
  8
0
100
AcDbPolyline
 62
253
  6
CONTINUOUS
 90
25
 70
0
 10
0.5847493937
 20
-1.1257484179
 10
0.5838661779
 20
-1.0507444296
 10
0.58047203
 20
-0.977087244
 10
0.5745657089
 20
-0.9047775561
 10
0.5659998235
 20
-0.8337775101
 10
0.5549194167
 20
-0.7641262759
 10
0.5417620256
 20
-0.6959400163
 10
0.5265776331
 20
-0.6291772746
 10
0.5093143229
 20
-0.563880588
 10
0.4902568766
 20
-0.5002920582
 10
0.4693658032
 20
-0.4382852293
 10
0.4466788816
 20
-0.3779875126
 10
0.4225967282
 20
-0.3200218496
 10
0.39722347
 20
-0.2645942756
 10
0.3704533167
 20
-0.2114996821
 10
0.3423719966
 20
-0.1607443015
 10
0.3130863773
 20
-0.1123225289
 10
0.2824883432
 20
-0.066240664
 10
0.2503412184
 20
-0.0225227566
 10
0.2162263367
 20
0.019301846
 10
0.1805614404
 20
0.058761977
 10
0.1443644385
 20
0.0944208417
 10
0.1079743817
 20
0.1257993684
 10
0.0710515711
 20
0.1533762685
 10
0.0335958488
 20
0.1771514541
  0
LINE
  5
3B6
100
AcDbEntity
  8
0
100
AcDbLine
 62
253
  6
CONTINUOUS
 10
0.2911629562
 20
18.3612980681
 11
0.2911629562
 21
17.1982727725
  0
LINE
  5
3B7
100
AcDbEntity
  8
0
100
AcDbLine
 62
7
  6
CONTINUOUS
 10
1.2104017717
 20
17.1715886268
 11
1.2104017717
 21
15.8081772205
  0
LINE
  5
3B8
100
AcDbEntity
  8
RACCORDO
100
AcDbLine
 62
7
  6
CONTINUOUS
 10
1.4387561418
 20
10.3601036856
 11
1.4387561418
 21
10.5207954321
  0
LINE
  5
3B9
100
AcDbEntity
  8
0
100
AcDbLine
 62
7
  6
CONTINUOUS
 10
1.8759824735
 20
15.423879265
 11
1.8759824735
 21
16.7872906713
  0
LWPOLYLINE
  5
3BA
100
AcDbEntity
  8
0
100
AcDbPolyline
 62
253
  6
CONTINUOUS
 90
13
 70
0
 10
1.281991098
 20
-0.3435841293
 10
1.2621493425
 20
-1.6473385362
 10
1.2459153927
 20
-2.9491201027
 10
1.2332891951
 20
-4.2489158907
 10
1.2242707094
 20
-5.5467043058
 10
1.2188597143
 20
-6.8424811582
 10
1.2170560449
 20
-8.1362595275
 10
1.2188597156
 20
-9.4280264317
 10
1.2242707116
 20
-10.7177689246
 10
1.2332891978
 20
-12.0054999231
 10
1.2459153953
 20
-13.2912149917
 10
1.2621493442
 20
-14.5748924801
 10
1.281991098
 20
-15.8565193883
  0
LWPOLYLINE
  5
3BB
100
AcDbEntity
  8
0
100
AcDbPolyline
 62
253
  6
CONTINUOUS
 90
13
 70
0
 10
1.9828098517
 20
-0.354909043
 10
1.9629877474
 20
-1.6573808671
 10
1.9467697361
 20
-2.9578561081
 10
1.9341558178
 20
-4.2563347661
 10
1.9251460828
 20
-5.5528211215
 10
1.9197404407
 20
-6.8473108939
 10
1.9179386207
 20
-8.1397912417
 10
1.9197404426
 20
-9.4302622684
 10
1.9251460865
 20
-10.7187238706
 10
1.9341558224
 20
-12.0051628967
 10
1.9467697402
 20
-13.2895749628
 10
1.96298775
 20
-14.5719644529
 10
1.9828098517
 20
-15.8523313668
  0
LINE
  5
3BC
100
AcDbEntity
  8
RACCORDO
100
AcDbLine
 62
7
  6
CONTINUOUS
 10
0.9161410988
 20
5.5238058121
 11
0.9161602243
 21
5.5240721741
  0
LINE
  5
3BD
100
AcDbEntity
  8
RACCORDO
100
AcDbLine
 62
253
  6
CONTINUOUS
 10
1.0130369139
 20
5.938911095
 11
0.9747877605
 21
5.4428000651
  0
LWPOLYLINE
  5
3BE
100
AcDbEntity
  8
RACCORDO
100
AcDbPolyline
 62
253
  6
CONTINUOUS
 90
9
 70
0
 10
0.8852179766
 20
6.0896424304
 10
0.844363362
 20
5.5792328515
 10
0.8424272648
 20
5.5625800906
 10
0.8397921729
 20
5.5455929714
 10
0.8363653907
 20
5.5283028733
 10
0.8320775911
 20
5.5108673935
 10
0.8269060957
 20
5.4935520344
 10
0.8207858447
 20
5.476441025
 10
0.8136645626
 20
5.4596546486
  0
LWPOLYLINE
  5
3BF
100
AcDbEntity
  8
0
100
AcDbPolyline
 62
253
  6
CONTINUOUS
 90
11
 70
0
 10
1.6345092934
 20
6.2400585307
 10
1.5772107021
 20
5.5712583122
 10
1.5248025385
 20
4.904643023
 10
1.4772886964
 20
4.2402633518
 10
1.4346729076
 20
3.5781697116
 10
1.3969583704
 20
2.9184124172
 10
1.364147874
 20
2.2610415319
 10
1.336243988
 20
1.6061068198
 10
1.3132488352
 20
0.9536579575
 10
1.295164089
 20
0.3037445285
 10
1.281991098
 20
-0.3435841293
  0
LWPOLYLINE
  5
3C0
100
AcDbEntity
  8
0
100
AcDbPolyline
 62
253
  6
CONTINUOUS
 90
12
 70
0
 10
2.3952505138
 20
6.8593612016
 10
2.3334021903
 20
6.1921229413
 10
2.2764173425
 20
5.5270571535
 10
2.2242970942
 20
4.8641644531
 10
2.1770403216
 20
4.2034442253
 10
2.1346577821
 20
3.5450469467
 10
2.097150584
 20
2.888972969
 10
2.0645176192
 20
2.2352219406
 10
2.0367663203
 20
1.5839432831
 10
2.0138991649
 20
0.9351868036
 10
1.9959136753
 20
0.2889026949
 10
1.9828098517
 20
-0.354909043
  0
LWPOLYLINE
  5
3C1
100
AcDbEntity
  8
RACCORDO
100
AcDbPolyline
 62
7
  6
CONTINUOUS
 90
8
 70
0
 10
0.9161410988
 20
5.5238058121
 10
0.9122295366
 20
5.4888509679
 10
0.9058558606
 20
5.4559927528
 10
0.8972271392
 20
5.4262733148
 10
0.8867163264
 20
5.4004064725
 10
0.8750572081
 20
5.3792781281
 10
0.8630494122
 20
5.3630886413
 10
0.8512452551
 20
5.3513493073
  0
LWPOLYLINE
  5
3C2
100
AcDbEntity
  8
0
100
AcDbPolyline
 62
253
  6
CONTINUOUS
 90
6
 70
0
 10
1.9941935596
 20
9.615053094
 10
1.9125152955
 20
8.9360922558
 10
1.8357022066
 20
8.2590610042
 10
1.7637600205
 20
7.5840107784
 10
1.6966940234
 20
6.9109929357
 10
1.6345092934
 20
6.2400585307
  0
LWPOLYLINE
  5
3C3
100
AcDbEntity
  8
0
100
AcDbPolyline
 62
253
  6
CONTINUOUS
 90
5
 70
0
 10
2.6911231416
 20
9.5483634393
 10
2.6098821425
 20
8.8730953457
 10
2.5334904899
 20
8.1998474038
 10
2.4619481835
 20
7.5286196137
 10
2.3952505138
 20
6.8593612016
  0
LWPOLYLINE
  5
3C4
100
AcDbEntity
  8
RACCORDO
100
AcDbPolyline
 62
253
  6
CONTINUOUS
 90
4
 70
0
 10
0.9747877605
 20
5.4428000651
 10
0.9677007764
 20
5.3860649008
 10
0.9569354598
 20
5.3337974491
 10
0.9424877872
 20
5.2859958367
  0
LWPOLYLINE
  5
3C5
100
AcDbEntity
  8
0
100
AcDbPolyline
 62
253
  6
CONTINUOUS
 90
25
 70
0
 10
0.1605129844
 20
-1.1217771331
 10
0.1722840306
 20
-1.052904292
 10
0.1816316433
 20
-0.985553123
 10
0.1887542033
 20
-0.9198621164
 10
0.1938906504
 20
-0.856081629
 10
0.1971768728
 20
-0.7942327752
 10
0.1986049989
 20
-0.7340765973
 10
0.1982939618
 20
-0.6756257321
 10
0.1963692891
 20
-0.6190544826
 10
0.1927755834
 20
-0.5643252737
 10
0.1875885601
 20
-0.5113952709
 10
0.180931173
 20
-0.4604629167
 10
0.1728018725
 20
-0.4118412603
 10
0.1633336299
 20
-0.3657680065
 10
0.1525830684
 20
-0.3221564769
 10
0.1404280625
 20
-0.2808272315
 10
0.1270519205
 20
-0.2418258283
 10
0.112452496
 20
-0.205241441
 10
0.0962422251
 20
-0.1709617526
 10
0.0783263574
 20
-0.1387112966
 10
0.0590584255
 20
-0.1089346405
 10
0.0387181234
 20
-0.0825958962
 10
0.0174543118
 20
-0.0600549595
 10
-0.0046771898
 20
-0.0410862131
 10
-0.0275729849
 20
-0.0257532953
  0
LWPOLYLINE
  5
3C6
100
AcDbEntity
  8
0
100
AcDbPolyline
 62
253
  6
CONTINUOUS
 90
34
 70
0
 10
0.1605129846
 20
-1.1217771092
 10
-0.0068285918
 20
-1.4363980763
 10
-0.1693564547
 20
-1.7494711714
 10
-0.3270706042
 20
-2.0609963947
 10
-0.4798173431
 20
-2.3708456018
 10
-0.6277503686
 20
-2.679146937
 10
-0.7713307721
 20
-2.9862848331
 10
-0.9105980526
 20
-3.2922732445
 10
-1.0455127111
 20
-3.5970982169
 10
-1.1764173427
 20
-3.9011023195
 10
-1.3033173402
 20
-4.2042207106
 10
-1.4262073108
 20
-4.5065182319
 10
-1.5454136711
 20
-4.8085319785
 10
-1.6609643749
 20
-5.1102388119
 10
-1.7728314684
 20
-5.4116618704
 10
-1.8812575069
 20
-5.7134076638
 10
-1.9862677519
 20
-6.0154310558
 10
-2.0878369418
 20
-6.3177771827
 10
-2.1861318475
 20
-6.6211879627
 10
-2.2811959695
 20
-6.925653113
 10
-2.3729858072
 20
-7.2311829164
 10
-2.46153763
 20
-7.5385501394
 10
-2.5469069503
 20
-7.8477724664
 10
-2.6290382557
 20
-8.158832213
 10
-2.7078012782
 20
-8.4724490917
 10
-2.783121958
 20
-8.7878260319
 10
-2.855074355
 20
-9.1057601043
 10
-2.9237503808
 20
-9.4293622329
 10
-2.9893325522
 20
-9.7583318167
 10
-3.0516383525
 20
-10.0929694567
 10
-3.1102121429
 20
-10.4372878799
 10
-3.1649020439
 20
-10.7926246621
 10
-3.2158599351
 20
-11.1576422275
 10
-3.2630858163
 20
-11.5323405762
  0
LWPOLYLINE
  5
3C7
100
AcDbEntity
  8
0
100
AcDbPolyline
 62
7
  6
CONTINUOUS
 90
9
 70
0
 10
-7.1444583638
 20
-13.8025008075
 10
-7.1456442154
 20
-13.8042766219
 10
-7.1498407318
 20
-13.8202318602
 10
-7.14614643
 20
-13.8417133898
 10
-7.1347365775
 20
-13.8685984632
 10
-7.1158684139
 20
-13.9002809455
 10
-7.0896276858
 20
-13.936558792
 10
-7.0559286466
 20
-13.9776340474
 10
-7.0147712963
 20
-14.0235067117
  0
LINE
  5
3C8
100
AcDbEntity
  8
ASSI
100
AcDbLine
 62
7
  6
CONTINUOUS
 10
10.2260313678
 20
13.5484676363
 11
10.0692389559
 21
13.3311703746
  0
LINE
  5
3C9
100
AcDbEntity
  8
ASSI
100
AcDbLine
 62
7
  6
CONTINUOUS
 10
-7.2074946566
 20
-10.612506866
 11
-7.8342415653
 21
-11.4811100423
  0
LINE
  5
3CA
100
AcDbEntity
  8
ASSI
100
AcDbLine
 62
7
  6
CONTINUOUS
 10
12.0278650141
 20
15.33197151
 11
11.3327914557
 21
14.3686750146
  0
LINE
  5
3CB
100
AcDbEntity
  8
ASSI
100
AcDbLine
 62
7
  6
CONTINUOUS
 10
-7.6658858075
 20
-11.9614291932
 11
-8.3609593659
 21
-12.9247256886
  0
LINE
  5
3CC
100
AcDbEntity
  8
ASSI
100
AcDbLine
 62
7
  6
CONTINUOUS
 10
11.4072693273
 20
13.8183319171
 11
11.3381618262
 21
13.7225564229
  0
LINE
  5
3CD
100
AcDbEntity
  8
ASSI
100
AcDbLine
 62
7
  6
CONTINUOUS
 10
-8.1666929986
 20
-13.3090549351
 11
-8.3555889953
 21
-13.5708442803
  0
LINE
  5
3CE
100
AcDbEntity
  8
ASSI
100
AcDbLine
 62
7
  6
CONTINUOUS
 10
11.5181571695
 20
13.258368474
 11
11.1291216058
 21
12.719207416
  0
LINE
  5
3CF
100
AcDbEntity
  8
ASSI
100
AcDbLine
 62
7
  6
CONTINUOUS
 10
-5.9572220691
 20
-10.9606100396
 11
-6.5421157636
 21
-11.7712092047
  0
LWPOLYLINE
  5
3D0
100
AcDbEntity
  8
0
100
AcDbPolyline
 62
253
  6
CONTINUOUS
 90
37
 70
0
 10
1.9828098517
 20
-0.354909043
 10
1.9669749723
 20
-0.3630300338
 10
1.9505230148
 20
-0.3707493307
 10
1.9334846044
 20
-0.3780525643
 10
1.9158914583
 20
-0.3849261394
 10
1.8977763262
 20
-0.391357261
 10
1.8791729295
 20
-0.3973339575
 10
1.8601158986
 20
-0.4028451031
 10
1.8406407081
 20
-0.407880439
 10
1.8207836112
 20
-0.4124305917
 10
1.800581572
 20
-0.4164870912
 10
1.7800721968
 20
-0.4200423863
 10
1.7592936637
 20
-0.4230898587
 10
1.7382846522
 20
-0.4256238356
 10
1.7170842705
 20
-0.4276396
 10
1.6957319834
 20
-0.4291333995
 10
1.6742675382
 20
-0.4301024534
 10
1.652730891
 20
-0.4305449579
 10
1.6311621324
 20
-0.430460089
 10
1.6096014128
 20
-0.429848005
 10
1.5880888676
 20
-0.4287098451
 10
1.5666645424
 20
-0.4270477281
 10
1.5453683188
 20
-0.424864748
 10
1.5242398397
 20
-0.4221649684
 10
1.503318436
 20
-0.4189534149
 10
1.4826430528
 20
-0.415236066
 10
1.4622521776
 20
-0.4110198414
 10
1.442183768
 20
-0.4063125897
 10
1.4224751815
 20
-0.4011230734
 10
1.4031631057
 20
-0.3954609529
 10
1.3842834901
 20
-0.3893367682
 10
1.3658714792
 20
-0.3827619195
 10
1.3479613471
 20
-0.375748646
 10
1.3305864335
 20
-0.3683100028
 10
1.313779082
 20
-0.360459837
 10
1.2975705795
 20
-0.3522127619
 10
1.2819910981
 20
-0.3435841292
  0
LWPOLYLINE
  5
3D1
100
AcDbEntity
  8
0
100
AcDbPolyline
 62
253
  6
CONTINUOUS
 90
15
 70
0
 10
-12.4019416556
 20
7.1190520879
 10
-12.4257895399
 20
7.1310588375
 10
-12.4509405548
 20
7.1389301306
 10
-12.4772086506
 20
7.1425644207
 10
-12.5044121376
 20
7.1419493437
 10
-12.5323229385
 20
7.1368839559
 10
-12.5607138934
 20
7.1270057721
 10
-12.5896532874
 20
7.1119444919
 10
-12.6187129859
 20
7.0919106444
 10
-12.6470953229
 20
7.0675119644
 10
-12.6750916387
 20
7.0382819232
 10
-12.7023536973
 20
7.0047052077
 10
-12.7275192185
 20
6.9690167571
 10
-12.750725257
 20
6.9315608543
 10
-12.7591273086
 20
6.9168420215
  0
LWPOLYLINE
  5
3D2
100
AcDbEntity
  8
0
100
AcDbPolyline
 62
253
  6
CONTINUOUS
 90
21
 70
0
 10
-12.3407728219
 20
7.3219568373
 10
-12.37899986
 20
7.3422279325
 10
-12.4174613206
 20
7.357712784
 10
-12.4561570009
 20
7.3684115049
 10
-12.4954210586
 20
7.3745738448
 10
-12.534918489
 20
7.3759505251
 10
-12.5736450994
 20
7.371793252
 10
-12.6116946775
 20
7.3617126097
 10
-12.6489715525
 20
7.3460990618
 10
-12.6841873469
 20
7.3253741325
 10
-12.7172554654
 20
7.2988486664
 10
-12.7482603006
 20
7.2672130458
 10
-12.7761710073
 20
7.2329575164
 10
-12.8005132486
 20
7.1961161156
 10
-12.8217609031
 20
7.1566550629
 10
-12.840307054
 20
7.1169619835
 10
-12.8559847499
 20
7.0776000249
 10
-12.8689618793
 20
7.0380055189
 10
-12.8801345033
 20
6.9988754664
 10
-12.8896086903
 20
6.9603973583
 10
-12.8972792224
 20
6.9223832305
  0
LINE
  5
3D3
100
AcDbEntity
  8
0
100
AcDbLine
 62
253
  6
CONTINUOUS
 10
1.281991098
 20
-0.3435841293
 11
-13.5827856645
 21
8.239151674
  0
LINE
  5
3D4
100
AcDbEntity
  8
SMUSSO
100
AcDbLine
 62
7
  6
CONTINUOUS
 10
7.934371185
 20
-4.4435840938
 11
6.9603623139
 21
-3.7057276186
  0
LWPOLYLINE
  5
3D5
100
AcDbEntity
  8
RACCORDO
100
AcDbPolyline
 62
7
  6
CONTINUOUS
 90
4
 70
0
 10
-12.3363352207
 20
12.7632606563
 10
-12.3027479236
 20
12.7306289448
 10
-12.2675750555
 20
12.7016315657
 10
-12.2311131267
 20
12.6765671429
  0
LINE
  5
3D6
100
AcDbEntity
  8
0
100
AcDbLine
 62
7
  6
CONTINUOUS
 10
6.9603623139
 20
-4.7742887822
 11
9.3928746828
 21
-7.3810728529
  0
LWPOLYLINE
  5
3D7
100
AcDbEntity
  8
0
100
AcDbPolyline
 62
253
  6
CONTINUOUS
 90
6
 70
0
 10
7.5131899863
 20
-23.4936853503
 10
7.510181956
 20
-23.4826078706
 10
7.5067532435
 20
-23.4717441555
 10
7.5029115872
 20
-23.4611187236
 10
7.4986656573
 20
-23.4507555561
 10
7.4940250368
 20
-23.4406780419
  0
LWPOLYLINE
  5
3D8
100
AcDbEntity
  8
0
100
AcDbPolyline
 62
253
  6
CONTINUOUS
 90
40
 70
0
 10
3.0279993004
 20
10.0829977178
 10
3.0269605463
 20
10.0991495428
 10
3.025360761
 20
10.1156116482
 10
3.0232025362
 20
10.1323573634
 10
3.0204893687
 20
10.1493595583
 10
3.0172256539
 20
10.1665906875
 10
3.0134166794
 20
10.1840228344
 10
3.0090686164
 20
10.201627757
 10
3.004188509
 20
10.2193769332
 10
2.9987842637
 20
10.2372416073
 10
2.9928646359
 20
10.2551928363
 10
2.9864392161
 20
10.2732015373
 10
2.9795184142
 20
10.2912385339
 10
2.9721134428
 20
10.309274604
 10
2.9642362987
 20
10.3272805273
 10
2.9558997439
 20
10.3452271318
 10
2.9471172845
 20
10.363085342
 10
2.9379031491
 20
10.3808262255
 10
2.9282722658
 20
10.3984210399
 10
2.9182402376
 20
10.4158412795
 10
2.9078233177
 20
10.4330587216
 10
2.8970383826
 20
10.4500454717
 10
2.8859029053
 20
10.4667740094
 10
2.8744349266
 20
10.4832172325
 10
2.8626530258
 20
10.4993485008
 10
2.8505762911
 20
10.5151416799
 10
2.8382242882
 20
10.530571183
 10
2.8256170288
 20
10.5456120124
 10
2.8127749382
 20
10.5602398001
 10
2.799718822
 20
10.5744308475
 10
2.7864698328
 20
10.5881621633
 10
2.7730494354
 20
10.6014115011
 10
2.7594793725
 20
10.6141573955
 10
2.7457816292
 20
10.6263791965
 10
2.7319783975
 20
10.6380571034
 10
2.7180920403
 20
10.6491721966
 10
2.704145055
 20
10.6597064684
 10
2.6901600375
 20
10.6696428518
 10
2.6761596452
 20
10.6789652489
 10
2.6621665604
 20
10.6876585562
  0
LWPOLYLINE
  5
3D9
100
AcDbEntity
  8
0
100
AcDbPolyline
 62
253
  6
CONTINUOUS
 90
17
 70
0
 10
3.3409812175
 20
15.0049009487
 10
3.3411495134
 20
14.9960934834
 10
3.3416540806
 20
14.9874971317
 10
3.3424939584
 20
14.9791282613
 10
3.3436675442
 20
14.9710028286
 10
3.3451726051
 20
14.9631362819
 10
3.3470062915
 20
14.9555435398
 10
3.3491651355
 20
14.9482390177
 10
3.3516450229
 20
14.9412366839
 10
3.3544412027
 20
14.9345499603
 10
3.3575483252
 20
14.9281916153
 10
3.3609604873
 20
14.9221737069
 10
3.3646712153
 20
14.9165076506
 10
3.368673476
 20
14.9112042008
 10
3.3729596252
 20
14.9062735012
 10
3.3775214347
 20
14.9017250077
 10
3.3823501642
 20
14.8975674026
  0
LINE
  5
3DA
100
AcDbEntity
  8
0
100
AcDbLine
 62
253
  6
CONTINUOUS
 10
2.6578191523
 20
23.6928418754
 11
2.6578191523
 21
22.3880775839
  0
LINE
  5
3DB
100
AcDbEntity
  8
0
100
AcDbLine
 62
7
  6
CONTINUOUS
 10
2.7905122899
 20
23.7483585114
 11
2.7905122899
 21
22.5715217243
  0
LINE
  5
3DC
100
AcDbEntity
  8
0
100
AcDbLine
 62
7
  6
CONTINUOUS
 10
2.9428133856
 20
16.0969123379
 11
2.9428133856
 21
17.4032647808
  0
LINE
  5
3DD
100
AcDbEntity
  8
RACCORDO
100
AcDbLine
 62
7
  6
CONTINUOUS
 10
3.263942062
 20
11.8983876518
 11
3.263942062
 21
11.9626392982
  0
LINE
  5
3DE
100
AcDbEntity
  8
0
100
AcDbLine
 62
7
  6
CONTINUOUS
 10
3.2677579128
 20
15.4274897699
 11
3.2677579128
 21
15.1069695971
  0
LINE
  5
3DF
100
AcDbEntity
  8
0
100
AcDbLine
 62
253
  6
CONTINUOUS
 10
3.3409812175
 20
15.3254211216
 11
3.3409812175
 21
15.0049009487
  0
LINE
  5
3E0
100
AcDbEntity
  8
0
100
AcDbLine
 62
7
  6
CONTINUOUS
 10
3.9707508671
 20
14.5567373582
 11
3.9707508671
 21
14.4347785303
  0
LINE
  5
3E1
100
AcDbEntity
  8
RACCORDO
100
AcDbLine
 62
253
  6
CONTINUOUS
 10
4.0439741718
 20
14.5144591397
 11
4.0439741718
 21
14.3270683022
  0
LWPOLYLINE
  5
3E2
100
AcDbEntity
  8
0
100
AcDbPolyline
 62
253
  6
CONTINUOUS
 90
34
 70
0
 10
3.3409812175
 20
15.3254211216
 10
3.3411800203
 20
15.3352136033
 10
3.3417759826
 20
15.345213647
 10
3.3427677658
 20
15.3553987616
 10
3.3441531418
 20
15.3657460459
 10
3.3459289959
 20
15.3762322209
 10
3.348091331
 20
15.3868336811
 10
3.3506352816
 20
15.3975265755
 10
3.3535551264
 20
15.4082868591
 10
3.3568442964
 20
15.4190903262
 10
3.3604953933
 20
15.4299126792
 10
3.3645002039
 20
15.4407295746
 10
3.3688497161
 20
15.4515166746
 10
3.3735341448
 20
15.4622497153
 10
3.3785429528
 20
15.4729045581
 10
3.3838648714
 20
15.4834572354
 10
3.3894879318
 20
15.4938840182
 10
3.3953994825
 20
15.5041614502
 10
3.4015862142
 20
15.5142663982
 10
3.4080341908
 20
15.5241761093
 10
3.4147289241
 20
15.533868326
 10
3.4216554003
 20
15.5433213132
 10
3.4287981107
 20
15.5525138925
 10
3.4361409282
 20
15.5614252964
 10
3.4436671749
 20
15.5700352966
 10
3.4513598091
 20
15.5783244365
 10
3.4592016217
 20
15.5862742107
 10
3.4671751207
 20
15.5938669001
 10
3.4752635981
 20
15.6010864857
 10
3.4834476694
 20
15.607915558
 10
3.4917053402
 20
15.6143360686
 10
3.5000167609
 20
15.6203332878
 10
3.5083643933
 20
15.6258952594
 10
3.5167294735
 20
15.6310100768
  0
LWPOLYLINE
  5
3E3
100
AcDbEntity
  8
RACCORDO
100
AcDbPolyline
 62
7
  6
CONTINUOUS
 90
4
 70
0
 10
3.9707554387
 20
14.4347224932
 10
3.9703155537
 20
14.4294317067
 10
3.969593545
 20
14.4265190759
 10
3.9694777377
 20
14.4262065591
  0
LWPOLYLINE
  5
3E4
100
AcDbEntity
  8
0
100
AcDbPolyline
 62
253
  6
CONTINUOUS
 90
15
 70
0
 10
7.5721174421
 20
15.3424089744
 10
7.5704707939
 20
15.3356303768
 10
7.5682694351
 20
15.3289044721
 10
7.5655183163
 20
15.3222463856
 10
7.5622236232
 20
15.3156710881
 10
7.5583927628
 20
15.3091933627
 10
7.5540343441
 20
15.3028277699
 10
7.5491581703
 20
15.2965886302
 10
7.5437752188
 20
15.2904899879
 10
7.5378976054
 20
15.2845455641
 10
7.5315385424
 20
15.2787687163
 10
7.5247123187
 20
15.2731724238
 10
7.5174342798
 20
15.2677692674
 10
7.5097207953
 20
15.2625714004
 10
7.5015892102
 20
15.257590511
  0
LWPOLYLINE
  5
3E5
100
AcDbEntity
  8
SMUSSO
100
AcDbPolyline
 62
7
  6
CONTINUOUS
 90
9
 70
0
 10
10.2260313678
 20
13.5484676363
 10
10.232803867
 20
13.563615378
 10
10.2331667502
 20
13.5906680576
 10
10.2232278589
 20
13.6248469747
 10
10.2030516574
 20
13.665930461
 10
10.1727690098
 20
13.7136520597
 10
10.132576326
 20
13.7677022659
 10
10.0827342812
 20
13.8277305393
 10
10.0235661312
 20
13.8933475671
  0
LWPOLYLINE
  5
3E6
100
AcDbEntity
  8
ASSI
100
AcDbPolyline
 62
7
  6
CONTINUOUS
 90
9
 70
0
 10
-3.9009854838
 20
-16.1428521379
 10
-3.8913891403
 20
-16.1214405306
 10
-3.8907535344
 20
-16.0834609363
 10
-3.9048635384
 20
-16.035281079
 10
-3.933438927
 20
-15.9770948041
 10
-3.9759296861
 20
-15.9100220714
 10
-4.0321524775
 20
-15.8344362005
 10
-4.1022906394
 20
-15.7499638717
 10
-4.1863441716
 20
-15.6566050851
  0
LWPOLYLINE
  5
3E7
100
AcDbEntity
  8
SMUSSO
100
AcDbPolyline
 62
7
  6
CONTINUOUS
 90
4
 70
0
 10
11.3327914557
 20
14.3686750146
 10
11.3279030195
 20
14.3605094835
 10
11.3211663556
 20
14.3294925522
 10
11.3231121844
 20
14.3068289543
  0
LWPOLYLINE
  5
3E8
100
AcDbEntity
  8
SMUSSO
100
AcDbPolyline
 62
7
  6
CONTINUOUS
 90
10
 70
0
 10
11.3381618262
 20
13.7225564229
 10
11.3430502624
 20
13.730721954
 10
11.3497869263
 20
13.7617388853
 10
11.3439875486
 20
13.8015347488
 10
11.3256851165
 20
13.8498865933
 10
11.294982515
 20
13.9065236957
 10
11.2520520815
 20
13.9711288302
 10
11.1971345309
 20
14.0433402918
 10
11.1305374993
 20
14.1227539917
 10
11.0526339285
 20
14.2089255561
  0
LWPOLYLINE
  5
3E9
100
AcDbEntity
  8
0
100
AcDbPolyline
 62
7
  6
CONTINUOUS
 90
9
 70
0
 10
-5.1173172759
 20
-15.2651990993
 10
-5.1161314243
 20
-15.263423285
 10
-5.1119349079
 20
-15.2474680466
 10
-5.1156292097
 20
-15.225986517
 10
-5.1270390622
 20
-15.1991014436
 10
-5.1459072258
 20
-15.1674189613
 10
-5.1721479539
 20
-15.1311411149
 10
-5.2058469931
 20
-15.0900658594
 10
-5.2470043434
 20
-15.0441931951
  0
LINE
  5
3EA
100
AcDbEntity
  8
0
100
AcDbLine
 62
7
  6
CONTINUOUS
 10
10.1202860424
 20
6.662646693
 11
8.3992610658
 21
4.2774929082
  0
LINE
  5
3EB
100
AcDbEntity
  8
0
100
AcDbLine
 62
253
  6
CONTINUOUS
 10
-5.3193234291
 20
-11.3575924233
 11
-5.3211805341
 21
-11.3599874963
  0
LWPOLYLINE
  5
3EC
100
AcDbEntity
  8
SMUSSO
100
AcDbPolyline
 62
7
  6
CONTINUOUS
 90
4
 70
0
 10
-7.6658858075
 20
-11.9614291932
 10
-7.6515266866
 20
-11.9475223074
 10
-7.6198939818
 20
-11.9345391143
 10
-7.6102441916
 20
-11.9327475952
  0
LINE
  5
3ED
100
AcDbEntity
  8
SMUSSO
100
AcDbLine
 62
7
  6
CONTINUOUS
 10
8.3992610658
 20
-0.203727424
 11
8.4084848035
 21
-0.2090530945
  0
LWPOLYLINE
  5
3EE
100
AcDbEntity
  8
RACCORDO
100
AcDbPolyline
 62
253
  6
CONTINUOUS
 90
6
 70
0
 10
-12.2183786279
 20
12.6689332585
 10
-12.2248435783
 20
12.6737872577
 10
-12.231653451
 20
12.6825585233
 10
-12.2363446664
 20
12.6937731749
 10
-12.2387601538
 20
12.7070557214
 10
-12.2388190385
 20
12.7219614343
  0
LINE
  5
3EF
100
AcDbEntity
  8
SMUSSO
100
AcDbLine
 62
7
  6
CONTINUOUS
 10
7.934371185
 20
-4.4435840938
 11
10.4895238474
 21
-7.181794737
  0
LWPOLYLINE
  5
3F0
100
AcDbEntity
  8
ASSI
100
AcDbPolyline
 62
7
  6
CONTINUOUS
 90
19
 70
0
 10
6.9603623139
 20
-4.4998994015
 10
6.9632675854
 20
-4.5032954708
 10
7.0079179394
 20
-4.5511446958
 10
7.0592161072
 20
-4.6025369648
 10
7.1173416109
 20
-4.6575679565
 10
7.1821149283
 20
-4.7161419921
 10
7.2518024814
 20
-4.7766914098
 10
7.3265369775
 20
-4.839269554
 10
7.4061857094
 20
-4.9038230803
 10
7.4886169766
 20
-4.968624293
 10
7.5739059209
 20
-5.0336798807
 10
7.6619774006
 20
-5.0989831548
 10
7.750474291
 20
-5.1627863536
 10
7.8394080803
 20
-5.225048968
 10
7.9287672803
 20
-5.2858115071
 10
8.0161603022
 20
-5.3434477363
 10
8.1007899495
 20
-5.3974155775
 10
8.1834534187
 20
-5.4482571088
 10
8.2641507097
 20
-5.4959723303
  0
LWPOLYLINE
  5
3F1
100
AcDbEntity
  8
0
100
AcDbPolyline
 62
253
  6
CONTINUOUS
 90
4
 70
0
 10
7.5196269311
 20
-23.527948292
 10
7.5179178091
 20
-23.5163811726
 10
7.5157705454
 20
-23.5049515934
 10
7.5131899863
 20
-23.4936853503
  0
LWPOLYLINE
  5
3F2
100
AcDbEntity
  8
RACCORDO
100
AcDbPolyline
 62
253
  6
CONTINUOUS
 90
10
 70
0
 10
1.8909086188
 20
11.0571366553
 10
1.8891830785
 20
11.0715349106
 10
1.8853219623
 20
11.0867154094
 10
1.8794426285
 20
11.1022164217
 10
1.8717238198
 20
11.1175664636
 10
1.8624002739
 20
11.1322985518
 10
1.8517556164
 20
11.1459644251
 10
1.8401136582
 20
11.1581483044
 10
1.8278285215
 20
11.1684795268
 10
1.8152739284
 20
11.1766437486
  0
LINE
  5
3F3
100
AcDbEntity
  8
0
100
AcDbLine
 62
7
  6
CONTINUOUS
 10
3.2703511811
 20
15.0710542932
 11
3.2677582268
 21
15.1071983614
  0
LWPOLYLINE
  5
3F4
100
AcDbEntity
  8
RACCORDO
100
AcDbPolyline
 62
253
  6
CONTINUOUS
 90
9
 70
0
 10
3.9707508688
 20
14.4347621152
 10
3.971108358
 20
14.4263499453
 10
3.9738275825
 20
14.4102402701
 10
3.9792145993
 20
14.3944912401
 10
3.9872288182
 20
14.3792742462
 10
3.9978143659
 20
14.3647668349
 10
4.0108864517
 20
14.3511326661
 10
4.0263223935
 20
14.3385179205
 10
4.0439741718
 20
14.3270683022
  0
LWPOLYLINE
  5
3F5
100
AcDbEntity
  8
0
100
AcDbPolyline
 62
253
  6
CONTINUOUS
 90
18
 70
0
 10
5.0195192879
 20
-25.221171856
 10
5.0197180907
 20
-25.2307347652
 10
5.020314053
 20
-25.2400466066
 10
5.0213058362
 20
-25.2490864349
 10
5.0226912122
 20
-25.2578339217
 10
5.0244670663
 20
-25.2662693848
 10
5.0266294014
 20
-25.2743738346
 10
5.0291733521
 20
-25.2821290386
 10
5.0320931968
 20
-25.2895175587
 10
5.0353823668
 20
-25.2965227747
 10
5.0390334637
 20
-25.3031289325
 10
5.0430382743
 20
-25.309321173
 10
5.0473877865
 20
-25.3150855653
 10
5.0520722152
 20
-25.3204091453
 10
5.0570810232
 20
-25.3252799421
 10
5.0624029418
 20
-25.3296870012
 10
5.0680260022
 20
-25.3336204148
 10
5.0712510821
 20
-25.3355836194
  0
LWPOLYLINE
  5
3F6
100
AcDbEntity
  8
0
100
AcDbPolyline
 62
253
  6
CONTINUOUS
 90
19
 70
0
 10
5.0195192879
 20
14.0357341039
 10
5.0196875838
 20
14.0269266386
 10
5.020192151
 20
14.0183302868
 10
5.0210320289
 20
14.0099614165
 10
5.0222056146
 20
14.0018359837
 10
5.0237106755
 20
13.993969437
 10
5.0255443619
 20
13.986376695
 10
5.0277032059
 20
13.9790721729
 10
5.0301830933
 20
13.9720698391
 10
5.0329792731
 20
13.9653831155
 10
5.0360863956
 20
13.9590247704
 10
5.0394985577
 20
13.9530068621
 10
5.0432092857
 20
13.9473408058
 10
5.0472115465
 20
13.9420373559
 10
5.0514976956
 20
13.9371066564
 10
5.0560595051
 20
13.9325581629
 10
5.0608882346
 20
13.9284005578
 10
5.0659747204
 20
13.9246417006
 10
5.0712393112
 20
13.9213291466
  0
LINE
  5
3F7
100
AcDbEntity
  8
0
100
AcDbLine
 62
253
  6
CONTINUOUS
 10
5.0195192879
 20
-25.221171856
 11
5.0195192879
 21
-24.9006516831
  0
LINE
  5
3F8
100
AcDbEntity
  8
0
100
AcDbLine
 62
253
  6
CONTINUOUS
 10
5.0195192879
 20
14.0357341039
 11
5.0195192879
 21
14.3562542767
  0
LINE
  5
3F9
100
AcDbEntity
  8
0
100
AcDbLine
 62
253
  6
CONTINUOUS
 10
5.3720412476
 20
-25.2217639366
 11
5.3720412476
 21
-24.9012437638
  0
LINE
  5
3FA
100
AcDbEntity
  8
0
100
AcDbLine
 62
253
  6
CONTINUOUS
 10
5.3720412476
 20
14.0351420232
 11
5.3720412476
 21
14.3556621961
  0
LINE
  5
3FB
100
AcDbEntity
  8
RACCORDO
100
AcDbLine
 62
253
  6
CONTINUOUS
 10
5.730739896
 20
13.3531509132
 11
5.730739896
 21
13.837532911
  0
LINE
  5
3FC
100
AcDbEntity
  8
RACCORDO
100
AcDbLine
 62
253
  6
CONTINUOUS
 10
6.0832618557
 20
-24.0239551085
 11
6.0832618557
 21
-23.7807802833
  0
LINE
  5
3FD
100
AcDbEntity
  8
RACCORDO
100
AcDbLine
 62
253
  6
CONTINUOUS
 10
6.0832618557
 20
13.3717020381
 11
6.0832618557
 21
13.9696520104
  0
LINE
  5
3FE
100
AcDbEntity
  8
0
100
AcDbLine
 62
7
  6
CONTINUOUS
 10
6.16014924
 20
23.1691181476
 11
6.16014924
 21
22.7315007353
  0
LWPOLYLINE
  5
3FF
100
AcDbEntity
  8
0
100
AcDbPolyline
 62
253
  6
CONTINUOUS
 90
25
 70
0
 10
5.0195192879
 20
-24.9006516831
 10
5.0196875402
 20
-24.8916510531
 10
5.0201919766
 20
-24.8824732628
 10
5.0210316371
 20
-24.8731357826
 10
5.0222049231
 20
-24.8636563871
 10
5.0237096015
 20
-24.8540531207
 10
5.0255428078
 20
-24.8443442639
 10
5.0277010524
 20
-24.834548298
 10
5.0301802271
 20
-24.8246838702
 10
5.0329756126
 20
-24.8147697579
 10
5.0360818877
 20
-24.8048248333
 10
5.0394931394
 20
-24.7948680271
 10
5.0432028743
 20
-24.7849182926
 10
5.0472040306
 20
-24.7749945697
 10
5.0514889919
 20
-24.7651157488
 10
5.0560496015
 20
-24.7553006348
 10
5.0608771781
 20
-24.7455679113
 10
5.0659625321
 20
-24.7359361051
 10
5.0712959832
 20
-24.7264235508
 10
5.0768673789
 20
-24.7170483563
 10
5.0826661138
 20
-24.7078283677
 10
5.0886811496
 20
-24.6987811357
 10
5.0949010363
 20
-24.6899238823
 10
5.1013139341
 20
-24.6812734678
 10
5.1079076356
 20
-24.6728463587
  0
LWPOLYLINE
  5
400
100
AcDbEntity
  8
0
100
AcDbPolyline
 62
253
  6
CONTINUOUS
 90
34
 70
0
 10
5.0195192879
 20
14.3562542767
 10
5.0197180907
 20
14.3660467584
 10
5.020314053
 20
14.3760468022
 10
5.0213058362
 20
14.3862319168
 10
5.0226912122
 20
14.3965792011
 10
5.0244670663
 20
14.4070653761
 10
5.0266294014
 20
14.4176668362
 10
5.0291733521
 20
14.4283597307
 10
5.0320931968
 20
14.4391200142
 10
5.0353823668
 20
14.4499234814
 10
5.0390334637
 20
14.4607458343
 10
5.0430382743
 20
14.4715627297
 10
5.0473877865
 20
14.4823498297
 10
5.0520722152
 20
14.4930828705
 10
5.0570810232
 20
14.5037377133
 10
5.0624029418
 20
14.5142903906
 10
5.0680260022
 20
14.5247171734
 10
5.0739375529
 20
14.5349946054
 10
5.0801242846
 20
14.5450995534
 10
5.0865722612
 20
14.5550092644
 10
5.0932669945
 20
14.5647014812
 10
5.1001934707
 20
14.5741544683
 10
5.1073361812
 20
14.5833470477
 10
5.1146789986
 20
14.5922584515
 10
5.1222052453
 20
14.6008684517
 10
5.1298978796
 20
14.6091575917
 10
5.1377396922
 20
14.6171073659
 10
5.1457131911
 20
14.6247000553
 10
5.1538016686
 20
14.6319196409
 10
5.1619857399
 20
14.6387487132
 10
5.1702434107
 20
14.6451692237
 10
5.1785548313
 20
14.651166443
 10
5.1869024637
 20
14.6567284146
 10
5.1952675439
 20
14.661843232
  0
LWPOLYLINE
  5
401
100
AcDbEntity
  8
0
100
AcDbPolyline
 62
253
  6
CONTINUOUS
 90
18
 70
0
 10
5.3720412476
 20
-25.2217639366
 10
5.3717929793
 20
-25.2313876819
 10
5.371147171
 20
-25.2407570778
 10
5.3701052856
 20
-25.2498509004
 10
5.3686696832
 20
-25.2586485501
 10
5.3668436157
 20
-25.2671300984
 10
5.3646312197
 20
-25.2752763327
 10
5.3620375066
 20
-25.2830687998
 10
5.3590683518
 20
-25.2904898481
 10
5.3557304812
 20
-25.2975226673
 10
5.3520314557
 20
-25.3041513264
 10
5.3479796544
 20
-25.3103608101
 10
5.3435842557
 20
-25.3161370525
 10
5.338855216
 20
-25.321466969
 10
5.3338032478
 20
-25.3263384863
 10
5.3284397947
 20
-25.3307405693
 10
5.3227770064
 20
-25.3346632463
 10
5.3191141715
 20
-25.3368546545
  0
LWPOLYLINE
  5
402
100
AcDbEntity
  8
0
100
AcDbPolyline
 62
253
  6
CONTINUOUS
 90
22
 70
0
 10
3.0279181435
 20
-25.1247322028
 10
3.0268790722
 20
-25.141392349
 10
3.0252789723
 20
-25.1576890554
 10
3.0231204355
 20
-25.1735959195
 10
3.0204069339
 20
-25.1890871829
 10
3.0171428877
 20
-25.2041377358
 10
3.0133336574
 20
-25.2187231585
 10
3.0089854089
 20
-25.2328198236
 10
3.0041051917
 20
-25.2464048904
 10
2.9987010008
 20
-25.2594563053
 10
2.9927815899
 20
-25.2719529243
 10
2.9863565513
 20
-25.2838745003
 10
2.9794363888
 20
-25.2952016718
 10
2.972032348
 20
-25.3059160703
 10
2.9641563927
 20
-25.316000353
 10
2.9558212791
 20
-25.3254381839
 10
2.9470405384
 20
-25.334214259
 10
2.9378283741
 20
-25.342314371
 10
2.9281996327
 20
-25.3497254358
 10
2.9181699052
 20
-25.3564354509
 10
2.9077554567
 20
-25.3624335372
 10
2.9035300241
 20
-25.364609153
  0
LINE
  5
403
100
AcDbEntity
  8
0
100
AcDbLine
 62
7
  6
CONTINUOUS
 10
13.6016103399
 20
11.2916234085
 11
10.2710495392
 21
6.6758277013
  0
LINE
  5
404
100
AcDbEntity
  8
0
100
AcDbLine
 62
7
  6
CONTINUOUS
 10
12.4317381466
 20
8.2748909159
 11
10.8388612419
 21
6.0673364473
  0
LINE
  5
405
100
AcDbEntity
  8
0
100
AcDbLine
 62
7
  6
CONTINUOUS
 10
8.5219493806
 20
2.8563481292
 11
8.3992610658
 21
2.6863154439
  0
LINE
  5
406
100
AcDbEntity
  8
ASSI
100
AcDbLine
 62
7
  6
CONTINUOUS
 10
14.6808040893
 20
10.9763376984
 11
14.3384998407
 21
10.50194117
  0
LINE
  5
407
100
AcDbEntity
  8
ASSI
100
AcDbLine
 62
7
  6
CONTINUOUS
 10
-3.0846091647
 20
-13.6445964747
 11
-3.3794688438
 21
-14.0532399803
  0
LINE
  5
408
100
AcDbEntity
  8
ASSI
100
AcDbLine
 62
7
  6
CONTINUOUS
 10
16.4880081061
 20
12.1137229803
 11
15.7929345477
 21
11.1504264849
  0
LINE
  5
409
100
AcDbEntity
  8
ASSI
100
AcDbLine
 62
7
  6
CONTINUOUS
 10
-3.2057427154
 20
-15.1796777228
 11
-3.9008162739
 21
-16.1429742182
  0
LWPOLYLINE
  5
40A
100
AcDbEntity
  8
0
100
AcDbPolyline
 62
253
  6
CONTINUOUS
 90
16
 70
0
 10
-3.1422699684
 20
-12.0460027822
 10
-3.1744796754
 20
-12.086839456
 10
-3.210210091
 20
-12.1249921437
 10
-3.2490697454
 20
-12.1600428366
 10
-3.290632884
 20
-12.1916075118
 10
-3.3344441324
 20
-12.2193403401
 10
-3.3800234854
 20
-12.242937475
 10
-3.426871566
 20
-12.2621403812
 10
-3.4744750969
 20
-12.2767386677
 10
-3.5223125238
 20
-12.2865723927
 10
-3.5698597299
 20
-12.2915338157
 10
-3.616595778
 20
-12.2915685783
 10
-3.6620086183
 20
-12.2866762998
 10
-3.705600698
 20
-12.2769105809
 10
-3.7468944133
 20
-12.2623784169
 10
-3.7854373416
 20
-12.2432390252
  0
LINE
  5
40B
100
AcDbEntity
  8
0
100
AcDbLine
 62
7
  6
CONTINUOUS
 10
-7.7799055732
 20
-11.553677802
 11
-7.8009484607
 21
-11.5660805968
  0
LINE
  5
40C
100
AcDbEntity
  8
0
100
AcDbLine
 62
7
  6
CONTINUOUS
 10
8.3992610658
 20
-0.4436057968
 11
6.9603623139
 21
-1.2744051478
  0
LWPOLYLINE
  5
40D
100
AcDbEntity
  8
RACCORDO
100
AcDbPolyline
 62
253
  6
CONTINUOUS
 90
11
 70
0
 10
0.52820025
 20
5.3890803428
 10
0.5149123658
 20
5.3891410475
 10
0.5017850139
 20
5.390026797
 10
0.488842176
 20
5.3917607908
 10
0.4760595237
 20
5.3943196643
 10
0.4636243626
 20
5.3974606461
 10
0.4515805745
 20
5.4011750231
 10
0.4398841054
 20
5.4054714263
 10
0.4285904179
 20
5.4101331298
 10
0.4177179862
 20
5.4150878852
 10
0.4072482809
 20
5.4204079145
  0
LWPOLYLINE
  5
40E
100
AcDbEntity
  8
RACCORDO
100
AcDbPolyline
 62
253
  6
CONTINUOUS
 90
3
 70
0
 10
0.6749525968
 20
5.3202835798
 10
0.6540557879
 20
5.3257981609
 10
0.6467494325
 20
5.3282789585
  0
LWPOLYLINE
  5
40F
100
AcDbEntity
  8
RACCORDO
100
AcDbPolyline
 62
253
  6
CONTINUOUS
 90
12
 70
0
 10
-12.7665943157
 20
13.3769018615
 10
-12.7471625572
 20
13.3668816096
 10
-12.7256992844
 20
13.3581401884
 10
-12.7025636695
 20
13.350823879
 10
-12.6781428698
 20
13.3450551145
 10
-12.6528455493
 20
13.3409304307
 10
-12.6270950396
 20
13.3385188511
 10
-12.6013222563
 20
13.3378607316
 10
-12.5759584878
 20
13.3389670854
 10
-12.551428178
 20
13.341819399
 10
-12.5281418234
 20
13.346369941
 10
-12.5198316127
 20
13.3487389634
  0
LWPOLYLINE
  5
410
100
AcDbEntity
  8
RACCORDO
100
AcDbPolyline
 62
7
  6
CONTINUOUS
 90
11
 70
0
 10
0.4176405631
 20
5.3730541877
 10
0.425636378
 20
5.3685475845
 10
0.4616700944
 20
5.350906894
 10
0.4977504461
 20
5.3375117231
 10
0.533666692
 20
5.3283571408
 10
0.5691500225
 20
5.323442852
 10
0.6038146807
 20
5.3227349436
 10
0.6372082409
 20
5.3261049241
 10
0.6691853642
 20
5.3333911591
 10
0.6997248285
 20
5.3445114693
 10
0.7204338271
 20
5.3546968266
  0
LINE
  5
411
100
AcDbEntity
  8
RACCORDO
100
AcDbLine
 62
253
  6
CONTINUOUS
 10
0.4072482809
 20
5.4204079145
 11
0.397181289
 21
5.4260932115
  0
LINE
  5
412
100
AcDbEntity
  8
RACCORDO
100
AcDbLine
 62
253
  6
CONTINUOUS
 10
0.4370033571
 20
5.1298226013
 11
-12.3159468254
 21
12.4932162047
  0
LINE
  5
413
100
AcDbEntity
  8
RACCORDO
100
AcDbLine
 62
7
  6
CONTINUOUS
 10
0.4176216996
 20
5.3730650357
 11
-12.2183786279
 21
12.6689332585
  0
LINE
  5
414
100
AcDbEntity
  8
RACCORDO
100
AcDbLine
 62
253
  6
CONTINUOUS
 10
0.397181289
 20
5.4260932115
 11
-12.2388190385
 21
12.7219614343
  0
LINE
  5
415
100
AcDbEntity
  8
0
100
AcDbLine
 62
7
  6
CONTINUOUS
 10
14.1745998863
 20
-2.398718995
 11
11.5183851514
 21
-0.8650538972
  0
LWPOLYLINE
  5
416
100
AcDbEntity
  8
RACCORDO
100
AcDbPolyline
 62
253
  6
CONTINUOUS
 90
29
 70
0
 10
-12.2388190385
 20
12.7219614343
 10
-12.2486302301
 20
12.7277372121
 10
-12.2587945858
 20
12.7343024854
 10
-12.2693120935
 20
12.74165726
 10
-12.2802293971
 20
12.7497724764
 10
-12.2914998
 20
12.7586772192
 10
-12.3029832508
 20
12.7684587244
 10
-12.3146987391
 20
12.7791451896
 10
-12.326627114
 20
12.7907084941
 10
-12.3385710594
 20
12.8031514218
 10
-12.3505331087
 20
12.8164967546
 10
-12.3625104128
 20
12.8307218609
 10
-12.3742975194
 20
12.8457614341
 10
-12.3858934457
 20
12.8616397054
 10
-12.3972986878
 20
12.8783326752
 10
-12.4083099674
 20
12.8957027109
 10
-12.4189247081
 20
12.9137834924
 10
-12.4291448565
 20
12.9325416389
 10
-12.4387739364
 20
12.951738919
 10
-12.4477988236
 20
12.9714132609
 10
-12.4562319743
 20
12.9915270527
 10
-12.4639154233
 20
13.0117286866
 10
-12.4708164788
 20
13.0320308389
 10
-12.4769673252
 20
13.0524210725
 10
-12.4823075947
 20
13.0725099743
 10
-12.4867977594
 20
13.0922885642
 10
-12.4904771754
 20
13.1117659022
 10
-12.4934041828
 20
13.1305794534
 10
-12.495543549
 20
13.1486816621
  0
LWPOLYLINE
  5
417
100
AcDbEntity
  8
RACCORDO
100
AcDbPolyline
 62
253
  6
CONTINUOUS
 90
22
 70
0
 10
-12.3159468254
 20
12.4932162047
 10
-12.3417824883
 20
12.5086582431
 10
-12.368160911
 20
12.5265900974
 10
-12.3950819161
 20
12.5470118529
 10
-12.4226596851
 20
12.5697776392
 10
-12.450779291
 20
12.5950336847
 10
-12.4790965037
 20
12.6232184101
 10
-12.5077007176
 20
12.6543724432
 10
-12.5365002935
 20
12.6884562331
 10
-12.5648785603
 20
12.7257883586
 10
-12.5929648776
 20
12.7665131933
 10
-12.6206250753
 20
12.8104886655
 10
-12.6468458829
 20
12.857604309
 10
-12.6717361146
 20
12.9081490578
 10
-12.6951786792
 20
12.9618379226
 10
-12.7158205752
 20
13.0176999625
 10
-12.7336259016
 20
13.0761459926
 10
-12.7486197397
 20
13.1367703219
 10
-12.75954244
 20
13.1973763469
 10
-12.7659726104
 20
13.2572325646
 10
-12.7683245785
 20
13.3170737775
 10
-12.766594321
 20
13.376901859
  0
LINE
  5
418
100
AcDbEntity
  8
RACCORDO
100
AcDbLine
 62
7
  6
CONTINUOUS
 10
-12.2311131267
 20
12.6765671429
 11
-12.2183072964
 21
12.6688922665
  0
LWPOLYLINE
  5
419
100
AcDbEntity
  8
RACCORDO
100
AcDbPolyline
 62
253
  6
CONTINUOUS
 90
8
 70
0
 10
0.9747999463
 20
5.4428058113
 10
0.9577154165
 20
5.4538665311
 10
0.9432734321
 20
5.4658536375
 10
0.9317157195
 20
5.4785664931
 10
0.9232357287
 20
5.4917923131
 10
0.9179753955
 20
5.5053097268
 10
0.9160227661
 20
5.518892483
 10
0.9161410988
 20
5.5238058121
  0
LWPOLYLINE
  5
41A
100
AcDbEntity
  8
RACCORDO
100
AcDbPolyline
 62
253
  6
CONTINUOUS
 90
6
 70
0
 10
0.4176216996
 20
5.3730650357
 10
0.4111567579
 20
5.3779190265
 10
0.4043468826
 20
5.3866902898
 10
0.399655664
 20
5.3979049417
 10
0.3972401743
 20
5.4111874916
 10
0.397181289
 20
5.4260932115
  0
LINE
  5
41B
100
AcDbEntity
  8
SMUSSO
100
AcDbLine
 62
7
  6
CONTINUOUS
 10
8.4084848035
 20
-0.2090530945
 11
10.0775146568
 21
-1.4734198996
  0
LINE
  5
41C
100
AcDbEntity
  8
0
100
AcDbLine
 62
7
  6
CONTINUOUS
 10
11.7837552363
 20
-5.3881305325
 11
11.9156108215
 21
-5.529432605
  0
LWPOLYLINE
  5
41D
100
AcDbEntity
  8
0
100
AcDbPolyline
 62
253
  6
CONTINUOUS
 90
4
 70
0
 10
3.2695983901
 20
15.0894865629
 10
3.268441894
 20
15.0962992838
 10
3.2678460955
 20
15.1031360067
 10
3.2677579128
 20
15.1069695971
  0
LWPOLYLINE
  5
41E
100
AcDbEntity
  8
0
100
AcDbPolyline
 62
7
  6
CONTINUOUS
 90
24
 70
0
 10
6.16014924
 20
23.1691181476
 10
6.159718101
 20
23.1973093808
 10
6.1584366264
 20
23.2249105374
 10
6.1563048162
 20
23.2519216172
 10
6.1533173807
 20
23.2783770481
 10
6.1494796097
 20
23.3042424023
 10
6.1448073727
 20
23.3294143966
 10
6.1392996818
 20
23.3538826287
 10
6.132957525
 20
23.3776575008
 10
6.1257997356
 20
23.4006669363
 10
6.1178196375
 20
23.4229182213
 10
6.1090239069
 20
23.4444040696
 10
6.0994514061
 20
23.4650305455
 10
6.0891051052
 20
23.4847835008
 10
6.077982034
 20
23.5036770836
 10
6.0661121453
 20
23.5216598032
 10
6.0534847249
 20
23.5387394011
 10
6.0401104868
 20
23.5549081357
 10
6.0260515254
 20
23.5700912915
 10
6.0113155073
 20
23.5842751727
 10
5.9958947658
 20
23.597473475
 10
5.9798283953
 20
23.60965257
 10
5.9631020804
 20
23.6208172192
 10
5.9530635449
 20
23.6268496848
  0
LINE
  5
41F
100
AcDbEntity
  8
0
100
AcDbLine
 62
7
  6
CONTINUOUS
 10
6.9603623139
 20
-9.3821017489
 11
6.9603623139
 21
-1.2744051478
  0
LINE
  5
420
100
AcDbEntity
  8
0
100
AcDbLine
 62
7
  6
CONTINUOUS
 10
6.9733220384
 20
15.2802206223
 11
6.9733220384
 21
14.5947782446
  0
LINE
  5
421
100
AcDbEntity
  8
RACCORDO
100
AcDbLine
 62
7
  6
CONTINUOUS
 10
6.9733220384
 20
-23.633152333
 11
6.9733220384
 21
-23.3374400623
  0
LINE
  5
422
100
AcDbEntity
  8
0
100
AcDbLine
 62
7
  6
CONTINUOUS
 10
6.9733220384
 20
-23.633152333
 11
6.9733220384
 21
-24.3185947107
  0
LINE
  5
423
100
AcDbEntity
  8
RACCORDO
100
AcDbLine
 62
7
  6
CONTINUOUS
 10
6.9733220384
 20
13.9332155198
 11
6.9733220384
 21
14.5947782446
  0
LINE
  5
424
100
AcDbEntity
  8
0
100
AcDbLine
 62
253
  6
CONTINUOUS
 10
7.5015892102
 20
15.5852358115
 11
7.5015892102
 21
15.257590511
  0
LINE
  5
425
100
AcDbEntity
  8
0
100
AcDbLine
 62
253
  6
CONTINUOUS
 10
7.5015892102
 20
-23.678795276
 11
7.5015892102
 21
-24.0064405765
  0
LINE
  5
426
100
AcDbEntity
  8
0
100
AcDbLine
 62
7
  6
CONTINUOUS
 10
7.5737870672
 20
15.6867089246
 11
7.5737870672
 21
15.3590636241
  0
LINE
  5
427
100
AcDbEntity
  8
0
100
AcDbLine
 62
7
  6
CONTINUOUS
 10
7.5737870672
 20
-23.577322163
 11
7.5737870672
 21
-23.9049674635
  0
LINE
  5
428
100
AcDbEntity
  8
0
100
AcDbLine
 62
7
  6
CONTINUOUS
 10
7.680737361
 20
12.9530730935
 11
7.680737361
 21
12.7081181933
  0
LINE
  5
429
100
AcDbEntity
  8
0
100
AcDbLine
 62
7
  6
CONTINUOUS
 10
7.680737361
 20
-22.8083526644
 11
7.680737361
 21
-22.5633977642
  0
LINE
  5
42A
100
AcDbEntity
  8
0
100
AcDbLine
 62
253
  6
CONTINUOUS
 10
8.2501240518
 20
20.4658585297
 11
8.2501240518
 21
19.9369067876
  0
LINE
  5
42B
100
AcDbEntity
  8
0
100
AcDbLine
 62
253
  6
CONTINUOUS
 10
8.2501240518
 20
19.6011117785
 11
8.2501240518
 21
19.1612904662
  0
LINE
  5
42C
100
AcDbEntity
  8
0
100
AcDbLine
 62
253
  6
CONTINUOUS
 10
7.5737870672
 20
-23.577322163
 11
7.5737867532
 21
-23.5775509273
  0
LWPOLYLINE
  5
42D
100
AcDbEntity
  8
0
100
AcDbPolyline
 62
253
  6
CONTINUOUS
 90
18
 70
0
 10
7.5015892102
 20
-24.0064405765
 10
7.5014364283
 20
-24.0160104624
 10
7.5008811189
 20
-24.0253287535
 10
7.4999245388
 20
-24.0343743351
 10
7.498568853
 20
-24.0431267149
 10
7.4968171322
 20
-24.0515660547
 10
7.4946733481
 20
-24.0596732171
 10
7.4921423599
 20
-24.0674298292
 10
7.4892299023
 20
-24.0748183199
 10
7.4859425759
 20
-24.0818219463
 10
7.4822878297
 20
-24.0884248408
 10
7.4782739461
 20
-24.0946120422
 10
7.4739100242
 20
-24.1003695278
 10
7.4692059544
 20
-24.1056842533
 10
7.4641723961
 20
-24.1105441792
 10
7.4588207578
 20
-24.1149382945
 10
7.4531631641
 20
-24.1188566473
 10
7.4509725433
 20
-24.1201972351
  0
LWPOLYLINE
  5
42E
100
AcDbEntity
  8
0
100
AcDbPolyline
 62
7
  6
CONTINUOUS
 90
21
 70
0
 10
7.6798116899
 20
-22.8076175254
 10
7.679529637
 20
-22.8238365418
 10
7.6786753121
 20
-22.8397293163
 10
7.6772483811
 20
-22.8552676733
 10
7.6752485578
 20
-22.8704364611
 10
7.6726772732
 20
-22.8851947872
 10
7.6695425624
 20
-22.8994801015
 10
7.6658557055
 20
-22.9132572698
 10
7.6616227352
 20
-22.9265183375
 10
7.6568492059
 20
-22.9392462813
 10
7.65154985
 20
-22.9514109927
 10
7.6457314423
 20
-22.9630048718
 10
7.6393844091
 20
-22.9740410783
 10
7.6325045126
 20
-22.98451551
 10
7.6251117982
 20
-22.9943870479
 10
7.6172338942
 20
-23.0036145011
 10
7.6088879454
 20
-23.0121806217
 10
7.6000865781
 20
-23.0200753979
 10
7.5908569956
 20
-23.0272779134
 10
7.581234367
 20
-23.0337694725
 10
7.5785761473
 20
-23.0353971139
  0
LWPOLYLINE
  5
42F
100
AcDbEntity
  8
0
100
AcDbPolyline
 62
253
  6
CONTINUOUS
 90
3
 70
0
 10
7.5737870672
 20
-23.9049674635
 10
7.5737335056
 20
-23.9079552913
 10
7.5732070782
 20
-23.9147942197
  0
LWPOLYLINE
  5
430
100
AcDbEntity
  8
0
100
AcDbPolyline
 62
253
  6
CONTINUOUS
 90
18
 70
0
 10
7.5737870586
 20
15.6866712358
 10
7.5737335056
 20
15.6837210967
 10
7.5732070782
 20
15.6768821684
 10
7.5721196659
 20
15.6700653324
 10
7.5704737112
 20
15.6632859181
 10
7.568272914
 20
15.6565591757
 10
7.5655222211
 20
15.6499002343
 10
7.5622278173
 20
15.6433240723
 10
7.5583971128
 20
15.636845486
 10
7.5540387232
 20
15.6304790481
 10
7.5491624496
 20
15.6242390773
 10
7.5437792601
 20
15.6181396107
 10
7.537901259
 20
15.6121943643
 10
7.5315416688
 20
15.6064167136
 10
7.524714806
 20
15.6008196641
 10
7.5174360319
 20
15.5954158069
 10
7.5097217158
 20
15.5902172922
 10
7.5015892102
 20
15.5852358115
  0
LWPOLYLINE
  5
431
100
AcDbEntity
  8
0
100
AcDbPolyline
 62
253
  6
CONTINUOUS
 90
18
 70
0
 10
7.5737867532
 20
-23.5775509273
 10
7.5737326443
 20
-23.580333917
 10
7.5732042912
 20
-23.5871724733
 10
7.5721150192
 20
-23.5939888523
 10
7.5704672812
 20
-23.6007677345
 10
7.568264781
 20
-23.6074938899
 10
7.5655124493
 20
-23.6141522409
 10
7.5622164904
 20
-23.6207277631
 10
7.558384399
 20
-23.6272055394
 10
7.5540248869
 20
-23.6335709238
 10
7.5491477412
 20
-23.6398096974
 10
7.543763846
 20
-23.6459079609
 10
7.5378848109
 20
-23.6518524772
 10
7.5315242741
 20
-23.6576293766
 10
7.5246981144
 20
-23.6632244396
 10
7.5174225419
 20
-23.6686248192
 10
7.5097137084
 20
-23.673818939
 10
7.5015892102
 20
-23.678795276
  0
LWPOLYLINE
  5
432
100
AcDbEntity
  8
0
100
AcDbPolyline
 62
7
  6
CONTINUOUS
 90
18
 70
0
 10
6.9733220384
 20
-24.3185947107
 10
6.9731216595
 20
-24.3281913477
 10
6.9725214906
 20
-24.3375349246
 10
6.9715227869
 20
-24.3466043355
 10
6.9701276286
 20
-24.355379142
 10
6.9683391677
 20
-24.363839469
 10
6.9661616218
 20
-24.3719660498
 10
6.9635998632
 20
-24.3797405094
 10
6.9606596023
 20
-24.3871452885
 10
6.957347628
 20
-24.3941635335
 10
6.9536714041
 20
-24.4007793673
 10
6.9496391852
 20
-24.4069778442
 10
6.9452601934
 20
-24.4127448674
 10
6.9405443322
 20
-24.4180673813
 10
6.9355022325
 20
-24.4229333582
 10
6.9301453622
 20
-24.4273317462
 10
6.9244858628
 20
-24.4312525771
 10
6.9222776422
 20
-24.4326041157
  0
LWPOLYLINE
  5
433
100
AcDbEntity
  8
0
100
AcDbPolyline
 62
7
  6
CONTINUOUS
 90
6
 70
0
 10
7.5737867146
 20
15.3593060521
 10
7.5731886747
 20
15.3417787164
 10
7.5693853498
 20
15.3123572696
 10
7.5621044351
 20
15.2835333111
 10
7.5514260679
 20
15.2557172166
 10
7.5374553168
 20
15.2292719483
  0
LWPOLYLINE
  5
434
100
AcDbEntity
  8
0
100
AcDbPolyline
 62
253
  6
CONTINUOUS
 90
3
 70
0
 10
7.5736308507
 20
15.3547379974
 10
7.5732056774
 20
15.349225022
 10
7.5721174421
 20
15.3424089744
  0
LWPOLYLINE
  5
435
100
AcDbEntity
  8
SMUSSO
100
AcDbPolyline
 62
7
  6
CONTINUOUS
 90
10
 70
0
 10
15.7929345477
 20
11.1504264849
 10
15.7978229838
 20
11.1585920161
 10
15.8045596478
 20
11.1896089473
 10
15.79876027
 20
11.2294048108
 10
15.780457838
 20
11.2777566554
 10
15.7497552365
 20
11.3343937578
 10
15.706824803
 20
11.3989988922
 10
15.6519072524
 20
11.4712103538
 10
15.5853102208
 20
11.5506240537
 10
15.5074066499
 20
11.6367956181
  0
LINE
  5
436
100
AcDbEntity
  8
SMUSSO
100
AcDbLine
 62
7
  6
CONTINUOUS
 10
6.9603623139
 20
-2.2159936583
 11
8.1249654715
 21
-0.6019801101
  0
LINE
  5
437
100
AcDbEntity
  8
SMUSSO
100
AcDbLine
 62
7
  6
CONTINUOUS
 10
8.3992610658
 20
-0.2218361936
 11
8.4084848035
 21
-0.2090530945
  0
LWPOLYLINE
  5
438
100
AcDbEntity
  8
0
100
AcDbPolyline
 62
253
  6
CONTINUOUS
 90
13
 70
0
 10
-11.3969449036
 20
-14.8530324074
 10
-11.4262653094
 20
-14.8715468849
 10
-11.4587136935
 20
-14.8876486507
 10
-11.493734785
 20
-14.9010622229
 10
-11.5307293208
 20
-14.911558127
 10
-11.5690642564
 20
-14.9189568082
 10
-11.6080835944
 20
-14.9231317139
 10
-11.6471196785
 20
-14.9240114699
 10
-11.6855046109
 20
-14.9215810856
 10
-11.7225816337
 20
-14.9158822072
 10
-11.7577163951
 20
-14.9070124039
 10
-11.790307801
 20
-14.895123493
 10
-11.8197982879
 20
-14.8804189422
  0
LWPOLYLINE
  5
439
100
AcDbEntity
  8
SMUSSO
100
AcDbPolyline
 62
7
  6
CONTINUOUS
 90
4
 70
0
 10
15.7372929319
 20
11.121744887
 10
15.7469604788
 20
11.1235403636
 10
15.7785875223
 20
11.1365279327
 10
15.7929345477
 20
11.1504264849
  0
LINE
  5
43A
100
AcDbEntity
  8
SMUSSO
100
AcDbLine
 62
7
  6
CONTINUOUS
 10
10.0775146568
 20
-1.4734198996
 11
12.6326673191
 21
-4.2116305429
  0
LINE
  5
43B
100
AcDbEntity
  8
0
100
AcDbLine
 62
7
  6
CONTINUOUS
 10
8.3992610658
 20
2.9878261635
 11
8.5219493806
 21
2.8563481292
  0
LWPOLYLINE
  5
43C
100
AcDbEntity
  8
0
100
AcDbPolyline
 62
7
  6
CONTINUOUS
 90
3
 70
0
 10
3.2891883777
 20
15.0056978483
 10
3.2775824015
 20
15.0375741811
 10
3.2703511811
 20
15.0710542932
  0
LINE
  5
43D
100
AcDbEntity
  8
0
100
AcDbLine
 62
7
  6
CONTINUOUS
 10
8.3809589029
 20
20.5205047018
 11
8.3809589029
 21
19.3436679147
  0
LINE
  5
43E
100
AcDbEntity
  8
0
100
AcDbLine
 62
7
  6
CONTINUOUS
 10
8.3816733148
 20
-22.3917650275
 11
8.3816733148
 21
-21.7116559874
  0
LINE
  5
43F
100
AcDbEntity
  8
0
100
AcDbLine
 62
7
  6
CONTINUOUS
 10
8.3816733148
 20
12.6485664109
 11
8.3816733148
 21
13.3601605601
  0
LINE
  5
440
100
AcDbEntity
  8
0
100
AcDbLine
 62
7
  6
CONTINUOUS
 10
8.3992610658
 20
-21.6903258254
 11
8.3992610658
 21
-8.6083085647
  0
LINE
  5
441
100
AcDbEntity
  8
0
100
AcDbLine
 62
7
  6
CONTINUOUS
 10
8.3992610658
 20
-0.4436057968
 11
8.3992610658
 21
12.6384114639
  0
LINE
  5
442
100
AcDbEntity
  8
0
100
AcDbLine
 62
7
  6
CONTINUOUS
 10
8.420168772
 20
-16.5937018561
 11
8.420168772
 21
-15.0851769302
  0
LINE
  5
443
100
AcDbEntity
  8
0
100
AcDbLine
 62
7
  6
CONTINUOUS
 10
8.8493334644
 20
-13.1846599111
 11
8.8493334644
 21
-13.2144185511
  0
LWPOLYLINE
  5
444
100
AcDbEntity
  8
0
100
AcDbPolyline
 62
7
  6
CONTINUOUS
 90
6
 70
0
 10
7.573787067
 20
-23.9049630891
 10
7.5718770465
 20
-23.9358116226
 10
7.5658548769
 20
-23.9674428626
 10
7.555776422
 20
-23.9981390215
 10
7.5417425456
 20
-24.0274232082
 10
7.5239115783
 20
-24.0548013049
  0
LWPOLYLINE
  5
445
100
AcDbEntity
  8
ASSI
100
AcDbPolyline
 62
7
  6
CONTINUOUS
 90
24
 70
0
 10
8.7301997023
 20
-5.6689676705
 10
8.7350567341
 20
-5.6525312086
 10
8.7311784717
 20
-5.6308645656
 10
8.7186708453
 20
-5.603330121
 10
8.6977607608
 20
-5.5700821663
 10
8.6690078508
 20
-5.5320105421
 10
8.6322003223
 20
-5.4889849866
 10
8.5875499682
 20
-5.4411357616
 10
8.5362518004
 20
-5.3897434927
 10
8.4781262968
 20
-5.334712501
 10
8.4133529794
 20
-5.2761384654
 10
8.3436654263
 20
-5.2155890477
 10
8.2689309301
 20
-5.1530109034
 10
8.1892821983
 20
-5.0884573772
 10
8.106850931
 20
-5.0236561645
 10
8.0215619868
 20
-4.9586005768
 10
7.9334905071
 20
-4.8932973026
 10
7.8449936167
 20
-4.8294941039
 10
7.7560598274
 20
-4.7672314894
 10
7.6667006273
 20
-4.7064689504
 10
7.5793076055
 20
-4.6488327211
 10
7.4946779581
 20
-4.59486488
 10
7.412014489
 20
-4.5440233486
 10
7.331317198
 20
-4.4963081272
  0
LWPOLYLINE
  5
446
100
AcDbEntity
  8
SMUSSO
100
AcDbPolyline
 62
7
  6
CONTINUOUS
 90
9
 70
0
 10
14.6808040893
 20
10.9763376984
 10
14.6875765885
 20
10.99148544
 10
14.6879394717
 20
11.0185381197
 10
14.6780005804
 20
11.0527170368
 10
14.6578243789
 20
11.0938005231
 10
14.6275417312
 20
11.1415221217
 10
14.5873490474
 20
11.195572328
 10
14.5375070026
 20
11.2556006014
 10
14.4783388527
 20
11.3212176292
  0
LWPOLYLINE
  5
447
100
AcDbEntity
  8
ASSI
100
AcDbPolyline
 62
7
  6
CONTINUOUS
 90
9
 70
0
 10
16.4878388962
 20
12.1138450607
 10
16.4974352397
 20
12.135256668
 10
16.4980708456
 20
12.1732362622
 10
16.4839608416
 20
12.2214161196
 10
16.4553854529
 20
12.2796023944
 10
16.4128946938
 20
12.3466751272
 10
16.3566719024
 20
12.4222609981
 10
16.2865337406
 20
12.5067333268
 10
16.2024802084
 20
12.6000921135
  0
LWPOLYLINE
  5
448
100
AcDbEntity
  8
0
100
AcDbPolyline
 62
253
  6
CONTINUOUS
 90
10
 70
0
 10
-0.0800082432
 20
-22.1709776083
 10
-0.0925246526
 20
-22.1962501765
 10
-0.1035118512
 20
-22.221922019
 10
-0.112871945
 20
-22.247764422
 10
-0.1205215347
 20
-22.2735471476
 10
-0.1263924625
 20
-22.2990404942
 10
-0.1304324165
 20
-22.3240173427
 10
-0.1326053946
 20
-22.3482551666
 10
-0.1328920274
 20
-22.3715380158
 10
-0.1312897523
 20
-22.3936584492
  0
LINE
  5
449
100
AcDbEntity
  8
0
100
AcDbLine
 62
253
  6
CONTINUOUS
 10
0.2337912308
 20
-21.5787445214
 11
-0.0800082432
 21
-22.1709776083
  0
LWPOLYLINE
  5
44A
100
AcDbEntity
  8
ASSI
100
AcDbPolyline
 62
7
  6
CONTINUOUS
 90
22
 70
0
 10
16.1567630022
 20
8.5534127652
 10
16.0717728891
 20
8.4297938928
 10
15.9926251453
 20
8.3034437081
 10
15.9193197707
 20
8.174362211
 10
15.8515134414
 20
8.0417997788
 10
15.7895494813
 20
7.9065060342
 10
15.7344578625
 20
7.7707298453
 10
15.6863534542
 20
7.6344631481
 10
15.6451213872
 20
7.4977140065
 10
15.6114470256
 20
7.3627554804
 10
15.5854566943
 20
7.2296174993
 10
15.5670240684
 20
7.0982701337
 10
15.556455537
 20
6.9708966544
 10
15.5538825464
 20
6.8475634839
 10
15.5591736504
 20
6.7282041996
 10
15.5722408996
 20
6.6148028053
 10
15.5932142702
 20
6.5074588854
 10
15.6219637861
 20
6.4060728554
 10
15.6580115694
 20
6.3123299655
 10
15.7011983277
 20
6.2267919656
 10
15.7516833536
 20
6.1488971058
 10
15.8094666469
 20
6.0786453861
  0
LINE
  5
44B
100
AcDbEntity
  8
0
100
AcDbLine
 62
7
  6
CONTINUOUS
 10
9.7504622003
 20
-1.2256626358
 11
14.7144533759
 21
5.6538902473
  0
LINE
  5
44C
100
AcDbEntity
  8
0
100
AcDbLine
 62
7
  6
CONTINUOUS
 10
10.0742440911
 20
-1.4710599992
 11
15.0680067665
 21
5.4497529506
  0
LINE
  5
44D
100
AcDbEntity
  8
SMUSSO
100
AcDbLine
 62
7
  6
CONTINUOUS
 10
7.934371185
 20
-4.4435840938
 11
10.0775146568
 21
-1.4734198996
  0
LINE
  5
44E
100
AcDbEntity
  8
ASSI
100
AcDbLine
 62
7
  6
CONTINUOUS
 10
16.2150464346
 20
5.6440087761
 11
10.6425216988
 21
-2.0789055595
  0
LWPOLYLINE
  5
44F
100
AcDbEntity
  8
0
100
AcDbPolyline
 62
253
  6
CONTINUOUS
 90
16
 70
0
 10
-3.2630858163
 20
-11.5323405762
 10
-3.3016098708
 20
-11.5463310895
 10
-3.3435854525
 20
-11.5579317489
 10
-3.3885526683
 20
-11.5670154551
 10
-3.436018848
 20
-11.5734826852
 10
-3.485463942
 20
-11.5772625827
 10
-3.5363462198
 20
-11.5783137344
 10
-3.5881082043
 20
-11.5766246237
 10
-3.6401827805
 20
-11.5722137567
 10
-3.6919994085
 20
-11.5651294598
 10
-3.7429903743
 20
-11.5554493502
 10
-3.7925970103
 20
-11.5432794851
 10
-3.8402758158
 20
-11.5287531999
 10
-3.8855044118
 20
-11.5120296475
 10
-3.9277872642
 20
-11.4932920548
 10
-3.9666611134
 20
-11.4727457147
  0
LINE
  5
450
100
AcDbEntity
  8
SMUSSO
100
AcDbLine
 62
7
  6
CONTINUOUS
 10
14.6691645038
 20
10.9602064964
 11
15.7372929319
 21
11.121744887
  0
LWPOLYLINE
  5
451
100
AcDbEntity
  8
RACCORDO
100
AcDbPolyline
 62
253
  6
CONTINUOUS
 90
3
 70
0
 10
1.438756329
 20
10.5169541271
 10
1.4283641544
 20
10.5217508332
 10
1.416012721
 20
10.5275520191
  0
LWPOLYLINE
  5
452
100
AcDbEntity
  8
RACCORDO
100
AcDbPolyline
 62
253
  6
CONTINUOUS
 90
7
 70
0
 10
1.416012721
 20
10.5275520191
 10
1.3871112205
 20
10.541331953
 10
1.3714929052
 20
10.5488615987
 10
1.3558316795
 20
10.5566834794
 10
1.3406346959
 20
10.5646140408
 10
1.326330815
 20
10.5723610869
 10
1.3133395924
 20
10.5796983677
  0
LWPOLYLINE
  5
453
100
AcDbEntity
  8
RACCORDO
100
AcDbPolyline
 62
253
  6
CONTINUOUS
 90
11
 70
0
 10
-12.3132627585
 20
17.8760134794
 10
-12.2938433484
 20
17.8658859272
 10
-12.2724087298
 20
17.8568715581
 10
-12.2493176114
 20
17.8491212278
 10
-12.2249564229
 20
17.842764638
 10
-12.1997328491
 20
17.8379081663
 10
-12.1740690066
 20
17.8346330853
 10
-12.1483943799
 20
17.8329942037
 10
-12.1231386339
 20
17.833018948
 10
-12.0987244237
 20
17.8347069042
 10
-12.0785204126
 20
17.8376051954
  0
LINE
  5
454
100
AcDbEntity
  8
RACCORDO
100
AcDbLine
 62
253
  6
CONTINUOUS
 10
-12.8948862998
 20
18.2118212008
 11
-12.3132774687
 21
17.876007551
  0
LINE
  5
455
100
AcDbEntity
  8
RACCORDO
100
AcDbLine
 62
253
  6
CONTINUOUS
 10
-12.0593922515
 20
17.7294174085
 11
1.1586995113
 21
10.0974568863
  0
LINE
  5
456
100
AcDbEntity
  8
RACCORDO
100
AcDbLine
 62
253
  6
CONTINUOUS
 10
1.4125847286
 20
9.9508667437
 11
1.9941935596
 21
9.615053094
  0
LWPOLYLINE
  5
457
100
AcDbEntity
  8
RACCORDO
100
AcDbPolyline
 62
253
  6
CONTINUOUS
 90
8
 70
0
 10
1.4125847317
 20
9.950866745
 10
1.3954904286
 20
9.9618219341
 10
1.3810227201
 20
9.9735375892
 10
1.3694237505
 20
9.9858176266
 10
1.3608876506
 20
9.9984565167
 10
1.355557288
 20
10.0112427239
 10
1.3535218764
 20
10.0239622466
 10
1.3538164148
 20
10.0308089591
  0
LWPOLYLINE
  5
458
100
AcDbEntity
  8
RACCORDO
100
AcDbPolyline
 62
253
  6
CONTINUOUS
 90
11
 70
0
 10
-11.6418368779
 20
18.9466108701
 10
-11.6236490016
 20
18.9343987709
 10
-11.6056454709
 20
18.9196814787
 10
-11.5881339736
 20
18.902710518
 10
-11.5714137885
 20
18.8837759296
 10
-11.5557706703
 20
18.8632013134
 10
-11.5414719658
 20
18.8413382987
 10
-11.5287620457
 20
18.8185605335
 10
-11.5178581277
 20
18.795257299
 10
-11.5089465642
 20
18.7718268572
 10
-11.5063732602
 20
18.7630206843
  0
LINE
  5
459
100
AcDbEntity
  8
0
100
AcDbLine
 62
7
  6
CONTINUOUS
 10
14.1745998863
 20
-2.398718995
 11
14.8235275466
 21
-3.094137571
  0
LWPOLYLINE
  5
45A
100
AcDbEntity
  8
0
100
AcDbPolyline
 62
253
  6
CONTINUOUS
 90
15
 70
0
 10
-4.8020687825
 20
22.3615684349
 10
-4.7980993664
 20
22.3557302252
 10
-4.7945387338
 20
22.3501325684
 10
-4.7913951866
 20
22.3447882472
 10
-4.788675909
 20
22.3397091205
 10
-4.7863875718
 20
22.3349072369
 10
-4.7845359934
 20
22.3303945969
 10
-4.7831254497
 20
22.3261817157
 10
-4.7821589567
 20
22.3222777247
 10
-4.7816386896
 20
22.318691366
 10
-4.7815658516
 20
22.3154307122
 10
-4.7819406441
 20
22.3125031934
 10
-4.7827622268
 20
22.3099154867
 10
-4.7840287343
 20
22.3076734485
 10
-4.7843563138
 20
22.3072403019
  0
LWPOLYLINE
  5
45B
100
AcDbEntity
  8
0
100
AcDbPolyline
 62
7
  6
CONTINUOUS
 90
7
 70
0
 10
13.3267204485
 20
17.8900891228
 10
13.3252760257
 20
17.8649843158
 10
13.3210375512
 20
17.8425495186
 10
13.3140050251
 20
17.8227847314
 10
13.3038556678
 20
17.805337462
 10
13.2909122588
 20
17.7905602026
 10
13.2864932169
 20
17.7866943758
  0
LWPOLYLINE
  5
45C
100
AcDbEntity
  8
0
100
AcDbPolyline
 62
253
  6
CONTINUOUS
 90
16
 70
0
 10
7.5732070782
 20
-23.9147942197
 10
7.5721196659
 20
-23.9216110556
 10
7.5704737112
 20
-23.92839047
 10
7.568272914
 20
-23.9351172123
 10
7.5655222211
 20
-23.9417761537
 10
7.5622278173
 20
-23.9483523157
 10
7.5583971128
 20
-23.9548309021
 10
7.5540387232
 20
-23.9611973399
 10
7.5491624496
 20
-23.9674373107
 10
7.5437792601
 20
-23.9735367773
 10
7.537901259
 20
-23.9794820237
 10
7.5315416688
 20
-23.9852596744
 10
7.524714806
 20
-23.990856724
 10
7.5174360319
 20
-23.9962605811
 10
7.5097217158
 20
-24.0014590958
 10
7.5015892102
 20
-24.0064405765
  0
LINE
  5
45D
100
AcDbEntity
  8
0
100
AcDbLine
 62
7
  6
CONTINUOUS
 10
0.2359853036
 20
-22.0251684778
 11
0.2362090753
 21
-22.02474578
  0
LINE
  5
45E
100
AcDbEntity
  8
0
100
AcDbLine
 62
7
  6
CONTINUOUS
 10
9.3928746828
 20
-7.3810728529
 11
9.6637377331
 21
-7.0056860698
  0
LINE
  5
45F
100
AcDbEntity
  8
0
100
AcDbLine
 62
7
  6
CONTINUOUS
 10
7.7092549734
 20
-8.2099076948
 11
6.9603623139
 21
-8.6126379319
  0
LINE
  5
460
100
AcDbEntity
  8
0
100
AcDbLine
 62
7
  6
CONTINUOUS
 10
8.3992610658
 20
-8.6083085647
 11
6.9603623139
 21
-9.3821017489
  0
LWPOLYLINE
  5
461
100
AcDbEntity
  8
SMUSSO
100
AcDbPolyline
 62
7
  6
CONTINUOUS
 90
4
 70
0
 10
11.2825202104
 20
13.6938748249
 10
11.2921877573
 20
13.6956703016
 10
11.3238148008
 20
13.7086578707
 10
11.3381618262
 20
13.7225564229
  0
LINE
  5
462
100
AcDbEntity
  8
SMUSSO
100
AcDbLine
 62
7
  6
CONTINUOUS
 10
10.2143917823
 20
13.5323364344
 11
11.2825202104
 21
13.6938748249
  0
LWPOLYLINE
  5
463
100
AcDbEntity
  8
RACCORDO
100
AcDbPolyline
 62
253
  6
CONTINUOUS
 90
8
 70
0
 10
2.0655315055
 20
11.0321481593
 10
2.046826918
 20
11.0412371389
 10
2.0285686813
 20
11.0474565257
 10
2.0110688519
 20
11.0507000856
 10
1.9946264842
 20
11.0509124478
 10
1.9795226078
 20
11.048090045
 10
1.9660154005
 20
11.0422812242
 10
1.9629152497
 20
11.0403725887
  0
LINE
  5
464
100
AcDbEntity
  8
RACCORDO
100
AcDbLine
 62
253
  6
CONTINUOUS
 10
-12.2384719328
 20
19.2911004732
 11
-11.6418368779
 21
18.9466108701
  0
LINE
  5
465
100
AcDbEntity
  8
RACCORDO
100
AcDbLine
 62
253
  6
CONTINUOUS
 10
-11.3915793002
 20
18.8021152812
 11
1.8152739278
 21
11.1766437482
  0
LINE
  5
466
100
AcDbEntity
  8
RACCORDO
100
AcDbLine
 62
253
  6
CONTINUOUS
 10
2.0655315055
 20
11.0321481593
 11
2.6621665604
 21
10.6876585562
  0
LINE
  5
467
100
AcDbEntity
  8
0
100
AcDbLine
 62
7
  6
CONTINUOUS
 10
10.8388612419
 20
6.0673364473
 11
10.4853078514
 21
6.2714737439
  0
LINE
  5
468
100
AcDbEntity
  8
0
100
AcDbLine
 62
7
  6
CONTINUOUS
 10
10.1202860424
 20
6.662646693
 11
8.3992610658
 21
7.656344945
  0
LINE
  5
469
100
AcDbEntity
  8
0
100
AcDbLine
 62
7
  6
CONTINUOUS
 10
8.3992610658
 20
7.7565749068
 11
10.2710495392
 21
6.6758277013
  0
LINE
  5
46A
100
AcDbEntity
  8
RACCORDO
100
AcDbLine
 62
7
  6
CONTINUOUS
 10
-10.2149982062
 20
19.8270442317
 11
3.4434135942
 21
11.9408484383
  0
LINE
  5
46B
100
AcDbEntity
  8
0
100
AcDbLine
 62
7
  6
CONTINUOUS
 10
15.0680067665
 20
5.4497529506
 11
14.7144533759
 21
5.6538902473
  0
LWPOLYLINE
  5
46C
100
AcDbEntity
  8
0
100
AcDbPolyline
 62
253
  6
CONTINUOUS
 90
3
 70
0
 10
-8.9213078284
 20
22.0015453265
 10
-8.9162213426
 20
21.9977864693
 10
-8.9109061199
 20
21.9944446574
  0
LINE
  5
46D
100
AcDbEntity
  8
0
100
AcDbLine
 62
7
  6
CONTINUOUS
 10
10.4853078514
 20
6.2714737439
 11
10.1202860424
 21
6.662646693
  0
LINE
  5
46E
100
AcDbEntity
  8
0
100
AcDbLine
 62
7
  6
CONTINUOUS
 10
10.2710495392
 20
6.6758277013
 11
10.8388612419
 21
6.0673364473
  0
LWPOLYLINE
  5
46F
100
AcDbEntity
  8
0
100
AcDbPolyline
 62
7
  6
CONTINUOUS
 90
3
 70
0
 10
2.7905122899
 20
23.7483564707
 10
2.7902672281
 20
23.7489324464
 10
2.7901126022
 20
23.7490437817
  0
LWPOLYLINE
  5
470
100
AcDbEntity
  8
0
100
AcDbPolyline
 62
7
  6
CONTINUOUS
 90
21
 70
0
 10
13.7783403606
 20
-15.833540061
 10
13.7781353927
 20
-15.8252665736
 10
13.7771710477
 20
-15.8137884669
 10
13.7754125583
 20
-15.8023418052
 10
13.7728636817
 20
-15.7909264397
 10
13.7695365147
 20
-15.7795965469
 10
13.7654273576
 20
-15.7683525333
 10
13.7605399101
 20
-15.7571939924
 10
13.7548973677
 20
-15.7461738822
 10
13.748496141
 20
-15.7352928606
 10
13.7413398195
 20
-15.7245502696
 10
13.7334623666
 20
-15.7139970929
 10
13.7248603544
 20
-15.7036342309
 10
13.7155372108
 20
-15.6934607832
 10
13.7055371829
 20
-15.6835250324
 10
13.6948570531
 20
-15.6738281084
 10
13.683500039
 20
-15.6643688813
 10
13.6715200403
 20
-15.655192244
 10
13.6589350236
 20
-15.6463131609
 10
13.6457270224
 20
-15.6377166677
 10
13.6318960365
 20
-15.6294027643
  0
LINE
  5
471
100
AcDbEntity
  8
0
100
AcDbLine
 62
7
  6
CONTINUOUS
 10
13.3267204485
 20
-15.4531982045
 11
13.3267204485
 21
-14.6680279619
  0
LINE
  5
472
100
AcDbEntity
  8
0
100
AcDbLine
 62
7
  6
CONTINUOUS
 10
13.3267204485
 20
17.8900891228
 11
13.3267204485
 21
17.9082517527
  0
LINE
  5
473
100
AcDbEntity
  8
DRAFT
100
AcDbLine
 62
253
  6
CONTINUOUS
 10
13.6380125461
 20
-16.4861920969
 11
13.6380125461
 21
-16.0340835795
  0
LINE
  5
474
100
AcDbEntity
  8
DRAFT
100
AcDbLine
 62
253
  6
CONTINUOUS
 10
13.6380125461
 20
18.0943739905
 11
13.6380125461
 21
18.546482508
  0
LINE
  5
475
100
AcDbEntity
  8
0
100
AcDbLine
 62
7
  6
CONTINUOUS
 10
13.778342646
 20
-16.4016810223
 11
13.778342646
 21
-15.833540061
  0
LINE
  5
476
100
AcDbEntity
  8
0
100
AcDbLine
 62
7
  6
CONTINUOUS
 10
13.778342646
 20
18.294917509
 11
13.778342646
 21
18.8630584703
  0
LINE
  5
477
100
AcDbEntity
  8
SMUSSO
100
AcDbLine
 62
7
  6
CONTINUOUS
 10
12.6326673191
 20
-4.2116305429
 11
10.4895238474
 21
-7.181794737
  0
LINE
  5
478
100
AcDbEntity
  8
ASSI
100
AcDbLine
 62
7
  6
CONTINUOUS
 10
8.3992610658
 20
-10.3120690864
 11
8.6940889856
 21
-9.9034695959
  0
LINE
  5
479
100
AcDbEntity
  8
0
100
AcDbLine
 62
7
  6
CONTINUOUS
 10
11.9156108215
 20
-5.529432605
 11
14.1745998863
 21
-2.398718995
  0
LINE
  5
47A
100
AcDbEntity
  8
ASSI
100
AcDbLine
 62
7
  6
CONTINUOUS
 10
9.3794629888
 20
-10.2991959556
 11
8.3992610658
 21
-11.657649411
  0
LINE
  5
47B
100
AcDbEntity
  8
0
100
AcDbLine
 62
7
  6
CONTINUOUS
 10
14.8235275466
 20
-3.094137571
 11
9.552553062
 21
-10.3991359945
  0
LWPOLYLINE
  5
47C
100
AcDbEntity
  8
0
100
AcDbPolyline
 62
7
  6
CONTINUOUS
 90
37
 70
0
 10
5.8011318292
 20
13.831050171
 10
5.8080599878
 20
13.8305278507
 10
5.8165261431
 20
13.8301992114
 10
5.8250691644
 20
13.8301898776
 10
5.8336758415
 20
13.8304995673
 10
5.8423332945
 20
13.8311274448
 10
5.8510313716
 20
13.8320585063
 10
5.8597576503
 20
13.8332916877
 10
5.8685000492
 20
13.8348255786
 10
5.8772494341
 20
13.8366445853
 10
5.8859942419
 20
13.8387469949
 10
5.8947232037
 20
13.8411309014
 10
5.9034281023
 20
13.8437804094
 10
5.9120982521
 20
13.8466932737
 10
5.920723208
 20
13.8498671585
 10
5.9292955466
 20
13.8532860595
 10
5.9378054543
 20
13.8569472944
 10
5.9462433094
 20
13.8608481547
 10
5.9546023632
 20
13.8649726444
 10
5.9628736562
 20
13.8693177191
 10
5.9710483839
 20
13.8738803473
 10
5.979120374
 20
13.8786446082
 10
5.9870814992
 20
13.8836071516
 10
5.9949237647
 20
13.8887646691
 10
6.0026415092
 20
13.894101354
 10
6.0102274162
 20
13.8996135944
 10
6.0176742947
 20
13.9052978469
 10
6.0249769615
 20
13.9111384519
 10
6.032128891
 20
13.9171315673
 10
6.0391236945
 20
13.9232734584
 10
6.0459566723
 20
13.9295486588
 10
6.0526220764
 20
13.9359531264
 10
6.0591143168
 20
13.942482976
 10
6.0654292061
 20
13.9491230014
 10
6.0715620549
 20
13.9558654219
 10
6.0775077587
 20
13.9627098207
 10
6.0832618557
 20
13.9696520104
  0
LINE
  5
47D
100
AcDbEntity
  8
0
100
AcDbLine
 62
7
  6
CONTINUOUS
 10
8.3816733148
 20
12.6485664109
 11
7.680737361
 21
12.7081181933
  0
LINE
  5
47E
100
AcDbEntity
  8
0
100
AcDbLine
 62
7
  6
CONTINUOUS
 10
5.1733726728
 20
13.8888559269
 11
5.8011316241
 21
13.8310511595
  0
LINE
  5
47F
100
AcDbEntity
  8
0
100
AcDbLine
 62
7
  6
CONTINUOUS
 10
8.3992610658
 20
12.6384114639
 11
7.7157841587
 21
12.7051406042
  0
LWPOLYLINE
  5
480
100
AcDbEntity
  8
0
100
AcDbPolyline
 62
7
  6
CONTINUOUS
 90
9
 70
0
 10
5.1733726728
 20
13.8888559269
 10
5.1599865668
 20
13.8904535789
 10
5.1466167513
 20
13.892788537
 10
5.1333189778
 20
13.8958649569
 10
5.1200946885
 20
13.8996990738
 10
5.1070652053
 20
13.9042693109
 10
5.0944459549
 20
13.909490309
 10
5.082320243
 20
13.9152953901
 10
5.0712393112
 20
13.9213291466
  0
LWPOLYLINE
  5
481
100
AcDbEntity
  8
RACCORDO
100
AcDbPolyline
 62
253
  6
CONTINUOUS
 90
16
 70
0
 10
5.5967199617
 20
13.1126992162
 10
5.6329117641
 20
13.0942358447
 10
5.671169388
 20
13.0785417257
 10
5.7114928333
 20
13.0656168593
 10
5.7543599479
 20
13.0554115509
 10
5.7992928839
 20
13.047975495
 10
5.8448580978
 20
13.0434577758
 10
5.8910165873
 20
13.041926915
 10
5.9378073546
 20
13.0433143909
 10
5.9839138625
 20
13.0475637228
 10
6.0293524837
 20
13.0547401227
 10
6.0741068455
 20
13.0647783788
 10
6.1168112924
 20
13.0774263738
 10
6.1570106061
 20
13.092600069
 10
6.195160005
 20
13.1103835033
 10
6.2312594891
 20
13.1307766766
  0
LINE
  5
482
100
AcDbEntity
  8
DRAFT
100
AcDbLine
 62
7
  6
CONTINUOUS
 10
-4.7292951902
 20
17.6049405011
 11
-0.4866545031
 21
15.1552929411
  0
LINE
  5
483
100
AcDbEntity
  8
RACCORDO
100
AcDbLine
 62
253
  6
CONTINUOUS
 10
-8.3937037552
 20
21.1905945292
 11
-6.7069380309
 21
20.2166771401
  0
LINE
  5
484
100
AcDbEntity
  8
RACCORDO
100
AcDbLine
 62
253
  6
CONTINUOUS
 10
3.9099542375
 20
14.0866166053
 11
5.5967199617
 21
13.1126992162
  0
LINE
  5
485
100
AcDbEntity
  8
0
100
AcDbLine
 62
7
  6
CONTINUOUS
 10
1.8759824735
 20
15.423879265
 11
1.2104017717
 21
15.8081772205
  0
LINE
  5
486
100
AcDbEntity
  8
0
100
AcDbLine
 62
7
  6
CONTINUOUS
 10
-3.7393456966
 20
18.6660993738
 11
-4.4049263983
 21
19.0503973293
  0
LWPOLYLINE
  5
487
100
AcDbEntity
  8
0
100
AcDbPolyline
 62
253
  6
CONTINUOUS
 90
15
 70
0
 10
-8.9626767751
 20
22.1088788726
 10
-8.9708588428
 20
22.1138326379
 10
-8.9786249571
 20
22.1190048047
 10
-8.9859576529
 20
22.1243837413
 10
-8.9928404318
 20
22.1299573443
 10
-8.9992578241
 20
22.1357130855
 10
-9.0051954177
 20
22.141638042
 10
-9.0106398665
 20
22.1477189051
 10
-9.0155789066
 20
22.1539419872
 10
-9.0200014104
 20
22.160293272
 10
-9.0238974277
 20
22.1667584681
 10
-9.027258202
 20
22.173323043
 10
-9.0300761751
 20
22.179972233
 10
-9.0323450093
 20
22.1866910844
 10
-9.0340596025
 20
22.1934644868
  0
LWPOLYLINE
  5
488
100
AcDbEntity
  8
0
100
AcDbPolyline
 62
7
  6
CONTINUOUS
 90
6
 70
0
 10
-8.9106729687
 20
21.9943105401
 10
-8.9307688723
 20
22.0072019368
 10
-8.9565083101
 20
22.0282117643
 10
-8.9793791433
 20
22.0526255326
 10
-8.9988182837
 20
22.0799293123
 10
-9.0144696149
 20
22.1096757722
  0
LWPOLYLINE
  5
489
100
AcDbEntity
  8
0
100
AcDbPolyline
 62
7
  6
CONTINUOUS
 90
6
 70
0
 10
3.3929850239
 20
14.8903326162
 10
3.3728891203
 20
14.9032240129
 10
3.3471496826
 20
14.9242338403
 10
3.3242788493
 20
14.9486476087
 10
3.3048397089
 20
14.9759513884
 10
3.2891883777
 20
15.0056978483
  0
LWPOLYLINE
  5
48A
100
AcDbEntity
  8
RACCORDO
100
AcDbPolyline
 62
253
  6
CONTINUOUS
 90
13
 70
0
 10
-6.0723985036
 20
20.2347546005
 10
-6.0908100455
 20
20.2468367786
 10
-6.1090332741
 20
20.2614283124
 10
-6.1267565056
 20
20.2782796334
 10
-6.1436766081
 20
20.2971025225
 10
-6.1595041858
 20
20.3175750395
 10
-6.1739685294
 20
20.3393470295
 10
-6.1868222458
 20
20.362046112
 10
-6.1978454894
 20
20.3852840497
 10
-6.2068497226
 20
20.4086633889
 10
-6.2136809399
 20
20.4317842575
 10
-6.2182223027
 20
20.4542512042
 10
-6.220396137
 20
20.475679962
  0
LWPOLYLINE
  5
48B
100
AcDbEntity
  8
RACCORDO
100
AcDbPolyline
 62
253
  6
CONTINUOUS
 90
13
 70
0
 10
6.2312594891
 20
13.1307766766
 10
6.2128479472
 20
13.1428588547
 10
6.1946247186
 20
13.1574503885
 10
6.176901487
 20
13.1743017095
 10
6.1599813846
 20
13.1931245986
 10
6.1441538068
 20
13.2135971156
 10
6.1296894632
 20
13.2353691056
 10
6.1168357468
 20
13.2580681881
 10
6.1058125032
 20
13.2813061258
 10
6.0968082701
 20
13.304685465
 10
6.0899770527
 20
13.3278063336
 10
6.08543569
 20
13.3502732803
 10
6.0832618557
 20
13.3717020381
  0
LWPOLYLINE
  5
48C
100
AcDbEntity
  8
0
100
AcDbPolyline
 62
253
  6
CONTINUOUS
 90
3
 70
0
 10
3.3823501642
 20
14.8975674026
 10
3.38743665
 20
14.8938085454
 10
3.3927518728
 20
14.8904667334
  0
LINE
  5
48D
100
AcDbEntity
  8
SMUSSO
100
AcDbLine
 62
7
  6
CONTINUOUS
 10
11.506517584
 20
13.242237272
 11
11.3231121844
 21
14.3068289543
  0
LWPOLYLINE
  5
48E
100
AcDbEntity
  8
0
100
AcDbPolyline
 62
253
  6
CONTINUOUS
 90
14
 70
0
 10
7.5015892102
 20
-23.678795276
 10
7.5055619239
 20
-23.6678473459
 10
7.5091243825
 20
-23.6566951058
 10
7.5122685458
 20
-23.6453637257
 10
7.5149873175
 20
-23.6338787798
 10
7.5172745615
 20
-23.622266189
 10
7.5191251157
 20
-23.6105521621
 10
7.5205348034
 20
-23.5987631371
 10
7.5215004431
 20
-23.5869257211
 10
7.5220198554
 20
-23.5750666304
 10
7.5220918681
 20
-23.5632126304
 10
7.5217163184
 20
-23.5513904747
 10
7.5208940542
 20
-23.5396268453
 10
7.5196269311
 20
-23.527948292
  0
LINE
  5
48F
100
AcDbEntity
  8
0
100
AcDbLine
 62
7
  6
CONTINUOUS
 10
8.3992610658
 20
-13.7334530055
 11
8.6445418006
 21
-13.5817677199
  0
LINE
  5
490
100
AcDbEntity
  8
0
100
AcDbLine
 62
7
  6
CONTINUOUS
 10
8.3992610658
 20
-11.8886185273
 11
8.9805690023
 21
-11.5410532187
  0
LWPOLYLINE
  5
491
100
AcDbEntity
  8
0
100
AcDbPolyline
 62
253
  6
CONTINUOUS
 90
37
 70
0
 10
1.9828098517
 20
-15.8523313668
 10
1.9669749723
 20
-15.8611216117
 10
1.9505230147
 20
-15.869508917
 10
1.9334846044
 20
-15.8774776695
 10
1.9158914583
 20
-15.8850130355
 10
1.8977763262
 20
-15.8921009878
 10
1.8791729295
 20
-15.8987283321
 10
1.8601158986
 20
-15.9048827317
 10
1.8406407081
 20
-15.91055273
 10
1.8207836112
 20
-15.9157277724
 10
1.8005815721
 20
-15.9203982255
 10
1.7800721969
 20
-15.9245553952
 10
1.7592936638
 20
-15.9281915429
 10
1.7382846523
 20
-15.9312998999
 10
1.7170842707
 20
-15.93387468
 10
1.6957319836
 20
-15.9359110903
 10
1.6742675384
 20
-15.9374053399
 10
1.6527308913
 20
-15.9383546473
 10
1.6311621327
 20
-15.9387572454
 10
1.6096014132
 20
-15.9386123847
 10
1.588088868
 20
-15.9379203348
 10
1.5666645429
 20
-15.9366823841
 10
1.5453683193
 20
-15.9349008369
 10
1.5242398403
 20
-15.9325790097
 10
1.5033184365
 20
-15.9297212245
 10
1.4826430534
 20
-15.9263328012
 10
1.4622521782
 20
-15.9224200472
 10
1.4421837687
 20
-15.9179902461
 10
1.4224751822
 20
-15.9130516442
 10
1.4031631065
 20
-15.9076134346
 10
1.3842834909
 20
-15.9016857405
 10
1.3658714801
 20
-15.8952795965
 10
1.347961348
 20
-15.8884069275
 10
1.3305864345
 20
-15.881080527
 10
1.313779083
 20
-15.8733140333
 10
1.2975705805
 20
-15.8651219036
 10
1.2819910992
 20
-15.8565193876
  0
LINE
  5
492
100
AcDbEntity
  8
0
100
AcDbLine
 62
253
  6
CONTINUOUS
 10
5.3720412476
 20
14.0351420232
 11
6.0832618557
 21
13.9696520104
  0
LWPOLYLINE
  5
493
100
AcDbEntity
  8
0
100
AcDbPolyline
 62
7
  6
CONTINUOUS
 90
5
 70
0
 10
-7.2323717757
 20
21.0252799641
 10
-7.2046952001
 20
21.0115063832
 10
-7.174290663
 20
21.0009061127
 10
-7.1426677868
 20
20.9942862275
 10
-7.1302842563
 20
20.9928337529
  0
LWPOLYLINE
  5
494
100
AcDbEntity
  8
RACCORDO
100
AcDbPolyline
 62
253
  6
CONTINUOUS
 90
5
 70
0
 10
3.9081084316
 20
14.4721349813
 10
3.9266077991
 20
14.462905303
 10
3.9446641044
 20
14.4565495882
 10
3.9619685167
 20
14.4531765201
 10
3.9707508671
 20
14.4529967544
  0
LWPOLYLINE
  5
495
100
AcDbEntity
  8
RACCORDO
100
AcDbPolyline
 62
253
  6
CONTINUOUS
 90
5
 70
0
 10
-8.3955495611
 20
21.5761129052
 10
-8.3770501935
 20
21.5668832269
 10
-8.3589938882
 20
21.5605275121
 10
-8.341689476
 20
21.557154444
 10
-8.3329071256
 20
21.5569746783
  0
LWPOLYLINE
  5
496
100
AcDbEntity
  8
RACCORDO
100
AcDbPolyline
 62
253
  6
CONTINUOUS
 90
16
 70
0
 10
-6.7069380309
 20
20.2166771401
 10
-6.6707462285
 20
20.1982137686
 10
-6.6324886047
 20
20.1825196496
 10
-6.5921651594
 20
20.1695947832
 10
-6.5492980447
 20
20.1593894748
 10
-6.5043651087
 20
20.1519534189
 10
-6.4587998949
 20
20.1474356997
 10
-6.4126414053
 20
20.1459048389
 10
-6.365850638
 20
20.1472923148
 10
-6.3197441302
 20
20.1515416467
 10
-6.274305509
 20
20.1587180467
 10
-6.2295511472
 20
20.1687563027
 10
-6.1868467002
 20
20.1814042977
 10
-6.1466473865
 20
20.1965779929
 10
-6.1084979876
 20
20.2143614272
 10
-6.0723985036
 20
20.2347546005
  0
LWPOLYLINE
  5
497
100
AcDbEntity
  8
RACCORDO
100
AcDbPolyline
 62
253
  6
CONTINUOUS
 90
16
 70
0
 10
5.730739896
 20
13.3531509132
 10
5.7503619902
 20
13.3430790653
 10
5.7716603174
 20
13.3344839046
 10
5.7943825274
 20
13.3274508957
 10
5.8182560028
 20
13.3220620984
 10
5.8430167359
 20
13.3183552452
 10
5.8684155487
 20
13.3163289225
 10
5.8941517994
 20
13.3160087631
 10
5.9199696715
 20
13.3173950489
 10
5.9456890148
 20
13.320445299
 10
5.9710480451
 20
13.3251555716
 10
5.9957575473
 20
13.3314949074
 10
6.0195946785
 20
13.3393816741
 10
6.0423049132
 20
13.3487528602
 10
6.0636106559
 20
13.3595543837
 10
6.0832618557
 20
13.3717020381
  0
LWPOLYLINE
  5
498
100
AcDbEntity
  8
RACCORDO
100
AcDbPolyline
 62
253
  6
CONTINUOUS
 90
16
 70
0
 10
-6.5729180966
 20
20.4571288371
 10
-6.5532960024
 20
20.4470569892
 10
-6.5319976752
 20
20.4384618285
 10
-6.5092754653
 20
20.4314288196
 10
-6.4854019899
 20
20.4260400223
 10
-6.4606412568
 20
20.4223331691
 10
-6.435242444
 20
20.4203068464
 10
-6.4095061933
 20
20.419986687
 10
-6.3836883212
 20
20.4213729728
 10
-6.3579689778
 20
20.4244232229
 10
-6.3326099476
 20
20.4291334955
 10
-6.3079004453
 20
20.4354728313
 10
-6.2840633142
 20
20.443359598
 10
-6.2613530795
 20
20.4527307841
 10
-6.2400473367
 20
20.4635323076
 10
-6.220396137
 20
20.475679962
  0
LWPOLYLINE
  5
499
100
AcDbEntity
  8
0
100
AcDbPolyline
 62
253
  6
CONTINUOUS
 90
34
 70
0
 10
5.0195192879
 20
14.0357341039
 10
5.0280989084
 20
14.0310098806
 10
5.0370567868
 20
14.0265258235
 10
5.046372778
 20
14.0222920169
 10
5.0560259197
 20
14.0183179866
 10
5.0659945137
 20
14.0146126647
 10
5.0762561782
 20
14.0111843726
 10
5.0867878634
 20
14.0080408161
 10
5.0975658635
 20
14.0051890762
 10
5.1085659027
 20
14.0026355779
 10
5.1197632295
 20
14.0003860664
 10
5.1311326742
 20
13.9984455974
 10
5.1426486671
 20
13.9968185351
 10
5.1542853093
 20
13.9955085386
 10
5.1660164307
 20
13.994518554
 10
5.1778156492
 20
13.9938508076
 10
5.1896564376
 20
13.993506801
 10
5.2015121581
 20
13.9934873086
 10
5.213356122
 20
13.993792373
 10
5.2251616761
 20
13.994421305
 10
5.2369022882
 20
13.9953726883
 10
5.2485515804
 20
13.9966443843
 10
5.2600834397
 20
13.9982335461
 10
5.2714718446
 20
14.0001365915
 10
5.2826909594
 20
14.002349193
 10
5.2937154183
 20
14.0048663206
 10
5.3045205949
 20
14.0076823235
 10
5.3150824167
 20
14.0107909171
 10
5.3253779576
 20
14.0141853982
 10
5.3353831963
 20
14.0178578925
 10
5.3450735054
 20
14.0217992316
 10
5.3544266346
 20
14.0260000559
 10
5.3634225343
 20
14.0304510398
 10
5.3720412476
 20
14.0351420232
  0
LWPOLYLINE
  5
49A
100
AcDbEntity
  8
0
100
AcDbPolyline
 62
253
  6
CONTINUOUS
 90
34
 70
0
 10
5.0195192879
 20
14.3562542767
 10
5.0280994908
 20
14.3515297476
 10
5.0370580141
 20
14.3470454108
 10
5.0463747099
 20
14.3428113538
 10
5.0560286308
 20
14.3388370984
 10
5.0659980585
 20
14.3351315876
 10
5.0762605512
 20
14.3317031633
 10
5.0867930201
 20
14.3285595382
 10
5.0975717805
 20
14.3257077805
 10
5.108572585
 20
14.3231543049
 10
5.1197706916
 20
14.3209048538
 10
5.1311409113
 20
14.3189644863
 10
5.1426576609
 20
14.3173375671
 10
5.1542950342
 20
14.3160277544
 10
5.166026858
 20
14.3150379924
 10
5.1778267412
 20
14.3143705059
 10
5.1896681494
 20
14.3140267944
 10
5.201524443
 20
14.3140076296
 10
5.2133689335
 20
14.314313052
 10
5.2251749482
 20
14.3149423688
 10
5.2369159677
 20
14.3158941615
 10
5.2485656618
 20
14.3171662952
 10
5.2600979356
 20
14.3187559278
 10
5.2714867402
 20
14.3206594763
 10
5.282706219
 20
14.3228726109
 10
5.2937310014
 20
14.3253903009
 10
5.304536457
 20
14.3282068949
 10
5.3150984949
 20
14.3313161033
 10
5.3253948888
 20
14.3347114656
 10
5.3354008695
 20
14.3383848981
 10
5.3450898103
 20
14.3423263764
 10
5.3544390305
 20
14.346526074
 10
5.3634294072
 20
14.3509747798
 10
5.3720412476
 20
14.3556621961
  0
LWPOLYLINE
  5
49B
100
AcDbEntity
  8
0
100
AcDbPolyline
 62
253
  6
CONTINUOUS
 90
34
 70
0
 10
-7.2841387047
 20
21.1397120278
 10
-7.2755597128
 20
21.1349881345
 10
-7.2666025157
 20
21.1305043723
 10
-7.2572872542
 20
21.1262708233
 10
-7.2476348744
 20
21.1222970069
 10
-7.2376670805
 20
21.1185918586
 10
-7.2274062858
 20
21.1151637097
 10
-7.2168755625
 20
21.1120202686
 10
-7.2060985896
 20
21.1091686036
 10
-7.1950996
 20
21.1066151269
 10
-7.1839033259
 20
21.1043655802
 10
-7.1725349428
 20
21.1024250217
 10
-7.1610200134
 20
21.100797815
 10
-7.14938443
 20
21.0994876189
 10
-7.1376543559
 20
21.0984973794
 10
-7.1258561672
 20
21.0978293234
 10
-7.114016393
 20
21.0974849528
 10
-7.1021616559
 20
21.0974650421
 10
-7.0903186123
 20
21.097769636
 10
-7.0785138919
 20
21.0983980497
 10
-7.0667740388
 20
21.09934887
 10
-7.0551254508
 20
21.100619959
 10
-7.0435943206
 20
21.1022084586
 10
-7.0322065769
 20
21.1041107969
 10
-7.0209878259
 20
21.1063226963
 10
-7.0099632937
 20
21.1088391833
 10
-6.99915777
 20
21.1116545992
 10
-6.9885955517
 20
21.1147626135
 10
-6.9783003887
 20
21.1181562375
 10
-6.9682954306
 20
21.1218278404
 10
-6.9586031742
 20
21.1257691664
 10
-6.9492454133
 20
21.129971353
 10
-6.9402431895
 20
21.1344249513
 10
-6.9316167451
 20
21.1391199472
  0
LWPOLYLINE
  5
49C
100
AcDbEntity
  8
0
100
AcDbPolyline
 62
253
  6
CONTINUOUS
 90
34
 70
0
 10
-7.2841387047
 20
21.4602322006
 10
-7.275573773
 20
21.4555156904
 10
-7.2666279897
 20
21.4510366997
 10
-7.2573209607
 20
21.4468055836
 10
-7.2476717757
 20
21.442831625
 10
-7.2377029885
 20
21.4391246962
 10
-7.2274409971
 20
21.4356948558
 10
-7.2169104356
 20
21.4325502552
 10
-7.2061335149
 20
21.4296974473
 10
-7.1951342775
 20
21.4271428056
 10
-7.1839373073
 20
21.4248920647
 10
-7.1725679145
 20
21.4229503366
 10
-7.1610518968
 20
21.4213220345
 10
-7.1494152605
 20
21.4200108282
 10
-7.1376840766
 20
21.4190196481
 10
-7.1258846541
 20
21.4183507173
 10
-7.1140434983
 20
21.4180055432
 10
-7.1021872732
 20
21.417984908
 10
-7.0903426649
 20
21.4182888606
 10
-7.0785363194
 20
21.4189167188
 10
-7.0667947858
 20
21.4198670724
 10
-7.0551444769
 20
21.4211377851
 10
-7.0436115951
 20
21.4227260007
 10
-7.0322220821
 20
21.4246281482
 10
-7.0210015644
 20
21.4268399489
 10
-7.009975281
 20
21.4293564285
 10
-6.9991680308
 20
21.4321719278
 10
-6.9886041254
 20
21.4352801139
 10
-6.97830732
 20
21.4386739981
 10
-6.9683007801
 20
21.4423459457
 10
-6.9586070305
 20
21.4462876908
 10
-6.9492478783
 20
21.4504903637
 10
-6.9402443669
 20
21.4549445132
 10
-6.9316167451
 20
21.45964012
  0
LWPOLYLINE
  5
49D
100
AcDbEntity
  8
0
100
AcDbPolyline
 62
253
  6
CONTINUOUS
 90
34
 70
0
 10
-1.4058933187
 20
19.341157092
 10
-1.3990030106
 20
19.3373637431
 10
-1.3918078464
 20
19.333764013
 10
-1.3843241288
 20
19.3303660596
 10
-1.3765688094
 20
19.3271775816
 10
-1.3685594655
 20
19.3242058073
 10
-1.3603142618
 20
19.3214574772
 10
-1.3518518873
 20
19.3189388199
 10
-1.3431915135
 20
19.316655541
 10
-1.3343527672
 20
19.3146128143
 10
-1.3253556756
 20
19.3128152679
 10
-1.3162206283
 20
19.311266975
 10
-1.3069683335
 20
19.3099714445
 10
-1.29761976
 20
19.3089316109
 10
-1.2881960892
 20
19.308149829
 10
-1.2787186763
 20
19.3076278691
 10
-1.2692089898
 20
19.3073669125
 10
-1.2596885853
 20
19.3073675496
 10
-1.2501790578
 20
19.3076297768
 10
-1.2407019828
 20
19.3081529949
 10
-1.2312788058
 20
19.3089360155
 10
-1.2219308167
 20
19.3099770691
 10
-1.2126791141
 20
19.3112738115
 10
-1.203544748
 20
19.3128232982
 10
-1.1945486033
 20
19.3146219799
 10
-1.1857111707
 20
19.3166657393
 10
-1.1770523453
 20
19.3189499544
 10
-1.16859158
 20
19.3214694858
 10
-1.1603467459
 20
19.3242190823
 10
-1.1523378969
 20
19.3271921287
 10
-1.1445866942
 20
19.3303803695
 10
-1.1371114535
 20
19.3337757541
 10
-1.1299274832
 20
19.3373707933
 10
-1.1230506062
 20
19.341157092
  0
LINE
  5
49E
100
AcDbEntity
  8
RACCORDO
100
AcDbLine
 62
253
  6
CONTINUOUS
 10
-8.2596838209
 20
21.4310462261
 11
-6.5729180966
 21
20.4571288371
  0
LINE
  5
49F
100
AcDbEntity
  8
RACCORDO
100
AcDbLine
 62
253
  6
CONTINUOUS
 10
4.0439741718
 20
14.3270683022
 11
5.730739896
 21
13.3531509132
  0
LINE
  5
4A0
100
AcDbEntity
  8
0
100
AcDbLine
 62
7
  6
CONTINUOUS
 10
-8.9109061199
 20
21.9944446574
 11
-7.2323680495
 21
21.0252778125
  0
LINE
  5
4A1
100
AcDbEntity
  8
0
100
AcDbLine
 62
7
  6
CONTINUOUS
 10
3.3927518728
 20
14.8904667334
 11
5.0712899432
 21
13.9212998886
  0
LINE
  5
4A2
100
AcDbEntity
  8
0
100
AcDbLine
 62
253
  6
CONTINUOUS
 10
-8.9626767751
 20
22.1088788726
 11
-7.2841387047
 21
21.1397120278
  0
LINE
  5
4A3
100
AcDbEntity
  8
0
100
AcDbLine
 62
253
  6
CONTINUOUS
 10
3.3409812175
 20
15.0049009487
 11
5.0195192879
 21
14.0357341039
  0
LINE
  5
4A4
100
AcDbEntity
  8
0
100
AcDbLine
 62
253
  6
CONTINUOUS
 10
5.0195192879
 20
14.3562542767
 11
3.3409812175
 21
15.3254211216
  0
LINE
  5
4A5
100
AcDbEntity
  8
0
100
AcDbLine
 62
253
  6
CONTINUOUS
 10
-7.2841387047
 20
21.4602322006
 11
-8.9626767751
 21
22.4293990455
  0
LINE
  5
4A6
100
AcDbEntity
  8
0
100
AcDbLine
 62
7
  6
CONTINUOUS
 10
-3.0322389154
 20
19.1171633612
 11
-1.4058933187
 21
18.1781317965
  0
LINE
  5
4A7
100
AcDbEntity
  8
0
100
AcDbLine
 62
7
  6
CONTINUOUS
 10
0.2911629562
 20
17.1982727725
 11
1.2104017717
 21
16.6675158012
  0
LINE
  5
4A8
100
AcDbEntity
  8
0
100
AcDbLine
 62
7
  6
CONTINUOUS
 10
8.3992610658
 20
12.6384114639
 11
8.3816733148
 21
12.6485664109
  0
LINE
  5
4A9
100
AcDbEntity
  8
0
100
AcDbLine
 62
253
  6
CONTINUOUS
 10
5.1952675439
 20
14.661843232
 11
3.5167294735
 21
15.6310100768
  0
LINE
  5
4AA
100
AcDbEntity
  8
0
100
AcDbLine
 62
253
  6
CONTINUOUS
 10
-7.1083904487
 20
21.7658211559
 11
-8.7869285192
 21
22.7349880007
  0
LINE
  5
4AB
100
AcDbEntity
  8
RACCORDO
100
AcDbLine
 62
7
  6
CONTINUOUS
 10
-5.1889552649
 20
20.7920936417
 11
-4.4049263983
 21
20.3394052004
  0
LINE
  5
4AC
100
AcDbEntity
  8
RACCORDO
100
AcDbLine
 62
7
  6
CONTINUOUS
 10
2.9428133856
 20
16.0969123379
 11
3.5580500486
 21
15.7416823995
  0
LINE
  5
4AD
100
AcDbEntity
  8
RACCORDO
100
AcDbLine
 62
7
  6
CONTINUOUS
 10
7.1147027278
 20
13.6881157178
 11
7.3265274239
 21
13.5658107931
  0
LINE
  5
4AE
100
AcDbEntity
  8
0
100
AcDbLine
 62
7
  6
CONTINUOUS
 10
0.2325843124
 20
17.6617646377
 11
-0.9109185718
 21
18.3220088716
  0
LINE
  5
4AF
100
AcDbEntity
  8
0
100
AcDbLine
 62
7
  6
CONTINUOUS
 10
-4.4049263983
 20
20.4138087356
 11
-3.7393456966
 21
20.0295107801
  0
LINE
  5
4B0
100
AcDbEntity
  8
0
100
AcDbLine
 62
7
  6
CONTINUOUS
 10
1.2104017717
 20
17.1715886268
 11
1.8759824735
 21
16.7872906713
  0
LINE
  5
4B1
100
AcDbEntity
  8
0
100
AcDbLine
 62
253
  6
CONTINUOUS
 10
1.7777342606
 20
17.502970428
 11
0.2911629562
 21
18.3612980681
  0
LINE
  5
4B2
100
AcDbEntity
  8
0
100
AcDbLine
 62
253
  6
CONTINUOUS
 10
-1.4058933187
 20
19.341157092
 11
-3.0322389154
 21
20.2801886567
  0
LINE
  5
4B3
100
AcDbEntity
  8
DRAFT
100
AcDbLine
 62
7
  6
CONTINUOUS
 10
-5.2957742017
 20
21.6655686586
 11
-4.627343
 21
21.2796248602
  0
LINE
  5
4B4
100
AcDbEntity
  8
DRAFT
100
AcDbLine
 62
7
  6
CONTINUOUS
 10
7.007883791
 20
14.5615907347
 11
8.0281244115
 21
13.972516587
  0
LINE
  5
4B5
100
AcDbEntity
  8
0
100
AcDbLine
 62
7
  6
CONTINUOUS
 10
-0.2038117906
 20
18.7260083975
 11
0.2350341024
 21
18.4726242788
  0
LINE
  5
4B6
100
AcDbEntity
  8
0
100
AcDbLine
 62
253
  6
CONTINUOUS
 10
2.0581071577
 20
17.6667376676
 11
0.431761561
 21
18.6057692323
  0
LINE
  5
4B7
100
AcDbEntity
  8
0
100
AcDbLine
 62
253
  6
CONTINUOUS
 10
-1.2652947139
 20
19.5856282562
 11
-2.8916403106
 21
20.5246598209
  0
LINE
  5
4B8
100
AcDbEntity
  8
0
100
AcDbLine
 62
253
  6
CONTINUOUS
 10
5.0712393112
 20
13.9213291466
 11
5.0712899432
 21
13.9212998886
  0
LWPOLYLINE
  5
4B9
100
AcDbEntity
  8
0
100
AcDbPolyline
 62
7
  6
CONTINUOUS
 90
40
 70
0
 10
7.3265274239
 20
13.5658107931
 10
7.3406798526
 20
13.5573127372
 10
7.3548340168
 20
13.5481556632
 10
7.3689674618
 20
13.5383511168
 10
7.3830703329
 20
13.5279022776
 10
7.3971068158
 20
13.5168314632
 10
7.4110158176
 20
13.5051852683
 10
7.4247620849
 20
13.4929954891
 10
7.4383369363
 20
13.4802729968
 10
7.451720112
 20
13.4670386689
 10
7.4648781809
 20
13.4533280377
 10
7.4778028044
 20
13.439152101
 10
7.4905101431
 20
13.4244919534
 10
7.5029999588
 20
13.4093411694
 10
7.515227489
 20
13.3937475584
 10
7.5271425012
 20
13.3777739464
 10
7.5387215061
 20
13.3614515684
 10
7.549949802
 20
13.3448023679
 10
7.5607945497
 20
13.3278801176
 10
7.5712213415
 20
13.3107441608
 10
7.581234367
 20
13.2933933884
 10
7.5908569956
 20
13.2757899355
 10
7.600086578
 20
13.2579294224
 10
7.6088879453
 20
13.2398701197
 10
7.6172338942
 20
13.2216671419
 10
7.6251117982
 20
13.2033427166
 10
7.6325045126
 20
13.1849329124
 10
7.639384409
 20
13.1665148598
 10
7.6457314423
 20
13.1481501849
 10
7.65154985
 20
13.129835848
 10
7.6568492059
 20
13.1115521531
 10
7.6616227352
 20
13.093312495
 10
7.6658557055
 20
13.075161784
 10
7.6695425624
 20
13.0571280034
 10
7.6726772732
 20
13.0392233817
 10
7.6752485578
 20
13.0214940694
 10
7.6772483811
 20
13.0040170889
 10
7.6786753121
 20
12.9868347111
 10
7.679529637
 20
12.9699563327
 10
7.6798116899
 20
12.9534068963
  0
LWPOLYLINE
  5
4BA
100
AcDbEntity
  8
0
100
AcDbPolyline
 62
7
  6
CONTINUOUS
 90
37
 70
0
 10
-1.0523399281
 20
19.7100162331
 10
-1.0461711579
 20
19.7062990223
 10
-1.0400141207
 20
19.7022780464
 10
-1.0338805413
 20
19.6979609579
 10
-1.0277821164
 20
19.6933559631
 10
-1.0217304517
 20
19.6884718303
 10
-1.0157370404
 20
19.6833178729
 10
-1.0098133162
 20
19.6779038877
 10
-1.0039705658
 20
19.6722401751
 10
-0.9982198674
 20
19.6663375426
 10
-0.9925722008
 20
19.6602072074
 10
-0.9870383358
 20
19.6538608283
 10
-0.9816287462
 20
19.6473105217
 10
-0.9763537699
 20
19.6405687335
 10
-0.9712234757
 20
19.6336482812
 10
-0.9662475536
 20
19.6265623832
 10
-0.9614355226
 20
19.6193245004
 10
-0.9567965783
 20
19.6119483902
 10
-0.9523394609
 20
19.6044481463
 10
-0.9480727081
 20
19.5968380149
 10
-0.9440044844
 20
19.5891324572
 10
-0.9401424312
 20
19.5813462014
 10
-0.9364939583
 20
19.5734940348
 10
-0.93306606
 20
19.5655908756
 10
-0.9298651476
 20
19.5576518339
 10
-0.9268973767
 20
19.5496919853
 10
-0.9241684513
 20
19.5417264495
 10
-0.9216834434
 20
19.5337704602
 10
-0.9194471488
 20
19.5258391233
 10
-0.9174638839
 20
19.5179475012
 10
-0.9157372945
 20
19.5101106907
 10
-0.9142707345
 20
19.5023435695
 10
-0.9130670592
 20
19.4946608851
 10
-0.9121284257
 20
19.4870773388
 10
-0.9114566208
 20
19.4796073655
 10
-0.9110530575
 20
19.4722651058
 10
-0.9109185718
 20
19.4650644956
  0
LWPOLYLINE
  5
4BB
100
AcDbEntity
  8
0
100
AcDbPolyline
 62
253
  6
CONTINUOUS
 90
34
 70
0
 10
-1.2652947139
 20
19.5856282562
 10
-1.2585646829
 20
19.5815585432
 10
-1.2518480338
 20
19.5771292182
 10
-1.245159982
 20
19.5723503151
 10
-1.238515678
 20
19.5672326596
 10
-1.2319301734
 20
19.5617878449
 10
-1.2254183864
 20
19.5560282053
 10
-1.2189950683
 20
19.5499667881
 10
-1.2126747699
 20
19.5436173244
 10
-1.2064718089
 20
19.5369941979
 10
-1.2004002369
 20
19.530112412
 10
-1.194473808
 20
19.5229875562
 10
-1.1887059473
 20
19.5156357705
 10
-1.1831097211
 20
19.5080737091
 10
-1.1776978065
 20
19.5003185026
 10
-1.1724824633
 20
19.492387719
 10
-1.1674755059
 20
19.484299324
 10
-1.1626882767
 20
19.4760716405
 10
-1.1581316203
 20
19.4677233067
 10
-1.1538158589
 20
19.4592732345
 10
-1.1497507692
 20
19.4507405658
 10
-1.1459455599
 20
19.44214463
 10
-1.142408851
 20
19.4335048996
 10
-1.1391486543
 20
19.4248409463
 10
-1.1361723553
 20
19.4161723969
 10
-1.1334866961
 20
19.4075188883
 10
-1.1310977606
 20
19.3989000235
 10
-1.1290109607
 20
19.3903353271
 10
-1.1272310234
 20
19.3818442009
 10
-1.1257619811
 20
19.3734458799
 10
-1.1246071614
 20
19.365159389
 10
-1.1237691805
 20
19.3570034999
 10
-1.1232499367
 20
19.3489966883
 10
-1.1230506062
 20
19.341157092
  0
LWPOLYLINE
  5
4BC
100
AcDbEntity
  8
0
100
AcDbPolyline
 62
253
  6
CONTINUOUS
 90
18
 70
0
 10
-8.9626767751
 20
22.4293990455
 10
-8.9708454842
 20
22.4343443297
 10
-8.9786028238
 20
22.4395095129
 10
-8.9859308598
 20
22.4448832748
 10
-8.9928135146
 20
22.4504545933
 10
-8.9992336898
 20
22.456210446
 10
-9.005173965
 20
22.4621355913
 10
-9.0106202221
 20
22.4682158055
 10
-9.015561112
 20
22.4744382644
 10
-9.0199855962
 20
22.4807890863
 10
-9.0238837426
 20
22.4872540765
 10
-9.0272466977
 20
22.4938186214
 10
-9.0300668179
 20
22.5004678257
 10
-9.0323377476
 20
22.5071866737
 10
-9.0340544113
 20
22.5139601122
 10
-9.0352129588
 20
22.5207729509
 10
-9.0358107793
 20
22.5276098858
 10
-9.0359000797
 20
22.5314633194
  0
LWPOLYLINE
  5
4BD
100
AcDbEntity
  8
0
100
AcDbPolyline
 62
253
  6
CONTINUOUS
 90
15
 70
0
 10
3.3409812175
 20
15.0049009487
 10
3.3327991498
 20
15.009854714
 10
3.3250330355
 20
15.0150268808
 10
3.3177003398
 20
15.0204058174
 10
3.3108175608
 20
15.0259794204
 10
3.3044001685
 20
15.0317351616
 10
3.298462575
 20
15.0376601181
 10
3.2930181262
 20
15.0437409812
 10
3.2880790861
 20
15.0499640633
 10
3.2836565822
 20
15.0563153481
 10
3.2797605649
 20
15.0627805442
 10
3.2763997906
 20
15.0693451191
 10
3.2735818176
 20
15.0759943091
 10
3.2713129833
 20
15.0827131605
 10
3.2695983901
 20
15.0894865629
  0
LWPOLYLINE
  5
4BE
100
AcDbEntity
  8
0
100
AcDbPolyline
 62
253
  6
CONTINUOUS
 90
18
 70
0
 10
3.3409812175
 20
15.3254211216
 10
3.3327986201
 20
15.3303752232
 10
3.3250320215
 20
15.3355477623
 10
3.317698892
 20
15.3409271057
 10
3.3108157232
 20
15.3465011586
 10
3.3043980037
 20
15.3522573812
 10
3.2984601813
 20
15.3581828158
 10
3.2930156136
 20
15.3642641314
 10
3.2880765426
 20
15.3704876526
 10
3.2836540782
 20
15.3768393792
 10
3.2797581655
 20
15.3833050256
 10
3.2763975668
 20
15.389870048
 10
3.2735798418
 20
15.3965196748
 10
3.2713113257
 20
15.4032389483
 10
3.269597118
 20
15.4100127564
 10
3.268441072
 20
15.416825861
 10
3.2678457846
 20
15.4236629417
 10
3.2677579249
 20
15.4274447924
  0
LWPOLYLINE
  5
4BF
100
AcDbEntity
  8
0
100
AcDbPolyline
 62
253
  6
CONTINUOUS
 90
18
 70
0
 10
0.2911629562
 20
18.3612980681
 10
0.2845940396
 20
18.3652758529
 10
0.2783603685
 20
18.3694296013
 10
0.2724760642
 20
18.3737499039
 10
0.2669544567
 20
18.3782269738
 10
0.261808054
 20
18.3828506689
 10
0.2570485145
 20
18.387610515
 10
0.2526866201
 20
18.3924957297
 10
0.2487322517
 20
18.3974952462
 10
0.2451943674
 20
18.4025977392
 10
0.2420809816
 20
18.4077916498
 10
0.2393991472
 20
18.4130652121
 10
0.2371549392
 20
18.4184064799
 10
0.2353534417
 20
18.4238033534
 10
0.2339987355
 20
18.4292436069
 10
0.2330938895
 20
18.4347149167
 10
0.2326409535
 20
18.4402048883
 10
0.2325843124
 20
18.4429529867
  0
LWPOLYLINE
  5
4C0
100
AcDbEntity
  8
0
100
AcDbPolyline
 62
253
  6
CONTINUOUS
 90
34
 70
0
 10
-7.1083904487
 20
21.7658211559
 10
-7.1000409133
 20
21.7607144158
 10
-7.0917043318
 20
21.7551572195
 10
-7.0833995761
 20
21.7491615551
 10
-7.0751443099
 20
21.7427394812
 10
-7.0669584991
 20
21.7359058312
 10
-7.0588642515
 20
21.728678759
 10
-7.0508810929
 20
21.7210758048
 10
-7.0430258936
 20
21.7131131437
 10
-7.0353163076
 20
21.7048086575
 10
-7.0277697106
 20
21.696181025
 10
-7.0204033148
 20
21.6872498856
 10
-7.013233973
 20
21.6780356593
 10
-7.0062779913
 20
21.6685593156
 10
-6.999551061
 20
21.6588422433
 10
-6.9930683802
 20
21.6489063956
 10
-6.986844623
 20
21.6387742542
 10
-6.9808939125
 20
21.6284688017
 10
-6.9752297449
 20
21.6180134058
 10
-6.9698649586
 20
21.6074317613
 10
-6.9648117078
 20
21.5967478383
 10
-6.9600814458
 20
21.5859858478
 10
-6.9556848912
 20
21.5751701729
 10
-6.9516320084
 20
21.5643253217
 10
-6.9479319847
 20
21.5534758752
 10
-6.9445932053
 20
21.5426464184
 10
-6.9416232356
 20
21.5318614878
 10
-6.9390288067
 20
21.5211455242
 10
-6.9368157968
 20
21.5105228035
 10
-6.9349892221
 20
21.5000174007
 10
-6.933553224
 20
21.4896531376
 10
-6.9325110553
 20
21.4794535036
 10
-6.931865075
 20
21.4694416028
 10
-6.9316167451
 20
21.45964012
  0
LWPOLYLINE
  5
4C1
100
AcDbEntity
  8
0
100
AcDbPolyline
 62
253
  6
CONTINUOUS
 90
34
 70
0
 10
5.1952675439
 20
14.661843232
 10
5.2036308267
 20
14.6567277057
 10
5.2119774945
 20
14.6511627481
 10
5.2202886401
 20
14.6451609651
 10
5.2285454369
 20
14.6387359522
 10
5.2367291816
 20
14.6319022632
 10
5.244821336
 20
14.6246753782
 10
5.2528035695
 20
14.6170716677
 10
5.2606578008
 20
14.6091083556
 10
5.2683662381
 20
14.6008034808
 10
5.2759114201
 20
14.5921758556
 10
5.2832762554
 20
14.5832450235
 10
5.2904440608
 20
14.5740312149
 10
5.2973985997
 20
14.5645553011
 10
5.3041241186
 20
14.5548387471
 10
5.3106053826
 20
14.5449035632
 10
5.3168277101
 20
14.5347722548
 10
5.3227770064
 20
14.5244677715
 10
5.3284397947
 20
14.5140134553
 10
5.3338032478
 20
14.5034329875
 10
5.338855216
 20
14.4927503354
 10
5.3435842557
 20
14.4819896975
 10
5.3479796544
 20
14.471175449
 10
5.3520314557
 20
14.4603320867
 10
5.3557304812
 20
14.4494841732
 10
5.3590683518
 20
14.4386562814
 10
5.3620375066
 20
14.427872939
 10
5.3646312197
 20
14.4171585726
 10
5.3668436157
 20
14.4065374527
 10
5.3686696832
 20
14.3960336386
 10
5.3701052856
 20
14.3856709235
 10
5.371147171
 20
14.3754727816
 10
5.3717929793
 20
14.3654623138
 10
5.3720412476
 20
14.3556621961
  0
LINE
  5
4C2
100
AcDbEntity
  8
0
100
AcDbLine
 62
7
  6
CONTINUOUS
 10
14.7144533759
 20
5.6538902473
 11
12.3606320715
 21
8.1763456149
  0
LINE
  5
4C3
100
AcDbEntity
  8
0
100
AcDbLine
 62
7
  6
CONTINUOUS
 10
15.0680067665
 20
5.4497529506
 11
12.4317381466
 21
8.2748909159
  0
LINE
  5
4C4
100
AcDbEntity
  8
ASSI
100
AcDbLine
 62
7
  6
CONTINUOUS
 10
16.2150464346
 20
5.6440087761
 11
15.8094666469
 21
6.0786453861
  0
LWPOLYLINE
  5
4C5
100
AcDbEntity
  8
0
100
AcDbPolyline
 62
253
  6
CONTINUOUS
 90
15
 70
0
 10
7.5015892102
 20
15.257590511
 10
7.5055619949
 20
15.2517471852
 10
7.5091245089
 20
15.2461460753
 10
7.5122687115
 20
15.2407998232
 10
7.5149875048
 20
15.2357204984
 10
7.5172747541
 20
15.2309195619
 10
7.5191253
 20
15.2264078423
 10
7.5205349649
 20
15.2221955189
 10
7.5215005624
 20
15.2182921066
 10
7.52201991
 20
15.2147064247
 10
7.5220918366
 20
15.2114465686
 10
7.5217161811
 20
15.2085198919
 10
7.5208937916
 20
15.205932999
 10
7.5196265244
 20
15.2036917279
 10
7.5193289263
 20
15.2032968231
  0
LWPOLYLINE
  5
4C6
100
AcDbEntity
  8
0
100
AcDbPolyline
 62
7
  6
CONTINUOUS
 90
3
 70
0
 10
8.3809589029
 20
20.5205028458
 10
8.3807597052
 20
20.5210342899
 10
8.3805592159
 20
20.5211900001
  0
LINE
  5
4C7
100
AcDbEntity
  8
0
100
AcDbLine
 62
7
  6
CONTINUOUS
 10
8.670649076
 20
-14.5354108421
 11
8.3992610658
 21
-14.7032412585
  0
LINE
  5
4C8
100
AcDbEntity
  8
0
100
AcDbLine
 62
253
  6
CONTINUOUS
 10
8.420168772
 20
-15.0851769302
 11
8.3992610658
 21
-15.0970362327
  0
LINE
  5
4C9
100
AcDbEntity
  8
0
100
AcDbLine
 62
7
  6
CONTINUOUS
 10
13.0558913976
 20
-14.3604390434
 11
8.420168772
 21
-16.0796352009
  0
LWPOLYLINE
  5
4CA
100
AcDbEntity
  8
0
100
AcDbPolyline
 62
7
  6
CONTINUOUS
 90
21
 70
0
 10
13.0559137531
 20
-14.3604834988
 10
13.0636511543
 20
-14.3580527326
 10
13.0799292711
 20
-14.3553347071
 10
13.0972290528
 20
-14.3556104983
 10
13.1155347828
 20
-14.3588018117
 10
13.1341542001
 20
-14.3647097637
 10
13.1530857057
 20
-14.373404548
 10
13.1723308987
 20
-14.3848159708
 10
13.1912023164
 20
-14.3985345674
 10
13.209712635
 20
-14.4146576246
 10
13.2278491782
 20
-14.4330878556
 10
13.244886455
 20
-14.453123935
 10
13.2607912051
 20
-14.4748666894
 10
13.2755966888
 20
-14.4982152922
 10
13.2886771963
 20
-14.5221659384
 10
13.299933931
 20
-14.546697995
 10
13.3094656895
 20
-14.5718320951
 10
13.3169431525
 20
-14.5966263325
 10
13.3222565467
 20
-14.6207667383
 10
13.3255156454
 20
-14.6445672815
 10
13.3267204485
 20
-14.6680279619
  0
LWPOLYLINE
  5
4CB
100
AcDbEntity
  8
0
100
AcDbPolyline
 62
7
  6
CONTINUOUS
 90
3
 70
0
 10
5.6664850423
 20
16.9107364002
 10
5.6986564057
 20
16.9042008467
 10
5.7298905338
 20
16.8934234713
  0
LWPOLYLINE
  5
4CC
100
AcDbEntity
  8
0
100
AcDbPolyline
 62
253
  6
CONTINUOUS
 90
16
 70
0
 10
5.7490792146
 20
16.8839303796
 10
5.742631238
 20
16.8863941289
 10
5.7359365047
 20
16.8883554355
 10
5.7290100285
 20
16.8898099015
 10
5.7218673181
 20
16.8907542579
 10
5.7145245006
 20
16.8911863602
 10
5.7069982539
 20
16.8911052394
 10
5.6993056197
 20
16.8905111181
 10
5.6914638071
 20
16.8894053637
 10
5.6834903081
 20
16.8877904563
 10
5.6754018307
 20
16.885669671
 10
5.6672177594
 20
16.8830479828
 10
5.6589600886
 20
16.8799327421
 10
5.6506486679
 20
16.8763321411
 10
5.6423010355
 20
16.8722544761
 10
5.6339359553
 20
16.8677095086
  0
LINE
  5
4CD
100
AcDbEntity
  8
0
100
AcDbLine
 62
7
  6
CONTINUOUS
 10
5.7298905338
 20
16.8934234713
 11
5.7579524171
 21
16.8794819975
  0
LWPOLYLINE
  5
4CE
100
AcDbEntity
  8
0
100
AcDbPolyline
 62
253
  6
CONTINUOUS
 90
18
 70
0
 10
0.431761561
 20
18.6057692323
 10
0.4250324142
 20
18.6094706262
 10
0.4183203696
 20
18.6127946989
 10
0.4116406368
 20
18.6157339165
 10
0.4050083477
 20
18.6182816184
 10
0.3984385359
 20
18.6204320276
 10
0.3919461019
 20
18.6221802664
 10
0.385545761
 20
18.623522373
 10
0.3792520126
 20
18.6244553081
 10
0.3730791197
 20
18.624976958
 10
0.3670410688
 20
18.6250861416
 10
0.3611515428
 20
18.6247826121
 10
0.3554238922
 20
18.6240670591
 10
0.3498710962
 20
18.6229411063
 10
0.3445057351
 20
18.6214073069
 10
0.3393399661
 20
18.6194691386
 10
0.33438549
 20
18.6171309934
 10
0.3317404305
 20
18.6156680963
  0
LWPOLYLINE
  5
4CF
100
AcDbEntity
  8
0
100
AcDbPolyline
 62
7
  6
CONTINUOUS
 90
19
 70
0
 10
0.6447163468
 20
18.7301572091
 10
0.6385475519
 20
18.7335635537
 10
0.6323905176
 20
18.7366525684
 10
0.6262569601
 20
18.739418371
 10
0.6201585342
 20
18.741855685
 10
0.6141068518
 20
18.7439598732
 10
0.6081134591
 20
18.7457269461
 10
0.6021897401
 20
18.7471535261
 10
0.5963469605
 20
18.7482368922
 10
0.5905962861
 20
18.7489750081
 10
0.5849486307
 20
18.7493664503
 10
0.5794147255
 20
18.7494104629
 10
0.5740051649
 20
18.7491069981
 10
0.5687302057
 20
18.7484566104
 10
0.563599861
 20
18.7474605225
 10
0.5586239723
 20
18.7461206753
 10
0.5538119639
 20
18.7444395923
 10
0.5491729596
 20
18.7424204533
 10
0.545004481
 20
18.7402328075
  0
LWPOLYLINE
  5
4D0
100
AcDbEntity
  8
0
100
AcDbPolyline
 62
253
  6
CONTINUOUS
 90
3
 70
0
 10
5.757913556
 20
16.8795044493
 10
5.7552659463
 20
16.8809697144
 10
5.7490792146
 20
16.8839303796
  0
LWPOLYLINE
  5
4D1
100
AcDbEntity
  8
0
100
AcDbPolyline
 62
253
  6
CONTINUOUS
 90
18
 70
0
 10
-4.8548679054
 20
23.0071914557
 10
-4.8575124952
 20
23.0086549771
 10
-4.8636992269
 20
23.0116156424
 10
-4.8701472035
 20
23.0140793917
 10
-4.8768419368
 20
23.0160406982
 10
-4.883768413
 20
23.0174951643
 10
-4.8909111234
 20
23.0184395207
 10
-4.8982539409
 20
23.0188716229
 10
-4.9057801876
 20
23.0187905021
 10
-4.9134728218
 20
23.0181963809
 10
-4.9213146344
 20
23.0170906265
 10
-4.9292881334
 20
23.0154757191
 10
-4.9373766108
 20
23.0133549337
 10
-4.9455606821
 20
23.0107332456
 10
-4.9538183529
 20
23.0076180049
 10
-4.9621297736
 20
23.0040174039
 10
-4.970477406
 20
22.9999397389
 10
-4.9788424862
 20
22.9953947713
  0
LWPOLYLINE
  5
4D2
100
AcDbEntity
  8
0
100
AcDbPolyline
 62
253
  6
CONTINUOUS
 90
18
 70
0
 10
7.4487931072
 20
15.9032117882
 10
7.4461598438
 20
15.9046694485
 10
7.4399745529
 20
15.9076309387
 10
7.4335280056
 20
15.9100956691
 10
7.4268346975
 20
15.9120580975
 10
7.419909679
 20
15.9135138112
 10
7.4127685216
 20
15.9144595369
 10
7.4054272826
 20
15.9148931482
 10
7.3979024694
 20
15.9148136699
 10
7.3902110021
 20
15.9142212809
 10
7.3823701756
 20
15.9131173131
 10
7.3743976205
 20
15.9115042489
 10
7.3663112638
 20
15.9093857154
 10
7.3581292881
 20
15.9067664763
 10
7.3498700914
 20
15.9036524212
 10
7.3415522451
 20
15.9000505521
 10
7.3331944524
 20
15.8959689683
 10
7.3248155065
 20
15.8914168474
  0
LWPOLYLINE
  5
4D3
100
AcDbEntity
  8
0
100
AcDbPolyline
 62
253
  6
CONTINUOUS
 90
3
 70
0
 10
-6.5457444366
 20
23.9834823732
 10
-6.5483777
 20
23.9849400335
 10
-6.5545629909
 20
23.9879015238
  0
LINE
  5
4D4
100
AcDbEntity
  8
0
100
AcDbLine
 62
7
  6
CONTINUOUS
 10
-3.3504369669
 20
21.0369086614
 11
-1.0523399281
 21
19.7100162331
  0
LINE
  5
4D5
100
AcDbEntity
  8
0
100
AcDbLine
 62
7
  6
CONTINUOUS
 10
0.6447163468
 20
18.7301572091
 11
2.9428133856
 21
17.4032647808
  0
LINE
  5
4D6
100
AcDbEntity
  8
0
100
AcDbLine
 62
7
  6
CONTINUOUS
 10
8.6577918047
 20
14.1461222701
 11
13.6016103399
 21
11.2916234085
  0
LINE
  5
4D7
100
AcDbEntity
  8
0
100
AcDbLine
 62
7
  6
CONTINUOUS
 10
6.7965483347
 20
15.5864016582
 11
5.0994860766
 21
16.5662641369
  0
LINE
  5
4D8
100
AcDbEntity
  8
0
100
AcDbLine
 62
7
  6
CONTINUOUS
 10
-5.5071096579
 20
22.6903795821
 11
-7.204171916
 21
23.6702420608
  0
LINE
  5
4D9
100
AcDbEntity
  8
0
100
AcDbLine
 62
7
  6
CONTINUOUS
 10
-1.9715787436
 20
21.052572306
 11
-0.3452331469
 21
20.1135407413
  0
LINE
  5
4DA
100
AcDbEntity
  8
0
100
AcDbLine
 62
7
  6
CONTINUOUS
 10
1.351823128
 20
19.1336817173
 11
2.9781687247
 21
18.1946501527
  0
LINE
  5
4DB
100
AcDbEntity
  8
0
100
AcDbLine
 62
253
  6
CONTINUOUS
 10
-6.6697220373
 20
23.9716874325
 11
-4.9788424862
 21
22.9953947713
  0
LINE
  5
4DC
100
AcDbEntity
  8
0
100
AcDbLine
 62
253
  6
CONTINUOUS
 10
5.6339359553
 20
16.8677095086
 11
7.3248155065
 21
15.8914168474
  0
LINE
  5
4DD
100
AcDbEntity
  8
0
100
AcDbLine
 62
7
  6
CONTINUOUS
 10
-6.5457444366
 20
23.9834823732
 11
-4.8548648855
 21
23.0071897121
  0
LINE
  5
4DE
100
AcDbEntity
  8
0
100
AcDbLine
 62
7
  6
CONTINUOUS
 10
5.757913556
 20
16.8795044493
 11
7.4487931072
 21
15.9032117882
  0
LWPOLYLINE
  5
4DF
100
AcDbEntity
  8
0
100
AcDbPolyline
 62
253
  6
CONTINUOUS
 90
34
 70
0
 10
-4.9788424862
 20
22.9953947713
 10
-4.9703836682
 20
22.9903344059
 10
-4.961946341
 20
22.9848217939
 10
-4.953549617
 20
22.9788694228
 10
-4.9452125166
 20
22.9724907761
 10
-4.9369539253
 20
22.9657003027
 10
-4.9287925507
 20
22.9585133846
 10
-4.92074688
 20
22.9509463018
 10
-4.9128351385
 20
22.9430161955
 10
-4.905075248
 20
22.934741029
 10
-4.8974847866
 20
22.9261395476
 10
-4.8900809482
 20
22.9172312355
 10
-4.8828805042
 20
22.9080362719
 10
-4.8758997653
 20
22.8985754857
 10
-4.8691545443
 20
22.8888703075
 10
-4.8626601207
 20
22.8789427218
 10
-4.8564312059
 20
22.8688152167
 10
-4.8504819097
 20
22.8585107334
 10
-4.8448257085
 20
22.8480526138
 10
-4.8394754151
 20
22.8374645479
 10
-4.834443149
 20
22.82677052
 10
-4.8297403093
 20
22.8159947545
 10
-4.8253775491
 20
22.805161661
 10
-4.821364751
 20
22.7942957787
 10
-4.817711005
 20
22.7834217214
 10
-4.8144245874
 20
22.7725641213
 10
-4.8115129429
 20
22.7617475732
 10
-4.808982667
 20
22.750996579
 10
-4.8068394912
 20
22.7403354922
 10
-4.8050882704
 20
22.7297884625
 10
-4.8037329715
 20
22.7193793812
 10
-4.8027766644
 20
22.7091318274
 10
-4.8022215156
 20
22.699069014
 10
-4.8020687825
 20
22.6892137354
  0
LWPOLYLINE
  5
4E0
100
AcDbEntity
  8
0
100
AcDbPolyline
 62
253
  6
CONTINUOUS
 90
34
 70
0
 10
7.3248155065
 20
15.8914168474
 10
7.3332604239
 20
15.8863651797
 10
7.3416875659
 20
15.8808602719
 10
7.3500778495
 20
15.8749139903
 10
7.3584134221
 20
15.8685382842
 10
7.3666741164
 20
15.8617478711
 10
7.3748376194
 20
15.854560786
 10
7.3828842392
 20
15.8469944735
 10
7.3907969724
 20
15.8390650319
 10
7.3985580359
 20
15.830790268
 10
7.4061499372
 20
15.8221887937
 10
7.4135553605
 20
15.8132801883
 10
7.4207573638
 20
15.8040848203
 10
7.4277395666
 20
15.7946236163
 10
7.4344862186
 20
15.7849179312
 10
7.4409820773
 20
15.7749896922
 10
7.4472124385
 20
15.7648613639
 10
7.4531631641
 20
15.7545559201
 10
7.4588207578
 20
15.7440967285
 10
7.4641723961
 20
15.7335074924
 10
7.4692059544
 20
15.7228121993
 10
7.4739100242
 20
15.7120350858
 10
7.4782739461
 20
15.7012005691
 10
7.4822878297
 20
15.6903332002
 10
7.4859425759
 20
15.6794576111
 10
7.4892299023
 20
15.668598446
 10
7.4921423599
 20
15.6577803087
 10
7.4946733481
 20
15.6470277152
 10
7.4968171322
 20
15.6363650244
 10
7.498568853
 20
15.6258164019
 10
7.4999245388
 20
15.6154057675
 10
7.5008811189
 20
15.6051567156
 10
7.5014364283
 20
15.5950924625
 10
7.5015892102
 20
15.5852358115
  0
LWPOLYLINE
  5
4E1
100
AcDbEntity
  8
0
100
AcDbPolyline
 62
7
  6
CONTINUOUS
 90
34
 70
0
 10
-5.5071096579
 20
22.6903795821
 10
-5.4986985825
 20
22.6852917624
 10
-5.4903063649
 20
22.6797532081
 10
-5.4819521171
 20
22.6737764037
 10
-5.4736549432
 20
22.6673747812
 10
-5.4654336448
 20
22.6605628364
 10
-5.457306679
 20
22.6533560957
 10
-5.4492925136
 20
22.6457708483
 10
-5.4414093943
 20
22.6378242226
 10
-5.4336750521
 20
22.629534295
 10
-5.4261070445
 20
22.6209198214
 10
-5.4187225876
 20
22.6120002731
 10
-5.411538325
 20
22.6027959086
 10
-5.4045705464
 20
22.5933275686
 10
-5.3978350872
 20
22.5836166712
 10
-5.3913471645
 20
22.5736852441
 10
-5.3851214678
 20
22.5635557884
 10
-5.3791721299
 20
22.5532512329
 10
-5.3735126305
 20
22.5427949252
 10
-5.3681557601
 20
22.5322105688
 10
-5.3631136604
 20
22.5215221359
 10
-5.3583977993
 20
22.5107538182
 10
-5.3540188075
 20
22.4999300386
 10
-5.3499865886
 20
22.4890753242
 10
-5.3463103646
 20
22.4782142177
 10
-5.3429983903
 20
22.4673713639
 10
-5.3400581295
 20
22.4565713452
 10
-5.3374963709
 20
22.445838555
 10
-5.3353188249
 20
22.4351973578
 10
-5.333530364
 20
22.424671891
 10
-5.3321352057
 20
22.4142859015
 10
-5.3311365021
 20
22.404062919
 10
-5.3305363331
 20
22.3940262029
 10
-5.3303359542
 20
22.3841985462
  0
LWPOLYLINE
  5
4E2
100
AcDbEntity
  8
0
100
AcDbPolyline
 62
7
  6
CONTINUOUS
 90
34
 70
0
 10
6.7965483347
 20
15.5864016582
 10
6.8049594102
 20
15.5813138385
 10
6.8133516278
 20
15.5757752842
 10
6.8217058755
 20
15.5697984798
 10
6.8300030495
 20
15.5633968573
 10
6.8382243478
 20
15.5565849125
 10
6.8463513136
 20
15.5493781718
 10
6.854365479
 20
15.5417929244
 10
6.8622485984
 20
15.5338462987
 10
6.8699829406
 20
15.5255563711
 10
6.8775509481
 20
15.5169418974
 10
6.884935405
 20
15.5080223492
 10
6.8921196676
 20
15.4988179847
 10
6.8990874463
 20
15.4893496447
 10
6.9058229055
 20
15.4796387473
 10
6.9123108282
 20
15.4697073202
 10
6.9185365248
 20
15.4595778645
 10
6.9244858628
 20
15.449273309
 10
6.9301453622
 20
15.4388170013
 10
6.9355022325
 20
15.4282326449
 10
6.9405443322
 20
15.417544212
 10
6.9452601934
 20
15.4067758943
 10
6.9496391852
 20
15.3959521147
 10
6.9536714041
 20
15.3850974003
 10
6.957347628
 20
15.3742362938
 10
6.9606596023
 20
15.36339344
 10
6.9635998632
 20
15.3525934213
 10
6.9661616218
 20
15.3418606311
 10
6.9683391677
 20
15.3312194339
 10
6.9701276286
 20
15.3206939671
 10
6.9715227869
 20
15.3103079776
 10
6.9725214906
 20
15.3000849951
 10
6.9731216595
 20
15.290048279
 10
6.9733220384
 20
15.2802206223
  0
LWPOLYLINE
  5
4E3
100
AcDbEntity
  8
0
100
AcDbPolyline
 62
7
  6
CONTINUOUS
 90
9
 70
0
 10
7.4487931072
 20
15.9032117882
 10
7.475305968
 20
15.8855596773
 10
7.4996834306
 20
15.8643608538
 10
7.5213358976
 20
15.8399226955
 10
7.5397513839
 20
15.8126430155
 10
7.5544654431
 20
15.7830804675
 10
7.5651491315
 20
15.7518576307
 10
7.5716566101
 20
15.7192763853
 10
7.5737870586
 20
15.6866712358
  0
LWPOLYLINE
  5
4E4
100
AcDbEntity
  8
SMUSSO
100
AcDbPolyline
 62
7
  6
CONTINUOUS
 90
10
 70
0
 10
10.0235661312
 20
13.8933475671
 10
9.9554555836
 20
13.9641278237
 10
9.8788443273
 20
14.0396123045
 10
9.7942292044
 20
14.1193114703
 10
9.7021589601
 20
14.2027084527
 10
9.6032307011
 20
14.2892623896
 10
9.4980860286
 20
14.3784119314
 10
9.3874068432
 20
14.4695789095
 10
9.271910939
 20
14.5621720721
 10
9.229222059
 20
14.5955262553
  0
LWPOLYLINE
  5
4E5
100
AcDbEntity
  8
SMUSSO
100
AcDbPolyline
 62
7
  6
CONTINUOUS
 90
33
 70
0
 10
14.4783388527
 20
11.3212176292
 10
14.4102283051
 20
11.3919978857
 10
14.3336170488
 20
11.4674823665
 10
14.2490019259
 20
11.5471815324
 10
14.1569316815
 20
11.6305785147
 10
14.0580034226
 20
11.7171324517
 10
13.9528587501
 20
11.8062819934
 10
13.8421795647
 20
11.8974489716
 10
13.7266836605
 20
11.9900421342
 10
13.6071200928
 20
12.0834609621
 10
13.4842642785
 20
12.1770995969
 10
13.3589129853
 20
12.2703507556
 10
13.231879187
 20
12.3626096521
 10
13.1039867482
 20
12.4532779517
 10
12.9760651018
 20
12.5417676356
 10
12.8489438906
 20
12.6275048006
 10
12.7234475493
 20
12.7099334068
 10
12.6003899621
 20
12.7885188806
 10
12.480569205
 20
12.8627515668
 10
12.3647623822
 20
12.9321500282
 10
12.2537205121
 20
12.9962642123
 10
12.1481636708
 20
13.0546783562
 10
12.0487764173
 20
13.1070136281
 10
11.9562033455
 20
13.1529305944
 10
11.8710448358
 20
13.192131459
 10
11.793853177
 20
13.2243619848
 10
11.7251289983
 20
13.2494131358
 10
11.6653180198
 20
13.2671224369
 10
11.6148081428
 20
13.2773750334
 10
11.5739269472
 20
13.2801044304
 10
11.5429395719
 20
13.2752929251
 10
11.522046981
 20
13.2629717229
 10
11.5181571695
 20
13.258368474
  0
LWPOLYLINE
  5
4E6
100
AcDbEntity
  8
SMUSSO
100
AcDbPolyline
 62
7
  6
CONTINUOUS
 90
10
 70
0
 10
11.0526339285
 20
14.2089255561
 10
10.9638583546
 20
14.3013744771
 10
10.8647053671
 20
14.399585573
 10
10.7557288425
 20
14.5030100011
 10
10.6375375369
 20
14.6110698074
 10
10.5107919623
 20
14.7231609041
 10
10.3762007631
 20
14.8386564151
 10
10.2345161414
 20
14.956910712
 10
10.0865302157
 20
15.0772625276
 10
9.9646957037
 20
15.173942929
  0
LINE
  5
4E7
100
AcDbEntity
  8
ASSI
100
AcDbLine
 62
7
  6
CONTINUOUS
 10
13.6016103399
 20
11.2916234085
 11
16.1567630022
 21
8.5534127652
  0
LINE
  5
4E8
100
AcDbEntity
  8
0
100
AcDbLine
 62
7
  6
CONTINUOUS
 10
7.680737361
 20
-22.5633977642
 11
7.7157841587
 21
-22.5192364199
  0
LINE
  5
4E9
100
AcDbEntity
  8
0
100
AcDbLine
 62
253
  6
CONTINUOUS
 10
5.6603186679
 20
-23.9914488763
 11
5.1079076356
 21
-24.6728463587
  0
LINE
  5
4EA
100
AcDbEntity
  8
0
100
AcDbLine
 62
253
  6
CONTINUOUS
 10
6.0832618557
 20
-24.0239551085
 11
5.3720412476
 21
-24.9012437638
  0
LINE
  5
4EB
100
AcDbEntity
  8
0
100
AcDbLine
 62
7
  6
CONTINUOUS
 10
8.3992610658
 20
-21.6903258254
 11
7.7157841587
 21
-22.5192364199
  0
LINE
  5
4EC
100
AcDbEntity
  8
0
100
AcDbLine
 62
7
  6
CONTINUOUS
 10
13.3267204485
 20
-15.4531982045
 11
8.3992610658
 21
-18.3483454679
  0
LINE
  5
4ED
100
AcDbEntity
  8
0
100
AcDbLine
 62
253
  6
CONTINUOUS
 10
13.3267204485
 20
-14.6680279619
 11
8.420168772
 21
-16.5937018561
  0
LINE
  5
4EE
100
AcDbEntity
  8
0
100
AcDbLine
 62
7
  6
CONTINUOUS
 10
-7.1302853199
 20
20.9928338508
 11
-6.5025263685
 21
20.9350290834
  0
LINE
  5
4EF
100
AcDbEntity
  8
0
100
AcDbLine
 62
253
  6
CONTINUOUS
 10
-6.9316167451
 20
21.1391199472
 11
-6.220396137
 21
21.0736299343
  0
LWPOLYLINE
  5
4F0
100
AcDbEntity
  8
0
100
AcDbPolyline
 62
253
  6
CONTINUOUS
 90
16
 70
0
 10
-6.5545629909
 20
23.9879015238
 10
-6.5610095382
 20
23.9903662541
 10
-6.5677028463
 20
23.9923286825
 10
-6.5746278648
 20
23.9937843962
 10
-6.5817690222
 20
23.9947301219
 10
-6.5891102612
 20
23.9951637332
 10
-6.5966350744
 20
23.9950842549
 10
-6.6043265417
 20
23.9944918659
 10
-6.6121673682
 20
23.9933878981
 10
-6.6201399233
 20
23.991774834
 10
-6.62822628
 20
23.9896563005
 10
-6.6364082556
 20
23.9870370614
 10
-6.6446674523
 20
23.9839230062
 10
-6.6529852987
 20
23.9803211372
 10
-6.6613430914
 20
23.9762395533
 10
-6.6697220373
 20
23.9716874325
  0
LWPOLYLINE
  5
4F1
100
AcDbEntity
  8
0
100
AcDbPolyline
 62
7
  6
CONTINUOUS
 90
6
 70
0
 10
-6.5457444366
 20
23.9834823732
 10
-6.5742361533
 20
23.9975973464
 10
-6.6047241137
 20
24.0081024233
 10
-6.6366510718
 20
24.0146430527
 10
-6.6694257095
 20
24.0169759616
 10
-6.702331572
 20
24.0149767325
  0
LWPOLYLINE
  5
4F2
100
AcDbEntity
  8
ASSI
100
AcDbPolyline
 62
7
  6
CONTINUOUS
 90
8
 70
0
 10
11.7477074869
 20
15.1722220515
 10
11.6503675626
 20
15.2732522344
 10
11.5425594646
 20
15.3794747122
 10
11.4242831927
 20
15.490889485
 10
11.294639799
 20
15.6082830567
 10
11.1545282316
 20
15.7308689233
 10
11.0066453341
 20
15.8562875728
 10
10.9214870926
 20
15.9264159736
  0
LWPOLYLINE
  5
4F3
100
AcDbEntity
  8
ASSI
100
AcDbPolyline
 62
7
  6
CONTINUOUS
 90
33
 70
0
 10
16.2024802084
 20
12.6000921135
 10
16.1051402841
 20
12.7011222964
 10
15.997332186
 20
12.8073447743
 10
15.8790559141
 20
12.918759547
 10
15.7494125205
 20
13.0361531187
 10
15.6093009531
 20
13.1587389853
 10
15.4614180556
 20
13.2841576348
 10
15.305613281
 20
13.4124639441
 10
15.1420371764
 20
13.5436030363
 10
14.973838227
 20
13.6750507682
 10
14.8009268786
 20
13.8068131188
 10
14.6233926855
 20
13.9388841091
 10
14.4446527958
 20
14.068721659
 10
14.2646838526
 20
14.1962825021
 10
14.0835092129
 20
14.3216099047
 10
13.9046160956
 20
14.4422915862
 10
13.7280486985
 20
14.5582375491
 10
13.5537628238
 20
14.6695377909
 10
13.3851130965
 20
14.7740500233
 10
13.2222087008
 20
14.8716427482
 10
13.0649404526
 20
14.9624474637
 10
12.9163354246
 20
15.0447163759
 10
12.7765614416
 20
15.1182841283
 10
12.6454506789
 20
15.1833160775
 10
12.5255267341
 20
15.2385604995
 10
12.4170063197
 20
15.283827789
 10
12.3196727234
 20
15.3193075514
 10
12.2353994057
 20
15.3443168781
 10
12.1644393719
 20
15.3586529345
 10
12.1065396168
 20
15.3625185552
 10
12.062814585
 20
15.3558393354
 10
12.0335388711
 20
15.3384109991
 10
12.028034224
 20
15.3318494297
  0
LWPOLYLINE
  5
4F4
100
AcDbEntity
  8
SMUSSO
100
AcDbPolyline
 62
7
  6
CONTINUOUS
 90
35
 70
0
 10
15.5074066499
 20
11.6367956181
 10
15.418631076
 20
11.7292445391
 10
15.3194780886
 20
11.8274556351
 10
15.210501564
 20
11.9308800631
 10
15.0923102584
 20
12.0389398694
 10
14.9655646838
 20
12.1510309661
 10
14.8309734846
 20
12.2665264772
 10
14.6892888629
 20
12.384780774
 10
14.5413029372
 20
12.5051325897
 10
14.3878437221
 20
12.626908417
 10
14.2297693464
 20
12.7494272117
 10
14.0679636452
 20
12.8720038556
 10
13.9033319373
 20
12.993952449
 10
13.7367949571
 20
13.1145909147
 10
13.5692840306
 20
13.2332445496
 10
13.4017363695
 20
13.349249447
 10
13.235089038
 20
13.4619567723
 10
13.0702741304
 20
13.570736089
 10
12.9082138985
 20
13.674978673
 10
12.7498147819
 20
13.774101452
 10
12.5959627419
 20
13.8675499903
 10
12.4475186741
 20
13.9548013763
 10
12.3053128427
 20
14.0353676033
 10
12.1701406171
 20
14.1087980576
 10
12.0427583215
 20
14.1746818885
 10
11.9238783491
 20
14.2326506614
 10
11.8141655464
 20
14.2823802076
 10
11.7142337142
 20
14.3235923542
 10
11.6246416314
 20
14.3560567268
 10
11.545890206
 20
14.3795918928
 10
11.4784198495
 20
14.3940663358
 10
11.4226076516
 20
14.399399296
 10
11.3787655246
 20
14.3955611359
 10
11.3471384811
 20
14.3825735668
 10
11.3327914557
 20
14.3686750146
  0
LWPOLYLINE
  5
4F5
100
AcDbEntity
  8
ASSI
100
AcDbPolyline
 62
7
  6
CONTINUOUS
 90
3
 70
0
 10
11.8389690173
 20
15.0701821649
 10
11.8317610191
 20
15.0788632648
 10
11.7477074869
 20
15.1722220515
  0
LWPOLYLINE
  5
4F6
100
AcDbEntity
  8
0
100
AcDbPolyline
 62
7
  6
CONTINUOUS
 90
4
 70
0
 10
7.5239115783
 20
-24.0548013049
 10
7.5025469802
 20
-24.0797384379
 10
7.4780056547
 20
-24.1017328752
 10
7.4509725433
 20
-24.1201972351
  0
LWPOLYLINE
  5
4F7
100
AcDbEntity
  8
0
100
AcDbPolyline
 62
253
  6
CONTINUOUS
 90
37
 70
0
 10
2.6911231416
 20
-24.9657260234
 10
2.6754570002
 20
-24.9767140523
 10
2.6591733141
 20
-24.9872949494
 10
2.642302403
 20
-24.9974490136
 10
2.6248756798
 20
-25.0071573384
 10
2.6069255926
 20
-25.0164018471
 10
2.5884855639
 20
-25.0251653268
 10
2.5695899283
 20
-25.0334314603
 10
2.550273869
 20
-25.0411848561
 10
2.5305733519
 20
-25.0484110779
 10
2.5105250585
 20
-25.0550966707
 10
2.4901663183
 20
-25.061229186
 10
2.4695350384
 20
-25.0667972055
 10
2.4486696337
 20
-25.0717903617
 10
2.4276089548
 20
-25.0761993574
 10
2.406392216
 20
-25.0800159835
 10
2.385058922
 20
-25.0832331334
 10
2.3636487949
 20
-25.085844817
 10
2.3422016994
 20
-25.0878461715
 10
2.3207575693
 20
-25.0892334705
 10
2.2993563328
 20
-25.0900041308
 10
2.2780378381
 20
-25.0901567176
 10
2.2568417797
 20
-25.0896909469
 10
2.2358076237
 20
-25.0886076859
 10
2.2149745349
 20
-25.0869089516
 10
2.1943813037
 20
-25.084597907
 10
2.1740662741
 20
-25.0816788553
 10
2.1540672717
 20
-25.0781572317
 10
2.134421534
 20
-25.0740395933
 10
2.1151656405
 20
-25.0693336069
 10
2.0963354449
 20
-25.0640480351
 10
2.0779660084
 20
-25.0581927194
 10
2.0600915342
 20
-25.0517785621
 10
2.0427453037
 20
-25.0448175061
 10
2.025959615
 20
-25.0373225127
 10
2.0097657224
 20
-25.0293075373
 10
1.9941937784
 20
-25.0207875035
  0
LWPOLYLINE
  5
4F8
100
AcDbEntity
  8
0
100
AcDbPolyline
 62
7
  6
CONTINUOUS
 90
21
 70
0
 10
13.6380125461
 20
-16.0340835795
 10
13.6515901252
 20
-16.0256315702
 10
13.6645362728
 20
-16.0169032919
 10
13.6768509891
 20
-16.0078987444
 10
13.6885517854
 20
-15.9986027847
 10
13.6996211504
 20
-15.9890305559
 10
13.7100065494
 20
-15.9792274873
 10
13.7197047312
 20
-15.9691924815
 10
13.7287189471
 20
-15.9589266358
 10
13.7370064161
 20
-15.9484786713
 10
13.7445636835
 20
-15.9378477224
 10
13.7513942041
 20
-15.9270346547
 10
13.7574655605
 20
-15.9160907864
 10
13.7627741441
 20
-15.9050154959
 10
13.7673235635
 20
-15.8938094047
 10
13.7710922275
 20
-15.8825256964
 10
13.7740764247
 20
-15.871164002
 10
13.7762798665
 20
-15.8597246906
 10
13.7776920954
 20
-15.8482620523
 10
13.7783093505
 20
-15.8367759763
 10
13.7783403606
 20
-15.833540061
  0
LINE
  5
4F9
100
AcDbEntity
  8
0
100
AcDbLine
 62
7
  6
CONTINUOUS
 10
13.6380125461
 20
-16.0340835795
 11
8.3992610658
 21
-19.1663447454
  0
LINE
  5
4FA
100
AcDbEntity
  8
DRAFT
100
AcDbLine
 62
7
  6
CONTINUOUS
 10
13.6380125461
 20
-16.4861920969
 11
8.3992610658
 21
-19.5869727804
  0
LINE
  5
4FB
100
AcDbEntity
  8
0
100
AcDbLine
 62
7
  6
CONTINUOUS
 10
4.411665317
 20
22.4567712809
 11
6.16014924
 21
22.7315007353
  0
LWPOLYLINE
  5
4FC
100
AcDbEntity
  8
0
100
AcDbPolyline
 62
7
  6
CONTINUOUS
 90
13
 70
0
 10
7.7184936516
 20
20.8554073851
 10
7.7325574817
 20
20.8544493016
 10
7.7469667476
 20
20.8527970347
 10
7.7617913331
 20
20.8504032228
 10
7.7770381371
 20
20.8472518325
 10
7.7926787984
 20
20.8433255242
 10
7.8087328761
 20
20.8385679087
 10
7.8251910845
 20
20.8329579242
 10
7.8420320445
 20
20.826479161
 10
7.8592556969
 20
20.8190788963
 10
7.8768442219
 20
20.8107330033
 10
7.8947720578
 20
20.8014260367
 10
7.908890129
 20
20.7935258063
  0
LWPOLYLINE
  5
4FD
100
AcDbEntity
  8
0
100
AcDbPolyline
 62
7
  6
CONTINUOUS
 90
15
 70
0
 10
8.3805592159
 20
20.5211900001
 10
8.3798532289
 20
20.5213968798
 10
8.3782450814
 20
20.5213532635
 10
8.3759680537
 20
20.5209332171
 10
8.3730560466
 20
20.5201468882
 10
8.3695425149
 20
20.5190091562
 10
8.3654568058
 20
20.517555123
 10
8.3608321849
 20
20.5157936813
 10
8.3556995268
 20
20.5137336932
 10
8.350079436
 20
20.5114092739
 10
8.3440074269
 20
20.5088330518
 10
8.3375058503
 20
20.5060047099
 10
8.3305641081
 20
20.5029402103
 10
8.3231981434
 20
20.4996495272
 10
8.3072527616
 20
20.4924039184
  0
LINE
  5
4FE
100
AcDbEntity
  8
0
100
AcDbLine
 62
7
  6
CONTINUOUS
 10
4.411665317
 20
22.4567712809
 11
7.4115747034
 21
20.7246611989
  0
LINE
  5
4FF
100
AcDbEntity
  8
0
100
AcDbLine
 62
253
  6
CONTINUOUS
 10
1.985786439
 20
24.0466948215
 11
2.6266722128
 21
23.6766554079
  0
LINE
  5
500
100
AcDbEntity
  8
0
100
AcDbLine
 62
253
  6
CONTINUOUS
 10
7.5764196811
 20
20.8187332546
 11
8.2173054548
 21
20.4486938411
  0
LINE
  5
501
100
AcDbEntity
  8
0
100
AcDbLine
 62
7
  6
CONTINUOUS
 10
2.3184430986
 20
24.0213791426
 11
2.790112585
 21
23.7490430926
  0
LINE
  5
502
100
AcDbEntity
  8
0
100
AcDbLine
 62
7
  6
CONTINUOUS
 10
7.9088897116
 20
20.793525333
 11
8.3805591981
 21
20.521189283
  0
LINE
  5
503
100
AcDbEntity
  8
0
100
AcDbLine
 62
253
  6
CONTINUOUS
 10
7.680737361
 20
-22.8083526644
 11
8.3816733148
 21
-22.3917650275
  0
LINE
  5
504
100
AcDbEntity
  8
0
100
AcDbLine
 62
7
  6
CONTINUOUS
 10
7.5790211512
 20
-23.0361461517
 11
8.2799508606
 21
-22.6195622261
  0
LINE
  5
505
100
AcDbEntity
  8
0
100
AcDbLine
 62
253
  6
CONTINUOUS
 10
6.9733220384
 20
-24.3185947107
 11
7.5015892102
 21
-24.0064405765
  0
LWPOLYLINE
  5
506
100
AcDbEntity
  8
0
100
AcDbPolyline
 62
7
  6
CONTINUOUS
 90
3
 70
0
 10
7.5785761473
 20
-23.0353971139
 10
7.5712213416
 20
-23.0395565779
 10
7.5671836075
 20
-23.0416367847
  0
LINE
  5
507
100
AcDbEntity
  8
0
100
AcDbLine
 62
253
  6
CONTINUOUS
 10
3.0279306293
 20
-25.1247259835
 11
7.6798281245
 21
-22.8076093393
  0
LINE
  5
508
100
AcDbEntity
  8
0
100
AcDbLine
 62
7
  6
CONTINUOUS
 10
2.9035300241
 20
-25.364609153
 11
7.5671836075
 21
-23.0416367847
  0
LWPOLYLINE
  5
509
100
AcDbEntity
  8
0
100
AcDbPolyline
 62
7
  6
CONTINUOUS
 90
14
 70
0
 10
2.1161405378
 20
24.0835440849
 10
2.1298413928
 20
24.0831761481
 10
2.143892549
 20
24.0821342523
 10
2.1582904757
 20
24.0804013649
 10
2.1731018835
 20
24.0779295108
 10
2.1883334644
 20
24.0747022854
 10
2.2039571682
 20
24.0707027651
 10
2.2199898326
 20
24.0658755171
 10
2.236421615
 20
24.0601996306
 10
2.2532316417
 20
24.053658967
 10
2.2704186057
 20
24.0462022106
 10
2.287964296
 20
24.037805692
 10
2.3058436121
 20
24.0284541405
 10
2.3184435345
 20
24.021379637
  0
LWPOLYLINE
  5
50A
100
AcDbEntity
  8
0
100
AcDbPolyline
 62
7
  6
CONTINUOUS
 90
13
 70
0
 10
2.7901126022
 20
23.7490437817
 10
2.7892976409
 20
23.7492626461
 10
2.7876232169
 20
23.7491845937
 10
2.7852772662
 20
23.7487288868
 10
2.7822943256
 20
23.7479057556
 10
2.7787083197
 20
23.746730036
 10
2.7745486852
 20
23.7452374523
 10
2.7698491985
 20
23.743437147
 10
2.764640943
 20
23.7413377041
 10
2.7589436918
 20
23.7389731381
 10
2.7527932136
 20
23.736356559
 10
2.746211698
 20
23.7334872237
 10
2.7317319223
 20
23.7270441624
  0
LWPOLYLINE
  5
50B
100
AcDbEntity
  8
0
100
AcDbPolyline
 62
7
  6
CONTINUOUS
 90
24
 70
0
 10
5.9530635449
 20
23.6268496848
 10
5.9457301364
 20
23.6309626611
 10
5.9277946038
 20
23.6400409832
 10
5.9093066809
 20
23.6480420463
 10
5.8902551693
 20
23.6549759895
 10
5.8706885138
 20
23.6608253173
 10
5.8505910642
 20
23.6655899512
 10
5.8299784707
 20
23.6692699697
 10
5.8089461282
 20
23.6718481125
 10
5.7875060364
 20
23.6733188562
 10
5.7656461955
 20
23.6736877243
 10
5.7434260019
 20
23.6729540267
 10
5.7208317349
 20
23.6711133629
 10
5.6978771152
 20
23.6681701334
 10
5.6746627013
 20
23.6641368504
 10
5.6511981031
 20
23.6590112889
 10
5.6274737107
 20
23.6527956738
 10
5.6035612533
 20
23.6455091922
 10
5.5794522105
 20
23.6371458408
 10
5.5551551027
 20
23.6277116229
 10
5.5307672204
 20
23.6172437348
 10
5.5063209935
 20
23.6057545753
 10
5.4817839921
 20
23.5932317456
 10
5.4571562161
 20
23.5796752457
  0
LINE
  5
50C
100
AcDbEntity
  8
0
100
AcDbLine
 62
7
  6
CONTINUOUS
 10
6.16014924
 20
22.7315007353
 11
9.3145590329
 21
20.9101840549
  0
LINE
  5
50D
100
AcDbEntity
  8
DRAFT
100
AcDbLine
 62
253
  6
CONTINUOUS
 10
2.4939958154
 20
25.290566924
 11
5.4571562161
 21
23.5796752457
  0
LINE
  5
50E
100
AcDbEntity
  8
DRAFT
100
AcDbLine
 62
253
  6
CONTINUOUS
 10
9.6997969033
 20
21.1300276858
 11
12.662957304
 21
19.4191360075
  0
LINE
  5
50F
100
AcDbEntity
  8
0
100
AcDbLine
 62
7
  6
CONTINUOUS
 10
2.7889075972
 20
25.4538007717
 11
5.953066619
 21
23.6268550087
  0
LINE
  5
510
100
AcDbEntity
  8
0
100
AcDbLine
 62
7
  6
CONTINUOUS
 10
10.1957073061
 20
21.1772074488
 11
13.3598663279
 21
19.3502616858
  0
LINE
  5
511
100
AcDbEntity
  8
0
100
AcDbLine
 62
7
  6
CONTINUOUS
 10
6.9222776282
 20
-24.4326041239
 11
7.4509682658
 21
-24.1201997629
  0
LINE
  5
512
100
AcDbEntity
  8
0
100
AcDbLine
 62
7
  6
CONTINUOUS
 10
6.9222776422
 20
-24.4326041157
 11
6.9208233991
 21
-24.4334437774
  0
LINE
  5
513
100
AcDbEntity
  8
0
100
AcDbLine
 62
253
  6
CONTINUOUS
 10
5.3720412476
 20
-25.2217639366
 11
6.9733220384
 21
-24.3185947107
  0
LINE
  5
514
100
AcDbEntity
  8
0
100
AcDbLine
 62
7
  6
CONTINUOUS
 10
5.3191141715
 20
-25.3368546545
 11
6.9208233851
 21
-24.4334437857
  0
LWPOLYLINE
  5
515
100
AcDbEntity
  8
0
100
AcDbPolyline
 62
7
  6
CONTINUOUS
 90
9
 70
0
 10
5.3191141715
 20
-25.3368546545
 10
5.290570848
 20
-25.3506455528
 10
5.2600795178
 20
-25.360829096
 10
5.228195375
 20
-25.3670597135
 10
5.1955042687
 20
-25.3691019163
 10
5.1627184569
 20
-25.3668380221
 10
5.1305470935
 20
-25.3603024686
 10
5.0993129654
 20
-25.3495250933
 10
5.0712510821
 20
-25.3355836194
  0
LWPOLYLINE
  5
516
100
AcDbEntity
  8
0
100
AcDbPolyline
 62
7
  6
CONTINUOUS
 90
3
 70
0
 10
-6.702331572
 20
24.0149767325
 10
-6.7346568997
 20
24.0086734671
 10
-6.7660747053
 20
23.9980925588
  0
ARC
  5
517
100
AcDbEntity
  8
0
100
AcDbCircle
 62
7
  6
CONTINUOUS
 10
-4.9798709255
 20
22.7906868485
 40
0.25
100
AcDbArc
 50
0.0007993011
 51
59.999200789
  0
ELLIPSE
  5
518
100
AcDbEntity
  8
RACCORDO
100
AcDbEllipse
 62
7
  6
CONTINUOUS
 10
-9.9648052246
 20
19.6008268642
 30
0.0
 11
-0.0499260605
 21
0.0866804662
 31
0.0
 40
0.5778584463
 41
-0.7846820092
 42
0.0175093263
  0
ELLIPSE
  5
519
100
AcDbEntity
  8
RACCORDO
100
AcDbEllipse
 62
7
  6
CONTINUOUS
 10
3.1932206127
 20
12.0035476545
 30
0.0
 11
-0.0499720045
 21
0.08675949
 31
0.0
 40
0.5768037941
 41
-2.355482613
 42
-0.7837728977
  0
ELLIPSE
  5
51A
100
AcDbEntity
  8
0
100
AcDbEllipse
 62
7
  6
CONTINUOUS
 10
1.9837175938
 20
23.6372858851
 30
0.0
 11
0.2522054935
 21
0.4317367776
 31
0.0
 40
0.580680601
 41
0.689040114
 42
0.7825716451
  0
ELLIPSE
  5
51B
100
AcDbEntity
  8
0
100
AcDbEllipse
 62
7
  6
CONTINUOUS
 10
-0.3452331469
 20
19.9502439225
 30
0.0
 11
-0.1000031398
 21
0.1732052219
 31
0.0
 40
0.5773316701
 41
-2.3562258892
 42
-0.7854295624
  0
ELLIPSE
  5
51C
100
AcDbEntity
  8
0
100
AcDbEllipse
 62
7
  6
CONTINUOUS
 10
1.351823128
 20
18.9703848985
 30
0.0
 11
-0.1000031398
 21
0.1732052219
 31
0.0
 40
0.5773316701
 41
-0.7854295624
 42
-0.0029086502
  0
ELLIPSE
  5
51D
100
AcDbEntity
  8
DRAFT
100
AcDbEllipse
 62
7
  6
CONTINUOUS
 10
1.7827364728
 20
24.8800322309
 30
0.0
 11
1.0061852078
 21
0.5737549327
 31
0.0
 40
0.0052693892
 41
0.003079628
 42
0.7827085602
  0
ELLIPSE
  5
51E
100
AcDbEntity
  8
RACCORDO
100
AcDbEllipse
 62
7
  6
CONTINUOUS
 10
-5.1889122047
 20
20.9555869306
 30
0.0
 11
-0.0998556708
 21
0.1734136355
 31
0.0
 40
0.5775064956
 41
0.7868572898
 42
2.3573491378
  0
ELLIPSE
  5
51F
100
AcDbEntity
  8
RACCORDO
100
AcDbEllipse
 62
7
  6
CONTINUOUS
 10
7.114745788
 20
13.8516090067
 30
0.0
 11
-0.0998556708
 21
0.1734136355
 31
0.0
 40
0.5775064956
 41
0.7868572898
 42
2.3573491378
  0
ELLIPSE
  5
520
100
AcDbEntity
  8
0
100
AcDbEllipse
 62
7
  6
CONTINUOUS
 10
8.0281064614
 20
-22.1875992317
 30
0.0
 11
-0.2500332324
 21
0.4330240487
 31
0.0
 40
0.5773023583
 41
-3.1343210675
 42
-2.3562893423
  0
ELLIPSE
  5
521
100
AcDbEntity
  8
0
100
AcDbEllipse
 62
7
  6
CONTINUOUS
 10
8.0281064614
 20
13.5642849041
 30
0.0
 11
-0.2500205442
 21
0.4330020622
 31
0.0
 40
0.577360979
 41
-2.3562385877
 42
-0.7854930296
  0
ELLIPSE
  5
522
100
AcDbEntity
  8
0
100
AcDbEllipse
 62
7
  6
CONTINUOUS
 10
8.6524611156
 20
-13.3217665775
 30
0.0
 11
0.7307083665
 21
1.3101153486
 31
0.0
 40
0.5671693725
 41
-2.347120172
 42
-0.1829118995
  0
ELLIPSE
  5
523
100
AcDbEntity
  8
0
100
AcDbEllipse
 62
7
  6
CONTINUOUS
 10
8.0666019186
 20
-14.8810940436
 30
0.0
 11
-0.2499739954
 21
0.4330387087
 31
0.0
 40
0.577419602
 41
-2.3560524088
 42
-2.0135755186
  0
ELLIPSE
  5
524
100
AcDbEntity
  8
DRAFT
100
AcDbEllipse
 62
7
  6
CONTINUOUS
 10
13.278342646
 20
-16.693909471
 30
0.0
 11
0.4999975532
 21
0.2922382515
 31
0.0
 40
0.0053525714
 41
-0.7710733282
 42
-0.0031285684
  0
ELLIPSE
  5
525
100
AcDbEntity
  8
0
100
AcDbEllipse
 62
7
  6
CONTINUOUS
 10
-1.2644719624
 20
18.268344594
 30
0.0
 11
0.1999154856
 21
0.0095814127
 31
0.0
 40
0.6067642562
 41
-2.385266879
 42
-0.8144705522
  0
ELLIPSE
  5
526
100
AcDbEntity
  8
0
100
AcDbEllipse
 62
7
  6
CONTINUOUS
 10
0.4325843124
 20
17.28848557
 30
0.0
 11
0.1999154856
 21
0.0095814127
 31
0.0
 40
0.6067642562
 41
3.1125202648
 42
3.8979184282
  0
ELLIPSE
  5
527
100
AcDbEntity
  8
DRAFT
100
AcDbEllipse
 62
7
  6
CONTINUOUS
 10
13.365989132
 20
18.1920073177
 30
0.0
 11
-0.7006352283
 21
1.22850495
 31
0.0
 40
0.5737642108
 41
5.0913839874
 42
6.2865911274
  0
ELLIPSE
  5
528
100
AcDbEntity
  8
0
100
AcDbEllipse
 62
7
  6
CONTINUOUS
 10
7.927916193
 20
19.3451896024
 30
0.0
 11
0.4530408369
 21
-0.002269484
 31
0.0
 40
0.5740189913
 41
-0.7767048895
 42
0.0028755094
  0
ELLIPSE
  5
529
100
AcDbEntity
  8
0
100
AcDbEllipse
 62
7
  6
CONTINUOUS
 10
2.33746958
 20
22.573043412
 30
0.0
 11
0.4530408369
 21
-0.002269484
 31
0.0
 40
0.5740189913
 41
-0.7825226537
 42
0.0028755093
  0
ELLIPSE
  5
52A
100
AcDbEntity
  8
RACCORDO
100
AcDbEllipse
 62
7
  6
CONTINUOUS
 10
3.4435427865
 20
11.777255693
 30
0.0
 11
-0.0999440089
 21
0.17351898
 31
0.0
 40
0.5768037941
 41
-0.7837728977
 42
0.034893124
  0
ELLIPSE
  5
52B
100
AcDbEntity
  8
RACCORDO
100
AcDbEllipse
 62
7
  6
CONTINUOUS
 10
-10.2151273985
 20
19.6636006744
 30
0.0
 11
-0.099852121
 21
0.1733609324
 31
0.0
 40
0.5778584463
 41
-1.992275079
 42
-0.7846820092
  0
ELLIPSE
  5
52C
100
AcDbEntity
  8
0
100
AcDbEllipse
 62
7
  6
CONTINUOUS
 10
8.6409042085
 20
-13.309280227
 30
0.0
 11
0.1461416733
 21
0.2620230697
 31
0.0
 40
0.5671693725
 41
-0.7937771377
 42
-0.1829118995
  0
ELLIPSE
  5
52D
100
AcDbEntity
  8
0
100
AcDbEllipse
 62
7
  6
CONTINUOUS
 10
8.6409042085
 20
-13.3390388669
 30
0.0
 11
0.1461416733
 21
0.2620230697
 31
0.0
 40
0.5671693725
 41
-2.347120172
 42
-0.7937771377
  0
ELLIPSE
  5
52E
100
AcDbEntity
  8
0
100
AcDbEllipse
 62
7
  6
CONTINUOUS
 10
57.3182144722
 20
48.4723872831
 30
0.0
 11
60.4168506882
 21
35.2934066151
 31
0.0
 40
0.0050378458
 41
2.5166802681
 42
2.6876229173
  0
ELLIPSE
  5
52F
100
AcDbEntity
  8
0
100
AcDbEllipse
 62
7
  6
CONTINUOUS
 10
8.2152605427
 20
20.039271086
 30
0.0
 11
0.247841934
 21
0.4342563559
 31
0.0
 40
0.5739631936
 41
0.6832219561
 42
0.7767534872
  0
ELLIPSE
  5
530
100
AcDbEntity
  8
0
100
AcDbEllipse
 62
7
  6
CONTINUOUS
 10
57.3182144722
 20
48.4723872831
 30
0.0
 11
60.4168506882
 21
35.2934066151
 31
0.0
 40
0.0050378458
 41
-2.6935087662
 42
-2.5225661169
  0
ELLIPSE
  5
531
100
AcDbEntity
  8
DRAFT
100
AcDbEllipse
 62
7
  6
CONTINUOUS
 10
13.278342646
 20
19.1552869191
 30
0.0
 11
-0.3567823072
 21
0.610519958
 31
0.0
 40
0.573764555
 41
-3.1333143349
 42
-2.1059759599
  0
ENDSEC
  0
SECTION
  2
OBJECTS
  0
DICTIONARY
  5
C
100
AcDbDictionary
280
0
281
1
  3
ACAD_GROUP
350
D
  3
ACAD_MLINESTYLE
350
17
  3
ACAD_LAYOUT
350
1A
  3
ACAD_PLOTSETTINGS
350
19
  3
ACAD_PLOTSTYLENAME
350
E
  0
DICTIONARY
  5
D
102
{ACAD_REACTORS
330
C
102
}
100
AcDbDictionary
280
0
281
1
  0
ACDBDICTIONARYWDFLT
  5
E
102
{ACAD_REACTORS
330
C
102
}
100
AcDbDictionary
281
1
  3
Normal
350
F
100
AcDbDictionaryWithDefault
340
F
  0
DICTIONARY
  5
17
102
{ACAD_REACTORS
330
C
102
}
100
AcDbDictionary
280
0
281
1
  3
Standard
350
18
  0
DICTIONARY
  5
19
102
{ACAD_REACTORS
330
C
102
}
100
AcDbDictionary
281
1
  0
DICTIONARY
  5
1A
102
{ACAD_REACTORS
330
C
102
}
100
AcDbDictionary
281
1
  3
Model
350
532
  3
Layout1
350
533
  0
ACDBPLACEHOLDER
  5
F
102
{ACAD_REACTORS
330
E
102
}
  0
MLINESTYLE
  5
18
102
{ACAD_REACTORS
330
17
102
}
100
AcDbMlineStyle
  2
STANDARD
 70
0
  3

 62
256
 51
90.0
 52
90.0
 71
2
 49
0.5
 62
256
  6
BYLAYER
 49
-0.5
 62
256
  6
BYLAYER
  0
LAYOUT
  5
532
102
{ACAD_REACTORS
330
1A
102
}
100
AcDbPlotSettings
  1

  2
none_device
  4
ANSI_C_(22.00_x_17.00_Inches)
  6

 40
0.0
 41
0.0
 42
0.0
 43
0.0
 44
558.8
 45
431.8
 46
0.0
 47
0.0
 48
0.0
 49
0.0
140
0.0
141
0.0
142
1.0
143
1.0
 70
1024
 72
1
 73
0
 74
0
  7

 75
0
147
1.0
148
0.0
149
0.0
100
AcDbLayout
  1
Model
 70
0
 71
0
 10
0.0
 20
0.0
 11
558.8
 21
431.8
 12
0.0
 22
0.0
 32
0.0
 14
0.0
 24
0.0
 34
0.0
 15
0.0
 25
0.0
 35
0.0
146
0.0
 13
0.0
 23
0.0
 33
0.0
 16
1.0
 26
0.0
 36
0.0
 17
0.0
 27
1.0
 37
0.0
 76
0
330
213
345
0
346
0
  0
LAYOUT
  5
533
102
{ACAD_REACTORS
330
1A
102
}
100
AcDbPlotSettings
  1

  2
none_device
  4
ANSI_C_(22.00_x_17.00_Inches)
  6

 40
0.0
 41
0.0
 42
0.0
 43
0.0
 44
558.8
 45
431.8
 46
0.0
 47
0.0
 48
0.0
 49
0.0
140
0.0
141
0.0
142
1.0
143
1.0
 70
0
 72
1
 73
0
 74
0
  7

 75
0
147
1.0
148
0.0
149
0.0
100
AcDbLayout
  1
Layout1
 70
0
 71
1
 10
0.0
 20
0.0
 11
558.8
 21
431.8
 12
0.0
 22
0.0
 32
0.0
 14
0.0
 24
0.0
 34
0.0
 15
0.0
 25
0.0
 35
0.0
146
0.0
 13
0.0
 23
0.0
 33
0.0
 16
1.0
 26
0.0
 36
0.0
 17
0.0
 27
1.0
 37
0.0
 76
0
330
214
345
0
346
0
  0
ENDSEC
  0
EOF
