  0
SECTION
  2
HEADER
  9
$ACADVER
  1
AC1015
  9
$DWGCODEPAGE
  3
ANSI_1252
  9
$EXTMAX
 10
297.0
 20
210.0
 30
0.0
  9
$EXTMIN
 10
0.0
 20
0.0
 30
0.0
  9
$LIMMIN
 10
0.0
 20
0.0
  9
$LIMMAX
 10
297.0
 20
210.0
  9
$VIEWCTR
 10
148.5
 20
105.0
  9
$VIEWSIZE
 40
210.0
  9
$CLAYER
  8
0
  9
$LTSCALE
 40
16.335
  9
$CELTYPE
  6
BYLAYER
  9
$DIMSCALE
 40
1.0
  9
$DIMASZ
 40
3.0
  9
$DIMEXO
 40
1.85625
  9
$DIMDLI
 40
11.286
  9
$DIMEXE
 40
5.346
  9
$DIMCEN
 40
2.673
  9
$DIMLFAC
 40
1.0
  9
$DIMBLK
  1
_FILLED
  9
$DIMTXT
 40
3.0
  9
$DIMTOL
 70
1
  9
$DIMLIM
 70
0
  9
$DIMTFAC
 40
1.0
  9
$DIMTP
 40
0.01
  9
$DIMTM
 40
0.01
  9
$PDMODE
 70
3
  9
$PDSIZE
 40
3.0
  9
$HANDSEED
  5
57F
  9
$TILEMODE
 70
1
  9
$MEASUREMENT
 70
1
  9
$INSUNITS
 70
4
  0
ENDSEC
  0
SECTION
  2
CLASSES
  0
CLASS
  1
ACDBDICTIONARYWDFLT
  2
AcDbDictionaryWithDefault
  3
AutoCAD 2000
 90
0
280
0
281
0
  0
CLASS
  1
ACDBPLACEHOLDER
  2
AcDbPlaceHolder
  3
AutoCAD 2000
 90
0
280
0
281
0
  0
CLASS
  1
LAYOUT
  2
AcDbLayout
  3
AutoCAD 2000
 90
0
280
0
281
0
  0
ENDSEC
  0
SECTION
  2
TABLES
  0
TABLE
  2
VPORT
  5
8
100
AcDbSymbolTable
 70
2
  0
VPORT
  5
1F4
100
AcDbSymbolTableRecord
100
AcDbViewportTableRecord
  2
*ACTIVE
 70
0
 10
0.0
 20
0.0
 11
1.0
 21
1.0
 12
148.5
 22
105.0
 13
0.0
 23
0.0
 14
1.0
 24
1.0
 15
0.0
 25
0.0
 16
0.0
 26
0.0
 36
1.0
 17
0.0
 27
0.0
 37
0.0
 40
210.0
 41
1.4142857143
 42
50.0
 43
0.0
 44
0.0
 50
0.0
 51
0.0
 71
0
 72
100
 73
1
 74
1
 75
0
 76
0
 77
0
 78
0
  0
ENDTAB
  0
TABLE
  2
LTYPE
  5
5
100
AcDbSymbolTable
 70
6
  0
LTYPE
  5
14
100
AcDbSymbolTableRecord
100
AcDbLinetypeTableRecord
  2
BYBLOCK
 70
0
  3

 72
65
 73
0
 40
0.0
  0
LTYPE
  5
15
100
AcDbSymbolTableRecord
100
AcDbLinetypeTableRecord
  2
BYLAYER
 70
0
  3

 72
65
 73
0
 40
0.0
  0
LTYPE
  5
16
100
AcDbSymbolTableRecord
100
AcDbLinetypeTableRecord
  2
CONTINUOUS
 70
64
  3
Solid line
 72
65
 73
0
 40
0.0
  0
LTYPE
  5
1F5
100
AcDbSymbolTableRecord
100
AcDbLinetypeTableRecord
  2
CENTER
 70
64
  3
____ _ ____ _ ____ _ ____ _ ____ _ ____ _ ____
 72
65
 73
4
 40
0.6
 49
0.375
 74
0
 49
-0.075
 74
0
 49
0.075
 74
0
 49
-0.075
 74
0
  0
LTYPE
  5
1F6
100
AcDbSymbolTableRecord
100
AcDbLinetypeTableRecord
  2
HIDDEN
 70
64
  3
- - - - - - - - - - - - - - - - - - - -
 72
65
 73
2
 40
0.2
 49
0.1
 74
0
 49
-0.1
 74
0
  0
LTYPE
  5
1F7
100
AcDbSymbolTableRecord
100
AcDbLinetypeTableRecord
  2
PHANTOM
 70
64
  3
_____ _ _ _____ _ _ _____ _ _ _____
 72
65
 73
6
 40
0.8
 49
0.45
 74
0
 49
-0.05
 74
0
 49
0.1
 74
0
 49
-0.05
 74
0
 49
0.1
 74
0
 49
-0.05
 74
0
  0
LTYPE
  5
1F8
100
AcDbSymbolTableRecord
100
AcDbLinetypeTableRecord
  2
DOT
 70
64
  3
. . . . . . . . . . . . . . . . . . . .
 72
65
 73
2
 40
0.2
 49
0.1
 74
0
 49
-0.1
 74
0
  0
LTYPE
  5
1F9
100
AcDbSymbolTableRecord
100
AcDbLinetypeTableRecord
  2
DASHED
 70
64
  3
- - - - - - - - - - - - - - - - - - - -
 72
65
 73
2
 40
0.2
 49
0.1
 74
0
 49
-0.1
 74
0
  0
ENDTAB
  0
TABLE
  2
LAYER
  5
2
100
AcDbSymbolTable
 70
36
  0
LAYER
  5
10
100
AcDbSymbolTableRecord
100
AcDbLayerTableRecord
  2
0
 70
0
 62
7
  6
CONTINUOUS
370
-3
390
F
  0
LAYER
  5
1FA
100
AcDbSymbolTableRecord
100
AcDbLayerTableRecord
  2
DEFAULT_1
 70
0
 62
7
  6
CENTER
370
-3
390
F
  0
LAYER
  5
1FB
100
AcDbSymbolTableRecord
100
AcDbLayerTableRecord
  2
DEFAULT_2
 70
0
 62
7
  6
HIDDEN
370
-3
390
F
  0
LAYER
  5
1FC
100
AcDbSymbolTableRecord
100
AcDbLayerTableRecord
  2
DEFAULT_3
 70
0
 62
7
  6
PHANTOM
370
-3
390
F
  0
LAYER
  5
1FD
100
AcDbSymbolTableRecord
100
AcDbLayerTableRecord
  2
ASSI
 70
0
 62
7
  6
CONTINUOUS
370
-3
390
F
  0
LAYER
  5
1FE
100
AcDbSymbolTableRecord
100
AcDbLayerTableRecord
  2
COORDINATE
 70
0
 62
7
  6
CONTINUOUS
370
-3
390
F
  0
LAYER
  5
1FF
100
AcDbSymbolTableRecord
100
AcDbLayerTableRecord
  2
COORD_ORIGINE
 70
0
 62
7
  6
CONTINUOUS
370
-3
390
F
  0
LAYER
  5
200
100
AcDbSymbolTableRecord
100
AcDbLayerTableRecord
  2
COPY_PUBLISH
 70
0
 62
7
  6
CONTINUOUS
370
-3
390
F
  0
LAYER
  5
201
100
AcDbSymbolTableRecord
100
AcDbLayerTableRecord
  2
COSMETIC
 70
0
 62
7
  6
CONTINUOUS
370
-3
390
F
  0
LAYER
  5
202
100
AcDbSymbolTableRecord
100
AcDbLayerTableRecord
  2
CURVE
 70
0
 62
7
  6
CONTINUOUS
370
-3
390
F
  0
LAYER
  5
203
100
AcDbSymbolTableRecord
100
AcDbLayerTableRecord
  2
DRAFT
 70
0
 62
7
  6
CONTINUOUS
370
-3
390
F
  0
LAYER
  5
204
100
AcDbSymbolTableRecord
100
AcDbLayerTableRecord
  2
IMPORT_IGES
 70
0
 62
7
  6
CONTINUOUS
370
-3
390
F
  0
LAYER
  5
205
100
AcDbSymbolTableRecord
100
AcDbLayerTableRecord
  2
NOTE
 70
0
 62
7
  6
CONTINUOUS
370
-3
390
F
  0
LAYER
  5
206
100
AcDbSymbolTableRecord
100
AcDbLayerTableRecord
  2
PIANI
 70
0
 62
7
  6
CONTINUOUS
370
-3
390
F
  0
LAYER
  5
207
100
AcDbSymbolTableRecord
100
AcDbLayerTableRecord
  2
PIANI_ORIGINE
 70
0
 62
7
  6
CONTINUOUS
370
-3
390
F
  0
LAYER
  5
208
100
AcDbSymbolTableRecord
100
AcDbLayerTableRecord
  2
PIANI_SFORMI
 70
0
 62
7
  6
CONTINUOUS
370
-3
390
F
  0
LAYER
  5
209
100
AcDbSymbolTableRecord
100
AcDbLayerTableRecord
  2
PUNTI
 70
0
 62
7
  6
CONTINUOUS
370
-3
390
F
  0
LAYER
  5
20A
100
AcDbSymbolTableRecord
100
AcDbLayerTableRecord
  2
RACCORDO
 70
0
 62
7
  6
CONTINUOUS
370
-3
390
F
  0
LAYER
  5
20B
100
AcDbSymbolTableRecord
100
AcDbLayerTableRecord
  2
SKEL
 70
0
 62
7
  6
CONTINUOUS
370
-3
390
F
  0
LAYER
  5
20C
100
AcDbSymbolTableRecord
100
AcDbLayerTableRecord
  2
SMUSSO
 70
0
 62
7
  6
CONTINUOUS
370
-3
390
F
  0
LAYER
  5
20D
100
AcDbSymbolTableRecord
100
AcDbLayerTableRecord
  2
SNAPLINE
 70
0
 62
7
  6
CONTINUOUS
370
-3
390
F
  0
LAYER
  5
20E
100
AcDbSymbolTableRecord
100
AcDbLayerTableRecord
  2
SUPERFICI
 70
0
 62
7
  6
CONTINUOUS
370
-3
390
F
  0
LAYER
  5
20F
100
AcDbSymbolTableRecord
100
AcDbLayerTableRecord
  2
TRASH
 70
0
 62
7
  6
CONTINUOUS
370
-3
390
F
  0
LAYER
  5
210
100
AcDbSymbolTableRecord
100
AcDbLayerTableRecord
  2
XSEC_DATUMS
 70
0
 62
7
  6
CONTINUOUS
370
-3
390
F
  0
LAYER
  5
211
100
AcDbSymbolTableRecord
100
AcDbLayerTableRecord
  2
Z030100_COP
 70
0
 62
7
  6
CONTINUOUS
370
-3
390
F
  0
ENDTAB
  0
TABLE
  2
STYLE
  5
3
100
AcDbSymbolTable
 70
1
  0
STYLE
  5
11
100
AcDbSymbolTableRecord
100
AcDbTextStyleTableRecord
  2
STANDARD
 70
0
 40
0.0
 41
0.8
 50
0.0
 71
0
 42
0.2
  3
txt
  4

  0
STYLE
  5
212
100
AcDbSymbolTableRecord
100
AcDbTextStyleTableRecord
  2
TEXTSTYLE_1
 70
0
 40
0.0
 41
0.8
 50
0.0
 71
0
 42
0.2
  3
gdt
  4

  0
ENDTAB
  0
TABLE
  2
VIEW
  5
6
100
AcDbSymbolTable
 70
0
  0
ENDTAB
  0
TABLE
  2
UCS
  5
7
100
AcDbSymbolTable
 70
0
  0
ENDTAB
  0
TABLE
  2
APPID
  5
9
100
AcDbSymbolTable
 70
1
  0
APPID
  5
213
100
AcDbSymbolTableRecord
100
AcDbRegAppTableRecord
  2
ACAD
 70
0
  0
ENDTAB
  0
TABLE
  2
BLOCK_RECORD
  5
1
100
AcDbSymbolTable
 70
0
  0
BLOCK_RECORD
  5
214
100
AcDbSymbolTableRecord
100
AcDbBlockTableRecord
  2
*Model_Space
  0
BLOCK_RECORD
  5
215
100
AcDbSymbolTableRecord
100
AcDbBlockTableRecord
  2
*Paper_Space
  0
ENDTAB
  0
TABLE
  2
DIMSTYLE
  5
A
100
AcDbSymbolTable
 70
1
100
AcDbDimStyleTable
 71
0
  0
DIMSTYLE
105
216
100
AcDbSymbolTableRecord
100
AcDbDimStyleTableRecord
  2
STANDARD
 70
0
  3

  4

 40
1.0
 41
3.0
 42
0.0625
 43
0.38
 44
0.18
 45
0.0
 46
0.0
 47
0.01
 48
0.01
140
3.0
141
0.09
142
0.0
143
25.4
144
1.0
145
0.0
146
1.0
147
0.09
 71
1.0
 72
0.0
 73
0
 74
0
 75
0
 76
0
 77
1
 78
8
170
0
171
2
172
0
173
0
174
0
175
0
176
0
177
0
178
0
270
2
271
2
272
2
273
2
274
2
275
0
280
0
281
0
282
0
283
1
284
8
285
0
286
0
287
3
288
0
340
11
  0
ENDTAB
  0
ENDSEC
  0
SECTION
  2
BLOCKS
  0
BLOCK
  5
20
100
AcDbEntity
  8
0
100
AcDbBlockBegin
  2
*Model_Space
 70
0
 10
0.0
 20
0.0
 30
0.0
  3
*Model_Space
  1

  0
ENDBLK
  5
21
100
AcDbEntity
  8
0
100
AcDbBlockEnd
  0
BLOCK
  5
1C
100
AcDbEntity
  8
0
100
AcDbBlockBegin
  2
*Paper_Space
 70
0
 10
0.0
 20
0.0
 30
0.0
  3
*Paper_Space
  1

  0
ENDBLK
  5
1D
100
AcDbEntity
  8
0
100
AcDbBlockEnd
  0
ENDSEC
  0
SECTION
  2
ENTITIES
  0
LINE
  5
217
100
AcDbEntity
  8
0
100
AcDbLine
 62
7
  6
CONTINUOUS
 10
-13.6745915857
 20
23.7364407582
 11
-12.0914198908
 21
24.5486378055
  0
LINE
  5
218
100
AcDbEntity
  8
0
100
AcDbLine
 62
253
  6
CONTINUOUS
 10
-13.5615059196
 20
23.729992783
 11
-11.9787493164
 21
24.5419768804
  0
LINE
  5
219
100
AcDbEntity
  8
0
100
AcDbLine
 62
253
  6
CONTINUOUS
 10
-13.6745915755
 20
23.7364407634
 11
-13.6744189552
 21
23.736529096
  0
LINE
  5
21A
100
AcDbEntity
  8
0
100
AcDbLine
 62
7
  6
CONTINUOUS
 10
-12.0914179211
 20
24.548638816
 11
-12.0896815036
 21
24.549507039
  0
LINE
  5
21B
100
AcDbEntity
  8
0
100
AcDbLine
 62
7
  6
CONTINUOUS
 10
-12.0896787397
 20
24.5495083855
 11
-11.5548115489
 21
24.810059138
  0
LINE
  5
21C
100
AcDbEntity
  8
0
100
AcDbLine
 62
253
  6
CONTINUOUS
 10
-11.9787493164
 20
24.5419768804
 11
-11.4442994378
 21
24.8023243469
  0
LWPOLYLINE
  5
21D
100
AcDbEntity
  8
RACCORDO
100
AcDbPolyline
 62
7
  6
CONTINUOUS
 90
9
 70
0
 10
-16.2745861296
 20
19.9030629386
 10
-16.3327527981
 20
19.8620447063
 10
-16.3894761649
 20
19.8161035678
 10
-16.4444402061
 20
19.7655494866
 10
-16.4972887815
 20
19.7107696577
 10
-16.5477317841
 20
19.652118554
 10
-16.5954872453
 20
19.5899715891
 10
-16.6402205566
 20
19.5248146435
 10
-16.6816636422
 20
19.4571018912
  0
LWPOLYLINE
  5
21E
100
AcDbEntity
  8
0
100
AcDbPolyline
 62
7
  6
CONTINUOUS
 90
14
 70
0
 10
-17.2468461924
 20
20.3710587615
 10
-17.298606557
 20
20.3386081388
 10
-17.3667503943
 20
20.2884874844
 10
-17.4317960575
 20
20.2318926999
 10
-17.4933807421
 20
20.1692019701
 10
-17.5506692819
 20
20.101405585
 10
-17.6036074537
 20
20.0287166304
 10
-17.6519734176
 20
19.9514074682
 10
-17.6948731196
 20
19.8709430833
 10
-17.732187558
 20
19.7876491492
 10
-17.7637177686
 20
19.7018021983
 10
-17.7888375472
 20
19.6149774894
 10
-17.8073766016
 20
19.5278542443
 10
-17.8172908599
 20
19.4591190259
  0
LINE
  5
21F
100
AcDbEntity
  8
RACCORDO
100
AcDbLine
 62
7
  6
CONTINUOUS
 10
-16.2103293853
 20
19.9415975513
 11
-16.2745861296
 21
19.9030629386
  0
LINE
  5
220
100
AcDbEntity
  8
0
100
AcDbLine
 62
7
  6
CONTINUOUS
 10
-17.2470205105
 20
20.3709573701
 11
-13.2151952635
 21
22.721880776
  0
LINE
  5
221
100
AcDbEntity
  8
0
100
AcDbLine
 62
253
  6
CONTINUOUS
 10
-17.013666463
 20
20.3621899769
 11
-13.107484526
 21
22.639851825
  0
LINE
  5
222
100
AcDbEntity
  8
RACCORDO
100
AcDbLine
 62
253
  6
CONTINUOUS
 10
-13.1028621853
 20
22.4226710184
 11
-13.1701269615
 21
22.3843022724
  0
LINE
  5
223
100
AcDbEntity
  8
RACCORDO
100
AcDbLine
 62
253
  6
CONTINUOUS
 10
-16.4164142783
 20
20.0635638846
 11
-14.9895756066
 21
20.8425170552
  0
LINE
  5
224
100
AcDbEntity
  8
RACCORDO
100
AcDbLine
 62
7
  6
CONTINUOUS
 10
-16.2103733211
 20
19.9415736272
 11
-14.7852785526
 21
20.7195747497
  0
LINE
  5
225
100
AcDbEntity
  8
RACCORDO
100
AcDbLine
 62
253
  6
CONTINUOUS
 10
-16.1661567006
 20
19.9384350958
 11
-14.7393180289
 21
20.7173882664
  0
LINE
  5
226
100
AcDbEntity
  8
0
100
AcDbLine
 62
253
  6
CONTINUOUS
 10
-11.8829678492
 20
22.8907237478
 11
-10.2816870584
 21
23.6934457513
  0
LINE
  5
227
100
AcDbEntity
  8
0
100
AcDbLine
 62
253
  6
CONTINUOUS
 10
-11.7061941455
 20
22.585834209
 11
-10.1049133547
 21
23.3885562125
  0
LINE
  5
228
100
AcDbEntity
  8
0
100
AcDbLine
 62
253
  6
CONTINUOUS
 10
-10.2816870584
 20
23.6934457513
 11
-9.7534198866
 21
23.9568845714
  0
LINE
  5
229
100
AcDbEntity
  8
0
100
AcDbLine
 62
253
  6
CONTINUOUS
 10
-10.1049133547
 20
23.3885562125
 11
-9.5766461829
 21
23.6519950326
  0
LWPOLYLINE
  5
22A
100
AcDbEntity
  8
RACCORDO
100
AcDbPolyline
 62
7
  6
CONTINUOUS
 90
3
 70
0
 10
-16.7188160917
 20
19.3887823492
 10
-16.7498745596
 20
19.3216492619
 10
-16.7778361514
 20
19.2529800929
  0
LINE
  5
22B
100
AcDbEntity
  8
RACCORDO
100
AcDbLine
 62
7
  6
CONTINUOUS
 10
-16.6816636422
 20
19.4571018912
 11
-16.7188160925
 21
19.3887823472
  0
LINE
  5
22C
100
AcDbEntity
  8
RACCORDO
100
AcDbLine
 62
253
  6
CONTINUOUS
 10
-10.99496543
 20
21.4631191232
 11
-10.1049133547
 21
21.9597955203
  0
LINE
  5
22D
100
AcDbEntity
  8
RACCORDO
100
AcDbLine
 62
253
  6
CONTINUOUS
 10
-10.846975904
 20
21.2227267436
 11
-9.9635326653
 21
21.7157152069
  0
LINE
  5
22E
100
AcDbEntity
  8
0
100
AcDbLine
 62
7
  6
CONTINUOUS
 10
-8.1250143674
 20
22.1820967039
 11
-9.1795037988
 21
21.6411236653
  0
LINE
  5
22F
100
AcDbEntity
  8
0
100
AcDbLine
 62
7
  6
CONTINUOUS
 10
-2.7887909614
 20
24.7815401694
 11
-8.1250143674
 21
22.1820967039
  0
LINE
  5
230
100
AcDbEntity
  8
0
100
AcDbLine
 62
7
  6
CONTINUOUS
 10
-2.280581585
 20
25.6010764325
 11
-9.4019204004
 21
22.1369774672
  0
LINE
  5
231
100
AcDbEntity
  8
0
100
AcDbLine
 62
253
  6
CONTINUOUS
 10
2.7270118097
 20
-24.1469696199
 11
2.198744638
 21
-24.0384673428
  0
LWPOLYLINE
  5
232
100
AcDbEntity
  8
0
100
AcDbPolyline
 62
7
  6
CONTINUOUS
 90
12
 70
0
 10
-2.5262548851
 20
-25.3071386373
 10
-2.5183766177
 20
-25.3110262753
 10
-2.4606802764
 20
-25.3358871867
 10
-2.4003611208
 20
-25.3556216045
 10
-2.3379572218
 20
-25.3699284214
 10
-2.2738618362
 20
-25.3786213499
 10
-2.2082548956
 20
-25.3815508561
 10
-2.1415624085
 20
-25.3785499035
 10
-2.0742940973
 20
-25.3695124934
 10
-2.0066339572
 20
-25.3543215553
 10
-1.9388613131
 20
-25.3328535694
 10
-1.9000687362
 20
-25.3176673524
  0
LINE
  5
233
100
AcDbEntity
  8
0
100
AcDbLine
 62
7
  6
CONTINUOUS
 10
-2.5255756346
 20
-25.3074793936
 11
-17.4202975106
 21
-17.8601184556
  0
LINE
  5
234
100
AcDbEntity
  8
0
100
AcDbLine
 62
253
  6
CONTINUOUS
 10
-2.7797667111
 20
-24.8906915743
 11
-17.6700808299
 21
-17.4455345148
  0
LWPOLYLINE
  5
235
100
AcDbEntity
  8
0
100
AcDbPolyline
 62
7
  6
CONTINUOUS
 90
7
 70
0
 10
-17.727690224
 20
-17.5558807468
 10
-17.6863680467
 20
-17.624931862
 10
-17.6386082408
 20
-17.6880568239
 10
-17.5851305193
 20
-17.7445889066
 10
-17.5266139401
 20
-17.7941300552
 10
-17.4628550922
 20
-17.8369111251
 10
-17.4195807091
 20
-17.8604756115
  0
LWPOLYLINE
  5
236
100
AcDbEntity
  8
RACCORDO
100
AcDbPolyline
 62
7
  6
CONTINUOUS
 90
5
 70
0
 10
-16.7778361514
 20
19.2529800929
 10
-16.8024066737
 20
19.1833940017
 10
-16.8234297019
 20
19.1132708793
 10
-16.8407577859
 20
19.0430191318
 10
-16.8542746344
 20
18.9730131322
  0
LINE
  5
237
100
AcDbEntity
  8
0
100
AcDbLine
 62
253
  6
CONTINUOUS
 10
-10.1049133547
 20
22.66151136
 11
-9.5766461829
 21
23.3044635158
  0
LINE
  5
238
100
AcDbEntity
  8
0
100
AcDbLine
 62
7
  6
CONTINUOUS
 10
-10.1049133547
 20
22.5719808937
 11
-9.5612856106
 21
23.2336283492
  0
LINE
  5
239
100
AcDbEntity
  8
0
100
AcDbLine
 62
7
  6
CONTINUOUS
 10
-7.8068163158
 20
20.2611104074
 11
-8.5200939244
 21
19.8652559623
  0
LINE
  5
23A
100
AcDbEntity
  8
DRAFT
100
AcDbLine
 62
7
  6
CONTINUOUS
 10
-9.5038725907
 20
18.9274081216
 11
-10.2952669042
 21
18.495362704
  0
LINE
  5
23B
100
AcDbEntity
  8
0
100
AcDbLine
 62
7
  6
CONTINUOUS
 10
-6.746156144
 20
22.1947359851
 11
-2.1880335159
 21
24.4811614467
  0
LINE
  5
23C
100
AcDbEntity
  8
0
100
AcDbLine
 62
7
  6
CONTINUOUS
 10
-5.3627505416
 20
21.5030331838
 11
-2.0003516758
 21
23.1896649412
  0
LINE
  5
23D
100
AcDbEntity
  8
0
100
AcDbLine
 62
253
  6
CONTINUOUS
 10
-5.8269155336
 20
21.033047287
 11
-5.1259795798
 21
21.3846477029
  0
LINE
  5
23E
100
AcDbEntity
  8
0
100
AcDbLine
 62
7
  6
CONTINUOUS
 10
-5.042528088
 20
21.3095371702
 11
0.6208346416
 21
24.1503683193
  0
LINE
  5
23F
100
AcDbEntity
  8
0
100
AcDbLine
 62
253
  6
CONTINUOUS
 10
-5.6854959723
 20
20.789138288
 11
-4.9845600185
 21
21.1407387038
  0
LINE
  5
240
100
AcDbEntity
  8
0
100
AcDbLine
 62
7
  6
CONTINUOUS
 10
-8.5200939244
 20
21.3114187281
 11
-7.6649907256
 21
21.7376127183
  0
LINE
  5
241
100
AcDbEntity
  8
0
100
AcDbLine
 62
253
  6
CONTINUOUS
 10
-6.0417287476
 20
20.9259817293
 11
-5.8269155336
 21
21.033047287
  0
LINE
  5
242
100
AcDbEntity
  8
0
100
AcDbLine
 62
253
  6
CONTINUOUS
 10
-5.9007241433
 20
20.6818659106
 11
-5.6854959723
 21
20.789138288
  0
LINE
  5
243
100
AcDbEntity
  8
0
100
AcDbLine
 62
253
  6
CONTINUOUS
 10
2.6375980144
 20
-23.8274028139
 11
2.198744638
 21
-23.7372654872
  0
LINE
  5
244
100
AcDbEntity
  8
0
100
AcDbLine
 62
7
  6
CONTINUOUS
 10
-1.0928932719
 20
-24.9788482933
 11
0.3099151839
 21
-25.6802525212
  0
LINE
  5
245
100
AcDbEntity
  8
0
100
AcDbLine
 62
253
  6
CONTINUOUS
 10
-0.9811990571
 20
-24.9319635988
 11
0.2449418875
 21
-25.5450340711
  0
LINE
  5
246
100
AcDbEntity
  8
0
100
AcDbLine
 62
253
  6
CONTINUOUS
 10
0.2449418875
 20
-25.205060137
 11
-0.6115654975
 21
-24.7768064445
  0
LINE
  5
247
100
AcDbEntity
  8
0
100
AcDbLine
 62
253
  6
CONTINUOUS
 10
0.3333302351
 20
-24.9733659631
 11
-0.3116084074
 21
-24.6508966419
  0
LINE
  5
248
100
AcDbEntity
  8
0
100
AcDbLine
 62
7
  6
CONTINUOUS
 10
0.9561624956
 20
-24.2285636598
 11
0.8367554527
 21
-24.1688601384
  0
LINE
  5
249
100
AcDbEntity
  8
0
100
AcDbLine
 62
253
  6
CONTINUOUS
 10
0.3097553259
 20
-25.6801724015
 11
0.3099151951
 21
-25.6802525268
  0
LWPOLYLINE
  5
24A
100
AcDbEntity
  8
0
100
AcDbPolyline
 62
7
  6
CONTINUOUS
 90
10
 70
0
 10
-17.8172710736
 20
19.4592958067
 10
-17.9386376105
 20
18.344647373
 10
-18.0570834233
 20
17.1419021153
 10
-18.1619861595
 20
15.944043308
 10
-18.2533220146
 20
14.7513272699
 10
-18.3310700478
 20
13.5640065938
 10
-18.3952116544
 20
12.3823359468
 10
-18.4457309853
 20
11.206565635
 10
-18.4826146911
 20
10.0369477374
 10
-18.5044334384
 20
8.9707052569
  0
LWPOLYLINE
  5
24B
100
AcDbEntity
  8
RACCORDO
100
AcDbPolyline
 62
7
  6
CONTINUOUS
 90
10
 70
0
 10
-16.8634077006
 20
18.9078082334
 10
-16.916754792
 20
18.4303405084
 10
-16.9749765942
 20
17.8871223311
 10
-17.030460426
 20
17.3448471434
 10
-17.083203399
 20
16.8035420946
 10
-17.1332033361
 20
16.2632297506
 10
-17.1804582782
 20
15.7239309306
 10
-17.2249661651
 20
15.1856681355
 10
-17.26672482
 20
14.6484682329
 10
-17.3006850321
 20
14.1838482931
  0
LINE
  5
24C
100
AcDbEntity
  8
RACCORDO
100
AcDbLine
 62
7
  6
CONTINUOUS
 10
-16.8542746344
 20
18.9730131322
 11
-16.8634098561
 21
18.9077884697
  0
LINE
  5
24D
100
AcDbEntity
  8
RACCORDO
100
AcDbLine
 62
7
  6
CONTINUOUS
 10
-13.1110770349
 20
22.359173039
 11
-13.1120838179
 21
22.3566127408
  0
LINE
  5
24E
100
AcDbEntity
  8
0
100
AcDbLine
 62
7
  6
CONTINUOUS
 10
-5.9007241433
 20
19.4572496392
 11
-5.6854959723
 21
19.5766968603
  0
LINE
  5
24F
100
AcDbEntity
  8
0
100
AcDbLine
 62
7
  6
CONTINUOUS
 10
-4.2201587488
 20
20.1897690235
 11
-4.4318457756
 21
20.0805402571
  0
LINE
  5
250
100
AcDbEntity
  8
0
100
AcDbLine
 62
253
  6
CONTINUOUS
 10
-4.1298628486
 20
20.1845209446
 11
-4.3409592062
 21
20.0755969586
  0
LINE
  5
251
100
AcDbEntity
  8
0
100
AcDbLine
 62
7
  6
CONTINUOUS
 10
-5.6854959723
 20
19.5766968603
 11
-4.9845600185
 21
19.9288011248
  0
LINE
  5
252
100
AcDbEntity
  8
0
100
AcDbLine
 62
7
  6
CONTINUOUS
 10
-4.2184549609
 20
20.1906210214
 11
-4.2201562636
 21
20.1897703059
  0
LINE
  5
253
100
AcDbEntity
  8
0
100
AcDbLine
 62
7
  6
CONTINUOUS
 10
-4.9845600185
 20
20.7323746838
 11
-0.268700372
 21
23.0809737749
  0
LINE
  5
254
100
AcDbEntity
  8
0
100
AcDbLine
 62
7
  6
CONTINUOUS
 10
-3.5051735536
 20
20.5360524501
 11
-4.218453193
 21
20.1906218782
  0
LINE
  5
255
100
AcDbEntity
  8
0
100
AcDbLine
 62
253
  6
CONTINUOUS
 10
-3.41658524
 20
20.529950533
 11
-4.1298628486
 21
20.1845209446
  0
LINE
  5
256
100
AcDbEntity
  8
SMUSSO
100
AcDbLine
 62
7
  6
CONTINUOUS
 10
-9.5038725907
 20
18.1290941693
 11
-9.534468981
 21
18.1149637424
  0
LINE
  5
257
100
AcDbEntity
  8
0
100
AcDbLine
 62
253
  6
CONTINUOUS
 10
2.6610117869
 20
-23.8354895506
 11
2.6609011724
 21
-23.8354343366
  0
LINE
  5
258
100
AcDbEntity
  8
0
100
AcDbLine
 62
253
  6
CONTINUOUS
 10
2.198744638
 20
-23.6079761257
 11
2.6375980144
 21
-23.8274028139
  0
LINE
  5
259
100
AcDbEntity
  8
0
100
AcDbLine
 62
7
  6
CONTINUOUS
 10
2.198744638
 20
-23.6043559762
 11
2.6610130656
 21
-23.83549019
  0
LINE
  5
25A
100
AcDbEntity
  8
RACCORDO
100
AcDbLine
 62
7
  6
CONTINUOUS
 10
-4.5800921383
 20
-19.1188871017
 11
-16.8837501309
 21
-12.9670581054
  0
LINE
  5
25B
100
AcDbEntity
  8
RACCORDO
100
AcDbLine
 62
7
  6
CONTINUOUS
 10
-16.6709317943
 20
-12.8606489371
 11
-4.3672738016
 21
-19.0124779334
  0
LINE
  5
25C
100
AcDbEntity
  8
RACCORDO
100
AcDbLine
 62
7
  6
CONTINUOUS
 10
-4.596784178
 20
-18.8674255004
 11
-16.9004421706
 21
-12.7155965041
  0
LWPOLYLINE
  5
25D
100
AcDbEntity
  8
RACCORDO
100
AcDbPolyline
 62
7
  6
CONTINUOUS
 90
4
 70
0
 10
-16.0187683088
 20
-10.7405729536
 10
-15.9672567377
 20
-10.7912596984
 10
-15.9085697647
 20
-10.8303501505
 10
-15.9004769648
 20
-10.8345368807
  0
LWPOLYLINE
  5
25E
100
AcDbEntity
  8
0
100
AcDbPolyline
 62
7
  6
CONTINUOUS
 90
5
 70
0
 10
-17.8163039771
 20
-17.2706494782
 10
-17.810068896
 20
-17.3115843965
 10
-17.7901954608
 20
-17.3988350093
 10
-17.762478094
 20
-17.4805192764
 10
-17.727690224
 20
-17.5558807468
  0
LINE
  5
25F
100
AcDbEntity
  8
0
100
AcDbLine
 62
7
  6
CONTINUOUS
 10
-17.8163671073
 20
-17.2701670209
 11
-17.8163041421
 21
-17.2706494997
  0
LWPOLYLINE
  5
260
100
AcDbEntity
  8
RACCORDO
100
AcDbPolyline
 62
7
  6
CONTINUOUS
 90
5
 70
0
 10
-16.1139130425
 20
-10.4802627742
 10
-16.1078662756
 20
-10.5512483754
 10
-16.0881464367
 20
-10.6223534192
 10
-16.0582134002
 20
-10.6848171731
 10
-16.0187683088
 20
-10.7405729536
  0
LWPOLYLINE
  5
261
100
AcDbEntity
  8
0
100
AcDbPolyline
 62
7
  6
CONTINUOUS
 90
10
 70
0
 10
-18.5044316051
 20
-7.4825670969
 10
-18.4823946703
 20
-8.5345090896
 10
-18.4453934031
 20
-9.666533448
 10
-18.3947393666
 20
-10.7907737647
 10
-18.3304416062
 20
-11.9069891907
 10
-18.2525116242
 20
-13.0149438926
 10
-18.1609635419
 20
-14.1144016503
 10
-18.0558138056
 20
-15.2051299713
 10
-17.9370818083
 20
-16.2868943612
 10
-17.8163671073
 20
-17.2701670209
  0
LWPOLYLINE
  5
262
100
AcDbEntity
  8
0
100
AcDbPolyline
 62
7
  6
CONTINUOUS
 90
10
 70
0
 10
-18.504433437
 20
8.9707054511
 10
-18.5283973078
 20
7.1980418309
 10
-18.5473809065
 20
5.3396556214
 10
-18.5600323187
 20
3.4844565299
 10
-18.5663512727
 20
1.6324794896
 10
-18.5663376231
 20
-0.2162429334
 10
-18.5599913158
 20
-2.0616788356
 10
-18.5473123883
 20
-3.9037957466
 10
-18.5283010041
 20
-5.7425589537
 10
-18.5044316027
 20
-7.4825673203
  0
LINE
  5
263
100
AcDbEntity
  8
RACCORDO
100
AcDbLine
 62
7
  6
CONTINUOUS
 10
-17.300684366
 20
14.1838557883
 11
-17.3020151061
 21
14.1356528079
  0
LINE
  5
264
100
AcDbEntity
  8
DRAFT
100
AcDbLine
 62
7
  6
CONTINUOUS
 10
-5.2612319036
 20
16.806087778
 11
-6.0254725086
 21
16.3604655062
  0
LINE
  5
265
100
AcDbEntity
  8
0
100
AcDbLine
 62
7
  6
CONTINUOUS
 10
-2.7176972282
 20
19.2639659696
 11
-3.5580048013
 21
18.8303741665
  0
LINE
  5
266
100
AcDbEntity
  8
0
100
AcDbLine
 62
7
  6
CONTINUOUS
 10
-2.8985949269
 20
18.5006692293
 11
-1.8317640148
 21
19.0354715277
  0
LINE
  5
267
100
AcDbEntity
  8
0
100
AcDbLine
 62
7
  6
CONTINUOUS
 10
-1.8317640148
 20
19.0354715277
 11
3.4427280543
 21
21.6657806616
  0
LINE
  5
268
100
AcDbEntity
  8
0
100
AcDbLine
 62
7
  6
CONTINUOUS
 10
-1.7964086757
 20
19.7198622509
 11
2.8419706088
 21
21.9661593843
  0
LINE
  5
269
100
AcDbEntity
  8
0
100
AcDbLine
 62
7
  6
CONTINUOUS
 10
3.6063815025
 20
21.2987086758
 11
4.986963677
 21
21.9673038016
  0
LWPOLYLINE
  5
26A
100
AcDbEntity
  8
RACCORDO
100
AcDbPolyline
 62
7
  6
CONTINUOUS
 90
6
 70
0
 10
-6.2013934503
 20
-15.684025613
 10
-6.138441798
 20
-15.7075933389
 10
-6.071725574
 20
-15.7184058457
 10
-6.0063088906
 20
-15.7158072804
 10
-5.9441039406
 20
-15.7007765157
 10
-5.9231313285
 20
-15.6926454053
  0
LINE
  5
26B
100
AcDbEntity
  8
RACCORDO
100
AcDbLine
 62
7
  6
CONTINUOUS
 10
-4.8019857557
 20
-17.6208609389
 11
-16.8321841781
 21
-11.6057617277
  0
LINE
  5
26C
100
AcDbEntity
  8
RACCORDO
100
AcDbLine
 62
253
  6
CONTINUOUS
 10
-6.2823045078
 20
-15.5203455259
 11
-15.978131867
 21
-10.6724318463
  0
LINE
  5
26D
100
AcDbEntity
  8
RACCORDO
100
AcDbLine
 62
7
  6
CONTINUOUS
 10
-6.2043365521
 20
-15.682607666
 11
-15.9004769526
 21
-10.8345368561
  0
LINE
  5
26E
100
AcDbEntity
  8
RACCORDO
100
AcDbLine
 62
7
  6
CONTINUOUS
 10
-17.3020151061
 20
14.1356528079
 11
-17.2988858065
 21
14.0823302399
  0
LINE
  5
26F
100
AcDbEntity
  8
RACCORDO
100
AcDbLine
 62
7
  6
CONTINUOUS
 10
-15.5849909089
 20
0.3509658719
 11
-15.5849909089
 21
-9.9824441695
  0
LINE
  5
270
100
AcDbEntity
  8
DRAFT
100
AcDbLine
 62
7
  6
CONTINUOUS
 10
-15.5148973135
 20
0.3584191482
 11
-15.5148973135
 21
-9.9426798153
  0
LWPOLYLINE
  5
271
100
AcDbEntity
  8
RACCORDO
100
AcDbPolyline
 62
7
  6
CONTINUOUS
 90
3
 70
0
 10
-13.1074789948
 20
22.3810193872
 10
-13.1086268709
 20
22.3683343113
 10
-13.1110770349
 20
22.359173039
  0
LINE
  5
272
100
AcDbEntity
  8
RACCORDO
100
AcDbLine
 62
253
  6
CONTINUOUS
 10
-0.7992041927
 20
16.2708420221
 11
-0.8664689689
 21
16.232473276
  0
LINE
  5
273
100
AcDbEntity
  8
0
100
AcDbLine
 62
7
  6
CONTINUOUS
 10
-1.8317640148
 20
17.6498308816
 11
-2.8985949269
 21
17.0545064636
  0
LINE
  5
274
100
AcDbEntity
  8
0
100
AcDbLine
 62
7
  6
CONTINUOUS
 10
-1.3709335931
 20
17.5846117619
 11
0.2122381018
 21
18.3968088091
  0
LINE
  5
275
100
AcDbEntity
  8
0
100
AcDbLine
 62
253
  6
CONTINUOUS
 10
-1.257847927
 20
17.5781637867
 11
0.3249086762
 21
18.3901478841
  0
LINE
  5
276
100
AcDbEntity
  8
0
100
AcDbLine
 62
253
  6
CONTINUOUS
 10
0.4206901435
 20
16.7388947515
 11
2.0219709343
 21
17.541616755
  0
LINE
  5
277
100
AcDbEntity
  8
0
100
AcDbLine
 62
7
  6
CONTINUOUS
 10
0.2122400716
 20
18.3968098197
 11
0.213976489
 21
18.3976780427
  0
LINE
  5
278
100
AcDbEntity
  8
RACCORDO
100
AcDbLine
 62
253
  6
CONTINUOUS
 10
-17.6347876416
 20
8.8737436589
 11
-17.422591409
 21
8.9798417751
  0
LINE
  5
279
100
AcDbEntity
  8
RACCORDO
100
AcDbLine
 62
7
  6
CONTINUOUS
 10
-17.2854383312
 20
9.0417498835
 11
-17.0732177646
 21
9.1478601667
  0
LINE
  5
27A
100
AcDbEntity
  8
RACCORDO
100
AcDbLine
 62
253
  6
CONTINUOUS
 10
-17.0594347746
 20
9.0287473693
 11
-16.8472061849
 21
9.1348616641
  0
LINE
  5
27B
100
AcDbEntity
  8
0
100
AcDbLine
 62
7
  6
CONTINUOUS
 10
7.8883799035
 20
20.5165956883
 11
2.5665239728
 21
17.8588900125
  0
LINE
  5
27C
100
AcDbEntity
  8
0
100
AcDbLine
 62
7
  6
CONTINUOUS
 10
-1.8317640148
 20
17.6498308816
 11
3.4755466514
 21
20.2965061517
  0
LINE
  5
27D
100
AcDbEntity
  8
0
100
AcDbLine
 62
253
  6
CONTINUOUS
 10
2.0219709343
 20
17.541616755
 11
2.550238106
 21
17.805055575
  0
LINE
  5
27E
100
AcDbEntity
  8
0
100
AcDbLine
 62
7
  6
CONTINUOUS
 10
0.2139792529
 20
18.3976793891
 11
0.7488464438
 21
18.6582301417
  0
LINE
  5
27F
100
AcDbEntity
  8
0
100
AcDbLine
 62
253
  6
CONTINUOUS
 10
0.3249086762
 20
18.3901478841
 11
0.8593585549
 21
18.6504953506
  0
LINE
  5
280
100
AcDbEntity
  8
RACCORDO
100
AcDbLine
 62
253
  6
CONTINUOUS
 10
-15.978131867
 20
-10.555308746
 11
-6.2823045078
 21
-15.4032224256
  0
LINE
  5
281
100
AcDbEntity
  8
DRAFT
100
AcDbLine
 62
7
  6
CONTINUOUS
 10
-5.4273297596
 20
-15.4791158101
 11
-5.020777679
 21
-15.6823918503
  0
LINE
  5
282
100
AcDbEntity
  8
RACCORDO
100
AcDbLine
 62
253
  6
CONTINUOUS
 10
-15.7844883576
 20
-10.1996680167
 11
-6.088659052
 21
-15.0475826695
  0
LINE
  5
283
100
AcDbEntity
  8
DRAFT
100
AcDbLine
 62
7
  6
CONTINUOUS
 10
-5.0416831986
 20
-15.3130258042
 11
-5.0314665793
 21
-15.3181341139
  0
LINE
  5
284
100
AcDbEntity
  8
RACCORDO
100
AcDbLine
 62
7
  6
CONTINUOUS
 10
-14.6295320945
 20
-9.5823652744
 11
-5.085319868
 21
-14.3544713876
  0
LINE
  5
285
100
AcDbEntity
  8
0
100
AcDbLine
 62
253
  6
CONTINUOUS
 10
-3.4919691727
 20
-15.0928624128
 11
-4.2074602624
 21
-14.7351168679
  0
LINE
  5
286
100
AcDbEntity
  8
0
100
AcDbLine
 62
253
  6
CONTINUOUS
 10
-17.642489105
 20
-8.0176024466
 11
-18.3579801947
 21
-7.6598569018
  0
LINE
  5
287
100
AcDbEntity
  8
0
100
AcDbLine
 62
253
  6
CONTINUOUS
 10
-4.4195922968
 20
-14.6290508507
 11
-4.9089392042
 21
-14.3843748099
  0
LINE
  5
288
100
AcDbEntity
  8
0
100
AcDbLine
 62
253
  6
CONTINUOUS
 10
-16.9410102382
 20
-8.3683397016
 11
-17.4303570706
 21
-8.1236684638
  0
LWPOLYLINE
  5
289
100
AcDbEntity
  8
RACCORDO
100
AcDbPolyline
 62
7
  6
CONTINUOUS
 90
9
 70
0
 10
-17.2988858065
 20
14.0823302399
 10
-17.2911352818
 20
14.0286959299
 10
-17.2789284865
 20
13.9752930942
 10
-17.2624459475
 20
13.9226745523
 10
-17.2418983894
 20
13.8714218118
 10
-17.2174925177
 20
13.8220575315
 10
-17.1894744643
 20
13.7751492685
 10
-17.1581519297
 20
13.7312994485
 10
-17.1236330862
 20
13.6908299124
  0
LINE
  5
28A
100
AcDbEntity
  8
0
100
AcDbLine
 62
7
  6
CONTINUOUS
 10
-13.8104774803
 20
23.5140043157
 11
-13.8104774803
 21
23.1740303816
  0
LINE
  5
28B
100
AcDbEntity
  8
0
100
AcDbLine
 62
253
  6
CONTINUOUS
 10
-13.7372541756
 20
23.4256159681
 11
-13.7372541756
 21
23.0856420339
  0
LINE
  5
28C
100
AcDbEntity
  8
0
100
AcDbLine
 62
7
  6
CONTINUOUS
 10
-13.107484526
 20
22.6680254073
 11
-13.107484526
 21
22.3812538939
  0
LINE
  5
28D
100
AcDbEntity
  8
RACCORDO
100
AcDbLine
 62
253
  6
CONTINUOUS
 10
-13.0342675822
 20
22.6314169354
 11
-13.0342794447
 21
22.2867142069
  0
LWPOLYLINE
  5
28E
100
AcDbEntity
  8
RACCORDO
100
AcDbPolyline
 62
7
  6
CONTINUOUS
 90
16
 70
0
 10
-2.8022617715
 20
13.2134416621
 10
-2.8418820276
 20
13.1889625292
 10
-2.9024495225
 20
13.1460583401
 10
-2.9611924157
 20
13.0976958566
 10
-3.0177648177
 20
13.0442818915
 10
-3.0716146502
 20
12.9865086959
 10
-3.1224175873
 20
12.9249119765
 10
-3.1700769482
 20
12.8598090247
 10
-3.2143459623
 20
12.7916683316
 10
-3.2549748696
 20
12.7209584169
 10
-3.2917979291
 20
12.6480969619
 10
-3.3246422179
 20
12.5734757689
 10
-3.3532937543
 20
12.4975452619
 10
-3.3775914758
 20
12.4207145508
 10
-3.397382559
 20
12.3432728836
 10
-3.4124702473
 20
12.2655972176
  0
LINE
  5
28F
100
AcDbEntity
  8
RACCORDO
100
AcDbLine
 62
253
  6
CONTINUOUS
 10
-1.5814213839
 20
14.1384399439
 11
-2.9593034727
 21
13.3350084818
  0
LINE
  5
290
100
AcDbEntity
  8
RACCORDO
100
AcDbLine
 62
253
  6
CONTINUOUS
 10
-1.5106353384
 20
14.0162463218
 11
-2.8836687817
 21
13.2156420642
  0
LINE
  5
291
100
AcDbEntity
  8
RACCORDO
100
AcDbLine
 62
7
  6
CONTINUOUS
 10
-1.4247988409
 20
14.0166470241
 11
-2.80238751
 21
13.2133866526
  0
LINE
  5
292
100
AcDbEntity
  8
RACCORDO
100
AcDbLine
 62
253
  6
CONTINUOUS
 10
-1.3311638062
 20
14.013311155
 11
-2.709045895
 21
13.209879693
  0
LINE
  5
293
100
AcDbEntity
  8
RACCORDO
100
AcDbLine
 62
253
  6
CONTINUOUS
 10
1.3086925626
 20
15.3112901269
 11
2.198744638
 21
15.807966524
  0
LINE
  5
294
100
AcDbEntity
  8
RACCORDO
100
AcDbLine
 62
253
  6
CONTINUOUS
 10
1.4566820886
 20
15.0708977473
 11
2.3401253273
 21
15.5638862105
  0
LINE
  5
295
100
AcDbEntity
  8
0
100
AcDbLine
 62
7
  6
CONTINUOUS
 10
8.8634351457
 20
19.2205132234
 11
2.820316012
 21
16.025859261
  0
LINE
  5
296
100
AcDbEntity
  8
0
100
AcDbLine
 62
7
  6
CONTINUOUS
 10
8.8634351457
 20
19.6206404837
 11
2.4030420198
 21
16.2344962571
  0
LINE
  5
297
100
AcDbEntity
  8
0
100
AcDbLine
 62
253
  6
CONTINUOUS
 10
3.2532384697
 20
15.8093980321
 11
2.5523025159
 21
15.4577976162
  0
LINE
  5
298
100
AcDbEntity
  8
0
100
AcDbLine
 62
253
  6
CONTINUOUS
 10
0.5974638471
 20
16.4340052127
 11
2.198744638
 21
17.2367272162
  0
LINE
  5
299
100
AcDbEntity
  8
0
100
AcDbLine
 62
253
  6
CONTINUOUS
 10
2.198744638
 20
17.2367272162
 11
2.7270118097
 21
17.5001660362
  0
LINE
  5
29A
100
AcDbEntity
  8
0
100
AcDbLine
 62
253
  6
CONTINUOUS
 10
-12.0587161052
 20
22.2463729987
 11
-12.0587161052
 21
22.5863469329
  0
LINE
  5
29B
100
AcDbEntity
  8
0
100
AcDbLine
 62
253
  6
CONTINUOUS
 10
-11.7061941455
 20
22.2458602749
 11
-11.7061941455
 21
22.585834209
  0
LINE
  5
29C
100
AcDbEntity
  8
RACCORDO
100
AcDbLine
 62
253
  6
CONTINUOUS
 10
-11.3474701059
 20
21.4433095375
 11
-11.3474948648
 21
21.9596832781
  0
LINE
  5
29D
100
AcDbEntity
  8
RACCORDO
100
AcDbLine
 62
253
  6
CONTINUOUS
 10
-10.99496543
 20
21.4631191232
 11
-10.9949735374
 21
22.097356752
  0
LINE
  5
29E
100
AcDbEntity
  8
RACCORDO
100
AcDbLine
 62
7
  6
CONTINUOUS
 10
-16.163273541
 20
-10.8586361291
 11
-16.0844012693
 21
-10.6301687713
  0
LINE
  5
29F
100
AcDbEntity
  8
RACCORDO
100
AcDbLine
 62
7
  6
CONTINUOUS
 10
3.4781611978
 20
15.5979622258
 11
8.530104733
 21
18.6841158579
  0
LINE
  5
2A0
100
AcDbEntity
  8
0
100
AcDbLine
 62
253
  6
CONTINUOUS
 10
2.5525671532
 20
15.4576652976
 11
-2.1117937104
 21
12.9112536006
  0
LINE
  5
2A1
100
AcDbEntity
  8
0
100
AcDbLine
 62
253
  6
CONTINUOUS
 10
2.9058514191
 20
14.847812271
 11
-1.7459609703
 21
12.3082511549
  0
LINE
  5
2A2
100
AcDbEntity
  8
0
100
AcDbLine
 62
253
  6
CONTINUOUS
 10
3.6067873729
 20
15.1996255344
 11
2.9058514191
 21
14.8480251185
  0
LINE
  5
2A3
100
AcDbEntity
  8
RACCORDO
100
AcDbLine
 62
7
  6
CONTINUOUS
 10
4.6382630331
 20
16.1060114501
 11
4.1432882862
 21
15.8585240766
  0
LINE
  5
2A4
100
AcDbEntity
  8
RACCORDO
100
AcDbLine
 62
7
  6
CONTINUOUS
 10
5.6282125267
 20
16.378942021
 11
3.5855968603
 21
15.3576341877
  0
LINE
  5
2A5
100
AcDbEntity
  8
RACCORDO
100
AcDbLine
 62
7
  6
CONTINUOUS
 10
6.6888726985
 20
15.8486119351
 11
3.6253007951
 21
14.3168259834
  0
LINE
  5
2A6
100
AcDbEntity
  8
0
100
AcDbLine
 62
7
  6
CONTINUOUS
 10
7.3959794797
 20
15.2928386517
 11
3.6253007951
 21
13.4074993094
  0
LINE
  5
2A7
100
AcDbEntity
  8
DRAFT
100
AcDbLine
 62
7
  6
CONTINUOUS
 10
8.6008925845
 20
-16.6632506089
 11
8.8573186361
 21
-16.7914636347
  0
LINE
  5
2A8
100
AcDbEntity
  8
DRAFT
100
AcDbLine
 62
7
  6
CONTINUOUS
 10
6.2411594857
 20
-14.7198323434
 11
7.9132138765
 21
-15.5558595388
  0
LINE
  5
2A9
100
AcDbEntity
  8
0
100
AcDbLine
 62
7
  6
CONTINUOUS
 10
-10.1049133547
 20
23.3885562125
 11
-10.1049133547
 21
22.66151136
  0
LINE
  5
2AA
100
AcDbEntity
  8
RACCORDO
100
AcDbLine
 62
7
  6
CONTINUOUS
 10
-10.1049133547
 20
21.9597955203
 11
-10.1049133547
 21
22.66151136
  0
LINE
  5
2AB
100
AcDbEntity
  8
0
100
AcDbLine
 62
253
  6
CONTINUOUS
 10
-9.5766461829
 20
23.6519950326
 11
-9.5766461829
 21
23.3044635158
  0
LINE
  5
2AC
100
AcDbEntity
  8
0
100
AcDbLine
 62
7
  6
CONTINUOUS
 10
-9.5044483259
 20
23.7398676647
 11
-9.5044483259
 21
23.392336148
  0
LINE
  5
2AD
100
AcDbEntity
  8
DRAFT
100
AcDbLine
 62
7
  6
CONTINUOUS
 10
-9.5038725907
 20
18.1290941693
 11
-9.5038725907
 21
18.9274081216
  0
LINE
  5
2AE
100
AcDbEntity
  8
0
100
AcDbLine
 62
7
  6
CONTINUOUS
 10
-9.1795037988
 20
21.6411236653
 11
-9.1795037988
 21
20.1949608995
  0
LINE
  5
2AF
100
AcDbEntity
  8
0
100
AcDbLine
 62
7
  6
CONTINUOUS
 10
-8.5200939244
 20
19.8652559623
 11
-8.5200939244
 21
21.3114187281
  0
LINE
  5
2B0
100
AcDbEntity
  8
0
100
AcDbLine
 62
253
  6
CONTINUOUS
 10
2.7424086422
 20
17.0818436134
 11
2.7423723819
 21
17.0817993527
  0
LINE
  5
2B1
100
AcDbEntity
  8
0
100
AcDbLine
 62
253
  6
CONTINUOUS
 10
2.198744638
 20
16.5096823637
 11
2.7270118097
 21
17.1526345195
  0
LINE
  5
2B2
100
AcDbEntity
  8
0
100
AcDbLine
 62
7
  6
CONTINUOUS
 10
2.198744638
 20
16.4201518974
 11
2.7423723821
 21
17.0817993529
  0
LINE
  5
2B3
100
AcDbEntity
  8
0
100
AcDbLine
 62
7
  6
CONTINUOUS
 10
3.6253007951
 20
13.0539459188
 11
6.6888726985
 21
14.5857318705
  0
LINE
  5
2B4
100
AcDbEntity
  8
0
100
AcDbLine
 62
7
  6
CONTINUOUS
 10
7.5020454969
 20
14.1791454713
 11
8.5627056686
 21
14.7094755572
  0
LINE
  5
2B5
100
AcDbEntity
  8
0
100
AcDbLine
 62
7
  6
CONTINUOUS
 10
4.4413171244
 20
11.9031083566
 11
6.6888726985
 21
13.0268861437
  0
LINE
  5
2B6
100
AcDbEntity
  8
RACCORDO
100
AcDbLine
 62
253
  6
CONTINUOUS
 10
-3.9289007529
 20
7.5395213988
 11
-3.8511794483
 21
7.5762322458
  0
LINE
  5
2B7
100
AcDbEntity
  8
RACCORDO
100
AcDbLine
 62
7
  6
CONTINUOUS
 10
-4.0828798236
 20
7.2577129457
 11
-3.8840866634
 21
7.3516108201
  0
LINE
  5
2B8
100
AcDbEntity
  8
0
100
AcDbLine
 62
7
  6
CONTINUOUS
 10
-7.8068163158
 20
21.4947247591
 11
-7.8068163158
 21
20.2611104074
  0
LINE
  5
2B9
100
AcDbEntity
  8
0
100
AcDbLine
 62
253
  6
CONTINUOUS
 10
-6.1823273524
 20
19.4488659257
 11
-6.1823273524
 21
20.6824802774
  0
LINE
  5
2BA
100
AcDbEntity
  8
RACCORDO
100
AcDbLine
 62
7
  6
CONTINUOUS
 10
-0.8074190422
 20
16.2073440426
 11
-0.8084258252
 21
16.2047837445
  0
LWPOLYLINE
  5
2BB
100
AcDbEntity
  8
RACCORDO
100
AcDbPolyline
 62
7
  6
CONTINUOUS
 90
4
 70
0
 10
-3.9221854934
 20
7.2801495746
 10
-3.9390328685
 20
7.2621694434
 10
-3.955492791
 20
7.2496605267
 10
-3.9609283308
 20
7.2464771153
  0
LINE
  5
2BC
100
AcDbEntity
  8
0
100
AcDbLine
 62
7
  6
CONTINUOUS
 10
8.5627056686
 20
13.1506298304
 11
7.5020454969
 21
12.6202997445
  0
LINE
  5
2BD
100
AcDbEntity
  8
DRAFT
100
AcDbLine
 62
7
  6
CONTINUOUS
 10
6.2411594857
 20
11.003187176
 11
3.6253007951
 21
9.7004335311
  0
LINE
  5
2BE
100
AcDbEntity
  8
RACCORDO
100
AcDbLine
 62
7
  6
CONTINUOUS
 10
-16.0361806096
 20
0.5500257006
 11
-16.0375010869
 21
0.5493877269
  0
LINE
  5
2BF
100
AcDbEntity
  8
RACCORDO
100
AcDbLine
 62
253
  6
CONTINUOUS
 10
-16.3013494527
 20
0.0065068146
 11
-15.5849909089
 21
0.3509658719
  0
LWPOLYLINE
  5
2C0
100
AcDbEntity
  8
RACCORDO
100
AcDbPolyline
 62
7
  6
CONTINUOUS
 90
11
 70
0
 10
-16.0374826929
 20
0.5493965116
 10
-16.0285478502
 20
0.5531294538
 10
-16.0168497383
 20
0.5561718544
 10
-16.0018449441
 20
0.5580999928
 10
-15.9830132771
 20
0.5583917695
 10
-15.9597207383
 20
0.5564128573
 10
-15.9318289997
 20
0.5514421985
 10
-15.900124353
 20
0.5429907851
 10
-15.8655217832
 20
0.530871222
 10
-15.828665557
 20
0.5150372815
 10
-15.8130558139
 20
0.5074876343
  0
LINE
  5
2C1
100
AcDbEntity
  8
RACCORDO
100
AcDbLine
 62
7
  6
CONTINUOUS
 10
-5.9006769533
 20
-4.4486909452
 11
-15.8127377152
 21
0.507339349
  0
LINE
  5
2C2
100
AcDbEntity
  8
RACCORDO
100
AcDbLine
 62
253
  6
CONTINUOUS
 10
-6.0307740222
 20
-4.1766955484
 11
-15.9426822421
 21
0.7792585615
  0
LINE
  5
2C3
100
AcDbEntity
  8
RACCORDO
100
AcDbLine
 62
7
  6
CONTINUOUS
 10
-15.8127375339
 20
0.5073392583
 11
-15.8130513539
 21
0.5074965353
  0
LWPOLYLINE
  5
2C4
100
AcDbEntity
  8
RACCORDO
100
AcDbPolyline
 62
7
  6
CONTINUOUS
 90
23
 70
0
 10
-5.900681719
 20
-4.4487004797
 10
-5.8669942103
 20
-4.4666568201
 10
-5.8190312752
 20
-4.495899819
 10
-5.7684246738
 20
-4.5313065511
 10
-5.7159431487
 20
-4.572913414
 10
-5.6625891211
 20
-4.6203852387
 10
-5.6089888154
 20
-4.6735459919
 10
-5.5557140977
 20
-4.7321825165
 10
-5.5035751142
 20
-4.7956853785
 10
-5.4531314507
 20
-4.8635872345
 10
-5.4048619185
 20
-4.9354318964
 10
-5.359325591
 20
-5.0105173844
 10
-5.3169292193
 20
-5.0882441245
 10
-5.2780340673
 20
-5.1679879129
 10
-5.2430128121
 20
-5.2489499106
 10
-5.2121001389
 20
-5.3304631247
 10
-5.1854886239
 20
-5.4118259038
 10
-5.1633592683
 20
-5.4921460344
 10
-5.1457403074
 20
-5.5707695333
 10
-5.1326064518
 20
-5.6470378937
 10
-5.1238980799
 20
-5.7200411378
 10
-5.1194150342
 20
-5.7890664984
 10
-5.118627948
 20
-5.8314056531
  0
LWPOLYLINE
  5
2C5
100
AcDbEntity
  8
RACCORDO
100
AcDbPolyline
 62
7
  6
CONTINUOUS
 90
9
 70
0
 10
-5.0553895251
 20
-14.2071555109
 10
-5.0503437554
 20
-14.5026311483
 10
-5.0424300172
 20
-14.8848965611
 10
-5.0329657485
 20
-15.2663324993
 10
-5.0219510867
 20
-15.6469281473
 10
-5.0093862167
 20
-16.0266741075
 10
-4.9952713455
 20
-16.405561919
 10
-4.979606689
 20
-16.7835828973
 10
-4.9583740638
 20
-17.2440629056
  0
LWPOLYLINE
  5
2C6
100
AcDbEntity
  8
RACCORDO
100
AcDbPolyline
 62
7
  6
CONTINUOUS
 90
10
 70
0
 10
-5.1186208913
 20
-5.8315355707
 10
-5.1182122604
 20
-6.6978632235
 10
-5.116136878
 20
-7.6515330999
 10
-5.1123576403
 20
-8.6043303752
 10
-5.106874555
 20
-9.5562498023
 10
-5.0996876434
 20
-10.5072870147
 10
-5.0907969282
 20
-11.457437988
 10
-5.0802024384
 20
-12.4066983691
 10
-5.0679042301
 20
-13.3550629454
 10
-5.0553895271
 20
-14.2071555336
  0
LINE
  5
2C7
100
AcDbEntity
  8
0
100
AcDbLine
 62
253
  6
CONTINUOUS
 10
-5.9007241433
 20
19.4572496392
 11
-5.9007241433
 21
20.6818659106
  0
LINE
  5
2C8
100
AcDbEntity
  8
0
100
AcDbLine
 62
7
  6
CONTINUOUS
 10
-5.6854959723
 20
19.5766968603
 11
-5.6854959723
 21
20.789138288
  0
LINE
  5
2C9
100
AcDbEntity
  8
0
100
AcDbLine
 62
7
  6
CONTINUOUS
 10
-4.9845600185
 20
19.9288011248
 11
-4.9845600185
 21
21.1407387038
  0
LINE
  5
2CA
100
AcDbEntity
  8
0
100
AcDbLine
 62
7
  6
CONTINUOUS
 10
-4.5401364547
 20
19.9028061848
 11
-4.5401364547
 21
18.671852706
  0
LINE
  5
2CB
100
AcDbEntity
  8
0
100
AcDbLine
 62
253
  6
CONTINUOUS
 10
-4.4815578109
 20
19.8320955066
 11
-4.4815578109
 21
18.598481155
  0
LINE
  5
2CC
100
AcDbEntity
  8
RACCORDO
100
AcDbLine
 62
7
  6
CONTINUOUS
 10
-3.8584813373
 20
7.4762813575
 11
-3.8584675099
 21
7.476484766
  0
LWPOLYLINE
  5
2CD
100
AcDbEntity
  8
RACCORDO
100
AcDbPolyline
 62
7
  6
CONTINUOUS
 90
3
 70
0
 10
-3.8584813373
 20
7.4762813575
 10
-3.8604159901
 20
7.4547901324
 10
-3.8669356625
 20
7.4118787977
  0
LWPOLYLINE
  5
2CE
100
AcDbEntity
  8
RACCORDO
100
AcDbPolyline
 62
7
  6
CONTINUOUS
 90
10
 70
0
 10
-3.4208687714
 20
12.2051777111
 10
-3.4711697737
 20
11.7554683356
 10
-3.5302172865
 20
11.2056594095
 10
-3.5864602471
 20
10.6568119107
 10
-3.63989561
 20
10.108954053
 10
-3.6905210689
 20
9.5621093041
 10
-3.7383345604
 20
9.0162992175
 10
-3.7833339177
 20
8.4715470045
 10
-3.8255168563
 20
7.9278803967
 10
-3.858458868
 20
7.4764841587
  0
LINE
  5
2CF
100
AcDbEntity
  8
RACCORDO
100
AcDbLine
 62
7
  6
CONTINUOUS
 10
-3.4124702473
 20
12.2655972176
 11
-3.420862685
 21
12.2051196782
  0
LWPOLYLINE
  5
2D0
100
AcDbEntity
  8
RACCORDO
100
AcDbPolyline
 62
7
  6
CONTINUOUS
 90
5
 70
0
 10
-3.8669356625
 20
7.4118787977
 10
-3.8767533112
 20
7.3720437309
 10
-3.8896917444
 20
7.3359933893
 10
-3.9052226395
 20
7.3049325235
 10
-3.9221854934
 20
7.2801495746
  0
LINE
  5
2D1
100
AcDbEntity
  8
RACCORDO
100
AcDbLine
 62
253
  6
CONTINUOUS
 10
-4.7557767819
 20
2.876918373
 11
-4.5435481922
 21
2.9830326678
  0
LINE
  5
2D2
100
AcDbEntity
  8
RACCORDO
100
AcDbLine
 62
7
  6
CONTINUOUS
 10
6.2411594857
 20
7.8597036854
 11
7.9100508948
 21
8.6941493899
  0
LINE
  5
2D3
100
AcDbEntity
  8
RACCORDO
100
AcDbLine
 62
253
  6
CONTINUOUS
 10
-4.4118908334
 20
2.2622952548
 11
-4.2178257397
 21
2.3593278016
  0
LINE
  5
2D4
100
AcDbEntity
  8
0
100
AcDbLine
 62
7
  6
CONTINUOUS
 10
14.5731133087
 20
11.7042717372
 11
13.5124531369
 21
11.1739416513
  0
LINE
  5
2D5
100
AcDbEntity
  8
Z030100_COP
100
AcDbLine
 62
7
  6
CONTINUOUS
 10
11.2569687147
 20
-11.6260550753
 11
11.1254473684
 21
-11.5602944021
  0
LINE
  5
2D6
100
AcDbEntity
  8
Z030100_COP
100
AcDbLine
 62
253
  6
CONTINUOUS
 10
11.179000759
 20
-11.4637929351
 11
11.1254473684
 21
-11.4370162398
  0
LINE
  5
2D7
100
AcDbEntity
  8
Z030100_COP
100
AcDbLine
 62
7
  6
CONTINUOUS
 10
6.8846792115
 20
-8.7889898986
 11
6.8955260812
 21
-8.7944133334
  0
LINE
  5
2D8
100
AcDbEntity
  8
Z030100_COP
100
AcDbLine
 62
253
  6
CONTINUOUS
 10
7.6198445142
 20
-8.6848320984
 11
7.1504897462
 21
-8.4501547144
  0
LINE
  5
2D9
100
AcDbEntity
  8
Z030100_COP
100
AcDbLine
 62
7
  6
CONTINUOUS
 10
6.7419057071
 20
-7.9188972093
 11
6.6199478276
 21
-7.8579182696
  0
LINE
  5
2DA
100
AcDbEntity
  8
0
100
AcDbLine
 62
7
  6
CONTINUOUS
 10
-3.5580048013
 20
18.8303741665
 11
-3.5580048013
 21
17.3842114008
  0
LINE
  5
2DB
100
AcDbEntity
  8
RACCORDO
100
AcDbLine
 62
7
  6
CONTINUOUS
 10
-3.3358212587
 20
12.5438497754
 11
-3.3358212587
 21
12.6993904256
  0
LINE
  5
2DC
100
AcDbEntity
  8
0
100
AcDbLine
 62
7
  6
CONTINUOUS
 10
-2.8985949269
 20
17.0545064636
 11
-2.8985949269
 21
18.5006692293
  0
LINE
  5
2DD
100
AcDbEntity
  8
0
100
AcDbLine
 62
7
  6
CONTINUOUS
 10
-2.0003516758
 20
24.507729251
 11
-2.0003516758
 21
23.1896649412
  0
LINE
  5
2DE
100
AcDbEntity
  8
0
100
AcDbLine
 62
7
  6
CONTINUOUS
 10
-1.9840651105
 20
24.4972166969
 11
-1.9840651105
 21
23.2493706157
  0
LINE
  5
2DF
100
AcDbEntity
  8
0
100
AcDbLine
 62
7
  6
CONTINUOUS
 10
-1.8317640148
 20
17.6498308816
 11
-1.8317640148
 21
19.0354715277
  0
LWPOLYLINE
  5
2E0
100
AcDbEntity
  8
RACCORDO
100
AcDbPolyline
 62
7
  6
CONTINUOUS
 90
3
 70
0
 10
-0.8038210021
 20
16.2291903909
 10
-0.8049688783
 20
16.216505315
 10
-0.8074190422
 20
16.2073440426
  0
LINE
  5
2E1
100
AcDbEntity
  8
DRAFT
100
AcDbLine
 62
7
  6
CONTINUOUS
 10
6.2411594857
 20
6.9013783811
 11
3.6253007951
 21
5.4575571246
  0
LINE
  5
2E2
100
AcDbEntity
  8
RACCORDO
100
AcDbLine
 62
7
  6
CONTINUOUS
 10
15.0327327165
 20
11.6766819261
 11
11.4971988106
 21
9.9089149731
  0
LINE
  5
2E3
100
AcDbEntity
  8
RACCORDO
100
AcDbLine
 62
7
  6
CONTINUOUS
 10
6.5374138533
 20
6.9686003846
 11
4.6837708449
 21
6.0417788805
  0
LINE
  5
2E4
100
AcDbEntity
  8
0
100
AcDbLine
 62
7
  6
CONTINUOUS
 10
10.943145651
 20
9.0761151099
 11
10.577959995
 21
8.8935222819
  0
LINE
  5
2E5
100
AcDbEntity
  8
RACCORDO
100
AcDbLine
 62
7
  6
CONTINUOUS
 10
16.0933928883
 20
11.1463518402
 11
12.5578589823
 21
9.3785848872
  0
LINE
  5
2E6
100
AcDbEntity
  8
0
100
AcDbLine
 62
7
  6
CONTINUOUS
 10
6.1838604627
 20
5.4204695014
 11
5.3004382404
 21
4.9787583903
  0
LINE
  5
2E7
100
AcDbEntity
  8
0
100
AcDbLine
 62
7
  6
CONTINUOUS
 10
16.8004996695
 20
10.5905785568
 11
11.9921735574
 21
8.1864155008
  0
LINE
  5
2E8
100
AcDbEntity
  8
DRAFT
100
AcDbLine
 62
7
  6
CONTINUOUS
 10
4.2847096425
 20
5.4866226893
 11
3.6253007951
 21
5.1795635935
  0
LINE
  5
2E9
100
AcDbEntity
  8
Z030100_COP
100
AcDbLine
 62
7
  6
CONTINUOUS
 10
7.8025658789
 20
-7.3885671235
 11
7.6806079994
 21
-7.3275881837
  0
LINE
  5
2EA
100
AcDbEntity
  8
Z030100_COP
100
AcDbLine
 62
7
  6
CONTINUOUS
 10
9.6070403191
 20
-7.4278093448
 11
9.6178871887
 21
-7.4332327796
  0
LINE
  5
2EB
100
AcDbEntity
  8
Z030100_COP
100
AcDbLine
 62
253
  6
CONTINUOUS
 10
10.3422056218
 20
-7.3236515446
 11
9.8728508538
 21
-7.0889741606
  0
LWPOLYLINE
  5
2EC
100
AcDbEntity
  8
RACCORDO
100
AcDbPolyline
 62
7
  6
CONTINUOUS
 90
4
 70
0
 10
-17.1236330862
 20
13.6908299124
 10
-17.0863342769
 20
13.6544427705
 10
-17.047112483
 20
13.6230372582
 10
-17.006514984
 20
13.5969808594
  0
LINE
  5
2ED
100
AcDbEntity
  8
RACCORDO
100
AcDbLine
 62
7
  6
CONTINUOUS
 10
-1.5106353384
 20
13.966596484
 11
-1.5106353384
 21
14.0162463218
  0
LINE
  5
2EE
100
AcDbEntity
  8
0
100
AcDbLine
 62
7
  6
CONTINUOUS
 10
-1.5068194876
 20
17.3621753194
 11
-1.5068194876
 21
17.0222013853
  0
LINE
  5
2EF
100
AcDbEntity
  8
0
100
AcDbLine
 62
253
  6
CONTINUOUS
 10
-1.4335961829
 20
17.2737869718
 11
-1.4335961829
 21
16.9338130376
  0
LINE
  5
2F0
100
AcDbEntity
  8
0
100
AcDbLine
 62
7
  6
CONTINUOUS
 10
-0.8038265334
 20
16.5161964109
 11
-0.8038265334
 21
16.2294248976
  0
LINE
  5
2F1
100
AcDbEntity
  8
RACCORDO
100
AcDbLine
 62
253
  6
CONTINUOUS
 10
-0.7306095895
 20
16.479587939
 11
-0.7306214521
 21
16.1348852106
  0
LINE
  5
2F2
100
AcDbEntity
  8
0
100
AcDbLine
 62
253
  6
CONTINUOUS
 10
0.2449418875
 20
-25.5450340711
 11
0.2449418875
 21
-25.205060137
  0
LINE
  5
2F3
100
AcDbEntity
  8
0
100
AcDbLine
 62
253
  6
CONTINUOUS
 10
0.2449418875
 20
16.0945440024
 11
0.2449418875
 21
16.4345179365
  0
LINE
  5
2F4
100
AcDbEntity
  8
RACCORDO
100
AcDbLine
 62
7
  6
CONTINUOUS
 10
4.2847096425
 20
5.6130304204
 11
5.0226459036
 21
6.2112164098
  0
LINE
  5
2F5
100
AcDbEntity
  8
0
100
AcDbLine
 62
7
  6
CONTINUOUS
 10
12.345726948
 20
8.0096388055
 11
16.0933928883
 21
9.8834717756
  0
LINE
  5
2F6
100
AcDbEntity
  8
0
100
AcDbLine
 62
7
  6
CONTINUOUS
 10
8.3859289733
 20
5.8143969756
 11
6.8909672439
 21
5.0669161109
  0
LINE
  5
2F7
100
AcDbEntity
  8
RACCORDO
100
AcDbLine
 62
7
  6
CONTINUOUS
 10
16.8712103476
 20
9.494563046
 11
17.3661850944
 21
9.7420504194
  0
LINE
  5
2F8
100
AcDbEntity
  8
0
100
AcDbLine
 62
7
  6
CONTINUOUS
 10
12.345726948
 20
6.4507930787
 11
16.0933928883
 21
8.3246260488
  0
LINE
  5
2F9
100
AcDbEntity
  8
DRAFT
100
AcDbLine
 62
7
  6
CONTINUOUS
 10
6.2411594857
 20
4.5083977676
 11
3.6253007951
 21
3.2903018817
  0
LINE
  5
2FA
100
AcDbEntity
  8
Z030100_COP
100
AcDbLine
 62
7
  6
CONTINUOUS
 10
9.4642668147
 20
-6.5577166556
 11
9.3423089352
 21
-6.4967377158
  0
LINE
  5
2FB
100
AcDbEntity
  8
Z030100_COP
100
AcDbLine
 62
7
  6
CONTINUOUS
 10
10.5249269864
 20
-6.0273865697
 11
10.402969107
 21
-5.96640763
  0
LINE
  5
2FC
100
AcDbEntity
  8
0
100
AcDbLine
 62
253
  6
CONTINUOUS
 10
-3.4919691727
 20
1.3616202591
 11
-4.2074602624
 21
1.719365804
  0
LINE
  5
2FD
100
AcDbEntity
  8
0
100
AcDbLine
 62
253
  6
CONTINUOUS
 10
-4.4195922968
 20
1.8254318212
 11
-17.4303570706
 21
8.3308142081
  0
LINE
  5
2FE
100
AcDbEntity
  8
0
100
AcDbLine
 62
253
  6
CONTINUOUS
 10
-17.642489105
 20
8.4368802253
 11
-18.3579801947
 21
8.7946257701
  0
LINE
  5
2FF
100
AcDbEntity
  8
0
100
AcDbLine
 62
253
  6
CONTINUOUS
 10
0.5974638471
 20
-25.5455467949
 11
0.5974638471
 21
-25.2055728608
  0
LINE
  5
300
100
AcDbEntity
  8
0
100
AcDbLine
 62
253
  6
CONTINUOUS
 10
0.5974638471
 20
16.0940312786
 11
0.5974638471
 21
16.4340052127
  0
LINE
  5
301
100
AcDbEntity
  8
RACCORDO
100
AcDbLine
 62
253
  6
CONTINUOUS
 10
0.9561878868
 20
15.2914805411
 11
0.9561631278
 21
15.8078539609
  0
LINE
  5
302
100
AcDbEntity
  8
RACCORDO
100
AcDbLine
 62
253
  6
CONTINUOUS
 10
0.9561624956
 20
-24.2285636598
 11
0.9561662752
 21
-24.1187363254
  0
LINE
  5
303
100
AcDbEntity
  8
RACCORDO
100
AcDbLine
 62
253
  6
CONTINUOUS
 10
1.3086925626
 20
15.3112901269
 11
1.3086844552
 21
15.9455277557
  0
LINE
  5
304
100
AcDbEntity
  8
RACCORDO
100
AcDbLine
 62
253
  6
CONTINUOUS
 10
1.3086844552
 20
-24.3540763837
 11
1.3086898854
 21
-23.9707612329
  0
LINE
  5
305
100
AcDbEntity
  8
0
100
AcDbLine
 62
7
  6
CONTINUOUS
 10
1.3176927383
 20
23.6389215469
 11
1.3176927383
 21
23.1747432333
  0
LINE
  5
306
100
AcDbEntity
  8
0
100
AcDbLine
 62
7
  6
CONTINUOUS
 10
2.198744638
 20
17.2367272162
 11
2.198744638
 21
16.5096823637
  0
LINE
  5
307
100
AcDbEntity
  8
RACCORDO
100
AcDbLine
 62
7
  6
CONTINUOUS
 10
2.198744638
 20
-24.0384673428
 11
2.198744638
 21
-23.5971524005
  0
LINE
  5
308
100
AcDbEntity
  8
0
100
AcDbLine
 62
7
  6
CONTINUOUS
 10
2.198744638
 20
-24.0384673428
 11
2.198744638
 21
-24.7655121953
  0
LINE
  5
309
100
AcDbEntity
  8
RACCORDO
100
AcDbLine
 62
7
  6
CONTINUOUS
 10
2.198744638
 20
15.807966524
 11
2.198744638
 21
16.5096823637
  0
LWPOLYLINE
  5
30A
100
AcDbEntity
  8
RACCORDO
100
AcDbPolyline
 62
7
  6
CONTINUOUS
 90
7
 70
0
 10
-15.9460434777
 20
-10.1872749533
 10
-15.965011704
 20
-10.1989561121
 10
-16.0143917756
 20
-10.2392097146
 10
-16.0557859671
 20
-10.2893249013
 10
-16.0875214076
 20
-10.3486333896
 10
-16.1070829145
 20
-10.4134676871
 10
-16.1139130425
 20
-10.4802627742
  0
LINE
  5
30B
100
AcDbEntity
  8
RACCORDO
100
AcDbLine
 62
7
  6
CONTINUOUS
 10
-14.8627034306
 20
-9.5726878289
 11
-15.9460659569
 21
-10.1872849358
  0
LINE
  5
30C
100
AcDbEntity
  8
0
100
AcDbLine
 62
7
  6
CONTINUOUS
 10
6.2411594857
 20
2.6206918882
 11
16.8712103476
 21
7.9357173191
  0
LINE
  5
30D
100
AcDbEntity
  8
0
100
AcDbLine
 62
7
  6
CONTINUOUS
 10
16.8712103476
 20
6.7232817538
 11
6.2411594857
 21
1.4082563229
  0
LINE
  5
30E
100
AcDbEntity
  8
RACCORDO
100
AcDbLine
 62
7
  6
CONTINUOUS
 10
-17.0594347746
 20
9.0287473693
 11
-4.7557767819
 21
2.876918373
  0
LINE
  5
30F
100
AcDbEntity
  8
Z030100_COP
100
AcDbLine
 62
253
  6
CONTINUOUS
 10
12.9938560512
 20
-5.9978263299
 11
12.5245012832
 21
-5.7631489459
  0
LINE
  5
310
100
AcDbEntity
  8
RACCORDO
100
AcDbLine
 62
7
  6
CONTINUOUS
 10
-16.8472061849
 20
9.1348616641
 11
-4.5435481922
 21
2.9830326678
  0
LINE
  5
311
100
AcDbEntity
  8
RACCORDO
100
AcDbLine
 62
7
  6
CONTINUOUS
 10
-17.0526902743
 20
9.2919272406
 11
-4.7490322817
 21
3.1400982442
  0
LINE
  5
312
100
AcDbEntity
  8
Z030100_COP
100
AcDbLine
 62
7
  6
CONTINUOUS
 10
12.1159172441
 20
-5.2318914408
 11
11.9939593647
 21
-5.1709125011
  0
LINE
  5
313
100
AcDbEntity
  8
Z030100_COP
100
AcDbLine
 62
7
  6
CONTINUOUS
 10
13.1765774159
 20
-4.701561355
 11
13.0546195364
 21
-4.6405824152
  0
LINE
  5
314
100
AcDbEntity
  8
0
100
AcDbLine
 62
253
  6
CONTINUOUS
 10
2.7270118097
 20
17.5001660362
 11
2.7270118097
 21
17.1526345195
  0
LINE
  5
315
100
AcDbEntity
  8
0
100
AcDbLine
 62
253
  6
CONTINUOUS
 10
2.7270118097
 20
-24.1469696199
 11
2.7270118097
 21
-24.4945011366
  0
LINE
  5
316
100
AcDbEntity
  8
0
100
AcDbLine
 62
7
  6
CONTINUOUS
 10
2.7992096667
 20
17.5880386684
 11
2.7992096667
 21
17.2405071517
  0
LINE
  5
317
100
AcDbEntity
  8
0
100
AcDbLine
 62
7
  6
CONTINUOUS
 10
2.7992096667
 20
-24.0590969877
 11
2.7992096667
 21
-24.4066285045
  0
LINE
  5
318
100
AcDbEntity
  8
0
100
AcDbLine
 62
7
  6
CONTINUOUS
 10
2.9058514191
 20
14.8480251185
 11
2.9058514191
 21
14.5882028416
  0
LINE
  5
319
100
AcDbEntity
  8
0
100
AcDbLine
 62
7
  6
CONTINUOUS
 10
2.9058514191
 20
-23.0839168788
 11
2.9058514191
 21
-22.8240946019
  0
LINE
  5
31A
100
AcDbEntity
  8
0
100
AcDbLine
 62
253
  6
CONTINUOUS
 10
3.4755466514
 20
21.6802541166
 11
3.4755466514
 21
21.1270833935
  0
LINE
  5
31B
100
AcDbEntity
  8
0
100
AcDbLine
 62
253
  6
CONTINUOUS
 10
3.4755466514
 20
20.770907527
 11
3.4755466514
 21
20.2965061517
  0
LINE
  5
31C
100
AcDbEntity
  8
0
100
AcDbLine
 62
7
  6
CONTINUOUS
 10
3.6063815025
 20
21.7020420278
 11
3.6063815025
 21
20.4541480096
  0
LINE
  5
31D
100
AcDbEntity
  8
0
100
AcDbLine
 62
7
  6
CONTINUOUS
 10
3.6067873729
 20
-22.7222396861
 11
3.6067873729
 21
-21.9985179935
  0
LINE
  5
31E
100
AcDbEntity
  8
0
100
AcDbLine
 62
7
  6
CONTINUOUS
 10
3.6067873729
 20
14.4448416459
 11
3.6067873729
 21
15.1996255344
  0
LINE
  5
31F
100
AcDbEntity
  8
0
100
AcDbLine
 62
7
  6
CONTINUOUS
 10
3.6253007951
 20
-21.9767125087
 11
3.6253007951
 21
14.4355849348
  0
LINE
  5
320
100
AcDbEntity
  8
0
100
AcDbLine
 62
7
  6
CONTINUOUS
 10
4.1432882862
 20
15.6364799007
 11
4.1432882862
 21
15.8585240766
  0
LINE
  5
321
100
AcDbEntity
  8
DRAFT
100
AcDbLine
 62
7
  6
CONTINUOUS
 10
4.2847096425
 20
5.8215173469
 11
4.2847096425
 21
5.4866226893
  0
LINE
  5
322
100
AcDbEntity
  8
0
100
AcDbLine
 62
253
  6
CONTINUOUS
 10
2.7992096667
 20
-24.4066284868
 11
2.7992095217
 21
-24.4067631283
  0
LINE
  5
323
100
AcDbEntity
  8
RACCORDO
100
AcDbLine
 62
253
  6
CONTINUOUS
 10
-17.4923625785
 20
-12.0128585812
 11
-17.2920924968
 21
-11.9127235404
  0
LINE
  5
324
100
AcDbEntity
  8
RACCORDO
100
AcDbLine
 62
7
  6
CONTINUOUS
 10
18.4268452662
 20
5.0253416876
 11
17.6004996695
 21
4.6121688892
  0
LINE
  5
325
100
AcDbEntity
  8
RACCORDO
100
AcDbLine
 62
253
  6
CONTINUOUS
 10
-16.8837501309
 20
-12.9670581054
 11
-16.6709317943
 21
-12.8606489371
  0
LINE
  5
326
100
AcDbEntity
  8
Z030100_COP
100
AcDbLine
 62
253
  6
CONTINUOUS
 10
15.7162171588
 20
-4.6366457761
 11
15.2468623908
 21
-4.4019683921
  0
LINE
  5
327
100
AcDbEntity
  8
Z030100_COP
100
AcDbLine
 62
7
  6
CONTINUOUS
 10
14.8382783517
 20
-3.8707108871
 11
14.7163204722
 21
-3.8097319473
  0
LINE
  5
328
100
AcDbEntity
  8
Z030100_COP
100
AcDbLine
 62
7
  6
CONTINUOUS
 10
15.8989385235
 20
-3.3403808012
 11
15.776980644
 21
-3.2794018614
  0
LINE
  5
329
100
AcDbEntity
  8
RACCORDO
100
AcDbLine
 62
253
  6
CONTINUOUS
 10
-4.3375740433
 20
7.0251076368
 11
-17.0905242259
 21
13.4015827281
  0
LINE
  5
32A
100
AcDbEntity
  8
RACCORDO
100
AcDbLine
 62
7
  6
CONTINUOUS
 10
-17.006514984
 20
13.5969808594
 11
-16.987623353
 21
13.586911019
  0
LINE
  5
32B
100
AcDbEntity
  8
RACCORDO
100
AcDbLine
 62
7
  6
CONTINUOUS
 10
6.1838604627
 20
6.7918236893
 11
6.1838604627
 21
5.4204695014
  0
LINE
  5
32C
100
AcDbEntity
  8
DRAFT
100
AcDbLine
 62
7
  6
CONTINUOUS
 10
6.2411594857
 20
11.003187176
 11
6.2411594857
 21
6.9013783811
  0
LINE
  5
32D
100
AcDbEntity
  8
DRAFT
100
AcDbLine
 62
7
  6
CONTINUOUS
 10
6.2411594857
 20
4.5083977676
 11
6.2411594857
 21
-18.8172508166
  0
LINE
  5
32E
100
AcDbEntity
  8
RACCORDO
100
AcDbLine
 62
7
  6
CONTINUOUS
 10
18.4268452662
 20
2.9468807185
 11
17.6004996695
 21
2.5337079201
  0
LINE
  5
32F
100
AcDbEntity
  8
0
100
AcDbLine
 62
7
  6
CONTINUOUS
 10
16.6590783132
 20
1.1453638306
 11
6.2411594857
 21
-4.0635955832
  0
LINE
  5
330
100
AcDbEntity
  8
0
100
AcDbLine
 62
7
  6
CONTINUOUS
 10
16.3055249226
 20
0.889127824
 11
6.2411594857
 21
-4.1430548945
  0
LWPOLYLINE
  5
331
100
AcDbEntity
  8
RACCORDO
100
AcDbPolyline
 62
7
  6
CONTINUOUS
 90
8
 70
0
 10
-4.3515938919
 20
7.2688963165
 10
-4.3256230847
 20
7.2570773956
 10
-4.2834943446
 20
7.2427124646
 10
-4.2412142364
 20
7.2341486562
 10
-4.1993140759
 20
7.2314808365
 10
-4.1585932942
 20
7.2346728067
 10
-4.1197084819
 20
7.2434895177
 10
-4.0814950129
 20
7.2583744279
  0
LINE
  5
332
100
AcDbEntity
  8
RACCORDO
100
AcDbLine
 62
7
  6
CONTINUOUS
 10
-4.3515939069
 20
7.2688962863
 11
-16.9876749719
 21
13.5869366975
  0
LINE
  5
333
100
AcDbEntity
  8
RACCORDO
100
AcDbLine
 62
253
  6
CONTINUOUS
 10
-4.3773961114
 20
7.330688595
 11
-17.0133964389
 21
13.6486887588
  0
LINE
  5
334
100
AcDbEntity
  8
Z030100_COP
100
AcDbLine
 62
7
  6
CONTINUOUS
 10
6.7419057071
 20
-7.9188972093
 11
6.9246270717
 21
-9.0324408196
  0
LINE
  5
335
100
AcDbEntity
  8
RACCORDO
100
AcDbLine
 62
7
  6
CONTINUOUS
 10
8.2630599381
 20
8.4616604327
 11
8.3859289733
 21
5.8143969756
  0
LINE
  5
336
100
AcDbEntity
  8
0
100
AcDbLine
 62
7
  6
CONTINUOUS
 10
6.6888726985
 20
13.0268861437
 11
6.6888726985
 21
14.5857318705
  0
LINE
  5
337
100
AcDbEntity
  8
0
100
AcDbLine
 62
7
  6
CONTINUOUS
 10
6.706550368
 20
-7.9012195398
 11
6.706550368
 21
-7.8146169994
  0
LINE
  5
338
100
AcDbEntity
  8
0
100
AcDbLine
 62
7
  6
CONTINUOUS
 10
6.7772610461
 20
-8.1343603106
 11
6.7772610461
 21
-7.7792616604
  0
LINE
  5
339
100
AcDbEntity
  8
0
100
AcDbLine
 62
7
  6
CONTINUOUS
 10
6.8126163852
 20
-8.3498234119
 11
6.8126163852
 21
-7.7615839909
  0
LINE
  5
33A
100
AcDbEntity
  8
RACCORDO
100
AcDbLine
 62
7
  6
CONTINUOUS
 10
6.8909672439
 20
6.712364378
 11
6.8909672439
 21
5.0669161109
  0
LINE
  5
33B
100
AcDbEntity
  8
0
100
AcDbLine
 62
7
  6
CONTINUOUS
 10
7.2015251149
 20
-8.3369916496
 11
7.2015251149
 21
-7.567129626
  0
LINE
  5
33C
100
AcDbEntity
  8
RACCORDO
100
AcDbLine
 62
7
  6
CONTINUOUS
 10
7.3959794797
 20
15.3361399219
 11
7.3959794797
 21
15.2928386517
  0
LINE
  5
33D
100
AcDbEntity
  8
0
100
AcDbLine
 62
7
  6
CONTINUOUS
 10
7.5020454969
 20
12.6202997445
 11
7.5020454969
 21
14.1791454713
  0
LINE
  5
33E
100
AcDbEntity
  8
0
100
AcDbLine
 62
7
  6
CONTINUOUS
 10
8.5627056686
 20
13.1506298304
 11
8.5627056686
 21
14.7094755572
  0
LINE
  5
33F
100
AcDbEntity
  8
RACCORDO
100
AcDbLine
 62
7
  6
CONTINUOUS
 10
8.6008925845
 20
19.0817218782
 11
8.6008925845
 21
18.8446056682
  0
LINE
  5
340
100
AcDbEntity
  8
RACCORDO
100
AcDbLine
 62
7
  6
CONTINUOUS
 10
8.6008925845
 20
-16.6632506089
 11
8.6008925845
 21
-15.8049758453
  0
LINE
  5
341
100
AcDbEntity
  8
RACCORDO
100
AcDbLine
 62
7
  6
CONTINUOUS
 10
17.3661850944
 20
0.6487836796
 11
16.8712103476
 21
0.4012963062
  0
LINE
  5
342
100
AcDbEntity
  8
0
100
AcDbLine
 62
7
  6
CONTINUOUS
 10
16.6590783132
 20
0.2793384268
 11
6.2411594857
 21
-4.929620987
  0
LINE
  5
343
100
AcDbEntity
  8
DRAFT
100
AcDbLine
 62
7
  6
CONTINUOUS
 10
6.2411594857
 20
4.5083977676
 11
4.2847096425
 21
5.4866226893
  0
LINE
  5
344
100
AcDbEntity
  8
0
100
AcDbLine
 62
7
  6
CONTINUOUS
 10
6.8909672439
 20
5.0669161109
 11
6.1838604627
 21
5.4204695014
  0
LINE
  5
345
100
AcDbEntity
  8
0
100
AcDbLine
 62
7
  6
CONTINUOUS
 10
16.4728975813
 20
0.6004526894
 11
16.8712103476
 21
0.4012963062
  0
LINE
  5
346
100
AcDbEntity
  8
Z030100_COP
100
AcDbLine
 62
7
  6
CONTINUOUS
 10
9.4642668147
 20
-6.5577166556
 11
9.6469881793
 21
-7.6712602659
  0
LINE
  5
347
100
AcDbEntity
  8
0
100
AcDbLine
 62
253
  6
CONTINUOUS
 10
8.8634351457
 20
-17.5383192883
 11
8.8634351457
 21
-17.1381920279
  0
LINE
  5
348
100
AcDbEntity
  8
0
100
AcDbLine
 62
253
  6
CONTINUOUS
 10
8.8634351457
 20
19.2205132234
 11
8.8634351457
 21
19.6206404837
  0
LINE
  5
349
100
AcDbEntity
  8
0
100
AcDbLine
 62
7
  6
CONTINUOUS
 10
9.0037652455
 20
-17.4880068951
 11
9.0037652455
 21
-16.9671288396
  0
LINE
  5
34A
100
AcDbEntity
  8
0
100
AcDbLine
 62
7
  6
CONTINUOUS
 10
9.0037652455
 20
19.3967792203
 11
9.0037652455
 21
19.9176572758
  0
LINE
  5
34B
100
AcDbEntity
  8
0
100
AcDbLine
 62
7
  6
CONTINUOUS
 10
9.3582007975
 20
-6.504683647
 11
9.3582007975
 21
-6.4887917847
  0
LINE
  5
34C
100
AcDbEntity
  8
0
100
AcDbLine
 62
7
  6
CONTINUOUS
 10
9.7471095271
 20
-7.2925987848
 11
9.7471095271
 21
-6.2943374199
  0
LINE
  5
34D
100
AcDbEntity
  8
0
100
AcDbLine
 62
7
  6
CONTINUOUS
 10
10.577959995
 20
7.3346765551
 11
10.577959995
 21
8.8935222819
  0
LINE
  5
34E
100
AcDbEntity
  8
Z030100_COP
100
AcDbLine
 62
7
  6
CONTINUOUS
 10
7.6198445142
 20
-8.6848320984
 11
7.8025658789
 21
-7.3885671235
  0
LINE
  5
34F
100
AcDbEntity
  8
Z030100_COP
100
AcDbLine
 62
7
  6
CONTINUOUS
 10
7.1504897462
 20
-8.4501547144
 11
7.6498110592
 21
-7.3429866538
  0
LINE
  5
350
100
AcDbEntity
  8
0
100
AcDbLine
 62
7
  6
CONTINUOUS
 10
16.3055249226
 20
0.889127824
 11
16.6590783132
 21
1.1453638306
  0
LINE
  5
351
100
AcDbEntity
  8
RACCORDO
100
AcDbLine
 62
253
  6
CONTINUOUS
 10
-6.088659052
 20
-15.0475826695
 11
-5.085319868
 21
-14.3544713876
  0
LINE
  5
352
100
AcDbEntity
  8
0
100
AcDbLine
 62
7
  6
CONTINUOUS
 10
16.6590783132
 20
-2.8383530268
 11
6.2411594857
 21
-8.0473124406
  0
LINE
  5
353
100
AcDbEntity
  8
Z030100_COP
100
AcDbLine
 62
7
  6
CONTINUOUS
 10
16.4115909398
 20
-3.084054593
 11
15.8989385235
 21
-3.3403808012
  0
LINE
  5
354
100
AcDbEntity
  8
Z030100_COP
100
AcDbLine
 62
7
  6
CONTINUOUS
 10
14.8382783517
 20
-3.8707108871
 11
13.1765774159
 21
-4.701561355
  0
LINE
  5
355
100
AcDbEntity
  8
Z030100_COP
100
AcDbLine
 62
7
  6
CONTINUOUS
 10
12.1159172441
 20
-5.2318914408
 11
11.6032648277
 21
-5.488217649
  0
LINE
  5
356
100
AcDbEntity
  8
Z030100_COP
100
AcDbLine
 62
7
  6
CONTINUOUS
 10
11.0375794028
 20
-5.7710603615
 11
10.5249269864
 21
-6.0273865697
  0
LINE
  5
357
100
AcDbEntity
  8
Z030100_COP
100
AcDbLine
 62
7
  6
CONTINUOUS
 10
9.4642668147
 20
-6.5577166556
 11
7.8025658789
 21
-7.3885671235
  0
LINE
  5
358
100
AcDbEntity
  8
Z030100_COP
100
AcDbLine
 62
7
  6
CONTINUOUS
 10
6.7419057071
 20
-7.9188972093
 11
6.2411594857
 21
-8.16927032
  0
LINE
  5
359
100
AcDbEntity
  8
RACCORDO
100
AcDbLine
 62
253
  6
CONTINUOUS
 10
6.8909672439
 20
6.712364378
 11
6.457954542
 21
6.928870729
  0
LINE
  5
35A
100
AcDbEntity
  8
RACCORDO
100
AcDbLine
 62
253
  6
CONTINUOUS
 10
-17.6700808299
 20
19.2925058448
 11
-17.0878548731
 21
19.0013928315
  0
LINE
  5
35B
100
AcDbEntity
  8
RACCORDO
100
AcDbLine
 62
253
  6
CONTINUOUS
 10
-16.8339696519
 20
18.8744502558
 11
-3.6158778891
 21
12.2654043744
  0
LINE
  5
35C
100
AcDbEntity
  8
RACCORDO
100
AcDbLine
 62
253
  6
CONTINUOUS
 10
-3.3619926756
 20
12.1384617327
 11
-2.7797667111
 21
11.8473487854
  0
LINE
  5
35D
100
AcDbEntity
  8
RACCORDO
100
AcDbLine
 62
253
  6
CONTINUOUS
 10
-16.1661567006
 20
19.9384350958
 11
-2.9593034727
 21
13.3350084818
  0
LINE
  5
35E
100
AcDbEntity
  8
RACCORDO
100
AcDbLine
 62
253
  6
CONTINUOUS
 10
-2.709045895
 20
13.209879693
 11
-2.1117937104
 21
12.9112536006
  0
LINE
  5
35F
100
AcDbEntity
  8
RACCORDO
100
AcDbLine
 62
253
  6
CONTINUOUS
 10
-16.4164142783
 20
20.0635638846
 11
-17.013666463
 21
20.3621899769
  0
LINE
  5
360
100
AcDbEntity
  8
RACCORDO
100
AcDbLine
 62
7
  6
CONTINUOUS
 10
10.9315133856
 20
8.7167455867
 11
10.9315133856
 21
8.9332519376
  0
LINE
  5
361
100
AcDbEntity
  8
Z030100_COP
100
AcDbLine
 62
253
  6
CONTINUOUS
 10
11.0375794028
 20
-11.7466356476
 11
11.0375794028
 21
-5.7710603615
  0
LINE
  5
362
100
AcDbEntity
  8
Z030100_COP
100
AcDbLine
 62
7
  6
CONTINUOUS
 10
11.1254473684
 20
-11.6405696304
 11
11.1254473684
 21
-5.6649943443
  0
LINE
  5
363
100
AcDbEntity
  8
Z030100_COP
100
AcDbLine
 62
253
  6
CONTINUOUS
 10
11.179000759
 20
-11.4637929351
 11
11.179000759
 21
-5.7480252702
  0
LINE
  5
364
100
AcDbEntity
  8
Z030100_COP
100
AcDbLine
 62
253
  6
CONTINUOUS
 10
11.6032648277
 20
-11.4637929351
 11
11.6032648277
 21
-5.488217649
  0
LINE
  5
365
100
AcDbEntity
  8
RACCORDO
100
AcDbLine
 62
7
  6
CONTINUOUS
 10
11.9921735574
 20
8.4029218517
 11
11.9921735574
 21
8.1864155008
  0
LINE
  5
366
100
AcDbEntity
  8
0
100
AcDbLine
 62
7
  6
CONTINUOUS
 10
12.2926939394
 20
-6.0853371358
 11
12.2926939394
 21
-5.0215452138
  0
LINE
  5
367
100
AcDbEntity
  8
0
100
AcDbLine
 62
7
  6
CONTINUOUS
 10
12.345726948
 20
6.4507930787
 11
12.345726948
 21
8.0096388055
  0
LINE
  5
368
100
AcDbEntity
  8
Z030100_COP
100
AcDbLine
 62
7
  6
CONTINUOUS
 10
10.3422056218
 20
-7.3236515446
 11
10.5249269864
 21
-6.0273865697
  0
LINE
  5
369
100
AcDbEntity
  8
Z030100_COP
100
AcDbLine
 62
7
  6
CONTINUOUS
 10
11.1254473684
 20
-5.9180162963
 11
11.179000759
 21
-5.7480252702
  0
LINE
  5
36A
100
AcDbEntity
  8
Z030100_COP
100
AcDbLine
 62
7
  6
CONTINUOUS
 10
9.8728508538
 20
-7.0889741606
 11
10.3721721668
 21
-5.9818061001
  0
LINE
  5
36B
100
AcDbEntity
  8
RACCORDO
100
AcDbLine
 62
7
  6
CONTINUOUS
 10
-5.0317383702
 20
-15.3087427721
 11
-5.9231336991
 21
-15.6926464329
  0
LINE
  5
36C
100
AcDbEntity
  8
0
100
AcDbLine
 62
7
  6
CONTINUOUS
 10
10.577959995
 20
7.3346765551
 11
12.345726948
 21
6.4507930787
  0
LINE
  5
36D
100
AcDbEntity
  8
RACCORDO
100
AcDbLine
 62
253
  6
CONTINUOUS
 10
6.2411594857
 20
9.5285950945
 11
7.9100508948
 21
8.6941493899
  0
LINE
  5
36E
100
AcDbEntity
  8
RACCORDO
100
AcDbLine
 62
7
  6
CONTINUOUS
 10
6.2411594857
 20
9.654599387
 11
8.1336576926
 21
8.7083502835
  0
LINE
  5
36F
100
AcDbEntity
  8
RACCORDO
100
AcDbLine
 62
7
  6
CONTINUOUS
 10
-14.9895756066
 20
20.8425170552
 11
-1.3311638062
 21
14.013311155
  0
LINE
  5
370
100
AcDbEntity
  8
DRAFT
100
AcDbLine
 62
7
  6
CONTINUOUS
 10
3.6253007951
 20
12.3111165213
 11
6.2411594857
 21
11.003187176
  0
LINE
  5
371
100
AcDbEntity
  8
DRAFT
100
AcDbLine
 62
7
  6
CONTINUOUS
 10
-9.5038725907
 20
18.9274081216
 11
-5.2612319036
 21
16.806087778
  0
LINE
  5
372
100
AcDbEntity
  8
0
100
AcDbLine
 62
7
  6
CONTINUOUS
 10
10.577959995
 20
8.8935222819
 11
10.9315133856
 21
8.7167455867
  0
LINE
  5
373
100
AcDbEntity
  8
0
100
AcDbLine
 62
7
  6
CONTINUOUS
 10
11.9921735574
 20
8.1864155008
 11
12.345726948
 21
8.0096388055
  0
LINE
  5
374
100
AcDbEntity
  8
RACCORDO
100
AcDbLine
 62
253
  6
CONTINUOUS
 10
11.9921735574
 20
8.4029218517
 11
10.9315133856
 21
8.9332519376
  0
LINE
  5
375
100
AcDbEntity
  8
Z030100_COP
100
AcDbLine
 62
7
  6
CONTINUOUS
 10
12.1159172441
 20
-5.2318914408
 11
12.2986386088
 21
-6.3454350511
  0
LINE
  5
376
100
AcDbEntity
  8
0
100
AcDbLine
 62
7
  6
CONTINUOUS
 10
13.5124531369
 20
10.9165421363
 11
13.5124531369
 21
11.1739416513
  0
LINE
  5
377
100
AcDbEntity
  8
0
100
AcDbLine
 62
7
  6
CONTINUOUS
 10
14.8382783517
 20
-3.8707108871
 11
14.8382783517
 21
-3.7487530076
  0
LINE
  5
378
100
AcDbEntity
  8
Z030100_COP
100
AcDbLine
 62
7
  6
CONTINUOUS
 10
12.9938560512
 20
-5.9978263299
 11
13.1765774159
 21
-4.701561355
  0
LINE
  5
379
100
AcDbEntity
  8
Z030100_COP
100
AcDbLine
 62
7
  6
CONTINUOUS
 10
12.5245012832
 20
-5.7631489459
 11
13.0238225962
 21
-4.6559808853
  0
LINE
  5
37A
100
AcDbEntity
  8
RACCORDO
100
AcDbLine
 62
253
  6
CONTINUOUS
 10
-4.2694657704
 20
-18.6243069853
 11
-4.0691956953
 21
-18.5241719478
  0
LINE
  5
37B
100
AcDbEntity
  8
RACCORDO
100
AcDbLine
 62
7
  6
CONTINUOUS
 10
-4.3793964889
 20
-18.8847359484
 11
-4.1666552532
 21
-18.7783653305
  0
LINE
  5
37C
100
AcDbEntity
  8
RACCORDO
100
AcDbLine
 62
253
  6
CONTINUOUS
 10
-4.5800921383
 20
-19.1188871017
 11
-4.3672738016
 21
-19.0124779334
  0
LINE
  5
37D
100
AcDbEntity
  8
0
100
AcDbLine
 62
7
  6
CONTINUOUS
 10
3.6067873729
 20
14.4448416459
 11
2.9058514191
 21
14.5882028416
  0
LINE
  5
37E
100
AcDbEntity
  8
0
100
AcDbLine
 62
7
  6
CONTINUOUS
 10
3.6253007951
 20
14.4355849348
 11
2.9058514191
 21
14.5882028416
  0
LINE
  5
37F
100
AcDbEntity
  8
RACCORDO
100
AcDbLine
 62
7
  6
CONTINUOUS
 10
17.6004996695
 20
5.7920678765
 11
18.4268452662
 21
5.3788950782
  0
LINE
  5
380
100
AcDbEntity
  8
RACCORDO
100
AcDbLine
 62
253
  6
CONTINUOUS
 10
-13.1682811556
 20
22.0467274188
 11
-11.4815154314
 21
21.2033445567
  0
LINE
  5
381
100
AcDbEntity
  8
RACCORDO
100
AcDbLine
 62
253
  6
CONTINUOUS
 10
-0.864623163
 20
15.8948984225
 11
0.8221425613
 21
15.0515155604
  0
LINE
  5
382
100
AcDbEntity
  8
0
100
AcDbLine
 62
7
  6
CONTINUOUS
 10
-2.8985949269
 20
17.0545064636
 11
-3.5580048013
 21
17.3842114008
  0
LINE
  5
383
100
AcDbEntity
  8
0
100
AcDbLine
 62
7
  6
CONTINUOUS
 10
-8.5200939244
 20
19.8652559623
 11
-9.1795037988
 21
20.1949608995
  0
LINE
  5
384
100
AcDbEntity
  8
RACCORDO
100
AcDbLine
 62
253
  6
CONTINUOUS
 10
12.5578589823
 20
9.3785848872
 11
11.4971988106
 21
9.9089149731
  0
LINE
  5
385
100
AcDbEntity
  8
RACCORDO
100
AcDbLine
 62
253
  6
CONTINUOUS
 10
-13.0342794447
 20
22.2867142069
 11
-11.3474701059
 21
21.4433095375
  0
LINE
  5
386
100
AcDbEntity
  8
RACCORDO
100
AcDbLine
 62
253
  6
CONTINUOUS
 10
-0.7306214521
 20
16.1348852106
 11
0.9561878868
 21
15.2914805411
  0
LINE
  5
387
100
AcDbEntity
  8
0
100
AcDbLine
 62
7
  6
CONTINUOUS
 10
-13.6722808792
 20
22.9504235838
 11
-11.9937428087
 21
22.1111545486
  0
LINE
  5
388
100
AcDbEntity
  8
0
100
AcDbLine
 62
7
  6
CONTINUOUS
 10
-1.3686228865
 20
16.7985945875
 11
0.3099151839
 21
15.9593255523
  0
LINE
  5
389
100
AcDbEntity
  8
0
100
AcDbLine
 62
253
  6
CONTINUOUS
 10
-13.7372541756
 20
23.0856420339
 11
-12.0587161052
 21
22.2463729987
  0
LINE
  5
38A
100
AcDbEntity
  8
0
100
AcDbLine
 62
253
  6
CONTINUOUS
 10
-1.4335961829
 20
16.9338130376
 11
0.2449418875
 21
16.0945440024
  0
LINE
  5
38B
100
AcDbEntity
  8
0
100
AcDbLine
 62
7
  6
CONTINUOUS
 10
3.6253007951
 20
14.4355849348
 11
3.6067873729
 21
14.4448416459
  0
LINE
  5
38C
100
AcDbEntity
  8
0
100
AcDbLine
 62
7
  6
CONTINUOUS
 10
-7.8068163158
 20
20.2611104074
 11
-6.1823273524
 21
19.4488659257
  0
LINE
  5
38D
100
AcDbEntity
  8
0
100
AcDbLine
 62
7
  6
CONTINUOUS
 10
-4.4815578109
 20
18.598481155
 11
-3.5580048013
 21
18.1367046502
  0
LINE
  5
38E
100
AcDbEntity
  8
0
100
AcDbLine
 62
7
  6
CONTINUOUS
 10
6.6888726985
 20
13.0268861437
 11
7.5020454969
 21
12.6202997445
  0
LINE
  5
38F
100
AcDbEntity
  8
0
100
AcDbLine
 62
7
  6
CONTINUOUS
 10
16.8712103476
 20
7.9357173191
 11
16.0933928883
 21
8.3246260488
  0
LINE
  5
390
100
AcDbEntity
  8
0
100
AcDbLine
 62
253
  6
CONTINUOUS
 10
0.2449418875
 20
16.4345179365
 11
-1.4335961829
 21
17.2737869718
  0
LINE
  5
391
100
AcDbEntity
  8
0
100
AcDbLine
 62
253
  6
CONTINUOUS
 10
-12.0587161052
 20
22.5863469329
 11
-13.7372541756
 21
23.4256159681
  0
LINE
  5
392
100
AcDbEntity
  8
RACCORDO
100
AcDbLine
 62
7
  6
CONTINUOUS
 10
-9.9635326653
 20
21.7157152069
 11
-9.1795037988
 21
21.3237007736
  0
LINE
  5
393
100
AcDbEntity
  8
RACCORDO
100
AcDbLine
 62
7
  6
CONTINUOUS
 10
-1.8317640148
 20
17.6498308816
 11
-1.479948416
 21
17.4739230822
  0
LINE
  5
394
100
AcDbEntity
  8
RACCORDO
100
AcDbLine
 62
7
  6
CONTINUOUS
 10
2.3401253273
 20
15.5638862105
 11
2.5525671532
 21
15.4576652976
  0
LINE
  5
395
100
AcDbEntity
  8
0
100
AcDbLine
 62
7
  6
CONTINUOUS
 10
-4.5401364547
 20
19.0040171016
 11
-5.6854959723
 21
19.5766968603
  0
LINE
  5
396
100
AcDbEntity
  8
0
100
AcDbLine
 62
7
  6
CONTINUOUS
 10
16.6590783132
 20
0.2793384268
 11
16.3055249226
 21
0.889127824
  0
LINE
  5
397
100
AcDbEntity
  8
Z030100_COP
100
AcDbLine
 62
7
  6
CONTINUOUS
 10
14.8382783517
 20
-3.8707108871
 11
15.0209997163
 21
-4.9842544973
  0
LINE
  5
398
100
AcDbEntity
  8
0
100
AcDbLine
 62
7
  6
CONTINUOUS
 10
16.0933928883
 20
8.3246260488
 11
16.0933928883
 21
9.8834717756
  0
LINE
  5
399
100
AcDbEntity
  8
Z030100_COP
100
AcDbLine
 62
253
  6
CONTINUOUS
 10
16.4115909398
 20
-9.0596298791
 11
16.4115909398
 21
-3.084054593
  0
LINE
  5
39A
100
AcDbEntity
  8
Z030100_COP
100
AcDbLine
 62
7
  6
CONTINUOUS
 10
16.4994589055
 20
-8.9535638619
 11
16.4994589055
 21
-2.9779885758
  0
LINE
  5
39B
100
AcDbEntity
  8
0
100
AcDbLine
 62
7
  6
CONTINUOUS
 10
16.6590783132
 20
-2.8383530268
 11
16.6590783132
 21
0.2793384268
  0
LINE
  5
39C
100
AcDbEntity
  8
0
100
AcDbLine
 62
7
  6
CONTINUOUS
 10
16.6590783132
 20
1.1453638306
 11
16.6590783132
 21
6.6172157367
  0
LINE
  5
39D
100
AcDbEntity
  8
RACCORDO
100
AcDbLine
 62
7
  6
CONTINUOUS
 10
16.8004996695
 20
10.633879827
 11
16.8004996695
 21
10.5905785568
  0
LINE
  5
39E
100
AcDbEntity
  8
0
100
AcDbLine
 62
7
  6
CONTINUOUS
 10
16.8712103476
 20
0.4012963062
 11
16.8712103476
 21
6.7232817538
  0
LINE
  5
39F
100
AcDbEntity
  8
0
100
AcDbLine
 62
7
  6
CONTINUOUS
 10
16.8712103476
 20
7.9357173191
 11
16.8712103476
 21
9.494563046
  0
LINE
  5
3A0
100
AcDbEntity
  8
Z030100_COP
100
AcDbLine
 62
7
  6
CONTINUOUS
 10
15.7162171588
 20
-4.6366457761
 11
15.8989385235
 21
-3.3403808012
  0
LINE
  5
3A1
100
AcDbEntity
  8
Z030100_COP
100
AcDbLine
 62
7
  6
CONTINUOUS
 10
15.2468623908
 20
-4.4019683921
 11
15.7461837038
 21
-3.2948003316
  0
LINE
  5
3A2
100
AcDbEntity
  8
0
100
AcDbLine
 62
253
  6
CONTINUOUS
 10
0.9556482672
 20
-24.2283065456
 11
0.3333302351
 21
-24.9733659631
  0
LINE
  5
3A3
100
AcDbEntity
  8
0
100
AcDbLine
 62
253
  6
CONTINUOUS
 10
1.3086844552
 20
-24.3540763837
 11
0.5974638471
 21
-25.2055728608
  0
LINE
  5
3A4
100
AcDbEntity
  8
0
100
AcDbLine
 62
7
  6
CONTINUOUS
 10
2.9058514191
 20
-22.8240946019
 11
3.6253007951
 21
-21.9767125087
  0
LINE
  5
3A5
100
AcDbEntity
  8
Z030100_COP
100
AcDbLine
 62
253
  6
CONTINUOUS
 10
16.4115909398
 20
-9.0596298791
 11
11.6032648277
 21
-11.4637929351
  0
LINE
  5
3A6
100
AcDbEntity
  8
Z030100_COP
100
AcDbLine
 62
253
  6
CONTINUOUS
 10
11.0375794028
 20
-11.7466356476
 11
6.2411594857
 21
-14.1448456062
  0
LINE
  5
3A7
100
AcDbEntity
  8
Z030100_COP
100
AcDbLine
 62
7
  6
CONTINUOUS
 10
16.3336229841
 20
-9.2218920192
 11
11.525296872
 21
-11.6260550753
  0
LINE
  5
3A8
100
AcDbEntity
  8
Z030100_COP
100
AcDbLine
 62
7
  6
CONTINUOUS
 10
10.9596114471
 20
-11.9088977877
 11
6.2411594857
 21
-14.2681237684
  0
LINE
  5
3A9
100
AcDbEntity
  8
0
100
AcDbLine
 62
7
  6
CONTINUOUS
 10
0.3706203536
 20
15.9382101178
 11
0.9949197758
 21
15.8078558192
  0
LINE
  5
3AA
100
AcDbEntity
  8
0
100
AcDbLine
 62
253
  6
CONTINUOUS
 10
0.5974638471
 20
16.0940312786
 11
1.3086844552
 21
15.9455277557
  0
LINE
  5
3AB
100
AcDbEntity
  8
0
100
AcDbLine
 62
253
  6
CONTINUOUS
 10
-9.6426449383
 20
23.9634744681
 11
-9.6428294181
 21
23.9635664546
  0
LINE
  5
3AC
100
AcDbEntity
  8
0
100
AcDbLine
 62
253
  6
CONTINUOUS
 10
0.4206901435
 20
16.7388947515
 11
-1.257847927
 21
17.5781637867
  0
LINE
  5
3AD
100
AcDbEntity
  8
0
100
AcDbLine
 62
253
  6
CONTINUOUS
 10
-11.8829678492
 20
22.8907237478
 11
-13.5615059196
 21
23.729992783
  0
LINE
  5
3AE
100
AcDbEntity
  8
0
100
AcDbLine
 62
7
  6
CONTINUOUS
 10
-9.1795037988
 20
21.6411236653
 11
-8.5200939244
 21
21.3114187281
  0
LINE
  5
3AF
100
AcDbEntity
  8
0
100
AcDbLine
 62
7
  6
CONTINUOUS
 10
-3.5580048013
 20
18.8303741665
 11
-2.8985949269
 21
18.5006692293
  0
LINE
  5
3B0
100
AcDbEntity
  8
0
100
AcDbLine
 62
7
  6
CONTINUOUS
 10
8.5627056686
 20
13.1506298304
 11
13.2716670969
 21
10.7961491163
  0
LINE
  5
3B1
100
AcDbEntity
  8
0
100
AcDbLine
 62
7
  6
CONTINUOUS
 10
-10.1049133547
 20
22.4884739443
 11
-9.4019204004
 21
22.1369774672
  0
LINE
  5
3B2
100
AcDbEntity
  8
0
100
AcDbLine
 62
7
  6
CONTINUOUS
 10
2.198744638
 20
16.336644948
 11
3.2532384697
 21
15.8093980321
  0
LINE
  5
3B3
100
AcDbEntity
  8
0
100
AcDbLine
 62
7
  6
CONTINUOUS
 10
-4.9845600185
 20
19.9288011248
 11
-4.5401364547
 21
19.7065893429
  0
LINE
  5
3B4
100
AcDbEntity
  8
0
100
AcDbLine
 62
253
  6
CONTINUOUS
 10
-3.0265587363
 20
19.1045959693
 11
-4.4815578109
 21
19.8320955066
  0
LINE
  5
3B5
100
AcDbEntity
  8
0
100
AcDbLine
 62
253
  6
CONTINUOUS
 10
-6.1823273524
 20
20.6824802774
 11
-7.8068163158
 21
21.4947247591
  0
LINE
  5
3B6
100
AcDbEntity
  8
0
100
AcDbLine
 62
253
  6
CONTINUOUS
 10
-2.7176972282
 20
19.2639659696
 11
-4.3409592062
 21
20.0755969586
  0
LINE
  5
3B7
100
AcDbEntity
  8
0
100
AcDbLine
 62
253
  6
CONTINUOUS
 10
-6.0417287476
 20
20.9259817293
 11
-7.6649907256
 21
21.7376127183
  0
LINE
  5
3B8
100
AcDbEntity
  8
0
100
AcDbLine
 62
7
  6
CONTINUOUS
 10
4.1432882862
 20
15.8585240766
 11
4.3653324622
 21
15.7475019887
  0
LINE
  5
3B9
100
AcDbEntity
  8
0
100
AcDbLine
 62
7
  6
CONTINUOUS
 10
6.6888726985
 20
14.5857318705
 11
7.5020454969
 21
14.1791454713
  0
LINE
  5
3BA
100
AcDbEntity
  8
0
100
AcDbLine
 62
7
  6
CONTINUOUS
 10
13.5124531369
 20
11.1739416513
 11
13.7698526519
 21
11.0452418938
  0
LINE
  5
3BB
100
AcDbEntity
  8
0
100
AcDbLine
 62
7
  6
CONTINUOUS
 10
16.0933928883
 20
9.8834717756
 11
16.8712103476
 21
9.494563046
  0
LINE
  5
3BC
100
AcDbEntity
  8
0
100
AcDbLine
 62
7
  6
CONTINUOUS
 10
-8.1250143674
 20
22.1820967039
 11
-5.8269155336
 21
21.033047287
  0
LINE
  5
3BD
100
AcDbEntity
  8
0
100
AcDbLine
 62
7
  6
CONTINUOUS
 10
-4.1298628486
 20
20.1845209446
 11
-1.8317640148
 21
19.0354715277
  0
LINE
  5
3BE
100
AcDbEntity
  8
0
100
AcDbLine
 62
7
  6
CONTINUOUS
 10
2.0219709343
 20
17.541616755
 11
0.3249086762
 21
18.3901478841
  0
LINE
  5
3BF
100
AcDbEntity
  8
0
100
AcDbLine
 62
7
  6
CONTINUOUS
 10
-10.2816870584
 20
23.6934457513
 11
-11.9787493164
 21
24.5419768804
  0
LINE
  5
3C0
100
AcDbEntity
  8
0
100
AcDbLine
 62
7
  6
CONTINUOUS
 10
-6.746156144
 20
22.1947359851
 11
-5.1259795798
 21
21.3846477029
  0
LINE
  5
3C1
100
AcDbEntity
  8
0
100
AcDbLine
 62
7
  6
CONTINUOUS
 10
-3.41658524
 20
20.529950533
 11
-1.7964086757
 21
19.7198622509
  0
LINE
  5
3C2
100
AcDbEntity
  8
RACCORDO
100
AcDbLine
 62
7
  6
CONTINUOUS
 10
17.3661850944
 20
10.3077358443
 11
16.8004996695
 21
10.5905785568
  0
LINE
  5
3C3
100
AcDbEntity
  8
0
100
AcDbLine
 62
7
  6
CONTINUOUS
 10
14.8305128237
 20
11.5755719797
 11
14.5731133087
 21
11.7042717372
  0
LINE
  5
3C4
100
AcDbEntity
  8
0
100
AcDbLine
 62
7
  6
CONTINUOUS
 10
8.5627056686
 20
14.7094755572
 11
7.3959794797
 21
15.2928386517
  0
LINE
  5
3C5
100
AcDbEntity
  8
0
100
AcDbLine
 62
253
  6
CONTINUOUS
 10
-11.4442994378
 20
24.8023243469
 11
-9.7534198866
 21
23.9568845714
  0
LINE
  5
3C6
100
AcDbEntity
  8
0
100
AcDbLine
 62
253
  6
CONTINUOUS
 10
0.8593585549
 20
18.6504953506
 11
2.550238106
 21
17.805055575
  0
LINE
  5
3C7
100
AcDbEntity
  8
0
100
AcDbLine
 62
7
  6
CONTINUOUS
 10
-11.3335244782
 20
24.8089142381
 11
-9.6426449271
 21
23.9634744625
  0
LINE
  5
3C8
100
AcDbEntity
  8
0
100
AcDbLine
 62
7
  6
CONTINUOUS
 10
0.9701335144
 20
18.6570852417
 11
2.6610130656
 21
17.8116454662
  0
LINE
  5
3C9
100
AcDbEntity
  8
RACCORDO
100
AcDbLine
 62
253
  6
CONTINUOUS
 10
5.6282125267
 20
16.378942021
 11
6.6888726985
 21
15.8486119351
  0
LINE
  5
3CA
100
AcDbEntity
  8
RACCORDO
100
AcDbLine
 62
253
  6
CONTINUOUS
 10
15.0327327165
 20
11.6766819261
 11
16.0933928883
 21
11.1463518402
  0
LINE
  5
3CB
100
AcDbEntity
  8
RACCORDO
100
AcDbLine
 62
253
  6
CONTINUOUS
 10
17.3661850944
 20
0.6487836796
 11
17.3661850944
 21
9.7420504194
  0
LINE
  5
3CC
100
AcDbEntity
  8
RACCORDO
100
AcDbLine
 62
7
  6
CONTINUOUS
 10
17.6004996695
 20
0.9316263921
 11
17.6004996695
 21
10.0248931318
  0
LINE
  5
3CD
100
AcDbEntity
  8
RACCORDO
100
AcDbLine
 62
253
  6
CONTINUOUS
 10
18.4268452662
 20
2.9468807185
 11
18.4268452662
 21
5.0253416876
  0
LINE
  5
3CE
100
AcDbEntity
  8
RACCORDO
100
AcDbLine
 62
7
  6
CONTINUOUS
 10
18.5732918756
 20
3.1236574138
 11
18.5732918756
 21
5.2021183829
  0
LINE
  5
3CF
100
AcDbEntity
  8
0
100
AcDbLine
 62
7
  6
CONTINUOUS
 10
8.8634351457
 20
-17.1381920279
 11
6.2411594857
 21
-18.4673897143
  0
LINE
  5
3D0
100
AcDbEntity
  8
DRAFT
100
AcDbLine
 62
7
  6
CONTINUOUS
 10
8.6008925845
 20
-16.6632506089
 11
6.2411594857
 21
-17.8384482243
  0
LINE
  5
3D1
100
AcDbEntity
  8
RACCORDO
100
AcDbLine
 62
7
  6
CONTINUOUS
 10
8.2597856003
 20
-15.4205824364
 11
6.2411594857
 21
-16.208511378
  0
LINE
  5
3D2
100
AcDbEntity
  8
0
100
AcDbLine
 62
7
  6
CONTINUOUS
 10
-11.933037639
 20
22.0900391141
 11
-11.3087397532
 21
21.9596851363
  0
LINE
  5
3D3
100
AcDbEntity
  8
RACCORDO
100
AcDbLine
 62
7
  6
CONTINUOUS
 10
6.0754261222
 20
16.4073438082
 11
7.136086294
 21
15.8770137223
  0
LINE
  5
3D4
100
AcDbEntity
  8
RACCORDO
100
AcDbLine
 62
7
  6
CONTINUOUS
 10
15.479946312
 20
11.7050837133
 11
16.5406064838
 21
11.1747536274
  0
LINE
  5
3D5
100
AcDbEntity
  8
DRAFT
100
AcDbLine
 62
7
  6
CONTINUOUS
 10
6.2411594857
 20
-18.8172508166
 11
3.6253007951
 21
-20.1764143143
  0
LINE
  5
3D6
100
AcDbEntity
  8
0
100
AcDbLine
 62
7
  6
CONTINUOUS
 10
7.8883799035
 20
-18.1704392323
 11
3.6253007951
 21
-20.360548428
  0
LINE
  5
3D7
100
AcDbEntity
  8
0
100
AcDbLine
 62
7
  6
CONTINUOUS
 10
8.8634351457
 20
-17.5383192883
 11
3.6253007951
 21
-20.2170555059
  0
LINE
  5
3D8
100
AcDbEntity
  8
0
100
AcDbLine
 62
253
  6
CONTINUOUS
 10
-11.7061941455
 20
22.2458602749
 11
-10.9949735374
 21
22.097356752
  0
LINE
  5
3D9
100
AcDbEntity
  8
0
100
AcDbLine
 62
7
  6
CONTINUOUS
 10
2.3944161543
 20
21.7494155118
 11
-0.268700372
 21
23.0809737749
  0
LINE
  5
3DA
100
AcDbEntity
  8
0
100
AcDbLine
 62
253
  6
CONTINUOUS
 10
-2.7887909614
 20
24.7815401694
 11
-2.1880335159
 21
24.4811614467
  0
LINE
  5
3DB
100
AcDbEntity
  8
0
100
AcDbLine
 62
253
  6
CONTINUOUS
 10
2.8419706088
 20
21.9661593843
 11
3.4427280543
 21
21.6657806616
  0
LINE
  5
3DC
100
AcDbEntity
  8
0
100
AcDbLine
 62
7
  6
CONTINUOUS
 10
-2.5043227798
 20
24.7632608204
 11
-1.9989332689
 21
24.5105660649
  0
LINE
  5
3DD
100
AcDbEntity
  8
0
100
AcDbLine
 62
7
  6
CONTINUOUS
 10
3.0861974264
 20
21.9680007173
 11
3.6013600177
 21
21.7104194217
  0
LINE
  5
3DE
100
AcDbEntity
  8
0
100
AcDbLine
 62
7
  6
CONTINUOUS
 10
1.3176927383
 20
23.1747432333
 11
4.3497538347
 21
21.6587126851
  0
LINE
  5
3DF
100
AcDbEntity
  8
0
100
AcDbLine
 62
253
  6
CONTINUOUS
 10
2.9058514191
 20
-23.0839168788
 11
3.6067873729
 21
-22.7222396861
  0
LINE
  5
3E0
100
AcDbEntity
  8
0
100
AcDbLine
 62
7
  6
CONTINUOUS
 10
2.7771522717
 20
-23.3537199006
 11
3.4789770312
 21
-22.9915840914
  0
LINE
  5
3E1
100
AcDbEntity
  8
0
100
AcDbLine
 62
253
  6
CONTINUOUS
 10
2.198744638
 20
-24.7655121953
 11
2.7270118097
 21
-24.4945011366
  0
LINE
  5
3E2
100
AcDbEntity
  8
0
100
AcDbLine
 62
7
  6
CONTINUOUS
 10
2.1346415086
 20
-24.9002889555
 11
2.6633237722
 21
-24.6290649469
  0
LINE
  5
3E3
100
AcDbEntity
  8
0
100
AcDbLine
 62
7
  6
CONTINUOUS
 10
2.1346395349
 20
-24.9002899681
 11
2.1329031231
 21
-24.9011581883
  0
LINE
  5
3E4
100
AcDbEntity
  8
0
100
AcDbLine
 62
253
  6
CONTINUOUS
 10
0.5974638471
 20
-25.5455467949
 11
2.198744638
 21
-24.7655121953
  0
LINE
  5
3E5
100
AcDbEntity
  8
0
100
AcDbLine
 62
7
  6
CONTINUOUS
 10
0.5312022546
 20
-25.6813974211
 11
2.1329003575
 21
-24.9011595355
  0
LINE
  5
3E6
100
AcDbEntity
  8
0
100
AcDbLine
 62
253
  6
CONTINUOUS
 10
-1.7459609703
 20
-25.0363459222
 11
2.9058514191
 21
-23.0837040313
  0
LINE
  5
3E7
100
AcDbEntity
  8
0
100
AcDbLine
 62
7
  6
CONTINUOUS
 10
-1.8997682158
 20
-25.3175416206
 11
2.7635838027
 21
-23.3600558622
  0
LINE
  5
3E8
100
AcDbEntity
  8
0
100
AcDbLine
 62
7
  6
CONTINUOUS
 10
-0.268700372
 20
23.0809737749
 11
1.3176927383
 21
23.1747432333
  0
LINE
  5
3E9
100
AcDbEntity
  8
0
100
AcDbLine
 62
253
  6
CONTINUOUS
 10
-2.280581585
 20
25.6010764325
 11
0.6208346416
 21
24.1503683193
  0
LINE
  5
3EA
100
AcDbEntity
  8
0
100
AcDbLine
 62
253
  6
CONTINUOUS
 10
4.986963677
 20
21.9673038016
 11
7.8883799035
 21
20.5165956883
  0
LINE
  5
3EB
100
AcDbEntity
  8
0
100
AcDbLine
 62
7
  6
CONTINUOUS
 10
-1.9915828542
 20
25.7044865507
 11
1.0600729021
 21
24.1786586725
  0
LINE
  5
3EC
100
AcDbEntity
  8
0
100
AcDbLine
 62
7
  6
CONTINUOUS
 10
5.4339250928
 20
21.9917325772
 11
8.4855808491
 21
20.465904699
  0
ARC
  5
3ED
100
AcDbEntity
  8
RACCORDO
100
AcDbCircle
 62
253
  6
CONTINUOUS
 10
108.057481692
 20
-0.5588032274
 40
112.1406251357
100
AcDbArc
 50
173.4986702928
 51
175.8934343335
  0
ARC
  5
3EE
100
AcDbEntity
  8
0
100
AcDbCircle
 62
253
  6
CONTINUOUS
 10
104.685284649
 20
-0.8552317622
 40
108.2131822672
100
AcDbArc
 50
173.2588053155
 51
175.4161840601
  0
ARC
  5
3EF
100
AcDbEntity
  8
0
100
AcDbCircle
 62
253
  6
CONTINUOUS
 10
105.252655663
 20
-0.9075359182
 40
108.082488539
100
AcDbArc
 50
173.2598513519
 51
174.9548614749
  0
ARC
  5
3F0
100
AcDbEntity
  8
RACCORDO
100
AcDbCircle
 62
253
  6
CONTINUOUS
 10
103.4639136511
 20
-0.3957692364
 40
107.8257254717
100
AcDbArc
 50
173.2566251049
 51
175.7749554887
  0
ARC
  5
3F1
100
AcDbEntity
  8
RACCORDO
100
AcDbCircle
 62
253
  6
CONTINUOUS
 10
103.4820255625
 20
-0.3956056645
 40
107.7036365841
100
AcDbArc
 50
173.2564904467
 51
175.7748723638
  0
ARC
  5
3F2
100
AcDbEntity
  8
RACCORDO
100
AcDbCircle
 62
253
  6
CONTINUOUS
 10
88.4115862961
 20
-12.9388933047
 40
93.3317196693
100
AcDbArc
 50
180.8874078523
 51
181.3687952985
  0
ARC
  5
3F3
100
AcDbEntity
  8
RACCORDO
100
AcDbCircle
 62
253
  6
CONTINUOUS
 10
85.6391230745
 20
-13.0184502494
 40
90.558137959
100
AcDbArc
 50
181.405665617
 51
182.913182252
  0
ARC
  5
3F4
100
AcDbEntity
  8
RACCORDO
100
AcDbCircle
 62
253
  6
CONTINUOUS
 10
73.480077465
 20
-6.9493716337
 40
90.4322208718
100
AcDbArc
 50
180.8990624942
 51
182.9514870628
  0
ARC
  5
3F5
100
AcDbEntity
  8
RACCORDO
100
AcDbCircle
 62
253
  6
CONTINUOUS
 10
74.1329035817
 20
-6.9405463218
 40
90.3811431146
100
AcDbArc
 50
180.9009452306
 51
182.4845933016
  0
ARC
  5
3F6
100
AcDbEntity
  8
RACCORDO
100
AcDbCircle
 62
7
  6
CONTINUOUS
 10
72.4254889302
 20
-6.7483765006
 40
89.8663701754
100
AcDbArc
 50
180.8768741976
 51
183.2910355166
  0
ARC
  5
3F7
100
AcDbEntity
  8
RACCORDO
100
AcDbCircle
 62
7
  6
CONTINUOUS
 10
85.6483857378
 20
-13.3598249048
 40
89.8663701748
100
AcDbArc
 50
180.8768741976
 51
183.2910355146
  0
ARC
  5
3F8
100
AcDbEntity
  8
RACCORDO
100
AcDbCircle
 62
7
  6
CONTINUOUS
 10
85.2457377457
 20
-13.2602175198
 40
89.675777757
100
AcDbArc
 50
180.8746109663
 51
183.4292789894
  0
ARC
  5
3F9
100
AcDbEntity
  8
RACCORDO
100
AcDbCircle
 62
7
  6
CONTINUOUS
 10
72.0228409339
 20
-6.6487691158
 40
89.6757777534
100
AcDbArc
 50
180.8746109663
 51
183.4292789894
  0
ARC
  5
3FA
100
AcDbEntity
  8
RACCORDO
100
AcDbCircle
 62
7
  6
CONTINUOUS
 10
83.1024405326
 20
-13.4963838215
 40
87.3167847169
100
AcDbArc
 50
183.29748151
 51
183.436514169
  0
ARC
  5
3FB
100
AcDbEntity
  8
RACCORDO
100
AcDbCircle
 62
7
  6
CONTINUOUS
 10
69.8795437007
 20
-6.8849354189
 40
87.3167846932
100
AcDbArc
 50
183.2974815121
 51
183.4365141689
  0
ARC
  5
3FC
100
AcDbEntity
  8
RACCORDO
100
AcDbCircle
 62
7
  6
CONTINUOUS
 10
-5.2769403328
 20
-14.7365434933
 40
0.4274312769
100
AcDbArc
 50
58.3187585974
 51
63.3648806976
  0
ARC
  5
3FD
100
AcDbEntity
  8
0
100
AcDbCircle
 62
253
  6
CONTINUOUS
 10
-17.2551600966
 20
-17.5298782711
 40
0.3692272598
100
AcDbArc
 50
239.9543987233
 51
243.4333453919
  0
ARC
  5
3FE
100
AcDbEntity
  8
Z030100_COP
100
AcDbCircle
 62
7
  6
CONTINUOUS
 10
11.3911327934
 20
-11.357726918
 40
0.3
100
AcDbArc
 50
243.7505903396
 51
296.2494096604
  0
ARC
  5
3FF
100
AcDbEntity
  8
Z030100_COP
100
AcDbCircle
 62
7
  6
CONTINUOUS
 10
16.1994723328
 20
-8.953568902
 40
0.2999860663
100
AcDbArc
 50
296.5536933647
 51
0.0002301074
  0
ARC
  5
400
100
AcDbEntity
  8
Z030100_COP
100
AcDbCircle
 62
7
  6
CONTINUOUS
 10
10.8254607958
 20
-11.6405746705
 40
0.2999860663
100
AcDbArc
 50
296.5536933647
 51
0.0002301074
  0
ARC
  5
401
100
AcDbEntity
  8
0
100
AcDbCircle
 62
253
  6
CONTINUOUS
 10
2.4643394766
 20
-24.0329696771
 40
0.2830811092
100
AcDbArc
 50
7.4211822063
 51
12.0402744179
  0
ARC
  5
402
100
AcDbEntity
  8
0
100
AcDbCircle
 62
7
  6
CONTINUOUS
 10
2.5483515748
 20
-24.0602970293
 40
0.2514565689
100
AcDbArc
 50
51.9097890452
 51
63.4108362127
  0
ARC
  5
403
100
AcDbEntity
  8
0
100
AcDbCircle
 62
7
  6
CONTINUOUS
 10
2.5489778941
 20
-24.4067113529
 40
0.2501988556
100
AcDbArc
 50
344.5341514771
 51
359.9881924891
  0
ARC
  5
404
100
AcDbEntity
  8
0
100
AcDbCircle
 62
7
  6
CONTINUOUS
 10
0.4217273713
 20
-25.4566864331
 40
0.2499595531
100
AcDbArc
 50
243.3880234853
 51
295.9744556518
  0
ARC
  5
405
100
AcDbEntity
  8
0
100
AcDbCircle
 62
7
  6
CONTINUOUS
 10
2.5493172349
 20
-24.4066695616
 40
0.2498829809
100
AcDbArc
 50
297.0965504174
 51
344.5041676115
  0
ARC
  5
406
100
AcDbEntity
  8
0
100
AcDbCircle
 62
7
  6
CONTINUOUS
 10
2.6902685904
 20
-23.1853536946
 40
0.189462091
100
AcDbArc
 50
292.7717188963
 51
297.2921248775
  0
ARC
  5
407
100
AcDbEntity
  8
RACCORDO
100
AcDbCircle
 62
7
  6
CONTINUOUS
 10
-4.2403702254
 20
-18.630867
 40
0.1648834275
100
AcDbArc
 50
296.6183189396
 51
301.4575227762
  0
ARC
  5
408
100
AcDbEntity
  8
0
100
AcDbCircle
 62
253
  6
CONTINUOUS
 10
2.565774812
 20
-23.971371738
 40
0.1608900976
100
AcDbArc
 50
60.1189448307
 51
63.4863134447
  0
ARC
  5
409
100
AcDbEntity
  8
Z030100_COP
100
AcDbCircle
 62
253
  6
CONTINUOUS
 10
16.2832081997
 20
-9.1210139613
 40
0.1127702803
100
AcDbArc
 50
296.5528483501
 51
297.9381745882
  0
ARC
  5
40A
100
AcDbEntity
  8
Z030100_COP
100
AcDbCircle
 62
253
  6
CONTINUOUS
 10
10.9091966626
 20
-11.8080197298
 40
0.1127702803
100
AcDbArc
 50
296.5528483502
 51
297.9381745881
  0
ARC
  5
40B
100
AcDbEntity
  8
RACCORDO
100
AcDbCircle
 62
253
  6
CONTINUOUS
 10
-1.966880549
 20
11.974091531
 40
1.4048565774
100
AcDbArc
 50
167.4706886307
 51
170.9298897467
  0
ARC
  5
40C
100
AcDbEntity
  8
RACCORDO
100
AcDbCircle
 62
253
  6
CONTINUOUS
 10
-2.0625537989
 20
11.9895326266
 40
1.3079454396
100
AcDbArc
 50
170.9371532446
 51
173.4618401443
  0
ARC
  5
40D
100
AcDbEntity
  8
RACCORDO
100
AcDbCircle
 62
253
  6
CONTINUOUS
 10
-2.3412851551
 20
12.1169991281
 40
1.1431450127
100
AcDbArc
 50
170.2020722698
 51
173.2438467961
  0
ARC
  5
40E
100
AcDbEntity
  8
RACCORDO
100
AcDbCircle
 62
7
  6
CONTINUOUS
 10
-16.61794631
 20
8.9642604599
 40
0.8047959448
100
AcDbArc
 50
174.6085853167
 51
178.8906512384
  0
ARC
  5
40F
100
AcDbEntity
  8
RACCORDO
100
AcDbCircle
 62
253
  6
CONTINUOUS
 10
-4.5478684709
 20
7.4603271795
 40
0.7499243282
100
AcDbArc
 50
351.7713881537
 51
355.9795496008
  0
ARC
  5
410
100
AcDbEntity
  8
RACCORDO
100
AcDbCircle
 62
253
  6
CONTINUOUS
 10
-4.2458407444
 20
7.5937041091
 40
0.2940815792
100
AcDbArc
 50
243.4266522569
 51
245.6004315907
  0
ARC
  5
411
100
AcDbEntity
  8
RACCORDO
100
AcDbCircle
 62
253
  6
CONTINUOUS
 10
-4.2540607771
 20
7.5752241171
 40
0.2738564595
100
AcDbArc
 50
245.5694328281
 51
250.3865351722
  0
ARC
  5
412
100
AcDbEntity
  8
RACCORDO
100
AcDbCircle
 62
253
  6
CONTINUOUS
 10
-4.0814110857
 20
7.0467150932
 40
0.2380349535
100
AcDbArc
 50
128.2114084812
 51
132.8941535411
  0
ARC
  5
413
100
AcDbEntity
  8
RACCORDO
100
AcDbCircle
 62
253
  6
CONTINUOUS
 10
-4.2698986693
 20
7.4768415952
 40
0.1728871245
100
AcDbArc
 50
282.2593059171
 51
295.8655707956
  0
ARC
  5
414
100
AcDbEntity
  8
RACCORDO
100
AcDbCircle
 62
253
  6
CONTINUOUS
 10
-15.1968725077
 20
18.6404975918
 40
1.6571829568
100
AcDbArc
 50
153.8250281888
 51
156.6537960561
  0
ARC
  5
415
100
AcDbEntity
  8
RACCORDO
100
AcDbCircle
 62
253
  6
CONTINUOUS
 10
-15.2578138802
 20
18.6424983486
 40
1.6018049476
100
AcDbArc
 50
148.2037572803
 51
152.9276595602
  0
ARC
  5
416
100
AcDbEntity
  8
RACCORDO
100
AcDbCircle
 62
253
  6
CONTINUOUS
 10
-15.4262369141
 20
18.7080353946
 40
1.417676814
100
AcDbArc
 50
167.4175202958
 51
169.9311582979
  0
ARC
  5
417
100
AcDbEntity
  8
RACCORDO
100
AcDbCircle
 62
253
  6
CONTINUOUS
 10
-15.5223893175
 20
18.7245431551
 40
1.3201193554
100
AcDbArc
 50
169.9069861659
 51
173.479671939
  0
ARC
  5
418
100
AcDbEntity
  8
RACCORDO
100
AcDbCircle
 62
253
  6
CONTINUOUS
 10
-2.2526921399
 20
12.4230948948
 40
0.9095543241
100
AcDbArc
 50
120.1147451686
 51
124.7504414596
  0
ARC
  5
419
100
AcDbEntity
  8
RACCORDO
100
AcDbCircle
 62
253
  6
CONTINUOUS
 10
-15.7356445177
 20
19.1525957706
 40
0.8960380487
100
AcDbArc
 50
118.7155766627
 51
120.2077945428
  0
ARC
  5
41A
100
AcDbEntity
  8
0
100
AcDbCircle
 62
253
  6
CONTINUOUS
 10
-4.1685601169
 20
19.8161588866
 40
0.3146669839
100
AcDbArc
 50
155.4397174882
 51
164.8178757269
  0
ARC
  5
41B
100
AcDbEntity
  8
0
100
AcDbCircle
 62
7
  6
CONTINUOUS
 10
2.5470374708
 20
17.2423420573
 40
0.2528164671
100
AcDbArc
 50
320.5966796397
 51
322.3864165157
  0
ARC
  5
41C
100
AcDbEntity
  8
0
100
AcDbCircle
 62
7
  6
CONTINUOUS
 10
0.8578298032
 20
18.4324812354
 40
0.2511076924
100
AcDbArc
 50
63.393837127
 51
65.5614104976
  0
ARC
  5
41D
100
AcDbEntity
  8
0
100
AcDbCircle
 62
7
  6
CONTINUOUS
 10
-11.444834698
 20
24.5843072742
 40
0.2511070237
100
AcDbArc
 50
114.0214681682
 51
116.0150406507
  0
ARC
  5
41E
100
AcDbEntity
  8
0
100
AcDbCircle
 62
7
  6
CONTINUOUS
 10
0.422065525
 20
16.1839291507
 40
0.2510467064
100
AcDbArc
 50
243.4638390089
 51
258.1750254128
  0
ARC
  5
41F
100
AcDbEntity
  8
0
100
AcDbCircle
 62
7
  6
CONTINUOUS
 10
-11.4451212832
 20
24.5846349095
 40
0.250691134
100
AcDbArc
 50
99.4431458383
 51
113.9921241267
  0
ARC
  5
420
100
AcDbEntity
  8
0
100
AcDbCircle
 62
7
  6
CONTINUOUS
 10
0.8581199293
 20
18.4328121809
 40
0.2506863999
100
AcDbArc
 50
65.5904860464
 51
80.0867799203
  0
ARC
  5
421
100
AcDbEntity
  8
0
100
AcDbCircle
 62
7
  6
CONTINUOUS
 10
-11.4453436859
 20
24.585135603
 40
0.2501607737
100
AcDbArc
 50
63.4493112243
 51
99.4117127847
  0
ARC
  5
422
100
AcDbEntity
  8
0
100
AcDbCircle
 62
7
  6
CONTINUOUS
 10
0.8583442415
 20
18.4333077594
 40
0.2501596406
100
AcDbArc
 50
80.1178478781
 51
115.9579685268
  0
ARC
  5
423
100
AcDbEntity
  8
0
100
AcDbCircle
 62
7
  6
CONTINUOUS
 10
-9.7544794739
 20
23.3923579341
 40
0.2500529403
100
AcDbArc
 50
320.5991320924
 51
328.8462284069
  0
ARC
  5
424
100
AcDbEntity
  8
0
100
AcDbCircle
 62
7
  6
CONTINUOUS
 10
2.5491887157
 20
17.5880291735
 40
0.2500178625
100
AcDbArc
 50
0.0078515286
 51
63.4316275385
  0
ARC
  5
425
100
AcDbEntity
  8
0
100
AcDbCircle
 62
7
  6
CONTINUOUS
 10
-1.2568008472
 20
17.3621679074
 40
0.2500151037
100
AcDbArc
 50
117.1617076756
 51
179.9944821188
  0
ARC
  5
426
100
AcDbEntity
  8
0
100
AcDbCircle
 62
7
  6
CONTINUOUS
 10
-11.8819227513
 20
22.3347428958
 40
0.249977951
100
AcDbArc
 50
243.4290122564
 51
258.2010452672
  0
ARC
  5
427
100
AcDbEntity
  8
0
100
AcDbCircle
 62
7
  6
CONTINUOUS
 10
-1.2569000648
 20
17.0221154972
 40
0.2498866409
100
AcDbArc
 50
187.206109458
 51
243.4713279222
  0
ARC
  5
428
100
AcDbEntity
  8
0
100
AcDbCircle
 62
7
  6
CONTINUOUS
 10
-13.5605580575
 20
23.1739444935
 40
0.2498866409
100
AcDbArc
 50
187.206109458
 51
243.4713279222
  0
ARC
  5
429
100
AcDbEntity
  8
0
100
AcDbCircle
 62
7
  6
CONTINUOUS
 10
-9.7542648773
 20
23.7399827128
 40
0.2497830963
100
AcDbArc
 50
0.0058275177
 51
63.5080917514
  0
ARC
  5
42A
100
AcDbEntity
  8
0
100
AcDbCircle
 62
7
  6
CONTINUOUS
 10
-13.5606622114
 20
23.5141189362
 40
0.2497823472
100
AcDbArc
 50
117.0884793292
 51
179.9954607481
  0
ARC
  5
42B
100
AcDbEntity
  8
0
100
AcDbCircle
 62
7
  6
CONTINUOUS
 10
-1.2572777362
 20
17.0221964446
 40
0.2495447277
100
AcDbArc
 50
179.9925713995
 51
187.186461319
  0
ARC
  5
42C
100
AcDbEntity
  8
0
100
AcDbCircle
 62
7
  6
CONTINUOUS
 10
-13.5609357288
 20
23.1740254409
 40
0.2495447277
100
AcDbArc
 50
179.9925713995
 51
187.186461319
  0
ARC
  5
42D
100
AcDbEntity
  8
0
100
AcDbCircle
 62
7
  6
CONTINUOUS
 10
2.5497907417
 20
17.2403090835
 40
0.2493946962
100
AcDbArc
 50
322.3703342886
 51
0.0725358283
  0
ARC
  5
42E
100
AcDbEntity
  8
0
100
AcDbCircle
 62
253
  6
CONTINUOUS
 10
-13.4662913948
 20
23.5423682944
 40
0.2104014127
100
AcDbArc
 50
116.9066028642
 51
119.4958829237
  0
ARC
  5
42F
100
AcDbEntity
  8
0
100
AcDbCircle
 62
253
  6
CONTINUOUS
 10
-1.1626387054
 20
17.3905493103
 40
0.2103900845
100
AcDbArc
 50
116.9065488737
 51
119.4916305374
  0
ARC
  5
430
100
AcDbEntity
  8
0
100
AcDbCircle
 62
7
  6
CONTINUOUS
 10
-4.3401100275
 20
19.9027903187
 40
0.2000264278
100
AcDbArc
 50
117.3009020161
 51
179.9954553107
  0
ARC
  5
431
100
AcDbEntity
  8
0
100
AcDbCircle
 62
253
  6
CONTINUOUS
 10
-4.2645309035
 20
19.9250137701
 40
0.168868535
100
AcDbArc
 50
116.9100126538
 51
119.7528174078
  0
ARC
  5
432
100
AcDbEntity
  8
0
100
AcDbCircle
 62
253
  6
CONTINUOUS
 10
-11.3756695456
 20
24.7245802064
 40
0.0942783586
100
AcDbArc
 50
63.4468793612
 51
70.027007792
  0
ARC
  5
433
100
AcDbEntity
  8
0
100
AcDbCircle
 62
253
  6
CONTINUOUS
 10
-13.6302042607
 20
23.0345558098
 40
0.0940674361
100
AcDbArc
 50
238.1057996918
 51
243.4300963099
  0
ARC
  5
434
100
AcDbEntity
  8
0
100
AcDbCircle
 62
253
  6
CONTINUOUS
 10
-1.326546268
 20
16.8827268135
 40
0.0940674362
100
AcDbArc
 50
238.1057996921
 51
243.4300963096
  0
ARC
  5
435
100
AcDbEntity
  8
0
100
AcDbCircle
 62
253
  6
CONTINUOUS
 10
0.7900214972
 20
18.5736618695
 40
0.0940592748
100
AcDbArc
 50
109.4786603837
 51
115.9607725689
  0
ARC
  5
436
100
AcDbEntity
  8
0
100
AcDbCircle
 62
253
  6
CONTINUOUS
 10
-9.5674175943
 20
23.3923517427
 40
0.0629690123
100
AcDbArc
 50
352.5179519723
 51
359.9858103333
  0
ARC
  5
437
100
AcDbEntity
  8
0
100
AcDbCircle
 62
253
  6
CONTINUOUS
 10
-13.7476521574
 20
23.1740388622
 40
0.0628250654
100
AcDbArc
 50
180.0077273449
 51
185.9637001144
  0
ARC
  5
438
100
AcDbEntity
  8
0
100
AcDbCircle
 62
253
  6
CONTINUOUS
 10
-1.4439941647
 20
17.0222098658
 40
0.0628250654
100
AcDbArc
 50
180.0077273449
 51
185.9637001145
  0
ARC
  5
439
100
AcDbEntity
  8
RACCORDO
100
AcDbCircle
 62
253
  6
CONTINUOUS
 10
93.4567456542
 20
6.282251871
 40
111.0072310388
100
AcDbArc
 50
173.4865851471
 51
175.9193965135
  0
ARC
  5
43A
100
AcDbEntity
  8
RACCORDO
100
AcDbCircle
 62
253
  6
CONTINUOUS
 10
88.9341388839
 20
6.4419959497
 40
106.763297112
100
AcDbArc
 50
173.2442085275
 51
175.7906951183
  0
ARC
  5
43B
100
AcDbEntity
  8
0
100
AcDbCircle
 62
253
  6
CONTINUOUS
 10
98.5581897374
 20
-0.331363143
 40
101.3632909423
100
AcDbArc
 50
174.9465102295
 51
179.0493917099
  0
ARC
  5
43C
100
AcDbEntity
  8
0
100
AcDbCircle
 62
253
  6
CONTINUOUS
 10
97.597461854
 20
-0.2917689124
 40
101.1029512974
100
AcDbArc
 50
175.5211898356
 51
179.0629705344
  0
ARC
  5
43D
100
AcDbEntity
  8
RACCORDO
100
AcDbCircle
 62
7
  6
CONTINUOUS
 10
93.5734546174
 20
0.3164124594
 40
98.0046651081
100
AcDbArc
 50
178.8623174405
 51
179.1177577389
  0
ARC
  5
43E
100
AcDbEntity
  8
RACCORDO
100
AcDbCircle
 62
7
  6
CONTINUOUS
 10
80.3505578092
 20
6.9278608635
 40
98.0046651081
100
AcDbArc
 50
178.8623174405
 51
179.1177577389
  0
ARC
  5
43F
100
AcDbEntity
  8
RACCORDO
100
AcDbCircle
 62
7
  6
CONTINUOUS
 10
93.6775073854
 20
0.2121445808
 40
97.8965709677
100
AcDbArc
 50
178.947416499
 51
179.1178360379
  0
ARC
  5
440
100
AcDbEntity
  8
RACCORDO
100
AcDbCircle
 62
7
  6
CONTINUOUS
 10
80.4546103155
 20
6.8235929892
 40
97.8965707059
100
AcDbArc
 50
178.9474167058
 51
179.1178360381
  0
ARC
  5
441
100
AcDbEntity
  8
RACCORDO
100
AcDbCircle
 62
7
  6
CONTINUOUS
 10
80.2955715545
 20
7.0328499864
 40
97.7375574165
100
AcDbArc
 50
178.9017746161
 51
179.0313298588
  0
ARC
  5
442
100
AcDbEntity
  8
0
100
AcDbCircle
 62
7
  6
CONTINUOUS
 10
524.1683183832
 20
-6.5083174937
 40
528.4398340699
100
AcDbArc
 50
179.1078822106
 51
180.8685090045
  0
ARC
  5
443
100
AcDbEntity
  8
0
100
AcDbCircle
 62
7
  6
CONTINUOUS
 10
523.7643414274
 20
-6.4018095148
 40
528.248005528
100
AcDbArc
 50
179.1076061624
 51
180.8923938376
  0
ARC
  5
444
100
AcDbEntity
  8
RACCORDO
100
AcDbCircle
 62
253
  6
CONTINUOUS
 10
522.8046599674
 20
-6.2121312976
 40
527.7768736075
100
AcDbArc
 50
179.9778719905
 51
180.8872191995
  0
ARC
  5
445
100
AcDbEntity
  8
0
100
AcDbCircle
 62
253
  6
CONTINUOUS
 10
519.6464831579
 20
-6.8656210768
 40
523.2031420078
100
AcDbArc
 50
179.0990007583
 51
180.9009992417
  0
ARC
  5
446
100
AcDbEntity
  8
0
100
AcDbCircle
 62
253
  6
CONTINUOUS
 10
519.815161452
 20
-6.8687112427
 40
522.6709379715
100
AcDbArc
 50
179.098985241
 51
180.901014759
  0
ARC
  5
447
100
AcDbEntity
  8
0
100
AcDbCircle
 62
253
  6
CONTINUOUS
 10
519.1632881913
 20
0.5673844342
 40
537.5842273238
100
AcDbArc
 50
179.1231055813
 51
180.8768944187
  0
ARC
  5
448
100
AcDbEntity
  8
0
100
AcDbCircle
 62
7
  6
CONTINUOUS
 10
510.945421575
 20
0.1031309103
 40
528.4398340699
100
AcDbArc
 50
179.1078822106
 51
180.8685090045
  0
ARC
  5
449
100
AcDbEntity
  8
0
100
AcDbCircle
 62
7
  6
CONTINUOUS
 10
510.5414446192
 20
0.2096388893
 40
528.248005528
100
AcDbArc
 50
179.1076061624
 51
180.8923938376
  0
ARC
  5
44A
100
AcDbEntity
  8
RACCORDO
100
AcDbCircle
 62
253
  6
CONTINUOUS
 10
503.8376020144
 20
-0.1792748619
 40
520.8429933891
100
AcDbArc
 50
179.9793666253
 51
180.9008822099
  0
ARC
  5
44B
100
AcDbEntity
  8
RACCORDO
100
AcDbCircle
 62
253
  6
CONTINUOUS
 10
504.0114467192
 20
-0.1808527973
 40
520.3128299051
100
AcDbArc
 50
179.9793683441
 51
180.9008932732
  0
SPLINE
  5
44C
100
AcDbEntity
  8
Z030100_COP
100
AcDbSpline
 62
7
  6
CONTINUOUS
 70
0
 71
3
 72
11
 73
7
 74
5
 42
0.0000001
 43
0.0000001
 44
0.0000000001
 12
0.038695698
 22
-0.2358199729
 32
0.0
 13
0.2137594462
 23
-0.1068424812
 33
0.0
 40
0.0
 40
0.0
 40
0.0
 40
0.0
 40
0.2801242091
 40
0.5366803982
 40
0.7737759222
 40
1.0
 40
1.0
 40
1.0
 40
1.0
 10
12.2986386088
 20
-6.3454350511
 30
0.0
 10
12.3022518094
 20
-6.3674546789
 30
0.0
 10
12.3126025222
 20
-6.4092165155
 30
0.0
 10
12.3392396456
 20
-6.4653418635
 30
0.0
 10
12.3758418117
 20
-6.5102883202
 30
0.0
 10
12.4065936075
 20
-6.5317484171
 30
0.0
 10
12.4227127854
 20
-6.5398051977
 30
0.0
 11
12.2986386088
 21
-6.3454350511
 31
0.0
 11
12.3152704828
 21
-6.4102783531
 31
0.0
 11
12.3420989723
 21
-6.4654070181
 31
0.0
 11
12.3782785303
 21
-6.5090114735
 31
0.0
 11
12.4227127854
 21
-6.5398051977
 31
0.0
  0
SPLINE
  5
44D
100
AcDbEntity
  8
Z030100_COP
100
AcDbSpline
 62
7
  6
CONTINUOUS
 70
0
 71
3
 72
11
 73
7
 74
5
 42
0.0000001
 43
0.0000001
 44
0.0000000001
 12
0.038695698
 22
-0.2358199729
 32
0.0
 13
0.2137594462
 23
-0.1068424812
 33
0.0
 40
0.0
 40
0.0
 40
0.0
 40
0.0
 40
0.2801242091
 40
0.5366803982
 40
0.7737759222
 40
1.0
 40
1.0
 40
1.0
 40
1.0
 10
15.0209997163
 20
-4.9842544973
 30
0.0
 10
15.0246129169
 20
-5.0062741251
 30
0.0
 10
15.0349636298
 20
-5.0480359617
 30
0.0
 10
15.0616007532
 20
-5.1041613097
 30
0.0
 10
15.0982029193
 20
-5.1491077665
 30
0.0
 10
15.1289547151
 20
-5.1705678634
 30
0.0
 10
15.145073893
 20
-5.178624644
 30
0.0
 11
15.0209997163
 21
-4.9842544973
 31
0.0
 11
15.0376315903
 21
-5.0490977993
 31
0.0
 11
15.0644600798
 21
-5.1042264643
 31
0.0
 11
15.1006396379
 21
-5.1478309197
 31
0.0
 11
15.145073893
 21
-5.178624644
 31
0.0
  0
SPLINE
  5
44E
100
AcDbEntity
  8
Z030100_COP
100
AcDbSpline
 62
7
  6
CONTINUOUS
 70
0
 71
3
 72
9
 73
5
 74
3
 42
0.0000001
 43
0.0000001
 44
0.0000000001
 12
0.0000036503
 22
0.054586999
 32
0.0
 13
-0.0319194126
 23
0.0442819553
 33
0.0
 40
0.0
 40
0.0
 40
0.0
 40
0.0
 40
0.4800568851
 40
1.0
 40
1.0
 40
1.0
 40
1.0
 10
16.4994594339
 20
-2.9779945085
 30
0.0
 10
16.499460018
 20
-2.9692595536
 30
0.0
 10
16.4961532619
 20
-2.9509503941
 30
0.0
 10
16.4872003117
 20
-2.9347847032
 30
0.0
 10
16.4816682187
 20
-2.927110004
 30
0.0
 11
16.4994594339
 21
-2.9779945085
 31
0.0
 11
16.4949839645
 21
-2.9521746497
 31
0.0
 11
16.4816682187
 21
-2.927110004
 31
0.0
  0
SPLINE
  5
44F
100
AcDbEntity
  8
Z030100_COP
100
AcDbSpline
 62
7
  6
CONTINUOUS
 70
0
 71
3
 72
16
 73
12
 74
10
 42
0.0000001
 43
0.0000001
 44
0.0000000001
 12
0.791436686
 22
-0.3955804561
 32
0.0
 13
0.1234991938
 23
0.8761300556
 33
0.0
 40
0.0
 40
0.0
 40
0.0
 40
0.0
 40
0.0449321576
 40
0.0910788362
 40
0.1905617689
 40
0.3038295282
 40
0.4312548577
 40
0.5699115928
 40
0.7148672645
 40
0.8602129431
 40
1.0
 40
1.0
 40
1.0
 40
1.0
 10
15.145073893
 20
-5.178624644
 30
0.0
 10
15.1569275456
 20
-5.1845494051
 30
0.0
 10
15.1823275315
 20
-5.1939964739
 30
0.0
 10
15.2382510813
 20
-5.2023796407
 30
0.0
 10
15.3154668503
 20
-5.1910213755
 30
0.0
 10
15.4069724588
 20
-5.1474228156
 30
0.0
 10
15.4952472182
 20
-5.0774221637
 30
0.0
 10
15.5751044487
 20
-4.9854251748
 30
0.0
 10
15.641701931
 20
-4.8772274875
 30
0.0
 10
15.6908158981
 20
-4.7597491578
 30
0.0
 10
15.7104626292
 20
-4.6774696567
 30
0.0
 10
15.7162171588
 20
-4.6366457761
 30
0.0
 11
15.145073893
 21
-5.178624644
 31
0.0
 11
15.1823121843
 21
-5.1925464446
 31
0.0
 11
15.2226685854
 21
-5.1987484666
 31
0.0
 11
15.3099947066
 21
-5.1877049502
 31
0.0
 11
15.4012295385
 21
-5.1462330039
 31
0.0
 11
15.4902892647
 21
-5.0770971607
 31
0.0
 11
15.5712350292
 21
-4.984908611
 31
0.0
 11
15.6386695109
 21
-4.8758119829
 31
0.0
 11
15.6880950558
 21
-4.7570886335
 31
0.0
 11
15.7162171588
 21
-4.6366457761
 31
0.0
  0
SPLINE
  5
450
100
AcDbEntity
  8
Z030100_COP
100
AcDbSpline
 62
253
  6
CONTINUOUS
 70
0
 71
3
 72
11
 73
7
 74
5
 42
0.0000001
 43
0.0000001
 44
0.0000000001
 12
0.3899458319
 22
-0.1949729159
 32
0.0
 13
0.3899458319
 23
0.1949729159
 33
0.0
 40
0.0
 40
0.0
 40
0.0
 40
0.0
 40
0.2353891693
 40
0.5
 40
0.7646108307
 40
1.0
 40
1.0
 40
1.0
 40
1.0
 10
11.179000759
 20
-11.4637929351
 30
0.0
 10
11.2095971008
 20
-11.479091106
 30
0.0
 10
11.2799086696
 20
-11.5009109722
 30
0.0
 10
11.3911327934
 20
-11.5113340641
 30
0.0
 10
11.5023569171
 20
-11.5009109722
 30
0.0
 10
11.5726684859
 20
-11.479091106
 30
0.0
 10
11.6032648277
 20
-11.4637929351
 30
0.0
 11
11.179000759
 21
-11.4637929351
 31
0.0
 11
11.2763359857
 21
-11.4963103942
 31
0.0
 11
11.3911327934
 21
-11.507726918
 31
0.0
 11
11.5059296011
 21
-11.4963103942
 31
0.0
 11
11.6032648277
 21
-11.4637929351
 31
0.0
  0
SPLINE
  5
451
100
AcDbEntity
  8
Z030100_COP
100
AcDbSpline
 62
253
  6
CONTINUOUS
 70
0
 71
3
 72
11
 73
7
 74
5
 42
0.0000001
 43
0.0000001
 44
0.0000000001
 12
0.1291394194
 22
0.0645697097
 32
0.0
 13
0.0000109324
 23
0.1443822598
 33
0.0
 40
0.0
 40
0.0
 40
0.0
 40
0.0
 40
0.3024647877
 40
0.5655222949
 40
0.7934185356
 40
1.0
 40
1.0
 40
1.0
 40
1.0
 10
16.4115909398
 20
-9.0596298791
 30
0.0
 10
16.4246109822
 20
-9.0531198579
 30
0.0
 10
16.4481489498
 20
-9.039145652
 30
0.0
 10
16.4767316013
 20
-9.0133324193
 30
0.0
 10
16.4950611003
 20
-8.9845789791
 30
0.0
 10
16.4994581493
 20
-8.9635099377
 30
0.0
 10
16.4994589021
 20
-8.9535677049
 30
0.0
 11
16.4115909398
 21
-9.0596298791
 31
0.0
 11
16.4488837212
 21
-9.036906205
 31
0.0
 11
16.4766244263
 21
-9.0109640136
 31
0.0
 11
16.4936897949
 21
-8.9828311524
 31
0.0
 11
16.4994589021
 21
-8.9535677049
 31
0.0
  0
SPLINE
  5
452
100
AcDbEntity
  8
Z030100_COP
100
AcDbSpline
 62
253
  6
CONTINUOUS
 70
0
 71
3
 72
11
 73
7
 74
5
 42
0.0000001
 43
0.0000001
 44
0.0000000001
 12
-0.1689813101
 22
0.0844563722
 32
0.0
 13
0.0
 23
0.1889115189
 33
0.0
 40
0.0
 40
0.0
 40
0.0
 40
0.0
 40
0.2171691612
 40
0.4503999141
 40
0.7103147765
 40
1.0
 40
1.0
 40
1.0
 40
1.0
 10
11.256968406
 20
-11.6260502174
 30
0.0
 10
11.2447358962
 20
-11.6199364443
 30
0.0
 10
11.2215959908
 20
-11.6023246174
 30
0.0
 10
11.1967884091
 20
-11.5642883953
 30
0.0
 10
11.1819493708
 20
-11.5167735386
 30
0.0
 10
11.179000759
 20
-11.4820345603
 30
0.0
 10
11.179000759
 20
-11.4637929351
 30
0.0
 11
11.256968406
 21
-11.6260502174
 31
0.0
 11
11.224143861
 21
-11.6014400182
 31
0.0
 11
11.1994818287
 21
-11.5649288468
 31
0.0
 11
11.1841842154
 21
-11.5182717731
 31
0.0
 11
11.179000759
 21
-11.4637929351
 31
0.0
  0
SPLINE
  5
453
100
AcDbEntity
  8
Z030100_COP
100
AcDbSpline
 62
7
  6
CONTINUOUS
 70
0
 71
3
 72
11
 73
7
 74
5
 42
0.0000001
 43
0.0000001
 44
0.0000000001
 12
0.129137549
 22
0.0645687745
 32
0.0
 13
0.0000096549
 23
0.1443801687
 33
0.0
 40
0.0
 40
0.0
 40
0.0
 40
0.0
 40
0.3024870021
 40
0.5655084124
 40
0.7934350801
 40
1.0
 40
1.0
 40
1.0
 40
1.0
 10
16.4115909398
 20
-3.084054593
 30
0.0
 10
16.4246117498
 20
-3.077544188
 30
0.0
 10
16.4481504122
 20
-3.0635731031
 30
0.0
 10
16.4767315653
 20
-3.0377571209
 30
0.0
 10
16.4950578021
 20
-3.0090043855
 30
0.0
 10
16.4994587691
 20
-2.9879358011
 30
0.0
 10
16.4994594339
 20
-2.9779945085
 30
0.0
 11
16.4115909398
 21
-3.084054593
 31
0.0
 11
16.4488867531
 21
-3.0613309464
 31
0.0
 11
16.4766220932
 21
-3.0353914537
 31
0.0
 11
16.4936886936
 21
-3.007254759
 31
0.0
 11
16.4994594339
 21
-2.9779945085
 31
0.0
  0
SPLINE
  5
454
100
AcDbEntity
  8
Z030100_COP
100
AcDbSpline
 62
253
  6
CONTINUOUS
 70
0
 71
3
 72
11
 73
7
 74
5
 42
0.0000001
 43
0.0000001
 44
0.0000000001
 12
0.1689813101
 22
0.0844563722
 32
0.0
 13
-0.0
 23
0.1889115189
 33
0.0
 40
0.0
 40
0.0
 40
0.0
 40
0.0
 40
0.2171691612
 40
0.4503999141
 40
0.7103147765
 40
1.0
 40
1.0
 40
1.0
 40
1.0
 10
11.5252971808
 20
-11.6260502174
 30
0.0
 10
11.5375296906
 20
-11.6199364443
 30
0.0
 10
11.560669596
 20
-11.6023246174
 30
0.0
 10
11.5854771777
 20
-11.5642883953
 30
0.0
 10
11.600316216
 20
-11.5167735386
 30
0.0
 10
11.6032648277
 20
-11.4820345603
 30
0.0
 10
11.6032648277
 20
-11.4637929351
 30
0.0
 11
11.5252971808
 21
-11.6260502174
 31
0.0
 11
11.5581217258
 21
-11.6014400182
 31
0.0
 11
11.582783758
 21
-11.5649288468
 31
0.0
 11
11.5980813714
 21
-11.5182717731
 31
0.0
 11
11.6032648277
 21
-11.4637929351
 31
0.0
  0
SPLINE
  5
455
100
AcDbEntity
  8
Z030100_COP
100
AcDbSpline
 62
253
  6
CONTINUOUS
 70
0
 71
3
 72
11
 73
7
 74
5
 42
0.0000001
 43
0.0000001
 44
0.0000000001
 12
0.1645202963
 22
0.0872495813
 32
0.0
 13
0.0
 23
0.1862241051
 33
0.0
 40
0.0
 40
0.0
 40
0.0
 40
0.0
 40
0.217163895
 40
0.4507603489
 40
0.710782651
 40
1.0
 40
1.0
 40
1.0
 40
1.0
 10
16.3360431666
 20
-9.2206412788
 30
0.0
 10
16.3479524561
 20
-9.2143254592
 30
0.0
 10
16.3703832474
 20
-9.1964881321
 30
0.0
 10
16.3943728707
 20
-9.1587017934
 30
0.0
 10
16.4087297917
 20
-9.1117998679
 30
0.0
 10
16.4115909398
 20
-9.0775829598
 30
0.0
 10
16.4115909398
 20
-9.0596298791
 30
0.0
 11
16.3360431666
 21
-9.2206412788
 31
0.0
 11
16.3678903874
 21
-9.1957165661
 31
0.0
 11
16.3917773151
 21
-9.1593603154
 31
0.0
 11
16.4065780164
 21
-9.1132553259
 31
0.0
 11
16.4115909398
 21
-9.0596298791
 31
0.0
  0
SPLINE
  5
456
100
AcDbEntity
  8
Z030100_COP
100
AcDbSpline
 62
7
  6
CONTINUOUS
 70
0
 71
3
 72
11
 73
7
 74
5
 42
0.0000001
 43
0.0000001
 44
0.0000000001
 12
0.3153258211
 22
-0.0568234688
 32
0.0
 13
0.2865788269
 23
0.1432894134
 33
0.0
 40
0.0
 40
0.0
 40
0.0
 40
0.0
 40
0.2599173675
 40
0.5232369527
 40
0.7745322535
 40
1.0
 40
1.0
 40
1.0
 40
1.0
 10
11.2893757617
 20
-5.5232563141
 30
0.0
 10
11.3166953141
 20
-5.5281794496
 30
0.0
 10
11.3725267191
 20
-5.533806771
 30
0.0
 10
11.4554480156
 20
-5.5306361398
 30
0.0
 10
11.5334633009
 20
-5.5163863828
 30
0.0
 10
11.5817267337
 20
-5.4989866961
 30
0.0
 10
11.6032648277
 20
-5.488217649
 30
0.0
 11
11.2893757617
 21
-5.5232563141
 31
0.0
 11
11.3722096502
 21
-5.5318530454
 31
0.0
 11
11.456513619
 21
-5.5285442274
 31
0.0
 11
11.535631864
 21
-5.5136054228
 31
0.0
 11
11.6032648277
 21
-5.488217649
 31
0.0
  0
SPLINE
  5
457
100
AcDbEntity
  8
Z030100_COP
100
AcDbSpline
 62
7
  6
CONTINUOUS
 70
0
 71
3
 72
16
 73
12
 74
10
 42
0.0000001
 43
0.0000001
 44
0.0000000001
 12
0.791436686
 22
-0.3955804561
 32
0.0
 13
0.1234991938
 23
0.8761300556
 33
0.0
 40
0.0
 40
0.0
 40
0.0
 40
0.0
 40
0.0449321576
 40
0.0910788362
 40
0.1905617689
 40
0.3038295282
 40
0.4312548577
 40
0.5699115928
 40
0.7148672645
 40
0.8602129431
 40
1.0
 40
1.0
 40
1.0
 40
1.0
 10
12.4227127854
 20
-6.5398051977
 30
0.0
 10
12.434566438
 20
-6.5457299589
 30
0.0
 10
12.4599664239
 20
-6.5551770277
 30
0.0
 10
12.5158899737
 20
-6.5635601945
 30
0.0
 10
12.5931057428
 20
-6.5522019293
 30
0.0
 10
12.6846113513
 20
-6.5086033694
 30
0.0
 10
12.7728861106
 20
-6.4386027175
 30
0.0
 10
12.8527433411
 20
-6.3466057286
 30
0.0
 10
12.9193408234
 20
-6.2384080413
 30
0.0
 10
12.9684547905
 20
-6.1209297116
 30
0.0
 10
12.9881015216
 20
-6.0386502105
 30
0.0
 10
12.9938560512
 20
-5.9978263299
 30
0.0
 11
12.4227127854
 21
-6.5398051977
 31
0.0
 11
12.4599510767
 21
-6.5537269984
 31
0.0
 11
12.5003074778
 21
-6.5599290203
 31
0.0
 11
12.5876335991
 21
-6.548885504
 31
0.0
 11
12.6788684309
 21
-6.5074135577
 31
0.0
 11
12.7679281571
 21
-6.4382777144
 31
0.0
 11
12.8488739216
 21
-6.3460891648
 31
0.0
 11
12.9163084033
 21
-6.2369925367
 31
0.0
 11
12.9657339482
 21
-6.1182691873
 31
0.0
 11
12.9938560512
 21
-5.9978263299
 31
0.0
  0
SPLINE
  5
458
100
AcDbEntity
  8
Z030100_COP
100
AcDbSpline
 62
7
  6
CONTINUOUS
 70
0
 71
3
 72
11
 73
7
 74
5
 42
0.0000001
 43
0.0000001
 44
0.0000000001
 12
0.038695698
 22
-0.2358199729
 32
0.0
 13
0.2137594462
 23
-0.1068424812
 33
0.0
 40
0.0
 40
0.0
 40
0.0
 40
0.0
 40
0.2801242091
 40
0.5366803982
 40
0.7737759222
 40
1.0
 40
1.0
 40
1.0
 40
1.0
 10
6.9246270717
 20
-9.0324408196
 30
0.0
 10
6.9282402723
 20
-9.0544604474
 30
0.0
 10
6.9385909852
 20
-9.096222284
 30
0.0
 10
6.9652281086
 20
-9.152347632
 30
0.0
 10
7.0018302747
 20
-9.1972940888
 30
0.0
 10
7.0325820705
 20
-9.2187541857
 30
0.0
 10
7.0487012484
 20
-9.2268109663
 30
0.0
 11
6.9246270717
 21
-9.0324408196
 31
0.0
 11
6.9412589458
 21
-9.0972841216
 31
0.0
 11
6.9680874353
 21
-9.1524127866
 31
0.0
 11
7.0042669933
 21
-9.196017242
 31
0.0
 11
7.0487012484
 21
-9.2268109663
 31
0.0
  0
SPLINE
  5
459
100
AcDbEntity
  8
Z030100_COP
100
AcDbSpline
 62
7
  6
CONTINUOUS
 70
0
 71
3
 72
11
 73
7
 74
5
 42
0.0000001
 43
0.0000001
 44
0.0000000001
 12
0.038695698
 22
-0.2358199729
 32
0.0
 13
0.2137594462
 23
-0.1068424812
 33
0.0
 40
0.0
 40
0.0
 40
0.0
 40
0.0
 40
0.2801242091
 40
0.5366803982
 40
0.7737759222
 40
1.0
 40
1.0
 40
1.0
 40
1.0
 10
9.6469881793
 20
-7.6712602659
 30
0.0
 10
9.6506013799
 20
-7.6932798936
 30
0.0
 10
9.6609520927
 20
-7.7350417303
 30
0.0
 10
9.6875892161
 20
-7.7911670782
 30
0.0
 10
9.7241913823
 20
-7.836113535
 30
0.0
 10
9.7549431781
 20
-7.8575736319
 30
0.0
 10
9.771062356
 20
-7.8656304125
 30
0.0
 11
9.6469881793
 21
-7.6712602659
 31
0.0
 11
9.6636200533
 21
-7.7361035678
 31
0.0
 11
9.6904485428
 21
-7.7912322328
 31
0.0
 11
9.7266281009
 21
-7.8348366882
 31
0.0
 11
9.771062356
 21
-7.8656304125
 31
0.0
  0
SPLINE
  5
45A
100
AcDbEntity
  8
Z030100_COP
100
AcDbSpline
 62
7
  6
CONTINUOUS
 70
0
 71
3
 72
9
 73
5
 74
3
 42
0.0000001
 43
0.0000001
 44
0.0000000001
 12
0.0000036503
 22
0.054586999
 32
0.0
 13
-0.0319194126
 23
0.0442819553
 33
0.0
 40
0.0
 40
0.0
 40
0.0
 40
0.0
 40
0.4800568851
 40
1.0
 40
1.0
 40
1.0
 40
1.0
 10
11.1254478969
 20
-5.665000277
 30
0.0
 10
11.125448481
 20
-5.6562653221
 30
0.0
 10
11.1221417249
 20
-5.6379561626
 30
0.0
 10
11.1131887746
 20
-5.6217904717
 30
0.0
 10
11.1076566817
 20
-5.6141157725
 30
0.0
 11
11.1254478969
 21
-5.665000277
 31
0.0
 11
11.1209724275
 21
-5.6391804182
 31
0.0
 11
11.1076566817
 21
-5.6141157725
 31
0.0
  0
SPLINE
  5
45B
100
AcDbEntity
  8
Z030100_COP
100
AcDbSpline
 62
7
  6
CONTINUOUS
 70
0
 71
3
 72
16
 73
12
 74
10
 42
0.0000001
 43
0.0000001
 44
0.0000000001
 12
0.791436686
 22
-0.3955804561
 32
0.0
 13
0.1234991938
 23
0.8761300556
 33
0.0
 40
0.0
 40
0.0
 40
0.0
 40
0.0
 40
0.0449321576
 40
0.0910788362
 40
0.1905617689
 40
0.3038295282
 40
0.4312548577
 40
0.5699115928
 40
0.7148672645
 40
0.8602129431
 40
1.0
 40
1.0
 40
1.0
 40
1.0
 10
9.771062356
 20
-7.8656304125
 30
0.0
 10
9.7829160086
 20
-7.8715551736
 30
0.0
 10
9.8083159944
 20
-7.8810022424
 30
0.0
 10
9.8642395443
 20
-7.8893854092
 30
0.0
 10
9.9414553133
 20
-7.8780271441
 30
0.0
 10
10.0329609218
 20
-7.8344285841
 30
0.0
 10
10.1212356812
 20
-7.7644279322
 30
0.0
 10
10.2010929117
 20
-7.6724309433
 30
0.0
 10
10.2676903939
 20
-7.564233256
 30
0.0
 10
10.3168043611
 20
-7.4467549263
 30
0.0
 10
10.3364510922
 20
-7.3644754252
 30
0.0
 10
10.3422056218
 20
-7.3236515446
 30
0.0
 11
9.771062356
 21
-7.8656304125
 31
0.0
 11
9.8083006473
 21
-7.8795522132
 31
0.0
 11
9.8486570483
 21
-7.8857542351
 31
0.0
 11
9.9359831696
 21
-7.8747107187
 31
0.0
 11
10.0272180015
 21
-7.8332387724
 31
0.0
 11
10.1162777277
 21
-7.7641029292
 31
0.0
 11
10.1972234922
 21
-7.6719143795
 31
0.0
 11
10.2646579739
 21
-7.5628177514
 31
0.0
 11
10.3140835188
 21
-7.444094402
 31
0.0
 11
10.3422056218
 21
-7.3236515446
 31
0.0
  0
SPLINE
  5
45C
100
AcDbEntity
  8
Z030100_COP
100
AcDbSpline
 62
253
  6
CONTINUOUS
 70
0
 71
3
 72
11
 73
7
 74
5
 42
0.0000001
 43
0.0000001
 44
0.0000000001
 12
0.1291394194
 22
0.0645697097
 32
0.0
 13
0.0000109324
 23
0.1443822598
 33
0.0
 40
0.0
 40
0.0
 40
0.0
 40
0.0
 40
0.3024647877
 40
0.5655222949
 40
0.7934185356
 40
1.0
 40
1.0
 40
1.0
 40
1.0
 10
11.0375794028
 20
-11.7466356476
 30
0.0
 10
11.0505994452
 20
-11.7401256264
 30
0.0
 10
11.0741374127
 20
-11.7261514205
 30
0.0
 10
11.1027200642
 20
-11.7003381878
 30
0.0
 10
11.1210495633
 20
-11.6715847476
 30
0.0
 10
11.1254466122
 20
-11.6505157062
 30
0.0
 10
11.1254473651
 20
-11.6405734734
 30
0.0
 11
11.0375794028
 21
-11.7466356476
 31
0.0
 11
11.0748721842
 21
-11.7239119735
 31
0.0
 11
11.1026128892
 21
-11.6979697821
 31
0.0
 11
11.1196782579
 21
-11.6698369209
 31
0.0
 11
11.1254473651
 21
-11.6405734734
 31
0.0
  0
SPLINE
  5
45D
100
AcDbEntity
  8
Z030100_COP
100
AcDbSpline
 62
7
  6
CONTINUOUS
 70
0
 71
3
 72
11
 73
7
 74
5
 42
0.0000001
 43
0.0000001
 44
0.0000000001
 12
0.129137549
 22
0.0645687745
 32
0.0
 13
0.0000096549
 23
0.1443801687
 33
0.0
 40
0.0
 40
0.0
 40
0.0
 40
0.0
 40
0.3024870021
 40
0.5655084124
 40
0.7934350801
 40
1.0
 40
1.0
 40
1.0
 40
1.0
 10
11.0375794028
 20
-5.7710603615
 30
0.0
 10
11.0506002128
 20
-5.7645499565
 30
0.0
 10
11.0741388752
 20
-5.7505788716
 30
0.0
 10
11.1027200283
 20
-5.7247628894
 30
0.0
 10
11.121046265
 20
-5.6960101541
 30
0.0
 10
11.1254472321
 20
-5.6749415696
 30
0.0
 10
11.1254478969
 20
-5.665000277
 30
0.0
 11
11.0375794028
 21
-5.7710603615
 31
0.0
 11
11.0748752161
 21
-5.7483367149
 31
0.0
 11
11.1026105561
 21
-5.7223972222
 31
0.0
 11
11.1196771566
 21
-5.6942605275
 31
0.0
 11
11.1254478969
 21
-5.665000277
 31
0.0
  0
SPLINE
  5
45E
100
AcDbEntity
  8
Z030100_COP
100
AcDbSpline
 62
253
  6
CONTINUOUS
 70
0
 71
3
 72
11
 73
7
 74
5
 42
0.0000001
 43
0.0000001
 44
0.0000000001
 12
0.1645202963
 22
0.0872495813
 32
0.0
 13
0.0
 23
0.1862241051
 33
0.0
 40
0.0
 40
0.0
 40
0.0
 40
0.0
 40
0.217163895
 40
0.4507603489
 40
0.710782651
 40
1.0
 40
1.0
 40
1.0
 40
1.0
 10
10.9620316296
 20
-11.9076470473
 30
0.0
 10
10.973940919
 20
-11.9013312277
 30
0.0
 10
10.9963717104
 20
-11.8834939006
 30
0.0
 10
11.0203613337
 20
-11.8457075619
 30
0.0
 10
11.0347182547
 20
-11.7988056364
 30
0.0
 10
11.0375794028
 20
-11.7645887283
 30
0.0
 10
11.0375794028
 20
-11.7466356476
 30
0.0
 11
10.9620316296
 21
-11.9076470473
 31
0.0
 11
10.9938788504
 21
-11.8827223346
 31
0.0
 11
11.0177657781
 21
-11.8463660839
 31
0.0
 11
11.0325664794
 21
-11.8002610944
 31
0.0
 11
11.0375794028
 21
-11.7466356476
 31
0.0
  0
SPLINE
  5
45F
100
AcDbEntity
  8
Z030100_COP
100
AcDbSpline
 62
7
  6
CONTINUOUS
 70
0
 71
3
 72
16
 73
12
 74
10
 42
0.0000001
 43
0.0000001
 44
0.0000000001
 12
0.791436686
 22
-0.3955804561
 32
0.0
 13
0.1234991938
 23
0.8761300556
 33
0.0
 40
0.0
 40
0.0
 40
0.0
 40
0.0
 40
0.0449321576
 40
0.0910788362
 40
0.1905617689
 40
0.3038295282
 40
0.4312548577
 40
0.5699115928
 40
0.7148672645
 40
0.8602129431
 40
1.0
 40
1.0
 40
1.0
 40
1.0
 10
7.0487012484
 20
-9.2268109663
 30
0.0
 10
7.060554901
 20
-9.2327357274
 30
0.0
 10
7.0859548869
 20
-9.2421827962
 30
0.0
 10
7.1418784367
 20
-9.250565963
 30
0.0
 10
7.2190942057
 20
-9.2392076978
 30
0.0
 10
7.3105998143
 20
-9.1956091379
 30
0.0
 10
7.3988745736
 20
-9.125608486
 30
0.0
 10
7.4787318041
 20
-9.0336114971
 30
0.0
 10
7.5453292864
 20
-8.9254138098
 30
0.0
 10
7.5944432535
 20
-8.8079354801
 30
0.0
 10
7.6140899846
 20
-8.725655979
 30
0.0
 10
7.6198445142
 20
-8.6848320984
 30
0.0
 11
7.0487012484
 21
-9.2268109663
 31
0.0
 11
7.0859395397
 21
-9.2407327669
 31
0.0
 11
7.1262959408
 21
-9.2469347888
 31
0.0
 11
7.2136220621
 21
-9.2358912725
 31
0.0
 11
7.3048568939
 21
-9.1944193262
 31
0.0
 11
7.3939166201
 21
-9.125283483
 31
0.0
 11
7.4748623846
 21
-9.0330949333
 31
0.0
 11
7.5422968663
 21
-8.9239983052
 31
0.0
 11
7.5917224112
 21
-8.8052749558
 31
0.0
 11
7.6198445142
 21
-8.6848320984
 31
0.0
  0
SPLINE
  5
460
100
AcDbEntity
  8
RACCORDO
100
AcDbSpline
 62
253
  6
CONTINUOUS
 70
0
 71
3
 72
11
 73
7
 74
5
 42
0.0000001
 43
0.0000001
 44
0.0000000001
 12
-0.3586335921
 22
-0.217744845
 32
0.0
 13
0.0000000033
 23
-0.4195603305
 33
0.0
 40
0.0
 40
0.0
 40
0.0
 40
0.0
 40
0.2345987475
 40
0.4936433664
 40
0.7561526099
 40
1.0
 40
1.0
 40
1.0
 40
1.0
 10
-6.0886609985
 20
-15.0475816962
 30
0.0
 10
-6.1167059957
 20
-15.0646092522
 30
0.0
 10
-6.1694359839
 20
-15.1108929523
 30
0.0
 10
-6.2304082572
 20
-15.1983015573
 30
0.0
 10
-6.2710705993
 20
-15.2982097923
 30
0.0
 10
-6.2823045081
 20
-15.3691195284
 30
0.0
 10
-6.2823045078
 20
-15.4032224256
 30
0.0
 11
-6.0886609985
 21
-15.0475816962
 31
0.0
 11
-6.1639055565
 21
-15.1110355555
 31
0.0
 11
-6.2265894816
 21
-15.1998224986
 31
0.0
 11
-6.2678513653
 21
-15.3019397763
 31
0.0
 11
-6.2823045078
 21
-15.4032224256
 31
0.0
  0
SPLINE
  5
461
100
AcDbEntity
  8
RACCORDO
100
AcDbSpline
 62
253
  6
CONTINUOUS
 70
0
 71
3
 72
11
 73
7
 74
5
 42
0.0000001
 43
0.0000001
 44
0.0000000001
 12
-0.1684337701
 22
0.0847613059
 32
0.0
 13
-0.0000000015
 23
0.188558781
 33
0.0
 40
0.0
 40
0.0
 40
0.0
 40
0.0
 40
0.2170835201
 40
0.4506974028
 40
0.7115247267
 40
1.0
 40
1.0
 40
1.0
 40
1.0
 10
-15.90049007
 20
-10.8345630274
 30
0.0
 10
-15.9126781352
 20
-10.8284295999
 30
0.0
 10
-15.9357523404
 20
-10.8107901995
 30
0.0
 10
-15.9604308948
 20
-10.7726687615
 30
0.0
 10
-15.9750725188
 20
-10.7252017531
 30
0.0
 10
-15.9781318668
 20
-10.6905633616
 30
0.0
 10
-15.978131867
 20
-10.6724318463
 30
0.0
 11
-15.90049007
 21
-10.8345630274
 31
0.0
 11
-15.9331794687
 21
-10.8099274024
 31
0.0
 11
-15.9577228885
 21
-10.7733484665
 31
0.0
 11
-15.9729290868
 21
-10.7265770003
 31
0.0
 11
-15.978131867
 21
-10.6724318463
 31
0.0
  0
SPLINE
  5
462
100
AcDbEntity
  8
RACCORDO
100
AcDbSpline
 62
253
  6
CONTINUOUS
 70
0
 71
3
 72
11
 73
7
 74
5
 42
0.0000001
 43
0.0000001
 44
0.0000000001
 12
-0.35863359
 22
-0.2177448475
 32
0.0
 13
0.0
 23
-0.41956033
 33
0.0
 40
0.0
 40
0.0
 40
0.0
 40
0.0
 40
0.2345987474
 40
0.4936433667
 40
0.7561526103
 40
1.0
 40
1.0
 40
1.0
 40
1.0
 10
-15.7844883576
 20
-10.1996680167
 30
0.0
 10
-15.8125333546
 20
-10.2166955728
 30
0.0
 10
-15.8652633425
 20
-10.2629792732
 30
0.0
 10
-15.9262356156
 20
-10.3503878783
 30
0.0
 10
-15.9668979578
 20
-10.4502961131
 30
0.0
 10
-15.978131867
 20
-10.5212058489
 30
0.0
 10
-15.978131867
 20
-10.555308746
 30
0.0
 11
-15.7844883576
 21
-10.1996680167
 31
0.0
 11
-15.8597329151
 21
-10.2631218763
 31
0.0
 11
-15.9224168401
 21
-10.3519088195
 31
0.0
 11
-15.9636787239
 21
-10.4540260971
 31
0.0
 11
-15.978131867
 21
-10.555308746
 31
0.0
  0
SPLINE
  5
463
100
AcDbEntity
  8
RACCORDO
100
AcDbSpline
 62
253
  6
CONTINUOUS
 70
0
 71
3
 72
13
 73
9
 74
7
 42
0.0000001
 43
0.0000001
 44
0.0000000001
 12
0.71819087
 22
-0.3162768994
 32
0.0
 13
-0.7208096357
 23
-0.3102622632
 33
0.0
 40
0.0
 40
0.0
 40
0.0
 40
0.0
 40
0.2633012059
 40
0.5499513615
 40
0.6834476688
 40
0.8021591693
 40
0.9055798481
 40
1.0
 40
1.0
 40
1.0
 40
1.0
 10
-6.0886589495
 20
-15.0475825986
 30
0.0
 10
-6.0256254421
 20
-15.075341295
 30
0.0
 10
-5.9130346783
 20
-15.1749780683
 30
0.0
 10
-5.8308746601
 20
-15.3386248845
 30
0.0
 10
-5.8096088927
 20
-15.4791937262
 30
0.0
 10
-5.8199602807
 20
-15.5729910826
 30
0.0
 10
-5.8569223405
 20
-15.6494989344
 30
0.0
 10
-5.8997753369
 20
-15.6825899075
 30
0.0
 10
-5.9224616553
 20
-15.6923549109
 30
0.0
 11
-6.0886589495
 21
-15.0475825986
 31
0.0
 11
-5.9284688777
 21
-15.1780933468
 31
0.0
 11
-5.8282556545
 21
-15.3794858883
 31
0.0
 11
-5.8138707733
 21
-15.4832545254
 31
0.0
 11
-5.8259664647
 21
-15.5756245327
 31
0.0
 11
-5.8633708589
 21
-15.647650361
 31
0.0
 11
-5.9224616553
 21
-15.6923549109
 31
0.0
  0
SPLINE
  5
464
100
AcDbEntity
  8
RACCORDO
100
AcDbSpline
 62
253
  6
CONTINUOUS
 70
0
 71
3
 72
9
 73
5
 74
3
 42
0.0000001
 43
0.0000001
 44
0.0000000001
 12
0.1455090885
 22
0.0825213245
 32
0.0
 13
0.1455433123
 23
-0.0824609489
 33
0.0
 40
0.0
 40
0.0
 40
0.0
 40
0.0
 40
0.4587604525
 40
1.0
 40
1.0
 40
1.0
 40
1.0
 10
-15.9455630652
 20
-10.1869983116
 30
0.0
 10
-15.9233117934
 20
-10.1743791382
 30
0.0
 10
-15.8645770054
 20
-10.1636775706
 30
0.0
 10
-15.8107462898
 20
-10.1847909745
 30
0.0
 10
-15.7844883576
 20
-10.1996680167
 30
0.0
 11
-15.9455630652
 21
-10.1869983116
 31
0.0
 11
-15.8704535143
 21
-10.1712560418
 31
0.0
 11
-15.7844883576
 21
-10.1996680167
 31
0.0
  0
LINE
  5
465
100
AcDbEntity
  8
RACCORDO
100
AcDbLine
 62
253
  6
CONTINUOUS
 10
-15.7844883576
 20
-10.1996680167
 11
-15.5635112293
 21
-10.0815598323
  0
LINE
  5
466
100
AcDbEntity
  8
RACCORDO
100
AcDbLine
 62
253
  6
CONTINUOUS
 10
-15.5635112293
 20
-10.0815598323
 11
-14.8068706331
 21
-9.6771494404
  0
LINE
  5
467
100
AcDbEntity
  8
RACCORDO
100
AcDbLine
 62
253
  6
CONTINUOUS
 10
-14.8068706331
 20
-9.6771494404
 11
-14.6295320945
 21
-9.5823652744
  0
SPLINE
  5
468
100
AcDbEntity
  8
RACCORDO
100
AcDbSpline
 62
253
  6
CONTINUOUS
 70
0
 71
3
 72
13
 73
9
 74
7
 42
0.0000001
 43
0.0000001
 44
0.0000000001
 12
-0.1532227183
 22
0.0766089139
 32
0.0
 13
0.1532264299
 23
-0.07660149
 33
0.0
 40
0.0
 40
0.0
 40
0.0
 40
0.0
 40
0.2803772962
 40
0.434168645
 40
0.5774113964
 40
0.7943801926
 40
0.8895486722
 40
1.0
 40
1.0
 40
1.0
 40
1.0
 10
-15.978131867
 20
-10.6724318463
 30
0.0
 10
-15.9924519241
 20
-10.6652720462
 30
0.0
 10
-16.0101408691
 20
-10.6454620853
 30
0.0
 10
-16.0231484036
 20
-10.614934305
 30
0.0
 10
-16.0284005527
 20
-10.5864343393
 30
0.0
 10
-16.0203921142
 20
-10.5562664788
 30
0.0
 10
-15.9954594366
 20
-10.5487334429
 30
0.0
 10
-15.9837732212
 20
-10.5524885006
 30
0.0
 10
-15.978131867
 20
-10.555308746
 30
0.0
 11
-15.978131867
 21
-10.6724318463
 31
0.0
 11
-16.0120002433
 21
-10.6383749226
 31
0.0
 11
-16.0224058975
 21
-10.6141714007
 31
0.0
 11
-16.0260634067
 21
-10.5899070087
 31
0.0
 11
-16.0120042442
 21
-10.5555002894
 31
0.0
 11
-15.9964565204
 21
-10.5505954635
 31
0.0
 11
-15.978131867
 21
-10.555308746
 31
0.0
  0
SPLINE
  5
469
100
AcDbEntity
  8
RACCORDO
100
AcDbSpline
 62
253
  6
CONTINUOUS
 70
0
 71
3
 72
13
 73
9
 74
7
 42
0.0000001
 43
0.0000001
 44
0.0000000001
 12
0.1532227183
 22
-0.0766089138
 32
0.0
 13
-0.1532264299
 23
0.07660149
 33
0.0
 40
0.0
 40
0.0
 40
0.0
 40
0.0
 40
0.2803772962
 40
0.434168645
 40
0.5774113964
 40
0.7943801926
 40
0.8895486722
 40
1.0
 40
1.0
 40
1.0
 40
1.0
 10
-6.2823045078
 20
-15.4032224256
 30
0.0
 10
-6.2679844507
 20
-15.4103822257
 30
0.0
 10
-6.2502955057
 20
-15.4301921866
 30
0.0
 10
-6.2372879712
 20
-15.4607199669
 30
0.0
 10
-6.2320358221
 20
-15.4892199326
 30
0.0
 10
-6.2400442606
 20
-15.5193877931
 30
0.0
 10
-6.2649769382
 20
-15.526920829
 30
0.0
 10
-6.2766631536
 20
-15.5231657713
 30
0.0
 10
-6.2823045078
 20
-15.5203455259
 30
0.0
 11
-6.2823045078
 21
-15.4032224256
 31
0.0
 11
-6.2484361316
 21
-15.4372793493
 31
0.0
 11
-6.2380304773
 21
-15.4614828712
 31
0.0
 11
-6.2343729681
 21
-15.4857472632
 31
0.0
 11
-6.2484321306
 21
-15.5201539825
 31
0.0
 11
-6.2639798544
 21
-15.5250588084
 31
0.0
 11
-6.2823045078
 21
-15.5203455259
 31
0.0
  0
SPLINE
  5
46A
100
AcDbEntity
  8
RACCORDO
100
AcDbSpline
 62
7
  6
CONTINUOUS
 70
0
 71
3
 72
10
 73
6
 74
4
 42
0.0000001
 43
0.0000001
 44
0.0000000001
 12
0.210378215
 22
0.1192790895
 32
0.0
 13
0.2163081034
 23
-0.1081540517
 33
0.0
 40
0.0
 40
0.0
 40
0.0
 40
0.0
 40
0.2280784972
 40
0.4661382489
 40
1.0
 40
1.0
 40
1.0
 40
1.0
 10
-14.8626994593
 20
-9.5726992262
 30
0.0
 10
-14.8467052103
 20
-9.5636308944
 30
0.0
 10
-14.8110360892
 20
-9.5498628344
 30
0.0
 10
-14.7297987851
 20
-9.5435891346
 30
0.0
 10
-14.6680249688
 20
-9.5631188372
 30
0.0
 10
-14.6295320945
 20
-9.5823652744
 30
0.0
 11
-14.8626994593
 21
-9.5726992262
 31
0.0
 11
-14.811273474
 21
-9.5527537045
 31
0.0
 11
-14.7539178703
 21
-9.5477629739
 31
0.0
 11
-14.6295320945
 21
-9.5823652744
 31
0.0
  0
SPLINE
  5
46B
100
AcDbEntity
  8
RACCORDO
100
AcDbSpline
 62
253
  6
CONTINUOUS
 70
0
 71
3
 72
11
 73
7
 74
5
 42
0.0000001
 43
0.0000001
 44
0.0000000001
 12
-0.1690081552
 22
0.0843870467
 32
0.0
 13
0.0
 23
0.1889045531
 33
0.0
 40
0.0
 40
0.0
 40
0.0
 40
0.0
 40
0.2170868256
 40
0.4506471309
 40
0.7114626697
 40
1.0
 40
1.0
 40
1.0
 40
1.0
 10
-6.2043495538
 20
-15.6826336828
 30
0.0
 10
-6.2165793684
 20
-15.6765272441
 30
0.0
 10
-6.2397443973
 20
-15.6589178653
 30
0.0
 10
-6.2645307268
 20
-15.6207661284
 30
0.0
 10
-6.2792331299
 20
-15.5732197788
 30
0.0
 10
-6.2823045078
 20
-15.5385141977
 30
0.0
 10
-6.2823045078
 20
-15.5203455259
 30
0.0
 11
-6.2043495538
 21
-15.6826336828
 31
0.0
 11
-6.2371652628
 21
-15.6580401496
 31
0.0
 11
-6.2618091617
 21
-15.6214436191
 31
0.0
 11
-6.2770794842
 21
-15.5746005242
 31
0.0
 11
-6.2823045078
 21
-15.5203455259
 31
0.0
  0
SPLINE
  5
46C
100
AcDbEntity
  8
RACCORDO
100
AcDbSpline
 62
253
  6
CONTINUOUS
 70
0
 71
3
 72
10
 73
6
 74
4
 42
0.0000001
 43
0.0000001
 44
0.0000000001
 12
-0.0052294069
 22
-0.0464471338
 32
0.0
 13
0.0418651471
 23
-0.0207844266
 33
0.0
 40
0.0
 40
0.0
 40
0.0
 40
0.0
 40
0.1842709862
 40
0.5323257582
 40
1.0
 40
1.0
 40
1.0
 40
1.0
 10
-16.863422254
 20
18.9077898787
 30
0.0
 10
-16.8637434633
 20
18.9049369257
 30
0.0
 10
-16.8622417301
 20
18.8963744975
 30
0.0
 10
-16.8513837438
 20
18.8843097225
 30
0.0
 10
-16.8404959766
 20
18.8776903953
 30
0.0
 10
-16.8339695597
 20
18.8744502817
 30
0.0
 11
-16.863422254
 21
18.9077898787
 31
0.0
 11
-16.8621911219
 21
18.8992653868
 31
0.0
 11
-16.8523128902
 21
18.886339534
 31
0.0
 11
-16.8339695597
 21
18.8744502817
 31
0.0
  0
SPLINE
  5
46D
100
AcDbEntity
  8
RACCORDO
100
AcDbSpline
 62
253
  6
CONTINUOUS
 70
0
 71
3
 72
14
 73
10
 74
8
 42
0.0000001
 43
0.0000001
 44
0.0000000001
 12
-0.0150782182
 22
-0.0357036693
 32
0.0
 13
0.0346653102
 23
-0.0173326551
 33
0.0
 40
0.0
 40
0.0
 40
0.0
 40
0.0
 40
0.0166541062
 40
0.0663295089
 40
0.1487403484
 40
0.2635276767
 40
0.4089260144
 40
0.5820726134
 40
1.0
 40
1.0
 40
1.0
 40
1.0
 10
-16.7188954945
 20
19.3885911868
 30
0.0
 10
-16.7189791993
 20
19.3883929826
 30
0.0
 10
-16.7175397106
 20
19.3882627622
 30
0.0
 10
-16.716409964
 20
19.3872842004
 30
0.0
 10
-16.7131504528
 20
19.3860784797
 30
0.0
 10
-16.7093188869
 20
19.3841068987
 30
0.0
 10
-16.7042458266
 20
19.3816356261
 30
0.0
 10
-16.6957721668
 20
19.3773537622
 30
0.0
 10
-16.6889423595
 20
19.3739185312
 30
0.0
 10
-16.6841131653
 20
19.3715039342
 30
0.0
 11
-16.7188954945
 21
19.3885911868
 31
0.0
 11
-16.7183153291
 21
19.3883082898
 31
0.0
 11
-16.7165538396
 21
19.3875312334
 31
0.0
 11
-16.7136474684
 21
19.3862066126
 31
0.0
 11
-16.7096347425
 21
19.3842856862
 31
0.0
 11
-16.7045840409
 21
19.3817865019
 31
0.0
 11
-16.6985860572
 21
19.3787770325
 31
0.0
 11
-16.6841131653
 21
19.3715039342
 31
0.0
  0
SPLINE
  5
46E
100
AcDbEntity
  8
RACCORDO
100
AcDbSpline
 62
253
  6
CONTINUOUS
 70
0
 71
3
 72
11
 73
7
 74
5
 42
0.0000001
 43
0.0000001
 44
0.0000000001
 12
-0.0063026807
 22
0.1466896534
 32
0.0
 13
-0.1322734836
 23
0.0637283588
 33
0.0
 40
0.0
 40
0.0
 40
0.0
 40
0.0
 40
0.2429757366
 40
0.5075246798
 40
0.7679358194
 40
1.0
 40
1.0
 40
1.0
 40
1.0
 10
-2.8836687817
 20
13.2156420642
 30
0.0
 10
-2.8841792479
 20
13.2275227397
 30
0.0
 10
-2.8895073825
 20
13.252176196
 30
0.0
 10
-2.9059694485
 20
13.2862981681
 30
0.0
 10
-2.9293984539
 20
13.3153847926
 30
0.0
 10
-2.9490714928
 20
13.3300787924
 30
0.0
 10
-2.959303472
 20
13.3350084822
 30
0.0
 11
-2.8836687817
 21
13.2156420642
 31
0.0
 11
-2.8905533086
 21
13.2506463857
 31
0.0
 11
-2.9073262675
 21
13.2856806491
 31
0.0
 11
-2.9315148462
 21
13.3152917525
 31
0.0
 11
-2.959303472
 21
13.3350084822
 31
0.0
  0
SPLINE
  5
46F
100
AcDbEntity
  8
RACCORDO
100
AcDbSpline
 62
253
  6
CONTINUOUS
 70
0
 71
3
 72
9
 73
5
 74
3
 42
0.0000001
 43
0.0000001
 44
0.0000000001
 12
-0.6665713003
 22
-0.3873892836
 32
0.0
 13
-0.3400829272
 23
-0.6919041538
 33
0.0
 40
0.0
 40
0.0
 40
0.0
 40
0.0
 40
0.4721840235
 40
1.0
 40
1.0
 40
1.0
 40
1.0
 10
-2.9593034727
 20
13.3350084818
 30
0.0
 10
-3.0642182455
 20
13.2740354716
 30
0.0
 10
-3.260096416
 20
13.0996445958
 30
0.0
 10
-3.4014047421
 20
12.8817996016
 30
0.0
 10
-3.4612384762
 20
12.7600669128
 30
0.0
 11
-2.9593034727
 21
13.3350084818
 31
0.0
 11
-3.237032561
 21
13.0996578683
 31
0.0
 11
-3.4612384762
 21
12.7600669128
 31
0.0
  0
SPLINE
  5
470
100
AcDbEntity
  8
RACCORDO
100
AcDbSpline
 62
253
  6
CONTINUOUS
 70
0
 71
3
 72
11
 73
7
 74
5
 42
0.0000001
 43
0.0000001
 44
0.0000000001
 12
-0.1260722457
 22
0.0635153367
 32
0.0
 13
-0.1262645131
 23
0.0631322567
 33
0.0
 40
0.0
 40
0.0
 40
0.0
 40
0.0
 40
0.2087004354
 40
0.4720126513
 40
0.7506128111
 40
1.0
 40
1.0
 40
1.0
 40
1.0
 10
-3.3358210714
 20
12.6953159534
 30
0.0
 10
-3.3445915156
 20
12.6997345129
 30
0.0
 10
-3.3636564248
 20
12.7111796013
 30
0.0
 10
-3.3950789751
 20
12.7273341196
 30
0.0
 10
-3.4285983235
 20
12.74354837
 30
0.0
 10
-3.4507415574
 20
12.7548184576
 30
0.0
 10
-3.4612378081
 20
12.760066583
 30
0.0
 11
-3.3358210714
 21
12.6953159534
 31
0.0
 11
-3.3615864364
 21
12.7096038924
 31
0.0
 11
-3.3945026142
 21
12.7268731734
 31
0.0
 11
-3.4297739022
 21
12.7442726124
 31
0.0
 11
-3.4612378081
 21
12.760066583
 31
0.0
  0
SPLINE
  5
471
100
AcDbEntity
  8
RACCORDO
100
AcDbSpline
 62
253
  6
CONTINUOUS
 70
0
 71
3
 72
9
 73
5
 74
3
 42
0.0000001
 43
0.0000001
 44
0.0000000001
 12
-0.6016126432
 22
-0.3507906522
 32
0.0
 13
-0.3055022521
 23
-0.6258276345
 33
0.0
 40
0.0
 40
0.0
 40
0.0
 40
0.0
 40
0.4720621593
 40
1.0
 40
1.0
 40
1.0
 40
1.0
 10
-2.8836687817
 20
13.2156420642
 30
0.0
 10
-2.9783349695
 20
13.1604437332
 30
0.0
 10
-3.154954597
 20
13.0025157315
 30
0.0
 10
-3.2820591922
 20
12.8053847116
 30
0.0
 10
-3.3358212587
 20
12.6952520149
 30
0.0
 11
-2.8836687817
 21
13.2156420642
 31
0.0
 11
-3.1340517923
 21
13.0026039605
 31
0.0
 11
-3.3358212587
 21
12.6952520149
 31
0.0
  0
SPLINE
  5
472
100
AcDbEntity
  8
RACCORDO
100
AcDbSpline
 62
253
  6
CONTINUOUS
 70
0
 71
3
 72
10
 73
6
 74
4
 42
0.0000001
 43
0.0000001
 44
0.0000000001
 12
-0.0033542033
 22
-0.0473076843
 32
0.0
 13
0.0424549579
 23
-0.0211386903
 33
0.0
 40
0.0
 40
0.0
 40
0.0
 40
0.0
 40
0.1939965287
 40
0.5448586135
 40
1.0
 40
1.0
 40
1.0
 40
1.0
 10
-17.3006974636
 20
14.1838491748
 30
0.0
 10
-17.3009143649
 20
14.1807899993
 30
0.0
 10
-17.2993232373
 20
14.1719731613
 30
0.0
 10
-17.2886950468
 20
14.1594369233
 30
0.0
 10
-17.2777913349
 20
14.1526883505
 30
0.0
 10
-17.2713503321
 20
14.1494813196
 30
0.0
 11
-17.3006974636
 21
14.1838491748
 31
0.0
 11
-17.2992489203
 21
14.1747633544
 31
0.0
 11
-17.289360429
 21
14.1613800797
 31
0.0
 11
-17.2713503321
 21
14.1494813196
 31
0.0
  0
SPLINE
  5
473
100
AcDbEntity
  8
RACCORDO
100
AcDbSpline
 62
253
  6
CONTINUOUS
 70
0
 71
3
 72
9
 73
5
 74
3
 42
0.0000001
 43
0.0000001
 44
0.0000000001
 12
-0.2365784912
 22
-0.4627744463
 32
0.0
 13
-0.0608679456
 23
-0.5161634081
 33
0.0
 40
0.0
 40
0.0
 40
0.0
 40
0.0
 40
0.2576098297
 40
1.0
 40
1.0
 40
1.0
 40
1.0
 10
-3.4612384762
 20
12.7600669128
 30
0.0
 10
-3.4815534578
 20
12.7203284973
 30
0.0
 10
-3.5539231541
 20
12.5629253015
 30
0.0
 10
-3.6008153009
 20
12.3931359212
 30
0.0
 10
-3.6158778891
 20
12.2654043744
 30
0.0
 11
-3.4612384762
 21
12.7600669128
 31
0.0
 11
-3.517148986
 21
12.6384092942
 31
0.0
 11
-3.6158778891
 21
12.2654043744
 31
0.0
  0
SPLINE
  5
474
100
AcDbEntity
  8
RACCORDO
100
AcDbSpline
 62
253
  6
CONTINUOUS
 70
0
 71
3
 72
9
 73
5
 74
3
 42
0.0000001
 43
0.0000001
 44
0.0000000001
 12
-0.1880275357
 22
-0.365287306
 32
0.0
 13
-0.0697881357
 23
-0.4048688507
 33
0.0
 40
0.0
 40
0.0
 40
0.0
 40
0.0
 40
0.5084972652
 40
1.0
 40
1.0
 40
1.0
 40
1.0
 10
-3.3358212587
 20
12.6993904256
 30
0.0
 10
-3.3676917545
 20
12.6374745602
 30
0.0
 10
-3.4214754153
 20
12.5109549312
 30
0.0
 10
-3.4563226298
 20
12.3778639086
 30
0.0
 10
-3.4677563163
 20
12.3115325262
 30
0.0
 11
-3.3358212587
 21
12.6993904256
 31
0.0
 11
-3.4174930565
 21
12.5071056278
 31
0.0
 11
-3.4677563163
 21
12.3115325262
 31
0.0
  0
SPLINE
  5
475
100
AcDbEntity
  8
RACCORDO
100
AcDbSpline
 62
253
  6
CONTINUOUS
 70
0
 71
3
 72
11
 73
7
 74
5
 42
0.0000001
 43
0.0000001
 44
0.0000000001
 12
-0.1365133714
 22
-0.0411259864
 32
0.0
 13
-0.1273408408
 23
0.0641214285
 33
0.0
 40
0.0
 40
0.0
 40
0.0
 40
0.0
 40
0.2282460621
 40
0.4926962954
 40
0.7610561288
 40
1.0
 40
1.0
 40
1.0
 40
1.0
 10
-3.4764919727
 20
12.2514833326
 30
0.0
 10
-3.4868781859
 20
12.2483543845
 30
0.0
 10
-3.5102818569
 20
12.2449694256
 30
0.0
 10
-3.5465570344
 20
12.2458259065
 30
0.0
 10
-3.5827872031
 20
12.2522911942
 30
0.0
 10
-3.6057354492
 20
12.2602972342
 30
0.0
 10
-3.615877887
 20
12.265404375
 30
0.0
 11
-3.4764919727
 21
12.2514833326
 31
0.0
 11
-3.5085793552
 21
12.2460635958
 31
0.0
 11
-3.5462763104
 21
12.2467733685
 31
0.0
 11
-3.5839254586
 21
12.2535887199
 31
0.0
 11
-3.615877887
 21
12.265404375
 31
0.0
  0
SPLINE
  5
476
100
AcDbEntity
  8
RACCORDO
100
AcDbSpline
 62
253
  6
CONTINUOUS
 70
0
 71
3
 72
11
 73
7
 74
5
 42
0.0000001
 43
0.0000001
 44
0.0000000001
 12
-0.0631463584
 22
0.031536263
 32
0.0
 13
0.0048459561
 23
0.0704167251
 33
0.0
 40
0.0
 40
0.0
 40
0.0
 40
0.0
 40
0.2130353409
 40
0.4452389377
 40
0.7080621625
 40
1.0
 40
1.0
 40
1.0
 40
1.0
 10
-16.9876813558
 20
13.5869239261
 30
0.0
 10
-16.9921654911
 20
13.5891633722
 30
0.0
 10
-17.0006301357
 20
13.595861858
 30
0.0
 10
-17.0091565722
 20
13.610516303
 30
0.0
 10
-17.0135704272
 20
13.6286888844
 30
0.0
 10
-17.0138680116
 20
13.6418363233
 30
0.0
 10
-17.0133964389
 20
13.6486887588
 30
0.0
 11
-16.9876813558
 21
13.5869239261
 31
0.0
 11
-16.9995553012
 21
13.5961495815
 31
0.0
 11
-17.0080871435
 21
13.6101434946
 31
0.0
 11
-17.012775556
 21
13.6280921867
 31
0.0
 11
-17.0133964389
 21
13.6486887588
 31
0.0
  0
SPLINE
  5
477
100
AcDbEntity
  8
RACCORDO
100
AcDbSpline
 62
253
  6
CONTINUOUS
 70
0
 71
3
 72
9
 73
5
 74
3
 42
0.0000001
 43
0.0000001
 44
0.0000000001
 12
0.0400923011
 22
0.0218071709
 32
0.0
 13
0.0405109573
 23
-0.0210192209
 33
0.0
 40
0.0
 40
0.0
 40
0.0
 40
0.0
 40
0.4566423038
 40
1.0
 40
1.0
 40
1.0
 40
1.0
 10
-16.2103355842
 20
19.94160892
 30
0.0
 10
-16.2042329706
 20
19.9449282789
 30
0.0
 10
-16.1882406537
 20
19.9474796747
 30
0.0
 10
-16.1734940141
 20
19.9422420809
 30
0.0
 10
-16.1661567006
 20
19.9384350958
 30
0.0
 11
-16.2103355842
 21
19.94160892
 31
0.0
 11
-16.1898871851
 21
19.9456342522
 31
0.0
 11
-16.1661567006
 21
19.9384350958
 31
0.0
  0
SPLINE
  5
478
100
AcDbEntity
  8
RACCORDO
100
AcDbSpline
 62
253
  6
CONTINUOUS
 70
0
 71
3
 72
11
 73
7
 74
5
 42
0.0000001
 43
0.0000001
 44
0.0000000001
 12
-0.0631463598
 22
0.0315362619
 32
0.0
 13
0.0048459563
 23
0.0704167259
 33
0.0
 40
0.0
 40
0.0
 40
0.0
 40
0.0
 40
0.2130353395
 40
0.4452389364
 40
0.7080621625
 40
1.0
 40
1.0
 40
1.0
 40
1.0
 10
-4.3516810275
 20
7.268923762
 30
0.0
 10
-4.3561651629
 20
7.271163208
 30
0.0
 10
-4.3646298078
 20
7.2778616936
 30
0.0
 10
-4.3731562445
 20
7.2925161388
 30
0.0
 10
-4.3775700997
 20
7.3106887204
 30
0.0
 10
-4.3778676841
 20
7.3238361595
 30
0.0
 10
-4.3773961114
 20
7.330688595
 30
0.0
 11
-4.3516810275
 21
7.268923762
 31
0.0
 11
-4.3635549733
 21
7.2781494172
 31
0.0
 11
-4.3720868158
 21
7.2921433303
 31
0.0
 11
-4.3767752285
 21
7.3100920228
 31
0.0
 11
-4.3773961114
 21
7.330688595
 31
0.0
  0
SPLINE
  5
479
100
AcDbEntity
  8
RACCORDO
100
AcDbSpline
 62
253
  6
CONTINUOUS
 70
0
 71
3
 72
11
 73
7
 74
5
 42
0.0000001
 43
0.0000001
 44
0.0000000001
 12
-0.1341262575
 22
-0.0499383253
 32
0.0
 13
-0.1279043713
 23
0.0642196316
 33
0.0
 40
0.0
 40
0.0
 40
0.0
 40
0.0
 40
0.2313619783
 40
0.4959552303
 40
0.7627227962
 40
1.0
 40
1.0
 40
1.0
 40
1.0
 10
-3.9289008484
 20
7.5395214482
 30
0.0
 10
-3.9392447538
 20
7.5356701717
 30
0.0
 10
-3.9626765923
 20
7.5308608216
 30
0.0
 10
-3.9992010084
 20
7.530081605
 30
0.0
 10
-4.0356294418
 20
7.5354347952
 30
0.0
 10
-4.0586650061
 20
7.5431175027
 30
0.0
 10
-4.0687812699
 20
7.5481967875
 30
0.0
 11
-3.9289008484
 21
7.5395214482
 31
0.0
 11
-3.9611757355
 21
7.5321194176
 31
0.0
 11
-3.9990318795
 21
7.5311360422
 31
0.0
 11
-4.0367881949
 21
7.5368088767
 31
0.0
 11
-4.0687812699
 21
7.5481967875
 31
0.0
  0
SPLINE
  5
47A
100
AcDbEntity
  8
RACCORDO
100
AcDbSpline
 62
253
  6
CONTINUOUS
 70
0
 71
3
 72
9
 73
5
 74
3
 42
0.0000001
 43
0.0000001
 44
0.0000000001
 12
-0.0144735166
 22
-0.1968233327
 32
0.0
 13
-0.1313778572
 23
-0.1472710616
 33
0.0
 40
0.0
 40
0.0
 40
0.0
 40
0.0
 40
0.2765896114
 40
1.0
 40
1.0
 40
1.0
 40
1.0
 10
-4.0687812715
 20
7.5481967869
 30
0.0
 10
-4.0701156796
 20
7.5300503572
 30
0.0
 10
-4.078782272
 20
7.4650451207
 30
0.0
 10
-4.1056202095
 20
7.4005626289
 30
0.0
 10
-4.1373002451
 20
7.365050157
 30
0.0
 11
-4.0687812715
 21
7.5481967869
 31
0.0
 11
-4.0762999993
 21
7.4941308019
 31
0.0
 11
-4.1373002451
 21
7.365050157
 31
0.0
  0
SPLINE
  5
47B
100
AcDbEntity
  8
RACCORDO
100
AcDbSpline
 62
253
  6
CONTINUOUS
 70
0
 71
3
 72
9
 73
5
 74
3
 42
0.0000001
 43
0.0000001
 44
0.0000000001
 12
-0.0481060282
 22
-0.05392557
 32
0.0
 13
-0.0650029345
 23
-0.0315717526
 33
0.0
 40
0.0
 40
0.0
 40
0.0
 40
0.0
 40
0.2570990391
 40
1.0
 40
1.0
 40
1.0
 40
1.0
 10
-4.1373002451
 20
7.365050157
 30
0.0
 10
-4.1414229163
 20
7.3604287529
 30
0.0
 10
-4.158237
 20
7.3431718075
 30
0.0
 10
-4.1783778172
 20
7.3290925153
 30
0.0
 10
-4.1944747313
 20
7.3212742869
 30
0.0
 11
-4.1373002451
 21
7.365050157
 31
0.0
 11
-4.1502885826
 21
7.3517653073
 31
0.0
 11
-4.1944747313
 21
7.3212742869
 31
0.0
  0
SPLINE
  5
47C
100
AcDbEntity
  8
RACCORDO
100
AcDbSpline
 62
253
  6
CONTINUOUS
 70
0
 71
3
 72
9
 73
5
 74
3
 42
0.0000001
 43
0.0000001
 44
0.0000000001
 12
-0.1116941073
 22
-0.0242535336
 32
0.0
 13
-0.1076929131
 23
0.0382889536
 33
0.0
 40
0.0
 40
0.0
 40
0.0
 40
0.0
 40
0.4825115903
 40
1.0
 40
1.0
 40
1.0
 40
1.0
 10
-4.2331884414
 20
7.3078968794
 30
0.0
 10
-4.2511530085
 20
7.303996009
 30
0.0
 10
-4.2898522701
 20
7.3018905322
 30
0.0
 10
-4.3274103711
 20
7.3106524979
 30
0.0
 10
-4.3459869825
 20
7.3172571945
 30
0.0
 11
-4.2331884414
 21
7.3078968794
 31
0.0
 11
-4.2882330109
 21
7.3044943052
 31
0.0
 11
-4.3459869825
 21
7.3172571945
 31
0.0
  0
SPLINE
  5
47D
100
AcDbEntity
  8
RACCORDO
100
AcDbSpline
 62
253
  6
CONTINUOUS
 70
0
 71
3
 72
9
 73
5
 74
3
 42
0.0000001
 43
0.0000001
 44
0.0000000001
 12
-0.01137256
 22
-0.1876266281
 32
0.0
 13
-0.0928161031
 23
-0.1634572045
 33
0.0
 40
0.0
 40
0.0
 40
0.0
 40
0.0
 40
0.2694057826
 40
1.0
 40
1.0
 40
1.0
 40
1.0
 10
-3.9289007529
 20
7.5395213988
 30
0.0
 10
-3.9299220307
 20
7.5226721659
 30
0.0
 10
-3.9365384706
 20
7.460429135
 30
0.0
 10
-3.9554395423
 20
7.3987810616
 30
0.0
 10
-3.9780431784
 20
7.3589740988
 30
0.0
 11
-3.9289007529
 21
7.5395213988
 31
0.0
 11
-3.9343786571
 21
7.4891780827
 31
0.0
 11
-3.9780431784
 21
7.3589740988
 31
0.0
  0
SPLINE
  5
47E
100
AcDbEntity
  8
RACCORDO
100
AcDbSpline
 62
253
  6
CONTINUOUS
 70
0
 71
3
 72
9
 73
5
 74
3
 42
0.0000001
 43
0.0000001
 44
0.0000000001
 12
-0.0720916064
 22
-0.126959569
 32
0.0
 13
-0.1315504684
 23
-0.0633277674
 33
0.0
 40
0.0
 40
0.0
 40
0.0
 40
0.0
 40
0.5167400603
 40
1.0
 40
1.0
 40
1.0
 40
1.0
 10
-3.9780431784
 20
7.3589740988
 30
0.0
 10
-3.9904607187
 20
7.3371057337
 30
0.0
 10
-4.0198918345
 20
7.297443322
 30
0.0
 10
-4.0603054456
 20
7.2685739095
 30
0.0
 10
-4.0814964694
 20
7.2583726518
 30
0.0
 11
-3.9780431784
 21
7.3589740988
 31
0.0
 11
-4.0238097409
 21
7.2989973694
 31
0.0
 11
-4.0814964694
 21
7.2583726518
 31
0.0
  0
SPLINE
  5
47F
100
AcDbEntity
  8
RACCORDO
100
AcDbSpline
 62
253
  6
CONTINUOUS
 70
0
 71
3
 72
9
 73
5
 74
3
 42
0.0000001
 43
0.0000001
 44
0.0000000001
 12
0.2527482166
 22
0.4075960584
 32
0.0
 13
0.3765727905
 23
0.2970002378
 33
0.0
 40
0.0
 40
0.0
 40
0.0
 40
0.0
 40
0.2602401138
 40
1.0
 40
1.0
 40
1.0
 40
1.0
 10
-16.61923155
 20
19.4864894732
 30
0.0
 10
-16.5973064752
 20
19.5218470881
 30
0.0
 10
-16.5077850579
 20
19.654267128
 30
0.0
 10
-16.3970861946
 20
19.7731836391
 30
0.0
 10
-16.3042283798
 20
19.8464199265
 30
0.0
 11
-16.61923155
 21
19.4864894732
 31
0.0
 11
-16.5492781067
 21
19.5898545753
 31
0.0
 11
-16.3042283798
 21
19.8464199265
 31
0.0
  0
SPLINE
  5
480
100
AcDbEntity
  8
RACCORDO
100
AcDbSpline
 62
253
  6
CONTINUOUS
 70
0
 71
3
 72
9
 73
5
 74
3
 42
0.0000001
 43
0.0000001
 44
0.0000000001
 12
0.1120657333
 22
0.0883854337
 32
0.0
 13
0.1233509173
 23
0.0718001718
 33
0.0
 40
0.0
 40
0.0
 40
0.0
 40
0.0
 40
0.2564376068
 40
1.0
 40
1.0
 40
1.0
 40
1.0
 10
-16.3042283798
 20
19.8464199265
 30
0.0
 10
-16.2946490903
 20
19.8539750429
 30
0.0
 10
-16.2568172846
 20
19.882823711
 30
0.0
 10
-16.2170479122
 20
19.9091615845
 30
0.0
 10
-16.1864748778
 20
19.9269575537
 30
0.0
 11
-16.3042283798
 21
19.8464199265
 31
0.0
 11
-16.27511868
 21
19.8686056992
 31
0.0
 11
-16.1864748778
 21
19.9269575537
 31
0.0
  0
SPLINE
  5
481
100
AcDbEntity
  8
RACCORDO
100
AcDbSpline
 62
253
  6
CONTINUOUS
 70
0
 71
3
 72
9
 73
5
 74
3
 42
0.0000001
 43
0.0000001
 44
0.0000000001
 12
0.0642420931
 22
0.2880667622
 32
0.0
 13
0.1169588382
 23
0.2709799553
 33
0.0
 40
0.0
 40
0.0
 40
0.0
 40
0.0
 40
0.2456887501
 40
1.0
 40
1.0
 40
1.0
 40
1.0
 10
-16.8098659818
 20
19.0168689289
 30
0.0
 10
-16.8046047953
 20
19.0404605165
 30
0.0
 10
-16.7807956808
 20
19.1359376145
 30
0.0
 10
-16.7477848966
 20
19.229081619
 30
0.0
 10
-16.7183771074
 20
19.2972160286
 30
0.0
 11
-16.8098659818
 21
19.0168689289
 31
0.0
 11
-16.7923500921
 21
19.0872349818
 31
0.0
 11
-16.7183771074
 21
19.2972160286
 31
0.0
  0
SPLINE
  5
482
100
AcDbEntity
  8
RACCORDO
100
AcDbSpline
 62
253
  6
CONTINUOUS
 70
0
 71
3
 72
11
 73
7
 74
5
 42
0.0000001
 43
0.0000001
 44
0.0000000001
 12
-0.4557461
 22
0.2278696048
 32
0.0
 13
-0.0488699695
 23
0.5071891073
 33
0.0
 40
0.0
 40
0.0
 40
0.0
 40
0.0
 40
0.2246340471
 40
0.4755495709
 40
0.7395609113
 40
1.0
 40
1.0
 40
1.0
 40
1.0
 10
-17.0133964389
 20
13.6486887588
 30
0.0
 10
-17.0475218026
 20
13.6657511826
 30
0.0
 10
-17.1130983936
 20
13.715491918
 30
0.0
 10
-17.190508528
 20
13.8157697067
 30
0.0
 10
-17.2463864078
 20
13.936129506
 30
0.0
 10
-17.2658691443
 20
14.0239773759
 30
0.0
 10
-17.2701116944
 20
14.0680079989
 30
0.0
 11
-17.0133964389
 21
13.6486887588
 31
0.0
 11
-17.1059486643
 21
13.7160318084
 31
0.0
 11
-17.1851513958
 21
13.816395197
 31
0.0
 11
-17.2420031303
 21
13.9383154257
 31
0.0
 11
-17.2701116944
 21
14.0680079989
 31
0.0
  0
SPLINE
  5
483
100
AcDbEntity
  8
RACCORDO
100
AcDbSpline
 62
253
  6
CONTINUOUS
 70
0
 71
3
 72
9
 73
5
 74
3
 42
0.0000001
 43
0.0000001
 44
0.0000000001
 12
-0.0078200431
 22
0.0811590576
 32
0.0
 13
0.0057695418
 23
0.0813305483
 33
0.0
 40
0.0
 40
0.0
 40
0.0
 40
0.0
 40
0.2557397153
 40
1.0
 40
1.0
 40
1.0
 40
1.0
 10
-17.2701116944
 20
14.0680079989
 30
0.0
 10
-17.2707783262
 20
14.0749265303
 30
0.0
 10
-17.2728562127
 20
14.1020261759
 30
0.0
 10
-17.2727816817
 20
14.1293042862
 30
0.0
 10
-17.2713503348
 20
14.1494813186
 30
0.0
 11
-17.2701116944
 21
14.0680079989
 31
0.0
 11
-17.2717003483
 21
14.0887991137
 31
0.0
 11
-17.2713503348
 21
14.1494813186
 31
0.0
  0
LINE
  5
484
100
AcDbEntity
  8
RACCORDO
100
AcDbLine
 62
253
  6
CONTINUOUS
 10
-17.2713503348
 20
14.1494813186
 11
-17.2690742857
 21
14.1815012995
  0
SPLINE
  5
485
100
AcDbEntity
  8
RACCORDO
100
AcDbSpline
 62
7
  6
CONTINUOUS
 70
0
 71
3
 72
11
 73
7
 74
5
 42
0.0000001
 43
0.0000001
 44
0.0000000001
 12
0.0
 22
0.3850294746
 32
0.0
 13
-0.3443808315
 23
0.1721904157
 33
0.0
 40
0.0
 40
0.0
 40
0.0
 40
0.0
 40
0.2065815957
 40
0.4344769586
 40
0.6975326744
 40
1.0
 40
1.0
 40
1.0
 40
1.0
 10
17.6004996695
 20
10.0248931318
 30
0.0
 10
17.6004996695
 20
10.0514064663
 30
0.0
 10
17.5887753807
 20
10.1075926341
 30
0.0
 10
17.5398977323
 20
10.1842714488
 30
0.0
 10
17.4636761216
 20
10.2531096736
 30
0.0
 10
17.4009064108
 20
10.2903751861
 30
0.0
 10
17.3661850944
 20
10.3077358443
 30
0.0
 11
17.6004996695
 21
10.0248931318
 31
0.0
 11
17.5851183267
 21
10.1029317531
 31
0.0
 11
17.5396115427
 21
10.1779555421
 31
0.0
 11
17.465635833
 21
10.2471370741
 31
0.0
 11
17.3661850944
 21
10.3077358443
 31
0.0
  0
SPLINE
  5
486
100
AcDbEntity
  8
RACCORDO
100
AcDbSpline
 62
7
  6
CONTINUOUS
 70
0
 71
3
 72
11
 73
7
 74
5
 42
0.0000001
 43
0.0000001
 44
0.0000000001
 12
0.0
 22
-0.3850294746
 32
0.0
 13
-0.3443808315
 23
-0.1721904157
 33
0.0
 40
0.0
 40
0.0
 40
0.0
 40
0.0
 40
0.2065815957
 40
0.4344769586
 40
0.6975326744
 40
1.0
 40
1.0
 40
1.0
 40
1.0
 10
17.6004996695
 20
0.9316263921
 30
0.0
 10
17.6004996695
 20
0.9051130577
 30
0.0
 10
17.5887753807
 20
0.8489268898
 30
0.0
 10
17.5398977323
 20
0.7722480752
 30
0.0
 10
17.4636761216
 20
0.7034098503
 30
0.0
 10
17.4009064108
 20
0.6661443378
 30
0.0
 10
17.3661850944
 20
0.6487836796
 30
0.0
 11
17.6004996695
 21
0.9316263921
 31
0.0
 11
17.5851183267
 21
0.8535877708
 31
0.0
 11
17.5396115427
 21
0.7785639818
 31
0.0
 11
17.465635833
 21
0.7093824498
 31
0.0
 11
17.3661850944
 21
0.6487836796
 31
0.0
  0
SPLINE
  5
487
100
AcDbEntity
  8
RACCORDO
100
AcDbSpline
 62
7
  6
CONTINUOUS
 70
0
 71
3
 72
11
 73
7
 74
5
 42
0.0000001
 43
0.0000001
 44
0.0000000001
 12
0.0
 22
0.2406396693
 32
0.0
 13
-0.2152346635
 23
0.1076173317
 33
0.0
 40
0.0
 40
0.0
 40
0.0
 40
0.0
 40
0.2065415608
 40
0.4344507387
 40
0.6977089754
 40
1.0
 40
1.0
 40
1.0
 40
1.0
 10
18.5732686466
 20
5.2021183829
 30
0.0
 10
18.5732686466
 20
5.2186857472
 30
0.0
 10
18.5659867866
 20
5.2538075277
 30
0.0
 10
18.5354124187
 20
5.3017430529
 30
0.0
 10
18.4877532898
 20
5.3447408795
 30
0.0
 10
18.4485331018
 20
5.3680511603
 30
0.0
 10
18.4268452662
 20
5.3788950782
 30
0.0
 11
18.5732686466
 21
5.2021183829
 31
0.0
 11
18.5636878641
 21
5.2508883187
 31
0.0
 11
18.535243599
 21
5.2977795432
 31
0.0
 11
18.4889601207
 21
5.3410358683
 31
0.0
 11
18.4268452662
 21
5.3788950782
 31
0.0
  0
SPLINE
  5
488
100
AcDbEntity
  8
RACCORDO
100
AcDbSpline
 62
7
  6
CONTINUOUS
 70
0
 71
3
 72
11
 73
7
 74
5
 42
0.0000001
 43
0.0000001
 44
0.0000000001
 12
0.0
 22
-0.2406396693
 32
0.0
 13
-0.2152346635
 23
-0.1076173317
 33
0.0
 40
0.0
 40
0.0
 40
0.0
 40
0.0
 40
0.2065415608
 40
0.4344507387
 40
0.6977089754
 40
1.0
 40
1.0
 40
1.0
 40
1.0
 10
18.5732686466
 20
3.1236574138
 30
0.0
 10
18.5732686466
 20
3.1070900495
 30
0.0
 10
18.5659867866
 20
3.071968269
 30
0.0
 10
18.5354124187
 20
3.0240327437
 30
0.0
 10
18.4877532898
 20
2.9810349171
 30
0.0
 10
18.4485331018
 20
2.9577246363
 30
0.0
 10
18.4268452662
 20
2.9468807185
 30
0.0
 11
18.5732686466
 21
3.1236574138
 31
0.0
 11
18.5636878641
 21
3.0748874779
 31
0.0
 11
18.535243599
 21
3.0279962534
 31
0.0
 11
18.4889601207
 21
2.9847399284
 31
0.0
 11
18.4268452662
 21
2.9468807185
 31
0.0
  0
SPLINE
  5
489
100
AcDbEntity
  8
RACCORDO
100
AcDbSpline
 62
7
  6
CONTINUOUS
 70
0
 71
3
 72
10
 73
6
 74
4
 42
0.0000001
 43
0.0000001
 44
0.0000000001
 12
0.2069409821
 22
0.103470491
 32
0.0
 13
0.2069113138
 23
-0.1035298062
 33
0.0
 40
0.0
 40
0.0
 40
0.0
 40
0.0
 40
0.5341177557
 40
0.7722915166
 40
1.0
 40
1.0
 40
1.0
 40
1.0
 10
6.5374138533
 20
6.9686003846
 30
0.0
 10
6.5742574709
 20
6.9870221935
 30
0.0
 10
6.6330303556
 20
7.0060815136
 30
0.0
 10
6.7107745498
 20
7.0021581403
 30
0.0
 10
6.7453905478
 20
6.9906146866
 30
0.0
 10
6.7610957016
 20
6.9827564815
 30
0.0
 11
6.5374138533
 21
6.9686003846
 31
0.0
 11
6.6561589105
 21
7.002819505
 31
0.0
 11
6.7111690401
 21
6.9995778268
 31
0.0
 11
6.7610957016
 21
6.9827564815
 31
0.0
  0
SPLINE
  5
48A
100
AcDbEntity
  8
RACCORDO
100
AcDbSpline
 62
7
  6
CONTINUOUS
 70
0
 71
3
 72
11
 73
7
 74
5
 42
0.0000001
 43
0.0000001
 44
0.0000000001
 12
-0.0134989154
 22
0.2908396361
 32
0.0
 13
-0.2603739262
 23
0.1302894208
 33
0.0
 40
0.0
 40
0.0
 40
0.0
 40
0.0
 40
0.2870014901
 40
0.5458456317
 40
0.7801546801
 40
1.0
 40
1.0
 40
1.0
 40
1.0
 10
8.2630599381
 20
8.4616604327
 30
0.0
 10
8.2617685351
 20
8.4894842357
 30
0.0
 10
8.2548660053
 20
8.542387631
 30
0.0
 10
8.2291433833
 20
8.6143481063
 30
0.0
 10
8.1890043619
 20
8.6718889329
 30
0.0
 10
8.152828113
 20
8.6987528617
 30
0.0
 10
8.13374745
 20
8.7083007015
 30
0.0
 11
8.2630599381
 21
8.4616604327
 31
0.0
 11
8.2514427397
 21
8.5444102141
 31
0.0
 11
8.2251654881
 21
8.6150438808
 31
0.0
 11
8.1853661982
 21
8.6704509809
 31
0.0
 11
8.13374745
 21
8.7083007015
 31
0.0
  0
SPLINE
  5
48B
100
AcDbEntity
  8
RACCORDO
100
AcDbSpline
 62
7
  6
CONTINUOUS
 70
0
 71
3
 72
11
 73
7
 74
5
 42
0.0000001
 43
0.0000001
 44
0.0000000001
 12
0.0
 22
0.6296136271
 32
0.0
 13
-0.5631211483
 23
0.2816165687
 33
0.0
 40
0.0
 40
0.0
 40
0.0
 40
0.0
 40
0.2896875982
 40
0.5496054903
 40
0.7828341432
 40
1.0
 40
1.0
 40
1.0
 40
1.0
 10
16.8004996695
 20
10.633879827
 30
0.0
 10
16.8004996695
 20
10.6946769135
 30
0.0
 10
16.7906717444
 20
10.8104572962
 30
0.0
 10
16.7412263409
 20
10.9688207965
 30
0.0
 10
16.6585603555
 20
11.0955965867
 30
0.0
 10
16.5814540096
 20
11.1543105613
 30
0.0
 10
16.5406904474
 20
11.1746963958
 30
0.0
 11
16.8004996695
 21
10.633879827
 31
0.0
 11
16.7832255954
 21
10.8154512396
 31
0.0
 11
16.7322501734
 21
10.9709572655
 31
0.0
 11
16.6500704731
 21
11.0926521258
 31
0.0
 11
16.5406904474
 21
11.1746963958
 31
0.0
  0
SPLINE
  5
48C
100
AcDbEntity
  8
RACCORDO
100
AcDbSpline
 62
7
  6
CONTINUOUS
 70
0
 71
3
 72
11
 73
7
 74
5
 42
0.0000001
 43
0.0000001
 44
0.0000000001
 12
0.4149173596
 22
0.2074586798
 32
0.0
 13
0.4149008558
 23
-0.207491684
 33
0.0
 40
0.0
 40
0.0
 40
0.0
 40
0.0
 40
0.2790800201
 40
0.535374006
 40
0.7728986117
 40
1.0
 40
1.0
 40
1.0
 40
1.0
 10
15.0327327165
 20
11.6766819261
 30
0.0
 10
15.0713310982
 20
11.6959811169
 30
0.0
 10
15.1485778509
 20
11.7271735442
 30
0.0
 10
15.2669315733
 20
11.749456197
 30
0.0
 10
15.3794260783
 20
11.7438080651
 30
0.0
 10
15.4486220888
 20
11.7207336982
 30
0.0
 10
15.4800302756
 20
11.7050264817
 30
0.0
 11
15.0327327165
 21
11.6766819261
 31
0.0
 11
15.1531521777
 21
11.7242192575
 31
0.0
 11
15.2701932427
 21
11.7451202778
 31
0.0
 11
15.3801886499
 21
11.7386474188
 31
0.0
 11
15.4800302756
 21
11.7050264817
 31
0.0
  0
SPLINE
  5
48D
100
AcDbEntity
  8
RACCORDO
100
AcDbSpline
 62
7
  6
CONTINUOUS
 70
0
 71
3
 72
11
 73
7
 74
5
 42
0.0000001
 43
0.0000001
 44
0.0000000001
 12
0.0
 22
1.1745747747
 32
0.0
 13
1.0505716164
 23
0.5252858082
 33
0.0
 40
0.0
 40
0.0
 40
0.0
 40
0.0
 40
0.2468124806
 40
0.5117852459
 40
0.7703059488
 40
1.0
 40
1.0
 40
1.0
 40
1.0
 10
10.9315133856
 20
8.9332519376
 30
0.0
 10
10.9315133856
 20
9.0298851755
 30
0.0
 10
10.9648616774
 20
9.2306061807
 30
0.0
 10
11.0856103752
 20
9.5097507871
 30
0.0
 10
11.2630743078
 20
9.748456389
 30
0.0
 10
11.416762127
 20
9.8686966313
 30
0.0
 10
11.4971988106
 20
9.9089149731
 30
0.0
 11
10.9315133856
 21
8.9332519376
 31
0.0
 11
10.9745804637
 21
9.2199348127
 31
0.0
 11
11.0971988106
 21
9.5059925986
 31
0.0
 11
11.2807052842
 21
9.7479220269
 31
0.0
 11
11.4971988106
 21
9.9089149731
 31
0.0
  0
SPLINE
  5
48E
100
AcDbEntity
  8
RACCORDO
100
AcDbSpline
 62
7
  6
CONTINUOUS
 70
0
 71
3
 72
11
 73
7
 74
5
 42
0.0000001
 43
0.0000001
 44
0.0000000001
 12
0.0
 22
0.6296136271
 32
0.0
 13
-0.5631211483
 23
0.2816165687
 33
0.0
 40
0.0
 40
0.0
 40
0.0
 40
0.0
 40
0.2896875982
 40
0.5496054903
 40
0.7828341432
 40
1.0
 40
1.0
 40
1.0
 40
1.0
 10
7.3959794797
 20
15.3361399219
 30
0.0
 10
7.3959794797
 20
15.3969370083
 30
0.0
 10
7.3861515546
 20
15.5127173911
 30
0.0
 10
7.3367061511
 20
15.6710808914
 30
0.0
 10
7.2540401657
 20
15.7978566816
 30
0.0
 10
7.1769338198
 20
15.8565706562
 30
0.0
 10
7.1361702576
 20
15.8769564907
 30
0.0
 11
7.3959794797
 21
15.3361399219
 31
0.0
 11
7.3787054056
 21
15.5177113345
 31
0.0
 11
7.3277299836
 21
15.6732173604
 31
0.0
 11
7.2455502833
 21
15.7949122207
 31
0.0
 11
7.1361702576
 21
15.8769564907
 31
0.0
  0
SPLINE
  5
48F
100
AcDbEntity
  8
RACCORDO
100
AcDbSpline
 62
7
  6
CONTINUOUS
 70
0
 71
3
 72
11
 73
7
 74
5
 42
0.0000001
 43
0.0000001
 44
0.0000000001
 12
0.4149173596
 22
0.2074586798
 32
0.0
 13
0.4149008558
 23
-0.207491684
 33
0.0
 40
0.0
 40
0.0
 40
0.0
 40
0.0
 40
0.2790800201
 40
0.535374006
 40
0.7728986117
 40
1.0
 40
1.0
 40
1.0
 40
1.0
 10
5.6282125267
 20
16.378942021
 30
0.0
 10
5.6668109084
 20
16.3982412118
 30
0.0
 10
5.7440576611
 20
16.4294336391
 30
0.0
 10
5.8624113835
 20
16.4517162919
 30
0.0
 10
5.9749058885
 20
16.44606816
 30
0.0
 10
6.044101899
 20
16.4229937931
 30
0.0
 10
6.0755100858
 20
16.4072865766
 30
0.0
 11
5.6282125267
 21
16.378942021
 31
0.0
 11
5.7486319879
 21
16.4264793524
 31
0.0
 11
5.8656730529
 21
16.4473803727
 31
0.0
 11
5.9756684602
 21
16.4409075137
 31
0.0
 11
6.0755100858
 21
16.4072865766
 31
0.0
  0
SPLINE
  5
490
100
AcDbEntity
  8
RACCORDO
100
AcDbSpline
 62
7
  6
CONTINUOUS
 70
0
 71
3
 72
10
 73
6
 74
4
 42
0.0000001
 43
0.0000001
 44
0.0000000001
 12
-0.6851098487
 22
0.0453891454
 32
0.0
 13
-0.6141242085
 23
-0.3070621042
 33
0.0
 40
0.0
 40
0.0
 40
0.0
 40
0.0
 40
0.527710216
 40
0.7753861132
 40
1.0
 40
1.0
 40
1.0
 40
1.0
 10
5.3090141261
 20
16.2196977346
 30
0.0
 10
5.1885009707
 20
16.2276818398
 30
0.0
 10
5.0090387815
 20
16.2196967369
 30
0.0
 10
4.7856358498
 20
16.1681391623
 30
0.0
 10
4.6842433082
 20
16.1290015876
 30
0.0
 10
4.6382630331
 20
16.1060114501
 30
0.0
 11
5.3090141261
 21
16.2196977346
 31
0.0
 11
4.9471148292
 21
16.2019946838
 31
0.0
 11
4.7816163299
 21
16.1628834241
 31
0.0
 11
4.6382630331
 21
16.1060114501
 31
0.0
  0
SPLINE
  5
491
100
AcDbEntity
  8
RACCORDO
100
AcDbSpline
 62
7
  6
CONTINUOUS
 70
0
 71
3
 72
11
 73
7
 74
5
 42
0.0000001
 43
0.0000001
 44
0.0000000001
 12
-1.0505716164
 22
-0.5252858082
 32
0.0
 13
0.0
 23
-1.1745747747
 33
0.0
 40
0.0
 40
0.0
 40
0.0
 40
0.0
 40
0.2296940512
 40
0.4882147541
 40
0.7531875194
 40
1.0
 40
1.0
 40
1.0
 40
1.0
 10
12.5578589823
 20
9.3785848872
 30
0.0
 10
12.4774222988
 20
9.3383665454
 30
0.0
 10
12.3237344796
 20
9.2181263031
 30
0.0
 10
12.1462705469
 20
8.9794207012
 30
0.0
 10
12.0255218492
 20
8.7002760948
 30
0.0
 10
11.9921735574
 20
8.4995550897
 30
0.0
 10
11.9921735574
 20
8.4029218517
 30
0.0
 11
12.5578589823
 21
9.3785848872
 31
0.0
 11
12.341365456
 21
9.217591941
 31
0.0
 11
12.1578589823
 21
8.9756625127
 31
0.0
 11
12.0352406355
 21
8.6896047268
 31
0.0
 11
11.9921735574
 21
8.4029218517
 31
0.0
  0
SPLINE
  5
492
100
AcDbEntity
  8
RACCORDO
100
AcDbSpline
 62
7
  6
CONTINUOUS
 70
0
 71
3
 72
11
 73
7
 74
5
 42
0.0000001
 43
0.0000001
 44
0.0000000001
 12
-0.4149008558
 22
0.207491684
 32
0.0
 13
-0.4149173596
 23
-0.2074586798
 33
0.0
 40
0.0
 40
0.0
 40
0.0
 40
0.0
 40
0.2271013883
 40
0.464625994
 40
0.7209199799
 40
1.0
 40
1.0
 40
1.0
 40
1.0
 10
16.5406904474
 20
11.1746963958
 30
0.0
 10
16.5092822606
 20
11.1904036123
 30
0.0
 10
16.4400862501
 20
11.2134779792
 30
0.0
 10
16.3275917451
 20
11.2191261112
 30
0.0
 10
16.2092380227
 20
11.1968434583
 30
0.0
 10
16.13199127
 20
11.165651031
 30
0.0
 10
16.0933928883
 20
11.1463518402
 30
0.0
 11
16.5406904474
 21
11.1746963958
 31
0.0
 11
16.4408488217
 21
11.2083173329
 31
0.0
 11
16.3308534145
 21
11.2147901919
 31
0.0
 11
16.2138123495
 21
11.1938891716
 31
0.0
 11
16.0933928883
 21
11.1463518402
 31
0.0
  0
SPLINE
  5
493
100
AcDbEntity
  8
RACCORDO
100
AcDbSpline
 62
7
  6
CONTINUOUS
 70
0
 71
3
 72
11
 73
7
 74
5
 42
0.0000001
 43
0.0000001
 44
0.0000000001
 12
-0.4149008558
 22
0.207491684
 32
0.0
 13
-0.4149173596
 23
-0.2074586798
 33
0.0
 40
0.0
 40
0.0
 40
0.0
 40
0.0
 40
0.2271013883
 40
0.464625994
 40
0.7209199799
 40
1.0
 40
1.0
 40
1.0
 40
1.0
 10
7.1361702576
 20
15.8769564907
 30
0.0
 10
7.1047620708
 20
15.8926637072
 30
0.0
 10
7.0355660603
 20
15.9157380741
 30
0.0
 10
6.9230715553
 20
15.921386206
 30
0.0
 10
6.8047178329
 20
15.8991035532
 30
0.0
 10
6.7274710802
 20
15.8679111259
 30
0.0
 10
6.6888726985
 20
15.8486119351
 30
0.0
 11
7.1361702576
 21
15.8769564907
 31
0.0
 11
7.0363286319
 21
15.9105774278
 31
0.0
 11
6.9263332247
 21
15.9170502868
 31
0.0
 11
6.8092921597
 21
15.8961492665
 31
0.0
 11
6.6888726985
 21
15.8486119351
 31
0.0
  0
SPLINE
  5
494
100
AcDbEntity
  8
RACCORDO
100
AcDbSpline
 62
7
  6
CONTINUOUS
 70
0
 71
3
 72
11
 73
7
 74
5
 42
0.0000001
 43
0.0000001
 44
0.0000000001
 12
0.2152346635
 22
0.1076173317
 32
0.0
 13
0.0
 23
0.2406396693
 33
0.0
 40
0.0
 40
0.0
 40
0.0
 40
0.0
 40
0.3022910246
 40
0.5655492613
 40
0.7934584392
 40
1.0
 40
1.0
 40
1.0
 40
1.0
 10
18.4268452662
 20
5.0253416876
 30
0.0
 10
18.4485331018
 20
5.0361856054
 30
0.0
 10
18.4877532898
 20
5.0594958862
 30
0.0
 10
18.5354124187
 20
5.1024937128
 30
0.0
 10
18.5659867866
 20
5.1504292381
 30
0.0
 10
18.5732686466
 20
5.1855510186
 30
0.0
 10
18.5732686466
 20
5.2021183829
 30
0.0
 11
18.4268452662
 21
5.0253416876
 31
0.0
 11
18.4889601207
 21
5.0632008975
 31
0.0
 11
18.535243599
 21
5.1064572225
 31
0.0
 11
18.5636878641
 21
5.153348447
 31
0.0
 11
18.5732686466
 21
5.2021183829
 31
0.0
  0
SPLINE
  5
495
100
AcDbEntity
  8
RACCORDO
100
AcDbSpline
 62
7
  6
CONTINUOUS
 70
0
 71
3
 72
11
 73
7
 74
5
 42
0.0000001
 43
0.0000001
 44
0.0000000001
 12
0.3443808315
 22
0.1721904157
 32
0.0
 13
0.0
 23
0.3850294746
 33
0.0
 40
0.0
 40
0.0
 40
0.0
 40
0.0
 40
0.3024673256
 40
0.5655230414
 40
0.7934184043
 40
1.0
 40
1.0
 40
1.0
 40
1.0
 10
17.3661850944
 20
9.7420504194
 30
0.0
 10
17.4009064108
 20
9.7594110776
 30
0.0
 10
17.4636761216
 20
9.7966765901
 30
0.0
 10
17.5398977323
 20
9.8655148149
 30
0.0
 10
17.5887753807
 20
9.9421936296
 30
0.0
 10
17.6004996695
 20
9.9983797974
 30
0.0
 10
17.6004996695
 20
10.0248931318
 30
0.0
 11
17.3661850944
 21
9.7420504194
 31
0.0
 11
17.465635833
 21
9.8026491896
 31
0.0
 11
17.5396115427
 21
9.8718307216
 31
0.0
 11
17.5851183267
 21
9.9468545106
 31
0.0
 11
17.6004996695
 21
10.0248931318
 31
0.0
  0
SPLINE
  5
496
100
AcDbEntity
  8
RACCORDO
100
AcDbSpline
 62
7
  6
CONTINUOUS
 70
0
 71
3
 72
10
 73
6
 74
4
 42
0.0000001
 43
0.0000001
 44
0.0000000001
 12
-0.2069218951
 22
0.1035423718
 32
0.0
 13
-0.2069544751
 23
-0.1034772375
 33
0.0
 40
0.0
 40
0.0
 40
0.0
 40
0.0
 40
0.2277156247
 40
0.4658841797
 40
1.0
 40
1.0
 40
1.0
 40
1.0
 10
8.13374745
 20
8.7083007015
 30
0.0
 10
8.1180410005
 20
8.7161601068
 30
0.0
 10
8.0834225463
 20
8.7277039774
 30
0.0
 10
8.0056737696
 20
8.7316327206
 30
0.0
 10
7.9468967812
 20
8.7125723331
 30
0.0
 10
7.9100508948
 20
8.6941493899
 30
0.0
 11
8.13374745
 21
8.7083007015
 31
0.0
 11
8.083816191
 21
8.7251243352
 31
0.0
 11
8.0288038254
 21
8.7283686697
 31
0.0
 11
7.9100508948
 21
8.6941493899
 31
0.0
  0
SPLINE
  5
497
100
AcDbEntity
  8
RACCORDO
100
AcDbSpline
 62
7
  6
CONTINUOUS
 70
0
 71
3
 72
11
 73
7
 74
5
 42
0.0000001
 43
0.0000001
 44
0.0000000001
 12
0.2814990134
 22
-0.1408503854
 32
0.0
 13
0.0
 23
-0.314770592
 33
0.0
 40
0.0
 40
0.0
 40
0.0
 40
0.0
 40
0.21716015
 40
0.4504032616
 40
0.7103321268
 40
1.0
 40
1.0
 40
1.0
 40
1.0
 10
6.7610957016
 20
6.9827564815
 30
0.0
 10
6.7814724909
 20
6.9725607846
 30
0.0
 10
6.8200174102
 20
6.9432011386
 30
0.0
 10
6.8613375172
 20
6.8798132715
 30
0.0
 10
6.8860568329
 20
6.8006402966
 30
0.0
 10
6.8909672439
 20
6.742757354
 30
0.0
 10
6.8909672439
 20
6.712364378
 30
0.0
 11
6.7610957016
 21
6.9827564815
 31
0.0
 11
6.8157712953
 21
6.9417312275
 31
0.0
 11
6.8568516278
 21
6.8808820729
 31
0.0
 11
6.8823343672
 21
6.8031337029
 31
0.0
 11
6.8909672439
 21
6.712364378
 31
0.0
  0
SPLINE
  5
498
100
AcDbEntity
  8
RACCORDO
100
AcDbSpline
 62
7
  6
CONTINUOUS
 70
0
 71
3
 72
10
 73
6
 74
4
 42
0.0000001
 43
0.0000001
 44
0.0000000001
 12
0.3347768331
 22
0.1674476807
 32
0.0
 13
0.3348005421
 23
-0.1674002711
 33
0.0
 40
0.0
 40
0.0
 40
0.0
 40
0.0
 40
0.2302899068
 40
0.4694019161
 40
1.0
 40
1.0
 40
1.0
 40
1.0
 10
-17.4146831441
 20
9.3125261141
 30
0.0
 10
-17.3889845689
 20
9.3253799511
 30
0.0
 10
-17.3326654126
 20
9.3444052139
 30
0.0
 10
-17.206955305
 20
9.3517209185
 30
0.0
 10
-17.1119051164
 20
9.3215346616
 30
0.0
 10
-17.0526902743
 20
9.2919272406
 30
0.0
 11
-17.4146831441
 21
9.3125261141
 31
0.0
 11
-17.3330765775
 21
9.3402949692
 31
0.0
 11
-17.2437630883
 21
9.346131962
 31
0.0
 11
-17.0526902743
 21
9.2919272406
 31
0.0
  0
SPLINE
  5
499
100
AcDbEntity
  8
RACCORDO
100
AcDbSpline
 62
7
  6
CONTINUOUS
 70
0
 71
3
 72
9
 73
5
 74
3
 42
0.0000001
 43
0.0000001
 44
0.0000000001
 12
-0.1379238484
 22
-0.0689740637
 32
0.0
 13
-0.0649403201
 23
-0.1398683818
 33
0.0
 40
0.0
 40
0.0
 40
0.0
 40
0.0
 40
0.4808321681
 40
1.0
 40
1.0
 40
1.0
 40
1.0
 10
-17.2852881987
 20
9.0418144063
 30
0.0
 10
-17.3073942731
 20
9.0307594234
 30
0.0
 10
-17.3491991934
 20
8.9986231019
 30
0.0
 10
-17.3772270962
 20
8.9544206235
 30
0.0
 10
-17.3884654046
 20
8.9302155687
 30
0.0
 11
-17.2852881987
 21
9.0418144063
 31
0.0
 11
-17.3444113334
 21
8.9970653788
 31
0.0
 11
-17.3884654046
 21
8.9302155687
 31
0.0
  0
SPLINE
  5
49A
100
AcDbEntity
  8
RACCORDO
100
AcDbSpline
 62
7
  6
CONTINUOUS
 70
0
 71
3
 72
9
 73
5
 74
3
 42
0.0000001
 43
0.0000001
 44
0.0000000001
 12
-0.0702381599
 22
-0.1512788625
 32
0.0
 13
-0.0033111934
 23
-0.1667564972
 33
0.0
 40
0.0
 40
0.0
 40
0.0
 40
0.0
 40
0.232655721
 40
1.0
 40
1.0
 40
1.0
 40
1.0
 10
-17.3884654046
 20
8.9302155687
 30
0.0
 10
-17.3939125079
 20
8.9184836044
 30
0.0
 10
-17.4140679811
 20
8.8665445351
 30
0.0
 10
-17.4218086654
 20
8.8103308564
 30
0.0
 10
-17.4226556072
 20
8.7676776417
 30
0.0
 11
-17.3884654046
 21
8.9302155687
 31
0.0
 11
-17.402619084
 21
8.8940843822
 31
0.0
 11
-17.4226556072
 21
8.7676776417
 31
0.0
  0
SPLINE
  5
49B
100
AcDbEntity
  8
RACCORDO
100
AcDbSpline
 62
7
  6
CONTINUOUS
 70
0
 71
3
 72
10
 73
6
 74
4
 42
0.0000001
 43
0.0000001
 44
0.0000000001
 12
0.0
 22
-0.1821555335
 32
0.0
 13
-0.1554888599
 23
-0.0948886337
 33
0.0
 40
0.0
 40
0.0
 40
0.0
 40
0.0
 40
0.5468079016
 40
0.7821197639
 40
1.0
 40
1.0
 40
1.0
 40
1.0
 10
8.6008925845
 20
18.8446056682
 30
0.0
 10
8.6008925845
 20
18.8114043065
 30
0.0
 10
8.5937202618
 20
18.7625145441
 30
0.0
 10
8.5624571869
 20
18.7096491508
 30
0.0
 10
8.5413909649
 20
18.6910192296
 30
0.0
 10
8.5300983151
 20
18.684127777
 30
0.0
 11
8.6008925845
 21
18.8446056682
 31
0.0
 11
8.5824178419
 21
18.7467299427
 31
0.0
 11
8.5600524949
 21
18.7101641295
 31
0.0
 11
8.5300983151
 21
18.684127777
 31
0.0
  0
SPLINE
  5
49C
100
AcDbEntity
  8
RACCORDO
100
AcDbSpline
 62
7
  6
CONTINUOUS
 70
0
 71
3
 72
13
 73
9
 74
7
 42
0.0000001
 43
0.0000001
 44
0.0000000001
 12
0.5367922624
 22
0.209844572
 32
0.0
 13
0.0
 23
-0.5763511754
 33
0.0
 40
0.0
 40
0.0
 40
0.0
 40
0.0
 40
0.0912694978
 40
0.1938279632
 40
0.3115398873
 40
0.4432644389
 40
0.7281092038
 40
1.0
 40
1.0
 40
1.0
 40
1.0
 10
8.2597908694
 20
-15.4205939846
 30
0.0
 10
8.2761217895
 20
-15.4142098484
 30
0.0
 10
8.3143437448
 20
-15.4089739864
 30
0.0
 10
8.3732946241
 20
-15.4242498956
 30
0.0
 10
8.4319955163
 20
-15.4592126025
 30
0.0
 10
8.5069743855
 20
-15.5302456551
 30
0.0
 10
8.5762618198
 20
-15.6457493799
 30
0.0
 10
8.6008925845
 20
-15.7527409853
 30
0.0
 10
8.6008925845
 20
-15.8049758453
 30
0.0
 11
8.2597908694
 21
-15.4205939846
 31
0.0
 11
8.3117750418
 21
-15.4125471755
 31
0.0
 11
8.369354826
 21
-15.4259084686
 31
0.0
 11
8.4281904876
 21
-15.4596885313
 31
0.0
 11
8.4838327075
 21
-15.5113385947
 31
0.0
 11
8.5693460332
 21
-15.6514794594
 31
0.0
 11
8.6008925845
 21
-15.8049758453
 31
0.0
  0
SPLINE
  5
49D
100
AcDbEntity
  8
0
100
AcDbSpline
 62
7
  6
CONTINUOUS
 70
0
 71
3
 72
8
 73
4
 74
2
 42
0.0000001
 43
0.0000001
 44
0.0000000001
 12
0.0
 22
-0.1342672156
 32
0.0
 13
-0.0694512804
 23
-0.1149095507
 33
0.0
 40
0.0
 40
0.0
 40
0.0
 40
0.0
 40
1.0
 40
1.0
 40
1.0
 40
1.0
 10
-9.5044483259
 20
23.392336148
 30
0.0
 10
-9.5044483259
 20
23.3475804095
 30
0.0
 10
-9.5173382554
 20
23.3012995546
 30
0.0
 10
-9.5404886822
 20
23.262996371
 30
0.0
 11
-9.5044483259
 21
23.392336148
 31
0.0
 11
-9.5404886822
 21
23.262996371
 31
0.0
  0
SPLINE
  5
49E
100
AcDbEntity
  8
0
100
AcDbSpline
 62
7
  6
CONTINUOUS
 70
0
 71
3
 72
8
 73
4
 74
2
 42
0.0000001
 43
0.0000001
 44
0.0000000001
 12
0.0861007395
 22
-0.0674674098
 32
0.0
 13
0.0489774714
 23
-0.0978079548
 33
0.0
 40
0.0
 40
0.0
 40
0.0
 40
0.0
 40
1.0
 40
1.0
 40
1.0
 40
1.0
 10
2.7034754886
 20
-23.8623905428
 30
0.0
 10
2.7321757351
 20
-23.8848796794
 30
0.0
 10
2.7563827329
 20
-23.9144753815
 30
0.0
 10
2.7727085567
 20
-23.9470780331
 30
0.0
 11
2.7034754886
 21
-23.8623905428
 31
0.0
 11
2.7727085567
 21
-23.9470780331
 31
0.0
  0
SPLINE
  5
49F
100
AcDbEntity
  8
0
100
AcDbSpline
 62
7
  6
CONTINUOUS
 70
0
 71
3
 72
8
 73
4
 74
2
 42
0.0000001
 43
0.0000001
 44
0.0000000001
 12
0.0515533437
 22
-0.1029519688
 32
0.0
 13
-0.0000107715
 23
-0.1151384167
 33
0.0
 40
0.0
 40
0.0
 40
0.0
 40
0.0
 40
1.0
 40
1.0
 40
1.0
 40
1.0
 10
2.7727085567
 20
-23.9470780331
 30
0.0
 10
2.7898930046
 20
-23.981395356
 30
0.0
 10
2.7992162314
 20
-24.0207449291
 30
0.0
 10
2.7992126409
 20
-24.0591244014
 30
0.0
 11
2.7727085567
 21
-23.9470780331
 31
0.0
 11
2.7992126409
 21
-24.0591244014
 31
0.0
  0
SPLINE
  5
4A0
100
AcDbEntity
  8
0
100
AcDbSpline
 62
7
  6
CONTINUOUS
 70
0
 71
3
 72
8
 73
4
 74
2
 42
0.0000001
 43
0.0000001
 44
0.0000000001
 12
0.0543607661
 22
-0.0198481506
 32
0.0
 13
0.0517650045
 23
-0.0258732734
 33
0.0
 40
0.0
 40
0.0
 40
0.0
 40
0.0
 40
1.0
 40
1.0
 40
1.0
 40
1.0
 10
3.0329570367
 20
21.9910748947
 30
0.0
 10
3.0510772921
 20
21.9844588445
 30
0.0
 10
3.0688039908
 20
21.976694444
 30
0.0
 10
3.0860589923
 20
21.9680700195
 30
0.0
 11
3.0329570367
 21
21.9910748947
 31
0.0
 11
3.0860589923
 21
21.9680700195
 31
0.0
  0
SPLINE
  5
4A1
100
AcDbEntity
  8
0
100
AcDbSpline
 62
7
  6
CONTINUOUS
 70
0
 71
3
 72
8
 73
4
 74
2
 42
0.0000001
 43
0.0000001
 44
0.0000000001
 12
0.0329040484
 22
0.0122680275
 32
0.0
 13
0.0345005407
 23
0.0065493199
 33
0.0
 40
0.0
 40
0.0
 40
0.0
 40
0.0
 40
1.0
 40
1.0
 40
1.0
 40
1.0
 10
-2.7555882637
 20
24.7958215742
 30
0.0
 10
-2.7446202476
 20
24.7999109167
 30
0.0
 10
-2.7332498008
 20
24.8030260726
 30
0.0
 10
-2.7217496206
 20
24.8052091793
 30
0.0
 11
-2.7555882637
 21
24.7958215742
 31
0.0
 11
-2.7217496206
 21
24.8052091793
 31
0.0
  0
SPLINE
  5
4A2
100
AcDbEntity
  8
0
100
AcDbSpline
 62
7
  6
CONTINUOUS
 70
0
 71
3
 72
9
 73
5
 74
3
 42
0.0000001
 43
0.0000001
 44
0.0000000001
 12
0.0623999173
 22
0.0118455251
 32
0.0
 13
0.0633791594
 23
-0.0041410509
 33
0.0
 40
0.0
 40
0.0
 40
0.0
 40
0.0
 40
0.2446357508
 40
1.0
 40
1.0
 40
1.0
 40
1.0
 10
-2.7217496206
 20
24.8052091793
 30
0.0
 10
-2.7166612037
 20
24.8061751256
 30
0.0
 10
-2.6957238383
 20
24.8093901627
 30
0.0
 10
-2.6743884605
 20
24.8097561016
 30
0.0
 10
-2.6584303434
 20
24.8087134344
 30
0.0
 11
-2.7217496206
 21
24.8052091793
 31
0.0
 11
-2.7063933278
 21
24.8075776427
 31
0.0
 11
-2.6584303434
 21
24.8087134344
 31
0.0
  0
SPLINE
  5
4A3
100
AcDbEntity
  8
0
100
AcDbSpline
 62
7
  6
CONTINUOUS
 70
0
 71
3
 72
9
 73
5
 74
3
 42
0.0000001
 43
0.0000001
 44
0.0000000001
 12
0.1609531497
 22
-0.0105163146
 32
0.0
 13
0.1442690579
 23
-0.0721314647
 33
0.0
 40
0.0
 40
0.0
 40
0.0
 40
0.0
 40
0.2395050636
 40
1.0
 40
1.0
 40
1.0
 40
1.0
 10
-2.6584303434
 20
24.8087134344
 30
0.0
 10
-2.6455806453
 20
24.8078738642
 30
0.0
 10
-2.5921565344
 20
24.8007950558
 30
0.0
 10
-2.5409068041
 20
24.7815520539
 30
0.0
 10
-2.5043348415
 20
24.7632668493
 30
0.0
 11
-2.6584303434
 21
24.8087134344
 31
0.0
 11
-2.6201146834
 21
24.8037852726
 31
0.0
 11
-2.5043348415
 21
24.7632668493
 31
0.0
  0
LINE
  5
4A4
100
AcDbEntity
  8
0
100
AcDbLine
 62
7
  6
CONTINUOUS
 10
-17.4303570706
 20
-8.1236684638
 11
-17.4337024405
 21
-7.9068339113
  0
LINE
  5
4A5
100
AcDbEntity
  8
0
100
AcDbLine
 62
7
  6
CONTINUOUS
 10
-4.2074602624
 20
-14.7351168679
 11
-4.2108056323
 21
-14.5182823154
  0
SPLINE
  5
4A6
100
AcDbEntity
  8
0
100
AcDbSpline
 62
7
  6
CONTINUOUS
 70
0
 71
3
 72
9
 73
5
 74
3
 42
0.0000001
 43
0.0000001
 44
0.0000000001
 12
-0.0000351102
 22
0.0098568031
 32
0.0
 13
-0.0088204142
 23
0.0043997833
 33
0.0
 40
0.0
 40
0.0
 40
0.0
 40
0.0
 40
0.490895114
 40
1.0
 40
1.0
 40
1.0
 40
1.0
 10
-1.9840650419
 20
24.4976748481
 30
0.0
 10
-1.984070787
 20
24.4992877336
 30
0.0
 10
-1.9848320784
 20
24.5027165971
 30
0.0
 10
-1.9875917372
 20
24.5048971531
 30
0.0
 10
-1.9890885759
 20
24.5056438035
 30
0.0
 11
-1.9840650419
 21
24.4976748481
 31
0.0
 11
-1.9852997781
 21
24.5023533436
 31
0.0
 11
-1.9890885759
 21
24.5056438035
 31
0.0
  0
SPLINE
  5
4A7
100
AcDbEntity
  8
0
100
AcDbSpline
 62
7
  6
CONTINUOUS
 70
0
 71
3
 72
9
 73
5
 74
3
 42
0.0000001
 43
0.0000001
 44
0.0000000001
 12
-0.0000310628
 22
0.0098532891
 32
0.0
 13
-0.008813579
 23
0.0044055756
 33
0.0
 40
0.0
 40
0.0
 40
0.0
 40
0.0
 40
0.4910210291
 40
1.0
 40
1.0
 40
1.0
 40
1.0
 10
3.6063816715
 20
21.7024462433
 30
0.0
 10
3.6063765873
 20
21.7040589674
 30
0.0
 10
3.6056177142
 20
21.7074868583
 30
0.0
 10
3.6028611714
 20
21.7096690489
 30
0.0
 10
3.6013658626
 20
21.7104164974
 30
0.0
 11
3.6063816715
 21
21.7024462433
 31
0.0
 11
3.6051497005
 21
21.70712496
 31
0.0
 11
3.6013658626
 21
21.7104164974
 31
0.0
  0
SPLINE
  5
4A8
100
AcDbEntity
  8
RACCORDO
100
AcDbSpline
 62
7
  6
CONTINUOUS
 70
0
 71
3
 72
11
 73
7
 74
5
 42
0.0000001
 43
0.0000001
 44
0.0000000001
 12
0.940685401
 22
-0.4703427005
 32
0.0
 13
0.1171167836
 23
-1.0451769891
 33
0.0
 40
0.0
 40
0.0
 40
0.0
 40
0.0
 40
0.2259935033
 40
0.4791233012
 40
0.7435330234
 40
1.0
 40
1.0
 40
1.0
 40
1.0
 10
-4.7490322817
 20
3.1400982442
 30
0.0
 10
-4.6781693519
 20
3.1046667793
 30
0.0
 10
-4.5417061386
 20
3.0015740811
 30
0.0
 10
-4.3789145705
 20
2.7953787643
 30
0.0
 10
-4.25942865
 20
2.5495804164
 30
0.0
 10
-4.2157624621
 20
2.3703111493
 30
0.0
 10
-4.2057502663
 20
2.2809600219
 30
0.0
 11
-4.7490322817
 21
3.1400982442
 31
0.0
 11
-4.5564571602
 21
3.0007881072
 31
0.0
 11
-4.389378414
 21
2.7935239401
 31
0.0
 11
-4.2676705975
 21
2.5434875156
 31
0.0
 11
-4.2057502663
 21
2.2809600219
 31
0.0
  0
SPLINE
  5
4A9
100
AcDbEntity
  8
RACCORDO
100
AcDbSpline
 62
7
  6
CONTINUOUS
 70
0
 71
3
 72
9
 73
5
 74
3
 42
0.0000001
 43
0.0000001
 44
0.0000000001
 12
0.0139112451
 22
-0.1241471361
 32
0.0
 13
-0.0024800616
 23
-0.1248994933
 33
0.0
 40
0.0
 40
0.0
 40
0.0
 40
0.0
 40
0.2558751888
 40
1.0
 40
1.0
 40
1.0
 40
1.0
 10
-4.2057502663
 20
2.2809600219
 30
0.0
 10
-4.2045637521
 20
2.2703712979
 30
0.0
 10
-4.20056399
 20
2.2289217549
 30
0.0
 10
-4.1991436406
 20
2.1872095082
 30
0.0
 10
-4.199758799
 20
2.1562292376
 30
0.0
 11
-4.2057502663
 21
2.2809600219
 31
0.0
 11
-4.2026857519
 21
2.2491422788
 31
0.0
 11
-4.199758799
 21
2.1562292376
 31
0.0
  0
SPLINE
  5
4AA
100
AcDbEntity
  8
RACCORDO
100
AcDbSpline
 62
7
  6
CONTINUOUS
 70
0
 71
3
 72
9
 73
5
 74
3
 42
0.0000001
 43
0.0000001
 44
0.0000000001
 12
0.0066987951
 22
-0.1115512554
 32
0.0
 13
-0.0102998355
 23
-0.1112765466
 33
0.0
 40
0.0
 40
0.0
 40
0.0
 40
0.0
 40
0.2580600185
 40
1.0
 40
1.0
 40
1.0
 40
1.0
 10
-4.057333736
 20
-18.7303730025
 30
0.0
 10
-4.0567575056
 20
-18.7399686422
 30
0.0
 10
-4.0551729027
 20
-18.7771857565
 30
0.0
 10
-4.0562306631
 20
-18.8145365483
 30
0.0
 10
-4.0587779497
 20
-18.8420567213
 30
0.0
 11
-4.057333736
 21
-18.7303730025
 31
0.0
 11
-4.0561156284
 21
-18.7591860428
 31
0.0
 11
-4.0587779497
 21
-18.8420567213
 31
0.0
  0
SPLINE
  5
4AB
100
AcDbEntity
  8
RACCORDO
100
AcDbSpline
 62
7
  6
CONTINUOUS
 70
0
 71
3
 72
11
 73
7
 74
5
 42
0.0000001
 43
0.0000001
 44
0.0000000001
 12
-0.0336778403
 22
-0.3638459837
 32
0.0
 13
-0.32680154
 23
-0.163459017
 33
0.0
 40
0.0
 40
0.0
 40
0.0
 40
0.0
 40
0.2850610747
 40
0.5417173367
 40
0.7763382439
 40
1.0
 40
1.0
 40
1.0
 40
1.0
 10
-4.0587779497
 20
-18.8420567213
 30
0.0
 10
-4.0619780301
 20
-18.876629497
 30
0.0
 10
-4.0733853585
 20
-18.9420719333
 30
0.0
 10
-4.1089889877
 20
-19.0305848369
 30
0.0
 10
-4.1617819887
 20
-19.1012487427
 30
0.0
 10
-4.2080037151
 20
-19.1344338092
 30
0.0
 10
-4.2323680505
 20
-19.1466203194
 30
0.0
 11
-4.0587779497
 21
-18.8420567213
 31
0.0
 11
-4.0777040897
 21
-18.9444845361
 31
0.0
 11
-4.1137514501
 21
-19.0310625368
 31
0.0
 11
-4.1658362747
 21
-19.0991576007
 31
0.0
 11
-4.2323680505
 21
-19.1466203194
 31
0.0
  0
LINE
  5
4AC
100
AcDbEntity
  8
RACCORDO
100
AcDbLine
 62
7
  6
CONTINUOUS
 10
-17.4226556072
 20
8.7676776417
 11
-17.4254410406
 21
8.6219540499
  0
LINE
  5
4AD
100
AcDbEntity
  8
RACCORDO
100
AcDbLine
 62
7
  6
CONTINUOUS
 10
-4.199758799
 20
2.1562292376
 11
-4.2025442259
 21
2.0105059996
  0
SPLINE
  5
4AE
100
AcDbEntity
  8
RACCORDO
100
AcDbSpline
 62
7
  6
CONTINUOUS
 70
0
 71
3
 72
10
 73
6
 74
4
 42
0.0000001
 43
0.0000001
 44
0.0000000001
 12
0.2012956573
 22
-0.1006478286
 32
0.0
 13
0.2012895358
 23
0.1006600707
 33
0.0
 40
0.0
 40
0.0
 40
0.0
 40
0.0
 40
0.5430576527
 40
0.7790026322
 40
1.0
 40
1.0
 40
1.0
 40
1.0
 10
-4.596784178
 20
-18.8674255004
 30
0.0
 10
-4.5603457956
 20
-18.8856446916
 30
0.0
 10
-4.503088746
 20
-18.9051085409
 30
0.0
 10
-4.4273978236
 20
-18.902752981
 30
0.0
 10
-4.394190134
 20
-18.8921233541
 30
0.0
 10
-4.3793619815
 20
-18.8847081505
 30
0.0
 11
-4.596784178
 21
-18.8674255004
 31
0.0
 11
-4.4796865668
 21
-18.9024312313
 31
0.0
 11
-4.4266340186
 21
-18.9001706428
 31
0.0
 11
-4.3793619815
 21
-18.8847081505
 31
0.0
  0
SPLINE
  5
4AF
100
AcDbEntity
  8
RACCORDO
100
AcDbSpline
 62
7
  6
CONTINUOUS
 70
0
 71
3
 72
11
 73
7
 74
5
 42
0.0000001
 43
0.0000001
 44
0.0000000001
 12
0.0439417543
 22
-0.7317372444
 32
0.0
 13
0.6556647147
 23
-0.3278323573
 33
0.0
 40
0.0
 40
0.0
 40
0.0
 40
0.0
 40
0.2426743677
 40
0.5074175482
 40
0.7682247895
 40
1.0
 40
1.0
 40
1.0
 40
1.0
 10
-17.2802305442
 20
-12.1189245984
 30
0.0
 10
-17.2766760317
 20
-12.1781158894
 30
0.0
 10
-17.2485699801
 20
-12.3007720608
 30
0.0
 10
-17.1648842914
 20
-12.4703486172
 30
0.0
 10
-17.0485546958
 20
-12.6160085486
 30
0.0
 10
-16.9510977797
 20
-12.6902686996
 30
0.0
 10
-16.9004421706
 20
-12.7155965041
 30
0.0
 11
-17.2802305442
 21
-12.1189245984
 31
0.0
 11
-17.2435781278
 21
-12.2930015694
 31
0.0
 11
-17.1584979549
 21
-12.4674294433
 31
0.0
 11
-17.0379856966
 21
-12.6158509569
 31
0.0
 11
-16.9004421706
 21
-12.7155965041
 31
0.0
  0
SPLINE
  5
4B0
100
AcDbEntity
  8
0
100
AcDbSpline
 62
7
  6
CONTINUOUS
 70
0
 71
3
 72
10
 73
6
 74
4
 42
0.0000001
 43
0.0000001
 44
0.0000000001
 12
0.3337797138
 22
0.4033469033
 32
0.0
 13
-0.2159583465
 23
0.4769272631
 33
0.0
 40
0.0
 40
0.0
 40
0.0
 40
0.0
 40
0.437339694
 40
0.7085619899
 40
1.0
 40
1.0
 40
1.0
 40
1.0
 10
3.4406831423
 20
20.7141380215
 30
0.0
 10
3.4893415149
 20
20.772937892
 30
0.0
 10
3.517317472
 20
20.906469412
 30
0.0
 10
3.4938812443
 20
21.0784299155
 30
0.0
 10
3.4616626325
 20
21.1723848306
 30
0.0
 10
3.4406831423
 20
21.2187164081
 30
0.0
 11
3.4406831423
 21
20.7141380215
 31
0.0
 11
3.5068921832
 21
20.9333226944
 31
0.0
 11
3.4899327863
 21
21.0743029069
 31
0.0
 11
3.4406831423
 21
21.2187164081
 31
0.0
  0
SPLINE
  5
4B1
100
AcDbEntity
  8
RACCORDO
100
AcDbSpline
 62
253
  6
CONTINUOUS
 70
0
 71
3
 72
15
 73
11
 74
9
 42
0.0000001
 43
0.0000001
 44
0.0000000001
 12
-0.3883410732
 22
-0.2215298029
 32
0.0
 13
0.399929036
 23
-0.1998524677
 33
0.0
 40
0.0
 40
0.0
 40
0.0
 40
0.0
 40
0.1500930291
 40
0.2826437627
 40
0.3991344756
 40
0.5054837915
 40
0.6107835806
 40
0.7245283673
 40
0.8535173535
 40
1.0
 40
1.0
 40
1.0
 40
1.0
 10
-0.8664689689
 20
16.232473276
 30
0.0
 10
-0.8858980648
 20
16.2213899163
 30
0.0
 10
-0.921038398
 20
16.1977215684
 30
0.0
 10
-0.9633061942
 20
16.1551955932
 30
0.0
 10
-0.9901769253
 20
16.1086460702
 30
0.0
 10
-0.9994538602
 20
16.0595190373
 30
0.0
 10
-0.9898547299
 20
16.0108293902
 30
0.0
 10
-0.9624467702
 20
15.9657811836
 30
0.0
 10
-0.9195639492
 20
15.9259440535
 30
0.0
 10
-0.8841507175
 20
15.9046567286
 30
0.0
 10
-0.864623163
 20
15.8948984225
 30
0.0
 11
-0.8664689689
 21
16.232473276
 31
0.0
 11
-0.9217505414
 21
16.1944348291
 31
0.0
 11
-0.9628700144
 21
16.1517605452
 31
0.0
 11
-0.9880610259
 21
16.1061770027
 31
0.0
 11
-0.9963963282
 21
16.0593662251
 31
0.0
 11
-0.9876107761
 21
16.0131153909
 31
0.0
 11
-0.9619722157
 21
15.9691979471
 31
0.0
 11
-0.9203813689
 21
15.92924914
 31
0.0
 11
-0.864623163
 21
15.8948984225
 31
0.0
  0
SPLINE
  5
4B2
100
AcDbEntity
  8
RACCORDO
100
AcDbSpline
 62
253
  6
CONTINUOUS
 70
0
 71
3
 72
9
 73
5
 74
3
 42
0.0000001
 43
0.0000001
 44
0.0000000001
 12
0.0000503036
 22
0.1991513152
 32
0.0
 13
-0.022644745
 23
0.1978597089
 33
0.0
 40
0.0
 40
0.0
 40
0.0
 40
0.0
 40
0.2445566719
 40
1.0
 40
1.0
 40
1.0
 40
1.0
 10
-4.9721742797
 20
-6.0083003789
 30
0.0
 10
-4.972170179
 20
-5.9920657846
 30
0.0
 10
-4.9731707144
 20
-5.9256840009
 30
0.0
 10
-4.9781133946
 20
-5.8593751813
 30
0.0
 10
-4.9838156684
 20
-5.809551249
 30
0.0
 11
-4.9721742797
 21
-6.0083003789
 31
0.0
 11
-4.9728953259
 21
-5.9596019322
 31
0.0
 11
-4.9838156684
 21
-5.809551249
 31
0.0
  0
SPLINE
  5
4B3
100
AcDbEntity
  8
RACCORDO
100
AcDbSpline
 62
253
  6
CONTINUOUS
 70
0
 71
3
 72
11
 73
7
 74
5
 42
0.0000001
 43
0.0000001
 44
0.0000000001
 12
-0.1967275004
 22
1.7189173912
 32
0.0
 13
-1.3652859555
 23
1.0627196088
 33
0.0
 40
0.0
 40
0.0
 40
0.0
 40
0.0
 40
0.2474222469
 40
0.505914869
 40
0.7613041457
 40
1.0
 40
1.0
 40
1.0
 40
1.0
 10
-4.9838156684
 20
-5.809551249
 30
0.0
 10
-5.0000405885
 20
-5.6677851146
 30
0.0
 10
-5.0657910097
 20
-5.3811393749
 30
0.0
 10
-5.2419448755
 20
-4.9765108723
 30
0.0
 10
-5.4847354319
 20
-4.6139948245
 30
0.0
 10
-5.6880037337
 20
-4.4105114017
 30
0.0
 10
-5.7966330995
 20
-4.3259558134
 30
0.0
 11
-4.9838156684
 21
-5.809551249
 31
0.0
 11
-5.0766246148
 21
-5.3916583638
 31
0.0
 11
-5.2545249733
 21
-4.9813361185
 31
0.0
 11
-5.5018422025
 21
-4.6151758106
 31
0.0
 11
-5.7966330995
 21
-4.3259558134
 31
0.0
  0
SPLINE
  5
4B4
100
AcDbEntity
  8
RACCORDO
100
AcDbSpline
 62
253
  6
CONTINUOUS
 70
0
 71
3
 72
9
 73
5
 74
3
 42
0.0000001
 43
0.0000001
 44
0.0000000001
 12
-0.2193091791
 22
0.1707072164
 32
0.0
 13
-0.2485640173
 23
0.1243117014
 33
0.0
 40
0.0
 40
0.0
 40
0.0
 40
0.0
 40
0.2595738889
 40
1.0
 40
1.0
 40
1.0
 40
1.0
 10
-5.7966330995
 20
-4.3259558134
 30
0.0
 10
-5.815608745
 20
-4.3111854347
 30
0.0
 10
-5.8899627475
 20
-4.2559311012
 30
0.0
 10
-5.9694262594
 20
-4.2073767583
 30
0.0
 10
-6.0307740222
 20
-4.1766955484
 30
0.0
 11
-5.7966330995
 21
-4.3259558134
 31
0.0
 11
-5.8545537317
 21
-4.2829517063
 31
0.0
 11
-6.0307740222
 21
-4.1766955484
 31
0.0
  0
SPLINE
  5
4B5
100
AcDbEntity
  8
RACCORDO
100
AcDbSpline
 62
253
  6
CONTINUOUS
 70
0
 71
3
 72
15
 73
11
 74
9
 42
0.0000001
 43
0.0000001
 44
0.0000000001
 12
-1.4698075072
 22
0.7346918754
 32
0.0
 13
-0.0008218106
 23
-1.6431998006
 33
0.0
 40
0.0
 40
0.0
 40
0.0
 40
0.0
 40
0.1347533126
 40
0.2570012026
 40
0.3701423711
 40
0.4800253981
 40
0.5934377577
 40
0.7160834993
 40
0.8513401548
 40
1.0
 40
1.0
 40
1.0
 40
1.0
 10
-15.9426822421
 20
0.7792585615
 30
0.0
 10
-16.0087027189
 20
0.8122592828
 30
0.0
 10
-16.1409148613
 20
0.8640016652
 30
0.0
 10
-16.34388212
 20
0.8923928953
 30
0.0
 10
-16.5339539616
 20
0.8644896246
 30
0.0
 10
-16.7012902147
 20
0.7797008702
 30
0.0
 10
-16.8365166256
 20
0.6427896799
 30
0.0
 10
-16.9345779167
 20
0.4620686491
 30
0.0
 10
-16.9934120206
 20
0.2456697228
 30
0.0
 10
-17.0053168781
 20
0.0897172247
 30
0.0
 10
-17.0053576015
 20
0.008291282
 30
0.0
 11
-15.9426822421
 21
0.7792585615
 31
0.0
 11
-16.1497439069
 21
0.8577138076
 31
0.0
 11
-16.3490122559
 21
0.8830907452
 31
0.0
 11
-16.5326986124
 21
0.8543996756
 31
0.0
 11
-16.6937768759
 21
0.7728176247
 31
0.0
 11
-16.8259981355
 21
0.6414887009
 31
0.0
 11
-16.9242846656
 21
0.4655492319
 31
0.0
 11
-16.9848497041
 21
0.251706767
 31
0.0
 11
-17.0053576015
 21
0.008291282
 31
0.0
  0
SPLINE
  5
4B6
100
AcDbEntity
  8
RACCORDO
100
AcDbSpline
 62
253
  6
CONTINUOUS
 70
0
 71
3
 72
11
 73
7
 74
5
 42
0.0000001
 43
0.0000001
 44
0.0000000001
 12
0.5852300107
 22
-0.2928473416
 32
0.0
 13
0.5714867888
 23
0.3188362921
 33
0.0
 40
0.0
 40
0.0
 40
0.0
 40
0.0
 40
0.233717506
 40
0.496573559
 40
0.7612407692
 40
1.0
 40
1.0
 40
1.0
 40
1.0
 10
0.8221425613
 20
15.0515155604
 30
0.0
 10
0.8677353941
 20
15.0287010436
 30
0.0
 10
0.9730803693
 20
14.9971971096
 30
0.0
 10
1.1397578262
 20
14.985870328
 30
0.0
 10
1.3065144906
 20
15.0076880603
 30
0.0
 10
1.4111995066
 20
15.0455227113
 30
0.0
 10
1.4566820886
 20
15.0708977473
 30
0.0
 11
0.8221425613
 21
15.0515155604
 31
0.0
 11
0.9676480551
 21
15.0043877713
 31
0.0
 11
1.1391861169
 21
14.9915753234
 31
0.0
 11
1.3108066248
 21
15.0149212476
 31
0.0
 11
1.4566820886
 21
15.0708977473
 31
0.0
  0
SPLINE
  5
4B7
100
AcDbEntity
  8
RACCORDO
100
AcDbSpline
 62
253
  6
CONTINUOUS
 70
0
 71
3
 72
10
 73
6
 74
4
 42
0.0000001
 43
0.0000001
 44
0.0000000001
 12
0.0000406213
 22
-0.1249947148
 32
0.0
 13
0.1118022175
 23
-0.0558922584
 33
0.0
 40
0.0
 40
0.0
 40
0.0
 40
0.0
 40
0.2185028044
 40
0.4507915579
 40
1.0
 40
1.0
 40
1.0
 40
1.0
 10
-0.8038150367
 20
16.2292254616
 30
0.0
 10
-0.803812078
 20
16.220121563
 30
0.0
 10
-0.8003708591
 20
16.2011755928
 30
0.0
 10
-0.7790750072
 20
16.1646365831
 30
0.0
 10
-0.751089025
 20
16.1451177053
 30
0.0
 10
-0.7306214511
 20
16.1348855386
 30
0.0
 11
-0.8038150367
 21
16.2292254616
 31
0.0
 11
-0.7990291371
 21
16.2023363566
 31
0.0
 11
-0.78482191
 21
16.1770148586
 31
0.0
 11
-0.7306214511
 21
16.1348855386
 31
0.0
  0
SPLINE
  5
4B8
100
AcDbEntity
  8
0
100
AcDbSpline
 62
253
  6
CONTINUOUS
 70
0
 71
3
 72
11
 73
7
 74
5
 42
0.0000001
 43
0.0000001
 44
0.0000000001
 12
-0.4160088913
 22
0.2406179417
 32
0.0
 13
-0.0620231803
 23
0.4765642839
 33
0.0
 40
0.0
 40
0.0
 40
0.0
 40
0.0
 40
0.2236798135
 40
0.4605518289
 40
0.7181011571
 40
1.0
 40
1.0
 40
1.0
 40
1.0
 10
-17.4400281627
 20
-17.849491424
 30
0.0
 10
-17.4710457598
 20
-17.8315509652
 30
0.0
 10
-17.5297085453
 20
-17.7849176861
 30
0.0
 10
-17.5979652667
 20
-17.6908922631
 30
0.0
 10
-17.6464794095
 20
-17.5754037884
 30
0.0
 10
-17.6642527424
 20
-17.4903154882
 30
0.0
 10
-17.6700808299
 20
-17.4455345148
 30
0.0
 11
-17.4400281627
 21
-17.849491424
 31
0.0
 11
-17.5245167028
 21
-17.7830290355
 31
0.0
 11
-17.5923049375
 21
-17.6915765226
 31
0.0
 11
-17.6413248113
 21
-17.5779233778
 31
0.0
 11
-17.6700808299
 21
-17.4455345148
 31
0.0
  0
SPLINE
  5
4B9
100
AcDbEntity
  8
0
100
AcDbSpline
 62
253
  6
CONTINUOUS
 70
0
 71
3
 72
11
 73
7
 74
5
 42
0.0000001
 43
0.0000001
 44
0.0000000001
 12
-0.0002556205
 22
-0.1190492571
 32
0.0
 13
-0.1062313157
 23
-0.0537373102
 33
0.0
 40
0.0
 40
0.0
 40
0.0
 40
0.0
 40
0.2069632709
 40
0.4351047998
 40
0.6978603879
 40
1.0
 40
1.0
 40
1.0
 40
1.0
 10
2.7992092644
 20
-24.4067631281
 30
0.0
 10
2.7991916297
 20
-24.4149760693
 30
0.0
 10
2.7955640971
 20
-24.4323655403
 30
0.0
 10
2.7805075038
 20
-24.4561191711
 30
0.0
 10
2.7570479283
 20
-24.4774960228
 30
0.0
 10
2.7377107059
 20
-24.4890890799
 30
0.0
 10
2.7270118097
 20
-24.4945011366
 30
0.0
 11
2.7992092644
 21
-24.4067631281
 31
0.0
 11
2.7944374298
 21
-24.4309355095
 31
0.0
 11
2.7804053969
 21
-24.454190087
 31
0.0
 11
2.7576447225
 21
-24.4756481452
 31
0.0
 11
2.7270118097
 21
-24.4945011366
 31
0.0
  0
SPLINE
  5
4BA
100
AcDbEntity
  8
RACCORDO
100
AcDbSpline
 62
253
  6
CONTINUOUS
 70
0
 71
3
 72
11
 73
7
 74
5
 42
0.0000001
 43
0.0000001
 44
0.0000000001
 12
-0.2824028899
 22
0.1417260822
 32
0.0
 13
0.0008813145
 23
0.3159697737
 33
0.0
 40
0.0
 40
0.0
 40
0.0
 40
0.0
 40
0.2168657711
 40
0.450112764
 40
0.7106165434
 40
1.0
 40
1.0
 40
1.0
 40
1.0
 10
-15.8130461839
 20
0.5075068608
 30
0.0
 10
-15.8334606907
 20
0.5177520395
 30
0.0
 10
-15.8720639718
 20
0.5472900967
 30
0.0
 10
-15.9134446606
 20
0.6110308018
 30
0.0
 10
-15.9379131
 20
0.6906481021
 30
0.0
 10
-15.9427672533
 20
0.7487797516
 30
0.0
 10
-15.9426822407
 20
0.77925856
 30
0.0
 11
-15.8130461839
 21
0.5075068608
 31
0.0
 11
-15.8677823878
 21
0.5487305186
 31
0.0
 11
-15.9088837725
 21
0.6099045406
 31
0.0
 11
-15.9342443049
 21
0.6882119448
 31
0.0
 11
-15.9426822407
 21
0.77925856
 31
0.0
  0
SPLINE
  5
4BB
100
AcDbEntity
  8
0
100
AcDbSpline
 62
253
  6
CONTINUOUS
 70
0
 71
3
 72
9
 73
5
 74
3
 42
0.0000001
 43
0.0000001
 44
0.0000000001
 12
-0.1019364604
 22
0.0506833646
 32
0.0
 13
-0.1021121397
 23
-0.0503284844
 33
0.0
 40
0.0
 40
0.0
 40
0.0
 40
0.0
 40
0.4641918988
 40
1.0
 40
1.0
 40
1.0
 40
1.0
 10
-9.6428294846
 20
23.9635663213
 30
0.0
 10
-9.6586021777
 20
23.9714085904
 30
0.0
 10
-9.6980595545
 20
23.9780201509
 30
0.0
 10
-9.7351823827
 20
23.9658733746
 30
0.0
 10
-9.7534198866
 20
23.9568845714
 30
0.0
 11
-9.6428294846
 21
23.9635663213
 31
0.0
 11
-9.6947307322
 21
23.9735047199
 31
0.0
 11
-9.7534198866
 21
23.9568845714
 31
0.0
  0
SPLINE
  5
4BC
100
AcDbEntity
  8
0
100
AcDbSpline
 62
253
  6
CONTINUOUS
 70
0
 71
3
 72
9
 73
5
 74
3
 42
0.0000001
 43
0.0000001
 44
0.0000000001
 12
0.1035822821
 22
0.0528648095
 32
0.0
 13
0.1042570885
 23
-0.0515212262
 33
0.0
 40
0.0
 40
0.0
 40
0.0
 40
0.0
 40
0.4633404558
 40
1.0
 40
1.0
 40
1.0
 40
1.0
 10
-13.6744189133
 20
23.7365290141
 30
0.0
 10
-13.6584209594
 20
23.7446938158
 30
0.0
 10
-13.6180848636
 20
23.7516587577
 30
0.0
 10
-13.5801561068
 20
23.7392092356
 30
0.0
 10
-13.5615059196
 20
23.729992783
 30
0.0
 11
-13.6744189133
 21
23.7365290141
 31
0.0
 11
-13.6215590874
 21
23.7469801124
 31
0.0
 11
-13.5615059196
 21
23.729992783
 31
0.0
  0
SPLINE
  5
4BD
100
AcDbEntity
  8
0
100
AcDbSpline
 62
253
  6
CONTINUOUS
 70
0
 71
3
 72
9
 73
5
 74
3
 42
0.0000001
 43
0.0000001
 44
0.0000000001
 12
0.0
 22
0.0672312779
 32
0.0
 13
0.0175169887
 23
0.064909166
 33
0.0
 40
0.0
 40
0.0
 40
0.0
 40
0.0
 40
0.2391933057
 40
1.0
 40
1.0
 40
1.0
 40
1.0
 10
-4.4815578109
 20
19.8320955066
 30
0.0
 10
-4.4815578109
 20
19.8374559305
 30
0.0
 10
-4.4807069328
 20
19.859863729
 30
0.0
 10
-4.4766870192
 20
19.8821053127
 30
0.0
 10
-4.4722446718
 20
19.898566422
 30
0.0
 11
-4.4815578109
 21
19.8320955066
 31
0.0
 11
-4.4809694508
 21
19.8481660116
 31
0.0
 11
-4.4722446718
 21
19.898566422
 31
0.0
  0
SPLINE
  5
4BE
100
AcDbEntity
  8
0
100
AcDbSpline
 62
253
  6
CONTINUOUS
 70
0
 71
3
 72
9
 73
5
 74
3
 42
0.0000001
 43
0.0000001
 44
0.0000000001
 12
0.0382904325
 22
0.0840342318
 32
0.0
 13
0.0611853786
 23
0.0691683366
 33
0.0
 40
0.0
 40
0.0
 40
0.0
 40
0.0
 40
0.2541045617
 40
1.0
 40
1.0
 40
1.0
 40
1.0
 10
-4.4547574345
 20
19.9469503471
 30
0.0
 10
-4.4515141767
 20
19.9540681744
 30
0.0
 10
-4.4377478413
 20
19.9816052651
 30
0.0
 10
-4.4200779079
 20
20.0072419532
 30
0.0
 10
-4.4048652763
 20
20.0244394021
 30
0.0
 11
-4.4547574345
 21
19.9469503471
 31
0.0
 11
-4.4442659475
 21
19.9679400678
 31
0.0
 11
-4.4048652763
 21
20.0244394021
 31
0.0
  0
SPLINE
  5
4BF
100
AcDbEntity
  8
0
100
AcDbSpline
 62
253
  6
CONTINUOUS
 70
0
 71
3
 72
9
 73
5
 74
3
 42
0.0000001
 43
0.0000001
 44
0.0000000001
 12
0.0489032524
 22
0.055283741
 32
0.0
 13
0.0640914381
 23
0.0366074812
 33
0.0
 40
0.0
 40
0.0
 40
0.0
 40
0.0
 40
0.2644295703
 40
1.0
 40
1.0
 40
1.0
 40
1.0
 10
-4.4048652763
 20
20.0244394021
 30
0.0
 10
-4.4005547876
 20
20.0293122874
 30
0.0
 10
-4.3836250262
 20
20.0471530937
 30
0.0
 10
-4.3640480556
 20
20.0626453178
 30
0.0
 10
-4.3483334667
 20
20.0716211113
 30
0.0
 11
-4.4048652763
 21
20.0244394021
 31
0.0
 11
-4.3914162277
 21
20.038583341
 31
0.0
 11
-4.3483334667
 21
20.0716211113
 31
0.0
  0
SPLINE
  5
4C0
100
AcDbEntity
  8
0
100
AcDbSpline
 62
253
  6
CONTINUOUS
 70
0
 71
3
 72
11
 73
7
 74
5
 42
0.0000001
 43
0.0000001
 44
0.0000000001
 12
0.0
 22
0.2927347425
 32
0.0
 13
0.2610815641
 23
0.1324010815
 33
0.0
 40
0.0
 40
0.0
 40
0.0
 40
0.0
 40
0.2465991961
 40
0.5114081749
 40
0.7699752441
 40
1.0
 40
1.0
 40
1.0
 40
1.0
 10
-6.1823273524
 20
20.6824802774
 30
0.0
 10
-6.1823273524
 20
20.7065429948
 30
0.0
 10
-6.1740531575
 20
20.7565309809
 30
0.0
 10
-6.1440662759
 20
20.8261073073
 30
0.0
 10
-6.099954795
 20
20.8857065263
 30
0.0
 10
-6.0617471553
 20
20.9158298872
 30
0.0
 10
-6.0417287476
 20
20.9259817293
 30
0.0
 11
-6.1823273524
 21
20.6824802774
 31
0.0
 11
-6.171640688
 21
20.7538730257
 31
0.0
 11
-6.1411964934
 21
20.8251633725
 31
0.0
 11
-6.095594864
 21
20.8855761553
 31
0.0
 11
-6.0417287476
 21
20.9259817293
 31
0.0
  0
SPLINE
  5
4C1
100
AcDbEntity
  8
0
100
AcDbSpline
 62
253
  6
CONTINUOUS
 70
0
 71
3
 72
9
 73
5
 74
3
 42
0.0000001
 43
0.0000001
 44
0.0000000001
 12
0.1036396474
 22
0.053164101
 32
0.0
 13
0.1044250911
 23
-0.0516042488
 33
0.0
 40
0.0
 40
0.0
 40
0.0
 40
0.0
 40
0.4633167549
 40
1.0
 40
1.0
 40
1.0
 40
1.0
 10
-1.3709335542
 20
17.584611686
 30
0.0
 10
-1.3549275592
 20
17.5928222923
 30
0.0
 10
-1.3145269446
 20
17.5998598155
 30
0.0
 10
-1.2765289925
 20
17.5873954986
 30
0.0
 10
-1.257847927
 20
17.5781637867
 30
0.0
 11
-1.3709335542
 21
17.584611686
 31
0.0
 11
-1.3180067572
 21
17.595157185
 31
0.0
 11
-1.257847927
 21
17.5781637867
 31
0.0
  0
SPLINE
  5
4C2
100
AcDbEntity
  8
RACCORDO
100
AcDbSpline
 62
253
  6
CONTINUOUS
 70
0
 71
3
 72
11
 73
7
 74
5
 42
0.0000001
 43
0.0000001
 44
0.0000000001
 12
-0.5706690175
 22
-0.2770642397
 32
0.0
 13
0.0019371118
 23
-0.6343689526
 33
0.0
 40
0.0
 40
0.0
 40
0.0
 40
0.0
 40
0.2177893117
 40
0.4510356761
 40
0.7105751538
 40
1.0
 40
1.0
 40
1.0
 40
1.0
 10
-16.0375014496
 20
0.5493876718
 30
0.0
 10
-16.0789299871
 20
0.5292737951
 30
0.0
 10
-16.1574469179
 20
0.4709184865
 30
0.0
 10
-16.241683998
 20
0.3436439536
 30
0.0
 10
-16.2918680652
 20
0.1842785049
 30
0.0
 10
-16.3015363969
 20
0.0677074951
 30
0.0
 10
-16.3013495142
 20
0.0065067829
 30
0.0
 11
-16.0375014496
 21
0.5493876718
 31
0.0
 11
-16.148916054
 21
0.4676881508
 31
0.0
 11
-16.2325622051
 21
0.3456351074
 31
0.0
 11
-16.2842394366
 21
0.1893107876
 31
0.0
 11
-16.3013495142
 21
0.0065067829
 31
0.0
  0
SPLINE
  5
4C3
100
AcDbEntity
  8
0
100
AcDbSpline
 62
253
  6
CONTINUOUS
 70
0
 71
3
 72
9
 73
5
 74
3
 42
0.0000001
 43
0.0000001
 44
0.0000000001
 12
0.0975881115
 22
0.0345244798
 32
0.0
 13
0.0923710692
 23
-0.0467222087
 33
0.0
 40
0.0
 40
0.0
 40
0.0
 40
0.0
 40
0.4657827872
 40
1.0
 40
1.0
 40
1.0
 40
1.0
 10
0.7586568909
 20
18.6623377324
 30
0.0
 10
0.7738085118
 20
18.6676980352
 30
0.0
 10
0.8096366444
 20
18.6704940473
 30
0.0
 10
0.8429098165
 20
18.6588152867
 30
0.0
 10
0.8593585549
 20
18.6504953506
 30
0.0
 11
0.7586568909
 21
18.6623377324
 31
0.0
 11
0.8066304588
 21
18.6671623497
 31
0.0
 11
0.8593585549
 21
18.6504953506
 31
0.0
  0
SPLINE
  5
4C4
100
AcDbEntity
  8
0
100
AcDbSpline
 62
7
  6
CONTINUOUS
 70
0
 71
3
 72
9
 73
5
 74
3
 42
0.0000001
 43
0.0000001
 44
0.0000000001
 12
0.1026923057
 22
0.0500197096
 32
0.0
 13
0.1021672394
 23
-0.0510836197
 33
0.0
 40
0.0
 40
0.0
 40
0.0
 40
0.0
 40
0.4638305674
 40
1.0
 40
1.0
 40
1.0
 40
1.0
 10
0.2139765601
 20
18.397677897
 30
0.0
 10
0.2298538369
 20
18.4054114538
 30
0.0
 10
0.2694938645
 20
18.4117024301
 30
0.0
 10
0.3066490259
 20
18.3992777092
 30
0.0
 10
0.3249086762
 20
18.3901478841
 30
0.0
 11
0.2139765601
 21
18.397677897
 31
0.0
 11
0.2660917588
 21
18.4072208755
 31
0.0
 11
0.3249086762
 21
18.3901478841
 31
0.0
  0
SPLINE
  5
4C5
100
AcDbEntity
  8
0
100
AcDbSpline
 62
253
  6
CONTINUOUS
 70
0
 71
3
 72
9
 73
5
 74
3
 42
0.0000001
 43
0.0000001
 44
0.0000000001
 12
-0.10200315
 22
0.0509965498
 32
0.0
 13
-0.1022910174
 23
-0.0504166487
 33
0.0
 40
0.0
 40
0.0
 40
0.0
 40
0.0
 40
0.4641675224
 40
1.0
 40
1.0
 40
1.0
 40
1.0
 10
2.6610130023
 20
17.8116453395
 30
0.0
 10
2.6452308191
 20
17.8195356536
 30
0.0
 10
2.6057047005
 20
17.826222813
 30
0.0
 10
2.5685083891
 20
17.8140605343
 30
0.0
 10
2.550238106
 20
17.805055575
 30
0.0
 11
2.6610130023
 21
17.8116453395
 31
0.0
 11
2.6090392984
 21
17.8216824385
 31
0.0
 11
2.550238106
 21
17.805055575
 31
0.0
  0
SPLINE
  5
4C6
100
AcDbEntity
  8
0
100
AcDbSpline
 62
253
  6
CONTINUOUS
 70
0
 71
3
 72
9
 73
5
 74
3
 42
0.0000001
 43
0.0000001
 44
0.0000000001
 12
-0.102003147
 22
0.050996529
 32
0.0
 13
-0.1022910066
 23
-0.0504166433
 33
0.0
 40
0.0
 40
0.0
 40
0.0
 40
0.0
 40
0.464167748
 40
1.0
 40
1.0
 40
1.0
 40
1.0
 10
0.9701334402
 20
18.6570851214
 30
0.0
 10
0.9543512499
 20
18.6649754361
 30
0.0
 10
0.9148251326
 20
18.6716625852
 30
0.0
 10
0.8776288284
 20
18.6595003051
 30
0.0
 10
0.8593585549
 20
18.6504953506
 30
0.0
 11
0.9701334402
 21
18.6570851214
 31
0.0
 11
0.9181597144
 21
18.6671222124
 31
0.0
 11
0.8593585549
 21
18.6504953506
 31
0.0
  0
SPLINE
  5
4C7
100
AcDbEntity
  8
0
100
AcDbSpline
 62
253
  6
CONTINUOUS
 70
0
 71
3
 72
9
 73
5
 74
3
 42
0.0000001
 43
0.0000001
 44
0.0000000001
 12
0.0833396401
 22
-0.0411912196
 32
0.0
 13
0.0639711943
 23
-0.0674529353
 33
0.0
 40
0.0
 40
0.0
 40
0.0
 40
0.0
 40
0.2342089013
 40
1.0
 40
1.0
 40
1.0
 40
1.0
 10
-9.7534198866
 20
23.9568845714
 30
0.0
 10
-9.7469135914
 20
23.9536687879
 30
0.0
 10
-9.7198779
 20
23.9384384969
 30
0.0
 10
-9.6959821722
 20
23.9179863805
 30
0.0
 10
-9.6796526485
 20
23.9007680946
 30
0.0
 11
-9.7534198866
 21
23.9568845714
 31
0.0
 11
-9.7344218312
 21
23.9462482115
 31
0.0
 11
-9.6796526485
 21
23.9007680946
 31
0.0
  0
SPLINE
  5
4C8
100
AcDbEntity
  8
0
100
AcDbSpline
 62
253
  6
CONTINUOUS
 70
0
 71
3
 72
9
 73
5
 74
3
 42
0.0000001
 43
0.0000001
 44
0.0000000001
 12
0.0637826619
 22
-0.0672541417
 32
0.0
 13
0.0453007712
 23
-0.0808652438
 33
0.0
 40
0.0
 40
0.0
 40
0.0
 40
0.0
 40
0.2437183679
 40
1.0
 40
1.0
 40
1.0
 40
1.0
 10
-9.6796526485
 20
23.9007680946
 30
0.0
 10
-9.6744709797
 20
23.8953044048
 30
0.0
 10
-9.6539740918
 20
23.8721689894
 30
0.0
 10
-9.6364794641
 20
23.8464141038
 30
0.0
 10
-9.6250594171
 20
23.8260284709
 30
0.0
 11
-9.6796526485
 21
23.9007680946
 31
0.0
 11
-9.6646583738
 21
23.8838717604
 31
0.0
 11
-9.6250594171
 21
23.8260284709
 31
0.0
  0
SPLINE
  5
4C9
100
AcDbEntity
  8
0
100
AcDbSpline
 62
253
  6
CONTINUOUS
 70
0
 71
3
 72
9
 73
5
 74
3
 42
0.0000001
 43
0.0000001
 44
0.0000000001
 12
0.0887954283
 22
-0.1585064398
 32
0.0
 13
-0.0008559359
 23
-0.1816815536
 33
0.0
 40
0.0
 40
0.0
 40
0.0
 40
0.0
 40
0.2615668487
 40
1.0
 40
1.0
 40
1.0
 40
1.0
 10
-9.6250594171
 20
23.8260284709
 30
0.0
 10
-9.6173174369
 20
23.8122084609
 30
0.0
 10
-9.5909060576
 20
23.7577552576
 30
0.0
 10
-9.5764354991
 20
23.6967149266
 30
0.0
 10
-9.5766461829
 20
23.6519950326
 30
0.0
 11
-9.6250594171
 21
23.8260284709
 31
0.0
 11
-9.6043177121
 21
23.7832714824
 31
0.0
 11
-9.5766461829
 21
23.6519950326
 31
0.0
  0
SPLINE
  5
4CA
100
AcDbEntity
  8
0
100
AcDbSpline
 62
7
  6
CONTINUOUS
 70
0
 71
3
 72
11
 73
7
 74
5
 42
0.0000001
 43
0.0000001
 44
0.0000000001
 12
0.328298287
 22
-0.1641491435
 32
0.0
 13
-0.0
 23
-0.3670486434
 33
0.0
 40
0.0
 40
0.0
 40
0.0
 40
0.0
 40
0.2296752475
 40
0.4882147097
 40
0.7532072079
 40
1.0
 40
1.0
 40
1.0
 40
1.0
 10
-10.2816870584
 20
23.6934457513
 30
0.0
 10
-10.2565530616
 20
23.6808787529
 30
0.0
 10
-10.2085257376
 20
23.643305456
 30
0.0
 10
-10.1530671318
 20
23.5687093468
 30
0.0
 10
-10.1153333581
 20
23.4814755375
 30
0.0
 10
-10.1049133547
 20
23.418751199
 30
0.0
 10
-10.1049133547
 20
23.3885562125
 30
0.0
 11
-10.2816870584
 21
23.6934457513
 31
0.0
 11
-10.2140386894
 21
23.6431414438
 31
0.0
 11
-10.1566889422
 21
23.567534808
 31
0.0
 11
-10.1183693188
 21
23.4781361875
 31
0.0
 11
-10.1049133547
 21
23.3885562125
 31
0.0
  0
SPLINE
  5
4CB
100
AcDbEntity
  8
0
100
AcDbSpline
 62
253
  6
CONTINUOUS
 70
0
 71
3
 72
11
 73
7
 74
5
 42
0.0000001
 43
0.0000001
 44
0.0000000001
 12
0.3272561542
 22
-0.1655567191
 32
0.0
 13
0.0017563535
 23
-0.3667458697
 33
0.0
 40
0.0
 40
0.0
 40
0.0
 40
0.0
 40
0.2294296147
 40
0.4881164794
 40
0.7533035489
 40
1.0
 40
1.0
 40
1.0
 40
1.0
 10
-11.8829678492
 20
22.8907237478
 30
0.0
 10
-11.8579404314
 20
22.8780625431
 30
0.0
 10
-11.8101250782
 20
22.8403459715
 30
0.0
 10
-11.7548105155
 20
22.7657475946
 30
0.0
 10
-11.7169911312
 20
22.6786217998
 30
0.0
 10
-11.7063385742
 20
22.6159925105
 30
0.0
 10
-11.7061941455
 20
22.585834209
 30
0.0
 11
-11.8829678492
 21
22.8907237478
 31
0.0
 11
-11.81563633
 21
22.8402602339
 31
0.0
 11
-11.7583982018
 21
22.7645980646
 31
0.0
 11
-11.7199673315
 21
22.6752556574
 31
0.0
 11
-11.7061941455
 21
22.585834209
 31
0.0
  0
SPLINE
  5
4CC
100
AcDbEntity
  8
0
100
AcDbSpline
 62
253
  6
CONTINUOUS
 70
0
 71
3
 72
9
 73
5
 74
3
 42
0.0000001
 43
0.0000001
 44
0.0000000001
 12
0.0
 22
0.1809588586
 32
0.0
 13
0.0881917394
 23
0.158013688
 33
0.0
 40
0.0
 40
0.0
 40
0.0
 40
0.0
 40
0.2350218079
 40
1.0
 40
1.0
 40
1.0
 40
1.0
 10
-13.7372541756
 20
23.4256159681
 30
0.0
 10
-13.7372541756
 20
23.4397923941
 30
0.0
 10
-13.7324296936
 20
23.500074198
 30
0.0
 10
-13.7112485314
 20
23.5585343588
 30
0.0
 10
-13.6887602789
 20
23.5988267006
 30
0.0
 11
-13.7372541756
 21
23.4256159681
 31
0.0
 11
-13.7340829933
 21
23.4680268523
 31
0.0
 11
-13.6887602789
 21
23.5988267006
 31
0.0
  0
SPLINE
  5
4CD
100
AcDbEntity
  8
0
100
AcDbSpline
 62
253
  6
CONTINUOUS
 70
0
 71
3
 72
9
 73
5
 74
3
 42
0.0000001
 43
0.0000001
 44
0.0000000001
 12
0.085200086
 22
0.152653524
 32
0.0
 13
0.1521854241
 23
0.0860334222
 33
0.0
 40
0.0
 40
0.0
 40
0.0
 40
0.0
 40
0.2684542174
 40
1.0
 40
1.0
 40
1.0
 40
1.0
 10
-13.6887602789
 20
23.5988267006
 30
0.0
 10
-13.6811361715
 20
23.6124868613
 30
0.0
 10
-13.6499036972
 20
23.661565737
 30
0.0
 10
-13.6069950503
 20
23.7045206777
 30
0.0
 10
-13.5698848486
 20
23.7254998067
 30
0.0
 11
-13.6887602789
 21
23.5988267006
 31
0.0
 11
-13.6635257181
 21
23.638396386
 31
0.0
 11
-13.5698848486
 21
23.7254998067
 31
0.0
  0
SPLINE
  5
4CE
100
AcDbEntity
  8
0
100
AcDbSpline
 62
253
  6
CONTINUOUS
 70
0
 71
3
 72
11
 73
7
 74
5
 42
0.0000001
 43
0.0000001
 44
0.0000000001
 12
0.0
 22
0.3659185077
 32
0.0
 13
0.326352026
 23
0.1655013878
 33
0.0
 40
0.0
 40
0.0
 40
0.0
 40
0.0
 40
0.2466000408
 40
0.5114083384
 40
0.7699749055
 40
1.0
 40
1.0
 40
1.0
 40
1.0
 10
-12.0587161052
 20
22.5863469329
 30
0.0
 10
-12.0587161052
 20
22.6164254392
 30
0.0
 10
-12.048373804
 20
22.6789105891
 30
0.0
 10
-12.0108892694
 20
22.765880533
 30
0.0
 10
-11.9557507902
 20
22.840380084
 30
0.0
 10
-11.9079909011
 20
22.8780339237
 30
0.0
 10
-11.8829678492
 20
22.8907237478
 30
0.0
 11
-12.0587161052
 21
22.5863469329
 31
0.0
 11
-12.0453578981
 21
22.6755882192
 31
0.0
 11
-12.007302361
 21
22.764700779
 31
0.0
 11
-11.9503007339
 21
22.8402168622
 31
0.0
 11
-11.8829678492
 21
22.8907237478
 31
0.0
  0
SPLINE
  5
4CF
100
AcDbEntity
  8
0
100
AcDbSpline
 62
253
  6
CONTINUOUS
 70
0
 71
3
 72
9
 73
5
 74
3
 42
0.0000001
 43
0.0000001
 44
0.0000000001
 12
0.0
 22
0.1809850597
 32
0.0
 13
0.0882148261
 23
0.158030808
 33
0.0
 40
0.0
 40
0.0
 40
0.0
 40
0.0
 40
0.2350217057
 40
1.0
 40
1.0
 40
1.0
 40
1.0
 10
-1.4335961829
 20
17.2737869718
 30
0.0
 10
-1.4335961829
 20
17.2879654442
 30
0.0
 10
-1.4287703138
 20
17.3482559578
 30
0.0
 10
-1.4075835065
 20
17.4067241429
 30
0.0
 10
-1.3850893641
 20
17.4470208556
 30
0.0
 11
-1.4335961829
 21
17.2737869718
 31
0.0
 11
-1.4304241152
 21
17.3162039462
 31
0.0
 11
-1.3850893641
 21
17.4470208556
 31
0.0
  0
SPLINE
  5
4D0
100
AcDbEntity
  8
0
100
AcDbSpline
 62
253
  6
CONTINUOUS
 70
0
 71
3
 72
9
 73
5
 74
3
 42
0.0000001
 43
0.0000001
 44
0.0000000001
 12
0.0852049033
 22
0.1526387379
 32
0.0
 13
0.1521825344
 23
0.0860170685
 33
0.0
 40
0.0
 40
0.0
 40
0.0
 40
0.0
 40
0.2684578659
 40
1.0
 40
1.0
 40
1.0
 40
1.0
 10
-1.3850893641
 20
17.4470208556
 30
0.0
 10
-1.377464722
 20
17.4606798789
 30
0.0
 10
-1.3462310382
 20
17.5097537834
 30
0.0
 10
-1.3033223023
 20
17.5527036136
 30
0.0
 10
-1.2662129904
 20
17.5736786502
 30
0.0
 11
-1.3850893641
 21
17.4470208556
 31
0.0
 11
-1.3598534492
 21
17.4865870705
 31
0.0
 11
-1.2662129904
 21
17.5736786502
 31
0.0
  0
SPLINE
  5
4D1
100
AcDbEntity
  8
0
100
AcDbSpline
 62
253
  6
CONTINUOUS
 70
0
 71
3
 72
11
 73
7
 74
5
 42
0.0000001
 43
0.0000001
 44
0.0000000001
 12
0.0
 22
0.365918508
 32
0.0
 13
0.3263520263
 23
0.1655013879
 33
0.0
 40
0.0
 40
0.0
 40
0.0
 40
0.0
 40
0.2466001016
 40
0.5114084622
 40
0.7699750674
 40
1.0
 40
1.0
 40
1.0
 40
1.0
 10
0.2449418875
 20
16.4345179365
 30
0.0
 10
0.2449418875
 20
16.4645964503
 30
0.0
 10
0.2552841941
 20
16.5270816154
 30
0.0
 10
0.2927687439
 20
16.6140515744
 30
0.0
 10
0.3479072271
 20
16.6885511148
 30
0.0
 10
0.3956671092
 20
16.7262049363
 30
0.0
 10
0.4206901435
 20
16.7388947515
 30
0.0
 11
0.2449418875
 21
16.4345179365
 31
0.0
 11
0.2583001011
 21
16.5237592444
 31
0.0
 11
0.2963556548
 21
16.6128718224
 31
0.0
 11
0.3533573001
 21
16.6883879094
 31
0.0
 11
0.4206901435
 21
16.7388947515
 31
0.0
  0
SPLINE
  5
4D2
100
AcDbEntity
  8
0
100
AcDbSpline
 62
253
  6
CONTINUOUS
 70
0
 71
3
 72
11
 73
7
 74
5
 42
0.0000001
 43
0.0000001
 44
0.0000000001
 12
0.323933903
 22
-0.1619669515
 32
0.0
 13
0.3246816254
 23
0.1604627963
 33
0.0
 40
0.0
 40
0.0
 40
0.0
 40
0.0
 40
0.235171244
 40
0.4995791052
 40
0.7642134563
 40
1.0
 40
1.0
 40
1.0
 40
1.0
 10
0.2449418875
 20
-25.205060137
 30
0.0
 10
0.2703352005
 20
-25.2177567935
 30
0.0
 10
0.3286793539
 20
-25.2359010896
 30
0.0
 10
0.4210144161
 20
-25.2446567395
 30
0.0
 10
0.5134487468
 20
-25.2361546595
 30
0.0
 10
0.5719453277
 20
-25.2181845169
 30
0.0
 10
0.5974638471
 20
-25.2055728608
 30
0.0
 11
0.2449418875
 21
-25.205060137
 31
0.0
 11
0.3257118254
 21
-25.2320869016
 31
0.0
 11
0.4209913574
 21
-25.241671131
 31
0.0
 11
0.5163807952
 21
-25.2323642215
 31
0.0
 11
0.5974638471
 21
-25.2055728608
 31
0.0
  0
SPLINE
  5
4D3
100
AcDbEntity
  8
0
100
AcDbSpline
 62
253
  6
CONTINUOUS
 70
0
 71
3
 72
11
 73
7
 74
5
 42
0.0000001
 43
0.0000001
 44
0.0000000001
 12
0.3239339031
 22
-0.1619669516
 32
0.0
 13
0.3246816256
 23
0.1604627963
 33
0.0
 40
0.0
 40
0.0
 40
0.0
 40
0.0
 40
0.2351713294
 40
0.4995792494
 40
0.7642136314
 40
1.0
 40
1.0
 40
1.0
 40
1.0
 10
0.2449418875
 20
-25.5450340711
 30
0.0
 10
0.2703352097
 20
-25.5577307322
 30
0.0
 10
0.3286793816
 20
-25.57587503
 30
0.0
 10
0.4210144655
 20
-25.5846306742
 30
0.0
 10
0.513448786
 20
-25.5761285868
 30
0.0
 10
0.5719453467
 20
-25.5581584416
 30
0.0
 10
0.5974638471
 20
-25.5455467949
 30
0.0
 11
0.2449418875
 21
-25.5450340711
 31
0.0
 11
0.325711856
 21
-25.5720608417
 31
0.0
 11
0.4209914101
 21
-25.5816450651
 31
0.0
 11
0.5163808581
 21
-25.5723381437
 31
0.0
 11
0.5974638471
 21
-25.5455467949
 31
0.0
  0
SPLINE
  5
4D4
100
AcDbEntity
  8
0
100
AcDbSpline
 62
253
  6
CONTINUOUS
 70
0
 71
3
 72
9
 73
5
 74
3
 42
0.0000001
 43
0.0000001
 44
0.0000000001
 12
0.0833076241
 22
-0.0411753954
 32
0.0
 13
0.0639538854
 23
-0.0674201303
 33
0.0
 40
0.0
 40
0.0
 40
0.0
 40
0.0
 40
0.2342128577
 40
1.0
 40
1.0
 40
1.0
 40
1.0
 10
2.550238106
 20
17.805055575
 30
0.0
 10
2.5567420116
 20
17.8018409727
 30
0.0
 10
2.5837675935
 20
17.7866170908
 30
0.0
 10
2.6076556144
 20
17.7661749723
 30
0.0
 10
2.6239806354
 20
17.7489651493
 30
0.0
 11
2.550238106
 21
17.805055575
 31
0.0
 11
2.5692293762
 21
17.7944234651
 31
0.0
 11
2.6239806354
 21
17.7489651493
 31
0.0
  0
SPLINE
  5
4D5
100
AcDbEntity
  8
0
100
AcDbSpline
 62
253
  6
CONTINUOUS
 70
0
 71
3
 72
9
 73
5
 74
3
 42
0.0000001
 43
0.0000001
 44
0.0000000001
 12
0.0637963994
 22
-0.0672541087
 32
0.0
 13
0.0453107012
 23
-0.0808704895
 33
0.0
 40
0.0
 40
0.0
 40
0.0
 40
0.0
 40
0.2437147928
 40
1.0
 40
1.0
 40
1.0
 40
1.0
 10
2.6239806354
 20
17.7489651493
 30
0.0
 10
2.6291633442
 20
17.7435015423
 30
0.0
 10
2.6496646482
 20
17.7203658287
 30
0.0
 10
2.6671630523
 20
17.6946095861
 30
0.0
 10
2.6785856567
 20
17.6742225345
 30
0.0
 11
2.6239806354
 21
17.7489651493
 31
0.0
 11
2.6389779233
 21
17.7320688597
 31
0.0
 11
2.6785856567
 21
17.6742225345
 31
0.0
  0
SPLINE
  5
4D6
100
AcDbEntity
  8
0
100
AcDbSpline
 62
253
  6
CONTINUOUS
 70
0
 71
3
 72
9
 73
5
 74
3
 42
0.0000001
 43
0.0000001
 44
0.0000000001
 12
0.0888186073
 22
-0.1585233522
 32
0.0
 13
-0.0008560588
 23
-0.1817076371
 33
0.0
 40
0.0
 40
0.0
 40
0.0
 40
0.0
 40
0.2615658282
 40
1.0
 40
1.0
 40
1.0
 40
1.0
 10
2.6785856567
 20
17.6742225345
 30
0.0
 10
2.6863296275
 20
17.6604011038
 30
0.0
 10
2.7127478853
 20
17.605941588
 30
0.0
 10
2.7272225241
 20
17.5448924124
 30
0.0
 10
2.7270118097
 20
17.5001660362
 30
0.0
 11
2.6785856567
 21
17.6742225345
 31
0.0
 11
2.6993327117
 21
17.6314607645
 31
0.0
 11
2.7270118097
 21
17.5001660362
 31
0.0
  0
SPLINE
  5
4D7
100
AcDbEntity
  8
0
100
AcDbSpline
 62
7
  6
CONTINUOUS
 70
0
 71
3
 72
11
 73
7
 74
5
 42
0.0000001
 43
0.0000001
 44
0.0000000001
 12
0.328298287
 22
-0.1641491435
 32
0.0
 13
-0.0
 23
-0.3670486434
 33
0.0
 40
0.0
 40
0.0
 40
0.0
 40
0.0
 40
0.2296752475
 40
0.4882147097
 40
0.7532072079
 40
1.0
 40
1.0
 40
1.0
 40
1.0
 10
2.0219709343
 20
17.541616755
 30
0.0
 10
2.0471049311
 20
17.5290497566
 30
0.0
 10
2.0951322551
 20
17.4914764597
 30
0.0
 10
2.1505908608
 20
17.4168803504
 30
0.0
 10
2.1883246346
 20
17.3296465412
 30
0.0
 10
2.198744638
 20
17.2669222027
 30
0.0
 10
2.198744638
 20
17.2367272162
 30
0.0
 11
2.0219709343
 21
17.541616755
 31
0.0
 11
2.0896193032
 21
17.4913124475
 31
0.0
 11
2.1469690504
 21
17.4157058116
 31
0.0
 11
2.1852886738
 21
17.3263071912
 31
0.0
 11
2.198744638
 21
17.2367272162
 31
0.0
  0
SPLINE
  5
4D8
100
AcDbEntity
  8
0
100
AcDbSpline
 62
253
  6
CONTINUOUS
 70
0
 71
3
 72
11
 73
7
 74
5
 42
0.0000001
 43
0.0000001
 44
0.0000000001
 12
0.327256154
 22
-0.1655567189
 32
0.0
 13
0.0017563535
 23
-0.3667458694
 33
0.0
 40
0.0
 40
0.0
 40
0.0
 40
0.0
 40
0.2294297766
 40
0.4881166035
 40
0.7533036098
 40
1.0
 40
1.0
 40
1.0
 40
1.0
 10
0.4206901435
 20
16.7388947515
 30
0.0
 10
0.4457175789
 20
16.7262335378
 30
0.0
 10
0.4935329392
 20
16.688516948
 30
0.0
 10
0.5488474979
 20
16.6139185605
 30
0.0
 10
0.586666867
 20
16.5267927808
 30
0.0
 10
0.5973194184
 20
16.4641635067
 30
0.0
 10
0.5974638471
 20
16.4340052127
 30
0.0
 11
0.4206901435
 21
16.7388947515
 31
0.0
 11
0.4880217041
 21
16.688431194
 31
0.0
 11
0.545259814
 21
16.6127690284
 31
0.0
 11
0.5836906679
 21
16.5234266394
 31
0.0
 11
0.5974638471
 21
16.4340052127
 31
0.0
  0
SPLINE
  5
4D9
100
AcDbEntity
  8
0
100
AcDbSpline
 62
253
  6
CONTINUOUS
 70
0
 71
3
 72
9
 73
5
 74
3
 42
0.0000001
 43
0.0000001
 44
0.0000000001
 12
-0.0972978999
 22
0.0353697585
 32
0.0
 13
-0.0928607827
 23
-0.0457687251
 33
0.0
 40
0.0
 40
0.0
 40
0.0
 40
0.0
 40
0.4658745477
 40
1.0
 40
1.0
 40
1.0
 40
1.0
 10
-11.3434662118
 20
24.813188074
 30
0.0
 10
-11.3585757502
 20
24.8186806974
 30
0.0
 10
-11.3943735755
 20
24.8218093888
 30
0.0
 10
-11.4277663353
 20
24.8104730939
 30
0.0
 10
-11.4442994378
 20
24.8023243469
 30
0.0
 11
-11.3434662118
 21
24.813188074
 31
0.0
 11
-11.3914083483
 21
24.8184563853
 31
0.0
 11
-11.4442994378
 21
24.8023243469
 31
0.0
  0
SPLINE
  5
4DA
100
AcDbEntity
  8
RACCORDO
100
AcDbSpline
 62
7
  6
CONTINUOUS
 70
0
 71
3
 72
11
 73
7
 74
5
 42
0.0000001
 43
0.0000001
 44
0.0000000001
 12
0.2667887594
 22
0.1334146621
 32
0.0
 13
-0.0178803623
 23
0.2977515858
 33
0.0
 40
0.0
 40
0.0
 40
0.0
 40
0.0
 40
0.2139562578
 40
0.4442632081
 40
0.7049429778
 40
1.0
 40
1.0
 40
1.0
 40
1.0
 10
-4.3793619815
 20
-18.8847081505
 30
0.0
 10
-4.36033494
 20
-18.8751931832
 30
0.0
 10
-4.3244670924
 20
-18.8472391491
 30
0.0
 10
-4.2880825024
 20
-18.7858674058
 30
0.0
 10
-4.2690012525
 20
-18.7092377353
 30
0.0
 10
-4.2677071949
 20
-18.6535915507
 30
0.0
 10
-4.2694657704
 20
-18.6243069853
 30
0.0
 11
-4.3793619815
 21
-18.8847081505
 31
0.0
 11
-4.328787938
 21
-18.8457808808
 31
0.0
 11
-4.2926035256
 21
-18.7873850326
 31
0.0
 11
-4.2725193192
 21
-18.7122659592
 31
0.0
 11
-4.2694657704
 21
-18.6243069853
 31
0.0
  0
SPLINE
  5
4DB
100
AcDbEntity
  8
0
100
AcDbSpline
 62
253
  6
CONTINUOUS
 70
0
 71
3
 72
9
 73
5
 74
3
 42
0.0000001
 43
0.0000001
 44
0.0000000001
 12
0.1023513264
 22
0.0498536012
 32
0.0
 13
0.1015908034
 23
-0.0513856423
 33
0.0
 40
0.0
 40
0.0
 40
0.0
 40
0.0
 40
0.4641049814
 40
1.0
 40
1.0
 40
1.0
 40
1.0
 10
-11.554811467
 20
24.8100589984
 30
0.0
 10
-11.5389775469
 20
24.8177714333
 30
0.0
 10
-11.4994498794
 20
24.8240335928
 30
0.0
 10
-11.4624467729
 20
24.8115034502
 30
0.0
 10
-11.4442994378
 20
24.8023243469
 30
0.0
 11
-11.554811467
 21
24.8100589984
 31
0.0
 11
-11.502831346
 21
24.8195362937
 31
0.0
 11
-11.4442994378
 21
24.8023243469
 31
0.0
  0
SPLINE
  5
4DC
100
AcDbEntity
  8
0
100
AcDbSpline
 62
7
  6
CONTINUOUS
 70
0
 71
3
 72
9
 73
5
 74
3
 42
0.0000001
 43
0.0000001
 44
0.0000000001
 12
0.1026923057
 22
0.0500197096
 32
0.0
 13
0.1021672394
 23
-0.0510836197
 33
0.0
 40
0.0
 40
0.0
 40
0.0
 40
0.0
 40
0.4638305674
 40
1.0
 40
1.0
 40
1.0
 40
1.0
 10
-12.0896814325
 20
24.5495068934
 30
0.0
 10
-12.0738041557
 20
24.5572404501
 30
0.0
 10
-12.0341641281
 20
24.5635314264
 30
0.0
 10
-11.9970089667
 20
24.5511067055
 30
0.0
 10
-11.9787493164
 20
24.5419768804
 30
0.0
 11
-12.0896814325
 21
24.5495068934
 31
0.0
 11
-12.0375662338
 21
24.5590498718
 31
0.0
 11
-11.9787493164
 21
24.5419768804
 31
0.0
  0
SPLINE
  5
4DD
100
AcDbEntity
  8
RACCORDO
100
AcDbSpline
 62
7
  6
CONTINUOUS
 70
0
 71
3
 72
9
 73
5
 74
3
 42
0.0000001
 43
0.0000001
 44
0.0000000001
 12
-0.224973756
 22
-0.2456128304
 32
0.0
 13
-0.0314890555
 23
-0.3315830103
 33
0.0
 40
0.0
 40
0.0
 40
0.0
 40
0.0
 40
0.4668542486
 40
1.0
 40
1.0
 40
1.0
 40
1.0
 10
-17.2983072376
 20
9.3456462423
 30
0.0
 10
-17.3333172222
 20
9.3074244445
 30
0.0
 10
-17.3906083651
 20
9.2089341758
 30
0.0
 10
-17.4135857962
 20
9.0988057486
 30
0.0
 10
-17.4191818816
 20
9.0398783909
 30
0.0
 11
-17.2983072376
 21
9.3456462423
 31
0.0
 11
-17.3793316765
 21
9.2129266735
 31
0.0
 11
-17.4191818816
 21
9.0398783909
 31
0.0
  0
SPLINE
  5
4DE
100
AcDbEntity
  8
RACCORDO
100
AcDbSpline
 62
253
  6
CONTINUOUS
 70
0
 71
3
 72
11
 73
7
 74
5
 42
0.0000001
 43
0.0000001
 44
0.0000000001
 12
0.0037455278
 22
-0.2407218703
 32
0.0
 13
0.2153170293
 23
-0.1077015539
 33
0.0
 40
0.0
 40
0.0
 40
0.0
 40
0.0
 40
0.2088507172
 40
0.4379488669
 40
0.7007037522
 40
1.0
 40
1.0
 40
1.0
 40
1.0
 10
-5.0553895013
 20
-14.2071555332
 30
0.0
 10
-5.0551287492
 20
-14.2239138449
 30
0.0
 10
-5.0474528831
 20
-14.2591984195
 30
0.0
 10
-5.0168517806
 20
-14.3073995809
 30
0.0
 10
-4.96935842
 20
-14.3503609405
 30
0.0
 10
-4.9304203568
 20
-14.3736325268
 30
0.0
 10
-4.9089391638
 20
-14.3843774171
 30
0.0
 11
-5.0553895013
 21
-14.2071555332
 31
0.0
 11
-5.0452037697
 21
-14.2563940538
 31
0.0
 11
-5.0165759679
 21
-14.3035384101
 31
0.0
 11
-4.9704160829
 21
-14.3467923496
 31
0.0
 11
-4.9089391638
 21
-14.3843774171
 31
0.0
  0
SPLINE
  5
4DF
100
AcDbEntity
  8
0
100
AcDbSpline
 62
7
  6
CONTINUOUS
 70
0
 71
3
 72
10
 73
6
 74
4
 42
0.0000001
 43
0.0000001
 44
0.0000000001
 12
-0.0552340986
 22
0.0276094422
 32
0.0
 13
-0.0592088991
 23
-0.017532633
 33
0.0
 40
0.0
 40
0.0
 40
0.0
 40
0.0
 40
0.1378587112
 40
0.3428863583
 40
1.0
 40
1.0
 40
1.0
 40
1.0
 10
3.6013658626
 20
21.7104164974
 30
0.0
 10
3.5988276954
 20
21.7116852314
 30
0.0
 10
3.5916572502
 20
21.7128906059
 30
0.0
 10
3.5711263103
 20
21.711485128
 30
0.0
 10
3.5538279924
 20
21.7067884154
 30
0.0
 10
3.5408590006
 20
21.7029481046
 30
0.0
 11
3.6013658626
 21
21.7104164974
 31
0.0
 11
3.5930830099
 21
21.7123817356
 31
0.0
 11
3.58043081
 21
21.7119234325
 31
0.0
 11
3.5408590006
 21
21.7029481046
 31
0.0
  0
SPLINE
  5
4E0
100
AcDbEntity
  8
0
100
AcDbSpline
 62
7
  6
CONTINUOUS
 70
0
 71
3
 72
9
 73
5
 74
3
 42
0.0000001
 43
0.0000001
 44
0.0000000001
 12
-0.0663070596
 22
-0.0196345036
 32
0.0
 13
-0.0645773021
 23
-0.0247368537
 33
0.0
 40
0.0
 40
0.0
 40
0.0
 40
0.0
 40
0.2148691628
 40
1.0
 40
1.0
 40
1.0
 40
1.0
 10
3.5408590006
 20
21.7029481046
 30
0.0
 10
3.5361098865
 20
21.7015418215
 30
0.0
 10
3.5141071652
 20
21.6946603001
 30
0.0
 10
3.4924471951
 20
21.6867280055
 30
0.0
 10
3.4755466514
 20
21.6802541166
 30
0.0
 11
3.5408590006
 21
21.7029481046
 31
0.0
 11
3.5266702983
 21
21.6985360551
 31
0.0
 11
3.4755466514
 21
21.6802541166
 31
0.0
  0
SPLINE
  5
4E1
100
AcDbEntity
  8
RACCORDO
100
AcDbSpline
 62
253
  6
CONTINUOUS
 70
0
 71
3
 72
11
 73
7
 74
5
 42
0.0000001
 43
0.0000001
 44
0.0000000001
 12
-0.0000738314
 22
-0.2406339362
 32
0.0
 13
0.2152348115
 23
-0.1076042406
 33
0.0
 40
0.0
 40
0.0
 40
0.0
 40
0.0
 40
0.2064174157
 40
0.4344336086
 40
0.6980453568
 40
1.0
 40
1.0
 40
1.0
 40
1.0
 10
-5.1186280023
 20
-5.8315355694
 30
0.0
 10
-5.1186330823
 20
-5.8480925812
 30
0.0
 10
-5.1112925327
 20
-5.8831983913
 30
0.0
 10
-5.0807520413
 20
-5.9311806477
 30
0.0
 10
-5.0330175099
 20
-5.974117892
 30
0.0
 10
-4.9938264923
 20
-5.9974641003
 30
0.0
 10
-4.9721627754
 20
-6.0082946337
 30
0.0
 11
-5.1186280023
 21
-5.8315355694
 31
0.0
 11
-5.1090236508
 21
-5.880269217
 31
0.0
 11
-5.0805751213
 21
-5.9271864473
 31
0.0
 11
-5.0342002777
 21
-5.9704673676
 31
0.0
 11
-4.9721627754
 21
-6.0082946337
 31
0.0
  0
SPLINE
  5
4E2
100
AcDbEntity
  8
0
100
AcDbSpline
 62
7
  6
CONTINUOUS
 70
0
 71
3
 72
9
 73
5
 74
3
 42
0.0000001
 43
0.0000001
 44
0.0000000001
 12
-0.006550221
 22
0.0032673696
 32
0.0
 13
-0.007276758
 23
0.0007936572
 33
0.0
 40
0.0
 40
0.0
 40
0.0
 40
0.0
 40
0.2176355694
 40
1.0
 40
1.0
 40
1.0
 40
1.0
 10
-1.9890885759
 20
24.5056438035
 30
0.0
 10
-1.9895637629
 20
24.5058808354
 30
0.0
 10
-1.991816011
 20
24.5068329938
 30
0.0
 10
-1.9942501136
 20
24.5072859879
 30
0.0
 10
-1.9961478058
 20
24.5074929643
 30
0.0
 11
-1.9890885759
 21
24.5056438035
 31
0.0
 11
-1.9905527151
 21
24.5062716394
 31
0.0
 11
-1.9961478058
 21
24.5074929643
 31
0.0
  0
LINE
  5
4E3
100
AcDbEntity
  8
0
100
AcDbLine
 62
7
  6
CONTINUOUS
 10
-1.9961478058
 20
24.5074929643
 11
-2.0003516758
 21
24.507729251
  0
SPLINE
  5
4E4
100
AcDbEntity
  8
0
100
AcDbSpline
 62
253
  6
CONTINUOUS
 70
0
 71
3
 72
10
 73
6
 74
4
 42
0.0000001
 43
0.0000001
 44
0.0000000001
 12
0.0
 22
-0.1567251828
 32
0.0
 13
0.1400481104
 23
-0.0703513304
 33
0.0
 40
0.0
 40
0.0
 40
0.0
 40
0.0
 40
0.5480386929
 40
0.782115348
 40
1.0
 40
1.0
 40
1.0
 40
1.0
 10
0.2449418875
 20
-25.5450340711
 30
0.0
 10
0.2449418875
 20
-25.5736645592
 30
0.0
 10
0.2514587724
 20
-25.6159541453
 30
0.0
 10
0.2803372593
 20
-25.6603675804
 30
0.0
 10
0.2995839412
 20
-25.6750627902
 30
0.0
 10
0.3097553858
 20
-25.6801722819
 30
0.0
 11
0.2449418875
 21
-25.5450340711
 31
0.0
 11
0.261964899
 21
-25.6292217229
 31
0.0
 11
0.2824664947
 21
-25.6596441758
 31
0.0
 11
0.3097553858
 21
-25.6801722819
 31
0.0
  0
SPLINE
  5
4E5
100
AcDbEntity
  8
RACCORDO
100
AcDbSpline
 62
7
  6
CONTINUOUS
 70
0
 71
3
 72
9
 73
5
 74
3
 42
0.0000001
 43
0.0000001
 44
0.0000000001
 12
0.2080937749
 22
0.1042679539
 32
0.0
 13
0.2081822766
 23
-0.1040911383
 33
0.0
 40
0.0
 40
0.0
 40
0.0
 40
0.0
 40
0.4669554744
 40
1.0
 40
1.0
 40
1.0
 40
1.0
 10
-17.0732043789
 20
9.1478562375
 30
0.0
 10
-17.0408142031
 20
9.1640857348
 30
0.0
 10
-16.9602344228
 20
9.1782031125
 30
0.0
 10
-16.8841963258
 20
9.1533567346
 30
0.0
 10
-16.8472061849
 20
9.1348616641
 30
0.0
 11
-17.0732043789
 21
9.1478562375
 31
0.0
 11
-16.9665501663
 21
9.1687741622
 31
0.0
 11
-16.8472061849
 21
9.1348616641
 31
0.0
  0
SPLINE
  5
4E6
100
AcDbEntity
  8
RACCORDO
100
AcDbSpline
 62
253
  6
CONTINUOUS
 70
0
 71
3
 72
11
 73
7
 74
5
 42
0.0000001
 43
0.0000001
 44
0.0000000001
 12
-0.28297661
 22
0.1413536169
 32
0.0
 13
0.0008822822
 23
0.3163160261
 33
0.0
 40
0.0
 40
0.0
 40
0.0
 40
0.0
 40
0.2168674232
 40
0.4500845811
 40
0.7105794858
 40
1.0
 40
1.0
 40
1.0
 40
1.0
 10
-5.9008242748
 20
-4.4486043093
 30
0.0
 10
-5.9212804109
 20
-4.4383859777
 30
0.0
 10
-5.9599755993
 20
-4.408878866
 30
0.0
 10
-6.0014627226
 20
-4.3451069081
 30
0.0
 10
-6.0259937236
 20
-4.2654107236
 30
0.0
 10
-6.0308591391
 20
-4.2072116641
 30
0.0
 10
-6.0307740222
 20
-4.1766955484
 30
0.0
 11
-5.9008242748
 21
-4.4486043093
 31
0.0
 11
-5.9556871355
 21
-4.4074232852
 31
0.0
 11
-5.996888945
 21
-4.3462308508
 31
0.0
 11
-6.0223141164
 21
-4.2678525286
 31
0.0
 11
-6.0307740222
 21
-4.1766955484
 31
0.0
  0
SPLINE
  5
4E7
100
AcDbEntity
  8
0
100
AcDbSpline
 62
253
  6
CONTINUOUS
 70
0
 71
3
 72
11
 73
7
 74
5
 42
0.0000001
 43
0.0000001
 44
0.0000000001
 12
-0.0000524484
 22
-0.1191548052
 32
0.0
 13
-0.1063252648
 23
-0.0537848345
 33
0.0
 40
0.0
 40
0.0
 40
0.0
 40
0.0
 40
0.2069627274
 40
0.4350712485
 40
0.6978189664
 40
1.0
 40
1.0
 40
1.0
 40
1.0
 10
2.7992094025
 20
-24.0591248174
 30
0.0
 10
2.7992057842
 20
-24.0673450186
 30
0.0
 10
2.7956010497
 20
-24.0847554446
 30
0.0
 10
2.7805502767
 20
-24.1085423071
 30
0.0
 10
2.7570765612
 20
-24.129946525
 30
0.0
 10
2.7377216358
 20
-24.1415520343
 30
0.0
 10
2.7270118097
 20
-24.1469696199
 30
0.0
 11
2.7992094025
 21
-24.0591248174
 31
0.0
 11
2.794468523
 21
-24.0833254278
 31
0.0
 11
2.7804460063
 21
-24.1066091962
 31
0.0
 11
2.7576741791
 21
-24.1280943824
 31
0.0
 11
2.7270118097
 21
-24.1469696199
 31
0.0
  0
SPLINE
  5
4E8
100
AcDbEntity
  8
0
100
AcDbSpline
 62
253
  6
CONTINUOUS
 70
0
 71
3
 72
8
 73
4
 74
2
 42
0.0000001
 43
0.0000001
 44
0.0000000001
 12
-0.0220607894
 22
0.010993836
 32
0.0
 13
-0.0241361801
 23
0.0049987666
 33
0.0
 40
0.0
 40
0.0
 40
0.0
 40
0.0
 40
1.0
 40
1.0
 40
1.0
 40
1.0
 10
2.6609011949
 20
-23.8354342916
 30
0.0
 10
2.6535475985
 20
-23.8317696796
 30
0.0
 10
2.6456434077
 20
-23.8290690694
 30
0.0
 10
2.6375980144
 20
-23.8274028139
 30
0.0
 11
2.6609011949
 21
-23.8354342916
 31
0.0
 11
2.6375980144
 21
-23.8274028139
 31
0.0
  0
SPLINE
  5
4E9
100
AcDbEntity
  8
RACCORDO
100
AcDbSpline
 62
7
  6
CONTINUOUS
 70
0
 71
3
 72
11
 73
7
 74
5
 42
0.0000001
 43
0.0000001
 44
0.0000000001
 12
0.0102086591
 22
0.5141228621
 32
0.0
 13
0.4599035416
 23
0.2300331856
 33
0.0
 40
0.0
 40
0.0
 40
0.0
 40
0.0
 40
0.2874486279
 40
0.5470500418
 40
0.781406575
 40
1.0
 40
1.0
 40
1.0
 40
1.0
 10
-17.6347876416
 20
8.8737436589
 30
0.0
 10
-17.6338094865
 20
8.9230049626
 30
0.0
 10
-17.6238530793
 20
9.0169457204
 30
0.0
 10
-17.5809282558
 20
9.1451779518
 30
0.0
 10
-17.5116685348
 20
9.2479144527
 30
0.0
 10
-17.4481937742
 20
9.2957648668
 30
0.0
 10
-17.4146831441
 20
9.3125261141
 30
0.0
 11
-17.6347876416
 21
8.8737436589
 31
0.0
 11
-17.6177981464
 21
9.0205770766
 31
0.0
 11
-17.5737748287
 21
9.146602538
 31
0.0
 11
-17.5049300205
 21
9.2455140482
 31
0.0
 11
-17.4146831441
 21
9.3125261141
 31
0.0
  0
SPLINE
  5
4EA
100
AcDbEntity
  8
RACCORDO
100
AcDbSpline
 62
7
  6
CONTINUOUS
 70
0
 71
3
 72
11
 73
7
 74
5
 42
0.0000001
 43
0.0000001
 44
0.0000000001
 12
-1.0491650369
 22
0.5245825185
 32
0.0
 13
-0.0703136088
 23
1.1708928601
 33
0.0
 40
0.0
 40
0.0
 40
0.0
 40
0.0
 40
0.2318143117
 40
0.4926746298
 40
0.7573897307
 40
1.0
 40
1.0
 40
1.0
 40
1.0
 10
-16.8837501309
 20
-12.9670581054
 30
0.0
 10
-16.9648206212
 20
-12.9265228602
 30
0.0
 10
-17.1208342767
 20
-12.807765676
 30
0.0
 10
-17.3073492358
 20
-12.5749566517
 30
0.0
 10
-17.4415683027
 20
-12.3037684586
 30
0.0
 10
-17.4866763107
 20
-12.1075487919
 30
0.0
 10
-17.4923625785
 20
-12.0128585812
 30
0.0
 11
-16.8837501309
 21
-12.9670581054
 31
0.0
 11
-17.1039568719
 21
-12.8075314127
 31
0.0
 11
-17.297137672
 21
-12.570232262
 31
0.0
 11
-17.4335782061
 21
-12.291303413
 31
0.0
 11
-17.4923625785
 21
-12.0128585812
 31
0.0
  0
SPLINE
  5
4EB
100
AcDbEntity
  8
RACCORDO
100
AcDbSpline
 62
7
  6
CONTINUOUS
 70
0
 71
3
 72
9
 73
5
 74
3
 42
0.0000001
 43
0.0000001
 44
0.0000000001
 12
-0.0341313064
 22
-0.173360888
 32
0.0
 13
-0.1507187584
 23
-0.0922106254
 33
0.0
 40
0.0
 40
0.0
 40
0.0
 40
0.0
 40
0.5329542016
 40
1.0
 40
1.0
 40
1.0
 40
1.0
 10
-4.0630009245
 20
-18.6247705437
 30
0.0
 10
-4.0690643988
 20
-18.6555683482
 30
0.0
 10
-4.0884669305
 20
-18.7126920838
 30
0.0
 10
-4.1308589333
 20
-18.7571615355
 30
0.0
 10
-4.1543231209
 20
-18.7715170639
 30
0.0
 11
-4.0630009245
 21
-18.6247705437
 31
0.0
 11
-4.0962756539
 21
-18.7128626929
 31
0.0
 11
-4.1543231209
 21
-18.7715170639
 31
0.0
  0
SPLINE
  5
4EC
100
AcDbEntity
  8
RACCORDO
100
AcDbSpline
 62
7
  6
CONTINUOUS
 70
0
 71
3
 72
9
 73
5
 74
3
 42
0.0000001
 43
0.0000001
 44
0.0000000001
 12
0.2114814966
 22
-0.1057407483
 32
0.0
 13
0.2363035598
 23
0.008133689
 33
0.0
 40
0.0
 40
0.0
 40
0.0
 40
0.0
 40
0.2742350876
 40
1.0
 40
1.0
 40
1.0
 40
1.0
 10
-4.3672738016
 20
-19.0124779334
 30
0.0
 10
-4.3479419194
 20
-19.0221438745
 30
0.0
 10
-4.2760070043
 20
-19.054018699
 30
0.0
 10
-4.1962858883
 20
-19.0714879231
 30
0.0
 10
-4.1391189442
 20
-19.0695202077
 30
0.0
 11
-4.3672738016
 21
-19.0124779334
 31
0.0
 11
-4.3079022036
 21
-19.0385428936
 31
0.0
 11
-4.1391189442
 21
-19.0695202077
 31
0.0
  0
SPLINE
  5
4ED
100
AcDbEntity
  8
RACCORDO
100
AcDbSpline
 62
253
  6
CONTINUOUS
 70
0
 71
3
 72
9
 73
5
 74
3
 42
0.0000001
 43
0.0000001
 44
0.0000000001
 12
-0.1302035208
 22
-0.0687776449
 32
0.0
 13
-0.1455095767
 23
0.0225894747
 33
0.0
 40
0.0
 40
0.0
 40
0.0
 40
0.0
 40
0.4923487692
 40
1.0
 40
1.0
 40
1.0
 40
1.0
 10
-3.9621102685
 20
7.2458475436
 30
0.0
 10
-3.9834787829
 20
7.234560014
 30
0.0
 10
-4.0310205464
 20
7.2186720111
 30
0.0
 10
-4.0810183858
 20
7.2192970882
 30
0.0
 10
-4.105641091
 20
7.2231196131
 30
0.0
 11
-3.9621102685
 21
7.2458475436
 31
0.0
 11
-4.0308884112
 21
7.2229180279
 31
0.0
 11
-4.105641091
 21
7.2231196131
 31
0.0
  0
SPLINE
  5
4EE
100
AcDbEntity
  8
RACCORDO
100
AcDbSpline
 62
253
  6
CONTINUOUS
 70
0
 71
3
 72
9
 73
5
 74
3
 42
0.0000001
 43
0.0000001
 44
0.0000000001
 12
-0.0495742747
 22
0.0076961039
 32
0.0
 13
-0.0474845422
 23
0.0161881742
 33
0.0
 40
0.0
 40
0.0
 40
0.0
 40
0.0
 40
0.2451983063
 40
1.0
 40
1.0
 40
1.0
 40
1.0
 10
-4.105641091
 20
7.2231196131
 30
0.0
 10
-4.1096929337
 20
7.223748637
 30
0.0
 10
-4.1261567301
 20
7.2266986594
 30
0.0
 10
-4.1423434131
 20
7.2311472598
 30
0.0
 10
-4.1542905507
 20
7.2352202135
 30
0.0
 11
-4.105641091
 21
7.2231196131
 31
0.0
 11
-4.117750063
 21
7.2252854158
 31
0.0
 11
-4.1542905507
 21
7.2352202135
 31
0.0
  0
SPLINE
  5
4EF
100
AcDbEntity
  8
RACCORDO
100
AcDbSpline
 62
7
  6
CONTINUOUS
 70
0
 71
3
 72
9
 73
5
 74
3
 42
0.0000001
 43
0.0000001
 44
0.0000000001
 12
0.0701163157
 22
-0.0595946402
 32
0.0
 13
0.0754643514
 23
-0.0526588127
 33
0.0
 40
0.0
 40
0.0
 40
0.0
 40
0.0
 40
0.2548223755
 40
1.0
 40
1.0
 40
1.0
 40
1.0
 10
-16.8421916051
 20
-12.7453943615
 30
0.0
 10
-16.8362358697
 20
-12.7504563775
 30
0.0
 10
-16.8126415451
 20
-12.770057575
 30
0.0
 10
-16.7881441507
 20
-12.7885775543
 30
0.0
 10
-16.7693993687
 20
-12.8016576106
 30
0.0
 11
-16.8421916051
 21
-12.7453943615
 31
0.0
 11
-16.8241525057
 21
-12.7603758166
 31
0.0
 11
-16.7693993687
 21
-12.8016576106
 31
0.0
  0
SPLINE
  5
4F0
100
AcDbEntity
  8
RACCORDO
100
AcDbSpline
 62
7
  6
CONTINUOUS
 70
0
 71
3
 72
9
 73
5
 74
3
 42
0.0000001
 43
0.0000001
 44
0.0000000001
 12
0.0941791578
 22
-0.0657179521
 32
0.0
 13
0.1027173325
 23
-0.0513586662
 33
0.0
 40
0.0
 40
0.0
 40
0.0
 40
0.0
 40
0.2583377127
 40
1.0
 40
1.0
 40
1.0
 40
1.0
 10
-16.7693993687
 20
-12.8016576106
 30
0.0
 10
-16.7612893593
 20
-12.8073167525
 30
0.0
 10
-16.7295381004
 20
-12.8286999515
 30
0.0
 10
-16.6963256515
 20
-12.8479520084
 30
0.0
 10
-16.6709317943
 20
-12.8606489371
 30
0.0
 11
-16.7693993687
 21
-12.8016576106
 31
0.0
 11
-16.7447867466
 21
-12.8182226969
 31
0.0
 11
-16.6709317943
 21
-12.8606489371
 31
0.0
  0
LINE
  5
4F1
100
AcDbEntity
  8
RACCORDO
100
AcDbLine
 62
7
  6
CONTINUOUS
 10
-17.422591409
 20
8.9798417751
 11
-17.4240320828
 21
8.9061344572
  0
SPLINE
  5
4F2
100
AcDbEntity
  8
RACCORDO
100
AcDbSpline
 62
7
  6
CONTINUOUS
 70
0
 71
3
 72
11
 73
7
 74
5
 42
0.0000001
 43
0.0000001
 44
0.0000000001
 12
-0.3790616052
 22
0.1895308026
 32
0.0
 13
-0.020662909
 23
0.42329974
 33
0.0
 40
0.0
 40
0.0
 40
0.0
 40
0.0
 40
0.2244614817
 40
0.4716909202
 40
0.7325895586
 40
1.0
 40
1.0
 40
1.0
 40
1.0
 10
-4.8019857557
 20
-17.6208609389
 30
0.0
 10
-4.8303473323
 20
-17.6066801506
 30
0.0
 10
-4.8806300314
 20
-17.5583259351
 30
0.0
 10
-4.924255455
 20
-17.4633744028
 30
0.0
 10
-4.9494164808
 20
-17.3562629986
 30
0.0
 10
-4.9565347367
 20
-17.2817948828
 30
0.0
 10
-4.9583765626
 20
-17.2440632927
 30
0.0
 11
-4.8019857557
 21
-17.6208609389
 31
0.0
 11
-4.8731772278
 21
-17.5577654691
 31
0.0
 11
-4.9201808585
 21
-17.464123442
 31
0.0
 11
-4.9467611411
 21
-17.3567960249
 31
0.0
 11
-4.9583765626
 21
-17.2440632927
 31
0.0
  0
SPLINE
  5
4F3
100
AcDbEntity
  8
RACCORDO
100
AcDbSpline
 62
253
  6
CONTINUOUS
 70
0
 71
3
 72
11
 73
7
 74
5
 42
0.0000001
 43
0.0000001
 44
0.0000000001
 12
-0.649188379
 22
-0.3186483056
 32
0.0
 13
-0.6468263595
 23
0.3234160707
 33
0.0
 40
0.0
 40
0.0
 40
0.0
 40
0.0
 40
0.2359705712
 40
0.5006055875
 40
0.7649148275
 40
1.0
 40
1.0
 40
1.0
 40
1.0
 10
-16.3013496096
 20
0.0065743402
 30
0.0
 10
-16.3524127272
 20
-0.018489534
 30
0.0
 10
-16.4693129394
 20
-0.0541680319
 30
0.0
 10
-16.6539216766
 20
-0.07093073
 30
0.0
 10
-16.8382334762
 20
-0.053311771
 30
0.0
 10
-16.9546711727
 20
-0.0170521589
 30
0.0
 10
-17.0053576014
 20
0.0082912821
 30
0.0
 11
-16.3013496096
 21
0.0065743402
 31
0.0
 11
-16.4634899792
 21
-0.0466352308
 31
0.0
 11
-16.6539858747
 21
-0.0649832188
 31
0.0
 11
-16.8441532696
 21
-0.0457068652
 31
0.0
 11
-17.0053576014
 21
0.0082912821
 31
0.0
  0
SPLINE
  5
4F4
100
AcDbEntity
  8
RACCORDO
100
AcDbSpline
 62
7
  6
CONTINUOUS
 70
0
 71
3
 72
17
 73
13
 74
11
 42
0.0000001
 43
0.0000001
 44
0.0000000001
 12
-0.3543429845
 22
-1.026416523
 32
0.0
 13
-0.9712218405
 23
0.4856109202
 33
0.0
 40
0.0
 40
0.0
 40
0.0
 40
0.0
 40
0.1355596325
 40
0.2697013737
 40
0.4019779842
 40
0.5317571055
 40
0.6580039954
 40
0.7789658245
 40
0.8368134447
 40
0.8924805894
 40
0.9463026053
 40
1.0
 40
1.0
 40
1.0
 40
1.0
 10
-16.163273541
 20
-10.8586361291
 30
0.0
 10
-16.1792850759
 20
-10.9050163447
 30
0.0
 10
-16.2138387359
 20
-10.9963881265
 30
0.0
 10
-16.2736409012
 20
-11.1291355174
 30
0.0
 10
-16.3414652425
 20
-11.2556292178
 30
0.0
 10
-16.4179292271
 20
-11.3738195661
 30
0.0
 10
-16.5039301538
 20
-11.4800791602
 30
0.0
 10
-16.586191574
 20
-11.5550631201
 30
0.0
 10
-16.6592186221
 20
-11.598935212
 30
0.0
 10
-16.7164887555
 20
-11.6201509664
 30
0.0
 10
-16.7762807596
 20
-11.6252980254
 30
0.0
 10
-16.8148001506
 20
-11.6144537414
 30
0.0
 10
-16.8321841781
 20
-11.6057617277
 30
0.0
 11
-16.163273541
 21
-10.8586361291
 31
0.0
 11
-16.2154275096
 21
-10.9962857072
 31
0.0
 11
-16.2754325291
 21
-11.1290107914
 31
0.0
 11
-16.3436107611
 21
-11.2554322426
 31
0.0
 11
-16.4206778003
 21
-11.3734137403
 31
0.0
 11
-16.507813587
 21
-11.4792438647
 31
0.0
 11
-16.6066303421
 21
-11.5657737043
 31
0.0
 11
-16.6608056217
 21
-11.5975649449
 31
0.0
 11
-16.7178039765
 21
-11.6176892504
 31
0.0
 11
-16.7761069087
 21
-11.6217348143
 31
0.0
 11
-16.8321841781
 21
-11.6057617277
 31
0.0
  0
SPLINE
  5
4F5
100
AcDbEntity
  8
RACCORDO
100
AcDbSpline
 62
253
  6
CONTINUOUS
 70
0
 71
3
 72
11
 73
7
 74
5
 42
0.0000001
 43
0.0000001
 44
0.0000000001
 12
-0.6438348999
 22
-0.3312037265
 32
0.0
 13
-0.6476437984
 23
0.3236924423
 33
0.0
 40
0.0
 40
0.0
 40
0.0
 40
0.0
 40
0.2370705237
 40
0.5017497135
 40
0.7654861829
 40
1.0
 40
1.0
 40
1.0
 40
1.0
 10
-16.2370660028
 20
-8.3616824841
 30
0.0
 10
-16.2879440951
 20
-8.3878553644
 30
0.0
 10
-16.4046110731
 20
-8.4257950739
 30
0.0
 10
-16.5893715248
 20
-8.4452259798
 30
0.0
 10
-16.7738503444
 20
-8.4294173331
 30
0.0
 10
-16.8903830616
 20
-8.3936453464
 30
0.0
 10
-16.9410102014
 20
-8.3683418963
 30
0.0
 11
-16.2370660028
 21
-8.3616824841
 31
0.0
 11
-16.3991820586
 21
-8.4180809232
 31
0.0
 11
-16.5896573572
 21
-8.4391375435
 31
0.0
 11
-16.7798109168
 21
-8.4216817263
 31
0.0
 11
-16.9410102014
 21
-8.3683418963
 31
0.0
  0
SPLINE
  5
4F6
100
AcDbEntity
  8
RACCORDO
100
AcDbSpline
 62
253
  6
CONTINUOUS
 70
0
 71
3
 72
9
 73
5
 74
3
 42
0.0000001
 43
0.0000001
 44
0.0000000001
 12
-0.0866366712
 22
0.0417409009
 32
0.0
 13
-0.083192193
 23
-0.0482418348
 33
0.0
 40
0.0
 40
0.0
 40
0.0
 40
0.0
 40
0.5419484001
 40
1.0
 40
1.0
 40
1.0
 40
1.0
 10
-2.709045895
 20
13.209879693
 30
0.0
 10
-2.7246967634
 20
13.2174201645
 30
0.0
 10
-2.7561535257
 20
13.227546609
 30
0.0
 10
-2.7895663928
 20
13.2208189552
 30
0.0
 10
-2.8022684985
 20
13.2134532053
 30
0.0
 11
-2.709045895
 21
13.209879693
 31
0.0
 11
-2.7593671712
 21
13.2234460006
 31
0.0
 11
-2.8022684985
 21
13.2134532053
 31
0.0
  0
SPLINE
  5
4F7
100
AcDbEntity
  8
RACCORDO
100
AcDbSpline
 62
253
  6
CONTINUOUS
 70
0
 71
3
 72
9
 73
5
 74
3
 42
0.0000001
 43
0.0000001
 44
0.0000000001
 12
-0.081652919
 22
0.0405374905
 32
0.0
 13
0.0102137057
 23
0.0905878995
 33
0.0
 40
0.0
 40
0.0
 40
0.0
 40
0.0
 40
0.3345381594
 40
1.0
 40
1.0
 40
1.0
 40
1.0
 10
-3.3619926689
 20
12.1384617667
 30
0.0
 10
-3.371098008
 20
12.1429822125
 30
0.0
 10
-3.3965384406
 20
12.1571032001
 30
0.0
 10
-3.4231387267
 20
12.1850265952
 30
0.0
 10
-3.4208731162
 20
12.2051208586
 30
0.0
 11
-3.3619926689
 21
12.1384617667
 31
0.0
 11
-3.3882494049
 21
12.1539749381
 31
0.0
 11
-3.4208731162
 21
12.2051208586
 31
0.0
  0
SPLINE
  5
4F8
100
AcDbEntity
  8
RACCORDO
100
AcDbSpline
 62
253
  6
CONTINUOUS
 70
0
 71
3
 72
11
 73
7
 74
5
 42
0.0000001
 43
0.0000001
 44
0.0000000001
 12
-0.084958505
 22
0.0422919984
 32
0.0
 13
0.0062379343
 23
0.0946976709
 33
0.0
 40
0.0
 40
0.0
 40
0.0
 40
0.0
 40
0.3155410043
 40
0.5838392161
 40
0.806509652
 40
1.0
 40
1.0
 40
1.0
 40
1.0
 10
-3.7997803053
 20
7.4077517089
 30
0.0
 10
-3.8087162693
 20
7.4121999954
 30
0.0
 10
-3.8247434695
 20
7.4215564392
 30
0.0
 10
-3.8441942193
 20
7.4383743048
 30
0.0
 10
-3.8563941576
 20
7.4567219046
 30
0.0
 10
-3.858882606
 20
7.4701735885
 30
0.0
 10
-3.8584802793
 20
7.4762812836
 30
0.0
 11
-3.7997803053
 21
7.4077517089
 31
0.0
 11
-3.8254717459
 21
7.423136709
 31
0.0
 11
-3.8443719796
 21
7.44019862
 31
0.0
 11
-3.8555030748
 21
7.4581614461
 31
0.0
 11
-3.8584802793
 21
7.4762812836
 31
0.0
  0
SPLINE
  5
4F9
100
AcDbEntity
  8
0
100
AcDbSpline
 62
253
  6
CONTINUOUS
 70
0
 71
3
 72
10
 73
6
 74
4
 42
0.0000001
 43
0.0000001
 44
0.0000000001
 12
0.0007367353
 22
-0.1556345922
 32
0.0
 13
-0.1384794885
 23
-0.0710359087
 33
0.0
 40
0.0
 40
0.0
 40
0.0
 40
0.0
 40
0.5475254686
 40
0.7817271398
 40
1.0
 40
1.0
 40
1.0
 40
1.0
 10
2.7270118097
 20
-24.4945011366
 30
0.0
 10
2.7271462702
 20
-24.522905771
 30
0.0
 10
2.7208661064
 20
-24.5649053422
 30
0.0
 10
2.6924243625
 20
-24.6091565476
 30
0.0
 10
2.6733991614
 20
-24.6238964733
 30
0.0
 10
2.6633237234
 20
-24.629064877
 30
0.0
 11
2.7270118097
 21
-24.4945011366
 31
0.0
 11
2.710522687
 21
-24.5781054476
 31
0.0
 11
2.6903220451
 21
-24.6084461415
 31
0.0
 11
2.6633237234
 21
-24.629064877
 31
0.0
  0
SPLINE
  5
4FA
100
AcDbEntity
  8
RACCORDO
100
AcDbSpline
 62
253
  6
CONTINUOUS
 70
0
 71
3
 72
9
 73
5
 74
3
 42
0.0000001
 43
0.0000001
 44
0.0000000001
 12
0.0145922904
 22
0.2205007387
 32
0.0
 13
0.1620109865
 23
0.1502862301
 33
0.0
 40
0.0
 40
0.0
 40
0.0
 40
0.0
 40
0.4975761521
 40
1.0
 40
1.0
 40
1.0
 40
1.0
 10
-4.3375740433
 20
7.0251076368
 30
0.0
 10
-4.3351537848
 20
7.0616796066
 30
0.0
 10
-4.3138622514
 20
7.1341536083
 30
0.0
 10
-4.2705613802
 20
7.1959333125
 30
0.0
 10
-4.2434286524
 20
7.2211024412
 30
0.0
 11
-4.3375740433
 21
7.0251076368
 31
0.0
 11
-4.3085163498
 21
7.1311545605
 31
0.0
 11
-4.2434286524
 21
7.2211024412
 31
0.0
  0
SPLINE
  5
4FB
100
AcDbEntity
  8
0
100
AcDbSpline
 62
7
  6
CONTINUOUS
 70
0
 71
3
 72
10
 73
6
 74
4
 42
0.0000001
 43
0.0000001
 44
0.0000000001
 12
-0.0
 22
-0.1559505894
 32
0.0
 13
-0.1387591004
 23
-0.0711793397
 33
0.0
 40
0.0
 40
0.0
 40
0.0
 40
0.0
 40
0.5479337167
 40
0.782130602
 40
1.0
 40
1.0
 40
1.0
 40
1.0
 10
2.198744638
 20
-24.7655121953
 30
0.0
 10
2.198744638
 20
-24.793995724
 30
0.0
 10
2.1922935228
 20
-24.8360533526
 30
0.0
 10
2.163756546
 20
-24.880358647
 30
0.0
 10
2.144716619
 20
-24.8951206243
 30
0.0
 10
2.1346394985
 20
-24.9002898909
 30
0.0
 11
2.198744638
 21
-24.7655121953
 31
0.0
 11
2.1819176338
 21
-24.8492896063
 31
0.0
 11
2.1616429079
 21
-24.8796684709
 31
0.0
 11
2.1346394985
 21
-24.9002898909
 31
0.0
  0
SPLINE
  5
4FC
100
AcDbEntity
  8
RACCORDO
100
AcDbSpline
 62
253
  6
CONTINUOUS
 70
0
 71
3
 72
9
 73
5
 74
3
 42
0.0000001
 43
0.0000001
 44
0.0000000001
 12
0.0142417605
 22
0.2152036573
 32
0.0
 13
0.1549656712
 23
0.1500036087
 33
0.0
 40
0.0
 40
0.0
 40
0.0
 40
0.0
 40
0.4963753761
 40
1.0
 40
1.0
 40
1.0
 40
1.0
 10
-17.0905242259
 20
13.4015827281
 30
0.0
 10
-17.0881678061
 20
13.4371899936
 30
0.0
 10
-17.0677657802
 20
13.5079548288
 30
0.0
 10
-17.0263200647
 20
13.5686747197
 30
0.0
 10
-17.0003052221
 20
13.5938565567
 30
0.0
 11
-17.0905242259
 21
13.4015827281
 31
0.0
 11
-17.0627287561
 21
13.5049668781
 31
0.0
 11
-17.0003052221
 21
13.5938565567
 31
0.0
  0
SPLINE
  5
4FD
100
AcDbEntity
  8
0
100
AcDbSpline
 62
253
  6
CONTINUOUS
 70
0
 71
3
 72
11
 73
7
 74
5
 42
0.0000001
 43
0.0000001
 44
0.0000000001
 12
-0.0007563656
 22
-0.1586850504
 32
0.0
 13
-0.1426632749
 23
-0.0694889007
 33
0.0
 40
0.0
 40
0.0
 40
0.0
 40
0.0
 40
0.2901390019
 40
0.5501335806
 40
0.7832367603
 40
1.0
 40
1.0
 40
1.0
 40
1.0
 10
0.5974638471
 20
-25.5455467949
 30
0.0
 10
0.5973906967
 20
-25.5608937023
 30
0.0
 10
0.5947733442
 20
-25.5900922066
 30
0.0
 10
0.5820859364
 20
-25.6299586656
 30
0.0
 10
0.561063152
 20
-25.6617674908
 30
0.0
 10
0.5415102348
 20
-25.6763763957
 30
0.0
 10
0.5312021836
 20
-25.6813972754
 30
0.0
 11
0.5974638471
 21
-25.5455467949
 31
0.0
 11
0.5928792387
 21
-25.5913592127
 31
0.0
 11
0.5798110836
 21
-25.6304926115
 31
0.0
 11
0.5589065514
 21
-25.6610096718
 31
0.0
 11
0.5312021836
 21
-25.6813972754
 31
0.0
  0
SPLINE
  5
4FE
100
AcDbEntity
  8
0
100
AcDbSpline
 62
253
  6
CONTINUOUS
 70
0
 71
3
 72
9
 73
5
 74
3
 42
0.0000001
 43
0.0000001
 44
0.0000000001
 12
0.0
 22
0.2514083247
 32
0.0
 13
0.1603864367
 23
0.1936035553
 33
0.0
 40
0.0
 40
0.0
 40
0.0
 40
0.0
 40
0.4868891312
 40
1.0
 40
1.0
 40
1.0
 40
1.0
 10
0.2449418875
 20
-25.205060137
 30
0.0
 10
0.2449418875
 20
-25.1642574767
 30
0.0
 10
0.2634210212
 20
-25.0804213165
 30
0.0
 10
0.3058982272
 20
-25.006479326
 30
0.0
 10
0.3333302351
 20
-24.9733659631
 30
0.0
 11
0.2449418875
 21
-25.205060137
 31
0.0
 11
0.2686254739
 21
-25.0849651683
 31
0.0
 11
0.3333302351
 21
-24.9733659631
 31
0.0
  0
SPLINE
  5
4FF
100
AcDbEntity
  8
0
100
AcDbSpline
 62
253
  6
CONTINUOUS
 70
0
 71
3
 72
11
 73
7
 74
5
 42
0.0000001
 43
0.0000001
 44
0.0000000001
 12
-0.1867733391
 22
0.3016213508
 32
0.0
 13
-0.3163609943
 23
0.1605473161
 33
0.0
 40
0.0
 40
0.0
 40
0.0
 40
0.0
 40
0.2188690821
 40
0.4829783205
 40
0.7560361716
 40
1.0
 40
1.0
 40
1.0
 40
1.0
 10
0.5974638471
 20
-25.2055728608
 30
0.0
 10
0.583837544
 20
-25.1835676648
 30
0.0
 10
0.5478116189
 20
-25.1387953264
 30
0.0
 10
0.483703528
 20
-25.0763166764
 30
0.0
 10
0.4110743981
 20
-25.0189917096
 30
0.0
 10
0.3590571149
 20
-24.9864218758
 30
0.0
 10
0.3333302351
 20
-24.9733659631
 30
0.0
 11
0.5974638471
 21
-25.2055728608
 31
0.0
 11
0.5501740811
 21
-25.1439869766
 31
0.0
 11
0.4833995356
 21
-25.078257684
 31
0.0
 11
0.4072689128
 21
-25.0183552365
 31
0.0
 11
0.3333302351
 21
-24.9733659631
 31
0.0
  0
SPLINE
  5
500
100
AcDbEntity
  8
0
100
AcDbSpline
 62
7
  6
CONTINUOUS
 70
0
 71
3
 72
10
 73
6
 74
4
 42
0.0000001
 43
0.0000001
 44
0.0000000001
 12
-0.3674823818
 22
0.0767372205
 32
0.0
 13
-0.3357759991
 23
0.1678879995
 33
0.0
 40
0.0
 40
0.0
 40
0.0
 40
0.0
 40
0.2083150484
 40
0.4661810473
 40
1.0
 40
1.0
 40
1.0
 40
1.0
 10
1.3086844552
 20
-24.3540763837
 30
0.0
 10
1.2831670852
 20
-24.3487478777
 30
0.0
 10
1.2267031998
 20
-24.333782156
 30
0.0
 10
1.1077434438
 20
-24.295025286
 30
0.0
 10
1.0153961313
 20
-24.2581804777
 30
0.0
 10
0.9556482672
 20
-24.2283065456
 30
0.0
 11
1.3086844552
 21
-24.3540763837
 31
0.0
 11
1.2329059117
 21
-24.3347534777
 31
0.0
 11
1.1407650303
 21
-24.3050666635
 31
0.0
 11
0.9556482672
 21
-24.2283065456
 31
0.0
  0
SPLINE
  5
501
100
AcDbEntity
  8
RACCORDO
100
AcDbSpline
 62
253
  6
CONTINUOUS
 70
0
 71
3
 72
9
 73
5
 74
3
 42
0.0000001
 43
0.0000001
 44
0.0000000001
 12
0.223453012
 22
-0.112193577
 32
0.0
 13
0.2444225209
 23
0.0526904029
 33
0.0
 40
0.0
 40
0.0
 40
0.0
 40
0.0
 40
0.4886683806
 40
1.0
 40
1.0
 40
1.0
 40
1.0
 10
-17.5411717165
 20
14.2784391328
 30
0.0
 10
-17.504773576
 20
14.2601639816
 30
0.0
 10
-17.4218358957
 20
14.2407470167
 30
0.0
 10
-17.3372265831
 20
14.2423222932
 30
0.0
 10
-17.2955662619
 20
14.2513030495
 30
0.0
 11
-17.5411717165
 21
14.2784391328
 31
0.0
 11
-17.4233163517
 21
14.2461999478
 31
0.0
 11
-17.2955662619
 21
14.2513030495
 31
0.0
  0
SPLINE
  5
502
100
AcDbEntity
  8
RACCORDO
100
AcDbSpline
 62
253
  6
CONTINUOUS
 70
0
 71
3
 72
9
 73
5
 74
3
 42
0.0000001
 43
0.0000001
 44
0.0000000001
 12
0.2121449405
 22
-0.1068241757
 32
0.0
 13
0.235898687
 23
0.0277252544
 33
0.0
 40
0.0
 40
0.0
 40
0.0
 40
0.0
 40
0.4865724107
 40
1.0
 40
1.0
 40
1.0
 40
1.0
 10
-17.0878407525
 20
19.0013973115
 30
0.0
 10
-17.0534327942
 20
18.9840714126
 30
0.0
 10
-16.9756792941
 20
18.9632090437
 30
0.0
 10
-16.8957168702
 20
18.9595905728
 30
0.0
 10
-16.8553445722
 20
18.964335543
 30
0.0
 11
-17.0878407525
 21
19.0013973115
 31
0.0
 11
-16.9772444095
 21
18.967851846
 31
0.0
 11
-16.8553445722
 21
18.964335543
 31
0.0
  0
SPLINE
  5
503
100
AcDbEntity
  8
0
100
AcDbSpline
 62
253
  6
CONTINUOUS
 70
0
 71
3
 72
9
 73
5
 74
3
 42
0.0000001
 43
0.0000001
 44
0.0000000001
 12
0.0540205738
 22
0.1425958475
 32
0.0
 13
-0.0197436141
 23
0.1512018116
 33
0.0
 40
0.0
 40
0.0
 40
0.0
 40
0.0
 40
0.2521477516
 40
1.0
 40
1.0
 40
1.0
 40
1.0
 10
2.7270118097
 20
-24.1469696199
 30
0.0
 10
2.7315521985
 20
-24.1349845458
 30
0.0
 10
2.7466339611
 20
-24.0864058755
 30
0.0
 10
2.7499711197
 20
-24.034098501
 30
0.0
 10
2.7450493509
 20
-23.9964062961
 30
0.0
 11
2.7270118097
 21
-24.1469696199
 31
0.0
 11
2.7384111593
 21
-24.1102494754
 31
0.0
 11
2.7450493509
 21
-23.9964062961
 31
0.0
  0
SPLINE
  5
504
100
AcDbEntity
  8
0
100
AcDbSpline
 62
253
  6
CONTINUOUS
 70
0
 71
3
 72
9
 73
5
 74
3
 42
0.0000001
 43
0.0000001
 44
0.0000000001
 12
-0.0115352623
 22
0.0539890339
 32
0.0
 13
-0.0227940441
 23
0.0502822992
 33
0.0
 40
0.0
 40
0.0
 40
0.0
 40
0.0
 40
0.2548105244
 40
1.0
 40
1.0
 40
1.0
 40
1.0
 10
2.7411931449
 20
-23.9739191842
 30
0.0
 10
2.7402133762
 20
-23.9693335262
 30
0.0
 10
2.7359112663
 20
-23.9514393903
 30
0.0
 10
2.729750057
 20
-23.9339802732
 30
0.0
 10
2.7240880964
 20
-23.9214903264
 30
0.0
 11
2.7411931449
 21
-23.9739191842
 31
0.0
 11
2.7379002221
 21
-23.960242543
 31
0.0
 11
2.7240880964
 21
-23.9214903264
 31
0.0
  0
SPLINE
  5
505
100
AcDbEntity
  8
0
100
AcDbSpline
 62
253
  6
CONTINUOUS
 70
0
 71
3
 72
9
 73
5
 74
3
 42
0.0000001
 43
0.0000001
 44
0.0000000001
 12
-0.0497004364
 22
0.1096361925
 32
0.0
 13
-0.1043794006
 23
0.0599597266
 33
0.0
 40
0.0
 40
0.0
 40
0.0
 40
0.0
 40
0.5166283026
 40
1.0
 40
1.0
 40
1.0
 40
1.0
 10
2.7240880964
 20
-23.9214903264
 30
0.0
 10
2.7155292123
 20
-23.9026099398
 30
0.0
 10
2.6940650879
 20
-23.8679761973
 30
0.0
 10
2.6627484473
 20
-23.8415310693
 30
0.0
 10
2.6459304313
 20
-23.8318701244
 30
0.0
 11
2.7240880964
 21
-23.9214903264
 31
0.0
 11
2.6907215801
 21
-23.8690099772
 31
0.0
 11
2.6459304313
 21
-23.8318701244
 31
0.0
  0
SPLINE
  5
506
100
AcDbEntity
  8
RACCORDO
100
AcDbSpline
 62
253
  6
CONTINUOUS
 70
0
 71
3
 72
9
 73
5
 74
3
 42
0.0000001
 43
0.0000001
 44
0.0000000001
 12
0.1041226463
 22
-0.0540243066
 32
0.0
 13
0.0683217135
 23
-0.0953535245
 33
0.0
 40
0.0
 40
0.0
 40
0.0
 40
0.0
 40
0.2269081972
 40
1.0
 40
1.0
 40
1.0
 40
1.0
 10
-16.4164142783
 20
20.0635638846
 30
0.0
 10
-16.408538851
 20
20.0594776986
 30
0.0
 10
-16.3753005768
 20
20.0386633645
 30
0.0
 10
-16.3479566182
 20
20.0093314098
 30
0.0
 10
-16.3303502993
 20
19.984759067
 30
0.0
 11
-16.4164142783
 21
20.0635638846
 31
0.0
 11
-16.3937582598
 21
20.049593263
 31
0.0
 11
-16.3303502993
 21
19.984759067
 31
0.0
  0
SPLINE
  5
507
100
AcDbEntity
  8
RACCORDO
100
AcDbSpline
 62
253
  6
CONTINUOUS
 70
0
 71
3
 72
9
 73
5
 74
3
 42
0.0000001
 43
0.0000001
 44
0.0000000001
 12
0.0583236007
 22
-0.0813996109
 32
0.0
 13
0.0321196199
 23
-0.0948465554
 33
0.0
 40
0.0
 40
0.0
 40
0.0
 40
0.0
 40
0.7521343921
 40
1.0
 40
1.0
 40
1.0
 40
1.0
 10
-16.3303502993
 20
19.984759067
 30
0.0
 10
-16.315727904
 20
19.9643512514
 30
0.0
 10
-16.2992231097
 20
19.9349161295
 30
0.0
 10
-16.2872751883
 20
19.9037346806
 30
0.0
 10
-16.2846214053
 20
19.8958982809
 30
0.0
 11
-16.3303502993
 21
19.984759067
 31
0.0
 11
-16.2934781082
 21
19.9190850084
 31
0.0
 11
-16.2846214053
 21
19.8958982809
 31
0.0
  0
SPLINE
  5
508
100
AcDbEntity
  8
RACCORDO
100
AcDbSpline
 62
253
  6
CONTINUOUS
 70
0
 71
3
 72
9
 73
5
 74
3
 42
0.0000001
 43
0.0000001
 44
0.0000000001
 12
0.0572003679
 22
-0.0282490489
 32
0.0
 13
0.0635238624
 23
0.0058830055
 33
0.0
 40
0.0
 40
0.0
 40
0.0
 40
0.0
 40
0.2739412591
 40
1.0
 40
1.0
 40
1.0
 40
1.0
 10
-13.1701269615
 20
22.3843022724
 30
0.0
 10
-13.1649037812
 20
22.3817227457
 30
0.0
 10
-13.1454149661
 20
22.3733247209
 30
0.0
 10
-13.1236057815
 20
22.3692400316
 30
0.0
 10
-13.108231763
 20
22.3706638342
 30
0.0
 11
-13.1701269615
 21
22.3843022724
 31
0.0
 11
-13.1540520708
 21
22.3774453038
 31
0.0
 11
-13.108231763
 21
22.3706638342
 31
0.0
  0
SPLINE
  5
509
100
AcDbEntity
  8
RACCORDO
100
AcDbSpline
 62
253
  6
CONTINUOUS
 70
0
 71
3
 72
11
 73
7
 74
5
 42
0.0000001
 43
0.0000001
 44
0.0000000001
 12
0.2485227499
 22
0.1402130956
 32
0.0
 13
-0.0
 23
0.285347629
 33
0.0
 40
0.0
 40
0.0
 40
0.0
 40
0.0
 40
0.2325923618
 40
0.4915258743
 40
0.7550990907
 40
1.0
 40
1.0
 40
1.0
 40
1.0
 10
-13.1682811556
 20
22.0467274188
 30
0.0
 10
-13.1490129912
 20
22.0575982505
 30
0.0
 10
-13.1125788647
 20
22.0882126036
 30
0.0
 10
-13.0703842687
 20
22.1470538529
 30
0.0
 10
-13.0421167106
 20
22.2149844703
 30
0.0
 10
-13.0342612213
 20
22.2634111306
 30
0.0
 10
-13.0342612213
 20
22.2867050952
 30
0.0
 11
-13.1682811556
 21
22.0467274188
 31
0.0
 11
-13.1165395028
 21
22.0882934584
 31
0.0
 11
-13.0730872587
 21
22.1480517458
 31
0.0
 11
-13.0443507977
 21
22.2175554058
 31
0.0
 11
-13.0342612213
 21
22.2867050952
 31
0.0
  0
SPLINE
  5
50A
100
AcDbEntity
  8
RACCORDO
100
AcDbSpline
 62
253
  6
CONTINUOUS
 70
0
 71
3
 72
11
 73
7
 74
5
 42
0.0000001
 43
0.0000001
 44
0.0000000001
 12
0.2485227502
 22
0.1402130954
 32
0.0
 13
-0.0000000004
 23
0.2853476291
 33
0.0
 40
0.0
 40
0.0
 40
0.0
 40
0.0
 40
0.2325923477
 40
0.4915258488
 40
0.7550990786
 40
1.0
 40
1.0
 40
1.0
 40
1.0
 10
-11.4815154314
 20
21.2033445567
 30
0.0
 10
-11.4622472681
 20
21.2142153877
 30
0.0
 10
-11.4258131421
 20
21.2448297374
 30
0.0
 10
-11.3836185471
 20
21.3036709864
 30
0.0
 10
-11.3553509882
 20
21.3716016047
 30
0.0
 10
-11.347495497
 20
21.4200282673
 30
0.0
 10
-11.3474954971
 20
21.4433222331
 30
0.0
 11
-11.4815154314
 21
21.2033445567
 31
0.0
 11
-11.4297737807
 21
21.2449105925
 31
0.0
 11
-11.3863215381
 21
21.3046688771
 31
0.0
 11
-11.357585075
 21
21.3741725404
 31
0.0
 11
-11.3474954971
 21
21.4433222331
 31
0.0
  0
SPLINE
  5
50B
100
AcDbEntity
  8
RACCORDO
100
AcDbSpline
 62
253
  6
CONTINUOUS
 70
0
 71
3
 72
11
 73
7
 74
5
 42
0.0000001
 43
0.0000001
 44
0.0000000001
 12
-0.2612648762
 22
0.1322549794
 32
0.0
 13
-0.0128644528
 23
0.2925495188
 33
0.0
 40
0.0
 40
0.0
 40
0.0
 40
0.0
 40
0.2306959004
 40
0.4907914876
 40
0.7559042309
 40
1.0
 40
1.0
 40
1.0
 40
1.0
 10
-10.846975904
 20
21.2227267436
 30
0.0
 10
-10.867066816
 20
21.2328969708
 30
0.0
 10
-10.9056238437
 20
21.2628145912
 30
0.0
 10
-10.9512042493
 20
21.3215487432
 30
0.0
 10
-10.9835224623
 20
21.3899580397
 30
0.0
 10
-10.9939268177
 20
21.4393112326
 30
0.0
 10
-10.9949735372
 20
21.4631145992
 30
0.0
 11
-10.846975904
 21
21.2227267436
 31
0.0
 11
-10.901333906
 21
21.2628379889
 31
0.0
 11
-10.9485459299
 21
21.3226045029
 31
0.0
 11
-10.9814271229
 21
21.3929308574
 31
0.0
 11
-10.9949735372
 21
21.4631145992
 31
0.0
  0
SPLINE
  5
50C
100
AcDbEntity
  8
RACCORDO
100
AcDbSpline
 62
253
  6
CONTINUOUS
 70
0
 71
3
 72
9
 73
5
 74
3
 42
0.0000001
 43
0.0000001
 44
0.0000000001
 12
0.0572003679
 22
-0.0282490489
 32
0.0
 13
0.0635238624
 23
0.0058830055
 33
0.0
 40
0.0
 40
0.0
 40
0.0
 40
0.0
 40
0.2739412591
 40
1.0
 40
1.0
 40
1.0
 40
1.0
 10
-0.8664689689
 20
16.232473276
 30
0.0
 10
-0.8612457886
 20
16.2298937494
 30
0.0
 10
-0.8417569735
 20
16.2214957246
 30
0.0
 10
-0.8199477889
 20
16.2174110353
 30
0.0
 10
-0.8045737704
 20
16.2188348378
 30
0.0
 11
-0.8664689689
 21
16.232473276
 31
0.0
 11
-0.8503940781
 21
16.2256163075
 31
0.0
 11
-0.8045737704
 21
16.2188348378
 31
0.0
  0
SPLINE
  5
50D
100
AcDbEntity
  8
RACCORDO
100
AcDbSpline
 62
253
  6
CONTINUOUS
 70
0
 71
3
 72
11
 73
7
 74
5
 42
0.0000001
 43
0.0000001
 44
0.0000000001
 12
0.2485227499
 22
0.1402130956
 32
0.0
 13
0.0
 23
0.285347629
 33
0.0
 40
0.0
 40
0.0
 40
0.0
 40
0.0
 40
0.2325923618
 40
0.4915258743
 40
0.7550990907
 40
1.0
 40
1.0
 40
1.0
 40
1.0
 10
-0.864623163
 20
15.8948984225
 30
0.0
 10
-0.8453549985
 20
15.9057692542
 30
0.0
 10
-0.8089208721
 20
15.9363836072
 30
0.0
 10
-0.766726276
 20
15.9952248566
 30
0.0
 10
-0.738458718
 20
16.0631554739
 30
0.0
 10
-0.7306032287
 20
16.1115821342
 30
0.0
 10
-0.7306032287
 20
16.1348760988
 30
0.0
 11
-0.864623163
 21
15.8948984225
 31
0.0
 11
-0.8128815101
 21
15.936464462
 31
0.0
 11
-0.769429266
 21
15.9962227495
 31
0.0
 11
-0.740692805
 21
16.0657264095
 31
0.0
 11
-0.7306032287
 21
16.1348760988
 31
0.0
  0
SPLINE
  5
50E
100
AcDbEntity
  8
RACCORDO
100
AcDbSpline
 62
253
  6
CONTINUOUS
 70
0
 71
3
 72
11
 73
7
 74
5
 42
0.0000001
 43
0.0000001
 44
0.0000000001
 12
0.2485227502
 22
0.1402130954
 32
0.0
 13
-0.0000000004
 23
0.2853476291
 33
0.0
 40
0.0
 40
0.0
 40
0.0
 40
0.0
 40
0.2325923477
 40
0.4915258488
 40
0.7550990786
 40
1.0
 40
1.0
 40
1.0
 40
1.0
 10
0.8221425613
 20
15.0515155604
 30
0.0
 10
0.8414107246
 20
15.0623863914
 30
0.0
 10
0.8778448505
 20
15.0930007411
 30
0.0
 10
0.9200394456
 20
15.1518419901
 30
0.0
 10
0.9483070045
 20
15.2197726083
 30
0.0
 10
0.9561624956
 20
15.268199271
 30
0.0
 10
0.9561624956
 20
15.2914932367
 30
0.0
 11
0.8221425613
 21
15.0515155604
 31
0.0
 11
0.873884212
 21
15.0930815962
 31
0.0
 11
0.9173364545
 21
15.1528398808
 31
0.0
 11
0.9460729177
 21
15.2223435441
 31
0.0
 11
0.9561624956
 21
15.2914932367
 31
0.0
  0
SPLINE
  5
50F
100
AcDbEntity
  8
RACCORDO
100
AcDbSpline
 62
253
  6
CONTINUOUS
 70
0
 71
3
 72
11
 73
7
 74
5
 42
0.0000001
 43
0.0000001
 44
0.0000000001
 12
-0.2612648762
 22
0.1322549794
 32
0.0
 13
-0.0128644528
 23
0.2925495188
 33
0.0
 40
0.0
 40
0.0
 40
0.0
 40
0.0
 40
0.2306959004
 40
0.4907914876
 40
0.7559042309
 40
1.0
 40
1.0
 40
1.0
 40
1.0
 10
1.4566820886
 20
15.0708977473
 30
0.0
 10
1.4365911767
 20
15.0810679745
 30
0.0
 10
1.3980341489
 20
15.1109855949
 30
0.0
 10
1.3524537434
 20
15.1697197468
 30
0.0
 10
1.3201355304
 20
15.2381290433
 30
0.0
 10
1.3097311749
 20
15.2874822362
 30
0.0
 10
1.3086844554
 20
15.3112856028
 30
0.0
 11
1.4566820886
 21
15.0708977473
 31
0.0
 11
1.4023240866
 21
15.1110089926
 31
0.0
 11
1.3551120628
 21
15.1707755066
 31
0.0
 11
1.3222308697
 21
15.2411018611
 31
0.0
 11
1.3086844554
 21
15.3112856028
 31
0.0
  0
SPLINE
  5
510
100
AcDbEntity
  8
0
100
AcDbSpline
 62
253
  6
CONTINUOUS
 70
0
 71
3
 72
10
 73
6
 74
4
 42
0.0000001
 43
0.0000001
 44
0.0000000001
 12
0.0394099582
 22
-0.0641576145
 32
0.0
 13
-0.0476287454
 23
-0.0583167808
 33
0.0
 40
0.0
 40
0.0
 40
0.0
 40
0.0
 40
0.3488607343
 40
0.628015101
 40
1.0
 40
1.0
 40
1.0
 40
1.0
 10
2.7270118097
 20
17.1526345195
 30
0.0
 10
2.731594672
 20
17.1451738286
 30
0.0
 10
2.7392022971
 20
17.1311426998
 30
0.0
 10
2.7480496015
 20
17.1082524942
 30
0.0
 10
2.7483142886
 20
17.089074665
 30
0.0
 10
2.7424085639
 20
17.0818436777
 30
0.0
 11
2.7270118097
 21
17.1526345195
 31
0.0
 11
2.7394136927
 21
17.1294790858
 31
0.0
 11
2.7462181212
 21
17.1095920132
 31
0.0
 11
2.7424085639
 21
17.0818436777
 31
0.0
  0
LINE
  5
511
100
AcDbEntity
  8
RACCORDO
100
AcDbLine
 62
253
  6
CONTINUOUS
 10
8.6008925845
 20
-15.8049758453
 11
6.2411594857
 21
-16.7760643613
  0
SPLINE
  5
512
100
AcDbEntity
  8
0
100
AcDbSpline
 62
7
  6
CONTINUOUS
 70
0
 71
3
 72
10
 73
6
 74
4
 42
0.0000001
 43
0.0000001
 44
0.0000000001
 12
0.3473086931
 22
-0.0725863021
 32
0.0
 13
0.2274530278
 23
0.2723182324
 33
0.0
 40
0.0
 40
0.0
 40
0.0
 40
0.0
 40
0.4823936024
 40
0.7434680481
 40
1.0
 40
1.0
 40
1.0
 40
1.0
 10
0.9948459772
 20
15.8078731774
 30
0.0
 10
1.0506924744
 20
15.7962014548
 30
0.0
 10
1.14408362
 20
15.8174302964
 30
0.0
 10
1.2443909636
 20
15.8794781843
 30
0.0
 10
1.2892347988
 20
15.9222416465
 30
0.0
 10
1.3086844552
 20
15.9455277557
 30
0.0
 11
0.9948459772
 21
15.8078731774
 31
0.0
 11
1.1639633443
 21
15.8342333623
 31
0.0
 11
1.2430464521
 21
15.8824687302
 31
0.0
 11
1.3086844552
 21
15.9455277557
 31
0.0
  0
LINE
  5
513
100
AcDbEntity
  8
RACCORDO
100
AcDbLine
 62
253
  6
CONTINUOUS
 10
8.6008925845
 20
18.8446056682
 11
8.4779835707
 21
18.7701126453
  0
LINE
  5
514
100
AcDbEntity
  8
RACCORDO
100
AcDbLine
 62
253
  6
CONTINUOUS
 10
8.4779835707
 20
18.7701126453
 11
3.4026735507
 21
15.6940552106
  0
SPLINE
  5
515
100
AcDbEntity
  8
0
100
AcDbSpline
 62
253
  6
CONTINUOUS
 70
0
 71
3
 72
10
 73
6
 74
4
 42
0.0000001
 43
0.0000001
 44
0.0000000001
 12
0.0394245837
 22
-0.0641814242
 32
0.0
 13
-0.047737085
 23
-0.0582642577
 33
0.0
 40
0.0
 40
0.0
 40
0.0
 40
0.0
 40
0.3489322052
 40
0.6280947357
 40
1.0
 40
1.0
 40
1.0
 40
1.0
 10
-9.5766461829
 20
23.3044635158
 30
0.0
 10
-9.5720606806
 20
23.2969985272
 30
0.0
 10
-9.5644501182
 20
23.2829596804
 30
0.0
 10
-9.5556007226
 20
23.2600613869
 30
0.0
 10
-9.5553513044
 20
23.2408714372
 30
0.0
 10
-9.5612691955
 20
23.2336485091
 30
0.0
 11
-9.5766461829
 21
23.3044635158
 31
0.0
 11
-9.5642381191
 21
23.2812942273
 31
0.0
 11
-9.5574348422
 21
23.2613978668
 31
0.0
 11
-9.5612691955
 21
23.2336485091
 31
0.0
  0
SPLINE
  5
516
100
AcDbEntity
  8
0
100
AcDbSpline
 62
253
  6
CONTINUOUS
 70
0
 71
3
 72
9
 73
5
 74
3
 42
0.0000001
 43
0.0000001
 44
0.0000000001
 12
-0.1010580258
 22
0.0505290129
 32
0.0
 13
-0.0117323552
 23
0.1123755203
 33
0.0
 40
0.0
 40
0.0
 40
0.0
 40
0.0
 40
0.5649857998
 40
1.0
 40
1.0
 40
1.0
 40
1.0
 10
-13.7372541756
 20
23.0856420339
 30
0.0
 10
-13.7562862921
 20
23.0951580922
 30
0.0
 10
-13.7887137867
 20
23.115799519
 30
0.0
 10
-13.8084359614
 20
23.1512164585
 30
0.0
 10
-13.8101372084
 20
23.1675114409
 30
0.0
 11
-13.7372541756
 21
23.0856420339
 31
0.0
 11
-13.7888727882
 21
23.1231987942
 31
0.0
 11
-13.8101372084
 21
23.1675114409
 31
0.0
  0
SPLINE
  5
517
100
AcDbEntity
  8
0
100
AcDbSpline
 62
253
  6
CONTINUOUS
 70
0
 71
3
 72
11
 73
7
 74
5
 42
0.0000001
 43
0.0000001
 44
0.0000000001
 12
-0.1076203556
 22
0.0538101778
 32
0.0
 13
-0.0000006378
 23
0.1203232155
 33
0.0
 40
0.0
 40
0.0
 40
0.0
 40
0.0
 40
0.3025799362
 40
0.5654849533
 40
0.7934323367
 40
1.0
 40
1.0
 40
1.0
 40
1.0
 10
-13.7372541756
 20
23.4256159681
 30
0.0
 10
-13.7481087624
 20
23.4310432615
 30
0.0
 10
-13.7677271806
 20
23.4426832198
 30
0.0
 10
-13.791539004
 20
23.4642033439
 30
0.0
 10
-13.806818135
 20
23.4881579762
 30
0.0
 10
-13.8104771783
 20
23.5057193362
 30
0.0
 10
-13.8104772222
 20
23.5140042981
 30
0.0
 11
-13.7372541756
 21
23.4256159681
 31
0.0
 11
-13.7683456003
 21
23.4445585503
 31
0.0
 11
-13.7914470929
 21
23.466168831
 31
0.0
 11
-13.8056737151
 21
23.4896179976
 31
0.0
 11
-13.8104772222
 21
23.5140042981
 31
0.0
  0
SPLINE
  5
518
100
AcDbEntity
  8
0
100
AcDbSpline
 62
253
  6
CONTINUOUS
 70
0
 71
3
 72
11
 73
7
 74
5
 42
0.0000001
 43
0.0000001
 44
0.0000000001
 12
0.0
 22
-0.157427875
 32
0.0
 13
0.1408051618
 23
-0.0704091061
 33
0.0
 40
0.0
 40
0.0
 40
0.0
 40
0.0
 40
0.2897455134
 40
0.5495875958
 40
0.7828491694
 40
1.0
 40
1.0
 40
1.0
 40
1.0
 10
-12.0587161052
 20
22.2463729987
 30
0.0
 10
-12.0587161052
 20
22.2311683253
 30
0.0
 10
-12.0562624882
 20
22.2022185011
 30
0.0
 10
-12.0438891264
 20
22.1626247384
 30
0.0
 10
-12.0232241067
 20
22.1309251843
 30
0.0
 10
-12.0039372879
 20
22.116252204
 30
0.0
 10
-11.9937453019
 20
22.1111557387
 30
0.0
 11
-12.0587161052
 21
22.2463729987
 31
0.0
 11
-12.0543965741
 21
22.2009639631
 31
0.0
 11
-12.0416493254
 21
22.1620944361
 31
0.0
 11
-12.0210973313
 21
22.131662355
 31
0.0
 11
-11.9937453019
 21
22.1111557387
 31
0.0
  0
SPLINE
  5
519
100
AcDbEntity
  8
0
100
AcDbSpline
 62
253
  6
CONTINUOUS
 70
0
 71
3
 72
9
 73
5
 74
3
 42
0.0000001
 43
0.0000001
 44
0.0000000001
 12
0.0
 22
-0.1475994898
 32
0.0
 13
0.125318951
 23
-0.0779792914
 33
0.0
 40
0.0
 40
0.0
 40
0.0
 40
0.0
 40
0.549503191
 40
1.0
 40
1.0
 40
1.0
 40
1.0
 10
-13.7372541756
 20
23.0856420339
 30
0.0
 10
-13.7372541756
 20
23.0586065704
 30
0.0
 10
-13.7305142296
 20
23.0084447721
 30
0.0
 10
-13.6987236118
 20
22.9663999958
 30
0.0
 10
-13.6799050159
 20
22.9546901885
 30
0.0
 11
-13.7372541756
 21
23.0856420339
 31
0.0
 11
-13.7222827875
 21
23.0059293992
 31
0.0
 11
-13.6799050159
 21
22.9546901885
 31
0.0
  0
SPLINE
  5
51A
100
AcDbEntity
  8
0
100
AcDbSpline
 62
253
  6
CONTINUOUS
 70
0
 71
3
 72
11
 73
7
 74
5
 42
0.0000001
 43
0.0000001
 44
0.0000000001
 12
0.3239339031
 22
-0.1619669516
 32
0.0
 13
0.3246816256
 23
0.1604627963
 33
0.0
 40
0.0
 40
0.0
 40
0.0
 40
0.0
 40
0.2351711086
 40
0.4995790016
 40
0.7642134063
 40
1.0
 40
1.0
 40
1.0
 40
1.0
 10
-12.0587161052
 20
22.5863469329
 30
0.0
 10
-12.0333228068
 20
22.5736502837
 30
0.0
 10
-11.9749786681
 20
22.5555059853
 30
0.0
 10
-11.8826436118
 20
22.5467503299
 30
0.0
 10
-11.7902092643
 20
22.5552524059
 30
0.0
 10
-11.7317126704
 20
22.5732225503
 30
0.0
 10
-11.7061941455
 20
22.585834209
 30
0.0
 11
-12.0587161052
 21
22.5863469329
 31
0.0
 11
-11.9779462159
 21
22.5593201775
 31
0.0
 11
-11.8826666731
 21
22.5497359389
 31
0.0
 11
-11.7872772154
 21
22.5590428449
 31
0.0
 11
-11.7061941455
 21
22.585834209
 31
0.0
  0
SPLINE
  5
51B
100
AcDbEntity
  8
0
100
AcDbSpline
 62
253
  6
CONTINUOUS
 70
0
 71
3
 72
11
 73
7
 74
5
 42
0.0000001
 43
0.0000001
 44
0.0000000001
 12
0.323933903
 22
-0.1619669515
 32
0.0
 13
0.3246816254
 23
0.1604627962
 33
0.0
 40
0.0
 40
0.0
 40
0.0
 40
0.0
 40
0.2351712695
 40
0.4995791233
 40
0.7642134642
 40
1.0
 40
1.0
 40
1.0
 40
1.0
 10
-12.0587161052
 20
22.2463729987
 30
0.0
 10
-12.0333227894
 20
22.2336763409
 30
0.0
 10
-11.9749786334
 20
22.2155320452
 30
0.0
 10
-11.8826435703
 20
22.2067763963
 30
0.0
 10
-11.7902092427
 20
22.2152784769
 30
0.0
 10
-11.7317126641
 20
22.2332486193
 30
0.0
 10
-11.7061941455
 20
22.2458602749
 30
0.0
 11
-12.0587161052
 21
22.2463729987
 31
0.0
 11
-11.9779461582
 21
22.2193462323
 31
0.0
 11
-11.8826666286
 21
22.2097620047
 31
0.0
 11
-11.7872771946
 21
22.2190689148
 31
0.0
 11
-11.7061941455
 21
22.2458602749
 31
0.0
  0
SPLINE
  5
51C
100
AcDbEntity
  8
0
100
AcDbSpline
 62
7
  6
CONTINUOUS
 70
0
 71
3
 72
10
 73
6
 74
4
 42
0.0000001
 43
0.0000001
 44
0.0000000001
 12
-0.2274471789
 22
-0.2723112298
 32
0.0
 13
-0.3473290773
 23
0.0724440274
 33
0.0
 40
0.0
 40
0.0
 40
0.0
 40
0.0
 40
0.2565291183
 40
0.5176013489
 40
1.0
 40
1.0
 40
1.0
 40
1.0
 10
-10.9949735374
 20
22.097356752
 30
0.0
 10
-11.0144224788
 20
22.0740714988
 30
0.0
 10
-11.0592642692
 20
22.0313103002
 30
0.0
 10
-11.1595697559
 20
21.9692576146
 30
0.0
 10
-11.252952024
 20
21.9480492887
 30
0.0
 10
-11.3088023835
 20
21.9596982557
 30
0.0
 11
-10.9949735374
 21
22.097356752
 31
0.0
 11
-11.0606088785
 21
22.0342997852
 31
0.0
 11
-11.1396886974
 21
21.9860651088
 31
0.0
 11
-11.3088023835
 21
21.9596982557
 31
0.0
  0
SPLINE
  5
51D
100
AcDbEntity
  8
0
100
AcDbSpline
 62
253
  6
CONTINUOUS
 70
0
 71
3
 72
11
 73
7
 74
5
 42
0.0000001
 43
0.0000001
 44
0.0000000001
 12
-0.1066634485
 22
-0.2776809507
 32
0.0
 13
-0.2911830694
 23
0.06079656
 33
0.0
 40
0.0
 40
0.0
 40
0.0
 40
0.0
 40
0.2776557585
 40
0.5374732707
 40
0.7760958843
 40
1.0
 40
1.0
 40
1.0
 40
1.0
 10
-11.7061941455
 20
22.2458602749
 30
0.0
 10
-11.7160660524
 20
22.2201603699
 30
0.0
 10
-11.7418419245
 20
22.172602984
 30
0.0
 10
-11.7973511315
 20
22.1175214365
 30
0.0
 10
-11.8637422384
 20
22.0864473016
 30
0.0
 10
-11.9113052946
 20
22.0855015682
 30
0.0
 10
-11.9330376571
 20
22.0900391016
 30
0.0
 11
-11.7061941455
 21
22.2458602749
 31
0.0
 11
-11.7460776235
 21
22.173536246
 31
0.0
 11
-11.8016281328
 21
22.1198030878
 31
0.0
 11
-11.8664396693
 21
22.0908583315
 31
0.0
 11
-11.9330376571
 21
22.0900391016
 31
0.0
  0
SPLINE
  5
51E
100
AcDbEntity
  8
RACCORDO
100
AcDbSpline
 62
253
  6
CONTINUOUS
 70
0
 71
3
 72
11
 73
7
 74
5
 42
0.0000001
 43
0.0000001
 44
0.0000000001
 12
0.3264016368
 22
-0.1632368628
 32
0.0
 13
0.3116685507
 23
0.1898605183
 33
0.0
 40
0.0
 40
0.0
 40
0.0
 40
0.0
 40
0.2326068364
 40
0.4942871587
 40
0.7589758636
 40
1.0
 40
1.0
 40
1.0
 40
1.0
 10
-11.3474701041
 20
21.4433099939
 30
0.0
 10
-11.3221623534
 20
21.4306533239
 30
0.0
 10
-11.2634373057
 20
21.4136523467
 30
0.0
 10
-11.1705874488
 20
21.4093729695
 30
0.0
 10
-11.0778202337
 20
21.4244341859
 30
0.0
 10
-11.0200053113
 20
21.4478658651
 30
0.0
 10
-10.9949654302
 20
21.4631195209
 30
0.0
 11
-11.3474701041
 21
21.4433099939
 31
0.0
 11
-11.2665052534
 21
21.4178000968
 31
0.0
 11
-11.1711440574
 21
21.4126766926
 31
0.0
 11
-11.0758686721
 21
21.4285986229
 31
0.0
 11
-10.9949654302
 21
21.4631195209
 31
0.0
  0
SPLINE
  5
51F
100
AcDbEntity
  8
0
100
AcDbSpline
 62
253
  6
CONTINUOUS
 70
0
 71
3
 72
9
 73
5
 74
3
 42
0.0000001
 43
0.0000001
 44
0.0000000001
 12
-0.1010580258
 22
0.0505290129
 32
0.0
 13
-0.0117323552
 23
0.1123755203
 33
0.0
 40
0.0
 40
0.0
 40
0.0
 40
0.0
 40
0.5649857998
 40
1.0
 40
1.0
 40
1.0
 40
1.0
 10
-1.4335961829
 20
16.9338130376
 30
0.0
 10
-1.4526282994
 20
16.9433290959
 30
0.0
 10
-1.4850557941
 20
16.9639705227
 30
0.0
 10
-1.5047779688
 20
16.9993874622
 30
0.0
 10
-1.5064792158
 20
17.0156824446
 30
0.0
 11
-1.4335961829
 21
16.9338130376
 31
0.0
 11
-1.4852147955
 21
16.9713697979
 31
0.0
 11
-1.5064792158
 21
17.0156824446
 31
0.0
  0
SPLINE
  5
520
100
AcDbEntity
  8
0
100
AcDbSpline
 62
253
  6
CONTINUOUS
 70
0
 71
3
 72
11
 73
7
 74
5
 42
0.0000001
 43
0.0000001
 44
0.0000000001
 12
-0.1076203879
 22
0.0538101939
 32
0.0
 13
-0.0000005245
 23
0.1203232516
 33
0.0
 40
0.0
 40
0.0
 40
0.0
 40
0.0
 40
0.3025803505
 40
0.5654851532
 40
0.7934324302
 40
1.0
 40
1.0
 40
1.0
 40
1.0
 10
-1.4335961829
 20
17.2737869718
 30
0.0
 10
-1.4444507878
 20
17.2792142742
 30
0.0
 10
-1.4640692209
 20
17.290854239
 30
0.0
 10
-1.4878810401
 20
17.3123743877
 30
0.0
 10
-1.5031601594
 20
17.3363290168
 30
0.0
 10
-1.5068191933
 20
17.3538903774
 30
0.0
 10
-1.5068192294
 20
17.362175338
 30
0.0
 11
-1.4335961829
 21
17.2737869718
 31
0.0
 11
-1.4646876574
 21
17.292729589
 31
0.0
 11
-1.4877891273
 21
17.3143398702
 31
0.0
 11
-1.5020157383
 21
17.3377890382
 31
0.0
 11
-1.5068192294
 21
17.362175338
 31
0.0
  0
SPLINE
  5
521
100
AcDbEntity
  8
0
100
AcDbSpline
 62
253
  6
CONTINUOUS
 70
0
 71
3
 72
11
 73
7
 74
5
 42
0.0000001
 43
0.0000001
 44
0.0000000001
 12
0.0
 22
-0.1574218324
 32
0.0
 13
0.1407951418
 23
-0.070415633
 33
0.0
 40
0.0
 40
0.0
 40
0.0
 40
0.0
 40
0.2897444855
 40
0.5495867566
 40
0.7828492792
 40
1.0
 40
1.0
 40
1.0
 40
1.0
 10
0.2449418875
 20
16.0945440024
 30
0.0
 10
0.2449418875
 20
16.0793399665
 30
0.0
 10
0.2473953049
 20
16.0503913089
 30
0.0
 10
0.2597675846
 20
16.0107989208
 30
0.0
 10
0.2804307382
 20
15.9790999167
 30
0.0
 10
0.2997159601
 20
15.9644264169
 30
0.0
 10
0.3099072157
 20
15.9593294817
 30
0.0
 11
0.2449418875
 21
16.0945440024
 31
0.0
 11
0.2492610362
 21
16.0491368517
 31
0.0
 11
0.2620071593
 21
16.0102685766
 31
0.0
 11
0.2825573963
 21
15.9798368295
 31
0.0
 11
0.3099072157
 21
15.9593294817
 31
0.0
  0
SPLINE
  5
522
100
AcDbEntity
  8
0
100
AcDbSpline
 62
253
  6
CONTINUOUS
 70
0
 71
3
 72
9
 73
5
 74
3
 42
0.0000001
 43
0.0000001
 44
0.0000000001
 12
0.0
 22
-0.1475994898
 32
0.0
 13
0.125318951
 23
-0.0779792914
 33
0.0
 40
0.0
 40
0.0
 40
0.0
 40
0.0
 40
0.549503191
 40
1.0
 40
1.0
 40
1.0
 40
1.0
 10
-1.4335961829
 20
16.9338130376
 30
0.0
 10
-1.4335961829
 20
16.9067775741
 30
0.0
 10
-1.426856237
 20
16.8566157757
 30
0.0
 10
-1.3950656191
 20
16.8145709995
 30
0.0
 10
-1.3762470233
 20
16.8028611922
 30
0.0
 11
-1.4335961829
 21
16.9338130376
 31
0.0
 11
-1.4186247948
 21
16.8541004029
 31
0.0
 11
-1.3762470233
 21
16.8028611922
 31
0.0
  0
SPLINE
  5
523
100
AcDbEntity
  8
RACCORDO
100
AcDbSpline
 62
253
  6
CONTINUOUS
 70
0
 71
3
 72
11
 73
7
 74
5
 42
0.0000001
 43
0.0000001
 44
0.0000000001
 12
0.3264016368
 22
-0.1632368628
 32
0.0
 13
0.3116685507
 23
0.1898605183
 33
0.0
 40
0.0
 40
0.0
 40
0.0
 40
0.0
 40
0.2326068364
 40
0.4942871587
 40
0.7589758636
 40
1.0
 40
1.0
 40
1.0
 40
1.0
 10
0.9561878886
 20
15.2914809976
 30
0.0
 10
0.9814956393
 20
15.2788243275
 30
0.0
 10
1.0402206869
 20
15.2618233503
 30
0.0
 10
1.1330705439
 20
15.2575439732
 30
0.0
 10
1.225837759
 20
15.2726051896
 30
0.0
 10
1.2836526813
 20
15.2960368688
 30
0.0
 10
1.3086925624
 20
15.3112905246
 30
0.0
 11
0.9561878886
 21
15.2914809976
 31
0.0
 11
1.0371527392
 21
15.2659711005
 31
0.0
 11
1.1325139352
 21
15.2608476962
 31
0.0
 11
1.2277893205
 21
15.2767696266
 31
0.0
 11
1.3086925624
 21
15.3112905246
 31
0.0
  0
SPLINE
  5
524
100
AcDbEntity
  8
0
100
AcDbSpline
 62
253
  6
CONTINUOUS
 70
0
 71
3
 72
11
 73
7
 74
5
 42
0.0000001
 43
0.0000001
 44
0.0000000001
 12
-0.1066634432
 22
-0.2776809368
 32
0.0
 13
-0.2911830606
 23
0.0607965295
 33
0.0
 40
0.0
 40
0.0
 40
0.0
 40
0.0
 40
0.2776558679
 40
0.5374733441
 40
0.7760959182
 40
1.0
 40
1.0
 40
1.0
 40
1.0
 10
0.5974638471
 20
16.0940312786
 30
0.0
 10
0.5875919368
 20
16.0683313647
 30
0.0
 10
0.5618160599
 20
16.0207739752
 30
0.0
 10
0.5063068482
 20
15.9656924339
 30
0.0
 10
0.4399157545
 20
15.934618307
 30
0.0
 10
0.392352709
 20
15.9336725718
 30
0.0
 10
0.3706203504
 20
15.9382101022
 30
0.0
 11
0.5974638471
 21
16.0940312786
 31
0.0
 11
0.5575803517
 21
16.0217072269
 31
0.0
 11
0.5020298479
 21
15.9679740838
 31
0.0
 11
0.4372183247
 21
15.9390293353
 31
0.0
 11
0.3706203504
 21
15.9382101022
 31
0.0
  0
SPLINE
  5
525
100
AcDbEntity
  8
0
100
AcDbSpline
 62
253
  6
CONTINUOUS
 70
0
 71
3
 72
11
 73
7
 74
5
 42
0.0000001
 43
0.0000001
 44
0.0000000001
 12
0.3239339031
 22
-0.1619669516
 32
0.0
 13
0.3246816256
 23
0.1604627963
 33
0.0
 40
0.0
 40
0.0
 40
0.0
 40
0.0
 40
0.2351713294
 40
0.4995792494
 40
0.7642136314
 40
1.0
 40
1.0
 40
1.0
 40
1.0
 10
0.2449418875
 20
16.4345179365
 30
0.0
 10
0.2703352097
 20
16.4218212754
 30
0.0
 10
0.3286793816
 20
16.4036769776
 30
0.0
 10
0.4210144655
 20
16.3949213334
 30
0.0
 10
0.513448786
 20
16.4034234209
 30
0.0
 10
0.5719453467
 20
16.421393566
 30
0.0
 10
0.5974638471
 20
16.4340052127
 30
0.0
 11
0.2449418875
 21
16.4345179365
 31
0.0
 11
0.325711856
 21
16.4074911659
 31
0.0
 11
0.4209914101
 21
16.3979069425
 31
0.0
 11
0.5163808581
 21
16.4072138639
 31
0.0
 11
0.5974638471
 21
16.4340052127
 31
0.0
  0
SPLINE
  5
526
100
AcDbEntity
  8
0
100
AcDbSpline
 62
253
  6
CONTINUOUS
 70
0
 71
3
 72
11
 73
7
 74
5
 42
0.0000001
 43
0.0000001
 44
0.0000000001
 12
0.323933903
 22
-0.1619669515
 32
0.0
 13
0.3246816255
 23
0.1604627963
 33
0.0
 40
0.0
 40
0.0
 40
0.0
 40
0.0
 40
0.2351713009
 40
0.4995791941
 40
0.7642135602
 40
1.0
 40
1.0
 40
1.0
 40
1.0
 10
0.2449418875
 20
16.0945440024
 30
0.0
 10
0.2703352066
 20
16.0818473429
 30
0.0
 10
0.3286793715
 20
16.0637030459
 30
0.0
 10
0.4210144465
 20
16.0549473996
 30
0.0
 10
0.5134487705
 20
16.0634494841
 30
0.0
 10
0.571945339
 20
16.0814196281
 30
0.0
 10
0.5974638471
 20
16.0940312786
 30
0.0
 11
0.2449418875
 21
16.0945440024
 31
0.0
 11
0.3257118458
 21
16.0675172338
 31
0.0
 11
0.4209913899
 21
16.0579330084
 31
0.0
 11
0.5163808325
 21
16.0672399249
 31
0.0
 11
0.5974638471
 21
16.0940312786
 31
0.0
  0
SPLINE
  5
527
100
AcDbEntity
  8
RACCORDO
100
AcDbSpline
 62
7
  6
CONTINUOUS
 70
0
 71
3
 72
9
 73
5
 74
3
 42
0.0000001
 43
0.0000001
 44
0.0000000001
 12
-0.2080426658
 22
0.1040213329
 32
0.0
 13
-0.2080353411
 23
-0.104035981
 33
0.0
 40
0.0
 40
0.0
 40
0.0
 40
0.0
 40
0.5330489252
 40
1.0
 40
1.0
 40
1.0
 40
1.0
 10
-17.0594347746
 20
9.0287473693
 30
0.0
 10
-17.0964004144
 20
9.0472301892
 30
0.0
 10
-17.1723801309
 20
9.0720659629
 30
0.0
 10
-17.2529074234
 20
9.058007644
 30
0.0
 10
-17.2852881987
 20
9.0418144063
 30
0.0
 11
-17.0594347746
 21
9.0287473693
 31
0.0
 11
-17.1786943803
 21
9.0626561417
 31
0.0
 11
-17.2852881987
 21
9.0418144063
 31
0.0
  0
SPLINE
  5
528
100
AcDbEntity
  8
RACCORDO
100
AcDbSpline
 62
7
  6
CONTINUOUS
 70
0
 71
3
 72
11
 73
7
 74
5
 42
0.0000001
 43
0.0000001
 44
0.0000000001
 12
0.0145863765
 22
0.7345910517
 32
0.0
 13
-0.6571677263
 23
0.3285838631
 33
0.0
 40
0.0
 40
0.0
 40
0.0
 40
0.0
 40
0.248261816
 40
0.513301334
 40
0.7710039852
 40
1.0
 40
1.0
 40
1.0
 40
1.0
 10
-4.4118908334
 20
2.2622952548
 30
0.0
 10
-4.4106837533
 20
2.3230855576
 30
0.0
 10
-4.4289291947
 20
2.4494337795
 30
0.0
 10
-4.5012862708
 20
2.6256374117
 30
0.0
 10
-4.6100391293
 20
2.7762796542
 30
0.0
 10
-4.7056138518
 20
2.8518369079
 30
0.0
 10
-4.7557767819
 20
2.876918373
 30
0.0
 11
-4.4118908334
 21
2.2622952548
 31
0.0
 11
-4.435333426
 21
2.4431894406
 31
0.0
 11
-4.5088040872
 21
2.6235319121
 31
0.0
 11
-4.6212472861
 21
2.7758718007
 31
0.0
 11
-4.7557767819
 21
2.876918373
 31
0.0
  0
SPLINE
  5
529
100
AcDbEntity
  8
RACCORDO
100
AcDbSpline
 62
253
  6
CONTINUOUS
 70
0
 71
3
 72
15
 73
11
 74
9
 42
0.0000001
 43
0.0000001
 44
0.0000000001
 12
-0.3883410732
 22
-0.2215298029
 32
0.0
 13
0.399929036
 23
-0.1998524677
 33
0.0
 40
0.0
 40
0.0
 40
0.0
 40
0.0
 40
0.1500930291
 40
0.2826437627
 40
0.3991344756
 40
0.5054837915
 40
0.6107835806
 40
0.7245283673
 40
0.8535173535
 40
1.0
 40
1.0
 40
1.0
 40
1.0
 10
-13.1701269615
 20
22.3843022724
 30
0.0
 10
-13.1895560575
 20
22.3732189126
 30
0.0
 10
-13.2246963906
 20
22.3495505647
 30
0.0
 10
-13.2669641868
 20
22.3070245895
 30
0.0
 10
-13.2938349179
 20
22.2604750665
 30
0.0
 10
-13.3031118528
 20
22.2113480336
 30
0.0
 10
-13.2935127225
 20
22.1626583865
 30
0.0
 10
-13.2661047628
 20
22.11761018
 30
0.0
 10
-13.2232219418
 20
22.0777730498
 30
0.0
 10
-13.1878087102
 20
22.0564857249
 30
0.0
 10
-13.1682811556
 20
22.0467274188
 30
0.0
 11
-13.1701269615
 21
22.3843022724
 31
0.0
 11
-13.225408534
 21
22.3462638254
 31
0.0
 11
-13.2665280071
 21
22.3035895415
 31
0.0
 11
-13.2917190185
 21
22.258005999
 31
0.0
 11
-13.3000543209
 21
22.2111952214
 31
0.0
 11
-13.2912687687
 21
22.1649443872
 31
0.0
 11
-13.2656302083
 21
22.1210269434
 31
0.0
 11
-13.2240393615
 21
22.0810781363
 31
0.0
 11
-13.1682811556
 21
22.0467274188
 31
0.0
  0
SPLINE
  5
52A
100
AcDbEntity
  8
0
100
AcDbSpline
 62
253
  6
CONTINUOUS
 70
0
 71
3
 72
9
 73
5
 74
3
 42
0.0000001
 43
0.0000001
 44
0.0000000001
 12
-0.0143455091
 22
-0.1093257812
 32
0.0
 13
-0.0983908045
 23
-0.0497711729
 33
0.0
 40
0.0
 40
0.0
 40
0.0
 40
0.0
 40
0.4364396997
 40
1.0
 40
1.0
 40
1.0
 40
1.0
 10
-9.5049847185
 20
23.3841521984
 30
0.0
 10
-9.5070717017
 20
23.3682474947
 30
0.0
 10
-9.5266554167
 20
23.3340881709
 30
0.0
 10
-9.5581631325
 20
23.3138132015
 30
0.0
 10
-9.5766461829
 20
23.3044635158
 30
0.0
 11
-9.5049847185
 21
23.3841521984
 31
0.0
 11
-9.5264372021
 21
23.3410752111
 31
0.0
 11
-9.5766461829
 21
23.3044635158
 31
0.0
  0
SPLINE
  5
52B
100
AcDbEntity
  8
RACCORDO
100
AcDbSpline
 62
253
  6
CONTINUOUS
 70
0
 71
3
 72
11
 73
7
 74
5
 42
0.0000001
 43
0.0000001
 44
0.0000000001
 12
-0.9245181409
 22
0.4617459598
 32
0.0
 13
0.0759266163
 23
1.0306203341
 33
0.0
 40
0.0
 40
0.0
 40
0.0
 40
0.0
 40
0.2276252092
 40
0.4836949976
 40
0.7485958777
 40
1.0
 40
1.0
 40
1.0
 40
1.0
 10
-17.0905242259
 20
13.4015827281
 30
0.0
 10
-17.1606721042
 20
13.436617735
 30
0.0
 10
-17.293478918
 20
13.5439269703
 30
0.0
 10
-17.4399859245
 20
13.7593880423
 30
0.0
 10
-17.5313277793
 20
14.0120775892
 30
0.0
 10
-17.5475344762
 20
14.1920717307
 30
0.0
 10
-17.5411717214
 20
14.2784391308
 30
0.0
 11
-17.0905242259
 21
13.4015827281
 31
0.0
 11
-17.2772217061
 21
13.5446828324
 31
0.0
 11
-17.4285096395
 21
13.7617976555
 31
0.0
 11
-17.5211169984
 21
14.0194099428
 31
0.0
 11
-17.5411717214
 21
14.2784391308
 31
0.0
  0
SPLINE
  5
52C
100
AcDbEntity
  8
RACCORDO
100
AcDbSpline
 62
253
  6
CONTINUOUS
 70
0
 71
3
 72
9
 73
5
 74
3
 42
0.0000001
 43
0.0000001
 44
0.0000000001
 12
-0.0147705253
 22
-0.1017736013
 32
0.0
 13
-0.0307012727
 23
-0.0981502226
 33
0.0
 40
0.0
 40
0.0
 40
0.0
 40
0.0
 40
0.2565024611
 40
1.0
 40
1.0
 40
1.0
 40
1.0
 10
-3.8056647016
 20
7.3529956239
 30
0.0
 10
-3.8069275937
 20
7.3442938975
 30
0.0
 10
-3.8124730366
 20
7.3104649699
 30
0.0
 10
-3.8205549922
 20
7.277032888
 30
0.0
 10
-3.8281637658
 20
7.2527080717
 30
0.0
 11
-3.8056647016
 21
7.3529956239
 31
0.0
 11
-3.8099393193
 21
7.326965601
 31
0.0
 11
-3.8281637658
 21
7.2527080717
 31
0.0
  0
SPLINE
  5
52D
100
AcDbEntity
  8
RACCORDO
100
AcDbSpline
 62
253
  6
CONTINUOUS
 70
0
 71
3
 72
13
 73
9
 74
7
 42
0.0000001
 43
0.0000001
 44
0.0000000001
 12
-0.193034233
 22
-0.6171194622
 32
0.0
 13
-0.5782136664
 23
0.289426332
 33
0.0
 40
0.0
 40
0.0
 40
0.0
 40
0.0
 40
0.2667905453
 40
0.3882663876
 40
0.5049834395
 40
0.6208693483
 40
0.7400759282
 40
1.0
 40
1.0
 40
1.0
 40
1.0
 10
-3.8281637658
 20
7.2527080717
 30
0.0
 10
-3.8453303352
 20
7.1978275258
 30
0.0
 10
-3.8829463421
 20
7.1201053667
 30
0.0
 10
-3.9600727662
 20
7.0421208276
 30
0.0
 10
-4.0258354132
 20
7.0018204867
 30
0.0
 10
-4.0991937415
 20
6.9795541515
 30
0.0
 10
-4.206682327
 20
6.9746503511
 30
0.0
 10
-4.2874768265
 20
7.0000313466
 30
0.0
 10
-4.3375740433
 20
7.0251076368
 30
0.0
 11
-3.8281637658
 21
7.2527080717
 31
0.0
 11
-3.9072629172
 21
7.0994031041
 31
0.0
 11
-3.9628438661
 21
7.0439019263
 31
0.0
 11
-4.0273244253
 21
7.0046850796
 31
0.0
 11
-4.0989939794
 21
6.9828138857
 31
0.0
 11
-4.1759754329
 21
6.9789248227
 31
0.0
 11
-4.3375740433
 21
7.0251076368
 31
0.0
  0
LINE
  5
52E
100
AcDbEntity
  8
RACCORDO
100
AcDbLine
 62
253
  6
CONTINUOUS
 10
-3.7952317312
 20
7.4717824102
 11
-3.79978964
 21
7.4077480901
  0
SPLINE
  5
52F
100
AcDbEntity
  8
0
100
AcDbSpline
 62
253
  6
CONTINUOUS
 70
0
 71
3
 72
11
 73
7
 74
5
 42
0.0000001
 43
0.0000001
 44
0.0000000001
 12
0.0000005196
 22
-0.1191822341
 32
0.0
 13
-0.1063497301
 23
-0.0537972104
 33
0.0
 40
0.0
 40
0.0
 40
0.0
 40
0.0
 40
0.2069626469
 40
0.435062601
 40
0.697808331
 40
1.0
 40
1.0
 40
1.0
 40
1.0
 10
-9.5044485842
 20
23.7398676462
 30
0.0
 10
-9.5044485483
 20
23.731645556
 30
0.0
 10
-9.5080473351
 20
23.7142296735
 30
0.0
 10
-9.5230965867
 20
23.6904341485
 30
0.0
 10
-9.5465739835
 20
23.6690228065
 30
0.0
 10
-9.5659335155
 20
23.6574140555
 30
0.0
 10
-9.5766461829
 20
23.6519950326
 30
0.0
 11
-9.5044485842
 21
23.7398676462
 31
0.0
 11
-9.50918139
 21
23.7156596835
 31
0.0
 11
-9.5232014218
 21
23.6923683104
 31
0.0
 11
-9.5459761571
 21
23.6708760548
 31
0.0
 11
-9.5766461829
 21
23.6519950326
 31
0.0
  0
LINE
  5
530
100
AcDbEntity
  8
RACCORDO
100
AcDbLine
 62
253
  6
CONTINUOUS
 10
-4.891763129
 20
-15.2399348464
 11
-4.8935009698
 21
-15.1683745772
  0
SPLINE
  5
531
100
AcDbEntity
  8
0
100
AcDbSpline
 62
253
  6
CONTINUOUS
 70
0
 71
3
 72
11
 73
7
 74
5
 42
0.0000001
 43
0.0000001
 44
0.0000000001
 12
0.0000005802
 22
-0.119182253
 32
0.0
 13
-0.1063497469
 23
-0.0537972189
 33
0.0
 40
0.0
 40
0.0
 40
0.0
 40
0.0
 40
0.2069625523
 40
0.4350623985
 40
0.6978079136
 40
1.0
 40
1.0
 40
1.0
 40
1.0
 10
2.7992094087
 20
17.2405071518
 30
0.0
 10
2.7992094487
 20
17.2322850641
 30
0.0
 10
2.7956106682
 20
17.2148691851
 30
0.0
 10
2.7805614283
 20
17.1910736682
 30
0.0
 10
2.7570840376
 20
17.1696623067
 30
0.0
 10
2.7377244937
 20
17.1580535508
 30
0.0
 10
2.7270118097
 20
17.1526345195
 30
0.0
 11
2.7992094087
 21
17.2405071518
 31
0.0
 11
2.7944766129
 21
17.2162991947
 31
0.0
 11
2.7804565918
 21
17.1930078252
 31
0.0
 11
2.757681881
 21
17.1715155737
 31
0.0
 11
2.7270118097
 21
17.1526345195
 31
0.0
  0
SPLINE
  5
532
100
AcDbEntity
  8
RACCORDO
100
AcDbSpline
 62
253
  6
CONTINUOUS
 70
0
 71
3
 72
11
 73
7
 74
5
 42
0.0000001
 43
0.0000001
 44
0.0000000001
 12
0.1516699549
 22
1.2876201193
 32
0.0
 13
1.1362046554
 23
0.6245064674
 33
0.0
 40
0.0
 40
0.0
 40
0.0
 40
0.0
 40
0.2518484962
 40
0.5144246723
 40
0.7692745105
 40
1.0
 40
1.0
 40
1.0
 40
1.0
 10
-17.0878548731
 20
19.0013928315
 30
0.0
 10
-17.0751222564
 20
19.1094878951
 30
0.0
 10
-17.0203093029
 20
19.3273588867
 30
0.0
 10
-16.8722786475
 20
19.6275715289
 30
0.0
 10
-16.6711013558
 20
19.8836436873
 30
0.0
 10
-16.5037980701
 20
20.0155340312
 30
0.0
 10
-16.4164142783
 20
20.0635638846
 30
0.0
 11
-17.0878548731
 21
19.0013928315
 31
0.0
 11
-17.0108638791
 21
19.3187134068
 31
0.0
 11
-16.8606023328
 21
19.6241933532
 31
0.0
 11
-16.6544960756
 21
19.8824501006
 31
0.0
 11
-16.4164142783
 21
20.0635638846
 31
0.0
  0
SPLINE
  5
533
100
AcDbEntity
  8
RACCORDO
100
AcDbSpline
 62
253
  6
CONTINUOUS
 70
0
 71
3
 72
9
 73
5
 74
3
 42
0.0000001
 43
0.0000001
 44
0.0000000001
 12
-0.0985963099
 22
-0.0682024496
 32
0.0
 13
-0.0903624389
 23
-0.0787872838
 33
0.0
 40
0.0
 40
0.0
 40
0.0
 40
0.0
 40
0.2445402184
 40
1.0
 40
1.0
 40
1.0
 40
1.0
 10
-2.7711409181
 20
13.1704234255
 30
0.0
 10
-2.7791778392
 20
13.1648640115
 30
0.0
 10
-2.8117031174
 20
13.1416404593
 30
0.0
 10
-2.842873546
 20
13.1165319269
 30
0.0
 10
-2.8656286088
 20
13.0966917188
 30
0.0
 11
-2.7711409181
 21
13.1704234255
 31
0.0
 11
-2.7950042966
 21
13.1533931048
 31
0.0
 11
-2.8656286088
 21
13.0966917188
 31
0.0
  0
SPLINE
  5
534
100
AcDbEntity
  8
RACCORDO
100
AcDbSpline
 62
253
  6
CONTINUOUS
 70
0
 71
3
 72
9
 73
5
 74
3
 42
0.0000001
 43
0.0000001
 44
0.0000000001
 12
-0.7203287051
 22
-0.628056777
 32
0.0
 13
-0.2069900741
 23
-0.9329972496
 33
0.0
 40
0.0
 40
0.0
 40
0.0
 40
0.0
 40
0.4907391087
 40
1.0
 40
1.0
 40
1.0
 40
1.0
 10
-2.8656286088
 20
13.0966917188
 30
0.0
 10
-2.9834597644
 20
12.9939543778
 30
0.0
 10
-3.1832644091
 20
12.737792795
 30
0.0
 10
-3.3031433658
 20
12.4372394372
 30
0.0
 10
-3.3382806823
 20
12.2788597669
 30
0.0
 11
-2.8656286088
 21
13.0966917188
 31
0.0
 11
-3.1603155772
 21
12.7318467206
 31
0.0
 11
-3.3382806823
 21
12.2788597669
 31
0.0
  0
SPLINE
  5
535
100
AcDbEntity
  8
0
100
AcDbSpline
 62
253
  6
CONTINUOUS
 70
0
 71
3
 72
11
 73
7
 74
5
 42
0.0000001
 43
0.0000001
 44
0.0000000001
 12
0.0000006317
 22
-0.1191822703
 32
0.0
 13
-0.1063497623
 23
-0.0537972267
 33
0.0
 40
0.0
 40
0.0
 40
0.0
 40
0.0
 40
0.2069625494
 40
0.4350623935
 40
0.6978079022
 40
1.0
 40
1.0
 40
1.0
 40
1.0
 10
2.7992094086
 20
17.5880386861
 30
0.0
 10
2.7992094522
 20
17.5798165972
 30
0.0
 10
2.7956106744
 20
17.5624007146
 30
0.0
 10
2.780561435
 20
17.5386051931
 30
0.0
 10
2.7570840426
 20
17.5171938262
 30
0.0
 10
2.7377244956
 20
17.5055850685
 30
0.0
 10
2.7270118097
 20
17.5001660362
 30
0.0
 11
2.7992094086
 21
17.5880386861
 31
0.0
 11
2.7944766184
 21
17.5638307246
 31
0.0
 11
2.7804565982
 21
17.5405393502
 31
0.0
 11
2.7576818862
 21
17.5190470944
 31
0.0
 11
2.7270118097
 21
17.5001660362
 31
0.0
  0
SPLINE
  5
536
100
AcDbEntity
  8
RACCORDO
100
AcDbSpline
 62
253
  6
CONTINUOUS
 70
0
 71
3
 72
11
 73
7
 74
5
 42
0.0000001
 43
0.0000001
 44
0.0000000001
 12
0.5852300107
 22
-0.2928473416
 32
0.0
 13
0.5714867888
 23
0.3188362921
 33
0.0
 40
0.0
 40
0.0
 40
0.0
 40
0.0
 40
0.233717506
 40
0.496573559
 40
0.7612407692
 40
1.0
 40
1.0
 40
1.0
 40
1.0
 10
-11.4815154314
 20
21.2033445567
 30
0.0
 10
-11.4359225986
 20
21.1805300399
 30
0.0
 10
-11.3305776234
 20
21.1490261059
 30
0.0
 10
-11.1639001665
 20
21.1376993244
 30
0.0
 10
-10.9971435021
 20
21.1595170566
 30
0.0
 10
-10.8924584861
 20
21.1973517077
 30
0.0
 10
-10.846975904
 20
21.2227267436
 30
0.0
 11
-11.4815154314
 21
21.2033445567
 31
0.0
 11
-11.3360099376
 21
21.1562167676
 31
0.0
 11
-11.1644718757
 21
21.1434043198
 31
0.0
 11
-10.9928513679
 21
21.1667502439
 31
0.0
 11
-10.846975904
 21
21.2227267436
 31
0.0
  0
SPLINE
  5
537
100
AcDbEntity
  8
0
100
AcDbSpline
 62
7
  6
CONTINUOUS
 70
0
 71
3
 72
9
 73
5
 74
3
 42
0.0000001
 43
0.0000001
 44
0.0000000001
 12
0.1698226182
 22
0.3445330186
 32
0.0
 13
-0.1204268443
 23
0.3647466213
 33
0.0
 40
0.0
 40
0.0
 40
0.0
 40
0.0
 40
0.4547712433
 40
1.0
 40
1.0
 40
1.0
 40
1.0
 10
-1.8317640148
 20
18.1106040736
 30
0.0
 10
-1.8060205337
 20
18.1628319766
 30
0.0
 10
-1.7850297755
 20
18.2944694162
 30
0.0
 10
-1.8098772886
 20
18.4218056797
 30
0.0
 10
-1.8317640148
 20
18.4880957953
 30
0.0
 11
-1.8317640148
 21
18.1106040736
 31
0.0
 11
-1.7964086757
 21
18.2816722649
 31
0.0
 11
-1.8317640148
 21
18.4880957953
 31
0.0
  0
SPLINE
  5
538
100
AcDbEntity
  8
0
100
AcDbSpline
 62
253
  6
CONTINUOUS
 70
0
 71
3
 72
10
 73
6
 74
4
 42
0.0000001
 43
0.0000001
 44
0.0000000001
 12
0.0308799789
 22
-0.2340447477
 32
0.0
 13
0.2109165949
 23
-0.1060410628
 33
0.0
 40
0.0
 40
0.0
 40
0.0
 40
0.0
 40
0.2234425178
 40
0.459597332
 40
1.0
 40
1.0
 40
1.0
 40
1.0
 10
-17.8163037828
 20
-17.270649453
 30
0.0
 10
-17.814003816
 20
-17.2880813022
 30
0.0
 10
-17.803584419
 20
-17.3234042292
 30
0.0
 10
-17.7600764785
 20
-17.3899766369
 30
0.0
 10
-17.7080741252
 20
-17.4264328893
 30
0.0
 10
-17.6700808283
 20
-17.4455345137
 30
0.0
 11
-17.8163037828
 21
-17.270649453
 31
0.0
 11
-17.8016090445
 21
-17.3213100649
 31
0.0
 11
-17.7716290717
 21
-17.3683126372
 31
0.0
 11
-17.6700808283
 21
-17.4455345137
 31
0.0
  0
SPLINE
  5
539
100
AcDbEntity
  8
0
100
AcDbSpline
 62
253
  6
CONTINUOUS
 70
0
 71
3
 72
11
 73
7
 74
5
 42
0.0000001
 43
0.0000001
 44
0.0000000001
 12
0.0041452609
 22
-0.2405440989
 32
0.0
 13
0.2151467092
 23
-0.1076593713
 33
0.0
 40
0.0
 40
0.0
 40
0.0
 40
0.0
 40
0.2089532095
 40
0.4379862534
 40
0.7000739252
 40
1.0
 40
1.0
 40
1.0
 40
1.0
 10
-18.5044276214
 20
-7.4828115802
 30
0.0
 10
-18.5041388995
 20
-7.4995657341
 30
0.0
 10
-18.4964372726
 20
-7.5348233226
 30
0.0
 10
-18.4658091428
 20
-7.5828879345
 30
0.0
 10
-18.4184456938
 20
-7.6259046028
 30
0.0
 10
-18.3794895639
 20
-7.6490936175
 30
0.0
 10
-18.3579801946
 20
-7.6598569017
 30
0.0
 11
-18.5044276214
 21
-7.4828115802
 31
0.0
 11
-18.4941819877
 21
-7.5320263369
 31
0.0
 11
-18.4655330305
 21
-7.5790936012
 31
0.0
 11
-18.4195573722
 21
-7.6222435729
 31
0.0
 11
-18.3579801946
 21
-7.6598569017
 31
0.0
  0
SPLINE
  5
53A
100
AcDbEntity
  8
0
100
AcDbSpline
 62
7
  6
CONTINUOUS
 70
0
 71
3
 72
11
 73
7
 74
5
 42
0.0000001
 43
0.0000001
 44
0.0000000001
 12
-0.0
 22
0.7308594011
 32
0.0
 13
-0.6537005211
 23
0.3268502606
 33
0.0
 40
0.0
 40
0.0
 40
0.0
 40
0.0
 40
0.5095240915
 40
0.7692759824
 40
0.8894805775
 40
1.0
 40
1.0
 40
1.0
 40
1.0
 10
2.9058514191
 20
14.847812271
 30
0.0
 10
2.9058514191
 20
14.9719424285
 30
0.0
 10
2.8441546752
 20
15.160639872
 30
0.0
 10
2.71373136
 20
15.3351650374
 30
0.0
 10
2.6239677997
 20
15.414615732
 30
0.0
 10
2.5766493546
 20
15.4456241969
 30
0.0
 10
2.5525671532
 20
15.4576652976
 30
0.0
 11
2.9058514191
 21
14.847812271
 31
0.0
 11
2.8017047439
 21
15.2053428766
 31
0.0
 11
2.6868087169
 21
15.3564684213
 31
0.0
 11
2.6208129219
 21
15.4144567358
 31
0.0
 11
2.5525671532
 21
15.4576652976
 31
0.0
  0
SPLINE
  5
53B
100
AcDbEntity
  8
0
100
AcDbSpline
 62
253
  6
CONTINUOUS
 70
0
 71
3
 72
11
 73
7
 74
5
 42
0.0000001
 43
0.0000001
 44
0.0000000001
 12
-0.5692072355
 22
-0.3107586558
 32
0.0
 13
-0.0760911916
 23
-0.6440325688
 33
0.0
 40
0.0
 40
0.0
 40
0.0
 40
0.0
 40
0.2309298734
 40
0.4858202465
 40
0.7483088577
 40
1.0
 40
1.0
 40
1.0
 40
1.0
 10
-1.7459609703
 20
12.3082511549
 30
0.0
 10
-1.789776622
 20
12.2843300026
 30
0.0
 10
-1.873691322
 20
12.2185617292
 30
0.0
 10
-1.9746555135
 20
12.0906882517
 30
0.0
 10
-2.0489412962
 20
11.9406845942
 30
0.0
 10
-2.0764533028
 20
11.8317760075
 30
0.0
 10
-2.0828371291
 20
11.7777435765
 30
0.0
 11
-1.7459609703
 21
12.3082511549
 31
0.0
 11
-1.8654028421
 21
12.2179077269
 31
0.0
 11
-1.9688169181
 21
12.088952531
 31
0.0
 11
-2.0442108236
 21
11.9363321008
 31
0.0
 11
-2.0828371291
 21
11.7777435765
 31
0.0
  0
SPLINE
  5
53C
100
AcDbEntity
  8
0
100
AcDbSpline
 62
253
  6
CONTINUOUS
 70
0
 71
3
 72
11
 73
7
 74
5
 42
0.0000001
 43
0.0000001
 44
0.0000000001
 12
-1.1329865746
 22
-0.6287953203
 32
0.0
 13
-0.1506659082
 23
-1.2869894783
 33
0.0
 40
0.0
 40
0.0
 40
0.0
 40
0.0
 40
0.2303844051
 40
0.4852076103
 40
0.7479515775
 40
1.0
 40
1.0
 40
1.0
 40
1.0
 10
-2.1117937104
 20
12.9112536006
 30
0.0
 10
-2.1988011897
 20
12.8629653887
 30
0.0
 10
-2.3653007237
 20
12.7305241615
 30
0.0
 10
-2.5653766551
 20
12.4739679182
 30
0.0
 10
-2.7125828803
 20
12.1734251027
 30
0.0
 10
-2.7671083429
 20
11.9554766746
 30
0.0
 10
-2.7797667111
 20
11.8473487854
 30
0.0
 11
-2.1117937104
 21
12.9112536006
 31
0.0
 11
-2.3486388654
 21
12.7295317023
 31
0.0
 11
-2.5536944052
 21
12.4707255946
 31
0.0
 11
-2.703182413
 21
12.1648416479
 31
0.0
 11
-2.7797667111
 21
11.8473487854
 31
0.0
  0
SPLINE
  5
53D
100
AcDbEntity
  8
0
100
AcDbSpline
 62
253
  6
CONTINUOUS
 70
0
 71
3
 72
11
 73
7
 74
5
 42
0.0000001
 43
0.0000001
 44
0.0000000001
 12
-0.0324678924
 22
0.7302924718
 32
0.0
 13
-0.6488722199
 23
0.3366691262
 33
0.0
 40
0.0
 40
0.0
 40
0.0
 40
0.0
 40
0.2445556234
 40
0.510059094
 40
0.7700878926
 40
1.0
 40
1.0
 40
1.0
 40
1.0
 10
-1.7459609703
 20
12.3082511549
 30
0.0
 10
-1.7486077056
 20
12.3677835318
 30
0.0
 10
-1.7743990764
 20
12.4911859053
 30
0.0
 10
-1.8542430599
 20
12.6625223522
 30
0.0
 10
-1.9667599161
 20
12.8099266907
 30
0.0
 10
-2.0620658505
 20
12.8854521645
 30
0.0
 10
-2.1117937103
 20
12.9112536006
 30
0.0
 11
-1.7459609703
 21
12.3082511549
 31
0.0
 11
-1.7795680276
 21
12.4838374518
 31
0.0
 11
-1.8608815687
 21
12.6600695753
 31
0.0
 11
-1.9775364294
 21
12.8101489526
 31
0.0
 11
-2.1117937103
 21
12.9112536006
 31
0.0
  0
LINE
  5
53E
100
AcDbEntity
  8
0
100
AcDbLine
 62
253
  6
CONTINUOUS
 10
-3.1817768989
 20
7.7928807151
 11
-3.1967495686
 21
7.6034007976
  0
SPLINE
  5
53F
100
AcDbEntity
  8
0
100
AcDbSpline
 62
253
  6
CONTINUOUS
 70
0
 71
3
 72
11
 73
7
 74
5
 42
0.0000001
 43
0.0000001
 44
0.0000000001
 12
-0.6825879843
 22
-0.2056363113
 32
0.0
 13
-0.6367239155
 23
0.320617068
 33
0.0
 40
0.0
 40
0.0
 40
0.0
 40
0.0
 40
0.2284142287
 40
0.4927005503
 40
0.7608662696
 40
1.0
 40
1.0
 40
1.0
 40
1.0
 10
-2.0828371291
 20
11.7777435765
 30
0.0
 10
-2.1348080651
 20
11.7620868233
 30
0.0
 10
-2.2518182482
 20
11.7450159229
 30
0.0
 10
-2.4331456352
 20
11.7495822516
 30
0.0
 10
-2.6143073783
 20
11.7816227572
 30
0.0
 10
-2.7290126549
 20
11.8217920005
 30
0.0
 10
-2.7797667099
 20
11.8473487857
 30
0.0
 11
-2.0828371291
 21
11.7777435765
 31
0.0
 11
-2.243386926
 21
11.7505632216
 31
0.0
 11
-2.4317586224
 21
11.7542190265
 31
0.0
 11
-2.6198931349
 21
11.7881664374
 31
0.0
 11
-2.7797667099
 21
11.8473487857
 31
0.0
  0
SPLINE
  5
540
100
AcDbEntity
  8
0
100
AcDbSpline
 62
253
  6
CONTINUOUS
 70
0
 71
3
 72
11
 73
7
 74
5
 42
0.0000001
 43
0.0000001
 44
0.0000000001
 12
-0.6531473612
 22
-0.3004231948
 32
0.0
 13
-0.6429214765
 23
0.3217258872
 33
0.0
 40
0.0
 40
0.0
 40
0.0
 40
0.0
 40
0.2355498366
 40
0.5001440414
 40
0.7646609401
 40
1.0
 40
1.0
 40
1.0
 40
1.0
 10
-2.791150419
 20
1.3503028519
 30
0.0
 10
-2.842433337
 20
1.3267146404
 30
0.0
 10
-2.9592180456
 20
1.2938445769
 30
0.0
 10
-3.142872419
 20
1.280187844
 30
0.0
 10
-3.3259397451
 20
1.2997567589
 30
0.0
 10
-3.4415343273
 20
1.3363820365
 30
0.0
 10
-3.4919691726
 20
1.3616202591
 30
0.0
 11
-2.791150419
 21
1.3503028519
 31
0.0
 11
-2.9531766595
 21
1.3010629287
 31
0.0
 11
-3.1427981383
 21
1.2859367414
 31
0.0
 11
-3.3317765027
 21
1.3071768756
 31
0.0
 11
-3.4919691726
 21
1.3616202591
 31
0.0
  0
SPLINE
  5
541
100
AcDbEntity
  8
0
100
AcDbSpline
 62
253
  6
CONTINUOUS
 70
0
 71
3
 72
9
 73
5
 74
3
 42
0.0000001
 43
0.0000001
 44
0.0000000001
 12
0.1554408835
 22
-9.7709735605
 32
0.0
 13
1.2916660774
 23
-9.6864691675
 33
0.0
 40
0.0
 40
0.0
 40
0.0
 40
0.0
 40
0.2553865594
 40
1.0
 40
1.0
 40
1.0
 40
1.0
 10
-2.791150419
 20
-15.0877253373
 30
0.0
 10
-2.7779179148
 20
-15.9195171105
 30
0.0
 10
-2.6815387189
 20
-19.1755552555
 30
0.0
 10
-2.4034344365
 20
-22.4269308242
 30
0.0
 10
-2.0828371291
 20
-24.8311558689
 30
0.0
 11
-2.791150419
 21
-15.0877253373
 31
0.0
 11
-2.7168374852
 21
-17.5823097649
 31
0.0
 11
-2.0828371291
 21
-24.8311558689
 31
0.0
  0
SPLINE
  5
542
100
AcDbEntity
  8
0
100
AcDbSpline
 62
253
  6
CONTINUOUS
 70
0
 71
3
 72
9
 73
5
 74
3
 42
0.0000001
 43
0.0000001
 44
0.0000000001
 12
0.1562933995
 22
-9.8255209202
 32
0.0
 13
1.2987639151
 23
-9.7405595976
 33
0.0
 40
0.0
 40
0.0
 40
0.0
 40
0.0
 40
0.2553871945
 40
1.0
 40
1.0
 40
1.0
 40
1.0
 10
-3.4919691727
 20
-15.0928624128
 30
0.0
 10
-3.4786640617
 20
-15.9292998202
 30
0.0
 10
-3.3817558273
 20
-19.203515257
 30
0.0
 10
-3.1021254586
 20
-22.4730431045
 30
0.0
 10
-2.7797667111
 20
-24.8906915743
 30
0.0
 11
-3.4919691727
 21
-15.0928624128
 31
0.0
 11
-3.4172482013
 21
-17.6013794723
 31
0.0
 11
-2.7797667111
 21
-24.8906915743
 31
0.0
  0
SPLINE
  5
543
100
AcDbEntity
  8
0
100
AcDbSpline
 62
253
  6
CONTINUOUS
 70
0
 71
3
 72
11
 73
7
 74
5
 42
0.0000001
 43
0.0000001
 44
0.0000000001
 12
-0.6429962505
 22
-0.3251801931
 32
0.0
 13
-0.64457886
 23
0.322031721
 33
0.0
 40
0.0
 40
0.0
 40
0.0
 40
0.0
 40
0.2376792375
 40
0.5023658428
 40
0.7657789404
 40
1.0
 40
1.0
 40
1.0
 40
1.0
 10
-2.791150419
 20
-15.0877253373
 30
0.0
 10
-2.8420927052
 20
-15.1134881974
 30
0.0
 10
-2.9584651492
 20
-15.1507764589
 30
0.0
 10
-3.1424471011
 20
-15.169650464
 30
0.0
 10
-3.3258572003
 20
-15.1536422244
 30
0.0
 10
-3.4416445236
 20
-15.1180046158
 30
0.0
 10
-3.4919691715
 20
-15.0928624122
 30
0.0
 11
-2.791150419
 21
-15.0877253373
 31
0.0
 11
-2.9531766595
 21
-15.143196688
 31
0.0
 11
-3.142798138
 21
-15.1636263213
 31
0.0
 11
-3.331776502
 21
-15.1459718645
 31
0.0
 11
-3.4919691715
 21
-15.0928624122
 31
0.0
  0
SPLINE
  5
544
100
AcDbEntity
  8
0
100
AcDbSpline
 62
253
  6
CONTINUOUS
 70
0
 71
3
 72
13
 73
9
 74
7
 42
0.0000001
 43
0.0000001
 44
0.0000000001
 12
0.0619204245
 22
-0.4642959475
 32
0.0
 13
0.4319028848
 23
0.1812864139
 33
0.0
 40
0.0
 40
0.0
 40
0.0
 40
0.0
 40
0.2717502792
 40
0.3929613945
 40
0.5080748357
 40
0.6218813089
 40
0.7394780953
 40
1.0
 40
1.0
 40
1.0
 40
1.0
 10
-2.0828371291
 20
-24.8311558689
 30
0.0
 10
-2.0772281649
 20
-24.8732133867
 30
0.0
 10
-2.0598576613
 20
-24.9342273071
 30
0.0
 10
-2.013087119
 20
-24.9991704434
 30
0.0
 10
-1.9703101394
 20
-25.0343005782
 30
0.0
 10
-1.9199917974
 20
-25.0560483941
 30
0.0
 10
-1.8431254779
 20
-25.0665998267
 30
0.0
 10
-1.7834676911
 20
-25.0520889495
 30
0.0
 10
-1.7459609703
 20
-25.0363459222
 30
0.0
 11
-2.0828371291
 21
-24.8311558689
 31
0.0
 11
-2.0442108236
 21
-24.9524434035
 31
0.0
 11
-2.0106532759
 21
-24.9982409666
 31
0.0
 11
-1.9688169181
 21
-25.0322567855
 31
0.0
 11
-1.9199240366
 21
-25.0534982297
 31
0.0
 11
-1.8654028421
 21
-25.061346169
 31
0.0
 11
-1.7459609703
 21
-25.0363459222
 31
0.0
  0
SPLINE
  5
545
100
AcDbEntity
  8
0
100
AcDbSpline
 62
253
  6
CONTINUOUS
 70
0
 71
3
 72
11
 73
7
 74
5
 42
0.0000001
 43
0.0000001
 44
0.0000000001
 12
0.0664062853
 22
-0.5019861068
 32
0.0
 13
0.4524519651
 23
-0.2273478951
 33
0.0
 40
0.0
 40
0.0
 40
0.0
 40
0.0
 40
0.2812826683
 40
0.5380078703
 40
0.7746859608
 40
1.0
 40
1.0
 40
1.0
 40
1.0
 10
-2.7797667111
 20
-24.8906915743
 30
0.0
 10
-2.7735403987
 20
-24.9377582381
 30
0.0
 10
-2.754216229
 20
-25.0271109057
 30
0.0
 10
-2.7006520493
 20
-25.1475867557
 30
0.0
 10
-2.6249164999
 20
-25.2441316912
 30
0.0
 10
-2.5602370321
 20
-25.2900633303
 30
0.0
 10
-2.5262557721
 20
-25.3071382212
 30
0.0
 11
-2.7797667111
 21
-24.8906915743
 31
0.0
 11
-2.7484480621
 21
-25.0296357448
 31
0.0
 11
-2.6944260114
 21
-25.1478743821
 31
0.0
 11
-2.6195206929
 21
-25.2414255445
 31
0.0
 11
-2.5262557721
 21
-25.3071382212
 31
0.0
  0
SPLINE
  5
546
100
AcDbEntity
  8
0
100
AcDbSpline
 62
253
  6
CONTINUOUS
 70
0
 71
3
 72
11
 73
7
 74
5
 42
0.0000001
 43
0.0000001
 44
0.0000000001
 12
-0.6040142685
 22
-0.4013243693
 32
0.0
 13
-0.6493425433
 23
0.3228757461
 33
0.0
 40
0.0
 40
0.0
 40
0.0
 40
0.0
 40
0.2449979728
 40
0.5099789627
 40
0.7695318252
 40
1.0
 40
1.0
 40
1.0
 40
1.0
 10
-2.0828371291
 20
-24.8311558689
 30
0.0
 10
-2.1321645529
 20
-24.8639304212
 30
0.0
 10
-2.2460008086
 20
-24.9156493011
 30
0.0
 10
-2.4298475644
 20
-24.9520135275
 30
0.0
 10
-2.6136871488
 20
-24.9479213129
 30
0.0
 10
-2.7298822729
 20
-24.9154956494
 30
0.0
 10
-2.7797665365
 20
-24.8906914547
 30
0.0
 11
-2.0828371291
 21
-24.8311558689
 31
0.0
 11
-2.2433869136
 21
-24.9072483182
 31
0.0
 11
-2.4317585677
 21
-24.9452188571
 31
0.0
 11
-2.6198930174
 21
-24.9394115563
 31
0.0
 11
-2.7797665365
 21
-24.8906914547
 31
0.0
  0
SPLINE
  5
547
100
AcDbEntity
  8
0
100
AcDbSpline
 62
253
  6
CONTINUOUS
 70
0
 71
3
 72
11
 73
7
 74
5
 42
0.0000001
 43
0.0000001
 44
0.0000000001
 12
-0.014353954
 22
-0.3367214871
 32
0.0
 13
-0.3107574987
 23
-0.1304498866
 33
0.0
 40
0.0
 40
0.0
 40
0.0
 40
0.0
 40
0.2893508886
 40
0.5493554316
 40
0.7828042077
 40
1.0
 40
1.0
 40
1.0
 40
1.0
 10
-1.7459609703
 20
-25.0363459222
 30
0.0
 10
-1.7473454135
 20
-25.0688228094
 30
0.0
 10
-1.7553883393
 20
-25.130496539
 30
0.0
 10
-1.7860755484
 20
-25.2138633134
 30
0.0
 10
-1.8340399556
 20
-25.2792655987
 30
0.0
 10
-1.8772698898
 20
-25.3080970386
 30
0.0
 10
-1.8997682969
 20
-25.3175414274
 30
0.0
 11
-1.7459609703
 21
-25.0363459222
 31
0.0
 11
-1.7595611796
 21
-25.1329120563
 31
0.0
 11
-1.790992561
 21
-25.2147096392
 31
0.0
 11
-1.8385757329
 21
-25.2773687587
 31
0.0
 11
-1.8997682969
 21
-25.3175414274
 31
0.0
  0
SPLINE
  5
548
100
AcDbEntity
  8
0
100
AcDbSpline
 62
7
  6
CONTINUOUS
 70
0
 71
3
 72
11
 73
7
 74
5
 42
0.0000001
 43
0.0000001
 44
0.0000000001
 12
-0.0
 22
-0.3137422494
 32
0.0
 13
-0.2788135326
 23
-0.1438652602
 33
0.0
 40
0.0
 40
0.0
 40
0.0
 40
0.0
 40
0.287659901
 40
0.547734791
 40
0.7821193107
 40
1.0
 40
1.0
 40
1.0
 40
1.0
 10
2.9058514191
 20
-23.0837040313
 30
0.0
 10
2.9058514191
 20
-23.1137877194
 30
0.0
 10
2.9017815073
 20
-23.1713661013
 30
0.0
 10
2.8767434087
 20
-23.2501403078
 30
0.0
 10
2.8356553126
 20
-23.3135446396
 30
0.0
 10
2.7973915143
 20
-23.3432764283
 30
0.0
 10
2.7771421527
 20
-23.3537249157
 30
0.0
 11
2.9058514191
 21
-23.0837040313
 31
0.0
 11
2.8978627433
 21
-23.1736008371
 31
0.0
 11
2.8724098529
 21
-23.2511259045
 31
0.0
 11
2.8314328986
 21
-23.3121871894
 31
0.0
 11
2.7771421527
 21
-23.3537249157
 31
0.0
  0
SPLINE
  5
549
100
AcDbEntity
  8
0
100
AcDbSpline
 62
253
  6
CONTINUOUS
 70
0
 71
3
 72
11
 73
7
 74
5
 42
0.0000001
 43
0.0000001
 44
0.0000000001
 12
0.1256923233
 22
1.0936816385
 32
0.0
 13
0.832712112
 23
0.7200893173
 33
0.0
 40
0.0
 40
0.0
 40
0.0
 40
0.0
 40
0.2461960746
 40
0.5034859781
 40
0.7589522187
 40
1.0
 40
1.0
 40
1.0
 40
1.0
 10
-17.6700808299
 20
19.2925058448
 30
0.0
 10
-17.6597658444
 20
19.3822592202
 30
0.0
 10
-17.6192026784
 20
19.5638661468
 30
0.0
 10
-17.5113493934
 20
19.822030552
 30
0.0
 10
-17.3625436482
 20
20.0567427187
 30
0.0
 10
-17.2379280962
 20
20.1916111358
 30
0.0
 10
-17.1710202938
 20
20.2494697799
 30
0.0
 11
-17.6700808299
 21
19.2925058448
 31
0.0
 11
-17.6126874924
 21
19.5573918783
 31
0.0
 11
-17.503951088
 21
19.8189342005
 31
0.0
 11
-17.3526553904
 21
20.0560087189
 31
0.0
 11
-17.1710202938
 21
20.2494697799
 31
0.0
  0
SPLINE
  5
54A
100
AcDbEntity
  8
0
100
AcDbSpline
 62
253
  6
CONTINUOUS
 70
0
 71
3
 72
9
 73
5
 74
3
 42
0.0000001
 43
0.0000001
 44
0.0000000001
 12
0.1465341312
 22
0.1267156572
 32
0.0
 13
0.1680450632
 23
0.0963844704
 33
0.0
 40
0.0
 40
0.0
 40
0.0
 40
0.0
 40
0.2592707632
 40
1.0
 40
1.0
 40
1.0
 40
1.0
 10
-17.1710202938
 20
20.2494697799
 30
0.0
 10
-17.1583562885
 20
20.2604210016
 30
0.0
 10
-17.1086121173
 20
20.3015946069
 30
0.0
 10
-17.0551584268
 20
20.3383917119
 30
0.0
 10
-17.013666463
 20
20.3621899769
 30
0.0
 11
-17.1710202938
 21
20.2494697799
 31
0.0
 11
-17.1323125112
 21
20.2814770316
 31
0.0
 11
-17.013666463
 21
20.3621899769
 31
0.0
  0
SPLINE
  5
54B
100
AcDbEntity
  8
0
100
AcDbSpline
 62
253
  6
CONTINUOUS
 70
0
 71
3
 72
9
 73
5
 74
3
 42
0.0000001
 43
0.0000001
 44
0.0000000001
 12
0.159165979
 22
10.5215953686
 32
0.0
 13
1.1904631782
 23
10.4552427198
 33
0.0
 40
0.0
 40
0.0
 40
0.0
 40
0.0
 40
0.2454643075
 40
1.0
 40
1.0
 40
1.0
 40
1.0
 10
-18.3579801947
 20
8.7946257701
 30
0.0
 10
-18.3449570058
 20
9.6555178103
 30
0.0
 10
-18.246352226
 20
13.1619344878
 30
0.0
 10
-17.9694964828
 20
16.6628879094
 30
0.0
 10
-17.6700808299
 20
19.2925058448
 30
0.0
 11
-18.3579801947
 21
8.7946257701
 31
0.0
 11
-18.2858089913
 21
11.376588917
 31
0.0
 11
-17.6700808299
 21
19.2925058448
 31
0.0
  0
SPLINE
  5
54C
100
AcDbEntity
  8
RACCORDO
100
AcDbSpline
 62
7
  6
CONTINUOUS
 70
0
 71
3
 72
11
 73
7
 74
5
 42
0.0000001
 43
0.0000001
 44
0.0000000001
 12
-0.3227292698
 22
-0.161422156
 32
0.0
 13
-0.3227522815
 23
0.1613761408
 33
0.0
 40
0.0
 40
0.0
 40
0.0
 40
0.0
 40
0.2202580098
 40
0.4554647255
 40
0.7142398547
 40
1.0
 40
1.0
 40
1.0
 40
1.0
 10
-4.2323680505
 20
-19.1466203194
 30
0.0
 10
-4.2560626194
 20
-19.1584718271
 30
0.0
 10
-4.3091039085
 20
-19.1755065245
 30
0.0
 10
-4.3958715303
 20
-19.1781793205
 30
0.0
 10
-4.4884232071
 20
-19.1592764053
 30
0.0
 10
-4.549348892
 20
-19.1342587249
 30
0.0
 10
-4.5800921383
 20
-19.1188871017
 30
0.0
 11
-4.2323680505
 21
-19.1466203194
 31
0.0
 11
-4.3078985168
 21
-19.1713623104
 31
0.0
 11
-4.3926962347
 21
-19.1749570531
 31
0.0
 11
-4.4843827982
 21
-19.157261939
 31
0.0
 11
-4.5800921383
 21
-19.1188871017
 31
0.0
  0
LINE
  5
54D
100
AcDbEntity
  8
0
100
AcDbLine
 62
253
  6
CONTINUOUS
 10
-17.6700808299
 20
-17.4455345148
 11
-17.6944145293
 21
-17.2552059858
  0
SPLINE
  5
54E
100
AcDbEntity
  8
0
100
AcDbSpline
 62
253
  6
CONTINUOUS
 70
0
 71
3
 72
9
 73
5
 74
3
 42
0.0000001
 43
0.0000001
 44
0.0000000001
 12
-1.2086125111
 22
9.5448433491
 32
0.0
 13
-0.1478413548
 23
9.6199231647
 33
0.0
 40
0.0
 40
0.0
 40
0.0
 40
0.0
 40
0.2445363407
 40
1.0
 40
1.0
 40
1.0
 40
1.0
 10
-17.6944145293
 20
-17.2552059858
 30
0.0
 10
-17.7929310896
 20
-16.4771856307
 30
0.0
 10
-18.1487720915
 20
-13.289714166
 30
0.0
 10
-18.3207506044
 20
-10.0823576871
 30
0.0
 10
-18.3579801947
 20
-7.6598569018
 30
0.0
 11
-17.6944145293
 21
-17.2552059858
 31
0.0
 11
-17.9559685894
 21
-14.91709133
 31
0.0
 11
-18.3579801947
 21
-7.6598569018
 31
0.0
  0
SPLINE
  5
54F
100
AcDbEntity
  8
0
100
AcDbSpline
 62
253
  6
CONTINUOUS
 70
0
 71
3
 72
11
 73
7
 74
5
 42
0.0000001
 43
0.0000001
 44
0.0000000001
 12
-0.00364149
 22
-0.2402883827
 32
0.0
 13
0.2149805936
 23
-0.1074016372
 33
0.0
 40
0.0
 40
0.0
 40
0.0
 40
0.0
 40
0.2040789261
 40
0.430943944
 40
0.6947280059
 40
1.0
 40
1.0
 40
1.0
 40
1.0
 10
-18.5044333685
 20
8.9707052559
 30
0.0
 10
-18.5046810857
 20
8.9543593242
 30
0.0
 10
-18.4976725341
 20
8.9194583841
 30
0.0
 10
-18.4671614434
 20
8.8718401264
 30
0.0
 10
-18.4193181668
 20
8.8288833577
 30
0.0
 10
-18.3798560445
 20
8.8055546749
 30
0.0
 10
-18.357980193
 20
8.7946257709
 30
0.0
 11
-18.5044333685
 21
8.9707052559
 31
0.0
 11
-18.4953704374
 21
8.9225064914
 31
0.0
 11
-18.4670843024
 21
8.8758991175
 31
0.0
 11
-18.4206826804
 21
8.8327091331
 31
0.0
 11
-18.357980193
 21
8.7946257709
 31
0.0
  0
SPLINE
  5
550
100
AcDbEntity
  8
RACCORDO
100
AcDbSpline
 62
253
  6
CONTINUOUS
 70
0
 71
3
 72
10
 73
6
 74
4
 42
0.0000001
 43
0.0000001
 44
0.0000000001
 12
0.0000406213
 22
-0.1249947148
 32
0.0
 13
0.1118022175
 23
-0.0558922584
 33
0.0
 40
0.0
 40
0.0
 40
0.0
 40
0.0
 40
0.2185028044
 40
0.4507915579
 40
1.0
 40
1.0
 40
1.0
 40
1.0
 10
-13.1074730293
 20
22.3810544579
 30
0.0
 10
-13.1074700707
 20
22.3719505593
 30
0.0
 10
-13.1040288517
 20
22.3530045891
 30
0.0
 10
-13.0827329998
 20
22.3164655794
 30
0.0
 10
-13.0547470177
 20
22.2969467017
 30
0.0
 10
-13.0342794438
 20
22.2867145349
 30
0.0
 11
-13.1074730293
 21
22.3810544579
 31
0.0
 11
-13.1026871298
 21
22.3541653529
 31
0.0
 11
-13.0884799027
 21
22.3288438549
 31
0.0
 11
-13.0342794438
 21
22.2867145349
 31
0.0
  0
SPLINE
  5
551
100
AcDbEntity
  8
0
100
AcDbSpline
 62
253
  6
CONTINUOUS
 70
0
 71
3
 72
11
 73
7
 74
5
 42
0.0000001
 43
0.0000001
 44
0.0000000001
 12
-0.0259833958
 22
-0.2327724576
 32
0.0
 13
0.2097872378
 23
-0.104151182
 33
0.0
 40
0.0
 40
0.0
 40
0.0
 40
0.0
 40
0.1838850728
 40
0.4027047842
 40
0.6738738629
 40
1.0
 40
1.0
 40
1.0
 40
1.0
 10
-17.8172905042
 20
19.4591189855
 30
0.0
 10
-17.8188831571
 20
19.4448511921
 30
0.0
 10
-17.8132583638
 20
19.4123896806
 30
0.0
 10
-17.7826066129
 20
19.3684327715
 30
0.0
 10
-17.73352564
 20
19.327128048
 30
0.0
 10
-17.6928863559
 20
19.3038280407
 30
0.0
 10
-17.6700806554
 20
19.2925058998
 30
0.0
 11
-17.8172905042
 21
19.4591189855
 31
0.0
 11
-17.8110998282
 21
19.4164969984
 31
0.0
 11
-17.7835557811
 21
19.3732760866
 31
0.0
 11
-17.7358582947
 21
19.331337843
 31
0.0
 11
-17.6700806554
 21
19.2925058998
 31
0.0
  0
SPLINE
  5
552
100
AcDbEntity
  8
0
100
AcDbSpline
 62
253
  6
CONTINUOUS
 70
0
 71
3
 72
10
 73
6
 74
4
 42
0.0000001
 43
0.0000001
 44
0.0000000001
 12
0.2089263791
 22
0.1215044275
 32
0.0
 13
0.217735698
 23
-0.1049034013
 33
0.0
 40
0.0
 40
0.0
 40
0.0
 40
0.0
 40
0.2240208459
 40
0.4604618054
 40
1.0
 40
1.0
 40
1.0
 40
1.0
 10
-17.2468462437
 20
20.3710588497
 30
0.0
 10
-17.2312449557
 20
20.3801320246
 30
0.0
 10
-17.1960509715
 20
20.3938466728
 30
0.0
 10
-17.1148910321
 20
20.4003526639
 30
0.0
 10
-17.0528253714
 20
20.3810564409
 30
0.0
 10
-17.013666463
 20
20.3621899769
 30
0.0
 11
-17.2468462437
 21
20.3710588497
 31
0.0
 11
-17.196484963
 21
20.3909396349
 31
0.0
 11
-17.139575128
 21
20.3961204977
 31
0.0
 11
-17.013666463
 21
20.3621899769
 31
0.0
  0
SPLINE
  5
553
100
AcDbEntity
  8
0
100
AcDbSpline
 62
253
  6
CONTINUOUS
 70
0
 71
3
 72
11
 73
7
 74
5
 42
0.0000001
 43
0.0000001
 44
0.0000000001
 12
0.2614083509
 22
-0.1330218541
 32
0.0
 13
0.0014086312
 23
-0.2933038618
 33
0.0
 40
0.0
 40
0.0
 40
0.0
 40
0.0
 40
0.2292299108
 40
0.4879022955
 40
0.7531904418
 40
1.0
 40
1.0
 40
1.0
 40
1.0
 10
-6.0417287476
 20
20.9259817293
 30
0.0
 10
-6.0217545433
 20
20.9158175334
 30
0.0
 10
-5.9836073132
 20
20.8855723088
 30
0.0
 10
-5.9394974967
 20
20.8258368985
 30
0.0
 10
-5.9093378466
 20
20.7561036709
 30
0.0
 10
-5.9008400312
 20
20.7059959761
 30
0.0
 10
-5.9007241433
 20
20.6818659106
 30
0.0
 11
-6.0417287476
 21
20.9259817293
 31
0.0
 11
-5.9880225952
 21
20.8855321725
 31
0.0
 11
-5.9423668165
 21
20.8249361309
 31
0.0
 11
-5.9117118035
 21
20.7534182184
 31
0.0
 11
-5.9007241433
 21
20.6818659106
 31
0.0
  0
SPLINE
  5
554
100
AcDbEntity
  8
0
100
AcDbSpline
 62
7
  6
CONTINUOUS
 70
0
 71
3
 72
11
 73
7
 74
5
 42
0.0000001
 43
0.0000001
 44
0.0000000001
 12
0.2626369811
 22
-0.1313184905
 32
0.0
 13
-0.0
 23
-0.2936370715
 33
0.0
 40
0.0
 40
0.0
 40
0.0
 40
0.0
 40
0.2296750453
 40
0.4882137809
 40
0.7532064433
 40
1.0
 40
1.0
 40
1.0
 40
1.0
 10
-5.8269155336
 20
21.033047287
 30
0.0
 10
-5.8068084801
 20
21.0229937603
 30
0.0
 10
-5.7683866089
 20
20.9929358896
 30
0.0
 10
-5.7240194225
 20
20.9332598587
 30
0.0
 10
-5.6938319422
 20
20.8634734795
 30
0.0
 10
-5.6854959723
 20
20.8132942004
 30
0.0
 10
-5.6854959723
 20
20.789138288
 30
0.0
 11
-5.8269155336
 21
21.033047287
 31
0.0
 11
-5.7727969035
 21
20.9928045624
 31
0.0
 11
-5.7269168985
 21
20.9323202769
 31
0.0
 11
-5.6962608154
 21
20.8608020242
 31
0.0
 11
-5.6854959723
 21
20.789138288
 31
0.0
  0
SPLINE
  5
555
100
AcDbEntity
  8
0
100
AcDbSpline
 62
7
  6
CONTINUOUS
 70
0
 71
3
 72
9
 73
5
 74
3
 42
0.0000001
 43
0.0000001
 44
0.0000000001
 12
-0.0815859525
 22
0.0407929763
 32
0.0
 13
-0.0820943577
 23
-0.0397599169
 33
0.0
 40
0.0
 40
0.0
 40
0.0
 40
0.0
 40
0.5361431045
 40
1.0
 40
1.0
 40
1.0
 40
1.0
 10
-4.1298628486
 20
20.1845209446
 30
0.0
 10
-4.1444434306
 20
20.1918112355
 30
0.0
 10
-4.1741064632
 20
20.2017374775
 30
0.0
 10
-4.2057615763
 20
20.1967686252
 30
0.0
 10
-4.218454921
 20
20.1906209879
 30
0.0
 11
-4.1298628486
 21
20.1845209446
 31
0.0
 11
-4.1768233138
 21
20.1981734216
 31
0.0
 11
-4.218454921
 21
20.1906209879
 31
0.0
  0
SPLINE
  5
556
100
AcDbEntity
  8
0
100
AcDbSpline
 62
253
  6
CONTINUOUS
 70
0
 71
3
 72
9
 73
5
 74
3
 42
0.0000001
 43
0.0000001
 44
0.0000000001
 12
-0.0840102402
 22
0.0412731624
 32
0.0
 13
-0.0831822566
 23
-0.0429174392
 33
0.0
 40
0.0
 40
0.0
 40
0.0
 40
0.0
 40
0.5365169102
 40
1.0
 40
1.0
 40
1.0
 40
1.0
 10
-4.3409592062
 20
20.0755969586
 30
0.0
 10
-4.355983511
 20
20.0829782085
 30
0.0
 10
-4.3865464127
 20
20.0929128001
 30
0.0
 10
-4.4189945623
 20
20.0871707019
 30
0.0
 10
-4.4318457521
 20
20.0805401995
 30
0.0
 11
-4.3409592062
 21
20.0755969586
 31
0.0
 11
-4.3893212075
 21
20.0891258199
 31
0.0
 11
-4.4318457521
 21
20.0805401995
 31
0.0
  0
SPLINE
  5
557
100
AcDbEntity
  8
0
100
AcDbSpline
 62
253
  6
CONTINUOUS
 70
0
 71
3
 72
11
 73
7
 74
5
 42
0.0000001
 43
0.0000001
 44
0.0000000001
 12
0.2587375916
 22
-0.1293687958
 32
0.0
 13
0.2596298131
 23
0.1275687534
 33
0.0
 40
0.0
 40
0.0
 40
0.0
 40
0.0
 40
0.2350722031
 40
0.4993698028
 40
0.7640064406
 40
1.0
 40
1.0
 40
1.0
 40
1.0
 10
-6.1823273524
 20
20.6824802774
 30
0.0
 10
-6.1620533472
 20
20.6723432748
 30
0.0
 10
-6.1154773239
 20
20.6578440942
 30
0.0
 10
-6.0417510876
 20
20.6508114075
 30
0.0
 10
-5.9679061316
 20
20.6575402455
 30
0.0
 10
-5.9211477979
 20
20.6718307758
 30
0.0
 10
-5.9007241433
 20
20.6818659106
 30
0.0
 11
-6.1823273524
 21
20.6824802774
 31
0.0
 11
-6.1178457537
 21
20.6608869818
 31
0.0
 11
-6.041778658
 21
20.6531919074
 31
0.0
 11
-5.9655801561
 21
20.6605547877
 31
0.0
 11
-5.9007241433
 21
20.6818659106
 31
0.0
  0
SPLINE
  5
558
100
AcDbEntity
  8
0
100
AcDbSpline
 62
253
  6
CONTINUOUS
 70
0
 71
3
 72
9
 73
5
 74
3
 42
0.0000001
 43
0.0000001
 44
0.0000000001
 12
-0.085269577
 22
0.0426347885
 32
0.0
 13
0.0000015909
 23
0.0953342853
 33
0.0
 40
0.0
 40
0.0
 40
0.0
 40
0.0
 40
0.5679866803
 40
1.0
 40
1.0
 40
1.0
 40
1.0
 10
-4.4815578109
 20
19.8320955066
 30
0.0
 10
-4.4977018056
 20
19.840167504
 30
0.0
 10
-4.5252514678
 20
19.8576740461
 30
0.0
 10
-4.54013668
 20
19.8890776244
 30
0.0
 10
-4.540136451
 20
19.9028061848
 30
0.0
 11
-4.4815578109
 21
19.8320955066
 31
0.0
 11
-4.5249118241
 21
19.8645377766
 31
0.0
 11
-4.540136451
 21
19.9028061848
 31
0.0
  0
ELLIPSE
  5
559
100
AcDbEntity
  8
Z030100_COP
100
AcDbEllipse
 62
7
  6
CONTINUOUS
 10
11.3911327934
 20
-5.641959253
 30
0.0
 11
0.2568412115
 21
0.6791333616
 31
0.0
 40
0.2282681097
 41
1.5094799323
 42
1.8131460227
  0
ELLIPSE
  5
55A
100
AcDbEntity
  8
Z030100_COP
100
AcDbEllipse
 62
7
  6
CONTINUOUS
 10
12.1984130352
 20
-5.8686422754
 30
0.0
 11
0.3342634152
 21
0.3887304356
 31
0.0
 40
0.423927136
 41
4.4228909433
 42
5.319761498
  0
ELLIPSE
  5
55B
100
AcDbEntity
  8
Z030100_COP
100
AcDbEllipse
 62
7
  6
CONTINUOUS
 10
14.9207741428
 20
-4.5074617217
 30
0.0
 11
0.3342634152
 21
0.3887304356
 31
0.0
 40
0.423927136
 41
4.4228909433
 42
5.319761498
  0
ELLIPSE
  5
55C
100
AcDbEntity
  8
Z030100_COP
100
AcDbEllipse
 62
7
  6
CONTINUOUS
 10
6.8244014982
 20
-8.5556480439
 30
0.0
 11
0.3342634152
 21
0.3887304356
 31
0.0
 40
0.423927136
 41
4.4228909433
 42
5.319761498
  0
ELLIPSE
  5
55D
100
AcDbEntity
  8
Z030100_COP
100
AcDbEllipse
 62
7
  6
CONTINUOUS
 10
9.5467626058
 20
-7.1944674902
 30
0.0
 11
0.3342634152
 21
0.3887304356
 31
0.0
 40
0.423927136
 41
4.4228909433
 42
5.319761498
  0
ELLIPSE
  5
55E
100
AcDbEntity
  8
RACCORDO
100
AcDbEllipse
 62
7
  6
CONTINUOUS
 10
-14.7393826251
 20
20.6306991754
 30
0.0
 11
-0.0446199607
 21
0.0895422007
 31
0.0
 40
0.6127700112
 41
-0.6836588249
 42
0.0239984985
  0
ELLIPSE
  5
55F
100
AcDbEntity
  8
RACCORDO
100
AcDbEllipse
 62
7
  6
CONTINUOUS
 10
-1.5813567878
 20
14.0516862568
 30
0.0
 11
-0.0446923637
 21
0.0896061377
 31
0.0
 40
0.6116748051
 41
-2.2548620396
 42
-0.6831523243
  0
ELLIPSE
  5
560
100
AcDbEntity
  8
RACCORDO
100
AcDbEllipse
 62
7
  6
CONTINUOUS
 10
-14.8778572022
 20
-0.0026669339
 30
0.0
 11
-0.4472606553
 21
0.8944879452
 31
0.0
 40
0.6123267458
 41
0.8368781886
 42
0.8860222965
  0
ELLIPSE
  5
561
100
AcDbEntity
  8
0
100
AcDbEllipse
 62
7
  6
CONTINUOUS
 10
-3.41657806
 20
20.356738931
 30
0.0
 11
-0.0894526265
 21
0.1788917224
 31
0.0
 40
0.6123445654
 41
-0.6847277841
 42
-0.0078186591
  0
ELLIPSE
  5
562
100
AcDbEntity
  8
0
100
AcDbEllipse
 62
7
  6
CONTINUOUS
 10
-2.7908598066
 20
24.3475123394
 30
0.0
 11
0.2257019663
 21
0.4461636818
 31
0.0
 40
0.6159267166
 41
0.5882567743
 42
0.6817883054
  0
ELLIPSE
  5
563
100
AcDbEntity
  8
0
100
AcDbEllipse
 62
7
  6
CONTINUOUS
 10
8.5914117315
 20
-17.6600581556
 30
0.0
 11
0.9927147821
 21
0.620457446
 31
0.0
 40
0.0764819879
 41
-2.4043514965
 42
-1.2091443565
  0
ELLIPSE
  5
564
100
AcDbEntity
  8
0
100
AcDbEllipse
 62
7
  6
CONTINUOUS
 10
4.9828140195
 20
21.0992541251
 30
0.0
 11
0.4535199836
 21
0.8912633791
 31
0.0
 40
0.6176975122
 41
0.0043582183
 42
0.6832596203
  0
ELLIPSE
  5
565
100
AcDbEntity
  8
0
100
AcDbEllipse
 62
7
  6
CONTINUOUS
 10
-2.9918409276
 20
25.0865815986
 30
0.0
 11
1.004787277
 21
0.6140102217
 31
0.0
 40
0.0864918533
 41
0.0541644768
 42
0.7329085821
  0
ELLIPSE
  5
566
100
AcDbEntity
  8
RACCORDO
100
AcDbEllipse
 62
7
  6
CONTINUOUS
 10
-9.9634896051
 20
21.8891364548
 30
0.0
 11
-0.089260153
 21
0.1791289513
 31
0.0
 40
0.6123879345
 41
0.8877563558
 42
2.4582482032
  0
ELLIPSE
  5
567
100
AcDbEntity
  8
RACCORDO
100
AcDbEllipse
 62
7
  6
CONTINUOUS
 10
2.3401683875
 20
15.7373074585
 30
0.0
 11
-0.089260153
 21
0.1791289513
 31
0.0
 40
0.6123879345
 41
0.8877563558
 42
2.4582482032
  0
ELLIPSE
  5
568
100
AcDbEntity
  8
0
100
AcDbEllipse
 62
7
  6
CONTINUOUS
 10
3.2532205196
 20
-22.5454342756
 30
0.0
 11
-0.2236315662
 21
0.4472293059
 31
0.0
 40
0.6123445654
 41
-3.1337469158
 42
-2.2555748796
  0
ELLIPSE
  5
569
100
AcDbEntity
  8
0
100
AcDbEllipse
 62
7
  6
CONTINUOUS
 10
3.2532205196
 20
15.3763869772
 30
0.0
 11
-0.223611546
 21
0.4472115081
 31
0.0
 40
0.6124054886
 41
-2.2555017776
 42
-0.6847562194
  0
ELLIPSE
  5
56A
100
AcDbEntity
  8
0
100
AcDbEllipse
 62
7
  6
CONTINUOUS
 10
2.83989578
 20
21.5321345461
 30
0.0
 11
0.2267599918
 21
0.4456316896
 31
0.0
 40
0.6176975122
 41
6.4002379998
 42
6.9664449275
  0
ELLIPSE
  5
56B
100
AcDbEntity
  8
0
100
AcDbEllipse
 62
7
  6
CONTINUOUS
 10
8.5037652455
 20
19.394111866
 30
0.0
 11
0.499996712
 21
0.0035883639
 31
0.0
 40
0.5053247124
 41
-0.7715714568
 42
-0.0036366941
  0
ELLIPSE
  5
56C
100
AcDbEntity
  8
0
100
AcDbEllipse
 62
7
  6
CONTINUOUS
 10
-5.1259867598
 20
21.211443281
 30
0.0
 11
-0.0894446184
 21
0.1788846033
 31
0.0
 40
0.6124054886
 41
-2.2555017776
 42
-0.6847562194
  0
ELLIPSE
  5
56D
100
AcDbEntity
  8
0
100
AcDbEllipse
 62
7
  6
CONTINUOUS
 10
0.6167567845
 20
23.2822827426
 30
0.0
 11
0.4410298232
 21
0.8975092442
 31
0.0
 40
0.607010042
 41
5.3929141747
 42
6.9578927373
  0
ELLIPSE
  5
56E
100
AcDbEntity
  8
0
100
AcDbEllipse
 62
7
  6
CONTINUOUS
 10
8.5914117315
 20
19.2949552691
 30
0.0
 11
-0.7356038977
 21
1.2035991204
 31
0.0
 40
0.5552491559
 41
5.0404636726
 42
6.2356708126
  0
ELLIPSE
  5
56F
100
AcDbEntity
  8
0
100
AcDbEllipse
 62
7
  6
CONTINUOUS
 10
52.5436370717
 20
45.8052485293
 30
0.0
 11
60.4168605605
 21
30.5632322457
 31
0.0
 40
0.005706723
 41
2.5167363259
 42
2.6876789752
  0
ELLIPSE
  5
570
100
AcDbEntity
  8
0
100
AcDbEllipse
 62
7
  6
CONTINUOUS
 10
3.4406831423
 20
21.231740865
 30
0.0
 11
0.221538876
 21
0.4482453432
 31
0.0
 40
0.6088015717
 41
0.5825560023
 42
0.6760875334
  0
ELLIPSE
  5
571
100
AcDbEntity
  8
0
100
AcDbEllipse
 62
7
  6
CONTINUOUS
 10
-7.6641607941
 20
21.5648183545
 30
0.0
 11
0.0907039967
 21
0.1782526758
 31
0.0
 40
0.6176975122
 41
0.6948951487
 42
2.2598737113
  0
ELLIPSE
  5
572
100
AcDbEntity
  8
0
100
AcDbEllipse
 62
7
  6
CONTINUOUS
 10
52.5436370717
 20
45.8052485293
 30
0.0
 11
60.4168605605
 21
30.5632322457
 31
0.0
 40
0.005706723
 41
-2.6934527084
 42
-2.5225100591
  0
ELLIPSE
  5
573
100
AcDbEntity
  8
RACCORDO
100
AcDbEllipse
 62
7
  6
CONTINUOUS
 10
-1.3310346139
 20
13.8398037808
 30
0.0
 11
-0.0893847275
 21
0.1792122754
 31
0.0
 40
0.6116748051
 41
-0.6831523243
 42
0.0408455326
  0
ELLIPSE
  5
574
100
AcDbEntity
  8
0
100
AcDbEllipse
 62
7
  6
CONTINUOUS
 10
3.1533387926
 20
20.4557596529
 30
0.0
 11
0.4530414621
 21
-0.0021419047
 31
0.0
 40
0.4964289597
 41
-0.77723337
 42
0.0023166901
  0
ELLIPSE
  5
575
100
AcDbEntity
  8
0
100
AcDbEllipse
 62
7
  6
CONTINUOUS
 10
-2.4371078205
 20
23.2509829594
 30
0.0
 11
0.4530414621
 21
-0.0021419047
 31
0.0
 40
0.4964289597
 41
-0.2666019412
 42
0.0023176539
  0
ELLIPSE
  5
576
100
AcDbEntity
  8
RACCORDO
100
AcDbEllipse
 62
7
  6
CONTINUOUS
 10
-14.9897047989
 20
20.6691388733
 30
0.0
 11
-0.0892399214
 21
0.1790844013
 31
0.0
 40
0.6127700112
 41
-1.8201777678
 42
-0.6836588249
  0
ELLIPSE
  5
577
100
AcDbEntity
  8
0
100
AcDbEllipse
 62
7
  6
CONTINUOUS
 10
8.5037652455
 20
20.2273450956
 30
0.0
 11
-0.3739417019
 21
0.598522373
 31
0.0
 40
0.554557473
 41
-3.1836090632
 42
-2.1562706881
  0
ELLIPSE
  5
578
100
AcDbEntity
  8
0
100
AcDbEllipse
 62
7
  6
CONTINUOUS
 10
8.5037652455
 20
-17.7976947149
 30
0.0
 11
0.499443764
 21
0.3120915671
 31
0.0
 40
0.0755486457
 41
5.9766181181
 42
7.0039564932
  0
ELLIPSE
  5
579
100
AcDbEntity
  8
0
100
AcDbEllipse
 62
7
  6
CONTINUOUS
 10
-2.1900724444
 20
24.0471186583
 30
0.0
 11
0.2205149116
 21
0.4487546221
 31
0.0
 40
0.607010042
 41
6.3916858096
 42
6.9578927373
  0
ELLIPSE
  5
57A
100
AcDbEntity
  8
0
100
AcDbEllipse
 62
7
  6
CONTINUOUS
 10
8.5037652455
 20
-16.9644614854
 30
0.0
 11
0.4999969381
 21
-0.0035375912
 31
0.0
 40
0.4946372042
 41
-0.7644452153
 42
0.7888978189
  0
ELLIPSE
  5
57B
100
AcDbEntity
  8
0
100
AcDbEllipse
 62
7
  6
CONTINUOUS
 10
-6.0409059962
 20
19.5286538975
 30
0.0
 11
0.199943508
 21
0.008945986
 31
0.0
 40
0.5313301283
 41
-2.3799630874
 42
-0.8178934069
  0
ELLIPSE
  5
57C
100
AcDbEntity
  8
0
100
AcDbEllipse
 62
7
  6
CONTINUOUS
 10
-4.3401364547
 20
18.6782691267
 30
0.0
 11
0.199943508
 21
0.008945986
 31
0.0
 40
0.5313301283
 41
3.1178423524
 42
3.9032222197
  0
ENDSEC
  0
SECTION
  2
OBJECTS
  0
DICTIONARY
  5
C
100
AcDbDictionary
280
0
281
1
  3
ACAD_GROUP
350
D
  3
ACAD_MLINESTYLE
350
17
  3
ACAD_LAYOUT
350
1A
  3
ACAD_PLOTSETTINGS
350
19
  3
ACAD_PLOTSTYLENAME
350
E
  0
DICTIONARY
  5
D
102
{ACAD_REACTORS
330
C
102
}
100
AcDbDictionary
280
0
281
1
  0
ACDBDICTIONARYWDFLT
  5
E
102
{ACAD_REACTORS
330
C
102
}
100
AcDbDictionary
281
1
  3
Normal
350
F
100
AcDbDictionaryWithDefault
340
F
  0
DICTIONARY
  5
17
102
{ACAD_REACTORS
330
C
102
}
100
AcDbDictionary
280
0
281
1
  3
Standard
350
18
  0
DICTIONARY
  5
19
102
{ACAD_REACTORS
330
C
102
}
100
AcDbDictionary
281
1
  0
DICTIONARY
  5
1A
102
{ACAD_REACTORS
330
C
102
}
100
AcDbDictionary
281
1
  3
Model
350
57D
  3
Layout1
350
57E
  0
ACDBPLACEHOLDER
  5
F
102
{ACAD_REACTORS
330
E
102
}
  0
MLINESTYLE
  5
18
102
{ACAD_REACTORS
330
17
102
}
100
AcDbMlineStyle
  2
STANDARD
 70
0
  3

 62
256
 51
90.0
 52
90.0
 71
2
 49
0.5
 62
256
  6
BYLAYER
 49
-0.5
 62
256
  6
BYLAYER
  0
LAYOUT
  5
57D
102
{ACAD_REACTORS
330
1A
102
}
100
AcDbPlotSettings
  1

  2
none_device
  4
ISO_A4_(297.00_x_210.00_MM)
  6

 40
0.0
 41
0.0
 42
0.0
 43
0.0
 44
297.0
 45
210.0
 46
0.0
 47
0.0
 48
0.0
 49
0.0
140
0.0
141
0.0
142
1.0
143
1.0
 70
1024
 72
1
 73
0
 74
0
  7

 75
0
147
1.0
148
0.0
149
0.0
100
AcDbLayout
  1
Model
 70
0
 71
0
 10
0.0
 20
0.0
 11
297.0
 21
210.0
 12
0.0
 22
0.0
 32
0.0
 14
0.0
 24
0.0
 34
0.0
 15
0.0
 25
0.0
 35
0.0
146
0.0
 13
0.0
 23
0.0
 33
0.0
 16
1.0
 26
0.0
 36
0.0
 17
0.0
 27
1.0
 37
0.0
 76
0
330
214
345
0
346
0
  0
LAYOUT
  5
57E
102
{ACAD_REACTORS
330
1A
102
}
100
AcDbPlotSettings
  1

  2
none_device
  4
ISO_A4_(297.00_x_210.00_MM)
  6

 40
0.0
 41
0.0
 42
0.0
 43
0.0
 44
297.0
 45
210.0
 46
0.0
 47
0.0
 48
0.0
 49
0.0
140
0.0
141
0.0
142
1.0
143
1.0
 70
0
 72
1
 73
0
 74
0
  7

 75
0
147
1.0
148
0.0
149
0.0
100
AcDbLayout
  1
Layout1
 70
0
 71
1
 10
0.0
 20
0.0
 11
297.0
 21
210.0
 12
0.0
 22
0.0
 32
0.0
 14
0.0
 24
0.0
 34
0.0
 15
0.0
 25
0.0
 35
0.0
146
0.0
 13
0.0
 23
0.0
 33
0.0
 16
1.0
 26
0.0
 36
0.0
 17
0.0
 27
1.0
 37
0.0
 76
0
330
215
345
0
346
0
  0
ENDSEC
  0
EOF
