  0
SECTION
  2
HEADER
  9
$ACADVER
  1
AC1015
  9
$DWGCODEPAGE
  3
ANSI_1252
  9
$EXTMAX
 10
297.0
 20
210.0
 30
0.0
  9
$EXTMIN
 10
0.0
 20
0.0
 30
0.0
  9
$LIMMIN
 10
0.0
 20
0.0
  9
$LIMMAX
 10
297.0
 20
210.0
  9
$VIEWCTR
 10
148.5
 20
105.0
  9
$VIEWSIZE
 40
210.0
  9
$CLAYER
  8
0
  9
$LTSCALE
 40
16.335
  9
$CELTYPE
  6
BYLAYER
  9
$DIMSCALE
 40
1.0
  9
$DIMASZ
 40
3.0
  9
$DIMEXO
 40
1.85625
  9
$DIMDLI
 40
11.286
  9
$DIMEXE
 40
5.346
  9
$DIMCEN
 40
2.673
  9
$DIMLFAC
 40
1.0
  9
$DIMBLK
  1
_FILLED
  9
$DIMTXT
 40
3.0
  9
$DIMTOL
 70
1
  9
$DIMLIM
 70
0
  9
$DIMTFAC
 40
1.0
  9
$DIMTP
 40
0.01
  9
$DIMTM
 40
0.01
  9
$PDMODE
 70
3
  9
$PDSIZE
 40
3.0
  9
$HANDSEED
  5
28A
  9
$TILEMODE
 70
1
  9
$MEASUREMENT
 70
1
  9
$INSUNITS
 70
4
  0
ENDSEC
  0
SECTION
  2
CLASSES
  0
CLASS
  1
ACDBDICTIONARYWDFLT
  2
AcDbDictionaryWithDefault
  3
AutoCAD 2000
 90
0
280
0
281
0
  0
CLASS
  1
ACDBPLACEHOLDER
  2
AcDbPlaceHolder
  3
AutoCAD 2000
 90
0
280
0
281
0
  0
CLASS
  1
LAYOUT
  2
AcDbLayout
  3
AutoCAD 2000
 90
0
280
0
281
0
  0
ENDSEC
  0
SECTION
  2
TABLES
  0
TABLE
  2
VPORT
  5
8
100
AcDbSymbolTable
 70
2
  0
VPORT
  5
1F4
100
AcDbSymbolTableRecord
100
AcDbViewportTableRecord
  2
*ACTIVE
 70
0
 10
0.0
 20
0.0
 11
1.0
 21
1.0
 12
148.5
 22
105.0
 13
0.0
 23
0.0
 14
1.0
 24
1.0
 15
0.0
 25
0.0
 16
0.0
 26
0.0
 36
1.0
 17
0.0
 27
0.0
 37
0.0
 40
210.0
 41
1.4142857143
 42
50.0
 43
0.0
 44
0.0
 50
0.0
 51
0.0
 71
0
 72
100
 73
1
 74
1
 75
0
 76
0
 77
0
 78
0
  0
ENDTAB
  0
TABLE
  2
LTYPE
  5
5
100
AcDbSymbolTable
 70
6
  0
LTYPE
  5
14
100
AcDbSymbolTableRecord
100
AcDbLinetypeTableRecord
  2
BYBLOCK
 70
0
  3

 72
65
 73
0
 40
0.0
  0
LTYPE
  5
15
100
AcDbSymbolTableRecord
100
AcDbLinetypeTableRecord
  2
BYLAYER
 70
0
  3

 72
65
 73
0
 40
0.0
  0
LTYPE
  5
16
100
AcDbSymbolTableRecord
100
AcDbLinetypeTableRecord
  2
CONTINUOUS
 70
64
  3
Solid line
 72
65
 73
0
 40
0.0
  0
LTYPE
  5
1F5
100
AcDbSymbolTableRecord
100
AcDbLinetypeTableRecord
  2
CENTER
 70
64
  3
____ _ ____ _ ____ _ ____ _ ____ _ ____ _ ____
 72
65
 73
4
 40
0.6
 49
0.375
 74
0
 49
-0.075
 74
0
 49
0.075
 74
0
 49
-0.075
 74
0
  0
LTYPE
  5
1F6
100
AcDbSymbolTableRecord
100
AcDbLinetypeTableRecord
  2
HIDDEN
 70
64
  3
- - - - - - - - - - - - - - - - - - - -
 72
65
 73
2
 40
0.2
 49
0.1
 74
0
 49
-0.1
 74
0
  0
LTYPE
  5
1F7
100
AcDbSymbolTableRecord
100
AcDbLinetypeTableRecord
  2
PHANTOM
 70
64
  3
_____ _ _ _____ _ _ _____ _ _ _____
 72
65
 73
6
 40
0.8
 49
0.45
 74
0
 49
-0.05
 74
0
 49
0.1
 74
0
 49
-0.05
 74
0
 49
0.1
 74
0
 49
-0.05
 74
0
  0
LTYPE
  5
1F8
100
AcDbSymbolTableRecord
100
AcDbLinetypeTableRecord
  2
DOT
 70
64
  3
. . . . . . . . . . . . . . . . . . . .
 72
65
 73
2
 40
0.2
 49
0.1
 74
0
 49
-0.1
 74
0
  0
LTYPE
  5
1F9
100
AcDbSymbolTableRecord
100
AcDbLinetypeTableRecord
  2
DASHED
 70
64
  3
- - - - - - - - - - - - - - - - - - - -
 72
65
 73
2
 40
0.2
 49
0.1
 74
0
 49
-0.1
 74
0
  0
ENDTAB
  0
TABLE
  2
LAYER
  5
2
100
AcDbSymbolTable
 70
36
  0
LAYER
  5
10
100
AcDbSymbolTableRecord
100
AcDbLayerTableRecord
  2
0
 70
0
 62
7
  6
CONTINUOUS
370
-3
390
F
  0
LAYER
  5
1FA
100
AcDbSymbolTableRecord
100
AcDbLayerTableRecord
  2
DEFAULT_1
 70
0
 62
7
  6
CENTER
370
-3
390
F
  0
LAYER
  5
1FB
100
AcDbSymbolTableRecord
100
AcDbLayerTableRecord
  2
DEFAULT_2
 70
0
 62
7
  6
HIDDEN
370
-3
390
F
  0
LAYER
  5
1FC
100
AcDbSymbolTableRecord
100
AcDbLayerTableRecord
  2
DEFAULT_3
 70
0
 62
7
  6
PHANTOM
370
-3
390
F
  0
LAYER
  5
1FD
100
AcDbSymbolTableRecord
100
AcDbLayerTableRecord
  2
ASSI
 70
0
 62
7
  6
CONTINUOUS
370
-3
390
F
  0
LAYER
  5
1FE
100
AcDbSymbolTableRecord
100
AcDbLayerTableRecord
  2
COLOR9
 70
0
 62
7
  6
CONTINUOUS
370
-3
390
F
  0
LAYER
  5
1FF
100
AcDbSymbolTableRecord
100
AcDbLayerTableRecord
  2
COORDINATE
 70
0
 62
7
  6
CONTINUOUS
370
-3
390
F
  0
LAYER
  5
200
100
AcDbSymbolTableRecord
100
AcDbLayerTableRecord
  2
COORD_ORIGINE
 70
0
 62
7
  6
CONTINUOUS
370
-3
390
F
  0
LAYER
  5
201
100
AcDbSymbolTableRecord
100
AcDbLayerTableRecord
  2
COPY_PUBLISH
 70
0
 62
7
  6
CONTINUOUS
370
-3
390
F
  0
LAYER
  5
202
100
AcDbSymbolTableRecord
100
AcDbLayerTableRecord
  2
COSMETICI
 70
0
 62
7
  6
CONTINUOUS
370
-3
390
F
  0
LAYER
  5
203
100
AcDbSymbolTableRecord
100
AcDbLayerTableRecord
  2
CURVE
 70
0
 62
7
  6
CONTINUOUS
370
-3
390
F
  0
LAYER
  5
204
100
AcDbSymbolTableRecord
100
AcDbLayerTableRecord
  2
DRAFT
 70
0
 62
7
  6
CONTINUOUS
370
-3
390
F
  0
LAYER
  5
205
100
AcDbSymbolTableRecord
100
AcDbLayerTableRecord
  2
IMPORT_IGES
 70
0
 62
7
  6
CONTINUOUS
370
-3
390
F
  0
LAYER
  5
206
100
AcDbSymbolTableRecord
100
AcDbLayerTableRecord
  2
INTF_1
 70
0
 62
7
  6
CONTINUOUS
370
-3
390
F
  0
LAYER
  5
207
100
AcDbSymbolTableRecord
100
AcDbLayerTableRecord
  2
INTF_YELLOW
 70
0
 62
7
  6
CONTINUOUS
370
-3
390
F
  0
LAYER
  5
208
100
AcDbSymbolTableRecord
100
AcDbLayerTableRecord
  2
NOTE
 70
0
 62
7
  6
CONTINUOUS
370
-3
390
F
  0
LAYER
  5
209
100
AcDbSymbolTableRecord
100
AcDbLayerTableRecord
  2
PIANI
 70
0
 62
7
  6
CONTINUOUS
370
-3
390
F
  0
LAYER
  5
20A
100
AcDbSymbolTableRecord
100
AcDbLayerTableRecord
  2
PIANI_ORIGINE
 70
0
 62
7
  6
CONTINUOUS
370
-3
390
F
  0
LAYER
  5
20B
100
AcDbSymbolTableRecord
100
AcDbLayerTableRecord
  2
PIANI_RIFERIMENTO
 70
0
 62
7
  6
CONTINUOUS
370
-3
390
F
  0
LAYER
  5
20C
100
AcDbSymbolTableRecord
100
AcDbLayerTableRecord
  2
PUNTI
 70
0
 62
7
  6
CONTINUOUS
370
-3
390
F
  0
LAYER
  5
20D
100
AcDbSymbolTableRecord
100
AcDbLayerTableRecord
  2
RACCORDO
 70
0
 62
7
  6
CONTINUOUS
370
-3
390
F
  0
LAYER
  5
20E
100
AcDbSymbolTableRecord
100
AcDbLayerTableRecord
  2
SIMBOLI
 70
0
 62
7
  6
CONTINUOUS
370
-3
390
F
  0
LAYER
  5
20F
100
AcDbSymbolTableRecord
100
AcDbLayerTableRecord
  2
SMUSSO
 70
0
 62
7
  6
CONTINUOUS
370
-3
390
F
  0
LAYER
  5
210
100
AcDbSymbolTableRecord
100
AcDbLayerTableRecord
  2
SNAPLINE
 70
0
 62
7
  6
CONTINUOUS
370
-3
390
F
  0
LAYER
  5
211
100
AcDbSymbolTableRecord
100
AcDbLayerTableRecord
  2
SUPERFICI
 70
0
 62
7
  6
CONTINUOUS
370
-3
390
F
  0
LAYER
  5
212
100
AcDbSymbolTableRecord
100
AcDbLayerTableRecord
  2
TRASH
 70
0
 62
7
  6
CONTINUOUS
370
-3
390
F
  0
LAYER
  5
213
100
AcDbSymbolTableRecord
100
AcDbLayerTableRecord
  2
XSEC_DATUMS
 70
0
 62
7
  6
CONTINUOUS
370
-3
390
F
  0
ENDTAB
  0
TABLE
  2
STYLE
  5
3
100
AcDbSymbolTable
 70
1
  0
STYLE
  5
11
100
AcDbSymbolTableRecord
100
AcDbTextStyleTableRecord
  2
STANDARD
 70
0
 40
0.0
 41
0.8
 50
0.0
 71
0
 42
0.2
  3
txt
  4

  0
STYLE
  5
214
100
AcDbSymbolTableRecord
100
AcDbTextStyleTableRecord
  2
TEXTSTYLE_1
 70
0
 40
0.0
 41
0.8
 50
0.0
 71
0
 42
0.2
  3
gdt
  4

  0
ENDTAB
  0
TABLE
  2
VIEW
  5
6
100
AcDbSymbolTable
 70
0
  0
ENDTAB
  0
TABLE
  2
UCS
  5
7
100
AcDbSymbolTable
 70
0
  0
ENDTAB
  0
TABLE
  2
APPID
  5
9
100
AcDbSymbolTable
 70
1
  0
APPID
  5
215
100
AcDbSymbolTableRecord
100
AcDbRegAppTableRecord
  2
ACAD
 70
0
  0
ENDTAB
  0
TABLE
  2
BLOCK_RECORD
  5
1
100
AcDbSymbolTable
 70
0
  0
BLOCK_RECORD
  5
216
100
AcDbSymbolTableRecord
100
AcDbBlockTableRecord
  2
*Model_Space
  0
BLOCK_RECORD
  5
217
100
AcDbSymbolTableRecord
100
AcDbBlockTableRecord
  2
*Paper_Space
  0
ENDTAB
  0
TABLE
  2
DIMSTYLE
  5
A
100
AcDbSymbolTable
 70
1
100
AcDbDimStyleTable
 71
0
  0
DIMSTYLE
105
218
100
AcDbSymbolTableRecord
100
AcDbDimStyleTableRecord
  2
STANDARD
 70
0
  3

  4

 40
1.0
 41
3.0
 42
0.0625
 43
0.38
 44
0.18
 45
0.0
 46
0.0
 47
0.01
 48
0.01
140
3.0
141
0.09
142
0.0
143
25.4
144
1.0
145
0.0
146
1.0
147
0.09
 71
1.0
 72
0.0
 73
0
 74
0
 75
0
 76
0
 77
1
 78
8
170
0
171
2
172
0
173
0
174
0
175
0
176
0
177
0
178
0
270
2
271
2
272
2
273
2
274
2
275
0
280
0
281
0
282
0
283
1
284
8
285
0
286
0
287
3
288
0
340
11
  0
ENDTAB
  0
ENDSEC
  0
SECTION
  2
BLOCKS
  0
BLOCK
  5
20
100
AcDbEntity
  8
0
100
AcDbBlockBegin
  2
*Model_Space
 70
0
 10
0.0
 20
0.0
 30
0.0
  3
*Model_Space
  1

  0
ENDBLK
  5
21
100
AcDbEntity
  8
0
100
AcDbBlockEnd
  0
BLOCK
  5
1C
100
AcDbEntity
  8
0
100
AcDbBlockBegin
  2
*Paper_Space
 70
0
 10
0.0
 20
0.0
 30
0.0
  3
*Paper_Space
  1

  0
ENDBLK
  5
1D
100
AcDbEntity
  8
0
100
AcDbBlockEnd
  0
ENDSEC
  0
SECTION
  2
ENTITIES
  0
LWPOLYLINE
  5
219
100
AcDbEntity
  8
RACCORDO
100
AcDbPolyline
 62
7
  6
CONTINUOUS
 90
15
 70
0
 10
-15.2475569229
 20
26.7745994892
 10
-15.2842523096
 20
26.7499819568
 10
-15.3479255319
 20
26.7015075437
 10
-15.4079572542
 20
26.6484606934
 10
-15.4645449487
 20
26.5911025499
 10
-15.5176656893
 20
26.5297410638
 10
-15.5669913071
 20
26.4650058948
 10
-15.61248697
 20
26.3971723594
 10
-15.654050251
 20
26.3264359014
 10
-15.6912747424
 20
26.2535645924
 10
-15.7240458417
 20
26.1787799168
 10
-15.7521924955
 20
26.1022526883
 10
-15.7753639457
 20
26.0246382241
 10
-15.7933225174
 20
25.946175684
 10
-15.8063145338
 20
25.8630159964
  0
LINE
  5
21A
100
AcDbEntity
  8
RACCORDO
100
AcDbLine
 62
7
  6
CONTINUOUS
 10
-15.2477120229
 20
26.7745173858
 11
-14.5877269444
 21
27.1965701922
  0
LINE
  5
21B
100
AcDbEntity
  8
0
100
AcDbLine
 62
253
  6
CONTINUOUS
 10
-14.9875930221
 20
26.7560354244
 11
-14.331180032
 21
27.1758039218
  0
LWPOLYLINE
  5
21C
100
AcDbEntity
  8
RACCORDO
100
AcDbPolyline
 62
253
  6
CONTINUOUS
 90
9
 70
0
 10
-15.2475646137
 20
26.7746115432
 10
-15.2278125304
 20
26.7854130436
 10
-15.1989250447
 20
26.7957822307
 10
-15.1676228681
 20
26.8013075381
 10
-15.134248655
 20
26.8019284823
 10
-15.0991677417
 20
26.7976382658
 10
-15.0627641472
 20
26.7884838522
 10
-15.0254363691
 20
26.7745654517
 10
-14.9875930221
 20
26.7560354244
  0
LWPOLYLINE
  5
21D
100
AcDbEntity
  8
RACCORDO
100
AcDbPolyline
 62
253
  6
CONTINUOUS
 90
19
 70
0
 10
-15.659341803
 20
25.6636771103
 10
-15.6492035129
 20
25.7318133611
 10
-15.6349827911
 20
25.8012609005
 10
-15.6167661721
 20
25.8716036328
 10
-15.5946662001
 20
25.9424223001
 10
-15.5688154932
 20
26.0132909478
 10
-15.5393663851
 20
26.0837794915
 10
-15.5065001764
 20
26.1534650457
 10
-15.4704154461
 20
26.2219326121
 10
-15.4313214103
 20
26.2887713098
 10
-15.3894563353
 20
26.3535822845
 10
-15.3450739885
 20
26.415978327
 10
-15.2984312337
 20
26.4755838051
 10
-15.2498104004
 20
26.5320444411
 10
-15.1995075824
 20
26.5850213597
 10
-15.1478181476
 20
26.6341901874
 10
-15.0950529038
 20
26.6792552623
 10
-15.0415360611
 20
26.7199510356
 10
-14.9875930221
 20
26.7560354244
  0
LWPOLYLINE
  5
21E
100
AcDbEntity
  8
RACCORDO
100
AcDbPolyline
 62
253
  6
CONTINUOUS
 90
10
 70
0
 10
-15.8063145338
 20
25.8630159964
 10
-15.8068289457
 20
25.8574029686
 10
-15.8058617011
 20
25.8323573236
 10
-15.7996365985
 20
25.8070168136
 10
-15.7882196126
 20
25.7816500002
 10
-15.7717317417
 20
25.7565257242
 10
-15.7503477265
 20
25.7319102559
 10
-15.7242941972
 20
25.7080644732
 10
-15.6938472723
 20
25.6852410964
 10
-15.659329632
 20
25.6636820105
  0
LWPOLYLINE
  5
21F
100
AcDbEntity
  8
RACCORDO
100
AcDbPolyline
 62
7
  6
CONTINUOUS
 90
10
 70
0
 10
-15.8062962087
 20
25.8632543595
 10
-15.9291280823
 20
24.7770063237
 10
-16.046274396
 20
23.6321973218
 10
-16.150071986
 20
22.4934748745
 10
-16.2404911291
 20
21.3611177887
 10
-16.3175123354
 20
20.235355121
 10
-16.3811185238
 20
19.1163973921
 10
-16.4312926709
 20
18.0044729375
 10
-16.4680216351
 20
16.8998529797
 10
-16.4902622919
 20
15.8693378553
  0
LWPOLYLINE
  5
220
100
AcDbEntity
  8
RACCORDO
100
AcDbPolyline
 62
7
  6
CONTINUOUS
 90
8
 70
0
 10
-15.725266038
 20
-9.0753412999
 10
-15.6927574219
 20
-9.1317036699
 10
-15.6559329346
 20
-9.1838710493
 10
-15.615152898
 20
-9.2316142465
 10
-15.5710295439
 20
-9.2745523498
 10
-15.5241734786
 20
-9.31248025
 10
-15.4750903647
 20
-9.3453651638
 10
-15.4620594117
 20
-9.3530700445
  0
LWPOLYLINE
  5
221
100
AcDbEntity
  8
RACCORDO
100
AcDbPolyline
 62
253
  6
CONTINUOUS
 90
8
 70
0
 10
-15.8050014115
 20
-8.8197704318
 10
-15.7996482393
 20
-8.8460895241
 10
-15.7882317895
 20
-8.8784704197
 10
-15.7717442705
 20
-8.909500107
 10
-15.7503604233
 20
-8.9388497214
 10
-15.7243068825
 20
-8.9662082042
 10
-15.6938597737
 20
-8.9912855992
 10
-15.6593417873
 20
-9.0138161265
  0
LWPOLYLINE
  5
222
100
AcDbEntity
  8
RACCORDO
100
AcDbPolyline
 62
7
  6
CONTINUOUS
 90
5
 70
0
 10
-15.8049855101
 20
-8.81976821
 10
-15.7932573874
 20
-8.8855351988
 10
-15.7757885896
 20
-8.9517791811
 10
-15.753069959
 20
-9.0151644284
 10
-15.725266038
 20
-9.0753412999
  0
LINE
  5
223
100
AcDbEntity
  8
RACCORDO
100
AcDbLine
 62
7
  6
CONTINUOUS
 10
-15.8050527834
 20
-8.8194009011
 11
-15.8050014115
 21
-8.8197704318
  0
LWPOLYLINE
  5
224
100
AcDbEntity
  8
RACCORDO
100
AcDbPolyline
 62
253
  6
CONTINUOUS
 90
9
 70
0
 10
-16.4902597992
 20
0.355889251
 10
-16.4892373837
 20
0.3396844567
 10
-16.4832733374
 20
0.3096601001
 10
-16.4720867871
 20
0.2802112384
 10
-16.4557962478
 20
0.2516498655
 10
-16.4345743087
 20
0.224278573
 10
-16.408645804
 20
0.1983873441
 10
-16.3782854315
 20
0.1742504816
 10
-16.3438148421
 20
0.1521237018
  0
LWPOLYLINE
  5
225
100
AcDbEntity
  8
RACCORDO
100
AcDbPolyline
 62
253
  6
CONTINUOUS
 90
9
 70
0
 10
-16.4902622919
 20
15.8693378553
 10
-16.4892373679
 20
15.8484930142
 10
-16.4832733208
 20
15.8194921613
 10
-16.4720867699
 20
15.7909353293
 10
-16.4557962304
 20
15.7631250616
 10
-16.4345742914
 20
15.7363559921
 10
-16.408645787
 20
15.7109117238
 10
-16.3782854152
 20
15.6870618242
 10
-16.3438148266
 20
15.6650589694
  0
LWPOLYLINE
  5
226
100
AcDbEntity
  8
RACCORDO
100
AcDbPolyline
 62
7
  6
CONTINUOUS
 90
10
 70
0
 10
-16.4902597775
 20
0.3558894922
 10
-16.4678537274
 20
-0.6535113975
 10
-16.4310249177
 20
-1.7142436627
 10
-16.3807274436
 20
-2.7661532238
 10
-16.3169686316
 20
-3.8089816358
 10
-16.2397596228
 20
-4.8425191269
 10
-16.1491113133
 20
-5.8665745617
 10
-16.0450371962
 20
-6.880939386
 10
-15.9275611151
 20
-7.885366001
 10
-15.8050527834
 20
-8.8194009011
  0
LWPOLYLINE
  5
227
100
AcDbEntity
  8
RACCORDO
100
AcDbPolyline
 62
253
  6
CONTINUOUS
 90
10
 70
0
 10
-16.3438148424
 20
0.1521237016
 10
-16.3683693858
 20
1.8607710936
 10
-16.3867850752
 20
3.5732258118
 10
-16.3990619592
 20
5.2894570895
 10
-16.405200156
 20
7.0094107408
 10
-16.4052001528
 20
8.7330791329
 10
-16.3990619505
 20
10.4605016801
 10
-16.3867850638
 20
12.191671311
 10
-16.3683693767
 20
13.926533975
 10
-16.3438148424
 20
15.6650589606
  0
LWPOLYLINE
  5
228
100
AcDbEntity
  8
RACCORDO
100
AcDbPolyline
 62
7
  6
CONTINUOUS
 90
10
 70
0
 10
-16.4902623033
 20
15.8693380624
 10
-16.5142354639
 20
14.1775733704
 10
-16.532941904
 20
12.4285216862
 10
-16.5454099057
 20
10.6831760508
 10
-16.551639065
 20
8.9415722667
 10
-16.5516292554
 20
7.2037400246
 10
-16.5453804015
 20
5.4697067137
 10
-16.5328924826
 20
3.7395020246
 10
-16.5141657554
 20
2.0131614249
 10
-16.4902597992
 20
0.355889251
  0
LWPOLYLINE
  5
229
100
AcDbEntity
  8
RACCORDO
100
AcDbPolyline
 62
253
  6
CONTINUOUS
 90
10
 70
0
 10
-16.3438148424
 20
15.6650589606
 10
-16.3201183489
 20
16.7483655597
 10
-16.2833045586
 20
17.8391286781
 10
-16.2333814614
 20
18.9371174852
 10
-16.1703603316
 20
20.0420998488
 10
-16.0942544241
 20
21.153841826
 10
-16.005078964
 20
22.2721077168
 10
-15.9028528816
 20
23.3966608553
 10
-15.7875988158
 20
24.5272636563
 10
-15.659341803
 20
25.6636771103
  0
LWPOLYLINE
  5
22A
100
AcDbEntity
  8
RACCORDO
100
AcDbPolyline
 62
7
  6
CONTINUOUS
 90
14
 70
0
 10
15.3213388021
 20
-27.1270190116
 10
15.3543399944
 20
-27.144881866
 10
15.4076741587
 20
-27.1690184875
 10
15.4627797606
 20
-27.1884430692
 10
15.5198110302
 20
-27.2032197574
 10
15.5784181741
 20
-27.2131961021
 10
15.6381837519
 20
-27.2182494001
 10
15.6992815386
 20
-27.2182902109
 10
15.7614254264
 20
-27.2131701182
 10
15.8242159828
 20
-27.2027858254
 10
15.8877917615
 20
-27.1869238804
 10
15.9520511704
 20
-27.1653275457
 10
16.0165194739
 20
-27.1379012703
 10
16.0484247063
 20
-27.1221258489
  0
LINE
  5
22B
100
AcDbEntity
  8
RACCORDO
100
AcDbLine
 62
7
  6
CONTINUOUS
 10
-15.4621422359
 20
-9.3530274795
 11
-15.462803857
 21
-9.3526465048
  0
LINE
  5
22C
100
AcDbEntity
  8
ASSI
100
AcDbLine
 62
7
  6
CONTINUOUS
 10
15.3214593358
 20
-27.1270942549
 11
-15.4628382816
 21
-9.3526266285
  0
LINE
  5
22D
100
AcDbEntity
  8
RACCORDO
100
AcDbLine
 62
253
  6
CONTINUOUS
 10
15.1196700942
 20
-26.7852318561
 11
-15.659341803
 21
-9.0138161383
  0
LINE
  5
22E
100
AcDbEntity
  8
RACCORDO
100
AcDbLine
 62
7
  6
CONTINUOUS
 10
15.3212510261
 20
-27.1269739114
 11
15.3214252041
 21
-27.1270745477
  0
LWPOLYLINE
  5
22F
100
AcDbEntity
  8
RACCORDO
100
AcDbPolyline
 62
253
  6
CONTINUOUS
 90
9
 70
0
 10
-15.4704179364
 20
-9.3481105805
 10
-15.5065024084
 20
-9.3224230841
 10
-15.5393682115
 20
-9.2916966424
 10
-15.5688166509
 20
-9.2561151502
 10
-15.5946666602
 20
-9.2158940444
 10
-15.6167662197
 20
-9.1712730435
 10
-15.6349827218
 20
-9.1225200255
 10
-15.6492034525
 20
-9.0699290236
 10
-15.659341803
 20
-9.0138161383
  0
LWPOLYLINE
  5
230
100
AcDbEntity
  8
RACCORDO
100
AcDbPolyline
 62
253
  6
CONTINUOUS
 90
10
 70
0
 10
-15.659341803
 20
-9.0138161383
 10
-15.7875988157
 20
-8.033432789
 10
-15.9028528815
 20
-7.043038886
 10
-16.0050789638
 20
-6.0428445272
 10
-16.0942544235
 20
-5.0330621486
 10
-16.1703603306
 20
-4.0139055623
 10
-16.2333814602
 20
-2.985589906
 10
-16.2833045576
 20
-1.9483328226
 10
-16.3201183483
 20
-0.9023544188
 10
-16.3438148424
 20
0.1521237016
  0
LWPOLYLINE
  5
231
100
AcDbEntity
  8
0
100
AcDbPolyline
 62
7
  6
CONTINUOUS
 90
9
 70
0
 10
-5.7361430726
 20
4.242522618
 10
-5.7225707723
 20
4.2775785038
 10
-5.7065337913
 20
4.309811164
 10
-5.6880324958
 20
4.3392203896
 10
-5.6669018864
 20
4.3659902303
 10
-5.6433076139
 20
4.3899362643
 10
-5.6177461992
 20
4.4105054733
 10
-5.5902643134
 20
4.4275522706
 10
-5.5650638544
 20
4.4395074488
  0
LWPOLYLINE
  5
232
100
AcDbEntity
  8
0
100
AcDbPolyline
 62
7
  6
CONTINUOUS
 90
3
 70
0
 10
-5.3403196011
 20
4.4456148071
 10
-5.3473604793
 20
4.431305356
 10
-5.360837561
 20
4.3960352773
  0
LWPOLYLINE
  5
233
100
AcDbEntity
  8
0
100
AcDbPolyline
 62
7
  6
CONTINUOUS
 90
12
 70
0
 10
-5.5650638544
 20
4.4395074488
 10
-5.5608162716
 20
4.4412216806
 10
-5.5297602726
 20
4.4513964801
 10
-5.4970907258
 20
4.4580680006
 10
-5.462814087
 20
4.4612444178
 10
-5.4273066696
 20
4.4608337498
 10
-5.3904011831
 20
4.4567349964
 10
-5.3522655917
 20
4.4490487742
 10
-5.3137790836
 20
4.4379855306
 10
-5.2752348589
 20
4.4236153365
 10
-5.2363401007
 20
4.405867903
 10
-5.1970949027
 20
4.3847431767
  0
LINE
  5
234
100
AcDbEntity
  8
RACCORDO
100
AcDbLine
 62
253
  6
CONTINUOUS
 10
14.3985959826
 20
-17.5981590159
 11
-16.3438148424
 21
0.1521237016
  0
LWPOLYLINE
  5
235
100
AcDbEntity
  8
0
100
AcDbPolyline
 62
7
  6
CONTINUOUS
 90
13
 70
0
 10
-4.9645950646
 20
3.4548210785
 10
-5.0173344865
 20
3.1913456184
 10
-5.0605187842
 20
2.92112781
 10
-5.0941452763
 20
2.6441693445
 10
-5.1182458698
 20
2.3600143467
 10
-5.1327826507
 20
2.0691224587
 10
-5.1376509083
 20
1.7728670968
 10
-5.1327826506
 20
1.4712091641
 10
-5.1182458697
 20
1.1641880789
 10
-5.0941452761
 20
0.8532918861
 10
-5.060518784
 20
0.5390149607
 10
-5.0173344863
 20
0.2208597578
 10
-4.9645950646
 20
-0.1011751279
  0
LWPOLYLINE
  5
236
100
AcDbEntity
  8
SUPERFICI
100
AcDbPolyline
 62
7
  6
CONTINUOUS
 90
25
 70
0
 10
-4.9645950644
 20
3.4548210799
 10
-4.9921442221
 20
3.3240021564
 10
-5.0173175166
 20
3.1914034201
 10
-5.0401145195
 20
3.0570251351
 10
-5.0605415417
 20
2.9208183706
 10
-5.0785913788
 20
2.7828326084
 10
-5.094243477
 20
2.6432156481
 10
-5.1074945382
 20
2.5019690331
 10
-5.1183472956
 20
2.3590915842
 10
-5.1267905329
 20
2.2147268496
 10
-5.1328217222
 20
2.0688732119
 10
-5.1364431058
 20
1.9215324931
 10
-5.1376509083
 20
1.7728532371
 10
-5.1364426944
 20
1.6228342646
 10
-5.1328209001
 20
1.4714767946
 10
-5.126789343
 20
1.3189328035
 10
-5.1183457971
 20
1.1652010452
 10
-5.1074927741
 20
1.0102826403
 10
-5.0942414812
 20
0.8543329513
 10
-5.0785890838
 20
0.6973463767
 10
-5.0605389811
 20
0.5393282299
 10
-5.0401120242
 20
0.380450075
 10
-5.0173155183
 20
0.2207689067
 10
-4.992143055
 20
0.0602272475
 10
-4.9645950637
 20
-0.1011751336
  0
LINE
  5
237
100
AcDbEntity
  8
0
100
AcDbLine
 62
7
  6
CONTINUOUS
 10
-4.9645950646
 20
3.4548210785
 11
-4.9537709778
 21
3.4958371891
  0
LINE
  5
238
100
AcDbEntity
  8
0
100
AcDbLine
 62
7
  6
CONTINUOUS
 10
-4.9537709778
 20
3.4958371891
 11
-4.9399908444
 21
3.5338212717
  0
LINE
  5
239
100
AcDbEntity
  8
0
100
AcDbLine
 62
7
  6
CONTINUOUS
 10
-4.9399908444
 20
3.5338212717
 11
-4.9232550503
 21
3.5687731047
  0
LINE
  5
23A
100
AcDbEntity
  8
0
100
AcDbLine
 62
7
  6
CONTINUOUS
 10
-4.9232550503
 20
3.5687731047
 11
-4.9033736818
 21
3.6009577757
  0
LINE
  5
23B
100
AcDbEntity
  8
0
100
AcDbLine
 62
7
  6
CONTINUOUS
 10
-4.9033736818
 20
3.6009577757
 11
-4.8805373246
 21
3.630109812
  0
LINE
  5
23C
100
AcDbEntity
  8
0
100
AcDbLine
 62
7
  6
CONTINUOUS
 10
-4.8805373246
 20
3.630109812
 11
-4.8555727266
 21
3.6551766141
  0
LINE
  5
23D
100
AcDbEntity
  8
0
100
AcDbLine
 62
7
  6
CONTINUOUS
 10
-4.8555727266
 20
3.6551766141
 11
-4.8476389328
 21
3.6619549989
  0
LWPOLYLINE
  5
23E
100
AcDbEntity
  8
SUPERFICI
100
AcDbPolyline
 62
7
  6
CONTINUOUS
 90
9
 70
0
 10
-4.8476164894
 20
3.6619203948
 10
-4.8556427812
 20
3.6551172352
 10
-4.8772980442
 20
3.6338909298
 10
-4.8970190944
 20
3.6099910533
 10
-4.9148297627
 20
3.5834559411
 10
-4.9305144619
 20
3.5546362063
 10
-4.9440012081
 20
3.5236487896
 10
-4.9553614978
 20
3.4903770298
 10
-4.9645950644
 20
3.4548210799
  0
LINE
  5
23F
100
AcDbEntity
  8
SUPERFICI
100
AcDbLine
 62
7
  6
CONTINUOUS
 10
-4.8320778083
 20
3.6737079203
 11
-4.8476164894
 21
3.6619203948
  0
LWPOLYLINE
  5
240
100
AcDbEntity
  8
0
100
AcDbPolyline
 62
7
  6
CONTINUOUS
 90
13
 70
0
 10
-4.8476389328
 20
3.6619549989
 10
-4.8277619115
 20
3.676713603
 10
-4.7978240892
 20
3.694164652
 10
-4.7659334808
 20
3.7076297867
 10
-4.7320883764
 20
3.7171007417
 10
-4.6962915852
 20
3.7225851542
 10
-4.6589795106
 20
3.7239504862
 10
-4.6199506373
 20
3.72108035
 10
-4.5794073515
 20
3.714090636
 10
-4.5383919125
 20
3.7031972213
 10
-4.4972519232
 20
3.6884719606
 10
-4.4556402857
 20
3.669842711
 10
-4.4135571236
 20
3.6473094018
  0
LINE
  5
241
100
AcDbEntity
  8
0
100
AcDbLine
 62
253
  6
CONTINUOUS
 10
-5.7361430726
 20
4.242522618
 11
-5.360837561
 21
4.3960352773
  0
LINE
  5
242
100
AcDbEntity
  8
0
100
AcDbLine
 62
7
  6
CONTINUOUS
 10
3.4099364627
 20
-5.3005205352
 11
3.3763558967
 21
-5.3098387491
  0
LWPOLYLINE
  5
243
100
AcDbEntity
  8
0
100
AcDbPolyline
 62
7
  6
CONTINUOUS
 90
8
 70
0
 10
3.3763558967
 20
-5.3098387491
 10
3.3408005848
 20
-5.3151837344
 10
3.3037023838
 20
-5.3164255785
 10
3.2648588459
 20
-5.313448432
 10
3.224471548
 20
-5.3063686524
 10
3.1835783813
 20
-5.2954046393
 10
3.1425251261
 20
-5.2806292994
 10
3.1009654968
 20
-5.2619700209
  0
LWPOLYLINE
  5
244
100
AcDbEntity
  8
0
100
AcDbPolyline
 62
7
  6
CONTINUOUS
 90
19
 70
0
 10
-5.1970950736
 20
-1.5652312211
 10
-5.2363605735
 20
-1.5410385432
 10
-5.2752594034
 20
-1.5139360217
 10
-5.3137914697
 20
-1.4839236018
 10
-5.3522405576
 20
-1.4507420719
 10
-5.3903225001
 20
-1.41465042
 10
-5.4271852065
 20
-1.3764258506
 10
-5.4626694368
 20
-1.3361570841
 10
-5.4969337583
 20
-1.2937550062
 10
-5.5296027827
 20
-1.2497300641
 10
-5.5606733316
 20
-1.2040760097
 10
-5.5901477146
 20
-1.1567985828
 10
-5.6176588173
 20
-1.108426238
 10
-5.6432541744
 20
-1.058751323
 10
-5.6668852573
 20
-1.0079809089
 10
-5.6880410744
 20
-0.9572656631
 10
-5.7065511569
 20
-0.9069890608
 10
-5.7225853314
 20
-0.8567672519
 10
-5.736143236
 20
-0.8066000253
  0
LWPOLYLINE
  5
245
100
AcDbEntity
  8
0
100
AcDbPolyline
 62
7
  6
CONTINUOUS
 90
19
 70
0
 10
-5.3608377458
 20
-0.5774062032
 10
-5.3473741208
 20
-0.6276855081
 10
-5.3314139189
 20
-0.6780360014
 10
-5.3129575025
 20
-0.7284578946
 10
-5.2918329043
 20
-0.7793416441
 10
-5.2682127341
 20
-0.8302971683
 10
-5.2426144106
 20
-0.8801539837
 10
-5.2150874226
 20
-0.9286996196
 10
-5.1855832868
 20
-0.9761471345
 10
-5.1544726874
 20
-1.0219644701
 10
-5.1217541146
 20
-1.0661451644
 10
-5.0874299564
 20
-1.1086961933
 10
-5.0518767867
 20
-1.1491056804
 10
-5.0149353343
 20
-1.1874637638
 10
-4.9767655503
 20
-1.2236807034
 10
-4.9382228323
 20
-1.2569748004
 10
-4.8995924513
 20
-1.2870855694
 10
-4.8605895225
 20
-1.3142737219
 10
-4.8212141405
 20
-1.3385393132
  0
LWPOLYLINE
  5
246
100
AcDbEntity
  8
0
100
AcDbPolyline
 62
7
  6
CONTINUOUS
 90
16
 70
0
 10
-5.736143236
 20
-0.8066000253
 10
-5.8232569187
 20
-0.4297013296
 10
-5.8980306019
 20
-0.0569924296
 10
-5.9604586326
 20
0.3115297532
 10
-6.0106053311
 20
0.6764688783
 10
-6.0483941243
 20
1.0372279606
 10
-6.0736115917
 20
1.3920070225
 10
-6.0861869684
 20
1.7408701825
 10
-6.0861865412
 20
2.083755437
 10
-6.0736104464
 20
2.4186690003
 10
-6.0483924232
 20
2.7454667277
 10
-6.0106032151
 20
3.0642897049
 10
-5.9604564423
 20
3.3735674032
 10
-5.8980287446
 20
3.6727730463
 10
-5.8232557367
 20
3.9624259347
 10
-5.7361430726
 20
4.242522618
  0
LWPOLYLINE
  5
247
100
AcDbEntity
  8
0
100
AcDbPolyline
 62
7
  6
CONTINUOUS
 90
16
 70
0
 10
-5.3608377458
 20
-0.5774062032
 10
-5.4456719069
 20
-0.2065986966
 10
-5.5184901658
 20
0.1601271065
 10
-5.5792870971
 20
0.5227741604
 10
-5.6281265016
 20
0.8819298006
 10
-5.6649328225
 20
1.2370130955
 10
-5.6894950212
 20
1.586272597
 10
-5.7017431167
 20
1.9297722213
 10
-5.7017427813
 20
2.2674500893
 10
-5.6894941161
 20
2.5973616228
 10
-5.6649314607
 20
2.9193637413
 10
-5.6281247882
 20
3.2335965845
 10
-5.5792853078
 20
3.538535998
 10
-5.5184886339
 20
3.8336707971
 10
-5.4456709095
 20
4.1195049939
 10
-5.360837561
 20
4.3960352773
  0
LINE
  5
248
100
AcDbEntity
  8
0
100
AcDbLine
 62
7
  6
CONTINUOUS
 10
-4.953758814
 20
-0.1543001938
 11
-4.9645950646
 21
-0.1011751279
  0
LWPOLYLINE
  5
249
100
AcDbEntity
  8
SUPERFICI
100
AcDbPolyline
 62
7
  6
CONTINUOUS
 90
22
 70
0
 10
-4.9645950637
 20
-0.1011751336
 10
-4.9553841159
 20
-0.1469572344
 10
-4.94404082
 20
-0.1929359132
 10
-4.9305654373
 20
-0.2391113216
 10
-4.9148854571
 20
-0.2856888805
 10
-4.8970738665
 20
-0.332463446
 10
-4.8773492778
 20
-0.3788193846
 10
-4.8556884874
 20
-0.424740823
 10
-4.8321153719
 20
-0.4702440263
 10
-4.8069193381
 20
-0.5147616698
 10
-4.7800797681
 20
-0.5582807229
 10
-4.7516179997
 20
-0.600814636
 10
-4.7218864744
 20
-0.6418358639
 10
-4.6908634244
 20
-0.681329444
 10
-4.6585712767
 20
-0.7193107236
 10
-4.6254288015
 20
-0.7552976438
 10
-4.5914279661
 20
-0.7892576338
 10
-4.5565773046
 20
-0.821223557
 10
-4.5213204166
 20
-0.8508114941
 10
-4.4858052612
 20
-0.877893526
 10
-4.4498841467
 20
-0.902597728
 10
-4.4135571397
 20
-0.9249241389
  0
LINE
  5
24A
100
AcDbEntity
  8
0
100
AcDbLine
 62
253
  6
CONTINUOUS
 10
-5.736143236
 20
-0.8066000253
 11
-5.3608377458
 21
-0.5774062032
  0
LWPOLYLINE
  5
24B
100
AcDbEntity
  8
RACCORDO
100
AcDbPolyline
 62
253
  6
CONTINUOUS
 90
16
 70
0
 10
15.8134326529
 20
7.8237051602
 10
15.7747389768
 20
7.810885902
 10
15.7328076656
 20
7.8004219279
 10
15.6880831237
 20
7.7924241393
 10
15.6410393595
 20
7.7869772998
 10
15.5921749613
 20
7.7841391371
 10
15.5420078131
 20
7.7839397313
 10
15.4910696062
 20
7.7863811957
 10
15.4399002036
 20
7.7914376548
 10
15.3890419188
 20
7.7990555181
 10
15.3390337679
 20
7.8091540486
 10
15.2904057571
 20
7.8216262181
 10
15.2436732649
 20
7.8363398418
 10
15.1993315809
 20
7.8531389792
 10
15.1578506557
 20
7.8718455862
 10
15.1196701202
 20
7.8922614029
  0
LINE
  5
24C
100
AcDbEntity
  8
0
100
AcDbLine
 62
7
  6
CONTINUOUS
 10
3.1009654968
 20
-5.2619700209
 11
3.0588993701
 21
-5.2394268758
  0
LWPOLYLINE
  5
24D
100
AcDbEntity
  8
0
100
AcDbPolyline
 62
7
  6
CONTINUOUS
 90
7
 70
0
 10
3.4738043899
 20
-6.1279790517
 10
3.5131405126
 20
-6.149169032
 10
3.5520809407
 20
-6.1669853378
 10
3.5906257689
 20
-6.1814279134
 10
3.6290680002
 20
-6.1925673516
 10
3.6671150194
 20
-6.2003328327
 10
3.6884782049
 20
-6.2027607564
  0
LWPOLYLINE
  5
24E
100
AcDbEntity
  8
SUPERFICI
100
AcDbPolyline
 62
7
  6
CONTINUOUS
 90
12
 70
0
 10
3.058899376
 20
-5.2394268792
 10
3.0952042717
 20
-5.2590408664
 10
3.1310854764
 20
-5.2757947065
 10
3.1665430572
 20
-5.2896883604
 10
3.2017314351
 20
-5.3007651534
 10
3.2364964571
 20
-5.3089816037
 10
3.2703753838
 20
-5.3142074289
 10
3.3033478727
 20
-5.3163974778
 10
3.3354347665
 20
-5.3155966097
 10
3.3662351234
 20
-5.3118095472
 10
3.395732
 20
-5.3049968374
 10
3.4164105328
 20
-5.2981540277
  0
LINE
  5
24F
100
AcDbEntity
  8
0
100
AcDbLine
 62
7
  6
CONTINUOUS
 10
3.1430080569
 20
-6.3807022426
 11
-5.1970950736
 21
-1.5652312211
  0
LINE
  5
250
100
AcDbEntity
  8
0
100
AcDbLine
 62
7
  6
CONTINUOUS
 10
3.4738043899
 20
-6.1279790517
 11
-4.8212141405
 21
-1.3385393132
  0
LINE
  5
251
100
AcDbEntity
  8
SUPERFICI
100
AcDbLine
 62
7
  6
CONTINUOUS
 10
3.0588993701
 20
-5.2394268758
 11
-4.4135571236
 21
-0.9249241482
  0
LINE
  5
252
100
AcDbEntity
  8
0
100
AcDbLine
 62
7
  6
CONTINUOUS
 10
3.0588993701
 20
-5.2394268758
 11
-4.4135571236
 21
-0.9249241482
  0
LWPOLYLINE
  5
253
100
AcDbEntity
  8
0
100
AcDbPolyline
 62
7
  6
CONTINUOUS
 90
18
 70
0
 10
-4.4135571236
 20
-0.9249241482
 10
-4.4556215931
 20
-0.8989009978
 10
-4.4972318153
 20
-0.8695394144
 10
-4.5383876664
 20
-0.8368393257
 10
-4.5794462614
 20
-0.8004642614
 10
-4.6200499782
 20
-0.7607503957
 10
-4.6591265024
 20
-0.7187065736
 10
-4.6964635088
 20
-0.6744542488
 10
-4.7322724502
 20
-0.6278714586
 10
-4.7661166856
 20
-0.5796019274
 10
-4.7979898376
 20
-0.5296454405
 10
-4.8278971888
 20
-0.4780015742
 10
-4.8554196658
 20
-0.4253137849
 10
-4.8806028059
 20
-0.3713282041
 10
-4.9033998484
 20
-0.3162979874
 10
-4.9232535953
 20
-0.2616273161
 10
-4.9399781939
 20
-0.2077841808
 10
-4.953758814
 20
-0.1543001938
  0
LINE
  5
254
100
AcDbEntity
  8
0
100
AcDbLine
 62
253
  6
CONTINUOUS
 10
-5.1970950736
 20
-1.5652312211
 11
-4.8212141405
 21
-1.3385393132
  0
LINE
  5
255
100
AcDbEntity
  8
0
100
AcDbLine
 62
253
  6
CONTINUOUS
 10
16.5009575643
 20
9.3737140911
 11
15.8092426013
 21
8.9743285105
  0
LWPOLYLINE
  5
256
100
AcDbEntity
  8
RACCORDO
100
AcDbPolyline
 62
253
  6
CONTINUOUS
 90
19
 70
0
 10
15.8092426013
 20
8.9743285105
 10
15.7538543473
 20
8.9390785707
 10
15.6989206463
 20
8.8992008736
 10
15.6447669008
 20
8.8549375021
 10
15.5917094266
 20
8.8065585633
 10
15.5400669258
 20
8.7543551608
 10
15.49015845
 20
8.6986379934
 10
15.4422809292
 20
8.6397454537
 10
15.3967158566
 20
8.5780323022
 10
15.3537412711
 20
8.513861945
 10
15.3136122263
 20
8.4476208485
 10
15.2765657022
 20
8.3797086099
 10
15.2428282308
 20
8.3105261118
 10
15.2126001235
 20
8.2404873525
 10
15.1860609484
 20
8.1700162176
 10
15.1633751585
 20
8.0995357943
 10
15.1446794115
 20
8.0294697045
 10
15.1300822118
 20
7.9602395387
 10
15.1196700942
 20
7.8922613924
  0
LWPOLYLINE
  5
257
100
AcDbEntity
  8
RACCORDO
100
AcDbPolyline
 62
253
  6
CONTINUOUS
 90
19
 70
0
 10
16.162674838
 20
8.3621659201
 10
16.1345324854
 20
8.34467127
 10
16.1068886565
 20
8.3250814463
 10
16.0797433511
 20
8.303396449
 10
16.0529226348
 20
8.2794521851
 10
16.0266004421
 20
8.2534127476
 10
16.0012985765
 20
8.2257704156
 10
15.9770519166
 20
8.1965065992
 10
15.9538255838
 20
8.1656398883
 10
15.9320367464
 20
8.1337183324
 10
15.9117092717
 20
8.1007169841
 10
15.8928192924
 20
8.0666607909
 10
15.8757123746
 20
8.032172645
 10
15.8604212491
 20
7.9972273399
 10
15.8469131852
 20
7.9618500822
 10
15.8354355562
 20
7.9267393842
 10
15.8260708201
 20
7.8921280832
 10
15.818736519
 20
7.8577833419
 10
15.8134326529
 20
7.8237051602
  0
LINE
  5
258
100
AcDbEntity
  8
0
100
AcDbLine
 62
253
  6
CONTINUOUS
 10
16.854389801
 20
8.7615515008
 11
16.162674838
 21
8.3621659201
  0
LWPOLYLINE
  5
259
100
AcDbEntity
  8
SUPERFICI
100
AcDbPolyline
 62
7
  6
CONTINUOUS
 90
13
 70
0
 10
-4.4498751837
 20
3.6669157949
 10
-4.4857950329
 20
3.6836473222
 10
-4.5213166102
 20
3.6975040252
 10
-4.5565945575
 20
3.7085291021
 10
-4.5914739648
 20
3.7166795077
 10
-4.6254903823
 20
3.7218259475
 10
-4.6586233242
 20
3.7239233528
 10
-4.6908927764
 20
3.7230170778
 10
-4.7218949772
 20
3.7191134731
 10
-4.7516126303
 20
3.7121732898
 10
-4.7800623735
 20
3.7022361531
 10
-4.8068913823
 20
3.6894267053
 10
-4.8320778083
 20
3.6737079203
  0
LINE
  5
25A
100
AcDbEntity
  8
SUPERFICI
100
AcDbLine
 62
7
  6
CONTINUOUS
 10
-4.4135571295
 20
3.6473094053
 11
-4.4498751837
 21
3.6669157949
  0
LINE
  5
25B
100
AcDbEntity
  8
SUPERFICI
100
AcDbLine
 62
7
  6
CONTINUOUS
 10
3.0588993701
 20
-0.6671933257
 11
-4.4135571236
 21
3.6473094018
  0
LINE
  5
25C
100
AcDbEntity
  8
0
100
AcDbLine
 62
7
  6
CONTINUOUS
 10
3.0588993701
 20
-0.6671933257
 11
-4.4135571236
 21
3.6473094018
  0
LINE
  5
25D
100
AcDbEntity
  8
0
100
AcDbLine
 62
7
  6
CONTINUOUS
 10
3.1430082278
 20
-0.4307278448
 11
-5.1970949027
 21
4.3847431767
  0
LWPOLYLINE
  5
25E
100
AcDbEntity
  8
0
100
AcDbPolyline
 62
7
  6
CONTINUOUS
 90
19
 70
0
 10
3.1430082278
 20
-0.4307278448
 10
3.1822543888
 20
-0.4549316887
 10
3.2210942597
 20
-0.4820682524
 10
3.2595279339
 20
-0.5121374826
 10
3.29783831
 20
-0.545399103
 10
3.3357428711
 20
-0.5815931727
 10
3.3723936568
 20
-0.6199401025
 10
3.407632012
 20
-0.6603508342
 10
3.4416172644
 20
-0.7029140431
 10
3.4739784371
 20
-0.7471167349
 10
3.5047130859
 20
-0.7929647338
 10
3.5338245236
 20
-0.8404517207
 10
3.5609503661
 20
-0.8890465099
 10
3.5861369907
 20
-0.938957422
 10
3.6093390139
 20
-0.9899755698
 10
3.630056193
 20
-1.0409440797
 10
3.6481219187
 20
-1.091477248
 10
3.6637034425
 20
-1.1419604118
 10
3.6768011263
 20
-1.1923933641
  0
LWPOLYLINE
  5
25F
100
AcDbEntity
  8
0
100
AcDbPolyline
 62
7
  6
CONTINUOUS
 90
19
 70
0
 10
3.0588993701
 20
-0.6671933257
 10
3.1009468984
 20
-0.6932262577
 10
3.1425051157
 20
-0.7226178681
 10
3.1835741458
 20
-0.7553680862
 10
3.2245102646
 20
-0.7918138667
 10
3.2649577035
 20
-0.8316179653
 10
3.3038486034
 20
-0.8737689645
 10
3.3409714388
 20
-0.918144949
 10
3.3765386076
 20
-0.9648673356
 10
3.4101181299
 20
-1.0132897089
 10
3.4417046416
 20
-1.0634116983
 10
3.4713046015
 20
-1.1152330485
 10
3.4985036865
 20
-1.1681075603
 10
3.5233466414
 20
-1.2222895598
 10
3.5457899448
 20
-1.2775240209
 10
3.5652865519
 20
-1.3324009003
 10
3.5816542344
 20
-1.3864501145
 10
3.5950759034
 20
-1.4401413553
 10
3.60555195
 20
-1.4934743986
  0
LWPOLYLINE
  5
260
100
AcDbEntity
  8
SUPERFICI
100
AcDbPolyline
 62
7
  6
CONTINUOUS
 90
3
 70
0
 10
3.1310956664
 20
-0.7142538804
 10
3.095213199
 20
-0.6895273641
 10
3.0588993862
 20
-0.667193335
  0
LWPOLYLINE
  5
261
100
AcDbEntity
  8
SUPERFICI
100
AcDbPolyline
 62
7
  6
CONTINUOUS
 90
21
 70
0
 10
3.6562460887
 20
-4.7872240692
 10
3.6781614654
 20
-4.6533548241
 10
3.6977960919
 20
-4.517605579
 10
3.7151439595
 20
-4.3800251251
 10
3.7301859826
 20
-4.2407604146
 10
3.7429194393
 20
-4.099812658
 10
3.7533476163
 20
-3.9571803564
 10
3.7614601507
 20
-3.8130065656
 10
3.767254799
 20
-3.6672895036
 10
3.7707340903
 20
-3.5200308271
 10
3.7718945347
 20
-3.3713789152
 10
3.7707336961
 20
-3.2213325888
 10
3.7672540099
 20
-3.0698930674
 10
3.7614590074
 20
-2.9172124926
 10
3.7533461768
 20
-2.7632897834
 10
3.7429177443
 20
-2.6081262253
 10
3.7301840648
 20
-2.4518776727
 10
3.7151417522
 20
-2.2945388428
 10
3.6977936281
 20
-2.1361153824
 10
3.6781590668
 20
-1.9767797082
 10
3.6562441715
 20
-1.816589509
  0
LWPOLYLINE
  5
262
100
AcDbEntity
  8
0
100
AcDbPolyline
 62
7
  6
CONTINUOUS
 90
13
 70
0
 10
3.60555195
 20
-5.0494706049
 10
3.6562626337
 20
-4.7871665128
 10
3.6977749612
 20
-4.5179140791
 10
3.730091614
 20
-4.2417118984
 10
3.753248677
 20
-3.9581016833
 10
3.7672160723
 20
-3.6675385514
 10
3.7718945347
 20
-3.3713927749
 10
3.7672160722
 20
-3.0696252568
 10
3.7532486768
 20
-2.7622754155
 10
3.7300916138
 20
-2.45083444
 10
3.697774961
 20
-2.1358012298
 10
3.6562626336
 20
-1.8166806522
 10
3.60555195
 20
-1.4934743986
  0
LWPOLYLINE
  5
263
100
AcDbEntity
  8
SUPERFICI
100
AcDbPolyline
 62
7
  6
CONTINUOUS
 90
3
 70
0
 10
3.6055519498
 20
-5.0494706063
 10
3.6320430596
 20
-4.9192625865
 10
3.6561470276
 20
-4.7877644928
  0
LWPOLYLINE
  5
264
100
AcDbEntity
  8
SUPERFICI
100
AcDbPolyline
 62
7
  6
CONTINUOUS
 90
19
 70
0
 10
3.596651426
 20
-1.4475130567
 10
3.5856173975
 20
-1.4013558108
 10
3.5724496025
 20
-1.3550028051
 10
3.5570763694
 20
-1.3082481343
 10
3.5395688932
 20
-1.2612979769
 10
3.5201411087
 20
-1.2147706673
 10
3.4987688701
 20
-1.1686826227
 10
3.4754756501
 20
-1.1230178113
 10
3.4505466363
 20
-1.0783459938
 10
3.4239602394
 20
-1.0346807617
 10
3.3957373287
 20
-0.9920089351
 10
3.3662266799
 20
-0.950860176
 10
3.3354055727
 20
-0.9112499966
 10
3.3032960679
 20
-0.8731632613
 10
3.2703140763
 20
-0.8370836798
 10
3.2364506652
 20
-0.8030443428
 10
3.2017142658
 20
-0.7710124461
 10
3.1665468552
 20
-0.7413728458
 10
3.1310956664
 20
-0.7142538804
  0
LWPOLYLINE
  5
265
100
AcDbEntity
  8
0
100
AcDbPolyline
 62
7
  6
CONTINUOUS
 90
16
 70
0
 10
3.6768011263
 20
-1.1923933641
 10
3.7606249594
 20
-1.5711915777
 10
3.8325454299
 20
-1.945547887
 10
3.892568191
 20
-2.3154588423
 10
3.9407661147
 20
-2.6815231656
 10
3.9770785818
 20
-3.0431346601
 10
4.0013074361
 20
-3.3984845347
 10
4.0133861604
 20
-3.7476344557
 10
4.01338575
 20
-4.0905197004
 10
4.001306339
 20
-4.4251464847
 10
3.9770769533
 20
-4.7513733852
 10
3.9407640842
 20
-5.0693439428
 10
3.8925660868
 20
-5.3774964425
 10
3.8325436463
 20
-5.6753133204
 10
3.7606238229
 20
-5.9633188157
 10
3.6768009627
 20
-6.2415160076
  0
LINE
  5
266
100
AcDbEntity
  8
SUPERFICI
100
AcDbLine
 62
7
  6
CONTINUOUS
 10
3.6055519491
 20
-1.4934743928
 11
3.596651426
 21
-1.4475130567
  0
LWPOLYLINE
  5
267
100
AcDbEntity
  8
SUPERFICI
100
AcDbPolyline
 62
7
  6
CONTINUOUS
 90
3
 70
0
 10
3.6562441715
 20
-1.816589509
 10
3.6320419421
 20
-1.6554876488
 10
3.6055519491
 20
-1.4934743928
  0
LWPOLYLINE
  5
268
100
AcDbEntity
  8
0
100
AcDbPolyline
 62
7
  6
CONTINUOUS
 90
6
 70
0
 10
3.60555195
 20
-5.0494706049
 10
3.5950879244
 20
-5.0902788207
 10
3.5816667292
 20
-5.1280556568
 10
3.5652879784
 20
-5.1628013376
 10
3.5457641145
 20
-5.19477959
 10
3.5232820233
 20
-5.2237270775
  0
LWPOLYLINE
  5
269
100
AcDbEntity
  8
SUPERFICI
100
AcDbPolyline
 62
7
  6
CONTINUOUS
 90
3
 70
0
 10
3.5855786476
 20
-5.1179400159
 10
3.5966293078
 20
-5.0848470323
 10
3.6055519498
 20
-5.0494706063
  0
LWPOLYLINE
  5
26A
100
AcDbEntity
  8
0
100
AcDbPolyline
 62
7
  6
CONTINUOUS
 90
7
 70
0
 10
3.6768009627
 20
-6.2415160076
 10
3.6636891196
 20
-6.2763060311
 10
3.6481048549
 20
-6.3082772986
 10
3.6300478024
 20
-6.3374300238
 10
3.6093554229
 20
-6.3639468361
 10
3.586189604
 20
-6.3876454864
 10
3.5686870861
 20
-6.4023225081
  0
LWPOLYLINE
  5
26B
100
AcDbEntity
  8
SUPERFICI
100
AcDbPolyline
 62
7
  6
CONTINUOUS
 90
5
 70
0
 10
3.5200905999
 20
-5.2274805632
 10
3.5395150282
 20
-5.2037519524
 10
3.5570217516
 20
-5.1773923342
 10
3.5723997028
 20
-5.1487497119
 10
3.5855786476
 20
-5.1179400159
  0
LWPOLYLINE
  5
26C
100
AcDbEntity
  8
0
100
AcDbPolyline
 62
7
  6
CONTINUOUS
 90
5
 70
0
 10
3.5232820233
 20
-5.2237270775
 10
3.498402701
 20
-5.2488535937
 10
3.4711708135
 20
-5.2699473658
 10
3.4415404614
 20
-5.2872208853
 10
3.4164216346
 20
-5.2981757803
  0
LWPOLYLINE
  5
26D
100
AcDbEntity
  8
SUPERFICI
100
AcDbPolyline
 62
7
  6
CONTINUOUS
 90
6
 70
0
 10
3.4164105328
 20
-5.2981540277
 10
3.4239429984
 20
-5.2951975489
 10
3.4505189601
 20
-5.2825342074
 10
3.475438511
 20
-5.2669695127
 10
3.4987237439
 20
-5.248540346
 10
3.5200905999
 20
-5.2274805632
  0
LINE
  5
26E
100
AcDbEntity
  8
0
100
AcDbLine
 62
7
  6
CONTINUOUS
 10
3.4164216346
 20
-5.2981757803
 11
3.4099364627
 21
-5.3005205352
  0
LINE
  5
26F
100
AcDbEntity
  8
RACCORDO
100
AcDbLine
 62
253
  6
CONTINUOUS
 10
14.3985959826
 20
-2.0852237568
 11
-16.3438148424
 21
15.6650589606
  0
LINE
  5
270
100
AcDbEntity
  8
0
100
AcDbLine
 62
253
  6
CONTINUOUS
 10
3.1430080569
 20
-6.3807022426
 11
3.4738043899
 21
-6.1279790517
  0
LWPOLYLINE
  5
271
100
AcDbEntity
  8
0
100
AcDbPolyline
 62
7
  6
CONTINUOUS
 90
14
 70
0
 10
3.5686870861
 20
-6.4023225081
 10
3.5610364412
 20
-6.4079789758
 10
3.5339395862
 20
-6.4248034611
 10
3.504854401
 20
-6.4382633623
 10
3.4741343335
 20
-6.4482441992
 10
3.4417728272
 20
-6.4547378609
 10
3.4077755735
 20
-6.4577529648
 10
3.3725143474
 20
-6.457200149
 10
3.3358210837
 20
-6.4529788608
 10
3.2978631738
 20
-6.4451900475
 10
3.2595155851
 20
-6.4340465935
 10
3.2210698357
 20
-6.4196195411
 10
3.1822340242
 20
-6.4018380725
 10
3.1430080569
 20
-6.3807022426
  0
LWPOLYLINE
  5
272
100
AcDbEntity
  8
RACCORDO
100
AcDbPolyline
 62
253
  6
CONTINUOUS
 90
16
 70
0
 10
15.0962628389
 20
-2.0982908133
 10
15.0571647427
 20
-2.1168076159
 10
15.0148345062
 20
-2.1329096529
 10
14.9697205942
 20
-2.1464263323
 10
14.9223009628
 20
-2.1572144526
 10
14.8730779961
 20
-2.1651597199
 10
14.8225731833
 20
-2.1701779585
 10
14.7713215942
 20
-2.1722160031
 10
14.7198662102
 20
-2.1712522617
 10
14.6687521718
 20
-2.1672969447
 10
14.618521003
 20
-2.1603919563
 10
14.5697048746
 20
-2.150610451
 10
14.5228209657
 20
-2.1380560582
 10
14.4783659844
 20
-2.1228617847
 10
14.4368109061
 20
-2.105188605
 10
14.3985959831
 20
-2.0852237565
  0
LWPOLYLINE
  5
273
100
AcDbEntity
  8
RACCORDO
100
AcDbPolyline
 62
253
  6
CONTINUOUS
 90
19
 70
0
 10
15.8134326529
 20
-26.7318053865
 10
15.8187365142
 20
-26.7600635647
 10
15.8260673464
 20
-26.7863625173
 10
15.8354251498
 20
-26.8107022443
 10
15.8468919712
 20
-26.8332234926
 10
15.8603857638
 20
-26.8537855154
 10
15.8756603859
 20
-26.8719660717
 10
15.8927448153
 20
-26.8877057687
 10
15.9116100743
 20
-26.9010639992
 10
15.9319230884
 20
-26.9117967014
 10
15.9537144494
 20
-26.9198557769
 10
15.9769535655
 20
-26.925289324
 10
16.0012155863
 20
-26.9279975759
 10
16.0265346052
 20
-26.9279200151
 10
16.0528765288
 20
-26.9251171591
 10
16.079714227
 20
-26.9196707928
 10
16.1068719895
 20
-26.9116081779
 10
16.1345255265
 20
-26.9009020528
 10
16.162674838
 20
-26.8875524175
  0
LWPOLYLINE
  5
274
100
AcDbEntity
  8
RACCORDO
100
AcDbPolyline
 62
253
  6
CONTINUOUS
 90
10
 70
0
 10
15.1196700942
 20
-26.7852318561
 10
15.1300822829
 20
-26.8415028522
 10
15.1446794932
 20
-26.8943112286
 10
15.1633751163
 20
-26.9433408851
 10
15.1860605181
 20
-26.9883001441
 10
15.2125990111
 20
-27.0289187717
 10
15.2428263364
 20
-27.0649499828
 10
15.2765630052
 20
-27.0961792514
 10
15.3136087451
 20
-27.122421772
 10
15.3212510261
 20
-27.1269739114
  0
LWPOLYLINE
  5
275
100
AcDbEntity
  8
RACCORDO
100
AcDbPolyline
 62
253
  6
CONTINUOUS
 90
10
 70
0
 10
14.3985959826
 20
-17.5981590159
 10
14.4235605727
 20
-18.653369319
 10
14.4623427774
 20
-19.7004842604
 10
14.5149346066
 20
-20.7392822361
 10
14.5813256464
 20
-21.7695436363
 10
14.6615017816
 20
-22.7910503213
 10
14.7554452056
 20
-23.8035856627
 10
14.8631361277
 20
-24.8069353515
 10
14.9845527694
 20
-25.8008874486
 10
15.1196700942
 20
-26.7852318561
  0
LWPOLYLINE
  5
276
100
AcDbEntity
  8
RACCORDO
100
AcDbPolyline
 62
253
  6
CONTINUOUS
 90
10
 70
0
 10
15.0962628389
 20
-17.5957131371
 10
15.1211089679
 20
-18.6454068871
 10
15.1596778549
 20
-19.6866226197
 10
15.2119694998
 20
-20.7193603349
 10
15.2780011112
 20
-21.743840139
 10
15.3577554805
 20
-22.7598419257
 10
15.4511809819
 20
-23.7667053757
 10
15.5582604068
 20
-24.7642103827
 10
15.6790109638
 20
-25.7525770529
 10
15.8134326529
 20
-26.7318053865
  0
LWPOLYLINE
  5
277
100
AcDbEntity
  8
RACCORDO
100
AcDbPolyline
 62
253
  6
CONTINUOUS
 90
10
 70
0
 10
14.3985959826
 20
-2.0852237568
 10
14.3727222726
 20
-3.8229870669
 10
14.3533172037
 20
-5.5572784743
 10
14.3403807291
 20
-7.2880672674
 10
14.3339127327
 20
-9.0152993956
 10
14.3339127293
 20
-10.7389677876
 10
14.3403807199
 20
-12.4591118578
 10
14.3533171919
 20
-14.1757239733
 10
14.3727222632
 20
-15.8887499482
 10
14.3985959826
 20
-17.5981590159
  0
LWPOLYLINE
  5
278
100
AcDbEntity
  8
RACCORDO
100
AcDbPolyline
 62
253
  6
CONTINUOUS
 90
10
 70
0
 10
15.0962628389
 20
-2.0982908133
 10
15.0704146162
 20
-3.8343651857
 10
15.0510284476
 20
-5.5669107652
 10
15.0381043329
 20
-7.2959275519
 10
15.0316422699
 20
-9.0214233416
 10
15.031642261
 20
-10.7433903383
 10
15.0381043127
 20
-12.461805155
 10
15.0510284274
 20
-14.1766599958
 10
15.0704146028
 20
-15.8879626565
 10
15.0962628389
 20
-17.5957131371
  0
LWPOLYLINE
  5
279
100
AcDbEntity
  8
RACCORDO
100
AcDbPolyline
 62
253
  6
CONTINUOUS
 90
10
 70
0
 10
15.1196700942
 20
7.8922613924
 10
14.9845527684
 20
6.7598089972
 10
14.8631361262
 20
5.6327643906
 10
14.755445204
 20
4.5113665821
 10
14.6615017804
 20
3.3958536537
 10
14.581325646
 20
2.2864617745
 10
14.5149346067
 20
1.1834251544
 10
14.4623427777
 20
0.0869772395
 10
14.423560573
 20
-1.002649341
 10
14.3985959826
 20
-2.0852237568
  0
LWPOLYLINE
  5
27A
100
AcDbEntity
  8
RACCORDO
100
AcDbPolyline
 62
253
  6
CONTINUOUS
 90
10
 70
0
 10
15.8134326529
 20
7.8237051602
 10
15.6790120643
 20
6.6971833815
 10
15.5582622591
 20
5.5765017918
 10
15.4511832372
 20
4.4616603909
 10
15.357757692
 20
3.3524201701
 10
15.2780029301
 20
2.2490201381
 10
15.2119708719
 20
1.1521773212
 10
15.159678824
 20
0.062130728
 10
15.1211094796
 20
-1.0213586501
 10
15.0962628389
 20
-2.0982908133
  0
LINE
  5
27B
100
AcDbEntity
  8
RACCORDO
100
AcDbLine
 62
253
  6
CONTINUOUS
 10
15.1196700942
 20
7.8922613924
 11
-15.659341803
 21
25.6636771103
  0
LWPOLYLINE
  5
27C
100
AcDbEntity
  8
RACCORDO
100
AcDbPolyline
 62
253
  6
CONTINUOUS
 90
16
 70
0
 10
16.162674838
 20
8.3621659201
 10
16.1597995417
 20
8.4054066677
 10
16.1531882852
 20
8.4504665169
 10
16.1429133918
 20
8.4968522531
 10
16.1290872884
 20
8.5440561424
 10
16.1118612791
 20
8.5915614767
 10
16.0914238933
 20
8.638848229
 10
16.0679988112
 20
8.6853987735
 10
16.0418424286
 20
8.7307035219
 10
16.0132410608
 20
8.7742664924
 10
15.9825077758
 20
8.8156107966
 10
15.9499789904
 20
8.8542838169
 10
15.9160108116
 20
8.8898621438
 10
15.8809750904
 20
8.9219562714
 10
15.8452553469
 20
8.9502148523
 10
15.8092426037
 20
8.9743285119
  0
LINE
  5
27D
100
AcDbEntity
  8
0
100
AcDbLine
 62
7
  6
CONTINUOUS
 10
16.854389801
 20
8.7615515008
 11
16.854389801
 21
-26.5289287307
  0
LINE
  5
27E
100
AcDbEntity
  8
RACCORDO
100
AcDbLine
 62
253
  6
CONTINUOUS
 10
15.8092426013
 20
8.9743285105
 11
-14.9875930221
 21
26.7560354244
  0
LINE
  5
27F
100
AcDbEntity
  8
0
100
AcDbLine
 62
7
  6
CONTINUOUS
 10
16.5009575643
 20
9.3737140911
 11
-14.331180032
 21
27.1758039218
  0
LWPOLYLINE
  5
280
100
AcDbEntity
  8
RACCORDO
100
AcDbPolyline
 62
253
  6
CONTINUOUS
 90
9
 70
0
 10
16.162674838
 20
-26.8875524175
 10
16.1597994151
 20
-26.9295886124
 10
16.1531878765
 20
-26.9688722997
 10
16.1429125962
 20
-27.0049734541
 10
16.1290860544
 20
-27.0374968886
 10
16.1118596055
 20
-27.0660865801
 10
16.0914218217
 20
-27.0904295669
 10
16.0679964283
 20
-27.1102593747
 10
16.0486342183
 20
-27.12203001
  0
LWPOLYLINE
  5
281
100
AcDbEntity
  8
RACCORDO
100
AcDbPolyline
 62
253
  6
CONTINUOUS
 90
16
 70
0
 10
15.0962628389
 20
-17.5957131371
 10
15.0571647421
 20
-17.6158251024
 10
15.0148345056
 20
-17.6335054024
 10
14.9697205942
 20
-17.6485667242
 10
14.9223009638
 20
-17.6608495018
 10
14.8730779986
 20
-17.6702236061
 10
14.8225731877
 20
-17.6765897239
 10
14.7713216008
 20
-17.6798804098
 10
14.7198662191
 20
-17.6800608008
 10
14.6687521833
 20
-17.6771289858
 10
14.6185210171
 20
-17.6711160257
 10
14.5697048914
 20
-17.6620856243
 10
14.5228209849
 20
-17.6501334537
 10
14.4783660061
 20
-17.6353861403
 10
14.43681093
 20
-17.6179999234
 10
14.3985960089
 20
-17.5981590001
  0
LWPOLYLINE
  5
282
100
AcDbEntity
  8
RACCORDO
100
AcDbPolyline
 62
253
  6
CONTINUOUS
 90
16
 70
0
 10
15.8134326527
 20
-26.7318053864
 10
15.7747395
 20
-26.7571685465
 10
15.7328089209
 20
-26.7800434871
 10
15.6880852973
 20
-26.8001877788
 10
15.6410426116
 20
-26.8173879317
 10
15.5921794237
 20
-26.8314616581
 10
15.5420135873
 20
-26.8422598042
 10
15.4910767618
 20
-26.8496679308
 10
15.4399087771
 20
-26.8536075263
 10
15.3890519134
 20
-26.8540368389
 10
15.3390451533
 20
-26.8509513185
 10
15.2904184702
 20
-26.8443836657
 10
15.2436872113
 20
-26.8344034847
 10
15.1993466362
 20
-26.8211165459
 10
15.1578666675
 20
-26.8046636646
 10
15.1196869116
 20
-26.7852192091
  0
LINE
  5
283
100
AcDbEntity
  8
0
100
AcDbLine
 62
253
  6
CONTINUOUS
 10
16.162674838
 20
-26.8875524175
 11
16.854389801
 21
-26.5289287307
  0
LINE
  5
284
100
AcDbEntity
  8
RACCORDO
100
AcDbLine
 62
7
  6
CONTINUOUS
 10
16.0486342183
 20
-27.12203001
 11
16.7441133765
 21
-26.7614547541
  0
ELLIPSE
  5
285
100
AcDbEntity
  8
0
100
AcDbEllipse
 62
7
  6
CONTINUOUS
 10
-14.3309376826
 20
26.7672889139
 30
0.0
 11
-0.2501834304
 21
0.4333025529
 31
0.0
 40
0.5769361983
 41
-0.7851038024
 42
0.0263715828
  0
ELLIPSE
  5
286
100
AcDbEntity
  8
0
100
AcDbEllipse
 62
7
  6
CONTINUOUS
 10
16.5007152149
 20
-26.3244416253
 30
0.0
 11
-0.2501834304
 21
0.4333025529
 31
0.0
 40
0.5769361983
 41
-3.1679635486
 42
-2.3565853618
  0
ELLIPSE
  5
287
100
AcDbEntity
  8
0
100
AcDbEllipse
 62
7
  6
CONTINUOUS
 10
16.5007152149
 20
8.9654789423
 30
0.0
 11
-0.2500121049
 21
0.4330057129
 31
0.0
 40
0.5777274115
 41
-2.3559002616
 42
-0.7857891675
  0
ENDSEC
  0
SECTION
  2
OBJECTS
  0
DICTIONARY
  5
C
100
AcDbDictionary
280
0
281
1
  3
ACAD_GROUP
350
D
  3
ACAD_MLINESTYLE
350
17
  3
ACAD_LAYOUT
350
1A
  3
ACAD_PLOTSETTINGS
350
19
  3
ACAD_PLOTSTYLENAME
350
E
  0
DICTIONARY
  5
D
102
{ACAD_REACTORS
330
C
102
}
100
AcDbDictionary
280
0
281
1
  0
ACDBDICTIONARYWDFLT
  5
E
102
{ACAD_REACTORS
330
C
102
}
100
AcDbDictionary
281
1
  3
Normal
350
F
100
AcDbDictionaryWithDefault
340
F
  0
DICTIONARY
  5
17
102
{ACAD_REACTORS
330
C
102
}
100
AcDbDictionary
280
0
281
1
  3
Standard
350
18
  0
DICTIONARY
  5
19
102
{ACAD_REACTORS
330
C
102
}
100
AcDbDictionary
281
1
  0
DICTIONARY
  5
1A
102
{ACAD_REACTORS
330
C
102
}
100
AcDbDictionary
281
1
  3
Model
350
288
  3
Layout1
350
289
  0
ACDBPLACEHOLDER
  5
F
102
{ACAD_REACTORS
330
E
102
}
  0
MLINESTYLE
  5
18
102
{ACAD_REACTORS
330
17
102
}
100
AcDbMlineStyle
  2
STANDARD
 70
0
  3

 62
256
 51
90.0
 52
90.0
 71
2
 49
0.5
 62
256
  6
BYLAYER
 49
-0.5
 62
256
  6
BYLAYER
  0
LAYOUT
  5
288
102
{ACAD_REACTORS
330
1A
102
}
100
AcDbPlotSettings
  1

  2
none_device
  4
ISO_A4_(297.00_x_210.00_MM)
  6

 40
0.0
 41
0.0
 42
0.0
 43
0.0
 44
297.0
 45
210.0
 46
0.0
 47
0.0
 48
0.0
 49
0.0
140
0.0
141
0.0
142
1.0
143
1.0
 70
1024
 72
1
 73
0
 74
0
  7

 75
0
147
1.0
148
0.0
149
0.0
100
AcDbLayout
  1
Model
 70
0
 71
0
 10
0.0
 20
0.0
 11
297.0
 21
210.0
 12
0.0
 22
0.0
 32
0.0
 14
0.0
 24
0.0
 34
0.0
 15
0.0
 25
0.0
 35
0.0
146
0.0
 13
0.0
 23
0.0
 33
0.0
 16
1.0
 26
0.0
 36
0.0
 17
0.0
 27
1.0
 37
0.0
 76
0
330
216
345
0
346
0
  0
LAYOUT
  5
289
102
{ACAD_REACTORS
330
1A
102
}
100
AcDbPlotSettings
  1

  2
none_device
  4
ISO_A4_(297.00_x_210.00_MM)
  6

 40
0.0
 41
0.0
 42
0.0
 43
0.0
 44
297.0
 45
210.0
 46
0.0
 47
0.0
 48
0.0
 49
0.0
140
0.0
141
0.0
142
1.0
143
1.0
 70
0
 72
1
 73
0
 74
0
  7

 75
0
147
1.0
148
0.0
149
0.0
100
AcDbLayout
  1
Layout1
 70
0
 71
1
 10
0.0
 20
0.0
 11
297.0
 21
210.0
 12
0.0
 22
0.0
 32
0.0
 14
0.0
 24
0.0
 34
0.0
 15
0.0
 25
0.0
 35
0.0
146
0.0
 13
0.0
 23
0.0
 33
0.0
 16
1.0
 26
0.0
 36
0.0
 17
0.0
 27
1.0
 37
0.0
 76
0
330
217
345
0
346
0
  0
ENDSEC
  0
EOF
