  0
SECTION
  2
HEADER
  9
$ACADVER
  1
AC1015
  9
$DWGCODEPAGE
  3
ANSI_1252
  9
$EXTMAX
 10
297.0
 20
210.0
 30
0.0
  9
$EXTMIN
 10
0.0
 20
0.0
 30
0.0
  9
$LIMMIN
 10
0.0
 20
0.0
  9
$LIMMAX
 10
297.0
 20
210.0
  9
$VIEWCTR
 10
148.5
 20
105.0
  9
$VIEWSIZE
 40
210.0
  9
$CLAYER
  8
0
  9
$LTSCALE
 40
16.335
  9
$CELTYPE
  6
BYLAYER
  9
$DIMSCALE
 40
1.0
  9
$DIMASZ
 40
3.0
  9
$DIMEXO
 40
1.85625
  9
$DIMDLI
 40
11.286
  9
$DIMEXE
 40
5.346
  9
$DIMCEN
 40
2.673
  9
$DIMLFAC
 40
1.0
  9
$DIMBLK
  1
_FILLED
  9
$DIMTXT
 40
3.0
  9
$DIMTOL
 70
1
  9
$DIMLIM
 70
0
  9
$DIMTFAC
 40
1.0
  9
$DIMTP
 40
0.01
  9
$DIMTM
 40
0.01
  9
$PDMODE
 70
3
  9
$PDSIZE
 40
3.0
  9
$HANDSEED
  5
2D4
  9
$TILEMODE
 70
1
  9
$MEASUREMENT
 70
1
  9
$INSUNITS
 70
4
  0
ENDSEC
  0
SECTION
  2
CLASSES
  0
CLASS
  1
ACDBDICTIONARYWDFLT
  2
AcDbDictionaryWithDefault
  3
AutoCAD 2000
 90
0
280
0
281
0
  0
CLASS
  1
ACDBPLACEHOLDER
  2
AcDbPlaceHolder
  3
AutoCAD 2000
 90
0
280
0
281
0
  0
CLASS
  1
LAYOUT
  2
AcDbLayout
  3
AutoCAD 2000
 90
0
280
0
281
0
  0
ENDSEC
  0
SECTION
  2
TABLES
  0
TABLE
  2
VPORT
  5
8
100
AcDbSymbolTable
 70
2
  0
VPORT
  5
1F4
100
AcDbSymbolTableRecord
100
AcDbViewportTableRecord
  2
*ACTIVE
 70
0
 10
0.0
 20
0.0
 11
1.0
 21
1.0
 12
148.5
 22
105.0
 13
0.0
 23
0.0
 14
1.0
 24
1.0
 15
0.0
 25
0.0
 16
0.0
 26
0.0
 36
1.0
 17
0.0
 27
0.0
 37
0.0
 40
210.0
 41
1.4142857143
 42
50.0
 43
0.0
 44
0.0
 50
0.0
 51
0.0
 71
0
 72
100
 73
1
 74
1
 75
0
 76
0
 77
0
 78
0
  0
ENDTAB
  0
TABLE
  2
LTYPE
  5
5
100
AcDbSymbolTable
 70
6
  0
LTYPE
  5
14
100
AcDbSymbolTableRecord
100
AcDbLinetypeTableRecord
  2
BYBLOCK
 70
0
  3

 72
65
 73
0
 40
0.0
  0
LTYPE
  5
15
100
AcDbSymbolTableRecord
100
AcDbLinetypeTableRecord
  2
BYLAYER
 70
0
  3

 72
65
 73
0
 40
0.0
  0
LTYPE
  5
16
100
AcDbSymbolTableRecord
100
AcDbLinetypeTableRecord
  2
CONTINUOUS
 70
64
  3
Solid line
 72
65
 73
0
 40
0.0
  0
LTYPE
  5
1F5
100
AcDbSymbolTableRecord
100
AcDbLinetypeTableRecord
  2
CENTER
 70
64
  3
____ _ ____ _ ____ _ ____ _ ____ _ ____ _ ____
 72
65
 73
4
 40
0.6
 49
0.375
 74
0
 49
-0.075
 74
0
 49
0.075
 74
0
 49
-0.075
 74
0
  0
LTYPE
  5
1F6
100
AcDbSymbolTableRecord
100
AcDbLinetypeTableRecord
  2
HIDDEN
 70
64
  3
- - - - - - - - - - - - - - - - - - - -
 72
65
 73
2
 40
0.2
 49
0.1
 74
0
 49
-0.1
 74
0
  0
LTYPE
  5
1F7
100
AcDbSymbolTableRecord
100
AcDbLinetypeTableRecord
  2
PHANTOM
 70
64
  3
_____ _ _ _____ _ _ _____ _ _ _____
 72
65
 73
6
 40
0.8
 49
0.45
 74
0
 49
-0.05
 74
0
 49
0.1
 74
0
 49
-0.05
 74
0
 49
0.1
 74
0
 49
-0.05
 74
0
  0
LTYPE
  5
1F8
100
AcDbSymbolTableRecord
100
AcDbLinetypeTableRecord
  2
DOT
 70
64
  3
. . . . . . . . . . . . . . . . . . . .
 72
65
 73
2
 40
0.2
 49
0.1
 74
0
 49
-0.1
 74
0
  0
LTYPE
  5
1F9
100
AcDbSymbolTableRecord
100
AcDbLinetypeTableRecord
  2
DASHED
 70
64
  3
- - - - - - - - - - - - - - - - - - - -
 72
65
 73
2
 40
0.2
 49
0.1
 74
0
 49
-0.1
 74
0
  0
ENDTAB
  0
TABLE
  2
LAYER
  5
2
100
AcDbSymbolTable
 70
36
  0
LAYER
  5
10
100
AcDbSymbolTableRecord
100
AcDbLayerTableRecord
  2
0
 70
0
 62
7
  6
CONTINUOUS
370
-3
390
F
  0
LAYER
  5
1FA
100
AcDbSymbolTableRecord
100
AcDbLayerTableRecord
  2
DEFAULT_1
 70
0
 62
7
  6
CENTER
370
-3
390
F
  0
LAYER
  5
1FB
100
AcDbSymbolTableRecord
100
AcDbLayerTableRecord
  2
DEFAULT_2
 70
0
 62
7
  6
HIDDEN
370
-3
390
F
  0
LAYER
  5
1FC
100
AcDbSymbolTableRecord
100
AcDbLayerTableRecord
  2
DEFAULT_3
 70
0
 62
7
  6
PHANTOM
370
-3
390
F
  0
LAYER
  5
1FD
100
AcDbSymbolTableRecord
100
AcDbLayerTableRecord
  2
ASSI
 70
0
 62
7
  6
CONTINUOUS
370
-3
390
F
  0
LAYER
  5
1FE
100
AcDbSymbolTableRecord
100
AcDbLayerTableRecord
  2
COLOR9
 70
0
 62
7
  6
CONTINUOUS
370
-3
390
F
  0
LAYER
  5
1FF
100
AcDbSymbolTableRecord
100
AcDbLayerTableRecord
  2
COORDINATE
 70
0
 62
7
  6
CONTINUOUS
370
-3
390
F
  0
LAYER
  5
200
100
AcDbSymbolTableRecord
100
AcDbLayerTableRecord
  2
COORD_ORIGINE
 70
0
 62
7
  6
CONTINUOUS
370
-3
390
F
  0
LAYER
  5
201
100
AcDbSymbolTableRecord
100
AcDbLayerTableRecord
  2
COSMETICI
 70
0
 62
7
  6
CONTINUOUS
370
-3
390
F
  0
LAYER
  5
202
100
AcDbSymbolTableRecord
100
AcDbLayerTableRecord
  2
CURVE
 70
0
 62
7
  6
CONTINUOUS
370
-3
390
F
  0
LAYER
  5
203
100
AcDbSymbolTableRecord
100
AcDbLayerTableRecord
  2
DRAFT
 70
0
 62
7
  6
CONTINUOUS
370
-3
390
F
  0
LAYER
  5
204
100
AcDbSymbolTableRecord
100
AcDbLayerTableRecord
  2
IMPORT_IGES
 70
0
 62
7
  6
CONTINUOUS
370
-3
390
F
  0
LAYER
  5
205
100
AcDbSymbolTableRecord
100
AcDbLayerTableRecord
  2
INTF_1
 70
0
 62
7
  6
CONTINUOUS
370
-3
390
F
  0
LAYER
  5
206
100
AcDbSymbolTableRecord
100
AcDbLayerTableRecord
  2
INTF_8
 70
0
 62
7
  6
CONTINUOUS
370
-3
390
F
  0
LAYER
  5
207
100
AcDbSymbolTableRecord
100
AcDbLayerTableRecord
  2
INTF_YELLOW
 70
0
 62
7
  6
CONTINUOUS
370
-3
390
F
  0
LAYER
  5
208
100
AcDbSymbolTableRecord
100
AcDbLayerTableRecord
  2
NOTE
 70
0
 62
7
  6
CONTINUOUS
370
-3
390
F
  0
LAYER
  5
209
100
AcDbSymbolTableRecord
100
AcDbLayerTableRecord
  2
PIANI
 70
0
 62
7
  6
CONTINUOUS
370
-3
390
F
  0
LAYER
  5
20A
100
AcDbSymbolTableRecord
100
AcDbLayerTableRecord
  2
PIANI_ORIGINE
 70
0
 62
7
  6
CONTINUOUS
370
-3
390
F
  0
LAYER
  5
20B
100
AcDbSymbolTableRecord
100
AcDbLayerTableRecord
  2
PIANI_RIFERIMENTO
 70
0
 62
7
  6
CONTINUOUS
370
-3
390
F
  0
LAYER
  5
20C
100
AcDbSymbolTableRecord
100
AcDbLayerTableRecord
  2
PUNTI
 70
0
 62
7
  6
CONTINUOUS
370
-3
390
F
  0
LAYER
  5
20D
100
AcDbSymbolTableRecord
100
AcDbLayerTableRecord
  2
RACCORDO
 70
0
 62
7
  6
CONTINUOUS
370
-3
390
F
  0
LAYER
  5
20E
100
AcDbSymbolTableRecord
100
AcDbLayerTableRecord
  2
RGB__255__255__255__
 70
0
 62
7
  6
CONTINUOUS
370
-3
390
F
  0
LAYER
  5
20F
100
AcDbSymbolTableRecord
100
AcDbLayerTableRecord
  2
RGB____0____0____0__
 70
0
 62
7
  6
CONTINUOUS
370
-3
390
F
  0
LAYER
  5
210
100
AcDbSymbolTableRecord
100
AcDbLayerTableRecord
  2
SIMBOLI
 70
0
 62
7
  6
CONTINUOUS
370
-3
390
F
  0
LAYER
  5
211
100
AcDbSymbolTableRecord
100
AcDbLayerTableRecord
  2
SMUSSO
 70
0
 62
7
  6
CONTINUOUS
370
-3
390
F
  0
LAYER
  5
212
100
AcDbSymbolTableRecord
100
AcDbLayerTableRecord
  2
SNAPLINE
 70
0
 62
7
  6
CONTINUOUS
370
-3
390
F
  0
LAYER
  5
213
100
AcDbSymbolTableRecord
100
AcDbLayerTableRecord
  2
SUPERFICI
 70
0
 62
7
  6
CONTINUOUS
370
-3
390
F
  0
LAYER
  5
214
100
AcDbSymbolTableRecord
100
AcDbLayerTableRecord
  2
TRASH
 70
0
 62
7
  6
CONTINUOUS
370
-3
390
F
  0
LAYER
  5
215
100
AcDbSymbolTableRecord
100
AcDbLayerTableRecord
  2
XSEC_DATUMS
 70
0
 62
7
  6
CONTINUOUS
370
-3
390
F
  0
ENDTAB
  0
TABLE
  2
STYLE
  5
3
100
AcDbSymbolTable
 70
1
  0
STYLE
  5
11
100
AcDbSymbolTableRecord
100
AcDbTextStyleTableRecord
  2
STANDARD
 70
0
 40
0.0
 41
0.8
 50
0.0
 71
0
 42
0.2
  3
txt
  4

  0
STYLE
  5
216
100
AcDbSymbolTableRecord
100
AcDbTextStyleTableRecord
  2
TEXTSTYLE_1
 70
0
 40
0.0
 41
0.8
 50
0.0
 71
0
 42
0.2
  3
gdt
  4

  0
ENDTAB
  0
TABLE
  2
VIEW
  5
6
100
AcDbSymbolTable
 70
0
  0
ENDTAB
  0
TABLE
  2
UCS
  5
7
100
AcDbSymbolTable
 70
0
  0
ENDTAB
  0
TABLE
  2
APPID
  5
9
100
AcDbSymbolTable
 70
1
  0
APPID
  5
217
100
AcDbSymbolTableRecord
100
AcDbRegAppTableRecord
  2
ACAD
 70
0
  0
ENDTAB
  0
TABLE
  2
BLOCK_RECORD
  5
1
100
AcDbSymbolTable
 70
0
  0
BLOCK_RECORD
  5
218
100
AcDbSymbolTableRecord
100
AcDbBlockTableRecord
  2
*Model_Space
  0
BLOCK_RECORD
  5
219
100
AcDbSymbolTableRecord
100
AcDbBlockTableRecord
  2
*Paper_Space
  0
ENDTAB
  0
TABLE
  2
DIMSTYLE
  5
A
100
AcDbSymbolTable
 70
1
100
AcDbDimStyleTable
 71
0
  0
DIMSTYLE
105
21A
100
AcDbSymbolTableRecord
100
AcDbDimStyleTableRecord
  2
STANDARD
 70
0
  3

  4

 40
1.0
 41
3.0
 42
0.0625
 43
0.38
 44
0.18
 45
0.0
 46
0.0
 47
0.01
 48
0.01
140
3.0
141
0.09
142
0.0
143
25.4
144
1.0
145
0.0
146
1.0
147
0.09
 71
1.0
 72
0.0
 73
0
 74
0
 75
0
 76
0
 77
1
 78
8
170
0
171
2
172
0
173
0
174
0
175
0
176
0
177
0
178
0
270
2
271
2
272
2
273
2
274
2
275
0
280
0
281
0
282
0
283
1
284
8
285
0
286
0
287
3
288
0
340
11
  0
ENDTAB
  0
ENDSEC
  0
SECTION
  2
BLOCKS
  0
BLOCK
  5
20
100
AcDbEntity
  8
0
100
AcDbBlockBegin
  2
*Model_Space
 70
0
 10
0.0
 20
0.0
 30
0.0
  3
*Model_Space
  1

  0
ENDBLK
  5
21
100
AcDbEntity
  8
0
100
AcDbBlockEnd
  0
BLOCK
  5
1C
100
AcDbEntity
  8
0
100
AcDbBlockBegin
  2
*Paper_Space
 70
0
 10
0.0
 20
0.0
 30
0.0
  3
*Paper_Space
  1

  0
ENDBLK
  5
1D
100
AcDbEntity
  8
0
100
AcDbBlockEnd
  0
ENDSEC
  0
SECTION
  2
ENTITIES
  0
LWPOLYLINE
  5
21B
100
AcDbEntity
  8
RACCORDO
100
AcDbPolyline
 62
7
  6
CONTINUOUS
 90
15
 70
0
 10
-15.3985448018
 20
26.7745994892
 10
-15.4352401886
 20
26.7499819568
 10
-15.4989134109
 20
26.7015075437
 10
-15.5589451331
 20
26.6484606934
 10
-15.6155328276
 20
26.5911025499
 10
-15.6686535682
 20
26.5297410638
 10
-15.717979186
 20
26.4650058948
 10
-15.7634748489
 20
26.3971723594
 10
-15.8050381299
 20
26.3264359014
 10
-15.8422626213
 20
26.2535645924
 10
-15.8750337206
 20
26.1787799168
 10
-15.9031803744
 20
26.1022526883
 10
-15.9263518246
 20
26.0246382241
 10
-15.9443103963
 20
25.946175684
 10
-15.9573024127
 20
25.8630159964
  0
LINE
  5
21C
100
AcDbEntity
  8
RACCORDO
100
AcDbLine
 62
7
  6
CONTINUOUS
 10
-15.3986999018
 20
26.7745173858
 11
-14.7387148233
 21
27.1965701922
  0
LINE
  5
21D
100
AcDbEntity
  8
0
100
AcDbLine
 62
253
  6
CONTINUOUS
 10
-15.138580901
 20
26.7560354244
 11
-14.4821679109
 21
27.1758039218
  0
LWPOLYLINE
  5
21E
100
AcDbEntity
  8
RACCORDO
100
AcDbPolyline
 62
253
  6
CONTINUOUS
 90
9
 70
0
 10
-15.3985524926
 20
26.7746115432
 10
-15.3788004093
 20
26.7854130436
 10
-15.3499129236
 20
26.7957822307
 10
-15.318610747
 20
26.8013075381
 10
-15.2852365339
 20
26.8019284823
 10
-15.2501556206
 20
26.7976382658
 10
-15.2137520261
 20
26.7884838522
 10
-15.176424248
 20
26.7745654517
 10
-15.138580901
 20
26.7560354244
  0
LWPOLYLINE
  5
21F
100
AcDbEntity
  8
RACCORDO
100
AcDbPolyline
 62
253
  6
CONTINUOUS
 90
19
 70
0
 10
-15.8103296819
 20
25.6636771103
 10
-15.8001913919
 20
25.7318133611
 10
-15.78597067
 20
25.8012609005
 10
-15.767754051
 20
25.8716036328
 10
-15.745654079
 20
25.9424223001
 10
-15.7198033721
 20
26.0132909478
 10
-15.6903542641
 20
26.0837794915
 10
-15.6574880553
 20
26.1534650457
 10
-15.621403325
 20
26.2219326121
 10
-15.5823092892
 20
26.2887713098
 10
-15.5404442143
 20
26.3535822845
 10
-15.4960618674
 20
26.415978327
 10
-15.4494191126
 20
26.4755838051
 10
-15.4007982793
 20
26.5320444411
 10
-15.3504954613
 20
26.5850213597
 10
-15.2988060265
 20
26.6341901874
 10
-15.2460407827
 20
26.6792552623
 10
-15.19252394
 20
26.7199510356
 10
-15.138580901
 20
26.7560354244
  0
LWPOLYLINE
  5
220
100
AcDbEntity
  8
RACCORDO
100
AcDbPolyline
 62
7
  6
CONTINUOUS
 90
10
 70
0
 10
-16.6412501822
 20
15.8693380624
 10
-16.6652233428
 20
14.1775733704
 10
-16.6839297829
 20
12.4285216862
 10
-16.6963977846
 20
10.6831760508
 10
-16.7026269439
 20
8.9415722667
 10
-16.7026171343
 20
7.2037400246
 10
-16.6963682804
 20
5.4697067137
 10
-16.6838803616
 20
3.7395020246
 10
-16.6651536343
 20
2.0131614249
 10
-16.6412476781
 20
0.355889251
  0
LWPOLYLINE
  5
221
100
AcDbEntity
  8
RACCORDO
100
AcDbPolyline
 62
253
  6
CONTINUOUS
 90
10
 70
0
 10
-16.4948027213
 20
15.6650589606
 10
-16.4711062278
 20
16.7483655597
 10
-16.4342924375
 20
17.8391286781
 10
-16.3843693404
 20
18.9371174852
 10
-16.3213482106
 20
20.0420998488
 10
-16.245242303
 20
21.153841826
 10
-16.1560668429
 20
22.2721077168
 10
-16.0538407605
 20
23.3966608553
 10
-15.9385866947
 20
24.5272636563
 10
-15.8103296819
 20
25.6636771103
  0
LWPOLYLINE
  5
222
100
AcDbEntity
  8
RACCORDO
100
AcDbPolyline
 62
253
  6
CONTINUOUS
 90
10
 70
0
 10
-15.9573024127
 20
25.8630159964
 10
-15.9578168247
 20
25.8574029686
 10
-15.95684958
 20
25.8323573236
 10
-15.9506244774
 20
25.8070168136
 10
-15.9392074915
 20
25.7816500002
 10
-15.9227196206
 20
25.7565257242
 10
-15.9013356054
 20
25.7319102559
 10
-15.8752820761
 20
25.7080644732
 10
-15.8448351512
 20
25.6852410964
 10
-15.8103175109
 20
25.6636820105
  0
LWPOLYLINE
  5
223
100
AcDbEntity
  8
RACCORDO
100
AcDbPolyline
 62
7
  6
CONTINUOUS
 90
10
 70
0
 10
-15.9572840877
 20
25.8632543595
 10
-16.0801159612
 20
24.7770063237
 10
-16.1972622749
 20
23.6321973218
 10
-16.3010598649
 20
22.4934748745
 10
-16.391479008
 20
21.3611177887
 10
-16.4685002143
 20
20.235355121
 10
-16.5321064027
 20
19.1163973921
 10
-16.5822805498
 20
18.0044729375
 10
-16.619009514
 20
16.8998529797
 10
-16.6412501708
 20
15.8693378553
  0
LWPOLYLINE
  5
224
100
AcDbEntity
  8
RACCORDO
100
AcDbPolyline
 62
7
  6
CONTINUOUS
 90
8
 70
0
 10
-15.8762539169
 20
-9.0753412999
 10
-15.8437453008
 20
-9.1317036699
 10
-15.8069208136
 20
-9.1838710493
 10
-15.7661407769
 20
-9.2316142465
 10
-15.7220174228
 20
-9.2745523498
 10
-15.6751613575
 20
-9.31248025
 10
-15.6260782436
 20
-9.3453651638
 10
-15.6130472906
 20
-9.3530700445
  0
LWPOLYLINE
  5
225
100
AcDbEntity
  8
RACCORDO
100
AcDbPolyline
 62
253
  6
CONTINUOUS
 90
8
 70
0
 10
-15.9559892904
 20
-8.8197704318
 10
-15.9506361182
 20
-8.8460895241
 10
-15.9392196685
 20
-8.8784704197
 10
-15.9227321494
 20
-8.909500107
 10
-15.9013483022
 20
-8.9388497214
 10
-15.8752947614
 20
-8.9662082042
 10
-15.8448476526
 20
-8.9912855992
 10
-15.8103296662
 20
-9.0138161265
  0
LWPOLYLINE
  5
226
100
AcDbEntity
  8
RACCORDO
100
AcDbPolyline
 62
7
  6
CONTINUOUS
 90
5
 70
0
 10
-15.955973389
 20
-8.81976821
 10
-15.9442452663
 20
-8.8855351988
 10
-15.9267764685
 20
-8.9517791811
 10
-15.9040578379
 20
-9.0151644284
 10
-15.8762539169
 20
-9.0753412999
  0
LINE
  5
227
100
AcDbEntity
  8
RACCORDO
100
AcDbLine
 62
7
  6
CONTINUOUS
 10
-15.9560406623
 20
-8.8194009011
 11
-15.9559892904
 21
-8.8197704318
  0
LWPOLYLINE
  5
228
100
AcDbEntity
  8
RACCORDO
100
AcDbPolyline
 62
253
  6
CONTINUOUS
 90
10
 70
0
 10
-15.8103296819
 20
-9.0138161383
 10
-15.9385866947
 20
-8.033432789
 10
-16.0538407604
 20
-7.043038886
 10
-16.1560668427
 20
-6.0428445272
 10
-16.2452423024
 20
-5.0330621486
 10
-16.3213482095
 20
-4.0139055623
 10
-16.3843693392
 20
-2.985589906
 10
-16.4342924365
 20
-1.9483328226
 10
-16.4711062272
 20
-0.9023544188
 10
-16.4948027213
 20
0.1521237016
  0
LWPOLYLINE
  5
229
100
AcDbEntity
  8
RACCORDO
100
AcDbPolyline
 62
253
  6
CONTINUOUS
 90
9
 70
0
 10
-16.6412476781
 20
0.355889251
 10
-16.6402252626
 20
0.3396844567
 10
-16.6342612163
 20
0.3096601001
 10
-16.623074666
 20
0.2802112384
 10
-16.6067841267
 20
0.2516498655
 10
-16.5855621876
 20
0.224278573
 10
-16.5596336829
 20
0.1983873441
 10
-16.5292733104
 20
0.1742504816
 10
-16.494802721
 20
0.1521237018
  0
LWPOLYLINE
  5
22A
100
AcDbEntity
  8
RACCORDO
100
AcDbPolyline
 62
253
  6
CONTINUOUS
 90
9
 70
0
 10
-16.6412501708
 20
15.8693378553
 10
-16.6402252469
 20
15.8484930142
 10
-16.6342611997
 20
15.8194921613
 10
-16.6230746488
 20
15.7909353293
 10
-16.6067841094
 20
15.7631250616
 10
-16.5855621703
 20
15.7363559921
 10
-16.559633666
 20
15.7109117238
 10
-16.5292732941
 20
15.6870618242
 10
-16.4948027055
 20
15.6650589694
  0
LWPOLYLINE
  5
22B
100
AcDbEntity
  8
RACCORDO
100
AcDbPolyline
 62
7
  6
CONTINUOUS
 90
10
 70
0
 10
-16.6412476564
 20
0.3558894922
 10
-16.6188416064
 20
-0.6535113975
 10
-16.5820127966
 20
-1.7142436627
 10
-16.5317153225
 20
-2.7661532238
 10
-16.4679565105
 20
-3.8089816358
 10
-16.3907475017
 20
-4.8425191269
 10
-16.3000991922
 20
-5.8665745617
 10
-16.1960250751
 20
-6.880939386
 10
-16.0785489941
 20
-7.885366001
 10
-15.9560406623
 20
-8.8194009011
  0
LWPOLYLINE
  5
22C
100
AcDbEntity
  8
RACCORDO
100
AcDbPolyline
 62
253
  6
CONTINUOUS
 90
10
 70
0
 10
-16.4948027213
 20
0.1521237016
 10
-16.5193572647
 20
1.8607710936
 10
-16.5377729541
 20
3.5732258118
 10
-16.5500498381
 20
5.2894570895
 10
-16.5561880349
 20
7.0094107408
 10
-16.5561880317
 20
8.7330791329
 10
-16.5500498294
 20
10.4605016801
 10
-16.5377729427
 20
12.191671311
 10
-16.5193572556
 20
13.926533975
 10
-16.4948027213
 20
15.6650589606
  0
LWPOLYLINE
  5
22D
100
AcDbEntity
  8
RACCORDO
100
AcDbPolyline
 62
7
  6
CONTINUOUS
 90
14
 70
0
 10
15.1703509232
 20
-27.1270190116
 10
15.2033521155
 20
-27.144881866
 10
15.2566862798
 20
-27.1690184875
 10
15.3117918817
 20
-27.1884430692
 10
15.3688231513
 20
-27.2032197574
 10
15.4274302952
 20
-27.2131961021
 10
15.487195873
 20
-27.2182494001
 10
15.5482936597
 20
-27.2182902109
 10
15.6104375475
 20
-27.2131701182
 10
15.6732281039
 20
-27.2027858254
 10
15.7368038825
 20
-27.1869238804
 10
15.8010632915
 20
-27.1653275457
 10
15.865531595
 20
-27.1379012703
 10
15.8974368274
 20
-27.1221258489
  0
LINE
  5
22E
100
AcDbEntity
  8
RACCORDO
100
AcDbLine
 62
7
  6
CONTINUOUS
 10
-15.6131301148
 20
-9.3530274795
 11
-15.613791736
 21
-9.3526465048
  0
LINE
  5
22F
100
AcDbEntity
  8
ASSI
100
AcDbLine
 62
7
  6
CONTINUOUS
 10
15.1704714569
 20
-27.1270942549
 11
-15.6138261605
 21
-9.3526266285
  0
LINE
  5
230
100
AcDbEntity
  8
RACCORDO
100
AcDbLine
 62
253
  6
CONTINUOUS
 10
14.9686822153
 20
-26.7852318561
 11
-15.8103296819
 21
-9.0138161383
  0
LINE
  5
231
100
AcDbEntity
  8
RACCORDO
100
AcDbLine
 62
7
  6
CONTINUOUS
 10
15.1702631472
 20
-27.1269739114
 11
15.1704373252
 21
-27.1270745477
  0
LWPOLYLINE
  5
232
100
AcDbEntity
  8
RACCORDO
100
AcDbPolyline
 62
253
  6
CONTINUOUS
 90
9
 70
0
 10
-15.6214058153
 20
-9.3481105805
 10
-15.6574902873
 20
-9.3224230841
 10
-15.6903560904
 20
-9.2916966424
 10
-15.7198045298
 20
-9.2561151502
 10
-15.7456545391
 20
-9.2158940444
 10
-15.7677540986
 20
-9.1712730435
 10
-15.7859706007
 20
-9.1225200255
 10
-15.8001913314
 20
-9.0699290236
 10
-15.8103296819
 20
-9.0138161383
  0
LINE
  5
233
100
AcDbEntity
  8
RACCORDO
100
AcDbLine
 62
253
  6
CONTINUOUS
 10
14.2476081037
 20
-17.5981590159
 11
-16.4948027213
 21
0.1521237016
  0
LWPOLYLINE
  5
234
100
AcDbEntity
  8
SUPERFICI
100
AcDbPolyline
 62
7
  6
CONTINUOUS
 90
19
 70
0
 10
-4.3796336112
 20
0.9802672701
 10
-4.3875734926
 20
0.9707278055
 10
-4.394609508
 20
0.9602205651
 10
-4.4007416159
 20
0.9487455731
 10
-4.4059894181
 20
0.9362349753
 10
-4.410333221
 20
0.9227566788
 10
-4.4137140622
 20
0.9085143365
 10
-4.4161156308
 20
0.8935012947
 10
-4.4175541946
 20
0.8777242319
 10
-4.4180197066
 20
0.8614067717
 10
-4.4175006821
 20
0.8445489609
 10
-4.4160086107
 20
0.8271507498
 10
-4.413567953
 20
0.8094355905
 10
-4.4101653694
 20
0.7913913267
 10
-4.4058142466
 20
0.7730300876
 10
-4.4005791783
 20
0.7546117278
 10
-4.3944817347
 20
0.7362228431
 10
-4.3875004375
 20
0.7177767846
 10
-4.3796353283
 20
0.6992735285
  0
LINE
  5
235
100
AcDbEntity
  8
0
100
AcDbLine
 62
7
  6
CONTINUOUS
 10
-4.3875688173
 20
0.9707334227
 11
-4.379633611
 21
0.9802672704
  0
LWPOLYLINE
  5
236
100
AcDbEntity
  8
SUPERFICI
100
AcDbPolyline
 62
7
  6
CONTINUOUS
 90
16
 70
0
 10
-2.7044570144
 20
-0.4929829357
 10
-2.6977078986
 20
-0.4696576434
 10
-2.6937819518
 20
-0.443900948
 10
-2.6926066853
 20
-0.4167107835
 10
-2.694209745
 20
-0.3881071253
 10
-2.6985635447
 20
-0.3580700326
 10
-2.7055130658
 20
-0.3275377493
 10
-2.7151516565
 20
-0.2964024567
 10
-2.7273862964
 20
-0.2647721629
 10
-2.7417827093
 20
-0.2339090221
 10
-2.7584703873
 20
-0.2038146496
 10
-2.7773203978
 20
-0.1744877534
 10
-2.7975110377
 20
-0.1471862474
 10
-2.8190454506
 20
-0.1220654172
 10
-2.8419210074
 20
-0.0989702745
 10
-2.8653073821
 20
-0.0786933427
  0
LINE
  5
237
100
AcDbEntity
  8
0
100
AcDbLine
 62
7
  6
CONTINUOUS
 10
-3.6302704866
 20
0.9299468689
 11
-3.9474288141
 21
0.5901946766
  0
LINE
  5
238
100
AcDbEntity
  8
SUPERFICI
100
AcDbLine
 62
7
  6
CONTINUOUS
 10
-3.9474288141
 20
0.5901946766
 11
-3.6302704866
 21
0.9299468689
  0
LINE
  5
239
100
AcDbEntity
  8
SUPERFICI
100
AcDbLine
 62
7
  6
CONTINUOUS
 10
-3.9133840052
 20
1.4795159871
 11
-4.3796336112
 21
0.9802672701
  0
LINE
  5
23A
100
AcDbEntity
  8
0
100
AcDbLine
 62
7
  6
CONTINUOUS
 10
-4.379633611
 20
0.9802672704
 11
-3.9133840126
 21
1.4795159793
  0
LINE
  5
23B
100
AcDbEntity
  8
0
100
AcDbLine
 62
7
  6
CONTINUOUS
 10
-3.9133840126
 20
1.4795159793
 11
-3.906791474
 21
1.4859926436
  0
LINE
  5
23C
100
AcDbEntity
  8
0
100
AcDbLine
 62
7
  6
CONTINUOUS
 10
-3.906791474
 20
1.4859926436
 11
-3.9003269571
 21
1.4913627081
  0
LWPOLYLINE
  5
23D
100
AcDbEntity
  8
SUPERFICI
100
AcDbPolyline
 62
7
  6
CONTINUOUS
 90
3
 70
0
 10
-3.9003269589
 20
1.4913627109
 10
-3.9067909865
 20
1.4859931226
 10
-3.9133840052
 20
1.4795159871
  0
LINE
  5
23E
100
AcDbEntity
  8
SUPERFICI
100
AcDbLine
 62
7
  6
CONTINUOUS
 10
-3.0676843396
 20
-0.0455633079
 11
-3.3526038051
 21
-0.2754563474
  0
LINE
  5
23F
100
AcDbEntity
  8
0
100
AcDbLine
 62
7
  6
CONTINUOUS
 10
-3.3526038051
 20
-0.2754563474
 11
-3.0676843352
 21
-0.0455633043
  0
LWPOLYLINE
  5
240
100
AcDbEntity
  8
0
100
AcDbPolyline
 62
7
  6
CONTINUOUS
 90
5
 70
0
 10
-3.9003269571
 20
1.4913627081
 10
-3.8923652505
 20
1.4968590038
 10
-3.8845152878
 20
1.501258031
 10
-3.8762512118
 20
1.5049617508
 10
-3.8676192347
 20
1.5079443956
  0
LINE
  5
241
100
AcDbEntity
  8
SUPERFICI
100
AcDbLine
 62
7
  6
CONTINUOUS
 10
-3.8923635053
 20
1.4968599817
 11
-3.9003269589
 21
1.4913627109
  0
LWPOLYLINE
  5
242
100
AcDbEntity
  8
RACCORDO
100
AcDbPolyline
 62
253
  6
CONTINUOUS
 90
16
 70
0
 10
15.662444774
 20
7.8237051602
 10
15.6237510979
 20
7.810885902
 10
15.5818197867
 20
7.8004219279
 10
15.5370952448
 20
7.7924241393
 10
15.4900514806
 20
7.7869772998
 10
15.4411870824
 20
7.7841391371
 10
15.3910199342
 20
7.7839397313
 10
15.3400817272
 20
7.7863811957
 10
15.2889123247
 20
7.7914376548
 10
15.2380540399
 20
7.7990555181
 10
15.188045889
 20
7.8091540486
 10
15.1394178781
 20
7.8216262181
 10
15.092685386
 20
7.8363398418
 10
15.048343702
 20
7.8531389792
 10
15.0068627767
 20
7.8718455862
 10
14.9686822413
 20
7.8922614029
  0
LINE
  5
243
100
AcDbEntity
  8
0
100
AcDbLine
 62
7
  6
CONTINUOUS
 10
-3.210722806
 20
-0.8414918377
 11
-3.2312938416
 21
-0.8331414182
  0
LWPOLYLINE
  5
244
100
AcDbEntity
  8
SUPERFICI
100
AcDbPolyline
 62
7
  6
CONTINUOUS
 90
9
 70
0
 10
-3.252515354
 20
-0.8222072613
 10
-3.2312938658
 20
-0.8331414057
 10
-3.210722815
 20
-0.841491834
 10
-3.190802152
 20
-0.8472585172
 10
-3.1713511842
 20
-0.8504141943
 10
-3.1525504053
 20
-0.850986011
 10
-3.1349415236
 20
-0.8490555364
 10
-3.1187050205
 20
-0.844649909
 10
-3.11407411
 20
-0.8428434606
  0
LINE
  5
245
100
AcDbEntity
  8
0
100
AcDbLine
 62
7
  6
CONTINUOUS
 10
-3.2312938416
 20
-0.8331414182
 11
-3.252515354
 21
-0.8222072613
  0
LINE
  5
246
100
AcDbEntity
  8
SUPERFICI
100
AcDbLine
 62
7
  6
CONTINUOUS
 10
-3.2525154824
 20
-0.8222071872
 11
-3.7393695539
 21
-0.5411037481
  0
LINE
  5
247
100
AcDbEntity
  8
0
100
AcDbLine
 62
7
  6
CONTINUOUS
 10
-3.2525154824
 20
-0.8222071872
 11
-3.7393695539
 21
-0.5411037481
  0
LINE
  5
248
100
AcDbEntity
  8
SUPERFICI
100
AcDbLine
 62
7
  6
CONTINUOUS
 10
-3.3526038051
 20
-0.2754563474
 11
-3.6302704866
 21
-0.1151350854
  0
LINE
  5
249
100
AcDbEntity
  8
0
100
AcDbLine
 62
7
  6
CONTINUOUS
 10
-3.3526038051
 20
-0.2754563474
 11
-3.6302704866
 21
-0.1151350854
  0
LWPOLYLINE
  5
24A
100
AcDbEntity
  8
0
100
AcDbPolyline
 62
7
  6
CONTINUOUS
 90
17
 70
0
 10
-3.7393727588
 20
-0.5411018976
 10
-3.7504215751
 20
-0.5343921479
 10
-3.7613846569
 20
-0.527080998
 10
-3.7722620004
 20
-0.5191684457
 10
-3.7830755636
 20
-0.5106363922
 10
-3.7938033721
 20
-0.5015029267
 10
-3.8043795184
 20
-0.4918223264
 10
-3.8148029569
 20
-0.4816003639
 10
-3.8250747018
 20
-0.4708312483
 10
-3.835131932
 20
-0.4595519095
 10
-3.844970933
 20
-0.4477689448
 10
-3.8545953726
 20
-0.4354757296
 10
-3.8639534986
 20
-0.4226893586
 10
-3.8730661045
 20
-0.4093862738
 10
-3.8819123327
 20
-0.3955899958
 10
-3.8903779513
 20
-0.3813882359
 10
-3.8984055868
 20
-0.3668451285
  0
LWPOLYLINE
  5
24B
100
AcDbEntity
  8
0
100
AcDbPolyline
 62
7
  6
CONTINUOUS
 90
3
 70
0
 10
-3.898424858
 20
-0.3668102163
 10
-3.9060910785
 20
-0.3518266702
 10
-3.9133765707
 20
-0.3364375731
  0
LWPOLYLINE
  5
24C
100
AcDbEntity
  8
SUPERFICI
100
AcDbPolyline
 62
7
  6
CONTINUOUS
 90
19
 70
0
 10
-3.9133765716
 20
-0.3364375711
 10
-3.9060801672
 20
-0.3518473403
 10
-3.8984042646
 20
-0.3668477124
 10
-3.8903489061
 20
-0.3814387121
 10
-3.8818758827
 20
-0.3956492686
 10
-3.8730234805
 20
-0.4094504973
 10
-3.863906482
 20
-0.4227557003
 10
-3.854546132
 20
-0.4355410787
 10
-3.84492125
 20
-0.4478304687
 10
-3.8350829773
 20
-0.4596086236
 10
-3.825027469
 20
-0.47088257
 10
-3.8147586167
 20
-0.4816453083
 10
-3.8043391622
 20
-0.4918605496
 10
-3.7937684179
 20
-0.5015339314
 10
-3.7830471029
 20
-0.5106598344
 10
-3.7722400649
 20
-0.5191850825
 10
-3.7613689256
 20
-0.5270919534
 10
-3.7504120796
 20
-0.5343981789
 10
-3.7393695312
 20
-0.5411037612
  0
LINE
  5
24D
100
AcDbEntity
  8
0
100
AcDbLine
 62
7
  6
CONTINUOUS
 10
-3.9474288141
 20
0.5901946766
 11
-3.6302704866
 21
-0.1151350854
  0
LINE
  5
24E
100
AcDbEntity
  8
SUPERFICI
100
AcDbLine
 62
7
  6
CONTINUOUS
 10
-4.3796353283
 20
0.6992735285
 11
-3.9133765716
 21
-0.3364375711
  0
LINE
  5
24F
100
AcDbEntity
  8
0
100
AcDbLine
 62
7
  6
CONTINUOUS
 10
-3.9133765707
 20
-0.3364375731
 11
-4.3796353289
 21
0.6992735298
  0
LINE
  5
250
100
AcDbEntity
  8
SUPERFICI
100
AcDbLine
 62
7
  6
CONTINUOUS
 10
-3.6302704866
 20
-0.1151350854
 11
-3.9474288141
 21
0.5901946766
  0
LINE
  5
251
100
AcDbEntity
  8
0
100
AcDbLine
 62
7
  6
CONTINUOUS
 10
-4.3796353289
 20
0.6992735298
 11
-4.387508497
 21
0.7177980795
  0
LWPOLYLINE
  5
252
100
AcDbEntity
  8
0
100
AcDbPolyline
 62
7
  6
CONTINUOUS
 90
17
 70
0
 10
-4.3875202075
 20
0.7178256328
 10
-4.3945165914
 20
0.7363207585
 10
-4.4006244388
 20
0.7547589311
 10
-4.4058655583
 20
0.773230587
 10
-4.4102180482
 20
0.7916453436
 10
-4.4136163224
 20
0.8097319836
 10
-4.4160449784
 20
0.8274755694
 10
-4.4175193731
 20
0.8448910648
 10
-4.4180201059
 20
0.8617520778
 10
-4.4175353383
 20
0.8780555477
 10
-4.416076907
 20
0.8938045361
 10
-4.4136609697
 20
0.9087818073
 10
-4.4102728681
 20
0.9229792555
 10
-4.4059273061
 20
0.9364049603
 10
-4.4006845312
 20
0.9488659376
 10
-4.3945646652
 20
0.9602978368
 10
-4.3875688173
 20
0.9707334227
  0
LWPOLYLINE
  5
253
100
AcDbEntity
  8
SUPERFICI
100
AcDbPolyline
 62
7
  6
CONTINUOUS
 90
28
 70
0
 10
-1.4199156859
 20
-1.7373325257
 10
-1.361555744
 20
-1.9041688999
 10
-1.2963192541
 20
-2.0684054001
 10
-1.224211502
 20
-2.2300450822
 10
-1.1446803014
 20
-2.3899066292
 10
-1.0582873663
 20
-2.5471768732
 10
-0.9667094424
 20
-2.6994114521
 10
-0.8701680545
 20
-2.8461598978
 10
-0.7684515801
 20
-2.987878429
 10
-0.6625877086
 20
-3.1234831049
 10
-0.5522931064
 20
-3.2532565131
 10
-0.4378587378
 20
-3.3769205068
 10
-0.3211736173
 20
-3.4925499741
 10
-0.202503595
 20
-3.5997968468
 10
-0.0815880714
 20
-3.6990122532
 10
0.0404740959
 20
-3.7893195963
 10
0.1641107887
 20
-3.8708852474
 10
0.2888922738
 20
-3.943543915
 10
0.4124341084
 20
-4.0059210192
 10
0.5342832478
 20
-4.0576602012
 10
0.654894438
 20
-4.0991168276
 10
0.773245754
 20
-4.1299834219
 10
0.889693129
 20
-4.1502196124
 10
1.0038857135
 20
-4.1598628078
 10
1.1137418224
 20
-4.1587219623
 10
1.218860286
 20
-4.1466809531
 10
1.3196495333
 20
-4.123851678
 10
1.4147086046
 20
-4.0906078989
  0
LINE
  5
254
100
AcDbEntity
  8
0
100
AcDbLine
 62
7
  6
CONTINUOUS
 10
-1.3615647507
 20
-1.9041447841
 11
-1.4199236533
 21
-1.7373078945
  0
LINE
  5
255
100
AcDbEntity
  8
SUPERFICI
100
AcDbLine
 62
7
  6
CONTINUOUS
 10
-1.0402499677
 20
-0.435997638
 11
-1.0342310567
 21
-0.4254789513
  0
LWPOLYLINE
  5
256
100
AcDbEntity
  8
0
100
AcDbPolyline
 62
7
  6
CONTINUOUS
 90
8
 70
0
 10
-1.034231062
 20
-0.4254789615
 10
-1.0402611631
 20
-0.4360172031
 10
-1.0469896869
 20
-0.445588928
 10
-1.0544166816
 20
-0.4541941641
 10
-1.0625807566
 20
-0.4618625675
 10
-1.0714433898
 20
-0.4685645323
 10
-1.0808889406
 20
-0.4742111979
 10
-1.0889186621
 20
-0.4779773937
  0
LINE
  5
257
100
AcDbEntity
  8
SUPERFICI
100
AcDbLine
 62
7
  6
CONTINUOUS
 10
-1.0342310567
 20
-0.4254789513
 11
-0.9888613472
 21
-0.3472691318
  0
LINE
  5
258
100
AcDbEntity
  8
SUPERFICI
100
AcDbLine
 62
7
  6
CONTINUOUS
 10
-1.0469658026
 20
-0.4455549512
 11
-1.0402499677
 21
-0.435997638
  0
LINE
  5
259
100
AcDbEntity
  8
SUPERFICI
100
AcDbLine
 62
7
  6
CONTINUOUS
 10
-0.9888613472
 20
-0.3472691318
 11
-0.9375192667
 21
-0.2773123212
  0
LINE
  5
25A
100
AcDbEntity
  8
0
100
AcDbLine
 62
7
  6
CONTINUOUS
 10
-1.3571569489
 20
0.1082828357
 11
-1.2905178495
 21
0.1973959275
  0
LINE
  5
25B
100
AcDbEntity
  8
SUPERFICI
100
AcDbLine
 62
7
  6
CONTINUOUS
 10
-1.0543783885
 20
-0.4541497961
 11
-1.0469658026
 21
-0.4455549512
  0
LINE
  5
25C
100
AcDbEntity
  8
SUPERFICI
100
AcDbLine
 62
7
  6
CONTINUOUS
 10
-0.9375192667
 20
-0.2773123212
 11
-0.8802078741
 21
-0.2156102891
  0
LINE
  5
25D
100
AcDbEntity
  8
0
100
AcDbLine
 62
7
  6
CONTINUOUS
 10
-1.2905178495
 20
0.1973959275
 11
-1.2174323172
 21
0.2758180066
  0
LWPOLYLINE
  5
25E
100
AcDbEntity
  8
SUPERFICI
100
AcDbPolyline
 62
7
  6
CONTINUOUS
 90
4
 70
0
 10
-2.7417174142
 20
-0.5473733559
 10
-2.726473718
 20
-0.5316743913
 10
-2.7140536277
 20
-0.5135442761
 10
-2.704457028
 20
-0.4929829648
  0
LINE
  5
25F
100
AcDbEntity
  8
0
100
AcDbLine
 62
7
  6
CONTINUOUS
 10
-2.4169339177
 20
-0.9253255306
 11
-2.4031508207
 21
-0.9115685745
  0
LWPOLYLINE
  5
260
100
AcDbEntity
  8
SUPERFICI
100
AcDbPolyline
 62
7
  6
CONTINUOUS
 90
30
 70
0
 10
-2.4031503012
 20
-0.9115681552
 10
-2.4169334955
 20
-0.9253250435
 10
-2.428447129
 20
-0.94117056
 10
-2.4376910897
 20
-0.9591046398
 10
-2.4446571689
 20
-0.9794060049
 10
-2.4493533107
 20
-1.0017957799
 10
-2.4518037577
 20
-1.0254375754
 10
-2.4519971645
 20
-1.0502104161
 10
-2.4499449038
 20
-1.0762352931
 10
-2.4457054961
 20
-1.1030388829
 10
-2.439202137
 20
-1.1308244836
 10
-2.4305117637
 20
-1.159388874
 10
-2.4199237135
 20
-1.1876490702
 10
-2.4074007646
 20
-1.215505152
 10
-2.3929805322
 20
-1.2430572676
 10
-2.3770647951
 20
-1.2695226438
 10
-2.359549805
 20
-1.2949377308
 10
-2.340539718
 20
-1.3192663148
 10
-2.3207482411
 20
-1.3416166684
 10
-2.3002178785
 20
-1.3618465498
 10
-2.2789064307
 20
-1.3800983776
 10
-2.2574005375
 20
-1.3959074087
 10
-2.2357209297
 20
-1.4092428747
 10
-2.2138469454
 20
-1.4201355841
 10
-2.1923030769
 20
-1.4282131255
 10
-2.1710475296
 20
-1.4334853544
 10
-2.1501219071
 20
-1.4359423044
 10
-2.130175731
 20
-1.4351817916
 10
-2.1114253538
 20
-1.4310696651
 10
-2.0954641779
 20
-1.4246557978
  0
LWPOLYLINE
  5
261
100
AcDbEntity
  8
SUPERFICI
100
AcDbPolyline
 62
7
  6
CONTINUOUS
 90
31
 70
0
 10
-1.7287728328
 20
-1.1322348914
 10
-1.7149810691
 20
-1.1184729465
 10
-1.7034563964
 20
-1.1026209629
 10
-1.6941987027
 20
-1.0846788759
 10
-1.6872157504
 20
-1.0643677052
 10
-1.6824995125
 20
-1.0419662782
 10
-1.680026319
 20
-1.018311314
 10
-1.6798076756
 20
-0.9935238791
 10
-1.6818321038
 20
-0.9674829231
 10
-1.6860416583
 20
-0.9406621063
 10
-1.692513074
 20
-0.9128580961
 10
-1.7011697488
 20
-0.8842743021
 10
-1.7117239366
 20
-0.8559946165
 10
-1.7242134537
 20
-0.8281193084
 10
-1.7386008773
 20
-0.8005483362
 10
-1.7544857877
 20
-0.7740652337
 10
-1.7719724141
 20
-0.748633817
 10
-1.790956935
 20
-0.7242905055
 10
-1.8107269269
 20
-0.7019277802
 10
-1.8312404594
 20
-0.681688222
 10
-1.8525397675
 20
-0.6634294259
 10
-1.8740386641
 20
-0.6476163872
 10
-1.8957165726
 20
-0.6342799577
 10
-1.9175941387
 20
-0.6233893255
 10
-1.9391469501
 20
-0.6153169562
 10
-1.9604166772
 20
-0.6100529255
 10
-1.9813614586
 20
-0.6076070474
 10
-2.0013315165
 20
-0.6083813552
 10
-2.0201101038
 20
-0.6125097709
 10
-2.0379135056
 20
-0.6198581056
 10
-2.0471229401
 20
-0.6251657427
  0
LINE
  5
262
100
AcDbEntity
  8
SUPERFICI
100
AcDbLine
 62
7
  6
CONTINUOUS
 10
-1.0625333961
 20
-0.4618180825
 11
-1.0543783885
 21
-0.4541497961
  0
LINE
  5
263
100
AcDbEntity
  8
0
100
AcDbLine
 62
7
  6
CONTINUOUS
 10
-1.3980751586
 20
-1.503488941
 11
-1.3879963253
 21
-1.4947523227
  0
LWPOLYLINE
  5
264
100
AcDbEntity
  8
SUPERFICI
100
AcDbPolyline
 62
7
  6
CONTINUOUS
 90
11
 70
0
 10
-1.3879963139
 20
-1.4947523407
 10
-1.3980793322
 20
-1.5034925588
 10
-1.4111916883
 20
-1.5191858757
 10
-1.4220907278
 20
-1.5380326117
 10
-1.4303467
 20
-1.5595199238
 10
-1.4359494488
 20
-1.5836817616
 10
-1.4389087447
 20
-1.6104839518
 10
-1.4388249901
 20
-1.639311619
 10
-1.4355650208
 20
-1.6699598252
 10
-1.4292619362
 20
-1.7026334705
 10
-1.4199156859
 20
-1.7373325257
  0
LWPOLYLINE
  5
265
100
AcDbEntity
  8
SUPERFICI
100
AcDbPolyline
 62
7
  6
CONTINUOUS
 90
4
 70
0
 10
-1.1445174293
 20
0.3385116364
 10
-1.2174325001
 20
0.2758178494
 10
-1.2905179411
 20
0.1973958292
 10
-1.3571569489
 20
0.1082828357
  0
LINE
  5
266
100
AcDbEntity
  8
0
100
AcDbLine
 62
7
  6
CONTINUOUS
 10
-1.2174323172
 20
0.2758180066
 11
-1.1445174281
 21
0.3385116345
  0
LINE
  5
267
100
AcDbEntity
  8
SUPERFICI
100
AcDbLine
 62
7
  6
CONTINUOUS
 10
-0.8802078741
 20
-0.2156102891
 11
-0.8164931176
 21
-0.1618572705
  0
LINE
  5
268
100
AcDbEntity
  8
0
100
AcDbLine
 62
7
  6
CONTINUOUS
 10
-2.7417174145
 20
-0.5473733561
 11
-3.0898066204
 21
-0.8283311446
  0
LINE
  5
269
100
AcDbEntity
  8
SUPERFICI
100
AcDbLine
 62
7
  6
CONTINUOUS
 10
-3.0898066467
 20
-0.8283311658
 11
-2.7417174142
 21
-0.5473733559
  0
LINE
  5
26A
100
AcDbEntity
  8
0
100
AcDbLine
 62
7
  6
CONTINUOUS
 10
-1.7287728331
 20
-1.1322348916
 11
-2.0768613154
 21
-1.4131920959
  0
LINE
  5
26B
100
AcDbEntity
  8
SUPERFICI
100
AcDbLine
 62
7
  6
CONTINUOUS
 10
-2.0768612543
 20
-1.4131920466
 11
-1.7287728328
 21
-1.1322348914
  0
LINE
  5
26C
100
AcDbEntity
  8
SUPERFICI
100
AcDbLine
 62
7
  6
CONTINUOUS
 10
-2.0547414236
 20
-0.630426187
 11
-2.4031503012
 21
-0.9115681552
  0
LINE
  5
26D
100
AcDbEntity
  8
0
100
AcDbLine
 62
7
  6
CONTINUOUS
 10
-2.4031508207
 20
-0.9115685745
 11
-2.0547414192
 21
-0.6304261834
  0
LINE
  5
26E
100
AcDbEntity
  8
SUPERFICI
100
AcDbLine
 62
7
  6
CONTINUOUS
 10
-1.0713804373
 20
-0.4685169273
 11
-1.0625333961
 21
-0.4618180825
  0
LINE
  5
26F
100
AcDbEntity
  8
0
100
AcDbLine
 62
7
  6
CONTINUOUS
 10
-3.0676843352
 20
-0.0455633043
 11
-3.0654242122
 21
-0.0439454943
  0
LINE
  5
270
100
AcDbEntity
  8
SUPERFICI
100
AcDbLine
 62
7
  6
CONTINUOUS
 10
-3.0654242108
 20
-0.0439454966
 11
-3.0676843396
 21
-0.0455633079
  0
LINE
  5
271
100
AcDbEntity
  8
SUPERFICI
100
AcDbLine
 62
7
  6
CONTINUOUS
 10
-2.0471229401
 20
-0.6251657427
 11
-2.0547414236
 21
-0.630426187
  0
LINE
  5
272
100
AcDbEntity
  8
0
100
AcDbLine
 62
7
  6
CONTINUOUS
 10
-2.0547414192
 20
-0.6304261834
 11
-2.0471229402
 21
-0.6251657426
  0
LWPOLYLINE
  5
273
100
AcDbEntity
  8
0
100
AcDbPolyline
 62
7
  6
CONTINUOUS
 90
3
 70
0
 10
-3.0898066204
 20
-0.8283311446
 10
-3.1036601166
 20
-0.8377418125
 10
-3.1140741119
 20
-0.842843457
  0
LINE
  5
274
100
AcDbEntity
  8
SUPERFICI
100
AcDbLine
 62
7
  6
CONTINUOUS
 10
-1.0513430018
 20
0.4007097654
 11
-1.1445174293
 21
0.3385116364
  0
LWPOLYLINE
  5
275
100
AcDbEntity
  8
0
100
AcDbPolyline
 62
7
  6
CONTINUOUS
 90
13
 70
0
 10
-1.1445174281
 20
0.3385116345
 10
-1.0513426881
 20
0.4007099748
 10
-0.9583483292
 20
0.447174187
 10
-0.860727581
 20
0.4825376491
 10
-0.7587504444
 20
0.5066050492
 10
-0.6521563673
 20
0.5195662801
 10
-0.5419550929
 20
0.5215977556
 10
-0.4278152078
 20
0.5126062311
 10
-0.3100749474
 20
0.492681046
 10
-0.190748189
 20
0.462272687
 10
-0.0701643162
 20
0.4213778155
 10
0.0520019729
 20
0.3699974362
 10
0.1747194658
 20
0.3085889147
  0
LINE
  5
276
100
AcDbEntity
  8
0
100
AcDbLine
 62
253
  6
CONTINUOUS
 10
-2.0470375317
 20
-0.6252939456
 11
-2.0547417538
 21
-0.6304264779
  0
LINE
  5
277
100
AcDbEntity
  8
SUPERFICI
100
AcDbLine
 62
7
  6
CONTINUOUS
 10
-0.8164931176
 20
-0.1618572705
 11
-0.7468144911
 21
-0.1163621614
  0
LWPOLYLINE
  5
278
100
AcDbEntity
  8
0
100
AcDbPolyline
 62
7
  6
CONTINUOUS
 90
3
 70
0
 10
-2.0768613154
 20
-1.4131920959
 10
-2.0936540047
 20
-1.4237398323
 10
-2.0954641771
 20
-1.4246557992
  0
LINE
  5
279
100
AcDbEntity
  8
SUPERFICI
100
AcDbLine
 62
7
  6
CONTINUOUS
 10
-1.080797024
 20
-0.474156249
 11
-1.0713804373
 21
-0.4685169273
  0
LWPOLYLINE
  5
27A
100
AcDbEntity
  8
0
100
AcDbPolyline
 62
7
  6
CONTINUOUS
 90
28
 70
0
 10
-3.0654242122
 20
-0.0439454943
 10
-3.048780656
 20
-0.034097937
 10
-3.0287724994
 20
-0.0265518812
 10
-3.0076602647
 20
-0.0229253674
 10
-2.985166781
 20
-0.0233960418
 10
-2.9615698124
 20
-0.0277866009
 10
-2.937702054
 20
-0.0355647901
 10
-2.9135805818
 20
-0.0467430239
 10
-2.8891885002
 20
-0.061308992
 10
-2.8653074448
 20
-0.0786932928
 10
-2.8419210576
 20
-0.0989702273
 10
-2.8190454896
 20
-0.122065375
 10
-2.7975110671
 20
-0.1471862105
 10
-2.7773204195
 20
-0.1744877214
 10
-2.7584704028
 20
-0.203814623
 10
-2.7417827193
 20
-0.2339090025
 10
-2.7273863008
 20
-0.2647721528
 10
-2.715151656
 20
-0.2964024577
 10
-2.7055130622
 20
-0.3275377627
 10
-2.6985635401
 20
-0.3580700612
 10
-2.6942097412
 20
-0.3881071702
 10
-2.6926066848
 20
-0.416710841
 10
-2.6937819598
 20
-0.443901014
 10
-2.6977079175
 20
-0.469657714
 10
-2.7044570389
 20
-0.4929830025
 10
-2.7140536496
 20
-0.5135443291
 10
-2.7264737318
 20
-0.5316744221
 10
-2.7417174145
 20
-0.5473733561
  0
LINE
  5
27B
100
AcDbEntity
  8
0
100
AcDbLine
 62
253
  6
CONTINUOUS
 10
16.3499696854
 20
9.3737140911
 11
15.6582547224
 21
8.9743285105
  0
LWPOLYLINE
  5
27C
100
AcDbEntity
  8
0
100
AcDbPolyline
 62
7
  6
CONTINUOUS
 90
3
 70
0
 10
-2.0471229402
 20
-0.6251657426
 10
-2.0379135009
 20
-0.6198581031
 10
-2.0201100989
 20
-0.6125097694
  0
LINE
  5
27D
100
AcDbEntity
  8
SUPERFICI
100
AcDbLine
 62
7
  6
CONTINUOUS
 10
-0.9583492174
 20
0.447173806
 11
-1.0513430018
 21
0.4007097654
  0
LWPOLYLINE
  5
27E
100
AcDbEntity
  8
0
100
AcDbPolyline
 62
7
  6
CONTINUOUS
 90
7
 70
0
 10
-0.6746056673
 20
-0.0809271759
 10
-0.7468145046
 20
-0.116362168
 10
-0.8164931281
 20
-0.1618572773
 10
-0.8802078843
 20
-0.2156102976
 10
-0.9375192815
 20
-0.2773123383
 10
-0.9888613573
 20
-0.3472691462
 10
-1.034231062
 20
-0.4254789615
  0
LINE
  5
27F
100
AcDbEntity
  8
SUPERFICI
100
AcDbLine
 62
7
  6
CONTINUOUS
 10
-0.7468144911
 20
-0.1163621614
 11
-0.6746056673
 21
-0.0809271759
  0
LWPOLYLINE
  5
280
100
AcDbEntity
  8
SUPERFICI
100
AcDbPolyline
 62
7
  6
CONTINUOUS
 90
3
 70
0
 10
-3.11407411
 20
-0.8428434606
 10
-3.1036601219
 20
-0.8377418204
 10
-3.0898066467
 20
-0.8283311658
  0
LINE
  5
281
100
AcDbEntity
  8
SUPERFICI
100
AcDbLine
 62
7
  6
CONTINUOUS
 10
-1.0889189499
 20
-0.477976841
 11
-1.080797024
 21
-0.474156249
  0
LWPOLYLINE
  5
282
100
AcDbEntity
  8
0
100
AcDbPolyline
 62
7
  6
CONTINUOUS
 90
12
 70
0
 10
-1.0889186621
 20
-0.4779773937
 10
-1.0909193531
 20
-0.4787858358
 10
-1.1015327817
 20
-0.4823052311
 10
-1.1126079141
 20
-0.4847308012
 10
-1.1241521706
 20
-0.4860512021
 10
-1.1361582193
 20
-0.4862778286
 10
-1.1484826241
 20
-0.4854062078
 10
-1.16113001
 20
-0.4834227507
 10
-1.1740958193
 20
-0.4803410851
 10
-1.1872228394
 20
-0.4761975621
 10
-1.2004586788
 20
-0.4710043058
 10
-1.2138028061
 20
-0.4647739397
  0
LINE
  5
283
100
AcDbEntity
  8
0
100
AcDbLine
 62
7
  6
CONTINUOUS
 10
-3.1140741119
 20
-0.842843457
 11
-3.1187050325
 21
-0.8446499097
  0
LINE
  5
284
100
AcDbEntity
  8
0
100
AcDbLine
 62
7
  6
CONTINUOUS
 10
-0.5935577577
 20
-0.0531553836
 11
-0.6746056673
 21
-0.0809271759
  0
LWPOLYLINE
  5
285
100
AcDbEntity
  8
SUPERFICI
100
AcDbPolyline
 62
7
  6
CONTINUOUS
 90
43
 70
0
 10
-0.6746056673
 20
-0.0809271759
 10
-0.5935577408
 20
-0.0531553778
 10
-0.5099859685
 20
-0.0354473527
 10
-0.4229450204
 20
-0.0271429198
 10
-0.3322486493
 20
-0.0284018552
 10
-0.2380882507
 20
-0.039067337
 10
-0.1422046693
 20
-0.0588824294
 10
-0.0447769507
 20
-0.0879282841
 10
0.0543706923
 20
-0.1261256171
 10
0.1540300666
 20
-0.1729766084
 10
0.2544303472
 20
-0.2287271415
 10
0.3553416745
 20
-0.2931317251
 10
0.4548679366
 20
-0.3649551153
 10
0.5527325266
 20
-0.4440972833
 10
0.6492139763
 20
-0.5306571549
 10
0.7432494542
 20
-0.62369759
 10
0.8350856181
 20
-0.7236117769
 10
0.9244801275
 20
-0.8300040518
 10
1.0096368087
 20
-0.9407539069
 10
1.0902372642
 20
-1.0555757474
 10
1.166605458
 20
-1.1747519717
 10
1.2379084536
 20
-1.2970142352
 10
1.3043007129
 20
-1.4228400744
 10
1.3656343423
 20
-1.5517481736
 10
1.4206216898
 20
-1.6810325872
 10
1.468978218
 20
-1.810233493
 10
1.5109934601
 20
-1.9398078287
 10
1.5462391506
 20
-2.0684257751
 10
1.5747249196
 20
-2.1965235609
 10
1.5964454981
 20
-2.3236624299
 10
1.6109479106
 20
-2.4472014442
 10
1.6180853068
 20
-2.5666508275
 10
1.6180052186
 20
-2.6824999446
 10
1.6106936659
 20
-2.7935780549
 10
1.5959955188
 20
-2.900216943
 10
1.5740652872
 20
-3.0020851642
 10
1.5453508345
 20
-3.0970186481
 10
1.509852479
 20
-3.1845782671
 10
1.4675655135
 20
-3.265205673
 10
1.4189278501
 20
-3.3380593625
 10
1.3636378836
 20
-3.4032631819
 10
1.3019921798
 20
-3.4606961945
 10
1.2824835888
 20
-3.4762110014
  0
LINE
  5
286
100
AcDbEntity
  8
0
100
AcDbLine
 62
7
  6
CONTINUOUS
 10
-3.1187050325
 20
-0.8446499097
 11
-3.134941549
 21
-0.8490555412
  0
LINE
  5
287
100
AcDbEntity
  8
0
100
AcDbLine
 62
7
  6
CONTINUOUS
 10
-2.0201100989
 20
-0.6125097694
 11
-2.0013315115
 21
-0.6083813546
  0
LWPOLYLINE
  5
288
100
AcDbEntity
  8
0
100
AcDbPolyline
 62
7
  6
CONTINUOUS
 90
28
 70
0
 10
-2.1114253774
 20
-1.4310696732
 10
-2.1301757318
 20
-1.4351817917
 10
-2.1501218817
 20
-1.4359423053
 10
-2.1710474754
 20
-1.4334853645
 10
-2.1923029939
 20
-1.4282131515
 10
-2.213846834
 20
-1.4201356325
 10
-2.23572079
 20
-1.4092429522
 10
-2.2574003708
 20
-1.3959075211
 10
-2.2789062374
 20
-1.3800985319
 10
-2.3002176598
 20
-1.3618467519
 10
-2.3207480026
 20
-1.3416169196
 10
-2.3405394671
 20
-1.3192666155
 10
-2.3595495474
 20
-1.2949380824
 10
-2.3770645365
 20
-1.2695230457
 10
-2.3929802779
 20
-1.243057721
 10
-2.4074005204
 20
-1.2155056564
 10
-2.4199234874
 20
-1.1876496183
 10
-2.4305115649
 20
-1.1593894557
 10
-2.4392019736
 20
-1.1308250915
 10
-2.4457053739
 20
-1.1030395111
 10
-2.4499448277
 20
-1.0762359376
 10
-2.4519971405
 20
-1.0502110711
 10
-2.451803792
 20
-1.0254382304
 10
-2.4493534096
 20
-1.0017964234
 10
-2.4446573386
 20
-0.9794066266
 10
-2.4376913369
 20
-0.9591052281
 10
-2.4284474604
 20
-0.9411711034
 10
-2.4169339177
 20
-0.9253255306
  0
LINE
  5
289
100
AcDbEntity
  8
0
100
AcDbLine
 62
7
  6
CONTINUOUS
 10
-3.134941549
 20
-0.8490555412
 11
-3.1525504415
 21
-0.8509860131
  0
LWPOLYLINE
  5
28A
100
AcDbEntity
  8
0
100
AcDbPolyline
 62
7
  6
CONTINUOUS
 90
3
 70
0
 10
-2.0013315115
 20
-0.6083813546
 10
-1.9813614535
 20
-0.6076070476
 10
-1.9604166721
 20
-0.6100529264
  0
LINE
  5
28B
100
AcDbEntity
  8
SUPERFICI
100
AcDbLine
 62
7
  6
CONTINUOUS
 10
-2.9851667517
 20
-0.0233960472
 11
-3.0076602085
 21
-0.0229253686
  0
LINE
  5
28C
100
AcDbEntity
  8
0
100
AcDbLine
 62
7
  6
CONTINUOUS
 10
-3.1525504415
 20
-0.8509860131
 11
-3.1713512276
 21
-0.850414189
  0
LINE
  5
28D
100
AcDbEntity
  8
0
100
AcDbLine
 62
7
  6
CONTINUOUS
 10
-3.1713512276
 20
-0.850414189
 11
-3.1908021956
 21
-0.8472585073
  0
LINE
  5
28E
100
AcDbEntity
  8
SUPERFICI
100
AcDbLine
 62
7
  6
CONTINUOUS
 10
-2.9615697679
 20
-0.0277866154
 11
-2.9851667517
 21
-0.0233960472
  0
LWPOLYLINE
  5
28F
100
AcDbEntity
  8
0
100
AcDbPolyline
 62
7
  6
CONTINUOUS
 90
26
 70
0
 10
-1.9604166721
 20
-0.6100529264
 10
-1.9391469452
 20
-0.6153169577
 10
-1.9175941338
 20
-0.6233893276
 10
-1.895716568
 20
-0.6342799603
 10
-1.8740386597
 20
-0.6476163901
 10
-1.8525397633
 20
-0.6634294292
 10
-1.8312404555
 20
-0.6816882256
 10
-1.8107269233
 20
-0.701927784
 10
-1.7909569318
 20
-0.7242905095
 10
-1.7719724112
 20
-0.7486338209
 10
-1.7544857852
 20
-0.7740652376
 10
-1.7386008752
 20
-0.80054834
 10
-1.724213452
 20
-0.8281193121
 10
-1.7117239352
 20
-0.85599462
 10
-1.7011697477
 20
-0.8842743053
 10
-1.6925130732
 20
-0.912858099
 10
-1.6860416578
 20
-0.9406621089
 10
-1.6818321035
 20
-0.9674829254
 10
-1.6798076755
 20
-0.9935238811
 10
-1.6800263191
 20
-1.0183113157
 10
-1.6824995127
 20
-1.0419662795
 10
-1.6872157507
 20
-1.0643677063
 10
-1.6941987031
 20
-1.0846788767
 10
-1.7034563967
 20
-1.1026209635
 10
-1.7149810694
 20
-1.1184729469
 10
-1.7287728331
 20
-1.1322348916
  0
LINE
  5
290
100
AcDbEntity
  8
0
100
AcDbLine
 62
7
  6
CONTINUOUS
 10
-3.1908021956
 20
-0.8472585073
 11
-3.210722806
 21
-0.8414918377
  0
LINE
  5
291
100
AcDbEntity
  8
SUPERFICI
100
AcDbLine
 62
7
  6
CONTINUOUS
 10
-2.9377019995
 20
-0.0355648153
 11
-2.9615697679
 21
-0.0277866154
  0
LWPOLYLINE
  5
292
100
AcDbEntity
  8
SUPERFICI
100
AcDbPolyline
 62
7
  6
CONTINUOUS
 90
14
 70
0
 10
-3.7638085092
 20
1.4961752938
 10
-3.7755747886
 20
1.5010543889
 10
-3.7870775275
 20
1.5050206144
 10
-3.7982895914
 20
1.5081008979
 10
-3.8091491786
 20
1.510384126
 10
-3.8196048845
 20
1.5118842653
 10
-3.8297080824
 20
1.5125873673
 10
-3.8395511367
 20
1.512540446
 10
-3.8492006682
 20
1.5117496324
 10
-3.8585900093
 20
1.5102088224
 10
-3.8676115924
 20
1.5079466771
 10
-3.8762450166
 20
1.5049641613
 10
-3.8845106334
 20
1.5012603386
 10
-3.8923620076
 20
1.4968610157
  0
LINE
  5
293
100
AcDbEntity
  8
SUPERFICI
100
AcDbLine
 62
7
  6
CONTINUOUS
 10
-2.913580549
 20
-0.0467430435
 11
-2.9377019995
 21
-0.0355648153
  0
LWPOLYLINE
  5
294
100
AcDbEntity
  8
SUPERFICI
100
AcDbPolyline
 62
7
  6
CONTINUOUS
 90
3
 70
0
 10
-3.7393844178
 20
1.4837511199
 10
-3.7517385248
 20
1.4904048326
 10
-3.7638019835
 20
1.4961725879
  0
LWPOLYLINE
  5
295
100
AcDbEntity
  8
SUPERFICI
100
AcDbPolyline
 62
7
  6
CONTINUOUS
 90
13
 70
0
 10
-1.2274175546
 20
-0.4574302992
 10
-1.2137952369
 20
-0.4647780225
 10
-1.2003398547
 20
-0.4710539637
 10
-1.1870513986
 20
-0.4762581175
 10
-1.1738750615
 20
-0.4804013907
 10
-1.1608656137
 20
-0.4834728552
 10
-1.1481874044
 20
-0.4854397493
 10
-1.1358477939
 20
-0.4862865824
 10
-1.1238393543
 20
-0.4860288061
 10
-1.1123042519
 20
-0.4846800721
 10
-1.1012520769
 20
-0.4822298818
 10
-1.0906731514
 20
-0.4786886833
 10
-1.0889189499
 20
-0.477976841
  0
LINE
  5
296
100
AcDbEntity
  8
0
100
AcDbLine
 62
7
  6
CONTINUOUS
 10
-1.2138028061
 20
-0.4647739397
 11
-1.2274141083
 21
-0.4574322891
  0
LINE
  5
297
100
AcDbEntity
  8
SUPERFICI
100
AcDbLine
 62
7
  6
CONTINUOUS
 10
-1.2274176228
 20
-0.4574302598
 11
-3.6302704866
 21
0.9299468689
  0
LINE
  5
298
100
AcDbEntity
  8
0
100
AcDbLine
 62
7
  6
CONTINUOUS
 10
-1.2274176228
 20
-0.4574302598
 11
-3.6302704866
 21
0.9299468689
  0
LINE
  5
299
100
AcDbEntity
  8
SUPERFICI
100
AcDbLine
 62
7
  6
CONTINUOUS
 10
-1.3571569489
 20
0.1082828357
 11
-3.7393843078
 21
1.4837510564
  0
LINE
  5
29A
100
AcDbEntity
  8
0
100
AcDbLine
 62
7
  6
CONTINUOUS
 10
-1.3571569489
 20
0.1082828357
 11
-3.7393843078
 21
1.4837510564
  0
LWPOLYLINE
  5
29B
100
AcDbEntity
  8
SUPERFICI
100
AcDbPolyline
 62
7
  6
CONTINUOUS
 90
3
 70
0
 10
-2.865307414
 20
-0.0786933196
 10
-2.8891884218
 20
-0.0613090424
 10
-2.9135804864
 20
-0.0467430725
  0
LWPOLYLINE
  5
29C
100
AcDbEntity
  8
SUPERFICI
100
AcDbPolyline
 62
7
  6
CONTINUOUS
 90
18
 70
0
 10
-1.046810117
 20
-1.7234088423
 10
-1.0612307415
 20
-1.6912080253
 10
-1.0774938568
 20
-1.6605315477
 10
-1.0958594174
 20
-1.6311166985
 10
-1.1160681221
 20
-1.603226567
 10
-1.1373414528
 20
-1.5776500649
 10
-1.1596632534
 20
-1.5544411498
 10
-1.1830501236
 20
-1.5335461209
 10
-1.2067726415
 20
-1.5155923807
 10
-1.2309137385
 20
-1.5006055445
 10
-1.2553905901
 20
-1.4885600587
 10
-1.279225057
 20
-1.4800065237
 10
-1.3024131121
 20
-1.475114331
 10
-1.3249585047
 20
-1.4737139282
 10
-1.3458947046
 20
-1.4758474669
 10
-1.3651003171
 20
-1.4816554949
 10
-1.382696215
 20
-1.490997162
 10
-1.3879963139
 20
-1.4947523407
  0
LINE
  5
29D
100
AcDbEntity
  8
SUPERFICI
100
AcDbLine
 62
7
  6
CONTINUOUS
 10
-1.0342315889
 20
-1.75713377
 11
-1.0468100457
 21
-1.7234090337
  0
LWPOLYLINE
  5
29E
100
AcDbEntity
  8
0
100
AcDbPolyline
 62
7
  6
CONTINUOUS
 90
29
 70
0
 10
-1.0342315817
 20
-1.7571337861
 10
-0.989010453
 20
-1.8869830807
 10
-0.9378400336
 20
-2.0154690826
 10
-0.8807233406
 20
-2.1425935349
 10
-0.8172212528
 20
-2.269174157
 10
-0.7477782864
 20
-2.3943963497
 10
-0.6737236109
 20
-2.5158137847
 10
-0.595140197
 20
-2.6331022298
 10
-0.5119513818
 20
-2.7465895757
 10
-0.4252477497
 20
-2.8548081827
 10
-0.3348084998
 20
-2.9578688273
 10
-0.2408595284
 20
-3.0556636934
 10
-0.1451615247
 20
-3.1463972874
 10
-0.0479090596
 20
-3.22977147
 10
0.0510891693
 20
-3.3060862817
 10
0.1506516638
 20
-3.3744432767
 10
0.2510387159
 20
-3.434874413
 10
0.3519893215
 20
-3.4873481471
 10
0.4515406673
 20
-3.5308704145
 10
0.5493768296
 20
-3.5652036228
 10
0.6458156224
 20
-3.5905842646
 10
0.7398454131
 20
-3.6067290694
 10
0.8317308178
 20
-3.6135374692
 10
0.9212115089
 20
-3.6111075387
 10
1.0064886057
 20
-3.5994538747
 10
1.0872421432
 20
-3.57849567
 10
1.163797645
 20
-3.5483105048
 10
1.2353241911
 20
-3.5091507173
 10
1.2824835889
 20
-3.4762110016
  0
LINE
  5
29F
100
AcDbEntity
  8
SUPERFICI
100
AcDbLine
 62
7
  6
CONTINUOUS
 10
-0.9890104558
 20
-1.8869830744
 11
-1.0342315889
 21
-1.75713377
  0
LWPOLYLINE
  5
2A0
100
AcDbEntity
  8
0
100
AcDbPolyline
 62
7
  6
CONTINUOUS
 90
10
 70
0
 10
-1.4199236533
 20
-1.7373078945
 10
-1.4292673099
 20
-1.7026108388
 10
-1.435568054
 20
-1.6699392052
 10
-1.4388259359
 20
-1.639293023
 10
-1.4389078715
 20
-1.6104674069
 10
-1.4359470098
 20
-1.5836672801
 10
-1.430342903
 20
-1.5595074725
 10
-1.4220857737
 20
-1.5380221617
 10
-1.4111857849
 20
-1.5191773938
 10
-1.3980751586
 20
-1.503488941
  0
LWPOLYLINE
  5
2A1
100
AcDbEntity
  8
SUPERFICI
100
AcDbPolyline
 62
7
  6
CONTINUOUS
 90
24
 70
0
 10
2.0419451689
 20
-2.9454903041
 10
2.0422183567
 20
-2.8018963504
 10
2.0339964008
 20
-2.6529555646
 10
2.0173712758
 20
-2.5007230839
 10
1.9921554969
 20
-2.3449795763
 10
1.9585337115
 20
-2.1859460435
 10
1.9171522175
 20
-2.0263403562
 10
1.8680118336
 20
-1.8665217609
 10
1.8111048399
 20
-1.7061350091
 10
1.747061774
 20
-1.5468279243
 10
1.6755852591
 20
-1.3881922713
 10
1.5969648457
 20
-1.2306407991
 10
1.5127092738
 20
-1.0770540591
 10
1.4230458741
 20
-0.9280047851
 10
1.3277378684
 20
-0.7829256711
 10
1.2275965183
 20
-0.6429879591
 10
1.1222052892
 20
-0.5077852485
 10
1.0119729208
 20
-0.377728408
 10
0.8989482836
 20
-0.2552147539
 10
0.7834936376
 20
-0.1407486329
 10
0.6652405878
 20
-0.0338292087
 10
0.545142229
 20
0.0646540963
 10
0.422715419
 20
0.1549343326
 10
0.2984403771
 20
0.2367767788
  0
LINE
  5
2A2
100
AcDbEntity
  8
0
100
AcDbLine
 62
7
  6
CONTINUOUS
 10
2.0422186369
 20
-2.8019067273
 11
2.0419448347
 21
-2.9455005865
  0
LWPOLYLINE
  5
2A3
100
AcDbEntity
  8
0
100
AcDbPolyline
 62
7
  6
CONTINUOUS
 90
11
 70
0
 10
2.0419448347
 20
-2.9455005865
 10
2.0330689758
 20
-3.0836625176
 10
2.0156972141
 20
-3.2164779348
 10
1.9900535592
 20
-3.3421494331
 10
1.9559429349
 20
-3.4606846713
 10
1.9135563658
 20
-3.5720783031
 10
1.8636933392
 20
-3.6745155431
 10
1.8063819068
 20
-3.7676587651
 10
1.7415862587
 20
-3.851850069
 10
1.6700073858
 20
-3.9262958308
 10
1.5913394693
 20
-3.9910349005
  0
LWPOLYLINE
  5
2A4
100
AcDbEntity
  8
0
100
AcDbPolyline
 62
7
  6
CONTINUOUS
 90
19
 70
0
 10
-1.3879963253
 20
-1.4947523227
 10
-1.3826889495
 20
-1.490992342
 10
-1.3650926388
 20
-1.4816523686
 10
-1.3458868059
 20
-1.4758458871
 10
-1.3249505982
 20
-1.4737137522
 10
-1.3024053903
 20
-1.4751154114
 10
-1.2792176626
 20
-1.4800086438
 10
-1.2553836833
 20
-1.4885629717
 10
-1.2309074619
 20
-1.5006090335
 10
-1.2067670354
 20
-1.5155962506
 10
-1.1830452109
 20
-1.5335501717
 10
-1.1596590743
 20
-1.5544451861
 10
-1.1373379962
 20
-1.577653928
 10
-1.1160653804
 20
-1.6032300934
 10
-1.0958573796
 20
-1.6311197295
 10
-1.0774924504
 20
-1.6605339748
 10
-1.0612298738
 20
-1.6912097571
 10
-1.0468097158
 20
-1.7234097704
 10
-1.0342315817
 20
-1.7571337861
  0
LWPOLYLINE
  5
2A5
100
AcDbEntity
  8
RACCORDO
100
AcDbPolyline
 62
253
  6
CONTINUOUS
 90
19
 70
0
 10
15.6582547224
 20
8.9743285105
 10
15.6028664684
 20
8.9390785707
 10
15.5479327673
 20
8.8992008736
 10
15.4937790219
 20
8.8549375021
 10
15.4407215477
 20
8.8065585633
 10
15.3890790469
 20
8.7543551608
 10
15.3391705711
 20
8.6986379934
 10
15.2912930503
 20
8.6397454537
 10
15.2457279777
 20
8.5780323022
 10
15.2027533922
 20
8.513861945
 10
15.1626243474
 20
8.4476208485
 10
15.1255778233
 20
8.3797086099
 10
15.0918403519
 20
8.3105261118
 10
15.0616122446
 20
8.2404873525
 10
15.0350730695
 20
8.1700162176
 10
15.0123872796
 20
8.0995357943
 10
14.9936915326
 20
8.0294697045
 10
14.9790943329
 20
7.9602395387
 10
14.9686822153
 20
7.8922613924
  0
LWPOLYLINE
  5
2A6
100
AcDbEntity
  8
RACCORDO
100
AcDbPolyline
 62
253
  6
CONTINUOUS
 90
19
 70
0
 10
16.0116869591
 20
8.3621659201
 10
15.9835446065
 20
8.34467127
 10
15.9559007776
 20
8.3250814463
 10
15.9287554722
 20
8.303396449
 10
15.9019347559
 20
8.2794521851
 10
15.8756125632
 20
8.2534127476
 10
15.8503106976
 20
8.2257704156
 10
15.8260640377
 20
8.1965065992
 10
15.8028377049
 20
8.1656398883
 10
15.7810488675
 20
8.1337183324
 10
15.7607213928
 20
8.1007169841
 10
15.7418314135
 20
8.0666607909
 10
15.7247244956
 20
8.032172645
 10
15.7094333702
 20
7.9972273399
 10
15.6959253063
 20
7.9618500822
 10
15.6844476773
 20
7.9267393842
 10
15.6750829412
 20
7.8921280832
 10
15.6677486401
 20
7.8577833419
 10
15.662444774
 20
7.8237051602
  0
LINE
  5
2A7
100
AcDbEntity
  8
0
100
AcDbLine
 62
253
  6
CONTINUOUS
 10
16.7034019221
 20
8.7615515008
 11
16.0116869591
 21
8.3621659201
  0
LWPOLYLINE
  5
2A8
100
AcDbEntity
  8
SUPERFICI
100
AcDbPolyline
 62
7
  6
CONTINUOUS
 90
3
 70
0
 10
-2.0954641779
 20
-1.4246557978
 10
-2.093653961
 20
-1.4237398077
 10
-2.0768612543
 20
-1.4131920466
  0
LINE
  5
2A9
100
AcDbEntity
  8
0
100
AcDbLine
 62
7
  6
CONTINUOUS
 10
-2.0954641771
 20
-1.4246557992
 11
-2.1114253774
 21
-1.4310696732
  0
LINE
  5
2AA
100
AcDbEntity
  8
0
100
AcDbLine
 62
7
  6
CONTINUOUS
 10
-3.8676192347
 20
1.5079443956
 11
-3.8585989617
 21
1.5102069577
  0
LWPOLYLINE
  5
2AB
100
AcDbEntity
  8
SUPERFICI
100
AcDbPolyline
 62
7
  6
CONTINUOUS
 90
4
 70
0
 10
-3.0076602085
 20
-0.0229253686
 10
-3.0287724242
 20
-0.0265518718
 10
-3.0487806153
 20
-0.0340979309
 10
-3.0654242108
 20
-0.0439454966
  0
LWPOLYLINE
  5
2AC
100
AcDbEntity
  8
0
100
AcDbPolyline
 62
7
  6
CONTINUOUS
 90
5
 70
0
 10
-3.8585989617
 20
1.5102069577
 10
-3.849210837
 20
1.5117484165
 10
-3.8395623357
 20
1.5125399832
 10
-3.8297202364
 20
1.5125878094
 10
-3.8196178072
 20
1.5118857166
  0
LWPOLYLINE
  5
2AD
100
AcDbEntity
  8
0
100
AcDbPolyline
 62
7
  6
CONTINUOUS
 90
8
 70
0
 10
-3.8196178072
 20
1.5118857166
 10
-3.8091622575
 20
1.5103864202
 10
-3.7983020831
 20
1.5081039018
 10
-3.7870888194
 20
1.5050241618
 10
-3.7755842349
 20
1.5010579446
 10
-3.763808927
 20
1.4961754936
 10
-3.7517423195
 20
1.4904065531
 10
-3.7393844179
 20
1.4837511199
  0
LWPOLYLINE
  5
2AE
100
AcDbEntity
  8
SUPERFICI
100
AcDbPolyline
 62
7
  6
CONTINUOUS
 90
11
 70
0
 10
0.1747159995
 20
0.3085907893
 10
0.0519987517
 20
0.3699989235
 10
-0.0701672748
 20
0.4213789403
 10
-0.1907508821
 20
0.4622734867
 10
-0.3100773758
 20
0.4926815615
 10
-0.4278173688
 20
0.5126064996
 10
-0.5419569889
 20
0.5215978157
 10
-0.6521579988
 20
0.5195661694
 10
-0.7587518139
 20
0.5066048063
 10
-0.8607287021
 20
0.4825373156
 10
-0.9583492174
 20
0.447173806
  0
LINE
  5
2AF
100
AcDbEntity
  8
SUPERFICI
100
AcDbLine
 62
7
  6
CONTINUOUS
 10
0.2984403771
 20
0.2367767788
 11
0.1747159995
 21
0.3085907893
  0
LWPOLYLINE
  5
2B0
100
AcDbEntity
  8
0
100
AcDbPolyline
 62
7
  6
CONTINUOUS
 90
24
 70
0
 10
0.1747194658
 20
0.3085889147
 10
0.2984440671
 20
0.2367744944
 10
0.4227193151
 20
0.1549316135
 10
0.5451463087
 20
0.0646509218
 10
0.6652448307
 20
-0.0338328641
 10
0.7834980215
 20
-0.1407527898
 10
0.8989527757
 20
-0.2552194149
 10
1.0119774866
 20
-0.3777335716
 10
1.122209896
 20
-0.5077909172
 10
1.2276011287
 20
-0.6429941287
 10
1.3277424445
 20
-0.7829323418
 10
1.4230503786
 20
-0.9280119528
 10
1.5127136652
 20
-1.0770617011
 10
1.5969690826
 20
-1.230648891
 10
1.6755893002
 20
-1.3882007904
 10
1.7470655732
 20
-1.5468368343
 10
1.8111083481
 20
-1.7061442729
 10
1.8680150047
 20
-1.8665313421
 10
1.9171550098
 20
-2.0263502074
 10
1.9585360839
 20
-2.1859561198
 10
1.9921574075
 20
-2.3449898301
 10
2.0173726847
 20
-2.500733449
 10
2.0339972653
 20
-2.6529659687
 10
2.0422186369
 20
-2.8019067273
  0
LWPOLYLINE
  5
2B1
100
AcDbEntity
  8
SUPERFICI
100
AcDbPolyline
 62
7
  6
CONTINUOUS
 90
10
 70
0
 10
1.6700141349
 20
-3.9262895828
 10
1.7415922677
 20
-3.8518430917
 10
1.8063871686
 20
-3.7676511166
 10
1.8636978602
 20
-3.6745072957
 10
1.9135601525
 20
-3.5720695339
 10
1.9559459934
 20
-3.4606754529
 10
1.9900559073
 20
-3.3421398385
 10
2.0156988692
 20
-3.2164680397
 10
2.0330699554
 20
-3.0836523952
 10
2.0419451689
 20
-2.9454903041
  0
LWPOLYLINE
  5
2B2
100
AcDbEntity
  8
0
100
AcDbPolyline
 62
7
  6
CONTINUOUS
 90
41
 70
0
 10
1.3019922091
 20
-3.4606961706
 10
1.3636379086
 20
-3.4032631558
 10
1.418927871
 20
-3.3380593347
 10
1.4675655306
 20
-3.2652056444
 10
1.5098524924
 20
-3.1845782381
 10
1.5453508447
 20
-3.0970186192
 10
1.5740652946
 20
-3.0020851355
 10
1.5959955238
 20
-2.9002169147
 10
1.6106936687
 20
-2.793578027
 10
1.6180052194
 20
-2.6824999168
 10
1.618085306
 20
-2.5666507998
 10
1.6109479082
 20
-2.4472014165
 10
1.5964454941
 20
-2.323662402
 10
1.574724914
 20
-2.1965235328
 10
1.5462391436
 20
-2.0684257469
 10
1.5109934518
 20
-1.9398078008
 10
1.4689782085
 20
-1.8102334658
 10
1.4206216793
 20
-1.6810325608
 10
1.3656343311
 20
-1.5517481483
 10
1.304300701
 20
-1.4228400506
 10
1.237908441
 20
-1.2970142125
 10
1.1666054444
 20
-1.1747519495
 10
1.0902372495
 20
-1.0555757254
 10
1.0096367923
 20
-0.9407538847
 10
0.9244801088
 20
-0.8300040286
 10
0.8350855966
 20
-0.7236117524
 10
0.7432494294
 20
-0.6236975643
 10
0.6492139477
 20
-0.530657128
 10
0.5527324938
 20
-0.4440972553
 10
0.4548678996
 20
-0.364955087
 10
0.3553416332
 20
-0.2931316972
 10
0.2544303017
 20
-0.2287271145
 10
0.1540300179
 20
-0.1729765834
 10
0.0543706412
 20
-0.1261255952
 10
-0.0447770032
 20
-0.0879282663
 10
-0.1422047219
 20
-0.0588824161
 10
-0.2380883019
 20
-0.0390673286
 10
-0.3322486978
 20
-0.0284018521
 10
-0.4229450655
 20
-0.0271429216
 10
-0.5099860096
 20
-0.0354473587
 10
-0.5935577577
 20
-0.0531553836
  0
LINE
  5
2B3
100
AcDbEntity
  8
SUPERFICI
100
AcDbLine
 62
7
  6
CONTINUOUS
 10
1.591343093
 20
-3.9910319184
 11
1.6700141349
 21
-3.9262895828
  0
LINE
  5
2B4
100
AcDbEntity
  8
0
100
AcDbLine
 62
7
  6
CONTINUOUS
 10
1.2824835889
 20
-3.4762110016
 11
1.3019922091
 21
-3.4606961706
  0
LINE
  5
2B5
100
AcDbEntity
  8
SUPERFICI
100
AcDbLine
 62
7
  6
CONTINUOUS
 10
1.2824835888
 20
-3.4762110014
 11
1.2353241769
 21
-3.509150725
  0
LINE
  5
2B6
100
AcDbEntity
  8
SUPERFICI
100
AcDbLine
 62
7
  6
CONTINUOUS
 10
1.5058882589
 20
-4.0460285948
 11
1.591343093
 21
-3.9910319184
  0
LWPOLYLINE
  5
2B7
100
AcDbEntity
  8
0
100
AcDbPolyline
 62
7
  6
CONTINUOUS
 90
3
 70
0
 10
1.5913394693
 20
-3.9910349005
 10
1.505880048
 20
-4.0460332211
 10
1.4147086054
 20
-4.0906079003
  0
LWPOLYLINE
  5
2B8
100
AcDbEntity
  8
SUPERFICI
100
AcDbPolyline
 62
7
  6
CONTINUOUS
 90
27
 70
0
 10
1.235324158
 20
-3.5091507382
 10
1.1637976089
 20
-3.5483105218
 10
1.0872421048
 20
-3.5784956823
 10
1.0064885661
 20
-3.5994538825
 10
0.9212114696
 20
-3.611107542
 10
0.8317307801
 20
-3.6135374683
 10
0.7398453776
 20
-3.606729065
 10
0.6458155901
 20
-3.5905842577
 10
0.5493768012
 20
-3.5652036142
 10
0.4515406429
 20
-3.5308704049
 10
0.3519893011
 20
-3.4873481373
 10
0.2510386994
 20
-3.4348744039
 10
0.150651651
 20
-3.3744432685
 10
0.0510891598
 20
-3.3060862748
 10
-0.0479090661
 20
-3.2297714648
 10
-0.1451615288
 20
-3.1463972837
 10
-0.2408595306
 20
-3.0556636911
 10
-0.3348085007
 20
-2.9578688263
 10
-0.4252477496
 20
-2.8548081828
 10
-0.5119513809
 20
-2.7465895768
 10
-0.5951401957
 20
-2.6331022317
 10
-0.6737236092
 20
-2.5158137874
 10
-0.747778284
 20
-2.3943963541
 10
-0.8172212497
 20
-2.2691741631
 10
-0.8807233381
 20
-2.1425935402
 10
-0.9378400331
 20
-2.0154690834
 10
-0.9890104558
 20
-1.8869830744
  0
LINE
  5
2B9
100
AcDbEntity
  8
SUPERFICI
100
AcDbLine
 62
7
  6
CONTINUOUS
 10
1.4147086046
 20
-4.0906078989
 11
1.5058882589
 21
-4.0460285948
  0
LWPOLYLINE
  5
2BA
100
AcDbEntity
  8
0
100
AcDbPolyline
 62
7
  6
CONTINUOUS
 90
27
 70
0
 10
1.4147086054
 20
-4.0906079003
 10
1.3196399447
 20
-4.1238544351
 10
1.2188500471
 20
-4.1466826809
 10
1.1137309593
 20
-4.1587226242
 10
1.0038742428
 20
-4.1598623733
 10
0.8896810769
 20
-4.1502180448
 10
0.7732331773
 20
-4.1299806896
 10
0.6548814074
 20
-4.0991128942
 10
0.5342698201
 20
-4.0576550352
 10
0.412420329
 20
-4.0059146091
 10
0.2888781696
 20
-3.9435362457
 10
0.1640964053
 20
-3.8708763074
 10
0.0404595231
 20
-3.7893094056
 10
-0.0816027172
 20
-3.699000844
 10
-0.2025182238
 20
-3.599784239
 10
-0.3211881754
 20
-3.4925361834
 10
-0.4378731967
 20
-3.3769055337
 10
-0.5523074123
 20
-3.2532403732
 10
-0.6626017674
 20
-3.1234658548
 10
-0.7684652744
 20
-2.9878601458
 10
-0.87018129
 20
-2.8461406381
 10
-0.9667221548
 20
-2.6993912528
 10
-1.058299513
 20
-2.547155747
 10
-1.1446918178
 20
-2.3898846129
 10
-1.224222289
 20
-2.2300222651
 10
-1.2963292006
 20
-2.0683818891
 10
-1.3615647507
 20
-1.9041447841
  0
LINE
  5
2BB
100
AcDbEntity
  8
RACCORDO
100
AcDbLine
 62
253
  6
CONTINUOUS
 10
14.2476081037
 20
-2.0852237568
 11
-16.4948027213
 21
15.6650589606
  0
LWPOLYLINE
  5
2BC
100
AcDbEntity
  8
RACCORDO
100
AcDbPolyline
 62
253
  6
CONTINUOUS
 90
16
 70
0
 10
14.94527496
 20
-2.0982908133
 10
14.9061768638
 20
-2.1168076159
 10
14.8638466273
 20
-2.1329096529
 10
14.8187327153
 20
-2.1464263323
 10
14.7713130839
 20
-2.1572144526
 10
14.7220901172
 20
-2.1651597199
 10
14.6715853044
 20
-2.1701779585
 10
14.6203337153
 20
-2.1722160031
 10
14.5688783313
 20
-2.1712522617
 10
14.5177642929
 20
-2.1672969447
 10
14.4675331241
 20
-2.1603919563
 10
14.4187169957
 20
-2.150610451
 10
14.3718330867
 20
-2.1380560582
 10
14.3273781055
 20
-2.1228617847
 10
14.2858230272
 20
-2.105188605
 10
14.2476081042
 20
-2.0852237565
  0
LWPOLYLINE
  5
2BD
100
AcDbEntity
  8
RACCORDO
100
AcDbPolyline
 62
253
  6
CONTINUOUS
 90
19
 70
0
 10
15.662444774
 20
-26.7318053865
 10
15.6677486352
 20
-26.7600635647
 10
15.6750794675
 20
-26.7863625173
 10
15.6844372709
 20
-26.8107022443
 10
15.6959040923
 20
-26.8332234926
 10
15.7093978848
 20
-26.8537855154
 10
15.724672507
 20
-26.8719660717
 10
15.7417569364
 20
-26.8877057687
 10
15.7606221954
 20
-26.9010639992
 10
15.7809352095
 20
-26.9117967014
 10
15.8027265705
 20
-26.9198557769
 10
15.8259656866
 20
-26.925289324
 10
15.8502277074
 20
-26.9279975759
 10
15.8755467263
 20
-26.9279200151
 10
15.9018886499
 20
-26.9251171591
 10
15.9287263481
 20
-26.9196707928
 10
15.9558841106
 20
-26.9116081779
 10
15.9835376476
 20
-26.9009020528
 10
16.0116869591
 20
-26.8875524175
  0
LWPOLYLINE
  5
2BE
100
AcDbEntity
  8
RACCORDO
100
AcDbPolyline
 62
253
  6
CONTINUOUS
 90
10
 70
0
 10
14.9686822153
 20
-26.7852318561
 10
14.9790944039
 20
-26.8415028522
 10
14.9936916143
 20
-26.8943112286
 10
15.0123872374
 20
-26.9433408851
 10
15.0350726392
 20
-26.9883001441
 10
15.0616111322
 20
-27.0289187717
 10
15.0918384575
 20
-27.0649499828
 10
15.1255751263
 20
-27.0961792514
 10
15.1626208662
 20
-27.122421772
 10
15.1702631472
 20
-27.1269739114
  0
LWPOLYLINE
  5
2BF
100
AcDbEntity
  8
RACCORDO
100
AcDbPolyline
 62
253
  6
CONTINUOUS
 90
10
 70
0
 10
14.2476081037
 20
-17.5981590159
 10
14.2725726938
 20
-18.653369319
 10
14.3113548985
 20
-19.7004842604
 10
14.3639467276
 20
-20.7392822361
 10
14.4303377675
 20
-21.7695436363
 10
14.5105139027
 20
-22.7910503213
 10
14.6044573267
 20
-23.8035856627
 10
14.7121482488
 20
-24.8069353515
 10
14.8335648905
 20
-25.8008874486
 10
14.9686822153
 20
-26.7852318561
  0
LWPOLYLINE
  5
2C0
100
AcDbEntity
  8
RACCORDO
100
AcDbPolyline
 62
253
  6
CONTINUOUS
 90
10
 70
0
 10
14.94527496
 20
-17.5957131371
 10
14.970121089
 20
-18.6454068871
 10
15.008689976
 20
-19.6866226197
 10
15.0609816209
 20
-20.7193603349
 10
15.1270132323
 20
-21.743840139
 10
15.2067676016
 20
-22.7598419257
 10
15.300193103
 20
-23.7667053757
 10
15.4072725279
 20
-24.7642103827
 10
15.5280230849
 20
-25.7525770529
 10
15.662444774
 20
-26.7318053865
  0
LWPOLYLINE
  5
2C1
100
AcDbEntity
  8
RACCORDO
100
AcDbPolyline
 62
253
  6
CONTINUOUS
 90
10
 70
0
 10
14.2476081037
 20
-2.0852237568
 10
14.2217343937
 20
-3.8229870669
 10
14.2023293247
 20
-5.5572784743
 10
14.1893928502
 20
-7.2880672674
 10
14.1829248537
 20
-9.0152993956
 10
14.1829248503
 20
-10.7389677876
 10
14.189392841
 20
-12.4591118578
 10
14.202329313
 20
-14.1757239733
 10
14.2217343843
 20
-15.8887499482
 10
14.2476081037
 20
-17.5981590159
  0
LWPOLYLINE
  5
2C2
100
AcDbEntity
  8
RACCORDO
100
AcDbPolyline
 62
253
  6
CONTINUOUS
 90
10
 70
0
 10
14.94527496
 20
-2.0982908133
 10
14.9194267373
 20
-3.8343651857
 10
14.9000405687
 20
-5.5669107652
 10
14.887116454
 20
-7.2959275519
 10
14.880654391
 20
-9.0214233416
 10
14.8806543821
 20
-10.7433903383
 10
14.8871164338
 20
-12.461805155
 10
14.9000405485
 20
-14.1766599958
 10
14.9194267239
 20
-15.8879626565
 10
14.94527496
 20
-17.5957131371
  0
LWPOLYLINE
  5
2C3
100
AcDbEntity
  8
RACCORDO
100
AcDbPolyline
 62
253
  6
CONTINUOUS
 90
10
 70
0
 10
14.9686822153
 20
7.8922613924
 10
14.8335648895
 20
6.7598089972
 10
14.7121482473
 20
5.6327643906
 10
14.6044573251
 20
4.5113665821
 10
14.5105139015
 20
3.3958536537
 10
14.4303377671
 20
2.2864617745
 10
14.3639467278
 20
1.1834251544
 10
14.3113548988
 20
0.0869772395
 10
14.2725726941
 20
-1.002649341
 10
14.2476081037
 20
-2.0852237568
  0
LWPOLYLINE
  5
2C4
100
AcDbEntity
  8
RACCORDO
100
AcDbPolyline
 62
253
  6
CONTINUOUS
 90
10
 70
0
 10
15.662444774
 20
7.8237051602
 10
15.5280241854
 20
6.6971833815
 10
15.4072743802
 20
5.5765017918
 10
15.3001953583
 20
4.4616603909
 10
15.2067698131
 20
3.3524201701
 10
15.1270150512
 20
2.2490201381
 10
15.060982993
 20
1.1521773212
 10
15.0086909451
 20
0.062130728
 10
14.9701216007
 20
-1.0213586501
 10
14.94527496
 20
-2.0982908133
  0
LINE
  5
2C5
100
AcDbEntity
  8
RACCORDO
100
AcDbLine
 62
253
  6
CONTINUOUS
 10
14.9686822153
 20
7.8922613924
 11
-15.8103296819
 21
25.6636771103
  0
LWPOLYLINE
  5
2C6
100
AcDbEntity
  8
RACCORDO
100
AcDbPolyline
 62
253
  6
CONTINUOUS
 90
16
 70
0
 10
16.0116869591
 20
8.3621659201
 10
16.0088116627
 20
8.4054066677
 10
16.0022004063
 20
8.4504665169
 10
15.9919255129
 20
8.4968522531
 10
15.9780994095
 20
8.5440561424
 10
15.9608734002
 20
8.5915614767
 10
15.9404360143
 20
8.638848229
 10
15.9170109323
 20
8.6853987735
 10
15.8908545496
 20
8.7307035219
 10
15.8622531819
 20
8.7742664924
 10
15.8315198969
 20
8.8156107966
 10
15.7989911115
 20
8.8542838169
 10
15.7650229326
 20
8.8898621438
 10
15.7299872115
 20
8.9219562714
 10
15.694267468
 20
8.9502148523
 10
15.6582547248
 20
8.9743285119
  0
LINE
  5
2C7
100
AcDbEntity
  8
0
100
AcDbLine
 62
7
  6
CONTINUOUS
 10
16.7034019221
 20
8.7615515008
 11
16.7034019221
 21
-26.5289287307
  0
LINE
  5
2C8
100
AcDbEntity
  8
RACCORDO
100
AcDbLine
 62
253
  6
CONTINUOUS
 10
15.6582547224
 20
8.9743285105
 11
-15.138580901
 21
26.7560354244
  0
LINE
  5
2C9
100
AcDbEntity
  8
0
100
AcDbLine
 62
7
  6
CONTINUOUS
 10
16.3499696854
 20
9.3737140911
 11
-14.4821679109
 21
27.1758039218
  0
LWPOLYLINE
  5
2CA
100
AcDbEntity
  8
RACCORDO
100
AcDbPolyline
 62
253
  6
CONTINUOUS
 90
9
 70
0
 10
16.0116869591
 20
-26.8875524175
 10
16.0088115362
 20
-26.9295886124
 10
16.0021999975
 20
-26.9688722997
 10
15.9919247173
 20
-27.0049734541
 10
15.9780981755
 20
-27.0374968886
 10
15.9608717266
 20
-27.0660865801
 10
15.9404339427
 20
-27.0904295669
 10
15.9170085494
 20
-27.1102593747
 10
15.8976463394
 20
-27.12203001
  0
LWPOLYLINE
  5
2CB
100
AcDbEntity
  8
RACCORDO
100
AcDbPolyline
 62
253
  6
CONTINUOUS
 90
16
 70
0
 10
14.94527496
 20
-17.5957131371
 10
14.9061768632
 20
-17.6158251024
 10
14.8638466267
 20
-17.6335054024
 10
14.8187327152
 20
-17.6485667242
 10
14.7713130849
 20
-17.6608495018
 10
14.7220901197
 20
-17.6702236061
 10
14.6715853088
 20
-17.6765897239
 10
14.6203337218
 20
-17.6798804098
 10
14.5688783402
 20
-17.6800608008
 10
14.5177643043
 20
-17.6771289858
 10
14.4675331382
 20
-17.6711160257
 10
14.4187170125
 20
-17.6620856243
 10
14.371833106
 20
-17.6501334537
 10
14.3273781272
 20
-17.6353861403
 10
14.285823051
 20
-17.6179999234
 10
14.24760813
 20
-17.5981590001
  0
LWPOLYLINE
  5
2CC
100
AcDbEntity
  8
RACCORDO
100
AcDbPolyline
 62
253
  6
CONTINUOUS
 90
16
 70
0
 10
15.6624447738
 20
-26.7318053864
 10
15.623751621
 20
-26.7571685465
 10
15.581821042
 20
-26.7800434871
 10
15.5370974184
 20
-26.8001877788
 10
15.4900547327
 20
-26.8173879317
 10
15.4411915448
 20
-26.8314616581
 10
15.3910257084
 20
-26.8422598042
 10
15.3400888828
 20
-26.8496679308
 10
15.2889208982
 20
-26.8536075263
 10
15.2380640345
 20
-26.8540368389
 10
15.1880572744
 20
-26.8509513185
 10
15.1394305913
 20
-26.8443836657
 10
15.0926993324
 20
-26.8344034847
 10
15.0483587572
 20
-26.8211165459
 10
15.0068787886
 20
-26.8046636646
 10
14.9686990327
 20
-26.7852192091
  0
LINE
  5
2CD
100
AcDbEntity
  8
0
100
AcDbLine
 62
253
  6
CONTINUOUS
 10
16.0116869591
 20
-26.8875524175
 11
16.7034019221
 21
-26.5289287307
  0
LINE
  5
2CE
100
AcDbEntity
  8
RACCORDO
100
AcDbLine
 62
7
  6
CONTINUOUS
 10
15.8976463394
 20
-27.12203001
 11
16.5931254976
 21
-26.7614547541
  0
ELLIPSE
  5
2CF
100
AcDbEntity
  8
0
100
AcDbEllipse
 62
7
  6
CONTINUOUS
 10
-14.4819255615
 20
26.7672889139
 30
0.0
 11
-0.2501834304
 21
0.4333025529
 31
0.0
 40
0.5769361983
 41
-0.7851038024
 42
0.0263715828
  0
ELLIPSE
  5
2D0
100
AcDbEntity
  8
0
100
AcDbEllipse
 62
7
  6
CONTINUOUS
 10
16.349727336
 20
-26.3244416253
 30
0.0
 11
-0.2501834304
 21
0.4333025529
 31
0.0
 40
0.5769361983
 41
-3.1679635486
 42
-2.3565853618
  0
ELLIPSE
  5
2D1
100
AcDbEntity
  8
0
100
AcDbEllipse
 62
7
  6
CONTINUOUS
 10
16.349727336
 20
8.9654789423
 30
0.0
 11
-0.2500121049
 21
0.4330057129
 31
0.0
 40
0.5777274115
 41
-2.3559002616
 42
-0.7857891675
  0
ENDSEC
  0
SECTION
  2
OBJECTS
  0
DICTIONARY
  5
C
100
AcDbDictionary
280
0
281
1
  3
ACAD_GROUP
350
D
  3
ACAD_MLINESTYLE
350
17
  3
ACAD_LAYOUT
350
1A
  3
ACAD_PLOTSETTINGS
350
19
  3
ACAD_PLOTSTYLENAME
350
E
  0
DICTIONARY
  5
D
102
{ACAD_REACTORS
330
C
102
}
100
AcDbDictionary
280
0
281
1
  0
ACDBDICTIONARYWDFLT
  5
E
102
{ACAD_REACTORS
330
C
102
}
100
AcDbDictionary
281
1
  3
Normal
350
F
100
AcDbDictionaryWithDefault
340
F
  0
DICTIONARY
  5
17
102
{ACAD_REACTORS
330
C
102
}
100
AcDbDictionary
280
0
281
1
  3
Standard
350
18
  0
DICTIONARY
  5
19
102
{ACAD_REACTORS
330
C
102
}
100
AcDbDictionary
281
1
  0
DICTIONARY
  5
1A
102
{ACAD_REACTORS
330
C
102
}
100
AcDbDictionary
281
1
  3
Model
350
2D2
  3
Layout1
350
2D3
  0
ACDBPLACEHOLDER
  5
F
102
{ACAD_REACTORS
330
E
102
}
  0
MLINESTYLE
  5
18
102
{ACAD_REACTORS
330
17
102
}
100
AcDbMlineStyle
  2
STANDARD
 70
0
  3

 62
256
 51
90.0
 52
90.0
 71
2
 49
0.5
 62
256
  6
BYLAYER
 49
-0.5
 62
256
  6
BYLAYER
  0
LAYOUT
  5
2D2
102
{ACAD_REACTORS
330
1A
102
}
100
AcDbPlotSettings
  1

  2
none_device
  4
ISO_A4_(297.00_x_210.00_MM)
  6

 40
0.0
 41
0.0
 42
0.0
 43
0.0
 44
297.0
 45
210.0
 46
0.0
 47
0.0
 48
0.0
 49
0.0
140
0.0
141
0.0
142
1.0
143
1.0
 70
1024
 72
1
 73
0
 74
0
  7

 75
0
147
1.0
148
0.0
149
0.0
100
AcDbLayout
  1
Model
 70
0
 71
0
 10
0.0
 20
0.0
 11
297.0
 21
210.0
 12
0.0
 22
0.0
 32
0.0
 14
0.0
 24
0.0
 34
0.0
 15
0.0
 25
0.0
 35
0.0
146
0.0
 13
0.0
 23
0.0
 33
0.0
 16
1.0
 26
0.0
 36
0.0
 17
0.0
 27
1.0
 37
0.0
 76
0
330
218
345
0
346
0
  0
LAYOUT
  5
2D3
102
{ACAD_REACTORS
330
1A
102
}
100
AcDbPlotSettings
  1

  2
none_device
  4
ISO_A4_(297.00_x_210.00_MM)
  6

 40
0.0
 41
0.0
 42
0.0
 43
0.0
 44
297.0
 45
210.0
 46
0.0
 47
0.0
 48
0.0
 49
0.0
140
0.0
141
0.0
142
1.0
143
1.0
 70
0
 72
1
 73
0
 74
0
  7

 75
0
147
1.0
148
0.0
149
0.0
100
AcDbLayout
  1
Layout1
 70
0
 71
1
 10
0.0
 20
0.0
 11
297.0
 21
210.0
 12
0.0
 22
0.0
 32
0.0
 14
0.0
 24
0.0
 34
0.0
 15
0.0
 25
0.0
 35
0.0
146
0.0
 13
0.0
 23
0.0
 33
0.0
 16
1.0
 26
0.0
 36
0.0
 17
0.0
 27
1.0
 37
0.0
 76
0
330
219
345
0
346
0
  0
ENDSEC
  0
EOF
