  0
SECTION
  2
HEADER
  9
$ACADVER
  1
AC1015
  9
$DWGCODEPAGE
  3
ANSI_1252
  9
$EXTMAX
 10
297.0
 20
210.0
 30
0.0
  9
$EXTMIN
 10
0.0
 20
0.0
 30
0.0
  9
$LIMMIN
 10
0.0
 20
0.0
  9
$LIMMAX
 10
297.0
 20
210.0
  9
$VIEWCTR
 10
148.5
 20
105.0
  9
$VIEWSIZE
 40
210.0
  9
$CLAYER
  8
0
  9
$LTSCALE
 40
16.335
  9
$CELTYPE
  6
BYLAYER
  9
$DIMSCALE
 40
1.0
  9
$DIMASZ
 40
3.0
  9
$DIMEXO
 40
1.85625
  9
$DIMDLI
 40
11.286
  9
$DIMEXE
 40
5.346
  9
$DIMCEN
 40
2.673
  9
$DIMLFAC
 40
1.0
  9
$DIMBLK
  1
_FILLED
  9
$DIMTXT
 40
3.0
  9
$DIMTOL
 70
1
  9
$DIMLIM
 70
0
  9
$DIMTFAC
 40
1.0
  9
$DIMTP
 40
0.01
  9
$DIMTM
 40
0.01
  9
$PDMODE
 70
3
  9
$PDSIZE
 40
3.0
  9
$HANDSEED
  5
5D7
  9
$TILEMODE
 70
1
  9
$MEASUREMENT
 70
1
  9
$INSUNITS
 70
4
  0
ENDSEC
  0
SECTION
  2
CLASSES
  0
CLASS
  1
ACDBDICTIONARYWDFLT
  2
AcDbDictionaryWithDefault
  3
AutoCAD 2000
 90
0
280
0
281
0
  0
CLASS
  1
ACDBPLACEHOLDER
  2
AcDbPlaceHolder
  3
AutoCAD 2000
 90
0
280
0
281
0
  0
CLASS
  1
LAYOUT
  2
AcDbLayout
  3
AutoCAD 2000
 90
0
280
0
281
0
  0
ENDSEC
  0
SECTION
  2
TABLES
  0
TABLE
  2
VPORT
  5
8
100
AcDbSymbolTable
 70
2
  0
VPORT
  5
1F4
100
AcDbSymbolTableRecord
100
AcDbViewportTableRecord
  2
*ACTIVE
 70
0
 10
0.0
 20
0.0
 11
1.0
 21
1.0
 12
148.5
 22
105.0
 13
0.0
 23
0.0
 14
1.0
 24
1.0
 15
0.0
 25
0.0
 16
0.0
 26
0.0
 36
1.0
 17
0.0
 27
0.0
 37
0.0
 40
210.0
 41
1.4142857143
 42
50.0
 43
0.0
 44
0.0
 50
0.0
 51
0.0
 71
0
 72
100
 73
1
 74
1
 75
0
 76
0
 77
0
 78
0
  0
ENDTAB
  0
TABLE
  2
LTYPE
  5
5
100
AcDbSymbolTable
 70
6
  0
LTYPE
  5
14
100
AcDbSymbolTableRecord
100
AcDbLinetypeTableRecord
  2
BYBLOCK
 70
0
  3

 72
65
 73
0
 40
0.0
  0
LTYPE
  5
15
100
AcDbSymbolTableRecord
100
AcDbLinetypeTableRecord
  2
BYLAYER
 70
0
  3

 72
65
 73
0
 40
0.0
  0
LTYPE
  5
16
100
AcDbSymbolTableRecord
100
AcDbLinetypeTableRecord
  2
CONTINUOUS
 70
64
  3
Solid line
 72
65
 73
0
 40
0.0
  0
LTYPE
  5
1F5
100
AcDbSymbolTableRecord
100
AcDbLinetypeTableRecord
  2
CENTER
 70
64
  3
____ _ ____ _ ____ _ ____ _ ____ _ ____ _ ____
 72
65
 73
4
 40
0.6
 49
0.375
 74
0
 49
-0.075
 74
0
 49
0.075
 74
0
 49
-0.075
 74
0
  0
LTYPE
  5
1F6
100
AcDbSymbolTableRecord
100
AcDbLinetypeTableRecord
  2
HIDDEN
 70
64
  3
- - - - - - - - - - - - - - - - - - - -
 72
65
 73
2
 40
0.2
 49
0.1
 74
0
 49
-0.1
 74
0
  0
LTYPE
  5
1F7
100
AcDbSymbolTableRecord
100
AcDbLinetypeTableRecord
  2
PHANTOM
 70
64
  3
_____ _ _ _____ _ _ _____ _ _ _____
 72
65
 73
6
 40
0.8
 49
0.45
 74
0
 49
-0.05
 74
0
 49
0.1
 74
0
 49
-0.05
 74
0
 49
0.1
 74
0
 49
-0.05
 74
0
  0
LTYPE
  5
1F8
100
AcDbSymbolTableRecord
100
AcDbLinetypeTableRecord
  2
DOT
 70
64
  3
. . . . . . . . . . . . . . . . . . . .
 72
65
 73
2
 40
0.2
 49
0.1
 74
0
 49
-0.1
 74
0
  0
LTYPE
  5
1F9
100
AcDbSymbolTableRecord
100
AcDbLinetypeTableRecord
  2
DASHED
 70
64
  3
- - - - - - - - - - - - - - - - - - - -
 72
65
 73
2
 40
0.2
 49
0.1
 74
0
 49
-0.1
 74
0
  0
ENDTAB
  0
TABLE
  2
LAYER
  5
2
100
AcDbSymbolTable
 70
36
  0
LAYER
  5
10
100
AcDbSymbolTableRecord
100
AcDbLayerTableRecord
  2
0
 70
0
 62
7
  6
CONTINUOUS
370
-3
390
F
  0
LAYER
  5
1FA
100
AcDbSymbolTableRecord
100
AcDbLayerTableRecord
  2
DEFAULT_1
 70
0
 62
7
  6
CENTER
370
-3
390
F
  0
LAYER
  5
1FB
100
AcDbSymbolTableRecord
100
AcDbLayerTableRecord
  2
DEFAULT_2
 70
0
 62
7
  6
HIDDEN
370
-3
390
F
  0
LAYER
  5
1FC
100
AcDbSymbolTableRecord
100
AcDbLayerTableRecord
  2
DEFAULT_3
 70
0
 62
7
  6
PHANTOM
370
-3
390
F
  0
LAYER
  5
1FD
100
AcDbSymbolTableRecord
100
AcDbLayerTableRecord
  2
ASSI
 70
0
 62
7
  6
CONTINUOUS
370
-3
390
F
  0
LAYER
  5
1FE
100
AcDbSymbolTableRecord
100
AcDbLayerTableRecord
  2
COLOR5
 70
0
 62
7
  6
CONTINUOUS
370
-3
390
F
  0
LAYER
  5
1FF
100
AcDbSymbolTableRecord
100
AcDbLayerTableRecord
  2
COORDINATE
 70
0
 62
7
  6
CONTINUOUS
370
-3
390
F
  0
LAYER
  5
200
100
AcDbSymbolTableRecord
100
AcDbLayerTableRecord
  2
COORD_ORIGINE
 70
0
 62
7
  6
CONTINUOUS
370
-3
390
F
  0
LAYER
  5
201
100
AcDbSymbolTableRecord
100
AcDbLayerTableRecord
  2
COPY_PUBLISH
 70
0
 62
7
  6
CONTINUOUS
370
-3
390
F
  0
LAYER
  5
202
100
AcDbSymbolTableRecord
100
AcDbLayerTableRecord
  2
COSMETIC
 70
0
 62
7
  6
CONTINUOUS
370
-3
390
F
  0
LAYER
  5
203
100
AcDbSymbolTableRecord
100
AcDbLayerTableRecord
  2
COSMETICHE
 70
0
 62
7
  6
CONTINUOUS
370
-3
390
F
  0
LAYER
  5
204
100
AcDbSymbolTableRecord
100
AcDbLayerTableRecord
  2
COSMETICI
 70
0
 62
7
  6
CONTINUOUS
370
-3
390
F
  0
LAYER
  5
205
100
AcDbSymbolTableRecord
100
AcDbLayerTableRecord
  2
CURVE
 70
0
 62
7
  6
CONTINUOUS
370
-3
390
F
  0
LAYER
  5
206
100
AcDbSymbolTableRecord
100
AcDbLayerTableRecord
  2
DRAFT
 70
0
 62
7
  6
CONTINUOUS
370
-3
390
F
  0
LAYER
  5
207
100
AcDbSymbolTableRecord
100
AcDbLayerTableRecord
  2
IMPORT_IGES
 70
0
 62
7
  6
CONTINUOUS
370
-3
390
F
  0
LAYER
  5
208
100
AcDbSymbolTableRecord
100
AcDbLayerTableRecord
  2
INTF_1
 70
0
 62
7
  6
CONTINUOUS
370
-3
390
F
  0
LAYER
  5
209
100
AcDbSymbolTableRecord
100
AcDbLayerTableRecord
  2
NOTE
 70
0
 62
7
  6
CONTINUOUS
370
-3
390
F
  0
LAYER
  5
20A
100
AcDbSymbolTableRecord
100
AcDbLayerTableRecord
  2
PIANI
 70
0
 62
7
  6
CONTINUOUS
370
-3
390
F
  0
LAYER
  5
20B
100
AcDbSymbolTableRecord
100
AcDbLayerTableRecord
  2
PIANI_ORIGINE
 70
0
 62
7
  6
CONTINUOUS
370
-3
390
F
  0
LAYER
  5
20C
100
AcDbSymbolTableRecord
100
AcDbLayerTableRecord
  2
PIANI_RIFERIMENTO
 70
0
 62
7
  6
CONTINUOUS
370
-3
390
F
  0
LAYER
  5
20D
100
AcDbSymbolTableRecord
100
AcDbLayerTableRecord
  2
PIANI_SFORMI
 70
0
 62
7
  6
CONTINUOUS
370
-3
390
F
  0
LAYER
  5
20E
100
AcDbSymbolTableRecord
100
AcDbLayerTableRecord
  2
PUNTI
 70
0
 62
7
  6
CONTINUOUS
370
-3
390
F
  0
LAYER
  5
20F
100
AcDbSymbolTableRecord
100
AcDbLayerTableRecord
  2
RACCORDO
 70
0
 62
7
  6
CONTINUOUS
370
-3
390
F
  0
LAYER
  5
210
100
AcDbSymbolTableRecord
100
AcDbLayerTableRecord
  2
RGB____0____0____0__
 70
0
 62
7
  6
CONTINUOUS
370
-3
390
F
  0
LAYER
  5
211
100
AcDbSymbolTableRecord
100
AcDbLayerTableRecord
  2
SIMBOLI
 70
0
 62
7
  6
CONTINUOUS
370
-3
390
F
  0
LAYER
  5
212
100
AcDbSymbolTableRecord
100
AcDbLayerTableRecord
  2
SMUSSO
 70
0
 62
7
  6
CONTINUOUS
370
-3
390
F
  0
LAYER
  5
213
100
AcDbSymbolTableRecord
100
AcDbLayerTableRecord
  2
SNAPLINE
 70
0
 62
7
  6
CONTINUOUS
370
-3
390
F
  0
LAYER
  5
214
100
AcDbSymbolTableRecord
100
AcDbLayerTableRecord
  2
SUPERFICI
 70
0
 62
7
  6
CONTINUOUS
370
-3
390
F
  0
LAYER
  5
215
100
AcDbSymbolTableRecord
100
AcDbLayerTableRecord
  2
TRASH
 70
0
 62
7
  6
CONTINUOUS
370
-3
390
F
  0
LAYER
  5
216
100
AcDbSymbolTableRecord
100
AcDbLayerTableRecord
  2
XSEC_DATUMS
 70
0
 62
7
  6
CONTINUOUS
370
-3
390
F
  0
ENDTAB
  0
TABLE
  2
STYLE
  5
3
100
AcDbSymbolTable
 70
1
  0
STYLE
  5
11
100
AcDbSymbolTableRecord
100
AcDbTextStyleTableRecord
  2
STANDARD
 70
0
 40
0.0
 41
0.8
 50
0.0
 71
0
 42
0.2
  3
txt
  4

  0
STYLE
  5
217
100
AcDbSymbolTableRecord
100
AcDbTextStyleTableRecord
  2
TEXTSTYLE_1
 70
0
 40
0.0
 41
0.8
 50
0.0
 71
0
 42
0.2
  3
gdt
  4

  0
ENDTAB
  0
TABLE
  2
VIEW
  5
6
100
AcDbSymbolTable
 70
0
  0
ENDTAB
  0
TABLE
  2
UCS
  5
7
100
AcDbSymbolTable
 70
0
  0
ENDTAB
  0
TABLE
  2
APPID
  5
9
100
AcDbSymbolTable
 70
1
  0
APPID
  5
218
100
AcDbSymbolTableRecord
100
AcDbRegAppTableRecord
  2
ACAD
 70
0
  0
ENDTAB
  0
TABLE
  2
BLOCK_RECORD
  5
1
100
AcDbSymbolTable
 70
0
  0
BLOCK_RECORD
  5
219
100
AcDbSymbolTableRecord
100
AcDbBlockTableRecord
  2
*Model_Space
  0
BLOCK_RECORD
  5
21A
100
AcDbSymbolTableRecord
100
AcDbBlockTableRecord
  2
*Paper_Space
  0
ENDTAB
  0
TABLE
  2
DIMSTYLE
  5
A
100
AcDbSymbolTable
 70
1
100
AcDbDimStyleTable
 71
0
  0
DIMSTYLE
105
21B
100
AcDbSymbolTableRecord
100
AcDbDimStyleTableRecord
  2
STANDARD
 70
0
  3

  4

 40
1.0
 41
3.0
 42
0.0625
 43
0.38
 44
0.18
 45
0.0
 46
0.0
 47
0.01
 48
0.01
140
3.0
141
0.09
142
0.0
143
25.4
144
1.0
145
0.0
146
1.0
147
0.09
 71
1.0
 72
0.0
 73
0
 74
0
 75
0
 76
0
 77
1
 78
8
170
0
171
2
172
0
173
0
174
0
175
0
176
0
177
0
178
0
270
2
271
2
272
2
273
2
274
2
275
0
280
0
281
0
282
0
283
1
284
8
285
0
286
0
287
3
288
0
340
11
  0
ENDTAB
  0
ENDSEC
  0
SECTION
  2
BLOCKS
  0
BLOCK
  5
20
100
AcDbEntity
  8
0
100
AcDbBlockBegin
  2
*Model_Space
 70
0
 10
0.0
 20
0.0
 30
0.0
  3
*Model_Space
  1

  0
ENDBLK
  5
21
100
AcDbEntity
  8
0
100
AcDbBlockEnd
  0
BLOCK
  5
1C
100
AcDbEntity
  8
0
100
AcDbBlockBegin
  2
*Paper_Space
 70
0
 10
0.0
 20
0.0
 30
0.0
  3
*Paper_Space
  1

  0
ENDBLK
  5
1D
100
AcDbEntity
  8
0
100
AcDbBlockEnd
  0
ENDSEC
  0
SECTION
  2
ENTITIES
  0
LWPOLYLINE
  5
21C
100
AcDbEntity
  8
RACCORDO
100
AcDbPolyline
 62
7
  6
CONTINUOUS
 90
17
 70
0
 10
-21.9014984811
 20
24.4602288539
 10
-21.9499714811
 20
24.4299670569
 10
-22.0049434136
 20
24.3905633927
 10
-22.0579852179
 20
24.3469272708
 10
-22.1088920208
 20
24.2992770695
 10
-22.1571975409
 20
24.2481274439
 10
-22.2028843616
 20
24.1935893245
 10
-22.2458689664
 20
24.1358001207
 10
-22.2856461827
 20
24.0754747239
 10
-22.3221753259
 20
24.0127767496
 10
-22.3553701928
 20
23.9478472309
 10
-22.3848130461
 20
23.8815383906
 10
-22.4104677255
 20
23.8140423066
 10
-22.432261836
 20
23.7454905539
 10
-22.4499449969
 20
23.6766952244
 10
-22.4634569766
 20
23.6079964273
 10
-22.4718521024
 20
23.5480302012
  0
LINE
  5
21D
100
AcDbEntity
  8
RACCORDO
100
AcDbLine
 62
7
  6
CONTINUOUS
 10
-21.9015503834
 20
24.460206698
 11
-17.7889120074
 21
26.85825156
  0
LINE
  5
21E
100
AcDbEntity
  8
RACCORDO
100
AcDbLine
 62
253
  6
CONTINUOUS
 10
-21.668196336
 20
24.4514393047
 11
-17.7889120074
 21
26.7134173835
  0
LINE
  5
21F
100
AcDbEntity
  8
RACCORDO
100
AcDbLine
 62
7
  6
CONTINUOUS
 10
-18.3561998109
 20
27.8850718487
 11
-16.0688496013
 21
29.0555321863
  0
LINE
  5
220
100
AcDbEntity
  8
RACCORDO
100
AcDbLine
 62
253
  6
CONTINUOUS
 10
-18.2432419487
 20
27.878557816
 11
-15.9562570778
 21
29.048831206
  0
LINE
  5
221
100
AcDbEntity
  8
RACCORDO
100
AcDbLine
 62
253
  6
CONTINUOUS
 10
-16.5702563562
 20
27.0420650197
 11
-14.2591959565
 21
28.2003006453
  0
LINE
  5
222
100
AcDbEntity
  8
RACCORDO
100
AcDbLine
 62
253
  6
CONTINUOUS
 10
-16.3934820841
 20
26.7371745005
 11
-14.0824216845
 21
27.8954101262
  0
LINE
  5
223
100
AcDbEntity
  8
RACCORDO
100
AcDbLine
 62
7
  6
CONTINUOUS
 10
-9.3665144906
 20
30.6788001599
 11
-14.4867791691
 21
28.3140922516
  0
LINE
  5
224
100
AcDbEntity
  8
ASSI
100
AcDbLine
 62
7
  6
CONTINUOUS
 10
-9.3665223194
 20
30.6787965443
 11
-14.4867791691
 21
28.3140922516
  0
LINE
  5
225
100
AcDbEntity
  8
RACCORDO
100
AcDbLine
 62
253
  6
CONTINUOUS
 10
-8.9323641569
 20
30.6441723605
 11
-14.2434440967
 21
28.1913418174
  0
LINE
  5
226
100
AcDbEntity
  8
ASSI
100
AcDbLine
 62
253
  6
CONTINUOUS
 10
-8.9323641569
 20
30.6441723605
 11
-14.2434440967
 21
28.1913418174
  0
LINE
  5
227
100
AcDbEntity
  8
ASSI
100
AcDbLine
 62
7
  6
CONTINUOUS
 10
-9.3153792594
 20
30.6999636215
 11
-9.3673524039
 21
30.6784118074
  0
LWPOLYLINE
  5
228
100
AcDbEntity
  8
RACCORDO
100
AcDbPolyline
 62
7
  6
CONTINUOUS
 90
3
 70
0
 10
-9.3261805798
 20
30.6958908511
 10
-9.3466039218
 20
30.6876153716
 10
-9.3665568798
 20
30.6787804262
  0
LINE
  5
229
100
AcDbEntity
  8
RACCORDO
100
AcDbLine
 62
7
  6
CONTINUOUS
 10
-9.3054761429
 20
30.7035184316
 11
-9.3261805798
 21
30.6958908511
  0
LINE
  5
22A
100
AcDbEntity
  8
DRAFT
100
AcDbLine
 62
7
  6
CONTINUOUS
 10
-14.7932309019
 20
26.610692284
 11
-14.0824216845
 21
27.4623944564
  0
LINE
  5
22B
100
AcDbEntity
  8
RACCORDO
100
AcDbLine
 62
7
  6
CONTINUOUS
 10
-14.7932309019
 20
25.8982567187
 11
-15.6826728666
 21
25.4013761324
  0
LINE
  5
22C
100
AcDbEntity
  8
DRAFT
100
AcDbLine
 62
7
  6
CONTINUOUS
 10
-12.1025226971
 20
26.6889513137
 11
-13.8610335594
 21
25.7891034423
  0
LINE
  5
22D
100
AcDbEntity
  8
RACCORDO
100
AcDbLine
 62
7
  6
CONTINUOUS
 10
-13.198538208
 20
25.4578557666
 11
-12.3507505477
 21
25.887186296
  0
LINE
  5
22E
100
AcDbEntity
  8
RACCORDO
100
AcDbLine
 62
7
  6
CONTINUOUS
 10
-7.6061986824
 20
30.1009895082
 11
-7.2941965851
 21
30.2569905569
  0
LINE
  5
22F
100
AcDbEntity
  8
RACCORDO
100
AcDbLine
 62
7
  6
CONTINUOUS
 10
-6.8716291841
 20
28.4504208944
 11
-11.2572227938
 21
26.266301362
  0
LINE
  5
230
100
AcDbEntity
  8
ASSI
100
AcDbLine
 62
7
  6
CONTINUOUS
 10
-6.8716291841
 20
28.4504208944
 11
-11.2572227938
 21
26.266301362
  0
LINE
  5
231
100
AcDbEntity
  8
DRAFT
100
AcDbLine
 62
7
  6
CONTINUOUS
 10
-6.5242195785
 20
27.3580908691
 11
-10.0272177429
 21
25.6512988366
  0
LINE
  5
232
100
AcDbEntity
  8
ASSI
100
AcDbLine
 62
7
  6
CONTINUOUS
 10
-6.5242195785
 20
27.3580908691
 11
-10.0272177429
 21
25.6512988366
  0
LINE
  5
233
100
AcDbEntity
  8
RACCORDO
100
AcDbLine
 62
7
  6
CONTINUOUS
 10
-11.9259184999
 20
26.6006492151
 11
-7.4631060202
 21
28.7461593124
  0
LINE
  5
234
100
AcDbEntity
  8
ASSI
100
AcDbLine
 62
7
  6
CONTINUOUS
 10
-11.9259184999
 20
26.6006492151
 11
-7.4631060202
 21
28.7461593124
  0
LWPOLYLINE
  5
235
100
AcDbEntity
  8
0
100
AcDbPolyline
 62
7
  6
CONTINUOUS
 90
16
 70
0
 10
-24.1343409154
 20
-0.6915844849
 10
-24.1255380504
 20
-1.2952567195
 10
-24.0931045502
 20
-1.9978451585
 10
-24.036847711
 20
-2.6992353149
 10
-23.9568621152
 20
-3.3983359871
 10
-23.8532496459
 20
-4.0943119866
 10
-23.7260833677
 20
-4.7865469417
 10
-23.5755200661
 20
-5.4740076256
 10
-23.4017331899
 20
-6.1557726117
 10
-23.2048649179
 20
-6.8313296129
 10
-22.9852692453
 20
-7.4996763689
 10
-22.7433519389
 20
-8.1598177692
 10
-22.4793897072
 20
-8.8111971167
 10
-22.1937149632
 20
-9.4530606468
 10
-21.8867990213
 20
-10.0844255948
 10
-21.6017995964
 20
-10.6264778807
  0
LWPOLYLINE
  5
236
100
AcDbEntity
  8
RACCORDO
100
AcDbPolyline
 62
7
  6
CONTINUOUS
 90
10
 70
0
 10
-22.4718537415
 20
23.5480804486
 10
-22.5942056221
 20
22.4193870508
 10
-22.7109481902
 20
21.2278964345
 10
-22.8143970409
 20
20.0411972141
 10
-22.9045234679
 20
18.8595764816
 10
-22.9813087739
 20
17.683271571
 10
-23.0447367928
 20
16.5125009202
 10
-23.0947914377
 20
15.3475000915
 10
-23.1314605014
 20
14.1885488689
 10
-23.1536931854
 20
13.1063288938
  0
LINE
  5
237
100
AcDbEntity
  8
RACCORDO
100
AcDbLine
 62
7
  6
CONTINUOUS
 10
-22.4718465136
 20
23.5480796299
 11
-22.4718521024
 21
23.5480302012
  0
LINE
  5
238
100
AcDbEntity
  8
0
100
AcDbLine
 62
7
  6
CONTINUOUS
 10
-12.4914314268
 20
24.3711103564
 11
-13.198538208
 21
23.9721704976
  0
LINE
  5
239
100
AcDbEntity
  8
RACCORDO
100
AcDbLine
 62
7
  6
CONTINUOUS
 10
-8.1990997205
 20
24.695849967
 11
-9.0898360494
 21
24.2123322728
  0
LINE
  5
23A
100
AcDbEntity
  8
RACCORDO
100
AcDbLine
 62
253
  6
CONTINUOUS
 10
-8.1073090389
 20
24.6913444846
 11
-8.9951619467
 21
24.2093919955
  0
LINE
  5
23B
100
AcDbEntity
  8
RACCORDO
100
AcDbLine
 62
7
  6
CONTINUOUS
 10
-10.6194515312
 20
23.5803667314
 11
-9.663004302
 21
24.0856366682
  0
LINE
  5
23C
100
AcDbEntity
  8
RACCORDO
100
AcDbLine
 62
7
  6
CONTINUOUS
 10
-7.4010030793
 20
23.4123125619
 11
-8.2487907397
 21
22.9829820324
  0
LINE
  5
23D
100
AcDbEntity
  8
RACCORDO
100
AcDbLine
 62
7
  6
CONTINUOUS
 10
-1.8416071097
 20
25.9354098572
 11
-6.3044195895
 21
23.7898997599
  0
LINE
  5
23E
100
AcDbEntity
  8
ASSI
100
AcDbLine
 62
7
  6
CONTINUOUS
 10
-1.8416071097
 20
25.9354098572
 11
-6.3044195895
 21
23.7898997599
  0
LINE
  5
23F
100
AcDbEntity
  8
RACCORDO
100
AcDbLine
 62
253
  6
CONTINUOUS
 10
-10.7565916803
 20
25.0901068623
 11
-9.8044860028
 21
25.5399329666
  0
LINE
  5
240
100
AcDbEntity
  8
RACCORDO
100
AcDbLine
 62
253
  6
CONTINUOUS
 10
-10.6194515312
 20
24.8441390242
 11
-9.663004302
 21
25.2960163118
  0
LINE
  5
241
100
AcDbEntity
  8
DRAFT
100
AcDbLine
 62
7
  6
CONTINUOUS
 10
13.4203296674
 20
-27.6322946804
 11
14.1311388849
 21
-27.780592508
  0
LWPOLYLINE
  5
242
100
AcDbEntity
  8
RACCORDO
100
AcDbPolyline
 62
7
  6
CONTINUOUS
 90
23
 70
0
 10
-21.1867402852
 20
-11.3518996311
 10
-21.1656120606
 20
-11.3838259135
 10
-21.1451484398
 20
-11.4126225482
 10
-21.1252587196
 20
-11.4389031801
 10
-21.1061419254
 20
-11.4627888736
 10
-21.0879064835
 20
-11.4844751715
 10
-21.0702181492
 20
-11.5046070407
 10
-21.0531326445
 20
-11.52330341
 10
-21.0367148767
 20
-11.5406518538
 10
-21.0205818995
 20
-11.5571741372
 10
-21.0047008882
 20
-11.5729848353
 10
-20.9891318864
 20
-11.5880953419
 10
-20.9736076324
 20
-11.6028199589
 10
-20.9580858061
 20
-11.617237453
 10
-20.9426066863
 20
-11.6313446749
 10
-20.9270301606
 20
-11.6452973869
 10
-20.9113689223
 20
-11.6591066607
 10
-20.8956139769
 20
-11.6728008965
 10
-20.879597234
 20
-11.6865414289
 10
-20.8633064808
 20
-11.7003495686
 10
-20.846747024
 20
-11.7142305889
 10
-20.8297712089
 20
-11.7283153215
 10
-20.7945017759
 20
-11.7571701487
  0
LINE
  5
243
100
AcDbEntity
  8
RACCORDO
100
AcDbLine
 62
7
  6
CONTINUOUS
 10
-21.2031990155
 20
-11.3252098225
 11
-21.1867402852
 21
-11.3518996311
  0
LINE
  5
244
100
AcDbEntity
  8
RACCORDO
100
AcDbLine
 62
7
  6
CONTINUOUS
 10
-21.2032092438
 20
-11.3251928815
 11
-21.2032273933
 21
-11.3251624849
  0
LWPOLYLINE
  5
245
100
AcDbEntity
  8
0
100
AcDbPolyline
 62
7
  6
CONTINUOUS
 90
3
 70
0
 10
-21.5982609248
 20
-10.6329714207
 10
-21.3517472625
 20
-11.0721861064
 10
-21.2031758192
 20
-11.3252488948
  0
LINE
  5
246
100
AcDbEntity
  8
RACCORDO
100
AcDbLine
 62
7
  6
CONTINUOUS
 10
-21.5982122722
 20
-10.6330606607
 11
-21.5982607819
 21
-10.6329716827
  0
LINE
  5
247
100
AcDbEntity
  8
0
100
AcDbLine
 62
7
  6
CONTINUOUS
 10
-21.6020923402
 20
-10.6259404434
 11
-21.5982122722
 21
-10.6330606607
  0
LINE
  5
248
100
AcDbEntity
  8
RACCORDO
100
AcDbLine
 62
7
  6
CONTINUOUS
 10
-21.6017995964
 20
-10.6264778807
 11
-21.6019206357
 21
-10.6262556792
  0
LWPOLYLINE
  5
249
100
AcDbEntity
  8
RACCORDO
100
AcDbPolyline
 62
7
  6
CONTINUOUS
 90
9
 70
0
 10
-22.394979376
 20
-13.3540572385
 10
-22.3647726273
 20
-13.4105629911
 10
-22.3306432883
 20
-13.4632010408
 10
-22.2928883347
 20
-13.5118089308
 10
-22.2516232413
 20
-13.5564478923
 10
-22.2072257031
 20
-13.5968692233
 10
-22.1600765852
 20
-13.6328863173
 10
-22.1102626753
 20
-13.664530746
 10
-22.0746080523
 20
-13.6836829136
  0
LWPOLYLINE
  5
24A
100
AcDbEntity
  8
RACCORDO
100
AcDbPolyline
 62
7
  6
CONTINUOUS
 90
5
 70
0
 10
-22.4709247931
 20
-13.0934093486
 10
-22.4591934598
 20
-13.1632105016
 10
-22.44240357
 20
-13.2303482664
 10
-22.4209198111
 20
-13.2939891588
 10
-22.394979376
 20
-13.3540572385
  0
LINE
  5
24B
100
AcDbEntity
  8
RACCORDO
100
AcDbLine
 62
7
  6
CONTINUOUS
 10
-22.4709601659
 20
-13.093135831
 11
-22.4709247871
 21
-13.0934093478
  0
LWPOLYLINE
  5
24C
100
AcDbEntity
  8
RACCORDO
100
AcDbPolyline
 62
7
  6
CONTINUOUS
 90
7
 70
0
 10
-22.9975780713
 20
-7.4622140466
 10
-22.9808195105
 20
-7.7538597599
 10
-22.9038805271
 20
-8.8517974601
 10
-22.8135705189
 20
-9.9414145193
 10
-22.7099035999
 20
-11.0224917803
 10
-22.5929039787
 20
-12.0947695757
 10
-22.4709601659
 20
-13.093135831
  0
LWPOLYLINE
  5
24D
100
AcDbEntity
  8
RACCORDO
100
AcDbPolyline
 62
7
  6
CONTINUOUS
 90
6
 70
0
 10
-23.1536932087
 20
13.1063290003
 10
-23.1778788845
 20
11.315010968
 10
-23.196751125
 20
9.4622905042
 10
-23.2093296207
 20
7.6127365456
 10
-23.2156139824
 20
5.7663870622
 10
-23.215612071
 20
5.4099005087
  0
LWPOLYLINE
  5
24E
100
AcDbEntity
  8
0
100
AcDbPolyline
 62
7
  6
CONTINUOUS
 90
19
 70
0
 10
-21.1357323997
 20
10.0645874399
 10
-21.4020705453
 20
9.6089863749
 10
-21.712487282
 20
9.0426270251
 10
-22.0051187712
 20
8.4677741349
 10
-22.2797226011
 20
7.8849295688
 10
-22.5361099019
 20
7.2945521456
 10
-22.7740838421
 20
6.6971573343
 10
-22.9933618376
 20
6.093472124
 10
-23.1937104035
 20
5.4841497843
 10
-23.3749312345
 20
4.8697894644
 10
-23.5367987005
 20
4.2512476674
 10
-23.6792658189
 20
3.6291198517
 10
-23.8023936361
 20
3.0036670791
 10
-23.9061454874
 20
2.3755632599
 10
-23.9904929025
 20
1.7455524021
 10
-24.0554634603
 20
1.1140264098
 10
-24.1010545621
 20
0.481595064
 10
-24.1272684693
 20
-0.1509434088
 10
-24.1343409173
 20
-0.6920010899
  0
LINE
  5
24F
100
AcDbEntity
  8
0
100
AcDbLine
 62
7
  6
CONTINUOUS
 10
-21.1309875374
 20
10.0724740762
 11
-21.1358960596
 21
10.0643152788
  0
LWPOLYLINE
  5
250
100
AcDbEntity
  8
0
100
AcDbPolyline
 62
7
  6
CONTINUOUS
 90
10
 70
0
 10
-19.6875421217
 20
12.1703634672
 10
-19.7671923119
 20
12.067707297
 10
-19.9600541529
 20
11.8136623981
 10
-20.1485949181
 20
11.5574208461
 10
-20.3328073191
 20
11.2990204447
 10
-20.5126671386
 20
11.0385248291
 10
-20.6881327504
 20
10.7760283715
 10
-20.8591826002
 20
10.5116021594
 10
-21.0258155541
 20
10.2452889953
 10
-21.131024368
 20
10.0724128888
  0
LINE
  5
251
100
AcDbEntity
  8
DRAFT
100
AcDbLine
 62
7
  6
CONTINUOUS
 10
-6.520081562
 20
21.7616820488
 11
-7.5862953882
 21
21.1660490878
  0
LINE
  5
252
100
AcDbEntity
  8
RACCORDO
100
AcDbLine
 62
7
  6
CONTINUOUS
 10
-6.0525418183
 20
21.7332428524
 11
-3.7651916087
 21
22.9037031899
  0
LINE
  5
253
100
AcDbEntity
  8
RACCORDO
100
AcDbLine
 62
253
  6
CONTINUOUS
 10
-5.939583956
 20
21.7267288197
 11
-3.6525990852
 21
22.8970022096
  0
LINE
  5
254
100
AcDbEntity
  8
DRAFT
100
AcDbLine
 62
7
  6
CONTINUOUS
 10
-7.5862953882
 20
22.6517343567
 11
-5.8092723446
 21
23.5423261375
  0
LINE
  5
255
100
AcDbEntity
  8
RACCORDO
100
AcDbLine
 62
253
  6
CONTINUOUS
 10
-4.2665983635
 20
20.8902360234
 11
-1.9555379639
 21
22.048471649
  0
LINE
  5
256
100
AcDbEntity
  8
0
100
AcDbLine
 62
7
  6
CONTINUOUS
 10
3.007168404
 20
28.1455420861
 11
2.6197903848
 21
27.9518530765
  0
LINE
  5
257
100
AcDbEntity
  8
0
100
AcDbLine
 62
7
  6
CONTINUOUS
 10
1.1260123347
 20
27.2049640514
 11
-0.2870901253
 21
26.4984128214
  0
LINE
  5
258
100
AcDbEntity
  8
0
100
AcDbLine
 62
7
  6
CONTINUOUS
 10
3.0021907775
 20
28.0369872557
 11
2.7389832725
 21
27.9053835032
  0
LINE
  5
259
100
AcDbEntity
  8
RACCORDO
100
AcDbLine
 62
7
  6
CONTINUOUS
 10
-5.8092723446
 20
23.3691210567
 11
-1.2501302737
 21
25.6396714391
  0
LINE
  5
25A
100
AcDbEntity
  8
ASSI
100
AcDbLine
 62
7
  6
CONTINUOUS
 10
-5.8092723446
 20
23.3691210567
 11
-1.2501302737
 21
25.6396714391
  0
LINE
  5
25B
100
AcDbEntity
  8
DRAFT
100
AcDbLine
 62
7
  6
CONTINUOUS
 10
-5.8092723446
 20
22.1566854914
 11
-0.902720668
 21
24.5473414139
  0
LINE
  5
25C
100
AcDbEntity
  8
ASSI
100
AcDbLine
 62
7
  6
CONTINUOUS
 10
-5.8092723446
 20
22.1566854914
 11
-0.902720668
 21
24.5473414139
  0
LINE
  5
25D
100
AcDbEntity
  8
DRAFT
100
AcDbLine
 62
7
  6
CONTINUOUS
 10
-6.5126766895
 20
21.7579796125
 11
-5.8092723446
 21
22.067997753
  0
LINE
  5
25E
100
AcDbEntity
  8
RACCORDO
100
AcDbLine
 62
7
  6
CONTINUOUS
 10
-1.7977606114
 20
-21.4836860379
 11
-1.7970072694
 21
-21.4836541324
  0
LWPOLYLINE
  5
25F
100
AcDbEntity
  8
0
100
AcDbPolyline
 62
7
  6
CONTINUOUS
 90
6
 70
0
 10
-3.2038079511
 20
-21.5046549457
 10
-3.1206068148
 20
-21.5055627927
 10
-2.6976476063
 20
-21.5059873145
 10
-2.2730950713
 20
-21.4993984855
 10
-1.8454794205
 20
-21.4856621027
 10
-1.7970109256
 20
-21.4836542873
  0
LINE
  5
260
100
AcDbEntity
  8
RACCORDO
100
AcDbLine
 62
7
  6
CONTINUOUS
 10
-3.2037611089
 20
-21.504655538
 11
-3.2038144512
 21
-21.5046548641
  0
LWPOLYLINE
  5
261
100
AcDbEntity
  8
RACCORDO
100
AcDbPolyline
 62
7
  6
CONTINUOUS
 90
6
 70
0
 10
-4.5997190792
 20
-21.1375941584
 10
-4.4976601434
 20
-21.1684644732
 10
-4.4066230167
 20
-21.196601527
 10
-4.3272376311
 20
-21.2220437929
 10
-4.2588096077
 20
-21.2451595977
 10
-4.2212450975
 20
-21.2585970043
  0
LWPOLYLINE
  5
262
100
AcDbEntity
  8
RACCORDO
100
AcDbPolyline
 62
7
  6
CONTINUOUS
 90
4
 70
0
 10
-5.0357955589
 20
-21.0052997081
 10
-4.9602800869
 20
-21.0286787746
 10
-4.8310124565
 20
-21.0680901139
 10
-4.5997190792
 20
-21.1375941584
  0
LWPOLYLINE
  5
263
100
AcDbEntity
  8
RACCORDO
100
AcDbPolyline
 62
7
  6
CONTINUOUS
 90
20
 70
0
 10
-4.186301621
 20
-21.271371138
 10
-4.1232228674
 20
-21.2940143
 10
-4.0622167905
 20
-21.315364779
 10
-4.003278283
 20
-21.3354283889
 10
-3.9462776292
 20
-21.3542523044
 10
-3.8909520207
 20
-21.3719211766
 10
-3.8372698247
 20
-21.38843896
 10
-3.7851115875
 20
-21.4038344783
 10
-3.7340664223
 20
-21.4182115401
 10
-3.6841404443
 20
-21.4315427205
 10
-3.6351638134
 20
-21.4438437261
 10
-3.5864436569
 20
-21.4552369348
 10
-3.5379135703
 20
-21.4656633018
 10
-3.489474314
 20
-21.4750601134
 10
-3.4403334842
 20
-21.4834622626
 10
-3.3904836519
 20
-21.4907148569
 10
-3.339712046
 20
-21.4966721669
 10
-3.2868424509
 20
-21.5012193246
 10
-3.2318174662
 20
-21.5040244245
 10
-3.2037562473
 20
-21.5046552723
  0
LINE
  5
264
100
AcDbEntity
  8
RACCORDO
100
AcDbLine
 62
7
  6
CONTINUOUS
 10
-4.186301621
 20
-21.271371138
 11
-4.2212450975
 21
-21.2585970043
  0
LWPOLYLINE
  5
265
100
AcDbEntity
  8
RACCORDO
100
AcDbPolyline
 62
7
  6
CONTINUOUS
 90
12
 70
0
 10
8.6582420242
 20
-29.0501075584
 10
8.673486784
 20
-29.0575171142
 10
8.7279116209
 20
-29.0803851692
 10
8.7850444126
 20
-29.0988389057
 10
8.8445742724
 20
-29.1125335534
 10
8.9060807605
 20
-29.1211561978
 10
8.9690720345
 20
-29.1244739882
 10
9.033189416
 20
-29.1223188346
 10
9.0979573418
 20
-29.1145628881
 10
9.162801687
 20
-29.101187824
 10
9.2273458204
 20
-29.0822267981
 10
9.2821830894
 20
-29.0615575632
  0
LINE
  5
266
100
AcDbEntity
  8
RACCORDO
100
AcDbLine
 62
7
  6
CONTINUOUS
 10
8.6589084408
 20
-29.0504459458
 11
-22.0748366819
 21
-13.6835733844
  0
LINE
  5
267
100
AcDbEntity
  8
RACCORDO
100
AcDbLine
 62
253
  6
CONTINUOUS
 10
8.4046472735
 20
-28.6331929483
 11
-22.3246704436
 21
-13.2685340897
  0
LINE
  5
268
100
AcDbEntity
  8
RACCORDO
100
AcDbLine
 62
7
  6
CONTINUOUS
 10
10.0536567632
 20
-28.7377294627
 11
11.5324264107
 21
-29.4771142865
  0
LINE
  5
269
100
AcDbEntity
  8
RACCORDO
100
AcDbLine
 62
253
  6
CONTINUOUS
 10
10.1653509779
 20
-28.6908447682
 11
11.4674531143
 21
-29.3418958364
  0
LINE
  5
26A
100
AcDbEntity
  8
RACCORDO
100
AcDbLine
 62
253
  6
CONTINUOUS
 10
11.4674531143
 20
-29.0486233568
 11
10.4842088069
 21
-28.5570012031
  0
LINE
  5
26B
100
AcDbEntity
  8
RACCORDO
100
AcDbLine
 62
253
  6
CONTINUOUS
 10
11.5558414619
 20
-28.816929183
 11
10.784165897
 21
-28.4310914006
  0
LWPOLYLINE
  5
26C
100
AcDbEntity
  8
RACCORDO
100
AcDbPolyline
 62
7
  6
CONTINUOUS
 90
13
 70
0
 10
-11.2934017183
 20
-17.7282688489
 10
-11.0377554995
 20
-17.8730511373
 10
-10.7286052752
 20
-18.0545622546
 10
-10.4270186194
 20
-18.2366509121
 10
-10.1335474067
 20
-18.4170476163
 10
-9.8477975063
 20
-18.5944456251
 10
-9.5684433883
 20
-18.7684372471
 10
-9.2953406255
 20
-18.9381237356
 10
-9.0287402442
 20
-19.1025582196
 10
-8.7679317838
 20
-19.2615586059
 10
-8.5129203956
 20
-19.4146544449
 10
-8.2640804934
 20
-19.5613127376
 10
-8.1761229638
 20
-19.6124356979
  0
LWPOLYLINE
  5
26D
100
AcDbEntity
  8
RACCORDO
100
AcDbPolyline
 62
7
  6
CONTINUOUS
 90
6
 70
0
 10
-12.8976424141
 20
-16.8253640837
 10
-12.6555964574
 20
-16.9632551623
 10
-12.2953598541
 20
-17.1672577024
 10
-11.9356776492
 20
-17.3697349249
 10
-11.5771959179
 20
-17.5703237527
 10
-11.2933776895
 20
-17.7282708483
  0
LINE
  5
26E
100
AcDbEntity
  8
RACCORDO
100
AcDbLine
 62
7
  6
CONTINUOUS
 10
-20.1679796084
 20
-12.2307609945
 11
-19.992928971
 21
-12.3577667849
  0
LINE
  5
26F
100
AcDbEntity
  8
RACCORDO
100
AcDbLine
 62
7
  6
CONTINUOUS
 10
-20.3154629907
 20
-12.1227221536
 11
-20.1679796084
 21
-12.2307609945
  0
LINE
  5
270
100
AcDbEntity
  8
RACCORDO
100
AcDbLine
 62
7
  6
CONTINUOUS
 10
-20.4135854754
 20
-12.0501064813
 11
-20.3154629907
 21
-12.1227221536
  0
LINE
  5
271
100
AcDbEntity
  8
RACCORDO
100
AcDbLine
 62
7
  6
CONTINUOUS
 10
-20.5018112292
 20
-11.9841394675
 11
-20.4135854754
 21
-12.0501064813
  0
LINE
  5
272
100
AcDbEntity
  8
RACCORDO
100
AcDbLine
 62
7
  6
CONTINUOUS
 10
-20.5811815238
 20
-11.9240845359
 11
-20.5018112292
 21
-11.9841394675
  0
LINE
  5
273
100
AcDbEntity
  8
RACCORDO
100
AcDbLine
 62
7
  6
CONTINUOUS
 10
-20.6296805652
 20
-11.8869654539
 11
-20.5811815238
 21
-11.9240845359
  0
LINE
  5
274
100
AcDbEntity
  8
RACCORDO
100
AcDbLine
 62
7
  6
CONTINUOUS
 10
-20.6750194051
 20
-11.8519018061
 11
-20.6296805652
 21
-11.8869654539
  0
LINE
  5
275
100
AcDbEntity
  8
RACCORDO
100
AcDbLine
 62
7
  6
CONTINUOUS
 10
-20.71743304
 20
-11.8187128186
 11
-20.6750194051
 21
-11.8519018061
  0
LINE
  5
276
100
AcDbEntity
  8
RACCORDO
100
AcDbLine
 62
7
  6
CONTINUOUS
 10
-20.7571460297
 20
-11.7872264808
 11
-20.71743304
 21
-11.8187128186
  0
LINE
  5
277
100
AcDbEntity
  8
RACCORDO
100
AcDbLine
 62
7
  6
CONTINUOUS
 10
-20.7945017759
 20
-11.7571701487
 11
-20.7571460297
 21
-11.7872264808
  0
LINE
  5
278
100
AcDbEntity
  8
0
100
AcDbLine
 62
7
  6
CONTINUOUS
 10
-20.0372411971
 20
-12.0897631617
 11
-19.9440751059
 21
-12.6532385764
  0
LINE
  5
279
100
AcDbEntity
  8
RACCORDO
100
AcDbLine
 62
7
  6
CONTINUOUS
 10
-18.4923163523
 20
27.662517231
 11
-18.4923163523
 21
27.3692447515
  0
LINE
  5
27A
100
AcDbEntity
  8
RACCORDO
100
AcDbLine
 62
253
  6
CONTINUOUS
 10
-18.4190930476
 20
27.5741288834
 11
-18.4190930476
 21
27.2808564039
  0
LINE
  5
27B
100
AcDbEntity
  8
RACCORDO
100
AcDbLine
 62
7
  6
CONTINUOUS
 10
-17.7889120074
 20
26.8630340819
 11
-17.7889120074
 21
26.3225557227
  0
LINE
  5
27C
100
AcDbEntity
  8
RACCORDO
100
AcDbLine
 62
253
  6
CONTINUOUS
 10
-17.7156887027
 20
26.8264224295
 11
-17.7156887027
 21
26.230745745
  0
LINE
  5
27D
100
AcDbEntity
  8
DRAFT
100
AcDbLine
 62
7
  6
CONTINUOUS
 10
-5.8092723446
 20
23.3258197865
 11
-6.5126766895
 21
22.4704151778
  0
LINE
  5
27E
100
AcDbEntity
  8
DRAFT
100
AcDbLine
 62
7
  6
CONTINUOUS
 10
-5.8092723446
 20
23.3258197865
 11
-6.520081562
 21
22.4741176141
  0
LINE
  5
27F
100
AcDbEntity
  8
RACCORDO
100
AcDbLine
 62
7
  6
CONTINUOUS
 10
-2.5824137756
 20
19.6945628162
 11
-3.379014874
 21
19.2495471361
  0
LINE
  5
280
100
AcDbEntity
  8
RACCORDO
100
AcDbLine
 62
7
  6
CONTINUOUS
 10
-2.4462972342
 20
19.9301205604
 11
-0.1589470246
 21
21.1005808979
  0
LINE
  5
281
100
AcDbEntity
  8
RACCORDO
100
AcDbLine
 62
253
  6
CONTINUOUS
 10
-2.333339372
 20
19.9236065276
 11
-0.0463545011
 21
21.0938799176
  0
LINE
  5
282
100
AcDbEntity
  8
RACCORDO
100
AcDbLine
 62
253
  6
CONTINUOUS
 10
-4.0898240914
 20
20.5853455042
 11
-1.7787636918
 21
21.7435811298
  0
LINE
  5
283
100
AcDbEntity
  8
RACCORDO
100
AcDbLine
 62
253
  6
CONTINUOUS
 10
-0.6603537795
 20
19.0871137314
 11
1.6507066202
 21
20.245349357
  0
LINE
  5
284
100
AcDbEntity
  8
RACCORDO
100
AcDbLine
 62
253
  6
CONTINUOUS
 10
-0.4835795074
 20
18.7822232122
 11
1.8274808922
 21
19.9404588378
  0
LWPOLYLINE
  5
285
100
AcDbEntity
  8
RACCORDO
100
AcDbPolyline
 62
7
  6
CONTINUOUS
 90
13
 70
0
 10
-20.6151458989
 20
-11.7463672755
 10
-20.6160686928
 20
-11.7460261086
 10
-20.6176731513
 20
-11.7454178566
 10
-20.6161108944
 20
-11.7460387695
 10
-20.6121824346
 20
-11.7476522778
 10
-20.6059836939
 20
-11.7502719963
 10
-20.5973607185
 20
-11.7540102984
 10
-20.5867259032
 20
-11.7587258126
 10
-20.5740999887
 20
-11.7644356889
 10
-20.5593898966
 20
-11.771205723
 10
-20.5428311835
 20
-11.7789464155
 10
-20.5244164049
 20
-11.7876750905
 10
-20.5040787512
 20
-11.7974358286
  0
LWPOLYLINE
  5
286
100
AcDbEntity
  8
RACCORDO
100
AcDbPolyline
 62
7
  6
CONTINUOUS
 90
13
 70
0
 10
-14.9726767232
 20
-14.6017961193
 10
-13.878681325
 20
-15.1311022054
 10
-13.5138346816
 20
-15.3080250018
 10
-13.1501783107
 20
-15.4848944759
 10
-12.7883593472
 20
-15.6615525225
 10
-12.4293828912
 20
-15.837639925
 10
-12.0737128654
 20
-16.0130505403
 10
-11.721260594
 20
-16.1879491623
 10
-11.3729437433
 20
-16.3619855591
 10
-11.029173558
 20
-16.5350470127
 10
-10.6891176864
 20
-16.7076440582
 10
-10.3529049315
 20
-16.8798016266
 10
-10.021638368
 20
-17.0510324982
  0
LINE
  5
287
100
AcDbEntity
  8
RACCORDO
100
AcDbLine
 62
7
  6
CONTINUOUS
 10
-20.5040787512
 20
-11.7974358286
 11
-20.458057261
 21
-11.8198872743
  0
LWPOLYLINE
  5
288
100
AcDbEntity
  8
RACCORDO
100
AcDbPolyline
 62
7
  6
CONTINUOUS
 90
6
 70
0
 10
-16.7482660309
 20
-13.7335524645
 10
-16.4015634416
 20
-13.9050420237
 10
-16.0497188816
 20
-14.0778761849
 10
-15.6938211861
 20
-14.2516998434
 10
-15.3346244324
 20
-14.426351937
 10
-14.9726767232
 20
-14.6017961193
  0
LINE
  5
289
100
AcDbEntity
  8
RACCORDO
100
AcDbLine
 62
7
  6
CONTINUOUS
 10
-20.458057261
 20
-11.8198872743
 11
-20.4048097031
 21
-11.8463343978
  0
LINE
  5
28A
100
AcDbEntity
  8
RACCORDO
100
AcDbLine
 62
7
  6
CONTINUOUS
 10
12.1782623317
 20
-28.0719211844
 11
11.9325297571
 21
-27.9490548971
  0
LINE
  5
28B
100
AcDbEntity
  8
DRAFT
100
AcDbLine
 62
7
  6
CONTINUOUS
 10
14.1311388849
 20
-27.780592508
 11
13.4203296674
 21
-27.4251878992
  0
LINE
  5
28C
100
AcDbEntity
  8
RACCORDO
100
AcDbLine
 62
7
  6
CONTINUOUS
 10
-17.097329385
 20
-13.5595014942
 11
-16.7482660309
 21
-13.7335524645
  0
LINE
  5
28D
100
AcDbEntity
  8
RACCORDO
100
AcDbLine
 62
7
  6
CONTINUOUS
 10
-17.323676535
 20
-13.4458085799
 11
-17.097329385
 21
-13.5595014942
  0
LINE
  5
28E
100
AcDbEntity
  8
RACCORDO
100
AcDbLine
 62
7
  6
CONTINUOUS
 10
-20.4048097031
 20
-11.8463343978
 11
-20.3445023982
 21
-11.8767258261
  0
LINE
  5
28F
100
AcDbEntity
  8
RACCORDO
100
AcDbLine
 62
7
  6
CONTINUOUS
 10
-17.541963419
 20
-13.3355086144
 11
-17.323676535
 21
-13.4458085799
  0
LINE
  5
290
100
AcDbEntity
  8
RACCORDO
100
AcDbLine
 62
7
  6
CONTINUOUS
 10
-17.7522187395
 20
-13.2286412729
 11
-17.541963419
 21
-13.3355086144
  0
LINE
  5
291
100
AcDbEntity
  8
RACCORDO
100
AcDbLine
 62
7
  6
CONTINUOUS
 10
-20.3445023982
 20
-11.8767258261
 11
-20.2772465837
 21
-11.9110194181
  0
LINE
  5
292
100
AcDbEntity
  8
RACCORDO
100
AcDbLine
 62
7
  6
CONTINUOUS
 10
-17.9544976813
 20
-13.1252420436
 11
-17.7522187395
 21
-13.2286412729
  0
LINE
  5
293
100
AcDbEntity
  8
RACCORDO
100
AcDbLine
 62
7
  6
CONTINUOUS
 10
-18.1488665228
 20
-13.0253435981
 11
-17.9544976813
 21
-13.1252420436
  0
LINE
  5
294
100
AcDbEntity
  8
RACCORDO
100
AcDbLine
 62
7
  6
CONTINUOUS
 10
-20.2772465837
 20
-11.9110194181
 11
-20.1634171096
 21
-11.9697325559
  0
LINE
  5
295
100
AcDbEntity
  8
RACCORDO
100
AcDbLine
 62
7
  6
CONTINUOUS
 10
-18.4257224238
 20
-12.8821498156
 11
-18.1488665228
 21
-13.0253435981
  0
LINE
  5
296
100
AcDbEntity
  8
RACCORDO
100
AcDbLine
 62
7
  6
CONTINUOUS
 10
-18.6851792432
 20
-12.7470514605
 11
-18.4257224238
 21
-12.8821498156
  0
LINE
  5
297
100
AcDbEntity
  8
RACCORDO
100
AcDbLine
 62
7
  6
CONTINUOUS
 10
-20.1634171096
 20
-11.9697325559
 11
-20.0342554908
 21
-12.037026062
  0
LINE
  5
298
100
AcDbEntity
  8
RACCORDO
100
AcDbLine
 62
7
  6
CONTINUOUS
 10
-10.021638368
 20
-17.0510324982
 11
-9.7490654728
 21
-17.1932161787
  0
LINE
  5
299
100
AcDbEntity
  8
RACCORDO
100
AcDbLine
 62
7
  6
CONTINUOUS
 10
-19.0044594201
 20
-12.5797391615
 11
-18.6851792432
 21
-12.7470514605
  0
LINE
  5
29A
100
AcDbEntity
  8
RACCORDO
100
AcDbLine
 62
7
  6
CONTINUOUS
 10
-20.0342554908
 20
-12.037026062
 11
-19.889715662
 21
-12.1128452551
  0
LWPOLYLINE
  5
29B
100
AcDbEntity
  8
RACCORDO
100
AcDbPolyline
 62
7
  6
CONTINUOUS
 90
11
 70
0
 10
-9.7486291729
 20
-17.1934445466
 10
-9.4993709599
 20
-17.3245546179
 10
-9.1843112004
 20
-17.4918554884
 10
-8.8749548523
 20
-17.6579662864
 10
-8.5717157471
 20
-17.8226949143
 10
-8.2752994506
 20
-17.9856893254
 10
-7.98672208
 20
-18.1464037348
 10
-7.7064228487
 20
-18.3045874069
 10
-7.4348431422
 20
-18.4599892493
 10
-7.1729248359
 20
-18.6120516118
 10
-6.9210249211
 20
-18.7605263765
  0
LWPOLYLINE
  5
29C
100
AcDbEntity
  8
RACCORDO
100
AcDbPolyline
 62
7
  6
CONTINUOUS
 90
3
 70
0
 10
-19.889715662
 20
-12.1128452551
 10
-19.6140449916
 20
-12.2582004704
 10
-19.0044594201
 20
-12.5797391615
  0
LWPOLYLINE
  5
29D
100
AcDbEntity
  8
RACCORDO
100
AcDbPolyline
 62
7
  6
CONTINUOUS
 90
12
 70
0
 10
-6.9210249211
 20
-18.7605263765
 10
-6.6794713112
 20
-18.9051997797
 10
-6.4490640076
 20
-19.0455687999
 10
-6.2300244349
 20
-19.1814497323
 10
-6.0225605909
 20
-19.312669493
 10
-5.8273417489
 20
-19.4387520114
 10
-5.6444216606
 20
-19.5595819038
 10
-5.4738734381
 20
-19.6750208156
 10
-5.3162797915
 20
-19.7845619575
 10
-5.1717603787
 20
-19.8879655161
 10
-5.0400075535
 20
-19.9852754413
 10
-4.9497690081
 20
-20.0539986892
  0
LWPOLYLINE
  5
29E
100
AcDbEntity
  8
RACCORDO
100
AcDbPolyline
 62
7
  6
CONTINUOUS
 90
29
 70
0
 10
-4.949769923
 20
-20.0539998737
 10
-4.8455053932
 20
-20.1348845183
 10
-4.7800699912
 20
-20.1860377586
 10
-4.7173866272
 20
-20.2353582803
 10
-4.6574156776
 20
-20.2828685166
 10
-4.6001235334
 20
-20.3285854952
 10
-4.5454632566
 20
-20.3725362383
 10
-4.4933907959
 20
-20.4147448981
 10
-4.4438791408
 20
-20.4552210577
 10
-4.3968747223
 20
-20.4939952115
 10
-4.3523342438
 20
-20.531088918
 10
-4.3102480522
 20
-20.5664946142
 10
-4.2705604381
 20
-20.6002421608
 10
-4.2332284875
 20
-20.6323499829
 10
-4.1982631061
 20
-20.6627884961
 10
-4.1656049594
 20
-20.6915873026
 10
-4.1352110387
 20
-20.7187609901
 10
-4.1071168823
 20
-20.744250921
 10
-4.0812548379
 20
-20.7680881396
 10
-4.057584789
 20
-20.790277033
 10
-4.0361812652
 20
-20.8107090577
 10
-4.0169630879
 20
-20.829417099
 10
-3.9998926771
 20
-20.8463894893
 10
-3.9851000087
 20
-20.8614373326
 10
-3.9724771568
 20
-20.874599419
 10
-3.9619837658
 20
-20.8858402958
 10
-3.9538250532
 20
-20.8948402326
 10
-3.9478545831
 20
-20.9016388896
 10
-3.9463225296
 20
-20.9034258692
  0
LINE
  5
29F
100
AcDbEntity
  8
RACCORDO
100
AcDbLine
 62
253
  6
CONTINUOUS
 10
-16.7461074551
 20
26.4443636076
 11
-16.7461074551
 21
26.7376360871
  0
LINE
  5
2A0
100
AcDbEntity
  8
RACCORDO
100
AcDbLine
 62
253
  6
CONTINUOUS
 10
-16.3934820841
 20
26.443902021
 11
-16.3934820841
 21
26.7371745005
  0
LINE
  5
2A1
100
AcDbEntity
  8
RACCORDO
100
AcDbLine
 62
253
  6
CONTINUOUS
 10
-16.0352982376
 20
25.3905505124
 11
-16.0352982376
 21
26.1659524911
  0
LINE
  5
2A2
100
AcDbEntity
  8
RACCORDO
100
AcDbLine
 62
253
  6
CONTINUOUS
 10
-15.6826728666
 20
25.4013761324
 11
-15.6826728666
 21
26.2956041935
  0
LINE
  5
2A3
100
AcDbEntity
  8
DRAFT
100
AcDbLine
 62
7
  6
CONTINUOUS
 10
-14.7932309019
 20
26.610692284
 11
-14.7932309019
 21
25.8982567187
  0
LINE
  5
2A4
100
AcDbEntity
  8
RACCORDO
100
AcDbLine
 62
7
  6
CONTINUOUS
 10
-14.0824216845
 20
27.4623944564
 11
-14.0824216845
 21
27.8954101262
  0
LINE
  5
2A5
100
AcDbEntity
  8
DRAFT
100
AcDbLine
 62
7
  6
CONTINUOUS
 10
-13.8610335594
 20
25.7891034423
 11
-13.8610335594
 21
24.3034181733
  0
LINE
  5
2A6
100
AcDbEntity
  8
DRAFT
100
AcDbLine
 62
7
  6
CONTINUOUS
 10
-1.7787636918
 20
21.3105654601
 11
-2.4895729093
 21
20.4588632877
  0
LINE
  5
2A7
100
AcDbEntity
  8
RACCORDO
100
AcDbLine
 62
7
  6
CONTINUOUS
 10
1.1166716748
 20
17.9433054304
 11
0.2272297101
 21
17.4464248441
  0
LINE
  5
2A8
100
AcDbEntity
  8
DRAFT
100
AcDbLine
 62
7
  6
CONTINUOUS
 10
3.8073798796
 20
18.7340000254
 11
2.0488690173
 21
17.8341521539
  0
LINE
  5
2A9
100
AcDbEntity
  8
RACCORDO
100
AcDbLine
 62
7
  6
CONTINUOUS
 10
2.7113643687
 20
17.5029044782
 11
3.559152029
 21
17.9322350077
  0
LINE
  5
2AA
100
AcDbEntity
  8
RACCORDO
100
AcDbLine
 62
7
  6
CONTINUOUS
 10
9.0382733926
 20
20.495469606
 11
4.6526797829
 21
18.3113500737
  0
LINE
  5
2AB
100
AcDbEntity
  8
ASSI
100
AcDbLine
 62
7
  6
CONTINUOUS
 10
9.0382733926
 20
20.495469606
 11
4.6526797829
 21
18.3113500737
  0
LINE
  5
2AC
100
AcDbEntity
  8
RACCORDO
100
AcDbLine
 62
7
  6
CONTINUOUS
 10
3.9839840768
 20
18.6456979268
 11
8.4467965565
 21
20.791208024
  0
LINE
  5
2AD
100
AcDbEntity
  8
ASSI
100
AcDbLine
 62
7
  6
CONTINUOUS
 10
3.9839840768
 20
18.6456979268
 11
8.4467965565
 21
20.791208024
  0
LINE
  5
2AE
100
AcDbEntity
  8
DRAFT
100
AcDbLine
 62
7
  6
CONTINUOUS
 10
-13.198538208
 20
23.9721704976
 11
-13.198538208
 21
25.4578557666
  0
LINE
  5
2AF
100
AcDbEntity
  8
RACCORDO
100
AcDbLine
 62
7
  6
CONTINUOUS
 10
-12.4914314268
 20
25.6436431499
 11
-12.4914314268
 21
24.3711103564
  0
LINE
  5
2B0
100
AcDbEntity
  8
RACCORDO
100
AcDbLine
 62
253
  6
CONTINUOUS
 10
-10.8972725594
 20
23.5740309227
 11
-10.8972725594
 21
24.8465637163
  0
LINE
  5
2B1
100
AcDbEntity
  8
RACCORDO
100
AcDbLine
 62
253
  6
CONTINUOUS
 10
-10.6194515312
 20
23.5803667314
 11
-10.6194515312
 21
24.8441390242
  0
LINE
  5
2B2
100
AcDbEntity
  8
DRAFT
100
AcDbLine
 62
7
  6
CONTINUOUS
 10
1.1166716748
 20
18.6557409956
 11
1.8274808922
 21
19.5074431681
  0
LINE
  5
2B3
100
AcDbEntity
  8
0
100
AcDbLine
 62
7
  6
CONTINUOUS
 10
3.4184711499
 20
16.4161590681
 11
2.7113643687
 21
16.0172192093
  0
LINE
  5
2B4
100
AcDbEntity
  8
RACCORDO
100
AcDbLine
 62
7
  6
CONTINUOUS
 10
7.7108028562
 20
16.7408986787
 11
6.8200665273
 21
16.2573809845
  0
LINE
  5
2B5
100
AcDbEntity
  8
RACCORDO
100
AcDbLine
 62
253
  6
CONTINUOUS
 10
7.8025935378
 20
16.7363931963
 11
6.91474063
 21
16.2544407072
  0
LINE
  5
2B6
100
AcDbEntity
  8
RACCORDO
100
AcDbLine
 62
7
  6
CONTINUOUS
 10
5.2904510455
 20
15.625415443
 11
6.2468982747
 21
16.1306853798
  0
LINE
  5
2B7
100
AcDbEntity
  8
0
100
AcDbLine
 62
7
  6
CONTINUOUS
 10
17.5028574184
 20
20.8976975789
 11
17.1154793991
 21
20.7040085693
  0
LINE
  5
2B8
100
AcDbEntity
  8
0
100
AcDbLine
 62
7
  6
CONTINUOUS
 10
15.6217013491
 20
19.9571195443
 11
14.208598889
 21
19.2505683143
  0
LINE
  5
2B9
100
AcDbEntity
  8
0
100
AcDbLine
 62
7
  6
CONTINUOUS
 10
17.4978797919
 20
20.7891427485
 11
17.2346722868
 21
20.657538996
  0
LINE
  5
2BA
100
AcDbEntity
  8
DRAFT
100
AcDbLine
 62
7
  6
CONTINUOUS
 10
9.3856829982
 20
19.4031395807
 11
5.8826848338
 21
17.6963475483
  0
LINE
  5
2BB
100
AcDbEntity
  8
ASSI
100
AcDbLine
 62
7
  6
CONTINUOUS
 10
9.3856829982
 20
19.4031395807
 11
5.8826848338
 21
17.6963475483
  0
LINE
  5
2BC
100
AcDbEntity
  8
RACCORDO
100
AcDbLine
 62
7
  6
CONTINUOUS
 10
14.068295467
 20
17.9804585688
 11
9.6054829872
 21
15.8349484716
  0
LINE
  5
2BD
100
AcDbEntity
  8
ASSI
100
AcDbLine
 62
7
  6
CONTINUOUS
 10
14.068295467
 20
17.9804585688
 11
9.6054829872
 21
15.8349484716
  0
LINE
  5
2BE
100
AcDbEntity
  8
RACCORDO
100
AcDbLine
 62
253
  6
CONTINUOUS
 10
5.1533108964
 20
17.135155574
 11
6.1054165739
 21
17.5849816782
  0
LINE
  5
2BF
100
AcDbEntity
  8
RACCORDO
100
AcDbLine
 62
253
  6
CONTINUOUS
 10
5.2904510455
 20
16.8891877359
 11
6.2468982747
 21
17.3410650234
  0
LINE
  5
2C0
100
AcDbEntity
  8
RACCORDO
100
AcDbLine
 62
253
  6
CONTINUOUS
 10
7.697962954
 20
-18.8768348124
 11
5.3548463134
 21
-17.7052764827
  0
LINE
  5
2C1
100
AcDbEntity
  8
RACCORDO
100
AcDbLine
 62
7
  6
CONTINUOUS
 10
-9.663004302
 20
24.0856366682
 11
-9.663004302
 21
25.2960163118
  0
LINE
  5
2C2
100
AcDbEntity
  8
RACCORDO
100
AcDbLine
 62
7
  6
CONTINUOUS
 10
-9.1944214696
 20
24.0365595276
 11
-9.1944214696
 21
22.7667608297
  0
LINE
  5
2C3
100
AcDbEntity
  8
RACCORDO
100
AcDbLine
 62
253
  6
CONTINUOUS
 10
-9.1358428258
 20
23.9658488495
 11
-9.1358428258
 21
22.693316056
  0
LINE
  5
2C4
100
AcDbEntity
  8
DRAFT
100
AcDbLine
 62
7
  6
CONTINUOUS
 10
-8.2487907397
 20
22.9829820324
 11
-8.2487907397
 21
21.4972967635
  0
LINE
  5
2C5
100
AcDbEntity
  8
DRAFT
100
AcDbLine
 62
7
  6
CONTINUOUS
 10
-7.5862953882
 20
21.1660490878
 11
-7.5862953882
 21
22.6517343567
  0
LINE
  5
2C6
100
AcDbEntity
  8
RACCORDO
100
AcDbLine
 62
7
  6
CONTINUOUS
 10
-6.5242195785
 20
28.1941879718
 11
-6.5242195785
 21
27.3580908691
  0
LINE
  5
2C7
100
AcDbEntity
  8
ASSI
100
AcDbLine
 62
7
  6
CONTINUOUS
 10
-6.5242195785
 20
28.1941879718
 11
-6.5242195785
 21
27.3580908691
  0
LINE
  5
2C8
100
AcDbEntity
  8
DRAFT
100
AcDbLine
 62
7
  6
CONTINUOUS
 10
-6.520081562
 20
21.7616820488
 11
-6.520081562
 21
22.4741176141
  0
LINE
  5
2C9
100
AcDbEntity
  8
DRAFT
100
AcDbLine
 62
7
  6
CONTINUOUS
 10
-6.5126766895
 20
21.7579796125
 11
-6.5126766895
 21
22.4704151778
  0
LINE
  5
2CA
100
AcDbEntity
  8
0
100
AcDbLine
 62
7
  6
CONTINUOUS
 10
2.9932839833
 20
27.8313820825
 11
2.966138292
 21
27.7602245297
  0
LINE
  5
2CB
100
AcDbEntity
  8
DRAFT
100
AcDbLine
 62
7
  6
CONTINUOUS
 10
9.3898210147
 20
13.8067307604
 11
8.3236071885
 21
13.2110977994
  0
LINE
  5
2CC
100
AcDbEntity
  8
RACCORDO
100
AcDbLine
 62
7
  6
CONTINUOUS
 10
9.8573607584
 20
13.7782915641
 11
12.144710968
 21
14.9487519016
  0
LINE
  5
2CD
100
AcDbEntity
  8
RACCORDO
100
AcDbLine
 62
253
  6
CONTINUOUS
 10
9.9703186207
 20
13.7717775313
 11
12.2573034915
 21
14.9420509213
  0
LINE
  5
2CE
100
AcDbEntity
  8
RACCORDO
100
AcDbLine
 62
7
  6
CONTINUOUS
 10
8.5088994973
 20
15.4573612735
 11
7.661111837
 21
15.0280307441
  0
LINE
  5
2CF
100
AcDbEntity
  8
DRAFT
100
AcDbLine
 62
7
  6
CONTINUOUS
 10
8.3236071885
 20
14.6967830684
 11
10.1006302321
 21
15.5873748491
  0
LINE
  5
2D0
100
AcDbEntity
  8
RACCORDO
100
AcDbLine
 62
7
  6
CONTINUOUS
 10
10.1006302321
 20
15.4141697683
 11
14.659772303
 21
17.6847201508
  0
LINE
  5
2D1
100
AcDbEntity
  8
ASSI
100
AcDbLine
 62
7
  6
CONTINUOUS
 10
10.1006302321
 20
15.4141697683
 11
14.659772303
 21
17.6847201508
  0
LINE
  5
2D2
100
AcDbEntity
  8
DRAFT
100
AcDbLine
 62
7
  6
CONTINUOUS
 10
10.1006302321
 20
14.2017342031
 11
15.0071819087
 21
16.5923901255
  0
LINE
  5
2D3
100
AcDbEntity
  8
ASSI
100
AcDbLine
 62
7
  6
CONTINUOUS
 10
10.1006302321
 20
14.2017342031
 11
15.0071819087
 21
16.5923901255
  0
LINE
  5
2D4
100
AcDbEntity
  8
DRAFT
100
AcDbLine
 62
7
  6
CONTINUOUS
 10
9.3972258872
 20
13.8030283241
 11
10.1006302321
 21
14.1130464646
  0
LINE
  5
2D5
100
AcDbEntity
  8
RACCORDO
100
AcDbLine
 62
7
  6
CONTINUOUS
 10
-6.1886583596
 20
21.5106882347
 11
-6.1886583596
 21
21.2174157552
  0
LINE
  5
2D6
100
AcDbEntity
  8
RACCORDO
100
AcDbLine
 62
253
  6
CONTINUOUS
 10
-6.1154350549
 20
21.4222998871
 11
-6.1154350549
 21
21.1290274075
  0
LINE
  5
2D7
100
AcDbEntity
  8
DRAFT
100
AcDbLine
 62
7
  6
CONTINUOUS
 10
-5.8092723446
 20
23.5423261375
 11
-5.8092723446
 21
22.067997753
  0
LINE
  5
2D8
100
AcDbEntity
  8
ASSI
100
AcDbLine
 62
7
  6
CONTINUOUS
 10
-5.8092723446
 20
22.1566854914
 11
-5.8092723446
 21
23.3691210567
  0
LINE
  5
2D9
100
AcDbEntity
  8
RACCORDO
100
AcDbLine
 62
7
  6
CONTINUOUS
 10
-5.4852540147
 20
20.7112050855
 11
-5.4852540147
 21
20.1707267264
  0
LINE
  5
2DA
100
AcDbEntity
  8
RACCORDO
100
AcDbLine
 62
253
  6
CONTINUOUS
 10
-5.41203071
 20
20.6745934332
 11
-5.41203071
 21
20.0789167487
  0
LINE
  5
2DB
100
AcDbEntity
  8
RACCORDO
100
AcDbLine
 62
253
  6
CONTINUOUS
 10
-4.4424494624
 20
20.2925346113
 11
-4.4424494624
 21
20.5858070908
  0
LINE
  5
2DC
100
AcDbEntity
  8
RACCORDO
100
AcDbLine
 62
253
  6
CONTINUOUS
 10
-4.0898240914
 20
20.2920730247
 11
-4.0898240914
 21
20.5853455042
  0
LINE
  5
2DD
100
AcDbEntity
  8
RACCORDO
100
AcDbLine
 62
253
  6
CONTINUOUS
 10
-3.731640245
 20
19.2387215161
 11
-3.731640245
 21
20.0141234948
  0
LINE
  5
2DE
100
AcDbEntity
  8
RACCORDO
100
AcDbLine
 62
253
  6
CONTINUOUS
 10
-3.379014874
 20
19.2495471361
 11
-3.379014874
 21
20.1437751971
  0
LINE
  5
2DF
100
AcDbEntity
  8
0
100
AcDbLine
 62
7
  6
CONTINUOUS
 10
-0.8643156868
 20
27.7548106209
 11
-0.9587509911
 21
26.821215676
  0
LINE
  5
2E0
100
AcDbEntity
  8
RACCORDO
100
AcDbLine
 62
7
  6
CONTINUOUS
 10
13.4203296674
 20
11.791476434
 11
12.5308877027
 21
11.2945958478
  0
LINE
  5
2E1
100
AcDbEntity
  8
RACCORDO
100
AcDbLine
 62
253
  6
CONTINUOUS
 10
13.7424992799
 20
11.6303916278
 11
9.0726810668
 21
9.0810006033
  0
LINE
  5
2E2
100
AcDbEntity
  8
RACCORDO
100
AcDbLine
 62
253
  6
CONTINUOUS
 10
11.6433042132
 20
12.935284735
 11
13.9543646128
 21
14.0935203607
  0
LINE
  5
2E3
100
AcDbEntity
  8
RACCORDO
100
AcDbLine
 62
253
  6
CONTINUOUS
 10
11.8200784853
 20
12.6303942159
 11
14.1311388849
 21
13.7886298415
  0
LINE
  5
2E4
100
AcDbEntity
  8
RACCORDO
100
AcDbLine
 62
253
  6
CONTINUOUS
 10
21.0849475306
 20
15.6355165167
 11
14.1312465807
 21
12.1864260288
  0
LINE
  5
2E5
100
AcDbEntity
  8
ASSI
100
AcDbLine
 62
253
  6
CONTINUOUS
 10
21.0849475306
 20
15.6355165167
 11
14.1312465807
 21
12.1864260288
  0
LINE
  5
2E6
100
AcDbEntity
  8
RACCORDO
100
AcDbLine
 62
253
  6
CONTINUOUS
 10
21.7919501837
 20
14.4161179292
 11
14.8382456661
 21
10.9670329822
  0
LINE
  5
2E7
100
AcDbEntity
  8
ASSI
100
AcDbLine
 62
253
  6
CONTINUOUS
 10
21.7919501837
 20
14.4161179292
 11
14.8382456661
 21
10.9670329822
  0
LINE
  5
2E8
100
AcDbEntity
  8
RACCORDO
100
AcDbLine
 62
253
  6
CONTINUOUS
 10
14.4433141244
 20
11.9417045185
 11
13.7423781706
 21
11.6304521825
  0
LINE
  5
2E9
100
AcDbEntity
  8
RACCORDO
100
AcDbLine
 62
253
  6
CONTINUOUS
 10
14.7967194996
 20
11.3315929191
 11
14.0957835458
 21
11.020340583
  0
LINE
  5
2EA
100
AcDbEntity
  8
RACCORDO
100
AcDbLine
 62
7
  6
CONTINUOUS
 10
-2.5824137756
 20
19.7075659427
 11
-2.5824137756
 21
19.4142934632
  0
LINE
  5
2EB
100
AcDbEntity
  8
RACCORDO
100
AcDbLine
 62
253
  6
CONTINUOUS
 10
-2.5091904709
 20
19.619177595
 11
-2.5091904709
 21
19.3259051155
  0
LINE
  5
2EC
100
AcDbEntity
  8
DRAFT
100
AcDbLine
 62
7
  6
CONTINUOUS
 10
-2.4895729093
 20
20.4588632877
 11
-2.4895729093
 21
19.9019237326
  0
LINE
  5
2ED
100
AcDbEntity
  8
RACCORDO
100
AcDbLine
 62
7
  6
CONTINUOUS
 10
-1.8790094307
 20
18.9080827935
 11
-1.8790094307
 21
18.3676044344
  0
LINE
  5
2EE
100
AcDbEntity
  8
RACCORDO
100
AcDbLine
 62
253
  6
CONTINUOUS
 10
-1.805786126
 20
18.8714711412
 11
-1.805786126
 21
18.2757944566
  0
LINE
  5
2EF
100
AcDbEntity
  8
RACCORDO
100
AcDbLine
 62
7
  6
CONTINUOUS
 10
-1.7787636918
 20
21.3105654601
 11
-1.7787636918
 21
21.7435811298
  0
LINE
  5
2F0
100
AcDbEntity
  8
RACCORDO
100
AcDbLine
 62
7
  6
CONTINUOUS
 10
-0.902720668
 20
24.5473414139
 11
-0.902720668
 21
25.3834385166
  0
LINE
  5
2F1
100
AcDbEntity
  8
ASSI
100
AcDbLine
 62
7
  6
CONTINUOUS
 10
-0.902720668
 20
24.5473414139
 11
-0.902720668
 21
25.3834385166
  0
LINE
  5
2F2
100
AcDbEntity
  8
RACCORDO
100
AcDbLine
 62
253
  6
CONTINUOUS
 10
-0.8362048784
 20
18.4894123193
 11
-0.8362048784
 21
18.7826847988
  0
LINE
  5
2F3
100
AcDbEntity
  8
RACCORDO
100
AcDbLine
 62
253
  6
CONTINUOUS
 10
-0.4835795074
 20
18.4889507327
 11
-0.4835795074
 21
18.7822232122
  0
LINE
  5
2F4
100
AcDbEntity
  8
RACCORDO
100
AcDbLine
 62
253
  6
CONTINUOUS
 10
-0.1253956609
 20
17.4355992241
 11
-0.1253956609
 21
18.2110012028
  0
LINE
  5
2F5
100
AcDbEntity
  8
RACCORDO
100
AcDbLine
 62
253
  6
CONTINUOUS
 10
0.2272297101
 20
17.4464248441
 11
0.2272297101
 21
18.3406529051
  0
LINE
  5
2F6
100
AcDbEntity
  8
0
100
AcDbLine
 62
7
  6
CONTINUOUS
 10
2.344000728
 20
28.8139512904
 11
2.2871003
 21
28.2164277832
  0
LINE
  5
2F7
100
AcDbEntity
  8
0
100
AcDbLine
 62
7
  6
CONTINUOUS
 10
3.235725348
 20
27.5468098037
 11
3.296849329
 21
28.1275617589
  0
LINE
  5
2F8
100
AcDbEntity
  8
DRAFT
100
AcDbLine
 62
7
  6
CONTINUOUS
 10
10.1006302321
 20
15.3708684982
 11
9.3972258872
 21
14.5154638894
  0
LINE
  5
2F9
100
AcDbEntity
  8
DRAFT
100
AcDbLine
 62
7
  6
CONTINUOUS
 10
10.1006302321
 20
15.3708684982
 11
9.3898210147
 21
14.5191663257
  0
LINE
  5
2FA
100
AcDbEntity
  8
RACCORDO
100
AcDbLine
 62
253
  6
CONTINUOUS
 10
14.0957835458
 20
11.0205386012
 11
9.4385138068
 21
8.4779981576
  0
LINE
  5
2FB
100
AcDbEntity
  8
RACCORDO
100
AcDbLine
 62
7
  6
CONTINUOUS
 10
23.8185017871
 20
14.7006413708
 11
22.6871309372
 21
14.1349559458
  0
LINE
  5
2FC
100
AcDbEntity
  8
RACCORDO
100
AcDbLine
 62
7
  6
CONTINUOUS
 10
23.8185017871
 20
14.0078210477
 11
22.6871309372
 21
13.4421356228
  0
LINE
  5
2FD
100
AcDbEntity
  8
0
100
AcDbLine
 62
253
  6
CONTINUOUS
 10
21.9800241561
 20
12.9153771514
 11
22.545709581
 21
13.1982198639
  0
LINE
  5
2FE
100
AcDbEntity
  8
SMUSSO
100
AcDbLine
 62
7
  6
CONTINUOUS
 10
23.747791109
 20
13.5528556735
 11
22.545709581
 21
12.9518149095
  0
LINE
  5
2FF
100
AcDbEntity
  8
0
100
AcDbLine
 62
7
  6
CONTINUOUS
 10
1.5537519621
 20
28.4351647692
 11
1.5799935188
 21
27.8628743926
  0
LINE
  5
300
100
AcDbEntity
  8
0
100
AcDbLine
 62
7
  6
CONTINUOUS
 10
1.5799935188
 20
27.8628743926
 11
1.587895184
 21
27.6012036964
  0
LINE
  5
301
100
AcDbEntity
  8
DRAFT
100
AcDbLine
 62
7
  6
CONTINUOUS
 10
1.1166716748
 20
17.9433054304
 11
1.1166716748
 21
18.6557409956
  0
LINE
  5
302
100
AcDbEntity
  8
RACCORDO
100
AcDbLine
 62
7
  6
CONTINUOUS
 10
1.8274808922
 20
19.5074431681
 11
1.8274808922
 21
19.9404588378
  0
LINE
  5
303
100
AcDbEntity
  8
DRAFT
100
AcDbLine
 62
7
  6
CONTINUOUS
 10
2.0488690173
 20
17.8341521539
 11
2.0488690173
 21
16.348466885
  0
LINE
  5
304
100
AcDbEntity
  8
0
100
AcDbLine
 62
7
  6
CONTINUOUS
 10
2.2871003
 20
28.8019222995
 11
2.2871003
 21
28.2164277832
  0
LINE
  5
305
100
AcDbEntity
  8
DRAFT
100
AcDbLine
 62
7
  6
CONTINUOUS
 10
2.7113643687
 20
16.0172192093
 11
2.7113643687
 21
17.5029044782
  0
LINE
  5
306
100
AcDbEntity
  8
RACCORDO
100
AcDbLine
 62
7
  6
CONTINUOUS
 10
3.4184711499
 20
17.6886918616
 11
3.4184711499
 21
16.4161590681
  0
LINE
  5
307
100
AcDbEntity
  8
0
100
AcDbLine
 62
7
  6
CONTINUOUS
 10
2.2871003
 20
28.2164277832
 11
2.2827678863
 21
28.0686236231
  0
LINE
  5
308
100
AcDbEntity
  8
0
100
AcDbLine
 62
7
  6
CONTINUOUS
 10
2.9942070812
 20
27.8628743926
 11
2.9906537424
 21
27.7416490676
  0
LINE
  5
309
100
AcDbEntity
  8
0
100
AcDbLine
 62
7
  6
CONTINUOUS
 10
3.020448638
 20
28.4351647692
 11
2.9942070812
 21
27.8628743926
  0
LINE
  5
30A
100
AcDbEntity
  8
DRAFT
100
AcDbLine
 62
7
  6
CONTINUOUS
 10
14.1311388849
 20
13.3556141718
 11
13.4203296674
 21
12.5039119993
  0
LINE
  5
30B
100
AcDbEntity
  8
0
100
AcDbLine
 62
7
  6
CONTINUOUS
 10
23.0369990557
 20
9.9982756551
 11
22.545709581
 21
9.7526309177
  0
LINE
  5
30C
100
AcDbEntity
  8
0
100
AcDbLine
 62
7
  6
CONTINUOUS
 10
24.0775736522
 20
9.8275497482
 11
23.540565074
 21
9.5590454591
  0
LINE
  5
30D
100
AcDbEntity
  8
SMUSSO
100
AcDbLine
 62
7
  6
CONTINUOUS
 10
28.5561172211
 20
11.1486926175
 11
22.545709581
 21
8.1434887974
  0
LINE
  5
30E
100
AcDbEntity
  8
SMUSSO
100
AcDbLine
 62
7
  6
CONTINUOUS
 10
28.6268278992
 20
11.026734738
 11
22.545709581
 21
7.9861755789
  0
LINE
  5
30F
100
AcDbEntity
  8
RACCORDO
100
AcDbLine
 62
253
  6
CONTINUOUS
 10
-20.6641991772
 20
11.7587289182
 11
-23.0072399666
 21
12.9302493198
  0
LINE
  5
310
100
AcDbEntity
  8
RACCORDO
100
AcDbLine
 62
253
  6
CONTINUOUS
 10
7.697962954
 20
-2.4223521405
 11
5.3548463108
 21
-1.2507938263
  0
LINE
  5
311
100
AcDbEntity
  8
0
100
AcDbLine
 62
7
  6
CONTINUOUS
 10
1.5230930908
 20
28.4034974718
 11
1.5799935188
 21
27.8628743926
  0
LINE
  5
312
100
AcDbEntity
  8
0
100
AcDbLine
 62
7
  6
CONTINUOUS
 10
1.8746093117
 20
27.8157247723
 11
1.7723260179
 21
28.8898234145
  0
LINE
  5
313
100
AcDbEntity
  8
RACCORDO
100
AcDbLine
 62
253
  6
CONTINUOUS
 10
5.0126300173
 20
15.6190796344
 11
5.0126300173
 21
16.8916124279
  0
LINE
  5
314
100
AcDbEntity
  8
RACCORDO
100
AcDbLine
 62
253
  6
CONTINUOUS
 10
5.2904510455
 20
15.625415443
 11
5.2904510455
 21
16.8891877359
  0
LINE
  5
315
100
AcDbEntity
  8
RACCORDO
100
AcDbLine
 62
7
  6
CONTINUOUS
 10
6.2468982747
 20
16.1306853798
 11
6.2468982747
 21
17.3410650234
  0
LINE
  5
316
100
AcDbEntity
  8
RACCORDO
100
AcDbLine
 62
7
  6
CONTINUOUS
 10
6.7154811071
 20
16.0816082392
 11
6.7154811071
 21
14.8118095414
  0
LINE
  5
317
100
AcDbEntity
  8
RACCORDO
100
AcDbLine
 62
253
  6
CONTINUOUS
 10
6.7740597509
 20
16.0108975611
 11
6.7740597509
 21
14.7383647676
  0
LINE
  5
318
100
AcDbEntity
  8
RACCORDO
100
AcDbLine
 62
7
  6
CONTINUOUS
 10
28.9657652336
 20
9.4275526609
 11
29.2275078569
 21
9.5584239725
  0
LINE
  5
319
100
AcDbEntity
  8
RACCORDO
100
AcDbLine
 62
7
  6
CONTINUOUS
 10
29.0724577114
 20
8.614873496
 11
29.2275078569
 21
8.6923985687
  0
LINE
  5
31A
100
AcDbEntity
  8
0
100
AcDbLine
 62
7
  6
CONTINUOUS
 10
5.4385162868
 20
27.7548106209
 11
5.5329515912
 21
26.821215676
  0
LINE
  5
31B
100
AcDbEntity
  8
DRAFT
100
AcDbLine
 62
7
  6
CONTINUOUS
 10
7.661111837
 20
15.0280307441
 11
7.661111837
 21
13.5423454751
  0
LINE
  5
31C
100
AcDbEntity
  8
DRAFT
100
AcDbLine
 62
7
  6
CONTINUOUS
 10
8.3236071885
 20
13.2110977994
 11
8.3236071885
 21
14.6967830684
  0
LINE
  5
31D
100
AcDbEntity
  8
RACCORDO
100
AcDbLine
 62
7
  6
CONTINUOUS
 10
9.3856829982
 20
20.2392366835
 11
9.3856829982
 21
19.4031395807
  0
LINE
  5
31E
100
AcDbEntity
  8
ASSI
100
AcDbLine
 62
7
  6
CONTINUOUS
 10
9.3856829982
 20
20.2392366835
 11
9.3856829982
 21
19.4031395807
  0
LINE
  5
31F
100
AcDbEntity
  8
DRAFT
100
AcDbLine
 62
7
  6
CONTINUOUS
 10
9.3898210147
 20
13.8067307604
 11
9.3898210147
 21
14.5191663257
  0
LINE
  5
320
100
AcDbEntity
  8
DRAFT
100
AcDbLine
 62
7
  6
CONTINUOUS
 10
9.3972258872
 20
13.8030283241
 11
9.3972258872
 21
14.5154638894
  0
LINE
  5
321
100
AcDbEntity
  8
RACCORDO
100
AcDbLine
 62
7
  6
CONTINUOUS
 10
9.7212442171
 20
13.5557369464
 11
9.7212442171
 21
13.2624644668
  0
LINE
  5
322
100
AcDbEntity
  8
RACCORDO
100
AcDbLine
 62
253
  6
CONTINUOUS
 10
9.7944675218
 20
13.4673485987
 11
9.7944675218
 21
13.1740761192
  0
LINE
  5
323
100
AcDbEntity
  8
DRAFT
100
AcDbLine
 62
7
  6
CONTINUOUS
 10
10.1006302321
 20
15.5873748491
 11
10.1006302321
 21
14.1130464646
  0
LINE
  5
324
100
AcDbEntity
  8
ASSI
100
AcDbLine
 62
7
  6
CONTINUOUS
 10
10.1006302321
 20
14.2017342031
 11
10.1006302321
 21
15.4141697683
  0
LINE
  5
325
100
AcDbEntity
  8
RACCORDO
100
AcDbLine
 62
7
  6
CONTINUOUS
 10
10.424648562
 20
12.7562537972
 11
10.424648562
 21
12.215775438
  0
LINE
  5
326
100
AcDbEntity
  8
RACCORDO
100
AcDbLine
 62
253
  6
CONTINUOUS
 10
10.4978718667
 20
12.7196421448
 11
10.4978718667
 21
12.1239654603
  0
LINE
  5
327
100
AcDbEntity
  8
0
100
AcDbLine
 62
7
  6
CONTINUOUS
 10
17.4889729976
 20
20.5835375753
 11
17.4618273063
 21
20.5123800225
  0
LINE
  5
328
100
AcDbEntity
  8
SMUSSO
100
AcDbLine
 62
7
  6
CONTINUOUS
 10
28.6268278992
 20
5.1377619923
 11
22.545709581
 21
2.0972028332
  0
LINE
  5
329
100
AcDbEntity
  8
SMUSSO
100
AcDbLine
 62
7
  6
CONTINUOUS
 10
28.5561172211
 20
5.086514791
 11
22.545709581
 21
2.0813109709
  0
LINE
  5
32A
100
AcDbEntity
  8
RACCORDO
100
AcDbLine
 62
253
  6
CONTINUOUS
 10
23.6187616459
 20
-1.8391038857
 11
27.8936370574
 21
-3.9765415915
  0
LINE
  5
32B
100
AcDbEntity
  8
ASSI
100
AcDbLine
 62
253
  6
CONTINUOUS
 10
23.6187616459
 20
-1.8391038857
 11
27.8936370574
 21
-3.9765415915
  0
LINE
  5
32C
100
AcDbEntity
  8
RACCORDO
100
AcDbLine
 62
7
  6
CONTINUOUS
 10
23.6896851909
 20
-1.7546657733
 11
28.1110765655
 21
-3.9653614606
  0
LINE
  5
32D
100
AcDbEntity
  8
ASSI
100
AcDbLine
 62
7
  6
CONTINUOUS
 10
23.6896851909
 20
-1.7546657733
 11
28.1110765655
 21
-3.9653614606
  0
LINE
  5
32E
100
AcDbEntity
  8
0
100
AcDbLine
 62
7
  6
CONTINUOUS
 10
1.6611318138
 20
27.6582237594
 11
1.5781246897
 21
27.9036308508
  0
LINE
  5
32F
100
AcDbEntity
  8
0
100
AcDbLine
 62
7
  6
CONTINUOUS
 10
1.3437569045
 20
28.5965294074
 11
1.2036720797
 21
29.0106843341
  0
LINE
  5
330
100
AcDbEntity
  8
RACCORDO
100
AcDbLine
 62
253
  6
CONTINUOUS
 10
11.4674531143
 20
-29.3418958364
 11
11.4674531143
 21
-29.0486233568
  0
LINE
  5
331
100
AcDbEntity
  8
RACCORDO
100
AcDbLine
 62
253
  6
CONTINUOUS
 10
11.4674531143
 20
12.3375833229
 11
11.4674531143
 21
12.6308558025
  0
LINE
  5
332
100
AcDbEntity
  8
RACCORDO
100
AcDbLine
 62
253
  6
CONTINUOUS
 10
11.8200784853
 20
-29.3423574229
 11
11.8200784853
 21
-29.0490849434
  0
LINE
  5
333
100
AcDbEntity
  8
RACCORDO
100
AcDbLine
 62
253
  6
CONTINUOUS
 10
11.8200784853
 20
12.3371217363
 11
11.8200784853
 21
12.6303942159
  0
LINE
  5
334
100
AcDbEntity
  8
RACCORDO
100
AcDbLine
 62
253
  6
CONTINUOUS
 10
12.1782623317
 20
-28.0719211844
 11
12.1782623317
 21
-27.8459063435
  0
LINE
  5
335
100
AcDbEntity
  8
RACCORDO
100
AcDbLine
 62
253
  6
CONTINUOUS
 10
12.1782623317
 20
11.2837702278
 11
12.1782623317
 21
12.0591722065
  0
LINE
  5
336
100
AcDbEntity
  8
RACCORDO
100
AcDbLine
 62
253
  6
CONTINUOUS
 10
12.5308877027
 20
-28.197382771
 11
12.5308877027
 21
-27.6978885359
  0
LINE
  5
337
100
AcDbEntity
  8
RACCORDO
100
AcDbLine
 62
253
  6
CONTINUOUS
 10
12.5308877027
 20
11.2945958478
 11
12.5308877027
 21
12.1888239088
  0
LINE
  5
338
100
AcDbEntity
  8
DRAFT
100
AcDbLine
 62
7
  6
CONTINUOUS
 10
13.4203296674
 20
-27.6322946804
 11
13.4203296674
 21
-27.3245369271
  0
LINE
  5
339
100
AcDbEntity
  8
DRAFT
100
AcDbLine
 62
7
  6
CONTINUOUS
 10
13.4203296674
 20
11.791476434
 11
13.4203296674
 21
12.5039119993
  0
LINE
  5
33A
100
AcDbEntity
  8
RACCORDO
100
AcDbLine
 62
7
  6
CONTINUOUS
 10
14.0957835458
 20
11.020340583
 11
14.0957835458
 21
10.804230442
  0
LINE
  5
33B
100
AcDbEntity
  8
RACCORDO
100
AcDbLine
 62
7
  6
CONTINUOUS
 10
14.0957835458
 20
-26.8241771425
 11
14.0957835458
 21
-26.6080670015
  0
LINE
  5
33C
100
AcDbEntity
  8
RACCORDO
100
AcDbLine
 62
7
  6
CONTINUOUS
 10
14.1311388849
 20
-28.2136081777
 11
14.1311388849
 21
-27.780592508
  0
LINE
  5
33D
100
AcDbEntity
  8
RACCORDO
100
AcDbLine
 62
7
  6
CONTINUOUS
 10
14.1311388849
 20
13.3556141718
 11
14.1311388849
 21
13.7886298415
  0
LINE
  5
33E
100
AcDbEntity
  8
0
100
AcDbLine
 62
7
  6
CONTINUOUS
 10
13.6313733275
 20
20.5069661137
 11
13.5369380232
 21
19.5733711689
  0
LINE
  5
33F
100
AcDbEntity
  8
SMUSSO
100
AcDbLine
 62
7
  6
CONTINUOUS
 10
28.6268278992
 20
5.1377619923
 11
28.5561172211
 21
5.086514791
  0
LINE
  5
340
100
AcDbEntity
  8
DRAFT
100
AcDbLine
 62
7
  6
CONTINUOUS
 10
14.7967194996
 20
10.6608692463
 11
14.0957835458
 21
10.804230442
  0
LINE
  5
341
100
AcDbEntity
  8
RACCORDO
100
AcDbLine
 62
7
  6
CONTINUOUS
 10
11.5931711037
 20
12.1812411891
 11
12.2177398171
 21
12.0509359243
  0
LINE
  5
342
100
AcDbEntity
  8
DRAFT
100
AcDbLine
 62
7
  6
CONTINUOUS
 10
14.8152329218
 20
10.6516125352
 11
14.0957835458
 21
10.804230442
  0
LINE
  5
343
100
AcDbEntity
  8
RACCORDO
100
AcDbLine
 62
253
  6
CONTINUOUS
 10
-22.3246704436
 20
23.3812343769
 11
8.4046472735
 21
8.0165755183
  0
LINE
  5
344
100
AcDbEntity
  8
RACCORDO
100
AcDbLine
 62
253
  6
CONTINUOUS
 10
-21.668196336
 20
24.4514393047
 11
9.0726810668
 21
9.0810006033
  0
LINE
  5
345
100
AcDbEntity
  8
0
100
AcDbLine
 62
7
  6
CONTINUOUS
 10
16.0494409764
 20
21.187320262
 11
16.0756825332
 21
20.6150298855
  0
LINE
  5
346
100
AcDbEntity
  8
0
100
AcDbLine
 62
7
  6
CONTINUOUS
 10
16.0756825332
 20
20.6150298855
 11
16.0835841983
 21
20.3533591892
  0
LINE
  5
347
100
AcDbEntity
  8
RACCORDO
100
AcDbLine
 62
7
  6
CONTINUOUS
 10
14.7967194996
 20
-26.42215187
 11
14.7967194996
 21
-25.7824903931
  0
LINE
  5
348
100
AcDbEntity
  8
RACCORDO
100
AcDbLine
 62
7
  6
CONTINUOUS
 10
14.7967194996
 20
10.6608692463
 11
14.7967194996
 21
11.3315929191
  0
LINE
  5
349
100
AcDbEntity
  8
DRAFT
100
AcDbLine
 62
7
  6
CONTINUOUS
 10
14.8152329218
 20
-25.7606849083
 11
14.8152329218
 21
10.6516125352
  0
LINE
  5
34A
100
AcDbEntity
  8
RACCORDO
100
AcDbLine
 62
7
  6
CONTINUOUS
 10
14.8382456661
 20
-26.0991180995
 11
14.8382456661
 21
10.9670329822
  0
LINE
  5
34B
100
AcDbEntity
  8
ASSI
100
AcDbLine
 62
7
  6
CONTINUOUS
 10
14.8382456661
 20
-26.0991180995
 11
14.8382456661
 21
10.9670329822
  0
LINE
  5
34C
100
AcDbEntity
  8
RACCORDO
100
AcDbLine
 62
7
  6
CONTINUOUS
 10
15.0071819087
 20
16.5923901255
 11
15.0071819087
 21
17.4284872282
  0
LINE
  5
34D
100
AcDbEntity
  8
ASSI
100
AcDbLine
 62
7
  6
CONTINUOUS
 10
15.0071819087
 20
16.5923901255
 11
15.0071819087
 21
17.4284872282
  0
LINE
  5
34E
100
AcDbEntity
  8
0
100
AcDbLine
 62
7
  6
CONTINUOUS
 10
16.7827893143
 20
21.5540777924
 11
16.7827893143
 21
20.9685832761
  0
LINE
  5
34F
100
AcDbEntity
  8
0
100
AcDbLine
 62
7
  6
CONTINUOUS
 10
16.7827893143
 20
20.9685832761
 11
16.7784569007
 21
20.8207791159
  0
LINE
  5
350
100
AcDbEntity
  8
0
100
AcDbLine
 62
7
  6
CONTINUOUS
 10
17.4898960955
 20
20.6150298855
 11
17.4863427567
 21
20.4938045604
  0
LINE
  5
351
100
AcDbEntity
  8
0
100
AcDbLine
 62
7
  6
CONTINUOUS
 10
17.5161376523
 20
21.187320262
 11
17.4898960955
 21
20.6150298855
  0
LINE
  5
352
100
AcDbEntity
  8
0
100
AcDbLine
 62
7
  6
CONTINUOUS
 10
16.8396897423
 20
21.5661067832
 11
16.7827893143
 21
20.9685832761
  0
LINE
  5
353
100
AcDbEntity
  8
0
100
AcDbLine
 62
7
  6
CONTINUOUS
 10
17.7314143623
 20
20.2989652966
 11
17.7925383433
 21
20.8797172518
  0
LINE
  5
354
100
AcDbEntity
  8
0
100
AcDbLine
 62
7
  6
CONTINUOUS
 10
22.9519911478
 20
-4.0001228022
 11
22.545709581
 21
-4.2629022894
  0
LINE
  5
355
100
AcDbEntity
  8
RACCORDO
100
AcDbLine
 62
253
  6
CONTINUOUS
 10
21.9800241561
 20
-6.5701944337
 11
22.545709581
 21
-6.2873517212
  0
LINE
  5
356
100
AcDbEntity
  8
RACCORDO
100
AcDbLine
 62
7
  6
CONTINUOUS
 10
21.9322802835
 20
-6.9228081361
 11
22.3377950325
 21
-6.7200507616
  0
LINE
  5
357
100
AcDbEntity
  8
RACCORDO
100
AcDbLine
 62
253
  6
CONTINUOUS
 10
22.3426642785
 20
-6.7298676346
 11
27.8936370574
 21
-3.9765415915
  0
LINE
  5
358
100
AcDbEntity
  8
ASSI
100
AcDbLine
 62
253
  6
CONTINUOUS
 10
22.3417836241
 20
-6.7303044461
 11
27.8936370574
 21
-3.9765415915
  0
LINE
  5
359
100
AcDbEntity
  8
RACCORDO
100
AcDbLine
 62
253
  6
CONTINUOUS
 10
28.6006392105
 20
-5.1959405415
 11
21.7919501837
 21
-8.5730961236
  0
LINE
  5
35A
100
AcDbEntity
  8
ASSI
100
AcDbLine
 62
253
  6
CONTINUOUS
 10
28.6006392105
 20
-5.1959405415
 11
21.7919501837
 21
-8.5730961236
  0
LINE
  5
35B
100
AcDbEntity
  8
RACCORDO
100
AcDbLine
 62
253
  6
CONTINUOUS
 10
21.9938234501
 20
17.1687381228
 11
21.343628053
 21
17.1160837852
  0
LINE
  5
35C
100
AcDbEntity
  8
RACCORDO
100
AcDbLine
 62
7
  6
CONTINUOUS
 10
21.9795822264
 20
17.2773834805
 11
21.343628053
 21
17.2258824303
  0
LINE
  5
35D
100
AcDbEntity
  8
RACCORDO
100
AcDbLine
 62
253
  6
CONTINUOUS
 10
11.8200784853
 20
12.3371217363
 11
12.5308877027
 21
12.1888239088
  0
LINE
  5
35E
100
AcDbEntity
  8
RACCORDO
100
AcDbLine
 62
7
  6
CONTINUOUS
 10
-0.7104868889
 20
18.3330701854
 11
-0.0859181756
 21
18.2027649206
  0
LINE
  5
35F
100
AcDbEntity
  8
RACCORDO
100
AcDbLine
 62
7
  6
CONTINUOUS
 10
-17.7156887027
 20
26.230745745
 11
-16.0352982376
 21
25.3905505124
  0
LINE
  5
360
100
AcDbEntity
  8
RACCORDO
100
AcDbLine
 62
7
  6
CONTINUOUS
 10
-5.41203071
 20
20.0789167487
 11
-3.731640245
 21
19.2387215161
  0
LINE
  5
361
100
AcDbEntity
  8
RACCORDO
100
AcDbLine
 62
7
  6
CONTINUOUS
 10
12.1782623317
 20
11.2837702278
 11
10.4978718667
 21
12.1239654603
  0
LINE
  5
362
100
AcDbEntity
  8
DRAFT
100
AcDbLine
 62
7
  6
CONTINUOUS
 10
8.3236071885
 20
13.2110977994
 11
7.661111837
 21
13.5423454751
  0
LINE
  5
363
100
AcDbEntity
  8
DRAFT
100
AcDbLine
 62
7
  6
CONTINUOUS
 10
2.7113643687
 20
16.0172192093
 11
2.0488690173
 21
16.348466885
  0
LINE
  5
364
100
AcDbEntity
  8
RACCORDO
100
AcDbLine
 62
7
  6
CONTINUOUS
 10
-0.1253956609
 20
17.4355992241
 11
-1.805786126
 21
18.2757944566
  0
LINE
  5
365
100
AcDbEntity
  8
DRAFT
100
AcDbLine
 62
7
  6
CONTINUOUS
 10
-7.5862953882
 20
21.1660490878
 11
-8.2487907397
 21
21.4972967635
  0
LINE
  5
366
100
AcDbEntity
  8
DRAFT
100
AcDbLine
 62
7
  6
CONTINUOUS
 10
-13.198538208
 20
23.9721704976
 11
-13.8610335594
 21
24.3034181733
  0
LINE
  5
367
100
AcDbEntity
  8
RACCORDO
100
AcDbLine
 62
7
  6
CONTINUOUS
 10
-18.3541197512
 20
27.1456379538
 11
-16.6811341586
 21
26.3091451575
  0
LINE
  5
368
100
AcDbEntity
  8
RACCORDO
100
AcDbLine
 62
7
  6
CONTINUOUS
 10
-6.0504617585
 20
20.9938089574
 11
-4.377476166
 21
20.1573161612
  0
LINE
  5
369
100
AcDbEntity
  8
RACCORDO
100
AcDbLine
 62
7
  6
CONTINUOUS
 10
-2.4442171745
 20
19.1906866654
 11
-0.771231582
 21
18.3541938692
  0
LINE
  5
36A
100
AcDbEntity
  8
RACCORDO
100
AcDbLine
 62
7
  6
CONTINUOUS
 10
9.8594408182
 20
13.0388576691
 11
11.5324264107
 21
12.2023648728
  0
LINE
  5
36B
100
AcDbEntity
  8
DRAFT
100
AcDbLine
 62
7
  6
CONTINUOUS
 10
14.8152329218
 20
10.6516125352
 11
14.7967194996
 21
10.6608692463
  0
LINE
  5
36C
100
AcDbEntity
  8
RACCORDO
100
AcDbLine
 62
253
  6
CONTINUOUS
 10
-18.4190930476
 20
27.2808564039
 11
-16.7461074551
 21
26.4443636076
  0
LINE
  5
36D
100
AcDbEntity
  8
RACCORDO
100
AcDbLine
 62
253
  6
CONTINUOUS
 10
-6.1154350549
 20
21.1290274075
 11
-4.4424494624
 21
20.2925346113
  0
LINE
  5
36E
100
AcDbEntity
  8
RACCORDO
100
AcDbLine
 62
253
  6
CONTINUOUS
 10
-2.5091904709
 20
19.3259051155
 11
-0.8362048784
 21
18.4894123193
  0
LINE
  5
36F
100
AcDbEntity
  8
RACCORDO
100
AcDbLine
 62
253
  6
CONTINUOUS
 10
9.7944675218
 20
13.1740761192
 11
11.4674531143
 21
12.3375833229
  0
LINE
  5
370
100
AcDbEntity
  8
RACCORDO
100
AcDbLine
 62
7
  6
CONTINUOUS
 10
-12.4914314268
 20
24.3711103564
 11
-10.8972725594
 21
23.5740309227
  0
LINE
  5
371
100
AcDbEntity
  8
RACCORDO
100
AcDbLine
 62
7
  6
CONTINUOUS
 10
-9.1358428258
 20
22.693316056
 11
-8.2487907397
 21
22.2497900129
  0
LINE
  5
372
100
AcDbEntity
  8
RACCORDO
100
AcDbLine
 62
7
  6
CONTINUOUS
 10
3.4184711499
 20
16.4161590681
 11
5.0126300173
 21
15.6190796344
  0
LINE
  5
373
100
AcDbEntity
  8
RACCORDO
100
AcDbLine
 62
7
  6
CONTINUOUS
 10
6.7740597509
 20
14.7383647676
 11
7.661111837
 21
14.2948387245
  0
LINE
  5
374
100
AcDbEntity
  8
RACCORDO
100
AcDbLine
 62
253
  6
CONTINUOUS
 10
11.4674531143
 20
12.6308558025
 11
9.7944675218
 21
13.4673485987
  0
LINE
  5
375
100
AcDbEntity
  8
RACCORDO
100
AcDbLine
 62
253
  6
CONTINUOUS
 10
-0.8362048784
 20
18.7826847988
 11
-2.5091904709
 21
19.619177595
  0
LINE
  5
376
100
AcDbEntity
  8
RACCORDO
100
AcDbLine
 62
253
  6
CONTINUOUS
 10
-4.4424494624
 20
20.5858070908
 11
-6.1154350549
 21
21.4222998871
  0
LINE
  5
377
100
AcDbEntity
  8
RACCORDO
100
AcDbLine
 62
253
  6
CONTINUOUS
 10
-16.7461074551
 20
26.7376360871
 11
-18.4190930476
 21
27.5741288834
  0
LINE
  5
378
100
AcDbEntity
  8
RACCORDO
100
AcDbLine
 62
7
  6
CONTINUOUS
 10
13.7423781706
 20
11.6304521825
 11
13.4203296674
 21
11.791476434
  0
LINE
  5
379
100
AcDbEntity
  8
DRAFT
100
AcDbLine
 62
7
  6
CONTINUOUS
 10
9.7342655761
 20
13.6345084797
 11
9.3898210147
 21
13.8067307604
  0
LINE
  5
37A
100
AcDbEntity
  8
DRAFT
100
AcDbLine
 62
7
  6
CONTINUOUS
 10
2.0488690173
 20
17.4772067591
 11
1.1166716748
 21
17.9433054304
  0
LINE
  5
37B
100
AcDbEntity
  8
DRAFT
100
AcDbLine
 62
7
  6
CONTINUOUS
 10
-6.1756370006
 20
21.589459768
 11
-6.520081562
 21
21.7616820488
  0
LINE
  5
37C
100
AcDbEntity
  8
DRAFT
100
AcDbLine
 62
7
  6
CONTINUOUS
 10
-13.8610335594
 20
25.4321580474
 11
-14.7932309019
 21
25.8982567187
  0
LINE
  5
37D
100
AcDbEntity
  8
RACCORDO
100
AcDbLine
 62
253
  6
CONTINUOUS
 10
11.6433042132
 20
12.935284735
 11
9.9703186207
 21
13.7717775313
  0
LINE
  5
37E
100
AcDbEntity
  8
RACCORDO
100
AcDbLine
 62
253
  6
CONTINUOUS
 10
-0.6603537795
 20
19.0871137314
 11
-2.333339372
 21
19.9236065276
  0
LINE
  5
37F
100
AcDbEntity
  8
RACCORDO
100
AcDbLine
 62
253
  6
CONTINUOUS
 10
-4.2665983635
 20
20.8902360234
 11
-5.939583956
 21
21.7267288197
  0
LINE
  5
380
100
AcDbEntity
  8
RACCORDO
100
AcDbLine
 62
253
  6
CONTINUOUS
 10
-16.5702563562
 20
27.0420650197
 11
-18.2432419487
 21
27.878557816
  0
LINE
  5
381
100
AcDbEntity
  8
DRAFT
100
AcDbLine
 62
7
  6
CONTINUOUS
 10
2.0488690173
 20
17.8341521539
 11
2.7113643687
 21
17.5029044782
  0
LINE
  5
382
100
AcDbEntity
  8
DRAFT
100
AcDbLine
 62
7
  6
CONTINUOUS
 10
7.661111837
 20
15.0280307441
 11
8.3236071885
 21
14.6967830684
  0
LINE
  5
383
100
AcDbEntity
  8
DRAFT
100
AcDbLine
 62
7
  6
CONTINUOUS
 10
-7.5862953882
 20
22.6517343567
 11
-8.2487907397
 21
22.9829820324
  0
LINE
  5
384
100
AcDbEntity
  8
DRAFT
100
AcDbLine
 62
7
  6
CONTINUOUS
 10
-13.198538208
 20
25.4578557666
 11
-13.8610335594
 21
25.7891034423
  0
LINE
  5
385
100
AcDbEntity
  8
RACCORDO
100
AcDbLine
 62
7
  6
CONTINUOUS
 10
-14.7932309019
 20
26.5599770317
 11
-13.5597862944
 21
25.9432547279
  0
LINE
  5
386
100
AcDbEntity
  8
DRAFT
100
AcDbLine
 62
7
  6
CONTINUOUS
 10
-5.8092723446
 20
22.067997753
 11
-5.6014347163
 21
21.9640789389
  0
LINE
  5
387
100
AcDbEntity
  8
DRAFT
100
AcDbLine
 62
7
  6
CONTINUOUS
 10
-2.4895729093
 20
20.4081480353
 11
-1.9951901323
 21
20.1609566468
  0
LINE
  5
388
100
AcDbEntity
  8
DRAFT
100
AcDbLine
 62
7
  6
CONTINUOUS
 10
1.1166716748
 20
18.6050257433
 11
2.3501162823
 21
17.9883034395
  0
LINE
  5
389
100
AcDbEntity
  8
RACCORDO
100
AcDbLine
 62
7
  6
CONTINUOUS
 10
10.1006302321
 20
14.1130464646
 11
10.3084678604
 21
14.0091276505
  0
LINE
  5
38A
100
AcDbEntity
  8
RACCORDO
100
AcDbLine
 62
7
  6
CONTINUOUS
 10
13.4203296674
 20
12.453196747
 11
14.4433141244
 21
11.9417045185
  0
LINE
  5
38B
100
AcDbEntity
  8
DRAFT
100
AcDbLine
 62
7
  6
CONTINUOUS
 10
9.3972258872
 20
14.5154638894
 11
9.3898210147
 21
14.5191663257
  0
LINE
  5
38C
100
AcDbEntity
  8
DRAFT
100
AcDbLine
 62
7
  6
CONTINUOUS
 10
-6.5126766895
 20
22.4704151778
 11
-6.520081562
 21
22.4741176141
  0
LINE
  5
38D
100
AcDbEntity
  8
RACCORDO
100
AcDbLine
 62
7
  6
CONTINUOUS
 10
-14.7708706654
 20
26.6374846518
 11
-13.4721250826
 21
25.9881118604
  0
LINE
  5
38E
100
AcDbEntity
  8
ASSI
100
AcDbLine
 62
7
  6
CONTINUOUS
 10
-14.7708706654
 20
26.6374846518
 11
-13.4721250826
 21
25.9881118604
  0
LINE
  5
38F
100
AcDbEntity
  8
ASSI
100
AcDbLine
 62
7
  6
CONTINUOUS
 10
-9.6638383812
 20
24.0839685097
 11
-9.1944214696
 21
23.8492600539
  0
LINE
  5
390
100
AcDbEntity
  8
DRAFT
100
AcDbLine
 62
7
  6
CONTINUOUS
 10
-5.8092723446
 20
22.1566854914
 11
-5.5137735046
 21
22.0089360714
  0
LINE
  5
391
100
AcDbEntity
  8
ASSI
100
AcDbLine
 62
7
  6
CONTINUOUS
 10
-5.8092723446
 20
22.1566854914
 11
-5.5137735046
 21
22.0089360714
  0
LINE
  5
392
100
AcDbEntity
  8
DRAFT
100
AcDbLine
 62
7
  6
CONTINUOUS
 10
-2.4672126728
 20
20.4856556555
 11
-1.9075289205
 21
20.2058137794
  0
LINE
  5
393
100
AcDbEntity
  8
ASSI
100
AcDbLine
 62
7
  6
CONTINUOUS
 10
-2.4672126728
 20
20.4856556555
 11
-1.9075289205
 21
20.2058137794
  0
LINE
  5
394
100
AcDbEntity
  8
DRAFT
100
AcDbLine
 62
7
  6
CONTINUOUS
 10
1.1390319113
 20
18.6825333635
 11
2.4377774941
 21
18.0331605721
  0
LINE
  5
395
100
AcDbEntity
  8
ASSI
100
AcDbLine
 62
7
  6
CONTINUOUS
 10
1.1390319113
 20
18.6825333635
 11
2.4377774941
 21
18.0331605721
  0
LINE
  5
396
100
AcDbEntity
  8
ASSI
100
AcDbLine
 62
7
  6
CONTINUOUS
 10
6.2460641954
 20
16.1290172214
 11
6.7154811071
 21
15.8943087656
  0
LINE
  5
397
100
AcDbEntity
  8
RACCORDO
100
AcDbLine
 62
7
  6
CONTINUOUS
 10
10.1006302321
 20
14.2017342031
 11
10.3961290721
 21
14.0539847831
  0
LINE
  5
398
100
AcDbEntity
  8
ASSI
100
AcDbLine
 62
7
  6
CONTINUOUS
 10
10.1006302321
 20
14.2017342031
 11
10.3961290721
 21
14.0539847831
  0
LINE
  5
399
100
AcDbEntity
  8
RACCORDO
100
AcDbLine
 62
7
  6
CONTINUOUS
 10
13.4426899039
 20
12.5307043672
 11
14.1312465807
 21
12.1864260288
  0
LINE
  5
39A
100
AcDbEntity
  8
ASSI
100
AcDbLine
 62
7
  6
CONTINUOUS
 10
13.4426899039
 20
12.5307043672
 11
14.1312465807
 21
12.1864260288
  0
LINE
  5
39B
100
AcDbEntity
  8
DRAFT
100
AcDbLine
 62
7
  6
CONTINUOUS
 10
-9.663004302
 20
24.0856366682
 11
-9.1944214696
 21
23.8513452519
  0
LINE
  5
39C
100
AcDbEntity
  8
DRAFT
100
AcDbLine
 62
7
  6
CONTINUOUS
 10
6.2468982747
 20
16.1306853798
 11
6.7154811071
 21
15.8963939636
  0
LINE
  5
39D
100
AcDbEntity
  8
RACCORDO
100
AcDbLine
 62
253
  6
CONTINUOUS
 10
8.1970159609
 20
15.2994194561
 11
6.7740597509
 21
16.0108975611
  0
LINE
  5
39E
100
AcDbEntity
  8
RACCORDO
100
AcDbLine
 62
253
  6
CONTINUOUS
 10
5.0126300173
 20
16.8916124279
 11
3.4184711499
 21
17.6886918616
  0
LINE
  5
39F
100
AcDbEntity
  8
RACCORDO
100
AcDbLine
 62
253
  6
CONTINUOUS
 10
-7.7128866158
 20
23.2543707445
 11
-9.1358428258
 21
23.9658488495
  0
LINE
  5
3A0
100
AcDbEntity
  8
RACCORDO
100
AcDbLine
 62
253
  6
CONTINUOUS
 10
-10.8972725594
 20
24.8465637163
 11
-12.4914314268
 21
25.6436431499
  0
LINE
  5
3A1
100
AcDbEntity
  8
RACCORDO
100
AcDbLine
 62
253
  6
CONTINUOUS
 10
8.5088994973
 20
15.4573612735
 11
6.91474063
 21
16.2544407072
  0
LINE
  5
3A2
100
AcDbEntity
  8
RACCORDO
100
AcDbLine
 62
253
  6
CONTINUOUS
 10
5.1533108964
 20
17.135155574
 11
3.559152029
 21
17.9322350077
  0
LINE
  5
3A3
100
AcDbEntity
  8
RACCORDO
100
AcDbLine
 62
253
  6
CONTINUOUS
 10
-7.4010030793
 20
23.4123125619
 11
-8.9951619467
 21
24.2093919955
  0
LINE
  5
3A4
100
AcDbEntity
  8
RACCORDO
100
AcDbLine
 62
253
  6
CONTINUOUS
 10
-10.7565916803
 20
25.0901068623
 11
-12.3507505477
 21
25.887186296
  0
LINE
  5
3A5
100
AcDbEntity
  8
0
100
AcDbLine
 62
7
  6
CONTINUOUS
 10
16.0187821052
 20
21.1556529647
 11
16.0756825332
 21
20.6150298855
  0
LINE
  5
3A6
100
AcDbEntity
  8
0
100
AcDbLine
 62
7
  6
CONTINUOUS
 10
16.370298326
 20
20.5678802652
 11
16.2680150322
 21
21.6419789074
  0
LINE
  5
3A7
100
AcDbEntity
  8
RACCORDO
100
AcDbLine
 62
7
  6
CONTINUOUS
 10
21.343628053
 20
16.395185019
 11
21.343628053
 21
19.2372160407
  0
LINE
  5
3A8
100
AcDbEntity
  8
RACCORDO
100
AcDbLine
 62
253
  6
CONTINUOUS
 10
-0.4835795074
 20
18.4889507327
 11
0.2272297101
 21
18.3406529051
  0
LINE
  5
3A9
100
AcDbEntity
  8
RACCORDO
100
AcDbLine
 62
7
  6
CONTINUOUS
 10
-4.316731473
 20
20.1361924775
 11
-3.6921627596
 21
20.0058872126
  0
LINE
  5
3AA
100
AcDbEntity
  8
RACCORDO
100
AcDbLine
 62
253
  6
CONTINUOUS
 10
-4.0898240914
 20
20.2920730247
 11
-3.379014874
 21
20.1437751971
  0
LINE
  5
3AB
100
AcDbEntity
  8
RACCORDO
100
AcDbLine
 62
7
  6
CONTINUOUS
 10
-12.1025226971
 20
26.6889513137
 11
-9.8044860028
 21
25.5399329666
  0
LINE
  5
3AC
100
AcDbEntity
  8
RACCORDO
100
AcDbLine
 62
7
  6
CONTINUOUS
 10
-8.1073090389
 20
24.6913444846
 11
-5.8092723446
 21
23.5423261375
  0
LINE
  5
3AD
100
AcDbEntity
  8
RACCORDO
100
AcDbLine
 62
7
  6
CONTINUOUS
 10
3.8073798796
 20
18.7340000254
 11
6.1054165739
 21
17.5849816782
  0
LINE
  5
3AE
100
AcDbEntity
  8
RACCORDO
100
AcDbLine
 62
7
  6
CONTINUOUS
 10
7.8025935378
 20
16.7363931963
 11
10.1006302321
 21
15.5873748491
  0
LINE
  5
3AF
100
AcDbEntity
  8
RACCORDO
100
AcDbLine
 62
7
  6
CONTINUOUS
 10
13.9543646128
 20
14.0935203607
 11
12.2573034915
 21
14.9420509213
  0
LINE
  5
3B0
100
AcDbEntity
  8
RACCORDO
100
AcDbLine
 62
7
  6
CONTINUOUS
 10
1.6507066202
 20
20.245349357
 11
-0.0463545011
 21
21.0938799176
  0
LINE
  5
3B1
100
AcDbEntity
  8
RACCORDO
100
AcDbLine
 62
7
  6
CONTINUOUS
 10
-1.9555379639
 20
22.048471649
 11
-3.6525990852
 21
22.8970022096
  0
LINE
  5
3B2
100
AcDbEntity
  8
RACCORDO
100
AcDbLine
 62
7
  6
CONTINUOUS
 10
-14.2591959565
 20
28.2003006453
 11
-15.9562570778
 21
29.048831206
  0
LINE
  5
3B3
100
AcDbEntity
  8
RACCORDO
100
AcDbLine
 62
7
  6
CONTINUOUS
 10
29.2243291922
 20
8.8354092573
 11
29.0518158792
 21
8.9216659138
  0
LINE
  5
3B4
100
AcDbEntity
  8
0
100
AcDbLine
 62
7
  6
CONTINUOUS
 10
19.9342053011
 20
20.5069661137
 11
20.0286406055
 21
19.5733711689
  0
LWPOLYLINE
  5
3B5
100
AcDbEntity
  8
RACCORDO
100
AcDbPolyline
 62
7
  6
CONTINUOUS
 90
43
 70
0
 10
21.9294026076
 20
14.6674805174
 10
21.926883869
 20
14.6964881925
 10
21.9235961868
 20
14.7255050832
 10
21.9195557706
 20
14.7544719448
 10
21.9147747825
 20
14.7833775907
 10
21.9092628642
 20
14.8122162187
 10
21.9030394781
 20
14.8409329986
 10
21.8961170858
 20
14.8695155334
 10
21.8885044433
 20
14.8979599634
 10
21.8802216662
 20
14.9262216795
 10
21.8712798448
 20
14.9542894155
 10
21.8616873427
 20
14.9821576518
 10
21.851463569
 20
15.0097884427
 10
21.8406205992
 20
15.0371654554
 10
21.8291640325
 20
15.0642877711
 10
21.8171040978
 20
15.0911389954
 10
21.8044483703
 20
15.1177082749
 10
21.7912020155
 20
15.1439873302
 10
21.7773714185
 20
15.1699628938
 10
21.762959445
 20
15.195627261
 10
21.7479707109
 20
15.2209663376
 10
21.7324144917
 20
15.2459582905
 10
21.716291562
 20
15.2705935646
 10
21.69960474
 20
15.2948574664
 10
21.6823657515
 20
15.3187223082
 10
21.6645703949
 20
15.3421810828
 10
21.6462231807
 20
15.3652140154
 10
21.6273481875
 20
15.3877770927
 10
21.6079349002
 20
15.4098687971
 10
21.5879928524
 20
15.4314624835
 10
21.5675789142
 20
15.4524838204
 10
21.5466935013
 20
15.4729230347
 10
21.5253392551
 20
15.4927656614
 10
21.5035819779
 20
15.5119421037
 10
21.4814264142
 20
15.5304427306
 10
21.4588753783
 20
15.5482576637
 10
21.4359977827
 20
15.5653284676
 10
21.4128021692
 20
15.5816470672
 10
21.3892931338
 20
15.5972073078
 10
21.3655396154
 20
15.6119633987
 10
21.3415725149
 20
15.6258994094
 10
21.3173831326
 20
15.6390235577
 10
21.3023907108
 20
15.6466947384
  0
LWPOLYLINE
  5
3B6
100
AcDbEntity
  8
ASSI
100
AcDbPolyline
 62
7
  6
CONTINUOUS
 90
17
 70
0
 10
21.932280087
 20
14.5895850675
 10
21.9287184854
 20
14.676300639
 10
21.9192686027
 20
14.7563448944
 10
21.9040880277
 20
14.8363224442
 10
21.8833553609
 20
14.9158148506
 10
21.8574657481
 20
14.9938027824
 10
21.8266911963
 20
15.069926813
 10
21.7911169908
 20
15.1441513713
 10
21.7510306339
 20
15.2158981693
 10
21.7064480414
 20
15.2850511251
 10
21.6574796149
 20
15.3512166532
 10
21.6046246313
 20
15.4135284452
 10
21.5475863822
 20
15.4720704661
 10
21.4866579642
 20
15.5261650922
 10
21.4234803976
 20
15.5742560564
 10
21.3588261922
 20
15.6159622294
 10
21.3024053092
 20
15.646687438
  0
LWPOLYLINE
  5
3B7
100
AcDbEntity
  8
RACCORDO
100
AcDbPolyline
 62
7
  6
CONTINUOUS
 90
4
 70
0
 10
21.9322802489
 20
14.589782491
 10
21.9320912964
 20
14.6095598671
 10
21.9311415311
 20
14.6385063256
 10
21.9294026076
 20
14.6674805174
  0
LINE
  5
3B8
100
AcDbEntity
  8
RACCORDO
100
AcDbLine
 62
253
  6
CONTINUOUS
 10
21.7919501837
 20
14.4161179292
 11
21.7919501837
 21
-8.5730961236
  0
LINE
  5
3B9
100
AcDbEntity
  8
ASSI
100
AcDbLine
 62
253
  6
CONTINUOUS
 10
21.7919501837
 20
14.4161179292
 11
21.7919501837
 21
-8.5730961236
  0
LINE
  5
3BA
100
AcDbEntity
  8
RACCORDO
100
AcDbLine
 62
7
  6
CONTINUOUS
 10
21.9322802835
 20
14.5897862789
 11
21.9322802835
 21
-7.9624658454
  0
LINE
  5
3BB
100
AcDbEntity
  8
ASSI
100
AcDbLine
 62
7
  6
CONTINUOUS
 10
21.9322802835
 20
14.5897862789
 11
21.9322802835
 21
-7.9624658454
  0
LINE
  5
3BC
100
AcDbEntity
  8
0
100
AcDbLine
 62
7
  6
CONTINUOUS
 10
21.9800241561
 20
-6.5701944337
 11
21.9800241561
 21
12.9153771514
  0
LINE
  5
3BD
100
AcDbEntity
  8
0
100
AcDbLine
 62
7
  6
CONTINUOUS
 10
21.9942192132
 20
15.9663360483
 11
21.9942192132
 21
17.1906095666
  0
LINE
  5
3BE
100
AcDbEntity
  8
0
100
AcDbLine
 62
7
  6
CONTINUOUS
 10
22.545709581
 20
-6.2873517212
 11
22.545709581
 21
13.1982198639
  0
LINE
  5
3BF
100
AcDbEntity
  8
0
100
AcDbLine
 62
253
  6
CONTINUOUS
 10
22.6871309372
 20
13.4421356228
 11
22.6871309372
 21
14.1349559458
  0
LINE
  5
3C0
100
AcDbEntity
  8
RACCORDO
100
AcDbLine
 62
253
  6
CONTINUOUS
 10
23.8185017871
 20
14.7006413708
 11
23.8185017871
 21
14.0078210477
  0
LINE
  5
3C1
100
AcDbEntity
  8
RACCORDO
100
AcDbLine
 62
7
  6
CONTINUOUS
 10
23.9649483966
 20
14.8774180661
 11
23.9649483966
 21
14.184597743
  0
LINE
  5
3C2
100
AcDbEntity
  8
RACCORDO
100
AcDbLine
 62
7
  6
CONTINUOUS
 10
21.9942185494
 20
17.1979343287
 11
21.9938234501
 21
17.1687381228
  0
LINE
  5
3C3
100
AcDbEntity
  8
RACCORDO
100
AcDbLine
 62
7
  6
CONTINUOUS
 10
-16.6203894656
 20
26.2880214738
 11
-15.9958207523
 21
26.1577162089
  0
LINE
  5
3C4
100
AcDbEntity
  8
RACCORDO
100
AcDbLine
 62
253
  6
CONTINUOUS
 10
-16.3934820841
 20
26.443902021
 11
-15.6826728666
 21
26.2956041935
  0
LWPOLYLINE
  5
3C5
100
AcDbEntity
  8
ASSI
100
AcDbPolyline
 62
7
  6
CONTINUOUS
 90
5
 70
0
 10
-8.7151610084
 20
30.6554704306
 10
-8.7811225954
 20
30.6851333162
 10
-8.8491491371
 20
30.7090717882
 10
-8.9179186138
 20
30.7266918593
 10
-8.987001905
 20
30.7379022378
  0
LWPOLYLINE
  5
3C6
100
AcDbEntity
  8
RACCORDO
100
AcDbPolyline
 62
7
  6
CONTINUOUS
 90
27
 70
0
 10
-8.7149392338
 20
30.6553597404
 10
-8.7302114004
 20
30.6628160101
 10
-8.7540874327
 20
30.6737629467
 10
-8.7779926336
 20
30.6838720328
 10
-8.8019019831
 20
30.6931469743
 10
-8.8258049066
 20
30.7015983562
 10
-8.849702159
 20
30.7092395652
 10
-8.8735759537
 20
30.7160766821
 10
-8.8974083508
 20
30.7221166146
 10
-8.9211969226
 20
30.7273700126
 10
-8.9449204748
 20
30.7318424979
 10
-8.9685616638
 20
30.7355412563
 10
-8.9921212846
 20
30.7384763626
 10
-9.0155775075
 20
30.7406541713
 10
-9.0389121015
 20
30.7420820646
 10
-9.0621290117
 20
30.7427685757
 10
-9.0852077611
 20
30.7427207484
 10
-9.1081277148
 20
30.7419463849
 10
-9.1308906774
 20
30.7404522542
 10
-9.1534751881
 20
30.7382460871
 10
-9.1758611423
 20
30.7353367461
 10
-9.1980507653
 20
30.7317299022
 10
-9.2200219066
 20
30.7274342714
 10
-9.241755237
 20
30.7224592116
 10
-9.2632558203
 20
30.7168084862
 10
-9.2845028126
 20
30.7104915075
 10
-9.3054761429
 20
30.7035184316
  0
LINE
  5
3C7
100
AcDbEntity
  8
0
100
AcDbLine
 62
253
  6
CONTINUOUS
 10
21.9800241561
 20
12.9153771514
 11
21.9322802835
 21
12.9392490877
  0
LINE
  5
3C8
100
AcDbEntity
  8
RACCORDO
100
AcDbLine
 62
253
  6
CONTINUOUS
 10
-7.4631060202
 20
28.7461593124
 11
-6.8716291841
 21
28.4504208944
  0
LINE
  5
3C9
100
AcDbEntity
  8
ASSI
100
AcDbLine
 62
253
  6
CONTINUOUS
 10
-7.4631060202
 20
28.7461593124
 11
-6.8716291841
 21
28.4504208944
  0
LINE
  5
3CA
100
AcDbEntity
  8
RACCORDO
100
AcDbLine
 62
253
  6
CONTINUOUS
 10
-1.8416071097
 20
25.9354098572
 11
-1.2501302737
 21
25.6396714391
  0
LINE
  5
3CB
100
AcDbEntity
  8
ASSI
100
AcDbLine
 62
253
  6
CONTINUOUS
 10
-1.8416071097
 20
25.9354098572
 11
-1.2501302737
 21
25.6396714391
  0
LINE
  5
3CC
100
AcDbEntity
  8
RACCORDO
100
AcDbLine
 62
253
  6
CONTINUOUS
 10
8.4467965565
 20
20.791208024
 11
9.0382733926
 21
20.495469606
  0
LINE
  5
3CD
100
AcDbEntity
  8
ASSI
100
AcDbLine
 62
253
  6
CONTINUOUS
 10
8.4467965565
 20
20.791208024
 11
9.0382733926
 21
20.495469606
  0
LINE
  5
3CE
100
AcDbEntity
  8
RACCORDO
100
AcDbLine
 62
253
  6
CONTINUOUS
 10
14.068295467
 20
17.9804585688
 11
14.659772303
 21
17.6847201508
  0
LINE
  5
3CF
100
AcDbEntity
  8
ASSI
100
AcDbLine
 62
253
  6
CONTINUOUS
 10
14.068295467
 20
17.9804585688
 11
14.659772303
 21
17.6847201508
  0
LINE
  5
3D0
100
AcDbEntity
  8
RACCORDO
100
AcDbLine
 62
7
  6
CONTINUOUS
 10
-7.2406627025
 20
28.7578731376
 11
-6.6530294987
 21
28.4640565357
  0
LINE
  5
3D1
100
AcDbEntity
  8
ASSI
100
AcDbLine
 62
7
  6
CONTINUOUS
 10
-7.2406627025
 20
28.7578731376
 11
-6.6530294987
 21
28.4640565357
  0
LINE
  5
3D2
100
AcDbEntity
  8
RACCORDO
100
AcDbLine
 62
7
  6
CONTINUOUS
 10
-1.6191637921
 20
25.9471236824
 11
-1.0315305883
 21
25.6533070805
  0
LINE
  5
3D3
100
AcDbEntity
  8
ASSI
100
AcDbLine
 62
7
  6
CONTINUOUS
 10
-1.6191637921
 20
25.9471236824
 11
-1.0315305883
 21
25.6533070805
  0
LINE
  5
3D4
100
AcDbEntity
  8
RACCORDO
100
AcDbLine
 62
7
  6
CONTINUOUS
 10
8.6692398742
 20
20.8029218493
 11
9.256873078
 21
20.5091052474
  0
LINE
  5
3D5
100
AcDbEntity
  8
ASSI
100
AcDbLine
 62
7
  6
CONTINUOUS
 10
8.6692398742
 20
20.8029218493
 11
9.256873078
 21
20.5091052474
  0
LINE
  5
3D6
100
AcDbEntity
  8
RACCORDO
100
AcDbLine
 62
7
  6
CONTINUOUS
 10
14.2907387846
 20
17.9921723941
 11
14.8783719884
 21
17.6983557921
  0
LINE
  5
3D7
100
AcDbEntity
  8
ASSI
100
AcDbLine
 62
7
  6
CONTINUOUS
 10
14.2907387846
 20
17.9921723941
 11
14.8783719884
 21
17.6983557921
  0
LINE
  5
3D8
100
AcDbEntity
  8
SMUSSO
100
AcDbLine
 62
7
  6
CONTINUOUS
 10
23.747791109
 20
13.5528556735
 11
28.5561172211
 21
11.1486926175
  0
LINE
  5
3D9
100
AcDbEntity
  8
0
100
AcDbLine
 62
253
  6
CONTINUOUS
 10
22.6871309372
 20
14.1349559458
 11
21.9322802835
 21
14.5123812727
  0
LINE
  5
3DA
100
AcDbEntity
  8
RACCORDO
100
AcDbLine
 62
253
  6
CONTINUOUS
 10
-8.9323641569
 20
30.6441723605
 11
21.0849475306
 21
15.6355165167
  0
LINE
  5
3DB
100
AcDbEntity
  8
ASSI
100
AcDbLine
 62
253
  6
CONTINUOUS
 10
-8.9323641569
 20
30.6441723605
 11
21.0849475306
 21
15.6355165167
  0
LINE
  5
3DC
100
AcDbEntity
  8
RACCORDO
100
AcDbLine
 62
7
  6
CONTINUOUS
 10
-8.7149307843
 20
30.6553555591
 11
21.3023875387
 21
15.6466963976
  0
LINE
  5
3DD
100
AcDbEntity
  8
ASSI
100
AcDbLine
 62
7
  6
CONTINUOUS
 10
-8.7153548432
 20
30.6555669192
 11
21.3023875387
 21
15.6466963976
  0
LINE
  5
3DE
100
AcDbEntity
  8
RACCORDO
100
AcDbLine
 62
7
  6
CONTINUOUS
 10
-6.5870898039
 20
30.2569905569
 11
-4.2586626791
 21
29.0927769945
  0
LINE
  5
3DF
100
AcDbEntity
  8
RACCORDO
100
AcDbLine
 62
7
  6
CONTINUOUS
 10
23.8185017871
 20
15.0541947614
 11
21.4900746624
 21
16.2184083237
  0
LINE
  5
3E0
100
AcDbEntity
  8
0
100
AcDbLine
 62
7
  6
CONTINUOUS
 10
16.1568208282
 20
20.4103792522
 11
16.073813704
 21
20.6557863436
  0
LINE
  5
3E1
100
AcDbEntity
  8
0
100
AcDbLine
 62
7
  6
CONTINUOUS
 10
15.8394459188
 20
21.3486849002
 11
15.699361094
 21
21.762839827
  0
LWPOLYLINE
  5
3E2
100
AcDbEntity
  8
RACCORDO
100
AcDbPolyline
 62
7
  6
CONTINUOUS
 90
43
 70
0
 10
28.7380928467
 20
-4.9445938899
 10
28.7355744208
 20
-4.9155848872
 10
28.7322865507
 20
-4.8865633908
 10
28.728245673
 20
-4.8575917049
 10
28.7234640734
 20
-4.8286816618
 10
28.7179512419
 20
-4.7998385103
 10
28.7117270317
 20
-4.771118416
 10
28.7048041053
 20
-4.7425344597
 10
28.6971911907
 20
-4.7140897814
 10
28.6889082714
 20
-4.6858282214
 10
28.6799664
 20
-4.6577610195
 10
28.6703740539
 20
-4.6298936975
 10
28.660150326
 20
-4.6022635076
 10
28.6493072221
 20
-4.5748865311
 10
28.6378503945
 20
-4.5477639496
 10
28.6257900373
 20
-4.520912213
 10
28.6131337471
 20
-4.4943421131
 10
28.5998866242
 20
-4.4680620226
 10
28.5860552017
 20
-4.4420853716
 10
28.5716423218
 20
-4.4164199187
 10
28.5566525762
 20
-4.3910797337
 10
28.5410953401
 20
-4.3660867343
 10
28.5249713468
 20
-4.3414505388
 10
28.5082834616
 20
-4.3171857616
 10
28.4910434028
 20
-4.2933201854
 10
28.4732469882
 20
-4.2698607878
 10
28.4548987518
 20
-4.2468273408
 10
28.4360227886
 20
-4.2242639573
 10
28.416608633
 20
-4.2021720699
 10
28.3966657909
 20
-4.1805783942
 10
28.3762512241
 20
-4.1595572585
 10
28.355365355
 20
-4.1391184288
 10
28.3340108169
 20
-4.1192764044
 10
28.3122535278
 20
-4.1001007468
 10
28.2900982268
 20
-4.0816011552
 10
28.2675477739
 20
-4.0637874311
 10
28.2446711935
 20
-4.0467180517
 10
28.2214770681
 20
-4.0304011538
 10
28.1979698761
 20
-4.0148426656
 10
28.1742184722
 20
-4.000088353
 10
28.1502538948
 20
-3.9861541782
 10
28.1260677635
 20
-3.9730319746
 10
28.1110791107
 20
-3.9653627764
  0
LINE
  5
3E3
100
AcDbEntity
  8
RACCORDO
100
AcDbLine
 62
253
  6
CONTINUOUS
 10
25.8215824648
 20
-15.7356599184
 11
25.8215824648
 21
-20.1733514479
  0
LINE
  5
3E4
100
AcDbEntity
  8
ASSI
100
AcDbLine
 62
253
  6
CONTINUOUS
 10
25.8215824648
 20
-15.7356599184
 11
25.8215824648
 21
-20.1733514479
  0
LINE
  5
3E5
100
AcDbEntity
  8
RACCORDO
100
AcDbLine
 62
7
  6
CONTINUOUS
 10
25.9619125647
 20
-16.0041167654
 11
25.9619125647
 21
-19.9996913278
  0
LINE
  5
3E6
100
AcDbEntity
  8
ASSI
100
AcDbLine
 62
7
  6
CONTINUOUS
 10
25.9619125647
 20
-16.0041167654
 11
25.9619125647
 21
-19.9996913278
  0
LINE
  5
3E7
100
AcDbEntity
  8
RACCORDO
100
AcDbLine
 62
7
  6
CONTINUOUS
 10
26.3082727139
 20
-19.029944136
 11
26.3082727097
 21
-19.0298355349
  0
LINE
  5
3E8
100
AcDbEntity
  8
ASSI
100
AcDbLine
 62
7
  6
CONTINUOUS
 10
26.3082727139
 20
-15.8899813143
 11
26.3082727139
 21
-19.0299542848
  0
LINE
  5
3E9
100
AcDbEntity
  8
0
100
AcDbLine
 62
7
  6
CONTINUOUS
 10
26.3082727139
 20
-15.8899813143
 11
26.3082727139
 21
-19.0299542848
  0
LINE
  5
3EA
100
AcDbEntity
  8
ASSI
100
AcDbLine
 62
7
  6
CONTINUOUS
 10
26.3065725568
 20
-19.1053789579
 11
26.3082722553
 21
-19.0289779171
  0
LINE
  5
3EB
100
AcDbEntity
  8
RACCORDO
100
AcDbLine
 62
7
  6
CONTINUOUS
 10
26.3053297886
 20
-19.1291911139
 11
26.3075090384
 21
-19.0804972009
  0
LINE
  5
3EC
100
AcDbEntity
  8
RACCORDO
100
AcDbLine
 62
253
  6
CONTINUOUS
 10
12.1777995272
 20
-28.0716897821
 11
11.5558414619
 21
-28.816929183
  0
LINE
  5
3ED
100
AcDbEntity
  8
RACCORDO
100
AcDbLine
 62
253
  6
CONTINUOUS
 10
12.5308877027
 20
-28.197382771
 11
11.8200784853
 21
-29.0490849434
  0
LINE
  5
3EE
100
AcDbEntity
  8
DRAFT
100
AcDbLine
 62
7
  6
CONTINUOUS
 10
14.0957835458
 20
-26.6080670015
 11
14.8152329218
 21
-25.7606849083
  0
LWPOLYLINE
  5
3EF
100
AcDbEntity
  8
RACCORDO
100
AcDbPolyline
 62
7
  6
CONTINUOUS
 90
33
 70
0
 10
28.3994553953
 20
-14.8037902699
 10
28.4183576548
 20
-14.7911731092
 10
28.4368784078
 20
-14.7779089034
 10
28.4549958195
 20
-14.7640090484
 10
28.4726889082
 20
-14.7494861847
 10
28.4899593287
 20
-14.7343338991
 10
28.5067865781
 20
-14.7185632569
 10
28.5231489699
 20
-14.7021879191
 10
28.5390447187
 20
-14.6852021048
 10
28.5544536069
 20
-14.667618142
 10
28.5693553683
 20
-14.6494498114
 10
28.5837465918
 20
-14.6306900291
 10
28.5976062724
 20
-14.6113537738
 10
28.6109169699
 20
-14.591452952
 10
28.623678515
 20
-14.5709717368
 10
28.6358684575
 20
-14.5499271031
 10
28.6474710188
 20
-14.5283276045
 10
28.6584912021
 20
-14.5061384527
 10
28.6689157838
 20
-14.4833511078
 10
28.6787144815
 20
-14.459995385
 10
28.6878652281
 20
-14.436089198
 10
28.696352356
 20
-14.4116349316
 10
28.704154446
 20
-14.3866525117
 10
28.7112464742
 20
-14.3611840197
 10
28.7176148986
 20
-14.3352393091
 10
28.7232456565
 20
-14.3088309646
 10
28.7281203236
 20
-14.2820034041
 10
28.7322290137
 20
-14.2547657395
 10
28.7355612028
 20
-14.2271297823
 10
28.7381041535
 20
-14.1991415938
 10
28.7398497933
 20
-14.1708217676
 10
28.7407917147
 20
-14.1421693395
 10
28.7409692519
 20
-14.1230992108
  0
LINE
  5
3F0
100
AcDbEntity
  8
RACCORDO
100
AcDbLine
 62
7
  6
CONTINUOUS
 10
28.3801692293
 20
-14.8157649708
 11
28.3994553953
 21
-14.8037902699
  0
LWPOLYLINE
  5
3F1
100
AcDbEntity
  8
ASSI
100
AcDbPolyline
 62
7
  6
CONTINUOUS
 90
13
 70
0
 10
28.3426732616
 20
-14.836638897
 10
28.392714707
 20
-14.8080759036
 10
28.4476916629
 20
-14.7697270563
 10
28.4993591056
 20
-14.7256524105
 10
28.5471479482
 20
-14.6760996147
 10
28.5905492511
 20
-14.6213646898
 10
28.6290663227
 20
-14.5618619762
 10
28.6623143913
 20
-14.4980022728
 10
28.6900289927
 20
-14.4300853914
 10
28.7119253147
 20
-14.3585751954
 10
28.7277905407
 20
-14.2839741672
 10
28.7375080329
 20
-14.206585972
 10
28.7409692125
 20
-14.1231958255
  0
LWPOLYLINE
  5
3F2
100
AcDbEntity
  8
RACCORDO
100
AcDbPolyline
 62
7
  6
CONTINUOUS
 90
3
 70
0
 10
28.3432464197
 20
-14.8363428227
 10
28.3605123009
 20
-14.8270900138
 10
28.3801692293
 20
-14.8157649708
  0
LINE
  5
3F3
100
AcDbEntity
  8
RACCORDO
100
AcDbLine
 62
253
  6
CONTINUOUS
 10
25.8215824648
 20
-15.7356599184
 11
28.6006392105
 21
-14.296756791
  0
LINE
  5
3F4
100
AcDbEntity
  8
ASSI
100
AcDbLine
 62
253
  6
CONTINUOUS
 10
25.8215824648
 20
-15.7356599184
 11
28.6006392105
 21
-14.296756791
  0
LINE
  5
3F5
100
AcDbEntity
  8
RACCORDO
100
AcDbLine
 62
7
  6
CONTINUOUS
 10
28.343276732
 20
-14.8363271396
 11
28.3432447893
 21
-14.8363436765
  0
LINE
  5
3F6
100
AcDbEntity
  8
RACCORDO
100
AcDbLine
 62
7
  6
CONTINUOUS
 10
28.3432774804
 20
-14.8363267521
 11
25.9619125647
 21
-16.0693145314
  0
LINE
  5
3F7
100
AcDbEntity
  8
ASSI
100
AcDbLine
 62
7
  6
CONTINUOUS
 10
28.3432774804
 20
-14.8363267521
 11
25.9619125647
 21
-16.0693145314
  0
LINE
  5
3F8
100
AcDbEntity
  8
RACCORDO
100
AcDbLine
 62
7
  6
CONTINUOUS
 10
5.4810636852
 20
27.3341836495
 11
16.0575161984
 21
22.0459573929
  0
LINE
  5
3F9
100
AcDbEntity
  8
RACCORDO
100
AcDbLine
 62
7
  6
CONTINUOUS
 10
19.9767526995
 20
20.0863391424
 11
21.1093134779
 21
19.5200587532
  0
LWPOLYLINE
  5
3FA
100
AcDbEntity
  8
ASSI
100
AcDbPolyline
 62
7
  6
CONTINUOUS
 90
17
 70
0
 10
28.7409690943
 20
-5.0224700854
 10
28.737407711
 20
-4.9357597177
 10
28.727958224
 20
-4.855716857
 10
28.7127778459
 20
-4.7757389173
 10
28.6920449631
 20
-4.6962449144
 10
28.6661547807
 20
-4.6182550601
 10
28.6353795297
 20
-4.5421294683
 10
28.5998042085
 20
-4.467903018
 10
28.5597153614
 20
-4.3961525514
 10
28.5151278056
 20
-4.3269933335
 10
28.4661521989
 20
-4.2608204435
 10
28.4132888184
 20
-4.1985020505
 10
28.3562386271
 20
-4.1399522193
 10
28.2952965618
 20
-4.085851264
 10
28.2321128321
 20
-4.0377620831
 10
28.1674640385
 20
-3.9960654558
 10
28.1110916709
 20
-3.9653690573
  0
LWPOLYLINE
  5
3FB
100
AcDbEntity
  8
RACCORDO
100
AcDbPolyline
 62
7
  6
CONTINUOUS
 90
4
 70
0
 10
28.740969252
 20
-5.0222749401
 10
28.7407804629
 20
-5.0025060929
 10
28.7398312204
 20
-4.9735652361
 10
28.7380928467
 20
-4.9445938899
  0
LINE
  5
3FC
100
AcDbEntity
  8
RACCORDO
100
AcDbLine
 62
253
  6
CONTINUOUS
 10
28.6006392105
 20
-5.1959405415
 11
28.6006392105
 21
-14.296756791
  0
LINE
  5
3FD
100
AcDbEntity
  8
ASSI
100
AcDbLine
 62
253
  6
CONTINUOUS
 10
28.6006392105
 20
-5.1959405415
 11
28.6006392105
 21
-14.296756791
  0
LINE
  5
3FE
100
AcDbEntity
  8
SMUSSO
100
AcDbLine
 62
7
  6
CONTINUOUS
 10
28.6268278992
 20
11.026734738
 11
28.6268278992
 21
5.1377619923
  0
LINE
  5
3FF
100
AcDbEntity
  8
RACCORDO
100
AcDbLine
 62
7
  6
CONTINUOUS
 10
28.7409693103
 20
-5.0222715793
 11
28.7409693103
 21
-14.123096574
  0
LINE
  5
400
100
AcDbEntity
  8
ASSI
100
AcDbLine
 62
7
  6
CONTINUOUS
 10
28.7409693103
 20
-5.0222715793
 11
28.7409693103
 21
-14.123096574
  0
LWPOLYLINE
  5
401
100
AcDbEntity
  8
ASSI
100
AcDbPolyline
 62
7
  6
CONTINUOUS
 90
5
 70
0
 10
26.1940038894
 20
-19.6442439188
 10
26.2386930616
 20
-19.5106673351
 10
26.2723985395
 20
-19.375845145
 10
26.2950287524
 20
-19.240387208
 10
26.3065725568
 20
-19.1053789579
  0
LWPOLYLINE
  5
402
100
AcDbEntity
  8
RACCORDO
100
AcDbPolyline
 62
7
  6
CONTINUOUS
 90
34
 70
0
 10
25.613016961
 20
-20.685078422
 10
25.6317151776
 20
-20.6729465035
 10
25.6500351523
 20
-20.6602007222
 10
25.6679799188
 20
-20.6468357974
 10
25.6855289903
 20
-20.6328627904
 10
25.702662692
 20
-20.6182937225
 10
25.7193833431
 20
-20.603121309
 10
25.7356716432
 20
-20.5873558729
 10
25.7515070675
 20
-20.5710104664
 10
25.7668883516
 20
-20.5540786278
 10
25.781796355
 20
-20.5365718391
 10
25.7962117984
 20
-20.518503039
 10
25.8101316368
 20
-20.4998645712
 10
25.8235363854
 20
-20.4806697911
 10
25.8364088531
 20
-20.4609303789
 10
25.8487475597
 20
-20.4406323553
 10
25.8605315761
 20
-20.4197913029
 10
25.871745606
 20
-20.3984156285
 10
25.8823925248
 20
-20.3764749659
 10
25.8924592058
 20
-20.3539628228
 10
25.9019182193
 20
-20.3309060265
 10
25.9107495786
 20
-20.3073196143
 10
25.918938889
 20
-20.2832040539
 10
25.9264653307
 20
-20.2585797607
 10
25.9333045062
 20
-20.2334895636
 10
25.9394436655
 20
-20.2079428022
 10
25.9448696988
 20
-20.1819512849
 10
25.949564892
 20
-20.155559939
 10
25.9535201147
 20
-20.1287774014
 10
25.9567257222
 20
-20.1016147797
 10
25.9591697271
 20
-20.0741185075
 10
25.9608448668
 20
-20.0463090571
 10
25.9617456309
 20
-20.0181847794
 10
25.9619125055
 20
-19.9996937152
  0
LWPOLYLINE
  5
403
100
AcDbEntity
  8
ASSI
100
AcDbPolyline
 62
7
  6
CONTINUOUS
 90
14
 70
0
 10
25.5741324948
 20
-20.707690162
 10
25.6184168952
 20
-20.6816625938
 10
25.669108884
 20
-20.6459644256
 10
25.7164722352
 20
-20.6058340808
 10
25.7605033282
 20
-20.5612401657
 10
25.8008436135
 20
-20.5124378248
 10
25.8371434936
 20
-20.4597614731
 10
25.8693521203
 20
-20.4031171273
 10
25.8971881034
 20
-20.3426911708
 10
25.9203373096
 20
-20.2788270101
 10
25.9386478663
 20
-20.211454458
 10
25.9518697871
 20
-20.1406209814
 10
25.9596979088
 20
-20.0666400088
 10
25.9619124977
 20
-19.9997354728
  0
LINE
  5
404
100
AcDbEntity
  8
RACCORDO
100
AcDbLine
 62
253
  6
CONTINUOUS
 10
14.0957835458
 20
-26.8241771425
 11
14.7967194996
 21
-26.42215187
  0
LINE
  5
405
100
AcDbEntity
  8
RACCORDO
100
AcDbLine
 62
7
  6
CONTINUOUS
 10
13.9745501313
 20
-27.0903434705
 11
14.6762095948
 21
-26.6879032255
  0
LWPOLYLINE
  5
406
100
AcDbEntity
  8
RACCORDO
100
AcDbPolyline
 62
7
  6
CONTINUOUS
 90
3
 70
0
 10
25.5745544755
 20
-20.7074628889
 10
25.5939525678
 20
-20.6965898548
 10
25.613016961
 20
-20.685078422
  0
LINE
  5
407
100
AcDbEntity
  8
RACCORDO
100
AcDbLine
 62
253
  6
CONTINUOUS
 10
25.8215824648
 20
-20.1733514479
 11
14.8382456661
 21
-26.0991180995
  0
LINE
  5
408
100
AcDbEntity
  8
ASSI
100
AcDbLine
 62
253
  6
CONTINUOUS
 10
25.8215824648
 20
-20.1733514479
 11
14.8382456661
 21
-26.0991180995
  0
LINE
  5
409
100
AcDbEntity
  8
RACCORDO
100
AcDbLine
 62
7
  6
CONTINUOUS
 10
25.5745925495
 20
-20.707442351
 11
14.7844568466
 21
-26.5289681067
  0
LINE
  5
40A
100
AcDbEntity
  8
ASSI
100
AcDbLine
 62
7
  6
CONTINUOUS
 10
25.5745925495
 20
-20.707442351
 11
14.7844568466
 21
-26.5289681067
  0
LINE
  5
40B
100
AcDbEntity
  8
RACCORDO
100
AcDbLine
 62
253
  6
CONTINUOUS
 10
11.8200784853
 20
-29.3423574229
 11
14.1311388849
 21
-28.2136081777
  0
LINE
  5
40C
100
AcDbEntity
  8
RACCORDO
100
AcDbLine
 62
7
  6
CONTINUOUS
 10
11.7539458421
 20
-29.4781458474
 11
14.0653754264
 21
-28.349216288
  0
LINE
  5
40D
100
AcDbEntity
  8
RACCORDO
100
AcDbLine
 62
253
  6
CONTINUOUS
 10
9.4363731312
 20
-28.780206394
 11
14.0957835458
 21
-26.8243751607
  0
LINE
  5
40E
100
AcDbEntity
  8
RACCORDO
100
AcDbLine
 62
7
  6
CONTINUOUS
 10
13.9536761352
 20
-27.1006597437
 11
9.2821849002
 21
-29.0615601111
  0
LINE
  5
40F
100
AcDbEntity
  8
RACCORDO
100
AcDbLine
 62
7
  6
CONTINUOUS
 10
0.4175722282
 20
29.0195536898
 11
-3.9051092885
 21
29.0195536898
  0
LWPOLYLINE
  5
410
100
AcDbEntity
  8
ASSI
100
AcDbPolyline
 62
7
  6
CONTINUOUS
 90
6
 70
0
 10
-8.987001905
 20
30.7379022378
 10
-9.0556905181
 20
30.7426518011
 10
-9.1234052831
 20
30.7410238763
 10
-9.1896878887
 20
30.7331746839
 10
-9.2538660602
 20
30.7193667418
 10
-9.3153792594
 20
30.6999636215
  0
LINE
  5
411
100
AcDbEntity
  8
SMUSSO
100
AcDbLine
 62
7
  6
CONTINUOUS
 10
28.5561172211
 20
11.1486926175
 11
28.6268278992
 21
11.026734738
  0
LWPOLYLINE
  5
412
100
AcDbEntity
  8
ASSI
100
AcDbPolyline
 62
7
  6
CONTINUOUS
 90
3
 70
0
 10
26.0981692971
 20
-19.8577736712
 10
26.1383347584
 20
-19.7763943586
 10
26.1940038894
 20
-19.6442439188
  0
LWPOLYLINE
  5
413
100
AcDbEntity
  8
RACCORDO
100
AcDbPolyline
 62
7
  6
CONTINUOUS
 90
16
 70
0
 10
26.0980737782
 20
-19.8579568091
 10
26.1194151029
 20
-19.8158859403
 10
26.1424600343
 20
-19.7674761204
 10
26.1639992429
 20
-19.7188666763
 10
26.1840356726
 20
-19.6700677557
 10
26.2025669209
 20
-19.6211038766
 10
26.2195865005
 20
-19.572015179
 10
26.2350977123
 20
-19.5228192538
 10
26.2491033649
 20
-19.4735383327
 10
26.2616006642
 20
-19.4242223528
 10
26.2725968118
 20
-19.3748920951
 10
26.2820990516
 20
-19.3255705914
 10
26.2901111008
 20
-19.2763134407
 10
26.2966452056
 20
-19.2271439491
 10
26.301714255
 20
-19.1780846302
 10
26.3053297886
 20
-19.1291911139
  0
LWPOLYLINE
  5
414
100
AcDbEntity
  8
ASSI
100
AcDbPolyline
 62
7
  6
CONTINUOUS
 90
3
 70
0
 10
26.0058599754
 20
-20.017181051
 10
26.066878452
 20
-19.9154788845
 10
26.0980494155
 20
-19.8580034693
  0
LWPOLYLINE
  5
415
100
AcDbEntity
  8
RACCORDO
100
AcDbPolyline
 62
7
  6
CONTINUOUS
 90
5
 70
0
 10
25.9917743794
 20
-20.0389882038
 10
26.0212675798
 20
-19.9926653337
 10
26.0492999314
 20
-19.9461084496
 10
26.075874879
 20
-19.8993286348
 10
26.0980710972
 20
-19.8579619381
  0
LINE
  5
416
100
AcDbEntity
  8
ASSI
100
AcDbLine
 62
7
  6
CONTINUOUS
 10
25.9573380944
 20
-20.0889418292
 11
26.0058599754
 21
-20.017181051
  0
LWPOLYLINE
  5
417
100
AcDbEntity
  8
RACCORDO
100
AcDbPolyline
 62
7
  6
CONTINUOUS
 90
3
 70
0
 10
25.9578203487
 20
-20.0892996868
 10
25.960819659
 20
-20.0850613607
 10
25.9917743794
 20
-20.0389882038
  0
ARC
  5
418
100
AcDbEntity
  8
RACCORDO
100
AcDbCircle
 62
253
  6
CONTINUOUS
 10
-36.1052114744
 20
-15.2112360684
 40
43.7473466528
100
AcDbArc
 50
18.609422947
 51
19.133982279
  0
ARC
  5
419
100
AcDbEntity
  8
RACCORDO
100
AcDbCircle
 62
253
  6
CONTINUOUS
 10
-36.1457874074
 20
-15.0117535006
 40
42.6274579682
100
AcDbArc
 50
18.4076028991
 51
18.9255179308
  0
ARC
  5
41A
100
AcDbEntity
  8
RACCORDO
100
AcDbCircle
 62
253
  6
CONTINUOUS
 10
-5.2091031879
 20
-12.1302435227
 40
11.944790562
100
AcDbArc
 50
330.8741257529
 51
332.1775361298
  0
ARC
  5
41B
100
AcDbEntity
  8
RACCORDO
100
AcDbCircle
 62
253
  6
CONTINUOUS
 10
-6.0764839721
 20
-11.8940582807
 40
11.6925100605
100
AcDbArc
 50
331.2767068029
 51
332.5605511156
  0
ARC
  5
41C
100
AcDbEntity
  8
ASSI
100
AcDbCircle
 62
253
  6
CONTINUOUS
 10
24.3013516217
 20
-18.6939228157
 40
2.0912833171
100
AcDbArc
 50
322.6551149496
 51
324.1744091244
  0
ARC
  5
41D
100
AcDbEntity
  8
RACCORDO
100
AcDbCircle
 62
253
  6
CONTINUOUS
 10
24.3477348875
 20
-18.7285753501
 40
2.0333881531
100
AcDbArc
 50
322.638549298
 51
327.1830019432
  0
ARC
  5
41E
100
AcDbEntity
  8
ASSI
100
AcDbCircle
 62
253
  6
CONTINUOUS
 10
24.365572
 20
-18.740283014
 40
2.0120777303
100
AcDbArc
 50
324.1743948719
 51
325.7332443292
  0
ARC
  5
41F
100
AcDbEntity
  8
ASSI
100
AcDbCircle
 62
253
  6
CONTINUOUS
 10
24.4262550968
 20
-18.7816486754
 40
1.9386368981
100
AcDbArc
 50
325.7337824801
 51
327.244914712
  0
ARC
  5
420
100
AcDbEntity
  8
ASSI
100
AcDbCircle
 62
253
  6
CONTINUOUS
 10
24.527568359
 20
-18.8461253549
 40
1.8185484025
100
AcDbArc
 50
327.2262899353
 51
332.3048164338
  0
ARC
  5
421
100
AcDbEntity
  8
RACCORDO
100
AcDbCircle
 62
253
  6
CONTINUOUS
 10
24.5293690619
 20
-18.8471585738
 40
1.8164737963
100
AcDbArc
 50
327.3151546023
 51
332.3072747586
  0
ARC
  5
422
100
AcDbEntity
  8
RACCORDO
100
AcDbCircle
 62
253
  6
CONTINUOUS
 10
25.0068594908
 20
-19.0298895927
 40
1.3014135552
100
AcDbArc
 50
357.4908137132
 51
358.9900633532
  0
ARC
  5
423
100
AcDbEntity
  8
ASSI
100
AcDbCircle
 62
253
  6
CONTINUOUS
 10
25.0068594908
 20
-19.0298895927
 40
1.3014135552
100
AcDbArc
 50
357.4908137132
 51
358.9900633532
  0
ARC
  5
424
100
AcDbEntity
  8
RACCORDO
100
AcDbCircle
 62
253
  6
CONTINUOUS
 10
25.008730103
 20
-19.0299299856
 40
1.2995425216
100
AcDbArc
 50
358.9903902988
 51
359.4463510685
  0
ARC
  5
425
100
AcDbEntity
  8
ASSI
100
AcDbCircle
 62
253
  6
CONTINUOUS
 10
25.0090463634
 20
-19.0299344059
 40
1.2992262324
100
AcDbArc
 50
358.9903394551
 51
359.9995653882
  0
ARC
  5
426
100
AcDbEntity
  8
RACCORDO
100
AcDbCircle
 62
253
  6
CONTINUOUS
 10
25.0093411649
 20
-19.0299359182
 40
1.2989314309
100
AcDbArc
 50
359.4463522942
 51
359.9996319995
  0
ARC
  5
427
100
AcDbEntity
  8
RACCORDO
100
AcDbCircle
 62
253
  6
CONTINUOUS
 10
-20.3139598315
 20
-10.799208316
 40
0.9948546674
100
AcDbArc
 50
210.513368835
 51
252.3605209556
  0
ARC
  5
428
100
AcDbEntity
  8
RACCORDO
100
AcDbCircle
 62
253
  6
CONTINUOUS
 10
-20.3129664547
 20
-10.7996629874
 40
0.9946529899
100
AcDbArc
 50
210.5070835236
 51
252.2979269531
  0
ARC
  5
429
100
AcDbEntity
  8
RACCORDO
100
AcDbCircle
 62
253
  6
CONTINUOUS
 10
28.1650474428
 20
-14.4929246448
 40
0.3869136343
100
AcDbArc
 50
301.7611008579
 51
305.8649311485
  0
ARC
  5
42A
100
AcDbEntity
  8
RACCORDO
100
AcDbCircle
 62
253
  6
CONTINUOUS
 10
28.1672739255
 20
-14.4964689982
 40
0.3827280749
100
AcDbArc
 50
298.0845335475
 51
301.7569996642
  0
ARC
  5
42B
100
AcDbEntity
  8
ASSI
100
AcDbCircle
 62
253
  6
CONTINUOUS
 10
28.1672739255
 20
-14.4964689982
 40
0.3827280749
100
AcDbArc
 50
298.0845335475
 51
301.7569996642
  0
ARC
  5
42C
100
AcDbEntity
  8
RACCORDO
100
AcDbCircle
 62
253
  6
CONTINUOUS
 10
28.1679068915
 20
-14.4976185541
 40
0.3814158912
100
AcDbArc
 50
297.3733287843
 51
298.0819413644
  0
ARC
  5
42D
100
AcDbEntity
  8
ASSI
100
AcDbCircle
 62
253
  6
CONTINUOUS
 10
28.1679068915
 20
-14.4976185541
 40
0.3814158912
100
AcDbArc
 50
297.3733287843
 51
298.0819413644
  0
ARC
  5
42E
100
AcDbEntity
  8
RACCORDO
100
AcDbCircle
 62
253
  6
CONTINUOUS
 10
25.3954207922
 20
-20.3754069575
 40
0.3772928899
100
AcDbArc
 50
298.3507534164
 51
302.1732567279
  0
ARC
  5
42F
100
AcDbEntity
  8
ASSI
100
AcDbCircle
 62
253
  6
CONTINUOUS
 10
25.3954207922
 20
-20.3754069575
 40
0.3772928899
100
AcDbArc
 50
298.3507534164
 51
302.1732567279
  0
ARC
  5
430
100
AcDbEntity
  8
RACCORDO
100
AcDbCircle
 62
253
  6
CONTINUOUS
 10
-21.9097683033
 20
-13.3535451457
 40
0.3690059142
100
AcDbArc
 50
241.1143617082
 51
243.4298105865
  0
ARC
  5
431
100
AcDbEntity
  8
RACCORDO
100
AcDbCircle
 62
7
  6
CONTINUOUS
 10
11.6442292351
 20
-29.2535038519
 40
0.2500035199
100
AcDbArc
 50
243.4313816633
 51
296.0311831108
  0
ARC
  5
432
100
AcDbEntity
  8
RACCORDO
100
AcDbCircle
 62
253
  6
CONTINUOUS
 10
-21.2161583104
 20
-11.5008704186
 40
0.2016480577
100
AcDbArc
 50
76.7439984355
 51
77.0675006998
  0
ARC
  5
433
100
AcDbEntity
  8
RACCORDO
100
AcDbCircle
 62
7
  6
CONTINUOUS
 10
13.8813632132
 20
-26.9280027519
 40
0.1871808427
100
AcDbArc
 50
292.7738567256
 51
299.8156333559
  0
ARC
  5
434
100
AcDbEntity
  8
RACCORDO
100
AcDbCircle
 62
253
  6
CONTINUOUS
 10
28.6156947226
 20
-14.1230886433
 40
0.1252745714
100
AcDbArc
 50
355.9754533872
 51
359.9951668381
  0
ARC
  5
435
100
AcDbEntity
  8
RACCORDO
100
AcDbCircle
 62
253
  6
CONTINUOUS
 10
25.8367129173
 20
-19.9996854438
 40
0.1251996309
100
AcDbArc
 50
356.5142797768
 51
359.9962147086
  0
ARC
  5
436
100
AcDbEntity
  8
RACCORDO
100
AcDbCircle
 62
253
  6
CONTINUOUS
 10
-9.7462319819
 20
-17.162724009
 40
0.0283153292
100
AcDbArc
 50
242.372220268
 51
250.3014448614
  0
ARC
  5
437
100
AcDbEntity
  8
RACCORDO
100
AcDbCircle
 62
253
  6
CONTINUOUS
 10
-11.3119948083
 20
6.5534416115
 40
10.7032117848
100
AcDbArc
 50
149.3661628359
 51
150.9003876106
  0
ARC
  5
438
100
AcDbEntity
  8
RACCORDO
100
AcDbCircle
 62
253
  6
CONTINUOUS
 10
17.8985608594
 20
-3.1123046834
 40
4.9129250101
100
AcDbArc
 50
14.898164495
 51
18.932054517
  0
ARC
  5
439
100
AcDbEntity
  8
RACCORDO
100
AcDbCircle
 62
253
  6
CONTINUOUS
 10
25.3498809006
 20
8.9335917813
 40
3.9224458049
100
AcDbArc
 50
33.1853127408
 51
35.0427222736
  0
ARC
  5
43A
100
AcDbEntity
  8
RACCORDO
100
AcDbCircle
 62
7
  6
CONTINUOUS
 10
25.5298761447
 20
9.0237615578
 40
3.7986315855
100
AcDbArc
 50
32.9040183206
 51
35.0797346479
  0
ARC
  5
43B
100
AcDbEntity
  8
RACCORDO
100
AcDbCircle
 62
7
  6
CONTINUOUS
 10
21.3234127166
 20
-4.5200469213
 40
2.9757521631
100
AcDbArc
 50
38.0335280835
 51
40.0547724937
  0
ARC
  5
43C
100
AcDbEntity
  8
0
100
AcDbCircle
 62
7
  6
CONTINUOUS
 10
21.062230228
 20
-2.4723001994
 40
2.5416904263
100
AcDbArc
 50
350.0688012881
 51
350.6931527916
  0
ARC
  5
43D
100
AcDbEntity
  8
RACCORDO
100
AcDbCircle
 62
253
  6
CONTINUOUS
 10
21.149422622
 20
-2.4577127769
 40
2.4914665813
100
AcDbArc
 50
349.3669429975
 51
350.0506609133
  0
ARC
  5
43E
100
AcDbEntity
  8
RACCORDO
100
AcDbCircle
 62
253
  6
CONTINUOUS
 10
116.2220438625
 20
-4.678115642
 40
108.5621766127
100
AcDbArc
 50
173.2847688254
 51
175.0559449833
  0
ARC
  5
43F
100
AcDbEntity
  8
RACCORDO
100
AcDbCircle
 62
253
  6
CONTINUOUS
 10
109.4727670163
 20
-4.1063387104
 40
101.7887349007
100
AcDbArc
 50
175.0491771735
 51
179.052058902
  0
ARC
  5
440
100
AcDbEntity
  8
RACCORDO
100
AcDbCircle
 62
253
  6
CONTINUOUS
 10
59.8871613276
 20
-2.7243323146
 40
82.8852548663
100
AcDbArc
 50
183.5856165942
 51
187.3086552866
  0
ARC
  5
441
100
AcDbEntity
  8
0
100
AcDbCircle
 62
7
  6
CONTINUOUS
 10
0.103548343
 20
21.3053636933
 40
7.106882944
100
AcDbArc
 50
67.686268856
 51
72.1067398399
  0
ARC
  5
442
100
AcDbEntity
  8
0
100
AcDbCircle
 62
7
  6
CONTINUOUS
 10
1.0381699037
 20
23.0391095697
 40
5.8965954325
100
AcDbArc
 50
77.771829247
 51
82.8478240416
  0
ARC
  5
443
100
AcDbEntity
  8
0
100
AcDbCircle
 62
7
  6
CONTINUOUS
 10
-0.144682838
 20
26.7388430125
 40
0.8182242562
100
AcDbArc
 50
174.2219726862
 51
177.2082821599
  0
ARC
  5
444
100
AcDbEntity
  8
RACCORDO
100
AcDbCircle
 62
7
  6
CONTINUOUS
 10
-18.2415286541
 20
27.3703969215
 40
0.2513828728
100
AcDbArc
 50
227.8901001718
 51
243.391809364
  0
ARC
  5
445
100
AcDbEntity
  8
RACCORDO
100
AcDbCircle
 62
7
  6
CONTINUOUS
 10
-5.9378706615
 20
21.2185679252
 40
0.2513828728
100
AcDbArc
 50
227.8901001718
 51
243.391809364
  0
ARC
  5
446
100
AcDbEntity
  8
RACCORDO
100
AcDbCircle
 62
7
  6
CONTINUOUS
 10
-2.3316260774
 20
19.4154456332
 40
0.2513828728
100
AcDbArc
 50
227.8901001718
 51
243.391809364
  0
ARC
  5
447
100
AcDbEntity
  8
RACCORDO
100
AcDbCircle
 62
7
  6
CONTINUOUS
 10
-16.5689834713
 20
26.5337500168
 40
0.2510479896
100
AcDbArc
 50
243.463907806
 51
258.1842216626
  0
ARC
  5
448
100
AcDbEntity
  8
RACCORDO
100
AcDbCircle
 62
7
  6
CONTINUOUS
 10
-4.2653254786
 20
20.3819210205
 40
0.2510479896
100
AcDbArc
 50
243.463907806
 51
258.1842216626
  0
ARC
  5
449
100
AcDbEntity
  8
RACCORDO
100
AcDbCircle
 62
7
  6
CONTINUOUS
 10
-0.6592112796
 20
18.5783680476
 40
0.2506044401
100
AcDbArc
 50
243.446586266
 51
254.6452231932
  0
ARC
  5
44A
100
AcDbEntity
  8
RACCORDO
100
AcDbCircle
 62
7
  6
CONTINUOUS
 10
-18.2422203533
 20
27.369295276
 40
0.2501018855
100
AcDbArc
 50
185.5672705258
 51
227.838424453
  0
ARC
  5
44B
100
AcDbEntity
  8
RACCORDO
100
AcDbCircle
 62
7
  6
CONTINUOUS
 10
-5.9385623607
 20
21.2174662797
 40
0.2501018855
100
AcDbArc
 50
185.5672705258
 51
227.838424453
  0
ARC
  5
44C
100
AcDbEntity
  8
RACCORDO
100
AcDbCircle
 62
7
  6
CONTINUOUS
 10
-2.3323177766
 20
19.4143439877
 40
0.2501018855
100
AcDbArc
 50
185.5672705258
 51
227.838424453
  0
ARC
  5
44D
100
AcDbEntity
  8
RACCORDO
100
AcDbCircle
 62
7
  6
CONTINUOUS
 10
-0.6594037017
 20
18.5778941893
 40
0.2500965511
100
AcDbArc
 50
254.6589867858
 51
258.2141754925
  0
ARC
  5
44E
100
AcDbEntity
  8
RACCORDO
100
AcDbCircle
 62
7
  6
CONTINUOUS
 10
-18.2423220728
 20
27.6625204875
 40
0.2499944952
100
AcDbArc
 50
117.0984601725
 51
180.0169140757
  0
ARC
  5
44F
100
AcDbEntity
  8
RACCORDO
100
AcDbCircle
 62
7
  6
CONTINUOUS
 10
-5.9386640802
 20
21.5106914912
 40
0.2499944952
100
AcDbArc
 50
117.0984601725
 51
180.0169140757
  0
ARC
  5
450
100
AcDbEntity
  8
RACCORDO
100
AcDbCircle
 62
7
  6
CONTINUOUS
 10
-2.3324194961
 20
19.7075691992
 40
0.2499944952
100
AcDbArc
 50
117.0984601725
 51
180.0169140757
  0
ARC
  5
451
100
AcDbEntity
  8
RACCORDO
100
AcDbCircle
 62
7
  6
CONTINUOUS
 10
-18.2431079039
 20
27.3691897333
 40
0.2492082831
100
AcDbArc
 50
179.9864287195
 51
185.5629160692
  0
ARC
  5
452
100
AcDbEntity
  8
RACCORDO
100
AcDbCircle
 62
7
  6
CONTINUOUS
 10
-5.9394499113
 20
21.2173607369
 40
0.2492082831
100
AcDbArc
 50
179.9864287195
 51
185.5629160692
  0
ARC
  5
453
100
AcDbEntity
  8
RACCORDO
100
AcDbCircle
 62
7
  6
CONTINUOUS
 10
-2.3332053272
 20
19.4142384449
 40
0.2492082831
100
AcDbArc
 50
179.9864287195
 51
185.5629160692
  0
ARC
  5
454
100
AcDbEntity
  8
RACCORDO
100
AcDbCircle
 62
7
  6
CONTINUOUS
 10
-8.9944253381
 20
24.0365617172
 40
0.1999962301
100
AcDbArc
 50
118.4937275252
 51
180.0187141671
  0
ARC
  5
455
100
AcDbEntity
  8
RACCORDO
100
AcDbCircle
 62
253
  6
CONTINUOUS
 10
-18.3119944818
 20
27.22993196
 40
0.0942275762
100
AcDbArc
 50
241.305761132
 51
243.4467687394
  0
ARC
  5
456
100
AcDbEntity
  8
RACCORDO
100
AcDbCircle
 62
253
  6
CONTINUOUS
 10
-6.0083364892
 20
21.0781029637
 40
0.0942275762
100
AcDbArc
 50
241.305761132
 51
243.446768739
  0
ARC
  5
457
100
AcDbEntity
  8
RACCORDO
100
AcDbCircle
 62
253
  6
CONTINUOUS
 10
-2.4020919051
 20
19.2749806717
 40
0.0942275762
100
AcDbArc
 50
241.3057611323
 51
243.4467687392
  0
ARC
  5
458
100
AcDbEntity
  8
0
100
AcDbCircle
 62
7
  6
CONTINUOUS
 10
2.4377996168
 20
30.5160080276
 40
5.3901631872
100
AcDbArc
 50
281.6996225
 51
282.7605554967
  0
ARC
  5
459
100
AcDbEntity
  8
0
100
AcDbCircle
 62
253
  6
CONTINUOUS
 10
2.167660743
 20
31.4585591578
 40
5.1619846616
100
AcDbArc
 50
257.3135216081
 51
260.3814600673
  0
ARC
  5
45A
100
AcDbEntity
  8
0
100
AcDbCircle
 62
253
  6
CONTINUOUS
 10
2.1142954048
 20
31.2175641489
 40
4.9151534037
100
AcDbArc
 50
256.5889430313
 51
257.3034516696
  0
ARC
  5
45B
100
AcDbEntity
  8
0
100
AcDbCircle
 62
253
  6
CONTINUOUS
 10
2.0568487535
 20
30.9831846014
 40
4.6738414417
100
AcDbArc
 50
254.2532481205
 51
256.6075663787
  0
ARC
  5
45C
100
AcDbEntity
  8
0
100
AcDbCircle
 62
253
  6
CONTINUOUS
 10
1.9762639359
 20
30.698998889
 40
4.3784514816
100
AcDbArc
 50
252.5248282408
 51
254.25896046
  0
ARC
  5
45D
100
AcDbEntity
  8
0
100
AcDbCircle
 62
253
  6
CONTINUOUS
 10
2.6182127561
 20
30.6285914013
 40
4.3051887001
100
AcDbArc
 50
285.7382773706
 51
289.1918014063
  0
ARC
  5
45E
100
AcDbEntity
  8
0
100
AcDbCircle
 62
253
  6
CONTINUOUS
 10
1.8798322428
 20
30.3971307183
 40
4.061557887
100
AcDbArc
 50
250.3362111348
 51
252.5436235263
  0
ARC
  5
45F
100
AcDbEntity
  8
RACCORDO
100
AcDbCircle
 62
253
  6
CONTINUOUS
 10
-9.2079095919
 20
30.3345356208
 40
0.3790555142
100
AcDbArc
 50
106.9584652679
 51
110.4633615402
  0
ARC
  5
460
100
AcDbEntity
  8
RACCORDO
100
AcDbCircle
 62
253
  6
CONTINUOUS
 10
-9.2092842526
 20
30.3382753012
 40
0.3750712304
100
AcDbArc
 50
110.466341806
 51
114.7854624351
  0
ARC
  5
461
100
AcDbEntity
  8
ASSI
100
AcDbCircle
 62
253
  6
CONTINUOUS
 10
-9.2092842526
 20
30.3382753012
 40
0.3750712304
100
AcDbArc
 50
110.466341806
 51
114.7854624351
  0
ARC
  5
462
100
AcDbEntity
  8
RACCORDO
100
AcDbCircle
 62
253
  6
CONTINUOUS
 10
-8.7989420983
 20
30.4873078107
 40
0.1878775338
100
AcDbArc
 50
63.758570714
 51
67.6413098677
  0
ARC
  5
463
100
AcDbEntity
  8
RACCORDO
100
AcDbCircle
 62
253
  6
CONTINUOUS
 10
-8.7987028992
 20
30.4878124283
 40
0.1873191599
100
AcDbArc
 50
63.4376820764
 51
63.7559487814
  0
ARC
  5
464
100
AcDbEntity
  8
0
100
AcDbCircle
 62
7
  6
CONTINUOUS
 10
14.5992373573
 20
14.0575191861
 40
7.106882944
100
AcDbArc
 50
67.686268856
 51
72.1067398399
  0
ARC
  5
465
100
AcDbEntity
  8
0
100
AcDbCircle
 62
7
  6
CONTINUOUS
 10
4.3958629189
 20
21.5044168511
 40
6.8944922332
100
AcDbArc
 50
107.8100264724
 51
108.3073920916
  0
ARC
  5
466
100
AcDbEntity
  8
0
100
AcDbCircle
 62
7
  6
CONTINUOUS
 10
18.8915519333
 20
14.2565723439
 40
6.8944922332
100
AcDbArc
 50
107.8100264724
 51
108.3073920916
  0
ARC
  5
467
100
AcDbEntity
  8
0
100
AcDbCircle
 62
7
  6
CONTINUOUS
 10
3.5725399283
 20
22.8998349233
 40
6.0403709299
100
AcDbArc
 50
101.7351526571
 51
102.2869627824
  0
ARC
  5
468
100
AcDbEntity
  8
0
100
AcDbCircle
 62
7
  6
CONTINUOUS
 10
18.0682289426
 20
15.6519904161
 40
6.0403709299
100
AcDbArc
 50
101.7351526571
 51
102.2869627824
  0
ARC
  5
469
100
AcDbEntity
  8
0
100
AcDbCircle
 62
7
  6
CONTINUOUS
 10
15.533858918
 20
15.7912650625
 40
5.8965954325
100
AcDbArc
 50
77.771829247
 51
82.8478240416
  0
ARC
  5
46A
100
AcDbEntity
  8
0
100
AcDbCircle
 62
7
  6
CONTINUOUS
 10
16.9334886311
 20
23.2681635205
 40
5.3901631872
100
AcDbArc
 50
281.6996225
 51
282.7605554967
  0
ARC
  5
46B
100
AcDbEntity
  8
0
100
AcDbCircle
 62
7
  6
CONTINUOUS
 10
16.9657508755
 20
23.1245571687
 40
5.2429776907
100
AcDbArc
 50
282.7633305445
 51
283.4508185071
  0
ARC
  5
46C
100
AcDbEntity
  8
0
100
AcDbCircle
 62
253
  6
CONTINUOUS
 10
16.6633497573
 20
24.2107146506
 40
5.1619846616
100
AcDbArc
 50
257.3135216081
 51
260.3814600673
  0
ARC
  5
46D
100
AcDbEntity
  8
0
100
AcDbCircle
 62
7
  6
CONTINUOUS
 10
16.9857541054
 20
23.0406249164
 40
5.1566947413
100
AcDbArc
 50
283.4515850811
 51
283.8510687139
  0
ARC
  5
46E
100
AcDbEntity
  8
0
100
AcDbCircle
 62
253
  6
CONTINUOUS
 10
16.6099844192
 20
23.969719642
 40
4.9151534039
100
AcDbArc
 50
256.5889430313
 51
257.3034516696
  0
ARC
  5
46F
100
AcDbEntity
  8
0
100
AcDbCircle
 62
7
  6
CONTINUOUS
 10
4.9700355021
 20
25.0969958118
 40
4.7764385492
100
AcDbArc
 50
135.6625905485
 51
136.1913184751
  0
ARC
  5
470
100
AcDbEntity
  8
0
100
AcDbCircle
 62
7
  6
CONTINUOUS
 10
19.4657245165
 20
17.8491513046
 40
4.7764385492
100
AcDbArc
 50
135.6625905485
 51
136.1913184751
  0
ARC
  5
471
100
AcDbEntity
  8
0
100
AcDbCircle
 62
253
  6
CONTINUOUS
 10
16.5525377678
 20
23.7353400942
 40
4.6738414417
100
AcDbArc
 50
254.2532481205
 51
256.6075663787
  0
ARC
  5
472
100
AcDbEntity
  8
0
100
AcDbCircle
 62
7
  6
CONTINUOUS
 10
3.9404155898
 20
24.722408716
 40
4.3919541265
100
AcDbArc
 50
107.3701235364
 51
111.3144525631
  0
ARC
  5
473
100
AcDbEntity
  8
0
100
AcDbCircle
 62
253
  6
CONTINUOUS
 10
16.4719529502
 20
23.4511543818
 40
4.3784514815
100
AcDbArc
 50
252.5248282408
 51
254.25896046
  0
ARC
  5
474
100
AcDbEntity
  8
0
100
AcDbCircle
 62
253
  6
CONTINUOUS
 10
17.1139017704
 20
23.3807468942
 40
4.3051887001
100
AcDbArc
 50
285.7382773706
 51
289.1918014063
  0
ARC
  5
475
100
AcDbEntity
  8
0
100
AcDbCircle
 62
7
  6
CONTINUOUS
 10
2.7806891016
 20
25.2379318567
 40
4.0890884
100
AcDbArc
 50
112.6850114064
 51
120.4450909477
  0
ARC
  5
476
100
AcDbEntity
  8
0
100
AcDbCircle
 62
7
  6
CONTINUOUS
 10
17.276378116
 20
17.9900873496
 40
4.0890884
100
AcDbArc
 50
112.6850114064
 51
120.4450909477
  0
ARC
  5
477
100
AcDbEntity
  8
0
100
AcDbCircle
 62
253
  6
CONTINUOUS
 10
16.3755212571
 20
23.1492862111
 40
4.061557887
100
AcDbArc
 50
250.3362111348
 51
252.5436235263
  0
ARC
  5
478
100
AcDbEntity
  8
0
100
AcDbCircle
 62
7
  6
CONTINUOUS
 10
3.6826477719
 20
26.3880200376
 40
2.6922290832
100
AcDbArc
 50
81.9194076421
 51
82.8691808308
  0
ARC
  5
479
100
AcDbEntity
  8
0
100
AcDbCircle
 62
7
  6
CONTINUOUS
 10
18.1783367862
 20
19.1401755304
 40
2.6922290832
100
AcDbArc
 50
81.9194076421
 51
82.8691808308
  0
ARC
  5
47A
100
AcDbEntity
  8
0
100
AcDbCircle
 62
253
  6
CONTINUOUS
 10
3.5448523624
 20
26.9504231735
 40
2.1348193017
100
AcDbArc
 50
54.0927749128
 51
55.0374838435
  0
ARC
  5
47B
100
AcDbEntity
  8
0
100
AcDbCircle
 62
253
  6
CONTINUOUS
 10
18.0405413767
 20
19.7025786663
 40
2.1348193017
100
AcDbArc
 50
54.0927749127
 51
55.0374838435
  0
ARC
  5
47C
100
AcDbEntity
  8
RACCORDO
100
AcDbCircle
 62
7
  6
CONTINUOUS
 10
20.0054601302
 20
17.6710459388
 40
2.1264884504
100
AcDbArc
 50
316.4346262771
 51
319.9237349075
  0
ARC
  5
47D
100
AcDbEntity
  8
0
100
AcDbCircle
 62
7
  6
CONTINUOUS
 10
14.3510061764
 20
19.4909985054
 40
0.8182242562
100
AcDbArc
 50
174.2219726862
 51
177.2082821599
  0
ARC
  5
47E
100
AcDbEntity
  8
RACCORDO
100
AcDbCircle
 62
7
  6
CONTINUOUS
 10
9.9720319152
 20
13.2636166369
 40
0.2513828728
100
AcDbArc
 50
227.8901001718
 51
243.391809364
  0
ARC
  5
47F
100
AcDbEntity
  8
RACCORDO
100
AcDbCircle
 62
7
  6
CONTINUOUS
 10
11.6445770981
 20
12.4269697321
 40
0.2510479896
100
AcDbArc
 50
243.4639078059
 51
258.1842216626
  0
ARC
  5
480
100
AcDbEntity
  8
RACCORDO
100
AcDbCircle
 62
7
  6
CONTINUOUS
 10
9.971340216
 20
13.2625149913
 40
0.2501018855
100
AcDbArc
 50
185.5672705258
 51
227.838424453
  0
ARC
  5
481
100
AcDbEntity
  8
RACCORDO
100
AcDbCircle
 62
7
  6
CONTINUOUS
 10
9.9712384965
 20
13.5557402028
 40
0.2499944952
100
AcDbArc
 50
117.0984601725
 51
180.0169140757
  0
ARC
  5
482
100
AcDbEntity
  8
RACCORDO
100
AcDbCircle
 62
7
  6
CONTINUOUS
 10
9.9704526654
 20
13.2624094486
 40
0.2492082831
100
AcDbArc
 50
179.9864287195
 51
185.5629160692
  0
ARC
  5
483
100
AcDbEntity
  8
RACCORDO
100
AcDbCircle
 62
7
  6
CONTINUOUS
 10
6.9154772386
 20
16.0816104289
 40
0.1999962301
100
AcDbArc
 50
118.4937275252
 51
180.0187141671
  0
ARC
  5
484
100
AcDbEntity
  8
RACCORDO
100
AcDbCircle
 62
7
  6
CONTINUOUS
 10
23.8383212833
 20
14.8773360628
 40
0.1266913751
100
AcDbArc
 50
0.0370857222
 51
10.1496132621
  0
ARC
  5
485
100
AcDbEntity
  8
RACCORDO
100
AcDbCircle
 62
253
  6
CONTINUOUS
 10
9.9015660875
 20
13.1231516754
 40
0.0942275762
100
AcDbArc
 50
241.3057611321
 51
243.4467687394
  0
ARC
  5
486
100
AcDbEntity
  8
0
100
AcDbCircle
 62
7
  6
CONTINUOUS
 10
4.0511610328
 20
28.9779670744
 40
0.0761375299
100
AcDbArc
 50
61.7686878376
 51
70.3047459379
  0
ARC
  5
487
100
AcDbEntity
  8
0
100
AcDbCircle
 62
7
  6
CONTINUOUS
 10
18.5468500471
 20
21.7301225672
 40
0.0761375299
100
AcDbArc
 50
61.7686878376
 51
70.3047459379
  0
ARC
  5
488
100
AcDbEntity
  8
0
100
AcDbCircle
 62
7
  6
CONTINUOUS
 10
12.1492604638
 20
47.8074441772
 40
68.4633320025
100
AcDbArc
 50
248.4503468417
 51
250.6607992104
  0
ARC
  5
489
100
AcDbEntity
  8
RACCORDO
100
AcDbCircle
 62
253
  6
CONTINUOUS
 10
523.0739037309
 20
4.6525248114
 40
546.1438786849
100
AcDbArc
 50
179.1315533184
 51
179.8727386067
  0
ARC
  5
48A
100
AcDbEntity
  8
RACCORDO
100
AcDbCircle
 62
253
  6
CONTINUOUS
 10
530.8369290705
 20
-10.6495934765
 40
523.2036557302
100
AcDbArc
 50
179.0990016431
 51
180.9009983569
  0
ARC
  5
48B
100
AcDbEntity
  8
RACCORDO
100
AcDbCircle
 62
253
  6
CONTINUOUS
 10
531.0056235174
 20
-10.6526836423
 40
522.6714678448
100
AcDbArc
 50
179.0989861545
 51
180.9010138455
  0
SPLINE
  5
48C
100
AcDbEntity
  8
0
100
AcDbSpline
 62
7
  6
CONTINUOUS
 70
0
 71
3
 72
13
 73
9
 74
7
 42
0.0000001
 43
0.0000001
 44
0.0000000001
 12
-1.2513185088
 22
1.1732386706
 32
0.0
 13
-1.2557583849
 23
-0.6279638275
 33
0.0
 40
0.0
 40
0.0
 40
0.0
 40
0.0
 40
0.0874721457
 40
0.275226821
 40
0.4629814963
 40
0.6507361716
 40
0.8384908468
 40
1.0
 40
1.0
 40
1.0
 40
1.0
 10
24.432402581
 20
9.9219101987
 30
0.0
 10
24.3959174093
 20
9.9561187666
 30
0.0
 10
24.2750695832
 20
10.0536853447
 30
0.0
 10
24.0499080084
 20
10.1566413424
 30
0.0
 10
23.7573980469
 20
10.1951079955
 30
0.0
 10
23.4755780579
 20
10.161900603
 30
0.0
 10
23.2510207504
 20
10.0952834989
 30
0.0
 10
23.1053643758
 20
10.0324744773
 30
0.0
 10
23.0377588847
 20
9.9986671753
 30
0.0
 11
24.432402581
 21
9.9219101987
 31
0.0
 11
24.3177886612
 21
10.0144627273
 31
0.0
 11
24.04681167
 21
10.1421763795
 31
0.0
 11
23.759179709
 21
10.1831623212
 31
0.0
 11
23.4832927194
 21
10.1557896919
 31
0.0
 11
23.2401588166
 21
10.0863974995
 31
0.0
 11
23.0377588847
 21
9.9986671753
 31
0.0
  0
SPLINE
  5
48D
100
AcDbEntity
  8
RACCORDO
100
AcDbSpline
 62
7
  6
CONTINUOUS
 70
0
 71
3
 72
11
 73
7
 74
5
 42
0.0000001
 43
0.0000001
 44
0.0000000001
 12
0.016111979
 22
-0.1017933502
 32
0.0
 13
-0.0921801801
 23
-0.0460900901
 33
0.0
 40
0.0
 40
0.0
 40
0.0
 40
0.0
 40
0.2078166067
 40
0.4324582549
 40
0.6939940559
 40
1.0
 40
1.0
 40
1.0
 40
1.0
 10
29.2845924432
 20
9.6364568228
 30
0.0
 10
29.2857085554
 20
9.6294053732
 30
0.0
 10
29.2848070906
 20
9.6140302369
 30
0.0
 10
29.2734907616
 20
9.5924333208
 30
0.0
 10
29.2537253679
 20
9.5732696436
 30
0.0
 10
29.2369104179
 20
9.563125253
 30
0.0
 10
29.2275078569
 20
9.5584239725
 30
0.0
 11
29.2845924432
 21
9.6364568228
 31
0.0
 11
29.2834219151
 21
9.6150711339
 31
0.0
 11
29.2731950922
 21
9.5943006457
 31
0.0
 11
29.2542712231
 21
9.5751067168
 31
0.0
 11
29.2275078569
 21
9.5584239725
 31
0.0
  0
SPLINE
  5
48E
100
AcDbEntity
  8
RACCORDO
100
AcDbSpline
 62
7
  6
CONTINUOUS
 70
0
 71
3
 72
14
 73
10
 74
8
 42
0.0000001
 43
0.0000001
 44
0.0000000001
 12
2.0868733728
 22
-0.1263795114
 32
0.0
 13
1.2016174283
 23
-1.7108850958
 33
0.0
 40
0.0
 40
0.0
 40
0.0
 40
0.0
 40
0.1072432817
 40
0.21910681
 40
0.3362812852
 40
0.4590773549
 40
0.5874254219
 40
0.7209119527
 40
1.0
 40
1.0
 40
1.0
 40
1.0
 10
26.9582673513
 20
12.3405297818
 30
0.0
 10
27.032868401
 20
12.3360119973
 30
0.0
 10
27.184705916
 20
12.3137057434
 30
0.0
 10
27.4095541659
 20
12.2451115351
 30
0.0
 10
27.6331316232
 20
12.1428693717
 30
0.0
 10
27.8528224213
 20
12.0091224324
 30
0.0
 10
28.0661976187
 20
11.8461040291
 30
0.0
 10
28.342782978
 20
11.5893718323
 30
0.0
 10
28.5267121783
 20
11.3660578229
 30
0.0
 10
28.6384978655
 20
11.206895296
 30
0.0
 11
26.9582673513
 21
12.3405297818
 31
0.0
 11
27.1802258716
 21
12.3088129384
 31
0.0
 11
27.4041909343
 21
12.2414624415
 31
0.0
 11
27.627328315
 21
12.1403531672
 31
0.0
 11
27.8470061674
 21
12.0074938905
 31
0.0
 11
28.0606145296
 21
11.8450865581
 31
0.0
 11
28.265504357
 21
11.6555985286
 31
0.0
 11
28.6384978655
 21
11.206895296
 31
0.0
  0
SPLINE
  5
48F
100
AcDbEntity
  8
RACCORDO
100
AcDbSpline
 62
7
  6
CONTINUOUS
 70
0
 71
3
 72
11
 73
7
 74
5
 42
0.0000001
 43
0.0000001
 44
0.0000000001
 12
0.8516498616
 22
-1.3159721414
 32
0.0
 13
0.24467405
 23
-1.5482973787
 33
0.0
 40
0.0
 40
0.0
 40
0.0
 40
0.0
 40
0.2532135597
 40
0.5067840227
 40
0.756886685
 40
1.0
 40
1.0
 40
1.0
 40
1.0
 10
28.7191379674
 20
11.0873048571
 30
0.0
 10
28.7910210651
 20
10.9762308603
 30
0.0
 10
28.9235339427
 20
10.7463618107
 30
0.0
 10
29.0860813298
 20
10.3851311663
 30
0.0
 10
29.2095849232
 20
10.0142972555
 30
0.0
 10
29.2647661363
 20
9.7619274899
 30
0.0
 10
29.2845939761
 20
9.6364569205
 30
0.0
 11
28.7191379674
 21
11.0873048571
 31
0.0
 11
28.9175297021
 21
10.7435284296
 31
0.0
 11
29.0805225862
 21
10.3810104946
 31
0.0
 11
29.2039558136
 21
10.0089103404
 31
0.0
 11
29.2845939761
 21
9.6364569205
 31
0.0
  0
SPLINE
  5
490
100
AcDbEntity
  8
RACCORDO
100
AcDbSpline
 62
7
  6
CONTINUOUS
 70
0
 71
3
 72
11
 73
7
 74
5
 42
0.0000001
 43
0.0000001
 44
0.0000000001
 12
0.0198685624
 22
0.1069377189
 32
0.0
 13
-0.0972848826
 23
0.0486424413
 33
0.0
 40
0.0
 40
0.0
 40
0.0
 40
0.0
 40
0.207521759
 40
0.4320157593
 40
0.6939026626
 40
1.0
 40
1.0
 40
1.0
 40
1.0
 10
29.284360049
 20
8.7531692535
 30
0.0
 10
29.2857344354
 20
8.7605665547
 30
0.0
 10
29.2850087438
 20
8.7768493935
 30
0.0
 10
29.2729719778
 20
8.799619106
 30
0.0
 10
29.2520248035
 20
8.8197552278
 30
0.0
 10
29.2342554067
 20
8.83044615
 30
0.0
 10
29.2243291922
 20
8.8354092573
 30
0.0
 11
29.284360049
 21
8.7531692535
 31
0.0
 11
29.2834755265
 21
8.7757236022
 31
0.0
 11
29.272679143
 21
8.7976248154
 31
0.0
 11
29.2526074474
 21
8.8178365569
 31
0.0
 11
29.2243291922
 21
8.8354092573
 31
0.0
  0
SPLINE
  5
491
100
AcDbEntity
  8
RACCORDO
100
AcDbSpline
 62
7
  6
CONTINUOUS
 70
0
 71
3
 72
9
 73
5
 74
3
 42
0.0000001
 43
0.0000001
 44
0.0000000001
 12
-0.1178124193
 22
-0.6347409751
 32
0.0
 13
-0.3546919016
 23
-0.5394159124
 33
0.0
 40
0.0
 40
0.0
 40
0.0
 40
0.0
 40
0.5153283366
 40
1.0
 40
1.0
 40
1.0
 40
1.0
 10
29.2843628382
 20
8.7531691438
 30
0.0
 10
29.2641254789
 20
8.6441358068
 30
0.0
 10
29.2076415624
 20
8.4351768058
 30
0.0
 10
29.1107020398
 20
8.2408730373
 30
0.0
 10
29.0533990018
 20
8.1537265015
 30
0.0
 11
29.2843628382
 21
8.7531691438
 31
0.0
 11
29.1951664294
 21
8.4326627098
 31
0.0
 11
29.0533990018
 21
8.1537265015
 31
0.0
  0
SPLINE
  5
492
100
AcDbEntity
  8
RACCORDO
100
AcDbSpline
 62
7
  6
CONTINUOUS
 70
0
 71
3
 72
11
 73
7
 74
5
 42
0.0000001
 43
0.0000001
 44
0.0000000001
 12
-1.1114483742
 22
0.5557241873
 32
0.0
 13
-1.2175738016
 23
-0.2483161263
 33
0.0
 40
0.0
 40
0.0
 40
0.0
 40
0.0
 40
0.2682797624
 40
0.5228633269
 40
0.7657554117
 40
1.0
 40
1.0
 40
1.0
 40
1.0
 10
26.8070823094
 20
12.4227908643
 30
0.0
 10
26.7076892742
 20
12.472487382
 30
0.0
 10
26.507598932
 20
12.5573881784
 30
0.0
 10
26.1994593878
 20
12.6377633033
 30
0.0
 10
25.8960817191
 20
12.6648366909
 30
0.0
 10
25.6979071401
 20
12.6452659516
 30
0.0
 10
25.6028371155
 20
12.6258770487
 30
0.0
 11
26.8070823094
 21
12.4227908643
 31
0.0
 11
26.4996434576
 21
12.5517087693
 31
0.0
 11
26.1931640625
 21
12.6301361159
 31
0.0
 11
25.8924058191
 21
12.6555101074
 31
0.0
 11
25.6028371155
 21
12.6258770487
 31
0.0
  0
SPLINE
  5
493
100
AcDbEntity
  8
RACCORDO
100
AcDbSpline
 62
7
  6
CONTINUOUS
 70
0
 71
3
 72
15
 73
11
 74
9
 42
0.0000001
 43
0.0000001
 44
0.0000000001
 12
2.226244273
 22
2.7038394897
 32
0.0
 13
-1.4825378388
 23
3.1731676769
 33
0.0
 40
0.0
 40
0.0
 40
0.0
 40
0.0
 40
0.1026232331
 40
0.2111578996
 40
0.3267816278
 40
0.4498617109
 40
0.5799957459
 40
0.7161396822
 40
0.8567619491
 40
1.0
 40
1.0
 40
1.0
 40
1.0
 10
28.6270371332
 20
7.0627021705
 30
0.0
 10
28.7031919282
 20
7.1551944206
 30
0.0
 10
28.8379044832
 20
7.3643484482
 30
0.0
 10
28.9774770568
 20
7.7215582162
 30
0.0
 10
29.0593167951
 20
8.1203463041
 30
0.0
 10
29.0836374491
 20
8.551581188
 30
0.0
 10
29.0513161793
 20
9.0060879666
 30
0.0
 10
28.9638198252
 20
9.4739673195
 30
0.0
 10
28.8235864343
 20
9.9446701977
 30
0.0
 10
28.6977322654
 20
10.2519176818
 30
0.0
 10
28.6269469885
 20
10.4034237995
 30
0.0
 11
28.6270371332
 21
7.0627021705
 31
0.0
 11
28.8236165894
 21
7.3636105278
 31
0.0
 11
28.9643896178
 21
7.7167173079
 31
0.0
 11
29.0480524739
 21
8.1129432339
 31
0.0
 11
29.0742612685
 21
8.5432233126
 31
0.0
 11
29.0434188179
 21
8.9979619842
 31
0.0
 11
28.9568230832
 21
9.4668654785
 31
0.0
 11
28.8168330155
 21
9.9390691624
 31
0.0
 11
28.6269469885
 21
10.4034237995
 31
0.0
  0
SPLINE
  5
494
100
AcDbEntity
  8
RACCORDO
100
AcDbSpline
 62
7
  6
CONTINUOUS
 70
0
 71
3
 72
11
 73
7
 74
5
 42
0.0000001
 43
0.0000001
 44
0.0000000001
 12
-0.9738962661
 22
1.2058178482
 32
0.0
 13
-1.3863536691
 23
0.6931768348
 33
0.0
 40
0.0
 40
0.0
 40
0.0
 40
0.0
 40
0.2657007242
 40
0.5219716467
 40
0.7670919463
 40
1.0
 40
1.0
 40
1.0
 40
1.0
 10
27.9865059248
 20
11.4338086944
 30
0.0
 10
27.9002509437
 20
11.5406042529
 30
0.0
 10
27.7214395848
 20
11.7430795222
 30
0.0
 10
27.4314772403
 20
12.0142056573
 30
0.0
 10
27.1283127955
 20
12.2434792598
 30
0.0
 10
26.9147132877
 20
12.3689753752
 30
0.0
 10
26.8070823094
 20
12.4227908643
 30
0.0
 11
27.9865059248
 21
11.4338086944
 31
0.0
 11
27.7134169029
 21
11.742076928
 31
0.0
 11
27.4226961184
 21
12.012748627
 31
0.0
 11
27.1190008199
 21
12.2410447445
 31
0.0
 11
26.8070823094
 21
12.4227908643
 31
0.0
  0
SPLINE
  5
495
100
AcDbEntity
  8
RACCORDO
100
AcDbSpline
 62
253
  6
CONTINUOUS
 70
0
 71
3
 72
11
 73
7
 74
5
 42
0.0000001
 43
0.0000001
 44
0.0000000001
 12
-0.2502192222
 22
1.626424944
 32
0.0
 13
-0.9007307404
 23
1.3771535466
 33
0.0
 40
0.0
 40
0.0
 40
0.0
 40
0.0
 40
0.2421100421
 40
0.4923057426
 40
0.7464158731
 40
1.0
 40
1.0
 40
1.0
 40
1.0
 10
29.2275078569
 20
9.5584239725
 30
0.0
 10
29.2073143281
 20
9.6896819097
 30
0.0
 10
29.1501019642
 20
9.9542942436
 30
0.0
 10
29.0205498203
 20
10.34343965
 30
0.0
 10
28.8489927299
 20
10.7228762351
 30
0.0
 10
28.7087310358
 20
10.9641293334
 30
0.0
 10
28.6325940297
 20
11.0805374266
 30
0.0
 11
29.2275078569
 21
9.5584239725
 31
0.0
 11
29.1442128373
 21
9.9480260284
 31
0.0
 11
29.0146758496
 21
10.3388290132
 31
0.0
 11
28.8425257116
 21
10.7199020432
 31
0.0
 11
28.6325940297
 21
11.0805374266
 31
0.0
  0
SPLINE
  5
496
100
AcDbEntity
  8
RACCORDO
100
AcDbSpline
 62
253
  6
CONTINUOUS
 70
0
 71
3
 72
13
 73
9
 74
7
 42
0.0000001
 43
0.0000001
 44
0.0000000001
 12
-1.137072882
 22
1.6210389167
 32
0.0
 13
-1.9609654734
 23
0.2744381904
 33
0.0
 40
0.0
 40
0.0
 40
0.0
 40
0.0
 40
0.2825154862
 40
0.4174093858
 40
0.5467954858
 40
0.6700240717
 40
0.786703636
 40
1.0
 40
1.0
 40
1.0
 40
1.0
 10
28.5612819398
 20
11.1858094567
 30
0.0
 10
28.4542017071
 20
11.3384656559
 30
0.0
 10
28.2793571476
 20
11.553276616
 30
0.0
 10
28.0184942162
 20
11.8031612055
 30
0.0
 10
27.818674052
 20
11.9633765628
 30
0.0
 10
27.6142711131
 20
12.0970817091
 30
0.0
 10
27.3477520405
 20
12.2333585087
 30
0.0
 10
27.1362480721
 20
12.2983871874
 30
0.0
 10
26.9968258036
 20
12.3178994101
 30
0.0
 11
28.5612819398
 21
11.1858094567
 31
0.0
 11
28.2063934975
 21
11.6182270975
 31
0.0
 11
28.0132104068
 21
11.8026798371
 31
0.0
 11
27.8129910798
 21
11.9625165102
 31
0.0
 11
27.608457427
 21
12.0955689744
 31
0.0
 11
27.402387967
 21
12.200030866
 31
0.0
 11
26.9968258036
 21
12.3178994101
 31
0.0
  0
SPLINE
  5
497
100
AcDbEntity
  8
RACCORDO
100
AcDbSpline
 62
7
  6
CONTINUOUS
 70
0
 71
3
 72
11
 73
7
 74
5
 42
0.0000001
 43
0.0000001
 44
0.0000000001
 12
0.0768772183
 22
0.0384386092
 32
0.0
 13
0.0157006903
 23
0.0845051578
 33
0.0
 40
0.0
 40
0.0
 40
0.0
 40
0.0
 40
0.2973937808
 40
0.5606885022
 40
0.7920084545
 40
1.0
 40
1.0
 40
1.0
 40
1.0
 10
29.2275078569
 20
8.6923985687
 30
0.0
 10
29.2351287924
 20
8.6962090365
 30
0.0
 10
29.2490611584
 20
8.7043485663
 30
0.0
 10
29.2665142789
 20
8.7190703604
 30
0.0
 10
29.2787822482
 20
8.7352871903
 30
0.0
 10
29.2832715121
 20
8.7473104674
 30
0.0
 10
29.284360049
 20
8.7531692535
 30
0.0
 11
29.2275078569
 21
8.6923985687
 31
0.0
 11
29.2494648874
 21
8.7054857273
 31
0.0
 11
29.2665775478
 21
8.7202944397
 31
0.0
 11
29.2783075137
 21
8.7363478563
 31
0.0
 11
29.284360049
 21
8.7531692535
 31
0.0
  0
SPLINE
  5
498
100
AcDbEntity
  8
RACCORDO
100
AcDbSpline
 62
253
  6
CONTINUOUS
 70
0
 71
3
 72
11
 73
7
 74
5
 42
0.0000001
 43
0.0000001
 44
0.0000000001
 12
1.2863648608
 22
-0.6431824304
 32
0.0
 13
0.9325283013
 23
-1.094901439
 33
0.0
 40
0.0
 40
0.0
 40
0.0
 40
0.0
 40
0.2314398005
 40
0.4761819756
 40
0.7329463619
 40
1.0
 40
1.0
 40
1.0
 40
1.0
 10
26.71763959
 20
12.417110507
 30
0.0
 10
26.8168782656
 20
12.3674911692
 30
0.0
 10
27.0147336215
 20
12.252401981
 30
0.0
 10
27.2979183866
 20
12.0434028996
 30
0.0
 10
27.5718915172
 20
11.7962508686
 30
0.0
 10
27.7427368219
 20
11.6117052074
 30
0.0
 10
27.8257485137
 20
11.5142394031
 30
0.0
 11
26.71763959
 21
12.417110507
 31
0.0
 11
27.0059287004
 21
12.2507286284
 31
0.0
 11
27.289703544
 21
12.0424800612
 31
0.0
 11
27.5644073211
 21
11.7956918802
 31
0.0
 11
27.8257485137
 21
11.5142394031
 31
0.0
  0
SPLINE
  5
499
100
AcDbEntity
  8
RACCORDO
100
AcDbSpline
 62
253
  6
CONTINUOUS
 70
0
 71
3
 72
15
 73
11
 74
9
 42
0.0000001
 43
0.0000001
 44
0.0000000001
 12
1.2867135125
 22
-2.9973982478
 32
0.0
 13
-1.960753183
 23
-2.6068131645
 33
0.0
 40
0.0
 40
0.0
 40
0.0
 40
0.0
 40
0.1455100505
 40
0.2878165134
 40
0.425147322
 40
0.5559877394
 40
0.6791942627
 40
0.7941253382
 40
0.9007899678
 40
1.0
 40
1.0
 40
1.0
 40
1.0
 10
28.6273308476
 20
10.2134005476
 30
0.0
 10
28.6897407636
 20
10.0680166908
 30
0.0
 10
28.8003228369
 20
9.7747097424
 30
0.0
 10
28.9226428902
 20
9.3282264072
 30
0.0
 10
28.9977538638
 20
8.8874787812
 30
0.0
 10
29.0239914978
 20
8.4618381416
 30
0.0
 10
29.0007083295
 20
8.0602506489
 30
0.0
 10
28.9281098149
 20
7.6910494868
 30
0.0
 10
28.8073929422
 20
7.3621292596
 30
0.0
 10
28.6921719137
 20
7.168170008
 30
0.0
 10
28.6273297849
 20
7.0819626687
 30
0.0
 11
28.6273308476
 21
10.2134005476
 31
0.0
 11
28.7944548171
 21
9.769156527
 31
0.0
 11
28.9164901307
 21
9.3212949813
 31
0.0
 11
28.9907873976
 21
8.8795391739
 31
0.0
 11
29.0157335868
 21
8.4534797753
 31
0.0
 11
28.9907871169
 21
8.0523667316
 31
0.0
 11
28.9164895754
 21
7.6849084038
 31
0.0
 11
28.7944539989
 21
7.3590824268
 31
0.0
 11
28.6273297849
 21
7.0819626687
 31
0.0
  0
SPLINE
  5
49A
100
AcDbEntity
  8
RACCORDO
100
AcDbSpline
 62
253
  6
CONTINUOUS
 70
0
 71
3
 72
9
 73
5
 74
3
 42
0.0000001
 43
0.0000001
 44
0.0000000001
 12
0.2532844497
 22
0.4594213142
 32
0.0
 13
0.0938459941
 23
0.5161529674
 33
0.0
 40
0.0
 40
0.0
 40
0.0
 40
0.0
 40
0.2370105479
 40
1.0
 40
1.0
 40
1.0
 40
1.0
 10
29.0578520235
 20
8.1973796255
 30
0.0
 10
29.0778623856
 20
8.2336755247
 30
0.0
 10
29.155039203
 20
8.3908037946
 30
0.0
 10
29.2036400223
 20
8.5611254788
 30
0.0
 10
29.2275078569
 20
8.6923985687
 30
0.0
 11
29.0578520235
 21
8.1973796255
 31
0.0
 11
29.112840597
 21
8.3088987662
 31
0.0
 11
29.2275078569
 21
8.6923985687
 31
0.0
  0
SPLINE
  5
49B
100
AcDbEntity
  8
RACCORDO
100
AcDbSpline
 62
253
  6
CONTINUOUS
 70
0
 71
3
 72
11
 73
7
 74
5
 42
0.0000001
 43
0.0000001
 44
0.0000000001
 12
1.1279168394
 22
0.1963909732
 32
0.0
 13
1.0240178947
 23
-0.5120089474
 33
0.0
 40
0.0
 40
0.0
 40
0.0
 40
0.0
 40
0.2289423501
 40
0.470116998
 40
0.7266073712
 40
1.0
 40
1.0
 40
1.0
 40
1.0
 10
25.6095344945
 20
12.6223489899
 30
0.0
 10
25.6956104718
 20
12.6373363935
 30
0.0
 10
25.8757988174
 20
12.6504455332
 30
0.0
 10
26.1527615123
 20
12.6208846037
 30
0.0
 10
26.4377891361
 20
12.5435716877
 30
0.0
 10
26.6243199419
 20
12.4637703311
 30
0.0
 10
26.71763959
 20
12.417110507
 30
0.0
 11
25.6095344945
 21
12.6223489899
 31
0.0
 11
25.8708749426
 21
12.6424595698
 31
0.0
 11
26.1455778166
 21
12.6145436121
 31
0.0
 11
26.4293515735
 21
12.5390173673
 31
0.0
 11
26.71763959
 21
12.417110507
 31
0.0
  0
SPLINE
  5
49C
100
AcDbEntity
  8
0
100
AcDbSpline
 62
7
  6
CONTINUOUS
 70
0
 71
3
 72
9
 73
5
 74
3
 42
0.0000001
 43
0.0000001
 44
0.0000000001
 12
0.4880520957
 22
0.2609610194
 32
0.0
 13
0.5021129405
 23
0.2327618885
 33
0.0
 40
0.0
 40
0.0
 40
0.0
 40
0.0
 40
0.2571774263
 40
1.0
 40
1.0
 40
1.0
 40
1.0
 10
3.3705285203
 20
27.432281367
 30
0.0
 10
3.4123671809
 20
27.4546524614
 30
0.0
 10
3.5756176057
 20
27.5405723443
 30
0.0
 10
3.7411763249
 20
27.6221351454
 30
0.0
 10
3.8655032672
 20
27.6797687404
 30
0.0
 11
3.3705285203
 21
27.432281367
 31
0.0
 11
3.4964885002
 21
27.4985575917
 31
0.0
 11
3.8655032672
 21
27.6797687404
 31
0.0
  0
LINE
  5
49D
100
AcDbEntity
  8
0
100
AcDbLine
 62
7
  6
CONTINUOUS
 10
3.0511075092
 20
28.4603978998
 11
3.020448638
 21
28.4351647692
  0
SPLINE
  5
49E
100
AcDbEntity
  8
0
100
AcDbSpline
 62
7
  6
CONTINUOUS
 70
0
 71
3
 72
9
 73
5
 74
3
 42
0.0000001
 43
0.0000001
 44
0.0000000001
 12
-0.6437418152
 22
0.0914051423
 32
0.0
 13
-0.6479928939
 23
-0.0535129343
 33
0.0
 40
0.0
 40
0.0
 40
0.0
 40
0.0
 40
0.24475149
 40
1.0
 40
1.0
 40
1.0
 40
1.0
 10
4.7681900922
 20
28.6999654707
 30
0.0
 10
4.7156711693
 20
28.7074226523
 30
0.0
 10
4.5002105194
 20
28.7315271274
 30
0.0
 10
4.2821157753
 20
28.730300577
 30
0.0
 10
4.1189838861
 20
28.7168287223
 30
0.0
 11
4.7681900922
 21
28.6999654707
 31
0.0
 11
4.6100447482
 21
28.7177044529
 31
0.0
 11
4.1189838861
 21
28.7168287223
 31
0.0
  0
SPLINE
  5
49F
100
AcDbEntity
  8
0
100
AcDbSpline
 62
7
  6
CONTINUOUS
 70
0
 71
3
 72
9
 73
5
 74
3
 42
0.0000001
 43
0.0000001
 44
0.0000000001
 12
-1.0973690193
 22
-0.0906235806
 32
0.0
 13
-1.0258981305
 23
-0.399955527
 33
0.0
 40
0.0
 40
0.0
 40
0.0
 40
0.0
 40
0.4850582188
 40
1.0
 40
1.0
 40
1.0
 40
1.0
 10
4.1189838861
 20
28.7168287223
 30
0.0
 10
3.9415545988
 20
28.7021761515
 30
0.0
 10
3.5778935726
 20
28.6414002157
 30
0.0
 10
3.2272001128
 20
28.5290491703
 30
0.0
 10
3.0511075092
 20
28.4603978998
 30
0.0
 11
4.1189838861
 21
28.7168287223
 31
0.0
 11
3.5918120877
 21
28.6310817493
 31
0.0
 11
3.0511075092
 21
28.4603978998
 31
0.0
  0
SPLINE
  5
4A0
100
AcDbEntity
  8
0
100
AcDbSpline
 62
7
  6
CONTINUOUS
 70
0
 71
3
 72
9
 73
5
 74
3
 42
0.0000001
 43
0.0000001
 44
0.0000000001
 12
-1.9392383268
 22
-1.1832089864
 32
0.0
 13
-1.496568806
 23
-1.7090671732
 33
0.0
 40
0.0
 40
0.0
 40
0.0
 40
0.0
 40
0.482167634
 40
1.0
 40
1.0
 40
1.0
 40
1.0
 10
2.230199872
 20
28.0499440812
 30
0.0
 10
1.9185205534
 20
27.859775722
 30
0.0
 10
1.3075706631
 20
27.4058837713
 30
0.0
 10
0.7714412109
 20
26.8674325018
 30
0.0
 10
0.5131172891
 20
26.5724290691
 30
0.0
 11
2.230199872
 21
28.0499440812
 31
0.0
 11
1.3467547037
 21
27.4024128798
 31
0.0
 11
0.5131172891
 21
26.5724290691
 31
0.0
  0
SPLINE
  5
4A1
100
AcDbEntity
  8
0
100
AcDbSpline
 62
7
  6
CONTINUOUS
 70
0
 71
3
 72
9
 73
5
 74
3
 42
0.0000001
 43
0.0000001
 44
0.0000000001
 12
0.5913552834
 22
-0.4176621013
 32
0.0
 13
0.5458992241
 23
-0.4755383678
 33
0.0
 40
0.0
 40
0.0
 40
0.0
 40
0.0
 40
0.2452957898
 40
1.0
 40
1.0
 40
1.0
 40
1.0
 10
2.8018745822
 20
27.8800743855
 30
0.0
 10
2.8502269026
 20
27.8459241339
 30
0.0
 10
3.0454649136
 20
27.7040526237
 30
0.0
 10
3.2331977061
 20
27.5519116364
 30
0.0
 10
3.3705285203
 20
27.432281367
 30
0.0
 11
2.8018745822
 21
27.8800743855
 31
0.0
 11
2.9455574376
 21
27.7757052509
 31
0.0
 11
3.3705285203
 21
27.432281367
 31
0.0
  0
SPLINE
  5
4A2
100
AcDbEntity
  8
0
100
AcDbSpline
 62
7
  6
CONTINUOUS
 70
0
 71
3
 72
9
 73
5
 74
3
 42
0.0000001
 43
0.0000001
 44
0.0000000001
 12
0.5769268588
 22
-0.0743600027
 32
0.0
 13
0.558122149
 23
-0.1639319286
 33
0.0
 40
0.0
 40
0.0
 40
0.0
 40
0.0
 40
0.2442344533
 40
1.0
 40
1.0
 40
1.0
 40
1.0
 10
0.7086973329
 20
28.7631969607
 30
0.0
 10
0.7556658049
 20
28.7571432025
 30
0.0
 10
0.9474412631
 20
28.7283027404
 30
0.0
 10
1.1367481073
 20
28.6836340756
 30
0.0
 10
1.277351271
 20
28.6423360411
 30
0.0
 11
0.7086973329
 21
28.7631969607
 31
0.0
 11
0.8491948993
 21
28.7421113738
 31
0.0
 11
1.277351271
 21
28.6423360411
 31
0.0
  0
SPLINE
  5
4A3
100
AcDbEntity
  8
0
100
AcDbSpline
 62
7
  6
CONTINUOUS
 70
0
 71
3
 72
9
 73
5
 74
3
 42
0.0000001
 43
0.0000001
 44
0.0000000001
 12
-0.2659486032
 22
0.2205631897
 32
0.0
 13
-0.2873089502
 23
0.1919123428
 33
0.0
 40
0.0
 40
0.0
 40
0.0
 40
0.0
 40
0.2587982878
 40
1.0
 40
1.0
 40
1.0
 40
1.0
 10
1.5537519592
 20
28.435164832
 30
0.0
 10
1.5308096115
 20
28.4541919573
 30
0.0
 10
1.4413818278
 20
28.5267638816
 30
0.0
 10
1.3483358996
 20
28.5949207887
 30
0.0
 10
1.277351271
 20
28.6423360411
 30
0.0
 11
1.5537519592
 21
28.435164832
 31
0.0
 11
1.484279766
 21
28.4914592342
 31
0.0
 11
1.277351271
 21
28.6423360411
 31
0.0
  0
SPLINE
  5
4A4
100
AcDbEntity
  8
0
100
AcDbSpline
 62
7
  6
CONTINUOUS
 70
0
 71
3
 72
9
 73
5
 74
3
 42
0.0000001
 43
0.0000001
 44
0.0000000001
 12
-0.1274804469
 22
-0.1455814435
 32
0.0
 13
-0.0134783704
 23
-0.1930377025
 33
0.0
 40
0.0
 40
0.0
 40
0.0
 40
0.0
 40
0.507387869
 40
1.0
 40
1.0
 40
1.0
 40
1.0
 10
0.5131172891
 20
26.5724290691
 30
0.0
 10
0.4915566116
 20
26.547806983
 30
0.0
 10
0.4570365251
 20
26.492065602
 30
0.0
 10
0.4398205039
 20
26.4285150343
 30
0.0
 10
0.437607301
 20
26.396817463
 30
0.0
 11
0.5131172891
 21
26.5724290691
 31
0.0
 11
0.4609812663
 21
26.4892315658
 31
0.0
 11
0.437607301
 21
26.396817463
 31
0.0
  0
SPLINE
  5
4A5
100
AcDbEntity
  8
0
100
AcDbSpline
 62
7
  6
CONTINUOUS
 70
0
 71
3
 72
11
 73
7
 74
5
 42
0.0000001
 43
0.0000001
 44
0.0000000001
 12
0.0954403462
 22
-0.0512796546
 32
0.0
 13
0.0081098893
 23
-0.1080402349
 33
0.0
 40
0.0
 40
0.0
 40
0.0
 40
0.0
 40
0.221508124
 40
0.4568752288
 40
0.7150321189
 40
1.0
 40
1.0
 40
1.0
 40
1.0
 10
4.0871765457
 20
29.0450476699
 30
0.0
 10
4.0942234831
 20
29.0412613832
 30
0.0
 10
4.1075670369
 20
29.0310281868
 30
0.0
 10
4.1226669292
 20
29.0096905029
 30
0.0
 10
4.1327477403
 20
28.9831866819
 30
0.0
 10
4.1358229464
 20
28.9636799088
 30
0.0
 10
4.136593299
 20
28.9534172432
 30
0.0
 11
4.0871765457
 21
29.0450476699
 31
0.0
 11
4.1062936272
 21
29.0305392299
 31
0.0
 11
4.1212687375
 21
29.0098987454
 31
0.0
 11
4.1315063866
 21
28.9838699123
 31
0.0
 11
4.136593299
 21
28.9534172432
 31
0.0
  0
SPLINE
  5
4A6
100
AcDbEntity
  8
0
100
AcDbSpline
 62
7
  6
CONTINUOUS
 70
0
 71
3
 72
19
 73
15
 74
13
 42
0.0000001
 43
0.0000001
 44
0.0000000001
 12
-5.2787905855
 22
1.8680881322
 32
0.0
 13
-0.5635357
 23
-5.5711588409
 33
0.0
 40
0.0
 40
0.0
 40
0.0
 40
0.0
 40
0.1353256578
 40
0.2797534573
 40
0.4263167997
 40
0.5676766938
 40
0.6343836672
 40
0.6975444356
 40
0.7567514256
 40
0.8118556328
 40
0.863035017
 40
0.9108612555
 40
0.9561332768
 40
1.0
 40
1.0
 40
1.0
 40
1.0
 10
4.0617509021
 20
29.0550168533
 30
0.0
 10
3.8236322994
 20
29.1392836051
 30
0.0
 10
3.3149015468
 20
29.2683097781
 30
0.0
 10
2.5212752911
 20
29.3516720088
 30
0.0
 10
1.7122891404
 20
29.3291570427
 30
0.0
 10
1.0565908744
 20
29.2212786757
 30
0.0
 10
0.5697918385
 20
29.0804135191
 30
0.0
 10
0.2401387516
 20
28.9529776544
 30
0.0
 10
-0.0560228935
 20
28.8031862317
 30
0.0
 10
-0.3142628261
 20
28.6321981421
 30
0.0
 10
-0.5305880199
 20
28.4409092718
 30
0.0
 10
-0.7001718906
 20
28.2296769375
 30
0.0
 10
-0.8173972743
 20
28.0002485652
 30
0.0
 10
-0.8560755319
 20
27.8362734485
 30
0.0
 10
-0.8643156868
 20
27.7548106209
 30
0.0
 11
4.0617509021
 21
29.0550168533
 31
0.0
 11
3.3286329488
 21
29.2467204168
 31
0.0
 11
2.524566595
 21
29.3335043183
 31
0.0
 11
1.7042067629
 21
29.3100761005
 31
0.0
 11
0.9237622917
 21
29.1779052771
 31
0.0
 11
0.5651845948
 21
29.0732732726
 31
0.0
 11
0.2356814678
 21
28.9447696672
 31
0.0
 11
-0.059547519
 21
28.7939216391
 31
0.0
 11
-0.3159092444
 21
28.6221995931
 31
0.0
 11
-0.5292546445
 21
28.4308522211
 31
0.0
 11
-0.6953237431
 21
28.2207528118
 31
0.0
 11
-0.8088977871
 21
27.9941131246
 31
0.0
 11
-0.8643156868
 21
27.7548106209
 31
0.0
  0
SPLINE
  5
4A7
100
AcDbEntity
  8
0
100
AcDbSpline
 62
7
  6
CONTINUOUS
 70
0
 71
3
 72
9
 73
5
 74
3
 42
0.0000001
 43
0.0000001
 44
0.0000000001
 12
-0.029686505
 22
0.0206390688
 32
0.0
 13
-0.0357969914
 23
0.0050828283
 33
0.0
 40
0.0
 40
0.0
 40
0.0
 40
0.0
 40
0.7456622822
 40
1.0
 40
1.0
 40
1.0
 40
1.0
 10
4.8017166283
 20
28.6869325058
 30
0.0
 10
4.7943379259
 20
28.6920624308
 30
0.0
 10
4.78305734
 20
28.6971999261
 30
0.0
 10
4.7712249339
 20
28.6995345524
 30
0.0
 10
4.7681900922
 20
28.6999654707
 30
0.0
 11
4.8017166283
 21
28.6869325058
 31
0.0
 11
4.7772080922
 21
28.6981656742
 31
0.0
 11
4.7681900922
 21
28.6999654707
 31
0.0
  0
SPLINE
  5
4A8
100
AcDbEntity
  8
0
100
AcDbSpline
 62
7
  6
CONTINUOUS
 70
0
 71
3
 72
11
 73
7
 74
5
 42
0.0000001
 43
0.0000001
 44
0.0000000001
 12
-0.1170061954
 22
1.1567325725
 32
0.0
 13
-0.9544335872
 23
0.6639105525
 33
0.0
 40
0.0
 40
0.0
 40
0.0
 40
0.0
 40
0.2305831964
 40
0.469922972
 40
0.7248063438
 40
1.0
 40
1.0
 40
1.0
 40
1.0
 10
5.4385162868
 20
27.7548106209
 30
0.0
 10
5.429523066
 20
27.8437183189
 30
0.0
 10
5.3848904427
 20
28.0230723412
 30
0.0
 10
5.2480503876
 20
28.2712489518
 30
0.0
 10
5.0503606988
 20
28.4969565485
 30
0.0
 10
4.8892814942
 20
28.6260152985
 30
0.0
 10
4.8017301381
 20
28.6869166226
 30
0.0
 11
5.4385162868
 21
27.7548106209
 31
0.0
 11
5.3751073999
 21
28.0152879214
 31
0.0
 11
5.2430871989
 21
28.260240972
 31
0.0
 11
5.0498256669
 21
28.4848856602
 31
0.0
 11
4.8017301381
 21
28.6869166226
 31
0.0
  0
SPLINE
  5
4A9
100
AcDbEntity
  8
0
100
AcDbSpline
 62
7
  6
CONTINUOUS
 70
0
 71
3
 72
9
 73
5
 74
3
 42
0.0000001
 43
0.0000001
 44
0.0000000001
 12
1.1723450557
 22
0.0142789549
 32
0.0
 13
1.1480684581
 23
0.2377722309
 33
0.0
 40
0.0
 40
0.0
 40
0.0
 40
0.0
 40
0.5072302643
 40
1.0
 40
1.0
 40
1.0
 40
1.0
 10
2.3662215486
 20
25.1146161625
 30
0.0
 10
2.5644378461
 20
25.1170304018
 30
0.0
 10
2.9552125207
 20
25.1395829733
 30
0.0
 10
3.3422436583
 20
25.198774427
 30
0.0
 10
3.5308214552
 20
25.2378300801
 30
0.0
 11
2.3662215486
 21
25.1146161625
 31
0.0
 11
2.9599001824
 21
25.1493356401
 31
0.0
 11
3.5308214552
 21
25.2378300801
 31
0.0
  0
SPLINE
  5
4AA
100
AcDbEntity
  8
0
100
AcDbSpline
 62
7
  6
CONTINUOUS
 70
0
 71
3
 72
9
 73
5
 74
3
 42
0.0000001
 43
0.0000001
 44
0.0000000001
 12
0.9892378315
 22
0.2241049464
 32
0.0
 13
0.9072219196
 23
0.4536109598
 33
0.0
 40
0.0
 40
0.0
 40
0.0
 40
0.0
 40
0.520840539
 40
1.0
 40
1.0
 40
1.0
 40
1.0
 10
3.6283633207
 20
25.2589730029
 30
0.0
 10
3.8001083758
 20
25.2978806499
 30
0.0
 10
4.1264425336
 20
25.3889348721
 30
0.0
 10
4.4402960169
 20
25.51763514
 30
0.0
 10
4.5851973389
 20
25.590085801
 30
0.0
 11
3.6283633207
 21
25.2589730029
 31
0.0
 11
4.1366587998
 21
25.4029425363
 31
0.0
 11
4.5851973389
 21
25.590085801
 31
0.0
  0
SPLINE
  5
4AB
100
AcDbEntity
  8
0
100
AcDbSpline
 62
7
  6
CONTINUOUS
 70
0
 71
3
 72
14
 73
10
 74
8
 42
0.0000001
 43
0.0000001
 44
0.0000000001
 12
0.1659842488
 22
-1.6409147225
 32
0.0
 13
-1.4751683016
 23
-0.7375841508
 33
0.0
 40
0.0
 40
0.0
 40
0.0
 40
0.0
 40
0.1029063546
 40
0.207532371
 40
0.3169817379
 40
0.4337828166
 40
0.5597356371
 40
0.6959255685
 40
1.0
 40
1.0
 40
1.0
 40
1.0
 10
5.5329506144
 20
26.8212175409
 30
0.0
 10
5.5386442257
 20
26.7649306901
 30
0.0
 10
5.5382539224
 20
26.6498436357
 30
0.0
 10
5.5010843585
 20
26.478403767
 30
0.0
 10
5.4282340541
 20
26.3105691975
 30
0.0
 10
5.3210475507
 20
26.1483105826
 30
0.0
 10
5.1810376585
 20
25.9931195131
 30
0.0
 10
4.9441465869
 20
25.7902089152
 30
0.0
 10
4.7347176598
 20
25.6648459615
 30
0.0
 10
4.5851973389
 20
25.590085801
 30
0.0
 11
5.5329506144
 21
26.8212175409
 31
0.0
 11
5.5323696707
 21
26.6514962885
 31
0.0
 11
5.4963875694
 21
26.4827310309
 31
0.0
 11
5.4253968571
 21
26.3167627682
 31
0.0
 11
5.3201717717
 21
26.1554018937
 31
0.0
 11
5.1818606637
 21
26.0004088795
 31
0.0
 11
5.0119706922
 21
25.8534736832
 31
0.0
 11
4.5851973389
 21
25.590085801
 31
0.0
  0
LINE
  5
4AC
100
AcDbEntity
  8
0
100
AcDbLine
 62
7
  6
CONTINUOUS
 10
4.136593299
 20
28.9534172432
 11
4.1541839442
 21
28.7190498562
  0
LINE
  5
4AD
100
AcDbEntity
  8
0
100
AcDbLine
 62
7
  6
CONTINUOUS
 10
0.437607301
 20
26.396817463
 11
0.4200166559
 21
26.1448594308
  0
SPLINE
  5
4AE
100
AcDbEntity
  8
0
100
AcDbSpline
 62
7
  6
CONTINUOUS
 70
0
 71
3
 72
9
 73
5
 74
3
 42
0.0000001
 43
0.0000001
 44
0.0000000001
 12
1.3395582596
 22
0.4177965489
 32
0.0
 13
1.3923442092
 23
-0.1742064582
 33
0.0
 40
0.0
 40
0.0
 40
0.0
 40
0.0
 40
0.5183099603
 40
1.0
 40
1.0
 40
1.0
 40
1.0
 10
2.6292276823
 20
28.9140727436
 30
0.0
 10
2.8606631451
 20
28.9862554478
 30
0.0
 10
3.3207720828
 20
29.0870111211
 30
0.0
 10
3.793288803
 20
29.0873967342
 30
0.0
 10
4.0168482488
 20
29.0594255623
 30
0.0
 11
2.6292276823
 21
28.9140727436
 31
0.0
 11
3.340954527
 21
29.0637368495
 31
0.0
 11
4.0168482488
 21
29.0594255623
 31
0.0
  0
SPLINE
  5
4AF
100
AcDbEntity
  8
0
100
AcDbSpline
 62
7
  6
CONTINUOUS
 70
0
 71
3
 72
9
 73
5
 74
3
 42
0.0000001
 43
0.0000001
 44
0.0000000001
 12
-0.5581118884
 22
0.1639289148
 32
0.0
 13
-0.5769162525
 23
0.0743586357
 33
0.0
 40
0.0
 40
0.0
 40
0.0
 40
0.0
 40
0.2560892103
 40
1.0
 40
1.0
 40
1.0
 40
1.0
 10
1.7723260179
 20
28.8898234145
 30
0.0
 10
1.7246838736
 20
28.90381689
 30
0.0
 10
1.5376733188
 20
28.9550509123
 30
0.0
 10
1.3467301547
 20
28.9922456037
 30
0.0
 10
1.2036720797
 20
29.0106843341
 30
0.0
 11
1.7723260179
 21
28.8898234145
 31
0.0
 11
1.6286431959
 21
28.9291371277
 31
0.0
 11
1.2036720797
 21
29.0106843341
 31
0.0
  0
SPLINE
  5
4B0
100
AcDbEntity
  8
0
100
AcDbSpline
 62
253
  6
CONTINUOUS
 70
0
 71
3
 72
13
 73
9
 74
7
 42
0.0000001
 43
0.0000001
 44
0.0000000001
 12
-0.1232536773
 22
-1.2177419822
 32
0.0
 13
1.0068727634
 23
-0.695912525
 33
0.0
 40
0.0
 40
0.0
 40
0.0
 40
0.0
 40
0.1090307788
 40
0.2189987191
 40
0.3321443526
 40
0.450434519
 40
0.7079351657
 40
1.0
 40
1.0
 40
1.0
 40
1.0
 10
-0.8643119117
 20
27.7548105254
 30
0.0
 10
-0.8687913931
 20
27.7105534065
 30
0.0
 10
-0.8702890544
 20
27.6207088506
 30
0.0
 10
-0.8494782552
 20
27.4861936899
 30
0.0
 10
-0.8058715037
 20
27.3532847144
 30
0.0
 10
-0.7155235487
 20
27.1746962459
 30
0.0
 10
-0.542758583
 20
26.9601629272
 30
0.0
 10
-0.3675235225
 20
26.818121379
 30
0.0
 10
-0.2694994802
 20
26.7503708536
 30
0.0
 11
-0.8643119117
 21
27.7548105254
 31
0.0
 11
-0.8665103345
 21
27.6213789254
 31
0.0
 11
-0.8461504022
 21
27.4883309594
 31
0.0
 11
-0.8033724883
 21
27.3566174005
 31
0.0
 11
-0.7384957917
 21
27.2271836656
 31
0.0
 11
-0.5444395759
 21
26.978838713
 31
0.0
 11
-0.2694994802
 21
26.7503708536
 31
0.0
  0
SPLINE
  5
4B1
100
AcDbEntity
  8
0
100
AcDbSpline
 62
7
  6
CONTINUOUS
 70
0
 71
3
 72
9
 73
5
 74
3
 42
0.0000001
 43
0.0000001
 44
0.0000000001
 12
1.4965688059
 22
1.7090671732
 32
0.0
 13
1.9392383267
 23
1.1832089864
 33
0.0
 40
0.0
 40
0.0
 40
0.0
 40
0.0
 40
0.5178322964
 40
1.0
 40
1.0
 40
1.0
 40
1.0
 10
-0.1939894921
 20
26.9259824597
 30
0.0
 10
0.064334395
 20
27.2209858527
 30
0.0
 10
0.6004638417
 20
27.7594371261
 30
0.0
 10
1.2114137273
 20
28.2133290852
 30
0.0
 10
1.5230930908
 20
28.4034974718
 30
0.0
 11
-0.1939894921
 21
26.9259824597
 31
0.0
 11
0.6396478023
 21
27.7559661671
 31
0.0
 11
1.5230930908
 21
28.4034974718
 31
0.0
  0
LINE
  5
4B2
100
AcDbEntity
  8
0
100
AcDbLine
 62
7
  6
CONTINUOUS
 10
-0.2870901253
 20
26.4984128214
 11
-0.2694994802
 21
26.7503708536
  0
SPLINE
  5
4B3
100
AcDbEntity
  8
0
100
AcDbSpline
 62
253
  6
CONTINUOUS
 70
0
 71
3
 72
14
 73
10
 74
8
 42
0.0000001
 43
0.0000001
 44
0.0000000001
 12
1.4322462496
 22
0.7161231248
 32
0.0
 13
-0.1612118234
 23
1.5931642719
 33
0.0
 40
0.0
 40
0.0
 40
0.0
 40
0.0
 40
0.3040577776
 40
0.440244719
 40
0.5662017727
 40
0.6830084595
 40
0.7924619902
 40
0.897091085
 40
1.0
 40
1.0
 40
1.0
 40
1.0
 10
4.5183361447
 20
26.5594994307
 30
0.0
 10
4.6634980153
 20
26.632080366
 30
0.0
 10
4.8668232379
 20
26.7537909144
 30
0.0
 10
5.0968204362
 20
26.9507863269
 30
0.0
 10
5.2327587745
 20
27.10146518
 30
0.0
 10
5.3368327476
 20
27.2590066441
 30
0.0
 10
5.4075763056
 20
27.4219606024
 30
0.0
 10
5.4436577274
 20
27.5884188537
 30
0.0
 10
5.4440426603
 20
27.7001602591
 30
0.0
 10
5.4385126157
 20
27.754810528
 30
0.0
 11
4.5183361447
 21
26.5594994307
 31
0.0
 11
4.9326703282
 21
26.8152079207
 31
0.0
 11
5.0976161404
 21
26.9578616453
 31
0.0
 11
5.2319082924
 21
27.1083491944
 31
0.0
 11
5.3340798144
 21
27.2650204876
 31
0.0
 11
5.4030132279
 21
27.4261633881
 31
0.0
 11
5.4379473256
 21
27.5900234533
 31
0.0
 11
5.4385126157
 21
27.754810528
 31
0.0
  0
SPLINE
  5
4B4
100
AcDbEntity
  8
0
100
AcDbSpline
 62
253
  6
CONTINUOUS
 70
0
 71
3
 72
15
 73
11
 74
9
 42
0.0000001
 43
0.0000001
 44
0.0000000001
 12
3.9295981376
 22
-1.4213730872
 32
0.0
 13
3.7375974076
 23
1.8687987037
 33
0.0
 40
0.0
 40
0.0
 40
0.0
 40
0.0
 40
0.1192556176
 40
0.2459291734
 40
0.3773050017
 40
0.5103767428
 40
0.6420529517
 40
0.7693185465
 40
0.889404533
 40
1.0
 40
1.0
 40
1.0
 40
1.0
 10
0.437607301
 20
26.396817463
 30
0.0
 10
0.5938161853
 20
26.3403152212
 30
0.0
 10
0.9232482732
 20
26.2434245594
 30
0.0
 10
1.4406115499
 20
26.1468466013
 30
0.0
 10
1.9838398209
 20
26.0965783523
 30
0.0
 10
2.5363045881
 20
26.0942205137
 30
0.0
 10
3.0811630864
 20
26.1398207689
 30
0.0
 10
3.6018484669
 20
26.2319993693
 30
0.0
 10
4.0824617741
 20
26.367857566
 30
0.0
 10
4.3805490345
 20
26.4906058756
 30
0.0
 10
4.5183361447
 20
26.5594994307
 30
0.0
 11
0.437607301
 21
26.396817463
 31
0.0
 11
0.9151428975
 21
26.2543280817
 31
0.0
 11
1.4352639776
 21
26.1559750594
 31
0.0
 11
1.9818613963
 21
26.1047961294
 31
0.0
 11
2.5379311877
 21
26.1023907946
 31
0.0
 11
3.0862114675
 21
26.1488292709
 31
0.0
 11
3.6096785269
 21
26.2426736571
 31
0.0
 11
4.0920482874
 21
26.3809969105
 31
0.0
 11
4.5183361447
 21
26.5594994307
 31
0.0
  0
SPLINE
  5
4B5
100
AcDbEntity
  8
0
100
AcDbSpline
 62
7
  6
CONTINUOUS
 70
0
 71
3
 72
9
 73
5
 74
3
 42
0.0000001
 43
0.0000001
 44
0.0000000001
 12
-0.7446962051
 22
0.2700674532
 32
0.0
 13
-0.6522013361
 23
0.4496023625
 33
0.0
 40
0.0
 40
0.0
 40
0.0
 40
0.0
 40
0.523637549
 40
1.0
 40
1.0
 40
1.0
 40
1.0
 10
0.4200166559
 20
26.1448594308
 30
0.0
 10
0.290033024
 20
26.1919985839
 30
0.0
 10
0.0461082035
 20
26.2946492724
 30
0.0
 10
-0.1835287163
 20
26.4270215936
 30
0.0
 10
-0.2870901253
 20
26.4984128214
 30
0.0
 11
0.4200166559
 21
26.1448594308
 31
0.0
 11
0.038494323
 21
26.307651655
 31
0.0
 11
-0.2870901253
 21
26.4984128214
 31
0.0
  0
LINE
  5
4B6
100
AcDbEntity
  8
0
100
AcDbLine
 62
253
  6
CONTINUOUS
 10
1.305156137
 20
26.3691415633
 11
1.3108755599
 21
26.3681722576
  0
SPLINE
  5
4B7
100
AcDbEntity
  8
0
100
AcDbSpline
 62
253
  6
CONTINUOUS
 70
0
 71
3
 72
11
 73
7
 74
5
 42
0.0000001
 43
0.0000001
 44
0.0000000001
 12
2.4609217233
 22
-0.4157102969
 32
0.0
 13
2.4020156686
 23
0.6776957336
 33
0.0
 40
0.0
 40
0.0
 40
0.0
 40
0.0
 40
0.2513654743
 40
0.5073778166
 40
0.7596247699
 40
1.0
 40
1.0
 40
1.0
 40
1.0
 10
1.3108755599
 20
26.3681722576
 30
0.0
 10
1.5170724787
 20
26.3333405189
 30
0.0
 10
1.93760302
 20
26.2869267178
 30
0.0
 10
2.5706345202
 20
26.2835155471
 30
0.0
 10
3.1915124904
 20
26.3450341847
 30
0.0
 10
3.5935056352
 20
26.4305005628
 30
0.0
 10
3.7859673248
 20
26.4848009855
 30
0.0
 11
1.3108755599
 21
26.3681722576
 31
0.0
 11
1.9343139951
 21
26.2981844622
 31
0.0
 11
2.5732565289
 21
26.2946744869
 31
0.0
 11
3.1996378285
 21
26.3578046755
 31
0.0
 11
3.7859673248
 21
26.4848009855
 31
0.0
  0
SPLINE
  5
4B8
100
AcDbEntity
  8
0
100
AcDbSpline
 62
253
  6
CONTINUOUS
 70
0
 71
3
 72
20
 73
16
 74
14
 42
0.0000001
 43
0.0000001
 44
0.0000000001
 12
2.8080651128
 22
0.9805421636
 32
0.0
 13
-2.4090404811
 23
1.7444817491
 33
0.0
 40
0.0
 40
0.0
 40
0.0
 40
0.0
 40
0.1656013981
 40
0.3124846218
 40
0.3786890381
 40
0.4402201511
 40
0.4975338106
 40
0.5513659586
 40
0.6027527306
 40
0.6529751043
 40
0.7034511497
 40
0.7555680184
 40
0.868922228
 40
0.9320920896
 40
1.0
 40
1.0
 40
1.0
 40
1.0
 10
4.0334639394
 20
26.5626703702
 30
0.0
 10
4.1884704422
 20
26.6167967546
 30
0.0
 10
4.4752240503
 20
26.7368453467
 30
0.0
 10
4.7966450624
 20
26.9353216909
 30
0.0
 10
5.0030793236
 20
27.1136816566
 30
0.0
 10
5.1268242894
 20
27.2498286323
 30
0.0
 10
5.2236382553
 20
27.3917968513
 30
0.0
 10
5.2923234067
 20
27.5384280181
 30
0.0
 10
5.3319252442
 20
27.6883044674
 30
0.0
 10
5.3416397317
 20
27.8397550182
 30
0.0
 10
5.3213110276
 20
27.990877678
 30
0.0
 10
5.2528480679
 20
28.1949113669
 30
0.0
 10
5.1242296268
 20
28.3867484256
 30
0.0
 10
4.9531638694
 20
28.5586749439
 30
0.0
 10
4.8514004125
 20
28.6400697983
 30
0.0
 10
4.796869444
 20
28.6795578351
 30
0.0
 11
4.0334639394
 21
26.5626703702
 31
0.0
 11
4.4863556322
 21
26.756317594
 31
0.0
 11
4.8552958502
 21
26.9902998375
 31
0.0
 11
5.0037443598
 21
27.1196764679
 31
0.0
 11
5.12620242
 21
27.2556848889
 31
0.0
 11
5.2215095668
 21
27.3970236849
 31
0.0
 11
5.2887346944
 21
27.5423426932
 31
0.0
 11
5.3272609512
 21
27.6902491064
 31
0.0
 11
5.3366915098
 21
27.8393294899
 31
0.0
 11
5.3169595836
 21
27.9881600317
 31
0.0
 11
5.2682326899
 21
28.1353157086
 31
0.0
 11
5.0860040044
 21
28.4189799888
 31
0.0
 11
4.9541506051
 21
28.5528336446
 31
0.0
 11
4.796869444
 21
28.6795578351
 31
0.0
  0
SPLINE
  5
4B9
100
AcDbEntity
  8
0
100
AcDbSpline
 62
253
  6
CONTINUOUS
 70
0
 71
3
 72
10
 73
6
 74
4
 42
0.0000001
 43
0.0000001
 44
0.0000000001
 12
-1.3899468603
 22
0.4969070696
 32
0.0
 13
-1.4739409382
 23
0.0797936157
 33
0.0
 40
0.0
 40
0.0
 40
0.0
 40
0.0
 40
0.2354019113
 40
0.4825056736
 40
1.0
 40
1.0
 40
1.0
 40
1.0
 10
4.061083311
 20
29.0535188613
 30
0.0
 10
3.9520179285
 20
29.0925098193
 30
0.0
 10
3.7248572206
 20
29.1626285442
 30
0.0
 10
3.2447093568
 20
29.2714829971
 30
0.0
 10
2.8695393617
 20
29.3153815176
 30
0.0
 10
2.6152873373
 20
29.3291457654
 30
0.0
 11
4.061083311
 21
29.0535188613
 31
0.0
 11
3.729292106
 21
29.1567398305
 31
0.0
 11
3.3736960323
 21
29.2379417696
 31
0.0
 11
2.6152873373
 21
29.3291457654
 31
0.0
  0
SPLINE
  5
4BA
100
AcDbEntity
  8
0
100
AcDbSpline
 62
253
  6
CONTINUOUS
 70
0
 71
3
 72
9
 73
5
 74
3
 42
0.0000001
 43
0.0000001
 44
0.0000000001
 12
-1.6253671908
 22
0.0879912631
 32
0.0
 13
-1.5851491486
 23
-0.3699501913
 33
0.0
 40
0.0
 40
0.0
 40
0.0
 40
0.0
 40
0.5084238712
 40
1.0
 40
1.0
 40
1.0
 40
1.0
 10
2.6152873373
 20
29.3291457654
 30
0.0
 10
2.3398288443
 20
29.3440580516
 30
0.0
 10
1.7954993729
 20
29.3365694882
 30
0.0
 10
1.2568032588
 20
29.255496673
 30
0.0
 10
0.9970627648
 20
29.194877112
 30
0.0
 11
2.6152873373
 21
29.3291457654
 31
0.0
 11
1.787784844
 21
29.317422174
 31
0.0
 11
0.9970627648
 21
29.194877112
 31
0.0
  0
SPLINE
  5
4BB
100
AcDbEntity
  8
0
100
AcDbSpline
 62
253
  6
CONTINUOUS
 70
0
 71
3
 72
22
 73
18
 74
16
 42
0.0000001
 43
0.0000001
 44
0.0000000001
 12
-3.3941795964
 22
-0.7921509419
 32
0.0
 13
2.856284558
 23
-1.9973974995
 33
0.0
 40
0.0
 40
0.0
 40
0.0
 40
0.0
 40
0.1710776108
 40
0.2502221371
 40
0.3244431544
 40
0.3934777604
 40
0.4572716545
 40
0.5160443359
 40
0.5703496505
 40
0.6211229528
 40
0.6696927945
 40
0.7176792904
 40
0.7667892025
 40
0.8185603089
 40
0.8742050828
 40
0.9345615816
 40
1.0
 40
1.0
 40
1.0
 40
1.0
 10
0.9970627648
 20
29.194877112
 30
0.0
 10
0.8035067194
 20
29.1497040151
 30
0.0
 10
0.5236383212
 20
29.0665637507
 30
0.0
 10
0.1767537112
 20
28.9182410032
 30
0.0
 10
-0.0516335881
 20
28.7966190278
 30
0.0
 10
-0.2523088617
 20
28.6631876677
 30
0.0
 10
-0.4229314751
 20
28.5193489808
 30
0.0
 10
-0.5614557775
 20
28.3665983258
 30
0.0
 10
-0.6660861596
 20
28.2064626019
 30
0.0
 10
-0.7350891835
 20
28.0405800753
 30
0.0
 10
-0.7670093919
 20
27.8710537806
 30
0.0
 10
-0.7609346189
 20
27.7005286627
 30
0.0
 10
-0.7170162414
 20
27.5319102879
 30
0.0
 10
-0.6364826427
 20
27.3676625452
 30
0.0
 10
-0.5208363827
 20
27.2096883532
 30
0.0
 10
-0.3718480926
 20
27.0596589317
 30
0.0
 10
-0.2562930735
 20
26.9695513042
 30
0.0
 10
-0.1939894921
 20
26.9259824597
 30
0.0
 11
0.9970627648
 21
29.194877112
 31
0.0
 11
0.4265807056
 21
29.0214090097
 31
0.0
 11
0.1732151892
 21
28.9123265783
 31
0.0
 11
-0.0547405641
 21
28.7900304062
 31
0.0
 11
-0.2545643722
 21
28.6559971878
 31
0.0
 11
-0.4238395206
 21
28.5118306347
 31
0.0
 11
-0.5605367958
 21
28.3592669646
 31
0.0
 11
-0.6630239867
 21
28.2001395915
 31
0.0
 11
-0.7300470376
 21
28.0363578005
 31
0.0
 11
-0.7608235767
 21
27.869894
 31
0.0
 11
-0.7549739845
 21
27.7027445705
 31
0.0
 11
-0.7125539361
 21
27.5369169965
 31
0.0
 11
-0.6341141104
 21
27.374415526
 31
0.0
 11
-0.5205650711
 21
27.2171869178
 31
0.0
 11
-0.3731989201
 21
27.0670633054
 31
0.0
 11
-0.1939894921
 21
26.9259824597
 31
0.0
  0
SPLINE
  5
4BC
100
AcDbEntity
  8
0
100
AcDbSpline
 62
7
  6
CONTINUOUS
 70
0
 71
3
 72
9
 73
5
 74
3
 42
0.0000001
 43
0.0000001
 44
0.0000000001
 12
0.0134783704
 22
0.193037702
 32
0.0
 13
0.1274804467
 23
0.1455814432
 33
0.0
 40
0.0
 40
0.0
 40
0.0
 40
0.0
 40
0.4926142146
 40
1.0
 40
1.0
 40
1.0
 40
1.0
 10
-0.2694994802
 20
26.7503708536
 30
0.0
 10
-0.2672862679
 20
26.7820685589
 30
0.0
 10
-0.2500701953
 20
26.8456191265
 30
0.0
 10
-0.215550081
 20
26.9013604748
 30
0.0
 10
-0.1939894921
 20
26.9259824597
 30
0.0
 11
-0.2694994802
 21
26.7503708536
 31
0.0
 11
-0.2461253533
 21
26.8427853312
 31
0.0
 11
-0.1939894921
 21
26.9259824597
 31
0.0
  0
SPLINE
  5
4BD
100
AcDbEntity
  8
0
100
AcDbSpline
 62
7
  6
CONTINUOUS
 70
0
 71
3
 72
9
 73
5
 74
3
 42
0.0000001
 43
0.0000001
 44
0.0000000001
 12
-0.5458959128
 22
0.4755354833
 32
0.0
 13
-0.5913516964
 23
0.4176595678
 33
0.0
 40
0.0
 40
0.0
 40
0.0
 40
0.0
 40
0.2546885217
 40
1.0
 40
1.0
 40
1.0
 40
1.0
 10
3.8655032672
 20
27.6797687404
 30
0.0
 10
3.8191587928
 20
27.7201398835
 30
0.0
 10
3.6352959869
 20
27.8764532508
 30
0.0
 10
3.4437630647
 20
28.0237996023
 30
0.0
 10
3.296849329
 20
28.1275617589
 30
0.0
 11
3.8655032672
 21
27.6797687404
 31
0.0
 11
3.7250057687
 21
27.7991806677
 31
0.0
 11
3.296849329
 21
28.1275617589
 31
0.0
  0
SPLINE
  5
4BE
100
AcDbEntity
  8
0
100
AcDbSpline
 62
7
  6
CONTINUOUS
 70
0
 71
3
 72
9
 73
5
 74
3
 42
0.0000001
 43
0.0000001
 44
0.0000000001
 12
-0.2646005329
 22
0.3179622526
 32
0.0
 13
-0.2887209004
 23
0.2962324725
 33
0.0
 40
0.0
 40
0.0
 40
0.0
 40
0.0
 40
0.2567850632
 40
1.0
 40
1.0
 40
1.0
 40
1.0
 10
3.296849329
 20
28.1275617589
 30
0.0
 10
3.2742008408
 20
28.1547777447
 30
0.0
 10
3.1850436507
 20
28.2599621197
 30
0.0
 10
3.0919796032
 20
28.3618581275
 30
0.0
 10
3.0204523746
 20
28.4352462603
 30
0.0
 11
3.296849329
 21
28.1275617589
 31
0.0
 11
3.2281547588
 21
28.2085804672
 31
0.0
 11
3.0204523746
 21
28.4352462603
 31
0.0
  0
SPLINE
  5
4BF
100
AcDbEntity
  8
0
100
AcDbSpline
 62
7
  6
CONTINUOUS
 70
0
 71
3
 72
8
 73
4
 74
2
 42
0.0000001
 43
0.0000001
 44
0.0000000001
 12
0.0160449254
 22
-0.002278225
 32
0.0
 13
0.0152572458
 23
-0.005463185
 33
0.0
 40
0.0
 40
0.0
 40
0.0
 40
0.0
 40
1.0
 40
1.0
 40
1.0
 40
1.0
 10
4.061083311
 20
29.0535188613
 30
0.0
 10
4.0664316194
 20
29.0527594529
 30
0.0
 10
4.0717349469
 20
29.0514715036
 30
0.0
 10
4.0768206955
 20
29.0496504419
 30
0.0
 11
4.061083311
 21
29.0535188613
 31
0.0
 11
4.0768206955
 21
29.0496504419
 31
0.0
  0
SPLINE
  5
4C0
100
AcDbEntity
  8
ASSI
100
AcDbSpline
 62
7
  6
CONTINUOUS
 70
0
 71
3
 72
10
 73
6
 74
4
 42
0.0000001
 43
0.0000001
 44
0.0000000001
 12
-1.5268087591
 22
-0.7634043795
 32
0.0
 13
-1.7068151406
 23
0.0267078508
 33
0.0
 40
0.0
 40
0.0
 40
0.0
 40
0.0
 40
0.2248408004
 40
0.4714101769
 40
1.0
 40
1.0
 40
1.0
 40
1.0
 10
24.2074105168
 20
9.7875120637
 30
0.0
 10
24.0929808823
 20
9.7302972465
 30
0.0
 10
23.842635073
 20
9.6307250391
 30
0.0
 10
23.2904278112
 20
9.4898163168
 30
0.0
 10
22.8463712921
 20
9.4538952299
 30
0.0
 10
22.5456362543
 20
9.4586010626
 30
0.0
 11
24.2074105168
 21
9.7875120637
 31
0.0
 11
23.8519060971
 21
9.6428548945
 31
0.0
 11
23.4445418557
 21
9.5369725493
 31
0.0
 11
22.5456362543
 21
9.4586010626
 31
0.0
  0
SPLINE
  5
4C1
100
AcDbEntity
  8
ASSI
100
AcDbSpline
 62
7
  6
CONTINUOUS
 70
0
 71
3
 72
12
 73
8
 74
6
 42
0.0000001
 43
0.0000001
 44
0.0000000001
 12
-0.0000596793
 22
-1.0838984987
 32
0.0
 13
-0.969468291
 23
-0.4847341455
 33
0.0
 40
0.0
 40
0.0
 40
0.0
 40
0.0
 40
0.1022210759
 40
0.2072808604
 40
0.4349774947
 40
0.6979889939
 40
1.0
 40
1.0
 40
1.0
 40
1.0
 10
24.8663387469
 20
10.5830071866
 30
0.0
 10
24.8663367134
 20
10.5460747631
 30
0.0
 10
24.8589024757
 20
10.4709833087
 30
0.0
 10
24.8134671691
 20
10.3196608602
 30
0.0
 10
24.6959993986
 20
10.1344649124
 30
0.0
 10
24.4814896024
 20
9.9412886617
 30
0.0
 10
24.3050072148
 20
9.8363104127
 30
0.0
 10
24.2074105168
 20
9.7875120637
 30
0.0
 11
24.8663387469
 21
10.5830071866
 31
0.0
 11
24.8555466835
 21
10.4727367618
 31
0.0
 11
24.8232017294
 21
10.3635528603
 31
0.0
 11
24.6952042356
 21
10.152538876
 31
0.0
 11
24.4869319826
 21
9.9578801917
 31
0.0
 11
24.2074105168
 21
9.7875120637
 31
0.0
  0
SPLINE
  5
4C2
100
AcDbEntity
  8
ASSI
100
AcDbSpline
 62
7
  6
CONTINUOUS
 70
0
 71
3
 72
16
 73
12
 74
10
 42
0.0000001
 43
0.0000001
 44
0.0000000001
 12
2.7917801825
 22
0.0437527201
 32
0.0
 13
-0.0001537338
 23
-2.7921230031
 33
0.0
 40
0.0
 40
0.0
 40
0.0
 40
0.0
 40
0.1608475566
 40
0.3176449031
 40
0.4658907924
 40
0.6017712794
 40
0.7225487011
 40
0.8273219098
 40
0.917853396
 40
0.9595159414
 40
1.0
 40
1.0
 40
1.0
 40
1.0
 10
22.5456362581
 20
11.7074114524
 30
0.0
 10
22.6953199318
 20
11.7097572918
 30
0.0
 10
22.9913683542
 20
11.6998074663
 30
0.0
 10
23.4217806334
 20
11.6413540792
 30
0.0
 10
23.8208794641
 20
11.5419252773
 30
0.0
 10
24.173394338
 20
11.4054096006
 30
0.0
 10
24.4661676
 20
11.2363180691
 30
0.0
 10
24.6888170233
 20
11.0404041132
 30
0.0
 10
24.811188227
 20
10.8518523592
 30
0.0
 10
24.8586051505
 20
10.6973555433
 30
0.0
 10
24.8663408214
 20
10.6206860104
 30
0.0
 10
24.8663387469
 20
10.5830071866
 30
0.0
 11
22.5456362581
 21
11.7074114524
 31
0.0
 11
22.9944783545
 21
11.6920127944
 31
0.0
 11
23.4281732878
 21
11.6322186726
 31
0.0
 11
23.8294011637
 21
11.5305005049
 31
0.0
 11
24.18218562
 21
11.3909164109
 31
0.0
 11
24.4722998222
 21
11.2190015131
 31
0.0
 11
24.6882821965
 21
11.0216919029
 31
0.0
 11
24.8214324487
 21
10.8068286117
 31
0.0
 11
24.8551162915
 21
10.695485186
 31
0.0
 11
24.8663387469
 21
10.5830071866
 31
0.0
  0
SPLINE
  5
4C3
100
AcDbEntity
  8
RACCORDO
100
AcDbSpline
 62
7
  6
CONTINUOUS
 70
0
 71
3
 72
10
 73
6
 74
4
 42
0.0000001
 43
0.0000001
 44
0.0000000001
 12
0.0176405146
 22
0.0971587308
 32
0.0
 13
-0.060821132
 23
0.0777932942
 33
0.0
 40
0.0
 40
0.0
 40
0.0
 40
0.0
 40
0.238701645
 40
0.4796360509
 40
1.0
 40
1.0
 40
1.0
 40
1.0
 10
23.6937380973
 20
-2.7790405417
 30
0.0
 10
23.6951417039
 20
-2.7713098921
 30
0.0
 10
23.6961689949
 20
-2.7553792715
 30
0.0
 10
23.6905086072
 20
-2.7227017155
 30
0.0
 10
23.6778146538
 20
-2.7001126843
 30
0.0
 10
23.6672649456
 20
-2.6866190757
 30
0.0
 11
23.6937380973
 21
-2.7790405417
 31
0.0
 11
23.6952373484
 21
-2.7555171546
 31
0.0
 11
23.6912504867
 21
-2.7320619866
 31
0.0
 11
23.6672649456
 21
-2.6866190757
 31
0.0
  0
SPLINE
  5
4C4
100
AcDbEntity
  8
RACCORDO
100
AcDbSpline
 62
7
  6
CONTINUOUS
 70
0
 71
3
 72
11
 73
7
 74
5
 42
0.0000001
 43
0.0000001
 44
0.0000000001
 12
1.2319975348
 22
0.7968456039
 32
0.0
 13
0.2617721542
 23
1.4436953216
 33
0.0
 40
0.0
 40
0.0
 40
0.0
 40
0.0
 40
0.2390158699
 40
0.4829997052
 40
0.7355920452
 40
1.0
 40
1.0
 40
1.0
 40
1.0
 10
22.9519911478
 20
-4.0001228022
 30
0.0
 10
23.050146802
 20
-3.9366365538
 30
0.0
 10
23.2331718479
 20
-3.7830263756
 30
0.0
 10
23.4495833599
 20
-3.4921676947
 30
0.0
 10
23.6067460132
 20
-3.1523015025
 30
0.0
 10
23.670668127
 20
-2.906282041
 30
0.0
 10
23.6937396736
 20
-2.7790405318
 30
0.0
 11
22.9519911478
 21
-4.0001228022
 31
0.0
 11
23.2212671324
 21
-3.7754546696
 31
0.0
 11
23.4365405189
 21
-3.4894330833
 31
0.0
 11
23.5940769491
 21
-3.1539693551
 31
0.0
 11
23.6937396736
 21
-2.7790405318
 31
0.0
  0
SPLINE
  5
4C5
100
AcDbEntity
  8
RACCORDO
100
AcDbSpline
 62
7
  6
CONTINUOUS
 70
0
 71
3
 72
11
 73
7
 74
5
 42
0.0000001
 43
0.0000001
 44
0.0000000001
 12
0.0275804188
 22
-0.1771737477
 32
0.0
 13
-0.1538966661
 23
-0.0920164797
 33
0.0
 40
0.0
 40
0.0
 40
0.0
 40
0.0
 40
0.2142272568
 40
0.4418334652
 40
0.7008103145
 40
1.0
 40
1.0
 40
1.0
 40
1.0
 10
23.6941599162
 20
-1.7059702432
 30
0.0
 10
23.6961294087
 20
-1.7186220585
 30
0.0
 10
23.6951289616
 20
-1.745792239
 30
0.0
 10
23.677674857
 20
-1.7847689006
 30
0.0
 10
23.6461442078
 20
-1.8202872061
 30
0.0
 10
23.6187679058
 20
-1.8397744749
 30
0.0
 10
23.6034198074
 20
-1.8489512688
 30
0.0
 11
23.6941599162
 21
-1.7059702432
 31
0.0
 11
23.6928075003
 21
-1.744359004
 31
0.0
 11
23.6768356069
 21
-1.7819153493
 31
0.0
 11
23.6466860144
 21
-1.8172332241
 31
0.0
 11
23.6034198074
 21
-1.8489512688
 31
0.0
  0
SPLINE
  5
4C6
100
AcDbEntity
  8
RACCORDO
100
AcDbSpline
 62
7
  6
CONTINUOUS
 70
0
 71
3
 72
11
 73
7
 74
5
 42
0.0000001
 43
0.0000001
 44
0.0000000001
 12
-0.4105359368
 22
2.6346330972
 32
0.0
 13
-1.8079780377
 23
1.959858854
 33
0.0
 40
0.0
 40
0.0
 40
0.0
 40
0.0
 40
0.2457439682
 40
0.4988454118
 40
0.7525670776
 40
1.0
 40
1.0
 40
1.0
 40
1.0
 10
23.6941595945
 20
-1.7059701515
 30
0.0
 10
23.6605306845
 20
-1.4901550875
 30
0.0
 10
23.5560946604
 20
-1.0571383215
 30
0.0
 10
23.306090585
 20
-0.4344466794
 30
0.0
 10
22.9711671679
 20
0.1487126586
 30
0.0
 10
22.6951289827
 20
0.5008386951
 30
0.0
 10
22.5460112195
 20
0.6624832297
 30
0.0
 11
23.6941595945
 21
-1.7059701515
 31
0.0
 11
23.5427632551
 21
-1.0684416758
 31
0.0
 11
23.2921601303
 21
-0.4418187504
 31
0.0
 11
22.9546611034
 21
0.1445152402
 31
0.0
 11
22.5460112195
 21
0.6624832297
 31
0.0
  0
LINE
  5
4C7
100
AcDbEntity
  8
RACCORDO
100
AcDbLine
 62
7
  6
CONTINUOUS
 10
23.5658348498
 20
-1.8714235913
 11
23.6034198074
 21
-1.8489512688
  0
SPLINE
  5
4C8
100
AcDbEntity
  8
0
100
AcDbSpline
 62
7
  6
CONTINUOUS
 70
0
 71
3
 72
9
 73
5
 74
3
 42
0.0000001
 43
0.0000001
 44
0.0000000001
 12
0.1641538987
 22
1.0015765246
 32
0.0
 13
-0.1495872738
 23
1.0038554102
 33
0.0
 40
0.0
 40
0.0
 40
0.0
 40
0.0
 40
0.4808984329
 40
1.0
 40
1.0
 40
1.0
 40
1.0
 10
23.5704628498
 20
-2.8833468369
 30
0.0
 10
23.596776634
 20
-2.7227946432
 30
0.0
 10
23.6200653272
 20
-2.3834528908
 30
0.0
 10
23.5917185125
 20
-2.0451245635
 30
0.0
 10
23.5658348498
 20
-1.8714235913
 30
0.0
 11
23.5704628498
 21
-2.8833468369
 31
0.0
 11
23.6072342281
 21
-2.3966511774
 31
0.0
 11
23.5658348498
 21
-1.8714235913
 31
0.0
  0
SPLINE
  5
4C9
100
AcDbEntity
  8
RACCORDO
100
AcDbSpline
 62
253
  6
CONTINUOUS
 70
0
 71
3
 72
11
 73
7
 74
5
 42
0.0000001
 43
0.0000001
 44
0.0000000001
 12
1.6560428825
 22
-1.9929216788
 32
0.0
 13
0.3824944837
 23
-2.5627939473
 33
0.0
 40
0.0
 40
0.0
 40
0.0
 40
0.0
 40
0.2495220682
 40
0.5041231297
 40
0.7566014877
 40
1.0
 40
1.0
 40
1.0
 40
1.0
 10
22.5459514092
 20
0.4853275571
 30
0.0
 10
22.6836911576
 20
0.3195682441
 30
0.0
 10
22.9381660877
 20
-0.0357152725
 30
0.0
 10
23.2467576188
 20
-0.6137497819
 30
0.0
 10
23.4762825697
 20
-1.2218586455
 30
0.0
 10
23.5723869446
 20
-1.6410245241
 30
0.0
 10
23.6034198074
 20
-1.8489512688
 30
0.0
 11
22.5459514092
 21
0.4853275571
 31
0.0
 11
22.9236320264
 21
-0.0394512959
 31
0.0
 11
23.2345809379
 21
-0.621291135
 31
0.0
 11
23.464657814
 21
-1.233716162
 31
0.0
 11
23.6034198074
 21
-1.8489512688
 31
0.0
  0
SPLINE
  5
4CA
100
AcDbEntity
  8
RACCORDO
100
AcDbSpline
 62
253
  6
CONTINUOUS
 70
0
 71
3
 72
11
 73
7
 74
5
 42
0.0000001
 43
0.0000001
 44
0.0000000001
 12
-0.2387958741
 22
-1.2718213575
 32
0.0
 13
-1.086598163
 23
-0.7027499322
 33
0.0
 40
0.0
 40
0.0
 40
0.0
 40
0.0
 40
0.2771004092
 40
0.5335229247
 40
0.7725666918
 40
1.0
 40
1.0
 40
1.0
 40
1.0
 10
23.5981083656
 20
-2.9174342739
 30
0.0
 10
23.5760515541
 20
-3.0349083467
 30
0.0
 10
23.5171895472
 20
-3.2585839447
 30
0.0
 10
23.376722087
 20
-3.5629371686
 30
0.0
 10
23.189973995
 20
-3.8156140933
 30
0.0
 10
23.0343671147
 20
-3.9468461244
 30
0.0
 10
22.9519909097
 20
-4.0001223717
 30
0.0
 11
23.5981083656
 21
-2.9174342739
 31
0.0
 11
23.5046190624
 21
-3.2636129802
 31
0.0
 11
23.3634084117
 21
-3.5638888723
 31
0.0
 11
23.1777571486
 21
-3.8113172224
 31
0.0
 11
22.9519909097
 21
-4.0001223717
 31
0.0
  0
LINE
  5
4CB
100
AcDbEntity
  8
RACCORDO
100
AcDbLine
 62
7
  6
CONTINUOUS
 10
23.6034198074
 20
-2.8881817533
 11
23.5658348498
 21
-2.9106540759
  0
SPLINE
  5
4CC
100
AcDbEntity
  8
RACCORDO
100
AcDbSpline
 62
7
  6
CONTINUOUS
 70
0
 71
3
 72
11
 73
7
 74
5
 42
0.0000001
 43
0.0000001
 44
0.0000000001
 12
0.1250422054
 22
0.0747640858
 32
0.0
 13
0.0260263124
 23
0.1433452222
 33
0.0
 40
0.0
 40
0.0
 40
0.0
 40
0.0
 40
0.2916577163
 40
0.5526675105
 40
0.7861764032
 40
1.0
 40
1.0
 40
1.0
 40
1.0
 10
23.6034198074
 20
-2.8881817533
 30
0.0
 10
23.6155763154
 20
-2.8809132458
 30
0.0
 10
23.637778515
 20
-2.865630549
 30
0.0
 10
23.6653572357
 20
-2.8389134334
 30
0.0
 10
23.6847153729
 20
-2.810119795
 30
0.0
 10
23.6918830841
 20
-2.7892574054
 30
0.0
 10
23.6937380973
 20
-2.7790405417
 30
0.0
 11
23.6034198074
 21
-2.8881817533
 31
0.0
 11
23.6382257982
 21
-2.8638086123
 31
0.0
 11
23.6652541902
 21
-2.8370605681
 31
0.0
 11
23.6838752871
 21
-2.8085897104
 31
0.0
 11
23.6937380973
 21
-2.7790405417
 31
0.0
  0
SPLINE
  5
4CD
100
AcDbEntity
  8
RACCORDO
100
AcDbSpline
 62
253
  6
CONTINUOUS
 70
0
 71
3
 72
12
 73
8
 74
6
 42
0.0000001
 43
0.0000001
 44
0.0000000001
 12
0.5725802042
 22
-2.1564940805
 32
0.0
 13
-1.0319532863
 23
-1.9782283044
 33
0.0
 40
0.0
 40
0.0
 40
0.0
 40
0.0
 40
0.280798403
 40
0.5433058357
 40
0.6664061621
 40
0.7835932657
 40
1.0
 40
1.0
 40
1.0
 40
1.0
 10
22.646334536
 20
-1.8491826502
 30
0.0
 10
22.6999277383
 20
-2.0510293481
 30
0.0
 10
22.7781851787
 20
-2.4489674703
 30
0.0
 10
22.800675013
 20
-2.9464129553
 30
0.0
 10
22.7673291649
 20
-3.3194653086
 30
0.0
 10
22.704510311
 20
-3.6535025286
 30
0.0
 10
22.62015614
 20
-3.8901119929
 30
0.0
 10
22.5457155931
 20
-4.0328126353
 30
0.0
 11
22.646334536
 21
-1.8491826502
 31
0.0
 11
22.764813654
 21
-2.4643993485
 31
0.0
 11
22.7874968688
 21
-3.0496701432
 31
0.0
 11
22.7624448679
 21
-3.3231884029
 31
0.0
 11
22.7134110616
 21
-3.5800190344
 31
0.0
 11
22.5457155931
 21
-4.0328126353
 31
0.0
  0
SPLINE
  5
4CE
100
AcDbEntity
  8
0
100
AcDbSpline
 62
7
  6
CONTINUOUS
 70
0
 71
3
 72
9
 73
5
 74
3
 42
0.0000001
 43
0.0000001
 44
0.0000000001
 12
0.4880520957
 22
0.2609610194
 32
0.0
 13
0.5021129405
 23
0.2327618885
 33
0.0
 40
0.0
 40
0.0
 40
0.0
 40
0.0
 40
0.2571774263
 40
1.0
 40
1.0
 40
1.0
 40
1.0
 10
17.8662175346
 20
20.1844368598
 30
0.0
 10
17.9080561953
 20
20.2068079543
 30
0.0
 10
18.07130662
 20
20.2927278371
 30
0.0
 10
18.2368653392
 20
20.3742906382
 30
0.0
 10
18.3611922815
 20
20.4319242332
 30
0.0
 11
17.8662175346
 21
20.1844368598
 31
0.0
 11
17.9921775145
 21
20.2507130845
 31
0.0
 11
18.3611922815
 21
20.4319242332
 31
0.0
  0
LINE
  5
4CF
100
AcDbEntity
  8
0
100
AcDbLine
 62
7
  6
CONTINUOUS
 10
17.5467965235
 20
21.2125533926
 11
17.5161376523
 21
21.187320262
  0
SPLINE
  5
4D0
100
AcDbEntity
  8
0
100
AcDbSpline
 62
7
  6
CONTINUOUS
 70
0
 71
3
 72
9
 73
5
 74
3
 42
0.0000001
 43
0.0000001
 44
0.0000000001
 12
-0.6437418152
 22
0.0914051423
 32
0.0
 13
-0.6479928939
 23
-0.0535129343
 33
0.0
 40
0.0
 40
0.0
 40
0.0
 40
0.0
 40
0.24475149
 40
1.0
 40
1.0
 40
1.0
 40
1.0
 10
19.2638791065
 20
21.4521209635
 30
0.0
 10
19.2113601837
 20
21.4595781451
 30
0.0
 10
18.9958995338
 20
21.4836826203
 30
0.0
 10
18.7778047896
 20
21.4824560698
 30
0.0
 10
18.6146729004
 20
21.4689842152
 30
0.0
 11
19.2638791065
 21
21.4521209635
 31
0.0
 11
19.1057337625
 21
21.4698599457
 31
0.0
 11
18.6146729004
 21
21.4689842152
 31
0.0
  0
SPLINE
  5
4D1
100
AcDbEntity
  8
0
100
AcDbSpline
 62
7
  6
CONTINUOUS
 70
0
 71
3
 72
9
 73
5
 74
3
 42
0.0000001
 43
0.0000001
 44
0.0000000001
 12
-1.0973690193
 22
-0.0906235806
 32
0.0
 13
-1.0258981305
 23
-0.399955527
 33
0.0
 40
0.0
 40
0.0
 40
0.0
 40
0.0
 40
0.4850582188
 40
1.0
 40
1.0
 40
1.0
 40
1.0
 10
18.6146729004
 20
21.4689842152
 30
0.0
 10
18.4372436131
 20
21.4543316443
 30
0.0
 10
18.0735825869
 20
21.3935557085
 30
0.0
 10
17.7228891271
 20
21.2812046631
 30
0.0
 10
17.5467965235
 20
21.2125533926
 30
0.0
 11
18.6146729004
 21
21.4689842152
 31
0.0
 11
18.0875011021
 21
21.3832372421
 31
0.0
 11
17.5467965235
 21
21.2125533926
 31
0.0
  0
SPLINE
  5
4D2
100
AcDbEntity
  8
0
100
AcDbSpline
 62
7
  6
CONTINUOUS
 70
0
 71
3
 72
9
 73
5
 74
3
 42
0.0000001
 43
0.0000001
 44
0.0000000001
 12
-1.9392383268
 22
-1.1832089864
 32
0.0
 13
-1.496568806
 23
-1.7090671732
 33
0.0
 40
0.0
 40
0.0
 40
0.0
 40
0.0
 40
0.482167634
 40
1.0
 40
1.0
 40
1.0
 40
1.0
 10
16.7258888864
 20
20.8020995741
 30
0.0
 10
16.4142095677
 20
20.6119312149
 30
0.0
 10
15.8032596774
 20
20.1580392641
 30
0.0
 10
15.2671302253
 20
19.6195879946
 30
0.0
 10
15.0088063034
 20
19.324584562
 30
0.0
 11
16.7258888864
 21
20.8020995741
 31
0.0
 11
15.842443718
 21
20.1545683726
 31
0.0
 11
15.0088063034
 21
19.324584562
 31
0.0
  0
SPLINE
  5
4D3
100
AcDbEntity
  8
0
100
AcDbSpline
 62
7
  6
CONTINUOUS
 70
0
 71
3
 72
9
 73
5
 74
3
 42
0.0000001
 43
0.0000001
 44
0.0000000001
 12
0.5913552834
 22
-0.4176621013
 32
0.0
 13
0.5458992241
 23
-0.4755383678
 33
0.0
 40
0.0
 40
0.0
 40
0.0
 40
0.0
 40
0.2452957898
 40
1.0
 40
1.0
 40
1.0
 40
1.0
 10
17.2975635965
 20
20.6322298784
 30
0.0
 10
17.3459159169
 20
20.5980796267
 30
0.0
 10
17.541153928
 20
20.4562081165
 30
0.0
 10
17.7288867204
 20
20.3040671292
 30
0.0
 10
17.8662175346
 20
20.1844368598
 30
0.0
 11
17.2975635965
 21
20.6322298784
 31
0.0
 11
17.441246452
 21
20.5278607437
 31
0.0
 11
17.8662175346
 21
20.1844368598
 31
0.0
  0
SPLINE
  5
4D4
100
AcDbEntity
  8
0
100
AcDbSpline
 62
7
  6
CONTINUOUS
 70
0
 71
3
 72
9
 73
5
 74
3
 42
0.0000001
 43
0.0000001
 44
0.0000000001
 12
0.5769268588
 22
-0.0743600027
 32
0.0
 13
0.558122149
 23
-0.1639319286
 33
0.0
 40
0.0
 40
0.0
 40
0.0
 40
0.0
 40
0.2442344533
 40
1.0
 40
1.0
 40
1.0
 40
1.0
 10
15.2043863472
 20
21.5153524535
 30
0.0
 10
15.2513548192
 20
21.5092986953
 30
0.0
 10
15.4431302775
 20
21.4804582332
 30
0.0
 10
15.6324371217
 20
21.4357895685
 30
0.0
 10
15.7730402854
 20
21.3944915339
 30
0.0
 11
15.2043863472
 21
21.5153524535
 31
0.0
 11
15.3448839136
 21
21.4942668666
 31
0.0
 11
15.7730402854
 21
21.3944915339
 31
0.0
  0
SPLINE
  5
4D5
100
AcDbEntity
  8
0
100
AcDbSpline
 62
7
  6
CONTINUOUS
 70
0
 71
3
 72
9
 73
5
 74
3
 42
0.0000001
 43
0.0000001
 44
0.0000000001
 12
-0.2659486032
 22
0.2205631897
 32
0.0
 13
-0.2873089502
 23
0.1919123428
 33
0.0
 40
0.0
 40
0.0
 40
0.0
 40
0.0
 40
0.2587982878
 40
1.0
 40
1.0
 40
1.0
 40
1.0
 10
16.0494409735
 20
21.1873203249
 30
0.0
 10
16.0264986258
 20
21.2063474502
 30
0.0
 10
15.9370708421
 20
21.2789193745
 30
0.0
 10
15.844024914
 20
21.3470762816
 30
0.0
 10
15.7730402854
 20
21.3944915339
 30
0.0
 11
16.0494409735
 21
21.1873203249
 31
0.0
 11
15.9799687803
 21
21.243614727
 31
0.0
 11
15.7730402854
 21
21.3944915339
 31
0.0
  0
SPLINE
  5
4D6
100
AcDbEntity
  8
0
100
AcDbSpline
 62
7
  6
CONTINUOUS
 70
0
 71
3
 72
9
 73
5
 74
3
 42
0.0000001
 43
0.0000001
 44
0.0000000001
 12
-0.1274804469
 22
-0.1455814435
 32
0.0
 13
-0.0134783704
 23
-0.1930377025
 33
0.0
 40
0.0
 40
0.0
 40
0.0
 40
0.0
 40
0.507387869
 40
1.0
 40
1.0
 40
1.0
 40
1.0
 10
15.0088063034
 20
19.324584562
 30
0.0
 10
14.9872456259
 20
19.2999624758
 30
0.0
 10
14.9527255394
 20
19.2442210948
 30
0.0
 10
14.9355095182
 20
19.1806705271
 30
0.0
 10
14.9332963153
 20
19.1489729558
 30
0.0
 11
15.0088063034
 21
19.324584562
 31
0.0
 11
14.9566702806
 21
19.2413870586
 31
0.0
 11
14.9332963153
 21
19.1489729558
 31
0.0
  0
SPLINE
  5
4D7
100
AcDbEntity
  8
0
100
AcDbSpline
 62
7
  6
CONTINUOUS
 70
0
 71
3
 72
11
 73
7
 74
5
 42
0.0000001
 43
0.0000001
 44
0.0000000001
 12
0.0954403462
 22
-0.0512796546
 32
0.0
 13
0.0081098893
 23
-0.1080402349
 33
0.0
 40
0.0
 40
0.0
 40
0.0
 40
0.0
 40
0.221508124
 40
0.4568752288
 40
0.7150321189
 40
1.0
 40
1.0
 40
1.0
 40
1.0
 10
18.5828655601
 20
21.7972031627
 30
0.0
 10
18.5899124974
 20
21.793416876
 30
0.0
 10
18.6032560513
 20
21.7831836797
 30
0.0
 10
18.6183559435
 20
21.7618459957
 30
0.0
 10
18.6284367547
 20
21.7353421748
 30
0.0
 10
18.6315119607
 20
21.7158354016
 30
0.0
 10
18.6322823134
 20
21.705572736
 30
0.0
 11
18.5828655601
 21
21.7972031627
 31
0.0
 11
18.6019826415
 21
21.7826947227
 31
0.0
 11
18.6169577519
 21
21.7620542382
 31
0.0
 11
18.6271954009
 21
21.7360254052
 31
0.0
 11
18.6322823134
 21
21.705572736
 31
0.0
  0
SPLINE
  5
4D8
100
AcDbEntity
  8
0
100
AcDbSpline
 62
7
  6
CONTINUOUS
 70
0
 71
3
 72
19
 73
15
 74
13
 42
0.0000001
 43
0.0000001
 44
0.0000000001
 12
-5.2787905855
 22
1.8680881322
 32
0.0
 13
-0.5635357
 23
-5.5711588409
 33
0.0
 40
0.0
 40
0.0
 40
0.0
 40
0.0
 40
0.1353256578
 40
0.2797534573
 40
0.4263167997
 40
0.5676766938
 40
0.6343836672
 40
0.6975444356
 40
0.7567514256
 40
0.8118556328
 40
0.863035017
 40
0.9108612555
 40
0.9561332768
 40
1.0
 40
1.0
 40
1.0
 40
1.0
 10
18.5574399164
 20
21.8071723462
 30
0.0
 10
18.3193213137
 20
21.8914390979
 30
0.0
 10
17.8105905612
 20
22.020465271
 30
0.0
 10
17.0169643054
 20
22.1038275016
 30
0.0
 10
16.2079781547
 20
22.0813125355
 30
0.0
 10
15.5522798887
 20
21.9734341685
 30
0.0
 10
15.0654808528
 20
21.832569012
 30
0.0
 10
14.7358277659
 20
21.7051331473
 30
0.0
 10
14.4396661208
 20
21.5553417245
 30
0.0
 10
14.1814261882
 20
21.3843536349
 30
0.0
 10
13.9651009944
 20
21.1930647647
 30
0.0
 10
13.7955171237
 20
20.9818324304
 30
0.0
 10
13.67829174
 20
20.752404058
 30
0.0
 10
13.6396134824
 20
20.5884289413
 30
0.0
 10
13.6313733275
 20
20.5069661137
 30
0.0
 11
18.5574399164
 21
21.8071723462
 31
0.0
 11
17.8243219632
 21
21.9988759096
 31
0.0
 11
17.0202556093
 21
22.0856598111
 31
0.0
 11
16.1998957772
 21
22.0622315934
 31
0.0
 11
15.419451306
 21
21.9300607699
 31
0.0
 11
15.0608736091
 21
21.8254287654
 31
0.0
 11
14.7313704821
 21
21.69692516
 31
0.0
 11
14.4361414954
 21
21.546077132
 31
0.0
 11
14.1797797699
 21
21.3743550859
 31
0.0
 11
13.9664343698
 21
21.183007714
 31
0.0
 11
13.8003652713
 21
20.9729083046
 31
0.0
 11
13.6867912273
 21
20.7462686174
 31
0.0
 11
13.6313733275
 21
20.5069661137
 31
0.0
  0
SPLINE
  5
4D9
100
AcDbEntity
  8
0
100
AcDbSpline
 62
7
  6
CONTINUOUS
 70
0
 71
3
 72
9
 73
5
 74
3
 42
0.0000001
 43
0.0000001
 44
0.0000000001
 12
-0.029686505
 22
0.0206390688
 32
0.0
 13
-0.0357969914
 23
0.0050828283
 33
0.0
 40
0.0
 40
0.0
 40
0.0
 40
0.0
 40
0.7456622822
 40
1.0
 40
1.0
 40
1.0
 40
1.0
 10
19.2974056426
 20
21.4390879986
 30
0.0
 10
19.2900269403
 20
21.4442179236
 30
0.0
 10
19.2787463543
 20
21.4493554189
 30
0.0
 10
19.2669139482
 20
21.4516900452
 30
0.0
 10
19.2638791065
 20
21.4521209635
 30
0.0
 11
19.2974056426
 21
21.4390879986
 31
0.0
 11
19.2728971066
 21
21.4503211671
 31
0.0
 11
19.2638791065
 21
21.4521209635
 31
0.0
  0
SPLINE
  5
4DA
100
AcDbEntity
  8
0
100
AcDbSpline
 62
7
  6
CONTINUOUS
 70
0
 71
3
 72
11
 73
7
 74
5
 42
0.0000001
 43
0.0000001
 44
0.0000000001
 12
-0.1170061954
 22
1.1567325725
 32
0.0
 13
-0.9544335872
 23
0.6639105525
 33
0.0
 40
0.0
 40
0.0
 40
0.0
 40
0.0
 40
0.2305831964
 40
0.469922972
 40
0.7248063438
 40
1.0
 40
1.0
 40
1.0
 40
1.0
 10
19.9342053011
 20
20.5069661137
 30
0.0
 10
19.9252120803
 20
20.5958738117
 30
0.0
 10
19.880579457
 20
20.775227834
 30
0.0
 10
19.743739402
 20
21.0234044447
 30
0.0
 10
19.5460497131
 20
21.2491120413
 30
0.0
 10
19.3849705086
 20
21.3781707913
 30
0.0
 10
19.2974191524
 20
21.4390721154
 30
0.0
 11
19.9342053011
 21
20.5069661137
 31
0.0
 11
19.8707964142
 21
20.7674434142
 31
0.0
 11
19.7387762133
 21
21.0123964648
 31
0.0
 11
19.5455146813
 21
21.2370411531
 31
0.0
 11
19.2974191524
 21
21.4390721154
 31
0.0
  0
SPLINE
  5
4DB
100
AcDbEntity
  8
0
100
AcDbSpline
 62
7
  6
CONTINUOUS
 70
0
 71
3
 72
9
 73
5
 74
3
 42
0.0000001
 43
0.0000001
 44
0.0000000001
 12
1.1723450557
 22
0.0142789549
 32
0.0
 13
1.1480684581
 23
0.2377722309
 33
0.0
 40
0.0
 40
0.0
 40
0.0
 40
0.0
 40
0.5072302643
 40
1.0
 40
1.0
 40
1.0
 40
1.0
 10
16.861910563
 20
17.8667716553
 30
0.0
 10
17.0601268605
 20
17.8691858947
 30
0.0
 10
17.4509015351
 20
17.8917384661
 30
0.0
 10
17.8379326726
 20
17.9509299198
 30
0.0
 10
18.0265104695
 20
17.989985573
 30
0.0
 11
16.861910563
 21
17.8667716553
 31
0.0
 11
17.4555891967
 21
17.901491133
 31
0.0
 11
18.0265104695
 21
17.989985573
 31
0.0
  0
SPLINE
  5
4DC
100
AcDbEntity
  8
0
100
AcDbSpline
 62
7
  6
CONTINUOUS
 70
0
 71
3
 72
9
 73
5
 74
3
 42
0.0000001
 43
0.0000001
 44
0.0000000001
 12
0.888957766
 22
0.2191961398
 32
0.0
 13
0.8189226373
 23
0.4094613187
 33
0.0
 40
0.0
 40
0.0
 40
0.0
 40
0.0
 40
0.5194642307
 40
1.0
 40
1.0
 40
1.0
 40
1.0
 10
18.2202614192
 20
18.0338802307
 30
0.0
 10
18.3741886732
 20
18.0718350821
 30
0.0
 10
18.6673619372
 20
18.1585950769
 30
0.0
 10
18.94971248
 20
18.2766543573
 30
0.0
 10
19.0808863532
 20
18.3422412939
 30
0.0
 11
18.2202614192
 21
18.0338802307
 31
0.0
 11
18.6758542848
 21
18.1704184058
 31
0.0
 11
19.0808863532
 21
18.3422412939
 31
0.0
  0
SPLINE
  5
4DD
100
AcDbEntity
  8
0
100
AcDbSpline
 62
7
  6
CONTINUOUS
 70
0
 71
3
 72
14
 73
10
 74
8
 42
0.0000001
 43
0.0000001
 44
0.0000000001
 12
0.1659842488
 22
-1.6409147225
 32
0.0
 13
-1.4751683016
 23
-0.7375841508
 33
0.0
 40
0.0
 40
0.0
 40
0.0
 40
0.0
 40
0.1029063546
 40
0.207532371
 40
0.3169817379
 40
0.4337828166
 40
0.5597356371
 40
0.6959255685
 40
1.0
 40
1.0
 40
1.0
 40
1.0
 10
20.0286396287
 20
19.5733730337
 30
0.0
 10
20.03433324
 20
19.5170861829
 30
0.0
 10
20.0339429367
 20
19.4019991286
 30
0.0
 10
19.9967733728
 20
19.2305592599
 30
0.0
 10
19.9239230684
 20
19.0627246903
 30
0.0
 10
19.816736565
 20
18.9004660754
 30
0.0
 10
19.6767266728
 20
18.7452750059
 30
0.0
 10
19.4398356012
 20
18.5423644081
 30
0.0
 10
19.2304066741
 20
18.4170014543
 30
0.0
 10
19.0808863532
 20
18.3422412939
 30
0.0
 11
20.0286396287
 21
19.5733730337
 31
0.0
 11
20.028058685
 21
19.4036517813
 31
0.0
 11
19.9920765837
 21
19.2348865238
 31
0.0
 11
19.9210858715
 21
19.0689182611
 31
0.0
 11
19.815860786
 21
18.9075573865
 31
0.0
 11
19.677549678
 21
18.7525643723
 31
0.0
 11
19.5076597065
 21
18.605629176
 31
0.0
 11
19.0808863532
 21
18.3422412939
 31
0.0
  0
LINE
  5
4DE
100
AcDbEntity
  8
0
100
AcDbLine
 62
7
  6
CONTINUOUS
 10
18.6322823134
 20
21.705572736
 11
18.6498729585
 21
21.471205349
  0
LINE
  5
4DF
100
AcDbEntity
  8
0
100
AcDbLine
 62
7
  6
CONTINUOUS
 10
14.9332963153
 20
19.1489729558
 11
14.9157056702
 21
18.8970149237
  0
SPLINE
  5
4E0
100
AcDbEntity
  8
0
100
AcDbSpline
 62
7
  6
CONTINUOUS
 70
0
 71
3
 72
11
 73
7
 74
5
 42
0.0000001
 43
0.0000001
 44
0.0000000001
 12
1.5905236038
 22
0.6200797985
 32
0.0
 13
1.6939145527
 23
-0.2119381491
 33
0.0
 40
0.0
 40
0.0
 40
0.0
 40
0.0
 40
0.2675235063
 40
0.522426606
 40
0.7659608668
 40
1.0
 40
1.0
 40
1.0
 40
1.0
 10
16.8396897423
 20
21.5661067832
 30
0.0
 10
16.9815238928
 20
21.6214020905
 30
0.0
 10
17.2641639738
 20
21.7156658253
 30
0.0
 10
17.6915062111
 20
21.8063654839
 30
0.0
 10
18.1079117646
 20
21.8418948487
 30
0.0
 10
18.3803898319
 20
21.8281149954
 30
0.0
 10
18.5125372631
 20
21.8115810552
 30
0.0
 11
16.8396897423
 21
21.5661067832
 31
0.0
 11
17.2733073279
 21
21.709446466
 31
0.0
 11
17.6992274141
 21
21.7985987097
 31
0.0
 11
18.113565106
 21
21.8327482621
 31
0.0
 11
18.5125372631
 21
21.8115810552
 31
0.0
  0
SPLINE
  5
4E1
100
AcDbEntity
  8
0
100
AcDbSpline
 62
7
  6
CONTINUOUS
 70
0
 71
3
 72
9
 73
5
 74
3
 42
0.0000001
 43
0.0000001
 44
0.0000000001
 12
-0.5581118884
 22
0.1639289148
 32
0.0
 13
-0.5769162525
 23
0.0743586357
 33
0.0
 40
0.0
 40
0.0
 40
0.0
 40
0.0
 40
0.2560892103
 40
1.0
 40
1.0
 40
1.0
 40
1.0
 10
16.2680150322
 20
21.6419789074
 30
0.0
 10
16.2203728879
 20
21.6559723828
 30
0.0
 10
16.0333623331
 20
21.7072064052
 30
0.0
 10
15.842419169
 20
21.7444010965
 30
0.0
 10
15.699361094
 20
21.762839827
 30
0.0
 11
16.2680150322
 21
21.6419789074
 31
0.0
 11
16.1243322102
 21
21.6812926205
 31
0.0
 11
15.699361094
 21
21.762839827
 31
0.0
  0
SPLINE
  5
4E2
100
AcDbEntity
  8
0
100
AcDbSpline
 62
253
  6
CONTINUOUS
 70
0
 71
3
 72
13
 73
9
 74
7
 42
0.0000001
 43
0.0000001
 44
0.0000000001
 12
-0.1232536773
 22
-1.2177419822
 32
0.0
 13
1.0068727634
 23
-0.695912525
 33
0.0
 40
0.0
 40
0.0
 40
0.0
 40
0.0
 40
0.1090307788
 40
0.2189987191
 40
0.3321443526
 40
0.450434519
 40
0.7079351657
 40
1.0
 40
1.0
 40
1.0
 40
1.0
 10
13.6313771027
 20
20.5069660182
 30
0.0
 10
13.6268976212
 20
20.4627088993
 30
0.0
 10
13.6253999599
 20
20.3728643435
 30
0.0
 10
13.6462107591
 20
20.2383491827
 30
0.0
 10
13.6898175106
 20
20.1054402072
 30
0.0
 10
13.7801654657
 20
19.9268517387
 30
0.0
 10
13.9529304313
 20
19.7123184201
 30
0.0
 10
14.1281654919
 20
19.5702768718
 30
0.0
 10
14.2261895341
 20
19.5025263464
 30
0.0
 11
13.6313771027
 21
20.5069660182
 31
0.0
 11
13.6291786798
 21
20.3735344182
 31
0.0
 11
13.6495386121
 21
20.2404864522
 31
0.0
 11
13.692316526
 21
20.1087728933
 31
0.0
 11
13.7571932226
 21
19.9793391585
 31
0.0
 11
13.9512494384
 21
19.7309942058
 31
0.0
 11
14.2261895341
 21
19.5025263464
 31
0.0
  0
SPLINE
  5
4E3
100
AcDbEntity
  8
0
100
AcDbSpline
 62
7
  6
CONTINUOUS
 70
0
 71
3
 72
9
 73
5
 74
3
 42
0.0000001
 43
0.0000001
 44
0.0000000001
 12
1.4965688059
 22
1.7090671732
 32
0.0
 13
1.9392383267
 23
1.1832089864
 33
0.0
 40
0.0
 40
0.0
 40
0.0
 40
0.0
 40
0.5178322964
 40
1.0
 40
1.0
 40
1.0
 40
1.0
 10
14.3016995222
 20
19.6781379526
 30
0.0
 10
14.5600234094
 20
19.9731413456
 30
0.0
 10
15.096152856
 20
20.5115926189
 30
0.0
 10
15.7071027416
 20
20.965484578
 30
0.0
 10
16.0187821052
 20
21.1556529647
 30
0.0
 11
14.3016995222
 21
19.6781379526
 31
0.0
 11
15.1353368166
 21
20.5081216599
 31
0.0
 11
16.0187821052
 21
21.1556529647
 31
0.0
  0
LINE
  5
4E4
100
AcDbEntity
  8
0
100
AcDbLine
 62
7
  6
CONTINUOUS
 10
14.208598889
 20
19.2505683143
 11
14.2261895341
 21
19.5025263464
  0
SPLINE
  5
4E5
100
AcDbEntity
  8
0
100
AcDbSpline
 62
253
  6
CONTINUOUS
 70
0
 71
3
 72
14
 73
10
 74
8
 42
0.0000001
 43
0.0000001
 44
0.0000000001
 12
1.4322462496
 22
0.7161231248
 32
0.0
 13
-0.1612118234
 23
1.5931642719
 33
0.0
 40
0.0
 40
0.0
 40
0.0
 40
0.0
 40
0.3040577776
 40
0.440244719
 40
0.5662017727
 40
0.6830084595
 40
0.7924619902
 40
0.897091085
 40
1.0
 40
1.0
 40
1.0
 40
1.0
 10
19.0140251591
 20
19.3116549236
 30
0.0
 10
19.1591870296
 20
19.3842358588
 30
0.0
 10
19.3625122522
 20
19.5059464072
 30
0.0
 10
19.5925094505
 20
19.7029418197
 30
0.0
 10
19.7284477888
 20
19.8536206729
 30
0.0
 10
19.832521762
 20
20.011162137
 30
0.0
 10
19.9032653199
 20
20.1741160952
 30
0.0
 10
19.9393467417
 20
20.3405743466
 30
0.0
 10
19.9397316746
 20
20.452315752
 30
0.0
 10
19.93420163
 20
20.5069660209
 30
0.0
 11
19.0140251591
 21
19.3116549236
 31
0.0
 11
19.4283593425
 21
19.5673634135
 31
0.0
 11
19.5933051547
 21
19.7100171381
 31
0.0
 11
19.7275973067
 21
19.8605046872
 31
0.0
 11
19.8297688288
 21
20.0171759805
 31
0.0
 11
19.8987022423
 21
20.1783188809
 31
0.0
 11
19.9336363399
 21
20.3421789462
 31
0.0
 11
19.93420163
 21
20.5069660209
 31
0.0
  0
SPLINE
  5
4E6
100
AcDbEntity
  8
0
100
AcDbSpline
 62
253
  6
CONTINUOUS
 70
0
 71
3
 72
15
 73
11
 74
9
 42
0.0000001
 43
0.0000001
 44
0.0000000001
 12
3.9295981376
 22
-1.4213730872
 32
0.0
 13
3.7375974076
 23
1.8687987037
 33
0.0
 40
0.0
 40
0.0
 40
0.0
 40
0.0
 40
0.1192556176
 40
0.2459291734
 40
0.3773050017
 40
0.5103767428
 40
0.6420529517
 40
0.7693185465
 40
0.889404533
 40
1.0
 40
1.0
 40
1.0
 40
1.0
 10
14.9332963153
 20
19.1489729558
 30
0.0
 10
15.0895051996
 20
19.092470714
 30
0.0
 10
15.4189372876
 20
18.9955800522
 30
0.0
 10
15.9363005643
 20
18.8990020942
 30
0.0
 10
16.4795288352
 20
18.8487338451
 30
0.0
 10
17.0319936024
 20
18.8463760065
 30
0.0
 10
17.5768521007
 20
18.8919762617
 30
0.0
 10
18.0975374812
 20
18.9841548622
 30
0.0
 10
18.5781507884
 20
19.1200130588
 30
0.0
 10
18.8762380489
 20
19.2427613685
 30
0.0
 10
19.0140251591
 20
19.3116549236
 30
0.0
 11
14.9332963153
 21
19.1489729558
 31
0.0
 11
15.4108319118
 21
19.0064835746
 31
0.0
 11
15.930952992
 21
18.9081305523
 31
0.0
 11
16.4775504106
 21
18.8569516223
 31
0.0
 11
17.0336202021
 21
18.8545462875
 31
0.0
 11
17.5819004818
 21
18.9009847637
 31
0.0
 11
18.1053675412
 21
18.99482915
 31
0.0
 11
18.5877373017
 21
19.1331524033
 31
0.0
 11
19.0140251591
 21
19.3116549236
 31
0.0
  0
SPLINE
  5
4E7
100
AcDbEntity
  8
0
100
AcDbSpline
 62
7
  6
CONTINUOUS
 70
0
 71
3
 72
9
 73
5
 74
3
 42
0.0000001
 43
0.0000001
 44
0.0000000001
 12
-0.7446962051
 22
0.2700674532
 32
0.0
 13
-0.6522013361
 23
0.4496023625
 33
0.0
 40
0.0
 40
0.0
 40
0.0
 40
0.0
 40
0.523637549
 40
1.0
 40
1.0
 40
1.0
 40
1.0
 10
14.9157056702
 20
18.8970149237
 30
0.0
 10
14.7857220383
 20
18.9441540767
 30
0.0
 10
14.5417972178
 20
19.0468047652
 30
0.0
 10
14.312160298
 20
19.1791770865
 30
0.0
 10
14.208598889
 20
19.2505683143
 30
0.0
 11
14.9157056702
 21
18.8970149237
 31
0.0
 11
14.5341833373
 21
19.0598071478
 31
0.0
 11
14.208598889
 21
19.2505683143
 31
0.0
  0
LINE
  5
4E8
100
AcDbEntity
  8
0
100
AcDbLine
 62
253
  6
CONTINUOUS
 10
15.8008451513
 20
19.1212970561
 11
15.8065645743
 21
19.1203277504
  0
SPLINE
  5
4E9
100
AcDbEntity
  8
0
100
AcDbSpline
 62
253
  6
CONTINUOUS
 70
0
 71
3
 72
11
 73
7
 74
5
 42
0.0000001
 43
0.0000001
 44
0.0000000001
 12
2.4609217233
 22
-0.4157102969
 32
0.0
 13
2.4020156686
 23
0.6776957336
 33
0.0
 40
0.0
 40
0.0
 40
0.0
 40
0.0
 40
0.2513654743
 40
0.5073778166
 40
0.7596247699
 40
1.0
 40
1.0
 40
1.0
 40
1.0
 10
15.8065645743
 20
19.1203277504
 30
0.0
 10
16.012761493
 20
19.0854960118
 30
0.0
 10
16.4332920343
 20
19.0390822107
 30
0.0
 10
17.0663235346
 20
19.0356710399
 30
0.0
 10
17.6872015047
 20
19.0971896775
 30
0.0
 10
18.0891946495
 20
19.1826560557
 30
0.0
 10
18.2816563392
 20
19.2369564783
 30
0.0
 11
15.8065645743
 21
19.1203277504
 31
0.0
 11
16.4300030094
 21
19.050339955
 31
0.0
 11
17.0689455432
 21
19.0468299798
 31
0.0
 11
17.6953268428
 21
19.1099601683
 31
0.0
 11
18.2816563392
 21
19.2369564783
 31
0.0
  0
SPLINE
  5
4EA
100
AcDbEntity
  8
0
100
AcDbSpline
 62
253
  6
CONTINUOUS
 70
0
 71
3
 72
20
 73
16
 74
14
 42
0.0000001
 43
0.0000001
 44
0.0000000001
 12
2.8080651128
 22
0.9805421636
 32
0.0
 13
-2.4090404811
 23
1.7444817491
 33
0.0
 40
0.0
 40
0.0
 40
0.0
 40
0.0
 40
0.1656013981
 40
0.3124846218
 40
0.3786890381
 40
0.4402201511
 40
0.4975338106
 40
0.5513659586
 40
0.6027527306
 40
0.6529751043
 40
0.7034511497
 40
0.7555680184
 40
0.868922228
 40
0.9320920896
 40
1.0
 40
1.0
 40
1.0
 40
1.0
 10
18.5291529537
 20
19.314825863
 30
0.0
 10
18.6841594565
 20
19.3689522474
 30
0.0
 10
18.9709130646
 20
19.4890008396
 30
0.0
 10
19.2923340767
 20
19.6874771837
 30
0.0
 10
19.4987683379
 20
19.8658371494
 30
0.0
 10
19.6225133038
 20
20.0019841252
 30
0.0
 10
19.7193272697
 20
20.1439523442
 30
0.0
 10
19.7880124211
 20
20.290583511
 30
0.0
 10
19.8276142585
 20
20.4404599602
 30
0.0
 10
19.837328746
 20
20.5919105111
 30
0.0
 10
19.8170000419
 20
20.7430331708
 30
0.0
 10
19.7485370823
 20
20.9470668598
 30
0.0
 10
19.6199186411
 20
21.1389039185
 30
0.0
 10
19.4488528838
 20
21.3108304367
 30
0.0
 10
19.3470894268
 20
21.3922252912
 30
0.0
 10
19.2925584584
 20
21.4317133279
 30
0.0
 11
18.5291529537
 21
19.314825863
 31
0.0
 11
18.9820446465
 21
19.5084730868
 31
0.0
 11
19.3509848645
 21
19.7424553303
 31
0.0
 11
19.4994333741
 21
19.8718319608
 31
0.0
 11
19.6218914343
 21
20.0078403817
 31
0.0
 11
19.7171985811
 21
20.1491791778
 31
0.0
 11
19.7844237087
 21
20.2944981861
 31
0.0
 11
19.8229499655
 21
20.4424045992
 31
0.0
 11
19.8323805241
 21
20.5914849827
 31
0.0
 11
19.8126485979
 21
20.7403155245
 31
0.0
 11
19.7639217043
 21
20.8874712014
 31
0.0
 11
19.5816930188
 21
21.1711354816
 31
0.0
 11
19.4498396195
 21
21.3049891375
 31
0.0
 11
19.2925584584
 21
21.4317133279
 31
0.0
  0
SPLINE
  5
4EB
100
AcDbEntity
  8
0
100
AcDbSpline
 62
253
  6
CONTINUOUS
 70
0
 71
3
 72
10
 73
6
 74
4
 42
0.0000001
 43
0.0000001
 44
0.0000000001
 12
-1.3899468603
 22
0.4969070696
 32
0.0
 13
-1.4739409382
 23
0.0797936157
 33
0.0
 40
0.0
 40
0.0
 40
0.0
 40
0.0
 40
0.2354019113
 40
0.4825056736
 40
1.0
 40
1.0
 40
1.0
 40
1.0
 10
18.5567723253
 20
21.8056743541
 30
0.0
 10
18.4477069428
 20
21.8446653121
 30
0.0
 10
18.220546235
 20
21.914784037
 30
0.0
 10
17.7403983711
 20
22.0236384899
 30
0.0
 10
17.365228376
 20
22.0675370105
 30
0.0
 10
17.1109763517
 20
22.0813012583
 30
0.0
 11
18.5567723253
 21
21.8056743541
 31
0.0
 11
18.2249811203
 21
21.9088953233
 31
0.0
 11
17.8693850467
 21
21.9900972624
 31
0.0
 11
17.1109763517
 21
22.0813012583
 31
0.0
  0
SPLINE
  5
4EC
100
AcDbEntity
  8
0
100
AcDbSpline
 62
253
  6
CONTINUOUS
 70
0
 71
3
 72
9
 73
5
 74
3
 42
0.0000001
 43
0.0000001
 44
0.0000000001
 12
-1.6253671908
 22
0.0879912631
 32
0.0
 13
-1.5851491486
 23
-0.3699501913
 33
0.0
 40
0.0
 40
0.0
 40
0.0
 40
0.0
 40
0.5084238712
 40
1.0
 40
1.0
 40
1.0
 40
1.0
 10
17.1109763517
 20
22.0813012583
 30
0.0
 10
16.8355178586
 20
22.0962135445
 30
0.0
 10
16.2911883872
 20
22.088724981
 30
0.0
 10
15.7524922732
 20
22.0076521658
 30
0.0
 10
15.4927517791
 20
21.9470326048
 30
0.0
 11
17.1109763517
 21
22.0813012583
 31
0.0
 11
16.2834738583
 21
22.0695776668
 31
0.0
 11
15.4927517791
 21
21.9470326048
 31
0.0
  0
SPLINE
  5
4ED
100
AcDbEntity
  8
0
100
AcDbSpline
 62
253
  6
CONTINUOUS
 70
0
 71
3
 72
22
 73
18
 74
16
 42
0.0000001
 43
0.0000001
 44
0.0000000001
 12
-3.3941795964
 22
-0.7921509419
 32
0.0
 13
2.856284558
 23
-1.9973974995
 33
0.0
 40
0.0
 40
0.0
 40
0.0
 40
0.0
 40
0.1710776108
 40
0.2502221371
 40
0.3244431544
 40
0.3934777604
 40
0.4572716545
 40
0.5160443359
 40
0.5703496505
 40
0.6211229528
 40
0.6696927945
 40
0.7176792904
 40
0.7667892025
 40
0.8185603089
 40
0.8742050828
 40
0.9345615816
 40
1.0
 40
1.0
 40
1.0
 40
1.0
 10
15.4927517791
 20
21.9470326048
 30
0.0
 10
15.2991957338
 20
21.901859508
 30
0.0
 10
15.0193273355
 20
21.8187192435
 30
0.0
 10
14.6724427256
 20
21.6703964961
 30
0.0
 10
14.4440554262
 20
21.5487745206
 30
0.0
 10
14.2433801526
 20
21.4153431605
 30
0.0
 10
14.0727575392
 20
21.2715044736
 30
0.0
 10
13.9342332368
 20
21.1187538186
 30
0.0
 10
13.8296028547
 20
20.9586180947
 30
0.0
 10
13.7605998309
 20
20.7927355681
 30
0.0
 10
13.7286796225
 20
20.6232092734
 30
0.0
 10
13.7347543954
 20
20.4526841555
 30
0.0
 10
13.7786727729
 20
20.2840657807
 30
0.0
 10
13.8592063716
 20
20.119818038
 30
0.0
 10
13.9748526317
 20
19.961843846
 30
0.0
 10
14.1238409217
 20
19.8118144246
 30
0.0
 10
14.2393959408
 20
19.721706797
 30
0.0
 10
14.3016995222
 20
19.6781379526
 30
0.0
 11
15.4927517791
 21
21.9470326048
 31
0.0
 11
14.9222697199
 21
21.7735645025
 31
0.0
 11
14.6689042036
 21
21.6644820712
 31
0.0
 11
14.4409484502
 21
21.542185899
 31
0.0
 11
14.2411246421
 21
21.4081526806
 31
0.0
 11
14.0718494937
 21
21.2639861276
 31
0.0
 11
13.9351522185
 21
21.1114224574
 31
0.0
 11
13.8326650276
 21
20.9522950843
 31
0.0
 11
13.7656419767
 21
20.7885132933
 31
0.0
 11
13.7348654376
 21
20.6220494928
 31
0.0
 11
13.7407150299
 21
20.4549000633
 31
0.0
 11
13.7831350783
 21
20.2890724893
 31
0.0
 11
13.8615749039
 21
20.1265710188
 31
0.0
 11
13.9751239433
 21
19.9693424107
 31
0.0
 11
14.1224900942
 21
19.8192187982
 31
0.0
 11
14.3016995222
 21
19.6781379526
 31
0.0
  0
SPLINE
  5
4EE
100
AcDbEntity
  8
0
100
AcDbSpline
 62
7
  6
CONTINUOUS
 70
0
 71
3
 72
9
 73
5
 74
3
 42
0.0000001
 43
0.0000001
 44
0.0000000001
 12
0.0134783704
 22
0.193037702
 32
0.0
 13
0.1274804467
 23
0.1455814432
 33
0.0
 40
0.0
 40
0.0
 40
0.0
 40
0.0
 40
0.4926142146
 40
1.0
 40
1.0
 40
1.0
 40
1.0
 10
14.2261895341
 20
19.5025263464
 30
0.0
 10
14.2284027464
 20
19.5342240517
 30
0.0
 10
14.2456188191
 20
19.5977746194
 30
0.0
 10
14.2801389333
 20
19.6535159676
 30
0.0
 10
14.3016995222
 20
19.6781379526
 30
0.0
 11
14.2261895341
 21
19.5025263464
 31
0.0
 11
14.249563661
 21
19.594940824
 31
0.0
 11
14.3016995222
 21
19.6781379526
 31
0.0
  0
SPLINE
  5
4EF
100
AcDbEntity
  8
0
100
AcDbSpline
 62
7
  6
CONTINUOUS
 70
0
 71
3
 72
9
 73
5
 74
3
 42
0.0000001
 43
0.0000001
 44
0.0000000001
 12
-0.5458959128
 22
0.4755354833
 32
0.0
 13
-0.5913516964
 23
0.4176595678
 33
0.0
 40
0.0
 40
0.0
 40
0.0
 40
0.0
 40
0.2546885217
 40
1.0
 40
1.0
 40
1.0
 40
1.0
 10
18.3611922815
 20
20.4319242332
 30
0.0
 10
18.3148478071
 20
20.4722953763
 30
0.0
 10
18.1309850012
 20
20.6286087437
 30
0.0
 10
17.939452079
 20
20.7759550951
 30
0.0
 10
17.7925383433
 20
20.8797172518
 30
0.0
 11
18.3611922815
 21
20.4319242332
 31
0.0
 11
18.2206947831
 21
20.5513361606
 31
0.0
 11
17.7925383433
 21
20.8797172518
 31
0.0
  0
SPLINE
  5
4F0
100
AcDbEntity
  8
0
100
AcDbSpline
 62
7
  6
CONTINUOUS
 70
0
 71
3
 72
9
 73
5
 74
3
 42
0.0000001
 43
0.0000001
 44
0.0000000001
 12
-0.2646005329
 22
0.3179622526
 32
0.0
 13
-0.2887209004
 23
0.2962324725
 33
0.0
 40
0.0
 40
0.0
 40
0.0
 40
0.0
 40
0.2567850632
 40
1.0
 40
1.0
 40
1.0
 40
1.0
 10
17.7925383433
 20
20.8797172518
 30
0.0
 10
17.7698898551
 20
20.9069332375
 30
0.0
 10
17.680732665
 20
21.0121176125
 30
0.0
 10
17.5876686175
 20
21.1140136204
 30
0.0
 10
17.516141389
 20
21.1874017531
 30
0.0
 11
17.7925383433
 21
20.8797172518
 31
0.0
 11
17.7238437732
 21
20.9607359601
 31
0.0
 11
17.516141389
 21
21.1874017531
 31
0.0
  0
SPLINE
  5
4F1
100
AcDbEntity
  8
0
100
AcDbSpline
 62
7
  6
CONTINUOUS
 70
0
 71
3
 72
8
 73
4
 74
2
 42
0.0000001
 43
0.0000001
 44
0.0000000001
 12
0.0160449254
 22
-0.002278225
 32
0.0
 13
0.0152572458
 23
-0.005463185
 33
0.0
 40
0.0
 40
0.0
 40
0.0
 40
0.0
 40
1.0
 40
1.0
 40
1.0
 40
1.0
 10
18.5567723253
 20
21.8056743541
 30
0.0
 10
18.5621206338
 20
21.8049149458
 30
0.0
 10
18.5674239612
 20
21.8036269964
 30
0.0
 10
18.5725097098
 20
21.8018059347
 30
0.0
 11
18.5567723253
 21
21.8056743541
 31
0.0
 11
18.5725097098
 21
21.8018059347
 31
0.0
  0
SPLINE
  5
4F2
100
AcDbEntity
  8
RACCORDO
100
AcDbSpline
 62
7
  6
CONTINUOUS
 70
0
 71
3
 72
28
 73
24
 74
22
 42
0.0000001
 43
0.0000001
 44
0.0000000001
 12
-14.2346494754
 22
3.2106319406
 32
0.0
 13
-2.380390108
 23
14.3967755445
 33
0.0
 40
0.0
 40
0.0
 40
0.0
 40
0.0
 40
0.0581423607
 40
0.1230656182
 40
0.1936729333
 40
0.2686118994
 40
0.3463273126
 40
0.4251963436
 40
0.5035499213
 40
0.5797391187
 40
0.6521822115
 40
0.7194216565
 40
0.7802120982
 40
0.8336499543
 40
0.8793969558
 40
0.8995808592
 40
0.9183424462
 40
0.9363058967
 40
0.9546633053
 40
0.9645680181
 40
0.975264669
 40
0.9870125571
 40
1.0
 40
1.0
 40
1.0
 40
1.0
 10
-6.9829690187
 20
-18.7239758416
 30
0.0
 10
-7.2588477269
 20
-18.6617512681
 30
0.0
 10
-7.8399300944
 20
-18.5173363396
 30
0.0
 10
-8.7467693385
 20
-18.2618384377
 30
0.0
 10
-9.724867849
 20
-17.9592339612
 30
0.0
 10
-10.755107542
 20
-17.6155956785
 30
0.0
 10
-11.816135723
 20
-17.2379867662
 30
0.0
 10
-12.8853562792
 20
-16.8344839831
 30
0.0
 10
-13.9399090919
 20
-16.4137028721
 30
0.0
 10
-14.9572810673
 20
-15.9846293673
 30
0.0
 10
-15.9160585675
 20
-15.5562986526
 30
0.0
 10
-16.7967148897
 20
-15.1373752329
 30
0.0
 10
-17.5828264906
 20
-14.7355904788
 30
0.0
 10
-18.2625170934
 20
-14.3564072635
 30
0.0
 10
-18.7553635651
 20
-14.0485923889
 30
0.0
 10
-19.0909951741
 20
-13.8094953461
 30
0.0
 10
-19.3078192244
 20
-13.637151901
 30
0.0
 10
-19.5055046888
 20
-13.4558705196
 30
0.0
 10
-19.6544028183
 20
-13.2864786227
 30
0.0
 10
-19.7628119089
 20
-13.130761937
 30
0.0
 10
-19.8391274548
 20
-12.992795179
 30
0.0
 10
-19.9047570731
 20
-12.8329509228
 30
0.0
 10
-19.9337700457
 20
-12.7155643431
 30
0.0
 10
-19.9440751059
 20
-12.6532385764
 30
0.0
 11
-6.9829690187
 21
-18.7239758416
 31
0.0
 11
-7.8068301181
 21
-18.5212900714
 31
0.0
 11
-8.71906307
 21
-18.2656505038
 31
0.0
 11
-9.7036166947
 21
-17.9619881146
 31
0.0
 11
-10.7411301234
 21
-17.6164918805
 31
0.0
 11
-11.8096247817
 21
-17.2365314352
 31
0.0
 11
-12.88639328
 21
-16.8302256776
 31
0.0
 11
-13.9482616543
 21
-16.4063223748
 31
0.0
 11
-14.9724830342
 21
-15.973881555
 31
0.0
 11
-15.9373468754
 21
-15.5420104757
 31
0.0
 11
-16.8228930533
 21
-15.1195056545
 31
0.0
 11
-17.6119846309
 21
-14.7142586375
 31
0.0
 11
-18.2917399625
 21
-14.3321771455
 31
0.0
 11
-18.8556440311
 21
-13.9749143531
 31
0.0
 11
-19.0950320418
 21
-13.8033325633
 31
0.0
 11
-19.3087408155
 21
-13.632217076
 31
0.0
 11
-19.5008233341
 21
-13.4538499277
 31
0.0
 11
-19.6764018376
 21
-13.2515393646
 31
0.0
 11
-19.7585912815
 21
-13.1326512966
 31
0.0
 11
-19.8340636724
 21
-12.9960225851
 31
0.0
 11
-19.8986706801
 21
-12.8372350362
 31
0.0
 11
-19.9440751059
 21
-12.6532385764
 31
0.0
  0
SPLINE
  5
4F3
100
AcDbEntity
  8
0
100
AcDbSpline
 62
7
  6
CONTINUOUS
 70
0
 71
3
 72
9
 73
5
 74
3
 42
0.0000001
 43
0.0000001
 44
0.0000000001
 12
-0.0079954861
 22
-0.0542887417
 32
0.0
 13
0.0089492047
 23
-0.054139699
 33
0.0
 40
0.0
 40
0.0
 40
0.0
 40
0.0
 40
0.2396739785
 40
1.0
 40
1.0
 40
1.0
 40
1.0
 10
-20.0382024766
 20
-12.0350389099
 30
0.0
 10
-20.0388412466
 20
-12.0393761094
 30
0.0
 10
-20.0407209387
 20
-12.0575873137
 30
0.0
 10
-20.0394742961
 20
-12.0760548668
 30
0.0
 10
-20.0372061917
 20
-12.0897761407
 30
0.0
 11
-20.0382024766
 21
-12.0350389099
 31
0.0
 11
-20.0395626852
 21
-12.0481203386
 31
0.0
 11
-20.0372061917
 21
-12.0897761407
 31
0.0
  0
SPLINE
  5
4F4
100
AcDbEntity
  8
RACCORDO
100
AcDbSpline
 62
253
  6
CONTINUOUS
 70
0
 71
3
 72
22
 73
18
 74
16
 42
0.0000001
 43
0.0000001
 44
0.0000000001
 12
-12.4925207282
 22
3.6790699492
 32
0.0
 13
-2.1203393042
 23
12.8492330927
 33
0.0
 40
0.0
 40
0.0
 40
0.0
 40
0.0
 40
0.1515078193
 40
0.3151916476
 40
0.4805507748
 40
0.6369716516
 40
0.7086655966
 40
0.7744661479
 40
0.8333411636
 40
0.8843842335
 40
0.9268618297
 40
0.9447169956
 40
0.9602602408
 40
0.9734762456
 40
0.9844026144
 40
0.9931542069
 40
1.0
 40
1.0
 40
1.0
 40
1.0
 10
-8.2083002592
 20
-18.0231592276
 30
0.0
 10
-8.8392051169
 20
-17.8373566059
 30
0.0
 10
-10.1428893803
 20
-17.4206489067
 30
0.0
 10
-12.1073636619
 20
-16.71785741
 30
0.0
 10
-14.0683945979
 20
-15.9452374082
 30
0.0
 10
-15.6365208371
 20
-15.2670592683
 30
0.0
 10
-16.7916014262
 20
-14.7249208158
 30
0.0
 10
-17.5546692538
 20
-14.3447476854
 30
0.0
 10
-18.2277128966
 20
-13.9854674662
 30
0.0
 10
-18.799805095
 20
-13.6529817632
 30
0.0
 10
-19.2058996184
 20
-13.389929474
 30
0.0
 10
-19.4713583528
 20
-13.1947756931
 30
0.0
 10
-19.6283702966
 20
-13.0669495925
 30
0.0
 10
-19.7546388134
 20
-12.9495334706
 30
0.0
 10
-19.8499361804
 20
-12.8427317644
 30
0.0
 10
-19.9144015149
 20
-12.7468914779
 30
0.0
 10
-19.9392232116
 20
-12.6825646182
 30
0.0
 10
-19.9440616796
 20
-12.6532435546
 30
0.0
 11
-8.2083002592
 21
-18.0231592276
 31
0.0
 11
-10.0890171491
 21
-17.426522015
 31
0.0
 11
-12.0965688703
 21
-16.7098005346
 31
0.0
 11
-14.0998981176
 21
-15.9197904309
 31
0.0
 11
-15.9682483038
 21
-15.1080512599
 31
0.0
 11
-16.8131137347
 21
-14.7106307664
 31
0.0
 11
-17.5796486929
 21
-14.3275674892
 31
0.0
 11
-18.2553067762
 21
-13.9651307786
 31
0.0
 11
-18.828955821
 21
-13.6292763572
 31
0.0
 11
-19.2912634857
 21
-13.3254898141
 31
0.0
 11
-19.4782032763
 21
-13.1872048323
 31
0.0
 11
-19.6346416912
 21
-13.058749493
 31
0.0
 11
-19.7598647122
 21
-12.9406742472
 31
0.0
 11
-19.8534056986
 21
-12.8334468858
 31
0.0
 11
-19.9149132709
 21
-12.7374966862
 31
0.0
 11
-19.9440616796
 21
-12.6532435546
 31
0.0
  0
SPLINE
  5
4F5
100
AcDbEntity
  8
0
100
AcDbSpline
 62
7
  6
CONTINUOUS
 70
0
 71
3
 72
20
 73
16
 74
14
 42
0.0000001
 43
0.0000001
 44
0.0000000001
 12
1.3160003949
 22
-7.9613627621
 32
0.0
 13
7.5053705491
 23
-2.96387702
 33
0.0
 40
0.0
 40
0.0
 40
0.0
 40
0.0
 40
0.0163964501
 40
0.0269265063
 40
0.0391765391
 40
0.0690384809
 40
0.106192172
 40
0.1505591427
 40
0.2019082529
 40
0.2599346426
 40
0.3242287328
 40
0.4697616856
 40
0.6342542518
 40
0.8127927845
 40
1.0
 40
1.0
 40
1.0
 40
1.0
 10
-20.0372061917
 20
-12.0897761407
 30
0.0
 10
-20.0300136135
 20
-12.1332888364
 30
0.0
 10
-19.9979321572
 20
-12.2007960368
 30
0.0
 10
-19.9372462971
 20
-12.2866094782
 30
0.0
 10
-19.8445280344
 20
-12.3940609489
 30
0.0
 10
-19.6879442798
 20
-12.5393932039
 30
0.0
 10
-19.4518853647
 20
-12.7242118097
 30
0.0
 10
-19.1579182865
 20
-12.9277384747
 30
0.0
 10
-18.808123674
 20
-13.1484886168
 30
0.0
 10
-18.4049826861
 20
-13.3846200963
 30
0.0
 10
-17.7738095838
 20
-13.7321747052
 30
0.0
 10
-16.8756418342
 20
-14.1877959569
 30
0.0
 10
-15.6850475355
 20
-14.7444570995
 30
0.0
 10
-14.377254398
 20
-15.3138811997
 30
0.0
 10
-13.4661811278
 20
-15.6853207941
 30
0.0
 10
-12.9978279538
 20
-15.8702738488
 30
0.0
 11
-20.0372061917
 21
-12.0897761407
 31
0.0
 11
-19.9873723622
 21
-12.2123419606
 31
0.0
 11
-19.9388774197
 21
-12.2821154836
 31
0.0
 11
-19.8747847934
 21
-12.3573719145
 31
0.0
 11
-19.7004335372
 21
-12.5237063326
 31
0.0
 11
-19.4655964831
 21
-12.7100831165
 31
0.0
 11
-19.1720753493
 21
-12.9150705374
 31
0.0
 11
-18.8222041841
 21
-13.1370645026
 31
0.0
 11
-18.4185657246
 21
-13.3743886452
 31
0.0
 11
-17.9643936147
 21
-13.6251797183
 31
0.0
 11
-16.9185758017
 21
-14.1594022089
 31
0.0
 11
-15.7169496351
 21
-14.7232884153
 31
0.0
 11
-14.3964931306
 21
-15.2994878334
 31
0.0
 11
-12.9978279538
 21
-15.8702738488
 31
0.0
  0
SPLINE
  5
4F6
100
AcDbEntity
  8
RACCORDO
100
AcDbSpline
 62
7
  6
CONTINUOUS
 70
0
 71
3
 72
11
 73
7
 74
5
 42
0.0000001
 43
0.0000001
 44
0.0000000001
 12
-0.64987884
 22
0.32493942
 32
0.0
 13
-0.64987884
 23
-0.32493942
 33
0.0
 40
0.0
 40
0.0
 40
0.0
 40
0.0
 40
0.235180256
 40
0.5
 40
0.764819744
 40
1.0
 40
1.0
 40
1.0
 40
1.0
 10
-6.5870898039
 20
30.2569905569
 30
0.0
 10
-6.6380360279
 20
30.2824636689
 30
0.0
 10
-6.7552560543
 20
30.3186504944
 30
0.0
 10
-6.9406431945
 20
30.3363874058
 30
0.0
 10
-7.1260303347
 20
30.3186504944
 30
0.0
 10
-7.2432503611
 20
30.2824636689
 30
0.0
 10
-7.2941965851
 20
30.2569905569
 30
0.0
 11
-6.5870898039
 21
30.2569905569
 31
0.0
 11
-6.7491871494
 21
30.3110648125
 31
0.0
 11
-6.9406431945
 21
30.3302459792
 31
0.0
 11
-7.1320992396
 21
30.3110648125
 31
0.0
 11
-7.2941965851
 21
30.2569905569
 31
0.0
  0
SPLINE
  5
4F7
100
AcDbEntity
  8
RACCORDO
100
AcDbSpline
 62
7
  6
CONTINUOUS
 70
0
 71
3
 72
11
 73
7
 74
5
 42
0.0000001
 43
0.0000001
 44
0.0000000001
 12
0.0
 22
0.3850279568
 32
0.0
 13
-0.3443794739
 23
0.1721897369
 33
0.0
 40
0.0
 40
0.0
 40
0.0
 40
0.0
 40
0.2065170284
 40
0.4344984102
 40
0.6975276291
 40
1.0
 40
1.0
 40
1.0
 40
1.0
 10
21.343628053
 20
19.2372160407
 30
0.0
 10
21.343628053
 20
19.2637209839
 30
0.0
 10
21.3318874372
 20
19.3199030506
 30
0.0
 10
21.2830461985
 20
19.3966035574
 30
0.0
 10
21.2067946057
 20
19.4654260149
 30
0.0
 10
21.1440352366
 20
19.5026978739
 30
0.0
 10
21.1093134779
 20
19.5200587532
 30
0.0
 11
21.343628053
 21
19.2372160407
 31
0.0
 11
21.3282467102
 21
19.3152290038
 31
0.0
 11
21.2827399262
 21
19.3902911217
 31
0.0
 11
21.2087642166
 21
19.4594571321
 31
0.0
 11
21.1093134779
 21
19.5200587532
 31
0.0
  0
SPLINE
  5
4F8
100
AcDbEntity
  8
RACCORDO
100
AcDbSpline
 62
7
  6
CONTINUOUS
 70
0
 71
3
 72
9
 73
5
 74
3
 42
0.0000001
 43
0.0000001
 44
0.0000000001
 12
-0.0380493135
 22
0.2129124682
 32
0.0
 13
-0.1934517395
 23
0.0967258697
 33
0.0
 40
0.0
 40
0.0
 40
0.0
 40
0.0
 40
0.2101581456
 40
1.0
 40
1.0
 40
1.0
 40
1.0
 10
23.9630300598
 20
14.89966151
 30
0.0
 10
23.960364602
 20
14.9145766065
 30
0.0
 10
23.9343958773
 20
14.9833873393
 30
0.0
 10
23.8694338807
 20
15.0287287146
 30
0.0
 10
23.8185017871
 20
15.0541947614
 30
0.0
 11
23.9630300598
 21
14.89966151
 31
0.0
 11
23.9477273297
 21
14.9424623204
 31
0.0
 11
23.8185017871
 21
15.0541947614
 31
0.0
  0
SPLINE
  5
4F9
100
AcDbEntity
  8
RACCORDO
100
AcDbSpline
 62
7
  6
CONTINUOUS
 70
0
 71
3
 72
9
 73
5
 74
3
 42
0.0000001
 43
0.0000001
 44
0.0000000001
 12
-0.2131767177
 22
0.1065883588
 32
0.0
 13
0.0
 23
0.238338816
 33
0.0
 40
0.0
 40
0.0
 40
0.0
 40
0.0
 40
0.5679988369
 40
1.0
 40
1.0
 40
1.0
 40
1.0
 10
21.4900746624
 20
16.2184083237
 30
0.0
 10
21.4497132865
 20
16.2385890117
 30
0.0
 10
21.38082996
 20
16.2823490766
 30
0.0
 10
21.343628053
 20
16.3608641371
 30
0.0
 10
21.343628053
 20
16.395185019
 30
0.0
 11
21.4900746624
 21
16.2184083237
 31
0.0
 11
21.3816831322
 21
16.2995130934
 31
0.0
 11
21.343628053
 21
16.395185019
 31
0.0
  0
SPLINE
  5
4FA
100
AcDbEntity
  8
RACCORDO
100
AcDbSpline
 62
7
  6
CONTINUOUS
 70
0
 71
3
 72
9
 73
5
 74
3
 42
0.0000001
 43
0.0000001
 44
0.0000000001
 12
-0.3626551165
 22
0.0
 32
0.0
 13
-0.3243685971
 23
0.1621842986
 33
0.0
 40
0.0
 40
0.0
 40
0.0
 40
0.0
 40
0.269221611
 40
1.0
 40
1.0
 40
1.0
 40
1.0
 10
-3.9051092885
 20
29.0195536898
 30
0.0
 10
-3.9376541534
 20
29.0195536898
 30
0.0
 10
-4.058196942
 20
29.0255587757
 30
0.0
 10
-4.1796488255
 20
29.0532700677
 30
0.0
 10
-4.2586626791
 20
29.0927769945
 30
0.0
 11
-3.9051092885
 21
29.0195536898
 31
0.0
 11
-4.0026254924
 21
29.0243603594
 31
0.0
 11
-4.2586626791
 21
29.0927769945
 31
0.0
  0
SPLINE
  5
4FB
100
AcDbEntity
  8
0
100
AcDbSpline
 62
7
  6
CONTINUOUS
 70
0
 71
3
 72
11
 73
7
 74
5
 42
0.0000001
 43
0.0000001
 44
0.0000000001
 12
0.0
 22
1.4681175865
 32
0.0
 13
1.313124289
 23
0.6565621445
 33
0.0
 40
0.0
 40
0.0
 40
0.0
 40
0.0
 40
0.2465737242
 40
0.5117943593
 40
0.7705111068
 40
1.0
 40
1.0
 40
1.0
 40
1.0
 10
21.9800241561
 20
12.9153771514
 30
0.0
 10
21.9800241561
 20
13.0360435584
 30
0.0
 10
22.0221259869
 20
13.2868120803
 30
0.0
 10
22.1723003423
 20
13.6361859498
 30
0.0
 10
22.3948976224
 20
13.9341221051
 30
0.0
 10
22.5866817907
 20
14.0847313725
 30
0.0
 10
22.6871309372
 20
14.1349559458
 30
0.0
 11
21.9800241561
 21
12.9153771514
 31
0.0
 11
22.0339729902
 21
13.2733337957
 31
0.0
 11
22.187066702
 21
13.6313495319
 31
0.0
 11
22.4168850804
 21
13.9337594594
 31
0.0
 11
22.6871309372
 21
14.1349559458
 31
0.0
  0
SPLINE
  5
4FC
100
AcDbEntity
  8
RACCORDO
100
AcDbSpline
 62
7
  6
CONTINUOUS
 70
0
 71
3
 72
9
 73
5
 74
3
 42
0.0000001
 43
0.0000001
 44
0.0000000001
 12
0.2131211538
 22
0.1065605769
 32
0.0
 13
0.0
 23
0.2382766937
 33
0.0
 40
0.0
 40
0.0
 40
0.0
 40
0.0
 40
0.5671894298
 40
1.0
 40
1.0
 40
1.0
 40
1.0
 10
23.8185017871
 20
14.7006413708
 30
0.0
 10
23.8587951424
 20
14.7207880484
 30
0.0
 10
23.9274032065
 20
14.7647264317
 30
0.0
 10
23.9650126318
 20
14.8430418422
 30
0.0
 10
23.9650126318
 20
14.8774180661
 30
0.0
 11
23.8185017871
 21
14.7006413708
 31
0.0
 11
23.9266502985
 21
14.7816900435
 31
0.0
 11
23.9650126318
 21
14.8774180661
 31
0.0
  0
SPLINE
  5
4FD
100
AcDbEntity
  8
RACCORDO
100
AcDbSpline
 62
7
  6
CONTINUOUS
 70
0
 71
3
 72
9
 73
5
 74
3
 42
0.0000001
 43
0.0000001
 44
0.0000000001
 12
0.099203344
 22
0.2353740378
 32
0.0
 13
0.0
 23
0.2554256078
 33
0.0
 40
0.0
 40
0.0
 40
0.0
 40
0.0
 40
0.2334998814
 40
1.0
 40
1.0
 40
1.0
 40
1.0
 10
21.9339611276
 20
-6.8204448581
 30
0.0
 10
21.9416824506
 20
-6.8021249215
 30
0.0
 10
21.9698826973
 20
-6.7216268861
 30
0.0
 10
21.9800241561
 20
-6.6354556866
 30
0.0
 10
21.9800241561
 20
-6.5701944337
 30
0.0
 11
21.9339611276
 21
-6.8204448581
 31
0.0
 11
21.9538673544
 21
-6.7642230447
 31
0.0
 11
21.9800241561
 21
-6.5701944337
 31
0.0
  0
SPLINE
  5
4FE
100
AcDbEntity
  8
RACCORDO
100
AcDbSpline
 62
253
  6
CONTINUOUS
 70
0
 71
3
 72
23
 73
19
 74
17
 42
0.0000001
 43
0.0000001
 44
0.0000000001
 12
7.5575582221
 22
-6.0948627485
 32
0.0
 13
9.627336434
 23
-1.2563563943
 33
0.0
 40
0.0
 40
0.0
 40
0.0
 40
0.0
 40
0.1427754777
 40
0.2811241351
 40
0.3485530007
 40
0.4148089823
 40
0.4475174131
 40
0.4799432412
 40
0.5119787766
 40
0.5434267807
 40
0.574376141
 40
0.6050011449
 40
0.6653659545
 40
0.7244613147
 40
0.7822291007
 40
0.8386539704
 40
0.8937433647
 40
1.0
 40
1.0
 40
1.0
 40
1.0
 10
-11.220420266
 20
-17.7697488351
 30
0.0
 10
-10.8607422709
 20
-18.0598144819
 30
0.0
 10
-10.1381968789
 20
-18.6134476962
 30
0.0
 10
-9.2077465175
 20
-19.2521810478
 30
0.0
 10
-8.4620944148
 20
-19.7204235817
 30
0.0
 10
-7.9983957197
 20
-19.9943642941
 30
0.0
 10
-7.6282044368
 20
-20.2035989452
 30
0.0
 10
-7.3525452545
 20
-20.3549561178
 30
0.0
 10
-7.0780492314
 20
-20.4999275857
 30
0.0
 10
-6.8034292505
 20
-20.6341439798
 30
0.0
 10
-6.5297423186
 20
-20.7595905592
 30
0.0
 10
-6.1686909959
 20
-20.9189150662
 30
0.0
 10
-5.7201448396
 20
-21.1055031534
 30
0.0
 10
-5.1834287521
 20
-21.3081076991
 30
0.0
 10
-4.6517896429
 20
-21.4870392841
 30
0.0
 10
-4.1260048292
 20
-21.6415516685
 30
0.0
 10
-3.4420918421
 20
-21.812240324
 30
0.0
 10
-2.9273571026
 20
-21.9056813114
 30
0.0
 10
-2.5863676438
 20
-21.9501800458
 30
0.0
 11
-11.220420266
 21
-17.7697488351
 31
0.0
 11
-10.1196211408
 21
-18.6122441422
 31
0.0
 11
-9.0117719974
 21
-19.3717947026
 31
0.0
 11
-8.4573241143
 21
-19.7198942793
 31
0.0
 11
-7.9035434641
 21
-20.0472052326
 31
0.0
 11
-7.6270897727
 21
-20.2034772103
 31
0.0
 11
-7.3510277482
 21
-20.3548119542
 31
0.0
 11
-7.0756230756
 21
-20.4993565549
 31
0.0
 11
-6.8014392097
 21
-20.6337000316
 31
0.0
 11
-6.5284963194
 21
-20.7593750252
 31
0.0
 11
-6.2564624874
 21
-20.8794040822
 31
0.0
 11
-5.7151374325
 21
-21.1040301682
 31
0.0
 11
-5.1782262462
 21
-21.3063197101
 31
0.0
 11
-4.6465586119
 21
-21.4849244723
 31
0.0
 11
-4.1208705598
 21
-21.6390890082
 31
0.0
 11
-3.6018478401
 21
-21.7682858295
 31
0.0
 11
-2.5863676438
 21
-21.9501800458
 31
0.0
  0
SPLINE
  5
4FF
100
AcDbEntity
  8
RACCORDO
100
AcDbSpline
 62
253
  6
CONTINUOUS
 70
0
 71
3
 72
15
 73
11
 74
9
 42
0.0000001
 43
0.0000001
 44
0.0000000001
 12
9.3054096918
 22
-1.2143453226
 32
0.0
 13
4.5714379118
 23
8.195562184
 33
0.0
 40
0.0
 40
0.0
 40
0.0
 40
0.0
 40
0.1317435442
 40
0.2569469352
 40
0.3775389875
 40
0.4959492208
 40
0.6148817533
 40
0.7370265891
 40
0.8647707371
 40
1.0
 40
1.0
 40
1.0
 40
1.0
 10
-2.5863676438
 20
-21.9501800458
 30
0.0
 10
-2.1777250929
 20
-22.0035074313
 30
0.0
 10
-1.3733023293
 20
-22.0600665219
 30
0.0
 10
-0.1909996499
 20
-21.9791012295
 30
0.0
 10
0.9249168359
 20
-21.7261506243
 30
0.0
 10
1.9660362822
 20
-21.3001252249
 30
0.0
 10
2.9251387064
 20
-20.7030988179
 30
0.0
 10
3.7958323257
 20
-19.9388622239
 30
0.0
 10
4.57462541
 20
-19.0146001933
 30
0.0
 10
5.0167936202
 20
-18.3179352771
 30
0.0
 10
5.2228576799
 20
-17.9485086662
 30
0.0
 11
-2.5863676438
 21
-21.9501800458
 31
0.0
 11
-1.3527657554
 21
-22.0321512687
 31
0.0
 11
-0.1808719982
 21
-21.9474951958
 31
0.0
 11
0.9221530926
 21
-21.6944733989
 31
0.0
 11
1.9502969597
 21
-21.2729498876
 31
0.0
 11
2.8985422528
 21
-20.6842991712
 31
0.0
 11
3.7624023692
 21
-19.9308912762
 31
0.0
 11
4.5383408431
 21
-19.0170976696
 31
0.0
 11
5.2228576799
 21
-17.9485086662
 31
0.0
  0
LINE
  5
500
100
AcDbEntity
  8
RACCORDO
100
AcDbLine
 62
253
  6
CONTINUOUS
 10
5.2228576799
 20
-17.9485086662
 11
5.2252985813
 21
-17.9441304573
  0
SPLINE
  5
501
100
AcDbEntity
  8
RACCORDO
100
AcDbSpline
 62
253
  6
CONTINUOUS
 70
0
 71
3
 72
11
 73
7
 74
5
 42
0.0000001
 43
0.0000001
 44
0.0000000001
 12
3.5196274393
 22
6.747017128
 32
0.0
 13
0.0000206929
 23
7.609863168
 33
0.0
 40
0.0
 40
0.0
 40
0.0
 40
0.0
 40
0.2266268135
 40
0.4686395775
 40
0.7265898303
 40
1.0
 40
1.0
 40
1.0
 40
1.0
 10
5.354846313
 20
-17.7052764825
 30
0.0
 10
5.6207269634
 20
-17.1955914852
 30
0.0
 10
6.0869334776
 20
-16.0966869232
 30
0.0
 10
6.5742796708
 20
-14.3145230148
 30
0.0
 10
6.8658865903
 20
-12.3705754469
 30
0.0
 10
6.927298822
 20
-11.0216224944
 30
0.0
 10
6.9273007079
 20
-10.328084501
 30
0.0
 11
5.354846313
 21
-17.7052764825
 31
0.0
 11
6.0361107243
 21
-16.1209404536
 31
0.0
 11
6.5291864789
 21
-14.3464894601
 31
0.0
 11
6.8273137155
 21
-12.4062945809
 31
0.0
 11
6.9273007079
 21
-10.328084501
 31
0.0
  0
SPLINE
  5
502
100
AcDbEntity
  8
RACCORDO
100
AcDbSpline
 62
253
  6
CONTINUOUS
 70
0
 71
3
 72
11
 73
7
 74
5
 42
0.0000001
 43
0.0000001
 44
0.0000000001
 12
-0.0000299063
 22
9.2492056976
 32
0.0
 13
-2.9308689034
 23
8.7725602596
 33
0.0
 40
0.0
 40
0.0
 40
0.0
 40
0.0
 40
0.2366754726
 40
0.4835188657
 40
0.7386827272
 40
1.0
 40
1.0
 40
1.0
 40
1.0
 10
6.9273007079
 20
-10.328084501
 30
0.0
 10
6.9272983485
 20
-9.5983977913
 30
0.0
 10
6.8558847765
 20
-8.1070426229
 30
0.0
 10
6.5550322092
 20
-5.84718676
 30
0.0
 10
6.0602857587
 20
-3.544084109
 30
0.0
 10
5.610141867
 20
-2.0149343339
 30
0.0
 10
5.3548463108
 20
-1.2507938263
 30
0.0
 11
6.9273007079
 21
-10.328084501
 31
0.0
 11
6.8273135833
 21
-8.1413090611
 31
0.0
 11
6.5291858189
 21
-5.877752185
 31
0.0
 11
6.0361102952
 21
-3.5697716637
 31
0.0
 11
5.3548463108
 21
-1.2507938263
 31
0.0
  0
SPLINE
  5
503
100
AcDbEntity
  8
RACCORDO
100
AcDbSpline
 62
253
  6
CONTINUOUS
 70
0
 71
3
 72
14
 73
10
 74
8
 42
0.0000001
 43
0.0000001
 44
0.0000000001
 12
7.5103823002
 22
0.3184407881
 32
0.0
 13
3.6164702751
 23
6.5900219711
 33
0.0
 40
0.0
 40
0.0
 40
0.0
 40
0.0
 40
0.1251134265
 40
0.2464613639
 40
0.3658640036
 40
0.4853086285
 40
0.6067841887
 40
0.7321343286
 40
1.0
 40
1.0
 40
1.0
 40
1.0
 10
-1.7970109749
 20
-21.4836541938
 30
0.0
 10
-1.4837944203
 20
-21.4703737878
 30
0.0
 10
-0.8674949896
 20
-21.4072732139
 30
0.0
 10
0.0267245704
 20
-21.1930697518
 30
0.0
 10
0.8692993169
 20
-20.8611056551
 30
0.0
 10
1.6563767382
 20
-20.4126597673
 30
0.0
 10
2.3848725363
 20
-19.8495940059
 30
0.0
 10
3.2943775855
 20
-18.9311372399
 30
0.0
 10
3.8520389313
 20
-18.1058983149
 30
0.0
 10
4.174948344
 20
-17.5174847617
 30
0.0
 11
-1.7970109749
 21
-21.4836541938
 31
0.0
 11
-0.8616650422
 21
-21.3853851784
 31
0.0
 11
0.0250621499
 21
-21.1713704881
 31
0.0
 11
0.8599580008
 21
-20.8418675432
 31
0.0
 11
1.6403684296
 21
-20.3978523466
 31
0.0
 11
2.3639019062
 21
-19.8407725886
 31
0.0
 11
3.0285989902
 21
-19.1728977448
 31
0.0
 11
4.174948344
 21
-17.5174847617
 31
0.0
  0
SPLINE
  5
504
100
AcDbEntity
  8
RACCORDO
100
AcDbSpline
 62
253
  6
CONTINUOUS
 70
0
 71
3
 72
9
 73
5
 74
3
 42
0.0000001
 43
0.0000001
 44
0.0000000001
 12
-1.5086755494
 22
-2.7409231376
 32
0.0
 13
-0.8011392088
 23
-3.024390439
 33
0.0
 40
0.0
 40
0.0
 40
0.0
 40
0.0
 40
0.2413302738
 40
1.0
 40
1.0
 40
1.0
 40
1.0
 10
-20.6641991772
 20
11.7587289182
 30
0.0
 10
-20.785562205
 20
11.5382396745
 30
0.0
 10
-21.2575009415
 20
10.6076686467
 30
0.0
 10
-21.6066906621
 20
9.6167482236
 30
0.0
 10
-21.8092906835
 20
8.8519104014
 30
0.0
 11
-20.6641991772
 21
11.7587289182
 31
0.0
 11
-21.0061994743
 21
11.0855749858
 31
0.0
 11
-21.8092906835
 21
8.8519104014
 31
0.0
  0
LINE
  5
505
100
AcDbEntity
  8
RACCORDO
100
AcDbLine
 62
253
  6
CONTINUOUS
 10
5.2252986705
 20
-0.8718054548
 11
5.2228576772
 21
-0.8647717175
  0
SPLINE
  5
506
100
AcDbEntity
  8
RACCORDO
100
AcDbSpline
 62
253
  6
CONTINUOUS
 70
0
 71
3
 72
35
 73
31
 74
29
 42
0.0000001
 43
0.0000001
 44
0.0000000001
 12
-11.8165891164
 22
34.0398936635
 32
0.0
 13
-18.377710665
 23
-30.9936427302
 33
0.0
 40
0.0
 40
0.0
 40
0.0
 40
0.0
 40
0.0767933797
 40
0.1537149679
 40
0.2297813255
 40
0.3041476696
 40
0.376127732
 40
0.4110721608
 40
0.4452464989
 40
0.4786154511
 40
0.4949949821
 40
0.511170241
 40
0.5271438325
 40
0.5429222833
 40
0.5585194256
 40
0.5739051317
 40
0.5889674144
 40
0.6038271602
 40
0.6185169998
 40
0.6330288713
 40
0.6615151914
 40
0.6893242585
 40
0.7165133973
 40
0.743157004
 40
0.7950852168
 40
0.8459048553
 40
0.8964302081
 40
0.9475041194
 40
0.9735335387
 40
1.0
 40
1.0
 40
1.0
 40
1.0
 10
5.2228576772
 20
-0.8647717175
 30
0.0
 10
4.9203790721
 20
0.0065744425
 30
0.0
 10
4.2561420217
 20
1.7309870538
 30
0.0
 10
3.0868178558
 20
4.2333965685
 30
0.0
 10
1.7479630142
 20
6.6166219552
 30
0.0
 10
0.2518632322
 20
8.8335702962
 30
0.0
 10
-1.1279819896
 20
10.5228929997
 30
0.0
 10
-2.2984290765
 20
11.7494586166
 30
0.0
 10
-3.1956983286
 20
12.5931209382
 30
0.0
 10
-3.9692013018
 20
13.2404477032
 30
0.0
 10
-4.5990889979
 20
13.7204018802
 30
0.0
 10
-5.073475347
 20
14.0592340565
 30
0.0
 10
-5.5522170695
 20
14.3790466244
 30
0.0
 10
-6.0348728183
 20
14.6800285563
 30
0.0
 10
-6.5200780446
 20
14.9629301283
 30
0.0
 10
-7.0057406756
 20
15.2281201411
 30
0.0
 10
-7.5010876613
 20
15.4541954196
 30
0.0
 10
-7.9953513405
 20
15.6611870875
 30
0.0
 10
-8.4901148854
 20
15.8493857383
 30
0.0
 10
-9.1465523336
 20
16.0715337505
 30
0.0
 10
-9.9675538738
 20
16.2972166966
 30
0.0
 10
-10.9543384173
 20
16.481839106
 30
0.0
 10
-11.93170882
 20
16.5769682876
 30
0.0
 10
-13.2033613193
 20
16.5847699179
 30
0.0
 10
-14.7539894857
 20
16.3759781642
 30
0.0
 10
-16.5053398026
 20
15.7695485209
 30
0.0
 10
-18.088861954
 20
14.825916075
 30
0.0
 10
-19.2264346725
 20
13.7815045661
 30
0.0
 10
-20.0094169965
 20
12.812920006
 30
0.0
 10
-20.3566832179
 20
12.2851882178
 30
0.0
 10
-20.5188142074
 20
12.0117575356
 30
0.0
 11
5.2228576772
 21
-0.8647717175
 31
0.0
 11
4.2272461406
 21
1.7169708341
 31
0.0
 11
3.0515253997
 21
4.2269319686
 31
0.0
 11
1.7057263206
 21
6.6146449841
 31
0.0
 11
0.2023850629
 21
8.8328148817
 31
0.0
 11
-1.4430126072
 21
10.8377003764
 31
0.0
 11
-2.3129380263
 21
11.7480065019
 31
0.0
 11
-3.2107367953
 21
12.5907857474
 31
0.0
 11
-4.1333542655
 21
13.3618035891
 31
0.0
 11
-4.6028591738
 21
13.719430732
 31
0.0
 11
-5.0771840591
 21
14.0581251255
 31
0.0
 11
-5.5558106474
 21
14.3778076352
 31
0.0
 11
-6.0381704834
 21
14.6787471751
 31
0.0
 11
-6.5236171323
 21
14.961927893
 31
0.0
 11
-7.0121483953
 21
15.2239997182
 31
0.0
 11
-7.5044108832
 21
15.4525527595
 31
0.0
 11
-7.9983527468
 21
15.6592213398
 31
0.0
 11
-8.4932228451
 21
15.8470390809
 31
0.0
 11
-8.9885926535
 21
16.0144702529
 31
0.0
 11
-9.97865112
 21
16.2853092009
 31
0.0
 11
-10.9637958763
 21
16.4684983855
 31
0.0
 11
-11.9389590994
 21
16.5626159907
 31
0.0
 11
-12.8989834912
 21
16.5676593159
 31
0.0
 11
-14.7526388508
 21
16.3127021243
 31
0.0
 11
-16.4822745339
 21
15.7114405842
 31
0.0
 11
-18.0460730871
 21
14.7792567211
 31
0.0
 11
-19.4038788153
 21
13.537017948
 31
0.0
 11
-19.9939186009
 21
12.8079621347
 31
0.0
 11
-20.5188142074
 21
12.0117575356
 31
0.0
  0
LINE
  5
507
100
AcDbEntity
  8
RACCORDO
100
AcDbLine
 62
253
  6
CONTINUOUS
 10
-20.5188142074
 20
12.0117575356
 11
-20.5214797607
 21
12.0072594871
  0
SPLINE
  5
508
100
AcDbEntity
  8
RACCORDO
100
AcDbSpline
 62
253
  6
CONTINUOUS
 70
0
 71
3
 72
9
 73
5
 74
3
 42
0.0000001
 43
0.0000001
 44
0.0000000001
 12
0.0818045786
 22
-0.0170990885
 32
0.0
 13
0.0793094872
 23
0.0263509613
 33
0.0
 40
0.0
 40
0.0
 40
0.0
 40
0.0
 40
0.247008654
 40
1.0
 40
1.0
 40
1.0
 40
1.0
 10
-0.7104841795
 20
18.3330831571
 30
0.0
 10
-0.7037486999
 20
18.3316752828
 30
0.0
 10
-0.6761076897
 20
18.3278001458
 30
0.0
 10
-0.647548283
 20
18.3318060798
 30
0.0
 10
-0.6276418305
 20
18.3384200951
 30
0.0
 11
-0.7104841795
 21
18.3330831571
 31
0.0
 11
-0.6900375281
 21
18.330241748
 31
0.0
 11
-0.6276418305
 21
18.3384200951
 31
0.0
  0
SPLINE
  5
509
100
AcDbEntity
  8
RACCORDO
100
AcDbSpline
 62
253
  6
CONTINUOUS
 70
0
 71
3
 72
9
 73
5
 74
3
 42
0.0000001
 43
0.0000001
 44
0.0000000001
 12
0.2024936916
 22
0.0672795099
 32
0.0
 13
0.076467093
 23
0.199205952
 33
0.0
 40
0.0
 40
0.0
 40
0.0
 40
0.0
 40
0.4738564892
 40
1.0
 40
1.0
 40
1.0
 40
1.0
 10
-0.6276418305
 20
18.3384200951
 30
0.0
 10
-0.5956575139
 20
18.3490470392
 30
0.0
 10
-0.5344139872
 20
18.3912807841
 30
0.0
 10
-0.4969903956
 20
18.4540137597
 30
0.0
 10
-0.4835795074
 20
18.4889507327
 30
0.0
 11
-0.6276418305
 21
18.3384200951
 31
0.0
 11
-0.5429647564
 21
18.3936754041
 31
0.0
 11
-0.4835795074
 21
18.4889507327
 31
0.0
  0
SPLINE
  5
50A
100
AcDbEntity
  8
RACCORDO
100
AcDbSpline
 62
253
  6
CONTINUOUS
 70
0
 71
3
 72
11
 73
7
 74
5
 42
0.0000001
 43
0.0000001
 44
0.0000000001
 12
-0.4277130552
 22
0.2359658419
 32
0.0
 13
-0.0627805048
 23
0.4844346647
 33
0.0
 40
0.0
 40
0.0
 40
0.0
 40
0.0
 40
0.2236291188
 40
0.4602056601
 40
0.7177143796
 40
1.0
 40
1.0
 40
1.0
 40
1.0
 10
-22.0880213796
 20
-13.6766414248
 30
0.0
 10
-22.1199044108
 20
-13.6590518137
 30
0.0
 10
-22.180347416
 20
-13.6127011047
 30
0.0
 10
-22.2507278069
 20
-13.5178649572
 30
0.0
 10
-22.3006140723
 20
-13.4006649428
 30
0.0
 10
-22.318763099
 20
-13.3141170696
 30
0.0
 10
-22.3246704436
 20
-13.2685340897
 30
0.0
 11
-22.0880213796
 21
-13.6766414248
 31
0.0
 11
-22.1750307119
 21
-13.6105908762
 31
0.0
 11
-22.2448457053
 21
-13.5184987078
 31
0.0
 11
-22.295258847
 21
-13.4032534314
 31
0.0
 11
-22.3246704436
 21
-13.2685340897
 31
0.0
  0
SPLINE
  5
50B
100
AcDbEntity
  8
RACCORDO
100
AcDbSpline
 62
253
  6
CONTINUOUS
 70
0
 71
3
 72
11
 73
7
 74
5
 42
0.0000001
 43
0.0000001
 44
0.0000000001
 12
0.0001361054
 22
-0.1202500526
 32
0.0
 13
0.1075549856
 23
-0.0537774928
 33
0.0
 40
0.0
 40
0.0
 40
0.0
 40
0.0
 40
0.2065403907
 40
0.4344721032
 40
0.6977363802
 40
1.0
 40
1.0
 40
1.0
 40
1.0
 10
9.7212556027
 20
13.55566621
 30
0.0
 10
9.7212649732
 20
13.547387379
 30
0.0
 10
9.7249215601
 20
13.5298405209
 30
0.0
 10
9.7402123461
 20
13.5058947678
 30
0.0
 10
9.7640325134
 20
13.4844138498
 30
0.0
 10
9.7836308687
 20
13.4727669253
 30
0.0
 10
9.7944675218
 20
13.4673485987
 30
0.0
 11
9.7212556027
 21
13.55566621
 31
0.0
 11
9.7260669048
 21
13.5313001775
 31
0.0
 11
9.740295373
 21
13.5078738249
 31
0.0
 11
9.7634296871
 21
13.4862635303
 31
0.0
 11
9.7944675218
 21
13.4673485987
 31
0.0
  0
SPLINE
  5
50C
100
AcDbEntity
  8
RACCORDO
100
AcDbSpline
 62
253
  6
CONTINUOUS
 70
0
 71
3
 72
11
 73
7
 74
5
 42
0.0000001
 43
0.0000001
 44
0.0000000001
 12
-0.1350450777
 22
0.0739176917
 32
0.0
 13
0.0
 23
0.153951285
 33
0.0
 40
0.0
 40
0.0
 40
0.0
 40
0.0
 40
0.2172561503
 40
0.451015807
 40
0.7110744724
 40
1.0
 40
1.0
 40
1.0
 40
1.0
 10
9.8563241022
 20
13.0404957688
 30
0.0
 10
9.846544311
 20
13.0458487932
 30
0.0
 10
9.8281693564
 20
13.0608055958
 30
0.0
 10
9.8085578868
 20
13.0921820431
 30
0.0
 10
9.7968098794
 20
13.1309771469
 30
0.0
 10
9.7944675218
 20
13.1592493004
 30
0.0
 10
9.7944675218
 20
13.1740761192
 30
0.0
 11
9.8563241022
 21
13.0404957688
 31
0.0
 11
9.830219093
 21
13.0614056032
 31
0.0
 11
9.8106742947
 21
13.0916232832
 31
0.0
 11
9.7985664691
 21
13.129784928
 31
0.0
 11
9.7944675218
 21
13.1740761192
 31
0.0
  0
SPLINE
  5
50D
100
AcDbEntity
  8
RACCORDO
100
AcDbSpline
 62
7
  6
CONTINUOUS
 70
0
 71
3
 72
10
 73
6
 74
4
 42
0.0000001
 43
0.0000001
 44
0.0000000001
 12
0.3471941063
 22
-0.0721526133
 32
0.0
 13
0.227214943
 23
0.2722556092
 33
0.0
 40
0.0
 40
0.0
 40
0.0
 40
0.0
 40
0.4827891464
 40
0.7436989725
 40
1.0
 40
1.0
 40
1.0
 40
1.0
 10
12.2172922418
 20
12.0510452907
 30
0.0
 10
12.2731660906
 20
12.0394337912
 30
0.0
 10
12.3665063853
 20
12.0607570145
 30
0.0
 10
12.466715615
 20
12.1228337015
 30
0.0
 10
12.511475895
 20
12.1655641113
 30
0.0
 10
12.5308877027
 20
12.1888239088
 30
0.0
 11
12.2172922418
 21
12.0510452907
 31
0.0
 11
12.3864250215
 21
12.077588235
 31
0.0
 11
12.4653785679
 21
12.1258232628
 31
0.0
 11
12.5308877027
 21
12.1888239088
 31
0.0
  0
SPLINE
  5
50E
100
AcDbEntity
  8
RACCORDO
100
AcDbSpline
 62
253
  6
CONTINUOUS
 70
0
 71
3
 72
11
 73
7
 74
5
 42
0.0000001
 43
0.0000001
 44
0.0000000001
 12
0.291260946
 22
-0.0608804149
 32
0.0
 13
0.1066333044
 23
0.277792552
 33
0.0
 40
0.0
 40
0.0
 40
0.0
 40
0.0
 40
0.2240297614
 40
0.4626415955
 40
0.7223918003
 40
1.0
 40
1.0
 40
1.0
 40
1.0
 10
11.5931738131
 20
12.1812541608
 30
0.0
 10
11.6149241865
 20
12.1767078192
 30
0.0
 10
11.6625183865
 20
12.1776526854
 30
0.0
 10
11.7289224992
 20
12.2087612815
 30
0.0
 10
11.7844443276
 20
12.2638450464
 30
0.0
 10
11.8102110587
 20
12.3114159063
 30
0.0
 10
11.8200784853
 20
12.3371217363
 30
0.0
 11
11.5931738131
 21
12.1812541608
 31
0.0
 11
11.6598301041
 21
12.1820730372
 31
0.0
 11
11.7246521021
 21
12.2110411408
 31
0.0
 11
11.7802032748
 21
12.2647797025
 31
0.0
 11
11.8200784853
 21
12.3371217363
 31
0.0
  0
SPLINE
  5
50F
100
AcDbEntity
  8
RACCORDO
100
AcDbSpline
 62
253
  6
CONTINUOUS
 70
0
 71
3
 72
14
 73
10
 74
8
 42
0.0000001
 43
0.0000001
 44
0.0000000001
 12
-0.0300615808
 22
0.0503753155
 32
0.0
 13
0.0571097352
 23
-0.0134107867
 33
0.0
 40
0.0
 40
0.0
 40
0.0
 40
0.0
 40
0.1453323956
 40
0.2538664216
 40
0.3353434301
 40
0.4105205156
 40
0.5041521758
 40
0.6303765291
 40
1.0
 40
1.0
 40
1.0
 40
1.0
 10
-21.203195049
 20
-11.3252182077
 30
0.0
 10
-21.2046513562
 20
-11.3227778192
 30
0.0
 10
-21.2069812435
 20
-11.3183673468
 30
0.0
 10
-21.208918698
 20
-11.3120527106
 30
0.0
 10
-21.2084817671
 20
-11.3066118662
 30
0.0
 10
-21.2049215325
 20
-11.3028023175
 30
0.0
 10
-21.1992414157
 20
-11.3011426303
 30
0.0
 10
-21.1876887402
 20
-11.3007449344
 30
0.0
 10
-21.1780674159
 20
-11.3026819835
 30
0.0
 10
-21.1710310497
 20
-11.3043342973
 30
0.0
 11
-21.203195049
 21
-11.3252182077
 31
0.0
 11
-21.2070360797
 21
-11.3176068071
 31
0.0
 11
-21.2086147023
 21
-11.3114386594
 31
0.0
 11
-21.2079384116
 21
-11.3067070442
 31
0.0
 11
-21.205015716
 21
-11.3034044569
 31
0.0
 11
-21.1998551237
 21
-11.301523393
 31
0.0
 11
-21.1924651431
 21
-11.3010563481
 31
0.0
 11
-21.1710310497
 21
-11.3043342973
 31
0.0
  0
SPLINE
  5
510
100
AcDbEntity
  8
RACCORDO
100
AcDbSpline
 62
253
  6
CONTINUOUS
 70
0
 71
3
 72
9
 73
5
 74
3
 42
0.0000001
 43
0.0000001
 44
0.0000000001
 12
0.1584539735
 22
10.4744269061
 32
0.0
 13
1.1808485153
 23
10.4088579324
 33
0.0
 40
0.0
 40
0.0
 40
0.0
 40
0.0
 40
0.2454802049
 40
1.0
 40
1.0
 40
1.0
 40
1.0
 10
-23.0072399666
 20
12.9302493198
 30
0.0
 10
-22.9942741953
 20
13.7873374741
 30
0.0
 10
-22.8963090539
 20
17.2780384173
 30
0.0
 10
-22.6216616369
 20
20.7633379253
 30
0.0
 10
-22.3246704436
 20
23.3812343769
 30
0.0
 11
-23.0072399666
 21
12.9302493198
 31
0.0
 11
-22.9355302216
 21
15.5008079461
 31
0.0
 11
-22.3246704436
 21
23.3812343769
 31
0.0
  0
SPLINE
  5
511
100
AcDbEntity
  8
RACCORDO
100
AcDbSpline
 62
253
  6
CONTINUOUS
 70
0
 71
3
 72
11
 73
7
 74
5
 42
0.0000001
 43
0.0000001
 44
0.0000000001
 12
0.1471995072
 22
1.2855081502
 32
0.0
 13
1.1223527923
 23
0.6438346906
 33
0.0
 40
0.0
 40
0.0
 40
0.0
 40
0.0
 40
0.252753971
 40
0.5160101134
 40
0.770703099
 40
1.0
 40
1.0
 40
1.0
 40
1.0
 10
-22.3246704436
 20
23.3812343769
 30
0.0
 10
-22.3122686903
 20
23.4895401401
 30
0.0
 10
-22.2587812737
 20
23.7078687863
 30
0.0
 10
-22.114288066
 20
24.0096293142
 30
0.0
 10
-21.9178715864
 20
24.2679298434
 30
0.0
 10
-21.7539803418
 20
24.4022295383
 30
0.0
 10
-21.668196336
 20
24.4514393047
 30
0.0
 11
-22.3246704436
 21
23.3812343769
 31
0.0
 11
-22.2494917457
 21
23.6995167042
 31
0.0
 11
-22.1025975975
 21
24.0068446221
 31
0.0
 11
-21.9010405728
 21
24.2675696983
 31
0.0
 11
-21.668196336
 21
24.4514393047
 31
0.0
  0
SPLINE
  5
512
100
AcDbEntity
  8
RACCORDO
100
AcDbSpline
 62
253
  6
CONTINUOUS
 70
0
 71
3
 72
11
 73
7
 74
5
 42
0.0000001
 43
0.0000001
 44
0.0000000001
 12
-0.6041968635
 22
-0.4010198015
 32
0.0
 13
-0.6493256277
 23
0.3228729785
 33
0.0
 40
0.0
 40
0.0
 40
0.0
 40
0.0
 40
0.2449851258
 40
0.5099460393
 40
0.769497711
 40
1.0
 40
1.0
 40
1.0
 40
1.0
 10
9.1016069887
 20
-28.5738873759
 30
0.0
 10
9.0522672405
 20
-28.6066353381
 30
0.0
 10
8.9384152396
 20
-28.6582921138
 30
0.0
 10
8.7545680718
 20
-28.6945801152
 30
0.0
 10
8.5707327675
 20
-28.6904375749
 30
0.0
 10
8.4545376441
 20
-28.6580005859
 30
0.0
 10
8.4046472963
 20
-28.6331929324
 30
0.0
 11
9.1016069887
 21
-28.5738873759
 31
0.0
 11
8.9410325205
 21
-28.6498965739
 31
0.0
 11
8.752664391
 21
-28.6877888794
 31
0.0
 11
8.564536555
 21
-28.6819332982
 31
0.0
 11
8.4046472963
 21
-28.6331929324
 31
0.0
  0
SPLINE
  5
513
100
AcDbEntity
  8
RACCORDO
100
AcDbSpline
 62
253
  6
CONTINUOUS
 70
0
 71
3
 72
11
 73
7
 74
5
 42
0.0000001
 43
0.0000001
 44
0.0000000001
 12
0.0661979628
 22
-0.5025559553
 32
0.0
 13
0.4529614447
 23
-0.2275315101
 33
0.0
 40
0.0
 40
0.0
 40
0.0
 40
0.0
 40
0.2813082783
 40
0.5380561976
 40
0.7747128289
 40
1.0
 40
1.0
 40
1.0
 40
1.0
 10
8.4046472735
 20
-28.6331929483
 30
0.0
 10
8.4108546185
 20
-28.6803173318
 30
0.0
 10
8.4301588721
 20
-28.7697823779
 30
0.0
 10
8.483729522
 20
-28.890415067
 30
0.0
 10
8.5595267706
 20
-28.987075604
 30
0.0
 10
8.6242729758
 20
-29.033047296
 30
0.0
 10
8.6582884433
 20
-29.0501339394
 30
0.0
 11
8.4046472735
 21
-28.6331929483
 31
0.0
 11
8.4359333994
 21
-28.772312775
 31
0.0
 11
8.4899707541
 21
-28.8907088315
 31
0.0
 11
8.564932272
 21
-28.9843640832
 31
0.0
 11
8.6582884433
 21
-29.0501339394
 31
0.0
  0
SPLINE
  5
514
100
AcDbEntity
  8
RACCORDO
100
AcDbSpline
 62
253
  6
CONTINUOUS
 70
0
 71
3
 72
11
 73
7
 74
5
 42
0.0000001
 43
0.0000001
 44
0.0000000001
 12
-0.0146583873
 22
-0.3360368975
 32
0.0
 13
-0.3101382377
 23
-0.1301919286
 33
0.0
 40
0.0
 40
0.0
 40
0.0
 40
0.0
 40
0.2899828863
 40
0.5505076967
 40
0.7837260663
 40
1.0
 40
1.0
 40
1.0
 40
1.0
 10
9.4361208625
 20
-28.7803122861
 30
0.0
 10
9.4347039687
 20
-28.8127939359
 30
0.0
 10
9.4266326818
 20
-28.8744687517
 30
0.0
 10
9.3959739604
 20
-28.9577574927
 30
0.0
 10
9.3482957562
 20
-29.0230648441
 30
0.0
 10
9.3053022833
 20
-29.0518490973
 30
0.0
 10
9.2829440111
 20
-29.0612348042
 30
0.0
 11
9.4361208625
 21
-28.7803122861
 31
0.0
 11
9.4224648746
 21
-28.8768892008
 31
0.0
 11
9.391052347
 21
-28.9586946413
 31
0.0
 11
9.3437095021
 21
-29.0212421853
 31
0.0
 11
9.2829440111
 21
-29.0612348042
 31
0.0
  0
SPLINE
  5
515
100
AcDbEntity
  8
RACCORDO
100
AcDbSpline
 62
253
  6
CONTINUOUS
 70
0
 71
3
 72
13
 73
9
 74
7
 42
0.0000001
 43
0.0000001
 44
0.0000000001
 12
0.0613818341
 22
-0.4622781618
 32
0.0
 13
0.4312090042
 23
0.1775601958
 33
0.0
 40
0.0
 40
0.0
 40
0.0
 40
0.0
 40
0.2720630555
 40
0.3934327605
 40
0.5086711226
 40
0.62250834
 40
0.7400034949
 40
1.0
 40
1.0
 40
1.0
 40
1.0
 10
9.1016069887
 20
-28.5738873759
 30
0.0
 10
9.1071735652
 20
-28.6158103123
 30
0.0
 10
9.1244142149
 20
-28.6766272125
 30
0.0
 10
9.1708300309
 20
-28.7414926915
 30
0.0
 10
9.2132859398
 20
-28.7766943259
 30
0.0
 10
9.263257355
 20
-28.7986383263
 30
0.0
 10
9.3396179317
 20
-28.809647776
 30
0.0
 10
9.3990021866
 20
-28.7955947374
 30
0.0
 10
9.4363731312
 20
-28.780206394
 30
0.0
 11
9.1016069887
 21
-28.5738873759
 31
0.0
 11
9.1399406232
 21
-28.6948303657
 31
0.0
 11
9.1732509638
 21
-28.7405891756
 31
0.0
 11
9.2147913376
 21
-28.7746825374
 31
0.0
 11
9.2633589119
 21
-28.7961149929
 31
0.0
 11
9.3175402318
 21
-28.8042737908
 31
0.0
 11
9.4363731312
 21
-28.780206394
 31
0.0
  0
SPLINE
  5
516
100
AcDbEntity
  8
RACCORDO
100
AcDbSpline
 62
253
  6
CONTINUOUS
 70
0
 71
3
 72
11
 73
7
 74
5
 42
0.0000001
 43
0.0000001
 44
0.0000000001
 12
-0.6429961137
 22
-0.3251800979
 32
0.0
 13
-0.6445787122
 23
0.3220316477
 33
0.0
 40
0.0
 40
0.0
 40
0.0
 40
0.0
 40
0.2376979867
 40
0.5023658489
 40
0.7657603701
 40
1.0
 40
1.0
 40
1.0
 40
1.0
 10
8.3987817077
 20
-18.8716977369
 30
0.0
 10
8.3478354138
 20
-18.8974626218
 30
0.0
 10
8.231462239
 20
-18.9347491637
 30
0.0
 10
8.0474849815
 20
-18.9536222908
 30
0.0
 10
7.864079652
 20
-18.9376148346
 30
0.0
 10
7.7482915959
 20
-18.9019789956
 30
0.0
 10
7.6979629696
 20
-18.8768348043
 30
0.0
 11
8.3987817077
 21
-18.8716977369
 31
0.0
 11
8.2367421277
 21
-18.9271717118
 31
0.0
 11
8.047133993
 21
-18.9475987135
 31
0.0
 11
7.8581688888
 21
-18.9299466893
 31
0.0
 11
7.6979629696
 21
-18.8768348043
 31
0.0
  0
SPLINE
  5
517
100
AcDbEntity
  8
RACCORDO
100
AcDbSpline
 62
253
  6
CONTINUOUS
 70
0
 71
3
 72
9
 73
5
 74
3
 42
0.0000001
 43
0.0000001
 44
0.0000000001
 12
0.1556297493
 22
-9.7837231551
 32
0.0
 13
1.2879859722
 23
-9.6998222422
 33
0.0
 40
0.0
 40
0.0
 40
0.0
 40
0.0
 40
0.2553597729
 40
1.0
 40
1.0
 40
1.0
 40
1.0
 10
7.697962954
 20
-18.8768348124
 30
0.0
 10
7.7112101465
 20
-19.7096245866
 30
0.0
 10
7.8075146565
 20
-22.9699171155
 30
0.0
 10
8.0849518845
 20
-26.2255670023
 30
0.0
 10
8.4046472735
 20
-28.6331929483
 30
0.0
 11
7.697962954
 21
-18.8768348124
 31
0.0
 11
7.7722061555
 21
-21.3744169656
 31
0.0
 11
8.4046472735
 21
-28.6331929483
 31
0.0
  0
SPLINE
  5
518
100
AcDbEntity
  8
RACCORDO
100
AcDbSpline
 62
253
  6
CONTINUOUS
 70
0
 71
3
 72
9
 73
5
 74
3
 42
0.0000001
 43
0.0000001
 44
0.0000000001
 12
0.1547820398
 22
-9.7294076617
 32
0.0
 13
1.2809453477
 23
-9.645958218
 33
0.0
 40
0.0
 40
0.0
 40
0.0
 40
0.0
 40
0.2553591382
 40
1.0
 40
1.0
 40
1.0
 40
1.0
 10
8.3987817077
 20
-18.8716977369
 30
0.0
 10
8.4119567105
 20
-19.6998621223
 30
0.0
 10
8.5077352967
 20
-22.9420546111
 30
0.0
 10
8.7836589062
 20
-26.1796291626
 30
0.0
 10
9.1016069887
 20
-28.5738873759
 30
0.0
 11
8.3987817077
 21
-18.8716977369
 31
0.0
 11
8.4726195338
 21
-21.3554079543
 31
0.0
 11
9.1016069887
 21
-28.5738873759
 31
0.0
  0
SPLINE
  5
519
100
AcDbEntity
  8
RACCORDO
100
AcDbSpline
 62
253
  6
CONTINUOUS
 70
0
 71
3
 72
11
 73
7
 74
5
 42
0.0000001
 43
0.0000001
 44
0.0000000001
 12
-0.6531472357
 22
-0.3004231367
 32
0.0
 13
-0.6429213528
 23
0.3217258253
 33
0.0
 40
0.0
 40
0.0
 40
0.0
 40
0.0
 40
0.2355685261
 40
0.5001440417
 40
0.7646422613
 40
1.0
 40
1.0
 40
1.0
 40
1.0
 10
8.3987817077
 20
-2.4336695477
 30
0.0
 10
8.3474947305
 20
-2.4572596262
 30
0.0
 10
8.2307093714
 20
-2.4901279871
 30
0.0
 10
8.0470597137
 20
-2.5037840226
 30
0.0
 10
7.8639970819
 20
-2.4842159558
 30
0.0
 10
7.7484017929
 20
-2.4475923613
 30
0.0
 10
7.6979629543
 20
-2.4223521404
 30
0.0
 11
8.3987817077
 21
-2.4336695477
 31
0.0
 11
8.2367421273
 21
-2.4829116729
 31
0.0
 11
8.0471339885
 21
-2.4980356581
 31
0.0
 11
7.8581688785
 21
-2.4767981555
 31
0.0
 11
7.6979629543
 21
-2.4223521404
 31
0.0
  0
SPLINE
  5
51A
100
AcDbEntity
  8
RACCORDO
100
AcDbSpline
 62
253
  6
CONTINUOUS
 70
0
 71
3
 72
11
 73
7
 74
5
 42
0.0000001
 43
0.0000001
 44
0.0000000001
 12
-0.6824808105
 22
-0.206085246
 32
0.0
 13
-0.636751804
 23
0.3206217795
 33
0.0
 40
0.0
 40
0.0
 40
0.0
 40
0.0
 40
0.2284629613
 40
0.4927320293
 40
0.7608634087
 40
1.0
 40
1.0
 40
1.0
 40
1.0
 10
9.1016069887
 20
7.9472305758
 30
0.0
 10
9.0496331264
 20
7.9315362939
 30
0.0
 10
8.9326194249
 20
7.9143960486
 30
0.0
 10
8.7512826819
 20
7.9188819469
 30
0.0
 10
8.5701146545
 20
7.9508661549
 30
0.0
 10
8.4554041742
 20
7.9910180567
 30
0.0
 10
8.4046472889
 20
8.0165755232
 30
0.0
 11
9.1016069887
 21
7.9472305758
 31
0.0
 11
8.9410325085
 21
7.9199510609
 31
0.0
 11
8.7526643749
 21
7.9235237116
 31
0.0
 11
8.564536541
 21
7.957411036
 31
0.0
 11
8.4046472889
 21
8.0165755232
 31
0.0
  0
SPLINE
  5
51B
100
AcDbEntity
  8
RACCORDO
100
AcDbSpline
 62
253
  6
CONTINUOUS
 70
0
 71
3
 72
9
 73
5
 74
3
 42
0.0000001
 43
0.0000001
 44
0.0000000001
 12
-1.2165445751
 22
-10.3357955428
 32
0.0
 13
-0.1630396707
 23
-10.405867012
 33
0.0
 40
0.0
 40
0.0
 40
0.0
 40
0.0
 40
0.2543656635
 40
1.0
 40
1.0
 40
1.0
 40
1.0
 10
9.1016069887
 20
7.9472305758
 30
0.0
 10
8.9984579327
 20
7.070873412
 30
0.0
 10
8.6345019558
 20
3.6209045219
 30
0.0
 10
8.4393043666
 20
0.1526543672
 30
0.0
 10
8.3987817077
 20
-2.4336695477
 30
0.0
 11
9.1016069887
 21
7.9472305758
 31
0.0
 11
8.8242211124
 21
5.3145833277
 31
0.0
 11
8.3987817077
 21
-2.4336695477
 31
0.0
  0
SPLINE
  5
51C
100
AcDbEntity
  8
RACCORDO
100
AcDbSpline
 62
253
  6
CONTINUOUS
 70
0
 71
3
 72
11
 73
7
 74
5
 42
0.0000001
 43
0.0000001
 44
0.0000000001
 12
-0.0324678958
 22
0.7302923482
 32
0.0
 13
-0.6488721078
 23
0.3366690746
 33
0.0
 40
0.0
 40
0.0
 40
0.0
 40
0.0
 40
0.2445747804
 40
0.5100591125
 40
0.7700694863
 40
1.0
 40
1.0
 40
1.0
 40
1.0
 10
9.4385138068
 20
8.4779981576
 30
0.0
 10
9.435866864
 20
8.5375351878
 30
0.0
 10
9.4100735243
 20
8.6609373568
 30
0.0
 10
9.3302312187
 20
8.8322692851
 30
0.0
 10
9.2177176668
 20
8.9796697526
 30
0.0
 10
9.1224129001
 20
9.0551971061
 30
0.0
 10
9.0726810678
 20
9.0810006038
 30
0.0
 11
9.4385138068
 21
8.4779981576
 31
0.0
 11
9.4049021591
 21
8.6535978034
 31
0.0
 11
9.3235933437
 21
8.8298166634
 31
0.0
 11
9.2069477939
 21
8.9798861781
 31
0.0
 11
9.0726810678
 21
9.0810006038
 31
0.0
  0
SPLINE
  5
51D
100
AcDbEntity
  8
RACCORDO
100
AcDbSpline
 62
253
  6
CONTINUOUS
 70
0
 71
3
 72
11
 73
7
 74
5
 42
0.0000001
 43
0.0000001
 44
0.0000000001
 12
-1.1334135145
 22
-0.6290970499
 32
0.0
 13
-0.1501891263
 23
-1.2875684524
 33
0.0
 40
0.0
 40
0.0
 40
0.0
 40
0.0
 40
0.2303983342
 40
0.4852311183
 40
0.7479717204
 40
1.0
 40
1.0
 40
1.0
 40
1.0
 10
9.0726810668
 20
9.0810006033
 30
0.0
 10
8.9856355382
 20
9.0326862992
 30
0.0
 10
8.8190648603
 20
8.9001783625
 30
0.0
 10
8.6189439602
 20
8.6434778173
 30
0.0
 10
8.4717394445
 20
8.3427902827
 30
0.0
 10
8.4172645759
 20
8.1247434056
 30
0.0
 10
8.4046472735
 20
8.0165755183
 30
0.0
 11
9.0726810668
 21
9.0810006033
 31
0.0
 11
8.8357374339
 21
8.899180695
 31
0.0
 11
8.630630254
 21
8.6402306963
 31
0.0
 11
8.481149617
 21
8.3341960229
 31
0.0
 11
8.4046472735
 21
8.0165755183
 31
0.0
  0
SPLINE
  5
51E
100
AcDbEntity
  8
RACCORDO
100
AcDbSpline
 62
253
  6
CONTINUOUS
 70
0
 71
3
 72
11
 73
7
 74
5
 42
0.0000001
 43
0.0000001
 44
0.0000000001
 12
-0.5694014854
 22
-0.3109440595
 32
0.0
 13
-0.0758464328
 23
-0.6443225732
 33
0.0
 40
0.0
 40
0.0
 40
0.0
 40
0.0
 40
0.2309425251
 40
0.4858436394
 40
0.7483298981
 40
1.0
 40
1.0
 40
1.0
 40
1.0
 10
9.4385138068
 20
8.4779981576
 30
0.0
 10
9.3946808012
 20
8.4540614222
 30
0.0
 10
9.3107284444
 20
8.3882639836
 30
0.0
 10
9.2097408317
 20
8.2603173236
 30
0.0
 10
9.1354594546
 20
8.1102398918
 30
0.0
 10
9.1079697486
 20
8.0012828183
 30
0.0
 10
9.1016069887
 20
7.9472305758
 30
0.0
 11
9.4385138068
 21
8.4779981576
 31
0.0
 11
9.3190230832
 21
8.3876064316
 31
0.0
 11
9.2155821706
 21
8.2585790923
 31
0.0
 11
9.1401932573
 21
8.1058819755
 31
0.0
 11
9.1016069887
 21
7.9472305758
 31
0.0
  0
SPLINE
  5
51F
100
AcDbEntity
  8
RACCORDO
100
AcDbSpline
 62
7
  6
CONTINUOUS
 70
0
 71
3
 72
12
 73
8
 74
6
 42
0.0000001
 43
0.0000001
 44
0.0000000001
 12
-0.0
 22
0.7338424569
 32
0.0
 13
-0.6563686474
 23
0.3281843237
 33
0.0
 40
0.0
 40
0.0
 40
0.0
 40
0.0
 40
0.1197367121
 40
0.2470023201
 40
0.5120245405
 40
0.7705406065
 40
1.0
 40
1.0
 40
1.0
 40
1.0
 10
14.0957835458
 20
11.0205386012
 30
0.0
 10
14.0957835458
 20
11.0498278956
 30
0.0
 10
14.0901020863
 20
11.1102803746
 30
0.0
 10
14.0622999699
 20
11.2326221428
 30
0.0
 10
13.9988421112
 20
11.3805148592
 30
0.0
 10
13.8883068742
 20
11.5296319691
 30
0.0
 10
13.7927025971
 20
11.6052899692
 30
0.0
 10
13.7424992799
 20
11.6303916278
 30
0.0
 11
14.0957835458
 21
11.0205386012
 31
0.0
 11
14.0884586896
 21
11.1081006441
 31
0.0
 11
14.0679959698
 21
11.1992242528
 31
0.0
 11
13.9915955163
 21
11.3780739488
 31
0.0
 11
13.8773134113
 21
11.5294988782
 31
0.0
 11
13.7424992799
 21
11.6303916278
 31
0.0
  0
SPLINE
  5
520
100
AcDbEntity
  8
RACCORDO
100
AcDbSpline
 62
7
  6
CONTINUOUS
 70
0
 71
3
 72
11
 73
7
 74
5
 42
0.0000001
 43
0.0000001
 44
0.0000000001
 12
0.0
 22
-0.3050123954
 32
0.0
 13
-0.2646259152
 23
-0.1516762552
 33
0.0
 40
0.0
 40
0.0
 40
0.0
 40
0.0
 40
0.2892640822
 40
0.5498426334
 40
0.7834069772
 40
1.0
 40
1.0
 40
1.0
 40
1.0
 10
14.0957835458
 20
-26.8243751607
 30
0.0
 10
14.0957835458
 20
-26.8537848709
 30
0.0
 10
14.0904955802
 20
-26.9098374562
 30
0.0
 10
14.0674271496
 20
-26.9867362437
 30
0.0
 10
14.0293257945
 20
-27.0492713862
 30
0.0
 10
13.9935369096
 20
-27.0794557599
 30
0.0
 10
13.974431534
 20
-27.0904064328
 30
0.0
 11
14.0957835458
 21
-26.8243751607
 31
0.0
 11
14.0872021672
 21
-26.9121859769
 31
0.0
 11
14.0633115285
 21
-26.9879900547
 31
0.0
 11
14.0252779378
 21
-27.0482278038
 31
0.0
 11
13.974431534
 21
-27.0904064328
 31
0.0
  0
SPLINE
  5
521
100
AcDbEntity
  8
RACCORDO
100
AcDbSpline
 62
253
  6
CONTINUOUS
 70
0
 71
3
 72
11
 73
7
 74
5
 42
0.0000001
 43
0.0000001
 44
0.0000000001
 12
0.0001361054
 22
-0.1202500526
 32
0.0
 13
0.1075549856
 23
-0.0537774928
 33
0.0
 40
0.0
 40
0.0
 40
0.0
 40
0.0
 40
0.2065403907
 40
0.4344721032
 40
0.6977363802
 40
1.0
 40
1.0
 40
1.0
 40
1.0
 10
-18.4923049666
 20
27.6624464946
 30
0.0
 10
-18.4922955962
 20
27.6541676637
 30
0.0
 10
-18.4886390093
 20
27.6366208055
 30
0.0
 10
-18.4733482232
 20
27.6126750525
 30
0.0
 10
-18.449528056
 20
27.5911941344
 30
0.0
 10
-18.4299297007
 20
27.5795472099
 30
0.0
 10
-18.4190930476
 20
27.5741288834
 30
0.0
 11
-18.4923049666
 21
27.6624464946
 31
0.0
 11
-18.4874936645
 21
27.6380804622
 31
0.0
 11
-18.4732651964
 21
27.6146541095
 31
0.0
 11
-18.4501308822
 21
27.593043815
 31
0.0
 11
-18.4190930476
 21
27.5741288834
 31
0.0
  0
SPLINE
  5
522
100
AcDbEntity
  8
RACCORDO
100
AcDbSpline
 62
253
  6
CONTINUOUS
 70
0
 71
3
 72
10
 73
6
 74
4
 42
0.0000001
 43
0.0000001
 44
0.0000000001
 12
-0.578683076
 22
-0.0618861663
 32
0.0
 13
-0.4606254124
 23
0.3557080677
 33
0.0
 40
0.0
 40
0.0
 40
0.0
 40
0.0
 40
0.5091846312
 40
0.7559968702
 40
1.0
 40
1.0
 40
1.0
 40
1.0
 10
-4.3989568543
 20
-20.2007024362
 30
0.0
 10
-4.4971756971
 20
-20.2112062645
 30
0.0
 10
-4.6479578904
 20
-20.2017663255
 30
0.0
 10
-4.8306153481
 20
-20.1337087895
 30
0.0
 10
-4.9121714451
 20
-20.0830336596
 30
0.0
 10
-4.9496361259
 20
-20.0541023656
 30
0.0
 11
-4.3989568543
 21
-20.2007024362
 31
0.0
 11
-4.6945292121
 21
-20.1794321556
 31
0.0
 11
-4.8290814737
 21
-20.1291501804
 31
0.0
 11
-4.9496361259
 21
-20.0541023656
 31
0.0
  0
SPLINE
  5
523
100
AcDbEntity
  8
RACCORDO
100
AcDbSpline
 62
253
  6
CONTINUOUS
 70
0
 71
3
 72
12
 73
8
 74
6
 42
0.0000001
 43
0.0000001
 44
0.0000000001
 12
-0.1300439284
 22
-0.1434858524
 32
0.0
 13
-0.1715378333
 23
0.0898575811
 33
0.0
 40
0.0
 40
0.0
 40
0.0
 40
0.0
 40
0.3752469859
 40
0.6625270703
 40
0.7733750576
 40
0.8641283844
 40
1.0
 40
1.0
 40
1.0
 40
1.0
 10
-9.5923497647
 20
-17.0929942319
 30
0.0
 10
-9.6086159621
 20
-17.1109417764
 30
0.0
 10
-9.6384194566
 20
-17.1416607532
 30
0.0
 10
-9.6769449101
 20
-17.1737508058
 30
0.0
 10
-9.7044925459
 20
-17.189501484
 30
0.0
 10
-9.7246674878
 20
-17.197369249
 30
0.0
 10
-9.7408552534
 20
-17.1975049323
 30
0.0
 10
-9.7486242942
 20
-17.1934352341
 30
0.0
 11
-9.5923497647
 21
-17.0929942319
 31
0.0
 11
-9.6434031844
 21
-17.1447038066
 31
0.0
 11
-9.6870882026
 21
-17.1791487847
 31
0.0
 11
-9.7058341488
 21
-17.1896062036
 31
0.0
 11
-9.7223935049
 21
-17.195491845
 31
0.0
 11
-9.7486242942
 21
-17.1934352341
 31
0.0
  0
SPLINE
  5
524
100
AcDbEntity
  8
RACCORDO
100
AcDbSpline
 62
253
  6
CONTINUOUS
 70
0
 71
3
 72
12
 73
8
 74
6
 42
0.0000001
 43
0.0000001
 44
0.0000000001
 12
-0.1269433295
 22
-0.1406451517
 32
0.0
 13
-0.1783590469
 23
0.0639039748
 33
0.0
 40
0.0
 40
0.0
 40
0.0
 40
0.0
 40
0.3694637105
 40
0.6561539864
 40
0.768408772
 40
0.8612767806
 40
1.0
 40
1.0
 40
1.0
 40
1.0
 10
-9.6037520703
 20
-17.0870239557
 30
0.0
 10
-9.6193857215
 20
-17.1043450489
 30
0.0
 10
-9.648159542
 20
-17.1342198017
 30
0.0
 10
-9.6852934113
 20
-17.1657177267
 30
0.0
 10
-9.7119671855
 20
-17.1819343905
 30
0.0
 10
-9.7317408071
 20
-17.1905566278
 30
0.0
 10
-9.7475287592
 20
-17.1923372865
 30
0.0
 10
-9.7557762729
 20
-17.1893822981
 30
0.0
 11
-9.6037520703
 21
-17.0870239557
 31
0.0
 11
-9.652719976
 21
-17.1370442124
 31
0.0
 11
-9.6949406955
 21
-17.1712161738
 31
0.0
 11
-9.7132196207
 21
-17.1820884833
 31
0.0
 11
-9.7295009462
 21
-17.1887592734
 31
0.0
 11
-9.7557762729
 21
-17.1893822981
 31
0.0
  0
SPLINE
  5
525
100
AcDbEntity
  8
RACCORDO
100
AcDbSpline
 62
253
  6
CONTINUOUS
 70
0
 71
3
 72
11
 73
7
 74
5
 42
0.0000001
 43
0.0000001
 44
0.0000000001
 12
-1.0880324489
 22
-0.1483416929
 32
0.0
 13
-1.0225743973
 23
-0.4002017863
 33
0.0
 40
0.0
 40
0.0
 40
0.0
 40
0.0
 40
0.2055066059
 40
0.4557384354
 40
0.728658284
 40
1.0
 40
1.0
 40
1.0
 40
1.0
 10
5.354846308
 20
-1.2507938175
 30
0.0
 10
5.2803136894
 20
-1.2609555501
 30
0.0
 10
5.1164034875
 20
-1.2932302124
 30
0.0
 10
4.8582005473
 20
-1.360362331
 30
0.0
 10
4.5805010315
 20
-1.4470657174
 30
0.0
 10
4.3930881086
 20
-1.514873122
 30
0.0
 10
4.300599078
 20
-1.5510702685
 30
0.0
 11
5.354846308
 21
-1.2507938175
 31
0.0
 11
5.1329808634
 21
-1.2920378819
 31
0.0
 11
4.8668174782
 21
-1.3603066982
 31
0.0
 11
4.5806592715
 21
-1.4493531327
 31
0.0
 11
4.300599078
 21
-1.5510702685
 31
0.0
  0
SPLINE
  5
526
100
AcDbEntity
  8
RACCORDO
100
AcDbSpline
 62
253
  6
CONTINUOUS
 70
0
 71
3
 72
10
 73
6
 74
4
 42
0.0000001
 43
0.0000001
 44
0.0000000001
 12
-0.7804958999
 22
0.8717315563
 32
0.0
 13
-1.1628146679
 23
-0.1301990939
 33
0.0
 40
0.0
 40
0.0
 40
0.0
 40
0.0
 40
0.2523423676
 40
0.5106405117
 40
1.0
 40
1.0
 40
1.0
 40
1.0
 10
5.3548462438
 20
-17.7052765244
 30
0.0
 10
5.289195516
 20
-17.6319515895
 30
0.0
 10
5.1369778873
 20
-17.4997783547
 30
0.0
 10
4.7925957154
 20
-17.3142093212
 30
0.0
 10
4.490277141
 20
-17.2608567197
 30
0.0
 10
4.3005990107
 20
-17.2820947736
 30
0.0
 11
5.3548462438
 21
-17.7052765244
 31
0.0
 11
5.1329808334
 21
-17.5104565641
 31
0.0
 11
4.8668174542
 21
-17.3672787314
 31
0.0
 11
4.3005990107
 21
-17.2820947736
 31
0.0
  0
SPLINE
  5
527
100
AcDbEntity
  8
RACCORDO
100
AcDbSpline
 62
253
  6
CONTINUOUS
 70
0
 71
3
 72
11
 73
7
 74
5
 42
0.0000001
 43
0.0000001
 44
0.0000000001
 12
0.0306555523
 22
-0.2349847714
 32
0.0
 13
0.2117239713
 23
-0.1064451298
 33
0.0
 40
0.0
 40
0.0
 40
0.0
 40
0.0
 40
0.2227716402
 40
0.4581811961
 40
0.7158308049
 40
1.0
 40
1.0
 40
1.0
 40
1.0
 10
-22.4709210871
 20
-13.0934088698
 30
0.0
 10
-22.4686446912
 20
-13.1108581841
 30
0.0
 10
-22.4582839539
 20
-13.1462161722
 30
0.0
 10
-22.4270266395
 20
-13.1941299632
 30
0.0
 10
-22.3815609006
 20
-13.2361296631
 30
0.0
 10
-22.3447255616
 20
-13.2584512632
 30
0.0
 10
-22.324670418
 20
-13.2685340722
 30
0.0
 11
-22.4709210871
 21
-13.0934088698
 31
0.0
 11
-22.4562894044
 21
-13.1441322253
 31
0.0
 11
-22.4263307757
 21
-13.1911918004
 31
0.0
 11
-22.3819498412
 21
-13.2331234236
 31
0.0
 11
-22.324670418
 21
-13.2685340722
 31
0.0
  0
SPLINE
  5
528
100
AcDbEntity
  8
RACCORDO
100
AcDbSpline
 62
253
  6
CONTINUOUS
 70
0
 71
3
 72
11
 73
7
 74
5
 42
0.0000001
 43
0.0000001
 44
0.0000000001
 12
-0.003677342
 22
-0.2402845935
 32
0.0
 13
0.2149776928
 23
-0.1074001877
 33
0.0
 40
0.0
 40
0.0
 40
0.0
 40
0.0
 40
0.2040936345
 40
0.4309097409
 40
0.6948276326
 40
1.0
 40
1.0
 40
1.0
 40
1.0
 10
-23.1536928079
 20
13.106328888
 30
0.0
 10
-23.1539429819
 20
13.089982036
 30
0.0
 10
-23.1469217812
 20
13.0550868426
 30
0.0
 10
-23.1164217853
 20
13.0074552138
 30
0.0
 10
-23.0685652476
 20
12.964512769
 30
0.0
 10
-23.0291083579
 20
12.941174522
 30
0.0
 10
-23.0072399408
 20
12.9302493321
 30
0.0
 11
-23.1536928079
 21
13.106328888
 31
0.0
 11
-23.1446238634
 21
13.0581283314
 31
0.0
 11
-23.1163486728
 21
13.0115289256
 31
0.0
 11
-23.0699191936
 21
12.968322922
 31
0.0
 11
-23.0072399408
 21
12.9302493321
 31
0.0
  0
SPLINE
  5
529
100
AcDbEntity
  8
RACCORDO
100
AcDbSpline
 62
253
  6
CONTINUOUS
 70
0
 71
3
 72
11
 73
7
 74
5
 42
0.0000001
 43
0.0000001
 44
0.0000000001
 12
0.4352116394
 22
-0.5000246642
 32
0.0
 13
-0.0528722228
 23
-0.6607861711
 33
0.0
 40
0.0
 40
0.0
 40
0.0
 40
0.0
 40
0.2733713613
 40
0.531621509
 40
0.7733389554
 40
1.0
 40
1.0
 40
1.0
 40
1.0
 10
-20.6641992467
 20
11.7587288893
 30
0.0
 10
-20.6245411139
 20
11.7131647482
 30
0.0
 10
-20.5539923355
 20
11.6184868005
 30
0.0
 10
-20.4763509858
 20
11.4652107218
 30
0.0
 10
-20.4326299698
 20
11.3095797298
 30
0.0
 10
-20.4273937757
 20
11.2050409097
 30
0.0
 10
-20.4313884668
 20
11.1551160817
 30
0.0
 11
-20.6641992467
 21
11.7587288893
 31
0.0
 11
-20.5565272313
 21
11.6129672238
 31
0.0
 11
-20.4800573381
 21
11.459802028
 31
0.0
 11
-20.4378352653
 21
11.3052308805
 31
0.0
 11
-20.4313884668
 21
11.1551160817
 31
0.0
  0
SPLINE
  5
52A
100
AcDbEntity
  8
RACCORDO
100
AcDbSpline
 62
253
  6
CONTINUOUS
 70
0
 71
3
 72
11
 73
7
 74
5
 42
0.0000001
 43
0.0000001
 44
0.0000000001
 12
0.4662414033
 22
-0.5517268656
 32
0.0
 13
-0.1304477471
 23
-0.7104695389
 33
0.0
 40
0.0
 40
0.0
 40
0.0
 40
0.0
 40
0.2751745
 40
0.5338805729
 40
0.7747761646
 40
1.0
 40
1.0
 40
1.0
 40
1.0
 10
-20.5214797607
 20
12.0072594871
 30
0.0
 10
-20.4787138457
 20
11.9566524323
 30
0.0
 10
-20.4036413973
 20
11.8513347203
 30
0.0
 10
-20.3251755767
 20
11.6807200153
 30
0.0
 10
-20.2875987333
 20
11.5087666373
 30
0.0
 10
-20.2917214289
 20
11.3950060148
 30
0.0
 10
-20.3015147429
 20
11.34166779
 30
0.0
 11
-20.5214797607
 21
12.0072594871
 31
0.0
 11
-20.4069054635
 21
11.844831941
 31
0.0
 11
-20.3299940552
 21
11.674517523
 31
0.0
 11
-20.2943416868
 21
11.5041990925
 31
0.0
 11
-20.3015147429
 21
11.34166779
 31
0.0
  0
SPLINE
  5
52B
100
AcDbEntity
  8
RACCORDO
100
AcDbSpline
 62
253
  6
CONTINUOUS
 70
0
 71
3
 72
11
 73
7
 74
5
 42
0.0000001
 43
0.0000001
 44
0.0000000001
 12
0.4668077726
 22
-0.5527077938
 32
0.0
 13
-0.1320135728
 23
-0.7113141489
 33
0.0
 40
0.0
 40
0.0
 40
0.0
 40
0.0
 40
0.2752066711
 40
0.5339203877
 40
0.774800516
 40
1.0
 40
1.0
 40
1.0
 40
1.0
 10
-20.5188142074
 20
12.0117575356
 30
0.0
 10
-20.4759913363
 20
11.9610545783
 30
0.0
 10
-20.4008380306
 20
11.8555344363
 30
0.0
 10
-20.3223684811
 20
11.6845912763
 30
0.0
 10
-20.2849243887
 20
11.5123328257
 30
0.0
 10
-20.2892392351
 20
11.3984066855
 30
0.0
 10
-20.2991490313
 20
11.3450108257
 30
0.0
 11
-20.5188142074
 21
12.0117575356
 31
0.0
 11
-20.4041169755
 21
11.8490128322
 31
0.0
 11
-20.3272095338
 21
11.6783741541
 31
0.0
 11
-20.291698296
 21
11.5077633484
 31
0.0
 11
-20.2991490313
 21
11.3450108257
 31
0.0
  0
SPLINE
  5
52C
100
AcDbEntity
  8
RACCORDO
100
AcDbSpline
 62
253
  6
CONTINUOUS
 70
0
 71
3
 72
11
 73
7
 74
5
 42
0.0000001
 43
0.0000001
 44
0.0000000001
 12
-0.2612371176
 22
-0.1322938222
 32
0.0
 13
0.0
 23
-0.2928250109
 33
0.0
 40
0.0
 40
0.0
 40
0.0
 40
0.0
 40
0.2300181807
 40
0.4885559182
 40
0.7533507765
 40
1.0
 40
1.0
 40
1.0
 40
1.0
 10
-10.7565916803
 20
25.0901068623
 30
0.0
 10
-10.7766214425
 20
25.0799635342
 30
0.0
 10
-10.81485372
 20
25.049848667
 30
0.0
 10
-10.8589750682
 20
24.9902347243
 30
0.0
 10
-10.888995861
 20
24.9206473863
 30
0.0
 10
-10.8972725594
 20
24.8706387368
 30
0.0
 10
-10.8972725594
 20
24.8465637163
 30
0.0
 11
-10.7565916803
 21
25.0901068623
 31
0.0
 11
-10.8104896874
 21
25.049712418
 31
0.0
 11
-10.8561080622
 21
24.989293794
 31
0.0
 11
-10.8865767615
 21
24.9179924179
 31
0.0
 11
-10.8972725594
 21
24.8465637163
 31
0.0
  0
SPLINE
  5
52D
100
AcDbEntity
  8
RACCORDO
100
AcDbSpline
 62
253
  6
CONTINUOUS
 70
0
 71
3
 72
11
 73
7
 74
5
 42
0.0000001
 43
0.0000001
 44
0.0000000001
 12
0.0001381678
 22
-0.0961935913
 32
0.0
 13
0.0860382524
 23
-0.0430191262
 33
0.0
 40
0.0
 40
0.0
 40
0.0
 40
0.0
 40
0.2065479639
 40
0.4344776804
 40
0.6977161855
 40
1.0
 40
1.0
 40
1.0
 40
1.0
 10
-9.1944131326
 20
24.0364962215
 30
0.0
 10
-9.1944036198
 20
24.029873358
 30
0.0
 10
-9.1914772205
 20
24.015837255
 30
0.0
 10
-9.1792440239
 20
23.9966836702
 30
0.0
 10
-9.1601904604
 20
23.9794992016
 30
0.0
 10
-9.1445121495
 20
23.9701835113
 30
0.0
 10
-9.1358428258
 20
23.9658488495
 30
0.0
 11
-9.1944131326
 21
24.0364962215
 31
0.0
 11
-9.190560987
 21
24.0170046163
 31
0.0
 11
-9.1791776636
 21
23.9982658025
 31
0.0
 11
-9.1606734708
 21
23.9809801836
 31
0.0
 11
-9.1358428258
 21
23.9658488495
 31
0.0
  0
SPLINE
  5
52E
100
AcDbEntity
  8
RACCORDO
100
AcDbSpline
 62
253
  6
CONTINUOUS
 70
0
 71
3
 72
11
 73
7
 74
5
 42
0.0000001
 43
0.0000001
 44
0.0000000001
 12
0.2550187446
 22
-0.1275093723
 32
0.0
 13
0.2584110957
 23
0.1204861226
 33
0.0
 40
0.0
 40
0.0
 40
0.0
 40
0.0
 40
0.2342163406
 40
0.4975084557
 40
0.7621307837
 40
1.0
 40
1.0
 40
1.0
 40
1.0
 10
-10.8972725594
 20
24.8465637163
 30
0.0
 10
-10.877362707
 20
24.8366087901
 30
0.0
 10
-10.8316815176
 20
24.8222526279
 30
0.0
 10
-10.7592381862
 20
24.8149905987
 30
0.0
 10
-10.6863322404
 20
24.8210517627
 30
0.0
 10
-10.6399408794
 20
24.834585711
 30
0.0
 10
-10.6194515312
 20
24.8441390242
 30
0.0
 11
-10.8972725594
 21
24.8465637163
 31
0.0
 11
-10.8339946869
 21
24.8252227735
 31
0.0
 11
-10.7593448402
 21
24.8172938645
 31
0.0
 11
-10.6841868074
 21
24.8239138744
 31
0.0
 11
-10.6194515312
 21
24.8441390242
 31
0.0
  0
SPLINE
  5
52F
100
AcDbEntity
  8
RACCORDO
100
AcDbSpline
 62
253
  6
CONTINUOUS
 70
0
 71
3
 72
11
 73
7
 74
5
 42
0.0000001
 43
0.0000001
 44
0.0000000001
 12
-0.0012950837
 22
0.2924605588
 32
0.0
 13
-0.2577254029
 23
0.1382478658
 33
0.0
 40
0.0
 40
0.0
 40
0.0
 40
0.0
 40
0.2479090968
 40
0.5140842568
 40
0.7725862746
 40
1.0
 40
1.0
 40
1.0
 40
1.0
 10
-10.6194515312
 20
24.8441390242
 30
0.0
 10
-10.6195585522
 20
24.8683069019
 30
0.0
 10
-10.6278082624
 20
24.9184628314
 30
0.0
 10
-10.6570842648
 20
24.9884910606
 30
0.0
 10
-10.6998728865
 20
25.0487403113
 30
0.0
 10
-10.7370549156
 20
25.0796270416
 30
0.0
 10
-10.7565916803
 20
25.0901068623
 30
0.0
 11
-10.6194515312
 21
24.8441390242
 31
0.0
 11
-10.6301268492
 21
24.9158531613
 31
0.0
 11
-10.6599405878
 21
24.9877643457
 31
0.0
 11
-10.7043406475
 21
25.0489554843
 31
0.0
 11
-10.7565916803
 21
25.0901068623
 31
0.0
  0
SPLINE
  5
530
100
AcDbEntity
  8
RACCORDO
100
AcDbSpline
 62
7
  6
CONTINUOUS
 70
0
 71
3
 72
11
 73
7
 74
5
 42
0.0000001
 43
0.0000001
 44
0.0000000001
 12
0.0
 22
0.2928250109
 32
0.0
 13
0.2612371176
 23
0.1322938222
 33
0.0
 40
0.0
 40
0.0
 40
0.0
 40
0.0
 40
0.2466492235
 40
0.5114440818
 40
0.7699818193
 40
1.0
 40
1.0
 40
1.0
 40
1.0
 10
-12.4914314268
 20
25.6436431499
 30
0.0
 10
-12.4914314268
 20
25.6677181705
 30
0.0
 10
-12.4831547283
 20
25.71772682
 30
0.0
 10
-12.4531339356
 20
25.787314158
 30
0.0
 10
-12.4090125874
 20
25.8469281007
 30
0.0
 10
-12.3707803098
 20
25.8770429679
 30
0.0
 10
-12.3507505477
 20
25.887186296
 30
0.0
 11
-12.4914314268
 21
25.6436431499
 31
0.0
 11
-12.4807356289
 21
25.7150718516
 31
0.0
 11
-12.4502669296
 21
25.7863732277
 31
0.0
 11
-12.4046485547
 21
25.8467918517
 31
0.0
 11
-12.3507505477
 21
25.887186296
 31
0.0
  0
SPLINE
  5
531
100
AcDbEntity
  8
RACCORDO
100
AcDbSpline
 62
253
  6
CONTINUOUS
 70
0
 71
3
 72
9
 73
5
 74
3
 42
0.0000001
 43
0.0000001
 44
0.0000000001
 12
-0.0882905181
 22
0.0411470948
 32
0.0
 13
-0.0855796369
 23
-0.0465233784
 33
0.0
 40
0.0
 40
0.0
 40
0.0
 40
0.0
 40
0.5350841343
 40
1.0
 40
1.0
 40
1.0
 40
1.0
 10
-8.9951619467
 20
24.2093919955
 30
0.0
 10
-9.0109095652
 20
24.2167310481
 30
0.0
 10
-9.0429668467
 20
24.2263143346
 30
0.0
 10
-9.0765708314
 20
24.2195369839
 30
0.0
 10
-9.089833275
 20
24.212327165
 30
0.0
 11
-8.9951619467
 21
24.2093919955
 31
0.0
 11
-9.045659095
 21
24.2223024809
 31
0.0
 11
-9.089833275
 21
24.212327165
 31
0.0
  0
SPLINE
  5
532
100
AcDbEntity
  8
RACCORDO
100
AcDbSpline
 62
253
  6
CONTINUOUS
 70
0
 71
3
 72
11
 73
7
 74
5
 42
0.0000001
 43
0.0000001
 44
0.0000000001
 12
0.0
 22
0.2928249688
 32
0.0
 13
0.2612370801
 23
0.1322938032
 33
0.0
 40
0.0
 40
0.0
 40
0.0
 40
0.0
 40
0.2466560494
 40
0.5114563055
 40
0.7699987027
 40
1.0
 40
1.0
 40
1.0
 40
1.0
 10
-9.1358428258
 20
23.9658488495
 30
0.0
 10
-9.1358428258
 20
23.9899245328
 30
0.0
 10
-9.1275656526
 20
24.0399343383
 30
0.0
 10
-9.0975438647
 20
24.1095231074
 30
0.0
 10
-9.0534215578
 20
24.1691355502
 30
0.0
 10
-9.0151902358
 20
24.1992494134
 30
0.0
 10
-8.9951619467
 20
24.2093919955
 30
0.0
 11
-9.1358428258
 21
23.9658488495
 31
0.0
 11
-9.1251464669
 21
24.0372794777
 31
0.0
 11
-9.0946765876
 21
24.1085820563
 31
0.0
 11
-9.0490562939
 21
24.1690009276
 31
0.0
 11
-8.9951619467
 21
24.2093919955
 31
0.0
  0
SPLINE
  5
533
100
AcDbEntity
  8
RACCORDO
100
AcDbSpline
 62
253
  6
CONTINUOUS
 70
0
 71
3
 72
11
 73
7
 74
5
 42
0.0000001
 43
0.0000001
 44
0.0000000001
 12
0.1424251722
 22
0.0696833605
 32
0.0
 13
0.0006799474
 23
0.1585567346
 33
0.0
 40
0.0
 40
0.0
 40
0.0
 40
0.0
 40
0.216815895
 40
0.4498695085
 40
0.7100836583
 40
1.0
 40
1.0
 40
1.0
 40
1.0
 10
11.7539438503
 20
-29.478141772
 30
0.0
 10
11.7642371973
 20
-29.4731056186
 30
0.0
 10
11.7837652248
 20
-29.4585032793
 30
0.0
 10
11.8047655674
 20
-29.4266983047
 30
0.0
 10
11.8173963268
 20
-29.3868531386
 30
0.0
 10
11.820012776
 20
-29.3576801524
 30
0.0
 10
11.8200784853
 20
-29.3423574229
 30
0.0
 11
11.7539438503
 21
-29.478141772
 31
0.0
 11
11.7816148172
 21
-29.4577417695
 31
0.0
 11
11.8024816507
 21
-29.4272447708
 31
0.0
 11
11.8155176873
 21
-29.3880992236
 31
0.0
 11
11.8200784853
 21
-29.3423574229
 31
0.0
  0
SPLINE
  5
534
100
AcDbEntity
  8
RACCORDO
100
AcDbSpline
 62
253
  6
CONTINUOUS
 70
0
 71
3
 72
11
 73
7
 74
5
 42
0.0000001
 43
0.0000001
 44
0.0000000001
 12
-0.2612371176
 22
-0.1322938222
 32
0.0
 13
0.0
 23
-0.2928250109
 33
0.0
 40
0.0
 40
0.0
 40
0.0
 40
0.0
 40
0.2300181807
 40
0.4885559182
 40
0.7533507765
 40
1.0
 40
1.0
 40
1.0
 40
1.0
 10
5.1533108964
 20
17.135155574
 30
0.0
 10
5.1332811342
 20
17.1250122459
 30
0.0
 10
5.0950488567
 20
17.0948973786
 30
0.0
 10
5.0509275085
 20
17.035283436
 30
0.0
 10
5.0209067157
 20
16.965696098
 30
0.0
 10
5.0126300173
 20
16.9156874484
 30
0.0
 10
5.0126300173
 20
16.8916124279
 30
0.0
 11
5.1533108964
 21
17.135155574
 31
0.0
 11
5.0994128893
 21
17.0947611297
 31
0.0
 11
5.0537945145
 21
17.0343425056
 31
0.0
 11
5.0233258152
 21
16.9630411296
 31
0.0
 11
5.0126300173
 21
16.8916124279
 31
0.0
  0
SPLINE
  5
535
100
AcDbEntity
  8
RACCORDO
100
AcDbSpline
 62
253
  6
CONTINUOUS
 70
0
 71
3
 72
11
 73
7
 74
5
 42
0.0000001
 43
0.0000001
 44
0.0000000001
 12
0.2550187446
 22
-0.1275093723
 32
0.0
 13
0.2584110957
 23
0.1204861226
 33
0.0
 40
0.0
 40
0.0
 40
0.0
 40
0.0
 40
0.2342163406
 40
0.4975084557
 40
0.7621307837
 40
1.0
 40
1.0
 40
1.0
 40
1.0
 10
5.0126300173
 20
16.8916124279
 30
0.0
 10
5.0325398697
 20
16.8816575017
 30
0.0
 10
5.0782210591
 20
16.8673013396
 30
0.0
 10
5.1506643905
 20
16.8600393103
 30
0.0
 10
5.2235703363
 20
16.8661004744
 30
0.0
 10
5.2699616972
 20
16.8796344227
 30
0.0
 10
5.2904510455
 20
16.8891877359
 30
0.0
 11
5.0126300173
 21
16.8916124279
 31
0.0
 11
5.0759078898
 21
16.8702714851
 31
0.0
 11
5.1505577365
 21
16.8623425761
 31
0.0
 11
5.2257157693
 21
16.868962586
 31
0.0
 11
5.2904510455
 21
16.8891877359
 31
0.0
  0
SPLINE
  5
536
100
AcDbEntity
  8
RACCORDO
100
AcDbSpline
 62
253
  6
CONTINUOUS
 70
0
 71
3
 72
11
 73
7
 74
5
 42
0.0000001
 43
0.0000001
 44
0.0000000001
 12
-0.0012950837
 22
0.2924605588
 32
0.0
 13
-0.2577254029
 23
0.1382478658
 33
0.0
 40
0.0
 40
0.0
 40
0.0
 40
0.0
 40
0.2479090968
 40
0.5140842568
 40
0.7725862746
 40
1.0
 40
1.0
 40
1.0
 40
1.0
 10
5.2904510455
 20
16.8891877359
 30
0.0
 10
5.2903440245
 20
16.9133556135
 30
0.0
 10
5.2820943143
 20
16.9635115431
 30
0.0
 10
5.2528183119
 20
17.0335397722
 30
0.0
 10
5.2100296902
 20
17.093789023
 30
0.0
 10
5.1728476611
 20
17.1246757532
 30
0.0
 10
5.1533108964
 20
17.135155574
 30
0.0
 11
5.2904510455
 21
16.8891877359
 31
0.0
 11
5.2797757275
 21
16.960901873
 31
0.0
 11
5.2499619889
 21
17.0328130574
 31
0.0
 11
5.2055619292
 21
17.0940041959
 31
0.0
 11
5.1533108964
 21
17.135155574
 31
0.0
  0
SPLINE
  5
537
100
AcDbEntity
  8
RACCORDO
100
AcDbSpline
 62
7
  6
CONTINUOUS
 70
0
 71
3
 72
11
 73
7
 74
5
 42
0.0000001
 43
0.0000001
 44
0.0000000001
 12
0.0
 22
0.2928250109
 32
0.0
 13
0.2612371176
 23
0.1322938222
 33
0.0
 40
0.0
 40
0.0
 40
0.0
 40
0.0
 40
0.2466492235
 40
0.5114440818
 40
0.7699818193
 40
1.0
 40
1.0
 40
1.0
 40
1.0
 10
3.4184711499
 20
17.6886918616
 30
0.0
 10
3.4184711499
 20
17.7127668821
 30
0.0
 10
3.4267478484
 20
17.7627755316
 30
0.0
 10
3.4567686411
 20
17.8323628697
 30
0.0
 10
3.5008899893
 20
17.8919768123
 30
0.0
 10
3.5391222669
 20
17.9220916796
 30
0.0
 10
3.559152029
 20
17.9322350077
 30
0.0
 11
3.4184711499
 21
17.6886918616
 31
0.0
 11
3.4291669478
 21
17.7601205633
 31
0.0
 11
3.4596356471
 21
17.8314219393
 31
0.0
 11
3.505254022
 21
17.8918405634
 31
0.0
 11
3.559152029
 21
17.9322350077
 31
0.0
  0
SPLINE
  5
538
100
AcDbEntity
  8
RACCORDO
100
AcDbSpline
 62
253
  6
CONTINUOUS
 70
0
 71
3
 72
9
 73
5
 74
3
 42
0.0000001
 43
0.0000001
 44
0.0000000001
 12
-0.0882905181
 22
0.0411470948
 32
0.0
 13
-0.0855796369
 23
-0.0465233784
 33
0.0
 40
0.0
 40
0.0
 40
0.0
 40
0.0
 40
0.5350841343
 40
1.0
 40
1.0
 40
1.0
 40
1.0
 10
6.91474063
 20
16.2544407072
 30
0.0
 10
6.8989930115
 20
16.2617797597
 30
0.0
 10
6.86693573
 20
16.2713630462
 30
0.0
 10
6.8333317453
 20
16.2645856955
 30
0.0
 10
6.8200693017
 20
16.2573758766
 30
0.0
 11
6.91474063
 21
16.2544407072
 31
0.0
 11
6.8642434817
 21
16.2673511925
 31
0.0
 11
6.8200693017
 21
16.2573758766
 31
0.0
  0
SPLINE
  5
539
100
AcDbEntity
  8
RACCORDO
100
AcDbSpline
 62
253
  6
CONTINUOUS
 70
0
 71
3
 72
11
 73
7
 74
5
 42
0.0000001
 43
0.0000001
 44
0.0000000001
 12
0.0
 22
0.2928249688
 32
0.0
 13
0.2612370801
 23
0.1322938032
 33
0.0
 40
0.0
 40
0.0
 40
0.0
 40
0.0
 40
0.2466560494
 40
0.5114563055
 40
0.7699987027
 40
1.0
 40
1.0
 40
1.0
 40
1.0
 10
6.7740597509
 20
16.0108975611
 30
0.0
 10
6.7740597509
 20
16.0349732444
 30
0.0
 10
6.7823369241
 20
16.0849830499
 30
0.0
 10
6.812358712
 20
16.154571819
 30
0.0
 10
6.8564810189
 20
16.2141842618
 30
0.0
 10
6.8947123409
 20
16.2442981251
 30
0.0
 10
6.91474063
 20
16.2544407072
 30
0.0
 11
6.7740597509
 21
16.0108975611
 31
0.0
 11
6.7847561098
 21
16.0823281894
 31
0.0
 11
6.8152259891
 21
16.153630768
 31
0.0
 11
6.8608462828
 21
16.2140496392
 31
0.0
 11
6.91474063
 21
16.2544407072
 31
0.0
  0
SPLINE
  5
53A
100
AcDbEntity
  8
RACCORDO
100
AcDbSpline
 62
253
  6
CONTINUOUS
 70
0
 71
3
 72
11
 73
7
 74
5
 42
0.0000001
 43
0.0000001
 44
0.0000000001
 12
-0.1350450777
 22
0.0739176917
 32
0.0
 13
0.0
 23
0.153951285
 33
0.0
 40
0.0
 40
0.0
 40
0.0
 40
0.0
 40
0.2172561503
 40
0.451015807
 40
0.7110744724
 40
1.0
 40
1.0
 40
1.0
 40
1.0
 10
-18.3572364672
 20
27.1472760535
 30
0.0
 10
-18.3670162584
 20
27.1526290779
 30
0.0
 10
-18.385391213
 20
27.1675858805
 30
0.0
 10
-18.4050026825
 20
27.1989623278
 30
0.0
 10
-18.4167506899
 20
27.2377574316
 30
0.0
 10
-18.4190930476
 20
27.2660295851
 30
0.0
 10
-18.4190930476
 20
27.2808564039
 30
0.0
 11
-18.3572364672
 21
27.1472760535
 31
0.0
 11
-18.3833414763
 21
27.1681858879
 31
0.0
 11
-18.4028862746
 21
27.1984035678
 31
0.0
 11
-18.4149941002
 21
27.2365652127
 31
0.0
 11
-18.4190930476
 21
27.2808564039
 31
0.0
  0
SPLINE
  5
53B
100
AcDbEntity
  8
RACCORDO
100
AcDbSpline
 62
7
  6
CONTINUOUS
 70
0
 71
3
 72
10
 73
6
 74
4
 42
0.0000001
 43
0.0000001
 44
0.0000000001
 12
0.3471941063
 22
-0.0721526133
 32
0.0
 13
0.227214943
 23
0.2722556092
 33
0.0
 40
0.0
 40
0.0
 40
0.0
 40
0.0
 40
0.4827891464
 40
0.7436989725
 40
1.0
 40
1.0
 40
1.0
 40
1.0
 10
-15.9962683275
 20
26.1578255754
 30
0.0
 10
-15.9403944788
 20
26.1462140759
 30
0.0
 10
-15.8470541841
 20
26.1675372992
 30
0.0
 10
-15.7468449544
 20
26.2296139862
 30
0.0
 10
-15.7020846744
 20
26.272344396
 30
0.0
 10
-15.6826728666
 20
26.2956041935
 30
0.0
 11
-15.9962683275
 21
26.1578255754
 31
0.0
 11
-15.8271355478
 21
26.1843685197
 31
0.0
 11
-15.7481820014
 21
26.2326035475
 31
0.0
 11
-15.6826728666
 21
26.2956041935
 31
0.0
  0
SPLINE
  5
53C
100
AcDbEntity
  8
RACCORDO
100
AcDbSpline
 62
253
  6
CONTINUOUS
 70
0
 71
3
 72
11
 73
7
 74
5
 42
0.0000001
 43
0.0000001
 44
0.0000000001
 12
0.291260946
 22
-0.0608804149
 32
0.0
 13
0.1066333044
 23
0.277792552
 33
0.0
 40
0.0
 40
0.0
 40
0.0
 40
0.0
 40
0.2240297614
 40
0.4626415955
 40
0.7223918003
 40
1.0
 40
1.0
 40
1.0
 40
1.0
 10
-16.6203867562
 20
26.2880344455
 30
0.0
 10
-16.5986363828
 20
26.2834881038
 30
0.0
 10
-16.5510421828
 20
26.2844329701
 30
0.0
 10
-16.4846380701
 20
26.3155415662
 30
0.0
 10
-16.4291162417
 20
26.370625331
 30
0.0
 10
-16.4033495106
 20
26.4181961909
 30
0.0
 10
-16.3934820841
 20
26.443902021
 30
0.0
 11
-16.6203867562
 21
26.2880344455
 31
0.0
 11
-16.5537304652
 21
26.2888533219
 31
0.0
 11
-16.4889084673
 21
26.3178214254
 31
0.0
 11
-16.4333572946
 21
26.3715599872
 31
0.0
 11
-16.3934820841
 21
26.443902021
 31
0.0
  0
SPLINE
  5
53D
100
AcDbEntity
  8
RACCORDO
100
AcDbSpline
 62
253
  6
CONTINUOUS
 70
0
 71
3
 72
41
 73
37
 74
35
 42
0.0000001
 43
0.0000001
 44
0.0000000001
 12
-10.7966666703
 22
31.4595065592
 32
0.0
 13
-20.4688133345
 23
-26.2163354574
 33
0.0
 40
0.0
 40
0.0
 40
0.0
 40
0.0
 40
0.0761789434
 40
0.1525550306
 40
0.2282297929
 40
0.3024154882
 40
0.3744536525
 40
0.4438470118
 40
0.4774540623
 40
0.5102962962
 40
0.5264355039
 40
0.5423926416
 40
0.5503064306
 40
0.5581788753
 40
0.5660122094
 40
0.5738056957
 40
0.5815442889
 40
0.5892006257
 40
0.5967727114
 40
0.6043014057
 40
0.611741613
 40
0.6190994751
 40
0.6264040406
 40
0.6336709695
 40
0.6480943518
 40
0.6623663138
 40
0.6764830181
 40
0.6904441142
 40
0.7179061504
 40
0.7448039313
 40
0.7971237107
 40
0.8227559975
 40
0.8481331478
 40
0.8984267227
 40
0.9488051863
 40
1.0
 40
1.0
 40
1.0
 40
1.0
 10
4.1749483438
 20
-1.1792390848
 30
0.0
 10
3.9007887908
 20
-0.3803884286
 30
0.0
 10
3.3009666798
 20
1.2024870202
 30
0.0
 10
2.2507510499
 20
3.5066431336
 30
0.0
 10
1.0511227819
 20
5.7120108827
 30
0.0
 10
-0.2892048788
 20
7.7782978618
 30
0.0
 10
-1.7600051072
 20
9.6667717119
 30
0.0
 10
-3.0962850435
 20
11.0792939164
 30
0.0
 10
-4.2188263293
 20
12.0843991529
 30
0.0
 10
-4.9360577482
 20
12.6546169146
 30
0.0
 10
-5.5201086519
 20
13.0757773602
 30
0.0
 10
-5.8881775865
 20
13.3235193042
 30
0.0
 10
-6.1849996698
 20
13.5126330375
 30
0.0
 10
-6.4081622796
 20
13.6496708436
 30
0.0
 10
-6.6324217997
 20
13.7823046299
 30
0.0
 10
-6.8574249865
 20
13.9106911494
 30
0.0
 10
-7.0819158054
 20
14.035995291
 30
0.0
 10
-7.3042721537
 20
14.1600255616
 30
0.0
 10
-7.5266359039
 20
14.2794760234
 30
0.0
 10
-7.754151258
 20
14.3831133388
 30
0.0
 10
-7.9803474597
 20
14.4835958368
 30
0.0
 10
-8.2046143442
 20
14.5823743901
 30
0.0
 10
-8.4282683223
 20
14.6777392717
 30
0.0
 10
-8.7261900849
 20
14.7985308144
 30
0.0
 10
-9.0998709622
 20
14.9378813398
 30
0.0
 10
-9.5509677618
 20
15.0859439461
 30
0.0
 10
-10.0027549754
 20
15.2142962293
 30
0.0
 10
-10.6015861509
 20
15.3582414773
 30
0.0
 10
-11.3486979573
 20
15.489400551
 30
0.0
 10
-12.52796957
 20
15.5925701839
 30
0.0
 10
-13.6969413437
 20
15.5398231242
 30
0.0
 10
-14.8240866508
 20
15.3270194381
 30
0.0
 10
-15.9042475588
 20
15.0140132108
 30
0.0
 10
-17.1853402697
 20
14.4317854492
 30
0.0
 10
-18.5610410247
 20
13.4437114239
 30
0.0
 10
-19.3382431539
 20
12.6177435146
 30
0.0
 10
-19.6875421821
 20
12.1703633783
 30
0.0
 11
4.1749483438
 21
-1.1792390848
 31
0.0
 11
3.276265113
 21
1.1897904494
 31
0.0
 11
2.2206317657
 21
3.500383894
 31
0.0
 11
1.0150357902
 21
5.7098573494
 31
0.0
 11
-0.3315744731
 21
7.7774668578
 31
0.0
 11
-1.807872007
 21
9.6646666638
 31
0.0
 11
-3.3989075895
 21
11.3367234236
 31
0.0
 11
-4.2322997124
 21
12.0816494088
 31
0.0
 11
-5.0879289017
 21
12.760717599
 31
0.0
 11
-5.5234138432
 21
13.074575989
 31
0.0
 11
-5.9637852779
 21
13.3708232434
 31
0.0
 11
-6.1857731922
 21
13.5122616246
 31
0.0
 11
-6.408906866
 21
13.6492754361
 31
0.0
 11
-6.6331417232
 21
13.7819427288
 31
0.0
 11
-6.8581546251
 21
13.9106369686
 31
0.0
 11
-7.0827136572
 21
14.0364266597
 31
0.0
 11
-7.3054328238
 21
14.1598976136
 31
0.0
 11
-7.528283381
 21
14.2772312249
 31
0.0
 11
-7.7551873815
 21
14.383152169
 31
0.0
 11
-7.9812394882
 21
14.4838487666
 31
0.0
 11
-8.2053479592
 21
14.5821681957
 31
0.0
 11
-8.4289309752
 21
14.6772336915
 31
0.0
 11
-8.6529399324
 21
14.7680086934
 31
0.0
 11
-9.1025011173
 21
14.9354487376
 31
0.0
 11
-9.5535458845
 21
15.0834123903
 31
0.0
 11
-10.0052242068
 21
15.2116519122
 31
0.0
 11
-10.456740284
 21
15.3200884311
 31
0.0
 11
-11.3565192314
 21
15.4772671195
 31
0.0
 11
-12.2478110508
 21
15.5545576138
 31
0.0
 11
-13.986027461
 21
15.4717429435
 31
0.0
 11
-14.8237061169
 21
15.3132230973
 31
0.0
 11
-15.6343230732
 21
15.0779852574
 31
0.0
 11
-17.1567178376
 21
14.3847622075
 31
0.0
 11
-18.5184906775
 21
13.4084052826
 31
0.0
 11
-19.6875421821
 21
12.1703633783
 31
0.0
  0
LINE
  5
53E
100
AcDbEntity
  8
RACCORDO
100
AcDbLine
 62
253
  6
CONTINUOUS
 10
4.1772275343
 20
-1.1860343491
 11
4.1749936036
 21
-1.179221999
  0
SPLINE
  5
53F
100
AcDbEntity
  8
RACCORDO
100
AcDbSpline
 62
253
  6
CONTINUOUS
 70
0
 71
3
 72
11
 73
7
 74
5
 42
0.0000001
 43
0.0000001
 44
0.0000000001
 12
-0.3247092722
 22
-0.1606633027
 32
0.0
 13
-0.3240355638
 23
0.1620177819
 33
0.0
 40
0.0
 40
0.0
 40
0.0
 40
0.0
 40
0.235768032
 40
0.5003752359
 40
0.7647786019
 40
1.0
 40
1.0
 40
1.0
 40
1.0
 10
-16.3934820841
 20
26.443902021
 30
0.0
 10
-16.4190007728
 20
26.4312755975
 30
0.0
 10
-16.4775062579
 20
26.4132806544
 30
0.0
 10
-16.5699631377
 20
26.4047762963
 30
0.0
 10
-16.6623316022
 20
26.4135084019
 30
0.0
 10
-16.7207007556
 20
26.4316602579
 30
0.0
 10
-16.7461074551
 20
26.4443636076
 30
0.0
 11
-16.3934820841
 21
26.443902021
 31
0.0
 11
-16.4745753632
 21
26.4170775831
 31
0.0
 11
-16.569983913
 21
26.4077580979
 31
0.0
 11
-16.6652935906
 21
26.4173266227
 31
0.0
 11
-16.7461074551
 21
26.4443636076
 31
0.0
  0
SPLINE
  5
540
100
AcDbEntity
  8
RACCORDO
100
AcDbSpline
 62
253
  6
CONTINUOUS
 70
0
 71
3
 72
11
 73
7
 74
5
 42
0.0000001
 43
0.0000001
 44
0.0000000001
 12
0.0
 22
-0.1574195909
 32
0.0
 13
0.1408088651
 23
-0.0703831735
 33
0.0
 40
0.0
 40
0.0
 40
0.0
 40
0.0
 40
0.2896627477
 40
0.5495780546
 40
0.7827595118
 40
1.0
 40
1.0
 40
1.0
 40
1.0
 10
-16.7461074551
 20
26.4443636076
 30
0.0
 10
-16.7461074551
 20
26.4291640772
 30
0.0
 10
-16.7436517884
 20
26.4002167523
 30
0.0
 10
-16.7312848755
 20
26.3606283618
 30
0.0
 10
-16.7106228482
 20
26.3289243643
 30
0.0
 10
-16.6913358676
 20
26.314251115
 30
0.0
 10
-16.6811394054
 20
26.3091544234
 30
0.0
 11
-16.7461074551
 21
26.4443636076
 31
0.0
 11
-16.7417889797
 21
26.3989699705
 31
0.0
 11
-16.7290419324
 21
26.3600905118
 31
0.0
 11
-16.7085014559
 21
26.329668203
 31
0.0
 11
-16.6811394054
 21
26.3091544234
 31
0.0
  0
SPLINE
  5
541
100
AcDbEntity
  8
RACCORDO
100
AcDbSpline
 62
253
  6
CONTINUOUS
 70
0
 71
3
 72
11
 73
7
 74
5
 42
0.0000001
 43
0.0000001
 44
0.0000000001
 12
-0.1076172178
 22
0.0538086089
 32
0.0
 13
-0.000004788
 23
0.1203197072
 33
0.0
 40
0.0
 40
0.0
 40
0.0
 40
0.0
 40
0.3022933199
 40
0.5655420657
 40
0.7934540161
 40
1.0
 40
1.0
 40
1.0
 40
1.0
 10
-18.4190930476
 20
27.2808564039
 30
0.0
 10
-18.4299370363
 20
27.2862783982
 30
0.0
 10
-18.4495472723
 20
27.297932821
 30
0.0
 10
-18.4733759817
 20
27.3194322937
 30
0.0
 10
-18.4886636387
 20
27.3433995986
 30
0.0
 10
-18.4923045897
 20
27.3609607291
 30
0.0
 10
-18.4923049193
 20
27.3692445798
 30
0.0
 11
-18.4190930476
 21
27.2808564039
 31
0.0
 11
-18.4501508436
 21
27.2997858605
 31
0.0
 11
-18.4732914725
 21
27.3214134893
 31
0.0
 11
-18.4875140442
 21
27.3448591914
 31
0.0
 11
-18.4923049193
 21
27.3692445798
 31
0.0
  0
SPLINE
  5
542
100
AcDbEntity
  8
RACCORDO
100
AcDbSpline
 62
253
  6
CONTINUOUS
 70
0
 71
3
 72
11
 73
7
 74
5
 42
0.0000001
 43
0.0000001
 44
0.0000000001
 12
-0.0000271812
 22
8.8404215054
 32
0.0
 13
-2.791572503
 23
8.3880972428
 33
0.0
 40
0.0
 40
0.0
 40
0.0
 40
0.0
 40
0.2366848755
 40
0.483527222
 40
0.738686022
 40
1.0
 40
1.0
 40
1.0
 40
1.0
 10
5.7979150505
 20
-10.2284049076
 30
0.0
 10
5.797912906
 20
-9.5309402197
 30
0.0
 10
5.7299186753
 20
-8.1054793582
 30
0.0
 10
5.4435461722
 20
-5.945352582
 30
0.0
 10
4.972465425
 20
-3.7436956621
 30
0.0
 10
4.5437580502
 20
-2.2817126212
 30
0.0
 10
4.3005990783
 20
-1.5510702685
 30
0.0
 11
5.7979150505
 21
-10.2284049076
 31
0.0
 11
5.7027239009
 21
-8.1381772734
 31
0.0
 11
5.4189176713
 21
-5.9745208968
 31
0.0
 11
4.9494240534
 21
-3.7682096306
 31
0.0
 11
4.3005990783
 21
-1.5510702685
 31
0.0
  0
SPLINE
  5
543
100
AcDbEntity
  8
RACCORDO
100
AcDbSpline
 62
253
  6
CONTINUOUS
 70
0
 71
3
 72
10
 73
6
 74
4
 42
0.0000001
 43
0.0000001
 44
0.0000000001
 12
7.6382429665
 22
-3.8189704168
 32
0.0
 13
7.5636797502
 23
-3.9645982516
 33
0.0
 40
0.0
 40
0.0
 40
0.0
 40
0.0
 40
0.2245395186
 40
0.4720129845
 40
1.0
 40
1.0
 40
1.0
 40
1.0
 10
-17.2581545524
 20
-13.3008436781
 30
0.0
 10
-16.686458753
 20
-13.586680271
 30
0.0
 10
-15.4795169054
 20
-14.1772313531
 30
0.0
 10
-12.9152735968
 20
-15.4129977227
 30
0.0
 10
-10.9349269695
 20
-16.3892718228
 30
0.0
 10
-9.6037520703
 20
-17.0870239557
 30
0.0
 11
-17.2581545524
 21
-13.3008436781
 31
0.0
 11
-15.5373865931
 21
-14.1468965337
 31
0.0
 11
-13.6354058448
 21
-15.0681803003
 31
0.0
 11
-9.6037520703
 21
-17.0870239557
 31
0.0
  0
SPLINE
  5
544
100
AcDbEntity
  8
RACCORDO
100
AcDbSpline
 62
253
  6
CONTINUOUS
 70
0
 71
3
 72
18
 73
14
 74
12
 42
0.0000001
 43
0.0000001
 44
0.0000000001
 12
4.2672907949
 22
-1.0429175839
 32
0.0
 13
3.9291307345
 23
-1.9645303476
 33
0.0
 40
0.0
 40
0.0
 40
0.0
 40
0.0
 40
0.0147950898
 40
0.0369942763
 40
0.0664920066
 40
0.1031102739
 40
0.1466362344
 40
0.196815076
 40
0.3160117085
 40
0.4583076634
 40
0.6212469054
 40
0.802499178
 40
1.0
 40
1.0
 40
1.0
 40
1.0
 10
-21.1699179586
 20
-11.3045979339
 30
0.0
 10
-21.1488729752
 20
-11.309741287
 30
0.0
 10
-21.0978296694
 20
-11.3284579536
 30
0.0
 10
-21.0085065772
 20
-11.3670566542
 30
0.0
 10
-20.8916391212
 20
-11.4225412946
 30
0.0
 10
-20.7478944423
 20
-11.4940271839
 30
0.0
 10
-20.5780156678
 20
-11.5809794565
 30
0.0
 10
-20.301468369
 20
-11.7248871895
 30
0.0
 10
-19.8978349619
 20
-11.9378768589
 30
0.0
 10
-19.3482891179
 20
-12.2281393495
 30
0.0
 10
-18.7171362759
 20
-12.5584577012
 30
0.0
 10
-18.0119317974
 20
-12.9215834857
 30
0.0
 10
-17.5168234023
 20
-13.1715115586
 30
0.0
 10
-17.2581545524
 20
-13.3008436781
 30
0.0
 11
-21.1699179586
 21
-11.3045979339
 31
0.0
 11
-21.1082609195
 21
-11.3251531819
 31
0.0
 11
-21.0185024737
 21
-11.3632750738
 31
0.0
 11
-20.9012231064
 21
-11.418380154
 31
0.0
 11
-20.7570764483
 21
-11.4897779163
 31
0.0
 11
-20.5867803334
 21
-11.5767171277
 31
0.0
 11
-20.3911764451
 21
-11.6783462292
 31
0.0
 11
-19.9277652352
 21
-11.9221187607
 31
0.0
 11
-19.3748460141
 21
-12.2136967721
 31
0.0
 11
-18.7405488831
 21
-12.5453575701
 31
0.0
 11
-18.0326208227
 21
-12.9097818728
 31
0.0
 11
-17.2581545524
 21
-13.3008436781
 31
0.0
  0
SPLINE
  5
545
100
AcDbEntity
  8
RACCORDO
100
AcDbSpline
 62
253
  6
CONTINUOUS
 70
0
 71
3
 72
9
 73
5
 74
3
 42
0.0000001
 43
0.0000001
 44
0.0000000001
 12
-0.4700525083
 22
0.6437645378
 32
0.0
 13
-0.3822551308
 23
0.6994734846
 33
0.0
 40
0.0
 40
0.0
 40
0.0
 40
0.0
 40
0.2567177216
 40
1.0
 40
1.0
 40
1.0
 40
1.0
 10
-21.169833666
 20
-11.3047534031
 30
0.0
 10
-21.210057269
 20
-11.2496648146
 30
0.0
 10
-21.3634966344
 20
-11.0327401313
 30
0.0
 10
-21.5035629039
 20
-10.8062475939
 30
0.0
 10
-21.5982707254
 20
-10.6329455122
 30
0.0
 11
-21.169833666
 21
-11.3047534031
 31
0.0
 11
-21.2879571372
 21
-11.137657434
 31
0.0
 11
-21.5982707254
 21
-10.6329455122
 31
0.0
  0
LINE
  5
546
100
AcDbEntity
  8
RACCORDO
100
AcDbLine
 62
253
  6
CONTINUOUS
 10
-21.5982707254
 20
-10.6329455122
 11
-21.6017872199
 21
-10.6265006024
  0
SPLINE
  5
547
100
AcDbEntity
  8
RACCORDO
100
AcDbSpline
 62
253
  6
CONTINUOUS
 70
0
 71
3
 72
11
 73
7
 74
5
 42
0.0000001
 43
0.0000001
 44
0.0000000001
 12
0.0
 22
0.3660312094
 32
0.0
 13
0.3265463486
 23
0.1653672532
 33
0.0
 40
0.0
 40
0.0
 40
0.0
 40
0.0
 40
0.2466562638
 40
0.5114566903
 40
0.7699992314
 40
1.0
 40
1.0
 40
1.0
 40
1.0
 10
-18.4190930476
 20
27.5741288834
 30
0.0
 10
-18.4190930476
 20
27.6042235136
 30
0.0
 10
-18.4087465624
 20
27.6667358159
 30
0.0
 10
-18.3712192885
 20
27.7537218333
 30
0.0
 10
-18.316066367
 20
27.8282373277
 30
0.0
 10
-18.2682772524
 20
27.8658796175
 30
0.0
 10
-18.2432419487
 20
27.878557816
 30
0.0
 11
-18.4190930476
 21
27.5741288834
 31
0.0
 11
-18.4057225769
 21
27.6634172444
 31
0.0
 11
-18.3676351813
 21
27.752545515
 31
0.0
 11
-18.3106097393
 21
27.8280691131
 31
0.0
 11
-18.2432419487
 21
27.878557816
 31
0.0
  0
SPLINE
  5
548
100
AcDbEntity
  8
RACCORDO
100
AcDbSpline
 62
253
  6
CONTINUOUS
 70
0
 71
3
 72
9
 73
5
 74
3
 42
0.0000001
 43
0.0000001
 44
0.0000000001
 12
-0.1042827884
 22
0.0515947415
 32
0.0
 13
-0.1035394014
 23
-0.0530707987
 33
0.0
 40
0.0
 40
0.0
 40
0.0
 40
0.0
 40
0.5366976106
 40
1.0
 40
1.0
 40
1.0
 40
1.0
 10
-18.2432419487
 20
27.878557816
 30
0.0
 10
-18.2618980565
 20
27.8877880741
 30
0.0
 10
-18.2998434039
 20
27.9002559139
 30
0.0
 10
-18.3402071811
 20
27.8932626891
 30
0.0
 10
-18.3561971984
 20
27.8850667465
 30
0.0
 11
-18.2432419487
 21
27.878557816
 31
0.0
 11
-18.303325026
 21
27.8955653446
 31
0.0
 11
-18.3561971984
 21
27.8850667465
 31
0.0
  0
SPLINE
  5
549
100
AcDbEntity
  8
RACCORDO
100
AcDbSpline
 62
253
  6
CONTINUOUS
 70
0
 71
3
 72
11
 73
7
 74
5
 42
0.0000001
 43
0.0000001
 44
0.0000000001
 12
3.3528195368
 22
6.4556165948
 32
0.0
 13
0.0000200144
 23
7.274364884
 33
0.0
 40
0.0
 40
0.0
 40
0.0
 40
0.0
 40
0.2266173854
 40
0.4686377155
 40
0.7265955082
 40
1.0
 40
1.0
 40
1.0
 40
1.0
 10
4.3005990776
 20
-17.2820949264
 30
0.0
 10
4.5538681433
 20
-16.7944432751
 30
0.0
 10
4.9978564921
 20
-15.7433204727
 30
0.0
 10
5.4618649521
 20
-14.0392414214
 30
0.0
 10
5.7394288022
 20
-12.1808279361
 30
0.0
 10
5.7979132265
 20
-10.8913529189
 30
0.0
 10
5.7979150505
 20
-10.2284049076
 30
0.0
 11
4.3005990776
 21
-17.2820949264
 31
0.0
 11
4.9494244707
 21
-15.7666511687
 31
0.0
 11
5.4189183315
 21
-14.0698626252
 31
0.0
 11
5.7027240889
 21
-12.2149695988
 31
0.0
 11
5.7979150505
 21
-10.2284049076
 31
0.0
  0
LINE
  5
54A
100
AcDbEntity
  8
RACCORDO
100
AcDbLine
 62
253
  6
CONTINUOUS
 10
-9.6037520703
 20
-17.0870239557
 11
-9.5923501057
 21
-17.092995102
  0
LINE
  5
54B
100
AcDbEntity
  8
RACCORDO
100
AcDbLine
 62
253
  6
CONTINUOUS
 10
4.1749936022
 20
-17.517479384
 11
4.1772274488
 21
-17.5132508023
  0
SPLINE
  5
54C
100
AcDbEntity
  8
RACCORDO
100
AcDbSpline
 62
253
  6
CONTINUOUS
 70
0
 71
3
 72
9
 73
5
 74
3
 42
0.0000001
 43
0.0000001
 44
0.0000000001
 12
-0.4687783201
 22
0.643289139
 32
0.0
 13
-0.3810161189
 23
0.6988567427
 33
0.0
 40
0.0
 40
0.0
 40
0.0
 40
0.0
 40
0.2567114106
 40
1.0
 40
1.0
 40
1.0
 40
1.0
 10
-21.1710383389
 20
-11.3043198435
 30
0.0
 10
-21.2111519201
 20
-11.2492732894
 30
0.0
 10
-21.3641675098
 20
-11.0325123916
 30
0.0
 10
-21.5038138195
 20
-10.8062055539
 30
0.0
 10
-21.598215464
 20
-10.6330548063
 30
0.0
 11
-21.1710383389
 21
-11.3043198435
 31
0.0
 11
-21.2888325703
 21
-11.1373542132
 31
0.0
 11
-21.598215464
 21
-10.6330548063
 31
0.0
  0
SPLINE
  5
54D
100
AcDbEntity
  8
RACCORDO
100
AcDbSpline
 62
253
  6
CONTINUOUS
 70
0
 71
3
 72
11
 73
7
 74
5
 42
0.0000001
 43
0.0000001
 44
0.0000000001
 12
-0.326546397
 22
-0.1653672778
 32
0.0
 13
0.0
 23
-0.3660312636
 33
0.0
 40
0.0
 40
0.0
 40
0.0
 40
0.0
 40
0.2300181807
 40
0.4885559182
 40
0.7533507765
 40
1.0
 40
1.0
 40
1.0
 40
1.0
 10
-16.5702563562
 20
27.0420650197
 30
0.0
 10
-16.5952935589
 20
27.0293858596
 30
0.0
 10
-16.6430839058
 20
26.9917422755
 30
0.0
 10
-16.6982355911
 20
26.9172248472
 30
0.0
 10
-16.735761582
 20
26.8302406747
 30
0.0
 10
-16.7461074551
 20
26.7677298628
 30
0.0
 10
-16.7461074551
 20
26.7376360871
 30
0.0
 11
-16.5702563562
 21
27.0420650197
 31
0.0
 11
-16.637628865
 21
26.9915719643
 31
0.0
 11
-16.6946518335
 21
26.9160486843
 31
0.0
 11
-16.7327377077
 21
26.8269219642
 31
0.0
 11
-16.7461074551
 21
26.7376360871
 31
0.0
  0
SPLINE
  5
54E
100
AcDbEntity
  8
RACCORDO
100
AcDbSpline
 62
253
  6
CONTINUOUS
 70
0
 71
3
 72
9
 73
5
 74
3
 42
0.0000001
 43
0.0000001
 44
0.0000000001
 12
2.9797880735
 22
-1.5631784256
 32
0.0
 13
2.8951272705
 23
-1.714905782
 33
0.0
 40
0.0
 40
0.0
 40
0.0
 40
0.0
 40
0.5187065858
 40
1.0
 40
1.0
 40
1.0
 40
1.0
 10
-9.5923501057
 20
-17.092995102
 30
0.0
 10
-9.0771382063
 20
-17.3632720834
 30
0.0
 10
-8.0887992448
 20
-17.8937961883
 30
0.0
 10
-7.1138258538
 20
-18.4487057173
 30
0.0
 10
-6.649357291
 20
-18.7238300036
 30
0.0
 11
-9.5923501057
 21
-17.092995102
 31
0.0
 11
-8.0554184436
 21
-17.9202058351
 31
0.0
 11
-6.649357291
 21
-18.7238300036
 31
0.0
  0
LINE
  5
54F
100
AcDbEntity
  8
RACCORDO
100
AcDbLine
 62
253
  6
CONTINUOUS
 10
-6.649357291
 20
-18.7238300036
 11
-6.6453092328
 21
-18.7262281239
  0
SPLINE
  5
550
100
AcDbEntity
  8
RACCORDO
100
AcDbSpline
 62
253
  6
CONTINUOUS
 70
0
 71
3
 72
11
 73
7
 74
5
 42
0.0000001
 43
0.0000001
 44
0.0000000001
 12
2.3129868519
 22
-1.3704052484
 32
0.0
 13
2.1260877274
 23
-1.645499832
 33
0.0
 40
0.0
 40
0.0
 40
0.0
 40
0.0
 40
0.2884963735
 40
0.5535375845
 40
0.7917646036
 40
1.0
 40
1.0
 40
1.0
 40
1.0
 10
-6.6453092328
 20
-18.7262281239
 30
0.0
 10
-6.4228797932
 20
-18.858013772
 30
0.0
 10
-5.9982386956
 20
-19.114504712
 30
0.0
 10
-5.3989109039
 20
-19.4944643563
 30
0.0
 10
-4.8700048358
 20
-19.850732203
 30
0.0
 10
-4.5465329337
 20
-20.0864931637
 30
0.0
 10
-4.3989573601
 20
-20.200710267
 30
0.0
 11
-6.6453092328
 21
-18.7262281239
 31
0.0
 11
-5.9817772391
 21
-19.1278574396
 31
0.0
 11
-5.3805104997
 21
-19.5102404722
 31
0.0
 11
-4.8501052133
 21
-19.8692249974
 31
0.0
 11
-4.3989573601
 21
-20.200710267
 31
0.0
  0
SPLINE
  5
551
100
AcDbEntity
  8
RACCORDO
100
AcDbSpline
 62
253
  6
CONTINUOUS
 70
0
 71
3
 72
11
 73
7
 74
5
 42
0.0000001
 43
0.0000001
 44
0.0000000001
 12
0.3240355412
 22
-0.1620177706
 32
0.0
 13
0.3247092495
 23
0.1606632915
 33
0.0
 40
0.0
 40
0.0
 40
0.0
 40
0.0
 40
0.2352016938
 40
0.4996084761
 40
0.7642196693
 40
1.0
 40
1.0
 40
1.0
 40
1.0
 10
-16.7461074551
 20
26.7376360871
 30
0.0
 10
-16.7207028857
 20
26.7249338024
 30
0.0
 10
-16.6623358463
 20
26.7067822985
 30
0.0
 10
-16.5699690153
 20
26.6980485366
 30
0.0
 10
-16.4775096535
 20
26.7065522437
 30
0.0
 10
-16.4190021021
 20
26.7245474192
 30
0.0
 10
-16.3934820841
 20
26.7371745005
 30
0.0
 11
-16.7461074551
 21
26.7376360871
 31
0.0
 11
-16.6653005583
 21
26.7106007939
 31
0.0
 11
-16.5699898171
 21
26.7010305409
 31
0.0
 11
-16.4745797314
 21
26.7103490993
 31
0.0
 11
-16.3934820841
 21
26.7371745005
 31
0.0
  0
SPLINE
  5
552
100
AcDbEntity
  8
RACCORDO
100
AcDbSpline
 62
253
  6
CONTINUOUS
 70
0
 71
3
 72
23
 73
19
 74
17
 42
0.0000001
 43
0.0000001
 44
0.0000000001
 12
1.5655362493
 22
-1.2116701734
 32
0.0
 13
-1.9795021791
 23
0.0248893523
 33
0.0
 40
0.0
 40
0.0
 40
0.0
 40
0.0
 40
0.2452086052
 40
0.4547990654
 40
0.5456924172
 40
0.6271061619
 40
0.698914247
 40
0.7610291891
 40
0.8134152503
 40
0.8561448331
 40
0.8894922113
 40
0.9142379762
 40
0.9324852113
 40
0.9407148587
 40
0.9493838449
 40
0.9592260414
 40
0.9707542194
 40
1.0
 40
1.0
 40
1.0
 40
1.0
 10
-4.3989573601
 20
-20.200710267
 30
0.0
 10
-4.2709963734
 20
-20.2997475847
 30
0.0
 10
-4.0348801568
 20
-20.4850200689
 30
0.0
 10
-3.7561346047
 20
-20.7130627195
 30
0.0
 10
-3.5650726062
 20
-20.8774112124
 30
0.0
 10
-3.4450953251
 20
-20.9849259945
 30
0.0
 10
-3.34177278
 20
-21.0825068346
 30
0.0
 10
-3.255358262
 20
-21.170005267
 30
0.0
 10
-3.1860964834
 20
-21.2473282173
 30
0.0
 10
-3.1339980845
 20
-21.3143329813
 30
0.0
 10
-3.0992440324
 20
-21.3713203006
 30
0.0
 10
-3.0808882644
 20
-21.4186496459
 30
0.0
 10
-3.0813999435
 20
-21.4542267164
 30
0.0
 10
-3.0933602914
 20
-21.4746520111
 30
0.0
 10
-3.1068882511
 20
-21.4863738314
 30
0.0
 10
-3.1248764677
 20
-21.495095241
 30
0.0
 10
-3.1572889576
 20
-21.5036943192
 30
0.0
 10
-3.1844576416
 20
-21.504898133
 30
0.0
 10
-3.2037550038
 20
-21.5046554968
 30
0.0
 11
-4.3989573601
 21
-20.200710267
 31
0.0
 11
-4.0174930441
 21
-20.5009212184
 31
0.0
 11
-3.6970399439
 21
-20.7644860069
 31
0.0
 11
-3.5607528031
 21
-20.8819740092
 31
0.0
 11
-3.440878741
 21
-20.9897071844
 31
0.0
 11
-3.337737682
 21
-21.0875341088
 31
0.0
 11
-3.2516313278
 21
-21.1753203658
 31
0.0
 11
-3.1828513492
 21
-21.252937095
 31
0.0
 11
-3.1316534235
 21
-21.3202738493
 31
0.0
 11
-3.0982747784
 21
-21.3772302755
 31
0.0
 11
-3.0828926929
 21
-21.4237408335
 31
0.0
 11
-3.0856539284
 21
-21.4597584422
 31
0.0
 11
-3.0938744232
 21
-21.4738243313
 31
0.0
 11
-3.1066720093
 21
-21.4852586415
 31
0.0
 11
-3.1240551471
 21
-21.4940597869
 31
0.0
 11
-3.1460279716
 21
-21.5002268078
 31
0.0
 11
-3.2037550038
 21
-21.5046554968
 31
0.0
  0
SPLINE
  5
553
100
AcDbEntity
  8
RACCORDO
100
AcDbSpline
 62
253
  6
CONTINUOUS
 70
0
 71
3
 72
11
 73
7
 74
5
 42
0.0000001
 43
0.0000001
 44
0.0000000001
 12
-0.0015795713
 22
0.3667766459
 32
0.0
 13
-0.3273614738
 23
0.1654148375
 33
0.0
 40
0.0
 40
0.0
 40
0.0
 40
0.0
 40
0.2467432229
 40
0.5118843482
 40
0.7705350917
 40
1.0
 40
1.0
 40
1.0
 40
1.0
 10
-16.3934820841
 20
26.7371745005
 30
0.0
 10
-16.3936120002
 20
26.7673410511
 30
0.0
 10
-16.4042376531
 20
26.8299832455
 30
0.0
 10
-16.4420663644
 20
26.9171095669
 30
0.0
 10
-16.4973778084
 20
26.9917140646
 30
0.0
 10
-16.5452170326
 20
27.0294127195
 30
0.0
 10
-16.5702563562
 20
27.0420650197
 30
0.0
 11
-16.3934820841
 21
26.7371745005
 31
0.0
 11
-16.4072259818
 21
26.8266252922
 31
0.0
 11
-16.4456511712
 21
26.9159604511
 31
0.0
 11
-16.5028895632
 21
26.9916155301
 31
0.0
 11
-16.5702563562
 21
27.0420650197
 31
0.0
  0
SPLINE
  5
554
100
AcDbEntity
  8
RACCORDO
100
AcDbSpline
 62
253
  6
CONTINUOUS
 70
0
 71
3
 72
9
 73
5
 74
3
 42
0.0000001
 43
0.0000001
 44
0.0000000001
 12
-0.1042827884
 22
0.0515947415
 32
0.0
 13
-0.1035394014
 23
-0.0530707987
 33
0.0
 40
0.0
 40
0.0
 40
0.0
 40
0.0
 40
0.5366976106
 40
1.0
 40
1.0
 40
1.0
 40
1.0
 10
-5.939583956
 20
21.7267288197
 30
0.0
 10
-5.9582400638
 20
21.7359590778
 30
0.0
 10
-5.9961854113
 20
21.7484269176
 30
0.0
 10
-6.0365491884
 20
21.7414336928
 30
0.0
 10
-6.0525392058
 20
21.7332377502
 30
0.0
 11
-5.939583956
 21
21.7267288197
 31
0.0
 11
-5.9996670334
 21
21.7437363482
 31
0.0
 11
-6.0525392058
 21
21.7332377502
 31
0.0
  0
SPLINE
  5
555
100
AcDbEntity
  8
RACCORDO
100
AcDbSpline
 62
253
  6
CONTINUOUS
 70
0
 71
3
 72
11
 73
7
 74
5
 42
0.0000001
 43
0.0000001
 44
0.0000000001
 12
0.0
 22
0.3660312094
 32
0.0
 13
0.3265463486
 23
0.1653672532
 33
0.0
 40
0.0
 40
0.0
 40
0.0
 40
0.0
 40
0.2466562638
 40
0.5114566903
 40
0.7699992314
 40
1.0
 40
1.0
 40
1.0
 40
1.0
 10
-6.1154350549
 20
21.4222998871
 30
0.0
 10
-6.1154350549
 20
21.4523945172
 30
0.0
 10
-6.1050885698
 20
21.5149068196
 30
0.0
 10
-6.0675612958
 20
21.601892837
 30
0.0
 10
-6.0124083743
 20
21.6764083314
 30
0.0
 10
-5.9646192597
 20
21.7140506212
 30
0.0
 10
-5.939583956
 20
21.7267288197
 30
0.0
 11
-6.1154350549
 21
21.4222998871
 31
0.0
 11
-6.1020645843
 21
21.511588248
 31
0.0
 11
-6.0639771887
 21
21.6007165187
 31
0.0
 11
-6.0069517466
 21
21.6762401168
 31
0.0
 11
-5.939583956
 21
21.7267288197
 31
0.0
  0
SPLINE
  5
556
100
AcDbEntity
  8
RACCORDO
100
AcDbSpline
 62
253
  6
CONTINUOUS
 70
0
 71
3
 72
11
 73
7
 74
5
 42
0.0000001
 43
0.0000001
 44
0.0000000001
 12
-0.326546397
 22
-0.1653672778
 32
0.0
 13
0.0
 23
-0.3660312636
 33
0.0
 40
0.0
 40
0.0
 40
0.0
 40
0.0
 40
0.2300181807
 40
0.4885559182
 40
0.7533507765
 40
1.0
 40
1.0
 40
1.0
 40
1.0
 10
-4.2665983635
 20
20.8902360234
 30
0.0
 10
-4.2916355662
 20
20.8775568633
 30
0.0
 10
-4.3394259131
 20
20.8399132792
 30
0.0
 10
-4.3945775984
 20
20.7653958509
 30
0.0
 10
-4.4321035893
 20
20.6784116784
 30
0.0
 10
-4.4424494624
 20
20.6159008665
 30
0.0
 10
-4.4424494624
 20
20.5858070908
 30
0.0
 11
-4.2665983635
 21
20.8902360234
 31
0.0
 11
-4.3339708724
 21
20.839742968
 31
0.0
 11
-4.3909938409
 21
20.764219688
 31
0.0
 11
-4.429079715
 21
20.6750929679
 31
0.0
 11
-4.4424494624
 21
20.5858070908
 31
0.0
  0
SPLINE
  5
557
100
AcDbEntity
  8
RACCORDO
100
AcDbSpline
 62
253
  6
CONTINUOUS
 70
0
 71
3
 72
11
 73
7
 74
5
 42
0.0000001
 43
0.0000001
 44
0.0000000001
 12
0.3240355412
 22
-0.1620177706
 32
0.0
 13
0.3247092495
 23
0.1606632915
 33
0.0
 40
0.0
 40
0.0
 40
0.0
 40
0.0
 40
0.2352016938
 40
0.4996084761
 40
0.7642196693
 40
1.0
 40
1.0
 40
1.0
 40
1.0
 10
-4.4424494624
 20
20.5858070908
 30
0.0
 10
-4.417044893
 20
20.5731048061
 30
0.0
 10
-4.3586778537
 20
20.5549533022
 30
0.0
 10
-4.2663110226
 20
20.5462195403
 30
0.0
 10
-4.1738516609
 20
20.5547232473
 30
0.0
 10
-4.1153441095
 20
20.5727184229
 30
0.0
 10
-4.0898240914
 20
20.5853455042
 30
0.0
 11
-4.4424494624
 21
20.5858070908
 31
0.0
 11
-4.3616425657
 21
20.5587717976
 31
0.0
 11
-4.2663318245
 21
20.5492015446
 31
0.0
 11
-4.1709217387
 21
20.5585201029
 31
0.0
 11
-4.0898240914
 21
20.5853455042
 31
0.0
  0
SPLINE
  5
558
100
AcDbEntity
  8
RACCORDO
100
AcDbSpline
 62
253
  6
CONTINUOUS
 70
0
 71
3
 72
11
 73
7
 74
5
 42
0.0000001
 43
0.0000001
 44
0.0000000001
 12
-0.0015795713
 22
0.3667766459
 32
0.0
 13
-0.3273614738
 23
0.1654148375
 33
0.0
 40
0.0
 40
0.0
 40
0.0
 40
0.0
 40
0.2467432229
 40
0.5118843482
 40
0.7705350917
 40
1.0
 40
1.0
 40
1.0
 40
1.0
 10
-4.0898240914
 20
20.5853455042
 30
0.0
 10
-4.0899540076
 20
20.6155120548
 30
0.0
 10
-4.1005796604
 20
20.6781542492
 30
0.0
 10
-4.1384083718
 20
20.7652805706
 30
0.0
 10
-4.1937198158
 20
20.8398850683
 30
0.0
 10
-4.24155904
 20
20.8775837232
 30
0.0
 10
-4.2665983635
 20
20.8902360234
 30
0.0
 11
-4.0898240914
 21
20.5853455042
 31
0.0
 11
-4.1035679892
 21
20.6747962959
 31
0.0
 11
-4.1419931785
 21
20.7641314548
 31
0.0
 11
-4.1992315705
 21
20.8397865338
 31
0.0
 11
-4.2665983635
 21
20.8902360234
 31
0.0
  0
SPLINE
  5
559
100
AcDbEntity
  8
RACCORDO
100
AcDbSpline
 62
253
  6
CONTINUOUS
 70
0
 71
3
 72
11
 73
7
 74
5
 42
0.0000001
 43
0.0000001
 44
0.0000000001
 12
-0.3247092722
 22
-0.1606633027
 32
0.0
 13
-0.3240355638
 23
0.1620177819
 33
0.0
 40
0.0
 40
0.0
 40
0.0
 40
0.0
 40
0.235768032
 40
0.5003752359
 40
0.7647786019
 40
1.0
 40
1.0
 40
1.0
 40
1.0
 10
-4.0898240914
 20
20.2920730247
 30
0.0
 10
-4.1153427801
 20
20.2794466011
 30
0.0
 10
-4.1738482652
 20
20.261451658
 30
0.0
 10
-4.2663051451
 20
20.2529473
 30
0.0
 10
-4.3586736095
 20
20.2616794056
 30
0.0
 10
-4.417042763
 20
20.2798312616
 30
0.0
 10
-4.4424494624
 20
20.2925346113
 30
0.0
 11
-4.0898240914
 21
20.2920730247
 31
0.0
 11
-4.1709173706
 21
20.2652485868
 31
0.0
 11
-4.2663259204
 21
20.2559291016
 31
0.0
 11
-4.361635598
 21
20.2654976264
 31
0.0
 11
-4.4424494624
 21
20.2925346113
 31
0.0
  0
SPLINE
  5
55A
100
AcDbEntity
  8
RACCORDO
100
AcDbSpline
 62
253
  6
CONTINUOUS
 70
0
 71
3
 72
11
 73
7
 74
5
 42
0.0000001
 43
0.0000001
 44
0.0000000001
 12
0.0
 22
-0.1574195909
 32
0.0
 13
0.1408088651
 23
-0.0703831735
 33
0.0
 40
0.0
 40
0.0
 40
0.0
 40
0.0
 40
0.2896627477
 40
0.5495780546
 40
0.7827595118
 40
1.0
 40
1.0
 40
1.0
 40
1.0
 10
-4.4424494624
 20
20.2925346113
 30
0.0
 10
-4.4424494624
 20
20.2773350809
 30
0.0
 10
-4.4399937958
 20
20.248387756
 30
0.0
 10
-4.4276268828
 20
20.2087993655
 30
0.0
 10
-4.4069648556
 20
20.177095368
 30
0.0
 10
-4.3876778749
 20
20.1624221187
 30
0.0
 10
-4.3774814127
 20
20.157325427
 30
0.0
 11
-4.4424494624
 21
20.2925346113
 31
0.0
 11
-4.438130987
 21
20.2471409741
 31
0.0
 11
-4.4253839398
 21
20.2082615154
 31
0.0
 11
-4.4048434632
 21
20.1778392067
 31
0.0
 11
-4.3774814127
 21
20.157325427
 31
0.0
  0
SPLINE
  5
55B
100
AcDbEntity
  8
RACCORDO
100
AcDbSpline
 62
253
  6
CONTINUOUS
 70
0
 71
3
 72
11
 73
7
 74
5
 42
0.0000001
 43
0.0000001
 44
0.0000000001
 12
-0.1076172178
 22
0.0538086089
 32
0.0
 13
-0.000004788
 23
0.1203197072
 33
0.0
 40
0.0
 40
0.0
 40
0.0
 40
0.0
 40
0.3022933199
 40
0.5655420657
 40
0.7934540161
 40
1.0
 40
1.0
 40
1.0
 40
1.0
 10
-6.1154350549
 20
21.1290274075
 30
0.0
 10
-6.1262790436
 20
21.1344494019
 30
0.0
 10
-6.1458892797
 20
21.1461038247
 30
0.0
 10
-6.169717989
 20
21.1676032974
 30
0.0
 10
-6.1850056461
 20
21.1915706023
 30
0.0
 10
-6.188646597
 20
21.2091317328
 30
0.0
 10
-6.1886469267
 20
21.2174155835
 30
0.0
 11
-6.1154350549
 21
21.1290274075
 31
0.0
 11
-6.1464928509
 21
21.1479568642
 31
0.0
 11
-6.1696334799
 21
21.169584493
 31
0.0
 11
-6.1838560516
 21
21.1930301951
 31
0.0
 11
-6.1886469267
 21
21.2174155835
 31
0.0
  0
SPLINE
  5
55C
100
AcDbEntity
  8
RACCORDO
100
AcDbSpline
 62
253
  6
CONTINUOUS
 70
0
 71
3
 72
11
 73
7
 74
5
 42
0.0000001
 43
0.0000001
 44
0.0000000001
 12
-0.1076172178
 22
0.0538086089
 32
0.0
 13
-0.000004788
 23
0.1203197072
 33
0.0
 40
0.0
 40
0.0
 40
0.0
 40
0.0
 40
0.3022933199
 40
0.5655420657
 40
0.7934540161
 40
1.0
 40
1.0
 40
1.0
 40
1.0
 10
-2.5091904709
 20
19.3259051155
 30
0.0
 10
-2.5200344596
 20
19.3313271099
 30
0.0
 10
-2.5396446956
 20
19.3429815327
 30
0.0
 10
-2.563473405
 20
19.3644810054
 30
0.0
 10
-2.578761062
 20
19.3884483103
 30
0.0
 10
-2.582402013
 20
19.4060094407
 30
0.0
 10
-2.5824023426
 20
19.4142932915
 30
0.0
 11
-2.5091904709
 21
19.3259051155
 31
0.0
 11
-2.5402482669
 21
19.3448345721
 31
0.0
 11
-2.5633888959
 21
19.366462201
 31
0.0
 11
-2.5776114675
 21
19.3899079031
 31
0.0
 11
-2.5824023426
 21
19.4142932915
 31
0.0
  0
SPLINE
  5
55D
100
AcDbEntity
  8
RACCORDO
100
AcDbSpline
 62
253
  6
CONTINUOUS
 70
0
 71
3
 72
11
 73
7
 74
5
 42
0.0000001
 43
0.0000001
 44
0.0000000001
 12
0.0
 22
-0.1574195909
 32
0.0
 13
0.1408088651
 23
-0.0703831735
 33
0.0
 40
0.0
 40
0.0
 40
0.0
 40
0.0
 40
0.2896627477
 40
0.5495780546
 40
0.7827595118
 40
1.0
 40
1.0
 40
1.0
 40
1.0
 10
-0.8362048784
 20
18.4894123193
 30
0.0
 10
-0.8362048784
 20
18.4742127888
 30
0.0
 10
-0.8337492117
 20
18.445265464
 30
0.0
 10
-0.8213822988
 20
18.4056770735
 30
0.0
 10
-0.8007202715
 20
18.3739730759
 30
0.0
 10
-0.7814332909
 20
18.3592998267
 30
0.0
 10
-0.7712368287
 20
18.354203135
 30
0.0
 11
-0.8362048784
 21
18.4894123193
 31
0.0
 11
-0.831886403
 21
18.4440186821
 31
0.0
 11
-0.8191393557
 21
18.4051392234
 31
0.0
 11
-0.7985988792
 21
18.3747169147
 31
0.0
 11
-0.7712368287
 21
18.354203135
 31
0.0
  0
SPLINE
  5
55E
100
AcDbEntity
  8
RACCORDO
100
AcDbSpline
 62
253
  6
CONTINUOUS
 70
0
 71
3
 72
11
 73
7
 74
5
 42
0.0000001
 43
0.0000001
 44
0.0000000001
 12
-0.3247092722
 22
-0.1606633027
 32
0.0
 13
-0.3240355638
 23
0.1620177819
 33
0.0
 40
0.0
 40
0.0
 40
0.0
 40
0.0
 40
0.235768032
 40
0.5003752359
 40
0.7647786019
 40
1.0
 40
1.0
 40
1.0
 40
1.0
 10
-0.4835795074
 20
18.4889507327
 30
0.0
 10
-0.5090981961
 20
18.4763243091
 30
0.0
 10
-0.5676036812
 20
18.458329366
 30
0.0
 10
-0.660060561
 20
18.4498250079
 30
0.0
 10
-0.7524290255
 20
18.4585571136
 30
0.0
 10
-0.8107981789
 20
18.4767089695
 30
0.0
 10
-0.8362048784
 20
18.4894123193
 30
0.0
 11
-0.4835795074
 21
18.4889507327
 31
0.0
 11
-0.5646727865
 21
18.4621262947
 31
0.0
 11
-0.6600813363
 21
18.4528068096
 31
0.0
 11
-0.7553910139
 21
18.4623753343
 31
0.0
 11
-0.8362048784
 21
18.4894123193
 31
0.0
  0
SPLINE
  5
55F
100
AcDbEntity
  8
RACCORDO
100
AcDbSpline
 62
253
  6
CONTINUOUS
 70
0
 71
3
 72
11
 73
7
 74
5
 42
0.0000001
 43
0.0000001
 44
0.0000000001
 12
0.3240355412
 22
-0.1620177706
 32
0.0
 13
0.3247092495
 23
0.1606632915
 33
0.0
 40
0.0
 40
0.0
 40
0.0
 40
0.0
 40
0.2352016938
 40
0.4996084761
 40
0.7642196693
 40
1.0
 40
1.0
 40
1.0
 40
1.0
 10
-0.8362048784
 20
18.7826847988
 30
0.0
 10
-0.810800309
 20
18.7699825141
 30
0.0
 10
-0.7524332696
 20
18.7518310102
 30
0.0
 10
-0.6600664386
 20
18.7430972483
 30
0.0
 10
-0.5676070768
 20
18.7516009553
 30
0.0
 10
-0.5090995255
 20
18.7695961309
 30
0.0
 10
-0.4835795074
 20
18.7822232122
 30
0.0
 11
-0.8362048784
 21
18.7826847988
 31
0.0
 11
-0.7553979816
 21
18.7556495056
 31
0.0
 11
-0.6600872404
 21
18.7460792526
 31
0.0
 11
-0.5646771547
 21
18.7553978109
 31
0.0
 11
-0.4835795074
 21
18.7822232122
 31
0.0
  0
SPLINE
  5
560
100
AcDbEntity
  8
RACCORDO
100
AcDbSpline
 62
253
  6
CONTINUOUS
 70
0
 71
3
 72
11
 73
7
 74
5
 42
0.0000001
 43
0.0000001
 44
0.0000000001
 12
-0.0015795713
 22
0.3667766459
 32
0.0
 13
-0.3273614738
 23
0.1654148375
 33
0.0
 40
0.0
 40
0.0
 40
0.0
 40
0.0
 40
0.2467432229
 40
0.5118843482
 40
0.7705350917
 40
1.0
 40
1.0
 40
1.0
 40
1.0
 10
-0.4835795074
 20
18.7822232122
 30
0.0
 10
-0.4837094235
 20
18.8123897628
 30
0.0
 10
-0.4943350764
 20
18.8750319572
 30
0.0
 10
-0.5321637877
 20
18.9621582785
 30
0.0
 10
-0.5874752317
 20
19.0367627763
 30
0.0
 10
-0.6353144559
 20
19.0744614312
 30
0.0
 10
-0.6603537795
 20
19.0871137314
 30
0.0
 11
-0.4835795074
 21
18.7822232122
 31
0.0
 11
-0.4973234051
 21
18.8716740039
 31
0.0
 11
-0.5357485945
 21
18.9610091627
 31
0.0
 11
-0.5929869865
 21
19.0366642418
 31
0.0
 11
-0.6603537795
 21
19.0871137314
 31
0.0
  0
SPLINE
  5
561
100
AcDbEntity
  8
RACCORDO
100
AcDbSpline
 62
253
  6
CONTINUOUS
 70
0
 71
3
 72
11
 73
7
 74
5
 42
0.0000001
 43
0.0000001
 44
0.0000000001
 12
-0.326546397
 22
-0.1653672778
 32
0.0
 13
0.0
 23
-0.3660312636
 33
0.0
 40
0.0
 40
0.0
 40
0.0
 40
0.0
 40
0.2300181807
 40
0.4885559182
 40
0.7533507765
 40
1.0
 40
1.0
 40
1.0
 40
1.0
 10
-0.6603537795
 20
19.0871137314
 30
0.0
 10
-0.6853909822
 20
19.0744345712
 30
0.0
 10
-0.7331813291
 20
19.0367909872
 30
0.0
 10
-0.7883330144
 20
18.9622735589
 30
0.0
 10
-0.8258590053
 20
18.8752893864
 30
0.0
 10
-0.8362048784
 20
18.8127785744
 30
0.0
 10
-0.8362048784
 20
18.7826847988
 30
0.0
 11
-0.6603537795
 21
19.0871137314
 31
0.0
 11
-0.7277262883
 21
19.036620676
 31
0.0
 11
-0.7847492568
 21
18.9610973959
 31
0.0
 11
-0.822835131
 21
18.8719706759
 31
0.0
 11
-0.8362048784
 21
18.7826847988
 31
0.0
  0
SPLINE
  5
562
100
AcDbEntity
  8
RACCORDO
100
AcDbSpline
 62
253
  6
CONTINUOUS
 70
0
 71
3
 72
9
 73
5
 74
3
 42
0.0000001
 43
0.0000001
 44
0.0000000001
 12
-0.1042827884
 22
0.0515947415
 32
0.0
 13
-0.1035394014
 23
-0.0530707987
 33
0.0
 40
0.0
 40
0.0
 40
0.0
 40
0.0
 40
0.5366976106
 40
1.0
 40
1.0
 40
1.0
 40
1.0
 10
-2.333339372
 20
19.9236065276
 30
0.0
 10
-2.3519954798
 20
19.9328367858
 30
0.0
 10
-2.3899408272
 20
19.9453046256
 30
0.0
 10
-2.4303046044
 20
19.9383114008
 30
0.0
 10
-2.4462946217
 20
19.9301154582
 30
0.0
 11
-2.333339372
 21
19.9236065276
 31
0.0
 11
-2.3934224493
 21
19.9406140562
 31
0.0
 11
-2.4462946217
 21
19.9301154582
 31
0.0
  0
SPLINE
  5
563
100
AcDbEntity
  8
RACCORDO
100
AcDbSpline
 62
253
  6
CONTINUOUS
 70
0
 71
3
 72
11
 73
7
 74
5
 42
0.0000001
 43
0.0000001
 44
0.0000000001
 12
0.0
 22
0.3660312094
 32
0.0
 13
0.3265463486
 23
0.1653672532
 33
0.0
 40
0.0
 40
0.0
 40
0.0
 40
0.0
 40
0.2466562638
 40
0.5114566903
 40
0.7699992314
 40
1.0
 40
1.0
 40
1.0
 40
1.0
 10
-2.5091904709
 20
19.619177595
 30
0.0
 10
-2.5091904709
 20
19.6492722252
 30
0.0
 10
-2.4988439857
 20
19.7117845275
 30
0.0
 10
-2.4613167118
 20
19.798770545
 30
0.0
 10
-2.4061637903
 20
19.8732860393
 30
0.0
 10
-2.3583746757
 20
19.9109283292
 30
0.0
 10
-2.333339372
 20
19.9236065276
 30
0.0
 11
-2.5091904709
 21
19.619177595
 31
0.0
 11
-2.4958200002
 21
19.708465956
 31
0.0
 11
-2.4577326046
 21
19.7975942267
 31
0.0
 11
-2.4007071626
 21
19.8731178247
 31
0.0
 11
-2.333339372
 21
19.9236065276
 31
0.0
  0
SPLINE
  5
564
100
AcDbEntity
  8
RACCORDO
100
AcDbSpline
 62
253
  6
CONTINUOUS
 70
0
 71
3
 72
11
 73
7
 74
5
 42
0.0000001
 43
0.0000001
 44
0.0000000001
 12
-1.2380779499
 22
0.4567806525
 32
0.0
 13
0.2398177076
 23
1.2976798687
 33
0.0
 40
0.0
 40
0.0
 40
0.0
 40
0.0
 40
0.2417305937
 40
0.4879942663
 40
0.7410428575
 40
1.0
 40
1.0
 40
1.0
 40
1.0
 10
-4.2212452792
 20
-21.2585974971
 30
0.0
 10
-4.3210057185
 20
-21.2217915443
 30
0.0
 10
-4.5100069175
 20
-21.1079672935
 30
0.0
 10
-4.7132460165
 20
-20.8443365613
 30
0.0
 10
-4.8161386547
 20
-20.5204375704
 30
0.0
 10
-4.810517966
 20
-20.2905980941
 30
0.0
 10
-4.7898171299
 20
-20.1785836039
 30
0.0
 11
-4.2212452792
 21
-21.2585974971
 31
0.0
 11
-4.4947154087
 21
-21.0943553011
 31
0.0
 11
-4.6945550308
 21
-20.8380782926
 31
0.0
 11
-4.7969935047
 21
-20.5202419645
 31
0.0
 11
-4.7898171299
 21
-20.1785836039
 31
0.0
  0
SPLINE
  5
565
100
AcDbEntity
  8
RACCORDO
100
AcDbSpline
 62
253
  6
CONTINUOUS
 70
0
 71
3
 72
11
 73
7
 74
5
 42
0.0000001
 43
0.0000001
 44
0.0000000001
 12
-0.3247092722
 22
-0.1606633027
 32
0.0
 13
-0.3240355638
 23
0.1620177819
 33
0.0
 40
0.0
 40
0.0
 40
0.0
 40
0.0
 40
0.235768032
 40
0.5003752359
 40
0.7647786019
 40
1.0
 40
1.0
 40
1.0
 40
1.0
 10
11.8200784853
 20
12.3371217363
 30
0.0
 10
11.7945597966
 20
12.3244953128
 30
0.0
 10
11.7360543115
 20
12.3065003697
 30
0.0
 10
11.6435974316
 20
12.2979960116
 30
0.0
 10
11.5512289672
 20
12.3067281173
 30
0.0
 10
11.4928598137
 20
12.3248799732
 30
0.0
 10
11.4674531143
 20
12.3375833229
 30
0.0
 11
11.8200784853
 21
12.3371217363
 31
0.0
 11
11.7389852061
 21
12.3102972984
 31
0.0
 11
11.6435766563
 21
12.3009778132
 31
0.0
 11
11.5482669787
 21
12.310546338
 31
0.0
 11
11.4674531143
 21
12.3375833229
 31
0.0
  0
SPLINE
  5
566
100
AcDbEntity
  8
RACCORDO
100
AcDbSpline
 62
253
  6
CONTINUOUS
 70
0
 71
3
 72
11
 73
7
 74
5
 42
0.0000001
 43
0.0000001
 44
0.0000000001
 12
0.0
 22
-0.1574195909
 32
0.0
 13
0.1408088651
 23
-0.0703831735
 33
0.0
 40
0.0
 40
0.0
 40
0.0
 40
0.0
 40
0.2896627477
 40
0.5495780546
 40
0.7827595118
 40
1.0
 40
1.0
 40
1.0
 40
1.0
 10
11.4674531143
 20
12.3375833229
 30
0.0
 10
11.4674531143
 20
12.3223837925
 30
0.0
 10
11.4699087809
 20
12.2934364677
 30
0.0
 10
11.4822756939
 20
12.2538480772
 30
0.0
 10
11.5029377211
 20
12.2221440796
 30
0.0
 10
11.5222247018
 20
12.2074708303
 30
0.0
 10
11.532421164
 20
12.2023741387
 30
0.0
 11
11.4674531143
 21
12.3375833229
 31
0.0
 11
11.4717715897
 21
12.2921896858
 31
0.0
 11
11.4845186369
 21
12.2533102271
 31
0.0
 11
11.5050591135
 21
12.2228879184
 31
0.0
 11
11.532421164
 21
12.2023741387
 31
0.0
  0
SPLINE
  5
567
100
AcDbEntity
  8
RACCORDO
100
AcDbSpline
 62
253
  6
CONTINUOUS
 70
0
 71
3
 72
11
 73
7
 74
5
 42
0.0000001
 43
0.0000001
 44
0.0000000001
 12
-0.1076172178
 22
0.0538086089
 32
0.0
 13
-0.000004788
 23
0.1203197072
 33
0.0
 40
0.0
 40
0.0
 40
0.0
 40
0.0
 40
0.3022933199
 40
0.5655420657
 40
0.7934540161
 40
1.0
 40
1.0
 40
1.0
 40
1.0
 10
9.7944675218
 20
13.1740761192
 30
0.0
 10
9.7836235331
 20
13.1794981135
 30
0.0
 10
9.764013297
 20
13.1911525364
 30
0.0
 10
9.7401845877
 20
13.2126520091
 30
0.0
 10
9.7248969306
 20
13.236619314
 30
0.0
 10
9.7212559797
 20
13.2541804444
 30
0.0
 10
9.72125565
 20
13.2624642952
 30
0.0
 11
9.7944675218
 21
13.1740761192
 31
0.0
 11
9.7634097258
 21
13.1930055758
 31
0.0
 11
9.7402690968
 21
13.2146332047
 31
0.0
 11
9.7260465251
 21
13.2380789067
 31
0.0
 11
9.72125565
 21
13.2624642952
 31
0.0
  0
SPLINE
  5
568
100
AcDbEntity
  8
RACCORDO
100
AcDbSpline
 62
253
  6
CONTINUOUS
 70
0
 71
3
 72
9
 73
5
 74
3
 42
0.0000001
 43
0.0000001
 44
0.0000000001
 12
-0.1042827884
 22
0.0515947415
 32
0.0
 13
-0.1035394014
 23
-0.0530707987
 33
0.0
 40
0.0
 40
0.0
 40
0.0
 40
0.0
 40
0.5366976106
 40
1.0
 40
1.0
 40
1.0
 40
1.0
 10
9.9703186207
 20
13.7717775313
 30
0.0
 10
9.9516625129
 20
13.7810077895
 30
0.0
 10
9.9137171654
 20
13.7934756292
 30
0.0
 10
9.8733533883
 20
13.7864824045
 30
0.0
 10
9.8573633709
 20
13.7782864619
 30
0.0
 11
9.9703186207
 21
13.7717775313
 31
0.0
 11
9.9102355433
 21
13.7887850599
 31
0.0
 11
9.8573633709
 21
13.7782864619
 31
0.0
  0
SPLINE
  5
569
100
AcDbEntity
  8
RACCORDO
100
AcDbSpline
 62
253
  6
CONTINUOUS
 70
0
 71
3
 72
11
 73
7
 74
5
 42
0.0000001
 43
0.0000001
 44
0.0000000001
 12
0.0
 22
0.3660312094
 32
0.0
 13
0.3265463486
 23
0.1653672532
 33
0.0
 40
0.0
 40
0.0
 40
0.0
 40
0.0
 40
0.2466562638
 40
0.5114566903
 40
0.7699992314
 40
1.0
 40
1.0
 40
1.0
 40
1.0
 10
9.7944675218
 20
13.4673485987
 30
0.0
 10
9.7944675218
 20
13.4974432289
 30
0.0
 10
9.8048140069
 20
13.5599555312
 30
0.0
 10
9.8423412809
 20
13.6469415486
 30
0.0
 10
9.8974942024
 20
13.721457043
 30
0.0
 10
9.945283317
 20
13.7590993329
 30
0.0
 10
9.9703186207
 20
13.7717775313
 30
0.0
 11
9.7944675218
 21
13.4673485987
 31
0.0
 11
9.8078379924
 21
13.5566369597
 31
0.0
 11
9.845925388
 21
13.6457652304
 31
0.0
 11
9.9029508301
 21
13.7212888284
 31
0.0
 11
9.9703186207
 21
13.7717775313
 31
0.0
  0
SPLINE
  5
56A
100
AcDbEntity
  8
RACCORDO
100
AcDbSpline
 62
253
  6
CONTINUOUS
 70
0
 71
3
 72
11
 73
7
 74
5
 42
0.0000001
 43
0.0000001
 44
0.0000000001
 12
-0.326546397
 22
-0.1653672778
 32
0.0
 13
0.0
 23
-0.3660312636
 33
0.0
 40
0.0
 40
0.0
 40
0.0
 40
0.0
 40
0.2300181807
 40
0.4885559182
 40
0.7533507765
 40
1.0
 40
1.0
 40
1.0
 40
1.0
 10
11.6433042132
 20
12.935284735
 30
0.0
 10
11.6182670105
 20
12.9226055749
 30
0.0
 10
11.5704766636
 20
12.8849619909
 30
0.0
 10
11.5153249783
 20
12.8104445625
 30
0.0
 10
11.4777989874
 20
12.72346039
 30
0.0
 10
11.4674531143
 20
12.6609495781
 30
0.0
 10
11.4674531143
 20
12.6308558025
 30
0.0
 11
11.6433042132
 21
12.935284735
 31
0.0
 11
11.5759317043
 21
12.8847916797
 31
0.0
 11
11.5189087358
 21
12.8092683996
 31
0.0
 11
11.4808228617
 21
12.7201416796
 31
0.0
 11
11.4674531143
 21
12.6308558025
 31
0.0
  0
SPLINE
  5
56B
100
AcDbEntity
  8
RACCORDO
100
AcDbSpline
 62
253
  6
CONTINUOUS
 70
0
 71
3
 72
11
 73
7
 74
5
 42
0.0000001
 43
0.0000001
 44
0.0000000001
 12
0.3240355412
 22
-0.1620177706
 32
0.0
 13
0.3247092495
 23
0.1606632915
 33
0.0
 40
0.0
 40
0.0
 40
0.0
 40
0.0
 40
0.2352016938
 40
0.4996084761
 40
0.7642196693
 40
1.0
 40
1.0
 40
1.0
 40
1.0
 10
11.4674531143
 20
12.6308558025
 30
0.0
 10
11.4928576837
 20
12.6181535178
 30
0.0
 10
11.551224723
 20
12.6000020139
 30
0.0
 10
11.6435915541
 20
12.5912682519
 30
0.0
 10
11.7360509158
 20
12.599771959
 30
0.0
 10
11.7945584672
 20
12.6177671345
 30
0.0
 10
11.8200784853
 20
12.6303942159
 30
0.0
 11
11.4674531143
 21
12.6308558025
 31
0.0
 11
11.548260011
 21
12.6038205093
 31
0.0
 11
11.6435707522
 21
12.5942502563
 31
0.0
 11
11.738980838
 21
12.6035688146
 31
0.0
 11
11.8200784853
 21
12.6303942159
 31
0.0
  0
SPLINE
  5
56C
100
AcDbEntity
  8
RACCORDO
100
AcDbSpline
 62
253
  6
CONTINUOUS
 70
0
 71
3
 72
11
 73
7
 74
5
 42
0.0000001
 43
0.0000001
 44
0.0000000001
 12
-0.0015795713
 22
0.3667766459
 32
0.0
 13
-0.3273614738
 23
0.1654148375
 33
0.0
 40
0.0
 40
0.0
 40
0.0
 40
0.0
 40
0.2467432229
 40
0.5118843482
 40
0.7705350917
 40
1.0
 40
1.0
 40
1.0
 40
1.0
 10
11.8200784853
 20
12.6303942159
 30
0.0
 10
11.8199485691
 20
12.6605607664
 30
0.0
 10
11.8093229163
 20
12.7232029609
 30
0.0
 10
11.7714942049
 20
12.8103292822
 30
0.0
 10
11.7161827609
 20
12.88493378
 30
0.0
 10
11.6683435367
 20
12.9226324349
 30
0.0
 10
11.6433042132
 20
12.935284735
 30
0.0
 11
11.8200784853
 21
12.6303942159
 31
0.0
 11
11.8063345875
 21
12.7198450076
 31
0.0
 11
11.7679093982
 21
12.8091801664
 31
0.0
 11
11.7106710062
 21
12.8848352455
 31
0.0
 11
11.6433042132
 21
12.935284735
 31
0.0
  0
SPLINE
  5
56D
100
AcDbEntity
  8
RACCORDO
100
AcDbSpline
 62
253
  6
CONTINUOUS
 70
0
 71
3
 72
16
 73
12
 74
10
 42
0.0000001
 43
0.0000001
 44
0.0000000001
 12
-4.1145474917
 22
1.0943637283
 32
0.0
 13
-3.5966002892
 23
2.2785081502
 33
0.0
 40
0.0
 40
0.0
 40
0.0
 40
0.0
 40
0.0877371207
 40
0.1871685128
 40
0.2978439673
 40
0.419336889
 40
0.4839737121
 40
0.5511167088
 40
0.6926977506
 40
0.8427785499
 40
1.0
 40
1.0
 40
1.0
 40
1.0
 10
-5.104918258
 20
-19.9372843735
 30
0.0
 10
-5.225251108
 20
-19.9052789327
 30
0.0
 10
-5.4822000424
 20
-19.8379062851
 30
0.0
 10
-5.888132284
 20
-19.7197046423
 30
0.0
 10
-6.3341327728
 20
-19.568991947
 30
0.0
 10
-6.7263319588
 20
-19.4148470614
 30
0.0
 10
-7.0563114921
 20
-19.2722949275
 30
0.0
 10
-7.4085820561
 20
-19.1095103682
 30
0.0
 10
-7.8557129486
 20
-18.8650145001
 30
0.0
 10
-8.4051512541
 20
-18.5426321176
 30
0.0
 10
-8.7753224222
 20
-18.3119099356
 30
0.0
 10
-8.9638099931
 20
-18.1924998171
 30
0.0
 11
-5.104918258
 21
-19.9372843735
 31
0.0
 11
-5.4657379504
 21
-19.8405980934
 31
0.0
 11
-5.8719651578
 21
-19.7214544792
 31
0.0
 11
-6.3183385299
 21
-19.5704873151
 31
0.0
 11
-6.7999914722
 21
-19.3818698862
 31
0.0
 11
-7.0525961799
 21
-19.2726702835
 31
0.0
 11
-7.3117384608
 21
-19.1519818693
 31
0.0
 11
-7.8435981072
 21
-18.8682792651
 31
0.0
 11
-8.3949869954
 21
-18.5453701397
 31
0.0
 11
-8.9638099931
 21
-18.1924998171
 31
0.0
  0
SPLINE
  5
56E
100
AcDbEntity
  8
RACCORDO
100
AcDbSpline
 62
253
  6
CONTINUOUS
 70
0
 71
3
 72
11
 73
7
 74
5
 42
0.0000001
 43
0.0000001
 44
0.0000000001
 12
0.0001361054
 22
-0.1202500526
 32
0.0
 13
0.1075549856
 23
-0.0537774928
 33
0.0
 40
0.0
 40
0.0
 40
0.0
 40
0.0
 40
0.2065403907
 40
0.4344721032
 40
0.6977363802
 40
1.0
 40
1.0
 40
1.0
 40
1.0
 10
-6.188646974
 20
21.5106174983
 30
0.0
 10
-6.1886376035
 20
21.5023386674
 30
0.0
 10
-6.1849810166
 20
21.4847918092
 30
0.0
 10
-6.1696902305
 20
21.4608460562
 30
0.0
 10
-6.1458700633
 20
21.4393651381
 30
0.0
 10
-6.126271708
 20
21.4277182136
 30
0.0
 10
-6.1154350549
 20
21.4222998871
 30
0.0
 11
-6.188646974
 21
21.5106174983
 31
0.0
 11
-6.1838356719
 21
21.4862514658
 31
0.0
 11
-6.1696072037
 21
21.4628251132
 31
0.0
 11
-6.1464728896
 21
21.4412148187
 31
0.0
 11
-6.1154350549
 21
21.4222998871
 31
0.0
  0
SPLINE
  5
56F
100
AcDbEntity
  8
RACCORDO
100
AcDbSpline
 62
253
  6
CONTINUOUS
 70
0
 71
3
 72
15
 73
11
 74
9
 42
0.0000001
 43
0.0000001
 44
0.0000000001
 12
-3.287100431
 22
1.0243287597
 32
0.0
 13
-2.9796439696
 23
1.7251088274
 33
0.0
 40
0.0
 40
0.0
 40
0.0
 40
0.0
 40
0.2233538147
 40
0.4646810666
 40
0.5917391258
 40
0.6569240201
 40
0.7233737058
 40
0.7910569919
 40
0.8597866246
 40
1.0
 40
1.0
 40
1.0
 40
1.0
 10
-5.0357980407
 20
-21.0052989689
 30
0.0
 10
-5.2805268475
 20
-20.9290363903
 30
0.0
 10
-5.7857314254
 20
-20.7573179226
 30
0.0
 10
-6.4160625194
 20
-20.5037207581
 30
0.0
 10
-6.8709357348
 20
-20.3018953867
 30
0.0
 10
-7.1395831528
 20
-20.1754589089
 30
0.0
 10
-7.3441092084
 20
-20.0729518884
 30
0.0
 10
-7.5498052843
 20
-19.9638656707
 30
0.0
 10
-7.8282736479
 20
-19.8113913869
 30
0.0
 10
-8.0368640697
 20
-19.6930616964
 30
0.0
 10
-8.1761260492
 20
-19.6124339192
 30
0.0
 11
-5.0357980407
 21
-21.0052989689
 31
0.0
 11
-5.7638298657
 21
-20.7576233949
 31
0.0
 11
-6.5352413606
 21
-20.4489103027
 31
0.0
 11
-6.9349543921
 21
-20.2711407661
 31
0.0
 11
-7.1378710082
 21
-20.1752527478
 31
0.0
 11
-7.342442989
 21
-20.072814513
 31
0.0
 11
-7.5484988921
 21
-19.9639763861
 31
0.0
 11
-7.7561251936
 21
-19.8504505526
 31
0.0
 11
-8.1761260492
 21
-19.6124339192
 31
0.0
  0
SPLINE
  5
570
100
AcDbEntity
  8
RACCORDO
100
AcDbSpline
 62
253
  6
CONTINUOUS
 70
0
 71
3
 72
11
 73
7
 74
5
 42
0.0000001
 43
0.0000001
 44
0.0000000001
 12
0.324035565
 22
-0.1620177825
 32
0.0
 13
0.3247092733
 23
0.1606633032
 33
0.0
 40
0.0
 40
0.0
 40
0.0
 40
0.0
 40
0.2352148089
 40
0.4996181444
 40
0.7642249797
 40
1.0
 40
1.0
 40
1.0
 40
1.0
 10
11.4674531143
 20
-29.0486233568
 30
0.0
 10
11.4928591021
 20
-29.0613263507
 30
0.0
 10
11.5512274047
 20
-29.079478093
 30
0.0
 10
11.6435949748
 20
-29.0882106488
 30
0.0
 10
11.7360527026
 20
-29.0797068065
 30
0.0
 10
11.7945590401
 20
-29.0617117413
 30
0.0
 10
11.8200784853
 20
-29.0490849434
 30
0.0
 11
11.4674531143
 21
-29.0486233568
 31
0.0
 11
11.5482646454
 21
-29.0756597932
 31
0.0
 11
11.6435742578
 21
-29.0852288594
 31
0.0
 11
11.7389827312
 21
-29.0759099621
 31
0.0
 11
11.8200784853
 21
-29.0490849434
 31
0.0
  0
SPLINE
  5
571
100
AcDbEntity
  8
RACCORDO
100
AcDbSpline
 62
253
  6
CONTINUOUS
 70
0
 71
3
 72
11
 73
7
 74
5
 42
0.0000001
 43
0.0000001
 44
0.0000000001
 12
-0.1867481958
 22
0.3016987148
 32
0.0
 13
-0.3165037276
 23
0.1603820238
 33
0.0
 40
0.0
 40
0.0
 40
0.0
 40
0.0
 40
0.2188592847
 40
0.4829364118
 40
0.7559796598
 40
1.0
 40
1.0
 40
1.0
 40
1.0
 10
11.8200784853
 20
-29.0490849434
 30
0.0
 10
11.8064546264
 20
-29.0270750884
 30
0.0
 10
11.7704243858
 20
-28.982299775
 30
0.0
 10
11.706290296
 20
-28.9198383251
 30
0.0
 10
11.633633336
 20
-28.8625242881
 30
0.0
 10
11.581585911
 20
-28.829974675
 30
0.0
 10
11.5558414619
 20
-28.816929183
 30
0.0
 11
11.8200784853
 21
-29.0490849434
 31
0.0
 11
11.7727833717
 21
-28.9874930491
 31
0.0
 11
11.7059891333
 21
-28.9217802276
 31
0.0
 11
11.629831409
 21
-28.8618974097
 31
0.0
 11
11.5558414619
 21
-28.816929183
 31
0.0
  0
SPLINE
  5
572
100
AcDbEntity
  8
RACCORDO
100
AcDbSpline
 62
253
  6
CONTINUOUS
 70
0
 71
3
 72
9
 73
5
 74
3
 42
0.0000001
 43
0.0000001
 44
0.0000000001
 12
-0.1603864367
 22
-0.1936035553
 32
0.0
 13
0.0
 23
-0.2514083247
 33
0.0
 40
0.0
 40
0.0
 40
0.0
 40
0.0
 40
0.5131108688
 40
1.0
 40
1.0
 40
1.0
 40
1.0
 10
11.5558414619
 20
-28.816929183
 30
0.0
 10
11.528409454
 20
-28.8500425458
 30
0.0
 10
11.485932248
 20
-28.9239845364
 30
0.0
 10
11.4674531143
 20
-29.0078206966
 30
0.0
 10
11.4674531143
 20
-29.0486233568
 30
0.0
 11
11.5558414619
 21
-28.816929183
 31
0.0
 11
11.4911367006
 21
-28.9285283882
 31
0.0
 11
11.4674531143
 21
-29.0486233568
 31
0.0
  0
SPLINE
  5
573
100
AcDbEntity
  8
RACCORDO
100
AcDbSpline
 62
253
  6
CONTINUOUS
 70
0
 71
3
 72
11
 73
7
 74
5
 42
0.0000001
 43
0.0000001
 44
0.0000000001
 12
-0.3247092493
 22
-0.1606632913
 32
0.0
 13
-0.3240355409
 23
0.1620177705
 33
0.0
 40
0.0
 40
0.0
 40
0.0
 40
0.0
 40
0.2357555305
 40
0.5003661117
 40
0.7647736174
 40
1.0
 40
1.0
 40
1.0
 40
1.0
 10
11.8200784853
 20
-29.3423574229
 30
0.0
 10
11.7945611515
 20
-29.3549831761
 30
0.0
 10
11.736056859
 20
-29.3729778969
 30
0.0
 10
11.6436006708
 20
-29.3814834003
 30
0.0
 10
11.5512306491
 20
-29.3727514186
 30
0.0
 10
11.4928603503
 20
-29.3545994544
 30
0.0
 10
11.4674531143
 20
-29.3418958364
 30
0.0
 11
11.8200784853
 21
-29.3423574229
 31
0.0
 11
11.7389896267
 21
-29.3691807843
 31
0.0
 11
11.6435799643
 21
-29.3785013951
 31
0.0
 11
11.5482687546
 21
-29.3689331859
 31
0.0
 11
11.4674531143
 21
-29.3418958364
 31
0.0
  0
SPLINE
  5
574
100
AcDbEntity
  8
RACCORDO
100
AcDbSpline
 62
253
  6
CONTINUOUS
 70
0
 71
3
 72
11
 73
7
 74
5
 42
0.0000001
 43
0.0000001
 44
0.0000000001
 12
0.0
 22
-0.1574094607
 32
0.0
 13
0.1407307317
 23
-0.0705166609
 33
0.0
 40
0.0
 40
0.0
 40
0.0
 40
0.0
 40
0.2895574575
 40
0.5496374242
 40
0.7828358829
 40
1.0
 40
1.0
 40
1.0
 40
1.0
 10
11.4674531143
 20
-29.3418958364
 30
0.0
 10
11.4674531143
 20
-29.3570888641
 30
0.0
 10
11.4699220539
 20
-29.386035053
 30
0.0
 10
11.4822673404
 20
-29.4256310476
 30
0.0
 10
11.5029405784
 20
-29.4573364266
 30
0.0
 10
11.5222255632
 20
-29.4719973893
 30
0.0
 10
11.5324127849
 20
-29.4771019521
 30
0.0
 11
11.4674531143
 21
-29.3418958364
 31
0.0
 11
11.4717748506
 21
-29.3872695669
 31
0.0
 11
11.4845190407
 21
-29.4261744665
 31
0.0
 11
11.5050640926
 21
-29.4565940645
 31
0.0
 11
11.5324127849
 21
-29.4771019521
 31
0.0
  0
SPLINE
  5
575
100
AcDbEntity
  8
RACCORDO
100
AcDbSpline
 62
7
  6
CONTINUOUS
 70
0
 71
3
 72
11
 73
7
 74
5
 42
0.0000001
 43
0.0000001
 44
0.0000000001
 12
-0.3676081367
 22
0.076700282
 32
0.0
 13
-0.3358793539
 23
0.1679396769
 33
0.0
 40
0.0
 40
0.0
 40
0.0
 40
0.0
 40
0.2080051117
 40
0.4656095261
 40
0.7451688962
 40
1.0
 40
1.0
 40
1.0
 40
1.0
 10
12.5308877027
 20
-28.197382771
 30
0.0
 10
12.5053995789
 20
-28.1920647541
 30
0.0
 10
12.4489963029
 20
-28.1771128721
 30
0.0
 10
12.3602509157
 20
-28.1483127537
 30
0.0
 10
12.2675012632
 20
-28.1131892805
 30
0.0
 10
12.2063303627
 20
-28.0859551999
 30
0.0
 10
12.1777995272
 20
-28.0716897821
 30
0.0
 11
12.5308877027
 21
-28.197382771
 31
0.0
 11
12.4551946513
 21
-28.1780982225
 31
0.0
 11
12.3631109012
 21
-28.1484572525
 31
0.0
 11
12.2649915096
 21
-28.1111252316
 31
0.0
 11
12.1777995272
 21
-28.0716897821
 31
0.0
  0
SPLINE
  5
576
100
AcDbEntity
  8
RACCORDO
100
AcDbSpline
 62
253
  6
CONTINUOUS
 70
0
 71
3
 72
13
 73
9
 74
7
 42
0.0000001
 43
0.0000001
 44
0.0000000001
 12
-0.2621996479
 22
0.145910543
 32
0.0
 13
0.1058444967
 23
0.2807765739
 33
0.0
 40
0.0
 40
0.0
 40
0.0
 40
0.0
 40
0.1066457709
 40
0.1926464862
 40
0.304121245
 40
0.4413396219
 40
0.6038392783
 40
1.0
 40
1.0
 40
1.0
 40
1.0
 10
-11.2933972738
 20
-17.728260845
 30
0.0
 10
-11.3027181016
 20
-17.7230739309
 30
0.0
 10
-11.3091660045
 20
-17.7009847242
 30
0.0
 10
-11.308596311
 20
-17.6715340743
 30
0.0
 10
-11.304263085
 20
-17.6379357621
 30
0.0
 10
-11.2954494064
 20
-17.5978547921
 30
0.0
 10
-11.2767477437
 20
-17.5307306175
 30
0.0
 10
-11.2581818638
 20
-17.4779848128
 30
0.0
 10
-11.2442047198
 20
-17.4409072627
 30
0.0
 11
-11.2933972738
 21
-17.728260845
 31
0.0
 11
-11.3077704213
 21
-17.6996697656
 31
0.0
 11
-11.3082292868
 21
-17.6738681072
 31
0.0
 11
-11.3041722784
 21
-17.6406654628
 31
0.0
 11
-11.2956495149
 21
-17.6003828652
 31
0.0
 11
-11.2827268369
 21
-17.5533661172
 31
0.0
 11
-11.2442047198
 21
-17.4409072627
 31
0.0
  0
SPLINE
  5
577
100
AcDbEntity
  8
RACCORDO
100
AcDbSpline
 62
253
  6
CONTINUOUS
 70
0
 71
3
 72
11
 73
7
 74
5
 42
0.0000001
 43
0.0000001
 44
0.0000000001
 12
0.0001381678
 22
-0.0961935913
 32
0.0
 13
0.0860382524
 23
-0.0430191262
 33
0.0
 40
0.0
 40
0.0
 40
0.0
 40
0.0
 40
0.2065479639
 40
0.4344776804
 40
0.6977161855
 40
1.0
 40
1.0
 40
1.0
 40
1.0
 10
6.7154894441
 20
16.0815449331
 30
0.0
 10
6.7154989569
 20
16.0749220696
 30
0.0
 10
6.7184253562
 20
16.0608859667
 30
0.0
 10
6.7306585528
 20
16.0417323819
 30
0.0
 10
6.7497121163
 20
16.0245479132
 30
0.0
 10
6.7653904271
 20
16.015232223
 30
0.0
 10
6.7740597509
 20
16.0108975611
 30
0.0
 11
6.7154894441
 21
16.0815449331
 31
0.0
 11
6.7193415897
 21
16.0620533279
 31
0.0
 11
6.7307249131
 21
16.0433145142
 31
0.0
 11
6.7492291059
 21
16.0260288952
 31
0.0
 11
6.7740597509
 21
16.0108975611
 31
0.0
  0
SPLINE
  5
578
100
AcDbEntity
  8
RACCORDO
100
AcDbSpline
 62
253
  6
CONTINUOUS
 70
0
 71
3
 72
11
 73
7
 74
5
 42
0.0000001
 43
0.0000001
 44
0.0000000001
 12
-0.1350450777
 22
0.0739176917
 32
0.0
 13
0.0
 23
0.153951285
 33
0.0
 40
0.0
 40
0.0
 40
0.0
 40
0.0
 40
0.2172561503
 40
0.451015807
 40
0.7110744724
 40
1.0
 40
1.0
 40
1.0
 40
1.0
 10
-6.0535784745
 20
20.9954470572
 30
0.0
 10
-6.0633582657
 20
21.0008000815
 30
0.0
 10
-6.0817332203
 20
21.0157568841
 30
0.0
 10
-6.1013446898
 20
21.0471333315
 30
0.0
 10
-6.1130926973
 20
21.0859284353
 30
0.0
 10
-6.1154350549
 20
21.1142005888
 30
0.0
 10
-6.1154350549
 20
21.1290274075
 30
0.0
 11
-6.0535784745
 21
20.9954470572
 31
0.0
 11
-6.0796834837
 21
21.0163568916
 31
0.0
 11
-6.099228282
 21
21.0465745715
 31
0.0
 11
-6.1113361076
 21
21.0847362163
 31
0.0
 11
-6.1154350549
 21
21.1290274075
 31
0.0
  0
SPLINE
  5
579
100
AcDbEntity
  8
RACCORDO
100
AcDbSpline
 62
7
  6
CONTINUOUS
 70
0
 71
3
 72
10
 73
6
 74
4
 42
0.0000001
 43
0.0000001
 44
0.0000000001
 12
0.3471941063
 22
-0.0721526133
 32
0.0
 13
0.227214943
 23
0.2722556092
 33
0.0
 40
0.0
 40
0.0
 40
0.0
 40
0.0
 40
0.4827891464
 40
0.7436989725
 40
1.0
 40
1.0
 40
1.0
 40
1.0
 10
-3.6926103349
 20
20.0059965791
 30
0.0
 10
-3.6367364861
 20
19.9943850795
 30
0.0
 10
-3.5433961914
 20
20.0157083028
 30
0.0
 10
-3.4431869617
 20
20.0777849899
 30
0.0
 10
-3.3984266817
 20
20.1205153997
 30
0.0
 10
-3.379014874
 20
20.1437751971
 30
0.0
 11
-3.6926103349
 21
20.0059965791
 31
0.0
 11
-3.5234775552
 21
20.0325395234
 31
0.0
 11
-3.4445240088
 21
20.0807745512
 31
0.0
 11
-3.379014874
 21
20.1437751971
 31
0.0
  0
SPLINE
  5
57A
100
AcDbEntity
  8
RACCORDO
100
AcDbSpline
 62
253
  6
CONTINUOUS
 70
0
 71
3
 72
11
 73
7
 74
5
 42
0.0000001
 43
0.0000001
 44
0.0000000001
 12
0.291260946
 22
-0.0608804149
 32
0.0
 13
0.1066333044
 23
0.277792552
 33
0.0
 40
0.0
 40
0.0
 40
0.0
 40
0.0
 40
0.2240297614
 40
0.4626415955
 40
0.7223918003
 40
1.0
 40
1.0
 40
1.0
 40
1.0
 10
-4.3167287636
 20
20.1362054491
 30
0.0
 10
-4.2949783902
 20
20.1316591075
 30
0.0
 10
-4.2473841902
 20
20.1326039738
 30
0.0
 10
-4.1809800775
 20
20.1637125698
 30
0.0
 10
-4.1254582491
 20
20.2187963347
 30
0.0
 10
-4.099691518
 20
20.2663671946
 30
0.0
 10
-4.0898240914
 20
20.2920730247
 30
0.0
 11
-4.3167287636
 21
20.1362054491
 31
0.0
 11
-4.2500724726
 21
20.1370243255
 31
0.0
 11
-4.1852504746
 21
20.1659924291
 31
0.0
 11
-4.1296993019
 21
20.2197309909
 31
0.0
 11
-4.0898240914
 21
20.2920730247
 31
0.0
  0
SPLINE
  5
57B
100
AcDbEntity
  8
RACCORDO
100
AcDbSpline
 62
253
  6
CONTINUOUS
 70
0
 71
3
 72
11
 73
7
 74
5
 42
0.0000001
 43
0.0000001
 44
0.0000000001
 12
-0.0263599383
 22
-0.2328869049
 32
0.0
 13
0.209925606
 23
-0.1042228226
 33
0.0
 40
0.0
 40
0.0
 40
0.0
 40
0.0
 40
0.1839909845
 40
0.4027623173
 40
0.6740040151
 40
1.0
 40
1.0
 40
1.0
 40
1.0
 10
-22.4718485779
 20
23.5480298015
 30
0.0
 10
-22.4734652415
 20
23.5337467712
 30
0.0
 10
-22.4678601246
 20
23.5012517447
 30
0.0
 10
-22.4372340996
 20
23.4572223345
 30
0.0
 10
-22.388127699
 20
23.4158866977
 30
0.0
 10
-22.3474729583
 20
23.392562666
 30
0.0
 10
-22.3246613233
 20
23.3812372588
 30
0.0
 11
-22.4718485779
 21
23.5480298015
 31
0.0
 11
-22.4656946669
 21
23.5053484662
 31
0.0
 11
-22.4381786199
 21
23.4620827576
 31
0.0
 11
-22.3904504827
 21
23.4200896247
 31
0.0
 11
-22.3246613233
 21
23.3812372588
 31
0.0
  0
SPLINE
  5
57C
100
AcDbEntity
  8
RACCORDO
100
AcDbSpline
 62
253
  6
CONTINUOUS
 70
0
 71
3
 72
11
 73
7
 74
5
 42
0.0000001
 43
0.0000001
 44
0.0000000001
 12
0.2095750931
 22
0.1220298053
 32
0.0
 13
0.2184788736
 23
-0.1052614593
 33
0.0
 40
0.0
 40
0.0
 40
0.0
 40
0.0
 40
0.2233927868
 40
0.4591120133
 40
0.7165903666
 40
1.0
 40
1.0
 40
1.0
 40
1.0
 10
-21.9015000655
 20
24.4602315709
 30
0.0
 10
-21.8858942108
 20
24.4693184303
 30
0.0
 10
-21.8507101974
 20
24.4830746227
 30
0.0
 10
-21.7922929089
 20
24.4877828512
 30
0.0
 10
-21.7298775586
 20
24.4772621565
 30
0.0
 10
-21.6888360085
 20
24.4613833419
 30
0.0
 10
-21.668196336
 20
24.4514393047
 30
0.0
 11
-21.9015000655
 21
24.4602315709
 31
0.0
 11
-21.8511237096
 21
24.480162607
 31
0.0
 11
-21.7941965125
 21
24.4853734733
 31
0.0
 11
-21.7325121063
 21
24.4756756679
 31
0.0
 11
-21.668196336
 21
24.4514393047
 31
0.0
  0
SPLINE
  5
57D
100
AcDbEntity
  8
RACCORDO
100
AcDbSpline
 62
253
  6
CONTINUOUS
 70
0
 71
3
 72
11
 73
7
 74
5
 42
0.0000001
 43
0.0000001
 44
0.0000000001
 12
0.0001361054
 22
-0.1202500526
 32
0.0
 13
0.1075549856
 23
-0.0537774928
 33
0.0
 40
0.0
 40
0.0
 40
0.0
 40
0.0
 40
0.2065403907
 40
0.4344721032
 40
0.6977363802
 40
1.0
 40
1.0
 40
1.0
 40
1.0
 10
-2.5824023899
 20
19.7074952063
 30
0.0
 10
-2.5823930195
 20
19.6992163753
 30
0.0
 10
-2.5787364326
 20
19.6816695172
 30
0.0
 10
-2.5634456465
 20
19.6577237641
 30
0.0
 10
-2.5396254793
 20
19.6362428461
 30
0.0
 10
-2.520027124
 20
19.6245959216
 30
0.0
 10
-2.5091904709
 20
19.619177595
 30
0.0
 11
-2.5824023899
 21
19.7074952063
 31
0.0
 11
-2.5775910878
 21
19.6831291738
 31
0.0
 11
-2.5633626197
 21
19.6597028212
 31
0.0
 11
-2.5402283055
 21
19.6380925267
 31
0.0
 11
-2.5091904709
 21
19.619177595
 31
0.0
  0
SPLINE
  5
57E
100
AcDbEntity
  8
RACCORDO
100
AcDbSpline
 62
253
  6
CONTINUOUS
 70
0
 71
3
 72
11
 73
7
 74
5
 42
0.0000001
 43
0.0000001
 44
0.0000000001
 12
-0.1350450777
 22
0.0739176917
 32
0.0
 13
0.0
 23
0.153951285
 33
0.0
 40
0.0
 40
0.0
 40
0.0
 40
0.0
 40
0.2172561503
 40
0.451015807
 40
0.7110744724
 40
1.0
 40
1.0
 40
1.0
 40
1.0
 10
-2.4473338905
 20
19.1923247651
 30
0.0
 10
-2.4571136817
 20
19.1976777895
 30
0.0
 10
-2.4754886363
 20
19.2126345921
 30
0.0
 10
-2.4951001058
 20
19.2440110394
 30
0.0
 10
-2.5068481133
 20
19.2828061433
 30
0.0
 10
-2.5091904709
 20
19.3110782968
 30
0.0
 10
-2.5091904709
 20
19.3259051155
 30
0.0
 11
-2.4473338905
 21
19.1923247651
 31
0.0
 11
-2.4734388996
 21
19.2132345995
 31
0.0
 11
-2.4929836979
 21
19.2434522795
 31
0.0
 11
-2.5050915235
 21
19.2816139243
 31
0.0
 11
-2.5091904709
 21
19.3259051155
 31
0.0
  0
SPLINE
  5
57F
100
AcDbEntity
  8
RACCORDO
100
AcDbSpline
 62
7
  6
CONTINUOUS
 70
0
 71
3
 72
10
 73
6
 74
4
 42
0.0000001
 43
0.0000001
 44
0.0000000001
 12
0.3471941063
 22
-0.0721526133
 32
0.0
 13
0.227214943
 23
0.2722556092
 33
0.0
 40
0.0
 40
0.0
 40
0.0
 40
0.0
 40
0.4827891464
 40
0.7436989725
 40
1.0
 40
1.0
 40
1.0
 40
1.0
 10
-0.0863657508
 20
18.202874287
 30
0.0
 10
-0.0304919021
 20
18.1912627875
 30
0.0
 10
0.0628483926
 20
18.2125860108
 30
0.0
 10
0.1630576223
 20
18.2746626978
 30
0.0
 10
0.2078179023
 20
18.3173931077
 30
0.0
 10
0.2272297101
 20
18.3406529051
 30
0.0
 11
-0.0863657508
 21
18.202874287
 31
0.0
 11
0.0827670288
 21
18.2294172313
 31
0.0
 11
0.1617205753
 21
18.2776522591
 31
0.0
 11
0.2272297101
 21
18.3406529051
 31
0.0
  0
SPLINE
  5
580
100
AcDbEntity
  8
RACCORDO
100
AcDbSpline
 62
253
  6
CONTINUOUS
 70
0
 71
3
 72
11
 73
7
 74
5
 42
0.0000001
 43
0.0000001
 44
0.0000000001
 12
-0.1954881962
 22
0.0804155951
 32
0.0
 13
-0.1906680264
 23
-0.0912579119
 33
0.0
 40
0.0
 40
0.0
 40
0.0
 40
0.0
 40
0.2279117069
 40
0.4667704855
 40
0.7229024319
 40
1.0
 40
1.0
 40
1.0
 40
1.0
 10
-8.7274727919
 20
30.6610608134
 30
0.0
 10
-8.7423241414
 20
30.6671700319
 30
0.0
 10
-8.7744888756
 20
30.6757648928
 30
0.0
 10
-8.8258319485
 20
30.6767771283
 30
0.0
 10
-8.8795740784
 20
30.6663512921
 30
0.0
 10
-8.9147560091
 20
30.6526030095
 30
0.0
 10
-8.9323672246
 20
30.6441738943
 30
0.0
 11
-8.7274727919
 21
30.6610608134
 31
0.0
 11
-8.7739698219
 21
30.6736700321
 31
0.0
 11
-8.8244417846
 21
30.6750351189
 31
0.0
 11
-8.8776684803
 21
30.6651236296
 31
0.0
 11
-8.9323672246
 21
30.6441738943
 31
0.0
  0
SPLINE
  5
581
100
AcDbEntity
  8
RACCORDO
100
AcDbSpline
 62
253
  6
CONTINUOUS
 70
0
 71
3
 72
12
 73
8
 74
6
 42
0.0000001
 43
0.0000001
 44
0.0000000001
 12
-0.0137666663
 22
-0.2260779918
 32
0.0
 13
-0.2011354058
 23
-0.1041409047
 33
0.0
 40
0.0
 40
0.0
 40
0.0
 40
0.0
 40
0.1026075428
 40
0.2085419285
 40
0.4379208172
 40
0.7003753704
 40
1.0
 40
1.0
 40
1.0
 40
1.0
 10
25.9616809267
 20
-20.007297553
 30
0.0
 10
25.9612100721
 20
-20.0150299887
 30
0.0
 10
25.9587784847
 20
-20.0306908397
 30
0.0
 10
25.9479566659
 20
-20.06208806
 30
0.0
 10
25.9227178131
 20
-20.1003701014
 30
0.0
 10
25.8781053705
 20
-20.1407488378
 30
0.0
 10
25.8416708386
 20
-20.1629548603
 30
0.0
 10
25.8215824648
 20
-20.1733559203
 30
0.0
 11
25.9616809267
 21
-20.007297553
 31
0.0
 11
25.9581583475
 21
-20.0302693146
 31
0.0
 11
25.9504211875
 21
-20.0529813935
 31
0.0
 11
25.9226010822
 21
-20.0968586719
 31
0.0
 11
25.879164571
 21
-20.1374417956
 31
0.0
 11
25.8215824648
 21
-20.1733559203
 31
0.0
  0
SPLINE
  5
582
100
AcDbEntity
  8
RACCORDO
100
AcDbSpline
 62
253
  6
CONTINUOUS
 70
0
 71
3
 72
11
 73
7
 74
5
 42
0.0000001
 43
0.0000001
 44
0.0000000001
 12
-0.2013023177
 22
0.1006518269
 32
0.0
 13
-0.2030086093
 23
-0.0971643861
 33
0.0
 40
0.0
 40
0.0
 40
0.0
 40
0.0
 40
0.2279891895
 40
0.4659716787
 40
0.7217722143
 40
1.0
 40
1.0
 40
1.0
 40
1.0
 10
21.3023875384
 20
15.646696397
 30
0.0
 10
21.2870892876
 20
15.6543455732
 30
0.0
 10
21.2534800823
 20
15.6656698203
 30
0.0
 10
21.1988944806
 20
15.6689607868
 30
0.0
 10
21.1413986735
 20
15.6590106323
 30
0.0
 10
21.1037786435
 20
15.6445260102
 30
0.0
 10
21.0849510983
 20
15.6355147329
 30
0.0
 11
21.3023875384
 21
15.646696397
 31
0.0
 11
21.253810441
 21
15.6632246443
 31
0.0
 11
21.2003741173
 21
15.6668782816
 31
0.0
 11
21.1435626983
 21
15.6575555261
 31
0.0
 11
21.0849510983
 21
15.6355147329
 31
0.0
  0
SPLINE
  5
583
100
AcDbEntity
  8
RACCORDO
100
AcDbSpline
 62
253
  6
CONTINUOUS
 70
0
 71
3
 72
13
 73
9
 74
7
 42
0.0000001
 43
0.0000001
 44
0.0000000001
 12
-0.0000103696
 22
-0.2341380155
 32
0.0
 13
-0.2079210584
 23
-0.1076542794
 33
0.0
 40
0.0
 40
0.0
 40
0.0
 40
0.0
 40
0.1028082875
 40
0.2083807009
 40
0.4364803612
 40
0.5630388863
 40
0.6990105072
 40
1.0
 40
1.0
 40
1.0
 40
1.0
 10
21.9322802667
 20
14.589782491
 30
0.0
 10
21.9322799114
 20
14.5817587149
 30
0.0
 10
21.9306910789
 20
14.5654531798
 30
0.0
 10
21.9210431875
 20
14.5326077325
 30
0.0
 10
21.9017933266
 20
14.5014644636
 30
0.0
 10
21.8756683459
 20
14.473413275
 30
0.0
 10
21.8421011238
 20
14.4448555807
 30
0.0
 10
21.8128108683
 20
14.4269226219
 30
0.0
 10
21.7919501837
 20
14.4161216863
 30
0.0
 11
21.9322802667
 21
14.589782491
 31
0.0
 11
21.9299777376
 21
14.5658215392
 31
0.0
 11
21.9230927188
 21
14.5420812461
 31
0.0
 11
21.8958706719
 21
14.496132942
 31
0.0
 11
21.8757840339
 21
14.4743478095
 31
0.0
 11
21.8516149208
 21
14.4536260128
 31
0.0
 11
21.7919501837
 21
14.4161216863
 31
0.0
  0
SPLINE
  5
584
100
AcDbEntity
  8
RACCORDO
100
AcDbSpline
 62
253
  6
CONTINUOUS
 70
0
 71
3
 72
11
 73
7
 74
5
 42
0.0000001
 43
0.0000001
 44
0.0000000001
 12
-0.2013023177
 22
0.1006518269
 32
0.0
 13
-0.2030086093
 23
-0.0971643862
 33
0.0
 40
0.0
 40
0.0
 40
0.0
 40
0.0
 40
0.2279891895
 40
0.4659716787
 40
0.7217722143
 40
1.0
 40
1.0
 40
1.0
 40
1.0
 10
28.1110765652
 20
-3.9653614612
 30
0.0
 10
28.0957783144
 20
-3.9577122851
 30
0.0
 10
28.0621691091
 20
-3.946388038
 30
0.0
 10
28.0075835074
 20
-3.9430970715
 30
0.0
 10
27.9500877003
 20
-3.9530472259
 30
0.0
 10
27.9124676703
 20
-3.967531848
 30
0.0
 10
27.8936401251
 20
-3.9765431253
 30
0.0
 11
28.1110765652
 21
-3.9653614612
 31
0.0
 11
28.0624994678
 21
-3.948833214
 31
0.0
 11
28.0090631441
 21
-3.9451795766
 31
0.0
 11
27.9522517251
 21
-3.9545023322
 31
0.0
 11
27.8936401251
 21
-3.9765431253
 31
0.0
  0
SPLINE
  5
585
100
AcDbEntity
  8
RACCORDO
100
AcDbSpline
 62
7
  6
CONTINUOUS
 70
0
 71
3
 72
11
 73
7
 74
5
 42
0.0000001
 43
0.0000001
 44
0.0000000001
 12
0.0001081506
 22
-0.6311218249
 32
0.0
 13
-0.2554347102
 23
-0.5771203327
 33
0.0
 40
0.0
 40
0.0
 40
0.0
 40
0.0
 40
0.2479117022
 40
0.4977399725
 40
0.7487239606
 40
1.0
 40
1.0
 40
1.0
 40
1.0
 10
21.9322803853
 20
-7.9620246016
 30
0.0
 10
21.9322893226
 20
-8.0141787636
 30
0.0
 10
21.9250680051
 20
-8.1189743977
 30
0.0
 10
21.8962793864
 20
-8.2741100779
 30
0.0
 10
21.8519939024
 20
-8.426247735
 30
0.0
 10
21.8133450578
 20
-8.5247572864
 30
0.0
 10
21.7919501837
 20
-8.5730961236
 30
0.0
 11
21.9322803853
 21
-7.9620246016
 31
0.0
 11
21.9221394837
 21
-8.1181581096
 31
0.0
 11
21.8937773294
 21
-8.2732583089
 31
0.0
 11
21.8497452148
 21
-8.4254167793
 31
0.0
 11
21.7919501837
 21
-8.5730961236
 31
0.0
  0
SPLINE
  5
586
100
AcDbEntity
  8
RACCORDO
100
AcDbSpline
 62
253
  6
CONTINUOUS
 70
0
 71
3
 72
11
 73
7
 74
5
 42
0.0000001
 43
0.0000001
 44
0.0000000001
 12
0.2932824511
 22
0.5603986659
 32
0.0
 13
0.0276876519
 23
0.6318976616
 33
0.0
 40
0.0
 40
0.0
 40
0.0
 40
0.0
 40
0.2597203107
 40
0.5115737238
 40
0.7575831723
 40
1.0
 40
1.0
 40
1.0
 40
1.0
 10
26.1377705783
 20
-19.6913277597
 30
0.0
 10
26.1631610481
 20
-19.6428121212
 30
0.0
 10
26.2086128407
 20
-19.5447612409
 30
0.0
 10
26.2603342727
 20
-19.3933219516
 30
0.0
 10
26.2941939163
 20
-19.2406340521
 30
0.0
 10
26.3047879528
 20
-19.1379257877
 30
0.0
 10
26.3070252704
 20
-19.0868649122
 30
0.0
 11
26.1377705783
 21
-19.6913277597
 31
0.0
 11
26.2065987803
 21
-19.5421678896
 31
0.0
 11
26.2578624828
 21
-19.3913435704
 31
0.0
 11
26.2913783593
 21
-19.2393940621
 31
0.0
 11
26.3070252704
 21
-19.0868649122
 31
0.0
  0
LINE
  5
587
100
AcDbEntity
  8
RACCORDO
100
AcDbLine
 62
253
  6
CONTINUOUS
 10
26.0566062005
 20
-19.8305854302
 11
26.0582108533
 21
-19.8280866188
  0
SPLINE
  5
588
100
AcDbEntity
  8
RACCORDO
100
AcDbSpline
 62
253
  6
CONTINUOUS
 70
0
 71
3
 72
12
 73
8
 74
6
 42
0.0000001
 43
0.0000001
 44
0.0000000001
 12
-0.0158080556
 22
-0.2247712782
 32
0.0
 13
-0.2000961692
 23
-0.1036028242
 33
0.0
 40
0.0
 40
0.0
 40
0.0
 40
0.0
 40
0.1025862004
 40
0.2085779198
 40
0.4381376399
 40
0.7006203681
 40
1.0
 40
1.0
 40
1.0
 40
1.0
 10
28.7406603762
 20
-14.1318808941
 30
0.0
 10
28.7401198134
 20
-14.1395670379
 30
0.0
 10
28.7375643199
 20
-14.1551261976
 30
0.0
 10
28.7265736376
 20
-14.1862968399
 30
0.0
 10
28.7012947021
 20
-14.2242748035
 30
0.0
 10
28.6568460165
 20
-14.2643556922
 30
0.0
 10
28.6206074496
 20
-14.286422308
 30
0.0
 10
28.6006392105
 20
-14.2967611665
 30
0.0
 11
28.7406603762
 21
-14.1318808941
 31
0.0
 11
28.7369585465
 21
-14.1546979401
 31
0.0
 11
28.7290979861
 21
-14.1772500333
 31
0.0
 11
28.7011984206
 21
-14.2208066775
 31
0.0
 11
28.6578962993
 21
-14.2610928486
 31
0.0
 11
28.6006392105
 21
-14.2967611665
 31
0.0
  0
SPLINE
  5
589
100
AcDbEntity
  8
RACCORDO
100
AcDbSpline
 62
7
  6
CONTINUOUS
 70
0
 71
3
 72
13
 73
9
 74
7
 42
0.0000001
 43
0.0000001
 44
0.0000000001
 12
0.1926448458
 22
-0.239905314
 32
0.0
 13
-0.0001703269
 23
-0.3076793254
 33
0.0
 40
0.0
 40
0.0
 40
0.0
 40
0.0
 40
0.3124941105
 40
0.4532134968
 40
0.5833266499
 40
0.7027576051
 40
0.8116382221
 40
1.0
 40
1.0
 40
1.0
 40
1.0
 10
25.8215824648
 20
-15.7356599184
 30
0.0
 10
25.8416492581
 20
-15.7606495843
 30
0.0
 10
25.8698495824
 20
-15.7976648435
 30
0.0
 10
25.9029247587
 20
-15.8475442119
 30
0.0
 10
25.9232328186
 20
-15.8820538633
 30
0.0
 10
25.9397035013
 20
-15.9149873181
 30
0.0
 10
25.9553610833
 20
-15.9547074514
 30
0.0
 10
25.9619233817
 20
-15.9851538426
 30
0.0
 10
25.9619126874
 20
-16.0044721842
 30
0.0
 11
25.8215824648
 21
-15.7356599184
 31
0.0
 11
25.8793480997
 21
-15.812520622
 31
0.0
 11
25.9031851217
 21
-15.8486644899
 31
0.0
 11
25.9233759511
 21
-15.883233004
 31
0.0
 11
25.9396650693
 21
-15.9161718197
 31
0.0
 11
25.9517561691
 21
-15.9474140466
 31
0.0
 11
25.9619126874
 21
-16.0044721842
 31
0.0
  0
SPLINE
  5
58A
100
AcDbEntity
  8
RACCORDO
100
AcDbSpline
 62
253
  6
CONTINUOUS
 70
0
 71
3
 72
15
 73
11
 74
9
 42
0.0000001
 43
0.0000001
 44
0.0000000001
 12
1.3222405915
 22
-0.649930609
 32
0.0
 13
-0.0102720014
 23
-1.473303928
 33
0.0
 40
0.0
 40
0.0
 40
0.0
 40
0.0
 40
0.1106145363
 40
0.2302560167
 40
0.3570701544
 40
0.488484861
 40
0.621515598
 40
0.7530405907
 40
0.8800661147
 40
1.0
 40
1.0
 40
1.0
 40
1.0
 10
27.8936370299
 20
-3.9765416051
 30
0.0
 10
27.9423900399
 20
-4.0005055295
 30
0.0
 10
28.0389924809
 20
-4.0606360675
 30
0.0
 10
28.1715699676
 20
-4.1763205471
 30
0.0
 10
28.293393868
 20
-4.317057243
 30
0.0
 10
28.399911417
 20
-4.4775718692
 30
0.0
 10
28.4871911869
 20
-4.6518813563
 30
0.0
 10
28.5519656038
 20
-4.8334889331
 30
0.0
 10
28.591808795
 20
-5.0155608941
 30
0.0
 10
28.6010498322
 20
-5.1370408692
 30
0.0
 10
28.6006391785
 20
-5.1959405573
 30
0.0
 11
27.8936370299
 21
-3.9765416051
 31
0.0
 11
28.0326412705
 21
-4.0616177589
 31
0.0
 11
28.1660669166
 21
-4.1768115428
 31
0.0
 11
28.2887872391
 21
-4.3176981043
 31
0.0
 11
28.3960871381
 21
-4.4788652808
 31
0.0
 11
28.4838437585
 21
-4.6541210029
 31
0.0
 11
28.54868563
 21
-4.8367315364
 31
0.0
 11
28.5881221747
 21
-5.0196810847
 31
0.0
 11
28.6006391785
 21
-5.1959405573
 31
0.0
  0
SPLINE
  5
58B
100
AcDbEntity
  8
RACCORDO
100
AcDbSpline
 62
253
  6
CONTINUOUS
 70
0
 71
3
 72
15
 73
11
 74
9
 42
0.0000001
 43
0.0000001
 44
0.0000000001
 12
1.3222398597
 22
-0.6499319781
 32
0.0
 13
-0.0102734979
 23
-1.4733038648
 33
0.0
 40
0.0
 40
0.0
 40
0.0
 40
0.0
 40
0.110614507
 40
0.2302559619
 40
0.3570700824
 40
0.4884847822
 40
0.6215155237
 40
0.7530405322
 40
0.880066082
 40
1.0
 40
1.0
 40
1.0
 40
1.0
 10
21.0849474986
 20
15.6355165009
 30
0.0
 10
21.1337004687
 20
15.6115525324
 30
0.0
 10
21.2303029852
 20
15.5514222001
 30
0.0
 10
21.3628804773
 20
15.4357377647
 30
0.0
 10
21.4847044314
 20
15.2950011653
 30
0.0
 10
21.5912220398
 20
15.1344865943
 30
0.0
 10
21.6785018792
 20
14.9601771457
 30
0.0
 10
21.7432763972
 20
14.778569582
 30
0.0
 10
21.783119624
 20
14.5964976122
 30
0.0
 10
21.7923608698
 20
14.4750176171
 30
0.0
 10
21.7919501562
 20
14.4161179155
 30
0.0
 11
21.0849474986
 21
15.6355165009
 31
0.0
 11
21.2239517521
 21
15.5504404621
 31
0.0
 11
21.3573774287
 21
15.4352467806
 31
0.0
 11
21.4800977976
 21
15.294360302
 31
0.0
 11
21.5873977579
 21
15.1331931868
 31
0.0
 11
21.6751544534
 21
14.9579375025
 31
0.0
 11
21.7399964115
 21
14.7753269825
 31
0.0
 11
21.7794330527
 21
14.5923774229
 31
0.0
 11
21.7919501562
 21
14.4161179155
 31
0.0
  0
SPLINE
  5
58C
100
AcDbEntity
  8
RACCORDO
100
AcDbSpline
 62
253
  6
CONTINUOUS
 70
0
 71
3
 72
13
 73
9
 74
7
 42
0.0000001
 43
0.0000001
 44
0.0000000001
 12
-0.0000010936
 22
-0.5708246855
 32
0.0
 13
-0.4626224694
 23
-0.3343968786
 33
0.0
 40
0.0
 40
0.0
 40
0.0
 40
0.0
 40
0.2851956711
 40
0.4183562496
 40
0.5451581818
 40
0.7809272212
 40
0.8920146988
 40
1.0
 40
1.0
 40
1.0
 40
1.0
 10
28.6006392091
 20
-14.2967567917
 30
0.0
 10
28.6006391052
 20
-14.3510223681
 30
0.0
 10
28.5945194035
 20
-14.4309387409
 30
0.0
 10
28.5715125437
 20
-14.5322578046
 30
0.0
 10
28.5410172836
 20
-14.6216307724
 30
0.0
 10
28.4971977715
 20
-14.7017580525
 30
0.0
 10
28.4402767663
 20
-14.7672930468
 30
0.0
 10
28.4083831705
 20
-14.7944429548
 30
0.0
 10
28.3917310283
 20
-14.8064796041
 30
0.0
 11
28.6006392091
 21
-14.2967567917
 31
0.0
 11
28.5869344787
 21
-14.4589756421
 31
0.0
 11
28.5699268436
 21
-14.533059817
 31
0.0
 11
28.5463458525
 21
-14.6014925829
 31
0.0
 11
28.4804335767
 21
-14.7188301245
 31
0.0
 11
28.4387371629
 21
-14.7666048477
 31
0.0
 11
28.3917310283
 21
-14.8064796041
 31
0.0
  0
SPLINE
  5
58D
100
AcDbEntity
  8
RACCORDO
100
AcDbSpline
 62
253
  6
CONTINUOUS
 70
0
 71
3
 72
14
 73
10
 74
8
 42
0.0000001
 43
0.0000001
 44
0.0000000001
 12
0.5013953371
 22
0.3154021642
 32
0.0
 13
-0.0041598535
 23
0.5923331029
 33
0.0
 40
0.0
 40
0.0
 40
0.0
 40
0.0
 40
0.1077543449
 40
0.2182156058
 40
0.3329371175
 40
0.453137942
 40
0.5796628953
 40
0.7129896733
 40
1.0
 40
1.0
 40
1.0
 40
1.0
 10
25.596322182
 20
-20.6947634297
 30
0.0
 10
25.6143313574
 20
-20.6834347785
 30
0.0
 10
25.648917677
 20
-20.6573478646
 30
0.0
 10
25.6944561803
 20
-20.6095777964
 30
0.0
 10
25.7336096799
 20
-20.5534400627
 30
0.0
 10
25.765980451
 20
-20.489603742
 30
0.0
 10
25.7912832428
 20
-20.4187594904
 30
0.0
 10
25.815877651
 20
-20.3134444013
 30
0.0
 10
25.8219804058
 20
-20.230020038
 30
0.0
 10
25.8215824322
 20
-20.1733514655
 30
0.0
 11
25.596322182
 21
-20.6947634297
 31
0.0
 11
25.6473330521
 21
-20.6563979537
 31
0.0
 11
25.6926046731
 21
-20.6091564651
 31
0.0
 11
25.7316549859
 21
-20.5535420924
 31
0.0
 11
25.7640682652
 21
-20.4901471667
 31
0.0
 11
25.7894994872
 21
-20.4196470197
 31
0.0
 11
25.8076779945
 21
-20.3427918268
 31
0.0
 11
25.8215824322
 21
-20.1733514655
 31
0.0
  0
SPLINE
  5
58E
100
AcDbEntity
  8
RACCORDO
100
AcDbSpline
 62
253
  6
CONTINUOUS
 70
0
 71
3
 72
11
 73
7
 74
5
 42
0.0000001
 43
0.0000001
 44
0.0000000001
 12
0.3814942395
 22
0.116360615
 32
0.0
 13
0.3555051616
 23
-0.1808140691
 33
0.0
 40
0.0
 40
0.0
 40
0.0
 40
0.0
 40
0.2277480107
 40
0.4673433456
 40
0.7238121285
 40
1.0
 40
1.0
 40
1.0
 40
1.0
 10
-9.3184718924
 20
30.6971084556
 30
0.0
 10
-9.2895103743
 20
30.7059420885
 30
0.0
 10
-9.2277070271
 20
30.7169462738
 30
0.0
 10
-9.1309210659
 20
30.7127436568
 30
0.0
 10
-9.030566591
 20
30.6886381292
 30
0.0
 10
-8.9650929233
 20
30.660818565
 30
0.0
 10
-8.9323641854
 20
30.6441723473
 30
0.0
 11
-9.3184718924
 21
30.6971084556
 31
0.0
 11
-9.2291102826
 21
30.7134095623
 31
0.0
 11
-9.1336132066
 21
30.7099013013
 31
0.0
 11
-9.0339973752
 21
30.686658773
 31
0.0
 11
-8.9323641854
 21
30.6441723473
 31
0.0
  0
SPLINE
  5
58F
100
AcDbEntity
  8
RACCORDO
100
AcDbSpline
 62
253
  6
CONTINUOUS
 70
0
 71
3
 72
13
 73
9
 74
7
 42
0.0000001
 43
0.0000001
 44
0.0000000001
 12
-0.0000095692
 22
-0.2341384393
 32
0.0
 13
-0.2079214347
 23
-0.1076544743
 33
0.0
 40
0.0
 40
0.0
 40
0.0
 40
0.0
 40
0.1028083064
 40
0.2083807046
 40
0.4364802978
 40
0.5630388045
 40
0.6990104279
 40
1.0
 40
1.0
 40
1.0
 40
1.0
 10
28.7409692936
 20
-5.0222749401
 30
0.0
 10
28.7409689656
 20
-5.0302987322
 30
0.0
 10
28.7393801826
 20
-5.0466043029
 30
0.0
 10
28.7297323612
 20
-5.0794498314
 30
0.0
 10
28.7104825184
 20
-5.1105931858
 30
0.0
 10
28.6843575212
 20
-5.1386444454
 30
0.0
 10
28.650790251
 20
-5.1672022146
 30
0.0
 10
28.6214999384
 20
-5.1851352139
 30
0.0
 10
28.6006392105
 20
-5.195936172
 30
0.0
 11
28.7409692936
 21
-5.0222749401
 31
0.0
 11
28.7386668361
 21
-5.046235947
 31
0.0
 11
28.7317818678
 21
-5.0699762977
 31
0.0
 11
28.7045598587
 21
-5.1159247182
 31
0.0
 11
28.6844732087
 21
-5.1377099067
 31
0.0
 11
28.6603040639
 21
-5.1584317559
 31
0.0
 11
28.6006392105
 21
-5.195936172
 31
0.0
  0
SPLINE
  5
590
100
AcDbEntity
  8
ASSI
100
AcDbSpline
 62
253
  6
CONTINUOUS
 70
0
 71
3
 72
11
 73
7
 74
5
 42
0.0000001
 43
0.0000001
 44
0.0000000001
 12
-0.000001145
 22
-0.5976944996
 32
0.0
 13
-0.5082215173
 23
-0.3145625602
 33
0.0
 40
0.0
 40
0.0
 40
0.0
 40
0.0
 40
0.2870875711
 40
0.5468790549
 40
0.7818074997
 40
1.0
 40
1.0
 40
1.0
 40
1.0
 10
28.6006392091
 20
-14.2967567917
 30
0.0
 10
28.6006390995
 20
-14.3539536791
 30
0.0
 10
28.5918304291
 20
-14.46326824
 30
0.0
 10
28.5478345863
 20
-14.6140402391
 30
0.0
 10
28.4745397633
 20
-14.7377558492
 30
0.0
 10
28.4056739003
 20
-14.7990196646
 30
0.0
 10
28.3687105257
 20
-14.8218980617
 30
0.0
 11
28.6006392091
 21
-14.2967567917
 31
0.0
 11
28.5853372079
 21
-14.4676637959
 31
0.0
 11
28.5400868232
 21
-14.6162000558
 31
0.0
 11
28.466829998
 21
-14.7359912623
 31
0.0
 11
28.3687105257
 21
-14.8218980617
 31
0.0
  0
SPLINE
  5
591
100
AcDbEntity
  8
ASSI
100
AcDbSpline
 62
253
  6
CONTINUOUS
 70
0
 71
3
 72
11
 73
7
 74
5
 42
0.0000001
 43
0.0000001
 44
0.0000000001
 12
1.3190421023
 22
-0.6483601567
 32
0.0
 13
-0.0102486521
 23
-1.4697407682
 33
0.0
 40
0.0
 40
0.0
 40
0.0
 40
0.0
 40
0.2300494809
 40
0.4883644565
 40
0.7530599022
 40
1.0
 40
1.0
 40
1.0
 40
1.0
 10
21.0849474986
 20
15.6355165009
 30
0.0
 10
21.1860958156
 20
15.585798195
 30
0.0
 10
21.3794253175
 20
15.4363714953
 30
0.0
 10
21.6020837013
 20
15.1380395095
 30
0.0
 10
21.7524922451
 20
14.7885143413
 30
0.0
 10
21.7927937572
 20
14.5370972252
 30
0.0
 10
21.7919501562
 20
14.4161179155
 30
0.0
 11
21.0849474986
 21
15.6355165009
 31
0.0
 11
21.3573774287
 21
15.4352467806
 31
0.0
 11
21.5873977579
 21
15.1331931868
 31
0.0
 11
21.7399964115
 21
14.7753269825
 31
0.0
 11
21.7919501562
 21
14.4161179155
 31
0.0
  0
SPLINE
  5
592
100
AcDbEntity
  8
ASSI
100
AcDbSpline
 62
253
  6
CONTINUOUS
 70
0
 71
3
 72
11
 73
7
 74
5
 42
0.0000001
 43
0.0000001
 44
0.0000000001
 12
1.3190428329
 22
-0.6483587913
 32
0.0
 13
-0.0102471592
 23
-1.4697408319
 33
0.0
 40
0.0
 40
0.0
 40
0.0
 40
0.0
 40
0.2300495364
 40
0.4883645362
 40
0.7530599612
 40
1.0
 40
1.0
 40
1.0
 40
1.0
 10
27.8936370299
 20
-3.9765416051
 30
0.0
 10
27.9947854273
 20
-4.0262598182
 30
0.0
 10
28.1881147515
 20
-4.1756869248
 30
0.0
 10
28.4107730588
 20
-4.4740189179
 30
0.0
 10
28.5611815613
 20
-4.8235441709
 30
0.0
 10
28.6014826565
 20
-5.0749612713
 30
0.0
 10
28.6006391785
 20
-5.1959405573
 30
0.0
 11
27.8936370299
 21
-3.9765416051
 31
0.0
 11
28.1660669166
 21
-4.1768115428
 31
0.0
 11
28.3960871381
 21
-4.4788652808
 31
0.0
 11
28.54868563
 21
-4.8367315364
 31
0.0
 11
28.6006391785
 21
-5.1959405573
 31
0.0
  0
SPLINE
  5
593
100
AcDbEntity
  8
ASSI
100
AcDbSpline
 62
253
  6
CONTINUOUS
 70
0
 71
3
 72
9
 73
5
 74
3
 42
0.0000001
 43
0.0000001
 44
0.0000000001
 12
0.292840819
 22
0.5595548034
 32
0.0
 13
0.0276459591
 23
0.6309461342
 33
0.0
 40
0.0
 40
0.0
 40
0.0
 40
0.0
 40
0.5116436955
 40
1.0
 40
1.0
 40
1.0
 40
1.0
 10
26.1377705783
 20
-19.6913277597
 30
0.0
 10
26.1877139646
 20
-19.5958968639
 30
0.0
 10
26.2679442584
 20
-19.3994176613
 30
0.0
 10
26.302524911
 20
-19.189573753
 30
0.0
 10
26.3070252704
 20
-19.0868649122
 30
0.0
 11
26.1377705783
 21
-19.6913277597
 31
0.0
 11
26.2578624828
 21
-19.3913435704
 31
0.0
 11
26.3070252704
 21
-19.0868649122
 31
0.0
  0
SPLINE
  5
594
100
AcDbEntity
  8
ASSI
100
AcDbSpline
 62
253
  6
CONTINUOUS
 70
0
 71
3
 72
10
 73
6
 74
4
 42
0.0000001
 43
0.0000001
 44
0.0000000001
 12
-0.2006181728
 22
0.0996762256
 32
0.0
 13
-0.2020637521
 23
-0.0967121569
 33
0.0
 40
0.0
 40
0.0
 40
0.0
 40
0.0
 40
0.2285679653
 40
0.4671938966
 40
1.0
 40
1.0
 40
1.0
 40
1.0
 10
-8.7153548432
 20
30.6555669192
 30
0.0
 10
-8.7306398057
 20
30.6631611833
 30
0.0
 10
-8.7642144396
 20
30.6743841768
 30
0.0
 10
-8.8394135536
 20
30.6788349804
 30
0.0
 10
-8.8964802911
 20
30.6613501701
 30
0.0
 10
-8.9323672246
 20
30.6441738943
 30
0.0
 11
-8.7153548432
 21
30.6555669192
 31
0.0
 11
-8.7638645232
 21
30.6719540261
 31
0.0
 11
-8.8172011138
 21
30.6755240925
 31
0.0
 11
-8.9323672246
 21
30.6441738943
 31
0.0
  0
SPLINE
  5
595
100
AcDbEntity
  8
ASSI
100
AcDbSpline
 62
253
  6
CONTINUOUS
 70
0
 71
3
 72
10
 73
6
 74
4
 42
0.0000001
 43
0.0000001
 44
0.0000000001
 12
-0.200781953
 22
0.1003916428
 32
0.0
 13
-0.2024838338
 23
-0.096913217
 33
0.0
 40
0.0
 40
0.0
 40
0.0
 40
0.0
 40
0.228580067
 40
0.4671793332
 40
1.0
 40
1.0
 40
1.0
 40
1.0
 10
21.3023875384
 20
15.646696397
 30
0.0
 10
21.2870892876
 20
15.6543455732
 30
0.0
 10
21.2534682632
 20
15.6656669457
 30
0.0
 10
21.1781146869
 20
15.6702337216
 30
0.0
 10
21.120913622
 20
15.6527271879
 30
0.0
 10
21.0849510983
 20
15.6355147329
 30
0.0
 11
21.3023875384
 21
15.646696397
 31
0.0
 11
21.253810441
 21
15.6632246443
 31
0.0
 11
21.2003741173
 21
15.6668782816
 31
0.0
 11
21.0849510983
 21
15.6355147329
 31
0.0
  0
SPLINE
  5
596
100
AcDbEntity
  8
ASSI
100
AcDbSpline
 62
253
  6
CONTINUOUS
 70
0
 71
3
 72
11
 73
7
 74
5
 42
0.0000001
 43
0.0000001
 44
0.0000000001
 12
-0.0003795412
 22
-0.2336257912
 32
0.0
 13
-0.2074664626
 23
-0.1074189056
 33
0.0
 40
0.0
 40
0.0
 40
0.0
 40
0.0
 40
0.2077573865
 40
0.4361966862
 40
0.6986401137
 40
1.0
 40
1.0
 40
1.0
 40
1.0
 10
21.932280102
 20
14.5895850675
 30
0.0
 10
21.9322538178
 20
14.5734059062
 30
0.0
 10
21.9252513288
 20
14.539193959
 30
0.0
 10
21.8960515801
 20
14.4923041822
 30
0.0
 10
21.8504487286
 20
14.4499756177
 30
0.0
 10
21.8127908735
 20
14.4269122693
 30
0.0
 10
21.7919501837
 20
14.4161216863
 30
0.0
 11
21.932280102
 21
14.5895850675
 31
0.0
 11
21.9230361272
 21
14.5419359071
 31
0.0
 11
21.8957966787
 21
14.4960414255
 31
0.0
 11
21.8515611525
 21
14.4535846242
 31
0.0
 11
21.7919501837
 21
14.4161216863
 31
0.0
  0
SPLINE
  5
597
100
AcDbEntity
  8
ASSI
100
AcDbSpline
 62
7
  6
CONTINUOUS
 70
0
 71
3
 72
9
 73
5
 74
3
 42
0.0000001
 43
0.0000001
 44
0.0000000001
 12
0.0001080035
 22
-0.6302630089
 32
0.0
 13
-0.2550871205
 23
-0.5763350007
 33
0.0
 40
0.0
 40
0.0
 40
0.0
 40
0.0
 40
0.4975800296
 40
1.0
 40
1.0
 40
1.0
 40
1.0
 10
21.9322803853
 20
-7.9620246016
 30
0.0
 10
21.9322982988
 20
-8.0665600304
 30
0.0
 10
21.9035982319
 20
-8.2769334856
 30
0.0
 10
21.8346704715
 20
-8.4765753856
 30
0.0
 10
21.7919501837
 20
-8.5730961236
 30
0.0
 11
21.9322803853
 21
-7.9620246016
 31
0.0
 11
21.8937773294
 21
-8.2732583089
 31
0.0
 11
21.7919501837
 21
-8.5730961236
 31
0.0
  0
SPLINE
  5
598
100
AcDbEntity
  8
ASSI
100
AcDbSpline
 62
7
  6
CONTINUOUS
 70
0
 71
3
 72
11
 73
7
 74
5
 42
0.0000001
 43
0.0000001
 44
0.0000000001
 12
0.1925811499
 22
-0.2398259919
 32
0.0
 13
-0.0001702705
 23
-0.3075775946
 33
0.0
 40
0.0
 40
0.0
 40
0.0
 40
0.0
 40
0.3125974675
 40
0.5834195436
 40
0.8115759217
 40
1.0
 40
1.0
 40
1.0
 40
1.0
 10
25.8215824648
 20
-15.7356599184
 30
0.0
 10
25.8416492581
 20
-15.7606495843
 30
0.0
 10
25.8779152889
 20
-15.8082688621
 30
0.0
 10
25.922723634
 20
-15.8785904599
 30
0.0
 10
25.9527105245
 20
-15.942574971
 30
0.0
 10
25.9619233817
 20
-15.9851538426
 30
0.0
 10
25.9619126874
 20
-16.0044721842
 30
0.0
 11
25.8215824648
 21
-15.7356599184
 31
0.0
 11
25.8793480997
 21
-15.812520622
 31
0.0
 11
25.9233759511
 21
-15.883233004
 31
0.0
 11
25.9517561691
 21
-15.9474140466
 31
0.0
 11
25.9619126874
 21
-16.0044721842
 31
0.0
  0
SPLINE
  5
599
100
AcDbEntity
  8
ASSI
100
AcDbSpline
 62
253
  6
CONTINUOUS
 70
0
 71
3
 72
11
 73
7
 74
5
 42
0.0000001
 43
0.0000001
 44
0.0000000001
 12
-0.0000858754
 22
-0.2337809858
 32
0.0
 13
-0.20760402
 23
-0.1074901278
 33
0.0
 40
0.0
 40
0.0
 40
0.0
 40
0.0
 40
0.207757295
 40
0.4361725789
 40
0.6986099175
 40
1.0
 40
1.0
 40
1.0
 40
1.0
 10
25.9619125396
 20
-19.9997354728
 30
0.0
 10
25.9619065925
 20
-20.0159253745
 30
0.0
 10
25.9549370514
 20
-20.0501679419
 30
0.0
 10
25.9257459626
 20
-20.0971063697
 30
0.0
 10
25.8801226764
 20
-20.1394752778
 30
0.0
 10
25.8424390624
 20
-20.1625571008
 30
0.0
 10
25.8215824648
 20
-20.1733559203
 30
0.0
 11
25.9619125396
 21
-19.9997354728
 31
0.0
 11
25.9527134456
 21
-20.047426072
 31
0.0
 11
25.9254878333
 21
-20.0933633735
 31
0.0
 11
25.8812362121
 21
-20.1358600548
 31
0.0
 11
25.8215824648
 21
-20.1733559203
 31
0.0
  0
SPLINE
  5
59A
100
AcDbEntity
  8
ASSI
100
AcDbSpline
 62
253
  6
CONTINUOUS
 70
0
 71
3
 72
10
 73
6
 74
4
 42
0.0000001
 43
0.0000001
 44
0.0000000001
 12
-0.200781953
 22
0.1003916428
 32
0.0
 13
-0.2024838338
 23
-0.0969132171
 33
0.0
 40
0.0
 40
0.0
 40
0.0
 40
0.0
 40
0.228580067
 40
0.4671793332
 40
1.0
 40
1.0
 40
1.0
 40
1.0
 10
28.1110765652
 20
-3.9653614612
 30
0.0
 10
28.0957783144
 20
-3.9577122851
 30
0.0
 10
28.06215729
 20
-3.9463909125
 30
0.0
 10
27.9868037137
 20
-3.9418241367
 30
0.0
 10
27.9296026488
 20
-3.9593306704
 30
0.0
 10
27.8936401251
 20
-3.9765431253
 30
0.0
 11
28.1110765652
 21
-3.9653614612
 31
0.0
 11
28.0624994678
 21
-3.948833214
 31
0.0
 11
28.0090631441
 21
-3.9451795766
 31
0.0
 11
27.8936401251
 21
-3.9765431253
 31
0.0
  0
SPLINE
  5
59B
100
AcDbEntity
  8
ASSI
100
AcDbSpline
 62
253
  6
CONTINUOUS
 70
0
 71
3
 72
11
 73
7
 74
5
 42
0.0000001
 43
0.0000001
 44
0.0000000001
 12
-0.0001889529
 22
-0.2337265786
 32
0.0
 13
-0.2075557587
 23
-0.1074651398
 33
0.0
 40
0.0
 40
0.0
 40
0.0
 40
0.0
 40
0.2077573128
 40
0.4361810233
 40
0.6986205047
 40
1.0
 40
1.0
 40
1.0
 40
1.0
 10
28.7409692528
 20
-14.1231958255
 30
0.0
 10
28.7409561674
 20
-14.1393819608
 30
0.0
 10
28.7339750579
 20
-14.1736137871
 30
0.0
 10
28.704780924
 20
-14.2205351428
 30
0.0
 10
28.6591648044
 20
-14.2628898953
 30
0.0
 10
28.6214902271
 20
-14.2859652366
 30
0.0
 10
28.6006392105
 20
-14.2967611665
 30
0.0
 11
28.7409692528
 21
-14.1231958255
 31
0.0
 11
28.7317544024
 21
-14.1708718871
 31
0.0
 11
28.7045239285
 21
-14.2167941652
 31
0.0
 11
28.6602779502
 21
-14.259276854
 31
0.0
 11
28.6006392105
 21
-14.2967611665
 31
0.0
  0
SPLINE
  5
59C
100
AcDbEntity
  8
ASSI
100
AcDbSpline
 62
253
  6
CONTINUOUS
 70
0
 71
3
 72
11
 73
7
 74
5
 42
0.0000001
 43
0.0000001
 44
0.0000000001
 12
-0.0003744863
 22
-0.2336284675
 32
0.0
 13
-0.207468832
 23
-0.1074201323
 33
0.0
 40
0.0
 40
0.0
 40
0.0
 40
0.0
 40
0.2077573839
 40
0.4361962699
 40
0.6986395931
 40
1.0
 40
1.0
 40
1.0
 40
1.0
 10
28.7409691332
 20
-5.0224700854
 30
0.0
 10
28.7409431991
 20
-5.0386494318
 30
0.0
 10
28.7339412769
 20
-5.0728619065
 30
0.0
 10
28.7047416769
 20
-5.1197525211
 30
0.0
 10
28.6591384732
 20
-5.1620817804
 30
0.0
 10
28.6214801743
 20
-5.185145447
 30
0.0
 10
28.6006392105
 20
-5.195936172
 30
0.0
 11
28.7409691332
 21
-5.0224700854
 31
0.0
 11
28.7317259307
 21
-5.0701199596
 31
0.0
 11
28.7044867199
 21
-5.1160151787
 31
0.0
 11
28.6602509162
 21
-5.1584726669
 31
0.0
 11
28.6006392105
 21
-5.195936172
 31
0.0
  0
SPLINE
  5
59D
100
AcDbEntity
  8
ASSI
100
AcDbSpline
 62
253
  6
CONTINUOUS
 70
0
 71
3
 72
11
 73
7
 74
5
 42
0.0000001
 43
0.0000001
 44
0.0000000001
 12
0.5005397441
 22
0.3148639544
 32
0.0
 13
-0.004152755
 23
0.5913223316
 33
0.0
 40
0.0
 40
0.0
 40
0.0
 40
0.0
 40
0.2178734337
 40
0.4526251496
 40
0.7124990749
 40
1.0
 40
1.0
 40
1.0
 40
1.0
 10
25.596322182
 20
-20.6947634297
 30
0.0
 10
25.6326736196
 20
-20.6718965994
 30
0.0
 10
25.7002681433
 20
-20.6108208812
 30
0.0
 10
25.7717320642
 20
-20.4878979637
 30
0.0
 10
25.8140686261
 20
-20.3383261943
 30
0.0
 10
25.8219804058
 20
-20.230020038
 30
0.0
 10
25.8215824322
 20
-20.1733514655
 30
0.0
 11
25.596322182
 21
-20.6947634297
 31
0.0
 11
25.6926046731
 21
-20.6091564651
 31
0.0
 11
25.7640682652
 21
-20.4901471667
 31
0.0
 11
25.8076779945
 21
-20.3427918268
 31
0.0
 11
25.8215824322
 21
-20.1733514655
 31
0.0
  0
SPLINE
  5
59E
100
AcDbEntity
  8
ASSI
100
AcDbSpline
 62
253
  6
CONTINUOUS
 70
0
 71
3
 72
10
 73
6
 74
4
 42
0.0000001
 43
0.0000001
 44
0.0000000001
 12
0.3944091357
 22
0.1472132323
 32
0.0
 13
0.3752410301
 23
-0.1908519619
 33
0.0
 40
0.0
 40
0.0
 40
0.0
 40
0.0
 40
0.2279465028
 40
0.4673028276
 40
1.0
 40
1.0
 40
1.0
 40
1.0
 10
-9.3404305624
 20
30.6896711938
 30
0.0
 10
-9.3104625013
 20
30.7008567743
 30
0.0
 10
-9.2457977787
 20
30.7158881895
 30
0.0
 10
-9.1044852275
 20
30.7144422163
 30
0.0
 10
-8.9989941306
 20
30.6780611141
 30
0.0
 10
-8.9323641854
 20
30.6441723473
 30
0.0
 11
-9.3404305624
 21
30.6896711938
 31
0.0
 11
-9.2470504296
 21
30.711783811
 31
0.0
 11
-9.1462849255
 21
30.7114768793
 31
0.0
 11
-8.9323641854
 21
30.6441723473
 31
0.0
  0
SPLINE
  5
59F
100
AcDbEntity
  8
RACCORDO
100
AcDbSpline
 62
7
  6
CONTINUOUS
 70
0
 71
3
 72
11
 73
7
 74
5
 42
0.0000001
 43
0.0000001
 44
0.0000000001
 12
0.0
 22
-0.5046924485
 32
0.0
 13
-0.4521749469
 23
-0.2241702143
 33
0.0
 40
0.0
 40
0.0
 40
0.0
 40
0.0
 40
0.2883523528
 40
0.5492220546
 40
0.7829122029
 40
1.0
 40
1.0
 40
1.0
 40
1.0
 10
22.545709581
 20
-6.2873517212
 30
0.0
 10
22.545709581
 20
-6.3358614729
 30
0.0
 10
22.5374471434
 20
-6.4285656189
 30
0.0
 10
22.4980433989
 20
-6.5555423278
 30
0.0
 10
22.4317618
 20
-6.6574968729
 30
0.0
 10
22.3696830367
 20
-6.7043582559
 30
0.0
 10
22.3369624823
 20
-6.7205797952
 30
0.0
 11
22.545709581
 21
-6.2873517212
 31
0.0
 11
22.5316917547
 21
-6.4322042828
 31
0.0
 11
22.4907848727
 21
-6.5573470453
 31
0.0
 11
22.4248151084
 21
-6.655113214
 31
0.0
 11
22.3369624823
 21
-6.7205797952
 31
0.0
  0
SPLINE
  5
5A0
100
AcDbEntity
  8
0
100
AcDbSpline
 62
7
  6
CONTINUOUS
 70
0
 71
3
 72
9
 73
5
 74
3
 42
0.0000001
 43
0.0000001
 44
0.0000000001
 12
0.0
 22
0.291002821
 32
0.0
 13
0.2602808358
 23
0.1301404179
 33
0.0
 40
0.0
 40
0.0
 40
0.0
 40
0.0
 40
0.5122337718
 40
1.0
 40
1.0
 40
1.0
 40
1.0
 10
22.545709581
 20
13.1982198639
 30
0.0
 10
22.545709581
 20
13.2479070214
 30
0.0
 10
22.5765392825
 20
13.3441582793
 30
0.0
 10
22.6448122034
 20
13.4209762559
 30
0.0
 10
22.6871309372
 20
13.4421356228
 30
0.0
 11
22.545709581
 21
13.1982198639
 31
0.0
 11
22.5871180902
 21
13.34141434
 31
0.0
 11
22.6871309372
 21
13.4421356228
 31
0.0
  0
SPLINE
  5
5A1
100
AcDbEntity
  8
RACCORDO
100
AcDbSpline
 62
7
  6
CONTINUOUS
 70
0
 71
3
 72
10
 73
6
 74
4
 42
0.0000001
 43
0.0000001
 44
0.0000000001
 12
0.0822578487
 22
0.0037029537
 32
0.0
 13
0.0001457775
 23
-0.0823410244
 33
0.0
 40
0.0
 40
0.0
 40
0.0
 40
0.0
 40
0.0872933085
 40
0.2762998491
 40
1.0
 40
1.0
 40
1.0
 40
1.0
 10
21.9813271856
 20
17.2774892145
 30
0.0
 10
21.9837207055
 20
17.2775969622
 30
0.0
 10
21.9890133965
 20
17.2696251808
 30
0.0
 10
21.9928904629
 20
17.2441106222
 30
0.0
 10
21.9941730051
 20
17.2180075836
 30
0.0
 10
21.9942081715
 20
17.1981441797
 30
0.0
 11
21.9813271856
 21
17.2774892145
 31
0.0
 11
21.9866436484
 21
17.2726518446
 31
0.0
 11
21.9907206713
 21
17.257632345
 31
0.0
 11
21.9942081715
 21
17.1981441797
 31
0.0
  0
SPLINE
  5
5A2
100
AcDbEntity
  8
RACCORDO
100
AcDbSpline
 62
7
  6
CONTINUOUS
 70
0
 71
3
 72
9
 73
5
 74
3
 42
0.0000001
 43
0.0000001
 44
0.0000000001
 12
0.0
 22
-0.2382766937
 32
0.0
 13
-0.2131211538
 23
-0.1065605769
 33
0.0
 40
0.0
 40
0.0
 40
0.0
 40
0.0
 40
0.4328105702
 40
1.0
 40
1.0
 40
1.0
 40
1.0
 10
23.9650126318
 20
14.184597743
 30
0.0
 10
23.9650126318
 20
14.1502215191
 30
0.0
 10
23.9274032065
 20
14.0719061087
 30
0.0
 10
23.8587951424
 20
14.0279677254
 30
0.0
 10
23.8185017871
 20
14.0078210477
 30
0.0
 11
23.9650126318
 21
14.184597743
 31
0.0
 11
23.9266502985
 21
14.0888697205
 31
0.0
 11
23.8185017871
 21
14.0078210477
 31
0.0
  0
SPLINE
  5
5A3
100
AcDbEntity
  8
RACCORDO
100
AcDbSpline
 62
7
  6
CONTINUOUS
 70
0
 71
3
 72
9
 73
5
 74
3
 42
0.0000001
 43
0.0000001
 44
0.0000000001
 12
0.612952151
 22
0.7292994449
 32
0.0
 13
0.0249046295
 23
0.9523485597
 33
0.0
 40
0.0
 40
0.0
 40
0.0
 40
0.0
 40
0.5251854732
 40
1.0
 40
1.0
 40
1.0
 40
1.0
 10
21.6326239254
 20
16.3019984184
 30
0.0
 10
21.7399284472
 20
16.4296709097
 30
0.0
 10
21.9161251072
 20
16.7003344184
 30
0.0
 10
21.9898817568
 20
17.0180084792
 30
0.0
 10
21.9938234501
 20
17.1687381228
 30
0.0
 11
21.6326239254
 21
16.3019984184
 31
0.0
 11
21.8967453185
 21
16.7269344357
 31
0.0
 11
21.9938234501
 21
17.1687381228
 31
0.0
  0
ELLIPSE
  5
5A4
100
AcDbEntity
  8
RACCORDO
100
AcDbEllipse
 62
7
  6
CONTINUOUS
 10
-8.1072831808
 20
24.5181241005
 30
0.0
 11
-0.089581989
 21
0.1788921796
 31
0.0
 40
0.6123354903
 41
-0.6853099075
 42
0.0197677087
  0
ELLIPSE
  5
5A5
100
AcDbEntity
  8
RACCORDO
100
AcDbEllipse
 62
7
  6
CONTINUOUS
 10
7.8026193958
 20
16.5631728122
 30
0.0
 11
-0.089581989
 21
0.1788921796
 31
0.0
 40
0.6123354903
 41
-0.6853099075
 42
0.0197677087
  0
ELLIPSE
  5
5A6
100
AcDbEntity
  8
RACCORDO
100
AcDbEllipse
 62
7
  6
CONTINUOUS
 10
6.1053907158
 20
17.4117871522
 30
0.0
 11
-0.0895532152
 21
0.1788665203
 31
0.0
 40
0.6125548527
 41
-2.2560263213
 42
-0.685412727
  0
ELLIPSE
  5
5A7
100
AcDbEntity
  8
RACCORDO
100
AcDbEllipse
 62
7
  6
CONTINUOUS
 10
-15.9562522314
 20
28.8323194639
 30
0.0
 11
-0.1118076343
 21
0.2236122655
 31
0.0
 40
0.6123559867
 41
-0.6847115264
 42
0.0052088184
  0
ELLIPSE
  5
5A8
100
AcDbEntity
  8
RACCORDO
100
AcDbEllipse
 62
7
  6
CONTINUOUS
 10
-9.8045118609
 20
25.3667384406
 30
0.0
 11
-0.0895532152
 21
0.1788665203
 31
0.0
 40
0.6125548527
 41
-2.2560263213
 42
-0.685412727
  0
ELLIPSE
  5
5A9
100
AcDbEntity
  8
RACCORDO
100
AcDbEllipse
 62
7
  6
CONTINUOUS
 10
-3.6525942387
 20
22.6804904676
 30
0.0
 11
-0.1118076343
 21
0.2236122655
 31
0.0
 40
0.6123559867
 41
-0.6847115264
 42
0.0052088184
  0
ELLIPSE
  5
5AA
100
AcDbEntity
  8
RACCORDO
100
AcDbEllipse
 62
7
  6
CONTINUOUS
 10
-0.0463496547
 20
20.8773681756
 30
0.0
 11
-0.1118076343
 21
0.2236122655
 31
0.0
 40
0.6123559867
 41
-0.6847115264
 42
0.0052088184
  0
ELLIPSE
  5
5AB
100
AcDbEntity
  8
RACCORDO
100
AcDbEllipse
 62
7
  6
CONTINUOUS
 10
12.257308338
 20
14.7255391793
 30
0.0
 11
-0.1118076343
 21
0.2236122655
 31
0.0
 40
0.6123559867
 41
-0.6847115264
 42
0.0052088184
  0
ELLIPSE
  5
5AC
100
AcDbEntity
  8
RACCORDO
100
AcDbEllipse
 62
7
  6
CONTINUOUS
 10
14.4431526463
 20
-26.24517041
 30
0.0
 11
-0.2233122296
 21
0.4479547973
 31
0.0
 40
0.611934274
 41
-3.1055075874
 42
-2.2544093696
  0
ELLIPSE
  5
5AD
100
AcDbEntity
  8
RACCORDO
100
AcDbEllipse
 62
7
  6
CONTINUOUS
 10
14.4431526463
 20
11.5081783124
 30
0.0
 11
-0.2231311538
 21
0.4477949923
 31
0.0
 40
0.6124818573
 41
-2.2537489731
 42
-0.6834093579
  0
ELLIPSE
  5
5AE
100
AcDbEntity
  8
RACCORDO
100
AcDbEllipse
 62
7
  6
CONTINUOUS
 10
13.9543597663
 20
-28.1252126827
 30
0.0
 11
-0.1118076343
 21
0.2236122655
 31
0.0
 40
0.6123559867
 41
-3.1477742112
 42
-2.2555352685
  0
ELLIPSE
  5
5AF
100
AcDbEntity
  8
RACCORDO
100
AcDbEllipse
 62
7
  6
CONTINUOUS
 10
13.9543597663
 20
13.8770134651
 30
0.0
 11
-0.1118022285
 21
0.2236074604
 31
0.0
 40
0.6123888851
 41
-2.2554957904
 42
-0.684726879
  0
ELLIPSE
  5
5B0
100
AcDbEntity
  8
RACCORDO
100
AcDbEllipse
 62
7
  6
CONTINUOUS
 10
1.6507017737
 20
20.0288424614
 30
0.0
 11
-0.1118022285
 21
0.2236074604
 31
0.0
 40
0.6123888851
 41
-2.2554957904
 42
-0.684726879
  0
ELLIPSE
  5
5B1
100
AcDbEntity
  8
RACCORDO
100
AcDbEllipse
 62
7
  6
CONTINUOUS
 10
-1.9555428104
 20
21.8319647534
 30
0.0
 11
-0.1118022285
 21
0.2236074604
 31
0.0
 40
0.6123888851
 41
-2.2554957904
 42
-0.684726879
  0
ELLIPSE
  5
5B2
100
AcDbEntity
  8
RACCORDO
100
AcDbEllipse
 62
7
  6
CONTINUOUS
 10
-14.259200803
 20
27.9837937498
 30
0.0
 11
-0.1118022285
 21
0.2236074604
 31
0.0
 40
0.6123888851
 41
-2.2554957904
 42
-0.684726879
  0
ELLIPSE
  5
5B3
100
AcDbEntity
  8
RACCORDO
100
AcDbEllipse
 62
7
  6
CONTINUOUS
 10
-10.7558512032
 20
23.6538188945
 30
0.0
 11
0.199943508
 21
0.008945986
 31
0.0
 40
0.5313301283
 41
-2.3799630874
 42
-0.8440733457
  0
ELLIPSE
  5
5B4
100
AcDbEntity
  8
RACCORDO
100
AcDbEllipse
 62
7
  6
CONTINUOUS
 10
-8.9944214696
 20
22.7731040277
 30
0.0
 11
0.199943508
 21
0.008945986
 31
0.0
 40
0.5313301283
 41
3.1176997383
 42
3.9032222197
  0
ELLIPSE
  5
5B5
100
AcDbEntity
  8
RACCORDO
100
AcDbEllipse
 62
7
  6
CONTINUOUS
 10
5.1540513735
 20
15.6988676062
 30
0.0
 11
0.199943508
 21
0.008945986
 31
0.0
 40
0.5313301283
 41
-2.3799630874
 42
-0.8440733457
  0
ELLIPSE
  5
5B6
100
AcDbEntity
  8
RACCORDO
100
AcDbEllipse
 62
7
  6
CONTINUOUS
 10
6.9154811071
 20
14.8181527394
 30
0.0
 11
0.199943508
 21
0.008945986
 31
0.0
 40
0.5313301283
 41
3.1176997383
 42
3.9032222197
  0
ELLIPSE
  5
5B7
100
AcDbEntity
  8
RACCORDO
100
AcDbEllipse
 62
7
  6
CONTINUOUS
 10
-17.5389120074
 20
26.3304807097
 30
0.0
 11
0.249929385
 21
0.0111824824
 31
0.0
 40
0.5313301283
 41
3.1178151515
 42
3.9032222197
  0
ELLIPSE
  5
5B8
100
AcDbEntity
  8
RACCORDO
100
AcDbEllipse
 62
7
  6
CONTINUOUS
 10
-15.8585215423
 20
25.4902854771
 30
0.0
 11
0.249929385
 21
0.0111824824
 31
0.0
 40
0.5313301283
 41
-2.3799630874
 42
-0.8144027484
  0
ELLIPSE
  5
5B9
100
AcDbEntity
  8
RACCORDO
100
AcDbEllipse
 62
7
  6
CONTINUOUS
 10
-5.2352540147
 20
20.1786517134
 30
0.0
 11
0.249929385
 21
0.0111824824
 31
0.0
 40
0.5313301283
 41
3.1178151515
 42
3.9032222197
  0
ELLIPSE
  5
5BA
100
AcDbEntity
  8
RACCORDO
100
AcDbEllipse
 62
7
  6
CONTINUOUS
 10
-3.5548635497
 20
19.3384564808
 30
0.0
 11
0.249929385
 21
0.0111824824
 31
0.0
 40
0.5313301283
 41
-2.3799630874
 42
-0.8144027484
  0
ELLIPSE
  5
5BB
100
AcDbEntity
  8
RACCORDO
100
AcDbEllipse
 62
7
  6
CONTINUOUS
 10
-1.6290094307
 20
18.3755294213
 30
0.0
 11
0.249929385
 21
0.0111824824
 31
0.0
 40
0.5313301283
 41
3.1178151515
 42
3.9032222197
  0
ELLIPSE
  5
5BC
100
AcDbEntity
  8
RACCORDO
100
AcDbEllipse
 62
7
  6
CONTINUOUS
 10
0.0513810344
 20
17.5353341888
 30
0.0
 11
0.249929385
 21
0.0111824824
 31
0.0
 40
0.5313301283
 41
-2.3799630874
 42
-0.8144027484
  0
ELLIPSE
  5
5BD
100
AcDbEntity
  8
RACCORDO
100
AcDbEllipse
 62
7
  6
CONTINUOUS
 10
10.674648562
 20
12.223700425
 30
0.0
 11
0.249929385
 21
0.0111824824
 31
0.0
 40
0.5313301283
 41
3.1178151515
 42
3.9032222197
  0
ELLIPSE
  5
5BE
100
AcDbEntity
  8
RACCORDO
100
AcDbEllipse
 62
7
  6
CONTINUOUS
 10
12.355039027
 20
11.3835051925
 30
0.0
 11
0.249929385
 21
0.0111824824
 31
0.0
 40
0.5313301283
 41
-2.3799630874
 42
-0.8144027484
  0
ELLIPSE
  5
5BF
100
AcDbEntity
  8
RACCORDO
100
AcDbEllipse
 62
7
  6
CONTINUOUS
 10
-7.4662182414
 20
28.3116339127
 30
0.0
 11
0.2267599918
 21
0.4456316896
 31
0.0
 40
0.6176975122
 41
0.0043589484
 42
0.6803507382
  0
ELLIPSE
  5
5C0
100
AcDbEntity
  8
RACCORDO
100
AcDbEllipse
 62
7
  6
CONTINUOUS
 10
-1.8447193309
 20
25.5008844575
 30
0.0
 11
0.2267599918
 21
0.4456316896
 31
0.0
 40
0.6176975122
 41
0.0043589484
 42
0.6803507382
  0
ELLIPSE
  5
5C1
100
AcDbEntity
  8
RACCORDO
100
AcDbEllipse
 62
7
  6
CONTINUOUS
 10
8.4436843353
 20
20.3566826243
 30
0.0
 11
0.2267599918
 21
0.4456316896
 31
0.0
 40
0.6176975122
 41
0.0043589484
 42
0.6803507382
  0
ELLIPSE
  5
5C2
100
AcDbEntity
  8
RACCORDO
100
AcDbEllipse
 62
7
  6
CONTINUOUS
 10
14.0651832458
 20
17.5459331691
 30
0.0
 11
0.2267599918
 21
0.4456316896
 31
0.0
 40
0.6176975122
 41
0.0043589484
 42
0.6803507382
  0
ELLIPSE
  5
5C3
100
AcDbEntity
  8
RACCORDO
100
AcDbEllipse
 62
7
  6
CONTINUOUS
 10
-1.2531886449
 20
25.2051191145
 30
0.0
 11
0.2205149116
 21
0.4487546221
 31
0.0
 40
0.607010042
 41
5.3929141747
 42
6.9549838552
  0
ELLIPSE
  5
5C4
100
AcDbEntity
  8
RACCORDO
100
AcDbEllipse
 62
7
  6
CONTINUOUS
 10
9.0352150213
 20
20.0609172813
 30
0.0
 11
0.2205149116
 21
0.4487546221
 31
0.0
 40
0.607010042
 41
5.3929141747
 42
6.9549838552
  0
ELLIPSE
  5
5C5
100
AcDbEntity
  8
RACCORDO
100
AcDbEllipse
 62
7
  6
CONTINUOUS
 10
14.6567139318
 20
17.2501678261
 30
0.0
 11
0.2205149116
 21
0.4487546221
 31
0.0
 40
0.607010042
 41
5.3929141747
 42
6.9549838552
  0
ELLIPSE
  5
5C6
100
AcDbEntity
  8
RACCORDO
100
AcDbEllipse
 62
7
  6
CONTINUOUS
 10
14.1310311727
 20
-25.745247033
 30
0.0
 11
-0.4474018214
 21
0.8946702271
 31
0.0
 40
0.6121897086
 41
3.6784324333
 42
4.0274505145
  0
ELLIPSE
  5
5C7
100
AcDbEntity
  8
RACCORDO
100
AcDbEllipse
 62
7
  6
CONTINUOUS
 10
14.1310311727
 20
11.320376409
 30
0.0
 11
-0.4471615512
 21
0.8944566536
 31
0.0
 40
0.6125552124
 41
4.0278891191
 42
4.3769072138
  0
ELLIPSE
  5
5C8
100
AcDbEntity
  8
RACCORDO
100
AcDbEllipse
 62
7
  6
CONTINUOUS
 10
14.1310311727
 20
11.320376409
 30
0.0
 11
-0.4471615512
 21
0.8944566536
 31
0.0
 40
0.6125552124
 41
5.142082713
 42
5.5983808594
  0
ELLIPSE
  5
5C9
100
AcDbEntity
  8
RACCORDO
100
AcDbEllipse
 62
7
  6
CONTINUOUS
 10
-6.8746875553
 20
28.0158685697
 30
0.0
 11
0.2205149116
 21
0.4487546221
 31
0.0
 40
0.607010042
 41
5.3929141747
 42
6.9549838552
  0
ELLIPSE
  5
5CA
100
AcDbEntity
  8
ASSI
100
AcDbEllipse
 62
7
  6
CONTINUOUS
 10
-7.4662182414
 20
28.3116339127
 30
0.0
 11
0.2267599918
 21
0.4456316896
 31
0.0
 40
0.6176975122
 41
0.0043589484
 42
0.6803507382
  0
ELLIPSE
  5
5CB
100
AcDbEntity
  8
ASSI
100
AcDbEllipse
 62
7
  6
CONTINUOUS
 10
-1.8447193309
 20
25.5008844575
 30
0.0
 11
0.2267599918
 21
0.4456316896
 31
0.0
 40
0.6176975122
 41
0.0043589484
 42
0.6803507382
  0
ELLIPSE
  5
5CC
100
AcDbEntity
  8
ASSI
100
AcDbEllipse
 62
7
  6
CONTINUOUS
 10
8.4436843353
 20
20.3566826243
 30
0.0
 11
0.2267599918
 21
0.4456316896
 31
0.0
 40
0.6176975122
 41
0.0043589484
 42
0.6803507382
  0
ELLIPSE
  5
5CD
100
AcDbEntity
  8
ASSI
100
AcDbEllipse
 62
7
  6
CONTINUOUS
 10
14.0651832458
 20
17.5459331691
 30
0.0
 11
0.2267599918
 21
0.4456316896
 31
0.0
 40
0.6176975122
 41
0.0043589484
 42
0.6803507382
  0
ELLIPSE
  5
5CE
100
AcDbEntity
  8
ASSI
100
AcDbEllipse
 62
7
  6
CONTINUOUS
 10
14.1310311727
 20
11.320376409
 30
0.0
 11
-0.4471615512
 21
0.8944566536
 31
0.0
 40
0.6125552124
 41
4.0278891191
 42
4.3721148614
  0
ELLIPSE
  5
5CF
100
AcDbEntity
  8
ASSI
100
AcDbEllipse
 62
7
  6
CONTINUOUS
 10
14.1310311727
 20
11.320376409
 30
0.0
 11
-0.4471615512
 21
0.8944566536
 31
0.0
 40
0.6125552124
 41
5.142082713
 42
5.5983808594
  0
ELLIPSE
  5
5D0
100
AcDbEntity
  8
ASSI
100
AcDbEllipse
 62
7
  6
CONTINUOUS
 10
14.1310311727
 20
-25.745247033
 30
0.0
 11
-0.4474018214
 21
0.8946702271
 31
0.0
 40
0.6121897086
 41
3.6832247719
 42
4.0274505145
  0
ELLIPSE
  5
5D1
100
AcDbEntity
  8
ASSI
100
AcDbEllipse
 62
7
  6
CONTINUOUS
 10
-6.8746875553
 20
28.0158685697
 30
0.0
 11
0.2205149116
 21
0.4487546221
 31
0.0
 40
0.607010042
 41
5.3929141747
 42
6.9549838552
  0
ELLIPSE
  5
5D2
100
AcDbEntity
  8
ASSI
100
AcDbEllipse
 62
7
  6
CONTINUOUS
 10
-1.2531886449
 20
25.2051191145
 30
0.0
 11
0.2205149116
 21
0.4487546221
 31
0.0
 40
0.607010042
 41
5.3929141747
 42
6.9549838552
  0
ELLIPSE
  5
5D3
100
AcDbEntity
  8
ASSI
100
AcDbEllipse
 62
7
  6
CONTINUOUS
 10
9.0352150213
 20
20.0609172813
 30
0.0
 11
0.2205149116
 21
0.4487546221
 31
0.0
 40
0.607010042
 41
5.3929141747
 42
6.9549838552
  0
ELLIPSE
  5
5D4
100
AcDbEntity
  8
ASSI
100
AcDbEllipse
 62
7
  6
CONTINUOUS
 10
14.6567139318
 20
17.2501678261
 30
0.0
 11
0.2205149116
 21
0.4487546221
 31
0.0
 40
0.607010042
 41
5.3929141747
 42
6.9549838552
  0
ENDSEC
  0
SECTION
  2
OBJECTS
  0
DICTIONARY
  5
C
100
AcDbDictionary
280
0
281
1
  3
ACAD_GROUP
350
D
  3
ACAD_MLINESTYLE
350
17
  3
ACAD_LAYOUT
350
1A
  3
ACAD_PLOTSETTINGS
350
19
  3
ACAD_PLOTSTYLENAME
350
E
  0
DICTIONARY
  5
D
102
{ACAD_REACTORS
330
C
102
}
100
AcDbDictionary
280
0
281
1
  0
ACDBDICTIONARYWDFLT
  5
E
102
{ACAD_REACTORS
330
C
102
}
100
AcDbDictionary
281
1
  3
Normal
350
F
100
AcDbDictionaryWithDefault
340
F
  0
DICTIONARY
  5
17
102
{ACAD_REACTORS
330
C
102
}
100
AcDbDictionary
280
0
281
1
  3
Standard
350
18
  0
DICTIONARY
  5
19
102
{ACAD_REACTORS
330
C
102
}
100
AcDbDictionary
281
1
  0
DICTIONARY
  5
1A
102
{ACAD_REACTORS
330
C
102
}
100
AcDbDictionary
281
1
  3
Model
350
5D5
  3
Layout1
350
5D6
  0
ACDBPLACEHOLDER
  5
F
102
{ACAD_REACTORS
330
E
102
}
  0
MLINESTYLE
  5
18
102
{ACAD_REACTORS
330
17
102
}
100
AcDbMlineStyle
  2
STANDARD
 70
0
  3

 62
256
 51
90.0
 52
90.0
 71
2
 49
0.5
 62
256
  6
BYLAYER
 49
-0.5
 62
256
  6
BYLAYER
  0
LAYOUT
  5
5D5
102
{ACAD_REACTORS
330
1A
102
}
100
AcDbPlotSettings
  1

  2
none_device
  4
ISO_A4_(297.00_x_210.00_MM)
  6

 40
0.0
 41
0.0
 42
0.0
 43
0.0
 44
297.0
 45
210.0
 46
0.0
 47
0.0
 48
0.0
 49
0.0
140
0.0
141
0.0
142
1.0
143
1.0
 70
1024
 72
1
 73
0
 74
0
  7

 75
0
147
1.0
148
0.0
149
0.0
100
AcDbLayout
  1
Model
 70
0
 71
0
 10
0.0
 20
0.0
 11
297.0
 21
210.0
 12
0.0
 22
0.0
 32
0.0
 14
0.0
 24
0.0
 34
0.0
 15
0.0
 25
0.0
 35
0.0
146
0.0
 13
0.0
 23
0.0
 33
0.0
 16
1.0
 26
0.0
 36
0.0
 17
0.0
 27
1.0
 37
0.0
 76
0
330
219
345
0
346
0
  0
LAYOUT
  5
5D6
102
{ACAD_REACTORS
330
1A
102
}
100
AcDbPlotSettings
  1

  2
none_device
  4
ISO_A4_(297.00_x_210.00_MM)
  6

 40
0.0
 41
0.0
 42
0.0
 43
0.0
 44
297.0
 45
210.0
 46
0.0
 47
0.0
 48
0.0
 49
0.0
140
0.0
141
0.0
142
1.0
143
1.0
 70
0
 72
1
 73
0
 74
0
  7

 75
0
147
1.0
148
0.0
149
0.0
100
AcDbLayout
  1
Layout1
 70
0
 71
1
 10
0.0
 20
0.0
 11
297.0
 21
210.0
 12
0.0
 22
0.0
 32
0.0
 14
0.0
 24
0.0
 34
0.0
 15
0.0
 25
0.0
 35
0.0
146
0.0
 13
0.0
 23
0.0
 33
0.0
 16
1.0
 26
0.0
 36
0.0
 17
0.0
 27
1.0
 37
0.0
 76
0
330
21A
345
0
346
0
  0
ENDSEC
  0
EOF
