  0
SECTION
  2
HEADER
  9
$ACADVER
  1
AC1015
  9
$DWGCODEPAGE
  3
ANSI_1252
  9
$EXTMAX
 10
297.0
 20
210.0
 30
0.0
  9
$EXTMIN
 10
0.0
 20
0.0
 30
0.0
  9
$LIMMIN
 10
0.0
 20
0.0
  9
$LIMMAX
 10
297.0
 20
210.0
  9
$VIEWCTR
 10
148.5
 20
105.0
  9
$VIEWSIZE
 40
210.0
  9
$CLAYER
  8
0
  9
$LTSCALE
 40
16.335
  9
$CELTYPE
  6
BYLAYER
  9
$DIMSCALE
 40
1.0
  9
$DIMASZ
 40
3.0
  9
$DIMEXO
 40
1.85625
  9
$DIMDLI
 40
11.286
  9
$DIMEXE
 40
5.346
  9
$DIMCEN
 40
2.673
  9
$DIMLFAC
 40
1.0
  9
$DIMBLK
  1
_FILLED
  9
$DIMTXT
 40
3.0
  9
$DIMTOL
 70
1
  9
$DIMLIM
 70
0
  9
$DIMTFAC
 40
1.0
  9
$DIMTP
 40
0.01
  9
$DIMTM
 40
0.01
  9
$PDMODE
 70
3
  9
$PDSIZE
 40
3.0
  9
$HANDSEED
  5
42D
  9
$TILEMODE
 70
1
  9
$MEASUREMENT
 70
1
  9
$INSUNITS
 70
4
  0
ENDSEC
  0
SECTION
  2
CLASSES
  0
CLASS
  1
ACDBDICTIONARYWDFLT
  2
AcDbDictionaryWithDefault
  3
AutoCAD 2000
 90
0
280
0
281
0
  0
CLASS
  1
ACDBPLACEHOLDER
  2
AcDbPlaceHolder
  3
AutoCAD 2000
 90
0
280
0
281
0
  0
CLASS
  1
LAYOUT
  2
AcDbLayout
  3
AutoCAD 2000
 90
0
280
0
281
0
  0
ENDSEC
  0
SECTION
  2
TABLES
  0
TABLE
  2
VPORT
  5
8
100
AcDbSymbolTable
 70
2
  0
VPORT
  5
1F4
100
AcDbSymbolTableRecord
100
AcDbViewportTableRecord
  2
*ACTIVE
 70
0
 10
0.0
 20
0.0
 11
1.0
 21
1.0
 12
148.5
 22
105.0
 13
0.0
 23
0.0
 14
1.0
 24
1.0
 15
0.0
 25
0.0
 16
0.0
 26
0.0
 36
1.0
 17
0.0
 27
0.0
 37
0.0
 40
210.0
 41
1.4142857143
 42
50.0
 43
0.0
 44
0.0
 50
0.0
 51
0.0
 71
0
 72
100
 73
1
 74
1
 75
0
 76
0
 77
0
 78
0
  0
ENDTAB
  0
TABLE
  2
LTYPE
  5
5
100
AcDbSymbolTable
 70
6
  0
LTYPE
  5
14
100
AcDbSymbolTableRecord
100
AcDbLinetypeTableRecord
  2
BYBLOCK
 70
0
  3

 72
65
 73
0
 40
0.0
  0
LTYPE
  5
15
100
AcDbSymbolTableRecord
100
AcDbLinetypeTableRecord
  2
BYLAYER
 70
0
  3

 72
65
 73
0
 40
0.0
  0
LTYPE
  5
16
100
AcDbSymbolTableRecord
100
AcDbLinetypeTableRecord
  2
CONTINUOUS
 70
64
  3
Solid line
 72
65
 73
0
 40
0.0
  0
LTYPE
  5
1F5
100
AcDbSymbolTableRecord
100
AcDbLinetypeTableRecord
  2
CENTER
 70
64
  3
____ _ ____ _ ____ _ ____ _ ____ _ ____ _ ____
 72
65
 73
4
 40
0.6
 49
0.375
 74
0
 49
-0.075
 74
0
 49
0.075
 74
0
 49
-0.075
 74
0
  0
LTYPE
  5
1F6
100
AcDbSymbolTableRecord
100
AcDbLinetypeTableRecord
  2
HIDDEN
 70
64
  3
- - - - - - - - - - - - - - - - - - - -
 72
65
 73
2
 40
0.2
 49
0.1
 74
0
 49
-0.1
 74
0
  0
LTYPE
  5
1F7
100
AcDbSymbolTableRecord
100
AcDbLinetypeTableRecord
  2
PHANTOM
 70
64
  3
_____ _ _ _____ _ _ _____ _ _ _____
 72
65
 73
6
 40
0.8
 49
0.45
 74
0
 49
-0.05
 74
0
 49
0.1
 74
0
 49
-0.05
 74
0
 49
0.1
 74
0
 49
-0.05
 74
0
  0
LTYPE
  5
1F8
100
AcDbSymbolTableRecord
100
AcDbLinetypeTableRecord
  2
DOT
 70
64
  3
. . . . . . . . . . . . . . . . . . . .
 72
65
 73
2
 40
0.2
 49
0.1
 74
0
 49
-0.1
 74
0
  0
LTYPE
  5
1F9
100
AcDbSymbolTableRecord
100
AcDbLinetypeTableRecord
  2
DASHED
 70
64
  3
- - - - - - - - - - - - - - - - - - - -
 72
65
 73
2
 40
0.2
 49
0.1
 74
0
 49
-0.1
 74
0
  0
ENDTAB
  0
TABLE
  2
LAYER
  5
2
100
AcDbSymbolTable
 70
36
  0
LAYER
  5
10
100
AcDbSymbolTableRecord
100
AcDbLayerTableRecord
  2
0
 70
0
 62
7
  6
CONTINUOUS
370
-3
390
F
  0
LAYER
  5
1FA
100
AcDbSymbolTableRecord
100
AcDbLayerTableRecord
  2
DEFAULT_1
 70
0
 62
7
  6
CENTER
370
-3
390
F
  0
LAYER
  5
1FB
100
AcDbSymbolTableRecord
100
AcDbLayerTableRecord
  2
DEFAULT_2
 70
0
 62
7
  6
HIDDEN
370
-3
390
F
  0
LAYER
  5
1FC
100
AcDbSymbolTableRecord
100
AcDbLayerTableRecord
  2
DEFAULT_3
 70
0
 62
7
  6
PHANTOM
370
-3
390
F
  0
LAYER
  5
1FD
100
AcDbSymbolTableRecord
100
AcDbLayerTableRecord
  2
ASSI
 70
0
 62
7
  6
CONTINUOUS
370
-3
390
F
  0
LAYER
  5
1FE
100
AcDbSymbolTableRecord
100
AcDbLayerTableRecord
  2
COORDINATE
 70
0
 62
7
  6
CONTINUOUS
370
-3
390
F
  0
LAYER
  5
1FF
100
AcDbSymbolTableRecord
100
AcDbLayerTableRecord
  2
COORD_ORIGINE
 70
0
 62
7
  6
CONTINUOUS
370
-3
390
F
  0
LAYER
  5
200
100
AcDbSymbolTableRecord
100
AcDbLayerTableRecord
  2
COPY_PUBLISH
 70
0
 62
7
  6
CONTINUOUS
370
-3
390
F
  0
LAYER
  5
201
100
AcDbSymbolTableRecord
100
AcDbLayerTableRecord
  2
COSMETIC
 70
0
 62
7
  6
CONTINUOUS
370
-3
390
F
  0
LAYER
  5
202
100
AcDbSymbolTableRecord
100
AcDbLayerTableRecord
  2
COSMETICI
 70
0
 62
7
  6
CONTINUOUS
370
-3
390
F
  0
LAYER
  5
203
100
AcDbSymbolTableRecord
100
AcDbLayerTableRecord
  2
CURVE
 70
0
 62
7
  6
CONTINUOUS
370
-3
390
F
  0
LAYER
  5
204
100
AcDbSymbolTableRecord
100
AcDbLayerTableRecord
  2
DRAFT
 70
0
 62
7
  6
CONTINUOUS
370
-3
390
F
  0
LAYER
  5
205
100
AcDbSymbolTableRecord
100
AcDbLayerTableRecord
  2
IMPORT_IGES
 70
0
 62
7
  6
CONTINUOUS
370
-3
390
F
  0
LAYER
  5
206
100
AcDbSymbolTableRecord
100
AcDbLayerTableRecord
  2
PIANI
 70
0
 62
7
  6
CONTINUOUS
370
-3
390
F
  0
LAYER
  5
207
100
AcDbSymbolTableRecord
100
AcDbLayerTableRecord
  2
PIANI_ORIGINE
 70
0
 62
7
  6
CONTINUOUS
370
-3
390
F
  0
LAYER
  5
208
100
AcDbSymbolTableRecord
100
AcDbLayerTableRecord
  2
PIANI_RIFERIMENTO
 70
0
 62
7
  6
CONTINUOUS
370
-3
390
F
  0
LAYER
  5
209
100
AcDbSymbolTableRecord
100
AcDbLayerTableRecord
  2
RACCORDO
 70
0
 62
7
  6
CONTINUOUS
370
-3
390
F
  0
LAYER
  5
20A
100
AcDbSymbolTableRecord
100
AcDbLayerTableRecord
  2
SMUSSO
 70
0
 62
7
  6
CONTINUOUS
370
-3
390
F
  0
LAYER
  5
20B
100
AcDbSymbolTableRecord
100
AcDbLayerTableRecord
  2
SNAPLINE
 70
0
 62
7
  6
CONTINUOUS
370
-3
390
F
  0
LAYER
  5
20C
100
AcDbSymbolTableRecord
100
AcDbLayerTableRecord
  2
SUPERFICI
 70
0
 62
7
  6
CONTINUOUS
370
-3
390
F
  0
LAYER
  5
20D
100
AcDbSymbolTableRecord
100
AcDbLayerTableRecord
  2
TRASH
 70
0
 62
7
  6
CONTINUOUS
370
-3
390
F
  0
LAYER
  5
20E
100
AcDbSymbolTableRecord
100
AcDbLayerTableRecord
  2
XSEC_DATUMS
 70
0
 62
7
  6
CONTINUOUS
370
-3
390
F
  0
ENDTAB
  0
TABLE
  2
STYLE
  5
3
100
AcDbSymbolTable
 70
1
  0
STYLE
  5
11
100
AcDbSymbolTableRecord
100
AcDbTextStyleTableRecord
  2
STANDARD
 70
0
 40
0.0
 41
0.8
 50
0.0
 71
0
 42
0.2
  3
txt
  4

  0
STYLE
  5
20F
100
AcDbSymbolTableRecord
100
AcDbTextStyleTableRecord
  2
TEXTSTYLE_1
 70
0
 40
0.0
 41
0.8
 50
0.0
 71
0
 42
0.2
  3
gdt
  4

  0
ENDTAB
  0
TABLE
  2
VIEW
  5
6
100
AcDbSymbolTable
 70
0
  0
ENDTAB
  0
TABLE
  2
UCS
  5
7
100
AcDbSymbolTable
 70
0
  0
ENDTAB
  0
TABLE
  2
APPID
  5
9
100
AcDbSymbolTable
 70
1
  0
APPID
  5
210
100
AcDbSymbolTableRecord
100
AcDbRegAppTableRecord
  2
ACAD
 70
0
  0
ENDTAB
  0
TABLE
  2
BLOCK_RECORD
  5
1
100
AcDbSymbolTable
 70
0
  0
BLOCK_RECORD
  5
211
100
AcDbSymbolTableRecord
100
AcDbBlockTableRecord
  2
*Model_Space
  0
BLOCK_RECORD
  5
212
100
AcDbSymbolTableRecord
100
AcDbBlockTableRecord
  2
*Paper_Space
  0
ENDTAB
  0
TABLE
  2
DIMSTYLE
  5
A
100
AcDbSymbolTable
 70
1
100
AcDbDimStyleTable
 71
0
  0
DIMSTYLE
105
213
100
AcDbSymbolTableRecord
100
AcDbDimStyleTableRecord
  2
STANDARD
 70
0
  3

  4

 40
1.0
 41
3.0
 42
0.0625
 43
0.38
 44
0.18
 45
0.0
 46
0.0
 47
0.01
 48
0.01
140
3.0
141
0.09
142
0.0
143
25.4
144
1.0
145
0.0
146
1.0
147
0.09
 71
1.0
 72
0.0
 73
0
 74
0
 75
0
 76
0
 77
1
 78
8
170
0
171
2
172
0
173
0
174
0
175
0
176
0
177
0
178
0
270
2
271
2
272
2
273
2
274
2
275
0
280
0
281
0
282
0
283
1
284
8
285
0
286
0
287
3
288
0
340
11
  0
ENDTAB
  0
ENDSEC
  0
SECTION
  2
BLOCKS
  0
BLOCK
  5
20
100
AcDbEntity
  8
0
100
AcDbBlockBegin
  2
*Model_Space
 70
0
 10
0.0
 20
0.0
 30
0.0
  3
*Model_Space
  1

  0
ENDBLK
  5
21
100
AcDbEntity
  8
0
100
AcDbBlockEnd
  0
BLOCK
  5
1C
100
AcDbEntity
  8
0
100
AcDbBlockBegin
  2
*Paper_Space
 70
0
 10
0.0
 20
0.0
 30
0.0
  3
*Paper_Space
  1

  0
ENDBLK
  5
1D
100
AcDbEntity
  8
0
100
AcDbBlockEnd
  0
ENDSEC
  0
SECTION
  2
ENTITIES
  0
SPLINE
  5
214
100
AcDbEntity
  8
CURVE
100
AcDbSpline
 62
253
  6
CONTINUOUS
 70
0
 71
3
 72
8
 73
4
 74
0
 42
0.0000001
 43
0.0000001
 44
0.0000000001
 40
0.0
 40
0.0
 40
0.0
 40
0.0
 40
1.0
 40
1.0
 40
1.0
 40
1.0
 10
6.4282130941
 20
-12.3872348135
 30
0.0
 10
6.4654926522
 20
-12.4261028467
 30
0.0
 10
6.5078825706
 20
-12.4628528659
 30
0.0
 10
6.5550586377
 20
-12.5004036502
 30
0.0
  0
SPLINE
  5
215
100
AcDbEntity
  8
CURVE
100
AcDbSpline
 62
253
  6
CONTINUOUS
 70
0
 71
3
 72
8
 73
4
 74
0
 42
0.0000001
 43
0.0000001
 44
0.0000000001
 40
0.0
 40
0.0
 40
0.0
 40
0.0
 40
1.0
 40
1.0
 40
1.0
 40
1.0
 10
6.3314892869
 20
-12.2621138288
 30
0.0
 10
6.3581163524
 20
-12.3070536994
 30
0.0
 10
6.3916643467
 20
-12.3491287308
 30
0.0
 10
6.4282130941
 20
-12.3872348135
 30
0.0
  0
SPLINE
  5
216
100
AcDbEntity
  8
CURVE
100
AcDbSpline
 62
253
  6
CONTINUOUS
 70
0
 71
3
 72
8
 73
4
 74
0
 42
0.0000001
 43
0.0000001
 44
0.0000000001
 40
0.0
 40
0.0
 40
0.0
 40
0.0
 40
1.0
 40
1.0
 40
1.0
 40
1.0
 10
6.2665850591
 20
-12.1138257788
 30
0.0
 10
6.2833551782
 20
-12.168469069
 30
0.0
 10
6.3048623367
 20
-12.2171741527
 30
0.0
 10
6.3314892869
 20
-12.2621138288
 30
0.0
  0
SPLINE
  5
217
100
AcDbEntity
  8
CURVE
100
AcDbSpline
 62
253
  6
CONTINUOUS
 70
0
 71
3
 72
8
 73
4
 74
0
 42
0.0000001
 43
0.0000001
 44
0.0000000001
 40
0.0
 40
0.0
 40
0.0
 40
0.0
 40
1.0
 40
1.0
 40
1.0
 40
1.0
 10
6.2398062671
 20
-11.9379612448
 30
0.0
 10
6.2426338882
 20
-12.0026275941
 30
0.0
 10
6.2504872651
 20
-12.0613731745
 30
0.0
 10
6.2665850591
 20
-12.1138257788
 30
0.0
  0
SPLINE
  5
218
100
AcDbEntity
  8
CURVE
100
AcDbSpline
 62
253
  6
CONTINUOUS
 70
0
 71
3
 72
8
 73
4
 74
0
 42
0.0000001
 43
0.0000001
 44
0.0000000001
 40
0.0
 40
0.0
 40
0.0
 40
0.0
 40
1.0
 40
1.0
 40
1.0
 40
1.0
 10
6.2605430664
 20
-11.7773272517
 30
0.0
 10
6.2435327647
 20
-11.8217530628
 30
0.0
 10
6.2370729019
 20
-11.8754504819
 30
0.0
 10
6.2398062671
 20
-11.9379612448
 30
0.0
  0
SPLINE
  5
219
100
AcDbEntity
  8
CURVE
100
AcDbSpline
 62
253
  6
CONTINUOUS
 70
0
 71
3
 72
8
 73
4
 74
0
 42
0.0000001
 43
0.0000001
 44
0.0000000001
 40
0.0
 40
0.0
 40
0.0
 40
0.0
 40
1.0
 40
1.0
 40
1.0
 40
1.0
 10
6.3392801834
 20
-11.6835604799
 30
0.0
 10
6.3035696919
 20
-11.7041823317
 30
0.0
 10
6.276734036
 20
-11.7350412903
 30
0.0
 10
6.2605430664
 20
-11.7773272517
 30
0.0
  0
SPLINE
  5
21A
100
AcDbEntity
  8
CURVE
100
AcDbSpline
 62
253
  6
CONTINUOUS
 70
0
 71
3
 72
8
 73
4
 74
0
 42
0.0000001
 43
0.0000001
 44
0.0000000001
 40
0.0
 40
0.0
 40
0.0
 40
0.0
 40
1.0
 40
1.0
 40
1.0
 40
1.0
 10
6.4707928368
 20
-11.6630763958
 30
0.0
 10
6.4178134819
 20
-11.6579917248
 30
0.0
 10
6.374015159
 20
-11.6635019624
 30
0.0
 10
6.3392801834
 20
-11.6835604799
 30
0.0
  0
SPLINE
  5
21B
100
AcDbEntity
  8
CURVE
100
AcDbSpline
 62
253
  6
CONTINUOUS
 70
0
 71
3
 72
8
 73
4
 74
0
 42
0.0000001
 43
0.0000001
 44
0.0000000001
 40
0.0
 40
0.0
 40
0.0
 40
0.0
 40
1.0
 40
1.0
 40
1.0
 40
1.0
 10
6.6495796551
 20
-11.721164378
 30
0.0
 10
6.581143811
 20
-11.686946456
 30
0.0
 10
6.5221839625
 20
-11.6680086372
 30
0.0
 10
6.4707928368
 20
-11.6630763958
 30
0.0
  0
SPLINE
  5
21C
100
AcDbEntity
  8
CURVE
100
AcDbSpline
 62
253
  6
CONTINUOUS
 70
0
 71
3
 72
8
 73
4
 74
0
 42
0.0000001
 43
0.0000001
 44
0.0000000001
 40
0.0
 40
0.0
 40
0.0
 40
0.0
 40
1.0
 40
1.0
 40
1.0
 40
1.0
 10
5.3833521947
 20
-11.3663618373
 30
0.0
 10
5.414449583
 20
-11.3523926737
 30
0.0
 10
5.4641219433
 20
-11.3603614665
 30
0.0
 10
5.5361597414
 20
-11.3963803655
 30
0.0
  0
SPLINE
  5
21D
100
AcDbEntity
  8
CURVE
100
AcDbSpline
 62
253
  6
CONTINUOUS
 70
0
 71
3
 72
8
 73
4
 74
0
 42
0.0000001
 43
0.0000001
 44
0.0000000001
 40
0.0
 40
0.0
 40
0.0
 40
0.0
 40
1.0
 40
1.0
 40
1.0
 40
1.0
 10
5.3421829962
 20
-11.4722823156
 30
0.0
 10
5.3397323902
 20
-11.4162381206
 30
0.0
 10
5.3522548064
 20
-11.3803310008
 30
0.0
 10
5.3833521947
 20
-11.3663618373
 30
0.0
  0
SPLINE
  5
21E
100
AcDbEntity
  8
CURVE
100
AcDbSpline
 62
253
  6
CONTINUOUS
 70
0
 71
3
 72
8
 73
4
 74
0
 42
0.0000001
 43
0.0000001
 44
0.0000000001
 40
0.0
 40
0.0
 40
0.0
 40
0.0
 40
1.0
 40
1.0
 40
1.0
 40
1.0
 10
5.3577174693
 20
-11.5626646162
 30
0.0
 10
5.3484240596
 20
-11.5344384689
 30
0.0
 10
5.3435968047
 20
-11.5046154424
 30
0.0
 10
5.3421829962
 20
-11.4722823156
 30
0.0
  0
SPLINE
  5
21F
100
AcDbEntity
  8
CURVE
100
AcDbSpline
 62
253
  6
CONTINUOUS
 70
0
 71
3
 72
8
 73
4
 74
0
 42
0.0000001
 43
0.0000001
 44
0.0000000001
 40
0.0
 40
0.0
 40
0.0
 40
0.0
 40
1.0
 40
1.0
 40
1.0
 40
1.0
 10
5.4040368764
 20
-11.6472906722
 30
0.0
 10
5.3820560003
 20
-11.6187238953
 30
0.0
 10
5.366705963
 20
-11.5899646658
 30
0.0
 10
5.3577174693
 20
-11.5626646162
 30
0.0
  0
SPLINE
  5
220
100
AcDbEntity
  8
CURVE
100
AcDbSpline
 62
253
  6
CONTINUOUS
 70
0
 71
3
 72
8
 73
4
 74
0
 42
0.0000001
 43
0.0000001
 44
0.0000000001
 40
0.0
 40
0.0
 40
0.0
 40
0.0
 40
1.0
 40
1.0
 40
1.0
 40
1.0
 10
5.4909840028
 20
-11.7419363042
 30
0.0
 10
5.4546493318
 20
-11.7077309944
 30
0.0
 10
5.4268811233
 20
-11.6769795027
 30
0.0
 10
5.4040368764
 20
-11.6472906722
 30
0.0
  0
SPLINE
  5
221
100
AcDbEntity
  8
CURVE
100
AcDbSpline
 62
253
  6
CONTINUOUS
 70
0
 71
3
 72
8
 73
4
 74
0
 42
0.0000001
 43
0.0000001
 44
0.0000000001
 40
0.0
 40
0.0
 40
0.0
 40
0.0
 40
1.0
 40
1.0
 40
1.0
 40
1.0
 10
5.6248701932
 20
-11.8539855053
 30
0.0
 10
5.5701820663
 20
-11.811882513
 30
0.0
 10
5.5262998012
 20
-11.7751824516
 30
0.0
 10
5.4909840028
 20
-11.7419363042
 30
0.0
  0
SPLINE
  5
222
100
AcDbEntity
  8
CURVE
100
AcDbSpline
 62
253
  6
CONTINUOUS
 70
0
 71
3
 72
8
 73
4
 74
0
 42
0.0000001
 43
0.0000001
 44
0.0000000001
 40
0.0
 40
0.0
 40
0.0
 40
0.0
 40
1.0
 40
1.0
 40
1.0
 40
1.0
 10
5.9983788814
 20
-12.217847053
 30
0.0
 10
5.9489151003
 20
-12.1340793896
 30
0.0
 10
5.8803010582
 20
-12.055495582
 30
0.0
 10
5.7927247153
 20
-11.9864063763
 30
0.0
  0
SPLINE
  5
223
100
AcDbEntity
  8
CURVE
100
AcDbSpline
 62
253
  6
CONTINUOUS
 70
0
 71
3
 72
8
 73
4
 74
0
 42
0.0000001
 43
0.0000001
 44
0.0000000001
 40
0.0
 40
0.0
 40
0.0
 40
0.0
 40
1.0
 40
1.0
 40
1.0
 40
1.0
 10
6.0799261181
 20
-12.5116307222
 30
0.0
 10
6.0750249081
 20
-12.3995423801
 30
0.0
 10
6.047842527
 20
-12.3016144868
 30
0.0
 10
5.9983788814
 20
-12.217847053
 30
0.0
  0
SPLINE
  5
224
100
AcDbEntity
  8
CURVE
100
AcDbSpline
 62
253
  6
CONTINUOUS
 70
0
 71
3
 72
8
 73
4
 74
0
 42
0.0000001
 43
0.0000001
 44
0.0000000001
 40
0.0
 40
0.0
 40
0.0
 40
0.0
 40
1.0
 40
1.0
 40
1.0
 40
1.0
 10
6.0663263097
 20
-12.6840463299
 30
0.0
 10
6.07809469
 20
-12.6308948272
 30
0.0
 10
6.0825652317
 20
-12.5719859944
 30
0.0
 10
6.0799261181
 20
-12.5116307222
 30
0.0
  0
SPLINE
  5
225
100
AcDbEntity
  8
CURVE
100
AcDbSpline
 62
253
  6
CONTINUOUS
 70
0
 71
3
 72
8
 73
4
 74
0
 42
0.0000001
 43
0.0000001
 44
0.0000000001
 40
0.0
 40
0.0
 40
0.0
 40
0.0
 40
1.0
 40
1.0
 40
1.0
 40
1.0
 10
5.9996509991
 20
-12.8109484441
 30
0.0
 10
6.0335963097
 20
-12.7815359129
 30
0.0
 10
6.054557925
 20
-12.737197852
 30
0.0
 10
6.0663263097
 20
-12.6840463299
 30
0.0
  0
SPLINE
  5
226
100
AcDbEntity
  8
CURVE
100
AcDbSpline
 62
253
  6
CONTINUOUS
 70
0
 71
3
 72
8
 73
4
 74
0
 42
0.0000001
 43
0.0000001
 44
0.0000000001
 40
0.0
 40
0.0
 40
0.0
 40
0.0
 40
1.0
 40
1.0
 40
1.0
 40
1.0
 10
5.8641084077
 20
-12.8566490912
 30
0.0
 10
5.9205778205
 20
-12.8557485634
 30
0.0
 10
5.9657056885
 20
-12.8403609753
 30
0.0
 10
5.9996509991
 20
-12.8109484441
 30
0.0
  0
SPLINE
  5
227
100
AcDbEntity
  8
CURVE
100
AcDbSpline
 62
253
  6
CONTINUOUS
 70
0
 71
3
 72
8
 73
4
 74
0
 42
0.0000001
 43
0.0000001
 44
0.0000000001
 40
0.0
 40
0.0
 40
0.0
 40
0.0
 40
1.0
 40
1.0
 40
1.0
 40
1.0
 10
6.4945336926
 20
-11.9219525862
 30
0.0
 10
6.5256310809
 20
-11.9079834227
 30
0.0
 10
6.5753034413
 20
-11.9159522154
 30
0.0
 10
6.647340919
 20
-11.9519709543
 30
0.0
  0
SPLINE
  5
228
100
AcDbEntity
  8
CURVE
100
AcDbSpline
 62
253
  6
CONTINUOUS
 70
0
 71
3
 72
8
 73
4
 74
0
 42
0.0000001
 43
0.0000001
 44
0.0000000001
 40
0.0
 40
0.0
 40
0.0
 40
0.0
 40
1.0
 40
1.0
 40
1.0
 40
1.0
 10
5.6429297476
 20
-12.7907191536
 30
0.0
 10
5.7329769952
 20
-12.8357427774
 30
0.0
 10
5.8061558319
 20
-12.8575732713
 30
0.0
 10
5.8641084077
 20
-12.8566490912
 30
0.0
  0
SPLINE
  5
229
100
AcDbEntity
  8
CURVE
100
AcDbSpline
 62
253
  6
CONTINUOUS
 70
0
 71
3
 72
8
 73
4
 74
0
 42
0.0000001
 43
0.0000001
 44
0.0000000001
 40
0.0
 40
0.0
 40
0.0
 40
0.0
 40
1.0
 40
1.0
 40
1.0
 40
1.0
 10
5.8096926227
 20
-12.5847213751
 30
0.0
 10
5.7705745306
 20
-12.6078566485
 30
0.0
 10
5.7083897442
 20
-12.595740031
 30
0.0
 10
5.6219447709
 20
-12.5525175443
 30
0.0
  0
SPLINE
  5
22A
100
AcDbEntity
  8
CURVE
100
AcDbSpline
 62
253
  6
CONTINUOUS
 70
0
 71
3
 72
8
 73
4
 74
0
 42
0.0000001
 43
0.0000001
 44
0.0000000001
 40
0.0
 40
0.0
 40
0.0
 40
0.0
 40
1.0
 40
1.0
 40
1.0
 40
1.0
 10
5.8638027326
 20
-12.4436289457
 30
0.0
 10
5.8670073708
 20
-12.5169174973
 30
0.0
 10
5.8478468927
 20
-12.5621561267
 30
0.0
 10
5.8096926227
 20
-12.5847213751
 30
0.0
  0
SPLINE
  5
22B
100
AcDbEntity
  8
CURVE
100
AcDbSpline
 62
253
  6
CONTINUOUS
 70
0
 71
3
 72
8
 73
4
 74
0
 42
0.0000001
 43
0.0000001
 44
0.0000000001
 40
0.0
 40
0.0
 40
0.0
 40
0.0
 40
1.0
 40
1.0
 40
1.0
 40
1.0
 10
6.4533641739
 20
-12.0278729044
 30
0.0
 10
6.4509135678
 20
-11.9718287095
 30
0.0
 10
6.4634363043
 20
-11.9359217498
 30
0.0
 10
6.4945336926
 20
-11.9219525862
 30
0.0
  0
SPLINE
  5
22C
100
AcDbEntity
  8
CURVE
100
AcDbSpline
 62
253
  6
CONTINUOUS
 70
0
 71
3
 72
8
 73
4
 74
0
 42
0.0000001
 43
0.0000001
 44
0.0000000001
 40
0.0
 40
0.0
 40
0.0
 40
0.0
 40
1.0
 40
1.0
 40
1.0
 40
1.0
 10
5.8085796933
 20
-12.2684281845
 30
0.0
 10
5.8425047027
 20
-12.3191253703
 30
0.0
 10
5.8608808577
 20
-12.3768070577
 30
0.0
 10
5.8638027326
 20
-12.4436289457
 30
0.0
  0
SPLINE
  5
22D
100
AcDbEntity
  8
CURVE
100
AcDbSpline
 62
253
  6
CONTINUOUS
 70
0
 71
3
 72
8
 73
4
 74
0
 42
0.0000001
 43
0.0000001
 44
0.0000000001
 40
0.0
 40
0.0
 40
0.0
 40
0.0
 40
1.0
 40
1.0
 40
1.0
 40
1.0
 10
6.4688987835
 20
-12.1182552064
 30
0.0
 10
6.4596052372
 20
-12.0900290578
 30
0.0
 10
6.4547779823
 20
-12.0602060312
 30
0.0
 10
6.4533641739
 20
-12.0278729044
 30
0.0
  0
SPLINE
  5
22E
100
AcDbEntity
  8
CURVE
100
AcDbSpline
 62
253
  6
CONTINUOUS
 70
0
 71
3
 72
8
 73
4
 74
0
 42
0.0000001
 43
0.0000001
 44
0.0000000001
 40
0.0
 40
0.0
 40
0.0
 40
0.0
 40
1.0
 40
1.0
 40
1.0
 40
1.0
 10
6.5152183258
 20
-12.2028814836
 30
0.0
 10
6.4932374983
 20
-12.1743146442
 30
0.0
 10
6.477887461
 20
-12.1455554147
 30
0.0
 10
6.4688987835
 20
-12.1182552064
 30
0.0
  0
SPLINE
  5
22F
100
AcDbEntity
  8
CURVE
100
AcDbSpline
 62
253
  6
CONTINUOUS
 70
0
 71
3
 72
8
 73
4
 74
0
 42
0.0000001
 43
0.0000001
 44
0.0000000001
 40
0.0
 40
0.0
 40
0.0
 40
0.0
 40
1.0
 40
1.0
 40
1.0
 40
1.0
 10
5.6647129074
 20
-12.1205917825
 30
0.0
 10
5.7266991961
 20
-12.1684522674
 30
0.0
 10
5.7746546839
 20
-12.2177309987
 30
0.0
 10
5.8085796933
 20
-12.2684281845
 30
0.0
  0
SPLINE
  5
230
100
AcDbEntity
  8
CURVE
100
AcDbSpline
 62
253
  6
CONTINUOUS
 70
0
 71
3
 72
8
 73
4
 74
0
 42
0.0000001
 43
0.0000001
 44
0.0000000001
 40
0.0
 40
0.0
 40
0.0
 40
0.0
 40
1.0
 40
1.0
 40
1.0
 40
1.0
 10
6.6021651804
 20
-12.297526893
 30
0.0
 10
6.5658305094
 20
-12.2633215832
 30
0.0
 10
6.5380623009
 20
-12.2325700915
 30
0.0
 10
6.5152183258
 20
-12.2028814836
 30
0.0
  0
SPLINE
  5
231
100
AcDbEntity
  8
CURVE
100
AcDbSpline
 62
253
  6
CONTINUOUS
 70
0
 71
3
 72
8
 73
4
 74
0
 42
0.0000001
 43
0.0000001
 44
0.0000000001
 40
0.0
 40
0.0
 40
0.0
 40
0.0
 40
1.0
 40
1.0
 40
1.0
 40
1.0
 10
6.7360516912
 20
-12.4095762543
 30
0.0
 10
6.6813635642
 20
-12.367473262
 30
0.0
 10
6.6374809788
 20
-12.3307730404
 30
0.0
 10
6.6021651804
 20
-12.297526893
 30
0.0
  0
SPLINE
  5
232
100
AcDbEntity
  8
CURVE
100
AcDbSpline
 62
253
  6
CONTINUOUS
 70
0
 71
3
 72
8
 73
4
 74
0
 42
0.0000001
 43
0.0000001
 44
0.0000000001
 40
0.0
 40
0.0
 40
0.0
 40
0.0
 40
1.0
 40
1.0
 40
1.0
 40
1.0
 10
7.1095602976
 20
-12.7734378546
 30
0.0
 10
7.060096278
 20
-12.6896699784
 30
0.0
 10
6.9914822507
 20
-12.61108609
 30
0.0
 10
6.9039062132
 20
-12.5419971253
 30
0.0
  0
SPLINE
  5
233
100
AcDbEntity
  8
CURVE
100
AcDbSpline
 62
253
  6
CONTINUOUS
 70
0
 71
3
 72
8
 73
4
 74
0
 42
0.0000001
 43
0.0000001
 44
0.0000000001
 40
0.0
 40
0.0
 40
0.0
 40
0.0
 40
1.0
 40
1.0
 40
1.0
 40
1.0
 10
7.1911072957
 20
-13.067221311
 30
0.0
 10
7.1862060857
 20
-12.9551329689
 30
0.0
 10
7.1590240249
 20
-12.8572052358
 30
0.0
 10
7.1095602976
 20
-12.7734378546
 30
0.0
  0
SPLINE
  5
234
100
AcDbEntity
  8
CURVE
100
AcDbSpline
 62
253
  6
CONTINUOUS
 70
0
 71
3
 72
8
 73
4
 74
0
 42
0.0000001
 43
0.0000001
 44
0.0000000001
 40
0.0
 40
0.0
 40
0.0
 40
0.0
 40
1.0
 40
1.0
 40
1.0
 40
1.0
 10
7.1775075071
 20
-13.2396368295
 30
0.0
 10
7.1892758677
 20
-13.186485416
 30
0.0
 10
7.1937464093
 20
-13.1275765832
 30
0.0
 10
7.1911072957
 20
-13.067221311
 30
0.0
  0
SPLINE
  5
235
100
AcDbEntity
  8
CURVE
100
AcDbSpline
 62
253
  6
CONTINUOUS
 70
0
 71
3
 72
8
 73
4
 74
0
 42
0.0000001
 43
0.0000001
 44
0.0000000001
 40
0.0
 40
0.0
 40
0.0
 40
0.0
 40
1.0
 40
1.0
 40
1.0
 40
1.0
 10
7.1108324971
 20
-13.3665391931
 30
0.0
 10
7.1447778077
 20
-13.3371266619
 30
0.0
 10
7.1657391027
 20
-13.2927884408
 30
0.0
 10
7.1775075071
 20
-13.2396368295
 30
0.0
  0
SPLINE
  5
236
100
AcDbEntity
  8
CURVE
100
AcDbSpline
 62
253
  6
CONTINUOUS
 70
0
 71
3
 72
8
 73
4
 74
0
 42
0.0000001
 43
0.0000001
 44
0.0000000001
 40
0.0
 40
0.0
 40
0.0
 40
0.0
 40
1.0
 40
1.0
 40
1.0
 40
1.0
 10
6.9752898779
 20
-13.4122397591
 30
0.0
 10
7.0317593184
 20
-13.4113393124
 30
0.0
 10
7.0768871864
 20
-13.3959517243
 30
0.0
 10
7.1108324971
 20
-13.3665391931
 30
0.0
  0
SPLINE
  5
237
100
AcDbEntity
  8
CURVE
100
AcDbSpline
 62
253
  6
CONTINUOUS
 70
0
 71
3
 72
8
 73
4
 74
0
 42
0.0000001
 43
0.0000001
 44
0.0000000001
 40
0.0
 40
0.0
 40
0.0
 40
0.0
 40
1.0
 40
1.0
 40
1.0
 40
1.0
 10
6.7541112455
 20
-13.3463099026
 30
0.0
 10
6.8441581728
 20
-13.3913333662
 30
0.0
 10
6.9173370095
 20
-13.4131638601
 30
0.0
 10
6.9752898779
 20
-13.4122397591
 30
0.0
  0
SPLINE
  5
238
100
AcDbEntity
  8
CURVE
100
AcDbSpline
 62
253
  6
CONTINUOUS
 70
0
 71
3
 72
8
 73
4
 74
0
 42
0.0000001
 43
0.0000001
 44
0.0000000001
 40
0.0
 40
0.0
 40
0.0
 40
0.0
 40
1.0
 40
1.0
 40
1.0
 40
1.0
 10
5.3170318899
 20
-11.8316442848
 30
0.0
 10
5.3543114746
 20
-11.8705122578
 30
0.0
 10
5.3967013791
 20
-11.9072623608
 30
0.0
 10
5.4438771397
 20
-11.9448129012
 30
0.0
  0
SPLINE
  5
239
100
AcDbEntity
  8
CURVE
100
AcDbSpline
 62
253
  6
CONTINUOUS
 70
0
 71
3
 72
8
 73
4
 74
0
 42
0.0000001
 43
0.0000001
 44
0.0000000001
 40
0.0
 40
0.0
 40
0.0
 40
0.0
 40
1.0
 40
1.0
 40
1.0
 40
1.0
 10
5.2203079465
 20
-11.7065233456
 30
0.0
 10
5.2469348545
 20
-11.7514629504
 30
0.0
 10
5.2804828488
 20
-11.7935379819
 30
0.0
 10
5.3170318899
 20
-11.8316442848
 30
0.0
  0
SPLINE
  5
23A
100
AcDbEntity
  8
CURVE
100
AcDbSpline
 62
253
  6
CONTINUOUS
 70
0
 71
3
 72
8
 73
4
 74
0
 42
0.0000001
 43
0.0000001
 44
0.0000000001
 40
0.0
 40
0.0
 40
0.0
 40
0.0
 40
1.0
 40
1.0
 40
1.0
 40
1.0
 10
5.1554038814
 20
-11.55823519
 30
0.0
 10
5.1721740006
 20
-11.6128784802
 30
0.0
 10
5.1936808388
 20
-11.6615834038
 30
0.0
 10
5.2203079465
 20
-11.7065233456
 30
0.0
  0
SPLINE
  5
23B
100
AcDbEntity
  8
CURVE
100
AcDbSpline
 62
253
  6
CONTINUOUS
 70
0
 71
3
 72
8
 73
4
 74
0
 42
0.0000001
 43
0.0000001
 44
0.0000000001
 40
0.0
 40
0.0
 40
0.0
 40
0.0
 40
1.0
 40
1.0
 40
1.0
 40
1.0
 10
5.1286247692
 20
-11.3823704958
 30
0.0
 10
5.1314523903
 20
-11.4470368451
 30
0.0
 10
5.1393060875
 20
-11.5057825857
 30
0.0
 10
5.1554038814
 20
-11.55823519
 30
0.0
  0
SPLINE
  5
23C
100
AcDbEntity
  8
CURVE
100
AcDbSpline
 62
253
  6
CONTINUOUS
 70
0
 71
3
 72
8
 73
4
 74
0
 42
0.0000001
 43
0.0000001
 44
0.0000000001
 40
0.0
 40
0.0
 40
0.0
 40
0.0
 40
1.0
 40
1.0
 40
1.0
 40
1.0
 10
6.9208739726
 20
-13.1403118621
 30
0.0
 10
6.8817557082
 20
-13.1634472373
 30
0.0
 10
6.8195712421
 20
-13.15133078
 30
0.0
 10
6.7331259485
 20
-13.1081081331
 30
0.0
  0
SPLINE
  5
23D
100
AcDbEntity
  8
CURVE
100
AcDbSpline
 62
253
  6
CONTINUOUS
 70
0
 71
3
 72
8
 73
4
 74
0
 42
0.0000001
 43
0.0000001
 44
0.0000000001
 40
0.0
 40
0.0
 40
0.0
 40
0.0
 40
1.0
 40
1.0
 40
1.0
 40
1.0
 10
6.9749839102
 20
-12.9992195345
 30
0.0
 10
6.9781885484
 20
-13.0725080861
 30
0.0
 10
6.9590280703
 20
-13.1177467156
 30
0.0
 10
6.9208739726
 20
-13.1403118621
 30
0.0
  0
SPLINE
  5
23E
100
AcDbEntity
  8
CURVE
100
AcDbSpline
 62
253
  6
CONTINUOUS
 70
0
 71
3
 72
8
 73
4
 74
0
 42
0.0000001
 43
0.0000001
 44
0.0000000001
 40
0.0
 40
0.0
 40
0.0
 40
0.0
 40
1.0
 40
1.0
 40
1.0
 40
1.0
 10
6.919761004
 20
-12.8240186536
 30
0.0
 10
6.9536862006
 20
-12.8747161192
 30
0.0
 10
6.9720620354
 20
-12.9323976466
 30
0.0
 10
6.9749839102
 20
-12.9992195345
 30
0.0
  0
SPLINE
  5
23F
100
AcDbEntity
  8
CURVE
100
AcDbSpline
 62
253
  6
CONTINUOUS
 70
0
 71
3
 72
8
 73
4
 74
0
 42
0.0000001
 43
0.0000001
 44
0.0000000001
 40
0.0
 40
0.0
 40
0.0
 40
0.0
 40
1.0
 40
1.0
 40
1.0
 40
1.0
 10
5.1493617548
 20
-11.2217365267
 30
0.0
 10
5.1323512668
 20
-11.2661623138
 30
0.0
 10
5.1258914039
 20
-11.319859733
 30
0.0
 10
5.1286247692
 20
-11.3823704958
 30
0.0
  0
SPLINE
  5
240
100
AcDbEntity
  8
CURVE
100
AcDbSpline
 62
253
  6
CONTINUOUS
 70
0
 71
3
 72
8
 73
4
 74
0
 42
0.0000001
 43
0.0000001
 44
0.0000000001
 40
0.0
 40
0.0
 40
0.0
 40
0.0
 40
1.0
 40
1.0
 40
1.0
 40
1.0
 10
6.7758944054
 20
-12.6761825314
 30
0.0
 10
6.837880694
 20
-12.7240430163
 30
0.0
 10
6.8858361818
 20
-12.7733217476
 30
0.0
 10
6.919761004
 20
-12.8240186536
 30
0.0
  0
SPLINE
  5
241
100
AcDbEntity
  8
CURVE
100
AcDbSpline
 62
253
  6
CONTINUOUS
 70
0
 71
3
 72
8
 73
4
 74
0
 42
0.0000001
 43
0.0000001
 44
0.0000000001
 40
0.0
 40
0.0
 40
0.0
 40
0.0
 40
1.0
 40
1.0
 40
1.0
 40
1.0
 10
5.2280988315
 20
-11.1279699918
 30
0.0
 10
5.1923885143
 20
-11.1485917429
 30
0.0
 10
5.1655528584
 20
-11.1794507015
 30
0.0
 10
5.1493617548
 20
-11.2217365267
 30
0.0
  0
SPLINE
  5
242
100
AcDbEntity
  8
CURVE
100
AcDbSpline
 62
253
  6
CONTINUOUS
 70
0
 71
3
 72
8
 73
4
 74
0
 42
0.0000001
 43
0.0000001
 44
0.0000000001
 40
0.0
 40
0.0
 40
0.0
 40
0.0
 40
1.0
 40
1.0
 40
1.0
 40
1.0
 10
5.3596113765
 20
-11.1074857798
 30
0.0
 10
5.3066323043
 20
-11.102401136
 30
0.0
 10
5.2628339814
 20
-11.1079113736
 30
0.0
 10
5.2280988315
 20
-11.1279699918
 30
0.0
  0
SPLINE
  5
243
100
AcDbEntity
  8
CURVE
100
AcDbSpline
 62
253
  6
CONTINUOUS
 70
0
 71
3
 72
8
 73
4
 74
0
 42
0.0000001
 43
0.0000001
 44
0.0000000001
 40
0.0
 40
0.0
 40
0.0
 40
0.0
 40
1.0
 40
1.0
 40
1.0
 40
1.0
 10
5.5383984775
 20
-11.1655737892
 30
0.0
 10
5.4699626334
 20
-11.1313558672
 30
0.0
 10
5.4110027849
 20
-11.1124180483
 30
0.0
 10
5.3596113765
 20
-11.1074857798
 30
0.0
  0
SPLINE
  5
244
100
AcDbEntity
  8
CURVE
100
AcDbSpline
 62
253
  6
CONTINUOUS
 70
0
 71
3
 72
8
 73
4
 74
0
 42
0.0000001
 43
0.0000001
 44
0.0000000001
 40
0.0
 40
0.0
 40
0.0
 40
0.0
 40
1.0
 40
1.0
 40
1.0
 40
1.0
 10
2.1569286182
 20
-10.4573615758
 30
0.0
 10
2.2235634854
 20
-10.4906790093
 30
0.0
 10
2.2843243129
 20
-10.5105173646
 30
0.0
 10
2.3391089458
 20
-10.516513658
 30
0.0
  0
SPLINE
  5
245
100
AcDbEntity
  8
CURVE
100
AcDbSpline
 62
253
  6
CONTINUOUS
 70
0
 71
3
 72
8
 73
4
 74
0
 42
0.0000001
 43
0.0000001
 44
0.0000000001
 40
0.0
 40
0.0
 40
0.0
 40
0.0
 40
1.0
 40
1.0
 40
1.0
 40
1.0
 10
2.3391089458
 20
-10.516513658
 30
0.0
 10
2.3922966654
 20
-10.522335166
 30
0.0
 10
2.4395082724
 20
-10.5143147001
 30
0.0
 10
2.4776212193
 20
-10.4896618747
 30
0.0
  0
SPLINE
  5
246
100
AcDbEntity
  8
CURVE
100
AcDbSpline
 62
253
  6
CONTINUOUS
 70
0
 71
3
 72
8
 73
4
 74
0
 42
0.0000001
 43
0.0000001
 44
0.0000000001
 40
0.0
 40
0.0
 40
0.0
 40
0.0
 40
1.0
 40
1.0
 40
1.0
 40
1.0
 10
2.4776212193
 20
-10.4896618747
 30
0.0
 10
2.5148853237
 20
-10.4655581112
 30
0.0
 10
2.5429565141
 20
-10.4226664497
 30
0.0
 10
2.5615516824
 20
-10.3644945682
 30
0.0
  0
SPLINE
  5
247
100
AcDbEntity
  8
CURVE
100
AcDbSpline
 62
253
  6
CONTINUOUS
 70
0
 71
3
 72
8
 73
4
 74
0
 42
0.0000001
 43
0.0000001
 44
0.0000000001
 40
0.0
 40
0.0
 40
0.0
 40
0.0
 40
1.0
 40
1.0
 40
1.0
 40
1.0
 10
2.5615516824
 20
-10.3644945682
 30
0.0
 10
2.5801468195
 20
-10.3063227842
 30
0.0
 10
2.58737087
 20
-10.229814977
 30
0.0
 10
2.5832236922
 20
-10.1349709915
 30
0.0
  0
SPLINE
  5
248
100
AcDbEntity
  8
CURVE
100
AcDbSpline
 62
253
  6
CONTINUOUS
 70
0
 71
3
 72
8
 73
4
 74
0
 42
0.0000001
 43
0.0000001
 44
0.0000000001
 40
0.0
 40
0.0
 40
0.0
 40
0.0
 40
1.0
 40
1.0
 40
1.0
 40
1.0
 10
2.5832236922
 20
-10.1349709915
 30
0.0
 10
2.5786994992
 20
-10.0315048518
 30
0.0
 10
2.5607102683
 20
-9.94239031
 30
0.0
 10
2.5292560668
 20
-9.8676275055
 30
0.0
  0
SPLINE
  5
249
100
AcDbEntity
  8
CURVE
100
AcDbSpline
 62
253
  6
CONTINUOUS
 70
0
 71
3
 72
8
 73
4
 74
0
 42
0.0000001
 43
0.0000001
 44
0.0000000001
 40
0.0
 40
0.0
 40
0.0
 40
0.0
 40
1.0
 40
1.0
 40
1.0
 40
1.0
 10
2.5292560668
 20
-9.8676275055
 30
0.0
 10
2.4978019029
 20
-9.7928647904
 30
0.0
 10
2.4598037488
 20
-9.7295889268
 30
0.0
 10
2.4116596713
 20
-9.6759990303
 30
0.0
  0
SPLINE
  5
24A
100
AcDbEntity
  8
CURVE
100
AcDbSpline
 62
253
  6
CONTINUOUS
 70
0
 71
3
 72
8
 73
4
 74
0
 42
0.0000001
 43
0.0000001
 44
0.0000000001
 40
0.0
 40
0.0
 40
0.0
 40
0.0
 40
1.0
 40
1.0
 40
1.0
 40
1.0
 10
2.4116596713
 20
-9.6759990303
 30
0.0
 10
2.3635155938
 20
-9.6224091339
 30
0.0
 10
2.3085447835
 20
-9.5738395179
 30
0.0
 10
2.2487367289
 20
-9.5355018493
 30
0.0
  0
SPLINE
  5
24B
100
AcDbEntity
  8
CURVE
100
AcDbSpline
 62
253
  6
CONTINUOUS
 70
0
 71
3
 72
8
 73
4
 74
0
 42
0.0000001
 43
0.0000001
 44
0.0000000001
 40
0.0
 40
0.0
 40
0.0
 40
0.0
 40
1.0
 40
1.0
 40
1.0
 40
1.0
 10
2.2487367289
 20
-9.5355018493
 30
0.0
 10
2.1889285948
 20
-9.4971641299
 30
0.0
 10
2.1274138152
 20
-9.4600814581
 30
0.0
 10
2.0661817589
 20
-9.4294654299
 30
0.0
  0
SPLINE
  5
24C
100
AcDbEntity
  8
CURVE
100
AcDbSpline
 62
253
  6
CONTINUOUS
 70
0
 71
3
 72
8
 73
4
 74
0
 42
0.0000001
 43
0.0000001
 44
0.0000000001
 40
0.0
 40
0.0
 40
0.0
 40
0.0
 40
1.0
 40
1.0
 40
1.0
 40
1.0
 10
2.0702043531
 20
-9.6423185543
 30
0.0
 10
2.113427
 20
-9.6639298777
 30
0.0
 10
2.1514352233
 20
-9.6871508128
 30
0.0
 10
2.1878035893
 20
-9.7139760613
 30
0.0
  0
SPLINE
  5
24D
100
AcDbEntity
  8
CURVE
100
AcDbSpline
 62
253
  6
CONTINUOUS
 70
0
 71
3
 72
8
 73
4
 74
0
 42
0.0000001
 43
0.0000001
 44
0.0000000001
 40
0.0
 40
0.0
 40
0.0
 40
0.0
 40
1.0
 40
1.0
 40
1.0
 40
1.0
 10
2.1878035893
 20
-9.7139760613
 30
0.0
 10
2.2224259944
 20
-9.739513492
 30
0.0
 10
2.2518066724
 20
-9.766854395
 30
0.0
 10
2.2771771735
 20
-9.799698605
 30
0.0
  0
SPLINE
  5
24E
100
AcDbEntity
  8
CURVE
100
AcDbSpline
 62
253
  6
CONTINUOUS
 70
0
 71
3
 72
8
 73
4
 74
0
 42
0.0000001
 43
0.0000001
 44
0.0000000001
 40
0.0
 40
0.0
 40
0.0
 40
0.0
 40
1.0
 40
1.0
 40
1.0
 40
1.0
 10
2.2771771735
 20
-9.799698605
 30
0.0
 10
2.3022229135
 20
-9.8321223849
 30
0.0
 10
2.3213633322
 20
-9.8669936286
 30
0.0
 10
2.3365538261
 20
-9.9087175002
 30
0.0
  0
SPLINE
  5
24F
100
AcDbEntity
  8
CURVE
100
AcDbSpline
 62
253
  6
CONTINUOUS
 70
0
 71
3
 72
8
 73
4
 74
0
 42
0.0000001
 43
0.0000001
 44
0.0000000001
 40
0.0
 40
0.0
 40
0.0
 40
0.0
 40
1.0
 40
1.0
 40
1.0
 40
1.0
 10
2.3365538261
 20
-9.9087175002
 30
0.0
 10
2.3513936351
 20
-9.9494781422
 30
0.0
 10
2.3603882106
 20
-9.9940353931
 30
0.0
 10
2.3626503091
 20
-10.0457685109
 30
0.0
  0
SPLINE
  5
250
100
AcDbEntity
  8
CURVE
100
AcDbSpline
 62
253
  6
CONTINUOUS
 70
0
 71
3
 72
8
 73
4
 74
0
 42
0.0000001
 43
0.0000001
 44
0.0000000001
 40
0.0
 40
0.0
 40
0.0
 40
0.0
 40
1.0
 40
1.0
 40
1.0
 40
1.0
 10
2.3626503091
 20
-10.0457685109
 30
0.0
 10
2.3674572612
 20
-10.1557012185
 30
0.0
 10
2.3456372117
 20
-10.2206942966
 30
0.0
 10
2.3008863612
 20
-10.2447040269
 30
0.0
  0
SPLINE
  5
251
100
AcDbEntity
  8
CURVE
100
AcDbSpline
 62
253
  6
CONTINUOUS
 70
0
 71
3
 72
8
 73
4
 74
0
 42
0.0000001
 43
0.0000001
 44
0.0000000001
 40
0.0
 40
0.0
 40
0.0
 40
0.0
 40
1.0
 40
1.0
 40
1.0
 40
1.0
 10
2.3008863612
 20
-10.2447040269
 30
0.0
 10
2.2561354283
 20
-10.2687138013
 30
0.0
 10
2.1779307559
 20
-10.2528040408
 30
0.0
 10
2.069874219
 20
-10.1987757724
 30
0.0
  0
SPLINE
  5
252
100
AcDbEntity
  8
CURVE
100
AcDbSpline
 62
253
  6
CONTINUOUS
 70
0
 71
3
 72
8
 73
4
 74
0
 42
0.0000001
 43
0.0000001
 44
0.0000000001
 40
0.0
 40
0.0
 40
0.0
 40
0.0
 40
1.0
 40
1.0
 40
1.0
 40
1.0
 10
3.3311430293
 20
-11.0444687813
 30
0.0
 10
3.4319956584
 20
-11.0948950958
 30
0.0
 10
3.5075310073
 20
-11.1706143217
 30
0.0
 10
3.5541466822
 20
-11.2698251322
 30
0.0
  0
SPLINE
  5
253
100
AcDbEntity
  8
CURVE
100
AcDbSpline
 62
253
  6
CONTINUOUS
 70
0
 71
3
 72
8
 73
4
 74
0
 42
0.0000001
 43
0.0000001
 44
0.0000000001
 40
0.0
 40
0.0
 40
0.0
 40
0.0
 40
1.0
 40
1.0
 40
1.0
 40
1.0
 10
3.5541466822
 20
-11.2698251322
 30
0.0
 10
3.6007624302
 20
-11.3690360982
 30
0.0
 10
3.6288154133
 20
-11.4969326867
 30
0.0
 10
3.6396526124
 20
-11.6541418382
 30
0.0
  0
SPLINE
  5
254
100
AcDbEntity
  8
CURVE
100
AcDbSpline
 62
253
  6
CONTINUOUS
 70
0
 71
3
 72
8
 73
4
 74
0
 42
0.0000001
 43
0.0000001
 44
0.0000000001
 40
0.0
 40
0.0
 40
0.0
 40
0.0
 40
1.0
 40
1.0
 40
1.0
 40
1.0
 10
3.8501843978
 20
-11.715130956
 30
0.0
 10
3.845650054
 20
-11.6517196687
 30
0.0
 10
3.8394091476
 20
-11.5895635236
 30
0.0
 10
3.8297547933
 20
-11.5299174782
 30
0.0
  0
SPLINE
  5
255
100
AcDbEntity
  8
CURVE
100
AcDbSpline
 62
253
  6
CONTINUOUS
 70
0
 71
3
 72
8
 73
4
 74
0
 42
0.0000001
 43
0.0000001
 44
0.0000000001
 40
0.0
 40
0.0
 40
0.0
 40
0.0
 40
1.0
 40
1.0
 40
1.0
 40
1.0
 10
3.8297547933
 20
-11.5299174782
 30
0.0
 10
3.8201004431
 20
-11.4702714578
 30
0.0
 10
3.8070326428
 20
-11.4131354891
 30
0.0
 10
3.7884375018
 20
-11.3576114953
 30
0.0
  0
SPLINE
  5
256
100
AcDbEntity
  8
CURVE
100
AcDbSpline
 62
253
  6
CONTINUOUS
 70
0
 71
3
 72
8
 73
4
 74
0
 42
0.0000001
 43
0.0000001
 44
0.0000000001
 40
0.0
 40
0.0
 40
0.0
 40
0.0
 40
1.0
 40
1.0
 40
1.0
 40
1.0
 10
3.7884375018
 20
-11.3576114953
 30
0.0
 10
3.7705627757
 20
-11.3042386176
 30
0.0
 10
3.7454539814
 20
-11.2537326691
 30
0.0
 10
3.7147214866
 20
-11.2051623672
 30
0.0
  0
SPLINE
  5
257
100
AcDbEntity
  8
CURVE
100
AcDbSpline
 62
253
  6
CONTINUOUS
 70
0
 71
3
 72
8
 73
4
 74
0
 42
0.0000001
 43
0.0000001
 44
0.0000000001
 40
0.0
 40
0.0
 40
0.0
 40
0.0
 40
1.0
 40
1.0
 40
1.0
 40
1.0
 10
3.7147214866
 20
-11.2051623672
 30
0.0
 10
3.6830067335
 20
-11.1550396829
 30
0.0
 10
3.6422549934
 20
-11.1093628255
 30
0.0
 10
3.5928753835
 20
-11.06780568
 30
0.0
  0
SPLINE
  5
258
100
AcDbEntity
  8
CURVE
100
AcDbSpline
 62
253
  6
CONTINUOUS
 70
0
 71
3
 72
8
 73
4
 74
0
 42
0.0000001
 43
0.0000001
 44
0.0000000001
 40
0.0
 40
0.0
 40
0.0
 40
0.0
 40
1.0
 40
1.0
 40
1.0
 40
1.0
 10
3.5928753835
 20
-11.06780568
 30
0.0
 10
3.6632166077
 20
-11.0650247406
 30
0.0
 10
3.7165009133
 20
-11.0347395898
 30
0.0
 10
3.7540680545
 20
-10.9813555724
 30
0.0
  0
SPLINE
  5
259
100
AcDbEntity
  8
CURVE
100
AcDbSpline
 62
253
  6
CONTINUOUS
 70
0
 71
3
 72
8
 73
4
 74
0
 42
0.0000001
 43
0.0000001
 44
0.0000000001
 40
0.0
 40
0.0
 40
0.0
 40
0.0
 40
1.0
 40
1.0
 40
1.0
 40
1.0
 10
3.7540680545
 20
-10.9813555724
 30
0.0
 10
3.7911340037
 20
-10.9286837637
 30
0.0
 10
3.8085982293
 20
-10.84464548
 30
0.0
 10
3.803414258
 20
-10.7260905222
 30
0.0
  0
SPLINE
  5
25A
100
AcDbEntity
  8
CURVE
100
AcDbSpline
 62
253
  6
CONTINUOUS
 70
0
 71
3
 72
8
 73
4
 74
0
 42
0.0000001
 43
0.0000001
 44
0.0000000001
 40
0.0
 40
0.0
 40
0.0
 40
0.0
 40
1.0
 40
1.0
 40
1.0
 40
1.0
 10
3.803414258
 20
-10.7260905222
 30
0.0
 10
3.7991728242
 20
-10.6290909502
 30
0.0
 10
3.7813720249
 20
-10.5442875415
 30
0.0
 10
3.7507898688
 20
-10.4728113587
 30
0.0
  0
SPLINE
  5
25B
100
AcDbEntity
  8
CURVE
100
AcDbSpline
 62
253
  6
CONTINUOUS
 70
0
 71
3
 72
8
 73
4
 74
0
 42
0.0000001
 43
0.0000001
 44
0.0000000001
 40
0.0
 40
0.0
 40
0.0
 40
0.0
 40
1.0
 40
1.0
 40
1.0
 40
1.0
 10
3.7507898688
 20
-10.4728113587
 30
0.0
 10
3.7205473957
 20
-10.4021290782
 30
0.0
 10
3.6825491615
 20
-10.3388531745
 30
0.0
 10
3.6344051641
 20
-10.2852633181
 30
0.0
  0
SPLINE
  5
25C
100
AcDbEntity
  8
CURVE
100
AcDbSpline
 62
253
  6
CONTINUOUS
 70
0
 71
3
 72
8
 73
4
 74
0
 42
0.0000001
 43
0.0000001
 44
0.0000000001
 40
0.0
 40
0.0
 40
0.0
 40
0.0
 40
1.0
 40
1.0
 40
1.0
 40
1.0
 10
3.6344051641
 20
-10.2852633181
 30
0.0
 10
3.5862611666
 20
-10.2316734617
 30
0.0
 10
3.5331855092
 20
-10.1861598807
 30
0.0
 10
3.473370358
 20
-10.1479427685
 30
0.0
  0
SPLINE
  5
25D
100
AcDbEntity
  8
CURVE
100
AcDbSpline
 62
253
  6
CONTINUOUS
 70
0
 71
3
 72
8
 73
4
 74
0
 42
0.0000001
 43
0.0000001
 44
0.0000000001
 40
0.0
 40
0.0
 40
0.0
 40
0.0
 40
1.0
 40
1.0
 40
1.0
 40
1.0
 10
3.473370358
 20
-10.1479427685
 30
0.0
 10
3.4117684236
 20
-10.1085840442
 30
0.0
 10
3.3502535639
 20
-10.0715013324
 30
0.0
 10
3.2872206507
 20
-10.0399848758
 30
0.0
  0
SPLINE
  5
25E
100
AcDbEntity
  8
CURVE
100
AcDbSpline
 62
253
  6
CONTINUOUS
 70
0
 71
3
 72
8
 73
4
 74
0
 42
0.0000001
 43
0.0000001
 44
0.0000000001
 40
0.0
 40
0.0
 40
0.0
 40
0.0
 40
1.0
 40
1.0
 40
1.0
 40
1.0
 10
3.3038498035
 20
-10.2591412795
 30
0.0
 10
3.3470724503
 20
-10.2807526029
 30
0.0
 10
3.3868816507
 20
-10.3048740265
 30
0.0
 10
3.4196756108
 20
-10.3297046534
 30
0.0
  0
SPLINE
  5
25F
100
AcDbEntity
  8
CURVE
100
AcDbSpline
 62
253
  6
CONTINUOUS
 70
0
 71
3
 72
8
 73
4
 74
0
 42
0.0000001
 43
0.0000001
 44
0.0000000001
 40
0.0
 40
0.0
 40
0.0
 40
0.0
 40
1.0
 40
1.0
 40
1.0
 40
1.0
 10
3.4196756108
 20
-10.3297046534
 30
0.0
 10
3.4524695709
 20
-10.3545352803
 30
0.0
 10
3.4818500887
 20
-10.3818761032
 30
0.0
 10
3.5043097513
 20
-10.4120817317
 30
0.0
  0
SPLINE
  5
260
100
AcDbEntity
  8
CURVE
100
AcDbSpline
 62
253
  6
CONTINUOUS
 70
0
 71
3
 72
8
 73
4
 74
0
 42
0.0000001
 43
0.0000001
 44
0.0000000001
 40
0.0
 40
0.0
 40
0.0
 40
0.0
 40
1.0
 40
1.0
 40
1.0
 40
1.0
 10
3.5043097513
 20
-10.4120817317
 30
0.0
 10
3.5267693074
 20
-10.442287217
 30
0.0
 10
3.5459098062
 20
-10.4771585007
 30
0.0
 10
3.5582235034
 20
-10.5170500612
 30
0.0
  0
SPLINE
  5
261
100
AcDbEntity
  8
CURVE
100
AcDbSpline
 62
253
  6
CONTINUOUS
 70
0
 71
3
 72
8
 73
4
 74
0
 42
0.0000001
 43
0.0000001
 44
0.0000000001
 40
0.0
 40
0.0
 40
0.0
 40
0.0
 40
1.0
 40
1.0
 40
1.0
 40
1.0
 10
3.5582235034
 20
-10.5170500612
 30
0.0
 10
3.5705371781
 20
-10.5569415489
 30
0.0
 10
3.5795319095
 20
-10.601498784
 30
0.0
 10
3.5817940081
 20
-10.6532319018
 30
0.0
  0
SPLINE
  5
262
100
AcDbEntity
  8
CURVE
100
AcDbSpline
 62
253
  6
CONTINUOUS
 70
0
 71
3
 72
8
 73
4
 74
0
 42
0.0000001
 43
0.0000001
 44
0.0000000001
 40
0.0
 40
0.0
 40
0.0
 40
0.0
 40
1.0
 40
1.0
 40
1.0
 40
1.0
 10
3.5817940081
 20
-10.6532319018
 30
0.0
 10
3.586318201
 20
-10.7566980416
 30
0.0
 10
3.5680999453
 20
-10.8234920165
 30
0.0
 10
3.5284593527
 20
-10.8537438877
 30
0.0
  0
SPLINE
  5
263
100
AcDbEntity
  8
CURVE
100
AcDbSpline
 62
253
  6
CONTINUOUS
 70
0
 71
3
 72
8
 73
4
 74
0
 42
0.0000001
 43
0.0000001
 44
0.0000000001
 40
0.0
 40
0.0
 40
0.0
 40
0.0
 40
1.0
 40
1.0
 40
1.0
 40
1.0
 10
3.5284593527
 20
-10.8537438877
 30
0.0
 10
3.4879798216
 20
-10.884635998
 30
0.0
 10
3.4205809311
 20
-10.8741291284
 30
0.0
 10
3.3233299357
 20
-10.8255036307
 30
0.0
  0
SPLINE
  5
264
100
AcDbEntity
  8
CURVE
100
AcDbSpline
 62
253
  6
CONTINUOUS
 70
0
 71
3
 72
8
 73
4
 74
0
 42
0.0000001
 43
0.0000001
 44
0.0000000001
 40
0.0
 40
0.0
 40
0.0
 40
0.0
 40
1.0
 40
1.0
 40
1.0
 40
1.0
 10
4.5406764475
 20
-10.6667127742
 30
0.0
 10
4.4434256123
 20
-10.6180873566
 30
0.0
 10
4.3649379405
 20
-10.5957109081
 30
0.0
 10
4.3016121147
 20
-10.5977826763
 30
0.0
  0
SPLINE
  5
265
100
AcDbEntity
  8
CURVE
100
AcDbSpline
 62
253
  6
CONTINUOUS
 70
0
 71
3
 72
8
 73
4
 74
0
 42
0.0000001
 43
0.0000001
 44
0.0000000001
 40
0.0
 40
0.0
 40
0.0
 40
0.0
 40
1.0
 40
1.0
 40
1.0
 40
1.0
 10
4.3016121147
 20
-10.5977826763
 30
0.0
 10
4.2382862888
 20
-10.5998544445
 30
0.0
 10
4.1900277369
 20
-10.6242187785
 30
0.0
 10
4.154928061
 20
-10.6718735821
 30
0.0
  0
SPLINE
  5
266
100
AcDbEntity
  8
CURVE
100
AcDbSpline
 62
253
  6
CONTINUOUS
 70
0
 71
3
 72
8
 73
4
 74
0
 42
0.0000001
 43
0.0000001
 44
0.0000000001
 40
0.0
 40
0.0
 40
0.0
 40
0.0
 40
1.0
 40
1.0
 40
1.0
 40
1.0
 10
4.154928061
 20
-10.6718735821
 30
0.0
 10
4.1185251694
 20
-10.7212977606
 30
0.0
 10
4.0951870623
 20
-10.7918569981
 30
0.0
 10
4.0844231146
 20
-10.8874929065
 30
0.0
  0
SPLINE
  5
267
100
AcDbEntity
  8
CURVE
100
AcDbSpline
 62
253
  6
CONTINUOUS
 70
0
 71
3
 72
8
 73
4
 74
0
 42
0.0000001
 43
0.0000001
 44
0.0000000001
 40
0.0
 40
0.0
 40
0.0
 40
0.0
 40
1.0
 40
1.0
 40
1.0
 40
1.0
 10
4.0844231146
 20
-10.8874929065
 30
0.0
 10
4.0736194842
 20
-10.9834813895
 30
0.0
 10
4.0715997077
 20
-11.0984344734
 30
0.0
 10
4.0775377112
 20
-11.2342337879
 30
0.0
  0
SPLINE
  5
268
100
AcDbEntity
  8
CURVE
100
AcDbSpline
 62
253
  6
CONTINUOUS
 70
0
 71
3
 72
8
 73
4
 74
0
 42
0.0000001
 43
0.0000001
 44
0.0000000001
 40
0.0
 40
0.0
 40
0.0
 40
0.0
 40
1.0
 40
1.0
 40
1.0
 40
1.0
 10
4.0775377112
 20
-11.2342337879
 30
0.0
 10
4.0828159363
 20
-11.3549442843
 30
0.0
 10
4.0912246864
 20
-11.4666779847
 30
0.0
 10
4.1052822764
 20
-11.5687193668
 30
0.0
  0
SPLINE
  5
269
100
AcDbEntity
  8
CURVE
100
AcDbSpline
 62
253
  6
CONTINUOUS
 70
0
 71
3
 72
8
 73
4
 74
0
 42
0.0000001
 43
0.0000001
 44
0.0000000001
 40
0.0
 40
0.0
 40
0.0
 40
0.0
 40
1.0
 40
1.0
 40
1.0
 40
1.0
 10
4.1052822764
 20
-11.5687193668
 30
0.0
 10
4.1196122299
 20
-11.6727377845
 30
0.0
 10
4.1448051265
 20
-11.7654541122
 30
0.0
 10
4.1802381981
 20
-11.8506400116
 30
0.0
  0
SPLINE
  5
26A
100
AcDbEntity
  8
CURVE
100
AcDbSpline
 62
253
  6
CONTINUOUS
 70
0
 71
3
 72
8
 73
4
 74
0
 42
0.0000001
 43
0.0000001
 44
0.0000000001
 40
0.0
 40
0.0
 40
0.0
 40
0.0
 40
1.0
 40
1.0
 40
1.0
 40
1.0
 10
4.1802381981
 20
-11.8506400116
 30
0.0
 10
4.2156712744
 20
-11.9358259223
 30
0.0
 10
4.2647578117
 20
-12.0109712185
 30
0.0
 10
4.3272589812
 20
-12.0788959221
 30
0.0
  0
SPLINE
  5
26B
100
AcDbEntity
  8
CURVE
100
AcDbSpline
 62
253
  6
CONTINUOUS
 70
0
 71
3
 72
8
 73
4
 74
0
 42
0.0000001
 43
0.0000001
 44
0.0000000001
 40
0.0
 40
0.0
 40
0.0
 40
0.0
 40
1.0
 40
1.0
 40
1.0
 40
1.0
 10
4.3272589812
 20
-12.0788959221
 30
0.0
 10
4.3905208955
 20
-12.1476473841
 30
0.0
 10
4.4723174506
 20
-12.2054130051
 30
0.0
 10
4.5749710566
 20
-12.2567398081
 30
0.0
  0
SPLINE
  5
26C
100
AcDbEntity
  8
CURVE
100
AcDbSpline
 62
253
  6
CONTINUOUS
 70
0
 71
3
 72
8
 73
4
 74
0
 42
0.0000001
 43
0.0000001
 44
0.0000000001
 40
0.0
 40
0.0
 40
0.0
 40
0.0
 40
1.0
 40
1.0
 40
1.0
 40
1.0
 10
4.6067788149
 20
-12.0575850601
 30
0.0
 10
4.5473476956
 20
-12.0278695004
 30
0.0
 10
4.5002404926
 20
-11.9979906403
 30
0.0
 10
4.4635618189
 20
-11.9648923876
 30
0.0
  0
SPLINE
  5
26D
100
AcDbEntity
  8
CURVE
100
AcDbSpline
 62
253
  6
CONTINUOUS
 70
0
 71
3
 72
8
 73
4
 74
0
 42
0.0000001
 43
0.0000001
 44
0.0000000001
 40
0.0
 40
0.0
 40
0.0
 40
0.0
 40
1.0
 40
1.0
 40
1.0
 40
1.0
 10
4.4635618189
 20
-11.9648923876
 30
0.0
 10
4.4268831388
 20
-11.9317941292
 30
0.0
 10
4.3969370995
 20
-11.8915200987
 30
0.0
 10
4.3750396003
 20
-11.8429215876
 30
0.0
  0
SPLINE
  5
26E
100
AcDbEntity
  8
CURVE
100
AcDbSpline
 62
253
  6
CONTINUOUS
 70
0
 71
3
 72
8
 73
4
 74
0
 42
0.0000001
 43
0.0000001
 44
0.0000000001
 40
0.0
 40
0.0
 40
0.0
 40
0.0
 40
1.0
 40
1.0
 40
1.0
 40
1.0
 10
4.3750396003
 20
-11.8429215876
 30
0.0
 10
4.3540173545
 20
-11.796265582
 30
0.0
 10
4.3392431534
 20
-11.7403848715
 30
0.0
 10
4.3291828727
 20
-11.6742311485
 30
0.0
  0
SPLINE
  5
26F
100
AcDbEntity
  8
CURVE
100
AcDbSpline
 62
253
  6
CONTINUOUS
 70
0
 71
3
 72
8
 73
4
 74
0
 42
0.0000001
 43
0.0000001
 44
0.0000000001
 40
0.0
 40
0.0
 40
0.0
 40
0.0
 40
1.0
 40
1.0
 40
1.0
 40
1.0
 10
4.3291828727
 20
-11.6742311485
 30
0.0
 10
4.3194628587
 20
-11.6103149285
 30
0.0
 10
4.3142688961
 20
-11.5318148913
 30
0.0
 10
4.310215972
 20
-11.4391264445
 30
0.0
  0
SPLINE
  5
270
100
AcDbEntity
  8
CURVE
100
AcDbSpline
 62
253
  6
CONTINUOUS
 70
0
 71
3
 72
8
 73
4
 74
0
 42
0.0000001
 43
0.0000001
 44
0.0000000001
 40
0.0
 40
0.0
 40
0.0
 40
0.0
 40
1.0
 40
1.0
 40
1.0
 40
1.0
 10
4.3004135519
 20
-11.2149497603
 30
0.0
 10
4.2971146641
 20
-11.139505766
 30
0.0
 10
4.295993604
 20
-11.0735842385
 30
0.0
 10
4.2998786009
 20
-11.0184880842
 30
0.0
  0
SPLINE
  5
271
100
AcDbEntity
  8
CURVE
100
AcDbSpline
 62
253
  6
CONTINUOUS
 70
0
 71
3
 72
8
 73
4
 74
0
 42
0.0000001
 43
0.0000001
 44
0.0000000001
 40
0.0
 40
0.0
 40
0.0
 40
0.0
 40
1.0
 40
1.0
 40
1.0
 40
1.0
 10
4.2998786009
 20
-11.0184880842
 30
0.0
 10
4.3036048189
 20
-10.9656436972
 30
0.0
 10
4.3141379108
 20
-10.9245250918
 30
0.0
 10
4.3326691498
 20
-10.8961408101
 30
0.0
  0
SPLINE
  5
272
100
AcDbEntity
  8
CURVE
100
AcDbSpline
 62
253
  6
CONTINUOUS
 70
0
 71
3
 72
8
 73
4
 74
0
 42
0.0000001
 43
0.0000001
 44
0.0000000001
 40
0.0
 40
0.0
 40
0.0
 40
0.0
 40
1.0
 40
1.0
 40
1.0
 40
1.0
 10
4.3326691498
 20
-10.8961408101
 30
0.0
 10
4.3504595515
 20
-10.8688912679
 30
0.0
 10
4.3780495578
 20
-10.8552767782
 30
0.0
 10
4.4153668461
 20
-10.8558692773
 30
0.0
  0
SPLINE
  5
273
100
AcDbEntity
  8
CURVE
100
AcDbSpline
 62
253
  6
CONTINUOUS
 70
0
 71
3
 72
8
 73
4
 74
0
 42
0.0000001
 43
0.0000001
 44
0.0000000001
 40
0.0
 40
0.0
 40
0.0
 40
0.0
 40
1.0
 40
1.0
 40
1.0
 40
1.0
 10
4.4153668461
 20
-10.8558692773
 30
0.0
 10
4.4520866736
 20
-10.8564522902
 30
0.0
 10
4.5020417973
 20
-10.8708877466
 30
0.0
 10
4.5668756875
 20
-10.9033046917
 30
0.0
  0
LWPOLYLINE
  5
274
100
AcDbEntity
  8
RACCORDO
100
AcDbPolyline
 62
7
  6
CONTINUOUS
 90
14
 70
0
 10
-1.8861158775
 20
22.8236287283
 10
-1.9484233776
 20
22.7854567445
 10
-2.0166036051
 20
22.7356718341
 10
-2.0824349925
 20
22.6786496706
 10
-2.1450942778
 20
22.6149590362
 10
-2.2027762985
 20
22.5466339302
 10
-2.2551831779
 20
22.4746181621
 10
-2.3027216581
 20
22.398766496
 10
-2.3449307096
 20
22.3200171041
 10
-2.3817217371
 20
22.2388097286
 10
-2.4129804921
 20
22.1553439795
 10
-2.4383810536
 20
22.0703026694
 10
-2.4576843967
 20
21.983999819
 10
-2.4702624136
 20
21.8996788871
  0
LINE
  5
275
100
AcDbEntity
  8
RACCORDO
100
AcDbLine
 62
7
  6
CONTINUOUS
 10
-1.886150551
 20
22.8236256492
 11
0.849041508
 21
24.35485052
  0
LINE
  5
276
100
AcDbEntity
  8
RACCORDO
100
AcDbLine
 62
253
  6
CONTINUOUS
 10
-1.6511624298
 20
22.8155766671
 11
1.0803906185
 21
24.3447643342
  0
LWPOLYLINE
  5
277
100
AcDbEntity
  8
RACCORDO
100
AcDbPolyline
 62
7
  6
CONTINUOUS
 90
7
 70
0
 10
8.7803732719
 20
-16.3329751428
 10
8.8291128269
 20
-16.345677084
 10
8.8756971822
 20
-16.3526888602
 10
8.9202271265
 20
-16.3543950538
 10
8.9632256089
 20
-16.3509708887
 10
9.0044118078
 20
-16.3424545772
 10
9.0434133584
 20
-16.3289817543
  0
LWPOLYLINE
  5
278
100
AcDbEntity
  8
RACCORDO
100
AcDbPolyline
 62
7
  6
CONTINUOUS
 90
12
 70
0
 10
12.616497472
 20
-22.6504507327
 10
12.6408757149
 20
-22.6620804585
 10
12.6976733281
 20
-22.6848945586
 10
12.7572379424
 20
-22.7029328891
 10
12.8192239101
 20
-22.7158524629
 10
12.8831524792
 20
-22.7233316289
 10
12.9484611869
 20
-22.7251288788
 10
13.0147552607
 20
-22.7211075255
 10
13.0815427949
 20
-22.7111812716
 10
13.1482372216
 20
-22.6953479001
 10
13.2144625766
 20
-22.673641595
 10
13.2630417897
 20
-22.6538214405
  0
LINE
  5
279
100
AcDbEntity
  8
RACCORDO
100
AcDbLine
 62
7
  6
CONTINUOUS
 10
-2.0742526319
 20
-15.3050775111
 11
12.6171235627
 21
-22.6507656084
  0
LINE
  5
27A
100
AcDbEntity
  8
RACCORDO
100
AcDbLine
 62
253
  6
CONTINUOUS
 10
-2.3230178893
 20
-14.8904466683
 11
12.3617370015
 21
-22.2328241137
  0
LINE
  5
27B
100
AcDbEntity
  8
RACCORDO
100
AcDbLine
 62
7
  6
CONTINUOUS
 10
12.6165543193
 20
-22.6504804426
 11
12.6171012057
 21
-22.6507544299
  0
LWPOLYLINE
  5
27C
100
AcDbEntity
  8
ASSI
100
AcDbPolyline
 62
7
  6
CONTINUOUS
 90
8
 70
0
 10
8.7317152758
 20
-16.3150692486
 10
8.7819450935
 20
-16.3334678135
 10
8.8305076883
 20
-16.3459611596
 10
8.8769168921
 20
-16.3528023977
 10
8.9212748907
 20
-16.3543729833
 10
8.9641059281
 20
-16.3508447085
 10
9.0051299067
 20
-16.3422565771
 10
9.0438099798
 20
-16.3288020922
  0
LINE
  5
27D
100
AcDbEntity
  8
RACCORDO
100
AcDbLine
 62
7
  6
CONTINUOUS
 10
8.7299686861
 20
-16.3143321875
 11
8.7803732719
 21
-16.3329751428
  0
LINE
  5
27E
100
AcDbEntity
  8
ASSI
100
AcDbLine
 62
7
  6
CONTINUOUS
 10
8.6940141525
 20
-16.2977274643
 11
8.7307048209
 21
-16.3146044589
  0
LINE
  5
27F
100
AcDbEntity
  8
RACCORDO
100
AcDbLine
 62
7
  6
CONTINUOUS
 10
8.6940155862
 20
-16.2977281799
 11
8.7299686861
 21
-16.3143321875
  0
LINE
  5
280
100
AcDbEntity
  8
RACCORDO
100
AcDbLine
 62
253
  6
CONTINUOUS
 10
8.6883839571
 20
-16.5096555412
 11
0.4931791717
 21
-12.4120531485
  0
LINE
  5
281
100
AcDbEntity
  8
RACCORDO
100
AcDbLine
 62
253
  6
CONTINUOUS
 10
8.7581709592
 20
-16.3801066057
 11
0.5629661737
 21
-12.282504213
  0
LINE
  5
282
100
AcDbEntity
  8
ASSI
100
AcDbLine
 62
7
  6
CONTINUOUS
 10
8.6939938672
 20
-16.2977433749
 11
0.4987890856
 21
-12.2001409841
  0
LINE
  5
283
100
AcDbEntity
  8
RACCORDO
100
AcDbLine
 62
7
  6
CONTINUOUS
 10
8.6939938679
 20
-16.2977433753
 11
0.4987890849
 21
-12.2001409838
  0
LINE
  5
284
100
AcDbEntity
  8
ASSI
100
AcDbLine
 62
253
  6
CONTINUOUS
 10
8.6682888395
 20
-16.2512717861
 11
0.4730840541
 21
-12.1536693934
  0
LINE
  5
285
100
AcDbEntity
  8
RACCORDO
100
AcDbLine
 62
253
  6
CONTINUOUS
 10
8.6682888395
 20
-16.2512717861
 11
0.4730840541
 21
-12.1536693934
  0
LINE
  5
286
100
AcDbEntity
  8
RACCORDO
100
AcDbLine
 62
7
  6
CONTINUOUS
 10
0.460067261
 20
-12.179165051
 11
0.4989203058
 21
-12.2001816969
  0
LINE
  5
287
100
AcDbEntity
  8
ASSI
100
AcDbLine
 62
7
  6
CONTINUOUS
 10
0.453721178
 20
-12.1754297078
 11
0.498907342
 21
-12.2001752766
  0
LINE
  5
288
100
AcDbEntity
  8
ASSI
100
AcDbLine
 62
7
  6
CONTINUOUS
 10
0.401780502
 20
-12.1416130323
 11
0.453721178
 21
-12.1754297078
  0
LWPOLYLINE
  5
289
100
AcDbEntity
  8
RACCORDO
100
AcDbPolyline
 62
7
  6
CONTINUOUS
 90
7
 70
0
 10
-2.384259254
 20
-14.994701459
 10
-2.3434616965
 20
-15.0645181052
 10
-2.2961539077
 20
-15.128356991
 10
-2.2430570104
 20
-15.1855541724
 10
-2.1848674585
 20
-15.2357296126
 10
-2.1226183954
 20
-15.2783764687
 10
-2.0735236528
 20
-15.3054392067
  0
LINE
  5
28A
100
AcDbEntity
  8
RACCORDO
100
AcDbLine
 62
253
  6
CONTINUOUS
 10
15.9298753313
 20
16.9200219778
 11
13.0514190178
 21
15.4642859433
  0
LINE
  5
28B
100
AcDbEntity
  8
CURVE
100
AcDbLine
 62
253
  6
CONTINUOUS
 10
1.6610465324
 20
-10.799777546
 11
1.8681549016
 21
-10.9033317306
  0
LINE
  5
28C
100
AcDbEntity
  8
CURVE
100
AcDbLine
 62
253
  6
CONTINUOUS
 10
2.9054975845
 20
-11.4220030721
 11
3.1090041398
 21
-11.5237563497
  0
LINE
  5
28D
100
AcDbEntity
  8
CURVE
100
AcDbLine
 62
253
  6
CONTINUOUS
 10
3.6492866645
 20
-11.7938976121
 11
3.8635989216
 21
-11.9010537406
  0
LINE
  5
28E
100
AcDbEntity
  8
CURVE
100
AcDbLine
 62
253
  6
CONTINUOUS
 10
4.5749710566
 20
-12.2567398081
 11
5.0089980213
 21
-12.4737532905
  0
LINE
  5
28F
100
AcDbEntity
  8
CURVE
100
AcDbLine
 62
253
  6
CONTINUOUS
 10
5.1926941502
 20
-12.5656013549
 11
5.6429297476
 21
-12.7907191536
  0
LINE
  5
290
100
AcDbEntity
  8
CURVE
100
AcDbLine
 62
253
  6
CONTINUOUS
 10
6.3038756481
 20
-13.1211921039
 11
6.7541112455
 21
-13.3463099026
  0
LINE
  5
291
100
AcDbEntity
  8
CURVE
100
AcDbLine
 62
253
  6
CONTINUOUS
 10
4.9993841098
 20
-12.2538877075
 11
4.6067788149
 21
-12.0575850601
  0
LINE
  5
292
100
AcDbEntity
  8
CURVE
100
AcDbLine
 62
253
  6
CONTINUOUS
 10
6.7331259485
 20
-13.1081081331
 11
6.293696213
 21
-12.8883932654
  0
LINE
  5
293
100
AcDbEntity
  8
CURVE
100
AcDbLine
 62
253
  6
CONTINUOUS
 10
5.6219447709
 20
-12.5525175443
 11
5.1825147151
 21
-12.3328025164
  0
LINE
  5
294
100
AcDbEntity
  8
CURVE
100
AcDbLine
 62
253
  6
CONTINUOUS
 10
1.8417637721
 20
-10.2997791527
 11
2.1569286182
 21
-10.4573615758
  0
LINE
  5
295
100
AcDbEntity
  8
CURVE
100
AcDbLine
 62
253
  6
CONTINUOUS
 10
3.0826130103
 20
-10.9202037718
 11
3.3311430293
 21
-11.0444687813
  0
LINE
  5
296
100
AcDbEntity
  8
CURVE
100
AcDbLine
 62
253
  6
CONTINUOUS
 10
4.310215972
 20
-11.4391264445
 11
4.9153327071
 21
-11.741684812
  0
LINE
  5
297
100
AcDbEntity
  8
CURVE
100
AcDbLine
 62
253
  6
CONTINUOUS
 10
3.3233299357
 20
-10.8255036307
 11
3.0766008937
 21
-10.7021391097
  0
LINE
  5
298
100
AcDbEntity
  8
CURVE
100
AcDbLine
 62
253
  6
CONTINUOUS
 10
2.069874219
 20
-10.1987757724
 11
1.8357517355
 21
-10.0817145306
  0
LINE
  5
299
100
AcDbEntity
  8
CURVE
100
AcDbLine
 62
253
  6
CONTINUOUS
 10
4.9055302871
 20
-11.5175081279
 11
4.3004135519
 21
-11.2149497603
  0
LINE
  5
29A
100
AcDbEntity
  8
CURVE
100
AcDbLine
 62
253
  6
CONTINUOUS
 10
5.5361597414
 20
-11.3963803655
 11
5.941371715
 21
-11.5989863523
  0
LINE
  5
29B
100
AcDbEntity
  8
CURVE
100
AcDbLine
 62
253
  6
CONTINUOUS
 10
6.647340919
 20
-11.9519709543
 11
7.0525528926
 21
-12.1545769411
  0
LINE
  5
29C
100
AcDbEntity
  8
CURVE
100
AcDbLine
 62
253
  6
CONTINUOUS
 10
4.5668756875
 20
-10.9033046917
 11
4.939670716
 21
-11.089702206
  0
LINE
  5
29D
100
AcDbEntity
  8
CURVE
100
AcDbLine
 62
253
  6
CONTINUOUS
 10
1.8108686724
 20
-9.5126507139
 11
2.0702043531
 21
-9.6423185543
  0
LINE
  5
29E
100
AcDbEntity
  8
CURVE
100
AcDbLine
 62
253
  6
CONTINUOUS
 10
3.0517178305
 20
-10.133075293
 11
3.3038498035
 21
-10.2591412795
  0
LWPOLYLINE
  5
29F
100
AcDbEntity
  8
RACCORDO
100
AcDbPolyline
 62
7
  6
CONTINUOUS
 90
3
 70
0
 10
0.3551142659
 20
-12.1061414403
 10
0.4069674445
 20
-12.1452537457
 10
0.460067261
 20
-12.179165051
  0
LINE
  5
2A0
100
AcDbEntity
  8
RACCORDO
100
AcDbLine
 62
253
  6
CONTINUOUS
 10
16.2833075679
 20
16.3104415402
 11
13.4048512545
 21
14.8547055057
  0
LWPOLYLINE
  5
2A1
100
AcDbEntity
  8
RACCORDO
100
AcDbPolyline
 62
7
  6
CONTINUOUS
 90
3
 70
0
 10
0.1107980708
 20
-6.2163778306
 10
0.1572769533
 20
-6.2283873187
 10
0.2054700395
 20
-6.2459287014
  0
LINE
  5
2A2
100
AcDbEntity
  8
CURVE
100
AcDbLine
 62
253
  6
CONTINUOUS
 10
7.04218495
 20
-11.9174670255
 11
6.6495796551
 21
-11.721164378
  0
LINE
  5
2A3
100
AcDbEntity
  8
CURVE
100
AcDbLine
 62
253
  6
CONTINUOUS
 10
5.9310037724
 20
-11.3618764366
 11
5.5383984775
 21
-11.1655737892
  0
LINE
  5
2A4
100
AcDbEntity
  8
CURVE
100
AcDbLine
 62
253
  6
CONTINUOUS
 10
4.9296797884
 20
-10.8612144447
 11
4.5406764475
 21
-10.6667127742
  0
LINE
  5
2A5
100
AcDbEntity
  8
CURVE
100
AcDbLine
 62
253
  6
CONTINUOUS
 10
3.2872206507
 20
-10.0399848758
 11
2.8351840763
 21
-9.8139665886
  0
LINE
  5
2A6
100
AcDbEntity
  8
CURVE
100
AcDbLine
 62
253
  6
CONTINUOUS
 10
2.0661817589
 20
-9.4294654299
 11
1.5907330243
 21
-9.1917410626
  0
LINE
  5
2A7
100
AcDbEntity
  8
RACCORDO
100
AcDbLine
 62
253
  6
CONTINUOUS
 10
11.6506446778
 20
-12.4855839947
 11
9.0654659691
 21
-11.1929946404
  0
LINE
  5
2A8
100
AcDbEntity
  8
ASSI
100
AcDbLine
 62
253
  6
CONTINUOUS
 10
8.8232006626
 20
-11.0718619871
 11
-0.1705717921
 21
-6.5749757598
  0
LINE
  5
2A9
100
AcDbEntity
  8
RACCORDO
100
AcDbLine
 62
253
  6
CONTINUOUS
 10
8.8232006626
 20
-11.0718619871
 11
-0.1705717921
 21
-6.5749757598
  0
LINE
  5
2AA
100
AcDbEntity
  8
RACCORDO
100
AcDbLine
 62
253
  6
CONTINUOUS
 10
-0.4128370987
 20
-6.4538431065
 11
-2.9980158074
 21
-5.1612537521
  0
LINE
  5
2AB
100
AcDbEntity
  8
ASSI
100
AcDbLine
 62
253
  6
CONTINUOUS
 10
0.2242455133
 20
-6.4837671296
 11
8.4194502987
 21
-10.5813695223
  0
LINE
  5
2AC
100
AcDbEntity
  8
RACCORDO
100
AcDbLine
 62
253
  6
CONTINUOUS
 10
0.2242455133
 20
-6.4837671296
 11
8.4194502987
 21
-10.5813695223
  0
LINE
  5
2AD
100
AcDbEntity
  8
CURVE
100
AcDbLine
 62
253
  6
CONTINUOUS
 10
5.7927247153
 20
-11.9864063763
 11
5.6248701932
 21
-11.8539855053
  0
LINE
  5
2AE
100
AcDbEntity
  8
CURVE
100
AcDbLine
 62
253
  6
CONTINUOUS
 10
5.4438771397
 20
-11.9448129012
 11
5.6647129074
 21
-12.1205917825
  0
LINE
  5
2AF
100
AcDbEntity
  8
CURVE
100
AcDbLine
 62
253
  6
CONTINUOUS
 10
6.5550586377
 20
-12.5004036502
 11
6.7758944054
 21
-12.6761825314
  0
LWPOLYLINE
  5
2B0
100
AcDbEntity
  8
RACCORDO
100
AcDbPolyline
 62
7
  6
CONTINUOUS
 90
10
 70
0
 10
-2.4702579929
 20
21.8998548994
 10
-2.5902298494
 20
20.7819141447
 10
-2.7060323225
 20
19.5885564848
 10
-2.8086282463
 20
18.4000632692
 10
-2.8979891993
 20
17.2167220111
 10
-2.9740967351
 20
16.0387702286
 10
-3.0369347481
 20
14.8664272423
 10
-3.0864872991
 20
13.6999303054
 10
-3.1227423112
 20
12.5395610665
 10
-3.144470053
 20
11.4692407656
  0
LINE
  5
2B1
100
AcDbEntity
  8
RACCORDO
100
AcDbLine
 62
7
  6
CONTINUOUS
 10
0.2054700395
 20
-6.2459287014
 11
0.246129448
 21
-6.2645536401
  0
LINE
  5
2B2
100
AcDbEntity
  8
ASSI
100
AcDbLine
 62
253
  6
CONTINUOUS
 10
0.294327261
 20
-6.3605401814
 11
8.4895320465
 21
-10.4581425741
  0
LINE
  5
2B3
100
AcDbEntity
  8
RACCORDO
100
AcDbLine
 62
253
  6
CONTINUOUS
 10
0.294327261
 20
-6.3605401814
 11
8.4895320465
 21
-10.4581425741
  0
LINE
  5
2B4
100
AcDbEntity
  8
RACCORDO
100
AcDbLine
 62
7
  6
CONTINUOUS
 10
0.2461981222
 20
-6.2645819737
 11
8.4414029076
 21
-10.3621843664
  0
LINE
  5
2B5
100
AcDbEntity
  8
RACCORDO
100
AcDbLine
 62
253
  6
CONTINUOUS
 10
0.2202198698
 20
-6.2120211405
 11
8.4154246553
 21
-10.3096235332
  0
LINE
  5
2B6
100
AcDbEntity
  8
RACCORDO
100
AcDbLine
 62
7
  6
CONTINUOUS
 10
8.4415046304
 20
-10.3622414883
 11
8.4929057506
 21
-10.3906357752
  0
LINE
  5
2B7
100
AcDbEntity
  8
RACCORDO
100
AcDbLine
 62
7
  6
CONTINUOUS
 10
8.4929057506
 20
-10.3906357752
 11
8.5511530385
 21
-10.4293031721
  0
LINE
  5
2B8
100
AcDbEntity
  8
CURVE
100
AcDbLine
 62
253
  6
CONTINUOUS
 10
6.9039062132
 20
-12.5419971253
 11
6.7360516912
 21
-12.4095762543
  0
LWPOLYLINE
  5
2B9
100
AcDbEntity
  8
ASSI
100
AcDbPolyline
 62
7
  6
CONTINUOUS
 90
10
 70
0
 10
0.0295788991
 20
-11.6659800987
 10
0.0585786076
 20
-11.7285533024
 10
0.0913714184
 20
-11.789824787
 10
0.1276859459
 20
-11.849302536
 10
0.1672554821
 20
-11.9065148988
 10
0.209735859
 20
-11.9609703368
 10
0.2547610027
 20
-12.0121481934
 10
0.3019981888
 20
-12.0595788887
 10
0.3511075402
 20
-12.102863917
 10
0.401780502
 20
-12.1416130323
  0
LWPOLYLINE
  5
2BA
100
AcDbEntity
  8
RACCORDO
100
AcDbPolyline
 62
7
  6
CONTINUOUS
 90
9
 70
0
 10
0.0271632839
 20
-11.66029805
 10
0.0564214114
 20
-11.7242088456
 10
0.0896735014
 20
-11.7868481694
 10
0.1266222827
 20
-11.847664048
 10
0.1669900126
 20
-11.9061534455
 10
0.2104133229
 20
-11.961787608
 10
0.2564808472
 20
-12.013982484
 10
0.3048353024
 20
-12.0622407233
 10
0.3551142659
 20
-12.1061414403
  0
LINE
  5
2BB
100
AcDbEntity
  8
ASSI
100
AcDbLine
 62
7
  6
CONTINUOUS
 10
0.0046430814
 20
-11.6025874985
 11
0.0295788991
 21
-11.6659800987
  0
LINE
  5
2BC
100
AcDbEntity
  8
RACCORDO
100
AcDbLine
 62
7
  6
CONTINUOUS
 10
0.0021775149
 20
-11.5956427069
 11
0.0271632839
 21
-11.66029805
  0
LWPOLYLINE
  5
2BD
100
AcDbEntity
  8
RACCORDO
100
AcDbPolyline
 62
7
  6
CONTINUOUS
 90
5
 70
0
 10
-2.4693215681
 20
-14.7148282235
 10
-2.4628685929
 20
-14.7574682818
 10
-2.4441640329
 20
-14.8406666467
 10
-2.4179173964
 20
-14.9198823212
 10
-2.384259254
 20
-14.994701459
  0
LINE
  5
2BE
100
AcDbEntity
  8
RACCORDO
100
AcDbLine
 62
7
  6
CONTINUOUS
 10
-2.4693752488
 20
-14.7145183254
 11
-2.469335284
 21
-14.7148299791
  0
LWPOLYLINE
  5
2BF
100
AcDbEntity
  8
RACCORDO
100
AcDbPolyline
 62
7
  6
CONTINUOUS
 90
10
 70
0
 10
-3.1444682236
 20
-4.9838962541
 10
-3.1225526404
 20
-6.0385218648
 10
-3.0861954408
 20
-7.1612784068
 10
-3.036524065
 20
-8.276333257
 10
-2.9735463019
 20
-9.3834158401
 10
-2.8972737668
 20
-10.4823047319
 10
-2.8077180051
 20
-11.572796665
 10
-2.7048931256
 20
-12.6546710601
 10
-2.5888232814
 20
-13.7276666659
 10
-2.4693752488
 20
-14.7145183254
  0
LWPOLYLINE
  5
2C0
100
AcDbEntity
  8
RACCORDO
100
AcDbPolyline
 62
7
  6
CONTINUOUS
 90
10
 70
0
 10
-3.1444700683
 20
11.4692409155
 10
-3.1683310848
 20
9.6871321733
 10
-3.1870904544
 20
7.8315180694
 10
-3.1995931114
 20
5.9791080545
 10
-3.2058386687
 20
4.1299402241
 10
-3.2058270182
 20
2.2840462187
 10
-3.1995581036
 20
0.4414552614
 10
-3.1870319245
 20
-1.3978009846
 10
-3.1682487594
 20
-3.2336846925
 10
-3.1444682513
 20
-4.9838964402
  0
LWPOLYLINE
  5
2C1
100
AcDbEntity
  8
RACCORDO
100
AcDbPolyline
 62
7
  6
CONTINUOUS
 90
11
 70
0
 10
8.5511530385
 20
-10.4293031721
 10
8.6092544857
 20
-10.4748674802
 10
8.6664655626
 20
-10.5269245479
 10
8.7220497768
 20
-10.5849392147
 10
8.7753523427
 20
-10.6483095265
 10
8.8257592688
 20
-10.7164116138
 10
8.8727134152
 20
-10.7885360517
 10
8.9156923693
 20
-10.8639019913
 10
8.9542250795
 20
-10.9417288185
 10
8.9879432609
 20
-11.0212476718
 10
9.0164963896
 20
-11.1016308025
  0
LINE
  5
2C2
100
AcDbEntity
  8
ASSI
100
AcDbLine
 62
7
  6
CONTINUOUS
 10
-0.0151694682
 20
-11.5417953054
 11
0.0046430814
 21
-11.6025874985
  0
LINE
  5
2C3
100
AcDbEntity
  8
RACCORDO
100
AcDbLine
 62
7
  6
CONTINUOUS
 10
-0.0151702116
 20
-11.541792748
 11
0.0021775149
 21
-11.5956427069
  0
LINE
  5
2C4
100
AcDbEntity
  8
CURVE
100
AcDbLine
 62
253
  6
CONTINUOUS
 10
1.5907330243
 20
-9.1917410626
 11
1.6610465324
 21
-10.799777546
  0
LINE
  5
2C5
100
AcDbEntity
  8
CURVE
100
AcDbLine
 62
253
  6
CONTINUOUS
 10
1.8681549016
 20
-10.9033317306
 11
1.8417637721
 21
-10.2997791527
  0
LINE
  5
2C6
100
AcDbEntity
  8
CURVE
100
AcDbLine
 62
253
  6
CONTINUOUS
 10
1.8357517355
 20
-10.0817145306
 11
1.8108686724
 21
-9.5126507139
  0
LWPOLYLINE
  5
2C7
100
AcDbEntity
  8
ASSI
100
AcDbPolyline
 62
7
  6
CONTINUOUS
 90
13
 70
0
 10
-0.2283840583
 20
-6.5930106497
 10
-0.3052691462
 20
-6.9085677532
 10
-0.3771949332
 20
-7.290725846
 10
-0.4292512369
 20
-7.6851986198
 10
-0.4612468162
 20
-8.0909273042
 10
-0.4730607941
 20
-8.5068684173
 10
-0.4646353538
 20
-8.9319959878
 10
-0.4359746134
 20
-9.3652126067
 10
-0.3871480408
 20
-9.8054146088
 10
-0.3182823753
 20
-10.2515478518
 10
-0.2295707193
 20
-10.7025055472
 10
-0.1212725701
 20
-11.1571502244
 10
-0.0151837335
 20
-11.5418147302
  0
LWPOLYLINE
  5
2C8
100
AcDbEntity
  8
RACCORDO
100
AcDbPolyline
 62
7
  6
CONTINUOUS
 90
13
 70
0
 10
-0.2283839686
 20
-6.5930103178
 10
-0.3038915132
 20
-6.9022541957
 10
-0.3763690433
 20
-7.2855652466
 10
-0.4288399086
 20
-7.681292847
 10
-0.4611099305
 20
-8.0883682314
 10
-0.4730561442
 20
-8.5057362742
 10
-0.4646197212
 20
-8.932357647
 10
-0.4358049288
 20
-9.3671230322
 10
-0.3866823516
 20
-9.8089171293
 10
-0.317380956
 20
-10.2566723185
 10
-0.2280971007
 20
-10.7092691746
 10
-0.1190941336
 20
-11.1655591401
 10
-0.0151836841
 20
-11.5418148989
  0
LINE
  5
2C9
100
AcDbEntity
  8
RACCORDO
100
AcDbLine
 62
7
  6
CONTINUOUS
 10
-0.224568387
 20
-6.5796131469
 11
-0.2283830498
 21
-6.5930203823
  0
LINE
  5
2CA
100
AcDbEntity
  8
ASSI
100
AcDbLine
 62
7
  6
CONTINUOUS
 10
-0.2237210782
 20
-6.576807812
 11
-0.2283829439
 21
-6.5930199908
  0
LINE
  5
2CB
100
AcDbEntity
  8
ASSI
100
AcDbLine
 62
7
  6
CONTINUOUS
 10
-0.2154020263
 20
-6.5519239243
 11
-0.2237210782
 21
-6.576807812
  0
LINE
  5
2CC
100
AcDbEntity
  8
RACCORDO
100
AcDbLine
 62
7
  6
CONTINUOUS
 10
-0.2154020263
 20
-6.5519239243
 11
-0.224568387
 21
-6.5796131469
  0
LINE
  5
2CD
100
AcDbEntity
  8
ASSI
100
AcDbLine
 62
7
  6
CONTINUOUS
 10
-0.2054138208
 20
-6.5267091732
 11
-0.2154020263
 21
-6.5519239243
  0
LINE
  5
2CE
100
AcDbEntity
  8
RACCORDO
100
AcDbLine
 62
7
  6
CONTINUOUS
 10
-0.2054138208
 20
-6.5267091732
 11
-0.2154020263
 21
-6.5519239243
  0
LINE
  5
2CF
100
AcDbEntity
  8
CURVE
100
AcDbLine
 62
253
  6
CONTINUOUS
 10
3.8635989216
 20
-11.9010537406
 11
3.8501843978
 21
-11.715130956
  0
LINE
  5
2D0
100
AcDbEntity
  8
CURVE
100
AcDbLine
 62
253
  6
CONTINUOUS
 10
3.6396526124
 20
-11.6541418382
 11
3.6492866645
 21
-11.7938976121
  0
LINE
  5
2D1
100
AcDbEntity
  8
CURVE
100
AcDbLine
 62
253
  6
CONTINUOUS
 10
2.8351840763
 20
-9.8139665886
 11
2.9054975845
 21
-11.4220030721
  0
LINE
  5
2D2
100
AcDbEntity
  8
CURVE
100
AcDbLine
 62
253
  6
CONTINUOUS
 10
3.1090041398
 20
-11.5237563497
 11
3.0826130103
 21
-10.9202037718
  0
LINE
  5
2D3
100
AcDbEntity
  8
CURVE
100
AcDbLine
 62
253
  6
CONTINUOUS
 10
3.0766008937
 20
-10.7021391097
 11
3.0517178305
 21
-10.133075293
  0
LINE
  5
2D4
100
AcDbEntity
  8
ASSI
100
AcDbLine
 62
7
  6
CONTINUOUS
 10
-0.1948870314
 20
-6.5039585644
 11
-0.2054138208
 21
-6.5267091732
  0
LINE
  5
2D5
100
AcDbEntity
  8
RACCORDO
100
AcDbLine
 62
7
  6
CONTINUOUS
 10
-0.1936219031
 20
-6.5014395664
 11
-0.2054138208
 21
-6.5267091732
  0
LINE
  5
2D6
100
AcDbEntity
  8
ASSI
100
AcDbLine
 62
7
  6
CONTINUOUS
 10
-0.1877123546
 20
-6.4901838728
 11
-0.1948870314
 21
-6.5039585644
  0
LINE
  5
2D7
100
AcDbEntity
  8
RACCORDO
100
AcDbLine
 62
7
  6
CONTINUOUS
 10
-0.1877125392
 20
-6.490184212
 11
-0.1936219031
 21
-6.5014395664
  0
LINE
  5
2D8
100
AcDbEntity
  8
RACCORDO
100
AcDbLine
 62
7
  6
CONTINUOUS
 10
-0.1876559901
 20
-6.4900826375
 11
-0.1877116557
 21
-6.4901846902
  0
LINE
  5
2D9
100
AcDbEntity
  8
ASSI
100
AcDbLine
 62
7
  6
CONTINUOUS
 10
-0.1876547751
 20
-6.4900804158
 11
-0.1877114727
 21
-6.4901843538
  0
LINE
  5
2DA
100
AcDbEntity
  8
ASSI
100
AcDbLine
 62
7
  6
CONTINUOUS
 10
-0.1781678402
 20
-6.4735665527
 11
-0.1876547751
 21
-6.4900804158
  0
LWPOLYLINE
  5
2DB
100
AcDbEntity
  8
RACCORDO
100
AcDbPolyline
 62
7
  6
CONTINUOUS
 90
3
 70
0
 10
-0.1590253102
 20
-6.4448357907
 10
-0.1815287703
 20
-6.4792184551
 10
-0.1876559901
 20
-6.4900826375
  0
LINE
  5
2DC
100
AcDbEntity
  8
ASSI
100
AcDbLine
 62
7
  6
CONTINUOUS
 10
-0.1557573849
 20
-6.4404376005
 11
-0.1781678402
 21
-6.4735665527
  0
LINE
  5
2DD
100
AcDbEntity
  8
RACCORDO
100
AcDbLine
 62
7
  6
CONTINUOUS
 10
-0.1336225793
 20
-6.4137606869
 11
-0.1590253102
 21
-6.4448357907
  0
LINE
  5
2DE
100
AcDbEntity
  8
ASSI
100
AcDbLine
 62
7
  6
CONTINUOUS
 10
-0.1306011011
 20
-6.4104912756
 11
-0.1557573849
 21
-6.4404376005
  0
LINE
  5
2DF
100
AcDbEntity
  8
CURVE
100
AcDbLine
 62
253
  6
CONTINUOUS
 10
4.9153327071
 20
-11.741684812
 11
4.9055302871
 21
-11.5175081279
  0
LINE
  5
2E0
100
AcDbEntity
  8
CURVE
100
AcDbLine
 62
253
  6
CONTINUOUS
 10
4.939670716
 20
-11.089702206
 11
4.9296797884
 21
-10.8612144447
  0
LINE
  5
2E1
100
AcDbEntity
  8
CURVE
100
AcDbLine
 62
253
  6
CONTINUOUS
 10
5.0089980213
 20
-12.4737532905
 11
4.9993841098
 21
-12.2538877075
  0
LINE
  5
2E2
100
AcDbEntity
  8
CURVE
100
AcDbLine
 62
253
  6
CONTINUOUS
 10
5.1825147151
 20
-12.3328025164
 11
5.1926941502
 21
-12.5656013549
  0
LINE
  5
2E3
100
AcDbEntity
  8
CURVE
100
AcDbLine
 62
253
  6
CONTINUOUS
 10
5.941371715
 20
-11.5989863523
 11
5.9310037724
 21
-11.3618764366
  0
LINE
  5
2E4
100
AcDbEntity
  8
CURVE
100
AcDbLine
 62
253
  6
CONTINUOUS
 10
6.293696213
 20
-12.8883932654
 11
6.3038756481
 21
-13.1211921039
  0
LINE
  5
2E5
100
AcDbEntity
  8
RACCORDO
100
AcDbLine
 62
7
  6
CONTINUOUS
 10
-0.1055405284
 20
-6.3862219809
 11
-0.1336225793
 21
-6.4137606869
  0
LINE
  5
2E6
100
AcDbEntity
  8
ASSI
100
AcDbLine
 62
7
  6
CONTINUOUS
 10
-0.1029105506
 20
-6.3839411405
 11
-0.1306011011
 21
-6.4104912756
  0
LINE
  5
2E7
100
AcDbEntity
  8
RACCORDO
100
AcDbLine
 62
7
  6
CONTINUOUS
 10
-0.0751781875
 20
-6.362506307
 11
-0.1055405284
 21
-6.3862219809
  0
LINE
  5
2E8
100
AcDbEntity
  8
ASSI
100
AcDbLine
 62
7
  6
CONTINUOUS
 10
-0.0730662339
 20
-6.3610539106
 11
-0.1029105506
 21
-6.3839411405
  0
LINE
  5
2E9
100
AcDbEntity
  8
RACCORDO
100
AcDbLine
 62
7
  6
CONTINUOUS
 10
-0.0429041766
 20
-6.3427350324
 11
-0.0740942271
 21
-6.3618422656
  0
LINE
  5
2EA
100
AcDbEntity
  8
ASSI
100
AcDbLine
 62
7
  6
CONTINUOUS
 10
-0.0416056266
 20
-6.3420551358
 11
-0.0730662339
 21
-6.3610539106
  0
LINE
  5
2EB
100
AcDbEntity
  8
ASSI
100
AcDbLine
 62
7
  6
CONTINUOUS
 10
-0.0367744106
 20
-6.3395245731
 11
-0.0416056266
 21
-6.3420551358
  0
LINE
  5
2EC
100
AcDbEntity
  8
RACCORDO
100
AcDbLine
 62
7
  6
CONTINUOUS
 10
-0.0367007584
 20
-6.3394870381
 11
-0.0416056266
 21
-6.3420551358
  0
LINE
  5
2ED
100
AcDbEntity
  8
ASSI
100
AcDbLine
 62
7
  6
CONTINUOUS
 10
0.1702827108
 20
-6.2331211714
 11
-0.0374864241
 21
-6.3398885957
  0
LINE
  5
2EE
100
AcDbEntity
  8
DRAFT
100
AcDbLine
 62
7
  6
CONTINUOUS
 10
0.1702827108
 20
-6.2331211714
 11
-0.0375395194
 21
-6.33991588
  0
LINE
  5
2EF
100
AcDbEntity
  8
RACCORDO
100
AcDbLine
 62
7
  6
CONTINUOUS
 10
-0.0379508988
 20
-6.3401277065
 11
-0.0367003227
 21
-6.3394865197
  0
LINE
  5
2F0
100
AcDbEntity
  8
ASSI
100
AcDbLine
 62
253
  6
CONTINUOUS
 10
0.3654606128
 20
-6.324213219
 11
0.294327261
 21
-6.3605401814
  0
LINE
  5
2F1
100
AcDbEntity
  8
RACCORDO
100
AcDbLine
 62
253
  6
CONTINUOUS
 10
0.3654606128
 20
-6.324213219
 11
0.294327261
 21
-6.3605401814
  0
LINE
  5
2F2
100
AcDbEntity
  8
RACCORDO
100
AcDbLine
 62
253
  6
CONTINUOUS
 10
-0.1433134087
 20
-6.4256154568
 11
-0.2796834777
 21
-6.492248005
  0
LINE
  5
2F3
100
AcDbEntity
  8
RACCORDO
100
AcDbLine
 62
7
  6
CONTINUOUS
 10
-0.0872564889
 20
-6.2350826981
 11
-0.0869495349
 21
-6.2349329818
  0
LWPOLYLINE
  5
2F4
100
AcDbEntity
  8
RACCORDO
100
AcDbPolyline
 62
7
  6
CONTINUOUS
 90
6
 70
0
 10
-0.0871732013
 20
-6.2350553351
 10
-0.0505587907
 20
-6.2205982906
 10
-0.014421978
 20
-6.2122053885
 10
0.0245682944
 20
-6.2085110536
 10
0.0664472327
 20
-6.2098054785
 10
0.1107980708
 20
-6.2163778306
  0
LINE
  5
2F5
100
AcDbEntity
  8
RACCORDO
100
AcDbLine
 62
7
  6
CONTINUOUS
 10
9.0164963896
 20
-11.1016308025
 11
9.0392424206
 21
-11.1806465289
  0
LWPOLYLINE
  5
2F6
100
AcDbEntity
  8
RACCORDO
100
AcDbPolyline
 62
7
  6
CONTINUOUS
 90
4
 70
0
 10
9.0392527645
 20
-11.1806626542
 10
9.0408940981
 20
-11.1871826908
 10
9.0424552664
 20
-11.1935209428
 10
9.0439805714
 20
-11.1998513533
  0
LINE
  5
2F7
100
AcDbEntity
  8
CURVE
100
AcDbLine
 62
253
  6
CONTINUOUS
 10
7.0525528926
 20
-12.1545769411
 11
7.04218495
 21
-11.9174670255
  0
LINE
  5
2F8
100
AcDbEntity
  8
CURVE
100
AcDbLine
 62
7
  6
CONTINUOUS
 10
1.5934108649
 20
-9.2529820045
 11
1.633345546
 21
-9.2130473235
  0
LINE
  5
2F9
100
AcDbEntity
  8
CURVE
100
AcDbLine
 62
7
  6
CONTINUOUS
 10
1.6022091431
 20
-9.4541944404
 11
1.7733526887
 21
-9.2830508948
  0
LINE
  5
2FA
100
AcDbEntity
  8
CURVE
100
AcDbLine
 62
7
  6
CONTINUOUS
 10
1.6110074212
 20
-9.6554068762
 11
1.9133598313
 21
-9.3530544661
  0
LWPOLYLINE
  5
2FB
100
AcDbEntity
  8
RACCORDO
100
AcDbPolyline
 62
7
  6
CONTINUOUS
 90
13
 70
0
 10
9.0439839782
 20
-11.1998667251
 10
9.1313655592
 20
-11.5875356136
 10
9.2241342294
 20
-12.0594914644
 10
9.3007336754
 20
-12.5257711399
 10
9.3610261261
 20
-12.9851112183
 10
9.4049025174
 20
-13.436258578
 10
9.432276544
 20
-13.8779606161
 10
9.4431091684
 20
-14.3089975887
 10
9.43738403
 20
-14.7282179689
 10
9.4151134495
 20
-15.1345834814
 10
9.3763260492
 20
-15.5270612297
 10
9.3211174746
 20
-15.9045660078
 10
9.2628880385
 20
-16.2059348554
  0
LINE
  5
2FC
100
AcDbEntity
  8
CURVE
100
AcDbLine
 62
7
  6
CONTINUOUS
 10
1.6198056994
 20
-9.8566193121
 11
1.8172745657
 21
-9.6591504458
  0
LINE
  5
2FD
100
AcDbEntity
  8
CURVE
100
AcDbLine
 62
7
  6
CONTINUOUS
 10
1.9128057559
 20
-9.5636192556
 11
2.053366974
 21
-9.4230580375
  0
LINE
  5
2FE
100
AcDbEntity
  8
CURVE
100
AcDbLine
 62
7
  6
CONTINUOUS
 10
1.6286039775
 20
-10.057831748
 11
1.8260728438
 21
-9.8603628817
  0
LINE
  5
2FF
100
AcDbEntity
  8
CURVE
100
AcDbLine
 62
7
  6
CONTINUOUS
 10
2.0528128985
 20
-9.633622827
 11
2.1885594056
 21
-9.4978763199
  0
LINE
  5
300
100
AcDbEntity
  8
CURVE
100
AcDbLine
 62
7
  6
CONTINUOUS
 10
1.6374022557
 20
-10.2590441838
 11
1.834871122
 21
-10.0615753175
  0
LINE
  5
301
100
AcDbEntity
  8
CURVE
100
AcDbLine
 62
7
  6
CONTINUOUS
 10
2.184710738
 20
-9.7117357015
 11
2.3137783062
 21
-9.5826681333
  0
LINE
  5
302
100
AcDbEntity
  8
CURVE
100
AcDbLine
 62
7
  6
CONTINUOUS
 10
1.6462005338
 20
-10.4602566197
 11
1.9617456604
 21
-10.1447114931
  0
LINE
  5
303
100
AcDbEntity
  8
CURVE
100
AcDbLine
 62
7
  6
CONTINUOUS
 10
2.2896419881
 20
-9.8168151654
 11
2.4203728954
 21
-9.6860842581
  0
LINE
  5
304
100
AcDbEntity
  8
CURVE
100
AcDbLine
 62
7
  6
CONTINUOUS
 10
1.654998812
 20
-10.6614690556
 11
1.849092152
 21
-10.4673757155
  0
LINE
  5
305
100
AcDbEntity
  8
CURVE
100
AcDbLine
 62
7
  6
CONTINUOUS
 10
1.9583804006
 20
-10.358087467
 11
2.1022571838
 21
-10.2142106838
  0
LINE
  5
306
100
AcDbEntity
  8
CURVE
100
AcDbLine
 62
7
  6
CONTINUOUS
 10
2.352417062
 20
-9.9640508055
 11
2.5037815196
 21
-9.8126863479
  0
LINE
  5
307
100
AcDbEntity
  8
CURVE
100
AcDbLine
 62
7
  6
CONTINUOUS
 10
1.7048162011
 20
-10.8216623804
 11
1.8578904302
 21
-10.6685881514
  0
LINE
  5
308
100
AcDbEntity
  8
CURVE
100
AcDbLine
 62
7
  6
CONTINUOUS
 10
2.0983875433
 20
-10.4280910383
 11
2.2726106678
 21
-10.2538679138
  0
LINE
  5
309
100
AcDbEntity
  8
CURVE
100
AcDbLine
 62
7
  6
CONTINUOUS
 10
2.3505874746
 20
-10.1758911069
 11
2.5608466983
 21
-9.9656318832
  0
LINE
  5
30A
100
AcDbEntity
  8
CURVE
100
AcDbLine
 62
7
  6
CONTINUOUS
 10
1.8448233438
 20
-10.8916659517
 11
1.8666887083
 21
-10.8698005872
  0
LINE
  5
30B
100
AcDbEntity
  8
CURVE
100
AcDbLine
 62
7
  6
CONTINUOUS
 10
2.2426755323
 20
-10.4938137632
 11
2.583797193
 21
-10.1526921025
  0
LINE
  5
30C
100
AcDbEntity
  8
CURVE
100
AcDbLine
 62
7
  6
CONTINUOUS
 10
2.838843078
 20
-9.8976462175
 11
2.8934098301
 21
-9.8430794655
  0
LINE
  5
30D
100
AcDbEntity
  8
CURVE
100
AcDbLine
 62
7
  6
CONTINUOUS
 10
2.4382487896
 20
-10.50825122
 11
2.5494573178
 21
-10.3970426917
  0
LINE
  5
30E
100
AcDbEntity
  8
CURVE
100
AcDbLine
 62
7
  6
CONTINUOUS
 10
2.8476413562
 20
-10.0988586534
 11
3.0334169727
 21
-9.9130830368
  0
LINE
  5
30F
100
AcDbEntity
  8
CURVE
100
AcDbLine
 62
7
  6
CONTINUOUS
 10
2.8564396343
 20
-10.3000710893
 11
3.1734241154
 21
-9.9830866082
  0
LINE
  5
310
100
AcDbEntity
  8
CURVE
100
AcDbLine
 62
7
  6
CONTINUOUS
 10
2.8652379125
 20
-10.5012835251
 11
3.0593312338
 21
-10.3071902038
  0
LINE
  5
311
100
AcDbEntity
  8
CURVE
100
AcDbLine
 62
7
  6
CONTINUOUS
 10
3.1728700399
 20
-10.1936513977
 11
3.3131715423
 21
-10.0533498953
  0
LINE
  5
312
100
AcDbEntity
  8
CURVE
100
AcDbLine
 62
7
  6
CONTINUOUS
 10
2.8740361906
 20
-10.702495961
 11
3.0681295119
 21
-10.5084026397
  0
LINE
  5
313
100
AcDbEntity
  8
CURVE
100
AcDbLine
 62
7
  6
CONTINUOUS
 10
3.3128183699
 20
-10.2637137817
 11
3.445935616
 21
-10.1305965356
  0
LINE
  5
314
100
AcDbEntity
  8
CURVE
100
AcDbLine
 62
7
  6
CONTINUOUS
 10
2.8828344688
 20
-10.9037083968
 11
3.0818028018
 21
-10.7047400638
  0
LINE
  5
315
100
AcDbEntity
  8
CURVE
100
AcDbLine
 62
7
  6
CONTINUOUS
 10
3.4403886577
 20
-10.3461542079
 11
3.5675519744
 21
-10.2189908912
  0
LINE
  5
316
100
AcDbEntity
  8
CURVE
100
AcDbLine
 62
7
  6
CONTINUOUS
 10
2.8916327469
 20
-11.1049208327
 11
3.2218099445
 21
-10.7747436351
  0
LINE
  5
317
100
AcDbEntity
  8
CURVE
100
AcDbLine
 62
7
  6
CONTINUOUS
 10
3.5352543539
 20
-10.4612992257
 11
3.6688628742
 21
-10.3276907054
  0
LINE
  5
318
100
AcDbEntity
  8
RACCORDO
100
AcDbLine
 62
253
  6
CONTINUOUS
 10
11.6506446778
 20
3.9688986772
 11
-2.9980158074
 21
11.2932289198
  0
LINE
  5
319
100
AcDbEntity
  8
CURVE
100
AcDbLine
 62
7
  6
CONTINUOUS
 10
2.9004310251
 20
-11.3061332686
 11
3.0911488952
 21
-11.1154153984
  0
LINE
  5
31A
100
AcDbEntity
  8
CURVE
100
AcDbLine
 62
7
  6
CONTINUOUS
 10
3.2184446847
 20
-10.988119609
 11
3.3628852628
 21
-10.8436790308
  0
LINE
  5
31B
100
AcDbEntity
  8
CURVE
100
AcDbLine
 62
7
  6
CONTINUOUS
 10
3.5799585889
 20
-10.6266057047
 11
3.7455542521
 21
-10.4610100416
  0
LINE
  5
31C
100
AcDbEntity
  8
CURVE
100
AcDbLine
 62
7
  6
CONTINUOUS
 10
2.9648804852
 20
-11.4516945224
 11
3.0999471733
 21
-11.3166278343
  0
LINE
  5
31D
100
AcDbEntity
  8
CURVE
100
AcDbLine
 62
7
  6
CONTINUOUS
 10
3.3576764243
 20
-11.0588985834
 11
3.7930818271
 21
-10.6234931806
  0
LINE
  5
31E
100
AcDbEntity
  8
CURVE
100
AcDbLine
 62
7
  6
CONTINUOUS
 10
3.1048876279
 20
-11.5216980938
 11
3.1087454515
 21
-11.5178402702
  0
LINE
  5
31F
100
AcDbEntity
  8
CURVE
100
AcDbLine
 62
7
  6
CONTINUOUS
 10
3.4749750333
 20
-11.1516106883
 11
3.8019272911
 21
-10.8246584306
  0
LINE
  5
320
100
AcDbEntity
  8
CURVE
100
AcDbLine
 62
7
  6
CONTINUOUS
 10
3.5579951335
 20
-11.2786013022
 11
3.6799983843
 21
-11.1565980513
  0
LINE
  5
321
100
AcDbEntity
  8
CURVE
100
AcDbLine
 62
7
  6
CONTINUOUS
 10
4.1376401048
 20
-10.6989563308
 11
4.2198069013
 21
-10.6167895344
  0
LINE
  5
322
100
AcDbEntity
  8
CURVE
100
AcDbLine
 62
7
  6
CONTINUOUS
 10
3.6095503365
 20
-11.4370568132
 11
3.7598059577
 21
-11.286801192
  0
LINE
  5
323
100
AcDbEntity
  8
CURVE
100
AcDbLine
 62
7
  6
CONTINUOUS
 10
4.0776684082
 20
-10.9689387415
 11
4.427426309
 21
-10.6191808407
  0
LINE
  5
324
100
AcDbEntity
  8
CURVE
100
AcDbLine
 62
7
  6
CONTINUOUS
 10
3.636853222
 20
-11.6197646417
 11
3.812811715
 21
-11.4438061487
  0
LINE
  5
325
100
AcDbEntity
  8
CURVE
100
AcDbLine
 62
7
  6
CONTINUOUS
 10
4.0756378642
 20
-11.1809799995
 11
4.311648349
 21
-10.9449695147
  0
LINE
  5
326
100
AcDbEntity
  8
CURVE
100
AcDbLine
 62
7
  6
CONTINUOUS
 10
4.4000293699
 20
-10.8565884938
 11
4.5734955422
 21
-10.6831223215
  0
LINE
  5
327
100
AcDbEntity
  8
CURVE
100
AcDbLine
 62
7
  6
CONTINUOUS
 10
3.6649161986
 20
-11.8017123791
 11
3.8422296428
 21
-11.624398935
  0
LINE
  5
328
100
AcDbEntity
  8
CURVE
100
AcDbLine
 62
7
  6
CONTINUOUS
 10
4.0859875989
 20
-11.3806409788
 11
4.2986363674
 21
-11.1679922103
  0
LINE
  5
329
100
AcDbEntity
  8
CURVE
100
AcDbLine
 62
7
  6
CONTINUOUS
 10
4.5644815374
 20
-10.9021470403
 11
4.7135026848
 21
-10.7531258929
  0
LINE
  5
32A
100
AcDbEntity
  8
CURVE
100
AcDbLine
 62
7
  6
CONTINUOUS
 10
3.8049233413
 20
-11.8717159505
 11
3.857676009
 21
-11.8189632827
  0
LINE
  5
32B
100
AcDbEntity
  8
CURVE
100
AcDbLine
 62
7
  6
CONTINUOUS
 10
4.1056259114
 20
-11.5710133803
 11
4.4079308716
 21
-11.2687084202
  0
LINE
  5
32C
100
AcDbEntity
  8
CURVE
100
AcDbLine
 62
7
  6
CONTINUOUS
 10
4.7045149625
 20
-10.9721243292
 11
4.8535098275
 21
-10.8231294642
  0
LINE
  5
32D
100
AcDbEntity
  8
CURVE
100
AcDbLine
 62
7
  6
CONTINUOUS
 10
4.1425452911
 20
-11.7441047147
 11
4.317696507
 21
-11.5689534988
  0
LINE
  5
32E
100
AcDbEntity
  8
CURVE
100
AcDbLine
 62
7
  6
CONTINUOUS
 10
4.4017543648
 20
-11.4848956409
 11
4.5479380142
 21
-11.3387119915
  0
LINE
  5
32F
100
AcDbEntity
  8
CURVE
100
AcDbLine
 62
7
  6
CONTINUOUS
 10
4.8445221052
 20
-11.0421279006
 11
4.9336914214
 21
-10.9529585843
  0
LINE
  5
330
100
AcDbEntity
  8
CURVE
100
AcDbLine
 62
7
  6
CONTINUOUS
 10
4.2008484104
 20
-11.8958123094
 11
4.344490684
 21
-11.7521700357
  0
LINE
  5
331
100
AcDbEntity
  8
CURVE
100
AcDbLine
 62
7
  6
CONTINUOUS
 10
4.5417615075
 20
-11.5548992122
 11
4.6879451569
 21
-11.4087155628
  0
LINE
  5
332
100
AcDbEntity
  8
CURVE
100
AcDbLine
 62
7
  6
CONTINUOUS
 10
4.2817664233
 20
-12.0249050104
 11
4.4068467534
 21
-11.8998246803
  0
LINE
  5
333
100
AcDbEntity
  8
CURVE
100
AcDbLine
 62
7
  6
CONTINUOUS
 10
4.6817686502
 20
-11.6249027836
 11
4.8279522996
 21
-11.4787191342
  0
LINE
  5
334
100
AcDbEntity
  8
CURVE
100
AcDbLine
 62
7
  6
CONTINUOUS
 10
4.3836553961
 20
-12.1330267517
 11
4.5131350406
 21
-12.0035471072
  0
LINE
  5
335
100
AcDbEntity
  8
CURVE
100
AcDbLine
 62
7
  6
CONTINUOUS
 10
4.8217757929
 20
-11.6949063549
 11
4.9094534374
 21
-11.6072287104
  0
LINE
  5
336
100
AcDbEntity
  8
CURVE
100
AcDbLine
 62
7
  6
CONTINUOUS
 10
5.1289066041
 20
-11.3877755436
 11
5.4021940431
 21
-11.1144881047
  0
LINE
  5
337
100
AcDbEntity
  8
CURVE
100
AcDbLine
 62
7
  6
CONTINUOUS
 10
4.5068867613
 20
-12.2198061005
 11
4.6483314728
 21
-12.078361389
  0
LINE
  5
338
100
AcDbEntity
  8
CURVE
100
AcDbLine
 62
7
  6
CONTINUOUS
 10
5.1585610756
 20
-11.5681317862
 11
5.5535455409
 21
-11.1731473209
  0
LINE
  5
339
100
AcDbEntity
  8
CURVE
100
AcDbLine
 62
7
  6
CONTINUOUS
 10
4.6449661973
 20
-12.2917373785
 11
4.7883386155
 21
-12.1483649603
  0
LINE
  5
33A
100
AcDbEntity
  8
CURVE
100
AcDbLine
 62
7
  6
CONTINUOUS
 10
5.224054323
 20
-11.7126492528
 11
5.3620743448
 21
-11.574629231
  0
LINE
  5
33B
100
AcDbEntity
  8
CURVE
100
AcDbLine
 62
7
  6
CONTINUOUS
 10
5.5389353873
 20
-11.3977681885
 11
5.6935526836
 21
-11.2431508922
  0
LINE
  5
33C
100
AcDbEntity
  8
RACCORDO
100
AcDbLine
 62
253
  6
CONTINUOUS
 10
0.6127091958
 20
-12.2571010392
 11
0.5629661737
 21
-12.282504213
  0
LINE
  5
33D
100
AcDbEntity
  8
RACCORDO
100
AcDbLine
 62
253
  6
CONTINUOUS
 10
-0.0318735431
 20
-11.4813815586
 11
-0.056617786
 21
-11.4936259314
  0
LINE
  5
33E
100
AcDbEntity
  8
RACCORDO
100
AcDbLine
 62
7
  6
CONTINUOUS
 10
9.2628506051
 20
-16.2061024755
 11
9.2628865923
 21
-16.2059345357
  0
LWPOLYLINE
  5
33F
100
AcDbEntity
  8
RACCORDO
100
AcDbPolyline
 62
7
  6
CONTINUOUS
 90
4
 70
0
 10
9.2628506051
 20
-16.2061024755
 10
9.2578923357
 20
-16.2268489752
 10
9.2458699652
 20
-16.265321764
 10
9.2308006125
 20
-16.3006020869
  0
LINE
  5
340
100
AcDbEntity
  8
CURVE
100
AcDbLine
 62
7
  6
CONTINUOUS
 10
4.78497334
 20
-12.3617409498
 11
4.9283457581
 21
-12.2183685317
  0
LINE
  5
341
100
AcDbEntity
  8
CURVE
100
AcDbLine
 62
7
  6
CONTINUOUS
 10
5.3160806588
 20
-11.830633631
 11
5.4479166526
 21
-11.6987976372
  0
LINE
  5
342
100
AcDbEntity
  8
CURVE
100
AcDbLine
 62
7
  6
CONTINUOUS
 10
5.67894253
 20
-11.4677717598
 11
5.8335598262
 21
-11.3131544636
  0
LINE
  5
343
100
AcDbEntity
  8
CURVE
100
AcDbLine
 62
7
  6
CONTINUOUS
 10
4.9249804827
 20
-12.4317445212
 11
5.0037182216
 21
-12.3530067822
  0
LINE
  5
344
100
AcDbEntity
  8
CURVE
100
AcDbLine
 62
7
  6
CONTINUOUS
 10
5.4261749039
 20
-11.9305500999
 11
5.5569090621
 21
-11.7998159417
  0
LINE
  5
345
100
AcDbEntity
  8
CURVE
100
AcDbLine
 62
7
  6
CONTINUOUS
 10
5.8189496727
 20
-11.5377753311
 11
5.9336785134
 21
-11.4230464905
  0
LINE
  5
346
100
AcDbEntity
  8
CURVE
100
AcDbLine
 62
7
  6
CONTINUOUS
 10
5.184668863
 20
-12.3820668548
 11
5.216793706
 21
-12.3499420119
  0
LINE
  5
347
100
AcDbEntity
  8
CURVE
100
AcDbLine
 62
7
  6
CONTINUOUS
 10
5.5430133008
 20
-12.023722417
 11
5.673995293
 21
-11.8927404249
  0
LINE
  5
348
100
AcDbEntity
  8
CURVE
100
AcDbLine
 62
7
  6
CONTINUOUS
 10
5.204994768
 20
-12.5717516638
 11
5.3568008486
 21
-12.4199455832
  0
LINE
  5
349
100
AcDbEntity
  8
CURVE
100
AcDbLine
 62
7
  6
CONTINUOUS
 10
5.6599476536
 20
-12.1167987783
 11
5.7913916859
 21
-11.9853547459
  0
LINE
  5
34A
100
AcDbEntity
  8
CURVE
100
AcDbLine
 62
7
  6
CONTINUOUS
 10
5.3450019107
 20
-12.6417552352
 11
5.4968079913
 21
-12.4899491546
  0
LINE
  5
34B
100
AcDbEntity
  8
CURVE
100
AcDbLine
 62
7
  6
CONTINUOUS
 10
5.7692568239
 20
-12.217500322
 11
5.9004101585
 21
-12.0863469874
  0
LINE
  5
34C
100
AcDbEntity
  8
CURVE
100
AcDbLine
 62
7
  6
CONTINUOUS
 10
5.4850090534
 20
-12.7117588065
 11
5.637044368
 21
-12.5597234919
  0
LINE
  5
34D
100
AcDbEntity
  8
CURVE
100
AcDbLine
 62
7
  6
CONTINUOUS
 10
5.8474916154
 20
-12.3492762445
 11
5.9909522599
 21
-12.2058156
  0
LINE
  5
34E
100
AcDbEntity
  8
CURVE
100
AcDbLine
 62
7
  6
CONTINUOUS
 10
6.2407478933
 20
-11.9560199666
 11
6.5241307551
 21
-11.6726371048
  0
LINE
  5
34F
100
AcDbEntity
  8
CURVE
100
AcDbLine
 62
7
  6
CONTINUOUS
 10
5.625016196
 20
-12.7817623778
 11
6.0551551895
 21
-12.3516233843
  0
LINE
  5
350
100
AcDbEntity
  8
CURVE
100
AcDbLine
 62
7
  6
CONTINUOUS
 10
6.2730324221
 20
-12.1337461518
 11
6.6736026823
 21
-11.7331758916
  0
LINE
  5
351
100
AcDbEntity
  8
CURVE
100
AcDbLine
 62
7
  6
CONTINUOUS
 10
5.7736623461
 20
-12.8431269418
 11
6.080559241
 21
-12.5362300469
  0
LINE
  5
352
100
AcDbEntity
  8
CURVE
100
AcDbLine
 62
7
  6
CONTINUOUS
 10
6.3403108784
 20
-12.2764784095
 11
6.477164325
 21
-12.1396249629
  0
LINE
  5
353
100
AcDbEntity
  8
CURVE
100
AcDbLine
 62
7
  6
CONTINUOUS
 10
6.6589925287
 20
-11.9577967592
 11
6.813609825
 21
-11.8031794629
  0
LINE
  5
354
100
AcDbEntity
  8
CURVE
100
AcDbLine
 62
7
  6
CONTINUOUS
 10
6.4338240739
 20
-12.3929759281
 11
6.5655628843
 21
-12.2612371176
  0
LINE
  5
355
100
AcDbEntity
  8
CURVE
100
AcDbLine
 62
7
  6
CONTINUOUS
 10
6.7989996714
 20
-12.0278003305
 11
6.9536169676
 21
-11.8731830343
  0
LINE
  5
356
100
AcDbEntity
  8
CURVE
100
AcDbLine
 62
7
  6
CONTINUOUS
 10
6.5447118361
 20
-12.4920988798
 11
6.6753709521
 21
-12.3614397638
  0
LINE
  5
357
100
AcDbEntity
  8
CURVE
100
AcDbLine
 62
7
  6
CONTINUOUS
 10
6.9390068141
 20
-12.0978039018
 11
7.0454174711
 21
-11.9913932448
  0
LINE
  5
358
100
AcDbEntity
  8
CURVE
100
AcDbLine
 62
7
  6
CONTINUOUS
 10
6.2964081209
 20
-12.950413309
 11
6.3368508474
 21
-12.9099705826
  0
LINE
  5
359
100
AcDbEntity
  8
CURVE
100
AcDbLine
 62
7
  6
CONTINUOUS
 10
6.6616077607
 20
-12.5852136692
 11
6.7926190436
 21
-12.4542023864
  0
LINE
  5
35A
100
AcDbEntity
  8
CURVE
100
AcDbLine
 62
7
  6
CONTINUOUS
 10
6.3250519094
 20
-13.1317802345
 11
6.47685799
 21
-12.9799741539
  0
LINE
  5
35B
100
AcDbEntity
  8
CURVE
100
AcDbLine
 62
7
  6
CONTINUOUS
 10
6.7785474821
 20
-12.6782846619
 11
6.909920032
 21
-12.5469121119
  0
LINE
  5
35C
100
AcDbEntity
  8
CURVE
100
AcDbLine
 62
7
  6
CONTINUOUS
 10
6.4650590521
 20
-13.2017838059
 11
6.6168651327
 21
-13.0499777253
  0
LINE
  5
35D
100
AcDbEntity
  8
CURVE
100
AcDbLine
 62
7
  6
CONTINUOUS
 10
6.8866236916
 20
-12.7802191664
 11
7.0179641316
 21
-12.6488787264
  0
LINE
  5
35E
100
AcDbEntity
  8
ASSI
100
AcDbLine
 62
253
  6
CONTINUOUS
 10
8.5489141048
 20
-10.4278168584
 11
8.4895320465
 21
-10.4581425741
  0
LINE
  5
35F
100
AcDbEntity
  8
RACCORDO
100
AcDbLine
 62
253
  6
CONTINUOUS
 10
8.5489141048
 20
-10.4278168584
 11
8.4895320465
 21
-10.4581425741
  0
LINE
  5
360
100
AcDbEntity
  8
CURVE
100
AcDbLine
 62
7
  6
CONTINUOUS
 10
6.6050661948
 20
-13.2717873772
 11
6.7572383357
 21
-13.1196152362
  0
LINE
  5
361
100
AcDbEntity
  8
CURVE
100
AcDbLine
 62
7
  6
CONTINUOUS
 10
6.9618000093
 20
-12.9150535627
 11
7.1072150747
 21
-12.7696384973
  0
LINE
  5
362
100
AcDbEntity
  8
CURVE
100
AcDbLine
 62
7
  6
CONTINUOUS
 10
6.7450733374
 20
-13.3417909485
 11
7.1690572153
 21
-12.9178070706
  0
LINE
  5
363
100
AcDbEntity
  8
CURVE
100
AcDbLine
 62
7
  6
CONTINUOUS
 10
6.895303277
 20
-13.401571723
 11
7.1918073257
 21
-13.1050676743
  0
LINE
  5
364
100
AcDbEntity
  8
ASSI
100
AcDbLine
 62
253
  6
CONTINUOUS
 10
9.0282107685
 20
-11.1423245024
 11
8.9960192266
 21
-11.158254076
  0
LINE
  5
365
100
AcDbEntity
  8
RACCORDO
100
AcDbLine
 62
253
  6
CONTINUOUS
 10
9.0282107685
 20
-11.1423245024
 11
8.9960192266
 21
-11.158254076
  0
LINE
  5
366
100
AcDbEntity
  8
RACCORDO
100
AcDbLine
 62
7
  6
CONTINUOUS
 10
16.2833075679
 20
16.3104415402
 11
16.2833075679
 21
-21.1021526686
  0
LWPOLYLINE
  5
367
100
AcDbEntity
  8
RACCORDO
100
AcDbPolyline
 62
7
  6
CONTINUOUS
 90
4
 70
0
 10
9.2308006125
 20
-16.3006020869
 10
9.2127508842
 20
-16.3322880673
 10
9.1917613932
 20
-16.3600703344
 10
9.1678679531
 20
-16.3837213554
  0
LWPOLYLINE
  5
368
100
AcDbEntity
  8
RACCORDO
100
AcDbPolyline
 62
7
  6
CONTINUOUS
 90
3
 70
0
 10
9.1678679531
 20
-16.3837213554
 10
9.1410544889
 20
-16.4030578249
 10
9.1272255122
 20
-16.4107110686
  0
LINE
  5
369
100
AcDbEntity
  8
RACCORDO
100
AcDbLine
 62
253
  6
CONTINUOUS
 10
8.8267795456
 20
-16.3450690111
 11
8.7581709592
 21
-16.3801066057
  0
LINE
  5
36A
100
AcDbEntity
  8
RACCORDO
100
AcDbLine
 62
7
  6
CONTINUOUS
 10
9.1288172324
 20
-16.4099036298
 11
9.1271885474
 21
-16.4107354921
  0
LINE
  5
36B
100
AcDbEntity
  8
ASSI
100
AcDbLine
 62
253
  6
CONTINUOUS
 10
9.2896043375
 20
-16.0676635484
 11
9.2122346253
 21
-16.1054675996
  0
LINE
  5
36C
100
AcDbEntity
  8
RACCORDO
100
AcDbLine
 62
253
  6
CONTINUOUS
 10
9.2896043375
 20
-16.0676635484
 11
9.2122346253
 21
-16.1054675996
  0
LINE
  5
36D
100
AcDbEntity
  8
ASSI
100
AcDbLine
 62
7
  6
CONTINUOUS
 10
9.2583315985
 20
-16.225011002
 11
9.0585162249
 21
-16.3221766302
  0
LINE
  5
36E
100
AcDbEntity
  8
DRAFT
100
AcDbLine
 62
7
  6
CONTINUOUS
 10
9.2583315985
 20
-16.225011002
 11
9.0585136857
 21
-16.322177865
  0
LINE
  5
36F
100
AcDbEntity
  8
ASSI
100
AcDbLine
 62
7
  6
CONTINUOUS
 10
9.0438099798
 20
-16.3288020922
 11
9.0588213177
 21
-16.3220022591
  0
LINE
  5
370
100
AcDbEntity
  8
RACCORDO
100
AcDbLine
 62
7
  6
CONTINUOUS
 10
9.0434133584
 20
-16.3289817543
 11
9.0588220222
 21
-16.3220019166
  0
LINE
  5
371
100
AcDbEntity
  8
RACCORDO
100
AcDbLine
 62
253
  6
CONTINUOUS
 10
-2.3230178893
 20
21.7335141596
 11
12.3617370015
 21
14.3911367142
  0
LINE
  5
372
100
AcDbEntity
  8
RACCORDO
100
AcDbLine
 62
253
  6
CONTINUOUS
 10
-1.6511624298
 20
22.8155766671
 11
13.0514190178
 21
15.4642859433
  0
LINE
  5
373
100
AcDbEntity
  8
RACCORDO
100
AcDbLine
 62
7
  6
CONTINUOUS
 10
15.9298753313
 20
16.9200219778
 11
1.0803906185
 21
24.3447643342
  0
LINE
  5
374
100
AcDbEntity
  8
RACCORDO
100
AcDbLine
 62
253
  6
CONTINUOUS
 10
13.4048512545
 20
-22.3779696824
 11
16.2833075679
 21
-21.1021526686
  0
LINE
  5
375
100
AcDbEntity
  8
RACCORDO
100
AcDbLine
 62
7
  6
CONTINUOUS
 10
13.2632793716
 20
-22.653737728
 11
16.1454954971
 21
-21.3762542542
  0
ARC
  5
376
100
AcDbEntity
  8
RACCORDO
100
AcDbCircle
 62
253
  6
CONTINUOUS
 10
-6.6195438302
 20
-14.8931640245
 40
16.0560066818
100
AcDbArc
 50
13.0530607147
 51
13.2673923335
  0
ARC
  5
377
100
AcDbEntity
  8
RACCORDO
100
AcDbCircle
 62
253
  6
CONTINUOUS
 10
1.093679459
 20
-11.3100142824
 40
1.1100408393
100
AcDbArc
 50
228.9764095801
 51
232.4351257103
  0
ARC
  5
378
100
AcDbEntity
  8
RACCORDO
100
AcDbCircle
 62
253
  6
CONTINUOUS
 10
1.0292199463
 20
-11.3945823597
 40
1.0037085705
100
AcDbArc
 50
232.4086951474
 51
235.9507162225
  0
ARC
  5
379
100
AcDbEntity
  8
ASSI
100
AcDbCircle
 62
253
  6
CONTINUOUS
 10
0.7809541461
 20
-11.5516151846
 40
0.6763670523
100
AcDbArc
 50
235.3412198841
 51
239.1899984021
  0
ARC
  5
37A
100
AcDbEntity
  8
ASSI
100
AcDbCircle
 62
253
  6
CONTINUOUS
 10
0.7381499157
 20
-11.6245005425
 40
0.5918442225
100
AcDbArc
 50
239.1350046949
 51
243.3932619814
  0
ARC
  5
37B
100
AcDbEntity
  8
RACCORDO
100
AcDbCircle
 62
253
  6
CONTINUOUS
 10
-1.9110603951
 20
-14.9785495703
 40
0.3650344208
100
AcDbArc
 50
239.3301399431
 51
243.4447901049
  0
ARC
  5
37C
100
AcDbEntity
  8
RACCORDO
100
AcDbCircle
 62
253
  6
CONTINUOUS
 10
1.2962066948
 20
-11.0729817933
 40
1.4170255439
100
AcDbArc
 50
202.2627271349
 51
204.9769642507
  0
ARC
  5
37D
100
AcDbEntity
  8
RACCORDO
100
AcDbCircle
 62
253
  6
CONTINUOUS
 10
1.164381881
 20
-11.1273777298
 40
1.4161500357
100
AcDbArc
 50
196.4148933735
 51
199.5095733799
  0
ARC
  5
37E
100
AcDbEntity
  8
RACCORDO
100
AcDbCircle
 62
253
  6
CONTINUOUS
 10
1.2395677769
 20
-11.0960521534
 40
1.3558683978
100
AcDbArc
 50
199.5365307168
 51
202.2672605374
  0
ARC
  5
37F
100
AcDbEntity
  8
RACCORDO
100
AcDbCircle
 62
253
  6
CONTINUOUS
 10
1.1614527982
 20
-11.1237044403
 40
1.273003479
100
AcDbArc
 50
196.89325401
 51
199.5393192478
  0
ARC
  5
380
100
AcDbEntity
  8
ASSI
100
AcDbCircle
 62
253
  6
CONTINUOUS
 10
0.9998720326
 20
-11.2626063523
 40
1.0322794796
100
AcDbArc
 50
199.4243958737
 51
202.3471888523
  0
ARC
  5
381
100
AcDbEntity
  8
ASSI
100
AcDbCircle
 62
253
  6
CONTINUOUS
 10
0.9377738735
 20
-11.2843730002
 40
0.9664771091
100
AcDbArc
 50
196.3388546664
 51
199.4317361467
  0
ARC
  5
382
100
AcDbEntity
  8
RACCORDO
100
AcDbCircle
 62
253
  6
CONTINUOUS
 10
0.1979859578
 20
-6.6361410714
 40
0.6374459619
100
AcDbArc
 50
163.3824535727
 51
164.8682039944
  0
ARC
  5
383
100
AcDbEntity
  8
RACCORDO
100
AcDbCircle
 62
253
  6
CONTINUOUS
 10
0.0348090637
 20
-6.879089365
 40
0.5798645968
100
AcDbArc
 50
63.4134196087
 51
66.5099350649
  0
ARC
  5
384
100
AcDbEntity
  8
RACCORDO
100
AcDbCircle
 62
253
  6
CONTINUOUS
 10
0.2682411864
 20
-6.6395996405
 40
0.5673922295
100
AcDbArc
 50
163.457156846
 51
164.9477512693
  0
ARC
  5
385
100
AcDbEntity
  8
ASSI
100
AcDbCircle
 62
253
  6
CONTINUOUS
 10
0.0443095057
 20
-6.858803779
 40
0.5574724125
100
AcDbArc
 50
63.353505256
 51
68.6437340907
  0
ARC
  5
386
100
AcDbEntity
  8
RACCORDO
100
AcDbCircle
 62
253
  6
CONTINUOUS
 10
0.2471562943
 20
-6.6333359424
 40
0.5453966256
100
AcDbArc
 50
161.6366547528
 51
163.4572490007
  0
ARC
  5
387
100
AcDbEntity
  8
RACCORDO
100
AcDbCircle
 62
253
  6
CONTINUOUS
 10
0.2201665257
 20
-6.6242657609
 40
0.5169237599
100
AcDbArc
 50
158.4825670782
 51
161.6483371238
  0
ARC
  5
388
100
AcDbEntity
  8
ASSI
100
AcDbCircle
 62
253
  6
CONTINUOUS
 10
0.0613381507
 20
-6.8155449207
 40
0.510982722
100
AcDbArc
 50
68.6556143009
 51
71.4920625766
  0
ARC
  5
389
100
AcDbEntity
  8
RACCORDO
100
AcDbCircle
 62
253
  6
CONTINUOUS
 10
0.1778109636
 20
-6.6072602434
 40
0.4712828551
100
AcDbArc
 50
152.9413730795
 51
158.517213251
  0
ARC
  5
38A
100
AcDbEntity
  8
RACCORDO
100
AcDbCircle
 62
253
  6
CONTINUOUS
 10
0.1300728791
 20
-6.5828243419
 40
0.4176541715
100
AcDbArc
 50
146.6652189887
 51
152.9475513665
  0
ARC
  5
38B
100
AcDbEntity
  8
RACCORDO
100
AcDbCircle
 62
253
  6
CONTINUOUS
 10
0.1353526911
 20
-6.7403530535
 40
0.3477777369
100
AcDbArc
 50
153.9297713351
 51
156.2811916345
  0
ARC
  5
38C
100
AcDbEntity
  8
ASSI
100
AcDbCircle
 62
253
  6
CONTINUOUS
 10
0.1275754569
 20
-6.7366391127
 40
0.3391600215
100
AcDbArc
 50
153.1044120793
 51
154.6917324431
  0
ARC
  5
38D
100
AcDbEntity
  8
RACCORDO
100
AcDbCircle
 62
253
  6
CONTINUOUS
 10
0.1204794896
 20
-6.7330749732
 40
0.3312192777
100
AcDbArc
 50
151.4891667696
 51
153.9299818196
  0
ARC
  5
38E
100
AcDbEntity
  8
ASSI
100
AcDbCircle
 62
253
  6
CONTINUOUS
 10
0.1184222051
 20
-6.7319960567
 40
0.3288964944
100
AcDbArc
 50
151.4832576547
 51
153.1044482058
  0
ARC
  5
38F
100
AcDbEntity
  8
RACCORDO
100
AcDbCircle
 62
253
  6
CONTINUOUS
 10
0.0491796873
 20
-6.5146741119
 40
0.3110906083
100
AcDbArc
 50
116.0129369048
 51
117.6576782604
  0
ARC
  5
390
100
AcDbEntity
  8
RACCORDO
100
AcDbCircle
 62
253
  6
CONTINUOUS
 10
0.0686503857
 20
-6.6996173208
 40
0.2693982291
100
AcDbArc
 50
139.336154188
 51
140.8351218288
  0
ARC
  5
391
100
AcDbEntity
  8
RACCORDO
100
AcDbCircle
 62
253
  6
CONTINUOUS
 10
-0.1872394773
 20
-11.2782895729
 40
0.250795351
100
AcDbArc
 50
278.2648983553
 51
282.1271275654
  0
ARC
  5
392
100
AcDbEntity
  8
ASSI
100
AcDbCircle
 62
253
  6
CONTINUOUS
 10
0.0453869288
 20
-6.6753653601
 40
0.2357056019
100
AcDbArc
 50
119.9090048322
 51
128.3797939906
  0
ARC
  5
393
100
AcDbEntity
  8
RACCORDO
100
AcDbCircle
 62
253
  6
CONTINUOUS
 10
0.0440418957
 20
-6.6731358169
 40
0.233103688
100
AcDbArc
 50
117.261588575
 51
120.4044399798
  0
ARC
  5
394
100
AcDbEntity
  8
RACCORDO
100
AcDbCircle
 62
253
  6
CONTINUOUS
 10
2.4258893704
 20
-14.790573908
 40
7.021845031
100
AcDbArc
 50
347.839899918
 51
348.3034399042
  0
ARC
  5
395
100
AcDbEntity
  8
RACCORDO
100
AcDbCircle
 62
253
  6
CONTINUOUS
 10
7.641409118
 20
-11.5573249671
 40
1.4699407119
100
AcDbArc
 50
15.0787991869
 51
19.0532000326
  0
ARC
  5
396
100
AcDbEntity
  8
RACCORDO
100
AcDbCircle
 62
253
  6
CONTINUOUS
 10
7.713640658
 20
-11.5367298823
 40
1.3948424959
100
AcDbArc
 50
13.3905060443
 51
15.0448111066
  0
ARC
  5
397
100
AcDbEntity
  8
RACCORDO
100
AcDbCircle
 62
253
  6
CONTINUOUS
 10
7.8515335516
 20
-11.435696088
 40
1.1778310586
100
AcDbArc
 50
19.2366337237
 51
20.3799636519
  0
ARC
  5
398
100
AcDbEntity
  8
ASSI
100
AcDbCircle
 62
253
  6
CONTINUOUS
 10
7.8588390889
 20
-11.4330730924
 40
1.17006938
100
AcDbArc
 50
18.0916832939
 51
20.3841408731
  0
ARC
  5
399
100
AcDbEntity
  8
RACCORDO
100
AcDbCircle
 62
253
  6
CONTINUOUS
 10
7.8966608493
 20
-11.4203716872
 40
1.1301745369
100
AcDbArc
 50
13.4105291475
 51
19.2568784086
  0
ARC
  5
39A
100
AcDbEntity
  8
ASSI
100
AcDbCircle
 62
253
  6
CONTINUOUS
 10
7.90811916
 20
-11.4171576768
 40
1.1182833404
100
AcDbArc
 50
13.3865054926
 51
18.1006385686
  0
ARC
  5
39B
100
AcDbEntity
  8
RACCORDO
100
AcDbCircle
 62
253
  6
CONTINUOUS
 10
9.3850343714
 20
-15.7329085856
 40
0.5164746228
100
AcDbArc
 50
254.5652550454
 51
255.5471044651
  0
ARC
  5
39C
100
AcDbEntity
  8
ASSI
100
AcDbCircle
 62
253
  6
CONTINUOUS
 10
8.8992058709
 20
-15.7906993335
 40
0.5152180698
100
AcDbArc
 50
243.3722048821
 51
248.0431800462
  0
ARC
  5
39D
100
AcDbEntity
  8
RACCORDO
100
AcDbCircle
 62
253
  6
CONTINUOUS
 10
8.8991484816
 20
-15.7908209792
 40
0.5150836047
100
AcDbArc
 50
243.371846883
 51
248.0564028879
  0
ARC
  5
39E
100
AcDbEntity
  8
DRAFT
100
AcDbCircle
 62
7
  6
CONTINUOUS
 10
9.2402077979
 20
-15.8094612271
 40
0.5093703438
100
AcDbArc
 50
254.4985967962
 51
256.70268399
  0
ARC
  5
39F
100
AcDbEntity
  8
DRAFT
100
AcDbCircle
 62
7
  6
CONTINUOUS
 10
9.2331908975
 20
-15.8397099887
 40
0.4783186631
100
AcDbArc
 50
256.6872836315
 51
260.4728099572
  0
ARC
  5
3A0
100
AcDbEntity
  8
DRAFT
100
AcDbCircle
 62
7
  6
CONTINUOUS
 10
9.227249878
 20
-15.8751025911
 40
0.4424308934
100
AcDbArc
 50
260.4729455433
 51
264.4616294586
  0
ARC
  5
3A1
100
AcDbEntity
  8
DRAFT
100
AcDbCircle
 62
7
  6
CONTINUOUS
 10
9.2240211943
 20
-15.9089940784
 40
0.408386015
100
AcDbArc
 50
264.4535854257
 51
269.6344994385
  0
ARC
  5
3A2
100
AcDbEntity
  8
ASSI
100
AcDbCircle
 62
253
  6
CONTINUOUS
 10
8.8415690881
 20
-16.0752645969
 40
0.2253898976
100
AcDbArc
 50
313.1721333263
 51
321.3871658528
  0
ARC
  5
3A3
100
AcDbEntity
  8
ASSI
100
AcDbCircle
 62
253
  6
CONTINUOUS
 10
8.8515266361
 20
-16.0856931692
 40
0.210971483
100
AcDbArc
 50
304.6205094103
 51
313.1376687161
  0
ARC
  5
3A4
100
AcDbEntity
  8
ASSI
100
AcDbCircle
 62
253
  6
CONTINUOUS
 10
8.8538746436
 20
-16.088751324
 40
0.2071209249
100
AcDbArc
 50
295.9794305899
 51
304.5666225191
  0
ARC
  5
3A5
100
AcDbEntity
  8
RACCORDO
100
AcDbCircle
 62
253
  6
CONTINUOUS
 10
6.0131977472
 20
-8.1941215671
 40
6.5189610622
100
AcDbArc
 50
165.6104776939
 51
166.4841803941
  0
ARC
  5
3A6
100
AcDbEntity
  8
RACCORDO
100
AcDbCircle
 62
253
  6
CONTINUOUS
 10
5.909761486
 20
-8.1676218994
 40
6.4121842335
100
AcDbArc
 50
164.8539884595
 51
165.6101480307
  0
ARC
  5
3A7
100
AcDbEntity
  8
ASSI
100
AcDbCircle
 62
253
  6
CONTINUOUS
 10
8.9099967811
 20
-10.9932696839
 40
0.186063708
100
AcDbArc
 50
294.1791038949
 51
297.5374137987
  0
ARC
  5
3A8
100
AcDbEntity
  8
ASSI
100
AcDbCircle
 62
253
  6
CONTINUOUS
 10
-0.0865019498
 20
-6.5010419646
 40
0.1119551001
100
AcDbArc
 50
215.025372841
 51
221.3294641044
  0
ARC
  5
3A9
100
AcDbEntity
  8
RACCORDO
100
AcDbCircle
 62
253
  6
CONTINUOUS
 10
-0.0883646503
 20
-6.5026550488
 40
0.1094910928
100
AcDbArc
 50
212.7917864787
 51
221.3393021362
  0
ARC
  5
3AA
100
AcDbEntity
  8
RACCORDO
100
AcDbCircle
 62
253
  6
CONTINUOUS
 10
539.3199428288
 20
3.0659875838
 40
542.3803607795
100
AcDbArc
 50
179.1308603361
 51
180.8691396639
  0
ARC
  5
3AB
100
AcDbEntity
  8
RACCORDO
100
AcDbCircle
 62
253
  6
CONTINUOUS
 10
530.32525316
 20
-4.2583426588
 40
518.7398548253
100
AcDbArc
 50
179.0912478276
 51
180.9087521724
  0
ARC
  5
3AC
100
AcDbEntity
  8
RACCORDO
100
AcDbCircle
 62
253
  6
CONTINUOUS
 10
530.4909829692
 20
-4.2629414673
 40
518.2078542
100
AcDbArc
 50
179.0912245709
 51
180.9087754291
  0
SPLINE
  5
3AD
100
AcDbEntity
  8
ASSI
100
AcDbSpline
 62
253
  6
CONTINUOUS
 70
0
 71
3
 72
9
 73
5
 74
3
 42
0.0000001
 43
0.0000001
 44
0.0000000001
 12
-0.1303428421
 22
-0.0665645468
 32
0.0
 13
0.0022062315
 23
-0.1463394271
 33
0.0
 40
0.0
 40
0.0
 40
0.0
 40
0.0
 40
0.4893474344
 40
1.0
 40
1.0
 40
1.0
 40
1.0
 10
8.4895320465
 20
-10.4581425741
 30
0.0
 10
8.468271068
 20
-10.4690003041
 30
0.0
 10
8.4342295194
 20
-10.5078624231
 30
0.0
 10
8.4190747595
 20
-10.5564599877
 30
0.0
 10
8.4194502987
 20
-10.5813695223
 30
0.0
 11
8.4895320465
 21
-10.4581425741
 31
0.0
 11
8.4394774267
 21
-10.5093657193
 31
0.0
 11
8.4194502987
 21
-10.5813695223
 31
0.0
  0
LINE
  5
3AE
100
AcDbEntity
  8
ASSI
100
AcDbLine
 62
253
  6
CONTINUOUS
 10
0.0103281942
 20
-11.5562599519
 11
0.004494676
 21
-11.5362626327
  0
SPLINE
  5
3AF
100
AcDbEntity
  8
ASSI
100
AcDbSpline
 62
253
  6
CONTINUOUS
 70
0
 71
3
 72
9
 73
5
 74
3
 42
0.0000001
 43
0.0000001
 44
0.0000000001
 12
-1.372807627
 22
4.7203783309
 32
0.0
 13
1.2816139838
 23
4.7459496377
 33
0.0
 40
0.0
 40
0.0
 40
0.0
 40
0.0
 40
0.2728793144
 40
1.0
 40
1.0
 40
1.0
 40
1.0
 10
0.004494676
 20
-11.5362626327
 30
0.0
 10
-0.120375592
 20
-11.1068980985
 30
0.0
 10
-0.4950803711
 20
-9.5150043328
 30
0.0
 10
-0.5131773236
 20
-7.8065125258
 30
0.0
 10
-0.2025479774
 20
-6.6562198076
 30
0.0
 11
0.004494676
 21
-11.5362626327
 31
0.0
 11
-0.298319827
 21
-10.2294260858
 31
0.0
 11
-0.2025479774
 21
-6.6562198076
 31
0.0
  0
SPLINE
  5
3B0
100
AcDbEntity
  8
ASSI
100
AcDbSpline
 62
253
  6
CONTINUOUS
 70
0
 71
3
 72
9
 73
5
 74
3
 42
0.0000001
 43
0.0000001
 44
0.0000000001
 12
0.0419961222
 22
-0.112523973
 32
0.0
 13
0.0279261004
 23
-0.1168137479
 33
0.0
 40
0.0
 40
0.0
 40
0.0
 40
0.0
 40
0.2533651737
 40
1.0
 40
1.0
 40
1.0
 40
1.0
 10
8.8232006626
 20
-11.0718619871
 30
0.0
 10
8.8267474475
 20
-11.0813652058
 30
0.0
 10
8.8401917199
 20
-11.1190769194
 30
0.0
 10
8.8513955205
 20
-11.1575942524
 30
0.0
 10
8.8583457202
 20
-11.1866666565
 30
0.0
 11
8.8232006626
 21
-11.0718619871
 31
0.0
 11
8.8334162437
 21
-11.1005265914
 31
0.0
 11
8.8583457202
 21
-11.1866666565
 31
0.0
  0
SPLINE
  5
3B1
100
AcDbEntity
  8
ASSI
100
AcDbSpline
 62
253
  6
CONTINUOUS
 70
0
 71
3
 72
9
 73
5
 74
3
 42
0.0000001
 43
0.0000001
 44
0.0000000001
 12
0.0179246133
 22
0.0663893648
 32
0.0
 13
0.0294012536
 23
0.0621643452
 33
0.0
 40
0.0
 40
0.0
 40
0.0
 40
0.0
 40
0.2575010761
 40
1.0
 40
1.0
 40
1.0
 40
1.0
 10
-0.2025479774
 20
-6.6562198076
 30
0.0
 10
-0.2010094417
 20
-6.6505213634
 30
0.0
 10
-0.194584041
 20
-6.6285178067
 30
0.0
 10
-0.1863090819
 20
-6.6070378199
 30
0.0
 10
-0.1790322822
 20
-6.5916521667
 30
0.0
 11
-0.2025479774
 21
-6.6562198076
 31
0.0
 11
-0.1975777082
 21
-6.6392242006
 31
0.0
 11
-0.1790322822
 21
-6.5916521667
 31
0.0
  0
SPLINE
  5
3B2
100
AcDbEntity
  8
ASSI
100
AcDbSpline
 62
253
  6
CONTINUOUS
 70
0
 71
3
 72
10
 73
6
 74
4
 42
0.0000001
 43
0.0000001
 44
0.0000000001
 12
-0.1246591936
 22
-0.0652403862
 32
0.0
 13
-0.1391167686
 23
-0.0210415598
 33
0.0
 40
0.0
 40
0.0
 40
0.0
 40
0.0
 40
0.5256244483
 40
0.7888978768
 40
1.0
 40
1.0
 40
1.0
 40
1.0
 10
8.9556376355
 20
-11.0255230724
 30
0.0
 10
8.9337963289
 20
-11.0369537198
 30
0.0
 10
8.8993780273
 20
-11.0510141936
 30
0.0
 10
8.8546947489
 20
-11.0652146984
 30
0.0
 10
8.8329899559
 20
-11.0703813417
 30
0.0
 10
8.8232006742
 20
-11.071861981
 30
0.0
 11
8.9556376355
 21
-11.0255230724
 31
0.0
 11
8.8875626359
 21
-11.0544214425
 31
0.0
 11
8.8522070507
 21
-11.0654720599
 31
0.0
 11
8.8232006742
 21
-11.071861981
 31
0.0
  0
LINE
  5
3B3
100
AcDbEntity
  8
ASSI
100
AcDbLine
 62
253
  6
CONTINUOUS
 10
8.9960192266
 20
-11.1582540761
 11
9.0033328357
 21
-11.188967023
  0
LINE
  5
3B4
100
AcDbEntity
  8
ASSI
100
AcDbLine
 62
253
  6
CONTINUOUS
 10
9.0033328357
 20
-11.188967023
 11
9.0079025082
 21
-11.2082940202
  0
SPLINE
  5
3B5
100
AcDbEntity
  8
ASSI
100
AcDbSpline
 62
253
  6
CONTINUOUS
 70
0
 71
3
 72
11
 73
7
 74
5
 42
0.0000001
 43
0.0000001
 44
0.0000000001
 12
1.1331169471
 22
-4.8056667412
 32
0.0
 13
-1.041781526
 23
-4.8262903037
 33
0.0
 40
0.0
 40
0.0
 40
0.0
 40
0.0
 40
0.2759664326
 40
0.5364886039
 40
0.7784724049
 40
1.0
 40
1.0
 40
1.0
 40
1.0
 10
9.0079025082
 20
-11.2082940202
 30
0.0
 10
9.1121365887
 20
-11.6503615892
 30
0.0
 10
9.2787312246
 20
-12.5188501511
 30
0.0
 10
9.4019811934
 20
-13.7962069369
 30
0.0
 10
9.3910280041
 20
-14.9901143224
 30
0.0
 10
9.2891624106
 20
-15.7490821049
 30
0.0
 10
9.2122346253
 20
-16.1054675996
 30
0.0
 11
9.0079025082
 21
-11.2082940202
 31
0.0
 11
9.261920775
 21
-12.5469765933
 31
0.0
 11
9.3814888129
 21
-13.827721893
 31
0.0
 11
9.3648658657
 21
-15.02238854
 31
0.0
 11
9.2122346253
 21
-16.1054675996
 31
0.0
  0
SPLINE
  5
3B6
100
AcDbEntity
  8
ASSI
100
AcDbSpline
 62
253
  6
CONTINUOUS
 70
0
 71
3
 72
9
 73
5
 74
3
 42
0.0000001
 43
0.0000001
 44
0.0000000001
 12
0.0263337373
 22
0.0483997096
 32
0.0
 13
0.0348628542
 23
0.0426682435
 33
0.0
 40
0.0
 40
0.0
 40
0.0
 40
0.0
 40
0.2553807879
 40
1.0
 40
1.0
 40
1.0
 40
1.0
 10
-0.1705717921
 20
-6.5749757598
 30
0.0
 10
-0.1683300819
 20
-6.5708556411
 30
0.0
 10
-0.1591995337
 20
-6.5549180799
 30
0.0
 10
-0.1486293006
 20
-6.5397950966
 30
0.0
 10
-0.1399761169
 20
-6.5292045653
 30
0.0
 11
-0.1705717921
 21
-6.5749757598
 31
0.0
 11
-0.1635726534
 21
-6.5627684735
 31
0.0
 11
-0.1399761169
 21
-6.5292045653
 31
0.0
  0
SPLINE
  5
3B7
100
AcDbEntity
  8
ASSI
100
AcDbSpline
 62
253
  6
CONTINUOUS
 70
0
 71
3
 72
9
 73
5
 74
3
 42
0.0000001
 43
0.0000001
 44
0.0000000001
 12
0.0347707372
 22
0.0425555027
 32
0.0
 13
0.0430859398
 23
0.034111241
 33
0.0
 40
0.0
 40
0.0
 40
0.0
 40
0.0
 40
0.2541539463
 40
1.0
 40
1.0
 40
1.0
 40
1.0
 10
-0.1399761169
 20
-6.5292045653
 30
0.0
 10
-0.1370304102
 20
-6.525599349
 30
0.0
 10
-0.125081754
 20
-6.5117124889
 30
0.0
 10
-0.1116677557
 20
-6.4990733792
 30
0.0
 10
-0.1009559296
 20
-6.490592801
 30
0.0
 11
-0.1399761169
 21
-6.5292045653
 31
0.0
 11
-0.1308621613
 21
-6.5186211459
 31
0.0
 11
-0.1009559296
 21
-6.490592801
 31
0.0
  0
SPLINE
  5
3B8
100
AcDbEntity
  8
ASSI
100
AcDbSpline
 62
253
  6
CONTINUOUS
 70
0
 71
3
 72
11
 73
7
 74
5
 42
0.0000001
 43
0.0000001
 44
0.0000000001
 12
0.2674402809
 22
0.1537002121
 32
0.0
 13
0.2758854815
 23
-0.1379683304
 33
0.0
 40
0.0
 40
0.0
 40
0.0
 40
0.0
 40
0.2257445285
 40
0.4620124786
 40
0.7185440826
 40
1.0
 40
1.0
 40
1.0
 40
1.0
 10
-0.0721415362
 20
-6.4710514087
 30
0.0
 10
-0.0520171429
 20
-6.4594857481
 30
0.0
 10
-0.0069510329
 20
-6.4419996304
 30
0.0
 10
0.0675888197
 20
-6.4361945015
 30
0.0
 10
0.1466711707
 20
-6.4500912171
 30
0.0
 10
0.1983623129
 20
-6.4708231286
 30
0.0
 10
0.2242455133
 20
-6.4837671296
 30
0.0
 11
-0.0721415362
 21
-6.4710514087
 31
0.0
 11
-0.0072942819
 21
-6.4456814454
 31
0.0
 11
0.0653057661
 21
-6.4393065131
 31
0.0
 11
0.1433844369
 21
-6.4521622033
 31
0.0
 11
0.2242455133
 21
-6.4837671296
 31
0.0
  0
SPLINE
  5
3B9
100
AcDbEntity
  8
ASSI
100
AcDbSpline
 62
253
  6
CONTINUOUS
 70
0
 71
3
 72
11
 73
7
 74
5
 42
0.0000001
 43
0.0000001
 44
0.0000000001
 12
1.1495144338
 22
-4.8074362681
 32
0.0
 13
-1.0377897636
 23
-4.8327858748
 33
0.0
 40
0.0
 40
0.0
 40
0.0
 40
0.0
 40
0.2760920637
 40
0.5367076939
 40
0.7786688866
 40
1.0
 40
1.0
 40
1.0
 40
1.0
 10
8.8583457202
 20
-11.1866666565
 30
0.0
 10
8.9641363243
 20
-11.6290983232
 30
0.0
 10
9.1335484503
 20
-12.49842666
 30
0.0
 10
9.2603226746
 20
-13.777217919
 30
0.0
 10
9.2520436496
 20
-14.9722884288
 30
0.0
 10
9.1513646903
 20
-15.7319470465
 30
0.0
 10
9.0747996356
 20
-16.0884956726
 30
0.0
 11
8.8583457202
 21
-11.1866666565
 31
0.0
 11
9.1167259872
 21
-12.5266952093
 31
0.0
 11
9.2398114614
 21
-13.8090134029
 31
0.0
 11
9.225791697
 21
-15.004935074
 31
0.0
 11
9.0747996356
 21
-16.0884956726
 31
0.0
  0
SPLINE
  5
3BA
100
AcDbEntity
  8
ASSI
100
AcDbSpline
 62
253
  6
CONTINUOUS
 70
0
 71
3
 72
9
 73
5
 74
3
 42
0.0000001
 43
0.0000001
 44
0.0000000001
 12
-0.1303428408
 22
-0.0665645483
 32
0.0
 13
0.0022062274
 23
-0.1463394267
 33
0.0
 40
0.0
 40
0.0
 40
0.0
 40
0.0
 40
0.4893474275
 40
1.0
 40
1.0
 40
1.0
 40
1.0
 10
0.294327261
 20
-6.3605401814
 30
0.0
 10
0.2730662831
 20
-6.3713979115
 30
0.0
 10
0.2390247352
 20
-6.4102600307
 30
0.0
 10
0.2238699747
 20
-6.4588575947
 30
0.0
 10
0.2242455133
 20
-6.4837671296
 30
0.0
 11
0.294327261
 21
-6.3605401814
 31
0.0
 11
0.2442726425
 21
-6.411763326
 31
0.0
 11
0.2242455133
 21
-6.4837671296
 31
0.0
  0
SPLINE
  5
3BB
100
AcDbEntity
  8
ASSI
100
AcDbSpline
 62
253
  6
CONTINUOUS
 70
0
 71
3
 72
9
 73
5
 74
3
 42
0.0000001
 43
0.0000001
 44
0.0000000001
 12
-0.0572323844
 22
-0.0257879181
 32
0.0
 13
-0.0614783361
 23
-0.0126876604
 33
0.0
 40
0.0
 40
0.0
 40
0.0
 40
0.0
 40
0.2346547052
 40
1.0
 40
1.0
 40
1.0
 40
1.0
 10
8.9862066806
 20
-11.1630099403
 30
0.0
 10
8.9817300645
 20
-11.1650270258
 30
0.0
 10
8.9623589847
 20
-11.1729634649
 30
0.0
 10
8.9420998307
 20
-11.1786629651
 30
0.0
 10
8.9264157789
 20
-11.1818997788
 30
0.0
 11
8.9862066806
 21
-11.1630099403
 31
0.0
 11
8.9725901346
 21
-11.1686284991
 31
0.0
 11
8.9264157789
 21
-11.1818997788
 31
0.0
  0
SPLINE
  5
3BC
100
AcDbEntity
  8
ASSI
100
AcDbSpline
 62
253
  6
CONTINUOUS
 70
0
 71
3
 72
9
 73
5
 74
3
 42
0.0000001
 43
0.0000001
 44
0.0000000001
 12
-0.0670288525
 22
-0.0138331544
 32
0.0
 13
-0.067888851
 23
0.0086791205
 33
0.0
 40
0.0
 40
0.0
 40
0.0
 40
0.0
 40
0.5466287903
 40
1.0
 40
1.0
 40
1.0
 40
1.0
 10
8.9264157789
 20
-11.1818997788
 30
0.0
 10
8.9142024787
 20
-11.1844203123
 30
0.0
 10
8.8915931655
 20
-11.1877484853
 30
0.0
 10
8.8686053452
 20
-11.1879782733
 30
0.0
 10
8.8583457284
 20
-11.1866666522
 30
0.0
 11
8.9264157789
 21
-11.1818997788
 31
0.0
 11
8.8893715766
 21
-11.1871330558
 31
0.0
 11
8.8583457284
 21
-11.1866666522
 31
0.0
  0
SPLINE
  5
3BD
100
AcDbEntity
  8
ASSI
100
AcDbSpline
 62
253
  6
CONTINUOUS
 70
0
 71
3
 72
10
 73
6
 74
4
 42
0.0000001
 43
0.0000001
 44
0.0000000001
 12
-0.0601076844
 22
-0.2668796
 32
0.0
 13
-0.2460508326
 23
-0.1195685678
 33
0.0
 40
0.0
 40
0.0
 40
0.0
 40
0.0
 40
0.5293671333
 40
0.7682632061
 40
1.0
 40
1.0
 40
1.0
 40
1.0
 10
9.2122346253
 20
-16.1054675996
 30
0.0
 10
9.2016282811
 20
-16.1525600292
 30
0.0
 10
9.1753019154
 20
-16.2202186517
 30
0.0
 10
9.1140498944
 20
-16.2888490425
 30
0.0
 10
9.0777409902
 20
-16.3128198194
 30
0.0
 10
9.0587346465
 20
-16.3220559649
 30
0.0
 11
9.2122346253
 21
-16.1054675996
 31
0.0
 11
9.15550539
 21
-16.2387099241
 31
0.0
 11
9.111683613
 21
-16.2871943196
 31
0.0
 11
9.0587346465
 21
-16.3220559649
 31
0.0
  0
SPLINE
  5
3BE
100
AcDbEntity
  8
ASSI
100
AcDbSpline
 62
253
  6
CONTINUOUS
 70
0
 71
3
 72
9
 73
5
 74
3
 42
0.0000001
 43
0.0000001
 44
0.0000000001
 12
-0.049144607
 22
0.0245489312
 32
0.0
 13
-0.0041759593
 23
0.0547759417
 33
0.0
 40
0.0
 40
0.0
 40
0.0
 40
0.0
 40
0.4550191446
 40
1.0
 40
1.0
 40
1.0
 40
1.0
 10
8.6939942592
 20
-16.2977425456
 30
0.0
 10
8.6865403469
 20
-16.2940191344
 30
0.0
 10
8.6731066399
 20
-16.2797069914
 30
0.0
 10
8.6690474455
 20
-16.2612223993
 30
0.0
 10
8.6682888395
 20
-16.2512717861
 30
0.0
 11
8.6939942592
 21
-16.2977425456
 31
0.0
 11
8.6762560809
 21
-16.2801306623
 31
0.0
 11
8.6682888395
 21
-16.2512717861
 31
0.0
  0
SPLINE
  5
3BF
100
AcDbEntity
  8
ASSI
100
AcDbSpline
 62
253
  6
CONTINUOUS
 70
0
 71
3
 72
9
 73
5
 74
3
 42
0.0000001
 43
0.0000001
 44
0.0000000001
 12
-0.0491446133
 22
0.0245489322
 32
0.0
 13
-0.0041759528
 23
0.0547759482
 33
0.0
 40
0.0
 40
0.0
 40
0.0
 40
0.0
 40
0.4550192004
 40
1.0
 40
1.0
 40
1.0
 40
1.0
 10
0.4987894792
 20
-12.2001401556
 30
0.0
 10
0.491335565
 20
-12.1964167438
 30
0.0
 10
0.4779018538
 20
-12.1821046018
 30
0.0
 10
0.4738426588
 20
-12.1636200068
 30
0.0
 10
0.4730840541
 20
-12.1536693934
 30
0.0
 11
0.4987894792
 21
-12.2001401556
 31
0.0
 11
0.481051295
 21
-12.18252827
 31
0.0
 11
0.4730840541
 21
-12.1536693934
 31
0.0
  0
SPLINE
  5
3C0
100
AcDbEntity
  8
ASSI
100
AcDbSpline
 62
253
  6
CONTINUOUS
 70
0
 71
3
 72
10
 73
6
 74
4
 42
0.0000001
 43
0.0000001
 44
0.0000000001
 12
0.0086334448
 22
-0.0294151574
 32
0.0
 13
0.0303418962
 23
-0.0043768928
 33
0.0
 40
0.0
 40
0.0
 40
0.0
 40
0.0
 40
0.18836634
 40
0.5350323208
 40
1.0
 40
1.0
 40
1.0
 40
1.0
 10
-0.0151813971
 20
-11.5418140459
 30
0.0
 10
-0.0146393137
 20
-11.5436609877
 30
0.0
 10
-0.0117255292
 20
-11.5485423126
 30
0.0
 10
-0.0025011594
 20
-11.5537665909
 30
0.0
 10
0.005625557
 20
-11.5555815626
 30
0.0
 10
0.010328224
 20
-11.5562599339
 30
0.0
 11
-0.0151813971
 21
-11.5418140459
 31
0.0
 11
-0.0123370573
 21
-11.546839498
 31
0.0
 11
-0.0034756781
 21
-11.5527061093
 31
0.0
 11
0.010328224
 21
-11.5562599339
 31
0.0
  0
SPLINE
  5
3C1
100
AcDbEntity
  8
ASSI
100
AcDbSpline
 62
253
  6
CONTINUOUS
 70
0
 71
3
 72
9
 73
5
 74
3
 42
0.0000001
 43
0.0000001
 44
0.0000000001
 12
-0.0376209621
 22
-0.0691900562
 32
0.0
 13
0.0451663264
 23
-0.0645182426
 33
0.0
 40
0.0
 40
0.0
 40
0.0
 40
0.0
 40
0.4661599474
 40
1.0
 40
1.0
 40
1.0
 40
1.0
 10
-0.187712105
 20
-6.4901840099
 30
0.0
 10
-0.1935579003
 20
-6.5009352208
 30
0.0
 10
-0.1976904458
 20
-6.5289126307
 30
0.0
 10
-0.1862189511
 20
-6.5538165704
 30
0.0
 10
-0.1781817531
 20
-6.5652973777
 30
0.0
 11
-0.187712105
 21
-6.4901840099
 31
0.0
 11
-0.1940199172
 21
-6.5263512359
 31
0.0
 11
-0.1781817531
 21
-6.5652973777
 31
0.0
  0
SPLINE
  5
3C2
100
AcDbEntity
  8
ASSI
100
AcDbSpline
 62
253
  6
CONTINUOUS
 70
0
 71
3
 72
9
 73
5
 74
3
 42
0.0000001
 43
0.0000001
 44
0.0000000001
 12
-0.0185410881
 22
-0.0685840692
 32
0.0
 13
0.0536637099
 23
-0.0465591316
 33
0.0
 40
0.0
 40
0.0
 40
0.0
 40
0.0
 40
0.4556693744
 40
1.0
 40
1.0
 40
1.0
 40
1.0
 10
-0.2283799566
 20
-6.5930207985
 30
0.0
 10
-0.2311961586
 20
-6.6034380185
 30
0.0
 10
-0.2281531989
 20
-6.6289281181
 30
0.0
 10
-0.2122848702
 20
-6.6477719325
 30
0.0
 10
-0.2025479366
 20
-6.6562197862
 30
0.0
 11
-0.2283799566
 21
-6.5930207985
 31
0.0
 11
-0.2257600014
 21
-6.6252881354
 31
0.0
 11
-0.2025479366
 21
-6.6562197862
 31
0.0
  0
SPLINE
  5
3C3
100
AcDbEntity
  8
ASSI
100
AcDbSpline
 62
253
  6
CONTINUOUS
 70
0
 71
3
 72
9
 73
5
 74
3
 42
0.0000001
 43
0.0000001
 44
0.0000000001
 12
0.1746491682
 22
0.0890135518
 32
0.0
 13
0.1934323506
 23
-0.0317753068
 33
0.0
 40
0.0
 40
0.0
 40
0.0
 40
0.0
 40
0.4826998775
 40
1.0
 40
1.0
 40
1.0
 40
1.0
 10
-0.0367717439
 20
-6.339527281
 30
0.0
 10
-0.0086706999
 20
-6.3252050042
 30
0.0
 10
0.0552994976
 20
-6.3059129228
 30
0.0
 10
0.1216722063
 20
-6.3083268301
 30
0.0
 10
0.1550263991
 20
-6.3138059534
 30
0.0
 11
-0.0367717439
 21
-6.339527281
 31
0.0
 11
0.0536458962
 21
-6.3116379109
 31
0.0
 11
0.1550263991
 21
-6.3138059534
 31
0.0
  0
SPLINE
  5
3C4
100
AcDbEntity
  8
ASSI
100
AcDbSpline
 62
253
  6
CONTINUOUS
 70
0
 71
3
 72
9
 73
5
 74
3
 42
0.0000001
 43
0.0000001
 44
0.0000000001
 12
0.0697465314
 22
-0.0114573257
 32
0.0
 13
0.0670321325
 23
-0.0224174521
 33
0.0
 40
0.0
 40
0.0
 40
0.0
 40
0.0
 40
0.2436137276
 40
1.0
 40
1.0
 40
1.0
 40
1.0
 10
0.1550263991
 20
-6.3138059534
 30
0.0
 10
0.1606901366
 20
-6.3147363407
 30
0.0
 10
0.1838545614
 20
-6.3190615961
 30
0.0
 10
0.2066417484
 20
-6.3253382999
 30
0.0
 10
0.2235424767
 20
-6.3309903842
 30
0.0
 11
0.1550263991
 21
-6.3138059534
 31
0.0
 11
0.1719540922
 21
-6.3169595378
 31
0.0
 11
0.2235424767
 21
-6.3309903842
 31
0.0
  0
SPLINE
  5
3C5
100
AcDbEntity
  8
ASSI
100
AcDbSpline
 62
253
  6
CONTINUOUS
 70
0
 71
3
 72
9
 73
5
 74
3
 42
0.0000001
 43
0.0000001
 44
0.0000000001
 12
-0.0295012912
 22
-0.1371689767
 32
0.0
 13
-0.0876579275
 23
-0.1095524627
 33
0.0
 40
0.0
 40
0.0
 40
0.0
 40
0.0
 40
0.268827246
 40
1.0
 40
1.0
 40
1.0
 40
1.0
 10
9.0747996356
 20
-16.0884956726
 30
0.0
 10
9.072156052
 20
-16.1007872587
 30
0.0
 10
9.0602665522
 20
-16.1459752146
 30
0.0
 10
9.0390487679
 20
-16.1892196163
 30
0.0
 10
9.0176844052
 20
-16.2159202083
 30
0.0
 11
9.0747996356
 21
-16.0884956726
 31
0.0
 11
9.0650894718
 21
-16.1249423092
 31
0.0
 11
9.0176844052
 21
-16.2159202083
 31
0.0
  0
SPLINE
  5
3C6
100
AcDbEntity
  8
ASSI
100
AcDbSpline
 62
253
  6
CONTINUOUS
 70
0
 71
3
 72
9
 73
5
 74
3
 42
0.0000001
 43
0.0000001
 44
0.0000000001
 12
-0.1503526096
 22
-0.0732709579
 32
0.0
 13
-0.1639872069
 23
0.0329049609
 33
0.0
 40
0.0
 40
0.0
 40
0.0
 40
0.0
 40
0.4754801318
 40
1.0
 40
1.0
 40
1.0
 40
1.0
 10
8.9446036433
 20
-16.2749429622
 30
0.0
 10
8.9207737504
 20
-16.2865559237
 30
0.0
 10
8.8655256262
 20
-16.3011820785
 30
0.0
 10
8.8090524478
 20
-16.2967471552
 30
0.0
 10
8.7803809317
 20
-16.2909940533
 30
0.0
 11
8.9446036433
 21
-16.2749429622
 31
0.0
 11
8.8679580178
 21
-16.2961554614
 31
0.0
 11
8.7803809317
 21
-16.2909940533
 31
0.0
  0
SPLINE
  5
3C7
100
AcDbEntity
  8
ASSI
100
AcDbSpline
 62
253
  6
CONTINUOUS
 70
0
 71
3
 72
9
 73
5
 74
3
 42
0.0000001
 43
0.0000001
 44
0.0000000001
 12
-0.0757106552
 22
0.0151917713
 32
0.0
 13
-0.0716319573
 23
0.0288401788
 33
0.0
 40
0.0
 40
0.0
 40
0.0
 40
0.0
 40
0.2408314495
 40
1.0
 40
1.0
 40
1.0
 40
1.0
 10
8.7803809317
 20
-16.2909940533
 30
0.0
 10
8.7743030961
 20
-16.2897745012
 30
0.0
 10
8.7491996483
 20
-16.2840523757
 30
0.0
 10
8.7246887618
 20
-16.2758447137
 30
0.0
 10
8.706561852
 20
-16.2685465282
 30
0.0
 11
8.7803809317
 21
-16.2909940533
 31
0.0
 11
8.7622460651
 21
-16.286874205
 31
0.0
 11
8.706561852
 21
-16.2685465282
 31
0.0
  0
SPLINE
  5
3C8
100
AcDbEntity
  8
ASSI
100
AcDbSpline
 62
253
  6
CONTINUOUS
 70
0
 71
3
 72
9
 73
5
 74
3
 42
0.0000001
 43
0.0000001
 44
0.0000000001
 12
-0.1258078023
 22
-0.0701802696
 32
0.0
 13
-0.1104446028
 23
0.0924925028
 33
0.0
 40
0.0
 40
0.0
 40
0.0
 40
0.0
 40
0.4881754182
 40
1.0
 40
1.0
 40
1.0
 40
1.0
 10
9.2122140937
 20
-16.105449347
 30
0.0
 10
9.1917420015
 20
-16.1168694411
 30
0.0
 10
9.140648535
 20
-16.122988479
 30
0.0
 10
9.0936426888
 20
-16.1042754708
 30
0.0
 10
9.0747999346
 20
-16.088495492
 30
0.0
 11
9.2122140937
 21
-16.105449347
 31
0.0
 11
9.142830995
 21
-16.1169259139
 31
0.0
 11
9.0747999346
 21
-16.088495492
 31
0.0
  0
SPLINE
  5
3C9
100
AcDbEntity
  8
ASSI
100
AcDbSpline
 62
253
  6
CONTINUOUS
 70
0
 71
3
 72
11
 73
7
 74
5
 42
0.0000001
 43
0.0000001
 44
0.0000000001
 12
0.6701831108
 22
-0.3350764672
 32
0.0
 13
0.2609188377
 23
-0.7023837989
 33
0.0
 40
0.0
 40
0.0
 40
0.0
 40
0.0
 40
0.2241109563
 40
0.4719824411
 40
0.7344840874
 40
1.0
 40
1.0
 40
1.0
 40
1.0
 10
8.4895320465
 20
-10.4581425741
 30
0.0
 10
8.5395971724
 20
-10.4831740099
 30
0.0
 10
8.6379591337
 20
-10.5503816691
 30
0.0
 10
8.7663783714
 20
-10.6826670843
 30
0.0
 10
8.876203009
 20
-10.8433686884
 30
0.0
 10
8.9325441935
 20
-10.9633584928
 30
0.0
 10
8.9556368946
 20
-11.0255231846
 30
0.0
 11
8.4895320465
 21
-10.4581425741
 31
0.0
 11
8.6294362421
 21
-10.5510114203
 31
0.0
 11
8.7598121262
 21
-10.6832839712
 31
0.0
 11
8.8712292059
 21
-10.8453709216
 31
0.0
 11
8.9556368946
 21
-11.0255231846
 31
0.0
  0
SPLINE
  5
3CA
100
AcDbEntity
  8
ASSI
100
AcDbSpline
 62
253
  6
CONTINUOUS
 70
0
 71
3
 72
9
 73
5
 74
3
 42
0.0000001
 43
0.0000001
 44
0.0000000001
 12
-0.4762582665
 22
0.3285914236
 32
0.0
 13
-0.2198831188
 23
0.5352061978
 33
0.0
 40
0.0
 40
0.0
 40
0.0
 40
0.0
 40
0.4841812889
 40
1.0
 40
1.0
 40
1.0
 40
1.0
 10
0.3963123827
 20
-12.1079631901
 30
0.0
 10
0.3194472689
 20
-12.0549305838
 30
0.0
 10
0.1810264337
 20
-11.9158056675
 30
0.0
 10
0.0829265673
 20
-11.7471207505
 30
0.0
 10
0.0451199583
 20
-11.6550976268
 30
0.0
 11
0.3963123827
 21
-12.1079631901
 31
0.0
 11
0.1948582182
 21
-11.9132774253
 31
0.0
 11
0.0451199583
 21
-11.6550976268
 31
0.0
  0
SPLINE
  5
3CB
100
AcDbEntity
  8
ASSI
100
AcDbSpline
 62
253
  6
CONTINUOUS
 70
0
 71
3
 72
10
 73
6
 74
4
 42
0.0000001
 43
0.0000001
 44
0.0000000001
 12
0.5787562544
 22
-0.2893502795
 32
0.0
 13
0.226391209
 23
-0.6061595555
 33
0.0
 40
0.0
 40
0.0
 40
0.0
 40
0.0
 40
0.2245122935
 40
0.4728581526
 40
1.0
 40
1.0
 40
1.0
 40
1.0
 10
8.4194502987
 20
-10.5813695223
 30
0.0
 10
8.4627629301
 20
-10.6030237539
 30
0.0
 10
8.547908469
 20
-10.6611804113
 30
0.0
 10
8.6987658833
 20
-10.8163786997
 30
0.0
 10
8.7834205692
 20
-10.9653512978
 30
0.0
 10
8.8232006626
 20
-11.0718619871
 30
0.0
 11
8.4194502987
 21
-10.5813695223
 31
0.0
 11
8.5405033129
 21
-10.6616825087
 31
0.0
 11
8.6533914364
 21
-10.7760450309
 31
0.0
 11
8.8232006626
 21
-11.0718619871
 31
0.0
  0
SPLINE
  5
3CC
100
AcDbEntity
  8
RACCORDO
100
AcDbSpline
 62
253
  6
CONTINUOUS
 70
0
 71
3
 72
9
 73
5
 74
3
 42
0.0000001
 43
0.0000001
 44
0.0000000001
 12
-0.0185827892
 22
-0.0685704679
 32
0.0
 13
0.0536620228
 23
-0.0465576678
 33
0.0
 40
0.0
 40
0.0
 40
0.0
 40
0.0
 40
0.4559564437
 40
1.0
 40
1.0
 40
1.0
 40
1.0
 10
-0.2283940316
 20
-6.5930174098
 30
0.0
 10
-0.2312183457
 20
-6.6034391254
 30
0.0
 10
-0.2281160107
 20
-6.6289265434
 30
0.0
 10
-0.2122794292
 20
-6.6477766532
 30
0.0
 10
-0.2025479366
 20
-6.6562197862
 30
0.0
 11
-0.2283940316
 21
-6.5930174098
 31
0.0
 11
-0.225741884
 21
-6.6253015586
 31
0.0
 11
-0.2025479366
 21
-6.6562197862
 31
0.0
  0
SPLINE
  5
3CD
100
AcDbEntity
  8
RACCORDO
100
AcDbSpline
 62
253
  6
CONTINUOUS
 70
0
 71
3
 72
9
 73
5
 74
3
 42
0.0000001
 43
0.0000001
 44
0.0000000001
 12
-0.036030861
 22
-0.0656107463
 32
0.0
 13
0.0404865725
 23
-0.0629589583
 33
0.0
 40
0.0
 40
0.0
 40
0.0
 40
0.0
 40
0.467870283
 40
1.0
 40
1.0
 40
1.0
 40
1.0
 10
-0.1876971999
 20
-6.4901925964
 30
0.0
 10
-0.1933164562
 20
-6.5004250359
 30
0.0
 10
-0.1976753103
 20
-6.5268331658
 30
0.0
 10
-0.1875890774
 20
-6.5507866344
 30
0.0
 10
-0.1804077079
 20
-6.5619540786
 30
0.0
 11
-0.1876971999
 21
-6.4901925964
 31
0.0
 11
-0.1942331457
 21
-6.5245988626
 31
0.0
 11
-0.1804077079
 21
-6.5619540786
 31
0.0
  0
SPLINE
  5
3CE
100
AcDbEntity
  8
RACCORDO
100
AcDbSpline
 62
253
  6
CONTINUOUS
 70
0
 71
3
 72
10
 73
6
 74
4
 42
0.0000001
 43
0.0000001
 44
0.0000000001
 12
0.0086299084
 22
-0.0294090905
 32
0.0
 13
0.0303351487
 23
-0.0043759201
 33
0.0
 40
0.0
 40
0.0
 40
0.0
 40
0.0
 40
0.1887007477
 40
0.5366280062
 40
1.0
 40
1.0
 40
1.0
 40
1.0
 10
-0.0151949501
 20
-11.5418181986
 30
0.0
 10
-0.0146521267
 20
-11.5436680377
 30
0.0
 10
-0.01170056
 20
-11.5485491865
 30
0.0
 10
-0.0024710432
 20
-11.5537380822
 30
0.0
 10
0.0056427379
 20
-11.5555840409
 30
0.0
 10
0.010328224
 20
-11.5562599339
 30
0.0
 11
-0.0151949501
 21
-11.5418181986
 31
0.0
 11
-0.012328881
 21
-11.5468416144
 31
0.0
 11
-0.0034214341
 21
-11.5527043177
 31
0.0
 11
0.010328224
 21
-11.5562599339
 31
0.0
  0
SPLINE
  5
3CF
100
AcDbEntity
  8
RACCORDO
100
AcDbSpline
 62
253
  6
CONTINUOUS
 70
0
 71
3
 72
10
 73
6
 74
4
 42
0.0000001
 43
0.0000001
 44
0.0000000001
 12
0.6689942135
 22
-0.3344820453
 32
0.0
 13
0.2604559707
 23
-0.7011377779
 33
0.0
 40
0.0
 40
0.0
 40
0.0
 40
0.0
 40
0.2246222747
 40
0.4729638928
 40
1.0
 40
1.0
 40
1.0
 40
1.0
 10
8.4895320465
 20
-10.4581425741
 30
0.0
 10
8.5396223805
 20
-10.4831866134
 30
0.0
 10
8.6380524671
 20
-10.5504585888
 30
0.0
 10
8.8122841963
 20
-10.7300092968
 30
0.0
 10
8.9098803276
 20
-10.9023482095
 30
0.0
 10
8.9556368946
 20
-11.0255231846
 30
0.0
 11
8.4895320465
 21
-10.4581425741
 31
0.0
 11
8.6295017121
 21
-10.5510656708
 31
0.0
 11
8.7598800127
 21
-10.6833669568
 31
0.0
 11
8.9556368946
 21
-11.0255231846
 31
0.0
  0
SPLINE
  5
3D0
100
AcDbEntity
  8
RACCORDO
100
AcDbSpline
 62
253
  6
CONTINUOUS
 70
0
 71
3
 72
10
 73
6
 74
4
 42
0.0000001
 43
0.0000001
 44
0.0000000001
 12
0.5787568797
 22
-0.2893505922
 32
0.0
 13
0.2263914537
 23
-0.6061602105
 33
0.0
 40
0.0
 40
0.0
 40
0.0
 40
0.0
 40
0.2246281514
 40
0.4730034338
 40
1.0
 40
1.0
 40
1.0
 40
1.0
 10
8.4194502987
 20
-10.5813695223
 30
0.0
 10
8.4627853281
 20
-10.6030349518
 30
0.0
 10
8.5479537384
 20
-10.661216251
 30
0.0
 10
8.6987961789
 20
-10.8164290182
 30
0.0
 10
8.7834314897
 20
-10.9653805373
 30
0.0
 10
8.8232006626
 20
-11.0718619871
 30
0.0
 11
8.4194502987
 21
-10.5813695223
 31
0.0
 11
8.5405611988
 21
-10.6617311446
 31
0.0
 11
8.6534514791
 21
-10.7761185322
 31
0.0
 11
8.8232006626
 21
-11.0718619871
 31
0.0
  0
SPLINE
  5
3D1
100
AcDbEntity
  8
RACCORDO
100
AcDbSpline
 62
253
  6
CONTINUOUS
 70
0
 71
3
 72
9
 73
5
 74
3
 42
0.0000001
 43
0.0000001
 44
0.0000000001
 12
-0.1303464008
 22
-0.0665663636
 32
0.0
 13
0.0022062916
 23
-0.1463434223
 33
0.0
 40
0.0
 40
0.0
 40
0.0
 40
0.0
 40
0.489343516
 40
1.0
 40
1.0
 40
1.0
 40
1.0
 10
8.4895320465
 20
-10.4581425741
 30
0.0
 10
8.4682706578
 20
-10.4690005136
 30
0.0
 10
8.434216058
 20
-10.5078542902
 30
0.0
 10
8.4190747464
 20
-10.5564591165
 30
0.0
 10
8.4194502987
 20
-10.5813695223
 30
0.0
 11
8.4895320465
 21
-10.4581425741
 31
0.0
 11
8.4394707833
 21
-10.5093611587
 31
0.0
 11
8.4194502987
 21
-10.5813695223
 31
0.0
  0
SPLINE
  5
3D2
100
AcDbEntity
  8
RACCORDO
100
AcDbSpline
 62
253
  6
CONTINUOUS
 70
0
 71
3
 72
9
 73
5
 74
3
 42
0.0000001
 43
0.0000001
 44
0.0000000001
 12
0.0419961122
 22
-0.1125239462
 32
0.0
 13
0.0279260938
 23
-0.1168137201
 33
0.0
 40
0.0
 40
0.0
 40
0.0
 40
0.0
 40
0.2533326683
 40
1.0
 40
1.0
 40
1.0
 40
1.0
 10
8.8232006626
 20
-11.0718619871
 30
0.0
 10
8.8267469916
 20
-11.0813639843
 30
0.0
 10
8.840190303
 20
-11.1190760239
 30
0.0
 10
8.8513952196
 20
-11.1575929936
 30
0.0
 10
8.8583457202
 20
-11.1866666565
 30
0.0
 11
8.8232006626
 21
-11.0718619871
 31
0.0
 11
8.8334145971
 21
-11.1005230259
 31
0.0
 11
8.8583457202
 21
-11.1866666565
 31
0.0
  0
SPLINE
  5
3D3
100
AcDbEntity
  8
RACCORDO
100
AcDbSpline
 62
253
  6
CONTINUOUS
 70
0
 71
3
 72
10
 73
6
 74
4
 42
0.0000001
 43
0.0000001
 44
0.0000000001
 12
-0.1246588821
 22
-0.0652402232
 32
0.0
 13
-0.139116421
 23
-0.0210415072
 33
0.0
 40
0.0
 40
0.0
 40
0.0
 40
0.0
 40
0.5256380714
 40
0.7890222736
 40
1.0
 40
1.0
 40
1.0
 40
1.0
 10
8.9556376355
 20
-11.0255230724
 30
0.0
 10
8.9337958174
 20
-11.0369539875
 30
0.0
 10
8.8993758605
 20
-11.0510282411
 30
0.0
 10
8.8546854282
 20
-11.0652040482
 30
0.0
 10
8.8329841629
 20
-11.0703822179
 30
0.0
 10
8.8232006742
 20
-11.071861981
 30
0.0
 11
8.9556376355
 21
-11.0255230724
 31
0.0
 11
8.8875618213
 21
-11.0544239558
 31
0.0
 11
8.8521886522
 21
-11.0654702451
 31
0.0
 11
8.8232006742
 21
-11.071861981
 31
0.0
  0
LINE
  5
3D4
100
AcDbEntity
  8
RACCORDO
100
AcDbLine
 62
253
  6
CONTINUOUS
 10
8.9960192266
 20
-11.1582540761
 11
9.0033703625
 21
-11.1891250653
  0
LINE
  5
3D5
100
AcDbEntity
  8
RACCORDO
100
AcDbLine
 62
253
  6
CONTINUOUS
 10
9.0033703625
 20
-11.1891250653
 11
9.0079222377
 21
-11.2083770749
  0
SPLINE
  5
3D6
100
AcDbEntity
  8
RACCORDO
100
AcDbSpline
 62
253
  6
CONTINUOUS
 70
0
 71
3
 72
11
 73
7
 74
5
 42
0.0000001
 43
0.0000001
 44
0.0000000001
 12
1.1015641408
 22
-4.7513490764
 32
0.0
 13
-1.0291059441
 23
-4.7675677822
 33
0.0
 40
0.0
 40
0.0
 40
0.0
 40
0.0
 40
0.2758175869
 40
0.536256219
 40
0.7782748624
 40
1.0
 40
1.0
 40
1.0
 40
1.0
 10
9.0215968871
 20
-11.2668618271
 30
0.0
 10
9.1228738082
 20
-11.7036970393
 30
0.0
 10
9.2844376654
 20
-12.5617828936
 30
0.0
 10
9.402739835
 20
-13.8235729783
 30
0.0
 10
9.3896132009
 20
-15.003139042
 30
0.0
 10
9.2882941776
 20
-15.7531043921
 30
0.0
 10
9.2122346253
 20
-16.1054675996
 30
0.0
 11
9.0215968871
 21
-11.2668618271
 31
0.0
 11
9.2678942726
 21
-12.5893881046
 31
0.0
 11
9.3825731548
 21
-13.8544570996
 31
0.0
 11
9.3639396453
 21
-15.0347250737
 31
0.0
 11
9.2122346253
 21
-16.1054675996
 31
0.0
  0
SPLINE
  5
3D7
100
AcDbEntity
  8
RACCORDO
100
AcDbSpline
 62
253
  6
CONTINUOUS
 70
0
 71
3
 72
11
 73
7
 74
5
 42
0.0000001
 43
0.0000001
 44
0.0000000001
 12
1.1495144532
 22
-4.8074363493
 32
0.0
 13
-1.0377897811
 23
-4.8327859565
 33
0.0
 40
0.0
 40
0.0
 40
0.0
 40
0.0
 40
0.2760717701
 40
0.5366982864
 40
0.7786717028
 40
1.0
 40
1.0
 40
1.0
 40
1.0
 10
8.8583457202
 20
-11.1866666565
 30
0.0
 10
8.9641285502
 20
-11.6290658107
 30
0.0
 10
9.13353412
 20
-12.4983788456
 30
0.0
 10
9.2603332536
 20
-13.7771729655
 30
0.0
 10
9.2520388696
 20
-14.9722772672
 30
0.0
 10
9.1513637174
 20
-15.731951577
 30
0.0
 10
9.0747996356
 20
-16.0884956726
 30
0.0
 11
8.8583457202
 21
-11.1866666565
 31
0.0
 11
9.1167099306
 21
-12.5265961711
 31
0.0
 11
9.2398144561
 21
-13.8089666143
 31
0.0
 11
9.2257884502
 21
-15.0049486574
 31
0.0
 11
9.0747996356
 21
-16.0884956726
 31
0.0
  0
SPLINE
  5
3D8
100
AcDbEntity
  8
RACCORDO
100
AcDbSpline
 62
253
  6
CONTINUOUS
 70
0
 71
3
 72
8
 73
4
 74
2
 42
0.0000001
 43
0.0000001
 44
0.0000000001
 12
-0.0130528368
 22
-0.0068280748
 32
0.0
 13
-0.0135379779
 23
-0.0058070913
 33
0.0
 40
0.0
 40
0.0
 40
0.0
 40
0.0
 40
1.0
 40
1.0
 40
1.0
 40
1.0
 10
8.9960191924
 20
-11.1582540716
 30
0.0
 10
8.9916682468
 20
-11.1605300965
 30
0.0
 10
8.9872116161
 20
-11.1626088815
 30
0.0
 10
8.9826989568
 20
-11.1645445786
 30
0.0
 11
8.9960191924
 21
-11.1582540716
 31
0.0
 11
8.9826989568
 21
-11.1645445786
 31
0.0
  0
SPLINE
  5
3D9
100
AcDbEntity
  8
RACCORDO
100
AcDbSpline
 62
253
  6
CONTINUOUS
 70
0
 71
3
 72
9
 73
5
 74
3
 42
0.0000001
 43
0.0000001
 44
0.0000000001
 12
-0.0620916638
 22
-0.0266341077
 32
0.0
 13
-0.0665195093
 23
-0.0118281562
 33
0.0
 40
0.0
 40
0.0
 40
0.0
 40
0.0
 40
0.2374433119
 40
1.0
 40
1.0
 40
1.0
 40
1.0
 10
8.9826989568
 20
-11.1645445786
 30
0.0
 10
8.97778454
 20
-11.1666526089
 30
0.0
 10
8.9567836528
 20
-11.1748100832
 30
0.0
 10
8.9348513343
 20
-11.1805253081
 30
0.0
 10
8.9179430353
 20
-11.1835318547
 30
0.0
 11
8.9826989568
 21
-11.1645445786
 31
0.0
 11
8.9677589861
 21
-11.170388792
 31
0.0
 11
8.9179430353
 21
-11.1835318547
 31
0.0
  0
SPLINE
  5
3DA
100
AcDbEntity
  8
RACCORDO
100
AcDbSpline
 62
253
  6
CONTINUOUS
 70
0
 71
3
 72
9
 73
5
 74
3
 42
0.0000001
 43
0.0000001
 44
0.0000000001
 12
-0.0588613876
 22
-0.0104664285
 32
0.0
 13
-0.0593020415
 23
0.0075813562
 33
0.0
 40
0.0
 40
0.0
 40
0.0
 40
0.0
 40
0.2812040636
 40
1.0
 40
1.0
 40
1.0
 40
1.0
 10
8.9179430353
 20
-11.1835318547
 30
0.0
 10
8.9124256815
 20
-11.1845129221
 30
0.0
 10
8.8927370077
 20
-11.18741577
 30
0.0
 10
8.8725544172
 20
-11.1884831349
 30
0.0
 10
8.8583457284
 20
-11.1866666522
 30
0.0
 11
8.9179430353
 21
-11.1835318547
 31
0.0
 11
8.9013135545
 21
-11.1860003652
 31
0.0
 11
8.8583457284
 21
-11.1866666522
 31
0.0
  0
SPLINE
  5
3DB
100
AcDbEntity
  8
RACCORDO
100
AcDbSpline
 62
253
  6
CONTINUOUS
 70
0
 71
3
 72
9
 73
5
 74
3
 42
0.0000001
 43
0.0000001
 44
0.0000000001
 12
-0.0360173555
 22
-0.159917946
 32
0.0
 13
-0.1033869946
 23
-0.1272089961
 33
0.0
 40
0.0
 40
0.0
 40
0.0
 40
0.0
 40
0.2684910365
 40
1.0
 40
1.0
 40
1.0
 40
1.0
 10
9.2122346253
 20
-16.1054675996
 30
0.0
 10
9.2090111796
 20
-16.119779778
 30
0.0
 10
9.1946009866
 20
-16.1724383365
 30
0.0
 10
9.1693271002
 20
-16.2227001405
 30
0.0
 10
9.1441175958
 20
-16.2537183142
 30
0.0
 11
9.2122346253
 21
-16.1054675996
 31
0.0
 11
9.2004900285
 21
-16.147883704
 31
0.0
 11
9.1441175958
 21
-16.2537183142
 31
0.0
  0
SPLINE
  5
3DC
100
AcDbEntity
  8
RACCORDO
100
AcDbSpline
 62
253
  6
CONTINUOUS
 70
0
 71
3
 72
9
 73
5
 74
3
 42
0.0000001
 43
0.0000001
 44
0.0000000001
 12
-0.0692824579
 22
-0.0852462339
 32
0.0
 13
-0.0988010335
 23
-0.0480139057
 33
0.0
 40
0.0
 40
0.0
 40
0.0
 40
0.0
 40
0.2556954472
 40
1.0
 40
1.0
 40
1.0
 40
1.0
 10
9.1441175958
 20
-16.2537183142
 30
0.0
 10
9.1382125261
 20
-16.2609840055
 30
0.0
 10
9.1137257317
 20
-16.2882336107
 30
0.0
 10
9.0832511051
 20
-16.3101413515
 30
0.0
 10
9.0587384188
 20
-16.3220536744
 30
0.0
 11
9.1441175958
 21
-16.2537183142
 31
0.0
 11
9.125298717
 21
-16.2745699535
 31
0.0
 11
9.0587384188
 21
-16.3220536744
 31
0.0
  0
SPLINE
  5
3DD
100
AcDbEntity
  8
RACCORDO
100
AcDbSpline
 62
253
  6
CONTINUOUS
 70
0
 71
3
 72
9
 73
5
 74
3
 42
0.0000001
 43
0.0000001
 44
0.0000000001
 12
-0.029453569
 22
-0.1369470877
 32
0.0
 13
-0.0874077488
 23
-0.1094618793
 33
0.0
 40
0.0
 40
0.0
 40
0.0
 40
0.0
 40
0.268796618
 40
1.0
 40
1.0
 40
1.0
 40
1.0
 10
9.0747996356
 20
-16.0884956726
 30
0.0
 10
9.0721606291
 20
-16.1007659773
 30
0.0
 10
9.0602934317
 20
-16.1458819323
 30
0.0
 10
9.0391329268
 20
-16.1890607607
 30
0.0
 10
9.0178286463
 20
-16.2157403928
 30
0.0
 11
9.0747996356
 21
-16.0884956726
 31
0.0
 11
9.0651094475
 21
-16.124880049
 31
0.0
 11
9.0178286463
 21
-16.2157403928
 31
0.0
  0
SPLINE
  5
3DE
100
AcDbEntity
  8
RACCORDO
100
AcDbSpline
 62
253
  6
CONTINUOUS
 70
0
 71
3
 72
9
 73
5
 74
3
 42
0.0000001
 43
0.0000001
 44
0.0000000001
 12
-0.0588645946
 22
-0.0737169099
 32
0.0
 13
-0.0847489479
 23
-0.0414347577
 33
0.0
 40
0.0
 40
0.0
 40
0.0
 40
0.0
 40
0.2557329586
 40
1.0
 40
1.0
 40
1.0
 40
1.0
 10
9.0178286463
 20
-16.2157403928
 30
0.0
 10
9.012810774
 20
-16.2220243406
 30
0.0
 10
8.9919697755
 20
-16.2455934024
 30
0.0
 10
8.9658704641
 20
-16.2645449123
 30
0.0
 10
8.9448451812
 20
-16.2748244204
 30
0.0
 11
9.0178286463
 21
-16.2157403928
 31
0.0
 11
9.0018074233
 21
-16.2337771275
 31
0.0
 11
8.9448451812
 21
-16.2748244204
 31
0.0
  0
SPLINE
  5
3DF
100
AcDbEntity
  8
RACCORDO
100
AcDbSpline
 62
253
  6
CONTINUOUS
 70
0
 71
3
 72
9
 73
5
 74
3
 42
0.0000001
 43
0.0000001
 44
0.0000000001
 12
-0.1181510549
 22
-0.0577654408
 32
0.0
 13
-0.1310022858
 23
0.011615466
 33
0.0
 40
0.0
 40
0.0
 40
0.0
 40
0.0
 40
0.4825895872
 40
1.0
 40
1.0
 40
1.0
 40
1.0
 10
8.9448451812
 20
-16.2748244204
 30
0.0
 10
8.925839025
 20
-16.2841167538
 30
0.0
 10
8.8832764321
 20
-16.2973183412
 30
0.0
 10
8.8389244449
 20
-16.298230392
 30
0.0
 10
8.8163304626
 20
-16.296227071
 30
0.0
 11
8.9448451812
 21
-16.2748244204
 31
0.0
 11
8.8843417598
 21
-16.2939965076
 31
0.0
 11
8.8163304626
 21
-16.296227071
 31
0.0
  0
SPLINE
  5
3E0
100
AcDbEntity
  8
RACCORDO
100
AcDbSpline
 62
253
  6
CONTINUOUS
 70
0
 71
3
 72
9
 73
5
 74
3
 42
0.0000001
 43
0.0000001
 44
0.0000000001
 12
-0.0360373509
 22
0.0031952925
 32
0.0
 13
-0.03547479
 23
0.0071021002
 33
0.0
 40
0.0
 40
0.0
 40
0.0
 40
0.0
 40
0.2453172519
 40
1.0
 40
1.0
 40
1.0
 40
1.0
 10
8.8163304626
 20
-16.296227071
 30
0.0
 10
8.8133836013
 20
-16.2959657842
 30
0.0
 10
8.801386841
 20
-16.2947281026
 30
0.0
 10
8.7894620054
 20
-16.292812069
 30
0.0
 10
8.7805379348
 20
-16.2910254582
 30
0.0
 11
8.8163304626
 21
-16.296227071
 31
0.0
 11
8.8075019052
 21
-16.2953177113
 31
0.0
 11
8.7805379348
 21
-16.2910254582
 31
0.0
  0
SPLINE
  5
3E1
100
AcDbEntity
  8
RACCORDO
100
AcDbSpline
 62
253
  6
CONTINUOUS
 70
0
 71
3
 72
9
 73
5
 74
3
 42
0.0000001
 43
0.0000001
 44
0.0000000001
 12
-0.0757651481
 22
0.0151682836
 32
0.0
 13
-0.071683964
 23
0.0288417025
 33
0.0
 40
0.0
 40
0.0
 40
0.0
 40
0.0
 40
0.2408220317
 40
1.0
 40
1.0
 40
1.0
 40
1.0
 10
8.7805379348
 20
-16.2910254582
 30
0.0
 10
8.7744559625
 20
-16.2898078392
 30
0.0
 10
8.7493343047
 20
-16.2840922911
 30
0.0
 10
8.7248052906
 20
-16.2758865583
 30
0.0
 10
8.7066649952
 20
-16.2685878966
 30
0.0
 11
8.7805379348
 21
-16.2910254582
 31
0.0
 11
8.7623906357
 21
-16.2869105605
 31
0.0
 11
8.7066649952
 21
-16.2685878966
 31
0.0
  0
SPLINE
  5
3E2
100
AcDbEntity
  8
RACCORDO
100
AcDbSpline
 62
253
  6
CONTINUOUS
 70
0
 71
3
 72
9
 73
5
 74
3
 42
0.0000001
 43
0.0000001
 44
0.0000000001
 12
-0.1258119081
 22
-0.0701825717
 32
0.0
 13
-0.1104482122
 23
0.0924955243
 33
0.0
 40
0.0
 40
0.0
 40
0.0
 40
0.0
 40
0.4881716157
 40
1.0
 40
1.0
 40
1.0
 40
1.0
 10
9.2122140937
 20
-16.105449347
 30
0.0
 10
9.1917414928
 20
-16.1168697268
 30
0.0
 10
9.1406469699
 20
-16.123005013
 30
0.0
 10
9.0936434446
 20
-16.1042761035
 30
0.0
 10
9.0747999346
 20
-16.088495492
 30
0.0
 11
9.2122140937
 21
-16.105449347
 31
0.0
 11
9.1428306331
 21
-16.1169344476
 31
0.0
 11
9.0747999346
 21
-16.088495492
 31
0.0
  0
SPLINE
  5
3E3
100
AcDbEntity
  8
RACCORDO
100
AcDbSpline
 62
253
  6
CONTINUOUS
 70
0
 71
3
 72
9
 73
5
 74
3
 42
0.0000001
 43
0.0000001
 44
0.0000000001
 12
-0.0801360715
 22
0.0400942975
 32
0.0
 13
-0.0737400258
 23
0.0509092451
 33
0.0
 40
0.0
 40
0.0
 40
0.0
 40
0.0
 40
0.2417632768
 40
1.0
 40
1.0
 40
1.0
 40
1.0
 10
0.4730840541
 20
-12.1536693934
 30
0.0
 10
0.4666260677
 20
-12.1504382838
 30
0.0
 10
0.4401757156
 20
-12.1365531226
 30
0.0
 10
0.4147707792
 20
-12.1207064101
 30
0.0
 10
0.3961333141
 20
-12.1078393237
 30
0.0
 11
0.4730840541
 21
-12.1536693934
 31
0.0
 11
0.4538977241
 21
-12.143609788
 31
0.0
 11
0.3961333141
 21
-12.1078393237
 31
0.0
  0
SPLINE
  5
3E4
100
AcDbEntity
  8
RACCORDO
100
AcDbSpline
 62
253
  6
CONTINUOUS
 70
0
 71
3
 72
9
 73
5
 74
3
 42
0.0000001
 43
0.0000001
 44
0.0000000001
 12
-0.476074122
 22
0.3286759652
 32
0.0
 13
-0.2197863962
 23
0.5351340017
 33
0.0
 40
0.0
 40
0.0
 40
0.0
 40
0.0
 40
0.4842104979
 40
1.0
 40
1.0
 40
1.0
 40
1.0
 10
0.3961333141
 20
-12.1078393237
 30
0.0
 10
0.3192932849
 20
-12.0547898727
 30
0.0
 10
0.1809266699
 20
-11.9156649492
 30
0.0
 10
0.0828650225
 20
-11.7469988922
 30
0.0
 10
0.0450771839
 20
-11.6549933921
 30
0.0
 11
0.3961333141
 21
-12.1078393237
 31
0.0
 11
0.1947460447
 21
-11.9131321673
 31
0.0
 11
0.0450771839
 21
-11.6549933921
 31
0.0
  0
SPLINE
  5
3E5
100
AcDbEntity
  8
RACCORDO
100
AcDbSpline
 62
253
  6
CONTINUOUS
 70
0
 71
3
 72
9
 73
5
 74
3
 42
0.0000001
 43
0.0000001
 44
0.0000000001
 12
-0.0397760418
 22
0.0968463599
 32
0.0
 13
-0.029416407
 23
0.1004789825
 33
0.0
 40
0.0
 40
0.0
 40
0.0
 40
0.0
 40
0.2539333852
 40
1.0
 40
1.0
 40
1.0
 40
1.0
 10
0.0450771839
 20
-11.6549933921
 30
0.0
 10
0.0417103622
 20
-11.6467958841
 30
0.0
 10
0.0288587883
 20
-11.6143487544
 30
0.0
 10
0.0176437273
 20
-11.5812479566
 30
0.0
 10
0.0103281942
 20
-11.5562599519
 30
0.0
 11
0.0450771839
 21
-11.6549933921
 31
0.0
 11
0.0352890008
 21
-11.6302749152
 31
0.0
 11
0.0103281942
 21
-11.5562599519
 31
0.0
  0
LINE
  5
3E6
100
AcDbEntity
  8
RACCORDO
100
AcDbLine
 62
253
  6
CONTINUOUS
 10
0.0103281942
 20
-11.5562599519
 11
0.0044591877
 21
-11.5361407408
  0
SPLINE
  5
3E7
100
AcDbEntity
  8
RACCORDO
100
AcDbSpline
 62
253
  6
CONTINUOUS
 70
0
 71
3
 72
9
 73
5
 74
3
 42
0.0000001
 43
0.0000001
 44
0.0000000001
 12
-1.3727422333
 22
4.7202661365
 32
0.0
 13
1.2815811369
 23
4.7458280024
 33
0.0
 40
0.0
 40
0.0
 40
0.0
 40
0.0
 40
0.272872546
 40
1.0
 40
1.0
 40
1.0
 40
1.0
 10
0.0044591877
 20
-11.5361407408
 30
0.0
 10
-0.1204020351
 20
-11.1067970614
 30
0.0
 10
-0.495078063
 20
-9.5149394129
 30
0.0
 10
-0.5131722538
 20
-7.8064937519
 30
0.0
 10
-0.2025479774
 20
-6.6562198076
 30
0.0
 11
0.0044591877
 21
-11.5361407408
 31
0.0
 11
-0.2983287593
 21
-10.2293674861
 31
0.0
 11
-0.2025479774
 21
-6.6562198076
 31
0.0
  0
SPLINE
  5
3E8
100
AcDbEntity
  8
RACCORDO
100
AcDbSpline
 62
253
  6
CONTINUOUS
 70
0
 71
3
 72
9
 73
5
 74
3
 42
0.0000001
 43
0.0000001
 44
0.0000000001
 12
-0.049129345
 22
0.0245639498
 32
0.0
 13
-0.0041754267
 23
0.0547690239
 33
0.0
 40
0.0
 40
0.0
 40
0.0
 40
0.0
 40
0.4554807253
 40
1.0
 40
1.0
 40
1.0
 40
1.0
 10
0.4987840405
 20
-12.2001502347
 30
0.0
 10
0.4913248839
 20
-12.1964207661
 30
0.0
 10
0.4779349013
 20
-12.1820729093
 30
0.0
 10
0.4738419209
 20
-12.1636103231
 30
0.0
 10
0.4730840541
 20
-12.1536693934
 30
0.0
 11
0.4987840405
 21
-12.2001502347
 31
0.0
 11
0.481055907
 21
-12.1824967689
 31
0.0
 11
0.4730840541
 21
-12.1536693934
 31
0.0
  0
SPLINE
  5
3E9
100
AcDbEntity
  8
RACCORDO
100
AcDbSpline
 62
253
  6
CONTINUOUS
 70
0
 71
3
 72
9
 73
5
 74
3
 42
0.0000001
 43
0.0000001
 44
0.0000000001
 12
-0.0491299109
 22
0.0245635911
 32
0.0
 13
-0.0041754577
 23
0.0547693683
 33
0.0
 40
0.0
 40
0.0
 40
0.0
 40
0.0
 40
0.4554804224
 40
1.0
 40
1.0
 40
1.0
 40
1.0
 10
8.6939891577
 20
-16.2977527948
 30
0.0
 10
8.6865299202
 20
-16.2940233832
 30
0.0
 10
8.6731397684
 20
-16.2796754803
 30
0.0
 10
8.6690467124
 20
-16.2612127838
 30
0.0
 10
8.6682888395
 20
-16.2512717861
 30
0.0
 11
8.6939891577
 21
-16.2977527948
 31
0.0
 11
8.6762608142
 21
-16.2800993404
 31
0.0
 11
8.6682888395
 21
-16.2512717861
 31
0.0
  0
SPLINE
  5
3EA
100
AcDbEntity
  8
RACCORDO
100
AcDbSpline
 62
253
  6
CONTINUOUS
 70
0
 71
3
 72
9
 73
5
 74
3
 42
0.0000001
 43
0.0000001
 44
0.0000000001
 12
0.0154054023
 22
0.0570586854
 32
0.0
 13
0.0237824494
 23
0.0541055921
 33
0.0
 40
0.0
 40
0.0
 40
0.0
 40
0.0
 40
0.2563458951
 40
1.0
 40
1.0
 40
1.0
 40
1.0
 10
-0.2025479774
 20
-6.6562198076
 30
0.0
 10
-0.2012316069
 20
-6.6513442211
 30
0.0
 10
-0.1957657308
 20
-6.6324166058
 30
0.0
 10
-0.1889437735
 20
-6.6138719855
 30
0.0
 10
-0.1830484681
 20
-6.6004600369
 30
0.0
 11
-0.2025479774
 21
-6.6562198076
 31
0.0
 11
-0.1983401846
 21
-6.6416653559
 31
0.0
 11
-0.1830484681
 21
-6.6004600369
 31
0.0
  0
SPLINE
  5
3EB
100
AcDbEntity
  8
RACCORDO
100
AcDbSpline
 62
253
  6
CONTINUOUS
 70
0
 71
3
 72
9
 73
5
 74
3
 42
0.0000001
 43
0.0000001
 44
0.0000000001
 12
0.0261592316
 22
0.0480789794
 32
0.0
 13
0.0345697728
 23
0.0424361222
 33
0.0
 40
0.0
 40
0.0
 40
0.0
 40
0.0
 40
0.2556759908
 40
1.0
 40
1.0
 40
1.0
 40
1.0
 10
-0.1705717921
 20
-6.5749757598
 30
0.0
 10
-0.168342363
 20
-6.5708782129
 30
0.0
 10
-0.1592783681
 20
-6.5550430118
 30
0.0
 10
-0.1487996579
 20
-6.5400064929
 30
0.0
 10
-0.1402226206
 20
-6.5294777514
 30
0.0
 11
-0.1705717921
 21
-6.5749757598
 31
0.0
 11
-0.163614991
 21
-6.5628330615
 31
0.0
 11
-0.1402226206
 21
-6.5294777514
 31
0.0
  0
SPLINE
  5
3EC
100
AcDbEntity
  8
RACCORDO
100
AcDbSpline
 62
253
  6
CONTINUOUS
 70
0
 71
3
 72
9
 73
5
 74
3
 42
0.0000001
 43
0.0000001
 44
0.0000000001
 12
0.0527429279
 22
0.0613921984
 32
0.0
 13
0.0698064184
 23
0.0409619631
 33
0.0
 40
0.0
 40
0.0
 40
0.0
 40
0.0
 40
0.2551974478
 40
1.0
 40
1.0
 40
1.0
 40
1.0
 10
-0.1357004733
 20
-6.524072078
 30
0.0
 10
-0.1312138531
 20
-6.5188497006
 30
0.0
 10
-0.1128571782
 20
-6.4990694017
 30
0.0
 10
-0.0912626871
 20
-6.482259366
 30
0.0
 10
-0.0739320209
 20
-6.4720898411
 30
0.0
 11
-0.1357004733
 21
-6.524072078
 31
0.0
 11
-0.1216338348
 21
-6.5089473776
 31
0.0
 11
-0.0739320209
 21
-6.4720898411
 31
0.0
  0
SPLINE
  5
3ED
100
AcDbEntity
  8
RACCORDO
100
AcDbSpline
 62
253
  6
CONTINUOUS
 70
0
 71
3
 72
11
 73
7
 74
5
 42
0.0000001
 43
0.0000001
 44
0.0000000001
 12
0.2647626509
 22
0.1364242771
 32
0.0
 13
0.2663895822
 23
-0.1332195
 33
0.0
 40
0.0
 40
0.0
 40
0.0
 40
0.0
 40
0.2255147487
 40
0.4623782482
 40
0.7189852344
 40
1.0
 40
1.0
 40
1.0
 40
1.0
 10
-0.0627321151
 20
-6.4659242343
 30
0.0
 10
-0.0428294876
 20
-6.4556690054
 30
0.0
 10
0.0013054134
 20
-6.4405817613
 30
0.0
 10
0.0733497612
 20
-6.4368099379
 30
0.0
 10
0.149505975
 20
-6.4511300241
 30
0.0
 10
0.199292378
 20
-6.4712882474
 30
0.0
 10
0.2242455133
 20
-6.4837671296
 30
0.0
 11
-0.0627321151
 21
-6.4659242343
 31
0.0
 11
0.0007447015
 21
-6.4439639868
 31
0.0
 11
0.0711586394
 21
-6.4396121214
 31
0.0
 11
0.1464045501
 21
-6.4530064791
 31
0.0
 11
0.2242455133
 21
-6.4837671296
 31
0.0
  0
SPLINE
  5
3EE
100
AcDbEntity
  8
RACCORDO
100
AcDbSpline
 62
253
  6
CONTINUOUS
 70
0
 71
3
 72
9
 73
5
 74
3
 42
0.0000001
 43
0.0000001
 44
0.0000000001
 12
-0.1303463997
 22
-0.0665663659
 32
0.0
 13
0.0022062877
 23
-0.1463434224
 33
0.0
 40
0.0
 40
0.0
 40
0.0
 40
0.0
 40
0.4893432915
 40
1.0
 40
1.0
 40
1.0
 40
1.0
 10
0.294327261
 20
-6.3605401814
 30
0.0
 10
0.2730658823
 20
-6.3713981162
 30
0.0
 10
0.2390112786
 20
-6.4102518855
 30
0.0
 10
0.2238699614
 20
-6.4588567128
 30
0.0
 10
0.2242455133
 20
-6.4837671296
 30
0.0
 11
0.294327261
 21
-6.3605401814
 31
0.0
 11
0.2442660147
 21
-6.4117587366
 31
0.0
 11
0.2242455133
 21
-6.4837671296
 31
0.0
  0
SPLINE
  5
3EF
100
AcDbEntity
  8
RACCORDO
100
AcDbSpline
 62
253
  6
CONTINUOUS
 70
0
 71
3
 72
9
 73
5
 74
3
 42
0.0000001
 43
0.0000001
 44
0.0000000001
 12
0.1414533217
 22
0.072063254
 32
0.0
 13
0.1584379759
 23
-0.0099781046
 33
0.0
 40
0.0
 40
0.0
 40
0.0
 40
0.0
 40
0.4878374321
 40
1.0
 40
1.0
 40
1.0
 40
1.0
 10
-0.0366998448
 20
-6.3394864135
 30
0.0
 10
-0.0136977697
 20
-6.3277680292
 30
0.0
 10
0.0372008374
 20
-6.3105615345
 30
0.0
 10
0.0906910725
 20
-6.307846433
 30
0.0
 10
0.1177397394
 20
-6.3095499036
 30
0.0
 11
-0.0366998448
 21
-6.3394864135
 31
0.0
 11
0.0365794914
 21
-6.3144288243
 31
0.0
 11
0.1177397394
 21
-6.3095499036
 31
0.0
  0
SPLINE
  5
3F0
100
AcDbEntity
  8
RACCORDO
100
AcDbSpline
 62
253
  6
CONTINUOUS
 70
0
 71
3
 72
9
 73
5
 74
3
 42
0.0000001
 43
0.0000001
 44
0.0000000001
 12
0.0960288411
 22
-0.006047703
 32
0.0
 13
0.0919761106
 23
-0.0282578856
 33
0.0
 40
0.0
 40
0.0
 40
0.0
 40
0.0
 40
0.2414222548
 40
1.0
 40
1.0
 40
1.0
 40
1.0
 10
0.1177397394
 20
-6.3095499036
 30
0.0
 10
0.1254675725
 20
-6.3100365869
 30
0.0
 10
0.1574090797
 20
-6.3130924724
 30
0.0
 10
0.1889160888
 20
-6.3201789732
 30
0.0
 10
0.212173099
 20
-6.3273242409
 30
0.0
 11
0.1177397394
 21
-6.3095499036
 31
0.0
 11
0.1408650293
 21
-6.3117470277
 31
0.0
 11
0.212173099
 21
-6.3273242409
 31
0.0
  0
SPLINE
  5
3F1
100
AcDbEntity
  8
RACCORDO
100
AcDbSpline
 62
253
  6
CONTINUOUS
 70
0
 71
3
 72
9
 73
5
 74
3
 42
0.0000001
 43
0.0000001
 44
0.0000000001
 12
0.0548351065
 22
-0.0168470286
 32
0.0
 13
0.0526188564
 23
-0.0228466021
 33
0.0
 40
0.0
 40
0.0
 40
0.0
 40
0.0
 40
0.2450028543
 40
1.0
 40
1.0
 40
1.0
 40
1.0
 10
0.212173099
 20
-6.3273242409
 30
0.0
 10
0.2166513515
 20
-6.3287000976
 30
0.0
 10
0.2348456921
 20
-6.3345872045
 30
0.0
 10
0.2526949573
 20
-6.3415289027
 30
0.0
 10
0.2659373195
 20
-6.3472786092
 30
0.0
 11
0.212173099
 21
-6.3273242409
 31
0.0
 11
0.2255459686
 21
-6.3316481169
 31
0.0
 11
0.2659373195
 21
-6.3472786092
 31
0.0
  0
SPLINE
  5
3F2
100
AcDbEntity
  8
RACCORDO
100
AcDbSpline
 62
253
  6
CONTINUOUS
 70
0
 71
3
 72
11
 73
7
 74
5
 42
0.0000001
 43
0.0000001
 44
0.0000000001
 12
-0.3417358089
 22
-0.1731514729
 32
0.0
 13
-0.3426469342
 23
0.1713413964
 33
0.0
 40
0.0
 40
0.0
 40
0.0
 40
0.0
 40
0.2181500806
 40
0.4525824251
 40
0.7119692622
 40
1.0
 40
1.0
 40
1.0
 40
1.0
 10
9.1271779743
 20
-16.4107392546
 30
0.0
 10
9.1023280762
 20
-16.4233302572
 30
0.0
 10
9.0463265819
 20
-16.4413025783
 30
0.0
 10
8.9544886096
 20
-16.4438123883
 30
0.0
 10
8.856036247
 20
-16.4233679199
 30
0.0
 10
8.7910685756
 20
-16.3965571353
 30
0.0
 10
8.7581709592
 20
-16.3801066057
 30
0.0
 11
9.1271779743
 21
-16.4107392546
 31
0.0
 11
9.0477888677
 21
-16.4368510678
 31
0.0
 11
8.9580491017
 21
-16.4404219161
 31
0.0
 11
8.8605332531
 21
-16.4213112
 31
0.0
 11
8.7581709592
 21
-16.3801066057
 31
0.0
  0
SPLINE
  5
3F3
100
AcDbEntity
  8
RACCORDO
100
AcDbSpline
 62
253
  6
CONTINUOUS
 70
0
 71
3
 72
11
 73
7
 74
5
 42
0.0000001
 43
0.0000001
 44
0.0000000001
 12
-0.0257126639
 22
-0.2324601952
 32
0.0
 13
0.2096277741
 23
-0.1037067006
 33
0.0
 40
0.0
 40
0.0
 40
0.0
 40
0.0
 40
0.18377386
 40
0.4025979894
 40
0.6744899778
 40
1.0
 40
1.0
 40
1.0
 40
1.0
 10
-2.4702568885
 20
21.8996782684
 30
0.0
 10
-2.4718319937
 20
21.8854382326
 30
0.0
 10
-2.4661357908
 20
21.8530477681
 30
0.0
 10
-2.4354849333
 20
21.8091293224
 30
0.0
 10
-2.3863217531
 20
21.7680417307
 30
0.0
 10
-2.3457441464
 20
21.7447727075
 30
0.0
 10
-2.3229988326
 20
21.733520184
 30
0.0
 11
-2.4702568885
 21
21.8996782684
 31
0.0
 11
-2.4640065027
 21
21.8571545238
 31
0.0
 11
-2.4364533603
 21
21.814026509
 31
0.0
 11
-2.3885995529
 21
21.7721500009
 31
0.0
 11
-2.3229988326
 21
21.733520184
 31
0.0
  0
SPLINE
  5
3F4
100
AcDbEntity
  8
RACCORDO
100
AcDbSpline
 62
253
  6
CONTINUOUS
 70
0
 71
3
 72
10
 73
6
 74
4
 42
0.0000001
 43
0.0000001
 44
0.0000000001
 12
0.2120740265
 22
0.1188432967
 32
0.0
 13
0.2197017082
 23
-0.1040686374
 33
0.0
 40
0.0
 40
0.0
 40
0.0
 40
0.0
 40
0.2265196285
 40
0.4642056401
 40
1.0
 40
1.0
 40
1.0
 40
1.0
 10
-1.8861150352
 20
22.8236272505
 30
0.0
 10
-1.8701020586
 20
22.832600697
 30
0.0
 10
-1.8343386512
 20
22.8461604987
 30
0.0
 10
-1.7527750367
 20
22.8528646588
 30
0.0
 10
-1.6904007418
 20
22.8341631301
 30
0.0
 10
-1.6511624298
 20
22.8155766671
 30
0.0
 11
-1.8861150352
 21
22.8236272505
 31
0.0
 11
-1.8346991534
 21
22.8433465442
 31
0.0
 11
-1.7771572123
 21
22.8486104441
 31
0.0
 11
-1.6511624298
 21
22.8155766671
 31
0.0
  0
SPLINE
  5
3F5
100
AcDbEntity
  8
RACCORDO
100
AcDbSpline
 62
253
  6
CONTINUOUS
 70
0
 71
3
 72
11
 73
7
 74
5
 42
0.0000001
 43
0.0000001
 44
0.0000000001
 12
-0.0036715469
 22
-0.2402206567
 32
0.0
 13
0.2149381473
 23
-0.1073360938
 33
0.0
 40
0.0
 40
0.0
 40
0.0
 40
0.0
 40
0.2039698628
 40
0.4309005999
 40
0.6953622056
 40
1.0
 40
1.0
 40
1.0
 40
1.0
 10
-3.1444692651
 20
11.4692407538
 30
0.0
 10
-3.1447188934
 20
11.4529081623
 30
0.0
 10
-3.1376791261
 20
11.4180308853
 30
0.0
 10
-3.1071911855
 20
11.3703527326
 30
0.0
 10
-3.0592511899
 20
11.327509427
 30
0.0
 10
-3.019841883
 20
11.3041284723
 30
0.0
 10
-2.9980157886
 20
11.2932289287
 30
0.0
 11
-3.1444692651
 21
11.4692407538
 31
0.0
 11
-3.1353983943
 21
11.4210841133
 31
0.0
 11
-3.1071201913
 21
11.3744713066
 31
0.0
 11
-3.0605616562
 21
11.331237092
 31
0.0
 11
-2.9980157886
 21
11.2932289287
 31
0.0
  0
SPLINE
  5
3F6
100
AcDbEntity
  8
RACCORDO
100
AcDbSpline
 62
253
  6
CONTINUOUS
 70
0
 71
3
 72
11
 73
7
 74
5
 42
0.0000001
 43
0.0000001
 44
0.0000000001
 12
0.00364766
 22
-0.2408344899
 32
0.0
 13
0.2153819245
 23
-0.1078201444
 33
0.0
 40
0.0
 40
0.0
 40
0.0
 40
0.0
 40
0.2088707253
 40
0.4379675197
 40
0.700700545
 40
1.0
 40
1.0
 40
1.0
 40
1.0
 10
-3.1444681916
 20
-4.9838964393
 30
0.0
 10
-3.1442142285
 20
-5.0006641975
 30
0.0
 10
-3.1365425511
 20
-5.0359686236
 30
0.0
 10
-3.1059484494
 20
-5.0842036782
 30
0.0
 10
-3.0584521494
 20
-5.1272044962
 30
0.0
 10
-3.0195037045
 20
-5.1504969151
 30
0.0
 10
-2.998015807
 20
-5.1612537519
 30
0.0
 11
-3.1444681916
 21
-4.9838964393
 31
0.0
 11
-3.134292415
 21
-5.0331656333
 31
0.0
 11
-3.1056697468
 21
-5.0803424993
 31
0.0
 11
-3.0595097515
 21
-5.1236313079
 31
0.0
 11
-2.998015807
 21
-5.1612537519
 31
0.0
  0
SPLINE
  5
3F7
100
AcDbEntity
  8
RACCORDO
100
AcDbSpline
 62
253
  6
CONTINUOUS
 70
0
 71
3
 72
11
 73
7
 74
5
 42
0.0000001
 43
0.0000001
 44
0.0000000001
 12
0.0305155383
 22
-0.2354256516
 32
0.0
 13
0.2119815172
 23
-0.1068656722
 33
0.0
 40
0.0
 40
0.0
 40
0.0
 40
0.0
 40
0.2227382307
 40
0.4584055837
 40
0.7164549967
 40
1.0
 40
1.0
 40
1.0
 40
1.0
 10
-2.4693305641
 20
-14.7148293744
 30
0.0
 10
-2.4670649051
 20
-14.7323088055
 30
0.0
 10
-2.456713195
 20
-14.7677523926
 30
0.0
 10
-2.4254380967
 20
-14.8158422557
 30
0.0
 10
-2.3798745611
 20
-14.8578986948
 30
0.0
 10
-2.3430533041
 20
-14.8803462465
 30
0.0
 10
-2.3230178708
 20
-14.8904466556
 30
0.0
 11
-2.4693305641
 21
-14.7148293744
 31
0.0
 11
-2.4547247341
 21
-14.7656490872
 31
0.0
 11
-2.4247313517
 21
-14.8128760159
 31
0.0
 11
-2.3802175458
 21
-14.8549624499
 31
0.0
 11
-2.3230178708
 21
-14.8904466556
 31
0.0
  0
SPLINE
  5
3F8
100
AcDbEntity
  8
RACCORDO
100
AcDbSpline
 62
253
  6
CONTINUOUS
 70
0
 71
3
 72
11
 73
7
 74
5
 42
0.0000001
 43
0.0000001
 44
0.0000000001
 12
-0.4097070839
 22
0.2429752098
 32
0.0
 13
-0.0609503249
 23
0.4724213216
 33
0.0
 40
0.0
 40
0.0
 40
0.0
 40
0.0
 40
0.2232827676
 40
0.460104856
 40
0.7179513632
 40
1.0
 40
1.0
 40
1.0
 40
1.0
 10
-2.0972609961
 20
-15.2925232389
 30
0.0
 10
-2.1277545067
 20
-15.2744391798
 30
0.0
 10
-2.1853454715
 20
-15.2276740794
 30
0.0
 10
-2.2522862692
 20
-15.1340293524
 30
0.0
 10
-2.2998274445
 20
-15.0192879375
 30
0.0
 10
-2.3172875706
 20
-14.9348619315
 30
0.0
 10
-2.3230178893
 20
-14.8904466683
 30
0.0
 11
-2.0972609961
 21
-15.2925232389
 31
0.0
 11
-2.180190889
 21
-15.2259303018
 31
0.0
 11
-2.246694383
 21
-15.1348109996
 31
0.0
 11
-2.2947911673
 21
-15.0217981876
 31
0.0
 11
-2.3230178893
 21
-14.8904466683
 31
0.0
  0
LINE
  5
3F9
100
AcDbEntity
  8
RACCORDO
100
AcDbLine
 62
253
  6
CONTINUOUS
 10
-2.3230178893
 20
-14.8904466683
 11
-2.3469954358
 21
-14.700313621
  0
SPLINE
  5
3FA
100
AcDbEntity
  8
RACCORDO
100
AcDbSpline
 62
253
  6
CONTINUOUS
 70
0
 71
3
 72
9
 73
5
 74
3
 42
0.0000001
 43
0.0000001
 44
0.0000000001
 12
-1.1852745898
 22
9.4902170516
 32
0.0
 13
-0.1456770219
 23
9.5628381637
 33
0.0
 40
0.0
 40
0.0
 40
0.0
 40
0.0
 40
0.2445083856
 40
1.0
 40
1.0
 40
1.0
 40
1.0
 10
-2.3469954358
 20
-14.700313621
 30
0.0
 10
-2.4435986279
 20
-13.9268344044
 30
0.0
 10
-2.7925776561
 20
-10.7577641722
 30
0.0
 10
-2.9613298845
 20
-7.5694684331
 30
0.0
 10
-2.9980158074
 20
-5.1612537521
 30
0.0
 11
-2.3469954358
 21
-14.700313621
 31
0.0
 11
-2.6034804833
 21
-12.3759565275
 31
0.0
 11
-2.9980158074
 21
-5.1612537521
 31
0.0
  0
SPLINE
  5
3FB
100
AcDbEntity
  8
RACCORDO
100
AcDbSpline
 62
253
  6
CONTINUOUS
 70
0
 71
3
 72
9
 73
5
 74
3
 42
0.0000001
 43
0.0000001
 44
0.0000000001
 12
0.1568752709
 22
10.4632290094
 32
0.0
 13
1.1674755673
 23
10.3990755336
 33
0.0
 40
0.0
 40
0.0
 40
0.0
 40
0.0
 40
0.2454540627
 40
1.0
 40
1.0
 40
1.0
 40
1.0
 10
-2.9980158074
 20
11.2932289198
 30
0.0
 10
-2.9851805832
 20
12.1493096095
 30
0.0
 10
-2.8882489157
 20
15.63629377
 30
0.0
 10
-2.6166558714
 20
19.1179874277
 30
0.0
 10
-2.3230178893
 20
21.7335141596
 30
0.0
 11
-2.9980158074
 21
11.2932289198
 31
0.0
 11
-2.9270730943
 21
13.8607797264
 31
0.0
 11
-2.3230178893
 21
21.7335141596
 31
0.0
  0
SPLINE
  5
3FC
100
AcDbEntity
  8
RACCORDO
100
AcDbSpline
 62
253
  6
CONTINUOUS
 70
0
 71
3
 72
11
 73
7
 74
5
 42
0.0000001
 43
0.0000001
 44
0.0000000001
 12
0.126760975
 22
1.1132242819
 32
0.0
 13
0.8572341713
 23
0.7214473107
 33
0.0
 40
0.0
 40
0.0
 40
0.0
 40
0.0
 40
0.2468313362
 40
0.504701694
 40
0.760136807
 40
1.0
 40
1.0
 40
1.0
 40
1.0
 10
-2.3230178893
 20
21.7335141596
 30
0.0
 10
-2.3125883624
 20
21.8251070386
 30
0.0
 10
-2.2711031569
 20
22.0103979599
 30
0.0
 10
-2.1604296262
 20
22.2732855712
 30
0.0
 10
-2.0078519379
 20
22.5112043449
 30
0.0
 10
-1.8800438632
 20
22.6470471657
 30
0.0
 10
-1.8115042214
 20
22.7047300509
 30
0.0
 11
-2.3230178893
 21
21.7335141596
 31
0.0
 11
-2.2643571994
 21
22.003775511
 31
0.0
 11
-2.1526929398
 21
22.2702475857
 31
0.0
 11
-1.9973912447
 21
22.5106398805
 31
0.0
 11
-1.8115042214
 21
22.7047300509
 31
0.0
  0
SPLINE
  5
3FD
100
AcDbEntity
  8
RACCORDO
100
AcDbSpline
 62
253
  6
CONTINUOUS
 70
0
 71
3
 72
9
 73
5
 74
3
 42
0.0000001
 43
0.0000001
 44
0.0000000001
 12
0.1492739006
 22
0.1256287462
 32
0.0
 13
0.1712455709
 23
0.0934892172
 33
0.0
 40
0.0
 40
0.0
 40
0.0
 40
0.0
 40
0.2599763506
 40
1.0
 40
1.0
 40
1.0
 40
1.0
 10
-1.8115042214
 20
22.7047300509
 30
0.0
 10
-1.7985683268
 20
22.7156168852
 30
0.0
 10
-1.7478815636
 20
22.7563607625
 30
0.0
 10
-1.6934043539
 20
22.7925152566
 30
0.0
 10
-1.6511624298
 20
22.8155766671
 30
0.0
 11
-1.8115042214
 21
22.7047300509
 31
0.0
 11
-1.7719574198
 21
22.7364915884
 31
0.0
 11
-1.6511624298
 21
22.8155766671
 31
0.0
  0
SPLINE
  5
3FE
100
AcDbEntity
  8
RACCORDO
100
AcDbSpline
 62
253
  6
CONTINUOUS
 70
0
 71
3
 72
11
 73
7
 74
5
 42
0.0000001
 43
0.0000001
 44
0.0000000001
 12
-0.007070947
 22
-0.3258530124
 32
0.0
 13
-0.2978896881
 23
-0.1322570138
 33
0.0
 40
0.0
 40
0.0
 40
0.0
 40
0.0
 40
0.2913586215
 40
0.5521314722
 40
0.7846146393
 40
1.0
 40
1.0
 40
1.0
 40
1.0
 10
13.4048512545
 20
-22.3779696824
 30
0.0
 10
13.4041645274
 20
-22.4096163773
 30
0.0
 10
13.3977084986
 20
-22.469701031
 30
0.0
 10
13.3701504557
 20
-22.5512647678
 30
0.0
 10
13.3255885864
 20
-22.615560114
 30
0.0
 10
13.2846645957
 20
-22.6442382572
 30
0.0
 10
13.2632775698
 20
-22.6537336654
 30
0.0
 11
13.4048512545
 21
-22.3779696824
 31
0.0
 11
13.3937484978
 21
-22.4722808312
 31
0.0
 11
13.36532965
 21
-22.5523825479
 31
0.0
 11
13.3210750864
 21
-22.6138895192
 31
0.0
 11
13.2632775698
 21
-22.6537336654
 31
0.0
  0
SPLINE
  5
3FF
100
AcDbEntity
  8
RACCORDO
100
AcDbSpline
 62
253
  6
CONTINUOUS
 70
0
 71
3
 72
11
 73
7
 74
5
 42
0.0000001
 43
0.0000001
 44
0.0000000001
 12
0.0666155566
 22
-0.5037877818
 32
0.0
 13
0.4542047033
 23
-0.2278987691
 33
0.0
 40
0.0
 40
0.0
 40
0.0
 40
0.0
 40
0.2808646219
 40
0.5375414914
 40
0.7743088159
 40
1.0
 40
1.0
 40
1.0
 40
1.0
 10
12.3617370015
 20
-22.2328241137
 30
0.0
 10
12.3679736526
 20
-22.279989502
 30
0.0
 10
12.3873801508
 20
-22.3695796519
 30
0.0
 10
12.4411921561
 20
-22.4904015236
 30
0.0
 10
12.5173863876
 20
-22.5872341864
 30
0.0
 10
12.582386819
 20
-22.6333337315
 30
0.0
 10
12.6165568181
 20
-22.6504786458
 30
0.0
 11
12.3617370015
 21
-22.2328241137
 31
0.0
 11
12.3931540727
 21
-22.372051247
 31
0.0
 11
12.4474432532
 21
-22.4906526764
 31
0.0
 11
12.522754296
 21
-22.5844868342
 31
0.0
 11
12.6165568181
 21
-22.6504786458
 31
0.0
  0
SPLINE
  5
400
100
AcDbEntity
  8
RACCORDO
100
AcDbSpline
 62
253
  6
CONTINUOUS
 70
0
 71
3
 72
11
 73
7
 74
5
 42
0.0000001
 43
0.0000001
 44
0.0000000001
 12
-0.6038452865
 22
-0.3947086577
 32
0.0
 13
-0.6463077963
 23
0.3204844566
 33
0.0
 40
0.0
 40
0.0
 40
0.0
 40
0.0
 40
0.2455007626
 40
0.5105091814
 40
0.7698073222
 40
1.0
 40
1.0
 40
1.0
 40
1.0
 10
13.055553607
 20
-22.175094478
 30
0.0
 10
13.0061387809
 20
-22.2073949034
 30
0.0
 10
12.8925567311
 20
-22.2583003972
 30
0.0
 10
12.7095178966
 20
-22.2939564774
 30
0.0
 10
12.5267821219
 20
-22.2896250527
 30
0.0
 10
12.4113434883
 20
-22.2574051075
 30
0.0
 10
12.3617517142
 20
-22.2328140491
 30
0.0
 11
13.055553607
 21
-22.175094478
 31
0.0
 11
12.8950924607
 21
-22.2500511539
 31
0.0
 11
12.7075677678
 21
-22.2872478057
 31
0.0
 11
12.5206066193
 21
-22.2812051333
 31
0.0
 11
12.3617517142
 21
-22.2328140491
 31
0.0
  0
SPLINE
  5
401
100
AcDbEntity
  8
RACCORDO
100
AcDbSpline
 62
253
  6
CONTINUOUS
 70
0
 71
3
 72
13
 73
9
 74
7
 42
0.0000001
 43
0.0000001
 44
0.0000000001
 12
0.0639515531
 22
-0.4774548263
 32
0.0
 13
0.4404119028
 23
0.1951672826
 33
0.0
 40
0.0
 40
0.0
 40
0.0
 40
0.0
 40
0.2696235991
 40
0.3900427233
 40
0.5047831925
 40
0.6187459048
 40
0.7370184483
 40
1.0
 40
1.0
 40
1.0
 40
1.0
 10
13.0555536071
 20
-22.175094478
 30
0.0
 10
13.0613012231
 20
-22.2180055076
 30
0.0
 10
13.0793186565
 20
-22.2803263963
 30
0.0
 10
13.1280393661
 20
-22.3460473036
 30
0.0
 10
13.1726073136
 20
-22.3812424214
 30
0.0
 10
13.2249455943
 20
-22.4024236329
 30
0.0
 10
13.304756852
 20
-22.4114560155
 30
0.0
 10
13.3662445193
 20
-22.3950781474
 30
0.0
 10
13.4048512545
 20
-22.3779696824
 30
0.0
 11
13.0555536071
 21
-22.175094478
 31
0.0
 11
13.0955905242
 21
-22.2986524369
 31
0.0
 11
13.1305076008
 21
-22.3449745981
 31
0.0
 11
13.1740412068
 21
-22.3790317386
 31
0.0
 11
13.2248727928
 21
-22.3997666613
 31
0.0
 11
13.2814390801
 21
-22.40657128
 31
0.0
 11
13.4048512545
 21
-22.3779696824
 31
0.0
  0
SPLINE
  5
402
100
AcDbEntity
  8
RACCORDO
100
AcDbSpline
 62
253
  6
CONTINUOUS
 70
0
 71
3
 72
9
 73
5
 74
3
 42
0.0000001
 43
0.0000001
 44
0.0000000001
 12
0.1559612998
 22
-9.7207182945
 32
0.0
 13
1.2883363734
 23
-9.6362273467
 33
0.0
 40
0.0
 40
0.0
 40
0.0
 40
0.0
 40
0.2552950277
 40
1.0
 40
1.0
 40
1.0
 40
1.0
 10
12.3483115341
 20
-12.4819555619
 30
0.0
 10
12.3615835822
 20
-13.3091725773
 30
0.0
 10
12.4580322057
 20
-16.5484563145
 30
0.0
 10
12.7357434394
 20
-19.7830456715
 30
0.0
 10
13.0555536071
 20
-22.175094478
 30
0.0
 11
12.3483115341
 21
-12.4819555619
 31
0.0
 11
12.4226431808
 21
-14.9628126811
 31
0.0
 11
13.0555536071
 21
-22.175094478
 31
0.0
  0
SPLINE
  5
403
100
AcDbEntity
  8
RACCORDO
100
AcDbSpline
 62
253
  6
CONTINUOUS
 70
0
 71
3
 72
9
 73
5
 74
3
 42
0.0000001
 43
0.0000001
 44
0.0000000001
 12
0.1568073912
 22
-9.7749659418
 32
0.0
 13
1.2953596569
 23
-9.6900253396
 33
0.0
 40
0.0
 40
0.0
 40
0.0
 40
0.0
 40
0.255295975
 40
1.0
 40
1.0
 40
1.0
 40
1.0
 10
11.6506446778
 20
-12.4855839947
 30
0.0
 10
11.6639887764
 20
-13.3174204815
 30
0.0
 10
11.7609624865
 20
-16.5747816558
 30
0.0
 10
12.0401838181
 20
-19.8274238226
 30
0.0
 10
12.3617370015
 20
-22.2328241137
 30
0.0
 11
11.6506446778
 21
-12.4855839947
 31
0.0
 11
11.7253809495
 21
-14.9802953089
 31
0.0
 11
12.3617370015
 21
-22.2328241137
 31
0.0
  0
SPLINE
  5
404
100
AcDbEntity
  8
RACCORDO
100
AcDbSpline
 62
253
  6
CONTINUOUS
 70
0
 71
3
 72
11
 73
7
 74
5
 42
0.0000001
 43
0.0000001
 44
0.0000000001
 12
-0.6420665084
 22
-0.3192214672
 32
0.0
 13
-0.6414972632
 23
0.3203638676
 33
0.0
 40
0.0
 40
0.0
 40
0.0
 40
0.0
 40
0.2382830204
 40
0.5029754861
 40
0.7660677396
 40
1.0
 40
1.0
 40
1.0
 40
1.0
 10
12.3483115341
 20
-12.4819555619
 30
0.0
 10
12.2973136851
 20
-12.5073105804
 30
0.0
 10
12.1812443249
 20
-12.54395152
 30
0.0
 10
11.9980487771
 20
-12.5622721975
 30
0.0
 10
11.8157093884
 20
-12.5460674088
 30
0.0
 10
11.7006670109
 20
-12.5105651262
 30
0.0
 10
11.6506447093
 20
-12.4855839783
 30
0.0
 11
12.3483115341
 21
-12.4819555619
 31
0.0
 11
12.1863936221
 21
-12.5365037776
 31
0.0
 11
11.9976339927
 21
-12.5563117074
 31
0.0
 11
11.8098316741
 21
-12.5384621959
 31
0.0
 11
11.6506447093
 21
-12.4855839783
 31
0.0
  0
SPLINE
  5
405
100
AcDbEntity
  8
RACCORDO
100
AcDbSpline
 62
253
  6
CONTINUOUS
 70
0
 71
3
 72
11
 73
7
 74
5
 42
0.0000001
 43
0.0000001
 44
0.0000000001
 12
-0.6520434625
 22
-0.294584293
 32
0.0
 13
-0.6398044461
 23
0.3202980697
 33
0.0
 40
0.0
 40
0.0
 40
0.0
 40
0.0
 40
0.2361736673
 40
0.5007681257
 40
0.7649506886
 40
1.0
 40
1.0
 40
1.0
 40
1.0
 10
12.3483115341
 20
3.9560726273
 30
0.0
 10
12.2969797022
 20
3.9328816097
 30
0.0
 10
12.1805046155
 20
3.9006299466
 30
0.0
 10
11.9976277803
 20
3.8875108822
 30
0.0
 10
11.8156236223
 20
3.9072855121
 30
0.0
 10
11.7007732099
 20
3.9438033972
 30
0.0
 10
11.6506446784
 20
3.9688986775
 30
0.0
 11
12.3483115341
 21
3.9560726273
 31
0.0
 11
12.1863936212
 21
3.9077237712
 31
0.0
 11
11.9976339835
 21
3.8932022095
 31
0.0
 11
11.8098316533
 21
3.9146465634
 31
0.0
 11
11.6506446784
 21
3.9688986775
 31
0.0
  0
SPLINE
  5
406
100
AcDbEntity
  8
RACCORDO
100
AcDbSpline
 62
253
  6
CONTINUOUS
 70
0
 71
3
 72
9
 73
5
 74
3
 42
0.0000001
 43
0.0000001
 44
0.0000000001
 12
-1.2308985459
 22
-10.3762425629
 32
0.0
 13
-0.165084792
 23
-10.4476919923
 33
0.0
 40
0.0
 40
0.0
 40
0.0
 40
0.0
 40
0.2543334361
 40
1.0
 40
1.0
 40
1.0
 40
1.0
 10
12.3617370015
 20
14.3911367142
 30
0.0
 10
12.257384116
 20
13.5114615727
 30
0.0
 10
11.8891411521
 20
10.0479161237
 30
0.0
 10
11.6916774144
 20
6.5657302068
 30
0.0
 10
11.6506446778
 20
3.9688986772
 30
0.0
 11
12.3617370015
 21
14.3911367142
 31
0.0
 11
12.0811180584
 21
11.7484649747
 31
0.0
 11
11.6506446778
 21
3.9688986772
 31
0.0
  0
SPLINE
  5
407
100
AcDbEntity
  8
RACCORDO
100
AcDbSpline
 62
253
  6
CONTINUOUS
 70
0
 71
3
 72
11
 73
7
 74
5
 42
0.0000001
 43
0.0000001
 44
0.0000000001
 12
-0.6807130589
 22
-0.2009994719
 32
0.0
 13
-0.633490998
 23
0.320094067
 33
0.0
 40
0.0
 40
0.0
 40
0.0
 40
0.0
 40
0.2291475764
 40
0.4934208671
 40
0.7611885912
 40
1.0
 40
1.0
 40
1.0
 40
1.0
 10
13.0555536071
 20
14.3203592108
 30
0.0
 10
13.0035590246
 20
14.3050063635
 30
0.0
 10
12.8868653549
 20
14.2883538163
 30
0.0
 10
12.7062639298
 20
14.2933034859
 30
0.0
 10
12.5261302406
 20
14.3255145833
 30
0.0
 10
12.4121653252
 20
14.365656019
 30
0.0
 10
12.3617370327
 20
14.391136724
 30
0.0
 11
13.0555536071
 21
14.3203592108
 31
0.0
 11
12.8950913498
 21
14.2938227683
 31
0.0
 11
12.7075631311
 21
14.2979124219
 31
0.0
 11
12.5205966982
 21
14.3320256603
 31
0.0
 11
12.3617370327
 21
14.391136724
 31
0.0
  0
SPLINE
  5
408
100
AcDbEntity
  8
RACCORDO
100
AcDbSpline
 62
253
  6
CONTINUOUS
 70
0
 71
3
 72
9
 73
5
 74
3
 42
0.0000001
 43
0.0000001
 44
0.0000000001
 12
-1.2242344566
 22
-10.3185333587
 32
0.0
 13
-0.1641922847
 23
-10.3896064205
 33
0.0
 40
0.0
 40
0.0
 40
0.0
 40
0.0
 40
0.2543329731
 40
1.0
 40
1.0
 40
1.0
 40
1.0
 10
13.0555536071
 20
14.3203592108
 30
0.0
 10
12.9517658774
 20
13.4455781216
 30
0.0
 10
12.5855157308
 20
10.001294422
 30
0.0
 10
12.3891224584
 20
6.5384682706
 30
0.0
 10
12.3483115341
 20
3.9560726273
 30
0.0
 11
13.0555536071
 21
14.3203592108
 31
0.0
 11
12.7764541363
 21
11.6923888709
 31
0.0
 11
12.3483115341
 21
3.9560726273
 31
0.0
  0
SPLINE
  5
409
100
AcDbEntity
  8
RACCORDO
100
AcDbSpline
 62
253
  6
CONTINUOUS
 70
0
 71
3
 72
11
 73
7
 74
5
 42
0.0000001
 43
0.0000001
 44
0.0000000001
 12
-0.5889679725
 22
-0.2980393187
 32
0.0
 13
-0.0778040292
 23
-0.6554824491
 33
0.0
 40
0.0
 40
0.0
 40
0.0
 40
0.0
 40
0.230077638
 40
0.4849050471
 40
0.747851195
 40
1.0
 40
1.0
 40
1.0
 40
1.0
 10
13.4048512545
 20
14.8547055057
 30
0.0
 10
13.3596818012
 20
14.8318481116
 30
0.0
 10
13.2727220815
 20
14.7670574197
 30
0.0
 10
13.1679130806
 20
14.6385775149
 30
0.0
 10
13.0906465697
 20
14.486445088
 30
0.0
 10
13.0620930048
 20
14.3754522495
 30
0.0
 10
13.0555536071
 20
14.3203592108
 30
0.0
 11
13.4048512545
 21
14.8547055057
 31
0.0
 11
13.2814384393
 21
14.7661959759
 31
0.0
 11
13.1740412718
 21
14.6367371086
 31
0.0
 11
13.09559291
 21
14.4819107938
 31
0.0
 11
13.0555536071
 21
14.3203592108
 31
0.0
  0
SPLINE
  5
40A
100
AcDbEntity
  8
RACCORDO
100
AcDbSpline
 62
253
  6
CONTINUOUS
 70
0
 71
3
 72
11
 73
7
 74
5
 42
0.0000001
 43
0.0000001
 44
0.0000000001
 12
-1.1699936394
 22
-0.6070618473
 32
0.0
 13
-0.1532753229
 23
-1.3091661002
 33
0.0
 40
0.0
 40
0.0
 40
0.0
 40
0.0
 40
0.2292338523
 40
0.4839518309
 40
0.7472913741
 40
1.0
 40
1.0
 40
1.0
 40
1.0
 10
13.0514190178
 20
15.4642859433
 30
0.0
 10
12.9620183014
 20
15.4178995681
 30
0.0
 10
12.7901428886
 20
15.2868876672
 30
0.0
 10
12.5833890647
 20
15.0286812765
 30
0.0
 10
12.4309761576
 20
14.723592298
 30
0.0
 10
12.3746483336
 20
14.5014159029
 30
0.0
 10
12.3617370015
 20
14.3911367142
 30
0.0
 11
13.0514190178
 21
15.4642859433
 31
0.0
 11
12.8077149163
 21
15.2856635315
 31
0.0
 11
12.5956594116
 21
15.0253603595
 31
0.0
 11
12.4407788783
 21
14.7147200874
 31
0.0
 11
12.3617370015
 21
14.3911367142
 31
0.0
  0
SPLINE
  5
40B
100
AcDbEntity
  8
RACCORDO
100
AcDbSpline
 62
253
  6
CONTINUOUS
 70
0
 71
3
 72
11
 73
7
 74
5
 42
0.0000001
 43
0.0000001
 44
0.0000000001
 12
-0.0161958087
 22
0.7309882144
 32
0.0
 13
-0.6466454628
 23
0.3412560905
 33
0.0
 40
0.0
 40
0.0
 40
0.0
 40
0.0
 40
0.2463941589
 40
0.5122171501
 40
0.7713861794
 40
1.0
 40
1.0
 40
1.0
 40
1.0
 10
13.4048512545
 20
14.8547055057
 30
0.0
 10
13.4035210702
 20
14.9147425812
 30
0.0
 10
13.3805772965
 20
15.0392725936
 30
0.0
 10
13.3043248688
 20
15.2126776906
 30
0.0
 10
13.1947838235
 20
15.3618599653
 30
0.0
 10
13.1006963848
 20
15.438280659
 30
0.0
 10
13.0514190215
 20
15.4642859452
 30
0.0
 11
13.4048512545
 21
14.8547055057
 31
0.0
 11
13.3750403838
 21
15.0323773672
 31
0.0
 11
13.297407765
 21
15.2105610854
 31
0.0
 11
13.1837971911
 21
15.3622231156
 31
0.0
 11
13.0514190215
 21
15.4642859452
 31
0.0
  0
SPLINE
  5
40C
100
AcDbEntity
  8
RACCORDO
100
AcDbSpline
 62
253
  6
CONTINUOUS
 70
0
 71
3
 72
9
 73
5
 74
3
 42
0.0000001
 43
0.0000001
 44
0.0000000001
 12
-0.0308442048
 22
0.0039500388
 32
0.0
 13
-0.0072179376
 23
0.0302468041
 33
0.0
 40
0.0
 40
0.0
 40
0.0
 40
0.0
 40
0.6145404961
 40
1.0
 40
1.0
 40
1.0
 40
1.0
 10
9.070563414
 20
-11.2137028562
 30
0.0
 10
9.0642450764
 20
-11.2128937033
 30
0.0
 10
9.0541041888
 20
-11.2112139001
 30
0.0
 10
9.0448992272
 20
-11.2037559284
 30
0.0
 10
9.0439718197
 20
-11.1998696224
 30
0.0
 11
9.070563414
 21
-11.2137028562
 31
0.0
 11
9.052134566
 21
-11.2086469059
 31
0.0
 11
9.0439718197
 21
-11.1998696224
 31
0.0
  0
SPLINE
  5
40D
100
AcDbEntity
  8
RACCORDO
100
AcDbSpline
 62
253
  6
CONTINUOUS
 70
0
 71
3
 72
11
 73
7
 74
5
 42
0.0000001
 43
0.0000001
 44
0.0000000001
 12
1.1674168731
 22
-4.9044609828
 32
0.0
 13
-1.022110141
 23
-4.936789498
 33
0.0
 40
0.0
 40
0.0
 40
0.0
 40
0.0
 40
0.2756971803
 40
0.536171501
 40
0.7782625828
 40
1.0
 40
1.0
 40
1.0
 40
1.0
 10
9.0705633364
 20
-11.2137028969
 30
0.0
 10
9.1778478497
 20
-11.6644182515
 30
0.0
 10
9.3501037545
 20
-12.5502161691
 30
0.0
 10
9.4807886568
 20
-13.8535993592
 30
0.0
 10
9.4760140615
 20
-15.0730915516
 30
0.0
 10
9.3774723626
 20
-15.8492117341
 30
0.0
 10
9.301925675
 20
-16.2141020517
 30
0.0
 11
9.0705633364
 21
-11.2137028969
 31
0.0
 11
9.3332549517
 21
-12.5785771748
 31
0.0
 11
9.460316406
 21
-13.8855936879
 31
0.0
 11
9.4498678754
 21
-15.1060482091
 31
0.0
 11
9.301925675
 21
-16.2141020517
 31
0.0
  0
SPLINE
  5
40E
100
AcDbEntity
  8
RACCORDO
100
AcDbSpline
 62
253
  6
CONTINUOUS
 70
0
 71
3
 72
9
 73
5
 74
3
 42
0.0000001
 43
0.0000001
 44
0.0000000001
 12
-0.0252840747
 22
0.0024423485
 32
0.0
 13
-0.01764318
 23
0.0182747831
 33
0.0
 40
0.0
 40
0.0
 40
0.0
 40
0.0
 40
0.5880496164
 40
1.0
 40
1.0
 40
1.0
 40
1.0
 10
9.0654659691
 20
-11.1929946404
 30
0.0
 10
9.0605098723
 20
-11.1925158997
 30
0.0
 10
9.0521794106
 20
-11.1911545481
 30
0.0
 10
9.0441341564
 20
-11.1874453186
 30
0.0
 10
9.0417114515
 20
-11.184935884
 30
0.0
 11
9.0654659691
 21
-11.1929946404
 31
0.0
 11
9.0508110481
 21
-11.1901029134
 31
0.0
 11
9.0417114515
 21
-11.184935884
 31
0.0
  0
SPLINE
  5
40F
100
AcDbEntity
  8
RACCORDO
100
AcDbSpline
 62
253
  6
CONTINUOUS
 70
0
 71
3
 72
8
 73
4
 74
2
 42
0.0000001
 43
0.0000001
 44
0.0000000001
 12
-0.003426602
 22
0.0035492699
 32
0.0
 13
-0.0012177306
 23
0.0047808001
 33
0.0
 40
0.0
 40
0.0
 40
0.0
 40
0.0
 40
1.0
 40
1.0
 40
1.0
 40
1.0
 10
9.0417114515
 20
-11.184935884
 30
0.0
 10
9.0405692508
 20
-11.183752794
 30
0.0
 10
9.0396465943
 20
-11.1822593288
 30
0.0
 10
9.0392406841
 20
-11.1806657287
 30
0.0
 11
9.0417114515
 21
-11.184935884
 31
0.0
 11
9.0392406841
 21
-11.1806657287
 31
0.0
  0
SPLINE
  5
410
100
AcDbEntity
  8
RACCORDO
100
AcDbSpline
 62
253
  6
CONTINUOUS
 70
0
 71
3
 72
9
 73
5
 74
3
 42
0.0000001
 43
0.0000001
 44
0.0000000001
 12
0.0008857466
 22
-0.0608678764
 32
0.0
 13
0.0544507026
 23
-0.0272177132
 33
0.0
 40
0.0
 40
0.0
 40
0.0
 40
0.0
 40
0.5499176504
 40
1.0
 40
1.0
 40
1.0
 40
1.0
 10
8.4154246553
 20
-10.3096235332
 30
0.0
 10
8.4155870178
 20
-10.3207809731
 30
0.0
 10
8.4188129745
 20
-10.3415254684
 30
0.0
 10
8.4332284637
 20
-10.3581118885
 30
0.0
 10
8.4413975638
 20
-10.3621952926
 30
0.0
 11
8.4154246553
 21
-10.3096235332
 31
0.0
 11
8.4225188589
 21
-10.3423390602
 31
0.0
 11
8.4413975638
 21
-10.3621952926
 31
0.0
  0
SPLINE
  5
411
100
AcDbEntity
  8
RACCORDO
100
AcDbSpline
 62
253
  6
CONTINUOUS
 70
0
 71
3
 72
9
 73
5
 74
3
 42
0.0000001
 43
0.0000001
 44
0.0000000001
 12
0.0837394197
 22
-0.0418696412
 32
0.0
 13
0.0786566494
 23
-0.050778822
 33
0.0
 40
0.0
 40
0.0
 40
0.0
 40
0.0
 40
0.2444417119
 40
1.0
 40
1.0
 40
1.0
 40
1.0
 10
8.4154246553
 20
-10.3096235332
 30
0.0
 10
8.422247791
 20
-10.3130350955
 30
0.0
 10
8.4499548951
 20
-10.327401633
 30
0.0
 10
8.4768352853
 20
-10.3433491019
 30
0.0
 10
8.4966451798
 20
-10.3561378885
 30
0.0
 11
8.4154246553
 21
-10.3096235332
 31
0.0
 11
8.4357439373
 21
-10.3201531209
 31
0.0
 11
8.4966451798
 21
-10.3561378885
 31
0.0
  0
SPLINE
  5
412
100
AcDbEntity
  8
RACCORDO
100
AcDbSpline
 62
253
  6
CONTINUOUS
 70
0
 71
3
 72
9
 73
5
 74
3
 42
0.0000001
 43
0.0000001
 44
0.0000000001
 12
0.0889907043
 22
-0.0574502368
 32
0.0
 13
0.0824855574
 23
-0.0664530509
 33
0.0
 40
0.0
 40
0.0
 40
0.0
 40
0.0
 40
0.2449307568
 40
1.0
 40
1.0
 40
1.0
 40
1.0
 10
8.4966451798
 20
-10.3561378885
 30
0.0
 10
8.5039107
 20
-10.3608283318
 30
0.0
 10
8.5333071326
 20
-10.380390387
 30
0.0
 10
8.5616307497
 20
-10.4015539505
 30
0.0
 10
8.5823915189
 20
-10.4182795021
 30
0.0
 11
8.4966451798
 21
-10.3561378885
 31
0.0
 11
8.5182465216
 21
-10.370507106
 31
0.0
 11
8.5823915189
 21
-10.4182795021
 31
0.0
  0
SPLINE
  5
413
100
AcDbEntity
  8
RACCORDO
100
AcDbSpline
 62
253
  6
CONTINUOUS
 70
0
 71
3
 72
9
 73
5
 74
3
 42
0.0000001
 43
0.0000001
 44
0.0000000001
 12
0.6265975549
 22
-0.5048073931
 32
0.0
 13
0.2625433034
 23
-0.7606089756
 33
0.0
 40
0.0
 40
0.0
 40
0.0
 40
0.0
 40
0.4867970717
 40
1.0
 40
1.0
 40
1.0
 40
1.0
 10
8.5823915189
 20
-10.4182795021
 30
0.0
 10
8.6840668039
 20
-10.5001924224
 30
0.0
 10
8.8640744706
 20
-10.7048686399
 30
0.0
 10
8.985907747
 20
-10.947353201
 30
0.0
 10
9.0308204111
 20
-11.0774687855
 30
0.0
 11
8.5823915189
 21
-10.4182795021
 31
0.0
 11
8.8455355479
 21
-10.7084234848
 31
0.0
 11
9.0308204111
 21
-11.0774687855
 31
0.0
  0
SPLINE
  5
414
100
AcDbEntity
  8
RACCORDO
100
AcDbSpline
 62
253
  6
CONTINUOUS
 70
0
 71
3
 72
9
 73
5
 74
3
 42
0.0000001
 43
0.0000001
 44
0.0000000001
 12
0.000884721
 22
-0.0607973643
 32
0.0
 13
0.0543335496
 23
-0.0272940951
 33
0.0
 40
0.0
 40
0.0
 40
0.0
 40
0.0
 40
0.5498776668
 40
1.0
 40
1.0
 40
1.0
 40
1.0
 10
0.2202198698
 20
-6.2120211405
 30
0.0
 10
0.2203820326
 20
-6.2231648448
 30
0.0
 10
0.2236023308
 20
-6.2438821965
 30
0.0
 10
0.2379741734
 20
-6.2604644207
 30
0.0
 10
0.2461264215
 20
-6.2645596479
 30
0.0
 11
0.2202198698
 21
-6.2120211405
 31
0.0
 11
0.2272954144
 21
-6.2446985431
 31
0.0
 11
0.2461264215
 21
-6.2645596479
 31
0.0
  0
SPLINE
  5
415
100
AcDbEntity
  8
RACCORDO
100
AcDbSpline
 62
253
  6
CONTINUOUS
 70
0
 71
3
 72
9
 73
5
 74
3
 42
0.0000001
 43
0.0000001
 44
0.0000000001
 12
0.1065774135
 22
-0.0957621572
 32
0.0
 13
0.1279709496
 23
0.0644404522
 33
0.0
 40
0.0
 40
0.0
 40
0.0
 40
0.0
 40
0.257523401
 40
1.0
 40
1.0
 40
1.0
 40
1.0
 10
-0.4128354818
 20
-6.4538422607
 30
0.0
 10
-0.4036867558
 20
-6.4620625928
 30
0.0
 10
-0.3635936435
 20
-6.4878765378
 30
0.0
 10
-0.3073295198
 20
-6.4940000375
 30
0.0
 10
-0.2756577079
 20
-6.4780515282
 30
0.0
 11
-0.4128354818
 21
-6.4538422607
 31
0.0
 11
-0.3819644925
 21
-6.4740521457
 31
0.0
 11
-0.2756577079
 21
-6.4780515282
 31
0.0
  0
SPLINE
  5
416
100
AcDbEntity
  8
RACCORDO
100
AcDbSpline
 62
253
  6
CONTINUOUS
 70
0
 71
3
 72
9
 73
5
 74
3
 42
0.0000001
 43
0.0000001
 44
0.0000000001
 12
0.0508014636
 22
0.0770387185
 32
0.0
 13
0.0688337991
 23
0.0614626793
 33
0.0
 40
0.0
 40
0.0
 40
0.0
 40
0.0
 40
0.2563763797
 40
1.0
 40
1.0
 40
1.0
 40
1.0
 10
-0.2188662917
 20
-6.3533108083
 30
0.0
 10
-0.2145248599
 20
-6.3467271724
 30
0.0
 10
-0.1968270221
 20
-6.3215642898
 30
0.0
 10
-0.1759672043
 20
-6.2985888524
 30
0.0
 10
-0.158905058
 20
-6.283353819
 30
0.0
 11
-0.2188662917
 21
-6.3533108083
 31
0.0
 11
-0.2052424114
 21
-6.3339686131
 31
0.0
 11
-0.158905058
 21
-6.283353819
 31
0.0
  0
SPLINE
  5
417
100
AcDbEntity
  8
RACCORDO
100
AcDbSpline
 62
253
  6
CONTINUOUS
 70
0
 71
3
 72
9
 73
5
 74
3
 42
0.0000001
 43
0.0000001
 44
0.0000000001
 12
0.0579133912
 22
0.0517116916
 32
0.0
 13
0.0687689072
 23
0.0360402182
 33
0.0
 40
0.0
 40
0.0
 40
0.0
 40
0.0
 40
0.2523062556
 40
1.0
 40
1.0
 40
1.0
 40
1.0
 10
-0.158905058
 20
-6.283353819
 30
0.0
 10
-0.154034421
 20
-6.279004758
 30
0.0
 10
-0.1342245204
 20
-6.2623429354
 30
0.0
 10
-0.1123641755
 20
-6.2481120788
 30
0.0
 10
-0.0952248149
 20
-6.2391297302
 30
0.0
 11
-0.158905058
 21
-6.283353819
 31
0.0
 11
-0.1439075692
 21
-6.2707517453
 31
0.0
 11
-0.0952248149
 21
-6.2391297302
 31
0.0
  0
SPLINE
  5
418
100
AcDbEntity
  8
RACCORDO
100
AcDbSpline
 62
253
  6
CONTINUOUS
 70
0
 71
3
 72
11
 73
7
 74
5
 42
0.0000001
 43
0.0000001
 44
0.0000000001
 12
0.1633391735
 22
0.5464369057
 32
0.0
 13
0.567231281
 23
-0.0593435028
 33
0.0
 40
0.0
 40
0.0
 40
0.0
 40
0.0
 40
0.2701309215
 40
0.5142921792
 40
0.7504501636
 40
1.0
 40
1.0
 40
1.0
 40
1.0
 10
-0.4128370987
 20
-6.4538431065
 30
0.0
 10
-0.3981294449
 20
-6.4046399382
 30
0.0
 10
-0.3584492567
 20
-6.3135090195
 30
0.0
 10
-0.2595601012
 20
-6.2062351213
 30
0.0
 10
-0.1301142619
 20
-6.1469478267
 30
0.0
 10
-0.0356399634
 20
-6.1428376423
 30
0.0
 10
0.0115441944
 20
-6.1477740295
 30
0.0
 11
-0.4128370987
 21
-6.4538431065
 31
0.0
 11
-0.3486960313
 21
-6.313766966
 31
0.0
 11
-0.2528481146
 21
-6.2127509561
 31
0.0
 11
-0.1305197359
 21
-6.1563910872
 31
0.0
 11
0.0115441944
 21
-6.1477740295
 31
0.0
  0
SPLINE
  5
419
100
AcDbEntity
  8
RACCORDO
100
AcDbSpline
 62
253
  6
CONTINUOUS
 70
0
 71
3
 72
9
 73
5
 74
3
 42
0.0000001
 43
0.0000001
 44
0.0000000001
 12
0.1083834358
 22
-0.0113390304
 32
0.0
 13
0.103947497
 23
-0.0327178945
 33
0.0
 40
0.0
 40
0.0
 40
0.0
 40
0.0
 40
0.2423331171
 40
1.0
 40
1.0
 40
1.0
 40
1.0
 10
0.0115441944
 20
-6.1477740295
 30
0.0
 10
0.0202991596
 20
-6.1486899703
 30
0.0
 10
0.0563211252
 20
-6.1534582113
 30
0.0
 10
0.0917961042
 20
-6.1620819743
 30
0.0
 10
0.1180486296
 20
-6.1703450626
 30
0.0
 11
0.0115441944
 21
-6.1477740295
 31
0.0
 11
0.0377256681
 21
-6.1512273926
 31
0.0
 11
0.1180486296
 21
-6.1703450626
 31
0.0
  0
SPLINE
  5
41A
100
AcDbEntity
  8
RACCORDO
100
AcDbSpline
 62
253
  6
CONTINUOUS
 70
0
 71
3
 72
9
 73
5
 74
3
 42
0.0000001
 43
0.0000001
 44
0.0000000001
 12
0.1053168268
 22
-0.0331488966
 32
0.0
 13
0.0987490884
 23
-0.0493872544
 33
0.0
 40
0.0
 40
0.0
 40
0.0
 40
0.0
 40
0.2429750241
 40
1.0
 40
1.0
 40
1.0
 40
1.0
 10
0.1180486296
 20
-6.1703450626
 30
0.0
 10
0.1265784157
 20
-6.1730298473
 30
0.0
 10
0.1614430981
 20
-6.1848382917
 30
0.0
 10
0.1953013611
 20
-6.1995586788
 30
0.0
 10
0.2202198698
 20
-6.2120211405
 30
0.0
 11
0.1180486296
 21
-6.1703450626
 31
0.0
 11
0.143461494
 21
-6.1789400734
 31
0.0
 11
0.2202198698
 21
-6.2120211405
 31
0.0
  0
SPLINE
  5
41B
100
AcDbEntity
  8
RACCORDO
100
AcDbSpline
 62
253
  6
CONTINUOUS
 70
0
 71
3
 72
9
 73
5
 74
3
 42
0.0000001
 43
0.0000001
 44
0.0000000001
 12
0.1082954601
 22
-0.0939536258
 32
0.0
 13
0.1279985597
 23
0.0645876086
 33
0.0
 40
0.0
 40
0.0
 40
0.0
 40
0.0
 40
0.2560926745
 40
1.0
 40
1.0
 40
1.0
 40
1.0
 10
-0.4173584292
 20
-6.4697420189
 30
0.0
 10
-0.4081138712
 20
-6.4777622974
 30
0.0
 10
-0.3674999904
 20
-6.5028477886
 30
0.0
 10
-0.3114231931
 20
-6.508263713
 30
0.0
 10
-0.2796835044
 20
-6.4922479813
 30
0.0
 11
-0.4173584292
 21
-6.4697420189
 31
0.0
 11
-0.386297925
 21
-6.4893207202
 31
0.0
 11
-0.2796835044
 21
-6.4922479813
 31
0.0
  0
SPLINE
  5
41C
100
AcDbEntity
  8
RACCORDO
100
AcDbSpline
 62
253
  6
CONTINUOUS
 70
0
 71
3
 72
9
 73
5
 74
3
 42
0.0000001
 43
0.0000001
 44
0.0000000001
 12
0.0425231507
 22
-0.0060671831
 32
0.0
 13
0.0425136003
 23
0.0061337468
 33
0.0
 40
0.0
 40
0.0
 40
0.0
 40
0.0
 40
0.2161115022
 40
1.0
 40
1.0
 40
1.0
 40
1.0
 10
-0.1940463855
 20
-11.5275685496
 30
0.0
 10
-0.1909831381
 20
-11.5280056123
 30
0.0
 10
-0.1766961954
 20
-11.5292183644
 30
0.0
 10
-0.1622962984
 20
-11.5280828984
 30
0.0
 10
-0.1511876577
 20
-11.5264801739
 30
0.0
 11
-0.1940463855
 21
-11.5275685496
 31
0.0
 11
-0.1848027174
 21
-11.5284201201
 31
0.0
 11
-0.1511876577
 21
-11.5264801739
 31
0.0
  0
SPLINE
  5
41D
100
AcDbEntity
  8
RACCORDO
100
AcDbSpline
 62
253
  6
CONTINUOUS
 70
0
 71
3
 72
9
 73
5
 74
3
 42
0.0000001
 43
0.0000001
 44
0.0000000001
 12
0.0818095127
 22
0.0174983527
 32
0.0
 13
0.0712050011
 23
0.0439185216
 33
0.0
 40
0.0
 40
0.0
 40
0.0
 40
0.0
 40
0.2615747918
 40
1.0
 40
1.0
 40
1.0
 40
1.0
 10
-0.1345520173
 20
-11.5234881448
 30
0.0
 10
-0.1274189152
 20
-11.5219624355
 30
0.0
 10
-0.1004313397
 20
-11.5150090358
 30
0.0
 10
-0.0741429201
 20
-11.5044362927
 30
0.0
 10
-0.0566163975
 20
-11.4936261116
 30
0.0
 11
-0.1345520173
 21
-11.5234881448
 31
0.0
 11
-0.1133482135
 21
-11.5180771269
 31
0.0
 11
-0.0566163975
 21
-11.4936261116
 31
0.0
  0
SPLINE
  5
41E
100
AcDbEntity
  8
RACCORDO
100
AcDbSpline
 62
253
  6
CONTINUOUS
 70
0
 71
3
 72
9
 73
5
 74
3
 42
0.0000001
 43
0.0000001
 44
0.0000000001
 12
-1.3766974755
 22
4.6601133099
 32
0.0
 13
1.1357708444
 23
4.7246139089
 33
0.0
 40
0.0
 40
0.0
 40
0.0
 40
0.0
 40
0.2717495092
 40
1.0
 40
1.0
 40
1.0
 40
1.0
 10
-0.056617786
 20
-11.4936259314
 30
0.0
 10
-0.1813234071
 20
-11.0714980964
 30
0.0
 10
-0.5610302414
 20
-9.4997159805
 30
0.0
 10
-0.6009320373
 20
-7.8174510065
 30
0.0
 10
-0.3252234791
 20
-6.6705502072
 30
0.0
 11
-0.056617786
 21
-11.4936259314
 31
0.0
 11
-0.3625998458
 21
-10.2090771436
 31
0.0
 11
-0.3252234791
 21
-6.6705502072
 31
0.0
  0
SPLINE
  5
41F
100
AcDbEntity
  8
RACCORDO
100
AcDbSpline
 62
253
  6
CONTINUOUS
 70
0
 71
3
 72
9
 73
5
 74
3
 42
0.0000001
 43
0.0000001
 44
0.0000000001
 12
-1.4394095538
 22
4.8883709021
 32
0.0
 13
1.3305696602
 23
4.919111131
 33
0.0
 40
0.0
 40
0.0
 40
0.0
 40
0.0
 40
0.2729523809
 40
1.0
 40
1.0
 40
1.0
 40
1.0
 10
-0.1940466592
 20
-11.5275687153
 30
0.0
 10
-0.3250100808
 20
-11.0828045565
 30
0.0
 10
-0.718503338
 20
-9.4338899423
 30
0.0
 10
-0.7398209257
 20
-7.6618846952
 30
0.0
 10
-0.4173584245
 20
-6.4697420165
 30
0.0
 11
-0.1940466592
 21
-11.5275687153
 31
0.0
 11
-0.5120917188
 21
-10.1734835953
 31
0.0
 11
-0.4173584245
 21
-6.4697420165
 31
0.0
  0
SPLINE
  5
420
100
AcDbEntity
  8
RACCORDO
100
AcDbSpline
 62
253
  6
CONTINUOUS
 70
0
 71
3
 72
11
 73
7
 74
5
 42
0.0000001
 43
0.0000001
 44
0.0000000001
 12
-0.0121709863
 22
0.1534602593
 32
0.0
 13
0.1370989109
 23
0.0700148034
 33
0.0
 40
0.0
 40
0.0
 40
0.0
 40
0.0
 40
0.2410607212
 40
0.506109351
 40
0.7677510509
 40
1.0
 40
1.0
 40
1.0
 40
1.0
 10
0.4931791717
 20
-12.4120531485
 30
0.0
 10
0.4922011894
 20
-12.3997220682
 30
0.0
 10
0.4951551205
 20
-12.3734237232
 30
0.0
 10
0.509534751
 20
-12.3363520864
 30
0.0
 10
0.5322597282
 20
-12.3042782575
 30
0.0
 10
0.5523524817
 20
-12.2879245013
 30
0.0
 10
0.5629661743
 20
-12.2825042131
 30
0.0
 11
0.4931791717
 21
-12.4120531485
 31
0.0
 11
0.4964954577
 21
-12.3750922211
 31
0.0
 11
0.5110942391
 21
-12.3369911528
 31
0.0
 11
0.534628403
 21
-12.3043042288
 31
0.0
 11
0.5629661743
 21
-12.2825042131
 31
0.0
  0
SPLINE
  5
421
100
AcDbEntity
  8
RACCORDO
100
AcDbSpline
 62
253
  6
CONTINUOUS
 70
0
 71
3
 72
9
 73
5
 74
3
 42
0.0000001
 43
0.0000001
 44
0.0000000001
 12
-0.0993683221
 22
0.0496864836
 32
0.0
 13
-0.0920675884
 23
0.0621801355
 33
0.0
 40
0.0
 40
0.0
 40
0.0
 40
0.0
 40
0.2421533275
 40
1.0
 40
1.0
 40
1.0
 40
1.0
 10
0.5629661737
 20
-12.282504213
 30
0.0
 10
0.5549453838
 20
-12.2784936306
 30
0.0
 10
0.5221223405
 20
-12.2613348994
 30
0.0
 10
0.4904953964
 20
-12.2419190568
 30
0.0
 10
0.4672376912
 20
-12.2262113872
 30
0.0
 11
0.5629661737
 21
-12.282504213
 31
0.0
 11
0.5391191026
 21
-12.2700511898
 31
0.0
 11
0.4672376912
 21
-12.2262113872
 31
0.0
  0
SPLINE
  5
422
100
AcDbEntity
  8
RACCORDO
100
AcDbSpline
 62
253
  6
CONTINUOUS
 70
0
 71
3
 72
9
 73
5
 74
3
 42
0.0000001
 43
0.0000001
 44
0.0000000001
 12
-0.4500081067
 22
0.3909030512
 32
0.0
 13
-0.2516281117
 23
0.5403663432
 33
0.0
 40
0.0
 40
0.0
 40
0.0
 40
0.0
 40
0.4912435332
 40
1.0
 40
1.0
 40
1.0
 40
1.0
 10
0.3650822749
 20
-12.1474728235
 30
0.0
 10
0.2913944175
 20
-12.0834632915
 30
0.0
 10
0.157021708
 20
-11.934752349
 30
0.0
 10
0.0543772183
 20
-11.7629645708
 30
0.0
 10
0.0117047419
 20
-11.6713262803
 30
0.0
 11
0.3650822749
 21
-12.1474728235
 31
0.0
 11
0.167031629
 21
-11.931787807
 31
0.0
 11
0.0117047419
 21
-11.6713262803
 31
0.0
  0
SPLINE
  5
423
100
AcDbEntity
  8
RACCORDO
100
AcDbSpline
 62
253
  6
CONTINUOUS
 70
0
 71
3
 72
11
 73
7
 74
5
 42
0.0000001
 43
0.0000001
 44
0.0000000001
 12
-0.9572434026
 22
0.4786772251
 32
0.0
 13
-0.3569042963
 23
1.0089926368
 33
0.0
 40
0.0
 40
0.0
 40
0.0
 40
0.0
 40
0.2250921065
 40
0.4761144425
 40
0.7395739574
 40
1.0
 40
1.0
 40
1.0
 40
1.0
 10
0.4931791717
 20
-12.4120531485
 30
0.0
 10
0.421356527
 20
-12.3761376602
 30
0.0
 10
0.2800300992
 20
-12.2786477798
 30
0.0
 10
0.0957666037
 20
-12.088034523
 30
0.0
 10
-0.0606548139
 20
-11.8585899404
 30
0.0
 10
-0.139478505
 20
-11.6879106867
 30
0.0
 10
-0.1704608962
 20
-11.6003213669
 30
0.0
 11
0.4931791717
 21
-12.4120531485
 31
0.0
 11
0.2928014885
 21
-12.2783201483
 31
0.0
 11
0.104657254
 21
-12.0865419272
 31
0.0
 11
-0.0544572513
 21
-11.8537564315
 31
0.0
 11
-0.1704608962
 21
-11.6003213669
 31
0.0
  0
SPLINE
  5
424
100
AcDbEntity
  8
RACCORDO
100
AcDbSpline
 62
253
  6
CONTINUOUS
 70
0
 71
3
 72
11
 73
7
 74
5
 42
0.0000001
 43
0.0000001
 44
0.0000000001
 12
-0.0121709948
 22
0.1534602601
 32
0.0
 13
0.1370989157
 23
0.0700147974
 33
0.0
 40
0.0
 40
0.0
 40
0.0
 40
0.0
 40
0.241060389
 40
0.5061087913
 40
0.7677507914
 40
1.0
 40
1.0
 40
1.0
 40
1.0
 10
8.6883839571
 20
-16.5096555412
 30
0.0
 10
8.6874059755
 20
-16.4973244779
 30
0.0
 10
8.6903598731
 20
-16.471026159
 30
0.0
 10
8.7047395097
 20
-16.4339545347
 30
0.0
 10
8.7274644881
 20
-16.4018806899
 30
0.0
 10
8.7475572543
 20
-16.3855268995
 30
0.0
 10
8.7581709592
 20
-16.3801066057
 30
0.0
 11
8.6883839571
 21
-16.5096555412
 31
0.0
 11
8.6917002172
 21
-16.4726946625
 31
0.0
 11
8.7062989818
 21
-16.4345936249
 31
0.0
 11
8.7298331644
 21
-16.4019066568
 31
0.0
 11
8.7581709592
 21
-16.3801066057
 31
0.0
  0
SPLINE
  5
425
100
AcDbEntity
  8
RACCORDO
100
AcDbSpline
 62
253
  6
CONTINUOUS
 70
0
 71
3
 72
9
 73
5
 74
3
 42
0.0000001
 43
0.0000001
 44
0.0000000001
 12
-0.0550349616
 22
0.0461736486
 32
0.0
 13
0.0149527958
 23
0.0702656866
 33
0.0
 40
0.0
 40
0.0
 40
0.0
 40
0.0
 40
0.536543019
 40
1.0
 40
1.0
 40
1.0
 40
1.0
 10
9.2901848234
 20
-16.2696835524
 30
0.0
 10
9.2803419486
 20
-16.2614255028
 30
0.0
 10
9.2642276377
 20
-16.2424336905
 30
0.0
 10
9.2605280633
 20
-16.2169548265
 30
0.0
 10
9.2628380558
 20
-16.2060997855
 30
0.0
 11
9.2901848234
 21
-16.2696835524
 31
0.0
 11
9.2666238412
 21
-16.239178172
 31
0.0
 11
9.2628380558
 21
-16.2060997855
 31
0.0
  0
SPLINE
  5
426
100
AcDbEntity
  8
RACCORDO
100
AcDbSpline
 62
253
  6
CONTINUOUS
 70
0
 71
3
 72
9
 73
5
 74
3
 42
0.0000001
 43
0.0000001
 44
0.0000000001
 12
-0.0168688217
 22
-0.0782765733
 32
0.0
 13
-0.0281940901
 23
-0.0749457961
 33
0.0
 40
0.0
 40
0.0
 40
0.0
 40
0.0
 40
0.2568421546
 40
1.0
 40
1.0
 40
1.0
 40
1.0
 10
9.2901840052
 20
-16.2696840475
 30
0.0
 10
9.2887397971
 20
-16.2763856221
 30
0.0
 10
9.2826734988
 20
-16.3023787547
 30
0.0
 10
9.2747896058
 20
-16.3279596887
 30
0.0
 10
9.2678053861
 20
-16.3465252075
 30
0.0
 11
9.2901840052
 21
-16.2696840475
 31
0.0
 11
9.285503732
 21
-16.2897106946
 31
0.0
 11
9.2678053861
 21
-16.3465252075
 31
0.0
  0
SPLINE
  5
427
100
AcDbEntity
  8
RACCORDO
100
AcDbSpline
 62
253
  6
CONTINUOUS
 70
0
 71
3
 72
12
 73
8
 74
6
 42
0.0000001
 43
0.0000001
 44
0.0000000001
 12
-0.2428566771
 22
-0.6455639082
 32
0.0
 13
-0.6168844416
 23
0.308521816
 33
0.0
 40
0.0
 40
0.0
 40
0.0
 40
0.0
 40
0.2414424251
 40
0.3542321705
 40
0.4673759555
 40
0.7113670899
 40
1.0
 40
1.0
 40
1.0
 40
1.0
 10
9.2678053861
 20
-16.3465252075
 30
0.0
 10
9.2482600844
 20
-16.3984807127
 30
0.0
 10
9.2050149483
 20
-16.4716260237
 30
0.0
 10
9.1188917302
 20
-16.5376241501
 30
0.0
 10
9.0181347561
 20
-16.5798412561
 30
0.0
 10
8.8645477669
 20
-16.5822233047
 30
0.0
 10
8.7477350076
 20
-16.5393387244
 30
0.0
 10
8.6883839571
 20
-16.5096555412
 30
0.0
 11
9.2678053861
 21
-16.3465252075
 31
0.0
 11
9.1790747924
 21
-16.4874486682
 31
0.0
 11
9.1172598219
 21
-16.5346815841
 31
0.0
 11
9.0453501733
 21
-16.564998162
 31
0.0
 11
8.8772352606
 21
-16.5726470664
 31
0.0
 11
8.6883839571
 21
-16.5096555412
 31
0.0
  0
ELLIPSE
  5
428
100
AcDbEntity
  8
RACCORDO
100
AcDbEllipse
 62
7
  6
CONTINUOUS
 10
1.0806329679
 20
23.9114820241
 30
0.0
 11
-0.2238185272
 21
0.4474870472
 31
0.0
 40
0.6119614214
 41
-0.6845271385
 42
0.0285911302
  0
ELLIPSE
  5
429
100
AcDbEntity
  8
RACCORDO
100
AcDbEllipse
 62
7
  6
CONTINUOUS
 10
15.9296329819
 20
-20.9250185594
 30
0.0
 11
-0.2238185272
 21
0.4474870472
 31
0.0
 40
0.6119614214
 41
-3.1701963762
 42
-2.2560086979
  0
ELLIPSE
  5
42A
100
AcDbEntity
  8
RACCORDO
100
AcDbEllipse
 62
7
  6
CONTINUOUS
 10
15.9296329819
 20
16.4869820171
 30
0.0
 11
-0.2235482059
 21
0.4472467618
 31
0.0
 40
0.6127837007
 41
-2.2550219623
 42
-0.6849108682
  0
ENDSEC
  0
SECTION
  2
OBJECTS
  0
DICTIONARY
  5
C
100
AcDbDictionary
280
0
281
1
  3
ACAD_GROUP
350
D
  3
ACAD_MLINESTYLE
350
17
  3
ACAD_LAYOUT
350
1A
  3
ACAD_PLOTSETTINGS
350
19
  3
ACAD_PLOTSTYLENAME
350
E
  0
DICTIONARY
  5
D
102
{ACAD_REACTORS
330
C
102
}
100
AcDbDictionary
280
0
281
1
  0
ACDBDICTIONARYWDFLT
  5
E
102
{ACAD_REACTORS
330
C
102
}
100
AcDbDictionary
281
1
  3
Normal
350
F
100
AcDbDictionaryWithDefault
340
F
  0
DICTIONARY
  5
17
102
{ACAD_REACTORS
330
C
102
}
100
AcDbDictionary
280
0
281
1
  3
Standard
350
18
  0
DICTIONARY
  5
19
102
{ACAD_REACTORS
330
C
102
}
100
AcDbDictionary
281
1
  0
DICTIONARY
  5
1A
102
{ACAD_REACTORS
330
C
102
}
100
AcDbDictionary
281
1
  3
Model
350
42B
  3
Layout1
350
42C
  0
ACDBPLACEHOLDER
  5
F
102
{ACAD_REACTORS
330
E
102
}
  0
MLINESTYLE
  5
18
102
{ACAD_REACTORS
330
17
102
}
100
AcDbMlineStyle
  2
STANDARD
 70
0
  3

 62
256
 51
90.0
 52
90.0
 71
2
 49
0.5
 62
256
  6
BYLAYER
 49
-0.5
 62
256
  6
BYLAYER
  0
LAYOUT
  5
42B
102
{ACAD_REACTORS
330
1A
102
}
100
AcDbPlotSettings
  1

  2
none_device
  4
ISO_A4_(297.00_x_210.00_MM)
  6

 40
0.0
 41
0.0
 42
0.0
 43
0.0
 44
297.0
 45
210.0
 46
0.0
 47
0.0
 48
0.0
 49
0.0
140
0.0
141
0.0
142
1.0
143
1.0
 70
1024
 72
1
 73
0
 74
0
  7

 75
0
147
1.0
148
0.0
149
0.0
100
AcDbLayout
  1
Model
 70
0
 71
0
 10
0.0
 20
0.0
 11
297.0
 21
210.0
 12
0.0
 22
0.0
 32
0.0
 14
0.0
 24
0.0
 34
0.0
 15
0.0
 25
0.0
 35
0.0
146
0.0
 13
0.0
 23
0.0
 33
0.0
 16
1.0
 26
0.0
 36
0.0
 17
0.0
 27
1.0
 37
0.0
 76
0
330
211
345
0
346
0
  0
LAYOUT
  5
42C
102
{ACAD_REACTORS
330
1A
102
}
100
AcDbPlotSettings
  1

  2
none_device
  4
ISO_A4_(297.00_x_210.00_MM)
  6

 40
0.0
 41
0.0
 42
0.0
 43
0.0
 44
297.0
 45
210.0
 46
0.0
 47
0.0
 48
0.0
 49
0.0
140
0.0
141
0.0
142
1.0
143
1.0
 70
0
 72
1
 73
0
 74
0
  7

 75
0
147
1.0
148
0.0
149
0.0
100
AcDbLayout
  1
Layout1
 70
0
 71
1
 10
0.0
 20
0.0
 11
297.0
 21
210.0
 12
0.0
 22
0.0
 32
0.0
 14
0.0
 24
0.0
 34
0.0
 15
0.0
 25
0.0
 35
0.0
146
0.0
 13
0.0
 23
0.0
 33
0.0
 16
1.0
 26
0.0
 36
0.0
 17
0.0
 27
1.0
 37
0.0
 76
0
330
212
345
0
346
0
  0
ENDSEC
  0
EOF
