  0
SECTION
  2
HEADER
  9
$ACADVER
  1
AC1024
  9
$DWGCODEPAGE
  3
ANSI_1252
  9
$EXTMAX
 10
558.8
 20
431.8
 30
0.0
  9
$EXTMIN
 10
0.0
 20
0.0
 30
0.0
  9
$LIMMIN
 10
0.0
 20
0.0
  9
$LIMMAX
 10
558.8
 20
431.8
  9
$VIEWCTR
 10
279.4
 20
215.9
  9
$VIEWSIZE
 40
431.8
  9
$CLAYER
  8
0
  9
$LTSCALE
 40
30.734
  9
$CELTYPE
  6
BYLAYER
  9
$DIMSCALE
 40
1.0
  9
$DIMASZ
 40
3.0
  9
$DIMEXO
 40
0.5
  9
$DIMDLI
 40
21.2344
  9
$DIMEXE
 40
1.5
  9
$DIMCEN
 40
5.0292
  9
$DIMLFAC
 40
1.0
  9
$DIMBLK
  1
_FILLED
  9
$DIMALT
 70
0
  9
$DIMALTF
 40
0.0393700787
  9
$DIMTXT
 40
3.0
  9
$DIMTOL
 70
1
  9
$DIMLIM
 70
0
  9
$DIMTFAC
 40
1.0
  9
$DIMTP
 40
0.01
  9
$DIMTM
 40
0.01
  9
$DIMGAP
 40
0.625
  9
$DIMDSEP
 70
44
  9
$AUNITS
 70
0
  9
$PDMODE
 70
3
  9
$PDSIZE
 40
3.0
  9
$HANDSEED
  5
50E
  9
$TILEMODE
 70
1
  9
$MEASUREMENT
 70
1
  9
$INSUNITS
 70
4
  0
ENDSEC
  0
SECTION
  2
CLASSES
  0
CLASS
  1
ACDBDICTIONARYWDFLT
  2
AcDbDictionaryWithDefault
  3
AutoCAD 2000
 90
0
 91
1
280
0
281
0
  0
CLASS
  1
ACDBPLACEHOLDER
  2
AcDbPlaceHolder
  3
AutoCAD 2000
 90
0
 91
1
280
0
281
0
  0
CLASS
  1
LAYOUT
  2
AcDbLayout
  3
AutoCAD 2000
 90
0
 91
0
280
0
281
0
  0
ENDSEC
  0
SECTION
  2
TABLES
  0
TABLE
  2
VPORT
  5
8
100
AcDbSymbolTable
 70
2
  0
VPORT
  5
1F4
100
AcDbSymbolTableRecord
100
AcDbViewportTableRecord
  2
*ACTIVE
 70
0
 10
0.0
 20
0.0
 11
1.0
 21
1.0
 12
279.4
 22
215.9
 13
0.0
 23
0.0
 14
1.0
 24
1.0
 15
0.0
 25
0.0
 16
0.0
 26
0.0
 36
1.0
 17
0.0
 27
0.0
 37
0.0
 40
431.8
 41
1.2941176471
 42
50.0
 43
0.0
 44
0.0
 50
0.0
 51
0.0
 71
0
 72
100
 73
1
 74
1
 75
0
 76
0
 77
0
 78
0
  0
ENDTAB
  0
TABLE
  2
LTYPE
  5
5
100
AcDbSymbolTable
 70
6
  0
LTYPE
  5
14
100
AcDbSymbolTableRecord
100
AcDbLinetypeTableRecord
  2
BYBLOCK
 70
0
  3

 72
65
 73
0
 40
0.0
  0
LTYPE
  5
15
100
AcDbSymbolTableRecord
100
AcDbLinetypeTableRecord
  2
BYLAYER
 70
0
  3

 72
65
 73
0
 40
0.0
  0
LTYPE
  5
16
100
AcDbSymbolTableRecord
100
AcDbLinetypeTableRecord
  2
CONTINUOUS
 70
64
  3
Solid line
 72
65
 73
0
 40
0.0
  0
LTYPE
  5
1F5
100
AcDbSymbolTableRecord
100
AcDbLinetypeTableRecord
  2
CENTER
 70
64
  3
____ _ ____ _ ____ _ ____ _ ____ _ ____ _ ____
 72
65
 73
4
 40
0.6
 49
0.375
 74
0
 49
-0.075
 74
0
 49
0.075
 74
0
 49
-0.075
 74
0
  0
LTYPE
  5
1F6
100
AcDbSymbolTableRecord
100
AcDbLinetypeTableRecord
  2
HIDDEN
 70
64
  3
- - - - - - - - - - - - - - - - - - - -
 72
65
 73
2
 40
0.2
 49
0.1
 74
0
 49
-0.1
 74
0
  0
LTYPE
  5
1F7
100
AcDbSymbolTableRecord
100
AcDbLinetypeTableRecord
  2
PHANTOM
 70
64
  3
_____ _ _ _____ _ _ _____ _ _ _____
 72
65
 73
6
 40
0.8
 49
0.45
 74
0
 49
-0.05
 74
0
 49
0.1
 74
0
 49
-0.05
 74
0
 49
0.1
 74
0
 49
-0.05
 74
0
  0
LTYPE
  5
1F8
100
AcDbSymbolTableRecord
100
AcDbLinetypeTableRecord
  2
DOT
 70
64
  3
. . . . . . . . . . . . . . . . . . . .
 72
65
 73
2
 40
0.2
 49
0.1
 74
0
 49
-0.1
 74
0
  0
LTYPE
  5
1F9
100
AcDbSymbolTableRecord
100
AcDbLinetypeTableRecord
  2
DASHED
 70
64
  3
- - - - - - - - - - - - - - - - - - - -
 72
65
 73
2
 40
0.2
 49
0.1
 74
0
 49
-0.1
 74
0
  0
ENDTAB
  0
TABLE
  2
LAYER
  5
2
100
AcDbSymbolTable
 70
36
  0
LAYER
  5
10
100
AcDbSymbolTableRecord
100
AcDbLayerTableRecord
  2
0
 70
0
 62
7
  6
CONTINUOUS
370
-3
390
F
  0
LAYER
  5
1FA
100
AcDbSymbolTableRecord
100
AcDbLayerTableRecord
  2
DEFAULT_1
 70
0
 62
7
  6
CENTER
370
-3
390
F
  0
LAYER
  5
1FB
100
AcDbSymbolTableRecord
100
AcDbLayerTableRecord
  2
DEFAULT_2
 70
0
 62
7
  6
HIDDEN
370
-3
390
F
  0
LAYER
  5
1FC
100
AcDbSymbolTableRecord
100
AcDbLayerTableRecord
  2
DEFAULT_3
 70
0
 62
7
  6
PHANTOM
370
-3
390
F
  0
LAYER
  5
1FD
100
AcDbSymbolTableRecord
100
AcDbLayerTableRecord
  2
ASSI
 70
0
 62
7
  6
CONTINUOUS
370
-3
390
F
  0
LAYER
  5
1FE
100
AcDbSymbolTableRecord
100
AcDbLayerTableRecord
  2
COLOR9
 70
0
 62
7
  6
CONTINUOUS
370
-3
390
F
  0
LAYER
  5
1FF
100
AcDbSymbolTableRecord
100
AcDbLayerTableRecord
  2
COLORE_TOP
 70
0
 62
7
  6
CONTINUOUS
370
-3
390
F
  0
LAYER
  5
200
100
AcDbSymbolTableRecord
100
AcDbLayerTableRecord
  2
COORDINATE
 70
0
 62
7
  6
CONTINUOUS
370
-3
390
F
  0
LAYER
  5
201
100
AcDbSymbolTableRecord
100
AcDbLayerTableRecord
  2
COORD_ORIGINE
 70
0
 62
7
  6
CONTINUOUS
370
-3
390
F
  0
LAYER
  5
202
100
AcDbSymbolTableRecord
100
AcDbLayerTableRecord
  2
COPY
 70
0
 62
7
  6
CONTINUOUS
370
-3
390
F
  0
LAYER
  5
203
100
AcDbSymbolTableRecord
100
AcDbLayerTableRecord
  2
COPY-PUBBLISH
 70
0
 62
7
  6
CONTINUOUS
370
-3
390
F
  0
LAYER
  5
204
100
AcDbSymbolTableRecord
100
AcDbLayerTableRecord
  2
COSMETICHE
 70
0
 62
7
  6
CONTINUOUS
370
-3
390
F
  0
LAYER
  5
205
100
AcDbSymbolTableRecord
100
AcDbLayerTableRecord
  2
COSMETICI
 70
0
 62
7
  6
CONTINUOUS
370
-3
390
F
  0
LAYER
  5
206
100
AcDbSymbolTableRecord
100
AcDbLayerTableRecord
  2
CURVE
 70
0
 62
7
  6
CONTINUOUS
370
-3
390
F
  0
LAYER
  5
207
100
AcDbSymbolTableRecord
100
AcDbLayerTableRecord
  2
DRAFT
 70
0
 62
7
  6
CONTINUOUS
370
-3
390
F
  0
LAYER
  5
208
100
AcDbSymbolTableRecord
100
AcDbLayerTableRecord
  2
IGES
 70
0
 62
7
  6
CONTINUOUS
370
-3
390
F
  0
LAYER
  5
209
100
AcDbSymbolTableRecord
100
AcDbLayerTableRecord
  2
IMPIANTO
 70
0
 62
7
  6
CONTINUOUS
370
-3
390
F
  0
LAYER
  5
20A
100
AcDbSymbolTableRecord
100
AcDbLayerTableRecord
  2
IMPORTED
 70
0
 62
7
  6
CONTINUOUS
370
-3
390
F
  0
LAYER
  5
20B
100
AcDbSymbolTableRecord
100
AcDbLayerTableRecord
  2
INTFCLR_3
 70
0
 62
7
  6
CONTINUOUS
370
-3
390
F
  0
LAYER
  5
20C
100
AcDbSymbolTableRecord
100
AcDbLayerTableRecord
  2
INTF_1
 70
0
 62
7
  6
CONTINUOUS
370
-3
390
F
  0
LAYER
  5
20D
100
AcDbSymbolTableRecord
100
AcDbLayerTableRecord
  2
INTF_12
 70
0
 62
7
  6
CONTINUOUS
370
-3
390
F
  0
LAYER
  5
20E
100
AcDbSymbolTableRecord
100
AcDbLayerTableRecord
  2
INTF_2
 70
0
 62
7
  6
CONTINUOUS
370
-3
390
F
  0
LAYER
  5
20F
100
AcDbSymbolTableRecord
100
AcDbLayerTableRecord
  2
INTF_YELLOW
 70
0
 62
7
  6
CONTINUOUS
370
-3
390
F
  0
LAYER
  5
210
100
AcDbSymbolTableRecord
100
AcDbLayerTableRecord
  2
NOTE
 70
0
 62
7
  6
CONTINUOUS
370
-3
390
F
  0
LAYER
  5
211
100
AcDbSymbolTableRecord
100
AcDbLayerTableRecord
  2
PIANI
 70
0
 62
7
  6
CONTINUOUS
370
-3
390
F
  0
LAYER
  5
212
100
AcDbSymbolTableRecord
100
AcDbLayerTableRecord
  2
PIANI_ORIGINE
 70
0
 62
7
  6
CONTINUOUS
370
-3
390
F
  0
LAYER
  5
213
100
AcDbSymbolTableRecord
100
AcDbLayerTableRecord
  2
PIANI_RIFERIMENTO
 70
0
 62
7
  6
CONTINUOUS
370
-3
390
F
  0
LAYER
  5
214
100
AcDbSymbolTableRecord
100
AcDbLayerTableRecord
  2
PIANI_SFORMO
 70
0
 62
7
  6
CONTINUOUS
370
-3
390
F
  0
LAYER
  5
215
100
AcDbSymbolTableRecord
100
AcDbLayerTableRecord
  2
PUNTI
 70
0
 62
7
  6
CONTINUOUS
370
-3
390
F
  0
LAYER
  5
216
100
AcDbSymbolTableRecord
100
AcDbLayerTableRecord
  2
RACCORDO
 70
0
 62
7
  6
CONTINUOUS
370
-3
390
F
  0
LAYER
  5
217
100
AcDbSymbolTableRecord
100
AcDbLayerTableRecord
  2
RGB__255__255__255__
 70
0
 62
7
  6
CONTINUOUS
370
-3
390
F
  0
LAYER
  5
218
100
AcDbSymbolTableRecord
100
AcDbLayerTableRecord
  2
RINTRACCIABILITA
 70
0
 62
7
  6
CONTINUOUS
370
-3
390
F
  0
LAYER
  5
219
100
AcDbSymbolTableRecord
100
AcDbLayerTableRecord
  2
SMUSSO
 70
0
 62
7
  6
CONTINUOUS
370
-3
390
F
  0
LAYER
  5
21A
100
AcDbSymbolTableRecord
100
AcDbLayerTableRecord
  2
SNAPLINE
 70
0
 62
7
  6
CONTINUOUS
370
-3
390
F
  0
LAYER
  5
21B
100
AcDbSymbolTableRecord
100
AcDbLayerTableRecord
  2
SUPERFICI
 70
0
 62
7
  6
CONTINUOUS
370
-3
390
F
  0
LAYER
  5
21C
100
AcDbSymbolTableRecord
100
AcDbLayerTableRecord
  2
TRASH
 70
0
 62
7
  6
CONTINUOUS
370
-3
390
F
  0
LAYER
  5
21D
100
AcDbSymbolTableRecord
100
AcDbLayerTableRecord
  2
XSEC_DATUMS
 70
0
 62
7
  6
CONTINUOUS
370
-3
390
F
  0
ENDTAB
  0
TABLE
  2
STYLE
  5
3
100
AcDbSymbolTable
 70
1
  0
STYLE
  5
11
100
AcDbSymbolTableRecord
100
AcDbTextStyleTableRecord
  2
STANDARD
 70
0
 40
0.0
 41
0.8
 50
0.0
 71
0
 42
0.2
  3
txt
  4

  0
STYLE
  5
21E
100
AcDbSymbolTableRecord
100
AcDbTextStyleTableRecord
  2
TEXTSTYLE_1
 70
0
 40
0.0
 41
0.8
 50
0.0
 71
0
 42
0.2
  3
gdt
  4

  0
ENDTAB
  0
TABLE
  2
VIEW
  5
6
100
AcDbSymbolTable
 70
0
  0
ENDTAB
  0
TABLE
  2
UCS
  5
7
100
AcDbSymbolTable
 70
0
  0
ENDTAB
  0
TABLE
  2
APPID
  5
9
100
AcDbSymbolTable
 70
1
  0
APPID
  5
21F
100
AcDbSymbolTableRecord
100
AcDbRegAppTableRecord
  2
ACAD
 70
0
  0
ENDTAB
  0
TABLE
  2
BLOCK_RECORD
  5
1
100
AcDbSymbolTable
 70
0
  0
BLOCK_RECORD
  5
220
100
AcDbSymbolTableRecord
100
AcDbBlockTableRecord
  2
*Model_Space
  0
BLOCK_RECORD
  5
221
100
AcDbSymbolTableRecord
100
AcDbBlockTableRecord
  2
*Paper_Space
  0
BLOCK_RECORD
  5
222
100
AcDbSymbolTableRecord
100
AcDbBlockTableRecord
  2
_FILLED
  0
ENDTAB
  0
TABLE
  2
DIMSTYLE
  5
A
100
AcDbSymbolTable
 70
1
100
AcDbDimStyleTable
 71
0
  0
DIMSTYLE
105
223
100
AcDbSymbolTableRecord
100
AcDbDimStyleTableRecord
  2
STANDARD
 70
0
  3

  4

 40
1.0
 41
3.0
 42
0.5
 43
0.38
 44
1.5
 45
0.0
 46
0.0
 47
0.01
 48
0.01
140
3.0
141
0.0
142
0.0
143
25.4
144
1.0
145
0.0
146
1.0
147
0.625
 71
1
 72
0
 73
0
 74
0
 75
0
 76
0
 77
1
 78
8
 79
2
170
0
171
1
172
0
173
0
174
0
175
0
176
0
177
0
178
0
270
2
179
2
271
2
272
2
273
2
274
2
275
0
280
0
281
0
282
0
283
1
284
8
285
0
286
0
287
3
288
0
340
11
278
44
341
222
342
222
343
222
344
222
  0
ENDTAB
  0
ENDSEC
  0
SECTION
  2
BLOCKS
  0
BLOCK
  5
20
100
AcDbEntity
  8
0
100
AcDbBlockBegin
  2
*Model_Space
 70
0
 10
0.0
 20
0.0
 30
0.0
  3
*Model_Space
  1

  0
ENDBLK
  5
21
100
AcDbEntity
  8
0
100
AcDbBlockEnd
  0
BLOCK
  5
1C
100
AcDbEntity
  8
0
100
AcDbBlockBegin
  2
*Paper_Space
 70
0
 10
0.0
 20
0.0
 30
0.0
  3
*Paper_Space
  1

  0
ENDBLK
  5
1D
100
AcDbEntity
  8
0
100
AcDbBlockEnd
  0
BLOCK
  5
224
100
AcDbEntity
  8
0
100
AcDbBlockBegin
  2
_FILLED
 70
64
 10
0.0
 20
0.0
 30
0.0
  3
_FILLED
  1

  0
SOLID
  5
225
100
AcDbEntity
  8
0
  6
BYBLOCK
 62
0
100
AcDbTrace
 10
0.0
 20
0.0
 30
0.0
 11
-1.0
 21
0.3166666667
 31
0.0
 12
-1.0
 22
-0.3166666667
 32
0.0
 13
-1.0
 23
-0.3166666667
 33
0.0
  0
ENDBLK
  5
226
100
AcDbEntity
  8
0
  6
BYBLOCK
 62
0
100
AcDbBlockEnd
  0
ENDSEC
  0
SECTION
  2
ENTITIES
  0
LWPOLYLINE
  5
227
100
AcDbEntity
  8
RACCORDO
100
AcDbPolyline
 62
7
  6
CONTINUOUS
 90
14
 70
0
 10
-115.9914800336
 20
25.2983128671
 10
-116.0580162143
 20
25.2511517189
 10
-116.1225280016
 20
25.1970780218
 10
-116.1835022589
 20
25.137279495
 10
-116.2407083328
 20
25.0721630677
 10
-116.2935132708
 20
25.0026199133
 10
-116.341879731
 20
24.928884608
 10
-116.385622105
 20
24.8512311757
 10
-116.4240242011
 20
24.7709181659
 10
-116.4569843197
 20
24.6882606658
 10
-116.4842882591
 20
24.6035107099
 10
-116.5054504347
 20
24.5179298605
 10
-116.5202707746
 20
24.4320324474
 10
-116.5284884197
 20
24.3476298872
  0
LINE
  5
228
100
AcDbEntity
  8
RACCORDO
100
AcDbLine
 62
7
  6
CONTINUOUS
 10
-115.9916684205
 20
25.2982043451
 30
0.0
 11
-113.2683673717
 21
27.0632380513
 31
0.0
  0
LINE
  5
229
100
AcDbEntity
  8
0
100
AcDbLine
 62
7
  6
CONTINUOUS
 10
-110.5951329417
 20
29.8789150334
 30
0.0
 11
-109.0119592764
 21
30.6911130915
 31
0.0
  0
LINE
  5
22A
100
AcDbEntity
  8
0
100
AcDbLine
 62
250
  6
CONTINUOUS
 10
-110.4820472756
 20
29.8724670583
 30
0.0
 11
-108.8992906724
 21
30.6844511556
 31
0.0
  0
LINE
  5
22B
100
AcDbEntity
  8
0
100
AcDbLine
 62
7
  6
CONTINUOUS
 10
-109.0119592784
 20
30.6911130906
 30
0.0
 11
-109.0102228617
 21
30.6919813132
 31
0.0
  0
LINE
  5
22C
100
AcDbEntity
  8
0
100
AcDbLine
 62
7
  6
CONTINUOUS
 10
-109.0102228625
 20
30.6919813128
 30
0.0
 11
-108.4753529048
 21
30.9525334132
 31
0.0
  0
LINE
  5
22D
100
AcDbEntity
  8
0
100
AcDbLine
 62
250
  6
CONTINUOUS
 10
-108.8992906724
 20
30.6844511556
 30
0.0
 11
-108.3648407937
 21
30.9447986222
 31
0.0
  0
LINE
  5
22E
100
AcDbEntity
  8
0
100
AcDbLine
 62
250
  6
CONTINUOUS
 10
-94.1935295463
 20
-18.0044953447
 30
0.0
 11
-94.721796718
 21
-17.8959930676
 31
0.0
  0
LWPOLYLINE
  5
22F
100
AcDbEntity
  8
RACCORDO
100
AcDbPolyline
 62
7
  6
CONTINUOUS
 90
10
 70
0
 10
-99.3659924327
 20
-19.0204499249
 10
-99.3049468977
 20
-19.0474931272
 10
-99.2313418649
 20
-19.0713767145
 10
-99.1554178747
 20
-19.0870984086
 10
-99.0770770461
 20
-19.0946098037
 10
-98.9970298089
 20
-19.0936161621
 10
-98.9161994721
 20
-19.083964868
 10
-98.8345255061
 20
-19.0654163629
 10
-98.7523521067
 20
-19.0376021359
 10
-98.6640564392
 20
-18.9969876419
  0
LINE
  5
230
100
AcDbEntity
  8
RACCORDO
100
AcDbLine
 62
7
  6
CONTINUOUS
 10
-114.05501945
 20
-11.6759427067
 30
0.0
 11
-114.055644718
 21
-11.6756308187
 31
0.0
  0
LINE
  5
231
100
AcDbEntity
  8
ASSI
100
AcDbLine
 62
7
  6
CONTINUOUS
 10
-114.0556444221
 20
-11.6756309666
 30
0.0
 11
-99.3652584976
 21
-19.0208239288
 31
0.0
  0
LINE
  5
232
100
AcDbEntity
  8
RACCORDO
100
AcDbLine
 62
250
  6
CONTINUOUS
 10
-114.2958712951
 20
-11.3156757183
 30
0.0
 11
-99.6111164043
 21
-18.6580531637
 31
0.0
  0
LINE
  5
233
100
AcDbEntity
  8
RACCORDO
100
AcDbLine
 62
7
  6
CONTINUOUS
 10
-99.3660894033
 20
-19.0204072181
 30
0.0
 11
-99.3652582061
 21
-19.0208240746
 31
0.0
  0
LINE
  5
234
100
AcDbEntity
  8
RACCORDO
100
AcDbLine
 62
250
  6
CONTINUOUS
 10
-115.7536147521
 20
25.2926989135
 30
0.0
 11
-113.0340182811
 21
27.0553315981
 31
0.0
  0
LINE
  5
235
100
AcDbEntity
  8
0
100
AcDbLine
 62
7
  6
CONTINUOUS
 10
-110.7059359461
 20
28.5318766175
 30
0.0
 11
-110.1357366194
 21
28.8643550512
 31
0.0
  0
LINE
  5
236
100
AcDbEntity
  8
0
100
AcDbLine
 62
250
  6
CONTINUOUS
 10
-110.472033171
 20
28.5234291828
 30
0.0
 11
-110.028025882
 21
28.7823261002
 31
0.0
  0
LINE
  5
237
100
AcDbEntity
  8
0
100
AcDbLine
 62
250
  6
CONTINUOUS
 10
-108.8035092052
 20
29.0331980231
 30
0.0
 11
-107.2022284143
 21
29.8359200266
 31
0.0
  0
LINE
  5
238
100
AcDbEntity
  8
0
100
AcDbLine
 62
250
  6
CONTINUOUS
 10
-108.6267355015
 20
28.7283084842
 30
0.0
 11
-107.0254547107
 21
29.5310304877
 31
0.0
  0
LINE
  5
239
100
AcDbEntity
  8
0
100
AcDbLine
 62
250
  6
CONTINUOUS
 10
-107.2022284143
 20
29.8359200266
 30
0.0
 11
-106.6739612426
 21
30.0993588466
 31
0.0
  0
LINE
  5
23A
100
AcDbEntity
  8
0
100
AcDbLine
 62
250
  6
CONTINUOUS
 10
-107.0254547107
 20
29.5310304877
 30
0.0
 11
-106.4971875389
 21
29.7944693078
 31
0.0
  0
LINE
  5
23B
100
AcDbEntity
  8
0
100
AcDbLine
 62
250
  6
CONTINUOUS
 10
-94.2829433416
 20
-17.6849285387
 30
0.0
 11
-94.721796718
 21
-17.594791212
 31
0.0
  0
LINE
  5
23C
100
AcDbEntity
  8
0
100
AcDbLine
 62
7
  6
CONTINUOUS
 10
-98.1906920423
 20
-18.7477453109
 30
0.0
 11
-96.6106261721
 21
-19.537778246
 31
0.0
  0
LINE
  5
23D
100
AcDbEntity
  8
0
100
AcDbLine
 62
250
  6
CONTINUOUS
 10
-98.0906196937
 20
-18.6950496833
 30
0.0
 11
-96.6755994685
 21
-19.4025597959
 31
0.0
  0
LINE
  5
23E
100
AcDbEntity
  8
0
100
AcDbLine
 62
250
  6
CONTINUOUS
 10
-96.6755994685
 20
-19.0625858617
 30
0.0
 11
-97.7594467811
 21
-18.5206622055
 31
0.0
  0
LINE
  5
23F
100
AcDbEntity
  8
0
100
AcDbLine
 62
250
  6
CONTINUOUS
 10
-96.5872111208
 20
-18.8308916879
 30
0.0
 11
-97.4907004494
 21
-18.3791470236
 31
0.0
  0
LINE
  5
240
100
AcDbEntity
  8
0
100
AcDbLine
 62
7
  6
CONTINUOUS
 10
-95.9643788604
 20
-18.0860893846
 30
0.0
 11
-96.4618247037
 21
-17.8373664629
 31
0.0
  0
LINE
  5
241
100
AcDbEntity
  8
0
100
AcDbLine
 62
7
  6
CONTINUOUS
 10
-95.4471482667
 20
-17.6507919542
 30
0.0
 11
-95.7841575394
 21
-17.4822873179
 31
0.0
  0
LWPOLYLINE
  5
242
100
AcDbEntity
  8
RACCORDO
100
AcDbPolyline
 62
7
  6
CONTINUOUS
 90
10
 70
0
 10
-116.5284917433
 20
24.3478079816
 10
-116.5882488963
 20
23.2489174077
 10
-116.6392222983
 20
22.0809878378
 10
-116.6769177215
 20
20.9191098787
 10
-116.7013220691
 20
19.763565439
 10
-116.7124296114
 20
18.614586641
 10
-116.710236112
 20
17.4723864813
 10
-116.6947383775
 20
16.3371950847
 10
-116.6659396908
 20
15.2092855557
 10
-116.6271921791
 20
14.1663588324
  0
LINE
  5
243
100
AcDbEntity
  8
0
100
AcDbLine
 62
250
  6
CONTINUOUS
 10
-107.0254547107
 20
28.8039856353
 30
0.0
 11
-106.4971875389
 21
29.446937791
 31
0.0
  0
LINE
  5
244
100
AcDbEntity
  8
0
100
AcDbLine
 62
7
  6
CONTINUOUS
 10
-107.0254547107
 20
28.7144551689
 30
0.0
 11
-106.4818269665
 21
29.3761026245
 31
0.0
  0
LINE
  5
245
100
AcDbEntity
  8
0
100
AcDbLine
 62
7
  6
CONTINUOUS
 10
-107.0254547107
 20
27.9288798268
 30
0.0
 11
-107.9155148934
 21
27.4321989055
 31
0.0
  0
LINE
  5
246
100
AcDbEntity
  8
0
100
AcDbLine
 62
7
  6
CONTINUOUS
 10
-105.0455557233
 20
28.3245709792
 30
0.0
 11
-106.1000451547
 21
27.7835979405
 31
0.0
  0
LINE
  5
247
100
AcDbEntity
  8
0
100
AcDbLine
 62
7
  6
CONTINUOUS
 10
-108.6393944951
 20
25.2052833955
 30
0.0
 11
-108.3565517168
 21
25.3467047846
 31
0.0
  0
LINE
  5
248
100
AcDbEntity
  8
0
100
AcDbLine
 62
7
  6
CONTINUOUS
 10
-105.4406352804
 20
27.4538930033
 30
0.0
 11
-104.5855320816
 21
27.8800869935
 31
0.0
  0
LINE
  5
249
100
AcDbEntity
  8
0
100
AcDbLine
 62
7
  6
CONTINUOUS
 10
-103.7055033486
 20
28.3425563424
 30
0.0
 11
-99.0928604926
 21
30.6157785323
 31
0.0
  0
LINE
  5
24A
100
AcDbEntity
  8
0
100
AcDbLine
 62
7
  6
CONTINUOUS
 10
-99.7093323174
 20
30.9240144447
 30
0.0
 11
-105.0455557233
 21
28.3245709792
 31
0.0
  0
LINE
  5
24B
100
AcDbEntity
  8
0
100
AcDbLine
 62
7
  6
CONTINUOUS
 10
-99.201122941
 20
31.7435507078
 30
0.0
 11
-106.3224617564
 21
28.2794517424
 31
0.0
  0
LINE
  5
24C
100
AcDbEntity
  8
RACCORDO
100
AcDbLine
 62
7
  6
CONTINUOUS
 10
-91.6656700575
 20
33.942875645
 30
0.0
 11
-95.238743756
 21
32.2374423281
 31
0.0
  0
LINE
  5
24D
100
AcDbEntity
  8
RACCORDO
100
AcDbLine
 62
7
  6
CONTINUOUS
 10
-92.6369526658
 20
34.2414775089
 30
0.0
 11
-98.3307754621
 21
31.5562864518
 31
0.0
  0
LINE
  5
24E
100
AcDbEntity
  8
RACCORDO
100
AcDbLine
 62
250
  6
CONTINUOUS
 10
-92.1980679154
 20
34.2090745739
 30
0.0
 11
-98.084397889
 21
31.4330976653
 31
0.0
  0
LINE
  5
24F
100
AcDbEntity
  8
0
100
AcDbLine
 62
250
  6
CONTINUOUS
 10
-94.721796718
 20
-17.4655018505
 30
0.0
 11
-94.2829433416
 21
-17.6849285387
 31
0.0
  0
LINE
  5
250
100
AcDbEntity
  8
0
100
AcDbLine
 62
7
  6
CONTINUOUS
 10
-94.721796718
 20
-17.4618817009
 30
0.0
 11
-94.2595282904
 21
-17.6930159148
 31
0.0
  0
LWPOLYLINE
  5
251
100
AcDbEntity
  8
RACCORDO
100
AcDbPolyline
 62
7
  6
CONTINUOUS
 90
12
 70
0
 10
-114.4412909588
 20
-11.1458433304
 10
-114.4270958197
 20
-11.2065668791
 10
-114.4057280962
 20
-11.2739535294
 10
-114.3794463692
 20
-11.3374500304
 10
-114.3485126193
 20
-11.3969487765
 10
-114.313116721
 20
-11.4524638468
 10
-114.2736389852
 20
-11.503663248
 10
-114.2304392963
 20
-11.5503235503
 10
-114.1836848796
 20
-11.59244242
 10
-114.1337290397
 20
-11.6298265717
 10
-114.0811292286
 20
-11.6621940427
 10
-114.0549285003
 20
-11.6759829042
  0
LINE
  5
252
100
AcDbEntity
  8
RACCORDO
100
AcDbLine
 62
7
  6
CONTINUOUS
 10
-114.4413695547
 20
-11.1455067568
 30
0.0
 11
-114.4413026803
 21
-11.1458456488
 31
0.0
  0
LINE
  5
253
100
AcDbEntity
  8
RACCORDO
100
AcDbLine
 62
250
  6
CONTINUOUS
 10
-114.2958712951
 20
-11.3156757183
 30
0.0
 11
-114.3329427933
 21
-11.1255962147
 31
0.0
  0
LINE
  5
254
100
AcDbEntity
  8
RACCORDO
100
AcDbLine
 62
250
  6
CONTINUOUS
 10
-114.2958712951
 20
-11.3156757183
 30
0.0
 11
-114.3319701945
 21
-11.1248152225
 31
0.0
  0
LWPOLYLINE
  5
255
100
AcDbEntity
  8
RACCORDO
100
AcDbPolyline
 62
7
  6
CONTINUOUS
 90
10
 70
0
 10
-115.6900047491
 20
-1.779536121
 10
-115.607146042
 20
-2.8024829537
 10
-115.5058290244
 20
-3.8866080475
 10
-115.3912806027
 20
-4.9619172702
 10
-115.2635241647
 20
-6.0281488764
 10
-115.1225841415
 20
-7.0850895249
 10
-114.9684838078
 20
-8.1325447236
 10
-114.801249881
 20
-9.1703035328
 10
-114.6209217562
 20
-10.1981162051
 10
-114.4413695547
 20
-11.1455067568
  0
LINE
  5
256
100
AcDbEntity
  8
RACCORDO
100
AcDbLine
 62
250
  6
CONTINUOUS
 10
-115.5435666055
 20
-1.956606952
 30
0.0
 11
-115.5575340047
 21
-1.7700010293
 31
0.0
  0
LINE
  5
257
100
AcDbEntity
  8
RACCORDO
100
AcDbLine
 62
250
  6
CONTINUOUS
 10
-115.5435666055
 20
-1.956606952
 30
0.0
 11
-115.5572434756
 21
-1.7698155502
 31
0.0
  0
LWPOLYLINE
  5
258
100
AcDbEntity
  8
RACCORDO
100
AcDbPolyline
 62
7
  6
CONTINUOUS
 90
10
 70
0
 10
-116.6271922112
 20
14.1663589929
 10
-116.5500783985
 20
12.4340818542
 10
-116.4636889755
 20
10.6345593711
 10
-116.3710582097
 20
8.8387808399
 10
-116.2721878686
 20
7.0467832421
 10
-116.1670796378
 20
5.2585972671
 10
-116.0557351167
 20
3.4742511749
 10
-115.9381560952
 20
1.6937755445
 10
-115.8143450006
 20
-0.0827930929
 10
-115.6900047484
 20
-1.7795363332
  0
LINE
  5
259
100
AcDbEntity
  8
DRAFT
100
AcDbLine
 62
7
  6
CONTINUOUS
 10
-106.3819637824
 20
24.1709565642
 30
0.0
 11
-106.7958938805
 21
23.9362693978
 31
0.0
  0
LINE
  5
25A
100
AcDbEntity
  8
0
100
AcDbLine
 62
7
  6
CONTINUOUS
 10
-105.4406352804
 20
26.0077302375
 30
0.0
 11
-104.7273576718
 21
26.4035846826
 31
0.0
  0
LINE
  5
25B
100
AcDbEntity
  8
0
100
AcDbLine
 62
7
  6
CONTINUOUS
 10
-102.6060373282
 20
25.7191711356
 30
0.0
 11
-102.8212654993
 21
25.5997239145
 31
0.0
  0
LINE
  5
25C
100
AcDbEntity
  8
0
100
AcDbLine
 62
7
  6
CONTINUOUS
 10
-95.0829617149
 20
29.8762847132
 30
0.0
 11
-94.4541043493
 21
30.2078936366
 31
0.0
  0
LINE
  5
25D
100
AcDbEntity
  8
0
100
AcDbLine
 62
7
  6
CONTINUOUS
 10
-101.1406976052
 20
26.3322445885
 30
0.0
 11
-101.3523871316
 21
26.2230145323
 31
0.0
  0
LINE
  5
25E
100
AcDbEntity
  8
0
100
AcDbLine
 62
250
  6
CONTINUOUS
 10
-101.0504042046
 20
26.3269952198
 30
0.0
 11
-101.2615005621
 21
26.2180712338
 31
0.0
  0
LINE
  5
25F
100
AcDbEntity
  8
RACCORDO
100
AcDbLine
 62
7
  6
CONTINUOUS
 10
-90.6283780444
 20
33.3605961268
 30
0.0
 11
-94.8447578221
 21
31.2152865101
 31
0.0
  0
LINE
  5
260
100
AcDbEntity
  8
0
100
AcDbLine
 62
7
  6
CONTINUOUS
 10
-101.9093514227
 20
26.0691404544
 30
0.0
 11
-102.6060373282
 21
25.7191711356
 31
0.0
  0
LINE
  5
261
100
AcDbEntity
  8
0
100
AcDbLine
 62
250
  6
CONTINUOUS
 10
-102.7474568895
 20
27.1755215623
 30
0.0
 11
-102.0605551042
 21
27.5200822202
 31
0.0
  0
LINE
  5
262
100
AcDbEntity
  8
0
100
AcDbLine
 62
250
  6
CONTINUOUS
 10
-102.6060373282
 20
26.9316125632
 30
0.0
 11
-101.9179121271
 21
27.2767869055
 31
0.0
  0
LINE
  5
263
100
AcDbEntity
  8
DRAFT
100
AcDbLine
 62
7
  6
CONTINUOUS
 10
-90.6223210575
 20
32.9231076596
 30
0.0
 11
-94.8447578221
 21
30.8050674672
 31
0.0
  0
LINE
  5
264
100
AcDbEntity
  8
0
100
AcDbLine
 62
7
  6
CONTINUOUS
 10
-98.3753364015
 20
28.6425173786
 30
0.0
 11
-97.2834534394
 21
29.1884588597
 31
0.0
  0
LINE
  5
265
100
AcDbEntity
  8
0
100
AcDbLine
 62
7
  6
CONTINUOUS
 10
-94.3258169205
 20
29.9848019053
 30
0.0
 11
-93.8308421737
 21
30.2322892787
 31
0.0
  0
LINE
  5
266
100
AcDbEntity
  8
0
100
AcDbLine
 62
7
  6
CONTINUOUS
 10
-101.1389963212
 20
26.3330952945
 30
0.0
 11
-101.1406976254
 21
26.332244578
 31
0.0
  0
LINE
  5
267
100
AcDbEntity
  8
0
100
AcDbLine
 62
250
  6
CONTINUOUS
 10
-102.9622701036
 20
27.0684560046
 30
0.0
 11
-102.7474568895
 21
27.1755215623
 31
0.0
  0
LINE
  5
268
100
AcDbEntity
  8
0
100
AcDbLine
 62
250
  6
CONTINUOUS
 10
-102.8212654993
 20
26.8243401858
 30
0.0
 11
-102.6060373282
 21
26.9316125632
 31
0.0
  0
LINE
  5
269
100
AcDbEntity
  8
0
100
AcDbLine
 62
7
  6
CONTINUOUS
 10
-99.3679012247
 20
29.0847886725
 30
0.0
 11
-98.956435656
 21
29.2875688769
 31
0.0
  0
LINE
  5
26A
100
AcDbEntity
  8
0
100
AcDbLine
 62
7
  6
CONTINUOUS
 10
-96.2418870015
 20
30.263932738
 30
0.0
 11
-98.3770226053
 21
29.211686166
 31
0.0
  0
LINE
  5
26B
100
AcDbEntity
  8
0
100
AcDbLine
 62
7
  6
CONTINUOUS
 10
-100.4397254147
 20
26.671741649
 30
0.0
 11
-101.1389963026
 21
26.3330953041
 31
0.0
  0
LINE
  5
26C
100
AcDbEntity
  8
0
100
AcDbLine
 62
250
  6
CONTINUOUS
 10
-100.3514078695
 20
26.6655086029
 30
0.0
 11
-101.0504042046
 21
26.3269952198
 31
0.0
  0
LINE
  5
26D
100
AcDbEntity
  8
RACCORDO
100
AcDbLine
 62
250
  6
CONTINUOUS
 10
-99.0705572702
 20
27.8778399526
 30
0.0
 11
-99.0330982743
 21
27.8951397582
 31
0.0
  0
LINE
  5
26E
100
AcDbEntity
  8
RACCORDO
100
AcDbLine
 62
7
  6
CONTINUOUS
 10
-99.2320206734
 20
27.9207972534
 30
0.0
 11
-99.2827543359
 21
27.8974052458
 31
0.0
  0
LINE
  5
26F
100
AcDbEntity
  8
SUPERFICI
100
AcDbLine
 62
7
  6
CONTINUOUS
 10
-110.4971808099
 20
-7.2277289408
 30
0.0
 11
-109.6132973133
 21
-7.6696706891
 31
0.0
  0
LINE
  5
270
100
AcDbEntity
  8
DRAFT
100
AcDbLine
 62
7
  6
CONTINUOUS
 10
-110.4971808099
 20
-7.2277289408
 30
0.0
 11
-109.6132973133
 21
-7.6696706891
 31
0.0
  0
LINE
  5
271
100
AcDbEntity
  8
SUPERFICI
100
AcDbLine
 62
7
  6
CONTINUOUS
 10
-108.4819263831
 20
-8.2353561542
 30
0.0
 11
-107.4212661856
 21
-8.765686253
 31
0.0
  0
LINE
  5
272
100
AcDbEntity
  8
DRAFT
100
AcDbLine
 62
7
  6
CONTINUOUS
 10
-108.4819263831
 20
-8.2353561542
 30
0.0
 11
-107.4212661856
 21
-8.765686253
 31
0.0
  0
LINE
  5
273
100
AcDbEntity
  8
SUPERFICI
100
AcDbLine
 62
7
  6
CONTINUOUS
 10
-106.2898954349
 20
-9.3313716283
 30
0.0
 11
-105.4060119384
 21
-9.7733133766
 31
0.0
  0
LINE
  5
274
100
AcDbEntity
  8
DRAFT
100
AcDbLine
 62
7
  6
CONTINUOUS
 10
-106.2898954349
 20
-9.3313716283
 30
0.0
 11
-105.4060119384
 21
-9.7733133766
 31
0.0
  0
LINE
  5
275
100
AcDbEntity
  8
SUPERFICI
100
AcDbLine
 62
7
  6
CONTINUOUS
 10
-110.5834724351
 20
-6.4101248201
 30
0.0
 11
-109.6995889221
 21
-6.8520665766
 31
0.0
  0
LINE
  5
276
100
AcDbEntity
  8
DRAFT
100
AcDbLine
 62
7
  6
CONTINUOUS
 10
-110.5834724351
 20
-6.4101248201
 30
0.0
 11
-109.6995889221
 21
-6.8520665766
 31
0.0
  0
LINE
  5
277
100
AcDbEntity
  8
SUPERFICI
100
AcDbLine
 62
7
  6
CONTINUOUS
 10
-108.5682180083
 20
-7.4177520335
 30
0.0
 11
-107.5075577943
 21
-7.9480821405
 31
0.0
  0
LINE
  5
278
100
AcDbEntity
  8
DRAFT
100
AcDbLine
 62
7
  6
CONTINUOUS
 10
-108.5682180083
 20
-7.4177520335
 30
0.0
 11
-107.5075577943
 21
-7.9480821405
 31
0.0
  0
LINE
  5
279
100
AcDbEntity
  8
SUPERFICI
100
AcDbLine
 62
7
  6
CONTINUOUS
 10
-106.3761870602
 20
-8.5137675076
 30
0.0
 11
-105.4923035472
 21
-8.9557092641
 31
0.0
  0
LINE
  5
27A
100
AcDbEntity
  8
DRAFT
100
AcDbLine
 62
7
  6
CONTINUOUS
 10
-106.3761870602
 20
-8.5137675076
 30
0.0
 11
-105.4923035472
 21
-8.9557092641
 31
0.0
  0
LINE
  5
27B
100
AcDbEntity
  8
DRAFT
100
AcDbLine
 62
7
  6
CONTINUOUS
 10
-95.9565361541
 20
-12.4412303709
 30
0.0
 11
-95.0938640008
 21
-12.8725664476
 31
0.0
  0
LINE
  5
27C
100
AcDbEntity
  8
RACCORDO
100
AcDbLine
 62
7
  6
CONTINUOUS
 10
-101.4936699274
 20
25.9709832148
 30
0.0
 11
-101.4606778107
 21
25.9998577188
 31
0.0
  0
LINE
  5
27D
100
AcDbEntity
  8
RACCORDO
100
AcDbLine
 62
7
  6
CONTINUOUS
 10
-101.0067306609
 20
26.3971495596
 30
0.0
 11
-99.3207620774
 21
27.8726992188
 31
0.0
  0
LINE
  5
27E
100
AcDbEntity
  8
RACCORDO
100
AcDbLine
 62
250
  6
CONTINUOUS
 10
-100.4653110223
 20
26.6593509251
 30
0.0
 11
-99.072162195
 21
27.8786264783
 31
0.0
  0
LINE
  5
27F
100
AcDbEntity
  8
0
100
AcDbLine
 62
7
  6
CONTINUOUS
 10
-99.6382385841
 20
25.4064402448
 30
0.0
 11
-100.4785461573
 21
24.9728484417
 31
0.0
  0
LINE
  5
280
100
AcDbEntity
  8
0
100
AcDbLine
 62
7
  6
CONTINUOUS
 10
-98.7523053708
 20
25.1779458029
 30
0.0
 11
-99.8191362829
 21
24.6431435046
 31
0.0
  0
LINE
  5
281
100
AcDbEntity
  8
RACCORDO
100
AcDbLine
 62
7
  6
CONTINUOUS
 10
-91.3626642612
 20
30.412789131
 30
0.0
 11
-92.6741285722
 21
29.7570569755
 31
0.0
  0
LINE
  5
282
100
AcDbEntity
  8
RACCORDO
100
AcDbLine
 62
7
  6
CONTINUOUS
 10
-90.5141335535
 20
29.9885263474
 30
0.0
 11
-91.0947141153
 21
29.6982360665
 31
0.0
  0
LINE
  5
283
100
AcDbEntity
  8
0
100
AcDbLine
 62
7
  6
CONTINUOUS
 10
-93.4778133016
 20
27.8082549368
 30
0.0
 11
-98.7523053708
 21
25.1779458029
 31
0.0
  0
LINE
  5
284
100
AcDbEntity
  8
0
100
AcDbLine
 62
7
  6
CONTINUOUS
 10
-94.0942851264
 20
28.1164908492
 30
0.0
 11
-98.7064596251
 21
25.8430344807
 31
0.0
  0
LINE
  5
285
100
AcDbEntity
  8
0
100
AcDbLine
 62
7
  6
CONTINUOUS
 10
-93.3141598535
 20
27.4866651741
 30
0.0
 11
-91.9913973919
 21
28.1386879332
 31
0.0
  0
LINE
  5
286
100
AcDbEntity
  8
RACCORDO
100
AcDbLine
 62
7
  6
CONTINUOUS
 10
-87.0052188746
 20
31.6126500535
 30
0.0
 11
-90.5686497112
 21
29.9023953057
 31
0.0
  0
LINE
  5
287
100
AcDbEntity
  8
RACCORDO
100
AcDbLine
 62
250
  6
CONTINUOUS
 10
-115.5435666055
 20
-1.956606952
 30
0.0
 11
-100.8949061203
 21
-9.2809371946
 31
0.0
  0
LINE
  5
288
100
AcDbEntity
  8
0
100
AcDbLine
 62
7
  6
CONTINUOUS
 10
-110.8253174369
 20
28.2668604222
 30
0.0
 11
-110.8253174369
 21
25.950981176
 31
0.0
  0
LINE
  5
289
100
AcDbEntity
  8
0
100
AcDbLine
 62
7
  6
CONTINUOUS
 10
-110.7310188363
 20
29.6564785909
 30
0.0
 11
-110.7310188363
 21
29.3165046568
 31
0.0
  0
LINE
  5
28A
100
AcDbEntity
  8
0
100
AcDbLine
 62
250
  6
CONTINUOUS
 10
-110.6577955315
 20
29.5680902433
 30
0.0
 11
-110.6577955315
 21
29.2281163092
 31
0.0
  0
LINE
  5
28B
100
AcDbEntity
  8
0
100
AcDbLine
 62
7
  6
CONTINUOUS
 10
-110.028025882
 20
28.8104996825
 30
0.0
 11
-110.028025882
 21
28.3565255808
 31
0.0
  0
LINE
  5
28C
100
AcDbEntity
  8
0
100
AcDbLine
 62
250
  6
CONTINUOUS
 10
-109.9548025773
 20
28.7738880301
 30
0.0
 11
-109.9548025773
 21
28.264813886
 31
0.0
  0
LINE
  5
28D
100
AcDbEntity
  8
DRAFT
100
AcDbLine
 62
7
  6
CONTINUOUS
 10
-102.1837564365
 20
22.0718528912
 30
0.0
 11
-102.5834500012
 21
21.8300474582
 31
0.0
  0
LINE
  5
28E
100
AcDbEntity
  8
0
100
AcDbLine
 62
7
  6
CONTINUOUS
 10
-98.7523053708
 20
23.7923051568
 30
0.0
 11
-99.8191362829
 21
23.1969807388
 31
0.0
  0
LINE
  5
28F
100
AcDbEntity
  8
0
100
AcDbLine
 62
7
  6
CONTINUOUS
 10
-98.2914749491
 20
23.7270860371
 30
0.0
 11
-96.7083012837
 21
24.5392840952
 31
0.0
  0
LINE
  5
290
100
AcDbEntity
  8
0
100
AcDbLine
 62
250
  6
CONTINUOUS
 10
-98.1783892829
 20
23.7206380619
 30
0.0
 11
-96.5956326798
 21
24.5326221593
 31
0.0
  0
LINE
  5
291
100
AcDbEntity
  8
0
100
AcDbLine
 62
7
  6
CONTINUOUS
 10
-96.7083012857
 20
24.5392840942
 30
0.0
 11
-96.7065648691
 21
24.5401523169
 31
0.0
  0
LINE
  5
292
100
AcDbEntity
  8
0
100
AcDbLine
 62
7
  6
CONTINUOUS
 10
-98.7523053708
 20
23.7923051568
 30
0.0
 11
-93.4449947046
 21
26.4389804269
 31
0.0
  0
LINE
  5
293
100
AcDbEntity
  8
0
100
AcDbLine
 62
7
  6
CONTINUOUS
 10
-96.7065648699
 20
24.5401523165
 30
0.0
 11
-96.1716949122
 21
24.8007044169
 31
0.0
  0
LINE
  5
294
100
AcDbEntity
  8
0
100
AcDbLine
 62
250
  6
CONTINUOUS
 10
-96.5956326798
 20
24.5326221593
 30
0.0
 11
-96.0611828011
 21
24.7929696258
 31
0.0
  0
LINE
  5
295
100
AcDbEntity
  8
RACCORDO
100
AcDbLine
 62
7
  6
CONTINUOUS
 10
-84.241048855
 20
30.2305650437
 30
0.0
 11
-87.8141225535
 21
28.5251317269
 31
0.0
  0
LINE
  5
296
100
AcDbEntity
  8
0
100
AcDbLine
 62
250
  6
CONTINUOUS
 10
-108.9792574611
 20
28.388847274
 30
0.0
 11
-108.9792574611
 21
28.7288212081
 31
0.0
  0
LINE
  5
297
100
AcDbEntity
  8
0
100
AcDbLine
 62
250
  6
CONTINUOUS
 10
-108.6267355015
 20
28.3883345501
 30
0.0
 11
-108.6267355015
 21
28.7283084842
 31
0.0
  0
LINE
  5
298
100
AcDbEntity
  8
0
100
AcDbLine
 62
250
  6
CONTINUOUS
 10
-108.268036853
 20
27.4214310239
 30
0.0
 11
-108.268036853
 21
28.1021807695
 31
0.0
  0
LINE
  5
299
100
AcDbEntity
  8
0
100
AcDbLine
 62
250
  6
CONTINUOUS
 10
-107.9155148934
 20
27.4321989055
 30
0.0
 11
-107.9155148934
 21
28.2398310272
 31
0.0
  0
LINE
  5
29A
100
AcDbEntity
  8
ASSI
100
AcDbLine
 62
7
  6
CONTINUOUS
 10
-94.2646594445
 20
22.2505505865
 30
0.0
 11
-88.2215403108
 21
25.4452045488
 31
0.0
  0
LINE
  5
29B
100
AcDbEntity
  8
0
100
AcDbLine
 62
7
  6
CONTINUOUS
 10
-87.7037956472
 20
26.2068517993
 30
0.0
 11
-86.8880617906
 21
26.6370043916
 31
0.0
  0
LINE
  5
29C
100
AcDbEntity
  8
ASSI
100
AcDbLine
 62
7
  6
CONTINUOUS
 10
-94.6105960641
 20
22.6979681056
 30
0.0
 11
-88.2215403108
 21
26.0467216305
 31
0.0
  0
LINE
  5
29D
100
AcDbEntity
  8
RACCORDO
100
AcDbLine
 62
7
  6
CONTINUOUS
 10
-83.2037568419
 20
29.6482855256
 30
0.0
 11
-87.4201366196
 21
27.5029759089
 31
0.0
  0
LINE
  5
29E
100
AcDbEntity
  8
DRAFT
100
AcDbLine
 62
7
  6
CONTINUOUS
 10
-83.1976998551
 20
29.2107970584
 30
0.0
 11
-87.4201366196
 21
27.0927568659
 31
0.0
  0
LINE
  5
29F
100
AcDbEntity
  8
0
100
AcDbLine
 62
250
  6
CONTINUOUS
 10
-96.4998512125
 20
22.8813690267
 30
0.0
 11
-94.8985704217
 21
23.6840910302
 31
0.0
  0
LINE
  5
2A0
100
AcDbEntity
  8
0
100
AcDbLine
 62
250
  6
CONTINUOUS
 10
-96.3230775088
 20
22.5764794879
 30
0.0
 11
-94.721796718
 21
23.3792014914
 31
0.0
  0
LINE
  5
2A1
100
AcDbEntity
  8
0
100
AcDbLine
 62
7
  6
CONTINUOUS
 10
-98.7398995585
 20
20.2555359272
 30
0.0
 11
-98.4570567802
 21
20.3969573163
 31
0.0
  0
LINE
  5
2A2
100
AcDbEntity
  8
0
100
AcDbLine
 62
7
  6
CONTINUOUS
 10
-89.0321614524
 20
26.6590699635
 30
0.0
 11
-94.3540173831
 21
24.0013642877
 31
0.0
  0
LINE
  5
2A3
100
AcDbEntity
  8
0
100
AcDbLine
 62
250
  6
CONTINUOUS
 10
-94.8985704217
 20
23.6840910302
 30
0.0
 11
-94.3703032499
 21
23.9475298503
 31
0.0
  0
LINE
  5
2A4
100
AcDbEntity
  8
0
100
AcDbLine
 62
250
  6
CONTINUOUS
 10
-94.721796718
 20
23.3792014914
 30
0.0
 11
-94.1935295463
 21
23.6426403114
 31
0.0
  0
LINE
  5
2A5
100
AcDbEntity
  8
0
100
AcDbLine
 62
7
  6
CONTINUOUS
 10
-107.0254547107
 20
27.9288798268
 30
0.0
 11
-107.0254547107
 21
29.5310304877
 31
0.0
  0
LINE
  5
2A6
100
AcDbEntity
  8
0
100
AcDbLine
 62
250
  6
CONTINUOUS
 10
-106.4971875389
 20
29.7944693078
 30
0.0
 11
-106.4971875389
 21
29.446937791
 31
0.0
  0
LINE
  5
2A7
100
AcDbEntity
  8
0
100
AcDbLine
 62
7
  6
CONTINUOUS
 10
-106.4249896819
 20
29.8823419399
 30
0.0
 11
-106.4249896819
 21
29.5348104232
 31
0.0
  0
LINE
  5
2A8
100
AcDbEntity
  8
DRAFT
100
AcDbLine
 62
7
  6
CONTINUOUS
 10
-106.1415712342
 20
24.0507602901
 30
0.0
 11
-106.1415712342
 21
25.5152599281
 31
0.0
  0
LINE
  5
2A9
100
AcDbEntity
  8
0
100
AcDbLine
 62
7
  6
CONTINUOUS
 10
-106.1000451547
 20
27.7835979405
 30
0.0
 11
-106.1000451547
 21
26.3374351747
 31
0.0
  0
LINE
  5
2AA
100
AcDbEntity
  8
0
100
AcDbLine
 62
7
  6
CONTINUOUS
 10
-105.4406352804
 20
26.0077302375
 30
0.0
 11
-105.4406352804
 21
27.4538930033
 31
0.0
  0
LINE
  5
2AB
100
AcDbEntity
  8
RACCORDO
100
AcDbLine
 62
250
  6
CONTINUOUS
 10
-98.1845335683
 20
19.6305892417
 30
0.0
 11
-101.0510333045
 21
17.9414081897
 31
0.0
  0
LINE
  5
2AC
100
AcDbEntity
  8
RACCORDO
100
AcDbLine
 62
250
  6
CONTINUOUS
 10
-97.8064471451
 20
19.0343903331
 30
0.0
 11
-100.6729468813
 21
17.3452092811
 31
0.0
  0
LINE
  5
2AD
100
AcDbEntity
  8
0
100
AcDbLine
 62
7
  6
CONTINUOUS
 10
-94.721796718
 20
21.7770508304
 30
0.0
 11
-95.6118569007
 21
21.2803699092
 31
0.0
  0
LINE
  5
2AE
100
AcDbEntity
  8
0
100
AcDbLine
 62
250
  6
CONTINUOUS
 10
-94.3679742028
 20
21.6001395728
 30
0.0
 11
-95.4471482667
 21
21.0109867307
 31
0.0
  0
LINE
  5
2AF
100
AcDbEntity
  8
0
100
AcDbLine
 62
250
  6
CONTINUOUS
 10
-94.0146899368
 20
20.9902865463
 30
0.0
 11
-95.0938640008
 21
20.4011337041
 31
0.0
  0
LINE
  5
2B0
100
AcDbEntity
  8
DRAFT
100
AcDbLine
 62
7
  6
CONTINUOUS
 10
-93.6482240722
 20
21.9416310707
 30
0.0
 11
-87.3656601477
 21
25.2419245436
 31
0.0
  0
LINE
  5
2B1
100
AcDbEntity
  8
RACCORDO
100
AcDbLine
 62
250
  6
CONTINUOUS
 10
-97.3380164213
 20
17.9541811125
 30
0.0
 11
-97.7313134903
 21
17.7560161677
 31
0.0
  0
LINE
  5
2B2
100
AcDbEntity
  8
0
100
AcDbLine
 62
250
  6
CONTINUOUS
 10
-93.6673028863
 20
21.9518723073
 30
0.0
 11
-94.36823884
 21
21.6002718915
 31
0.0
  0
LINE
  5
2B3
100
AcDbEntity
  8
0
100
AcDbLine
 62
250
  6
CONTINUOUS
 10
-93.313753983
 20
21.3420998096
 30
0.0
 11
-94.0146899368
 21
20.9904993937
 31
0.0
  0
LINE
  5
2B4
100
AcDbEntity
  8
0
100
AcDbLine
 62
7
  6
CONTINUOUS
 10
-97.7751478828
 20
18.5018437875
 30
0.0
 11
-97.5626297208
 21
18.6081028685
 31
0.0
  0
LINE
  5
2B5
100
AcDbEntity
  8
RACCORDO
100
AcDbLine
 62
250
  6
CONTINUOUS
 10
-86.620133212
 20
23.9560807848
 30
0.0
 11
-79.0481998143
 21
27.6341405234
 31
0.0
  0
LINE
  5
2B6
100
AcDbEntity
  8
RACCORDO
100
AcDbLine
 62
250
  6
CONTINUOUS
 10
-86.2824648781
 20
23.3736890578
 30
0.0
 11
-78.5482759667
 21
27.1305642641
 31
0.0
  0
LINE
  5
2B7
100
AcDbEntity
  8
RACCORDO
100
AcDbLine
 62
7
  6
CONTINUOUS
 10
-79.5805976722
 20
27.9003394523
 30
0.0
 11
-83.1440285087
 21
26.1900847045
 31
0.0
  0
LINE
  5
2B8
100
AcDbEntity
  8
RACCORDO
100
AcDbLine
 62
7
  6
CONTINUOUS
 10
-105.1343421078
 20
23.5471457269
 30
0.0
 11
-105.1343421078
 21
25.0116453649
 31
0.0
  0
LINE
  5
2B9
100
AcDbEntity
  8
0
100
AcDbLine
 62
7
  6
CONTINUOUS
 10
-104.7273576718
 20
27.6371990343
 30
0.0
 11
-104.7273576718
 21
26.4035846826
 31
0.0
  0
LINE
  5
2BA
100
AcDbEntity
  8
0
100
AcDbLine
 62
250
  6
CONTINUOUS
 10
-103.1028687084
 20
25.5913402009
 30
0.0
 11
-103.1028687084
 21
26.8249545526
 31
0.0
  0
LINE
  5
2BB
100
AcDbEntity
  8
0
100
AcDbLine
 62
250
  6
CONTINUOUS
 10
-94.721796718
 20
22.6521566389
 30
0.0
 11
-94.1935295463
 21
23.2951087947
 31
0.0
  0
LINE
  5
2BC
100
AcDbEntity
  8
0
100
AcDbLine
 62
7
  6
CONTINUOUS
 10
-94.721796718
 20
22.5626261726
 30
0.0
 11
-94.1781689739
 21
23.2242736281
 31
0.0
  0
LINE
  5
2BD
100
AcDbEntity
  8
0
100
AcDbLine
 62
7
  6
CONTINUOUS
 10
-84.9894678022
 20
26.3707881182
 30
0.0
 11
-85.2945244072
 21
26.1655438322
 31
0.0
  0
LINE
  5
2BE
100
AcDbEntity
  8
0
100
AcDbLine
 62
7
  6
CONTINUOUS
 10
-93.0060674312
 20
17.9407511396
 30
0.0
 11
-92.9488447953
 21
17.9719007458
 31
0.0
  0
LINE
  5
2BF
100
AcDbEntity
  8
0
100
AcDbLine
 62
7
  6
CONTINUOUS
 10
-92.9781741549
 20
17.9559334282
 30
0.0
 11
-92.9488446757
 21
17.9718943794
 31
0.0
  0
LINE
  5
2C0
100
AcDbEntity
  8
RACCORDO
100
AcDbLine
 62
250
  6
CONTINUOUS
 10
-78.4124536285
 20
26.8963053829
 30
0.0
 11
-93.0146268501
 21
19.4674090551
 31
0.0
  0
LINE
  5
2C1
100
AcDbEntity
  8
RACCORDO
100
AcDbLine
 62
250
  6
CONTINUOUS
 10
-77.9983031529
 20
25.4646718083
 30
0.0
 11
-92.6004763744
 21
18.0357754805
 31
0.0
  0
LINE
  5
2C2
100
AcDbEntity
  8
0
100
AcDbLine
 62
7
  6
CONTINUOUS
 10
-93.313753983
 20
18.4101948586
 30
0.0
 11
-92.6128180292
 21
18.7637031655
 31
0.0
  0
LINE
  5
2C3
100
AcDbEntity
  8
RACCORDO
100
AcDbLine
 62
250
  6
CONTINUOUS
 10
-96.8431170616
 20
17.1006059799
 30
0.0
 11
-97.668355389
 21
16.6848049976
 31
0.0
  0
LINE
  5
2C4
100
AcDbEntity
  8
0
100
AcDbLine
 62
7
  6
CONTINUOUS
 10
-92.6128180292
 20
17.2863100372
 30
0.0
 11
-92.7862289201
 21
17.2034952806
 31
0.0
  0
LINE
  5
2C5
100
AcDbEntity
  8
0
100
AcDbLine
 62
7
  6
CONTINUOUS
 10
-92.9489068701
 20
17.1262175019
 30
0.0
 11
-93.007562668
 21
17.0984719052
 31
0.0
  0
LINE
  5
2C6
100
AcDbEntity
  8
0
100
AcDbLine
 62
7
  6
CONTINUOUS
 10
-92.9756467628
 20
17.113555388
 30
0.0
 11
-93.007561362
 21
17.0984601586
 31
0.0
  0
LINE
  5
2C7
100
AcDbEntity
  8
RACCORDO
100
AcDbLine
 62
250
  6
CONTINUOUS
 10
-100.87374666
 20
-9.5376284179
 30
0.0
 11
-100.8708404406
 21
-9.5728845632
 31
0.0
  0
LINE
  5
2C8
100
AcDbEntity
  8
RACCORDO
100
AcDbLine
 62
250
  6
CONTINUOUS
 10
-100.8749773432
 20
-9.5383482098
 30
0.0
 11
-100.8721798773
 21
-9.5736687181
 31
0.0
  0
LINE
  5
2C9
100
AcDbEntity
  8
RACCORDO
100
AcDbLine
 62
250
  6
CONTINUOUS
 10
-101.2409547841
 20
-4.3662790488
 30
0.0
 11
-101.2181416814
 21
-4.7102314121
 31
0.0
  0
LINE
  5
2CA
100
AcDbEntity
  8
RACCORDO
100
AcDbLine
 62
250
  6
CONTINUOUS
 10
-101.2414872452
 20
-4.3665807129
 30
0.0
 11
-101.2189178443
 21
-4.7106719103
 31
0.0
  0
LINE
  5
2CB
100
AcDbEntity
  8
RACCORDO
100
AcDbLine
 62
250
  6
CONTINUOUS
 10
-101.3423171427
 20
-2.7792733606
 30
0.0
 11
-101.2894855736
 21
-3.6215382273
 31
0.0
  0
LINE
  5
2CC
100
AcDbEntity
  8
RACCORDO
100
AcDbLine
 62
250
  6
CONTINUOUS
 10
-101.3416266001
 20
-2.7788852674
 30
0.0
 11
-101.2889446787
 21
-3.6212329367
 31
0.0
  0
LINE
  5
2CD
100
AcDbEntity
  8
RACCORDO
100
AcDbLine
 62
7
  6
CONTINUOUS
 10
-102.1570134087
 20
21.6168291619
 30
0.0
 11
-102.1837564365
 21
22.0718528912
 31
0.0
  0
LINE
  5
2CE
100
AcDbEntity
  8
RACCORDO
100
AcDbLine
 62
250
  6
CONTINUOUS
 10
-101.6559220593
 20
2.8412096375
 30
0.0
 11
-101.6539942121
 21
2.8036154372
 31
0.0
  0
LINE
  5
2CF
100
AcDbEntity
  8
RACCORDO
100
AcDbLine
 62
250
  6
CONTINUOUS
 10
-101.6563184927
 20
2.8409931966
 30
0.0
 11
-101.6544378687
 21
2.8033731656
 31
0.0
  0
LINE
  5
2D0
100
AcDbEntity
  8
RACCORDO
100
AcDbLine
 62
250
  6
CONTINUOUS
 10
-100.9995722714
 20
3.6836851114
 30
0.0
 11
-100.9532533095
 21
2.742508488
 31
0.0
  0
LINE
  5
2D1
100
AcDbEntity
  8
RACCORDO
100
AcDbLine
 62
250
  6
CONTINUOUS
 10
-101.7537719243
 20
4.8787906301
 30
0.0
 11
-101.7133056804
 21
4.0278813226
 31
0.0
  0
LWPOLYLINE
  5
2D2
100
AcDbEntity
  8
RACCORDO
100
AcDbPolyline
 62
250
  6
CONTINUOUS
 90
3
 70
0
 10
-100.9988709342
 20
3.6840663745
 10
-100.9718645031
 20
3.1161809103
 10
-100.9527176107
 20
2.742801138
  0
LINE
  5
2D3
100
AcDbEntity
  8
RACCORDO
100
AcDbLine
 62
250
  6
CONTINUOUS
 10
-101.7314131226
 20
4.3948690133
 30
0.0
 11
-101.7141112787
 21
4.0274441956
 31
0.0
  0
LINE
  5
2D4
100
AcDbEntity
  8
RACCORDO
100
AcDbLine
 62
250
  6
CONTINUOUS
 10
-101.7453324231
 20
4.6948891293
 30
0.0
 11
-101.7314131226
 21
4.3948690133
 31
0.0
  0
LINE
  5
2D5
100
AcDbEntity
  8
RACCORDO
100
AcDbLine
 62
250
  6
CONTINUOUS
 10
-101.7616385335
 20
5.0516066437
 30
0.0
 11
-101.7453324231
 21
4.6948891293
 31
0.0
  0
LINE
  5
2D6
100
AcDbEntity
  8
RACCORDO
100
AcDbLine
 62
250
  6
CONTINUOUS
 10
-101.7751327375
 20
5.3512806319
 30
0.0
 11
-101.7616385335
 21
5.0516066437
 31
0.0
  0
LINE
  5
2D7
100
AcDbEntity
  8
RACCORDO
100
AcDbLine
 62
250
  6
CONTINUOUS
 10
-101.8078435171
 20
6.0956102272
 30
0.0
 11
-101.7751327375
 21
5.3512806319
 31
0.0
  0
LINE
  5
2D8
100
AcDbEntity
  8
RACCORDO
100
AcDbLine
 62
250
  6
CONTINUOUS
 10
-101.832086357
 20
6.6648730662
 30
0.0
 11
-101.7537719243
 21
4.8787906301
 31
0.0
  0
LINE
  5
2D9
100
AcDbEntity
  8
RACCORDO
100
AcDbLine
 62
250
  6
CONTINUOUS
 10
-101.8250451942
 20
6.4979033666
 30
0.0
 11
-101.8078435171
 21
6.0956102272
 31
0.0
  0
LINE
  5
2DA
100
AcDbEntity
  8
RACCORDO
100
AcDbLine
 62
250
  6
CONTINUOUS
 10
-101.832086357
 20
6.6648730662
 30
0.0
 11
-101.8250451942
 21
6.4979033666
 31
0.0
  0
LINE
  5
2DB
100
AcDbEntity
  8
0
100
AcDbLine
 62
7
  6
CONTINUOUS
 10
-101.9093514227
 20
26.0691404544
 30
0.0
 11
-101.9179121271
 21
27.2767869055
 31
0.0
  0
LINE
  5
2DC
100
AcDbEntity
  8
0
100
AcDbLine
 62
250
  6
CONTINUOUS
 10
-102.8212654993
 20
25.5997239145
 30
0.0
 11
-102.8212654993
 21
26.8243401858
 31
0.0
  0
LINE
  5
2DD
100
AcDbEntity
  8
0
100
AcDbLine
 62
7
  6
CONTINUOUS
 10
-102.6060373282
 20
26.9316125632
 30
0.0
 11
-102.6060373282
 21
25.7191711356
 31
0.0
  0
LINE
  5
2DE
100
AcDbEntity
  8
0
100
AcDbLine
 62
7
  6
CONTINUOUS
 10
-101.4606778107
 20
26.04528046
 30
0.0
 11
-101.4606778107
 21
24.8143247861
 31
0.0
  0
LINE
  5
2DF
100
AcDbEntity
  8
0
100
AcDbLine
 62
250
  6
CONTINUOUS
 10
-101.4020991669
 20
25.9745697818
 30
0.0
 11
-101.4020991669
 21
24.7409554302
 31
0.0
  0
LINE
  5
2E0
100
AcDbEntity
  8
DRAFT
100
AcDbLine
 62
7
  6
CONTINUOUS
 10
-96.7585293355
 20
1.2044170727
 30
0.0
 11
-96.2449830023
 21
0.9476439061
 31
0.0
  0
LINE
  5
2E1
100
AcDbEntity
  8
0
100
AcDbLine
 62
250
  6
CONTINUOUS
 10
-99.3590572267
 20
27.8391835322
 30
0.0
 11
-99.3679012247
 21
29.0847886725
 31
0.0
  0
LINE
  5
2E2
100
AcDbEntity
  8
0
100
AcDbLine
 62
7
  6
CONTINUOUS
 10
-100.4785461573
 20
24.9728484417
 30
0.0
 11
-100.4785461573
 21
23.526685676
 31
0.0
  0
LINE
  5
2E3
100
AcDbEntity
  8
0
100
AcDbLine
 62
7
  6
CONTINUOUS
 10
-99.8191362829
 20
23.1969807388
 30
0.0
 11
-99.8191362829
 21
24.6431435046
 31
0.0
  0
LINE
  5
2E4
100
AcDbEntity
  8
DRAFT
100
AcDbLine
 62
7
  6
CONTINUOUS
 10
-99.7776102035
 20
22.3332794128
 30
0.0
 11
-99.7776102035
 21
20.4271275593
 31
0.0
  0
LINE
  5
2E5
100
AcDbEntity
  8
0
100
AcDbLine
 62
7
  6
CONTINUOUS
 10
-98.9046064665
 20
29.3918431891
 30
0.0
 11
-98.9046064665
 21
30.6401073118
 31
0.0
  0
LINE
  5
2E6
100
AcDbEntity
  8
0
100
AcDbLine
 62
7
  6
CONTINUOUS
 10
-98.7523053708
 20
23.7923051568
 30
0.0
 11
-98.7523053708
 21
25.1779458029
 31
0.0
  0
LINE
  5
2E7
100
AcDbEntity
  8
0
100
AcDbLine
 62
7
  6
CONTINUOUS
 10
-98.4273608436
 20
23.5046495946
 30
0.0
 11
-98.4273608436
 21
23.1646756605
 31
0.0
  0
LINE
  5
2E8
100
AcDbEntity
  8
0
100
AcDbLine
 62
7
  6
CONTINUOUS
 10
-98.9395746796
 20
30.6404620337
 30
0.0
 11
-98.9394960924
 21
30.6482595885
 31
0.0
  0
LINE
  5
2E9
100
AcDbEntity
  8
RACCORDO
100
AcDbLine
 62
250
  6
CONTINUOUS
 10
-116.4807468422
 20
13.9892033088
 30
0.0
 11
-101.832086357
 21
6.6648730662
 31
0.0
  0
LINE
  5
2EA
100
AcDbEntity
  8
RACCORDO
100
AcDbLine
 62
7
  6
CONTINUOUS
 10
-97.004158742
 20
5.9798709376
 30
0.0
 11
-97.040257025
 21
5.9979200791
 31
0.0
  0
LINE
  5
2EB
100
AcDbEntity
  8
0
100
AcDbLine
 62
7
  6
CONTINUOUS
 10
-96.2449830023
 20
0.9476439061
 30
0.0
 11
-95.0938640008
 21
-12.8725664476
 31
0.0
  0
LINE
  5
2EC
100
AcDbEntity
  8
RACCORDO
100
AcDbLine
 62
7
  6
CONTINUOUS
 10
-95.6755783359
 20
-17.2216342719
 30
0.0
 11
-97.8064471451
 21
19.0343903331
 31
0.0
  0
LINE
  5
2ED
100
AcDbEntity
  8
0
100
AcDbLine
 62
250
  6
CONTINUOUS
 10
-98.3541375389
 20
23.416261247
 30
0.0
 11
-98.3541375389
 21
23.0762873128
 31
0.0
  0
LINE
  5
2EE
100
AcDbEntity
  8
0
100
AcDbLine
 62
7
  6
CONTINUOUS
 10
-97.7243678893
 20
22.6586706862
 30
0.0
 11
-97.7243678893
 21
22.2046965845
 31
0.0
  0
LINE
  5
2EF
100
AcDbEntity
  8
0
100
AcDbLine
 62
250
  6
CONTINUOUS
 10
-97.6511445846
 20
22.6220590338
 30
0.0
 11
-97.6511445846
 21
22.1129848896
 31
0.0
  0
LINE
  5
2F0
100
AcDbEntity
  8
RACCORDO
100
AcDbLine
 62
7
  6
CONTINUOUS
 10
-96.8431170616
 20
17.1006059799
 30
0.0
 11
-96.8431170616
 21
16.7541034885
 31
0.0
  0
LINE
  5
2F1
100
AcDbEntity
  8
0
100
AcDbLine
 62
250
  6
CONTINUOUS
 10
-96.6755994685
 20
-19.4025597959
 30
0.0
 11
-96.6755994685
 21
-19.0625858617
 31
0.0
  0
LINE
  5
2F2
100
AcDbEntity
  8
0
100
AcDbLine
 62
250
  6
CONTINUOUS
 10
-96.6755994685
 20
22.2370182776
 30
0.0
 11
-96.6755994685
 21
22.5769922118
 31
0.0
  0
LINE
  5
2F3
100
AcDbEntity
  8
0
100
AcDbLine
 62
250
  6
CONTINUOUS
 10
-96.3230775088
 20
-19.4030725197
 30
0.0
 11
-96.3230775088
 21
-19.0630985856
 31
0.0
  0
LINE
  5
2F4
100
AcDbEntity
  8
0
100
AcDbLine
 62
250
  6
CONTINUOUS
 10
-96.3230775088
 20
22.2365055538
 30
0.0
 11
-96.3230775088
 21
22.5764794879
 31
0.0
  0
LINE
  5
2F5
100
AcDbEntity
  8
0
100
AcDbLine
 62
250
  6
CONTINUOUS
 10
-97.9324214906
 20
27.9800239716
 30
0.0
 11
-97.9286421658
 21
28.5123111059
 31
0.0
  0
LINE
  5
2F6
100
AcDbEntity
  8
DRAFT
100
AcDbLine
 62
7
  6
CONTINUOUS
 10
-96.8431170616
 20
16.7541034885
 30
0.0
 11
-97.3136812412
 21
10.6501422463
 31
0.0
  0
LINE
  5
2F7
100
AcDbEntity
  8
RACCORDO
100
AcDbLine
 62
7
  6
CONTINUOUS
 10
-96.9287519289
 20
4.1006979264
 30
0.0
 11
-96.812894257
 21
5.6035550703
 31
0.0
  0
LINE
  5
2F8
100
AcDbEntity
  8
0
100
AcDbLine
 62
7
  6
CONTINUOUS
 10
-84.9894678022
 20
26.3707881182
 30
0.0
 11
-84.6467016812
 21
26.840394749
 31
0.0
  0
LINE
  5
2F9
100
AcDbEntity
  8
0
100
AcDbLine
 62
7
  6
CONTINUOUS
 10
-84.3318903331
 20
26.2507965851
 30
0.0
 11
-83.989124212
 21
26.7204032159
 31
0.0
  0
LINE
  5
2FA
100
AcDbEntity
  8
0
100
AcDbLine
 62
7
  6
CONTINUOUS
 10
-95.5327232547
 20
29.7463331406
 30
0.0
 11
-95.5294157717
 21
29.2805010855
 31
0.0
  0
LINE
  5
2FB
100
AcDbEntity
  8
0
100
AcDbLine
 62
250
  6
CONTINUOUS
 10
-95.9643788604
 20
-18.0860893846
 30
0.0
 11
-95.9643788604
 21
-17.5754237658
 31
0.0
  0
LINE
  5
2FC
100
AcDbEntity
  8
0
100
AcDbLine
 62
250
  6
CONTINUOUS
 10
-95.9643788604
 20
21.2696020275
 30
0.0
 11
-95.9643788604
 21
21.9503517732
 31
0.0
  0
LINE
  5
2FD
100
AcDbEntity
  8
0
100
AcDbLine
 62
250
  6
CONTINUOUS
 10
-95.6118569007
 20
-18.2116021085
 30
0.0
 11
-95.6118569007
 21
-17.5684376372
 31
0.0
  0
LINE
  5
2FE
100
AcDbEntity
  8
0
100
AcDbLine
 62
250
  6
CONTINUOUS
 10
-95.6118569007
 20
21.2803699092
 30
0.0
 11
-95.6118569007
 21
22.0880020309
 31
0.0
  0
LINE
  5
2FF
100
AcDbEntity
  8
0
100
AcDbLine
 62
7
  6
CONTINUOUS
 10
-95.0938640008
 20
20.4011337041
 30
0.0
 11
-95.0938640008
 21
15.8794769581
 31
0.0
  0
LINE
  5
300
100
AcDbEntity
  8
0
100
AcDbLine
 62
7
  6
CONTINUOUS
 10
-95.0938640008
 20
-12.8725664476
 30
0.0
 11
-95.0938640008
 21
-17.3942231936
 31
0.0
  0
LINE
  5
301
100
AcDbEntity
  8
0
100
AcDbLine
 62
250
  6
CONTINUOUS
 10
-94.8447578221
 20
30.8050674672
 30
0.0
 11
-94.8447578221
 21
31.2152865101
 31
0.0
  0
LINE
  5
302
100
AcDbEntity
  8
0
100
AcDbLine
 62
7
  6
CONTINUOUS
 10
-94.721796718
 20
-18.6230379201
 30
0.0
 11
-94.721796718
 21
-17.4546781253
 31
0.0
  0
LINE
  5
303
100
AcDbEntity
  8
0
100
AcDbLine
 62
7
  6
CONTINUOUS
 10
-94.721796718
 20
21.7770508304
 30
0.0
 11
-94.721796718
 21
23.3792014914
 31
0.0
  0
LINE
  5
304
100
AcDbEntity
  8
0
100
AcDbLine
 62
250
  6
CONTINUOUS
 10
-94.1935295463
 20
23.6426403114
 30
0.0
 11
-94.1935295463
 21
23.2951087947
 31
0.0
  0
LINE
  5
305
100
AcDbEntity
  8
0
100
AcDbLine
 62
250
  6
CONTINUOUS
 10
-94.1935295463
 20
-18.0044953447
 30
0.0
 11
-94.1935295463
 21
-18.3520268614
 31
0.0
  0
LINE
  5
306
100
AcDbEntity
  8
DRAFT
100
AcDbLine
 62
7
  6
CONTINUOUS
 10
-94.1620476242
 20
31.1475255594
 30
0.0
 11
-94.1620476242
 21
30.7145128575
 31
0.0
  0
LINE
  5
307
100
AcDbEntity
  8
0
100
AcDbLine
 62
7
  6
CONTINUOUS
 10
-94.1213316893
 20
23.7305129436
 30
0.0
 11
-94.1213316893
 21
23.3829814269
 31
0.0
  0
LINE
  5
308
100
AcDbEntity
  8
0
100
AcDbLine
 62
7
  6
CONTINUOUS
 10
-94.1213316893
 20
-17.9166227125
 30
0.0
 11
-94.1213316893
 21
-18.2641542292
 31
0.0
  0
LINE
  5
309
100
AcDbEntity
  8
0
100
AcDbLine
 62
7
  6
CONTINUOUS
 10
-94.0146899368
 20
20.9904993937
 30
0.0
 11
-94.0146899368
 21
-16.9414426036
 31
0.0
  0
LINE
  5
30A
100
AcDbEntity
  8
0
100
AcDbLine
 62
250
  6
CONTINUOUS
 10
-94.1213316893
 20
-18.2641542292
 30
0.0
 11
-94.1213318343
 21
-18.264288853
 31
0.0
  0
LINE
  5
30B
100
AcDbEntity
  8
0
100
AcDbLine
 62
7
  6
CONTINUOUS
 10
-95.0938640008
 20
15.8794769581
 30
0.0
 11
-96.2449830023
 21
0.9476439061
 31
0.0
  0
LINE
  5
30C
100
AcDbEntity
  8
DRAFT
100
AcDbLine
 62
7
  6
CONTINUOUS
 10
-77.7176429532
 20
19.6322999859
 30
0.0
 11
-76.8024661666
 21
20.2242286047
 31
0.0
  0
LINE
  5
30D
100
AcDbEntity
  8
RACCORDO
100
AcDbLine
 62
250
  6
CONTINUOUS
 10
-97.0381885022
 20
5.9627248512
 30
0.0
 11
-97.004158742
 21
5.9798709376
 31
0.0
  0
LINE
  5
30E
100
AcDbEntity
  8
RACCORDO
100
AcDbLine
 62
250
  6
CONTINUOUS
 10
-97.0112064588
 20
5.5036343497
 30
0.0
 11
-96.812894257
 21
5.6035550703
 31
0.0
  0
LINE
  5
30F
100
AcDbEntity
  8
0
100
AcDbLine
 62
250
  6
CONTINUOUS
 10
-93.4449947046
 20
26.4389804269
 30
0.0
 11
-93.4449947046
 21
26.9133818022
 31
0.0
  0
LINE
  5
310
100
AcDbEntity
  8
0
100
AcDbLine
 62
250
  6
CONTINUOUS
 10
-93.4449947046
 20
27.2695576687
 30
0.0
 11
-93.4449947046
 21
27.8227283918
 31
0.0
  0
LINE
  5
311
100
AcDbEntity
  8
0
100
AcDbLine
 62
7
  6
CONTINUOUS
 10
-93.3838475784
 20
17.7332132346
 30
0.0
 11
-93.3838475784
 21
16.9222723742
 31
0.0
  0
LINE
  5
312
100
AcDbEntity
  8
0
100
AcDbLine
 62
7
  6
CONTINUOUS
 10
-93.3838475784
 20
-13.0422065967
 30
0.0
 11
-93.3838475784
 21
-12.2312657363
 31
0.0
  0
LINE
  5
313
100
AcDbEntity
  8
ASSI
100
AcDbLine
 62
7
  6
CONTINUOUS
 10
-93.3838475784
 20
-13.0422065967
 30
0.0
 11
-93.3838475784
 21
-12.2312657363
 31
0.0
  0
LINE
  5
314
100
AcDbEntity
  8
ASSI
100
AcDbLine
 62
7
  6
CONTINUOUS
 10
-93.3838475784
 20
16.9222723742
 30
0.0
 11
-93.3838475784
 21
17.7332132346
 31
0.0
  0
LINE
  5
315
100
AcDbEntity
  8
0
100
AcDbLine
 62
7
  6
CONTINUOUS
 10
-93.3141598535
 20
26.5966198826
 30
0.0
 11
-93.3141598535
 21
27.8448840052
 31
0.0
  0
LINE
  5
316
100
AcDbEntity
  8
0
100
AcDbLine
 62
7
  6
CONTINUOUS
 10
-93.313753983
 20
21.3420998096
 30
0.0
 11
-93.313753983
 21
18.4101948586
 31
0.0
  0
LINE
  5
317
100
AcDbEntity
  8
0
100
AcDbLine
 62
7
  6
CONTINUOUS
 10
-93.313753983
 20
-13.6478604598
 30
0.0
 11
-93.313753983
 21
-16.5797654109
 31
0.0
  0
LINE
  5
318
100
AcDbEntity
  8
0
100
AcDbLine
 62
7
  6
CONTINUOUS
 10
-93.1238732336
 20
29.8788048086
 30
0.0
 11
-93.1238732336
 21
29.4584292186
 31
0.0
  0
LINE
  5
319
100
AcDbEntity
  8
DRAFT
100
AcDbLine
 62
7
  6
CONTINUOUS
 10
-92.7065423916
 20
31.0881029935
 30
0.0
 11
-92.7065423916
 21
30.6079199969
 31
0.0
  0
LINE
  5
31A
100
AcDbEntity
  8
0
100
AcDbLine
 62
7
  6
CONTINUOUS
 10
-92.6741285722
 20
29.7570569755
 30
0.0
 11
-92.6741285722
 21
29.4541168959
 31
0.0
  0
LINE
  5
31B
100
AcDbEntity
  8
ASSI
100
AcDbLine
 62
7
  6
CONTINUOUS
 10
-92.6128180292
 20
18.7637031655
 30
0.0
 11
-92.6128180292
 21
18.1537809411
 31
0.0
  0
LINE
  5
31C
100
AcDbEntity
  8
0
100
AcDbLine
 62
7
  6
CONTINUOUS
 10
-92.6128180292
 20
18.1537809411
 30
0.0
 11
-92.6128180292
 21
17.2863100372
 31
0.0
  0
LINE
  5
31D
100
AcDbEntity
  8
ASSI
100
AcDbLine
 62
7
  6
CONTINUOUS
 10
-92.6128180292
 20
17.2863100372
 30
0.0
 11
-92.6128180292
 21
-11.8106980299
 31
0.0
  0
LINE
  5
31E
100
AcDbEntity
  8
ASSI
100
AcDbLine
 62
7
  6
CONTINUOUS
 10
-92.6128180292
 20
-12.6781689337
 30
0.0
 11
-92.6128180292
 21
-13.2880911582
 31
0.0
  0
LINE
  5
31F
100
AcDbEntity
  8
0
100
AcDbLine
 62
7
  6
CONTINUOUS
 10
-92.6128180292
 20
-12.6781689337
 30
0.0
 11
-92.6128180292
 21
-11.8106980299
 31
0.0
  0
LINE
  5
320
100
AcDbEntity
  8
RACCORDO
100
AcDbLine
 62
7
  6
CONTINUOUS
 10
-92.6004763744
 20
18.0357754805
 30
0.0
 11
-92.6004763744
 21
-12.572505128
 31
0.0
  0
LINE
  5
321
100
AcDbEntity
  8
RACCORDO
100
AcDbLine
 62
7
  6
CONTINUOUS
 10
-90.6223210575
 20
33.2500737073
 30
0.0
 11
-90.6223210575
 21
32.9231076596
 31
0.0
  0
LINE
  5
322
100
AcDbEntity
  8
RACCORDO
100
AcDbLine
 62
250
  6
CONTINUOUS
 10
-116.3818227627
 20
24.1760952479
 30
0.0
 11
-101.6970678719
 21
16.8337178025
 31
0.0
  0
LINE
  5
323
100
AcDbEntity
  8
RACCORDO
100
AcDbLine
 62
250
  6
CONTINUOUS
 10
-115.7536147521
 20
25.2926989135
 30
0.0
 11
-101.0510333045
 21
17.9414081897
 31
0.0
  0
LINE
  5
324
100
AcDbEntity
  8
ASSI
100
AcDbLine
 62
7
  6
CONTINUOUS
 10
-88.0814423632
 20
26.3604367004
 30
0.0
 11
-88.0812817351
 21
26.3434792058
 31
0.0
  0
LINE
  5
325
100
AcDbEntity
  8
ASSI
100
AcDbLine
 62
250
  6
CONTINUOUS
 10
-88.2215403108
 20
-11.3209371778
 30
0.0
 11
-88.2215403108
 21
-11.5150177841
 31
0.0
  0
LINE
  5
326
100
AcDbEntity
  8
ASSI
100
AcDbLine
 62
250
  6
CONTINUOUS
 10
-88.2215403108
 20
25.4452045488
 30
0.0
 11
-88.2215403108
 21
26.0467216305
 31
0.0
  0
LINE
  5
327
100
AcDbEntity
  8
ASSI
100
AcDbLine
 62
7
  6
CONTINUOUS
 10
-88.081210211
 20
26.3434611799
 30
0.0
 11
-88.081210211
 21
25.6214752382
 31
0.0
  0
LINE
  5
328
100
AcDbEntity
  8
ASSI
100
AcDbLine
 62
7
  6
CONTINUOUS
 10
-88.081210211
 20
-11.4644281483
 30
0.0
 11
-88.081210211
 21
-11.2472203772
 31
0.0
  0
LINE
  5
329
100
AcDbEntity
  8
0
100
AcDbLine
 62
250
  6
CONTINUOUS
 10
-87.4201366196
 20
27.0927568659
 30
0.0
 11
-87.4201366196
 21
27.5029759089
 31
0.0
  0
LINE
  5
32A
100
AcDbEntity
  8
0
100
AcDbLine
 62
7
  6
CONTINUOUS
 10
-84.8135203582
 20
25.7666506964
 30
0.0
 11
-84.6467016812
 21
26.840394749
 31
0.0
  0
LINE
  5
32B
100
AcDbEntity
  8
DRAFT
100
AcDbLine
 62
7
  6
CONTINUOUS
 10
-96.8431170616
 20
16.7541034885
 30
0.0
 11
-95.0938640008
 21
15.8794769581
 31
0.0
  0
LINE
  5
32C
100
AcDbEntity
  8
RACCORDO
100
AcDbLine
 62
7
  6
CONTINUOUS
 10
-97.3923887988
 20
17.9813673013
 30
0.0
 11
-97.3380164213
 21
17.9541811125
 31
0.0
  0
LINE
  5
32D
100
AcDbEntity
  8
RACCORDO
100
AcDbLine
 62
7
  6
CONTINUOUS
 10
-113.0340182811
 20
27.0553315981
 30
0.0
 11
-98.1845335683
 21
19.6305892417
 31
0.0
  0
LINE
  5
32E
100
AcDbEntity
  8
0
100
AcDbLine
 62
7
  6
CONTINUOUS
 10
-92.6128180292
 20
18.7637031655
 30
0.0
 11
-93.313753983
 21
19.972638857
 31
0.0
  0
LINE
  5
32F
100
AcDbEntity
  8
RACCORDO
100
AcDbLine
 62
7
  6
CONTINUOUS
 10
-93.313753983
 20
19.9833270436
 30
0.0
 11
-93.0146268501
 21
19.4674090551
 31
0.0
  0
LINE
  5
330
100
AcDbEntity
  8
DRAFT
100
AcDbLine
 62
7
  6
CONTINUOUS
 10
-86.7374264217
 20
27.4352149582
 30
0.0
 11
-86.7374264217
 21
27.0022022563
 31
0.0
  0
LINE
  5
331
100
AcDbEntity
  8
0
100
AcDbLine
 62
7
  6
CONTINUOUS
 10
-85.2945244072
 20
26.1655438322
 30
0.0
 11
-85.2945244072
 21
25.7409219557
 31
0.0
  0
LINE
  5
332
100
AcDbEntity
  8
DRAFT
100
AcDbLine
 62
7
  6
CONTINUOUS
 10
-85.2819211892
 20
27.0320996061
 30
0.0
 11
-85.2819211892
 21
27.3757923923
 31
0.0
  0
LINE
  5
333
100
AcDbEntity
  8
0
100
AcDbLine
 62
7
  6
CONTINUOUS
 10
-84.9894678022
 20
25.7530647063
 30
0.0
 11
-84.9894678022
 21
26.3707881182
 31
0.0
  0
LINE
  5
334
100
AcDbEntity
  8
RACCORDO
100
AcDbLine
 62
250
  6
CONTINUOUS
 10
-84.7375157611
 20
-8.4304741855
 30
0.0
 11
-84.7375157611
 21
-0.2575612047
 31
0.0
  0
LINE
  5
335
100
AcDbEntity
  8
ASSI
100
AcDbLine
 62
7
  6
CONTINUOUS
 10
-88.0812890616
 20
-11.4644742808
 30
0.0
 11
-88.0814423632
 21
-11.4661688953
 31
0.0
  0
LINE
  5
336
100
AcDbEntity
  8
0
100
AcDbLine
 62
7
  6
CONTINUOUS
 10
-84.3629436822
 20
25.9955535198
 30
0.0
 11
-84.3318903331
 21
26.2507965851
 31
0.0
  0
LINE
  5
337
100
AcDbEntity
  8
DRAFT
100
AcDbLine
 62
7
  6
CONTINUOUS
 10
-77.7176429532
 20
7.6811494136
 30
0.0
 11
-76.8024661666
 21
8.2730780325
 31
0.0
  0
LINE
  5
338
100
AcDbEntity
  8
RACCORDO
100
AcDbLine
 62
250
  6
CONTINUOUS
 10
-99.7776102035
 20
20.6106110358
 30
0.0
 11
-102.1681237429
 21
21.8058678055
 31
0.0
  0
LINE
  5
339
100
AcDbEntity
  8
DRAFT
100
AcDbLine
 62
7
  6
CONTINUOUS
 10
-102.1837564365
 20
22.0718528912
 30
0.0
 11
-106.3819637824
 21
24.1709565642
 31
0.0
  0
LINE
  5
33A
100
AcDbEntity
  8
DRAFT
100
AcDbLine
 62
7
  6
CONTINUOUS
 10
-106.1415712342
 20
25.5152599281
 30
0.0
 11
-99.7776102035
 21
22.3332794128
 31
0.0
  0
LINE
  5
33B
100
AcDbEntity
  8
0
100
AcDbLine
 62
250
  6
CONTINUOUS
 10
-95.238743756
 20
32.2374423281
 30
0.0
 11
-94.8447578221
 21
31.2152865101
 31
0.0
  0
LINE
  5
33C
100
AcDbEntity
  8
0
100
AcDbLine
 62
7
  6
CONTINUOUS
 10
-93.6293428158
 20
29.6365648529
 30
0.0
 11
-93.8308421737
 21
30.2322892787
 31
0.0
  0
LINE
  5
33D
100
AcDbEntity
  8
RACCORDO
100
AcDbLine
 62
7
  6
CONTINUOUS
 10
-84.4568555614
 20
-8.0831450003
 30
0.0
 11
-84.4568555614
 21
-0.7970078217
 31
0.0
  0
LINE
  5
33E
100
AcDbEntity
  8
0
100
AcDbLine
 62
7
  6
CONTINUOUS
 10
-84.3629436822
 20
25.9955535198
 30
0.0
 11
-84.3629436822
 21
25.8240246998
 31
0.0
  0
LINE
  5
33F
100
AcDbEntity
  8
RACCORDO
100
AcDbLine
 62
7
  6
CONTINUOUS
 10
-83.1976998551
 20
29.5377631061
 30
0.0
 11
-83.1976998551
 21
29.2107970584
 31
0.0
  0
LWPOLYLINE
  5
340
100
AcDbEntity
  8
RACCORDO
100
AcDbPolyline
 62
7
  6
CONTINUOUS
 90
35
 70
0
 10
-84.456855707
 20
-0.7970100056
 10
-84.4566736901
 20
-0.7837726103
 10
-84.4560487277
 20
-0.7691377098
 10
-84.4549557646
 20
-0.7542538498
 10
-84.4533808374
 20
-0.7392176842
 10
-84.4513080428
 20
-0.7240458003
 10
-84.4487221209
 20
-0.7087574624
 10
-84.445625961
 20
-0.6934529731
 10
-84.442015933
 20
-0.6781619395
 10
-84.4378841642
 20
-0.6628922159
 10
-84.4332404976
 20
-0.6477095776
 10
-84.4280876959
 20
-0.6326398912
 10
-84.4224242323
 20
-0.6176939089
 10
-84.4162613052
 20
-0.6029127596
 10
-84.4096032908
 20
-0.5883143816
 10
-84.4024548683
 20
-0.5739159186
 10
-84.3948329464
 20
-0.5597552682
 10
-84.3867463391
 20
-0.5458497859
 10
-84.3782029889
 20
-0.5322140304
 10
-84.3692230029
 20
-0.5188792758
 10
-84.3598178341
 20
-0.5058600001
 10
-84.3499989444
 20
-0.4931696364
 10
-84.3397901746
 20
-0.4808352264
 10
-84.3292053977
 20
-0.4688685029
 10
-84.3182588692
 20
-0.4572807244
 10
-84.3069782844
 20
-0.4460952026
 10
-84.2953786598
 20
-0.4353198513
 10
-84.2834773806
 20
-0.4249640439
 10
-84.2713088849
 20
-0.4150495866
 10
-84.2588905156
 20
-0.4055812952
 10
-84.2462412062
 20
-0.3965645173
 10
-84.2334009584
 20
-0.3880173019
 10
-84.2203968773
 20
-0.3799454712
 10
-84.2072414044
 20
-0.3723447801
 10
-84.2015953532
 20
-0.3692496718
  0
LINE
  5
341
100
AcDbEntity
  8
RACCORDO
100
AcDbLine
 62
250
  6
CONTINUOUS
 10
-77.9983031529
 20
3.3783986064
 30
0.0
 11
-84.7375157611
 21
-0.2575612047
 31
0.0
  0
LINE
  5
342
100
AcDbEntity
  8
RACCORDO
100
AcDbLine
 62
7
  6
CONTINUOUS
 10
-78.2428191328
 20
2.8456469206
 30
0.0
 11
-84.2015944191
 21
-0.3692490508
 31
0.0
  0
LINE
  5
343
100
AcDbEntity
  8
0
100
AcDbLine
 62
7
  6
CONTINUOUS
 10
-96.5499210024
 20
22.080684393
 30
0.0
 11
-95.9257254053
 21
21.9503517732
 31
0.0
  0
LINE
  5
344
100
AcDbEntity
  8
0
100
AcDbLine
 62
250
  6
CONTINUOUS
 10
-96.3230775088
 20
22.2365055538
 30
0.0
 11
-95.6118569007
 21
22.0880020309
 31
0.0
  0
LINE
  5
345
100
AcDbEntity
  8
0
100
AcDbLine
 62
7
  6
CONTINUOUS
 10
-95.4471482667
 20
21.0109867307
 30
0.0
 11
-95.9643788604
 21
21.2696020275
 31
0.0
  0
LINE
  5
346
100
AcDbEntity
  8
0
100
AcDbLine
 62
7
  6
CONTINUOUS
 10
-97.6511445846
 20
22.1129848896
 30
0.0
 11
-99.8191362829
 21
23.1969807388
 31
0.0
  0
LINE
  5
347
100
AcDbEntity
  8
0
100
AcDbLine
 62
7
  6
CONTINUOUS
 10
-100.4785461573
 20
23.526685676
 30
0.0
 11
-105.4406352804
 21
26.0077302375
 31
0.0
  0
LINE
  5
348
100
AcDbEntity
  8
0
100
AcDbLine
 62
7
  6
CONTINUOUS
 10
-106.1000451547
 20
26.3374351747
 30
0.0
 11
-108.268036853
 21
27.4214310239
 31
0.0
  0
LINE
  5
349
100
AcDbEntity
  8
0
100
AcDbLine
 62
7
  6
CONTINUOUS
 10
-109.9548025773
 20
28.264813886
 30
0.0
 11
-110.472033171
 21
28.5234291828
 31
0.0
  0
LINE
  5
34A
100
AcDbEntity
  8
0
100
AcDbLine
 62
7
  6
CONTINUOUS
 10
-110.5928222351
 20
29.0928978591
 30
0.0
 11
-108.9142841647
 21
28.2536288239
 31
0.0
  0
LINE
  5
34B
100
AcDbEntity
  8
0
100
AcDbLine
 62
7
  6
CONTINUOUS
 10
-98.2891642425
 20
22.9410688627
 30
0.0
 11
-96.6106261721
 21
22.1017998275
 31
0.0
  0
LINE
  5
34C
100
AcDbEntity
  8
0
100
AcDbLine
 62
250
  6
CONTINUOUS
 10
-110.6577955315
 20
29.2281163092
 30
0.0
 11
-108.9792574611
 21
28.388847274
 31
0.0
  0
LINE
  5
34D
100
AcDbEntity
  8
0
100
AcDbLine
 62
250
  6
CONTINUOUS
 10
-98.3541375389
 20
23.0762873128
 30
0.0
 11
-96.6755994685
 21
22.2370182776
 31
0.0
  0
LINE
  5
34E
100
AcDbEntity
  8
0
100
AcDbLine
 62
7
  6
CONTINUOUS
 10
-100.4785461573
 20
24.2791789254
 30
0.0
 11
-101.4020991669
 21
24.7409554302
 31
0.0
  0
LINE
  5
34F
100
AcDbEntity
  8
0
100
AcDbLine
 62
7
  6
CONTINUOUS
 10
-103.1028687084
 20
25.5913402009
 30
0.0
 11
-104.7273576718
 21
26.4035846826
 31
0.0
  0
LINE
  5
350
100
AcDbEntity
  8
0
100
AcDbLine
 62
250
  6
CONTINUOUS
 10
-96.6755994685
 20
22.5769922118
 30
0.0
 11
-98.3541375389
 21
23.416261247
 31
0.0
  0
LINE
  5
351
100
AcDbEntity
  8
0
100
AcDbLine
 62
250
  6
CONTINUOUS
 10
-108.9792574611
 20
28.7288212081
 30
0.0
 11
-110.6577955315
 21
29.5680902433
 31
0.0
  0
LINE
  5
352
100
AcDbEntity
  8
0
100
AcDbLine
 62
7
  6
CONTINUOUS
 10
-102.6060373282
 20
25.7191711356
 30
0.0
 11
-101.4606778107
 21
25.1464913768
 31
0.0
  0
LINE
  5
353
100
AcDbEntity
  8
0
100
AcDbLine
 62
7
  6
CONTINUOUS
 10
-94.36823884
 20
21.6002718915
 30
0.0
 11
-94.721796718
 21
21.7770508304
 31
0.0
  0
LINE
  5
354
100
AcDbEntity
  8
0
100
AcDbLine
 62
7
  6
CONTINUOUS
 10
-98.400489772
 20
23.6163973574
 30
0.0
 11
-98.7523053708
 21
23.7923051568
 31
0.0
  0
LINE
  5
355
100
AcDbEntity
  8
0
100
AcDbLine
 62
7
  6
CONTINUOUS
 10
-106.1000451547
 20
27.4661750488
 30
0.0
 11
-107.0254547107
 21
27.9288798268
 31
0.0
  0
LINE
  5
356
100
AcDbEntity
  8
0
100
AcDbLine
 62
250
  6
CONTINUOUS
 10
-96.4998512125
 20
22.8813690267
 30
0.0
 11
-98.1783892829
 21
23.7206380619
 31
0.0
  0
LINE
  5
357
100
AcDbEntity
  8
0
100
AcDbLine
 62
250
  6
CONTINUOUS
 10
-108.8035092052
 20
29.0331980231
 30
0.0
 11
-110.4820472756
 21
29.8724670583
 31
0.0
  0
LINE
  5
358
100
AcDbEntity
  8
0
100
AcDbLine
 62
7
  6
CONTINUOUS
 10
-106.1000451547
 20
27.7835979405
 30
0.0
 11
-105.4406352804
 21
27.4538930033
 31
0.0
  0
LINE
  5
359
100
AcDbEntity
  8
0
100
AcDbLine
 62
7
  6
CONTINUOUS
 10
-100.4785461573
 20
24.9728484417
 30
0.0
 11
-99.8191362829
 21
24.6431435046
 31
0.0
  0
LINE
  5
35A
100
AcDbEntity
  8
0
100
AcDbLine
 62
7
  6
CONTINUOUS
 10
-101.4606778107
 20
25.8448036484
 30
0.0
 11
-101.9093514227
 21
26.0691404544
 31
0.0
  0
LINE
  5
35B
100
AcDbEntity
  8
0
100
AcDbLine
 62
7
  6
CONTINUOUS
 10
-93.6673028863
 20
21.9518723073
 30
0.0
 11
-94.721796718
 21
22.4791192232
 31
0.0
  0
LINE
  5
35C
100
AcDbEntity
  8
0
100
AcDbLine
 62
7
  6
CONTINUOUS
 10
-106.3224617564
 20
28.2794517424
 30
0.0
 11
-107.0254547107
 21
28.6309482195
 31
0.0
  0
LINE
  5
35D
100
AcDbEntity
  8
0
100
AcDbLine
 62
7
  6
CONTINUOUS
 10
-101.9101317074
 20
26.1792141048
 30
0.0
 11
-101.4606778107
 21
25.9544871565
 31
0.0
  0
LINE
  5
35E
100
AcDbEntity
  8
0
100
AcDbLine
 62
250
  6
CONTINUOUS
 10
-99.9471000922
 20
25.2470702445
 30
0.0
 11
-101.4020991669
 21
25.9745697818
 31
0.0
  0
LINE
  5
35F
100
AcDbEntity
  8
0
100
AcDbLine
 62
250
  6
CONTINUOUS
 10
-103.1028687084
 20
26.8249545526
 30
0.0
 11
-104.7273576718
 21
27.6371990343
 31
0.0
  0
LINE
  5
360
100
AcDbEntity
  8
0
100
AcDbLine
 62
250
  6
CONTINUOUS
 10
-99.6382385841
 20
25.4064402448
 30
0.0
 11
-101.2615005621
 21
26.2180712338
 31
0.0
  0
LINE
  5
361
100
AcDbEntity
  8
0
100
AcDbLine
 62
250
  6
CONTINUOUS
 10
-102.9622701036
 20
27.0684560046
 30
0.0
 11
-104.5855320816
 21
27.8800869935
 31
0.0
  0
LINE
  5
362
100
AcDbEntity
  8
0
100
AcDbLine
 62
7
  6
CONTINUOUS
 10
-105.0455557233
 20
28.3245709792
 30
0.0
 11
-102.7474568895
 21
27.1755215623
 31
0.0
  0
LINE
  5
363
100
AcDbEntity
  8
0
100
AcDbLine
 62
7
  6
CONTINUOUS
 10
-101.0504042046
 20
26.3269952198
 30
0.0
 11
-98.7523053708
 21
25.1779458029
 31
0.0
  0
LINE
  5
364
100
AcDbEntity
  8
0
100
AcDbLine
 62
7
  6
CONTINUOUS
 10
-94.8985704217
 20
23.6840910302
 30
0.0
 11
-96.5956326798
 21
24.5326221593
 31
0.0
  0
LINE
  5
365
100
AcDbEntity
  8
0
100
AcDbLine
 62
7
  6
CONTINUOUS
 10
-107.2022284143
 20
29.8359200266
 30
0.0
 11
-108.8992906724
 21
30.6844511556
 31
0.0
  0
LINE
  5
366
100
AcDbEntity
  8
0
100
AcDbLine
 62
7
  6
CONTINUOUS
 10
-103.7055033486
 20
28.3425563424
 30
0.0
 11
-102.0605551042
 21
27.5200822202
 31
0.0
  0
LINE
  5
367
100
AcDbEntity
  8
0
100
AcDbLine
 62
7
  6
CONTINUOUS
 10
-100.3514078695
 20
26.6655086029
 30
0.0
 11
-98.7064596251
 21
25.8430344807
 31
0.0
  0
LINE
  5
368
100
AcDbEntity
  8
0
100
AcDbLine
 62
250
  6
CONTINUOUS
 10
-108.3648407937
 20
30.9447986222
 30
0.0
 11
-106.6739612426
 21
30.0993588466
 31
0.0
  0
LINE
  5
369
100
AcDbEntity
  8
0
100
AcDbLine
 62
250
  6
CONTINUOUS
 10
-96.0611828011
 20
24.7929696258
 30
0.0
 11
-94.3703032499
 21
23.9475298503
 31
0.0
  0
LINE
  5
36A
100
AcDbEntity
  8
0
100
AcDbLine
 62
7
  6
CONTINUOUS
 10
-108.2540658342
 20
30.9513885133
 30
0.0
 11
-106.563186283
 21
30.1059487377
 31
0.0
  0
LINE
  5
36B
100
AcDbEntity
  8
0
100
AcDbLine
 62
7
  6
CONTINUOUS
 10
-95.9504078415
 20
24.7995595169
 30
0.0
 11
-94.2595282904
 21
23.9541197414
 31
0.0
  0
LINE
  5
36C
100
AcDbEntity
  8
0
100
AcDbLine
 62
250
  6
CONTINUOUS
 10
-87.8141225535
 20
28.5251317269
 30
0.0
 11
-87.4201366196
 21
27.5029759089
 31
0.0
  0
LINE
  5
36D
100
AcDbEntity
  8
RACCORDO
100
AcDbLine
 62
250
  6
CONTINUOUS
 10
-77.9983031529
 20
3.3783986064
 30
0.0
 11
-77.9983031529
 21
7.9336540493
 31
0.0
  0
LINE
  5
36E
100
AcDbEntity
  8
RACCORDO
100
AcDbLine
 62
250
  6
CONTINUOUS
 10
-77.9983031529
 20
9.7061229481
 30
0.0
 11
-77.9983031529
 21
19.8848046125
 31
0.0
  0
LINE
  5
36F
100
AcDbEntity
  8
RACCORDO
100
AcDbLine
 62
250
  6
CONTINUOUS
 10
-77.9983031529
 20
21.6572735299
 30
0.0
 11
-77.9983031529
 21
25.4646718083
 31
0.0
  0
LWPOLYLINE
  5
370
100
AcDbEntity
  8
RACCORDO
100
AcDbPolyline
 62
7
  6
CONTINUOUS
 90
7
 70
0
 10
-77.7176424355
 20
19.6439859305
 10
-77.717590249
 20
19.6457604017
 10
-77.7173897179
 20
19.6478312281
 10
-77.7171157971
 20
19.6494327996
 10
-77.7168446818
 20
19.6505542277
 10
-77.7166629385
 20
19.6511380728
 10
-77.7166417262
 20
19.6511955534
  0
LINE
  5
371
100
AcDbEntity
  8
0
100
AcDbLine
 62
250
  6
CONTINUOUS
 10
-95.9648930888
 20
-18.0858322704
 30
0.0
 11
-96.5872111208
 21
-18.8308916879
 31
0.0
  0
LINE
  5
372
100
AcDbEntity
  8
0
100
AcDbLine
 62
250
  6
CONTINUOUS
 10
-95.6118569007
 20
-18.2116021085
 30
0.0
 11
-96.3230775088
 21
-19.0630985856
 31
0.0
  0
LINE
  5
373
100
AcDbEntity
  8
0
100
AcDbLine
 62
7
  6
CONTINUOUS
 10
-108.853578995
 20
28.2325133893
 30
0.0
 11
-108.229383398
 21
28.1021807695
 31
0.0
  0
LINE
  5
374
100
AcDbEntity
  8
0
100
AcDbLine
 62
250
  6
CONTINUOUS
 10
-108.6267355015
 20
28.3883345501
 30
0.0
 11
-107.9155148934
 21
28.2398310272
 31
0.0
  0
LWPOLYLINE
  5
375
100
AcDbEntity
  8
RACCORDO
100
AcDbPolyline
 62
7
  6
CONTINUOUS
 90
64
 70
0
 10
-97.9916061959
 20
28.0096163205
 10
-98.0020474478
 20
28.0147118033
 10
-98.0195535295
 20
28.0227190924
 10
-98.0375308672
 20
28.0302947504
 10
-98.0559479712
 20
28.0374325849
 10
-98.0747957654
 20
28.0441383099
 10
-98.094086735
 20
28.0504252075
 10
-98.1137982101
 20
28.0562946807
 10
-98.1339077286
 20
28.0617499424
 10
-98.1544238964
 20
28.0668027179
 10
-98.1752946174
 20
28.0714498714
 10
-98.1965314529
 20
28.0757036385
 10
-98.2182365846
 20
28.0795889694
 10
-98.240361488
 20
28.0830987424
 10
-98.2629249062
 20
28.0862372765
 10
-98.2861306638
 20
28.0890268049
 10
-98.3100550934
 20
28.0914617948
 10
-98.3345983446
 20
28.0935174253
 10
-98.3596979821
 20
28.0951773721
 10
-98.385456809
 20
28.0964352785
 10
-98.4117442443
 20
28.0972711873
 10
-98.4381444527
 20
28.0976707695
 10
-98.4646204437
 20
28.097641837
 10
-98.4911818714
 20
28.097191446
 10
-98.5174837009
 20
28.0963384981
 10
-98.5434358271
 20
28.0951069737
 10
-98.5691101879
 20
28.0935128858
 10
-98.5944071145
 20
28.0915806679
 10
-98.6193067093
 20
28.0893310811
 10
-98.6438177833
 20
28.0867814088
 10
-98.6678846568
 20
28.083955269
 10
-98.6914886814
 20
28.080873102
 10
-98.7146434245
 20
28.0775505479
 10
-98.7373416003
 20
28.0740051412
 10
-98.7595755327
 20
28.0702541729
 10
-98.7813512621
 20
28.0663121636
 10
-98.8026809788
 20
28.0621916181
 10
-98.8235650943
 20
28.0579065316
 10
-98.8440031575
 20
28.053470733
 10
-98.864004425
 20
28.0488955125
 10
-98.883571172
 20
28.0441932185
 10
-98.9027018777
 20
28.0393768889
 10
-98.9213984239
 20
28.03445857
 10
-98.9396704841
 20
28.0294479285
 10
-98.957509336
 20
28.0243594677
 10
-98.9748883249
 20
28.0192134173
 10
-98.9917954098
 20
28.0140265297
 10
-99.0082453381
 20
28.0088073561
 10
-99.0242502356
 20
28.0035646483
 10
-99.0397899165
 20
27.9983176946
 10
-99.0548858039
 20
27.9930718716
 10
-99.0696075444
 20
27.9878142208
 10
-99.0839536891
 20
27.9825555419
 10
-99.0979188436
 20
27.9773082385
 10
-99.1115591647
 20
27.972061004
 10
-99.1248573497
 20
27.966829861
 10
-99.1378134647
 20
27.9616244849
 10
-99.1504996621
 20
27.9564248255
 10
-99.1628784772
 20
27.9512549484
 10
-99.1749506718
 20
27.9461238962
 10
-99.1868281304
 20
27.9409925291
 10
-99.1984646522
 20
27.9358889563
 10
-99.2098269324
 20
27.9308372157
 10
-99.2320206734
 20
27.9207972534
  0
LINE
  5
376
100
AcDbEntity
  8
RACCORDO
100
AcDbLine
 62
7
  6
CONTINUOUS
 10
-99.0705572702
 20
27.8778399526
 30
0.0
 11
-96.8405014241
 21
26.7628120295
 31
0.0
  0
LINE
  5
377
100
AcDbEntity
  8
RACCORDO
100
AcDbLine
 62
250
  6
CONTINUOUS
 10
-96.2127682919
 20
27.0722374183
 30
0.0
 11
-98.0785844311
 21
28.0051454879
 31
0.0
  0
LINE
  5
378
100
AcDbEntity
  8
RACCORDO
100
AcDbLine
 62
7
  6
CONTINUOUS
 10
-96.1644666062
 20
27.0960465294
 30
0.0
 11
-97.9916098548
 21
28.0096181537
 31
0.0
  0
LINE
  5
379
100
AcDbEntity
  8
0
100
AcDbLine
 62
7
  6
CONTINUOUS
 10
-97.9286421658
 20
28.5123111059
 30
0.0
 11
-95.6264836094
 21
27.3612318277
 31
0.0
  0
LINE
  5
37A
100
AcDbEntity
  8
0
100
AcDbLine
 62
7
  6
CONTINUOUS
 10
-97.2834534394
 20
29.1884588597
 30
0.0
 11
-94.6206250987
 21
27.8570446894
 31
0.0
  0
LINE
  5
37B
100
AcDbEntity
  8
0
100
AcDbLine
 62
7
  6
CONTINUOUS
 10
-93.6188479804
 20
29.6313174352
 30
0.0
 11
-93.4560603417
 21
29.4809803213
 31
0.0
  0
LINE
  5
37C
100
AcDbEntity
  8
RACCORDO
100
AcDbLine
 62
7
  6
CONTINUOUS
 10
-86.2824648781
 20
23.3736890578
 30
0.0
 11
-87.3656601477
 21
25.2419245436
 31
0.0
  0
LWPOLYLINE
  5
37D
100
AcDbEntity
  8
RACCORDO
100
AcDbPolyline
 62
7
  6
CONTINUOUS
 90
31
 70
0
 10
-77.7176429641
 20
25.8119089761
 10
-77.7179302559
 20
25.8464766115
 10
-77.7190673271
 20
25.8889677116
 10
-77.7210614033
 20
25.9315225166
 10
-77.723906155
 20
25.9741462375
 10
-77.7275940979
 20
26.0168183866
 10
-77.7321142912
 20
26.0594894523
 10
-77.7374587755
 20
26.1021533314
 10
-77.7436202982
 20
26.1448022651
 10
-77.7505843176
 20
26.1873821475
 10
-77.7583422301
 20
26.2298863967
 10
-77.7668865119
 20
26.2723084217
 10
-77.7761988105
 20
26.3145925161
 10
-77.7862695927
 20
26.3567299039
 10
-77.7970911967
 20
26.3987163213
 10
-77.8086434098
 20
26.4405014405
 10
-77.8209141816
 20
26.4820690057
 10
-77.8338975312
 20
26.5234225208
 10
-77.8475803613
 20
26.5645400125
 10
-77.8619535902
 20
26.6054117575
 10
-77.877010676
 20
26.6460341899
 10
-77.8927421482
 20
26.6863932472
 10
-77.9091412388
 20
26.7264818044
 10
-77.9262020984
 20
26.7662929076
 10
-77.9439159977
 20
26.8058118647
 10
-77.9622771007
 20
26.8450303483
 10
-77.9812810518
 20
26.8839410821
 10
-78.0009210569
 20
26.9225313167
 10
-78.0211927677
 20
26.9607919846
 10
-78.0420930771
 20
26.9987155085
 10
-78.0596104077
 20
27.0294037627
  0
LINE
  5
37E
100
AcDbEntity
  8
RACCORDO
100
AcDbLine
 62
7
  6
CONTINUOUS
 10
-77.7176429532
 20
3.7257277916
 30
0.0
 11
-77.7176429532
 21
7.6928192674
 31
0.0
  0
LINE
  5
37F
100
AcDbEntity
  8
RACCORDO
100
AcDbLine
 62
7
  6
CONTINUOUS
 10
-77.7176429532
 20
10.6416160453
 30
0.0
 11
-77.7176429532
 21
19.6439689042
 31
0.0
  0
LINE
  5
380
100
AcDbEntity
  8
RACCORDO
100
AcDbLine
 62
7
  6
CONTINUOUS
 10
-77.7176429532
 20
22.592767809
 30
0.0
 11
-77.7176429532
 21
25.811921543
 31
0.0
  0
LWPOLYLINE
  5
381
100
AcDbEntity
  8
RACCORDO
100
AcDbPolyline
 62
7
  6
CONTINUOUS
 90
7
 70
0
 10
-77.7176424486
 20
7.6928339769
 10
-77.7175902663
 20
7.694608834
 10
-77.7173898654
 20
7.6966797972
 10
-77.7171159028
 20
7.6982816495
 10
-77.7168447895
 20
7.6994032502
 10
-77.7166630618
 20
7.6999871877
 10
-77.7166418214
 20
7.7000447461
  0
LWPOLYLINE
  5
382
100
AcDbEntity
  8
RACCORDO
100
AcDbPolyline
 62
7
  6
CONTINUOUS
 90
40
 70
0
 10
-85.0770875304
 20
-9.4015870826
 10
-85.057453845
 20
-9.3870917538
 10
-85.0293586486
 20
-9.3653967159
 10
-85.0017556036
 20
-9.3429324889
 10
-84.9746727619
 20
-9.3197166597
 10
-84.9481231671
 20
-9.2957553268
 10
-84.9221055108
 20
-9.2710409158
 10
-84.8966397175
 20
-9.2455847718
 10
-84.8717451162
 20
-9.2193986675
 10
-84.8474209419
 20
-9.1924726991
 10
-84.8236864215
 20
-9.1648177936
 10
-84.8005613768
 20
-9.1364468019
 10
-84.7780476167
 20
-9.1073499348
 10
-84.7561636983
 20
-9.0775372763
 10
-84.7349295762
 20
-9.0470225677
 10
-84.7143506002
 20
-9.015798467
 10
-84.6944456543
 20
-8.9838765015
 10
-84.6752331403
 20
-8.9512689776
 10
-84.6567188
 20
-8.9179667453
 10
-84.6389222023
 20
-8.8839836062
 10
-84.6218600326
 20
-8.849329141
 10
-84.6055354314
 20
-8.8139843479
 10
-84.5899646921
 20
-8.7779544341
 10
-84.5751687337
 20
-8.7412557794
 10
-84.5611590173
 20
-8.7038825947
 10
-84.5479478527
 20
-8.6658279501
 10
-84.5355597219
 20
-8.6271191024
 10
-84.5240212409
 20
-8.5877996588
 10
-84.5133464524
 20
-8.5478793655
 10
-84.5035499477
 20
-8.5073696939
 10
-84.4946526871
 20
-8.466315907
 10
-84.4866653208
 20
-8.4247263425
 10
-84.4795995321
 20
-8.3826129958
 10
-84.4734714634
 20
-8.3400257827
 10
-84.468289262
 20
-8.2969740649
 10
-84.4640615859
 20
-8.2534678665
 10
-84.460799423
 20
-8.2095566946
 10
-84.4585095717
 20
-8.165262173
 10
-84.4571973744
 20
-8.1205810982
 10
-84.456855571
 20
-8.0831461239
  0
LINE
  5
383
100
AcDbEntity
  8
0
100
AcDbLine
 62
7
  6
CONTINUOUS
 10
-93.313753983
 20
-13.7960908959
 30
0.0
 11
-92.6128180292
 21
-13.2880911582
 31
0.0
  0
LINE
  5
384
100
AcDbEntity
  8
RACCORDO
100
AcDbLine
 62
7
  6
CONTINUOUS
 10
-93.0146268501
 20
-13.589988227
 30
0.0
 11
-93.313753983
 21
-13.8067790824
 31
0.0
  0
LINE
  5
385
100
AcDbEntity
  8
RACCORDO
100
AcDbLine
 62
7
  6
CONTINUOUS
 10
-87.3656601477
 20
-10.8713347942
 30
0.0
 11
-86.2824648781
 21
-10.0862945779
 31
0.0
  0
LINE
  5
386
100
AcDbEntity
  8
RACCORDO
100
AcDbLine
 62
250
  6
CONTINUOUS
 10
-85.3576207837
 20
-9.5972217862
 30
0.0
 11
-85.1516662367
 21
-9.4479572845
 31
0.0
  0
LINE
  5
387
100
AcDbEntity
  8
RACCORDO
100
AcDbLine
 62
7
  6
CONTINUOUS
 10
-85.2830531897
 20
-9.5508596534
 30
0.0
 11
-85.0770986426
 21
-9.4015951517
 31
0.0
  0
LINE
  5
388
100
AcDbEntity
  8
0
100
AcDbLine
 62
7
  6
CONTINUOUS
 10
-93.0060686827
 20
-12.023738144
 30
0.0
 11
-92.9488446757
 21
-11.9925845915
 31
0.0
  0
LINE
  5
389
100
AcDbEntity
  8
0
100
AcDbLine
 62
7
  6
CONTINUOUS
 10
-92.9781737376
 20
-12.0085361271
 30
0.0
 11
-92.9488447953
 21
-11.9925782251
 31
0.0
  0
LINE
  5
38A
100
AcDbEntity
  8
RACCORDO
100
AcDbLine
 62
250
  6
CONTINUOUS
 10
-85.3576207837
 20
-9.5972217862
 30
0.0
 11
-86.2824648781
 21
-10.0862945779
 31
0.0
  0
LINE
  5
38B
100
AcDbEntity
  8
RACCORDO
100
AcDbLine
 62
7
  6
CONTINUOUS
 10
-85.4024087137
 20
-9.6251564802
 30
0.0
 11
-86.3041569804
 21
-10.1020158177
 31
0.0
  0
LINE
  5
38C
100
AcDbEntity
  8
RACCORDO
100
AcDbLine
 62
250
  6
CONTINUOUS
 10
-92.6004763744
 20
-12.572505128
 30
0.0
 11
-84.7375157611
 21
-8.4304741855
 31
0.0
  0
LINE
  5
38D
100
AcDbEntity
  8
RACCORDO
100
AcDbLine
 62
250
  6
CONTINUOUS
 10
-93.0146268501
 20
-13.589988227
 30
0.0
 11
-85.1516662367
 21
-9.4479572845
 31
0.0
  0
LINE
  5
38E
100
AcDbEntity
  8
0
100
AcDbLine
 62
7
  6
CONTINUOUS
 10
-93.313753983
 20
-13.6478604598
 30
0.0
 11
-92.6128180292
 21
-13.2880911582
 31
0.0
  0
LINE
  5
38F
100
AcDbEntity
  8
0
100
AcDbLine
 62
7
  6
CONTINUOUS
 10
-92.6128180292
 20
-12.6781689337
 30
0.0
 11
-92.7862289201
 21
-12.7609836903
 31
0.0
  0
LINE
  5
390
100
AcDbEntity
  8
0
100
AcDbLine
 62
7
  6
CONTINUOUS
 10
-92.9489068701
 20
-12.838261469
 30
0.0
 11
-93.007561362
 21
-12.8660188123
 31
0.0
  0
LINE
  5
391
100
AcDbEntity
  8
0
100
AcDbLine
 62
7
  6
CONTINUOUS
 10
-92.9756471211
 20
-12.8509141861
 30
0.0
 11
-93.007562668
 21
-12.8660070657
 31
0.0
  0
LINE
  5
392
100
AcDbEntity
  8
RACCORDO
100
AcDbLine
 62
7
  6
CONTINUOUS
 10
-83.9227010509
 20
25.9152201891
 30
0.0
 11
-84.3629436822
 21
25.9955535198
 31
0.0
  0
LINE
  5
393
100
AcDbEntity
  8
RACCORDO
100
AcDbLine
 62
7
  6
CONTINUOUS
 10
-85.2945244072
 20
26.1655438322
 30
0.0
 11
-87.0367403654
 21
26.4834549129
 31
0.0
  0
LINE
  5
394
100
AcDbEntity
  8
0
100
AcDbLine
 62
7
  6
CONTINUOUS
 10
-84.6467016812
 20
26.840394749
 30
0.0
 11
-83.989124212
 21
26.7204032159
 31
0.0
  0
LINE
  5
395
100
AcDbEntity
  8
0
100
AcDbLine
 62
250
  6
CONTINUOUS
 10
-93.4778133016
 20
27.8082549368
 30
0.0
 11
-94.0942851264
 21
28.1164908492
 31
0.0
  0
LINE
  5
396
100
AcDbEntity
  8
0
100
AcDbLine
 62
250
  6
CONTINUOUS
 10
-99.0928604926
 20
30.6157785323
 30
0.0
 11
-99.7093323174
 21
30.9240144447
 31
0.0
  0
LINE
  5
397
100
AcDbEntity
  8
0
100
AcDbLine
 62
7
  6
CONTINUOUS
 10
-93.3191747522
 20
27.8528904038
 30
0.0
 11
-93.8344244156
 21
28.1105152355
 31
0.0
  0
LINE
  5
398
100
AcDbEntity
  8
0
100
AcDbLine
 62
7
  6
CONTINUOUS
 10
-98.9096213652
 20
30.6481137103
 30
0.0
 11
-99.4248710286
 21
30.905738542
 31
0.0
  0
LINE
  5
399
100
AcDbEntity
  8
0
100
AcDbLine
 62
7
  6
CONTINUOUS
 10
-92.6230624249
 20
27.8273244121
 30
0.0
 11
-95.5294157717
 21
29.2805010855
 31
0.0
  0
LINE
  5
39A
100
AcDbEntity
  8
DRAFT
100
AcDbLine
 62
7
  6
CONTINUOUS
 10
-88.083268714
 20
25.6007288268
 30
0.0
 11
-87.3656601477
 21
25.2419245436
 31
0.0
  0
LINE
  5
39B
100
AcDbEntity
  8
0
100
AcDbLine
 62
250
  6
CONTINUOUS
 10
-99.201122941
 20
31.7435507078
 30
0.0
 11
-96.2418870015
 21
30.263932738
 31
0.0
  0
LINE
  5
39C
100
AcDbEntity
  8
0
100
AcDbLine
 62
250
  6
CONTINUOUS
 10
-91.9913973919
 20
28.1386879332
 30
0.0
 11
-89.0321614524
 21
26.6590699635
 31
0.0
  0
LINE
  5
39D
100
AcDbEntity
  8
0
100
AcDbLine
 62
7
  6
CONTINUOUS
 10
-98.9119267748
 20
31.8468621082
 30
0.0
 11
-95.7973963427
 21
30.2895968922
 31
0.0
  0
LINE
  5
39E
100
AcDbEntity
  8
0
100
AcDbLine
 62
7
  6
CONTINUOUS
 10
-91.5496883743
 20
28.165742908
 30
0.0
 11
-88.4351579422
 21
26.6084776919
 31
0.0
  0
LINE
  5
39F
100
AcDbEntity
  8
0
100
AcDbLine
 62
7
  6
CONTINUOUS
 10
-93.6188479804
 20
29.6313174352
 30
0.0
 11
-94.3258169205
 21
29.9848019053
 31
0.0
  0
LINE
  5
3A0
100
AcDbEntity
  8
0
100
AcDbLine
 62
7
  6
CONTINUOUS
 10
-93.1238732336
 20
29.8788048086
 30
0.0
 11
-93.8308421737
 21
30.2322892787
 31
0.0
  0
LINE
  5
3A1
100
AcDbEntity
  8
RACCORDO
100
AcDbLine
 62
250
  6
CONTINUOUS
 10
-98.5523255259
 20
-18.7364583039
 30
0.0
 11
-95.6755783359
 21
-17.2216342719
 31
0.0
  0
LINE
  5
3A2
100
AcDbEntity
  8
DRAFT
100
AcDbLine
 62
7
  6
CONTINUOUS
 10
-93.313753983
 20
-13.9959277942
 30
0.0
 11
-87.3656601477
 21
-10.8713347942
 31
0.0
  0
LINE
  5
3A3
100
AcDbEntity
  8
RACCORDO
100
AcDbLine
 62
7
  6
CONTINUOUS
 10
-95.7829391536
 20
-17.4798820966
 30
0.0
 11
-98.6640487827
 21
-18.9970022451
 31
0.0
  0
LINE
  5
3A4
100
AcDbEntity
  8
0
100
AcDbLine
 62
7
  6
CONTINUOUS
 10
-89.0321614524
 20
-12.027964957
 30
0.0
 11
-93.313753983
 21
-14.2275852163
 31
0.0
  0
LINE
  5
3A5
100
AcDbEntity
  8
ASSI
100
AcDbLine
 62
7
  6
CONTINUOUS
 10
-88.2215403108
 20
-11.5150177841
 30
0.0
 11
-93.313753983
 21
-14.1191314396
 31
0.0
  0
LINE
  5
3A6
100
AcDbEntity
  8
0
100
AcDbLine
 62
7
  6
CONTINUOUS
 10
-95.5294157717
 20
29.2805010855
 30
0.0
 11
-97.2834534394
 21
29.1884588597
 31
0.0
  0
LINE
  5
3A7
100
AcDbEntity
  8
0
100
AcDbLine
 62
7
  6
CONTINUOUS
 10
-92.6741285722
 20
29.7570569755
 30
0.0
 11
-93.1238732336
 21
29.8788048086
 31
0.0
  0
LINE
  5
3A8
100
AcDbEntity
  8
RACCORDO
100
AcDbLine
 62
7
  6
CONTINUOUS
 10
-90.4204969543
 20
29.9948223559
 30
0.0
 11
-90.398737655
 21
29.9839587157
 31
0.0
  0
LINE
  5
3A9
100
AcDbEntity
  8
DRAFT
100
AcDbLine
 62
7
  6
CONTINUOUS
 10
-87.1697406725
 20
27.2183593817
 30
0.0
 11
-86.7374264217
 21
27.0022022563
 31
0.0
  0
LINE
  5
3AA
100
AcDbEntity
  8
SMUSSO
100
AcDbLine
 62
7
  6
CONTINUOUS
 10
-94.1620476242
 20
30.7145128575
 30
0.0
 11
-94.5943618749
 21
30.9306699829
 31
0.0
  0
LINE
  5
3AB
100
AcDbEntity
  8
DRAFT
100
AcDbLine
 62
7
  6
CONTINUOUS
 10
-90.6026215295
 20
30.845797327
 30
0.0
 11
-89.9710902085
 21
30.5300316665
 31
0.0
  0
LINE
  5
3AC
100
AcDbEntity
  8
DRAFT
100
AcDbLine
 62
7
  6
CONTINUOUS
 10
-83.1780003271
 20
27.1334867258
 30
0.0
 11
-82.546469006
 21
26.8177210653
 31
0.0
  0
LINE
  5
3AD
100
AcDbEntity
  8
DRAFT
100
AcDbLine
 62
7
  6
CONTINUOUS
 10
-82.994462486
 20
27.0573776579
 30
0.0
 11
-82.6903431021
 21
26.9053179659
 31
0.0
  0
LINE
  5
3AE
100
AcDbEntity
  8
DRAFT
100
AcDbLine
 62
7
  6
CONTINUOUS
 10
-90.1149643046
 20
30.6176285671
 30
0.0
 11
-90.4190836885
 21
30.7696882591
 31
0.0
  0
LINE
  5
3AF
100
AcDbEntity
  8
0
100
AcDbLine
 62
7
  6
CONTINUOUS
 10
-82.719586182
 20
26.3937941457
 30
0.0
 11
-83.1808058409
 21
26.6370043916
 31
0.0
  0
LINE
  5
3B0
100
AcDbEntity
  8
0
100
AcDbLine
 62
250
  6
CONTINUOUS
 10
-94.0146899368
 20
-16.9414426036
 30
0.0
 11
-93.313753983
 21
-16.5797654109
 31
0.0
  0
LINE
  5
3B1
100
AcDbEntity
  8
0
100
AcDbLine
 62
7
  6
CONTINUOUS
 10
-94.1434027612
 20
-17.2112526826
 30
0.0
 11
-93.4415693847
 21
-16.8491124271
 31
0.0
  0
LINE
  5
3B2
100
AcDbEntity
  8
0
100
AcDbLine
 62
250
  6
CONTINUOUS
 10
-94.721796718
 20
-18.6230379201
 30
0.0
 11
-94.1935295463
 21
-18.3520268614
 31
0.0
  0
LINE
  5
3B3
100
AcDbEntity
  8
0
100
AcDbLine
 62
7
  6
CONTINUOUS
 10
-94.7859018177
 20
-18.7578156912
 30
0.0
 11
-94.2572175838
 21
-18.4865906717
 31
0.0
  0
LINE
  5
3B4
100
AcDbEntity
  8
0
100
AcDbLine
 62
7
  6
CONTINUOUS
 10
-94.7859018197
 20
-18.7578156922
 30
0.0
 11
-94.7876382308
 21
-18.758683912
 31
0.0
  0
LINE
  5
3B5
100
AcDbEntity
  8
0
100
AcDbLine
 62
250
  6
CONTINUOUS
 10
-96.3230775088
 20
-19.4030725197
 30
0.0
 11
-94.721796718
 21
-18.6230379201
 31
0.0
  0
LINE
  5
3B6
100
AcDbEntity
  8
0
100
AcDbLine
 62
7
  6
CONTINUOUS
 10
-96.3893391014
 20
-19.5389231459
 30
0.0
 11
-94.7876382316
 21
-18.7586839125
 31
0.0
  0
LINE
  5
3B7
100
AcDbEntity
  8
0
100
AcDbLine
 62
250
  6
CONTINUOUS
 10
-95.0938640008
 20
-17.3942231936
 30
0.0
 11
-94.0146899368
 21
-16.9412297561
 31
0.0
  0
LINE
  5
3B8
100
AcDbEntity
  8
0
100
AcDbLine
 62
7
  6
CONTINUOUS
 10
-95.2351297545
 20
-17.6701544832
 30
0.0
 11
-94.1569374629
 21
-17.2175731538
 31
0.0
  0
LINE
  5
3B9
100
AcDbEntity
  8
DRAFT
100
AcDbLine
 62
7
  6
CONTINUOUS
 10
-80.0888842843
 20
27.656389273
 30
0.0
 11
-83.1976998551
 21
29.2107970584
 31
0.0
  0
LINE
  5
3BA
100
AcDbEntity
  8
DRAFT
100
AcDbLine
 62
7
  6
CONTINUOUS
 10
-87.5135054868
 20
31.3686998742
 30
0.0
 11
-90.6223210575
 21
32.9231076596
 31
0.0
  0
LINE
  5
3BB
100
AcDbEntity
  8
RACCORDO
100
AcDbLine
 62
250
  6
CONTINUOUS
 10
-79.5805976722
 20
27.9003394523
 30
0.0
 11
-79.0481998143
 21
27.6341405234
 31
0.0
  0
LINE
  5
3BC
100
AcDbEntity
  8
RACCORDO
100
AcDbLine
 62
250
  6
CONTINUOUS
 10
-84.241048855
 20
30.2305650437
 30
0.0
 11
-87.0052188746
 21
31.6126500535
 31
0.0
  0
LINE
  5
3BD
100
AcDbEntity
  8
RACCORDO
100
AcDbLine
 62
250
  6
CONTINUOUS
 10
-91.6656700575
 20
33.942875645
 30
0.0
 11
-92.1980679154
 21
34.2090745739
 31
0.0
  0
LINE
  5
3BE
100
AcDbEntity
  8
RACCORDO
100
AcDbLine
 62
7
  6
CONTINUOUS
 10
-79.2338915614
 20
27.9667861668
 30
0.0
 11
-78.6133269337
 21
27.656503853
 31
0.0
  0
LINE
  5
3BF
100
AcDbEntity
  8
RACCORDO
100
AcDbLine
 62
7
  6
CONTINUOUS
 10
-83.7180092047
 20
30.2088449885
 30
0.0
 11
-86.6585127638
 21
31.679096768
 31
0.0
  0
LINE
  5
3C0
100
AcDbEntity
  8
RACCORDO
100
AcDbLine
 62
7
  6
CONTINUOUS
 10
-91.1426304071
 20
33.9211555897
 30
0.0
 11
-91.7631950348
 21
34.2314379035
 31
0.0
  0
LINE
  5
3C1
100
AcDbEntity
  8
RACCORDO
100
AcDbLine
 62
250
  6
CONTINUOUS
 10
-78.5482759667
 20
27.1305642641
 30
0.0
 11
-78.4124536285
 21
26.8963053829
 31
0.0
  0
LINE
  5
3C2
100
AcDbEntity
  8
RACCORDO
100
AcDbLine
 62
7
  6
CONTINUOUS
 10
-78.1954327179
 20
27.2636626215
 30
0.0
 11
-78.0596103797
 21
27.0294037403
 31
0.0
  0
ARC
  5
3C3
100
AcDbEntity
  8
RACCORDO
100
AcDbCircle
 62
7
  6
CONTINUOUS
 10
-30.7784266536
 20
-72.4905314156
 30
0.0
 40
113.8918074547
100
AcDbArc
 50
119.673422891
 51
119.9712159954
  0
ARC
  5
3C4
100
AcDbEntity
  8
0
100
AcDbCircle
 62
7
  6
CONTINUOUS
 10
-43.9965975119
 20
-72.0668642148
 30
0.0
 40
102.4856170872
100
AcDbArc
 50
118.3184138689
 51
118.5320270521
  0
ARC
  5
3C5
100
AcDbEntity
  8
0
100
AcDbCircle
 62
7
  6
CONTINUOUS
 10
-43.9965975148
 20
-102.0313431804
 30
0.0
 40
102.485617081
100
AcDbArc
 50
118.3184138689
 51
118.5320270522
  0
ARC
  5
3C6
100
AcDbEntity
  8
RACCORDO
100
AcDbCircle
 62
7
  6
CONTINUOUS
 10
-125.3653956356
 20
-37.733120318
 30
0.0
 40
76.2055494577
100
AcDbArc
 50
62.7378029436
 51
63.4213195026
  0
ARC
  5
3C7
100
AcDbEntity
  8
0
100
AcDbCircle
 62
7
  6
CONTINUOUS
 10
-66.4335532033
 20
-30.8766600537
 30
0.0
 40
55.5809153218
100
AcDbArc
 50
118.5605367018
 51
119.0048701276
  0
ARC
  5
3C8
100
AcDbEntity
  8
0
100
AcDbCircle
 62
7
  6
CONTINUOUS
 10
-66.4335532039
 20
-60.8411390236
 30
0.0
 40
55.5809153206
100
AcDbArc
 50
118.5605367018
 51
119.0048701276
  0
ARC
  5
3C9
100
AcDbEntity
  8
SUPERFICI
100
AcDbCircle
 62
7
  6
CONTINUOUS
 10
-109.3299695876
 20
-8.7026170456
 30
0.0
 40
1.9724369868
100
AcDbArc
 50
21.0317510343
 51
22.4910692753
  0
ARC
  5
3CA
100
AcDbEntity
  8
SUPERFICI
100
AcDbCircle
 62
7
  6
CONTINUOUS
 10
-111.5220004283
 20
-7.606601474
 30
0.0
 40
1.9724367187
100
AcDbArc
 50
21.0317537637
 51
22.4910722578
  0
ARC
  5
3CB
100
AcDbEntity
  8
SUPERFICI
100
AcDbCircle
 62
7
  6
CONTINUOUS
 10
-107.3147150535
 20
-9.7102441615
 30
0.0
 40
1.9724367189
100
AcDbArc
 50
21.0317537638
 51
22.4910722577
  0
ARC
  5
3CC
100
AcDbEntity
  8
DRAFT
100
AcDbCircle
 62
7
  6
CONTINUOUS
 10
-104.5190107302
 20
-8.5804392268
 30
0.0
 40
1.9235207587
100
AcDbArc
 50
201.4860024016
 51
202.9790639913
  0
ARC
  5
3CD
100
AcDbEntity
  8
DRAFT
100
AcDbCircle
 62
7
  6
CONTINUOUS
 10
-108.7262961051
 20
-6.4767965393
 30
0.0
 40
1.9235207588
100
AcDbArc
 50
201.4860024016
 51
202.9790639913
  0
ARC
  5
3CE
100
AcDbEntity
  8
DRAFT
100
AcDbCircle
 62
7
  6
CONTINUOUS
 10
-106.7110419417
 20
-7.4844237565
 30
0.0
 40
1.9235205148
100
AcDbArc
 50
201.4860051121
 51
202.9790669479
  0
ARC
  5
3CF
100
AcDbEntity
  8
RACCORDO
100
AcDbCircle
 62
7
  6
CONTINUOUS
 10
-85.8698853462
 20
-8.7411510515
 30
0.0
 40
1.0
100
AcDbArc
 50
297.8702635617
 51
305.9325291988
  0
ARC
  5
3D0
100
AcDbEntity
  8
RACCORDO
100
AcDbCircle
 62
250
  6
CONTINUOUS
 10
-85.6134113106
 20
-8.8102194193
 30
0.0
 40
0.7873487778
100
AcDbArc
 50
305.9058858362
 51
312.196448223
  0
ARC
  5
3D1
100
AcDbEntity
  8
RACCORDO
100
AcDbCircle
 62
250
  6
CONTINUOUS
 10
-85.6476932746
 20
-9.0475295626
 30
0.0
 40
0.6215332579
100
AcDbArc
 50
297.8206030168
 51
305.9216450286
  0
ARC
  5
3D2
100
AcDbEntity
  8
RACCORDO
100
AcDbCircle
 62
250
  6
CONTINUOUS
 10
-85.4417387276
 20
-8.8982650608
 30
0.0
 40
0.621533258
100
AcDbArc
 50
297.8206030176
 51
305.9216450285
  0
ARC
  5
3D3
100
AcDbEntity
  8
DRAFT
100
AcDbCircle
 62
7
  6
CONTINUOUS
 10
-105.8280862426
 20
-8.7149717969
 30
0.0
 40
0.5838644296
100
AcDbArc
 50
159.8421382226
 51
163.1606594618
  0
ARC
  5
3D4
100
AcDbEntity
  8
DRAFT
100
AcDbCircle
 62
7
  6
CONTINUOUS
 10
-110.0353716176
 20
-6.6113291095
 30
0.0
 40
0.5838644297
100
AcDbArc
 50
159.8421382227
 51
163.1606594618
  0
ARC
  5
3D5
100
AcDbEntity
  8
DRAFT
100
AcDbCircle
 62
7
  6
CONTINUOUS
 10
-108.0201174031
 20
-7.6189563192
 30
0.0
 40
0.5838642291
100
AcDbArc
 50
159.8421313766
 51
163.1606536453
  0
ARC
  5
3D6
100
AcDbEntity
  8
SUPERFICI
100
AcDbCircle
 62
7
  6
CONTINUOUS
 10
-107.9693069441
 20
-8.569698379
 30
0.0
 40
0.5820308581
100
AcDbArc
 50
340.322162118
 51
343.6191803024
  0
ARC
  5
3D7
100
AcDbEntity
  8
SUPERFICI
100
AcDbCircle
 62
7
  6
CONTINUOUS
 10
-110.1613378547
 20
-7.4736828183
 30
0.0
 40
0.5820306526
100
AcDbArc
 50
340.32215521
 51
343.6191744455
  0
ARC
  5
3D8
100
AcDbEntity
  8
SUPERFICI
100
AcDbCircle
 62
7
  6
CONTINUOUS
 10
-105.9540524798
 20
-9.5773255057
 30
0.0
 40
0.5820306526
100
AcDbArc
 50
340.32215521
 51
343.6191744455
  0
ARC
  5
3D9
100
AcDbEntity
  8
RACCORDO
100
AcDbCircle
 62
250
  6
CONTINUOUS
 10
-85.5766233831
 20
-9.2959648004
 30
0.0
 40
0.3724485333
100
AcDbArc
 50
297.8886677846
 51
306.0157544837
  0
ARC
  5
3DA
100
AcDbEntity
  8
0
100
AcDbCircle
 62
7
  6
CONTINUOUS
 10
-94.3713316893
 20
-17.9166227125
 30
0.0
 40
0.25
100
AcDbArc
 50
359.9569889429
 51
63.4349488229
  0
ARC
  5
3DB
100
AcDbEntity
  8
0
100
AcDbCircle
 62
7
  6
CONTINUOUS
 10
-94.3713316893
 20
-18.2641542292
 30
0.0
 40
0.25
100
AcDbArc
 50
297.114238938
 51
359.9691465041
  0
ARC
  5
3DC
100
AcDbEntity
  8
0
100
AcDbCircle
 62
7
  6
CONTINUOUS
 10
-96.4988227732
 20
-19.3141714482
 30
0.0
 40
0.25
100
AcDbArc
 50
243.4349488229
 51
296.0140441013
  0
ARC
  5
3DD
100
AcDbEntity
  8
0
100
AcDbCircle
 62
7
  6
CONTINUOUS
 10
-94.2302727202
 20
-17.0428795146
 30
0.0
 40
0.1894619856
100
AcDbArc
 50
292.7723079949
 51
297.2908692489
  0
ARC
  5
3DE
100
AcDbEntity
  8
0
100
AcDbCircle
 62
250
  6
CONTINUOUS
 10
-94.3547663608
 20
-17.8288971243
 30
0.0
 40
0.1608897129
100
AcDbArc
 50
60.1198813671
 51
63.4863180172
  0
ARC
  5
3DF
100
AcDbEntity
  8
0
100
AcDbCircle
 62
7
  6
CONTINUOUS
 10
-114.5144807639
 20
32.5766356303
 30
0.0
 40
50.2750676275
100
AcDbArc
 50
294.8535571495
 51
295.3270720854
  0
ARC
  5
3E0
100
AcDbEntity
  8
ASSI
100
AcDbCircle
 62
7
  6
CONTINUOUS
 10
-98.1345972304
 20
18.9013439486
 30
0.0
 40
0.5333344594
100
AcDbArc
 50
328.4252924799
 51
335.4494077317
  0
ARC
  5
3E1
100
AcDbEntity
  8
0
100
AcDbCircle
 62
7
  6
CONTINUOUS
 10
-96.4988227732
 20
22.3254066253
 30
0.0
 40
0.25
100
AcDbArc
 50
243.4343157743
 51
258.2056474496
  0
ARC
  5
3E2
100
AcDbEntity
  8
0
100
AcDbCircle
 62
7
  6
CONTINUOUS
 10
-98.1773608436
 20
23.1646756605
 30
0.0
 40
0.25
100
AcDbArc
 50
179.9936221035
 51
243.463610595
  0
ARC
  5
3E3
100
AcDbEntity
  8
0
100
AcDbCircle
 62
7
  6
CONTINUOUS
 10
-106.6749896819
 20
29.5348104232
 30
0.0
 40
0.25
100
AcDbArc
 50
320.5925343592
 51
359.9975470757
  0
ARC
  5
3E4
100
AcDbEntity
  8
0
100
AcDbCircle
 62
7
  6
CONTINUOUS
 10
-108.8024807658
 20
28.4772356216
 30
0.0
 40
0.25
100
AcDbArc
 50
243.4329145254
 51
258.2060367178
  0
ARC
  5
3E5
100
AcDbEntity
  8
0
100
AcDbCircle
 62
7
  6
CONTINUOUS
 10
-110.4810188363
 20
29.3165046568
 30
0.0
 40
0.25
100
AcDbArc
 50
179.9569889429
 51
243.4349488229
  0
ARC
  5
3E6
100
AcDbEntity
  8
0
100
AcDbCircle
 62
7
  6
CONTINUOUS
 10
-110.4810188363
 20
29.6564785909
 30
0.0
 40
0.25
100
AcDbArc
 50
117.1586821941
 51
179.9961222374
  0
ARC
  5
3E7
100
AcDbEntity
  8
0
100
AcDbCircle
 62
7
  6
CONTINUOUS
 10
-98.1773608436
 20
23.5046495946
 30
0.0
 40
0.25
100
AcDbArc
 50
117.1586821941
 51
179.9961222374
  0
ARC
  5
3E8
100
AcDbEntity
  8
0
100
AcDbCircle
 62
7
  6
CONTINUOUS
 10
-108.3658692331
 20
30.7277817155
 30
0.0
 40
0.25
100
AcDbArc
 50
63.4349488229
 51
116.0140441013
  0
ARC
  5
3E9
100
AcDbEntity
  8
0
100
AcDbCircle
 62
7
  6
CONTINUOUS
 10
-106.6749896819
 20
29.8823419399
 30
0.0
 40
0.25
100
AcDbArc
 50
0.0057333847
 51
63.4349488229
  0
ARC
  5
3EA
100
AcDbEntity
  8
0
100
AcDbCircle
 62
7
  6
CONTINUOUS
 10
-99.6050438282
 20
30.7471853365
 30
0.0
 40
0.2039029619
100
AcDbArc
 50
103.9050632249
 51
110.4032734072
  0
ARC
  5
3EB
100
AcDbEntity
  8
0
100
AcDbCircle
 62
7
  6
CONTINUOUS
 10
-101.2606778107
 20
26.04528046
 30
0.0
 40
0.2
100
AcDbArc
 50
117.296276241
 51
180.0
  0
ARC
  5
3EC
100
AcDbEntity
  8
0
100
AcDbCircle
 62
250
  6
CONTINUOUS
 10
-101.1850722594
 20
26.0674880453
 30
0.0
 40
0.168868535
100
AcDbArc
 50
116.9100126539
 51
119.752817408
  0
ARC
  5
3ED
100
AcDbEntity
  8
RACCORDO
100
AcDbCircle
 62
7
  6
CONTINUOUS
 10
-99.2161333093
 20
27.753326827
 30
0.0
 40
0.1587353696
100
AcDbArc
 50
114.81553595
 51
131.2342389679
  0
ARC
  5
3EE
100
AcDbEntity
  8
0
100
AcDbCircle
 62
7
  6
CONTINUOUS
 10
-98.9122301786
 20
30.5002890093
 30
0.0
 40
0.1504616974
100
AcDbArc
 50
98.1115753478
 51
100.4405370909
  0
ARC
  5
3EF
100
AcDbEntity
  8
0
100
AcDbCircle
 62
250
  6
CONTINUOUS
 10
-108.2962109015
 20
30.8670544816
 30
0.0
 40
0.0942783586
100
AcDbArc
 50
63.4468793614
 51
70.0270077917
  0
ARC
  5
3F0
100
AcDbEntity
  8
0
100
AcDbCircle
 62
250
  6
CONTINUOUS
 10
-98.2470876058
 20
23.0252011184
 30
0.0
 40
0.094067471
100
AcDbArc
 50
238.1057807176
 51
243.4292236971
  0
ARC
  5
3F1
100
AcDbEntity
  8
RACCORDO
100
AcDbCircle
 62
250
  6
CONTINUOUS
 10
-98.0251712337
 20
27.9424973102
 30
0.0
 40
0.0750437017
100
AcDbArc
 50
63.4342951667
 51
64.3286816069
  0
ARC
  5
3F2
100
AcDbEntity
  8
0
100
AcDbCircle
 62
250
  6
CONTINUOUS
 10
-98.3645355253
 20
23.1646841409
 30
0.0
 40
0.0628250607
100
AcDbArc
 50
180.0077340046
 51
185.9636474502
  0
ARC
  5
3F3
100
AcDbEntity
  8
0
100
AcDbCircle
 62
250
  6
CONTINUOUS
 10
-110.6683660116
 20
29.3165067743
 30
0.0
 40
0.0626525667
100
AcDbArc
 50
180.0019364632
 51
183.6026147334
  0
ARC
  5
3F4
100
AcDbEntity
  8
RACCORDO
100
AcDbCircle
 62
7
  6
CONTINUOUS
 10
-78.7176429532
 20
3.7257277916
 30
0.0
 40
1.0
100
AcDbArc
 50
298.3477792501
 51
0.0000847913
  0
ARC
  5
3F5
100
AcDbEntity
  8
RACCORDO
100
AcDbCircle
 62
250
  6
CONTINUOUS
 10
-78.0150773876
 20
8.0199427864
 30
0.0
 40
0.4451372329
100
AcDbArc
 50
311.9455978047
 51
312.289209992
  0
ARC
  5
3F6
100
AcDbEntity
  8
RACCORDO
100
AcDbCircle
 62
250
  6
CONTINUOUS
 10
-78.0087607846
 20
8.0130135774
 30
0.0
 40
0.4357610235
100
AcDbArc
 50
312.2878586676
 51
313.0184646898
  0
ARC
  5
3F7
100
AcDbEntity
  8
RACCORDO
100
AcDbCircle
 62
250
  6
CONTINUOUS
 10
-77.9677100234
 20
3.7257266601
 30
0.0
 40
0.2500669641
100
AcDbArc
 50
359.3409357974
 51
0.000259252
  0
ARC
  5
3F8
100
AcDbEntity
  8
RACCORDO
100
AcDbCircle
 62
7
  6
CONTINUOUS
 10
-86.0657109686
 20
23.1001646162
 30
0.0
 40
3.5121020812
100
AcDbArc
 50
117.7956104549
 51
118.2203554811
  0
ARC
  5
3F9
100
AcDbEntity
  8
RACCORDO
100
AcDbCircle
 62
250
  6
CONTINUOUS
 10
-86.1016784428
 20
23.1685712477
 30
0.0
 40
3.4348112448
100
AcDbArc
 50
117.803151769
 51
118.2323121255
  0
ARC
  5
3FA
100
AcDbEntity
  8
RACCORDO
100
AcDbCircle
 62
250
  6
CONTINUOUS
 10
-91.3959952138
 20
28.8031508967
 30
0.0
 40
1.5400252338
100
AcDbArc
 50
49.9088180156
 51
50.6963588375
  0
ARC
  5
3FB
100
AcDbEntity
  8
RACCORDO
100
AcDbCircle
 62
250
  6
CONTINUOUS
 10
-91.4007818784
 20
28.9362207384
 30
0.0
 40
1.3760422766
100
AcDbArc
 50
47.4377743005
 51
49.8832877037
  0
ARC
  5
3FC
100
AcDbEntity
  8
RACCORDO
100
AcDbCircle
 62
7
  6
CONTINUOUS
 10
-92.2104086303
 20
33.3370107125
 30
0.0
 40
1.0
100
AcDbArc
 50
63.4349373369
 51
115.2504241015
  0
ARC
  5
3FD
100
AcDbEntity
  8
RACCORDO
100
AcDbCircle
 62
7
  6
CONTINUOUS
 10
-79.0605405292
 20
26.762076662
 30
0.0
 40
1.0
100
AcDbArc
 50
30.1049818266
 51
63.4349150214
  0
ARC
  5
3FE
100
AcDbEntity
  8
0
100
AcDbCircle
 62
7
  6
CONTINUOUS
 10
-94.9428377877
 20
30.2516208872
 30
0.0
 40
0.6904812626
100
AcDbArc
 50
180.0070213527
 51
185.6695486068
  0
ARC
  5
3FF
100
AcDbEntity
  8
0
100
AcDbCircle
 62
7
  6
CONTINUOUS
 10
-87.5182165854
 20
26.539310286
 30
0.0
 40
0.6904812624
100
AcDbArc
 50
180.0070213521
 51
185.6695484364
  0
ARC
  5
400
100
AcDbEntity
  8
RACCORDO
100
AcDbCircle
 62
250
  6
CONTINUOUS
 10
-78.0150801171
 20
19.9710960033
 30
0.0
 40
0.4451410261
100
AcDbArc
 50
311.9441171111
 51
312.290022086
  0
ARC
  5
401
100
AcDbEntity
  8
RACCORDO
100
AcDbCircle
 62
250
  6
CONTINUOUS
 10
-78.0087324617
 20
19.9641329729
 30
0.0
 40
0.4357189027
100
AcDbArc
 50
312.28866009
 51
313.0227413985
  0
ARC
  5
402
100
AcDbEntity
  8
0
100
AcDbCircle
 62
7
  6
CONTINUOUS
 10
-94.3713316893
 20
23.3829814269
 30
0.0
 40
0.25
100
AcDbArc
 50
320.5925343592
 51
359.9975470757
  0
ARC
  5
403
100
AcDbEntity
  8
0
100
AcDbCircle
 62
7
  6
CONTINUOUS
 10
-96.0622112404
 20
24.5759527192
 30
0.0
 40
0.25
100
AcDbArc
 50
63.3939681258
 51
115.9721801256
  0
ARC
  5
404
100
AcDbEntity
  8
0
100
AcDbCircle
 62
7
  6
CONTINUOUS
 10
-94.3713316893
 20
23.7305129436
 30
0.0
 40
0.25
100
AcDbArc
 50
0.0057333847
 51
63.4349488229
  0
ARC
  5
405
100
AcDbEntity
  8
0
100
AcDbCircle
 62
250
  6
CONTINUOUS
 10
-96.1305198588
 20
24.7161361448
 30
0.0
 40
0.0940592748
100
AcDbArc
 50
109.4786603837
 51
115.9607725688
  0
ARC
  5
406
100
AcDbEntity
  8
RACCORDO
100
AcDbCircle
 62
7
  6
CONTINUOUS
 10
-91.3036283075
 20
30.3495876165
 30
0.0
 40
0.0776367623
100
AcDbArc
 50
63.5314456203
 51
73.1139843022
  0
ARC
  5
407
100
AcDbEntity
  8
RACCORDO
100
AcDbCircle
 62
7
  6
CONTINUOUS
 10
-90.4931948832
 20
29.9399110623
 30
0.0
 40
0.0759917442
100
AcDbArc
 50
55.9851762194
 51
62.7845765143
  0
ARC
  5
408
100
AcDbEntity
  8
0
100
AcDbCircle
 62
7
  6
CONTINUOUS
 10
-129.7215562757
 20
64.7715691952
 30
0.0
 40
85.8808101967
100
AcDbArc
 50
295.3522643812
 51
295.4724249738
  0
ARC
  5
409
100
AcDbEntity
  8
0
100
AcDbCircle
 62
7
  6
CONTINUOUS
 10
-129.7215562735
 20
94.7360481615
 30
0.0
 40
85.8808101915
100
AcDbArc
 50
295.3522643812
 51
295.4724249738
  0
ARC
  5
40A
100
AcDbEntity
  8
0
100
AcDbCircle
 62
7
  6
CONTINUOUS
 10
-114.5144807642
 20
62.5411146017
 30
0.0
 40
50.2750676281
100
AcDbArc
 50
294.8535571495
 51
295.3270720854
  0
ARC
  5
40B
100
AcDbEntity
  8
RACCORDO
100
AcDbCircle
 62
250
  6
CONTINUOUS
 10
-1.0548972338
 20
10.2024657376
 30
0.0
 40
100.8603986443
100
AcDbArc
 50
176.2302645884
 51
177.1074946198
  0
ARC
  5
40C
100
AcDbEntity
  8
RACCORDO
100
AcDbCircle
 62
250
  6
CONTINUOUS
 10
-18.1787250143
 20
-3.0065221567
 30
0.0
 40
82.9538118524
100
AcDbArc
 50
184.3378497066
 51
184.5161743048
  0
ARC
  5
40D
100
AcDbEntity
  8
RACCORDO
100
AcDbCircle
 62
250
  6
CONTINUOUS
 10
-19.2713405843
 20
-3.0946470201
 30
0.0
 40
81.8576489737
100
AcDbArc
 50
184.5397015156
 51
185.5580970041
  0
ARC
  5
40E
100
AcDbEntity
  8
RACCORDO
100
AcDbCircle
 62
250
  6
CONTINUOUS
 10
381.2512660151
 20
26.9390943924
 30
0.0
 40
482.8112313201
100
AcDbArc
 50
182.4047233565
 51
182.7608151384
  0
ARC
  5
40F
100
AcDbEntity
  8
RACCORDO
100
AcDbCircle
 62
250
  6
CONTINUOUS
 10
378.1903582127
 20
26.8092643455
 30
0.0
 40
480.4449096069
100
AcDbArc
 50
182.7178803897
 51
182.8595391946
  0
ARC
  5
410
100
AcDbEntity
  8
RACCORDO
100
AcDbCircle
 62
250
  6
CONTINUOUS
 10
376.3884183283
 20
26.7191621762
 30
0.0
 40
478.6407184152
100
AcDbArc
 50
182.8640367091
 51
183.010097315
  0
ARC
  5
411
100
AcDbEntity
  8
RACCORDO
100
AcDbCircle
 62
250
  6
CONTINUOUS
 10
372.8613095662
 20
26.5316400176
 30
0.0
 40
475.1086288702
100
AcDbArc
 50
183.0098503252
 51
183.5369990376
  0
ARC
  5
412
100
AcDbEntity
  8
RACCORDO
100
AcDbCircle
 62
250
  6
CONTINUOUS
 10
363.613656518
 20
25.9472966909
 30
0.0
 40
465.842498305
100
AcDbArc
 50
183.7734700146
 51
184.3369978532
  0
SPLINE
  5
413
100
AcDbEntity
  8
RACCORDO
100
AcDbSpline
 62
7
  6
CONTINUOUS
 70
0
 71
3
 72
15
 73
11
 74
0
 42
0.0000001
 43
0.0000001
 44
0.0000000001
 40
0.0
 40
0.0
 40
0.0
 40
0.0
 40
0.1228891515
 40
0.2512812825
 40
0.3828356873
 40
0.5149559464
 40
0.6450151538
 40
0.7705361192
 40
0.8893777524
 40
1.0
 40
1.0
 40
1.0
 40
1.0
 10
-91.2810759166
 20
30.4238802486
 30
0.0
 10
-91.4084406932
 20
30.4626368975
 30
0.0
 10
-91.673306704
 20
30.5277944013
 30
0.0
 10
-92.0840537871
 20
30.5888437914
 30
0.0
 10
-92.5085459479
 20
30.6145528015
 30
0.0
 10
-92.9354789345
 20
30.604280468
 30
0.0
 10
-93.3535004295
 20
30.5582931541
 30
0.0
 10
-93.7516565371
 20
30.4776249099
 30
0.0
 10
-94.119755276
 20
30.3640498132
 30
0.0
 10
-94.3480980988
 20
30.2637928286
 30
0.0
 10
-94.4541043493
 20
30.2078936366
 30
0.0
  0
SPLINE
  5
414
100
AcDbEntity
  8
RACCORDO
100
AcDbSpline
 62
7
  6
CONTINUOUS
 70
0
 71
3
 72
10
 73
6
 74
0
 42
0.0000001
 43
0.0000001
 44
0.0000000001
 40
0.0
 40
0.0
 40
0.0
 40
0.0
 40
0.5342129208
 40
0.7725288574
 40
1.0
 40
1.0
 40
1.0
 40
1.0
 10
-90.5141624494
 20
29.9885118995
 30
0.0
 10
-90.4987307977
 20
29.9962277253
 30
0.0
 10
-90.4741615551
 20
30.0042892055
 30
0.0
 10
-90.4415976372
 20
30.0028567812
 30
0.0
 10
-90.4270706543
 20
29.99810218
 30
0.0
 10
-90.4204969543
 20
29.9948223559
 30
0.0
  0
SPLINE
  5
415
100
AcDbEntity
  8
RACCORDO
100
AcDbSpline
 62
250
  6
CONTINUOUS
 70
0
 71
3
 72
9
 73
5
 74
0
 42
0.0000001
 43
0.0000001
 44
0.0000000001
 40
0.0
 40
0.0
 40
0.0
 40
0.0
 40
0.4674672247
 40
1.0
 40
1.0
 40
1.0
 40
1.0
 10
-94.9560990451
 20
29.8230888272
 30
0.0
 10
-94.8924653004
 20
29.8989446736
 30
0.0
 10
-94.7348268566
 20
30.0433735837
 30
0.0
 10
-94.5538737353
 20
30.1552820949
 30
0.0
 10
-94.4541017476
 20
30.2078924031
 30
0.0
  0
SPLINE
  5
416
100
AcDbEntity
  8
RACCORDO
100
AcDbSpline
 62
250
  6
CONTINUOUS
 70
0
 71
3
 72
16
 73
12
 74
0
 42
0.0000001
 43
0.0000001
 44
0.0000000001
 40
0.0
 40
0.0
 40
0.0
 40
0.0
 40
0.0899007938
 40
0.1406682754
 40
0.1952869069
 40
0.3151344131
 40
0.4467217655
 40
0.5859055452
 40
0.7278506395
 40
0.8674981785
 40
1.0
 40
1.0
 40
1.0
 40
1.0
 10
-94.8747182462
 20
29.7917082609
 30
0.0
 10
-94.808058873
 20
29.8815071743
 30
0.0
 10
-94.6794512704
 20
30.0043361403
 30
0.0
 10
-94.4786059343
 20
30.1411226352
 30
0.0
 10
-94.2321454176
 20
30.2754216501
 30
0.0
 10
-93.8752707091
 20
30.4126790921
 30
0.0
 10
-93.4011980801
 20
30.5246167803
 30
0.0
 10
-92.8900592737
 20
30.5834364403
 30
0.0
 10
-92.3655884978
 20
30.586382217
 30
0.0
 10
-91.8522104552
 20
30.5333588265
 30
0.0
 10
-91.5206894782
 20
30.4596663927
 30
0.0
 10
-91.3626642612
 20
30.412789131
 30
0.0
  0
SPLINE
  5
417
100
AcDbEntity
  8
RACCORDO
100
AcDbSpline
 62
7
  6
CONTINUOUS
 70
0
 71
3
 72
9
 73
5
 74
0
 42
0.0000001
 43
0.0000001
 44
0.0000000001
 40
0.0
 40
0.0
 40
0.0
 40
0.0
 40
0.4665212439
 40
1.0
 40
1.0
 40
1.0
 40
1.0
 10
-91.2810772617
 20
30.4238770316
 30
0.0
 10
-91.2935547209
 20
30.4276719437
 30
0.0
 10
-91.3225141517
 20
30.4289556732
 30
0.0
 10
-91.3493514423
 20
30.4194455404
 30
0.0
 10
-91.3626905868
 20
30.4127759682
 30
0.0
  0
SPLINE
  5
418
100
AcDbEntity
  8
RACCORDO
100
AcDbSpline
 62
7
  6
CONTINUOUS
 70
0
 71
3
 72
15
 73
11
 74
0
 42
0.0000001
 43
0.0000001
 44
0.0000000001
 40
0.0
 40
0.0
 40
0.0
 40
0.0
 40
0.1132360743
 40
0.2361319576
 40
0.3661816126
 40
0.5000007919
 40
0.6338198593
 40
0.7638691317
 40
0.8867644052
 40
1.0
 40
1.0
 40
1.0
 40
1.0
 10
-83.1808058409
 20
26.6370043916
 30
0.0
 10
-83.3085495939
 20
26.7043661985
 30
0.0
 10
-83.5872205309
 20
26.8220093959
 30
0.0
 10
-84.0386250946
 20
26.9456670973
 30
0.0
 10
-84.5270209393
 20
27.0215052569
 30
0.0
 10
-85.0344367161
 20
27.0470541207
 30
0.0
 10
-85.541851979
 20
27.0215047372
 30
0.0
 10
-86.0302463423
 20
26.9456662481
 30
0.0
 10
-86.4816489833
 20
26.8220086759
 30
0.0
 10
-86.7603185785
 20
26.7043659133
 30
0.0
 10
-86.8880617906
 20
26.6370043916
 30
0.0
  0
SPLINE
  5
419
100
AcDbEntity
  8
RACCORDO
100
AcDbSpline
 62
250
  6
CONTINUOUS
 70
0
 71
3
 72
9
 73
5
 74
0
 42
0.0000001
 43
0.0000001
 44
0.0000000001
 40
0.0
 40
0.0
 40
0.0
 40
0.0
 40
0.2390697661
 40
1.0
 40
1.0
 40
1.0
 40
1.0
 10
-87.1612143676
 20
26.4656460313
 30
0.0
 10
-87.1406604773
 20
26.4810938795
 30
0.0
 10
-87.0532155117
 20
26.5437473493
 30
0.0
 10
-86.9604518713
 20
26.5988316091
 30
0.0
 10
-86.8880625389
 20
26.6370047464
 30
0.0
  0
SPLINE
  5
41A
100
AcDbEntity
  8
RACCORDO
100
AcDbSpline
 62
250
  6
CONTINUOUS
 70
0
 71
3
 72
19
 73
15
 74
0
 42
0.0000001
 43
0.0000001
 44
0.0000000001
 40
0.0
 40
0.0
 40
0.0
 40
0.0
 40
0.0521935021
 40
0.1089281981
 40
0.16983194
 40
0.2343650391
 40
0.3713799201
 40
0.5135450955
 40
0.6536752805
 40
0.7848388256
 40
0.8452468756
 40
0.9014204745
 40
0.953028214
 40
1.0
 40
1.0
 40
1.0
 40
1.0
 10
-87.0367403654
 20
26.4834549129
 30
0.0
 10
-86.9744201294
 20
26.5290152892
 30
0.0
 10
-86.8377106018
 20
26.615170359
 30
0.0
 10
-86.6113299927
 20
26.7249380772
 30
0.0
 10
-86.358490422
 20
26.819136328
 30
0.0
 10
-85.9843373703
 20
26.9239116069
 30
0.0
 10
-85.4805207682
 20
27.004583345
 30
0.0
 10
-84.8589198834
 20
27.0219181339
 30
0.0
 10
-84.2488025602
 20
26.9604018159
 30
0.0
 10
-83.7700034833
 20
26.8438794518
 30
0.0
 10
-83.4276352771
 20
26.7120091782
 30
0.0
 10
-83.2048036284
 20
26.6003646994
 30
0.0
 10
-83.0125694332
 20
26.4751641907
 30
0.0
 10
-82.9017437329
 20
26.3794000996
 30
0.0
 10
-82.8532790301
 20
26.3296212921
 30
0.0
  0
SPLINE
  5
41B
100
AcDbEntity
  8
RACCORDO
100
AcDbSpline
 62
250
  6
CONTINUOUS
 70
0
 71
3
 72
9
 73
5
 74
0
 42
0.0000001
 43
0.0000001
 44
0.0000000001
 40
0.0
 40
0.0
 40
0.0
 40
0.0
 40
0.5232875284
 40
1.0
 40
1.0
 40
1.0
 40
1.0
 10
-83.1808081272
 20
26.6370033077
 30
0.0
 10
-83.1062451537
 20
26.5976854371
 30
0.0
 10
-82.9675134462
 20
26.5150495467
 30
0.0
 10
-82.8404290942
 20
26.4150016974
 30
0.0
 10
-82.7842145674
 20
26.3626863447
 30
0.0
  0
SPLINE
  5
41C
100
AcDbEntity
  8
RACCORDO
100
AcDbSpline
 62
7
  6
CONTINUOUS
 70
0
 71
3
 72
9
 73
5
 74
0
 42
0.0000001
 43
0.0000001
 44
0.0000000001
 40
0.0
 40
0.0
 40
0.0
 40
0.0
 40
0.5174407193
 40
1.0
 40
1.0
 40
1.0
 40
1.0
 10
-87.0367790917
 20
26.4834619795
 30
0.0
 10
-87.0584341991
 20
26.4874134979
 30
0.0
 10
-87.1017249157
 20
26.4890914132
 30
0.0
 10
-87.1433751766
 20
26.4758044691
 30
0.0
 10
-87.1612143676
 20
26.4656460313
 30
0.0
  0
SPLINE
  5
41D
100
AcDbEntity
  8
SUPERFICI
100
AcDbSpline
 62
7
  6
CONTINUOUS
 70
0
 71
3
 72
10
 73
6
 74
0
 42
0.0000001
 43
0.0000001
 44
0.0000000001
 40
0.0
 40
0.0
 40
0.0
 40
0.0
 40
0.4452289417
 40
0.7115584346
 40
1.0
 40
1.0
 40
1.0
 40
1.0
 10
-110.5834724351
 20
-6.4101248201
 30
0.0
 10
-110.626300791
 20
-6.5266734282
 30
0.0
 10
-110.6348459746
 20
-6.7339684053
 30
0.0
 10
-110.5803510731
 20
-7.0069756954
 30
0.0
 10
-110.5285781689
 20
-7.1536666427
 30
0.0
 10
-110.4971808099
 20
-7.2277289408
 30
0.0
  0
SPLINE
  5
41E
100
AcDbEntity
  8
SUPERFICI
100
AcDbSpline
 62
7
  6
CONTINUOUS
 70
0
 71
3
 72
10
 73
6
 74
0
 42
0.0000001
 43
0.0000001
 44
0.0000000001
 40
0.0
 40
0.0
 40
0.0
 40
0.0
 40
0.4452289306
 40
0.7115584275
 40
1.0
 40
1.0
 40
1.0
 40
1.0
 10
-108.5682180083
 20
-7.4177520335
 30
0.0
 10
-108.6110463774
 20
-7.5343006344
 30
0.0
 10
-108.6195915659
 20
-7.7415956155
 30
0.0
 10
-108.5650966588
 20
-8.0146029059
 30
0.0
 10
-108.513323747
 20
-8.1612938553
 30
0.0
 10
-108.4819263831
 20
-8.2353561542
 30
0.0
  0
SPLINE
  5
41F
100
AcDbEntity
  8
SUPERFICI
100
AcDbSpline
 62
7
  6
CONTINUOUS
 70
0
 71
3
 72
10
 73
6
 74
0
 42
0.0000001
 43
0.0000001
 44
0.0000000001
 40
0.0
 40
0.0
 40
0.0
 40
0.0
 40
0.4452289417
 40
0.7115584346
 40
1.0
 40
1.0
 40
1.0
 40
1.0
 10
-106.3761870602
 20
-8.5137675076
 30
0.0
 10
-106.4190154161
 20
-8.6303161156
 30
0.0
 10
-106.4275605997
 20
-8.8376110928
 30
0.0
 10
-106.3730656982
 20
-9.1106183829
 30
0.0
 10
-106.321292794
 20
-9.2573093302
 30
0.0
 10
-106.2898954349
 20
-9.3313716283
 30
0.0
  0
SPLINE
  5
420
100
AcDbEntity
  8
SUPERFICI
100
AcDbSpline
 62
7
  6
CONTINUOUS
 70
0
 71
3
 72
9
 73
5
 74
0
 42
0.0000001
 43
0.0000001
 44
0.0000000001
 40
0.0
 40
0.0
 40
0.0
 40
0.0
 40
0.450069245
 40
1.0
 40
1.0
 40
1.0
 40
1.0
 10
-107.4109016281
 20
-8.7338428972
 30
0.0
 10
-107.3790346295
 20
-8.6255719098
 30
0.0
 10
-107.3728977184
 20
-8.3672952639
 30
0.0
 10
-107.439452339
 20
-8.1234612969
 30
0.0
 10
-107.4889330195
 20
-7.9947385094
 30
0.0
  0
SPLINE
  5
421
100
AcDbEntity
  8
SUPERFICI
100
AcDbSpline
 62
7
  6
CONTINUOUS
 70
0
 71
3
 72
9
 73
5
 74
0
 42
0.0000001
 43
0.0000001
 44
0.0000000001
 40
0.0
 40
0.0
 40
0.0
 40
0.0
 40
0.4500692352
 40
1.0
 40
1.0
 40
1.0
 40
1.0
 10
-109.6029327527
 20
-7.6378273356
 30
0.0
 10
-109.5710657434
 20
-7.529556353
 30
0.0
 10
-109.5649288269
 20
-7.2712797014
 30
0.0
 10
-109.6314834563
 20
-7.0274457347
 30
0.0
 10
-109.6809641442
 20
-6.8987229463
 30
0.0
  0
SPLINE
  5
422
100
AcDbEntity
  8
SUPERFICI
100
AcDbSpline
 62
7
  6
CONTINUOUS
 70
0
 71
3
 72
9
 73
5
 74
0
 42
0.0000001
 43
0.0000001
 44
0.0000000001
 40
0.0
 40
0.0
 40
0.0
 40
0.0
 40
0.4500692352
 40
1.0
 40
1.0
 40
1.0
 40
1.0
 10
-105.3956473778
 20
-9.741470023
 30
0.0
 10
-105.3637803685
 20
-9.6331990405
 30
0.0
 10
-105.357643452
 20
-9.3749223889
 30
0.0
 10
-105.4241980814
 20
-9.1310884221
 30
0.0
 10
-105.4736787693
 20
-9.0023656338
 30
0.0
  0
SPLINE
  5
423
100
AcDbEntity
  8
ASSI
100
AcDbSpline
 62
7
  6
CONTINUOUS
 70
0
 71
3
 72
9
 73
5
 74
0
 42
0.0000001
 43
0.0000001
 44
0.0000000001
 40
0.0
 40
0.0
 40
0.0
 40
0.0
 40
0.4777943644
 40
1.0
 40
1.0
 40
1.0
 40
1.0
 10
-98.7398889365
 20
20.2555148312
 30
0.0
 10
-98.7862498084
 20
20.2323247485
 30
0.0
 10
-98.873483467
 20
20.1622545099
 30
0.0
 10
-98.9276911066
 20
20.0656444629
 30
0.0
 10
-98.948458472
 20
20.0129322245
 30
0.0
  0
SPLINE
  5
424
100
AcDbEntity
  8
ASSI
100
AcDbSpline
 62
7
  6
CONTINUOUS
 70
0
 71
3
 72
9
 73
5
 74
0
 42
0.0000001
 43
0.0000001
 44
0.0000000001
 40
0.0
 40
0.0
 40
0.0
 40
0.0
 40
0.4777943644
 40
1.0
 40
1.0
 40
1.0
 40
1.0
 10
-108.6393838731
 20
25.2052622995
 30
0.0
 10
-108.685744745
 20
25.1820722168
 30
0.0
 10
-108.7729784036
 20
25.1120019782
 30
0.0
 10
-108.8271860432
 20
25.0153919312
 30
0.0
 10
-108.8479534086
 20
24.9626796928
 30
0.0
  0
SPLINE
  5
425
100
AcDbEntity
  8
ASSI
100
AcDbSpline
 62
7
  6
CONTINUOUS
 70
0
 71
3
 72
10
 73
6
 74
0
 42
0.0000001
 43
0.0000001
 44
0.0000000001
 40
0.0
 40
0.0
 40
0.0
 40
0.0
 40
0.5341458636
 40
0.7723222344
 40
1.0
 40
1.0
 40
1.0
 40
1.0
 10
-98.292685963
 20
20.22713414
 30
0.0
 10
-98.3663498118
 20
20.2639660644
 30
0.0
 10
-98.483850628
 20
20.3020856205
 30
0.0
 10
-98.6392798673
 20
20.2942670717
 30
0.0
 10
-98.7084925978
 20
20.2712195335
 30
0.0
 10
-98.7398889365
 20
20.2555148312
 30
0.0
  0
SPLINE
  5
426
100
AcDbEntity
  8
ASSI
100
AcDbSpline
 62
7
  6
CONTINUOUS
 70
0
 71
3
 72
10
 73
6
 74
0
 42
0.0000001
 43
0.0000001
 44
0.0000000001
 40
0.0
 40
0.0
 40
0.0
 40
0.0
 40
0.5341458636
 40
0.7723222344
 40
1.0
 40
1.0
 40
1.0
 40
1.0
 10
-108.1921808996
 20
25.1768816083
 30
0.0
 10
-108.2658447484
 20
25.2137135327
 30
0.0
 10
-108.3833455646
 20
25.2518330888
 30
0.0
 10
-108.538774804
 20
25.24401454
 30
0.0
 10
-108.6079875345
 20
25.2209670018
 30
0.0
 10
-108.6393838731
 20
25.2052622995
 30
0.0
  0
SPLINE
  5
427
100
AcDbEntity
  8
ASSI
100
AcDbSpline
 62
7
  6
CONTINUOUS
 70
0
 71
3
 72
9
 73
5
 74
0
 42
0.0000001
 43
0.0000001
 44
0.0000000001
 40
0.0
 40
0.0
 40
0.0
 40
0.0
 40
0.2432821039
 40
1.0
 40
1.0
 40
1.0
 40
1.0
 10
-97.7752402544
 20
18.5121598053
 30
0.0
 10
-97.7660792232
 20
18.5196210043
 30
0.0
 10
-97.7298155117
 20
18.5519887196
 30
0.0
 10
-97.6995041026
 20
18.5908016918
 30
0.0
 10
-97.6802185868
 20
18.622084761
 30
0.0
  0
SPLINE
  5
428
100
AcDbEntity
  8
ASSI
100
AcDbSpline
 62
7
  6
CONTINUOUS
 70
0
 71
3
 72
12
 73
8
 74
0
 42
0.0000001
 43
0.0000001
 44
0.0000000001
 40
0.0
 40
0.0
 40
0.0
 40
0.0
 40
0.2196516936
 40
0.3482353854
 40
0.4842576048
 40
0.757419381
 40
1.0
 40
1.0
 40
1.0
 40
1.0
 10
-97.6494790107
 20
18.6797453057
 30
0.0
 10
-97.5945659623
 20
18.7995617929
 30
0.0
 10
-97.5712778472
 20
19.0179655293
 30
0.0
 10
-97.6164880633
 20
19.3047650073
 30
0.0
 10
-97.7181810593
 20
19.612766784
 30
0.0
 10
-97.9220156052
 20
19.9523882088
 30
0.0
 10
-98.1624939427
 20
20.1620381298
 30
0.0
 10
-98.292685963
 20
20.22713414
 30
0.0
  0
SPLINE
  5
429
100
AcDbEntity
  8
ASSI
100
AcDbSpline
 62
7
  6
CONTINUOUS
 70
0
 71
3
 72
10
 73
6
 74
0
 42
0.0000001
 43
0.0000001
 44
0.0000000001
 40
0.0
 40
0.0
 40
0.0
 40
0.0
 40
0.5251810457
 40
0.775122838
 40
1.0
 40
1.0
 40
1.0
 40
1.0
 10
-107.5364083906
 20
24.3069071838
 30
0.0
 10
-107.5894456805
 20
24.4945650288
 30
0.0
 10
-107.7212254766
 20
24.7602348907
 30
0.0
 10
-107.9715589803
 20
25.0364212632
 30
0.0
 10
-108.117495545
 20
25.139538931
 30
0.0
 10
-108.1921808996
 20
25.1768816083
 30
0.0
  0
SPLINE
  5
42A
100
AcDbEntity
  8
DRAFT
100
AcDbSpline
 62
7
  6
CONTINUOUS
 70
0
 71
3
 72
9
 73
5
 74
0
 42
0.0000001
 43
0.0000001
 44
0.0000000001
 40
0.0
 40
0.0
 40
0.0
 40
0.0
 40
0.5553829305
 40
1.0
 40
1.0
 40
1.0
 40
1.0
 10
-105.4923035472
 20
-8.9557092641
 30
0.0
 10
-105.4332040384
 20
-9.0984867578
 30
0.0
 10
-105.3542819346
 20
-9.3676956673
 30
0.0
 10
-105.3643144707
 20
-9.6568456601
 30
0.0
 10
-105.4060119384
 20
-9.7733133766
 30
0.0
  0
SPLINE
  5
42B
100
AcDbEntity
  8
DRAFT
100
AcDbSpline
 62
7
  6
CONTINUOUS
 70
0
 71
3
 72
9
 73
5
 74
0
 42
0.0000001
 43
0.0000001
 44
0.0000000001
 40
0.0
 40
0.0
 40
0.0
 40
0.0
 40
0.5553829197
 40
1.0
 40
1.0
 40
1.0
 40
1.0
 10
-107.5075577943
 20
-7.9480821405
 30
0.0
 10
-107.4484582945
 20
-8.0908596336
 30
0.0
 10
-107.3695362017
 20
-8.3600685443
 30
0.0
 10
-107.3795687312
 20
-8.6492185294
 30
0.0
 10
-107.4212661856
 20
-8.765686253
 30
0.0
  0
SPLINE
  5
42C
100
AcDbEntity
  8
DRAFT
100
AcDbSpline
 62
7
  6
CONTINUOUS
 70
0
 71
3
 72
9
 73
5
 74
0
 42
0.0000001
 43
0.0000001
 44
0.0000000001
 40
0.0
 40
0.0
 40
0.0
 40
0.0
 40
0.5553829305
 40
1.0
 40
1.0
 40
1.0
 40
1.0
 10
-109.6995889221
 20
-6.8520665766
 30
0.0
 10
-109.6404894133
 20
-6.9948440704
 30
0.0
 10
-109.5615673095
 20
-7.2640529798
 30
0.0
 10
-109.5715998456
 20
-7.5532029727
 30
0.0
 10
-109.6132973133
 20
-7.6696706891
 30
0.0
  0
SPLINE
  5
42D
100
AcDbEntity
  8
RACCORDO
100
AcDbSpline
 62
250
  6
CONTINUOUS
 70
0
 71
3
 72
9
 73
5
 74
0
 42
0.0000001
 43
0.0000001
 44
0.0000000001
 40
0.0
 40
0.0
 40
0.0
 40
0.0
 40
0.4660222137
 40
1.0
 40
1.0
 40
1.0
 40
1.0
 10
-114.4412929379
 20
-11.1458437308
 30
0.0
 10
-114.4343792854
 20
-11.1808334398
 30
0.0
 10
-114.3969018105
 20
-11.252136315
 30
0.0
 10
-114.3323682577
 20
-11.2972885489
 30
0.0
 10
-114.2958712701
 20
-11.315675699
 30
0.0
  0
SPLINE
  5
42E
100
AcDbEntity
  8
RACCORDO
100
AcDbSpline
 62
250
  6
CONTINUOUS
 70
0
 71
3
 72
9
 73
5
 74
0
 42
0.0000001
 43
0.0000001
 44
0.0000000001
 40
0.0
 40
0.0
 40
0.0
 40
0.0
 40
0.2450019304
 40
1.0
 40
1.0
 40
1.0
 40
1.0
 10
-116.4807468422
 20
13.9892033088
 30
0.0
 10
-116.5163382789
 20
14.8206234549
 30
0.0
 10
-116.6154744856
 20
18.2160301464
 30
0.0
 10
-116.5342727139
 20
21.6161794158
 30
0.0
 10
-116.3818227627
 20
24.1760952479
 30
0.0
  0
SPLINE
  5
42F
100
AcDbEntity
  8
RACCORDO
100
AcDbSpline
 62
250
  6
CONTINUOUS
 70
0
 71
3
 72
10
 73
6
 74
0
 42
0.0000001
 43
0.0000001
 44
0.0000000001
 40
0.0
 40
0.0
 40
0.0
 40
0.0
 40
0.2174257368
 40
0.4506684962
 40
1.0
 40
1.0
 40
1.0
 40
1.0
 10
-115.6899840662
 20
-1.7795347828
 30
0.0
 10
-115.6886928898
 20
-1.7968037935
 30
0.0
 10
-115.6796786992
 20
-1.8323770942
 30
0.0
 10
-115.6361802898
 20
-1.900282393
 30
0.0
 10
-115.5826911003
 20
-1.937022685
 30
0.0
 10
-115.543566605
 20
-1.9566069516
 30
0.0
  0
SPLINE
  5
430
100
AcDbEntity
  8
RACCORDO
100
AcDbSpline
 62
250
  6
CONTINUOUS
 70
0
 71
3
 72
9
 73
5
 74
0
 42
0.0000001
 43
0.0000001
 44
0.0000000001
 40
0.0
 40
0.0
 40
0.0
 40
0.0
 40
0.2484042886
 40
1.0
 40
1.0
 40
1.0
 40
1.0
 10
-115.5575340047
 20
-1.7700010293
 30
0.0
 10
-115.6548494945
 20
-0.4664757297
 30
0.0
 10
-116.0253903041
 20
4.782685959
 30
0.0
 10
-116.3115860177
 20
10.0377762594
 30
0.0
 10
-116.4807468422
 20
13.9892033088
 30
0.0
  0
SPLINE
  5
431
100
AcDbEntity
  8
RACCORDO
100
AcDbSpline
 62
250
  6
CONTINUOUS
 70
0
 71
3
 72
11
 73
7
 74
0
 42
0.0000001
 43
0.0000001
 44
0.0000000001
 40
0.0
 40
0.0
 40
0.0
 40
0.0
 40
0.2126134126
 40
0.4432365753
 40
0.7043817912
 40
1.0
 40
1.0
 40
1.0
 40
1.0
 10
-116.6271705689
 20
14.1663597569
 30
0.0
 10
-116.6264439209
 20
14.1493472313
 30
0.0
 10
-116.6181987265
 20
14.1139117338
 30
0.0
 10
-116.5874350068
 20
14.0656488062
 30
0.0
 10
-116.5404345633
 20
14.0227950421
 30
0.0
 10
-116.5019280576
 20
13.9997815884
 30
0.0
 10
-116.4807468167
 20
13.9892033232
 30
0.0
  0
SPLINE
  5
432
100
AcDbEntity
  8
RACCORDO
100
AcDbSpline
 62
250
  6
CONTINUOUS
 70
0
 71
3
 72
9
 73
5
 74
0
 42
0.0000001
 43
0.0000001
 44
0.0000000001
 40
0.0
 40
0.0
 40
0.0
 40
0.0
 40
0.244183646
 40
1.0
 40
1.0
 40
1.0
 40
1.0
 10
-114.3329427933
 20
-11.1255962147
 30
0.0
 10
-114.47609947
 20
-10.3863039646
 30
0.0
 10
-115.0150756281
 20
-7.3496405138
 30
0.0
 10
-115.3691384859
 20
-4.2808935103
 30
0.0
 10
-115.5435666055
 20
-1.956606952
 30
0.0
  0
SPLINE
  5
433
100
AcDbEntity
  8
RACCORDO
100
AcDbSpline
 62
250
  6
CONTINUOUS
 70
0
 71
3
 72
11
 73
7
 74
0
 42
0.0000001
 43
0.0000001
 44
0.0000000001
 40
0.0
 40
0.0
 40
0.0
 40
0.0
 40
0.1952457627
 40
0.4184085322
 40
0.6856775395
 40
1.0
 40
1.0
 40
1.0
 40
1.0
 10
-116.5284690338
 20
24.3476287423
 30
0.0
 10
-116.5293506419
 20
24.3322057837
 30
0.0
 10
-116.5230967211
 20
24.2984214532
 30
0.0
 10
-116.4925529241
 20
24.2524244957
 30
0.0
 10
-116.4440934777
 20
24.2103562328
 30
0.0
 10
-116.4040948189
 20
24.1871339404
 30
0.0
 10
-116.3818058643
 20
24.1761020532
 30
0.0
  0
SPLINE
  5
434
100
AcDbEntity
  8
RACCORDO
100
AcDbSpline
 62
250
  6
CONTINUOUS
 70
0
 71
3
 72
10
 73
6
 74
0
 42
0.0000001
 43
0.0000001
 44
0.0000000001
 40
0.0
 40
0.0
 40
0.0
 40
0.0
 40
0.22036479
 40
0.455079006
 40
1.0
 40
1.0
 40
1.0
 40
1.0
 10
-115.9914745806
 20
25.2983044647
 30
0.0
 10
-115.9762325682
 20
25.3081628285
 30
0.0
 10
-115.9411040237
 20
25.3233351093
 30
0.0
 10
-115.8581471365
 20
25.3314190772
 30
0.0
 10
-115.7942135886
 20
25.3118457509
 30
0.0
 10
-115.7536147521
 20
25.2926989135
 30
0.0
  0
SPLINE
  5
435
100
AcDbEntity
  8
DRAFT
100
AcDbSpline
 62
7
  6
CONTINUOUS
 70
0
 71
3
 72
9
 73
5
 74
0
 42
0.0000001
 43
0.0000001
 44
0.0000000001
 40
0.0
 40
0.0
 40
0.0
 40
0.0
 40
0.5487888185
 40
1.0
 40
1.0
 40
1.0
 40
1.0
 10
-106.3088604108
 20
-9.2849746977
 30
0.0
 10
-106.3592927497
 20
-9.1568168838
 30
0.0
 10
-106.4272914606
 20
-8.9129499959
 30
0.0
 10
-106.4197530267
 20
-8.6542024264
 30
0.0
 10
-106.3869150422
 20
-8.5458326677
 30
0.0
  0
SPLINE
  5
436
100
AcDbEntity
  8
RACCORDO
100
AcDbSpline
 62
250
  6
CONTINUOUS
 70
0
 71
3
 72
11
 73
7
 74
0
 42
0.0000001
 43
0.0000001
 44
0.0000000001
 40
0.0
 40
0.0
 40
0.0
 40
0.0
 40
0.2351377205
 40
0.4920485881
 40
0.7532338079
 40
1.0
 40
1.0
 40
1.0
 40
1.0
 10
-100.6729468813
 20
17.3452092811
 30
0.0
 10
-100.7176972027
 20
17.3188239762
 30
0.0
 10
-100.802537594
 20
17.2483258223
 30
0.0
 10
-100.9027674883
 20
17.1139427279
 30
0.0
 10
-100.9735248843
 20
16.9591515498
 30
0.0
 10
-100.9968301634
 20
16.8479928948
 30
0.0
 10
-101.0004208042
 20
16.7935924071
 30
0.0
  0
SPLINE
  5
437
100
AcDbEntity
  8
RACCORDO
100
AcDbSpline
 62
250
  6
CONTINUOUS
 70
0
 71
3
 72
11
 73
7
 74
0
 42
0.0000001
 43
0.0000001
 44
0.0000000001
 40
0.0
 40
0.0
 40
0.0
 40
0.0
 40
0.2343569786
 40
0.4911754659
 40
0.7527307835
 40
1.0
 40
1.0
 40
1.0
 40
1.0
 10
-101.0510333045
 20
17.9414081897
 30
0.0
 10
-101.1395839219
 20
17.8879624235
 30
0.0
 10
-101.3072098044
 20
17.7455593998
 30
0.0
 10
-101.5048227726
 20
17.4755468618
 30
0.0
 10
-101.6442182054
 20
17.1651391845
 30
0.0
 10
-101.6900585193
 20
16.9426205627
 30
0.0
 10
-101.6970678719
 20
16.8337178025
 30
0.0
  0
SPLINE
  5
438
100
AcDbEntity
  8
RACCORDO
100
AcDbSpline
 62
250
  6
CONTINUOUS
 70
0
 71
3
 72
10
 73
6
 74
0
 42
0.0000001
 43
0.0000001
 44
0.0000000001
 40
0.0
 40
0.0
 40
0.0
 40
0.0
 40
0.2274444478
 40
0.4655822986
 40
1.0
 40
1.0
 40
1.0
 40
1.0
 10
-114.055642574
 20
-11.6756297448
 30
0.0
 10
-114.0858982342
 20
-11.660495191
 30
0.0
 10
-114.1437423406
 20
-11.620550552
 30
0.0
 10
-114.2404432027
 20
-11.5057838797
 30
0.0
 10
-114.2804212273
 20
-11.393648528
 30
0.0
 10
-114.2958712951
 20
-11.3156757183
 30
0.0
  0
SPLINE
  5
439
100
AcDbEntity
  8
RACCORDO
100
AcDbSpline
 62
250
  6
CONTINUOUS
 70
0
 71
3
 72
11
 73
7
 74
0
 42
0.0000001
 43
0.0000001
 44
0.0000000001
 40
0.0
 40
0.0
 40
0.0
 40
0.0
 40
0.2423671993
 40
0.5080322028
 40
0.7693478841
 40
1.0
 40
1.0
 40
1.0
 40
1.0
 10
-100.6729468813
 20
17.3452092811
 30
0.0
 10
-100.6777834351
 20
17.4039185227
 30
0.0
 10
-100.7077695581
 20
17.5254321618
 30
0.0
 10
-100.791693925
 20
17.6939015023
 30
0.0
 10
-100.9062403392
 20
17.839610389
 30
0.0
 10
-101.0014976799
 20
17.9151588396
 30
0.0
 10
-101.0510333013
 20
17.9414081916
 30
0.0
  0
SPLINE
  5
43A
100
AcDbEntity
  8
RACCORDO
100
AcDbSpline
 62
250
  6
CONTINUOUS
 70
0
 71
3
 72
9
 73
5
 74
0
 42
0.0000001
 43
0.0000001
 44
0.0000000001
 40
0.0
 40
0.0
 40
0.0
 40
0.0
 40
0.2547803763
 40
1.0
 40
1.0
 40
1.0
 40
1.0
 10
-101.0004208042
 20
16.7935924071
 30
0.0
 10
-101.0569084823
 20
15.9363398799
 30
0.0
 10
-101.2357530205
 20
12.5690521426
 30
0.0
 10
-101.2402286778
 20
9.1919359928
 30
0.0
 10
-101.1347894489
 20
6.6812913838
 30
0.0
  0
SPLINE
  5
43B
100
AcDbEntity
  8
RACCORDO
100
AcDbSpline
 62
250
  6
CONTINUOUS
 70
0
 71
3
 72
9
 73
5
 74
0
 42
0.0000001
 43
0.0000001
 44
0.0000000001
 40
0.0
 40
0.0
 40
0.0
 40
0.0
 40
0.2528744494
 40
1.0
 40
1.0
 40
1.0
 40
1.0
 10
-101.7867963504
 20
15.2921135701
 30
0.0
 10
-101.8130237955
 20
14.7726216357
 30
0.0
 10
-101.9006544082
 20
12.7175032523
 30
0.0
 10
-101.9232245743
 20
10.6595357498
 30
0.0
 10
-101.9011321356
 20
9.1228843605
 30
0.0
  0
SPLINE
  5
43C
100
AcDbEntity
  8
RACCORDO
100
AcDbSpline
 62
250
  6
CONTINUOUS
 70
0
 71
3
 72
9
 73
5
 74
0
 42
0.0000001
 43
0.0000001
 44
0.0000000001
 40
0.0
 40
0.0
 40
0.0
 40
0.0
 40
0.2512537514
 40
1.0
 40
1.0
 40
1.0
 40
1.0
 10
-101.9011321356
 20
9.1228843605
 30
0.0
 10
-101.8981715501
 20
8.9169592566
 30
0.0
 10
-101.8836026835
 20
8.0974118047
 30
0.0
 10
-101.8578398496
 20
7.2780609706
 30
0.0
 10
-101.832086357
 20
6.6648730662
 30
0.0
  0
SPLINE
  5
43D
100
AcDbEntity
  8
RACCORDO
100
AcDbSpline
 62
250
  6
CONTINUOUS
 70
0
 71
3
 72
11
 73
7
 74
0
 42
0.0000001
 43
0.0000001
 44
0.0000000001
 40
0.0
 40
0.0
 40
0.0
 40
0.0
 40
0.2328351651
 40
0.4972005816
 40
0.7630595222
 40
1.0
 40
1.0
 40
1.0
 40
1.0
 10
-101.0004208042
 20
16.7935924071
 30
0.0
 10
-101.0521544412
 20
16.7739383398
 30
0.0
 10
-101.1689726888
 20
16.7488344291
 30
0.0
 10
-101.3510344206
 20
16.7442241597
 30
0.0
 10
-101.532329896
 20
16.7699376049
 30
0.0
 10
-101.6467984133
 20
16.808329088
 30
0.0
 10
-101.6970678565
 20
16.8337178087
 30
0.0
  0
SPLINE
  5
43E
100
AcDbEntity
  8
RACCORDO
100
AcDbSpline
 62
250
  6
CONTINUOUS
 70
0
 71
3
 72
9
 73
5
 74
0
 42
0.0000001
 43
0.0000001
 44
0.0000000001
 40
0.0
 40
0.0
 40
0.0
 40
0.0
 40
0.2511594737
 40
1.0
 40
1.0
 40
1.0
 40
1.0
 10
-100.9532533095
 20
2.742508488
 30
0.0
 10
-100.9028218137
 20
1.7378805064
 30
0.0
 10
-100.6894257062
 20
-2.2614363496
 30
0.0
 10
-100.425400535
 20
-6.258060841
 30
0.0
 10
-100.1985463924
 20
-9.2485730667
 30
0.0
  0
SPLINE
  5
43F
100
AcDbEntity
  8
RACCORDO
100
AcDbSpline
 62
250
  6
CONTINUOUS
 70
0
 71
3
 72
8
 73
4
 74
0
 42
0.0000001
 43
0.0000001
 44
0.0000000001
 40
0.0
 40
0.0
 40
0.0
 40
0.0
 40
1.0
 40
1.0
 40
1.0
 40
1.0
 10
-101.2894855736
 20
-3.6215382273
 30
0.0
 10
-101.2736834557
 20
-3.8698983562
 30
0.0
 10
-101.2576841542
 20
-4.118246018
 30
0.0
 10
-101.2414872452
 20
-4.3665807129
 30
0.0
  0
SPLINE
  5
440
100
AcDbEntity
  8
RACCORDO
100
AcDbSpline
 62
250
  6
CONTINUOUS
 70
0
 71
3
 72
11
 73
7
 74
0
 42
0.0000001
 43
0.0000001
 44
0.0000000001
 40
0.0
 40
0.0
 40
0.0
 40
0.0
 40
0.2400240519
 40
0.5047127664
 40
0.7668621802
 40
1.0
 40
1.0
 40
1.0
 40
1.0
 10
-101.1347894489
 20
6.6812913838
 30
0.0
 10
-101.1854632475
 20
6.6541741436
 30
0.0
 10
-101.3010883774
 20
6.6139714853
 30
0.0
 10
-101.4844429871
 20
6.5915393847
 30
0.0
 10
-101.6670051377
 20
6.6049994307
 30
0.0
 10
-101.7821671555
 20
6.6398843489
 30
0.0
 10
-101.8320863567
 20
6.6648730664
 30
0.0
  0
SPLINE
  5
441
100
AcDbEntity
  8
RACCORDO
100
AcDbSpline
 62
250
  6
CONTINUOUS
 70
0
 71
3
 72
9
 73
5
 74
0
 42
0.0000001
 43
0.0000001
 44
0.0000000001
 40
0.0
 40
0.0
 40
0.0
 40
0.0
 40
0.2522665476
 40
1.0
 40
1.0
 40
1.0
 40
1.0
 10
-100.1985463924
 20
-9.2485730667
 30
0.0
 10
-100.1730838286
 20
-9.5842324924
 30
0.0
 10
-100.0640224821
 20
-10.9141751119
 30
0.0
 10
-99.9221952212
 20
-12.2414539316
 30
0.0
 10
-99.7968985804
 20
-13.2313290714
 30
0.0
  0
SPLINE
  5
442
100
AcDbEntity
  8
RACCORDO
100
AcDbSpline
 62
250
  6
CONTINUOUS
 70
0
 71
3
 72
9
 73
5
 74
0
 42
0.0000001
 43
0.0000001
 44
0.0000000001
 40
0.0
 40
0.0
 40
0.0
 40
0.0
 40
0.2533206293
 40
1.0
 40
1.0
 40
1.0
 40
1.0
 10
-99.7968985804
 20
-13.2313290714
 30
0.0
 10
-99.7394880364
 20
-13.6848868842
 30
0.0
 10
-99.4968962635
 20
-15.4732675679
 30
0.0
 10
-99.189675719
 20
-17.2529806312
 30
0.0
 10
-98.9217885792
 20
-18.5736440782
 30
0.0
  0
SPLINE
  5
443
100
AcDbEntity
  8
RACCORDO
100
AcDbSpline
 62
250
  6
CONTINUOUS
 70
0
 71
3
 72
9
 73
5
 74
0
 42
0.0000001
 43
0.0000001
 44
0.0000000001
 40
0.0
 40
0.0
 40
0.0
 40
0.0
 40
0.2546479469
 40
1.0
 40
1.0
 40
1.0
 40
1.0
 10
-100.7441358711
 20
-11.0229711586
 30
0.0
 10
-100.6806253839
 20
-11.6752304317
 30
0.0
 10
-100.4000185664
 20
-14.2334638177
 30
0.0
 10
-99.9924091523
 20
-16.7781459176
 30
0.0
 10
-99.6111164043
 20
-18.6580531637
 30
0.0
  0
SPLINE
  5
444
100
AcDbEntity
  8
RACCORDO
100
AcDbSpline
 62
250
  6
CONTINUOUS
 70
0
 71
3
 72
11
 73
7
 74
0
 42
0.0000001
 43
0.0000001
 44
0.0000000001
 40
0.0
 40
0.0
 40
0.0
 40
0.0
 40
0.2421412746
 40
0.5069221727
 40
0.7679621842
 40
1.0
 40
1.0
 40
1.0
 40
1.0
 10
-100.1985463924
 20
-9.2485730667
 30
0.0
 10
-100.2487787027
 20
-9.2777415898
 30
0.0
 10
-100.3637272464
 20
-9.3221544729
 30
0.0
 10
-100.5471003042
 20
-9.3496825608
 30
0.0
 10
-100.7298161018
 20
-9.339718617
 30
0.0
 10
-100.8451082236
 20
-9.3058080976
 30
0.0
 10
-100.894906105
 20
-9.2809371852
 30
0.0
  0
SPLINE
  5
445
100
AcDbEntity
  8
RACCORDO
100
AcDbSpline
 62
250
  6
CONTINUOUS
 70
0
 71
3
 72
11
 73
7
 74
0
 42
0.0000001
 43
0.0000001
 44
0.0000000001
 40
0.0
 40
0.0
 40
0.0
 40
0.0
 40
0.2616082872
 40
0.4916016995
 40
0.7268474132
 40
1.0
 40
1.0
 40
1.0
 40
1.0
 10
-98.9217885792
 20
-18.5736440782
 30
0.0
 10
-98.9134650493
 20
-18.6146199496
 30
0.0
 10
-98.8853618691
 20
-18.6909544858
 30
0.0
 10
-98.792502941
 20
-18.7706440627
 30
0.0
 10
-98.6695343072
 20
-18.7850124101
 30
0.0
 10
-98.590957635
 20
-18.7567946431
 30
0.0
 10
-98.5523255259
 20
-18.7364583039
 30
0.0
  0
SPLINE
  5
446
100
AcDbEntity
  8
RACCORDO
100
AcDbSpline
 62
250
  6
CONTINUOUS
 70
0
 71
3
 72
10
 73
6
 74
0
 42
0.0000001
 43
0.0000001
 44
0.0000000001
 40
0.0
 40
0.0
 40
0.0
 40
0.0
 40
0.5313226471
 40
0.7703189124
 40
1.0
 40
1.0
 40
1.0
 40
1.0
 10
-99.6111164043
 20
-18.6580531637
 30
0.0
 10
-99.5953513466
 20
-18.7363375506
 30
0.0
 10
-99.554222921
 20
-18.8490625701
 30
0.0
 10
-99.4557941338
 20
-18.9643810535
 30
0.0
 10
-99.3969254555
 20
-19.0048866102
 30
0.0
 10
-99.3660897695
 20
-19.0204047066
 30
0.0
  0
SPLINE
  5
447
100
AcDbEntity
  8
RACCORDO
100
AcDbSpline
 62
250
  6
CONTINUOUS
 70
0
 71
3
 72
11
 73
7
 74
0
 42
0.0000001
 43
0.0000001
 44
0.0000000001
 40
0.0
 40
0.0
 40
0.0
 40
0.0
 40
0.2492776616
 40
0.5143286276
 40
0.7715548904
 40
1.0
 40
1.0
 40
1.0
 40
1.0
 10
-98.9217885793
 20
-18.5736440782
 30
0.0
 10
-98.9700895499
 20
-18.6093622463
 30
0.0
 10
-99.0816800104
 20
-18.6673398496
 30
0.0
 10
-99.2638472258
 20
-18.7117224982
 30
0.0
 10
-99.4463305894
 20
-18.71330803
 30
0.0
 10
-99.5617890705
 20
-18.6825140383
 30
0.0
 10
-99.611104461
 20
-18.6580439363
 30
0.0
  0
SPLINE
  5
448
100
AcDbEntity
  8
RACCORDO
100
AcDbSpline
 62
250
  6
CONTINUOUS
 70
0
 71
3
 72
11
 73
7
 74
0
 42
0.0000001
 43
0.0000001
 44
0.0000000001
 40
0.0
 40
0.0
 40
0.0
 40
0.0
 40
0.2948758219
 40
0.5564424063
 40
0.7874454733
 40
1.0
 40
1.0
 40
1.0
 40
1.0
 10
-98.5523255259
 20
-18.7364583039
 30
0.0
 10
-98.5512815062
 20
-18.7656605331
 30
0.0
 10
-98.5537857347
 20
-18.8211208502
 30
0.0
 10
-98.5737865128
 20
-18.8973097147
 30
0.0
 10
-98.6098553646
 20
-18.9584598238
 30
0.0
 10
-98.6449379998
 20
-18.9869085313
 30
0.0
 10
-98.6635683041
 20
-18.9967355658
 30
0.0
  0
SPLINE
  5
449
100
AcDbEntity
  8
DRAFT
100
AcDbSpline
 62
7
  6
CONTINUOUS
 70
0
 71
3
 72
9
 73
5
 74
0
 42
0.0000001
 43
0.0000001
 44
0.0000000001
 40
0.0
 40
0.0
 40
0.0
 40
0.0
 40
0.5487888283
 40
1.0
 40
1.0
 40
1.0
 40
1.0
 10
-108.500891362
 20
-8.1889592228
 30
0.0
 10
-108.5513237082
 20
-8.0608014081
 30
0.0
 10
-108.619322428
 20
-7.8169345204
 30
0.0
 10
-108.6117839886
 20
-7.5581869452
 30
0.0
 10
-108.5789459935
 20
-7.4498171914
 30
0.0
  0
SPLINE
  5
44A
100
AcDbEntity
  8
DRAFT
100
AcDbSpline
 62
7
  6
CONTINUOUS
 70
0
 71
3
 72
9
 73
5
 74
0
 42
0.0000001
 43
0.0000001
 44
0.0000000001
 40
0.0
 40
0.0
 40
0.0
 40
0.0
 40
0.5487888185
 40
1.0
 40
1.0
 40
1.0
 40
1.0
 10
-110.5161457858
 20
-7.1813320103
 30
0.0
 10
-110.5665781246
 20
-7.0531741963
 30
0.0
 10
-110.6345768355
 20
-6.8093073084
 30
0.0
 10
-110.6270384017
 20
-6.550559739
 30
0.0
 10
-110.5942004171
 20
-6.4421899802
 30
0.0
  0
SPLINE
  5
44B
100
AcDbEntity
  8
RACCORDO
100
AcDbSpline
 62
250
  6
CONTINUOUS
 70
0
 71
3
 72
11
 73
7
 74
0
 42
0.0000001
 43
0.0000001
 44
0.0000000001
 40
0.0
 40
0.0
 40
0.0
 40
0.0
 40
0.2482929509
 40
0.5106060858
 40
0.7672353781
 40
1.0
 40
1.0
 40
1.0
 40
1.0
 10
-116.3818227627
 20
24.1760952479
 30
0.0
 10
-116.3751473527
 20
24.2852257524
 30
0.0
 10
-116.3308316223
 20
24.5081935017
 30
0.0
 10
-116.1956292484
 20
24.8202591535
 30
0.0
 10
-116.0037163727
 20
25.0927421041
 30
0.0
 10
-115.8402187858
 20
25.237878234
 30
0.0
 10
-115.7536147521
 20
25.2926989135
 30
0.0
  0
SPLINE
  5
44C
100
AcDbEntity
  8
0
100
AcDbSpline
 62
7
  6
CONTINUOUS
 70
0
 71
3
 72
9
 73
5
 74
0
 42
0.0000001
 43
0.0000001
 44
0.0000000001
 40
0.0
 40
0.0
 40
0.0
 40
0.0
 40
0.233083607
 40
1.0
 40
1.0
 40
1.0
 40
1.0
 10
-99.6540445287
 20
30.9451129729
 30
0.0
 10
-99.6362832254
 20
30.9495229777
 30
0.0
 10
-99.5574755458
 20
30.9583963835
 30
0.0
 10
-99.4787288001
 20
30.9326669007
 30
0.0
 10
-99.4248710273
 20
30.9057385499
 30
0.0
  0
SPLINE
  5
44D
100
AcDbEntity
  8
0
100
AcDbSpline
 62
7
  6
CONTINUOUS
 70
0
 71
3
 72
9
 73
5
 74
0
 42
0.0000001
 43
0.0000001
 44
0.0000000001
 40
0.0
 40
0.0
 40
0.0
 40
0.0
 40
0.2432631661
 40
1.0
 40
1.0
 40
1.0
 40
1.0
 10
-93.9415461764
 20
28.1492846305
 30
0.0
 10
-93.9325011034
 20
28.1473386499
 30
0.0
 10
-93.8956276235
 20
28.1379093897
 30
0.0
 10
-93.8601669689
 20
28.1233864167
 30
0.0
 10
-93.8344244197
 20
28.1105152435
 30
0.0
  0
SPLINE
  5
44E
100
AcDbEntity
  8
ASSI
100
AcDbSpline
 62
7
  6
CONTINUOUS
 70
0
 71
3
 72
10
 73
6
 74
0
 42
0.0000001
 43
0.0000001
 44
0.0000000001
 40
0.0
 40
0.0
 40
0.0
 40
0.0
 40
0.2276777656
 40
0.4658541364
 40
1.0
 40
1.0
 40
1.0
 40
1.0
 10
-98.4570462241
 20
20.3969361874
 30
0.0
 10
-98.4256498854
 20
20.4126408897
 30
0.0
 10
-98.3564371549
 20
20.4356884279
 30
0.0
 10
-98.2010079155
 20
20.4435069767
 30
0.0
 10
-98.0835070993
 20
20.4053874206
 30
0.0
 10
-98.0098432505
 20
20.3685554962
 30
0.0
  0
SPLINE
  5
44F
100
AcDbEntity
  8
ASSI
100
AcDbSpline
 62
7
  6
CONTINUOUS
 70
0
 71
3
 72
10
 73
6
 74
0
 42
0.0000001
 43
0.0000001
 44
0.0000000001
 40
0.0
 40
0.0
 40
0.0
 40
0.0
 40
0.2276777656
 40
0.4658541364
 40
1.0
 40
1.0
 40
1.0
 40
1.0
 10
-108.3565411607
 20
25.3466836557
 30
0.0
 10
-108.325144822
 20
25.362388358
 30
0.0
 10
-108.2559320915
 20
25.3854358962
 30
0.0
 10
-108.1005028521
 20
25.393254445
 30
0.0
 10
-107.9830020359
 20
25.3551348889
 30
0.0
 10
-107.9093381871
 20
25.3183029645
 30
0.0
  0
SPLINE
  5
450
100
AcDbEntity
  8
0
100
AcDbSpline
 62
7
  6
CONTINUOUS
 70
0
 71
3
 72
10
 73
6
 74
0
 42
0.0000001
 43
0.0000001
 44
0.0000000001
 40
0.0
 40
0.0
 40
0.0
 40
0.0
 40
0.437339694
 40
0.7085619899
 40
1.0
 40
1.0
 40
1.0
 40
1.0
 10
-93.4798582137
 20
26.8566122968
 30
0.0
 10
-93.4311998411
 20
26.9154121672
 30
0.0
 10
-93.4032238839
 20
27.0489436872
 30
0.0
 10
-93.4266601117
 20
27.2209041907
 30
0.0
 10
-93.4588787234
 20
27.3148591058
 30
0.0
 10
-93.4798582137
 20
27.3611906833
 30
0.0
  0
SPLINE
  5
451
100
AcDbEntity
  8
0
100
AcDbSpline
 62
7
  6
CONTINUOUS
 70
0
 71
3
 72
8
 73
4
 74
0
 42
0.0000001
 43
0.0000001
 44
0.0000000001
 40
0.0
 40
0.0
 40
0.0
 40
0.0
 40
1.0
 40
1.0
 40
1.0
 40
1.0
 10
-93.3141596003
 20
27.844884111
 30
0.0
 10
-93.3141599538
 20
27.8480332284
 30
0.0
 10
-93.3163580138
 20
27.8514822288
 30
0.0
 10
-93.3191747445
 20
27.8528904081
 30
0.0
  0
SPLINE
  5
452
100
AcDbEntity
  8
0
100
AcDbSpline
 62
7
  6
CONTINUOUS
 70
0
 71
3
 72
8
 73
4
 74
0
 42
0.0000001
 43
0.0000001
 44
0.0000000001
 40
0.0
 40
0.0
 40
0.0
 40
0.0
 40
1.0
 40
1.0
 40
1.0
 40
1.0
 10
-98.9046060284
 20
30.6401074953
 30
0.0
 10
-98.904606247
 20
30.6432566186
 30
0.0
 10
-98.9068046453
 20
30.6467054434
 30
0.0
 10
-98.9096213396
 20
30.6481137087
 30
0.0
  0
SPLINE
  5
453
100
AcDbEntity
  8
ASSI
100
AcDbSpline
 62
7
  6
CONTINUOUS
 70
0
 71
3
 72
16
 73
12
 74
0
 42
0.0000001
 43
0.0000001
 44
0.0000000001
 40
0.0
 40
0.0
 40
0.0
 40
0.0
 40
0.1236955987
 40
0.261432765
 40
0.4065196955
 40
0.5506244432
 40
0.6856394606
 40
0.8054908901
 40
0.9083760957
 40
0.9550302596
 40
1.0
 40
1.0
 40
1.0
 40
1.0
 10
-98.0098432505
 20
20.3685554962
 30
0.0
 10
-97.9324254446
 20
20.3298465933
 30
0.0
 10
-97.7815286953
 20
20.2220521117
 30
0.0
 10
-97.5916079721
 20
20.0079469572
 30
0.0
 10
-97.4385593331
 20
19.7493135502
 30
0.0
 10
-97.3360098024
 20
19.4689129555
 30
0.0
 10
-97.2930331946
 20
19.190881598
 30
0.0
 10
-97.3134527671
 20
18.9386461706
 30
0.0
 10
-97.3885457294
 20
18.7601820918
 30
0.0
 10
-97.4805756272
 20
18.6583297978
 30
0.0
 10
-97.5344972478
 20
18.622201368
 30
0.0
 10
-97.562640277
 20
18.6081239974
 30
0.0
  0
SPLINE
  5
454
100
AcDbEntity
  8
ASSI
100
AcDbSpline
 62
7
  6
CONTINUOUS
 70
0
 71
3
 72
11
 73
7
 74
0
 42
0.0000001
 43
0.0000001
 44
0.0000000001
 40
0.0
 40
0.0
 40
0.0
 40
0.0
 40
0.2287074295
 40
0.4858620583
 40
0.7507436734
 40
1.0
 40
1.0
 40
1.0
 40
1.0
 10
-107.9093381871
 20
25.3183029645
 30
0.0
 10
-107.8119995493
 20
25.2696336456
 30
0.0
 10
-107.6254416144
 20
25.125461534
 30
0.0
 10
-107.4072593135
 20
24.838862458
 30
0.0
 10
-107.2545942364
 20
24.5018782363
 30
0.0
 10
-107.2074791537
 20
24.2583622262
 30
0.0
 10
-107.2030231607
 20
24.1398400897
 30
0.0
  0
SPLINE
  5
455
100
AcDbEntity
  8
0
100
AcDbSpline
 62
250
  6
CONTINUOUS
 70
0
 71
3
 72
11
 73
7
 74
0
 42
0.0000001
 43
0.0000001
 44
0.0000000001
 40
0.0
 40
0.0
 40
0.0
 40
0.0
 40
0.2351711086
 40
0.4995790016
 40
0.7642134063
 40
1.0
 40
1.0
 40
1.0
 40
1.0
 10
-96.6755994685
 20
22.5769922118
 30
0.0
 10
-96.6502061701
 20
22.5642955626
 30
0.0
 10
-96.5918620314
 20
22.5461512642
 30
0.0
 10
-96.4995269752
 20
22.5373956088
 30
0.0
 10
-96.4070926277
 20
22.5458976848
 30
0.0
 10
-96.3485960337
 20
22.5638678292
 30
0.0
 10
-96.3230775088
 20
22.5764794879
 30
0.0
  0
SPLINE
  5
456
100
AcDbEntity
  8
0
100
AcDbSpline
 62
250
  6
CONTINUOUS
 70
0
 71
3
 72
9
 73
5
 74
0
 42
0.0000001
 43
0.0000001
 44
0.0000000001
 40
0.0
 40
0.0
 40
0.0
 40
0.0
 40
0.4325988481
 40
1.0
 40
1.0
 40
1.0
 40
1.0
 10
-106.42498994
 20
29.8823419399
 30
0.0
 10
-106.4249898546
 20
29.8653195555
 30
0.0
 10
-106.4432620637
 20
29.8264045807
 30
0.0
 10
-106.4772647506
 20
29.8045472876
 30
0.0
 10
-106.4971875389
 20
29.7944693078
 30
0.0
  0
SPLINE
  5
457
100
AcDbEntity
  8
0
100
AcDbSpline
 62
250
  6
CONTINUOUS
 70
0
 71
3
 72
11
 73
7
 74
0
 42
0.0000001
 43
0.0000001
 44
0.0000000001
 40
0.0
 40
0.0
 40
0.0
 40
0.0
 40
0.2351712695
 40
0.4995791233
 40
0.7642134642
 40
1.0
 40
1.0
 40
1.0
 40
1.0
 10
-96.6755994685
 20
22.2370182776
 30
0.0
 10
-96.6502061528
 20
22.2243216198
 30
0.0
 10
-96.5918619967
 20
22.2061773241
 30
0.0
 10
-96.4995269336
 20
22.1974216752
 30
0.0
 10
-96.407092606
 20
22.2059237558
 30
0.0
 10
-96.3485960274
 20
22.2238938982
 30
0.0
 10
-96.3230775088
 20
22.2365055538
 30
0.0
  0
SPLINE
  5
458
100
AcDbEntity
  8
0
100
AcDbSpline
 62
7
  6
CONTINUOUS
 70
0
 71
3
 72
9
 73
5
 74
0
 42
0.0000001
 43
0.0000001
 44
0.0000000001
 40
0.0
 40
0.0
 40
0.0
 40
0.0
 40
0.4547712433
 40
1.0
 40
1.0
 40
1.0
 40
1.0
 10
-98.7523053708
 20
24.2530783488
 30
0.0
 10
-98.7265618897
 20
24.3053062519
 30
0.0
 10
-98.7055711315
 20
24.4369436914
 30
0.0
 10
-98.7304186446
 20
24.5642799549
 30
0.0
 10
-98.7523053708
 20
24.6305700705
 30
0.0
  0
SPLINE
  5
459
100
AcDbEntity
  8
0
100
AcDbSpline
 62
250
  6
CONTINUOUS
 70
0
 71
3
 72
11
 73
7
 74
0
 42
0.0000001
 43
0.0000001
 44
0.0000000001
 40
0.0
 40
0.0
 40
0.0
 40
0.0
 40
0.2351713294
 40
0.4995792494
 40
0.7642136314
 40
1.0
 40
1.0
 40
1.0
 40
1.0
 10
-108.9792574611
 20
28.7288212081
 30
0.0
 10
-108.9538641389
 20
28.716124547
 30
0.0
 10
-108.895519967
 20
28.6979802492
 30
0.0
 10
-108.8031848832
 20
28.6892246049
 30
0.0
 10
-108.7107505626
 20
28.6977266924
 30
0.0
 10
-108.652254002
 20
28.7156968376
 30
0.0
 10
-108.6267355015
 20
28.7283084842
 30
0.0
  0
SPLINE
  5
45A
100
AcDbEntity
  8
0
100
AcDbSpline
 62
250
  6
CONTINUOUS
 70
0
 71
3
 72
11
 73
7
 74
0
 42
0.0000001
 43
0.0000001
 44
0.0000000001
 40
0.0
 40
0.0
 40
0.0
 40
0.0
 40
0.2351713009
 40
0.4995791941
 40
0.7642135602
 40
1.0
 40
1.0
 40
1.0
 40
1.0
 10
-108.9792574611
 20
28.388847274
 30
0.0
 10
-108.953864142
 20
28.3761506144
 30
0.0
 10
-108.8955199771
 20
28.3580063174
 30
0.0
 10
-108.8031849021
 20
28.3492506711
 30
0.0
 10
-108.7107505782
 20
28.3577527556
 30
0.0
 10
-108.6522540097
 20
28.3757228996
 30
0.0
 10
-108.6267355015
 20
28.3883345501
 30
0.0
  0
SPLINE
  5
45B
100
AcDbEntity
  8
0
100
AcDbSpline
 62
250
  6
CONTINUOUS
 70
0
 71
3
 72
9
 73
5
 74
0
 42
0.0000001
 43
0.0000001
 44
0.0000000001
 40
0.0
 40
0.0
 40
0.0
 40
0.0
 40
0.5662597434
 40
1.0
 40
1.0
 40
1.0
 40
1.0
 10
-110.6577955315
 20
29.2281163092
 30
0.0
 10
-110.6772862791
 20
29.2378616829
 30
0.0
 10
-110.7104978631
 20
29.2589967948
 30
0.0
 10
-110.7298461582
 20
29.2959113206
 30
0.0
 10
-110.7308947682
 20
29.3125699336
 30
0.0
  0
SPLINE
  5
45C
100
AcDbEntity
  8
0
100
AcDbSpline
 62
250
  6
CONTINUOUS
 70
0
 71
3
 72
9
 73
5
 74
0
 42
0.0000001
 43
0.0000001
 44
0.0000000001
 40
0.0
 40
0.0
 40
0.0
 40
0.0
 40
0.5679894356
 40
1.0
 40
1.0
 40
1.0
 40
1.0
 10
-110.6577955315
 20
29.5680902433
 30
0.0
 10
-110.6779756347
 20
29.5781802949
 30
0.0
 10
-110.7124135401
 20
29.6000630818
 30
0.0
 10
-110.7310184981
 20
29.6393179898
 30
0.0
 10
-110.731018578
 20
29.6564785909
 30
0.0
  0
SPLINE
  5
45D
100
AcDbEntity
  8
0
100
AcDbSpline
 62
250
  6
CONTINUOUS
 70
0
 71
3
 72
9
 73
5
 74
0
 42
0.0000001
 43
0.0000001
 44
0.0000000001
 40
0.0
 40
0.0
 40
0.0
 40
0.0
 40
0.4325988481
 40
1.0
 40
1.0
 40
1.0
 40
1.0
 10
-94.1213319474
 20
23.7305129436
 30
0.0
 10
-94.1213318619
 20
23.7134905592
 30
0.0
 10
-94.139604071
 20
23.6745755844
 30
0.0
 10
-94.173606758
 20
23.6527182912
 30
0.0
 10
-94.1935295463
 20
23.6426403114
 30
0.0
  0
SPLINE
  5
45E
100
AcDbEntity
  8
0
100
AcDbSpline
 62
7
  6
CONTINUOUS
 70
0
 71
3
 72
10
 73
6
 74
0
 42
0.0000001
 43
0.0000001
 44
0.0000000001
 40
0.0
 40
0.0
 40
0.0
 40
0.0
 40
0.5461170613
 40
0.781339819
 40
1.0
 40
1.0
 40
1.0
 40
1.0
 10
-94.0146899368
 20
-16.9412297561
 30
0.0
 10
-94.0146899368
 20
-16.9981402219
 30
0.0
 10
-94.0272705589
 20
-17.082495783
 30
0.0
 10
-94.0849119001
 20
-17.1710536254
 30
0.0
 10
-94.1231530438
 20
-17.2008043677
 30
0.0
 10
-94.143402896
 20
-17.2112525458
 30
0.0
  0
SPLINE
  5
45F
100
AcDbEntity
  8
0
100
AcDbSpline
 62
7
  6
CONTINUOUS
 70
0
 71
3
 72
11
 73
7
 74
0
 42
0.0000001
 43
0.0000001
 44
0.0000000001
 40
0.0
 40
0.0
 40
0.0
 40
0.0
 40
0.1105194225
 40
0.2307240176
 40
0.4904759085
 40
1.0
 40
1.0
 40
1.0
 40
1.0
 10
-94.3679742028
 20
21.6001395728
 30
0.0
 10
-94.3438920014
 20
21.5880984721
 30
0.0
 10
-94.2965735562
 20
21.5570900072
 30
0.0
 10
-94.2068099959
 20
21.4776393126
 30
0.0
 10
-94.0763866808
 20
21.3031141472
 30
0.0
 10
-94.0146899368
 20
21.1144167037
 30
0.0
 10
-94.0146899368
 20
20.9902865463
 30
0.0
  0
SPLINE
  5
460
100
AcDbEntity
  8
0
100
AcDbSpline
 62
7
  6
CONTINUOUS
 70
0
 71
3
 72
9
 73
5
 74
0
 42
0.0000001
 43
0.0000001
 44
0.0000000001
 40
0.0
 40
0.0
 40
0.0
 40
0.0
 40
0.1760013721
 40
1.0
 40
1.0
 40
1.0
 40
1.0
 10
-98.9096213396
 20
30.6481137087
 30
0.0
 10
-98.910884167
 20
30.6487450857
 30
0.0
 10
-98.9186447595
 20
30.65111438
 30
0.0
 10
-98.9269156492
 20
30.6501713626
 30
0.0
 10
-98.9334605109
 20
30.6492453632
 30
0.0
  0
SPLINE
  5
461
100
AcDbEntity
  8
0
100
AcDbSpline
 62
7
  6
CONTINUOUS
 70
0
 71
3
 72
9
 73
5
 74
0
 42
0.0000001
 43
0.0000001
 44
0.0000000001
 40
0.0
 40
0.0
 40
0.0
 40
0.0
 40
0.3568831276
 40
1.0
 40
1.0
 40
1.0
 40
1.0
 10
-93.3191747445
 20
27.8528904081
 30
0.0
 10
-93.324070739
 20
27.8553380822
 30
0.0
 10
-93.3403346025
 20
27.8551465383
 30
0.0
 10
-93.3550445655
 20
27.8520130652
 30
0.0
 10
-93.3646056996
 20
27.8495879678
 30
0.0
  0
SPLINE
  5
462
100
AcDbEntity
  8
0
100
AcDbSpline
 62
7
  6
CONTINUOUS
 70
0
 71
3
 72
9
 73
5
 74
0
 42
0.0000001
 43
0.0000001
 44
0.0000000001
 40
0.0
 40
0.0
 40
0.0
 40
0.0
 40
0.2011698412
 40
1.0
 40
1.0
 40
1.0
 40
1.0
 10
-93.3646056996
 20
27.8495879678
 30
0.0
 10
-93.3701166219
 20
27.8481901709
 30
0.0
 10
-93.397325182
 20
27.8405116321
 30
0.0
 10
-93.423912134
 20
27.8308042397
 30
0.0
 10
-93.4449947046
 20
27.8227283918
 30
0.0
  0
SPLINE
  5
463
100
AcDbEntity
  8
0
100
AcDbSpline
 62
250
  6
CONTINUOUS
 70
0
 71
3
 72
10
 73
6
 74
0
 42
0.0000001
 43
0.0000001
 44
0.0000000001
 40
0.0
 40
0.0
 40
0.0
 40
0.0
 40
0.5093740238
 40
0.7690172703
 40
1.0
 40
1.0
 40
1.0
 40
1.0
 10
-98.3541375389
 20
23.416261247
 30
0.0
 10
-98.3541375389
 20
23.4781334127
 30
0.0
 10
-98.3237065942
 20
23.5723319869
 30
0.0
 10
-98.2512341766
 20
23.6702033322
 30
0.0
 10
-98.2034123172
 20
23.7079482467
 30
0.0
 10
-98.1783892829
 20
23.7206380619
 30
0.0
  0
SPLINE
  5
464
100
AcDbEntity
  8
0
100
AcDbSpline
 62
250
  6
CONTINUOUS
 70
0
 71
3
 72
10
 73
6
 74
0
 42
0.0000001
 43
0.0000001
 44
0.0000000001
 40
0.0
 40
0.0
 40
0.0
 40
0.0
 40
0.5093739007
 40
0.7690171083
 40
1.0
 40
1.0
 40
1.0
 40
1.0
 10
-96.6755994685
 20
22.5769922118
 30
0.0
 10
-96.6755994685
 20
22.6388643627
 30
0.0
 10
-96.6451685377
 20
22.7330629178
 30
0.0
 10
-96.5726961308
 20
22.8309342698
 30
0.0
 10
-96.5248742644
 20
22.8686792026
 30
0.0
 10
-96.4998512125
 20
22.8813690267
 30
0.0
  0
SPLINE
  5
465
100
AcDbEntity
  8
0
100
AcDbSpline
 62
250
  6
CONTINUOUS
 70
0
 71
3
 72
9
 73
5
 74
0
 42
0.0000001
 43
0.0000001
 44
0.0000000001
 40
0.0
 40
0.0
 40
0.0
 40
0.0
 40
0.5679866803
 40
1.0
 40
1.0
 40
1.0
 40
1.0
 10
-101.4020991669
 20
25.9745697818
 30
0.0
 10
-101.4182431616
 20
25.9826417792
 30
0.0
 10
-101.4457928238
 20
26.0001483214
 30
0.0
 10
-101.460678036
 20
26.0315518996
 30
0.0
 10
-101.4606778069
 20
26.04528046
 30
0.0
  0
SPLINE
  5
466
100
AcDbEntity
  8
0
100
AcDbSpline
 62
250
  6
CONTINUOUS
 70
0
 71
3
 72
9
 73
5
 74
0
 42
0.0000001
 43
0.0000001
 44
0.0000000001
 40
0.0
 40
0.0
 40
0.0
 40
0.0
 40
0.4993537997
 40
1.0
 40
1.0
 40
1.0
 40
1.0
 10
-103.1028687084
 20
26.8249545526
 30
0.0
 10
-103.0600650283
 20
26.8035527125
 30
0.0
 10
-102.96219057
 20
26.7879647478
 30
0.0
 10
-102.8643279463
 20
26.8031815114
 30
0.0
 10
-102.8212654993
 20
26.8243401858
 30
0.0
  0
SPLINE
  5
467
100
AcDbEntity
  8
0
100
AcDbSpline
 62
250
  6
CONTINUOUS
 70
0
 71
3
 72
10
 73
6
 74
0
 42
0.0000001
 43
0.0000001
 44
0.0000000001
 40
0.0
 40
0.0
 40
0.0
 40
0.0
 40
0.5093740238
 40
0.7690172703
 40
1.0
 40
1.0
 40
1.0
 40
1.0
 10
-110.6577955315
 20
29.5680902433
 30
0.0
 10
-110.6577955315
 20
29.629962409
 30
0.0
 10
-110.6273645868
 20
29.7241609832
 30
0.0
 10
-110.5548921692
 20
29.8220323285
 30
0.0
 10
-110.5070703099
 20
29.8597772431
 30
0.0
 10
-110.4820472756
 20
29.8724670583
 30
0.0
  0
SPLINE
  5
468
100
AcDbEntity
  8
0
100
AcDbSpline
 62
250
  6
CONTINUOUS
 70
0
 71
3
 72
9
 73
5
 74
0
 42
0.0000001
 43
0.0000001
 44
0.0000000001
 40
0.0
 40
0.0
 40
0.0
 40
0.0
 40
0.5365169094
 40
1.0
 40
1.0
 40
1.0
 40
1.0
 10
-101.2615005621
 20
26.2180712338
 30
0.0
 10
-101.2765248661
 20
26.2254524832
 30
0.0
 10
-101.3070877658
 20
26.2353870745
 30
0.0
 10
-101.3395359136
 20
26.2296449784
 30
0.0
 10
-101.3523871032
 20
26.2230144772
 30
0.0
  0
SPLINE
  5
469
100
AcDbEntity
  8
0
100
AcDbSpline
 62
7
  6
CONTINUOUS
 70
0
 71
3
 72
9
 73
5
 74
0
 42
0.0000001
 43
0.0000001
 44
0.0000000001
 40
0.0
 40
0.0
 40
0.0
 40
0.0
 40
0.5361431053
 40
1.0
 40
1.0
 40
1.0
 40
1.0
 10
-101.0504042046
 20
26.3269952198
 30
0.0
 10
-101.0649847873
 20
26.3342855111
 30
0.0
 10
-101.0946478216
 20
26.3442117535
 30
0.0
 10
-101.1263029364
 20
26.3392428994
 30
0.0
 10
-101.1389962813
 20
26.3330952611
 30
0.0
  0
SPLINE
  5
46A
100
AcDbEntity
  8
0
100
AcDbSpline
 62
7
  6
CONTINUOUS
 70
0
 71
3
 72
9
 73
5
 74
0
 42
0.0000001
 43
0.0000001
 44
0.0000000001
 40
0.0
 40
0.0
 40
0.0
 40
0.0
 40
0.4877700803
 40
1.0
 40
1.0
 40
1.0
 40
1.0
 10
-102.7474568895
 20
27.1755215623
 30
0.0
 10
-102.7051399293
 20
27.1543630822
 30
0.0
 10
-102.6368926609
 20
27.0775317597
 30
0.0
 10
-102.6060373282
 20
26.9812968722
 30
0.0
 10
-102.6060373282
 20
26.9316125632
 30
0.0
  0
SPLINE
  5
46B
100
AcDbEntity
  8
0
100
AcDbSpline
 62
250
  6
CONTINUOUS
 70
0
 71
3
 72
9
 73
5
 74
0
 42
0.0000001
 43
0.0000001
 44
0.0000000001
 40
0.0
 40
0.0
 40
0.0
 40
0.0
 40
0.4874573283
 40
1.0
 40
1.0
 40
1.0
 40
1.0
 10
-102.9622701036
 20
27.0684560046
 30
0.0
 10
-102.9201693591
 20
27.0470323619
 30
0.0
 10
-102.8524930491
 20
26.9699658477
 30
0.0
 10
-102.8215040392
 20
26.8740087406
 30
0.0
 10
-102.8212654993
 20
26.8243401858
 30
0.0
  0
SPLINE
  5
46C
100
AcDbEntity
  8
0
100
AcDbSpline
 62
250
  6
CONTINUOUS
 70
0
 71
3
 72
10
 73
6
 74
0
 42
0.0000001
 43
0.0000001
 44
0.0000000001
 40
0.0
 40
0.0
 40
0.0
 40
0.0
 40
0.5093740238
 40
0.7690172703
 40
1.0
 40
1.0
 40
1.0
 40
1.0
 10
-108.9792574611
 20
28.7288212081
 30
0.0
 10
-108.9792574611
 20
28.7906933738
 30
0.0
 10
-108.9488265164
 20
28.884891948
 30
0.0
 10
-108.8763540988
 20
28.9827632933
 30
0.0
 10
-108.8285322395
 20
29.0205082078
 30
0.0
 10
-108.8035092052
 20
29.0331980231
 30
0.0
  0
LINE
  5
46D
100
AcDbEntity
  8
0
100
AcDbLine
 62
7
  6
CONTINUOUS
 10
-98.3770226053
 20
29.211686166
 30
0.0
 11
-98.3753364015
 21
28.6425173786
 31
0.0
  0
SPLINE
  5
46E
100
AcDbEntity
  8
0
100
AcDbSpline
 62
250
  6
CONTINUOUS
 70
0
 71
3
 72
9
 73
5
 74
0
 42
0.0000001
 43
0.0000001
 44
0.0000000001
 40
0.0
 40
0.0
 40
0.0
 40
0.0
 40
0.4326743435
 40
1.0
 40
1.0
 40
1.0
 40
1.0
 10
-94.1213322279
 20
-17.9168103833
 30
0.0
 10
-94.1213831488
 20
-17.9338101506
 30
0.0
 10
-94.1396957481
 20
-17.9726126673
 30
0.0
 10
-94.1736392581
 20
-17.9944338051
 30
0.0
 10
-94.1935295463
 20
-18.0044953447
 30
0.0
  0
SPLINE
  5
46F
100
AcDbEntity
  8
0
100
AcDbSpline
 62
250
  6
CONTINUOUS
 70
0
 71
3
 72
9
 73
5
 74
0
 42
0.0000001
 43
0.0000001
 44
0.0000000001
 40
0.0
 40
0.0
 40
0.0
 40
0.0
 40
0.5118334828
 40
1.0
 40
1.0
 40
1.0
 40
1.0
 10
-103.1028687084
 20
26.8249545526
 30
0.0
 10
-103.1028687084
 20
26.8744522666
 30
0.0
 10
-103.0721956117
 20
26.9704164967
 30
0.0
 10
-103.0043743961
 20
27.0471038502
 30
0.0
 10
-102.9622701036
 20
27.0684560046
 30
0.0
  0
SPLINE
  5
470
100
AcDbEntity
  8
0
100
AcDbSpline
 62
250
  6
CONTINUOUS
 70
0
 71
3
 72
9
 73
5
 74
0
 42
0.0000001
 43
0.0000001
 44
0.0000000001
 40
0.0
 40
0.0
 40
0.0
 40
0.0
 40
0.432603248
 40
1.0
 40
1.0
 40
1.0
 40
1.0
 10
-94.1213319483
 20
23.382970724
 30
0.0
 10
-94.12133478
 20
23.3659496211
 30
0.0
 10
-94.1396093014
 20
23.3270410632
 30
0.0
 10
-94.1736086147
 20
23.3051858353
 30
0.0
 10
-94.1935295463
 20
23.2951087947
 30
0.0
  0
SPLINE
  5
471
100
AcDbEntity
  8
0
100
AcDbSpline
 62
250
  6
CONTINUOUS
 70
0
 71
3
 72
9
 73
5
 74
0
 42
0.0000001
 43
0.0000001
 44
0.0000000001
 40
0.0
 40
0.0
 40
0.0
 40
0.0
 40
0.2355841474
 40
1.0
 40
1.0
 40
1.0
 40
1.0
 10
-101.4020991669
 20
25.9745697818
 30
0.0
 10
-101.4020991669
 20
25.9838713624
 30
0.0
 10
-101.3995049125
 20
26.0233410781
 30
0.0
 10
-101.3878131711
 20
26.0619598931
 30
0.0
 10
-101.3752987905
 20
26.0894246224
 30
0.0
  0
SPLINE
  5
472
100
AcDbEntity
  8
0
100
AcDbSpline
 62
250
  6
CONTINUOUS
 70
0
 71
3
 72
9
 73
5
 74
0
 42
0.0000001
 43
0.0000001
 44
0.0000000001
 40
0.0
 40
0.0
 40
0.0
 40
0.0
 40
0.2675902388
 40
1.0
 40
1.0
 40
1.0
 40
1.0
 10
-101.3752987905
 20
26.0894246224
 30
0.0
 10
-101.3691869677
 20
26.1028379558
 30
0.0
 10
-101.3430654332
 20
26.1511968734
 30
0.0
 10
-101.3039075757
 20
26.1940855243
 30
0.0
 10
-101.2688748227
 20
26.2140953866
 30
0.0
  0
SPLINE
  5
473
100
AcDbEntity
  8
0
100
AcDbSpline
 62
7
  6
CONTINUOUS
 70
0
 71
3
 72
9
 73
5
 74
0
 42
0.0000001
 43
0.0000001
 44
0.0000000001
 40
0.0
 40
0.0
 40
0.0
 40
0.0
 40
0.2685189715
 40
1.0
 40
1.0
 40
1.0
 40
1.0
 10
-98.3753364015
 20
28.6425173786
 30
0.0
 10
-98.3339900899
 20
28.6367910359
 30
0.0
 10
-98.1809157497
 20
28.610284466
 30
0.0
 10
-98.0303455985
 20
28.5631628222
 30
0.0
 10
-97.9286421658
 20
28.5123111059
 30
0.0
  0
SPLINE
  5
474
100
AcDbEntity
  8
0
100
AcDbSpline
 62
250
  6
CONTINUOUS
 70
0
 71
3
 72
9
 73
5
 74
0
 42
0.0000001
 43
0.0000001
 44
0.0000000001
 40
0.0
 40
0.0
 40
0.0
 40
0.0
 40
0.432603248
 40
1.0
 40
1.0
 40
1.0
 40
1.0
 10
-106.4249899409
 20
29.5347997203
 30
0.0
 10
-106.4249927727
 20
29.5177786174
 30
0.0
 10
-106.4432672941
 20
29.4788700595
 30
0.0
 10
-106.4772666074
 20
29.4570148316
 30
0.0
 10
-106.4971875389
 20
29.446937791
 30
0.0
  0
SPLINE
  5
475
100
AcDbEntity
  8
0
100
AcDbSpline
 62
250
  6
CONTINUOUS
 70
0
 71
3
 72
10
 73
6
 74
0
 42
0.0000001
 43
0.0000001
 44
0.0000000001
 40
0.0
 40
0.0
 40
0.0
 40
0.0
 40
0.2309050423
 40
0.4904004652
 40
1.0
 40
1.0
 40
1.0
 40
1.0
 10
-94.3703032499
 20
23.9475298503
 30
0.0
 10
-94.3450640891
 20
23.9350552126
 30
0.0
 10
-94.2967658515
 20
23.8975298493
 30
0.0
 10
-94.2236604454
 20
23.7995241093
 30
0.0
 10
-94.1932368232
 20
23.7047739147
 30
0.0
 10
-94.1935295463
 20
23.6426403114
 30
0.0
  0
SPLINE
  5
476
100
AcDbEntity
  8
0
100
AcDbSpline
 62
7
  6
CONTINUOUS
 70
0
 71
3
 72
10
 73
6
 74
0
 42
0.0000001
 43
0.0000001
 44
0.0000000001
 40
0.0
 40
0.0
 40
0.0
 40
0.0
 40
0.2306385419
 40
0.4902623596
 40
1.0
 40
1.0
 40
1.0
 40
1.0
 10
-94.8985704217
 20
23.6840910302
 30
0.0
 10
-94.8734364249
 20
23.6715240318
 30
0.0
 10
-94.8253465401
 20
23.6338590424
 30
0.0
 10
-94.7524390145
 20
23.5358428147
 30
0.0
 10
-94.721796718
 20
23.4413071801
 30
0.0
 10
-94.721796718
 20
23.3792014914
 30
0.0
  0
SPLINE
  5
477
100
AcDbEntity
  8
0
100
AcDbSpline
 62
250
  6
CONTINUOUS
 70
0
 71
3
 72
10
 73
6
 74
0
 42
0.0000001
 43
0.0000001
 44
0.0000000001
 40
0.0
 40
0.0
 40
0.0
 40
0.0
 40
0.2303736422
 40
0.4901249184
 40
1.0
 40
1.0
 40
1.0
 40
1.0
 10
-96.4998512125
 20
22.8813690267
 30
0.0
 10
-96.4748237947
 20
22.868707822
 30
0.0
 10
-96.4269452027
 20
22.8309016273
 30
0.0
 10
-96.3542367735
 20
22.7328743268
 30
0.0
 10
-96.3233747926
 20
22.6385555919
 30
0.0
 10
-96.3230775088
 20
22.5764794879
 30
0.0
  0
SPLINE
  5
478
100
AcDbEntity
  8
0
100
AcDbSpline
 62
250
  6
CONTINUOUS
 70
0
 71
3
 72
10
 73
6
 74
0
 42
0.0000001
 43
0.0000001
 44
0.0000000001
 40
0.0
 40
0.0
 40
0.0
 40
0.0
 40
0.2309050423
 40
0.4904004652
 40
1.0
 40
1.0
 40
1.0
 40
1.0
 10
-106.6739612426
 20
30.0993588466
 30
0.0
 10
-106.6487220817
 20
30.0868842089
 30
0.0
 10
-106.6004238441
 20
30.0493588456
 30
0.0
 10
-106.527318438
 20
29.9513531056
 30
0.0
 10
-106.4968948158
 20
29.856602911
 30
0.0
 10
-106.4971875389
 20
29.7944693078
 30
0.0
  0
SPLINE
  5
479
100
AcDbEntity
  8
0
100
AcDbSpline
 62
7
  6
CONTINUOUS
 70
0
 71
3
 72
10
 73
6
 74
0
 42
0.0000001
 43
0.0000001
 44
0.0000000001
 40
0.0
 40
0.0
 40
0.0
 40
0.0
 40
0.2306385419
 40
0.4902623596
 40
1.0
 40
1.0
 40
1.0
 40
1.0
 10
-107.2022284143
 20
29.8359200266
 30
0.0
 10
-107.1770944176
 20
29.8233530282
 30
0.0
 10
-107.1290045327
 20
29.7856880387
 30
0.0
 10
-107.0560970071
 20
29.687671811
 30
0.0
 10
-107.0254547107
 20
29.5931361764
 30
0.0
 10
-107.0254547107
 20
29.5310304877
 30
0.0
  0
SPLINE
  5
47A
100
AcDbEntity
  8
0
100
AcDbSpline
 62
250
  6
CONTINUOUS
 70
0
 71
3
 72
10
 73
6
 74
0
 42
0.0000001
 43
0.0000001
 44
0.0000000001
 40
0.0
 40
0.0
 40
0.0
 40
0.0
 40
0.2303738042
 40
0.4901250418
 40
1.0
 40
1.0
 40
1.0
 40
1.0
 10
-108.8035092052
 20
29.0331980231
 30
0.0
 10
-108.7784817697
 20
29.0205368094
 30
0.0
 10
-108.7306031706
 20
28.9827305964
 30
0.0
 10
-108.6578947521
 20
28.8847032893
 30
0.0
 10
-108.6270327851
 20
28.7903845733
 30
0.0
 10
-108.6267355015
 20
28.7283084842
 30
0.0
  0
SPLINE
  5
47B
100
AcDbEntity
  8
0
100
AcDbSpline
 62
250
  6
CONTINUOUS
 70
0
 71
3
 72
9
 73
5
 74
0
 42
0.0000001
 43
0.0000001
 44
0.0000000001
 40
0.0
 40
0.0
 40
0.0
 40
0.0
 40
0.4326529399
 40
1.0
 40
1.0
 40
1.0
 40
1.0
 10
-94.1213320915
 20
-18.2642888528
 30
0.0
 10
-94.1213686069
 20
-18.2812950277
 30
0.0
 10
-94.139669845
 20
-18.3201293166
 30
0.0
 10
-94.1736300693
 20
-18.3419606737
 30
0.0
 10
-94.1935295463
 20
-18.3520268614
 30
0.0
  0
SPLINE
  5
47C
100
AcDbEntity
  8
0
100
AcDbSpline
 62
250
  6
CONTINUOUS
 70
0
 71
3
 72
9
 73
5
 74
0
 42
0.0000001
 43
0.0000001
 44
0.0000000001
 40
0.0
 40
0.0
 40
0.0
 40
0.0
 40
0.5515141538
 40
1.0
 40
1.0
 40
1.0
 40
1.0
 10
-108.9792574611
 20
28.388847274
 30
0.0
 10
-108.9792574611
 20
28.3601853138
 30
0.0
 10
-108.9718881166
 20
28.3068698923
 30
0.0
 10
-108.9351380278
 20
28.2640583727
 30
0.0
 10
-108.9142921258
 20
28.2536327497
 30
0.0
  0
SPLINE
  5
47D
100
AcDbEntity
  8
0
100
AcDbSpline
 62
250
  6
CONTINUOUS
 70
0
 71
3
 72
9
 73
5
 74
0
 42
0.0000001
 43
0.0000001
 44
0.0000000001
 40
0.0
 40
0.0
 40
0.0
 40
0.0
 40
0.551515935
 40
1.0
 40
1.0
 40
1.0
 40
1.0
 10
-110.6577955315
 20
29.2281163092
 30
0.0
 10
-110.6577955315
 20
29.1994527098
 30
0.0
 10
-110.6504255472
 20
29.1461340315
 30
0.0
 10
-110.6136701914
 20
29.1033219791
 30
0.0
 10
-110.5928222577
 20
29.0928978139
 30
0.0
  0
SPLINE
  5
47E
100
AcDbEntity
  8
0
100
AcDbSpline
 62
250
  6
CONTINUOUS
 70
0
 71
3
 72
11
 73
7
 74
0
 42
0.0000001
 43
0.0000001
 44
0.0000000001
 40
0.0
 40
0.0
 40
0.0
 40
0.0
 40
0.2776558679
 40
0.5374733441
 40
0.7760959182
 40
1.0
 40
1.0
 40
1.0
 40
1.0
 10
-108.6267355015
 20
28.3883345501
 30
0.0
 10
-108.6366074118
 20
28.3626346363
 30
0.0
 10
-108.6623832887
 20
28.3150772467
 30
0.0
 10
-108.7178925004
 20
28.2599957054
 30
0.0
 10
-108.7842835941
 20
28.2289215786
 30
0.0
 10
-108.8318466396
 20
28.2279758434
 30
0.0
 10
-108.8535789983
 20
28.2325133737
 30
0.0
  0
SPLINE
  5
47F
100
AcDbEntity
  8
0
100
AcDbSpline
 62
250
  6
CONTINUOUS
 70
0
 71
3
 72
9
 73
5
 74
0
 42
0.0000001
 43
0.0000001
 44
0.0000000001
 40
0.0
 40
0.0
 40
0.0
 40
0.0
 40
0.5509311577
 40
1.0
 40
1.0
 40
1.0
 40
1.0
 10
-94.1935295463
 20
-18.3520268614
 30
0.0
 10
-94.1933950858
 20
-18.3804314936
 30
0.0
 10
-94.2004779697
 20
-18.4333510852
 30
0.0
 10
-94.236616824
 20
-18.4760229891
 30
0.0
 10
-94.2572176224
 20
-18.4865905965
 30
0.0
  0
SPLINE
  5
480
100
AcDbEntity
  8
0
100
AcDbSpline
 62
250
  6
CONTINUOUS
 70
0
 71
3
 72
10
 73
6
 74
0
 42
0.0000001
 43
0.0000001
 44
0.0000000001
 40
0.0
 40
0.0
 40
0.0
 40
0.0
 40
0.348992152
 40
0.6281611902
 40
1.0
 40
1.0
 40
1.0
 40
1.0
 10
-106.4971875389
 20
29.446937791
 30
0.0
 10
-106.4925998323
 20
29.439469214
 30
0.0
 10
-106.4849868243
 20
29.4254239372
 30
0.0
 10
-106.4761356873
 20
29.402518904
 30
0.0
 10
-106.4758990309
 20
29.3833188835
 30
0.0
 10
-106.481827041
 20
29.3761026856
 30
0.0
  0
SPLINE
  5
481
100
AcDbEntity
  8
0
100
AcDbSpline
 62
7
  6
CONTINUOUS
 70
0
 71
3
 72
9
 73
5
 74
0
 42
0.0000001
 43
0.0000001
 44
0.0000000001
 40
0.0
 40
0.0
 40
0.0
 40
0.0
 40
0.5513163476
 40
1.0
 40
1.0
 40
1.0
 40
1.0
 10
-94.721796718
 20
-18.6230379201
 30
0.0
 10
-94.721796718
 20
-18.6515214485
 30
0.0
 10
-94.7290964603
 20
-18.7044827045
 30
0.0
 10
-94.7652762076
 20
-18.7472352632
 30
0.0
 10
-94.7859018562
 20
-18.757815615
 30
0.0
  0
SPLINE
  5
482
100
AcDbEntity
  8
0
100
AcDbSpline
 62
250
  6
CONTINUOUS
 70
0
 71
3
 72
8
 73
4
 74
0
 42
0.0000001
 43
0.0000001
 44
0.0000000001
 40
0.0
 40
0.0
 40
0.0
 40
0.0
 40
1.0
 40
1.0
 40
1.0
 40
1.0
 10
-94.2595282678
 20
-17.6930158696
 30
0.0
 10
-94.2669139352
 20
-17.6893229656
 30
0.0
 10
-94.2748574767
 20
-17.6866031761
 30
0.0
 10
-94.2829433416
 20
-17.6849285387
 30
0.0
  0
SPLINE
  5
483
100
AcDbEntity
  8
0
100
AcDbSpline
 62
250
  6
CONTINUOUS
 70
0
 71
3
 72
9
 73
5
 74
0
 42
0.0000001
 43
0.0000001
 44
0.0000000001
 40
0.0
 40
0.0
 40
0.0
 40
0.0
 40
0.5520644344
 40
1.0
 40
1.0
 40
1.0
 40
1.0
 10
-96.3230775088
 20
-19.4030725197
 30
0.0
 10
-96.3232151932
 20
-19.4319586143
 30
0.0
 10
-96.3308625441
 20
-19.4856014695
 30
0.0
 10
-96.3681238336
 20
-19.5285382674
 30
0.0
 10
-96.3891750292
 20
-19.5388428513
 30
0.0
  0
SPLINE
  5
484
100
AcDbEntity
  8
0
100
AcDbSpline
 62
250
  6
CONTINUOUS
 70
0
 71
3
 72
9
 73
5
 74
0
 42
0.0000001
 43
0.0000001
 44
0.0000000001
 40
0.0
 40
0.0
 40
0.0
 40
0.0
 40
0.5515152678
 40
1.0
 40
1.0
 40
1.0
 40
1.0
 10
-96.6755994685
 20
22.2370182776
 30
0.0
 10
-96.6755994685
 20
22.2083551943
 30
0.0
 10
-96.6682296837
 20
22.1550375329
 30
0.0
 10
-96.6314759727
 20
22.1122256375
 30
0.0
 10
-96.6106286652
 20
22.1018010176
 30
0.0
  0
SPLINE
  5
485
100
AcDbEntity
  8
0
100
AcDbSpline
 62
250
  6
CONTINUOUS
 70
0
 71
3
 72
9
 73
5
 74
0
 42
0.0000001
 43
0.0000001
 44
0.0000000001
 40
0.0
 40
0.0
 40
0.0
 40
0.0
 40
0.5495031829
 40
1.0
 40
1.0
 40
1.0
 40
1.0
 10
-98.3541375389
 20
23.0762873128
 30
0.0
 10
-98.3541375389
 20
23.0492518552
 30
0.0
 10
-98.3473975952
 20
22.999090068
 30
0.0
 10
-98.3156069944
 20
22.9570452954
 30
0.0
 10
-98.2967884059
 20
22.945335484
 30
0.0
  0
SPLINE
  5
486
100
AcDbEntity
  8
0
100
AcDbSpline
 62
7
  6
CONTINUOUS
 70
0
 71
3
 72
9
 73
5
 74
0
 42
0.0000001
 43
0.0000001
 44
0.0000000001
 40
0.0
 40
0.0
 40
0.0
 40
0.0
 40
0.2599230167
 40
1.0
 40
1.0
 40
1.0
 40
1.0
 10
-95.6118569007
 20
22.0880020309
 30
0.0
 10
-95.6313084381
 20
22.0647136697
 30
0.0
 10
-95.7145267934
 20
21.9845092887
 30
0.0
 10
-95.8411545413
 20
21.9326922651
 30
0.0
 10
-95.9257264093
 20
21.9503520206
 30
0.0
  0
SPLINE
  5
487
100
AcDbEntity
  8
0
100
AcDbSpline
 62
250
  6
CONTINUOUS
 70
0
 71
3
 72
11
 73
7
 74
0
 42
0.0000001
 43
0.0000001
 44
0.0000000001
 40
0.0
 40
0.0
 40
0.0
 40
0.0
 40
0.2776557571
 40
0.5374732693
 40
0.7760958841
 40
1.0
 40
1.0
 40
1.0
 40
1.0
 10
-96.3230775088
 20
22.2365055538
 30
0.0
 10
-96.3329494152
 20
22.2108056502
 30
0.0
 10
-96.3587252856
 20
22.1632482667
 30
0.0
 10
-96.4142344883
 20
22.1081667207
 30
0.0
 10
-96.4806255901
 20
22.077092584
 30
0.0
 10
-96.5281886437
 20
22.0761468464
 30
0.0
 10
-96.5499210056
 20
22.0806843774
 30
0.0
  0
SPLINE
  5
488
100
AcDbEntity
  8
0
100
AcDbSpline
 62
250
  6
CONTINUOUS
 70
0
 71
3
 72
10
 73
6
 74
0
 42
0.0000001
 43
0.0000001
 44
0.0000000001
 40
0.0
 40
0.0
 40
0.0
 40
0.0
 40
0.348992152
 40
0.6281611902
 40
1.0
 40
1.0
 40
1.0
 40
1.0
 10
-94.1935295463
 20
23.2951087947
 30
0.0
 10
-94.1889418397
 20
23.2876402176
 30
0.0
 10
-94.1813288317
 20
23.2735949409
 30
0.0
 10
-94.1724776947
 20
23.2506899077
 30
0.0
 10
-94.1722410383
 20
23.2314898871
 30
0.0
 10
-94.1781690484
 20
23.2242736893
 30
0.0
  0
SPLINE
  5
489
100
AcDbEntity
  8
0
100
AcDbSpline
 62
7
  6
CONTINUOUS
 70
0
 71
3
 72
10
 73
6
 74
0
 42
0.0000001
 43
0.0000001
 44
0.0000000001
 40
0.0
 40
0.0
 40
0.0
 40
0.0
 40
0.233116016
 40
0.6152277985
 40
1.0
 40
1.0
 40
1.0
 40
1.0
 10
-108.2293835824
 20
28.1021827656
 30
0.0
 10
-108.2022946445
 20
28.0965164642
 30
0.0
 10
-108.1273661205
 20
28.0979498772
 30
0.0
 10
-108.0151817153
 20
28.1443936706
 30
0.0
 10
-107.9447978594
 20
28.2047719839
 30
0.0
 10
-107.9155148934
 20
28.2398310272
 30
0.0
  0
SPLINE
  5
48A
100
AcDbEntity
  8
0
100
AcDbSpline
 62
250
  6
CONTINUOUS
 70
0
 71
3
 72
9
 73
5
 74
0
 42
0.0000001
 43
0.0000001
 44
0.0000000001
 40
0.0
 40
0.0
 40
0.0
 40
0.0
 40
0.4633167549
 40
1.0
 40
1.0
 40
1.0
 40
1.0
 10
-110.5951329028
 20
29.8789149576
 30
0.0
 10
-110.5791269078
 20
29.8871255638
 30
0.0
 10
-110.5387262932
 20
29.8941630871
 30
0.0
 10
-110.5007283412
 20
29.8816987702
 30
0.0
 10
-110.4820472756
 20
29.8724670583
 30
0.0
  0
SPLINE
  5
48B
100
AcDbEntity
  8
0
100
AcDbSpline
 62
250
  6
CONTINUOUS
 70
0
 71
3
 72
9
 73
5
 74
0
 42
0.0000001
 43
0.0000001
 44
0.0000000001
 40
0.0
 40
0.0
 40
0.0
 40
0.0
 40
0.4641049799
 40
1.0
 40
1.0
 40
1.0
 40
1.0
 10
-108.4753528342
 20
30.9525332682
 30
0.0
 10
-108.4595189134
 20
30.960245706
 30
0.0
 10
-108.4199912417
 20
30.96650787
 30
0.0
 10
-108.3829881309
 20
30.9539777264
 30
0.0
 10
-108.3648407937
 20
30.9447986222
 30
0.0
  0
SPLINE
  5
48C
100
AcDbEntity
  8
0
100
AcDbSpline
 62
7
  6
CONTINUOUS
 70
0
 71
3
 72
9
 73
5
 74
0
 42
0.0000001
 43
0.0000001
 44
0.0000000001
 40
0.0
 40
0.0
 40
0.0
 40
0.0
 40
0.4638305671
 40
1.0
 40
1.0
 40
1.0
 40
1.0
 10
-109.0102227906
 20
30.6919811676
 30
0.0
 10
-108.9943455137
 20
30.6997147249
 30
0.0
 10
-108.9547054853
 20
30.706005702
 30
0.0
 10
-108.917550323
 20
30.6935809809
 30
0.0
 10
-108.8992906724
 20
30.6844511556
 30
0.0
  0
SPLINE
  5
48D
100
AcDbEntity
  8
0
100
AcDbSpline
 62
250
  6
CONTINUOUS
 70
0
 71
3
 72
9
 73
5
 74
0
 42
0.0000001
 43
0.0000001
 44
0.0000000001
 40
0.0
 40
0.0
 40
0.0
 40
0.0
 40
0.4633167549
 40
1.0
 40
1.0
 40
1.0
 40
1.0
 10
-98.2914749102
 20
23.7270859612
 30
0.0
 10
-98.2754689151
 20
23.7352965675
 30
0.0
 10
-98.2350683005
 20
23.7423340908
 30
0.0
 10
-98.1970703485
 20
23.7298697738
 30
0.0
 10
-98.1783892829
 20
23.7206380619
 30
0.0
  0
SPLINE
  5
48E
100
AcDbEntity
  8
0
100
AcDbSpline
 62
250
  6
CONTINUOUS
 70
0
 71
3
 72
9
 73
5
 74
0
 42
0.0000001
 43
0.0000001
 44
0.0000000001
 40
0.0
 40
0.0
 40
0.0
 40
0.0
 40
0.4657827872
 40
1.0
 40
1.0
 40
1.0
 40
1.0
 10
-96.161884465
 20
24.8048120077
 30
0.0
 10
-96.1467328442
 20
24.8101723105
 30
0.0
 10
-96.1109047116
 20
24.8129683225
 30
0.0
 10
-96.0776315395
 20
24.8012895619
 30
0.0
 10
-96.0611828011
 20
24.7929696258
 30
0.0
  0
SPLINE
  5
48F
100
AcDbEntity
  8
0
100
AcDbSpline
 62
7
  6
CONTINUOUS
 70
0
 71
3
 72
9
 73
5
 74
0
 42
0.0000001
 43
0.0000001
 44
0.0000000001
 40
0.0
 40
0.0
 40
0.0
 40
0.0
 40
0.4638305671
 40
1.0
 40
1.0
 40
1.0
 40
1.0
 10
-96.706564798
 20
24.5401521712
 30
0.0
 10
-96.690687521
 20
24.5478857285
 30
0.0
 10
-96.6510474926
 20
24.5541767057
 30
0.0
 10
-96.6138923304
 20
24.5417519846
 30
0.0
 10
-96.5956326798
 20
24.5326221593
 30
0.0
  0
SPLINE
  5
490
100
AcDbEntity
  8
0
100
AcDbSpline
 62
250
  6
CONTINUOUS
 70
0
 71
3
 72
8
 73
4
 74
0
 42
0.0000001
 43
0.0000001
 44
0.0000000001
 40
0.0
 40
0.0
 40
0.0
 40
0.0
 40
1.0
 40
1.0
 40
1.0
 40
1.0
 10
-94.1935295463
 20
-18.0044953447
 30
0.0
 10
-94.1769461894
 20
-17.9607209519
 30
0.0
 10
-94.1699990668
 20
-17.9120167794
 30
0.0
 10
-94.1742249648
 20
-17.8653976098
 30
0.0
  0
SPLINE
  5
491
100
AcDbEntity
  8
0
100
AcDbSpline
 62
250
  6
CONTINUOUS
 70
0
 71
3
 72
8
 73
4
 74
0
 42
0.0000001
 43
0.0000001
 44
0.0000000001
 40
0.0
 40
0.0
 40
0.0
 40
0.0
 40
1.0
 40
1.0
 40
1.0
 40
1.0
 10
-94.1742249648
 20
-17.8653976098
 30
0.0
 10
-94.1755965745
 20
-17.8502663156
 30
0.0
 10
-94.1781432408
 20
-17.8351874522
 30
0.0
 10
-94.1819298712
 20
-17.8204735538
 30
0.0
  0
SPLINE
  5
492
100
AcDbEntity
  8
0
100
AcDbSpline
 62
250
  6
CONTINUOUS
 70
0
 71
3
 72
8
 73
4
 74
0
 42
0.0000001
 43
0.0000001
 44
0.0000000001
 40
0.0
 40
0.0
 40
0.0
 40
0.0
 40
1.0
 40
1.0
 40
1.0
 40
1.0
 10
-94.1819298712
 20
-17.8204735538
 30
0.0
 10
-94.1855796217
 20
-17.8062915363
 30
0.0
 10
-94.1904086402
 20
-17.7923494396
 30
0.0
 10
-94.1964551438
 20
-17.7790118951
 30
0.0
  0
SPLINE
  5
493
100
AcDbEntity
  8
0
100
AcDbSpline
 62
250
  6
CONTINUOUS
 70
0
 71
3
 72
9
 73
5
 74
0
 42
0.0000001
 43
0.0000001
 44
0.0000000001
 40
0.0
 40
0.0
 40
0.0
 40
0.0
 40
0.264414677
 40
1.0
 40
1.0
 40
1.0
 40
1.0
 10
-94.1964551438
 20
-17.7790118951
 30
0.0
 10
-94.2008211183
 20
-17.7693813082
 30
0.0
 10
-94.2196411219
 20
-17.7341130752
 30
0.0
 10
-94.2491056515
 20
-17.7040465515
 30
0.0
 10
-94.2746132134
 20
-17.689394534
 30
0.0
  0
SPLINE
  5
494
100
AcDbEntity
  8
0
100
AcDbSpline
 62
250
  6
CONTINUOUS
 70
0
 71
3
 72
9
 73
5
 74
0
 42
0.0000001
 43
0.0000001
 44
0.0000000001
 40
0.0
 40
0.0
 40
0.0
 40
0.0
 40
0.551514305
 40
1.0
 40
1.0
 40
1.0
 40
1.0
 10
-96.6755994685
 20
-19.4025597959
 30
0.0
 10
-96.6755994685
 20
-19.4312233086
 30
0.0
 10
-96.6682294968
 20
-19.4845415057
 30
0.0
 10
-96.631474607
 20
-19.5273548973
 30
0.0
 10
-96.6106261088
 20
-19.5377781193
 30
0.0
  0
SPLINE
  5
495
100
AcDbEntity
  8
0
100
AcDbSpline
 62
250
  6
CONTINUOUS
 70
0
 71
3
 72
9
 73
5
 74
0
 42
0.0000001
 43
0.0000001
 44
0.0000000001
 40
0.0
 40
0.0
 40
0.0
 40
0.0
 40
0.5649858295
 40
1.0
 40
1.0
 40
1.0
 40
1.0
 10
-98.3541375389
 20
23.0762873128
 30
0.0
 10
-98.3731696657
 20
23.0858033762
 30
0.0
 10
-98.4055971777
 20
23.1064448141
 30
0.0
 10
-98.425319345
 20
23.1418617867
 30
0.0
 10
-98.4270205778
 20
23.1581567775
 30
0.0
  0
SPLINE
  5
496
100
AcDbEntity
  8
0
100
AcDbSpline
 62
250
  6
CONTINUOUS
 70
0
 71
3
 72
11
 73
7
 74
0
 42
0.0000001
 43
0.0000001
 44
0.0000000001
 40
0.0
 40
0.0
 40
0.0
 40
0.0
 40
0.2351713009
 40
0.4995791941
 40
0.7642135602
 40
1.0
 40
1.0
 40
1.0
 40
1.0
 10
-96.6755994685
 20
-19.0625858617
 30
0.0
 10
-96.6502061494
 20
-19.0752825213
 30
0.0
 10
-96.5918619844
 20
-19.0934268183
 30
0.0
 10
-96.4995269094
 20
-19.1021824646
 30
0.0
 10
-96.4070925855
 20
-19.0936803801
 30
0.0
 10
-96.348596017
 20
-19.0757102361
 30
0.0
 10
-96.3230775088
 20
-19.0630985856
 30
0.0
  0
SPLINE
  5
497
100
AcDbEntity
  8
0
100
AcDbSpline
 62
250
  6
CONTINUOUS
 70
0
 71
3
 72
11
 73
7
 74
0
 42
0.0000001
 43
0.0000001
 44
0.0000000001
 40
0.0
 40
0.0
 40
0.0
 40
0.0
 40
0.2351711086
 40
0.4995790016
 40
0.7642134063
 40
1.0
 40
1.0
 40
1.0
 40
1.0
 10
-96.6755994685
 20
-19.4025597959
 30
0.0
 10
-96.6502061701
 20
-19.4152564451
 30
0.0
 10
-96.5918620314
 20
-19.4334007434
 30
0.0
 10
-96.4995269752
 20
-19.4421563989
 30
0.0
 10
-96.4070926277
 20
-19.4336543228
 30
0.0
 10
-96.3485960337
 20
-19.4156841784
 30
0.0
 10
-96.3230775088
 20
-19.4030725197
 30
0.0
  0
SPLINE
  5
498
100
AcDbEntity
  8
0
100
AcDbSpline
 62
250
  6
CONTINUOUS
 70
0
 71
3
 72
11
 73
7
 74
0
 42
0.0000001
 43
0.0000001
 44
0.0000000001
 40
0.0
 40
0.0
 40
0.0
 40
0.0
 40
0.2188690737
 40
0.4829783008
 40
0.7560361435
 40
1.0
 40
1.0
 40
1.0
 40
1.0
 10
-96.3230775088
 20
-19.0630985856
 30
0.0
 10
-96.3367038114
 20
-19.0410933904
 30
0.0
 10
-96.3727297348
 20
-18.9963210537
 30
0.0
 10
-96.436837823
 20
-18.9338424056
 30
0.0
 10
-96.5094669533
 20
-18.8765174377
 30
0.0
 10
-96.5614842381
 20
-18.843947602
 30
0.0
 10
-96.5872111208
 20
-18.8308916879
 30
0.0
  0
SPLINE
  5
499
100
AcDbEntity
  8
0
100
AcDbSpline
 62
7
  6
CONTINUOUS
 70
0
 71
3
 72
9
 73
5
 74
0
 42
0.0000001
 43
0.0000001
 44
0.0000000001
 40
0.0
 40
0.0
 40
0.0
 40
0.0
 40
0.4660627437
 40
1.0
 40
1.0
 40
1.0
 40
1.0
 10
-95.6118569007
 20
-18.2116021085
 30
0.0
 10
-95.6689342004
 20
-18.1996832967
 30
0.0
 10
-95.7885526168
 20
-18.1618090772
 30
0.0
 10
-95.9051452247
 20
-18.1157062025
 30
0.0
 10
-95.9648930888
 20
-18.0858322704
 30
0.0
  0
SPLINE
  5
49A
100
AcDbEntity
  8
0
100
AcDbSpline
 62
250
  6
CONTINUOUS
 70
0
 71
3
 72
9
 73
5
 74
0
 42
0.0000001
 43
0.0000001
 44
0.0000000001
 40
0.0
 40
0.0
 40
0.0
 40
0.0
 40
0.4868892324
 40
1.0
 40
1.0
 40
1.0
 40
1.0
 10
-96.6755994685
 20
-19.0625858617
 30
0.0
 10
-96.6755994685
 20
-19.021783193
 30
0.0
 10
-96.6571203311
 20
-18.9379470326
 30
0.0
 10
-96.6146431234
 20
-18.8640050442
 30
0.0
 10
-96.5872111208
 20
-18.8308916879
 30
0.0
  0
SPLINE
  5
49B
100
AcDbEntity
  8
0
100
AcDbSpline
 62
250
  6
CONTINUOUS
 70
0
 71
3
 72
9
 73
5
 74
0
 42
0.0000001
 43
0.0000001
 44
0.0000000001
 40
0.0
 40
0.0
 40
0.0
 40
0.0
 40
0.5679894356
 40
1.0
 40
1.0
 40
1.0
 40
1.0
 10
-98.3541375389
 20
23.416261247
 30
0.0
 10
-98.374317642
 20
23.4263512985
 30
0.0
 10
-98.4087555474
 20
23.4482340855
 30
0.0
 10
-98.4273605055
 20
23.4874889935
 30
0.0
 10
-98.4273605854
 20
23.5046495946
 30
0.0
  0
SPLINE
  5
49C
100
AcDbEntity
  8
0
100
AcDbSpline
 62
250
  6
CONTINUOUS
 70
0
 71
3
 72
9
 73
5
 74
0
 42
0.0000001
 43
0.0000001
 44
0.0000000001
 40
0.0
 40
0.0
 40
0.0
 40
0.0
 40
0.4641675224
 40
1.0
 40
1.0
 40
1.0
 40
1.0
 10
-106.5631863464
 20
30.1059486111
 30
0.0
 10
-106.5789685295
 20
30.1138389251
 30
0.0
 10
-106.6184946481
 20
30.1205260845
 30
0.0
 10
-106.6556909595
 20
30.1083638058
 30
0.0
 10
-106.6739612426
 20
30.0993588466
 30
0.0
  0
SPLINE
  5
49D
100
AcDbEntity
  8
0
100
AcDbSpline
 62
250
  6
CONTINUOUS
 70
0
 71
3
 72
9
 73
5
 74
0
 42
0.0000001
 43
0.0000001
 44
0.0000000001
 40
0.0
 40
0.0
 40
0.0
 40
0.0
 40
0.4658745477
 40
1.0
 40
1.0
 40
1.0
 40
1.0
 10
-108.2640075678
 20
30.9556623492
 30
0.0
 10
-108.2791171061
 20
30.9611549726
 30
0.0
 10
-108.3149149315
 20
30.9642836641
 30
0.0
 10
-108.3483076912
 20
30.9529473692
 30
0.0
 10
-108.3648407937
 20
30.9447986222
 30
0.0
  0
SPLINE
  5
49E
100
AcDbEntity
  8
0
100
AcDbSpline
 62
250
  6
CONTINUOUS
 70
0
 71
3
 72
9
 73
5
 74
0
 42
0.0000001
 43
0.0000001
 44
0.0000000001
 40
0.0
 40
0.0
 40
0.0
 40
0.0
 40
0.4641675224
 40
1.0
 40
1.0
 40
1.0
 40
1.0
 10
-94.2595283537
 20
23.9541196147
 30
0.0
 10
-94.2753105368
 20
23.9620099288
 30
0.0
 10
-94.3148366555
 20
23.9686970882
 30
0.0
 10
-94.3520329669
 20
23.9565348095
 30
0.0
 10
-94.3703032499
 20
23.9475298503
 30
0.0
  0
SPLINE
  5
49F
100
AcDbEntity
  8
0
100
AcDbSpline
 62
250
  6
CONTINUOUS
 70
0
 71
3
 72
9
 73
5
 74
0
 42
0.0000001
 43
0.0000001
 44
0.0000000001
 40
0.0
 40
0.0
 40
0.0
 40
0.0
 40
0.4641677465
 40
1.0
 40
1.0
 40
1.0
 40
1.0
 10
-95.9504079045
 20
24.799559391
 30
0.0
 10
-95.9661900954
 20
24.8074497086
 30
0.0
 10
-96.0057162169
 20
24.8141368623
 30
0.0
 10
-96.0429125256
 20
24.8019745813
 30
0.0
 10
-96.0611828011
 20
24.7929696258
 30
0.0
  0
SPLINE
  5
4A0
100
AcDbEntity
  8
DRAFT
100
AcDbSpline
 62
7
  6
CONTINUOUS
 70
0
 71
3
 72
9
 73
5
 74
0
 42
0.0000001
 43
0.0000001
 44
0.0000000001
 40
0.0
 40
0.0
 40
0.0
 40
0.0
 40
0.2639630814
 40
1.0
 40
1.0
 40
1.0
 40
1.0
 10
-97.7442551563
 20
17.9783072657
 30
0.0
 10
-97.7138251968
 20
17.9718041671
 30
0.0
 10
-97.5975149881
 20
17.9527949501
 30
0.0
 10
-97.4762837063
 20
17.9592272864
 30
0.0
 10
-97.3923887988
 20
17.9813673013
 30
0.0
  0
SPLINE
  5
4A1
100
AcDbEntity
  8
RACCORDO
100
AcDbSpline
 62
7
  6
CONTINUOUS
 70
0
 71
3
 72
23
 73
19
 74
0
 42
0.0000001
 43
0.0000001
 44
0.0000000001
 40
0.0
 40
0.0
 40
0.0
 40
0.0
 40
0.0632671157
 40
0.1290362223
 40
0.1968443028
 40
0.266092535
 40
0.3360918371
 40
0.4061078036
 40
0.4754050388
 40
0.5432914675
 40
0.6091632408
 40
0.6725502635
 40
0.7331610164
 40
0.7909221055
 40
0.8460023826
 40
0.8988051475
 40
0.9499136735
 40
1.0
 40
1.0
 40
1.0
 40
1.0
 10
-77.7176147092
 20
25.1125794942
 30
0.0
 10
-77.6218622025
 20
25.0423323929
 30
0.0
 10
-77.4347481605
 20
24.8876499522
 30
0.0
 10
-77.175133046
 20
24.6239619501
 30
0.0
 10
-76.9344562982
 20
24.3282696106
 30
0.0
 10
-76.716637407
 20
24.0057915356
 30
0.0
 10
-76.5253173609
 20
23.6621849277
 30
0.0
 10
-76.3638136189
 20
23.3034974832
 30
0.0
 10
-76.2349944686
 20
22.9359995906
 30
0.0
 10
-76.1412245464
 20
22.5660187854
 30
0.0
 10
-76.0843502335
 20
22.1997642835
 30
0.0
 10
-76.0657459007
 20
21.8431730185
 30
0.0
 10
-76.0864206283
 20
21.5018189848
 30
0.0
 10
-76.1471765727
 20
21.1809518048
 30
0.0
 10
-76.2486985379
 20
20.8857766372
 30
0.0
 10
-76.3914745981
 20
20.6219363833
 30
0.0
 10
-76.5748495252
 20
20.3962061831
 30
0.0
 10
-76.7235238491
 20
20.2752878292
 30
0.0
 10
-76.8024661667
 20
20.2242286047
 30
0.0
  0
SPLINE
  5
4A2
100
AcDbEntity
  8
RACCORDO
100
AcDbSpline
 62
7
  6
CONTINUOUS
 70
0
 71
3
 72
23
 73
19
 74
0
 42
0.0000001
 43
0.0000001
 44
0.0000000001
 40
0.0
 40
0.0
 40
0.0
 40
0.0
 40
0.0632671157
 40
0.1290362223
 40
0.1968443028
 40
0.266092535
 40
0.3360918371
 40
0.4061078036
 40
0.4754050388
 40
0.5432914675
 40
0.6091632408
 40
0.6725502635
 40
0.7331610164
 40
0.7909221055
 40
0.8460023826
 40
0.8988051475
 40
0.9499136735
 40
1.0
 40
1.0
 40
1.0
 40
1.0
 10
-77.7176147092
 20
13.161428922
 30
0.0
 10
-77.6218622025
 20
13.0911818206
 30
0.0
 10
-77.4347481605
 20
12.93649938
 30
0.0
 10
-77.175133046
 20
12.6728113779
 30
0.0
 10
-76.9344562982
 20
12.3771190384
 30
0.0
 10
-76.716637407
 20
12.0546409634
 30
0.0
 10
-76.5253173609
 20
11.7110343554
 30
0.0
 10
-76.3638136189
 20
11.3523469109
 30
0.0
 10
-76.2349944686
 20
10.9848490184
 30
0.0
 10
-76.1412245464
 20
10.6148682132
 30
0.0
 10
-76.0843502335
 20
10.2486137113
 30
0.0
 10
-76.0657459007
 20
9.8920224463
 30
0.0
 10
-76.0864206283
 20
9.5506684126
 30
0.0
 10
-76.1471765727
 20
9.2298012325
 30
0.0
 10
-76.2486985379
 20
8.934626065
 30
0.0
 10
-76.3914745981
 20
8.6707858111
 30
0.0
 10
-76.5748495252
 20
8.4450556109
 30
0.0
 10
-76.7235238491
 20
8.324137257
 30
0.0
 10
-76.8024661667
 20
8.2730780324
 30
0.0
  0
SPLINE
  5
4A3
100
AcDbEntity
  8
RACCORDO
100
AcDbSpline
 62
250
  6
CONTINUOUS
 70
0
 71
3
 72
11
 73
7
 74
0
 42
0.0000001
 43
0.0000001
 44
0.0000000001
 40
0.0
 40
0.0
 40
0.0
 40
0.0
 40
0.2780070439
 40
0.5338892322
 40
0.7720586044
 40
1.0
 40
1.0
 40
1.0
 40
1.0
 10
-98.0785844311
 20
28.0051454879
 30
0.0
 10
-98.0711565488
 20
28.0087006362
 30
0.0
 10
-98.05631555
 20
28.0144329264
 30
0.0
 10
-98.0336359265
 20
28.0184586729
 30
0.0
 10
-98.0120747554
 20
28.0173472399
 30
0.0
 10
-97.9987471002
 20
28.0130586997
 30
0.0
 10
-97.9926617046
 20
28.0101337477
 30
0.0
  0
SPLINE
  5
4A4
100
AcDbEntity
  8
RACCORDO
100
AcDbSpline
 62
250
  6
CONTINUOUS
 70
0
 71
3
 72
19
 73
15
 74
0
 42
0.0000001
 43
0.0000001
 44
0.0000000001
 40
0.0
 40
0.0
 40
0.0
 40
0.0
 40
0.0542549267
 40
0.1085353699
 40
0.1640020383
 40
0.2212699897
 40
0.3420239029
 40
0.4708119243
 40
0.6058420355
 40
0.7438179607
 40
0.8122668861
 40
0.8788956369
 40
0.9421085071
 40
1.0
 40
1.0
 40
1.0
 40
1.0
 10
-99.0330982743
 20
27.8951397582
 30
0.0
 10
-99.016840957
 20
27.9026479134
 30
0.0
 10
-98.9846213662
 20
27.9183127879
 30
0.0
 10
-98.9358612743
 20
27.9418213719
 30
0.0
 10
-98.8854851398
 20
27.9642400068
 30
0.0
 10
-98.8137817461
 20
27.9925441195
 30
0.0
 10
-98.7169520688
 20
28.0227826277
 30
0.0
 10
-98.5924658601
 20
28.0485882159
 30
0.0
 10
-98.4604079509
 20
28.0627828264
 30
0.0
 10
-98.3474364156
 20
28.063242601
 30
0.0
 10
-98.2576183986
 20
28.0551103819
 30
0.0
 10
-98.1929836647
 20
28.0443296545
 30
0.0
 10
-98.1329761664
 20
28.0285054788
 30
0.0
 10
-98.0956748058
 20
28.0136906763
 30
0.0
 10
-98.0785844311
 20
28.0051454879
 30
0.0
  0
SPLINE
  5
4A5
100
AcDbEntity
  8
RACCORDO
100
AcDbSpline
 62
7
  6
CONTINUOUS
 70
0
 71
3
 72
11
 73
7
 74
0
 42
0.0000001
 43
0.0000001
 44
0.0000000001
 40
0.0
 40
0.0
 40
0.0
 40
0.0
 40
0.2875962894
 40
0.5471854635
 40
0.7820767778
 40
1.0
 40
1.0
 40
1.0
 40
1.0
 10
-99.072162195
 20
27.8786264783
 30
0.0
 10
-99.0909929627
 20
27.8876706612
 30
0.0
 10
-99.1280835503
 20
27.9024751999
 30
0.0
 10
-99.1840633997
 20
27.9140540004
 30
0.0
 10
-99.2362848929
 20
27.913323544
 30
0.0
 10
-99.2683834948
 20
27.9040418794
 30
0.0
 10
-99.2827542605
 20
27.8974051614
 30
0.0
  0
SPLINE
  5
4A6
100
AcDbEntity
  8
RACCORDO
100
AcDbSpline
 62
250
  6
CONTINUOUS
 70
0
 71
3
 72
11
 73
7
 74
0
 42
0.0000001
 43
0.0000001
 44
0.0000000001
 40
0.0
 40
0.0
 40
0.0
 40
0.0
 40
0.2279890549
 40
0.4659718287
 40
0.7217761559
 40
1.0
 40
1.0
 40
1.0
 40
1.0
 10
-78.6133269483
 20
27.6565038238
 30
0.0
 10
-78.6439233748
 20
27.671802296
 30
0.0
 10
-78.7111417006
 20
27.694451354
 30
0.0
 10
-78.8203136158
 20
27.7010324615
 30
0.0
 10
-78.9353052354
 20
27.6811321894
 30
0.0
 10
-79.0105452497
 20
27.6521628263
 30
0.0
 10
-79.0481998143
 20
27.6341405234
 30
0.0
  0
SPLINE
  5
4A7
100
AcDbEntity
  8
RACCORDO
100
AcDbSpline
 62
250
  6
CONTINUOUS
 70
0
 71
3
 72
11
 73
7
 74
0
 42
0.0000001
 43
0.0000001
 44
0.0000000001
 40
0.0
 40
0.0
 40
0.0
 40
0.0
 40
0.2278650143
 40
0.4657801303
 40
0.7216148653
 40
1.0
 40
1.0
 40
1.0
 40
1.0
 10
-99.248907961
 20
27.9130365606
 30
0.0
 10
-99.2334719259
 20
27.9201651991
 30
0.0
 10
-99.1997222429
 20
27.930378503
 30
0.0
 10
-99.1453659096
 20
27.9319456283
 30
0.0
 10
-99.0885097155
 20
27.9202578057
 30
0.0
 10
-99.0515475254
 20
27.9046850328
 30
0.0
 10
-99.0330982743
 20
27.8951397582
 30
0.0
  0
SPLINE
  5
4A8
100
AcDbEntity
  8
RACCORDO
100
AcDbSpline
 62
250
  6
CONTINUOUS
 70
0
 71
3
 72
17
 73
13
 74
0
 42
0.0000001
 43
0.0000001
 44
0.0000000001
 40
0.0
 40
0.0
 40
0.0
 40
0.0
 40
0.02827382
 40
0.051562289
 40
0.0820429938
 40
0.1199533762
 40
0.1653447348
 40
0.2181742353
 40
0.2783393349
 40
0.42005265
 40
0.5889467341
 40
1.0
 40
1.0
 40
1.0
 40
1.0
 10
-78.1954327291
 20
27.2636626151
 30
0.0
 10
-78.1972387977
 20
27.2667773426
 30
0.0
 10
-78.2048947642
 20
27.2686712135
 30
0.0
 10
-78.2149683606
 20
27.2682026727
 30
0.0
 10
-78.2266593962
 20
27.2664409379
 30
0.0
 10
-78.2407215602
 20
27.2631086392
 30
0.0
 10
-78.2573900309
 20
27.2582691148
 30
0.0
 10
-78.2765261119
 20
27.2519013281
 30
0.0
 10
-78.3069996167
 20
27.2407760709
 30
0.0
 10
-78.3507647592
 20
27.2230276297
 30
0.0
 10
-78.4348691009
 20
27.1859709873
 30
0.0
 10
-78.501404845
 20
27.1538681827
 30
0.0
 10
-78.5482759667
 20
27.1305642641
 30
0.0
  0
SPLINE
  5
4A9
100
AcDbEntity
  8
RACCORDO
100
AcDbSpline
 62
250
  6
CONTINUOUS
 70
0
 71
3
 72
17
 73
13
 74
0
 42
0.0000001
 43
0.0000001
 44
0.0000000001
 40
0.0
 40
0.0
 40
0.0
 40
0.0
 40
0.0282738745
 40
0.0515623786
 40
0.0820431147
 40
0.1199535228
 40
0.1653449005
 40
0.2181744135
 40
0.2783395186
 40
0.4200528243
 40
0.5889468732
 40
1.0
 40
1.0
 40
1.0
 40
1.0
 10
-78.0596104076
 20
27.0294037627
 30
0.0
 10
-78.0614164961
 20
27.0325184865
 30
0.0
 10
-78.0690724734
 20
27.0344123329
 30
0.0
 10
-78.0791460847
 20
27.0339437861
 30
0.0
 10
-78.0908371296
 20
27.0321820418
 30
0.0
 10
-78.104899301
 20
27.0288497371
 30
0.0
 10
-78.1215677762
 20
27.0240102073
 30
0.0
 10
-78.1407038593
 20
27.0176424169
 30
0.0
 10
-78.1711773615
 20
27.0065171571
 30
0.0
 10
-78.214942495
 20
26.9887687168
 30
0.0
 10
-78.2990468076
 20
26.9517120845
 30
0.0
 10
-78.3655825263
 20
26.9196092918
 30
0.0
 10
-78.4124536285
 20
26.8963053829
 30
0.0
  0
SPLINE
  5
4AA
100
AcDbEntity
  8
RACCORDO
100
AcDbSpline
 62
250
  6
CONTINUOUS
 70
0
 71
3
 72
20
 73
16
 74
0
 42
0.0000001
 43
0.0000001
 44
0.0000000001
 40
0.0
 40
0.0
 40
0.0
 40
0.0
 40
0.1316456739
 40
0.2632225512
 40
0.3946377813
 40
0.5256858439
 40
0.5909422849
 40
0.6558560966
 40
0.7201826339
 40
0.7834512389
 40
0.8447271571
 40
0.9022834421
 40
0.9539672961
 40
0.9775506429
 40
1.0
 40
1.0
 40
1.0
 40
1.0
 10
-77.7176423708
 20
22.5927677626
 30
0.0
 10
-77.7176424037
 20
22.5478646557
 30
0.0
 10
-77.7196323815
 20
22.4580690531
 30
0.0
 10
-77.728713981
 20
22.3237209084
 30
0.0
 10
-77.7442793685
 20
22.1901670042
 30
0.0
 10
-77.7633377851
 20
22.0799394343
 30
0.0
 10
-77.7831262561
 20
21.9930452236
 30
0.0
 10
-77.8005702735
 20
21.9290138897
 30
0.0
 10
-77.821132354
 20
21.8666130367
 30
0.0
 10
-77.8454883258
 20
21.8069002415
 30
0.0
 10
-77.8745426711
 20
21.7518314371
 30
0.0
 10
-77.9091328544
 20
21.7047160444
 30
0.0
 10
-77.9446006275
 20
21.6752226324
 30
0.0
 10
-77.9752776364
 20
21.6617057055
 30
0.0
 10
-77.9907067637
 20
21.6582369401
 30
0.0
 10
-77.9983031529
 20
21.6572733076
 30
0.0
  0
SPLINE
  5
4AB
100
AcDbEntity
  8
RACCORDO
100
AcDbSpline
 62
250
  6
CONTINUOUS
 70
0
 71
3
 72
20
 73
16
 74
0
 42
0.0000001
 43
0.0000001
 44
0.0000000001
 40
0.0
 40
0.0
 40
0.0
 40
0.0
 40
0.131645553
 40
0.2632223206
 40
0.3946373574
 40
0.5256853271
 40
0.5909419213
 40
0.6558558857
 40
0.7201827422
 40
0.7834520561
 40
0.8447282449
 40
0.9022840319
 40
0.953967626
 40
0.9775508286
 40
1.0
 40
1.0
 40
1.0
 40
1.0
 10
-77.7176424056
 20
10.6416160718
 30
0.0
 10
-77.7176425815
 20
10.5967130549
 30
0.0
 10
-77.7196323092
 20
10.5069176249
 30
0.0
 10
-77.7287141854
 20
10.3725697884
 30
0.0
 10
-77.7442793164
 20
10.2390161389
 30
0.0
 10
-77.7633378801
 20
10.1287887632
 30
0.0
 10
-77.7831262464
 20
10.0418945542
 30
0.0
 10
-77.8005703421
 20
9.977863095
 30
0.0
 10
-77.8211325206
 20
9.9154619237
 30
0.0
 10
-77.8454887408
 20
9.8557488277
 30
0.0
 10
-77.8745431897
 20
9.8006799597
 30
0.0
 10
-77.9091334347
 20
9.7535649041
 30
0.0
 10
-77.9446009965
 20
9.7240717997
 30
0.0
 10
-77.9752778366
 20
9.7105550889
 30
0.0
 10
-77.9907068339
 20
9.7070863511
 30
0.0
 10
-77.9983031529
 20
9.7061227354
 30
0.0
  0
SPLINE
  5
4AC
100
AcDbEntity
  8
RACCORDO
100
AcDbSpline
 62
250
  6
CONTINUOUS
 70
0
 71
3
 72
18
 73
14
 74
0
 42
0.0000001
 43
0.0000001
 44
0.0000000001
 40
0.0
 40
0.0
 40
0.0
 40
0.0
 40
0.0194661755
 40
0.046124104
 40
0.0798702455
 40
0.120294159
 40
0.1669439723
 40
0.2194022804
 40
0.3402622636
 40
0.4803958961
 40
0.6379281888
 40
0.8114700305
 40
1.0
 40
1.0
 40
1.0
 40
1.0
 10
-84.2015970716
 20
-0.3692505295
 30
0.0
 10
-84.2047415523
 20
-0.3709474539
 30
0.0
 10
-84.2131043061
 20
-0.37310401
 30
0.0
 10
-84.2277129686
 20
-0.3741931356
 30
0.0
 10
-84.2462513105
 20
-0.3737121064
 30
0.0
 10
-84.2683435987
 20
-0.3717416162
 30
0.0
 10
-84.2937408293
 20
-0.3683723623
 30
0.0
 10
-84.3335829876
 20
-0.3618009342
 30
0.0
 10
-84.3899869295
 20
-0.3503568273
 30
0.0
 10
-84.4647924858
 20
-0.3328404066
 30
0.0
 10
-84.5485602048
 20
-0.3112755722
 30
0.0
 10
-84.6405140974
 20
-0.2859416462
 30
0.0
 10
-84.7043368002
 20
-0.2673959954
 30
0.0
 10
-84.737515727
 20
-0.2575611863
 30
0.0
  0
SPLINE
  5
4AD
100
AcDbEntity
  8
RACCORDO
100
AcDbSpline
 62
250
  6
CONTINUOUS
 70
0
 71
3
 72
14
 73
10
 74
0
 42
0.0000001
 43
0.0000001
 44
0.0000000001
 40
0.0
 40
0.0
 40
0.0
 40
0.0
 40
0.1083200199
 40
0.2186901903
 40
0.3329587628
 40
0.45262254
 40
0.578753078
 40
0.7119879285
 40
1.0
 40
1.0
 40
1.0
 40
1.0
 10
-78.2428191905
 20
2.8456470277
 30
0.0
 10
-78.2232596005
 20
2.8561998627
 30
0.0
 10
-78.1855870981
 20
2.8810772486
 30
0.0
 10
-78.1357533021
 20
2.928263126
 30
0.0
 10
-78.0929292103
 20
2.9848222645
 30
0.0
 10
-78.0576014318
 20
3.0499908835
 30
0.0
 10
-78.0301109699
 20
3.1229776615
 30
0.0
 10
-78.0035965937
 20
3.2323252086
 30
0.0
 10
-77.9974699494
 20
3.3193110764
 30
0.0
 10
-77.9983031529
 20
3.3783986064
 30
0.0
  0
SPLINE
  5
4AE
100
AcDbEntity
  8
RACCORDO
100
AcDbSpline
 62
250
  6
CONTINUOUS
 70
0
 71
3
 72
23
 73
19
 74
0
 42
0.0000001
 43
0.0000001
 44
0.0000000001
 40
0.0
 40
0.0
 40
0.0
 40
0.0
 40
0.0448188018
 40
0.0914985835
 40
0.1409835558
 40
0.1938870893
 40
0.2504920765
 40
0.3107905109
 40
0.3745348952
 40
0.4412881868
 40
0.5104682954
 40
0.5813872342
 40
0.6532862511
 40
0.7253683692
 40
0.7968295952
 40
0.8668898871
 40
0.9348249461
 40
1.0
 40
1.0
 40
1.0
 40
1.0
 10
-76.8024661686
 20
8.2730780368
 30
0.0
 10
-76.7338428403
 20
8.3174628817
 30
0.0
 10
-76.6034196329
 20
8.4239092399
 30
0.0
 10
-76.4408990581
 20
8.6251192975
 30
0.0
 10
-76.3113491001
 20
8.8656684726
 30
0.0
 10
-76.2166871643
 20
9.1408672463
 30
0.0
 10
-76.1581163777
 20
9.4458357783
 30
0.0
 10
-76.1364100862
 20
9.7752726375
 30
0.0
 10
-76.1518031553
 20
10.1234754208
 30
0.0
 10
-76.2039578628
 20
10.484383998
 30
0.0
 10
-76.2919261439
 20
10.8516816799
 30
0.0
 10
-76.4141452152
 20
11.2189108419
 30
0.0
 10
-76.568452711
 20
11.5795958173
 30
0.0
 10
-76.7521220335
 20
11.9273672395
 30
0.0
 10
-76.9619054029
 20
12.2560775947
 30
0.0
 10
-77.1941154376
 20
12.5599322336
 30
0.0
 10
-77.4446257958
 20
12.8335351162
 30
0.0
 10
-77.6252216216
 20
12.9964347947
 30
0.0
 10
-77.7176178271
 20
13.0711822641
 30
0.0
  0
SPLINE
  5
4AF
100
AcDbEntity
  8
RACCORDO
100
AcDbSpline
 62
250
  6
CONTINUOUS
 70
0
 71
3
 72
23
 73
19
 74
0
 42
0.0000001
 43
0.0000001
 44
0.0000000001
 40
0.0
 40
0.0
 40
0.0
 40
0.0
 40
0.0651750539
 40
0.1331101129
 40
0.2031704048
 40
0.2746316308
 40
0.346713749
 40
0.4186127658
 40
0.4895317046
 40
0.5587118133
 40
0.6254651048
 40
0.6892094892
 40
0.7495079236
 40
0.8061129107
 40
0.8590164442
 40
0.9085014165
 40
0.9551811982
 40
1.0
 40
1.0
 40
1.0
 40
1.0
 10
-77.7176178271
 20
25.0223328362
 30
0.0
 10
-77.6252216216
 20
24.9475853668
 30
0.0
 10
-77.4446257958
 20
24.7846856883
 30
0.0
 10
-77.1941154376
 20
24.5110828057
 30
0.0
 10
-76.9619054029
 20
24.2072281668
 30
0.0
 10
-76.7521220335
 20
23.8785178115
 30
0.0
 10
-76.568452711
 20
23.5307463893
 30
0.0
 10
-76.4141452153
 20
23.170061414
 30
0.0
 10
-76.2919261439
 20
22.802832252
 30
0.0
 10
-76.2039578628
 20
22.4355345701
 30
0.0
 10
-76.1518031553
 20
22.0746259929
 30
0.0
 10
-76.1364100862
 20
21.7264232097
 30
0.0
 10
-76.1581163776
 20
21.3969863505
 30
0.0
 10
-76.2166871642
 20
21.0920178185
 30
0.0
 10
-76.3113491
 20
20.8168190448
 30
0.0
 10
-76.440899058
 20
20.5762698698
 30
0.0
 10
-76.6034196328
 20
20.3750598122
 30
0.0
 10
-76.7338428402
 20
20.268613454
 30
0.0
 10
-76.8024661685
 20
20.2242286091
 30
0.0
  0
SPLINE
  5
4B0
100
AcDbEntity
  8
RACCORDO
100
AcDbSpline
 62
250
  6
CONTINUOUS
 70
0
 71
3
 72
14
 73
10
 74
0
 42
0.0000001
 43
0.0000001
 44
0.0000000001
 40
0.0
 40
0.0
 40
0.0
 40
0.0
 40
0.0814220744
 40
0.1767962328
 40
0.2855290023
 40
0.4067002526
 40
0.5394224444
 40
0.6829372128
 40
1.0
 40
1.0
 40
1.0
 40
1.0
 10
-84.4568551831
 20
-0.7970086473
 30
0.0
 10
-84.4568544517
 20
-0.7803133374
 30
0.0
 10
-84.461827996
 20
-0.744091047
 30
0.0
 10
-84.4785540378
 20
-0.6878839487
 30
0.0
 10
-84.5040233737
 20
-0.6261388938
 30
0.0
 10
-84.5373695938
 20
-0.5596306334
 30
0.0
 10
-84.5779275965
 20
-0.488913037
 30
0.0
 10
-84.6431337608
 20
-0.386177005
 30
0.0
 10
-84.6982636568
 20
-0.3093870289
 30
0.0
 10
-84.7375157611
 20
-0.2575612471
 30
0.0
  0
SPLINE
  5
4B1
100
AcDbEntity
  8
DRAFT
100
AcDbSpline
 62
7
  6
CONTINUOUS
 70
0
 71
3
 72
9
 73
5
 74
0
 42
0.0000001
 43
0.0000001
 44
0.0000000001
 40
0.0
 40
0.0
 40
0.0
 40
0.0
 40
0.2587618214
 40
1.0
 40
1.0
 40
1.0
 40
1.0
 10
-82.994462486
 20
27.0573776579
 30
0.0
 10
-82.9674857229
 20
27.0458458115
 30
0.0
 10
-82.8638734182
 20
26.9998111202
 30
0.0
 10
-82.7628885264
 20
26.947744839
 30
0.0
 10
-82.6903431021
 20
26.9053179659
 30
0.0
  0
SPLINE
  5
4B2
100
AcDbEntity
  8
DRAFT
100
AcDbSpline
 62
7
  6
CONTINUOUS
 70
0
 71
3
 72
9
 73
5
 74
0
 42
0.0000001
 43
0.0000001
 44
0.0000000001
 40
0.0
 40
0.0
 40
0.0
 40
0.0
 40
0.2587618214
 40
1.0
 40
1.0
 40
1.0
 40
1.0
 10
-90.4190836885
 20
30.7696882591
 30
0.0
 10
-90.3921069254
 20
30.7581564127
 30
0.0
 10
-90.2884946207
 20
30.7121217215
 30
0.0
 10
-90.1875097288
 20
30.6600554403
 30
0.0
 10
-90.1149643046
 20
30.6176285671
 30
0.0
  0
SPLINE
  5
4B3
100
AcDbEntity
  8
RACCORDO
100
AcDbSpline
 62
250
  6
CONTINUOUS
 70
0
 71
3
 72
12
 73
8
 74
0
 42
0.0000001
 43
0.0000001
 44
0.0000000001
 40
0.0
 40
0.0
 40
0.0
 40
0.0
 40
0.1083450128
 40
0.2202223324
 40
0.4576285093
 40
0.7172186812
 40
1.0
 40
1.0
 40
1.0
 40
1.0
 10
-85.0845690837
 20
-9.393523797
 30
0.0
 10
-85.0564016971
 20
-9.3680164265
 30
0.0
 10
-85.0027547969
 20
-9.3120466971
 30
0.0
 10
-84.9077003851
 20
-9.1822445979
 30
0.0
 10
-84.8150132808
 20
-8.9875624941
 30
0.0
 10
-84.75008759
 20
-8.7203870177
 30
0.0
 10
-84.7372278328
 20
-8.5296550089
 30
0.0
 10
-84.7375157611
 20
-8.4304741855
 30
0.0
  0
SPLINE
  5
4B4
100
AcDbEntity
  8
RACCORDO
100
AcDbSpline
 62
250
  6
CONTINUOUS
 70
0
 71
3
 72
13
 73
9
 74
0
 42
0.0000001
 43
0.0000001
 44
0.0000000001
 40
0.0
 40
0.0
 40
0.0
 40
0.0
 40
0.3009874147
 40
0.4369629064
 40
0.5635201002
 40
0.7916194039
 40
0.8971916102
 40
1.0
 40
1.0
 40
1.0
 40
1.0
 10
-84.7375157611
 20
-8.4304741855
 30
0.0
 10
-84.6957941018
 20
-8.4088721641
 30
0.0
 10
-84.6372129254
 20
-8.3730051143
 30
0.0
 10
-84.5700769537
 20
-8.315889467
 30
0.0
 10
-84.5178268551
 20
-8.259785299
 30
0.0
 10
-84.4793271797
 20
-8.1974977456
 30
0.0
 10
-84.4600330234
 20
-8.1318054935
 30
0.0
 10
-84.456855665
 20
-8.0991939145
 30
0.0
 10
-84.4568556675
 20
-8.0831461239
 30
0.0
  0
SPLINE
  5
4B5
100
AcDbEntity
  8
RACCORDO
100
AcDbSpline
 62
7
  6
CONTINUOUS
 70
0
 71
3
 72
38
 73
34
 74
0
 42
0.0000001
 43
0.0000001
 44
0.0000000001
 40
0.0
 40
0.0
 40
0.0
 40
0.0
 40
0.0693520569
 40
0.1391962429
 40
0.2096623981
 40
0.2809448417
 40
0.3169840981
 40
0.3533593676
 40
0.3901472799
 40
0.4274530528
 40
0.4654192833
 40
0.4847058985
 40
0.504215029
 40
0.5239290877
 40
0.5437276852
 40
0.5631970375
 40
0.5813754931
 40
0.5972198514
 40
0.6108818292
 40
0.6233451236
 40
0.6353563374
 40
0.647276301
 40
0.6592531065
 40
0.6835437867
 40
0.7083457455
 40
0.7335983398
 40
0.7592303043
 40
0.7851806126
 40
0.8114003446
 40
0.8378506494
 40
0.8913225339
 40
0.9454145539
 40
1.0
 40
1.0
 40
1.0
 40
1.0
 10
-77.8807534717
 20
20.0221682124
 30
0.0
 10
-77.8158549189
 20
20.0751983478
 30
0.0
 10
-77.6861926752
 20
20.182366941
 30
0.0
 10
-77.4931230626
 20
20.3464559836
 30
0.0
 10
-77.3011816765
 20
20.5154221428
 30
0.0
 10
-77.1431749389
 20
20.6610497226
 30
0.0
 10
-77.0183396039
 20
20.7817738899
 30
0.0
 10
-76.9253018303
 20
20.8753795809
 30
0.0
 10
-76.8335602826
 20
20.9723850882
 30
0.0
 10
-76.7437413258
 20
21.0737678483
 30
0.0
 10
-76.6718215096
 20
21.162653347
 30
0.0
 10
-76.6171650314
 20
21.2376318442
 30
0.0
 10
-76.5780345181
 20
21.2965590022
 30
0.0
 10
-76.5420688968
 20
21.3582146129
 30
0.0
 10
-76.5112185443
 20
21.422592894
 30
0.0
 10
-76.488829204
 20
21.4885567524
 30
0.0
 10
-76.4794258521
 20
21.5530702636
 30
0.0
 10
-76.4868452915
 20
21.6111762999
 30
0.0
 10
-76.5096314
 20
21.6574747453
 30
0.0
 10
-76.5415185501
 20
21.6914504221
 30
0.0
 10
-76.5781016339
 20
21.7163044542
 30
0.0
 10
-76.6175008422
 20
21.7347936611
 30
0.0
 10
-76.6728017442
 20
21.7533260789
 30
0.0
 10
-76.7454588672
 20
21.7676766273
 30
0.0
 10
-76.8350069439
 20
21.7758912621
 30
0.0
 10
-76.9265096261
 20
21.777813569
 30
0.0
 10
-77.0193479459
 20
21.7750325895
 30
0.0
 10
-77.113165763
 20
21.7685820022
 30
0.0
 10
-77.2077208715
 20
21.7591787833
 30
0.0
 10
-77.335016686
 20
21.7433299168
 30
0.0
 10
-77.4950768385
 20
21.7184092538
 30
0.0
 10
-77.6877472724
 20
21.6826018814
 30
0.0
 10
-77.8163082147
 20
21.6557114691
 30
0.0
 10
-77.8807535548
 20
21.6416361699
 30
0.0
  0
SPLINE
  5
4B6
100
AcDbEntity
  8
RACCORDO
100
AcDbSpline
 62
7
  6
CONTINUOUS
 70
0
 71
3
 72
38
 73
34
 74
0
 42
0.0000001
 43
0.0000001
 44
0.0000000001
 40
0.0
 40
0.0
 40
0.0
 40
0.0
 40
0.0693520572
 40
0.1391962436
 40
0.2096623991
 40
0.2809448431
 40
0.3169840997
 40
0.3533593694
 40
0.3901472818
 40
0.4274530549
 40
0.4654192853
 40
0.4847059005
 40
0.5042150309
 40
0.5239290895
 40
0.5437276869
 40
0.5631970396
 40
0.5813754971
 40
0.5972198585
 40
0.610881839
 40
0.6233451347
 40
0.6353563488
 40
0.6472763123
 40
0.6592531176
 40
0.6835437968
 40
0.7083457546
 40
0.7335983479
 40
0.7592303113
 40
0.7851806187
 40
0.8114003499
 40
0.8378506538
 40
0.8913225367
 40
0.9454145552
 40
1.0
 40
1.0
 40
1.0
 40
1.0
 10
-77.8807531127
 20
8.0710179336
 30
0.0
 10
-77.8158545776
 20
8.1240480567
 30
0.0
 10
-77.6861923694
 20
8.2312166252
 30
0.0
 10
-77.49312281
 20
8.3953056301
 30
0.0
 10
-77.301181477
 20
8.5642717506
 30
0.0
 10
-77.1431747835
 20
8.709899297
 30
0.0
 10
-77.0183394835
 20
8.8306234367
 30
0.0
 10
-76.9253017361
 20
8.9242291061
 30
0.0
 10
-76.8335602144
 20
9.0212345908
 30
0.0
 10
-76.7437412833
 20
9.1226173269
 30
0.0
 10
-76.6718214876
 20
9.2115028039
 30
0.0
 10
-76.6171650247
 20
9.286481282
 30
0.0
 10
-76.578034522
 20
9.3454084243
 30
0.0
 10
-76.5420689095
 20
9.4070640181
 30
0.0
 10
-76.511218562
 20
9.4714422811
 30
0.0
 10
-76.4888292198
 20
9.5374061222
 30
0.0
 10
-76.4794258552
 20
9.6019196203
 30
0.0
 10
-76.4868452705
 20
9.6600256528
 30
0.0
 10
-76.5096313533
 20
9.7063241054
 30
0.0
 10
-76.5415184826
 20
9.7402997926
 30
0.0
 10
-76.5781015489
 20
9.7651538339
 30
0.0
 10
-76.617500741
 20
9.7836430486
 30
0.0
 10
-76.6728016222
 20
9.8021754756
 30
0.0
 10
-76.7454587209
 20
9.8165260342
 30
0.0
 10
-76.8350067695
 20
9.8247406802
 30
0.0
 10
-76.9265094239
 20
9.8266629977
 30
0.0
 10
-77.0193477164
 20
9.8238820286
 30
0.0
 10
-77.1131655062
 20
9.8174314516
 30
0.0
 10
-77.2077205876
 20
9.8080282429
 30
0.0
 10
-77.335016366
 20
9.7921793899
 30
0.0
 10
-77.4950764735
 20
9.7672587439
 30
0.0
 10
-77.6877468538
 20
9.7314513918
 30
0.0
 10
-77.8163077604
 20
9.7045609931
 30
0.0
 10
-77.8807530827
 20
9.6904857008
 30
0.0
  0
SPLINE
  5
4B7
100
AcDbEntity
  8
0
100
AcDbSpline
 62
7
  6
CONTINUOUS
 70
0
 71
3
 72
15
 73
11
 74
0
 42
0.0000001
 43
0.0000001
 44
0.0000000001
 40
0.0
 40
0.0
 40
0.0
 40
0.0
 40
0.1556943211
 40
0.301573237
 40
0.437586056
 40
0.5640811213
 40
0.6818911495
 40
0.7924077098
 40
0.8976106823
 40
1.0
 40
1.0
 40
1.0
 40
1.0
 10
-94.8447578221
 20
31.2152865101
 30
0.0
 10
-94.9052518385
 20
31.1845069309
 30
0.0
 10
-95.0202396493
 20
31.1204109863
 30
0.0
 10
-95.178245165
 20
31.0130370685
 30
0.0
 10
-95.3149062541
 20
30.8983852583
 30
0.0
 10
-95.4289284653
 20
30.7774202848
 30
0.0
 10
-95.5191797721
 20
30.6511306253
 30
0.0
 10
-95.5846370883
 20
30.5205398461
 30
0.0
 10
-95.6243849739
 20
30.3869038508
 30
0.0
 10
-95.6333192277
 20
30.2961724158
 30
0.0
 10
-95.6333190451
 20
30.2515362717
 30
0.0
  0
SPLINE
  5
4B8
100
AcDbEntity
  8
0
100
AcDbSpline
 62
7
  6
CONTINUOUS
 70
0
 71
3
 72
15
 73
11
 74
0
 42
0.0000001
 43
0.0000001
 44
0.0000000001
 40
0.0
 40
0.0
 40
0.0
 40
0.0
 40
0.1556943211
 40
0.301573237
 40
0.437586056
 40
0.5640811213
 40
0.6818911495
 40
0.7924077098
 40
0.8976106823
 40
1.0
 40
1.0
 40
1.0
 40
1.0
 10
-87.4201366196
 20
27.5029759089
 30
0.0
 10
-87.4806306361
 20
27.4721963297
 30
0.0
 10
-87.5956184468
 20
27.4081003851
 30
0.0
 10
-87.7536239625
 20
27.3007264673
 30
0.0
 10
-87.8902850517
 20
27.1860746571
 30
0.0
 10
-88.0043072628
 20
27.0651096835
 30
0.0
 10
-88.0945585696
 20
26.938820024
 30
0.0
 10
-88.1600158858
 20
26.8082292449
 30
0.0
 10
-88.1997637715
 20
26.6745932496
 30
0.0
 10
-88.2086980253
 20
26.5838618146
 30
0.0
 10
-88.2086978426
 20
26.5392256705
 30
0.0
  0
SPLINE
  5
4B9
100
AcDbEntity
  8
RACCORDO
100
AcDbSpline
 62
250
  6
CONTINUOUS
 70
0
 71
3
 72
13
 73
9
 74
0
 42
0.0000001
 43
0.0000001
 44
0.0000000001
 40
0.0
 40
0.0
 40
0.0
 40
0.0
 40
0.3007174572
 40
0.4366836626
 40
0.5633018006
 40
0.7916268999
 40
0.897252026
 40
1.0
 40
1.0
 40
1.0
 40
1.0
 10
-77.9983031529
 20
3.3783986064
 30
0.0
 10
-77.9568729683
 20
3.3998497124
 30
0.0
 10
-77.8986764643
 20
3.4354439107
 30
0.0
 10
-77.8318665748
 20
3.4920552407
 30
0.0
 10
-77.7797294049
 20
3.5476820865
 30
0.0
 10
-77.7411109234
 20
3.6093945508
 30
0.0
 10
-77.7213509358
 20
3.6745393184
 30
0.0
 10
-77.7178429607
 20
3.7069106872
 30
0.0
 10
-77.717659603
 20
3.7228502432
 30
0.0
  0
SPLINE
  5
4BA
100
AcDbEntity
  8
RACCORDO
100
AcDbSpline
 62
250
  6
CONTINUOUS
 70
0
 71
3
 72
13
 73
9
 74
0
 42
0.0000001
 43
0.0000001
 44
0.0000000001
 40
0.0
 40
0.0
 40
0.0
 40
0.0
 40
0.3010012902
 40
0.4369805303
 40
0.5635391069
 40
0.7916334983
 40
0.8971996118
 40
1.0
 40
1.0
 40
1.0
 40
1.0
 10
-77.9983031529
 20
25.4646718083
 30
0.0
 10
-77.9565831483
 20
25.4862660639
 30
0.0
 10
-77.8980039279
 20
25.5221214693
 30
0.0
 10
-77.83086874
 20
25.5792217868
 30
0.0
 10
-77.7786196581
 20
25.6353108438
 30
0.0
 10
-77.7401190032
 20
25.6975830262
 30
0.0
 10
-77.7208225395
 20
25.7632606496
 30
0.0
 10
-77.7176437916
 20
25.7958648968
 30
0.0
 10
-77.7176430596
 20
25.8119089775
 30
0.0
  0
SPLINE
  5
4BB
100
AcDbEntity
  8
RACCORDO
100
AcDbSpline
 62
250
  6
CONTINUOUS
 70
0
 71
3
 72
11
 73
7
 74
0
 42
0.0000001
 43
0.0000001
 44
0.0000000001
 40
0.0
 40
0.0
 40
0.0
 40
0.0
 40
0.2602702373
 40
0.5174813741
 40
0.7657527574
 40
1.0
 40
1.0
 40
1.0
 40
1.0
 10
-78.4124536285
 20
26.8963053829
 30
0.0
 10
-78.3465933618
 20
26.7834480512
 30
0.0
 10
-78.2292093979
 20
26.5508388769
 30
0.0
 10
-78.0984524153
 20
26.1882998144
 30
0.0
 10
-78.0174193017
 20
25.8248319725
 30
0.0
 10
-77.9979627616
 20
25.5822753161
 30
0.0
 10
-77.9983031529
 20
25.4646718083
 30
0.0
  0
SPLINE
  5
4BC
100
AcDbEntity
  8
RACCORDO
100
AcDbSpline
 62
250
  6
CONTINUOUS
 70
0
 71
3
 72
11
 73
7
 74
0
 42
0.0000001
 43
0.0000001
 44
0.0000000001
 40
0.0
 40
0.0
 40
0.0
 40
0.0
 40
0.2691312001
 40
0.5287222304
 40
0.7735798097
 40
1.0
 40
1.0
 40
1.0
 40
1.0
 10
-78.5482759667
 20
27.1305642641
 30
0.0
 10
-78.5803110762
 20
27.1865425927
 30
0.0
 10
-78.6500203261
 20
27.2928136615
 30
0.0
 10
-78.7710996778
 20
27.4339211254
 30
0.0
 10
-78.9031544182
 20
27.5499051491
 30
0.0
 10
-78.9995312844
 20
27.6101480402
 30
0.0
 10
-79.0481998143
 20
27.6341405234
 30
0.0
  0
SPLINE
  5
4BD
100
AcDbEntity
  8
RACCORDO
100
AcDbSpline
 62
250
  6
CONTINUOUS
 70
0
 71
3
 72
11
 73
7
 74
0
 42
0.0000001
 43
0.0000001
 44
0.0000000001
 40
0.0
 40
0.0
 40
0.0
 40
0.0
 40
0.2779172886
 40
0.5336598882
 40
0.7717731957
 40
1.0
 40
1.0
 40
1.0
 40
1.0
 10
-92.1980679154
 20
34.2090745739
 30
0.0
 10
-92.2356538455
 20
34.2281353351
 30
0.0
 10
-92.310963054
 20
34.2591049002
 30
0.0
 10
-92.4266668362
 20
34.2817928915
 30
0.0
 10
-92.5371659194
 20
34.2775988175
 30
0.0
 10
-92.6056509975
 20
34.2562391981
 30
0.0
 10
-92.6369526779
 20
34.2414775345
 30
0.0
  0
SPLINE
  5
4BE
100
AcDbEntity
  8
RACCORDO
100
AcDbSpline
 62
250
  6
CONTINUOUS
 70
0
 71
3
 72
11
 73
7
 74
0
 42
0.0000001
 43
0.0000001
 44
0.0000000001
 40
0.0
 40
0.0
 40
0.0
 40
0.0
 40
0.2782238442
 40
0.5340281713
 40
0.7720109451
 40
1.0
 40
1.0
 40
1.0
 40
1.0
 10
-92.1980679154
 20
34.2090745739
 30
0.0
 10
-92.1604133508
 20
34.2270968769
 30
0.0
 10
-92.0851733365
 20
34.25606624
 30
0.0
 10
-91.9701817169
 20
34.2759665121
 30
0.0
 10
-91.8610098017
 20
34.2693854046
 30
0.0
 10
-91.7937914759
 20
34.2467363466
 30
0.0
 10
-91.7631950494
 20
34.2314378744
 30
0.0
  0
SPLINE
  5
4BF
100
AcDbEntity
  8
RACCORDO
100
AcDbSpline
 62
250
  6
CONTINUOUS
 70
0
 71
3
 72
18
 73
14
 74
0
 42
0.0000001
 43
0.0000001
 44
0.0000000001
 40
0.0
 40
0.0
 40
0.0
 40
0.0
 40
0.1113393332
 40
0.2021159492
 40
0.2734488819
 40
0.3333304782
 40
0.3886193361
 40
0.4427360769
 40
0.5514615994
 40
0.6622202184
 40
0.774287647
 40
0.8869841987
 40
1.0
 40
1.0
 40
1.0
 40
1.0
 10
-77.9983031529
 20
19.8848048346
 30
0.0
 10
-77.9843891861
 20
19.8974481687
 30
0.0
 10
-77.9577148974
 20
19.918993495
 30
0.0
 10
-77.9161404485
 20
19.9402535221
 30
0.0
 10
-77.878409608
 20
19.9464327723
 30
0.0
 10
-77.8469251048
 20
19.9402456476
 30
0.0
 10
-77.8215148928
 20
19.9264603912
 30
0.0
 10
-77.7936795691
 20
19.9020196242
 30
0.0
 10
-77.7669368503
 20
19.8636562246
 30
0.0
 10
-77.7442057753
 20
19.8122934949
 30
0.0
 10
-77.728692686
 20
19.7576339925
 30
0.0
 10
-77.7196280196
 20
19.7012133183
 30
0.0
 10
-77.7176429805
 20
19.6630684784
 30
0.0
 10
-77.717642374
 20
19.6439850676
 30
0.0
  0
SPLINE
  5
4C0
100
AcDbEntity
  8
RACCORDO
100
AcDbSpline
 62
7
  6
CONTINUOUS
 70
0
 71
3
 72
9
 73
5
 74
0
 42
0.0000001
 43
0.0000001
 44
0.0000000001
 40
0.0
 40
0.0
 40
0.0
 40
0.0
 40
0.5162520767
 40
1.0
 40
1.0
 40
1.0
 40
1.0
 10
-77.9983031529
 20
19.8848046125
 30
0.0
 10
-77.9818774743
 20
19.9113555811
 30
0.0
 10
-77.9466358698
 20
19.9608199377
 30
0.0
 10
-77.9034076165
 20
20.0036569773
 30
0.0
 10
-77.8807534717
 20
20.0221682124
 30
0.0
  0
SPLINE
  5
4C1
100
AcDbEntity
  8
RACCORDO
100
AcDbSpline
 62
250
  6
CONTINUOUS
 70
0
 71
3
 72
17
 73
13
 74
0
 42
0.0000001
 43
0.0000001
 44
0.0000000001
 40
0.0
 40
0.0
 40
0.0
 40
0.0
 40
0.1008413798
 40
0.1823418955
 40
0.2525397599
 40
0.3163335955
 40
0.4329095028
 40
0.5413452101
 40
0.6459499562
 40
0.7521641142
 40
0.8673724957
 40
1.0
 40
1.0
 40
1.0
 40
1.0
 10
-77.8807534717
 20
20.0221682124
 30
0.0
 10
-77.86192232
 20
20.029162627
 30
0.0
 10
-77.8261986573
 20
20.0381933819
 30
0.0
 10
-77.7752799742
 20
20.036300279
 30
0.0
 10
-77.7339461305
 20
20.0230803857
 30
0.0
 10
-77.6909015136
 20
19.9971525173
 30
0.0
 10
-77.6511088812
 20
19.9538767737
 30
0.0
 10
-77.6233564941
 20
19.8933438416
 30
0.0
 10
-77.6148672381
 20
19.8293322327
 30
0.0
 10
-77.6263805106
 20
19.7643847621
 30
0.0
 10
-77.6589135345
 20
19.7008016286
 30
0.0
 10
-77.6921316768
 20
19.6636130616
 30
0.0
 10
-77.7114464262
 20
19.645586312
 30
0.0
  0
SPLINE
  5
4C2
100
AcDbEntity
  8
RACCORDO
100
AcDbSpline
 62
250
  6
CONTINUOUS
 70
0
 71
3
 72
16
 73
12
 74
0
 42
0.0000001
 43
0.0000001
 44
0.0000000001
 40
0.0
 40
0.0
 40
0.0
 40
0.0
 40
0.2544738592
 40
0.3818476386
 40
0.5091377278
 40
0.6360890323
 40
0.7620583366
 40
0.8242399015
 40
0.8853099438
 40
0.9443916114
 40
1.0
 40
1.0
 40
1.0
 40
1.0
 10
-77.7175475786
 20
23.2934281572
 30
0.0
 10
-77.6736267605
 20
23.1547871649
 30
0.0
 10
-77.6310617822
 20
22.938704544
 30
0.0
 10
-77.6150323434
 20
22.6479878486
 30
0.0
 10
-77.6222019887
 20
22.4296899862
 30
0.0
 10
-77.6484162805
 20
22.2137288109
 30
0.0
 10
-77.6871536988
 20
22.0374494222
 30
0.0
 10
-77.7306361549
 20
21.9017149918
 30
0.0
 10
-77.770238574
 20
21.8051590496
 30
0.0
 10
-77.8181283029
 20
21.7166323901
 30
0.0
 10
-77.8583511165
 20
21.664177447
 30
0.0
 10
-77.8807535548
 20
21.6416361699
 30
0.0
  0
SPLINE
  5
4C3
100
AcDbEntity
  8
RACCORDO
100
AcDbSpline
 62
7
  6
CONTINUOUS
 70
0
 71
3
 72
10
 73
6
 74
0
 42
0.0000001
 43
0.0000001
 44
0.0000000001
 40
0.0
 40
0.0
 40
0.0
 40
0.0
 40
0.5176898917
 40
0.7606287169
 40
1.0
 40
1.0
 40
1.0
 40
1.0
 10
-77.8807535548
 20
21.6416361699
 30
0.0
 10
-77.9011711094
 20
21.6371768376
 30
0.0
 10
-77.9326461379
 20
21.6347693702
 30
0.0
 10
-77.9721714795
 20
21.6441215371
 30
0.0
 10
-77.9899473649
 20
21.6524196736
 30
0.0
 10
-77.9983031529
 20
21.6572735299
 30
0.0
  0
SPLINE
  5
4C4
100
AcDbEntity
  8
RACCORDO
100
AcDbSpline
 62
250
  6
CONTINUOUS
 70
0
 71
3
 72
16
 73
12
 74
0
 42
0.0000001
 43
0.0000001
 44
0.0000000001
 40
0.0
 40
0.0
 40
0.0
 40
0.0
 40
0.2544733308
 40
0.3818471342
 40
0.5091370789
 40
0.6360883325
 40
0.7620575771
 40
0.824239319
 40
0.8853096177
 40
0.9443916904
 40
1.0
 40
1.0
 40
1.0
 40
1.0
 10
-77.7175360591
 20
11.3422412099
 30
0.0
 10
-77.673619093
 20
11.2036027305
 30
0.0
 10
-77.6310583881
 20
10.9875247662
 30
0.0
 10
-77.6150321563
 20
10.6968147977
 30
0.0
 10
-77.6222034755
 20
10.4785219939
 30
0.0
 10
-77.6484185297
 20
10.2625659842
 30
0.0
 10
-77.6871558403
 20
10.0862906695
 30
0.0
 10
-77.7306379905
 20
9.9505592845
 30
0.0
 10
-77.7702399261
 20
9.8540051182
 30
0.0
 10
-77.818129541
 20
9.76548064
 30
0.0
 10
-77.858351127
 20
9.7130263905
 30
0.0
 10
-77.8807530827
 20
9.6904857008
 30
0.0
  0
SPLINE
  5
4C5
100
AcDbEntity
  8
RACCORDO
100
AcDbSpline
 62
7
  6
CONTINUOUS
 70
0
 71
3
 72
10
 73
6
 74
0
 42
0.0000001
 43
0.0000001
 44
0.0000000001
 40
0.0
 40
0.0
 40
0.0
 40
0.0
 40
0.517690038
 40
0.7606287811
 40
1.0
 40
1.0
 40
1.0
 40
1.0
 10
-77.8807530827
 20
9.6904857008
 30
0.0
 10
-77.9011707227
 20
9.6860263508
 30
0.0
 10
-77.9326458815
 20
9.6836186998
 30
0.0
 10
-77.9721713449
 20
9.6929709957
 30
0.0
 10
-77.9899473603
 20
9.7012690301
 30
0.0
 10
-77.9983031529
 20
9.7061229481
 30
0.0
  0
SPLINE
  5
4C6
100
AcDbEntity
  8
RACCORDO
100
AcDbSpline
 62
250
  6
CONTINUOUS
 70
0
 71
3
 72
18
 73
14
 74
0
 42
0.0000001
 43
0.0000001
 44
0.0000000001
 40
0.0
 40
0.0
 40
0.0
 40
0.0
 40
0.1113387987
 40
0.2021152817
 40
0.2734478783
 40
0.3333297713
 40
0.3886192561
 40
0.4427362486
 40
0.5514620402
 40
0.6622204893
 40
0.7742878947
 40
0.8869842441
 40
1.0
 40
1.0
 40
1.0
 40
1.0
 10
-77.9983031529
 20
7.9336542624
 30
0.0
 10
-77.9843892455
 20
7.9462975534
 30
0.0
 10
-77.9577150272
 20
7.9678428408
 30
0.0
 10
-77.9161407159
 20
7.9891028316
 30
0.0
 10
-77.8784098982
 20
7.9952822305
 30
0.0
 10
-77.8469252507
 20
7.9890951241
 30
0.0
 10
-77.8215148173
 20
7.9753097923
 30
0.0
 10
-77.7936793484
 20
7.9508688294
 30
0.0
 10
-77.7669367396
 20
7.9125052419
 30
0.0
 10
-77.7442055047
 20
7.8611425085
 30
0.0
 10
-77.7286927412
 20
7.8064829294
 30
0.0
 10
-77.719627871
 20
7.7500622796
 30
0.0
 10
-77.7176430975
 20
7.7119174336
 30
0.0
 10
-77.717642406
 20
7.6928340128
 30
0.0
  0
SPLINE
  5
4C7
100
AcDbEntity
  8
RACCORDO
100
AcDbSpline
 62
7
  6
CONTINUOUS
 70
0
 71
3
 72
9
 73
5
 74
0
 42
0.0000001
 43
0.0000001
 44
0.0000000001
 40
0.0
 40
0.0
 40
0.0
 40
0.0
 40
0.5162521555
 40
1.0
 40
1.0
 40
1.0
 40
1.0
 10
-77.9983031529
 20
7.9336540493
 30
0.0
 10
-77.9818774784
 20
7.9602051181
 30
0.0
 10
-77.9466357122
 20
8.0096695604
 30
0.0
 10
-77.9034073102
 20
8.0525066546
 30
0.0
 10
-77.8807531127
 20
8.0710179336
 30
0.0
  0
SPLINE
  5
4C8
100
AcDbEntity
  8
RACCORDO
100
AcDbSpline
 62
250
  6
CONTINUOUS
 70
0
 71
3
 72
17
 73
13
 74
0
 42
0.0000001
 43
0.0000001
 44
0.0000000001
 40
0.0
 40
0.0
 40
0.0
 40
0.0
 40
0.1008395301
 40
0.1823392453
 40
0.2525359064
 40
0.3163286344
 40
0.4329024651
 40
0.5413363286
 40
0.6459397762
 40
0.7521546974
 40
0.8673660154
 40
1.0
 40
1.0
 40
1.0
 40
1.0
 10
-77.8807531127
 20
8.0710179336
 30
0.0
 10
-77.8619213305
 20
8.0780126265
 30
0.0
 10
-77.8261961263
 20
8.0870430647
 30
0.0
 10
-77.7752755057
 20
8.085149394
 30
0.0
 10
-77.733940535
 20
8.0719274243
 30
0.0
 10
-77.6908952645
 20
8.045997219
 30
0.0
 10
-77.6511033085
 20
8.002717932
 30
0.0
 10
-77.623352818
 20
7.9421814351
 30
0.0
 10
-77.6148670949
 20
7.878166276
 30
0.0
 10
-77.6263864936
 20
7.8132157859
 30
0.0
 10
-77.6589275807
 20
7.7496302796
 30
0.0
 10
-77.6921517312
 20
7.7124410624
 30
0.0
 10
-77.7114697907
 20
7.6944139312
 30
0.0
  0
ELLIPSE
  5
4C9
100
AcDbEntity
  8
RACCORDO
100
AcDbEllipse
 62
7
  6
CONTINUOUS
 10
-98.1601048257
 20
19.2109399857
 30
0.0
 11
-0.2526479156
 21
0.4314745882
 31
0.0
 40
0.5763943484
 41
-2.294422946
 42
-0.7243118518
  0
ELLIPSE
  5
4CA
100
AcDbEntity
  8
RACCORDO
100
AcDbEllipse
 62
7
  6
CONTINUOUS
 10
-96.0292698274
 20
-17.0445093385
 30
0.0
 11
-0.2528822156
 21
0.43173157
 31
0.0
 40
0.5756108907
 41
-3.1676144365
 42
-2.2952753152
  0
ELLIPSE
  5
4CB
100
AcDbEntity
  8
RACCORDO
100
AcDbEllipse
 62
7
  6
CONTINUOUS
 10
-113.0091048397
 20
26.6354399927
 30
0.0
 11
-0.2528822156
 21
0.43173157
 31
0.0
 40
0.5756108907
 41
-0.7237937558
 42
0.0260217948
  0
ELLIPSE
  5
4CC
100
AcDbEntity
  8
0
100
AcDbEllipse
 62
7
  6
CONTINUOUS
 10
-99.7114011626
 20
30.4899866147
 30
0.0
 11
0.2257019663
 21
0.4461636818
 31
0.0
 40
0.6159267166
 41
0.5882567743
 42
0.6817883054
  0
ELLIPSE
  5
4CD
100
AcDbEntity
  8
RACCORDO
100
AcDbEllipse
 62
7
  6
CONTINUOUS
 10
-88.581210211
 20
25.6188031915
 30
0.0
 11
0.499996712
 21
0.0035883639
 31
0.0
 40
0.5053247124
 41
-0.7715714568
 42
-0.0036265893
  0
ELLIPSE
  5
4CE
100
AcDbEntity
  8
0
100
AcDbEllipse
 62
7
  6
CONTINUOUS
 10
-100.3501556693
 20
26.4928999454
 30
0.0
 11
-0.0909679979
 21
0.1781462259
 31
0.0
 40
0.6079022756
 41
-0.6898048156
 42
-0.0128425411
  0
ELLIPSE
  5
4CF
100
AcDbEntity
  8
0
100
AcDbEllipse
 62
7
  6
CONTINUOUS
 10
-92.0016818721
 20
27.2737056681
 30
0.0
 11
0.4547905863
 21
0.8906238433
 31
0.0
 40
0.6079814556
 41
0.0051544747
 42
0.6840559135
  0
ELLIPSE
  5
4D0
100
AcDbEntity
  8
ASSI
100
AcDbEllipse
 62
7
  6
CONTINUOUS
 10
-99.9123822836
 20
31.2290558739
 30
0.0
 11
1.004787277
 21
0.6140102217
 31
0.0
 40
0.0864918533
 41
0.054007136
 42
0.7329085821
  0
ELLIPSE
  5
4D1
100
AcDbEntity
  8
ASSI
100
AcDbEllipse
 62
7
  6
CONTINUOUS
 10
-88.3291296244
 20
-11.5175838804
 30
0.0
 11
0.9927147821
 21
0.620457446
 31
0.0
 40
0.0764819879
 41
-2.4043514965
 42
-1.3666868807
  0
ELLIPSE
  5
4D2
100
AcDbEntity
  8
ASSI
100
AcDbEllipse
 62
7
  6
CONTINUOUS
 10
-69.9188985051
 20
-1.0440935017
 30
0.0
 11
24.0955625974
 21
12.2610436036
 31
0.0
 40
0.0085648092
 41
-2.9166229256
 42
-2.803161766
  0
ELLIPSE
  5
4D3
100
AcDbEntity
  8
ASSI
100
AcDbEllipse
 62
7
  6
CONTINUOUS
 10
-69.9188985051
 20
29.6132057923
 30
0.0
 11
24.0955625974
 21
12.2610436036
 31
0.0
 40
0.0085648092
 41
2.794445403
 42
2.9079065627
  0
ELLIPSE
  5
4D4
100
AcDbEntity
  8
ASSI
100
AcDbEllipse
 62
7
  6
CONTINUOUS
 10
-69.9188985051
 20
28.9203854692
 30
0.0
 11
24.0955625974
 21
12.2610436036
 31
0.0
 40
0.0085648092
 41
-2.9166229256
 42
-2.803161766
  0
ELLIPSE
  5
4D5
100
AcDbEntity
  8
ASSI
100
AcDbEllipse
 62
7
  6
CONTINUOUS
 10
-69.9188985051
 20
-0.3512731787
 30
0.0
 11
24.0955625974
 21
12.2610436036
 31
0.0
 40
0.0085648092
 41
2.794445403
 42
2.9079065627
  0
ELLIPSE
  5
4D6
100
AcDbEntity
  8
0
100
AcDbEllipse
 62
7
  6
CONTINUOUS
 10
-93.6673208364
 20
-16.4029600004
 30
0.0
 11
-0.2236315662
 21
0.4472293059
 31
0.0
 40
0.6123445654
 41
-3.1338271467
 42
-2.2555748796
  0
ELLIPSE
  5
4D7
100
AcDbEntity
  8
0
100
AcDbEllipse
 62
7
  6
CONTINUOUS
 10
-93.6673208364
 20
21.5188612524
 30
0.0
 11
-0.223611546
 21
0.4472115081
 31
0.0
 40
0.6124054886
 41
-2.2555017776
 42
-0.6847562194
  0
ELLIPSE
  5
4D8
100
AcDbEntity
  8
0
100
AcDbEllipse
 62
7
  6
CONTINUOUS
 10
-102.0593388063
 20
27.3474915138
 30
0.0
 11
-0.090948378
 21
0.1781282571
 31
0.0
 40
0.6080538059
 41
-2.2606249166
 42
-0.6898793584
  0
ELLIPSE
  5
4D9
100
AcDbEntity
  8
0
100
AcDbEllipse
 62
7
  6
CONTINUOUS
 10
-94.0994273665
 20
27.6839997166
 30
0.0
 11
0.2273952932
 21
0.4453119217
 31
0.0
 40
0.6079814556
 41
0.2357074224
 42
0.6840559135
  0
ELLIPSE
  5
4DA
100
AcDbEntity
  8
ASSI
100
AcDbEllipse
 62
7
  6
CONTINUOUS
 10
-88.581210211
 20
-11.7743932107
 30
0.0
 11
0.499443764
 21
0.3120915671
 31
0.0
 40
0.0755486457
 41
-0.0471742161
 42
0.720771186
  0
ELLIPSE
  5
4DB
100
AcDbEntity
  8
0
100
AcDbEllipse
 62
7
  6
CONTINUOUS
 10
-101.2606778107
 20
24.820743402
 30
0.0
 11
0.199943508
 21
0.008945986
 31
0.0
 40
0.5313301283
 41
3.1178240564
 42
3.9032222197
  0
ELLIPSE
  5
4DC
100
AcDbEntity
  8
0
100
AcDbEllipse
 62
7
  6
CONTINUOUS
 10
-102.9614473521
 20
25.6711281727
 30
0.0
 11
0.199943508
 21
0.008945986
 31
0.0
 40
0.5313301283
 41
-2.3799630874
 42
-0.8178934069
  0
ELLIPSE
  5
4DD
100
AcDbEntity
  8
0
100
AcDbEllipse
 62
7
  6
CONTINUOUS
 10
-97.4743678893
 20
22.2127198544
 30
0.0
 11
0.249929385
 21
0.0111824824
 31
0.0
 40
0.5313301283
 41
3.1178240551
 42
3.9032222197
  0
ELLIPSE
  5
4DE
100
AcDbEntity
  8
0
100
AcDbEllipse
 62
7
  6
CONTINUOUS
 10
-99.0918320098
 20
30.1802020383
 30
0.0
 11
0.2197467797
 21
0.4491356978
 31
0.0
 40
0.6167074461
 41
0.2252343201
 42
0.6735828111
  0
ELLIPSE
  5
4DF
100
AcDbEntity
  8
0
100
AcDbEllipse
 62
7
  6
CONTINUOUS
 10
-99.3576491764
 20
72.3114761042
 30
0.0
 11
-0.3192264997
 21
45.1189143812
 31
0.0
 40
0.0071249215
 41
3.4474731796
 42
3.5350182695
  0
ELLIPSE
  5
4E0
100
AcDbEntity
  8
0
100
AcDbEllipse
 62
7
  6
CONTINUOUS
 10
-109.778025882
 20
28.3645488507
 30
0.0
 11
0.249929385
 21
0.0111824824
 31
0.0
 40
0.5313301283
 41
3.1178240551
 42
3.9032222197
  0
ELLIPSE
  5
4E1
100
AcDbEntity
  8
0
100
AcDbEllipse
 62
7
  6
CONTINUOUS
 10
-108.0912601577
 20
27.5211659886
 30
0.0
 11
0.249929385
 21
0.0111824824
 31
0.0
 40
0.5313301283
 41
-2.3799630874
 42
-0.8149845248
  0
ELLIPSE
  5
4E2
100
AcDbEntity
  8
DRAFT
100
AcDbEllipse
 62
7
  6
CONTINUOUS
 10
-66.9502675103
 20
34.4838740463
 30
0.0
 11
51.3179289062
 21
26.749076391
 31
0.0
 40
0.0121390669
 41
-2.2204462554
 42
-2.2121447057
  0
ELLIPSE
  5
4E3
100
AcDbEntity
  8
RACCORDO
100
AcDbEllipse
 62
7
  6
CONTINUOUS
 10
-97.025064953
 20
5.7095548998
 30
0.0
 11
-0.1052529418
 21
0.2820223997
 31
0.0
 40
0.6573891809
 41
-2.1850523983
 42
-0.614560658
  0
ELLIPSE
  5
4E4
100
AcDbEntity
  8
0
100
AcDbEllipse
 62
7
  6
CONTINUOUS
 10
-93.7672025634
 20
26.5982339281
 30
0.0
 11
0.4530414621
 21
-0.0021419047
 31
0.0
 40
0.4964289597
 41
-0.77723337
 42
0.0023470288
  0
ELLIPSE
  5
4E5
100
AcDbEntity
  8
0
100
AcDbEllipse
 62
7
  6
CONTINUOUS
 10
-98.6462759934
 20
28.7239396781
 30
0.0
 11
1.0205811965
 21
-0.0048251373
 31
0.0
 40
0.4964289597
 41
1.3061600176
 42
2.3584907469
  0
ELLIPSE
  5
4E6
100
AcDbEntity
  8
0
100
AcDbEllipse
 62
7
  6
CONTINUOUS
 10
-99.3576491764
 20
29.3934572346
 30
0.0
 11
0.4530414621
 21
-0.0021419047
 31
0.0
 40
0.4964289597
 41
-0.4806702637
 42
0.0023470293
  0
ELLIPSE
  5
4E7
100
AcDbEntity
  8
0
100
AcDbEllipse
 62
7
  6
CONTINUOUS
 10
-110.4717101902
 20
28.0896607473
 30
0.0
 11
-0.2234618187
 21
0.4480306886
 31
0.0
 40
0.6116748051
 41
-0.6831523234
 42
0.886730614
  0
ELLIPSE
  5
4E8
100
AcDbEntity
  8
0
100
AcDbEllipse
 62
7
  6
CONTINUOUS
 10
-104.5847021501
 20
27.7072926297
 30
0.0
 11
0.0907039967
 21
0.1782526758
 31
0.0
 40
0.6176975122
 41
0.6948951487
 42
2.2598737113
  0
ELLIPSE
  5
4E9
100
AcDbEntity
  8
0
100
AcDbEllipse
 62
7
  6
CONTINUOUS
 10
-44.3769042842
 20
51.9477228045
 30
0.0
 11
60.4168605605
 21
30.5632322457
 31
0.0
 40
0.005706723
 41
2.5167363259
 42
2.6876789752
  0
ELLIPSE
  5
4EA
100
AcDbEntity
  8
0
100
AcDbEllipse
 62
7
  6
CONTINUOUS
 10
-93.4798582137
 20
27.3742151402
 30
0.0
 11
0.221538876
 21
0.4482453432
 31
0.0
 40
0.6088015717
 41
0.5825560023
 42
0.6760875334
  0
ELLIPSE
  5
4EB
100
AcDbEntity
  8
0
100
AcDbEllipse
 62
7
  6
CONTINUOUS
 10
-44.3769042842
 20
51.9477228045
 30
0.0
 11
60.4168605605
 21
30.5632322457
 31
0.0
 40
0.005706723
 41
-2.6934527084
 42
-2.5225100591
  0
ELLIPSE
  5
4EC
100
AcDbEntity
  8
0
100
AcDbEllipse
 62
7
  6
CONTINUOUS
 10
-95.7876021651
 20
21.3693369922
 30
0.0
 11
0.249929385
 21
0.0111824824
 31
0.0
 40
0.5313301283
 41
-2.3799630874
 42
-0.8149845248
  0
ELLIPSE
  5
4ED
100
AcDbEntity
  8
ASSI
100
AcDbEllipse
 62
7
  6
CONTINUOUS
 10
-88.581210211
 20
26.6534262423
 30
0.0
 11
-0.3739417019
 21
0.598522373
 31
0.0
 40
0.554557473
 41
-3.1836090632
 42
-2.415663759
  0
ELLIPSE
  5
4EE
100
AcDbEntity
  8
0
100
AcDbEllipse
 62
7
  6
CONTINUOUS
 10
-95.4474712475
 20
-17.2170235187
 30
0.0
 11
-0.2234618187
 21
0.4480306886
 31
0.0
 40
0.6116748051
 41
2.4584403302
 42
4.0283232676
  0
ELLIPSE
  5
4EF
100
AcDbEntity
  8
0
100
AcDbEllipse
 62
7
  6
CONTINUOUS
 10
-95.4474712475
 20
20.5775412759
 30
0.0
 11
-0.2230998035
 21
0.4477110033
 31
0.0
 40
0.6127700112
 41
-2.2535417632
 42
-0.6836588258
  0
ELLIPSE
  5
4F0
100
AcDbEntity
  8
0
100
AcDbEllipse
 62
7
  6
CONTINUOUS
 10
-96.2398300359
 20
29.39277975
 30
0.0
 11
0.4394935595
 21
0.8982713957
 31
0.0
 40
0.6167074461
 41
5.3917895557
 42
6.9567681183
  0
ELLIPSE
  5
4F1
100
AcDbEntity
  8
ASSI
100
AcDbEllipse
 62
7
  6
CONTINUOUS
 10
-88.3291296244
 20
25.4374295443
 30
0.0
 11
-0.7356038977
 21
1.2035991204
 31
0.0
 40
0.5552491559
 41
5.1980061968
 42
6.2356708126
  0
ELLIPSE
  5
4F2
100
AcDbEntity
  8
RACCORDO
100
AcDbEllipse
 62
7
  6
CONTINUOUS
 10
-97.3381672069
 20
17.3479463787
 30
0.0
 11
-0.3130130858
 21
0.6261196575
 31
0.0
 40
0.6125552124
 41
-2.255296188
 42
-0.6848044477
  0
ELLIPSE
  5
4F3
100
AcDbEntity
  8
DRAFT
100
AcDbEllipse
 62
7
  6
CONTINUOUS
 10
-92.8833190869
 20
29.8411963176
 30
0.0
 11
2.7499924258
 21
-0.0130015067
 31
0.0
 40
0.4964289597
 41
2.3672681657
 42
2.9293761837
  0
ELLIPSE
  5
4F4
100
AcDbEntity
  8
DRAFT
100
AcDbEllipse
 62
7
  6
CONTINUOUS
 10
-85.4586978845
 20
26.1288857164
 30
0.0
 11
2.7499924258
 21
-0.0130015067
 31
0.0
 40
0.4964289597
 41
2.3672681657
 42
2.9293761949
  0
ELLIPSE
  5
4F5
100
AcDbEntity
  8
DRAFT
100
AcDbEllipse
 62
7
  6
CONTINUOUS
 10
-84.7869464423
 20
26.0269622666
 30
0.0
 11
2.7583876426
 21
-0.0130411979
 31
0.0
 40
0.4964289597
 41
0.8884696282
 42
2.3585415194
  0
ELLIPSE
  5
4F6
100
AcDbEntity
  8
DRAFT
100
AcDbEllipse
 62
7
  6
CONTINUOUS
 10
-84.7869464423
 20
26.0269622666
 30
0.0
 11
2.7583876426
 21
-0.0130411979
 31
0.0
 40
0.4964289597
 41
0.4412294433
 42
0.6870207571
  0
ELLIPSE
  5
4F7
100
AcDbEntity
  8
DRAFT
100
AcDbEllipse
 62
7
  6
CONTINUOUS
 10
-92.2115676448
 20
29.7392728678
 30
0.0
 11
2.7583876426
 21
-0.0130411979
 31
0.0
 40
0.4964289597
 41
0.4412294433
 42
0.6870207571
  0
ELLIPSE
  5
4F8
100
AcDbEntity
  8
DRAFT
100
AcDbEllipse
 62
7
  6
CONTINUOUS
 10
-92.2115676448
 20
29.7392728678
 30
0.0
 11
2.7583876426
 21
-0.0130411979
 31
0.0
 40
0.4964289597
 41
0.8884696282
 42
2.3585415194
  0
ELLIPSE
  5
4F9
100
AcDbEntity
  8
RACCORDO
100
AcDbEllipse
 62
7
  6
CONTINUOUS
 10
-80.0012477383
 20
27.2324302665
 30
0.0
 11
0.79574694
 21
0.7129684349
 31
0.0
 40
0.2882345029
 41
0.1134874791
 42
0.7807533904
  0
ELLIPSE
  5
4FA
100
AcDbEntity
  8
RACCORDO
100
AcDbEllipse
 62
7
  6
CONTINUOUS
 10
-87.4258689407
 20
30.9447408677
 30
0.0
 11
0.79574694
 21
0.7129684349
 31
0.0
 40
0.2882345029
 41
0.1134874791
 42
0.7807533904
  0
ELLIPSE
  5
4FB
100
AcDbEntity
  8
RACCORDO
100
AcDbEllipse
 62
7
  6
CONTINUOUS
 10
-83.8986358088
 20
29.1811243018
 30
0.0
 11
0.4410298232
 21
0.8975092442
 31
0.0
 40
0.607010042
 41
-0.8902711325
 42
-0.7587130969
  0
ELLIPSE
  5
4FC
100
AcDbEntity
  8
RACCORDO
100
AcDbEllipse
 62
7
  6
CONTINUOUS
 10
-91.3232570113
 20
32.893434903
 30
0.0
 11
0.4410298232
 21
0.8975092442
 31
0.0
 40
0.607010042
 41
-0.8902711325
 42
-0.7587130969
  0
ELLIPSE
  5
4FD
100
AcDbEntity
  8
RACCORDO
100
AcDbEllipse
 62
7
  6
CONTINUOUS
 10
-91.2697014213
 20
32.866657108
 30
0.0
 11
-0.3106730325
 21
1.1082908718
 31
0.0
 40
0.6760995073
 41
4.9783291412
 42
6.4001141399
  0
ELLIPSE
  5
4FE
100
AcDbEntity
  8
RACCORDO
100
AcDbEllipse
 62
7
  6
CONTINUOUS
 10
-83.8450802188
 20
29.1543465068
 30
0.0
 11
-0.3106730325
 21
1.1082908718
 31
0.0
 40
0.6760995073
 41
4.9783291412
 42
6.4001141399
  0
ELLIPSE
  5
4FF
100
AcDbEntity
  8
RACCORDO
100
AcDbEllipse
 62
7
  6
CONTINUOUS
 10
-94.0149053612
 20
18.7427714184
 30
0.0
 11
-0.894612936
 21
1.7887945813
 31
0.0
 40
0.6124635976
 41
4.0276245976
 42
4.1592894158
  0
ELLIPSE
  5
500
100
AcDbEntity
  8
RACCORDO
100
AcDbEllipse
 62
7
  6
CONTINUOUS
 10
-94.0149053612
 20
18.7427714184
 30
0.0
 11
-0.894612936
 21
1.7887945813
 31
0.0
 40
0.6124635976
 41
-1.5634955031
 42
-1.470288718
  0
ELLIPSE
  5
501
100
AcDbEntity
  8
RACCORDO
100
AcDbEllipse
 62
7
  6
CONTINUOUS
 10
-94.0149053612
 20
-11.8650720791
 30
0.0
 11
-0.894811907
 21
1.788971565
 31
0.0
 40
0.6123121697
 41
-3.0410143285
 42
-2.9478075435
  0
ELLIPSE
  5
502
100
AcDbEntity
  8
RACCORDO
100
AcDbEllipse
 62
7
  6
CONTINUOUS
 10
-94.0149053612
 20
-11.8650720791
 30
0.0
 11
-0.894811907
 21
1.788971565
 31
0.0
 40
0.6123121697
 41
3.8957781521
 42
4.0274429702
  0
ELLIPSE
  5
503
100
AcDbEntity
  8
0
100
AcDbEllipse
 62
7
  6
CONTINUOUS
 10
-85.4822309727
 20
27.3560979519
 30
0.0
 11
3.3022643479
 21
-0.04629945
 31
0.0
 40
0.4892378494
 41
2.3616770883
 42
5.5059722822
  0
ELLIPSE
  5
504
100
AcDbEntity
  8
RACCORDO
100
AcDbEllipse
 62
7
  6
CONTINUOUS
 10
-100.2531548624
 20
26.8984949394
 30
0.0
 11
1.2141619185
 21
0.9541526469
 31
0.0
 40
0.2329077568
 41
0.1095198182
 42
0.114024621
  0
ELLIPSE
  5
505
100
AcDbEntity
  8
DRAFT
100
AcDbEllipse
 62
7
  6
CONTINUOUS
 10
-84.7869464423
 20
28.0074503792
 30
0.0
 11
2.7583515655
 21
-1.4175703156
 31
0.0
 40
0.0109499087
 41
-0.8804952881
 42
-0.85781018
  0
ELLIPSE
  5
506
100
AcDbEntity
  8
DRAFT
100
AcDbEllipse
 62
7
  6
CONTINUOUS
 10
-92.2115676448
 20
31.7197609805
 30
0.0
 11
2.7583515655
 21
-1.4175703156
 31
0.0
 40
0.0109499087
 41
-0.7017315251
 42
-0.679046417
  0
ELLIPSE
  5
507
100
AcDbEntity
  8
DRAFT
100
AcDbEllipse
 62
7
  6
CONTINUOUS
 10
-92.2115676448
 20
30.1722855697
 30
0.0
 11
2.7583876426
 21
-0.0130411979
 31
0.0
 40
0.4964289597
 41
0.1877225706
 42
2.3585415194
  0
ELLIPSE
  5
508
100
AcDbEntity
  8
DRAFT
100
AcDbEllipse
 62
7
  6
CONTINUOUS
 10
-84.7869464423
 20
26.4599749685
 30
0.0
 11
2.7583876426
 21
-0.0130411979
 31
0.0
 40
0.4964289597
 41
0.1877225706
 42
2.3585415194
  0
ELLIPSE
  5
509
100
AcDbEntity
  8
DRAFT
100
AcDbEllipse
 62
7
  6
CONTINUOUS
 10
-92.2115676448
 20
31.7197609805
 30
0.0
 11
2.7583515655
 21
-1.4175703156
 31
0.0
 40
0.0109499087
 41
-0.8804952881
 42
-0.85781018
  0
ELLIPSE
  5
50A
100
AcDbEntity
  8
DRAFT
100
AcDbEllipse
 62
7
  6
CONTINUOUS
 10
-84.7869464423
 20
28.0074503792
 30
0.0
 11
2.7583515655
 21
-1.4175703156
 31
0.0
 40
0.0109499087
 41
-0.7017315251
 42
-0.679046417
  0
ELLIPSE
  5
50B
100
AcDbEntity
  8
0
100
AcDbEllipse
 62
7
  6
CONTINUOUS
 10
-92.9068521751
 20
31.0684085532
 30
0.0
 11
3.3022643479
 21
-0.04629945
 31
0.0
 40
0.4892378494
 41
2.3616770883
 42
5.5059722822
  0
ENDSEC
  0
SECTION
  2
OBJECTS
  0
DICTIONARY
  5
C
100
AcDbDictionary
280
0
281
1
  3
ACAD_GROUP
350
D
  3
ACAD_MLINESTYLE
350
17
  3
ACAD_LAYOUT
350
1A
  3
ACAD_PLOTSETTINGS
350
19
  3
ACAD_PLOTSTYLENAME
350
E
  0
DICTIONARY
  5
D
102
{ACAD_REACTORS
330
C
102
}
100
AcDbDictionary
280
0
281
1
  0
ACDBDICTIONARYWDFLT
  5
E
102
{ACAD_REACTORS
330
C
102
}
100
AcDbDictionary
281
1
  3
Normal
350
F
100
AcDbDictionaryWithDefault
340
F
  0
DICTIONARY
  5
17
102
{ACAD_REACTORS
330
C
102
}
100
AcDbDictionary
280
0
281
1
  3
Standard
350
18
  0
DICTIONARY
  5
19
102
{ACAD_REACTORS
330
C
102
}
100
AcDbDictionary
281
1
  0
DICTIONARY
  5
1A
102
{ACAD_REACTORS
330
C
102
}
100
AcDbDictionary
281
1
  3
Model
350
50C
  3
Layout1
350
50D
  0
ACDBPLACEHOLDER
  5
F
102
{ACAD_REACTORS
330
E
102
}
  0
MLINESTYLE
  5
18
102
{ACAD_REACTORS
330
17
102
}
100
AcDbMlineStyle
  2
STANDARD
 70
0
  3

 62
256
 51
90.0
 52
90.0
 71
2
 49
0.5
 62
256
  6
BYLAYER
 49
-0.5
 62
256
  6
BYLAYER
  0
LAYOUT
  5
50C
102
{ACAD_REACTORS
330
1A
102
}
100
AcDbPlotSettings
  1

  2
none_device
  4
ANSI_C_(22.00_x_17.00_Inches)
  6

 40
0.0
 41
0.0
 42
0.0
 43
0.0
 44
558.8
 45
431.8
 46
0.0
 47
0.0
 48
0.0
 49
0.0
140
0.0
141
0.0
142
1.0
143
1.0
 70
1024
 72
1
 73
0
 74
0
  7

 75
0
147
1.0
148
0.0
149
0.0
100
AcDbLayout
  1
Model
 70
0
 71
0
 10
0.0
 20
0.0
 11
558.8
 21
431.8
 12
0.0
 22
0.0
 32
0.0
 14
0.0
 24
0.0
 34
0.0
 15
0.0
 25
0.0
 35
0.0
146
0.0
 13
0.0
 23
0.0
 33
0.0
 16
1.0
 26
0.0
 36
0.0
 17
0.0
 27
1.0
 37
0.0
 76
0
330
220
345
0
346
0
  0
LAYOUT
  5
50D
102
{ACAD_REACTORS
330
1A
102
}
100
AcDbPlotSettings
  1

  2
none_device
  4
ANSI_C_(22.00_x_17.00_Inches)
  6

 40
0.0
 41
0.0
 42
0.0
 43
0.0
 44
558.8
 45
431.8
 46
0.0
 47
0.0
 48
0.0
 49
0.0
140
0.0
141
0.0
142
1.0
143
1.0
 70
0
 72
1
 73
0
 74
0
  7

 75
0
147
1.0
148
0.0
149
0.0
100
AcDbLayout
  1
Layout1
 70
0
 71
1
 10
0.0
 20
0.0
 11
558.8
 21
431.8
 12
0.0
 22
0.0
 32
0.0
 14
0.0
 24
0.0
 34
0.0
 15
0.0
 25
0.0
 35
0.0
146
0.0
 13
0.0
 23
0.0
 33
0.0
 16
1.0
 26
0.0
 36
0.0
 17
0.0
 27
1.0
 37
0.0
 76
0
330
221
345
0
346
0
  0
ENDSEC
  0
EOF
