  0
SECTION
  2
HEADER
  9
$ACADVER
  1
AC1024
  9
$DWGCODEPAGE
  3
ANSI_1252
  9
$EXTMAX
 10
297.0
 20
210.0
 30
0.0
  9
$EXTMIN
 10
0.0
 20
0.0
 30
0.0
  9
$LIMMIN
 10
0.0
 20
0.0
  9
$LIMMAX
 10
297.0
 20
210.0
  9
$VIEWCTR
 10
148.5
 20
105.0
  9
$VIEWSIZE
 40
210.0
  9
$CLAYER
  8
0
  9
$LTSCALE
 40
16.335
  9
$CELTYPE
  6
BYLAYER
  9
$DIMSCALE
 40
1.0
  9
$DIMASZ
 40
3.0
  9
$DIMEXO
 40
0.5
  9
$DIMDLI
 40
11.286
  9
$DIMEXE
 40
1.5
  9
$DIMCEN
 40
2.673
  9
$DIMLFAC
 40
1.0
  9
$DIMBLK
  1
_FILLED
  9
$DIMALT
 70
0
  9
$DIMALTF
 40
0.0393700787
  9
$DIMTXT
 40
3.0
  9
$DIMTOL
 70
1
  9
$DIMLIM
 70
0
  9
$DIMTFAC
 40
1.0
  9
$DIMTP
 40
0.01
  9
$DIMTM
 40
0.01
  9
$DIMGAP
 40
0.625
  9
$DIMDSEP
 70
44
  9
$AUNITS
 70
0
  9
$PDMODE
 70
3
  9
$PDSIZE
 40
3.0
  9
$HANDSEED
  5
44A
  9
$TILEMODE
 70
1
  9
$MEASUREMENT
 70
1
  9
$INSUNITS
 70
4
  0
ENDSEC
  0
SECTION
  2
CLASSES
  0
CLASS
  1
ACDBDICTIONARYWDFLT
  2
AcDbDictionaryWithDefault
  3
AutoCAD 2000
 90
0
 91
1
280
0
281
0
  0
CLASS
  1
ACDBPLACEHOLDER
  2
AcDbPlaceHolder
  3
AutoCAD 2000
 90
0
 91
1
280
0
281
0
  0
CLASS
  1
LAYOUT
  2
AcDbLayout
  3
AutoCAD 2000
 90
0
 91
0
280
0
281
0
  0
ENDSEC
  0
SECTION
  2
TABLES
  0
TABLE
  2
VPORT
  5
8
100
AcDbSymbolTable
 70
2
  0
VPORT
  5
1F4
100
AcDbSymbolTableRecord
100
AcDbViewportTableRecord
  2
*ACTIVE
 70
0
 10
0.0
 20
0.0
 11
1.0
 21
1.0
 12
148.5
 22
105.0
 13
0.0
 23
0.0
 14
1.0
 24
1.0
 15
0.0
 25
0.0
 16
0.0
 26
0.0
 36
1.0
 17
0.0
 27
0.0
 37
0.0
 40
210.0
 41
1.4142857143
 42
50.0
 43
0.0
 44
0.0
 50
0.0
 51
0.0
 71
0
 72
100
 73
1
 74
1
 75
0
 76
0
 77
0
 78
0
  0
ENDTAB
  0
TABLE
  2
LTYPE
  5
5
100
AcDbSymbolTable
 70
6
  0
LTYPE
  5
14
100
AcDbSymbolTableRecord
100
AcDbLinetypeTableRecord
  2
BYBLOCK
 70
0
  3

 72
65
 73
0
 40
0.0
  0
LTYPE
  5
15
100
AcDbSymbolTableRecord
100
AcDbLinetypeTableRecord
  2
BYLAYER
 70
0
  3

 72
65
 73
0
 40
0.0
  0
LTYPE
  5
16
100
AcDbSymbolTableRecord
100
AcDbLinetypeTableRecord
  2
CONTINUOUS
 70
64
  3
Solid line
 72
65
 73
0
 40
0.0
  0
LTYPE
  5
1F5
100
AcDbSymbolTableRecord
100
AcDbLinetypeTableRecord
  2
CENTER
 70
64
  3
____ _ ____ _ ____ _ ____ _ ____ _ ____ _ ____
 72
65
 73
4
 40
0.6
 49
0.375
 74
0
 49
-0.075
 74
0
 49
0.075
 74
0
 49
-0.075
 74
0
  0
LTYPE
  5
1F6
100
AcDbSymbolTableRecord
100
AcDbLinetypeTableRecord
  2
HIDDEN
 70
64
  3
- - - - - - - - - - - - - - - - - - - -
 72
65
 73
2
 40
0.2
 49
0.1
 74
0
 49
-0.1
 74
0
  0
LTYPE
  5
1F7
100
AcDbSymbolTableRecord
100
AcDbLinetypeTableRecord
  2
PHANTOM
 70
64
  3
_____ _ _ _____ _ _ _____ _ _ _____
 72
65
 73
6
 40
0.8
 49
0.45
 74
0
 49
-0.05
 74
0
 49
0.1
 74
0
 49
-0.05
 74
0
 49
0.1
 74
0
 49
-0.05
 74
0
  0
LTYPE
  5
1F8
100
AcDbSymbolTableRecord
100
AcDbLinetypeTableRecord
  2
DOT
 70
64
  3
. . . . . . . . . . . . . . . . . . . .
 72
65
 73
2
 40
0.2
 49
0.1
 74
0
 49
-0.1
 74
0
  0
LTYPE
  5
1F9
100
AcDbSymbolTableRecord
100
AcDbLinetypeTableRecord
  2
DASHED
 70
64
  3
- - - - - - - - - - - - - - - - - - - -
 72
65
 73
2
 40
0.2
 49
0.1
 74
0
 49
-0.1
 74
0
  0
ENDTAB
  0
TABLE
  2
LAYER
  5
2
100
AcDbSymbolTable
 70
36
  0
LAYER
  5
10
100
AcDbSymbolTableRecord
100
AcDbLayerTableRecord
  2
0
 70
0
 62
7
  6
CONTINUOUS
370
-3
390
F
  0
LAYER
  5
1FA
100
AcDbSymbolTableRecord
100
AcDbLayerTableRecord
  2
DEFAULT_1
 70
0
 62
7
  6
CENTER
370
-3
390
F
  0
LAYER
  5
1FB
100
AcDbSymbolTableRecord
100
AcDbLayerTableRecord
  2
DEFAULT_2
 70
0
 62
7
  6
HIDDEN
370
-3
390
F
  0
LAYER
  5
1FC
100
AcDbSymbolTableRecord
100
AcDbLayerTableRecord
  2
DEFAULT_3
 70
0
 62
7
  6
PHANTOM
370
-3
390
F
  0
LAYER
  5
1FD
100
AcDbSymbolTableRecord
100
AcDbLayerTableRecord
  2
ASSI
 70
0
 62
7
  6
CONTINUOUS
370
-3
390
F
  0
LAYER
  5
1FE
100
AcDbSymbolTableRecord
100
AcDbLayerTableRecord
  2
COLOR9
 70
0
 62
7
  6
CONTINUOUS
370
-3
390
F
  0
LAYER
  5
1FF
100
AcDbSymbolTableRecord
100
AcDbLayerTableRecord
  2
COLORE_TOP
 70
0
 62
7
  6
CONTINUOUS
370
-3
390
F
  0
LAYER
  5
200
100
AcDbSymbolTableRecord
100
AcDbLayerTableRecord
  2
COORDINATE
 70
0
 62
7
  6
CONTINUOUS
370
-3
390
F
  0
LAYER
  5
201
100
AcDbSymbolTableRecord
100
AcDbLayerTableRecord
  2
COORD_ORIGINE
 70
0
 62
7
  6
CONTINUOUS
370
-3
390
F
  0
LAYER
  5
202
100
AcDbSymbolTableRecord
100
AcDbLayerTableRecord
  2
COPY
 70
0
 62
7
  6
CONTINUOUS
370
-3
390
F
  0
LAYER
  5
203
100
AcDbSymbolTableRecord
100
AcDbLayerTableRecord
  2
COPY-PUBBLISH
 70
0
 62
7
  6
CONTINUOUS
370
-3
390
F
  0
LAYER
  5
204
100
AcDbSymbolTableRecord
100
AcDbLayerTableRecord
  2
COSMETICHE
 70
0
 62
7
  6
CONTINUOUS
370
-3
390
F
  0
LAYER
  5
205
100
AcDbSymbolTableRecord
100
AcDbLayerTableRecord
  2
COSMETICI
 70
0
 62
7
  6
CONTINUOUS
370
-3
390
F
  0
LAYER
  5
206
100
AcDbSymbolTableRecord
100
AcDbLayerTableRecord
  2
CURVA_CENTRALE
 70
0
 62
7
  6
CONTINUOUS
370
-3
390
F
  0
LAYER
  5
207
100
AcDbSymbolTableRecord
100
AcDbLayerTableRecord
  2
CURVE
 70
0
 62
7
  6
CONTINUOUS
370
-3
390
F
  0
LAYER
  5
208
100
AcDbSymbolTableRecord
100
AcDbLayerTableRecord
  2
DRAFT
 70
0
 62
7
  6
CONTINUOUS
370
-3
390
F
  0
LAYER
  5
209
100
AcDbSymbolTableRecord
100
AcDbLayerTableRecord
  2
IGES
 70
0
 62
7
  6
CONTINUOUS
370
-3
390
F
  0
LAYER
  5
20A
100
AcDbSymbolTableRecord
100
AcDbLayerTableRecord
  2
IGES_SCRITTE
 70
0
 62
7
  6
CONTINUOUS
370
-3
390
F
  0
LAYER
  5
20B
100
AcDbSymbolTableRecord
100
AcDbLayerTableRecord
  2
INCISIONI_LASER
 70
0
 62
7
  6
CONTINUOUS
370
-3
390
F
  0
LAYER
  5
20C
100
AcDbSymbolTableRecord
100
AcDbLayerTableRecord
  2
INTF_1
 70
0
 62
7
  6
CONTINUOUS
370
-3
390
F
  0
LAYER
  5
20D
100
AcDbSymbolTableRecord
100
AcDbLayerTableRecord
  2
INTF_2
 70
0
 62
7
  6
CONTINUOUS
370
-3
390
F
  0
LAYER
  5
20E
100
AcDbSymbolTableRecord
100
AcDbLayerTableRecord
  2
INTF_YELLOW
 70
0
 62
7
  6
CONTINUOUS
370
-3
390
F
  0
LAYER
  5
20F
100
AcDbSymbolTableRecord
100
AcDbLayerTableRecord
  2
NOTE
 70
0
 62
7
  6
CONTINUOUS
370
-3
390
F
  0
LAYER
  5
210
100
AcDbSymbolTableRecord
100
AcDbLayerTableRecord
  2
PIANI
 70
0
 62
7
  6
CONTINUOUS
370
-3
390
F
  0
LAYER
  5
211
100
AcDbSymbolTableRecord
100
AcDbLayerTableRecord
  2
PIANI_ORIGINE
 70
0
 62
7
  6
CONTINUOUS
370
-3
390
F
  0
LAYER
  5
212
100
AcDbSymbolTableRecord
100
AcDbLayerTableRecord
  2
PIANI_RIFERIMENTO
 70
0
 62
7
  6
CONTINUOUS
370
-3
390
F
  0
LAYER
  5
213
100
AcDbSymbolTableRecord
100
AcDbLayerTableRecord
  2
PIANI_SFORMO
 70
0
 62
7
  6
CONTINUOUS
370
-3
390
F
  0
LAYER
  5
214
100
AcDbSymbolTableRecord
100
AcDbLayerTableRecord
  2
PUNTI
 70
0
 62
7
  6
CONTINUOUS
370
-3
390
F
  0
LAYER
  5
215
100
AcDbSymbolTableRecord
100
AcDbLayerTableRecord
  2
RACCORDO
 70
0
 62
7
  6
CONTINUOUS
370
-3
390
F
  0
LAYER
  5
216
100
AcDbSymbolTableRecord
100
AcDbLayerTableRecord
  2
RGB__255__255__255__
 70
0
 62
7
  6
CONTINUOUS
370
-3
390
F
  0
LAYER
  5
217
100
AcDbSymbolTableRecord
100
AcDbLayerTableRecord
  2
SMUSSO
 70
0
 62
7
  6
CONTINUOUS
370
-3
390
F
  0
LAYER
  5
218
100
AcDbSymbolTableRecord
100
AcDbLayerTableRecord
  2
SUPERFICI
 70
0
 62
7
  6
CONTINUOUS
370
-3
390
F
  0
LAYER
  5
219
100
AcDbSymbolTableRecord
100
AcDbLayerTableRecord
  2
TRACCIABILITA
 70
0
 62
7
  6
CONTINUOUS
370
-3
390
F
  0
LAYER
  5
21A
100
AcDbSymbolTableRecord
100
AcDbLayerTableRecord
  2
TRASH
 70
0
 62
7
  6
CONTINUOUS
370
-3
390
F
  0
LAYER
  5
21B
100
AcDbSymbolTableRecord
100
AcDbLayerTableRecord
  2
XSEC_DATUMS
 70
0
 62
7
  6
CONTINUOUS
370
-3
390
F
  0
ENDTAB
  0
TABLE
  2
STYLE
  5
3
100
AcDbSymbolTable
 70
1
  0
STYLE
  5
11
100
AcDbSymbolTableRecord
100
AcDbTextStyleTableRecord
  2
STANDARD
 70
0
 40
0.0
 41
0.8
 50
0.0
 71
0
 42
0.2
  3
txt
  4

  0
STYLE
  5
21C
100
AcDbSymbolTableRecord
100
AcDbTextStyleTableRecord
  2
TEXTSTYLE_1
 70
0
 40
0.0
 41
0.8
 50
0.0
 71
0
 42
0.2
  3
gdt
  4

  0
ENDTAB
  0
TABLE
  2
VIEW
  5
6
100
AcDbSymbolTable
 70
0
  0
ENDTAB
  0
TABLE
  2
UCS
  5
7
100
AcDbSymbolTable
 70
0
  0
ENDTAB
  0
TABLE
  2
APPID
  5
9
100
AcDbSymbolTable
 70
1
  0
APPID
  5
21D
100
AcDbSymbolTableRecord
100
AcDbRegAppTableRecord
  2
ACAD
 70
0
  0
ENDTAB
  0
TABLE
  2
BLOCK_RECORD
  5
1
100
AcDbSymbolTable
 70
0
  0
BLOCK_RECORD
  5
21E
100
AcDbSymbolTableRecord
100
AcDbBlockTableRecord
  2
*Model_Space
  0
BLOCK_RECORD
  5
21F
100
AcDbSymbolTableRecord
100
AcDbBlockTableRecord
  2
*Paper_Space
  0
BLOCK_RECORD
  5
220
100
AcDbSymbolTableRecord
100
AcDbBlockTableRecord
  2
_FILLED
  0
ENDTAB
  0
TABLE
  2
DIMSTYLE
  5
A
100
AcDbSymbolTable
 70
1
100
AcDbDimStyleTable
 71
0
  0
DIMSTYLE
105
221
100
AcDbSymbolTableRecord
100
AcDbDimStyleTableRecord
  2
STANDARD
 70
0
  3

  4

 40
1.0
 41
3.0
 42
0.5
 43
0.38
 44
1.5
 45
0.0
 46
0.0
 47
0.01
 48
0.01
140
3.0
141
0.09
142
0.0
143
25.4
144
1.0
145
0.0
146
1.0
147
0.625
 71
1
 72
0
 73
0
 74
0
 75
0
 76
0
 77
1
 78
8
 79
2
170
0
171
1
172
0
173
0
174
0
175
0
176
0
177
0
178
0
270
2
179
2
271
2
272
2
273
2
274
2
275
0
280
0
281
0
282
0
283
1
284
8
285
0
286
0
287
3
288
0
340
11
278
44
341
220
342
220
343
220
344
220
  0
ENDTAB
  0
ENDSEC
  0
SECTION
  2
BLOCKS
  0
BLOCK
  5
20
100
AcDbEntity
  8
0
100
AcDbBlockBegin
  2
*Model_Space
 70
0
 10
0.0
 20
0.0
 30
0.0
  3
*Model_Space
  1

  0
ENDBLK
  5
21
100
AcDbEntity
  8
0
100
AcDbBlockEnd
  0
BLOCK
  5
1C
100
AcDbEntity
  8
0
100
AcDbBlockBegin
  2
*Paper_Space
 70
0
 10
0.0
 20
0.0
 30
0.0
  3
*Paper_Space
  1

  0
ENDBLK
  5
1D
100
AcDbEntity
  8
0
100
AcDbBlockEnd
  0
BLOCK
  5
222
100
AcDbEntity
  8
0
100
AcDbBlockBegin
  2
_FILLED
 70
64
 10
0.0
 20
0.0
  3
_FILLED
  1

  0
SOLID
  5
223
100
AcDbEntity
  8
0
  6
BYBLOCK
 62
0
100
AcDbTrace
 10
0.0
 20
0.0
 11
-1.0
 21
0.3166666667
 12
-1.0
 22
-0.3166666667
 13
-1.0
 23
-0.3166666667
  0
ENDBLK
  5
224
100
AcDbEntity
  8
0
  6
BYBLOCK
 62
0
100
AcDbBlockEnd
  0
ENDSEC
  0
SECTION
  2
ENTITIES
  0
LWPOLYLINE
  5
225
100
AcDbEntity
  8
RACCORDO
100
AcDbPolyline
 62
250
  6
CONTINUOUS
 90
11
 70
0
 10
-18.7817626548
 20
-19.7654797788
 10
-18.8216395228
 20
-19.7406562329
 10
-18.8585664111
 20
-19.710621379
 10
-18.8923177226
 20
-19.6755576034
 10
-18.9226978349
 20
-19.6356707803
 10
-18.949522723
 20
-19.5911995586
 10
-18.9726266384
 20
-19.5424132364
 10
-18.9918736186
 20
-19.4896044551
 10
-19.0071480307
 20
-19.4330910728
 10
-19.0183548143
 20
-19.3732137525
 10
-19.0254254217
 20
-19.3103328333
  0
LWPOLYLINE
  5
226
100
AcDbEntity
  8
RACCORDO
100
AcDbPolyline
 62
250
  6
CONTINUOUS
 90
4
 70
0
 10
-16.8131695215
 20
19.0415701573
 10
-16.7597822359
 20
19.0799333025
 10
-16.7058766251
 20
19.1134056618
 10
-16.6517809336
 20
19.141787937
  0
LINE
  5
227
100
AcDbEntity
  8
0
100
AcDbLine
 62
7
  6
CONTINUOUS
 10
-13.5565902285
 20
21.192239109
 11
-12.9863909018
 21
21.5247175427
  0
LINE
  5
228
100
AcDbEntity
  8
0
100
AcDbLine
 62
250
  6
CONTINUOUS
 10
-13.3226874534
 20
21.1837916743
 11
-12.8786801644
 21
21.4426885917
  0
LWPOLYLINE
  5
229
100
AcDbEntity
  8
RACCORDO
100
AcDbPolyline
 62
7
  6
CONTINUOUS
 90
14
 70
0
 10
-16.8820660259
 20
19.1528064841
 10
-16.9466853572
 20
19.1178108169
 10
-17.0158600208
 20
19.0724990593
 10
-17.0823233516
 20
19.02047431
 10
-17.1456882439
 20
18.9621091981
 10
-17.2051288643
 20
18.8982949031
 10
-17.2606293783
 20
18.8291880243
 10
-17.3119723745
 20
18.7550488852
 10
-17.3581924563
 20
18.677275055
 10
-17.3991955636
 20
18.5961910304
 10
-17.4347642331
 20
18.5120693831
 10
-17.4641927318
 20
18.4265351412
 10
-17.4872863559
 20
18.3402973792
 10
-17.5042526579
 20
18.25174803
  0
LINE
  5
22A
100
AcDbEntity
  8
0
100
AcDbLine
 62
7
  6
CONTINUOUS
 10
-13.4457872241
 20
22.5392775249
 11
-11.8626135588
 21
23.351475583
  0
LINE
  5
22B
100
AcDbEntity
  8
0
100
AcDbLine
 62
250
  6
CONTINUOUS
 10
-13.332701558
 20
22.5328295497
 11
-11.7499449548
 21
23.3448136471
  0
LINE
  5
22C
100
AcDbEntity
  8
0
100
AcDbLine
 62
250
  6
CONTINUOUS
 10
-11.6541634876
 20
21.6935605145
 11
-10.0528826967
 21
22.496282518
  0
LINE
  5
22D
100
AcDbEntity
  8
0
100
AcDbLine
 62
250
  6
CONTINUOUS
 10
-11.4773897839
 20
21.3886709757
 11
-9.8761089931
 21
22.1913929792
  0
LINE
  5
22E
100
AcDbEntity
  8
0
100
AcDbLine
 62
7
  6
CONTINUOUS
 10
-11.8626135608
 20
23.351475582
 11
-11.8608771441
 21
23.3523438047
  0
LINE
  5
22F
100
AcDbEntity
  8
0
100
AcDbLine
 62
250
  6
CONTINUOUS
 10
-10.0528826967
 20
22.496282518
 11
-9.524615525
 21
22.759721338
  0
LINE
  5
230
100
AcDbEntity
  8
0
100
AcDbLine
 62
250
  6
CONTINUOUS
 10
-9.8761089931
 20
22.1913929792
 11
-9.3478418213
 21
22.4548317992
  0
LINE
  5
231
100
AcDbEntity
  8
RACCORDO
100
AcDbLine
 62
7
  6
CONTINUOUS
 10
-16.8821198498
 20
19.1527937186
 11
-14.1471823291
 21
20.4917251443
  0
LINE
  5
232
100
AcDbEntity
  8
RACCORDO
100
AcDbLine
 62
250
  6
CONTINUOUS
 10
-16.6517809336
 20
19.141787937
 11
-13.9205013684
 21
20.4789285534
  0
LWPOLYLINE
  5
233
100
AcDbEntity
  8
0
100
AcDbPolyline
 62
250
  6
CONTINUOUS
 90
16
 70
0
 10
-13.4457872241
 20
22.5392775249
 10
-13.4423894999
 20
22.5409351492
 10
-13.4356442789
 20
22.543747697
 10
-13.4286635399
 20
22.5460462505
 10
-13.421463096
 20
22.5478256029
 10
-13.4140592576
 20
22.5490817236
 10
-13.4064687961
 20
22.5498117672
 10
-13.3987089057
 20
22.55001408
 10
-13.3907971642
 20
22.5496882038
 10
-13.3827514935
 20
22.5488348766
 10
-13.3745901188
 20
22.5474560316
 10
-13.3663315275
 20
22.545554792
 10
-13.3579944272
 20
22.5431354646
 10
-13.3495977032
 20
22.5402035298
 10
-13.3411603759
 20
22.5367656289
 10
-13.332701558
 20
22.5328295497
  0
LINE
  5
234
100
AcDbEntity
  8
0
100
AcDbLine
 62
7
  6
CONTINUOUS
 10
-11.8608771449
 20
23.3523438043
 11
-11.3260071872
 21
23.6128959047
  0
LINE
  5
235
100
AcDbEntity
  8
0
100
AcDbLine
 62
250
  6
CONTINUOUS
 10
-11.7499449548
 20
23.3448136471
 11
-11.2154950761
 21
23.6051611136
  0
LWPOLYLINE
  5
236
100
AcDbEntity
  8
0
100
AcDbPolyline
 62
7
  6
CONTINUOUS
 90
16
 70
0
 10
-11.8608771441
 20
23.3523438047
 10
-11.8592195158
 20
23.3531313132
 10
-11.8524840269
 20
23.3559388511
 10
-11.8455162877
 20
23.3582307127
 10
-11.8383320306
 20
23.3600017325
 10
-11.830947515
 20
23.3612479076
 10
-11.8233795606
 20
23.3619663728
 10
-11.8156452391
 20
23.3621555379
 10
-11.8077620332
 20
23.3618149946
 10
-11.7997479337
 20
23.360945453
 10
-11.7916210034
 20
23.35954893
 10
-11.7833995923
 20
23.3576286201
 10
-11.7751024956
 20
23.3551887934
 10
-11.7667485022
 20
23.3522349825
 10
-11.7583563531
 20
23.3487739695
 10
-11.7499449548
 20
23.3448136471
  0
LWPOLYLINE
  5
237
100
AcDbEntity
  8
0
100
AcDbPolyline
 62
250
  6
CONTINUOUS
 90
16
 70
0
 10
-11.3260071872
 20
23.6128959047
 10
-11.3243344639
 20
23.6136903542
 10
-11.3176075335
 20
23.6164920087
 10
-11.3106515519
 20
23.6187762898
 10
-11.30348221
 20
23.6205380313
 10
-11.2961158143
 20
23.6217732133
 10
-11.2885692173
 20
23.6224790232
 10
-11.2808596313
 20
23.6226538924
 10
-11.273004432
 20
23.6222974673
 10
-11.2650212733
 20
23.6214105634
 10
-11.2569270257
 20
23.6199949392
 10
-11.248741215
 20
23.6180538956
 10
-11.2404859488
 20
23.6155929985
 10
-11.2321811931
 20
23.6126189491
 10
-11.2238446116
 20
23.6091388165
 10
-11.2154950761
 20
23.6051611136
  0
LWPOLYLINE
  5
238
100
AcDbEntity
  8
RACCORDO
100
AcDbPolyline
 62
250
  6
CONTINUOUS
 90
8
 70
0
 10
-16.8820713811
 20
19.1528174394
 10
-16.8668799283
 20
19.1595079238
 10
-16.8344532083
 20
19.1693283039
 10
-16.800141652
 20
19.1740518443
 10
-16.7643208564
 20
19.1736268379
 10
-16.7273829399
 20
19.1680579371
 10
-16.6897322492
 20
19.1574061028
 10
-16.6517809336
 20
19.141787937
  0
LINE
  5
239
100
AcDbEntity
  8
0
100
AcDbLine
 62
250
  6
CONTINUOUS
 10
2.9558161713
 20
-25.3441328532
 11
2.4275489996
 21
-25.2356305761
  0
LWPOLYLINE
  5
23A
100
AcDbEntity
  8
0
100
AcDbPolyline
 62
7
  6
CONTINUOUS
 90
45
 70
0
 10
1.5374888169
 20
-25.551239617
 10
1.5317501336
 20
-25.5500219277
 10
1.5258244139
 20
-25.5487038533
 10
1.5197129323
 20
-25.5472892773
 10
1.513414356
 20
-25.5457860125
 10
1.5069333008
 20
-25.5441945674
 10
1.5002802731
 20
-25.5425081179
 10
1.4934573885
 20
-25.5407314481
 10
1.4864671862
 20
-25.5388691331
 10
1.4793210695
 20
-25.5369142603
 10
1.4720218852
 20
-25.5348721134
 10
1.4645728674
 20
-25.532747795
 10
1.4569862589
 20
-25.5305343431
 10
1.4492656635
 20
-25.5282375339
 10
1.441415028
 20
-25.5258629864
 10
1.4334473682
 20
-25.5234037284
 10
1.4253670438
 20
-25.5208660108
 10
1.417178757
 20
-25.5182559662
 10
1.4088963028
 20
-25.5155666786
 10
1.4005248248
 20
-25.5128048595
 10
1.3920698017
 20
-25.5099771473
 10
1.3835458149
 20
-25.5070767621
 10
1.3749588149
 20
-25.5041108538
 10
1.3663150854
 20
-25.5010865596
 10
1.3576300172
 20
-25.4979973405
 10
1.3489103948
 20
-25.494850753
 10
1.3401633305
 20
-25.4916544227
 10
1.3314050488
 20
-25.4884021844
 10
1.3226431974
 20
-25.4851019566
 10
1.3138857304
 20
-25.4817618328
 10
1.3051497078
 20
-25.4783761836
 10
1.2964436691
 20
-25.4749532279
 10
1.2877764041
 20
-25.4715014904
 10
1.2791657543
 20
-25.4680160624
 10
1.2706212003
 20
-25.4645053965
 10
1.2621523054
 20
-25.4609783708
 10
1.25377746
 20
-25.4574309494
 10
1.2455070566
 20
-25.4538717138
 10
1.2373514007
 20
-25.4503098143
 10
1.2293291801
 20
-25.4467422626
 10
1.221461966
 20
-25.4431838185
 10
1.2137501933
 20
-25.4396371074
 10
1.2061823011
 20
-25.4360833886
 10
1.1987637658
 20
-25.4325251483
 10
1.1915158858
 20
-25.4289834059
  0
LWPOLYLINE
  5
23B
100
AcDbEntity
  8
RACCORDO
100
AcDbPolyline
 62
7
  6
CONTINUOUS
 90
11
 70
0
 10
-4.0809842678
 20
-27.1160304822
 10
-4.0477926464
 20
-27.1316019232
 10
-3.9891577339
 20
-27.1541831539
 10
-3.9283633284
 20
-27.1715347025
 10
-3.8657550538
 20
-27.1834772074
 10
-3.8014159979
 20
-27.1898774204
 10
-3.7357610185
 20
-27.1905583271
 10
-3.6692857959
 20
-27.1853896233
 10
-3.6020846417
 20
-27.1742158684
 10
-3.5344266986
 20
-27.1568750018
 10
-3.4809585973
 20
-27.1387713223
  0
LINE
  5
23C
100
AcDbEntity
  8
RACCORDO
100
AcDbLine
 62
7
  6
CONTINUOUS
 10
-18.7714246863
 20
-19.7708211972
 11
-18.7723035704
 21
-19.7703832329
  0
LINE
  5
23D
100
AcDbEntity
  8
ASSI
100
AcDbLine
 62
7
  6
CONTINUOUS
 10
-18.7723023354
 20
-19.7703838504
 11
-4.0801300034
 21
-27.1164700164
  0
LINE
  5
23E
100
AcDbEntity
  8
RACCORDO
100
AcDbLine
 62
250
  6
CONTINUOUS
 10
-19.0254254217
 20
-19.3103328333
 11
-4.3406705308
 21
-26.6527102787
  0
LINE
  5
23F
100
AcDbEntity
  8
RACCORDO
100
AcDbLine
 62
7
  6
CONTINUOUS
 10
-4.0809002604
 20
-27.1160838075
 11
-4.0801287886
 21
-27.1164706238
  0
LINE
  5
240
100
AcDbEntity
  8
RACCORDO
100
AcDbLine
 62
250
  6
CONTINUOUS
 10
-18.7723035704
 20
-19.7703832329
 11
-18.7817626548
 21
-19.7654797788
  0
LINE
  5
241
100
AcDbEntity
  8
0
100
AcDbLine
 62
7
  6
CONTINUOUS
 10
-9.8761089931
 20
20.5892423182
 11
-10.7661691758
 21
20.0925613969
  0
LINE
  5
242
100
AcDbEntity
  8
0
100
AcDbLine
 62
7
  6
CONTINUOUS
 10
-7.8962100057
 20
20.9849334706
 11
-8.9506994371
 21
20.4439604319
  0
LINE
  5
243
100
AcDbEntity
  8
0
100
AcDbLine
 62
7
  6
CONTINUOUS
 10
-2.5599865998
 20
23.5843769361
 11
-7.8962100057
 21
20.9849334706
  0
LINE
  5
244
100
AcDbEntity
  8
0
100
AcDbLine
 62
7
  6
CONTINUOUS
 10
-2.0517772234
 20
24.4039131992
 11
-9.1731160388
 21
20.9398142339
  0
LWPOLYLINE
  5
245
100
AcDbEntity
  8
0
100
AcDbPolyline
 62
7
  6
CONTINUOUS
 90
3
 70
0
 10
-2.5267839021
 20
23.5986583408
 10
-2.5159317043
 20
23.602360622
 10
-2.5046982836
 20
23.6054830703
  0
LINE
  5
246
100
AcDbEntity
  8
0
100
AcDbLine
 62
250
  6
CONTINUOUS
 10
2.866402376
 20
-25.0245660472
 11
2.4275489996
 21
-24.9344287205
  0
LWPOLYLINE
  5
247
100
AcDbEntity
  8
0
100
AcDbPolyline
 62
250
  6
CONTINUOUS
 90
34
 70
0
 10
0.4737462491
 20
-26.7421973044
 10
0.4823111808
 20
-26.7462816589
 10
0.4912569642
 20
-26.7501603287
 10
0.5005639931
 20
-26.7538243467
 10
0.5102131781
 20
-26.7572656742
 10
0.5201819653
 20
-26.7604757618
 10
0.5304439568
 20
-26.7634458994
 10
0.5409745183
 20
-26.7661690279
 10
0.5517514389
 20
-26.7686394729
 10
0.5627506764
 20
-26.7708517149
 10
0.5739476465
 20
-26.7728007882
 10
0.5853170393
 20
-26.7744822657
 10
0.596833057
 20
-26.7758923258
 10
0.6084696933
 20
-26.7770277906
 10
0.6202008772
 20
-26.7778861225
 10
0.6320002997
 20
-26.7784653963
 10
0.6438414555
 20
-26.7787643065
 10
0.6556976807
 20
-26.778782176
 10
0.6675422889
 20
-26.7785189623
 10
0.6793486344
 20
-26.7779752561
 10
0.691090168
 20
-26.7771522788
 10
0.7027404769
 20
-26.7760518802
 10
0.7142733587
 20
-26.7746765338
 10
0.7256628717
 20
-26.7730293318
 10
0.7368833894
 20
-26.7711139796
 10
0.7479096729
 20
-26.7689347848
 10
0.758716923
 20
-26.766496648
 10
0.7692808285
 20
-26.7638050533
 10
0.7795776338
 20
-26.7608660527
 10
0.7895841737
 20
-26.7576862576
 10
0.7992779234
 20
-26.7542728262
 10
0.8086370755
 20
-26.7506334391
 10
0.817640587
 20
-26.7467762811
 10
0.8262682088
 20
-26.7427100283
  0
LWPOLYLINE
  5
248
100
AcDbEntity
  8
0
100
AcDbPolyline
 62
250
  6
CONTINUOUS
 90
34
 70
0
 10
0.4737462491
 20
-26.4022233703
 10
0.4823258695
 20
-26.4063144041
 10
0.491283748
 20
-26.4101974613
 10
0.5005997392
 20
-26.4138638092
 10
0.5102528809
 20
-26.4173051986
 10
0.5202214749
 20
-26.4205138948
 10
0.5304831394
 20
-26.4234826916
 10
0.5410148246
 20
-26.426204916
 10
0.5517928247
 20
-26.428674436
 10
0.5627928639
 20
-26.4308856879
 10
0.5739901906
 20
-26.4328336966
 10
0.5853596353
 20
-26.4345140837
 10
0.5968756283
 20
-26.4359230702
 10
0.6085122705
 20
-26.4370574874
 10
0.6202433919
 20
-26.437914784
 10
0.6320426104
 20
-26.4384930321
 10
0.6438833988
 20
-26.4387909313
 10
0.6557391193
 20
-26.4388078112
 10
0.6675830832
 20
-26.4385436347
 10
0.6793886373
 20
-26.4379989987
 10
0.6911292494
 20
-26.4371751297
 10
0.7027785416
 20
-26.4360738796
 10
0.7143104009
 20
-26.4346977137
 10
0.7256988057
 20
-26.4330497343
 10
0.7369179206
 20
-26.4311336885
 10
0.7479423795
 20
-26.4289539325
 10
0.7587475561
 20
-26.4265153597
 10
0.7693093779
 20
-26.423823412
 10
0.7796049188
 20
-26.4208838945
 10
0.7896101575
 20
-26.4177036261
 10
0.7993004665
 20
-26.4142905463
 10
0.8086535958
 20
-26.41065276
 10
0.8176494955
 20
-26.4067983432
 10
0.8262682088
 20
-26.4027360941
  0
LINE
  5
249
100
AcDbEntity
  8
0
100
AcDbLine
 62
7
  6
CONTINUOUS
 10
-0.8891111452
 20
-26.1635004091
 11
0.5387195455
 21
-26.8774157545
  0
LINE
  5
24A
100
AcDbEntity
  8
0
100
AcDbLine
 62
250
  6
CONTINUOUS
 10
-0.7718764246
 20
-26.1193859676
 11
0.4737462491
 21
-26.7421973044
  0
LINE
  5
24B
100
AcDbEntity
  8
0
100
AcDbLine
 62
250
  6
CONTINUOUS
 10
0.4737462491
 20
-26.4022233703
 11
-0.476852449
 21
-25.9269240212
  0
LINE
  5
24C
100
AcDbEntity
  8
0
100
AcDbLine
 62
250
  6
CONTINUOUS
 10
0.5621345968
 20
-26.1705291965
 11
-0.4380005815
 21
-25.6704616073
  0
LINE
  5
24D
100
AcDbEntity
  8
0
100
AcDbLine
 62
7
  6
CONTINUOUS
 10
1.1915158858
 20
-25.4289834059
 11
-0.3918899233
 21
-24.6372985029
  0
LWPOLYLINE
  5
24E
100
AcDbEntity
  8
RACCORDO
100
AcDbPolyline
 62
250
  6
CONTINUOUS
 90
9
 70
0
 10
-19.1719441318
 20
-19.1322334863
 10
-19.1712975795
 20
-19.1387679862
 10
-19.1652352103
 20
-19.1669847169
 10
-19.1539602338
 20
-19.194428693
 10
-19.1375921459
 20
-19.2208090539
 10
-19.1163044211
 20
-19.2458462119
 10
-19.0903226739
 20
-19.2692748148
 10
-19.0599222676
 20
-19.2908465583
 10
-19.0254253962
 20
-19.3103328176
  0
LINE
  5
24F
100
AcDbEntity
  8
RACCORDO
100
AcDbLine
 62
7
  6
CONTINUOUS
 10
-19.1719626878
 20
-19.131992013
 11
-19.1719441318
 21
-19.1322334863
  0
LWPOLYLINE
  5
250
100
AcDbEntity
  8
RACCORDO
100
AcDbPolyline
 62
250
  6
CONTINUOUS
 90
10
 70
0
 10
-19.0254254217
 20
-19.3103328333
 10
-19.1008421586
 20
-18.2302952133
 10
-19.1633786477
 20
-17.1421981689
 10
-19.2130212408
 20
-16.0462688242
 10
-19.2497586294
 20
-14.9427361705
 10
-19.2735831067
 20
-13.8318302068
 10
-19.284490562
 20
-12.7137818889
 10
-19.2824788053
 20
-11.5888241633
 10
-19.2675475757
 20
-10.457191923
 10
-19.2396997958
 20
-9.3191211451
  0
LWPOLYLINE
  5
251
100
AcDbEntity
  8
RACCORDO
100
AcDbPolyline
 62
250
  6
CONTINUOUS
 90
9
 70
0
 10
-19.3861606526
 20
-9.1433932838
 10
-19.3851596794
 20
-9.1623306274
 10
-19.3791851736
 20
-9.1868809954
 10
-19.3679897457
 20
-9.2111298046
 10
-19.3516920048
 20
-9.2348201527
 10
-19.3304646161
 20
-9.2577010539
 10
-19.3045324719
 20
-9.2795300983
 10
-19.2741703083
 20
-9.3000760194
 10
-19.2396997953
 20
-9.3191211449
  0
LWPOLYLINE
  5
252
100
AcDbEntity
  8
RACCORDO
100
AcDbPolyline
 62
7
  6
CONTINUOUS
 90
10
 70
0
 10
-17.5042504998
 20
18.2518482432
 10
-17.6724767365
 20
17.1174194772
 10
-17.8395152626
 20
15.90942603
 10
-17.9934852875
 20
14.70531488
 10
-18.134346071
 20
13.5053775823
 10
-18.2620688101
 20
12.3098557003
 10
-18.376628025
 20
11.1189717363
 10
-18.4779975616
 20
9.9329656628
 10
-18.5661530197
 20
8.7521228366
 10
-18.6363047126
 20
7.658038129
  0
LWPOLYLINE
  5
253
100
AcDbEntity
  8
RACCORDO
100
AcDbPolyline
 62
250
  6
CONTINUOUS
 90
16
 70
0
 10
-17.3561760457
 20
18.091147291
 10
-17.3430930644
 20
18.1629793105
 10
-17.3259805383
 20
18.2354268436
 10
-17.3049425757
 20
18.3080550711
 10
-17.2801089797
 20
18.3804299238
 10
-17.2516290036
 20
18.4521157178
 10
-17.2196707597
 20
18.5226778442
 10
-17.1844307044
 20
18.5916923916
 10
-17.146122008
 20
18.6587475659
 10
-17.1049675449
 20
18.7234409078
 10
-17.0612183624
 20
18.785385606
 10
-17.0151397993
 20
18.844210772
 10
-16.9669990726
 20
18.8995618679
 10
-16.9170876904
 20
18.9511091829
 10
-16.8657102137
 20
18.9985423787
 10
-16.8131695215
 20
19.0415701573
  0
LINE
  5
254
100
AcDbEntity
  8
0
100
AcDbLine
 62
250
  6
CONTINUOUS
 10
-9.8761089931
 20
21.4643481267
 11
-9.3478418213
 21
22.1073002825
  0
LINE
  5
255
100
AcDbEntity
  8
0
100
AcDbLine
 62
7
  6
CONTINUOUS
 10
-9.8761089931
 20
21.3748176604
 11
-9.3324812489
 21
22.0364651159
  0
LINE
  5
256
100
AcDbEntity
  8
0
100
AcDbLine
 62
7
  6
CONTINUOUS
 10
-8.2912895628
 20
18.668092729
 11
-7.5780119542
 21
19.0639471741
  0
LINE
  5
257
100
AcDbEntity
  8
0
100
AcDbLine
 62
250
  6
CONTINUOUS
 10
-5.5981111719
 20
19.8358840537
 11
-4.9112093866
 21
20.1804447116
  0
LINE
  5
258
100
AcDbEntity
  8
0
100
AcDbLine
 62
250
  6
CONTINUOUS
 10
-5.4566916106
 20
19.5919750546
 11
-4.7685664095
 21
19.937149397
  0
LINE
  5
259
100
AcDbEntity
  8
0
100
AcDbLine
 62
7
  6
CONTINUOUS
 10
-8.2912895628
 20
20.1142554947
 11
-7.436186364
 21
20.540449485
  0
LINE
  5
25A
100
AcDbEntity
  8
0
100
AcDbLine
 62
250
  6
CONTINUOUS
 10
-5.812924386
 20
19.728818496
 11
-5.5981111719
 21
19.8358840537
  0
LINE
  5
25B
100
AcDbEntity
  8
0
100
AcDbLine
 62
250
  6
CONTINUOUS
 10
-5.6719197817
 20
19.4847026773
 11
-5.4566916106
 21
19.5919750546
  0
LINE
  5
25C
100
AcDbEntity
  8
0
100
AcDbLine
 62
7
  6
CONTINUOUS
 10
-6.556157631
 20
21.0029188338
 11
-1.943514775
 21
23.2761410237
  0
LINE
  5
25D
100
AcDbEntity
  8
0
100
AcDbLine
 62
7
  6
CONTINUOUS
 10
-2.2185555071
 20
21.7451511639
 11
-1.8070899384
 21
21.9479313683
  0
LINE
  5
25E
100
AcDbEntity
  8
0
100
AcDbLine
 62
7
  6
CONTINUOUS
 10
0.9074587161
 20
22.9242952295
 11
-1.2276768877
 21
21.8720486575
  0
LWPOLYLINE
  5
25F
100
AcDbEntity
  8
0
100
AcDbPolyline
 62
250
  6
CONTINUOUS
 90
5
 70
0
 10
2.8898174272
 20
-25.0326534233
 10
2.885628862
 20
-25.0306867675
 10
2.8794089753
 20
-25.0282111276
 10
2.8729960775
 20
-25.0261695921
 10
2.866402376
 20
-25.0245660472
  0
LINE
  5
260
100
AcDbEntity
  8
0
100
AcDbLine
 62
7
  6
CONTINUOUS
 10
1.7021974509
 20
-24.9904294627
 11
1.1849668572
 21
-24.7318141659
  0
LINE
  5
261
100
AcDbEntity
  8
0
100
AcDbLine
 62
250
  6
CONTINUOUS
 10
2.4275489996
 20
-24.805139359
 11
2.866402376
 21
-25.0245660472
  0
LINE
  5
262
100
AcDbEntity
  8
0
100
AcDbLine
 62
7
  6
CONTINUOUS
 10
2.4275489996
 20
-24.8015192095
 11
2.8898174272
 21
-25.0326534233
  0
LINE
  5
263
100
AcDbEntity
  8
0
100
AcDbLine
 62
250
  6
CONTINUOUS
 10
2.8747326795
 20
-25.0290316309
 11
2.866402376
 21
-25.0245660472
  0
LWPOLYLINE
  5
264
100
AcDbEntity
  8
RACCORDO
100
AcDbPolyline
 62
7
  6
CONTINUOUS
 90
11
 70
0
 10
-19.1719331794
 20
-19.1322326392
 10
-19.1638023249
 20
-19.203520614
 10
-19.1460604461
 20
-19.2907656291
 10
-19.1206021242
 20
-19.372513955
 10
-19.088190694
 20
-19.4480840663
 10
-19.0493444849
 20
-19.5175513355
 10
-19.0041479962
 20
-19.58132725
 10
-18.9532962308
 20
-19.6387823062
 10
-18.8974204057
 20
-19.6895589598
 10
-18.8362797515
 20
-19.7339235179
 10
-18.7715041785
 20
-19.7707696059
  0
LWPOLYLINE
  5
265
100
AcDbEntity
  8
RACCORDO
100
AcDbPolyline
 62
250
  6
CONTINUOUS
 90
9
 70
0
 10
-18.6363047126
 20
7.658038129
 10
-18.6353956273
 20
7.6370072948
 10
-18.6293716396
 20
7.6135655992
 10
-18.6181330862
 20
7.590283048
 10
-18.6017990332
 20
7.5674063067
 10
-18.5805425306
 20
7.5451777412
 10
-18.5545887789
 20
7.5238328504
 10
-18.5242127434
 20
7.5035977714
 10
-18.4897362407
 20
7.4846868832
  0
LWPOLYLINE
  5
266
100
AcDbEntity
  8
RACCORDO
100
AcDbPolyline
 62
7
  6
CONTINUOUS
 90
10
 70
0
 10
-19.3861606336
 20
-9.1433931268
 10
-19.4129174506
 20
-10.2245374308
 10
-19.4286207163
 20
-11.3728215849
 10
-19.4310246514
 20
-12.5143426383
 10
-19.4201245087
 20
-13.6488233821
 10
-19.3959214788
 20
-14.776036131
 10
-19.3584176561
 20
-15.8957723036
 10
-19.3076167119
 20
-17.0078063306
 10
-19.2435302253
 20
-18.1118706501
 10
-19.1719626878
 20
-19.131992013
  0
LWPOLYLINE
  5
267
100
AcDbEntity
  8
RACCORDO
100
AcDbPolyline
 62
250
  6
CONTINUOUS
 90
10
 70
0
 10
-19.2396997958
 20
-9.3191211451
 10
-19.1808892946
 20
-7.4633045218
 10
-19.1159462659
 20
-5.6046108277
 10
-19.0448722422
 20
-3.7430733792
 10
-18.9676699558
 20
-1.8787508454
 10
-18.8843402465
 20
-0.0116514004
 10
-18.7948812082
 20
1.8582676452
 10
-18.69929271
 20
3.7309985358
 10
-18.5975772501
 20
5.6064827035
 10
-18.4897362662
 20
7.4846868728
  0
LWPOLYLINE
  5
268
100
AcDbEntity
  8
RACCORDO
100
AcDbPolyline
 62
7
  6
CONTINUOUS
 90
10
 70
0
 10
-18.6363047302
 20
7.6580382371
 10
-18.7409299852
 20
5.8373650352
 10
-18.8437243366
 20
3.9448587917
 10
-18.9402821273
 20
2.0551083708
 10
-19.0306012446
 20
0.168152666
 10
-19.1146801408
 20
-1.7159759889
 10
-19.1925174348
 20
-3.5972477916
 10
-19.2641116887
 20
-5.4756305044
 10
-19.3294614555
 20
-7.3510855819
 10
-19.3861606526
 20
-9.1433932838
  0
LWPOLYLINE
  5
269
100
AcDbEntity
  8
RACCORDO
100
AcDbPolyline
 62
250
  6
CONTINUOUS
 90
10
 70
0
 10
-18.4897362662
 20
7.4846868728
 10
-18.4150441706
 20
8.6441416468
 10
-18.3274850013
 20
9.8089263807
 10
-18.2270771982
 20
10.9787984014
 10
-18.1138423759
 20
12.153514154
 10
-17.9878040468
 20
13.3328288226
 10
-17.8489876093
 20
14.5164963836
 10
-17.6974220413
 20
15.7042702292
 10
-17.5331399016
 20
16.8959032167
 10
-17.3561760457
 20
18.091147291
  0
LWPOLYLINE
  5
26A
100
AcDbEntity
  8
RACCORDO
100
AcDbPolyline
 62
250
  6
CONTINUOUS
 90
10
 70
0
 10
-17.5042526579
 20
18.25174803
 10
-17.5048096508
 20
18.2468260396
 10
-17.5035909234
 20
18.2278154052
 10
-17.4971411421
 20
18.2082574911
 10
-17.4855286614
 20
18.1883595716
 10
-17.4688765503
 20
18.1683325243
 10
-17.4473612873
 20
18.1483885958
 10
-17.4212108908
 20
18.1287391514
 10
-17.3907025022
 20
18.1095924355
 10
-17.3561594488
 20
18.0911513645
  0
LWPOLYLINE
  5
26B
100
AcDbEntity
  8
0
100
AcDbPolyline
 62
250
  6
CONTINUOUS
 90
30
 70
0
 10
-11.4773897839
 20
21.0486970416
 10
-11.4818103094
 20
21.0378055468
 10
-11.4866175047
 20
21.0271392779
 10
-11.4918005203
 20
21.0167223081
 10
-11.4973476583
 20
21.0065781479
 10
-11.5032463993
 20
20.996729692
 10
-11.5094834302
 20
20.9871991678
 10
-11.5160446742
 20
20.9780080851
 10
-11.5229153232
 20
20.9691771877
 10
-11.5300798703
 20
20.9607264064
 10
-11.5375221458
 20
20.9526748141
 10
-11.5452253527
 20
20.9450405827
 10
-11.5531721054
 20
20.9378409423
 10
-11.5613444686
 20
20.931092142
 10
-11.5697239977
 20
20.9248094136
 10
-11.5782917806
 20
20.9190069366
 10
-11.5870284804
 20
20.913697807
 10
-11.5959143788
 20
20.9088940072
 10
-11.6049294208
 20
20.9046063791
 10
-11.6140532601
 20
20.9008445995
 10
-11.6232653047
 20
20.8976171586
 10
-11.6325447635
 20
20.8949313406
 10
-11.6418706934
 20
20.8927932071
 10
-11.6512220463
 20
20.8912075839
 10
-11.6605777167
 20
20.8901780495
 10
-11.6699165894
 20
20.8897069276
 10
-11.6792175872
 20
20.8897952814
 10
-11.6884597183
 20
20.8904429117
 10
-11.6976221236
 20
20.8916483566
 10
-11.7042332774
 20
20.8928758808
  0
LINE
  5
26C
100
AcDbEntity
  8
0
100
AcDbLine
 62
7
  6
CONTINUOUS
 10
-5.4566916106
 20
18.379533627
 11
-5.6719197817
 21
18.2600864059
  0
LINE
  5
26D
100
AcDbEntity
  8
0
100
AcDbLine
 62
250
  6
CONTINUOUS
 10
-4.1195291267
 20
18.8744583235
 11
-4.1121548445
 21
18.8784337253
  0
LINE
  5
26E
100
AcDbEntity
  8
0
100
AcDbLine
 62
7
  6
CONTINUOUS
 10
-3.9913518876
 20
18.9926070799
 11
-4.203041414
 21
18.8833770237
  0
LINE
  5
26F
100
AcDbEntity
  8
0
100
AcDbLine
 62
250
  6
CONTINUOUS
 10
-3.901058487
 20
18.9873577112
 11
-4.1121548445
 21
18.8784337253
  0
LINE
  5
270
100
AcDbEntity
  8
0
100
AcDbLine
 62
7
  6
CONTINUOUS
 10
-4.7600057051
 20
18.7295029459
 11
-5.4566916106
 21
18.379533627
  0
LINE
  5
271
100
AcDbEntity
  8
0
100
AcDbLine
 62
7
  6
CONTINUOUS
 10
-1.2259906839
 20
21.3028798701
 11
-0.1341077218
 21
21.8488213512
  0
LINE
  5
272
100
AcDbEntity
  8
RACCORDO
100
AcDbLine
 62
7
  6
CONTINUOUS
 10
-2.2182524598
 20
20.6521618939
 11
-2.1566959417
 21
20.6829401529
  0
LINE
  5
273
100
AcDbEntity
  8
RACCORDO
100
AcDbLine
 62
250
  6
CONTINUOUS
 10
-2.1332897391
 20
20.6442415373
 11
-2.0672532226
 21
20.6772597955
  0
LINE
  5
274
100
AcDbEntity
  8
0
100
AcDbLine
 62
7
  6
CONTINUOUS
 10
-3.9896506036
 20
18.993457786
 11
-3.9913519078
 21
18.9926070695
  0
LWPOLYLINE
  5
275
100
AcDbEntity
  8
RACCORDO
100
AcDbPolyline
 62
250
  6
CONTINUOUS
 90
118
 70
0
 10
-2.0672532226
 20
20.6772597955
 10
-2.0600390772
 20
20.6808227612
 10
-2.0527402773
 20
20.6843400299
 10
-2.0453568232
 20
20.6878116013
 10
-2.037887487
 20
20.6912380218
 10
-2.0303334964
 20
20.6946187452
 10
-2.0226985347
 20
20.6979521328
 10
-2.0149825792
 20
20.7012381508
 10
-2.0071856526
 20
20.7044768331
 10
-1.9993115052
 20
20.707666642
 10
-1.9913600997
 20
20.7108075518
 10
-1.9833314734
 20
20.7138995882
 10
-1.9752294894
 20
20.7169412914
 10
-1.9670541122
 20
20.719932635
 10
-1.9588053773
 20
20.7228736454
 10
-1.9504872539
 20
20.7257629416
 10
-1.9420997075
 20
20.7286004973
 10
-1.9336427726
 20
20.7313863389
 10
-1.9251205221
 20
20.7341191654
 10
-1.9165329262
 20
20.7367989489
 10
-1.9078800148
 20
20.7394257173
 10
-1.899165951
 20
20.7419982531
 10
-1.8903907066
 20
20.7445165283
 10
-1.8815543099
 20
20.7469805711
 10
-1.8726610092
 20
20.7493892484
 10
-1.8637107797
 20
20.7517425315
 10
-1.8547036462
 20
20.7540404492
 10
-1.8456439318
 20
20.7562819552
 10
-1.8365316129
 20
20.7584670206
 10
-1.827366713
 20
20.7605956743
 10
-1.8181536261
 20
20.7626669569
 10
-1.8088923327
 20
20.7646808387
 10
-1.7995828521
 20
20.7666373494
 10
-1.7902296362
 20
20.7685356184
 10
-1.780832667
 20
20.7703756162
 10
-1.7713919624
 20
20.7721573724
 10
-1.7619120282
 20
20.7738801053
 10
-1.7523928505
 20
20.775543785
 10
-1.7428344433
 20
20.7771484414
 10
-1.733241354
 20
20.7786933831
 10
-1.7236135702
 20
20.7801785803
 10
-1.7139511044
 20
20.7816040628
 10
-1.7042585423
 20
20.782969229
 10
-1.6945358752
 20
20.7842740488
 10
-1.6847831117
 20
20.7855185523
 10
-1.6750048636
 20
20.7867022284
 10
-1.6652011236
 20
20.7878250473
 10
-1.655371899
 20
20.7888870388
 10
-1.6455218234
 20
20.7898877818
 10
-1.6356508933
 20
20.7908272464
 10
-1.6257591121
 20
20.7917054626
 10
-1.6158511248
 20
20.7925220992
 10
-1.6059269292
 20
20.7932771266
 10
-1.5959865273
 20
20.7939705744
 10
-1.5860345705
 20
20.7946022009
 10
-1.5760710598
 20
20.7951719766
 10
-1.5660959942
 20
20.795679931
 10
-1.5561140219
 20
20.7961259111
 10
-1.5461251456
 20
20.7965098877
 10
-1.5361293626
 20
20.79683189
 10
-1.5261313129
 20
20.7970918531
 10
-1.5161310019
 20
20.7972897478
 10
-1.5061284241
 20
20.7974256033
 10
-1.4961282033
 20
20.7974994415
 10
-1.4861303471
 20
20.7975112338
 10
-1.476134848
 20
20.7974610087
 10
-1.4661463077
 20
20.7973488741
 10
-1.4561647356
 20
20.7971748019
 10
-1.4461901224
 20
20.7969388202
 10
-1.4362270417
 20
20.7966411217
 10
-1.426275505
 20
20.7962816785
 10
-1.4163355007
 20
20.7958605184
 10
-1.4064115675
 20
20.7953779173
 10
-1.3965037185
 20
20.794833848
 10
-1.3866119406
 20
20.7942283377
 10
-1.3767407334
 20
20.7935617445
 10
-1.3668901122
 20
20.7928340416
 10
-1.3570600617
 20
20.7920452557
 10
-1.3472550349
 20
20.7911958254
 10
-1.3374750481
 20
20.7902857242
 10
-1.3277200852
 20
20.7893149785
 10
-1.3179945499
 20
20.788284106
 10
-1.3082984615
 20
20.7871930809
 10
-1.2986318007
 20
20.7860419289
 10
-1.2889989145
 20
20.784831245
 10
-1.2793998222
 20
20.7835610037
 10
-1.2698345044
 20
20.7822312305
 10
-1.2603072496
 20
20.7808425962
 10
-1.2508180796
 20
20.7793950762
 10
-1.2413669726
 20
20.7778886951
 10
-1.2319581515
 20
20.7763241979
 10
-1.2225916382
 20
20.7747015602
 10
-1.2132674107
 20
20.7730208064
 10
-1.2039896261
 20
20.7712827546
 10
-1.1947583096
 20
20.7694873813
 10
-1.1855734361
 20
20.7676347098
 10
-1.1764390862
 20
20.7657256286
 10
-1.1673552853
 20
20.7637601146
 10
-1.1583220082
 20
20.7617381907
 10
-1.1493432595
 20
20.7596608145
 10
-1.1404190654
 20
20.7575279634
 10
-1.1315493998
 20
20.7553396598
 10
-1.1227381896
 20
20.7530969295
 10
-1.1139854597
 20
20.7507997494
 10
-1.1052911853
 20
20.7484481424
 10
-1.0966592177
 20
20.7460432026
 10
-1.0880895886
 20
20.7435849089
 10
-1.0795822664
 20
20.7410732824
 10
-1.0711410082
 20
20.7385094794
 10
-1.0627658485
 20
20.7358934808
 10
-1.0544567529
 20
20.7332253058
 10
-1.0462173752
 20
20.730506169
 10
-1.0380477446
 20
20.7277360496
 10
-1.0299478319
 20
20.7249149683
 10
-1.0219212034
 20
20.7220442016
 10
-1.0139690477
 20
20.7191241749
 10
-1.0060901762
 20
20.7161544628
 10
-0.9982845888
 20
20.7131350652
  0
LINE
  5
276
100
AcDbEntity
  8
0
100
AcDbLine
 62
7
  6
CONTINUOUS
 10
-3.2903796971
 20
19.3321041405
 11
-3.989650585
 21
18.9934577956
  0
LINE
  5
277
100
AcDbEntity
  8
0
100
AcDbLine
 62
250
  6
CONTINUOUS
 10
-3.2020621519
 20
19.3258710943
 11
-3.901058487
 21
18.9873577112
  0
LWPOLYLINE
  5
278
100
AcDbEntity
  8
RACCORDO
100
AcDbPolyline
 62
7
  6
CONTINUOUS
 90
45
 70
0
 10
-2.2178172311
 20
20.6523772672
 10
-2.2163027078
 20
20.6530925253
 10
-2.2147634746
 20
20.65376699
 10
-2.2131999308
 20
20.6544004626
 10
-2.2116124862
 20
20.6549927516
 10
-2.2100014227
 20
20.6555437426
 10
-2.2083671549
 20
20.6560532674
 10
-2.2067101077
 20
20.6565211653
 10
-2.2050305862
 20
20.6569473489
 10
-2.2033290193
 20
20.657331681
 10
-2.2016058461
 20
20.657674032
 10
-2.199861394
 20
20.6579743418
 10
-2.1980961055
 20
20.6582325048
 10
-2.196310433
 20
20.6584484229
 10
-2.1945047252
 20
20.6586220635
 10
-2.1926794371
 20
20.6587533527
 10
-2.1908350335
 20
20.6588422242
 10
-2.1889718836
 20
20.6588886731
 10
-2.1870904543
 20
20.6588926575
 10
-2.1851912215
 20
20.6588541429
 10
-2.183274574
 20
20.6587731521
 10
-2.1813409892
 20
20.6586496754
 10
-2.1793909535
 20
20.6584837104
 10
-2.1774248741
 20
20.6582753074
 10
-2.1754432381
 20
20.6580244888
 10
-2.1734465409
 20
20.6577312844
 10
-2.1714352074
 20
20.6573957718
 10
-2.1694097331
 20
20.6570180054
 10
-2.1673706216
 20
20.6565980473
 10
-2.1653183139
 20
20.6561360019
 10
-2.1632533132
 20
20.6556319558
 10
-2.1611761301
 20
20.6550860028
 10
-2.1590872207
 20
20.6544982739
 10
-2.1569870945
 20
20.6538688877
 10
-2.1548762682
 20
20.6531979696
 10
-2.1527552117
 20
20.6524856766
 10
-2.1506244398
 20
20.6517321589
 10
-2.1484844742
 20
20.6509375733
 10
-2.1463357972
 20
20.6501021022
 10
-2.144178928
 20
20.6492259269
 10
-2.142014392
 20
20.6483092355
 10
-2.1398426829
 20
20.6473522348
 10
-2.1376643155
 20
20.6463551372
 10
-2.1354798254
 20
20.6453181611
 10
-2.1332897391
 20
20.6442415373
  0
LWPOLYLINE
  5
279
100
AcDbEntity
  8
RACCORDO
100
AcDbPolyline
 62
250
  6
CONTINUOUS
 90
37
 70
0
 10
-2.1554279959
 20
20.6835592865
 10
-2.1533450895
 20
20.6845134776
 10
-2.1512320786
 20
20.6854045662
 10
-2.1490897021
 20
20.6862322407
 10
-2.1469187092
 20
20.6869962117
 10
-2.144719859
 20
20.687696212
 10
-2.1424939204
 20
20.6883319969
 10
-2.1402416718
 20
20.6889033441
 10
-2.1379639007
 20
20.6894100538
 10
-2.1356614036
 20
20.6898519487
 10
-2.1333349857
 20
20.6902288744
 10
-2.1309854604
 20
20.6905406991
 10
-2.1286136494
 20
20.6907873137
 10
-2.126220382
 20
20.6909686319
 10
-2.123806495
 20
20.6910845905
 10
-2.1213728326
 20
20.6911351488
 10
-2.1189202457
 20
20.6911202891
 10
-2.116449592
 20
20.6910400167
 10
-2.1139617355
 20
20.6908943596
 10
-2.1114575459
 20
20.6906833688
 10
-2.1089378991
 20
20.690407118
 10
-2.1064036761
 20
20.6900657038
 10
-2.103855763
 20
20.6896592456
 10
-2.1012950508
 20
20.6891878856
 10
-2.0987224349
 20
20.6886517886
 10
-2.0961388149
 20
20.688051142
 10
-2.0935450942
 20
20.6873861559
 10
-2.0909421799
 20
20.6866570627
 10
-2.088330982
 20
20.6858641175
 10
-2.0857124137
 20
20.6850075975
 10
-2.0830873907
 20
20.6840878023
 10
-2.0804568307
 20
20.6831050534
 10
-2.0778216538
 20
20.6820596945
 10
-2.0751827813
 20
20.6809520912
 10
-2.072541136
 20
20.6797826307
 10
-2.0698976417
 20
20.678551722
 10
-2.0672532226
 20
20.6772597955
  0
LINE
  5
27A
100
AcDbEntity
  8
DRAFT
100
AcDbLine
 62
7
  6
CONTINUOUS
 10
-7.3694475915
 20
17.347423318
 11
-7.5267587838
 21
17.282057261
  0
LINE
  5
27B
100
AcDbEntity
  8
SUPERFICI
100
AcDbLine
 62
7
  6
CONTINUOUS
 10
-14.5040201495
 20
-14.7629006271
 11
-13.620136653
 21
-15.2048423754
  0
LINE
  5
27C
100
AcDbEntity
  8
DRAFT
100
AcDbLine
 62
7
  6
CONTINUOUS
 10
-14.5040201495
 20
-14.7629006271
 11
-13.620136653
 21
-15.2048423754
  0
LINE
  5
27D
100
AcDbEntity
  8
SUPERFICI
100
AcDbLine
 62
7
  6
CONTINUOUS
 10
-12.4887657227
 20
-15.7705278405
 11
-11.4281055252
 21
-16.3008579393
  0
LINE
  5
27E
100
AcDbEntity
  8
DRAFT
100
AcDbLine
 62
7
  6
CONTINUOUS
 10
-12.4887657227
 20
-15.7705278405
 11
-11.4281055252
 21
-16.3008579393
  0
LINE
  5
27F
100
AcDbEntity
  8
SUPERFICI
100
AcDbLine
 62
7
  6
CONTINUOUS
 10
-10.2967347746
 20
-16.8665433146
 11
-9.412851278
 21
-17.3084850629
  0
LINE
  5
280
100
AcDbEntity
  8
DRAFT
100
AcDbLine
 62
7
  6
CONTINUOUS
 10
-10.2967347746
 20
-16.8665433146
 11
-9.412851278
 21
-17.3084850629
  0
LINE
  5
281
100
AcDbEntity
  8
SUPERFICI
100
AcDbLine
 62
7
  6
CONTINUOUS
 10
-14.5015472219
 20
-13.8944556305
 11
-13.6176637089
 21
-14.336397387
  0
LINE
  5
282
100
AcDbEntity
  8
DRAFT
100
AcDbLine
 62
7
  6
CONTINUOUS
 10
-14.5015472219
 20
-13.8944556305
 11
-13.6176637089
 21
-14.336397387
  0
LINE
  5
283
100
AcDbEntity
  8
SUPERFICI
100
AcDbLine
 62
7
  6
CONTINUOUS
 10
-12.4862927951
 20
-14.9020828439
 11
-11.4256325811
 21
-15.4324129508
  0
LINE
  5
284
100
AcDbEntity
  8
DRAFT
100
AcDbLine
 62
7
  6
CONTINUOUS
 10
-12.4862927951
 20
-14.9020828439
 11
-11.4256325811
 21
-15.4324129508
  0
LINE
  5
285
100
AcDbEntity
  8
SUPERFICI
100
AcDbLine
 62
7
  6
CONTINUOUS
 10
-10.2942618469
 20
-15.9980983179
 11
-9.4103783339
 21
-16.4400400744
  0
LINE
  5
286
100
AcDbEntity
  8
DRAFT
100
AcDbLine
 62
7
  6
CONTINUOUS
 10
-10.2942618469
 20
-15.9980983179
 11
-9.4103783339
 21
-16.4400400744
  0
LINE
  5
287
100
AcDbEntity
  8
DRAFT
100
AcDbLine
 62
7
  6
CONTINUOUS
 10
-14.5040201495
 20
-14.7629006271
 11
-14.5162510352
 21
-14.7226318292
  0
LWPOLYLINE
  5
288
100
AcDbEntity
  8
DRAFT
100
AcDbPolyline
 62
7
  6
CONTINUOUS
 90
22
 70
0
 10
-14.5162510352
 20
-14.7226318292
 10
-14.5274409867
 20
-14.68244006
 10
-14.537589534
 20
-14.6423250909
 10
-14.5467072174
 20
-14.6022299675
 10
-14.554782501
 20
-14.5622111599
 10
-14.5617819661
 20
-14.5224386587
 10
-14.5677007709
 20
-14.482920944
 10
-14.5725431264
 20
-14.4436492366
 10
-14.5762895186
 20
-14.4047678016
 10
-14.5789349281
 20
-14.3662764259
 10
-14.5804840389
 20
-14.3281751724
 10
-14.5809322136
 20
-14.2906088797
 10
-14.5802764517
 20
-14.253578745
 10
-14.5785197511
 20
-14.2170835869
 10
-14.575666806
 20
-14.1812648419
 10
-14.5717128642
 20
-14.1461273796
 10
-14.5666630106
 20
-14.1116665114
 10
-14.5605370198
 20
-14.0780094961
 10
-14.5533304729
 20
-14.0451528877
 10
-14.5450484213
 20
-14.0131004594
 10
-14.5357251739
 20
-13.9819904598
 10
-14.525372564
 20
-13.9518691714
  0
LINE
  5
289
100
AcDbEntity
  8
RACCORDO
100
AcDbLine
 62
7
  6
CONTINUOUS
 10
-2.22994182
 20
20.6444294006
 11
-4.5022166475
 21
18.7102919252
  0
LINE
  5
28A
100
AcDbEntity
  8
0
100
AcDbLine
 62
250
  6
CONTINUOUS
 10
-2.1332897391
 20
20.6442415373
 11
-4.2003943478
 21
18.8847428881
  0
LINE
  5
28B
100
AcDbEntity
  8
0
100
AcDbLine
 62
250
  6
CONTINUOUS
 10
-4.2730322042
 20
18.8229142754
 11
-4.441191073
 21
18.6797791379
  0
LWPOLYLINE
  5
28C
100
AcDbEntity
  8
RACCORDO
100
AcDbPolyline
 62
7
  6
CONTINUOUS
 90
10
 70
0
 10
-2.229941809
 20
20.6444294063
 10
-2.2290050193
 20
20.6452101588
 10
-2.2276998537
 20
20.6462444297
 10
-2.2263673965
 20
20.6472396483
 10
-2.2250080073
 20
20.6481955344
 10
-2.2236218952
 20
20.6491118954
 10
-2.2222094268
 20
20.649988473
 10
-2.2207709791
 20
20.6508250158
 10
-2.2193067861
 20
20.6516213569
 10
-2.2182524373
 20
20.6521619051
  0
LINE
  5
28D
100
AcDbEntity
  8
0
100
AcDbLine
 62
7
  6
CONTINUOUS
 10
-2.4888928665
 20
18.0668027363
 11
-3.3292004397
 21
17.6332109332
  0
LINE
  5
28E
100
AcDbEntity
  8
0
100
AcDbLine
 62
7
  6
CONTINUOUS
 10
-1.6029596532
 20
17.8383082943
 11
-2.6697905653
 21
17.303505996
  0
LINE
  5
28F
100
AcDbEntity
  8
0
100
AcDbLine
 62
7
  6
CONTINUOUS
 10
3.671532416
 20
20.4686174282
 11
-1.6029596532
 21
17.8383082943
  0
LINE
  5
290
100
AcDbEntity
  8
0
100
AcDbLine
 62
7
  6
CONTINUOUS
 10
-1.6029596532
 20
16.4526676483
 11
3.704351013
 21
19.0993429184
  0
LINE
  5
291
100
AcDbEntity
  8
0
100
AcDbLine
 62
7
  6
CONTINUOUS
 10
3.0550605912
 20
20.7768533406
 11
-1.5571139075
 21
18.5033969721
  0
LINE
  5
292
100
AcDbEntity
  8
0
100
AcDbLine
 62
7
  6
CONTINUOUS
 10
3.8351858641
 20
20.1470276655
 11
5.1579483257
 21
20.7990504247
  0
LWPOLYLINE
  5
293
100
AcDbEntity
  8
0
100
AcDbPolyline
 62
250
  6
CONTINUOUS
 90
3
 70
0
 10
0.9776508054
 20
17.4610669083
 10
0.9793063418
 20
17.4618534004
 10
0.9860318607
 20
17.4646560971
  0
LWPOLYLINE
  5
294
100
AcDbEntity
  8
0
100
AcDbPolyline
 62
7
  6
CONTINUOUS
 90
16
 70
0
 10
0.4427808485
 20
17.2005148084
 10
0.4444384769
 20
17.2013023168
 10
0.4511739657
 20
17.2041098548
 10
0.458141705
 20
17.2064017164
 10
0.465325962
 20
17.2081727362
 10
0.4727104777
 20
17.2094189112
 10
0.480278432
 20
17.2101373765
 10
0.4880127535
 20
17.2103265416
 10
0.4958959594
 20
17.2099859983
 10
0.5039100589
 20
17.2091164567
 10
0.5120369893
 20
17.2077199336
 10
0.5202584003
 20
17.2057996238
 10
0.5285554971
 20
17.2033597971
 10
0.5369094904
 20
17.2004059861
 10
0.5453016396
 20
17.1969449731
 10
0.5537130378
 20
17.1929846507
  0
LINE
  5
295
100
AcDbEntity
  8
RACCORDO
100
AcDbLine
 62
7
  6
CONTINUOUS
 10
11.4359109357
 20
23.4471044924
 11
5.6769849169
 21
20.7874416126
  0
LINE
  5
296
100
AcDbEntity
  8
RACCORDO
100
AcDbLine
 62
250
  6
CONTINUOUS
 10
11.8675303608
 20
23.4113107861
 11
5.9214450531
 21
20.6652115445
  0
LWPOLYLINE
  5
297
100
AcDbEntity
  8
0
100
AcDbPolyline
 62
250
  6
CONTINUOUS
 90
14
 70
0
 10
0.9860318607
 20
17.4646560971
 10
0.9929863996
 20
17.4669415506
 10
1.0001542051
 20
17.4687045837
 10
1.0075190403
 20
17.4699412028
 10
1.0150642223
 20
17.4706486067
 10
1.0227726596
 20
17.470825193
 10
1.0306268909
 20
17.4704705616
 10
1.0386091245
 20
17.4695855159
 10
1.0467012788
 20
17.4681720607
 10
1.0548850235
 20
17.4662333978
 10
1.0631418203
 20
17.4637739187
 10
1.071452966
 20
17.4607991946
 10
1.0797996337
 20
17.4573159641
 10
1.0881629165
 20
17.4533321173
  0
LINE
  5
298
100
AcDbEntity
  8
DRAFT
100
AcDbLine
 62
7
  6
CONTINUOUS
 10
0.306228656
 20
-19.3375774257
 11
2.0554817168
 21
-20.2122039561
  0
LINE
  5
299
100
AcDbEntity
  8
RACCORDO
100
AcDbLine
 62
250
  6
CONTINUOUS
 10
-19.2396997958
 20
-9.3191211451
 11
-4.5910393106
 21
-16.6434513877
  0
LINE
  5
29A
100
AcDbEntity
  8
DRAFT
100
AcDbLine
 62
7
  6
CONTINUOUS
 10
-12.4887657227
 20
-15.7705278405
 11
-12.500996611
 21
-15.7302590421
  0
LWPOLYLINE
  5
29B
100
AcDbEntity
  8
DRAFT
100
AcDbPolyline
 62
7
  6
CONTINUOUS
 90
25
 70
0
 10
-13.6176637089
 20
-14.336397387
 10
-13.6057263564
 20
-14.3768123391
 10
-13.5948097648
 20
-14.4171399852
 10
-13.5849134634
 20
-14.457380088
 10
-13.5760263425
 20
-14.4975894473
 10
-13.5681585143
 20
-14.5377107594
 10
-13.5613415072
 20
-14.5775727126
 10
-13.5555795762
 20
-14.6171663947
 10
-13.550867835
 20
-14.6565003913
 10
-13.5472244272
 20
-14.6954297966
 10
-13.5446540826
 20
-14.7339545501
 10
-13.5431517363
 20
-14.7720745301
 10
-13.5427211613
 20
-14.8096448985
 10
-13.5433653255
 20
-14.8466642344
 10
-13.5450812593
 20
-14.8831339408
 10
-13.5478641625
 20
-14.9189135801
 10
-13.5517190328
 20
-14.9539984283
 10
-13.5566412046
 20
-14.9883933578
 10
-13.5626117053
 20
-15.0219724867
 10
-13.5696354361
 20
-15.0547395864
 10
-13.5777081257
 20
-15.086691184
 10
-13.5867973693
 20
-15.1176906946
 10
-13.5968927603
 20
-15.1476927827
 10
-13.6080056986
 20
-15.1767432669
 10
-13.620136653
 20
-15.2048423754
  0
LWPOLYLINE
  5
29C
100
AcDbEntity
  8
DRAFT
100
AcDbPolyline
 62
7
  6
CONTINUOUS
 90
25
 70
0
 10
-11.4256325811
 20
-15.4324129508
 10
-11.4136952312
 20
-15.4728279025
 10
-11.4027786419
 20
-15.5131555481
 10
-11.3928823427
 20
-15.5533956503
 10
-11.3839952236
 20
-15.5936050089
 10
-11.3761273971
 20
-15.6337263202
 10
-11.3693103916
 20
-15.6735882725
 10
-11.3635484618
 20
-15.7131819539
 10
-11.3588367217
 20
-15.7525159496
 10
-11.3551933147
 20
-15.7914453542
 10
-11.3526229707
 20
-15.829970107
 10
-11.3511206247
 20
-15.8680900864
 10
-11.3506900499
 20
-15.9056604542
 10
-11.351334214
 20
-15.9426797898
 10
-11.3530501474
 20
-15.9791494958
 10
-11.35583305
 20
-16.014929135
 10
-11.3596879195
 20
-16.0500139832
 10
-11.3646100902
 20
-16.084408913
 10
-11.3705805897
 20
-16.1179880424
 10
-11.3776043189
 20
-16.1507551428
 10
-11.3856770069
 20
-16.1827067414
 10
-11.3947662485
 20
-16.2137062531
 10
-11.4048616374
 20
-16.2437083428
 10
-11.4159745734
 20
-16.2727588287
 10
-11.4281055252
 20
-16.3008579393
  0
LINE
  5
29D
100
AcDbEntity
  8
SUPERFICI
100
AcDbLine
 62
7
  6
CONTINUOUS
 10
-13.6019582134
 20
-14.3903644885
 11
-13.6176637089
 21
-14.336397387
  0
LWPOLYLINE
  5
29E
100
AcDbEntity
  8
DRAFT
100
AcDbPolyline
 62
7
  6
CONTINUOUS
 90
22
 70
0
 10
-12.500996611
 20
-15.7302590421
 10
-12.5121865647
 20
-15.6900672724
 10
-12.5223351142
 20
-15.6499523027
 10
-12.5314527995
 20
-15.6098571786
 10
-12.5395280848
 20
-15.5698383702
 10
-12.5465275514
 20
-15.5300658682
 10
-12.5524463575
 20
-15.4905481527
 10
-12.557288714
 20
-15.4512764445
 10
-12.5610351071
 20
-15.4123950087
 10
-12.5636805172
 20
-15.3739036323
 10
-12.5652296283
 20
-15.3358023782
 10
-12.5656778032
 20
-15.298236085
 10
-12.5650220411
 20
-15.2612059499
 10
-12.5632653402
 20
-15.2247107915
 10
-12.5604123945
 20
-15.1888920463
 10
-12.5564584518
 20
-15.1537545841
 10
-12.5514085972
 20
-15.1192937161
 10
-12.5452826052
 20
-15.0856367013
 10
-12.5380760567
 20
-15.0527800936
 10
-12.5297940034
 20
-15.0207276663
 10
-12.5204707541
 20
-14.9896176679
 10
-12.510118142
 20
-14.959496381
  0
LWPOLYLINE
  5
29F
100
AcDbEntity
  8
0
100
AcDbPolyline
 62
250
  6
CONTINUOUS
 90
22
 70
0
 10
-13.5084498139
 20
21.8884788006
 10
-13.5082815617
 20
21.8791190524
 10
-13.5077771252
 20
21.8699453731
 10
-13.5069374648
 20
21.8609752256
 10
-13.5057641787
 20
21.8522256849
 10
-13.5042595004
 20
21.8437134064
 10
-13.5024262941
 20
21.8354545935
 10
-13.5002680495
 20
21.8274649675
 10
-13.4977888747
 20
21.819759737
 10
-13.4949934893
 20
21.8123535695
 10
-13.4918872142
 20
21.8052605628
 10
-13.4884759624
 20
21.7984942191
 10
-13.4847662276
 20
21.7920674183
 10
-13.4807650713
 20
21.7859923944
 10
-13.47648011
 20
21.7802807114
 10
-13.4719195003
 20
21.7749432418
 10
-13.4670919238
 20
21.7699901459
 10
-13.4620065698
 20
21.7654308521
 10
-13.4566731186
 20
21.7612740394
 10
-13.4511017229
 20
21.7575276203
 10
-13.4453029881
 20
21.7541987265
 10
-13.4434765175
 20
21.7532603505
  0
LINE
  5
2A0
100
AcDbEntity
  8
0
100
AcDbLine
 62
7
  6
CONTINUOUS
 10
-13.6759717193
 20
20.9272229137
 11
-13.6759717193
 21
20.3566637288
  0
LINE
  5
2A1
100
AcDbEntity
  8
0
100
AcDbLine
 62
7
  6
CONTINUOUS
 10
-13.5816731186
 20
22.3168410824
 11
-13.5816731186
 21
21.9768671483
  0
LINE
  5
2A2
100
AcDbEntity
  8
0
100
AcDbLine
 62
250
  6
CONTINUOUS
 10
-13.5084498139
 20
22.2284527348
 11
-13.5084498139
 21
21.8884788006
  0
LWPOLYLINE
  5
2A3
100
AcDbEntity
  8
0
100
AcDbPolyline
 62
250
  6
CONTINUOUS
 90
34
 70
0
 10
-13.5084498139
 20
22.2284527348
 10
-13.5082510112
 20
22.238817213
 10
-13.5076550489
 20
22.2493571978
 10
-13.5066632657
 20
22.2600489834
 10
-13.5052778897
 20
22.2708685293
 10
-13.5035020356
 20
22.2817914936
 10
-13.5013397004
 20
22.2927932876
 10
-13.4987957498
 20
22.3038491598
 10
-13.4958759051
 20
22.3149342488
 10
-13.4925867351
 20
22.3260236185
 10
-13.4889356381
 20
22.3370923284
 10
-13.4849308276
 20
22.3481154808
 10
-13.4805813154
 20
22.359068274
 10
-13.4758968867
 20
22.3699260717
 10
-13.4708880786
 20
22.3806644548
 10
-13.4655661601
 20
22.391259268
 10
-13.4599430997
 20
22.4016866878
 10
-13.454031549
 20
22.4119232566
 10
-13.4478448172
 20
22.4219459334
 10
-13.4413968406
 20
22.4317321514
 10
-13.4347021073
 20
22.4412599312
 10
-13.4277756312
 20
22.4505079062
 10
-13.4206329207
 20
22.4594553566
 10
-13.4132901032
 20
22.4680820674
 10
-13.4057638565
 20
22.4763684578
 10
-13.3980712223
 20
22.4842958064
 10
-13.3902294097
 20
22.4918464192
 10
-13.3822559108
 20
22.4990034685
 10
-13.3741674333
 20
22.5057518415
 10
-13.365983362
 20
22.5120752514
 10
-13.3577256912
 20
22.5179570273
 10
-13.3494142705
 20
22.5233837774
 10
-13.3410666382
 20
22.5283447914
 10
-13.332701558
 20
22.5328295497
  0
LINE
  5
2A4
100
AcDbEntity
  8
0
100
AcDbLine
 62
7
  6
CONTINUOUS
 10
-1.6029596532
 20
16.4526676483
 11
-2.6697905653
 21
15.8573432303
  0
LINE
  5
2A5
100
AcDbEntity
  8
0
100
AcDbLine
 62
7
  6
CONTINUOUS
 10
-1.1421292315
 20
16.3874485285
 11
0.4410444339
 21
17.1996465867
  0
LINE
  5
2A6
100
AcDbEntity
  8
0
100
AcDbLine
 62
250
  6
CONTINUOUS
 10
-1.0290435653
 20
16.3810005534
 11
0.5537130378
 21
17.1929846507
  0
LINE
  5
2A7
100
AcDbEntity
  8
0
100
AcDbLine
 62
250
  6
CONTINUOUS
 10
0.6494945051
 20
15.5417315182
 11
2.2507752959
 21
16.3444535217
  0
LINE
  5
2A8
100
AcDbEntity
  8
0
100
AcDbLine
 62
250
  6
CONTINUOUS
 10
0.8262682088
 20
15.2368419794
 11
2.4275489996
 21
16.0395639829
  0
LINE
  5
2A9
100
AcDbEntity
  8
0
100
AcDbLine
 62
7
  6
CONTINUOUS
 10
0.4410444319
 20
17.1996465857
 11
0.4427808485
 21
17.2005148084
  0
LINE
  5
2AA
100
AcDbEntity
  8
0
100
AcDbLine
 62
7
  6
CONTINUOUS
 10
8.1171842652
 20
19.3194324549
 11
2.7953283345
 21
16.6617267792
  0
LINE
  5
2AB
100
AcDbEntity
  8
0
100
AcDbLine
 62
250
  6
CONTINUOUS
 10
2.2507752959
 20
16.3444535217
 11
2.7790424677
 21
16.6078923417
  0
LINE
  5
2AC
100
AcDbEntity
  8
0
100
AcDbLine
 62
250
  6
CONTINUOUS
 10
2.4275489996
 20
16.0395639829
 11
2.9558161713
 21
16.3030028029
  0
LWPOLYLINE
  5
2AD
100
AcDbEntity
  8
0
100
AcDbPolyline
 62
250
  6
CONTINUOUS
 90
16
 70
0
 10
-1.1421292315
 20
16.3874485285
 10
-1.1387315072
 20
16.3891061529
 10
-1.1319862862
 20
16.3919187007
 10
-1.1250055473
 20
16.3942172541
 10
-1.1178051033
 20
16.3959966065
 10
-1.1104012649
 20
16.3972527272
 10
-1.1028108035
 20
16.3979827709
 10
-1.095050913
 20
16.3981850837
 10
-1.0871391715
 20
16.3978592074
 10
-1.0790935008
 20
16.3970058803
 10
-1.0709321262
 20
16.3956270352
 10
-1.0626735349
 20
16.3937257957
 10
-1.0543364345
 20
16.3913064683
 10
-1.0459397105
 20
16.3883745334
 10
-1.0375023833
 20
16.3849366326
 10
-1.0290435653
 20
16.3810005534
  0
LINE
  5
2AE
100
AcDbEntity
  8
0
100
AcDbLine
 62
7
  6
CONTINUOUS
 10
0.4427808477
 20
17.200514808
 11
0.9776508054
 21
17.4610669083
  0
LINE
  5
2AF
100
AcDbEntity
  8
0
100
AcDbLine
 62
250
  6
CONTINUOUS
 10
0.5537130378
 20
17.1929846507
 11
1.0881629165
 21
17.4533321173
  0
LINE
  5
2B0
100
AcDbEntity
  8
DRAFT
100
AcDbLine
 62
7
  6
CONTINUOUS
 10
-3.1712402456
 20
15.2483196451
 11
-3.3231456138
 21
15.180250676
  0
LWPOLYLINE
  5
2B1
100
AcDbEntity
  8
0
100
AcDbPolyline
 62
250
  6
CONTINUOUS
 90
34
 70
0
 10
0.8262682088
 20
-26.4027360941
 10
0.8218476833
 20
-26.3958173131
 10
0.817040488
 20
-26.3887135029
 10
0.8118574724
 20
-26.3814406964
 10
0.8063103343
 20
-26.3740153078
 10
0.8004115933
 20
-26.3664540959
 10
0.7941745625
 20
-26.3587741259
 10
0.7876133184
 20
-26.350992731
 10
0.7807426695
 20
-26.3431274733
 10
0.7735781223
 20
-26.3351961042
 10
0.7661358469
 20
-26.3272165245
 10
0.75843264
 20
-26.3192067436
 10
0.7504858872
 20
-26.3111848389
 10
0.742313524
 20
-26.3031689156
 10
0.7339339949
 20
-26.295177065
 10
0.725366212
 20
-26.2872273244
 10
0.7166295123
 20
-26.2793376358
 10
0.7077436139
 20
-26.2715258057
 10
0.6987285718
 20
-26.263809465
 10
0.6896047326
 20
-26.2562060291
 10
0.680392688
 20
-26.2487326584
 10
0.6711132291
 20
-26.2414062199
 10
0.6617872992
 20
-26.2342432489
 10
0.6524359464
 20
-26.2272599118
 10
0.643080276
 20
-26.2204719697
 10
0.6337414032
 20
-26.2138947424
 10
0.6244404054
 20
-26.2075430745
 10
0.6151982744
 20
-26.2014313012
 10
0.606035869
 20
-26.1955732165
 10
0.5969738684
 20
-26.1899820416
 10
0.5880327248
 20
-26.1846703957
 10
0.579232618
 20
-26.1796502667
 10
0.5705934093
 20
-26.1749329847
 10
0.5621345968
 20
-26.1705291965
  0
LINE
  5
2B2
100
AcDbEntity
  8
DRAFT
100
AcDbLine
 62
7
  6
CONTINUOUS
 10
-10.2967347746
 20
-16.8665433146
 11
-10.3089656603
 21
-16.8262745166
  0
LWPOLYLINE
  5
2B3
100
AcDbEntity
  8
DRAFT
100
AcDbPolyline
 62
7
  6
CONTINUOUS
 90
25
 70
0
 10
-9.4103783339
 20
-16.4400400744
 10
-9.3984409815
 20
-16.4804550266
 10
-9.3875243899
 20
-16.5207826727
 10
-9.3776280885
 20
-16.5610227755
 10
-9.3687409675
 20
-16.6012321348
 10
-9.3608731393
 20
-16.6413534469
 10
-9.3540561323
 20
-16.6812154
 10
-9.3482942012
 20
-16.7208090822
 10
-9.3435824601
 20
-16.7601430787
 10
-9.3399390522
 20
-16.7990724841
 10
-9.3373687076
 20
-16.8375972375
 10
-9.3358663613
 20
-16.8757172176
 10
-9.3354357864
 20
-16.913287586
 10
-9.3360799506
 20
-16.9503069219
 10
-9.3377958843
 20
-16.9867766283
 10
-9.3405787875
 20
-17.0225562675
 10
-9.3444336579
 20
-17.0576411157
 10
-9.3493558297
 20
-17.0920360453
 10
-9.3553263304
 20
-17.1256151742
 10
-9.3623500611
 20
-17.1583822739
 10
-9.3704227508
 20
-17.1903338715
 10
-9.3795119943
 20
-17.221333382
 10
-9.3896073853
 20
-17.2513354702
 10
-9.4007203237
 20
-17.2803859544
 10
-9.412851278
 20
-17.3084850629
  0
LINE
  5
2B4
100
AcDbEntity
  8
SUPERFICI
100
AcDbLine
 62
7
  6
CONTINUOUS
 10
-11.409927089
 20
-15.4863800517
 11
-11.4256325811
 21
-15.4324129508
  0
LINE
  5
2B5
100
AcDbEntity
  8
SUPERFICI
100
AcDbLine
 62
7
  6
CONTINUOUS
 10
-9.3946728385
 20
-16.4940071759
 11
-9.4103783339
 21
-16.4400400744
  0
LWPOLYLINE
  5
2B6
100
AcDbEntity
  8
DRAFT
100
AcDbPolyline
 62
7
  6
CONTINUOUS
 90
22
 70
0
 10
-10.3089656603
 20
-16.8262745166
 10
-10.3201556117
 20
-16.7860827475
 10
-10.3303041591
 20
-16.7459677784
 10
-10.3394218425
 20
-16.705872655
 10
-10.3474971261
 20
-16.6658538474
 10
-10.3544965912
 20
-16.6260813462
 10
-10.360415396
 20
-16.5865636315
 10
-10.3652577514
 20
-16.5472919241
 10
-10.3690041437
 20
-16.5084104891
 10
-10.3716495532
 20
-16.4699191134
 10
-10.373198664
 20
-16.4318178599
 10
-10.3736468387
 20
-16.3942515672
 10
-10.3729910768
 20
-16.3572214325
 10
-10.3712343762
 20
-16.3207262744
 10
-10.3683814311
 20
-16.2849075293
 10
-10.3644274892
 20
-16.249770067
 10
-10.3593776357
 20
-16.2153091988
 10
-10.3532516449
 20
-16.1816521835
 10
-10.3460450979
 20
-16.1487955751
 10
-10.3377630464
 20
-16.1167431469
 10
-10.328439799
 20
-16.0856331473
 10
-10.3180871891
 20
-16.0555118589
  0
LWPOLYLINE
  5
2B7
100
AcDbEntity
  8
0
100
AcDbPolyline
 62
250
  6
CONTINUOUS
 90
3
 70
0
 10
-13.5809877961
 20
21.9676179372
 10
-13.581584434
 20
21.9735379411
 10
-13.5816731186
 20
21.9768671483
  0
LWPOLYLINE
  5
2B8
100
AcDbEntity
  8
0
100
AcDbPolyline
 62
250
  6
CONTINUOUS
 90
22
 70
0
 10
-11.8299117435
 20
21.0492097654
 10
-11.8297434477
 20
21.039848815
 10
-11.8292388804
 20
21.030673984
 10
-11.8283990026
 20
21.0217027418
 10
-11.8272254169
 20
21.012952193
 10
-11.825720356
 20
21.004438975
 10
-11.8238866696
 20
20.9961792322
 10
-11.8217278255
 20
20.9881886446
 10
-11.8192479381
 20
20.980482491
 10
-11.8164517584
 20
20.973075542
 10
-11.8133446358
 20
20.9659819426
 10
-11.8099324737
 20
20.9592151464
 10
-11.8062217457
 20
20.9527879893
 10
-11.802219485
 20
20.9467126694
 10
-11.7979333358
 20
20.9410008056
 10
-11.7933715264
 20
20.9356633526
 10
-11.7885427968
 20
20.9307105025
 10
-11.783456311
 20
20.9261516222
 10
-11.7781216961
 20
20.921995329
 10
-11.7725484259
 20
20.918249112
 10
-11.7667477399
 20
20.9149206292
 10
-11.7649463861
 20
20.9139952853
  0
LINE
  5
2B9
100
AcDbEntity
  8
0
100
AcDbLine
 62
7
  6
CONTINUOUS
 10
-12.8786801644
 20
21.4708621739
 11
-12.8786801644
 21
21.0168880723
  0
LINE
  5
2BA
100
AcDbEntity
  8
0
100
AcDbLine
 62
250
  6
CONTINUOUS
 10
-12.8054568597
 20
21.4342505216
 11
-12.8054568597
 21
20.9251763774
  0
LINE
  5
2BB
100
AcDbEntity
  8
0
100
AcDbLine
 62
250
  6
CONTINUOUS
 10
-11.8299117435
 20
21.0492097654
 11
-11.8299117435
 21
21.3891836995
  0
LINE
  5
2BC
100
AcDbEntity
  8
0
100
AcDbLine
 62
250
  6
CONTINUOUS
 10
-11.4773897839
 20
21.0486970416
 11
-11.4773897839
 21
21.3886709757
  0
LINE
  5
2BD
100
AcDbEntity
  8
0
100
AcDbLine
 62
250
  6
CONTINUOUS
 10
-11.1186911354
 20
20.0817935153
 11
-11.1186911354
 21
20.762543261
  0
LWPOLYLINE
  5
2BE
100
AcDbEntity
  8
0
100
AcDbPolyline
 62
250
  6
CONTINUOUS
 90
34
 70
0
 10
-11.8299117435
 20
21.3891836995
 10
-11.8297129408
 20
21.3995481778
 10
-11.8291169785
 20
21.4100881626
 10
-11.8281251953
 20
21.4207799482
 10
-11.8267398193
 20
21.4315994941
 10
-11.8249639651
 20
21.4425224584
 10
-11.82280163
 20
21.4535242524
 10
-11.8202576794
 20
21.4645801246
 10
-11.8173378347
 20
21.4756652136
 10
-11.8140486647
 20
21.4867545833
 10
-11.8103975677
 20
21.4978232932
 10
-11.8063927572
 20
21.5088464456
 10
-11.8020432449
 20
21.5197992388
 10
-11.7973588163
 20
21.5306570365
 10
-11.7923500082
 20
21.5413954196
 10
-11.7870280897
 20
21.5519902328
 10
-11.7814050293
 20
21.5624176526
 10
-11.7754934786
 20
21.5726542213
 10
-11.7693067468
 20
21.5826768982
 10
-11.7628587702
 20
21.5924631162
 10
-11.7561640369
 20
21.601990896
 10
-11.7492375607
 20
21.611238871
 10
-11.7420948503
 20
21.6201863214
 10
-11.7347520328
 20
21.6288130322
 10
-11.7272257861
 20
21.6370994226
 10
-11.7195331519
 20
21.6450267712
 10
-11.7116913393
 20
21.652577384
 10
-11.7037178403
 20
21.6597344333
 10
-11.6956293629
 20
21.6664828063
 10
-11.6874452916
 20
21.6728062162
 10
-11.6791876208
 20
21.6786879921
 10
-11.6708762001
 20
21.6841147422
 10
-11.6625285678
 20
21.6890757562
 10
-11.6541634876
 20
21.6935605145
  0
LWPOLYLINE
  5
2BF
100
AcDbEntity
  8
0
100
AcDbPolyline
 62
250
  6
CONTINUOUS
 90
18
 70
0
 10
-4.2259530729
 20
18.7497871138
 10
-4.2214769853
 20
18.7592082247
 10
-4.2167011377
 20
18.76848352
 10
-4.2116384869
 20
18.777587834
 10
-4.2063027865
 20
18.7864964184
 10
-4.200708573
 20
18.7951849883
 10
-4.1948710857
 20
18.8036298684
 10
-4.1888062152
 20
18.8118080663
 10
-4.1825304631
 20
18.8196973269
 10
-4.1760609146
 20
18.8272761688
 10
-4.1694151779
 20
18.8345239625
 10
-4.1626113401
 20
18.8414209795
 10
-4.1556679246
 20
18.847948441
 10
-4.148603825
 20
18.8540885835
 10
-4.1414382728
 20
18.8598246893
 10
-4.1341907908
 20
18.8651411308
 10
-4.1268811124
 20
18.8700234359
 10
-4.1195291267
 20
18.8744583235
  0
LINE
  5
2C0
100
AcDbEntity
  8
0
100
AcDbLine
 62
7
  6
CONTINUOUS
 10
2.4275489996
 20
14.4374133219
 11
1.5374888169
 21
13.9407324006
  0
LINE
  5
2C1
100
AcDbEntity
  8
0
100
AcDbLine
 62
250
  6
CONTINUOUS
 10
2.7813715148
 20
14.2605020643
 11
1.7021974509
 21
13.6713492222
  0
LINE
  5
2C2
100
AcDbEntity
  8
ASSI
100
AcDbLine
 62
7
  6
CONTINUOUS
 10
2.8846862731
 20
14.9109130779
 11
8.9278054068
 21
18.1055670403
  0
LINE
  5
2C3
100
AcDbEntity
  8
ASSI
100
AcDbLine
 62
7
  6
CONTINUOUS
 10
2.5387496535
 20
15.358330597
 11
8.9278054068
 21
18.7070841219
  0
LINE
  5
2C4
100
AcDbEntity
  8
0
100
AcDbLine
 62
250
  6
CONTINUOUS
 10
3.4820428313
 20
14.6122347988
 11
2.7811068776
 21
14.2606343829
  0
LWPOLYLINE
  5
2C5
100
AcDbEntity
  8
RACCORDO
100
AcDbPolyline
 62
250
  6
CONTINUOUS
 90
19
 70
0
 10
-1.949199486
 20
11.7904972132
 10
-2.0047415944
 20
11.7628381465
 10
-2.0600651974
 20
11.7300747833
 10
-2.1148420503
 20
11.6924064217
 10
-2.1687517774
 20
11.6500631605
 10
-2.221469864
 20
11.6033002697
 10
-2.2726697541
 20
11.5523972087
 10
-2.3220461535
 20
11.4976639491
 10
-2.3693082872
 20
11.4394305684
 10
-2.4141674608
 20
11.3780408658
 10
-2.4563568431
 20
11.3138649835
 10
-2.4956268793
 20
11.247290479
 10
-2.5317376955
 20
11.1787113121
 10
-2.5644745379
 20
11.1085384849
 10
-2.5936425338
 20
11.0371967009
 10
-2.619061322
 20
10.9651144443
 10
-2.6405775664
 20
10.8927253576
 10
-2.6580655468
 20
10.8204655517
 10
-2.6714211549
 20
10.7487698456
  0
LINE
  5
2C6
100
AcDbEntity
  8
DRAFT
100
AcDbLine
 62
7
  6
CONTINUOUS
 10
3.5234160349
 20
14.588534509
 11
9.9071115177
 21
17.6894087647
  0
LINE
  5
2C7
100
AcDbEntity
  8
DRAFT
100
AcDbLine
 62
7
  6
CONTINUOUS
 10
8.5388487051
 20
17.8999477168
 11
9.0312339589
 21
18.1273475441
  0
LINE
  5
2C8
100
AcDbEntity
  8
RACCORDO
100
AcDbLine
 62
250
  6
CONTINUOUS
 10
0.9289833443
 20
13.054186197
 11
-1.949199486
 21
11.7904972132
  0
LINE
  5
2C9
100
AcDbEntity
  8
RACCORDO
100
AcDbLine
 62
250
  6
CONTINUOUS
 10
1.2626864616
 20
12.4354161373
 11
-1.6154963687
 21
11.1717271535
  0
LINE
  5
2CA
100
AcDbEntity
  8
RACCORDO
100
AcDbLine
 62
250
  6
CONTINUOUS
 10
18.9450319356
 20
19.6532736019
 11
18.9572325216
 21
19.6582951075
  0
LWPOLYLINE
  5
2CB
100
AcDbEntity
  8
RACCORDO
100
AcDbPolyline
 62
250
  6
CONTINUOUS
 90
40
 70
0
 10
18.9572325216
 20
19.6582951075
 10
18.9689421116
 20
19.6630015395
 10
18.9746103177
 20
19.665235609
 10
18.9801528578
 20
19.6673897438
 10
18.9855688034
 20
19.669463583
 10
18.9908572469
 20
19.6714567792
 10
18.9960173021
 20
19.6733689983
 10
19.0010481046
 20
19.67519992
 10
19.0059488112
 20
19.6769492375
 10
19.0107186009
 20
19.6786166576
 10
19.0153566744
 20
19.680201901
 10
19.0198622546
 20
19.681704702
 10
19.0242345866
 20
19.6831248089
 10
19.0284729377
 20
19.6844619837
 10
19.0325765978
 20
19.6857160023
 10
19.0365448792
 20
19.6868866546
 10
19.040377117
 20
19.6879737444
 10
19.0440726691
 20
19.6889770897
 10
19.0476309164
 20
19.6898965223
 10
19.0510512625
 20
19.6907318881
 10
19.0543331343
 20
19.6914830471
 10
19.057475982
 20
19.6921498736
 10
19.060479279
 20
19.6927322557
 10
19.063342522
 20
19.6932300958
 10
19.0660652313
 20
19.6936433107
 10
19.0686469506
 20
19.693971831
 10
19.0710872473
 20
19.6942156016
 10
19.0733857127
 20
19.6943745818
 10
19.0755419614
 20
19.6944487449
 10
19.0775556323
 20
19.6944380784
 10
19.079426388
 20
19.6943425842
 10
19.0811539149
 20
19.6941622783
 10
19.0827379237
 20
19.6938971908
 10
19.0841781488
 20
19.6935473662
 10
19.085474349
 20
19.6931128631
 10
19.0866263071
 20
19.6925937543
 10
19.0876338301
 20
19.6919901268
 10
19.0884967491
 20
19.6913020817
 10
19.0892149196
 20
19.6905297344
 10
19.0897353365
 20
19.6897662342
  0
LINE
  5
2CC
100
AcDbEntity
  8
0
100
AcDbLine
 62
250
  6
CONTINUOUS
 10
-10.7661691758
 20
20.0925613969
 11
-10.7661691758
 21
20.9001935187
  0
LINE
  5
2CD
100
AcDbEntity
  8
0
100
AcDbLine
 62
7
  6
CONTINUOUS
 10
-9.8761089931
 20
20.5892423182
 11
-9.8761089931
 21
22.1913929792
  0
LINE
  5
2CE
100
AcDbEntity
  8
0
100
AcDbLine
 62
250
  6
CONTINUOUS
 10
-9.3478418213
 20
22.4548317992
 11
-9.3478418213
 21
22.1073002825
  0
LINE
  5
2CF
100
AcDbEntity
  8
0
100
AcDbLine
 62
7
  6
CONTINUOUS
 10
-9.2756439643
 20
22.5427044314
 11
-9.2756439643
 21
22.1951729147
  0
LINE
  5
2D0
100
AcDbEntity
  8
DRAFT
100
AcDbLine
 62
7
  6
CONTINUOUS
 10
-8.9922255166
 20
18.0147906274
 11
-8.9922255166
 21
18.1756224196
  0
LINE
  5
2D1
100
AcDbEntity
  8
0
100
AcDbLine
 62
7
  6
CONTINUOUS
 10
-8.9506994371
 20
20.4439604319
 11
-8.9506994371
 21
18.9977976662
  0
LWPOLYLINE
  5
2D2
100
AcDbEntity
  8
0
100
AcDbPolyline
 62
250
  6
CONTINUOUS
 90
18
 70
0
 10
-9.2756439643
 20
22.5427044314
 10
-9.2756975258
 20
22.5401170633
 10
-9.2762239533
 20
22.5341947592
 10
-9.2773113656
 20
22.5282915864
 10
-9.2789573202
 20
22.5224208196
 10
-9.2811581175
 20
22.5165956652
 10
-9.2839088103
 20
22.5108292242
 10
-9.2872032142
 20
22.5051344678
 10
-9.2910339186
 20
22.4995242089
 10
-9.2953923082
 20
22.4940110672
 10
-9.3002685819
 20
22.4886074421
 10
-9.3056517713
 20
22.4833254894
 10
-9.3115297725
 20
22.4781770867
 10
-9.3178893626
 20
22.4731738168
 10
-9.3247162255
 20
22.4683269419
 10
-9.3319949995
 20
22.4636473659
 10
-9.3397093157
 20
22.4591456101
 10
-9.3478418213
 20
22.4548317992
  0
LWPOLYLINE
  5
2D3
100
AcDbEntity
  8
0
100
AcDbPolyline
 62
250
  6
CONTINUOUS
 90
18
 70
0
 10
-9.2756439652
 20
22.1951622118
 10
-9.2756983872
 20
22.1925648272
 10
-9.2762267402
 20
22.1866428453
 10
-9.2773160123
 20
22.1807400682
 10
-9.2789637503
 20
22.1748697622
 10
-9.2811662505
 20
22.1690451161
 10
-9.2839185821
 20
22.1632791864
 10
-9.2872145411
 20
22.157584984
 10
-9.2910466325
 20
22.1519754266
 10
-9.2954061445
 20
22.1464631971
 10
-9.3002832902
 20
22.1410606088
 10
-9.3056671855
 20
22.1357796979
 10
-9.3115462205
 20
22.1306319275
 10
-9.3179067574
 20
22.1256293081
 10
-9.3247329171
 20
22.1207841536
 10
-9.3320084895
 20
22.116107589
 10
-9.3397173231
 20
22.1116096391
 10
-9.3478418213
 20
22.1073002825
  0
LWPOLYLINE
  5
2D4
100
AcDbEntity
  8
0
100
AcDbPolyline
 62
7
  6
CONTINUOUS
 90
31
 70
0
 10
3.6694875039
 20
19.5169747882
 10
3.6778003034
 20
19.5276680929
 10
3.68557963
 20
19.5389830158
 10
3.6928254836
 20
19.5509195569
 10
3.6995484739
 20
19.5635003473
 10
3.7057379912
 20
19.5767027559
 10
3.7113622064
 20
19.5904588896
 10
3.7164182074
 20
19.604771601
 10
3.7209089063
 20
19.6196380374
 10
3.72481121
 20
19.634981749
 10
3.7281220875
 20
19.6508051941
 10
3.7308445697
 20
19.6671059142
 10
3.7329646566
 20
19.6838000836
 10
3.734479245
 20
19.7008897289
 10
3.735391438
 20
19.7183728234
 10
3.7356965448
 20
19.736159461
 10
3.735391438
 20
19.7542512055
 10
3.734479245
 20
19.772646493
 10
3.7329646566
 20
19.7912507267
 10
3.7308445697
 20
19.8100649829
 10
3.7281220875
 20
19.8290881853
 10
3.72481121
 20
19.8482225079
 10
3.7209089063
 20
19.8674685231
 10
3.7164182074
 20
19.8868256585
 10
3.7113622064
 20
19.9061943709
 10
3.7057379912
 20
19.9255747198
 10
3.6995484739
 20
19.9449666457
 10
3.6928254836
 20
19.9642704264
 10
3.68557963
 20
19.9834528211
 10
3.6778003034
 20
20.0025470705
 10
3.6694875039
 20
20.0215531748
  0
LINE
  5
2D5
100
AcDbEntity
  8
0
100
AcDbLine
 62
250
  6
CONTINUOUS
 10
3.1346557808
 20
13.6506490377
 11
2.0554817168
 21
13.0614961956
  0
LINE
  5
2D6
100
AcDbEntity
  8
RACCORDO
100
AcDbLine
 62
250
  6
CONTINUOUS
 10
18.7368920891
 20
19.5566678744
 11
4.1347188675
 21
12.1277715466
  0
LINE
  5
2D7
100
AcDbEntity
  8
0
100
AcDbLine
 62
250
  6
CONTINUOUS
 10
3.8355917346
 20
14.0024623011
 11
3.1346557808
 21
13.6508618852
  0
LINE
  5
2D8
100
AcDbEntity
  8
RACCORDO
100
AcDbLine
 62
250
  6
CONTINUOUS
 10
18.7368920891
 20
19.5566678744
 11
18.7547960304
 21
19.5655314273
  0
LINE
  5
2D9
100
AcDbEntity
  8
RACCORDO
100
AcDbLine
 62
250
  6
CONTINUOUS
 10
18.7547960304
 20
19.5655314273
 11
18.77234465
 21
19.5741420775
  0
LWPOLYLINE
  5
2DA
100
AcDbEntity
  8
RACCORDO
100
AcDbPolyline
 62
250
  6
CONTINUOUS
 90
19
 70
0
 10
-1.6154963687
 20
11.1717271535
 10
-1.6437248426
 20
11.1580093754
 10
-1.6715718426
 20
11.1419210852
 10
-1.6990373689
 20
11.1234622828
 10
-1.7263005194
 20
11.1024863255
 10
-1.7531821961
 20
11.079139856
 10
-1.779145105
 20
11.0538628022
 10
-1.8041571484
 20
11.0266236854
 10
-1.828250424
 20
10.9974539844
 10
-1.8509839311
 20
10.9668880638
 10
-1.8723286007
 20
10.9349043448
 10
-1.8923135018
 20
10.9015244062
 10
-1.9105848409
 20
10.8673473488
 10
-1.9271156737
 20
10.8323377588
 10
-1.9419329445
 20
10.79653105
 10
-1.9547636929
 20
10.7606325644
 10
-1.9655169319
 20
10.7248774161
 10
-1.9742836484
 20
10.6890304911
 10
-1.9810638424
 20
10.6530917893
  0
LINE
  5
2DB
100
AcDbEntity
  8
RACCORDO
100
AcDbLine
 62
250
  6
CONTINUOUS
 10
18.77234465
 20
19.5741420775
 11
18.7895261864
 21
19.5824940539
  0
LWPOLYLINE
  5
2DC
100
AcDbEntity
  8
RACCORDO
100
AcDbPolyline
 62
7
  6
CONTINUOUS
 90
67
 70
0
 10
10.6598056017
 20
16.3912035037
 10
18.4012383656
 20
20.1515666633
 10
18.4084430533
 20
20.1549737367
 10
18.4156078021
 20
20.1582998031
 10
18.4227317111
 20
20.1615447794
 10
18.4298141454
 20
20.1647085295
 10
18.4368547362
 20
20.1677908594
 10
18.4438527221
 20
20.1707916891
 10
18.450807354
 20
20.1737109389
 10
18.4577182876
 20
20.176548425
 10
18.4645847743
 20
20.1793040972
 10
18.4714060783
 20
20.1819779063
 10
18.4781818812
 20
20.1845696797
 10
18.4849114473
 20
20.1870793969
 10
18.4915940547
 20
20.1895070388
 10
18.4982294118
 20
20.191852445
 10
18.5048167965
 20
20.1941156246
 10
18.511355501
 20
20.1962965886
 10
18.5178452616
 20
20.1983951895
 10
18.5242853703
 20
20.2004114659
 10
18.5306751336
 20
20.2023454584
 10
18.5370143171
 20
20.2041970336
 10
18.5433022268
 20
20.2059662591
 10
18.5495381844
 20
20.2076532048
 10
18.5557219851
 20
20.209257752
 10
18.56185295
 20
20.2107799971
 10
18.5679304158
 20
20.2122200392
 10
18.5739542087
 20
20.2135777745
 10
18.5799236649
 20
20.2148533282
 10
18.5858381366
 20
20.2160468278
 10
18.5916974815
 20
20.2171581853
 10
18.5975010514
 20
20.2181875538
 10
18.6032482146
 20
20.2191350894
 10
18.6089388607
 20
20.2200007197
 10
18.6145723576
 20
20.2207846257
 10
18.6201480898
 20
20.2214869911
 10
18.6256659794
 20
20.2221077599
 10
18.6311254108
 20
20.22264714
 10
18.6365257848
 20
20.2231053427
 10
18.6418670567
 20
20.223482328
 10
18.6471486274
 20
20.2237783306
 10
18.6523699147
 20
20.2239935886
 10
18.6575309067
 20
20.2241280782
 10
18.6626310216
 20
20.2241820603
 10
18.6676696943
 20
20.224155799
 10
18.6726469459
 20
20.2240492868
 10
18.677562212
 20
20.2238628101
 10
18.6824149449
 20
20.2235966587
 10
18.6872051988
 20
20.2232508409
 10
18.6919324266
 20
20.222825668
 10
18.6965960985
 20
20.2223214549
 10
18.7011963019
 20
20.2217382254
 10
18.7057325085
 20
20.221076315
 10
18.7102042054
 20
20.2203360628
 10
18.7146115115
 20
20.2195175083
 10
18.7189539163
 20
20.2186210106
 10
18.7232309252
 20
20.2176469322
 10
18.7274426895
 20
20.2165953278
 10
18.7315887171
 20
20.2154665792
 10
18.7356685313
 20
20.214261072
 10
18.7396823154
 20
20.2129788752
 10
18.7436295956
 20
20.2116203929
 10
18.7475099136
 20
20.2101860328
 10
18.7513234835
 20
20.2086758779
 10
18.7550698505
 20
20.2070903538
 10
18.7587485742
 20
20.2054298893
 10
18.7623598993
 20
20.2036945814
  0
LINE
  5
2DD
100
AcDbEntity
  8
RACCORDO
100
AcDbLine
 62
250
  6
CONTINUOUS
 10
18.7895261864
 20
19.5824940539
 11
18.8063291247
 21
19.590581759
  0
LINE
  5
2DE
100
AcDbEntity
  8
RACCORDO
100
AcDbLine
 62
250
  6
CONTINUOUS
 10
18.8063291247
 20
19.590581759
 11
18.8227422034
 21
19.5983997725
  0
LINE
  5
2DF
100
AcDbEntity
  8
RACCORDO
100
AcDbLine
 62
250
  6
CONTINUOUS
 10
18.8227422034
 20
19.5983997725
 11
18.8387544223
 21
19.6059428546
  0
LINE
  5
2E0
100
AcDbEntity
  8
RACCORDO
100
AcDbLine
 62
250
  6
CONTINUOUS
 10
18.8387544223
 20
19.6059428546
 11
18.85435505
 21
19.6132059499
  0
LINE
  5
2E1
100
AcDbEntity
  8
RACCORDO
100
AcDbLine
 62
250
  6
CONTINUOUS
 10
18.85435505
 20
19.6132059499
 11
18.8695336309
 21
19.6201841906
  0
LINE
  5
2E2
100
AcDbEntity
  8
RACCORDO
100
AcDbLine
 62
250
  6
CONTINUOUS
 10
18.8695336309
 20
19.6201841906
 11
18.8842799921
 21
19.6268729
  0
LINE
  5
2E3
100
AcDbEntity
  8
RACCORDO
100
AcDbLine
 62
250
  6
CONTINUOUS
 10
18.8842799921
 20
19.6268729
 11
18.8985842506
 21
19.6332675951
  0
LINE
  5
2E4
100
AcDbEntity
  8
RACCORDO
100
AcDbLine
 62
250
  6
CONTINUOUS
 10
18.8985842506
 20
19.6332675951
 11
18.9124368196
 21
19.6393639903
  0
LINE
  5
2E5
100
AcDbEntity
  8
RACCORDO
100
AcDbLine
 62
250
  6
CONTINUOUS
 10
18.9124368196
 20
19.6393639903
 11
18.9258284151
 21
19.6451579996
  0
LWPOLYLINE
  5
2E6
100
AcDbEntity
  8
RACCORDO
100
AcDbPolyline
 62
250
  6
CONTINUOUS
 90
3
 70
0
 10
18.9258284151
 20
19.6451579996
 10
18.9387500618
 20
19.65064574
 10
18.9450319356
 20
19.6532736019
  0
LINE
  5
2E7
100
AcDbEntity
  8
0
100
AcDbLine
 62
7
  6
CONTINUOUS
 10
-8.2912895628
 20
18.668092729
 11
-8.2912895628
 21
20.1142554947
  0
LINE
  5
2E8
100
AcDbEntity
  8
RACCORDO
100
AcDbLine
 62
7
  6
CONTINUOUS
 10
-7.9849963902
 20
17.5111760643
 11
-7.9849963902
 21
17.6720078564
  0
LINE
  5
2E9
100
AcDbEntity
  8
0
100
AcDbLine
 62
7
  6
CONTINUOUS
 10
-7.5780119542
 20
20.2975615258
 11
-7.5780119542
 21
19.0639471741
  0
LWPOLYLINE
  5
2EA
100
AcDbEntity
  8
DRAFT
100
AcDbPolyline
 62
7
  6
CONTINUOUS
 90
3
 70
0
 10
-14.525372564
 20
-13.9518691714
 10
-14.5139797564
 20
-13.9226908158
 10
-14.5015472219
 20
-13.8944556305
  0
LWPOLYLINE
  5
2EB
100
AcDbEntity
  8
SUPERFICI
100
AcDbPolyline
 62
7
  6
CONTINUOUS
 90
18
 70
0
 10
-13.620136653
 20
-15.2048423754
 10
-13.6041462226
 20
-15.1670138307
 10
-13.5899900071
 20
-15.1275796569
 10
-13.5776670308
 20
-15.0865393816
 10
-13.5671562451
 20
-15.0437868159
 10
-13.5584765872
 20
-14.9994271277
 10
-13.551687569
 20
-14.9537771355
 10
-13.5468042559
 20
-14.9068354627
 10
-13.5438106015
 20
-14.8586030364
 10
-13.5427204853
 20
-14.809400647
 10
-13.5435443922
 20
-14.759222247
 10
-13.5462718599
 20
-14.7080739354
 10
-13.550886371
 20
-14.6562952305
 10
-13.5574031091
 20
-14.6038768752
 10
-13.5658079294
 20
-14.5508286781
 10
-13.5760413433
 20
-14.4975192594
 10
-13.5880844194
 20
-14.4440719455
 10
-13.6019582134
 20
-14.3903644885
  0
LWPOLYLINE
  5
2EC
100
AcDbEntity
  8
SUPERFICI
100
AcDbPolyline
 62
7
  6
CONTINUOUS
 90
19
 70
0
 10
-14.5015472219
 20
-13.8944556305
 10
-14.5179371082
 20
-13.9324671036
 10
-14.5324521885
 20
-13.9720673013
 10
-14.5450914841
 20
-14.0132557276
 10
-14.5558745398
 20
-14.0561382476
 10
-14.5647796933
 20
-14.1006079207
 10
-14.5717446672
 20
-14.1463452914
 10
-14.5767532486
 20
-14.1933511782
 10
-14.5798206659
 20
-14.2416242379
 10
-14.5809328404
 20
-14.2908422838
 10
-14.5800792508
 20
-14.3410113221
 10
-14.5772704391
 20
-14.3921253166
 10
-14.5725249464
 20
-14.4438445251
 10
-14.5658286787
 20
-14.4961784663
 10
-14.557196768
 20
-14.5491180994
 10
-14.5466926156
 20
-14.6022963526
 10
-14.5343382524
 20
-14.6555913056
 10
-14.5201137694
 20
-14.709125905
 10
-14.5040201495
 20
-14.7629006271
  0
LWPOLYLINE
  5
2ED
100
AcDbEntity
  8
0
100
AcDbPolyline
 62
7
  6
CONTINUOUS
 90
25
 70
0
 10
-1.6029596532
 20
16.9134408402
 10
-1.5973816629
 20
16.925467709
 10
-1.5922745669
 20
16.9379322487
 10
-1.5876383652
 20
16.9508344595
 10
-1.5834679048
 20
16.9641937663
 10
-1.5797683387
 20
16.977990744
 10
-1.5765551251
 20
16.9921671182
 10
-1.5738303001
 20
17.0067244678
 10
-1.5715918276
 20
17.0216612137
 10
-1.5698490577
 20
17.0369143442
 10
-1.5686040641
 20
17.0524851783
 10
-1.5678547732
 20
17.068372397
 10
-1.5676043141
 20
17.0845090316
 10
-1.5678547732
 20
17.1008961253
 10
-1.5686040641
 20
17.1175326349
 10
-1.5698490577
 20
17.1343484626
 10
-1.5715918276
 20
17.151344363
 10
-1.5738303001
 20
17.1685195814
 10
-1.5765551251
 20
17.185801756
 10
-1.5797683387
 20
17.2031913438
 10
-1.5834679048
 20
17.2206878877
 10
-1.5876383652
 20
17.2382176547
 10
-1.5922745669
 20
17.2557560673
 10
-1.5973816629
 20
17.2733277031
 10
-1.6029596532
 20
17.290932562
  0
LINE
  5
2EE
100
AcDbEntity
  8
0
100
AcDbLine
 62
250
  6
CONTINUOUS
 10
2.4275489996
 20
15.3125191304
 11
2.9558161713
 21
15.9554712862
  0
LINE
  5
2EF
100
AcDbEntity
  8
0
100
AcDbLine
 62
7
  6
CONTINUOUS
 10
2.4275489996
 20
15.2229886641
 11
2.9711767437
 21
15.8846361196
  0
LWPOLYLINE
  5
2F0
100
AcDbEntity
  8
0
100
AcDbPolyline
 62
7
  6
CONTINUOUS
 90
41
 70
0
 10
1.5374888169
 20
14.7483645224
 10
1.5317501336
 20
14.7416517499
 10
1.5258244139
 20
14.7350105181
 10
1.5197129323
 20
14.7284492618
 10
1.513414356
 20
14.7219773489
 10
1.5069333008
 20
14.7156024234
 10
1.5002802731
 20
14.7093304402
 10
1.4934573885
 20
14.7031701222
 10
1.4864671862
 20
14.6971300291
 10
1.4793210695
 20
14.6912159985
 10
1.4720218852
 20
14.6854368313
 10
1.4645728674
 20
14.6798011442
 10
1.4569862589
 20
14.6743146267
 10
1.4492656635
 20
14.6689860932
 10
1.441415028
 20
14.6638241476
 10
1.4334473682
 20
14.6588342991
 10
1.4253670438
 20
14.6540252922
 10
1.417178757
 20
14.6494056642
 10
1.4088963028
 20
14.6449807576
 10
1.4005248248
 20
14.6407591718
 10
1.3920698017
 20
14.6367492962
 10
1.3835458149
 20
14.6329563023
 10
1.3749588149
 20
14.6293885543
 10
1.3663150854
 20
14.6260542032
 10
1.3576300172
 20
14.6229582335
 10
1.3489103948
 20
14.6201086679
 10
1.3401633305
 20
14.6175133086
 10
1.3314050488
 20
14.6151769102
 10
1.3226431974
 20
14.6131070269
 10
1.3138857304
 20
14.6113109757
 10
1.3051497078
 20
14.6097931979
 10
1.2964436691
 20
14.6085606256
 10
1.2877764041
 20
14.6076199249
 10
1.2791657543
 20
14.6069750891
 10
1.2706212003
 20
14.6066322472
 10
1.2621523054
 20
14.6065972154
 10
1.25377746
 20
14.6068733578
 10
1.2455070566
 20
14.6074657967
 10
1.2373514007
 20
14.6083792975
 10
1.2293291801
 20
14.6096164073
 10
1.2236209836
 20
14.6107141245
  0
LWPOLYLINE
  5
2F1
100
AcDbEntity
  8
0
100
AcDbPolyline
 62
7
  6
CONTINUOUS
 90
10
 70
0
 10
3.7658066806
 20
10.3934214554
 10
3.8503004033
 20
10.4401366839
 10
3.9350805147
 20
10.4868455707
 10
4.0201523427
 20
10.533546358
 10
4.1055254408
 20
10.580219804
 10
4.1912005022
 20
10.6268822555
 10
4.2771677369
 20
10.6735858458
 10
4.3634252045
 20
10.7203475258
 10
4.449980439
 20
10.7671488399
 10
4.5368362297
 20
10.8139891618
  0
LWPOLYLINE
  5
2F2
100
AcDbEntity
  8
RACCORDO
100
AcDbPolyline
 62
250
  6
CONTINUOUS
 90
60
 70
0
 10
19.1510425647
 20
18.1250342997
 10
19.1599740707
 20
18.1297190248
 10
19.1687835488
 20
18.1344611628
 10
19.1774695227
 20
18.1392599192
 10
19.1860305372
 20
18.1441144899
 10
19.1944651578
 20
18.1490240614
 10
19.2027719711
 20
18.1539878112
 10
19.2109495852
 20
18.1590049075
 10
19.2189966301
 20
18.1640745097
 10
19.2269117572
 20
18.1691957683
 10
19.2346936404
 20
18.1743678251
 10
19.2423409757
 20
18.1795898137
 10
19.2498524818
 20
18.1848608589
 10
19.2572269
 20
18.1901800776
 10
19.2644629948
 20
18.1955465786
 10
19.2715595536
 20
18.2009594625
 10
19.2785153873
 20
18.2064178224
 10
19.2853293304
 20
18.2119207438
 10
19.2920002413
 20
18.2174673045
 10
19.2985270021
 20
18.2230565752
 10
19.3049085192
 20
18.2286876194
 10
19.3111437233
 20
18.2343594935
 10
19.3172315698
 20
18.2400712472
 10
19.3231710384
 20
18.2458219234
 10
19.3289611341
 20
18.2516105586
 10
19.3346008865
 20
18.2574361827
 10
19.3400893509
 20
18.2632978197
 10
19.3454256074
 20
18.2691944875
 10
19.350608762
 20
18.2751251979
 10
19.3556379462
 20
18.2810889572
 10
19.3605123173
 20
18.2870847662
 10
19.3652310585
 20
18.2931116202
 10
19.3697933792
 20
18.2991685093
 10
19.374198515
 20
18.3052544188
 10
19.3784457277
 20
18.3113683287
 10
19.3825343057
 20
18.3175092148
 10
19.3864635639
 20
18.3236760479
 10
19.3902328439
 20
18.3298677949
 10
19.3938415141
 20
18.3360834183
 10
19.3972889699
 20
18.3423218765
 10
19.4005746336
 20
18.3485821243
 10
19.4036979547
 20
18.3548631127
 10
19.4066584099
 20
18.3611637892
 10
19.409455503
 20
18.3674830982
 10
19.4120887655
 20
18.3738199808
 10
19.4145577561
 20
18.3801733752
 10
19.416862061
 20
18.3865422168
 10
19.4190012943
 20
18.3929254385
 10
19.4209750973
 20
18.3993219707
 10
19.4227831396
 20
18.4057307416
 10
19.4244251179
 20
18.4121506774
 10
19.4259007573
 20
18.4185807023
 10
19.4272098105
 20
18.4250197391
 10
19.4283520581
 20
18.4314667086
 10
19.4293273088
 20
18.4379205307
 10
19.4301353991
 20
18.4443801241
 10
19.4307761936
 20
18.4508444063
 10
19.431249585
 20
18.4573122942
 10
19.4315554939
 20
18.4637827041
 10
19.4316938691
 20
18.4702545517
  0
LINE
  5
2F3
100
AcDbEntity
  8
RACCORDO
100
AcDbLine
 62
250
  6
CONTINUOUS
 10
19.1510425647
 20
18.1250342997
 11
4.5488693432
 21
10.6961379719
  0
LINE
  5
2F4
100
AcDbEntity
  8
0
100
AcDbLine
 62
7
  6
CONTINUOUS
 10
3.8355917346
 20
11.07055735
 11
4.5365276884
 21
11.424065657
  0
LWPOLYLINE
  5
2F5
100
AcDbEntity
  8
0
100
AcDbPolyline
 62
7
  6
CONTINUOUS
 90
3
 70
0
 10
4.5368362297
 20
9.946518258
 10
4.449980439
 20
9.9049832457
 10
4.3634252045
 20
9.8637034374
  0
LWPOLYLINE
  5
2F6
100
AcDbEntity
  8
0
100
AcDbPolyline
 62
7
  6
CONTINUOUS
 90
8
 70
0
 10
4.3634252045
 20
9.8637034374
 10
4.2771677369
 20
9.822680996
 10
4.1912005022
 20
9.7819037569
 10
4.1055254408
 20
9.7413879738
 10
4.0201523427
 20
9.7011797186
 10
3.9350805147
 20
9.6612972744
 10
3.8503004033
 20
9.6217297097
 10
3.7658066806
 20
9.582480595
  0
LWPOLYLINE
  5
2F7
100
AcDbEntity
  8
0
100
AcDbPolyline
 62
250
  6
CONTINUOUS
 90
13
 70
0
 10
2.9528907343
 20
-25.1186492773
 10
2.9482498424
 20
-25.1090033475
 10
2.9432247116
 20
-25.099689765
 10
2.9378266886
 20
-25.090729564
 10
2.9320679745
 20
-25.0821429946
 10
2.9259615813
 20
-25.073949449
 10
2.9195212832
 20
-25.066167401
 10
2.9127616017
 20
-25.0588143944
 10
2.9056976105
 20
-25.0519068556
 10
2.8983454214
 20
-25.0454605678
 10
2.8907222001
 20
-25.0394905029
 10
2.8828454051
 20
-25.034010156
 10
2.8747326795
 20
-25.0290316309
  0
LWPOLYLINE
  5
2F8
100
AcDbEntity
  8
ASSI
100
AcDbPolyline
 62
7
  6
CONTINUOUS
 90
13
 70
0
 10
-0.2234596687
 20
-20.8634221061
 10
-0.2172905806
 20
-20.8811213624
 10
-0.1924297429
 20
-20.9698602678
 10
-0.1733587721
 20
-21.0589426411
 10
-0.1605880792
 20
-21.1459843023
 10
-0.1542878013
 20
-21.2309301425
 10
-0.1542878013
 20
-21.3138352705
 10
-0.1605880792
 20
-21.3924808328
 10
-0.1733587721
 20
-21.4667518011
 10
-0.1924297429
 20
-21.5367632035
 10
-0.2172905806
 20
-21.6006412712
 10
-0.2480976387
 20
-21.6582203753
 10
-0.2596572039
 20
-21.674470121
  0
LWPOLYLINE
  5
2F9
100
AcDbEntity
  8
RACCORDO
100
AcDbPolyline
 62
250
  6
CONTINUOUS
 90
19
 70
0
 10
-3.6444561111
 20
-26.6171530153
 10
-3.6406921612
 20
-26.6488017152
 10
-3.6348564249
 20
-26.6787065668
 10
-3.6269489022
 20
-26.70686757
 10
-3.6168963001
 20
-26.7334548558
 10
-3.6047719116
 20
-26.7582982932
 10
-3.5907956165
 20
-26.7808874897
 10
-3.5749325559
 20
-26.8011622864
 10
-3.5572175887
 20
-26.819182842
 10
-3.5379751708
 20
-26.8346192403
 10
-3.5171795155
 20
-26.8474204929
 10
-3.4948564096
 20
-26.857637588
 10
-3.4714076696
 20
-26.8650935746
 10
-3.4467965224
 20
-26.8697332503
 10
-3.4210597411
 20
-26.8716118174
 10
-3.3947094615
 20
-26.8707179318
 10
-3.3679163956
 20
-26.867047812
 10
-3.3405098315
 20
-26.8606052395
 10
-3.3124897691
 20
-26.8513902142
  0
LWPOLYLINE
  5
2FA
100
AcDbEntity
  8
RACCORDO
100
AcDbPolyline
 62
250
  6
CONTINUOUS
 90
12
 70
0
 10
-4.3406705308
 20
-26.6527102787
 10
-4.333327306
 20
-26.7157275066
 10
-4.3217450691
 20
-26.7757925536
 10
-4.3059923676
 20
-26.8325450806
 10
-4.2861602191
 20
-26.885646446
 10
-4.2623682996
 20
-26.9347767703
 10
-4.2347647004
 20
-26.9796373475
 10
-4.203513433
 20
-27.0199597482
 10
-4.1688002595
 20
-27.0555044548
 10
-4.1308381433
 20
-27.0860569227
 10
-4.0898513898
 20
-27.1114354113
 10
-4.0809002604
 20
-27.1160838075
  0
LINE
  5
2FB
100
AcDbEntity
  8
0
100
AcDbLine
 62
7
  6
CONTINUOUS
 10
-4.7600057051
 20
18.7295029459
 11
-4.7685664095
 21
19.937149397
  0
LINE
  5
2FC
100
AcDbEntity
  8
0
100
AcDbLine
 62
250
  6
CONTINUOUS
 10
-5.9535229908
 20
18.2517026924
 11
-5.9535229908
 21
19.485317044
  0
LINE
  5
2FD
100
AcDbEntity
  8
0
100
AcDbLine
 62
250
  6
CONTINUOUS
 10
-5.6719197817
 20
18.2600864059
 11
-5.6719197817
 21
19.4847026773
  0
LINE
  5
2FE
100
AcDbEntity
  8
0
100
AcDbLine
 62
7
  6
CONTINUOUS
 10
-5.4566916106
 20
19.5919750546
 11
-5.4566916106
 21
18.379533627
  0
LINE
  5
2FF
100
AcDbEntity
  8
0
100
AcDbLine
 62
7
  6
CONTINUOUS
 10
-4.3113320931
 20
18.7056429514
 11
-4.3113320931
 21
17.4746872775
  0
LINE
  5
300
100
AcDbEntity
  8
0
100
AcDbLine
 62
250
  6
CONTINUOUS
 10
-4.2527534493
 20
18.6349322733
 11
-4.2527534493
 21
17.4013179217
  0
LWPOLYLINE
  5
301
100
AcDbEntity
  8
0
100
AcDbPolyline
 62
250
  6
CONTINUOUS
 90
31
 70
0
 10
-5.9535229908
 20
19.485317044
 10
-5.9533314494
 20
19.4944244241
 10
-5.9527569044
 20
19.5037040482
 10
-5.9518002556
 20
19.5131310169
 10
-5.9504631534
 20
19.5226817943
 10
-5.9487487301
 20
19.5323287966
 10
-5.9466623116
 20
19.5420403125
 10
-5.9442101051
 20
19.5517879513
 10
-5.9413984033
 20
19.5615471252
 10
-5.938234768
 20
19.5712915388
 10
-5.9347277115
 20
19.5809948545
 10
-5.930886808
 20
19.590630475
 10
-5.9267226144
 20
19.6001718846
 10
-5.9222465268
 20
19.6095929955
 10
-5.9174706792
 20
19.6188682908
 10
-5.9124080284
 20
19.6279726048
 10
-5.9070723279
 20
19.6368811891
 10
-5.9014781145
 20
19.6455697591
 10
-5.8956406272
 20
19.6540146391
 10
-5.8895757567
 20
19.6621928371
 10
-5.8833000046
 20
19.6700820976
 10
-5.8768304561
 20
19.6776609396
 10
-5.8701847193
 20
19.6849087332
 10
-5.8633808816
 20
19.6918057502
 10
-5.8564374661
 20
19.6983332117
 10
-5.8493733665
 20
19.7044733542
 10
-5.8422078143
 20
19.71020946
 10
-5.8349603323
 20
19.7155259015
 10
-5.8276506539
 20
19.7204082066
 10
-5.8202986682
 20
19.7248430942
 10
-5.812924386
 20
19.728818496
  0
LWPOLYLINE
  5
302
100
AcDbEntity
  8
0
100
AcDbPolyline
 62
250
  6
CONTINUOUS
 90
13
 70
0
 10
-4.2527534493
 20
18.6349322733
 10
-4.2525619079
 20
18.6440396534
 10
-4.2519873629
 20
18.6533192775
 10
-4.2510307141
 20
18.6627462462
 10
-4.2496936119
 20
18.6722970235
 10
-4.2479791886
 20
18.6819440258
 10
-4.2458927702
 20
18.6916555418
 10
-4.2434405636
 20
18.7014031806
 10
-4.2406288618
 20
18.7111623545
 10
-4.2374652265
 20
18.720906768
 10
-4.23395817
 20
18.7306100838
 10
-4.2301172665
 20
18.7402457042
 10
-4.2259530729
 20
18.7497871138
  0
LWPOLYLINE
  5
303
100
AcDbEntity
  8
RACCORDO
100
AcDbPolyline
 62
250
  6
CONTINUOUS
 90
10
 70
0
 10
-4.5910393106
 20
-16.6434513877
 10
-4.6176316823
 20
-17.7821498697
 10
-4.6306181069
 20
-18.9147545124
 10
-4.6299956621
 20
-20.0410293388
 10
-4.6157637735
 20
-21.1607398734
 10
-4.5879254662
 20
-22.273652752
 10
-4.5464873563
 20
-23.3795357664
 10
-4.4914579858
 20
-24.4781584998
 10
-4.4228478279
 20
-25.5692923787
 10
-4.3406705308
 20
-26.6527102787
  0
LWPOLYLINE
  5
304
100
AcDbEntity
  8
RACCORDO
100
AcDbPolyline
 62
250
  6
CONTINUOUS
 90
10
 70
0
 10
-2.6714211549
 20
10.7487698456
 10
-2.85514557
 20
9.5569060509
 10
-3.0255013781
 20
8.3683098976
 10
-3.1824537235
 20
7.1832294407
 10
-3.325970883
 20
6.0019122408
 10
-3.4560230432
 20
4.8246044877
 10
-3.5725822996
 20
3.6515509521
 10
-3.6756243043
 20
2.4829960322
 10
-3.7651282781
 20
1.3191837005
 10
-3.841075781
 20
0.1603566302
  0
LWPOLYLINE
  5
305
100
AcDbEntity
  8
DRAFT
100
AcDbPolyline
 62
7
  6
CONTINUOUS
 90
3
 70
0
 10
-12.510118142
 20
-14.959496381
 10
-12.4987253321
 20
-14.9303180271
 10
-12.4862927951
 20
-14.9020828439
  0
LWPOLYLINE
  5
306
100
AcDbEntity
  8
0
100
AcDbPolyline
 62
250
  6
CONTINUOUS
 90
30
 70
0
 10
0.8262682088
 20
14.8968680452
 10
0.8218517214
 20
14.8859859847
 10
0.8170481191
 20
14.8753263874
 10
0.8118679749
 20
14.8649134385
 10
0.8063222983
 20
14.8547700511
 10
0.8004237342
 20
14.8449200845
 10
0.7941867925
 20
14.8353880634
 10
0.787626096
 20
14.8261962343
 10
0.7807559608
 20
14.8173645585
 10
0.7735917458
 20
14.8089128027
 10
0.7661495025
 20
14.8008599616
 10
0.7584461074
 20
14.7932243525
 10
0.7504990962
 20
14.786023377
 10
0.7423264691
 20
14.7792733383
 10
0.7339466161
 20
14.7729894181
 10
0.7253784339
 20
14.7671857889
 10
0.7166412496
 20
14.7618755468
 10
0.7077547967
 20
14.7570706908
 10
0.6987391537
 20
14.752782079
 10
0.6896146782
 20
14.7490193946
 10
0.6804019606
 20
14.7457911278
 10
0.6711217965
 20
14.7431045658
 10
0.6617951338
 20
14.740965773
 10
0.652443026
 20
14.7393795774
 10
0.643086584
 20
14.7383495597
 10
0.6337469172
 20
14.7378780446
 10
0.6244451193
 20
14.7379660981
 10
0.6152022197
 20
14.7386135182
 10
0.6060391032
 20
14.7398188339
 10
0.5994247152
 20
14.7410468845
  0
LWPOLYLINE
  5
307
100
AcDbEntity
  8
SUPERFICI
100
AcDbPolyline
 62
7
  6
CONTINUOUS
 90
18
 70
0
 10
-11.4281055252
 20
-16.3008579393
 10
-11.4121150982
 20
-16.2630293919
 10
-11.3979588857
 20
-16.223595216
 10
-11.3856359119
 20
-16.1825549389
 10
-11.3751251285
 20
-16.1398023721
 10
-11.3664454725
 20
-16.0954426832
 10
-11.3596564557
 20
-16.0497926906
 10
-11.3547731437
 20
-16.0028510177
 10
-11.3517794899
 20
-15.9546185917
 10
-11.3506893739
 20
-15.9054162028
 10
-11.3515132806
 20
-15.8552378035
 10
-11.3542407476
 20
-15.8040894928
 10
-11.3588552577
 20
-15.752310789
 10
-11.3653719943
 20
-15.6998924347
 10
-11.3737768127
 20
-15.6468442387
 10
-11.3840102244
 20
-15.593534821
 10
-11.396053298
 20
-15.5400875079
 10
-11.409927089
 20
-15.4863800517
  0
LWPOLYLINE
  5
308
100
AcDbEntity
  8
SUPERFICI
100
AcDbPolyline
 62
7
  6
CONTINUOUS
 90
19
 70
0
 10
-12.4862927951
 20
-14.9020828439
 10
-12.5026826847
 20
-14.9400943143
 10
-12.517197768
 20
-14.9796945099
 10
-12.5298370662
 20
-15.0208829345
 10
-12.5406201241
 20
-15.0637654533
 10
-12.5495252796
 20
-15.1082351256
 10
-12.5564902548
 20
-15.153972496
 10
-12.5614988373
 20
-15.2009783827
 10
-12.5645662553
 20
-15.2492514427
 10
-12.56567843
 20
-15.2984694891
 10
-12.5648248401
 20
-15.3486385281
 10
-12.5620160278
 20
-15.3997525236
 10
-12.5572705341
 20
-15.4514717331
 10
-12.5505742649
 20
-15.5038056753
 10
-12.5419423523
 20
-15.5567453095
 10
-12.5314381976
 20
-15.6099235637
 10
-12.5190838318
 20
-15.6632185175
 10
-12.504859346
 20
-15.7167531177
 10
-12.4887657227
 20
-15.7705278405
  0
LINE
  5
309
100
AcDbEntity
  8
DRAFT
100
AcDbLine
 62
7
  6
CONTINUOUS
 10
0.43292862
 20
-6.1562765547
 11
0.9043627153
 21
-6.3919936024
  0
LINE
  5
30A
100
AcDbEntity
  8
0
100
AcDbLine
 62
250
  6
CONTINUOUS
 10
-2.2107954824
 20
20.6522148396
 11
-2.2185555071
 21
21.7451511639
  0
LINE
  5
30B
100
AcDbEntity
  8
0
100
AcDbLine
 62
7
  6
CONTINUOUS
 10
-3.3292004397
 20
17.6332109332
 11
-3.3292004397
 21
16.1870481674
  0
LINE
  5
30C
100
AcDbEntity
  8
0
100
AcDbLine
 62
7
  6
CONTINUOUS
 10
-2.6697905653
 20
15.8573432303
 11
-2.6697905653
 21
17.303505996
  0
LINE
  5
30D
100
AcDbEntity
  8
DRAFT
100
AcDbLine
 62
7
  6
CONTINUOUS
 10
-2.6282644859
 20
14.9936419042
 11
-2.6282644859
 21
14.8328101121
  0
LWPOLYLINE
  5
30E
100
AcDbEntity
  8
RACCORDO
100
AcDbPolyline
 62
250
  6
CONTINUOUS
 90
10
 70
0
 10
-3.8935342155
 20
-16.6634509871
 10
-3.9199758516
 20
-17.7962030778
 10
-3.9328837894
 20
-18.922435876
 10
-3.9322580288
 20
-20.0421493819
 10
-3.9180926324
 20
-21.1555796051
 10
-3.8903935377
 20
-22.2624905358
 10
-3.8491785569
 20
-23.3621741451
 10
-3.7944536276
 20
-24.4543944233
 10
-3.7262128124
 20
-25.53938738
 10
-3.6444561111
 20
-26.6171530153
  0
LWPOLYLINE
  5
30F
100
AcDbEntity
  8
RACCORDO
100
AcDbPolyline
 62
250
  6
CONTINUOUS
 90
5
 70
0
 10
-4.3223074102
 20
-9.2014321182
 10
-4.3991799025
 20
-11.0659195491
 10
-4.4695943382
 20
-12.9277867916
 10
-4.5335479851
 20
-14.7869751766
 10
-4.5910393106
 20
-16.6434513877
  0
LINE
  5
310
100
AcDbEntity
  8
RACCORDO
100
AcDbLine
 62
7
  6
CONTINUOUS
 10
-3.1775277075
 20
15.1074417229
 11
-3.1712402456
 21
15.2483196451
  0
LWPOLYLINE
  5
311
100
AcDbEntity
  8
RACCORDO
100
AcDbPolyline
 62
250
  6
CONTINUOUS
 90
4
 70
0
 10
-4.0529407827
 20
-3.5921774278
 10
-4.1491888688
 20
-5.4645785245
 10
-4.238977701
 20
-7.3343326731
 10
-4.3223074102
 20
-9.2014321182
  0
LWPOLYLINE
  5
312
100
AcDbEntity
  8
RACCORDO
100
AcDbPolyline
 62
250
  6
CONTINUOUS
 90
8
 70
0
 10
-3.3559766068
 20
-3.6252706471
 10
-3.4521270555
 20
-5.4957551877
 10
-3.5418261922
 20
-7.3636299069
 10
-3.6250736422
 20
-9.2288863632
 10
-3.7018682819
 20
-11.0914992318
 10
-3.7722097368
 20
-12.9514600712
 10
-3.8360983813
 20
-14.808777323
 10
-3.8935342155
 20
-16.6634509871
  0
LINE
  5
313
100
AcDbEntity
  8
RACCORDO
100
AcDbLine
 62
250
  6
CONTINUOUS
 10
-3.9502359409
 20
-1.7171879511
 11
-4.0529407827
 21
-3.5921774278
  0
LINE
  5
314
100
AcDbEntity
  8
RACCORDO
100
AcDbLine
 62
250
  6
CONTINUOUS
 10
-3.841075781
 20
0.1603566302
 11
-3.9502359409
 21
-1.7171879511
  0
LWPOLYLINE
  5
315
100
AcDbEntity
  8
RACCORDO
100
AcDbPolyline
 62
250
  6
CONTINUOUS
 90
3
 70
0
 10
-3.1443206494
 20
0.1235532229
 10
-3.2533744714
 20
-1.7521678436
 10
-3.3559766068
 20
-3.6252706471
  0
LWPOLYLINE
  5
316
100
AcDbEntity
  8
RACCORDO
100
AcDbPolyline
 62
250
  6
CONTINUOUS
 90
10
 70
0
 10
-1.9810638424
 20
10.6530917893
 10
-2.1638382873
 20
9.4674605127
 10
-2.3332524498
 20
8.2855626274
 10
-2.4893063301
 20
7.1073981333
 10
-2.6320274478
 20
5.9327173699
 10
-2.7613882831
 20
4.7617699978
 10
-2.8773062769
 20
3.5953049988
 10
-2.9797539093
 20
2.4335720336
 10
-3.0687587002
 20
1.2763214417
 10
-3.1443206494
 20
0.1235532229
  0
LWPOLYLINE
  5
317
100
AcDbEntity
  8
DRAFT
100
AcDbPolyline
 62
7
  6
CONTINUOUS
 90
3
 70
0
 10
-10.3180871891
 20
-16.0555118589
 10
-10.3066943814
 20
-16.0263335033
 10
-10.2942618469
 20
-15.9980983179
  0
LWPOLYLINE
  5
318
100
AcDbEntity
  8
SUPERFICI
100
AcDbPolyline
 62
7
  6
CONTINUOUS
 90
18
 70
0
 10
-9.412851278
 20
-17.3084850629
 10
-9.3968608476
 20
-17.2706565181
 10
-9.3827046322
 20
-17.2312223444
 10
-9.3703816558
 20
-17.190182069
 10
-9.3598708702
 20
-17.1474295034
 10
-9.3511912123
 20
-17.1030698152
 10
-9.3444021941
 20
-17.057419823
 10
-9.339518881
 20
-17.0104781502
 10
-9.3365252266
 20
-16.9622457238
 10
-9.3354351104
 20
-16.9130433345
 10
-9.3362590173
 20
-16.8628649344
 10
-9.338986485
 20
-16.8117166228
 10
-9.3436009961
 20
-16.759937918
 10
-9.3501177342
 20
-16.7075195627
 10
-9.3585225544
 20
-16.6544713656
 10
-9.3687559683
 20
-16.6011619468
 10
-9.3807990445
 20
-16.5477146329
 10
-9.3946728385
 20
-16.4940071759
  0
LWPOLYLINE
  5
319
100
AcDbEntity
  8
SUPERFICI
100
AcDbPolyline
 62
7
  6
CONTINUOUS
 90
19
 70
0
 10
-10.2942618469
 20
-15.9980983179
 10
-10.3106517333
 20
-16.036109791
 10
-10.3251668135
 20
-16.0757099888
 10
-10.3378061092
 20
-16.1168984151
 10
-10.3485891648
 20
-16.1597809351
 10
-10.3574943184
 20
-16.2042506081
 10
-10.3644592922
 20
-16.2499879789
 10
-10.3694678737
 20
-16.2969938656
 10
-10.372535291
 20
-16.3452669253
 10
-10.3736474655
 20
-16.3944849712
 10
-10.3727938759
 20
-16.4446540095
 10
-10.3699850642
 20
-16.4957680041
 10
-10.3652395715
 20
-16.5474872126
 10
-10.3585433038
 20
-16.5998211538
 10
-10.3499113931
 20
-16.6527607869
 10
-10.3394072406
 20
-16.7059390401
 10
-10.3270528774
 20
-16.759233993
 10
-10.3128283945
 20
-16.8127685925
 10
-10.2967347746
 20
-16.8665433146
  0
LWPOLYLINE
  5
31A
100
AcDbEntity
  8
0
100
AcDbPolyline
 62
250
  6
CONTINUOUS
 90
5
 70
0
 10
2.9674160018
 20
-25.1601109834
 10
2.9644077589
 20
-25.1493600687
 10
2.9609788183
 20
-25.1388504314
 10
2.9571369199
 20
-25.1286057941
 10
2.9528907343
 20
-25.1186492773
  0
LINE
  5
31B
100
AcDbEntity
  8
DRAFT
100
AcDbLine
 62
7
  6
CONTINUOUS
 10
0.005681677
 20
-15.7292428694
 11
0.306228656
 21
-19.3375774257
  0
LINE
  5
31C
100
AcDbEntity
  8
RACCORDO
100
AcDbLine
 62
7
  6
CONTINUOUS
 10
0.292161602
 20
-9.3103258551
 11
0.3364514606
 21
-9.842065113
  0
LWPOLYLINE
  5
31D
100
AcDbEntity
  8
0
100
AcDbPolyline
 62
250
  6
CONTINUOUS
 90
20
 70
0
 10
0.4737462491
 20
-26.7421973044
 10
0.473944997
 20
-26.7523615913
 10
0.4745407938
 20
-26.7623042752
 10
0.4755322997
 20
-26.7720029991
 10
0.4769172854
 20
-26.7814359548
 10
0.4786926365
 20
-26.7905819315
 10
0.4808543611
 20
-26.7994203638
 10
0.4833975983
 20
-26.8079313779
 10
0.4863166295
 20
-26.816095836
 10
0.4896048911
 20
-26.8238953798
 10
0.4932549891
 20
-26.8313124714
 10
0.4972587159
 20
-26.8383304329
 10
0.501607069
 20
-26.8449334839
 10
0.5062902707
 20
-26.8511067769
 10
0.5112977905
 20
-26.8568364309
 10
0.5166183686
 20
-26.8621095622
 10
0.5222400413
 20
-26.8669143138
 10
0.5281501677
 20
-26.871239882
 10
0.5343354587
 20
-26.8750765402
 10
0.5387195455
 20
-26.8774157545
  0
LWPOLYLINE
  5
31E
100
AcDbEntity
  8
0
100
AcDbPolyline
 62
250
  6
CONTINUOUS
 90
20
 70
0
 10
-1.2047918213
 20
15.7366498043
 10
-1.2046235254
 20
15.7272888539
 10
-1.2041189582
 20
15.7181140229
 10
-1.2032790804
 20
15.7091427807
 10
-1.2021054946
 20
15.7003922319
 10
-1.2006004337
 20
15.6918790139
 10
-1.1987667473
 20
15.6836192711
 10
-1.1966079033
 20
15.6756286834
 10
-1.1941280159
 20
15.6679225298
 10
-1.1913318361
 20
15.6605155809
 10
-1.1882247136
 20
15.6534219815
 10
-1.1848125515
 20
15.6466551853
 10
-1.1811018235
 20
15.6402280282
 10
-1.1770995628
 20
15.6341527083
 10
-1.1728134136
 20
15.6284408445
 10
-1.1682516041
 20
15.6231033915
 10
-1.1634228746
 20
15.6181505414
 10
-1.1583363888
 20
15.613591661
 10
-1.1530017738
 20
15.6094353679
 10
-1.1474424053
 20
15.6056984952
  0
LWPOLYLINE
  5
31F
100
AcDbEntity
  8
RACCORDO
100
AcDbPolyline
 62
250
  6
CONTINUOUS
 90
16
 70
0
 10
-1.6154963687
 20
11.1717271535
 10
-1.6163089565
 20
11.2184987748
 10
-1.6208802785
 20
11.2667365938
 10
-1.6291603284
 20
11.3159125945
 10
-1.6410585027
 20
11.3654884867
 10
-1.6564445897
 20
11.4149215884
 10
-1.675150191
 20
11.4636707657
 10
-1.6969705729
 20
11.5112023787
 10
-1.7216668987
 20
11.5569960997
 10
-1.748968834
 20
11.6005506023
 10
-1.7785775306
 20
11.6413890928
 10
-1.8101688806
 20
11.6790644973
 10
-1.8433970474
 20
11.7131643437
 10
-1.877898285
 20
11.7433153209
 10
-1.913294924
 20
11.769187358
 10
-1.9491994828
 20
11.7904972146
  0
LWPOLYLINE
  5
320
100
AcDbEntity
  8
0
100
AcDbPolyline
 62
7
  6
CONTINUOUS
 90
6
 70
0
 10
-1.7552607489
 20
23.3004657325
 10
-1.755266125
 20
23.3008224242
 10
-1.7557528862
 20
23.3036203119
 10
-1.7570068856
 20
23.3059132219
 10
-1.7589952668
 20
23.3077246931
 10
-1.7602761112
 20
23.3084705394
  0
LINE
  5
321
100
AcDbEntity
  8
0
100
AcDbLine
 62
7
  6
CONTINUOUS
 10
-1.2276768877
 20
21.8720486575
 11
-1.2259906839
 21
21.3028798701
  0
LINE
  5
322
100
AcDbEntity
  8
0
100
AcDbLine
 62
7
  6
CONTINUOUS
 10
-1.7552607489
 20
22.0522056805
 11
-1.7552607489
 21
23.3004698032
  0
LINE
  5
323
100
AcDbEntity
  8
0
100
AcDbLine
 62
7
  6
CONTINUOUS
 10
-1.6029596532
 20
16.4526676483
 11
-1.6029596532
 21
17.8383082943
  0
LINE
  5
324
100
AcDbEntity
  8
0
100
AcDbLine
 62
7
  6
CONTINUOUS
 10
-1.278015126
 20
16.1650120861
 11
-1.278015126
 21
15.825038152
  0
LINE
  5
325
100
AcDbEntity
  8
0
100
AcDbLine
 62
250
  6
CONTINUOUS
 10
-1.2047918213
 20
16.0766237384
 11
-1.2047918213
 21
15.7366498043
  0
LINE
  5
326
100
AcDbEntity
  8
0
100
AcDbLine
 62
7
  6
CONTINUOUS
 10
-0.5750221717
 20
15.3190331776
 11
-0.5750221717
 21
14.865059076
  0
LINE
  5
327
100
AcDbEntity
  8
0
100
AcDbLine
 62
250
  6
CONTINUOUS
 10
-0.501798867
 20
15.2824215253
 11
-0.501798867
 21
14.7733473811
  0
LINE
  5
328
100
AcDbEntity
  8
0
100
AcDbLine
 62
250
  6
CONTINUOUS
 10
-0.782965785
 20
20.6558773803
 11
-0.7792964482
 21
21.1726735973
  0
LWPOLYLINE
  5
329
100
AcDbEntity
  8
0
100
AcDbPolyline
 62
250
  6
CONTINUOUS
 90
34
 70
0
 10
-1.2047918213
 20
16.0766237384
 10
-1.2045930185
 20
16.0869882166
 10
-1.2039970562
 20
16.0975282015
 10
-1.2030052731
 20
16.1082199871
 10
-1.201619897
 20
16.119039533
 10
-1.1998440429
 20
16.1299624973
 10
-1.1976817078
 20
16.1409642913
 10
-1.1951377572
 20
16.1520201635
 10
-1.1922179124
 20
16.1631052525
 10
-1.1889287425
 20
16.1741946222
 10
-1.1852776455
 20
16.1852633321
 10
-1.1812728349
 20
16.1962864845
 10
-1.1769233227
 20
16.2072392777
 10
-1.172238894
 20
16.2180970754
 10
-1.167230086
 20
16.2288354585
 10
-1.1619081674
 20
16.2394302717
 10
-1.156285107
 20
16.2498576914
 10
-1.1503735563
 20
16.2600942602
 10
-1.1441868246
 20
16.2701169371
 10
-1.137738848
 20
16.2799031551
 10
-1.1310441147
 20
16.2894309349
 10
-1.1241176385
 20
16.2986789099
 10
-1.1169749281
 20
16.3076263603
 10
-1.1096321106
 20
16.3162530711
 10
-1.1021058639
 20
16.3245394615
 10
-1.0944132297
 20
16.33246681
 10
-1.0865714171
 20
16.3400174229
 10
-1.0785979181
 20
16.3471744721
 10
-1.0705094407
 20
16.3539228452
 10
-1.0623253694
 20
16.3602462551
 10
-1.0540676986
 20
16.366128031
 10
-1.0457562779
 20
16.3715547811
 10
-1.0374086455
 20
16.3765157951
 10
-1.0290435653
 20
16.3810005534
  0
LWPOLYLINE
  5
32A
100
AcDbEntity
  8
0
100
AcDbPolyline
 62
250
  6
CONTINUOUS
 90
34
 70
0
 10
0.4737462491
 20
15.2373547032
 10
0.473944997
 20
15.247717738
 10
0.4745407938
 20
15.2582562187
 10
0.4755322997
 20
15.2689464485
 10
0.4769172854
 20
15.2797643899
 10
0.4786926365
 20
15.2906857177
 10
0.4808543611
 20
15.3016858746
 10
0.4833975983
 20
15.3127401259
 10
0.4863166295
 20
15.3238236152
 10
0.4896048911
 20
15.3349114206
 10
0.4932549891
 20
15.3459786101
 10
0.4972587159
 20
15.3570002985
 10
0.501607069
 20
15.3679517026
 10
0.5062902707
 20
15.3788081974
 10
0.5112977905
 20
15.3895453711
 10
0.5166183686
 20
15.4001390805
 10
0.5222400413
 20
15.4105655048
 10
0.5281501677
 20
15.4208011994
 10
0.5343354587
 20
15.4308231486
 10
0.540782006
 20
15.4406088171
 10
0.547475314
 20
15.4501362014
 10
0.5544003325
 20
15.4593838782
 10
0.56154149
 20
15.4683310535
 10
0.568882729
 20
15.4769576089
 10
0.5764075422
 20
15.4852441469
 10
0.5840990094
 20
15.4931720346
 10
0.591939836
 20
15.5007234456
 10
0.5999123911
 20
15.5078813999
 10
0.6079987478
 20
15.5146298023
 10
0.6161807234
 20
15.5209534786
 10
0.6244399201
 20
15.5268382095
 10
0.6327577665
 20
15.5322707627
 10
0.6411155592
 20
15.5372389227
 10
0.6494945051
 20
15.5417315182
  0
LWPOLYLINE
  5
32B
100
AcDbEntity
  8
RACCORDO
100
AcDbPolyline
 62
250
  6
CONTINUOUS
 90
10
 70
0
 10
-3.3124897691
 20
-26.8513902142
 10
-3.3174251229
 20
-26.8969920013
 10
-3.3260742011
 20
-26.9401164995
 10
-3.3383423253
 20
-26.9802916396
 10
-3.3540952003
 20
-27.0170776378
 10
-3.3731603849
 20
-27.0500718105
 10
-3.3953291789
 20
-27.0789129814
 10
-3.4203589081
 20
-27.1032854362
 10
-3.4479755804
 20
-27.1229223778
 10
-3.4805899689
 20
-27.1386521433
  0
LWPOLYLINE
  5
32C
100
AcDbEntity
  8
RACCORDO
100
AcDbPolyline
 62
250
  6
CONTINUOUS
 90
16
 70
0
 10
-3.1443206494
 20
0.1235532229
 10
-3.1833236261
 20
0.1101997816
 10
-3.2255599037
 20
0.0989022646
 10
-3.2705820129
 20
0.0897803627
 10
-3.3179129702
 20
0.0829307172
 10
-3.3670513309
 20
0.0784258963
 10
-3.4174765021
 20
0.0763136258
 10
-3.4686542578
 20
0.0766162842
 10
-3.520042399
 20
0.0793306649
 10
-3.5710964973
 20
0.0844280107
 10
-3.6212756639
 20
0.091854318
 10
-3.670048279
 20
0.1015309093
 10
-3.7168976244
 20
0.1133552667
 10
-3.7613273581
 20
0.1272021178
 10
-3.8028667723
 20
0.1429247632
 10
-3.8410757807
 20
0.1603566303
  0
LINE
  5
32D
100
AcDbEntity
  8
RACCORDO
100
AcDbLine
 62
250
  6
CONTINUOUS
 10
-18.4897362662
 20
7.4846868728
 11
-3.841075781
 21
0.1603566302
  0
LWPOLYLINE
  5
32E
100
AcDbEntity
  8
0
100
AcDbPolyline
 62
250
  6
CONTINUOUS
 90
5
 70
0
 10
2.9751207528
 20
-25.2050351184
 10
2.9738534856
 20
-25.1935663569
 10
2.9721442012
 20
-25.1822390995
 10
2.9699967575
 20
-25.1710789119
 10
2.9674160018
 20
-25.1601109834
  0
LWPOLYLINE
  5
32F
100
AcDbEntity
  8
0
100
AcDbPolyline
 62
250
  6
CONTINUOUS
 90
3
 70
0
 10
-1.2773311448
 20
15.8157979849
 10
-1.2779269433
 20
15.8217183792
 10
-1.278015126
 20
15.825038152
  0
LINE
  5
330
100
AcDbEntity
  8
0
100
AcDbLine
 62
7
  6
CONTINUOUS
 10
0.9043627153
 20
-6.3919936024
 11
2.0554817168
 21
-20.2122039561
  0
LWPOLYLINE
  5
331
100
AcDbEntity
  8
0
100
AcDbPolyline
 62
250
  6
CONTINUOUS
 90
22
 70
0
 10
0.4737462491
 20
14.8973807691
 10
0.4739140814
 20
14.8880325997
 10
0.474417488
 20
14.8788669231
 10
0.4752558551
 20
14.8699013536
 10
0.4764280817
 20
14.8611521742
 10
0.4779322003
 20
14.8526373
 10
0.4797650034
 20
14.8443759662
 10
0.4819227283
 20
14.8363848271
 10
0.4844014624
 20
14.8286781129
 10
0.4871965197
 20
14.8212704138
 10
0.4903026167
 20
14.8141757857
 10
0.4937138269
 20
14.8074078124
 10
0.4974236113
 20
14.8009794793
 10
0.5014248745
 20
14.7949030653
 10
0.5057100204
 20
14.7891900911
 10
0.5102709205
 20
14.7838513954
 10
0.5150989265
 20
14.7788971169
 10
0.5201848196
 20
14.7743367307
 10
0.5255188497
 20
14.7701789756
 10
0.5310908143
 20
14.7664317829
 10
0.5368901346
 20
14.7631022467
 10
0.538717075
 20
14.7621635543
  0
LINE
  5
332
100
AcDbEntity
  8
0
100
AcDbLine
 62
7
  6
CONTINUOUS
 10
1.6166224629
 20
22.406695632
 11
1.6199299459
 21
21.9408635769
  0
LINE
  5
333
100
AcDbEntity
  8
RACCORDO
100
AcDbLine
 62
7
  6
CONTINUOUS
 10
0.306228656
 20
-19.3375774257
 11
0.306228656
 21
-19.6840799171
  0
LINE
  5
334
100
AcDbEntity
  8
0
100
AcDbLine
 62
250
  6
CONTINUOUS
 10
0.4737462491
 20
-26.7421973044
 11
0.4737462491
 21
-26.4022233703
  0
LINE
  5
335
100
AcDbEntity
  8
0
100
AcDbLine
 62
250
  6
CONTINUOUS
 10
0.4737462491
 20
14.8973807691
 11
0.4737462491
 21
15.2373547032
  0
LINE
  5
336
100
AcDbEntity
  8
0
100
AcDbLine
 62
250
  6
CONTINUOUS
 10
0.8262682088
 20
-26.7427100283
 11
0.8262682088
 21
-26.4027360941
  0
LINE
  5
337
100
AcDbEntity
  8
0
100
AcDbLine
 62
250
  6
CONTINUOUS
 10
0.8262682088
 20
14.8968680452
 11
0.8262682088
 21
15.2368419794
  0
LINE
  5
338
100
AcDbEntity
  8
0
100
AcDbLine
 62
250
  6
CONTINUOUS
 10
1.1849668572
 20
-25.4257268931
 11
1.1849668572
 21
-24.7318141659
  0
LINE
  5
339
100
AcDbEntity
  8
0
100
AcDbLine
 62
250
  6
CONTINUOUS
 10
1.1849668572
 20
13.929964519
 11
1.1849668572
 21
14.6107142646
  0
LINE
  5
33A
100
AcDbEntity
  8
0
100
AcDbLine
 62
250
  6
CONTINUOUS
 10
1.5374888169
 20
-25.551239617
 11
1.5374888169
 21
-24.9080751457
  0
LINE
  5
33B
100
AcDbEntity
  8
0
100
AcDbLine
 62
250
  6
CONTINUOUS
 10
1.5374888169
 20
13.9407324006
 11
1.5374888169
 21
14.7483645224
  0
LINE
  5
33C
100
AcDbEntity
  8
0
100
AcDbLine
 62
7
  6
CONTINUOUS
 10
2.0554817168
 20
13.0614961956
 11
2.0554817168
 21
8.5398394496
  0
LINE
  5
33D
100
AcDbEntity
  8
0
100
AcDbLine
 62
7
  6
CONTINUOUS
 10
2.0554817168
 20
-20.2122039561
 11
2.0554817168
 21
-24.7338607021
  0
LINE
  5
33E
100
AcDbEntity
  8
0
100
AcDbLine
 62
7
  6
CONTINUOUS
 10
2.4275489996
 20
-24.7943156339
 11
2.4275489996
 21
-25.9626754286
  0
LINE
  5
33F
100
AcDbEntity
  8
0
100
AcDbLine
 62
7
  6
CONTINUOUS
 10
2.4275489996
 20
14.4374133219
 11
2.4275489996
 21
16.0395639829
  0
LWPOLYLINE
  5
340
100
AcDbEntity
  8
0
100
AcDbPolyline
 62
250
  6
CONTINUOUS
 90
25
 70
0
 10
0.4737462491
 20
-26.4022233703
 10
0.473914545
 20
-26.392694124
 10
0.4744191122
 20
-26.3830147258
 10
0.47525899
 20
-26.3732036057
 10
0.4764325758
 20
-26.3632794712
 10
0.4779376367
 20
-26.3532611923
 10
0.4797713231
 20
-26.3431677631
 10
0.4819301671
 20
-26.3330183314
 10
0.4844100545
 20
-26.3228322904
 10
0.4872062343
 20
-26.3126291617
 10
0.4903133568
 20
-26.3024284398
 10
0.4937255189
 20
-26.2922494814
 10
0.4974362469
 20
-26.2821115964
 10
0.5014385076
 20
-26.2720340157
 10
0.5057246568
 20
-26.2620360028
 10
0.5102864663
 20
-26.2521367403
 10
0.5151151958
 20
-26.2423551607
 10
0.5202016816
 20
-26.2327097945
 10
0.5255362966
 20
-26.2232188864
 10
0.5311095668
 20
-26.2138993992
 10
0.5369102527
 20
-26.2047702305
 10
0.5429251779
 20
-26.1958518318
 10
0.5491419428
 20
-26.1871619455
 10
0.5555492053
 20
-26.1787158043
 10
0.5621345968
 20
-26.1705291965
  0
LWPOLYLINE
  5
341
100
AcDbEntity
  8
0
100
AcDbPolyline
 62
250
  6
CONTINUOUS
 90
20
 70
0
 10
0.8262682088
 20
-26.7427100283
 10
0.8260198789
 20
-26.7529364462
 10
0.8253738985
 20
-26.762938269
 10
0.8243317298
 20
-26.7726928333
 10
0.8228957317
 20
-26.7821780407
 10
0.821069157
 20
-26.7913723924
 10
0.8188561471
 20
-26.8002550389
 10
0.8162617182
 20
-26.8088058497
 10
0.8132917485
 20
-26.8170054546
 10
0.8099529691
 20
-26.8248352723
 10
0.8062529455
 20
-26.8322775636
 10
0.8022000626
 20
-26.8393154649
 10
0.7978035081
 20
-26.8459330254
 10
0.793073246
 20
-26.8521152517
 10
0.7880199953
 20
-26.857848139
 10
0.7826552089
 20
-26.8631186979
 10
0.7769910414
 20
-26.8679149911
 10
0.7710403308
 20
-26.8722261509
 10
0.7648165736
 20
-26.8760424051
 10
0.760170756
 20
-26.8784804984
  0
LINE
  5
342
100
AcDbEntity
  8
RACCORDO
100
AcDbLine
 62
7
  6
CONTINUOUS
 10
-0.4425073001
 20
-25.7714398954
 11
1.2626864616
 21
12.4354161373
  0
LINE
  5
343
100
AcDbEntity
  8
0
100
AcDbLine
 62
7
  6
CONTINUOUS
 10
2.0554817168
 20
8.5398394496
 11
0.9043627153
 21
-6.3919936024
  0
LINE
  5
344
100
AcDbEntity
  8
0
100
AcDbLine
 62
250
  6
CONTINUOUS
 10
2.9558161713
 20
16.3030028029
 11
2.9558161713
 21
15.9554712862
  0
LINE
  5
345
100
AcDbEntity
  8
0
100
AcDbLine
 62
250
  6
CONTINUOUS
 10
2.9558161713
 20
-25.3441328532
 11
2.9558161713
 21
-25.69166437
  0
LINE
  5
346
100
AcDbEntity
  8
0
100
AcDbLine
 62
7
  6
CONTINUOUS
 10
3.0280140283
 20
16.3908754351
 11
3.0280140283
 21
16.0433439183
  0
LINE
  5
347
100
AcDbEntity
  8
0
100
AcDbLine
 62
7
  6
CONTINUOUS
 10
3.0280140283
 20
-25.256260221
 11
3.0280140283
 21
-25.6037917378
  0
LINE
  5
348
100
AcDbEntity
  8
0
100
AcDbLine
 62
7
  6
CONTINUOUS
 10
3.1346557808
 20
13.6508618852
 11
3.1346557808
 21
-24.2810801121
  0
LINE
  5
349
100
AcDbEntity
  8
0
100
AcDbLine
 62
250
  6
CONTINUOUS
 10
3.704351013
 20
19.0993429184
 11
3.704351013
 21
19.5737442937
  0
LINE
  5
34A
100
AcDbEntity
  8
0
100
AcDbLine
 62
250
  6
CONTINUOUS
 10
3.704351013
 20
19.9299201602
 11
3.704351013
 21
20.4830908833
  0
LINE
  5
34B
100
AcDbEntity
  8
ASSI
100
AcDbLine
 62
7
  6
CONTINUOUS
 10
3.7654981392
 20
-20.3818441053
 11
3.7654981392
 21
-19.5709032449
  0
LINE
  5
34C
100
AcDbEntity
  8
ASSI
100
AcDbLine
 62
7
  6
CONTINUOUS
 10
3.7654981392
 20
9.5826348657
 11
3.7654981392
 21
10.3935757261
  0
LINE
  5
34D
100
AcDbEntity
  8
0
100
AcDbLine
 62
7
  6
CONTINUOUS
 10
3.7658066806
 20
10.3934214554
 11
3.7658066806
 21
9.582480595
  0
LINE
  5
34E
100
AcDbEntity
  8
0
100
AcDbLine
 62
7
  6
CONTINUOUS
 10
3.7658066806
 20
-20.3819983759
 11
3.7658066806
 21
-19.5710575156
  0
LINE
  5
34F
100
AcDbEntity
  8
0
100
AcDbLine
 62
7
  6
CONTINUOUS
 10
3.8351858641
 20
19.256982374
 11
3.8351858641
 21
20.5052464967
  0
LINE
  5
350
100
AcDbEntity
  8
0
100
AcDbLine
 62
7
  6
CONTINUOUS
 10
3.8355917346
 20
14.0024623011
 11
3.8355917346
 21
11.07055735
  0
LINE
  5
351
100
AcDbEntity
  8
0
100
AcDbLine
 62
7
  6
CONTINUOUS
 10
3.8355917346
 20
-20.9874979684
 11
3.8355917346
 21
-23.9194029194
  0
LINE
  5
352
100
AcDbEntity
  8
ASSI
100
AcDbLine
 62
7
  6
CONTINUOUS
 10
4.5365276884
 20
11.424065657
 11
4.5365276884
 21
10.8141434325
  0
LINE
  5
353
100
AcDbEntity
  8
ASSI
100
AcDbLine
 62
7
  6
CONTINUOUS
 10
4.5365276884
 20
9.9466725287
 11
4.5365276884
 21
-19.1503355384
  0
LINE
  5
354
100
AcDbEntity
  8
ASSI
100
AcDbLine
 62
7
  6
CONTINUOUS
 10
4.5365276884
 20
-20.0178064423
 11
4.5365276884
 21
-20.6277286667
  0
LINE
  5
355
100
AcDbEntity
  8
0
100
AcDbLine
 62
7
  6
CONTINUOUS
 10
4.5368362297
 20
10.8139891618
 11
4.5368362297
 21
9.946518258
  0
LINE
  5
356
100
AcDbEntity
  8
0
100
AcDbLine
 62
7
  6
CONTINUOUS
 10
4.5368362297
 20
-20.017960713
 11
4.5368362297
 21
-19.1504898091
  0
LINE
  5
357
100
AcDbEntity
  8
RACCORDO
100
AcDbLine
 62
7
  6
CONTINUOUS
 10
4.5488693432
 20
10.6961379719
 11
4.5488693432
 21
-19.9121426365
  0
LINE
  5
358
100
AcDbEntity
  8
0
100
AcDbLine
 62
250
  6
CONTINUOUS
 10
3.0280140283
 20
-25.6037917378
 11
3.0280138833
 21
-25.6039263615
  0
LWPOLYLINE
  5
359
100
AcDbEntity
  8
0
100
AcDbPolyline
 62
7
  6
CONTINUOUS
 90
23
 70
0
 10
3.1346557808
 20
-24.2808672646
 10
3.1345708786
 20
-24.2980597373
 10
3.1338637932
 20
-24.3149594578
 10
3.1325371474
 20
-24.3315385672
 10
3.1305872013
 20
-24.3477702357
 10
3.1280258153
 20
-24.3636274531
 10
3.1248795085
 20
-24.379082364
 10
3.1211577208
 20
-24.3941081002
 10
3.1168625251
 20
-24.4086800318
 10
3.1120093939
 20
-24.4227735587
 10
3.1066043423
 20
-24.4363710626
 10
3.1006567047
 20
-24.4494413891
 10
3.0941898595
 20
-24.4619426364
 10
3.0872231953
 20
-24.4738444717
 10
3.0797632131
 20
-24.4851401705
 10
3.0718153536
 20
-24.4958247112
 10
3.063384523
 20
-24.505888044
 10
3.0544909427
 20
-24.5153020762
 10
3.0451642845
 20
-24.5240367779
 10
3.0354314761
 20
-24.532071457
 10
3.025300271
 20
-24.5394038367
 10
3.0147725805
 20
-24.5460329604
 10
3.0059430075
 20
-24.5508901696
  0
LWPOLYLINE
  5
35A
100
AcDbEntity
  8
0
100
AcDbPolyline
 62
250
  6
CONTINUOUS
 90
20
 70
0
 10
2.9558161713
 20
-25.69166437
 10
2.9556633894
 20
-25.7018430139
 10
2.9551080801
 20
-25.7117995012
 10
2.9541515
 20
-25.7215112711
 10
2.9527958142
 20
-25.7309563224
 10
2.9510440934
 20
-25.7401132472
 10
2.9489003093
 20
-25.7489612808
 10
2.9463693211
 20
-25.7574803712
 10
2.9434568635
 20
-25.76565122
 10
2.9401695371
 20
-25.7734553113
 10
2.9365147909
 20
-25.7808749638
 10
2.9325009073
 20
-25.7878933655
 10
2.9281369854
 20
-25.7944946097
 10
2.9234329155
 20
-25.8006637399
 10
2.9183993573
 20
-25.806386781
 10
2.913047719
 20
-25.8116507659
 10
2.9073901253
 20
-25.8164437721
 10
2.9014393997
 20
-25.8207549394
 10
2.8952090384
 20
-25.8245744957
 10
2.8921281338
 20
-25.8262281802
  0
LWPOLYLINE
  5
35B
100
AcDbEntity
  8
0
100
AcDbPolyline
 62
7
  6
CONTINUOUS
 90
20
 70
0
 10
2.4275489996
 20
-25.9626754286
 10
2.4273486207
 20
-25.9728770198
 10
2.4267484517
 20
-25.9828551846
 10
2.4257497481
 20
-25.9925873719
 10
2.4243545898
 20
-26.0020516281
 10
2.4225661289
 20
-26.011226516
 10
2.420388583
 20
-26.0200911633
 10
2.4178268244
 20
-26.0286255186
 10
2.4148865635
 20
-26.0368102945
 10
2.4115745892
 20
-26.0446268803
 10
2.4078983653
 20
-26.0520575876
 10
2.4038661463
 20
-26.0590856192
 10
2.3994871545
 20
-26.0656950059
 10
2.3947712934
 20
-26.0718707826
 10
2.3897291937
 20
-26.0775989849
 10
2.3843723233
 20
-26.0828666107
 10
2.3787128239
 20
-26.0876617233
 10
2.372763486
 20
-26.0919734755
 10
2.3665377894
 20
-26.0957920977
 10
2.3634438979
 20
-26.0974532007
  0
LWPOLYLINE
  5
35C
100
AcDbEntity
  8
0
100
AcDbPolyline
 62
250
  6
CONTINUOUS
 90
18
 70
0
 10
3.0280140283
 20
16.3908754351
 10
3.0279604668
 20
16.388288067
 10
3.0274340394
 20
16.3823657628
 10
3.0263466271
 20
16.3764625901
 10
3.0247006724
 20
16.3705918233
 10
3.0224998752
 20
16.3647666688
 10
3.0197491823
 20
16.3590002279
 10
3.0164547785
 20
16.3533054714
 10
3.012624074
 20
16.3476952126
 10
3.0082656844
 20
16.3421820709
 10
3.0033894108
 20
16.3367784458
 10
2.9980062213
 20
16.3314964931
 10
2.9921282201
 20
16.3263480904
 10
2.98576863
 20
16.3213448204
 10
2.9789417672
 20
16.3164979456
 10
2.9716629931
 20
16.3118183695
 10
2.9639486769
 20
16.3073166138
 10
2.9558161713
 20
16.3030028029
  0
LWPOLYLINE
  5
35D
100
AcDbEntity
  8
0
100
AcDbPolyline
 62
250
  6
CONTINUOUS
 90
18
 70
0
 10
3.0280140274
 20
16.0433332154
 10
3.0279596055
 20
16.0407358309
 10
3.0274312524
 20
16.0348138489
 10
3.0263419804
 20
16.0289110719
 10
3.0246942424
 20
16.0230407659
 10
3.0224917422
 20
16.0172161198
 10
3.0197394105
 20
16.0114501901
 10
3.0164434516
 20
16.0057559877
 10
3.0126113602
 20
16.0001464303
 10
3.0082518481
 20
15.9946342008
 10
3.0033747024
 20
15.9892316125
 10
2.9979908071
 20
15.9839507016
 10
2.9921117721
 20
15.9788029312
 10
2.9857512353
 20
15.9738003118
 10
2.9789250756
 20
15.9689551573
 10
2.9716495031
 20
15.9642785927
 10
2.9639406695
 20
15.9597806428
 10
2.9558161713
 20
15.9554712862
  0
LWPOLYLINE
  5
35E
100
AcDbEntity
  8
0
100
AcDbPolyline
 62
250
  6
CONTINUOUS
 90
18
 70
0
 10
3.0280138833
 20
-25.6039263615
 10
3.0279604668
 20
-25.6063791059
 10
3.0274340394
 20
-25.61230141
 10
3.0263466271
 20
-25.6182045828
 10
3.0247006724
 20
-25.6240753496
 10
3.0224998752
 20
-25.629900504
 10
3.0197491823
 20
-25.6356669449
 10
3.0164547785
 20
-25.6413617014
 10
3.012624074
 20
-25.6469719603
 10
3.0082656844
 20
-25.652485102
 10
3.0033894108
 20
-25.6578887271
 10
2.9980062213
 20
-25.6631706798
 10
2.9921282201
 20
-25.6683190825
 10
2.98576863
 20
-25.6733223524
 10
2.9789417672
 20
-25.6781692273
 10
2.9716629931
 20
-25.6828488033
 10
2.9639486769
 20
-25.6873505591
 10
2.9558161713
 20
-25.69166437
  0
LWPOLYLINE
  5
35F
100
AcDbEntity
  8
0
100
AcDbPolyline
 62
250
  6
CONTINUOUS
 90
18
 70
0
 10
3.0280137466
 20
-25.256447892
 10
3.0279600139
 20
-25.2588585037
 10
3.0274326386
 20
-25.2647801514
 10
3.0263444033
 20
-25.2706826416
 10
3.024697755
 20
-25.2765527011
 10
3.0224963963
 20
-25.2823771301
 10
3.0197452775
 20
-25.2881428307
 10
3.0164505844
 20
-25.2938368385
 10
3.012619724
 20
-25.2994463518
 10
3.0082613053
 20
-25.3049587617
 10
3.0033851315
 20
-25.3103616671
 10
2.99800218
 20
-25.3156429061
 10
2.9921245666
 20
-25.3207905964
 10
2.9857655036
 20
-25.325793171
 10
2.9789392799
 20
-25.3306393903
 10
2.971661241
 20
-25.3353183595
 10
2.9639477564
 20
-25.3398195544
 10
2.9558161713
 20
-25.3441328532
  0
LWPOLYLINE
  5
360
100
AcDbEntity
  8
0
100
AcDbPolyline
 62
250
  6
CONTINUOUS
 90
16
 70
0
 10
-9.3478418213
 20
22.1073002825
 10
-9.3438691076
 20
22.1006054073
 10
-9.3403066489
 20
22.0941239654
 10
-9.3371624857
 20
22.0878705851
 10
-9.334443714
 20
22.0818593797
 10
-9.33215647
 20
22.0761039163
 10
-9.3303059158
 20
22.0706171846
 10
-9.328896228
 20
22.0654115679
 10
-9.3279305883
 20
22.0604988148
 10
-9.327411176
 20
22.0558900132
 10
-9.3273391634
 20
22.0515955649
 10
-9.327714713
 20
22.0476251622
 10
-9.3285369773
 20
22.043987766
 10
-9.3298041003
 20
22.0406915858
 10
-9.3315132224
 20
22.0377440609
 10
-9.3324812489
 20
22.0364651159
  0
LWPOLYLINE
  5
361
100
AcDbEntity
  8
0
100
AcDbPolyline
 62
7
  6
CONTINUOUS
 90
5
 70
0
 10
3.8351858641
 20
20.5052428615
 10
3.8349488796
 20
20.5074948344
 10
3.8339961695
 20
20.5098926512
 10
3.8323481579
 20
20.5118218953
 10
3.8301709137
 20
20.5132522636
  0
LINE
  5
362
100
AcDbEntity
  8
RACCORDO
100
AcDbLine
 62
7
  6
CONTINUOUS
 10
8.8975760474
 20
18.0895864944
 11
8.8975760474
 21
18.0656198913
  0
LINE
  5
363
100
AcDbEntity
  8
ASSI
100
AcDbLine
 62
250
  6
CONTINUOUS
 10
8.9278054068
 20
-18.6393931832
 11
8.9278054068
 21
-18.8546552926
  0
LINE
  5
364
100
AcDbEntity
  8
ASSI
100
AcDbLine
 62
250
  6
CONTINUOUS
 10
8.9278054068
 20
18.1055670403
 11
8.9278054068
 21
18.7070841219
  0
LINE
  5
365
100
AcDbEntity
  8
ASSI
100
AcDbLine
 62
7
  6
CONTINUOUS
 10
9.0681355066
 20
19.0038236713
 11
9.0681355066
 21
18.2818377296
  0
LINE
  5
366
100
AcDbEntity
  8
ASSI
100
AcDbLine
 62
7
  6
CONTINUOUS
 10
9.0681355066
 20
-18.8040656568
 11
9.0681355066
 21
-18.5651843148
  0
LINE
  5
367
100
AcDbEntity
  8
RACCORDO
100
AcDbLine
 62
250
  6
CONTINUOUS
 10
0.3364514606
 20
-9.842065113
 11
0.2669982141
 21
-9.8741409238
  0
LINE
  5
368
100
AcDbEntity
  8
RACCORDO
100
AcDbLine
 62
7
  6
CONTINUOUS
 10
0.2717452625
 20
-9.998251044
 11
0.2612426297
 21
-10.0031015078
  0
LINE
  5
369
100
AcDbEntity
  8
RACCORDO
100
AcDbLine
 62
250
  6
CONTINUOUS
 10
-17.3561760457
 20
18.091147291
 11
-2.6714211549
 21
10.7487698456
  0
LINE
  5
36A
100
AcDbEntity
  8
DRAFT
100
AcDbLine
 62
7
  6
CONTINUOUS
 10
1.1099250208
 20
9.0126177976
 11
2.0554817168
 21
8.5398394496
  0
LINE
  5
36B
100
AcDbEntity
  8
ASSI
100
AcDbLine
 62
7
  6
CONTINUOUS
 10
9.0679033544
 20
19.0207991919
 11
9.0680639825
 21
19.0038416972
  0
LINE
  5
36C
100
AcDbEntity
  8
ASSI
100
AcDbLine
 62
7
  6
CONTINUOUS
 10
9.068056656
 20
-18.8041117893
 11
9.0679033544
 21
-18.8058064039
  0
LWPOLYLINE
  5
36D
100
AcDbEntity
  8
0
100
AcDbPolyline
 62
250
  6
CONTINUOUS
 90
13
 70
0
 10
2.9558161713
 20
-25.3441328532
 10
2.9597889561
 20
-25.3330172415
 10
2.9633514701
 20
-25.3217283871
 10
2.9664956727
 20
-25.3102917695
 10
2.9692144659
 20
-25.2987332076
 10
2.9715017153
 20
-25.2870787833
 10
2.9733522612
 20
-25.2753547811
 10
2.9747619261
 20
-25.263587647
 10
2.9757275235
 20
-25.251803955
 10
2.9762468712
 20
-25.2400303273
 10
2.9763187978
 20
-25.2282933478
 10
2.9759431423
 20
-25.216619497
 10
2.9751207528
 20
-25.2050351184
  0
LWPOLYLINE
  5
36E
100
AcDbEntity
  8
RACCORDO
100
AcDbPolyline
 62
250
  6
CONTINUOUS
 90
16
 70
0
 10
-1.9810638424
 20
10.6530917893
 10
-2.019405973
 20
10.6457859133
 10
-2.0609896011
 20
10.6404726259
 10
-2.1053740092
 20
10.6372082392
 10
-2.1520887962
 20
10.6360273501
 10
-2.2006388631
 20
10.6369424741
 10
-2.2505096599
 20
10.6399439125
 10
-2.3011726389
 20
10.644999855
 10
-2.3520908566
 20
10.652056717
 10
-2.4027246647
 20
10.6610397075
 10
-2.4525374288
 20
10.6718536217
 10
-2.5010012165
 20
10.68438385
 10
-2.5476023919
 20
10.6984975932
 10
-2.5918470602
 20
10.714045269
 10
-2.6332663012
 20
10.7308620978
 10
-2.6714211399
 20
10.7487698493
  0
LINE
  5
36F
100
AcDbEntity
  8
RACCORDO
100
AcDbLine
 62
250
  6
CONTINUOUS
 10
-16.6517809336
 20
19.141787937
 11
-1.949199486
 21
11.7904972132
  0
LWPOLYLINE
  5
370
100
AcDbEntity
  8
0
100
AcDbPolyline
 62
250
  6
CONTINUOUS
 90
16
 70
0
 10
2.9558161713
 20
15.9554712862
 10
2.9597888851
 20
15.948776411
 10
2.9633513437
 20
15.9422949691
 10
2.966495507
 20
15.9360415888
 10
2.9692142787
 20
15.9300303834
 10
2.9715015227
 20
15.92427492
 10
2.9733520769
 20
15.9187881883
 10
2.9747617646
 20
15.9135825715
 10
2.9757274043
 20
15.9086698184
 10
2.9762468166
 20
15.9040610169
 10
2.9763188292
 20
15.8997665685
 10
2.9759432796
 20
15.8957961658
 10
2.9751210154
 20
15.8921587697
 10
2.9738538923
 20
15.8888625895
 10
2.9721447703
 20
15.8859150645
 10
2.9711767437
 20
15.8846361196
  0
LINE
  5
371
100
AcDbEntity
  8
0
100
AcDbLine
 62
7
  6
CONTINUOUS
 10
4.5365276884
 20
11.424065657
 11
3.8355917346
 21
12.6330013484
  0
LINE
  5
372
100
AcDbEntity
  8
RACCORDO
100
AcDbLine
 62
7
  6
CONTINUOUS
 10
3.8355917346
 20
12.643689535
 11
4.1347188675
 21
12.1277715466
  0
LWPOLYLINE
  5
373
100
AcDbEntity
  8
0
100
AcDbPolyline
 62
250
  6
CONTINUOUS
 90
34
 70
0
 10
0.4737462491
 20
14.8973807691
 10
0.482325241
 20
14.893290021
 10
0.4912824382
 20
14.8894072192
 10
0.5005976996
 20
14.8857410944
 10
0.5102500794
 20
14.8822998902
 10
0.5202178733
 20
14.8790913444
 10
0.530478668
 20
14.8761226716
 10
0.5410093914
 20
14.8734005472
 10
0.5517863642
 20
14.870931092
 10
0.5627853538
 20
14.8687198587
 10
0.5739816279
 20
14.8667718196
 10
0.585350011
 20
14.865091355
 10
0.5968649404
 20
14.8636822434
 10
0.6085005239
 20
14.8625476533
 10
0.6202305979
 20
14.8616901361
 10
0.6320287866
 20
14.8611116199
 10
0.6438685608
 20
14.8608134054
 10
0.6557232979
 20
14.8607961633
 10
0.6675663416
 20
14.8610599324
 10
0.6793710619
 20
14.8616041195
 10
0.6911109151
 20
14.8624275011
 10
0.7027595031
 20
14.8635282255
 10
0.7142906333
 20
14.8649038179
 10
0.7256783769
 20
14.866551185
 10
0.736897128
 20
14.8684666227
 10
0.7479216601
 20
14.8706458239
 10
0.7587271838
 20
14.8730838886
 10
0.7692894022
 20
14.8757753345
 10
0.7795845651
 20
14.8787141098
 10
0.7895895232
 20
14.8818936063
 10
0.7992817796
 20
14.8853066748
 10
0.8086395405
 20
14.8889456407
 10
0.8176417643
 20
14.8928023216
 10
0.8262682088
 20
14.8968680452
  0
LINE
  5
374
100
AcDbEntity
  8
RACCORDO
100
AcDbLine
 62
7
  6
CONTINUOUS
 10
-13.9205013684
 20
20.4789285534
 11
0.9289833443
 21
13.054186197
  0
LINE
  5
375
100
AcDbEntity
  8
DRAFT
100
AcDbLine
 62
7
  6
CONTINUOUS
 10
-3.1712402456
 20
15.2483196451
 11
-7.3694475915
 21
17.347423318
  0
LINE
  5
376
100
AcDbEntity
  8
DRAFT
100
AcDbLine
 62
7
  6
CONTINUOUS
 10
-8.9922255166
 20
18.1756224196
 11
-2.6282644859
 21
14.9936419042
  0
LINE
  5
377
100
AcDbEntity
  8
0
100
AcDbLine
 62
7
  6
CONTINUOUS
 10
1.7021974509
 20
13.6713492222
 11
1.1849668572
 21
13.929964519
  0
LINE
  5
378
100
AcDbEntity
  8
0
100
AcDbLine
 62
7
  6
CONTINUOUS
 10
-0.501798867
 20
14.7733473811
 11
-2.6697905653
 21
15.8573432303
  0
LINE
  5
379
100
AcDbEntity
  8
0
100
AcDbLine
 62
7
  6
CONTINUOUS
 10
-3.3292004397
 20
16.1870481674
 11
-8.2912895628
 21
18.668092729
  0
LINE
  5
37A
100
AcDbEntity
  8
0
100
AcDbLine
 62
7
  6
CONTINUOUS
 10
-8.9506994371
 20
18.9977976662
 11
-11.1186911354
 21
20.0817935153
  0
LINE
  5
37B
100
AcDbEntity
  8
0
100
AcDbLine
 62
7
  6
CONTINUOUS
 10
-12.8054568597
 20
20.9251763774
 11
-13.3226874534
 21
21.1837916743
  0
LINE
  5
37C
100
AcDbEntity
  8
0
100
AcDbLine
 62
7
  6
CONTINUOUS
 10
-13.4434765175
 20
21.7532603505
 11
-11.7649384471
 21
20.9139913153
  0
LINE
  5
37D
100
AcDbEntity
  8
0
100
AcDbLine
 62
7
  6
CONTINUOUS
 10
-1.1398185249
 20
15.6014313542
 11
0.5387195455
 21
14.762162319
  0
LINE
  5
37E
100
AcDbEntity
  8
0
100
AcDbLine
 62
250
  6
CONTINUOUS
 10
-13.5084498139
 20
21.8884788006
 11
-11.8299117435
 21
21.0492097654
  0
LINE
  5
37F
100
AcDbEntity
  8
0
100
AcDbLine
 62
250
  6
CONTINUOUS
 10
-1.2047918213
 20
15.7366498043
 11
0.4737462491
 21
14.8973807691
  0
LINE
  5
380
100
AcDbEntity
  8
0
100
AcDbLine
 62
7
  6
CONTINUOUS
 10
-3.3292004397
 20
16.9395414168
 11
-4.2527534493
 21
17.4013179217
  0
LINE
  5
381
100
AcDbEntity
  8
0
100
AcDbLine
 62
7
  6
CONTINUOUS
 10
-5.9535229908
 20
18.2517026924
 11
-7.5780119542
 21
19.0639471741
  0
LWPOLYLINE
  5
382
100
AcDbEntity
  8
0
100
AcDbPolyline
 62
250
  6
CONTINUOUS
 90
16
 70
0
 10
-13.5084498139
 20
21.8884788006
 10
-13.5166291828
 20
21.892767127
 10
-13.5243934198
 20
21.8972447809
 10
-13.5317249832
 20
21.9019017371
 10
-13.5386074548
 20
21.9067276791
 10
-13.5450250847
 20
21.911711683
 10
-13.5509629383
 20
21.9168422055
 10
-13.5564075366
 20
21.9221075797
 10
-13.5613467869
 20
21.9274960886
 10
-13.5657695918
 20
21.9329956277
 10
-13.5696660085
 20
21.9385938404
 10
-13.573027264
 20
21.9442781297
 10
-13.5758457892
 20
21.9500356976
 10
-13.5781152448
 20
21.9558535905
 10
-13.5798305323
 20
21.9617187321
 10
-13.5809877961
 20
21.9676179372
  0
LWPOLYLINE
  5
383
100
AcDbEntity
  8
0
100
AcDbPolyline
 62
250
  6
CONTINUOUS
 90
16
 70
0
 10
-1.2047918213
 20
15.7366498043
 10
-1.212973889
 20
15.7409396145
 10
-1.2207400033
 20
15.7454185538
 10
-1.2280726991
 20
15.7500765493
 10
-1.234955478
 20
15.7549031202
 10
-1.2413728703
 20
15.7598874172
 10
-1.2473104639
 20
15.7650182494
 10
-1.2527549127
 20
15.7702840921
 10
-1.2576939528
 20
15.7756730921
 10
-1.2621164566
 20
15.7811731117
 10
-1.2660124739
 20
15.7867717751
 10
-1.2693732482
 20
15.7924564974
 10
-1.2721912212
 20
15.7982144939
 10
-1.2744600555
 20
15.804032815
 10
-1.2761746487
 20
15.8098983757
 10
-1.2773311448
 20
15.8157979849
  0
LWPOLYLINE
  5
384
100
AcDbEntity
  8
0
100
AcDbPolyline
 62
250
  6
CONTINUOUS
 90
18
 70
0
 10
-13.5084498139
 20
22.2284527348
 10
-13.5166324113
 20
22.2327428362
 10
-13.52439901
 20
22.2372220979
 10
-13.5317321395
 20
22.2418804458
 10
-13.5386153082
 20
22.2467074062
 10
-13.5450330278
 20
22.25169212
 10
-13.5509708502
 20
22.2568233664
 10
-13.5564154179
 20
22.2620896009
 10
-13.5613544888
 20
22.2674789811
 10
-13.5657769533
 20
22.2729793833
 10
-13.569672866
 20
22.2785784366
 10
-13.5730334646
 20
22.2842635465
 10
-13.5758511897
 20
22.2900219212
 10
-13.5781197057
 20
22.2958406079
 10
-13.5798339134
 20
22.3017065198
 10
-13.5809899594
 20
22.3076064614
 10
-13.5815852468
 20
22.3135271655
 10
-13.5816731186
 20
22.3168410824
  0
LWPOLYLINE
  5
385
100
AcDbEntity
  8
0
100
AcDbPolyline
 62
250
  6
CONTINUOUS
 90
34
 70
0
 10
-11.6541634876
 20
21.6935605145
 10
-11.6458002047
 20
21.6890855433
 10
-11.637453537
 20
21.6841314467
 10
-11.6291423914
 20
21.6787094467
 10
-11.6208855945
 20
21.6728318255
 10
-11.6127018499
 20
21.6665118971
 10
-11.6046096955
 20
21.6597639776
 10
-11.5966274619
 20
21.6526033526
 10
-11.5887732307
 20
21.6450462425
 10
-11.5810647934
 20
21.6371097658
 10
-11.5735196113
 20
21.6288119004
 10
-11.5661547761
 20
21.6201714429
 10
-11.5589869707
 20
21.6112079658
 10
-11.5520324317
 20
21.6019417734
 10
-11.5453069129
 20
21.5923938558
 10
-11.5388256489
 20
21.582585841
 10
-11.5326033213
 20
21.5725399464
 10
-11.5266540251
 20
21.5622789282
 10
-11.5209912367
 20
21.55182603
 10
-11.5156277837
 20
21.5412049299
 10
-11.5105758154
 20
21.5304396871
 10
-11.5058467758
 20
21.5195546872
 10
-11.501451377
 20
21.5085745872
 10
-11.4973995758
 20
21.4975242595
 10
-11.4937005503
 20
21.4864287356
 10
-11.4903626797
 20
21.4753131493
 10
-11.4873935249
 20
21.4642026799
 10
-11.4847998118
 20
21.4531224952
 10
-11.4825874157
 20
21.4420976941
 10
-11.4807613483
 20
21.4311532504
 10
-11.4793257459
 20
21.4203139557
 10
-11.4782838605
 20
21.4096043634
 10
-11.4776380522
 20
21.3990487331
 10
-11.4773897839
 20
21.3886709757
  0
LWPOLYLINE
  5
386
100
AcDbEntity
  8
0
100
AcDbPolyline
 62
250
  6
CONTINUOUS
 90
3
 70
0
 10
-1.1474285036
 20
15.6056891509
 10
-1.1416278177
 20
15.6023606681
 10
-1.1398185249
 20
15.6014313542
  0
LWPOLYLINE
  5
387
100
AcDbEntity
  8
RACCORDO
100
AcDbPolyline
 62
250
  6
CONTINUOUS
 90
16
 70
0
 10
-3.8935342155
 20
-16.6634509871
 10
-3.9326143098
 20
-16.6785323304
 10
-3.9749268877
 20
-16.6915394432
 10
-4.0200236715
 20
-16.7023345228
 10
-4.0674268866
 20
-16.7108032012
 10
-4.1166343228
 20
-16.7168557578
 10
-4.1671246554
 20
-16.7204280691
 10
-4.2183629681
 20
-16.7214822886
 10
-4.2698064203
 20
-16.7200072473
 10
-4.3209099979
 20
-16.7160185725
 10
-4.3711322875
 20
-16.7095585219
 10
-4.4199412127
 20
-16.7006955361
 10
-4.4668196707
 20
-16.6895235134
 10
-4.511271011
 20
-16.676160815
 10
-4.552824297
 20
-16.660749011
 10
-4.5910392952
 20
-16.6434513808
  0
LINE
  5
388
100
AcDbEntity
  8
0
100
AcDbLine
 62
7
  6
CONTINUOUS
 10
0.5994247152
 20
14.7410468845
 11
1.2236203123
 21
14.6107142646
  0
LINE
  5
389
100
AcDbEntity
  8
0
100
AcDbLine
 62
250
  6
CONTINUOUS
 10
0.8262682088
 20
14.8968680452
 11
1.5374888169
 21
14.7483645224
  0
LWPOLYLINE
  5
38A
100
AcDbEntity
  8
0
100
AcDbPolyline
 62
250
  6
CONTINUOUS
 90
16
 70
0
 10
-4.1121548445
 20
18.8784337253
 10
-4.1189422192
 20
18.8815729778
 10
-4.1257123597
 20
18.8843136081
 10
-4.1324499258
 20
18.8866494048
 10
-4.1391396552
 20
18.8885750749
 10
-4.1457663859
 20
18.8900862518
 10
-4.1523150907
 20
18.8911795084
 10
-4.1587709283
 20
18.8918523678
 10
-4.1651192742
 20
18.8921033067
 10
-4.1713457427
 20
18.8919317571
 10
-4.177436227
 20
18.8913381085
 10
-4.1833769263
 20
18.890323707
 10
-4.1891543755
 20
18.8888908534
 10
-4.1947554833
 20
18.8870427965
 10
-4.2001675611
 20
18.8847837256
 10
-4.203041414
 20
18.8833770237
  0
LWPOLYLINE
  5
38B
100
AcDbEntity
  8
0
100
AcDbPolyline
 62
7
  6
CONTINUOUS
 90
17
 70
0
 10
-3.901058487
 20
18.9873577112
 10
-3.9072268844
 20
18.9902772334
 10
-3.9133837344
 20
18.9928614326
 10
-3.9195172215
 20
18.995105437
 10
-3.9256154919
 20
18.9970050652
 10
-3.931666934
 20
18.9985567003
 10
-3.9376602005
 20
18.9997572965
 10
-3.9435838132
 20
19.0006046022
 10
-3.9494264056
 20
19.0010970482
 10
-3.9551770027
 20
19.0012336175
 10
-3.9608246013
 20
19.0010140768
 10
-3.9663583719
 20
19.0004388819
 10
-3.9717678996
 20
18.9995090625
 10
-3.9770428452
 20
18.9982264081
 10
-3.9821731009
 20
18.9965933919
 10
-3.9871489911
 20
18.9946130732
 10
-3.9896506036
 20
18.993457786
  0
LWPOLYLINE
  5
38C
100
AcDbEntity
  8
0
100
AcDbPolyline
 62
250
  6
CONTINUOUS
 90
31
 70
0
 10
-5.9535229908
 20
19.485317044
 10
-5.9459709846
 20
19.481732707
 10
-5.9380561165
 20
19.4783497515
 10
-5.9297998403
 20
19.4751773475
 10
-5.9212245353
 20
19.4722240938
 10
-5.9123534453
 20
19.4694979954
 10
-5.903210616
 20
19.4670064417
 10
-5.8938208297
 20
19.4647561862
 10
-5.8842095381
 20
19.4627533282
 10
-5.8744027931
 20
19.4610032968
 10
-5.8644271766
 20
19.4595108355
 10
-5.8543097283
 20
19.4582799897
 10
-5.8440778721
 20
19.4573140957
 10
-5.8337593421
 20
19.4566157716
 10
-5.8233821075
 20
19.4561869102
 10
-5.8129742964
 20
19.4560286741
 10
-5.8025641199
 20
19.4561414921
 10
-5.7921797955
 20
19.4565250585
 10
-5.7818494705
 20
19.4571783335
 10
-5.7716011461
 20
19.4580995464
 10
-5.7614626009
 20
19.4592862002
 10
-5.7514613163
 20
19.4607350784
 10
-5.7416244013
 20
19.4624422538
 10
-5.7319785196
 20
19.4644030988
 10
-5.722549817
 20
19.4666122985
 10
-5.7133638506
 20
19.4690638647
 10
-5.7044455196
 20
19.4717511523
 10
-5.6958189977
 20
19.4746668772
 10
-5.6875076677
 20
19.4778031362
 10
-5.679534058
 20
19.4811514281
 10
-5.6719197817
 20
19.4847026773
  0
LWPOLYLINE
  5
38D
100
AcDbEntity
  8
0
100
AcDbPolyline
 62
250
  6
CONTINUOUS
 90
34
 70
0
 10
-11.8299117435
 20
21.0492097654
 10
-11.8213321231
 20
21.0451187316
 10
-11.8123742446
 20
21.0412356744
 10
-11.8030582535
 20
21.0375693265
 10
-11.7934051118
 20
21.0341279371
 10
-11.7834365178
 20
21.0309192409
 10
-11.7731748533
 20
21.0279504441
 10
-11.762643168
 20
21.0252282197
 10
-11.7518651679
 20
21.0227586997
 10
-11.7408651287
 20
21.0205474478
 10
-11.729667802
 20
21.0185994391
 10
-11.7182983573
 20
21.016919052
 10
-11.7067823643
 20
21.0155100655
 10
-11.6951457222
 20
21.0143756483
 10
-11.6834146008
 20
21.0135183517
 10
-11.6716153823
 20
21.0129401036
 10
-11.6597745938
 20
21.0126422044
 10
-11.6479188734
 20
21.0126253245
 10
-11.6360749095
 20
21.012889501
 10
-11.6242693553
 20
21.013434137
 10
-11.6125287433
 20
21.0142580061
 10
-11.6008794511
 20
21.0153592562
 10
-11.5893475918
 20
21.016735422
 10
-11.5779591869
 20
21.0183834014
 10
-11.5667400721
 20
21.0202994472
 10
-11.5557156131
 20
21.0224792032
 10
-11.5449104365
 20
21.024917776
 10
-11.5343486147
 20
21.0276097237
 10
-11.5240530739
 20
21.0305492412
 10
-11.5140478351
 20
21.0337295096
 10
-11.5043575261
 20
21.0371425894
 10
-11.4950043969
 20
21.0407803757
 10
-11.4860084971
 20
21.0446347925
 10
-11.4773897839
 20
21.0486970416
  0
LWPOLYLINE
  5
38E
100
AcDbEntity
  8
0
100
AcDbPolyline
 62
250
  6
CONTINUOUS
 90
34
 70
0
 10
0.4737462491
 20
15.2373547032
 10
0.4823111808
 20
15.2332703487
 10
0.4912569642
 20
15.2293916789
 10
0.5005639931
 20
15.2257276609
 10
0.5102131781
 20
15.2222863335
 10
0.5201819653
 20
15.2190762459
 10
0.5304439568
 20
15.2161061083
 10
0.5409745183
 20
15.2133829798
 10
0.5517514389
 20
15.2109125348
 10
0.5627506764
 20
15.2087002927
 10
0.5739476465
 20
15.2067512195
 10
0.5853170393
 20
15.205069742
 10
0.596833057
 20
15.2036596818
 10
0.6084696933
 20
15.202524217
 10
0.6202008772
 20
15.2016658851
 10
0.6320002997
 20
15.2010866114
 10
0.6438414555
 20
15.2007877011
 10
0.6556976807
 20
15.2007698316
 10
0.6675422889
 20
15.2010330453
 10
0.6793486344
 20
15.2015767515
 10
0.691090168
 20
15.2023997288
 10
0.7027404769
 20
15.2035001275
 10
0.7142733587
 20
15.2048754739
 10
0.7256628717
 20
15.2065226758
 10
0.7368833894
 20
15.208438028
 10
0.7479096729
 20
15.2106172228
 10
0.758716923
 20
15.2130553597
 10
0.7692808285
 20
15.2157469544
 10
0.7795776338
 20
15.218685955
 10
0.7895841737
 20
15.22186575
 10
0.7992779234
 20
15.2252791815
 10
0.8086370755
 20
15.2289185685
 10
0.817640587
 20
15.2327757266
 10
0.8262682088
 20
15.2368419794
  0
LWPOLYLINE
  5
38F
100
AcDbEntity
  8
0
100
AcDbPolyline
 62
250
  6
CONTINUOUS
 90
34
 70
0
 10
-11.8299117435
 20
21.3891836995
 10
-11.8213315406
 20
21.3850924009
 10
-11.8123730173
 20
21.3812091015
 10
-11.8030563215
 20
21.3775425368
 10
-11.7934024007
 20
21.3741009524
 10
-11.783432973
 20
21.3708920926
 10
-11.7731704803
 20
21.3679231814
 10
-11.7626380113
 20
21.3652008976
 10
-11.7518592509
 20
21.3627313621
 10
-11.7408584465
 20
21.3605201299
 10
-11.7296603399
 20
21.3585721735
 10
-11.7182901201
 20
21.3568918742
 10
-11.7067733706
 20
21.3554830117
 10
-11.6951359972
 20
21.3543487537
 10
-11.6834041734
 20
21.3534916498
 10
-11.6716042903
 20
21.3529136268
 10
-11.6597628821
 20
21.3526159831
 10
-11.6479065885
 20
21.352599387
 10
-11.636062098
 20
21.3528638735
 10
-11.6242560832
 20
21.3534088427
 10
-11.6125150638
 20
21.3542330663
 10
-11.6008653697
 20
21.3553346954
 10
-11.5893330959
 20
21.3567112689
 10
-11.5779442912
 20
21.3583596841
 10
-11.5667248124
 20
21.3602761914
 10
-11.55570003
 20
21.3624564344
 10
-11.5448945744
 20
21.3648955192
 10
-11.5343325365
 20
21.3675879992
 10
-11.5240361427
 20
21.3705282798
 10
-11.5140301619
 20
21.3737093607
 10
-11.5043412212
 20
21.3771225611
 10
-11.4949920009
 20
21.3807593716
 10
-11.4860016242
 20
21.3846118157
 10
-11.4773897839
 20
21.3886709757
  0
LINE
  5
390
100
AcDbEntity
  8
0
100
AcDbLine
 62
250
  6
CONTINUOUS
 10
0.4737462491
 20
15.2373547032
 11
-1.2047918213
 21
16.0766237384
  0
LINE
  5
391
100
AcDbEntity
  8
0
100
AcDbLine
 62
250
  6
CONTINUOUS
 10
-11.8299117435
 20
21.3891836995
 11
-13.5084498139
 21
22.2284527348
  0
LINE
  5
392
100
AcDbEntity
  8
0
100
AcDbLine
 62
7
  6
CONTINUOUS
 10
-5.4566916106
 20
18.379533627
 11
-4.3113320931
 21
17.8068538682
  0
LINE
  5
393
100
AcDbEntity
  8
0
100
AcDbLine
 62
7
  6
CONTINUOUS
 10
2.7811068776
 20
14.2606343829
 11
2.4275489996
 21
14.4374133219
  0
LINE
  5
394
100
AcDbEntity
  8
0
100
AcDbLine
 62
7
  6
CONTINUOUS
 10
-1.2511440544
 20
16.2767598489
 11
-1.6029596532
 21
16.4526676483
  0
LINE
  5
395
100
AcDbEntity
  8
0
100
AcDbLine
 62
7
  6
CONTINUOUS
 10
-8.9506994371
 20
20.1265375403
 11
-9.8761089931
 21
20.5892423182
  0
LINE
  5
396
100
AcDbEntity
  8
0
100
AcDbLine
 62
250
  6
CONTINUOUS
 10
0.6494945051
 20
15.5417315182
 11
-1.0290435653
 21
16.3810005534
  0
LINE
  5
397
100
AcDbEntity
  8
0
100
AcDbLine
 62
250
  6
CONTINUOUS
 10
-11.6541634876
 20
21.6935605145
 11
-13.332701558
 21
22.5328295497
  0
LINE
  5
398
100
AcDbEntity
  8
0
100
AcDbLine
 62
7
  6
CONTINUOUS
 10
-8.9506994371
 20
20.4439604319
 11
-8.2912895628
 21
20.1142554947
  0
LINE
  5
399
100
AcDbEntity
  8
0
100
AcDbLine
 62
7
  6
CONTINUOUS
 10
-3.3292004397
 20
17.6332109332
 11
-2.6697905653
 21
17.303505996
  0
LINE
  5
39A
100
AcDbEntity
  8
0
100
AcDbLine
 62
7
  6
CONTINUOUS
 10
-4.3113320931
 20
18.5051661398
 11
-4.7600057051
 21
18.7295029459
  0
LINE
  5
39B
100
AcDbEntity
  8
0
100
AcDbLine
 62
7
  6
CONTINUOUS
 10
3.4820428313
 20
14.6122347988
 11
2.4275489996
 21
15.1394817147
  0
LINE
  5
39C
100
AcDbEntity
  8
0
100
AcDbLine
 62
7
  6
CONTINUOUS
 10
-9.1731160388
 20
20.9398142339
 11
-9.8761089931
 21
21.291310711
  0
LINE
  5
39D
100
AcDbEntity
  8
0
100
AcDbLine
 62
7
  6
CONTINUOUS
 10
-4.7607859898
 20
18.8395765963
 11
-4.3113320931
 21
18.614849648
  0
LINE
  5
39E
100
AcDbEntity
  8
0
100
AcDbLine
 62
250
  6
CONTINUOUS
 10
-2.7977543746
 20
17.907432736
 11
-4.2527534493
 21
18.6349322733
  0
LINE
  5
39F
100
AcDbEntity
  8
0
100
AcDbLine
 62
250
  6
CONTINUOUS
 10
-5.9535229908
 20
19.485317044
 11
-7.5780119542
 21
20.2975615258
  0
LINE
  5
3A0
100
AcDbEntity
  8
0
100
AcDbLine
 62
250
  6
CONTINUOUS
 10
-2.4888928665
 20
18.0668027363
 11
-4.1121548445
 21
18.8784337253
  0
LINE
  5
3A1
100
AcDbEntity
  8
0
100
AcDbLine
 62
250
  6
CONTINUOUS
 10
-5.812924386
 20
19.728818496
 11
-7.436186364
 21
20.540449485
  0
LINE
  5
3A2
100
AcDbEntity
  8
0
100
AcDbLine
 62
7
  6
CONTINUOUS
 10
-7.8962100057
 20
20.9849334706
 11
-5.5981111719
 21
19.8358840537
  0
LINE
  5
3A3
100
AcDbEntity
  8
0
100
AcDbLine
 62
7
  6
CONTINUOUS
 10
-3.901058487
 20
18.9873577112
 11
-1.6029596532
 21
17.8383082943
  0
LINE
  5
3A4
100
AcDbEntity
  8
0
100
AcDbLine
 62
7
  6
CONTINUOUS
 10
2.2507752959
 20
16.3444535217
 11
0.5537130378
 21
17.1929846507
  0
LINE
  5
3A5
100
AcDbEntity
  8
0
100
AcDbLine
 62
7
  6
CONTINUOUS
 10
-10.0528826967
 20
22.496282518
 11
-11.7499449548
 21
23.3448136471
  0
LINE
  5
3A6
100
AcDbEntity
  8
0
100
AcDbLine
 62
7
  6
CONTINUOUS
 10
-6.556157631
 20
21.0029188338
 11
-4.9112093866
 21
20.1804447116
  0
LINE
  5
3A7
100
AcDbEntity
  8
0
100
AcDbLine
 62
7
  6
CONTINUOUS
 10
-3.2020621519
 20
19.3258710943
 11
-1.5571139075
 21
18.5033969721
  0
LWPOLYLINE
  5
3A8
100
AcDbEntity
  8
0
100
AcDbPolyline
 62
250
  6
CONTINUOUS
 90
34
 70
0
 10
-9.524615525
 20
22.759721338
 10
-9.5161706075
 20
22.7553018145
 10
-9.5077434656
 20
22.7504000853
 10
-9.4993531819
 20
22.7450266151
 10
-9.4910176093
 20
22.7391920927
 10
-9.482756915
 20
22.7329098839
 10
-9.4745934121
 20
22.7261966328
 10
-9.4665467922
 20
22.7190686474
 10
-9.458634059
 20
22.7115411063
 10
-9.4508729956
 20
22.7036309123
 10
-9.4432810943
 20
22.6953558533
 10
-9.4358756709
 20
22.6867347617
 10
-9.4286736677
 20
22.6777873477
 10
-9.4216914649
 20
22.6685339744
 10
-9.4149448128
 20
22.6589955287
 10
-9.4084489542
 20
22.6491935601
 10
-9.402218593
 20
22.6391502467
 10
-9.3962678673
 20
22.6288883688
 10
-9.3906102737
 20
22.618431195
 10
-9.3852586354
 20
22.6078024237
 10
-9.3802250771
 20
22.597026132
 10
-9.3755210072
 20
22.5861267397
 10
-9.3711570854
 20
22.5751289409
 10
-9.3671432017
 20
22.5640576564
 10
-9.3634884555
 20
22.5529379802
 10
-9.3602011292
 20
22.5417951096
 10
-9.3572886715
 20
22.5306542911
 10
-9.3547576834
 20
22.5195407717
 10
-9.3526138992
 20
22.5084797282
 10
-9.3508621784
 20
22.4974962288
 10
-9.3495064926
 20
22.4866151794
 10
-9.3485499125
 20
22.4758612408
 10
-9.3479946032
 20
22.4652587731
 10
-9.3478418213
 20
22.4548317992
  0
LWPOLYLINE
  5
3A9
100
AcDbEntity
  8
0
100
AcDbPolyline
 62
250
  6
CONTINUOUS
 90
18
 70
0
 10
-1.2047918213
 20
16.0766237384
 10
-1.2129744187
 20
16.0809138399
 10
-1.2207410174
 20
16.0853931015
 10
-1.2280741468
 20
16.0900514494
 10
-1.2349573156
 20
16.0948784098
 10
-1.2413750351
 20
16.0998631237
 10
-1.2473128575
 20
16.1049943701
 10
-1.2527574253
 20
16.1102606045
 10
-1.2576964962
 20
16.1156499847
 10
-1.2621189607
 20
16.121150387
 10
-1.2660148734
 20
16.1267494403
 10
-1.269375472
 20
16.1324345501
 10
-1.272193197
 20
16.1381929249
 10
-1.2744617131
 20
16.1440116116
 10
-1.2761759208
 20
16.1498775235
 10
-1.2773319668
 20
16.1557774651
 10
-1.2779272542
 20
16.1616981691
 10
-1.278015126
 20
16.1650120861
  0
LWPOLYLINE
  5
3AA
100
AcDbEntity
  8
0
100
AcDbPolyline
 62
250
  6
CONTINUOUS
 90
16
 70
0
 10
-4.2527534493
 20
18.6349322733
 10
-4.2599221234
 20
18.6387082764
 10
-4.2666880343
 20
18.6426657105
 10
-4.2730328425
 20
18.6467938485
 10
-4.2789393499
 20
18.6510815011
 10
-4.2843915466
 20
18.6555170461
 10
-4.289374654
 20
18.6600884607
 10
-4.2938751651
 20
18.6647833538
 10
-4.2978808809
 20
18.6695889997
 10
-4.3013809437
 20
18.6744923722
 10
-4.3043658664
 20
18.6794801804
 10
-4.306827558
 20
18.6845389046
 10
-4.3087593461
 20
18.6896548327
 10
-4.3101559943
 20
18.6948140976
 10
-4.311013717
 20
18.7000027149
 10
-4.3113320931
 20
18.7056429514
  0
LWPOLYLINE
  5
3AB
100
AcDbEntity
  8
0
100
AcDbPolyline
 62
7
  6
CONTINUOUS
 90
37
 70
0
 10
-5.5981111719
 20
19.8358840537
 10
-5.5919424599
 20
19.8326350212
 10
-5.5857856751
 20
19.8290624029
 10
-5.5796524374
 20
19.825173045
 10
-5.5735542376
 20
19.8209744381
 10
-5.5675026796
 20
19.816474573
 10
-5.5615094584
 20
19.8116819255
 10
-5.5555859098
 20
19.8066056506
 10
-5.5497432176
 20
19.8012554542
 10
-5.5439926562
 20
19.7956414443
 10
-5.5383451141
 20
19.7897743331
 10
-5.5328112615
 20
19.7836653267
 10
-5.5274017593
 20
19.7773259923
 10
-5.5221268617
 20
19.7707684163
 10
-5.5169965431
 20
19.764005113
 10
-5.5120206678
 20
19.7570489115
 10
-5.5072086803
 20
19.7499130652
 10
-5.5025696882
 20
19.7426111825
 10
-5.4981125896
 20
19.7351571345
 10
-5.4938458578
 20
19.7275651149
 10
-5.4897775775
 20
19.7198495931
 10
-5.485915528
 20
19.7120252444
 10
-5.482267066
 20
19.7041069595
 10
-5.4788391148
 20
19.6961098215
 10
-5.4756382016
 20
19.6880490575
 10
-5.4726704407
 20
19.6799400008
 10
-5.4699414751
 20
19.6717980892
 10
-5.4674564683
 20
19.6636388412
 10
-5.4652201873
 20
19.6554777693
 10
-5.4632368985
 20
19.6473304021
 10
-5.4615103134
 20
19.6392122829
 10
-5.4600437699
 20
19.6311388383
 10
-5.4588400853
 20
19.6231254216
 10
-5.4579014554
 20
19.6151873345
 10
-5.4572296707
 20
19.6073396846
 10
-5.4568261128
 20
19.5995973561
 10
-5.4566916106
 20
19.5919750546
  0
LWPOLYLINE
  5
3AC
100
AcDbEntity
  8
0
100
AcDbPolyline
 62
7
  6
CONTINUOUS
 90
34
 70
0
 10
-10.0528826967
 20
22.496282518
 10
-10.0444716213
 20
22.4918316036
 10
-10.0360794037
 20
22.4869004332
 10
-10.027725156
 20
22.4815001236
 10
-10.019427982
 20
22.4756428149
 10
-10.0112066836
 20
22.4693417701
 10
-10.0030797178
 20
22.462611345
 10
-9.9950655524
 20
22.4554667542
 10
-9.9871824331
 20
22.4479241349
 10
-9.9794480909
 20
22.4400006379
 10
-9.9718800834
 20
22.4317141918
 10
-9.9644956264
 20
22.4230835304
 10
-9.9573113639
 20
22.4141282508
 10
-9.9503435852
 20
22.4048686303
 10
-9.943608126
 20
22.3953256183
 10
-9.9371202033
 20
22.3855208585
 10
-9.9308945066
 20
22.3754765645
 10
-9.9249451687
 20
22.3652154744
 10
-9.9192856693
 20
22.3547608375
 10
-9.9139287989
 20
22.3441363511
 10
-9.9088866992
 20
22.3333660788
 10
-9.9041708381
 20
22.3224744015
 10
-9.8997918463
 20
22.3114860175
 10
-9.8957596274
 20
22.3004258257
 10
-9.8920834034
 20
22.2893188413
 10
-9.8887714291
 20
22.2781902605
 10
-9.8858311683
 20
22.2670653103
 10
-9.8832694097
 20
22.2559691305
 10
-9.8810918638
 20
22.2449269018
 10
-9.8793034029
 20
22.2339636657
 10
-9.8779082445
 20
22.223104174
 10
-9.8769095409
 20
22.2123730287
 10
-9.8763093719
 20
22.2017946264
 10
-9.8761089931
 20
22.1913929792
  0
LWPOLYLINE
  5
3AD
100
AcDbEntity
  8
0
100
AcDbPolyline
 62
7
  6
CONTINUOUS
 90
34
 70
0
 10
2.2507752959
 20
16.3444535217
 10
2.2591863713
 20
16.3400026073
 10
2.267578589
 20
16.3350714369
 10
2.2759328367
 20
16.3296711273
 10
2.2842300107
 20
16.3238138186
 10
2.292451309
 20
16.3175127738
 10
2.3005782748
 20
16.3107823487
 10
2.3085924402
 20
16.3036377579
 10
2.3164755595
 20
16.2960951385
 10
2.3242099017
 20
16.2881716416
 10
2.3317779093
 20
16.2798851954
 10
2.3391623662
 20
16.2712545341
 10
2.3463466288
 20
16.2622992544
 10
2.3533144075
 20
16.2530396339
 10
2.3600498667
 20
16.243496622
 10
2.3665377894
 20
16.2336918622
 10
2.372763486
 20
16.2236475682
 10
2.3787128239
 20
16.2133864781
 10
2.3843723233
 20
16.2029318412
 10
2.3897291937
 20
16.1923073548
 10
2.3947712934
 20
16.1815370825
 10
2.3994871545
 20
16.1706454052
 10
2.4038661463
 20
16.1596570212
 10
2.4078983653
 20
16.1485968294
 10
2.4115745892
 20
16.1374898449
 10
2.4148865635
 20
16.1263612642
 10
2.4178268244
 20
16.115236314
 10
2.420388583
 20
16.1041401342
 10
2.4225661289
 20
16.0930979055
 10
2.4243545898
 20
16.0821346694
 10
2.4257497481
 20
16.0712751776
 10
2.4267484517
 20
16.0605440324
 10
2.4273486207
 20
16.0499656301
 10
2.4275489996
 20
16.0395639829
  0
LWPOLYLINE
  5
3AE
100
AcDbEntity
  8
0
100
AcDbPolyline
 62
250
  6
CONTINUOUS
 90
34
 70
0
 10
0.6494945051
 20
15.5417315182
 10
0.6578440406
 20
15.5372643037
 10
0.6661806221
 20
15.5323172942
 10
0.6744853777
 20
15.5269010601
 10
0.682740644
 20
15.5210263845
 10
0.6909264547
 20
15.5147067339
 10
0.6990207023
 20
15.5079588551
 10
0.707003861
 20
15.5007991391
 10
0.7148590602
 20
15.493242831
 10
0.7225686463
 20
15.4853068984
 10
0.7301152432
 20
15.4770091872
 10
0.737481639
 20
15.4683685818
 10
0.7446509809
 20
15.459404837
 10
0.7516069625
 20
15.4501383532
 10
0.7583338928
 20
15.4405900466
 10
0.7648165736
 20
15.4307814891
 10
0.7710403308
 20
15.4207348737
 10
0.7769910414
 20
15.4104729882
 10
0.7826552089
 20
15.4000191014
 10
0.7880199953
 20
15.3893969042
 10
0.793073246
 20
15.3786304586
 10
0.7978035081
 20
15.3677441624
 10
0.8022000626
 20
15.35676268
 10
0.8062529455
 20
15.3457108951
 10
0.8099529691
 20
15.3346138576
 10
0.8132917485
 20
15.3234967135
 10
0.8162617182
 20
15.312384651
 10
0.8188561471
 20
15.3013028521
 10
0.821069157
 20
15.2902764215
 10
0.8228957317
 20
15.2793303489
 10
0.8243317298
 20
15.2684894557
 10
0.8253738985
 20
15.2577783114
 10
0.8260198789
 20
15.2472211792
 10
0.8262682088
 20
15.2368419794
  0
LWPOLYLINE
  5
3AF
100
AcDbEntity
  8
0
100
AcDbPolyline
 62
7
  6
CONTINUOUS
 90
40
 70
0
 10
2.7813715148
 20
14.2605020643
 10
2.795337767
 20
14.2529883862
 10
2.8093155859
 20
14.2447901905
 10
2.8232826018
 20
14.235918003
 10
2.8372221125
 20
14.2263802541
 10
2.8511055937
 20
14.2161925758
 10
2.8648929995
 20
14.2053800793
 10
2.8785538202
 20
14.1939664715
 10
2.892074029
 20
14.1819638293
 10
2.9054384875
 20
14.1693822891
 10
2.9186343512
 20
14.1562309858
 10
2.9316299376
 20
14.1425388785
 10
2.944382785
 20
14.1283485967
 10
2.9568605925
 20
14.1136981912
 10
2.9690556447
 20
14.0985990768
 10
2.9809629712
 20
14.0830555934
 10
2.9925726756
 20
14.0670775519
 10
3.0038542153
 20
14.0507038239
 10
3.0147725805
 20
14.0339832593
 10
3.025300271
 20
14.0169605594
 10
3.0354314761
 20
13.999647486
 10
3.0451642845
 20
13.9820442683
 10
3.0544909427
 20
13.9641603853
 10
3.063384523
 20
13.9460418246
 10
3.0718153536
 20
13.9277439154
 10
3.0797632131
 20
13.9093138441
 10
3.0872231953
 20
13.8907643178
 10
3.0941898595
 20
13.8720995824
 10
3.1006567047
 20
13.8533329775
 10
3.1066043423
 20
13.8345108184
 10
3.1120093939
 20
13.8156867772
 10
3.1168625251
 20
13.7969024975
 10
3.1211577208
 20
13.778176269
 10
3.1248795085
 20
13.7595265795
 10
3.1280258153
 20
13.7409865312
 10
3.1305872013
 20
13.7225816458
 10
3.1325371474
 20
13.704318944
 10
3.1338637932
 20
13.6862200089
 10
3.1345708786
 20
13.6683206613
 10
3.1346557808
 20
13.6506490377
  0
LWPOLYLINE
  5
3B0
100
AcDbEntity
  8
0
100
AcDbPolyline
 62
250
  6
CONTINUOUS
 90
34
 70
0
 10
-5.812924386
 20
19.728818496
 10
-5.8062525994
 20
19.7252281679
 10
-5.799594057
 20
19.7212544567
 10
-5.7929638458
 20
19.7169063648
 10
-5.786376985
 20
19.7121937397
 10
-5.7798484036
 20
19.7071272607
 10
-5.773392906
 20
19.701718416
 10
-5.7670251225
 20
19.6959794649
 10
-5.7607594779
 20
19.6899234085
 10
-5.7546101708
 20
19.6835639711
 10
-5.7485911328
 20
19.6769155614
 10
-5.7427160032
 20
19.6699932455
 10
-5.7369980982
 20
19.6628127147
 10
-5.7314503743
 20
19.655390242
 10
-5.7260853993
 20
19.6477426446
 10
-5.7209153286
 20
19.6398872522
 10
-5.7159518723
 20
19.6318418587
 10
-5.7112062791
 20
19.6236246997
 10
-5.7066893102
 20
19.615254413
 10
-5.7024112092
 20
19.6067499899
 10
-5.698381653
 20
19.598130677
 10
-5.6946097452
 20
19.5894159482
 10
-5.6911040043
 20
19.5806254705
 10
-5.6878724101
 20
19.571779237
 10
-5.684922343
 20
19.5628974701
 10
-5.6822605041
 20
19.554000407
 10
-5.6798928694
 20
19.545108093
 10
-5.677824753
 20
19.5362405149
 10
-5.676060591
 20
19.5274163997
 10
-5.6746047253
 20
19.5186571211
 10
-5.6734608969
 20
19.5099863845
 10
-5.6726313769
 20
19.5014249637
 10
-5.6721174259
 20
19.4929907685
 10
-5.6719197817
 20
19.4847026773
  0
LINE
  5
3B1
100
AcDbEntity
  8
0
100
AcDbLine
 62
250
  6
CONTINUOUS
 10
1.1844526288
 20
-25.425469779
 11
0.5621345968
 21
-26.1705291965
  0
LINE
  5
3B2
100
AcDbEntity
  8
0
100
AcDbLine
 62
250
  6
CONTINUOUS
 10
1.5374888169
 20
-25.551239617
 11
0.8262682088
 21
-26.4027360941
  0
LINE
  5
3B3
100
AcDbEntity
  8
RACCORDO
100
AcDbLine
 62
250
  6
CONTINUOUS
 10
0.306228656
 20
-19.6840799171
 11
-0.180864866
 21
-19.9090358473
  0
LINE
  5
3B4
100
AcDbEntity
  8
0
100
AcDbLine
 62
7
  6
CONTINUOUS
 10
-11.7042332774
 20
20.8928758808
 11
-11.0800376804
 21
20.762543261
  0
LWPOLYLINE
  5
3B5
100
AcDbEntity
  8
0
100
AcDbPolyline
 62
250
  6
CONTINUOUS
 90
16
 70
0
 10
1.1989378761
 20
17.4599220084
 10
1.1968581992
 20
17.4609300017
 10
1.1901634659
 20
17.4637630482
 10
1.1832369897
 20
17.466084547
 10
1.1760942793
 20
17.467889287
 10
1.1687514618
 20
17.4691731803
 10
1.1612252151
 20
17.469933324
 10
1.1535325809
 20
17.4701680383
 10
1.1456907683
 20
17.4698768386
 10
1.1377172693
 20
17.4690603888
 10
1.1296287919
 20
17.4677202844
 10
1.1214447206
 20
17.465859623
 10
1.1131870498
 20
17.4634837282
 10
1.1048756291
 20
17.4605990575
 10
1.0965279967
 20
17.4572124392
 10
1.0881629165
 20
17.4533321173
  0
LWPOLYLINE
  5
3B6
100
AcDbEntity
  8
0
100
AcDbPolyline
 62
250
  6
CONTINUOUS
 90
16
 70
0
 10
2.8898174272
 20
16.6144822328
 10
2.8877549668
 20
16.6154821398
 10
2.8810616587
 20
16.618316216
 10
2.8741366402
 20
16.6206388743
 10
2.8669954828
 20
16.6224448921
 10
2.8596542438
 20
16.6237302085
 10
2.8521294306
 20
16.6244919333
 10
2.8444379633
 20
16.6247283538
 10
2.8365971368
 20
16.6244389382
 10
2.8286245817
 20
16.6236243374
 10
2.8205382249
 20
16.6222863831
 10
2.8123562493
 20
16.6204280838
 10
2.8040970526
 20
16.618053618
 10
2.7957792063
 20
16.6151683248
 10
2.7874214136
 20
16.6117786921
 10
2.7790424677
 20
16.6078923417
  0
LWPOLYLINE
  5
3B7
100
AcDbEntity
  8
0
100
AcDbPolyline
 62
250
  6
CONTINUOUS
 90
16
 70
0
 10
-9.4138405654
 20
22.7663112292
 10
-9.4159030259
 20
22.7673111361
 10
-9.4225963339
 20
22.7701452123
 10
-9.4295213524
 20
22.7724678706
 10
-9.4366625099
 20
22.7742738884
 10
-9.4440037489
 20
22.7755592048
 10
-9.4515285621
 20
22.7763209297
 10
-9.4592200293
 20
22.7765573501
 10
-9.4670608559
 20
22.7762679345
 10
-9.475033411
 20
22.7754533338
 10
-9.4831197677
 20
22.7741153795
 10
-9.4913017433
 20
22.7722570801
 10
-9.49956094
 20
22.7698826143
 10
-9.5078787864
 20
22.7669973212
 10
-9.5162365791
 20
22.7636076884
 10
-9.524615525
 20
22.759721338
  0
LWPOLYLINE
  5
3B8
100
AcDbEntity
  8
0
100
AcDbPolyline
 62
250
  6
CONTINUOUS
 90
3
 70
0
 10
-11.1047201166
 20
23.6117510047
 10
-11.106782577
 20
23.6127509117
 10
-11.1134758851
 20
23.6155849878
  0
LINE
  5
3B9
100
AcDbEntity
  8
0
100
AcDbLine
 62
250
  6
CONTINUOUS
 10
-11.2154950761
 20
23.6051611136
 11
-9.524615525
 21
22.759721338
  0
LINE
  5
3BA
100
AcDbEntity
  8
0
100
AcDbLine
 62
250
  6
CONTINUOUS
 10
1.0881629165
 20
17.4533321173
 11
2.7790424677
 21
16.6078923417
  0
LINE
  5
3BB
100
AcDbEntity
  8
0
100
AcDbLine
 62
7
  6
CONTINUOUS
 10
-11.1047201166
 20
23.6117510047
 11
-9.4138405654
 21
22.7663112292
  0
LINE
  5
3BC
100
AcDbEntity
  8
0
100
AcDbLine
 62
7
  6
CONTINUOUS
 10
1.1989378761
 20
17.4599220084
 11
2.8898174272
 21
16.6144822328
  0
LINE
  5
3BD
100
AcDbEntity
  8
RACCORDO
100
AcDbLine
 62
7
  6
CONTINUOUS
 10
0.3088442935
 20
19.423174521
 11
-2.1332897391
 21
20.6442415373
  0
LINE
  5
3BE
100
AcDbEntity
  8
RACCORDO
100
AcDbLine
 62
250
  6
CONTINUOUS
 10
0.9497749456
 20
19.739105298
 11
-0.9982845888
 21
20.7131350652
  0
LWPOLYLINE
  5
3BF
100
AcDbEntity
  8
0
100
AcDbPolyline
 62
250
  6
CONTINUOUS
 90
34
 70
0
 10
2.7790424677
 20
16.6078923417
 10
2.7874873851
 20
16.6034728182
 10
2.7959145271
 20
16.598571089
 10
2.8043048107
 20
16.5931976188
 10
2.8126403833
 20
16.5873630964
 10
2.8209010776
 20
16.5810808876
 10
2.8290645805
 20
16.5743676365
 10
2.8371112004
 20
16.5672396511
 10
2.8450239336
 20
16.55971211
 10
2.852784997
 20
16.551801916
 10
2.8603768984
 20
16.543526857
 10
2.8677823217
 20
16.5349057654
 10
2.874984325
 20
16.5259583513
 10
2.8819665277
 20
16.5167049781
 10
2.8887131798
 20
16.5071665324
 10
2.8952090384
 20
16.4973645638
 10
2.9014393997
 20
16.4873212503
 10
2.9073901253
 20
16.4770593724
 10
2.913047719
 20
16.4666021986
 10
2.9183993573
 20
16.4559734274
 10
2.9234329155
 20
16.4451971357
 10
2.9281369854
 20
16.4342977433
 10
2.9325009073
 20
16.4232999446
 10
2.9365147909
 20
16.4122286601
 10
2.9401695371
 20
16.4011089839
 10
2.9434568635
 20
16.3899661133
 10
2.9463693211
 20
16.3788252947
 10
2.9489003093
 20
16.3677117754
 10
2.9510440934
 20
16.3566507319
 10
2.9527958142
 20
16.3456672324
 10
2.9541515
 20
16.334786183
 10
2.9551080801
 20
16.3240322444
 10
2.9556633894
 20
16.3134297767
 10
2.9558161713
 20
16.3030028029
  0
LINE
  5
3C0
100
AcDbEntity
  8
DRAFT
100
AcDbLine
 62
7
  6
CONTINUOUS
 10
10.6598056017
 20
16.3912035037
 11
9.9071115177
 21
17.6894087647
  0
LWPOLYLINE
  5
3C1
100
AcDbEntity
  8
RACCORDO
100
AcDbPolyline
 62
250
  6
CONTINUOUS
 90
72
 70
0
 10
19.151012475
 20
18.1439947722
 10
19.1508127083
 20
18.16303635
 10
19.1504432825
 20
18.1821567647
 10
19.1499042303
 20
18.2013537335
 10
19.1491956156
 20
18.2206249749
 10
19.148317534
 20
18.239968209
 10
19.1472700844
 20
18.2593811357
 10
19.1460533861
 20
18.2788614393
 10
19.1446675949
 20
18.2984068048
 10
19.1431128713
 20
18.3180149031
 10
19.1413893951
 20
18.3376834006
 10
19.1394973805
 20
18.3574099642
 10
19.1374370488
 20
18.3771922453
 10
19.1352086402
 20
18.3970278882
 10
19.1328124282
 20
18.4169145391
 10
19.1302486945
 20
18.4368498314
 10
19.1275177397
 20
18.4568313909
 10
19.1246198963
 20
18.4768568439
 10
19.1215555061
 20
18.4969238066
 10
19.1183249299
 20
18.5170298904
 10
19.1149285582
 20
18.5371727073
 10
19.1113667928
 20
18.5573498598
 10
19.1076400542
 20
18.5775589464
 10
19.1037487906
 20
18.597797567
 10
19.0996934631
 20
18.6180633134
 10
19.0954745515
 20
18.6383537734
 10
19.0910925615
 20
18.6586665363
 10
19.0865480131
 20
18.6789991853
 10
19.0818414449
 20
18.6993493006
 10
19.0769734193
 20
18.7197144636
 10
19.0719445149
 20
18.7400922514
 10
19.0667553283
 20
18.7604802393
 10
19.0614064782
 20
18.7808760038
 10
19.0558986009
 20
18.8012771186
 10
19.0502323505
 20
18.8216811567
 10
19.0444084013
 20
18.8420856919
 10
19.0384274465
 20
18.8624882975
 10
19.0322901973
 20
18.8828865463
 10
19.0259973826
 20
18.9032780125
 10
19.0195497521
 20
18.9236602709
 10
19.0129480728
 20
18.9440308973
 10
19.0061931281
 20
18.9643874683
 10
18.9992857229
 20
18.9847275634
 10
18.9922266796
 20
19.0050487634
 10
18.9850168347
 20
19.0253486503
 10
18.9776570481
 20
19.0456248103
 10
18.9701481962
 20
19.0658748322
 10
18.9624911681
 20
19.0860963061
 10
18.9546868772
 20
19.1062868279
 10
18.9467362534
 20
19.1264439969
 10
18.9386402371
 20
19.146565414
 10
18.9303997941
 20
19.1666486877
 10
18.9220159072
 20
19.1866914298
 10
18.913489567
 20
19.2066912539
 10
18.9048217914
 20
19.226645783
 10
18.8960136142
 20
19.2465526446
 10
18.8870660763
 20
19.2664094667
 10
18.8779802462
 20
19.2862138889
 10
18.868757208
 20
19.3059635578
 10
18.8593980495
 20
19.3256561213
 10
18.8499038889
 20
19.3452892392
 10
18.8402758591
 20
19.3648605783
 10
18.8305150954
 20
19.3843678075
 10
18.8206227632
 20
19.4038086107
 10
18.8106000442
 20
19.4231806759
 10
18.8004481217
 20
19.44248169
 10
18.7901682108
 20
19.4617093565
 10
18.7797615376
 20
19.4808613943
 10
18.7692293249
 20
19.4999355264
 10
18.7585728243
 20
19.5189294861
 10
18.7477933163
 20
19.5378410176
 10
18.3939945131
 20
20.1480787099
  0
LWPOLYLINE
  5
3C2
100
AcDbEntity
  8
RACCORDO
100
AcDbPolyline
 62
7
  6
CONTINUOUS
 90
61
 70
0
 10
19.4317027642
 20
18.4723634374
 10
19.4316120208
 20
18.4917240652
 10
19.4313096878
 20
18.5127105393
 10
19.4307957894
 20
18.5337271011
 10
19.4300708321
 20
18.5547751703
 10
19.4291354482
 20
18.575851413
 10
19.4279906137
 20
18.5969474257
 10
19.4266370582
 20
18.6180623425
 10
19.4250754656
 20
18.639195255
 10
19.4233071542
 20
18.6603375582
 10
19.4213329541
 20
18.6814884849
 10
19.4191536473
 20
18.7026471069
 10
19.4167709312
 20
18.7238044897
 10
19.4141857417
 20
18.7449597943
 10
19.4113989578
 20
18.7661121928
 10
19.4084126322
 20
18.7872526648
 10
19.4052277919
 20
18.8083803822
 10
19.4018454254
 20
18.8294945481
 10
19.3982679185
 20
18.850586104
 10
19.3944964869
 20
18.8716537292
 10
19.3905321383
 20
18.8926971564
 10
19.3863772725
 20
18.9137088264
 10
19.3820332803
 20
18.9346869733
 10
19.3775011096
 20
18.9556318061
 10
19.3727827419
 20
18.9765386299
 10
19.3678793714
 20
18.9974065407
 10
19.3627920694
 20
19.0182348918
 10
19.3575228418
 20
19.039019267
 10
19.3520728382
 20
19.0597587969
 10
19.3464431024
 20
19.0804528004
 10
19.3406356657
 20
19.1010970502
 10
19.3346517394
 20
19.1216903142
 10
19.3284922451
 20
19.1422322699
 10
19.3221588678
 20
19.1627199669
 10
19.3156526775
 20
19.1831524417
 10
19.3089746126
 20
19.2035290802
 10
19.302126191
 20
19.2238473697
 10
19.2951083792
 20
19.2441064758
 10
19.2879220792
 20
19.2643056214
 10
19.2805687791
 20
19.2844423087
 10
19.2730494615
 20
19.3045154801
 10
19.2653648753
 20
19.3245245443
 10
19.2575162406
 20
19.344467648
 10
19.2495044322
 20
19.3643437638
 10
19.2413301396
 20
19.3841522175
 10
19.2329943227
 20
19.4038916305
 10
19.2244976884
 20
19.4235611109
 10
19.2158409163
 20
19.4431597843
 10
19.2070248812
 20
19.4626862394
 10
19.1980502003
 20
19.4821395723
 10
19.1889174793
 20
19.5015188495
 10
19.1796275382
 20
19.520822575
 10
19.170180946
 20
19.5400497653
 10
19.1605781845
 20
19.5591995083
 10
19.1508199525
 20
19.5782703971
 10
19.1409067387
 20
19.5972614048
 10
19.1308389624
 20
19.6161715211
 10
19.1206171817
 20
19.6349994444
 10
19.1102417712
 20
19.6537441263
 10
19.0997130964
 20
19.6724044876
 10
19.0897353364
 20
19.6897662341
  0
LINE
  5
3C3
100
AcDbEntity
  8
RACCORDO
100
AcDbLine
 62
250
  6
CONTINUOUS
 10
19.1510425647
 20
-12.2200459461
 11
19.151012475
 21
18.1439947722
  0
LINE
  5
3C4
100
AcDbEntity
  8
RACCORDO
100
AcDbLine
 62
7
  6
CONTINUOUS
 10
19.4317027644
 20
-11.8727167609
 11
19.4317027644
 21
18.4723634849
  0
LINE
  5
3C5
100
AcDbEntity
  8
0
100
AcDbLine
 62
7
  6
CONTINUOUS
 10
3.8355917346
 20
-21.1357284044
 11
4.5365276884
 21
-20.6277286667
  0
LINE
  5
3C6
100
AcDbEntity
  8
RACCORDO
100
AcDbLine
 62
7
  6
CONTINUOUS
 10
4.1347188675
 20
-20.9296257355
 11
3.8355917346
 21
-21.146416591
  0
LWPOLYLINE
  5
3C7
100
AcDbEntity
  8
0
100
AcDbPolyline
 62
7
  6
CONTINUOUS
 90
10
 70
0
 10
3.7658066806
 20
-19.5710575156
 10
3.8503004033
 20
-19.524342287
 10
3.9350805147
 20
-19.4776334003
 10
4.0201523427
 20
-19.430932613
 10
4.1055254408
 20
-19.384259167
 10
4.1912005022
 20
-19.3375967154
 10
4.2771677369
 20
-19.2908931251
 10
4.3634252045
 20
-19.2441314452
 10
4.449980439
 20
-19.197330131
 10
4.5368362297
 20
-19.1504898091
  0
LINE
  5
3C8
100
AcDbEntity
  8
RACCORDO
100
AcDbLine
 62
250
  6
CONTINUOUS
 10
4.5488693432
 20
-19.9121426365
 11
19.1510425647
 21
-12.2200459461
  0
LWPOLYLINE
  5
3C9
100
AcDbEntity
  8
DRAFT
100
AcDbPolyline
 62
250
  6
CONTINUOUS
 90
61
 70
0
 10
19.1510425647
 20
-12.2200459461
 10
19.1598721142
 20
-12.2154153887
 10
19.1685824412
 20
-12.2107287214
 10
19.1771721194
 20
-12.2059867118
 10
19.1856397425
 20
-12.2011901361
 10
19.1939839242
 20
-12.1963397798
 10
19.2022032981
 20
-12.1914364369
 10
19.2102965186
 20
-12.1864809103
 10
19.2182622606
 20
-12.1814740113
 10
19.2260992199
 20
-12.1764165598
 10
19.2338061132
 20
-12.1713093838
 10
19.2413816788
 20
-12.1661533194
 10
19.2488246764
 20
-12.1609492109
 10
19.2561338872
 20
-12.1556979103
 10
19.2633081146
 20
-12.1504002775
 10
19.2703461839
 20
-12.1450571797
 10
19.2772469428
 20
-12.1396694919
 10
19.2840092614
 20
-12.1342380961
 10
19.2906320326
 20
-12.1287638816
 10
19.297114172
 20
-12.1232477448
 10
19.3034546183
 20
-12.1176905887
 10
19.3096523333
 20
-12.1120933232
 10
19.3157063024
 20
-12.1064568649
 10
19.3216155342
 20
-12.1007821364
 10
19.3273790614
 20
-12.095070067
 10
19.3329959402
 20
-12.0893215918
 10
19.3384652511
 20
-12.0835376521
 10
19.3437860984
 20
-12.0777191949
 10
19.348957611
 20
-12.0718671728
 10
19.3539789423
 20
-12.065982544
 10
19.35884927
 20
-12.0600662719
 10
19.3635677968
 20
-12.0541193252
 10
19.3681337501
 20
-12.0481426776
 10
19.3725463822
 20
-12.0421373077
 10
19.3768049708
 20
-12.0361041987
 10
19.3809088186
 20
-12.0300443384
 10
19.3848572536
 20
-12.023958719
 10
19.3886496295
 20
-12.0178483369
 10
19.3922853252
 20
-12.0117141925
 10
19.3957637454
 20
-12.0055572901
 10
19.3990843208
 20
-11.9993786379
 10
19.4022465075
 20
-11.9931792474
 10
19.4052497879
 20
-11.9869601337
 10
19.4080936703
 20
-11.980722315
 10
19.4107776889
 20
-11.9744668127
 10
19.4133014044
 20
-11.9681946509
 10
19.4156644035
 20
-11.9619068566
 10
19.4178662994
 20
-11.9556044593
 10
19.4199067315
 20
-11.9492884908
 10
19.4217853658
 20
-11.9429599853
 10
19.4235018947
 20
-11.9366199789
 10
19.4250560371
 20
-11.9302695098
 10
19.4264475385
 20
-11.9239096175
 10
19.4276761712
 20
-11.9175413435
 10
19.428741734
 20
-11.9111657304
 10
19.4296440524
 20
-11.9047838221
 10
19.4303829787
 20
-11.8983966634
 10
19.4309583918
 20
-11.8920053002
 10
19.4313701977
 20
-11.885610779
 10
19.4316183288
 20
-11.8792141465
 10
19.4317027644
 20
-11.8727167883
  0
LWPOLYLINE
  5
3CA
100
AcDbEntity
  8
0
100
AcDbPolyline
 62
7
  6
CONTINUOUS
 90
3
 70
0
 10
4.5368362297
 20
-20.017960713
 10
4.449980439
 20
-20.0594957252
 10
4.3634252045
 20
-20.1007755335
  0
LWPOLYLINE
  5
3CB
100
AcDbEntity
  8
0
100
AcDbPolyline
 62
7
  6
CONTINUOUS
 90
8
 70
0
 10
4.3634252045
 20
-20.1007755335
 10
4.2771677369
 20
-20.141797975
 10
4.1912005022
 20
-20.182575214
 10
4.1055254408
 20
-20.2230909972
 10
4.0201523427
 20
-20.2632992524
 10
3.9350805147
 20
-20.3031816966
 10
3.8503004033
 20
-20.3427492612
 10
3.7658066806
 20
-20.3819983759
  0
LINE
  5
3CC
100
AcDbEntity
  8
RACCORDO
100
AcDbLine
 62
7
  6
CONTINUOUS
 10
0.1170128203
 20
-20.0661718107
 11
-0.1942945629
 21
-20.2099438766
  0
LWPOLYLINE
  5
3CD
100
AcDbEntity
  8
0
100
AcDbPolyline
 62
7
  6
CONTINUOUS
 90
10
 70
0
 10
3.784740018
 20
20.5099504592
 10
3.7773767584
 20
20.5079982235
 10
3.7696013814
 20
20.5057662093
 10
3.7614127653
 20
20.5032676071
 10
3.7528214896
 20
20.5005073933
 10
3.7438471949
 20
20.4974917384
 10
3.7344986964
 20
20.4942363275
 10
3.7247885995
 20
20.4907497526
 10
3.7147342599
 20
20.4870331539
 10
3.704351013
 20
20.4830908833
  0
LWPOLYLINE
  5
3CE
100
AcDbEntity
  8
0
100
AcDbPolyline
 62
7
  6
CONTINUOUS
 90
41
 70
0
 10
-11.0800379951
 20
20.7625461397
 10
-11.0742198859
 20
20.7614262548
 10
-11.0661865976
 20
20.7601909696
 10
-11.0580256588
 20
20.7592851954
 10
-11.0497491714
 20
20.7586955499
 10
-11.0413710437
 20
20.7584226249
 10
-11.0329048884
 20
20.7584662336
 10
-11.024361867
 20
20.7588116324
 10
-11.0157551899
 20
20.7594586003
 10
-11.007097737
 20
20.7604063905
 10
-10.9983996599
 20
20.7616393475
 10
-10.9896733812
 20
20.7631565568
 10
-10.9809309823
 20
20.7649567899
 10
-10.9721815974
 20
20.7670238595
 10
-10.9634367896
 20
20.7693562784
 10
-10.9547078277
 20
20.7719523998
 10
-10.9460029291
 20
20.7747957866
 10
-10.9373327794
 20
20.7778844836
 10
-10.9287078235
 20
20.7812164791
 10
-10.9201354849
 20
20.784775274
 10
-10.9116255772
 20
20.7885585305
 10
-10.903187722
 20
20.7925639181
 10
-10.8948286683
 20
20.7967749905
 10
-10.8865573753
 20
20.8011890936
 10
-10.8783826476
 20
20.8058036198
 10
-10.8703106575
 20
20.8106022407
 10
-10.8623495323
 20
20.8155820357
 10
-10.8545072667
 20
20.820740159
 10
-10.8467895222
 20
20.82606044
 10
-10.8392036152
 20
20.831539729
 10
-10.8317567368
 20
20.8371749792
 10
-10.82445407
 20
20.842950211
 10
-10.8173021405
 20
20.8488620732
 10
-10.810307337
 20
20.8549073558
 10
-10.8034743591
 20
20.8610703186
 10
-10.7968089551
 20
20.8673474338
 10
-10.7903167146
 20
20.8737353645
 10
-10.7840018253
 20
20.8802186785
 10
-10.7778689766
 20
20.8867898829
 10
-10.7719232728
 20
20.8934493717
 10
-10.7661691758
 20
20.9001935187
  0
LINE
  5
3CF
100
AcDbEntity
  8
0
100
AcDbLine
 62
250
  6
CONTINUOUS
 10
-11.4773897839
 20
21.0486970416
 11
-10.7661691758
 21
20.9001935187
  0
LWPOLYLINE
  5
3D0
100
AcDbEntity
  8
0
100
AcDbPolyline
 62
250
  6
CONTINUOUS
 90
14
 70
0
 10
-11.1134758851
 20
23.6155849878
 10
-11.1204009036
 20
23.6179076462
 10
-11.127542061
 20
23.619713664
 10
-11.1348833
 20
23.6209989804
 10
-11.1424081132
 20
23.6217607052
 10
-11.1500995805
 20
23.6219971257
 10
-11.157940407
 20
23.6217077101
 10
-11.1659129621
 20
23.6208931093
 10
-11.1739993188
 20
23.619555155
 10
-11.1821812945
 20
23.6176968557
 10
-11.1904404912
 20
23.6153223899
 10
-11.1987583375
 20
23.6124370967
 10
-11.2071161302
 20
23.609047464
 10
-11.2154950761
 20
23.6051611136
  0
LWPOLYLINE
  5
3D1
100
AcDbEntity
  8
RACCORDO
100
AcDbPolyline
 62
7
  6
CONTINUOUS
 90
35
 70
0
 10
-0.9191821389
 20
20.723719883
 10
-0.9212760806
 20
20.7245139543
 10
-0.923324727
 20
20.7252147699
 10
-0.9253993071
 20
20.7258507107
 10
-0.9274991518
 20
20.7264215906
 10
-0.9296234785
 20
20.726927194
 10
-0.9317714995
 20
20.7273673296
 10
-0.9339425248
 20
20.7277418821
 10
-0.9361357454
 20
20.7280507037
 10
-0.9383503484
 20
20.7282936712
 10
-0.9405856252
 20
20.7284707405
 10
-0.9428407433
 20
20.7285818319
 10
-0.945114867
 20
20.7286268907
 10
-0.9474072718
 20
20.7286059439
 10
-0.9497171043
 20
20.7285189805
 10
-0.9520435084
 20
20.7283660139
 10
-0.9543857467
 20
20.7281471426
 10
-0.9567429474
 20
20.7278624236
 10
-0.9591142371
 20
20.7275119389
 10
-0.9614988678
 20
20.7270958576
 10
-0.9638959521
 20
20.726614305
 10
-0.9663046019
 20
20.7260674309
 10
-0.9687240616
 20
20.7254554746
 10
-0.9711534309
 20
20.7247786292
 10
-0.97359181
 20
20.7240371116
 10
-0.976038438
 20
20.7232312309
 10
-0.9784924049
 20
20.7223612469
 10
-0.9809528015
 20
20.7214274432
 10
-0.9834188647
 20
20.7204301972
 10
-0.9858896773
 20
20.7193698348
 10
-0.9883643241
 20
20.7182467054
 10
-0.990842042
 20
20.7170612535
 10
-0.9933219632
 20
20.7158138954
 10
-0.9958031155
 20
20.7145050194
 10
-0.998284578
 20
20.7131350598
  0
LWPOLYLINE
  5
3D2
100
AcDbEntity
  8
RACCORDO
100
AcDbPolyline
 62
7
  6
CONTINUOUS
 90
104
 70
0
 10
-0.9191821506
 20
20.7237198888
 10
-0.9221126227
 20
20.724883012
 10
-0.9330749894
 20
20.7291520584
 10
-0.9441124586
 20
20.7333225892
 10
-0.9552243647
 20
20.7373955025
 10
-0.9664086644
 20
20.7413711533
 10
-0.977663291
 20
20.7452498719
 10
-0.9889874533
 20
20.7490323873
 10
-1.0003791151
 20
20.7527189883
 10
-1.0118362644
 20
20.756309946
 10
-1.0233580368
 20
20.7598058728
 10
-1.0349423964
 20
20.7632069959
 10
-1.0465873771
 20
20.7665135411
 10
-1.0582921193
 20
20.7697260443
 10
-1.0700546408
 20
20.772844691
 10
-1.0818729575
 20
20.7758696602
 10
-1.0937461359
 20
20.7788013952
 10
-1.1056722134
 20
20.7816400421
 10
-1.1176492086
 20
20.7843857528
 10
-1.1296761127
 20
20.787038887
 10
-1.1417509015
 20
20.7895995489
 10
-1.1538716696
 20
20.7920678847
 10
-1.1660375507
 20
20.7944442239
 10
-1.1782464508
 20
20.7967286391
 10
-1.1904965513
 20
20.7989212641
 10
-1.2027873666
 20
20.8010224374
 10
-1.2151169368
 20
20.803032232
 10
-1.2274833358
 20
20.804950723
 10
-1.2398860952
 20
20.8067781902
 10
-1.2523232823
 20
20.8085146857
 10
-1.2647929658
 20
20.8101602508
 10
-1.2772946454
 20
20.8117151086
 10
-1.2898264137
 20
20.8131792879
 10
-1.3023863303
 20
20.8145528037
 10
-1.3149738181
 20
20.8158358236
 10
-1.3275870036
 20
20.8170283542
 10
-1.3402239218
 20
20.818130393
 10
-1.3528838369
 20
20.8191420492
 10
-1.3655648392
 20
20.820063307
 10
-1.3782650026
 20
20.8208941615
 10
-1.3909835509
 20
20.8216346776
 10
-1.4037185668
 20
20.8222848261
 10
-1.4164681318
 20
20.8228445969
 10
-1.4292314527
 20
20.8233140128
 10
-1.442006615
 20
20.8236930384
 10
-1.4547916952
 20
20.8239816534
 10
-1.4675858735
 20
20.824179842
 10
-1.480387246
 20
20.8242875656
 10
-1.4931938739
 20
20.8243047902
 10
-1.5060048787
 20
20.8242314673
 10
-1.5188183409
 20
20.8240675542
 10
-1.531632329
 20
20.8238130035
 10
-1.5444459504
 20
20.8234677406
 10
-1.5572572786
 20
20.8230317142
 10
-1.5700643772
 20
20.8225048644
 10
-1.5828663509
 20
20.8218870919
 10
-1.5956612855
 20
20.8211783309
 10
-1.6084472175
 20
20.8203785136
 10
-1.6212231909
 20
20.8194875165
 10
-1.6339872996
 20
20.8185052577
 10
-1.6467375565
 20
20.8174316667
 10
-1.6594728925
 20
20.8162665979
 10
-1.6721913563
 20
20.815009961
 10
-1.6848909918
 20
20.8136616805
 10
-1.6975707251
 20
20.8122215774
 10
-1.710228591
 20
20.8106895531
 10
-1.7228626322
 20
20.809065524
 10
-1.7354717908
 20
20.807349271
 10
-1.7480540744
 20
20.805540691
 10
-1.7606075354
 20
20.803639682
 10
-1.7731311996
 20
20.8016459717
 10
-1.7856230731
 20
20.799559444
 10
-1.7980811851
 20
20.7973799742
 10
-1.8105046351
 20
20.7951072329
 10
-1.8228914286
 20
20.7927410806
 10
-1.8352395612
 20
20.7902813665
 10
-1.8475481728
 20
20.7877277035
 10
-1.859815264
 20
20.7850799181
 10
-1.8720387929
 20
20.7823378324
 10
-1.8842178959
 20
20.7795010015
 10
-1.8963508249
 20
20.7765691449
 10
-1.9084352372
 20
20.7735421188
 10
-1.9204694387
 20
20.7704196244
 10
-1.9324516154
 20
20.7672013635
 10
-1.9443794726
 20
20.7638871702
 10
-1.9562506704
 20
20.7604768916
 10
-1.9680631537
 20
20.7569702847
 10
-1.9798148811
 20
20.7533671087
 10
-1.9915036272
 20
20.7496671594
 10
-2.0031273449
 20
20.7458701762
 10
-2.0146839918
 20
20.7419758906
 10
-2.0261714698
 20
20.7379840289
 10
-2.0375877623
 20
20.7338942921
 10
-2.0489307885
 20
20.7297063804
 10
-2.0601985143
 20
20.7254199606
 10
-2.0713888808
 20
20.7210347025
 10
-2.0824998418
 20
20.7165502377
 10
-2.0935295494
 20
20.7119661092
 10
-2.1044758964
 20
20.7072819369
 10
-2.1153368216
 20
20.7024972896
 10
-2.1261107414
 20
20.6976115046
 10
-2.1367957972
 20
20.6926239842
 10
-2.1473895863
 20
20.6875343706
 10
-2.1566961436
 20
20.6829400516
  0
LWPOLYLINE
  5
3D3
100
AcDbEntity
  8
RACCORDO
100
AcDbPolyline
 62
7
  6
CONTINUOUS
 90
4
 70
0
 10
-0.9140433847
 20
20.7214161801
 10
-0.9152932088
 20
20.7220249165
 10
-0.9172596217
 20
20.722918758
 10
-0.9191821389
 20
20.723719883
  0
LINE
  5
3D4
100
AcDbEntity
  8
RACCORDO
100
AcDbLine
 62
7
  6
CONTINUOUS
 10
1.0005357928
 20
19.7641265914
 11
-0.9140433992
 21
20.7214161874
  0
LINE
  5
3D5
100
AcDbEntity
  8
0
100
AcDbLine
 62
7
  6
CONTINUOUS
 10
-0.7792964482
 20
21.1726735973
 11
1.5228621082
 21
20.0215943191
  0
LINE
  5
3D6
100
AcDbEntity
  8
0
100
AcDbLine
 62
7
  6
CONTINUOUS
 10
-0.1341077218
 20
21.8488213512
 11
2.5287206189
 21
20.5174071808
  0
LINE
  5
3D7
100
AcDbEntity
  8
0
100
AcDbLine
 62
250
  6
CONTINUOUS
 10
3.671532416
 20
20.4686174282
 11
3.0550605912
 21
20.7768533406
  0
LINE
  5
3D8
100
AcDbEntity
  8
0
100
AcDbLine
 62
250
  6
CONTINUOUS
 10
-1.943514775
 20
23.2761410237
 11
-2.5599865998
 21
23.5843769361
  0
LINE
  5
3D9
100
AcDbEntity
  8
0
100
AcDbLine
 62
7
  6
CONTINUOUS
 10
3.8301709654
 20
20.5132528953
 11
3.314921302
 21
20.770877727
  0
LINE
  5
3DA
100
AcDbEntity
  8
0
100
AcDbLine
 62
7
  6
CONTINUOUS
 10
-1.7602756476
 20
23.3084762018
 11
-2.275525311
 21
23.5661010335
  0
LINE
  5
3DB
100
AcDbEntity
  8
DRAFT
100
AcDbLine
 62
7
  6
CONTINUOUS
 10
9.0312339589
 20
18.1273475441
 11
9.9071115177
 21
17.6894087647
  0
LINE
  5
3DC
100
AcDbEntity
  8
0
100
AcDbLine
 62
7
  6
CONTINUOUS
 10
4.5262832927
 20
20.4876869035
 11
1.6199299459
 21
21.9408635769
  0
LWPOLYLINE
  5
3DD
100
AcDbEntity
  8
RACCORDO
100
AcDbPolyline
 62
250
  6
CONTINUOUS
 90
73
 70
0
 10
18.7368920891
 20
-13.2375290451
 10
18.7477933163
 20
-13.2294934245
 10
18.7585728243
 20
-13.2212543338
 10
18.7692293249
 20
-13.2128127567
 10
18.7797615376
 20
-13.2041697049
 10
18.7901682108
 20
-13.1953262061
 10
18.8004481217
 20
-13.1862833034
 10
18.8106000442
 20
-13.1770420737
 10
18.8206227632
 20
-13.1676036209
 10
18.8305150954
 20
-13.157969064
 10
18.8402758591
 20
-13.1481395525
 10
18.8499038889
 20
-13.1381162579
 10
18.8593980495
 20
-13.1279003668
 10
18.868757208
 20
-13.1174930968
 10
18.8779802462
 20
-13.1068956885
 10
18.8870660763
 20
-13.0961093975
 10
18.8960136142
 20
-13.0851355084
 10
18.9048217914
 20
-13.0739753293
 10
18.913489567
 20
-13.0626301843
 10
18.9220159072
 20
-13.0511014247
 10
18.9303997941
 20
-13.0393904238
 10
18.9386402371
 20
-13.0274985713
 10
18.9467362534
 20
-13.0154272832
 10
18.9546868772
 20
-13.003177997
 10
18.9624911681
 20
-12.9907521666
 10
18.9701481962
 20
-12.9781512708
 10
18.9776570481
 20
-12.9653768103
 10
18.9850168347
 20
-12.952430302
 10
18.9922266796
 20
-12.9393132866
 10
18.9992857229
 20
-12.9260273255
 10
19.0061931281
 20
-12.9125739975
 10
19.0129480728
 20
-12.8989549031
 10
19.0195497521
 20
-12.8851716632
 10
19.0259973826
 20
-12.8712259159
 10
19.0322901973
 20
-12.8571193203
 10
19.0384274465
 20
-12.8428535549
 10
19.0444084013
 20
-12.8284303156
 10
19.0502323505
 20
-12.8138513179
 10
19.0558986009
 20
-12.7991182963
 10
19.0614064782
 20
-12.7842330029
 10
19.0667553283
 20
-12.7691972077
 10
19.0719445149
 20
-12.7540126992
 10
19.0769734193
 20
-12.7386812839
 10
19.0818414449
 20
-12.7232047846
 10
19.0865480131
 20
-12.7075850419
 10
19.0910925615
 20
-12.6918239148
 10
19.0954745515
 20
-12.6759232769
 10
19.0996934631
 20
-12.6598850189
 10
19.1037487906
 20
-12.6437110499
 10
19.1076400542
 20
-12.6274032925
 10
19.1113667928
 20
-12.6109636854
 10
19.1149285582
 20
-12.5943941857
 10
19.1183249299
 20
-12.5776967623
 10
19.1215555061
 20
-12.5608734003
 10
19.1246198963
 20
-12.5439261035
 10
19.1275177397
 20
-12.5268568856
 10
19.1302486945
 20
-12.5096677755
 10
19.1328124282
 20
-12.4923608219
 10
19.1352086402
 20
-12.4749380817
 10
19.1374370488
 20
-12.457401625
 10
19.1394973805
 20
-12.4397535407
 10
19.1413893951
 20
-12.4219959255
 10
19.1431128713
 20
-12.4041308895
 10
19.1446675949
 20
-12.3861605608
 10
19.1460533861
 20
-12.3680870725
 10
19.1472700844
 20
-12.3499125736
 10
19.148317534
 20
-12.3316392346
 10
19.1491956156
 20
-12.3132692293
 10
19.1499042303
 20
-12.2948047368
 10
19.1504432825
 20
-12.2762479527
 10
19.1508127083
 20
-12.2576010817
 10
19.151012475
 20
-12.2388663378
 10
19.1510425647
 20
-12.2200459461
  0
LWPOLYLINE
  5
3DE
100
AcDbEntity
  8
RACCORDO
100
AcDbPolyline
 62
7
  6
CONTINUOUS
 90
82
 70
0
 10
18.8114602396
 20
-13.1911665088
 10
18.8233600125
 20
-13.1824451387
 10
18.8368580773
 20
-13.172313583
 10
18.8502445439
 20
-13.1620087246
 10
18.8635162169
 20
-13.1515326295
 10
18.8766719142
 20
-13.1408858452
 10
18.8897124354
 20
-13.1300672526
 10
18.9026357101
 20
-13.1190780282
 10
18.9154395698
 20
-13.1079194816
 10
18.9281245886
 20
-13.0965904993
 10
18.9406886204
 20
-13.0850923182
 10
18.9531295537
 20
-13.0734262135
 10
18.9654479026
 20
-13.0615909601
 10
18.9776416323
 20
-13.0495876759
 10
18.9897084985
 20
-13.0374177478
 10
19.0016486089
 20
-13.0250801963
 10
19.0134598936
 20
-13.0125762078
 10
19.0251401861
 20
-12.9999071219
 10
19.0366893697
 20
-12.9870720436
 10
19.0481053294
 20
-12.9740722498
 10
19.0593859903
 20
-12.9609090306
 10
19.0705312225
 20
-12.9475813752
 10
19.0815388561
 20
-12.9340906382
 10
19.0924069043
 20
-12.9204380409
 10
19.1031354147
 20
-12.9066222045
 10
19.113722213
 20
-12.8926445023
 10
19.1241653233
 20
-12.8785061169
 10
19.1344649789
 20
-12.8642052068
 10
19.1446190777
 20
-12.8497430343
 10
19.1546255574
 20
-12.8351208589
 10
19.1644845796
 20
-12.8203366395
 10
19.1741940999
 20
-12.8053915164
 10
19.1837519776
 20
-12.7902868334
 10
19.1931581023
 20
-12.7750206608
 10
19.2024105889
 20
-12.7595938124
 10
19.2115071123
 20
-12.7440079105
 10
19.220446812
 20
-12.7282620614
 10
19.2292276457
 20
-12.7123573627
 10
19.2378475001
 20
-12.6962951437
 10
19.246305355
 20
-12.6800746907
 10
19.2545991439
 20
-12.663697205
 10
19.26272684
 20
-12.6471638932
 10
19.2706874417
 20
-12.6304738857
 10
19.2784788503
 20
-12.6136285093
 10
19.2860991243
 20
-12.5966288103
 10
19.2935474389
 20
-12.5794733235
 10
19.300821871
 20
-12.5621629516
 10
19.3079203001
 20
-12.5446990974
 10
19.3148415469
 20
-12.5270808668
 10
19.3215839097
 20
-12.5093085702
 10
19.3281450707
 20
-12.4913841428
 10
19.3345229678
 20
-12.4733089844
 10
19.3407156997
 20
-12.4550841792
 10
19.3467213475
 20
-12.4367108866
 10
19.3525379387
 20
-12.4181904989
 10
19.3581636512
 20
-12.3995240829
 10
19.3635966469
 20
-12.3807127799
 10
19.3688350342
 20
-12.3617579641
 10
19.3738773638
 20
-12.34265949
 10
19.3787215327
 20
-12.3234196474
 10
19.3833648824
 20
-12.3040433624
 10
19.3878060784
 20
-12.2845305686
 10
19.392043253
 20
-12.2648834745
 10
19.3960733835
 20
-12.2451103813
 10
19.3998951615
 20
-12.225212351
 10
19.4035072581
 20
-12.2051904954
 10
19.406907157
 20
-12.1850531805
 10
19.4100938006
 20
-12.1648014889
 10
19.4130661101
 20
-12.1444365005
 10
19.4158220641
 20
-12.1239665733
 10
19.4183608539
 20
-12.1033926233
 10
19.4206816012
 20
-12.0827158648
 10
19.4227827087
 20
-12.0619451061
 10
19.4246635714
 20
-12.0410813628
 10
19.4263235453
 20
-12.0201256917
 10
19.4277614994
 20
-11.9990869956
 10
19.4289770222
 20
-11.9779663263
 10
19.429969674
 20
-11.9567646835
 10
19.4307387684
 20
-11.9354908489
 10
19.4312840139
 20
-11.9141483553
 10
19.4316052656
 20
-11.8927357531
 10
19.4317027642
 20
-11.8727167883
  0
LINE
  5
3DF
100
AcDbEntity
  8
DRAFT
100
AcDbLine
 62
7
  6
CONTINUOUS
 10
10.6598056017
 20
-17.576008803
 11
9.9071115177
 21
-18.1215199801
  0
LINE
  5
3E0
100
AcDbEntity
  8
RACCORDO
100
AcDbLine
 62
250
  6
CONTINUOUS
 10
18.3939945131
 20
-13.4860423047
 11
18.7368920891
 21
-13.2375290451
  0
LINE
  5
3E1
100
AcDbEntity
  8
RACCORDO
100
AcDbLine
 62
7
  6
CONTINUOUS
 10
18.4702523768
 20
-13.4384551577
 11
18.8114596831
 21
-13.1911669123
  0
LWPOLYLINE
  5
3E2
100
AcDbEntity
  8
RACCORDO
100
AcDbPolyline
 62
250
  6
CONTINUOUS
 90
10
 70
0
 10
18.7368920891
 20
-13.2375290451
 10
18.7458877305
 20
-13.2326867524
 10
18.7547960304
 20
-13.2277018292
 10
18.7636154962
 20
-13.2225751108
 10
18.77234465
 20
-13.2173074563
 10
18.7809820291
 20
-13.2118997482
 10
18.7895261864
 20
-13.2063528926
 10
18.7979756902
 20
-13.2006678191
 10
18.8063291247
 20
-13.1948454801
 10
18.8114596831
 20
-13.1911669123
  0
LWPOLYLINE
  5
3E3
100
AcDbEntity
  8
RACCORDO
100
AcDbPolyline
 62
7
  6
CONTINUOUS
 90
12
 70
0
 10
18.3939945131
 20
-13.4860423047
 10
18.4012383656
 20
-13.482149016
 10
18.4084430533
 20
-13.4781519085
 10
18.4156078021
 20
-13.474051629
 10
18.4227317111
 20
-13.4698488041
 10
18.4298141454
 20
-13.4655441239
 10
18.4368547362
 20
-13.461138338
 10
18.4438527221
 20
-13.4566321121
 10
18.450807354
 20
-13.4520261313
 10
18.4577182876
 20
-13.4473211769
 10
18.4645847743
 20
-13.442517932
 10
18.4702523237
 20
-13.4384551581
  0
LWPOLYLINE
  5
3E4
100
AcDbEntity
  8
RACCORDO
100
AcDbPolyline
 62
250
  6
CONTINUOUS
 90
16
 70
0
 10
-3.6444561112
 20
-26.6171530153
 10
-3.6834002772
 20
-26.6379549866
 10
-3.7255793985
 20
-26.6566213411
 10
-3.7705464577
 20
-26.6729542515
 10
-3.817824891
 20
-26.6867806205
 10
-3.8669136384
 20
-26.6979539154
 10
-3.9172924538
 20
-26.7063557207
 10
-3.9684274193
 20
-26.7118969936
 10
-4.0197766029
 20
-26.7145190073
 10
-4.0707958025
 20
-26.7141939735
 10
-4.1209443132
 20
-26.710925337
 10
-4.1696906577
 20
-26.7047477389
 10
-4.2165182188
 20
-26.6957266501
 10
-4.2609307148
 20
-26.6839576769
 10
-4.3024574592
 20
-26.6695655475
 10
-4.3406583485
 20
-26.6527027908
  0
LINE
  5
3E5
100
AcDbEntity
  8
RACCORDO
100
AcDbLine
 62
7
  6
CONTINUOUS
 10
18.3939945131
 20
-13.4860423047
 11
10.6598056017
 21
-17.576008803
  0
LINE
  5
3E6
100
AcDbEntity
  8
DRAFT
100
AcDbLine
 62
7
  6
CONTINUOUS
 10
3.8355917346
 20
-21.3322396549
 11
9.9071115177
 21
-18.1215199801
  0
LINE
  5
3E7
100
AcDbEntity
  8
RACCORDO
100
AcDbLine
 62
250
  6
CONTINUOUS
 10
4.1347188675
 20
-20.9296257355
 11
18.7368920891
 21
-13.2375290451
  0
LINE
  5
3E8
100
AcDbEntity
  8
0
100
AcDbLine
 62
7
  6
CONTINUOUS
 10
8.1171842652
 20
-19.3676024656
 11
3.8355917346
 21
-21.5672227249
  0
LINE
  5
3E9
100
AcDbEntity
  8
0
100
AcDbLine
 62
7
  6
CONTINUOUS
 10
3.8355917346
 20
-20.9874979684
 11
4.5365276884
 21
-20.6277286667
  0
LINE
  5
3EA
100
AcDbEntity
  8
ASSI
100
AcDbLine
 62
7
  6
CONTINUOUS
 10
8.9278054068
 20
-18.8546552926
 11
3.8355917346
 21
-21.4587689481
  0
LINE
  5
3EB
100
AcDbEntity
  8
0
100
AcDbLine
 62
7
  6
CONTINUOUS
 10
1.6199299459
 20
21.9408635769
 11
-0.1341077218
 21
21.8488213512
  0
LWPOLYLINE
  5
3EC
100
AcDbEntity
  8
0
100
AcDbPolyline
 62
7
  6
CONTINUOUS
 90
16
 70
0
 10
-1.2259906839
 20
21.3028798701
 10
-1.1924955027
 20
21.2979267779
 10
-1.1594406209
 20
21.2924177853
 10
-1.1268260386
 20
21.2863528921
 10
-1.0946180822
 20
21.2797245797
 10
-1.0628504252
 20
21.2725403668
 10
-1.0316240887
 20
21.2648228098
 10
-1.0009326777
 20
21.2565677482
 10
-0.9707825872
 20
21.2477793426
 10
-0.9412940238
 20
21.2384926311
 10
-0.9124773775
 20
21.2287083454
 10
-0.8843222582
 20
21.2184257538
 10
-0.856917702
 20
21.2076776989
 10
-0.8302933876
 20
21.1964751283
 10
-0.8044196364
 20
21.1848070945
 10
-0.7792964482
 20
21.1726735973
  0
LWPOLYLINE
  5
3ED
100
AcDbEntity
  8
0
100
AcDbPolyline
 62
7
  6
CONTINUOUS
 90
8
 70
0
 10
3.2077995413
 20
20.809647122
 10
3.22320809
 20
20.8060046204
 10
3.2390585693
 20
20.8015285749
 10
3.2553381108
 20
20.7962024466
 10
3.272039224
 20
20.7900144838
 10
3.2891374838
 20
20.7829428766
 10
3.3065907919
 20
20.7749572667
 10
3.3149200541
 20
20.7708759696
  0
LWPOLYLINE
  5
3EE
100
AcDbEntity
  8
0
100
AcDbPolyline
 62
7
  6
CONTINUOUS
 90
10
 70
0
 10
3.8301709137
 20
20.5132522636
 10
3.8271058326
 20
20.5143884928
 10
3.8235825705
 20
20.5150467772
 10
3.8194980557
 20
20.5153329136
 10
3.8148879964
 20
20.5152556857
 10
3.8097822685
 20
20.5148209058
 10
3.8041913675
 20
20.5140641921
 10
3.7981449262
 20
20.5129972679
 10
3.7916658362
 20
20.5116196641
 10
3.784740018
 20
20.5099504592
  0
LWPOLYLINE
  5
3EF
100
AcDbEntity
  8
0
100
AcDbPolyline
 62
7
  6
CONTINUOUS
 90
7
 70
0
 10
-1.7602761112
 20
23.3084705394
 10
-1.7616767948
 20
23.3090821134
 10
-1.7650077114
 20
23.3099891662
 10
-1.7689514297
 20
23.3104640216
 10
-1.773473778
 20
23.3105536049
 10
-1.7785395978
 20
23.3102785168
 10
-1.784110605
 20
23.3096328204
  0
LINE
  5
3F0
100
AcDbEntity
  8
RACCORDO
100
AcDbLine
 62
7
  6
CONTINUOUS
 10
4.6488924927
 20
20.5481240502
 11
1.6190624802
 21
22.0630390564
  0
LINE
  5
3F1
100
AcDbEntity
  8
0
100
AcDbLine
 62
250
  6
CONTINUOUS
 10
-2.0517772234
 20
24.4039131992
 11
0.9074587161
 21
22.9242952295
  0
LINE
  5
3F2
100
AcDbEntity
  8
0
100
AcDbLine
 62
250
  6
CONTINUOUS
 10
5.1579483257
 20
20.7990504247
 11
8.1171842652
 21
19.3194324549
  0
LINE
  5
3F3
100
AcDbEntity
  8
0
100
AcDbLine
 62
7
  6
CONTINUOUS
 10
-1.7625810572
 20
24.5072245997
 11
1.3519493749
 21
22.9499593836
  0
LINE
  5
3F4
100
AcDbEntity
  8
0
100
AcDbLine
 62
7
  6
CONTINUOUS
 10
5.5996573433
 20
20.8261053994
 11
8.7141877754
 21
19.2688401834
  0
LINE
  5
3F5
100
AcDbEntity
  8
0
100
AcDbLine
 62
250
  6
CONTINUOUS
 10
3.1346557808
 20
-24.2810801121
 11
3.8355917346
 21
-23.9194029194
  0
LINE
  5
3F6
100
AcDbEntity
  8
0
100
AcDbLine
 62
7
  6
CONTINUOUS
 10
3.0059429564
 20
-24.5508901911
 11
3.7077763329
 21
-24.1887499357
  0
LINE
  5
3F7
100
AcDbEntity
  8
0
100
AcDbLine
 62
250
  6
CONTINUOUS
 10
2.4275489996
 20
-25.9626754286
 11
2.9558161713
 21
-25.69166437
  0
LINE
  5
3F8
100
AcDbEntity
  8
0
100
AcDbLine
 62
7
  6
CONTINUOUS
 10
2.3634438999
 20
-26.0974531997
 11
2.8921281338
 21
-25.8262281802
  0
LWPOLYLINE
  5
3F9
100
AcDbEntity
  8
0
100
AcDbPolyline
 62
7
  6
CONTINUOUS
 90
3
 70
0
 10
3.0059430075
 20
-24.5508901696
 10
3.0038542153
 20
-24.5519516551
 10
2.9924081127
 20
-24.557210722
  0
LINE
  5
3FA
100
AcDbEntity
  8
0
100
AcDbLine
 62
7
  6
CONTINUOUS
 10
2.3634438979
 20
-26.0974532007
 11
2.3617074868
 21
-26.0983214206
  0
LINE
  5
3FB
100
AcDbEntity
  8
0
100
AcDbLine
 62
250
  6
CONTINUOUS
 10
0.8262682088
 20
-26.7427100283
 11
2.4275489996
 21
-25.9626754286
  0
LINE
  5
3FC
100
AcDbEntity
  8
0
100
AcDbLine
 62
7
  6
CONTINUOUS
 10
0.7600066162
 20
-26.8785606545
 11
2.361707486
 21
-26.098321421
  0
LINE
  5
3FD
100
AcDbEntity
  8
0
100
AcDbLine
 62
250
  6
CONTINUOUS
 10
2.0554817168
 20
-24.7338607021
 11
3.1346557808
 21
-24.2808672646
  0
LINE
  5
3FE
100
AcDbEntity
  8
0
100
AcDbLine
 62
7
  6
CONTINUOUS
 10
1.9142159631
 20
-25.0097919917
 11
2.9924082547
 21
-24.5572106624
  0
LINE
  5
3FF
100
AcDbEntity
  8
RACCORDO
100
AcDbLine
 62
250
  6
CONTINUOUS
 10
-3.3124897691
 20
-26.8513902142
 11
-0.4425073001
 21
-25.7714398954
  0
LINE
  5
400
100
AcDbEntity
  8
RACCORDO
100
AcDbLine
 62
7
  6
CONTINUOUS
 10
-0.6068741484
 20
-26.0572969957
 11
-3.4809523016
 21
-27.1387880892
  0
LWPOLYLINE
  5
401
100
AcDbEntity
  8
0
100
AcDbPolyline
 62
7
  6
CONTINUOUS
 90
17
 70
0
 10
-2.5046982836
 20
23.6054830703
 10
-2.4930922636
 20
23.6080179947
 10
-2.4811259437
 20
23.6099617468
 10
-2.4688063451
 20
23.6113029449
 10
-2.4561344586
 20
23.6120219706
 10
-2.4431274723
 20
23.6121115677
 10
-2.4297902974
 20
23.6115637575
 10
-2.4161041031
 20
23.610356003
 10
-2.4020954925
 20
23.608485638
 10
-2.3877614076
 20
23.6059379269
 10
-2.3730344089
 20
23.6026667292
 10
-2.3579165071
 20
23.5986619823
 10
-2.3424281866
 20
23.5939074523
 10
-2.3265262717
 20
23.5883405719
 10
-2.3102138899
 20
23.5819421035
 10
-2.2935171338
 20
23.57469852
 10
-2.2755256659
 20
23.5661005341
  0
LINE
  5
402
100
AcDbEntity
  8
0
100
AcDbLine
 62
7
  6
CONTINUOUS
 10
-1.784110605
 20
23.3096328204
 11
-1.7901503748
 21
23.30862208
  0
LWPOLYLINE
  5
403
100
AcDbEntity
  8
RACCORDO
100
AcDbPolyline
 62
250
  6
CONTINUOUS
 90
52
 70
0
 10
12.2983241622
 20
23.4356805369
 10
12.291338015
 20
23.4389822422
 10
12.2840970901
 20
23.4422190608
 10
12.276784298
 20
23.4453045789
 10
12.2694008643
 20
23.4482382794
 10
12.261948026
 20
23.4510196708
 10
12.2544270319
 20
23.4536482871
 10
12.2468391422
 20
23.4561236876
 10
12.2391856284
 20
23.4584454578
 10
12.2314677728
 20
23.4606132086
 10
12.2236868687
 20
23.4626265767
 10
12.2158442198
 20
23.4644852248
 10
12.2079411401
 20
23.4661888414
 10
12.199978954
 20
23.4677371412
 10
12.1919589956
 20
23.4691298646
 10
12.1838826086
 20
23.4703667783
 10
12.1757511463
 20
23.4714476751
 10
12.1675659713
 20
23.4723723738
 10
12.159328455
 20
23.4731407195
 10
12.1510399777
 20
23.4737525835
 10
12.1427019281
 20
23.4742078632
 10
12.1343157035
 20
23.4745064823
 10
12.125882709
 20
23.4746483909
 10
12.1174043576
 20
23.474633565
 10
12.1088820699
 20
23.4744620073
 10
12.1003172739
 20
23.4741337465
 10
12.0917114047
 20
23.4736488375
 10
12.0830659043
 20
23.4730073617
 10
12.0743822213
 20
23.4722094264
 10
12.0656618108
 20
23.4712551654
 10
12.0569061339
 20
23.4701447387
 10
12.0481166577
 20
23.4688783322
 10
12.0392948549
 20
23.4674561581
 10
12.0304422038
 20
23.4658784548
 10
12.0215601877
 20
23.4641454866
 10
12.0126502947
 20
23.4622575439
 10
12.0037140179
 20
23.460214943
 10
11.9947528547
 20
23.4580180262
 10
11.9857683064
 20
23.4556671615
 10
11.9767618785
 20
23.453162743
 10
11.9677350803
 20
23.4505051902
 10
11.9586894241
 20
23.4476949484
 10
11.9496264256
 20
23.4447324886
 10
11.9405476034
 20
23.441618307
 10
11.9314544789
 20
23.4383529255
 10
11.9223485755
 20
23.4349368913
 10
11.913231419
 20
23.4313707767
 10
11.9041045372
 20
23.4276551792
 10
11.8949694593
 20
23.4237907215
 10
11.8858277159
 20
23.4197780511
 10
11.8766808389
 20
23.4156178402
 10
11.8675303608
 20
23.4113107861
  0
LINE
  5
404
100
AcDbEntity
  8
RACCORDO
100
AcDbLine
 62
250
  6
CONTINUOUS
 10
12.3024032413
 20
23.4336741157
 11
12.2983241622
 21
23.4356805369
  0
LINE
  5
405
100
AcDbEntity
  8
RACCORDO
100
AcDbLine
 62
250
  6
CONTINUOUS
 10
18.3939945131
 20
20.1480787099
 11
11.8675303608
 21
23.4113107861
  0
LINE
  5
406
100
AcDbEntity
  8
RACCORDO
100
AcDbLine
 62
7
  6
CONTINUOUS
 10
18.7628929439
 20
20.2034292644
 11
12.3024032413
 21
23.4336741157
  0
LWPOLYLINE
  5
407
100
AcDbEntity
  8
RACCORDO
100
AcDbPolyline
 62
250
  6
CONTINUOUS
 90
52
 70
0
 10
11.8675303608
 20
23.4113107861
 10
11.8584382202
 20
23.415939648
 10
11.8493455233
 20
23.4204183513
 10
11.8402538273
 20
23.424746129
 10
11.8311646895
 20
23.4289222398
 10
11.8220796667
 20
23.4329459685
 10
11.8130003148
 20
23.4368166258
 10
11.8039281891
 20
23.4405335487
 10
11.7948648434
 20
23.4440961008
 10
11.78581183
 20
23.4475036717
 10
11.7767706996
 20
23.4507556778
 10
11.7677430006
 20
23.4538515622
 10
11.7587302793
 20
23.4567907945
 10
11.7497340795
 20
23.4595728714
 10
11.7407559419
 20
23.4621973163
 10
11.7317974043
 20
23.4646636798
 10
11.7228600011
 20
23.4669715393
 10
11.7139452632
 20
23.4691204996
 10
11.7050547174
 20
23.4711101927
 10
11.6961898864
 20
23.4729402777
 10
11.6873522887
 20
23.4746104412
 10
11.6785434379
 20
23.4761203971
 10
11.6697648428
 20
23.4774698868
 10
11.6610180069
 20
23.4786586792
 10
11.6523044284
 20
23.4796865707
 10
11.6436255998
 20
23.4805533851
 10
11.6349830076
 20
23.481258974
 10
11.626378132
 20
23.4818032167
 10
11.6178124469
 20
23.4821860197
 10
11.6092874193
 20
23.4824073177
 10
11.6008045095
 20
23.4824670727
 10
11.5923651704
 20
23.4823652744
 10
11.5839708475
 20
23.4821019403
 10
11.5756229784
 20
23.4816771155
 10
11.5673229931
 20
23.4810908728
 10
11.5590723132
 20
23.4803433125
 10
11.5508723517
 20
23.4794345627
 10
11.5427245133
 20
23.4783647791
 10
11.5346301933
 20
23.4771341449
 10
11.5265907783
 20
23.4757428708
 10
11.5186076452
 20
23.4741911952
 10
11.5106821613
 20
23.4724793838
 10
11.5028156841
 20
23.4706077299
 10
11.4950095609
 20
23.4685765539
 10
11.4872651288
 20
23.4663862039
 10
11.4795837143
 20
23.4640370549
 10
11.4719666329
 20
23.4615295094
 10
11.4644151894
 20
23.4588639967
 10
11.4569306771
 20
23.4560409735
 10
11.4495143779
 20
23.4530609233
 10
11.4421675622
 20
23.4499243564
 10
11.4359109357
 20
23.4471044924
  0
LWPOLYLINE
  5
408
100
AcDbEntity
  8
RACCORDO
100
AcDbPolyline
 62
7
  6
CONTINUOUS
 90
24
 70
0
 10
18.7628929439
 20
20.2034292644
 10
18.7659033896
 20
20.2018848761
 10
18.769378623
 20
20.2000012228
 10
18.7727858739
 20
20.1980437315
 10
18.7761247249
 20
20.1960128683
 10
18.7793947723
 20
20.1939091022
 10
18.782596319
 20
20.191732556
 10
18.7857289666
 20
20.1894837146
 10
18.7887923297
 20
20.1871630663
 10
18.7917867393
 20
20.1847707457
 10
18.7947118156
 20
20.1823072563
 10
18.7975671918
 20
20.1797731044
 10
18.8003532256
 20
20.1771684364
 10
18.8030695564
 20
20.1744937731
 10
18.8057158354
 20
20.1717496383
 10
18.8082924467
 20
20.1689361896
 10
18.8107990482
 20
20.1660539645
 10
18.8132353097
 20
20.1631035033
 10
18.8156016402
 20
20.1600849745
 10
18.8178977165
 20
20.1569989311
 10
18.8201232266
 20
20.1538459298
 10
18.8222786037
 20
20.1506261488
 10
18.8243635434
 20
20.1473401565
 10
18.8263777517
 20
20.1439885245
  0
LINE
  5
409
100
AcDbEntity
  8
RACCORDO
100
AcDbLine
 62
7
  6
CONTINUOUS
 10
19.0897353379
 20
19.6897662318
 11
18.8263777517
 21
20.1439885245
  0
ARC
  5
40A
100
AcDbEntity
  8
RACCORDO
100
AcDbCircle
 62
7
  6
CONTINUOUS
 10
11.8551896458
 20
22.5392469247
 40
1.0
100
AcDbArc
 50
63.4349488046
 51
114.7890578208
  0
ARC
  5
40B
100
AcDbEntity
  8
0
100
AcDbCircle
 62
7
  6
CONTINUOUS
 10
2.7780140283
 20
-25.256260221
 40
0.25
100
AcDbArc
 50
359.9569889429
 51
63.4349488229
  0
ARC
  5
40C
100
AcDbEntity
  8
0
100
AcDbCircle
 62
7
  6
CONTINUOUS
 10
2.7780140283
 20
16.0433439183
 40
0.25
100
AcDbArc
 50
320.5925343592
 51
359.9975470757
  0
ARC
  5
40D
100
AcDbEntity
  8
0
100
AcDbCircle
 62
7
  6
CONTINUOUS
 10
0.6505229444
 20
14.9857691167
 40
0.25
100
AcDbArc
 50
243.4343157743
 51
258.2056474496
  0
ARC
  5
40E
100
AcDbEntity
  8
0
100
AcDbCircle
 62
7
  6
CONTINUOUS
 10
-1.028015126
 20
15.825038152
 40
0.25
100
AcDbArc
 50
179.9936221035
 51
243.463610595
  0
ARC
  5
40F
100
AcDbEntity
  8
0
100
AcDbCircle
 62
7
  6
CONTINUOUS
 10
-9.5256439643
 20
22.1951729147
 40
0.25
100
AcDbArc
 50
320.5925343592
 51
359.9975470757
  0
ARC
  5
410
100
AcDbEntity
  8
0
100
AcDbCircle
 62
7
  6
CONTINUOUS
 10
-11.6531350482
 20
21.1375981131
 40
0.25
100
AcDbArc
 50
243.4329145254
 51
258.2060367178
  0
ARC
  5
411
100
AcDbEntity
  8
0
100
AcDbCircle
 62
7
  6
CONTINUOUS
 10
-13.3316731186
 20
21.9768671483
 40
0.25
100
AcDbArc
 50
179.9569889429
 51
243.4349488229
  0
ARC
  5
412
100
AcDbEntity
  8
0
100
AcDbCircle
 62
7
  6
CONTINUOUS
 10
-13.3316731186
 20
22.3168410824
 40
0.25
100
AcDbArc
 50
117.1586821941
 51
179.9961222374
  0
ARC
  5
413
100
AcDbEntity
  8
0
100
AcDbCircle
 62
7
  6
CONTINUOUS
 10
1.0871344772
 20
17.2363152107
 40
0.25
100
AcDbArc
 50
63.3939681258
 51
115.9721801256
  0
ARC
  5
414
100
AcDbEntity
  8
0
100
AcDbCircle
 62
7
  6
CONTINUOUS
 10
-1.028015126
 20
16.1650120861
 40
0.25
100
AcDbArc
 50
117.1586821941
 51
179.9961222374
  0
ARC
  5
415
100
AcDbEntity
  8
0
100
AcDbCircle
 62
7
  6
CONTINUOUS
 10
2.7780140283
 20
16.3908754351
 40
0.25
100
AcDbArc
 50
0.0057333847
 51
63.4349488229
  0
ARC
  5
416
100
AcDbEntity
  8
0
100
AcDbCircle
 62
7
  6
CONTINUOUS
 10
2.7780140283
 20
-25.6037917378
 40
0.25
100
AcDbArc
 50
297.114238938
 51
359.9691465041
  0
ARC
  5
417
100
AcDbEntity
  8
0
100
AcDbCircle
 62
7
  6
CONTINUOUS
 10
-11.2165235155
 20
23.388144207
 40
0.25
100
AcDbArc
 50
63.4349488229
 51
116.0140441013
  0
ARC
  5
418
100
AcDbEntity
  8
0
100
AcDbCircle
 62
7
  6
CONTINUOUS
 10
-9.5256439643
 20
22.5427044314
 40
0.25
100
AcDbArc
 50
0.0057333847
 51
63.4349488229
  0
ARC
  5
419
100
AcDbEntity
  8
0
100
AcDbCircle
 62
7
  6
CONTINUOUS
 10
0.6505229444
 20
-26.6538089568
 40
0.25
100
AcDbArc
 50
243.4349488229
 51
296.0140441013
  0
ARC
  5
41A
100
AcDbEntity
  8
0
100
AcDbCircle
 62
7
  6
CONTINUOUS
 10
-4.1113320931
 20
18.7056429514
 40
0.2
100
AcDbArc
 50
117.296276241
 51
180.0
  0
ELLIPSE
  5
41B
100
AcDbEntity
  8
RACCORDO
100
AcDbEllipse
 62
7
  6
CONTINUOUS
 10
0.9089983473
 20
12.6119503128
 30
0.0
 11
-0.1980160224
 21
0.4591252057
 31
0.0
 40
0.6397504731
 41
-2.2197254918
 42
-0.6496143977
  0
ELLIPSE
  5
41C
100
AcDbEntity
  8
RACCORDO
100
AcDbEllipse
 62
7
  6
CONTINUOUS
 10
-0.7961683578
 20
-25.5942994849
 30
0.0
 11
-0.1983295414
 21
0.4593494925
 31
0.0
 40
0.6389064642
 41
-3.1720702709
 42
-2.2208490559
  0
ELLIPSE
  5
41D
100
AcDbEntity
  8
RACCORDO
100
AcDbEllipse
 62
7
  6
CONTINUOUS
 10
-13.9400016667
 20
20.0364503198
 30
0.0
 11
-0.1983295414
 21
0.4593494925
 31
0.0
 40
0.6389064642
 41
-0.6493674964
 42
0.030477609
  0
ELLIPSE
  5
41E
100
AcDbEntity
  8
RACCORDO
100
AcDbEllipse
 62
7
  6
CONTINUOUS
 10
3.1344403564
 20
11.4031339098
 30
0.0
 11
-0.894612936
 21
1.7887945813
 31
0.0
 40
0.6124635976
 41
4.0276245976
 42
4.1597258693
  0
ELLIPSE
  5
41F
100
AcDbEntity
  8
RACCORDO
100
AcDbEllipse
 62
7
  6
CONTINUOUS
 10
3.1344403564
 20
11.4031339098
 30
0.0
 11
-0.894612936
 21
1.7887945813
 31
0.0
 40
0.6124635976
 41
-1.5636905096
 42
-1.470288718
  0
ELLIPSE
  5
420
100
AcDbEntity
  8
RACCORDO
100
AcDbEllipse
 62
7
  6
CONTINUOUS
 10
3.1344403564
 20
-19.2047095876
 30
0.0
 11
-0.894811907
 21
1.788971565
 31
0.0
 40
0.6123121697
 41
-3.0410143285
 42
-2.9476125369
  0
ELLIPSE
  5
421
100
AcDbEntity
  8
RACCORDO
100
AcDbEllipse
 62
7
  6
CONTINUOUS
 10
3.1344403564
 20
-19.2047095876
 30
0.0
 11
-0.894811907
 21
1.788971565
 31
0.0
 40
0.6123121697
 41
3.8953416985
 42
4.0274429702
  0
ELLIPSE
  5
422
100
AcDbEntity
  8
0
100
AcDbEllipse
 62
7
  6
CONTINUOUS
 10
-2.562055445
 20
23.1503491061
 30
0.0
 11
0.2257019663
 21
0.4461636818
 31
0.0
 40
0.6159267166
 41
0.5882567743
 42
0.6817883054
  0
ELLIPSE
  5
423
100
AcDbEntity
  8
RACCORDO
100
AcDbEllipse
 62
7
  6
CONTINUOUS
 10
8.5681355066
 20
18.279165683
 30
0.0
 11
0.499996712
 21
0.0035883639
 31
0.0
 40
0.5053247124
 41
-0.7715714568
 42
-0.0036265893
  0
ELLIPSE
  5
424
100
AcDbEntity
  8
0
100
AcDbEllipse
 62
7
  6
CONTINUOUS
 10
-3.2008099517
 20
19.1532624368
 30
0.0
 11
-0.0909679979
 21
0.1781462259
 31
0.0
 40
0.6079022756
 41
-0.6898048156
 42
-0.0128425411
  0
ELLIPSE
  5
425
100
AcDbEntity
  8
0
100
AcDbEllipse
 62
7
  6
CONTINUOUS
 10
5.1476638455
 20
19.9340681596
 30
0.0
 11
0.4547905863
 21
0.8906238433
 31
0.0
 40
0.6079814556
 41
0.0051544747
 42
0.6840559135
  0
ELLIPSE
  5
426
100
AcDbEntity
  8
ASSI
100
AcDbEllipse
 62
7
  6
CONTINUOUS
 10
-2.763036566
 20
23.8894183653
 30
0.0
 11
1.004787277
 21
0.6140102217
 31
0.0
 40
0.0864918533
 41
0.054007136
 42
0.7329085821
  0
ELLIPSE
  5
427
100
AcDbEntity
  8
ASSI
100
AcDbEllipse
 62
7
  6
CONTINUOUS
 10
8.8202160932
 20
-18.857221389
 30
0.0
 11
0.9927147821
 21
0.620457446
 31
0.0
 40
0.0764819879
 41
-2.4043514965
 42
-1.3666868807
  0
ELLIPSE
  5
428
100
AcDbEntity
  8
ASSI
100
AcDbEllipse
 62
7
  6
CONTINUOUS
 10
27.2304472125
 20
-8.3837310103
 30
0.0
 11
24.0955625974
 21
12.2610436036
 31
0.0
 40
0.0085648092
 41
-2.9166229256
 42
-2.803161766
  0
ELLIPSE
  5
429
100
AcDbEntity
  8
ASSI
100
AcDbEllipse
 62
7
  6
CONTINUOUS
 10
27.2304472125
 20
22.2735682837
 30
0.0
 11
24.0955625974
 21
12.2610436036
 31
0.0
 40
0.0085648092
 41
2.794445403
 42
2.9079065627
  0
ELLIPSE
  5
42A
100
AcDbEntity
  8
ASSI
100
AcDbEllipse
 62
7
  6
CONTINUOUS
 10
27.2304472125
 20
21.5807479607
 30
0.0
 11
24.0955625974
 21
12.2610436036
 31
0.0
 40
0.0085648092
 41
-2.9166229256
 42
-2.803161766
  0
ELLIPSE
  5
42B
100
AcDbEntity
  8
ASSI
100
AcDbEllipse
 62
7
  6
CONTINUOUS
 10
27.2304472125
 20
-7.6909106872
 30
0.0
 11
24.0955625974
 21
12.2610436036
 31
0.0
 40
0.0085648092
 41
2.794445403
 42
2.9079065627
  0
ELLIPSE
  5
42C
100
AcDbEntity
  8
0
100
AcDbEllipse
 62
7
  6
CONTINUOUS
 10
3.4820248812
 20
-23.7425975089
 30
0.0
 11
-0.2236315662
 21
0.4472293059
 31
0.0
 40
0.6123445654
 41
-3.1338271467
 42
-2.2555748796
  0
ELLIPSE
  5
42D
100
AcDbEntity
  8
0
100
AcDbEllipse
 62
7
  6
CONTINUOUS
 10
3.4820248812
 20
14.1792237439
 30
0.0
 11
-0.223611546
 21
0.4472115081
 31
0.0
 40
0.6124054886
 41
-2.2555017776
 42
-0.6847562194
  0
ELLIPSE
  5
42E
100
AcDbEntity
  8
0
100
AcDbEllipse
 62
7
  6
CONTINUOUS
 10
-4.9099930887
 20
20.0078540053
 30
0.0
 11
-0.090948378
 21
0.1781282571
 31
0.0
 40
0.6080538059
 41
-2.2606249166
 42
-0.6898793584
  0
ELLIPSE
  5
42F
100
AcDbEntity
  8
0
100
AcDbEllipse
 62
7
  6
CONTINUOUS
 10
3.0499183511
 20
20.3443622081
 30
0.0
 11
0.2273952932
 21
0.4453119217
 31
0.0
 40
0.6079814556
 41
0.2357074224
 42
0.6840559135
  0
ELLIPSE
  5
430
100
AcDbEntity
  8
ASSI
100
AcDbEllipse
 62
7
  6
CONTINUOUS
 10
8.5681355066
 20
-19.1140307193
 30
0.0
 11
0.499443764
 21
0.3120915671
 31
0.0
 40
0.0755486457
 41
-0.0471742161
 42
0.720771186
  0
ELLIPSE
  5
431
100
AcDbEntity
  8
0
100
AcDbEllipse
 62
7
  6
CONTINUOUS
 10
-4.1113320931
 20
17.4811058934
 30
0.0
 11
0.199943508
 21
0.008945986
 31
0.0
 40
0.5313301283
 41
3.1178240564
 42
3.9032222197
  0
ELLIPSE
  5
432
100
AcDbEntity
  8
0
100
AcDbEllipse
 62
7
  6
CONTINUOUS
 10
-5.8121016345
 20
18.3314906642
 30
0.0
 11
0.199943508
 21
0.008945986
 31
0.0
 40
0.5313301283
 41
-2.3799630874
 42
-0.8178934069
  0
ELLIPSE
  5
433
100
AcDbEntity
  8
0
100
AcDbEllipse
 62
7
  6
CONTINUOUS
 10
-0.3250221717
 20
14.8730823458
 30
0.0
 11
0.249929385
 21
0.0111824824
 31
0.0
 40
0.5313301283
 41
3.1178240551
 42
3.9032222197
  0
ELLIPSE
  5
434
100
AcDbEntity
  8
0
100
AcDbEllipse
 62
7
  6
CONTINUOUS
 10
-1.9424862922
 20
22.8405645297
 30
0.0
 11
0.2197467797
 21
0.4491356978
 31
0.0
 40
0.6167074461
 41
0.2252343201
 42
0.6735828111
  0
ELLIPSE
  5
435
100
AcDbEntity
  8
0
100
AcDbEllipse
 62
7
  6
CONTINUOUS
 10
-2.2083034588
 20
64.9718385957
 30
0.0
 11
-0.3192264997
 21
45.1189143812
 31
0.0
 40
0.0071249215
 41
3.4474731796
 42
3.5354687861
  0
ELLIPSE
  5
436
100
AcDbEntity
  8
0
100
AcDbEllipse
 62
7
  6
CONTINUOUS
 10
-12.6286801644
 20
21.0249113421
 30
0.0
 11
0.249929385
 21
0.0111824824
 31
0.0
 40
0.5313301283
 41
3.1178240551
 42
3.9032222197
  0
ELLIPSE
  5
437
100
AcDbEntity
  8
0
100
AcDbEllipse
 62
7
  6
CONTINUOUS
 10
-10.9419144401
 20
20.18152848
 30
0.0
 11
0.249929385
 21
0.0111824824
 31
0.0
 40
0.5313301283
 41
-2.3799630874
 42
-0.8149845248
  0
ELLIPSE
  5
438
100
AcDbEntity
  8
RACCORDO
100
AcDbEllipse
 62
7
  6
CONTINUOUS
 10
0.1242807646
 20
-9.7359067248
 30
0.0
 11
-0.1571758788
 21
0.2571581498
 31
0.0
 40
0.5601087126
 41
-3.2067464865
 42
-2.3018722735
  0
ELLIPSE
  5
439
100
AcDbEntity
  8
0
100
AcDbEllipse
 62
7
  6
CONTINUOUS
 10
3.3821431542
 20
19.2585964196
 30
0.0
 11
0.4530414621
 21
-0.0021419047
 31
0.0
 40
0.4964289597
 41
-0.77723337
 42
0.0023470288
  0
ELLIPSE
  5
43A
100
AcDbEntity
  8
0
100
AcDbEllipse
 62
7
  6
CONTINUOUS
 10
-1.4969302758
 20
21.3843021696
 30
0.0
 11
1.0205811965
 21
-0.0048251373
 31
0.0
 40
0.4964289597
 41
1.3061600176
 42
2.3584907469
  0
ELLIPSE
  5
43B
100
AcDbEntity
  8
0
100
AcDbEllipse
 62
7
  6
CONTINUOUS
 10
-2.2083034588
 20
22.0538197261
 30
0.0
 11
0.4530414621
 21
-0.0021419047
 31
0.0
 40
0.4964289597
 41
-0.4806702637
 42
0.0023470293
  0
ELLIPSE
  5
43C
100
AcDbEntity
  8
0
100
AcDbEllipse
 62
7
  6
CONTINUOUS
 10
-13.3223644726
 20
20.7500232388
 30
0.0
 11
-0.2234618187
 21
0.4480306886
 31
0.0
 40
0.6116748051
 41
-0.6831523234
 42
0.886730614
  0
ELLIPSE
  5
43D
100
AcDbEntity
  8
0
100
AcDbEllipse
 62
7
  6
CONTINUOUS
 10
-7.4353564325
 20
20.3676551211
 30
0.0
 11
0.0907039967
 21
0.1782526758
 31
0.0
 40
0.6176975122
 41
0.6948951487
 42
2.2598737113
  0
ELLIPSE
  5
43E
100
AcDbEntity
  8
0
100
AcDbEllipse
 62
7
  6
CONTINUOUS
 10
52.7724414334
 20
44.6080852959
 30
0.0
 11
60.4168605605
 21
30.5632322457
 31
0.0
 40
0.005706723
 41
2.5167363259
 42
2.6876789752
  0
ELLIPSE
  5
43F
100
AcDbEntity
  8
0
100
AcDbEllipse
 62
7
  6
CONTINUOUS
 10
3.6694875039
 20
20.0345776317
 30
0.0
 11
0.221538876
 21
0.4482453432
 31
0.0
 40
0.6088015717
 41
0.5825560023
 42
0.6760875334
  0
ELLIPSE
  5
440
100
AcDbEntity
  8
0
100
AcDbEllipse
 62
7
  6
CONTINUOUS
 10
52.7724414334
 20
44.6080852959
 30
0.0
 11
60.4168605605
 21
30.5632322457
 31
0.0
 40
0.005706723
 41
-2.6934527084
 42
-2.5225100591
  0
ELLIPSE
  5
441
100
AcDbEntity
  8
0
100
AcDbEllipse
 62
7
  6
CONTINUOUS
 10
1.3617435525
 20
14.0296994837
 30
0.0
 11
0.249929385
 21
0.0111824824
 31
0.0
 40
0.5313301283
 41
-2.3799630874
 42
-0.8149845248
  0
ELLIPSE
  5
442
100
AcDbEntity
  8
ASSI
100
AcDbEllipse
 62
7
  6
CONTINUOUS
 10
8.5681355066
 20
19.3137887338
 30
0.0
 11
-0.3739417019
 21
0.598522373
 31
0.0
 40
0.554557473
 41
-3.1836090632
 42
-2.415663759
  0
ELLIPSE
  5
443
100
AcDbEntity
  8
0
100
AcDbEllipse
 62
7
  6
CONTINUOUS
 10
1.7018744701
 20
-24.5566610272
 30
0.0
 11
-0.2234618187
 21
0.4480306886
 31
0.0
 40
0.6116748051
 41
2.4584403302
 42
4.0283232676
  0
ELLIPSE
  5
444
100
AcDbEntity
  8
0
100
AcDbEllipse
 62
7
  6
CONTINUOUS
 10
1.7018744701
 20
13.2379037674
 30
0.0
 11
-0.2230998035
 21
0.4477110033
 31
0.0
 40
0.6127700112
 41
-2.2535417632
 42
-0.6836588258
  0
ELLIPSE
  5
445
100
AcDbEntity
  8
0
100
AcDbEllipse
 62
7
  6
CONTINUOUS
 10
0.9095156818
 20
22.0531422415
 30
0.0
 11
0.4394935595
 21
0.8982713957
 31
0.0
 40
0.6167074461
 41
5.3917895557
 42
6.9567681183
  0
ELLIPSE
  5
446
100
AcDbEntity
  8
ASSI
100
AcDbEllipse
 62
7
  6
CONTINUOUS
 10
8.8202160932
 20
18.0977920357
 30
0.0
 11
-0.7356038977
 21
1.2035991204
 31
0.0
 40
0.5552491559
 41
5.1980061968
 42
6.2356708126
  0
ELLIPSE
  5
447
100
AcDbEntity
  8
RACCORDO
100
AcDbEllipse
 62
7
  6
CONTINUOUS
 10
-0.1888214893
 20
-19.4363701706
 30
0.0
 11
-0.313181275
 21
0.626269159
 31
0.0
 40
0.6121897086
 41
-3.1606090032
 42
-2.2557347926
  0
ENDSEC
  0
SECTION
  2
OBJECTS
  0
DICTIONARY
  5
C
100
AcDbDictionary
280
0
281
1
  3
ACAD_GROUP
350
D
  3
ACAD_MLINESTYLE
350
17
  3
ACAD_LAYOUT
350
1A
  3
ACAD_PLOTSETTINGS
350
19
  3
ACAD_PLOTSTYLENAME
350
E
  0
DICTIONARY
  5
D
102
{ACAD_REACTORS
330
C
102
}
100
AcDbDictionary
280
0
281
1
  0
ACDBDICTIONARYWDFLT
  5
E
102
{ACAD_REACTORS
330
C
102
}
100
AcDbDictionary
281
1
  3
Normal
350
F
100
AcDbDictionaryWithDefault
340
F
  0
DICTIONARY
  5
17
102
{ACAD_REACTORS
330
C
102
}
100
AcDbDictionary
280
0
281
1
  3
Standard
350
18
  0
DICTIONARY
  5
19
102
{ACAD_REACTORS
330
C
102
}
100
AcDbDictionary
281
1
  0
DICTIONARY
  5
1A
102
{ACAD_REACTORS
330
C
102
}
100
AcDbDictionary
281
1
  3
Model
350
448
  3
Layout1
350
449
  0
ACDBPLACEHOLDER
  5
F
102
{ACAD_REACTORS
330
E
102
}
  0
MLINESTYLE
  5
18
102
{ACAD_REACTORS
330
17
102
}
100
AcDbMlineStyle
  2
STANDARD
 70
0
  3

 62
256
 51
90.0
 52
90.0
 71
2
 49
0.5
 62
256
  6
BYLAYER
 49
-0.5
 62
256
  6
BYLAYER
  0
LAYOUT
  5
448
102
{ACAD_REACTORS
330
1A
102
}
100
AcDbPlotSettings
  1

  2
none_device
  4
ISO_A4_(297.00_x_210.00_MM)
  6

 40
0.0
 41
0.0
 42
0.0
 43
0.0
 44
297.0
 45
210.0
 46
0.0
 47
0.0
 48
0.0
 49
0.0
140
0.0
141
0.0
142
1.0
143
1.0
 70
1024
 72
1
 73
0
 74
0
  7

 75
0
147
1.0
148
0.0
149
0.0
100
AcDbLayout
  1
Model
 70
0
 71
0
 10
0.0
 20
0.0
 11
297.0
 21
210.0
 12
0.0
 22
0.0
 32
0.0
 14
0.0
 24
0.0
 34
0.0
 15
0.0
 25
0.0
 35
0.0
146
0.0
 13
0.0
 23
0.0
 33
0.0
 16
1.0
 26
0.0
 36
0.0
 17
0.0
 27
1.0
 37
0.0
 76
0
330
21E
345
0
346
0
  0
LAYOUT
  5
449
102
{ACAD_REACTORS
330
1A
102
}
100
AcDbPlotSettings
  1

  2
none_device
  4
ISO_A4_(297.00_x_210.00_MM)
  6

 40
0.0
 41
0.0
 42
0.0
 43
0.0
 44
297.0
 45
210.0
 46
0.0
 47
0.0
 48
0.0
 49
0.0
140
0.0
141
0.0
142
1.0
143
1.0
 70
0
 72
1
 73
0
 74
0
  7

 75
0
147
1.0
148
0.0
149
0.0
100
AcDbLayout
  1
Layout1
 70
0
 71
1
 10
0.0
 20
0.0
 11
297.0
 21
210.0
 12
0.0
 22
0.0
 32
0.0
 14
0.0
 24
0.0
 34
0.0
 15
0.0
 25
0.0
 35
0.0
146
0.0
 13
0.0
 23
0.0
 33
0.0
 16
1.0
 26
0.0
 36
0.0
 17
0.0
 27
1.0
 37
0.0
 76
0
330
21F
345
0
346
0
  0
ENDSEC
  0
EOF
