  0
SECTION
  2
HEADER
  9
$ACADVER
  1
AC1024
  9
$DWGCODEPAGE
  3
ANSI_1252
  9
$EXTMAX
 10
297.0
 20
210.0
 30
0.0
  9
$EXTMIN
 10
0.0
 20
0.0
 30
0.0
  9
$LIMMIN
 10
0.0
 20
0.0
  9
$LIMMAX
 10
297.0
 20
210.0
  9
$VIEWCTR
 10
148.5
 20
105.0
  9
$VIEWSIZE
 40
210.0
  9
$CLAYER
  8
0
  9
$LTSCALE
 40
16.335
  9
$CELTYPE
  6
BYLAYER
  9
$DIMSCALE
 40
1.0
  9
$DIMASZ
 40
3.0
  9
$DIMEXO
 40
0.5
  9
$DIMDLI
 40
11.286
  9
$DIMEXE
 40
1.5
  9
$DIMCEN
 40
2.673
  9
$DIMLFAC
 40
1.0
  9
$DIMBLK
  1
_FILLED
  9
$DIMALT
 70
0
  9
$DIMALTF
 40
0.0393700787
  9
$DIMTXT
 40
3.0
  9
$DIMTOL
 70
1
  9
$DIMLIM
 70
0
  9
$DIMTFAC
 40
1.0
  9
$DIMTP
 40
0.01
  9
$DIMTM
 40
0.01
  9
$DIMGAP
 40
0.625
  9
$DIMDSEP
 70
44
  9
$AUNITS
 70
0
  9
$PDMODE
 70
3
  9
$PDSIZE
 40
3.0
  9
$HANDSEED
  5
4C0
  9
$TILEMODE
 70
1
  9
$MEASUREMENT
 70
1
  9
$INSUNITS
 70
4
  0
ENDSEC
  0
SECTION
  2
CLASSES
  0
CLASS
  1
ACDBDICTIONARYWDFLT
  2
AcDbDictionaryWithDefault
  3
AutoCAD 2000
 90
0
 91
1
280
0
281
0
  0
CLASS
  1
ACDBPLACEHOLDER
  2
AcDbPlaceHolder
  3
AutoCAD 2000
 90
0
 91
1
280
0
281
0
  0
CLASS
  1
LAYOUT
  2
AcDbLayout
  3
AutoCAD 2000
 90
0
 91
0
280
0
281
0
  0
ENDSEC
  0
SECTION
  2
TABLES
  0
TABLE
  2
VPORT
  5
8
100
AcDbSymbolTable
 70
2
  0
VPORT
  5
1F4
100
AcDbSymbolTableRecord
100
AcDbViewportTableRecord
  2
*ACTIVE
 70
0
 10
0.0
 20
0.0
 11
1.0
 21
1.0
 12
148.5
 22
105.0
 13
0.0
 23
0.0
 14
1.0
 24
1.0
 15
0.0
 25
0.0
 16
0.0
 26
0.0
 36
1.0
 17
0.0
 27
0.0
 37
0.0
 40
210.0
 41
1.4142857143
 42
50.0
 43
0.0
 44
0.0
 50
0.0
 51
0.0
 71
0
 72
100
 73
1
 74
1
 75
0
 76
0
 77
0
 78
0
  0
ENDTAB
  0
TABLE
  2
LTYPE
  5
5
100
AcDbSymbolTable
 70
6
  0
LTYPE
  5
14
100
AcDbSymbolTableRecord
100
AcDbLinetypeTableRecord
  2
BYBLOCK
 70
0
  3

 72
65
 73
0
 40
0.0
  0
LTYPE
  5
15
100
AcDbSymbolTableRecord
100
AcDbLinetypeTableRecord
  2
BYLAYER
 70
0
  3

 72
65
 73
0
 40
0.0
  0
LTYPE
  5
16
100
AcDbSymbolTableRecord
100
AcDbLinetypeTableRecord
  2
CONTINUOUS
 70
64
  3
Solid line
 72
65
 73
0
 40
0.0
  0
LTYPE
  5
1F5
100
AcDbSymbolTableRecord
100
AcDbLinetypeTableRecord
  2
CENTER
 70
64
  3
____ _ ____ _ ____ _ ____ _ ____ _ ____ _ ____
 72
65
 73
4
 40
0.6
 49
0.375
 74
0
 49
-0.075
 74
0
 49
0.075
 74
0
 49
-0.075
 74
0
  0
LTYPE
  5
1F6
100
AcDbSymbolTableRecord
100
AcDbLinetypeTableRecord
  2
HIDDEN
 70
64
  3
- - - - - - - - - - - - - - - - - - - -
 72
65
 73
2
 40
0.2
 49
0.1
 74
0
 49
-0.1
 74
0
  0
LTYPE
  5
1F7
100
AcDbSymbolTableRecord
100
AcDbLinetypeTableRecord
  2
PHANTOM
 70
64
  3
_____ _ _ _____ _ _ _____ _ _ _____
 72
65
 73
6
 40
0.8
 49
0.45
 74
0
 49
-0.05
 74
0
 49
0.1
 74
0
 49
-0.05
 74
0
 49
0.1
 74
0
 49
-0.05
 74
0
  0
LTYPE
  5
1F8
100
AcDbSymbolTableRecord
100
AcDbLinetypeTableRecord
  2
DOT
 70
64
  3
. . . . . . . . . . . . . . . . . . . .
 72
65
 73
2
 40
0.2
 49
0.1
 74
0
 49
-0.1
 74
0
  0
LTYPE
  5
1F9
100
AcDbSymbolTableRecord
100
AcDbLinetypeTableRecord
  2
DASHED
 70
64
  3
- - - - - - - - - - - - - - - - - - - -
 72
65
 73
2
 40
0.2
 49
0.1
 74
0
 49
-0.1
 74
0
  0
ENDTAB
  0
TABLE
  2
LAYER
  5
2
100
AcDbSymbolTable
 70
36
  0
LAYER
  5
10
100
AcDbSymbolTableRecord
100
AcDbLayerTableRecord
  2
0
 70
0
 62
7
  6
CONTINUOUS
370
-3
390
F
  0
LAYER
  5
1FA
100
AcDbSymbolTableRecord
100
AcDbLayerTableRecord
  2
DEFAULT_1
 70
0
 62
7
  6
CENTER
370
-3
390
F
  0
LAYER
  5
1FB
100
AcDbSymbolTableRecord
100
AcDbLayerTableRecord
  2
DEFAULT_2
 70
0
 62
7
  6
HIDDEN
370
-3
390
F
  0
LAYER
  5
1FC
100
AcDbSymbolTableRecord
100
AcDbLayerTableRecord
  2
DEFAULT_3
 70
0
 62
7
  6
PHANTOM
370
-3
390
F
  0
LAYER
  5
1FD
100
AcDbSymbolTableRecord
100
AcDbLayerTableRecord
  2
ASSI
 70
0
 62
7
  6
CONTINUOUS
370
-3
390
F
  0
LAYER
  5
1FE
100
AcDbSymbolTableRecord
100
AcDbLayerTableRecord
  2
COLOR9
 70
0
 62
7
  6
CONTINUOUS
370
-3
390
F
  0
LAYER
  5
1FF
100
AcDbSymbolTableRecord
100
AcDbLayerTableRecord
  2
COLORE_TOP
 70
0
 62
7
  6
CONTINUOUS
370
-3
390
F
  0
LAYER
  5
200
100
AcDbSymbolTableRecord
100
AcDbLayerTableRecord
  2
COORDINATE
 70
0
 62
7
  6
CONTINUOUS
370
-3
390
F
  0
LAYER
  5
201
100
AcDbSymbolTableRecord
100
AcDbLayerTableRecord
  2
COORD_ORIGINE
 70
0
 62
7
  6
CONTINUOUS
370
-3
390
F
  0
LAYER
  5
202
100
AcDbSymbolTableRecord
100
AcDbLayerTableRecord
  2
COPY
 70
0
 62
7
  6
CONTINUOUS
370
-3
390
F
  0
LAYER
  5
203
100
AcDbSymbolTableRecord
100
AcDbLayerTableRecord
  2
COPY_GEOMETRY
 70
0
 62
7
  6
CONTINUOUS
370
-3
390
F
  0
LAYER
  5
204
100
AcDbSymbolTableRecord
100
AcDbLayerTableRecord
  2
COPY_PUBLISH
 70
0
 62
7
  6
CONTINUOUS
370
-3
390
F
  0
LAYER
  5
205
100
AcDbSymbolTableRecord
100
AcDbLayerTableRecord
  2
COSMETICHE
 70
0
 62
7
  6
CONTINUOUS
370
-3
390
F
  0
LAYER
  5
206
100
AcDbSymbolTableRecord
100
AcDbLayerTableRecord
  2
COSMETICI
 70
0
 62
7
  6
CONTINUOUS
370
-3
390
F
  0
LAYER
  5
207
100
AcDbSymbolTableRecord
100
AcDbLayerTableRecord
  2
CURVE
 70
0
 62
7
  6
CONTINUOUS
370
-3
390
F
  0
LAYER
  5
208
100
AcDbSymbolTableRecord
100
AcDbLayerTableRecord
  2
DRAFT
 70
0
 62
7
  6
CONTINUOUS
370
-3
390
F
  0
LAYER
  5
209
100
AcDbSymbolTableRecord
100
AcDbLayerTableRecord
  2
GENERICI
 70
0
 62
7
  6
CONTINUOUS
370
-3
390
F
  0
LAYER
  5
20A
100
AcDbSymbolTableRecord
100
AcDbLayerTableRecord
  2
IGES
 70
0
 62
7
  6
CONTINUOUS
370
-3
390
F
  0
LAYER
  5
20B
100
AcDbSymbolTableRecord
100
AcDbLayerTableRecord
  2
IMPIANTO
 70
0
 62
7
  6
CONTINUOUS
370
-3
390
F
  0
LAYER
  5
20C
100
AcDbSymbolTableRecord
100
AcDbLayerTableRecord
  2
IMPORTED
 70
0
 62
7
  6
CONTINUOUS
370
-3
390
F
  0
LAYER
  5
20D
100
AcDbSymbolTableRecord
100
AcDbLayerTableRecord
  2
IMPORT_IGES
 70
0
 62
7
  6
CONTINUOUS
370
-3
390
F
  0
LAYER
  5
20E
100
AcDbSymbolTableRecord
100
AcDbLayerTableRecord
  2
INCISIONI_LASER
 70
0
 62
7
  6
CONTINUOUS
370
-3
390
F
  0
LAYER
  5
20F
100
AcDbSymbolTableRecord
100
AcDbLayerTableRecord
  2
INTFCLR_3
 70
0
 62
7
  6
CONTINUOUS
370
-3
390
F
  0
LAYER
  5
210
100
AcDbSymbolTableRecord
100
AcDbLayerTableRecord
  2
INTF_1
 70
0
 62
7
  6
CONTINUOUS
370
-3
390
F
  0
LAYER
  5
211
100
AcDbSymbolTableRecord
100
AcDbLayerTableRecord
  2
INTF_11
 70
0
 62
7
  6
CONTINUOUS
370
-3
390
F
  0
LAYER
  5
212
100
AcDbSymbolTableRecord
100
AcDbLayerTableRecord
  2
INTF_12
 70
0
 62
7
  6
CONTINUOUS
370
-3
390
F
  0
LAYER
  5
213
100
AcDbSymbolTableRecord
100
AcDbLayerTableRecord
  2
INTF_16
 70
0
 62
7
  6
CONTINUOUS
370
-3
390
F
  0
LAYER
  5
214
100
AcDbSymbolTableRecord
100
AcDbLayerTableRecord
  2
INTF_2
 70
0
 62
7
  6
CONTINUOUS
370
-3
390
F
  0
LAYER
  5
215
100
AcDbSymbolTableRecord
100
AcDbLayerTableRecord
  2
INTF_6
 70
0
 62
7
  6
CONTINUOUS
370
-3
390
F
  0
LAYER
  5
216
100
AcDbSymbolTableRecord
100
AcDbLayerTableRecord
  2
INTF_YELLOW
 70
0
 62
7
  6
CONTINUOUS
370
-3
390
F
  0
LAYER
  5
217
100
AcDbSymbolTableRecord
100
AcDbLayerTableRecord
  2
NOTE
 70
0
 62
7
  6
CONTINUOUS
370
-3
390
F
  0
LAYER
  5
218
100
AcDbSymbolTableRecord
100
AcDbLayerTableRecord
  2
PIANI
 70
0
 62
7
  6
CONTINUOUS
370
-3
390
F
  0
LAYER
  5
219
100
AcDbSymbolTableRecord
100
AcDbLayerTableRecord
  2
PIANI_ORIGINE
 70
0
 62
7
  6
CONTINUOUS
370
-3
390
F
  0
LAYER
  5
21A
100
AcDbSymbolTableRecord
100
AcDbLayerTableRecord
  2
PIANI_RIFERIMENTO
 70
0
 62
7
  6
CONTINUOUS
370
-3
390
F
  0
LAYER
  5
21B
100
AcDbSymbolTableRecord
100
AcDbLayerTableRecord
  2
PIANI_SFORMO
 70
0
 62
7
  6
CONTINUOUS
370
-3
390
F
  0
LAYER
  5
21C
100
AcDbSymbolTableRecord
100
AcDbLayerTableRecord
  2
PUNTI
 70
0
 62
7
  6
CONTINUOUS
370
-3
390
F
  0
LAYER
  5
21D
100
AcDbSymbolTableRecord
100
AcDbLayerTableRecord
  2
RACCORDO
 70
0
 62
7
  6
CONTINUOUS
370
-3
390
F
  0
LAYER
  5
21E
100
AcDbSymbolTableRecord
100
AcDbLayerTableRecord
  2
RGB__255__255__255__
 70
0
 62
7
  6
CONTINUOUS
370
-3
390
F
  0
LAYER
  5
21F
100
AcDbSymbolTableRecord
100
AcDbLayerTableRecord
  2
RINTRACCIABILITA
 70
0
 62
7
  6
CONTINUOUS
370
-3
390
F
  0
LAYER
  5
220
100
AcDbSymbolTableRecord
100
AcDbLayerTableRecord
  2
SIMBOLI
 70
0
 62
7
  6
CONTINUOUS
370
-3
390
F
  0
LAYER
  5
221
100
AcDbSymbolTableRecord
100
AcDbLayerTableRecord
  2
SMUSSO
 70
0
 62
7
  6
CONTINUOUS
370
-3
390
F
  0
LAYER
  5
222
100
AcDbSymbolTableRecord
100
AcDbLayerTableRecord
  2
SUPERFICI
 70
0
 62
7
  6
CONTINUOUS
370
-3
390
F
  0
LAYER
  5
223
100
AcDbSymbolTableRecord
100
AcDbLayerTableRecord
  2
TRASH
 70
0
 62
7
  6
CONTINUOUS
370
-3
390
F
  0
LAYER
  5
224
100
AcDbSymbolTableRecord
100
AcDbLayerTableRecord
  2
XSEC_DATUMS
 70
0
 62
7
  6
CONTINUOUS
370
-3
390
F
  0
ENDTAB
  0
TABLE
  2
STYLE
  5
3
100
AcDbSymbolTable
 70
1
  0
STYLE
  5
11
100
AcDbSymbolTableRecord
100
AcDbTextStyleTableRecord
  2
STANDARD
 70
0
 40
0.0
 41
0.8
 50
0.0
 71
0
 42
0.2
  3
txt
  4

  0
STYLE
  5
225
100
AcDbSymbolTableRecord
100
AcDbTextStyleTableRecord
  2
TEXTSTYLE_1
 70
0
 40
0.0
 41
0.8
 50
0.0
 71
0
 42
0.2
  3
gdt
  4

  0
ENDTAB
  0
TABLE
  2
VIEW
  5
6
100
AcDbSymbolTable
 70
0
  0
ENDTAB
  0
TABLE
  2
UCS
  5
7
100
AcDbSymbolTable
 70
0
  0
ENDTAB
  0
TABLE
  2
APPID
  5
9
100
AcDbSymbolTable
 70
1
  0
APPID
  5
226
100
AcDbSymbolTableRecord
100
AcDbRegAppTableRecord
  2
ACAD
 70
0
  0
ENDTAB
  0
TABLE
  2
BLOCK_RECORD
  5
1
100
AcDbSymbolTable
 70
0
  0
BLOCK_RECORD
  5
227
100
AcDbSymbolTableRecord
100
AcDbBlockTableRecord
  2
*Model_Space
  0
BLOCK_RECORD
  5
228
100
AcDbSymbolTableRecord
100
AcDbBlockTableRecord
  2
*Paper_Space
  0
BLOCK_RECORD
  5
229
100
AcDbSymbolTableRecord
100
AcDbBlockTableRecord
  2
_FILLED
  0
ENDTAB
  0
TABLE
  2
DIMSTYLE
  5
A
100
AcDbSymbolTable
 70
1
100
AcDbDimStyleTable
 71
0
  0
DIMSTYLE
105
22A
100
AcDbSymbolTableRecord
100
AcDbDimStyleTableRecord
  2
STANDARD
 70
0
  3

  4

 40
1.0
 41
3.0
 42
0.5
 43
0.38
 44
1.5
 45
0.0
 46
0.0
 47
0.01
 48
0.01
140
3.0
141
0.09
142
0.0
143
25.4
144
1.0
145
0.0
146
1.0
147
0.625
 71
1
 72
0
 73
0
 74
0
 75
0
 76
0
 77
1
 78
8
 79
2
170
0
171
1
172
0
173
0
174
0
175
0
176
0
177
0
178
0
270
2
179
2
271
2
272
2
273
2
274
2
275
0
280
0
281
0
282
0
283
1
284
8
285
0
286
0
287
3
288
0
340
11
278
44
341
229
342
229
343
229
344
229
  0
ENDTAB
  0
ENDSEC
  0
SECTION
  2
BLOCKS
  0
BLOCK
  5
20
100
AcDbEntity
  8
0
100
AcDbBlockBegin
  2
*Model_Space
 70
0
 10
0.0
 20
0.0
 30
0.0
  3
*Model_Space
  1

  0
ENDBLK
  5
21
100
AcDbEntity
  8
0
100
AcDbBlockEnd
  0
BLOCK
  5
1C
100
AcDbEntity
  8
0
100
AcDbBlockBegin
  2
*Paper_Space
 70
0
 10
0.0
 20
0.0
 30
0.0
  3
*Paper_Space
  1

  0
ENDBLK
  5
1D
100
AcDbEntity
  8
0
100
AcDbBlockEnd
  0
BLOCK
  5
22B
100
AcDbEntity
  8
0
100
AcDbBlockBegin
  2
_FILLED
 70
64
 10
0.0
 20
0.0
  3
_FILLED
  1

  0
SOLID
  5
22C
100
AcDbEntity
  8
0
  6
BYBLOCK
 62
0
100
AcDbTrace
 10
0.0
 20
0.0
 11
-1.0
 21
0.3166666667
 12
-1.0
 22
-0.3166666667
 13
-1.0
 23
-0.3166666667
  0
ENDBLK
  5
22D
100
AcDbEntity
  8
0
  6
BYBLOCK
 62
0
100
AcDbBlockEnd
  0
ENDSEC
  0
SECTION
  2
ENTITIES
  0
LWPOLYLINE
  5
22E
100
AcDbEntity
  8
RACCORDO
100
AcDbPolyline
 62
250
  6
CONTINUOUS
 90
4
 70
0
 10
-17.6788195574
 20
26.0588382942
 10
-17.6254638804
 20
26.0974167777
 10
-17.571575163
 20
26.1311141409
 10
-17.5174815476
 20
26.1597297337
  0
LWPOLYLINE
  5
22F
100
AcDbEntity
  8
0
100
AcDbPolyline
 62
7
  6
CONTINUOUS
 90
10
 70
0
 10
-14.292367777
 20
29.5691205827
 10
-14.3203690027
 20
29.5523604051
 10
-14.3463526319
 20
29.5317311743
 10
-14.3696390387
 20
29.507530779
 10
-14.3895846049
 20
29.4802476942
 10
-14.4057151093
 20
29.4504206164
 10
-14.4177136622
 20
29.4185097127
 10
-14.4253208739
 20
29.3848643578
 10
-14.4282247534
 20
29.3504865379
 10
-14.4282536692
 20
29.3467010602
  0
LINE
  5
230
100
AcDbEntity
  8
0
100
AcDbLine
 62
7
  6
CONTINUOUS
 10
-14.4031719687
 20
28.2220814745
 11
-13.8329714547
 21
28.5545606005
  0
LINE
  5
231
100
AcDbEntity
  8
0
100
AcDbLine
 62
250
  6
CONTINUOUS
 10
-14.1692680062
 20
28.2136347321
 11
-13.7252607172
 21
28.4725316495
  0
LWPOLYLINE
  5
232
100
AcDbEntity
  8
RACCORDO
100
AcDbPolyline
 62
7
  6
CONTINUOUS
 90
14
 70
0
 10
-17.7481128984
 20
26.1705462245
 10
-17.8128200123
 20
26.1352043726
 10
-17.8818663257
 20
26.0896309165
 10
-17.9481735011
 20
26.0373744297
 10
-18.0113608535
 20
25.9788089703
 10
-18.0706103182
 20
25.9148249755
 10
-18.1259054386
 20
25.8455813478
 10
-18.1770300064
 20
25.7713388878
 10
-18.2230270019
 20
25.6934903529
 10
-18.2638019893
 20
25.6123600229
 10
-18.2991374729
 20
25.5282199404
 10
-18.3283353055
 20
25.4426834225
 10
-18.3512009161
 20
25.3564529467
 10
-18.3679202625
 20
25.2680112534
  0
LINE
  5
233
100
AcDbEntity
  8
0
100
AcDbLine
 62
7
  6
CONTINUOUS
 10
-14.292367777
 20
29.5691205827
 11
-12.709196082
 21
30.38131763
  0
LINE
  5
234
100
AcDbEntity
  8
0
100
AcDbLine
 62
250
  6
CONTINUOUS
 10
-14.1792821108
 20
29.5626726076
 11
-12.5965255077
 21
30.3746567049
  0
LINE
  5
235
100
AcDbEntity
  8
0
100
AcDbLine
 62
7
  6
CONTINUOUS
 10
-12.7091941123
 20
30.3813186405
 11
-12.7074576949
 21
30.3821868636
  0
LWPOLYLINE
  5
236
100
AcDbEntity
  8
0
100
AcDbPolyline
 62
250
  6
CONTINUOUS
 90
16
 70
0
 10
-14.292367777
 20
29.5691205827
 10
-14.2889700527
 20
29.5707782071
 10
-14.2822248317
 20
29.5735907549
 10
-14.2752440928
 20
29.5758893083
 10
-14.2680436488
 20
29.5776686607
 10
-14.2606398104
 20
29.5789247814
 10
-14.253049349
 20
29.579654825
 10
-14.2452894585
 20
29.5798571379
 10
-14.237377717
 20
29.5795312616
 10
-14.2293320463
 20
29.5786779345
 10
-14.2211706717
 20
29.5772990894
 10
-14.2129120804
 20
29.5753978498
 10
-14.20457498
 20
29.5729785224
 10
-14.196178256
 20
29.5700465876
 10
-14.1877409288
 20
29.5666086868
 10
-14.1792821108
 20
29.5626726076
  0
LINE
  5
237
100
AcDbEntity
  8
0
100
AcDbLine
 62
7
  6
CONTINUOUS
 10
-12.7074549309
 20
30.38218821
 11
-12.1725877401
 21
30.6427389625
  0
LINE
  5
238
100
AcDbEntity
  8
0
100
AcDbLine
 62
250
  6
CONTINUOUS
 10
-12.5965255077
 20
30.3746567049
 11
-12.062075629
 21
30.6350041715
  0
LWPOLYLINE
  5
239
100
AcDbEntity
  8
0
100
AcDbPolyline
 62
7
  6
CONTINUOUS
 90
16
 70
0
 10
-12.7074576949
 20
30.3821868636
 10
-12.7058000686
 20
30.382974371
 10
-12.6990645798
 20
30.385781909
 10
-12.6920968405
 20
30.3880737705
 10
-12.6849125835
 20
30.3898447904
 10
-12.6775280678
 20
30.3910909654
 10
-12.6699601135
 20
30.3918094306
 10
-12.662225792
 20
30.3919985957
 10
-12.6543425861
 20
30.3916580524
 10
-12.6463284866
 20
30.3907885108
 10
-12.6382015562
 20
30.3893919878
 10
-12.6299801452
 20
30.3874716779
 10
-12.6216830484
 20
30.3850318512
 10
-12.6133290551
 20
30.3820780403
 10
-12.6049369059
 20
30.3786170273
 10
-12.5965255077
 20
30.3746567049
  0
LWPOLYLINE
  5
23A
100
AcDbEntity
  8
0
100
AcDbPolyline
 62
250
  6
CONTINUOUS
 90
16
 70
0
 10
-12.1725877289
 20
30.642738968
 10
-12.1709150167
 20
30.6435334121
 10
-12.1641880864
 20
30.6463350666
 10
-12.1572321048
 20
30.6486193476
 10
-12.1500627629
 20
30.6503810891
 10
-12.1426963671
 20
30.6516162712
 10
-12.1351497702
 20
30.652322081
 10
-12.1274401841
 20
30.6524969502
 10
-12.1195849849
 20
30.6521405251
 10
-12.1116018262
 20
30.6512536212
 10
-12.1035075786
 20
30.6498379971
 10
-12.0953217679
 20
30.6478969534
 10
-12.0870665016
 20
30.6454360564
 10
-12.078761746
 20
30.6424620069
 10
-12.0704251645
 20
30.6389818744
 10
-12.062075629
 20
30.6350041715
  0
LINE
  5
23B
100
AcDbEntity
  8
0
100
AcDbLine
 62
7
  6
CONTINUOUS
 10
-12.1648345411
 20
30.6463528721
 11
-12.1727518799
 21
30.6426588064
  0
LINE
  5
23C
100
AcDbEntity
  8
0
100
AcDbLine
 62
7
  6
CONTINUOUS
 10
-10.7226895459
 20
27.6190853761
 11
-11.6127497286
 21
27.1224044548
  0
LINE
  5
23D
100
AcDbEntity
  8
0
100
AcDbLine
 62
7
  6
CONTINUOUS
 10
-8.7427905586
 20
28.0147765285
 11
-9.79727999
 21
27.4738034898
  0
LINE
  5
23E
100
AcDbEntity
  8
0
100
AcDbLine
 62
250
  6
CONTINUOUS
 10
-12.5007440404
 20
28.7234035724
 11
-10.8994632496
 21
29.5261255759
  0
LINE
  5
23F
100
AcDbEntity
  8
0
100
AcDbLine
 62
250
  6
CONTINUOUS
 10
-12.3239703367
 20
28.4185140335
 11
-10.7226895459
 21
29.221236037
  0
LINE
  5
240
100
AcDbEntity
  8
0
100
AcDbLine
 62
250
  6
CONTINUOUS
 10
-10.8994632496
 20
29.5261255759
 11
-10.3711960778
 21
29.7895643959
  0
LINE
  5
241
100
AcDbEntity
  8
0
100
AcDbLine
 62
250
  6
CONTINUOUS
 10
-10.7226895459
 20
29.221236037
 11
-10.1944223742
 21
29.4846748571
  0
LINE
  5
242
100
AcDbEntity
  8
0
100
AcDbLine
 62
7
  6
CONTINUOUS
 10
-9.1378701156
 20
27.1440985526
 11
-8.2827669168
 21
27.5702925428
  0
LINE
  5
243
100
AcDbEntity
  8
RACCORDO
100
AcDbLine
 62
7
  6
CONTINUOUS
 10
-17.7481732996
 20
26.1705299679
 11
-15.0130199027
 21
27.5215770303
  0
LINE
  5
244
100
AcDbEntity
  8
RACCORDO
100
AcDbLine
 62
250
  6
CONTINUOUS
 10
-17.5174815476
 20
26.1597297337
 11
-14.7859284993
 21
27.5089983802
  0
LINE
  5
245
100
AcDbEntity
  8
0
100
AcDbLine
 62
7
  6
CONTINUOUS
 10
-7.4027381838
 20
28.0327618917
 11
-2.7900953279
 21
30.3059840816
  0
LINE
  5
246
100
AcDbEntity
  8
0
100
AcDbLine
 62
7
  6
CONTINUOUS
 10
-3.4065671526
 20
30.614219994
 11
-8.7427905586
 21
28.0147765285
  0
LINE
  5
247
100
AcDbEntity
  8
0
100
AcDbLine
 62
7
  6
CONTINUOUS
 10
-2.8983577762
 20
31.4337562571
 11
-10.0196965916
 21
27.9696572917
  0
LWPOLYLINE
  5
248
100
AcDbEntity
  8
RACCORDO
100
AcDbPolyline
 62
250
  6
CONTINUOUS
 90
8
 70
0
 10
-17.7481182793
 20
26.1705571353
 10
-17.7323456642
 20
26.1775358755
 10
-17.6999891357
 20
26.1873270336
 10
-17.6657360694
 20
26.192027019
 10
-17.6299614219
 20
26.1915843825
 10
-17.5930568064
 20
26.1860039694
 10
-17.5554262052
 20
26.1753468666
 10
-17.5174815476
 20
26.1597297337
  0
LWPOLYLINE
  5
249
100
AcDbEntity
  8
0
100
AcDbPolyline
 62
7
  6
CONTINUOUS
 90
3
 70
0
 10
-3.373364455
 20
30.6285013987
 10
-3.3625122571
 20
30.6322036799
 10
-3.3512788365
 20
30.6353261281
  0
LWPOLYLINE
  5
24A
100
AcDbEntity
  8
0
100
AcDbPolyline
 62
7
  6
CONTINUOUS
 90
7
 70
0
 10
-10.1790618018
 20
29.0663081738
 10
-10.1601419079
 20
29.0926493912
 10
-10.1447854843
 20
29.1212303638
 10
-10.1332571405
 20
29.15156808
 10
-10.125744138
 20
29.1832138456
 10
-10.1224023085
 20
29.2155891977
 10
-10.1222245181
 20
29.2250052696
  0
LINE
  5
24B
100
AcDbEntity
  8
0
100
AcDbLine
 62
250
  6
CONTINUOUS
 10
-10.7226895459
 20
28.4941911846
 11
-10.1944223742
 21
29.1371433403
  0
LINE
  5
24C
100
AcDbEntity
  8
0
100
AcDbLine
 62
7
  6
CONTINUOUS
 10
-10.7226895459
 20
28.4046607182
 11
-10.1790618018
 21
29.0663081738
  0
LINE
  5
24D
100
AcDbEntity
  8
0
100
AcDbLine
 62
7
  6
CONTINUOUS
 10
-9.1378701156
 20
25.6979357868
 11
-8.424592507
 21
26.0937902319
  0
LINE
  5
24E
100
AcDbEntity
  8
0
100
AcDbLine
 62
7
  6
CONTINUOUS
 10
-6.3032721635
 20
25.4093766849
 11
-6.5185003345
 21
25.2899294638
  0
LINE
  5
24F
100
AcDbEntity
  8
0
100
AcDbLine
 62
250
  6
CONTINUOUS
 10
-4.9661096796
 20
25.9043013813
 11
-4.9587353974
 21
25.9082767831
  0
LINE
  5
250
100
AcDbEntity
  8
0
100
AcDbLine
 62
7
  6
CONTINUOUS
 10
-4.83793494
 20
26.022448848
 11
-5.0496219668
 21
25.9132200816
  0
LINE
  5
251
100
AcDbEntity
  8
0
100
AcDbLine
 62
250
  6
CONTINUOUS
 10
-4.7476390398
 20
26.0172007691
 11
-4.9587353974
 21
25.9082767831
  0
LINE
  5
252
100
AcDbEntity
  8
0
100
AcDbLine
 62
7
  6
CONTINUOUS
 10
-5.606586258
 20
25.7593460037
 11
-6.3032721635
 21
25.4093766849
  0
LINE
  5
253
100
AcDbEntity
  8
0
100
AcDbLine
 62
250
  6
CONTINUOUS
 10
-6.4446917248
 20
26.8657271116
 11
-5.7577899394
 21
27.2102877695
  0
LINE
  5
254
100
AcDbEntity
  8
0
100
AcDbLine
 62
250
  6
CONTINUOUS
 10
-6.3032721635
 20
26.6218181125
 11
-5.6151469623
 21
26.9669924548
  0
LINE
  5
255
100
AcDbEntity
  8
0
100
AcDbLine
 62
7
  6
CONTINUOUS
 10
-2.0725712368
 20
28.3327229279
 11
-0.9806882746
 21
28.878664409
  0
LINE
  5
256
100
AcDbEntity
  8
0
100
AcDbLine
 62
7
  6
CONTINUOUS
 10
-4.8362311521
 20
26.0233008459
 11
-4.8379324548
 21
26.0224501304
  0
LINE
  5
257
100
AcDbEntity
  8
0
100
AcDbLine
 62
250
  6
CONTINUOUS
 10
-6.6595049389
 20
26.7586615539
 11
-6.4446917248
 21
26.8657271116
  0
LINE
  5
258
100
AcDbEntity
  8
0
100
AcDbLine
 62
250
  6
CONTINUOUS
 10
-6.5185003345
 20
26.5145457351
 11
-6.3032721635
 21
26.6218181125
  0
LINE
  5
259
100
AcDbEntity
  8
0
100
AcDbLine
 62
7
  6
CONTINUOUS
 10
-3.0651360599
 20
28.7749942218
 11
-2.6536704913
 21
28.9777744262
  0
LINE
  5
25A
100
AcDbEntity
  8
0
100
AcDbLine
 62
7
  6
CONTINUOUS
 10
0.0608781632
 20
29.9541382873
 11
-2.0742574406
 21
28.9018917153
  0
LINE
  5
25B
100
AcDbEntity
  8
0
100
AcDbLine
 62
7
  6
CONTINUOUS
 10
-4.1369539471
 20
26.3619502507
 11
-4.8362293842
 21
26.0233017027
  0
LINE
  5
25C
100
AcDbEntity
  8
0
100
AcDbLine
 62
250
  6
CONTINUOUS
 10
-4.0486427048
 20
26.3557141522
 11
-4.7476390398
 21
26.0172007691
  0
LINE
  5
25D
100
AcDbEntity
  8
RACCORDO
100
AcDbLine
 62
7
  6
CONTINUOUS
 10
-2.9271280085
 20
27.7469523642
 11
-3.0652428107
 21
27.6817152789
  0
LINE
  5
25E
100
AcDbEntity
  8
RACCORDO
100
AcDbLine
 62
250
  6
CONTINUOUS
 10
-2.843594002
 20
27.7384532775
 11
-2.9798702911
 21
27.6740845947
  0
LWPOLYLINE
  5
25F
100
AcDbEntity
  8
RACCORDO
100
AcDbPolyline
 62
250
  6
CONTINUOUS
 90
11
 70
0
 10
-2.0101278791
 20
27.7922732507
 10
-2.0010354186
 20
27.7963637018
 10
-1.9919767443
 20
27.799720487
 10
-1.9829896227
 20
27.8023274591
 10
-1.974108435
 20
27.8041720632
 10
-1.9653739707
 20
27.8052432089
 10
-1.9568326223
 20
27.8055342229
 10
-1.9485157969
 20
27.8050437289
 10
-1.9404625729
 20
27.8037737165
 10
-1.9327265926
 20
27.8017362003
 10
-1.9253529498
 20
27.7989528314
  0
LINE
  5
260
100
AcDbEntity
  8
RACCORDO
100
AcDbLine
 62
7
  6
CONTINUOUS
 10
-2.9270744931
 20
27.7469776417
 11
-2.9238664529
 21
27.7483932713
  0
LWPOLYLINE
  5
261
100
AcDbEntity
  8
RACCORDO
100
AcDbPolyline
 62
7
  6
CONTINUOUS
 90
5
 70
0
 10
-3.0653612793
 20
27.6816583766
 10
-3.0605181146
 20
27.6837160009
 10
-3.0530917547
 20
27.6860338634
 10
-3.0449453366
 20
27.687566228
 10
-3.0360270016
 20
27.6882171417
  0
LINE
  5
262
100
AcDbEntity
  8
DRAFT
100
AcDbLine
 62
7
  6
CONTINUOUS
 10
-8.2318001032
 20
24.3842758851
 11
-8.3974361301
 21
24.3147521956
  0
LINE
  5
263
100
AcDbEntity
  8
RACCORDO
100
AcDbLine
 62
7
  6
CONTINUOUS
 10
-2.8540258631
 20
27.7744944085
 11
-2.9238668142
 21
27.7483931011
  0
LINE
  5
264
100
AcDbEntity
  8
RACCORDO
100
AcDbLine
 62
7
  6
CONTINUOUS
 10
-2.778986753
 20
27.7974219736
 11
-2.8540258631
 21
27.7744944085
  0
LWPOLYLINE
  5
265
100
AcDbEntity
  8
RACCORDO
100
AcDbPolyline
 62
7
  6
CONTINUOUS
 90
6
 70
0
 10
-2.9238664529
 20
27.7483932713
 10
-2.9106381783
 20
27.7523352963
 10
-2.8948545582
 20
27.7536739317
 10
-2.8782172256
 20
27.7517801065
 10
-2.8610286246
 20
27.7466788976
 10
-2.843594002
 20
27.7384532775
  0
LINE
  5
266
100
AcDbEntity
  8
RACCORDO
100
AcDbLine
 62
7
  6
CONTINUOUS
 10
-18.3679052202
 20
25.2681117401
 11
-18.3679202625
 21
25.2680112534
  0
LWPOLYLINE
  5
267
100
AcDbEntity
  8
RACCORDO
100
AcDbPolyline
 62
250
  6
CONTINUOUS
 90
16
 70
0
 10
-18.2199070817
 20
25.107028572
 10
-18.2070098772
 20
25.1788238206
 10
-18.1900790182
 20
25.2512540933
 10
-18.1692175216
 20
25.323884674
 10
-18.1445541315
 20
25.3962814787
 10
-18.1162370771
 20
25.4680086909
 10
-18.084433488
 20
25.5386314506
 10
-18.049338889
 20
25.6077254775
 10
-18.0111655813
 20
25.6748784992
 10
-17.9701356328
 20
25.7396874722
 10
-17.9264993425
 20
25.801764891
 10
-17.8805213706
 20
25.86073907
 10
-17.8324683333
 20
25.9162545849
 10
-17.7826312119
 20
25.9679807448
 10
-17.7313141159
 20
26.0156061343
 10
-17.6788195574
 20
26.0588382942
  0
LWPOLYLINE
  5
268
100
AcDbEntity
  8
0
100
AcDbPolyline
 62
250
  6
CONTINUOUS
 90
30
 70
0
 10
-12.3239703367
 20
28.0785400994
 10
-12.3283908622
 20
28.0676486046
 10
-12.3331980575
 20
28.0569823358
 10
-12.3383810731
 20
28.046565366
 10
-12.3439282112
 20
28.0364212057
 10
-12.3498269522
 20
28.0265727498
 10
-12.356063983
 20
28.0170422256
 10
-12.3626252271
 20
28.007851143
 10
-12.369495876
 20
27.9990202455
 10
-12.3766604232
 20
27.9905694642
 10
-12.3841026986
 20
27.9825178719
 10
-12.3918059055
 20
27.9748836405
 10
-12.3997526583
 20
27.9676840001
 10
-12.4079250215
 20
27.9609351999
 10
-12.4163045506
 20
27.9546524714
 10
-12.4248723335
 20
27.9488499945
 10
-12.4336090332
 20
27.9435408649
 10
-12.4424949316
 20
27.9387370651
 10
-12.4515099736
 20
27.9344494369
 10
-12.4606338129
 20
27.9306876573
 10
-12.4698458575
 20
27.9274602165
 10
-12.4791253164
 20
27.9247743984
 10
-12.4884512462
 20
27.922636265
 10
-12.4978025991
 20
27.9210506417
 10
-12.5071582695
 20
27.9200211073
 10
-12.5164971423
 20
27.9195499854
 10
-12.5257981401
 20
27.9196383393
 10
-12.5350402711
 20
27.9202859695
 10
-12.5442026765
 20
27.9214914144
 10
-12.5508138303
 20
27.9227189386
  0
LINE
  5
269
100
AcDbEntity
  8
RACCORDO
100
AcDbLine
 62
7
  6
CONTINUOUS
 10
-3.0799740092
 20
27.6720388477
 11
-5.3097069537
 21
25.7205898597
  0
LINE
  5
26A
100
AcDbEntity
  8
RACCORDO
100
AcDbLine
 62
250
  6
CONTINUOUS
 10
-2.9805291655
 20
27.6744140319
 11
-4.9113607496
 21
25.9845617336
  0
LINE
  5
26B
100
AcDbEntity
  8
RACCORDO
100
AcDbLine
 62
250
  6
CONTINUOUS
 10
-5.15411206
 20
25.7721072331
 11
-5.2481459318
 21
25.6898093487
  0
LWPOLYLINE
  5
26C
100
AcDbEntity
  8
RACCORDO
100
AcDbPolyline
 62
7
  6
CONTINUOUS
 90
5
 70
0
 10
-3.0800712481
 20
27.6719532492
 10
-3.0789904448
 20
27.6728847698
 10
-3.0734420801
 20
27.6770675061
 10
-3.0672876201
 20
27.6807051547
 10
-3.0653612793
 20
27.6816583766
  0
LINE
  5
26D
100
AcDbEntity
  8
RACCORDO
100
AcDbLine
 62
250
  6
CONTINUOUS
 10
-3.8554014814
 20
26.2590935405
 11
-2.9548019438
 21
26.9650765925
  0
LINE
  5
26E
100
AcDbEntity
  8
RACCORDO
100
AcDbLine
 62
250
  6
CONTINUOUS
 10
-3.5775118184
 20
26.120148709
 11
-2.7819948138
 21
26.7437572047
  0
LWPOLYLINE
  5
26F
100
AcDbEntity
  8
RACCORDO
100
AcDbPolyline
 62
250
  6
CONTINUOUS
 90
16
 70
0
 10
-2.9548019438
 20
26.9650765925
 10
-2.9136230245
 20
26.9946227225
 10
-2.8704276522
 20
27.0212328586
 10
-2.8252158268
 20
27.044907001
 10
-2.7774388588
 20
27.065801969
 10
-2.7276454377
 20
27.0837609433
 10
-2.6774816325
 20
27.0983134655
 10
-2.6269758415
 20
27.1093319635
 10
-2.5760996664
 20
27.1169440096
 10
-2.5264139811
 20
27.1210618614
 10
-2.4780590267
 20
27.1216000569
 10
-2.4308945621
 20
27.1186440582
 10
-2.3860607371
 20
27.1123625101
 10
-2.3439376018
 20
27.1028116273
 10
-2.3041451061
 20
27.0899351951
 10
-2.26668325
 20
27.0737332134
  0
LINE
  5
270
100
AcDbEntity
  8
0
100
AcDbLine
 62
7
  6
CONTINUOUS
 10
-3.3354734194
 20
25.0966457941
 11
-4.1757809925
 21
24.663053991
  0
LINE
  5
271
100
AcDbEntity
  8
0
100
AcDbLine
 62
7
  6
CONTINUOUS
 10
-2.449540206
 20
24.8681513522
 11
-3.5163711182
 21
24.3333490539
  0
LINE
  5
272
100
AcDbEntity
  8
0
100
AcDbLine
 62
7
  6
CONTINUOUS
 10
2.8249518631
 20
27.4984604861
 11
-2.449540206
 21
24.8681513522
  0
LINE
  5
273
100
AcDbEntity
  8
0
100
AcDbLine
 62
7
  6
CONTINUOUS
 10
-2.449540206
 20
23.4825107061
 11
2.8577704601
 21
26.1291859762
  0
LINE
  5
274
100
AcDbEntity
  8
0
100
AcDbLine
 62
7
  6
CONTINUOUS
 10
2.2084800384
 20
27.8066963985
 11
-2.4036944604
 21
25.53324003
  0
LINE
  5
275
100
AcDbEntity
  8
0
100
AcDbLine
 62
7
  6
CONTINUOUS
 10
2.9886053113
 20
27.1768707234
 11
4.3113677729
 21
27.8288934825
  0
LWPOLYLINE
  5
276
100
AcDbEntity
  8
0
100
AcDbPolyline
 62
250
  6
CONTINUOUS
 90
16
 70
0
 10
-1.9887097843
 20
23.4172915864
 10
-1.9853120601
 20
23.4189492108
 10
-1.9785668391
 20
23.4217617585
 10
-1.9715861001
 20
23.424060312
 10
-1.9643856562
 20
23.4258396644
 10
-1.9569818178
 20
23.4270957851
 10
-1.9493913563
 20
23.4278258287
 10
-1.9416314659
 20
23.4280281415
 10
-1.9337197244
 20
23.4277022653
 10
-1.9256740537
 20
23.4268489381
 10
-1.917512679
 20
23.4254700931
 10
-1.9092540877
 20
23.4235688535
 10
-1.9009169874
 20
23.4211495261
 10
-1.8925202634
 20
23.4182175913
 10
-1.8840829362
 20
23.4147796904
 10
-1.8756241182
 20
23.4108436112
  0
LINE
  5
277
100
AcDbEntity
  8
0
100
AcDbLine
 62
7
  6
CONTINUOUS
 10
-0.4037969383
 20
24.2303592136
 11
0.1310702526
 21
24.4909099662
  0
LINE
  5
278
100
AcDbEntity
  8
0
100
AcDbLine
 62
250
  6
CONTINUOUS
 10
-0.292867515
 20
24.2228277086
 11
0.2415823637
 21
24.4831751751
  0
LWPOLYLINE
  5
279
100
AcDbEntity
  8
0
100
AcDbPolyline
 62
250
  6
CONTINUOUS
 90
3
 70
0
 10
0.1310702526
 20
24.4909099662
 10
0.132725789
 20
24.4916964583
 10
0.1394513078
 20
24.494499155
  0
LWPOLYLINE
  5
27A
100
AcDbEntity
  8
0
100
AcDbPolyline
 62
7
  6
CONTINUOUS
 90
16
 70
0
 10
-0.4037997022
 20
24.2303578672
 10
-0.402142076
 20
24.2311453747
 10
-0.3954065871
 20
24.2339529126
 10
-0.3884388479
 20
24.2362447742
 10
-0.3812545909
 20
24.238015794
 10
-0.3738700752
 20
24.2392619691
 10
-0.3663021209
 20
24.2399804343
 10
-0.3585677993
 20
24.2401695994
 10
-0.3506845934
 20
24.2398290561
 10
-0.3426704939
 20
24.2389595145
 10
-0.3345435636
 20
24.2375629915
 10
-0.3263221525
 20
24.2356426816
 10
-0.3180250558
 20
24.2332028549
 10
-0.3096710624
 20
24.230249044
 10
-0.3012789133
 20
24.226788031
 10
-0.292867515
 20
24.2228277086
  0
LINE
  5
27B
100
AcDbEntity
  8
RACCORDO
100
AcDbLine
 62
7
  6
CONTINUOUS
 10
10.5388386176
 20
30.3805892937
 11
4.9063421574
 21
27.7793157738
  0
LINE
  5
27C
100
AcDbEntity
  8
RACCORDO
100
AcDbLine
 62
250
  6
CONTINUOUS
 10
10.9272961002
 20
30.348374958
 11
5.12635628
 21
27.6693087125
  0
LINE
  5
27D
100
AcDbEntity
  8
DRAFT
100
AcDbLine
 62
7
  6
CONTINUOUS
 10
-4.0335927573
 20
22.2851722121
 11
-4.1935379438
 21
22.2128031024
  0
LINE
  5
27E
100
AcDbEntity
  8
RACCORDO
100
AcDbLine
 62
7
  6
CONTINUOUS
 10
-2.7819948138
 20
25.8788386768
 11
-2.9466424008
 21
25.8047140002
  0
LWPOLYLINE
  5
27F
100
AcDbEntity
  8
RACCORDO
100
AcDbPolyline
 62
250
  6
CONTINUOUS
 90
9
 70
0
 10
10.9272961002
 20
30.348374958
 10
10.9813025017
 20
30.3714064739
 10
11.0350225749
 20
30.3886481105
 10
11.0880584193
 20
30.3999128821
 10
11.1400443446
 20
30.4050567987
 10
11.1905455944
 20
30.4039686597
 10
11.2390737306
 20
30.3966132644
 10
11.2852560233
 20
30.383019115
 10
11.3186671137
 20
30.3685092437
  0
LWPOLYLINE
  5
280
100
AcDbEntity
  8
RACCORDO
100
AcDbPolyline
 62
7
  6
CONTINUOUS
 90
12
 70
0
 10
10.5388386176
 20
30.3805892937
 10
10.6044660937
 20
30.4078089432
 10
10.6731649243
 20
30.4300847126
 10
10.7444724069
 20
30.4469840949
 10
10.8180290563
 20
30.4581484194
 10
10.8930570386
 20
30.4632201422
 10
10.9684429961
 20
30.4619992954
 10
11.0436285048
 20
30.4544491604
 10
11.1179859364
 20
30.4406025289
 10
11.1905073078
 20
30.420692912
 10
11.2608593394
 20
30.3949034613
 10
11.3186994683
 20
30.3684930662
  0
LWPOLYLINE
  5
281
100
AcDbEntity
  8
0
100
AcDbPolyline
 62
7
  6
CONTINUOUS
 90
6
 70
0
 10
0.1310702526
 20
24.4909099662
 10
0.1592919449
 20
24.5025817402
 10
0.1891561213
 20
24.5108171837
 10
0.2201576669
 20
24.5153248647
 10
0.2518525052
 20
24.5159027631
 10
0.2835013825
 20
24.5124416652
  0
LWPOLYLINE
  5
282
100
AcDbEntity
  8
RACCORDO
100
AcDbPolyline
 62
250
  6
CONTINUOUS
 90
9
 70
0
 10
10.5388386176
 20
30.3805892937
 10
10.5667512431
 20
30.3919882732
 10
10.6132656562
 20
30.4049673262
 10
10.6620846088
 20
30.4115449195
 10
10.7128367033
 20
30.411671013
 10
10.7651358353
 20
30.4053446476
 10
10.8185841311
 20
30.3926139519
 10
10.8727749745
 20
30.3735757768
 10
10.9272961002
 20
30.348374958
  0
LWPOLYLINE
  5
283
100
AcDbEntity
  8
0
100
AcDbPolyline
 62
250
  6
CONTINUOUS
 90
14
 70
0
 10
0.1394513078
 20
24.494499155
 10
0.1464058468
 20
24.4967846084
 10
0.1535736522
 20
24.4985476415
 10
0.1609384874
 20
24.4997842607
 10
0.1684836695
 20
24.5004916646
 10
0.1761921068
 20
24.5006682508
 10
0.184046338
 20
24.5003136195
 10
0.1920285716
 20
24.4994285738
 10
0.200120726
 20
24.4980151186
 10
0.2083044706
 20
24.4960764556
 10
0.2165612675
 20
24.4936169765
 10
0.2248724131
 20
24.4906422525
 10
0.2332190808
 20
24.4871590219
 10
0.2415823637
 20
24.4831751751
  0
LWPOLYLINE
  5
284
100
AcDbEntity
  8
RACCORDO
100
AcDbPolyline
 62
250
  6
CONTINUOUS
 90
9
 70
0
 10
-19.931441862
 20
-12.0712490136
 10
-19.9308312992
 20
-12.0773275312
 10
-19.924761079
 20
-12.1056364209
 10
-19.9134792315
 20
-12.1331600444
 10
-19.8971053257
 20
-12.1596066973
 10
-19.8758128975
 20
-12.1846960891
 10
-19.8498276115
 20
-12.2081623141
 10
-19.8194248685
 20
-12.2297566692
 10
-19.7849268869
 20
-12.24925029
  0
LINE
  5
285
100
AcDbEntity
  8
RACCORDO
100
AcDbLine
 62
7
  6
CONTINUOUS
 10
-19.9314613409
 20
-12.0710054036
 11
-19.931441862
 21
-12.0712490136
  0
LWPOLYLINE
  5
286
100
AcDbEntity
  8
RACCORDO
100
AcDbPolyline
 62
250
  6
CONTINUOUS
 90
10
 70
0
 10
-19.7849269124
 20
-12.2492503058
 10
-19.8635384969
 20
-11.1711538095
 10
-19.9292735503
 20
-10.0849432215
 10
-19.9821177579
 20
-8.9908452731
 10
-20.0220591437
 20
-7.8890885736
 10
-20.0490893333
 20
-6.7799027522
 10
-20.0632035482
 20
-5.6635184063
 10
-20.0643989303
 20
-4.5401681358
 10
-20.0526745501
 20
-3.4100864988
 10
-20.0280326616
 20
-2.2735091491
  0
LWPOLYLINE
  5
287
100
AcDbEntity
  8
RACCORDO
100
AcDbPolyline
 62
250
  6
CONTINUOUS
 90
9
 70
0
 10
-20.1744899204
 20
-2.0976341357
 10
-20.1734821764
 20
-2.116337695
 10
-20.1675103873
 20
-2.1409858943
 10
-20.1563172983
 20
-2.1653193012
 10
-20.1400214936
 20
-2.189080117
 10
-20.1187956181
 20
-2.2120166094
 10
-20.0928645479
 20
-2.2338857794
 10
-20.0625030078
 20
-2.2544559356
 10
-20.0280326611
 20
-2.2735091488
  0
LWPOLYLINE
  5
288
100
AcDbEntity
  8
RACCORDO
100
AcDbPolyline
 62
250
  6
CONTINUOUS
 90
9
 70
0
 10
-19.4714533693
 20
14.6835505752
 10
-19.4705341152
 20
14.6626975277
 10
-19.4645159337
 20
14.6391566609
 10
-19.4532824119
 20
14.6157883443
 10
-19.4369525626
 20
14.592840152
 10
-19.415699391
 20
14.5705552069
 10
-19.3897480626
 20
14.5491696054
 10
-19.3593735168
 20
14.5289099156
 10
-19.3248975545
 20
14.5099907775
  0
LWPOLYLINE
  5
289
100
AcDbEntity
  8
RACCORDO
100
AcDbPolyline
 62
7
  6
CONTINUOUS
 90
10
 70
0
 10
-20.1744899017
 20
-2.0976339771
 10
-20.1982021506
 20
-3.1773852652
 10
-20.2106524416
 20
-4.3241247886
 10
-20.2098024749
 20
-5.4640428401
 10
-20.1956482811
 20
-6.5968625815
 10
-20.1681916955
 20
-7.7223566777
 10
-20.1274354027
 20
-8.8403168951
 10
-20.0733837139
 20
-9.9505180237
 10
-20.0060489806
 20
-11.052692941
 10
-19.9314613409
 20
-12.0710054036
  0
LWPOLYLINE
  5
28A
100
AcDbEntity
  8
RACCORDO
100
AcDbPolyline
 62
250
  6
CONTINUOUS
 90
10
 70
0
 10
-20.0280326616
 20
-2.2735091491
 10
-19.9744298587
 20
-0.4200589017
 10
-19.9146935574
 20
1.4362958265
 10
-19.8488251976
 20
3.2955217592
 10
-19.7768273481
 20
5.1575602976
 10
-19.6987008266
 20
7.0224032752
 10
-19.614443846
 20
8.8900933296
 10
-19.5240562532
 20
10.7606227172
 10
-19.4275403829
 20
12.6339329414
 10
-19.32489758
 20
14.509990767
  0
LWPOLYLINE
  5
28B
100
AcDbEntity
  8
RACCORDO
100
AcDbPolyline
 62
7
  6
CONTINUOUS
 90
10
 70
0
 10
-19.4714533871
 20
14.6835506847
 10
-19.5710401554
 20
12.864951475
 10
-19.6685882918
 20
10.9746316615
 10
-19.7598983753
 20
9.0870957503
 10
-19.844968401
 20
7.2023825903
 10
-19.9237969107
 20
5.3205244763
 10
-19.9963826062
 20
3.441551174
 10
-20.0627241392
 20
1.5654948818
 10
-20.12282017
 20
-0.3076059029
 10
-20.1744899204
 20
-2.0976341357
  0
LWPOLYLINE
  5
28C
100
AcDbEntity
  8
RACCORDO
100
AcDbPolyline
 62
250
  6
CONTINUOUS
 90
10
 70
0
 10
-19.32489758
 20
14.509990767
 10
-19.253402282
 20
15.6681623138
 10
-19.1690358629
 20
16.8317223354
 10
-19.0718160973
 20
18.0004284139
 10
-18.9617639351
 20
19.1740372377
 10
-18.8389022255
 20
20.3523042215
 10
-18.7032557053
 20
21.53498356
 10
-18.5548526919
 20
22.7218288514
 10
-18.3937250847
 20
23.9125931467
 10
-18.2199070817
 20
25.107028572
  0
LWPOLYLINE
  5
28D
100
AcDbEntity
  8
RACCORDO
100
AcDbPolyline
 62
250
  6
CONTINUOUS
 90
10
 70
0
 10
-18.3679202625
 20
25.2680112534
 10
-18.368457429
 20
25.2632228632
 10
-18.3672569271
 20
25.2440968432
 10
-18.3608234229
 20
25.2244363117
 10
-18.3492250985
 20
25.2044496302
 10
-18.3325848728
 20
25.1843486175
 10
-18.3110790985
 20
25.1643463037
 10
-18.2849356934
 20
25.1446546731
 10
-18.2544317246
 20
25.1254824169
 10
-18.2198904728
 20
25.1070327225
  0
LWPOLYLINE
  5
28E
100
AcDbEntity
  8
RACCORDO
100
AcDbPolyline
 62
7
  6
CONTINUOUS
 90
10
 70
0
 10
-18.3679180427
 20
25.2681136678
 10
-18.5331611905
 20
24.1344354725
 10
-18.6970049692
 20
22.9273030014
 10
-18.8477716437
 20
21.7241139607
 10
-18.9854212337
 20
20.5251596972
 10
-19.1099255733
 20
19.3306815631
 10
-19.2212597703
 20
18.1409018459
 10
-19.3193983054
 20
16.9560602949
 10
-19.4043175434
 20
15.7764419843
 10
-19.4714533693
 20
14.6835505752
  0
LWPOLYLINE
  5
28F
100
AcDbEntity
  8
RACCORDO
100
AcDbPolyline
 62
250
  6
CONTINUOUS
 90
10
 70
0
 10
-2.0101278791
 20
27.7922732507
 10
-2.0048707516
 20
27.7978007562
 10
-1.9996362836
 20
27.8025637138
 10
-1.9944470772
 20
27.8065393423
 10
-1.9893236392
 20
27.8097092433
 10
-1.9842904026
 20
27.8120555715
 10
-1.9793752075
 20
27.8135644226
 10
-1.974597086
 20
27.8142298848
 10
-1.9699788823
 20
27.8140487051
 10
-1.9679395674
 20
27.8136870381
  0
LINE
  5
290
100
AcDbEntity
  8
RACCORDO
100
AcDbLine
 62
250
  6
CONTINUOUS
 10
-1.4571587044
 20
26.2665313169
 11
-1.4902586292
 21
26.2328049352
  0
LWPOLYLINE
  5
291
100
AcDbEntity
  8
RACCORDO
100
AcDbPolyline
 62
250
  6
CONTINUOUS
 90
10
 70
0
 10
-2.26668325
 20
27.0737332134
 10
-2.2857241385
 20
27.0556736483
 10
-2.303572194
 20
27.034963183
 10
-2.3198604904
 20
27.01202759
 10
-2.3342541676
 20
26.9873383867
 10
-2.3464573157
 20
26.9614031417
 10
-2.3562190585
 20
26.9347550402
 10
-2.3633387108
 20
26.9079419226
 10
-2.3676699045
 20
26.8815150216
 10
-2.3691235976
 20
26.85601763
  0
LWPOLYLINE
  5
292
100
AcDbEntity
  8
RACCORDO
100
AcDbPolyline
 62
250
  6
CONTINUOUS
 90
5
 70
0
 10
-1.5082776514
 20
26.6945304141
 10
-1.5273191039
 20
26.6764702197
 10
-1.5451674957
 20
26.6557591594
 10
-1.5614559115
 20
26.6328230994
 10
-1.5758495123
 20
26.6081336508
  0
LWPOLYLINE
  5
293
100
AcDbEntity
  8
RACCORDO
100
AcDbPolyline
 62
250
  6
CONTINUOUS
 90
16
 70
0
 10
-2.7819948138
 20
26.7437572047
 10
-2.7577654784
 20
26.7666202072
 10
-2.7317241502
 20
26.787639519
 10
-2.7041689128
 20
26.8067384716
 10
-2.6753999855
 20
26.8239692555
 10
-2.6457423032
 20
26.8391753262
 10
-2.6155444665
 20
26.8519960953
 10
-2.5851297334
 20
26.8623901051
 10
-2.5548129582
 20
26.8704045157
 10
-2.5249250559
 20
26.8758437321
 10
-2.4958133121
 20
26.8787206251
 10
-2.4677031546
 20
26.8791314894
 10
-2.4407336851
 20
26.8770105491
 10
-2.415129312
 20
26.8723753614
 10
-2.3911819724
 20
26.865347746
 10
-2.3691235976
 20
26.85601763
  0
LINE
  5
294
100
AcDbEntity
  8
RACCORDO
100
AcDbLine
 62
250
  6
CONTINUOUS
 10
-1.4902586292
 20
26.2328049352
 11
-2.0660389285
 21
25.6996789016
  0
LINE
  5
295
100
AcDbEntity
  8
RACCORDO
100
AcDbLine
 62
7
  6
CONTINUOUS
 10
-1.5870590003
 20
26.2326446954
 11
-2.2726684047
 21
25.5978260557
  0
LWPOLYLINE
  5
296
100
AcDbEntity
  8
0
100
AcDbPolyline
 62
7
  6
CONTINUOUS
 90
10
 70
0
 10
-1.9887097843
 20
23.4172915864
 10
-2.01671101
 20
23.4005314088
 10
-2.0426946393
 20
23.379902178
 10
-2.0659810461
 20
23.3557017827
 10
-2.0859266123
 20
23.3284186979
 10
-2.1020571166
 20
23.2985916201
 10
-2.1140556696
 20
23.2666807163
 10
-2.1216628813
 20
23.2330353615
 10
-2.1245667607
 20
23.1986575416
 10
-2.1245956766
 20
23.1948720638
  0
LINE
  5
297
100
AcDbEntity
  8
0
100
AcDbLine
 62
7
  6
CONTINUOUS
 10
-2.449540206
 20
23.4825107061
 11
-3.5163711182
 21
22.8871862881
  0
LWPOLYLINE
  5
298
100
AcDbEntity
  8
0
100
AcDbPolyline
 62
7
  6
CONTINUOUS
 90
13
 70
0
 10
8.8826285451
 20
27.149880188
 10
8.753643727
 20
27.0795264696
 10
8.6347304427
 20
27.004868421
 10
8.5264616093
 20
26.9262657401
 10
8.4293588593
 20
26.8440971299
 10
8.3438900279
 20
26.7587584737
 10
8.2704668988
 20
26.6706609281
 10
8.2094432202
 20
26.5802289416
 10
8.1611130004
 20
26.4878982101
 10
8.1257090916
 20
26.3941135774
 10
8.1034020675
 20
26.2993268922
 10
8.0942994021
 20
26.2039948311
 10
8.0940672803
 20
26.1861299496
  0
LINE
  5
299
100
AcDbEntity
  8
0
100
AcDbLine
 62
7
  6
CONTINUOUS
 10
8.551797685
 20
25.8779781077
 11
9.2025713398
 21
26.2211439238
  0
LINE
  5
29A
100
AcDbEntity
  8
RACCORDO
100
AcDbLine
 62
250
  6
CONTINUOUS
 10
9.2024435577
 20
26.2210765369
 11
9.2025713398
 21
26.2211439238
  0
LINE
  5
29B
100
AcDbEntity
  8
ASSI
100
AcDbLine
 62
7
  6
CONTINUOUS
 10
1.6921691006
 20
22.3881736549
 11
8.0812248539
 21
25.7369271798
  0
LINE
  5
29C
100
AcDbEntity
  8
0
100
AcDbLine
 62
7
  6
CONTINUOUS
 10
-1.9887097843
 20
23.4172915864
 11
-0.4055380894
 21
24.2294886337
  0
LINE
  5
29D
100
AcDbEntity
  8
0
100
AcDbLine
 62
250
  6
CONTINUOUS
 10
-1.8756241182
 20
23.4108436112
 11
-0.292867515
 21
24.2228277086
  0
LINE
  5
29E
100
AcDbEntity
  8
0
100
AcDbLine
 62
7
  6
CONTINUOUS
 10
12.8947845236
 20
29.1912799807
 11
8.8826285451
 21
27.149880188
  0
LINE
  5
29F
100
AcDbEntity
  8
0
100
AcDbLine
 62
250
  6
CONTINUOUS
 10
-0.1970860478
 20
22.571574576
 11
1.4041947431
 21
23.3742965795
  0
LINE
  5
2A0
100
AcDbEntity
  8
0
100
AcDbLine
 62
250
  6
CONTINUOUS
 10
-0.0203123441
 20
22.2666850372
 11
1.5809684467
 21
23.0694070407
  0
LINE
  5
2A1
100
AcDbEntity
  8
0
100
AcDbLine
 62
7
  6
CONTINUOUS
 10
-0.4055361196
 20
24.2294896442
 11
-0.4037997022
 21
24.2303578672
  0
LINE
  5
2A2
100
AcDbEntity
  8
0
100
AcDbLine
 62
7
  6
CONTINUOUS
 10
9.3308587685
 20
25.9980521924
 11
9.8258335154
 21
26.2455395658
  0
LINE
  5
2A3
100
AcDbEntity
  8
0
100
AcDbLine
 62
7
  6
CONTINUOUS
 10
7.2706037123
 20
26.3492755128
 11
1.9487477816
 21
23.691569837
  0
LINE
  5
2A4
100
AcDbEntity
  8
0
100
AcDbLine
 62
250
  6
CONTINUOUS
 10
1.4041947431
 20
23.3742965795
 11
1.9324619148
 21
23.6377353996
  0
LINE
  5
2A5
100
AcDbEntity
  8
0
100
AcDbLine
 62
250
  6
CONTINUOUS
 10
1.5809684467
 20
23.0694070407
 11
2.1092356185
 21
23.3328458607
  0
LINE
  5
2A6
100
AcDbEntity
  8
DRAFT
100
AcDbLine
 62
7
  6
CONTINUOUS
 10
12.8947845236
 20
28.7834287134
 11
8.8826285451
 21
26.8285559058
  0
LINE
  5
2A7
100
AcDbEntity
  8
RACCORDO
100
AcDbLine
 62
7
  6
CONTINUOUS
 10
11.8984549339
 20
29.8627955411
 11
8.4680510334
 21
28.2254587282
  0
LINE
  5
2A8
100
AcDbEntity
  8
DRAFT
100
AcDbLine
 62
7
  6
CONTINUOUS
 10
8.1846534061
 20
25.1571906019
 11
7.6922681522
 21
24.9297907746
  0
LWPOLYLINE
  5
2A9
100
AcDbEntity
  8
RACCORDO
100
AcDbPolyline
 62
7
  6
CONTINUOUS
 90
11
 70
0
 10
-4.8407581753
 20
-20.0520366527
 10
-4.8071235829
 20
-20.0678022079
 10
-4.7482394395
 20
-20.0904213959
 10
-4.6871979352
 20
-20.1077648555
 10
-4.6243476505
 20
-20.1196562342
 10
-4.5597657543
 20
-20.1259636278
 10
-4.4938703648
 20
-20.1265100456
 10
-4.4271628371
 20
-20.12116626
 10
-4.359732915
 20
-20.1097755803
 10
-4.2918492421
 20
-20.092172591
 10
-4.2377476205
 20
-20.0736546169
  0
LINE
  5
2AA
100
AcDbEntity
  8
RACCORDO
100
AcDbLine
 62
7
  6
CONTINUOUS
 10
-19.5311444029
 20
-12.7068538984
 11
-19.5320135604
 21
-12.7064207615
  0
LINE
  5
2AB
100
AcDbEntity
  8
ASSI
100
AcDbLine
 62
7
  6
CONTINUOUS
 10
-19.5320474634
 20
-12.70640381
 11
-4.8398552973
 21
-20.0524998931
  0
LINE
  5
2AC
100
AcDbEntity
  8
RACCORDO
100
AcDbLine
 62
250
  6
CONTINUOUS
 10
-19.7849269124
 20
-12.2492503058
 11
-5.1001720216
 21
-19.5916277512
  0
LINE
  5
2AD
100
AcDbEntity
  8
RACCORDO
100
AcDbLine
 62
7
  6
CONTINUOUS
 10
-4.840671492
 20
-20.0520906875
 11
-4.8398912462
 21
-20.0524819186
  0
LINE
  5
2AE
100
AcDbEntity
  8
RACCORDO
100
AcDbLine
 62
250
  6
CONTINUOUS
 10
-19.5320135604
 20
-12.7064207615
 11
-19.5396110048
 21
-12.70251015
  0
LWPOLYLINE
  5
2AF
100
AcDbEntity
  8
RACCORDO
100
AcDbPolyline
 62
250
  6
CONTINUOUS
 90
11
 70
0
 10
-19.5396110048
 20
-12.70251015
 10
-19.5796167845
 20
-12.6779241884
 10
-19.6166831452
 20
-12.6481194504
 10
-19.6505836516
 20
-12.6132769399
 10
-19.6811217925
 20
-12.5736012112
 10
-19.708112599
 20
-12.5293296489
 10
-19.7313893224
 20
-12.4807303439
 10
-19.7508149561
 20
-12.4280948062
 10
-19.7662727911
 20
-12.3717398506
 10
-19.7776666673
 20
-12.3120051899
 10
-19.7849269124
 20
-12.2492503058
  0
LWPOLYLINE
  5
2B0
100
AcDbEntity
  8
RACCORDO
100
AcDbPolyline
 62
7
  6
CONTINUOUS
 90
11
 70
0
 10
-19.931430888
 20
-12.0712481306
 10
-19.9231227501
 20
-12.1421905428
 10
-19.9051876693
 20
-12.2291095415
 10
-19.8795852194
 20
-12.3105390088
 10
-19.8470789525
 20
-12.3857992874
 10
-19.808186792
 20
-12.4549681989
 10
-19.7629905488
 20
-12.5184609779
 10
-19.712182479
 20
-12.5756544993
 10
-19.6563920586
 20
-12.6261961908
 10
-19.5953751322
 20
-12.6703567669
 10
-19.5312271339
 20
-12.7068012999
  0
LWPOLYLINE
  5
2B1
100
AcDbEntity
  8
0
100
AcDbPolyline
 62
250
  6
CONTINUOUS
 90
18
 70
0
 10
-5.0725336257
 20
25.7796301717
 10
-5.0680575381
 20
25.7890512826
 10
-5.0632816906
 20
25.7983265779
 10
-5.0582190398
 20
25.8074308919
 10
-5.0528833393
 20
25.8163394762
 10
-5.0472891259
 20
25.8250280462
 10
-5.0414516386
 20
25.8334729262
 10
-5.035386768
 20
25.8416511242
 10
-5.0291110159
 20
25.8495403847
 10
-5.0226414675
 20
25.8571192267
 10
-5.0159957307
 20
25.8643670203
 10
-5.0091918929
 20
25.8712640373
 10
-5.0022484775
 20
25.8777914988
 10
-4.9951843779
 20
25.8839316413
 10
-4.9880188256
 20
25.8896677471
 10
-4.9807713436
 20
25.8949841886
 10
-4.9734616652
 20
25.8998664937
 10
-4.9661096796
 20
25.9043013813
  0
LINE
  5
2B2
100
AcDbEntity
  8
0
100
AcDbLine
 62
7
  6
CONTINUOUS
 10
1.5809684467
 20
21.4672563797
 11
0.690908264
 21
20.9705754585
  0
LINE
  5
2B3
100
AcDbEntity
  8
0
100
AcDbLine
 62
250
  6
CONTINUOUS
 10
1.934790962
 20
21.2903451221
 11
0.855616898
 21
20.70119228
  0
LINE
  5
2B4
100
AcDbEntity
  8
0
100
AcDbLine
 62
250
  6
CONTINUOUS
 10
2.2880752279
 20
20.6804920956
 11
1.208901164
 21
20.0913392534
  0
LINE
  5
2B5
100
AcDbEntity
  8
ASSI
100
AcDbLine
 62
7
  6
CONTINUOUS
 10
2.0381057202
 20
21.9407561358
 11
8.0812248539
 21
25.1354100981
  0
LWPOLYLINE
  5
2B6
100
AcDbEntity
  8
RACCORDO
100
AcDbPolyline
 62
250
  6
CONTINUOUS
 90
19
 70
0
 10
-2.8149001
 20
18.8084390099
 10
-2.8704401324
 20
18.7805466256
 10
-2.925746842
 20
18.7475582584
 10
-2.9804920862
 20
18.7096745586
 10
-3.0343556795
 20
18.6671269161
 10
-3.0870133856
 20
18.6201718316
 10
-3.1381390149
 20
18.5690899257
 10
-3.1874277248
 20
18.5141922471
 10
-3.2345892673
 20
18.4558098534
 10
-3.2793355488
 20
18.3942874302
 10
-3.3214004164
 20
18.3299959168
 10
-3.3605350639
 20
18.2633235649
 10
-3.3965004238
 20
18.1946649185
 10
-3.4290826115
 20
18.1244314581
 10
-3.4580876856
 20
18.0530482557
 10
-3.4833362679
 20
17.9809440471
 10
-3.5046760464
 20
17.9085526074
 10
-3.5219823596
 20
17.8363100618
 10
-3.5351521908
 20
17.7646511266
  0
LINE
  5
2B7
100
AcDbEntity
  8
0
100
AcDbLine
 62
250
  6
CONTINUOUS
 10
2.6354622785
 20
21.6420778566
 11
1.9345263247
 21
21.2904774408
  0
LINE
  5
2B8
100
AcDbEntity
  8
0
100
AcDbLine
 62
250
  6
CONTINUOUS
 10
2.9890111817
 20
21.0323053589
 11
2.2880752279
 21
20.680704943
  0
LINE
  5
2B9
100
AcDbEntity
  8
RACCORDO
100
AcDbLine
 62
7
  6
CONTINUOUS
 10
12.2940114279
 20
26.4260394181
 11
10.9825471169
 21
25.7703072626
  0
LINE
  5
2BA
100
AcDbEntity
  8
RACCORDO
100
AcDbLine
 62
7
  6
CONTINUOUS
 10
13.1425421356
 20
26.0017766346
 11
12.2636494844
 21
25.562330309
  0
LINE
  5
2BB
100
AcDbEntity
  8
RACCORDO
100
AcDbLine
 62
250
  6
CONTINUOUS
 10
17.82533316
 20
26.3855230321
 11
3.2880752279
 21
19.1577234129
  0
LWPOLYLINE
  5
2BC
100
AcDbEntity
  8
RACCORDO
100
AcDbPolyline
 62
250
  6
CONTINUOUS
 90
19
 70
0
 10
-2.4799650774
 20
18.1902031908
 10
-2.5081924648
 20
18.1763683501
 10
-2.5360311169
 20
18.16016822
 10
-2.5634810339
 20
18.1416028006
 10
-2.590721137
 20
18.1205247913
 10
-2.6175725049
 20
18.0970814928
 10
-2.6434983734
 20
18.0717148063
 10
-2.6684665119
 20
18.0443934532
 10
-2.692509151
 20
18.0151487121
 10
-2.715186218
 20
17.9845163207
 10
-2.7364685433
 20
17.9524748714
 10
-2.7563852966
 20
17.9190457717
 10
-2.7745839141
 20
17.884828981
 10
-2.7910373144
 20
17.8497892664
 10
-2.8057725789
 20
17.8139618608
 10
-2.8185183879
 20
17.7780524224
 10
-2.8291843014
 20
17.7422961706
 10
-2.8378607595
 20
17.7064578861
 10
-2.844547762
 20
17.6705375687
  0
LINE
  5
2BD
100
AcDbEntity
  8
DRAFT
100
AcDbLine
 62
7
  6
CONTINUOUS
 10
9.0605309649
 20
24.7192518225
 11
2.6768354821
 21
21.6183775669
  0
LINE
  5
2BE
100
AcDbEntity
  8
RACCORDO
100
AcDbLine
 62
7
  6
CONTINUOUS
 10
17.405789949
 20
27.1091280336
 11
9.8132250488
 21
23.4210465615
  0
LINE
  5
2BF
100
AcDbEntity
  8
RACCORDO
100
AcDbLine
 62
7
  6
CONTINUOUS
 10
16.600118013
 20
27.5119640016
 11
13.1789719432
 21
25.8699982733
  0
LWPOLYLINE
  5
2C0
100
AcDbEntity
  8
RACCORDO
100
AcDbPolyline
 62
7
  6
CONTINUOUS
 90
10
 70
0
 10
13.1425132397
 20
26.0017621866
 10
13.153909704
 20
26.0069308418
 10
13.1651301065
 20
26.0109827382
 10
13.1761744472
 20
26.0139178758
 10
13.1871377061
 20
26.0157364071
 10
13.1979249033
 20
26.0164381796
 10
13.2082510987
 20
26.0160227352
 10
13.2180213125
 20
26.0144899213
 10
13.2273305245
 20
26.0118398906
 10
13.2361787348
 20
26.008072643
  0
LWPOLYLINE
  5
2C1
100
AcDbEntity
  8
RACCORDO
100
AcDbPolyline
 62
7
  6
CONTINUOUS
 90
9
 70
0
 10
17.405789949
 20
27.1091280336
 10
17.4619358267
 20
27.1343910719
 10
17.5151685376
 20
27.1538435643
 10
17.5650389981
 20
27.1674731753
 10
17.6110097679
 20
27.1753808628
 10
17.6528017294
 20
27.1776138407
 10
17.6903946395
 20
27.1741568264
 10
17.723428928
 20
27.1652202223
 10
17.7379908785
 20
27.1588471644
  0
LINE
  5
2C2
100
AcDbEntity
  8
RACCORDO
100
AcDbLine
 62
250
  6
CONTINUOUS
 10
0.0635562135
 20
20.0842560238
 11
-2.8149001
 21
18.8084390099
  0
LINE
  5
2C3
100
AcDbEntity
  8
RACCORDO
100
AcDbLine
 62
250
  6
CONTINUOUS
 10
0.3984912361
 20
19.4660202047
 11
-2.4799650774
 21
18.1902031908
  0
LINE
  5
2C4
100
AcDbEntity
  8
0
100
AcDbLine
 62
250
  6
CONTINUOUS
 10
2.1092356185
 20
-18.3142897954
 11
1.5809684467
 21
-18.2057875183
  0
LINE
  5
2C5
100
AcDbEntity
  8
0
100
AcDbLine
 62
250
  6
CONTINUOUS
 10
2.0198218231
 20
-17.9947229894
 11
1.5809684467
 21
-17.9045856627
  0
LWPOLYLINE
  5
2C6
100
AcDbEntity
  8
0
100
AcDbPolyline
 62
7
  6
CONTINUOUS
 90
16
 70
0
 10
0.690908264
 20
-18.5213965592
 10
0.6851695807
 20
-18.5201788698
 10
0.6792438611
 20
-18.5188607955
 10
0.6731323795
 20
-18.5174462194
 10
0.6668338031
 20
-18.5159429547
 10
0.6603527479
 20
-18.5143515095
 10
0.6536997203
 20
-18.5126650601
 10
0.6468768356
 20
-18.5108883902
 10
0.6398866334
 20
-18.5090260752
 10
0.6327405167
 20
-18.5070712024
 10
0.6254413324
 20
-18.5050290556
 10
0.6179923146
 20
-18.5029047371
 10
0.6104057061
 20
-18.5006912852
 10
0.6026851107
 20
-18.4983944761
 10
0.5948344752
 20
-18.4960199286
 10
0.5868668153
 20
-18.4935606706
  0
LWPOLYLINE
  5
2C7
100
AcDbEntity
  8
0
100
AcDbPolyline
 62
7
  6
CONTINUOUS
 90
3
 70
0
 10
0.5868668153
 20
-18.4935606706
 10
0.5705982041
 20
-18.4884129083
 10
0.56231575
 20
-18.4857236207
  0
LWPOLYLINE
  5
2C8
100
AcDbEntity
  8
0
100
AcDbPolyline
 62
7
  6
CONTINUOUS
 90
3
 70
0
 10
0.56231575
 20
-18.4857236207
 10
0.5454892488
 20
-18.4801340895
 10
0.5369652621
 20
-18.4772337043
  0
LWPOLYLINE
  5
2C9
100
AcDbEntity
  8
0
100
AcDbPolyline
 62
7
  6
CONTINUOUS
 90
3
 70
0
 10
0.5369652621
 20
-18.4772337043
 10
0.5197345326
 20
-18.4712435017
 10
0.5110494643
 20
-18.4681542826
  0
LWPOLYLINE
  5
2CA
100
AcDbEntity
  8
0
100
AcDbPolyline
 62
7
  6
CONTINUOUS
 90
3
 70
0
 10
0.5110494643
 20
-18.4681542826
 10
0.4935827777
 20
-18.4618113649
 10
0.4848244959
 20
-18.4585591266
  0
LWPOLYLINE
  5
2CB
100
AcDbEntity
  8
0
100
AcDbPolyline
 62
7
  6
CONTINUOUS
 90
17
 70
0
 10
0.4848244959
 20
-18.4585591266
 10
0.4673051776
 20
-18.4519187749
 10
0.4585691549
 20
-18.4485331258
 10
0.4498631163
 20
-18.4451101701
 10
0.4411958513
 20
-18.4416584325
 10
0.4325852014
 20
-18.4381730045
 10
0.4240406475
 20
-18.4346623387
 10
0.4155717526
 20
-18.4311353129
 10
0.4071969072
 20
-18.4275878916
 10
0.3989265038
 20
-18.4240286559
 10
0.3907708479
 20
-18.4204667564
 10
0.3827486272
 20
-18.4168992048
 10
0.3748814131
 20
-18.4133407607
 10
0.3671696405
 20
-18.4097940495
 10
0.3596017483
 20
-18.4062403307
 10
0.352183213
 20
-18.4026820905
 10
0.3449353329
 20
-18.399140348
  0
LWPOLYLINE
  5
2CC
100
AcDbEntity
  8
0
100
AcDbPolyline
 62
7
  6
CONTINUOUS
 90
9
 70
0
 10
-0.3078610073
 20
-19.8475726967
 10
-0.2796672952
 20
-19.8595693352
 10
-0.2497835461
 20
-19.8681241201
 10
-0.2187175354
 20
-19.8729368364
 10
-0.186919442
 20
-19.8737987715
 10
-0.1551332756
 20
-19.8705935419
 10
-0.1242133636
 20
-19.8634202881
 10
-0.0943271357
 20
-19.8523315062
 10
-0.0864097968
 20
-19.8486374405
  0
LWPOLYLINE
  5
2CD
100
AcDbEntity
  8
0
100
AcDbPolyline
 62
250
  6
CONTINUOUS
 90
34
 70
0
 10
-0.3728343037
 20
-19.7123542466
 10
-0.364269372
 20
-19.7164386011
 10
-0.3553235887
 20
-19.7203172709
 10
-0.3460165597
 20
-19.7239812889
 10
-0.3363673747
 20
-19.7274226163
 10
-0.3263985876
 20
-19.7306327039
 10
-0.3161365961
 20
-19.7336028415
 10
-0.3056060346
 20
-19.73632597
 10
-0.2948291139
 20
-19.738796415
 10
-0.2838298765
 20
-19.7410086571
 10
-0.2726329063
 20
-19.7429577303
 10
-0.2612635136
 20
-19.7446392078
 10
-0.2497474959
 20
-19.746049268
 10
-0.2381108595
 20
-19.7471847328
 10
-0.2263796756
 20
-19.7480430647
 10
-0.2145802531
 20
-19.7486223384
 10
-0.2027390974
 20
-19.7489212487
 10
-0.1908828722
 20
-19.7489391182
 10
-0.1790382639
 20
-19.7486759045
 10
-0.1672319184
 20
-19.7481321983
 10
-0.1554903848
 20
-19.747309221
 10
-0.1438400759
 20
-19.7462088223
 10
-0.1323071941
 20
-19.7448334759
 10
-0.1209176812
 20
-19.743186274
 10
-0.1096971634
 20
-19.7412709218
 10
-0.09867088
 20
-19.739091727
 10
-0.0878636299
 20
-19.7366535901
 10
-0.0772997244
 20
-19.7339619954
 10
-0.067002919
 20
-19.7310229948
 10
-0.0569963792
 20
-19.7278431998
 10
-0.0473026295
 20
-19.7244297683
 10
-0.0379434774
 20
-19.7207903813
 10
-0.0289399659
 20
-19.7169332232
 10
-0.0203123441
 20
-19.7128669704
  0
LWPOLYLINE
  5
2CE
100
AcDbEntity
  8
0
100
AcDbPolyline
 62
250
  6
CONTINUOUS
 90
34
 70
0
 10
-0.3728343037
 20
-19.3723803124
 10
-0.3642546833
 20
-19.3764713463
 10
-0.3552968048
 20
-19.3803544035
 10
-0.3459808137
 20
-19.3840207513
 10
-0.336327672
 20
-19.3874621408
 10
-0.326359078
 20
-19.3906708369
 10
-0.3160974135
 20
-19.3936396337
 10
-0.3055657282
 20
-19.3963618581
 10
-0.2947877281
 20
-19.3988313782
 10
-0.2837876889
 20
-19.4010426301
 10
-0.2725903622
 20
-19.4029906387
 10
-0.2612209175
 20
-19.4046710259
 10
-0.2497049245
 20
-19.4060800124
 10
-0.2380682824
 20
-19.4072144295
 10
-0.226337161
 20
-19.4080717261
 10
-0.2145379425
 20
-19.4086499742
 10
-0.202697154
 20
-19.4089478735
 10
-0.1908414336
 20
-19.4089647534
 10
-0.1789974697
 20
-19.4087005768
 10
-0.1671919155
 20
-19.4081559408
 10
-0.1554513035
 20
-19.4073320718
 10
-0.1438020113
 20
-19.4062308217
 10
-0.132270152
 20
-19.4048546559
 10
-0.1208817471
 20
-19.4032066764
 10
-0.1096626323
 20
-19.4012906307
 10
-0.0986381733
 20
-19.3991108747
 10
-0.0878329967
 20
-19.3966723018
 10
-0.0772711749
 20
-19.3939803542
 10
-0.0669756341
 20
-19.3910408367
 10
-0.0569703953
 20
-19.3878605683
 10
-0.0472800863
 20
-19.3844474884
 10
-0.0379269571
 20
-19.3808097022
 10
-0.0289310573
 20
-19.3769552854
 10
-0.0203123441
 20
-19.3728930363
  0
LINE
  5
2CF
100
AcDbEntity
  8
0
100
AcDbLine
 62
7
  6
CONTINUOUS
 10
-1.7493115132
 20
-19.1268474438
 11
-0.3078610073
 21
-19.8475726967
  0
LINE
  5
2D0
100
AcDbEntity
  8
0
100
AcDbLine
 62
250
  6
CONTINUOUS
 10
-1.6326358837
 20
-19.0824534566
 11
-0.3728343037
 21
-19.7123542466
  0
LINE
  5
2D1
100
AcDbEntity
  8
0
100
AcDbLine
 62
250
  6
CONTINUOUS
 10
-0.3728343037
 20
-19.3723803124
 11
-1.2782442362
 21
-18.9196753462
  0
LINE
  5
2D2
100
AcDbEntity
  8
0
100
AcDbLine
 62
250
  6
CONTINUOUS
 10
-0.2844459561
 20
-19.1406861386
 11
-1.1954820088
 21
-18.6851681122
  0
LINE
  5
2D3
100
AcDbEntity
  8
0
100
AcDbLine
 62
7
  6
CONTINUOUS
 10
0.3449353329
 20
-18.399140348
 11
-1.1563998665
 21
-17.6484907499
  0
LINE
  5
2D4
100
AcDbEntity
  8
0
100
AcDbLine
 62
7
  6
CONTINUOUS
 10
0.855616898
 20
-17.9605864049
 11
0.3383863044
 21
-17.7019711081
  0
LINE
  5
2D5
100
AcDbEntity
  8
DRAFT
100
AcDbLine
 62
7
  6
CONTINUOUS
 10
-15.283708745
 20
-7.7131321328
 11
-15.2960371184
 21
-7.6729125081
  0
LWPOLYLINE
  5
2D6
100
AcDbEntity
  8
DRAFT
100
AcDbPolyline
 62
7
  6
CONTINUOUS
 90
25
 70
0
 10
-14.3998239547
 20
-7.2878594289
 10
-14.3877891285
 20
-7.3282264908
 10
-14.3767738307
 20
-7.3685055876
 10
-14.3667775907
 20
-7.4086964803
 10
-14.3577891522
 20
-7.4488558942
 10
-14.3498187739
 20
-7.4889265958
 10
-14.3428984241
 20
-7.5287374885
 10
-14.3370323759
 20
-7.568279668
 10
-14.3322157248
 20
-7.6075617094
 10
-14.3284669991
 20
-7.6464388964
 10
-14.3257909215
 20
-7.6849111643
 10
-14.3241824342
 20
-7.7229783942
 10
-14.3236457161
 20
-7.7604959493
 10
-14.3241837348
 20
-7.7974624086
 10
-14.3257935208
 20
-7.8338791751
 10
-14.3284706806
 20
-7.8696060145
 10
-14.3322202186
 20
-7.9046382067
 10
-14.3370374624
 20
-7.9389806216
 10
-14.3429038255
 20
-7.9725075713
 10
-14.3498241922
 20
-8.0052228204
 10
-14.3577943083
 20
-8.0371229057
 10
-14.3667822053
 20
-8.0680714631
 10
-14.3767776224
 20
-8.0980232328
 10
-14.3877918138
 20
-8.127023962
 10
-14.3998252485
 20
-8.1550738811
  0
LINE
  5
2D7
100
AcDbEntity
  8
SUPERFICI
100
AcDbLine
 62
7
  6
CONTINUOUS
 10
-14.3839879601
 20
-7.3417624024
 11
-14.3998239547
 21
-7.2878594289
  0
LWPOLYLINE
  5
2D8
100
AcDbEntity
  8
DRAFT
100
AcDbPolyline
 62
7
  6
CONTINUOUS
 90
22
 70
0
 10
-15.2960371184
 20
-7.6729125081
 10
-15.3073257877
 20
-7.6327704794
 10
-15.3175742831
 20
-7.5927058157
 10
-15.3267932907
 20
-7.5526616343
 10
-15.3349711286
 20
-7.5126943294
 10
-15.3420739401
 20
-7.4729736701
 10
-15.3480968653
 20
-7.4335081259
 10
-15.3530441333
 20
-7.3942889256
 10
-15.3568958464
 20
-7.3554601409
 10
-15.3596469925
 20
-7.3170215619
 10
-15.3613022483
 20
-7.2789732469
 10
-15.3618565708
 20
-7.2414598321
 10
-15.3613069605
 20
-7.2044825151
 10
-15.3596564143
 20
-7.1680401139
 10
-15.3569092183
 20
-7.1322738625
 10
-15.3530606135
 20
-7.0971886281
 10
-15.3481156916
 20
-7.0627797259
 10
-15.3420938388
 20
-7.0291742235
 10
-15.3349906529
 20
-6.9963686847
 10
-15.3268111685
 20
-6.9643668755
 10
-15.3175892552
 20
-6.9333068294
 10
-15.3073365999
 20
-6.9032347591
  0
LINE
  5
2D9
100
AcDbEntity
  8
0
100
AcDbLine
 62
7
  6
CONTINUOUS
 10
-14.4275837267
 20
28.988420221
 11
-14.4282533897
 21
29.0068978771
  0
LWPOLYLINE
  5
2DA
100
AcDbEntity
  8
0
100
AcDbPolyline
 62
250
  6
CONTINUOUS
 90
22
 70
0
 10
-14.3550303668
 20
28.9183218585
 10
-14.3548621146
 20
28.9089621102
 10
-14.3543576781
 20
28.899788431
 10
-14.3535180177
 20
28.8908182835
 10
-14.3523447316
 20
28.8820687428
 10
-14.3508400533
 20
28.8735564642
 10
-14.349006847
 20
28.8652976514
 10
-14.3468486023
 20
28.8573080254
 10
-14.3443694276
 20
28.8496027949
 10
-14.3415740421
 20
28.8421966273
 10
-14.338467767
 20
28.8351036207
 10
-14.3350565153
 20
28.8283372769
 10
-14.3313467804
 20
28.8219104762
 10
-14.3273456241
 20
28.8158354522
 10
-14.3230606628
 20
28.8101237692
 10
-14.3185000532
 20
28.8047862997
 10
-14.3136724766
 20
28.7998332038
 10
-14.3085871226
 20
28.79527391
 10
-14.3032536715
 20
28.7911170972
 10
-14.2976822758
 20
28.7873706781
 10
-14.2918835409
 20
28.7840417844
 10
-14.2900570704
 20
28.7831034084
  0
LINE
  5
2DB
100
AcDbEntity
  8
0
100
AcDbLine
 62
7
  6
CONTINUOUS
 10
-14.5225522721
 20
27.9570659715
 11
-14.5225522721
 21
27.3773102666
  0
LINE
  5
2DC
100
AcDbEntity
  8
0
100
AcDbLine
 62
7
  6
CONTINUOUS
 10
-14.4282536715
 20
29.3466841402
 11
-14.4282536715
 21
29.0067102061
  0
LINE
  5
2DD
100
AcDbEntity
  8
0
100
AcDbLine
 62
250
  6
CONTINUOUS
 10
-14.3550303668
 20
29.2582957926
 11
-14.3550303668
 21
28.9183218585
  0
LINE
  5
2DE
100
AcDbEntity
  8
0
100
AcDbLine
 62
7
  6
CONTINUOUS
 10
-13.7252607172
 20
28.5007052318
 11
-13.7252607172
 21
28.0467514898
  0
LINE
  5
2DF
100
AcDbEntity
  8
0
100
AcDbLine
 62
250
  6
CONTINUOUS
 10
-13.6520374125
 20
28.4640935794
 11
-13.6520374125
 21
27.9550194353
  0
LINE
  5
2E0
100
AcDbEntity
  8
0
100
AcDbLine
 62
250
  6
CONTINUOUS
 10
-12.6764922964
 20
28.0790528233
 11
-12.6764922964
 21
28.4190267574
  0
LINE
  5
2E1
100
AcDbEntity
  8
0
100
AcDbLine
 62
250
  6
CONTINUOUS
 10
-12.3239703367
 20
28.0785400994
 11
-12.3239703367
 21
28.4185140335
  0
LWPOLYLINE
  5
2E2
100
AcDbEntity
  8
0
100
AcDbPolyline
 62
250
  6
CONTINUOUS
 90
34
 70
0
 10
-14.3550303668
 20
29.2582957926
 10
-14.354831564
 20
29.2686602708
 10
-14.3542356017
 20
29.2792002557
 10
-14.3532438186
 20
29.2898920413
 10
-14.3518584425
 20
29.3007115871
 10
-14.3500825884
 20
29.3116345515
 10
-14.3479202533
 20
29.3226363455
 10
-14.3453763027
 20
29.3336922176
 10
-14.3424564579
 20
29.3447773066
 10
-14.339167288
 20
29.3558666764
 10
-14.335516191
 20
29.3669353862
 10
-14.3315113804
 20
29.3779585386
 10
-14.3271618682
 20
29.3889113319
 10
-14.3224774395
 20
29.3997691296
 10
-14.3174686315
 20
29.4105075127
 10
-14.3121467129
 20
29.4211023258
 10
-14.3065236525
 20
29.4315297456
 10
-14.3006121018
 20
29.4417663144
 10
-14.2944253701
 20
29.4517889913
 10
-14.2879773935
 20
29.4615752093
 10
-14.2812826602
 20
29.471102989
 10
-14.274356184
 20
29.4803509641
 10
-14.2672134736
 20
29.4892984145
 10
-14.2598706561
 20
29.4979251253
 10
-14.2523444094
 20
29.5062115157
 10
-14.2446517752
 20
29.5141388642
 10
-14.2368099626
 20
29.5216894771
 10
-14.2288364636
 20
29.5288465263
 10
-14.2207479862
 20
29.5355948993
 10
-14.2125639149
 20
29.5419183092
 10
-14.2043062441
 20
29.5478000852
 10
-14.1959948234
 20
29.5532268352
 10
-14.187647191
 20
29.5581878492
 10
-14.1792821108
 20
29.5626726076
  0
LWPOLYLINE
  5
2E3
100
AcDbEntity
  8
0
100
AcDbPolyline
 62
250
  6
CONTINUOUS
 90
34
 70
0
 10
-12.6764922964
 20
28.4190267574
 10
-12.6762934936
 20
28.4293912356
 10
-12.6756975313
 20
28.4399312204
 10
-12.6747057481
 20
28.4506230061
 10
-12.6733203721
 20
28.4614425519
 10
-12.671544518
 20
28.4723655163
 10
-12.6693821829
 20
28.4833673103
 10
-12.6668382323
 20
28.4944231824
 10
-12.6639183875
 20
28.5055082714
 10
-12.6606292175
 20
28.5165976412
 10
-12.6569781206
 20
28.527666351
 10
-12.65297331
 20
28.5386895034
 10
-12.6486237978
 20
28.5496422967
 10
-12.6439393691
 20
28.5605000944
 10
-12.6389305611
 20
28.5712384775
 10
-12.6336086425
 20
28.5818332906
 10
-12.6279855821
 20
28.5922607104
 10
-12.6220740314
 20
28.6024972792
 10
-12.6158872997
 20
28.6125199561
 10
-12.6094393231
 20
28.6223061741
 10
-12.6027445898
 20
28.6318339538
 10
-12.5958181136
 20
28.6410819289
 10
-12.5886754032
 20
28.6500293793
 10
-12.5813325857
 20
28.6586560901
 10
-12.573806339
 20
28.6669424805
 10
-12.5661137048
 20
28.674869829
 10
-12.5582718922
 20
28.6824204419
 10
-12.5502983932
 20
28.6895774911
 10
-12.5422099158
 20
28.6963258641
 10
-12.5340258445
 20
28.702649274
 10
-12.5257681737
 20
28.70853105
 10
-12.517456753
 20
28.7139578
 10
-12.5091091206
 20
28.718918814
 10
-12.5007440404
 20
28.7234035724
  0
LWPOLYLINE
  5
2E4
100
AcDbEntity
  8
0
100
AcDbPolyline
 62
250
  6
CONTINUOUS
 90
17
 70
0
 10
-10.12227894
 20
29.2224078851
 10
-10.1228072931
 20
29.2164859031
 10
-10.1238965651
 20
29.210583126
 10
-10.1255443031
 20
29.20471282
 10
-10.1277468033
 20
29.1988881739
 10
-10.130499135
 20
29.1931222443
 10
-10.1337950939
 20
29.1874280418
 10
-10.1376271853
 20
29.1818184844
 10
-10.1419866974
 20
29.1763062549
 10
-10.1468638431
 20
29.1709036666
 10
-10.1522477384
 20
29.1656227558
 10
-10.1581267734
 20
29.1604749853
 10
-10.1644873102
 20
29.1554723659
 10
-10.1713134699
 20
29.1506272114
 10
-10.1785890424
 20
29.1459506468
 10
-10.186297876
 20
29.1414526969
 10
-10.1944223742
 20
29.1371433403
  0
LWPOLYLINE
  5
2E5
100
AcDbEntity
  8
RACCORDO
100
AcDbPolyline
 62
250
  6
CONTINUOUS
 90
6
 70
0
 10
-1.5758495123
 20
26.6081336508
 10
-1.5880524517
 20
26.5821984139
 10
-1.5978139379
 20
26.5555505329
 10
-1.6049333461
 20
26.5287378207
 10
-1.6092643597
 20
26.5023115043
 10
-1.6107179968
 20
26.4768148296
  0
LWPOLYLINE
  5
2E6
100
AcDbEntity
  8
0
100
AcDbPolyline
 62
7
  6
CONTINUOUS
 90
31
 70
0
 10
2.822906951
 20
26.5468178461
 10
2.8312197506
 20
26.5575111507
 10
2.8389990772
 20
26.5688260736
 10
2.8462449307
 20
26.5807626148
 10
2.852967921
 20
26.5933434051
 10
2.8591574383
 20
26.6065458137
 10
2.8647816535
 20
26.6203019475
 10
2.8698376545
 20
26.6346146588
 10
2.8743283534
 20
26.6494810953
 10
2.8782306571
 20
26.6648248068
 10
2.8815415346
 20
26.6806482519
 10
2.8842640169
 20
26.6969489721
 10
2.8863841037
 20
26.7136431414
 10
2.8878986922
 20
26.7307327867
 10
2.8888108852
 20
26.7482158812
 10
2.8891159919
 20
26.7660025189
 10
2.8888108852
 20
26.7840942633
 10
2.8878986922
 20
26.8024895508
 10
2.8863841037
 20
26.8210937846
 10
2.8842640169
 20
26.8399080408
 10
2.8815415346
 20
26.8589312432
 10
2.8782306571
 20
26.8780655658
 10
2.8743283534
 20
26.897311581
 10
2.8698376545
 20
26.9166687164
 10
2.8647816535
 20
26.9360374287
 10
2.8591574383
 20
26.9554177776
 10
2.852967921
 20
26.9748097035
 10
2.8462449307
 20
26.9941134842
 10
2.8389990772
 20
27.0132958789
 10
2.8312197506
 20
27.0323901284
 10
2.822906951
 20
27.0513962326
  0
LINE
  5
2E7
100
AcDbEntity
  8
0
100
AcDbLine
 62
250
  6
CONTINUOUS
 10
1.5809684467
 20
22.3423621882
 11
2.1092356185
 21
22.985314344
  0
LINE
  5
2E8
100
AcDbEntity
  8
0
100
AcDbLine
 62
7
  6
CONTINUOUS
 10
1.5809684467
 20
22.2528317219
 11
2.1245961909
 21
22.9144791774
  0
LWPOLYLINE
  5
2E9
100
AcDbEntity
  8
0
100
AcDbPolyline
 62
7
  6
CONTINUOUS
 90
41
 70
0
 10
0.690908264
 20
21.7782075802
 10
0.6851695807
 20
21.7714948077
 10
0.6792438611
 20
21.764853576
 10
0.6731323795
 20
21.7582923196
 10
0.6668338031
 20
21.7518204068
 10
0.6603527479
 20
21.7454454812
 10
0.6536997203
 20
21.739173498
 10
0.6468768356
 20
21.7330131801
 10
0.6398866334
 20
21.726973087
 10
0.6327405167
 20
21.7210590563
 10
0.6254413324
 20
21.7152798891
 10
0.6179923146
 20
21.709644202
 10
0.6104057061
 20
21.7041576845
 10
0.6026851107
 20
21.698829151
 10
0.5948344752
 20
21.6936672054
 10
0.5868668153
 20
21.688677357
 10
0.5787864909
 20
21.68386835
 10
0.5705982041
 20
21.6792487221
 10
0.56231575
 20
21.6748238154
 10
0.5539442719
 20
21.6706022296
 10
0.5454892488
 20
21.666592354
 10
0.5369652621
 20
21.6627993601
 10
0.528378262
 20
21.6592316121
 10
0.5197345326
 20
21.655897261
 10
0.5110494643
 20
21.6528012913
 10
0.5023298419
 20
21.6499517258
 10
0.4935827777
 20
21.6473563664
 10
0.4848244959
 20
21.6450199681
 10
0.4760626445
 20
21.6429500848
 10
0.4673051776
 20
21.6411540335
 10
0.4585691549
 20
21.6396362557
 10
0.4498631163
 20
21.6384036834
 10
0.4411958513
 20
21.6374629828
 10
0.4325852014
 20
21.6368181469
 10
0.4240406475
 20
21.636475305
 10
0.4155717526
 20
21.6364402733
 10
0.4071969072
 20
21.6367164157
 10
0.3989265038
 20
21.6373088546
 10
0.3907708479
 20
21.6382223554
 10
0.3827486272
 20
21.6394594651
 10
0.3770810916
 20
21.6405486971
  0
LWPOLYLINE
  5
2EA
100
AcDbEntity
  8
0
100
AcDbPolyline
 62
7
  6
CONTINUOUS
 90
10
 70
0
 10
2.9192261277
 20
17.4232645132
 10
3.0037198504
 20
17.4699797418
 10
3.0884999618
 20
17.5166886285
 10
3.1735717899
 20
17.5633894158
 10
3.258944888
 20
17.6100628618
 10
3.3446199494
 20
17.6567253134
 10
3.4305871841
 20
17.7034289037
 10
3.5168446517
 20
17.7501905836
 10
3.6033998862
 20
17.7969918978
 10
3.6902556769
 20
17.8438322197
  0
LINE
  5
2EB
100
AcDbEntity
  8
RACCORDO
100
AcDbLine
 62
250
  6
CONTINUOUS
 10
18.1642966439
 20
25.2137955257
 11
3.7022887903
 21
17.7258717604
  0
LINE
  5
2EC
100
AcDbEntity
  8
0
100
AcDbLine
 62
7
  6
CONTINUOUS
 10
2.9890111817
 20
18.1004004079
 11
3.6899471355
 21
18.4539087148
  0
LWPOLYLINE
  5
2ED
100
AcDbEntity
  8
0
100
AcDbPolyline
 62
7
  6
CONTINUOUS
 90
8
 70
0
 10
3.6902556769
 20
16.9763613158
 10
3.6033998862
 20
16.9348263036
 10
3.5168446517
 20
16.8935464953
 10
3.4305871841
 20
16.8525240538
 10
3.3446199494
 20
16.8117468147
 10
3.258944888
 20
16.7712310316
 10
3.1735717899
 20
16.7310227764
 10
3.0884999618
 20
16.6911403322
  0
LWPOLYLINE
  5
2EE
100
AcDbEntity
  8
0
100
AcDbPolyline
 62
7
  6
CONTINUOUS
 90
3
 70
0
 10
3.0884999618
 20
16.6911403322
 10
3.0037198504
 20
16.6515727676
 10
2.9192261277
 20
16.6123236528
  0
LWPOLYLINE
  5
2EF
100
AcDbEntity
  8
RACCORDO
100
AcDbPolyline
 62
250
  6
CONTINUOUS
 90
32
 70
0
 10
18.2719559341
 20
19.6674984038
 10
18.292047039
 20
19.6734450892
 10
18.3113668387
 20
19.6772961954
 10
18.3298924579
 20
19.6790787354
 10
18.3475874578
 20
19.678694832
 10
18.3644261902
 20
19.6763119796
 10
18.3804033824
 20
19.672352594
 10
18.3954431267
 20
19.6668914
 10
18.4095567697
 20
19.6599239732
 10
18.4228793
 20
19.6517442698
 10
18.4353944175
 20
19.6424493803
 10
18.4470501956
 20
19.6320200294
 10
18.457930341
 20
19.6205752745
 10
18.4680339999
 20
19.6081911926
 10
18.4772827862
 20
19.5948882841
 10
18.4856410208
 20
19.5807080686
 10
18.4930895388
 20
19.5657280407
 10
18.4995576685
 20
19.549988222
 10
18.5049278319
 20
19.5334817238
 10
18.5091753441
 20
19.5163255076
 10
18.5122250855
 20
19.4985437476
 10
18.5138713795
 20
19.4800086406
 10
18.5141048306
 20
19.460881229
 10
18.512810582
 20
19.4411894467
 10
18.509594351
 20
19.4206494296
 10
18.5044528227
 20
19.3994565566
 10
18.4972154665
 20
19.3776979463
 10
18.4871906889
 20
19.3549964773
 10
18.474383945
 20
19.3316295647
 10
18.4585566366
 20
19.3077306156
 10
18.4385953128
 20
19.2827940338
 10
18.4168908236
 20
19.2597543031
  0
LWPOLYLINE
  5
2F0
100
AcDbEntity
  8
0
100
AcDbPolyline
 62
250
  6
CONTINUOUS
 90
5
 70
0
 10
2.0432368744
 20
-18.0028103655
 10
2.0390483091
 20
-18.0008437097
 10
2.0328284224
 20
-17.9983680698
 10
2.0264155246
 20
-17.9963265343
 10
2.0198218231
 20
-17.9947229894
  0
LINE
  5
2F1
100
AcDbEntity
  8
0
100
AcDbLine
 62
250
  6
CONTINUOUS
 10
1.5809684467
 20
-17.7752963012
 11
2.0198218231
 21
-17.9947229894
  0
LINE
  5
2F2
100
AcDbEntity
  8
0
100
AcDbLine
 62
7
  6
CONTINUOUS
 10
1.5809684467
 20
-17.7716761516
 11
2.0432368744
 21
-18.0028103655
  0
LINE
  5
2F3
100
AcDbEntity
  8
SUPERFICI
100
AcDbLine
 62
7
  6
CONTINUOUS
 10
-15.283708745
 20
-7.7131321328
 11
-14.3998252485
 21
-8.1550738811
  0
LINE
  5
2F4
100
AcDbEntity
  8
DRAFT
100
AcDbLine
 62
7
  6
CONTINUOUS
 10
-15.283708745
 20
-7.7131321328
 11
-14.3998252485
 21
-8.1550738811
  0
LINE
  5
2F5
100
AcDbEntity
  8
SUPERFICI
100
AcDbLine
 62
7
  6
CONTINUOUS
 10
-13.2684543182
 20
-8.7207593462
 11
-12.2077941207
 21
-9.2510894449
  0
LINE
  5
2F6
100
AcDbEntity
  8
DRAFT
100
AcDbLine
 62
7
  6
CONTINUOUS
 10
-13.2684543182
 20
-8.7207593462
 11
-12.2077941207
 21
-9.2510894449
  0
LINE
  5
2F7
100
AcDbEntity
  8
SUPERFICI
100
AcDbLine
 62
7
  6
CONTINUOUS
 10
-11.0764233701
 20
-9.8167748203
 11
-10.1925398735
 21
-10.2587165685
  0
LINE
  5
2F8
100
AcDbEntity
  8
DRAFT
100
AcDbLine
 62
7
  6
CONTINUOUS
 10
-11.0764233701
 20
-9.8167748203
 11
-10.1925398735
 21
-10.2587165685
  0
LINE
  5
2F9
100
AcDbEntity
  8
SUPERFICI
100
AcDbLine
 62
7
  6
CONTINUOUS
 10
-15.2837074677
 20
-6.8459176724
 11
-14.3998239547
 21
-7.2878594289
  0
LINE
  5
2FA
100
AcDbEntity
  8
DRAFT
100
AcDbLine
 62
7
  6
CONTINUOUS
 10
-15.2837074677
 20
-6.8459176724
 11
-14.3998239547
 21
-7.2878594289
  0
LINE
  5
2FB
100
AcDbEntity
  8
SUPERFICI
100
AcDbLine
 62
7
  6
CONTINUOUS
 10
-13.2684530409
 20
-7.8535448858
 11
-12.207792827
 21
-8.3838749928
  0
LINE
  5
2FC
100
AcDbEntity
  8
DRAFT
100
AcDbLine
 62
7
  6
CONTINUOUS
 10
-13.2684530409
 20
-7.8535448858
 11
-12.207792827
 21
-8.3838749928
  0
LINE
  5
2FD
100
AcDbEntity
  8
SUPERFICI
100
AcDbLine
 62
7
  6
CONTINUOUS
 10
-11.0764220928
 20
-8.9495603599
 11
-10.1925385798
 21
-9.3915021164
  0
LINE
  5
2FE
100
AcDbEntity
  8
DRAFT
100
AcDbLine
 62
7
  6
CONTINUOUS
 10
-11.0764220928
 20
-8.9495603599
 11
-10.1925385798
 21
-9.3915021164
  0
LINE
  5
2FF
100
AcDbEntity
  8
0
100
AcDbLine
 62
250
  6
CONTINUOUS
 10
2.0281521266
 20
-17.9991885731
 11
2.0198218231
 21
-17.9947229894
  0
LINE
  5
300
100
AcDbEntity
  8
0
100
AcDbLine
 62
7
  6
CONTINUOUS
 10
2.0432368744
 20
-18.0028103655
 11
2.0675618258
 21
-18.0167296074
  0
LINE
  5
301
100
AcDbEntity
  8
0
100
AcDbLine
 62
7
  6
CONTINUOUS
 10
2.0675618258
 20
-18.0167296074
 11
2.0903829974
 21
-18.0334536474
  0
LINE
  5
302
100
AcDbEntity
  8
DRAFT
100
AcDbLine
 62
7
  6
CONTINUOUS
 10
-13.2684543182
 20
-8.7207593462
 11
-13.2807826941
 21
-8.680539721
  0
LINE
  5
303
100
AcDbEntity
  8
DRAFT
100
AcDbLine
 62
7
  6
CONTINUOUS
 10
-11.0764233701
 20
-9.8167748203
 11
-11.0887517435
 21
-9.7765551956
  0
LWPOLYLINE
  5
304
100
AcDbEntity
  8
DRAFT
100
AcDbPolyline
 62
7
  6
CONTINUOUS
 90
25
 70
0
 10
-12.207792827
 20
-8.3838749928
 10
-12.1957580033
 20
-8.4242420542
 10
-12.1847427078
 20
-8.4645211505
 10
-12.17474647
 20
-8.5047120426
 10
-12.1657580333
 20
-8.5448714558
 10
-12.1577876568
 20
-8.5849421565
 10
-12.1508673084
 20
-8.6247530484
 10
-12.1450012615
 20
-8.6642952272
 10
-12.1401846115
 20
-8.7035772677
 10
-12.1364358866
 20
-8.742454454
 10
-12.1337598096
 20
-8.7809267212
 10
-12.1321513227
 20
-8.8189939505
 10
-12.1316146047
 20
-8.856511505
 10
-12.1321526232
 20
-8.8934779639
 10
-12.1337624089
 20
-8.9298947302
 10
-12.1364395681
 20
-8.9656215694
 10
-12.1401891053
 20
-9.0006537617
 10
-12.1450063481
 20
-9.0349961768
 10
-12.1508727099
 20
-9.068523127
 10
-12.1577930751
 20
-9.1012383768
 10
-12.1657631894
 20
-9.133138463
 10
-12.1747510845
 20
-9.1640870216
 10
-12.1847464995
 20
-9.1940387928
 10
-12.1957606886
 20
-9.2230395238
 10
-12.2077941207
 20
-9.2510894449
  0
LWPOLYLINE
  5
305
100
AcDbEntity
  8
DRAFT
100
AcDbPolyline
 62
7
  6
CONTINUOUS
 90
25
 70
0
 10
-10.1925385798
 20
-9.3915021164
 10
-10.1805037536
 20
-9.4318691782
 10
-10.1694884558
 20
-9.4721482751
 10
-10.1594922158
 20
-9.5123391678
 10
-10.1505037772
 20
-9.5524985817
 10
-10.142533399
 20
-9.5925692832
 10
-10.1356130492
 20
-9.6323801759
 10
-10.1297470009
 20
-9.6719223555
 10
-10.1249303499
 20
-9.7112043968
 10
-10.1211816241
 20
-9.7500815839
 10
-10.1185055465
 20
-9.7885538517
 10
-10.1168970593
 20
-9.8266210817
 10
-10.1163603411
 20
-9.8641386367
 10
-10.1168983598
 20
-9.9011050961
 10
-10.1185081459
 20
-9.9375218626
 10
-10.1211853057
 20
-9.9732487019
 10
-10.1249348437
 20
-10.0082808941
 10
-10.1297520875
 20
-10.042623309
 10
-10.1356184506
 20
-10.0761502588
 10
-10.1425388173
 20
-10.1088655079
 10
-10.1505089334
 20
-10.1407655931
 10
-10.1594968304
 20
-10.1717141506
 10
-10.1694922474
 20
-10.2016659203
 10
-10.1805064389
 20
-10.2306666495
 10
-10.1925398735
 20
-10.2587165685
  0
LINE
  5
306
100
AcDbEntity
  8
SUPERFICI
100
AcDbLine
 62
7
  6
CONTINUOUS
 10
-12.1919568357
 20
-8.4377779656
 11
-12.207792827
 21
-8.3838749928
  0
LINE
  5
307
100
AcDbEntity
  8
SUPERFICI
100
AcDbLine
 62
7
  6
CONTINUOUS
 10
-10.1767025852
 20
-9.4454050898
 11
-10.1925385798
 21
-9.3915021164
  0
LWPOLYLINE
  5
308
100
AcDbEntity
  8
DRAFT
100
AcDbPolyline
 62
7
  6
CONTINUOUS
 90
22
 70
0
 10
-13.2807826941
 20
-8.680539721
 10
-13.2920713658
 20
-8.6403976918
 10
-13.3023198633
 20
-8.6003330275
 10
-13.3115388728
 20
-8.5602888453
 10
-13.3197167124
 20
-8.5203215397
 10
-13.3268195255
 20
-8.4806008795
 10
-13.3328424519
 20
-8.4411353346
 10
-13.3377897209
 20
-8.4019161334
 10
-13.3416414349
 20
-8.363087348
 10
-13.3443925816
 20
-8.3246487683
 10
-13.3460478377
 20
-8.2866004527
 10
-13.3466021604
 20
-8.2490870374
 10
-13.3460525499
 20
-8.2121097199
 10
-13.3444020034
 20
-8.1756673184
 10
-13.3416548068
 20
-8.1399010669
 10
-13.3378062012
 20
-8.1048158326
 10
-13.3328612782
 20
-8.0704069307
 10
-13.3268394241
 20
-8.0368014288
 10
-13.3197362367
 20
-8.0039958906
 10
-13.3115567506
 20
-7.9719940823
 10
-13.3023348354
 20
-7.9409340375
 10
-13.292082178
 20
-7.9108619686
  0
LWPOLYLINE
  5
309
100
AcDbEntity
  8
DRAFT
100
AcDbPolyline
 62
7
  6
CONTINUOUS
 90
22
 70
0
 10
-11.0887517435
 20
-9.7765551956
 10
-11.1000404128
 20
-9.7364131668
 10
-11.1102889082
 20
-9.6963485032
 10
-11.1195079158
 20
-9.6563043217
 10
-11.1276857537
 20
-9.6163370169
 10
-11.1347885652
 20
-9.5766163575
 10
-11.1408114904
 20
-9.5371508134
 10
-11.1457587584
 20
-9.497931613
 10
-11.1496104715
 20
-9.4591028284
 10
-11.1523616176
 20
-9.4206642493
 10
-11.1540168734
 20
-9.3826159344
 10
-11.1545711959
 20
-9.3451025196
 10
-11.1540215856
 20
-9.3081252025
 10
-11.1523710394
 20
-9.2716828013
 10
-11.1496238434
 20
-9.2359165499
 10
-11.1457752386
 20
-9.2008313155
 10
-11.1408303167
 20
-9.1664224134
 10
-11.1348084639
 20
-9.132816911
 10
-11.1277052779
 20
-9.1000113721
 10
-11.1195257936
 20
-9.068009563
 10
-11.1103038803
 20
-9.0369495169
 10
-11.100051225
 20
-9.0068774466
  0
LWPOLYLINE
  5
30A
100
AcDbEntity
  8
0
100
AcDbPolyline
 62
250
  6
CONTINUOUS
 90
3
 70
0
 10
-14.4275683489
 20
28.997460995
 10
-14.4281649868
 20
29.0033809989
 10
-14.4282536715
 20
29.006710206
  0
LWPOLYLINE
  5
30B
100
AcDbEntity
  8
0
100
AcDbPolyline
 62
250
  6
CONTINUOUS
 90
22
 70
0
 10
-12.6764922964
 20
28.0790528233
 10
-12.6763240005
 20
28.0696918729
 10
-12.6758194333
 20
28.0605170419
 10
-12.6749795555
 20
28.0515457996
 10
-12.6738059697
 20
28.0427952509
 10
-12.6723009088
 20
28.0342820329
 10
-12.6704672224
 20
28.02602229
 10
-12.6683083784
 20
28.0180317024
 10
-12.665828491
 20
28.0103255488
 10
-12.6630323112
 20
28.0029185999
 10
-12.6599251887
 20
27.9958250004
 10
-12.6565130266
 20
27.9890582042
 10
-12.6528022986
 20
27.9826310472
 10
-12.6488000379
 20
27.9765557272
 10
-12.6445138887
 20
27.9708438634
 10
-12.6399520792
 20
27.9655064105
 10
-12.6351233497
 20
27.9605535604
 10
-12.6300368639
 20
27.95599468
 10
-12.6247022489
 20
27.9518383868
 10
-12.6191289787
 20
27.9480921698
 10
-12.6133282928
 20
27.944763687
 10
-12.611526939
 20
27.9438383431
  0
LINE
  5
30C
100
AcDbEntity
  8
0
100
AcDbLine
 62
250
  6
CONTINUOUS
 10
-11.9652716883
 20
27.1116365732
 11
-11.9652716883
 21
27.79236464
  0
LINE
  5
30D
100
AcDbEntity
  8
0
100
AcDbLine
 62
250
  6
CONTINUOUS
 10
-11.6127497286
 20
27.1224044548
 11
-11.6127497286
 21
27.9300365765
  0
LINE
  5
30E
100
AcDbEntity
  8
0
100
AcDbLine
 62
7
  6
CONTINUOUS
 10
-10.7226895459
 20
27.6190853761
 11
-10.7226895459
 21
29.221236037
  0
LINE
  5
30F
100
AcDbEntity
  8
0
100
AcDbLine
 62
250
  6
CONTINUOUS
 10
-10.1944223742
 20
29.4846748571
 11
-10.1944223742
 21
29.1371433403
  0
LINE
  5
310
100
AcDbEntity
  8
0
100
AcDbLine
 62
7
  6
CONTINUOUS
 10
-10.1222245172
 20
29.5725474892
 11
-10.1222245172
 21
29.2250159725
  0
LINE
  5
311
100
AcDbEntity
  8
DRAFT
100
AcDbLine
 62
7
  6
CONTINUOUS
 10
-9.8388060694
 20
25.0354371652
 11
-9.8388060694
 21
25.2054654774
  0
LINE
  5
312
100
AcDbEntity
  8
0
100
AcDbLine
 62
7
  6
CONTINUOUS
 10
-9.79727999
 20
27.4738034898
 11
-9.79727999
 21
26.027640724
  0
LINE
  5
313
100
AcDbEntity
  8
0
100
AcDbLine
 62
7
  6
CONTINUOUS
 10
-9.1378701156
 20
25.6979357868
 11
-9.1378701156
 21
27.1440985526
  0
LWPOLYLINE
  5
314
100
AcDbEntity
  8
0
100
AcDbPolyline
 62
250
  6
CONTINUOUS
 90
18
 70
0
 10
-10.1222245172
 20
29.5725475069
 10
-10.1222780787
 20
29.5699601211
 10
-10.1228045061
 20
29.564037817
 10
-10.1238919184
 20
29.5581346442
 10
-10.1255378731
 20
29.5522638774
 10
-10.1277386703
 20
29.546438723
 10
-10.1304893632
 20
29.5406722821
 10
-10.133783767
 20
29.5349775256
 10
-10.1376144715
 20
29.5293672667
 10
-10.1419728611
 20
29.523854125
 10
-10.1468491347
 20
29.5184505
 10
-10.1522323242
 20
29.5131685472
 10
-10.1581103254
 20
29.5080201445
 10
-10.1644699155
 20
29.5030168746
 10
-10.1712967783
 20
29.4981699998
 10
-10.1785755524
 20
29.4934904237
 10
-10.1862898686
 20
29.488988668
 10
-10.1944223742
 20
29.4846748571
  0
LWPOLYLINE
  5
315
100
AcDbEntity
  8
DRAFT
100
AcDbPolyline
 62
7
  6
CONTINUOUS
 90
3
 70
0
 10
-15.3073365999
 20
-6.9032347591
 10
-15.2960425138
 20
-6.8741049603
 10
-15.2837074677
 20
-6.8459176724
  0
LWPOLYLINE
  5
316
100
AcDbEntity
  8
DRAFT
100
AcDbPolyline
 62
7
  6
CONTINUOUS
 90
3
 70
0
 10
-13.292082178
 20
-7.9108619686
 10
-13.2807880895
 20
-7.8817321716
 10
-13.2684530409
 20
-7.8535448858
  0
LWPOLYLINE
  5
317
100
AcDbEntity
  8
SUPERFICI
100
AcDbPolyline
 62
7
  6
CONTINUOUS
 90
18
 70
0
 10
-14.3998252485
 20
-8.1550738811
 10
-14.3839656099
 20
-8.1173112964
 10
-14.3699420872
 20
-8.077943945
 10
-14.3577537047
 20
-8.0369713501
 10
-14.3473797435
 20
-7.9942874842
 10
-14.3388388109
 20
-7.9499973449
 10
-14.3321894295
 20
-7.9044172514
 10
-14.3274466458
 20
-7.8575458155
 10
-14.3245944321
 20
-7.8093839717
 10
-14.3236457352
 20
-7.7602520439
 10
-14.3246110422
 20
-7.7101439856
 10
-14.3274798885
 20
-7.6590658948
 10
-14.3322348167
 20
-7.6073568241
 10
-14.3388910165
 20
-7.5550075215
 10
-14.3474343369
 20
-7.502027795
 10
-14.3578043306
 20
-7.4487857939
 10
-14.3699817466
 20
-7.3954046916
 10
-14.3839879601
 20
-7.3417624024
  0
LWPOLYLINE
  5
318
100
AcDbEntity
  8
SUPERFICI
100
AcDbPolyline
 62
7
  6
CONTINUOUS
 90
19
 70
0
 10
-15.2837074677
 20
-6.8459176724
 10
-15.2999665943
 20
-6.8838648893
 10
-15.3143490081
 20
-6.9233997975
 10
-15.3268537304
 20
-6.9645218966
 10
-15.3374999753
 20
-7.0073368843
 10
-15.3462664114
 20
-7.0517379786
 10
-15.353091753
 20
-7.0974062112
 10
-15.3579598067
 20
-7.1443424078
 10
-15.3608857817
 20
-7.1925452138
 10
-15.3618565334
 20
-7.2416929055
 10
-15.3608615385
 20
-7.291791488
 10
-15.3579113412
 20
-7.3428349264
 10
-15.3530254234
 20
-7.394483949
 10
-15.3461896853
 20
-7.4467480738
 10
-15.3374192647
 20
-7.4996182652
 10
-15.3267785204
 20
-7.5527279347
 10
-15.3142898026
 20
-7.605955327
 10
-15.2999328832
 20
-7.6594232329
 10
-15.283708745
 20
-7.7131321328
  0
LWPOLYLINE
  5
319
100
AcDbEntity
  8
0
100
AcDbPolyline
 62
7
  6
CONTINUOUS
 90
25
 70
0
 10
-2.449540206
 20
23.9432838981
 10
-2.4439622158
 20
23.9553107668
 10
-2.4388551198
 20
23.9677753066
 10
-2.434218918
 20
23.9806775174
 10
-2.4300484577
 20
23.9940368241
 10
-2.4263488916
 20
24.0078338019
 10
-2.423135678
 20
24.022010176
 10
-2.420410853
 20
24.0365675256
 10
-2.4181723805
 20
24.0515042715
 10
-2.4164296106
 20
24.0667574021
 10
-2.415184617
 20
24.0823282361
 10
-2.414435326
 20
24.0982154548
 10
-2.414184867
 20
24.1143520894
 10
-2.414435326
 20
24.1307391831
 10
-2.415184617
 20
24.1473756927
 10
-2.4164296106
 20
24.1641915204
 10
-2.4181723805
 20
24.1811874208
 10
-2.420410853
 20
24.1983626393
 10
-2.423135678
 20
24.2156448139
 10
-2.4263488916
 20
24.2330344016
 10
-2.4300484577
 20
24.2505309455
 10
-2.434218918
 20
24.2680607126
 10
-2.4388551198
 20
24.2855991251
 10
-2.4439622158
 20
24.3031707609
 10
-2.449540206
 20
24.3207756198
  0
LWPOLYLINE
  5
31A
100
AcDbEntity
  8
0
100
AcDbPolyline
 62
7
  6
CONTINUOUS
 90
7
 70
0
 10
2.1245961909
 20
22.9144791774
 10
2.1435160848
 20
22.9408203949
 10
2.1588725083
 20
22.9694013675
 10
2.1704008521
 20
22.9997390837
 10
2.1779138547
 20
23.0313848492
 10
2.1812556841
 20
23.0637602014
 10
2.1814334746
 20
23.0731762733
  0
LINE
  5
31B
100
AcDbEntity
  8
DRAFT
100
AcDbLine
 62
7
  6
CONTINUOUS
 10
-0.5403518968
 20
-12.3077343679
 11
1.208901164
 21
-13.1823608983
  0
LINE
  5
31C
100
AcDbEntity
  8
RACCORDO
100
AcDbLine
 62
250
  6
CONTINUOUS
 10
-20.0280326616
 20
-2.2735091491
 11
-5.3793721765
 21
-9.5978393917
  0
LWPOLYLINE
  5
31D
100
AcDbEntity
  8
0
100
AcDbPolyline
 62
7
  6
CONTINUOUS
 90
4
 70
0
 10
2.0903829974
 20
-18.0334536474
 10
2.1112866041
 20
-18.052771397
 10
2.129811641
 20
-18.0742787512
 10
2.1457765272
 20
-18.0977429835
  0
LWPOLYLINE
  5
31E
100
AcDbEntity
  8
0
100
AcDbPolyline
 62
250
  6
CONTINUOUS
 90
34
 70
0
 10
-0.0203123441
 20
-19.3728930363
 10
-0.0247328696
 20
-19.3659742553
 10
-0.0295400649
 20
-19.358870445
 10
-0.0347230805
 20
-19.3515976385
 10
-0.0402702185
 20
-19.34417225
 10
-0.0461689596
 20
-19.3366110381
 10
-0.0524059904
 20
-19.328931068
 10
-0.0589672344
 20
-19.3211496731
 10
-0.0658378834
 20
-19.3132844154
 10
-0.0730024305
 20
-19.3053530464
 10
-0.080444706
 20
-19.2973734667
 10
-0.0881479129
 20
-19.2893636857
 10
-0.0960946656
 20
-19.2813417811
 10
-0.1042670288
 20
-19.2733258578
 10
-0.1126465579
 20
-19.2653340072
 10
-0.1212143408
 20
-19.2573842666
 10
-0.1299510406
 20
-19.2494945779
 10
-0.138836939
 20
-19.2416827479
 10
-0.147851981
 20
-19.2339664072
 10
-0.1569758203
 20
-19.2263629712
 10
-0.1661878649
 20
-19.2188896005
 10
-0.1754673237
 20
-19.211563162
 10
-0.1847932536
 20
-19.204400191
 10
-0.1941446065
 20
-19.197416854
 10
-0.2035002769
 20
-19.1906289118
 10
-0.2128391496
 20
-19.1840516846
 10
-0.2221401474
 20
-19.1777000166
 10
-0.2313822785
 20
-19.1715882434
 10
-0.2405446838
 20
-19.1657301586
 10
-0.2496066845
 20
-19.1601389838
 10
-0.258547828
 20
-19.1548273379
 10
-0.2673479348
 20
-19.1498072088
 10
-0.2759871436
 20
-19.1450899269
 10
-0.2844459561
 20
-19.1406861386
  0
LINE
  5
31F
100
AcDbEntity
  8
RACCORDO
100
AcDbLine
 62
7
  6
CONTINUOUS
 10
-8.8315769431
 20
24.5318226021
 11
-8.8315769431
 21
24.7018509142
  0
LINE
  5
320
100
AcDbEntity
  8
0
100
AcDbLine
 62
7
  6
CONTINUOUS
 10
-8.424592507
 20
27.3274045836
 11
-8.424592507
 21
26.0937902319
  0
LINE
  5
321
100
AcDbEntity
  8
0
100
AcDbLine
 62
250
  6
CONTINUOUS
 10
-6.8001035436
 20
25.2815457502
 11
-6.8001035436
 21
26.5151601019
  0
LINE
  5
322
100
AcDbEntity
  8
0
100
AcDbLine
 62
250
  6
CONTINUOUS
 10
-6.5185003345
 20
25.2899294638
 11
-6.5185003345
 21
26.5145457351
  0
LINE
  5
323
100
AcDbEntity
  8
0
100
AcDbLine
 62
7
  6
CONTINUOUS
 10
-6.3032721635
 20
26.6218181125
 11
-6.3032721635
 21
25.4093766849
  0
LWPOLYLINE
  5
324
100
AcDbEntity
  8
0
100
AcDbPolyline
 62
250
  6
CONTINUOUS
 90
31
 70
0
 10
-6.8001035436
 20
26.5151601019
 10
-6.7999120022
 20
26.5242674819
 10
-6.7993374572
 20
26.5335471061
 10
-6.7983808084
 20
26.5429740747
 10
-6.7970437063
 20
26.5525248521
 10
-6.795329283
 20
26.5621718544
 10
-6.7932428645
 20
26.5718833704
 10
-6.7907906579
 20
26.5816310092
 10
-6.7879789561
 20
26.5913901831
 10
-6.7848153209
 20
26.6011345966
 10
-6.7813082643
 20
26.6108379124
 10
-6.7774673608
 20
26.6204735328
 10
-6.7733031672
 20
26.6300149424
 10
-6.7688270796
 20
26.6394360533
 10
-6.7640512321
 20
26.6487113486
 10
-6.7589885813
 20
26.6578156626
 10
-6.7536528808
 20
26.666724247
 10
-6.7480586674
 20
26.6754128169
 10
-6.7422211801
 20
26.683857697
 10
-6.7361563095
 20
26.6920358949
 10
-6.7298805574
 20
26.6999251555
 10
-6.723411009
 20
26.7075039974
 10
-6.7167652722
 20
26.7147517911
 10
-6.7099614344
 20
26.7216488081
 10
-6.7030180189
 20
26.7281762696
 10
-6.6959539194
 20
26.7343164121
 10
-6.6887883671
 20
26.7400525179
 10
-6.6815408851
 20
26.7453689594
 10
-6.6742312067
 20
26.7502512645
 10
-6.6668792211
 20
26.754686152
 10
-6.6595049389
 20
26.7586615539
  0
LWPOLYLINE
  5
325
100
AcDbEntity
  8
0
100
AcDbPolyline
 62
7
  6
CONTINUOUS
 90
10
 70
0
 10
-5.1579126459
 20
25.7354860093
 10
-5.1562750403
 20
25.7610239857
 10
-5.1513212442
 20
25.7864075489
 10
-5.1430569111
 20
25.8111272748
 10
-5.1315658124
 20
25.8347058066
 10
-5.1170497691
 20
25.8566279626
 10
-5.099812419
 20
25.8764273247
 10
-5.0800391154
 20
25.8938688006
 10
-5.0581430223
 20
25.9085578758
 10
-5.0496310058
 20
25.9132154167
  0
LWPOLYLINE
  5
326
100
AcDbEntity
  8
RACCORDO
100
AcDbPolyline
 62
250
  6
CONTINUOUS
 90
10
 70
0
 10
-3.5351521908
 20
17.7646511266
 10
-3.7157307531
 20
16.5735959809
 10
-3.8829320287
 20
15.3858685198
 10
-4.0367218196
 20
14.2017166171
 10
-4.1770690617
 20
13.0213876396
 10
-4.3039446024
 20
11.8451275714
 10
-4.4173211987
 20
10.6731809646
 10
-4.5171751658
 20
9.5057919869
 10
-4.6034863894
 20
8.3432043675
 10
-4.6762370948
 20
7.1856605244
  0
LWPOLYLINE
  5
327
100
AcDbEntity
  8
RACCORDO
100
AcDbPolyline
 62
7
  6
CONTINUOUS
 90
9
 70
0
 10
-1.5231975843
 20
26.3295264288
 10
-1.5247805784
 20
26.3217093512
 10
-1.5282029388
 20
26.311437744
 10
-1.5339666774
 20
26.2988813949
 10
-1.5422854329
 20
26.2846399754
 10
-1.5529640471
 20
26.2695807219
 10
-1.5657786014
 20
26.2542113487
 10
-1.5806218852
 20
26.2387608456
 10
-1.5870588222
 20
26.2326445023
  0
LWPOLYLINE
  5
328
100
AcDbEntity
  8
DRAFT
100
AcDbPolyline
 62
7
  6
CONTINUOUS
 90
3
 70
0
 10
-11.100051225
 20
-9.0068774466
 10
-11.0887571389
 20
-8.9777476477
 10
-11.0764220928
 20
-8.9495603599
  0
LWPOLYLINE
  5
329
100
AcDbEntity
  8
0
100
AcDbPolyline
 62
250
  6
CONTINUOUS
 90
30
 70
0
 10
-0.0203123441
 20
21.9267111031
 10
-0.0247288315
 20
21.9158290425
 10
-0.0295324338
 20
21.9051694453
 10
-0.034712578
 20
21.8947564964
 10
-0.0402582546
 20
21.884613109
 10
-0.0461568187
 20
21.8747631423
 10
-0.0523937603
 20
21.8652311212
 10
-0.0589544569
 20
21.8560392921
 10
-0.065824592
 20
21.8472076163
 10
-0.072988807
 20
21.8387558606
 10
-0.0804310504
 20
21.8307030194
 10
-0.0881344455
 20
21.8230674103
 10
-0.0960814567
 20
21.8158664348
 10
-0.1042540837
 20
21.8091163962
 10
-0.1126339368
 20
21.802832476
 10
-0.1212021189
 20
21.7970288467
 10
-0.1299393033
 20
21.7917186047
 10
-0.1388257561
 20
21.7869137487
 10
-0.1478413992
 20
21.7826251368
 10
-0.1569658746
 20
21.7788624524
 10
-0.1661785922
 20
21.7756341857
 10
-0.1754587564
 20
21.7729476237
 10
-0.184785419
 20
21.7708088308
 10
-0.1941375269
 20
21.7692226353
 10
-0.2034939689
 20
21.7681926175
 10
-0.2128336356
 20
21.7677211024
 10
-0.2221354336
 20
21.7678091559
 10
-0.2313783332
 20
21.768456576
 10
-0.2405414497
 20
21.7696618918
 10
-0.2471558524
 20
21.7708899454
  0
LWPOLYLINE
  5
32A
100
AcDbEntity
  8
SUPERFICI
100
AcDbPolyline
 62
7
  6
CONTINUOUS
 90
18
 70
0
 10
-12.2077941207
 20
-9.2510894449
 10
-12.1919344855
 20
-9.2133268576
 10
-12.1779109658
 20
-9.1739595041
 10
-12.1657225858
 20
-9.1329869075
 10
-12.1553486269
 20
-9.0903030404
 10
-12.1468076962
 20
-9.0460129004
 10
-12.1401583162
 20
-9.0004328064
 10
-12.1354155335
 20
-8.9535613705
 10
-12.1325633205
 20
-8.905399527
 10
-12.1316146238
 20
-8.8562675997
 10
-12.1325799306
 20
-8.8061595421
 10
-12.1354487763
 20
-8.7550814522
 10
-12.1402037034
 20
-8.7033723825
 10
-12.1468599017
 20
-8.651023081
 10
-12.1554032202
 20
-8.5980433556
 10
-12.1657732117
 20
-8.5448013555
 10
-12.1779506252
 20
-8.491420254
 10
-12.1919568357
 20
-8.4377779656
  0
LWPOLYLINE
  5
32B
100
AcDbEntity
  8
SUPERFICI
100
AcDbPolyline
 62
7
  6
CONTINUOUS
 90
19
 70
0
 10
-13.2684530409
 20
-7.8535448858
 10
-13.2847121709
 20
-7.8914921001
 10
-13.2990945876
 20
-7.931027006
 10
-13.3115993125
 20
-7.9721491035
 10
-13.3222455597
 20
-8.01496409
 10
-13.3310119976
 20
-8.0593651835
 10
-13.3378373407
 20
-8.1050334157
 10
-13.3427053955
 20
-8.1519696123
 10
-13.345631371
 20
-8.2001724186
 10
-13.346602123
 20
-8.2493201108
 10
-13.3456071278
 20
-8.2994186941
 10
-13.3426569299
 20
-8.3504621334
 10
-13.337771011
 20
-8.4021111569
 10
-13.3309352714
 20
-8.4543752828
 10
-13.322164849
 20
-8.5072454753
 10
-13.3115241025
 20
-8.5603551458
 10
-13.2990353821
 20
-8.6135825389
 10
-13.2846784598
 20
-8.6670504456
 10
-13.2684543182
 20
-8.7207593462
  0
LWPOLYLINE
  5
32C
100
AcDbEntity
  8
SUPERFICI
100
AcDbPolyline
 62
7
  6
CONTINUOUS
 90
19
 70
0
 10
-11.0764220928
 20
-8.9495603599
 10
-11.0926812194
 20
-8.9875075768
 10
-11.1070636331
 20
-9.0270424849
 10
-11.1195683555
 20
-9.0681645841
 10
-11.1302146004
 20
-9.1109795718
 10
-11.1389810365
 20
-9.1553806661
 10
-11.1458063781
 20
-9.2010488986
 10
-11.1506744318
 20
-9.2479850953
 10
-11.1536004068
 20
-9.2961879013
 10
-11.1545711585
 20
-9.3453355929
 10
-11.1535761636
 20
-9.3954341755
 10
-11.1506259663
 20
-9.4464776139
 10
-11.1457400484
 20
-9.4981266364
 10
-11.1389043103
 20
-9.5503907612
 10
-11.1301338897
 20
-9.6032609526
 10
-11.1194931455
 20
-9.6563706222
 10
-11.1070044277
 20
-9.7095980144
 10
-11.0926475083
 20
-9.7630659203
 10
-11.0764233701
 20
-9.8167748203
  0
LWPOLYLINE
  5
32D
100
AcDbEntity
  8
RACCORDO
100
AcDbPolyline
 62
250
  6
CONTINUOUS
 90
47
 70
0
 10
8.7677900884
 20
25.7848854282
 10
8.8067228627
 20
25.8369274229
 10
8.856006081
 20
25.8937081004
 10
8.9111397557
 20
25.9492987147
 10
8.971643234
 20
26.003241237
 10
9.0375155856
 20
26.0554941365
 10
9.1087577409
 20
26.106098944
 10
9.1848918386
 20
26.1547222225
 10
9.2659084676
 20
26.201349965
 10
9.351817039
 20
26.2459961786
 10
9.4421679247
 20
26.2883694477
 10
9.5372182049
 20
26.3285286457
 10
9.6367107994
 20
26.3664148992
 10
9.7394248398
 20
26.4015601723
 10
9.8457657085
 20
26.4339378922
 10
9.9553280231
 20
26.4635746318
 10
10.0656747675
 20
26.490082074
 10
10.1767792844
 20
26.5132814674
 10
10.2886682312
 20
26.5333515635
 10
10.3989845633
 20
26.5504402993
 10
10.5073750532
 20
26.5644141951
 10
10.6141929284
 20
26.5754067307
 10
10.7181408276
 20
26.5839662819
 10
10.818976662
 20
26.5900688515
 10
10.9169425203
 20
26.5937384367
 10
11.0114673066
 20
26.5955954055
 10
11.1023890467
 20
26.5956612743
 10
11.1898697149
 20
26.5939145268
 10
11.2738241382
 20
26.5909109814
 10
11.3541282116
 20
26.5866921808
 10
11.4309060402
 20
26.5812165823
 10
11.5044447667
 20
26.5749153767
 10
11.5747113004
 20
26.5678293429
 10
11.6417387319
 20
26.559917702
 10
11.7059134761
 20
26.5514893079
 10
11.7672212229
 20
26.5425786673
 10
11.8256762823
 20
26.5331512735
 10
11.8817079988
 20
26.5234124597
 10
11.9353125824
 20
26.513390938
 10
11.986493823
 20
26.5030579962
 10
12.0356924353
 20
26.4925328315
 10
12.0829115802
 20
26.4818382923
 10
12.1281480968
 20
26.4709515302
 10
12.1718332167
 20
26.4599231966
 10
12.2141106838
 20
26.4487701753
 10
12.2548367542
 20
26.4374755824
 10
12.2940114279
 20
26.4260394181
  0
LWPOLYLINE
  5
32E
100
AcDbEntity
  8
RACCORDO
100
AcDbPolyline
 62
250
  6
CONTINUOUS
 90
10
 70
0
 10
8.6861362189
 20
25.8185430702
 10
8.688430907
 20
25.8216030809
 10
8.7412935581
 20
25.8823201789
 10
8.8003724286
 20
25.9415793962
 10
8.865465208
 20
25.9991873294
 10
8.9363410398
 20
26.054960797
 10
9.0128341776
 20
26.1087887325
 10
9.0948255814
 20
26.1605899162
 10
9.1820741783
 20
26.2102075555
 10
9.2024435577
 20
26.2210765369
  0
LINE
  5
32F
100
AcDbEntity
  8
DRAFT
100
AcDbLine
 62
7
  6
CONTINUOUS
 10
18.4168908236
 20
19.2448340854
 11
19.4876139175
 21
19.9373687426
  0
LWPOLYLINE
  5
330
100
AcDbEntity
  8
RACCORDO
100
AcDbPolyline
 62
250
  6
CONTINUOUS
 90
16
 70
0
 10
-3.9793935677
 20
7.1503692677
 10
-4.0184057996
 20
7.1368565051
 10
-4.0606512159
 20
7.1254017825
 10
-4.1056822504
 20
7.1161264562
 10
-4.153021825
 20
7.1091287931
 10
-4.2021684038
 20
7.1044829293
 10
-4.2526013068
 20
7.1022380852
 10
-4.3037862262
 20
7.1024180435
 10
-4.3551808868
 20
7.1050208978
 10
-4.4062407915
 20
7.1100190723
 10
-4.4564249897
 20
7.1173596141
 10
-4.5052018083
 20
7.1269647545
 10
-4.5520544848
 20
7.1387327323
 10
-4.5964866418
 20
7.1525388727
 10
-4.6380275457
 20
7.1682369073
 10
-4.6762370945
 20
7.1856605246
  0
LWPOLYLINE
  5
331
100
AcDbEntity
  8
0
100
AcDbPolyline
 62
7
  6
CONTINUOUS
 90
6
 70
0
 10
2.1457765272
 20
-18.0977429835
 10
2.1591357076
 20
-18.1232101214
 10
2.1696013088
 20
-18.1504166462
 10
2.1768626352
 20
-18.1788303583
 10
2.1807635307
 20
-18.2081271781
 10
2.1814331937
 20
-18.2266048342
  0
LWPOLYLINE
  5
332
100
AcDbEntity
  8
0
100
AcDbPolyline
 62
250
  6
CONTINUOUS
 90
13
 70
0
 10
2.1063101815
 20
-18.0888062195
 10
2.1016692895
 20
-18.0791602896
 10
2.0966441587
 20
-18.0698467072
 10
2.0912461357
 20
-18.0608865062
 10
2.0854874217
 20
-18.0522999368
 10
2.0793810284
 20
-18.0441063911
 10
2.0729407304
 20
-18.0363243432
 10
2.0661810489
 20
-18.0289713366
 10
2.0591170577
 20
-18.0220637978
 10
2.0517648685
 20
-18.01561751
 10
2.0441416472
 20
-18.0096474451
 10
2.0362648522
 20
-18.0041670982
 10
2.0281521266
 20
-17.9991885731
  0
LWPOLYLINE
  5
333
100
AcDbEntity
  8
RACCORDO
100
AcDbPolyline
 62
250
  6
CONTINUOUS
 90
19
 70
0
 10
-4.4040762091
 20
-19.5546645927
 10
-4.4002170993
 20
-19.5862499938
 10
-4.3942883812
 20
-19.6160840049
 10
-4.3862900547
 20
-19.6441666259
 10
-4.3761482438
 20
-19.6706673908
 10
-4.3639368245
 20
-19.6954167656
 10
-4.3498774253
 20
-19.7179061488
 10
-4.3339353117
 20
-19.7380752987
 10
-4.3161452182
 20
-19.755984457
 10
-4.2968329763
 20
-19.7713057475
 10
-4.2759729097
 20
-19.7839881295
 10
-4.2535906947
 20
-19.7940826436
 10
-4.2300891921
 20
-19.8014145352
 10
-4.2054317364
 20
-19.8059285027
 10
-4.179654993
 20
-19.8076798477
 10
-4.1532718188
 20
-19.8066597205
 10
-4.1264531662
 20
-19.8028651711
 10
-4.0990280829
 20
-19.7962991495
 10
-4.0709965689
 20
-19.7869616558
  0
LWPOLYLINE
  5
334
100
AcDbEntity
  8
RACCORDO
100
AcDbPolyline
 62
250
  6
CONTINUOUS
 90
12
 70
0
 10
-5.1001720216
 20
-19.5916277512
 10
-5.092639159
 20
-19.6545189441
 10
-5.0808698295
 20
-19.7144413314
 10
-5.0649337051
 20
-19.7710354317
 10
-5.0449229032
 20
-19.8239635535
 10
-5.0209581756
 20
-19.8729068606
 10
-4.993188658
 20
-19.9175677784
 10
-4.961779362
 20
-19.9576790847
 10
-4.9269169936
 20
-19.9930025262
 10
-4.888815405
 20
-20.0233248782
 10
-4.8476997398
 20
-20.0484657825
 10
-4.840671492
 20
-20.0520906875
  0
LINE
  5
335
100
AcDbEntity
  8
0
100
AcDbLine
 62
7
  6
CONTINUOUS
 10
-5.606586258
 20
25.7593460037
 11
-5.6151469623
 21
26.9669924548
  0
LINE
  5
336
100
AcDbEntity
  8
0
100
AcDbLine
 62
250
  6
CONTINUOUS
 10
-3.0573736012
 20
27.6817150904
 11
-3.0651360599
 21
28.7749942218
  0
LINE
  5
337
100
AcDbEntity
  8
0
100
AcDbLine
 62
7
  6
CONTINUOUS
 10
-5.1579126459
 20
25.7354860093
 11
-5.1579126459
 21
24.5045325306
  0
LINE
  5
338
100
AcDbEntity
  8
0
100
AcDbLine
 62
250
  6
CONTINUOUS
 10
-5.0993340022
 20
25.6647753311
 11
-5.0993340022
 21
24.4311609795
  0
LINE
  5
339
100
AcDbEntity
  8
0
100
AcDbLine
 62
7
  6
CONTINUOUS
 10
-4.1757809925
 20
24.663053991
 11
-4.1757809925
 21
23.2168912253
  0
LINE
  5
33A
100
AcDbEntity
  8
0
100
AcDbLine
 62
7
  6
CONTINUOUS
 10
-3.5163711182
 20
22.8871862881
 11
-3.5163711182
 21
24.3333490539
  0
LINE
  5
33B
100
AcDbEntity
  8
DRAFT
100
AcDbLine
 62
7
  6
CONTINUOUS
 10
-3.4748450387
 20
22.0234849621
 11
-3.4748450387
 21
21.8534566499
  0
LINE
  5
33C
100
AcDbEntity
  8
RACCORDO
100
AcDbLine
 62
250
  6
CONTINUOUS
 10
-2.7819948138
 20
26.7437572047
 11
-2.7819948138
 21
25.8788386768
  0
LWPOLYLINE
  5
33D
100
AcDbEntity
  8
RACCORDO
100
AcDbPolyline
 62
250
  6
CONTINUOUS
 90
10
 70
0
 10
-5.3793721765
 20
-9.5978393917
 10
-5.4027586567
 20
-10.7350444455
 10
-5.412538232
 20
-11.866098485
 10
-5.4087086483
 20
-12.9907658562
 10
-5.3912700001
 20
-14.1088124188
 10
-5.3602259805
 20
-15.2200051552
 10
-5.3155838734
 20
-16.3241122153
 10
-5.2573528884
 20
-17.4209035525
 10
-5.1855441661
 20
-18.5101509749
 10
-5.1001720216
 20
-19.5916277512
  0
LWPOLYLINE
  5
33E
100
AcDbEntity
  8
RACCORDO
100
AcDbPolyline
 62
250
  6
CONTINUOUS
 90
10
 70
0
 10
-4.6818255142
 20
-9.6163471484
 10
-4.7050779928
 20
-10.7476135692
 10
-4.7147971303
 20
-11.8723044918
 10
-4.7109829266
 20
-12.9904199162
 10
-4.6936287646
 20
-14.1021954872
 10
-4.6627412614
 20
-15.20739556
 10
-4.618340269
 20
-16.3053132003
 10
-4.5604324048
 20
-17.3957127635
 10
-4.4890110515
 20
-18.4788298943
 10
-4.4040762091
 20
-19.5546645927
  0
LWPOLYLINE
  5
33F
100
AcDbEntity
  8
0
100
AcDbPolyline
 62
250
  6
CONTINUOUS
 90
13
 70
0
 10
-5.0993340022
 20
25.6647753311
 10
-5.0991424608
 20
25.6738827112
 10
-5.0985679157
 20
25.6831623353
 10
-5.0976112669
 20
25.692589304
 10
-5.0962741648
 20
25.7021400814
 10
-5.0945597415
 20
25.7117870837
 10
-5.092473323
 20
25.7214985996
 10
-5.0900211165
 20
25.7312462384
 10
-5.0872094146
 20
25.7410054123
 10
-5.0840457794
 20
25.7507498259
 10
-5.0805387229
 20
25.7604531416
 10
-5.0766978194
 20
25.7700887621
 10
-5.0725336257
 20
25.7796301717
  0
LWPOLYLINE
  5
340
100
AcDbEntity
  8
RACCORDO
100
AcDbPolyline
 62
250
  6
CONTINUOUS
 90
5
 70
0
 10
-5.1314648024
 20
-2.1651209752
 10
-5.2031328578
 20
-4.0273244107
 10
-5.2683416298
 20
-5.8868801374
 10
-5.3270885492
 20
-7.7437295564
 10
-5.3793721765
 20
-9.5978393917
  0
LINE
  5
341
100
AcDbEntity
  8
RACCORDO
100
AcDbLine
 62
7
  6
CONTINUOUS
 10
-4.0398440776
 20
22.1359561694
 11
-4.0335927573
 21
22.2851722121
  0
LWPOLYLINE
  5
342
100
AcDbEntity
  8
RACCORDO
100
AcDbPolyline
 62
250
  6
CONTINUOUS
 90
4
 70
0
 10
-4.8777043259
 20
3.4374467536
 10
-4.9687515067
 20
1.5672471599
 10
-5.0533382811
 20
-0.3002779976
 10
-5.1314648024
 20
-2.1651209752
  0
LWPOLYLINE
  5
343
100
AcDbEntity
  8
RACCORDO
100
AcDbPolyline
 62
250
  6
CONTINUOUS
 90
8
 70
0
 10
-4.1806620321
 20
3.4058614178
 10
-4.2716168994
 20
1.5375761244
 10
-4.3561192076
 20
-0.3280718461
 10
-4.4341686058
 20
-2.1910740622
 10
-4.5057640409
 20
-4.0514052299
 10
-4.5709051618
 20
-5.9090569179
 10
-4.6295923196
 20
-7.7640375574
 10
-4.6818255142
 20
-9.6163471484
  0
LINE
  5
344
100
AcDbEntity
  8
RACCORDO
100
AcDbLine
 62
250
  6
CONTINUOUS
 10
-4.7801990737
 20
5.3102622868
 11
-4.8777043259
 21
3.4374467536
  0
LINE
  5
345
100
AcDbEntity
  8
RACCORDO
100
AcDbLine
 62
250
  6
CONTINUOUS
 10
-4.6762370948
 20
7.1856605244
 11
-4.7801990737
 21
5.3102622868
  0
LWPOLYLINE
  5
346
100
AcDbEntity
  8
RACCORDO
100
AcDbPolyline
 62
250
  6
CONTINUOUS
 90
3
 70
0
 10
-3.9793935677
 20
7.1503692677
 10
-4.0832542549
 20
5.2767924656
 10
-4.1806620321
 20
3.4058614178
  0
LINE
  5
347
100
AcDbEntity
  8
RACCORDO
100
AcDbLine
 62
7
  6
CONTINUOUS
 10
-1.5228549983
 20
26.3343967815
 11
-1.5231975843
 21
26.3295264288
  0
LWPOLYLINE
  5
348
100
AcDbEntity
  8
RACCORDO
100
AcDbPolyline
 62
250
  6
CONTINUOUS
 90
10
 70
0
 10
-2.844547762
 20
17.6705375687
 10
-3.0241927695
 20
16.4857107596
 10
-3.1904701542
 20
15.3046766769
 10
-3.3433799162
 20
14.1274353205
 10
-3.4829489015
 20
12.9537372525
 10
-3.6091502641
 20
11.7838319108
 10
-3.7219034658
 20
10.61846761
 10
-3.8211816606
 20
9.4578937883
 10
-3.9070116945
 20
8.3018610076
 10
-3.9793935677
 20
7.1503692677
  0
LWPOLYLINE
  5
349
100
AcDbEntity
  8
SUPERFICI
100
AcDbPolyline
 62
7
  6
CONTINUOUS
 90
18
 70
0
 10
-10.1925398735
 20
-10.2587165685
 10
-10.1766802349
 20
-10.2209539838
 10
-10.1626567123
 20
-10.1815866325
 10
-10.1504683297
 20
-10.1406140376
 10
-10.1400943685
 20
-10.0979301717
 10
-10.131553436
 20
-10.0536400324
 10
-10.1249040546
 20
-10.0080599389
 10
-10.1201612709
 20
-9.961188503
 10
-10.1173090572
 20
-9.9130266591
 10
-10.1163603603
 20
-9.8638947313
 10
-10.1173256673
 20
-9.813786673
 10
-10.1201945136
 20
-9.7627085822
 10
-10.1249494418
 20
-9.7109995116
 10
-10.1316056416
 20
-9.658650209
 10
-10.1401489619
 20
-9.6056704824
 10
-10.1505189556
 20
-9.5524284813
 10
-10.1626963717
 20
-9.4990473791
 10
-10.1767025852
 20
-9.4454050898
  0
LWPOLYLINE
  5
34A
100
AcDbEntity
  8
RACCORDO
100
AcDbPolyline
 62
7
  6
CONTINUOUS
 90
76
 70
0
 10
18.271955934
 20
19.6674984037
 10
18.3339693623
 20
19.7191166094
 10
18.3942792553
 20
19.7697472499
 10
18.452885613
 20
19.8193903254
 10
18.5097492021
 20
19.8680148844
 10
18.5649092558
 20
19.9156518783
 10
18.6184834742
 20
19.9623941612
 10
18.6704786979
 20
20.0082446767
 10
18.7208880862
 20
20.0532004812
 10
18.7698088168
 20
20.0973455972
 10
18.8172457533
 20
20.1406805558
 10
18.8631940321
 20
20.1832048259
 10
18.9077362398
 20
20.2250008366
 10
18.9508781291
 20
20.266068634
 10
18.9926139474
 20
20.306408172
 10
19.0330090231
 20
20.3461017422
 10
19.0720708441
 20
20.3851488656
 10
19.1097919226
 20
20.4235500212
 10
19.1462151235
 20
20.4613889373
 10
19.1813511483
 20
20.4986645311
 10
19.2151892956
 20
20.5353778854
 10
19.2477403259
 20
20.5716159774
 10
19.2790224043
 20
20.6073790076
 10
19.3090173657
 20
20.6426667756
 10
19.3376814757
 20
20.6775656573
 10
19.3650454864
 20
20.7120782382
 10
19.3910786456
 20
20.7462019328
 10
19.4156449628
 20
20.7800153605
 10
19.4388134156
 20
20.8135637261
 10
19.4605150263
 20
20.8468018247
 10
19.4804068709
 20
20.8796726611
 10
19.4985650947
 20
20.9122933015
 10
19.5149135523
 20
20.9445466797
 10
19.5288808839
 20
20.9760246014
 10
19.5404203304
 20
21.006740459
 10
19.5495786509
 20
21.03668086
 10
19.555924763
 20
21.0653974326
 10
19.5593494186
 20
21.0928498089
 10
19.5599618658
 20
21.1190783568
 10
19.5576587661
 20
21.1437558073
 10
19.5522746397
 20
21.1668444255
 10
19.5439749665
 20
21.1883819464
 10
19.5331528478
 20
21.2081543057
 10
19.5197320711
 20
21.2260325119
 10
19.503788849
 20
21.2421455565
 10
19.4859449208
 20
21.2566663511
 10
19.4662804476
 20
21.2695444124
 10
19.4447152683
 20
21.2808302236
 10
19.4216306387
 20
21.290848146
 10
19.3971008606
 20
21.2996266065
 10
19.371051632
 20
21.3071371781
 10
19.3436413033
 20
21.3136189419
 10
19.3149051983
 20
21.3191035146
 10
19.2848079931
 20
21.3235592793
 10
19.2534020664
 20
21.3271304666
 10
19.2207067995
 20
21.329837458
 10
19.1867028111
 20
21.3316598719
 10
19.1513843365
 20
21.332680794
 10
19.1147635953
 20
21.3329133866
 10
19.0768283679
 20
21.3323444875
 10
19.0375362303
 20
21.3310176952
 10
18.9968927344
 20
21.3289415979
 10
18.9548923284
 20
21.3261076075
 10
18.9114759328
 20
21.3225335585
 10
18.8666476852
 20
21.3182251696
 10
18.820403448
 20
21.3131767221
 10
18.7726717283
 20
21.3073888943
 10
18.7234631357
 20
21.3008671003
 10
18.6727670606
 20
21.293605926
 10
18.6204801817
 20
21.2855898076
 10
18.5666093927
 20
21.2768237882
 10
18.5111477998
 20
21.2673028247
 10
18.4539714004
 20
21.2569962232
 10
18.3950388603
 20
21.2458937526
 10
18.3343915138
 20
21.234005644
 10
18.2720293607
 20
21.2213318975
  0
LWPOLYLINE
  5
34B
100
AcDbEntity
  8
0
100
AcDbPolyline
 62
250
  6
CONTINUOUS
 90
5
 70
0
 10
2.1208354489
 20
-18.1302679256
 10
2.1178272061
 20
-18.1195170108
 10
2.1143982655
 20
-18.1090073736
 10
2.110556367
 20
-18.0987627362
 10
2.1063101815
 20
-18.0888062195
  0
LWPOLYLINE
  5
34C
100
AcDbEntity
  8
ASSI
100
AcDbPolyline
 62
7
  6
CONTINUOUS
 90
7
 70
0
 10
-1.0081374709
 20
-14.1095378954
 10
-1.0071686321
 20
-14.1161412444
 10
-1.0008683541
 20
-14.2010870846
 10
-1.0008683541
 20
-14.2839922127
 10
-1.0071686321
 20
-14.362637775
 10
-1.0199393249
 20
-14.4369087432
 10
-1.0222002043
 20
-14.445208653
  0
LWPOLYLINE
  5
34D
100
AcDbEntity
  8
0
100
AcDbPolyline
 62
250
  6
CONTINUOUS
 90
3
 70
0
 10
-2.1239116977
 20
22.8456410428
 10
-2.1245074962
 20
22.851561437
 10
-2.1245956789
 20
22.8548812173
  0
LINE
  5
34E
100
AcDbEntity
  8
DRAFT
100
AcDbLine
 62
7
  6
CONTINUOUS
 10
-0.8013667248
 20
-9.1740185463
 11
-0.5403518968
 21
-12.3077343679
  0
LINE
  5
34F
100
AcDbEntity
  8
RACCORDO
100
AcDbLine
 62
7
  6
CONTINUOUS
 10
-0.5265723092
 20
-2.614806568
 11
-0.5101290922
 21
-2.8122220551
  0
LINE
  5
350
100
AcDbEntity
  8
0
100
AcDbLine
 62
7
  6
CONTINUOUS
 10
0.0577821624
 20
0.6378494554
 11
1.208901164
 21
-13.1823608983
  0
LINE
  5
351
100
AcDbEntity
  8
0
100
AcDbLine
 62
7
  6
CONTINUOUS
 10
-2.1226383243
 20
22.8236586856
 11
-2.1245956727
 21
22.8549090386
  0
LWPOLYLINE
  5
352
100
AcDbEntity
  8
RACCORDO
100
AcDbPolyline
 62
250
  6
CONTINUOUS
 90
16
 70
0
 10
-2.4799650774
 20
18.1902031908
 10
-2.4809065489
 20
18.2369149988
 10
-2.485605325
 20
18.2850941011
 10
-2.4940100043
 20
18.3342131244
 10
-2.5060286191
 20
18.3837344023
 10
-2.5215296391
 20
18.4331158506
 10
-2.5403434078
 20
18.4818169009
 10
-2.5622640074
 20
18.52930444
 10
-2.5870515039
 20
18.5750586229
 10
-2.6144345651
 20
18.618578556
 10
-2.6441134543
 20
18.659387824
 10
-2.6757632954
 20
18.697039673
 10
-2.7090376113
 20
18.7311218889
 10
-2.7435721508
 20
18.7612613534
 10
-2.7789888798
 20
18.7871281218
 10
-2.8149000968
 20
18.8084390114
  0
LWPOLYLINE
  5
353
100
AcDbEntity
  8
0
100
AcDbPolyline
 62
250
  6
CONTINUOUS
 90
20
 70
0
 10
-0.3728343037
 20
-19.7123542466
 10
-0.3726355558
 20
-19.7225185335
 10
-0.3720397591
 20
-19.7324612173
 10
-0.3710482531
 20
-19.7421599413
 10
-0.3696632675
 20
-19.7515928969
 10
-0.3678879163
 20
-19.7607388736
 10
-0.3657261918
 20
-19.769577306
 10
-0.3631829545
 20
-19.77808832
 10
-0.3602639233
 20
-19.7862527781
 10
-0.3569756618
 20
-19.7940523219
 10
-0.3533255638
 20
-19.8014694135
 10
-0.3493218369
 20
-19.808487375
 10
-0.3449734838
 20
-19.815090426
 10
-0.3402902821
 20
-19.8212637191
 10
-0.3352827623
 20
-19.826993373
 10
-0.3299621842
 20
-19.8322665044
 10
-0.3243405116
 20
-19.837071256
 10
-0.3184303851
 20
-19.8413968241
 10
-0.3122450942
 20
-19.8452334823
 10
-0.3078610073
 20
-19.8475726967
  0
LWPOLYLINE
  5
354
100
AcDbEntity
  8
0
100
AcDbPolyline
 62
250
  6
CONTINUOUS
 90
20
 70
0
 10
-2.0513723742
 20
22.7664928621
 10
-2.0512040783
 20
22.7571319117
 10
-2.0506995111
 20
22.7479570807
 10
-2.0498596332
 20
22.7389858385
 10
-2.0486860475
 20
22.7302352898
 10
-2.0471809866
 20
22.7217220718
 10
-2.0453473002
 20
22.7134623289
 10
-2.0431884561
 20
22.7054717413
 10
-2.0407085687
 20
22.6977655877
 10
-2.037912389
 20
22.6903586387
 10
-2.0348052665
 20
22.6832650393
 10
-2.0313931043
 20
22.6764982431
 10
-2.0276823764
 20
22.670071086
 10
-2.0236801156
 20
22.6639957661
 10
-2.0193939665
 20
22.6582839023
 10
-2.014832157
 20
22.6529464494
 10
-2.0100034274
 20
22.6479935993
 10
-2.0049169417
 20
22.6434347189
 10
-1.9995823267
 20
22.6392784257
 10
-1.9940229581
 20
22.635541553
  0
LWPOLYLINE
  5
355
100
AcDbEntity
  8
0
100
AcDbPolyline
 62
250
  6
CONTINUOUS
 90
22
 70
0
 10
-0.3728343037
 20
21.9272238269
 10
-0.3726664715
 20
21.9178756575
 10
-0.3721630648
 20
21.9087099809
 10
-0.3713246978
 20
21.8997444114
 10
-0.3701524711
 20
21.8909952321
 10
-0.3686483526
 20
21.8824803578
 10
-0.3668155495
 20
21.874219024
 10
-0.3646578246
 20
21.866227885
 10
-0.3621790905
 20
21.8585211707
 10
-0.3593840331
 20
21.8511134716
 10
-0.3562779362
 20
21.8440188436
 10
-0.352866726
 20
21.8372508702
 10
-0.3491569416
 20
21.8308225371
 10
-0.3451556783
 20
21.8247461231
 10
-0.3408705325
 20
21.819033149
 10
-0.3363096324
 20
21.8136944532
 10
-0.3314816264
 20
21.8087401748
 10
-0.3263957332
 20
21.8041797886
 10
-0.3210617031
 20
21.8000220334
 10
-0.3154897386
 20
21.7962748408
 10
-0.3096904182
 20
21.7929453045
 10
-0.3078634779
 20
21.7920066122
  0
LWPOLYLINE
  5
356
100
AcDbEntity
  8
0
100
AcDbPolyline
 62
7
  6
CONTINUOUS
 90
6
 70
0
 10
-2.6018413715
 20
30.3303493843
 10
-2.6018466778
 20
30.330665482
 10
-2.602333439
 20
30.3334633697
 10
-2.6035874384
 20
30.3357562797
 10
-2.6055758196
 20
30.337567751
 10
-2.6068839789
 20
30.3383272927
  0
LINE
  5
357
100
AcDbEntity
  8
0
100
AcDbLine
 62
7
  6
CONTINUOUS
 10
-2.0742574406
 20
28.9018917153
 11
-2.0725712368
 21
28.3327229279
  0
LINE
  5
358
100
AcDbEntity
  8
RACCORDO
100
AcDbLine
 62
7
  6
CONTINUOUS
 10
-1.5228500697
 20
26.3344539087
 11
-1.5228500342
 21
26.3343549325
  0
LINE
  5
359
100
AcDbEntity
  8
0
100
AcDbLine
 62
7
  6
CONTINUOUS
 10
-2.6018413017
 20
29.0820495976
 11
-2.6018413017
 21
30.3298161887
  0
LINE
  5
35A
100
AcDbEntity
  8
0
100
AcDbLine
 62
7
  6
CONTINUOUS
 10
-2.449540206
 20
23.4825107061
 11
-2.449540206
 21
24.8681513522
  0
LINE
  5
35B
100
AcDbEntity
  8
RACCORDO
100
AcDbLine
 62
250
  6
CONTINUOUS
 10
-2.3691235976
 20
26.85601763
 11
-2.3691235976
 21
25.8734329702
  0
LINE
  5
35C
100
AcDbEntity
  8
0
100
AcDbLine
 62
7
  6
CONTINUOUS
 10
-2.1245956789
 20
23.1948551439
 11
-2.1245956789
 21
22.8548812098
  0
LINE
  5
35D
100
AcDbEntity
  8
0
100
AcDbLine
 62
250
  6
CONTINUOUS
 10
-2.0513723742
 20
23.1064667963
 11
-2.0513723742
 21
22.7664928621
  0
LINE
  5
35E
100
AcDbEntity
  8
RACCORDO
100
AcDbLine
 62
250
  6
CONTINUOUS
 10
-1.6107179989
 20
26.4768148306
 11
-1.6107179989
 21
26.2107386453
  0
LINE
  5
35F
100
AcDbEntity
  8
0
100
AcDbLine
 62
7
  6
CONTINUOUS
 10
-1.4216027246
 20
22.3488762355
 11
-1.4216027246
 21
21.8949224935
  0
LINE
  5
360
100
AcDbEntity
  8
0
100
AcDbLine
 62
250
  6
CONTINUOUS
 10
-1.3483794199
 20
22.3122645831
 11
-1.3483794199
 21
21.8031904389
  0
LINE
  5
361
100
AcDbEntity
  8
RACCORDO
100
AcDbLine
 62
7
  6
CONTINUOUS
 10
-0.5403518968
 20
-12.3077343679
 11
-0.5403518968
 21
-12.6542368593
  0
LINE
  5
362
100
AcDbEntity
  8
0
100
AcDbLine
 62
250
  6
CONTINUOUS
 10
-0.3728343037
 20
-19.7123542466
 11
-0.3728343037
 21
-19.3723803124
  0
LINE
  5
363
100
AcDbEntity
  8
0
100
AcDbLine
 62
250
  6
CONTINUOUS
 10
-0.3728343037
 20
21.9272238269
 11
-0.3728343037
 21
22.2671977611
  0
LINE
  5
364
100
AcDbEntity
  8
0
100
AcDbLine
 62
250
  6
CONTINUOUS
 10
-0.0203123441
 20
-19.7128669704
 11
-0.0203123441
 21
-19.3728930363
  0
LINE
  5
365
100
AcDbEntity
  8
0
100
AcDbLine
 62
250
  6
CONTINUOUS
 10
-0.0203123441
 20
21.9267111031
 11
-0.0203123441
 21
22.2666850372
  0
LINE
  5
366
100
AcDbEntity
  8
0
100
AcDbLine
 62
250
  6
CONTINUOUS
 10
0.3383863044
 20
-18.3958838353
 11
0.3383863044
 21
-17.7019711081
  0
LINE
  5
367
100
AcDbEntity
  8
0
100
AcDbLine
 62
250
  6
CONTINUOUS
 10
0.3383863044
 20
20.9598075768
 11
0.3383863044
 21
21.6405359645
  0
LINE
  5
368
100
AcDbEntity
  8
0
100
AcDbLine
 62
250
  6
CONTINUOUS
 10
-1.629790878
 20
27.6512789438
 11
-1.6258770011
 21
28.2025166552
  0
LWPOLYLINE
  5
369
100
AcDbEntity
  8
0
100
AcDbPolyline
 62
250
  6
CONTINUOUS
 90
25
 70
0
 10
-0.3728343037
 20
-19.3723803124
 10
-0.3726660079
 20
-19.3628510662
 10
-0.3721614407
 20
-19.353171668
 10
-0.3713215628
 20
-19.3433605479
 10
-0.3701479771
 20
-19.3334364134
 10
-0.3686429162
 20
-19.3234181345
 10
-0.3668092298
 20
-19.3133247052
 10
-0.3646503857
 20
-19.3031752736
 10
-0.3621704983
 20
-19.2929892326
 10
-0.3593743186
 20
-19.2827861039
 10
-0.356267196
 20
-19.2725853819
 10
-0.3528550339
 20
-19.2624064236
 10
-0.349144306
 20
-19.2522685386
 10
-0.3451420452
 20
-19.2421909579
 10
-0.340855896
 20
-19.2321929449
 10
-0.3362940866
 20
-19.2222936825
 10
-0.331465357
 20
-19.2125121029
 10
-0.3263788712
 20
-19.2028667367
 10
-0.3210442563
 20
-19.1933758285
 10
-0.3154709861
 20
-19.1840563414
 10
-0.3096703001
 20
-19.1749271726
 10
-0.3036553749
 20
-19.166008774
 10
-0.2974386101
 20
-19.1573188877
 10
-0.2910313476
 20
-19.1488727465
 10
-0.2844459561
 20
-19.1406861386
  0
LWPOLYLINE
  5
36A
100
AcDbEntity
  8
0
100
AcDbPolyline
 62
250
  6
CONTINUOUS
 90
34
 70
0
 10
-2.0513723742
 20
23.1064667963
 10
-2.0511735714
 20
23.1168312745
 10
-2.0505776091
 20
23.1273712593
 10
-2.0495858259
 20
23.138063045
 10
-2.0482004499
 20
23.1488825908
 10
-2.0464245958
 20
23.1598055552
 10
-2.0442622606
 20
23.1708073491
 10
-2.04171831
 20
23.1818632213
 10
-2.0387984653
 20
23.1929483103
 10
-2.0355092953
 20
23.2040376801
 10
-2.0318581984
 20
23.2151063899
 10
-2.0278533878
 20
23.2261295423
 10
-2.0235038756
 20
23.2370823355
 10
-2.0188194469
 20
23.2479401333
 10
-2.0138106388
 20
23.2586785164
 10
-2.0084887203
 20
23.2692733295
 10
-2.0028656599
 20
23.2797007493
 10
-1.9969541092
 20
23.2899373181
 10
-1.9907673774
 20
23.299959995
 10
-1.9843194008
 20
23.309746213
 10
-1.9776246676
 20
23.3192739927
 10
-1.9706981914
 20
23.3285219678
 10
-1.9635554809
 20
23.3374694182
 10
-1.9562126634
 20
23.346096129
 10
-1.9486864168
 20
23.3543825194
 10
-1.9409937825
 20
23.3623098679
 10
-1.9331519699
 20
23.3698604807
 10
-1.925178471
 20
23.37701753
 10
-1.9170899935
 20
23.383765903
 10
-1.9089059222
 20
23.3900893129
 10
-1.9006482514
 20
23.3959710889
 10
-1.8923368307
 20
23.4013978389
 10
-1.8839891984
 20
23.4063588529
 10
-1.8756241182
 20
23.4108436112
  0
LWPOLYLINE
  5
36B
100
AcDbEntity
  8
0
100
AcDbPolyline
 62
250
  6
CONTINUOUS
 90
34
 70
0
 10
-0.3728343037
 20
22.2671977611
 10
-0.3726355558
 20
22.2775607959
 10
-0.3720397591
 20
22.2880992765
 10
-0.3710482531
 20
22.2987895064
 10
-0.3696632675
 20
22.3096074477
 10
-0.3678879163
 20
22.3205287755
 10
-0.3657261918
 20
22.3315289324
 10
-0.3631829545
 20
22.3425831837
 10
-0.3602639233
 20
22.3536666731
 10
-0.3569756618
 20
22.3647544784
 10
-0.3533255638
 20
22.375821668
 10
-0.3493218369
 20
22.3868433564
 10
-0.3449734838
 20
22.3977947605
 10
-0.3402902821
 20
22.4086512552
 10
-0.3352827623
 20
22.419388429
 10
-0.3299621842
 20
22.4299821384
 10
-0.3243405116
 20
22.4404085627
 10
-0.3184303851
 20
22.4506442572
 10
-0.3122450942
 20
22.4606662064
 10
-0.3057985469
 20
22.470451875
 10
-0.2991052388
 20
22.4799792592
 10
-0.2921802203
 20
22.489226936
 10
-0.2850390629
 20
22.4981741113
 10
-0.2776978239
 20
22.5068006667
 10
-0.2701730107
 20
22.5150872047
 10
-0.2624815434
 20
22.5230150924
 10
-0.2546407169
 20
22.5305665034
 10
-0.2466681618
 20
22.5377244577
 10
-0.2385818051
 20
22.5444728602
 10
-0.2303998294
 20
22.5507965365
 10
-0.2221406327
 20
22.5566812673
 10
-0.2138227864
 20
22.5621138205
 10
-0.2054649937
 20
22.5670819805
 10
-0.1970860478
 20
22.571574576
  0
LINE
  5
36C
100
AcDbEntity
  8
RACCORDO
100
AcDbLine
 62
7
  6
CONTINUOUS
 10
-1.2002285783
 20
-18.6946612512
 11
0.3984912361
 21
19.4660202047
  0
LINE
  5
36D
100
AcDbEntity
  8
0
100
AcDbLine
 62
7
  6
CONTINUOUS
 10
1.208901164
 20
15.5696825074
 11
0.0577821624
 21
0.6378494554
  0
LWPOLYLINE
  5
36E
100
AcDbEntity
  8
0
100
AcDbPolyline
 62
250
  6
CONTINUOUS
 90
17
 70
0
 10
2.1813790526
 20
23.0705788887
 10
2.1808506996
 20
23.0646569068
 10
2.1797614275
 20
23.0587541297
 10
2.1781136895
 20
23.0528838237
 10
2.1759111893
 20
23.0470591776
 10
2.1731588577
 20
23.041293248
 10
2.1698628987
 20
23.0355990455
 10
2.1660308073
 20
23.0299894881
 10
2.1616712953
 20
23.0244772586
 10
2.1567941496
 20
23.0190746703
 10
2.1514102543
 20
23.0137937594
 10
2.1455312193
 20
23.008645989
 10
2.1391706824
 20
23.0036433696
 10
2.1323445227
 20
22.9987982151
 10
2.1250689503
 20
22.9941216505
 10
2.1173601167
 20
22.9896237006
 10
2.1092356185
 20
22.985314344
  0
LWPOLYLINE
  5
36F
100
AcDbEntity
  8
RACCORDO
100
AcDbPolyline
 62
250
  6
CONTINUOUS
 90
10
 70
0
 10
-4.0709965689
 20
-19.7869616558
 10
-4.0758033823
 20
-19.8325116191
 10
-4.0843253081
 20
-19.8755844188
 10
-4.0964690597
 20
-19.9157085515
 10
-4.1121017035
 20
-19.952444792
 10
-4.1310521143
 20
-19.9853910011
 10
-4.1531128484
 20
-20.0141865277
 10
-4.1780424143
 20
-20.0385161571
 10
-4.2055679167
 20
-20.0581135609
 10
-4.237377315
 20
-20.0735332404
  0
LWPOLYLINE
  5
370
100
AcDbEntity
  8
RACCORDO
100
AcDbPolyline
 62
250
  6
CONTINUOUS
 90
28
 70
0
 10
18.1642966439
 20
19.5384405323
 10
18.1805751198
 20
19.5529064211
 10
18.1966277464
 20
19.5650607648
 10
18.2124213209
 20
19.5749067535
 10
18.2279524246
 20
19.5824942734
 10
18.243152844
 20
19.5877787918
 10
18.2579008433
 20
19.5906170781
 10
18.2721944009
 20
19.5908351353
 10
18.2859804003
 20
19.5886008223
 10
18.2990910802
 20
19.5842725331
 10
18.3114742954
 20
19.5777753201
 10
18.3231773715
 20
19.569161194
 10
18.3342025157
 20
19.5589727539
 10
18.3445190983
 20
19.5472683604
 10
18.3541533563
 20
19.5339681664
 10
18.36317577
 20
19.519411226
 10
18.3715651874
 20
19.5036451225
 10
18.3793039915
 20
19.4866072817
 10
18.3864324726
 20
19.468477299
 10
18.3929175718
 20
19.449259255
 10
18.3987136574
 20
19.4289360102
 10
18.4038086853
 20
19.4076583608
 10
18.4081486685
 20
19.3854242313
 10
18.4116789659
 20
19.3622180467
 10
18.4143563553
 20
19.3381705375
 10
18.4161075786
 20
19.313297646
 10
18.4168648518
 20
19.287556319
 10
18.4168904598
 20
19.2824956966
  0
LWPOLYLINE
  5
371
100
AcDbEntity
  8
0
100
AcDbPolyline
 62
250
  6
CONTINUOUS
 90
5
 70
0
 10
2.1285402
 20
-18.1751920605
 10
2.1272729328
 20
-18.1637232991
 10
2.1255636483
 20
-18.1523960416
 10
2.1234162047
 20
-18.141235854
 10
2.1208354489
 20
-18.1302679256
  0
LINE
  5
372
100
AcDbEntity
  8
0
100
AcDbLine
 62
7
  6
CONTINUOUS
 10
0.7700419101
 20
29.4365386899
 11
0.773349393
 21
28.9707066348
  0
LINE
  5
373
100
AcDbEntity
  8
0
100
AcDbLine
 62
250
  6
CONTINUOUS
 10
0.690908264
 20
-18.5213965592
 11
0.690908264
 21
-17.8782320879
  0
LINE
  5
374
100
AcDbEntity
  8
0
100
AcDbLine
 62
250
  6
CONTINUOUS
 10
0.690908264
 20
20.9705754585
 11
0.690908264
 21
21.7782075802
  0
LINE
  5
375
100
AcDbEntity
  8
0
100
AcDbLine
 62
7
  6
CONTINUOUS
 10
1.208901164
 20
20.0913392534
 11
1.208901164
 21
15.5696825074
  0
LINE
  5
376
100
AcDbEntity
  8
0
100
AcDbLine
 62
7
  6
CONTINUOUS
 10
1.208901164
 20
-13.1823608983
 11
1.208901164
 21
-17.7040176443
  0
LINE
  5
377
100
AcDbEntity
  8
0
100
AcDbLine
 62
7
  6
CONTINUOUS
 10
1.5809684467
 20
-18.9328323708
 11
1.5809684467
 21
-17.764472576
  0
LINE
  5
378
100
AcDbEntity
  8
0
100
AcDbLine
 62
7
  6
CONTINUOUS
 10
1.5809684467
 20
21.4672563797
 11
1.5809684467
 21
23.0694070407
  0
LINE
  5
379
100
AcDbEntity
  8
0
100
AcDbLine
 62
250
  6
CONTINUOUS
 10
2.1092356185
 20
23.3328458607
 11
2.1092356185
 21
22.985314344
  0
LINE
  5
37A
100
AcDbEntity
  8
0
100
AcDbLine
 62
250
  6
CONTINUOUS
 10
2.1092356185
 20
-18.3142897954
 11
2.1092356185
 21
-18.6618213121
  0
LINE
  5
37B
100
AcDbEntity
  8
0
100
AcDbLine
 62
7
  6
CONTINUOUS
 10
2.1814334755
 20
23.4207184929
 11
2.1814334755
 21
23.0731869762
  0
LINE
  5
37C
100
AcDbEntity
  8
0
100
AcDbLine
 62
7
  6
CONTINUOUS
 10
2.1814334755
 20
-18.2264171632
 11
2.1814334755
 21
-18.5739486799
  0
LINE
  5
37D
100
AcDbEntity
  8
0
100
AcDbLine
 62
7
  6
CONTINUOUS
 10
2.2880752279
 20
20.680704943
 11
2.2880752279
 21
-17.2512370543
  0
LINE
  5
37E
100
AcDbEntity
  8
0
100
AcDbLine
 62
250
  6
CONTINUOUS
 10
2.8577704601
 20
26.1291859762
 11
2.8577704601
 21
26.6035873515
  0
LINE
  5
37F
100
AcDbEntity
  8
0
100
AcDbLine
 62
250
  6
CONTINUOUS
 10
2.8577704601
 20
26.959763218
 11
2.8577704601
 21
27.5129339411
  0
LINE
  5
380
100
AcDbEntity
  8
ASSI
100
AcDbLine
 62
7
  6
CONTINUOUS
 10
2.9189175863
 20
-13.3520010474
 11
2.9189175863
 21
-12.541060187
  0
LINE
  5
381
100
AcDbEntity
  8
ASSI
100
AcDbLine
 62
7
  6
CONTINUOUS
 10
2.9189175863
 20
16.6124779235
 11
2.9189175863
 21
17.4234187839
  0
LINE
  5
382
100
AcDbEntity
  8
0
100
AcDbLine
 62
7
  6
CONTINUOUS
 10
2.9192261277
 20
17.4232645132
 11
2.9192261277
 21
16.6123236528
  0
LINE
  5
383
100
AcDbEntity
  8
0
100
AcDbLine
 62
7
  6
CONTINUOUS
 10
2.9192261277
 20
-13.3521553181
 11
2.9192261277
 21
-12.5412144577
  0
LINE
  5
384
100
AcDbEntity
  8
0
100
AcDbLine
 62
7
  6
CONTINUOUS
 10
2.9886053113
 20
26.2868281688
 11
2.9886053113
 21
27.5346978434
  0
LINE
  5
385
100
AcDbEntity
  8
0
100
AcDbLine
 62
7
  6
CONTINUOUS
 10
2.9890111817
 20
21.0323053589
 11
2.9890111817
 21
18.1004004079
  0
LINE
  5
386
100
AcDbEntity
  8
0
100
AcDbLine
 62
7
  6
CONTINUOUS
 10
2.9890111817
 20
-13.9576549105
 11
2.9890111817
 21
-16.8895598616
  0
LINE
  5
387
100
AcDbEntity
  8
0
100
AcDbLine
 62
250
  6
CONTINUOUS
 10
2.1814334755
 20
-18.5739486623
 11
2.1814333305
 21
-18.5740833037
  0
LWPOLYLINE
  5
388
100
AcDbEntity
  8
0
100
AcDbPolyline
 62
7
  6
CONTINUOUS
 90
23
 70
0
 10
2.2880752279
 20
-17.2510242068
 10
2.2879903257
 20
-17.2682166795
 10
2.2872832403
 20
-17.2851164
 10
2.2859565945
 20
-17.3016955093
 10
2.2840066485
 20
-17.3179271779
 10
2.2814452624
 20
-17.3337843953
 10
2.2782989556
 20
-17.3492393062
 10
2.2745771679
 20
-17.3642650423
 10
2.2702819722
 20
-17.3788369739
 10
2.2654288411
 20
-17.3929305009
 10
2.2600237895
 20
-17.4065280048
 10
2.2540761518
 20
-17.4195983312
 10
2.2476093067
 20
-17.4320995786
 10
2.2406426424
 20
-17.4440014139
 10
2.2331826602
 20
-17.4552971126
 10
2.2252348008
 20
-17.4659816534
 10
2.2168039701
 20
-17.4760449862
 10
2.2079103899
 20
-17.4854590184
 10
2.1985837317
 20
-17.4941937201
 10
2.1888509232
 20
-17.5022283992
 10
2.1787197181
 20
-17.5095607789
 10
2.1681920277
 20
-17.5161899026
 10
2.1593661474
 20
-17.5210452063
  0
LWPOLYLINE
  5
389
100
AcDbEntity
  8
0
100
AcDbPolyline
 62
250
  6
CONTINUOUS
 90
19
 70
0
 10
2.1092356185
 20
-18.6618213121
 10
2.1090828366
 20
-18.6719999561
 10
2.1085275272
 20
-18.6819564434
 10
2.1075709472
 20
-18.6916682133
 10
2.1062152614
 20
-18.7011132646
 10
2.1044635406
 20
-18.7102701894
 10
2.1023197564
 20
-18.719118223
 10
2.0997887683
 20
-18.7276373134
 10
2.0968763106
 20
-18.7358081622
 10
2.0935889843
 20
-18.7436122534
 10
2.0899342381
 20
-18.751031906
 10
2.0859203544
 20
-18.7580503077
 10
2.0815564326
 20
-18.7646515519
 10
2.0768523627
 20
-18.7708206821
 10
2.0718188044
 20
-18.7765437231
 10
2.0664671661
 20
-18.781807708
 10
2.0608095725
 20
-18.7866007143
 10
2.0548588468
 20
-18.7909118816
 10
2.0486284856
 20
-18.7947314379
  0
LWPOLYLINE
  5
38A
100
AcDbEntity
  8
0
100
AcDbPolyline
 62
7
  6
CONTINUOUS
 90
20
 70
0
 10
1.5809684467
 20
-18.9328323708
 10
1.5807680679
 20
-18.9430339619
 10
1.5801678989
 20
-18.9530121268
 10
1.5791691953
 20
-18.9627443141
 10
1.5777740369
 20
-18.9722085703
 10
1.575985576
 20
-18.9813834581
 10
1.5738080301
 20
-18.9902481055
 10
1.5712462715
 20
-18.9987824608
 10
1.5683060107
 20
-19.0069672367
 10
1.5649940364
 20
-19.0147838225
 10
1.5613178124
 20
-19.0222145297
 10
1.5572855935
 20
-19.0292425614
 10
1.5529066017
 20
-19.035851948
 10
1.5481907405
 20
-19.0420277248
 10
1.5431486409
 20
-19.0477559271
 10
1.5377917705
 20
-19.0530235528
 10
1.5321322711
 20
-19.0578186655
 10
1.5261829332
 20
-19.0621304176
 10
1.5199572365
 20
-19.0659490398
 10
1.5168633437
 20
-19.0676101436
  0
LWPOLYLINE
  5
38B
100
AcDbEntity
  8
0
100
AcDbPolyline
 62
250
  6
CONTINUOUS
 90
18
 70
0
 10
2.1814334755
 20
23.4207185106
 10
2.181379914
 20
23.4181311248
 10
2.1808534865
 20
23.4122088207
 10
2.1797660742
 20
23.4063056479
 10
2.1781201196
 20
23.4004348811
 10
2.1759193223
 20
23.3946097267
 10
2.1731686295
 20
23.3888432858
 10
2.1698742256
 20
23.3831485293
 10
2.1660435212
 20
23.3775382704
 10
2.1616851315
 20
23.3720251287
 10
2.1568088579
 20
23.3666215036
 10
2.1514256685
 20
23.3613395509
 10
2.1455476673
 20
23.3561911482
 10
2.1391880771
 20
23.3511878783
 10
2.1323612143
 20
23.3463410034
 10
2.1250824403
 20
23.3416614274
 10
2.1173681241
 20
23.3371596717
 10
2.1092356185
 20
23.3328458607
  0
LWPOLYLINE
  5
38C
100
AcDbEntity
  8
0
100
AcDbPolyline
 62
250
  6
CONTINUOUS
 90
18
 70
0
 10
2.1814333305
 20
-18.5740833037
 10
2.181379914
 20
-18.5765360481
 10
2.1808534865
 20
-18.5824583522
 10
2.1797660742
 20
-18.588361525
 10
2.1781201196
 20
-18.5942322918
 10
2.1759193223
 20
-18.6000574462
 10
2.1731686295
 20
-18.6058238871
 10
2.1698742256
 20
-18.6115186436
 10
2.1660435212
 20
-18.6171289025
 10
2.1616851315
 20
-18.6226420442
 10
2.1568088579
 20
-18.6280456692
 10
2.1514256685
 20
-18.633327622
 10
2.1455476673
 20
-18.6384760247
 10
2.1391880771
 20
-18.6434792946
 10
2.1323612143
 20
-18.6483261694
 10
2.1250824403
 20
-18.6530057455
 10
2.1173681241
 20
-18.6575075012
 10
2.1092356185
 20
-18.6618213121
  0
LWPOLYLINE
  5
38D
100
AcDbEntity
  8
0
100
AcDbPolyline
 62
250
  6
CONTINUOUS
 90
18
 70
0
 10
2.1814331937
 20
-18.2266048342
 10
2.1813794611
 20
-18.2290154458
 10
2.1808520857
 20
-18.2349370936
 10
2.1797638505
 20
-18.2408395837
 10
2.1781172022
 20
-18.2467096432
 10
2.1759158434
 20
-18.2525340723
 10
2.1731647246
 20
-18.2582997729
 10
2.1698700316
 20
-18.2639937807
 10
2.1660391711
 20
-18.269603294
 10
2.1616807524
 20
-18.2751157039
 10
2.1568045786
 20
-18.2805186093
 10
2.1514216272
 20
-18.2857998482
 10
2.1455440138
 20
-18.2909475386
 10
2.1391849507
 20
-18.2959501132
 10
2.1323587271
 20
-18.3007963325
 10
2.1250806881
 20
-18.3054753017
 10
2.1173672036
 20
-18.3099764965
 10
2.1092356185
 20
-18.3142897954
  0
LWPOLYLINE
  5
38E
100
AcDbEntity
  8
0
100
AcDbPolyline
 62
250
  6
CONTINUOUS
 90
20
 70
0
 10
-0.0203123441
 20
-19.7128669704
 10
-0.020560674
 20
-19.7230933883
 10
-0.0212066544
 20
-19.7330952112
 10
-0.022248823
 20
-19.7428497754
 10
-0.0236848211
 20
-19.7523349829
 10
-0.0255113958
 20
-19.7615293346
 10
-0.0277244057
 20
-19.7704119811
 10
-0.0303188346
 20
-19.7789627919
 10
-0.0332888044
 20
-19.7871623967
 10
-0.0366275837
 20
-19.7949922145
 10
-0.0403276074
 20
-19.8024345057
 10
-0.0443804902
 20
-19.809472407
 10
-0.0487770448
 20
-19.8160899675
 10
-0.0535073069
 20
-19.8222721939
 10
-0.0585605576
 20
-19.8280050812
 10
-0.0639253439
 20
-19.83327564
 10
-0.0695895115
 20
-19.8380719332
 10
-0.075540222
 20
-19.842383093
 10
-0.0817639792
 20
-19.8461993473
 10
-0.0864097968
 20
-19.8486374405
  0
LINE
  5
38F
100
AcDbEntity
  8
RACCORDO
100
AcDbLine
 62
250
  6
CONTINUOUS
 10
-0.5101290922
 20
-2.8122220551
 11
-0.5353305207
 21
-2.82386091
  0
LINE
  5
390
100
AcDbEntity
  8
DRAFT
100
AcDbLine
 62
7
  6
CONTINUOUS
 10
-0.3811105753
 20
0.8572958243
 11
0.0577821624
 21
0.6378494554
  0
LWPOLYLINE
  5
391
100
AcDbEntity
  8
0
100
AcDbPolyline
 62
7
  6
CONTINUOUS
 90
5
 70
0
 10
2.9886052415
 20
27.5351265511
 10
2.9883683268
 20
27.5373378922
 10
2.9874156167
 20
27.539735709
 10
2.985767605
 20
27.5416649532
 10
2.9835872385
 20
27.5430968971
  0
LINE
  5
392
100
AcDbEntity
  8
DRAFT
100
AcDbLine
 62
7
  6
CONTINUOUS
 10
3.6991426952
 20
17.8415893553
 11
3.6900783317
 21
17.958796742
  0
LINE
  5
393
100
AcDbEntity
  8
DRAFT
100
AcDbLine
 62
7
  6
CONTINUOUS
 10
3.7022887903
 20
17.7258717604
 11
3.6991426952
 21
17.8415893553
  0
LINE
  5
394
100
AcDbEntity
  8
ASSI
100
AcDbLine
 62
7
  6
CONTINUOUS
 10
3.6899471355
 20
18.4539087148
 11
3.6899471355
 21
17.8439864904
  0
LINE
  5
395
100
AcDbEntity
  8
ASSI
100
AcDbLine
 62
7
  6
CONTINUOUS
 10
3.6899471355
 20
16.9765155865
 11
3.6899471355
 21
-12.1204924806
  0
LINE
  5
396
100
AcDbEntity
  8
ASSI
100
AcDbLine
 62
7
  6
CONTINUOUS
 10
3.6899471355
 20
-12.9879633844
 11
3.6899471355
 21
-13.5978856089
  0
LINE
  5
397
100
AcDbEntity
  8
0
100
AcDbLine
 62
7
  6
CONTINUOUS
 10
3.6902556769
 20
17.8438322197
 11
3.6902556769
 21
16.9763613158
  0
LINE
  5
398
100
AcDbEntity
  8
0
100
AcDbLine
 62
7
  6
CONTINUOUS
 10
3.6902556769
 20
-12.9881176551
 11
3.6902556769
 21
-12.1206467513
  0
LINE
  5
399
100
AcDbEntity
  8
DRAFT
100
AcDbLine
 62
7
  6
CONTINUOUS
 10
3.7022887903
 20
-12.8821903092
 11
3.7022887903
 21
17.7258717604
  0
LINE
  5
39A
100
AcDbEntity
  8
DRAFT
100
AcDbLine
 62
7
  6
CONTINUOUS
 10
3.6991426952
 20
-12.9947618091
 11
3.7022887903
 21
-12.8821903092
  0
LINE
  5
39B
100
AcDbEntity
  8
DRAFT
100
AcDbLine
 62
7
  6
CONTINUOUS
 10
3.6900783317
 20
-13.1029048323
 11
3.6991426952
 21
-12.9947618091
  0
LWPOLYLINE
  5
39C
100
AcDbEntity
  8
RACCORDO
100
AcDbPolyline
 62
7
  6
CONTINUOUS
 90
7
 70
0
 10
18.1642966439
 20
19.5384405323
 10
18.1792947594
 20
19.5627246526
 10
18.1954709147
 20
19.5858989829
 10
18.2128251098
 20
19.6079635231
 10
18.2313573448
 20
19.6289182734
 10
18.2510676195
 20
19.6487632336
 10
18.271955934
 20
19.6674984037
  0
LINE
  5
39D
100
AcDbEntity
  8
RACCORDO
100
AcDbLine
 62
250
  6
CONTINUOUS
 10
-19.32489758
 20
14.509990767
 11
-4.6762370948
 21
7.1856605244
  0
LWPOLYLINE
  5
39E
100
AcDbEntity
  8
0
100
AcDbPolyline
 62
250
  6
CONTINUOUS
 90
16
 70
0
 10
-10.1944223742
 20
29.1371433403
 10
-10.1904496604
 20
29.1304484652
 10
-10.1868872018
 20
29.1239670233
 10
-10.1837430385
 20
29.1177136429
 10
-10.1810242668
 20
29.1117024376
 10
-10.1787370228
 20
29.1059469742
 10
-10.1768864686
 20
29.1004602425
 10
-10.1754767809
 20
29.0952546257
 10
-10.1745111412
 20
29.0903418726
 10
-10.1739917289
 20
29.085733071
 10
-10.1739197163
 20
29.0814386227
 10
-10.1742952659
 20
29.07746822
 10
-10.1751175301
 20
29.0738308239
 10
-10.1763846532
 20
29.0705346437
 10
-10.1780937752
 20
29.0675871187
 10
-10.1790618018
 20
29.0663081738
  0
LINE
  5
39F
100
AcDbEntity
  8
0
100
AcDbLine
 62
7
  6
CONTINUOUS
 10
8.0940672803
 20
26.1861299496
 11
8.0958256022
 21
26.1549801496
  0
LINE
  5
3A0
100
AcDbEntity
  8
ASSI
100
AcDbLine
 62
7
  6
CONTINUOUS
 10
8.2213228015
 20
26.0506422497
 11
8.2214824573
 21
26.0333866118
  0
LINE
  5
3A1
100
AcDbEntity
  8
RACCORDO
100
AcDbLine
 62
7
  6
CONTINUOUS
 10
8.0509954946
 20
25.1194295523
 11
8.0509954946
 21
25.0954629491
  0
LINE
  5
3A2
100
AcDbEntity
  8
ASSI
100
AcDbLine
 62
250
  6
CONTINUOUS
 10
8.0812248539
 20
-11.6095501254
 11
8.0812248539
 21
-11.8248122348
  0
LINE
  5
3A3
100
AcDbEntity
  8
ASSI
100
AcDbLine
 62
250
  6
CONTINUOUS
 10
8.0812248539
 20
25.1354100981
 11
8.0812248539
 21
25.7369271798
  0
LINE
  5
3A4
100
AcDbEntity
  8
ASSI
100
AcDbLine
 62
7
  6
CONTINUOUS
 10
8.2215549538
 20
26.0345353882
 11
8.2215549538
 21
25.3116733318
  0
LINE
  5
3A5
100
AcDbEntity
  8
ASSI
100
AcDbLine
 62
7
  6
CONTINUOUS
 10
8.2215549538
 20
-11.775096431
 11
8.2215549538
 21
-11.535341257
  0
LINE
  5
3A6
100
AcDbEntity
  8
0
100
AcDbLine
 62
250
  6
CONTINUOUS
 10
8.8826285451
 20
27.149880188
 11
8.8826285451
 21
26.8285559058
  0
LINE
  5
3A7
100
AcDbEntity
  8
DRAFT
100
AcDbLine
 62
7
  6
CONTINUOUS
 10
9.565338743
 20
26.728185207
 11
9.565338743
 21
27.1611979089
  0
LINE
  5
3A8
100
AcDbEntity
  8
ASSI
100
AcDbLine
 62
7
  6
CONTINUOUS
 10
8.2214749601
 20
-11.7742393648
 11
8.2213228015
 21
-11.775963346
  0
LWPOLYLINE
  5
3A9
100
AcDbEntity
  8
0
100
AcDbPolyline
 62
7
  6
CONTINUOUS
 90
4
 70
0
 10
2.1614615681
 20
-18.6718622981
 10
2.1723430474
 20
-18.6407511524
 10
2.1790545418
 20
-18.6083551841
 10
2.1814333305
 20
-18.5740833037
  0
LWPOLYLINE
  5
3AA
100
AcDbEntity
  8
0
100
AcDbPolyline
 62
250
  6
CONTINUOUS
 90
13
 70
0
 10
2.1092356185
 20
-18.3142897954
 10
2.1132084032
 20
-18.3031741836
 10
2.1167709172
 20
-18.2918853293
 10
2.1199151198
 20
-18.2804487116
 10
2.1226339131
 20
-18.2688901498
 10
2.1249211625
 20
-18.2572357254
 10
2.1267717083
 20
-18.2455117232
 10
2.1281813733
 20
-18.2337445892
 10
2.1291469707
 20
-18.2219608972
 10
2.1296663184
 20
-18.2101872695
 10
2.1297382449
 20
-18.19845029
 10
2.1293625894
 20
-18.1867764391
 10
2.1285402
 20
-18.1751920605
  0
LWPOLYLINE
  5
3AB
100
AcDbEntity
  8
RACCORDO
100
AcDbPolyline
 62
250
  6
CONTINUOUS
 90
16
 70
0
 10
-4.6818255142
 20
-9.6163471484
 10
-4.7209100485
 20
-9.6315857248
 10
-4.7632270008
 20
-9.6447479772
 10
-4.8083280472
 20
-9.655694459
 10
-4.8557353677
 20
-9.6643091985
 10
-4.9049467088
 20
-9.6705009273
 10
-4.9554407044
 20
-9.6742040478
 10
-5.0066823994
 20
-9.6753793274
 10
-5.0581289173
 20
-9.6740143148
 10
-5.1092352115
 20
-9.6701234714
 10
-5.15945984
 20
-9.6637480185
 10
-5.2082707015
 20
-9.6549555004
 10
-5.2551506727
 20
-9.6438390689
 10
-5.299603087
 20
-9.6305164961
 10
-5.3411569965
 20
-9.6151289272
 10
-5.3793721611
 20
-9.5978393846
  0
LWPOLYLINE
  5
3AC
100
AcDbEntity
  8
0
100
AcDbPolyline
 62
7
  6
CONTINUOUS
 90
4
 70
0
 10
-2.0980946743
 20
22.7428624657
 10
-2.1092348645
 20
22.7685999964
 10
-2.1174664048
 20
22.7956038888
 10
-2.1226383243
 20
22.8236586856
  0
LINE
  5
3AD
100
AcDbEntity
  8
0
100
AcDbLine
 62
7
  6
CONTINUOUS
 10
10.5328024555
 20
25.8920550958
 11
10.5328024555
 21
25.4261803293
  0
LINE
  5
3AE
100
AcDbEntity
  8
RACCORDO
100
AcDbLine
 62
250
  6
CONTINUOUS
 10
10.9501356364
 20
26.6211703195
 11
10.9501356364
 21
27.0799018857
  0
LINE
  5
3AF
100
AcDbEntity
  8
0
100
AcDbLine
 62
7
  6
CONTINUOUS
 10
10.9825471169
 20
25.7703072626
 11
10.9825471169
 21
25.4171217088
  0
LINE
  5
3B0
100
AcDbEntity
  8
RACCORDO
100
AcDbLine
 62
250
  6
CONTINUOUS
 10
11.0911485578
 20
26.6221005977
 11
11.0911485578
 21
27.0908977828
  0
LINE
  5
3B1
100
AcDbEntity
  8
0
100
AcDbLine
 62
7
  6
CONTINUOUS
 10
12.8947845236
 20
29.1912799807
 11
12.8947845236
 21
28.7834287134
  0
LINE
  5
3B2
100
AcDbEntity
  8
0
100
AcDbLine
 62
250
  6
CONTINUOUS
 10
0.337872076
 20
-18.3956267211
 11
-0.2844459561
 21
-19.1406861386
  0
LINE
  5
3B3
100
AcDbEntity
  8
0
100
AcDbLine
 62
250
  6
CONTINUOUS
 10
0.690908264
 20
-18.5213965592
 11
-0.0203123441
 21
-19.3728930363
  0
LWPOLYLINE
  5
3B4
100
AcDbEntity
  8
DRAFT
100
AcDbPolyline
 62
7
  6
CONTINUOUS
 90
3
 70
0
 10
3.2880752279
 20
-13.8998283994
 10
3.3517519879
 20
-13.8482297977
 10
3.3713210568
 20
-13.8288082253
  0
LWPOLYLINE
  5
3B5
100
AcDbEntity
  8
0
100
AcDbPolyline
 62
7
  6
CONTINUOUS
 90
10
 70
0
 10
2.9192261277
 20
-12.5412144577
 10
3.0037198504
 20
-12.4944992292
 10
3.0884999618
 20
-12.4477903424
 10
3.1735717899
 20
-12.4010895551
 10
3.258944888
 20
-12.3544161091
 10
3.3446199494
 20
-12.3077536576
 10
3.4305871841
 20
-12.2610500673
 10
3.5168446517
 20
-12.2142883873
 10
3.6033998862
 20
-12.1674870732
 10
3.6902556769
 20
-12.1206467513
  0
LINE
  5
3B6
100
AcDbEntity
  8
RACCORDO
100
AcDbLine
 62
250
  6
CONTINUOUS
 10
18.1642966439
 20
-5.3942665439
 11
3.7022887903
 21
-12.8821903092
  0
LINE
  5
3B7
100
AcDbEntity
  8
RACCORDO
100
AcDbLine
 62
250
  6
CONTINUOUS
 10
-0.5403518968
 20
-12.6542368593
 11
-0.955194951
 21
-12.8458251291
  0
LINE
  5
3B8
100
AcDbEntity
  8
RACCORDO
100
AcDbLine
 62
7
  6
CONTINUOUS
 10
-0.7296243823
 20
-13.0363549156
 11
-0.9677850756
 21
-13.1463454161
  0
LINE
  5
3B9
100
AcDbEntity
  8
0
100
AcDbLine
 62
7
  6
CONTINUOUS
 10
3.6899471355
 20
18.4539087148
 11
2.9890111817
 21
19.6628444063
  0
LINE
  5
3BA
100
AcDbEntity
  8
DRAFT
100
AcDbLine
 62
7
  6
CONTINUOUS
 10
2.9890111817
 20
19.6735325929
 11
3.2880752279
 21
19.1577234129
  0
LWPOLYLINE
  5
3BB
100
AcDbEntity
  8
DRAFT
100
AcDbPolyline
 62
7
  6
CONTINUOUS
 90
3
 70
0
 10
3.3713210568
 20
19.00345741
 10
3.3517519879
 20
19.0424480512
 10
3.2880752279
 20
19.1577234129
  0
LWPOLYLINE
  5
3BC
100
AcDbEntity
  8
RACCORDO
100
AcDbPolyline
 62
250
  6
CONTINUOUS
 90
3
 70
0
 10
17.82533316
 20
-6.2270305664
 10
17.8771033114
 20
-6.1852184898
 10
17.9251471807
 20
-6.137541637
  0
LWPOLYLINE
  5
3BD
100
AcDbEntity
  8
RACCORDO
100
AcDbPolyline
 62
7
  6
CONTINUOUS
 90
13
 70
0
 10
17.8924439947
 20
-6.1853046469
 10
17.9669987189
 20
-6.1265810683
 10
18.0377915677
 20
-6.0609666727
 10
18.104167009
 20
-5.9886451049
 10
18.1654276394
 20
-5.9099708083
 10
18.2210559147
 20
-5.8252103561
 10
18.2706990264
 20
-5.7343997048
 10
18.3139001964
 20
-5.6377025503
 10
18.350079518
 20
-5.5356747756
 10
18.3788088724
 20
-5.4287512674
 10
18.3997447065
 20
-5.317224756
 10
18.4125495223
 20
-5.2014116871
 10
18.4168908236
 20
-5.0816702772
  0
LINE
  5
3BE
100
AcDbEntity
  8
0
100
AcDbLine
 62
7
  6
CONTINUOUS
 10
2.9890111817
 20
-14.1058853466
 11
3.6899471355
 21
-13.5978856089
  0
LINE
  5
3BF
100
AcDbEntity
  8
DRAFT
100
AcDbLine
 62
7
  6
CONTINUOUS
 10
3.2880752279
 20
-13.8998283994
 11
2.9890111817
 21
-14.1165735331
  0
LINE
  5
3C0
100
AcDbEntity
  8
DRAFT
100
AcDbLine
 62
7
  6
CONTINUOUS
 10
9.8132250488
 20
-10.5461657452
 11
9.0605309649
 21
-11.0916769222
  0
LINE
  5
3C1
100
AcDbEntity
  8
RACCORDO
100
AcDbLine
 62
250
  6
CONTINUOUS
 10
17.82533316
 20
-6.2270305664
 11
17.405789949
 21
-6.5310923569
  0
LINE
  5
3C2
100
AcDbEntity
  8
RACCORDO
100
AcDbLine
 62
7
  6
CONTINUOUS
 10
17.8924439946
 20
-6.1853046469
 11
17.4760631551
 21
-6.4870745249
  0
LWPOLYLINE
  5
3C3
100
AcDbEntity
  8
RACCORDO
100
AcDbPolyline
 62
250
  6
CONTINUOUS
 90
3
 70
0
 10
17.8924439946
 20
-6.1853046469
 10
17.8741555342
 20
-6.1980092769
 10
17.82533316
 20
-6.2270305664
  0
LWPOLYLINE
  5
3C4
100
AcDbEntity
  8
RACCORDO
100
AcDbPolyline
 62
7
  6
CONTINUOUS
 90
3
 70
0
 10
17.405789949
 20
-6.5310923569
 10
17.4621817944
 20
-6.496900345
 10
17.474916136
 20
-6.4879055874
  0
LWPOLYLINE
  5
3C5
100
AcDbEntity
  8
RACCORDO
100
AcDbPolyline
 62
250
  6
CONTINUOUS
 90
16
 70
0
 10
-4.4040762091
 20
-19.5546645926
 10
-4.4430083429
 20
-19.5756149824
 10
-4.485175541
 20
-19.5944277541
 10
-4.5301309125
 20
-19.6109035287
 10
-4.5773980173
 20
-19.6248676949
 10
-4.6264759154
 20
-19.6361722595
 10
-4.6768444759
 20
-19.6446974159
 10
-4.7279698895
 20
-19.6503528139
 10
-4.7793103254
 20
-19.6530785173
 10
-4.8303216742
 20
-19.6528456389
 10
-4.8804633143
 20
-19.6496566466
 10
-4.929203841
 20
-19.6435453378
 10
-4.976026699
 20
-19.6345764806
 10
-5.0204356564
 20
-19.6228451278
 10
-5.061960064
 20
-19.6084756089
 10
-5.1001598433
 20
-19.5916202132
  0
LINE
  5
3C6
100
AcDbEntity
  8
RACCORDO
100
AcDbLine
 62
7
  6
CONTINUOUS
 10
17.405789949
 20
-6.5310923569
 11
9.8132250488
 21
-10.5461657452
  0
LINE
  5
3C7
100
AcDbEntity
  8
DRAFT
100
AcDbLine
 62
7
  6
CONTINUOUS
 10
9.0605309649
 20
-11.0916769222
 11
2.9890111817
 21
-14.3023965971
  0
LINE
  5
3C8
100
AcDbEntity
  8
RACCORDO
100
AcDbLine
 62
250
  6
CONTINUOUS
 10
17.82533316
 20
-6.2270305664
 11
3.2880752279
 21
-13.8998283994
  0
LINE
  5
3C9
100
AcDbEntity
  8
0
100
AcDbLine
 62
7
  6
CONTINUOUS
 10
7.2706037123
 20
-12.3377594077
 11
2.9890111817
 21
-14.537379667
  0
LINE
  5
3CA
100
AcDbEntity
  8
0
100
AcDbLine
 62
7
  6
CONTINUOUS
 10
2.9890111817
 20
-13.9576549105
 11
3.6899471355
 21
-13.5978856089
  0
LINE
  5
3CB
100
AcDbEntity
  8
ASSI
100
AcDbLine
 62
7
  6
CONTINUOUS
 10
8.0812248539
 20
-11.8248122348
 11
2.9890111817
 21
-14.4289258903
  0
LWPOLYLINE
  5
3CC
100
AcDbEntity
  8
0
100
AcDbPolyline
 62
7
  6
CONTINUOUS
 90
10
 70
0
 10
3.6902556769
 20
-12.9881176551
 10
3.6033998862
 20
-13.0296526674
 10
3.5168446517
 20
-13.0709324757
 10
3.4305871841
 20
-13.1119549171
 10
3.3446199494
 20
-13.1527321562
 10
3.258944888
 20
-13.1932479393
 10
3.1735717899
 20
-13.2334561945
 10
3.0884999618
 20
-13.2733386387
 10
3.0037198504
 20
-13.3129062034
 10
2.9192261277
 20
-13.3521553181
  0
LINE
  5
3CD
100
AcDbEntity
  8
RACCORDO
100
AcDbLine
 62
250
  6
CONTINUOUS
 10
-18.2199070817
 20
25.107028572
 11
-3.5351521908
 21
17.7646511266
  0
LINE
  5
3CE
100
AcDbEntity
  8
DRAFT
100
AcDbLine
 62
7
  6
CONTINUOUS
 10
0.2552330957
 20
16.0465165415
 11
1.208901164
 21
15.5696825074
  0
LINE
  5
3CF
100
AcDbEntity
  8
RACCORDO
100
AcDbLine
 62
250
  6
CONTINUOUS
 10
-17.5174815476
 20
26.1597297337
 11
-2.8149001
 21
18.8084390099
  0
LWPOLYLINE
  5
3D0
100
AcDbEntity
  8
0
100
AcDbPolyline
 62
250
  6
CONTINUOUS
 90
16
 70
0
 10
2.1092356185
 20
22.985314344
 10
2.1132083322
 20
22.9786194688
 10
2.1167707909
 20
22.972138027
 10
2.1199149541
 20
22.9658846466
 10
2.1226337258
 20
22.9598734412
 10
2.1249209698
 20
22.9541179778
 10
2.126771524
 20
22.9486312461
 10
2.1281812118
 20
22.9434256294
 10
2.1291468515
 20
22.9385128763
 10
2.1296662638
 20
22.9339040747
 10
2.1297382764
 20
22.9296096264
 10
2.1293627268
 20
22.9256392237
 10
2.1285404625
 20
22.9220018275
 10
2.1272733395
 20
22.9187056473
 10
2.1255642174
 20
22.9157581224
 10
2.1245961909
 20
22.9144791774
  0
LWPOLYLINE
  5
3D1
100
AcDbEntity
  8
RACCORDO
100
AcDbPolyline
 62
7
  6
CONTINUOUS
 90
10
 70
0
 10
18.4168908236
 20
25.5263917924
 10
18.4130859275
 20
25.6403294887
 10
18.4019398385
 20
25.7535936857
 10
18.3838015133
 20
25.8659809592
 10
18.3588464122
 20
25.977717736
 10
18.3272994127
 20
26.0883499034
 10
18.2896781465
 20
26.1966562926
 10
18.2463769111
 20
26.3021402636
 10
18.1974241294
 20
26.4050671441
 10
18.1428920839
 20
26.5053115538
  0
LINE
  5
3D2
100
AcDbEntity
  8
RACCORDO
100
AcDbLine
 62
7
  6
CONTINUOUS
 10
18.4168904598
 20
19.2824956966
 11
18.4168907854
 21
19.2820366289
  0
LINE
  5
3D3
100
AcDbEntity
  8
RACCORDO
100
AcDbLine
 62
250
  6
CONTINUOUS
 10
18.1642966439
 20
25.2137955257
 11
18.1642966439
 21
21.2389032211
  0
LINE
  5
3D4
100
AcDbEntity
  8
RACCORDO
100
AcDbLine
 62
250
  6
CONTINUOUS
 10
18.1642966439
 20
19.5384405323
 11
18.1642966439
 21
-5.3942665439
  0
LINE
  5
3D5
100
AcDbEntity
  8
RACCORDO
100
AcDbLine
 62
7
  6
CONTINUOUS
 10
18.4168908236
 20
25.5263917924
 11
18.4168908236
 21
22.1207063458
  0
LINE
  5
3D6
100
AcDbEntity
  8
RACCORDO
100
AcDbLine
 62
7
  6
CONTINUOUS
 10
18.4168908236
 20
19.2817456763
 11
18.4168908236
 21
-5.0816702772
  0
LINE
  5
3D7
100
AcDbEntity
  8
RACCORDO
100
AcDbLine
 62
7
  6
CONTINUOUS
 10
18.4168906734
 20
22.119687843
 11
18.4168905856
 21
22.1194402629
  0
LWPOLYLINE
  5
3D8
100
AcDbEntity
  8
RACCORDO
100
AcDbPolyline
 62
250
  6
CONTINUOUS
 90
29
 70
0
 10
18.4168905856
 20
22.1194402629
 10
18.4165622148
 20
22.0759859556
 10
18.4153558988
 20
22.0242600062
 10
18.4133249402
 20
21.9739428956
 10
18.4105185861
 20
21.9250433822
 10
18.4069893824
 20
21.8775778277
 10
18.4027884427
 20
21.8315474778
 10
18.3979391816
 20
21.7869376091
 10
18.3924831253
 20
21.7437633986
 10
18.3864567323
 20
21.7020219152
 10
18.3798504767
 20
21.6616724295
 10
18.3726874617
 20
21.6226875623
 10
18.3649935084
 20
21.5851058406
 10
18.3567382353
 20
21.5489881821
 10
18.3479296208
 20
21.5142886975
 10
18.3385856646
 20
21.4810659755
 10
18.3286717664
 20
21.4495409494
 10
18.3181905357
 20
21.419682654
 10
18.3071513984
 20
21.3915372066
 10
18.2955162701
 20
21.365444448
 10
18.2832729588
 20
21.3413873506
 10
18.2704353137
 20
21.319401711
 10
18.2569980194
 20
21.2999086622
 10
18.2429485601
 20
21.2829716082
 10
18.2283030061
 20
21.2685470693
 10
18.21310287
 20
21.2568947911
 10
18.1973690264
 20
21.2481062586
 10
18.1810973734
 20
21.2421063233
 10
18.1642966439
 20
21.2389032211
  0
LWPOLYLINE
  5
3D9
100
AcDbEntity
  8
RACCORDO
100
AcDbPolyline
 62
250
  6
CONTINUOUS
 90
11
 70
0
 10
18.4168908236
 20
-5.0816702772
 10
18.4160881839
 20
-5.1006709824
 10
18.4101056306
 20
-5.1368230389
 10
18.3983186414
 20
-5.1726166927
 10
18.3808038124
 20
-5.2078193435
 10
18.3576749614
 20
-5.2422022316
 10
18.3290823882
 20
-5.2755419246
 10
18.2952118976
 20
-5.3076217685
 10
18.2562835925
 20
-5.338233297
 10
18.2125504433
 20
-5.367177585
 10
18.1642966439
 20
-5.3942665421
  0
LWPOLYLINE
  5
3DA
100
AcDbEntity
  8
RACCORDO
100
AcDbPolyline
 62
250
  6
CONTINUOUS
 90
10
 70
0
 10
18.4168908236
 20
25.5263917924
 10
18.4141844706
 20
25.4915202031
 10
18.4048342581
 20
25.4529812054
 10
18.3888755059
 20
25.4149885678
 10
18.3664269874
 20
25.3778250512
 10
18.3376557763
 20
25.3417672461
 10
18.3027760029
 20
25.3070835134
 10
18.2620472608
 20
25.2740319877
 10
18.2157726745
 20
25.2428586557
 10
18.1642966439
 20
25.2137955257
  0
LWPOLYLINE
  5
3DB
100
AcDbEntity
  8
RACCORDO
100
AcDbPolyline
 62
250
  6
CONTINUOUS
 90
11
 70
0
 10
17.9251471807
 20
-6.137541637
 10
17.9692590922
 20
-6.0842042644
 10
18.0092501874
 20
-6.025434904
 10
18.0449493159
 20
-5.9614852661
 10
18.0762037383
 20
-5.8926291252
 10
18.1028796104
 20
-5.8191615435
 10
18.1248628243
 20
-5.7413970092
 10
18.1420594218
 20
-5.6596678268
 10
18.1543957162
 20
-5.5743236526
 10
18.1618187458
 20
-5.4857301169
 10
18.1642966439
 20
-5.3942665439
  0
LWPOLYLINE
  5
3DC
100
AcDbEntity
  8
0
100
AcDbPolyline
 62
7
  6
CONTINUOUS
 90
7
 70
0
 10
2.0453749499
 20
-18.7964734604
 10
2.055299351
 20
-18.7911057731
 10
2.0822158978
 20
-18.7733594648
 10
2.1066849506
 20
-18.7522375311
 10
2.1282876964
 20
-18.7280538897
 10
2.1466647772
 20
-18.701131567
 10
2.1614615681
 20
-18.6718622981
  0
LINE
  5
3DD
100
AcDbEntity
  8
0
100
AcDbLine
 62
250
  6
CONTINUOUS
 10
2.2880752279
 20
-17.2512370543
 11
2.9890111817
 21
-16.8895598616
  0
LINE
  5
3DE
100
AcDbEntity
  8
0
100
AcDbLine
 62
7
  6
CONTINUOUS
 10
2.1593760805
 20
-17.5210400761
 11
2.8611989289
 21
-17.158905253
  0
LINE
  5
3DF
100
AcDbEntity
  8
0
100
AcDbLine
 62
250
  6
CONTINUOUS
 10
1.5809684467
 20
-18.9328323708
 11
2.1092356185
 21
-18.6618213121
  0
LINE
  5
3E0
100
AcDbEntity
  8
0
100
AcDbLine
 62
7
  6
CONTINUOUS
 10
1.5168653174
 20
-19.067609131
 11
2.045547581
 21
-18.7963851224
  0
LWPOLYLINE
  5
3E1
100
AcDbEntity
  8
0
100
AcDbPolyline
 62
7
  6
CONTINUOUS
 90
3
 70
0
 10
2.1593661474
 20
-17.5210452063
 10
2.1572736624
 20
-17.5221085973
 10
2.1458257591
 20
-17.52736842
  0
LINE
  5
3E2
100
AcDbEntity
  8
0
100
AcDbLine
 62
7
  6
CONTINUOUS
 10
1.5168633437
 20
-19.0676101436
 11
1.5151269319
 21
-19.0684783638
  0
LINE
  5
3E3
100
AcDbEntity
  8
0
100
AcDbLine
 62
250
  6
CONTINUOUS
 10
-0.0203123441
 20
-19.7128669704
 11
1.5809684467
 21
-18.9328323708
  0
LINE
  5
3E4
100
AcDbEntity
  8
0
100
AcDbLine
 62
7
  6
CONTINUOUS
 10
-0.0865739367
 20
-19.8487175966
 11
1.5151241663
 21
-19.068479711
  0
LINE
  5
3E5
100
AcDbEntity
  8
0
100
AcDbLine
 62
250
  6
CONTINUOUS
 10
1.208901164
 20
-17.7040176443
 11
2.2880752279
 21
-17.2510242068
  0
LINE
  5
3E6
100
AcDbEntity
  8
0
100
AcDbLine
 62
7
  6
CONTINUOUS
 10
1.0676052848
 20
-17.9799615793
 11
2.1458076115
 21
-17.5273760376
  0
LINE
  5
3E7
100
AcDbEntity
  8
RACCORDO
100
AcDbLine
 62
250
  6
CONTINUOUS
 10
-4.0709965689
 20
-19.7869616558
 11
-1.2002285783
 21
-18.6946612512
  0
LINE
  5
3E8
100
AcDbEntity
  8
RACCORDO
100
AcDbLine
 62
7
  6
CONTINUOUS
 10
-1.3629050162
 20
-18.9798233811
 11
-4.2377412788
 21
-20.0736713212
  0
LWPOLYLINE
  5
3E9
100
AcDbEntity
  8
RACCORDO
100
AcDbPolyline
 62
250
  6
CONTINUOUS
 90
16
 70
0
 10
-2.844547762
 20
17.6705375687
 10
-2.8829154734
 20
17.6630669584
 10
-2.9245243926
 20
17.6575911105
 10
-2.9689335341
 20
17.65416806
 10
-3.0156722348
 20
17.6528340855
 10
-3.0642451421
 20
17.6536033249
 10
-3.1141374639
 20
17.6564676256
 10
-3.1648204245
 20
17.6613966308
 10
-3.2157568687
 20
17.6683381011
 10
-3.2664069547
 20
17.6772184686
 10
-3.3162338759
 20
17.687943616
 10
-3.3647095497
 20
17.7003998747
 10
-3.4113202144
 20
17.7144552292
 10
-3.4555718743
 20
17.7299607162
 10
-3.4969955354
 20
17.7467520031
 10
-3.5351521758
 20
17.7646511303
  0
LWPOLYLINE
  5
3EA
100
AcDbEntity
  8
RACCORDO
100
AcDbPolyline
 62
7
  6
CONTINUOUS
 90
7
 70
0
 10
18.2720293607
 20
21.2213318975
 10
18.2510574146
 20
21.2184421654
 10
18.2312920658
 20
21.2178797477
 10
18.2127333143
 20
21.2196446445
 10
18.1953811602
 20
21.2237368556
 10
18.1792356034
 20
21.2301563812
 10
18.1642966439
 20
21.2389032211
  0
LINE
  5
3EB
100
AcDbEntity
  8
RACCORDO
100
AcDbLine
 62
7
  6
CONTINUOUS
 10
-14.7859284993
 20
27.5089983802
 11
0.0635562135
 21
20.0842560238
  0
LINE
  5
3EC
100
AcDbEntity
  8
DRAFT
100
AcDbLine
 62
7
  6
CONTINUOUS
 10
-4.0335927573
 20
22.2851722121
 11
-8.2318001032
 21
24.3842758851
  0
LINE
  5
3ED
100
AcDbEntity
  8
DRAFT
100
AcDbLine
 62
7
  6
CONTINUOUS
 10
-9.8388060694
 20
25.2054654774
 11
-3.4748450387
 21
22.0234849621
  0
LINE
  5
3EE
100
AcDbEntity
  8
0
100
AcDbLine
 62
7
  6
CONTINUOUS
 10
0.855616898
 20
20.70119228
 11
0.3383863044
 21
20.9598075768
  0
LINE
  5
3EF
100
AcDbEntity
  8
0
100
AcDbLine
 62
7
  6
CONTINUOUS
 10
-1.3483794199
 20
21.8031904389
 11
-3.5163711182
 21
22.8871862881
  0
LINE
  5
3F0
100
AcDbEntity
  8
0
100
AcDbLine
 62
7
  6
CONTINUOUS
 10
-4.1757809925
 20
23.2168912253
 11
-9.1378701156
 21
25.6979357868
  0
LINE
  5
3F1
100
AcDbEntity
  8
0
100
AcDbLine
 62
7
  6
CONTINUOUS
 10
-9.79727999
 20
26.027640724
 11
-11.9652716883
 21
27.1116365732
  0
LINE
  5
3F2
100
AcDbEntity
  8
0
100
AcDbLine
 62
7
  6
CONTINUOUS
 10
-13.6520374125
 20
27.9550194353
 11
-14.1692680062
 21
28.2136347321
  0
LINE
  5
3F3
100
AcDbEntity
  8
0
100
AcDbLine
 62
7
  6
CONTINUOUS
 10
-14.2900570704
 20
28.7831034084
 11
-12.611519
 21
27.9438343732
  0
LINE
  5
3F4
100
AcDbEntity
  8
0
100
AcDbLine
 62
7
  6
CONTINUOUS
 10
-1.9863990777
 20
22.631274412
 11
-0.3078610073
 21
21.7920053768
  0
LINE
  5
3F5
100
AcDbEntity
  8
0
100
AcDbLine
 62
250
  6
CONTINUOUS
 10
-14.3550303668
 20
28.9183218585
 11
-12.6764922964
 21
28.0790528233
  0
LINE
  5
3F6
100
AcDbEntity
  8
0
100
AcDbLine
 62
250
  6
CONTINUOUS
 10
-2.0513723742
 20
22.7664928621
 11
-0.3728343037
 21
21.9272238269
  0
LWPOLYLINE
  5
3F7
100
AcDbEntity
  8
0
100
AcDbPolyline
 62
250
  6
CONTINUOUS
 90
16
 70
0
 10
-14.3550303668
 20
28.9183218585
 10
-14.3632097357
 20
28.9226101848
 10
-14.3709739726
 20
28.9270878388
 10
-14.378305536
 20
28.9317447949
 10
-14.3851880076
 20
28.936570737
 10
-14.3916056375
 20
28.9415547409
 10
-14.3975434911
 20
28.9466852634
 10
-14.4029880894
 20
28.9519506376
 10
-14.4079273397
 20
28.9573391465
 10
-14.4123501446
 20
28.9628386855
 10
-14.4162465613
 20
28.9684368982
 10
-14.4196078168
 20
28.9741211875
 10
-14.422426342
 20
28.9798787555
 10
-14.4246957977
 20
28.9856966483
 10
-14.4264110852
 20
28.99156179
 10
-14.4275683489
 20
28.997460995
  0
LWPOLYLINE
  5
3F8
100
AcDbEntity
  8
0
100
AcDbPolyline
 62
250
  6
CONTINUOUS
 90
16
 70
0
 10
-2.0513723742
 20
22.7664928621
 10
-2.0595544418
 20
22.7707826724
 10
-2.0673205562
 20
22.7752616116
 10
-2.0746532519
 20
22.7799196072
 10
-2.0815360308
 20
22.784746178
 10
-2.0879534231
 20
22.789730475
 10
-2.0938910167
 20
22.7948613073
 10
-2.0993354655
 20
22.8001271499
 10
-2.1042745056
 20
22.8055161499
 10
-2.1086970094
 20
22.8110161695
 10
-2.1125930267
 20
22.8166148329
 10
-2.1159538011
 20
22.8222995553
 10
-2.1187717741
 20
22.8280575517
 10
-2.1210406084
 20
22.8338758728
 10
-2.1227552015
 20
22.8397414335
 10
-2.1239116977
 20
22.8456410428
  0
LWPOLYLINE
  5
3F9
100
AcDbEntity
  8
0
100
AcDbPolyline
 62
250
  6
CONTINUOUS
 90
18
 70
0
 10
-14.3550303668
 20
29.2582957926
 10
-14.3632129642
 20
29.262585894
 10
-14.3709795629
 20
29.2670651557
 10
-14.3783126923
 20
29.2717235036
 10
-14.3851958611
 20
29.276550464
 10
-14.3916135806
 20
29.2815351779
 10
-14.397551403
 20
29.2866664242
 10
-14.4029959708
 20
29.2919326587
 10
-14.4079350417
 20
29.2973220389
 10
-14.4123575062
 20
29.3028224411
 10
-14.4162534189
 20
29.3084214944
 10
-14.4196140175
 20
29.3141066043
 10
-14.4224317425
 20
29.3198649791
 10
-14.4247002586
 20
29.3256836657
 10
-14.4264144663
 20
29.3315495777
 10
-14.4275705123
 20
29.3374495192
 10
-14.4281657997
 20
29.3433702233
 10
-14.4282536715
 20
29.3466841588
  0
LWPOLYLINE
  5
3FA
100
AcDbEntity
  8
0
100
AcDbPolyline
 62
250
  6
CONTINUOUS
 90
18
 70
0
 10
-2.0513723742
 20
23.1064667963
 10
-2.0595549715
 20
23.1107568977
 10
-2.0673215702
 20
23.1152361594
 10
-2.0746546997
 20
23.1198945073
 10
-2.0815378684
 20
23.1247214677
 10
-2.087955588
 20
23.1297061816
 10
-2.0938934104
 20
23.1348374279
 10
-2.0993379781
 20
23.1401036624
 10
-2.104277049
 20
23.1454930426
 10
-2.1086995135
 20
23.1509934448
 10
-2.1125954262
 20
23.1565924981
 10
-2.1159560248
 20
23.162277608
 10
-2.1187737499
 20
23.1680359827
 10
-2.1210422659
 20
23.1738546694
 10
-2.1227564736
 20
23.1797205813
 10
-2.1239125196
 20
23.1856205229
 10
-2.124507807
 20
23.191541227
 10
-2.1245956789
 20
23.1948551625
  0
LWPOLYLINE
  5
3FB
100
AcDbEntity
  8
0
100
AcDbPolyline
 62
250
  6
CONTINUOUS
 90
34
 70
0
 10
-12.5007440404
 20
28.7234035724
 10
-12.4923807576
 20
28.7189286012
 10
-12.4840340899
 20
28.7139745045
 10
-12.4757229442
 20
28.7085525045
 10
-12.4674661474
 20
28.7026748833
 10
-12.4592824027
 20
28.6963549549
 10
-12.4511902484
 20
28.6896070355
 10
-12.4432080148
 20
28.6824464105
 10
-12.4353537835
 20
28.6748893003
 10
-12.4276453462
 20
28.6669528237
 10
-12.4201001642
 20
28.6586549583
 10
-12.412735329
 20
28.6500145008
 10
-12.4055675235
 20
28.6410510237
 10
-12.3986129846
 20
28.6317848313
 10
-12.3918874657
 20
28.6222369136
 10
-12.3854062017
 20
28.6124288988
 10
-12.3791838742
 20
28.6023830042
 10
-12.3732345779
 20
28.5921219861
 10
-12.3675717896
 20
28.5816690879
 10
-12.3622083366
 20
28.5710479878
 10
-12.3571563683
 20
28.5602827449
 10
-12.3524273286
 20
28.549397745
 10
-12.3480319299
 20
28.538417645
 10
-12.3439801286
 20
28.5273673174
 10
-12.3402811031
 20
28.5162717935
 10
-12.3369432325
 20
28.5051562072
 10
-12.3339740777
 20
28.4940457378
 10
-12.3313803647
 20
28.482965553
 10
-12.3291679686
 20
28.471940752
 10
-12.3273419011
 20
28.4609963083
 10
-12.3259062987
 20
28.4501570135
 10
-12.3248644133
 20
28.4394474212
 10
-12.324218605
 20
28.4288917909
 10
-12.3239703367
 20
28.4185140335
  0
LWPOLYLINE
  5
3FC
100
AcDbEntity
  8
0
100
AcDbPolyline
 62
7
  6
CONTINUOUS
 90
7
 70
0
 10
-1.9862871829
 20
22.6312185579
 10
-2.0065377722
 20
22.6425352258
 10
-2.0288733296
 20
22.6581628477
 10
-2.0495112727
 20
22.6762628036
 10
-2.0680525507
 20
22.6965322551
 10
-2.0842846243
 20
22.7187542611
 10
-2.0980946743
 20
22.7428624657
  0
LWPOLYLINE
  5
3FD
100
AcDbEntity
  8
0
100
AcDbPolyline
 62
7
  6
CONTINUOUS
 90
10
 70
0
 10
-14.2900570704
 20
28.7831034084
 10
-14.3143820218
 20
28.7970226503
 10
-14.3372031934
 20
28.8137466903
 10
-14.3581068001
 20
28.8330644399
 10
-14.376631837
 20
28.8545717941
 10
-14.3925967232
 20
28.8780360264
 10
-14.4059559037
 20
28.9035031643
 10
-14.4164215048
 20
28.9307096891
 10
-14.4236828312
 20
28.9591234013
 10
-14.4275837267
 20
28.988420221
  0
LWPOLYLINE
  5
3FE
100
AcDbEntity
  8
0
100
AcDbPolyline
 62
250
  6
CONTINUOUS
 90
3
 70
0
 10
-1.9940090565
 20
22.6355322087
 10
-1.9882083706
 20
22.6322037259
 10
-1.986397799
 20
22.6312737727
  0
LINE
  5
3FF
100
AcDbEntity
  8
0
100
AcDbLine
 62
250
  6
CONTINUOUS
 10
8.4680510334
 20
28.2254587282
 11
8.8826285451
 21
27.149880188
  0
LINE
  5
400
100
AcDbEntity
  8
0
100
AcDbLine
 62
7
  6
CONTINUOUS
 10
10.0273328733
 20
25.64981514
 11
9.8258335154
 21
26.2455395658
  0
LINE
  5
401
100
AcDbEntity
  8
0
100
AcDbLine
 62
7
  6
CONTINUOUS
 10
-0.2471558376
 20
21.7708899423
 11
0.3771420482
 21
21.6405359645
  0
LINE
  5
402
100
AcDbEntity
  8
0
100
AcDbLine
 62
250
  6
CONTINUOUS
 10
-0.0203123441
 20
21.9267111031
 11
0.690908264
 21
21.7782075802
  0
LWPOLYLINE
  5
403
100
AcDbEntity
  8
RACCORDO
100
AcDbPolyline
 62
7
  6
CONTINUOUS
 90
16
 70
0
 10
-2.3691235976
 20
25.8734329702
 10
-2.3920913206
 20
25.8837395562
 10
-2.4164723952
 20
25.8926943961
 10
-2.4422668214
 20
25.9002974899
 10
-2.4697656422
 20
25.9065986606
 10
-2.4986778147
 20
25.9115480852
 10
-2.5281302098
 20
25.9149962942
 10
-2.5581393079
 20
25.9168974908
 10
-2.5886886285
 20
25.9172974719
 10
-2.618855602
 20
25.9161841582
 10
-2.6486285643
 20
25.9135113845
 10
-2.6780191793
 20
25.909325316
 10
-2.7061398696
 20
25.9037523693
 10
-2.7326947758
 20
25.8968346833
 10
-2.7579797573
 20
25.8885301192
 10
-2.7819948138
 20
25.8788386768
  0
LWPOLYLINE
  5
404
100
AcDbEntity
  8
0
100
AcDbPolyline
 62
7
  6
CONTINUOUS
 90
4
 70
0
 10
-0.3078634779
 20
21.7920066122
 10
-0.293338876
 20
21.7853159415
 10
-0.2629319363
 20
21.7747225229
 10
-0.2471575002
 20
21.7708902895
  0
LWPOLYLINE
  5
405
100
AcDbEntity
  8
0
100
AcDbPolyline
 62
250
  6
CONTINUOUS
 90
16
 70
0
 10
-4.9587353974
 20
25.9082767831
 10
-4.9655227721
 20
25.9114160356
 10
-4.9722929125
 20
25.9141566659
 10
-4.9790304787
 20
25.9164924627
 10
-4.9857202081
 20
25.9184181327
 10
-4.9923469387
 20
25.9199293097
 10
-4.9988956436
 20
25.9210225663
 10
-5.0053514812
 20
25.9216954256
 10
-5.0116998271
 20
25.9219463645
 10
-5.0179262955
 20
25.9217748149
 10
-5.0240167799
 20
25.9211811664
 10
-5.0299574791
 20
25.9201667649
 10
-5.0357349283
 20
25.9187339112
 10
-5.0413360362
 20
25.9168858544
 10
-5.046748114
 20
25.9146267834
 10
-5.0496219717
 20
25.913220079
  0
LWPOLYLINE
  5
406
100
AcDbEntity
  8
0
100
AcDbPolyline
 62
7
  6
CONTINUOUS
 90
17
 70
0
 10
-4.7476390398
 20
26.0172007691
 10
-4.7538074372
 20
26.0201202913
 10
-4.7599642872
 20
26.0227044904
 10
-4.7660977743
 20
26.0249484948
 10
-4.7721960447
 20
26.0268481231
 10
-4.7782474869
 20
26.0283997581
 10
-4.7842407534
 20
26.0296003544
 10
-4.790164366
 20
26.0304476601
 10
-4.7960069584
 20
26.0309401061
 10
-4.8017575555
 20
26.0310766753
 10
-4.8074051542
 20
26.0308571346
 10
-4.8129389247
 20
26.0302819397
 10
-4.8183484525
 20
26.0293521204
 10
-4.823623398
 20
26.0280694659
 10
-4.8287536537
 20
26.0264364498
 10
-4.833729544
 20
26.024456131
 10
-4.8362311521
 20
26.0233008459
  0
LWPOLYLINE
  5
407
100
AcDbEntity
  8
0
100
AcDbPolyline
 62
250
  6
CONTINUOUS
 90
31
 70
0
 10
-6.8001035436
 20
26.5151601019
 10
-6.7925515374
 20
26.5115757648
 10
-6.7846366693
 20
26.5081928094
 10
-6.7763803932
 20
26.5050204053
 10
-6.7678050881
 20
26.5020671516
 10
-6.7589339981
 20
26.4993410533
 10
-6.7497911688
 20
26.4968494995
 10
-6.7404013826
 20
26.494599244
 10
-6.7307900909
 20
26.4925963861
 10
-6.7209833459
 20
26.4908463547
 10
-6.7110077295
 20
26.4893538933
 10
-6.7008902811
 20
26.4881230475
 10
-6.6906584249
 20
26.4871571535
 10
-6.680339895
 20
26.4864588294
 10
-6.6699626604
 20
26.486029968
 10
-6.6595548493
 20
26.4858717319
 10
-6.6491446727
 20
26.48598455
 10
-6.6387603483
 20
26.4863681163
 10
-6.6284300233
 20
26.4870213913
 10
-6.6181816989
 20
26.4879426042
 10
-6.6080431538
 20
26.4891292581
 10
-6.5980418691
 20
26.4905781363
 10
-6.5882049542
 20
26.4922853116
 10
-6.5785590725
 20
26.4942461566
 10
-6.5691303698
 20
26.4964553563
 10
-6.5599444034
 20
26.4989069225
 10
-6.5510260724
 20
26.5015942102
 10
-6.5423995505
 20
26.5045099351
 10
-6.5340882205
 20
26.507646194
 10
-6.5261146109
 20
26.5109944859
 10
-6.5185003345
 20
26.5145457351
  0
LWPOLYLINE
  5
408
100
AcDbEntity
  8
0
100
AcDbPolyline
 62
250
  6
CONTINUOUS
 90
34
 70
0
 10
-0.3728343037
 20
21.9272238269
 10
-0.3642553118
 20
21.9231330789
 10
-0.3552981147
 20
21.9192502771
 10
-0.3459828532
 20
21.9155841523
 10
-0.3363304735
 20
21.9121429481
 10
-0.3263626796
 20
21.9089344022
 10
-0.3161018848
 20
21.9059657295
 10
-0.3055711615
 20
21.903243605
 10
-0.2947941886
 20
21.9007741498
 10
-0.2837951991
 20
21.8985629166
 10
-0.2725989249
 20
21.8966148775
 10
-0.2612305418
 20
21.8949344128
 10
-0.2497156124
 20
21.8935253012
 10
-0.238080029
 20
21.8923907112
 10
-0.2263499549
 20
21.8915331939
 10
-0.2145517662
 20
21.8909546777
 10
-0.202711992
 20
21.8906564633
 10
-0.190857255
 20
21.8906392212
 10
-0.1790142113
 20
21.8909029903
 10
-0.1672094909
 20
21.8914471774
 10
-0.1554696378
 20
21.8922705589
 10
-0.1438210498
 20
21.8933712834
 10
-0.1322899196
 20
21.8947468757
 10
-0.1209021759
 20
21.8963942429
 10
-0.1096834249
 20
21.8983096806
 10
-0.0986588928
 20
21.9004888818
 10
-0.087853369
 20
21.9029269464
 10
-0.0772911507
 20
21.9056183924
 10
-0.0669959877
 20
21.9085571676
 10
-0.0569910296
 20
21.9117366642
 10
-0.0472987732
 20
21.9151497327
 10
-0.0379410123
 20
21.9187886986
 10
-0.0289387885
 20
21.9226453794
 10
-0.0203123441
 20
21.9267111031
  0
LWPOLYLINE
  5
409
100
AcDbEntity
  8
0
100
AcDbPolyline
 62
250
  6
CONTINUOUS
 90
34
 70
0
 10
-12.6764922964
 20
28.0790528233
 10
-12.667912676
 20
28.0749617894
 10
-12.6589547975
 20
28.0710787323
 10
-12.6496388063
 20
28.0674123844
 10
-12.6399856646
 20
28.0639709949
 10
-12.6300170706
 20
28.0607622988
 10
-12.6197554061
 20
28.057793502
 10
-12.6092237209
 20
28.0550712776
 10
-12.5984457208
 20
28.0526017575
 10
-12.5874456816
 20
28.0503905056
 10
-12.5762483549
 20
28.048442497
 10
-12.5648789102
 20
28.0467621098
 10
-12.5533629172
 20
28.0453531233
 10
-12.541726275
 20
28.0442187062
 10
-12.5299951536
 20
28.0433614096
 10
-12.5181959351
 20
28.0427831615
 10
-12.5063551467
 20
28.0424852622
 10
-12.4944994262
 20
28.0424683823
 10
-12.4826554623
 20
28.0427325589
 10
-12.4708499082
 20
28.0432771949
 10
-12.4591092961
 20
28.0441010639
 10
-12.4474600039
 20
28.045202314
 10
-12.4359281446
 20
28.0465784798
 10
-12.4245397397
 20
28.0482264593
 10
-12.4133206249
 20
28.050142505
 10
-12.402296166
 20
28.052322261
 10
-12.3914909894
 20
28.0547608339
 10
-12.3809291676
 20
28.0574527815
 10
-12.3706336267
 20
28.060392299
 10
-12.360628388
 20
28.0635725674
 10
-12.3509380789
 20
28.0669856473
 10
-12.3415849497
 20
28.0706234335
 10
-12.33258905
 20
28.0744778503
 10
-12.3239703367
 20
28.0785400994
  0
LWPOLYLINE
  5
40A
100
AcDbEntity
  8
0
100
AcDbPolyline
 62
250
  6
CONTINUOUS
 90
34
 70
0
 10
-0.3728343037
 20
22.2671977611
 10
-0.364269372
 20
22.2631134065
 10
-0.3553235887
 20
22.2592347367
 10
-0.3460165597
 20
22.2555707187
 10
-0.3363673747
 20
22.2521293913
 10
-0.3263985876
 20
22.2489193037
 10
-0.3161365961
 20
22.2459491661
 10
-0.3056060346
 20
22.2432260376
 10
-0.2948291139
 20
22.2407555926
 10
-0.2838298765
 20
22.2385433505
 10
-0.2726329063
 20
22.2365942773
 10
-0.2612635136
 20
22.2349127998
 10
-0.2497474959
 20
22.2335027397
 10
-0.2381108595
 20
22.2323672748
 10
-0.2263796756
 20
22.231508943
 10
-0.2145802531
 20
22.2309296692
 10
-0.2027390974
 20
22.230630759
 10
-0.1908828722
 20
22.2306128895
 10
-0.1790382639
 20
22.2308761032
 10
-0.1672319184
 20
22.2314198093
 10
-0.1554903848
 20
22.2322427867
 10
-0.1438400759
 20
22.2333431853
 10
-0.1323071941
 20
22.2347185317
 10
-0.1209176812
 20
22.2363657336
 10
-0.1096971634
 20
22.2382810859
 10
-0.09867088
 20
22.2404602807
 10
-0.0878636299
 20
22.2428984175
 10
-0.0772997244
 20
22.2455900122
 10
-0.067002919
 20
22.2485290128
 10
-0.0569963792
 20
22.2517088079
 10
-0.0473026295
 20
22.2551222393
 10
-0.0379434774
 20
22.2587616263
 10
-0.0289399659
 20
22.2626187844
 10
-0.0203123441
 20
22.2666850372
  0
LWPOLYLINE
  5
40B
100
AcDbEntity
  8
0
100
AcDbPolyline
 62
250
  6
CONTINUOUS
 90
34
 70
0
 10
-12.6764922964
 20
28.4190267574
 10
-12.6679120935
 20
28.4149354587
 10
-12.6589535702
 20
28.4110521594
 10
-12.6496368744
 20
28.4073855946
 10
-12.6399829535
 20
28.4039440102
 10
-12.6300135258
 20
28.4007351505
 10
-12.6197510331
 20
28.3977662393
 10
-12.6092185642
 20
28.3950439554
 10
-12.5984398038
 20
28.3925744199
 10
-12.5874389993
 20
28.3903631877
 10
-12.5762408927
 20
28.3884152314
 10
-12.564870673
 20
28.386734932
 10
-12.5533539235
 20
28.3853260695
 10
-12.5417165501
 20
28.3841918115
 10
-12.5299847263
 20
28.3833347076
 10
-12.5181848431
 20
28.3827566846
 10
-12.506343435
 20
28.3824590409
 10
-12.4944871413
 20
28.3824424448
 10
-12.4826426508
 20
28.3827069313
 10
-12.4708366361
 20
28.3832519006
 10
-12.4590956166
 20
28.3840761241
 10
-12.4474459225
 20
28.3851777532
 10
-12.4359136487
 20
28.3865543268
 10
-12.4245248441
 20
28.3882027419
 10
-12.4133053653
 20
28.3901192492
 10
-12.4022805829
 20
28.3922994923
 10
-12.3914751273
 20
28.3947385771
 10
-12.3809130894
 20
28.3974310571
 10
-12.3706166955
 20
28.4003713376
 10
-12.3606107148
 20
28.4035524185
 10
-12.350921774
 20
28.4069656189
 10
-12.3415725538
 20
28.4106024295
 10
-12.3325821771
 20
28.4144548735
 10
-12.3239703367
 20
28.4185140335
  0
LINE
  5
40C
100
AcDbEntity
  8
0
100
AcDbLine
 62
7
  6
CONTINUOUS
 10
0.3439445722
 20
24.4937770623
 11
0.3525171812
 21
24.4896849466
  0
LWPOLYLINE
  5
40D
100
AcDbEntity
  8
0
100
AcDbPolyline
 62
250
  6
CONTINUOUS
 90
16
 70
0
 10
0.352357312
 20
24.4897650719
 10
0.3502776463
 20
24.4907730595
 10
0.343582913
 20
24.493606106
 10
0.3366564368
 20
24.4959276048
 10
0.3295137264
 20
24.4977323448
 10
0.3221709089
 20
24.4990162381
 10
0.3146446622
 20
24.4997763818
 10
0.306952028
 20
24.5000110961
 10
0.2991102154
 20
24.4997198964
 10
0.2911367164
 20
24.4989034467
 10
0.283048239
 20
24.4975633422
 10
0.2748641677
 20
24.4957026809
 10
0.2666064969
 20
24.493326786
 10
0.2582950762
 20
24.4904421154
 10
0.2499474439
 20
24.487055497
 10
0.2415823637
 20
24.4831751751
  0
LWPOLYLINE
  5
40E
100
AcDbEntity
  8
0
100
AcDbPolyline
 62
250
  6
CONTINUOUS
 90
16
 70
0
 10
2.0432368744
 20
23.6443252907
 10
2.0411744139
 20
23.6453251976
 10
2.0344811058
 20
23.6481592738
 10
2.0275560874
 20
23.6504819321
 10
2.0204149299
 20
23.65228795
 10
2.0130736909
 20
23.6535732664
 10
2.0055488777
 20
23.6543349912
 10
1.9978574104
 20
23.6545714116
 10
1.9900165839
 20
23.654281996
 10
1.9820440288
 20
23.6534673953
 10
1.9739576721
 20
23.652129441
 10
1.9657756965
 20
23.6502711417
 10
1.9575164998
 20
23.6478966758
 10
1.9491986534
 20
23.6450113827
 10
1.9408408607
 20
23.64162175
 10
1.9324619148
 20
23.6377353996
  0
LWPOLYLINE
  5
40F
100
AcDbEntity
  8
0
100
AcDbPolyline
 62
250
  6
CONTINUOUS
 90
16
 70
0
 10
-10.2604211183
 20
29.796154287
 10
-10.2624835787
 20
29.797154194
 10
-10.2691768868
 20
29.7999882701
 10
-10.2761019053
 20
29.8023109284
 10
-10.2832430627
 20
29.8041169463
 10
-10.2905843017
 20
29.8054022627
 10
-10.2981091149
 20
29.8061639875
 10
-10.3058005822
 20
29.8064004079
 10
-10.3136414087
 20
29.8061109924
 10
-10.3216139638
 20
29.8052963916
 10
-10.3297003206
 20
29.8039584373
 10
-10.3378822962
 20
29.802100138
 10
-10.3461414929
 20
29.7997256722
 10
-10.3544593392
 20
29.796840379
 10
-10.3628171319
 20
29.7934507463
 10
-10.3711960778
 20
29.7895643959
  0
LWPOLYLINE
  5
410
100
AcDbEntity
  8
0
100
AcDbPolyline
 62
250
  6
CONTINUOUS
 90
3
 70
0
 10
-11.9513006694
 20
30.6415940626
 10
-11.9533631299
 20
30.6425939695
 10
-11.9600564379
 20
30.6454280457
  0
LINE
  5
411
100
AcDbEntity
  8
0
100
AcDbLine
 62
7
  6
CONTINUOUS
 10
-4.1757809925
 20
23.9693844747
 11
-5.0993340022
 21
24.4311609795
  0
LINE
  5
412
100
AcDbEntity
  8
0
100
AcDbLine
 62
7
  6
CONTINUOUS
 10
-6.8001035436
 20
25.2815457502
 11
-8.424592507
 21
26.0937902319
  0
LINE
  5
413
100
AcDbEntity
  8
0
100
AcDbLine
 62
250
  6
CONTINUOUS
 10
-0.3728343037
 20
22.2671977611
 11
-2.0513723742
 21
23.1064667963
  0
LINE
  5
414
100
AcDbEntity
  8
0
100
AcDbLine
 62
250
  6
CONTINUOUS
 10
-12.6764922964
 20
28.4190267574
 11
-14.3550303668
 21
29.2582957926
  0
LINE
  5
415
100
AcDbEntity
  8
0
100
AcDbLine
 62
7
  6
CONTINUOUS
 10
-6.3032721635
 20
25.4093766849
 11
-5.1579126459
 21
24.8366969261
  0
LINE
  5
416
100
AcDbEntity
  8
0
100
AcDbLine
 62
7
  6
CONTINUOUS
 10
1.9345263247
 20
21.2904774408
 11
1.5809684467
 21
21.4672563797
  0
LINE
  5
417
100
AcDbEntity
  8
0
100
AcDbLine
 62
7
  6
CONTINUOUS
 10
-2.0977246072
 20
23.3066029067
 11
-2.449540206
 21
23.4825107061
  0
LINE
  5
418
100
AcDbEntity
  8
0
100
AcDbLine
 62
7
  6
CONTINUOUS
 10
-9.79727999
 20
27.1563805981
 11
-10.7226895459
 21
27.6190853761
  0
LINE
  5
419
100
AcDbEntity
  8
0
100
AcDbLine
 62
250
  6
CONTINUOUS
 10
-0.1970860478
 20
22.571574576
 11
-1.8756241182
 21
23.4108436112
  0
LINE
  5
41A
100
AcDbEntity
  8
0
100
AcDbLine
 62
250
  6
CONTINUOUS
 10
-12.5007440404
 20
28.7234035724
 11
-14.1792821108
 21
29.5626726076
  0
LINE
  5
41B
100
AcDbEntity
  8
0
100
AcDbLine
 62
7
  6
CONTINUOUS
 10
-9.79727999
 20
27.4738034898
 11
-9.1378701156
 21
27.1440985526
  0
LINE
  5
41C
100
AcDbEntity
  8
0
100
AcDbLine
 62
7
  6
CONTINUOUS
 10
-4.1757809925
 20
24.663053991
 11
-3.5163711182
 21
24.3333490539
  0
LINE
  5
41D
100
AcDbEntity
  8
0
100
AcDbLine
 62
7
  6
CONTINUOUS
 10
-5.1579126459
 20
25.5350091977
 11
-5.606586258
 21
25.7593460037
  0
LINE
  5
41E
100
AcDbEntity
  8
0
100
AcDbLine
 62
7
  6
CONTINUOUS
 10
2.6354622785
 20
21.6420778566
 11
1.5809684467
 21
22.1693247725
  0
LINE
  5
41F
100
AcDbEntity
  8
0
100
AcDbLine
 62
7
  6
CONTINUOUS
 10
-10.0196965916
 20
27.9696572917
 11
-10.7226895459
 21
28.3211537688
  0
LINE
  5
420
100
AcDbEntity
  8
0
100
AcDbLine
 62
7
  6
CONTINUOUS
 10
-5.6073665426
 20
25.8694196541
 11
-5.1579126459
 21
25.6446927058
  0
LINE
  5
421
100
AcDbEntity
  8
0
100
AcDbLine
 62
250
  6
CONTINUOUS
 10
-3.6443349275
 20
24.9372757938
 11
-5.0993340022
 21
25.6647753311
  0
LINE
  5
422
100
AcDbEntity
  8
0
100
AcDbLine
 62
250
  6
CONTINUOUS
 10
-6.8001035436
 20
26.5151601019
 11
-8.424592507
 21
27.3274045836
  0
LINE
  5
423
100
AcDbEntity
  8
0
100
AcDbLine
 62
250
  6
CONTINUOUS
 10
-3.3354734194
 20
25.0966457941
 11
-4.9587353974
 21
25.9082767831
  0
LINE
  5
424
100
AcDbEntity
  8
0
100
AcDbLine
 62
250
  6
CONTINUOUS
 10
-6.6595049389
 20
26.7586615539
 11
-8.2827669168
 21
27.5702925428
  0
LINE
  5
425
100
AcDbEntity
  8
0
100
AcDbLine
 62
7
  6
CONTINUOUS
 10
-8.7427905586
 20
28.0147765285
 11
-6.4446917248
 21
26.8657271116
  0
LINE
  5
426
100
AcDbEntity
  8
0
100
AcDbLine
 62
7
  6
CONTINUOUS
 10
-4.7476390398
 20
26.0172007691
 11
-2.449540206
 21
24.8681513522
  0
LINE
  5
427
100
AcDbEntity
  8
0
100
AcDbLine
 62
7
  6
CONTINUOUS
 10
1.4041947431
 20
23.3742965795
 11
-0.292867515
 21
24.2228277086
  0
LINE
  5
428
100
AcDbEntity
  8
0
100
AcDbLine
 62
7
  6
CONTINUOUS
 10
-10.8994632496
 20
29.5261255759
 11
-12.5965255077
 21
30.3746567049
  0
LINE
  5
429
100
AcDbEntity
  8
0
100
AcDbLine
 62
7
  6
CONTINUOUS
 10
-7.4027381838
 20
28.0327618917
 11
-5.7577899394
 21
27.2102877695
  0
LINE
  5
42A
100
AcDbEntity
  8
0
100
AcDbLine
 62
7
  6
CONTINUOUS
 10
-4.0486427048
 20
26.3557141522
 11
-2.4036944604
 21
25.53324003
  0
LINE
  5
42B
100
AcDbEntity
  8
0
100
AcDbLine
 62
250
  6
CONTINUOUS
 10
-12.062075629
 20
30.6350041715
 11
-10.3711960778
 21
29.7895643959
  0
LINE
  5
42C
100
AcDbEntity
  8
0
100
AcDbLine
 62
250
  6
CONTINUOUS
 10
0.2415823637
 20
24.4831751751
 11
1.9324619148
 21
23.6377353996
  0
LINE
  5
42D
100
AcDbEntity
  8
0
100
AcDbLine
 62
7
  6
CONTINUOUS
 10
-11.9513006694
 20
30.6415940626
 11
-10.2604211183
 21
29.796154287
  0
LINE
  5
42E
100
AcDbEntity
  8
0
100
AcDbLine
 62
7
  6
CONTINUOUS
 10
0.3523573232
 20
24.4897650662
 11
2.0432368744
 21
23.6443252907
  0
LINE
  5
42F
100
AcDbEntity
  8
RACCORDO
100
AcDbLine
 62
7
  6
CONTINUOUS
 10
-2.113206832
 20
25.7454745874
 11
-2.3691235976
 21
25.8734329702
  0
LWPOLYLINE
  5
430
100
AcDbEntity
  8
0
100
AcDbPolyline
 62
250
  6
CONTINUOUS
 90
34
 70
0
 10
-10.3711960778
 20
29.7895643959
 10
-10.3627511604
 20
29.7851448723
 10
-10.3543240184
 20
29.7802431431
 10
-10.3459337348
 20
29.774869673
 10
-10.3375981622
 20
29.7690351506
 10
-10.3293374679
 20
29.7627529417
 10
-10.3211739649
 20
29.7560396906
 10
-10.3131273451
 20
29.7489117053
 10
-10.3052146119
 20
29.7413841641
 10
-10.2974535485
 20
29.7334739702
 10
-10.2898616471
 20
29.7251989111
 10
-10.2824562238
 20
29.7165778196
 10
-10.2752542205
 20
29.7076304055
 10
-10.2682720178
 20
29.6983770322
 10
-10.2615253657
 20
29.6888385865
 10
-10.255029507
 20
29.679036618
 10
-10.2487991458
 20
29.6689933045
 10
-10.2428484202
 20
29.6587314266
 10
-10.2371908265
 20
29.6482742528
 10
-10.2318391882
 20
29.6376454816
 10
-10.2268056299
 20
29.6268691898
 10
-10.2221015601
 20
29.6159697975
 10
-10.2177376382
 20
29.6049719988
 10
-10.2137237546
 20
29.5939007142
 10
-10.2100690084
 20
29.582781038
 10
-10.206781682
 20
29.5716381674
 10
-10.2038692244
 20
29.5604973489
 10
-10.2013382362
 20
29.5493838296
 10
-10.1991944521
 20
29.5383227861
 10
-10.1974427313
 20
29.5273392866
 10
-10.1960870455
 20
29.5164582372
 10
-10.1951304654
 20
29.5057042986
 10
-10.1945751561
 20
29.4951018309
 10
-10.1944223742
 20
29.4846748571
  0
LWPOLYLINE
  5
431
100
AcDbEntity
  8
0
100
AcDbPolyline
 62
250
  6
CONTINUOUS
 90
34
 70
0
 10
1.9324619148
 20
23.6377353996
 10
1.9409068323
 20
23.633315876
 10
1.9493339742
 20
23.6284141468
 10
1.9577242578
 20
23.6230406766
 10
1.9660598305
 20
23.6172061543
 10
1.9743205248
 20
23.6109239454
 10
1.9824840277
 20
23.6042106943
 10
1.9905306476
 20
23.5970827089
 10
1.9984433808
 20
23.5895551678
 10
2.0062044442
 20
23.5816449738
 10
2.0137963455
 20
23.5733699148
 10
2.0212017689
 20
23.5647488233
 10
2.0284037721
 20
23.5558014092
 10
2.0353859749
 20
23.5465480359
 10
2.042132627
 20
23.5370095902
 10
2.0486284856
 20
23.5272076216
 10
2.0548588468
 20
23.5171643082
 10
2.0608095725
 20
23.5069024303
 10
2.0664671661
 20
23.4964452565
 10
2.0718188044
 20
23.4858164853
 10
2.0768523627
 20
23.4750401935
 10
2.0815564326
 20
23.4641408012
 10
2.0859203544
 20
23.4531430025
 10
2.0899342381
 20
23.4420717179
 10
2.0935889843
 20
23.4309520417
 10
2.0968763106
 20
23.4198091711
 10
2.0997887683
 20
23.4086683526
 10
2.1023197564
 20
23.3975548333
 10
2.1044635406
 20
23.3864937897
 10
2.1062152614
 20
23.3755102903
 10
2.1075709472
 20
23.3646292409
 10
2.1085275272
 20
23.3538753023
 10
2.1090828366
 20
23.3432728346
 10
2.1092356185
 20
23.3328458607
  0
LWPOLYLINE
  5
432
100
AcDbEntity
  8
0
100
AcDbPolyline
 62
250
  6
CONTINUOUS
 90
16
 70
0
 10
-5.0993340022
 20
25.6647753311
 10
-5.1065026763
 20
25.6685513343
 10
-5.1132685872
 20
25.6725087683
 10
-5.1196133953
 20
25.6766369064
 10
-5.1255199027
 20
25.6809245589
 10
-5.1309720994
 20
25.6853601039
 10
-5.1359552068
 20
25.6899315185
 10
-5.1404557179
 20
25.6946264117
 10
-5.1444614338
 20
25.6994320575
 10
-5.1479614966
 20
25.70433543
 10
-5.1509464192
 20
25.7093232382
 10
-5.1534081109
 20
25.7143819624
 10
-5.1553398989
 20
25.7194978905
 10
-5.1567365472
 20
25.7246571555
 10
-5.1575942698
 20
25.7298457728
 10
-5.1579126459
 20
25.7354860093
  0
LWPOLYLINE
  5
433
100
AcDbEntity
  8
0
100
AcDbPolyline
 62
7
  6
CONTINUOUS
 90
37
 70
0
 10
-6.4446917248
 20
26.8657271116
 10
-6.4385230128
 20
26.8624780791
 10
-6.432366228
 20
26.8589054608
 10
-6.4262329903
 20
26.8550161028
 10
-6.4201347905
 20
26.8508174959
 10
-6.4140832324
 20
26.8463176309
 10
-6.4080900112
 20
26.8415249833
 10
-6.4021664627
 20
26.8364487084
 10
-6.3963237704
 20
26.8310985121
 10
-6.3905732091
 20
26.8254845021
 10
-6.3849256669
 20
26.819617391
 10
-6.3793918143
 20
26.8135083845
 10
-6.3739823121
 20
26.8071690502
 10
-6.3687074145
 20
26.8006114742
 10
-6.363577096
 20
26.7938481709
 10
-6.3586012206
 20
26.7868919694
 10
-6.3537892331
 20
26.779756123
 10
-6.349150241
 20
26.7724542404
 10
-6.3446931425
 20
26.7650001924
 10
-6.3404264107
 20
26.7574081727
 10
-6.3363581303
 20
26.749692651
 10
-6.3324960808
 20
26.7418683022
 10
-6.3288476189
 20
26.7339500174
 10
-6.3254196676
 20
26.7259528793
 10
-6.3222187545
 20
26.7178921154
 10
-6.3192509935
 20
26.7097830587
 10
-6.316522028
 20
26.7016411471
 10
-6.3140370212
 20
26.693481899
 10
-6.3118007401
 20
26.6853208271
 10
-6.3098174514
 20
26.67717346
 10
-6.3080908662
 20
26.6690553408
 10
-6.3066243227
 20
26.6609818961
 10
-6.3054206382
 20
26.6529684794
 10
-6.3044820083
 20
26.6450303924
 10
-6.3038102235
 20
26.6371827424
 10
-6.3034066656
 20
26.6294404139
 10
-6.3032721635
 20
26.6218181125
  0
LWPOLYLINE
  5
434
100
AcDbEntity
  8
0
100
AcDbPolyline
 62
7
  6
CONTINUOUS
 90
34
 70
0
 10
-10.8994632496
 20
29.5261255759
 10
-10.8910521741
 20
29.5216746614
 10
-10.8826599565
 20
29.516743491
 10
-10.8743057088
 20
29.5113431814
 10
-10.8660085348
 20
29.5054858728
 10
-10.8577872365
 20
29.4991848279
 10
-10.8496602707
 20
29.4924544029
 10
-10.8416461053
 20
29.4853098121
 10
-10.8337629859
 20
29.4777671927
 10
-10.8260286438
 20
29.4698436957
 10
-10.8184606362
 20
29.4615572496
 10
-10.8110761793
 20
29.4529265883
 10
-10.8038919167
 20
29.4439713086
 10
-10.796924138
 20
29.4347116881
 10
-10.7901886788
 20
29.4251686761
 10
-10.7837007561
 20
29.4153639163
 10
-10.7774750595
 20
29.4053196223
 10
-10.7715257216
 20
29.3950585323
 10
-10.7658662222
 20
29.3846038953
 10
-10.7605093518
 20
29.373979409
 10
-10.7554672521
 20
29.3632091367
 10
-10.750751391
 20
29.3523174593
 10
-10.7463723992
 20
29.3413290754
 10
-10.7423401802
 20
29.3302688835
 10
-10.7386639563
 20
29.3191618991
 10
-10.735351982
 20
29.3080333183
 10
-10.7324117211
 20
29.2969083682
 10
-10.7298499625
 20
29.2858121883
 10
-10.7276724166
 20
29.2747699597
 10
-10.7258839557
 20
29.2638067236
 10
-10.7244887974
 20
29.2529472318
 10
-10.7234900938
 20
29.2422160865
 10
-10.7228899248
 20
29.2316376843
 10
-10.7226895459
 20
29.221236037
  0
LWPOLYLINE
  5
435
100
AcDbEntity
  8
0
100
AcDbPolyline
 62
7
  6
CONTINUOUS
 90
34
 70
0
 10
1.4041947431
 20
23.3742965795
 10
1.4126058185
 20
23.3698456651
 10
1.4209980361
 20
23.3649144947
 10
1.4293522838
 20
23.3595141851
 10
1.4376494578
 20
23.3536568765
 10
1.4458707562
 20
23.3473558316
 10
1.453997722
 20
23.3406254065
 10
1.4620118873
 20
23.3334808157
 10
1.4698950067
 20
23.3259381964
 10
1.4776293489
 20
23.3180146994
 10
1.4851973564
 20
23.3097282533
 10
1.4925818134
 20
23.3010975919
 10
1.4997660759
 20
23.2921423123
 10
1.5067338546
 20
23.2828826918
 10
1.5134693138
 20
23.2733396798
 10
1.5199572365
 20
23.26353492
 10
1.5261829332
 20
23.253490626
 10
1.5321322711
 20
23.2432295359
 10
1.5377917705
 20
23.232774899
 10
1.5431486409
 20
23.2221504126
 10
1.5481907405
 20
23.2113801404
 10
1.5529066017
 20
23.200488463
 10
1.5572855935
 20
23.189500079
 10
1.5613178124
 20
23.1784398872
 10
1.5649940364
 20
23.1673329028
 10
1.5683060107
 20
23.156204322
 10
1.5712462715
 20
23.1450793719
 10
1.5738080301
 20
23.133983192
 10
1.575985576
 20
23.1229409634
 10
1.5777740369
 20
23.1119777272
 10
1.5791691953
 20
23.1011182355
 10
1.5801678989
 20
23.0903870902
 10
1.5807680679
 20
23.0798086879
 10
1.5809684467
 20
23.0694070407
  0
LWPOLYLINE
  5
436
100
AcDbEntity
  8
0
100
AcDbPolyline
 62
250
  6
CONTINUOUS
 90
34
 70
0
 10
-0.1970860478
 20
22.571574576
 10
-0.1887365123
 20
22.5671073615
 10
-0.1803999308
 20
22.562160352
 10
-0.1720951751
 20
22.5567441179
 10
-0.1638399089
 20
22.5508694423
 10
-0.1556540982
 20
22.5445497917
 10
-0.1475598506
 20
22.5378019129
 10
-0.1395766919
 20
22.530642197
 10
-0.1317214926
 20
22.5230858888
 10
-0.1240119066
 20
22.5151499562
 10
-0.1164653096
 20
22.506852245
 10
-0.1090989139
 20
22.4982116397
 10
-0.101929572
 20
22.4892478949
 10
-0.0949735904
 20
22.479981411
 10
-0.08824666
 20
22.4704331045
 10
-0.0817639792
 20
22.460624547
 10
-0.075540222
 20
22.4505779315
 10
-0.0695895115
 20
22.4403160461
 10
-0.0639253439
 20
22.4298621592
 10
-0.0585605576
 20
22.419239962
 10
-0.0535073069
 20
22.4084735165
 10
-0.0487770448
 20
22.3975872203
 10
-0.0443804902
 20
22.3866057379
 10
-0.0403276074
 20
22.3755539529
 10
-0.0366275837
 20
22.3644569155
 10
-0.0332888044
 20
22.3533397714
 10
-0.0303188346
 20
22.3422277089
 10
-0.0277244057
 20
22.3311459099
 10
-0.0255113958
 20
22.3201194793
 10
-0.0236848211
 20
22.3091734068
 10
-0.022248823
 20
22.2983325135
 10
-0.0212066544
 20
22.2876213692
 10
-0.020560674
 20
22.277064237
 10
-0.0203123441
 20
22.2666850372
  0
LWPOLYLINE
  5
437
100
AcDbEntity
  8
0
100
AcDbPolyline
 62
7
  6
CONTINUOUS
 90
40
 70
0
 10
1.934790962
 20
21.2903451221
 10
1.9487572141
 20
21.282831444
 10
1.962735033
 20
21.2746332484
 10
1.976702049
 20
21.2657610609
 10
1.9906415596
 20
21.256223312
 10
2.0045250409
 20
21.2460356337
 10
2.0183124467
 20
21.2352231371
 10
2.0319732673
 20
21.2238095293
 10
2.0454934761
 20
21.2118068871
 10
2.0588579346
 20
21.1992253469
 10
2.0720537984
 20
21.1860740436
 10
2.0850493847
 20
21.1723819363
 10
2.0978022322
 20
21.1581916546
 10
2.1102800396
 20
21.1435412491
 10
2.1224750918
 20
21.1284421347
 10
2.1343824183
 20
21.1128986512
 10
2.1459921227
 20
21.0969206098
 10
2.1572736624
 20
21.0805468818
 10
2.1681920277
 20
21.0638263171
 10
2.1787197181
 20
21.0468036173
 10
2.1888509232
 20
21.0294905438
 10
2.1985837317
 20
21.0118873262
 10
2.2079103899
 20
20.9940034432
 10
2.2168039701
 20
20.9758848824
 10
2.2252348008
 20
20.9575869732
 10
2.2331826602
 20
20.9391569019
 10
2.2406426424
 20
20.9206073756
 10
2.2476093067
 20
20.9019426402
 10
2.2540761518
 20
20.8831760353
 10
2.2600237895
 20
20.8643538763
 10
2.2654288411
 20
20.845529835
 10
2.2702819722
 20
20.8267455554
 10
2.2745771679
 20
20.8080193269
 10
2.2782989556
 20
20.7893696374
 10
2.2814452624
 20
20.770829589
 10
2.2840066485
 20
20.7524247037
 10
2.2859565945
 20
20.7341620019
 10
2.2872832403
 20
20.7160630667
 10
2.2879903257
 20
20.6981637191
 10
2.2880752279
 20
20.6804920956
  0
LWPOLYLINE
  5
438
100
AcDbEntity
  8
0
100
AcDbPolyline
 62
250
  6
CONTINUOUS
 90
34
 70
0
 10
-6.6595049389
 20
26.7586615539
 10
-6.6528331523
 20
26.7550712257
 10
-6.6461746098
 20
26.7510975146
 10
-6.6395443986
 20
26.7467494226
 10
-6.6329575378
 20
26.7420367976
 10
-6.6264289564
 20
26.7369703185
 10
-6.6199734589
 20
26.7315614739
 10
-6.6136056753
 20
26.7258225227
 10
-6.6073400308
 20
26.7197664664
 10
-6.6011907236
 20
26.713407029
 10
-6.5951716857
 20
26.7067586193
 10
-6.589296556
 20
26.6998363033
 10
-6.583578651
 20
26.6926557725
 10
-6.5780309271
 20
26.6852332998
 10
-6.5726659521
 20
26.6775857025
 10
-6.5674958815
 20
26.66973031
 10
-6.5625324251
 20
26.6616849165
 10
-6.557786832
 20
26.6534677575
 10
-6.553269863
 20
26.6450974708
 10
-6.548991762
 20
26.6365930478
 10
-6.5449622058
 20
26.6279737348
 10
-6.5411902981
 20
26.6192590061
 10
-6.5376845572
 20
26.6104685283
 10
-6.5344529629
 20
26.6016222949
 10
-6.5315028959
 20
26.5927405279
 10
-6.5288410569
 20
26.5838434649
 10
-6.5264734223
 20
26.5749511509
 10
-6.5244053059
 20
26.5660835728
 10
-6.5226411438
 20
26.5572594575
 10
-6.5211852781
 20
26.5485001789
 10
-6.5200414497
 20
26.5398294424
 10
-6.5192119298
 20
26.5312680216
 10
-6.5186979788
 20
26.5228338263
 10
-6.5185003345
 20
26.5145457351
  0
LWPOLYLINE
  5
439
100
AcDbEntity
  8
RACCORDO
100
AcDbPolyline
 62
250
  6
CONTINUOUS
 90
15
 70
0
 10
-1.5082776514
 20
26.6945304141
 10
-1.474695675
 20
26.6752872881
 10
-1.4453790869
 20
26.6536638853
 10
-1.4203278872
 20
26.6296602055
 10
-1.3993386951
 20
26.6030278568
 10
-1.3826148914
 20
26.5740152312
 10
-1.3707666183
 20
26.5433675048
 10
-1.3639098247
 20
26.5110075572
 10
-1.3619285616
 20
26.4770125087
 10
-1.3650851245
 20
26.4423588964
 10
-1.3735478637
 20
26.4069928078
 10
-1.3871484289
 20
26.3709681554
 10
-1.4056440636
 20
26.3354232145
 10
-1.4289538492
 20
26.30073741
 10
-1.4571587044
 20
26.2665313169
  0
LWPOLYLINE
  5
43A
100
AcDbEntity
  8
RACCORDO
100
AcDbPolyline
 62
250
  6
CONTINUOUS
 90
9
 70
0
 10
-1.6107179989
 20
26.4768148306
 10
-1.5908368225
 20
26.4652008398
 10
-1.5731750907
 20
26.4514563578
 10
-1.5579235158
 20
26.4356916724
 10
-1.5452589321
 20
26.41799791
 10
-1.5353152362
 20
26.3985336249
 10
-1.5282006231
 20
26.3775202729
 10
-1.5240242064
 20
26.3550556597
 10
-1.5228500697
 20
26.3344539087
  0
LWPOLYLINE
  5
43B
100
AcDbEntity
  8
0
100
AcDbPolyline
 62
7
  6
CONTINUOUS
 90
10
 70
0
 10
-10.2604211183
 20
29.796154287
 10
-10.2321150226
 20
29.7795953394
 10
-10.2058079173
 20
29.7591089361
 10
-10.1821929227
 20
29.7349913044
 10
-10.1619309195
 20
29.7077384258
 10
-10.1455019354
 20
29.6778889854
 10
-10.1332254298
 20
29.6458921293
 10
-10.1253740076
 20
29.6121044928
 10
-10.122274488
 20
29.5775457793
 10
-10.1222245222
 20
29.5725725059
  0
LWPOLYLINE
  5
43C
100
AcDbEntity
  8
0
100
AcDbPolyline
 62
7
  6
CONTINUOUS
 90
10
 70
0
 10
2.0432368744
 20
23.6443252907
 10
2.0715429701
 20
23.627766343
 10
2.0978500753
 20
23.6072799397
 10
2.12146507
 20
23.5831623081
 10
2.1417270731
 20
23.5559094294
 10
2.1581560572
 20
23.5260599891
 10
2.1704325629
 20
23.494063133
 10
2.1782839851
 20
23.4602754965
 10
2.1813835046
 20
23.425716783
 10
2.1814334705
 20
23.4207435095
  0
LWPOLYLINE
  5
43D
100
AcDbEntity
  8
RACCORDO
100
AcDbPolyline
 62
250
  6
CONTINUOUS
 90
13
 70
0
 10
-2.9548019438
 20
26.9650765925
 10
-2.9370910081
 20
26.9539547166
 10
-2.9190228947
 20
26.9405502285
 10
-2.9009011334
 20
26.9250883605
 10
-2.8830301481
 20
26.9078289011
 10
-2.8657101284
 20
26.8890618168
 10
-2.8492319899
 20
26.8691023761
 10
-2.8338725198
 20
26.848285892
 10
-2.8198896829
 20
26.8269620333
 10
-2.8075182902
 20
26.8054889315
 10
-2.7969661164
 20
26.7842272556
 10
-2.7884103957
 20
26.7635341562
 10
-2.7819948122
 20
26.743757206
  0
LINE
  5
43E
100
AcDbEntity
  8
DRAFT
100
AcDbLine
 62
7
  6
CONTINUOUS
 10
9.8132250488
 20
23.4210465615
 11
9.0605309649
 21
24.7192518225
  0
LINE
  5
43F
100
AcDbEntity
  8
RACCORDO
100
AcDbLine
 62
7
  6
CONTINUOUS
 10
12.8856690649
 20
29.2151737817
 11
12.8947845236
 21
29.1912799807
  0
LWPOLYLINE
  5
440
100
AcDbEntity
  8
0
100
AcDbPolyline
 62
7
  6
CONTINUOUS
 90
10
 70
0
 10
2.9381594651
 20
27.5397935171
 10
2.9307962055
 20
27.5378412814
 10
2.9230208286
 20
27.5356092672
 10
2.9148322124
 20
27.5331106649
 10
2.9062409367
 20
27.5303504511
 10
2.8972666421
 20
27.5273347962
 10
2.8879181435
 20
27.5240793853
 10
2.8782080466
 20
27.5205928104
 10
2.8681537071
 20
27.5168762118
 10
2.8577704601
 20
27.5129339411
  0
LWPOLYLINE
  5
441
100
AcDbEntity
  8
0
100
AcDbPolyline
 62
7
  6
CONTINUOUS
 90
41
 70
0
 10
-11.9265883375
 20
27.7923828872
 10
-11.9208004388
 20
27.7912693126
 10
-11.9127671505
 20
27.7900340275
 10
-11.9046062117
 20
27.7891282532
 10
-11.8963297243
 20
27.7885386077
 10
-11.8879515965
 20
27.7882656828
 10
-11.8794854412
 20
27.7883092914
 10
-11.8709424199
 20
27.7886546902
 10
-11.8623357428
 20
27.7893016581
 10
-11.8536782898
 20
27.7902494484
 10
-11.8449802127
 20
27.7914824053
 10
-11.836253934
 20
27.7929996146
 10
-11.8275115351
 20
27.7947998477
 10
-11.8187621502
 20
27.7968669173
 10
-11.8100173424
 20
27.7991993362
 10
-11.8012883806
 20
27.8017954576
 10
-11.792583482
 20
27.8046388444
 10
-11.7839133322
 20
27.8077275415
 10
-11.7752883763
 20
27.8110595369
 10
-11.7667160377
 20
27.8146183318
 10
-11.7582061301
 20
27.8184015883
 10
-11.7497682749
 20
27.822406976
 10
-11.7414092211
 20
27.8266180484
 10
-11.7331379281
 20
27.8310321514
 10
-11.7249632005
 20
27.8356466777
 10
-11.7168912103
 20
27.8404452986
 10
-11.7089300852
 20
27.8454250935
 10
-11.7010878196
 20
27.8505832169
 10
-11.6933700751
 20
27.8559034978
 10
-11.6857841681
 20
27.8613827868
 10
-11.6783372896
 20
27.8670180371
 10
-11.6710346228
 20
27.8727932688
 10
-11.6638826933
 20
27.878705131
 10
-11.6568878898
 20
27.8847504136
 10
-11.650054912
 20
27.8909133764
 10
-11.6433895079
 20
27.8971904917
 10
-11.6368972675
 20
27.9035784224
 10
-11.6305823782
 20
27.9100617363
 10
-11.6244495295
 20
27.9166329408
 10
-11.6185038256
 20
27.9232924296
 10
-11.6127497286
 20
27.9300365765
  0
LINE
  5
442
100
AcDbEntity
  8
0
100
AcDbLine
 62
7
  6
CONTINUOUS
 10
-12.5508138303
 20
27.9227189386
 11
-11.926514408
 21
27.79236464
  0
LINE
  5
443
100
AcDbEntity
  8
0
100
AcDbLine
 62
250
  6
CONTINUOUS
 10
-12.3239703367
 20
28.0785400994
 11
-11.6127497286
 21
27.9300365765
  0
LWPOLYLINE
  5
444
100
AcDbEntity
  8
0
100
AcDbPolyline
 62
7
  6
CONTINUOUS
 90
10
 70
0
 10
-12.5508138303
 20
27.9227189386
 10
-12.5583919229
 20
27.9244245282
 10
-12.5659291653
 20
27.9263690582
 10
-12.5734148147
 20
27.9285511838
 10
-12.580864109
 20
27.9309778131
 10
-12.5882386224
 20
27.9336385304
 10
-12.5954523505
 20
27.9364985919
 10
-12.6024758281
 20
27.9395369463
 10
-12.609330049
 20
27.942753226
 10
-12.611526939
 20
27.9438383431
  0
LWPOLYLINE
  5
445
100
AcDbEntity
  8
0
100
AcDbPolyline
 62
7
  6
CONTINUOUS
 90
3
 70
0
 10
0.2835013825
 20
24.5124416652
 10
0.3142534271
 20
24.5050481663
 10
0.3439445722
 20
24.4937770623
  0
LWPOLYLINE
  5
446
100
AcDbEntity
  8
0
100
AcDbPolyline
 62
250
  6
CONTINUOUS
 90
14
 70
0
 10
-11.9600564379
 20
30.6454280457
 10
-11.9669814564
 20
30.647750704
 10
-11.9741226139
 20
30.6495567219
 10
-11.9814638529
 20
30.6508420383
 10
-11.9889886661
 20
30.6516037631
 10
-11.9966801333
 20
30.6518401835
 10
-12.0045209599
 20
30.6515507679
 10
-12.012493515
 20
30.6507361672
 10
-12.0205798717
 20
30.6493982129
 10
-12.0287618473
 20
30.6475399136
 10
-12.037021044
 20
30.6451654477
 10
-12.0453388904
 20
30.6422801546
 10
-12.0536966831
 20
30.6388905219
 10
-12.062075629
 20
30.6350041715
  0
LWPOLYLINE
  5
447
100
AcDbEntity
  8
RACCORDO
100
AcDbPolyline
 62
250
  6
CONTINUOUS
 90
8
 70
0
 10
-1.4902586292
 20
26.2328049352
 10
-1.5090833023
 20
26.2399509958
 10
-1.5269369626
 20
26.2445076475
 10
-1.5435197067
 20
26.2463983483
 10
-1.5585529795
 20
26.2455913384
 10
-1.5717842541
 20
26.2421001739
 10
-1.5829912732
 20
26.2359834989
 10
-1.5870590003
 20
26.2326446954
  0
LWPOLYLINE
  5
448
100
AcDbEntity
  8
0
100
AcDbPolyline
 62
7
  6
CONTINUOUS
 90
6
 70
0
 10
-11.9513006694
 20
30.6415940626
 10
-11.9794943816
 20
30.6535907011
 10
-12.0093781306
 20
30.662145486
 10
-12.0404441413
 20
30.6669582023
 10
-12.0722422347
 20
30.6678201374
 10
-12.1040284012
 20
30.6646149078
  0
LINE
  5
449
100
AcDbEntity
  8
RACCORDO
100
AcDbLine
 62
250
  6
CONTINUOUS
 10
-1.9253529498
 20
27.7989528314
 11
-1.9219121204
 21
27.7973395645
  0
LINE
  5
44A
100
AcDbEntity
  8
RACCORDO
100
AcDbLine
 62
250
  6
CONTINUOUS
 10
-2.3691235976
 20
26.85601763
 11
-1.6107179989
 21
26.4768148306
  0
LINE
  5
44B
100
AcDbEntity
  8
RACCORDO
100
AcDbLine
 62
250
  6
CONTINUOUS
 10
-2.26668325
 20
27.0737332134
 11
-1.5082776514
 21
26.6945304141
  0
LINE
  5
44C
100
AcDbEntity
  8
RACCORDO
100
AcDbLine
 62
7
  6
CONTINUOUS
 10
-2.9798702911
 20
27.6740845947
 11
-0.5377362594
 21
26.4530175788
  0
LINE
  5
44D
100
AcDbEntity
  8
RACCORDO
100
AcDbLine
 62
250
  6
CONTINUOUS
 10
0.0696206191
 20
26.7523990016
 11
-2.0101278791
 21
27.7922732507
  0
LINE
  5
44E
100
AcDbEntity
  8
RACCORDO
100
AcDbLine
 62
7
  6
CONTINUOUS
 10
0.1191451964
 20
26.7768109066
 11
-1.9219192784
 21
27.797343144
  0
LINE
  5
44F
100
AcDbEntity
  8
0
100
AcDbLine
 62
7
  6
CONTINUOUS
 10
-1.6258770011
 20
28.2025166552
 11
0.6762815554
 21
27.051437377
  0
LINE
  5
450
100
AcDbEntity
  8
0
100
AcDbLine
 62
7
  6
CONTINUOUS
 10
-0.9806882746
 20
28.878664409
 11
1.6821400661
 21
27.5472502387
  0
LINE
  5
451
100
AcDbEntity
  8
0
100
AcDbLine
 62
250
  6
CONTINUOUS
 10
2.8249518631
 20
27.4984604861
 11
2.2084800384
 21
27.8066963985
  0
LINE
  5
452
100
AcDbEntity
  8
0
100
AcDbLine
 62
250
  6
CONTINUOUS
 10
-2.7900953279
 20
30.3059840816
 11
-3.4065671526
 21
30.614219994
  0
LINE
  5
453
100
AcDbEntity
  8
0
100
AcDbLine
 62
7
  6
CONTINUOUS
 10
10.0378277087
 20
25.6445677223
 11
10.2517201626
 21
25.4470344547
  0
LWPOLYLINE
  5
454
100
AcDbEntity
  8
RACCORDO
100
AcDbPolyline
 62
250
  6
CONTINUOUS
 90
35
 70
0
 10
18.4168908236
 20
22.8117113474
 10
18.4284883499
 20
22.7748364269
 10
18.4484258574
 20
22.7019225554
 10
18.4647398544
 20
22.630950805
 10
18.4783356147
 20
22.56188447
 10
18.4893933716
 20
22.4949056007
 10
18.4979207466
 20
22.4299820993
 10
18.504520428
 20
22.3667305361
 10
18.5093328419
 20
22.3051718478
 10
18.5123523814
 20
22.2453770421
 10
18.5139245195
 20
22.1870183371
 10
18.5141406984
 20
22.1300476078
 10
18.5130097513
 20
22.0745712144
 10
18.5107319233
 20
22.0204831126
 10
18.5073707777
 20
21.9677685991
 10
18.5029482016
 20
21.9164824747
 10
18.4975932846
 20
21.8666185382
 10
18.4913645451
 20
21.8182022946
 10
18.4842807769
 20
21.7712363398
 10
18.4764066933
 20
21.7256772946
 10
18.4678000091
 20
21.6815406686
 10
18.4584709735
 20
21.6388295585
 10
18.448409055
 20
21.5974795302
 10
18.4376594633
 20
21.5574519734
 10
18.4262359085
 20
21.5187969374
 10
18.4140799392
 20
21.4815812612
 10
18.4012274957
 20
21.445754211
 10
18.387697608
 20
21.4113735251
 10
18.3734104155
 20
21.3786679623
 10
18.3583989576
 20
21.3476003174
 10
18.3426828593
 20
21.3182126727
 10
18.326167775
 20
21.2908528025
 10
18.308839497
 20
21.2656385392
 10
18.290758662
 20
21.2424575633
 10
18.2719428331
 20
21.2213130302
  0
LINE
  5
455
100
AcDbEntity
  8
0
100
AcDbLine
 62
7
  6
CONTINUOUS
 10
0.773349393
 20
28.9707066348
 11
-0.9806882746
 21
28.878664409
  0
LWPOLYLINE
  5
456
100
AcDbEntity
  8
RACCORDO
100
AcDbPolyline
 62
7
  6
CONTINUOUS
 90
6
 70
0
 10
-3.0360270016
 20
27.6882171417
 10
-3.0263469913
 20
27.6878797277
 10
-3.0159357948
 20
27.6864248571
 10
-3.0048147552
 20
27.6837476307
 10
-2.9929983142
 20
27.6797704542
 10
-2.9805291655
 20
27.6744140319
  0
LWPOLYLINE
  5
457
100
AcDbEntity
  8
RACCORDO
100
AcDbPolyline
 62
250
  6
CONTINUOUS
 90
4
 70
0
 10
3.316051362
 20
27.6993556503
 10
3.3612439079
 20
27.6928928709
 10
3.4160899775
 20
27.6756302899
 10
3.4390759654
 20
27.6651983931
  0
LWPOLYLINE
  5
458
100
AcDbEntity
  8
RACCORDO
100
AcDbPolyline
 62
7
  6
CONTINUOUS
 90
10
 70
0
 10
-2.0473564019
 20
27.8292199009
 10
-2.1284788602
 20
27.8409402556
 10
-2.2107524794
 20
27.8488435068
 10
-2.2935455409
 20
27.8529324703
 10
-2.3764247117
 20
27.8532307675
 10
-2.4591545416
 20
27.8497387721
 10
-2.5412052879
 20
27.8424431744
 10
-2.6220377195
 20
27.8313388755
 10
-2.7014359227
 20
27.8163588227
 10
-2.778986753
 20
27.7974219736
  0
LWPOLYLINE
  5
459
100
AcDbEntity
  8
0
100
AcDbPolyline
 62
7
  6
CONTINUOUS
 90
16
 70
0
 10
-2.0725712368
 20
28.3327229279
 10
-2.0390760555
 20
28.3277698358
 10
-2.0060211738
 20
28.3222608431
 10
-1.9734065915
 20
28.31619595
 10
-1.941198635
 20
28.3095676375
 10
-1.909430978
 20
28.3023834246
 10
-1.8782046416
 20
28.2946658676
 10
-1.8475132306
 20
28.2864108061
 10
-1.8173631401
 20
28.2776224005
 10
-1.7878745767
 20
28.2683356889
 10
-1.7590579303
 20
28.2585514032
 10
-1.730902811
 20
28.2482688116
 10
-1.7034982549
 20
28.2375207567
 10
-1.6768739405
 20
28.2263181861
 10
-1.6510001892
 20
28.2146501523
 10
-1.6258770011
 20
28.2025166552
  0
LWPOLYLINE
  5
45A
100
AcDbEntity
  8
RACCORDO
100
AcDbPolyline
 62
7
  6
CONTINUOUS
 90
10
 70
0
 10
3.7831999832
 20
27.5685463458
 10
3.7386636572
 20
27.5754229322
 10
3.6806036006
 20
27.5865918977
 10
3.6267120332
 20
27.5990896311
 10
3.5782236053
 20
27.6123263431
 10
3.5353988924
 20
27.6258671431
 10
3.4983587781
 20
27.6392741913
 10
3.4677062591
 20
27.6518482784
 10
3.4433902058
 20
27.6630570662
 10
3.4390724038
 20
27.6651912622
  0
LWPOLYLINE
  5
45B
100
AcDbEntity
  8
RACCORDO
100
AcDbPolyline
 62
250
  6
CONTINUOUS
 90
13
 70
0
 10
-2.0101278791
 20
27.7922732507
 10
-2.079850109
 20
27.8058479954
 10
-2.1505919079
 20
27.8161114965
 10
-2.2223532758
 20
27.8230637541
 10
-2.2957926521
 20
27.8267141287
 10
-2.3702515973
 20
27.8270532597
 10
-2.4437547931
 20
27.8240530651
 10
-2.5162793033
 20
27.8176085034
 10
-2.587848064
 20
27.8078246161
 10
-2.6565545653
 20
27.7949884456
 10
-2.7217633037
 20
27.7791956727
 10
-2.7841097826
 20
27.7603506167
 10
-2.843594002
 20
27.7384532775
  0
LINE
  5
45C
100
AcDbEntity
  8
RACCORDO
100
AcDbLine
 62
7
  6
CONTINUOUS
 10
-1.9679327098
 20
27.8136855137
 11
-2.0473564019
 21
27.8292199009
  0
LWPOLYLINE
  5
45D
100
AcDbEntity
  8
0
100
AcDbPolyline
 62
7
  6
CONTINUOUS
 90
8
 70
0
 10
2.3612189884
 20
27.8394901798
 10
2.3766275371
 20
27.8358476783
 10
2.3924780165
 20
27.8313716327
 10
2.4087575579
 20
27.8260455044
 10
2.4254586711
 20
27.8198575417
 10
2.442556931
 20
27.8127859344
 10
2.4600102391
 20
27.8048003245
 10
2.4682009274
 20
27.8007883148
  0
LWPOLYLINE
  5
45E
100
AcDbEntity
  8
RACCORDO
100
AcDbPolyline
 62
7
  6
CONTINUOUS
 90
7
 70
0
 10
-1.9679395674
 20
27.8136870381
 10
-1.9600788847
 20
27.8117710326
 10
-1.9509828318
 20
27.8091258896
 10
-1.9420194481
 20
27.8060519776
 10
-1.9331991651
 20
27.8025516264
 10
-1.9245417037
 20
27.7986305009
 10
-1.9219011455
 20
27.7973340744
  0
LWPOLYLINE
  5
45F
100
AcDbEntity
  8
RACCORDO
100
AcDbPolyline
 62
7
  6
CONTINUOUS
 90
9
 70
0
 10
12.3756099156
 20
26.4371544923
 10
12.369493175
 20
26.43875399
 10
12.3597229613
 20
26.4402868039
 10
12.3493967659
 20
26.4407022483
 10
12.3386095687
 20
26.4400004758
 10
12.3276463098
 20
26.4381819445
 10
12.3166019691
 20
26.4352468069
 10
12.3053815666
 20
26.4311949106
 10
12.2939851023
 20
26.4260262553
  0
LINE
  5
460
100
AcDbEntity
  8
0
100
AcDbLine
 62
7
  6
CONTINUOUS
 10
10.9825471169
 20
25.7703072626
 11
10.5328024555
 21
25.8920550958
  0
LWPOLYLINE
  5
461
100
AcDbEntity
  8
RACCORDO
100
AcDbPolyline
 62
7
  6
CONTINUOUS
 90
28
 70
0
 10
12.3755997794
 20
26.4371305399
 10
12.2668844328
 20
26.4684163857
 10
12.1520293898
 20
26.4977700627
 10
12.0347679659
 20
26.5240971329
 10
11.9153948011
 20
26.5473592246
 10
11.7941744294
 20
26.5675297774
 10
11.6713450599
 20
26.5845890527
 10
11.5471962626
 20
26.5985128943
 10
11.4220127995
 20
26.6092835633
 10
11.296032282
 20
26.616890963
 10
11.1695458958
 20
26.6213243417
 10
11.0428431729
 20
26.6225788963
 10
10.9161614274
 20
26.6206541233
 10
10.7897901577
 20
26.6155527883
 10
10.6640205671
 20
26.6072835761
 10
10.5390909677
 20
26.5958557007
 10
10.4152920931
 20
26.5812858684
 10
10.2929073407
 20
26.5635958468
 10
10.1721589046
 20
26.5428016715
 10
10.0533239835
 20
26.5189300715
 10
9.93668816
 20
26.4920150197
 10
9.822476587
 20
26.4620802524
 10
9.7109614088
 20
26.4291631485
 10
9.6024152124
 20
26.3933065137
 10
9.4970483208
 20
26.3545348961
 10
9.3951015384
 20
26.3128820877
 10
9.296855401
 20
26.2684013132
 10
9.2025713398
 20
26.2211439238
  0
LWPOLYLINE
  5
462
100
AcDbEntity
  8
0
100
AcDbPolyline
 62
7
  6
CONTINUOUS
 90
10
 70
0
 10
2.9835872385
 20
27.5430968971
 10
2.9805252797
 20
27.5442315506
 10
2.9770020177
 20
27.5448898351
 10
2.9729175029
 20
27.5451759715
 10
2.9683074435
 20
27.5450987435
 10
2.9632017156
 20
27.5446639636
 10
2.9576108147
 20
27.5439072499
 10
2.9515643733
 20
27.5428403257
 10
2.9450852834
 20
27.541462722
 10
2.9381594651
 20
27.5397935171
  0
LWPOLYLINE
  5
463
100
AcDbEntity
  8
0
100
AcDbPolyline
 62
7
  6
CONTINUOUS
 90
7
 70
0
 10
-2.6068839789
 20
30.3383272927
 10
-2.6082573476
 20
30.3389251712
 10
-2.6115882643
 20
30.339832224
 10
-2.6155319825
 20
30.3403070795
 10
-2.6200543309
 20
30.3403966628
 10
-2.6251201506
 20
30.3401215746
 10
-2.6306911578
 20
30.3394758783
  0
LINE
  5
464
100
AcDbEntity
  8
0
100
AcDbLine
 62
7
  6
CONTINUOUS
 10
2.9835626935
 20
27.5431098127
 11
2.468574606
 21
27.8006038564
  0
LINE
  5
465
100
AcDbEntity
  8
0
100
AcDbLine
 62
7
  6
CONTINUOUS
 10
-2.6308143335
 20
30.3502983262
 11
-3.1220771683
 21
30.5959297436
  0
LINE
  5
466
100
AcDbEntity
  8
DRAFT
100
AcDbLine
 62
7
  6
CONTINUOUS
 10
9.0605309649
 20
24.7192518225
 11
8.1846534061
 21
25.1571906019
  0
LINE
  5
467
100
AcDbEntity
  8
0
100
AcDbLine
 62
7
  6
CONTINUOUS
 10
3.6797027398
 20
27.5175299614
 11
0.773349393
 21
28.9707066348
  0
LINE
  5
468
100
AcDbEntity
  8
RACCORDO
100
AcDbLine
 62
7
  6
CONTINUOUS
 10
3.439147026
 20
27.6651628732
 11
0.7731544757
 21
28.9981591484
  0
LINE
  5
469
100
AcDbEntity
  8
0
100
AcDbLine
 62
250
  6
CONTINUOUS
 10
-2.8983577762
 20
31.4337562571
 11
0.0608781632
 21
29.9541382873
  0
LINE
  5
46A
100
AcDbEntity
  8
0
100
AcDbLine
 62
250
  6
CONTINUOUS
 10
4.3113677729
 20
27.8288934825
 11
7.2706037123
 21
26.3492755128
  0
LINE
  5
46B
100
AcDbEntity
  8
0
100
AcDbLine
 62
7
  6
CONTINUOUS
 10
-2.6097065945
 20
31.5373401498
 11
0.5053753147
 21
29.9797991951
  0
LINE
  5
46C
100
AcDbEntity
  8
0
100
AcDbLine
 62
7
  6
CONTINUOUS
 10
4.7530702978
 20
27.8559517036
 11
7.868152207
 21
26.298410749
  0
LINE
  5
46D
100
AcDbEntity
  8
0
100
AcDbLine
 62
7
  6
CONTINUOUS
 10
10.0378277087
 20
25.6445677223
 11
9.3308587685
 21
25.9980521924
  0
LINE
  5
46E
100
AcDbEntity
  8
0
100
AcDbLine
 62
7
  6
CONTINUOUS
 10
10.5328024555
 20
25.8920550958
 11
9.8258335154
 21
26.2455395658
  0
LINE
  5
46F
100
AcDbEntity
  8
DRAFT
100
AcDbLine
 62
7
  6
CONTINUOUS
 10
9.565338743
 20
26.728185207
 11
9.1267282705
 21
26.9474904432
  0
LWPOLYLINE
  5
470
100
AcDbEntity
  8
RACCORDO
100
AcDbPolyline
 62
250
  6
CONTINUOUS
 90
5
 70
0
 10
13.2361787348
 20
26.008072643
 10
13.2607017251
 20
25.9875682646
 10
13.2850674868
 20
25.9662900002
 10
13.3092042369
 20
25.9442277229
 10
13.3173530644
 20
25.9364137533
  0
LWPOLYLINE
  5
471
100
AcDbEntity
  8
RACCORDO
100
AcDbPolyline
 62
250
  6
CONTINUOUS
 90
4
 70
0
 10
13.1425421356
 20
26.0017766346
 10
13.165402565
 20
25.9821979011
 10
13.1879801033
 20
25.9618448546
 10
13.2102747505
 20
25.940717495
  0
LINE
  5
472
100
AcDbEntity
  8
RACCORDO
100
AcDbLine
 62
250
  6
CONTINUOUS
 10
13.2102747505
 20
25.940717495
 11
13.2323202489
 21
25.918887608
  0
LINE
  5
473
100
AcDbEntity
  8
RACCORDO
100
AcDbLine
 62
250
  6
CONTINUOUS
 10
13.2323202489
 20
25.918887608
 11
13.247653288
 21
25.9029616172
  0
LINE
  5
474
100
AcDbEntity
  8
RACCORDO
100
AcDbLine
 62
250
  6
CONTINUOUS
 10
17.405789949
 20
27.1091280336
 11
17.82533316
 21
26.3855230321
  0
LINE
  5
475
100
AcDbEntity
  8
RACCORDO
100
AcDbLine
 62
7
  6
CONTINUOUS
 10
17.7960543134
 20
27.1035182197
 11
18.1428920839
 21
26.5053115538
  0
LWPOLYLINE
  5
476
100
AcDbEntity
  8
RACCORDO
100
AcDbPolyline
 62
250
  6
CONTINUOUS
 90
13
 70
0
 10
17.82533316
 20
26.3855230321
 10
17.8771024094
 20
26.2919425147
 10
17.9251457599
 20
26.1962230601
 10
17.9692574823
 20
26.0987745537
 10
18.0092486835
 20
26.0000142845
 10
18.0449481148
 20
25.9003651595
 10
18.0762029051
 20
25.8002538928
 10
18.1028792167
 20
25.7001091761
 10
18.1248628176
 20
25.6003598445
 10
18.1420595704
 20
25.501433041
 10
18.1543958362
 20
25.4037523858
 10
18.1618187894
 20
25.307736162
 10
18.1642966439
 20
25.2137955257
  0
LWPOLYLINE
  5
477
100
AcDbEntity
  8
0
100
AcDbPolyline
 62
7
  6
CONTINUOUS
 90
7
 70
0
 10
-3.3512788365
 20
30.6353261281
 10
-3.3396728165
 20
30.6378610525
 10
-3.3277064966
 20
30.6398048046
 10
-3.315386898
 20
30.6411460028
 10
-3.3027150115
 20
30.6418650284
 10
-3.2897080252
 20
30.6419546255
 10
-3.2763708502
 20
30.6414068154
  0
LINE
  5
478
100
AcDbEntity
  8
0
100
AcDbLine
 62
7
  6
CONTINUOUS
 10
-2.6306911578
 20
30.3394758783
 11
-2.6367309277
 21
30.3384651378
  0
LWPOLYLINE
  5
479
100
AcDbEntity
  8
0
100
AcDbPolyline
 62
7
  6
CONTINUOUS
 90
11
 70
0
 10
-3.2763708502
 20
30.6414068154
 10
-3.262684656
 20
30.6401990608
 10
-3.2486760453
 20
30.6383286959
 10
-3.2343419604
 20
30.6357809848
 10
-3.2196149617
 20
30.6325097871
 10
-3.2044970599
 20
30.6285050402
 10
-3.1890087395
 20
30.6237505102
 10
-3.1731068245
 20
30.6181836297
 10
-3.1567944428
 20
30.6117851614
 10
-3.1400976866
 20
30.6045415779
 10
-3.1221277196
 20
30.5959543572
  0
LWPOLYLINE
  5
47A
100
AcDbEntity
  8
RACCORDO
100
AcDbPolyline
 62
7
  6
CONTINUOUS
 90
3
 70
0
 10
12.3876505974
 20
26.4323367117
 10
12.3788023871
 20
26.4361039593
 10
12.3756099156
 20
26.4371544923
  0
LINE
  5
47B
100
AcDbEntity
  8
RACCORDO
100
AcDbLine
 62
7
  6
CONTINUOUS
 10
13.795251723
 20
26.4884488324
 11
13.0687543343
 21
26.8516975268
  0
LINE
  5
47C
100
AcDbEntity
  8
DRAFT
100
AcDbLine
 62
7
  6
CONTINUOUS
 10
13.6124220626
 20
26.5955235152
 11
13.3083026787
 21
26.7475832072
  0
LINE
  5
47D
100
AcDbEntity
  8
DRAFT
100
AcDbLine
 62
7
  6
CONTINUOUS
 10
16.0070220964
 20
27.227309927
 11
12.8947845236
 21
28.7834287134
  0
LINE
  5
47E
100
AcDbEntity
  8
RACCORDO
100
AcDbLine
 62
250
  6
CONTINUOUS
 10
17.405789949
 20
27.1091280336
 11
16.600118013
 21
27.5119640016
  0
LINE
  5
47F
100
AcDbEntity
  8
RACCORDO
100
AcDbLine
 62
250
  6
CONTINUOUS
 10
11.8984549339
 20
29.8627955411
 11
10.9272961002
 21
30.348374958
  0
LINE
  5
480
100
AcDbEntity
  8
RACCORDO
100
AcDbLine
 62
7
  6
CONTINUOUS
 10
17.7360653266
 20
27.1598101377
 11
16.9103064265
 21
27.5726895878
  0
LINE
  5
481
100
AcDbEntity
  8
RACCORDO
100
AcDbLine
 62
7
  6
CONTINUOUS
 10
12.3710377054
 20
29.8423239483
 11
11.3186816927
 21
30.3685019546
  0
LINE
  5
482
100
AcDbEntity
  8
RACCORDO
100
AcDbLine
 62
7
  6
CONTINUOUS
 10
13.2361787348
 20
26.008072643
 11
13.34895362
 21
25.9515803169
  0
LWPOLYLINE
  5
483
100
AcDbEntity
  8
RACCORDO
100
AcDbPolyline
 62
7
  6
CONTINUOUS
 90
10
 70
0
 10
13.1982346675
 20
26.020740298
 10
13.1007576138
 20
26.0707957297
 10
13.005144412
 20
26.1197716053
 10
12.911395062
 20
26.1676679249
 10
12.8195239807
 20
26.2144861127
 10
12.7295167513
 20
26.2602247444
 10
12.6413301233
 20
26.3048795474
 10
12.5549496799
 20
26.3484490976
 10
12.4703898379
 20
26.390934819
 10
12.3876505974
 20
26.4323367117
  0
LWPOLYLINE
  5
484
100
AcDbEntity
  8
DRAFT
100
AcDbPolyline
 62
7
  6
CONTINUOUS
 90
10
 70
0
 10
13.6124220626
 20
26.5955235152
 10
13.5810066082
 20
26.6135763274
 10
13.5489896309
 20
26.6313436298
 10
13.5163711308
 20
26.6488254224
 10
13.4831409401
 20
26.6660267891
 10
13.4493092265
 20
26.6829426459
 10
13.4149064932
 20
26.6995577412
 10
13.379942908
 20
26.7158669913
 10
13.3444083032
 20
26.7318754799
 10
13.3083026787
 20
26.7475832072
  0
LINE
  5
485
100
AcDbEntity
  8
RACCORDO
100
AcDbLine
 62
7
  6
CONTINUOUS
 10
13.2059930962
 20
26.0161538259
 11
13.1982346675
 21
26.020740298
  0
LWPOLYLINE
  5
486
100
AcDbEntity
  8
RACCORDO
100
AcDbPolyline
 62
7
  6
CONTINUOUS
 90
35
 70
0
 10
18.4168908236
 20
24.8937994192
 10
18.5336643523
 20
24.8166973129
 10
18.6734610258
 20
24.7121836667
 10
18.8101988816
 20
24.5976550696
 10
18.9430643251
 20
24.4739385651
 10
19.0714497783
 20
24.34179179
 10
19.1950313785
 20
24.2017243841
 10
19.3134115398
 20
24.0543188804
 10
19.4261659229
 20
23.9002079908
 10
19.5328414889
 20
23.7401012068
 10
19.632998501
 20
23.5747454497
 10
19.7262144448
 20
23.4049276879
 10
19.8121675674
 20
23.2313096573
 10
19.8905829491
 20
23.0544716986
 10
19.9611496241
 20
22.8750811348
 10
20.0235242064
 20
22.6939465747
 10
20.0774089425
 20
22.5118512797
 10
20.1225456656
 20
22.3295466967
 10
20.1587045683
 20
22.1477698597
 10
20.1856803123
 20
21.9672463999
 10
20.2033001176
 20
21.7885439476
 10
20.2113730187
 20
21.6125474318
 10
20.2097729569
 20
21.4403671911
 10
20.1984255848
 20
21.2724512157
 10
20.1772909826
 20
21.1096742794
 10
20.1465616285
 20
20.953580639
 10
20.1064571362
 20
20.8048386742
 10
20.057130788
 20
20.6637457438
 10
19.9989356683
 20
20.5310796539
 10
19.9321272846
 20
20.4071823031
 10
19.857058571
 20
20.2925232049
 10
19.7744688655
 20
20.1879255668
 10
19.6850296945
 20
20.0937982274
 10
19.5892053861
 20
20.0102176675
 10
19.4876139167
 20
19.937368742
  0
LWPOLYLINE
  5
487
100
AcDbEntity
  8
RACCORDO
100
AcDbPolyline
 62
250
  6
CONTINUOUS
 90
34
 70
0
 10
18.4168908236
 20
24.8151888982
 10
18.4949859143
 20
24.7596770947
 10
18.6321267843
 20
24.6502214855
 10
18.7666692759
 20
24.530696012
 10
18.8979858547
 20
24.4016581632
 10
19.0254640133
 20
24.2637098149
 10
19.1485091501
 20
24.1174944043
 10
19.2665473455
 20
23.9636939255
 10
19.37902804
 20
23.8030257435
 10
19.4854265946
 20
23.6362392561
 10
19.5852467377
 20
23.4641124006
 10
19.678022879
 20
23.2874480258
 10
19.7633222843
 20
23.1070701449
 10
19.8407470931
 20
22.923820091
 10
19.9099361749
 20
22.7385525931
 10
19.9705668126
 20
22.5521317901
 10
20.0223562081
 20
22.3654272003
 10
20.0650628011
 20
22.1793096661
 10
20.0984873961
 20
21.9946472918
 10
20.1224740916
 20
21.812301394
 10
20.1369110069
 20
21.633122485
 10
20.1417308042
 20
21.457946305
 10
20.1369110026
 20
21.2875899245
 10
20.122474083
 20
21.1228479334
 10
20.0984873833
 20
20.964488734
 10
20.0650627839
 20
20.8132509578
 10
20.0223561867
 20
20.66984002
 10
19.970566787
 20
20.5349248294
 10
19.9099361453
 20
20.4091346681
 10
19.8407470595
 20
20.2930562563
 10
19.7633222468
 20
20.1872310159
 10
19.6780228377
 20
20.092152545
 10
19.5852466927
 20
20.0082643166
 10
19.4876139167
 20
19.937368742
  0
LWPOLYLINE
  5
488
100
AcDbEntity
  8
RACCORDO
100
AcDbPolyline
 62
250
  6
CONTINUOUS
 90
12
 70
0
 10
18.1428920839
 20
26.5053115538
 10
18.1415329472
 20
26.5069086679
 10
18.1336140291
 20
26.509430271
 10
18.1199694367
 20
26.5085614618
 10
18.10070072
 20
26.5043087065
 10
18.075951287
 20
26.4967036562
 10
18.045905336
 20
26.4858029116
 10
18.0107864846
 20
26.471687602
 10
17.9708561055
 20
26.4544627809
 10
17.9264113816
 20
26.4342566445
 10
17.8777830937
 20
26.4112195776
 10
17.825333159
 20
26.3855230339
  0
LWPOLYLINE
  5
489
100
AcDbEntity
  8
0
100
AcDbPolyline
 62
7
  6
CONTINUOUS
 90
3
 70
0
 10
-12.1040284012
 20
30.6646149078
 10
-12.1349483131
 20
30.657441654
 10
-12.1648345411
 20
30.6463528721
  0
LWPOLYLINE
  5
48A
100
AcDbEntity
  8
RACCORDO
100
AcDbPolyline
 62
7
  6
CONTINUOUS
 90
4
 70
0
 10
17.7379908785
 20
27.1588471644
 10
17.7516343546
 20
27.1510324225
 10
17.7751700511
 20
27.1316601441
 10
17.7953481938
 20
27.1047823125
  0
ELLIPSE
  5
48B
100
AcDbEntity
  8
RACCORDO
100
AcDbEllipse
 62
7
  6
CONTINUOUS
 10
0.0448039664
 20
19.6425547465
 30
0.0
 11
-0.1996736685
 21
0.4584064956
 31
0.0
 40
0.6381227599
 41
-2.2220345828
 42
-0.6519234887
  0
ELLIPSE
  5
48C
100
AcDbEntity
  8
RACCORDO
100
AcDbEllipse
 62
7
  6
CONTINUOUS
 10
-1.5538904808
 20
-18.517521207
 30
0.0
 11
-0.1999840611
 21
0.4586318226
 31
0.0
 40
0.6372798266
 41
-3.1720661614
 42
-2.2231487507
  0
ELLIPSE
  5
48D
100
AcDbEntity
  8
RACCORDO
100
AcDbEllipse
 62
7
  6
CONTINUOUS
 10
-14.8041960476
 20
27.0670547536
 30
0.0
 11
-0.1999840611
 21
0.4586318226
 31
0.0
 40
0.6372798266
 41
-0.6516671913
 42
0.0303399174
  0
ELLIPSE
  5
48E
100
AcDbEntity
  8
0
100
AcDbEllipse
 62
7
  6
CONTINUOUS
 10
10.8203284613
 20
27.046205034
 30
0.0
 11
3.3311333813
 21
-0.0467042088
 31
0.0
 40
0.4892378494
 41
-2.4679914484
 42
-0.7772130249
  0
ELLIPSE
  5
48F
100
AcDbEntity
  8
DRAFT
100
AcDbEllipse
 62
7
  6
CONTINUOUS
 10
11.5158187224
 20
25.7529452173
 30
0.0
 11
2.7583300471
 21
-0.038763314
 31
0.0
 40
0.4892375088
 41
0.4291477653
 42
0.6564870977
  0
ELLIPSE
  5
490
100
AcDbEntity
  8
DRAFT
100
AcDbEllipse
 62
7
  6
CONTINUOUS
 10
10.8440672803
 20
25.8644429013
 30
0.0
 11
2.7499350056
 21
-0.0386453369
 31
0.0
 40
0.4892375088
 41
8.654981679
 42
9.2596989469
  0
ELLIPSE
  5
491
100
AcDbEntity
  8
DRAFT
100
AcDbEllipse
 62
7
  6
CONTINUOUS
 10
11.5158187224
 20
25.7529452173
 30
0.0
 11
2.7583300471
 21
-0.038763314
 31
0.0
 40
0.4892375088
 41
0.9280596999
 42
2.3630697256
  0
ELLIPSE
  5
492
100
AcDbEntity
  8
RACCORDO
100
AcDbEllipse
 62
7
  6
CONTINUOUS
 10
16.2215329535
 20
26.9108457343
 30
0.0
 11
0.716172246
 21
0.6416715914
 31
0.0
 40
0.2882345029
 41
0.1142323894
 42
0.7807533904
  0
ELLIPSE
  5
493
100
AcDbEntity
  8
DRAFT
100
AcDbEllipse
 62
7
  6
CONTINUOUS
 10
11.5158187224
 20
27.6976559285
 30
0.0
 11
2.7583515655
 21
-1.4175703156
 31
0.0
 40
0.0109499087
 41
-0.9155571536
 42
-0.85781018
  0
ELLIPSE
  5
494
100
AcDbEntity
  8
DRAFT
100
AcDbEllipse
 62
7
  6
CONTINUOUS
 10
11.5158187224
 20
27.6976559285
 30
0.0
 11
2.7583515655
 21
-1.4175703156
 31
0.0
 40
0.0109499087
 41
-0.7017315251
 42
-0.6439845515
  0
ELLIPSE
  5
495
100
AcDbEntity
  8
DRAFT
100
AcDbEllipse
 62
7
  6
CONTINUOUS
 10
11.5158187224
 20
26.1859579192
 30
0.0
 11
2.7583300471
 21
-0.038763314
 31
0.0
 40
0.4892375088
 41
0.1708839954
 42
2.3630697256
  0
ELLIPSE
  5
496
100
AcDbEntity
  8
RACCORDO
100
AcDbEllipse
 62
7
  6
CONTINUOUS
 10
12.2548267064
 20
28.8941988579
 30
0.0
 11
-0.2796057293
 21
0.9974617846
 31
0.0
 40
0.6760995073
 41
4.8467711056
 42
6.4001141399
  0
ELLIPSE
  5
497
100
AcDbEntity
  8
0
100
AcDbEllipse
 62
7
  6
CONTINUOUS
 10
10.8203284613
 20
27.046205034
 30
0.0
 11
3.3311333813
 21
-0.0467042088
 31
0.0
 40
0.4892378494
 41
2.3616770883
 42
3.6719184414
  0
ELLIPSE
  5
498
100
AcDbEntity
  8
0
100
AcDbEllipse
 62
7
  6
CONTINUOUS
 10
-3.4086359978
 20
30.180192164
 30
0.0
 11
0.2257019663
 21
0.4461636818
 31
0.0
 40
0.6159267166
 41
0.5882567743
 42
0.6817883054
  0
ELLIPSE
  5
499
100
AcDbEntity
  8
RACCORDO
100
AcDbEllipse
 62
7
  6
CONTINUOUS
 10
7.7215549538
 20
25.3090087408
 30
0.0
 11
0.499996712
 21
0.0035883639
 31
0.0
 40
0.5053247124
 41
-0.7715714568
 42
-0.0038735433
  0
ELLIPSE
  5
49A
100
AcDbEntity
  8
0
100
AcDbEllipse
 62
7
  6
CONTINUOUS
 10
-4.0473905046
 20
26.1831054947
 30
0.0
 11
-0.0909679979
 21
0.1781462259
 31
0.0
 40
0.6079022756
 41
-0.6898048156
 42
-0.0128958448
  0
ELLIPSE
  5
49B
100
AcDbEntity
  8
0
100
AcDbEllipse
 62
7
  6
CONTINUOUS
 10
4.3010832926
 20
26.9639112174
 30
0.0
 11
0.4547905863
 21
0.8906238433
 31
0.0
 40
0.6079814556
 41
0.0051546174
 42
0.6840559135
  0
ELLIPSE
  5
49C
100
AcDbEntity
  8
ASSI
100
AcDbEllipse
 62
7
  6
CONTINUOUS
 10
-3.6096171188
 20
30.9192614232
 30
0.0
 11
1.004787277
 21
0.6140102217
 31
0.0
 40
0.0864918533
 41
0.0544314379
 42
0.7329085821
  0
ELLIPSE
  5
49D
100
AcDbEntity
  8
ASSI
100
AcDbEllipse
 62
7
  6
CONTINUOUS
 10
7.9736355403
 20
-11.8273783311
 30
0.0
 11
0.9927147821
 21
0.620457446
 31
0.0
 40
0.0764819879
 41
-2.4043514965
 42
-1.3666868807
  0
ELLIPSE
  5
49E
100
AcDbEntity
  8
ASSI
100
AcDbEllipse
 62
7
  6
CONTINUOUS
 10
26.3838666596
 20
-1.3538879524
 30
0.0
 11
24.0955625974
 21
12.2610436036
 31
0.0
 40
0.0085648092
 41
-2.9166229256
 42
-2.803161766
  0
ELLIPSE
  5
49F
100
AcDbEntity
  8
ASSI
100
AcDbEllipse
 62
7
  6
CONTINUOUS
 10
26.3838666596
 20
29.3034113416
 30
0.0
 11
24.0955625974
 21
12.2610436036
 31
0.0
 40
0.0085648092
 41
2.794445403
 42
2.9079065627
  0
ELLIPSE
  5
4A0
100
AcDbEntity
  8
ASSI
100
AcDbEllipse
 62
7
  6
CONTINUOUS
 10
26.3838666596
 20
28.6105910185
 30
0.0
 11
24.0955625974
 21
12.2610436036
 31
0.0
 40
0.0085648092
 41
-2.9166229256
 42
-2.803161766
  0
ELLIPSE
  5
4A1
100
AcDbEntity
  8
ASSI
100
AcDbEllipse
 62
7
  6
CONTINUOUS
 10
26.3838666596
 20
-0.6610676294
 30
0.0
 11
24.0955625974
 21
12.2610436036
 31
0.0
 40
0.0085648092
 41
2.794445403
 42
2.9079065627
  0
ELLIPSE
  5
4A2
100
AcDbEntity
  8
0
100
AcDbEllipse
 62
7
  6
CONTINUOUS
 10
2.6354443284
 20
-16.7127544511
 30
0.0
 11
-0.2236315662
 21
0.4472293059
 31
0.0
 40
0.6123445654
 41
-3.1338150222
 42
-2.2555748796
  0
ELLIPSE
  5
4A3
100
AcDbEntity
  8
0
100
AcDbEllipse
 62
7
  6
CONTINUOUS
 10
2.6354443284
 20
21.2090668017
 30
0.0
 11
-0.223611546
 21
0.4472115081
 31
0.0
 40
0.6124054886
 41
-2.2555017776
 42
-0.6847562194
  0
ELLIPSE
  5
4A4
100
AcDbEntity
  8
0
100
AcDbEllipse
 62
7
  6
CONTINUOUS
 10
-5.7565736416
 20
27.0376970631
 30
0.0
 11
-0.090948378
 21
0.1781282571
 31
0.0
 40
0.6080538059
 41
-2.2606249166
 42
-0.6898793584
  0
ELLIPSE
  5
4A5
100
AcDbEntity
  8
0
100
AcDbEllipse
 62
7
  6
CONTINUOUS
 10
2.2033377982
 20
27.3742052659
 30
0.0
 11
0.2273952932
 21
0.4453119217
 31
0.0
 40
0.6079814556
 41
0.2357074224
 42
0.6840559135
  0
ELLIPSE
  5
4A6
100
AcDbEntity
  8
ASSI
100
AcDbEllipse
 62
7
  6
CONTINUOUS
 10
7.7215549538
 20
-12.0841876614
 30
0.0
 11
0.499443764
 21
0.3120915671
 31
0.0
 40
0.0755486457
 41
-0.0466009711
 42
0.720771186
  0
ELLIPSE
  5
4A7
100
AcDbEntity
  8
0
100
AcDbEllipse
 62
7
  6
CONTINUOUS
 10
-4.9579126459
 20
24.5109489513
 30
0.0
 11
0.199943508
 21
0.008945986
 31
0.0
 40
0.5313301283
 41
3.1178423524
 42
3.9032222197
  0
ELLIPSE
  5
4A8
100
AcDbEntity
  8
0
100
AcDbEllipse
 62
7
  6
CONTINUOUS
 10
-6.6586821874
 20
25.361333722
 30
0.0
 11
0.199943508
 21
0.008945986
 31
0.0
 40
0.5313301283
 41
-2.3799630874
 42
-0.8178934069
  0
ELLIPSE
  5
4A9
100
AcDbEntity
  8
0
100
AcDbEllipse
 62
7
  6
CONTINUOUS
 10
-1.1716027246
 20
21.9029254037
 30
0.0
 11
0.249929385
 21
0.0111824824
 31
0.0
 40
0.5313301283
 41
3.1178197826
 42
3.9032222197
  0
ELLIPSE
  5
4AA
100
AcDbEntity
  8
0
100
AcDbEllipse
 62
7
  6
CONTINUOUS
 10
-2.789066845
 20
29.8704075876
 30
0.0
 11
0.2197467797
 21
0.4491356978
 31
0.0
 40
0.6167074461
 41
0.2252343201
 42
0.6735828111
  0
ELLIPSE
  5
4AB
100
AcDbEntity
  8
0
100
AcDbEllipse
 62
7
  6
CONTINUOUS
 10
-3.0548840117
 20
72.0016816535
 30
0.0
 11
-0.3192264997
 21
45.1189143812
 31
0.0
 40
0.0071249215
 41
3.4474731796
 42
3.5354687861
  0
ELLIPSE
  5
4AC
100
AcDbEntity
  8
0
100
AcDbEllipse
 62
7
  6
CONTINUOUS
 10
-13.4752607172
 20
28.0547544
 30
0.0
 11
0.249929385
 21
0.0111824824
 31
0.0
 40
0.5313301283
 41
3.1178197826
 42
3.9032222197
  0
ELLIPSE
  5
4AD
100
AcDbEntity
  8
0
100
AcDbEllipse
 62
7
  6
CONTINUOUS
 10
-11.788494993
 20
27.2113715379
 30
0.0
 11
0.249929385
 21
0.0111824824
 31
0.0
 40
0.5313301283
 41
-2.3799630874
 42
-0.8149845248
  0
ELLIPSE
  5
4AE
100
AcDbEntity
  8
RACCORDO
100
AcDbEllipse
 62
7
  6
CONTINUOUS
 10
-0.7222997883
 20
-2.7060636669
 30
0.0
 11
-0.1571758788
 21
0.2571581498
 31
0.0
 40
0.5601087126
 41
-2.9466728429
 42
-2.3018722735
  0
ELLIPSE
  5
4AF
100
AcDbEntity
  8
0
100
AcDbEllipse
 62
7
  6
CONTINUOUS
 10
2.5355626013
 20
26.2884394774
 30
0.0
 11
0.4530414621
 21
-0.0021419047
 31
0.0
 40
0.4964289597
 41
-0.77723337
 42
0.0023234052
  0
ELLIPSE
  5
4B0
100
AcDbEntity
  8
0
100
AcDbEllipse
 62
7
  6
CONTINUOUS
 10
-2.3435108286
 20
28.4141452274
 30
0.0
 11
1.0205811965
 21
-0.0048251373
 31
0.0
 40
0.4964289597
 41
1.3061600176
 42
2.3584907469
  0
ELLIPSE
  5
4B1
100
AcDbEntity
  8
0
100
AcDbEllipse
 62
7
  6
CONTINUOUS
 10
-3.0548840117
 20
29.0836627839
 30
0.0
 11
0.4530414621
 21
-0.0021419047
 31
0.0
 40
0.4964289597
 41
-0.4806702637
 42
0.0023660984
  0
ELLIPSE
  5
4B2
100
AcDbEntity
  8
0
100
AcDbEllipse
 62
7
  6
CONTINUOUS
 10
-14.1689450255
 20
27.7798662966
 30
0.0
 11
-0.2234618187
 21
0.4480306886
 31
0.0
 40
0.6116748051
 41
-0.6831523234
 42
0.886730614
  0
ELLIPSE
  5
4B3
100
AcDbEntity
  8
0
100
AcDbEllipse
 62
7
  6
CONTINUOUS
 10
-8.2819369853
 20
27.397498179
 30
0.0
 11
0.0907039967
 21
0.1782526758
 31
0.0
 40
0.6176975122
 41
0.6948951487
 42
2.2598737113
  0
ELLIPSE
  5
4B4
100
AcDbEntity
  8
0
100
AcDbEllipse
 62
7
  6
CONTINUOUS
 10
0.5151629997
 20
21.0595425415
 30
0.0
 11
0.249929385
 21
0.0111824824
 31
0.0
 40
0.5313301283
 41
-2.3799630874
 42
-0.8149845248
  0
ELLIPSE
  5
4B5
100
AcDbEntity
  8
0
100
AcDbEllipse
 62
7
  6
CONTINUOUS
 10
51.9258608805
 20
51.6379283538
 30
0.0
 11
60.4168605605
 21
30.5632322457
 31
0.0
 40
0.005706723
 41
2.5167363259
 42
2.6876789752
  0
ELLIPSE
  5
4B6
100
AcDbEntity
  8
0
100
AcDbEllipse
 62
7
  6
CONTINUOUS
 10
2.822906951
 20
27.0644206895
 30
0.0
 11
0.221538876
 21
0.4482453432
 31
0.0
 40
0.6088015717
 41
0.5825560023
 42
0.6760875334
  0
ELLIPSE
  5
4B7
100
AcDbEntity
  8
0
100
AcDbEllipse
 62
7
  6
CONTINUOUS
 10
51.9258608805
 20
51.6379283538
 30
0.0
 11
60.4168605605
 21
30.5632322457
 31
0.0
 40
0.005706723
 41
-2.6934527084
 42
-2.5225100591
  0
ELLIPSE
  5
4B8
100
AcDbEntity
  8
ASSI
100
AcDbEllipse
 62
7
  6
CONTINUOUS
 10
7.7215549538
 20
26.3436317916
 30
0.0
 11
-0.3739417019
 21
0.598522373
 31
0.0
 40
0.554557473
 41
-3.1836090632
 42
-2.4162040327
  0
ELLIPSE
  5
4B9
100
AcDbEntity
  8
0
100
AcDbEllipse
 62
7
  6
CONTINUOUS
 10
0.8552939173
 20
-17.5268179694
 30
0.0
 11
-0.2234618187
 21
0.4480306886
 31
0.0
 40
0.6116748051
 41
2.4584403302
 42
4.0283232676
  0
ELLIPSE
  5
4BA
100
AcDbEntity
  8
0
100
AcDbEllipse
 62
7
  6
CONTINUOUS
 10
0.8552939173
 20
20.2677468252
 30
0.0
 11
-0.2230998035
 21
0.4477110033
 31
0.0
 40
0.6127700112
 41
-2.2535417632
 42
-0.6836588258
  0
ELLIPSE
  5
4BB
100
AcDbEntity
  8
0
100
AcDbEllipse
 62
7
  6
CONTINUOUS
 10
0.0629351289
 20
29.0829852993
 30
0.0
 11
0.4394935595
 21
0.8982713957
 31
0.0
 40
0.6167074461
 41
5.3917895557
 42
6.9567681183
  0
ELLIPSE
  5
4BC
100
AcDbEntity
  8
RACCORDO
100
AcDbEllipse
 62
7
  6
CONTINUOUS
 10
-1.0354020422
 20
-12.4065271127
 30
0.0
 11
-0.313181275
 21
0.626269159
 31
0.0
 40
0.6121897086
 41
-3.1606751969
 42
-2.2557347926
  0
ELLIPSE
  5
4BD
100
AcDbEntity
  8
ASSI
100
AcDbEllipse
 62
7
  6
CONTINUOUS
 10
7.9736355403
 20
25.1276350936
 30
0.0
 11
-0.7356038977
 21
1.2035991204
 31
0.0
 40
0.5552491559
 41
5.1980061968
 42
6.2356708126
  0
ENDSEC
  0
SECTION
  2
OBJECTS
  0
DICTIONARY
  5
C
100
AcDbDictionary
280
0
281
1
  3
ACAD_GROUP
350
D
  3
ACAD_MLINESTYLE
350
17
  3
ACAD_LAYOUT
350
1A
  3
ACAD_PLOTSETTINGS
350
19
  3
ACAD_PLOTSTYLENAME
350
E
  0
DICTIONARY
  5
D
102
{ACAD_REACTORS
330
C
102
}
100
AcDbDictionary
280
0
281
1
  0
ACDBDICTIONARYWDFLT
  5
E
102
{ACAD_REACTORS
330
C
102
}
100
AcDbDictionary
281
1
  3
Normal
350
F
100
AcDbDictionaryWithDefault
340
F
  0
DICTIONARY
  5
17
102
{ACAD_REACTORS
330
C
102
}
100
AcDbDictionary
280
0
281
1
  3
Standard
350
18
  0
DICTIONARY
  5
19
102
{ACAD_REACTORS
330
C
102
}
100
AcDbDictionary
281
1
  0
DICTIONARY
  5
1A
102
{ACAD_REACTORS
330
C
102
}
100
AcDbDictionary
281
1
  3
Model
350
4BE
  3
Layout1
350
4BF
  0
ACDBPLACEHOLDER
  5
F
102
{ACAD_REACTORS
330
E
102
}
  0
MLINESTYLE
  5
18
102
{ACAD_REACTORS
330
17
102
}
100
AcDbMlineStyle
  2
STANDARD
 70
0
  3

 62
256
 51
90.0
 52
90.0
 71
2
 49
0.5
 62
256
  6
BYLAYER
 49
-0.5
 62
256
  6
BYLAYER
  0
LAYOUT
  5
4BE
102
{ACAD_REACTORS
330
1A
102
}
100
AcDbPlotSettings
  1

  2
none_device
  4
ISO_A4_(297.00_x_210.00_MM)
  6

 40
0.0
 41
0.0
 42
0.0
 43
0.0
 44
297.0
 45
210.0
 46
0.0
 47
0.0
 48
0.0
 49
0.0
140
0.0
141
0.0
142
1.0
143
1.0
 70
1024
 72
1
 73
0
 74
0
  7

 75
0
147
1.0
148
0.0
149
0.0
100
AcDbLayout
  1
Model
 70
0
 71
0
 10
0.0
 20
0.0
 11
297.0
 21
210.0
 12
0.0
 22
0.0
 32
0.0
 14
0.0
 24
0.0
 34
0.0
 15
0.0
 25
0.0
 35
0.0
146
0.0
 13
0.0
 23
0.0
 33
0.0
 16
1.0
 26
0.0
 36
0.0
 17
0.0
 27
1.0
 37
0.0
 76
0
330
227
345
0
346
0
  0
LAYOUT
  5
4BF
102
{ACAD_REACTORS
330
1A
102
}
100
AcDbPlotSettings
  1

  2
none_device
  4
ISO_A4_(297.00_x_210.00_MM)
  6

 40
0.0
 41
0.0
 42
0.0
 43
0.0
 44
297.0
 45
210.0
 46
0.0
 47
0.0
 48
0.0
 49
0.0
140
0.0
141
0.0
142
1.0
143
1.0
 70
0
 72
1
 73
0
 74
0
  7

 75
0
147
1.0
148
0.0
149
0.0
100
AcDbLayout
  1
Layout1
 70
0
 71
1
 10
0.0
 20
0.0
 11
297.0
 21
210.0
 12
0.0
 22
0.0
 32
0.0
 14
0.0
 24
0.0
 34
0.0
 15
0.0
 25
0.0
 35
0.0
146
0.0
 13
0.0
 23
0.0
 33
0.0
 16
1.0
 26
0.0
 36
0.0
 17
0.0
 27
1.0
 37
0.0
 76
0
330
228
345
0
346
0
  0
ENDSEC
  0
EOF
