  0
SECTION
  2
HEADER
  9
$ACADVER
  1
AC1015
  9
$DWGCODEPAGE
  3
ANSI_1252
  9
$EXTMAX
 10
297.0
 20
210.0
 30
0.0
  9
$EXTMIN
 10
0.0
 20
0.0
 30
0.0
  9
$LIMMIN
 10
0.0
 20
0.0
  9
$LIMMAX
 10
297.0
 20
210.0
  9
$VIEWCTR
 10
148.5
 20
105.0
  9
$VIEWSIZE
 40
210.0
  9
$CLAYER
  8
0
  9
$LTSCALE
 40
16.335
  9
$CELTYPE
  6
BYLAYER
  9
$DIMSCALE
 40
1.0
  9
$DIMASZ
 40
3.0
  9
$DIMEXO
 40
1.85625
  9
$DIMDLI
 40
11.286
  9
$DIMEXE
 40
5.346
  9
$DIMCEN
 40
2.673
  9
$DIMLFAC
 40
1.0
  9
$DIMBLK
  1
_FILLED
  9
$DIMTXT
 40
3.0
  9
$DIMTOL
 70
1
  9
$DIMLIM
 70
0
  9
$DIMTFAC
 40
1.0
  9
$DIMTP
 40
0.01
  9
$DIMTM
 40
0.01
  9
$PDMODE
 70
3
  9
$PDSIZE
 40
3.0
  9
$HANDSEED
  5
7AA
  9
$TILEMODE
 70
1
  9
$MEASUREMENT
 70
1
  9
$INSUNITS
 70
4
  0
ENDSEC
  0
SECTION
  2
CLASSES
  0
CLASS
  1
ACDBDICTIONARYWDFLT
  2
AcDbDictionaryWithDefault
  3
AutoCAD 2000
 90
0
280
0
281
0
  0
CLASS
  1
ACDBPLACEHOLDER
  2
AcDbPlaceHolder
  3
AutoCAD 2000
 90
0
280
0
281
0
  0
CLASS
  1
LAYOUT
  2
AcDbLayout
  3
AutoCAD 2000
 90
0
280
0
281
0
  0
ENDSEC
  0
SECTION
  2
TABLES
  0
TABLE
  2
VPORT
  5
8
100
AcDbSymbolTable
 70
2
  0
VPORT
  5
1F4
100
AcDbSymbolTableRecord
100
AcDbViewportTableRecord
  2
*ACTIVE
 70
0
 10
0.0
 20
0.0
 11
1.0
 21
1.0
 12
148.5
 22
105.0
 13
0.0
 23
0.0
 14
1.0
 24
1.0
 15
0.0
 25
0.0
 16
0.0
 26
0.0
 36
1.0
 17
0.0
 27
0.0
 37
0.0
 40
210.0
 41
1.4142857143
 42
50.0
 43
0.0
 44
0.0
 50
0.0
 51
0.0
 71
0
 72
100
 73
1
 74
1
 75
0
 76
0
 77
0
 78
0
  0
ENDTAB
  0
TABLE
  2
LTYPE
  5
5
100
AcDbSymbolTable
 70
6
  0
LTYPE
  5
14
100
AcDbSymbolTableRecord
100
AcDbLinetypeTableRecord
  2
BYBLOCK
 70
0
  3

 72
65
 73
0
 40
0.0
  0
LTYPE
  5
15
100
AcDbSymbolTableRecord
100
AcDbLinetypeTableRecord
  2
BYLAYER
 70
0
  3

 72
65
 73
0
 40
0.0
  0
LTYPE
  5
16
100
AcDbSymbolTableRecord
100
AcDbLinetypeTableRecord
  2
CONTINUOUS
 70
64
  3
Solid line
 72
65
 73
0
 40
0.0
  0
LTYPE
  5
1F5
100
AcDbSymbolTableRecord
100
AcDbLinetypeTableRecord
  2
CENTER
 70
64
  3
____ _ ____ _ ____ _ ____ _ ____ _ ____ _ ____
 72
65
 73
4
 40
0.6
 49
0.375
 74
0
 49
-0.075
 74
0
 49
0.075
 74
0
 49
-0.075
 74
0
  0
LTYPE
  5
1F6
100
AcDbSymbolTableRecord
100
AcDbLinetypeTableRecord
  2
HIDDEN
 70
64
  3
- - - - - - - - - - - - - - - - - - - -
 72
65
 73
2
 40
0.2
 49
0.1
 74
0
 49
-0.1
 74
0
  0
LTYPE
  5
1F7
100
AcDbSymbolTableRecord
100
AcDbLinetypeTableRecord
  2
PHANTOM
 70
64
  3
_____ _ _ _____ _ _ _____ _ _ _____
 72
65
 73
6
 40
0.8
 49
0.45
 74
0
 49
-0.05
 74
0
 49
0.1
 74
0
 49
-0.05
 74
0
 49
0.1
 74
0
 49
-0.05
 74
0
  0
LTYPE
  5
1F8
100
AcDbSymbolTableRecord
100
AcDbLinetypeTableRecord
  2
DOT
 70
64
  3
. . . . . . . . . . . . . . . . . . . .
 72
65
 73
2
 40
0.2
 49
0.1
 74
0
 49
-0.1
 74
0
  0
LTYPE
  5
1F9
100
AcDbSymbolTableRecord
100
AcDbLinetypeTableRecord
  2
DASHED
 70
64
  3
- - - - - - - - - - - - - - - - - - - -
 72
65
 73
2
 40
0.2
 49
0.1
 74
0
 49
-0.1
 74
0
  0
ENDTAB
  0
TABLE
  2
LAYER
  5
2
100
AcDbSymbolTable
 70
36
  0
LAYER
  5
10
100
AcDbSymbolTableRecord
100
AcDbLayerTableRecord
  2
0
 70
0
 62
7
  6
CONTINUOUS
370
-3
390
F
  0
LAYER
  5
1FA
100
AcDbSymbolTableRecord
100
AcDbLayerTableRecord
  2
DEFAULT_1
 70
0
 62
7
  6
CENTER
370
-3
390
F
  0
LAYER
  5
1FB
100
AcDbSymbolTableRecord
100
AcDbLayerTableRecord
  2
DEFAULT_2
 70
0
 62
7
  6
HIDDEN
370
-3
390
F
  0
LAYER
  5
1FC
100
AcDbSymbolTableRecord
100
AcDbLayerTableRecord
  2
DEFAULT_3
 70
0
 62
7
  6
PHANTOM
370
-3
390
F
  0
LAYER
  5
1FD
100
AcDbSymbolTableRecord
100
AcDbLayerTableRecord
  2
200A_170000
 70
0
 62
7
  6
CONTINUOUS
370
-3
390
F
  0
LAYER
  5
1FE
100
AcDbSymbolTableRecord
100
AcDbLayerTableRecord
  2
200A_170000_1
 70
0
 62
7
  6
CONTINUOUS
370
-3
390
F
  0
LAYER
  5
1FF
100
AcDbSymbolTableRecord
100
AcDbLayerTableRecord
  2
200A_170000_2
 70
0
 62
7
  6
CONTINUOUS
370
-3
390
F
  0
LAYER
  5
200
100
AcDbSymbolTableRecord
100
AcDbLayerTableRecord
  2
200A_170000_3
 70
0
 62
7
  6
CONTINUOUS
370
-3
390
F
  0
LAYER
  5
201
100
AcDbSymbolTableRecord
100
AcDbLayerTableRecord
  2
2125-CC-RF-VIMAR_65000
 70
0
 62
7
  6
CONTINUOUS
370
-3
390
F
  0
LAYER
  5
202
100
AcDbSymbolTableRecord
100
AcDbLayerTableRecord
  2
2125-CC-RF-VIMAR_65000_1
 70
0
 62
7
  6
CONTINUOUS
370
-3
390
F
  0
LAYER
  5
203
100
AcDbSymbolTableRecord
100
AcDbLayerTableRecord
  2
2125-CC-RF-VIMAR_65000_2
 70
0
 62
7
  6
CONTINUOUS
370
-3
390
F
  0
LAYER
  5
204
100
AcDbSymbolTableRecord
100
AcDbLayerTableRecord
  2
2125-CC-RF-VIMAR_65000_3
 70
0
 62
7
  6
CONTINUOUS
370
-3
390
F
  0
LAYER
  5
205
100
AcDbSymbolTableRecord
100
AcDbLayerTableRecord
  2
2125-CC-RF-VIMAR_65000_4
 70
0
 62
7
  6
CONTINUOUS
370
-3
390
F
  0
LAYER
  5
206
100
AcDbSymbolTableRecord
100
AcDbLayerTableRecord
  2
2125-CC-RF-VIMAR_65000_5
 70
0
 62
7
  6
CONTINUOUS
370
-3
390
F
  0
LAYER
  5
207
100
AcDbSymbolTableRecord
100
AcDbLayerTableRecord
  2
2125-CC-RF-VIMAR_65000_6
 70
0
 62
7
  6
CONTINUOUS
370
-3
390
F
  0
LAYER
  5
208
100
AcDbSymbolTableRecord
100
AcDbLayerTableRecord
  2
2125-R1-RF-VIMAR_60000
 70
0
 62
7
  6
CONTINUOUS
370
-3
390
F
  0
LAYER
  5
209
100
AcDbSymbolTableRecord
100
AcDbLayerTableRecord
  2
2125-R1-RF-VIMAR_60000_1
 70
0
 62
7
  6
CONTINUOUS
370
-3
390
F
  0
LAYER
  5
20A
100
AcDbSymbolTableRecord
100
AcDbLayerTableRecord
  2
2125-R1-RF-VIMAR_60000_2
 70
0
 62
7
  6
CONTINUOUS
370
-3
390
F
  0
LAYER
  5
20B
100
AcDbSymbolTableRecord
100
AcDbLayerTableRecord
  2
2125-R1-RF-VIMAR_60000_3
 70
0
 62
7
  6
CONTINUOUS
370
-3
390
F
  0
LAYER
  5
20C
100
AcDbSymbolTableRecord
100
AcDbLayerTableRecord
  2
2125-R1-RF-VIMAR_60000_4
 70
0
 62
7
  6
CONTINUOUS
370
-3
390
F
  0
LAYER
  5
20D
100
AcDbSymbolTableRecord
100
AcDbLayerTableRecord
  2
3225-CF1-RF-VIMAR_260000
 70
0
 62
7
  6
CONTINUOUS
370
-3
390
F
  0
LAYER
  5
20E
100
AcDbSymbolTableRecord
100
AcDbLayerTableRecord
  2
3225-CF1-RF-VIMAR_260000_1
 70
0
 62
7
  6
CONTINUOUS
370
-3
390
F
  0
LAYER
  5
20F
100
AcDbSymbolTableRecord
100
AcDbLayerTableRecord
  2
3225-CF1-RF-VIMAR_260000_2
 70
0
 62
7
  6
CONTINUOUS
370
-3
390
F
  0
LAYER
  5
210
100
AcDbSymbolTableRecord
100
AcDbLayerTableRecord
  2
43000237B0
 70
0
 62
7
  6
CONTINUOUS
370
-3
390
F
  0
LAYER
  5
211
100
AcDbSymbolTableRecord
100
AcDbLayerTableRecord
  2
ALIMENTAZIONE
 70
0
 62
7
  6
CONTINUOUS
370
-3
390
F
  0
LAYER
  5
212
100
AcDbSymbolTableRecord
100
AcDbLayerTableRecord
  2
ASM0001
 70
0
 62
7
  6
CONTINUOUS
370
-3
390
F
  0
LAYER
  5
213
100
AcDbSymbolTableRecord
100
AcDbLayerTableRecord
  2
ASSI
 70
0
 62
7
  6
CONTINUOUS
370
-3
390
F
  0
LAYER
  5
214
100
AcDbSymbolTableRecord
100
AcDbLayerTableRecord
  2
BZ-BST-0841A_330000
 70
0
 62
7
  6
CONTINUOUS
370
-3
390
F
  0
LAYER
  5
215
100
AcDbSymbolTableRecord
100
AcDbLayerTableRecord
  2
CAPC1005X60N_60000
 70
0
 62
7
  6
CONTINUOUS
370
-3
390
F
  0
LAYER
  5
216
100
AcDbSymbolTableRecord
100
AcDbLayerTableRecord
  2
CAPC1005X60N_60000_1
 70
0
 62
7
  6
CONTINUOUS
370
-3
390
F
  0
LAYER
  5
217
100
AcDbSymbolTableRecord
100
AcDbLayerTableRecord
  2
CAPC1005X60N_60000_10
 70
0
 62
7
  6
CONTINUOUS
370
-3
390
F
  0
LAYER
  5
218
100
AcDbSymbolTableRecord
100
AcDbLayerTableRecord
  2
CAPC1005X60N_60000_11
 70
0
 62
7
  6
CONTINUOUS
370
-3
390
F
  0
LAYER
  5
219
100
AcDbSymbolTableRecord
100
AcDbLayerTableRecord
  2
CAPC1005X60N_60000_12
 70
0
 62
7
  6
CONTINUOUS
370
-3
390
F
  0
LAYER
  5
21A
100
AcDbSymbolTableRecord
100
AcDbLayerTableRecord
  2
CAPC1005X60N_60000_13
 70
0
 62
7
  6
CONTINUOUS
370
-3
390
F
  0
LAYER
  5
21B
100
AcDbSymbolTableRecord
100
AcDbLayerTableRecord
  2
CAPC1005X60N_60000_14
 70
0
 62
7
  6
CONTINUOUS
370
-3
390
F
  0
LAYER
  5
21C
100
AcDbSymbolTableRecord
100
AcDbLayerTableRecord
  2
CAPC1005X60N_60000_15
 70
0
 62
7
  6
CONTINUOUS
370
-3
390
F
  0
LAYER
  5
21D
100
AcDbSymbolTableRecord
100
AcDbLayerTableRecord
  2
CAPC1005X60N_60000_16
 70
0
 62
7
  6
CONTINUOUS
370
-3
390
F
  0
LAYER
  5
21E
100
AcDbSymbolTableRecord
100
AcDbLayerTableRecord
  2
CAPC1005X60N_60000_17
 70
0
 62
7
  6
CONTINUOUS
370
-3
390
F
  0
LAYER
  5
21F
100
AcDbSymbolTableRecord
100
AcDbLayerTableRecord
  2
CAPC1005X60N_60000_18
 70
0
 62
7
  6
CONTINUOUS
370
-3
390
F
  0
LAYER
  5
220
100
AcDbSymbolTableRecord
100
AcDbLayerTableRecord
  2
CAPC1005X60N_60000_19
 70
0
 62
7
  6
CONTINUOUS
370
-3
390
F
  0
LAYER
  5
221
100
AcDbSymbolTableRecord
100
AcDbLayerTableRecord
  2
CAPC1005X60N_60000_2
 70
0
 62
7
  6
CONTINUOUS
370
-3
390
F
  0
LAYER
  5
222
100
AcDbSymbolTableRecord
100
AcDbLayerTableRecord
  2
CAPC1005X60N_60000_20
 70
0
 62
7
  6
CONTINUOUS
370
-3
390
F
  0
LAYER
  5
223
100
AcDbSymbolTableRecord
100
AcDbLayerTableRecord
  2
CAPC1005X60N_60000_21
 70
0
 62
7
  6
CONTINUOUS
370
-3
390
F
  0
LAYER
  5
224
100
AcDbSymbolTableRecord
100
AcDbLayerTableRecord
  2
CAPC1005X60N_60000_22
 70
0
 62
7
  6
CONTINUOUS
370
-3
390
F
  0
LAYER
  5
225
100
AcDbSymbolTableRecord
100
AcDbLayerTableRecord
  2
CAPC1005X60N_60000_23
 70
0
 62
7
  6
CONTINUOUS
370
-3
390
F
  0
LAYER
  5
226
100
AcDbSymbolTableRecord
100
AcDbLayerTableRecord
  2
CAPC1005X60N_60000_24
 70
0
 62
7
  6
CONTINUOUS
370
-3
390
F
  0
LAYER
  5
227
100
AcDbSymbolTableRecord
100
AcDbLayerTableRecord
  2
CAPC1005X60N_60000_25
 70
0
 62
7
  6
CONTINUOUS
370
-3
390
F
  0
LAYER
  5
228
100
AcDbSymbolTableRecord
100
AcDbLayerTableRecord
  2
CAPC1005X60N_60000_26
 70
0
 62
7
  6
CONTINUOUS
370
-3
390
F
  0
LAYER
  5
229
100
AcDbSymbolTableRecord
100
AcDbLayerTableRecord
  2
CAPC1005X60N_60000_27
 70
0
 62
7
  6
CONTINUOUS
370
-3
390
F
  0
LAYER
  5
22A
100
AcDbSymbolTableRecord
100
AcDbLayerTableRecord
  2
CAPC1005X60N_60000_28
 70
0
 62
7
  6
CONTINUOUS
370
-3
390
F
  0
LAYER
  5
22B
100
AcDbSymbolTableRecord
100
AcDbLayerTableRecord
  2
CAPC1005X60N_60000_29
 70
0
 62
7
  6
CONTINUOUS
370
-3
390
F
  0
LAYER
  5
22C
100
AcDbSymbolTableRecord
100
AcDbLayerTableRecord
  2
CAPC1005X60N_60000_3
 70
0
 62
7
  6
CONTINUOUS
370
-3
390
F
  0
LAYER
  5
22D
100
AcDbSymbolTableRecord
100
AcDbLayerTableRecord
  2
CAPC1005X60N_60000_30
 70
0
 62
7
  6
CONTINUOUS
370
-3
390
F
  0
LAYER
  5
22E
100
AcDbSymbolTableRecord
100
AcDbLayerTableRecord
  2
CAPC1005X60N_60000_31
 70
0
 62
7
  6
CONTINUOUS
370
-3
390
F
  0
LAYER
  5
22F
100
AcDbSymbolTableRecord
100
AcDbLayerTableRecord
  2
CAPC1005X60N_60000_32
 70
0
 62
7
  6
CONTINUOUS
370
-3
390
F
  0
LAYER
  5
230
100
AcDbSymbolTableRecord
100
AcDbLayerTableRecord
  2
CAPC1005X60N_60000_33
 70
0
 62
7
  6
CONTINUOUS
370
-3
390
F
  0
LAYER
  5
231
100
AcDbSymbolTableRecord
100
AcDbLayerTableRecord
  2
CAPC1005X60N_60000_34
 70
0
 62
7
  6
CONTINUOUS
370
-3
390
F
  0
LAYER
  5
232
100
AcDbSymbolTableRecord
100
AcDbLayerTableRecord
  2
CAPC1005X60N_60000_35
 70
0
 62
7
  6
CONTINUOUS
370
-3
390
F
  0
LAYER
  5
233
100
AcDbSymbolTableRecord
100
AcDbLayerTableRecord
  2
CAPC1005X60N_60000_36
 70
0
 62
7
  6
CONTINUOUS
370
-3
390
F
  0
LAYER
  5
234
100
AcDbSymbolTableRecord
100
AcDbLayerTableRecord
  2
CAPC1005X60N_60000_37
 70
0
 62
7
  6
CONTINUOUS
370
-3
390
F
  0
LAYER
  5
235
100
AcDbSymbolTableRecord
100
AcDbLayerTableRecord
  2
CAPC1005X60N_60000_38
 70
0
 62
7
  6
CONTINUOUS
370
-3
390
F
  0
LAYER
  5
236
100
AcDbSymbolTableRecord
100
AcDbLayerTableRecord
  2
CAPC1005X60N_60000_39
 70
0
 62
7
  6
CONTINUOUS
370
-3
390
F
  0
LAYER
  5
237
100
AcDbSymbolTableRecord
100
AcDbLayerTableRecord
  2
CAPC1005X60N_60000_4
 70
0
 62
7
  6
CONTINUOUS
370
-3
390
F
  0
LAYER
  5
238
100
AcDbSymbolTableRecord
100
AcDbLayerTableRecord
  2
CAPC1005X60N_60000_40
 70
0
 62
7
  6
CONTINUOUS
370
-3
390
F
  0
LAYER
  5
239
100
AcDbSymbolTableRecord
100
AcDbLayerTableRecord
  2
CAPC1005X60N_60000_41
 70
0
 62
7
  6
CONTINUOUS
370
-3
390
F
  0
LAYER
  5
23A
100
AcDbSymbolTableRecord
100
AcDbLayerTableRecord
  2
CAPC1005X60N_60000_42
 70
0
 62
7
  6
CONTINUOUS
370
-3
390
F
  0
LAYER
  5
23B
100
AcDbSymbolTableRecord
100
AcDbLayerTableRecord
  2
CAPC1005X60N_60000_5
 70
0
 62
7
  6
CONTINUOUS
370
-3
390
F
  0
LAYER
  5
23C
100
AcDbSymbolTableRecord
100
AcDbLayerTableRecord
  2
CAPC1005X60N_60000_6
 70
0
 62
7
  6
CONTINUOUS
370
-3
390
F
  0
LAYER
  5
23D
100
AcDbSymbolTableRecord
100
AcDbLayerTableRecord
  2
CAPC1005X60N_60000_7
 70
0
 62
7
  6
CONTINUOUS
370
-3
390
F
  0
LAYER
  5
23E
100
AcDbSymbolTableRecord
100
AcDbLayerTableRecord
  2
CAPC1005X60N_60000_8
 70
0
 62
7
  6
CONTINUOUS
370
-3
390
F
  0
LAYER
  5
23F
100
AcDbSymbolTableRecord
100
AcDbLayerTableRecord
  2
CAPC1005X60N_60000_9
 70
0
 62
7
  6
CONTINUOUS
370
-3
390
F
  0
LAYER
  5
240
100
AcDbSymbolTableRecord
100
AcDbLayerTableRecord
  2
CAPC1608N_80000
 70
0
 62
7
  6
CONTINUOUS
370
-3
390
F
  0
LAYER
  5
241
100
AcDbSymbolTableRecord
100
AcDbLayerTableRecord
  2
CAPC1608N_80000_1
 70
0
 62
7
  6
CONTINUOUS
370
-3
390
F
  0
LAYER
  5
242
100
AcDbSymbolTableRecord
100
AcDbLayerTableRecord
  2
CAPC1608N_80000_2
 70
0
 62
7
  6
CONTINUOUS
370
-3
390
F
  0
LAYER
  5
243
100
AcDbSymbolTableRecord
100
AcDbLayerTableRecord
  2
CAPC1608N_80000_3
 70
0
 62
7
  6
CONTINUOUS
370
-3
390
F
  0
LAYER
  5
244
100
AcDbSymbolTableRecord
100
AcDbLayerTableRecord
  2
CAPC1608N_80000_4
 70
0
 62
7
  6
CONTINUOUS
370
-3
390
F
  0
LAYER
  5
245
100
AcDbSymbolTableRecord
100
AcDbLayerTableRecord
  2
CAPC1608N_80000_5
 70
0
 62
7
  6
CONTINUOUS
370
-3
390
F
  0
LAYER
  5
246
100
AcDbSymbolTableRecord
100
AcDbLayerTableRecord
  2
CAPC1608N_80000_6
 70
0
 62
7
  6
CONTINUOUS
370
-3
390
F
  0
LAYER
  5
247
100
AcDbSymbolTableRecord
100
AcDbLayerTableRecord
  2
CAPC1608N_80000_7
 70
0
 62
7
  6
CONTINUOUS
370
-3
390
F
  0
LAYER
  5
248
100
AcDbSymbolTableRecord
100
AcDbLayerTableRecord
  2
CAPC1608N_80000_8
 70
0
 62
7
  6
CONTINUOUS
370
-3
390
F
  0
LAYER
  5
249
100
AcDbSymbolTableRecord
100
AcDbLayerTableRecord
  2
CN04-ZIF_P1-VIMAR_270000
 70
0
 62
7
  6
CONTINUOUS
370
-3
390
F
  0
LAYER
  5
24A
100
AcDbSymbolTableRecord
100
AcDbLayerTableRecord
  2
CN1-TP10_SMD-VIMAR_01_10000
 70
0
 62
7
  6
CONTINUOUS
370
-3
390
F
  0
LAYER
  5
24B
100
AcDbSymbolTableRecord
100
AcDbLayerTableRecord
  2
CN1-TP10_SMD-VIMAR_01_10000_1
 70
0
 62
7
  6
CONTINUOUS
370
-3
390
F
  0
LAYER
  5
24C
100
AcDbSymbolTableRecord
100
AcDbLayerTableRecord
  2
CN1-TP10_SMD-VIMAR_01_10000_10
 70
0
 62
7
  6
CONTINUOUS
370
-3
390
F
  0
LAYER
  5
24D
100
AcDbSymbolTableRecord
100
AcDbLayerTableRecord
  2
CN1-TP10_SMD-VIMAR_01_10000_11
 70
0
 62
7
  6
CONTINUOUS
370
-3
390
F
  0
LAYER
  5
24E
100
AcDbSymbolTableRecord
100
AcDbLayerTableRecord
  2
CN1-TP10_SMD-VIMAR_01_10000_12
 70
0
 62
7
  6
CONTINUOUS
370
-3
390
F
  0
LAYER
  5
24F
100
AcDbSymbolTableRecord
100
AcDbLayerTableRecord
  2
CN1-TP10_SMD-VIMAR_01_10000_13
 70
0
 62
7
  6
CONTINUOUS
370
-3
390
F
  0
LAYER
  5
250
100
AcDbSymbolTableRecord
100
AcDbLayerTableRecord
  2
CN1-TP10_SMD-VIMAR_01_10000_14
 70
0
 62
7
  6
CONTINUOUS
370
-3
390
F
  0
LAYER
  5
251
100
AcDbSymbolTableRecord
100
AcDbLayerTableRecord
  2
CN1-TP10_SMD-VIMAR_01_10000_15
 70
0
 62
7
  6
CONTINUOUS
370
-3
390
F
  0
LAYER
  5
252
100
AcDbSymbolTableRecord
100
AcDbLayerTableRecord
  2
CN1-TP10_SMD-VIMAR_01_10000_16
 70
0
 62
7
  6
CONTINUOUS
370
-3
390
F
  0
LAYER
  5
253
100
AcDbSymbolTableRecord
100
AcDbLayerTableRecord
  2
CN1-TP10_SMD-VIMAR_01_10000_17
 70
0
 62
7
  6
CONTINUOUS
370
-3
390
F
  0
LAYER
  5
254
100
AcDbSymbolTableRecord
100
AcDbLayerTableRecord
  2
CN1-TP10_SMD-VIMAR_01_10000_18
 70
0
 62
7
  6
CONTINUOUS
370
-3
390
F
  0
LAYER
  5
255
100
AcDbSymbolTableRecord
100
AcDbLayerTableRecord
  2
CN1-TP10_SMD-VIMAR_01_10000_19
 70
0
 62
7
  6
CONTINUOUS
370
-3
390
F
  0
LAYER
  5
256
100
AcDbSymbolTableRecord
100
AcDbLayerTableRecord
  2
CN1-TP10_SMD-VIMAR_01_10000_2
 70
0
 62
7
  6
CONTINUOUS
370
-3
390
F
  0
LAYER
  5
257
100
AcDbSymbolTableRecord
100
AcDbLayerTableRecord
  2
CN1-TP10_SMD-VIMAR_01_10000_20
 70
0
 62
7
  6
CONTINUOUS
370
-3
390
F
  0
LAYER
  5
258
100
AcDbSymbolTableRecord
100
AcDbLayerTableRecord
  2
CN1-TP10_SMD-VIMAR_01_10000_21
 70
0
 62
7
  6
CONTINUOUS
370
-3
390
F
  0
LAYER
  5
259
100
AcDbSymbolTableRecord
100
AcDbLayerTableRecord
  2
CN1-TP10_SMD-VIMAR_01_10000_22
 70
0
 62
7
  6
CONTINUOUS
370
-3
390
F
  0
LAYER
  5
25A
100
AcDbSymbolTableRecord
100
AcDbLayerTableRecord
  2
CN1-TP10_SMD-VIMAR_01_10000_23
 70
0
 62
7
  6
CONTINUOUS
370
-3
390
F
  0
LAYER
  5
25B
100
AcDbSymbolTableRecord
100
AcDbLayerTableRecord
  2
CN1-TP10_SMD-VIMAR_01_10000_24
 70
0
 62
7
  6
CONTINUOUS
370
-3
390
F
  0
LAYER
  5
25C
100
AcDbSymbolTableRecord
100
AcDbLayerTableRecord
  2
CN1-TP10_SMD-VIMAR_01_10000_25
 70
0
 62
7
  6
CONTINUOUS
370
-3
390
F
  0
LAYER
  5
25D
100
AcDbSymbolTableRecord
100
AcDbLayerTableRecord
  2
CN1-TP10_SMD-VIMAR_01_10000_26
 70
0
 62
7
  6
CONTINUOUS
370
-3
390
F
  0
LAYER
  5
25E
100
AcDbSymbolTableRecord
100
AcDbLayerTableRecord
  2
CN1-TP10_SMD-VIMAR_01_10000_27
 70
0
 62
7
  6
CONTINUOUS
370
-3
390
F
  0
LAYER
  5
25F
100
AcDbSymbolTableRecord
100
AcDbLayerTableRecord
  2
CN1-TP10_SMD-VIMAR_01_10000_28
 70
0
 62
7
  6
CONTINUOUS
370
-3
390
F
  0
LAYER
  5
260
100
AcDbSymbolTableRecord
100
AcDbLayerTableRecord
  2
CN1-TP10_SMD-VIMAR_01_10000_29
 70
0
 62
7
  6
CONTINUOUS
370
-3
390
F
  0
LAYER
  5
261
100
AcDbSymbolTableRecord
100
AcDbLayerTableRecord
  2
CN1-TP10_SMD-VIMAR_01_10000_3
 70
0
 62
7
  6
CONTINUOUS
370
-3
390
F
  0
LAYER
  5
262
100
AcDbSymbolTableRecord
100
AcDbLayerTableRecord
  2
CN1-TP10_SMD-VIMAR_01_10000_30
 70
0
 62
7
  6
CONTINUOUS
370
-3
390
F
  0
LAYER
  5
263
100
AcDbSymbolTableRecord
100
AcDbLayerTableRecord
  2
CN1-TP10_SMD-VIMAR_01_10000_31
 70
0
 62
7
  6
CONTINUOUS
370
-3
390
F
  0
LAYER
  5
264
100
AcDbSymbolTableRecord
100
AcDbLayerTableRecord
  2
CN1-TP10_SMD-VIMAR_01_10000_32
 70
0
 62
7
  6
CONTINUOUS
370
-3
390
F
  0
LAYER
  5
265
100
AcDbSymbolTableRecord
100
AcDbLayerTableRecord
  2
CN1-TP10_SMD-VIMAR_01_10000_4
 70
0
 62
7
  6
CONTINUOUS
370
-3
390
F
  0
LAYER
  5
266
100
AcDbSymbolTableRecord
100
AcDbLayerTableRecord
  2
CN1-TP10_SMD-VIMAR_01_10000_5
 70
0
 62
7
  6
CONTINUOUS
370
-3
390
F
  0
LAYER
  5
267
100
AcDbSymbolTableRecord
100
AcDbLayerTableRecord
  2
CN1-TP10_SMD-VIMAR_01_10000_6
 70
0
 62
7
  6
CONTINUOUS
370
-3
390
F
  0
LAYER
  5
268
100
AcDbSymbolTableRecord
100
AcDbLayerTableRecord
  2
CN1-TP10_SMD-VIMAR_01_10000_7
 70
0
 62
7
  6
CONTINUOUS
370
-3
390
F
  0
LAYER
  5
269
100
AcDbSymbolTableRecord
100
AcDbLayerTableRecord
  2
CN1-TP10_SMD-VIMAR_01_10000_8
 70
0
 62
7
  6
CONTINUOUS
370
-3
390
F
  0
LAYER
  5
26A
100
AcDbSymbolTableRecord
100
AcDbLayerTableRecord
  2
CN1-TP10_SMD-VIMAR_01_10000_9
 70
0
 62
7
  6
CONTINUOUS
370
-3
390
F
  0
LAYER
  5
26B
100
AcDbSymbolTableRecord
100
AcDbLayerTableRecord
  2
CN1-TP10_SMD-VIMAR_10000
 70
0
 62
7
  6
CONTINUOUS
370
-3
390
F
  0
LAYER
  5
26C
100
AcDbSymbolTableRecord
100
AcDbLayerTableRecord
  2
CN1-TP10_SMD-VIMAR_10000_1
 70
0
 62
7
  6
CONTINUOUS
370
-3
390
F
  0
LAYER
  5
26D
100
AcDbSymbolTableRecord
100
AcDbLayerTableRecord
  2
CN1-TP10_SMD-VIMAR_10000_2
 70
0
 62
7
  6
CONTINUOUS
370
-3
390
F
  0
LAYER
  5
26E
100
AcDbSymbolTableRecord
100
AcDbLayerTableRecord
  2
CN1-TP10_SMD-VIMAR_10000_3
 70
0
 62
7
  6
CONTINUOUS
370
-3
390
F
  0
LAYER
  5
26F
100
AcDbSymbolTableRecord
100
AcDbLayerTableRecord
  2
CN1-TP15_SMD-VIMAR_5000
 70
0
 62
7
  6
CONTINUOUS
370
-3
390
F
  0
LAYER
  5
270
100
AcDbSymbolTableRecord
100
AcDbLayerTableRecord
  2
CN1-TP15_SMD-VIMAR_5000_1
 70
0
 62
7
  6
CONTINUOUS
370
-3
390
F
  0
LAYER
  5
271
100
AcDbSymbolTableRecord
100
AcDbLayerTableRecord
  2
CN10-ZIF_P0_5-VIMAR_200000
 70
0
 62
7
  6
CONTINUOUS
370
-3
390
F
  0
LAYER
  5
272
100
AcDbSymbolTableRecord
100
AcDbLayerTableRecord
  2
COLOR11
 70
0
 62
7
  6
CONTINUOUS
370
-3
390
F
  0
LAYER
  5
273
100
AcDbSymbolTableRecord
100
AcDbLayerTableRecord
  2
COLOR2
 70
0
 62
7
  6
CONTINUOUS
370
-3
390
F
  0
LAYER
  5
274
100
AcDbSymbolTableRecord
100
AcDbLayerTableRecord
  2
COLOR5
 70
0
 62
7
  6
CONTINUOUS
370
-3
390
F
  0
LAYER
  5
275
100
AcDbSymbolTableRecord
100
AcDbLayerTableRecord
  2
COLOR6
 70
0
 62
7
  6
CONTINUOUS
370
-3
390
F
  0
LAYER
  5
276
100
AcDbSymbolTableRecord
100
AcDbLayerTableRecord
  2
COORDINATE
 70
0
 62
7
  6
CONTINUOUS
370
-3
390
F
  0
LAYER
  5
277
100
AcDbSymbolTableRecord
100
AcDbLayerTableRecord
  2
COORD_ORIGINE
 70
0
 62
7
  6
CONTINUOUS
370
-3
390
F
  0
LAYER
  5
278
100
AcDbSymbolTableRecord
100
AcDbLayerTableRecord
  2
COPY_PUBLISH
 70
0
 62
7
  6
CONTINUOUS
370
-3
390
F
  0
LAYER
  5
279
100
AcDbSymbolTableRecord
100
AcDbLayerTableRecord
  2
COSMETIC
 70
0
 62
7
  6
CONTINUOUS
370
-3
390
F
  0
LAYER
  5
27A
100
AcDbSymbolTableRecord
100
AcDbLayerTableRecord
  2
COSMETICI
 70
0
 62
7
  6
CONTINUOUS
370
-3
390
F
  0
LAYER
  5
27B
100
AcDbSymbolTableRecord
100
AcDbLayerTableRecord
  2
CP-CE4-RF_550000
 70
0
 62
7
  6
CONTINUOUS
370
-3
390
F
  0
LAYER
  5
27C
100
AcDbSymbolTableRecord
100
AcDbLayerTableRecord
  2
CP-CE4-RF_550000_1
 70
0
 62
7
  6
CONTINUOUS
370
-3
390
F
  0
LAYER
  5
27D
100
AcDbSymbolTableRecord
100
AcDbLayerTableRecord
  2
CP-CE6-RF_820000
 70
0
 62
7
  6
CONTINUOUS
370
-3
390
F
  0
LAYER
  5
27E
100
AcDbSymbolTableRecord
100
AcDbLayerTableRecord
  2
CP-CE6-RF_820000_1
 70
0
 62
7
  6
CONTINUOUS
370
-3
390
F
  0
LAYER
  5
27F
100
AcDbSymbolTableRecord
100
AcDbLayerTableRecord
  2
CP-DO-214AC-D-VIMAR_240000
 70
0
 62
7
  6
CONTINUOUS
370
-3
390
F
  0
LAYER
  5
280
100
AcDbSymbolTableRecord
100
AcDbLayerTableRecord
  2
CP-DO-214AC-D-VIMAR_240000_1
 70
0
 62
7
  6
CONTINUOUS
370
-3
390
F
  0
LAYER
  5
281
100
AcDbSymbolTableRecord
100
AcDbLayerTableRecord
  2
CP-SUPERCAP-SMD_190000
 70
0
 62
7
  6
CONTINUOUS
370
-3
390
F
  0
LAYER
  5
282
100
AcDbSymbolTableRecord
100
AcDbLayerTableRecord
  2
CURVE
 70
0
 62
7
  6
CONTINUOUS
370
-3
390
F
  0
LAYER
  5
283
100
AcDbSymbolTableRecord
100
AcDbLayerTableRecord
  2
DRAFT
 70
0
 62
7
  6
CONTINUOUS
370
-3
390
F
  0
LAYER
  5
284
100
AcDbSymbolTableRecord
100
AcDbLayerTableRecord
  2
E2_MARK_10000
 70
0
 62
7
  6
CONTINUOUS
370
-3
390
F
  0
LAYER
  5
285
100
AcDbSymbolTableRecord
100
AcDbLayerTableRecord
  2
E2_MARK_10000_1
 70
0
 62
7
  6
CONTINUOUS
370
-3
390
F
  0
LAYER
  5
286
100
AcDbSymbolTableRecord
100
AcDbLayerTableRecord
  2
E4_MARK_10000
 70
0
 62
7
  6
CONTINUOUS
370
-3
390
F
  0
LAYER
  5
287
100
AcDbSymbolTableRecord
100
AcDbLayerTableRecord
  2
ECAD_200A_170000
 70
0
 62
7
  6
CONTINUOUS
370
-3
390
F
  0
LAYER
  5
288
100
AcDbSymbolTableRecord
100
AcDbLayerTableRecord
  2
ECAD_2125-CC-RF-VIMAR_65000
 70
0
 62
7
  6
CONTINUOUS
370
-3
390
F
  0
LAYER
  5
289
100
AcDbSymbolTableRecord
100
AcDbLayerTableRecord
  2
ECAD_2125-R1-RF-VIMAR_60000
 70
0
 62
7
  6
CONTINUOUS
370
-3
390
F
  0
LAYER
  5
28A
100
AcDbSymbolTableRecord
100
AcDbLayerTableRecord
  2
ECAD_3225-CF1-RF-VIMAR_260000
 70
0
 62
7
  6
CONTINUOUS
370
-3
390
F
  0
LAYER
  5
28B
100
AcDbSymbolTableRecord
100
AcDbLayerTableRecord
  2
ECAD_6432-R-RF-VIMAR_110000
 70
0
 62
7
  6
CONTINUOUS
370
-3
390
F
  0
LAYER
  5
28C
100
AcDbSymbolTableRecord
100
AcDbLayerTableRecord
  2
ECAD_BZ-BST-0841A_330000
 70
0
 62
7
  6
CONTINUOUS
370
-3
390
F
  0
LAYER
  5
28D
100
AcDbSymbolTableRecord
100
AcDbLayerTableRecord
  2
ECAD_CAPC1005X60N_60000
 70
0
 62
7
  6
CONTINUOUS
370
-3
390
F
  0
LAYER
  5
28E
100
AcDbSymbolTableRecord
100
AcDbLayerTableRecord
  2
ECAD_CAPC1608N_80000
 70
0
 62
7
  6
CONTINUOUS
370
-3
390
F
  0
LAYER
  5
28F
100
AcDbSymbolTableRecord
100
AcDbLayerTableRecord
  2
ECAD_CC-0603-VIMAR_1000
 70
0
 62
7
  6
CONTINUOUS
370
-3
390
F
  0
LAYER
  5
290
100
AcDbSymbolTableRecord
100
AcDbLayerTableRecord
  2
ECAD_CN04-ZIF_P1-VIMAR_270000
 70
0
 62
7
  6
CONTINUOUS
370
-3
390
F
  0
LAYER
  5
291
100
AcDbSymbolTableRecord
100
AcDbLayerTableRecord
  2
ECAD_CN1-TP10_SMD-VIMAR_01_1000
 70
0
 62
7
  6
CONTINUOUS
370
-3
390
F
  0
LAYER
  5
292
100
AcDbSymbolTableRecord
100
AcDbLayerTableRecord
  2
ECAD_CN1-TP10_SMD-VIMAR_10000
 70
0
 62
7
  6
CONTINUOUS
370
-3
390
F
  0
LAYER
  5
293
100
AcDbSymbolTableRecord
100
AcDbLayerTableRecord
  2
ECAD_CN1-TP15_SMD-VIMAR_5000
 70
0
 62
7
  6
CONTINUOUS
370
-3
390
F
  0
LAYER
  5
294
100
AcDbSymbolTableRecord
100
AcDbLayerTableRecord
  2
ECAD_CP-CE4-RF_550000
 70
0
 62
7
  6
CONTINUOUS
370
-3
390
F
  0
LAYER
  5
295
100
AcDbSymbolTableRecord
100
AcDbLayerTableRecord
  2
ECAD_CP-CE5-RF_650000
 70
0
 62
7
  6
CONTINUOUS
370
-3
390
F
  0
LAYER
  5
296
100
AcDbSymbolTableRecord
100
AcDbLayerTableRecord
  2
ECAD_CP-CE6-RF_820000
 70
0
 62
7
  6
CONTINUOUS
370
-3
390
F
  0
LAYER
  5
297
100
AcDbSymbolTableRecord
100
AcDbLayerTableRecord
  2
ECAD_CP-DO-214AC-D-VIMAR_240000
 70
0
 62
7
  6
CONTINUOUS
370
-3
390
F
  0
LAYER
  5
298
100
AcDbSymbolTableRecord
100
AcDbLayerTableRecord
  2
ECAD_CP-DO-214AC-VIMAR_240000
 70
0
 62
7
  6
CONTINUOUS
370
-3
390
F
  0
LAYER
  5
299
100
AcDbSymbolTableRecord
100
AcDbLayerTableRecord
  2
ECAD_CP-SUPERCAP-SMD_190000
 70
0
 62
7
  6
CONTINUOUS
370
-3
390
F
  0
LAYER
  5
29A
100
AcDbSymbolTableRecord
100
AcDbLayerTableRecord
  2
ECAD_E2_MARK_10000
 70
0
 62
7
  6
CONTINUOUS
370
-3
390
F
  0
LAYER
  5
29B
100
AcDbSymbolTableRecord
100
AcDbLayerTableRecord
  2
ECAD_EPL65132-VIMAR_100000
 70
0
 62
7
  6
CONTINUOUS
370
-3
390
F
  0
LAYER
  5
29C
100
AcDbSymbolTableRecord
100
AcDbLayerTableRecord
  2
ECAD_LCD-VITL_1293_370000
 70
0
 62
7
  6
CONTINUOUS
370
-3
390
F
  0
LAYER
  5
29D
100
AcDbSymbolTableRecord
100
AcDbLayerTableRecord
  2
ECAD_LOGO_RESIST-RESTYLING_1000
 70
0
 62
7
  6
CONTINUOUS
370
-3
390
F
  0
LAYER
  5
29E
100
AcDbSymbolTableRecord
100
AcDbLayerTableRecord
  2
ECAD_L_SRR0604-RF-VIMAR_480000
 70
0
 62
7
  6
CONTINUOUS
370
-3
390
F
  0
LAYER
  5
29F
100
AcDbSymbolTableRecord
100
AcDbLayerTableRecord
  2
ECAD_MM2-X-1-VIMAR_430000
 70
0
 62
7
  6
CONTINUOUS
370
-3
390
F
  0
LAYER
  5
2A0
100
AcDbSymbolTableRecord
100
AcDbLayerTableRecord
  2
ECAD_MM2-X-2-VIMAR_250000
 70
0
 62
7
  6
CONTINUOUS
370
-3
390
F
  0
LAYER
  5
2A1
100
AcDbSymbolTableRecord
100
AcDbLayerTableRecord
  2
ECAD_MM2-X-3-VIMAR_120000
 70
0
 62
7
  6
CONTINUOUS
370
-3
390
F
  0
LAYER
  5
2A2
100
AcDbSymbolTableRecord
100
AcDbLayerTableRecord
  2
ECAD_MM3-MPAK-RF-VIMAR_120000
 70
0
 62
7
  6
CONTINUOUS
370
-3
390
F
  0
LAYER
  5
2A3
100
AcDbSymbolTableRecord
100
AcDbLayerTableRecord
  2
ECAD_MM5-FMT-RF_120000
 70
0
 62
7
  6
CONTINUOUS
370
-3
390
F
  0
LAYER
  5
2A4
100
AcDbSymbolTableRecord
100
AcDbLayerTableRecord
  2
ECAD_MSOP8-T1-RF-VIMAR_86000
 70
0
 62
7
  6
CONTINUOUS
370
-3
390
F
  0
LAYER
  5
2A5
100
AcDbSymbolTableRecord
100
AcDbLayerTableRecord
  2
ECAD_NO-PB_MARK_10000
 70
0
 62
7
  6
CONTINUOUS
370
-3
390
F
  0
LAYER
  5
2A6
100
AcDbSymbolTableRecord
100
AcDbLayerTableRecord
  2
ECAD_RESC1005X40N_40000
 70
0
 62
7
  6
CONTINUOUS
370
-3
390
F
  0
LAYER
  5
2A7
100
AcDbSymbolTableRecord
100
AcDbLayerTableRecord
  2
ECAD_RESC1608N_45000
 70
0
 62
7
  6
CONTINUOUS
370
-3
390
F
  0
LAYER
  5
2A8
100
AcDbSymbolTableRecord
100
AcDbLayerTableRecord
  2
ECAD_RUBBERPAD-R-07X22_0
 70
0
 62
7
  6
CONTINUOUS
370
-3
390
F
  0
LAYER
  5
2A9
100
AcDbSymbolTableRecord
100
AcDbLayerTableRecord
  2
ECAD_SOD123_135000
 70
0
 62
7
  6
CONTINUOUS
370
-3
390
F
  0
LAYER
  5
2AA
100
AcDbSymbolTableRecord
100
AcDbLayerTableRecord
  2
ECAD_SOD323_125000
 70
0
 62
7
  6
CONTINUOUS
370
-3
390
F
  0
LAYER
  5
2AB
100
AcDbSymbolTableRecord
100
AcDbLayerTableRecord
  2
ECAD_SOP20-1-VIMAR_270000
 70
0
 62
7
  6
CONTINUOUS
370
-3
390
F
  0
LAYER
  5
2AC
100
AcDbSymbolTableRecord
100
AcDbLayerTableRecord
  2
ECAD_TFBGA208_1-VIMAR_120000
 70
0
 62
7
  6
CONTINUOUS
370
-3
390
F
  0
LAYER
  5
2AD
100
AcDbSymbolTableRecord
100
AcDbLayerTableRecord
  2
ECAD_TP10_SMD_0
 70
0
 62
7
  6
CONTINUOUS
370
-3
390
F
  0
LAYER
  5
2AE
100
AcDbSymbolTableRecord
100
AcDbLayerTableRecord
  2
ECAD_TSOP86-TI-RF_VIMAR_120000
 70
0
 62
7
  6
CONTINUOUS
370
-3
390
F
  0
LAYER
  5
2AF
100
AcDbSymbolTableRecord
100
AcDbLayerTableRecord
  2
ECAD_TSSOP16-RF-VIMAR_150000
 70
0
 62
7
  6
CONTINUOUS
370
-3
390
F
  0
LAYER
  5
2B0
100
AcDbSymbolTableRecord
100
AcDbLayerTableRecord
  2
ECAD_TSSOP8-RF-VIMAR_110000
 70
0
 62
7
  6
CONTINUOUS
370
-3
390
F
  0
LAYER
  5
2B1
100
AcDbSymbolTableRecord
100
AcDbLayerTableRecord
  2
EPL65132-VIMAR_100000
 70
0
 62
7
  6
CONTINUOUS
370
-3
390
F
  0
LAYER
  5
2B2
100
AcDbSymbolTableRecord
100
AcDbLayerTableRecord
  2
IGES
 70
0
 62
7
  6
CONTINUOUS
370
-3
390
F
  0
LAYER
  5
2B3
100
AcDbSymbolTableRecord
100
AcDbLayerTableRecord
  2
IMPORT_IGES
 70
0
 62
7
  6
CONTINUOUS
370
-3
390
F
  0
LAYER
  5
2B4
100
AcDbSymbolTableRecord
100
AcDbLayerTableRecord
  2
INCISIONI
 70
0
 62
7
  6
CONTINUOUS
370
-3
390
F
  0
LAYER
  5
2B5
100
AcDbSymbolTableRecord
100
AcDbLayerTableRecord
  2
INTFCLR_1
 70
0
 62
7
  6
CONTINUOUS
370
-3
390
F
  0
LAYER
  5
2B6
100
AcDbSymbolTableRecord
100
AcDbLayerTableRecord
  2
INTF_1
 70
0
 62
7
  6
CONTINUOUS
370
-3
390
F
  0
LAYER
  5
2B7
100
AcDbSymbolTableRecord
100
AcDbLayerTableRecord
  2
INTF_10
 70
0
 62
7
  6
CONTINUOUS
370
-3
390
F
  0
LAYER
  5
2B8
100
AcDbSymbolTableRecord
100
AcDbLayerTableRecord
  2
INTF_15
 70
0
 62
7
  6
CONTINUOUS
370
-3
390
F
  0
LAYER
  5
2B9
100
AcDbSymbolTableRecord
100
AcDbLayerTableRecord
  2
INTF_16
 70
0
 62
7
  6
CONTINUOUS
370
-3
390
F
  0
LAYER
  5
2BA
100
AcDbSymbolTableRecord
100
AcDbLayerTableRecord
  2
INTF_BLANK
 70
0
 62
7
  6
CONTINUOUS
370
-3
390
F
  0
LAYER
  5
2BB
100
AcDbSymbolTableRecord
100
AcDbLayerTableRecord
  2
LOGICA
 70
0
 62
7
  6
CONTINUOUS
370
-3
390
F
  0
LAYER
  5
2BC
100
AcDbSymbolTableRecord
100
AcDbLayerTableRecord
  2
LOGO_RESIST-RESTYLING_10000
 70
0
 62
7
  6
CONTINUOUS
370
-3
390
F
  0
LAYER
  5
2BD
100
AcDbSymbolTableRecord
100
AcDbLayerTableRecord
  2
LOGO_RESIST-RESTYLING_10000_1
 70
0
 62
7
  6
CONTINUOUS
370
-3
390
F
  0
LAYER
  5
2BE
100
AcDbSymbolTableRecord
100
AcDbLayerTableRecord
  2
MM2-X-2-VIMAR_250000
 70
0
 62
7
  6
CONTINUOUS
370
-3
390
F
  0
LAYER
  5
2BF
100
AcDbSymbolTableRecord
100
AcDbLayerTableRecord
  2
MM2-X-3-VIMAR_120000
 70
0
 62
7
  6
CONTINUOUS
370
-3
390
F
  0
LAYER
  5
2C0
100
AcDbSymbolTableRecord
100
AcDbLayerTableRecord
  2
MM3-MPAK-RF-VIMAR_120000
 70
0
 62
7
  6
CONTINUOUS
370
-3
390
F
  0
LAYER
  5
2C1
100
AcDbSymbolTableRecord
100
AcDbLayerTableRecord
  2
MM3-MPAK-RF-VIMAR_120000_1
 70
0
 62
7
  6
CONTINUOUS
370
-3
390
F
  0
LAYER
  5
2C2
100
AcDbSymbolTableRecord
100
AcDbLayerTableRecord
  2
MM3-MPAK-RF-VIMAR_120000_2
 70
0
 62
7
  6
CONTINUOUS
370
-3
390
F
  0
LAYER
  5
2C3
100
AcDbSymbolTableRecord
100
AcDbLayerTableRecord
  2
MM3-MPAK-RF-VIMAR_120000_3
 70
0
 62
7
  6
CONTINUOUS
370
-3
390
F
  0
LAYER
  5
2C4
100
AcDbSymbolTableRecord
100
AcDbLayerTableRecord
  2
MM3-MPAK-RF-VIMAR_120000_4
 70
0
 62
7
  6
CONTINUOUS
370
-3
390
F
  0
LAYER
  5
2C5
100
AcDbSymbolTableRecord
100
AcDbLayerTableRecord
  2
MM3-MPAK-RF-VIMAR_120000_5
 70
0
 62
7
  6
CONTINUOUS
370
-3
390
F
  0
LAYER
  5
2C6
100
AcDbSymbolTableRecord
100
AcDbLayerTableRecord
  2
MM3-MPAK-RF-VIMAR_120000_6
 70
0
 62
7
  6
CONTINUOUS
370
-3
390
F
  0
LAYER
  5
2C7
100
AcDbSymbolTableRecord
100
AcDbLayerTableRecord
  2
MM5-FMT-RF_120000
 70
0
 62
7
  6
CONTINUOUS
370
-3
390
F
  0
LAYER
  5
2C8
100
AcDbSymbolTableRecord
100
AcDbLayerTableRecord
  2
NO-PB_MARK_10000
 70
0
 62
7
  6
CONTINUOUS
370
-3
390
F
  0
LAYER
  5
2C9
100
AcDbSymbolTableRecord
100
AcDbLayerTableRecord
  2
NO-PB_MARK_10000_1
 70
0
 62
7
  6
CONTINUOUS
370
-3
390
F
  0
LAYER
  5
2CA
100
AcDbSymbolTableRecord
100
AcDbLayerTableRecord
  2
NOTE
 70
0
 62
7
  6
CONTINUOUS
370
-3
390
F
  0
LAYER
  5
2CB
100
AcDbSymbolTableRecord
100
AcDbLayerTableRecord
  2
PIANI
 70
0
 62
7
  6
CONTINUOUS
370
-3
390
F
  0
LAYER
  5
2CC
100
AcDbSymbolTableRecord
100
AcDbLayerTableRecord
  2
PIANI_DI_RIFERIMENTO
 70
0
 62
7
  6
CONTINUOUS
370
-3
390
F
  0
LAYER
  5
2CD
100
AcDbSymbolTableRecord
100
AcDbLayerTableRecord
  2
PIANI_ORIGINE
 70
0
 62
7
  6
CONTINUOUS
370
-3
390
F
  0
LAYER
  5
2CE
100
AcDbSymbolTableRecord
100
AcDbLayerTableRecord
  2
PUNTI
 70
0
 62
7
  6
CONTINUOUS
370
-3
390
F
  0
LAYER
  5
2CF
100
AcDbSymbolTableRecord
100
AcDbLayerTableRecord
  2
RACCORDO
 70
0
 62
7
  6
CONTINUOUS
370
-3
390
F
  0
LAYER
  5
2D0
100
AcDbSymbolTableRecord
100
AcDbLayerTableRecord
  2
RESC1005X40N_40000
 70
0
 62
7
  6
CONTINUOUS
370
-3
390
F
  0
LAYER
  5
2D1
100
AcDbSymbolTableRecord
100
AcDbLayerTableRecord
  2
RESC1005X40N_40000_1
 70
0
 62
7
  6
CONTINUOUS
370
-3
390
F
  0
LAYER
  5
2D2
100
AcDbSymbolTableRecord
100
AcDbLayerTableRecord
  2
RESC1005X40N_40000_10
 70
0
 62
7
  6
CONTINUOUS
370
-3
390
F
  0
LAYER
  5
2D3
100
AcDbSymbolTableRecord
100
AcDbLayerTableRecord
  2
RESC1005X40N_40000_11
 70
0
 62
7
  6
CONTINUOUS
370
-3
390
F
  0
LAYER
  5
2D4
100
AcDbSymbolTableRecord
100
AcDbLayerTableRecord
  2
RESC1005X40N_40000_12
 70
0
 62
7
  6
CONTINUOUS
370
-3
390
F
  0
LAYER
  5
2D5
100
AcDbSymbolTableRecord
100
AcDbLayerTableRecord
  2
RESC1005X40N_40000_13
 70
0
 62
7
  6
CONTINUOUS
370
-3
390
F
  0
LAYER
  5
2D6
100
AcDbSymbolTableRecord
100
AcDbLayerTableRecord
  2
RESC1005X40N_40000_14
 70
0
 62
7
  6
CONTINUOUS
370
-3
390
F
  0
LAYER
  5
2D7
100
AcDbSymbolTableRecord
100
AcDbLayerTableRecord
  2
RESC1005X40N_40000_15
 70
0
 62
7
  6
CONTINUOUS
370
-3
390
F
  0
LAYER
  5
2D8
100
AcDbSymbolTableRecord
100
AcDbLayerTableRecord
  2
RESC1005X40N_40000_16
 70
0
 62
7
  6
CONTINUOUS
370
-3
390
F
  0
LAYER
  5
2D9
100
AcDbSymbolTableRecord
100
AcDbLayerTableRecord
  2
RESC1005X40N_40000_17
 70
0
 62
7
  6
CONTINUOUS
370
-3
390
F
  0
LAYER
  5
2DA
100
AcDbSymbolTableRecord
100
AcDbLayerTableRecord
  2
RESC1005X40N_40000_18
 70
0
 62
7
  6
CONTINUOUS
370
-3
390
F
  0
LAYER
  5
2DB
100
AcDbSymbolTableRecord
100
AcDbLayerTableRecord
  2
RESC1005X40N_40000_19
 70
0
 62
7
  6
CONTINUOUS
370
-3
390
F
  0
LAYER
  5
2DC
100
AcDbSymbolTableRecord
100
AcDbLayerTableRecord
  2
RESC1005X40N_40000_2
 70
0
 62
7
  6
CONTINUOUS
370
-3
390
F
  0
LAYER
  5
2DD
100
AcDbSymbolTableRecord
100
AcDbLayerTableRecord
  2
RESC1005X40N_40000_20
 70
0
 62
7
  6
CONTINUOUS
370
-3
390
F
  0
LAYER
  5
2DE
100
AcDbSymbolTableRecord
100
AcDbLayerTableRecord
  2
RESC1005X40N_40000_21
 70
0
 62
7
  6
CONTINUOUS
370
-3
390
F
  0
LAYER
  5
2DF
100
AcDbSymbolTableRecord
100
AcDbLayerTableRecord
  2
RESC1005X40N_40000_22
 70
0
 62
7
  6
CONTINUOUS
370
-3
390
F
  0
LAYER
  5
2E0
100
AcDbSymbolTableRecord
100
AcDbLayerTableRecord
  2
RESC1005X40N_40000_23
 70
0
 62
7
  6
CONTINUOUS
370
-3
390
F
  0
LAYER
  5
2E1
100
AcDbSymbolTableRecord
100
AcDbLayerTableRecord
  2
RESC1005X40N_40000_24
 70
0
 62
7
  6
CONTINUOUS
370
-3
390
F
  0
LAYER
  5
2E2
100
AcDbSymbolTableRecord
100
AcDbLayerTableRecord
  2
RESC1005X40N_40000_25
 70
0
 62
7
  6
CONTINUOUS
370
-3
390
F
  0
LAYER
  5
2E3
100
AcDbSymbolTableRecord
100
AcDbLayerTableRecord
  2
RESC1005X40N_40000_26
 70
0
 62
7
  6
CONTINUOUS
370
-3
390
F
  0
LAYER
  5
2E4
100
AcDbSymbolTableRecord
100
AcDbLayerTableRecord
  2
RESC1005X40N_40000_27
 70
0
 62
7
  6
CONTINUOUS
370
-3
390
F
  0
LAYER
  5
2E5
100
AcDbSymbolTableRecord
100
AcDbLayerTableRecord
  2
RESC1005X40N_40000_3
 70
0
 62
7
  6
CONTINUOUS
370
-3
390
F
  0
LAYER
  5
2E6
100
AcDbSymbolTableRecord
100
AcDbLayerTableRecord
  2
RESC1005X40N_40000_4
 70
0
 62
7
  6
CONTINUOUS
370
-3
390
F
  0
LAYER
  5
2E7
100
AcDbSymbolTableRecord
100
AcDbLayerTableRecord
  2
RESC1005X40N_40000_5
 70
0
 62
7
  6
CONTINUOUS
370
-3
390
F
  0
LAYER
  5
2E8
100
AcDbSymbolTableRecord
100
AcDbLayerTableRecord
  2
RESC1005X40N_40000_6
 70
0
 62
7
  6
CONTINUOUS
370
-3
390
F
  0
LAYER
  5
2E9
100
AcDbSymbolTableRecord
100
AcDbLayerTableRecord
  2
RESC1005X40N_40000_7
 70
0
 62
7
  6
CONTINUOUS
370
-3
390
F
  0
LAYER
  5
2EA
100
AcDbSymbolTableRecord
100
AcDbLayerTableRecord
  2
RESC1005X40N_40000_8
 70
0
 62
7
  6
CONTINUOUS
370
-3
390
F
  0
LAYER
  5
2EB
100
AcDbSymbolTableRecord
100
AcDbLayerTableRecord
  2
RESC1005X40N_40000_9
 70
0
 62
7
  6
CONTINUOUS
370
-3
390
F
  0
LAYER
  5
2EC
100
AcDbSymbolTableRecord
100
AcDbLayerTableRecord
  2
RESC1608N_45000
 70
0
 62
7
  6
CONTINUOUS
370
-3
390
F
  0
LAYER
  5
2ED
100
AcDbSymbolTableRecord
100
AcDbLayerTableRecord
  2
RESC1608N_45000_1
 70
0
 62
7
  6
CONTINUOUS
370
-3
390
F
  0
LAYER
  5
2EE
100
AcDbSymbolTableRecord
100
AcDbLayerTableRecord
  2
RESC1608N_45000_10
 70
0
 62
7
  6
CONTINUOUS
370
-3
390
F
  0
LAYER
  5
2EF
100
AcDbSymbolTableRecord
100
AcDbLayerTableRecord
  2
RESC1608N_45000_11
 70
0
 62
7
  6
CONTINUOUS
370
-3
390
F
  0
LAYER
  5
2F0
100
AcDbSymbolTableRecord
100
AcDbLayerTableRecord
  2
RESC1608N_45000_12
 70
0
 62
7
  6
CONTINUOUS
370
-3
390
F
  0
LAYER
  5
2F1
100
AcDbSymbolTableRecord
100
AcDbLayerTableRecord
  2
RESC1608N_45000_13
 70
0
 62
7
  6
CONTINUOUS
370
-3
390
F
  0
LAYER
  5
2F2
100
AcDbSymbolTableRecord
100
AcDbLayerTableRecord
  2
RESC1608N_45000_14
 70
0
 62
7
  6
CONTINUOUS
370
-3
390
F
  0
LAYER
  5
2F3
100
AcDbSymbolTableRecord
100
AcDbLayerTableRecord
  2
RESC1608N_45000_15
 70
0
 62
7
  6
CONTINUOUS
370
-3
390
F
  0
LAYER
  5
2F4
100
AcDbSymbolTableRecord
100
AcDbLayerTableRecord
  2
RESC1608N_45000_16
 70
0
 62
7
  6
CONTINUOUS
370
-3
390
F
  0
LAYER
  5
2F5
100
AcDbSymbolTableRecord
100
AcDbLayerTableRecord
  2
RESC1608N_45000_17
 70
0
 62
7
  6
CONTINUOUS
370
-3
390
F
  0
LAYER
  5
2F6
100
AcDbSymbolTableRecord
100
AcDbLayerTableRecord
  2
RESC1608N_45000_18
 70
0
 62
7
  6
CONTINUOUS
370
-3
390
F
  0
LAYER
  5
2F7
100
AcDbSymbolTableRecord
100
AcDbLayerTableRecord
  2
RESC1608N_45000_19
 70
0
 62
7
  6
CONTINUOUS
370
-3
390
F
  0
LAYER
  5
2F8
100
AcDbSymbolTableRecord
100
AcDbLayerTableRecord
  2
RESC1608N_45000_2
 70
0
 62
7
  6
CONTINUOUS
370
-3
390
F
  0
LAYER
  5
2F9
100
AcDbSymbolTableRecord
100
AcDbLayerTableRecord
  2
RESC1608N_45000_3
 70
0
 62
7
  6
CONTINUOUS
370
-3
390
F
  0
LAYER
  5
2FA
100
AcDbSymbolTableRecord
100
AcDbLayerTableRecord
  2
RESC1608N_45000_4
 70
0
 62
7
  6
CONTINUOUS
370
-3
390
F
  0
LAYER
  5
2FB
100
AcDbSymbolTableRecord
100
AcDbLayerTableRecord
  2
RESC1608N_45000_5
 70
0
 62
7
  6
CONTINUOUS
370
-3
390
F
  0
LAYER
  5
2FC
100
AcDbSymbolTableRecord
100
AcDbLayerTableRecord
  2
RESC1608N_45000_6
 70
0
 62
7
  6
CONTINUOUS
370
-3
390
F
  0
LAYER
  5
2FD
100
AcDbSymbolTableRecord
100
AcDbLayerTableRecord
  2
RESC1608N_45000_7
 70
0
 62
7
  6
CONTINUOUS
370
-3
390
F
  0
LAYER
  5
2FE
100
AcDbSymbolTableRecord
100
AcDbLayerTableRecord
  2
RESC1608N_45000_8
 70
0
 62
7
  6
CONTINUOUS
370
-3
390
F
  0
LAYER
  5
2FF
100
AcDbSymbolTableRecord
100
AcDbLayerTableRecord
  2
RESC1608N_45000_9
 70
0
 62
7
  6
CONTINUOUS
370
-3
390
F
  0
LAYER
  5
300
100
AcDbSymbolTableRecord
100
AcDbLayerTableRecord
  2
RUBBERPAD-R-07X22_0
 70
0
 62
7
  6
CONTINUOUS
370
-3
390
F
  0
LAYER
  5
301
100
AcDbSymbolTableRecord
100
AcDbLayerTableRecord
  2
RUBBERPAD-R-07X22_0_1
 70
0
 62
7
  6
CONTINUOUS
370
-3
390
F
  0
LAYER
  5
302
100
AcDbSymbolTableRecord
100
AcDbLayerTableRecord
  2
SIMBOLI
 70
0
 62
7
  6
CONTINUOUS
370
-3
390
F
  0
LAYER
  5
303
100
AcDbSymbolTableRecord
100
AcDbLayerTableRecord
  2
SMUSSO
 70
0
 62
7
  6
CONTINUOUS
370
-3
390
F
  0
LAYER
  5
304
100
AcDbSymbolTableRecord
100
AcDbLayerTableRecord
  2
SNAPLINE
 70
0
 62
7
  6
CONTINUOUS
370
-3
390
F
  0
LAYER
  5
305
100
AcDbSymbolTableRecord
100
AcDbLayerTableRecord
  2
SOD123_135000
 70
0
 62
7
  6
CONTINUOUS
370
-3
390
F
  0
LAYER
  5
306
100
AcDbSymbolTableRecord
100
AcDbLayerTableRecord
  2
SOLIDO
 70
0
 62
7
  6
CONTINUOUS
370
-3
390
F
  0
LAYER
  5
307
100
AcDbSymbolTableRecord
100
AcDbLayerTableRecord
  2
SUPERFICI
 70
0
 62
7
  6
CONTINUOUS
370
-3
390
F
  0
LAYER
  5
308
100
AcDbSymbolTableRecord
100
AcDbLayerTableRecord
  2
SUPERFICI_SKEL
 70
0
 62
7
  6
CONTINUOUS
370
-3
390
F
  0
LAYER
  5
309
100
AcDbSymbolTableRecord
100
AcDbLayerTableRecord
  2
TFBGA208_1-VIMAR_120000
 70
0
 62
7
  6
CONTINUOUS
370
-3
390
F
  0
LAYER
  5
30A
100
AcDbSymbolTableRecord
100
AcDbLayerTableRecord
  2
TP10_SMD_0
 70
0
 62
7
  6
CONTINUOUS
370
-3
390
F
  0
LAYER
  5
30B
100
AcDbSymbolTableRecord
100
AcDbLayerTableRecord
  2
TP10_SMD_0_1
 70
0
 62
7
  6
CONTINUOUS
370
-3
390
F
  0
LAYER
  5
30C
100
AcDbSymbolTableRecord
100
AcDbLayerTableRecord
  2
TP10_SMD_0_2
 70
0
 62
7
  6
CONTINUOUS
370
-3
390
F
  0
LAYER
  5
30D
100
AcDbSymbolTableRecord
100
AcDbLayerTableRecord
  2
TP10_SMD_0_3
 70
0
 62
7
  6
CONTINUOUS
370
-3
390
F
  0
LAYER
  5
30E
100
AcDbSymbolTableRecord
100
AcDbLayerTableRecord
  2
TP10_SMD_0_4
 70
0
 62
7
  6
CONTINUOUS
370
-3
390
F
  0
LAYER
  5
30F
100
AcDbSymbolTableRecord
100
AcDbLayerTableRecord
  2
TP10_SMD_0_5
 70
0
 62
7
  6
CONTINUOUS
370
-3
390
F
  0
LAYER
  5
310
100
AcDbSymbolTableRecord
100
AcDbLayerTableRecord
  2
TRASH
 70
0
 62
7
  6
CONTINUOUS
370
-3
390
F
  0
LAYER
  5
311
100
AcDbSymbolTableRecord
100
AcDbLayerTableRecord
  2
TSSOP16-RF-VIMAR_150000
 70
0
 62
7
  6
CONTINUOUS
370
-3
390
F
  0
LAYER
  5
312
100
AcDbSymbolTableRecord
100
AcDbLayerTableRecord
  2
TSSOP8-RF-VIMAR_110000
 70
0
 62
7
  6
CONTINUOUS
370
-3
390
F
  0
LAYER
  5
313
100
AcDbSymbolTableRecord
100
AcDbLayerTableRecord
  2
TSSOP8-RF-VIMAR_110000_1
 70
0
 62
7
  6
CONTINUOUS
370
-3
390
F
  0
LAYER
  5
314
100
AcDbSymbolTableRecord
100
AcDbLayerTableRecord
  2
WHITE
 70
0
 62
7
  6
CONTINUOUS
370
-3
390
F
  0
LAYER
  5
315
100
AcDbSymbolTableRecord
100
AcDbLayerTableRecord
  2
XSEC_DATUMS
 70
0
 62
7
  6
CONTINUOUS
370
-3
390
F
  0
LAYER
  5
316
100
AcDbSymbolTableRecord
100
AcDbLayerTableRecord
  2
___SHELL
 70
0
 62
7
  6
CONTINUOUS
370
-3
390
F
  0
ENDTAB
  0
TABLE
  2
STYLE
  5
3
100
AcDbSymbolTable
 70
1
  0
STYLE
  5
11
100
AcDbSymbolTableRecord
100
AcDbTextStyleTableRecord
  2
STANDARD
 70
0
 40
0.0
 41
0.8
 50
0.0
 71
0
 42
0.2
  3
txt
  4

  0
STYLE
  5
317
100
AcDbSymbolTableRecord
100
AcDbTextStyleTableRecord
  2
TEXTSTYLE_1
 70
0
 40
0.0
 41
0.8
 50
0.0
 71
0
 42
0.2
  3
gdt
  4

  0
ENDTAB
  0
TABLE
  2
VIEW
  5
6
100
AcDbSymbolTable
 70
0
  0
ENDTAB
  0
TABLE
  2
UCS
  5
7
100
AcDbSymbolTable
 70
0
  0
ENDTAB
  0
TABLE
  2
APPID
  5
9
100
AcDbSymbolTable
 70
1
  0
APPID
  5
318
100
AcDbSymbolTableRecord
100
AcDbRegAppTableRecord
  2
ACAD
 70
0
  0
ENDTAB
  0
TABLE
  2
BLOCK_RECORD
  5
1
100
AcDbSymbolTable
 70
0
  0
BLOCK_RECORD
  5
319
100
AcDbSymbolTableRecord
100
AcDbBlockTableRecord
  2
*Model_Space
  0
BLOCK_RECORD
  5
31A
100
AcDbSymbolTableRecord
100
AcDbBlockTableRecord
  2
*Paper_Space
  0
ENDTAB
  0
TABLE
  2
DIMSTYLE
  5
A
100
AcDbSymbolTable
 70
1
100
AcDbDimStyleTable
 71
0
  0
DIMSTYLE
105
31B
100
AcDbSymbolTableRecord
100
AcDbDimStyleTableRecord
  2
STANDARD
 70
0
  3

  4

 40
1.0
 41
3.0
 42
0.0625
 43
0.38
 44
0.18
 45
0.0
 46
0.0
 47
0.01
 48
0.01
140
3.0
141
0.09
142
0.0
143
25.4
144
1.0
145
0.0
146
1.0
147
0.09
 71
1.0
 72
0.0
 73
0
 74
0
 75
0
 76
0
 77
1
 78
8
170
0
171
2
172
0
173
0
174
0
175
0
176
0
177
0
178
0
270
2
271
2
272
2
273
2
274
2
275
0
280
0
281
0
282
0
283
1
284
8
285
0
286
0
287
3
288
0
340
11
  0
ENDTAB
  0
ENDSEC
  0
SECTION
  2
BLOCKS
  0
BLOCK
  5
20
100
AcDbEntity
  8
0
100
AcDbBlockBegin
  2
*Model_Space
 70
0
 10
0.0
 20
0.0
 30
0.0
  3
*Model_Space
  1

  0
ENDBLK
  5
21
100
AcDbEntity
  8
0
100
AcDbBlockEnd
  0
BLOCK
  5
1C
100
AcDbEntity
  8
0
100
AcDbBlockBegin
  2
*Paper_Space
 70
0
 10
0.0
 20
0.0
 30
0.0
  3
*Paper_Space
  1

  0
ENDBLK
  5
1D
100
AcDbEntity
  8
0
100
AcDbBlockEnd
  0
ENDSEC
  0
SECTION
  2
ENTITIES
  0
LWPOLYLINE
  5
31C
100
AcDbEntity
  8
RACCORDO
100
AcDbPolyline
 62
253
  6
CONTINUOUS
 90
18
 70
0
 10
-33.117100493
 20
31.4798748005
 10
-33.1244935476
 20
31.4691305081
 10
-33.1316336038
 20
31.4579745358
 10
-33.1384901708
 20
31.4464334402
 10
-33.1450356552
 20
31.4345312818
 10
-33.1512257032
 20
31.4223289357
 10
-33.1570341636
 20
31.4098601689
 10
-33.1624363651
 20
31.3971586675
 10
-33.1673971663
 20
31.3842908867
 10
-33.1718963788
 20
31.3712953892
 10
-33.1759148699
 20
31.3582119504
 10
-33.1794274714
 20
31.3451116143
 10
-33.182421414
 20
31.3320356091
 10
-33.184885473
 20
31.3190251291
 10
-33.1868063628
 20
31.3061508781
 10
-33.1881791388
 20
31.2934624796
 10
-33.189003079
 20
31.2809891166
 10
-33.1892775529
 20
31.2687689749
  0
LWPOLYLINE
  5
31D
100
AcDbEntity
  8
RACCORDO
100
AcDbPolyline
 62
7
  6
CONTINUOUS
 90
14
 70
0
 10
-30.0896291612
 20
29.7329105866
 10
-30.1082627382
 20
29.7151562369
 10
-30.1280847115
 20
29.6985799969
 10
-30.148940164
 20
29.6833771555
 10
-30.1707413885
 20
29.6697177557
 10
-30.1932383442
 20
29.6577508329
 10
-30.216011282
 20
29.6475869609
 10
-30.2387601037
 20
29.6393251372
 10
-30.2614054803
 20
29.6329743078
 10
-30.28386564
 20
29.6285042076
 10
-30.3060932837
 20
29.6259467713
 10
-30.3277961223
 20
29.625374633
 10
-30.3485382324
 20
29.6267602427
 10
-30.3673597794
 20
29.6298379497
  0
LWPOLYLINE
  5
31E
100
AcDbEntity
  8
RACCORDO
100
AcDbPolyline
 62
7
  6
CONTINUOUS
 90
9
 70
0
 10
-32.2797322244
 20
30.4643034081
 10
-32.2909598784
 20
30.4556878667
 10
-32.3008412076
 20
30.447643025
 10
-32.3093001545
 20
30.4402393823
 10
-32.3162853095
 20
30.4337907091
 10
-32.3216378037
 20
30.4281854736
 10
-32.3252265565
 20
30.4234165612
 10
-32.3269237649
 20
30.4199555103
 10
-32.3270321582
 20
30.4192063433
  0
LINE
  5
31F
100
AcDbEntity
  8
RACCORDO
100
AcDbLine
 62
7
  6
CONTINUOUS
 10
-32.2538090346
 20
30.4837659154
 11
-32.2797322244
 21
30.4643034081
  0
LWPOLYLINE
  5
320
100
AcDbEntity
  8
RACCORDO
100
AcDbPolyline
 62
7
  6
CONTINUOUS
 90
18
 70
0
 10
-36.7706515452
 20
27.7466659607
 10
-36.8483505433
 20
27.6961931206
 10
-36.9179014208
 20
27.6430658756
 10
-36.9849402869
 20
27.5840038863
 10
-37.0490431597
 20
27.5194412228
 10
-37.1091986163
 20
27.4505962337
 10
-37.1651581286
 20
27.3781256391
 10
-37.2170726559
 20
27.3020942885
 10
-37.2646176091
 20
27.2232072909
 10
-37.3076517704
 20
27.1418983718
 10
-37.3461312638
 20
27.0583949005
 10
-37.3798530499
 20
26.9731560958
 10
-37.4086818322
 20
26.8864856129
 10
-37.4324483888
 20
26.7986711131
 10
-37.4509359967
 20
26.7100613729
 10
-37.463927104
 20
26.6208756558
 10
-37.4711458535
 20
26.5313601674
 10
-37.4719149236
 20
26.5121112176
  0
LWPOLYLINE
  5
321
100
AcDbEntity
  8
RACCORDO
100
AcDbPolyline
 62
253
  6
CONTINUOUS
 90
25
 70
0
 10
-36.5343181961
 20
27.7396556779
 10
-36.5855584649
 20
27.7079247571
 10
-36.6364392455
 20
27.6724758849
 10
-36.6867650435
 20
27.6334430339
 10
-36.7363376664
 20
27.59097419
 10
-36.7849719006
 20
27.5452295603
 10
-36.8324957786
 20
27.4963795674
 10
-36.8787292331
 20
27.4446047618
 10
-36.9234917674
 20
27.3901020032
 10
-36.9666179175
 20
27.333081792
 10
-37.0079419055
 20
27.2737595759
 10
-37.0473051424
 20
27.2123579324
 10
-37.0845634443
 20
27.1491113702
 10
-37.1195740578
 20
27.0842584278
 10
-37.1522021554
 20
27.0180432754
 10
-37.1823283118
 20
26.950718007
 10
-37.209837553
 20
26.882535945
 10
-37.234623372
 20
26.8137548296
 10
-37.2565942947
 20
26.7446383572
 10
-37.2756656777
 20
26.6754515918
 10
-37.2917653725
 20
26.6064515539
 10
-37.3048362809
 20
26.5378905273
 10
-37.3148284995
 20
26.4700250162
 10
-37.3217009594
 20
26.4031146244
 10
-37.3254261963
 20
26.3374128009
  0
LINE
  5
322
100
AcDbEntity
  8
RACCORDO
100
AcDbLine
 62
7
  6
CONTINUOUS
 10
-32.5329930762
 20
30.2587652948
 11
-36.7707825552
 21
27.7465944051
  0
LINE
  5
323
100
AcDbEntity
  8
RACCORDO
100
AcDbLine
 62
253
  6
CONTINUOUS
 10
-32.5329930762
 20
30.1116499774
 11
-36.5343181961
 21
27.7396556779
  0
LWPOLYLINE
  5
324
100
AcDbEntity
  8
RACCORDO
100
AcDbPolyline
 62
7
  6
CONTINUOUS
 90
12
 70
0
 10
-33.1085916673
 20
31.5765152403
 10
-33.1200656015
 20
31.5699205142
 10
-33.1423311738
 20
31.5545703502
 10
-33.1631966694
 20
31.5365792151
 10
-33.1823553725
 20
31.5161451689
 10
-33.1991022005
 20
31.4941356123
 10
-33.2137414744
 20
31.4702776071
 10
-33.2261990577
 20
31.4444872114
 10
-33.2358276659
 20
31.4180566282
 10
-33.2426318431
 20
31.3913125389
 10
-33.2467282029
 20
31.3635104728
 10
-33.2478560893
 20
31.3394494534
  0
LWPOLYLINE
  5
325
100
AcDbEntity
  8
RACCORDO
100
AcDbPolyline
 62
253
  6
CONTINUOUS
 90
14
 70
0
 10
-33.0161910104
 20
31.572392016
 10
-33.0233657977
 20
31.5684456816
 10
-33.0307337812
 20
31.5640173248
 10
-33.0382798205
 20
31.5590832382
 10
-33.0459971105
 20
31.5536129925
 10
-33.0538549267
 20
31.5475924515
 10
-33.0617995621
 20
31.5410295339
 10
-33.0698073692
 20
31.5339119516
 10
-33.077852397
 20
31.526229841
 10
-33.0858768057
 20
31.5180078228
 10
-33.0938524328
 20
31.5092457887
 10
-33.1017494148
 20
31.499946439
 10
-33.109508963
 20
31.4901516779
 10
-33.117100493
 20
31.4798748005
  0
LINE
  5
326
100
AcDbEntity
  8
RACCORDO
100
AcDbLine
 62
7
  6
CONTINUOUS
 10
-31.5414754795
 20
32.4220104916
 11
-33.1086890168
 21
31.5764628337
  0
LINE
  5
327
100
AcDbEntity
  8
RACCORDO
100
AcDbLine
 62
253
  6
CONTINUOUS
 10
-31.4499416495
 20
32.4174194988
 11
-33.0161910299
 21
31.5723920257
  0
LINE
  5
328
100
AcDbEntity
  8
RACCORDO
100
AcDbLine
 62
7
  6
CONTINUOUS
 10
-31.5373088645
 20
32.424096399
 11
-31.5414798328
 21
32.4220081313
  0
LINE
  5
329
100
AcDbEntity
  8
RACCORDO
100
AcDbLine
 62
7
  6
CONTINUOUS
 10
-31.5372625339
 20
32.4241177927
 11
-30.9935394132
 21
32.6752271482
  0
LINE
  5
32A
100
AcDbEntity
  8
RACCORDO
100
AcDbLine
 62
253
  6
CONTINUOUS
 10
-31.4499416495
 20
32.4174194988
 11
-30.9072155868
 21
32.6680683799
  0
LWPOLYLINE
  5
32B
100
AcDbEntity
  8
RACCORDO
100
AcDbPolyline
 62
253
  6
CONTINUOUS
 90
7
 70
0
 10
-30.9072155868
 20
32.6680683799
 10
-30.8888967533
 20
32.675613011
 10
-30.8708085634
 20
32.6807415807
 10
-30.8531441514
 20
32.6833987987
 10
-30.8360914765
 20
32.6835555432
 10
-30.8198332748
 20
32.6812101281
 10
-30.8045451001
 20
32.6763883501
  0
LINE
  5
32C
100
AcDbEntity
  8
RACCORDO
100
AcDbLine
 62
7
  6
CONTINUOUS
 10
-30.9701066086
 20
32.6845746589
 11
-30.9933359496
 21
32.6753200307
  0
LINE
  5
32D
100
AcDbEntity
  8
RACCORDO
100
AcDbLine
 62
7
  6
CONTINUOUS
 10
-37.471919951
 20
26.5121113783
 11
-37.4719147262
 21
26.5122750494
  0
LWPOLYLINE
  5
32E
100
AcDbEntity
  8
RACCORDO
100
AcDbPolyline
 62
253
  6
CONTINUOUS
 90
7
 70
0
 10
-28.6346236615
 20
30.9045175782
 10
-28.6336405971
 20
30.905865842
 10
-28.6308232096
 20
30.9132317915
 10
-28.6307022771
 20
30.9225773899
 10
-28.633279846
 20
30.9337445007
 10
-28.6385123013
 20
30.9465441656
 10
-28.6463111047
 20
30.9607598018
  0
LWPOLYLINE
  5
32F
100
AcDbEntity
  8
RACCORDO
100
AcDbPolyline
 62
7
  6
CONTINUOUS
 90
6
 70
0
 10
-28.6346488976
 20
30.9044864908
 10
-28.6251828373
 20
30.9169037208
 10
-28.6115697764
 20
30.9377559852
 10
-28.5997153728
 20
30.9600216916
 10
-28.589770629
 20
30.9835830187
 10
-28.5821151647
 20
31.0075613113
  0
LINE
  5
330
100
AcDbEntity
  8
RACCORDO
100
AcDbLine
 62
253
  6
CONTINUOUS
 10
-28.6463111047
 20
30.9607598018
 11
-29.1871784105
 21
30.2914723157
  0
LINE
  5
331
100
AcDbEntity
  8
RACCORDO
100
AcDbLine
 62
7
  6
CONTINUOUS
 10
-28.6346236615
 20
30.9045175782
 11
-29.1871784105
 21
30.2207676548
  0
LWPOLYLINE
  5
332
100
AcDbEntity
  8
RACCORDO
100
AcDbPolyline
 62
7
  6
CONTINUOUS
 90
12
 70
0
 10
-27.3920881462
 20
29.6838538007
 10
-27.4003224778
 20
29.6791784921
 10
-27.4195362138
 20
29.666287464
 10
-27.4373393795
 20
29.6513974984
 10
-27.4534981613
 20
29.634698798
 10
-27.4679458191
 20
29.6162213683
 10
-27.4804726012
 20
29.5961480104
 10
-27.4908884476
 20
29.5747487281
 10
-27.4991316071
 20
29.552091927
 10
-27.5050800211
 20
29.5283146414
 10
-27.5085927856
 20
29.5037157265
 10
-27.5096205974
 20
29.4811048529
  0
LINE
  5
333
100
AcDbEntity
  8
RACCORDO
100
AcDbLine
 62
7
  6
CONTINUOUS
 10
-31.1670773979
 20
29.328594151
 11
-31.7098034606
 21
29.0323040407
  0
LINE
  5
334
100
AcDbEntity
  8
RACCORDO
100
AcDbLine
 62
7
  6
CONTINUOUS
 10
-29.1871784105
 20
29.4673845314
 11
-30.0896291612
 21
28.9747101405
  0
LINE
  5
335
100
AcDbEntity
  8
RACCORDO
100
AcDbLine
 62
7
  6
CONTINUOUS
 10
-27.1803022784
 20
29.7981172087
 11
-27.3921196533
 21
29.6838368755
  0
LINE
  5
336
100
AcDbEntity
  8
RACCORDO
100
AcDbLine
 62
253
  6
CONTINUOUS
 10
-27.0658849909
 20
29.7923784676
 11
-27.2767801778
 21
29.6786381609
  0
LINE
  5
337
100
AcDbEntity
  8
RACCORDO
100
AcDbLine
 62
253
  6
CONTINUOUS
 10
-30.9504803108
 20
30.5395332823
 11
-29.3285782276
 21
31.3567377879
  0
LINE
  5
338
100
AcDbEntity
  8
RACCORDO
100
AcDbLine
 62
253
  6
CONTINUOUS
 10
-30.8090785372
 20
30.2956556588
 11
-29.1871784105
 21
31.1128591786
  0
LINE
  5
339
100
AcDbEntity
  8
RACCORDO
100
AcDbLine
 62
7
  6
CONTINUOUS
 10
-27.180308571
 20
29.7981138328
 11
-27.1750943676
 21
29.800724414
  0
LINE
  5
33A
100
AcDbEntity
  8
RACCORDO
100
AcDbLine
 62
253
  6
CONTINUOUS
 10
-29.3285782276
 20
31.3567377879
 11
-28.8044728239
 21
31.6166979319
  0
LINE
  5
33B
100
AcDbEntity
  8
RACCORDO
100
AcDbLine
 62
253
  6
CONTINUOUS
 10
-29.1871784105
 20
31.1128591786
 11
-28.663073944
 21
31.3728188577
  0
LWPOLYLINE
  5
33C
100
AcDbEntity
  8
RACCORDO
100
AcDbPolyline
 62
253
  6
CONTINUOUS
 90
31
 70
0
 10
-28.663073944
 20
31.3728188577
 10
-28.6616761421
 20
31.3734882453
 10
-28.6602447397
 20
31.3740872301
 10
-28.6587797368
 20
31.374615812
 10
-28.6572747746
 20
31.3750824738
 10
-28.6557362118
 20
31.3754787327
 10
-28.6541831251
 20
31.3757791404
 10
-28.6526145019
 20
31.3759820868
 10
-28.6510313546
 20
31.376089182
 10
-28.6494557977
 20
31.3760798084
 10
-28.6478873211
 20
31.3759516246
 10
-28.6463264348
 20
31.3757069721
 10
-28.6447967832
 20
31.3753322575
 10
-28.6432985585
 20
31.3748246522
 10
-28.6418315685
 20
31.3741869849
 10
-28.6404188812
 20
31.3734141488
 10
-28.6390614326
 20
31.3725033296
 10
-28.6377582866
 20
31.3714573417
 10
-28.6365297034
 20
31.3702795218
 10
-28.6353769767
 20
31.3689672782
 10
-28.6342988129
 20
31.3675232027
 10
-28.633311591
 20
31.3659584074
 10
-28.6324168394
 20
31.3642704338
 10
-28.6316130297
 20
31.3624617404
 10
-28.6309119564
 20
31.3605508157
 10
-28.630315498
 20
31.3585356325
 10
-28.629821776
 20
31.3564182179
 10
-28.6294369493
 20
31.3542231418
 10
-28.6291630709
 20
31.351958594
 10
-28.6289980878
 20
31.3496163847
 10
-28.628942
 20
31.3471965138
  0
LINE
  5
33D
100
AcDbEntity
  8
RACCORDO
100
AcDbLine
 62
253
  6
CONTINUOUS
 10
-22.8369498241
 20
31.5712498541
 11
-26.1520300546
 21
29.9860617045
  0
LINE
  5
33E
100
AcDbEntity
  8
RACCORDO
100
AcDbLine
 62
253
  6
CONTINUOUS
 10
-22.6633188845
 20
31.2705433051
 11
-25.759735684
 21
29.7899145193
  0
LINE
  5
33F
100
AcDbEntity
  8
RACCORDO
100
AcDbLine
 62
7
  6
CONTINUOUS
 10
-21.7318016707
 20
33.0176706977
 11
-28.5103144982
 21
29.8209428268
  0
LINE
  5
340
100
AcDbEntity
  8
RACCORDO
100
AcDbLine
 62
7
  6
CONTINUOUS
 10
-20.8501165245
 20
32.8166278945
 11
-5.1806035166
 21
40.0533282713
  0
LINE
  5
341
100
AcDbEntity
  8
RACCORDO
100
AcDbLine
 62
7
  6
CONTINUOUS
 10
-27.1750360964
 20
29.800751335
 11
-23.1243188651
 21
31.6715067886
  0
LINE
  5
342
100
AcDbEntity
  8
RACCORDO
100
AcDbLine
 62
253
  6
CONTINUOUS
 10
-27.0658849909
 20
29.7923784676
 11
-23.0164139749
 21
31.6625583777
  0
LINE
  5
343
100
AcDbEntity
  8
RACCORDO
100
AcDbLine
 62
253
  6
CONTINUOUS
 10
-20.3611962519
 20
32.5721677582
 11
-4.312307572
 21
39.9840763925
  0
LWPOLYLINE
  5
344
100
AcDbEntity
  8
RACCORDO
100
AcDbPolyline
 62
253
  6
CONTINUOUS
 90
15
 70
0
 10
-28.8044728106
 20
31.6166979252
 10
-28.7974153062
 20
31.6199260336
 10
-28.79015393
 20
31.6228825808
 10
-28.7827033058
 20
31.6255278667
 10
-28.7750696082
 20
31.627823958
 10
-28.7672833337
 20
31.629724521
 10
-28.7593983865
 20
31.6311815485
 10
-28.751438188
 20
31.6321577043
 10
-28.7434286172
 20
31.6326155674
 10
-28.7354281137
 20
31.6325192888
 10
-28.7274649604
 20
31.6318388812
 10
-28.7195693519
 20
31.6305453471
 10
-28.7118011683
 20
31.6286190604
 10
-28.7041914198
 20
31.6260408597
 10
-28.6962081654
 20
31.6225145717
  0
LWPOLYLINE
  5
345
100
AcDbEntity
  8
RACCORDO
100
AcDbPolyline
 62
7
  6
CONTINUOUS
 90
4
 70
0
 10
-27.1750943676
 20
29.800724414
 10
-27.1700534975
 20
29.8028789035
 10
-27.1544622926
 20
29.8075273439
 10
-27.1377691527
 20
29.8096136635
  0
LINE
  5
346
100
AcDbEntity
  8
RACCORDO
100
AcDbLine
 62
7
  6
CONTINUOUS
 10
-23.0998164831
 20
31.6818181042
 11
-23.1243574717
 21
31.6714831546
  0
LWPOLYLINE
  5
347
100
AcDbEntity
  8
RACCORDO
100
AcDbPolyline
 62
253
  6
CONTINUOUS
 90
34
 70
0
 10
-23.0164139749
 20
31.6625583777
 10
-23.0071855487
 20
31.6664073395
 10
-22.9974176529
 20
31.6697598957
 10
-22.9871102874
 20
31.6726160463
 10
-22.9761593405
 20
31.6749935016
 10
-22.964668924
 20
31.6768745514
 10
-22.9529513735
 20
31.6782060643
 10
-22.9410032814
 20
31.6789723175
 10
-22.9288280553
 20
31.679189034
 10
-22.9167482538
 20
31.6788502513
 10
-22.9047663837
 20
31.677941023
 10
-22.8928799383
 20
31.6764762956
 10
-22.8814039561
 20
31.6744949461
 10
-22.8703493916
 20
31.6719831941
 10
-22.8597052903
 20
31.66895482
 10
-22.8497538271
 20
31.6654900418
 10
-22.8405135153
 20
31.6615771781
 10
-22.8319658417
 20
31.6572279102
 10
-22.8243374409
 20
31.6525575003
 10
-22.8176529072
 20
31.6475573517
 10
-22.8118876463
 20
31.6422360611
 10
-22.8071945111
 20
31.6367346803
 10
-22.8036020937
 20
31.6310483892
 10
-22.801081802
 20
31.625182008
 10
-22.7997007127
 20
31.6192910496
 10
-22.7994895193
 20
31.6133748723
 10
-22.8004175284
 20
31.6074341177
 10
-22.802459736
 20
31.601626224
 10
-22.8056489677
 20
31.5959530765
 10
-22.8099523979
 20
31.5904127898
 10
-22.8152465467
 20
31.5851571461
 10
-22.821490254
 20
31.5802367392
 10
-22.8287246798
 20
31.5756009752
 10
-22.8369498241
 20
31.5712498541
  0
LWPOLYLINE
  5
348
100
AcDbEntity
  8
RACCORDO
100
AcDbPolyline
 62
253
  6
CONTINUOUS
 90
10
 70
0
 10
-5.1806177717
 20
40.0533216878
 10
-5.1039837273
 20
40.0837215314
 10
-5.0147237937
 20
40.107720997
 10
-4.9216056436
 20
40.1213057021
 10
-4.8251396234
 20
40.1244011278
 10
-4.7258703749
 20
40.1169891443
 10
-4.6243807237
 20
40.0991130302
 10
-4.5212459435
 20
40.0708817291
 10
-4.4170288964
 20
40.0324618584
 10
-4.312307572
 20
39.9840763925
  0
LWPOLYLINE
  5
349
100
AcDbEntity
  8
RACCORDO
100
AcDbPolyline
 62
253
  6
CONTINUOUS
 90
6
 70
0
 10
-30.9933362194
 20
32.6753206199
 10
-30.9770003381
 20
32.6806444329
 10
-30.960560943
 20
32.682299657
 10
-30.9432513448
 20
32.6807283572
 10
-30.9253675997
 20
32.6759574005
 10
-30.9072155869
 20
32.6680683799
  0
LWPOLYLINE
  5
34A
100
AcDbEntity
  8
RACCORDO
100
AcDbPolyline
 62
7
  6
CONTINUOUS
 90
16
 70
0
 10
-37.471889145
 20
-9.6423627242
 10
-37.4668326314
 20
-9.7189951945
 10
-37.4571648245
 20
-9.7922221466
 10
-37.4429322556
 20
-9.8629236585
 10
-37.4242286897
 20
-9.9309695657
 10
-37.4011651751
 20
-9.9961388654
 10
-37.3738581604
 20
-10.0582434199
 10
-37.3424431435
 20
-10.1171098873
 10
-37.307135974
 20
-10.1724451008
 10
-37.2681753848
 20
-10.2239970561
 10
-37.2258028702
 20
-10.2715947533
 10
-37.1803476518
 20
-10.3150184226
 10
-37.132146216
 20
-10.3540975418
 10
-37.0815635417
 20
-10.3886931846
 10
-37.0290608187
 20
-10.4186811816
 10
-37.0189251551
 20
-10.4238434168
  0
LWPOLYLINE
  5
34B
100
AcDbEntity
  8
RACCORDO
100
AcDbPolyline
 62
253
  6
CONTINUOUS
 90
14
 70
0
 10
-37.3254261963
 20
-9.820134639
 10
-37.3217009594
 20
-9.8819936396
 10
-37.3148284994
 20
-9.9418186647
 10
-37.3048362808
 20
-9.9993837296
 10
-37.2917653724
 20
-10.0544684296
 10
-37.2756656776
 20
-10.1068680338
 10
-37.2565942946
 20
-10.1563929661
 10
-37.2346233719
 20
-10.2028573273
 10
-37.2098375529
 20
-10.2460817242
 10
-37.1823283117
 20
-10.2859026262
 10
-37.1522021553
 20
-10.3221678843
 10
-37.1195740577
 20
-10.354740066
 10
-37.0845634442
 20
-10.3834979433
 10
-37.0480479278
 20
-10.4078363084
  0
LWPOLYLINE
  5
34C
100
AcDbEntity
  8
SUPERFICI
100
AcDbPolyline
 62
253
  6
CONTINUOUS
 90
10
 70
0
 10
-36.6006429079
 20
-8.6111616869
 10
-36.6542334766
 20
-6.8103634232
 10
-36.7015215832
 20
-5.0061602705
 10
-36.7425064074
 20
-3.1985844199
 10
-36.7771872901
 20
-1.3876587998
 10
-36.8055631856
 20
0.4265751716
 10
-36.8276330069
 20
2.2440574054
 10
-36.8433966317
 20
4.064746
 10
-36.8528545391
 20
5.8886174323
 10
-36.8560070938
 20
7.7156388959
  0
LWPOLYLINE
  5
34D
100
AcDbEntity
  8
SUPERFICI
100
AcDbPolyline
 62
253
  6
CONTINUOUS
 90
10
 70
0
 10
-36.6006429079
 20
24.2978036647
 10
-36.6542334766
 20
22.4434148323
 10
-36.7015215832
 20
20.5919235729
 10
-36.7425064074
 20
18.7433628982
 10
-36.7771872901
 20
16.8977563954
 10
-36.8055631856
 20
15.0551465284
 10
-36.8276330069
 20
13.2155944734
 10
-36.8433966317
 20
11.3791422539
 10
-36.8528545391
 20
9.5458129142
 10
-36.8560070938
 20
7.7156388959
  0
LWPOLYLINE
  5
34E
100
AcDbEntity
  8
RACCORDO
100
AcDbPolyline
 62
7
  6
CONTINUOUS
 90
10
 70
0
 10
-37.4719147262
 20
26.5122750494
 10
-37.5890701035
 20
22.490076458
 10
-37.6786964797
 20
18.4113170881
 10
-37.7384612015
 20
14.3473731819
 10
-37.7683551252
 20
10.2986452573
 10
-37.7683762475
 20
6.2654643785
 10
-37.7385239975
 20
2.2481353017
 10
-37.6787992254
 20
-1.7530125218
 10
-37.5892099212
 20
-5.7375876722
 10
-37.4718954197
 20
-9.6423326675
  0
LWPOLYLINE
  5
34F
100
AcDbEntity
  8
RACCORDO
100
AcDbPolyline
 62
253
  6
CONTINUOUS
 90
10
 70
0
 10
-37.3254261964
 20
26.3374128009
 10
-37.4440220141
 20
22.2590211576
 10
-37.532979633
 20
18.1950426812
 10
-37.5922897572
 20
14.1458279445
 10
-37.6219452232
 20
10.1117323785
 10
-37.6219452239
 20
6.0930967209
 10
-37.5922897593
 20
2.0902496237
 10
-37.5329796356
 20
-1.896468982
 10
-37.4440220162
 20
-5.8667108287
 10
-37.3254261964
 20
-9.820134639
  0
LINE
  5
350
100
AcDbEntity
  8
0
100
AcDbLine
 62
7
  6
CONTINUOUS
 10
-32.1449798519
 20
19.8891186728
 11
-32.151581431
 21
19.855910764
  0
LWPOLYLINE
  5
351
100
AcDbEntity
  8
RACCORDO
100
AcDbPolyline
 62
7
  6
CONTINUOUS
 90
3
 70
0
 10
-28.5821151647
 20
31.0075613113
 10
-28.5767492428
 20
31.0317207869
 10
-28.573604769
 20
31.0565548054
  0
LWPOLYLINE
  5
352
100
AcDbEntity
  8
0
100
AcDbPolyline
 62
253
  6
CONTINUOUS
 90
7
 70
0
 10
-32.8837465539
 20
19.856925531
 10
-32.8920455437
 20
19.8250410087
 10
-32.8988249394
 20
19.7926062292
 10
-32.9040845651
 20
19.7596210322
 10
-32.907823967
 20
19.7260854954
 10
-32.9100424114
 20
19.6919999368
 10
-32.9107388827
 20
19.6573649158
  0
LINE
  5
353
100
AcDbEntity
  8
0
100
AcDbLine
 62
7
  6
CONTINUOUS
 10
-32.135703225
 20
19.9204040385
 11
-32.1449798519
 21
19.8891186728
  0
LWPOLYLINE
  5
354
100
AcDbEntity
  8
0
100
AcDbPolyline
 62
253
  6
CONTINUOUS
 90
7
 70
0
 10
-32.3063927007
 20
19.8013478458
 10
-32.3115363495
 20
19.7848889558
 10
-32.3157681161
 20
19.7682100483
 10
-32.3190866031
 20
19.7513386178
 10
-32.3214913487
 20
19.7343025374
 10
-32.3229828172
 20
19.7171300093
 10
-32.3235623879
 20
19.6998495134
  0
LWPOLYLINE
  5
355
100
AcDbEntity
  8
0
100
AcDbPolyline
 62
253
  6
CONTINUOUS
 90
6
 70
0
 10
-32.2549599557
 20
19.9060451013
 10
-32.2673242937
 20
19.8870776489
 10
-32.2786267109
 20
19.8669541281
 10
-32.2888562125
 20
19.8459163221
 10
-32.2980981248
 20
19.8240050601
 10
-32.3063927007
 20
19.8013478458
  0
LINE
  5
356
100
AcDbEntity
  8
0
100
AcDbLine
 62
253
  6
CONTINUOUS
 10
-32.241698514
 20
19.9234814165
 11
-32.2549599557
 21
19.9060451013
  0
LINE
  5
357
100
AcDbEntity
  8
0
100
AcDbLine
 62
253
  6
CONTINUOUS
 10
-32.2275843865
 20
19.939298834
 11
-32.241698514
 21
19.9234814165
  0
LINE
  5
358
100
AcDbEntity
  8
RACCORDO
100
AcDbLine
 62
7
  6
CONTINUOUS
 10
-23.9904307614
 20
28.0646266604
 11
-21.9746892424
 21
29.7804055643
  0
LINE
  5
359
100
AcDbEntity
  8
RACCORDO
100
AcDbLine
 62
7
  6
CONTINUOUS
 10
-20.8917299441
 20
27.3581851312
 11
-19.4998155083
 21
28.5429686972
  0
LWPOLYLINE
  5
35A
100
AcDbEntity
  8
0
100
AcDbPolyline
 62
253
  6
CONTINUOUS
 90
3
 70
0
 10
-32.2111158341
 20
19.9546511412
 10
-32.2126508291
 20
19.9534383043
 10
-32.2275843865
 20
19.939298834
  0
LWPOLYLINE
  5
35B
100
AcDbEntity
  8
RACCORDO
100
AcDbPolyline
 62
7
  6
CONTINUOUS
 90
12
 70
0
 10
-23.6797775449
 20
27.8276985
 10
-23.6880118766
 20
27.8230231915
 10
-23.7072256125
 20
27.8101321634
 10
-23.7250287783
 20
27.7952421978
 10
-23.7411875601
 20
27.7785434974
 10
-23.7556352178
 20
27.7600660676
 10
-23.768162
 20
27.7399927098
 10
-23.7785778463
 20
27.7185934275
 10
-23.7868210059
 20
27.6959366264
 10
-23.7927694199
 20
27.6721593408
 10
-23.7962821844
 20
27.6475604259
 10
-23.7973099962
 20
27.6249495523
  0
LWPOLYLINE
  5
35C
100
AcDbEntity
  8
RACCORDO
100
AcDbPolyline
 62
253
  6
CONTINUOUS
 90
9
 70
0
 10
-18.3029293807
 20
30.9591089766
 10
-18.285419906
 20
30.9688112145
 10
-18.2700385935
 20
30.9793340085
 10
-18.2569539848
 20
30.9905620842
 10
-18.246309463
 20
31.0023724373
 10
-18.2382216803
 20
31.014635682
 10
-18.2327792797
 20
31.027217469
 10
-18.2300419236
 20
31.0399799583
 10
-18.2297041793
 20
31.0472426822
  0
LINE
  5
35D
100
AcDbEntity
  8
RACCORDO
100
AcDbLine
 62
7
  6
CONTINUOUS
 10
-24.6616950109
 20
27.2046428316
 11
-24.8800410483
 21
27.0854413119
  0
LINE
  5
35E
100
AcDbEntity
  8
RACCORDO
100
AcDbLine
 62
7
  6
CONTINUOUS
 10
-23.4679916772
 20
27.941961908
 11
-23.679809052
 21
27.8276815748
  0
LINE
  5
35F
100
AcDbEntity
  8
RACCORDO
100
AcDbLine
 62
253
  6
CONTINUOUS
 10
-23.3535743897
 20
27.936223167
 11
-23.5644695765
 21
27.8224828603
  0
LWPOLYLINE
  5
360
100
AcDbEntity
  8
RACCORDO
100
AcDbPolyline
 62
7
  6
CONTINUOUS
 90
14
 70
0
 10
-19.4998155083
 20
28.5429686972
 10
-19.4572366868
 20
28.5656535561
 10
-19.4178067317
 20
28.5894124774
 10
-19.381525643
 20
28.614245461
 10
-19.3482802107
 20
28.6402549024
 10
-19.3181836447
 20
28.6673384062
 10
-19.2915755757
 20
28.6951887861
 10
-19.2684949637
 20
28.723815407
 10
-19.2489028487
 20
28.753208904
 10
-19.2330219804
 20
28.783033996
 10
-19.2208949662
 20
28.8132953934
 10
-19.2124791987
 20
28.8439883858
 10
-19.2078696052
 20
28.8747635605
 10
-19.2069297027
 20
28.8964050732
  0
LINE
  5
361
100
AcDbEntity
  8
DRAFT
100
AcDbLine
 62
7
  6
CONTINUOUS
 10
-23.9796347806
 20
27.556305991
 11
-24.6616950109
 21
27.2046428316
  0
LINE
  5
362
100
AcDbEntity
  8
RACCORDO
100
AcDbLine
 62
253
  6
CONTINUOUS
 10
-25.0567499578
 20
28.5686230509
 11
-24.8384447823
 21
28.6786583633
  0
LINE
  5
363
100
AcDbEntity
  8
RACCORDO
100
AcDbLine
 62
253
  6
CONTINUOUS
 10
-24.8800410483
 20
28.2637952202
 11
-24.6616950109
 21
28.3738101017
  0
LINE
  5
364
100
AcDbEntity
  8
RACCORDO
100
AcDbLine
 62
7
  6
CONTINUOUS
 10
-23.4679979697
 20
27.9419585322
 11
-23.4627837664
 21
27.9445691134
  0
LINE
  5
365
100
AcDbEntity
  8
RACCORDO
100
AcDbLine
 62
7
  6
CONTINUOUS
 10
-19.8805495433
 20
30.5910963758
 11
-20.9617929129
 21
30.0504746909
  0
LINE
  5
366
100
AcDbEntity
  8
RACCORDO
100
AcDbLine
 62
253
  6
CONTINUOUS
 10
-24.8384447823
 20
28.6786583633
 11
-24.1852260178
 21
29.0026596861
  0
LINE
  5
367
100
AcDbEntity
  8
RACCORDO
100
AcDbLine
 62
253
  6
CONTINUOUS
 10
-24.6616950109
 20
28.3738101017
 11
-24.0039265995
 21
28.7000680829
  0
LINE
  5
368
100
AcDbEntity
  8
RACCORDO
100
AcDbLine
 62
253
  6
CONTINUOUS
 10
-17.0212395596
 20
30.2759147242
 11
-12.7785988725
 21
32.3065358898
  0
LINE
  5
369
100
AcDbEntity
  8
RACCORDO
100
AcDbLine
 62
253
  6
CONTINUOUS
 10
-16.6921727776
 20
29.9659690525
 11
-12.5701875547
 21
31.9388418587
  0
LINE
  5
36A
100
AcDbEntity
  8
RACCORDO
100
AcDbLine
 62
253
  6
CONTINUOUS
 10
-19.0069240592
 20
31.6552318919
 11
-21.2773658637
 21
30.5692252595
  0
LINE
  5
36B
100
AcDbEntity
  8
RACCORDO
100
AcDbLine
 62
253
  6
CONTINUOUS
 10
-18.8332594666
 20
31.3526195978
 11
-20.9585837517
 21
30.3360261465
  0
LINE
  5
36C
100
AcDbEntity
  8
RACCORDO
100
AcDbLine
 62
7
  6
CONTINUOUS
 10
-21.9037362565
 20
30.4344186523
 11
-22.6508748431
 21
30.0771557352
  0
LINE
  5
36D
100
AcDbEntity
  8
RACCORDO
100
AcDbLine
 62
7
  6
CONTINUOUS
 10
-22.7852722758
 20
28.2574663812
 11
-23.4627254952
 21
27.9445960344
  0
LINE
  5
36E
100
AcDbEntity
  8
RACCORDO
100
AcDbLine
 62
253
  6
CONTINUOUS
 10
-22.6771465575
 20
28.248619956
 11
-23.3535743897
 21
27.936223167
  0
LWPOLYLINE
  5
36F
100
AcDbEntity
  8
RACCORDO
100
AcDbPolyline
 62
7
  6
CONTINUOUS
 90
4
 70
0
 10
-23.4627837664
 20
27.9445691134
 10
-23.4577428962
 20
27.9467236029
 10
-23.4421516913
 20
27.9513720433
 10
-23.4254585515
 20
27.9534583629
  0
LWPOLYLINE
  5
370
100
AcDbEntity
  8
RACCORDO
100
AcDbPolyline
 62
253
  6
CONTINUOUS
 90
16
 70
0
 10
-12.7785988725
 20
32.3065358898
 10
-12.7151423761
 20
32.3336100661
 10
-12.647734655
 20
32.3568603184
 10
-12.5763757093
 20
32.3762866467
 10
-12.5002042918
 20
32.3920185784
 10
-12.4200816497
 20
32.4039265862
 10
-12.3385915243
 20
32.4116220871
 10
-12.2556837161
 20
32.4149645999
 10
-12.1714084246
 20
32.4140946059
 10
-12.0884999895
 20
32.4090449664
 10
-12.0070548211
 20
32.3997006215
 10
-11.9269765091
 20
32.3861766312
 10
-11.8507101624
 20
32.3688510363
 10
-11.7790708172
 20
32.3478498507
 10
-11.7112434373
 20
32.3230470606
 10
-11.6472280226
 20
32.2944426661
  0
LWPOLYLINE
  5
371
100
AcDbEntity
  8
RACCORDO
100
AcDbPolyline
 62
253
  6
CONTINUOUS
 90
16
 70
0
 10
-12.5701875542
 20
31.9388420853
 10
-12.5312512407
 20
31.9550839314
 10
-12.4888824829
 20
31.9692261415
 10
-12.4435509438
 20
31.9811032972
 10
-12.3957662516
 20
31.990561954
 10
-12.3460468858
 20
31.997504122
 10
-12.294911315
 20
32.0018837627
 10
-12.2429050868
 20
32.0036439469
 10
-12.190609997
 20
32.0027504239
 10
-12.1386102443
 20
31.9992328941
 10
-12.0875012218
 20
31.9931299505
 10
-12.0378121606
 20
31.9844982127
 10
-11.9900200593
 20
31.9734294549
 10
-11.9446353171
 20
31.9600307317
 10
-11.9021879916
 20
31.9444353622
 10
-11.8631562542
 20
31.9268049716
  0
LWPOLYLINE
  5
372
100
AcDbEntity
  8
RACCORDO
100
AcDbPolyline
 62
253
  6
CONTINUOUS
 90
7
 70
0
 10
-23.1188376608
 20
31.6738077133
 10
-23.1036423706
 20
31.6782789401
 10
-23.0873017726
 20
31.6802562398
 10
-23.0702187167
 20
31.6796521207
 10
-23.052580286
 20
31.6764732346
 10
-23.0345796611
 20
31.6707544318
 10
-23.0164139749
 20
31.6625583777
  0
LWPOLYLINE
  5
373
100
AcDbEntity
  8
0
100
AcDbPolyline
 62
7
  6
CONTINUOUS
 90
19
 70
0
 10
-32.1570268915
 20
-6.7173070972
 10
-32.1555971109
 20
-6.7562279119
 10
-32.151581431
 20
-6.7955930631
 10
-32.1449798519
 20
-6.8354025511
 10
-32.135703225
 20
-6.8759645436
 10
-32.1238406988
 20
-6.9169708728
 10
-32.1096597188
 20
-6.9574970345
 10
-32.0931076186
 20
-6.9975321212
 10
-32.0742370646
 20
-7.0370870403
 10
-32.0534735009
 20
-7.0752700104
 10
-32.0307739258
 20
-7.112049866
 10
-32.006181341
 20
-7.1474577727
 10
-31.9802501962
 20
-7.1806954449
 10
-31.9529500846
 20
-7.2117135832
 10
-31.924311413
 20
-7.2405614871
 10
-31.8949798519
 20
-7.2665887689
 10
-31.8651706245
 20
-7.2895786328
 10
-31.8346685075
 20
-7.3097478746
 10
-31.8034735009
 20
-7.3270964944
  0
LWPOLYLINE
  5
374
100
AcDbEntity
  8
0
100
AcDbPolyline
 62
253
  6
CONTINUOUS
 90
7
 70
0
 10
-32.3235626954
 20
-6.800613775
 10
-32.3229841041
 20
-6.8178746267
 10
-32.3214935884
 20
-6.8352468533
 10
-32.3190894789
 20
-6.8527034927
 10
-32.3157710217
 20
-6.8702169169
 10
-32.3115383911
 20
-6.8877588711
 10
-32.3063927007
 20
-6.9053005139
  0
LWPOLYLINE
  5
375
100
AcDbEntity
  8
0
100
AcDbPolyline
 62
253
  6
CONTINUOUS
 90
7
 70
0
 10
-32.9107388827
 20
-6.8466451839
 10
-32.910045087
 20
-6.8814419752
 10
-32.9078282468
 20
-6.9165024803
 10
-32.9040893785
 20
-6.9518272785
 10
-32.8988292167
 20
-6.9874167058
 10
-32.8920482162
 20
-7.0232708557
 10
-32.8837465541
 20
-7.0593895815
  0
LWPOLYLINE
  5
376
100
AcDbEntity
  8
RACCORDO
100
AcDbPolyline
 62
253
  6
CONTINUOUS
 90
19
 70
0
 10
-33.1892775526
 20
30.9515013915
 10
-33.1891322698
 20
30.9427864565
 10
-33.1886798602
 20
30.9339829729
 10
-33.1878946983
 20
30.9251215397
 10
-33.1867493361
 20
30.9162238378
 10
-33.1852192395
 20
30.9073385079
 10
-33.1832876239
 20
30.8985377603
 10
-33.1809342806
 20
30.8898598523
 10
-33.1781399617
 20
30.8813456889
 10
-33.1748992452
 20
30.8730676968
 10
-33.1711996819
 20
30.8650661172
 10
-33.1670303873
 20
30.8573827877
 10
-33.1623993021
 20
30.8500855396
 10
-33.1573034236
 20
30.8432128491
 10
-33.1517415386
 20
30.8368034126
 10
-33.1457355722
 20
30.8309150878
 10
-33.1392926218
 20
30.825580568
 10
-33.1324213199
 20
30.8208314455
 10
-33.1245359962
 20
30.8163975945
  0
LWPOLYLINE
  5
377
100
AcDbEntity
  8
RACCORDO
100
AcDbPolyline
 62
7
  6
CONTINUOUS
 90
9
 70
0
 10
-33.2478561804
 20
31.0221798442
 10
-33.2478225008
 20
31.018080902
 10
-33.2459819622
 20
30.9916154761
 10
-33.2413262222
 20
30.9656809692
 10
-33.2339098992
 20
30.9406538982
 10
-33.2239049601
 20
30.9169777857
 10
-33.2114369752
 20
30.8948061499
 10
-33.1966122776
 20
30.8742789181
 10
-33.1796923857
 20
30.8557212022
  0
LINE
  5
378
100
AcDbEntity
  8
0
100
AcDbLine
 62
253
  6
CONTINUOUS
 10
-32.3363188203
 20
-2.4762042285
 11
-32.3235640257
 21
-6.800614439
  0
LINE
  5
379
100
AcDbEntity
  8
0
100
AcDbLine
 62
253
  6
CONTINUOUS
 10
-32.9107388827
 20
19.6573649158
 11
-32.9002969382
 21
13.8497720219
  0
LINE
  5
37A
100
AcDbEntity
  8
0
100
AcDbLine
 62
253
  6
CONTINUOUS
 10
-32.3441073263
 20
1.9366497067
 11
-32.3363188203
 21
-2.4762042285
  0
LINE
  5
37B
100
AcDbEntity
  8
0
100
AcDbLine
 62
253
  6
CONTINUOUS
 10
-32.9002969382
 20
13.8497720219
 11
-32.8957793107
 21
9.3979992441
  0
LINE
  5
37C
100
AcDbEntity
  8
0
100
AcDbLine
 62
253
  6
CONTINUOUS
 10
-32.3470970637
 20
6.4378464946
 11
-32.3441073263
 21
1.9366497067
  0
LINE
  5
37D
100
AcDbEntity
  8
RACCORDO
100
AcDbLine
 62
7
  6
CONTINUOUS
 10
-33.2478561966
 20
31.339479653
 11
-33.2478561966
 21
31.0222108526
  0
LINE
  5
37E
100
AcDbEntity
  8
RACCORDO
100
AcDbLine
 62
253
  6
CONTINUOUS
 10
-33.1892775529
 20
31.2687689749
 11
-33.1892775529
 21
30.9515013916
  0
LINE
  5
37F
100
AcDbEntity
  8
RACCORDO
100
AcDbLine
 62
7
  6
CONTINUOUS
 10
-32.5329930762
 20
30.0666789824
 11
-32.5329930762
 21
30.5206261343
  0
LINE
  5
380
100
AcDbEntity
  8
RACCORDO
100
AcDbLine
 62
253
  6
CONTINUOUS
 10
-32.4597697715
 20
29.9749403378
 11
-32.4597697715
 21
30.484014482
  0
LINE
  5
381
100
AcDbEntity
  8
RACCORDO
100
AcDbLine
 62
7
  6
CONTINUOUS
 10
-32.3270323393
 20
30.4196943403
 11
-32.3270323393
 21
29.2112752651
  0
LINE
  5
382
100
AcDbEntity
  8
RACCORDO
100
AcDbLine
 62
253
  6
CONTINUOUS
 10
-32.2538090346
 20
30.4837659154
 11
-32.2538090346
 21
29.1194667199
  0
LINE
  5
383
100
AcDbEntity
  8
0
100
AcDbLine
 62
7
  6
CONTINUOUS
 10
-32.1570268915
 20
19.7830702586
 11
-32.1570268915
 21
-6.7173070972
  0
LINE
  5
384
100
AcDbEntity
  8
RACCORDO
100
AcDbLine
 62
253
  6
CONTINUOUS
 10
-32.0602447485
 20
30.3869837723
 11
-32.0602447485
 21
29.0226845769
  0
LINE
  5
385
100
AcDbEntity
  8
RACCORDO
100
AcDbLine
 62
253
  6
CONTINUOUS
 10
-31.7098034606
 20
30.1090313265
 11
-31.7098034606
 21
29.0323040407
  0
LINE
  5
386
100
AcDbEntity
  8
DRAFT
100
AcDbLine
 62
7
  6
CONTINUOUS
 10
-31.1670773979
 20
29.328594151
 11
-31.1670773979
 21
29.8376682951
  0
LINE
  5
387
100
AcDbEntity
  8
RACCORDO
100
AcDbLine
 62
253
  6
CONTINUOUS
 10
-31.1247762302
 20
29.9192495132
 11
-31.1247762302
 21
30.2365194873
  0
LINE
  5
388
100
AcDbEntity
  8
RACCORDO
100
AcDbLine
 62
253
  6
CONTINUOUS
 10
-30.8444231998
 20
29.9180262113
 11
-30.8444231998
 21
30.2352950116
  0
LINE
  5
389
100
AcDbEntity
  8
0
100
AcDbLine
 62
253
  6
CONTINUOUS
 10
-32.8957793107
 20
9.3979992441
 11
-32.8950541207
 21
4.8739893745
  0
LINE
  5
38A
100
AcDbEntity
  8
0
100
AcDbLine
 62
253
  6
CONTINUOUS
 10
-32.8950541207
 20
4.8739893745
 11
-32.8984077896
 21
0.4033784955
  0
LINE
  5
38B
100
AcDbEntity
  8
0
100
AcDbLine
 62
253
  6
CONTINUOUS
 10
-32.3420488145
 20
12.425989452
 11
-32.3470970637
 21
6.4378464946
  0
LINE
  5
38C
100
AcDbEntity
  8
0
100
AcDbLine
 62
253
  6
CONTINUOUS
 10
-32.8984077896
 20
0.4033784955
 11
-32.9050076895
 21
-3.9768841948
  0
LINE
  5
38D
100
AcDbEntity
  8
0
100
AcDbLine
 62
253
  6
CONTINUOUS
 10
-32.9050076895
 20
-3.9768841948
 11
-32.9107388827
 21
-6.8466451839
  0
LINE
  5
38E
100
AcDbEntity
  8
0
100
AcDbLine
 62
253
  6
CONTINUOUS
 10
-32.3326170544
 20
16.818464945
 11
-32.3420488145
 21
12.425989452
  0
LINE
  5
38F
100
AcDbEntity
  8
0
100
AcDbLine
 62
253
  6
CONTINUOUS
 10
-32.3235640015
 20
19.6998487092
 11
-32.3326170544
 21
16.818464945
  0
LWPOLYLINE
  5
390
100
AcDbEntity
  8
RACCORDO
100
AcDbPolyline
 62
253
  6
CONTINUOUS
 90
31
 70
0
 10
-30.8444231998
 20
30.2352950116
 10
-30.8444033214
 20
30.2370476537
 10
-30.8443111213
 20
30.2388786262
 10
-30.8441465998
 20
30.240787929
 10
-30.843914183
 20
30.2427812595
 10
-30.8436094447
 20
30.2448529203
 10
-30.8432191058
 20
30.2469858196
 10
-30.8427414117
 20
30.2491821041
 10
-30.8421781171
 20
30.2514396272
 10
-30.8415212072
 20
30.2537348565
 10
-30.840768527
 20
30.2560695139
 10
-30.8399222314
 20
30.2584418777
 10
-30.8389807715
 20
30.2608232498
 10
-30.8379418763
 20
30.2632145348
 10
-30.8368078167
 20
30.2656148282
 10
-30.8355838556
 20
30.2679927187
 10
-30.8342680407
 20
30.270348023
 10
-30.8328623242
 20
30.2726809244
 10
-30.8313778259
 20
30.2749605619
 10
-30.829812926
 20
30.2771861386
 10
-30.8281692442
 20
30.2793584514
 10
-30.8264627594
 20
30.2814490302
 10
-30.8246920592
 20
30.2834566815
 10
-30.8228585559
 20
30.2853825988
 10
-30.8209824656
 20
30.2872018934
 10
-30.8190628788
 20
30.2889126816
 10
-30.817100705
 20
30.2905168469
 10
-30.8151188894
 20
30.2919951512
 10
-30.8131250804
 20
30.2933411815
 10
-30.8111116297
 20
30.2945613507
 10
-30.8090785372
 20
30.2956556588
  0
LWPOLYLINE
  5
391
100
AcDbEntity
  8
RACCORDO
100
AcDbPolyline
 62
253
  6
CONTINUOUS
 90
31
 70
0
 10
-31.1247762299
 20
30.2365194872
 10
-31.1246337776
 20
30.2452687769
 10
-31.1241882551
 20
30.2544252783
 10
-31.1234129659
 20
30.2639849968
 10
-31.1222793402
 20
30.2739554802
 10
-31.1207614816
 20
30.2843126585
 10
-31.1188413023
 20
30.2949992876
 10
-31.1164974275
 20
30.3059978143
 10
-31.1137094638
 20
30.3172871782
 10
-31.1104711556
 20
30.3287984324
 10
-31.1067690281
 20
30.3405039316
 10
-31.1025912505
 20
30.3523728828
 10
-31.0979455087
 20
30.3643273841
 10
-31.0928282402
 20
30.3763312631
 10
-31.0872373717
 20
30.388347336
 10
-31.0811944287
 20
30.4002950211
 10
-31.0747068782
 20
30.4121322497
 10
-31.0677819797
 20
30.4238200287
 10
-31.0604512107
 20
30.4352843876
 10
-31.0527309559
 20
30.4464832044
 10
-31.0446374566
 20
30.4573771679
 10
-31.0362100448
 20
30.4679011442
 10
-31.027471419
 20
30.4780173236
 10
-31.0184459019
 20
30.4876884328
 10
-31.0091813388
 20
30.4968573594
 10
-30.9997059674
 20
30.5054925837
 10
-30.990049096
 20
30.5135639143
 10
-30.9802642485
 20
30.5210261135
 10
-30.9703907012
 20
30.5278517954
 10
-30.9604521952
 20
30.5340268515
 10
-30.9504802839
 20
30.5395332689
  0
LWPOLYLINE
  5
392
100
AcDbEntity
  8
0
100
AcDbPolyline
 62
7
  6
CONTINUOUS
 90
3
 70
0
 10
-32.151581431
 20
19.855910764
 10
-32.1555971109
 20
19.8205612926
 10
-32.1570268915
 20
19.7830702586
  0
LWPOLYLINE
  5
393
100
AcDbEntity
  8
RACCORDO
100
AcDbPolyline
 62
253
  6
CONTINUOUS
 90
7
 70
0
 10
-28.5728099601
 20
31.4166623509
 10
-28.5742654894
 20
31.4046197894
 10
-28.5790355862
 20
31.3919060788
 10
-28.5870480495
 20
31.3796066071
 10
-28.5981688091
 20
31.3679271778
 10
-28.6122117849
 20
31.3570632189
 10
-28.628942
 20
31.3471965138
  0
LWPOLYLINE
  5
394
100
AcDbEntity
  8
RACCORDO
100
AcDbPolyline
 62
253
  6
CONTINUOUS
 90
7
 70
0
 10
-28.5728099601
 20
31.076718756
 10
-28.5742654903
 20
31.0646761907
 10
-28.579035588
 20
31.0519624805
 10
-28.5870480517
 20
31.0396630095
 10
-28.5981688113
 20
31.027983581
 10
-28.6122117863
 20
31.0171196231
 10
-28.628942
 20
31.007252919
  0
LWPOLYLINE
  5
395
100
AcDbEntity
  8
RACCORDO
100
AcDbPolyline
 62
253
  6
CONTINUOUS
 90
18
 70
0
 10
-20.5305997879
 20
25.1866244479
 10
-20.5379928424
 20
25.1758801555
 10
-20.5451328987
 20
25.1647241833
 10
-20.5519894657
 20
25.1531830876
 10
-20.55853495
 20
25.1412809292
 10
-20.5647249981
 20
25.1290785832
 10
-20.5705334584
 20
25.1166098163
 10
-20.57593566
 20
25.103908315
 10
-20.5808964612
 20
25.0910405341
 10
-20.5853956737
 20
25.0780450367
 10
-20.5894141648
 20
25.0649615978
 10
-20.5929267662
 20
25.0518612617
 10
-20.5959207088
 20
25.0387852566
 10
-20.5983847679
 20
25.0257747765
 10
-20.6003056577
 20
25.0129005256
 10
-20.6016784337
 20
25.0002121271
 10
-20.6025023739
 20
24.9877387641
 10
-20.6027768477
 20
24.9755186223
  0
LWPOLYLINE
  5
396
100
AcDbEntity
  8
RACCORDO
100
AcDbPolyline
 62
253
  6
CONTINUOUS
 90
4
 70
0
 10
-17.1491421089
 20
30.1944537181
 10
-17.1270967782
 20
30.2128856704
 10
-17.0780482218
 20
30.2454023534
 10
-17.0212395596
 20
30.2759147242
  0
LWPOLYLINE
  5
397
100
AcDbEntity
  8
RACCORDO
100
AcDbPolyline
 62
7
  6
CONTINUOUS
 90
9
 70
0
 10
-19.6932315192
 20
24.1710530556
 10
-19.7044591733
 20
24.1624375142
 10
-19.7143405024
 20
24.1543926724
 10
-19.7227994494
 20
24.1469890298
 10
-19.7297846044
 20
24.1405403566
 10
-19.7351370986
 20
24.134935121
 10
-19.7387258514
 20
24.1301662087
 10
-19.7404230598
 20
24.1267051578
 10
-19.7405314531
 20
24.1259559907
  0
LINE
  5
398
100
AcDbEntity
  8
RACCORDO
100
AcDbLine
 62
7
  6
CONTINUOUS
 10
-19.6673083294
 20
24.1905155628
 11
-19.6932315192
 21
24.1710530556
  0
LWPOLYLINE
  5
399
100
AcDbEntity
  8
RACCORDO
100
AcDbPolyline
 62
7
  6
CONTINUOUS
 90
9
 70
0
 10
-16.5879269657
 20
28.2776786286
 10
-16.5895821752
 20
28.2766423962
 10
-16.5936902059
 20
28.2719596717
 10
-16.5978535017
 20
28.2643066503
 10
-16.6019493472
 20
28.2534681849
 10
-16.605808127
 20
28.2396706729
 10
-16.6091525878
 20
28.2237595955
 10
-16.6118223437
 20
28.2060222757
 10
-16.6137972841
 20
28.1861852654
  0
LWPOLYLINE
  5
39A
100
AcDbEntity
  8
RACCORDO
100
AcDbPolyline
 62
7
  6
CONTINUOUS
 90
12
 70
0
 10
-20.5220909622
 20
25.2832648878
 10
-20.5335648963
 20
25.2766701616
 10
-20.5558304687
 20
25.2613199977
 10
-20.5766959643
 20
25.2433288625
 10
-20.5958546674
 20
25.2228948163
 10
-20.6126014953
 20
25.2008852598
 10
-20.6272407693
 20
25.1770272545
 10
-20.6396983526
 20
25.1512368588
 10
-20.6493269607
 20
25.1248062757
 10
-20.6561311379
 20
25.0980621864
 10
-20.6602274978
 20
25.0702601202
 10
-20.6613553842
 20
25.0461991008
  0
LWPOLYLINE
  5
39B
100
AcDbEntity
  8
RACCORDO
100
AcDbPolyline
 62
253
  6
CONTINUOUS
 90
13
 70
0
 10
-11.6472280226
 20
32.2944426661
 10
-11.67525079
 20
32.2787577219
 10
-11.7028481408
 20
32.2587708817
 10
-11.7295373404
 20
32.2348317566
 10
-11.7548515398
 20
32.2073590911
 10
-11.7783479416
 20
32.1768334388
 10
-11.7996155453
 20
32.1437887562
 10
-11.8182823371
 20
32.108803063
 10
-11.8340217961
 20
32.0724883309
 10
-11.8465586064
 20
32.0354797792
 10
-11.8556734733
 20
31.9984247637
 10
-11.861206959
 20
31.961971453
 10
-11.8630622715
 20
31.9267574905
  0
LWPOLYLINE
  5
39C
100
AcDbEntity
  8
RACCORDO
100
AcDbPolyline
 62
253
  6
CONTINUOUS
 90
9
 70
0
 10
-17.0388110983
 20
28.457328128
 10
-17.0152266263
 20
28.4703242912
 10
-16.9942821415
 20
28.4844081959
 10
-16.976166438
 20
28.4994537603
 10
-16.9610424363
 20
28.5153260448
 10
-16.9490481541
 20
28.5318826494
 10
-16.9402937687
 20
28.548974648
 10
-16.9348580083
 20
28.5664469624
 10
-16.932770024
 20
28.5855463132
  0
LWPOLYLINE
  5
39D
100
AcDbEntity
  8
RACCORDO
100
AcDbPolyline
 62
253
  6
CONTINUOUS
 90
14
 70
0
 10
-20.4296903053
 20
25.2791416634
 10
-20.4368650926
 20
25.2751953291
 10
-20.4442330761
 20
25.2707669722
 10
-20.4517791154
 20
25.2658328857
 10
-20.4594964054
 20
25.26036264
 10
-20.4673542216
 20
25.2543420989
 10
-20.475298857
 20
25.2477791814
 10
-20.4833066641
 20
25.240661599
 10
-20.4913516919
 20
25.2329794884
 10
-20.4993761005
 20
25.2247574702
 10
-20.5073517277
 20
25.2159954362
 10
-20.5152487097
 20
25.2066960864
 10
-20.5230082579
 20
25.1969013253
 10
-20.5305997879
 20
25.1866244479
  0
LWPOLYLINE
  5
39E
100
AcDbEntity
  8
RACCORDO
100
AcDbPolyline
 62
253
  6
CONTINUOUS
 90
34
 70
0
 10
-17.215605477
 20
28.7621541287
 10
-17.2075132647
 20
28.7666022974
 10
-17.2004320245
 20
28.7713210989
 10
-17.1943617563
 20
28.7763105332
 10
-17.1892665151
 20
28.7816200236
 10
-17.185182246
 20
28.7872001469
 10
-17.1822167843
 20
28.7929026333
 10
-17.1804000067
 20
28.7987306071
 10
-17.1797020366
 20
28.804680944
 10
-17.1801410797
 20
28.8105960016
 10
-17.1817475842
 20
28.8164748164
 10
-17.1844911018
 20
28.822318352
 10
-17.1882984931
 20
28.8279718556
 10
-17.1931980957
 20
28.8334302325
 10
-17.1991615719
 20
28.8386985775
 10
-17.2060307699
 20
28.8436374227
 10
-17.2138298518
 20
28.8482379599
 10
-17.2225346553
 20
28.8525089974
 10
-17.2319145419
 20
28.8563374917
 10
-17.2419875212
 20
28.8597116145
 10
-17.2527355835
 20
28.8626431941
 10
-17.2638740607
 20
28.8650546725
 10
-17.2754133551
 20
28.8669322116
 10
-17.2873430643
 20
28.8682896495
 10
-17.2993473133
 20
28.8690909427
 10
-17.3114280549
 20
28.8693211227
 10
-17.3235833363
 20
28.868995158
 10
-17.3354914228
 20
28.8681219103
 10
-17.3471492913
 20
28.8666853171
 10
-17.3585599649
 20
28.8647014409
 10
-17.369410779
 20
28.8622273303
 10
-17.3795975119
 20
28.8592820017
 10
-17.3892243854
 20
28.8558464388
 10
-17.3982913992
 20
28.8519206417
  0
LINE
  5
39F
100
AcDbEntity
  8
RACCORDO
100
AcDbLine
 62
7
  6
CONTINUOUS
 10
-20.9493844097
 20
25.348487531
 11
-21.1677304471
 21
25.2292860112
  0
LINE
  5
3A0
100
AcDbEntity
  8
RACCORDO
100
AcDbLine
 62
7
  6
CONTINUOUS
 10
-18.9549747744
 20
26.1287601391
 11
-20.5221883116
 21
25.2832124812
  0
LINE
  5
3A1
100
AcDbEntity
  8
RACCORDO
100
AcDbLine
 62
253
  6
CONTINUOUS
 10
-18.8634409444
 20
26.1241691463
 11
-20.4296903247
 21
25.2791416731
  0
LINE
  5
3A2
100
AcDbEntity
  8
RACCORDO
100
AcDbLine
 62
253
  6
CONTINUOUS
 10
-21.3444393566
 20
26.7124677503
 11
-21.1261341811
 21
26.8225030627
  0
LINE
  5
3A3
100
AcDbEntity
  8
RACCORDO
100
AcDbLine
 62
253
  6
CONTINUOUS
 10
-21.1677304471
 20
26.4076399195
 11
-20.9493844097
 21
26.5176548011
  0
LINE
  5
3A4
100
AcDbEntity
  8
RACCORDO
100
AcDbLine
 62
7
  6
CONTINUOUS
 10
-18.9549798084
 20
26.1287574384
 11
-18.9508084457
 21
26.1308459033
  0
LINE
  5
3A5
100
AcDbEntity
  8
0
100
AcDbLine
 62
253
  6
CONTINUOUS
 10
-32.3235640015
 20
19.6998487092
 11
-32.1570268915
 21
19.7830702586
  0
LINE
  5
3A6
100
AcDbEntity
  8
RACCORDO
100
AcDbLine
 62
253
  6
CONTINUOUS
 10
-21.1261341811
 20
26.8225030627
 11
-17.215605477
 21
28.7621541287
  0
LINE
  5
3A7
100
AcDbEntity
  8
RACCORDO
100
AcDbLine
 62
253
  6
CONTINUOUS
 10
-20.9493844097
 20
26.5176548011
 11
-17.0388110957
 21
28.4573279939
  0
LINE
  5
3A8
100
AcDbEntity
  8
RACCORDO
100
AcDbLine
 62
7
  6
CONTINUOUS
 10
-20.9493844097
 20
25.348487531
 11
-17.0510224693
 21
27.2821037926
  0
LINE
  5
3A9
100
AcDbEntity
  8
RACCORDO
100
AcDbLine
 62
7
  6
CONTINUOUS
 10
-17.5093888064
 20
28.8593672198
 11
-20.7723094779
 21
27.2962014162
  0
LINE
  5
3AA
100
AcDbEntity
  8
RACCORDO
100
AcDbLine
 62
253
  6
CONTINUOUS
 10
-17.3982913992
 20
28.8519206417
 11
-20.7103425207
 21
27.2652179376
  0
LINE
  5
3AB
100
AcDbEntity
  8
RACCORDO
100
AcDbLine
 62
7
  6
CONTINUOUS
 10
-16.9370641779
 20
27.8848503156
 11
-16.8694159702
 21
27.9172585092
  0
LINE
  5
3AC
100
AcDbEntity
  8
RACCORDO
100
AcDbLine
 62
7
  6
CONTINUOUS
 10
-16.5889526551
 20
28.2771332411
 11
-14.4222413185
 21
29.314815188
  0
LINE
  5
3AD
100
AcDbEntity
  8
RACCORDO
100
AcDbLine
 62
253
  6
CONTINUOUS
 10
-16.5802299907
 20
28.220657323
 11
-14.311171278
 21
29.3073555014
  0
LINE
  5
3AE
100
AcDbEntity
  8
RACCORDO
100
AcDbLine
 62
7
  6
CONTINUOUS
 10
-12.7809060896
 20
31.2709915139
 11
-16.0230871013
 21
29.7192123578
  0
LINE
  5
3AF
100
AcDbEntity
  8
RACCORDO
100
AcDbLine
 62
253
  6
CONTINUOUS
 10
-12.7785988725
 20
31.1993514873
 11
-15.8898687097
 21
29.7102292992
  0
LINE
  5
3B0
100
AcDbEntity
  8
RACCORDO
100
AcDbLine
 62
253
  6
CONTINUOUS
 10
-11.4315364305
 20
28.1073378475
 11
-8.9602222541
 21
29.2901631781
  0
LINE
  5
3B1
100
AcDbEntity
  8
RACCORDO
100
AcDbLine
 62
7
  6
CONTINUOUS
 10
-18.4070387667
 20
26.3819767686
 11
-18.9507618288
 21
26.1308674402
  0
LINE
  5
3B2
100
AcDbEntity
  8
RACCORDO
100
AcDbLine
 62
253
  6
CONTINUOUS
 10
-18.3207148817
 20
26.3748180273
 11
-18.8634409444
 21
26.1241691463
  0
LWPOLYLINE
  5
3B3
100
AcDbEntity
  8
RACCORDO
100
AcDbPolyline
 62
7
  6
CONTINUOUS
 90
4
 70
0
 10
-16.0233293868
 20
29.7190969956
 10
-16.0450287353
 20
29.7093315959
 10
-16.0846118165
 20
29.694116087
 10
-16.1238772032
 20
29.6818212653
  0
LWPOLYLINE
  5
3B4
100
AcDbEntity
  8
0
100
AcDbPolyline
 62
253
  6
CONTINUOUS
 90
13
 70
0
 10
-32.3235641399
 20
19.6998016344
 10
-32.3629409271
 20
19.6822973642
 10
-32.4058421448
 20
19.6669725362
 10
-32.4517865275
 20
19.6539990642
 10
-32.5002586715
 20
19.6435224845
 10
-32.5507148168
 20
19.6356603233
 10
-32.6025889467
 20
19.6305007782
 10
-32.6552991377
 20
19.6281017291
 10
-32.7082540873
 20
19.6284900883
 10
-32.7608597473
 20
19.6316614994
 10
-32.8125259878
 20
19.6375803853
 10
-32.8626732174
 20
19.6461803482
 10
-32.910738885
 20
19.6573649137
  0
LWPOLYLINE
  5
3B5
100
AcDbEntity
  8
RACCORDO
100
AcDbPolyline
 62
253
  6
CONTINUOUS
 90
10
 70
0
 10
-14.311171278
 20
29.3073555014
 10
-14.2655032525
 20
29.3274297914
 10
-14.220115904
 20
29.3437876107
 10
-14.1751995643
 20
29.3563605765
 10
-14.1309435471
 20
29.3650966097
 10
-14.0875329785
 20
29.3699590269
 10
-14.0451480251
 20
29.3709266676
 10
-14.0039675096
 20
29.3679960931
 10
-13.9641645313
 20
29.361179831
 10
-13.9259033683
 20
29.3505051654
  0
LINE
  5
3B6
100
AcDbEntity
  8
RACCORDO
100
AcDbLine
 62
7
  6
CONTINUOUS
 10
-17.4837199511
 20
28.8705309256
 11
-17.509372321
 21
28.8593677386
  0
LWPOLYLINE
  5
3B7
100
AcDbEntity
  8
RACCORDO
100
AcDbPolyline
 62
253
  6
CONTINUOUS
 90
8
 70
0
 10
-14.4221998104
 20
29.3148350549
 10
-14.414686981
 20
29.3180456205
 10
-14.399100405
 20
29.322512848
 10
-14.3826046834
 20
29.3244817188
 10
-14.3653765847
 20
29.3239311066
 10
-14.3476007101
 20
29.3208668939
 10
-14.3294675104
 20
29.3153218939
 10
-14.3111712781
 20
29.3073555013
  0
LWPOLYLINE
  5
3B8
100
AcDbEntity
  8
RACCORDO
100
AcDbPolyline
 62
7
  6
CONTINUOUS
 90
5
 70
0
 10
-18.9508084457
 20
26.1308459033
 10
-18.9467757496
 20
26.132569495
 10
-18.9343027857
 20
26.1362882473
 10
-18.9209482738
 20
26.137957303
 10
-18.9070074949
 20
26.1375293299
  0
LWPOLYLINE
  5
3B9
100
AcDbEntity
  8
RACCORDO
100
AcDbPolyline
 62
253
  6
CONTINUOUS
 90
4
 70
0
 10
-15.8898687097
 20
29.7102292992
 10
-15.9535304908
 20
29.6830902413
 10
-16.0211016139
 20
29.65979842
 10
-16.0591378046
 20
29.649451566
  0
LWPOLYLINE
  5
3BA
100
AcDbEntity
  8
0
100
AcDbPolyline
 62
253
  6
CONTINUOUS
 90
19
 70
0
 10
-32.3063927007
 20
-6.9053005139
 10
-32.2980931564
 20
-6.9304366091
 10
-32.2888443088
 20
-6.9563615219
 10
-32.2786054515
 20
-6.9829878499
 10
-32.2672897603
 20
-7.0103574898
 10
-32.2549086643
 20
-7.0382196363
 10
-32.241630484
 20
-7.0660411665
 10
-32.2275025453
 20
-7.0936817725
 10
-32.2125567768
 20
-7.1210571905
 10
-32.1970350376
 20
-7.1477464696
 10
-32.1810147847
 20
-7.1736688616
 10
-32.1645859829
 20
-7.1987416358
 10
-32.1480782882
 20
-7.2226027263
 10
-32.1316525596
 20
-7.2451565078
 10
-32.1153632306
 20
-7.2664663012
 10
-32.0994088459
 20
-7.2864689666
 10
-32.083917472
 20
-7.3051662526
 10
-32.0689393215
 20
-7.3226111502
 10
-32.0545500773
 20
-7.3388431932
  0
LWPOLYLINE
  5
3BB
100
AcDbEntity
  8
0
100
AcDbPolyline
 62
253
  6
CONTINUOUS
 90
19
 70
0
 10
-32.8837617349
 20
-7.0593873786
 10
-32.8767998764
 20
-7.0999284177
 10
-32.8674639325
 20
-7.142499228
 10
-32.8556792764
 20
-7.1868311327
 10
-32.84128088
 20
-7.2328250262
 10
-32.824253091
 20
-7.2799498056
 10
-32.8049255296
 20
-7.3272504875
 10
-32.7835116598
 20
-7.3743363395
 10
-32.7601023609
 20
-7.420866978
 10
-32.7350901513
 20
-7.4660017707
 10
-32.7087390161
 20
-7.509520999
 10
-32.6813037122
 20
-7.5510899768
 10
-32.6533218523
 20
-7.5898463851
 10
-32.6252296212
 20
-7.6256378082
 10
-32.5972067198
 20
-7.6584306752
 10
-32.5695027907
 20
-7.687777472
 10
-32.5423946317
 20
-7.7136385918
 10
-32.5161376917
 20
-7.7362987068
 10
-32.4909338922
 20
-7.7559016471
  0
LWPOLYLINE
  5
3BC
100
AcDbEntity
  8
RACCORDO
100
AcDbPolyline
 62
7
  6
CONTINUOUS
 90
16
 70
0
 10
-29.1871784105
 20
31.1128591786
 10
-29.1879377511
 20
31.1312166243
 10
-29.1902332277
 20
31.1502153842
 10
-29.1940558361
 20
31.1696558007
 10
-29.1994011445
 20
31.189402779
 10
-29.2062146393
 20
31.2091652429
 10
-29.2143408463
 20
31.2285042718
 10
-29.2235788136
 20
31.247056636
 10
-29.2338667781
 20
31.2648007499
 10
-29.2452434224
 20
31.2818033313
 10
-29.2577163863
 20
31.2979926168
 10
-29.2710708981
 20
31.313014819
 10
-29.285011677
 20
31.3265314209
 10
-29.2993235687
 20
31.3383683902
 10
-29.313898701
 20
31.3484671267
 10
-29.3285782276
 20
31.3567377879
  0
LWPOLYLINE
  5
3BD
100
AcDbEntity
  8
RACCORDO
100
AcDbPolyline
 62
7
  6
CONTINUOUS
 90
13
 70
0
 10
-28.5728100001
 20
31.4167021546
 10
-28.5728834976
 20
31.4227661526
 10
-28.5747771699
 20
31.4479958915
 10
-28.5792373262
 20
31.4727569636
 10
-28.58620924
 20
31.4966753163
 10
-28.5955290781
 20
31.5193427347
 10
-28.6070919838
 20
31.5406566761
 10
-28.6208295614
 20
31.560530429
 10
-28.6365395637
 20
31.5786867402
 10
-28.6539929465
 20
31.5949132134
 10
-28.6730876509
 20
31.6091366948
 10
-28.6935490841
 20
31.621162991
 10
-28.6961892006
 20
31.6225047055
  0
LINE
  5
3BE
100
AcDbEntity
  8
RACCORDO
100
AcDbLine
 62
253
  6
CONTINUOUS
 10
-30.4400704491
 20
28.9650906766
 11
-30.4400704491
 21
29.6452619649
  0
LINE
  5
3BF
100
AcDbEntity
  8
RACCORDO
100
AcDbLine
 62
253
  6
CONTINUOUS
 10
-30.0896291612
 20
29.7329105866
 11
-30.0896291612
 21
28.9747101405
  0
LINE
  5
3C0
100
AcDbEntity
  8
RACCORDO
100
AcDbLine
 62
7
  6
CONTINUOUS
 10
-29.1871784105
 20
29.4673845314
 11
-29.1871784105
 21
31.1128591786
  0
LINE
  5
3C1
100
AcDbEntity
  8
RACCORDO
100
AcDbLine
 62
253
  6
CONTINUOUS
 10
-28.628942
 20
31.3471965138
 11
-28.628942
 21
31.007252919
  0
LINE
  5
3C2
100
AcDbEntity
  8
RACCORDO
100
AcDbLine
 62
7
  6
CONTINUOUS
 10
-28.5728099759
 20
31.4167021546
 11
-28.5728099601
 21
31.0767187561
  0
LINE
  5
3C3
100
AcDbEntity
  8
RACCORDO
100
AcDbLine
 62
7
  6
CONTINUOUS
 10
-27.5096211195
 20
29.4810533987
 11
-27.5096211195
 21
28.2965167755
  0
LINE
  5
3C4
100
AcDbEntity
  8
RACCORDO
100
AcDbLine
 62
253
  6
CONTINUOUS
 10
-27.4510424757
 20
29.4103427206
 11
-27.4510424757
 21
28.2230699393
  0
LWPOLYLINE
  5
3C5
100
AcDbEntity
  8
RACCORDO
100
AcDbPolyline
 62
253
  6
CONTINUOUS
 90
22
 70
0
 10
-28.628942
 20
31.007252919
 10
-28.628961126
 20
31.0055020266
 10
-28.6290499712
 20
31.0036715084
 10
-28.6292085358
 20
31.0017613644
 10
-28.6294325065
 20
30.9997660946
 10
-28.6297261965
 20
30.997691199
 10
-28.6301025451
 20
30.9955531773
 10
-28.6305632035
 20
30.9933498369
 10
-28.6311065205
 20
30.9910833703
 10
-28.6317404821
 20
30.9887768555
 10
-28.6324671451
 20
30.986428479
 10
-28.6332844528
 20
30.9840400542
 10
-28.6341942206
 20
30.981640099
 10
-28.6351987014
 20
30.9792274951
 10
-28.6362956423
 20
30.9768033608
 10
-28.6374801009
 20
30.974399569
 10
-28.6387542716
 20
30.9720159273
 10
-28.64011596
 20
30.9696526282
 10
-28.6415536401
 20
30.9673421211
 10
-28.6430634699
 20
30.9650952226
 10
-28.6446492915
 20
30.9629011162
 10
-28.6463111047
 20
30.9607598018
  0
LINE
  5
3C6
100
AcDbEntity
  8
RACCORDO
100
AcDbLine
 62
7
  6
CONTINUOUS
 10
-28.573604769
 20
31.0565548054
 11
-28.5728099835
 21
31.0767361416
  0
LWPOLYLINE
  5
3C7
100
AcDbEntity
  8
RACCORDO
100
AcDbPolyline
 62
253
  6
CONTINUOUS
 90
13
 70
0
 10
-27.4156925215
 20
29.4359624187
 10
-27.4145093495
 20
29.4589118929
 10
-27.4109796371
 20
29.4826605566
 10
-27.4051624384
 20
29.506811036
 10
-27.3971550831
 20
29.530959232
 10
-27.3870915488
 20
29.5547010816
 10
-27.3751402192
 20
29.5776393191
 10
-27.3615010657
 20
29.5993901244
 10
-27.3464023043
 20
29.6195895423
 10
-27.3300965771
 20
29.6378995732
 10
-27.3128567223
 20
29.6540138334
 10
-27.2949712083
 20
29.6676626813
 10
-27.276739309
 20
29.6786177265
  0
LWPOLYLINE
  5
3C8
100
AcDbEntity
  8
DRAFT
100
AcDbPolyline
 62
7
  6
CONTINUOUS
 90
13
 70
0
 10
-20.9493844097
 20
25.8525619931
 10
-20.9386396573
 20
25.8773103132
 10
-20.9298357832
 20
25.9035638513
 10
-20.9229727875
 20
25.9313226074
 10
-20.9180351321
 20
25.9607570723
 10
-20.915038355
 20
25.9916967552
 10
-20.9140290706
 20
26.0236301845
 10
-20.915038355
 20
26.0565728981
 10
-20.9180351321
 20
26.0905093581
 10
-20.9229727875
 20
26.1248814784
 10
-20.9298357832
 20
26.1595032302
 10
-20.9386396573
 20
26.1945606424
 10
-20.9493844097
 20
26.2300537149
  0
LWPOLYLINE
  5
3C9
100
AcDbEntity
  8
RACCORDO
100
AcDbPolyline
 62
253
  6
CONTINUOUS
 90
13
 70
0
 10
-16.0598103995
 20
24.6675094492
 10
-16.0572218904
 20
24.6709161575
 10
-16.054820619
 20
24.6744570895
 10
-16.0526065855
 20
24.6781322454
 10
-16.0505661339
 20
24.6819714747
 10
-16.0487129202
 20
24.6859449279
 10
-16.0470879121
 20
24.6899630558
 10
-16.0456962775
 20
24.6940266877
 10
-16.0445328485
 20
24.6981349942
 10
-16.0436230893
 20
24.702195939
 10
-16.042975488
 20
24.7061788433
 10
-16.0425815565
 20
24.7101143857
 10
-16.0424412949
 20
24.7140025664
  0
LWPOLYLINE
  5
3CA
100
AcDbEntity
  8
RACCORDO
100
AcDbPolyline
 62
7
  6
CONTINUOUS
 90
6
 70
0
 10
-16.0481460414
 20
24.6112384512
 10
-16.0402818833
 20
24.6214495743
 10
-16.0263139655
 20
24.6424211
 10
-16.014134299
 20
24.6648635161
 10
-16.0038952633
 20
24.6886603902
 10
-15.9960010993
 20
24.7128992587
  0
LINE
  5
3CB
100
AcDbEntity
  8
RACCORDO
100
AcDbLine
 62
253
  6
CONTINUOUS
 10
-16.6006777054
 20
23.9982219631
 11
-16.0598103995
 21
24.6675094492
  0
LINE
  5
3CC
100
AcDbEntity
  8
RACCORDO
100
AcDbLine
 62
7
  6
CONTINUOUS
 10
-16.6006777054
 20
23.9275173022
 11
-16.0481229521
 21
24.6112672308
  0
LWPOLYLINE
  5
3CD
100
AcDbEntity
  8
RACCORDO
100
AcDbPolyline
 62
7
  6
CONTINUOUS
 90
14
 70
0
 10
-17.5031284561
 20
23.439660234
 10
-17.5217616356
 20
23.4219062452
 10
-17.5415832919
 20
23.4053302049
 10
-17.5624385449
 20
23.3901274188
 10
-17.584239766
 20
23.3764679316
 10
-17.6067368967
 20
23.364500843
 10
-17.6295100539
 20
23.3543368197
 10
-17.6522591472
 20
23.3460748607
 10
-17.6749048349
 20
23.3397239355
 10
-17.6973651477
 20
23.3352538215
 10
-17.7195926074
 20
23.3326964216
 10
-17.7412950919
 20
23.3321242774
 10
-17.7620369961
 20
23.3335098288
 10
-17.7808589315
 20
23.3365875667
  0
LINE
  5
3CE
100
AcDbEntity
  8
RACCORDO
100
AcDbLine
 62
7
  6
CONTINUOUS
 10
-6.7867933256
 20
29.2993335237
 11
-6.8108647472
 21
29.2850514722
  0
LWPOLYLINE
  5
3CF
100
AcDbEntity
  8
RACCORDO
100
AcDbPolyline
 62
253
  6
CONTINUOUS
 90
7
 70
0
 10
-16.0424412949
 20
25.0539461613
 10
-16.025711152
 20
25.0638128124
 10
-16.0116682111
 20
25.0746767195
 10
-16.000547454
 20
25.086356104
 10
-15.9925349676
 20
25.0986555412
 10
-15.9877648301
 20
25.1113692307
 10
-15.9863092634
 20
25.1233828482
  0
LWPOLYLINE
  5
3D0
100
AcDbEntity
  8
RACCORDO
100
AcDbPolyline
 62
253
  6
CONTINUOUS
 90
7
 70
0
 10
-16.0424412949
 20
24.7140025664
 10
-16.0257110798
 20
24.7238692715
 10
-16.011668104
 20
24.7347332304
 10
-16.0005473444
 20
24.7464126597
 10
-15.9925348811
 20
24.7587121313
 10
-15.9877647842
 20
24.771425842
 10
-15.986309255
 20
24.7834684035
  0
LWPOLYLINE
  5
3D1
100
AcDbEntity
  8
RACCORDO
100
AcDbPolyline
 62
253
  6
CONTINUOUS
 90
13
 70
0
 10
-6.6974805543
 20
29.8195689319
 10
-6.7255031619
 20
29.8038840905
 10
-6.7531003935
 20
29.7838973737
 10
-6.7797895189
 20
29.7599583724
 10
-6.8051036913
 20
29.7324858099
 10
-6.8286001072
 20
29.7019602261
 10
-6.8498677537
 20
29.6689155748
 10
-6.8685346096
 20
29.6339298672
 10
-6.8842741437
 20
29.5976150739
 10
-6.8968110248
 20
29.5606064308
 10
-6.9059259497
 20
29.5235513035
 10
-6.9114594755
 20
29.4870978615
 10
-6.913314803
 20
29.4518837563
  0
LINE
  5
3D2
100
AcDbEntity
  8
RACCORDO
100
AcDbLine
 62
7
  6
CONTINUOUS
 10
-18.5805766927
 20
23.0353437984
 11
-19.1233027554
 21
22.7390536882
  0
LINE
  5
3D3
100
AcDbEntity
  8
RACCORDO
100
AcDbLine
 62
7
  6
CONTINUOUS
 10
-16.6006777054
 20
23.1741341788
 11
-17.5031284561
 21
22.6814597879
  0
LINE
  5
3D4
100
AcDbEntity
  8
DRAFT
100
AcDbLine
 62
7
  6
CONTINUOUS
 10
-10.3079458365
 20
26.9360350144
 11
-13.3404502817
 21
25.3329220975
  0
LINE
  5
3D5
100
AcDbEntity
  8
RACCORDO
100
AcDbLine
 62
7
  6
CONTINUOUS
 10
-6.8108647472
 20
29.2850514722
 11
-6.8305257952
 21
29.2750435602
  0
LINE
  5
3D6
100
AcDbEntity
  8
RACCORDO
100
AcDbLine
 62
7
  6
CONTINUOUS
 10
-13.7261225587
 20
25.525758236
 11
-10.3158450577
 21
27.2607464203
  0
LINE
  5
3D7
100
AcDbEntity
  8
RACCORDO
100
AcDbLine
 62
253
  6
CONTINUOUS
 10
-18.3639796057
 20
24.2462829298
 11
-16.7420775225
 21
25.0634874353
  0
LINE
  5
3D8
100
AcDbEntity
  8
RACCORDO
100
AcDbLine
 62
253
  6
CONTINUOUS
 10
-18.2225778321
 20
24.0024053062
 11
-16.6006777054
 21
24.819608826
  0
LINE
  5
3D9
100
AcDbEntity
  8
DRAFT
100
AcDbLine
 62
7
  6
CONTINUOUS
 10
-14.5147127009
 20
23.1918118484
 11
-11.7810624811
 21
24.5532281972
  0
LINE
  5
3DA
100
AcDbEntity
  8
RACCORDO
100
AcDbLine
 62
253
  6
CONTINUOUS
 10
-16.2179730559
 20
25.3234471145
 11
-16.7420775225
 21
25.0634874353
  0
LINE
  5
3DB
100
AcDbEntity
  8
RACCORDO
100
AcDbLine
 62
253
  6
CONTINUOUS
 10
-16.0765732389
 20
25.0795685052
 11
-16.6006777054
 21
24.819608826
  0
LINE
  5
3DC
100
AcDbEntity
  8
DRAFT
100
AcDbLine
 62
7
  6
CONTINUOUS
 10
-12.9810944541
 20
25.1532441837
 11
-11.0852448122
 21
26.08090581
  0
LINE
  5
3DD
100
AcDbEntity
  8
RACCORDO
100
AcDbLine
 62
7
  6
CONTINUOUS
 10
-11.5862936665
 20
27.9449166956
 11
-16.5341646767
 21
25.5414928673
  0
LINE
  5
3DE
100
AcDbEntity
  8
DRAFT
100
AcDbLine
 62
7
  6
CONTINUOUS
 10
-15.986309255
 20
25.015601697
 11
-14.3138697788
 21
25.819631846
  0
LINE
  5
3DF
100
AcDbEntity
  8
RACCORDO
100
AcDbLine
 62
253
  6
CONTINUOUS
 10
-10.9556456978
 20
27.8676653486
 11
-8.5396603999
 21
29.0240090608
  0
LINE
  5
3E0
100
AcDbEntity
  8
RACCORDO
100
AcDbLine
 62
7
  6
CONTINUOUS
 10
-6.8306989432
 20
29.2749597906
 11
-10.5161974636
 21
27.5109991224
  0
LINE
  5
3E1
100
AcDbEntity
  8
RACCORDO
100
AcDbLine
 62
253
  6
CONTINUOUS
 10
-6.6974805543
 20
29.2659767307
 11
-10.4713321827
 21
27.4597283213
  0
LWPOLYLINE
  5
3E2
100
AcDbEntity
  8
0
100
AcDbPolyline
 62
253
  6
CONTINUOUS
 90
13
 70
0
 10
-32.3063926272
 20
19.801347787
 10
-32.3452511417
 20
19.7872269306
 10
-32.3875831502
 20
19.7764017513
 10
-32.4329058127
 20
19.7689957183
 10
-32.4807021773
 20
19.7650933017
 10
-32.5304270769
 20
19.7647390093
 10
-32.5815133474
 20
19.767936879
 10
-32.6333782971
 20
19.7746504328
 10
-32.685430352
 20
19.7848030925
 10
-32.7370758044
 20
19.7982790539
 10
-32.7877255841
 20
19.8149246071
 10
-32.8368019774
 20
19.8345498896
 10
-32.883745217
 20
19.8569310522
  0
LINE
  5
3E3
100
AcDbEntity
  8
RACCORDO
100
AcDbLine
 62
253
  6
CONTINUOUS
 10
15.7599947538
 20
-32.4669972668
 11
15.219127448
 21
-32.3577942717
  0
LINE
  5
3E4
100
AcDbEntity
  8
RACCORDO
100
AcDbLine
 62
253
  6
CONTINUOUS
 10
15.6868374719
 20
-32.2121760907
 11
15.2191274613
 21
-32.1177438086
  0
LINE
  5
3E5
100
AcDbEntity
  8
RACCORDO
100
AcDbLine
 62
7
  6
CONTINUOUS
 10
14.0030167503
 20
-32.606654498
 11
14.0199143517
 21
-32.610613852
  0
LWPOLYLINE
  5
3E6
100
AcDbEntity
  8
RACCORDO
100
AcDbPolyline
 62
7
  6
CONTINUOUS
 90
10
 70
0
 10
14.1226094621
 20
-32.6356705149
 10
14.1451142089
 20
-32.6409956066
 10
14.1677928545
 20
-32.6461308584
 10
14.1905491041
 20
-32.6511023436
 10
14.2132949775
 20
-32.6557561628
 10
14.2357442518
 20
-32.6599419749
 10
14.2574961665
 20
-32.6636849306
 10
14.2783069093
 20
-32.6668775272
 10
14.2980848927
 20
-32.6692808416
 10
14.3166766973
 20
-32.6707191024
  0
LINE
  5
3E7
100
AcDbEntity
  8
RACCORDO
100
AcDbLine
 62
7
  6
CONTINUOUS
 10
14.0199143517
 20
-32.610613852
 11
14.0577579422
 21
-32.6197492399
  0
LINE
  5
3E8
100
AcDbEntity
  8
RACCORDO
100
AcDbLine
 62
7
  6
CONTINUOUS
 10
14.0577579422
 20
-32.6197492399
 11
14.1226094621
 21
-32.6356705149
  0
LINE
  5
3E9
100
AcDbEntity
  8
RACCORDO
100
AcDbLine
 62
253
  6
CONTINUOUS
 10
-37.0473051424
 20
-10.4083313906
 11
-37.0190474649
 21
-10.4237874365
  0
LWPOLYLINE
  5
3EA
100
AcDbEntity
  8
0
100
AcDbPolyline
 62
253
  6
CONTINUOUS
 90
7
 70
0
 10
-32.4909062834
 20
-7.7558750647
 10
-32.4614365315
 20
-7.7836407918
 10
-32.4313634059
 20
-7.8093335628
 10
-32.4006904625
 20
-7.8329538909
 10
-32.3694204672
 20
-7.8545021795
 10
-32.3375553955
 20
-7.8739787187
 10
-32.3050964315
 20
-7.8913836835
  0
LWPOLYLINE
  5
3EB
100
AcDbEntity
  8
0
100
AcDbPolyline
 62
253
  6
CONTINUOUS
 90
7
 70
0
 10
-32.0545500773
 20
-7.3388431932
 10
-32.0410288713
 20
-7.3530977113
 10
-32.0269176706
 20
-7.3662888392
 10
-32.0122519622
 20
-7.3783940864
 10
-31.997067211
 20
-7.3893930225
 10
-31.981398782
 20
-7.3992673007
 10
-31.9652818635
 20
-7.4080006757
  0
LWPOLYLINE
  5
3EC
100
AcDbEntity
  8
RACCORDO
100
AcDbPolyline
 62
253
  6
CONTINUOUS
 90
16
 70
0
 10
-24.8800410483
 20
28.2637952202
 10
-24.8812573206
 20
28.2867840975
 10
-24.8843700385
 20
28.3105020556
 10
-24.8893445201
 20
28.3346896355
 10
-24.8961254352
 20
28.3590823868
 10
-24.9046384633
 20
28.3834131685
 10
-24.9147910981
 20
28.4074150739
 10
-24.9264722444
 20
28.4308250976
 10
-24.9395535288
 20
28.4533871649
 10
-24.953891777
 20
28.4748543214
 10
-24.9693317821
 20
28.4949929254
 10
-24.9857031258
 20
28.5135804895
 10
-25.0028214151
 20
28.530409641
 10
-25.0204973175
 20
28.5452962788
 10
-25.0385393352
 20
28.5580801365
 10
-25.0567505627
 20
28.5686227402
  0
LWPOLYLINE
  5
3ED
100
AcDbEntity
  8
RACCORDO
100
AcDbPolyline
 62
253
  6
CONTINUOUS
 90
16
 70
0
 10
-25.1603940786
 20
28.2650185221
 10
-25.1606054056
 20
28.2697280517
 10
-25.1611820956
 20
28.274474994
 10
-25.1621241486
 20
28.279259349
 10
-25.1634496097
 20
28.2841339177
 10
-25.1651404337
 20
28.289045899
 10
-25.1671424862
 20
28.2938368903
 10
-25.1694660376
 20
28.2985029654
 10
-25.1721008174
 20
28.3030480505
 10
-25.1749618793
 20
28.3073255209
 10
-25.1780566948
 20
28.3113268352
 10
-25.1813777924
 20
28.3150605348
 10
-25.1848178111
 20
28.3184056186
 10
-25.1883409639
 20
28.321321753
 10
-25.1919830378
 20
28.3238492716
 10
-25.1957440329
 20
28.3259881744
  0
LWPOLYLINE
  5
3EE
100
AcDbEntity
  8
RACCORDO
100
AcDbPolyline
 62
7
  6
CONTINUOUS
 90
16
 70
0
 10
-24.6616950109
 20
28.3738101017
 10
-24.6626441866
 20
28.3967569088
 10
-24.6655135325
 20
28.4205053587
 10
-24.6702917929
 20
28.4448058794
 10
-24.6769734284
 20
28.4694896022
 10
-24.6854902969
 20
28.494192682
 10
-24.6956480557
 20
28.5183664682
 10
-24.7071955148
 20
28.5415569234
 10
-24.7200554704
 20
28.5637370659
 10
-24.7342762757
 20
28.5849902926
 10
-24.7498674806
 20
28.6052268994
 10
-24.7665606205
 20
28.6240046522
 10
-24.7839865941
 20
28.6409004046
 10
-24.8018764587
 20
28.6556966163
 10
-24.820095374
 20
28.6683200368
 10
-24.8384447823
 20
28.6786583633
  0
LINE
  5
3EF
100
AcDbEntity
  8
RACCORDO
100
AcDbLine
 62
7
  6
CONTINUOUS
 10
-24.0039265995
 20
28.7000680829
 11
-23.9796347806
 21
27.556305991
  0
LINE
  5
3F0
100
AcDbEntity
  8
RACCORDO
100
AcDbLine
 62
253
  6
CONTINUOUS
 10
-25.1603940786
 20
27.0777457408
 11
-25.1603940786
 21
28.2650185221
  0
LINE
  5
3F1
100
AcDbEntity
  8
RACCORDO
100
AcDbLine
 62
253
  6
CONTINUOUS
 10
-24.8800410483
 20
27.0854413119
 11
-24.8800410483
 21
28.2637952202
  0
LINE
  5
3F2
100
AcDbEntity
  8
RACCORDO
100
AcDbLine
 62
7
  6
CONTINUOUS
 10
-24.6616950109
 20
28.3738101017
 11
-24.6616950109
 21
27.2046428316
  0
LINE
  5
3F3
100
AcDbEntity
  8
RACCORDO
100
AcDbLine
 62
7
  6
CONTINUOUS
 10
-23.7973105183
 20
27.6248980981
 11
-23.7973105183
 21
26.4403614749
  0
LINE
  5
3F4
100
AcDbEntity
  8
RACCORDO
100
AcDbLine
 62
253
  6
CONTINUOUS
 10
-23.7387318745
 20
27.55418742
 11
-23.7387318745
 21
26.3669146387
  0
LWPOLYLINE
  5
3F5
100
AcDbEntity
  8
RACCORDO
100
AcDbPolyline
 62
253
  6
CONTINUOUS
 90
10
 70
0
 10
-22.5525360999
 20
31.4013237232
 10
-22.5526762037
 20
31.3948230419
 10
-22.5553753265
 20
31.3775047404
 10
-22.5614348132
 20
31.3604015529
 10
-22.5707990341
 20
31.3436679742
 10
-22.5833840838
 20
31.3274517751
 10
-22.5990804187
 20
31.3118953186
 10
-22.617750307
 20
31.2971374645
 10
-22.6392268663
 20
31.2833119122
 10
-22.6633188845
 20
31.2705433051
  0
LWPOLYLINE
  5
3F6
100
AcDbEntity
  8
RACCORDO
100
AcDbPolyline
 62
7
  6
CONTINUOUS
 90
10
 70
0
 10
-22.5348110877
 20
30.2143242679
 10
-22.5350035715
 20
30.2066127239
 10
-22.5379643724
 20
30.1884992759
 10
-22.5443907
 20
30.1707136457
 10
-22.554434341
 20
30.1531390806
 10
-22.5679435088
 20
30.1358923332
 10
-22.584394512
 20
30.1196072413
 10
-22.6036127869
 20
30.1044950839
 10
-22.6257728973
 20
30.0903445819
 10
-22.6508748431
 20
30.0771557352
  0
LWPOLYLINE
  5
3F7
100
AcDbEntity
  8
RACCORDO
100
AcDbPolyline
 62
253
  6
CONTINUOUS
 90
13
 70
0
 10
-25.1957440329
 20
28.3259881744
 10
-25.1945608531
 20
28.3489377788
 10
-25.1910311114
 20
28.3726865543
 10
-25.18521387
 20
28.3968371202
 10
-25.1772064669
 20
28.4209853725
 10
-25.1671428875
 20
28.444727246
 10
-25.1551915225
 20
28.4676654753
 10
-25.1415523505
 20
28.4894162422
 10
-25.1264535915
 20
28.5096155978
 10
-25.1101478882
 20
28.5279255525
 10
-25.092908079
 20
28.5440397317
 10
-25.0750226323
 20
28.5576885016
 10
-25.0567908197
 20
28.5686434818
  0
LWPOLYLINE
  5
3F8
100
AcDbEntity
  8
RACCORDO
100
AcDbPolyline
 62
253
  6
CONTINUOUS
 90
13
 70
0
 10
-23.7033819203
 20
27.5798071181
 10
-23.7021987482
 20
27.6027565923
 10
-23.6986690359
 20
27.626505256
 10
-23.6928518371
 20
27.6506557354
 10
-23.6848444819
 20
27.6748039314
 10
-23.6747809476
 20
27.698545781
 10
-23.6628296179
 20
27.7214840185
 10
-23.6491904645
 20
27.7432348238
 10
-23.6340917031
 20
27.7634342417
 10
-23.6177859759
 20
27.7817442726
 10
-23.6005461211
 20
27.7978585328
 10
-23.582660607
 20
27.8115073807
 10
-23.5644287077
 20
27.8224624259
  0
LWPOLYLINE
  5
3F9
100
AcDbEntity
  8
RACCORDO
100
AcDbPolyline
 62
7
  6
CONTINUOUS
 90
5
 70
0
 10
-6.7554527858
 20
29.3248224829
 10
-6.7556366141
 20
29.3246301973
 10
-6.7595993819
 20
29.3204151908
 10
-6.7697619516
 20
29.3115453708
 10
-6.7867933256
 20
29.2993335237
  0
LINE
  5
3FA
100
AcDbEntity
  8
DRAFT
100
AcDbLine
 62
7
  6
CONTINUOUS
 10
-13.1924318737
 20
22.5079966403
 11
-11.7810624811
 21
23.2108888213
  0
LINE
  5
3FB
100
AcDbEntity
  8
DRAFT
100
AcDbLine
 62
7
  6
CONTINUOUS
 10
-12.4146144144
 20
22.1190879106
 11
-7.7789396344
 21
24.4277532211
  0
LINE
  5
3FC
100
AcDbEntity
  8
DRAFT
100
AcDbLine
 62
7
  6
CONTINUOUS
 10
-11.7810624811
 20
23.2722616038
 11
-11.0852448122
 21
23.6127334092
  0
LINE
  5
3FD
100
AcDbEntity
  8
DRAFT
100
AcDbLine
 62
7
  6
CONTINUOUS
 10
-8.5043050608
 20
24.7904359343
 11
-11.7569962543
 21
23.1988557079
  0
LINE
  5
3FE
100
AcDbEntity
  8
DRAFT
100
AcDbLine
 62
7
  6
CONTINUOUS
 10
-6.7275357037
 20
23.8798572749
 11
-11.3913666128
 21
21.6074640098
  0
LWPOLYLINE
  5
3FF
100
AcDbEntity
  8
0
100
AcDbPolyline
 62
253
  6
CONTINUOUS
 90
6
 70
0
 10
5.3335273173
 20
-26.0328818905
 10
5.3530410364
 20
-26.0335843781
 10
5.3724094505
 20
-26.0332948087
 10
5.3915568045
 20
-26.0318985692
 10
5.4104149888
 20
-26.0292824995
 10
5.4258454506
 20
-26.0259764382
  0
LWPOLYLINE
  5
400
100
AcDbEntity
  8
0
100
AcDbPolyline
 62
253
  6
CONTINUOUS
 90
19
 70
0
 10
5.0908127995
 20
-26.5467749475
 10
5.1181608778
 20
-26.5534321655
 10
5.1463052069
 20
-26.5579505058
 10
5.1750486193
 20
-26.5599881393
 10
5.2041979665
 20
-26.5590354763
 10
5.2334303235
 20
-26.5548350215
 10
5.2623435612
 20
-26.5475207941
 10
5.2907368572
 20
-26.5369545283
 10
5.318231388
 20
-26.5228793199
 10
5.3442555684
 20
-26.5055827815
 10
5.3685542708
 20
-26.4851323085
 10
5.3908959504
 20
-26.4615083648
 10
5.4108997046
 20
-26.4351701145
 10
5.4284725733
 20
-26.4063708291
 10
5.4434440641
 20
-26.3753045665
 10
5.4555612
 20
-26.3426257952
 10
5.4648752271
 20
-26.3088945836
 10
5.471551261
 20
-26.2743765385
 10
5.4756837093
 20
-26.239423756
  0
LWPOLYLINE
  5
401
100
AcDbEntity
  8
RACCORDO
100
AcDbPolyline
 62
253
  6
CONTINUOUS
 90
3
 70
0
 10
15.7098805401
 20
-32.2200781056
 10
15.6997982038
 20
-32.215798252
 10
15.6868374719
 20
-32.2121760907
  0
LWPOLYLINE
  5
402
100
AcDbEntity
  8
RACCORDO
100
AcDbPolyline
 62
253
  6
CONTINUOUS
 90
16
 70
0
 10
9.1954115808
 20
-33.0805535328
 10
9.2336243445
 20
-33.0976459237
 10
9.2751747748
 20
-33.112494428
 10
9.319622658
 20
-33.1249417305
 10
9.3664970831
 20
-33.1348559561
 10
9.4153014307
 20
-33.1421320668
 10
9.4655186344
 20
-33.1466929745
 10
9.5166166591
 20
-33.1484903578
 10
9.5680541375
 20
-33.1475051741
 10
9.6192861062
 20
-33.143747861
 10
9.6697697789
 20
-33.1372582261
 10
9.7189702973
 20
-33.1281050249
 10
9.7663663977
 20
-33.1163852328
 10
9.8114559337
 20
-33.1022230171
 10
9.8537611961
 20
-33.085768422
 10
9.8928339742
 20
-33.0671957785
  0
LWPOLYLINE
  5
403
100
AcDbEntity
  8
SUPERFICI
100
AcDbPolyline
 62
253
  6
CONTINUOUS
 90
25
 70
0
 10
7.3460442144
 20
-31.84161436
 10
7.4157378232
 20
-31.8736409431
 10
7.4843824241
 20
-31.8999043233
 10
7.551978273
 20
-31.9204043599
 10
7.6188121848
 20
-31.9351933672
 10
7.684598364
 20
-31.9442184701
 10
7.7484783606
 20
-31.9473216279
 10
7.8104186031
 20
-31.9443997132
 10
7.8704545617
 20
-31.9355548095
 10
7.9278314102
 20
-31.9209366597
 10
7.982523564
 20
-31.9004975878
 10
8.0345590632
 20
-31.8742839214
 10
8.0832633748
 20
-31.8425864877
 10
8.1285834336
 20
-31.8053105233
 10
8.1705749964
 20
-31.7625493159
 10
8.2087263767
 20
-31.7148759829
 10
8.2430079001
 20
-31.6622453959
 10
8.2734517119
 20
-31.6047013315
 10
8.2996382136
 20
-31.5429506178
 10
8.3214939593
 20
-31.476918494
 10
8.3390943018
 20
-31.4066786811
 10
8.3522419865
 20
-31.333161199
 10
8.3608713795
 20
-31.2566759922
 10
8.3650490119
 20
-31.1769126313
 10
8.3647753965
 20
-31.0938708391
  0
LWPOLYLINE
  5
404
100
AcDbEntity
  8
RACCORDO
100
AcDbPolyline
 62
7
  6
CONTINUOUS
 90
11
 70
0
 10
13.3465061753
 20
-34.0359899655
 10
13.3601653779
 20
-34.0422660123
 10
13.3810822336
 20
-34.0498018786
 10
13.4028030982
 20
-34.0552117128
 10
13.4251104459
 20
-34.0584078126
 10
13.4478645833
 20
-34.059330777
 10
13.4708465353
 20
-34.0579173645
 10
13.4937221271
 20
-34.0541449227
 10
13.5162367156
 20
-34.0480376957
 10
13.538185457
 20
-34.0396526211
 10
13.5419416125
 20
-34.0379616687
  0
LWPOLYLINE
  5
405
100
AcDbEntity
  8
RACCORDO
100
AcDbPolyline
 62
7
  6
CONTINUOUS
 90
14
 70
0
 10
9.5109284732
 20
-33.6887700157
 10
9.5247528536
 20
-33.6955214182
 10
9.5765669445
 20
-33.7179250557
 10
9.630624254
 20
-33.7367528888
 10
9.6866755589
 20
-33.7517643789
 10
9.744391669
 20
-33.7627545918
 10
9.8035433658
 20
-33.7695774153
 10
9.8638409679
 20
-33.7721008244
 10
9.9248834361
 20
-33.7702370616
 10
9.986426547
 20
-33.7639547219
 10
10.0482408159
 20
-33.7532372485
 10
10.1100171689
 20
-33.7381026501
 10
10.1715408027
 20
-33.7185916287
 10
10.2199252876
 20
-33.7000851823
  0
LINE
  5
406
100
AcDbEntity
  8
RACCORDO
100
AcDbLine
 62
7
  6
CONTINUOUS
 10
-37.0190474649
 20
-10.4237874365
 11
9.5112962934
 21
-33.6889593156
  0
LINE
  5
407
100
AcDbEntity
  8
RACCORDO
100
AcDbLine
 62
253
  6
CONTINUOUS
 10
-37.3254261964
 20
-9.820134639
 11
9.1954115803
 21
-33.0805535274
  0
LINE
  5
408
100
AcDbEntity
  8
SUPERFICI
100
AcDbLine
 62
253
  6
CONTINUOUS
 10
7.3460442152
 20
-31.8416143597
 11
-35.4980537456
 21
-10.4195653793
  0
LINE
  5
409
100
AcDbEntity
  8
RACCORDO
100
AcDbLine
 62
7
  6
CONTINUOUS
 10
11.5658399687
 20
-33.1456633279
 11
13.3467327576
 21
-34.0361097224
  0
LINE
  5
40A
100
AcDbEntity
  8
RACCORDO
100
AcDbLine
 62
253
  6
CONTINUOUS
 10
11.6784824002
 20
-33.0992620795
 11
13.2815296284
 21
-33.9008240771
  0
LINE
  5
40B
100
AcDbEntity
  8
RACCORDO
100
AcDbLine
 62
253
  6
CONTINUOUS
 10
12.0264002705
 20
-32.9559428765
 11
12.152496824
 21
-33.0189911533
  0
LINE
  5
40C
100
AcDbEntity
  8
RACCORDO
100
AcDbLine
 62
253
  6
CONTINUOUS
 10
12.3460611101
 20
-33.1157732963
 11
13.2815296284
 21
-33.5835075555
  0
LINE
  5
40D
100
AcDbEntity
  8
RACCORDO
100
AcDbLine
 62
253
  6
CONTINUOUS
 10
13.3702161281
 20
-33.3519799284
 11
12.5875425666
 21
-32.960625677
  0
LINE
  5
40E
100
AcDbEntity
  8
RACCORDO
100
AcDbLine
 62
7
  6
CONTINUOUS
 10
9.5112967202
 20
-33.6889595291
 11
9.5109163961
 21
-33.688769149
  0
LWPOLYLINE
  5
40F
100
AcDbEntity
  8
SUPERFICI
100
AcDbPolyline
 62
253
  6
CONTINUOUS
 90
25
 70
0
 10
-35.4980537461
 20
-10.4195653798
 10
-35.5679428703
 20
-10.3818005963
 10
-35.6371459821
 20
-10.3391401201
 10
-35.7056628258
 20
-10.2915838105
 10
-35.7737856407
 20
-10.2388944545
 10
-35.841221168
 20
-10.1813087041
 10
-35.9070906943
 20
-10.1195371005
 10
-35.971364789
 20
-10.0535080171
 10
-36.0340709841
 20
-9.9832920365
 10
-36.0944159487
 20
-9.9098129802
 10
-36.1523740664
 20
-9.8330487726
 10
-36.2079684981
 20
-9.7530201407
 10
-36.2604792218
 20
-9.6707151894
 10
-36.3098551031
 20
-9.5860912549
 10
-36.3561445848
 20
-9.4991895253
 10
-36.3987773975
 20
-9.4111240958
 10
-36.437723395
 20
-9.3218797484
 10
-36.4730102527
 20
-9.2314703492
 10
-36.5041550756
 20
-9.1410539733
 10
-36.531084986
 20
-9.0506290214
 10
-36.5538709546
 20
-8.9601960529
 10
-36.5722467137
 20
-8.8709168489
 10
-36.5861233895
 20
-8.7831786077
 10
-36.5955889585
 20
-8.6965936461
 10
-36.6006429079
 20
-8.6111616869
  0
LWPOLYLINE
  5
410
100
AcDbEntity
  8
RACCORDO
100
AcDbPolyline
 62
253
  6
CONTINUOUS
 90
15
 70
0
 10
9.5109163961
 20
-33.688769149
 10
9.4821599605
 20
-33.6730639421
 10
9.4437468456
 20
-33.6476530882
 10
9.4076517806
 20
-33.6183529851
 10
9.3740088099
 20
-33.5852733669
 10
9.3429487995
 20
-33.5485411818
 10
9.3145876396
 20
-33.5082943204
 10
9.2890309211
 20
-33.4646844738
 10
9.2663788099
 20
-33.4178795183
 10
9.246716977
 20
-33.3680593609
 10
9.2301165433
 20
-33.3154093872
 10
9.2166402167
 20
-33.2601219781
 10
9.2063397704
 20
-33.2024027994
 10
9.1992544035
 20
-33.1424713209
 10
9.1954115803
 20
-33.0805535273
  0
LWPOLYLINE
  5
411
100
AcDbEntity
  8
RACCORDO
100
AcDbPolyline
 62
253
  6
CONTINUOUS
 90
9
 70
0
 10
-37.3254203164
 20
-9.820131403
 10
-37.3598936877
 20
-9.8008807868
 10
-37.3902593848
 20
-9.7797713631
 10
-37.4161956973
 20
-9.7570267763
 10
-37.4374278422
 20
-9.7328879948
 10
-37.4537308747
 20
-9.7076107577
 10
-37.4649320718
 20
-9.6814628653
 10
-37.4709127622
 20
-9.6547213424
 10
-37.471889145
 20
-9.6423627242
  0
LWPOLYLINE
  5
412
100
AcDbEntity
  8
RACCORDO
100
AcDbPolyline
 62
253
  6
CONTINUOUS
 90
16
 70
0
 10
-21.1677304471
 20
26.4076399195
 10
-21.1689467193
 20
26.4306287969
 10
-21.1720594372
 20
26.454346755
 10
-21.1770339188
 20
26.4785343348
 10
-21.183814834
 20
26.5029270861
 10
-21.1923278621
 20
26.5272578678
 10
-21.2024804968
 20
26.5512597733
 10
-21.2141616432
 20
26.574669797
 10
-21.2272429276
 20
26.5972318643
 10
-21.2415811757
 20
26.6186990208
 10
-21.2570211808
 20
26.6388376248
 10
-21.2733925246
 20
26.6574251889
 10
-21.2905108138
 20
26.6742543404
 10
-21.3081867163
 20
26.6891409782
 10
-21.326228734
 20
26.7019248359
 10
-21.3444399615
 20
26.7124674396
  0
LWPOLYLINE
  5
413
100
AcDbEntity
  8
RACCORDO
100
AcDbPolyline
 62
7
  6
CONTINUOUS
 90
16
 70
0
 10
-20.9585837517
 20
30.3360261465
 10
-20.9597124955
 20
30.3591416042
 10
-20.963990486
 20
30.3821041419
 10
-20.9714276247
 20
30.4048943034
 10
-20.9822071667
 20
30.4278671513
 10
-20.9961851786
 20
30.4505831762
 10
-21.0128838166
 20
30.471819238
 10
-21.0322044767
 20
30.4912148692
 10
-21.0542870239
 20
30.5089937282
 10
-21.0790030161
 20
30.524807405
 10
-21.1064886074
 20
30.5386026324
 10
-21.1366189546
 20
30.5502386403
 10
-21.1688563428
 20
30.5592481682
 10
-21.2029998649
 20
30.5654214274
 10
-21.2391873864
 20
30.5687816676
 10
-21.2773658637
 20
30.5692252595
  0
LWPOLYLINE
  5
414
100
AcDbEntity
  8
RACCORDO
100
AcDbPolyline
 62
253
  6
CONTINUOUS
 90
16
 70
0
 10
-22.6633188845
 20
31.2705433051
 10
-22.6644133414
 20
31.2936220333
 10
-22.6673684083
 20
31.3173323142
 10
-22.6721527782
 20
31.3414229514
 10
-22.6787157635
 20
31.3656387183
 10
-22.6869878329
 20
31.389723063
 10
-22.6968813484
 20
31.413420826
 10
-22.7082914938
 20
31.4364809433
 10
-22.7210973853
 20
31.4586591063
 10
-22.7351633518
 20
31.4797203503
 10
-22.7503403726
 20
31.4994415435
 10
-22.766467656
 20
31.5176137514
 10
-22.7833743427
 20
31.53404445
 10
-22.8008813162
 20
31.5485595655
 10
-22.8188031003
 20
31.5610053187
 10
-22.8369498241
 20
31.5712498541
  0
LWPOLYLINE
  5
415
100
AcDbEntity
  8
RACCORDO
100
AcDbPolyline
 62
253
  6
CONTINUOUS
 90
16
 70
0
 10
-21.4480834774
 20
26.4088632215
 10
-21.4482948044
 20
26.4135727511
 10
-21.4488714944
 20
26.4183196934
 10
-21.4498135474
 20
26.4231040484
 10
-21.4511390084
 20
26.4279786171
 10
-21.4528298325
 20
26.4328905984
 10
-21.454831885
 20
26.4376815896
 10
-21.4571554364
 20
26.4423476648
 10
-21.4597902162
 20
26.4468927499
 10
-21.4626512781
 20
26.4511702203
 10
-21.4657460936
 20
26.4551715346
 10
-21.4690671911
 20
26.4589052342
 10
-21.4725072098
 20
26.462250318
 10
-21.4760303627
 20
26.4651664524
 10
-21.4796724366
 20
26.467693971
 10
-21.4834334317
 20
26.4698328738
  0
LWPOLYLINE
  5
416
100
AcDbEntity
  8
RACCORDO
100
AcDbPolyline
 62
7
  6
CONTINUOUS
 90
16
 70
0
 10
-20.9493844097
 20
26.5176548011
 10
-20.9503335854
 20
26.5406016082
 10
-20.9532029312
 20
26.5643500581
 10
-20.9579811917
 20
26.5886505788
 10
-20.9646628272
 20
26.6133343015
 10
-20.9731796957
 20
26.6380373814
 10
-20.9833374544
 20
26.6622111676
 10
-20.9948849136
 20
26.6854016228
 10
-21.0077448691
 20
26.7075817653
 10
-21.0219656745
 20
26.728834992
 10
-21.0375568794
 20
26.7490715988
 10
-21.0542500192
 20
26.7678493516
 10
-21.0716759928
 20
26.784745104
 10
-21.0895658574
 20
26.7995413157
 10
-21.1077847728
 20
26.8121647362
 10
-21.1261341811
 20
26.8225030627
  0
LWPOLYLINE
  5
417
100
AcDbEntity
  8
RACCORDO
100
AcDbPolyline
 62
7
  6
CONTINUOUS
 90
18
 70
0
 10
-22.5525416144
 20
31.4013267884
 10
-22.5526744486
 20
31.4067223114
 10
-22.5552489913
 20
31.4362552562
 10
-22.5609831212
 20
31.4656415052
 10
-22.5698933197
 20
31.4945476488
 10
-22.5819207575
 20
31.5225680174
 10
-22.5970610584
 20
31.5495363517
 10
-22.615251475
 20
31.5751738945
 10
-22.6362982263
 20
31.5990986717
 10
-22.6600900973
 20
31.6211110456
 10
-22.6867521418
 20
31.6412073946
 10
-22.7159235566
 20
31.6590235141
 10
-22.7468829873
 20
31.6741718407
 10
-22.7797844365
 20
31.6868229441
 10
-22.8145408429
 20
31.6969480926
 10
-22.8500493191
 20
31.7043025487
 10
-22.8865005172
 20
31.7090308302
 10
-22.9239224
 20
31.711096659
  0
LWPOLYLINE
  5
418
100
AcDbEntity
  8
RACCORDO
100
AcDbPolyline
 62
253
  6
CONTINUOUS
 90
19
 70
0
 10
-20.6027768475
 20
24.6582510389
 10
-20.6026315647
 20
24.6495361039
 10
-20.6021791551
 20
24.6407326204
 10
-20.6013939932
 20
24.6318711871
 10
-20.600248631
 20
24.6229734852
 10
-20.5987185343
 20
24.6140881553
 10
-20.5967869188
 20
24.6052874078
 10
-20.5944335754
 20
24.5966094997
 10
-20.5916392565
 20
24.5880953363
 10
-20.5883985401
 20
24.5798173442
 10
-20.5846989768
 20
24.5718157646
 10
-20.5805296822
 20
24.5641324352
 10
-20.575898597
 20
24.5568351871
 10
-20.5708027185
 20
24.5499624965
 10
-20.5652408334
 20
24.54355306
 10
-20.559234867
 20
24.5376647352
 10
-20.5527919166
 20
24.5323302154
 10
-20.5459206148
 20
24.5275810929
 10
-20.538035291
 20
24.5231472419
  0
LINE
  5
419
100
AcDbEntity
  8
RACCORDO
100
AcDbLine
 62
7
  6
CONTINUOUS
 10
-22.534845549
 20
30.2143245028
 11
-22.5525360901
 21
31.4013230668
  0
LINE
  5
41A
100
AcDbEntity
  8
RACCORDO
100
AcDbLine
 62
253
  6
CONTINUOUS
 10
-22.6633188845
 20
31.2705433051
 11
-22.6508748431
 21
30.0771557352
  0
LWPOLYLINE
  5
41B
100
AcDbEntity
  8
RACCORDO
100
AcDbPolyline
 62
7
  6
CONTINUOUS
 90
9
 70
0
 10
-20.6613554753
 20
24.7289294917
 10
-20.6613217957
 20
24.7248305494
 10
-20.6594812571
 20
24.6983651235
 10
-20.6548255171
 20
24.6724306167
 10
-20.6474091941
 20
24.6474035457
 10
-20.637404255
 20
24.6237274331
 10
-20.6249362701
 20
24.6015557974
 10
-20.6101115725
 20
24.5810285656
 10
-20.5931916806
 20
24.5624708496
  0
LINE
  5
41C
100
AcDbEntity
  8
RACCORDO
100
AcDbLine
 62
253
  6
CONTINUOUS
 10
-21.9037362565
 20
30.4344186523
 11
-21.9037362565
 21
29.8123093786
  0
LINE
  5
41D
100
AcDbEntity
  8
RACCORDO
100
AcDbLine
 62
253
  6
CONTINUOUS
 10
-21.4480834774
 20
25.2215904401
 11
-21.4480834774
 21
26.4088632215
  0
LINE
  5
41E
100
AcDbEntity
  8
RACCORDO
100
AcDbLine
 62
253
  6
CONTINUOUS
 10
-21.1677304471
 20
25.2292860112
 11
-21.1677304471
 21
26.4076399195
  0
LINE
  5
41F
100
AcDbEntity
  8
DRAFT
100
AcDbLine
 62
7
  6
CONTINUOUS
 10
-20.9493844097
 20
25.348487531
 11
-20.9493844097
 21
26.2300537149
  0
LINE
  5
420
100
AcDbEntity
  8
RACCORDO
100
AcDbLine
 62
7
  6
CONTINUOUS
 10
-20.9493844097
 20
26.2300537149
 11
-20.9493844097
 21
26.5176548011
  0
LINE
  5
421
100
AcDbEntity
  8
RACCORDO
100
AcDbLine
 62
7
  6
CONTINUOUS
 10
-20.6613554915
 20
25.0462293005
 11
-20.6613554915
 21
24.7289605001
  0
LINE
  5
422
100
AcDbEntity
  8
RACCORDO
100
AcDbLine
 62
253
  6
CONTINUOUS
 10
-20.6027768477
 20
24.9755186223
 11
-20.6027768477
 21
24.658251039
  0
LINE
  5
423
100
AcDbEntity
  8
RACCORDO
100
AcDbLine
 62
253
  6
CONTINUOUS
 10
-20.4900073098
 20
29.918070348
 11
-20.4900073098
 21
29.6541517399
  0
LINE
  5
424
100
AcDbEntity
  8
RACCORDO
100
AcDbLine
 62
7
  6
CONTINUOUS
 10
-19.9464923711
 20
24.2273757818
 11
-19.9464923711
 21
23.7734985304
  0
LINE
  5
425
100
AcDbEntity
  8
RACCORDO
100
AcDbLine
 62
253
  6
CONTINUOUS
 10
-19.8732690664
 20
24.1907641294
 11
-19.8732690664
 21
23.6816899852
  0
LINE
  5
426
100
AcDbEntity
  8
RACCORDO
100
AcDbLine
 62
7
  6
CONTINUOUS
 10
-19.7405316341
 20
24.1264439877
 11
-19.7405316341
 21
22.9180249126
  0
LINE
  5
427
100
AcDbEntity
  8
RACCORDO
100
AcDbLine
 62
253
  6
CONTINUOUS
 10
-19.6673083294
 20
24.1905155628
 11
-19.6673083294
 21
22.8262163673
  0
LINE
  5
428
100
AcDbEntity
  8
RACCORDO
100
AcDbLine
 62
253
  6
CONTINUOUS
 10
-19.4998155083
 20
28.5429686972
 11
-19.4998155083
 21
27.9058144773
  0
LINE
  5
429
100
AcDbEntity
  8
RACCORDO
100
AcDbLine
 62
253
  6
CONTINUOUS
 10
-19.4737440433
 20
24.0937334198
 11
-19.4737440433
 21
22.7294342243
  0
LINE
  5
42A
100
AcDbEntity
  8
RACCORDO
100
AcDbLine
 62
7
  6
CONTINUOUS
 10
-19.2069222895
 20
28.8965220878
 11
-19.2069222895
 21
28.0461306878
  0
LINE
  5
42B
100
AcDbEntity
  8
RACCORDO
100
AcDbLine
 62
253
  6
CONTINUOUS
 10
-19.1233027554
 20
23.8157809739
 11
-19.1233027554
 21
22.7390536882
  0
LWPOLYLINE
  5
42C
100
AcDbEntity
  8
RACCORDO
100
AcDbPolyline
 62
253
  6
CONTINUOUS
 90
13
 70
0
 10
-21.4834334317
 20
26.4698328738
 10
-21.4822502519
 20
26.4927824781
 10
-21.4787205102
 20
26.5165312537
 10
-21.4729032688
 20
26.5406818196
 10
-21.4648958657
 20
26.5648300719
 10
-21.4548322862
 20
26.5885719454
 10
-21.4428809213
 20
26.6115101747
 10
-21.4292417493
 20
26.6332609416
 10
-21.4141429902
 20
26.6534602971
 10
-21.397837287
 20
26.6717702519
 10
-21.3805974778
 20
26.687884431
 10
-21.3627120311
 20
26.701533201
 10
-21.3444802184
 20
26.7124881812
  0
LWPOLYLINE
  5
42D
100
AcDbEntity
  8
RACCORDO
100
AcDbPolyline
 62
7
  6
CONTINUOUS
 90
3
 70
0
 10
-16.5802299907
 20
28.220657323
 10
-16.5779470618
 20
28.238160446
 10
-16.5773231805
 20
28.2476660563
  0
LWPOLYLINE
  5
42E
100
AcDbEntity
  8
RACCORDO
100
AcDbPolyline
 62
7
  6
CONTINUOUS
 90
3
 70
0
 10
-15.9960010993
 20
24.7128992587
 10
-15.9904506943
 20
24.737338403
 10
-15.9871695565
 20
24.7624883826
  0
LINE
  5
42F
100
AcDbEntity
  8
RACCORDO
100
AcDbLine
 62
7
  6
CONTINUOUS
 10
-7.0304625566
 20
19.4270119818
 11
-4.8980604768
 21
21.2420911815
  0
LWPOLYLINE
  5
430
100
AcDbEntity
  8
RACCORDO
100
AcDbPolyline
 62
7
  6
CONTINUOUS
 90
14
 70
0
 10
-2.4231867426
 20
20.0046543144
 10
-2.3806079211
 20
20.0273391733
 10
-2.341177966
 20
20.0510980946
 10
-2.3048968774
 20
20.0759310782
 10
-2.271651445
 20
20.1019405196
 10
-2.2415548791
 20
20.1290240234
 10
-2.21494681
 20
20.1568744033
 10
-2.1918661981
 20
20.1855010242
 10
-2.172274083
 20
20.2148945212
 10
-2.1563932147
 20
20.2447196132
 10
-2.1442662005
 20
20.2749810106
 10
-2.135850433
 20
20.305674003
 10
-2.1312408395
 20
20.3364491776
 10
-2.130300937
 20
20.3580906904
  0
LINE
  5
431
100
AcDbEntity
  8
DRAFT
100
AcDbLine
 62
7
  6
CONTINUOUS
 10
-7.3729189274
 20
19.5982401671
 11
-6.1844881585
 21
20.1470968795
  0
LINE
  5
432
100
AcDbEntity
  8
DRAFT
100
AcDbLine
 62
7
  6
CONTINUOUS
 10
-3.7367712005
 20
21.2775336852
 11
-2.405826812
 21
21.8922079098
  0
LWPOLYLINE
  5
433
100
AcDbEntity
  8
0
100
AcDbPolyline
 62
253
  6
CONTINUOUS
 90
13
 70
0
 10
-32.3470970637
 20
6.4378464946
 10
-32.3836440305
 20
6.421288628
 10
-32.4232745971
 20
6.406611399
 10
-32.4656032671
 20
6.3939576013
 10
-32.5102182992
 20
6.3834503462
 10
-32.556685712
 20
6.3751918649
 10
-32.6045535054
 20
6.3692625143
 10
-32.6533560577
 20
6.3657199955
 10
-32.7026186543
 20
6.3645987918
 10
-32.7518621058
 20
6.3659098343
 10
-32.8006074091
 20
6.3696403947
 10
-32.8483804066
 20
6.3757542095
 10
-32.8947163984
 20
6.3841918328
  0
LWPOLYLINE
  5
434
100
AcDbEntity
  8
0
100
AcDbPolyline
 62
7
  6
CONTINUOUS
 90
3
 70
0
 10
5.3903431895
 20
-25.9240048396
 10
5.4215381961
 20
-25.9378512264
 10
5.430838595
 20
-25.9410018229
  0
LWPOLYLINE
  5
435
100
AcDbEntity
  8
0
100
AcDbPolyline
 62
253
  6
CONTINUOUS
 90
7
 70
0
 10
5.2285671293
 20
-26.0049239333
 10
5.2450842847
 20
-26.0125086104
 10
5.2620390394
 20
-26.0189483124
 10
5.2793962384
 20
-26.0242228378
 10
5.2971204537
 20
-26.0283138614
 10
5.3151760609
 20
-26.0312050028
 10
5.3335273173
 20
-26.0328818905
  0
LWPOLYLINE
  5
436
100
AcDbEntity
  8
0
100
AcDbPolyline
 62
253
  6
CONTINUOUS
 90
7
 70
0
 10
4.8887202589
 20
-26.4882920287
 10
4.9215731714
 20
-26.5035547296
 10
4.9547538653
 20
-26.5166081356
 10
4.9882635248
 20
-26.5274520719
 10
5.0221041284
 20
-26.5360862477
 10
5.0562784482
 20
-26.5425102587
 10
5.0907900495
 20
-26.5467235906
  0
LINE
  5
437
100
AcDbEntity
  8
RACCORDO
100
AcDbLine
 62
7
  6
CONTINUOUS
 10
13.9662354094
 20
-32.5937536648
 11
13.4871493691
 21
-32.3542106447
  0
LINE
  5
438
100
AcDbEntity
  8
RACCORDO
100
AcDbLine
 62
253
  6
CONTINUOUS
 10
15.219127469
 20
-31.9783210893
 11
15.6868374719
 21
-32.2121760907
  0
LINE
  5
439
100
AcDbEntity
  8
RACCORDO
100
AcDbLine
 62
7
  6
CONTINUOUS
 10
15.2191274692
 20
-31.9747009399
 11
15.7101740585
 21
-32.2202242345
  0
LINE
  5
43A
100
AcDbEntity
  8
0
100
AcDbLine
 62
253
  6
CONTINUOUS
 10
-32.3050964315
 20
-7.8913836835
 11
4.8887202589
 21
-26.4882920287
  0
LINE
  5
43B
100
AcDbEntity
  8
0
100
AcDbLine
 62
253
  6
CONTINUOUS
 10
-31.9652818635
 20
-7.4080006757
 11
5.2285658924
 21
-26.0049245537
  0
LINE
  5
43C
100
AcDbEntity
  8
0
100
AcDbLine
 62
7
  6
CONTINUOUS
 10
-31.8034735009
 20
-7.3270964944
 11
5.3903431895
 21
-25.9240048396
  0
LINE
  5
43D
100
AcDbEntity
  8
RACCORDO
100
AcDbLine
 62
253
  6
CONTINUOUS
 10
15.7048346463
 20
-32.2229716169
 11
15.6868374719
 21
-32.2121760907
  0
LWPOLYLINE
  5
43E
100
AcDbEntity
  8
0
100
AcDbPolyline
 62
253
  6
CONTINUOUS
 90
10
 70
0
 10
-35.4980537456
 20
25.0874761758
 10
-35.2076763198
 20
24.5053657114
 10
-34.905655433
 20
23.9304506502
 10
-34.592034384
 20
23.3632694291
 10
-34.2661966186
 20
22.8036637931
 10
-33.9288720347
 20
22.2528463404
 10
-33.5822480749
 20
21.7133276101
 10
-33.2272406384
 20
21.1861838187
 10
-32.8633821185
 20
20.6711290393
 10
-32.490905188
 20
20.1685326026
  0
LWPOLYLINE
  5
43F
100
AcDbEntity
  8
RACCORDO
100
AcDbPolyline
 62
253
  6
CONTINUOUS
 90
25
 70
0
 10
-18.3029293807
 20
30.9591089766
 10
-18.3046522041
 20
31.000952499
 10
-18.3085459305
 20
31.041239944
 10
-18.3146105601
 20
31.0799713117
 10
-18.3228891739
 20
31.1173139611
 10
-18.3333386907
 20
31.1531005331
 10
-18.3458298674
 20
31.1868289502
 10
-18.3603883578
 20
31.2184565879
 10
-18.3769885079
 20
31.2480260707
 10
-18.3954241129
 20
31.2751631949
 10
-18.4157206801
 20
31.299837375
 10
-18.4378527021
 20
31.3220791964
 10
-18.461537452
 20
31.3416062119
 10
-18.4867928024
 20
31.3583816175
 10
-18.5136008808
 20
31.372442217
 10
-18.5416253416
 20
31.383615975
 10
-18.5708809786
 20
31.391866523
 10
-18.6013529981
 20
31.3972302295
 10
-18.6326606738
 20
31.3996441641
 10
-18.6648265265
 20
31.3990665021
 10
-18.6978280354
 20
31.3955390682
 10
-18.7312169126
 20
31.3891244065
 10
-18.7648437289
 20
31.3798433648
 10
-18.7988579136
 20
31.3676750952
 10
-18.8332594666
 20
31.3526195978
  0
LWPOLYLINE
  5
440
100
AcDbEntity
  8
RACCORDO
100
AcDbPolyline
 62
7
  6
CONTINUOUS
 90
15
 70
0
 10
-18.2297113104
 20
31.0472433193
 10
-18.2320074819
 20
31.1029372512
 10
-18.2383841866
 20
31.1656708859
 10
-18.2486547122
 20
31.2259165879
 10
-18.2626946884
 20
31.2834973622
 10
-18.2804058858
 20
31.3383267676
 10
-18.3017376841
 20
31.3903651808
 10
-18.3265964275
 20
31.4394602325
 10
-18.3548667176
 20
31.4854221523
 10
-18.3864520839
 20
31.5280864559
 10
-18.42119807
 20
31.567246818
 10
-18.4588991823
 20
31.6026931896
 10
-18.4993119317
 20
31.6342128276
 10
-18.5421759428
 20
31.6616229877
 10
-18.5699229686
 20
31.6765252314
  0
LWPOLYLINE
  5
441
100
AcDbEntity
  8
RACCORDO
100
AcDbPolyline
 62
253
  6
CONTINUOUS
 90
16
 70
0
 10
-18.8332594666
 20
31.3526195978
 10
-18.8342062483
 20
31.3757654586
 10
-18.8370366437
 20
31.3995697209
 10
-18.8417203268
 20
31.4237773376
 10
-18.8482071152
 20
31.44812894
 10
-18.8564275072
 20
31.4723636165
 10
-18.8662934265
 20
31.4962217087
 10
-18.8776991665
 20
31.5194475926
 10
-18.890522522
 20
31.5417924182
 10
-18.9046260993
 20
31.5630167754
 10
-18.9198587877
 20
31.582893259
 10
-18.9360573791
 20
31.6012089057
 10
-18.953048316
 20
31.6177674753
 10
-18.9706495519
 20
31.6323915535
 10
-18.988672501
 20
31.644924453
 10
-19.0069240592
 20
31.6552318919
  0
LWPOLYLINE
  5
442
100
AcDbEntity
  8
RACCORDO
100
AcDbPolyline
 62
7
  6
CONTINUOUS
 90
13
 70
0
 10
-16.9327771383
 20
28.5855903017
 10
-16.93327723
 20
28.604106826
 10
-16.9365708432
 20
28.6333264701
 10
-16.9429808716
 20
28.6623718786
 10
-16.9525345599
 20
28.690922946
 10
-16.9651678732
 20
28.7185717749
 10
-16.9808597212
 20
28.7451201464
 10
-16.999545037
 20
28.7702936175
 10
-17.0210367895
 20
28.7937270143
 10
-17.0452120651
 20
28.8152219562
 10
-17.072192731
 20
28.8347891146
 10
-17.1016398874
 20
28.8520815344
 10
-17.1328333778
 20
28.8667244705
  0
LWPOLYLINE
  5
443
100
AcDbEntity
  8
RACCORDO
100
AcDbPolyline
 62
7
  6
CONTINUOUS
 90
4
 70
0
 10
-19.2069297027
 20
28.8964050732
 10
-19.2070978281
 20
28.9055044466
 10
-19.210132225
 20
28.9363275151
 10
-19.2169727958
 20
28.9672327659
  0
LINE
  5
444
100
AcDbEntity
  8
RACCORDO
100
AcDbLine
 62
253
  6
CONTINUOUS
 10
-18.2988570645
 20
30.671336368
 11
-18.3029293807
 21
30.9591089766
  0
LINE
  5
445
100
AcDbEntity
  8
RACCORDO
100
AcDbLine
 62
7
  6
CONTINUOUS
 10
-18.2248585191
 20
30.7048212606
 11
-18.2297041802
 21
31.0472427401
  0
LINE
  5
446
100
AcDbEntity
  8
DRAFT
100
AcDbLine
 62
7
  6
CONTINUOUS
 10
-18.5805766927
 20
23.0353437984
 11
-18.5805766927
 21
23.5444179426
  0
LINE
  5
447
100
AcDbEntity
  8
RACCORDO
100
AcDbLine
 62
253
  6
CONTINUOUS
 10
-18.538275525
 20
23.6259991606
 11
-18.538275525
 21
23.9432691347
  0
LINE
  5
448
100
AcDbEntity
  8
RACCORDO
100
AcDbLine
 62
253
  6
CONTINUOUS
 10
-18.2579224947
 20
23.6247758587
 11
-18.2579224947
 21
23.9420446591
  0
LINE
  5
449
100
AcDbEntity
  8
RACCORDO
100
AcDbLine
 62
253
  6
CONTINUOUS
 10
-17.853569744
 20
23.3520116123
 11
-17.853569744
 21
22.671840324
  0
LINE
  5
44A
100
AcDbEntity
  8
RACCORDO
100
AcDbLine
 62
253
  6
CONTINUOUS
 10
-17.5031284561
 20
23.439660234
 11
-17.5031284561
 21
22.6814597879
  0
LINE
  5
44B
100
AcDbEntity
  8
RACCORDO
100
AcDbLine
 62
7
  6
CONTINUOUS
 10
-16.6006777054
 20
23.1741341788
 11
-16.6006777054
 21
24.819608826
  0
LINE
  5
44C
100
AcDbEntity
  8
RACCORDO
100
AcDbLine
 62
253
  6
CONTINUOUS
 10
-16.0424412949
 20
24.7140025664
 11
-16.0424412949
 21
25.0539461613
  0
LINE
  5
44D
100
AcDbEntity
  8
RACCORDO
100
AcDbLine
 62
7
  6
CONTINUOUS
 10
-15.986309255
 20
24.7834684035
 11
-15.986309255
 21
25.1234119809
  0
LINE
  5
44E
100
AcDbEntity
  8
RACCORDO
100
AcDbLine
 62
7
  6
CONTINUOUS
 10
-16.9399443865
 20
27.4148739879
 11
-16.9327700179
 21
28.5855473032
  0
LINE
  5
44F
100
AcDbEntity
  8
RACCORDO
100
AcDbLine
 62
253
  6
CONTINUOUS
 10
-17.0388110957
 20
28.4573279939
 11
-17.0427021116
 21
28.0828561118
  0
LINE
  5
450
100
AcDbEntity
  8
RACCORDO
100
AcDbLine
 62
253
  6
CONTINUOUS
 10
-17.0449905954
 20
27.8626121282
 11
-17.0510224693
 21
27.2821037926
  0
LWPOLYLINE
  5
451
100
AcDbEntity
  8
RACCORDO
100
AcDbPolyline
 62
253
  6
CONTINUOUS
 90
31
 70
0
 10
-18.2579224947
 20
23.9420446591
 10
-18.2579026162
 20
23.9437973012
 10
-18.2578104162
 20
23.9456282737
 10
-18.2576458946
 20
23.9475375765
 10
-18.2574134779
 20
23.9495309069
 10
-18.2571087395
 20
23.9516025677
 10
-18.2567184007
 20
23.953735467
 10
-18.2562407066
 20
23.9559317516
 10
-18.255677412
 20
23.9581892746
 10
-18.2550205021
 20
23.9604845039
 10
-18.2542678218
 20
23.9628191614
 10
-18.2534215263
 20
23.9651915251
 10
-18.2524800663
 20
23.9675728972
 10
-18.2514411712
 20
23.9699641822
 10
-18.2503071116
 20
23.9723644756
 10
-18.2490831505
 20
23.9747423662
 10
-18.2477673356
 20
23.9770976704
 10
-18.2463616191
 20
23.9794305718
 10
-18.2448771208
 20
23.9817102094
 10
-18.2433122209
 20
23.983935786
 10
-18.2416685391
 20
23.9861080988
 10
-18.2399620543
 20
23.9881986777
 10
-18.2381913541
 20
23.9902063289
 10
-18.2363578508
 20
23.9921322463
 10
-18.2344817605
 20
23.9939515408
 10
-18.2325621737
 20
23.995662329
 10
-18.2305999999
 20
23.9972664944
 10
-18.2286181843
 20
23.9987447986
 10
-18.2266243753
 20
24.000090829
 10
-18.2246109246
 20
24.0013109982
 10
-18.2225778321
 20
24.0024053062
  0
LWPOLYLINE
  5
452
100
AcDbEntity
  8
RACCORDO
100
AcDbPolyline
 62
253
  6
CONTINUOUS
 90
31
 70
0
 10
-18.5382755248
 20
23.9432691346
 10
-18.5381330724
 20
23.9520184243
 10
-18.53768755
 20
23.9611749257
 10
-18.5369122608
 20
23.9707346443
 10
-18.535778635
 20
23.9807051276
 10
-18.5342607765
 20
23.991062306
 10
-18.5323405972
 20
24.001748935
 10
-18.5299967224
 20
24.0127474617
 10
-18.5272087587
 20
24.0240368256
 10
-18.5239704505
 20
24.0355480798
 10
-18.520268323
 20
24.047253579
 10
-18.5160905454
 20
24.0591225302
 10
-18.5114448036
 20
24.0710770315
 10
-18.5063275351
 20
24.0830809105
 10
-18.5007366665
 20
24.0950969835
 10
-18.4946937236
 20
24.1070446685
 10
-18.4882061731
 20
24.1188818972
 10
-18.4812812746
 20
24.1305696761
 10
-18.4739505055
 20
24.142034035
 10
-18.4662302508
 20
24.1532328518
 10
-18.4581367515
 20
24.1641268153
 10
-18.4497093396
 20
24.1746507916
 10
-18.4409707139
 20
24.184766971
 10
-18.4319451968
 20
24.1944380802
 10
-18.4226806337
 20
24.2036070068
 10
-18.4132052623
 20
24.2122422312
 10
-18.4035483909
 20
24.2203135617
 10
-18.3937635434
 20
24.2277757609
 10
-18.3838899961
 20
24.2346014428
 10
-18.3739514901
 20
24.240776499
 10
-18.3639795788
 20
24.2462829163
  0
LWPOLYLINE
  5
453
100
AcDbEntity
  8
RACCORDO
100
AcDbPolyline
 62
7
  6
CONTINUOUS
 90
10
 70
0
 10
-16.939904709
 20
27.4148735071
 10
-16.9399445446
 20
27.4126214537
 10
-16.9422436634
 20
27.3944685948
 10
-16.9480171076
 20
27.3766171701
 10
-16.9574094739
 20
27.3589520346
 10
-16.9702761655
 20
27.3415883333
 10
-16.986120481
 20
27.3251584228
 10
-17.0047768532
 20
27.3098730886
 10
-17.0264108493
 20
27.2955215452
 10
-17.0510224693
 20
27.2821037926
  0
LWPOLYLINE
  5
454
100
AcDbEntity
  8
RACCORDO
100
AcDbPolyline
 62
7
  6
CONTINUOUS
 90
3
 70
0
 10
-16.5773231805
 20
28.2476660563
 10
-16.5772284657
 20
28.2525341158
 10
-16.5778528536
 20
28.2637447167
  0
LINE
  5
455
100
AcDbEntity
  8
RACCORDO
100
AcDbLine
 62
7
  6
CONTINUOUS
 10
-15.9871695565
 20
24.7624883826
 11
-15.9863101197
 21
24.7834818351
  0
LINE
  5
456
100
AcDbEntity
  8
RACCORDO
100
AcDbLine
 62
253
  6
CONTINUOUS
 10
-16.8910335629
 20
28.1185834746
 11
-16.9002746685
 21
27.9024750478
  0
LINE
  5
457
100
AcDbEntity
  8
RACCORDO
100
AcDbLine
 62
7
  6
CONTINUOUS
 10
-16.6137972841
 20
28.1861852654
 11
-16.6150358231
 21
28.1642521822
  0
LWPOLYLINE
  5
458
100
AcDbEntity
  8
0
100
AcDbPolyline
 62
253
  6
CONTINUOUS
 90
10
 70
0
 10
-35.4980537456
 20
-10.4195653793
 10
-35.2076619937
 20
-10.1438657542
 10
-34.9056257212
 20
-9.8616610591
 10
-34.5919882374
 20
-9.5735331155
 10
-34.2661277954
 20
-9.27999069
 10
-33.9287791184
 20
-8.981692737
 10
-33.5821464828
 20
-8.679487274
 10
-33.2271533717
 20
-8.3740836781
 10
-32.8633285148
 20
-8.0660122063
 10
-32.4909062834
 20
-7.7558750647
  0
LINE
  5
459
100
AcDbEntity
  8
RACCORDO
100
AcDbLine
 62
7
  6
CONTINUOUS
 10
-4.5555888225
 20
18.1895751147
 11
-2.4231867426
 21
20.0046543144
  0
LINE
  5
45A
100
AcDbEntity
  8
DRAFT
100
AcDbLine
 62
7
  6
CONTINUOUS
 10
-2.4995963385
 20
17.1615788727
 11
2.2970687607
 21
19.5407601234
  0
LINE
  5
45B
100
AcDbEntity
  8
DRAFT
100
AcDbLine
 62
7
  6
CONTINUOUS
 10
2.2970687607
 20
19.3675550427
 11
-2.3256969422
 21
17.0746291745
  0
LINE
  5
45C
100
AcDbEntity
  8
RACCORDO
100
AcDbLine
 62
7
  6
CONTINUOUS
 10
-3.6988207659
 20
17.7611910864
 11
-2.4231867426
 21
18.3717375923
  0
LINE
  5
45D
100
AcDbEntity
  8
RACCORDO
100
AcDbLine
 62
7
  6
CONTINUOUS
 10
0.2825426195
 20
16.514215216
 11
0.8262657402
 21
16.7653245715
  0
LINE
  5
45E
100
AcDbEntity
  8
RACCORDO
100
AcDbLine
 62
253
  6
CONTINUOUS
 10
0.3698635039
 20
16.5075169221
 11
0.9125895666
 21
16.7581658032
  0
LWPOLYLINE
  5
45F
100
AcDbEntity
  8
RACCORDO
100
AcDbPolyline
 62
253
  6
CONTINUOUS
 90
7
 70
0
 10
0.9125895666
 20
16.7581658032
 10
0.9309084001
 20
16.7657104343
 10
0.94899659
 20
16.770839004
 10
0.966661002
 20
16.773496222
 10
0.9837136769
 20
16.7736529665
 10
0.9999718786
 20
16.7713075514
 10
1.0152600533
 20
16.7664857734
  0
LINE
  5
460
100
AcDbEntity
  8
RACCORDO
100
AcDbLine
 62
7
  6
CONTINUOUS
 10
0.8496985448
 20
16.7746720822
 11
0.8264692038
 21
16.765417454
  0
LWPOLYLINE
  5
461
100
AcDbEntity
  8
RACCORDO
100
AcDbPolyline
 62
253
  6
CONTINUOUS
 90
6
 70
0
 10
0.826468934
 20
16.7654180432
 10
0.8428048153
 20
16.7707418562
 10
0.8592442104
 20
16.7723970803
 10
0.8765538086
 20
16.7708257805
 10
0.8944375537
 20
16.7660548238
 10
0.9125895665
 20
16.7581658032
  0
LINE
  5
462
100
AcDbEntity
  8
RACCORDO
100
AcDbLine
 62
253
  6
CONTINUOUS
 10
17.7778080476
 20
-27.0303550277
 11
17.6095145068
 21
-26.9462082573
  0
LINE
  5
463
100
AcDbEntity
  8
RACCORDO
100
AcDbLine
 62
253
  6
CONTINUOUS
 10
17.9468278246
 20
-26.8132232601
 11
17.7777951443
 21
-26.72870692
  0
LWPOLYLINE
  5
464
100
AcDbEntity
  8
0
100
AcDbPolyline
 62
253
  6
CONTINUOUS
 90
10
 70
0
 10
-36.6006428234
 20
24.2978037031
 10
-36.187005607
 20
23.7066697543
 10
-35.7727623789
 20
23.1416079626
 10
-35.3584486026
 20
22.6023221656
 10
-34.9459345205
 20
22.0899506054
 10
-34.534812835
 20
21.6025608859
 10
-34.1223214424
 20
21.1357015427
 10
-33.7082739643
 20
20.6882896541
 10
-33.2950643757
 20
20.2620152137
 10
-32.8837617347
 20
19.8569652422
  0
LWPOLYLINE
  5
465
100
AcDbEntity
  8
RACCORDO
100
AcDbPolyline
 62
253
  6
CONTINUOUS
 90
16
 70
0
 10
-16.0424412949
 20
25.0539461613
 10
-16.0426438132
 20
25.058395717
 10
-16.0431983875
 20
25.0625219948
 10
-16.0441050177
 20
25.0663249949
 10
-16.0453809574
 20
25.0698382784
 10
-16.0470089531
 20
25.0730282841
 10
-16.048937244
 20
25.0757943279
 10
-16.0511752985
 20
25.0781228597
 10
-16.0537136483
 20
25.0800274295
 10
-16.056472127
 20
25.0814480028
 10
-16.0594577955
 20
25.0823689733
 10
-16.0626635929
 20
25.0828059472
 10
-16.0659881708
 20
25.0827457089
 10
-16.0693977464
 20
25.0821838532
 10
-16.0729261024
 20
25.0811247853
 10
-16.0765732389
 20
25.0795685052
  0
LWPOLYLINE
  5
466
100
AcDbEntity
  8
RACCORDO
100
AcDbPolyline
 62
7
  6
CONTINUOUS
 90
12
 70
0
 10
-15.9863102774
 20
25.1233828484
 10
-15.9873392355
 20
25.1461489124
 10
-15.9908500109
 20
25.1707310037
 10
-15.9968313873
 20
25.1946594753
 10
-16.005184547
 20
25.2175474807
 10
-16.0158471333
 20
25.2392929665
 10
-16.0287409607
 20
25.2597317624
 10
-16.0436833828
 20
25.2785641027
 10
-16.0604821553
 20
25.2955648922
 10
-16.0790059179
 20
25.3106176321
 10
-16.0989841589
 20
25.3235215096
 10
-16.1096716798
 20
25.3292404514
  0
LWPOLYLINE
  5
467
100
AcDbEntity
  8
RACCORDO
100
AcDbPolyline
 62
253
  6
CONTINUOUS
 90
13
 70
0
 10
-16.0765732389
 20
25.0795685052
 10
-16.077487196
 20
25.1029263731
 10
-16.0808461886
 20
25.1270728556
 10
-16.0865927657
 20
25.1515949598
 10
-16.0946286397
 20
25.1760732681
 10
-16.104816368
 20
25.200089112
 10
-16.1169817031
 20
25.2232317328
 10
-16.1309165735
 20
25.2451053074
 10
-16.1463826418
 20
25.2653357176
 10
-16.1631153819
 20
25.2835769496
 10
-16.1808286028
 20
25.2995170117
 10
-16.1992193438
 20
25.3128832706
 10
-16.2179730559
 20
25.3234471145
  0
LINE
  5
468
100
AcDbEntity
  8
DRAFT
100
AcDbLine
 62
7
  6
CONTINUOUS
 10
-14.5147127009
 20
23.1691370539
 11
-14.5147127009
 21
23.1918118484
  0
LINE
  5
469
100
AcDbEntity
  8
RACCORDO
100
AcDbLine
 62
253
  6
CONTINUOUS
 10
-12.5701743067
 20
31.1670791354
 11
-12.5701875547
 21
31.9388418587
  0
LINE
  5
46A
100
AcDbEntity
  8
RACCORDO
100
AcDbLine
 62
253
  6
CONTINUOUS
 10
-11.8630622715
 20
30.8572232403
 11
-11.8631562416
 21
31.9268044756
  0
LINE
  5
46B
100
AcDbEntity
  8
DRAFT
100
AcDbLine
 62
7
  6
CONTINUOUS
 10
-11.7810624811
 20
23.2108888213
 11
-11.7810624811
 21
24.5532281972
  0
LINE
  5
46C
100
AcDbEntity
  8
RACCORDO
100
AcDbLine
 62
7
  6
CONTINUOUS
 10
-0.459927071
 20
14.5544008314
 11
-0.4340038812
 21
14.5738633387
  0
LWPOLYLINE
  5
46D
100
AcDbEntity
  8
RACCORDO
100
AcDbPolyline
 62
7
  6
CONTINUOUS
 90
12
 70
0
 10
-1.2887865139
 20
15.6666126636
 10
-1.3002604481
 20
15.6600179375
 10
-1.3225260204
 20
15.6446677735
 10
-1.343391516
 20
15.6266766384
 10
-1.3625502191
 20
15.6062425922
 10
-1.3792970471
 20
15.5842330356
 10
-1.393936321
 20
15.5603750304
 10
-1.4063939043
 20
15.5345846347
 10
-1.4160225125
 20
15.5081540515
 10
-1.4228266897
 20
15.4814099622
 10
-1.4269230495
 20
15.4536078961
 10
-1.4280509359
 20
15.4295468767
  0
LWPOLYLINE
  5
46E
100
AcDbEntity
  8
RACCORDO
100
AcDbPolyline
 62
253
  6
CONTINUOUS
 90
14
 70
0
 10
-1.196385857
 20
15.6624894393
 10
-1.2035606443
 20
15.658543105
 10
-1.2109286278
 20
15.6541147481
 10
-1.2184746671
 20
15.6491806615
 10
-1.2261919571
 20
15.6437104158
 10
-1.2340497733
 20
15.6376898748
 10
-1.2419944087
 20
15.6311269572
 10
-1.2500022158
 20
15.6240093749
 10
-1.2580472436
 20
15.6163272643
 10
-1.2660716523
 20
15.6081052461
 10
-1.2740472794
 20
15.599343212
 10
-1.2819442614
 20
15.5900438623
 10
-1.2897038096
 20
15.5802491012
 10
-1.2972953396
 20
15.5699722238
  0
LINE
  5
46F
100
AcDbEntity
  8
RACCORDO
100
AcDbLine
 62
7
  6
CONTINUOUS
 10
0.6527277555
 20
13.4186915743
 11
0.1100016928
 21
13.1224014641
  0
LINE
  5
470
100
AcDbEntity
  8
RACCORDO
100
AcDbLine
 62
7
  6
CONTINUOUS
 10
0.2783296739
 20
16.5121079149
 11
-1.2888838634
 21
15.666560257
  0
LINE
  5
471
100
AcDbEntity
  8
RACCORDO
100
AcDbLine
 62
253
  6
CONTINUOUS
 10
0.3698635039
 20
16.5075169221
 11
-1.1963858765
 21
15.662489449
  0
LINE
  5
472
100
AcDbEntity
  8
RACCORDO
100
AcDbLine
 62
253
  6
CONTINUOUS
 10
0.8693248426
 20
14.6296307056
 11
2.4912269258
 21
15.4468352112
  0
LINE
  5
473
100
AcDbEntity
  8
RACCORDO
100
AcDbLine
 62
253
  6
CONTINUOUS
 10
1.0107266162
 20
14.3857530821
 11
2.6326267429
 21
15.2029566019
  0
LINE
  5
474
100
AcDbEntity
  8
RACCORDO
100
AcDbLine
 62
7
  6
CONTINUOUS
 10
0.2824962889
 20
16.5141938223
 11
0.2783253206
 21
16.5121055546
  0
LINE
  5
475
100
AcDbEntity
  8
DRAFT
100
AcDbLine
 62
7
  6
CONTINUOUS
 10
2.8447587772
 20
14.5120761093
 11
5.578408997
 21
15.8734924581
  0
LINE
  5
476
100
AcDbEntity
  8
RACCORDO
100
AcDbLine
 62
253
  6
CONTINUOUS
 10
2.4912269258
 20
15.4468352112
 11
3.0153323295
 21
15.7067953552
  0
LINE
  5
477
100
AcDbEntity
  8
RACCORDO
100
AcDbLine
 62
253
  6
CONTINUOUS
 10
2.6326267429
 20
15.2029566019
 11
3.1567312094
 21
15.462916281
  0
LINE
  5
478
100
AcDbEntity
  8
DRAFT
100
AcDbLine
 62
7
  6
CONTINUOUS
 10
6.274226666
 20
17.4011700709
 11
4.378377024
 21
16.4735084446
  0
LINE
  5
479
100
AcDbEntity
  8
DRAFT
100
AcDbLine
 62
7
  6
CONTINUOUS
 10
1.6300704171
 20
16.4593753204
 11
3.0456016994
 21
17.139896107
  0
LINE
  5
47A
100
AcDbEntity
  8
DRAFT
100
AcDbLine
 62
7
  6
CONTINUOUS
 10
3.6364667684
 20
16.8444635725
 11
5.5488612395
 21
17.7638527842
  0
LWPOLYLINE
  5
47B
100
AcDbEntity
  8
RACCORDO
100
AcDbPolyline
 62
253
  6
CONTINUOUS
 90
31
 70
0
 10
3.1567312094
 20
15.462916281
 10
3.1581290113
 20
15.4635856687
 10
3.1595604137
 20
15.4641846534
 10
3.1610254166
 20
15.4647132353
 10
3.1625303788
 20
15.4651798971
 10
3.1640689416
 20
15.465576156
 10
3.1656220283
 20
15.4658765637
 10
3.1671906515
 20
15.4660795101
 10
3.1687737988
 20
15.4661866053
 10
3.1703493557
 20
15.4661772317
 10
3.1719178323
 20
15.4660490479
 10
3.1734787186
 20
15.4658043954
 10
3.1750083702
 20
15.4654296808
 10
3.1765065949
 20
15.4649220755
 10
3.1779735849
 20
15.4642844082
 10
3.1793862722
 20
15.4635115721
 10
3.1807437208
 20
15.4626007529
 10
3.1820468668
 20
15.461554765
 10
3.18327545
 20
15.4603769451
 10
3.1844281767
 20
15.4590647015
 10
3.1855063405
 20
15.457620626
 10
3.1864935623
 20
15.4560558308
 10
3.187388314
 20
15.4543678571
 10
3.1881921237
 20
15.4525591637
 10
3.188893197
 20
15.450648239
 10
3.1894896554
 20
15.4486330558
 10
3.1899833774
 20
15.4465156412
 10
3.1903682041
 20
15.4443205651
 10
3.1906420825
 20
15.4420560173
 10
3.1908070656
 20
15.439713808
 10
3.1908631534
 20
15.4372939372
  0
LINE
  5
47C
100
AcDbEntity
  8
RACCORDO
100
AcDbLine
 62
7
  6
CONTINUOUS
 10
10.0880034827
 20
17.107768121
 11
3.6656002808
 21
14.078980563
  0
LWPOLYLINE
  5
47D
100
AcDbEntity
  8
RACCORDO
100
AcDbPolyline
 62
253
  6
CONTINUOUS
 90
15
 70
0
 10
3.0153323428
 20
15.7067953485
 10
3.0223898472
 20
15.7100234569
 10
3.0296512234
 20
15.7129800041
 10
3.0371018476
 20
15.71562529
 10
3.0447355452
 20
15.7179213813
 10
3.0525218197
 20
15.7198219443
 10
3.0604067669
 20
15.7212789718
 10
3.0683669654
 20
15.7222551276
 10
3.0763765362
 20
15.7227129907
 10
3.0843770397
 20
15.7226167121
 10
3.092340193
 20
15.7219363045
 10
3.1002358015
 20
15.7206427704
 10
3.1080039851
 20
15.7187164837
 10
3.1156137336
 20
15.716138283
 10
3.123596988
 20
15.712611995
  0
LINE
  5
47E
100
AcDbEntity
  8
RACCORDO
100
AcDbLine
 62
7
  6
CONTINUOUS
 10
8.7199886703
 20
15.7719155275
 11
8.6954476817
 21
15.7615805779
  0
LWPOLYLINE
  5
47F
100
AcDbEntity
  8
RACCORDO
100
AcDbPolyline
 62
253
  6
CONTINUOUS
 90
34
 70
0
 10
8.8033911785
 20
15.752655801
 10
8.8126196047
 20
15.7565047628
 10
8.8223875005
 20
15.759857319
 10
8.832694866
 20
15.7627134696
 10
8.8436458129
 20
15.7650909249
 10
8.8551362294
 20
15.7669719747
 10
8.8668537799
 20
15.7683034876
 10
8.878801872
 20
15.7690697408
 10
8.8909770981
 20
15.7692864573
 10
8.9030568996
 20
15.7689476746
 10
8.9150387697
 20
15.7680384463
 10
8.9269252151
 20
15.7665737189
 10
8.9384011973
 20
15.7645923694
 10
8.9494557618
 20
15.7620806174
 10
8.9600998631
 20
15.7590522433
 10
8.9700513263
 20
15.7555874651
 10
8.9792916381
 20
15.7516746014
 10
8.9878393117
 20
15.7473253335
 10
8.9954677124
 20
15.7426549236
 10
9.0021522462
 20
15.737654775
 10
9.0079175071
 20
15.7323334844
 10
9.0126106423
 20
15.7268321036
 10
9.0162030597
 20
15.7211458125
 10
9.0187233514
 20
15.7152794313
 10
9.0201044407
 20
15.7093884729
 10
9.0203156341
 20
15.7034722956
 10
9.019387625
 20
15.697531541
 10
9.0173454174
 20
15.6917236473
 10
9.0141561857
 20
15.6860504998
 10
9.0098527555
 20
15.6805102131
 10
9.0045586067
 20
15.6752545694
 10
8.9983148994
 20
15.6703341625
 10
8.9910804736
 20
15.6656983985
 10
8.9828553293
 20
15.6613472774
  0
LWPOLYLINE
  5
480
100
AcDbEntity
  8
RACCORDO
100
AcDbPolyline
 62
253
  6
CONTINUOUS
 90
7
 70
0
 10
8.7009674926
 20
15.7639051366
 10
8.7161627828
 20
15.7683763634
 10
8.7325033808
 20
15.7703536631
 10
8.7495864366
 20
15.769749544
 10
8.7672248674
 20
15.7665706579
 10
8.7852254923
 20
15.7608518551
 10
8.8033911785
 20
15.752655801
  0
LWPOLYLINE
  5
481
100
AcDbEntity
  8
0
100
AcDbPolyline
 62
253
  6
CONTINUOUS
 90
10
 70
0
 10
8.3647755655
 20
-31.0938707467
 10
7.9416657873
 20
-30.5069351112
 10
7.5456610484
 20
-29.9318216891
 10
7.1765997007
 20
-29.3690101663
 10
6.8352145859
 20
-28.820552592
 10
6.5198151979
 20
-28.2855534941
 10
6.2267902827
 20
-27.759959403
 10
5.9548712815
 20
-27.2426508973
 10
5.7046584916
 20
-26.7356290293
 10
5.4756306078
 20
-26.2393692673
  0
LINE
  5
482
100
AcDbEntity
  8
DRAFT
100
AcDbLine
 62
7
  6
CONTINUOUS
 10
-11.0852448122
 20
26.08090581
 11
-11.0852448122
 21
23.6127334092
  0
LINE
  5
483
100
AcDbEntity
  8
DRAFT
100
AcDbLine
 62
7
  6
CONTINUOUS
 10
-10.8641103736
 20
26.3094039793
 11
-10.8641103736
 21
26.6420224022
  0
LINE
  5
484
100
AcDbEntity
  8
RACCORDO
100
AcDbLine
 62
7
  6
CONTINUOUS
 10
-10.3079458365
 20
27.134615343
 11
-10.3079458365
 21
26.9360350144
  0
LINE
  5
485
100
AcDbEntity
  8
RACCORDO
100
AcDbLine
 62
7
  6
CONTINUOUS
 10
-8.5396603999
 20
29.0240090608
 11
-8.5396603999
 21
28.4570132424
  0
LINE
  5
486
100
AcDbEntity
  8
DRAFT
100
AcDbLine
 62
7
  6
CONTINUOUS
 10
-7.7789396344
 20
24.4277532211
 11
-7.7789396344
 21
24.4919935793
  0
LWPOLYLINE
  5
487
100
AcDbEntity
  8
RACCORDO
100
AcDbPolyline
 62
253
  6
CONTINUOUS
 90
18
 70
0
 10
-1.2972953396
 20
15.5699722238
 10
-1.3046883942
 20
15.5592279314
 10
-1.3118284504
 20
15.5480719591
 10
-1.3186850174
 20
15.5365308635
 10
-1.3252305018
 20
15.5246287051
 10
-1.3314205498
 20
15.512426359
 10
-1.3372290102
 20
15.4999575922
 10
-1.3426312117
 20
15.4872560909
 10
-1.3475920129
 20
15.47438831
 10
-1.3520912255
 20
15.4613928125
 10
-1.3561097165
 20
15.4483093737
 10
-1.359622318
 20
15.4352090376
 10
-1.3626162606
 20
15.4221330324
 10
-1.3650803196
 20
15.4091225524
 10
-1.3670012094
 20
15.3962483014
 10
-1.3683739854
 20
15.3835599029
 10
-1.3691979256
 20
15.3710865399
 10
-1.3694723995
 20
15.3588663982
  0
LWPOLYLINE
  5
488
100
AcDbEntity
  8
RACCORDO
100
AcDbPolyline
 62
7
  6
CONTINUOUS
 90
14
 70
0
 10
1.7301759922
 20
13.8230080099
 10
1.7115424152
 20
13.8052536602
 10
1.6917204418
 20
13.7886774202
 10
1.6708649893
 20
13.7734745788
 10
1.6490637648
 20
13.759815179
 10
1.6265668092
 20
13.7478482562
 10
1.6037938714
 20
13.7376843842
 10
1.5810450496
 20
13.7294225605
 10
1.5583996731
 20
13.7230717312
 10
1.5359395134
 20
13.7186016309
 10
1.5137118697
 20
13.7160441946
 10
1.4920090311
 20
13.7154720563
 10
1.471266921
 20
13.716857666
 10
1.452445374
 20
13.719935373
  0
LWPOLYLINE
  5
489
100
AcDbEntity
  8
0
100
AcDbPolyline
 62
253
  6
CONTINUOUS
 90
13
 70
0
 10
-32.3063922669
 20
-6.9053006005
 10
-32.3452541411
 20
-6.9275069585
 10
-32.3875893225
 20
-6.9486779639
 10
-32.4329149147
 20
-6.9685721382
 10
-32.4807139113
 20
-6.9869625669
 10
-32.5304410932
 20
-7.0036394877
 10
-32.5815292474
 20
-7.0184126836
 10
-32.6333956374
 20
-7.031113652
 10
-32.6854486494
 20
-7.0415975267
 10
-32.7370945411
 20
-7.0497447312
 10
-32.7877442142
 20
-7.0554623414
 10
-32.8368199336
 20
-7.0586851459
 10
-32.8837619177
 20
-7.05937639
  0
LWPOLYLINE
  5
48A
100
AcDbEntity
  8
RACCORDO
100
AcDbPolyline
 62
7
  6
CONTINUOUS
 90
12
 70
0
 10
4.4277170072
 20
13.773951224
 10
4.4194826756
 20
13.7692759154
 10
4.4002689396
 20
13.7563848873
 10
4.3824657739
 20
13.7414949217
 10
4.3663069921
 20
13.7247962213
 10
4.3518593343
 20
13.7063187916
 10
4.3393325522
 20
13.6862454337
 10
4.3289167058
 20
13.6648461514
 10
4.3206735463
 20
13.6421893503
 10
4.3147251323
 20
13.6184120647
 10
4.3112123677
 20
13.5938131498
 10
4.310184556
 20
13.5712022762
  0
LWPOLYLINE
  5
48B
100
AcDbEntity
  8
0
100
AcDbPolyline
 62
253
  6
CONTINUOUS
 90
16
 70
0
 10
-31.9652818635
 20
-7.4080006757
 10
-31.9956759416
 20
-7.4248007505
 10
-32.0258449788
 20
-7.4446825074
 10
-32.0555656003
 20
-7.4674987396
 10
-32.0846177515
 20
-7.4930805135
 10
-32.1127863272
 20
-7.5212384188
 10
-32.1398627644
 20
-7.5517639715
 10
-32.1656465863
 20
-7.5844311573
 10
-32.1899468868
 20
-7.6189981047
 10
-32.2125837437
 20
-7.6552088765
 10
-32.2333895516
 20
-7.6927953644
 10
-32.252210262
 20
-7.7314792741
 10
-32.2689065244
 20
-7.7709741857
 10
-32.2833547179
 20
-7.8109876749
 10
-32.2954478666
 20
-7.8512234775
 10
-32.3050964315
 20
-7.8913836835
  0
LINE
  5
48C
100
AcDbEntity
  8
RACCORDO
100
AcDbLine
 62
7
  6
CONTINUOUS
 10
2.6326267429
 20
13.5574819547
 11
1.7301759922
 21
13.0648075638
  0
LINE
  5
48D
100
AcDbEntity
  8
RACCORDO
100
AcDbLine
 62
7
  6
CONTINUOUS
 10
4.639502875
 20
13.888214632
 11
4.4276855001
 21
13.7739342988
  0
LINE
  5
48E
100
AcDbEntity
  8
RACCORDO
100
AcDbLine
 62
253
  6
CONTINUOUS
 10
4.7539201625
 20
13.8824758909
 11
4.5430249756
 21
13.7687355842
  0
LINE
  5
48F
100
AcDbEntity
  8
RACCORDO
100
AcDbLine
 62
253
  6
CONTINUOUS
 10
6.7630551956
 20
12.6587204742
 11
6.9813603711
 21
12.7687557866
  0
LINE
  5
490
100
AcDbEntity
  8
RACCORDO
100
AcDbLine
 62
253
  6
CONTINUOUS
 10
6.9397641051
 20
12.3538926435
 11
7.1581101425
 21
12.463907525
  0
LINE
  5
491
100
AcDbEntity
  8
RACCORDO
100
AcDbLine
 62
7
  6
CONTINUOUS
 10
4.6447111437
 20
13.8908220162
 11
4.6394974333
 21
13.8882116815
  0
LINE
  5
492
100
AcDbEntity
  8
0
100
AcDbLine
 62
253
  6
CONTINUOUS
 10
-32.3235640257
 20
-6.800614439
 11
-32.1570268915
 21
-6.7173070972
  0
LINE
  5
493
100
AcDbEntity
  8
RACCORDO
100
AcDbLine
 62
7
  6
CONTINUOUS
 10
11.9392556101
 20
14.6811937991
 11
10.8580122405
 21
14.1405721142
  0
LINE
  5
494
100
AcDbEntity
  8
0
100
AcDbLine
 62
253
  6
CONTINUOUS
 10
-31.9652818635
 20
-7.4080006757
 11
-31.8034735009
 21
-7.3270964944
  0
LINE
  5
495
100
AcDbEntity
  8
RACCORDO
100
AcDbLine
 62
253
  6
CONTINUOUS
 10
6.9813603711
 20
12.7687557866
 11
7.6345791356
 21
13.0927571094
  0
LINE
  5
496
100
AcDbEntity
  8
RACCORDO
100
AcDbLine
 62
253
  6
CONTINUOUS
 10
7.1581101425
 20
12.463907525
 11
7.8158785539
 21
12.7901655062
  0
LINE
  5
497
100
AcDbEntity
  8
RACCORDO
100
AcDbLine
 62
7
  6
CONTINUOUS
 10
29.382680118
 20
23.1365825475
 11
23.7279126708
 21
20.3813678511
  0
LINE
  5
498
100
AcDbEntity
  8
RACCORDO
100
AcDbLine
 62
253
  6
CONTINUOUS
 10
13.5887090653
 20
15.1709287007
 11
17.6269927185
 21
17.1037400943
  0
LINE
  5
499
100
AcDbEntity
  8
RACCORDO
100
AcDbLine
 62
253
  6
CONTINUOUS
 10
13.7134188134
 20
14.763173257
 11
17.8355217854
 21
16.7361024205
  0
LINE
  5
49A
100
AcDbEntity
  8
RACCORDO
100
AcDbLine
 62
253
  6
CONTINUOUS
 10
12.8128810942
 20
15.7453293152
 11
10.5424392897
 21
14.6593226828
  0
LINE
  5
49B
100
AcDbEntity
  8
RACCORDO
100
AcDbLine
 62
253
  6
CONTINUOUS
 10
12.9865456868
 20
15.4427170211
 11
10.8612214017
 21
14.4261235698
  0
LINE
  5
49C
100
AcDbEntity
  8
RACCORDO
100
AcDbLine
 62
253
  6
CONTINUOUS
 10
8.9828553293
 20
15.6613472774
 11
5.6677750988
 21
14.0761591278
  0
LINE
  5
49D
100
AcDbEntity
  8
RACCORDO
100
AcDbLine
 62
253
  6
CONTINUOUS
 10
9.1564862689
 20
15.3606407284
 11
6.0600694694
 21
13.8800119426
  0
LINE
  5
49E
100
AcDbEntity
  8
RACCORDO
100
AcDbLine
 62
7
  6
CONTINUOUS
 10
9.9160688969
 20
14.5245160756
 11
9.1689303103
 21
14.1672531585
  0
LINE
  5
49F
100
AcDbEntity
  8
RACCORDO
100
AcDbLine
 62
7
  6
CONTINUOUS
 10
4.644769057
 20
13.8908487583
 11
8.6954862883
 21
15.7616042119
  0
LINE
  5
4A0
100
AcDbEntity
  8
RACCORDO
100
AcDbLine
 62
253
  6
CONTINUOUS
 10
4.7539201625
 20
13.8824758909
 11
8.8033911785
 21
15.752655801
  0
LINE
  5
4A1
100
AcDbEntity
  8
RACCORDO
100
AcDbLine
 62
7
  6
CONTINUOUS
 10
9.0345328776
 20
12.3475638045
 11
8.3570796582
 21
12.0346934577
  0
LINE
  5
4A2
100
AcDbEntity
  8
RACCORDO
100
AcDbLine
 62
253
  6
CONTINUOUS
 10
9.1426585959
 20
12.3387173793
 11
8.4662307637
 21
12.0263205903
  0
LWPOLYLINE
  5
4A3
100
AcDbEntity
  8
0
100
AcDbPolyline
 62
253
  6
CONTINUOUS
 90
13
 70
0
 10
-32.3235597701
 20
-6.8005779073
 10
-32.3629365126
 20
-6.8184839157
 10
-32.4058377405
 20
-6.8342059102
 10
-32.4517821706
 20
-6.8475675164
 10
-32.5002543799
 20
-6.8584188396
 10
-32.5507105878
 20
-6.8666381464
 10
-32.6025847563
 20
-6.8721332304
 10
-32.6552949403
 20
-6.8748424468
 10
-32.7082498157
 20
-6.8747354032
 10
-32.7608553137
 20
-6.8718133014
 10
-32.8125212846
 20
-6.8661089235
 10
-32.862668119
 20
-6.8576862641
 10
-32.9107332496
 20
-6.8466398128
  0
LWPOLYLINE
  5
4A4
100
AcDbEntity
  8
RACCORDO
100
AcDbPolyline
 62
7
  6
CONTINUOUS
 90
4
 70
0
 10
14.3822806086
 20
14.5163084713
 10
14.3609351128
 20
14.5066932791
 10
14.3214909954
 20
14.4914989356
 10
14.2817277147
 20
14.4790188064
  0
LWPOLYLINE
  5
4A5
100
AcDbEntity
  8
RACCORDO
100
AcDbPolyline
 62
7
  6
CONTINUOUS
 90
4
 70
0
 10
8.357021387
 20
12.0346665367
 10
8.3620622572
 20
12.0368210262
 10
8.3776534621
 20
12.0414694666
 10
8.3943466019
 20
12.0435557862
  0
LWPOLYLINE
  5
4A6
100
AcDbEntity
  8
RACCORDO
100
AcDbPolyline
 62
253
  6
CONTINUOUS
 90
4
 70
0
 10
14.5157228813
 20
14.5074335037
 10
14.4522923924
 20
14.4803676245
 10
14.3849065258
 20
14.4571228696
 10
14.3464566168
 20
14.4466543553
  0
LWPOLYLINE
  5
4A7
100
AcDbEntity
  8
RACCORDO
100
AcDbPolyline
 62
253
  6
CONTINUOUS
 90
16
 70
0
 10
17.6269927185
 20
17.1037400943
 10
17.6909440592
 20
17.1309616488
 10
17.7587354921
 20
17.154305963
 10
17.8303670172
 20
17.1737730368
 10
17.9066688089
 20
17.1894745969
 10
17.9868106928
 20
17.2012989166
 10
18.0683021458
 20
17.2089108159
 10
18.1512297441
 20
17.2121858646
 10
18.2355069115
 20
17.2112484928
 10
18.3183833962
 20
17.2061368107
 10
18.39977074
 20
17.1967240975
 10
18.4797574011
 20
17.1831370741
 10
18.5558585023
 20
17.1657940125
 10
18.627245751
 20
17.1448343367
 10
18.6947474397
 20
17.1201186227
 10
18.7583635684
 20
17.0916468706
  0
LWPOLYLINE
  5
4A8
100
AcDbEntity
  8
RACCORDO
100
AcDbPolyline
 62
253
  6
CONTINUOUS
 90
16
 70
0
 10
17.8355217992
 20
16.7361011961
 10
17.8745159094
 20
16.7523532775
 10
17.9169365977
 20
16.7664968663
 10
17.9623102501
 20
16.7783680003
 10
18.0101200833
 20
16.7878144188
 10
18.0598488217
 20
16.794741202
 10
18.1109889767
 20
16.7991051123
 10
18.1630032339
 20
16.8008496679
 10
18.2153015042
 20
16.7999401074
 10
18.2672871855
 20
16.7964075925
 10
18.318353272
 20
16.7902949114
 10
18.3679855832
 20
16.7816602885
 10
18.4157335208
 20
16.7705909475
 10
18.461093712
 20
16.7571894758
 10
18.5035266103
 20
16.7415892062
 10
18.5425520232
 20
16.7239502212
  0
LWPOLYLINE
  5
4A9
100
AcDbEntity
  8
0
100
AcDbPolyline
 62
253
  6
CONTINUOUS
 90
13
 70
0
 10
-36.8560070938
 20
7.7156388959
 10
-36.5705586967
 20
7.5774666432
 10
-36.2755629078
 20
7.4436329387
 10
-35.9712942253
 20
7.3142870004
 10
-35.6577907287
 20
7.1894868495
 10
-35.3355673083
 20
7.0694863733
 10
-35.0056744191
 20
6.954695963
 10
-34.6684281756
 20
6.8452266033
 10
-34.3242011859
 20
6.7412082651
 10
-33.974233224
 20
6.643002724
 10
-33.6192192449
 20
6.5507625487
 10
-33.2592530568
 20
6.4644777683
 10
-32.894716364
 20
6.3842222186
  0
LWPOLYLINE
  5
4AA
100
AcDbEntity
  8
0
100
AcDbPolyline
 62
253
  6
CONTINUOUS
 90
13
 70
0
 10
8.1094112105
 20
-14.7670702563
 10
7.833066705
 20
-14.6243460577
 10
7.5653992961
 20
-14.4768481632
 10
7.3067074196
 20
-14.324713822
 10
7.0571071177
 20
-14.1679620737
 10
6.8171061654
 20
-14.0068503635
 10
6.5875253447
 20
-13.8419039189
 10
6.3685866254
 20
-13.6732807972
 10
6.160549949
 20
-13.5011673023
 10
5.9641388667
 20
-13.3261833214
 10
5.7796585161
 20
-13.1486763318
 10
5.6070889554
 20
-12.9686932378
 10
5.4465778559
 20
-12.7864248914
  0
LWPOLYLINE
  5
4AB
100
AcDbEntity
  8
RACCORDO
100
AcDbPolyline
 62
7
  6
CONTINUOUS
 90
5
 70
0
 10
15.784279051
 20
-32.2806388642
 10
15.7676311327
 20
-32.2618373641
 10
15.7491365224
 20
-32.2451985768
 10
15.7290042101
 20
-32.2308407065
 10
15.7098687571
 20
-32.2200721812
  0
LWPOLYLINE
  5
4AC
100
AcDbEntity
  8
RACCORDO
100
AcDbPolyline
 62
253
  6
CONTINUOUS
 90
13
 70
0
 10
13.5798688931
 20
-33.5385463051
 10
13.5693571049
 20
-33.5229741607
 10
13.5566723249
 20
-33.5064483211
 10
13.5420291942
 20
-33.4892484209
 10
13.5256754906
 20
-33.4716654997
 10
13.5078879367
 20
-33.4539970788
 10
13.4889675185
 20
-33.4365421269
 10
13.4692343903
 20
-33.4195959993
 10
13.449022455
 20
-33.4034454389
 10
13.4286737156
 20
-33.3883637257
 10
13.4085324908
 20
-33.3746060548
 10
13.3889395895
 20
-33.3624052183
 10
13.3702265409
 20
-33.351967664
  0
LWPOLYLINE
  5
4AD
100
AcDbEntity
  8
0
100
AcDbPolyline
 62
253
  6
CONTINUOUS
 90
10
 70
0
 10
7.3460442152
 20
-31.8416143597
 10
7.0396199257
 20
-31.2675273271
 10
6.7468955151
 20
-30.6879640279
 10
6.4678276846
 20
-30.1035061975
 10
6.2017447786
 20
-29.5140231318
 10
5.9492051089
 20
-28.920813222
 10
5.7118858631
 20
-28.3266421346
 10
5.4901593516
 20
-27.7328578808
 10
5.2832049714
 20
-27.1393510316
 10
5.0907900495
 20
-26.5467235906
  0
LWPOLYLINE
  5
4AE
100
AcDbEntity
  8
RACCORDO
100
AcDbPolyline
 62
7
  6
CONTINUOUS
 90
5
 70
0
 10
-16.5778528536
 20
28.2637447167
 10
-16.57962533
 20
28.2717405501
 10
-16.582342362
 20
28.2765290137
 10
-16.585739441
 20
28.2781759109
 10
-16.5879269657
 20
28.2776786286
  0
LINE
  5
4AF
100
AcDbEntity
  8
RACCORDO
100
AcDbLine
 62
253
  6
CONTINUOUS
 10
-6.9133148032
 20
29.2354180226
 11
-6.9133148032
 21
29.4518837563
  0
LINE
  5
4B0
100
AcDbEntity
  8
DRAFT
100
AcDbLine
 62
7
  6
CONTINUOUS
 10
-6.7275357037
 20
23.8798572749
 11
-6.7275357037
 21
24.2769517857
  0
LWPOLYLINE
  5
4B1
100
AcDbEntity
  8
RACCORDO
100
AcDbPolyline
 62
253
  6
CONTINUOUS
 90
7
 70
0
 10
3.1851814919
 20
14.9946150015
 10
3.1861645563
 20
14.9959632653
 10
3.1889819438
 20
15.0033292148
 10
3.1891028763
 20
15.0126748132
 10
3.1865253074
 20
15.023841924
 10
3.1812928521
 20
15.0366415889
 10
3.1734940487
 20
15.0508572251
  0
LWPOLYLINE
  5
4B2
100
AcDbEntity
  8
RACCORDO
100
AcDbPolyline
 62
7
  6
CONTINUOUS
 90
6
 70
0
 10
3.1851562558
 20
14.9945839141
 10
3.194622316
 20
15.0070011441
 10
3.208235377
 20
15.0278534085
 10
3.2200897806
 20
15.0501191149
 10
3.2300345244
 20
15.073680442
 10
3.2376899887
 20
15.0976587346
  0
LINE
  5
4B3
100
AcDbEntity
  8
RACCORDO
100
AcDbLine
 62
253
  6
CONTINUOUS
 10
3.1734940487
 20
15.0508572251
 11
2.6326267429
 21
14.381569739
  0
LINE
  5
4B4
100
AcDbEntity
  8
RACCORDO
100
AcDbLine
 62
7
  6
CONTINUOUS
 10
3.1851814919
 20
14.9946150015
 11
2.6326267429
 21
14.3108650781
  0
LWPOLYLINE
  5
4B5
100
AcDbEntity
  8
RACCORDO
100
AcDbPolyline
 62
7
  6
CONTINUOUS
 90
12
 70
0
 10
8.1400276085
 20
11.9177959233
 10
8.1317932768
 20
11.9131206148
 10
8.1125795409
 20
11.9002295867
 10
8.0947763751
 20
11.8853396211
 10
8.0786175933
 20
11.8686409207
 10
8.0641699356
 20
11.850163491
 10
8.0516431534
 20
11.8300901331
 10
8.0412273071
 20
11.8086908508
 10
8.0329841475
 20
11.7860340497
 10
8.0270357335
 20
11.7622567641
 10
8.023522969
 20
11.7376578492
 10
8.0224951572
 20
11.7150469756
  0
LWPOLYLINE
  5
4B6
100
AcDbEntity
  8
RACCORDO
100
AcDbPolyline
 62
253
  6
CONTINUOUS
 90
13
 70
0
 10
18.7583635684
 20
17.0916468706
 10
18.7303408012
 20
17.0759619263
 10
18.7027434505
 20
17.0559750862
 10
18.6760542509
 20
17.032035961
 10
18.6507400514
 20
17.0045632955
 10
18.6272436495
 20
16.9740376432
 10
18.6059760458
 20
16.9409929606
 10
18.5873092543
 20
16.9060072671
 10
18.5715697958
 20
16.8696925348
 10
18.5590329857
 20
16.8326839831
 10
18.5499181187
 20
16.7956289677
 10
18.5443846327
 20
16.7591756571
 10
18.5425293196
 20
16.723961695
  0
LWPOLYLINE
  5
4B7
100
AcDbEntity
  8
RACCORDO
100
AcDbPolyline
 62
253
  6
CONTINUOUS
 90
9
 70
0
 10
13.5168757727
 20
15.0492063999
 10
13.5343852474
 20
15.0589086378
 10
13.5497665599
 20
15.0694314318
 10
13.5628511686
 20
15.0806595075
 10
13.5734956904
 20
15.0924698606
 10
13.5815834731
 20
15.1047331053
 10
13.5870258737
 20
15.1173148923
 10
13.5897632298
 20
15.1300773816
 10
13.5901009741
 20
15.1373401055
  0
LINE
  5
4B8
100
AcDbEntity
  8
RACCORDO
100
AcDbLine
 62
7
  6
CONTINUOUS
 10
28.1788559774
 20
21.4079664653
 11
29.6705928612
 21
22.2313295277
  0
LWPOLYLINE
  5
4B9
100
AcDbEntity
  8
RACCORDO
100
AcDbPolyline
 62
253
  6
CONTINUOUS
 90
9
 70
0
 10
14.7809940551
 20
12.5474255513
 10
14.8045785271
 20
12.5604217145
 10
14.8255230119
 20
12.5745056192
 10
14.8436387154
 20
12.5895511836
 10
14.8587627171
 20
12.6054234681
 10
14.8707569993
 20
12.6219800727
 10
14.8795113847
 20
12.6390720713
 10
14.8849471451
 20
12.6565443857
 10
14.8870351294
 20
12.6756437365
  0
LWPOLYLINE
  5
4BA
100
AcDbEntity
  8
RACCORDO
100
AcDbPolyline
 62
253
  6
CONTINUOUS
 90
34
 70
0
 10
14.6041996764
 20
12.852251552
 10
14.6122918887
 20
12.8566997207
 10
14.6193731289
 20
12.8614185222
 10
14.6254433971
 20
12.8664079565
 10
14.6305386383
 20
12.8717174469
 10
14.6346229074
 20
12.8772975702
 10
14.6375883691
 20
12.8830000566
 10
14.6394051467
 20
12.8888280304
 10
14.6401031168
 20
12.8947783673
 10
14.6396640737
 20
12.9006934249
 10
14.6380575692
 20
12.9065722397
 10
14.6353140516
 20
12.9124157753
 10
14.6315066603
 20
12.9180692789
 10
14.6266070577
 20
12.9235276558
 10
14.6206435815
 20
12.9287960008
 10
14.6137743835
 20
12.933734846
 10
14.6059753016
 20
12.9383353832
 10
14.597270498
 20
12.9426064207
 10
14.5878906115
 20
12.946434915
 10
14.5778176322
 20
12.9498090378
 10
14.5670695699
 20
12.9527406174
 10
14.5559310927
 20
12.9551520958
 10
14.5443917983
 20
12.9570296349
 10
14.532462089
 20
12.9583870728
 10
14.5204578401
 20
12.959188366
 10
14.5083770985
 20
12.959418546
 10
14.4962218171
 20
12.9590925813
 10
14.4843137306
 20
12.9582193336
 10
14.4726558621
 20
12.9567827404
 10
14.4612451885
 20
12.9547988642
 10
14.4503943744
 20
12.9523247536
 10
14.4402076415
 20
12.949379425
 10
14.430580768
 20
12.9459438621
 10
14.4215137541
 20
12.942018065
  0
LINE
  5
4BB
100
AcDbEntity
  8
RACCORDO
100
AcDbLine
 62
7
  6
CONTINUOUS
 10
7.1581101425
 20
11.2947402549
 11
6.9397641051
 21
11.1755387352
  0
LINE
  5
4BC
100
AcDbEntity
  8
RACCORDO
100
AcDbLine
 62
7
  6
CONTINUOUS
 10
8.3518134762
 20
12.0320593313
 11
8.1399961013
 21
11.9177789981
  0
LINE
  5
4BD
100
AcDbEntity
  8
RACCORDO
100
AcDbLine
 62
253
  6
CONTINUOUS
 10
8.4662307637
 20
12.0263205903
 11
8.2553355769
 21
11.9125802836
  0
LINE
  5
4BE
100
AcDbEntity
  8
DRAFT
100
AcDbLine
 62
7
  6
CONTINUOUS
 10
7.8401703728
 20
11.6464034143
 11
7.1581101425
 21
11.2947402549
  0
LINE
  5
4BF
100
AcDbEntity
  8
RACCORDO
100
AcDbLine
 62
7
  6
CONTINUOUS
 10
9.9160688969
 20
12.5438269344
 11
9.3306465368
 21
12.2447234088
  0
LINE
  5
4C0
100
AcDbEntity
  8
RACCORDO
100
AcDbLine
 62
7
  6
CONTINUOUS
 10
8.0224946351
 20
11.5763634819
 11
8.0016005827
 21
11.5656883093
  0
LINE
  5
4C1
100
AcDbEntity
  8
DRAFT
100
AcDbLine
 62
7
  6
CONTINUOUS
 10
22.0891083508
 20
16.5298358133
 11
25.5428864533
 21
18.2936394892
  0
LINE
  5
4C2
100
AcDbEntity
  8
RACCORDO
100
AcDbLine
 62
253
  6
CONTINUOUS
 10
10.4753657968
 20
10.8025651736
 11
10.6936709723
 21
10.912600486
  0
LINE
  5
4C3
100
AcDbEntity
  8
RACCORDO
100
AcDbLine
 62
253
  6
CONTINUOUS
 10
10.6520747063
 20
10.4977373428
 11
10.8704207437
 21
10.6077522244
  0
LINE
  5
4C4
100
AcDbEntity
  8
RACCORDO
100
AcDbLine
 62
7
  6
CONTINUOUS
 10
8.3518071837
 20
12.0320559555
 11
8.357021387
 21
12.0346665367
  0
LINE
  5
4C5
100
AcDbEntity
  8
RACCORDO
100
AcDbLine
 62
7
  6
CONTINUOUS
 10
12.864825345
 20
10.2188548617
 11
12.8689967077
 21
10.2209433266
  0
LINE
  5
4C6
100
AcDbEntity
  8
RACCORDO
100
AcDbLine
 62
253
  6
CONTINUOUS
 10
10.6936709723
 20
10.912600486
 11
14.6041996764
 21
12.852251552
  0
LINE
  5
4C7
100
AcDbEntity
  8
RACCORDO
100
AcDbLine
 62
253
  6
CONTINUOUS
 10
10.8704207437
 20
10.6077522244
 11
14.7809940577
 21
12.5474254172
  0
LINE
  5
4C8
100
AcDbEntity
  8
RACCORDO
100
AcDbLine
 62
7
  6
CONTINUOUS
 10
10.8704207437
 20
9.4385849543
 11
14.7687826841
 21
11.3722012159
  0
LINE
  5
4C9
100
AcDbEntity
  8
RACCORDO
100
AcDbLine
 62
7
  6
CONTINUOUS
 10
14.310416347
 20
12.9494646431
 11
11.0474956755
 21
11.3862988395
  0
LINE
  5
4CA
100
AcDbEntity
  8
RACCORDO
100
AcDbLine
 62
253
  6
CONTINUOUS
 10
14.4215137541
 20
12.942018065
 11
11.1094626327
 21
11.3553153609
  0
LINE
  5
4CB
100
AcDbEntity
  8
RACCORDO
100
AcDbLine
 62
7
  6
CONTINUOUS
 10
14.8827409755
 20
11.9749477389
 11
14.9503891832
 21
12.0073559325
  0
LINE
  5
4CC
100
AcDbEntity
  8
RACCORDO
100
AcDbLine
 62
7
  6
CONTINUOUS
 10
15.2308524983
 20
12.3672306644
 11
17.3975638349
 21
13.4049126113
  0
LINE
  5
4CD
100
AcDbEntity
  8
RACCORDO
100
AcDbLine
 62
253
  6
CONTINUOUS
 10
15.2395751627
 20
12.3107547463
 11
17.5086338754
 21
13.3974529247
  0
LINE
  5
4CE
100
AcDbEntity
  8
RACCORDO
100
AcDbLine
 62
7
  6
CONTINUOUS
 10
17.6246855014
 20
16.0681957184
 11
14.3825044922
 21
14.5164165635
  0
LINE
  5
4CF
100
AcDbEntity
  8
RACCORDO
100
AcDbLine
 62
253
  6
CONTINUOUS
 10
17.6269927185
 20
15.9965556918
 11
14.5157228813
 21
14.5074335037
  0
LINE
  5
4D0
100
AcDbEntity
  8
DRAFT
100
AcDbLine
 62
7
  6
CONTINUOUS
 10
20.7699156803
 20
17.1894321485
 11
25.5428864533
 21
19.4738809599
  0
LINE
  5
4D1
100
AcDbEntity
  8
RACCORDO
100
AcDbLine
 62
253
  6
CONTINUOUS
 10
18.9740551605
 20
12.904542052
 11
21.4453693369
 21
14.0873673826
  0
LINE
  5
4D2
100
AcDbEntity
  8
RACCORDO
100
AcDbLine
 62
7
  6
CONTINUOUS
 10
13.4127663867
 20
10.4720741919
 11
12.8690433246
 21
10.2209648635
  0
LINE
  5
4D3
100
AcDbEntity
  8
RACCORDO
100
AcDbLine
 62
253
  6
CONTINUOUS
 10
13.4990902717
 20
10.4649154506
 11
12.956364209
 21
10.2142665696
  0
LWPOLYLINE
  5
4D4
100
AcDbEntity
  8
0
100
AcDbPolyline
 62
253
  6
CONTINUOUS
 90
16
 70
0
 10
-32.0545500688
 20
-7.338843161
 10
-32.0877421335
 20
-7.3534789783
 10
-32.1214135571
 20
-7.3707628991
 10
-32.1553118299
 20
-7.3905653567
 10
-32.1891827415
 20
-7.4127378989
 10
-32.2227722878
 20
-7.4371143017
 10
-32.2558285751
 20
-7.4635118148
 10
-32.2881037093
 20
-7.4917325323
 10
-32.3193556546
 20
-7.5215648763
 10
-32.3493500487
 20
-7.5527851836
 10
-32.3778619597
 20
-7.5851593822
 10
-32.4046775733
 20
-7.6184447467
 10
-32.4295957956
 20
-7.6523917186
 10
-32.4524297613
 20
-7.6867457768
 10
-32.473008235
 20
-7.7212493462
 10
-32.4911768948
 20
-7.7556437295
  0
LWPOLYLINE
  5
4D5
100
AcDbEntity
  8
RACCORDO
100
AcDbPolyline
 62
253
  6
CONTINUOUS
 90
10
 70
0
 10
17.5086338754
 20
13.3974529247
 10
17.5543019009
 20
13.4175272147
 10
17.5996892494
 20
13.433885034
 10
17.6446055891
 20
13.4464579998
 10
17.6888616063
 20
13.455194033
 10
17.7322721749
 20
13.4600564502
 10
17.7746571283
 20
13.4610240909
 10
17.8158376438
 20
13.4580935164
 10
17.8556406221
 20
13.4512772543
 10
17.8939017851
 20
13.4406025887
  0
LINE
  5
4D6
100
AcDbEntity
  8
RACCORDO
100
AcDbLine
 62
7
  6
CONTINUOUS
 10
14.3360852022
 20
12.9606283489
 11
14.3104328324
 21
12.9494651619
  0
LWPOLYLINE
  5
4D7
100
AcDbEntity
  8
RACCORDO
100
AcDbPolyline
 62
253
  6
CONTINUOUS
 90
8
 70
0
 10
17.397605343
 20
13.4049324782
 10
17.4051181724
 20
13.4081430438
 10
17.4207047484
 20
13.4126102713
 10
17.43720047
 20
13.4145791421
 10
17.4544285687
 20
13.4140285299
 10
17.4722044433
 20
13.4109643172
 10
17.490337643
 20
13.4054193172
 10
17.5086338753
 20
13.3974529246
  0
LWPOLYLINE
  5
4D8
100
AcDbEntity
  8
RACCORDO
100
AcDbPolyline
 62
7
  6
CONTINUOUS
 90
5
 70
0
 10
12.8689967077
 20
10.2209433266
 10
12.8730294038
 20
10.2226669183
 10
12.8855023677
 20
10.2263856706
 10
12.8988568796
 20
10.2280547263
 10
12.9127976585
 20
10.2276267532
  0
LINE
  5
4D9
100
AcDbEntity
  8
0
100
AcDbLine
 62
253
  6
CONTINUOUS
 10
-33.7080021392
 20
-7.4109872355
 11
-32.8837617349
 21
-7.0593873786
  0
LINE
  5
4DA
100
AcDbEntity
  8
0
100
AcDbLine
 62
253
  6
CONTINUOUS
 10
-34.5342624839
 20
-7.7595129066
 11
-33.7080021392
 21
-7.4109872355
  0
LINE
  5
4DB
100
AcDbEntity
  8
0
100
AcDbLine
 62
253
  6
CONTINUOUS
 10
-35.357738788
 20
-8.1025482778
 11
-34.5342624839
 21
-7.7595129066
  0
LWPOLYLINE
  5
4DC
100
AcDbEntity
  8
0
100
AcDbPolyline
 62
253
  6
CONTINUOUS
 90
3
 70
0
 10
-36.6006428234
 20
-8.6111616407
 10
-36.1866738244
 20
-8.4430543093
 10
-35.357738788
 20
-8.1025482778
  0
LWPOLYLINE
  5
4DD
100
AcDbEntity
  8
RACCORDO
100
AcDbPolyline
 62
7
  6
CONTINUOUS
 90
9
 70
0
 10
-8.5396603999
 20
29.0240090608
 10
-8.5441535847
 20
29.0593131699
 10
-8.5546159184
 20
29.0929777455
 10
-8.5704362431
 20
29.1242542251
 10
-8.5912624588
 20
29.1521215505
 10
-8.6162174823
 20
29.1766147756
 10
-8.6441111741
 20
29.1987546628
 10
-8.6745610223
 20
29.2185117859
 10
-8.6994919649
 20
29.231751215
  0
LWPOLYLINE
  5
4DE
100
AcDbEntity
  8
RACCORDO
100
AcDbPolyline
 62
7
  6
CONTINUOUS
 90
4
 70
0
 10
-2.130300937
 20
20.3580906904
 10
-2.1304690624
 20
20.3671900638
 10
-2.1335034593
 20
20.3980131323
 10
-2.1403440301
 20
20.4289183831
  0
LWPOLYLINE
  5
4DF
100
AcDbEntity
  8
RACCORDO
100
AcDbPolyline
 62
253
  6
CONTINUOUS
 90
19
 70
0
 10
-1.3694723993
 20
15.0415988148
 10
-1.3693271165
 20
15.0328838798
 10
-1.3688747068
 20
15.0240803962
 10
-1.3680895449
 20
15.015218963
 10
-1.3669441827
 20
15.0063212611
 10
-1.3654140861
 20
14.9974359312
 10
-1.3634824705
 20
14.9886351836
 10
-1.3611291272
 20
14.9799572756
 10
-1.3583348083
 20
14.9714431122
 10
-1.3550940918
 20
14.9631651201
 10
-1.3513945285
 20
14.9551635405
 10
-1.3472252339
 20
14.947480211
 10
-1.3425941487
 20
14.9401829629
 10
-1.3374982702
 20
14.9333102724
 10
-1.3319363852
 20
14.9269008359
 10
-1.3259304188
 20
14.9210125111
 10
-1.3194874684
 20
14.9156779913
 10
-1.3126161665
 20
14.9109288688
 10
-1.3047308428
 20
14.9064950178
  0
LWPOLYLINE
  5
4E0
100
AcDbEntity
  8
RACCORDO
100
AcDbPolyline
 62
7
  6
CONTINUOUS
 90
9
 70
0
 10
-1.428051027
 20
15.1122772675
 10
-1.4280173474
 20
15.1081783253
 10
-1.4261768088
 20
15.0817128994
 10
-1.4215210688
 20
15.0557783925
 10
-1.4141047458
 20
15.0307513215
 10
-1.4040998067
 20
15.007075209
 10
-1.3916318218
 20
14.9849035732
 10
-1.3768071243
 20
14.9643763414
 10
-1.3598872323
 20
14.9458186255
  0
LINE
  5
4E1
100
AcDbEntity
  8
RACCORDO
100
AcDbLine
 62
253
  6
CONTINUOUS
 10
-2.4231867426
 20
20.0046543144
 11
-2.4231867426
 21
18.3717375923
  0
LINE
  5
4E2
100
AcDbEntity
  8
RACCORDO
100
AcDbLine
 62
7
  6
CONTINUOUS
 10
-2.1302935238
 20
20.358207705
 11
-2.1302935238
 21
18.7146020286
  0
LINE
  5
4E3
100
AcDbEntity
  8
RACCORDO
100
AcDbLine
 62
7
  6
CONTINUOUS
 10
-1.4280510432
 20
15.4295770763
 11
-1.4280510432
 21
15.1123082759
  0
LINE
  5
4E4
100
AcDbEntity
  8
RACCORDO
100
AcDbLine
 62
253
  6
CONTINUOUS
 10
-1.3694723995
 20
15.3588663982
 11
-1.3694723995
 21
15.0415988149
  0
LINE
  5
4E5
100
AcDbEntity
  8
RACCORDO
100
AcDbLine
 62
7
  6
CONTINUOUS
 10
-0.7131879228
 20
14.1568463066
 11
-0.7131879228
 21
14.6107235576
  0
LINE
  5
4E6
100
AcDbEntity
  8
RACCORDO
100
AcDbLine
 62
253
  6
CONTINUOUS
 10
-0.6399646181
 20
14.0650377611
 11
-0.6399646181
 21
14.5741119053
  0
LINE
  5
4E7
100
AcDbEntity
  8
RACCORDO
100
AcDbLine
 62
7
  6
CONTINUOUS
 10
-0.5072271859
 20
14.5097917636
 11
-0.5072271859
 21
13.3013726884
  0
LINE
  5
4E8
100
AcDbEntity
  8
RACCORDO
100
AcDbLine
 62
253
  6
CONTINUOUS
 10
-0.4340038812
 20
14.5738633387
 11
-0.4340038812
 21
13.2095641432
  0
LINE
  5
4E9
100
AcDbEntity
  8
RACCORDO
100
AcDbLine
 62
253
  6
CONTINUOUS
 10
-0.2404395951
 20
14.4770811956
 11
-0.2404395951
 21
13.1127820002
  0
LINE
  5
4EA
100
AcDbEntity
  8
RACCORDO
100
AcDbLine
 62
253
  6
CONTINUOUS
 10
0.1100016928
 20
14.1991287498
 11
0.1100016928
 21
13.1224014641
  0
LWPOLYLINE
  5
4EB
100
AcDbEntity
  8
RACCORDO
100
AcDbPolyline
 62
7
  6
CONTINUOUS
 90
9
 70
0
 10
-0.5072270048
 20
14.5093037666
 10
-0.5071186115
 20
14.5100529336
 10
-0.5054214032
 20
14.5135139846
 10
-0.5018326503
 20
14.5182828969
 10
-0.4964801561
 20
14.5238881324
 10
-0.4894950011
 20
14.5303368056
 10
-0.4810360542
 20
14.5377404483
 10
-0.471154725
 20
14.54578529
 10
-0.459927071
 20
14.5544008314
  0
LWPOLYLINE
  5
4EC
100
AcDbEntity
  8
RACCORDO
100
AcDbPolyline
 62
7
  6
CONTINUOUS
 90
3
 70
0
 10
3.2376899887
 20
15.0976587346
 10
3.2430559106
 20
15.1218182102
 10
3.2462003844
 20
15.1466522287
  0
LINE
  5
4ED
100
AcDbEntity
  8
RACCORDO
100
AcDbLine
 62
7
  6
CONTINUOUS
 10
10.7849712754
 20
11.5175610395
 11
12.1785682889
 21
12.7037767986
  0
LWPOLYLINE
  5
4EE
100
AcDbEntity
  8
RACCORDO
100
AcDbPolyline
 62
7
  6
CONTINUOUS
 90
9
 70
0
 10
15.2318781877
 20
12.3677760519
 10
15.2302229782
 20
12.3667398195
 10
15.2261149475
 20
12.362057095
 10
15.2219516517
 20
12.3544040736
 10
15.2178558062
 20
12.3435656082
 10
15.2139970264
 20
12.3297680962
 10
15.2106525656
 20
12.3138570188
 10
15.2079828097
 20
12.296119699
 10
15.2060078692
 20
12.2762826887
  0
LINE
  5
4EF
100
AcDbEntity
  8
RACCORDO
100
AcDbLine
 62
7
  6
CONTINUOUS
 10
23.6187982655
 20
14.0965377282
 11
23.5947268438
 21
14.0822556767
  0
LWPOLYLINE
  5
4F0
100
AcDbEntity
  8
RACCORDO
100
AcDbPolyline
 62
253
  6
CONTINUOUS
 90
7
 70
0
 10
15.7773638585
 20
9.1440435846
 10
15.7940940014
 20
9.1539102357
 10
15.8081369423
 20
9.1647741428
 10
15.8192576994
 20
9.1764535273
 10
15.8272701858
 20
9.1887529645
 10
15.8320403233
 20
9.201466654
 10
15.83349589
 20
9.2134802715
  0
LWPOLYLINE
  5
4F1
100
AcDbEntity
  8
RACCORDO
100
AcDbPolyline
 62
253
  6
CONTINUOUS
 90
7
 70
0
 10
15.7773638585
 20
8.8040999897
 10
15.7940940736
 20
8.8139666948
 10
15.8081370494
 20
8.8248306537
 10
15.819257809
 20
8.836510083
 10
15.8272702723
 20
8.8488095546
 10
15.8320403691
 20
8.8615232653
 10
15.8334958984
 20
8.8735658268
  0
LWPOLYLINE
  5
4F2
100
AcDbEntity
  8
RACCORDO
100
AcDbPolyline
 62
7
  6
CONTINUOUS
 90
12
 70
0
 10
11.2977141912
 20
9.3733623111
 10
11.2862402571
 20
9.3667675849
 10
11.2639746847
 20
9.351417421
 10
11.2431091891
 20
9.3334262858
 10
11.223950486
 20
9.3129922396
 10
11.2072036581
 20
9.2909826831
 10
11.1925643841
 20
9.2671246778
 10
11.1801068008
 20
9.2413342821
 10
11.1704781927
 20
9.214903699
 10
11.1636740155
 20
9.1881596097
 10
11.1595776556
 20
9.1603575435
 10
11.1584497692
 20
9.1362965241
  0
LWPOLYLINE
  5
4F3
100
AcDbEntity
  8
RACCORDO
100
AcDbPolyline
 62
253
  6
CONTINUOUS
 90
13
 70
0
 10
23.7081110367
 20
14.6167731364
 10
23.6800884292
 20
14.601088295
 10
23.6524911975
 20
14.5811015782
 10
23.6258020722
 20
14.5571625769
 10
23.6004878997
 20
14.5296900144
 10
23.5769914838
 20
14.4991644306
 10
23.5557238374
 20
14.4661197793
 10
23.5370569814
 20
14.4311340717
 10
23.5213174473
 20
14.3948192784
 10
23.5087805662
 20
14.3578106353
 10
23.4996656413
 20
14.320755508
 10
23.4941321155
 20
14.284302066
 10
23.492276788
 20
14.2490879607
  0
LWPOLYLINE
  5
4F4
100
AcDbEntity
  8
RACCORDO
100
AcDbPolyline
 62
253
  6
CONTINUOUS
 90
14
 70
0
 10
11.3901148481
 20
9.3692390867
 10
11.3829400608
 20
9.3652927524
 10
11.3755720773
 20
9.3608643955
 10
11.368026038
 20
9.355930309
 10
11.360308748
 20
9.3504600633
 10
11.3524509318
 20
9.3444395222
 10
11.3445062964
 20
9.3378766047
 10
11.3364984893
 20
9.3307590223
 10
11.3284534615
 20
9.3230769117
 10
11.3204290529
 20
9.3148548935
 10
11.3124534257
 20
9.3060928595
 10
11.3045564437
 20
9.2967935097
 10
11.2967968955
 20
9.2869987486
 10
11.2892053655
 20
9.2767218712
  0
LINE
  5
4F5
100
AcDbEntity
  8
RACCORDO
100
AcDbLine
 62
7
  6
CONTINUOUS
 10
10.8704207437
 20
9.4385849543
 11
10.6520747063
 21
9.3193834345
  0
LINE
  5
4F6
100
AcDbEntity
  8
RACCORDO
100
AcDbLine
 62
7
  6
CONTINUOUS
 10
13.2392284607
 20
7.1254412217
 11
12.696502398
 21
6.8291511115
  0
LINE
  5
4F7
100
AcDbEntity
  8
RACCORDO
100
AcDbLine
 62
7
  6
CONTINUOUS
 10
12.864830379
 20
10.2188575624
 11
11.2976168417
 21
9.3733099045
  0
LINE
  5
4F8
100
AcDbEntity
  8
RACCORDO
100
AcDbLine
 62
253
  6
CONTINUOUS
 10
12.956364209
 20
10.2142665696
 11
11.3901148286
 21
9.3692390964
  0
LINE
  5
4F9
100
AcDbEntity
  8
DRAFT
100
AcDbLine
 62
7
  6
CONTINUOUS
 10
21.3350826216
 20
11.1145207853
 11
15.2919022526
 21
7.9198344514
  0
LWPOLYLINE
  5
4FA
100
AcDbEntity
  8
RACCORDO
100
AcDbPolyline
 62
7
  6
CONTINUOUS
 90
7
 70
0
 10
14.3166766973
 20
6.7714627814
 10
14.307509804
 20
6.7666965626
 10
14.2979349653
 20
6.7621700912
 10
14.2879759067
 20
6.7578932365
 10
14.2776573078
 20
6.7538752658
 10
14.2670047411
 20
6.7501248206
 10
14.2560446086
 20
6.7466498957
  0
LINE
  5
4FB
100
AcDbEntity
  8
DRAFT
100
AcDbLine
 62
7
  6
CONTINUOUS
 10
15.8780984392
 20
7.6267363581
 11
20.9556947798
 21
10.2649842217
  0
LINE
  5
4FC
100
AcDbEntity
  8
RACCORDO
100
AcDbLine
 62
7
  6
CONTINUOUS
 10
23.5947268438
 20
14.0822556767
 11
23.5750657958
 21
14.0722477647
  0
LINE
  5
4FD
100
AcDbEntity
  8
RACCORDO
100
AcDbLine
 62
7
  6
CONTINUOUS
 10
21.2768099558
 20
11.6301109119
 11
15.832961132
 21
8.8605376489
  0
LINE
  5
4FE
100
AcDbEntity
  8
RACCORDO
100
AcDbLine
 62
253
  6
CONTINUOUS
 10
13.4558255477
 20
8.3363803531
 11
15.0777276309
 21
9.1535848586
  0
LINE
  5
4FF
100
AcDbEntity
  8
RACCORDO
100
AcDbLine
 62
253
  6
CONTINUOUS
 10
13.5972273213
 20
8.0925027295
 11
15.219127448
 21
8.9097062493
  0
LINE
  5
500
100
AcDbEntity
  8
RACCORDO
100
AcDbLine
 62
253
  6
CONTINUOUS
 10
15.6018320975
 20
9.4135445378
 11
15.0777276309
 21
9.1535848586
  0
LINE
  5
501
100
AcDbEntity
  8
RACCORDO
100
AcDbLine
 62
253
  6
CONTINUOUS
 10
15.7432319145
 20
9.1696659285
 11
15.219127448
 21
8.9097062493
  0
LINE
  5
502
100
AcDbEntity
  8
DRAFT
100
AcDbLine
 62
253
  6
CONTINUOUS
 10
15.219127448
 20
7.2642316021
 11
15.9139454823
 21
7.6088128365
  0
LINE
  5
503
100
AcDbEntity
  8
RACCORDO
100
AcDbLine
 62
7
  6
CONTINUOUS
 10
20.2335114869
 20
12.0350141189
 11
15.2856404767
 21
9.6315902906
  0
LINE
  5
504
100
AcDbEntity
  8
RACCORDO
100
AcDbLine
 62
253
  6
CONTINUOUS
 10
19.451710755
 20
12.6657142547
 11
21.8659311911
 21
13.8212132653
  0
LINE
  5
505
100
AcDbEntity
  8
RACCORDO
100
AcDbLine
 62
7
  6
CONTINUOUS
 10
23.5748926478
 20
14.0721639951
 11
20.0310925992
 21
12.3760233327
  0
LINE
  5
506
100
AcDbEntity
  8
RACCORDO
100
AcDbLine
 62
253
  6
CONTINUOUS
 10
23.7081110367
 20
14.0631809352
 11
20.1054260104
 21
12.338856627
  0
LINE
  5
507
100
AcDbEntity
  8
DRAFT
100
AcDbLine
 62
7
  6
CONTINUOUS
 10
31.906847484
 20
16.2919004445
 11
27.133876711
 21
14.0074516332
  0
LINE
  5
508
100
AcDbEntity
  8
RACCORDO
100
AcDbLine
 62
7
  6
CONTINUOUS
 10
38.3989227209
 20
16.5570219471
 11
35.7278960134
 21
15.3600005011
  0
LINE
  5
509
100
AcDbEntity
  8
RACCORDO
100
AcDbLine
 62
7
  6
CONTINUOUS
 10
40.1846655999
 20
17.3518937923
 11
38.3989227209
 21
16.5570219471
  0
LINE
  5
50A
100
AcDbEntity
  8
RACCORDO
100
AcDbLine
 62
253
  6
CONTINUOUS
 10
36.6579804095
 20
15.5171914534
 11
34.6994104458
 21
14.6537462652
  0
LINE
  5
50B
100
AcDbEntity
  8
RACCORDO
100
AcDbLine
 62
253
  6
CONTINUOUS
 10
38.5883939118
 20
16.3623864345
 11
36.6579804095
 21
15.5171914534
  0
LINE
  5
50C
100
AcDbEntity
  8
RACCORDO
100
AcDbLine
 62
253
  6
CONTINUOUS
 10
40.490328134
 20
17.1893659288
 11
38.5883939118
 21
16.3623864345
  0
LWPOLYLINE
  5
50D
100
AcDbEntity
  8
RACCORDO
100
AcDbPolyline
 62
7
  6
CONTINUOUS
 90
6
 70
0
 10
17.7778080476
 20
4.752334309
 10
17.795274434
 20
4.7574091061
 10
17.8130556164
 20
4.7594871976
 10
17.830897989
 20
4.7584812853
 10
17.8486512295
 20
4.7542968063
 10
17.8640174596
 20
4.7479647103
  0
LWPOLYLINE
  5
50E
100
AcDbEntity
  8
RACCORDO
100
AcDbPolyline
 62
253
  6
CONTINUOUS
 90
7
 70
0
 10
-16.0598103995
 20
24.6675094492
 10
-16.0520115831
 20
24.6532937908
 10
-16.0467791256
 20
24.6404941124
 10
-16.0442015631
 20
24.6293269963
 10
-16.0443225082
 20
24.6199813995
 10
-16.0471399121
 20
24.6126154575
 10
-16.0481229534
 20
24.6112672292
  0
LWPOLYLINE
  5
50F
100
AcDbEntity
  8
DRAFT
100
AcDbPolyline
 62
7
  6
CONTINUOUS
 90
25
 70
0
 10
-17.1281813845
 20
28.3137054221
 10
-17.1133295149
 20
28.2860201002
 10
-17.0996559522
 20
28.2579923229
 10
-17.0871606964
 20
28.2296220901
 10
-17.0758027415
 20
28.2007918879
 10
-17.0656230935
 20
28.1716192301
 10
-17.0567447701
 20
28.1424566589
 10
-17.049183561
 20
28.1133042965
 10
-17.0429236764
 20
28.0841620207
 10
-17.038040765
 20
28.0553820061
 10
-17.0345515344
 20
28.0269686484
 10
-17.0324392771
 20
27.998917552
 10
-17.0317295188
 20
27.9715677051
 10
-17.0324392771
 20
27.9449276165
 10
-17.0345515344
 20
27.9189887774
 10
-17.038040765
 20
27.8940646503
 10
-17.0429236764
 20
27.8701675471
 10
-17.049183561
 20
27.8472851558
 10
-17.0567447701
 20
27.8256940026
 10
-17.0656230935
 20
27.8054097548
 10
-17.0758027415
 20
27.786416745
 10
-17.0871606964
 20
27.7689444976
 10
-17.0996559522
 20
27.7530695206
 10
-17.1133295149
 20
27.738715306
 10
-17.1281813845
 20
27.7258818538
  0
LWPOLYLINE
  5
510
100
AcDbEntity
  8
RACCORDO
100
AcDbPolyline
 62
7
  6
CONTINUOUS
 90
5
 70
0
 10
12.1074155234
 20
-32.9225699386
 10
12.1153459801
 20
-32.9435002683
 10
12.1264376046
 20
-32.9691815205
 10
12.1388301889
 20
-32.9943798941
 10
12.152496824
 20
-33.0189911533
  0
LINE
  5
511
100
AcDbEntity
  8
RACCORDO
100
AcDbLine
 62
253
  6
CONTINUOUS
 10
-6.7730436293
 20
29.3165850504
 11
-6.7675623226
 21
29.291377231
  0
LWPOLYLINE
  5
512
100
AcDbEntity
  8
0
100
AcDbPolyline
 62
253
  6
CONTINUOUS
 90
5
 70
0
 10
5.4073797914
 20
-12.6893811083
 10
5.4100093373
 20
-12.7149696373
 10
5.4174730555
 20
-12.7393409902
 10
5.4297022173
 20
-12.7632267228
 10
5.4465778667
 20
-12.7863945174
  0
LWPOLYLINE
  5
513
100
AcDbEntity
  8
0
100
AcDbPolyline
 62
253
  6
CONTINUOUS
 90
6
 70
0
 10
5.430915988
 20
-25.929622167
 10
5.4318858588
 20
-25.9448076213
 10
5.437978608
 20
-25.9712354877
 10
5.4496010878
 20
-25.997176254
 10
5.4666229175
 20
-26.0223389168
 10
5.4888531463
 20
-26.0464412017
  0
LWPOLYLINE
  5
514
100
AcDbEntity
  8
RACCORDO
100
AcDbPolyline
 62
7
  6
CONTINUOUS
 90
16
 70
0
 10
2.6326267429
 20
15.2029566019
 10
2.6318674023
 20
15.2213140476
 10
2.6295719256
 20
15.2403128075
 10
2.6257493173
 20
15.259753224
 10
2.6204040089
 20
15.2795002023
 10
2.6135905141
 20
15.2992626662
 10
2.6054643071
 20
15.3186016951
 10
2.5962263398
 20
15.3371540593
 10
2.5859383753
 20
15.3548981732
 10
2.574561731
 20
15.3719007546
 10
2.5620887671
 20
15.3880900401
 10
2.5487342552
 20
15.4031122423
 10
2.5347934764
 20
15.4166288442
 10
2.5204815847
 20
15.4284658135
 10
2.5059064524
 20
15.43856455
 10
2.4912269258
 20
15.4468352112
  0
LWPOLYLINE
  5
515
100
AcDbEntity
  8
RACCORDO
100
AcDbPolyline
 62
7
  6
CONTINUOUS
 90
13
 70
0
 10
3.2469951533
 20
15.5067995779
 10
3.2469216558
 20
15.5128635759
 10
3.2450279835
 20
15.5380933148
 10
3.2405678272
 20
15.5628543869
 10
3.2335959134
 20
15.5867727396
 10
3.2242760753
 20
15.609440158
 10
3.2127131696
 20
15.6307540994
 10
3.198975592
 20
15.6506278523
 10
3.1832655897
 20
15.6687841635
 10
3.1658122069
 20
15.6850106367
 10
3.1467175024
 20
15.6992341181
 10
3.1262560693
 20
15.7112604143
 10
3.1236159528
 20
15.7126021288
  0
LINE
  5
516
100
AcDbEntity
  8
DRAFT
100
AcDbLine
 62
7
  6
CONTINUOUS
 10
0.6527277555
 20
13.4186915743
 11
0.6527277555
 21
13.9277657184
  0
LINE
  5
517
100
AcDbEntity
  8
RACCORDO
100
AcDbLine
 62
253
  6
CONTINUOUS
 10
0.6950289232
 20
14.0093469365
 11
0.6950289232
 21
14.3266169106
  0
LINE
  5
518
100
AcDbEntity
  8
RACCORDO
100
AcDbLine
 62
253
  6
CONTINUOUS
 10
0.9753819536
 20
14.0081236346
 11
0.9753819536
 21
14.3253924349
  0
LINE
  5
519
100
AcDbEntity
  8
RACCORDO
100
AcDbLine
 62
253
  6
CONTINUOUS
 10
1.3797347043
 20
13.0551880999
 11
1.3797347043
 21
13.7353593882
  0
LINE
  5
51A
100
AcDbEntity
  8
RACCORDO
100
AcDbLine
 62
253
  6
CONTINUOUS
 10
1.7301759922
 20
13.8230080099
 11
1.7301759922
 21
13.0648075638
  0
LINE
  5
51B
100
AcDbEntity
  8
DRAFT
100
AcDbLine
 62
7
  6
CONTINUOUS
 10
2.2970687607
 20
19.3675550427
 11
2.2970687607
 21
19.5407601234
  0
LINE
  5
51C
100
AcDbEntity
  8
RACCORDO
100
AcDbLine
 62
7
  6
CONTINUOUS
 10
2.6326267429
 20
13.5574819547
 11
2.6326267429
 21
15.2029566019
  0
LINE
  5
51D
100
AcDbEntity
  8
DRAFT
100
AcDbLine
 62
7
  6
CONTINUOUS
 10
2.8447587772
 20
14.4894013148
 11
2.8447587772
 21
14.5120761093
  0
LINE
  5
51E
100
AcDbEntity
  8
RACCORDO
100
AcDbLine
 62
253
  6
CONTINUOUS
 10
3.1908631534
 20
15.4372939372
 11
3.1908631534
 21
15.0973503423
  0
LINE
  5
51F
100
AcDbEntity
  8
RACCORDO
100
AcDbLine
 62
7
  6
CONTINUOUS
 10
3.2469951775
 20
15.5067995779
 11
3.2469951933
 21
15.1668161794
  0
LWPOLYLINE
  5
520
100
AcDbEntity
  8
RACCORDO
100
AcDbPolyline
 62
253
  6
CONTINUOUS
 90
22
 70
0
 10
3.1908631534
 20
15.0973503423
 10
3.1908440274
 20
15.0955994499
 10
3.1907551822
 20
15.0937689317
 10
3.1905966176
 20
15.0918587877
 10
3.1903726469
 20
15.0898635179
 10
3.1900789569
 20
15.0877886223
 10
3.1897026083
 20
15.0856506006
 10
3.1892419499
 20
15.0834472602
 10
3.1886986329
 20
15.0811807936
 10
3.1880646713
 20
15.0788742788
 10
3.1873380083
 20
15.0765259023
 10
3.1865207006
 20
15.0741374775
 10
3.1856109328
 20
15.0717375223
 10
3.184606452
 20
15.0693249184
 10
3.1835095111
 20
15.0669007841
 10
3.1823250525
 20
15.0644969923
 10
3.1810508818
 20
15.0621133506
 10
3.1796891934
 20
15.0597500515
 10
3.1782515133
 20
15.0574395444
 10
3.1767416834
 20
15.0551926459
 10
3.1751558619
 20
15.0529985395
 10
3.1734940487
 20
15.0508572251
  0
LWPOLYLINE
  5
521
100
AcDbEntity
  8
RACCORDO
100
AcDbPolyline
 62
253
  6
CONTINUOUS
 90
31
 70
0
 10
0.9753819536
 20
14.3253924349
 10
0.975401832
 20
14.327145077
 10
0.9754940321
 20
14.3289760495
 10
0.9756585536
 20
14.3308853523
 10
0.9758909704
 20
14.3328786828
 10
0.9761957087
 20
14.3349503436
 10
0.9765860476
 20
14.3370832429
 10
0.9770637417
 20
14.3392795274
 10
0.9776270363
 20
14.3415370505
 10
0.9782839462
 20
14.3438322798
 10
0.9790366264
 20
14.3461669373
 10
0.979882922
 20
14.348539301
 10
0.9808243819
 20
14.3509206731
 10
0.9818632771
 20
14.3533119581
 10
0.9829973367
 20
14.3557122515
 10
0.9842212978
 20
14.358090142
 10
0.9855371127
 20
14.3604454463
 10
0.9869428292
 20
14.3627783477
 10
0.9884273275
 20
14.3650579852
 10
0.9899922274
 20
14.3672835619
 10
0.9916359092
 20
14.3694558747
 10
0.993342394
 20
14.3715464535
 10
0.9951130942
 20
14.3735541048
 10
0.9969465975
 20
14.3754800221
 10
0.9988226878
 20
14.3772993167
 10
1.0007422746
 20
14.3790101049
 10
1.0027044484
 20
14.3806142703
 10
1.004686264
 20
14.3820925745
 10
1.006680073
 20
14.3834386048
 10
1.0086935237
 20
14.384658774
 10
1.0107266162
 20
14.3857530821
  0
LWPOLYLINE
  5
522
100
AcDbEntity
  8
RACCORDO
100
AcDbPolyline
 62
253
  6
CONTINUOUS
 90
31
 70
0
 10
0.6950289234
 20
14.3266169105
 10
0.6951713758
 20
14.3353662002
 10
0.6956168983
 20
14.3445227016
 10
0.6963921875
 20
14.3540824201
 10
0.6975258132
 20
14.3640529035
 10
0.6990436717
 20
14.3744100818
 10
0.7009638511
 20
14.3850967109
 10
0.7033077259
 20
14.3960952376
 10
0.7060956895
 20
14.4073846015
 10
0.7093339978
 20
14.4188958557
 10
0.7130361253
 20
14.4306013549
 10
0.7172139029
 20
14.4424703061
 10
0.7218596447
 20
14.4544248074
 10
0.7269769131
 20
14.4664286864
 10
0.7325677817
 20
14.4784447593
 10
0.7386107247
 20
14.4903924444
 10
0.7450982752
 20
14.502229673
 10
0.7520231737
 20
14.513917452
 10
0.7593539427
 20
14.5253818109
 10
0.7670741975
 20
14.5365806277
 10
0.7751676968
 20
14.5474745912
 10
0.7835951086
 20
14.5579985675
 10
0.7923337343
 20
14.5681147469
 10
0.8013592515
 20
14.5777858561
 10
0.8106238146
 20
14.5869547827
 10
0.820099186
 20
14.595590007
 10
0.8297560574
 20
14.6036613376
 10
0.8395409049
 20
14.6111235368
 10
0.8494144522
 20
14.6179492187
 10
0.8593529582
 20
14.6241242748
 10
0.8693248695
 20
14.6296306922
  0
LINE
  5
523
100
AcDbEntity
  8
RACCORDO
100
AcDbLine
 62
7
  6
CONTINUOUS
 10
3.2462003844
 20
15.1466522287
 11
3.2469951699
 21
15.1668335649
  0
LWPOLYLINE
  5
524
100
AcDbEntity
  8
RACCORDO
100
AcDbPolyline
 62
253
  6
CONTINUOUS
 90
13
 70
0
 10
4.4041126319
 20
13.526059842
 10
4.4052958039
 20
13.5490093163
 10
4.4088255163
 20
13.5727579799
 10
4.414642715
 20
13.5969084593
 10
4.4226500703
 20
13.6210566553
 10
4.4327136046
 20
13.6447985049
 10
4.4446649342
 20
13.6677367424
 10
4.4583040877
 20
13.6894875477
 10
4.4734028491
 20
13.7096869656
 10
4.4897085763
 20
13.7279969965
 10
4.5069484311
 20
13.7441112567
 10
4.5248339451
 20
13.7577601046
 10
4.5430658444
 20
13.7687151498
  0
LWPOLYLINE
  5
525
100
AcDbEntity
  8
RACCORDO
100
AcDbPolyline
 62
253
  6
CONTINUOUS
 90
7
 70
0
 10
3.2469951933
 20
15.5067597742
 10
3.245539664
 20
15.4947172127
 10
3.2407695672
 20
15.4820035021
 10
3.2327571039
 20
15.4697040304
 10
3.2216363443
 20
15.4580246011
 10
3.2075933685
 20
15.4471606422
 10
3.1908631534
 20
15.4372939372
  0
LWPOLYLINE
  5
526
100
AcDbEntity
  8
RACCORDO
100
AcDbPolyline
 62
253
  6
CONTINUOUS
 90
7
 70
0
 10
3.2469951933
 20
15.1668161793
 10
3.2455396631
 20
15.154773614
 10
3.2407695654
 20
15.1420599038
 10
3.2327571017
 20
15.1297604328
 10
3.2216363421
 20
15.1180810043
 10
3.2075933671
 20
15.1072170464
 10
3.1908631534
 20
15.0973503423
  0
LWPOLYLINE
  5
527
100
AcDbEntity
  8
RACCORDO
100
AcDbPolyline
 62
253
  6
CONTINUOUS
 90
18
 70
0
 10
11.2892053655
 20
9.2767218712
 10
11.281812311
 20
9.2659775788
 10
11.2746722547
 20
9.2548216066
 10
11.2678156877
 20
9.2432805109
 10
11.2612702034
 20
9.2313783526
 10
11.2550801553
 20
9.2191760065
 10
11.2492716949
 20
9.2067072396
 10
11.2438694934
 20
9.1940057383
 10
11.2389086922
 20
9.1811379574
 10
11.2344094797
 20
9.16814246
 10
11.2303909886
 20
9.1550590211
 10
11.2268783871
 20
9.141958685
 10
11.2238844445
 20
9.1288826799
 10
11.2214203855
 20
9.1158721998
 10
11.2194994957
 20
9.1029979489
 10
11.2181267197
 20
9.0903095504
 10
11.2173027795
 20
9.0778361874
 10
11.2170283056
 20
9.0656160456
  0
LWPOLYLINE
  5
528
100
AcDbEntity
  8
0
100
AcDbPolyline
 62
253
  6
CONTINUOUS
 90
10
 70
0
 10
7.3460442152
 20
3.6654271954
 10
7.0396054373
 20
3.3817040573
 10
6.7468679193
 20
3.1041487394
 10
6.4677883519
 20
2.833299754
 10
6.2016910097
 20
2.5696388785
 10
5.9491386418
 20
2.31373908
 10
5.7118193893
 20
2.0661903085
 10
5.4901072415
 20
1.8274271943
 10
5.2831759965
 20
1.5978025284
 10
5.0907912827
 20
1.3776841456
  0
LWPOLYLINE
  5
529
100
AcDbEntity
  8
DRAFT
100
AcDbPolyline
 62
7
  6
CONTINUOUS
 90
25
 70
0
 10
14.6916237689
 20
11.8159792771
 10
14.7064756385
 20
11.8288127293
 10
14.7201492012
 20
11.843166944
 10
14.732644457
 20
11.8590419209
 10
14.7440024119
 20
11.8765141683
 10
14.7541820599
 20
11.8955071781
 10
14.7630603833
 20
11.9157914259
 10
14.7706215924
 20
11.9373825791
 10
14.776881477
 20
11.9602649704
 10
14.7817643884
 20
11.9841620736
 10
14.785253619
 20
12.0090862007
 10
14.7873658763
 20
12.0350250398
 10
14.7880756346
 20
12.0616651284
 10
14.7873658763
 20
12.0890149753
 10
14.785253619
 20
12.1170660717
 10
14.7817643884
 20
12.1454794294
 10
14.776881477
 20
12.174259444
 10
14.7706215924
 20
12.2034017198
 10
14.7630603833
 20
12.2325540822
 10
14.7541820599
 20
12.2617166534
 10
14.7440024119
 20
12.2908893112
 10
14.732644457
 20
12.3197195134
 10
14.7201492012
 20
12.3480897462
 10
14.7064756385
 20
12.3761175235
 10
14.6916237689
 20
12.4038028454
  0
LINE
  5
52A
100
AcDbEntity
  8
RACCORDO
100
AcDbLine
 62
7
  6
CONTINUOUS
 10
12.1265736342
 20
8.2611504789
 11
12.152496824
 21
8.2806129861
  0
LINE
  5
52B
100
AcDbEntity
  8
RACCORDO
100
AcDbLine
 62
7
  6
CONTINUOUS
 10
14.3166766973
 20
6.7714627814
 11
15.219127448
 21
7.2642316021
  0
LINE
  5
52C
100
AcDbEntity
  8
RACCORDO
100
AcDbLine
 62
253
  6
CONTINUOUS
 10
10.0110630254
 20
4.4669650672
 11
14.2560446086
 21
6.7466498957
  0
LINE
  5
52D
100
AcDbEntity
  8
RACCORDO
100
AcDbLine
 62
253
  6
CONTINUOUS
 10
15.5726808386
 20
6.6544420013
 11
10.373743868
 21
3.8624539788
  0
LINE
  5
52E
100
AcDbEntity
  8
DRAFT
100
AcDbLine
 62
7
  6
CONTINUOUS
 10
16.6148271182
 20
4.3048299281
 11
16.267445025
 21
4.1280983199
  0
LINE
  5
52F
100
AcDbEntity
  8
RACCORDO
100
AcDbLine
 62
253
  6
CONTINUOUS
 10
15.5726808386
 20
6.6545081549
 11
16.267445025
 21
6.9991163132
  0
LINE
  5
530
100
AcDbEntity
  8
RACCORDO
100
AcDbLine
 62
253
  6
CONTINUOUS
 10
16.267445025
 20
6.4711677203
 11
33.9785930024
 21
15.2560276854
  0
LINE
  5
531
100
AcDbEntity
  8
0
100
AcDbLine
 62
253
  6
CONTINUOUS
 10
17.9887483036
 20
4.184807226
 11
40.9975681807
 21
15.5973515083
  0
LINE
  5
532
100
AcDbEntity
  8
RACCORDO
100
AcDbLine
 62
7
  6
CONTINUOUS
 10
35.7278960134
 20
15.3600005011
 11
34.5454161167
 21
14.8272172815
  0
LINE
  5
533
100
AcDbEntity
  8
0
100
AcDbLine
 62
7
  6
CONTINUOUS
 10
16.6148271182
 20
4.0330365131
 11
17.5482969049
 21
4.4145552347
  0
LINE
  5
534
100
AcDbEntity
  8
0
100
AcDbLine
 62
253
  6
CONTINUOUS
 10
8.364775481
 20
1.8150945509
 11
7.5450377771
 21
1.4817652812
  0
LINE
  5
535
100
AcDbEntity
  8
0
100
AcDbLine
 62
253
  6
CONTINUOUS
 10
7.5450377771
 20
1.4817652812
 11
6.8354196701
 21
1.1982935157
  0
LWPOLYLINE
  5
536
100
AcDbEntity
  8
0
100
AcDbPolyline
 62
253
  6
CONTINUOUS
 90
5
 70
0
 10
6.8354196701
 20
1.1982935157
 10
6.227033756
 20
0.9605504136
 10
5.9549807901
 20
0.8563633028
 10
5.7046794274
 20
0.7620025313
 10
5.4757112825
 20
0.6772287337
  0
LINE
  5
537
100
AcDbEntity
  8
0
100
AcDbLine
 62
7
  6
CONTINUOUS
 10
5.0049824536
 20
1.3472656439
 11
-32.1888885858
 21
19.9442011525
  0
LINE
  5
538
100
AcDbEntity
  8
0
100
AcDbLine
 62
253
  6
CONTINUOUS
 10
4.8887202589
 20
1.5050621785
 11
-32.3050964315
 21
20.1019705237
  0
LWPOLYLINE
  5
539
100
AcDbEntity
  8
0
100
AcDbPolyline
 62
7
  6
CONTINUOUS
 90
3
 70
0
 10
5.004982843
 20
1.3472664199
 10
5.019846628
 20
1.3395623369
 10
5.0396871178
 20
1.3284939503
  0
LWPOLYLINE
  5
53A
100
AcDbEntity
  8
0
100
AcDbPolyline
 62
253
  6
CONTINUOUS
 90
8
 70
0
 10
-32.1888893519
 20
19.9442015356
 10
-32.2125820466
 20
19.9583072336
 10
-32.2333880868
 20
19.9750877595
 10
-32.2522090796
 20
19.9949509059
 10
-32.2689056572
 20
20.0177496379
 10
-32.2833541733
 20
20.0433151797
 10
-32.2954476213
 20
20.0714582606
 10
-32.3050964328
 20
20.1019705241
  0
LWPOLYLINE
  5
53B
100
AcDbEntity
  8
0
100
AcDbPolyline
 62
253
  6
CONTINUOUS
 90
8
 70
0
 10
5.0049280291
 20
1.3472928451
 10
4.9812329467
 20
1.3614000593
 10
4.9604271388
 20
1.3781807393
 10
4.9416064284
 20
1.3980439385
 10
4.924910166
 20
1.4208425878
 10
4.9104619725
 20
1.4464078835
 10
4.8983688238
 20
1.4745505374
 10
4.8887202589
 20
1.5050621785
  0
LWPOLYLINE
  5
53C
100
AcDbEntity
  8
0
100
AcDbPolyline
 62
7
  6
CONTINUOUS
 90
5
 70
0
 10
5.0396871178
 20
1.3284939503
 10
5.0614622384
 20
1.315403145
 10
5.0850203955
 20
1.3002126685
 10
5.1101200881
 20
1.2829266965
 10
5.1315254119
 20
1.2673319026
  0
LWPOLYLINE
  5
53D
100
AcDbEntity
  8
0
100
AcDbPolyline
 62
253
  6
CONTINUOUS
 90
6
 70
0
 10
5.0563319949
 20
1.4029551048
 10
5.0221889717
 20
1.426612927
 10
4.988358657
 20
1.4486545695
 10
4.9548382851
 20
1.4690776697
 10
4.9216258805
 20
1.4878805425
 10
4.8887202589
 20
1.5050621785
  0
LWPOLYLINE
  5
53E
100
AcDbEntity
  8
RACCORDO
100
AcDbPolyline
 62
7
  6
CONTINUOUS
 90
4
 70
0
 10
-33.1796923857
 20
30.8557212022
 10
-33.1609450853
 20
30.8393480894
 10
-33.1404858575
 20
30.8252252544
 10
-33.1243223427
 20
30.8162921575
  0
LWPOLYLINE
  5
53F
100
AcDbEntity
  8
0
100
AcDbPolyline
 62
7
  6
CONTINUOUS
 90
6
 70
0
 10
5.4210789086
 20
0.7331891737
 10
5.4252587205
 20
0.6938998391
 10
5.428136429
 20
0.6580098558
 10
5.4299654006
 20
0.6241245021
 10
5.4308277312
 20
0.5924424938
 10
5.4309191909
 20
0.5743713409
  0
LWPOLYLINE
  5
540
100
AcDbEntity
  8
0
100
AcDbPolyline
 62
253
  6
CONTINUOUS
 90
4
 70
0
 10
5.4757112825
 20
0.6772287337
 10
5.4715922005
 20
0.719191161
 10
5.4649233517
 20
0.7630955189
 10
5.4556097623
 20
0.808662957
  0
LWPOLYLINE
  5
541
100
AcDbEntity
  8
0
100
AcDbPolyline
 62
253
  6
CONTINUOUS
 90
6
 70
0
 10
5.4309191215
 20
0.5743519813
 10
5.4318899743
 20
0.5584220638
 10
5.4379842866
 20
0.5322443692
 10
5.4496083945
 20
0.5065190597
 10
5.466631894
 20
0.4815347329
 10
5.4888638087
 20
0.4575716737
  0
LWPOLYLINE
  5
542
100
AcDbEntity
  8
RACCORDO
100
AcDbPolyline
 62
253
  6
CONTINUOUS
 90
16
 70
0
 10
6.9397641051
 20
12.3538926435
 10
6.9385478328
 20
12.3768815208
 10
6.9354351149
 20
12.4005994789
 10
6.9304606333
 20
12.4247870588
 10
6.9236797182
 20
12.4491798101
 10
6.9151666901
 20
12.4735105918
 10
6.9050140553
 20
12.4975124972
 10
6.893332909
 20
12.5209225209
 10
6.8802516246
 20
12.5434845882
 10
6.8659133764
 20
12.5649517447
 10
6.8504733713
 20
12.5850903487
 10
6.8341020276
 20
12.6036779128
 10
6.8169837383
 20
12.6205070643
 10
6.7993078359
 20
12.6353937021
 10
6.7812658182
 20
12.6481775598
 10
6.7630545907
 20
12.6587201635
  0
LWPOLYLINE
  5
543
100
AcDbEntity
  8
RACCORDO
100
AcDbPolyline
 62
253
  6
CONTINUOUS
 90
16
 70
0
 10
6.6594110748
 20
12.3551159454
 10
6.6591997478
 20
12.359825475
 10
6.6586230578
 20
12.3645724173
 10
6.6576810047
 20
12.3693567723
 10
6.6563555437
 20
12.374231341
 10
6.6546647197
 20
12.3791433223
 10
6.6526626672
 20
12.3839343136
 10
6.6503391158
 20
12.3886003887
 10
6.6477043359
 20
12.3931454738
 10
6.6448432741
 20
12.3974229442
 10
6.6417484586
 20
12.4014242585
 10
6.638427361
 20
12.4051579581
 10
6.6349873423
 20
12.4085030419
 10
6.6314641895
 20
12.4114191763
 10
6.6278221156
 20
12.4139466949
 10
6.6240611205
 20
12.4160855977
  0
LWPOLYLINE
  5
544
100
AcDbEntity
  8
RACCORDO
100
AcDbPolyline
 62
7
  6
CONTINUOUS
 90
16
 70
0
 10
7.1581101425
 20
12.463907525
 10
7.1571609668
 20
12.4868543321
 10
7.1542916209
 20
12.510602782
 10
7.1495133605
 20
12.5349033027
 10
7.142831725
 20
12.5595870255
 10
7.1343148564
 20
12.5842901053
 10
7.1241570977
 20
12.6084638915
 10
7.1126096386
 20
12.6316543468
 10
7.099749683
 20
12.6538344892
 10
7.0855288777
 20
12.6750877159
 10
7.0699376728
 20
12.6953243227
 10
7.0532445329
 20
12.7141020755
 10
7.0358185593
 20
12.7309978279
 10
7.0179286947
 20
12.7457940396
 10
6.9997097794
 20
12.7584174601
 10
6.9813603711
 20
12.7687557866
  0
LWPOLYLINE
  5
545
100
AcDbEntity
  8
SUPERFICI
100
AcDbPolyline
 62
253
  6
CONTINUOUS
 90
7
 70
0
 10
8.3647753965
 20
-31.0938708391
 10
8.3111848278
 20
-29.2930725754
 10
8.2638967212
 20
-27.4888694226
 10
8.222911897
 20
-25.6812935721
 10
8.1882310142
 20
-23.870367952
 10
8.1598551187
 20
-22.0561339805
 10
8.1377852975
 20
-20.2386517467
  0
LWPOLYLINE
  5
546
100
AcDbEntity
  8
SUPERFICI
100
AcDbPolyline
 62
253
  6
CONTINUOUS
 90
4
 70
0
 10
8.1377852975
 20
-20.2386517467
 10
8.1220216726
 20
-18.4179631521
 10
8.1125637653
 20
-16.5940917199
 10
8.1094112105
 20
-14.7670702563
  0
LINE
  5
547
100
AcDbEntity
  8
0
100
AcDbLine
 62
253
  6
CONTINUOUS
 10
5.4888531506
 20
-26.0464412005
 11
5.4722712244
 21
-23.1663121661
  0
LWPOLYLINE
  5
548
100
AcDbEntity
  8
0
100
AcDbPolyline
 62
253
  6
CONTINUOUS
 90
7
 70
0
 10
5.4888531506
 20
0.4575688991
 10
5.48867657
 20
0.4926242982
 10
5.4876927381
 20
0.5283013074
 10
5.4859005153
 20
0.5645994282
 10
5.4832992474
 20
0.6015183021
 10
5.4798887624
 20
0.6390577093
 10
5.475669367
 20
0.6772175678
  0
LINE
  5
549
100
AcDbEntity
  8
0
100
AcDbLine
 62
253
  6
CONTINUOUS
 10
5.4722712244
 20
-23.1663121661
 11
5.4600235791
 21
-20.2480421202
  0
LINE
  5
54A
100
AcDbEntity
  8
0
100
AcDbLine
 62
7
  6
CONTINUOUS
 10
5.4184755946
 20
-21.7387624459
 11
5.4309159421
 21
-25.9296095393
  0
LINE
  5
54B
100
AcDbEntity
  8
0
100
AcDbLine
 62
253
  6
CONTINUOUS
 10
5.4600235791
 20
-20.2480421202
 11
5.4517810605
 21
-17.2917979635
  0
LINE
  5
54C
100
AcDbEntity
  8
0
100
AcDbLine
 62
7
  6
CONTINUOUS
 10
5.4104792208
 20
-17.280814958
 11
5.4184755946
 21
-21.7387624459
  0
LINE
  5
54D
100
AcDbEntity
  8
0
100
AcDbLine
 62
253
  6
CONTINUOUS
 10
5.4517810605
 20
-17.2917979635
 11
5.4473754389
 21
-14.2976767175
  0
LINE
  5
54E
100
AcDbEntity
  8
RACCORDO
100
AcDbLine
 62
7
  6
CONTINUOUS
 10
4.3101840339
 20
13.571150822
 11
4.3101840339
 21
12.3866141988
  0
LINE
  5
54F
100
AcDbEntity
  8
RACCORDO
100
AcDbLine
 62
253
  6
CONTINUOUS
 10
4.3687626776
 20
13.5004401439
 11
4.3687626776
 21
12.3131673626
  0
LINE
  5
550
100
AcDbEntity
  8
DRAFT
100
AcDbLine
 62
7
  6
CONTINUOUS
 10
5.5488612395
 20
17.7638527842
 11
5.5488612395
 21
17.8280931424
  0
LINE
  5
551
100
AcDbEntity
  8
DRAFT
100
AcDbLine
 62
7
  6
CONTINUOUS
 10
5.578408997
 20
14.9810558545
 11
5.578408997
 21
15.8734924581
  0
LINE
  5
552
100
AcDbEntity
  8
DRAFT
100
AcDbLine
 62
7
  6
CONTINUOUS
 10
6.274226666
 20
17.4011700709
 11
6.274226666
 21
15.3092015396
  0
LINE
  5
553
100
AcDbEntity
  8
RACCORDO
100
AcDbLine
 62
253
  6
CONTINUOUS
 10
6.6594110748
 20
11.1678431641
 11
6.6594110748
 21
12.3551159454
  0
LINE
  5
554
100
AcDbEntity
  8
RACCORDO
100
AcDbLine
 62
253
  6
CONTINUOUS
 10
6.9397641051
 20
11.1755387352
 11
6.9397641051
 21
12.3538926435
  0
LINE
  5
555
100
AcDbEntity
  8
RACCORDO
100
AcDbLine
 62
7
  6
CONTINUOUS
 10
7.1581101425
 20
12.463907525
 11
7.1581101425
 21
11.2947402549
  0
LINE
  5
556
100
AcDbEntity
  8
RACCORDO
100
AcDbLine
 62
7
  6
CONTINUOUS
 10
8.0224946351
 20
11.7149955214
 11
8.0224946351
 21
10.5304588982
  0
LINE
  5
557
100
AcDbEntity
  8
0
100
AcDbLine
 62
253
  6
CONTINUOUS
 10
5.4473754389
 20
-14.2976767175
 11
5.447374908
 21
-11.2759623995
  0
LINE
  5
558
100
AcDbEntity
  8
0
100
AcDbLine
 62
7
  6
CONTINUOUS
 10
5.4088807481
 20
-9.6267453483
 11
5.4104792208
 21
-17.280814958
  0
LINE
  5
559
100
AcDbEntity
  8
0
100
AcDbLine
 62
253
  6
CONTINUOUS
 10
5.447374908
 20
-11.2759623995
 11
5.4517789046
 21
-8.284246117
  0
LINE
  5
55A
100
AcDbEntity
  8
0
100
AcDbLine
 62
7
  6
CONTINUOUS
 10
5.4184781543
 20
-3.6278463953
 11
5.4088807481
 21
-9.6267453483
  0
LINE
  5
55B
100
AcDbEntity
  8
0
100
AcDbLine
 62
253
  6
CONTINUOUS
 10
5.4517789046
 20
-8.284246117
 11
5.4600196233
 21
-5.3315157376
  0
LINE
  5
55C
100
AcDbEntity
  8
0
100
AcDbLine
 62
7
  6
CONTINUOUS
 10
5.430915919
 20
0.5743519849
 11
5.4184781543
 21
-3.6278463953
  0
LINE
  5
55D
100
AcDbEntity
  8
0
100
AcDbLine
 62
253
  6
CONTINUOUS
 10
5.4600196233
 20
-5.3315157376
 11
5.472267451
 21
-2.4176193432
  0
LINE
  5
55E
100
AcDbEntity
  8
0
100
AcDbLine
 62
253
  6
CONTINUOUS
 10
5.472267451
 20
-2.4176193432
 11
5.4888531506
 21
0.4575688991
  0
LWPOLYLINE
  5
55F
100
AcDbEntity
  8
0
100
AcDbPolyline
 62
7
  6
CONTINUOUS
 90
7
 70
0
 10
5.4309188533
 20
-25.9296221498
 10
5.430770026
 20
-25.9507240781
 10
5.4299928349
 20
-25.9753650699
 10
5.4286563751
 20
-25.9976280543
 10
5.4268851966
 20
-26.0173607496
 10
5.4248127007
 20
-26.0345341547
 10
5.4235059413
 20
-26.0434610795
  0
LWPOLYLINE
  5
560
100
AcDbEntity
  8
RACCORDO
100
AcDbPolyline
 62
253
  6
CONTINUOUS
 90
13
 70
0
 10
6.6240611205
 20
12.4160855977
 10
6.6252443003
 20
12.4390352021
 10
6.628774042
 20
12.4627839776
 10
6.6345912834
 20
12.4869345435
 10
6.6425986865
 20
12.5110827958
 10
6.6526622659
 20
12.5348246693
 10
6.6646136309
 20
12.5577628986
 10
6.6782528029
 20
12.5795136655
 10
6.6933515619
 20
12.5997130211
 10
6.7096572652
 20
12.6180229758
 10
6.7268970744
 20
12.634137155
 10
6.7447825211
 20
12.6477859249
 10
6.7630143337
 20
12.6587409051
  0
LWPOLYLINE
  5
561
100
AcDbEntity
  8
RACCORDO
100
AcDbPolyline
 62
253
  6
CONTINUOUS
 90
13
 70
0
 10
8.1164232331
 20
11.6699045414
 10
8.1176064052
 20
11.6928540156
 10
8.1211361175
 20
11.7166026793
 10
8.1269533162
 20
11.7407531587
 10
8.1349606715
 20
11.7649013547
 10
8.1450242058
 20
11.7886432043
 10
8.1569755355
 20
11.8115814418
 10
8.1706146889
 20
11.8333322471
 10
8.1857134503
 20
11.853531665
 10
8.2020191775
 20
11.8718416959
 10
8.2192590323
 20
11.8879559561
 10
8.2371445464
 20
11.901604804
 10
8.2553764457
 20
11.9125598492
  0
LWPOLYLINE
  5
562
100
AcDbEntity
  8
DRAFT
100
AcDbPolyline
 62
7
  6
CONTINUOUS
 90
13
 70
0
 10
10.8704207437
 20
9.9426594164
 10
10.8811654964
 20
9.9674077377
 10
10.8899693706
 20
9.9936612766
 10
10.8968323664
 20
10.021420033
 10
10.9017700217
 20
10.0508544975
 10
10.9047667985
 20
10.0817941795
 10
10.9057760827
 20
10.1137276078
 10
10.9047667985
 20
10.1466703203
 10
10.9017700217
 20
10.1806067792
 10
10.8968323664
 20
10.2149788989
 10
10.8899693706
 20
10.2496006511
 10
10.8811654964
 20
10.2846580642
 10
10.8704207437
 20
10.3201511382
  0
LWPOLYLINE
  5
563
100
AcDbEntity
  8
RACCORDO
100
AcDbPolyline
 62
253
  6
CONTINUOUS
 90
13
 70
0
 10
15.7599947538
 20
8.7576068725
 10
15.762583263
 20
8.7610135808
 10
15.7649845344
 20
8.7645545128
 10
15.7671985679
 20
8.7682296687
 10
15.7692390195
 20
8.7720688981
 10
15.7710922332
 20
8.7760423512
 10
15.7727172413
 20
8.7800604791
 10
15.7741088759
 20
8.784124111
 10
15.7752723049
 20
8.7882324175
 10
15.7761820641
 20
8.7922933623
 10
15.7768296654
 20
8.7962762666
 10
15.7772235969
 20
8.800211809
 10
15.7773638585
 20
8.8040999897
  0
LWPOLYLINE
  5
564
100
AcDbEntity
  8
RACCORDO
100
AcDbPolyline
 62
7
  6
CONTINUOUS
 90
6
 70
0
 10
15.771659112
 20
8.7013358745
 10
15.77952327
 20
8.7115469977
 10
15.7934911879
 20
8.7325185233
 10
15.8056708544
 20
8.7549609394
 10
15.8159098901
 20
8.7787578135
 10
15.8238040541
 20
8.802996682
  0
LINE
  5
565
100
AcDbEntity
  8
RACCORDO
100
AcDbLine
 62
253
  6
CONTINUOUS
 10
15.219127448
 20
8.0883193864
 11
15.7599947538
 21
8.7576068725
  0
LINE
  5
566
100
AcDbEntity
  8
RACCORDO
100
AcDbLine
 62
7
  6
CONTINUOUS
 10
15.219127448
 20
8.0176147255
 11
15.7716822012
 21
8.7013646541
  0
LWPOLYLINE
  5
567
100
AcDbEntity
  8
RACCORDO
100
AcDbPolyline
 62
7
  6
CONTINUOUS
 90
5
 70
0
 10
23.6501388052
 20
14.1220266874
 10
23.6499549769
 20
14.1218344018
 10
23.6459922091
 20
14.1176193953
 10
23.6358296394
 20
14.1087495753
 10
23.6187982655
 20
14.0965377282
  0
LWPOLYLINE
  5
568
100
AcDbEntity
  8
RACCORDO
100
AcDbPolyline
 62
7
  6
CONTINUOUS
 90
14
 70
0
 10
14.3166766973
 20
7.5297576573
 10
14.2980435178
 20
7.5120036685
 10
14.2782218615
 20
7.4954276282
 10
14.2573666085
 20
7.4802248421
 10
14.2355653874
 20
7.4665653549
 10
14.2130682567
 20
7.4545982663
 10
14.1902950995
 20
7.444434243
 10
14.1675460062
 20
7.436172284
 10
14.1449003185
 20
7.4298213588
 10
14.1224400057
 20
7.4253512448
 10
14.100212546
 20
7.4227938449
 10
14.0785100615
 20
7.4222217007
 10
14.0577681573
 20
7.4236072521
 10
14.0389462218
 20
7.42668499
  0
LINE
  5
569
100
AcDbEntity
  8
DRAFT
100
AcDbLine
 62
7
  6
CONTINUOUS
 10
15.5726808386
 20
3.7099558321
 11
16.6148271182
 21
3.4995428641
  0
LINE
  5
56A
100
AcDbEntity
  8
DRAFT
100
AcDbLine
 62
7
  6
CONTINUOUS
 10
15.5726808386
 20
3.7099558321
 11
16.6611153744
 21
3.4763987359
  0
LWPOLYLINE
  5
56B
100
AcDbEntity
  8
RACCORDO
100
AcDbPolyline
 62
253
  6
CONTINUOUS
 90
16
 70
0
 10
9.1954174603
 20
3.0769965563
 10
9.2336299176
 20
3.0596154831
 10
9.2751799789
 20
3.0440982414
 10
9.3196274407
 20
3.0306092293
 10
9.3665014028
 20
3.0192913565
 10
9.4153052577
 20
3.0102645305
 10
9.4655219512
 20
3.0036243863
 10
9.5166194609
 20
2.9994412731
 10
9.5680564325
 20
2.9977595089
 10
9.6192879155
 20
2.9985969114
 10
9.6697711361
 20
3.0019446087
 10
9.7189712483
 20
3.0077671334
 10
9.7663669998
 20
3.0160027986
 10
9.8114562548
 20
3.0265643512
 10
9.8537613137
 20
3.0393398967
 10
9.8928339742
 20
3.054194084
  0
LWPOLYLINE
  5
56C
100
AcDbEntity
  8
0
100
AcDbPolyline
 62
253
  6
CONTINUOUS
 90
7
 70
0
 10
-32.3050964315
 20
20.1019705237
 10
-32.3375071432
 20
20.117454325
 10
-32.3693431936
 20
20.1311800528
 10
-32.4006033985
 20
20.1431487163
 10
-32.4312857795
 20
20.1533620034
 10
-32.4613875644
 20
20.1618222819
 10
-32.490905188
 20
20.1685326026
  0
LINE
  5
56D
100
AcDbEntity
  8
SUPERFICI
100
AcDbLine
 62
253
  6
CONTINUOUS
 10
7.3460442152
 20
3.6654271954
 11
-35.4980537456
 21
25.0874761758
  0
LINE
  5
56E
100
AcDbEntity
  8
RACCORDO
100
AcDbLine
 62
253
  6
CONTINUOUS
 10
9.1954115803
 20
3.0769939125
 11
-37.3254261964
 21
26.3374128009
  0
LWPOLYLINE
  5
56F
100
AcDbEntity
  8
SUPERFICI
100
AcDbPolyline
 62
253
  6
CONTINUOUS
 90
25
 70
0
 10
7.3460442144
 20
3.6654271952
 10
7.4157378232
 20
3.6275646541
 10
7.4843824241
 20
3.5846249224
 10
7.551978273
 20
3.5366081154
 10
7.6188121848
 20
3.4832743078
 10
7.684598364
 20
3.4248638834
 10
7.7484783606
 20
3.362097515
 10
7.8104186031
 20
3.2949015054
 10
7.8704545617
 20
3.2233504066
 10
7.9278314102
 20
3.1483872923
 10
7.982523564
 20
3.0699901027
 10
8.0345590632
 20
2.9881820045
 10
8.0832633748
 20
2.9039738472
 10
8.1285834336
 20
2.8173220015
 10
8.1705749964
 20
2.7282713124
 10
8.2087263767
 20
2.6379651667
 10
8.2430079001
 20
2.5463885822
 10
8.2734517119
 20
2.4535576601
 10
8.2996382136
 20
2.3606621236
 10
8.3214939593
 20
2.2677000893
 10
8.3390943018
 20
2.1746743078
 10
8.3522419865
 20
2.0827810667
 10
8.3608713795
 20
1.992419184
 10
8.3650490119
 20
1.9031902541
 10
8.3647753965
 20
1.8150945126
  0
LWPOLYLINE
  5
570
100
AcDbEntity
  8
RACCORDO
100
AcDbPolyline
 62
253
  6
CONTINUOUS
 90
9
 70
0
 10
-37.3254261959
 20
26.3374128065
 10
-37.3598997591
 20
26.3563747977
 10
-37.3902655677
 20
26.3768156128
 10
-37.4162019055
 20
26.3985186881
 10
-37.4374339854
 20
26.4212540863
 10
-37.4537368604
 20
26.4447809333
 10
-37.4649378067
 20
26.4688499697
 10
-37.4709181539
 20
26.4932061917
 10
-37.471919951
 20
26.5121113783
  0
LINE
  5
571
100
AcDbEntity
  8
0
100
AcDbLine
 62
253
  6
CONTINUOUS
 10
5.0907912827
 20
1.3776841456
 11
5.0563319949
 21
1.4029551048
  0
LINE
  5
572
100
AcDbEntity
  8
0
100
AcDbLine
 62
7
  6
CONTINUOUS
 10
5.1316063306
 20
1.2672715443
 11
5.1315254119
 21
1.2673319026
  0
LWPOLYLINE
  5
573
100
AcDbEntity
  8
0
100
AcDbPolyline
 62
7
  6
CONTINUOUS
 90
18
 70
0
 10
5.1316096196
 20
1.2672759038
 10
5.1545902074
 20
1.2488977306
 10
5.177957592
 20
1.2277756196
 10
5.2014375042
 20
1.2040527735
 10
5.2246574436
 20
1.1780087512
 10
5.2473533844
 20
1.1498843936
 10
5.2693292137
 20
1.119891031
 10
5.2904345661
 20
1.0881814829
 10
5.3104835774
 20
1.0549887516
 10
5.3292895965
 20
1.0206007233
 10
5.3467384238
 20
0.9851939983
 10
5.3626626362
 20
0.9490892442
 10
5.3769676637
 20
0.9125140751
 10
5.3896272321
 20
0.8754956174
 10
5.4005194274
 20
0.8383040274
 10
5.4095423575
 20
0.801237438
 10
5.4166196277
 20
0.764511415
 10
5.4210923282
 20
0.7332818333
  0
LWPOLYLINE
  5
574
100
AcDbEntity
  8
RACCORDO
100
AcDbPolyline
 62
7
  6
CONTINUOUS
 90
4
 70
0
 10
-20.5931916806
 20
24.5624708496
 10
-20.5744443802
 20
24.5460977368
 10
-20.5539851524
 20
24.5319749018
 10
-20.5378216376
 20
24.5230418049
  0
LWPOLYLINE
  5
575
100
AcDbEntity
  8
0
100
AcDbPolyline
 62
253
  6
CONTINUOUS
 90
7
 70
0
 10
5.1315254119
 20
1.2673319026
 10
5.1198184772
 20
1.2780042222
 10
5.1091487624
 20
1.2925469226
 10
5.1008893343
 20
1.3099050692
 10
5.0951020976
 20
1.3299485262
 10
5.0918304219
 20
1.352527021
 10
5.0910988164
 20
1.3774712716
  0
LWPOLYLINE
  5
576
100
AcDbEntity
  8
0
100
AcDbPolyline
 62
253
  6
CONTINUOUS
 90
5
 70
0
 10
5.2040300809
 20
1.283708937
 10
5.1749152852
 20
1.3123503006
 10
5.1462088053
 20
1.3374122599
 10
5.1181090296
 20
1.359150957
 10
5.0908125836
 20
1.377707574
  0
LWPOLYLINE
  5
577
100
AcDbEntity
  8
RACCORDO
100
AcDbPolyline
 62
7
  6
CONTINUOUS
 90
9
 70
0
 10
-12.7794296964
 20
31.2717053123
 10
-12.7793305676
 20
31.2715469732
 10
-12.7791510031
 20
31.2690431862
 10
-12.779079841
 20
31.2635902063
 10
-12.7788054955
 20
31.2552880235
 10
-12.7787362433
 20
31.2445435606
 10
-12.7788935118
 20
31.2315763449
 10
-12.7789003634
 20
31.2164567096
 10
-12.7785988725
 20
31.1993514873
  0
LWPOLYLINE
  5
578
100
AcDbEntity
  8
RACCORDO
100
AcDbPolyline
 62
253
  6
CONTINUOUS
 90
6
 70
0
 10
15.7671990918
 20
-32.3159403938
 10
15.759176633
 20
-32.2931389229
 10
15.7487336327
 20
-32.272103874
 10
15.7360467966
 20
-32.2531911806
 10
15.7213307981
 20
-32.2367208637
 10
15.7048346463
 20
-32.2229716169
  0
LWPOLYLINE
  5
579
100
AcDbEntity
  8
RACCORDO
100
AcDbPolyline
 62
7
  6
CONTINUOUS
 90
5
 70
0
 10
15.8276527646
 20
-32.372493431
 10
15.8206147748
 20
-32.3475267466
 10
15.8109692384
 20
-32.3237745663
 10
15.7988116554
 20
-32.3013947798
 10
15.784279051
 20
-32.2806388642
  0
LWPOLYLINE
  5
57A
100
AcDbEntity
  8
0
100
AcDbPolyline
 62
253
  6
CONTINUOUS
 90
12
 70
0
 10
5.4556097623
 20
0.808662957
 10
5.4434850659
 20
0.8557937004
 10
5.4284976484
 20
0.9039386655
 10
5.4109032662
 20
0.9521059371
 10
5.3908766662
 20
0.999885424
 10
5.3685104311
 20
1.0469375944
 10
5.344182076
 20
1.0924143143
 10
5.3181156215
 20
1.1360758831
 10
5.2905732373
 20
1.1775913206
 10
5.262148333
 20
1.2161262068
 10
5.2332365925
 20
1.2515078752
 10
5.2040300809
 20
1.283708937
  0
LWPOLYLINE
  5
57B
100
AcDbEntity
  8
0
100
AcDbPolyline
 62
253
  6
CONTINUOUS
 90
6
 70
0
 10
5.4211029036
 20
0.7331927973
 10
5.4213538614
 20
0.731416714
 10
5.4266852019
 20
0.7164066429
 10
5.4376158117
 20
0.7022647215
 10
5.4540210106
 20
0.6891522657
 10
5.4757136724
 20
0.6772188487
  0
LINE
  5
57C
100
AcDbEntity
  8
0
100
AcDbLine
 62
7
  6
CONTINUOUS
 10
5.4210923282
 20
0.7332818333
 11
5.4211029036
 21
0.7331927973
  0
LWPOLYLINE
  5
57D
100
AcDbEntity
  8
RACCORDO
100
AcDbPolyline
 62
253
  6
CONTINUOUS
 90
16
 70
0
 10
10.6520747063
 20
10.4977373428
 10
10.6508584341
 20
10.5207262202
 10
10.6477457162
 20
10.5444441783
 10
10.6427712346
 20
10.5686317581
 10
10.6359903194
 20
10.5930245095
 10
10.6274772913
 20
10.6173552911
 10
10.6173246566
 20
10.6413571966
 10
10.6056435102
 20
10.6647672203
 10
10.5925622258
 20
10.6873292876
 10
10.5782239777
 20
10.7087964441
 10
10.5627839726
 20
10.7289350481
 10
10.5464126288
 20
10.7475226122
 10
10.5292943396
 20
10.7643517637
 10
10.5116184371
 20
10.7792384015
 10
10.4935764194
 20
10.7920222592
 10
10.4753651919
 20
10.8025648629
  0
LWPOLYLINE
  5
57E
100
AcDbEntity
  8
RACCORDO
100
AcDbPolyline
 62
7
  6
CONTINUOUS
 90
16
 70
0
 10
10.8612214017
 20
14.4261235698
 10
10.8600926579
 20
14.4492390275
 10
10.8558146674
 20
14.4722015652
 10
10.8483775287
 20
14.4949917267
 10
10.8375979867
 20
14.5179645746
 10
10.8236199748
 20
14.5406805995
 10
10.8069213368
 20
14.5619166613
 10
10.7876006767
 20
14.5813122925
 10
10.7655181295
 20
14.5990911515
 10
10.7408021373
 20
14.6149048283
 10
10.713316546
 20
14.6287000557
 10
10.6831861988
 20
14.6403360636
 10
10.6509488106
 20
14.6493455915
 10
10.6168052885
 20
14.6555188507
 10
10.5806177669
 20
14.6588790909
 10
10.5424392897
 20
14.6593226828
  0
LWPOLYLINE
  5
57F
100
AcDbEntity
  8
RACCORDO
100
AcDbPolyline
 62
253
  6
CONTINUOUS
 90
16
 70
0
 10
9.1564862689
 20
15.3606407284
 10
9.155391812
 20
15.3837194566
 10
9.1524367451
 20
15.4074297375
 10
9.1476523752
 20
15.4315203747
 10
9.1410893899
 20
15.4557361416
 10
9.1328173205
 20
15.4798204863
 10
9.1229238049
 20
15.5035182493
 10
9.1115136596
 20
15.5265783666
 10
9.0987077681
 20
15.5487565296
 10
9.0846418016
 20
15.5698177736
 10
9.0694647808
 20
15.5895389668
 10
9.0533374974
 20
15.6077111747
 10
9.0364308107
 20
15.6241418733
 10
9.0189238372
 20
15.6386569888
 10
9.0010020531
 20
15.651102742
 10
8.9828553293
 20
15.6613472774
  0
LWPOLYLINE
  5
580
100
AcDbEntity
  8
RACCORDO
100
AcDbPolyline
 62
253
  6
CONTINUOUS
 90
16
 70
0
 10
10.371721676
 20
10.4989606448
 10
10.371510349
 20
10.5036701744
 10
10.370933659
 20
10.5084171167
 10
10.369991606
 20
10.5132014717
 10
10.368666145
 20
10.5180760404
 10
10.3669753209
 20
10.5229880217
 10
10.3649732684
 20
10.527779013
 10
10.362649717
 20
10.5324450881
 10
10.3600149372
 20
10.5369901732
 10
10.3571538753
 20
10.5412676436
 10
10.3540590598
 20
10.5452689579
 10
10.3507379622
 20
10.5490026575
 10
10.3472979436
 20
10.5523477413
 10
10.3437747907
 20
10.5552638757
 10
10.3401327168
 20
10.5577913943
 10
10.3363717217
 20
10.5599302971
  0
LWPOLYLINE
  5
581
100
AcDbEntity
  8
RACCORDO
100
AcDbPolyline
 62
253
  6
CONTINUOUS
 90
10
 70
0
 10
13.2815296536
 20
-33.9008240854
 10
13.2824824489
 20
-33.9227102242
 10
13.2853227174
 20
-33.94342455
 10
13.2900215126
 20
-33.9627445691
 10
13.2965309465
 20
-33.9804640065
 10
13.3047821674
 20
-33.9963901941
 10
13.3146846988
 20
-34.0103476608
 10
13.3261318943
 20
-34.0221862058
 10
13.3390021604
 20
-34.0317803917
 10
13.3464813619
 20
-34.0359835647
  0
LWPOLYLINE
  5
582
100
AcDbEntity
  8
RACCORDO
100
AcDbPolyline
 62
253
  6
CONTINUOUS
 90
10
 70
0
 10
9.1954115803
 20
-33.0805535274
 10
9.070443663
 20
-29.1239436683
 10
8.9767069705
 20
-25.1513122851
 10
8.9142107982
 20
-21.1630006551
 10
8.8829623092
 20
-17.1593570457
 10
8.88296231
 20
-13.1407213882
 10
8.9142108004
 20
-9.1074223343
 10
8.9767069734
 20
-5.059800622
 10
9.0704436653
 20
-0.998211682
 10
9.1954115803
 20
3.0769939125
  0
LWPOLYLINE
  5
583
100
AcDbEntity
  8
RACCORDO
100
AcDbPolyline
 62
253
  6
CONTINUOUS
 90
4
 70
0
 10
9.8928339742
 20
-33.0671957785
 10
9.7679776854
 20
-29.11397615
 10
9.6743354681
 20
-25.1454330251
 10
9.6119073223
 20
-21.161566404
  0
LWPOLYLINE
  5
584
100
AcDbEntity
  8
RACCORDO
100
AcDbPolyline
 62
7
  6
CONTINUOUS
 90
18
 70
0
 10
9.267263539
 20
15.4914242117
 10
9.2671307048
 20
15.4968197347
 10
9.2645561621
 20
15.5263526795
 10
9.2588220322
 20
15.5557389285
 10
9.2499118337
 20
15.5846450721
 10
9.2378843959
 20
15.6126654407
 10
9.222744095
 20
15.639633775
 10
9.2045536784
 20
15.6652713178
 10
9.1835069271
 20
15.689196095
 10
9.1597150561
 20
15.7112084689
 10
9.1330530116
 20
15.7313048179
 10
9.1038815967
 20
15.7491209374
 10
9.0729221661
 20
15.764269264
 10
9.0400207169
 20
15.7769203674
 10
9.0052643105
 20
15.7870455159
 10
8.9697558343
 20
15.794399972
 10
8.9333046361
 20
15.7991282535
 10
8.8958827534
 20
15.8011940823
  0
LINE
  5
585
100
AcDbEntity
  8
RACCORDO
100
AcDbLine
 62
7
  6
CONTINUOUS
 10
7.8158785539
 20
12.7901655062
 11
7.8401703728
 21
11.6464034143
  0
LWPOLYLINE
  5
586
100
AcDbEntity
  8
RACCORDO
100
AcDbPolyline
 62
253
  6
CONTINUOUS
 90
19
 70
0
 10
11.2170283059
 20
8.7483484622
 10
11.2171735887
 20
8.7396335272
 10
11.2176259983
 20
8.7308300437
 10
11.2184111602
 20
8.7219686104
 10
11.2195565224
 20
8.7130709085
 10
11.221086619
 20
8.7041855786
 10
11.2230182346
 20
8.6953848311
 10
11.225371578
 20
8.686706923
 10
11.2281658968
 20
8.6781927596
 10
11.2314066133
 20
8.6699147675
 10
11.2351061766
 20
8.661913188
 10
11.2392754712
 20
8.6542298585
 10
11.2439065564
 20
8.6469326104
 10
11.2490024349
 20
8.6400599198
 10
11.25456432
 20
8.6336504833
 10
11.2605702863
 20
8.6277621585
 10
11.2670132368
 20
8.6224276387
 10
11.2738845386
 20
8.6176785163
 10
11.2817698624
 20
8.6132446652
  0
LINE
  5
587
100
AcDbEntity
  8
RACCORDO
100
AcDbLine
 62
7
  6
CONTINUOUS
 10
9.2849596044
 20
14.3044219261
 11
9.2672690633
 21
15.4914204901
  0
LINE
  5
588
100
AcDbEntity
  8
RACCORDO
100
AcDbLine
 62
253
  6
CONTINUOUS
 10
9.1564862689
 20
15.3606407284
 11
9.1689303103
 21
14.1672531585
  0
LWPOLYLINE
  5
589
100
AcDbEntity
  8
RACCORDO
100
AcDbPolyline
 62
7
  6
CONTINUOUS
 90
9
 70
0
 10
11.1584496781
 20
8.819026915
 10
11.1584833577
 20
8.8149279728
 10
11.1603238963
 20
8.7884625468
 10
11.1649796363
 20
8.76252804
 10
11.1723959593
 20
8.737500969
 10
11.1824008984
 20
8.7138248564
 10
11.1948688833
 20
8.6916532207
 10
11.2096935809
 20
8.6711259889
 10
11.2266134728
 20
8.6525682729
  0
LWPOLYLINE
  5
58A
100
AcDbEntity
  8
RACCORDO
100
AcDbPolyline
 62
253
  6
CONTINUOUS
 90
7
 70
0
 10
9.6119073223
 20
-21.161566404
 10
9.5806932469
 20
-17.1620343362
 10
9.580693243
 20
-13.1471787721
 10
9.6119073134
 20
-9.1180255629
 10
9.6743354593
 20
-5.074916659
 10
9.7679776795
 20
-1.0175101101
 10
9.8928339742
 20
3.054194084
  0
LINE
  5
58B
100
AcDbEntity
  8
RACCORDO
100
AcDbLine
 62
253
  6
CONTINUOUS
 10
8.0810732789
 20
11.6442848433
 11
8.0810732789
 21
10.457012062
  0
LINE
  5
58C
100
AcDbEntity
  8
RACCORDO
100
AcDbLine
 62
253
  6
CONTINUOUS
 10
9.9160688969
 20
14.5245160756
 11
9.9160688969
 21
12.5438269344
  0
LINE
  5
58D
100
AcDbEntity
  8
RACCORDO
100
AcDbLine
 62
253
  6
CONTINUOUS
 10
10.371721676
 20
9.3116878634
 11
10.371721676
 21
10.4989606448
  0
LINE
  5
58E
100
AcDbEntity
  8
RACCORDO
100
AcDbLine
 62
253
  6
CONTINUOUS
 10
10.6520747063
 20
9.3193834345
 11
10.6520747063
 21
10.4977373428
  0
LINE
  5
58F
100
AcDbEntity
  8
DRAFT
100
AcDbLine
 62
7
  6
CONTINUOUS
 10
10.8704207437
 20
9.4385849543
 11
10.8704207437
 21
10.3201511382
  0
LINE
  5
590
100
AcDbEntity
  8
RACCORDO
100
AcDbLine
 62
7
  6
CONTINUOUS
 10
10.8704207437
 20
10.3201511382
 11
10.8704207437
 21
10.6077522244
  0
LINE
  5
591
100
AcDbEntity
  8
RACCORDO
100
AcDbLine
 62
7
  6
CONTINUOUS
 10
11.1584496619
 20
9.1363267238
 11
11.1584496619
 21
8.8190579234
  0
LINE
  5
592
100
AcDbEntity
  8
RACCORDO
100
AcDbLine
 62
253
  6
CONTINUOUS
 10
11.2170283056
 20
9.0656160456
 11
11.2170283056
 21
8.7483484623
  0
LINE
  5
593
100
AcDbEntity
  8
RACCORDO
100
AcDbLine
 62
253
  6
CONTINUOUS
 10
11.3297978436
 20
14.0081677713
 11
11.3297978436
 21
12.5515453311
  0
LINE
  5
594
100
AcDbEntity
  8
RACCORDO
100
AcDbLine
 62
7
  6
CONTINUOUS
 10
11.8733127823
 20
8.3174732051
 11
11.8733127823
 21
7.8635959537
  0
LWPOLYLINE
  5
595
100
AcDbEntity
  8
RACCORDO
100
AcDbPolyline
 62
253
  6
CONTINUOUS
 90
10
 70
0
 10
9.2672690535
 20
15.4914211465
 10
9.2671289496
 20
15.4849204652
 10
9.2644298269
 20
15.4676021637
 10
9.2583703402
 20
15.4504989762
 10
9.2490061193
 20
15.4337653975
 10
9.2364210696
 20
15.4175491984
 10
9.2207247347
 20
15.4019927419
 10
9.2020548464
 20
15.3872348878
 10
9.1805782871
 20
15.3734093356
 10
9.1564862689
 20
15.3606407284
  0
LINE
  5
596
100
AcDbEntity
  8
DRAFT
100
AcDbLine
 62
7
  6
CONTINUOUS
 10
11.3726061426
 20
12.5301411816
 11
11.387566403
 21
13.1831960097
  0
LWPOLYLINE
  5
597
100
AcDbEntity
  8
RACCORDO
100
AcDbPolyline
 62
7
  6
CONTINUOUS
 90
10
 70
0
 10
9.28499317
 20
14.3044216955
 10
9.2847895231
 20
14.2965785181
 10
9.2817967039
 20
14.2784559489
 10
9.2753527565
 20
14.2606770682
 10
9.2653189169
 20
14.2431385415
 10
9.251833949
 20
14.2259437033
 10
9.2354021725
 20
14.2096972739
 10
9.2161916938
 20
14.1946008267
 10
9.1940344063
 20
14.1804527882
 10
9.1689303103
 20
14.1672531585
  0
LWPOLYLINE
  5
598
100
AcDbEntity
  8
SUPERFICI
100
AcDbPolyline
 62
253
  6
CONTINUOUS
 90
10
 70
0
 10
8.3647753965
 20
1.8150945126
 10
8.3111848278
 20
-0.0392943199
 10
8.2638967212
 20
-1.8907855792
 10
8.222911897
 20
-3.739346254
 10
8.1882310142
 20
-5.5849527568
 10
8.1598551187
 20
-7.4275626238
 10
8.1377852975
 20
-9.2671146788
 10
8.1220216726
 20
-11.1035668983
 10
8.1125637653
 20
-12.9368962379
 10
8.1094112105
 20
-14.7670702563
  0
LWPOLYLINE
  5
599
100
AcDbEntity
  8
RACCORDO
100
AcDbPolyline
 62
253
  6
CONTINUOUS
 90
13
 70
0
 10
10.3363717217
 20
10.5599302971
 10
10.3375549015
 20
10.5828799014
 10
10.3410846432
 20
10.606628677
 10
10.3469018846
 20
10.6307792429
 10
10.3549092877
 20
10.6549274952
 10
10.3649728671
 20
10.6786693687
 10
10.3769242321
 20
10.701607598
 10
10.3905634041
 20
10.7233583649
 10
10.4056621632
 20
10.7435577204
 10
10.4219678664
 20
10.7618676752
 10
10.4392076756
 20
10.7779818543
 10
10.4570931223
 20
10.7916306243
 10
10.475324935
 20
10.8025856045
  0
LWPOLYLINE
  5
59A
100
AcDbEntity
  8
RACCORDO
100
AcDbPolyline
 62
253
  6
CONTINUOUS
 90
25
 70
0
 10
9.1954115803
 20
3.0769939126
 10
9.1992544035
 20
3.1426369431
 10
9.2063397704
 20
3.2094408815
 10
9.2166402167
 20
3.2771522789
 10
9.2301165433
 20
3.3455105964
 10
9.246716977
 20
3.4142602648
 10
9.2663788099
 20
3.4831518051
 10
9.2890309211
 20
3.5519276832
 10
9.3145876396
 20
3.6203233488
 10
9.3429487995
 20
3.6880794514
 10
9.3740088099
 20
3.7549377929
 10
9.4076517806
 20
3.8206455087
 10
9.4437468456
 20
3.8849562253
 10
9.4821599605
 20
3.947625381
 10
9.5227475888
 20
4.0084148287
 10
9.5653517565
 20
4.067096955
 10
9.6098145678
 20
4.1234488355
 10
9.6559695516
 20
4.1772553693
 10
9.7036353739
 20
4.228313991
 10
9.7526318288
 20
4.2764276954
 10
9.8027785582
 20
4.3214160775
 10
9.8538868521
 20
4.3631170858
 10
9.9057659162
 20
4.4013733039
 10
9.9582231387
 20
4.4360339552
 10
10.0110630254
 20
4.4669650672
  0
LWPOLYLINE
  5
59B
100
AcDbEntity
  8
RACCORDO
100
AcDbPolyline
 62
253
  6
CONTINUOUS
 90
25
 70
0
 10
9.8928339742
 20
3.054194084
 10
9.8951129218
 20
3.0925582255
 10
9.8992645078
 20
3.1313396901
 10
9.9052887322
 20
3.1705384778
 10
9.9132227589
 20
3.2103192273
 10
9.9230294239
 20
3.2505172998
 10
9.9345972352
 20
3.290638779
 10
9.9479453756
 20
3.3306693881
 10
9.9630546624
 20
3.3706234038
 10
9.9797560545
 20
3.4100497396
 10
9.9980682861
 20
3.4489433349
 10
10.0179726231
 20
3.4873092504
 10
10.0392438226
 20
3.5247115818
 10
10.0618982003
 20
3.5611398538
 10
10.0859194405
 20
3.5966045418
 10
10.1110333533
 20
3.6307011676
 10
10.1372515864
 20
3.6634125105
 10
10.1645624922
 20
3.6947557912
 10
10.1926569382
 20
3.7243781934
 10
10.2215546888
 20
3.7522663542
 10
10.2512359796
 20
3.7784336363
 10
10.2813323855
 20
3.8025673126
 10
10.311721098
 20
3.8245631406
 10
10.3425249255
 20
3.8445253626
 10
10.373743868
 20
3.8624539788
  0
LWPOLYLINE
  5
59C
100
AcDbEntity
  8
0
100
AcDbPolyline
 62
253
  6
CONTINUOUS
 90
7
 70
0
 10
5.4234858578
 20
-26.0435896374
 10
5.4216269901
 20
-26.058859582
 10
5.42129172
 20
-26.0952196407
 10
5.4266167062
 20
-26.1318703468
 10
5.4375412109
 20
-26.1683936036
 10
5.4539406225
 20
-26.2043727701
 10
5.4756278774
 20
-26.2393974134
  0
LWPOLYLINE
  5
59D
100
AcDbEntity
  8
0
100
AcDbPolyline
 62
253
  6
CONTINUOUS
 90
7
 70
0
 10
5.4756306078
 20
-26.2393692673
 10
5.4798598463
 20
-26.2094927211
 10
5.4832788258
 20
-26.1787051886
 10
5.4858872343
 20
-26.1470065759
 10
5.4876852408
 20
-26.1143966484
 10
5.488673499
 20
-26.0808750297
 10
5.4888531506
 20
-26.0464412005
  0
LWPOLYLINE
  5
59E
100
AcDbEntity
  8
RACCORDO
100
AcDbPolyline
 62
7
  6
CONTINUOUS
 90
9
 70
0
 10
12.0792737003
 20
8.216053414
 10
12.0793820936
 20
8.2168025811
 10
12.081079302
 20
8.220263632
 10
12.0846680548
 20
8.2250325443
 10
12.090020549
 20
8.2306377799
 10
12.097005704
 20
8.2370864531
 10
12.105464651
 20
8.2444900957
 10
12.1153459801
 20
8.2525349375
 10
12.1265736342
 20
8.2611504789
  0
LINE
  5
59F
100
AcDbEntity
  8
0
100
AcDbLine
 62
7
  6
CONTINUOUS
 10
5.4235059413
 20
-26.0434610795
 11
5.4234858578
 21
-26.0435896374
  0
LINE
  5
5A0
100
AcDbEntity
  8
0
100
AcDbLine
 62
7
  6
CONTINUOUS
 10
5.4235067538
 20
-26.0435922602
 11
5.4225480361
 21
-26.04884987
  0
LINE
  5
5A1
100
AcDbEntity
  8
RACCORDO
100
AcDbLine
 62
7
  6
CONTINUOUS
 10
30.0776451471
 20
-0.0064329823
 11
40.9975681807
 21
4.4566520959
  0
LINE
  5
5A2
100
AcDbEntity
  8
RACCORDO
100
AcDbLine
 62
7
  6
CONTINUOUS
 10
30.0776451471
 20
1.063101375
 11
40.3957239193
 21
5.0368447028
  0
LWPOLYLINE
  5
5A3
100
AcDbEntity
  8
RACCORDO
100
AcDbPolyline
 62
7
  6
CONTINUOUS
 90
4
 70
0
 10
17.5693729348
 20
13.4638428454
 10
17.5104377949
 20
13.4488599937
 10
17.4513272053
 20
13.4283496215
 10
17.3976093865
 20
13.4049240218
  0
LWPOLYLINE
  5
5A4
100
AcDbEntity
  8
RACCORDO
100
AcDbPolyline
 62
253
  6
CONTINUOUS
 90
12
 70
0
 10
13.3994344437
 20
7.5623453995
 10
13.408532562
 20
7.560781577
 10
13.4286738149
 20
7.5598232708
 10
13.4490225759
 20
7.5622181686
 10
13.4692345243
 20
7.567925746
 10
13.488967654
 20
7.5768494249
 10
13.5078880615
 20
7.5888382076
 10
13.5256755953
 20
7.6036892319
 10
13.5420292737
 20
7.621151204
 10
13.5566723767
 20
7.6409286505
 10
13.5693571292
 20
7.6626869176
 10
13.5798688931
 20
7.6860578343
  0
LINE
  5
5A5
100
AcDbEntity
  8
RACCORDO
100
AcDbLine
 62
7
  6
CONTINUOUS
 10
14.0397656643
 20
7.4265109491
 11
13.399434443
 21
7.5623453997
  0
LINE
  5
5A6
100
AcDbEntity
  8
RACCORDO
100
AcDbLine
 62
253
  6
CONTINUOUS
 10
14.3166766973
 20
7.5297576573
 11
13.5798688931
 21
7.6860578343
  0
LWPOLYLINE
  5
5A7
100
AcDbEntity
  8
RACCORDO
100
AcDbPolyline
 62
253
  6
CONTINUOUS
 90
22
 70
0
 10
13.5798688931
 20
7.6860578343
 10
13.5786262387
 20
7.6863489692
 10
13.5773883664
 20
7.68673944
 10
13.5761552762
 20
7.6872292467
 10
13.5749191712
 20
7.6878138351
 10
13.5736878484
 20
7.6884977595
 10
13.5724846985
 20
7.689294682
 10
13.571309614
 20
7.6902070022
 10
13.5701627024
 20
7.6912323204
 10
13.5690676772
 20
7.6923771006
 10
13.5680250651
 20
7.6936441918
 10
13.5670343393
 20
7.6950307448
 10
13.5661176336
 20
7.6965346766
 10
13.5652761493
 20
7.698158975
 10
13.564508685
 20
7.6999006522
 10
13.5638337712
 20
7.7017486614
 10
13.5632532235
 20
7.7037057762
 10
13.5627652263
 20
7.7057692229
 10
13.5623828628
 20
7.7079196336
 10
13.5621104943
 20
7.7101505524
 10
13.5619437596
 20
7.7124684352
 10
13.5618826587
 20
7.714873282
  0
LWPOLYLINE
  5
5A8
100
AcDbEntity
  8
0
100
AcDbPolyline
 62
253
  6
CONTINUOUS
 90
10
 70
0
 10
-32.25390241
 20
19.9697163843
 10
-32.2880589356
 20
19.9789998485
 10
-32.3193061699
 20
19.991483512
 10
-32.3492964382
 20
20.0074745605
 10
-32.3778048548
 20
20.0268530734
 10
-32.4046176464
 20
20.0494737256
 10
-32.4295337554
 20
20.075166877
 10
-32.4523663478
 20
20.1037398445
 10
-32.4729442143
 20
20.1349783479
 10
-32.4911130541
 20
20.1686481157
  0
LWPOLYLINE
  5
5A9
100
AcDbEntity
  8
0
100
AcDbPolyline
 62
253
  6
CONTINUOUS
 90
19
 70
0
 10
-32.4909340898
 20
20.1685808819
 10
-32.5161968589
 20
20.1762889597
 10
-32.5425079487
 20
20.1817305473
 10
-32.5696644552
 20
20.1845661441
 10
-32.597415872
 20
20.1843141503
 10
-32.6254783778
 20
20.1806968784
 10
-32.6535855401
 20
20.1737804174
 10
-32.6815485911
 20
20.1634204037
 10
-32.7089474033
 20
20.1493801851
 10
-32.7352645493
 20
20.131920411
 10
-32.760251975
 20
20.1111051763
 10
-32.7836383583
 20
20.0869353852
 10
-32.8050270666
 20
20.0598786727
 10
-32.8243259153
 20
20.030188617
 10
-32.8413269085
 20
19.9980785088
 10
-32.8557056434
 20
19.9642385595
 10
-32.8674775067
 20
19.9292459422
 10
-32.8768050393
 20
19.8933674192
 10
-32.8837617347
 20
19.8569652422
  0
LWPOLYLINE
  5
5AA
100
AcDbEntity
  8
RACCORDO
100
AcDbPolyline
 62
253
  6
CONTINUOUS
 90
10
 70
0
 10
-36.5343181961
 20
27.7396556779
 10
-36.5658287827
 20
27.7529833047
 10
-36.5969593678
 20
27.7629946634
 10
-36.6274734388
 20
27.7696136997
 10
-36.6571391726
 20
27.7727901327
 10
-36.6857311819
 20
27.7724998349
 10
-36.7130322288
 20
27.7687450215
 10
-36.7388348988
 20
27.7615542323
 10
-36.7629431662
 20
27.7509821104
 10
-36.7706541917
 20
27.7466704276
  0
LWPOLYLINE
  5
5AB
100
AcDbEntity
  8
SUPERFICI
100
AcDbPolyline
 62
253
  6
CONTINUOUS
 90
25
 70
0
 10
-35.4980537461
 20
25.0874761754
 10
-35.5679428703
 20
25.1194050008
 10
-35.6371459821
 20
25.1453891256
 10
-35.7056628258
 20
25.1654286647
 10
-35.7737856407
 20
25.1795732206
 10
-35.841221168
 20
25.1877736494
 10
-35.9070906943
 20
25.1898820424
 10
-35.971364789
 20
25.1857932015
 10
-36.0340709841
 20
25.1756131796
 10
-36.0944159487
 20
25.1595109717
 10
-36.1523740664
 20
25.1374389179
 10
-36.2079684981
 20
25.1094457852
 10
-36.2604792218
 20
25.0758451455
 10
-36.3098551031
 20
25.0365412699
 10
-36.3561445848
 20
24.991631103
 10
-36.3987773975
 20
24.9417170538
 10
-36.437723395
 20
24.8867542297
 10
-36.4730102527
 20
24.8267886424
 10
-36.5041550756
 20
24.7625587682
 10
-36.531084986
 20
24.693989562
 10
-36.5538709546
 20
24.621156936
 10
-36.5722467137
 20
24.5450254168
 10
-36.5861233895
 20
24.4659165685
 10
-36.5955889585
 20
24.3835092393
 10
-36.6006429079
 20
24.2978036647
  0
LINE
  5
5AC
100
AcDbEntity
  8
RACCORDO
100
AcDbLine
 62
253
  6
CONTINUOUS
 10
10.0110630254
 20
4.4669650672
 11
-36.5343181961
 21
27.7396556779
  0
LINE
  5
5AD
100
AcDbEntity
  8
DRAFT
100
AcDbLine
 62
7
  6
CONTINUOUS
 10
16.6611153744
 20
3.4763987359
 11
16.6148271182
 21
3.4995428641
  0
LINE
  5
5AE
100
AcDbEntity
  8
RACCORDO
100
AcDbLine
 62
7
  6
CONTINUOUS
 10
-32.2538090346
 20
29.1194667199
 11
-32.0602447485
 21
29.0226845769
  0
LINE
  5
5AF
100
AcDbEntity
  8
RACCORDO
100
AcDbLine
 62
7
  6
CONTINUOUS
 10
-19.6673083294
 20
22.8262163673
 11
-19.4737440433
 21
22.7294342243
  0
LINE
  5
5B0
100
AcDbEntity
  8
RACCORDO
100
AcDbLine
 62
7
  6
CONTINUOUS
 10
-0.4340038812
 20
13.2095641432
 11
-0.2404395951
 21
13.1127820002
  0
LINE
  5
5B1
100
AcDbEntity
  8
RACCORDO
100
AcDbLine
 62
7
  6
CONTINUOUS
 10
12.152496824
 20
6.9163137907
 11
12.3460611101
 21
6.8195316476
  0
LINE
  5
5B2
100
AcDbEntity
  8
0
100
AcDbLine
 62
253
  6
CONTINUOUS
 10
17.2664422472
 20
4.5554825636
 11
17.5482969049
 21
4.4145552347
  0
LWPOLYLINE
  5
5B3
100
AcDbEntity
  8
RACCORDO
100
AcDbPolyline
 62
253
  6
CONTINUOUS
 90
7
 70
0
 10
-33.1892775529
 20
30.9515001745
 10
-33.2063496159
 20
30.9612193859
 10
-33.2207696575
 20
30.9719591485
 10
-33.2322963917
 20
30.9835397573
 10
-33.2407369452
 20
30.9957674375
 10
-33.245950085
 20
31.0084375871
 10
-33.247856187
 20
31.0221798442
  0
LWPOLYLINE
  5
5B4
100
AcDbEntity
  8
RACCORDO
100
AcDbPolyline
 62
253
  6
CONTINUOUS
 90
7
 70
0
 10
-33.1892775529
 20
31.2687689749
 10
-33.2063496154
 20
31.278488186
 10
-33.2207696568
 20
31.2892279483
 10
-33.232296391
 20
31.3008085569
 10
-33.2407369447
 20
31.3130362368
 10
-33.2459500847
 20
31.3257063862
 10
-33.2478561875
 20
31.3394494533
  0
LWPOLYLINE
  5
5B5
100
AcDbEntity
  8
RACCORDO
100
AcDbPolyline
 62
253
  6
CONTINUOUS
 90
7
 70
0
 10
-20.6027768477
 20
24.658249822
 10
-20.6198489107
 20
24.6679690333
 10
-20.6342689524
 20
24.678708796
 10
-20.6457956866
 20
24.6902894048
 10
-20.6542362401
 20
24.7025170849
 10
-20.6594493799
 20
24.7151872345
 10
-20.6613554819
 20
24.7289294917
  0
LWPOLYLINE
  5
5B6
100
AcDbEntity
  8
RACCORDO
100
AcDbPolyline
 62
253
  6
CONTINUOUS
 90
7
 70
0
 10
-20.6027768477
 20
24.9755186223
 10
-20.6198489103
 20
24.9852378334
 10
-20.6342689517
 20
24.9959775958
 10
-20.6457956858
 20
25.0075582043
 10
-20.6542362395
 20
25.0197858842
 10
-20.6594493796
 20
25.0324560337
 10
-20.6613554824
 20
25.0461991008
  0
LWPOLYLINE
  5
5B7
100
AcDbEntity
  8
RACCORDO
100
AcDbPolyline
 62
253
  6
CONTINUOUS
 90
19
 70
0
 10
10.0110630254
 20
4.4669650672
 10
10.0411064813
 20
4.449515709
 10
10.0710622645
 20
4.428983971
 10
10.1007027908
 20
4.40552584
 10
10.1298028708
 20
4.3793195353
 10
10.1581414212
 20
4.3505641553
 10
10.1855031446
 20
4.3194781645
 10
10.2116801644
 20
4.2862977338
 10
10.236473605
 20
4.2512749463
 10
10.259695102
 20
4.214675882
 10
10.2811682338
 20
4.1767785968
 10
10.3007298617
 20
4.1378710091
 10
10.3182313692
 20
4.0982487133
 10
10.3335397914
 20
4.0582127335
 10
10.3465388251
 20
4.0180672368
 10
10.3571297119
 20
3.9781172222
 10
10.3652319895
 20
3.9386662038
 10
10.370784102
 20
3.9000139044
 10
10.373743868
 20
3.8624539788
  0
LWPOLYLINE
  5
5B8
100
AcDbEntity
  8
RACCORDO
100
AcDbPolyline
 62
253
  6
CONTINUOUS
 90
13
 70
0
 10
-30.9504783543
 20
30.5395342681
 10
-30.932326422
 20
30.5286695343
 10
-30.9144427398
 20
30.515049746
 10
-30.897133184
 20
30.4989078514
 10
-30.8806938111
 20
30.4805199358
 10
-30.8654057945
 20
30.4602004997
 10
-30.8515306151
 20
30.4382970797
 10
-30.8393055891
 20
30.4151843042
 10
-30.8289398091
 20
30.3912574862
 10
-30.8206105678
 20
30.3669258615
 10
-30.8144603257
 20
30.3426055899
 10
-30.8105942742
 20
30.3187126367
 10
-30.8090785372
 20
30.2956556588
  0
LWPOLYLINE
  5
5B9
100
AcDbEntity
  8
RACCORDO
100
AcDbPolyline
 62
253
  6
CONTINUOUS
 90
13
 70
0
 10
-18.3639776491
 20
24.2462839156
 10
-18.3458257169
 20
24.2354191817
 10
-18.3279420347
 20
24.2217993934
 10
-18.3106324789
 20
24.2056574988
 10
-18.294193106
 20
24.1872695832
 10
-18.2789050894
 20
24.1669501471
 10
-18.26502991
 20
24.1450467271
 10
-18.252804884
 20
24.1219339517
 10
-18.242439104
 20
24.0980071336
 10
-18.2341098627
 20
24.073675509
 10
-18.2279596205
 20
24.0493552373
 10
-18.2240935691
 20
24.0254622842
 10
-18.2225778321
 20
24.0024053062
  0
LWPOLYLINE
  5
5BA
100
AcDbEntity
  8
RACCORDO
100
AcDbPolyline
 62
7
  6
CONTINUOUS
 90
4
 70
0
 10
-1.3598872323
 20
14.9458186255
 10
-1.3411399319
 20
14.9294455127
 10
-1.3206807041
 20
14.9153226777
 10
-1.3045171893
 20
14.9063895808
  0
LWPOLYLINE
  5
5BB
100
AcDbEntity
  8
RACCORDO
100
AcDbPolyline
 62
7
  6
CONTINUOUS
 90
3
 70
0
 10
15.8334961005
 20
-32.4260322506
 10
15.8319513916
 20
-32.3982471517
 10
15.8276527646
 20
-32.372493431
  0
LWPOLYLINE
  5
5BC
100
AcDbEntity
  8
RACCORDO
100
AcDbPolyline
 62
253
  6
CONTINUOUS
 90
16
 70
0
 10
13.5618826587
 20
-33.9019996578
 10
13.5620923726
 20
-33.9064528112
 10
13.562666651
 20
-33.9105889412
 10
13.5636054941
 20
-33.9144080476
 10
13.5649267684
 20
-33.9179439985
 10
13.5666126073
 20
-33.9211629258
 10
13.5686094109
 20
-33.9239632259
 10
13.5709269842
 20
-33.9263315171
 10
13.5735555223
 20
-33.9282811811
 10
13.5764120107
 20
-33.9297507592
 10
13.5795037609
 20
-33.9307247706
 10
13.5828234613
 20
-33.931218696
 10
13.5862661625
 20
-33.9312175194
 10
13.5897968813
 20
-33.9307162353
 10
13.5934506009
 20
-33.9297198492
 10
13.5972273213
 20
-33.928228361
  0
LWPOLYLINE
  5
5BD
100
AcDbEntity
  8
RACCORDO
100
AcDbPolyline
 62
253
  6
CONTINUOUS
 90
25
 70
0
 10
13.5168757727
 20
15.0492063999
 10
13.5151529493
 20
15.0910499223
 10
13.5112592229
 20
15.1313373673
 10
13.5051945933
 20
15.170068735
 10
13.4969159795
 20
15.2074113844
 10
13.4864664627
 20
15.2431979564
 10
13.473975286
 20
15.2769263735
 10
13.4594167956
 20
15.3085540112
 10
13.4428166455
 20
15.338123494
 10
13.4243810405
 20
15.3652606182
 10
13.4040844733
 20
15.3899347983
 10
13.3819524513
 20
15.4121766197
 10
13.3582677014
 20
15.4317036352
 10
13.333012351
 20
15.4484790408
 10
13.3062042726
 20
15.4625396403
 10
13.2781798118
 20
15.4737133983
 10
13.2489241748
 20
15.4819639463
 10
13.2184521553
 20
15.4873276528
 10
13.1871444796
 20
15.4897415874
 10
13.1549786269
 20
15.4891639254
 10
13.121977118
 20
15.4856364915
 10
13.0885882408
 20
15.4792218298
 10
13.0549614245
 20
15.4699407881
 10
13.0209472398
 20
15.4577725186
 10
12.9865456868
 20
15.4427170211
  0
LWPOLYLINE
  5
5BE
100
AcDbEntity
  8
RACCORDO
100
AcDbPolyline
 62
7
  6
CONTINUOUS
 90
15
 70
0
 10
13.590093843
 20
15.1373407426
 10
13.5877976715
 20
15.1930346745
 10
13.5814209668
 20
15.2557683092
 10
13.5711504412
 20
15.3160140112
 10
13.557110465
 20
15.3735947855
 10
13.5393992676
 20
15.4284241909
 10
13.5180674693
 20
15.4804626041
 10
13.4932087259
 20
15.5295576558
 10
13.4649384358
 20
15.5755195756
 10
13.4333530695
 20
15.6181838792
 10
13.3986070834
 20
15.6573442413
 10
13.3609059711
 20
15.6927906129
 10
13.3204932217
 20
15.7243102509
 10
13.2776292106
 20
15.751720411
 10
13.2498821848
 20
15.7666226547
  0
LWPOLYLINE
  5
5BF
100
AcDbEntity
  8
RACCORDO
100
AcDbPolyline
 62
253
  6
CONTINUOUS
 90
16
 70
0
 10
12.9865456868
 20
15.4427170211
 10
12.9855989051
 20
15.4658628819
 10
12.9827685097
 20
15.4896671442
 10
12.9780848266
 20
15.5138747609
 10
12.9715980382
 20
15.5382263633
 10
12.9633776462
 20
15.5624610398
 10
12.9535117269
 20
15.586319132
 10
12.9421059869
 20
15.6095450159
 10
12.9292826314
 20
15.6318898415
 10
12.9151790541
 20
15.6531141987
 10
12.8999463657
 20
15.6729906823
 10
12.8837477743
 20
15.691306329
 10
12.8667568374
 20
15.7078648986
 10
12.8491556015
 20
15.7224889768
 10
12.8311326524
 20
15.7350218763
 10
12.8128810942
 20
15.7453293152
  0
LWPOLYLINE
  5
5C0
100
AcDbEntity
  8
RACCORDO
100
AcDbPolyline
 62
253
  6
CONTINUOUS
 90
13
 70
0
 10
15.7773638585
 20
-32.4955041496
 10
15.7772224071
 20
-32.4917498673
 10
15.7768267294
 20
-32.4882137503
 10
15.7761768254
 20
-32.4848957986
 10
15.7752636975
 20
-32.4817745395
 10
15.7740963432
 20
-32.4788714457
 10
15.7727017551
 20
-32.4762509355
 10
15.7710749138
 20
-32.4739194334
 10
15.7692208387
 20
-32.4718705148
 10
15.7671815801
 20
-32.4701493245
 10
15.7649711548
 20
-32.4687709104
 10
15.7625755461
 20
-32.4677202246
 10
15.7599947538
 20
-32.4669972668
  0
LWPOLYLINE
  5
5C1
100
AcDbEntity
  8
RACCORDO
100
AcDbPolyline
 62
7
  6
CONTINUOUS
 90
13
 70
0
 10
14.8870280151
 20
12.675687725
 10
14.8865279234
 20
12.6942042493
 10
14.8832343102
 20
12.7234238934
 10
14.8768242818
 20
12.7524693019
 10
14.8672705935
 20
12.7810203693
 10
14.8546372802
 20
12.8086691982
 10
14.8389454322
 20
12.8352175697
 10
14.8202601164
 20
12.8603910408
 10
14.7987683639
 20
12.8838244376
 10
14.7745930883
 20
12.9053193795
 10
14.7476124224
 20
12.9248865379
 10
14.718165266
 20
12.9421789577
 10
14.6869717756
 20
12.9568218938
  0
LINE
  5
5C2
100
AcDbEntity
  8
RACCORDO
100
AcDbLine
 62
253
  6
CONTINUOUS
 10
13.5209480889
 20
14.7614337913
 11
13.5168757727
 21
15.0492063999
  0
LINE
  5
5C3
100
AcDbEntity
  8
RACCORDO
100
AcDbLine
 62
7
  6
CONTINUOUS
 10
13.5949466343
 20
14.7949186839
 11
13.5901009732
 21
15.1373401634
  0
LINE
  5
5C4
100
AcDbEntity
  8
RACCORDO
100
AcDbLine
 62
253
  6
CONTINUOUS
 10
11.946536087
 20
8.2808615527
 11
11.946536087
 21
7.7717874085
  0
LINE
  5
5C5
100
AcDbEntity
  8
RACCORDO
100
AcDbLine
 62
7
  6
CONTINUOUS
 10
12.0792735193
 20
8.216541411
 11
12.0792735193
 21
7.0081223359
  0
LINE
  5
5C6
100
AcDbEntity
  8
RACCORDO
100
AcDbLine
 62
253
  6
CONTINUOUS
 10
12.152496824
 20
8.2806129861
 11
12.152496824
 21
6.9163137907
  0
LINE
  5
5C7
100
AcDbEntity
  8
RACCORDO
100
AcDbLine
 62
253
  6
CONTINUOUS
 10
12.152496824
 20
-32.9039994178
 11
12.152496824
 21
-33.0189911533
  0
LINE
  5
5C8
100
AcDbEntity
  8
RACCORDO
100
AcDbLine
 62
253
  6
CONTINUOUS
 10
12.3460611101
 20
8.1838308431
 11
12.3460611101
 21
6.8195316476
  0
LINE
  5
5C9
100
AcDbEntity
  8
RACCORDO
100
AcDbLine
 62
253
  6
CONTINUOUS
 10
12.3460611101
 20
-32.8242637055
 11
12.3460611101
 21
-33.1157732963
  0
LINE
  5
5CA
100
AcDbEntity
  8
RACCORDO
100
AcDbLine
 62
253
  6
CONTINUOUS
 10
12.696502398
 20
7.9058783972
 11
12.696502398
 21
6.8291511115
  0
LINE
  5
5CB
100
AcDbEntity
  8
RACCORDO
100
AcDbLine
 62
253
  6
CONTINUOUS
 10
12.696502398
 20
-32.6799050209
 11
12.696502398
 21
-32.8694839745
  0
LINE
  5
5CC
100
AcDbEntity
  8
DRAFT
100
AcDbLine
 62
7
  6
CONTINUOUS
 10
13.2392284607
 20
7.1254412217
 11
13.2392284607
 21
7.6345153659
  0
LINE
  5
5CD
100
AcDbEntity
  8
RACCORDO
100
AcDbLine
 62
253
  6
CONTINUOUS
 10
13.2815296284
 20
-33.5835075555
 11
13.2815296284
 21
-33.9008240771
  0
LINE
  5
5CE
100
AcDbEntity
  8
RACCORDO
100
AcDbLine
 62
253
  6
CONTINUOUS
 10
13.2815296284
 20
7.7160965839
 11
13.2815296284
 21
8.033366558
  0
LINE
  5
5CF
100
AcDbEntity
  8
RACCORDO
100
AcDbLine
 62
253
  6
CONTINUOUS
 10
13.5618826587
 20
-33.5847308574
 11
13.5618826587
 21
-33.9019996578
  0
LINE
  5
5D0
100
AcDbEntity
  8
RACCORDO
100
AcDbLine
 62
253
  6
CONTINUOUS
 10
13.5618826587
 20
7.714873282
 11
13.5618826587
 21
8.0321420824
  0
LINE
  5
5D1
100
AcDbEntity
  8
RACCORDO
100
AcDbLine
 62
253
  6
CONTINUOUS
 10
13.9662354094
 20
7.4421090356
 11
13.9662354094
 21
6.7619377473
  0
LINE
  5
5D2
100
AcDbEntity
  8
RACCORDO
100
AcDbLine
 62
253
  6
CONTINUOUS
 10
13.9662354094
 20
-32.1568588116
 11
13.9662354094
 21
-32.5937536648
  0
LINE
  5
5D3
100
AcDbEntity
  8
RACCORDO
100
AcDbLine
 62
253
  6
CONTINUOUS
 10
14.3166766973
 20
7.5297576573
 11
14.3166766973
 21
6.7714627814
  0
LINE
  5
5D4
100
AcDbEntity
  8
RACCORDO
100
AcDbLine
 62
253
  6
CONTINUOUS
 10
14.3166766973
 20
-32.0125001271
 11
14.3166766973
 21
-32.6707191024
  0
LINE
  5
5D5
100
AcDbEntity
  8
RACCORDO
100
AcDbLine
 62
7
  6
CONTINUOUS
 10
15.219127448
 20
7.2642316021
 11
15.219127448
 21
8.9097062493
  0
LINE
  5
5D6
100
AcDbEntity
  8
RACCORDO
100
AcDbLine
 62
7
  6
CONTINUOUS
 10
15.219127448
 20
-33.1791811346
 11
15.2191274877
 21
-31.6407499553
  0
LINE
  5
5D7
100
AcDbEntity
  8
RACCORDO
100
AcDbLine
 62
7
  6
CONTINUOUS
 10
15.5726808386
 20
-28.3329841079
 11
15.5726808386
 21
-31.2775364307
  0
LINE
  5
5D8
100
AcDbEntity
  8
RACCORDO
100
AcDbLine
 62
7
  6
CONTINUOUS
 10
15.5726808386
 20
3.7099558321
 11
15.5726808386
 21
6.6545081549
  0
LINE
  5
5D9
100
AcDbEntity
  8
RACCORDO
100
AcDbLine
 62
7
  6
CONTINUOUS
 10
14.8798607668
 20
11.5049714113
 11
14.8870351355
 21
12.6756447265
  0
LINE
  5
5DA
100
AcDbEntity
  8
RACCORDO
100
AcDbLine
 62
253
  6
CONTINUOUS
 10
14.7809940577
 20
12.5474254172
 11
14.7771030418
 21
12.1729535351
  0
LINE
  5
5DB
100
AcDbEntity
  8
RACCORDO
100
AcDbLine
 62
253
  6
CONTINUOUS
 10
14.774814558
 20
11.9527095515
 11
14.7687826841
 21
11.3722012159
  0
LWPOLYLINE
  5
5DC
100
AcDbEntity
  8
RACCORDO
100
AcDbPolyline
 62
253
  6
CONTINUOUS
 90
31
 70
0
 10
13.5618826587
 20
8.0321420824
 10
13.5619025372
 20
8.0338947245
 10
13.5619947372
 20
8.035725697
 10
13.5621592587
 20
8.0376349998
 10
13.5623916755
 20
8.0396283302
 10
13.5626964139
 20
8.041699991
 10
13.5630867527
 20
8.0438328903
 10
13.5635644468
 20
8.0460291749
 10
13.5641277414
 20
8.0482866979
 10
13.5647846513
 20
8.0505819272
 10
13.5655373316
 20
8.0529165847
 10
13.5663836271
 20
8.0552889484
 10
13.567325087
 20
8.0576703205
 10
13.5683639822
 20
8.0600616055
 10
13.5694980418
 20
8.0624618989
 10
13.5707220029
 20
8.0648397895
 10
13.5720378178
 20
8.0671950937
 10
13.5734435343
 20
8.0695279951
 10
13.5749280326
 20
8.0718076327
 10
13.5764929325
 20
8.0740332093
 10
13.5781366143
 20
8.0762055221
 10
13.5798430991
 20
8.078296101
 10
13.5816137993
 20
8.0803037522
 10
13.5834473026
 20
8.0822296696
 10
13.5853233929
 20
8.0840489641
 10
13.5872429797
 20
8.0857597523
 10
13.5892051535
 20
8.0873639177
 10
13.5911869691
 20
8.0888422219
 10
13.5931807781
 20
8.0901882523
 10
13.5951942288
 20
8.0914084215
 10
13.5972273213
 20
8.0925027295
  0
LWPOLYLINE
  5
5DD
100
AcDbEntity
  8
RACCORDO
100
AcDbPolyline
 62
253
  6
CONTINUOUS
 90
31
 70
0
 10
13.2815296286
 20
8.0333665579
 10
13.281672081
 20
8.0421158476
 10
13.2821176034
 20
8.051272349
 10
13.2828928926
 20
8.0608320676
 10
13.2840265183
 20
8.0708025509
 10
13.2855443769
 20
8.0811597293
 10
13.2874645562
 20
8.0918463583
 10
13.289808431
 20
8.102844885
 10
13.2925963947
 20
8.1141342489
 10
13.2958347029
 20
8.1256455031
 10
13.2995368304
 20
8.1373510023
 10
13.303714608
 20
8.1492199535
 10
13.3083603498
 20
8.1611744548
 10
13.3134776183
 20
8.1731783338
 10
13.3190684868
 20
8.1851944068
 10
13.3251114298
 20
8.1971420918
 10
13.3315989803
 20
8.2089793205
 10
13.3385238788
 20
8.2206670994
 10
13.3458546478
 20
8.2321314583
 10
13.3535749026
 20
8.2433302751
 10
13.3616684019
 20
8.2542242386
 10
13.3700958138
 20
8.2647482149
 10
13.3788344395
 20
8.2748643944
 10
13.3878599566
 20
8.2845355035
 10
13.3971245197
 20
8.2937044301
 10
13.4065998911
 20
8.3023396545
 10
13.4162567625
 20
8.310410985
 10
13.42604161
 20
8.3178731842
 10
13.4359151573
 20
8.3246988661
 10
13.4458536633
 20
8.3308739223
 10
13.4558255746
 20
8.3363803396
  0
LWPOLYLINE
  5
5DE
100
AcDbEntity
  8
RACCORDO
100
AcDbPolyline
 62
7
  6
CONTINUOUS
 90
10
 70
0
 10
14.879898885
 20
11.5049709475
 10
14.8798560846
 20
11.5026365827
 10
14.8775372398
 20
11.4844780094
 10
14.8717527344
 20
11.4666308334
 10
14.8623658195
 20
11.4489883916
 10
14.8495132439
 20
11.4316573472
 10
14.8336801304
 20
11.4152517067
 10
14.8150281863
 20
11.3999761391
 10
14.7933957042
 20
11.3856259755
 10
14.7687826841
 20
11.3722012159
  0
LWPOLYLINE
  5
5DF
100
AcDbEntity
  8
RACCORDO
100
AcDbPolyline
 62
7
  6
CONTINUOUS
 90
3
 70
0
 10
15.2424819728
 20
12.3377634796
 10
15.2425766877
 20
12.3426315391
 10
15.2419522998
 20
12.3538421401
  0
LINE
  5
5E0
100
AcDbEntity
  8
RACCORDO
100
AcDbLine
 62
7
  6
CONTINUOUS
 10
15.8326355969
 20
8.8525858059
 11
15.8334950337
 21
8.8735792584
  0
LINE
  5
5E1
100
AcDbEntity
  8
RACCORDO
100
AcDbLine
 62
253
  6
CONTINUOUS
 10
14.9287715905
 20
12.2086808979
 11
14.9195304849
 21
11.9925724711
  0
LINE
  5
5E2
100
AcDbEntity
  8
RACCORDO
100
AcDbLine
 62
7
  6
CONTINUOUS
 10
15.2060078692
 20
12.2762826887
 11
15.2047693303
 21
12.2543496055
  0
LWPOLYLINE
  5
5E3
100
AcDbEntity
  8
RACCORDO
100
AcDbPolyline
 62
7
  6
CONTINUOUS
 90
3
 70
0
 10
15.2395751627
 20
12.3107547463
 10
15.2418580916
 20
12.3282578693
 10
15.2424819728
 20
12.3377634796
  0
LWPOLYLINE
  5
5E4
100
AcDbEntity
  8
RACCORDO
100
AcDbPolyline
 62
7
  6
CONTINUOUS
 90
3
 70
0
 10
15.8238040541
 20
8.802996682
 10
15.8293544591
 20
8.8274358263
 10
15.8326355969
 20
8.8525858059
  0
LINE
  5
5E5
100
AcDbEntity
  8
RACCORDO
100
AcDbLine
 62
7
  6
CONTINUOUS
 10
40.9975681807
 20
10.3024948801
 11
30.0776451471
 21
3.4576686328
  0
LINE
  5
5E6
100
AcDbEntity
  8
RACCORDO
100
AcDbLine
 62
7
  6
CONTINUOUS
 10
13.5209480889
 20
14.7614337913
 11
11.9392556101
 21
14.6811937991
  0
LWPOLYLINE
  5
5E7
100
AcDbEntity
  8
RACCORDO
100
AcDbPolyline
 62
7
  6
CONTINUOUS
 90
6
 70
0
 10
14.509552589
 20
12.9914006836
 10
14.4729377759
 20
12.9903259525
 10
14.4369985544
 20
12.986658985
 10
14.4015453917
 20
12.980352251
 10
14.3678141865
 20
12.9716143443
 10
14.3360852022
 20
12.9606283489
  0
LWPOLYLINE
  5
5E8
100
AcDbEntity
  8
RACCORDO
100
AcDbPolyline
 62
7
  6
CONTINUOUS
 90
6
 70
0
 10
8.8958827534
 20
15.8011940823
 10
8.859023069
 20
15.8005456356
 10
8.822706702
 20
15.7972573569
 10
8.7867563262
 20
15.7912756713
 10
8.7524265838
 20
15.7827770533
 10
8.7199886703
 20
15.7719155275
  0
LWPOLYLINE
  5
5E9
100
AcDbEntity
  8
RACCORDO
100
AcDbPolyline
 62
7
  6
CONTINUOUS
 90
5
 70
0
 10
8.3943466019
 20
12.0435557862
 10
8.4117725755
 20
12.0430208198
 10
8.4296624401
 20
12.0399194196
 10
8.4478813554
 20
12.0343216663
 10
8.4662307637
 20
12.0263205903
  0
LWPOLYLINE
  5
5EA
100
AcDbEntity
  8
RACCORDO
100
AcDbPolyline
 62
7
  6
CONTINUOUS
 90
16
 70
0
 10
13.0270964263
 20
12.8451981549
 10
12.9652859247
 20
12.8486184403
 10
12.9036397877
 20
12.8501356387
 10
12.8421580154
 20
12.8497497502
 10
12.780607666
 20
12.8474449534
 10
12.7192216813
 20
12.8432370697
 10
12.6586988864
 20
12.8371735626
 10
12.5990487025
 20
12.8292331284
 10
12.5402617085
 20
12.8194370709
 10
12.4830084666
 20
12.8078967649
 10
12.4273077069
 20
12.7945927304
 10
12.3731406994
 20
12.7795444474
 10
12.3211218165
 20
12.7629217313
 10
12.2714558493
 20
12.7447811869
 10
12.2239380067
 20
12.7250662094
 10
12.1785682889
 20
12.7037767986
  0
LWPOLYLINE
  5
5EB
100
AcDbEntity
  8
RACCORDO
100
AcDbPolyline
 62
7
  6
CONTINUOUS
 90
5
 70
0
 10
13.0270964263
 20
12.8451981549
 10
13.1012917116
 20
12.833901172
 10
13.1735532593
 20
12.8140845365
 10
13.2430764057
 20
12.7868301648
 10
13.276481727
 20
12.7709031186
  0
LWPOLYLINE
  5
5EC
100
AcDbEntity
  8
RACCORDO
100
AcDbPolyline
 62
253
  6
CONTINUOUS
 90
12
 70
0
 10
0.8129337385
 20
13.8555957521
 10
0.8220318569
 20
13.8540319295
 10
0.8421731097
 20
13.8530736234
 10
0.8625218708
 20
13.8554685211
 10
0.8827338192
 20
13.8611760985
 10
0.9024669489
 20
13.8700997775
 10
0.9213873564
 20
13.8820885601
 10
0.9391748902
 20
13.8969395844
 10
0.9555285685
 20
13.9144015566
 10
0.9701716716
 20
13.934179003
 10
0.9828564241
 20
13.9559372701
 10
0.993368188
 20
13.9793081869
  0
LWPOLYLINE
  5
5ED
100
AcDbEntity
  8
RACCORDO
100
AcDbPolyline
 62
7
  6
CONTINUOUS
 90
4
 70
0
 10
12.9127976585
 20
10.2276267532
 10
12.9271095501
 20
10.225145633
 10
12.9416846824
 20
10.2206674304
 10
12.956364209
 20
10.2142665696
  0
LINE
  5
5EE
100
AcDbEntity
  8
0
100
AcDbLine
 62
7
  6
CONTINUOUS
 10
-32.2530625341
 20
19.9695420552
 11
-32.25390241
 21
19.9697163843
  0
LINE
  5
5EF
100
AcDbEntity
  8
RACCORDO
100
AcDbLine
 62
7
  6
CONTINUOUS
 10
1.4532649448
 20
13.7197613048
 11
0.8129337379
 21
13.8555957522
  0
LINE
  5
5F0
100
AcDbEntity
  8
RACCORDO
100
AcDbLine
 62
253
  6
CONTINUOUS
 10
1.7301759922
 20
13.8230080099
 11
0.993368188
 21
13.9793081869
  0
LWPOLYLINE
  5
5F1
100
AcDbEntity
  8
0
100
AcDbPolyline
 62
7
  6
CONTINUOUS
 90
9
 70
0
 10
-32.2539031675
 20
19.9697127885
 10
-32.2532747471
 20
19.9695776628
 10
-32.2491526114
 20
19.968566721
 10
-32.2427551746
 20
19.9667141366
 10
-32.2342305886
 20
19.9638732002
 10
-32.2236442111
 20
19.9598917747
 10
-32.2110123866
 20
19.954607869
 10
-32.1963492809
 20
19.9478606235
 10
-32.1888889178
 20
19.9442023999
  0
LWPOLYLINE
  5
5F2
100
AcDbEntity
  8
RACCORDO
100
AcDbPolyline
 62
253
  6
CONTINUOUS
 90
22
 70
0
 10
0.993368188
 20
13.9793081869
 10
0.9921255335
 20
13.9795993218
 10
0.9908876613
 20
13.9799897926
 10
0.9896545711
 20
13.9804795992
 10
0.9884184661
 20
13.9810641877
 10
0.9871871433
 20
13.9817481121
 10
0.9859839934
 20
13.9825450346
 10
0.9848089089
 20
13.9834573547
 10
0.9836619973
 20
13.984482673
 10
0.9825669721
 20
13.9856274532
 10
0.9815243599
 20
13.9868945443
 10
0.9805336342
 20
13.9882810973
 10
0.9796169285
 20
13.9897850291
 10
0.9787754441
 20
13.9914093276
 10
0.9780079799
 20
13.9931510048
 10
0.9773330661
 20
13.9949990139
 10
0.9767525184
 20
13.9969561287
 10
0.9762645212
 20
13.9990195755
 10
0.9758821577
 20
14.0011699862
 10
0.9756097892
 20
14.003400905
 10
0.9754430545
 20
14.0057187878
 10
0.9753819536
 20
14.0081236346
  0
LWPOLYLINE
  5
5F3
100
AcDbEntity
  8
RACCORDO
100
AcDbPolyline
 62
7
  6
CONTINUOUS
 90
10
 70
0
 10
13.5965310245
 20
10.4757239909
 10
13.5754885913
 20
10.4835002537
 10
13.5536131575
 20
10.4891234421
 10
13.531131768
 20
10.4924983146
 10
13.5081999245
 20
10.4935561998
 10
13.4850601051
 20
10.4922388825
 10
13.4620332987
 20
10.4885332495
 10
13.4393396214
 20
10.4824603586
 10
13.4171821525
 20
10.4740592933
 10
13.4130084938
 20
10.4721853463
  0
LWPOLYLINE
  5
5F4
100
AcDbEntity
  8
RACCORDO
100
AcDbPolyline
 62
253
  6
CONTINUOUS
 90
7
 70
0
 10
11.3901134629
 20
9.3692383596
 10
11.3713597477
 20
9.3768264489
 10
11.3529690044
 20
9.3813438721
 10
11.3352557819
 20
9.3827133649
 10
11.3185230409
 20
9.3809115042
 10
11.3030569723
 20
9.3759691087
 10
11.2977141814
 20
9.3733623294
  0
LWPOLYLINE
  5
5F5
100
AcDbEntity
  8
RACCORDO
100
AcDbPolyline
 62
253
  6
CONTINUOUS
 90
7
 70
0
 10
-1.1963872422
 20
15.6624887121
 10
-1.2151409574
 20
15.6700768015
 10
-1.2335317007
 20
15.6745942246
 10
-1.2512449232
 20
15.6759637174
 10
-1.2679776643
 20
15.6741618568
 10
-1.2834437328
 20
15.6692194613
 10
-1.2887865237
 20
15.6666126819
  0
LWPOLYLINE
  5
5F6
100
AcDbEntity
  8
RACCORDO
100
AcDbPolyline
 62
253
  6
CONTINUOUS
 90
8
 70
0
 10
8.2553349924
 20
11.9125799626
 10
8.2366372747
 20
11.920491805
 10
8.2181659413
 20
11.9259645726
 10
8.2001238175
 20
11.9289369042
 10
8.1827080763
 20
11.929374778
 10
8.1661115521
 20
11.9272712289
 10
8.1505198615
 20
11.9226485698
 10
8.1400160834
 20
11.9177897777
  0
LWPOLYLINE
  5
5F7
100
AcDbEntity
  8
RACCORDO
100
AcDbPolyline
 62
253
  6
CONTINUOUS
 90
8
 70
0
 10
4.5430243911
 20
13.7687352632
 10
4.5243266735
 20
13.7766471056
 10
4.5058553401
 20
13.7821198732
 10
4.4878132163
 20
13.7850922048
 10
4.4703974751
 20
13.7855300786
 10
4.4538009509
 20
13.7834265295
 10
4.4382092602
 20
13.7788038705
 10
4.4277054822
 20
13.7739450784
  0
LWPOLYLINE
  5
5F8
100
AcDbEntity
  8
RACCORDO
100
AcDbPolyline
 62
253
  6
CONTINUOUS
 90
16
 70
0
 10
8.1164232331
 20
11.6699045414
 10
8.1126622044
 20
11.6715266362
 10
8.1090201114
 20
11.6726411935
 10
8.105496954
 20
11.6732482133
 10
8.1020569523
 20
11.6733431477
 10
8.0987358863
 20
11.6729305446
 10
8.0956410955
 20
11.6720240475
 10
8.0927800435
 20
11.6706076485
 10
8.0901452667
 20
11.6686973556
 10
8.0878217134
 20
11.6663548358
 10
8.085819652
 20
11.6635658836
 10
8.0841288142
 20
11.6603447046
 10
8.0828033437
 20
11.6567955827
 10
8.0818612882
 20
11.6529532791
 10
8.0812845999
 20
11.6487830327
 10
8.0810732789
 20
11.6442848433
  0
LWPOLYLINE
  5
5F9
100
AcDbEntity
  8
RACCORDO
100
AcDbPolyline
 62
253
  6
CONTINUOUS
 90
16
 70
0
 10
4.4041126319
 20
13.526059842
 10
4.4003516032
 20
13.5276819368
 10
4.3967095102
 20
13.5287964941
 10
4.3931863527
 20
13.5294035139
 10
4.3897463511
 20
13.5294984483
 10
4.3864252851
 20
13.5290858452
 10
4.3833304943
 20
13.5281793481
 10
4.3804694423
 20
13.5267629492
 10
4.3778346654
 20
13.5248526562
 10
4.3755111122
 20
13.5225101364
 10
4.3735090508
 20
13.5197211842
 10
4.371818213
 20
13.5165000052
 10
4.3704927424
 20
13.5129508833
 10
4.3695506869
 20
13.5091085797
 10
4.3689739987
 20
13.5049383333
 10
4.3687626776
 20
13.5004401439
  0
LWPOLYLINE
  5
5FA
100
AcDbEntity
  8
RACCORDO
100
AcDbPolyline
 62
253
  6
CONTINUOUS
 90
6
 70
0
 10
13.4990902717
 20
10.4649154506
 10
13.4809383395
 20
10.472804429
 10
13.4630546573
 20
10.4775753817
 10
13.4457451015
 20
10.479146708
 10
13.4293057286
 20
10.4774915325
 10
13.4130084432
 20
10.4721854568
  0
LWPOLYLINE
  5
5FB
100
AcDbEntity
  8
RACCORDO
100
AcDbPolyline
 62
7
  6
CONTINUOUS
 90
8
 70
0
 10
4.7539201625
 20
13.8824758909
 10
4.7355807599
 20
13.8904819698
 10
4.7173595862
 20
13.8960785939
 10
4.6994619743
 20
13.8991761204
 10
4.6820312555
 20
13.8997087142
 10
4.6653398223
 20
13.897623248
 10
4.6497516559
 20
13.8929763268
 10
4.6447111437
 20
13.8908220162
  0
LWPOLYLINE
  5
5FC
100
AcDbEntity
  8
RACCORDO
100
AcDbPolyline
 62
7
  6
CONTINUOUS
 90
8
 70
0
 10
0.3698635039
 20
16.5075169221
 10
0.3551919819
 20
16.5139217852
 10
0.3406150429
 20
16.5183990845
 10
0.3262969533
 20
16.5208771057
 10
0.3123523783
 20
16.5213031808
 10
0.2989992318
 20
16.5196348077
 10
0.2865286987
 20
16.5159172708
 10
0.2824962889
 20
16.5141938223
  0
LWPOLYLINE
  5
5FD
100
AcDbEntity
  8
RACCORDO
100
AcDbPolyline
 62
253
  6
CONTINUOUS
 90
13
 70
0
 10
13.2815296284
 20
7.7160965839
 10
13.3009680505
 20
7.7075605526
 10
13.3224475752
 20
7.7003505319
 10
13.3456087923
 20
7.6945871649
 10
13.3700641522
 20
7.690366888
 10
13.395404451
 20
7.687760318
 10
13.4212056775
 20
7.6868110697
 10
13.4470361076
 20
7.6875350267
 10
13.4724635289
 20
7.6899200751
 10
13.4970624721
 20
7.6939263067
 10
13.5204213308
 20
7.6994866866
 10
13.5421492485
 20
7.7065081744
 10
13.5618826587
 20
7.714873282
  0
LWPOLYLINE
  5
5FE
100
AcDbEntity
  8
RACCORDO
100
AcDbPolyline
 62
253
  6
CONTINUOUS
 90
13
 70
0
 10
13.2815296284
 20
8.0333653843
 10
13.3009680513
 20
8.0248293527
 10
13.3224475768
 20
8.0176193319
 10
13.3456087945
 20
8.0118559647
 10
13.370064155
 20
8.007635688
 10
13.3954044543
 20
8.0050291181
 10
13.4212056809
 20
8.0040798701
 10
13.4470361109
 20
8.0048038272
 10
13.4724635318
 20
8.0071888758
 10
13.4970624745
 20
8.0111951076
 10
13.5204213325
 20
8.0167554874
 10
13.5421492494
 20
8.0237769751
 10
13.5618826587
 20
8.0321420824
  0
LWPOLYLINE
  5
5FF
100
AcDbEntity
  8
RACCORDO
100
AcDbPolyline
 62
253
  6
CONTINUOUS
 90
13
 70
0
 10
0.6950289232
 20
14.0093469365
 10
0.7144673454
 20
14.0008109052
 10
0.7359468701
 20
13.9936008845
 10
0.7591080871
 20
13.9878375174
 10
0.7835634471
 20
13.9836172406
 10
0.8089037459
 20
13.9810106706
 10
0.8347049724
 20
13.9800614223
 10
0.8605354025
 20
13.9807853792
 10
0.8859628238
 20
13.9831704277
 10
0.910561767
 20
13.9871766593
 10
0.9339206257
 20
13.9927370391
 10
0.9556485434
 20
13.999758527
 10
0.9753819536
 20
14.0081236346
  0
LWPOLYLINE
  5
600
100
AcDbEntity
  8
RACCORDO
100
AcDbPolyline
 62
253
  6
CONTINUOUS
 90
13
 70
0
 10
0.6950289232
 20
14.3266157368
 10
0.7144673462
 20
14.3180797053
 10
0.7359468717
 20
14.3108696844
 10
0.7591080894
 20
14.3051063173
 10
0.7835634499
 20
14.3008860405
 10
0.8089037492
 20
14.2982794707
 10
0.8347049758
 20
14.2973302226
 10
0.8605354058
 20
14.2980541798
 10
0.8859628267
 20
14.3004392284
 10
0.9105617694
 20
14.3044454601
 10
0.9339206274
 20
14.3100058399
 10
0.9556485442
 20
14.3170273277
 10
0.9753819536
 20
14.3253924349
  0
LWPOLYLINE
  5
601
100
AcDbEntity
  8
RACCORDO
100
AcDbPolyline
 62
253
  6
CONTINUOUS
 90
13
 70
0
 10
10.371721676
 20
10.4989606448
 10
10.3911599924
 20
10.4904246829
 10
10.4126394108
 20
10.4832147062
 10
10.4358005307
 20
10.4774513597
 10
10.4602558077
 20
10.4732310835
 10
10.4855960468
 20
10.4706244971
 10
10.5113972501
 20
10.4696752203
 10
10.5372277014
 20
10.4703991428
 10
10.5626551806
 20
10.4727841582
 10
10.587254206
 20
10.4767903644
 10
10.6106131624
 20
10.4823507301
 10
10.6323411878
 20
10.4893722183
 10
10.6520747063
 20
10.4977373427
  0
LWPOLYLINE
  5
602
100
AcDbEntity
  8
RACCORDO
100
AcDbPolyline
 62
253
  6
CONTINUOUS
 90
13
 70
0
 10
6.6594110748
 20
12.3551159454
 10
6.6788493911
 20
12.3465799835
 10
6.7003288096
 20
12.3393700068
 10
6.7234899295
 20
12.3336066603
 10
6.7479452064
 20
12.3293863841
 10
6.7732854456
 20
12.3267797977
 10
6.7990866489
 20
12.3258305209
 10
6.8249171001
 20
12.3265544434
 10
6.8503445794
 20
12.3289394588
 10
6.8749436048
 20
12.332945665
 10
6.8983025611
 20
12.3385060307
 10
6.9200305866
 20
12.3455275189
 10
6.9397641051
 20
12.3538926433
  0
LWPOLYLINE
  5
603
100
AcDbEntity
  8
RACCORDO
100
AcDbPolyline
 62
253
  6
CONTINUOUS
 90
13
 70
0
 10
-18.538275525
 20
23.6259991606
 10
-18.5188371029
 20
23.6174631293
 10
-18.4973575782
 20
23.6102531086
 10
-18.4741963611
 20
23.6044897416
 10
-18.4497410012
 20
23.6002694647
 10
-18.4244007023
 20
23.5976628947
 10
-18.3985994759
 20
23.5967136464
 10
-18.3727690458
 20
23.5974376034
 10
-18.3473416245
 20
23.5998226518
 10
-18.3227426813
 20
23.6038288834
 10
-18.2993838226
 20
23.6093892632
 10
-18.2776559049
 20
23.6164107511
 10
-18.2579224947
 20
23.6247758587
  0
LWPOLYLINE
  5
604
100
AcDbEntity
  8
RACCORDO
100
AcDbPolyline
 62
253
  6
CONTINUOUS
 90
13
 70
0
 10
-18.538275525
 20
23.943267961
 10
-18.5188371021
 20
23.9347319294
 10
-18.4973575766
 20
23.9275219086
 10
-18.4741963589
 20
23.9217585414
 10
-18.4497409984
 20
23.9175382647
 10
-18.4244006991
 20
23.9149316948
 10
-18.3985994725
 20
23.9139824468
 10
-18.3727690425
 20
23.9147064039
 10
-18.3473416216
 20
23.9170914525
 10
-18.3227426789
 20
23.9210976843
 10
-18.2993838209
 20
23.9266580641
 10
-18.277655904
 20
23.9336795518
 10
-18.2579224947
 20
23.9420446591
  0
LWPOLYLINE
  5
605
100
AcDbEntity
  8
RACCORDO
100
AcDbPolyline
 62
253
  6
CONTINUOUS
 90
13
 70
0
 10
-31.1247762302
 20
29.9192495132
 10
-31.105337808
 20
29.9107134819
 10
-31.0838582833
 20
29.9035034612
 10
-31.0606970662
 20
29.8977400941
 10
-31.0362417063
 20
29.8935198173
 10
-31.0109014075
 20
29.8909132473
 10
-30.985100181
 20
29.889963999
 10
-30.9592697509
 20
29.8906879559
 10
-30.9338423296
 20
29.8930730044
 10
-30.9092433864
 20
29.897079236
 10
-30.8858845277
 20
29.9026396158
 10
-30.86415661
 20
29.9096611037
 10
-30.8444231998
 20
29.9180262113
  0
LWPOLYLINE
  5
606
100
AcDbEntity
  8
RACCORDO
100
AcDbPolyline
 62
253
  6
CONTINUOUS
 90
13
 70
0
 10
-31.1247762302
 20
30.2365183135
 10
-31.1053378072
 20
30.227982282
 10
-31.0838582817
 20
30.2207722611
 10
-31.060697064
 20
30.215008894
 10
-31.0362417035
 20
30.2107886172
 10
-31.0109014042
 20
30.2081820474
 10
-30.9851001776
 20
30.2072327993
 10
-30.9592697476
 20
30.2079567565
 10
-30.9338423267
 20
30.2103418051
 10
-30.909243384
 20
30.2143480368
 10
-30.885884526
 20
30.2199084166
 10
-30.8641566092
 20
30.2269299044
 10
-30.8444231998
 20
30.2352950116
  0
LWPOLYLINE
  5
607
100
AcDbEntity
  8
RACCORDO
100
AcDbPolyline
 62
253
  6
CONTINUOUS
 90
13
 70
0
 10
-21.4480834774
 20
26.4088632215
 10
-21.428645161
 20
26.4003272596
 10
-21.4071657426
 20
26.3931172829
 10
-21.3840046227
 20
26.3873539364
 10
-21.3595493457
 20
26.3831336602
 10
-21.3342091066
 20
26.3805270738
 10
-21.3084079033
 20
26.379577797
 10
-21.282577452
 20
26.3803017195
 10
-21.2571499728
 20
26.3826867349
 10
-21.2325509474
 20
26.3866929411
 10
-21.209191991
 20
26.3922533068
 10
-21.1874639655
 20
26.399274795
 10
-21.1677304471
 20
26.4076399194
  0
LWPOLYLINE
  5
608
100
AcDbEntity
  8
RACCORDO
100
AcDbPolyline
 62
253
  6
CONTINUOUS
 90
13
 70
0
 10
13.6081908472
 20
10.4703151053
 10
13.6008083523
 20
10.4736197654
 10
13.5927262329
 20
10.4764195652
 10
13.5843181094
 20
10.4785216938
 10
13.5756068264
 20
10.4799123482
 10
13.5666167572
 20
10.4805797693
 10
13.5573953667
 20
10.4805152648
 10
13.5479708396
 20
10.4797166511
 10
13.5383720658
 20
10.4781840416
 10
13.5286514038
 20
10.4759257414
 10
13.5188473573
 20
10.4729539629
 10
13.508983345
 20
10.4692791925
 10
13.4990902717
 20
10.4649154506
  0
LWPOLYLINE
  5
609
100
AcDbEntity
  8
RACCORDO
100
AcDbPolyline
 62
253
  6
CONTINUOUS
 90
8
 70
0
 10
15.7101591955
 20
9.4193309301
 10
15.7037892762
 20
9.4222211786
 10
15.6886072958
 20
9.4269898776
 10
15.6724631187
 20
9.4292782525
 10
15.6555285366
 20
9.4290624151
 10
15.6379850411
 20
9.4263447157
 10
15.6200218494
 20
9.4211536544
 10
15.6018320975
 20
9.4135445378
  0
LINE
  5
60A
100
AcDbEntity
  8
RACCORDO
100
AcDbLine
 62
7
  6
CONTINUOUS
 10
1.0219235129
 20
16.7634422553
 11
1.0077837511
 21
16.7699199033
  0
LINE
  5
60B
100
AcDbEntity
  8
RACCORDO
100
AcDbLine
 62
7
  6
CONTINUOUS
 10
13.6084511499
 20
10.4701838235
 11
13.5965310245
 21
10.4757239909
  0
LWPOLYLINE
  5
60C
100
AcDbEntity
  8
RACCORDO
100
AcDbPolyline
 62
7
  6
CONTINUOUS
 90
4
 70
0
 10
13.3466934206
 20
7.5807829034
 10
13.3528324437
 20
7.5778302491
 10
13.3759392822
 20
7.5687036031
 10
13.3993497073
 20
7.5623634451
  0
LWPOLYLINE
  5
60D
100
AcDbEntity
  8
RACCORDO
100
AcDbPolyline
 62
7
  6
CONTINUOUS
 90
4
 70
0
 10
0.7601927154
 20
13.874033256
 10
0.7663317386
 20
13.8710806016
 10
0.789438577
 20
13.8619539556
 10
0.8128490021
 20
13.8556137976
  0
LWPOLYLINE
  5
60E
100
AcDbEntity
  8
RACCORDO
100
AcDbPolyline
 62
7
  6
CONTINUOUS
 90
4
 70
0
 10
-18.4731117328
 20
23.4906854801
 10
-18.4669727097
 20
23.4877328258
 10
-18.4438658712
 20
23.4786061798
 10
-18.4204554461
 20
23.4722660218
  0
LWPOLYLINE
  5
60F
100
AcDbEntity
  8
RACCORDO
100
AcDbPolyline
 62
7
  6
CONTINUOUS
 90
4
 70
0
 10
-31.059612438
 20
29.7839358327
 10
-31.0534734148
 20
29.7809831783
 10
-31.0303665764
 20
29.7718565323
 10
-31.0069561513
 20
29.7655163743
  0
LINE
  5
610
100
AcDbEntity
  8
0
100
AcDbLine
 62
7
  6
CONTINUOUS
 10
17.3759646922
 20
4.5975591693
 11
17.7377537267
 21
4.416664652
  0
LINE
  5
611
100
AcDbEntity
  8
RACCORDO
100
AcDbLine
 62
253
  6
CONTINUOUS
 10
17.7287479902
 20
4.7334140275
 11
17.9468278246
 21
4.6243741103
  0
LINE
  5
612
100
AcDbEntity
  8
RACCORDO
100
AcDbLine
 62
7
  6
CONTINUOUS
 10
13.9662354094
 20
6.7619377473
 11
13.2392284607
 21
7.1254412217
  0
LINE
  5
613
100
AcDbEntity
  8
RACCORDO
100
AcDbLine
 62
7
  6
CONTINUOUS
 10
12.0792735193
 20
7.7054186924
 11
11.946536087
 21
7.7717874085
  0
LINE
  5
614
100
AcDbEntity
  8
RACCORDO
100
AcDbLine
 62
7
  6
CONTINUOUS
 10
1.3797347043
 20
13.0551880999
 11
0.6527277555
 21
13.4186915743
  0
LINE
  5
615
100
AcDbEntity
  8
RACCORDO
100
AcDbLine
 62
7
  6
CONTINUOUS
 10
-0.5072271859
 20
13.998669045
 11
-0.6399646181
 21
14.0650377611
  0
LINE
  5
616
100
AcDbEntity
  8
RACCORDO
100
AcDbLine
 62
7
  6
CONTINUOUS
 10
-17.853569744
 20
22.671840324
 11
-18.5805766927
 21
23.0353437984
  0
LINE
  5
617
100
AcDbEntity
  8
RACCORDO
100
AcDbLine
 62
7
  6
CONTINUOUS
 10
-19.7405316341
 20
23.6153212691
 11
-19.8732690664
 21
23.6816899852
  0
LINE
  5
618
100
AcDbEntity
  8
RACCORDO
100
AcDbLine
 62
7
  6
CONTINUOUS
 10
-30.4400704491
 20
28.9650906766
 11
-31.1670773979
 21
29.328594151
  0
LINE
  5
619
100
AcDbEntity
  8
RACCORDO
100
AcDbLine
 62
7
  6
CONTINUOUS
 10
-32.3270323393
 20
29.9085716217
 11
-32.4597697715
 21
29.9749403378
  0
LINE
  5
61A
100
AcDbEntity
  8
RACCORDO
100
AcDbLine
 62
7
  6
CONTINUOUS
 10
-33.1245359962
 20
30.8163975945
 11
-32.3243211968
 21
30.4162901946
  0
LINE
  5
61B
100
AcDbEntity
  8
RACCORDO
100
AcDbLine
 62
7
  6
CONTINUOUS
 10
-31.8597859934
 20
30.1840225929
 11
-31.0595754126
 21
29.7839173025
  0
LINE
  5
61C
100
AcDbEntity
  8
RACCORDO
100
AcDbLine
 62
7
  6
CONTINUOUS
 10
-20.538035291
 20
24.5231472419
 11
-19.7378204916
 21
24.123039842
  0
LINE
  5
61D
100
AcDbEntity
  8
RACCORDO
100
AcDbLine
 62
7
  6
CONTINUOUS
 10
-19.2732852883
 20
23.8907722404
 11
-18.4730747075
 21
23.49066695
  0
LINE
  5
61E
100
AcDbEntity
  8
RACCORDO
100
AcDbLine
 62
7
  6
CONTINUOUS
 10
-1.3047308428
 20
14.9064950178
 11
-0.5045160434
 21
14.5063876179
  0
LINE
  5
61F
100
AcDbEntity
  8
RACCORDO
100
AcDbLine
 62
7
  6
CONTINUOUS
 10
-0.03998084
 20
14.2741200162
 11
0.7602297408
 21
13.8740147258
  0
LINE
  5
620
100
AcDbEntity
  8
RACCORDO
100
AcDbLine
 62
7
  6
CONTINUOUS
 10
11.2817698624
 20
8.6132446652
 11
12.0819846618
 21
8.2131372653
  0
LINE
  5
621
100
AcDbEntity
  8
RACCORDO
100
AcDbLine
 62
7
  6
CONTINUOUS
 10
12.5465198651
 20
7.9808696637
 11
13.3467304459
 21
7.5807643733
  0
LINE
  5
622
100
AcDbEntity
  8
RACCORDO
100
AcDbLine
 62
253
  6
CONTINUOUS
 10
-33.1892775529
 20
30.9515013916
 11
-32.2538090346
 21
30.4837659154
  0
LINE
  5
623
100
AcDbEntity
  8
RACCORDO
100
AcDbLine
 62
253
  6
CONTINUOUS
 10
-20.6027768477
 20
24.658251039
 11
-19.6673083294
 21
24.1905155628
  0
LINE
  5
624
100
AcDbEntity
  8
RACCORDO
100
AcDbLine
 62
253
  6
CONTINUOUS
 10
-1.3694723995
 20
15.0415988149
 11
-0.4340038812
 21
14.5738633387
  0
LINE
  5
625
100
AcDbEntity
  8
RACCORDO
100
AcDbLine
 62
253
  6
CONTINUOUS
 10
-32.0602447485
 20
30.3869837723
 11
-31.1247762302
 21
29.9192495132
  0
LINE
  5
626
100
AcDbEntity
  8
RACCORDO
100
AcDbLine
 62
253
  6
CONTINUOUS
 10
-19.4737440433
 20
24.0937334198
 11
-18.538275525
 21
23.6259991606
  0
LINE
  5
627
100
AcDbEntity
  8
RACCORDO
100
AcDbLine
 62
253
  6
CONTINUOUS
 10
-0.2404395951
 20
14.4770811956
 11
0.6950289232
 21
14.0093469365
  0
LINE
  5
628
100
AcDbEntity
  8
RACCORDO
100
AcDbLine
 62
253
  6
CONTINUOUS
 10
12.3460611101
 20
8.1838308431
 11
13.2815296284
 21
7.7160965839
  0
LINE
  5
629
100
AcDbEntity
  8
RACCORDO
100
AcDbLine
 62
253
  6
CONTINUOUS
 10
11.2170283056
 20
8.7483484623
 11
12.152496824
 21
8.2806129861
  0
LINE
  5
62A
100
AcDbEntity
  8
RACCORDO
100
AcDbLine
 62
7
  6
CONTINUOUS
 10
-27.4510424757
 20
28.2230699393
 11
-25.1603940786
 21
27.0777457408
  0
LINE
  5
62B
100
AcDbEntity
  8
RACCORDO
100
AcDbLine
 62
7
  6
CONTINUOUS
 10
-23.7387318745
 20
26.3669146387
 11
-21.4480834774
 21
25.2215904401
  0
LINE
  5
62C
100
AcDbEntity
  8
RACCORDO
100
AcDbLine
 62
7
  6
CONTINUOUS
 10
4.3687626776
 20
12.3131673626
 11
6.6594110748
 21
11.1678431641
  0
LINE
  5
62D
100
AcDbEntity
  8
RACCORDO
100
AcDbLine
 62
7
  6
CONTINUOUS
 10
8.0810732789
 20
10.457012062
 11
10.371721676
 21
9.3116878634
  0
LINE
  5
62E
100
AcDbEntity
  8
RACCORDO
100
AcDbLine
 62
253
  6
CONTINUOUS
 10
11.2170283056
 20
9.0656160456
 11
13.2815296284
 21
8.033366558
  0
LINE
  5
62F
100
AcDbEntity
  8
RACCORDO
100
AcDbLine
 62
253
  6
CONTINUOUS
 10
-1.3694723995
 20
15.3588663982
 11
0.6950289232
 21
14.3266169106
  0
LINE
  5
630
100
AcDbEntity
  8
RACCORDO
100
AcDbLine
 62
253
  6
CONTINUOUS
 10
-20.6027768477
 20
24.9755186223
 11
-18.538275525
 21
23.9432691347
  0
LINE
  5
631
100
AcDbEntity
  8
RACCORDO
100
AcDbLine
 62
253
  6
CONTINUOUS
 10
-33.1892775529
 20
31.2687689749
 11
-31.1247762302
 21
30.2365194873
  0
LINE
  5
632
100
AcDbEntity
  8
DRAFT
100
AcDbLine
 62
7
  6
CONTINUOUS
 10
11.1974422211
 20
9.2750742156
 11
10.8704207437
 21
9.4385849543
  0
LINE
  5
633
100
AcDbEntity
  8
DRAFT
100
AcDbLine
 62
7
  6
CONTINUOUS
 10
8.0224946351
 20
10.8625480086
 11
7.1581101425
 21
11.2947402549
  0
LINE
  5
634
100
AcDbEntity
  8
DRAFT
100
AcDbLine
 62
7
  6
CONTINUOUS
 10
4.3101840339
 20
12.7187033092
 11
2.6326267429
 21
13.5574819547
  0
LINE
  5
635
100
AcDbEntity
  8
DRAFT
100
AcDbLine
 62
7
  6
CONTINUOUS
 10
-1.389058484
 20
15.5683245681
 11
-16.6006777054
 21
23.1741341788
  0
LINE
  5
636
100
AcDbEntity
  8
DRAFT
100
AcDbLine
 62
7
  6
CONTINUOUS
 10
-20.6223629323
 20
25.1849767923
 11
-20.9493844097
 21
25.348487531
  0
LINE
  5
637
100
AcDbEntity
  8
DRAFT
100
AcDbLine
 62
7
  6
CONTINUOUS
 10
-23.7973105183
 20
26.7724505853
 11
-24.6616950109
 21
27.2046428316
  0
LINE
  5
638
100
AcDbEntity
  8
DRAFT
100
AcDbLine
 62
7
  6
CONTINUOUS
 10
-27.5096211195
 20
28.6286058859
 11
-29.1871784105
 21
29.4673845314
  0
LINE
  5
639
100
AcDbEntity
  8
RACCORDO
100
AcDbLine
 62
253
  6
CONTINUOUS
 10
-33.0161910299
 20
31.5723920257
 11
-30.9504803108
 21
30.5395332823
  0
LINE
  5
63A
100
AcDbEntity
  8
RACCORDO
100
AcDbLine
 62
253
  6
CONTINUOUS
 10
-20.4296903247
 20
25.2791416731
 11
-18.3639796057
 21
24.2462829298
  0
LINE
  5
63B
100
AcDbEntity
  8
RACCORDO
100
AcDbLine
 62
253
  6
CONTINUOUS
 10
-1.1963858765
 20
15.662489449
 11
0.8693248426
 21
14.6296307056
  0
LINE
  5
63C
100
AcDbEntity
  8
RACCORDO
100
AcDbLine
 62
253
  6
CONTINUOUS
 10
11.3901148286
 20
9.3692390964
 11
13.4558255477
 21
8.3363803531
  0
LINE
  5
63D
100
AcDbEntity
  8
RACCORDO
100
AcDbLine
 62
7
  6
CONTINUOUS
 10
-29.1871784105
 20
30.1593747829
 11
-28.5103144982
 21
29.8209428268
  0
LINE
  5
63E
100
AcDbEntity
  8
RACCORDO
100
AcDbLine
 62
7
  6
CONTINUOUS
 10
15.219127448
 20
7.9562218537
 11
15.9139454823
 21
7.6088128365
  0
LINE
  5
63F
100
AcDbEntity
  8
DRAFT
100
AcDbLine
 62
7
  6
CONTINUOUS
 10
8.0224946351
 20
11.5552412831
 11
7.8401703728
 21
11.6464034143
  0
LINE
  5
640
100
AcDbEntity
  8
DRAFT
100
AcDbLine
 62
7
  6
CONTINUOUS
 10
-23.7973105183
 20
27.4651438598
 11
-23.9796347806
 21
27.556305991
  0
LINE
  5
641
100
AcDbEntity
  8
RACCORDO
100
AcDbLine
 62
253
  6
CONTINUOUS
 10
10.3363717217
 20
10.5599302971
 11
8.1164232331
 21
11.6699045414
  0
LINE
  5
642
100
AcDbEntity
  8
RACCORDO
100
AcDbLine
 62
253
  6
CONTINUOUS
 10
6.6240611205
 20
12.4160855977
 11
4.4041126319
 21
13.526059842
  0
LINE
  5
643
100
AcDbEntity
  8
RACCORDO
100
AcDbLine
 62
253
  6
CONTINUOUS
 10
-21.4834334317
 20
26.4698328738
 11
-23.7033819203
 21
27.5798071181
  0
LINE
  5
644
100
AcDbEntity
  8
RACCORDO
100
AcDbLine
 62
253
  6
CONTINUOUS
 10
-25.1957440329
 20
28.3259881744
 11
-27.4156925215
 21
29.4359624187
  0
LINE
  5
645
100
AcDbEntity
  8
DRAFT
100
AcDbLine
 62
7
  6
CONTINUOUS
 10
3.6656002808
 20
14.078980563
 11
2.7964328423
 21
14.5135642823
  0
LINE
  5
646
100
AcDbEntity
  8
DRAFT
100
AcDbLine
 62
7
  6
CONTINUOUS
 10
-0.4330466881
 20
16.1283040475
 11
-16.436871606
 21
24.1302165064
  0
LINE
  5
647
100
AcDbEntity
  8
DRAFT
100
AcDbLine
 62
7
  6
CONTINUOUS
 10
2.8447587772
 20
14.5120761093
 11
2.8094835809
 21
14.5297137075
  0
LINE
  5
648
100
AcDbEntity
  8
DRAFT
100
AcDbLine
 62
7
  6
CONTINUOUS
 10
-14.5147127009
 20
23.1918118484
 11
-16.4238208673
 21
24.1463659316
  0
LINE
  5
649
100
AcDbEntity
  8
RACCORDO
100
AcDbLine
 62
253
  6
CONTINUOUS
 10
10.4753657968
 20
10.8025651736
 11
8.2553355769
 21
11.9125802836
  0
LINE
  5
64A
100
AcDbEntity
  8
RACCORDO
100
AcDbLine
 62
253
  6
CONTINUOUS
 10
6.7630551956
 20
12.6587204742
 11
4.5430249756
 21
13.7687355842
  0
LINE
  5
64B
100
AcDbEntity
  8
RACCORDO
100
AcDbLine
 62
253
  6
CONTINUOUS
 10
-21.3444393566
 20
26.7124677503
 11
-23.5644695765
 21
27.8224828603
  0
LINE
  5
64C
100
AcDbEntity
  8
RACCORDO
100
AcDbLine
 62
253
  6
CONTINUOUS
 10
-25.0567499578
 20
28.5686230509
 11
-27.2767801778
 21
29.6786381609
  0
LINE
  5
64D
100
AcDbEntity
  8
RACCORDO
100
AcDbLine
 62
7
  6
CONTINUOUS
 10
10.6936709723
 20
10.912600486
 11
8.4662307637
 21
12.0263205903
  0
LINE
  5
64E
100
AcDbEntity
  8
RACCORDO
100
AcDbLine
 62
7
  6
CONTINUOUS
 10
6.9813603711
 20
12.7687557866
 11
4.7539201625
 21
13.8824758909
  0
LINE
  5
64F
100
AcDbEntity
  8
RACCORDO
100
AcDbLine
 62
7
  6
CONTINUOUS
 10
-21.1261341811
 20
26.8225030627
 11
-23.3535743897
 21
27.936223167
  0
LINE
  5
650
100
AcDbEntity
  8
RACCORDO
100
AcDbLine
 62
7
  6
CONTINUOUS
 10
-24.8384447823
 20
28.6786583633
 11
-27.0658849909
 21
29.7923784676
  0
LINE
  5
651
100
AcDbEntity
  8
RACCORDO
100
AcDbLine
 62
7
  6
CONTINUOUS
 10
15.0777276309
 20
9.1535848586
 11
12.956364209
 21
10.2142665696
  0
LINE
  5
652
100
AcDbEntity
  8
RACCORDO
100
AcDbLine
 62
7
  6
CONTINUOUS
 10
2.4912269258
 20
15.4468352112
 11
0.3698635039
 21
16.5075169221
  0
LINE
  5
653
100
AcDbEntity
  8
RACCORDO
100
AcDbLine
 62
7
  6
CONTINUOUS
 10
-16.7420775225
 20
25.0634874353
 11
-18.8634409444
 21
26.1241691463
  0
LINE
  5
654
100
AcDbEntity
  8
RACCORDO
100
AcDbLine
 62
7
  6
CONTINUOUS
 10
-29.3285782276
 20
31.3567377879
 11
-31.4499416495
 21
32.4174194988
  0
LINE
  5
655
100
AcDbEntity
  8
RACCORDO
100
AcDbLine
 62
7
  6
CONTINUOUS
 10
11.1094626327
 20
11.3553153609
 11
9.1426585959
 21
12.3387173793
  0
LINE
  5
656
100
AcDbEntity
  8
RACCORDO
100
AcDbLine
 62
7
  6
CONTINUOUS
 10
7.6345791356
 20
13.0927571094
 11
5.6677750988
 21
14.0761591278
  0
LINE
  5
657
100
AcDbEntity
  8
RACCORDO
100
AcDbLine
 62
7
  6
CONTINUOUS
 10
-20.7103425207
 20
27.2652179376
 11
-22.6771465575
 21
28.248619956
  0
LINE
  5
658
100
AcDbEntity
  8
RACCORDO
100
AcDbLine
 62
7
  6
CONTINUOUS
 10
-24.1852260178
 20
29.0026596861
 11
-26.1520300546
 21
29.9860617045
  0
LINE
  5
659
100
AcDbEntity
  8
RACCORDO
100
AcDbLine
 62
253
  6
CONTINUOUS
 10
-18.3207148817
 20
26.3748180273
 11
-16.2179730559
 21
25.3234471145
  0
LINE
  5
65A
100
AcDbEntity
  8
RACCORDO
100
AcDbLine
 62
253
  6
CONTINUOUS
 10
13.4990902717
 20
10.4649154506
 11
15.6018320975
 21
9.4135445378
  0
LINE
  5
65B
100
AcDbEntity
  8
RACCORDO
100
AcDbLine
 62
253
  6
CONTINUOUS
 10
0.9125895666
 20
16.7581658032
 11
3.0153323295
 21
15.7067953552
  0
LINE
  5
65C
100
AcDbEntity
  8
RACCORDO
100
AcDbLine
 62
253
  6
CONTINUOUS
 10
-30.9072155868
 20
32.6680683799
 11
-28.8044728239
 21
31.6166979319
  0
LINE
  5
65D
100
AcDbEntity
  8
RACCORDO
100
AcDbLine
 62
7
  6
CONTINUOUS
 10
-30.7981208402
 20
32.6734709491
 11
-28.696134068
 21
31.622477563
  0
LINE
  5
65E
100
AcDbEntity
  8
RACCORDO
100
AcDbLine
 62
7
  6
CONTINUOUS
 10
-18.2116172543
 20
26.3802191561
 11
-16.1096313623
 21
25.3292262101
  0
LINE
  5
65F
100
AcDbEntity
  8
RACCORDO
100
AcDbLine
 62
7
  6
CONTINUOUS
 10
1.0216843132
 20
16.7635683724
 11
3.1236710854
 21
15.7125749863
  0
LINE
  5
660
100
AcDbEntity
  8
RACCORDO
100
AcDbLine
 62
7
  6
CONTINUOUS
 10
13.6081878991
 20
10.4703165794
 11
15.7101737911
 21
9.4193236334
  0
LINE
  5
661
100
AcDbEntity
  8
DRAFT
100
AcDbLine
 62
7
  6
CONTINUOUS
 10
-11.7810624811
 20
23.2108888213
 11
-11.7569962543
 21
23.1988557079
  0
LWPOLYLINE
  5
662
100
AcDbEntity
  8
RACCORDO
100
AcDbPolyline
 62
253
  6
CONTINUOUS
 90
19
 70
0
 10
-31.0596138121
 20
29.7839365128
 10
-31.0604908619
 20
29.7843812547
 10
-31.0665420432
 20
29.7877757224
 10
-31.0724858086
 20
29.7917143848
 10
-31.0782914478
 20
29.7962214111
 10
-31.0839264382
 20
29.8013192668
 10
-31.0893368901
 20
29.8070062577
 10
-31.0944915206
 20
29.8132955149
 10
-31.0993579934
 20
29.8201976172
 10
-31.1038873781
 20
29.8276924959
 10
-31.1080507669
 20
29.835780185
 10
-31.1118192403
 20
29.8444579399
 10
-31.1151529121
 20
29.8536869141
 10
-31.1180283361
 20
29.8634534839
 10
-31.1204230432
 20
29.8737417438
 10
-31.1223097511
 20
29.8844961062
 10
-31.1236719366
 20
29.8956784827
 10
-31.1244982147
 20
29.9072729462
 10
-31.1247762302
 20
29.9192495132
  0
LWPOLYLINE
  5
663
100
AcDbEntity
  8
RACCORDO
100
AcDbPolyline
 62
253
  6
CONTINUOUS
 90
19
 70
0
 10
-18.473113107
 20
23.4906861602
 10
-18.4739901567
 20
23.4911309021
 10
-18.4800413381
 20
23.4945253698
 10
-18.4859851035
 20
23.4984640322
 10
-18.4917907427
 20
23.5029710585
 10
-18.4974257331
 20
23.5080689142
 10
-18.502836185
 20
23.5137559051
 10
-18.5079908155
 20
23.5200451623
 10
-18.5128572883
 20
23.5269472647
 10
-18.5173866729
 20
23.5344421434
 10
-18.5215500617
 20
23.5425298324
 10
-18.5253185352
 20
23.5512075874
 10
-18.5286522069
 20
23.5604365615
 10
-18.5315276309
 20
23.5702031313
 10
-18.5339223381
 20
23.5804913913
 10
-18.535809046
 20
23.5912457536
 10
-18.5371712315
 20
23.6024281301
 10
-18.5379975096
 20
23.6140225937
 10
-18.538275525
 20
23.6259991606
  0
LWPOLYLINE
  5
664
100
AcDbEntity
  8
RACCORDO
100
AcDbPolyline
 62
253
  6
CONTINUOUS
 90
19
 70
0
 10
0.7601913413
 20
13.8740339361
 10
0.7593142915
 20
13.874478678
 10
0.7532631102
 20
13.8778731457
 10
0.7473193448
 20
13.8818118081
 10
0.7415137056
 20
13.8863188344
 10
0.7358787152
 20
13.8914166901
 10
0.7304682633
 20
13.897103681
 10
0.7253136328
 20
13.9033929382
 10
0.72044716
 20
13.9102950405
 10
0.7159177753
 20
13.9177899192
 10
0.7117543865
 20
13.9258776083
 10
0.7079859131
 20
13.9345553632
 10
0.7046522413
 20
13.9437843374
 10
0.7017768173
 20
13.9535509072
 10
0.6993821102
 20
13.9638391671
 10
0.6974954023
 20
13.9745935295
 10
0.6961332167
 20
13.985775906
 10
0.6953069386
 20
13.9973703695
 10
0.6950289232
 20
14.0093469365
  0
LWPOLYLINE
  5
665
100
AcDbEntity
  8
RACCORDO
100
AcDbPolyline
 62
253
  6
CONTINUOUS
 90
19
 70
0
 10
13.3466920464
 20
7.5807835835
 10
13.3458149966
 20
7.5812283254
 10
13.3397638153
 20
7.5846227931
 10
13.3338200499
 20
7.5885614555
 10
13.3280144107
 20
7.5930684818
 10
13.3223794203
 20
7.5981663375
 10
13.3169689684
 20
7.6038533284
 10
13.3118143379
 20
7.6101425856
 10
13.3069478651
 20
7.617044688
 10
13.3024184805
 20
7.6245395667
 10
13.2982550917
 20
7.6326272557
 10
13.2944866182
 20
7.6413050107
 10
13.2911529465
 20
7.6505339848
 10
13.2882775225
 20
7.6603005546
 10
13.2858828153
 20
7.6705888146
 10
13.2839961074
 20
7.6813431769
 10
13.2826339219
 20
7.6925255535
 10
13.2818076438
 20
7.704120017
 10
13.2815296284
 20
7.7160965839
  0
LWPOLYLINE
  5
666
100
AcDbEntity
  8
RACCORDO
100
AcDbPolyline
 62
7
  6
CONTINUOUS
 90
9
 70
0
 10
17.8640174596
 20
4.7479647103
 10
17.8659644782
 20
4.7469700616
 10
17.8823052671
 20
4.7367016951
 10
17.8974786629
 20
4.7236042254
 10
17.9112942175
 20
4.7078344754
 10
17.923276749
 20
4.6897564243
 10
17.9331967288
 20
4.6696637679
 10
17.9410672919
 20
4.6477699577
 10
17.9468278246
 20
4.6243741103
  0
LWPOLYLINE
  5
667
100
AcDbEntity
  8
RACCORDO
100
AcDbPolyline
 62
7
  6
CONTINUOUS
 90
12
 70
0
 10
-31.8594842739
 20
30.1838732285
 10
-31.8675818511
 20
30.1881016439
 10
-31.8908352363
 20
30.201911246
 10
-31.9133631918
 20
30.2176057643
 10
-31.9351356911
 20
30.2349180821
 10
-31.9559802329
 20
30.2536381708
 10
-31.975884351
 20
30.2736036166
 10
-31.9948868403
 20
30.2946408006
 10
-32.0128319121
 20
30.3166238836
 10
-32.0296630066
 20
30.3394354008
 10
-32.0454583157
 20
30.3629324121
 10
-32.0602447485
 20
30.3869837723
  0
LWPOLYLINE
  5
668
100
AcDbEntity
  8
RACCORDO
100
AcDbPolyline
 62
7
  6
CONTINUOUS
 90
12
 70
0
 10
-19.2729835688
 20
23.8906228759
 10
-19.281081146
 20
23.8948512914
 10
-19.3043345312
 20
23.9086608935
 10
-19.3268624867
 20
23.9243554117
 10
-19.3486349859
 20
23.9416677296
 10
-19.3694795278
 20
23.9603878183
 10
-19.3893836459
 20
23.9803532641
 10
-19.4083861352
 20
24.001390448
 10
-19.426331207
 20
24.0233735311
 10
-19.4431623015
 20
24.0461850482
 10
-19.4589576105
 20
24.0696820595
 10
-19.4737440433
 20
24.0937334198
  0
LWPOLYLINE
  5
669
100
AcDbEntity
  8
RACCORDO
100
AcDbPolyline
 62
7
  6
CONTINUOUS
 90
12
 70
0
 10
-0.0396791205
 20
14.2739706518
 10
-0.0477766977
 20
14.2781990673
 10
-0.0710300829
 20
14.2920086693
 10
-0.0935580384
 20
14.3077031876
 10
-0.1153305377
 20
14.3250155055
 10
-0.1361750796
 20
14.3437355941
 10
-0.1560791977
 20
14.3637010399
 10
-0.1750816869
 20
14.3847382239
 10
-0.1930267587
 20
14.4067213069
 10
-0.2098578532
 20
14.4295328241
 10
-0.2256531623
 20
14.4530298354
 10
-0.2404395951
 20
14.4770811956
  0
LWPOLYLINE
  5
66A
100
AcDbEntity
  8
RACCORDO
100
AcDbPolyline
 62
7
  6
CONTINUOUS
 90
12
 70
0
 10
12.5468215846
 20
7.9807202993
 10
12.5387240074
 20
7.9849487147
 10
12.5154706222
 20
7.9987583168
 10
12.4929426667
 20
8.014452835
 10
12.4711701675
 20
8.0317651529
 10
12.4503256256
 20
8.0504852416
 10
12.4304215075
 20
8.0704506874
 10
12.4114190182
 20
8.0914878713
 10
12.3934739464
 20
8.1134709544
 10
12.3766428519
 20
8.1362824715
 10
12.3608475428
 20
8.1597794828
 10
12.3460611101
 20
8.1838308431
  0
LWPOLYLINE
  5
66B
100
AcDbEntity
  8
RACCORDO
100
AcDbPolyline
 62
253
  6
CONTINUOUS
 90
13
 70
0
 10
-28.8044737611
 20
31.616697467
 10
-28.7857200474
 20
31.6061336222
 10
-28.7673293053
 20
31.5927673622
 10
-28.7496160836
 20
31.5768272988
 10
-28.7328833431
 20
31.5585860656
 10
-28.7174172746
 20
31.5383556544
 10
-28.7034824046
 20
31.5164820791
 10
-28.6913170701
 20
31.4933394582
 10
-28.6811293427
 20
31.4693236148
 10
-28.6730934694
 20
31.4448453074
 10
-28.6673468931
 20
31.4203232046
 10
-28.6639879009
 20
31.3961767237
 10
-28.663073944
 20
31.3728188577
  0
LWPOLYLINE
  5
66C
100
AcDbEntity
  8
RACCORDO
100
AcDbPolyline
 62
253
  6
CONTINUOUS
 90
13
 70
0
 10
3.0153313923
 20
15.7067948903
 10
3.034085106
 20
15.6962310455
 10
3.0524758481
 20
15.6828647855
 10
3.0701890698
 20
15.6669247221
 10
3.0869218103
 20
15.6486834889
 10
3.1023878788
 20
15.6284530777
 10
3.1163227488
 20
15.6065795024
 10
3.1284880833
 20
15.5834368815
 10
3.1386758107
 20
15.5594210381
 10
3.146711684
 20
15.5349427307
 10
3.1524582603
 20
15.5104206279
 10
3.1558172525
 20
15.486274147
 10
3.1567312094
 20
15.462916281
  0
LWPOLYLINE
  5
66D
100
AcDbEntity
  8
RACCORDO
100
AcDbPolyline
 62
7
  6
CONTINUOUS
 90
16
 70
0
 10
-16.7420775225
 20
25.0634874353
 10
-16.7274060005
 20
25.0552127718
 10
-16.7128290614
 20
25.0451149388
 10
-16.6985109719
 20
25.0332810684
 10
-16.6845663969
 20
25.0197663645
 10
-16.6712132504
 20
25.0047434796
 10
-16.6587427172
 20
24.9885529788
 10
-16.6473670181
 20
24.9715499248
 10
-16.6370790536
 20
24.9538058109
 10
-16.6278401412
 20
24.9352539192
 10
-16.6197115034
 20
24.9159161057
 10
-16.6128966432
 20
24.8961543245
 10
-16.607555131
 20
24.8764054482
 10
-16.6037387205
 20
24.8569619327
 10
-16.6014450505
 20
24.8379622694
 10
-16.6006777054
 20
24.819608826
  0
LWPOLYLINE
  5
66E
100
AcDbEntity
  8
RACCORDO
100
AcDbPolyline
 62
7
  6
CONTINUOUS
 90
16
 70
0
 10
10.6936709723
 20
10.912600486
 10
10.7120103749
 20
10.9022571566
 10
10.7302315486
 20
10.8896348653
 10
10.7481291605
 20
10.8748425273
 10
10.7655598793
 20
10.8579491475
 10
10.7822513125
 20
10.8391705414
 10
10.7978394789
 20
10.8189324153
 10
10.8120591029
 20
10.7976785979
 10
10.8249190584
 20
10.7754984554
 10
10.836467699
 20
10.7523085909
 10
10.8466284962
 20
10.728136324
 10
10.8551470714
 20
10.7034340974
 10
10.8618239617
 20
10.6787480021
 10
10.8665944748
 20
10.6544436077
 10
10.8694615623
 20
10.6306940286
 10
10.8704207437
 20
10.6077522244
  0
LWPOLYLINE
  5
66F
100
AcDbEntity
  8
RACCORDO
100
AcDbPolyline
 62
7
  6
CONTINUOUS
 90
16
 70
0
 10
15.0777276309
 20
9.1535848586
 10
15.0923991529
 20
9.1453101951
 10
15.106976092
 20
9.1352123621
 10
15.1212941815
 20
9.1233784917
 10
15.1352387565
 20
9.1098637878
 10
15.148591903
 20
9.0948409029
 10
15.1610624362
 20
9.0786504021
 10
15.1724381353
 20
9.0616473481
 10
15.1827260998
 20
9.0439032342
 10
15.1919650122
 20
9.0253513425
 10
15.20009365
 20
9.006013529
 10
15.2069085102
 20
8.9862517478
 10
15.2122500224
 20
8.9665028715
 10
15.2160664329
 20
8.947059356
 10
15.2183601029
 20
8.9280596927
 10
15.219127448
 20
8.9097062493
  0
LWPOLYLINE
  5
670
100
AcDbEntity
  8
DRAFT
100
AcDbPolyline
 62
7
  6
CONTINUOUS
 90
19
 70
0
 10
15.2191274479
 20
7.2642315971
 10
15.2495950499
 20
7.2470161828
 10
15.2798931715
 20
7.2266678027
 10
15.3097857383
 20
7.2033381657
 10
15.3390421924
 20
7.1772029455
 10
15.3674344583
 20
7.1484579716
 10
15.3947386578
 20
7.1173177161
 10
15.4207474554
 20
7.0840184693
 10
15.4452588
 20
7.0488120373
 10
15.4680728637
 20
7.0119615689
 10
15.4890199759
 20
6.9737510675
 10
15.5079383681
 20
6.9344685144
 10
15.5246622308
 20
6.8943990927
 10
15.5390769134
 20
6.8538514244
 10
15.5510643955
 20
6.8131328822
 10
15.5604813735
 20
6.7725326153
 10
15.567241982
 20
6.7323539054
 10
15.5713173842
 20
6.6929117849
 10
15.5726808386
 20
6.6545081549
  0
LWPOLYLINE
  5
671
100
AcDbEntity
  8
RACCORDO
100
AcDbPolyline
 62
253
  6
CONTINUOUS
 90
7
 70
0
 10
-27.4510424757
 20
29.4103427206
 10
-27.4681145383
 20
29.4200619317
 10
-27.4825345797
 20
29.4308016941
 10
-27.4940613138
 20
29.4423823026
 10
-27.5025018675
 20
29.4546099825
 10
-27.5077150076
 20
29.4672801319
 10
-27.5096211195
 20
29.4810533987
  0
LWPOLYLINE
  5
672
100
AcDbEntity
  8
RACCORDO
100
AcDbPolyline
 62
253
  6
CONTINUOUS
 90
7
 70
0
 10
-23.7387318745
 20
27.55418742
 10
-23.7558039371
 20
27.5639066311
 10
-23.7702239784
 20
27.5746463935
 10
-23.7817507126
 20
27.586227002
 10
-23.7901912663
 20
27.5984546819
 10
-23.7954044063
 20
27.6111248313
 10
-23.7973105183
 20
27.6248980981
  0
LWPOLYLINE
  5
673
100
AcDbEntity
  8
RACCORDO
100
AcDbPolyline
 62
253
  6
CONTINUOUS
 90
7
 70
0
 10
-1.3694723995
 20
15.0415975978
 10
-1.3865444625
 20
15.0513168092
 10
-1.4009645041
 20
15.0620565718
 10
-1.4124912383
 20
15.0736371806
 10
-1.4209317918
 20
15.0858648608
 10
-1.4261449316
 20
15.0985350104
 10
-1.4280510336
 20
15.1122772675
  0
LWPOLYLINE
  5
674
100
AcDbEntity
  8
RACCORDO
100
AcDbPolyline
 62
253
  6
CONTINUOUS
 90
7
 70
0
 10
-1.3694723995
 20
15.3588663982
 10
-1.386544462
 20
15.3685856093
 10
-1.4009645034
 20
15.3793253716
 10
-1.4124912376
 20
15.3909059802
 10
-1.4209317913
 20
15.4031336601
 10
-1.4261449313
 20
15.4158038095
 10
-1.4280510341
 20
15.4295468766
  0
LWPOLYLINE
  5
675
100
AcDbEntity
  8
RACCORDO
100
AcDbPolyline
 62
253
  6
CONTINUOUS
 90
7
 70
0
 10
11.2170283056
 20
8.7483472453
 10
11.1999562427
 20
8.7580664566
 10
11.185536201
 20
8.7688062193
 10
11.1740094668
 20
8.7803868281
 10
11.1655689133
 20
8.7926145082
 10
11.1603557735
 20
8.8052846578
 10
11.1584496715
 20
8.819026915
  0
LWPOLYLINE
  5
676
100
AcDbEntity
  8
RACCORDO
100
AcDbPolyline
 62
253
  6
CONTINUOUS
 90
7
 70
0
 10
11.2170283056
 20
9.0656160456
 10
11.1999562431
 20
9.0753352567
 10
11.1855362017
 20
9.0860750191
 10
11.1740094676
 20
9.0976556276
 10
11.1655689139
 20
9.1098833076
 10
11.1603557738
 20
9.122553457
 10
11.158449671
 20
9.1362965241
  0
LWPOLYLINE
  5
677
100
AcDbEntity
  8
RACCORDO
100
AcDbPolyline
 62
253
  6
CONTINUOUS
 90
7
 70
0
 10
4.3687626776
 20
13.5004401439
 10
4.3516906151
 20
13.510159355
 10
4.3372705737
 20
13.5208991174
 10
4.3257438395
 20
13.5324797259
 10
4.3173032859
 20
13.5447074058
 10
4.3120901458
 20
13.5573775552
 10
4.3101840339
 20
13.571150822
  0
LWPOLYLINE
  5
678
100
AcDbEntity
  8
RACCORDO
100
AcDbPolyline
 62
253
  6
CONTINUOUS
 90
7
 70
0
 10
8.0810732789
 20
11.6442848433
 10
8.0640012163
 20
11.6540040544
 10
8.0495811749
 20
11.6647438168
 10
8.0380544408
 20
11.6763244253
 10
8.0296138871
 20
11.6885521052
 10
8.024400747
 20
11.7012222546
 10
8.0224946351
 20
11.7149955214
  0
LWPOLYLINE
  5
679
100
AcDbEntity
  8
RACCORDO
100
AcDbPolyline
 62
253
  6
CONTINUOUS
 90
13
 70
0
 10
0.8693267991
 20
14.6296316914
 10
0.8874787314
 20
14.6187669576
 10
0.9053624136
 20
14.6051471693
 10
0.9226719694
 20
14.5890052747
 10
0.9391113423
 20
14.5706173591
 10
0.9543993589
 20
14.550297923
 10
0.9682745383
 20
14.528394503
 10
0.9804995643
 20
14.5052817275
 10
0.9908653443
 20
14.4813549095
 10
0.9991945856
 20
14.4570232848
 10
1.0053448277
 20
14.4327030132
 10
1.0092108791
 20
14.40881006
 10
1.0107266162
 20
14.3857530821
  0
LWPOLYLINE
  5
67A
100
AcDbEntity
  8
RACCORDO
100
AcDbPolyline
 62
253
  6
CONTINUOUS
 90
13
 70
0
 10
13.4558275043
 20
8.3363813389
 10
13.4739794365
 20
8.325516605
 10
13.4918631187
 20
8.3118968167
 10
13.5091726745
 20
8.2957549221
 10
13.5256120474
 20
8.2773670065
 10
13.540900064
 20
8.2570475704
 10
13.5547752434
 20
8.2351441504
 10
13.5670002694
 20
8.212031375
 10
13.5773660494
 20
8.1881045569
 10
13.5856952907
 20
8.1637729323
 10
13.5918455329
 20
8.1394526607
 10
13.5957115843
 20
8.1155597075
 10
13.5972273213
 20
8.0925027295
  0
LWPOLYLINE
  5
67B
100
AcDbEntity
  8
RACCORDO
100
AcDbPolyline
 62
7
  6
CONTINUOUS
 90
4
 70
0
 10
11.2266134728
 20
8.6525682729
 10
11.2453607732
 20
8.6361951601
 10
11.265820001
 20
8.6220723251
 10
11.2819835158
 20
8.6131392282
  0
LWPOLYLINE
  5
67C
100
AcDbEntity
  8
RACCORDO
100
AcDbPolyline
 62
253
  6
CONTINUOUS
 90
16
 70
0
 10
15.7773638585
 20
9.1440435846
 10
15.7771613402
 20
9.1484931403
 10
15.7766067659
 20
9.1526194181
 10
15.7757001357
 20
9.1564224182
 10
15.7744241959
 20
9.1599357017
 10
15.7727962003
 20
9.1631257074
 10
15.7708679094
 20
9.1658917512
 10
15.7686298549
 20
9.168220283
 10
15.7660915051
 20
9.1701248528
 10
15.7633330264
 20
9.1715454261
 10
15.7603473579
 20
9.1724663966
 10
15.7571415605
 20
9.1729033705
 10
15.7538169826
 20
9.1728431322
 10
15.750407407
 20
9.1722812765
 10
15.746879051
 20
9.1712222086
 10
15.7432319145
 20
9.1696659285
  0
LWPOLYLINE
  5
67D
100
AcDbEntity
  8
RACCORDO
100
AcDbPolyline
 62
7
  6
CONTINUOUS
 90
12
 70
0
 10
15.833494876
 20
9.2134802717
 10
15.8324659179
 20
9.2362463357
 10
15.8289551425
 20
9.260828427
 10
15.8229737661
 20
9.2847568986
 10
15.8146206064
 20
9.307644904
 10
15.8039580201
 20
9.3293903898
 10
15.7910641927
 20
9.3498291857
 10
15.7761217706
 20
9.368661526
 10
15.759322998
 20
9.3856623155
 10
15.7407992355
 20
9.4007150554
 10
15.7208209945
 20
9.4136189329
 10
15.7101334736
 20
9.4193378747
  0
LWPOLYLINE
  5
67E
100
AcDbEntity
  8
RACCORDO
100
AcDbPolyline
 62
253
  6
CONTINUOUS
 90
13
 70
0
 10
15.7432319145
 20
9.1696659285
 10
15.7423179574
 20
9.1930237964
 10
15.7389589648
 20
9.2171702789
 10
15.7332123877
 20
9.2416923831
 10
15.7251765137
 20
9.2661706914
 10
15.7149887854
 20
9.2901865353
 10
15.7028234502
 20
9.3133291562
 10
15.6888885799
 20
9.3352027307
 10
15.6734225116
 20
9.3554331409
 10
15.6566897715
 20
9.3736743729
 10
15.6389765506
 20
9.389614435
 10
15.6205858096
 20
9.4029806939
 10
15.6018320975
 20
9.4135445378
  0
LINE
  5
67F
100
AcDbEntity
  8
RACCORDO
100
AcDbLine
 62
253
  6
CONTINUOUS
 10
15.7773638585
 20
-32.8354477445
 11
15.7773638585
 21
-32.4955041496
  0
LINE
  5
680
100
AcDbEntity
  8
RACCORDO
100
AcDbLine
 62
253
  6
CONTINUOUS
 10
15.7773638585
 20
8.8040999897
 11
15.7773638585
 21
9.1440435846
  0
LINE
  5
681
100
AcDbEntity
  8
RACCORDO
100
AcDbLine
 62
7
  6
CONTINUOUS
 10
15.8334958984
 20
-32.7659819075
 11
15.8334958984
 21
-32.4260383067
  0
LINE
  5
682
100
AcDbEntity
  8
RACCORDO
100
AcDbLine
 62
7
  6
CONTINUOUS
 10
15.8334958984
 20
8.8735658268
 11
15.8334958984
 21
9.2135094042
  0
LINE
  5
683
100
AcDbEntity
  8
DRAFT
100
AcDbLine
 62
7
  6
CONTINUOUS
 10
16.267445025
 20
6.9991163132
 11
16.267445025
 21
4.1280983199
  0
LINE
  5
684
100
AcDbEntity
  8
DRAFT
100
AcDbLine
 62
7
  6
CONTINUOUS
 10
16.267445025
 20
-28.0316772198
 11
16.267445025
 21
-30.9026952131
  0
LINE
  5
685
100
AcDbEntity
  8
0
100
AcDbLine
 62
7
  6
CONTINUOUS
 10
16.6148271182
 20
-27.84868414
 11
16.6148271182
 21
-27.576890725
  0
LINE
  5
686
100
AcDbEntity
  8
0
100
AcDbLine
 62
7
  6
CONTINUOUS
 10
16.6148271182
 20
4.0330365131
 11
16.6148271182
 21
4.3048299281
  0
LINE
  5
687
100
AcDbEntity
  8
DRAFT
100
AcDbLine
 62
7
  6
CONTINUOUS
 10
16.6611153744
 20
3.4763987359
 11
16.6611153744
 21
-27.0665412041
  0
LINE
  5
688
100
AcDbEntity
  8
0
100
AcDbLine
 62
7
  6
CONTINUOUS
 10
17.8654026537
 20
4.1473765847
 11
17.8654026537
 21
-26.3962219199
  0
LINE
  5
689
100
AcDbEntity
  8
0
100
AcDbLine
 62
7
  6
CONTINUOUS
 10
17.9887483036
 20
-26.4155768548
 11
17.9887483036
 21
4.184807226
  0
LINE
  5
68A
100
AcDbEntity
  8
RACCORDO
100
AcDbLine
 62
253
  6
CONTINUOUS
 10
18.542552024
 20
16.7239503428
 11
18.5425293196
 21
15.6544274448
  0
LINE
  5
68B
100
AcDbEntity
  8
RACCORDO
100
AcDbLine
 62
253
  6
CONTINUOUS
 10
17.8355217854
 20
16.7361024205
 11
17.8354507188
 21
15.9642666226
  0
LWPOLYLINE
  5
68C
100
AcDbEntity
  8
RACCORDO
100
AcDbPolyline
 62
253
  6
CONTINUOUS
 90
8
 70
0
 10
15.7432319145
 20
-32.896414751
 10
15.7423179716
 20
-32.9182566931
 10
15.7389590312
 20
-32.9385369964
 10
15.7332125312
 20
-32.956908791
 10
15.7251767474
 20
-32.9730578439
 10
15.7149891086
 20
-32.986707942
 10
15.7028238438
 20
-32.9976256127
 10
15.6943287231
 20
-33.0029650857
  0
LINE
  5
68D
100
AcDbEntity
  8
RACCORDO
100
AcDbLine
 62
7
  6
CONTINUOUS
 10
15.832386469
 20
-32.78980977
 11
15.8334953682
 21
-32.7659655701
  0
LWPOLYLINE
  5
68E
100
AcDbEntity
  8
RACCORDO
100
AcDbPolyline
 62
253
  6
CONTINUOUS
 90
8
 70
0
 10
13.5972273213
 20
-33.928228361
 10
13.5957115843
 20
-33.9503713818
 10
13.5918455329
 20
-33.9709053423
 10
13.5856952907
 20
-33.9894790369
 10
13.5773660494
 20
-34.0057747875
 10
13.5670002694
 20
-34.0195138772
 10
13.5547752434
 20
-34.0304613176
 10
13.5421513893
 20
-34.0378658945
  0
LINE
  5
68F
100
AcDbEntity
  8
DRAFT
100
AcDbLine
 62
7
  6
CONTINUOUS
 10
5.5488612395
 20
17.8280931424
 11
6.6187776524
 21
17.6037951077
  0
LINE
  5
690
100
AcDbEntity
  8
RACCORDO
100
AcDbLine
 62
7
  6
CONTINUOUS
 10
-17.780039489
 20
23.3364135258
 11
-18.4203707104
 21
23.4722479764
  0
LINE
  5
691
100
AcDbEntity
  8
RACCORDO
100
AcDbLine
 62
253
  6
CONTINUOUS
 10
-17.5031284561
 20
23.439660234
 11
-18.2399362603
 21
23.595960411
  0
LWPOLYLINE
  5
692
100
AcDbEntity
  8
RACCORDO
100
AcDbPolyline
 62
253
  6
CONTINUOUS
 90
22
 70
0
 10
-18.2399362603
 20
23.595960411
 10
-18.2411789147
 20
23.5962515459
 10
-18.242416787
 20
23.5966420167
 10
-18.2436498772
 20
23.5971318234
 10
-18.2448859821
 20
23.5977164118
 10
-18.246117305
 20
23.5984003362
 10
-18.2473204549
 20
23.5991972587
 10
-18.2484955394
 20
23.6001095788
 10
-18.249642451
 20
23.6011348971
 10
-18.2507374762
 20
23.6022796773
 10
-18.2517800883
 20
23.6035467685
 10
-18.2527708141
 20
23.6049333215
 10
-18.2536875197
 20
23.6064372533
 10
-18.2545290041
 20
23.6080615517
 10
-18.2552964684
 20
23.6098032289
 10
-18.2559713822
 20
23.6116512381
 10
-18.2565519299
 20
23.6136083529
 10
-18.2570399271
 20
23.6156717996
 10
-18.2574222906
 20
23.6178222103
 10
-18.2576946591
 20
23.6200531291
 10
-18.2578613938
 20
23.6223710119
 10
-18.2579224947
 20
23.6247758587
  0
LWPOLYLINE
  5
693
100
AcDbEntity
  8
RACCORDO
100
AcDbPolyline
 62
7
  6
CONTINUOUS
 90
8
 70
0
 10
1.0077837511
 20
16.7699199033
 10
0.9865897366
 20
16.7774855743
 10
0.9645748749
 20
16.7828710923
 10
0.9419652537
 20
16.7859855048
 10
0.9189058484
 20
16.7867664186
 10
0.8956212517
 20
16.7851474451
 10
0.8724619035
 20
16.781105845
 10
0.8496985448
 20
16.7746720822
  0
LWPOLYLINE
  5
694
100
AcDbEntity
  8
RACCORDO
100
AcDbPolyline
 62
7
  6
CONTINUOUS
 90
6
 70
0
 10
14.6869717756
 20
12.9568218938
 10
14.6538535544
 20
12.968993781
 10
14.6188926052
 20
12.9786455718
 10
14.5832815741
 20
12.9855329522
 10
14.5468503075
 20
12.9897911422
 10
14.509552589
 20
12.9914006836
  0
LWPOLYLINE
  5
695
100
AcDbEntity
  8
RACCORDO
100
AcDbPolyline
 62
7
  6
CONTINUOUS
 90
10
 70
0
 10
-18.2232741289
 20
26.3856265676
 10
-18.2443165621
 20
26.3934028304
 10
-18.2661919959
 20
26.3990260188
 10
-18.2886733854
 20
26.4024008913
 10
-18.3116052289
 20
26.4034587765
 10
-18.3347450482
 20
26.4021414592
 10
-18.3577718547
 20
26.3984358262
 10
-18.380465532
 20
26.3923629353
 10
-18.4026230009
 20
26.38396187
 10
-18.4067966596
 20
26.382087923
  0
LWPOLYLINE
  5
696
100
AcDbEntity
  8
RACCORDO
100
AcDbPolyline
 62
253
  6
CONTINUOUS
 90
3
 70
0
 10
17.8939017851
 20
13.4406025887
 10
17.9304591384
 20
13.4261150279
 10
17.9414213934
 20
13.4208589355
  0
LWPOLYLINE
  5
697
100
AcDbEntity
  8
RACCORDO
100
AcDbPolyline
 62
253
  6
CONTINUOUS
 90
7
 70
0
 10
-20.4296916905
 20
25.2791409363
 10
-20.4484454057
 20
25.2867290256
 10
-20.466836149
 20
25.2912464488
 10
-20.4845493715
 20
25.2926159416
 10
-20.5012821125
 20
25.2908140809
 10
-20.5167481811
 20
25.2858716854
 10
-20.522090972
 20
25.2832649061
  0
LWPOLYLINE
  5
698
100
AcDbEntity
  8
RACCORDO
100
AcDbPolyline
 62
253
  6
CONTINUOUS
 90
7
 70
0
 10
-33.0161923956
 20
31.5723912888
 10
-33.0349461108
 20
31.5799793781
 10
-33.0533368541
 20
31.5844968013
 10
-33.0710500766
 20
31.5858662941
 10
-33.0877828177
 20
31.5840644335
 10
-33.1032488862
 20
31.579122038
 10
-33.1085916771
 20
31.5765152586
  0
LWPOLYLINE
  5
699
100
AcDbEntity
  8
RACCORDO
100
AcDbPolyline
 62
253
  6
CONTINUOUS
 90
7
 70
0
 10
14.5157228813
 20
14.5074335037
 10
14.4880024255
 20
14.5190397076
 10
14.4606929266
 20
14.5259709514
 10
14.4342616577
 20
14.5281086386
 10
14.4091608647
 20
14.5254161919
 10
14.3858200303
 20
14.5179396785
 10
14.3825044925
 20
14.5164165636
  0
LWPOLYLINE
  5
69A
100
AcDbEntity
  8
RACCORDO
100
AcDbPolyline
 62
253
  6
CONTINUOUS
 90
8
 70
0
 10
-23.564470161
 20
27.8224825392
 10
-23.5831678787
 20
27.8303943817
 10
-23.6016392121
 20
27.8358671493
 10
-23.6196813359
 20
27.8388394809
 10
-23.6370970771
 20
27.8392773547
 10
-23.6536936013
 20
27.8371738056
 10
-23.6692852919
 20
27.8325511465
 10
-23.67978907
 20
27.8276923544
  0
LWPOLYLINE
  5
69B
100
AcDbEntity
  8
RACCORDO
100
AcDbPolyline
 62
253
  6
CONTINUOUS
 90
8
 70
0
 10
-27.2767807623
 20
29.6786378399
 10
-27.2954784799
 20
29.6865496823
 10
-27.3139498133
 20
29.6920224499
 10
-27.3319919371
 20
29.6949947815
 10
-27.3494076783
 20
29.6954326553
 10
-27.3660042025
 20
29.6933291062
 10
-27.3815958932
 20
29.6887064472
 10
-27.3920996712
 20
29.6838476551
  0
LWPOLYLINE
  5
69C
100
AcDbEntity
  8
RACCORDO
100
AcDbPolyline
 62
253
  6
CONTINUOUS
 90
16
 70
0
 10
-23.7033819203
 20
27.5798071181
 10
-23.7071429489
 20
27.5814292129
 10
-23.710785042
 20
27.5825437702
 10
-23.7143081994
 20
27.58315079
 10
-23.7177482011
 20
27.5832457244
 10
-23.7210692671
 20
27.5828331213
 10
-23.7241640579
 20
27.5819266242
 10
-23.7270251099
 20
27.5805102252
 10
-23.7296598867
 20
27.5785999323
 10
-23.73198344
 20
27.5762574125
 10
-23.7339855014
 20
27.5734684603
 10
-23.7356763392
 20
27.5702472813
 10
-23.7370018097
 20
27.5666981594
 10
-23.7379438652
 20
27.5628558558
 10
-23.7385205535
 20
27.5586856094
 10
-23.7387318745
 20
27.55418742
  0
LWPOLYLINE
  5
69D
100
AcDbEntity
  8
RACCORDO
100
AcDbPolyline
 62
253
  6
CONTINUOUS
 90
16
 70
0
 10
-27.4156925215
 20
29.4359624187
 10
-27.4194535502
 20
29.4375845135
 10
-27.4230956432
 20
29.4386990708
 10
-27.4266188007
 20
29.4393060906
 10
-27.4300588023
 20
29.439401025
 10
-27.4333798683
 20
29.4389884219
 10
-27.4364746591
 20
29.4380819248
 10
-27.4393357111
 20
29.4366655259
 10
-27.441970488
 20
29.4347552329
 10
-27.4442940412
 20
29.4324127131
 10
-27.4462961026
 20
29.4296237609
 10
-27.4479869404
 20
29.4264025819
 10
-27.449312411
 20
29.42285346
 10
-27.4502544664
 20
29.4190111564
 10
-27.4508311547
 20
29.41484091
 10
-27.4510424757
 20
29.4103427206
  0
LWPOLYLINE
  5
69E
100
AcDbEntity
  8
RACCORDO
100
AcDbPolyline
 62
253
  6
CONTINUOUS
 90
6
 70
0
 10
-18.3207148817
 20
26.3748180273
 10
-18.3388668139
 20
26.3827070057
 10
-18.3567504961
 20
26.3874779584
 10
-18.3740600519
 20
26.3890492847
 10
-18.3904994248
 20
26.3873941092
 10
-18.4067967102
 20
26.3820880335
  0
LWPOLYLINE
  5
69F
100
AcDbEntity
  8
RACCORDO
100
AcDbPolyline
 62
253
  6
CONTINUOUS
 90
8
 70
0
 10
14.4215137541
 20
12.942018065
 10
14.4033177383
 20
12.9499448994
 10
14.3852818132
 20
12.9554780008
 10
14.3675970588
 20
12.9585587493
 10
14.350450835
 20
12.959154506
 10
14.334024796
 20
12.9572589593
 10
14.3184929662
 20
12.9528921915
 10
14.3104299535
 20
12.9494711603
  0
LWPOLYLINE
  5
6A0
100
AcDbEntity
  8
RACCORDO
100
AcDbPolyline
 62
253
  6
CONTINUOUS
 90
8
 70
0
 10
-17.3982913992
 20
28.8519206417
 10
-17.416487415
 20
28.8598474761
 10
-17.4345233402
 20
28.8653805775
 10
-17.4522080946
 20
28.868461326
 10
-17.4693543184
 20
28.8690570827
 10
-17.4857803574
 20
28.867161536
 10
-17.5013121872
 20
28.8627947682
 10
-17.5093751999
 20
28.8593737369
  0
LWPOLYLINE
  5
6A1
100
AcDbEntity
  8
RACCORDO
100
AcDbPolyline
 62
7
  6
CONTINUOUS
 90
8
 70
0
 10
-31.4499416495
 20
32.4174194988
 10
-31.4646131715
 20
32.4238243619
 10
-31.4791901105
 20
32.4283016612
 10
-31.4935082001
 20
32.4307796824
 10
-31.5074527751
 20
32.4312057575
 10
-31.5208059216
 20
32.4295373844
 10
-31.5332764547
 20
32.4258198475
 10
-31.5373088645
 20
32.424096399
  0
LWPOLYLINE
  5
6A2
100
AcDbEntity
  8
RACCORDO
100
AcDbPolyline
 62
253
  6
CONTINUOUS
 90
13
 70
0
 10
-25.1603940786
 20
28.2650185221
 10
-25.1409557623
 20
28.2564825602
 10
-25.1194763438
 20
28.2492725835
 10
-25.0963152239
 20
28.243509237
 10
-25.071859947
 20
28.2392889608
 10
-25.0465197078
 20
28.2366823744
 10
-25.0207185045
 20
28.2357330976
 10
-24.9948880533
 20
28.2364570201
 10
-24.969460574
 20
28.2388420355
 10
-24.9448615486
 20
28.2428482417
 10
-24.9215025923
 20
28.2484086074
 10
-24.8997745668
 20
28.2554300956
 10
-24.8800410483
 20
28.26379522
  0
LWPOLYLINE
  5
6A3
100
AcDbEntity
  8
RACCORDO
100
AcDbPolyline
 62
253
  6
CONTINUOUS
 90
13
 70
0
 10
-18.2116143062
 20
26.380217682
 10
-18.2189968011
 20
26.3835223421
 10
-18.2270789205
 20
26.3863221419
 10
-18.235487044
 20
26.3884242705
 10
-18.244198327
 20
26.3898149249
 10
-18.2531883962
 20
26.390482346
 10
-18.2624097867
 20
26.3904178415
 10
-18.2718343138
 20
26.3896192278
 10
-18.2814330876
 20
26.3880866183
 10
-18.2911537496
 20
26.3858283181
 10
-18.3009577961
 20
26.3828565396
 10
-18.3108218084
 20
26.3791817692
 10
-18.3207148817
 20
26.3748180273
  0
LWPOLYLINE
  5
6A4
100
AcDbEntity
  8
RACCORDO
100
AcDbPolyline
 62
253
  6
CONTINUOUS
 90
8
 70
0
 10
-16.1096459579
 20
25.3292335068
 10
-16.1160158772
 20
25.3321237553
 10
-16.1311978576
 20
25.3368924543
 10
-16.1473420347
 20
25.3391808292
 10
-16.1642766168
 20
25.3389649918
 10
-16.1818201123
 20
25.3362472924
 10
-16.199783304
 20
25.3310562311
 10
-16.2179730559
 20
25.3234471145
  0
LINE
  5
6A5
100
AcDbEntity
  8
RACCORDO
100
AcDbLine
 62
253
  6
CONTINUOUS
 10
1.0152600533
 20
16.7664857734
 11
1.0216866712
 21
16.7635671934
  0
LINE
  5
6A6
100
AcDbEntity
  8
RACCORDO
100
AcDbLine
 62
7
  6
CONTINUOUS
 10
-30.7978816405
 20
32.673344832
 11
-30.8120214023
 21
32.67982248
  0
LINE
  5
6A7
100
AcDbEntity
  8
RACCORDO
100
AcDbLine
 62
7
  6
CONTINUOUS
 10
-18.2113540035
 20
26.3800864002
 11
-18.2232741289
 21
26.3856265676
  0
LINE
  5
6A8
100
AcDbEntity
  8
DRAFT
100
AcDbLine
 62
7
  6
CONTINUOUS
 10
-11.0852448122
 20
23.6127334092
 11
-10.9991427523
 21
23.5696823793
  0
LINE
  5
6A9
100
AcDbEntity
  8
RACCORDO
100
AcDbLine
 62
7
  6
CONTINUOUS
 10
11.3297978436
 20
12.5515453311
 11
11.3726061426
 21
12.5301411816
  0
LINE
  5
6AA
100
AcDbEntity
  8
DRAFT
100
AcDbLine
 62
7
  6
CONTINUOUS
 10
5.578408997
 20
15.8734924581
 11
3.0456016994
 21
17.139896107
  0
LINE
  5
6AB
100
AcDbEntity
  8
DRAFT
100
AcDbLine
 62
7
  6
CONTINUOUS
 10
-11.7810624811
 20
24.5532281972
 11
-14.3138697788
 21
25.819631846
  0
LWPOLYLINE
  5
6AC
100
AcDbEntity
  8
DRAFT
100
AcDbPolyline
 62
7
  6
CONTINUOUS
 90
3
 70
0
 10
-18.9059539638
 20
28.1903154357
 10
-19.0395147709
 20
28.2570958393
 10
-19.2069222895
 20
28.347106576
  0
LINE
  5
6AD
100
AcDbEntity
  8
RACCORDO
100
AcDbLine
 62
7
  6
CONTINUOUS
 10
12.970764911
 20
12.3076784876
 11
12.1785682889
 21
12.7037767986
  0
LINE
  5
6AE
100
AcDbEntity
  8
RACCORDO
100
AcDbLine
 62
7
  6
CONTINUOUS
 10
-2.4231867426
 20
20.0046543144
 11
-4.8980604768
 21
21.2420911815
  0
LINE
  5
6AF
100
AcDbEntity
  8
RACCORDO
100
AcDbLine
 62
7
  6
CONTINUOUS
 10
-19.4998155083
 20
28.5429686972
 11
-21.9746892424
 21
29.7804055643
  0
LINE
  5
6B0
100
AcDbEntity
  8
DRAFT
100
AcDbLine
 62
7
  6
CONTINUOUS
 10
12.2675975975
 20
12.7431804125
 11
11.387566403
 21
13.1831960097
  0
LINE
  5
6B1
100
AcDbEntity
  8
DRAFT
100
AcDbLine
 62
7
  6
CONTINUOUS
 10
-18.7633279744
 20
28.2586431984
 11
-19.2069222895
 21
28.480440356
  0
LINE
  5
6B2
100
AcDbEntity
  8
RACCORDO
100
AcDbLine
 62
253
  6
CONTINUOUS
 10
-21.126161105
 20
29.9218269205
 11
-19.2169727958
 21
28.9672327659
  0
LINE
  5
6B3
100
AcDbEntity
  8
RACCORDO
100
AcDbLine
 62
253
  6
CONTINUOUS
 10
-4.0495323393
 20
21.3835125377
 11
-2.1403440301
 21
20.4289183831
  0
LINE
  5
6B4
100
AcDbEntity
  8
RACCORDO
100
AcDbLine
 62
253
  6
CONTINUOUS
 10
13.0270964263
 20
12.8451981549
 11
13.5485435261
 21
12.584474605
  0
LINE
  5
6B5
100
AcDbEntity
  8
RACCORDO
100
AcDbLine
 62
7
  6
CONTINUOUS
 10
-20.8770053861
 20
29.847650778
 11
-19.2872430765
 21
29.0527696233
  0
LINE
  5
6B6
100
AcDbEntity
  8
RACCORDO
100
AcDbLine
 62
7
  6
CONTINUOUS
 10
-3.8003766204
 20
21.3093363952
 11
-2.2106143109
 21
20.5144552405
  0
LINE
  5
6B7
100
AcDbEntity
  8
RACCORDO
100
AcDbLine
 62
7
  6
CONTINUOUS
 10
13.2762521453
 20
12.7710220124
 11
13.6000227281
 21
12.609136721
  0
LINE
  5
6B8
100
AcDbEntity
  8
RACCORDO
100
AcDbLine
 62
7
  6
CONTINUOUS
 10
14.9287715905
 20
12.2086808979
 11
14.8843096293
 21
12.2309118785
  0
LINE
  5
6B9
100
AcDbEntity
  8
RACCORDO
100
AcDbLine
 62
7
  6
CONTINUOUS
 10
13.8695833729
 20
12.7382750067
 11
11.3297978436
 21
14.0081677713
  0
LINE
  5
6BA
100
AcDbEntity
  8
RACCORDO
100
AcDbLine
 62
7
  6
CONTINUOUS
 10
-16.8910335629
 20
28.1185834746
 11
-16.9354955241
 21
28.1408144552
  0
LINE
  5
6BB
100
AcDbEntity
  8
RACCORDO
100
AcDbLine
 62
7
  6
CONTINUOUS
 10
-17.9502217805
 20
28.6481775834
 11
-20.4900073098
 21
29.918070348
  0
LINE
  5
6BC
100
AcDbEntity
  8
DRAFT
100
AcDbLine
 62
7
  6
CONTINUOUS
 10
6.274226666
 20
17.4011700709
 11
5.5488612395
 21
17.7638527842
  0
LINE
  5
6BD
100
AcDbEntity
  8
DRAFT
100
AcDbLine
 62
7
  6
CONTINUOUS
 10
-7.7789396344
 20
24.4277532211
 11
-8.5043050608
 21
24.7904359343
  0
LINE
  5
6BE
100
AcDbEntity
  8
DRAFT
100
AcDbLine
 62
7
  6
CONTINUOUS
 10
-11.0852448122
 20
26.08090581
 11
-11.5170907248
 21
26.2968287663
  0
LINE
  5
6BF
100
AcDbEntity
  8
DRAFT
100
AcDbLine
 62
7
  6
CONTINUOUS
 10
-11.4546391799
 20
26.3298433521
 11
-7.7789396344
 21
24.4919935793
  0
LINE
  5
6C0
100
AcDbEntity
  8
DRAFT
100
AcDbLine
 62
7
  6
CONTINUOUS
 10
5.5488612395
 20
17.8280931424
 11
8.493468162
 21
16.3557896811
  0
LINE
  5
6C1
100
AcDbEntity
  8
DRAFT
100
AcDbLine
 62
7
  6
CONTINUOUS
 10
15.913405226
 20
12.6941189911
 11
11.9392556101
 21
14.6811937991
  0
LINE
  5
6C2
100
AcDbEntity
  8
DRAFT
100
AcDbLine
 62
7
  6
CONTINUOUS
 10
-15.9063999274
 20
28.6040215678
 11
-19.8805495433
 21
30.5910963758
  0
LINE
  5
6C3
100
AcDbEntity
  8
DRAFT
100
AcDbLine
 62
7
  6
CONTINUOUS
 10
2.2970687607
 20
19.5407601234
 11
-2.405826812
 21
21.8922079098
  0
LINE
  5
6C4
100
AcDbEntity
  8
DRAFT
100
AcDbLine
 62
7
  6
CONTINUOUS
 10
6.6187776524
 20
17.6037951077
 11
8.8132098845
 21
16.5065789917
  0
LINE
  5
6C5
100
AcDbEntity
  8
DRAFT
100
AcDbLine
 62
7
  6
CONTINUOUS
 10
-6.7275357037
 20
24.2769517857
 11
-10.7406938257
 21
26.2835308468
  0
LINE
  5
6C6
100
AcDbEntity
  8
RACCORDO
100
AcDbLine
 62
7
  6
CONTINUOUS
 10
-18.2252503161
 20
30.7325078218
 11
-14.916471428
 21
29.0781183777
  0
LINE
  5
6C7
100
AcDbEntity
  8
RACCORDO
100
AcDbLine
 62
7
  6
CONTINUOUS
 10
13.5945548373
 20
14.8226052451
 11
16.9033337254
 21
13.168215801
  0
LWPOLYLINE
  5
6C8
100
AcDbEntity
  8
RACCORDO
100
AcDbPolyline
 62
253
  6
CONTINUOUS
 90
16
 70
0
 10
-17.215605477
 20
28.7621541287
 10
-17.1968283531
 20
28.7518787166
 10
-17.1782906457
 20
28.7393281555
 10
-17.1601953777
 20
28.7246398919
 10
-17.142740729
 20
28.7079747861
 10
-17.1261178607
 20
28.6895153462
 10
-17.1105088226
 20
28.6694637278
 10
-17.0960845657
 20
28.6480395271
 10
-17.0830030698
 20
28.6254773787
 10
-17.0714076085
 20
28.6020243807
 10
-17.061425179
 20
28.5779373851
 10
-17.0531651159
 20
28.5534801941
 10
-17.0467178916
 20
28.5289206733
 10
-17.0421541206
 20
28.5045278033
 10
-17.039523788
 20
28.4805687338
 10
-17.0388557052
 20
28.4573058673
  0
LWPOLYLINE
  5
6C9
100
AcDbEntity
  8
RACCORDO
100
AcDbPolyline
 62
253
  6
CONTINUOUS
 90
16
 70
0
 10
14.6041996764
 20
12.852251552
 10
14.6229768003
 20
12.8419761399
 10
14.6415145077
 20
12.8294255788
 10
14.6596097756
 20
12.8147373152
 10
14.6770644244
 20
12.7980722094
 10
14.6936872927
 20
12.7796127695
 10
14.7092963308
 20
12.7595611511
 10
14.7237205877
 20
12.7381369504
 10
14.7368020836
 20
12.715574802
 10
14.7483975449
 20
12.692121804
 10
14.7583799744
 20
12.6680348084
 10
14.7666400375
 20
12.6435776174
 10
14.7730872618
 20
12.6190180966
 10
14.7776510328
 20
12.5946252266
 10
14.7802813654
 20
12.5706661571
 10
14.7809494482
 20
12.5474032906
  0
LWPOLYLINE
  5
6CA
100
AcDbEntity
  8
RACCORDO
100
AcDbPolyline
 62
7
  6
CONTINUOUS
 90
5
 70
0
 10
-19.2861487293
 20
29.0522183467
 10
-19.2729713886
 20
29.044854062
 10
-19.2502656522
 20
29.0259939922
 10
-19.2318676758
 20
29.0004808658
 10
-19.2169727958
 20
28.9672327659
  0
LWPOLYLINE
  5
6CB
100
AcDbEntity
  8
RACCORDO
100
AcDbPolyline
 62
7
  6
CONTINUOUS
 90
5
 70
0
 10
-2.2095199637
 20
20.5139039639
 10
-2.1963426229
 20
20.5065396791
 10
-2.1736368866
 20
20.4876796094
 10
-2.1552389102
 20
20.4621664829
 10
-2.1403440301
 20
20.4289183831
  0
LINE
  5
6CC
100
AcDbEntity
  8
DRAFT
100
AcDbLine
 62
7
  6
CONTINUOUS
 10
12.0542216711
 20
12.7521198455
 11
12.1620612557
 21
12.689726178
  0
LWPOLYLINE
  5
6CD
100
AcDbEntity
  8
RACCORDO
100
AcDbPolyline
 62
253
  6
CONTINUOUS
 90
10
 70
0
 10
-17.0212395596
 20
30.2759147242
 10
-16.9935824459
 20
30.2598321426
 10
-16.966461899
 20
30.2395483622
 10
-16.9403419589
 20
30.215410444
 10
-16.9156695451
 20
30.1878313945
 10
-16.8928668095
 20
30.1572830988
 10
-16.8723239132
 20
30.1242882467
 10
-16.8543923507
 20
30.0894113894
 10
-16.8393789362
 20
30.0532492796
 10
-16.8341405566
 20
30.036952942
  0
LWPOLYLINE
  5
6CE
100
AcDbEntity
  8
DRAFT
100
AcDbPolyline
 62
7
  6
CONTINUOUS
 90
3
 70
0
 10
11.387566403
 20
13.1831960097
 10
11.713530877
 20
12.9643574698
 10
12.0542216711
 20
12.7521198455
  0
LINE
  5
6CF
100
AcDbEntity
  8
DRAFT
100
AcDbLine
 62
7
  6
CONTINUOUS
 10
16.6148271182
 20
4.3048299281
 11
16.267445025
 21
4.9039754118
  0
LWPOLYLINE
  5
6D0
100
AcDbEntity
  8
RACCORDO
100
AcDbPolyline
 62
253
  6
CONTINUOUS
 90
7
 70
0
 10
15.7599947538
 20
8.7576068725
 10
15.7677935703
 20
8.7433912141
 10
15.7730260278
 20
8.7305915357
 10
15.7756035903
 20
8.7194244196
 10
15.7754826452
 20
8.7100788228
 10
15.7726652413
 20
8.7027128808
 10
15.7716822
 20
8.7013646525
  0
LWPOLYLINE
  5
6D1
100
AcDbEntity
  8
RACCORDO
100
AcDbPolyline
 62
7
  6
CONTINUOUS
 90
5
 70
0
 10
15.2419522998
 20
12.3538421401
 10
15.2401798234
 20
12.3618379734
 10
15.2374627914
 20
12.366626437
 10
15.2340657123
 20
12.3682733342
 10
15.2318781877
 20
12.3677760519
  0
LINE
  5
6D2
100
AcDbEntity
  8
DRAFT
100
AcDbLine
 62
7
  6
CONTINUOUS
 10
20.9556947798
 20
10.2649842217
 11
20.9556947798
 21
10.9139599748
  0
LINE
  5
6D3
100
AcDbEntity
  8
RACCORDO
100
AcDbLine
 62
7
  6
CONTINUOUS
 10
21.3350826216
 20
11.3131011139
 11
21.3350826216
 21
11.1145207853
  0
LINE
  5
6D4
100
AcDbEntity
  8
RACCORDO
100
AcDbLine
 62
7
  6
CONTINUOUS
 10
21.3350826216
 20
-25.4118121297
 11
21.3350826216
 21
-25.4350752054
  0
LINE
  5
6D5
100
AcDbEntity
  8
RACCORDO
100
AcDbLine
 62
7
  6
CONTINUOUS
 10
21.8659311911
 20
13.2542174469
 11
21.8659311911
 21
13.8257482242
  0
LWPOLYLINE
  5
6D6
100
AcDbEntity
  8
RACCORDO
100
AcDbPolyline
 62
7
  6
CONTINUOUS
 90
16
 70
0
 10
-4.0495323393
 20
21.3835125377
 10
-4.111342841
 20
21.3869328231
 10
-4.1729889779
 20
21.3884500216
 10
-4.2344707502
 20
21.388064133
 10
-4.2960210996
 20
21.3857593363
 10
-4.3574070844
 20
21.3815514525
 10
-4.4179298792
 20
21.3754879454
 10
-4.4775800631
 20
21.3675475112
 10
-4.5363670572
 20
21.3577514537
 10
-4.593620299
 20
21.3462111478
 10
-4.6493210588
 20
21.3329071132
 10
-4.7034880663
 20
21.3178588303
 10
-4.7555069491
 20
21.3012361141
 10
-4.8051729164
 20
21.2830955698
 10
-4.8526907589
 20
21.2633805922
 10
-4.8980604768
 20
21.2420911815
  0
LWPOLYLINE
  5
6D7
100
AcDbEntity
  8
RACCORDO
100
AcDbPolyline
 62
7
  6
CONTINUOUS
 90
5
 70
0
 10
-4.0495323393
 20
21.3835125377
 10
-3.975337054
 20
21.3722155548
 10
-3.9030755064
 20
21.3523989193
 10
-3.8335523599
 20
21.3251445476
 10
-3.8001470387
 20
21.3092175014
  0
LWPOLYLINE
  5
6D8
100
AcDbEntity
  8
RACCORDO
100
AcDbPolyline
 62
253
  6
CONTINUOUS
 90
12
 70
0
 10
-18.4203707097
 20
23.4722479762
 10
-18.4112725914
 20
23.4706841537
 10
-18.3911313385
 20
23.4697258475
 10
-18.3707825775
 20
23.4721207453
 10
-18.3505706291
 20
23.4778283227
 10
-18.3308374994
 20
23.4867520016
 10
-18.3119170919
 20
23.4987407842
 10
-18.2941295581
 20
23.5135918086
 10
-18.2777758797
 20
23.5310537807
 10
-18.2631327767
 20
23.5508312272
 10
-18.2504480242
 20
23.5725894943
 10
-18.2399362603
 20
23.595960411
  0
LWPOLYLINE
  5
6D9
100
AcDbEntity
  8
RACCORDO
100
AcDbPolyline
 62
7
  6
CONTINUOUS
 90
4
 70
0
 10
-18.9070074949
 20
26.1375293299
 10
-18.8926956033
 20
26.1350482097
 10
-18.878120471
 20
26.1305700071
 10
-18.8634409444
 20
26.1241691463
  0
LINE
  5
6DA
100
AcDbEntity
  8
DRAFT
100
AcDbLine
 62
7
  6
CONTINUOUS
 10
-7.7789396344
 20
24.4919935793
 11
-6.7275357037
 21
24.2769517857
  0
LINE
  5
6DB
100
AcDbEntity
  8
RACCORDO
100
AcDbLine
 62
7
  6
CONTINUOUS
 10
-30.3665402086
 20
29.6296638815
 11
-31.0068714155
 21
29.7654983289
  0
LINE
  5
6DC
100
AcDbEntity
  8
RACCORDO
100
AcDbLine
 62
253
  6
CONTINUOUS
 10
-30.0896291612
 20
29.7329105866
 11
-30.8264369654
 21
29.8892107636
  0
LWPOLYLINE
  5
6DD
100
AcDbEntity
  8
RACCORDO
100
AcDbPolyline
 62
253
  6
CONTINUOUS
 90
22
 70
0
 10
-30.8264369654
 20
29.8892107636
 10
-30.8276796198
 20
29.8895018985
 10
-30.8289174921
 20
29.8898923693
 10
-30.8301505823
 20
29.8903821759
 10
-30.8313866873
 20
29.8909667644
 10
-30.8326180101
 20
29.8916506888
 10
-30.83382116
 20
29.8924476113
 10
-30.8349962445
 20
29.8933599314
 10
-30.8361431561
 20
29.8943852497
 10
-30.8372381813
 20
29.8955300299
 10
-30.8382807935
 20
29.896797121
 10
-30.8392715192
 20
29.898183674
 10
-30.8401882249
 20
29.8996876058
 10
-30.8410297092
 20
29.9013119043
 10
-30.8417971735
 20
29.9030535815
 10
-30.8424720873
 20
29.9049015906
 10
-30.843052635
 20
29.9068587054
 10
-30.8435406322
 20
29.9089221521
 10
-30.8439229957
 20
29.9110725629
 10
-30.8441953642
 20
29.9133034817
 10
-30.8443620989
 20
29.9156213644
 10
-30.8444231998
 20
29.9180262113
  0
LWPOLYLINE
  5
6DE
100
AcDbEntity
  8
RACCORDO
100
AcDbPolyline
 62
7
  6
CONTINUOUS
 90
8
 70
0
 10
-30.8120214023
 20
32.67982248
 10
-30.8332154168
 20
32.687388151
 10
-30.8552302785
 20
32.692773669
 10
-30.8778398997
 20
32.6958880815
 10
-30.900899305
 20
32.6966689953
 10
-30.9241839017
 20
32.6950500218
 10
-30.9473432499
 20
32.6910084217
 10
-30.9701066086
 20
32.6845746589
  0
LWPOLYLINE
  5
6DF
100
AcDbEntity
  8
RACCORDO
100
AcDbPolyline
 62
7
  6
CONTINUOUS
 90
6
 70
0
 10
-17.1328333778
 20
28.8667244705
 10
-17.165951599
 20
28.8788963577
 10
-17.2009125482
 20
28.8885481485
 10
-17.2365235793
 20
28.8954355289
 10
-17.2729548459
 20
28.8996937189
 10
-17.3102525644
 20
28.9013032603
  0
LWPOLYLINE
  5
6E0
100
AcDbEntity
  8
RACCORDO
100
AcDbPolyline
 62
253
  6
CONTINUOUS
 90
3
 70
0
 10
-13.9259033683
 20
29.3505051654
 10
-13.889346015
 20
29.3360176046
 10
-13.87838376
 20
29.3307615122
  0
LWPOLYLINE
  5
6E1
100
AcDbEntity
  8
RACCORDO
100
AcDbPolyline
 62
253
  6
CONTINUOUS
 90
7
 70
0
 10
-15.8898687097
 20
29.7102292992
 10
-15.9175900037
 20
29.7218357846
 10
-15.9449001325
 20
29.7287669934
 10
-15.9713318016
 20
29.7309044129
 10
-15.9964327534
 20
29.7282115611
 10
-16.0197735326
 20
29.7207346054
 10
-16.02308721
 20
29.7192123058
  0
LWPOLYLINE
  5
6E2
100
AcDbEntity
  8
RACCORDO
100
AcDbPolyline
 62
253
  6
CONTINUOUS
 90
7
 70
0
 10
23.7081110367
 20
14.0631809352
 10
23.6803905771
 20
14.0747871404
 10
23.6530810763
 20
14.0817183839
 10
23.6266498075
 20
14.0838560702
 10
23.601549017
 20
14.0811636227
 10
23.5782081862
 20
14.0736871102
 10
23.5750662258
 20
14.072246896
  0
LWPOLYLINE
  5
6E3
100
AcDbEntity
  8
RACCORDO
100
AcDbPolyline
 62
7
  6
CONTINUOUS
 90
8
 70
0
 10
17.9424376508
 20
13.4203430591
 10
17.8997107737
 20
13.4394827686
 10
17.8495676208
 20
13.4564599265
 10
17.7968194361
 20
13.4685969553
 10
17.7419043776
 20
13.4755756471
 10
17.6854671323
 20
13.4771743781
 10
17.6278628312
 20
13.4732853624
 10
17.5693729348
 20
13.4638428454
  0
LWPOLYLINE
  5
6E4
100
AcDbEntity
  8
RACCORDO
100
AcDbPolyline
 62
7
  6
CONTINUOUS
 90
8
 70
0
 10
-13.8773675025
 20
29.3302456358
 10
-13.9200943797
 20
29.3493853452
 10
-13.9702375326
 20
29.3663625032
 10
-14.0229857173
 20
29.378499532
 10
-14.0779007758
 20
29.3854782238
 10
-14.134338021
 20
29.3870769548
 10
-14.1919423222
 20
29.3831879391
 10
-14.2504322186
 20
29.3737454221
  0
LINE
  5
6E5
100
AcDbEntity
  8
RACCORDO
100
AcDbLine
 62
7
  6
CONTINUOUS
 10
17.6261311425
 20
16.0689240821
 11
17.6261618946
 21
16.0689095168
  0
LINE
  5
6E6
100
AcDbEntity
  8
RACCORDO
100
AcDbLine
 62
7
  6
CONTINUOUS
 10
-12.7794604485
 20
31.2717198776
 11
-12.7794296964
 21
31.2717053123
  0
LWPOLYLINE
  5
6E7
100
AcDbEntity
  8
RACCORDO
100
AcDbPolyline
 62
7
  6
CONTINUOUS
 90
9
 70
0
 10
21.7060996261
 20
14.0289554195
 10
21.6983000845
 20
14.0326943774
 10
21.664067669
 20
14.047374927
 10
21.6285559157
 20
14.0597248851
 10
21.5920159029
 20
14.0695853873
 10
21.5551910963
 20
14.0772489531
 10
21.5184495664
 20
14.0828077227
 10
21.4817900073
 20
14.0861667925
 10
21.4453693369
 20
14.0873673826
  0
LWPOLYLINE
  5
6E8
100
AcDbEntity
  8
RACCORDO
100
AcDbPolyline
 62
7
  6
CONTINUOUS
 90
9
 70
0
 10
-8.6994919649
 20
29.231751215
 10
-8.7072915065
 20
29.2354901729
 10
-8.741523922
 20
29.2501707225
 10
-8.7770356754
 20
29.2625206806
 10
-8.8135756881
 20
29.2723811828
 10
-8.8504004947
 20
29.2800447486
 10
-8.8871420247
 20
29.2856035182
 10
-8.9238015837
 20
29.288962588
 10
-8.9602222541
 20
29.2901631781
  0
LWPOLYLINE
  5
6E9
100
AcDbEntity
  8
RACCORDO
100
AcDbPolyline
 62
253
  6
CONTINUOUS
 90
12
 70
0
 10
13.24983885
 20
15.7666502072
 10
13.2386439033
 20
15.7720226454
 10
13.2013791829
 20
15.7868638898
 10
13.1624752908
 20
15.7978599199
 10
13.1220934085
 20
15.804965634
 10
13.080404995
 20
15.8081501575
 10
13.0375840156
 20
15.8074005299
 10
12.993808427
 20
15.8027206227
 10
12.9492629791
 20
15.7941293048
 10
12.9041343262
 20
15.7816624956
 10
12.8586102539
 20
15.7653730382
 10
12.8128810942
 20
15.7453293152
  0
LWPOLYLINE
  5
6EA
100
AcDbEntity
  8
RACCORDO
100
AcDbPolyline
 62
253
  6
CONTINUOUS
 90
12
 70
0
 10
-18.5699663034
 20
31.6765527839
 10
-18.5811612501
 20
31.6819252221
 10
-18.6184259705
 20
31.6967664665
 10
-18.6573298626
 20
31.7077624966
 10
-18.6977117449
 20
31.7148682107
 10
-18.7394001584
 20
31.7180527342
 10
-18.7822211378
 20
31.7173031066
 10
-18.8259967264
 20
31.7126231994
 10
-18.8705421742
 20
31.7040318815
 10
-18.9156708272
 20
31.6915650723
 10
-18.9611948994
 20
31.6752756148
 10
-19.0069240592
 20
31.6552318919
  0
LINE
  5
6EB
100
AcDbEntity
  8
RACCORDO
100
AcDbLine
 62
253
  6
CONTINUOUS
 10
-21.7318016707
 20
33.0176706977
 11
-19.0069240592
 21
31.6552318919
  0
LINE
  5
6EC
100
AcDbEntity
  8
RACCORDO
100
AcDbLine
 62
253
  6
CONTINUOUS
 10
-14.311171278
 20
29.3073555014
 11
-11.5862936665
 21
27.9449166956
  0
LINE
  5
6ED
100
AcDbEntity
  8
RACCORDO
100
AcDbLine
 62
253
  6
CONTINUOUS
 10
10.0880034827
 20
17.107768121
 11
12.8128810942
 21
15.7453293152
  0
LINE
  5
6EE
100
AcDbEntity
  8
RACCORDO
100
AcDbLine
 62
253
  6
CONTINUOUS
 10
17.5086338754
 20
13.3974529247
 11
20.2335114869
 21
12.0350141189
  0
LINE
  5
6EF
100
AcDbEntity
  8
RACCORDO
100
AcDbLine
 62
7
  6
CONTINUOUS
 10
-21.4479145781
 20
33.1155269213
 11
-18.5699330593
 21
31.6765361619
  0
LINE
  5
6F0
100
AcDbEntity
  8
RACCORDO
100
AcDbLine
 62
7
  6
CONTINUOUS
 10
-13.8784165167
 20
29.3307778906
 11
-11.0004349979
 21
27.8917871312
  0
LINE
  5
6F1
100
AcDbEntity
  8
RACCORDO
100
AcDbLine
 62
7
  6
CONTINUOUS
 10
10.3722485919
 20
17.2054453363
 11
13.249872094
 21
15.7666335852
  0
LINE
  5
6F2
100
AcDbEntity
  8
RACCORDO
100
AcDbLine
 62
7
  6
CONTINUOUS
 10
17.9413886367
 20
13.4208753139
 11
20.8190121388
 21
11.9820635628
  0
LINE
  5
6F3
100
AcDbEntity
  8
DRAFT
100
AcDbLine
 62
7
  6
CONTINUOUS
 10
33.6966078852
 20
5.7261068866
 11
37.3901622165
 21
3.8793297209
  0
LINE
  5
6F4
100
AcDbEntity
  8
DRAFT
100
AcDbLine
 62
7
  6
CONTINUOUS
 10
21.8659311911
 20
13.7770643707
 11
22.4001997079
 21
13.5099301123
  0
LINE
  5
6F5
100
AcDbEntity
  8
RACCORDO
100
AcDbLine
 62
253
  6
CONTINUOUS
 10
21.4453693369
 20
14.0873673826
 11
17.6269927185
 21
15.9965556918
  0
LINE
  5
6F6
100
AcDbEntity
  8
RACCORDO
100
AcDbLine
 62
253
  6
CONTINUOUS
 10
-8.9602222541
 20
29.2901631781
 11
-12.7785988725
 21
31.1993514873
  0
LINE
  5
6F7
100
AcDbEntity
  8
RACCORDO
100
AcDbLine
 62
7
  6
CONTINUOUS
 10
21.705627201
 20
14.0291783815
 11
17.6276306353
 21
16.0681766644
  0
LINE
  5
6F8
100
AcDbEntity
  8
RACCORDO
100
AcDbLine
 62
7
  6
CONTINUOUS
 10
-8.69996439
 20
29.2319741771
 11
-12.7779609558
 21
31.2709724599
  0
LINE
  5
6F9
100
AcDbEntity
  8
RACCORDO
100
AcDbLine
 62
7
  6
CONTINUOUS
 10
-11.8630622715
 20
30.8572232403
 11
-7.7850186046
 21
28.8182014069
  0
LINE
  5
6FA
100
AcDbEntity
  8
RACCORDO
100
AcDbLine
 62
253
  6
CONTINUOUS
 10
-11.8631562416
 20
31.9268044756
 11
-6.9133148032
 21
29.4518837563
  0
LINE
  5
6FB
100
AcDbEntity
  8
RACCORDO
100
AcDbLine
 62
253
  6
CONTINUOUS
 10
18.542552024
 20
16.7239503428
 11
23.4922767879
 21
14.2490879608
  0
LWPOLYLINE
  5
6FC
100
AcDbEntity
  8
RACCORDO
100
AcDbPolyline
 62
253
  6
CONTINUOUS
 90
7
 70
0
 10
-6.9133148032
 20
29.4518837563
 10
-6.8782729087
 20
29.4324959343
 10
-6.8475065725
 20
29.4115164524
 10
-6.8213473398
 20
29.3891795144
 10
-6.800078683
 20
29.3657452383
 10
-6.7839221594
 20
29.3414665831
 10
-6.7730436293
 20
29.3165850504
  0
LWPOLYLINE
  5
6FD
100
AcDbEntity
  8
RACCORDO
100
AcDbPolyline
 62
253
  6
CONTINUOUS
 90
16
 70
0
 10
-6.6974805543
 20
29.8195689319
 10
-6.6407733307
 20
29.7879199604
 10
-6.5917913921
 20
29.7544196962
 10
-6.5505347385
 20
29.7190681393
 10
-6.5167192456
 20
29.6814412429
 10
-6.4906290378
 20
29.6419630539
 10
-6.4731164878
 20
29.6019057121
 10
-6.4644671489
 20
29.5612473396
 10
-6.4643954679
 20
29.5200098145
 10
-6.472897158
 20
29.4795309109
 10
-6.4902100113
 20
29.4398597894
 10
-6.5160962357
 20
29.4009472895
 10
-6.5498381685
 20
29.3639837043
 10
-6.5911965888
 20
29.3293657984
 10
-6.6404107174
 20
29.2966968071
 10
-6.6974805543
 20
29.2659767307
  0
LWPOLYLINE
  5
6FE
100
AcDbEntity
  8
RACCORDO
100
AcDbPolyline
 62
253
  6
CONTINUOUS
 90
13
 70
0
 10
-12.7785988725
 20
32.3065358898
 10
-12.7509419197
 20
32.2904534152
 10
-12.7238214917
 20
32.2701697614
 10
-12.6977016251
 20
32.2460319695
 10
-12.6730292373
 20
32.2184530247
 10
-12.6502264867
 20
32.1879047987
 10
-12.6296835468
 20
32.1549099786
 10
-12.6117519194
 20
32.1200331071
 10
-12.5967384292
 20
32.0838709354
 10
-12.5848999754
 20
32.0470422238
 10
-12.5764391244
 20
32.0101771296
 10
-12.5715006485
 20
31.9739064238
 10
-12.5701690525
 20
31.9388507143
  0
LWPOLYLINE
  5
6FF
100
AcDbEntity
  8
RACCORDO
100
AcDbPolyline
 62
7
  6
CONTINUOUS
 90
9
 70
0
 10
21.8659311911
 20
13.8212132653
 10
21.8614380063
 20
13.8565173744
 10
21.8509756726
 20
13.89018195
 10
21.8351553479
 20
13.9214584296
 10
21.8143291322
 20
13.949325755
 10
21.7893741088
 20
13.9738189801
 10
21.7614804169
 20
13.9959588673
 10
21.7310305687
 20
14.0157159904
 10
21.7060996261
 20
14.0289554195
  0
LINE
  5
700
100
AcDbEntity
  8
RACCORDO
100
AcDbLine
 62
253
  6
CONTINUOUS
 10
23.4922767879
 20
14.0326222271
 11
23.4922767879
 21
14.2490879608
  0
LINE
  5
701
100
AcDbEntity
  8
DRAFT
100
AcDbLine
 62
7
  6
CONTINUOUS
 10
25.5428864533
 20
19.4738809599
 11
25.5428864533
 21
18.2936394892
  0
LWPOLYLINE
  5
702
100
AcDbEntity
  8
RACCORDO
100
AcDbPolyline
 62
7
  6
CONTINUOUS
 90
13
 70
0
 10
17.9468278246
 20
-26.8132232601
 10
17.9410672919
 20
-26.8330710596
 10
17.9331967288
 20
-26.8536846952
 10
17.923276749
 20
-26.8747044365
 10
17.9112942175
 20
-26.8957218984
 10
17.8974786629
 20
-26.9164219253
 10
17.8823052671
 20
-26.9365895618
 10
17.8659644782
 20
-26.9559158439
 10
17.8486512295
 20
-26.9740550127
 10
17.830897989
 20
-26.990783242
 10
17.8130556164
 20
-27.0058831329
 10
17.795274434
 20
-27.0191291639
 10
17.7778080476
 20
-27.0303550277
  0
LWPOLYLINE
  5
703
100
AcDbEntity
  8
RACCORDO
100
AcDbPolyline
 62
253
  6
CONTINUOUS
 90
7
 70
0
 10
15.7599947538
 20
-32.4669972668
 10
15.7677935573
 20
-32.4422698645
 10
15.7730260125
 20
-32.4167854446
 10
15.7756035814
 20
-32.3909752282
 10
15.7754826489
 20
-32.3652759491
 10
15.7726652614
 20
-32.3401224639
 10
15.7671990918
 20
-32.3159403938
  0
LWPOLYLINE
  5
704
100
AcDbEntity
  8
RACCORDO
100
AcDbPolyline
 62
7
  6
CONTINUOUS
 90
5
 70
0
 10
15.206904714
 20
-33.2435057971
 10
15.2122500224
 20
-33.2291003312
 10
15.2160726308
 20
-33.2134763251
 10
15.2183681075
 20
-33.1967712352
 10
15.219127448
 20
-33.1791811346
  0
LWPOLYLINE
  5
705
100
AcDbEntity
  8
0
100
AcDbPolyline
 62
253
  6
CONTINUOUS
 90
16
 70
0
 10
5.3335271785
 20
-26.0328812263
 10
5.3057256963
 20
-26.0502208318
 10
5.2788611514
 20
-26.0709170668
 10
5.2531350535
 20
-26.0948147215
 10
5.2287403745
 20
-26.1217345763
 10
5.2058601013
 20
-26.1514747469
 10
5.1846658631
 20
-26.1838121972
 10
5.1653166445
 20
-26.2185044128
 10
5.1479575927
 20
-26.2552912193
 10
5.1327189287
 20
-26.2938967339
 10
5.1197149713
 20
-26.3340314339
 10
5.1090432786
 20
-26.3753943282
 10
5.1007839169
 20
-26.4176752149
 10
5.09499886
 20
-26.4605570071
 10
5.0917315243
 20
-26.5037181115
 10
5.0910064432
 20
-26.5468348399
  0
LWPOLYLINE
  5
706
100
AcDbEntity
  8
0
100
AcDbPolyline
 62
253
  6
CONTINUOUS
 90
16
 70
0
 10
5.2285348269
 20
-26.0049090209
 10
5.1981412117
 20
-26.0217087943
 10
5.1679725777
 20
-26.0415901921
 10
5.1382522919
 20
-26.0644060299
 10
5.1092004106
 20
-26.0899873891
 10
5.081032029
 20
-26.1181448857
 10
5.0539556911
 20
-26.1486700785
 10
5.0281718776
 20
-26.1813369771
 10
5.0038715045
 20
-26.2159037277
 10
4.981234493
 20
-26.2521144291
 10
4.9604284647
 20
-26.2897009892
 10
4.9416074898
 20
-26.3283851195
 10
4.9249109353
 20
-26.3678804175
 10
4.9104624475
 20
-26.4078944613
 10
4.898369033
 20
-26.4481309735
 10
4.8887202604
 20
-26.488292029
  0
LINE
  5
707
100
AcDbEntity
  8
0
100
AcDbLine
 62
253
  6
CONTINUOUS
 10
5.2285658924
 20
-26.0049245537
 11
5.3903431895
 21
-25.9240048396
  0
LWPOLYLINE
  5
708
100
AcDbEntity
  8
RACCORDO
100
AcDbPolyline
 62
7
  6
CONTINUOUS
 90
5
 70
0
 10
-23.4254585515
 20
27.9534583629
 10
-23.4080325779
 20
27.9529233965
 10
-23.3901427133
 20
27.9498219963
 10
-23.371923798
 20
27.944224243
 10
-23.3535743897
 20
27.936223167
  0
LWPOLYLINE
  5
709
100
AcDbEntity
  8
RACCORDO
100
AcDbPolyline
 62
7
  6
CONTINUOUS
 90
5
 70
0
 10
-21.126161105
 20
29.9218269205
 10
-21.0519658197
 20
29.9105299377
 10
-20.979704272
 20
29.8907133021
 10
-20.9101811256
 20
29.8634589305
 10
-20.8767758043
 20
29.8475318842
  0
LWPOLYLINE
  5
70A
100
AcDbEntity
  8
RACCORDO
100
AcDbPolyline
 62
253
  6
CONTINUOUS
 90
12
 70
0
 10
-31.0068714149
 20
29.7654983288
 10
-30.9977732965
 20
29.7639345062
 10
-30.9776320437
 20
29.7629762001
 10
-30.9572832826
 20
29.7653710978
 10
-30.9370713342
 20
29.7710786752
 10
-30.9173382045
 20
29.7800023541
 10
-30.898417797
 20
29.7919911368
 10
-30.8806302632
 20
29.8068421611
 10
-30.8642765849
 20
29.8243041333
 10
-30.8496334818
 20
29.8440815797
 10
-30.8369487293
 20
29.8658398468
 10
-30.8264369654
 20
29.8892107636
  0
LINE
  5
70B
100
AcDbEntity
  8
DRAFT
100
AcDbLine
 62
7
  6
CONTINUOUS
 10
-11.3146395126
 20
26.4038532271
 11
-10.7406938257
 21
26.2835308468
  0
LWPOLYLINE
  5
70C
100
AcDbEntity
  8
RACCORDO
100
AcDbPolyline
 62
253
  6
CONTINUOUS
 90
7
 70
0
 10
-6.6974805543
 20
29.2659767307
 10
-6.7252010139
 20
29.2775829359
 10
-6.7525105147
 20
29.2845141794
 10
-6.7789417835
 20
29.2866518657
 10
-6.8040425741
 20
29.2839594182
 10
-6.8273834049
 20
29.2764829057
 10
-6.8305253653
 20
29.2750426915
  0
LINE
  5
70D
100
AcDbEntity
  8
RACCORDO
100
AcDbLine
 62
253
  6
CONTINUOUS
 10
-11.6472280226
 20
32.2944426661
 11
-6.6974805543
 21
29.8195689319
  0
LINE
  5
70E
100
AcDbEntity
  8
RACCORDO
100
AcDbLine
 62
253
  6
CONTINUOUS
 10
18.7583635684
 20
17.0916468706
 11
23.7081110367
 21
14.6167731364
  0
LINE
  5
70F
100
AcDbEntity
  8
DRAFT
100
AcDbLine
 62
7
  6
CONTINUOUS
 10
20.7699156803
 20
17.1894321485
 11
27.133876711
 21
14.0074516332
  0
LWPOLYLINE
  5
710
100
AcDbEntity
  8
RACCORDO
100
AcDbPolyline
 62
253
  6
CONTINUOUS
 90
7
 70
0
 10
23.4922767879
 20
14.2490879608
 10
23.5273186823
 20
14.2297001388
 10
23.5580850185
 20
14.2087206569
 10
23.5842442512
 20
14.1863837189
 10
23.605512908
 20
14.1629494428
 10
23.6216694316
 20
14.1386707876
 10
23.6325479618
 20
14.1137892549
  0
LWPOLYLINE
  5
711
100
AcDbEntity
  8
RACCORDO
100
AcDbPolyline
 62
253
  6
CONTINUOUS
 90
16
 70
0
 10
23.7081110367
 20
14.6167731364
 10
23.7648182603
 20
14.5851241649
 10
23.813800199
 20
14.5516239007
 10
23.8550568526
 20
14.5162723438
 10
23.8888723454
 20
14.4786454474
 10
23.9149625532
 20
14.4391672583
 10
23.9324751032
 20
14.3991099166
 10
23.9411244421
 20
14.3584515441
 10
23.9411961232
 20
14.3172140189
 10
23.9326944331
 20
14.2767351154
 10
23.9153815798
 20
14.2370639939
 10
23.8894953553
 20
14.198151494
 10
23.8557534225
 20
14.1611879088
 10
23.8143950023
 20
14.1265700028
 10
23.7651808737
 20
14.0939010116
 10
23.7081110367
 20
14.0631809352
  0
LWPOLYLINE
  5
712
100
AcDbEntity
  8
RACCORDO
100
AcDbPolyline
 62
253
  6
CONTINUOUS
 90
13
 70
0
 10
17.6269927185
 20
17.1037400943
 10
17.6546509681
 20
17.0876567605
 10
17.6817723606
 20
17.0673720829
 10
17.7078928304
 20
17.0432332628
 10
17.7325654462
 20
17.0156534494
 10
17.7553680954
 20
16.9851046256
 10
17.7759106954
 20
16.9521095146
 10
17.7938418017
 20
16.9172327298
 10
17.8088546776
 20
16.8810710353
 10
17.8206925452
 20
16.8442430752
 10
17.8291529117
 20
16.8073789355
 10
17.8340910581
 20
16.7711093716
 10
17.8354225427
 20
16.7360549208
  0
LWPOLYLINE
  5
713
100
AcDbEntity
  8
RACCORDO
100
AcDbPolyline
 62
7
  6
CONTINUOUS
 90
9
 70
0
 10
17.6261618946
 20
16.0689095168
 10
17.6262610234
 20
16.0687511777
 10
17.6264405879
 20
16.0662473907
 10
17.62651175
 20
16.0607944107
 10
17.6267860955
 20
16.052492228
 10
17.6268553477
 20
16.0417477651
 10
17.6266980792
 20
16.0287805494
 10
17.6266912276
 20
16.0136609141
 10
17.6269927185
 20
15.9965556918
  0
LINE
  5
714
100
AcDbEntity
  8
RACCORDO
100
AcDbLine
 62
253
  6
CONTINUOUS
 10
23.6325479618
 20
14.1137892549
 11
23.6380292684
 21
14.0885814355
  0
LINE
  5
715
100
AcDbEntity
  8
DRAFT
100
AcDbLine
 62
7
  6
CONTINUOUS
 10
28.1788559774
 20
14.5076016983
 11
28.1788559774
 21
21.4079664653
  0
LINE
  5
716
100
AcDbEntity
  8
RACCORDO
100
AcDbLine
 62
253
  6
CONTINUOUS
 10
28.7885169712
 20
21.7444683969
 11
28.7885169712
 21
14.7993988617
  0
LINE
  5
717
100
AcDbEntity
  8
RACCORDO
100
AcDbLine
 62
7
  6
CONTINUOUS
 10
28.9228401204
 20
21.8186079591
 11
28.9228401204
 21
14.8636888759
  0
LINE
  5
718
100
AcDbEntity
  8
DRAFT
100
AcDbLine
 62
7
  6
CONTINUOUS
 10
30.0776451471
 20
3.4576686328
 11
30.0776451471
 21
-0.0064329823
  0
LWPOLYLINE
  5
719
100
AcDbEntity
  8
RACCORDO
100
AcDbPolyline
 62
253
  6
CONTINUOUS
 90
13
 70
0
 10
13.3702162743
 20
-33.3519800018
 10
13.3571684731
 20
-33.3686038844
 10
13.3448942518
 20
-33.3861940506
 10
13.3334868456
 20
-33.4046167436
 10
13.3230324661
 20
-33.42373214
 10
13.3136111548
 20
-33.4433945105
 10
13.3052959329
 20
-33.4634532181
 10
13.2981501437
 20
-33.4837552198
 10
13.292227739
 20
-33.5041461831
 10
13.2875741423
 20
-33.524470686
 10
13.2842247699
 20
-33.5445739358
 10
13.2822048348
 20
-33.5643029474
 10
13.2815296284
 20
-33.5835075555
  0
LINE
  5
71A
100
AcDbEntity
  8
RACCORDO
100
AcDbLine
 62
7
  6
CONTINUOUS
 10
12.696502398
 20
-32.8694839745
 11
12.9440312428
 21
-32.5779394716
  0
LINE
  5
71B
100
AcDbEntity
  8
DRAFT
100
AcDbLine
 62
7
  6
CONTINUOUS
 10
16.6611153744
 20
-27.0665412041
 11
15.5726808386
 21
-28.3329841079
  0
LWPOLYLINE
  5
71C
100
AcDbEntity
  8
RACCORDO
100
AcDbPolyline
 62
7
  6
CONTINUOUS
 90
6
 70
0
 10
-17.3102525644
 20
28.9013032603
 10
-17.3468673775
 20
28.9002285292
 10
-17.382806599
 20
28.8965615617
 10
-17.4182597617
 20
28.8902548277
 10
-17.4519909669
 20
28.881516921
 10
-17.4837199511
 20
28.8705309256
  0
LWPOLYLINE
  5
71D
100
AcDbEntity
  8
RACCORDO
100
AcDbPolyline
 62
7
  6
CONTINUOUS
 90
5
 70
0
 10
-27.1377691527
 20
29.8096136635
 10
-27.1203431791
 20
29.8090786971
 10
-27.1024533145
 20
29.8059772969
 10
-27.0842343992
 20
29.8003795436
 10
-27.0658849909
 20
29.7923784676
  0
LWPOLYLINE
  5
71E
100
AcDbEntity
  8
RACCORDO
100
AcDbPolyline
 62
7
  6
CONTINUOUS
 90
16
 70
0
 10
-21.126161105
 20
29.9218269205
 10
-21.1879716066
 20
29.925247206
 10
-21.2496177436
 20
29.9267644044
 10
-21.3110995159
 20
29.9263785158
 10
-21.3726498653
 20
29.9240737191
 10
-21.43403585
 20
29.9198658353
 10
-21.4945586449
 20
29.9138023282
 10
-21.5542088288
 20
29.9058618941
 10
-21.6129958228
 20
29.8960658366
 10
-21.6702490647
 20
29.8845255306
 10
-21.7259498244
 20
29.8712214961
 10
-21.780116832
 20
29.8561732131
 10
-21.8321357148
 20
29.8395504969
 10
-21.881801682
 20
29.8214099526
 10
-21.9293195246
 20
29.801694975
 10
-21.9746892424
 20
29.7804055643
  0
LINE
  5
71F
100
AcDbEntity
  8
RACCORDO
100
AcDbLine
 62
7
  6
CONTINUOUS
 10
33.9785930024
 20
15.2560276854
 11
31.906847484
 21
16.2919004445
  0
LINE
  5
720
100
AcDbEntity
  8
DRAFT
100
AcDbLine
 62
7
  6
CONTINUOUS
 10
25.5428864533
 20
19.4738809599
 11
23.7279126708
 21
20.3813678511
  0
LWPOLYLINE
  5
721
100
AcDbEntity
  8
RACCORDO
100
AcDbPolyline
 62
253
  6
CONTINUOUS
 90
13
 70
0
 10
13.5798688931
 20
-33.5385463051
 10
13.5771884134
 20
-33.541907028
 10
13.5747018241
 20
-33.5454053011
 10
13.5724091253
 20
-33.5490411243
 10
13.5702961758
 20
-33.5528441047
 10
13.5683771168
 20
-33.5567846353
 10
13.5666943717
 20
-33.5607738947
 10
13.5652532918
 20
-33.5648128039
 10
13.5640485258
 20
-33.568900442
 10
13.5631064426
 20
-33.5729452248
 10
13.5624358318
 20
-33.5769166242
 10
13.5620279039
 20
-33.5808451684
 10
13.5618826587
 20
-33.5847308574
  0
LINE
  5
722
100
AcDbEntity
  8
RACCORDO
100
AcDbLine
 62
253
  6
CONTINUOUS
 10
14.0030167503
 20
-32.606654498
 11
13.3702161281
 21
-33.3519799284
  0
LINE
  5
723
100
AcDbEntity
  8
RACCORDO
100
AcDbLine
 62
253
  6
CONTINUOUS
 10
14.3166766973
 20
-32.6707191024
 11
13.5798688931
 21
-33.5385463051
  0
LWPOLYLINE
  5
724
100
AcDbEntity
  8
RACCORDO
100
AcDbPolyline
 62
7
  6
CONTINUOUS
 90
9
 70
0
 10
15.7269305711
 20
-32.9818705405
 10
15.7480794863
 20
-32.9638052636
 10
15.7675354013
 20
-32.9431844913
 10
15.7845121025
 20
-32.9209710026
 10
15.7993170033
 20
-32.8968928398
 10
15.8118930389
 20
-32.8708597557
 10
15.8215524775
 20
-32.844269726
 10
15.8283314659
 20
-32.8175082802
 10
15.832386469
 20
-32.78980977
  0
LWPOLYLINE
  5
725
100
AcDbEntity
  8
DRAFT
100
AcDbPolyline
 62
7
  6
CONTINUOUS
 90
10
 70
0
 10
15.4680938805
 20
-31.532490466
 10
15.4890413597
 20
-31.5150004912
 10
15.5079558606
 20
-31.4943446577
 10
15.5246820968
 20
-31.470687041
 10
15.5390926008
 20
-31.4442107167
 10
15.5510671768
 20
-31.4151218505
 10
15.5604863399
 20
-31.3836516259
 10
15.567262485
 20
-31.3500449948
 10
15.5713413171
 20
-31.3145597179
 10
15.5726808386
 20
-31.2774702772
  0
LINE
  5
726
100
AcDbEntity
  8
DRAFT
100
AcDbLine
 62
7
  6
CONTINUOUS
 10
16.6148271182
 20
-27.84868414
 11
16.267445025
 21
-28.1004475305
  0
LWPOLYLINE
  5
727
100
AcDbEntity
  8
RACCORDO
100
AcDbPolyline
 62
7
  6
CONTINUOUS
 90
3
 70
0
 10
12.3765068223
 20
-33.0940495278
 10
12.360679482
 20
-33.1050987089
 10
12.3460611101
 20
-33.1157732963
  0
LWPOLYLINE
  5
728
100
AcDbEntity
  8
RACCORDO
100
AcDbPolyline
 62
7
  6
CONTINUOUS
 90
4
 70
0
 10
12.4503256256
 20
-33.0449039698
 10
12.4303626086
 20
-33.057841574
 10
12.4114394639
 20
-33.0704773155
 10
12.3765068223
 20
-33.0940495278
  0
LINE
  5
729
100
AcDbEntity
  8
DRAFT
100
AcDbLine
 62
7
  6
CONTINUOUS
 10
15.4468264611
 20
-31.5458525845
 11
15.4680938805
 21
-31.532490466
  0
LINE
  5
72A
100
AcDbEntity
  8
0
100
AcDbLine
 62
7
  6
CONTINUOUS
 10
16.6148271182
 20
-27.576890725
 11
17.5482969049
 21
-26.9917731855
  0
LWPOLYLINE
  5
72B
100
AcDbEntity
  8
RACCORDO
100
AcDbPolyline
 62
7
  6
CONTINUOUS
 90
3
 70
0
 10
12.5154706222
 20
-33.0038155004
 10
12.4928439642
 20
-33.0177412761
 10
12.4503256256
 20
-33.0449039698
  0
LWPOLYLINE
  5
72C
100
AcDbEntity
  8
RACCORDO
100
AcDbPolyline
 62
7
  6
CONTINUOUS
 90
3
 70
0
 10
12.5875425666
 20
-32.960625677
 10
12.5631035856
 20
-32.9754231464
 10
12.5154706222
 20
-33.0038155004
  0
LWPOLYLINE
  5
72D
100
AcDbEntity
  8
RACCORDO
100
AcDbPolyline
 62
7
  6
CONTINUOUS
 90
14
 70
0
 10
40.5023299955
 20
-15.0706335303
 10
40.609098842
 20
-15.0067757814
 10
40.7078257622
 20
-14.9350629515
 10
40.8000800417
 20
-14.8547997891
 10
40.8858132049
 20
-14.7659118026
 10
40.9643432073
 20
-14.6688865231
 10
41.0350224772
 20
-14.5643742132
 10
41.0977388481
 20
-14.4522051505
 10
41.1519361084
 20
-14.3327167533
 10
41.1970148634
 20
-14.2065584201
 10
41.2326945068
 20
-14.0736134554
 10
41.2584846414
 20
-13.9339405864
 10
41.2737895787
 20
-13.7881207727
 10
41.2782126422
 20
-13.6545753431
  0
LINE
  5
72E
100
AcDbEntity
  8
0
100
AcDbLine
 62
253
  6
CONTINUOUS
 10
17.9887483036
 20
-26.4155768548
 11
40.9975681807
 21
-14.0017906698
  0
LINE
  5
72F
100
AcDbEntity
  8
RACCORDO
100
AcDbLine
 62
7
  6
CONTINUOUS
 10
16.267445025
 20
-28.1459188733
 11
40.5036241985
 21
-15.0699441902
  0
LINE
  5
730
100
AcDbEntity
  8
RACCORDO
100
AcDbLine
 62
253
  6
CONTINUOUS
 10
16.267445025
 20
-30.9026952131
 11
15.5726808386
 21
-31.2775364307
  0
LINE
  5
731
100
AcDbEntity
  8
RACCORDO
100
AcDbLine
 62
7
  6
CONTINUOUS
 10
16.1427681253
 20
-31.1703761133
 11
15.4469275598
 21
-31.5457980622
  0
LINE
  5
732
100
AcDbEntity
  8
RACCORDO
100
AcDbLine
 62
7
  6
CONTINUOUS
 10
20.2335114869
 20
-26.4449492083
 11
16.267445025
 21
-28.5422704846
  0
LINE
  5
733
100
AcDbEntity
  8
DRAFT
100
AcDbLine
 62
7
  6
CONTINUOUS
 10
16.267445025
 20
-28.0316772198
 11
16.6148271182
 21
-27.84868414
  0
LINE
  5
734
100
AcDbEntity
  8
RACCORDO
100
AcDbLine
 62
7
  6
CONTINUOUS
 10
21.2768099558
 20
-25.8124281152
 11
16.267445025
 21
-28.4512489826
  0
LINE
  5
735
100
AcDbEntity
  8
DRAFT
100
AcDbLine
 62
7
  6
CONTINUOUS
 10
15.4291391306
 20
-31.5542390174
 11
15.4468264611
 21
-31.5458525845
  0
LWPOLYLINE
  5
736
100
AcDbEntity
  8
RACCORDO
100
AcDbPolyline
 62
253
  6
CONTINUOUS
 90
12
 70
0
 10
10.2200084391
 20
-33.7000571049
 10
10.2364748321
 20
-33.6923496961
 10
10.2596962769
 20
-33.6779812086
 10
10.2811693105
 20
-33.6602681208
 10
10.300730805
 20
-33.6393450187
 10
10.3182321539
 20
-33.615370876
 10
10.3335404026
 20
-33.5885278471
 10
10.3465392618
 20
-33.5590198763
 10
10.3571299886
 20
-33.5270711472
 10
10.3652321327
 20
-33.4929243879
 10
10.3707841492
 20
-33.4568390289
 10
10.3737438681
 20
-33.4190892243
  0
LINE
  5
737
100
AcDbEntity
  8
RACCORDO
100
AcDbLine
 62
253
  6
CONTINUOUS
 10
10.3737438681
 20
-33.4190892243
 11
15.5726808386
 21
-31.2774702772
  0
LINE
  5
738
100
AcDbEntity
  8
RACCORDO
100
AcDbLine
 62
7
  6
CONTINUOUS
 10
15.4290106614
 20
-31.5542919383
 11
10.2200084028
 21
-33.7000571198
  0
LWPOLYLINE
  5
739
100
AcDbEntity
  8
RACCORDO
100
AcDbPolyline
 62
253
  6
CONTINUOUS
 90
25
 70
0
 10
10.3737438681
 20
-33.4190892243
 10
10.3425249255
 20
-33.4307862784
 10
10.311721098
 20
-33.4400557972
 10
10.2813323855
 20
-33.4468977806
 10
10.2512359796
 20
-33.4513245271
 10
10.2215546888
 20
-33.4533237382
 10
10.1926569382
 20
-33.4528585188
 10
10.1645624922
 20
-33.4498967505
 10
10.1372515864
 20
-33.4444705516
 10
10.1110333533
 20
-33.4366393829
 10
10.0859194405
 20
-33.4263749705
 10
10.0618982003
 20
-33.4137055883
 10
10.0392438227
 20
-33.3987755179
 10
10.0179726231
 20
-33.3815588011
 10
9.9980682861
 20
-33.3620813963
 10
9.9797560545
 20
-33.3405654599
 10
9.9630546624
 20
-33.3169881534
 10
9.9479453756
 20
-33.2913723154
 10
9.9345972352
 20
-33.2640086187
 10
9.9230294239
 20
-33.2348645825
 10
9.9132227589
 20
-33.2039726876
 10
9.9052887322
 20
-33.1717210483
 10
9.8992645079
 20
-33.1382390361
 10
9.8951129219
 20
-33.1033972795
 10
9.8928339742
 20
-33.0671957785
  0
LWPOLYLINE
  5
73A
100
AcDbEntity
  8
RACCORDO
100
AcDbPolyline
 62
7
  6
CONTINUOUS
 90
4
 70
0
 10
-14.2504322186
 20
29.3737454221
 10
-14.3093673585
 20
29.3587625704
 10
-14.3684779481
 20
29.3382521981
 10
-14.4221957669
 20
29.3148265985
  0
LINE
  5
73B
100
AcDbEntity
  8
RACCORDO
100
AcDbLine
 62
7
  6
CONTINUOUS
 10
-18.2988570645
 20
30.671336368
 11
-19.8805495433
 21
30.5910963758
  0
LWPOLYLINE
  5
73C
100
AcDbEntity
  8
RACCORDO
100
AcDbPolyline
 62
7
  6
CONTINUOUS
 90
6
 70
0
 10
-22.9239224
 20
31.711096659
 10
-22.9607820844
 20
31.7104482123
 10
-22.9970984513
 20
31.7071599336
 10
-23.0330488272
 20
31.701178248
 10
-23.0673785696
 20
31.69267963
 10
-23.0998164831
 20
31.6818181042
  0
LWPOLYLINE
  5
73D
100
AcDbEntity
  8
RACCORDO
100
AcDbPolyline
 62
253
  6
CONTINUOUS
 90
8
 70
0
 10
-3.8783076622
 20
40.0068747893
 10
-3.9030536335
 20
40.0180701847
 10
-3.9639937115
 20
40.0372508305
 10
-4.0287979534
 20
40.0465181891
 10
-4.0967720267
 20
40.0457729673
 10
-4.1671876366
 20
40.0350231497
 10
-4.2392903285
 20
40.014383913
 10
-4.312307572
 20
39.9840763925
  0
LWPOLYLINE
  5
73E
100
AcDbEntity
  8
RACCORDO
100
AcDbPolyline
 62
7
  6
CONTINUOUS
 90
6
 70
0
 10
-3.8783188858
 20
40.0068522581
 10
-3.9018080347
 20
40.0183655839
 10
-4.0469291728
 20
40.0803492053
 10
-4.1926068702
 20
40.1273117886
 10
-4.3373985072
 20
40.1594073174
 10
-4.4807473953
 20
40.1771889827
  0
LINE
  5
73F
100
AcDbEntity
  8
RACCORDO
100
AcDbLine
 62
253
  6
CONTINUOUS
 10
-4.312307572
 20
39.9840763925
 11
29.382680118
 21
23.1365825475
  0
LINE
  5
740
100
AcDbEntity
  8
RACCORDO
100
AcDbLine
 62
7
  6
CONTINUOUS
 10
-3.8783076622
 20
40.0068747893
 11
29.8137729268
 21
23.160835913
  0
LWPOLYLINE
  5
741
100
AcDbEntity
  8
RACCORDO
100
AcDbPolyline
 62
253
  6
CONTINUOUS
 90
3
 70
0
 10
40.6251837831
 20
-14.9882785053
 10
40.5504031934
 20
-15.0424827955
 10
40.503574013
 20
-15.0699712664
  0
LWPOLYLINE
  5
742
100
AcDbEntity
  8
RACCORDO
100
AcDbPolyline
 62
253
  6
CONTINUOUS
 90
16
 70
0
 10
15.7432319145
 20
-32.896414751
 10
15.7468815996
 20
-32.8941931792
 10
15.7504120407
 20
-32.891597034
 10
15.7538232379
 20
-32.8886263153
 10
15.7571489763
 20
-32.8852412837
 10
15.7603554707
 20
-32.8814816787
 10
15.763341366
 20
-32.8774667186
 10
15.7660995593
 20
-32.8731884319
 10
15.7686371534
 20
-32.8686547901
 10
15.7708741014
 20
-32.8640089265
 10
15.7728006941
 20
-32.8592472783
 10
15.7744266407
 20
-32.8543734082
 10
15.7757010223
 20
-32.8495411376
 10
15.776606866
 20
-32.8448017404
 10
15.7771611448
 20
-32.8401039427
 10
15.7773638585
 20
-32.8354477445
  0
LWPOLYLINE
  5
743
100
AcDbEntity
  8
RACCORDO
100
AcDbPolyline
 62
253
  6
CONTINUOUS
 90
7
 70
0
 10
15.7773638585
 20
-32.4955041496
 10
15.794094088
 20
-32.4856374331
 10
15.8081370707
 20
-32.4747734634
 10
15.8192578308
 20
-32.4630940247
 10
15.8272702895
 20
-32.4507945459
 10
15.8320403782
 20
-32.4380808309
 10
15.8334958984
 20
-32.4260383065
  0
LWPOLYLINE
  5
744
100
AcDbEntity
  8
RACCORDO
100
AcDbPolyline
 62
253
  6
CONTINUOUS
 90
7
 70
0
 10
15.7773638585
 20
-32.8354477445
 10
15.7940940736
 20
-32.8255810394
 10
15.8081370494
 20
-32.8147170806
 10
15.819257809
 20
-32.8030376512
 10
15.8272702723
 20
-32.7907381796
 10
15.8320403691
 20
-32.778024469
 10
15.8334958984
 20
-32.7659819075
  0
LWPOLYLINE
  5
745
100
AcDbEntity
  8
RACCORDO
100
AcDbPolyline
 62
7
  6
CONTINUOUS
 90
6
 70
0
 10
15.1692664949
 20
-33.2862482189
 10
15.1724390804
 20
-33.2844333933
 10
15.1827270449
 20
-33.2769772438
 10
15.1919650122
 20
-33.267663792
 10
15.2000912192
 20
-33.2564534009
 10
15.206904714
 20
-33.2435057971
  0
LWPOLYLINE
  5
746
100
AcDbEntity
  8
RACCORDO
100
AcDbPolyline
 62
7
  6
CONTINUOUS
 90
3
 70
0
 10
15.6942667399
 20
-33.0029971407
 10
15.7044419624
 20
-32.9971909982
 10
15.7269305711
 20
-32.9818705405
  0
LINE
  5
747
100
AcDbEntity
  8
RACCORDO
100
AcDbLine
 62
253
  6
CONTINUOUS
 10
15.219127448
 20
-33.1791811346
 11
15.7432319145
 21
-32.896414751
  0
LINE
  5
748
100
AcDbEntity
  8
RACCORDO
100
AcDbLine
 62
7
  6
CONTINUOUS
 10
15.1692614609
 20
-33.2862509196
 11
15.6943287041
 21
-33.002965096
  0
LINE
  5
749
100
AcDbEntity
  8
RACCORDO
100
AcDbLine
 62
7
  6
CONTINUOUS
 10
15.1650951322
 20
-33.2883366839
 11
15.1692664949
 21
-33.2862482189
  0
LINE
  5
74A
100
AcDbEntity
  8
RACCORDO
100
AcDbLine
 62
253
  6
CONTINUOUS
 10
13.5972273213
 20
-33.928228361
 11
15.219127448
 21
-33.1791811346
  0
LINE
  5
74B
100
AcDbEntity
  8
RACCORDO
100
AcDbLine
 62
7
  6
CONTINUOUS
 10
13.5421513893
 20
-34.0378658945
 11
15.1650485153
 21
-33.2883582207
  0
LWPOLYLINE
  5
74C
100
AcDbEntity
  8
RACCORDO
100
AcDbPolyline
 62
253
  6
CONTINUOUS
 90
13
 70
0
 10
13.5618826587
 20
-33.5847308574
 10
13.5421492485
 20
-33.593095965
 10
13.5204213308
 20
-33.6001174528
 10
13.4970624721
 20
-33.6056778326
 10
13.4724635289
 20
-33.6096840643
 10
13.4470361076
 20
-33.6120691127
 10
13.4212056775
 20
-33.6127930697
 10
13.395404451
 20
-33.6118438214
 10
13.3700641522
 20
-33.6092372514
 10
13.3456087923
 20
-33.6050169745
 10
13.3224475752
 20
-33.5992536074
 10
13.3009680505
 20
-33.5920435867
 10
13.2815296284
 20
-33.5835075555
  0
LWPOLYLINE
  5
74D
100
AcDbEntity
  8
RACCORDO
100
AcDbPolyline
 62
253
  6
CONTINUOUS
 90
13
 70
0
 10
13.5618826587
 20
-33.9019996578
 10
13.5421493458
 20
-33.9103647239
 10
13.5204215227
 20
-33.9173861899
 10
13.497062747
 20
-33.922946565
 10
13.4724638675
 20
-33.9269528057
 10
13.4470364855
 20
-33.929337873
 10
13.4212060668
 20
-33.9300618542
 10
13.3954048219
 20
-33.9291126306
 10
13.3700644772
 20
-33.9265060811
 10
13.345609051
 20
-33.9222858166
 10
13.3224477534
 20
-33.9165224506
 10
13.3009681397
 20
-33.9093124168
 10
13.2815296284
 20
-33.9007763566
  0
LWPOLYLINE
  5
74E
100
AcDbEntity
  8
RACCORDO
100
AcDbPolyline
 62
7
  6
CONTINUOUS
 90
10
 70
0
 10
41.278206093
 20
15.9445031272
 10
41.2730885058
 20
16.0912260037
 10
41.2591529545
 20
16.2293235904
 10
41.236589262
 20
16.3674465305
 10
41.2056486444
 20
16.5051298409
 10
41.1667165835
 20
16.6412987865
 10
41.119982898
 20
16.7757525201
 10
41.0656230743
 20
16.9081796614
 10
41.0041977755
 20
17.0372642458
 10
40.9919282947
 20
17.0610364954
  0
LINE
  5
74F
100
AcDbEntity
  8
RACCORDO
100
AcDbLine
 62
253
  6
CONTINUOUS
 10
40.9975681807
 20
15.5973515083
 11
40.9975681807
 21
10.3024948801
  0
LINE
  5
750
100
AcDbEntity
  8
RACCORDO
100
AcDbLine
 62
253
  6
CONTINUOUS
 10
40.9975681807
 20
4.4566520959
 11
40.9975681807
 21
-14.0017906698
  0
LINE
  5
751
100
AcDbEntity
  8
RACCORDO
100
AcDbLine
 62
7
  6
CONTINUOUS
 10
41.2782283804
 20
15.9446806916
 11
41.2782283804
 21
10.7015454784
  0
LINE
  5
752
100
AcDbEntity
  8
RACCORDO
100
AcDbLine
 62
7
  6
CONTINUOUS
 10
41.2782283804
 20
4.7521371776
 11
41.2782283804
 21
-13.6544615198
  0
LWPOLYLINE
  5
753
100
AcDbEntity
  8
RACCORDO
100
AcDbPolyline
 62
253
  6
CONTINUOUS
 90
11
 70
0
 10
40.9975681807
 20
-14.0017906698
 10
40.9944871973
 20
-14.1286433154
 10
40.9834691201
 20
-14.2509113126
 10
40.9645632075
 20
-14.3679097682
 10
40.9378569178
 20
-14.4789953288
 10
40.9034930782
 20
-14.5835280966
 10
40.8616775543
 20
-14.6808826697
 10
40.812648876
 20
-14.77050581
 10
40.7566735985
 20
-14.8519092312
 10
40.6940682405
 20
-14.9246358365
 10
40.6251837831
 20
-14.9882785053
  0
LWPOLYLINE
  5
754
100
AcDbEntity
  8
RACCORDO
100
AcDbPolyline
 62
253
  6
CONTINUOUS
 90
9
 70
0
 10
41.2782283545
 20
-13.654575356
 10
41.2773020273
 20
-13.6759780725
 10
41.2675014111
 20
-13.7275006706
 10
41.2471013183
 20
-13.7782407848
 10
41.2163202719
 20
-13.827654757
 10
41.1754880451
 20
-13.8752131143
 10
41.1250421078
 20
-13.9204062801
 10
41.0655229236
 20
-13.9627500315
 10
40.9975681807
 20
-14.0017906649
  0
LWPOLYLINE
  5
755
100
AcDbEntity
  8
RACCORDO
100
AcDbPolyline
 62
253
  6
CONTINUOUS
 90
9
 70
0
 10
41.2782283173
 20
15.9445031157
 10
41.2746549426
 20
15.9024488722
 10
41.261677608
 20
15.8540887255
 10
41.239334664
 20
15.8065913064
 10
41.2078388874
 20
15.7604089438
 10
41.1674902196
 20
15.7159814432
 10
41.1186729101
 20
15.673731898
 10
41.0618518573
 20
15.63406266
 10
40.9975681807
 20
15.5973515083
  0
LWPOLYLINE
  5
756
100
AcDbEntity
  8
RACCORDO
100
AcDbPolyline
 62
7
  6
CONTINUOUS
 90
7
 70
0
 10
-4.4807473953
 20
40.1771889827
 10
-4.622647351
 20
40.1810789055
 10
-4.7617651576
 20
40.1713597464
 10
-4.8970854036
 20
40.1485274601
 10
-5.0287306898
 20
40.1128108632
 10
-5.1558595548
 20
40.0644599055
 10
-5.1822848627
 20
40.0525484931
  0
LWPOLYLINE
  5
757
100
AcDbEntity
  8
RACCORDO
100
AcDbPolyline
 62
253
  6
CONTINUOUS
 90
10
 70
0
 10
40.4905583047
 20
17.1894659972
 10
40.4612382912
 20
17.2315923108
 10
40.4288633235
 20
17.2691879287
 10
40.3941682538
 20
17.3013994976
 10
40.357940595
 20
17.3274958724
 10
40.3210026504
 20
17.3468847097
 10
40.2841928488
 20
17.3591259157
 10
40.2483467075
 20
17.3639416373
 10
40.2142778671
 20
17.3612225674
 10
40.1850929594
 20
17.3520825936
  0
LWPOLYLINE
  5
758
100
AcDbEntity
  8
RACCORDO
100
AcDbPolyline
 62
253
  6
CONTINUOUS
 90
11
 70
0
 10
40.9802587614
 20
17.0819171159
 10
40.9538872727
 20
17.1204192281
 10
40.9215199028
 20
17.1559738349
 10
40.882520926
 20
17.1875046119
 10
40.8380779024
 20
17.212535731
 10
40.7884872355
 20
17.2297172033
 10
40.7336017859
 20
17.2387581379
 10
40.675380981
 20
17.2393218589
 10
40.6152407257
 20
17.231360049
 10
40.553340468
 20
17.2147006112
 10
40.490316779
 20
17.189382936
  0
LWPOLYLINE
  5
759
100
AcDbEntity
  8
RACCORDO
100
AcDbPolyline
 62
253
  6
CONTINUOUS
 90
16
 70
0
 10
40.490328134
 20
17.1893659288
 10
40.5527325382
 20
17.0913232303
 10
40.611739336
 20
16.9905466852
 10
40.6671464421
 20
16.8873825953
 10
40.7187561838
 20
16.7821826438
 10
40.7664002817
 20
16.6753111919
 10
40.8099400844
 20
16.5671439007
 10
40.8492365712
 20
16.4580538829
 10
40.8841458479
 20
16.3484146199
 10
40.9145444629
 20
16.2386071616
 10
40.9403313451
 20
16.1290067709
 10
40.9614187724
 20
16.0199926874
 10
40.9777298222
 20
15.9119506285
 10
40.9892108382
 20
15.8052551694
 10
40.9958295911
 20
15.7002687842
 10
40.9975681807
 20
15.5973515083
  0
LWPOLYLINE
  5
75A
100
AcDbEntity
  8
RACCORDO
100
AcDbPolyline
 62
7
  6
CONTINUOUS
 90
15
 70
0
 10
40.9919323039
 20
17.0610288213
 10
40.97261141
 20
17.0958641544
 10
40.9308587737
 20
17.1592510049
 10
40.88340727
 20
17.2168187638
 10
40.8306800335
 20
17.2677436186
 10
40.7730904049
 20
17.3115451931
 10
40.7108978693
 20
17.3479371982
 10
40.6449472772
 20
17.3762833331
 10
40.5761546966
 20
17.3961240346
 10
40.5047639635
 20
17.4073138245
 10
40.4317669151
 20
17.4096548577
 10
40.3582123829
 20
17.4030875593
 10
40.2840719858
 20
17.3874110692
 10
40.2097159047
 20
17.362377276
 10
40.1851242943
 20
17.3520117699
  0
ELLIPSE
  5
75B
100
AcDbEntity
  8
RACCORDO
100
AcDbEllipse
 62
7
  6
CONTINUOUS
 10
15.9138377783
 20
-30.7257596798
 30
0.0
 11
-0.2237009107
 21
0.4473351135
 31
0.0
 40
0.6121897086
 41
-3.1223332327
 42
-2.2557347926
  0
ELLIPSE
  5
75C
100
AcDbEntity
  8
RACCORDO
100
AcDbEllipse
 62
7
  6
CONTINUOUS
 10
15.9138377783
 20
7.1757880266
 30
0.0
 11
-0.2235807756
 21
0.4472283268
 31
0.0
 40
0.6125552124
 41
-2.255296188
 42
-0.6848044477
  0
ELLIPSE
  5
75D
100
AcDbEntity
  8
RACCORDO
100
AcDbEllipse
 62
7
  6
CONTINUOUS
 10
-22.6723799727
 20
28.0342301952
 30
0.0
 11
-0.1174113663
 21
0.2209958577
 31
0.0
 40
0.5985429242
 41
-0.6989839728
 42
-0.0337839605
  0
ELLIPSE
  5
75E
100
AcDbEntity
  8
RACCORDO
100
AcDbEllipse
 62
7
  6
CONTINUOUS
 10
9.1474251807
 20
12.1243276185
 30
0.0
 11
-0.1174113663
 21
0.2209958577
 31
0.0
 40
0.5985429242
 41
-0.6989839728
 42
-0.0337839605
  0
ELLIPSE
  5
75F
100
AcDbEntity
  8
0
100
AcDbEllipse
 62
7
  6
CONTINUOUS
 10
17.5180205605
 20
-26.5760842639
 30
0.0
 11
0.2174819613
 21
0.4502570851
 31
0.0
 40
0.6016116119
 41
-2.3778362978
 42
-0.8943064336
  0
ELLIPSE
  5
760
100
AcDbEntity
  8
RACCORDO
100
AcDbEllipse
 62
7
  6
CONTINUOUS
 10
7.6390763168
 20
12.8785020505
 30
0.0
 11
-0.1172693628
 21
0.2208586762
 31
0.0
 40
0.5994421146
 41
-2.2699607138
 42
-0.6994689735
  0
ELLIPSE
  5
761
100
AcDbEntity
  8
RACCORDO
100
AcDbEllipse
 62
7
  6
CONTINUOUS
 10
-24.1807288366
 20
28.7884046272
 30
0.0
 11
-0.1172693628
 21
0.2208586762
 31
0.0
 40
0.5994421146
 41
-2.2699607138
 42
-0.6994689735
  0
ELLIPSE
  5
762
100
AcDbEntity
  8
RACCORDO
100
AcDbEllipse
 62
7
  6
CONTINUOUS
 10
10.6229333703
 20
12.1899047065
 30
0.0
 11
0.9999931154
 21
0.0073364426
 31
0.0
 40
0.5057858187
 41
0.7820301026
 42
2.3521411967
  0
ELLIPSE
  5
763
100
AcDbEntity
  8
RACCORDO
100
AcDbEllipse
 62
7
  6
CONTINUOUS
 10
14.2425557552
 20
12.3607985264
 30
0.0
 11
1.000203771
 21
-0.0143477891
 31
0.0
 40
0.4891226537
 41
-0.7775824994
 42
-0.0731082115
  0
ELLIPSE
  5
764
100
AcDbEntity
  8
RACCORDO
100
AcDbEllipse
 62
7
  6
CONTINUOUS
 10
16.4330671407
 20
63.5871335995
 30
0.0
 11
3.5378457856
 21
99.5794032239
 31
0.0
 40
0.0069684374
 41
-2.1125990433
 42
-2.1121351185
  0
ELLIPSE
  5
765
100
AcDbEntity
  8
RACCORDO
100
AcDbEllipse
 62
7
  6
CONTINUOUS
 10
-17.5772493981
 20
28.270701103
 30
0.0
 11
1.000203771
 21
-0.0143477891
 31
0.0
 40
0.4891226537
 41
-0.7775824994
 42
-0.0731082115
  0
ELLIPSE
  5
766
100
AcDbEntity
  8
RACCORDO
100
AcDbEllipse
 62
7
  6
CONTINUOUS
 10
-15.3867380127
 20
79.4970361762
 30
0.0
 11
3.5378457856
 21
99.5794032239
 31
0.0
 40
0.0069684374
 41
-2.1125990433
 42
-2.1121351185
  0
ELLIPSE
  5
767
100
AcDbEntity
  8
RACCORDO
100
AcDbEllipse
 62
7
  6
CONTINUOUS
 10
20.6403184351
 20
-25.7947998934
 30
0.0
 11
0.4349639225
 21
0.9005141702
 31
0.0
 40
0.6016116119
 41
-1.3067950969
 42
-0.8943064336
  0
ELLIPSE
  5
768
100
AcDbEntity
  8
RACCORDO
100
AcDbEllipse
 62
7
  6
CONTINUOUS
 10
20.9284744903
 20
-25.938877921
 30
0.0
 11
0.9867309946
 21
0.6236301469
 31
0.0
 40
0.0713777251
 41
-2.3963187117
 42
-1.2554643407
  0
ELLIPSE
  5
769
100
AcDbEntity
  8
RACCORDO
100
AcDbEllipse
 62
7
  6
CONTINUOUS
 10
9.3683590495
 20
16.5893561188
 30
0.0
 11
1.0108778265
 21
0.6107340099
 31
0.0
 40
0.091398456
 41
0.058641799
 42
0.7249729241
  0
ELLIPSE
  5
76A
100
AcDbEntity
  8
RACCORDO
100
AcDbEllipse
 62
7
  6
CONTINUOUS
 10
20.6403184351
 20
10.9533764259
 30
0.0
 11
0.4349639225
 21
0.9005141702
 31
0.0
 40
0.6016116119
 41
-0.8943064336
 42
-0.4818177702
  0
ELLIPSE
  5
76B
100
AcDbEntity
  8
RACCORDO
100
AcDbEllipse
 62
7
  6
CONTINUOUS
 10
-11.002710023
 20
26.774890655
 30
0.0
 11
0.4349639225
 21
0.9005141702
 31
0.0
 40
0.6016116119
 41
-0.8943064336
 42
-0.7433676783
  0
ELLIPSE
  5
76C
100
AcDbEntity
  8
RACCORDO
100
AcDbEllipse
 62
7
  6
CONTINUOUS
 10
-22.4514461039
 20
32.4992586955
 30
0.0
 11
1.0108778265
 21
0.6107340099
 31
0.0
 40
0.091398456
 41
0.0588188102
 42
0.7249729241
  0
ELLIPSE
  5
76D
100
AcDbEntity
  8
DRAFT
100
AcDbEllipse
 62
7
  6
CONTINUOUS
 10
23.5605644056
 20
17.0097507986
 30
0.0
 11
14.9951258869
 21
0.1076169116
 31
0.0
 40
0.5053247123
 41
-2.5233472187
 42
-2.4858336459
  0
ELLIPSE
  5
76E
100
AcDbEntity
  8
0
100
AcDbEllipse
 62
7
  6
CONTINUOUS
 10
17.5180205605
 20
3.9675142407
 30
0.0
 11
0.2174819613
 21
0.4502570851
 31
0.0
 40
0.6016116119
 41
5.3888788736
 42
6.8724087378
  0
ELLIPSE
  5
76F
100
AcDbEntity
  8
RACCORDO
100
AcDbEllipse
 62
7
  6
CONTINUOUS
 10
10.5131430322
 20
9.3914758352
 30
0.0
 11
0.199943508
 21
0.008945986
 31
0.0
 40
0.5313301283
 41
-2.3799630874
 42
-0.8266200532
  0
ELLIPSE
  5
770
100
AcDbEntity
  8
RACCORDO
100
AcDbEllipse
 62
7
  6
CONTINUOUS
 10
8.2224946351
 20
10.5368000338
 30
0.0
 11
0.199943508
 21
0.008945986
 31
0.0
 40
0.5313301283
 41
3.117765999
 42
3.9032222197
  0
ELLIPSE
  5
771
100
AcDbEntity
  8
RACCORDO
100
AcDbEllipse
 62
7
  6
CONTINUOUS
 10
6.800832431
 20
11.2476311358
 30
0.0
 11
0.199943508
 21
0.008945986
 31
0.0
 40
0.5313301283
 41
-2.3799630874
 42
-0.8266200532
  0
ELLIPSE
  5
772
100
AcDbEntity
  8
RACCORDO
100
AcDbEllipse
 62
7
  6
CONTINUOUS
 10
4.5101840339
 20
12.3929553344
 30
0.0
 11
0.199943508
 21
0.008945986
 31
0.0
 40
0.5313301283
 41
3.117765999
 42
3.9032222197
  0
ELLIPSE
  5
773
100
AcDbEntity
  8
RACCORDO
100
AcDbEllipse
 62
7
  6
CONTINUOUS
 10
-25.0189727224
 20
27.1575337125
 30
0.0
 11
0.199943508
 21
0.008945986
 31
0.0
 40
0.5313301283
 41
-2.3799630874
 42
-0.8266200532
  0
ELLIPSE
  5
774
100
AcDbEntity
  8
RACCORDO
100
AcDbEllipse
 62
7
  6
CONTINUOUS
 10
-27.3096211195
 20
28.3028579111
 30
0.0
 11
0.199943508
 21
0.008945986
 31
0.0
 40
0.5313301283
 41
3.117765999
 42
3.9032222197
  0
ELLIPSE
  5
775
100
AcDbEntity
  8
RACCORDO
100
AcDbEllipse
 62
7
  6
CONTINUOUS
 10
-21.3066621212
 20
25.3013784119
 30
0.0
 11
0.199943508
 21
0.008945986
 31
0.0
 40
0.5313301283
 41
-2.3799630874
 42
-0.8266200532
  0
ELLIPSE
  5
776
100
AcDbEntity
  8
RACCORDO
100
AcDbEllipse
 62
7
  6
CONTINUOUS
 10
-23.5973105183
 20
26.4467026105
 30
0.0
 11
0.199943508
 21
0.008945986
 31
0.0
 40
0.5313301283
 41
3.117765999
 42
3.9032222197
  0
ELLIPSE
  5
777
100
AcDbEntity
  8
RACCORDO
100
AcDbEllipse
 62
7
  6
CONTINUOUS
 10
-32.2829930762
 20
30.0746753025
 30
0.0
 11
0.249929385
 21
0.0111824824
 31
0.0
 40
0.5313301283
 41
3.118062645
 42
3.9032222197
  0
ELLIPSE
  5
778
100
AcDbEntity
  8
RACCORDO
100
AcDbEllipse
 62
7
  6
CONTINUOUS
 10
-30.2632937538
 20
29.0648256413
 30
0.0
 11
0.249929385
 21
0.0111824824
 31
0.0
 40
0.5313301283
 41
-2.3799630874
 42
-0.8266200532
  0
ELLIPSE
  5
779
100
AcDbEntity
  8
RACCORDO
100
AcDbEllipse
 62
7
  6
CONTINUOUS
 10
-19.6964923711
 20
23.7814249499
 30
0.0
 11
0.249929385
 21
0.0111824824
 31
0.0
 40
0.5313301283
 41
3.117765999
 42
3.9032222197
  0
ELLIPSE
  5
77A
100
AcDbEntity
  8
RACCORDO
100
AcDbEllipse
 62
7
  6
CONTINUOUS
 10
-17.6767930487
 20
22.7715752887
 30
0.0
 11
0.249929385
 21
0.0111824824
 31
0.0
 40
0.5313301283
 41
-2.3799630874
 42
-0.8266200532
  0
ELLIPSE
  5
77B
100
AcDbEntity
  8
RACCORDO
100
AcDbEllipse
 62
7
  6
CONTINUOUS
 10
-31.8834680532
 20
29.1224195416
 30
0.0
 11
0.249929385
 21
0.0111824824
 31
0.0
 40
0.5313301283
 41
-2.3799630874
 42
-0.8266200532
  0
ELLIPSE
  5
77C
100
AcDbEntity
  8
RACCORDO
100
AcDbEllipse
 62
7
  6
CONTINUOUS
 10
-0.2572271859
 20
13.3092991079
 30
0.0
 11
0.249929385
 21
0.0111824824
 31
0.0
 40
0.5313301283
 41
3.117765999
 42
3.9032222197
  0
ELLIPSE
  5
77D
100
AcDbEntity
  8
RACCORDO
100
AcDbEllipse
 62
7
  6
CONTINUOUS
 10
-0.0636628998
 20
13.2125169649
 30
0.0
 11
0.249929385
 21
0.0111824824
 31
0.0
 40
0.5313301283
 41
-2.3799630874
 42
-0.8266200532
  0
ELLIPSE
  5
77E
100
AcDbEntity
  8
RACCORDO
100
AcDbEllipse
 62
7
  6
CONTINUOUS
 10
-0.4631879228
 20
14.1647727258
 30
0.0
 11
0.249929385
 21
0.0111824824
 31
0.0
 40
0.5313301283
 41
3.1177659981
 42
3.9032222197
  0
ELLIPSE
  5
77F
100
AcDbEntity
  8
RACCORDO
100
AcDbEllipse
 62
7
  6
CONTINUOUS
 10
1.5565113996
 20
13.1549230646
 30
0.0
 11
0.249929385
 21
0.0111824824
 31
0.0
 40
0.5313301283
 41
-2.3799630874
 42
-0.8266200532
  0
ELLIPSE
  5
780
100
AcDbEntity
  8
RACCORDO
100
AcDbEllipse
 62
7
  6
CONTINUOUS
 10
12.3292735193
 20
7.0160487554
 30
0.0
 11
0.249929385
 21
0.0111824824
 31
0.0
 40
0.5313301283
 41
3.117765999
 42
3.9032222197
  0
ELLIPSE
  5
781
100
AcDbEntity
  8
RACCORDO
100
AcDbEllipse
 62
7
  6
CONTINUOUS
 10
-19.4905316341
 20
22.9259513321
 30
0.0
 11
0.249929385
 21
0.0111824824
 31
0.0
 40
0.5313301283
 41
3.117765999
 42
3.9032222197
  0
ELLIPSE
  5
782
100
AcDbEntity
  8
RACCORDO
100
AcDbEllipse
 62
7
  6
CONTINUOUS
 10
-32.0770323393
 20
29.2192016846
 30
0.0
 11
0.249929385
 21
0.0111824824
 31
0.0
 40
0.5313301283
 41
3.117765999
 42
3.9032222197
  0
ELLIPSE
  5
783
100
AcDbEntity
  8
RACCORDO
100
AcDbEllipse
 62
7
  6
CONTINUOUS
 10
-19.296967348
 20
22.829169189
 30
0.0
 11
0.249929385
 21
0.0111824824
 31
0.0
 40
0.5313301283
 41
-2.3799630874
 42
-0.8266200532
  0
ELLIPSE
  5
784
100
AcDbEntity
  8
RACCORDO
100
AcDbEllipse
 62
7
  6
CONTINUOUS
 10
12.5228378053
 20
6.9192666123
 30
0.0
 11
0.249929385
 21
0.0111824824
 31
0.0
 40
0.5313301283
 41
-2.3799630874
 42
-0.8266200532
  0
ELLIPSE
  5
785
100
AcDbEntity
  8
RACCORDO
100
AcDbEllipse
 62
7
  6
CONTINUOUS
 10
12.1233127823
 20
7.8715223732
 30
0.0
 11
0.249929385
 21
0.0111824824
 31
0.0
 40
0.5313301283
 41
3.117765999
 42
3.9032222197
  0
ELLIPSE
  5
786
100
AcDbEntity
  8
RACCORDO
100
AcDbEllipse
 62
7
  6
CONTINUOUS
 10
14.1430121047
 20
6.861672712
 30
0.0
 11
0.249929385
 21
0.0111824824
 31
0.0
 40
0.5313301283
 41
-2.3799630874
 42
-1.125412988
  0
ELLIPSE
  5
787
100
AcDbEntity
  8
RACCORDO
100
AcDbEllipse
 62
7
  6
CONTINUOUS
 10
14.1430121047
 20
-32.3803653172
 30
0.0
 11
0.220014872
 21
0.1791173313
 31
0.0
 40
0.6627826692
 41
-2.8510033574
 42
-2.6599685648
  0
ELLIPSE
  5
788
100
AcDbEntity
  8
RACCORDO
100
AcDbEllipse
 62
7
  6
CONTINUOUS
 10
13.3441444655
 20
14.8498356029
 30
0.0
 11
0.2503214863
 21
-0.0601325557
 31
0.0
 40
0.261363135
 41
-0.7257858084
 42
0.0672477981
  0
ELLIPSE
  5
789
100
AcDbEntity
  8
RACCORDO
100
AcDbEllipse
 62
7
  6
CONTINUOUS
 10
-18.4756606879
 20
30.7597381796
 30
0.0
 11
0.2503214863
 21
-0.0601325557
 31
0.0
 40
0.261363135
 41
-0.7257858084
 42
0.0672477981
  0
ELLIPSE
  5
78A
100
AcDbEntity
  8
RACCORDO
100
AcDbEllipse
 62
7
  6
CONTINUOUS
 10
10.6229333703
 20
14.1706097188
 30
0.0
 11
0.9999753489
 21
-0.014348771
 31
0.0
 40
0.4893460778
 41
1.6583991585
 42
2.3628734463
  0
ELLIPSE
  5
78B
100
AcDbEntity
  8
RACCORDO
100
AcDbEllipse
 62
7
  6
CONTINUOUS
 10
10.6229333703
 20
13.6542508359
 30
0.0
 11
1.0
 21
-0.0
 31
0.0
 40
0.5003427338
 41
0.7857407797
 42
1.3334966153
  0
ELLIPSE
  5
78C
100
AcDbEntity
  8
RACCORDO
100
AcDbEllipse
 62
7
  6
CONTINUOUS
 10
10.6229333703
 20
66.4922004847
 30
0.0
 11
0.7093717925
 21
100.9935570733
 31
0.0
 40
0.0069790045
 41
-2.1156864167
 42
-2.1123834047
  0
ELLIPSE
  5
78D
100
AcDbEntity
  8
RACCORDO
100
AcDbEllipse
 62
7
  6
CONTINUOUS
 10
14.2209377196
 20
11.8552486612
 30
0.0
 11
1.0006854676
 21
0.0
 31
0.0
 40
0.499657501
 41
0.5044883182
 42
0.7850555471
  0
ELLIPSE
  5
78E
100
AcDbEntity
  8
RACCORDO
100
AcDbEllipse
 62
7
  6
CONTINUOUS
 10
20.9284744903
 20
10.8092983984
 30
0.0
 11
-0.7295743011
 21
1.2069023924
 31
0.0
 40
0.551692038
 41
5.0917302799
 42
6.2325846508
  0
ELLIPSE
  5
78F
100
AcDbEntity
  8
RACCORDO
100
AcDbEllipse
 62
7
  6
CONTINUOUS
 10
-21.1968717831
 20
30.0805122955
 30
0.0
 11
0.9999753489
 21
-0.014348771
 31
0.0
 40
0.4893460778
 41
1.6583991585
 42
2.3628734463
  0
ELLIPSE
  5
790
100
AcDbEntity
  8
RACCORDO
100
AcDbEllipse
 62
7
  6
CONTINUOUS
 10
-21.1968717831
 20
29.5641534126
 30
0.0
 11
1.0
 21
0.0
 31
0.0
 40
0.5003427338
 41
0.7857407797
 42
1.3334966153
  0
ELLIPSE
  5
791
100
AcDbEntity
  8
RACCORDO
100
AcDbEllipse
 62
7
  6
CONTINUOUS
 10
-21.1968717831
 20
82.4021030614
 30
0.0
 11
0.7093717925
 21
100.9935570733
 31
0.0
 40
0.0069790045
 41
-2.1156864167
 42
-2.1123834047
  0
ELLIPSE
  5
792
100
AcDbEntity
  8
RACCORDO
100
AcDbEllipse
 62
7
  6
CONTINUOUS
 10
-17.5988674338
 20
27.7651512379
 30
0.0
 11
1.0006854676
 21
0.0
 31
0.0
 40
0.499657501
 41
0.5044883182
 42
0.7850555471
  0
ELLIPSE
  5
793
100
AcDbEntity
  8
RACCORDO
100
AcDbEllipse
 62
7
  6
CONTINUOUS
 10
-10.8913306631
 20
26.7192009751
 30
0.0
 11
-0.7295743011
 21
1.2069023924
 31
0.0
 40
0.551692038
 41
4.8301803718
 42
6.2325846508
  0
ELLIPSE
  5
794
100
AcDbEntity
  8
RACCORDO
100
AcDbEllipse
 62
7
  6
CONTINUOUS
 10
12.5228378053
 20
-32.7773849487
 30
0.0
 11
0.220014872
 21
0.1791173313
 31
0.0
 40
0.6627826692
 41
-1.8038058062
 42
-1.2976603231
  0
ELLIPSE
  5
795
100
AcDbEntity
  8
DRAFT
100
AcDbEllipse
 62
7
  6
CONTINUOUS
 10
-4.867189296
 20
34.3681081303
 30
0.0
 11
18.2927339069
 21
9.4748417608
 31
0.0
 40
0.0170707209
 41
-2.6536573066
 42
-2.3141694431
  0
ELLIPSE
  5
796
100
AcDbEntity
  8
DRAFT
100
AcDbEllipse
 62
7
  6
CONTINUOUS
 10
-4.867189296
 20
34.3681081303
 30
0.0
 11
18.2927339069
 21
9.4748417608
 31
0.0
 40
0.0170707209
 41
2.2964861198
 42
2.6359739833
  0
ELLIPSE
  5
797
100
AcDbEntity
  8
DRAFT
100
AcDbEllipse
 62
7
  6
CONTINUOUS
 10
26.9526158574
 20
18.4582055536
 30
0.0
 11
18.2927339069
 21
9.4748417608
 31
0.0
 40
0.0170707209
 41
-2.6536573066
 42
-2.3141694431
  0
ELLIPSE
  5
798
100
AcDbEntity
  8
DRAFT
100
AcDbEllipse
 62
7
  6
CONTINUOUS
 10
26.9526158574
 20
18.4582055536
 30
0.0
 11
18.2927339069
 21
9.4748417608
 31
0.0
 40
0.0170707209
 41
2.2964861198
 42
2.6359739833
  0
ELLIPSE
  5
799
100
AcDbEntity
  8
RACCORDO
100
AcDbEllipse
 62
7
  6
CONTINUOUS
 10
40.7461785515
 20
4.858862684
 30
0.0
 11
0.4997790669
 21
-0.0334108232
 31
0.0
 40
0.4448311488
 41
0.3897187405
 42
2.3771965725
  0
ELLIPSE
  5
79A
100
AcDbEntity
  8
RACCORDO
100
AcDbEllipse
 62
7
  6
CONTINUOUS
 10
40.2782283804
 20
10.6485017418
 30
0.0
 11
0.9990976983
 21
0.0770382382
 31
0.0
 40
0.5512981776
 41
-0.8104286897
 42
-0.0422097588
  0
ELLIPSE
  5
79B
100
AcDbEntity
  8
RACCORDO
100
AcDbEllipse
 62
7
  6
CONTINUOUS
 10
33.9781621864
 20
13.5239284459
 30
0.0
 11
-0.8943231024
 21
1.7889133072
 31
0.0
 40
0.6125552124
 41
5.0635914955
 42
5.5983808594
  0
ELLIPSE
  5
79C
100
AcDbEntity
  8
RACCORDO
100
AcDbEllipse
 62
7
  6
CONTINUOUS
 10
29.6583617052
 20
22.6578551925
 30
0.0
 11
0.2205149116
 21
0.4487546221
 31
0.0
 40
0.607010042
 41
-2.4261608742
 42
-0.2835373161
  0
ELLIPSE
  5
79D
100
AcDbEntity
  8
RACCORDO
100
AcDbEllipse
 62
7
  6
CONTINUOUS
 10
-12.2166156621
 20
30.6842253896
 30
0.0
 11
0.4999969381
 21
-0.0035375912
 31
0.0
 40
0.4946372042
 41
0.7888978189
 42
1.2922178302
  0
ELLIPSE
  5
79E
100
AcDbEntity
  8
RACCORDO
100
AcDbEllipse
 62
7
  6
CONTINUOUS
 10
18.188975929
 20
15.4814295941
 30
0.0
 11
0.4999969381
 21
-0.0035375912
 31
0.0
 40
0.4946372042
 41
0.7888978189
 42
1.2922178304
  0
ELLIPSE
  5
79F
100
AcDbEntity
  8
RACCORDO
100
AcDbEllipse
 62
7
  6
CONTINUOUS
 10
23.1936425254
 20
8.1747271895
 30
0.0
 11
19.8888048497
 21
8.0665739238
 31
0.0
 40
0.0553703863
 41
-1.9303124302
 42
-1.8689669913
  0
ELLIPSE
  5
7A0
100
AcDbEntity
  8
RACCORDO
100
AcDbEllipse
 62
7
  6
CONTINUOUS
 10
29.3704470988
 20
22.2644648382
 30
0.0
 11
0.4410298232
 21
0.8975092442
 31
0.0
 40
0.607010042
 41
5.9996479911
 42
6.946257209
  0
ELLIPSE
  5
7A1
100
AcDbEntity
  8
DRAFT
100
AcDbEllipse
 62
7
  6
CONTINUOUS
 10
15.2542673627
 20
-26.4200330353
 30
0.0
 11
-0.8948036428
 21
1.7893404542
 31
0.0
 40
0.6121897086
 41
-3.0272807321
 42
-2.8742973988
  0
ELLIPSE
  5
7A2
100
AcDbEntity
  8
RACCORDO
100
AcDbEllipse
 62
7
  6
CONTINUOUS
 10
-3.1302935238
 20
18.7252909829
 30
0.0
 11
0.9999763657
 21
-0.0140528498
 31
0.0
 40
0.4892375088
 41
-0.778522928
 42
0.0068749681
  0
ELLIPSE
  5
7A3
100
AcDbEntity
  8
RACCORDO
100
AcDbEllipse
 62
7
  6
CONTINUOUS
 10
40.2782283804
 20
4.8053036047
 30
0.0
 11
0.9995581339
 21
-0.0668216463
 31
0.0
 40
0.4448311488
 41
-0.7382161423
 42
0.3897187405
  0
ELLIPSE
  5
7A4
100
AcDbEntity
  8
DRAFT
100
AcDbEllipse
 62
7
  6
CONTINUOUS
 10
15.2542673627
 20
4.2367385789
 30
0.0
 11
-0.8943231024
 21
1.7889133072
 31
0.0
 40
0.6125552124
 41
4.5171870738
 42
4.7994350614
  0
ELLIPSE
  5
7A5
100
AcDbEntity
  8
RACCORDO
100
AcDbEllipse
 62
7
  6
CONTINUOUS
 10
16.5743193168
 20
-25.7078347218
 30
0.0
 11
-0.8948036428
 21
1.7893404542
 31
0.0
 40
0.6121897086
 41
-2.4998057158
 42
-2.2557347926
  0
ELLIPSE
  5
7A6
100
AcDbEntity
  8
RACCORDO
100
AcDbEllipse
 62
7
  6
CONTINUOUS
 10
23.1936425254
 20
-22.1365579922
 30
0.0
 11
19.8809848504
 21
12.40613637
 31
0.0
 40
0.0575916258
 41
4.3394251938
 42
4.4007489865
  0
ELLIPSE
  5
7A7
100
AcDbEntity
  8
RACCORDO
100
AcDbEllipse
 62
7
  6
CONTINUOUS
 10
16.5743193168
 20
4.8914940797
 30
0.0
 11
-0.8943231024
 21
1.7889133072
 31
0.0
 40
0.6125552124
 41
-2.255296188
 42
-2.0112252649
  0
ENDSEC
  0
SECTION
  2
OBJECTS
  0
DICTIONARY
  5
C
100
AcDbDictionary
280
0
281
1
  3
ACAD_GROUP
350
D
  3
ACAD_MLINESTYLE
350
17
  3
ACAD_LAYOUT
350
1A
  3
ACAD_PLOTSETTINGS
350
19
  3
ACAD_PLOTSTYLENAME
350
E
  0
DICTIONARY
  5
D
102
{ACAD_REACTORS
330
C
102
}
100
AcDbDictionary
280
0
281
1
  0
ACDBDICTIONARYWDFLT
  5
E
102
{ACAD_REACTORS
330
C
102
}
100
AcDbDictionary
281
1
  3
Normal
350
F
100
AcDbDictionaryWithDefault
340
F
  0
DICTIONARY
  5
17
102
{ACAD_REACTORS
330
C
102
}
100
AcDbDictionary
280
0
281
1
  3
Standard
350
18
  0
DICTIONARY
  5
19
102
{ACAD_REACTORS
330
C
102
}
100
AcDbDictionary
281
1
  0
DICTIONARY
  5
1A
102
{ACAD_REACTORS
330
C
102
}
100
AcDbDictionary
281
1
  3
Model
350
7A8
  3
Layout1
350
7A9
  0
ACDBPLACEHOLDER
  5
F
102
{ACAD_REACTORS
330
E
102
}
  0
MLINESTYLE
  5
18
102
{ACAD_REACTORS
330
17
102
}
100
AcDbMlineStyle
  2
STANDARD
 70
0
  3

 62
256
 51
90.0
 52
90.0
 71
2
 49
0.5
 62
256
  6
BYLAYER
 49
-0.5
 62
256
  6
BYLAYER
  0
LAYOUT
  5
7A8
102
{ACAD_REACTORS
330
1A
102
}
100
AcDbPlotSettings
  1

  2
none_device
  4
ISO_A4_(297.00_x_210.00_MM)
  6

 40
0.0
 41
0.0
 42
0.0
 43
0.0
 44
297.0
 45
210.0
 46
0.0
 47
0.0
 48
0.0
 49
0.0
140
0.0
141
0.0
142
1.0
143
1.0
 70
1024
 72
1
 73
0
 74
0
  7

 75
0
147
1.0
148
0.0
149
0.0
100
AcDbLayout
  1
Model
 70
0
 71
0
 10
0.0
 20
0.0
 11
297.0
 21
210.0
 12
0.0
 22
0.0
 32
0.0
 14
0.0
 24
0.0
 34
0.0
 15
0.0
 25
0.0
 35
0.0
146
0.0
 13
0.0
 23
0.0
 33
0.0
 16
1.0
 26
0.0
 36
0.0
 17
0.0
 27
1.0
 37
0.0
 76
0
330
319
345
0
346
0
  0
LAYOUT
  5
7A9
102
{ACAD_REACTORS
330
1A
102
}
100
AcDbPlotSettings
  1

  2
none_device
  4
ISO_A4_(297.00_x_210.00_MM)
  6

 40
0.0
 41
0.0
 42
0.0
 43
0.0
 44
297.0
 45
210.0
 46
0.0
 47
0.0
 48
0.0
 49
0.0
140
0.0
141
0.0
142
1.0
143
1.0
 70
0
 72
1
 73
0
 74
0
  7

 75
0
147
1.0
148
0.0
149
0.0
100
AcDbLayout
  1
Layout1
 70
0
 71
1
 10
0.0
 20
0.0
 11
297.0
 21
210.0
 12
0.0
 22
0.0
 32
0.0
 14
0.0
 24
0.0
 34
0.0
 15
0.0
 25
0.0
 35
0.0
146
0.0
 13
0.0
 23
0.0
 33
0.0
 16
1.0
 26
0.0
 36
0.0
 17
0.0
 27
1.0
 37
0.0
 76
0
330
31A
345
0
346
0
  0
ENDSEC
  0
EOF
