  0
SECTION
  2
HEADER
  9
$ACADVER
  1
AC1021
  9
$DWGCODEPAGE
  3
ANSI_1252
  9
$EXTMAX
 10
297.0
 20
210.0
 30
0.0
  9
$EXTMIN
 10
0.0
 20
0.0
 30
0.0
  9
$LIMMIN
 10
0.0
 20
0.0
  9
$LIMMAX
 10
297.0
 20
210.0
  9
$VIEWCTR
 10
148.5
 20
105.0
  9
$VIEWSIZE
 40
210.0
  9
$CLAYER
  8
0
  9
$LTSCALE
 40
16.335
  9
$CELTYPE
  6
BYLAYER
  9
$DIMSCALE
 40
1.0
  9
$DIMASZ
 40
3.0
  9
$DIMEXO
 40
1.85625
  9
$DIMDLI
 40
11.286
  9
$DIMEXE
 40
5.346
  9
$DIMCEN
 40
2.673
  9
$DIMLFAC
 40
1.0
  9
$DIMBLK
  1
_FILLED
  9
$DIMTXT
 40
3.0
  9
$DIMTOL
 70
1
  9
$DIMLIM
 70
0
  9
$DIMTFAC
 40
1.0
  9
$DIMTP
 40
0.01
  9
$DIMTM
 40
0.01
  9
$PDMODE
 70
3
  9
$PDSIZE
 40
3.0
  9
$HANDSEED
  5
39A
  9
$TILEMODE
 70
1
  9
$MEASUREMENT
 70
1
  9
$INSUNITS
 70
4
  0
ENDSEC
  0
SECTION
  2
CLASSES
  0
CLASS
  1
ACDBDICTIONARYWDFLT
  2
AcDbDictionaryWithDefault
  3
AutoCAD 2000
 90
0
 91
1
280
0
281
0
  0
CLASS
  1
ACDBPLACEHOLDER
  2
AcDbPlaceHolder
  3
AutoCAD 2000
 90
0
 91
1
280
0
281
0
  0
CLASS
  1
LAYOUT
  2
AcDbLayout
  3
AutoCAD 2000
 90
0
 91
0
280
0
281
0
  0
ENDSEC
  0
SECTION
  2
TABLES
  0
TABLE
  2
VPORT
  5
8
100
AcDbSymbolTable
 70
2
  0
VPORT
  5
1F4
100
AcDbSymbolTableRecord
100
AcDbViewportTableRecord
  2
*ACTIVE
 70
0
 10
0.0
 20
0.0
 11
1.0
 21
1.0
 12
148.5
 22
105.0
 13
0.0
 23
0.0
 14
1.0
 24
1.0
 15
0.0
 25
0.0
 16
0.0
 26
0.0
 36
1.0
 17
0.0
 27
0.0
 37
0.0
 40
210.0
 41
1.4142857143
 42
50.0
 43
0.0
 44
0.0
 50
0.0
 51
0.0
 71
0
 72
100
 73
1
 74
1
 75
0
 76
0
 77
0
 78
0
  0
ENDTAB
  0
TABLE
  2
LTYPE
  5
5
100
AcDbSymbolTable
 70
6
  0
LTYPE
  5
14
100
AcDbSymbolTableRecord
100
AcDbLinetypeTableRecord
  2
BYBLOCK
 70
0
  3

 72
65
 73
0
 40
0.0
  0
LTYPE
  5
15
100
AcDbSymbolTableRecord
100
AcDbLinetypeTableRecord
  2
BYLAYER
 70
0
  3

 72
65
 73
0
 40
0.0
  0
LTYPE
  5
16
100
AcDbSymbolTableRecord
100
AcDbLinetypeTableRecord
  2
CONTINUOUS
 70
64
  3
Solid line
 72
65
 73
0
 40
0.0
  0
LTYPE
  5
1F5
100
AcDbSymbolTableRecord
100
AcDbLinetypeTableRecord
  2
CENTER
 70
64
  3
____ _ ____ _ ____ _ ____ _ ____ _ ____ _ ____
 72
65
 73
4
 40
0.6
 49
0.375
 74
0
 49
-0.075
 74
0
 49
0.075
 74
0
 49
-0.075
 74
0
  0
LTYPE
  5
1F6
100
AcDbSymbolTableRecord
100
AcDbLinetypeTableRecord
  2
HIDDEN
 70
64
  3
- - - - - - - - - - - - - - - - - - - -
 72
65
 73
2
 40
0.2
 49
0.1
 74
0
 49
-0.1
 74
0
  0
LTYPE
  5
1F7
100
AcDbSymbolTableRecord
100
AcDbLinetypeTableRecord
  2
PHANTOM
 70
64
  3
_____ _ _ _____ _ _ _____ _ _ _____
 72
65
 73
6
 40
0.8
 49
0.45
 74
0
 49
-0.05
 74
0
 49
0.1
 74
0
 49
-0.05
 74
0
 49
0.1
 74
0
 49
-0.05
 74
0
  0
LTYPE
  5
1F8
100
AcDbSymbolTableRecord
100
AcDbLinetypeTableRecord
  2
DOT
 70
64
  3
. . . . . . . . . . . . . . . . . . . .
 72
65
 73
2
 40
0.2
 49
0.1
 74
0
 49
-0.1
 74
0
  0
LTYPE
  5
1F9
100
AcDbSymbolTableRecord
100
AcDbLinetypeTableRecord
  2
DASHED
 70
64
  3
- - - - - - - - - - - - - - - - - - - -
 72
65
 73
2
 40
0.2
 49
0.1
 74
0
 49
-0.1
 74
0
  0
ENDTAB
  0
TABLE
  2
LAYER
  5
2
100
AcDbSymbolTable
 70
36
  0
LAYER
  5
10
100
AcDbSymbolTableRecord
100
AcDbLayerTableRecord
  2
0
 70
0
 62
7
  6
CONTINUOUS
370
-3
390
F
  0
LAYER
  5
1FA
100
AcDbSymbolTableRecord
100
AcDbLayerTableRecord
  2
DEFAULT_1
 70
0
 62
7
  6
CENTER
370
-3
390
F
  0
LAYER
  5
1FB
100
AcDbSymbolTableRecord
100
AcDbLayerTableRecord
  2
DEFAULT_2
 70
0
 62
7
  6
HIDDEN
370
-3
390
F
  0
LAYER
  5
1FC
100
AcDbSymbolTableRecord
100
AcDbLayerTableRecord
  2
DEFAULT_3
 70
0
 62
7
  6
PHANTOM
370
-3
390
F
  0
LAYER
  5
1FD
100
AcDbSymbolTableRecord
100
AcDbLayerTableRecord
  2
ASSI
 70
0
 62
7
  6
CONTINUOUS
370
-3
390
F
  0
LAYER
  5
1FE
100
AcDbSymbolTableRecord
100
AcDbLayerTableRecord
  2
COLOR3
 70
0
 62
7
  6
CONTINUOUS
370
-3
390
F
  0
LAYER
  5
1FF
100
AcDbSymbolTableRecord
100
AcDbLayerTableRecord
  2
COORDINATE
 70
0
 62
7
  6
CONTINUOUS
370
-3
390
F
  0
LAYER
  5
200
100
AcDbSymbolTableRecord
100
AcDbLayerTableRecord
  2
COPY_PUBLISH
 70
0
 62
7
  6
CONTINUOUS
370
-3
390
F
  0
LAYER
  5
201
100
AcDbSymbolTableRecord
100
AcDbLayerTableRecord
  2
COSMETIC
 70
0
 62
7
  6
CONTINUOUS
370
-3
390
F
  0
LAYER
  5
202
100
AcDbSymbolTableRecord
100
AcDbLayerTableRecord
  2
COSMETICI
 70
0
 62
7
  6
CONTINUOUS
370
-3
390
F
  0
LAYER
  5
203
100
AcDbSymbolTableRecord
100
AcDbLayerTableRecord
  2
CURVE
 70
0
 62
7
  6
CONTINUOUS
370
-3
390
F
  0
LAYER
  5
204
100
AcDbSymbolTableRecord
100
AcDbLayerTableRecord
  2
DRAFT
 70
0
 62
7
  6
CONTINUOUS
370
-3
390
F
  0
LAYER
  5
205
100
AcDbSymbolTableRecord
100
AcDbLayerTableRecord
  2
IMPORT_IGES
 70
0
 62
7
  6
CONTINUOUS
370
-3
390
F
  0
LAYER
  5
206
100
AcDbSymbolTableRecord
100
AcDbLayerTableRecord
  2
INTFCLR_1
 70
0
 62
7
  6
CONTINUOUS
370
-3
390
F
  0
LAYER
  5
207
100
AcDbSymbolTableRecord
100
AcDbLayerTableRecord
  2
INTF_1
 70
0
 62
7
  6
CONTINUOUS
370
-3
390
F
  0
LAYER
  5
208
100
AcDbSymbolTableRecord
100
AcDbLayerTableRecord
  2
INTF_10
 70
0
 62
7
  6
CONTINUOUS
370
-3
390
F
  0
LAYER
  5
209
100
AcDbSymbolTableRecord
100
AcDbLayerTableRecord
  2
INTF_13
 70
0
 62
7
  6
CONTINUOUS
370
-3
390
F
  0
LAYER
  5
20A
100
AcDbSymbolTableRecord
100
AcDbLayerTableRecord
  2
INTF_15
 70
0
 62
7
  6
CONTINUOUS
370
-3
390
F
  0
LAYER
  5
20B
100
AcDbSymbolTableRecord
100
AcDbLayerTableRecord
  2
INTF_16
 70
0
 62
7
  6
CONTINUOUS
370
-3
390
F
  0
LAYER
  5
20C
100
AcDbSymbolTableRecord
100
AcDbLayerTableRecord
  2
INTF_18
 70
0
 62
7
  6
CONTINUOUS
370
-3
390
F
  0
LAYER
  5
20D
100
AcDbSymbolTableRecord
100
AcDbLayerTableRecord
  2
INTF_20
 70
0
 62
7
  6
CONTINUOUS
370
-3
390
F
  0
LAYER
  5
20E
100
AcDbSymbolTableRecord
100
AcDbLayerTableRecord
  2
INTF_3
 70
0
 62
7
  6
CONTINUOUS
370
-3
390
F
  0
LAYER
  5
20F
100
AcDbSymbolTableRecord
100
AcDbLayerTableRecord
  2
INTF_5
 70
0
 62
7
  6
CONTINUOUS
370
-3
390
F
  0
LAYER
  5
210
100
AcDbSymbolTableRecord
100
AcDbLayerTableRecord
  2
INTF_8
 70
0
 62
7
  6
CONTINUOUS
370
-3
390
F
  0
LAYER
  5
211
100
AcDbSymbolTableRecord
100
AcDbLayerTableRecord
  2
NOTE
 70
0
 62
7
  6
CONTINUOUS
370
-3
390
F
  0
LAYER
  5
212
100
AcDbSymbolTableRecord
100
AcDbLayerTableRecord
  2
PIANI
 70
0
 62
7
  6
CONTINUOUS
370
-3
390
F
  0
LAYER
  5
213
100
AcDbSymbolTableRecord
100
AcDbLayerTableRecord
  2
PUNTI
 70
0
 62
7
  6
CONTINUOUS
370
-3
390
F
  0
LAYER
  5
214
100
AcDbSymbolTableRecord
100
AcDbLayerTableRecord
  2
RACCORDO
 70
0
 62
7
  6
CONTINUOUS
370
-3
390
F
  0
LAYER
  5
215
100
AcDbSymbolTableRecord
100
AcDbLayerTableRecord
  2
SIMBOLI
 70
0
 62
7
  6
CONTINUOUS
370
-3
390
F
  0
LAYER
  5
216
100
AcDbSymbolTableRecord
100
AcDbLayerTableRecord
  2
SMUSSO
 70
0
 62
7
  6
CONTINUOUS
370
-3
390
F
  0
LAYER
  5
217
100
AcDbSymbolTableRecord
100
AcDbLayerTableRecord
  2
SNAPLINE
 70
0
 62
7
  6
CONTINUOUS
370
-3
390
F
  0
LAYER
  5
218
100
AcDbSymbolTableRecord
100
AcDbLayerTableRecord
  2
SOLIDO
 70
0
 62
7
  6
CONTINUOUS
370
-3
390
F
  0
LAYER
  5
219
100
AcDbSymbolTableRecord
100
AcDbLayerTableRecord
  2
SUPERFICI
 70
0
 62
7
  6
CONTINUOUS
370
-3
390
F
  0
LAYER
  5
21A
100
AcDbSymbolTableRecord
100
AcDbLayerTableRecord
  2
SUPERFICI_SKEL
 70
0
 62
7
  6
CONTINUOUS
370
-3
390
F
  0
LAYER
  5
21B
100
AcDbSymbolTableRecord
100
AcDbLayerTableRecord
  2
TRASH
 70
0
 62
7
  6
CONTINUOUS
370
-3
390
F
  0
LAYER
  5
21C
100
AcDbSymbolTableRecord
100
AcDbLayerTableRecord
  2
___SHELL
 70
0
 62
7
  6
CONTINUOUS
370
-3
390
F
  0
ENDTAB
  0
TABLE
  2
STYLE
  5
3
100
AcDbSymbolTable
 70
1
  0
STYLE
  5
11
100
AcDbSymbolTableRecord
100
AcDbTextStyleTableRecord
  2
STANDARD
 70
0
 40
0.0
 41
0.8
 50
0.0
 71
0
 42
0.2
  3
txt
  4

  0
STYLE
  5
21D
100
AcDbSymbolTableRecord
100
AcDbTextStyleTableRecord
  2
TEXTSTYLE_1
 70
0
 40
0.0
 41
0.8
 50
0.0
 71
0
 42
0.2
  3
gdt
  4

  0
ENDTAB
  0
TABLE
  2
VIEW
  5
6
100
AcDbSymbolTable
 70
0
  0
ENDTAB
  0
TABLE
  2
UCS
  5
7
100
AcDbSymbolTable
 70
0
  0
ENDTAB
  0
TABLE
  2
APPID
  5
9
100
AcDbSymbolTable
 70
1
  0
APPID
  5
21E
100
AcDbSymbolTableRecord
100
AcDbRegAppTableRecord
  2
ACAD
 70
0
  0
ENDTAB
  0
TABLE
  2
BLOCK_RECORD
  5
1
100
AcDbSymbolTable
 70
0
  0
BLOCK_RECORD
  5
21F
100
AcDbSymbolTableRecord
100
AcDbBlockTableRecord
  2
*Model_Space
  0
BLOCK_RECORD
  5
220
100
AcDbSymbolTableRecord
100
AcDbBlockTableRecord
  2
*Paper_Space
  0
ENDTAB
  0
TABLE
  2
DIMSTYLE
  5
A
100
AcDbSymbolTable
 70
1
100
AcDbDimStyleTable
 71
0
  0
DIMSTYLE
105
221
100
AcDbSymbolTableRecord
100
AcDbDimStyleTableRecord
  2
STANDARD
 70
0
  3

  4

 40
1.0
 41
3.0
 42
0.0625
 43
0.38
 44
0.18
 45
0.0
 46
0.0
 47
0.01
 48
0.01
140
3.0
141
0.09
142
0.0
143
25.4
144
1.0
145
0.0
146
1.0
147
0.09
 71
1.0
 72
0.0
 73
0
 74
0
 75
0
 76
0
 77
1
 78
8
170
0
171
2
172
0
173
0
174
0
175
0
176
0
177
0
178
0
270
2
271
2
272
2
273
2
274
2
275
0
280
0
281
0
282
0
283
1
284
8
285
0
286
0
287
3
288
0
340
11
  0
ENDTAB
  0
ENDSEC
  0
SECTION
  2
BLOCKS
  0
BLOCK
  5
20
100
AcDbEntity
  8
0
100
AcDbBlockBegin
  2
*Model_Space
 70
0
 10
0.0
 20
0.0
 30
0.0
  3
*Model_Space
  1

  0
ENDBLK
  5
21
100
AcDbEntity
  8
0
100
AcDbBlockEnd
  0
BLOCK
  5
1C
100
AcDbEntity
  8
0
100
AcDbBlockBegin
  2
*Paper_Space
 70
0
 10
0.0
 20
0.0
 30
0.0
  3
*Paper_Space
  1

  0
ENDBLK
  5
1D
100
AcDbEntity
  8
0
100
AcDbBlockEnd
  0
ENDSEC
  0
SECTION
  2
ENTITIES
  0
LWPOLYLINE
  5
222
100
AcDbEntity
  8
0
100
AcDbPolyline
 62
7
  6
CONTINUOUS
 90
18
 70
0
 10
124.5218284577
 20
130.6400238379
 10
124.4649015645
 20
130.5815752128
 10
124.4116934106
 20
130.5197567843
 10
124.3620567673
 20
130.4550878371
 10
124.3156735553
 20
130.3877722253
 10
124.2723047303
 20
130.3178989052
 10
124.2319438787
 20
130.2458133542
 10
124.1945730631
 20
130.1717601765
 10
124.1601784008
 20
130.0958710108
 10
124.1288378944
 20
130.0184316233
 10
124.1006589217
 20
129.9397002504
 10
124.0757260929
 20
129.8598194556
 10
124.0541862166
 20
129.7790148652
 10
124.0362438696
 20
129.697568787
 10
124.0220731448
 20
129.6155313777
 10
124.0119379729
 20
129.532952843
 10
124.006180749
 20
129.4501199973
 10
124.0055118531
 20
129.4309660424
  0
LWPOLYLINE
  5
223
100
AcDbEntity
  8
ASSI
100
AcDbPolyline
 62
7
  6
CONTINUOUS
 90
18
 70
0
 10
124.5218284577
 20
130.6400238379
 10
124.4649015645
 20
130.5815752128
 10
124.4116934106
 20
130.5197567843
 10
124.3620567673
 20
130.4550878371
 10
124.3156735553
 20
130.3877722253
 10
124.2723047303
 20
130.3178989052
 10
124.2319438787
 20
130.2458133542
 10
124.1945730631
 20
130.1717601765
 10
124.1601784008
 20
130.0958710108
 10
124.1288378944
 20
130.0184316233
 10
124.1006589217
 20
129.9397002504
 10
124.0757260929
 20
129.8598194556
 10
124.0541862166
 20
129.7790148652
 10
124.0362438696
 20
129.697568787
 10
124.0220731448
 20
129.6155313777
 10
124.0119379729
 20
129.532952843
 10
124.006180749
 20
129.4501199973
 10
124.0055118531
 20
129.4309660424
  0
LINE
  5
224
100
AcDbEntity
  8
0
100
AcDbLine
 62
7
  6
CONTINUOUS
 10
125.9330649377
 20
131.9727764093
 11
124.5218284577
 21
130.6400238379
  0
LINE
  5
225
100
AcDbEntity
  8
ASSI
100
AcDbLine
 62
7
  6
CONTINUOUS
 10
125.9330649377
 20
131.9727764093
 11
124.5218284577
 21
130.6400238379
  0
LINE
  5
226
100
AcDbEntity
  8
0
100
AcDbLine
 62
253
  6
CONTINUOUS
 10
126.251691231
 20
131.9968521172
 11
124.8577391355
 21
130.6804967047
  0
LINE
  5
227
100
AcDbEntity
  8
ASSI
100
AcDbLine
 62
253
  6
CONTINUOUS
 10
126.251691231
 20
131.9968521172
 11
124.8577391355
 21
130.6804967047
  0
LINE
  5
228
100
AcDbEntity
  8
0
100
AcDbLine
 62
7
  6
CONTINUOUS
 10
124.529903625
 20
130.6477232147
 11
124.5294580377
 21
130.6473036432
  0
LINE
  5
229
100
AcDbEntity
  8
ASSI
100
AcDbLine
 62
7
  6
CONTINUOUS
 10
124.529903625
 20
130.6477232147
 11
124.5294580377
 21
130.6473036432
  0
LWPOLYLINE
  5
22A
100
AcDbEntity
  8
0
100
AcDbPolyline
 62
253
  6
CONTINUOUS
 90
22
 70
0
 10
124.8577391354
 20
130.6804967046
 10
124.8085787817
 20
130.6352266927
 10
124.7598115782
 20
130.585495846
 10
124.7116959805
 20
130.5315442381
 10
124.6645047538
 20
130.47362717
 10
124.6184694492
 20
130.412030823
 10
124.5737795501
 20
130.3470696407
 10
124.5306678756
 20
130.2790545791
 10
124.4893663771
 20
130.2083178075
 10
124.4500505356
 20
130.1352277373
 10
124.4129259883
 20
130.0601424261
 10
124.3781901016
 20
129.9834242409
 10
124.3459880321
 20
129.9054634636
 10
124.3164863457
 20
129.8266404717
 10
124.2898431782
 20
129.7473386321
 10
124.2661694324
 20
129.6679593919
 10
124.2455874256
 20
129.5888974685
 10
124.2282061524
 20
129.5105313614
 10
124.2140940746
 20
129.433236782
 10
124.2033197792
 20
129.3573901283
 10
124.1959491665
 20
129.283366063
 10
124.192022541
 20
129.2115285133
  0
LWPOLYLINE
  5
22B
100
AcDbEntity
  8
ASSI
100
AcDbPolyline
 62
253
  6
CONTINUOUS
 90
22
 70
0
 10
124.8577391354
 20
130.6804967046
 10
124.8085787817
 20
130.6352266927
 10
124.7598115782
 20
130.585495846
 10
124.7116959805
 20
130.5315442381
 10
124.6645047538
 20
130.47362717
 10
124.6184694492
 20
130.412030823
 10
124.5737795501
 20
130.3470696407
 10
124.5306678756
 20
130.2790545791
 10
124.4893663771
 20
130.2083178075
 10
124.4500505356
 20
130.1352277373
 10
124.4129259883
 20
130.0601424261
 10
124.3781901016
 20
129.9834242409
 10
124.3459880321
 20
129.9054634636
 10
124.3164863457
 20
129.8266404717
 10
124.2898431782
 20
129.7473386321
 10
124.2661694324
 20
129.6679593919
 10
124.2455874256
 20
129.5888974685
 10
124.2282061524
 20
129.5105313614
 10
124.2140940746
 20
129.433236782
 10
124.2033197792
 20
129.3573901283
 10
124.1959491665
 20
129.283366063
 10
124.192022541
 20
129.2115285133
  0
LINE
  5
22C
100
AcDbEntity
  8
0
100
AcDbLine
 62
7
  6
CONTINUOUS
 10
132.0574363727
 20
129.6651339808
 11
131.4215314557
 21
129.4689668966
  0
LINE
  5
22D
100
AcDbEntity
  8
ASSI
100
AcDbLine
 62
7
  6
CONTINUOUS
 10
132.0574363727
 20
129.6651339808
 11
131.4215314557
 21
129.4689668966
  0
LWPOLYLINE
  5
22E
100
AcDbEntity
  8
0
100
AcDbPolyline
 62
253
  6
CONTINUOUS
 90
10
 70
0
 10
123.7576637226
 20
112.7238716056
 10
123.7599872983
 20
112.6961351685
 10
123.7670191463
 20
112.6685787977
 10
123.778692832
 20
112.641540692
 10
123.7948978996
 20
112.6152766617
 10
123.8154810364
 20
112.5900351689
 10
123.8402475179
 20
112.5660550029
 10
123.8689630411
 20
112.543563029
 10
123.901355934
 20
112.5227720403
 10
123.9371197379
 20
112.5038787339
  0
LWPOLYLINE
  5
22F
100
AcDbEntity
  8
ASSI
100
AcDbPolyline
 62
253
  6
CONTINUOUS
 90
10
 70
0
 10
123.7576637226
 20
112.7238716056
 10
123.7599872983
 20
112.6961351685
 10
123.7670191463
 20
112.6685787977
 10
123.778692832
 20
112.641540692
 10
123.7948978996
 20
112.6152766617
 10
123.8154810364
 20
112.5900351689
 10
123.8402475179
 20
112.5660550029
 10
123.8689630411
 20
112.543563029
 10
123.901355934
 20
112.5227720403
 10
123.9371197379
 20
112.5038787339
  0
LWPOLYLINE
  5
230
100
AcDbEntity
  8
0
100
AcDbPolyline
 62
253
  6
CONTINUOUS
 90
12
 70
0
 10
124.1920226479
 20
95.0082422875
 10
124.1959492838
 20
94.9424481092
 10
124.2033199043
 20
94.8799433866
 10
124.2140942045
 20
94.8210369255
 10
124.2282062827
 20
94.7660269542
 10
124.2455875527
 20
94.7151788402
 10
124.2661695557
 20
94.6687267092
 10
124.2898432985
 20
94.6269032661
 10
124.3164864627
 20
94.5899227501
 10
124.3459881453
 20
94.5579608746
 10
124.3781902106
 20
94.5311834551
 10
124.4122950272
 20
94.5101181089
  0
LWPOLYLINE
  5
231
100
AcDbEntity
  8
ASSI
100
AcDbPolyline
 62
253
  6
CONTINUOUS
 90
12
 70
0
 10
124.1920226479
 20
95.0082422875
 10
124.1959492838
 20
94.9424481092
 10
124.2033199043
 20
94.8799433866
 10
124.2140942045
 20
94.8210369255
 10
124.2282062827
 20
94.7660269542
 10
124.2455875527
 20
94.7151788402
 10
124.2661695557
 20
94.6687267092
 10
124.2898432985
 20
94.6269032661
 10
124.3164864627
 20
94.5899227501
 10
124.3459881453
 20
94.5579608746
 10
124.3781902106
 20
94.5311834551
 10
124.4122950272
 20
94.5101181089
  0
LWPOLYLINE
  5
232
100
AcDbEntity
  8
0
100
AcDbPolyline
 62
7
  6
CONTINUOUS
 90
14
 70
0
 10
124.0055480613
 20
95.2339016616
 10
124.0065633922
 20
95.208537312
 10
124.0144324168
 20
95.118920596
 10
124.0285613268
 20
95.0348917357
 10
124.0486390062
 20
94.9563280683
 10
124.074445446
 20
94.8829267164
 10
124.1058058679
 20
94.8145780643
 10
124.1423941948
 20
94.7514966769
 10
124.183926445
 20
94.6937604631
 10
124.2301245955
 20
94.6414887647
 10
124.2804417399
 20
94.5950599095
 10
124.3343758836
 20
94.554661802
 10
124.3915843754
 20
94.5203511054
 10
124.4261574703
 20
94.5032687671
  0
LWPOLYLINE
  5
233
100
AcDbEntity
  8
ASSI
100
AcDbPolyline
 62
7
  6
CONTINUOUS
 90
14
 70
0
 10
124.0055480613
 20
95.2339016616
 10
124.0065633922
 20
95.208537312
 10
124.0144324168
 20
95.118920596
 10
124.0285613268
 20
95.0348917357
 10
124.0486390062
 20
94.9563280683
 10
124.074445446
 20
94.8829267164
 10
124.1058058679
 20
94.8145780643
 10
124.1423941948
 20
94.7514966769
 10
124.183926445
 20
94.6937604631
 10
124.2301245955
 20
94.6414887647
 10
124.2804417399
 20
94.5950599095
 10
124.3343758836
 20
94.554661802
 10
124.3915843754
 20
94.5203511054
 10
124.4261574703
 20
94.5032687671
  0
LWPOLYLINE
  5
234
100
AcDbEntity
  8
0
100
AcDbPolyline
 62
253
  6
CONTINUOUS
 90
9
 70
0
 10
123.9371197379
 20
112.5038787339
 10
123.9385198514
 20
112.4618479769
 10
123.9438306654
 20
112.423369062
 10
123.9526044081
 20
112.388372787
 10
123.9643788177
 20
112.3568585341
 10
123.9793158516
 20
112.3290392933
 10
123.9976802595
 20
112.3053609374
 10
124.0186610171
 20
112.2863972919
 10
124.0417200441
 20
112.2723944072
  0
LWPOLYLINE
  5
235
100
AcDbEntity
  8
ASSI
100
AcDbPolyline
 62
253
  6
CONTINUOUS
 90
9
 70
0
 10
123.9371197379
 20
112.5038787339
 10
123.9385198514
 20
112.4618479769
 10
123.9438306654
 20
112.423369062
 10
123.9526044081
 20
112.388372787
 10
123.9643788177
 20
112.3568585341
 10
123.9793158516
 20
112.3290392933
 10
123.9976802595
 20
112.3053609374
 10
124.0186610171
 20
112.2863972919
 10
124.0417200441
 20
112.2723944072
  0
LWPOLYLINE
  5
236
100
AcDbEntity
  8
0
100
AcDbPolyline
 62
7
  6
CONTINUOUS
 90
10
 70
0
 10
123.7576637606
 20
111.5130217808
 10
123.7621849443
 20
109.7360590047
 10
123.7725597673
 20
107.8981029497
 10
123.7887245953
 20
106.0651656345
 10
123.8106795529
 20
104.2372861246
 10
123.838424573
 20
102.4145012518
 10
123.8719595907
 20
100.5968468504
 10
123.9112839968
 20
98.7843640736
 10
123.9563966818
 20
96.9770988999
 10
124.0055362401
 20
95.2340846654
  0
LWPOLYLINE
  5
237
100
AcDbEntity
  8
ASSI
100
AcDbPolyline
 62
7
  6
CONTINUOUS
 90
10
 70
0
 10
123.7576637606
 20
111.5130217808
 10
123.7621849443
 20
109.7360590047
 10
123.7725597673
 20
107.8981029497
 10
123.7887245953
 20
106.0651656345
 10
123.8106795529
 20
104.2372861246
 10
123.838424573
 20
102.4145012518
 10
123.8719595907
 20
100.5968468504
 10
123.9112839968
 20
98.7843640736
 10
123.9563966818
 20
96.9770988999
 10
124.0055362401
 20
95.2340846654
  0
LWPOLYLINE
  5
238
100
AcDbEntity
  8
0
100
AcDbPolyline
 62
253
  6
CONTINUOUS
 90
10
 70
0
 10
123.9371197892
 20
111.2928149012
 10
123.9414067315
 20
109.6043490612
 10
123.9508613706
 20
107.8948061565
 10
123.9657138717
 20
106.1644095437
 10
123.9860271248
 20
104.4265071246
 10
124.0121251514
 20
102.6681439748
 10
124.045010008
 20
100.8504166272
 10
124.0856159026
 20
98.9608999233
 10
124.1343922626
 20
97.0132935902
 10
124.1920225688
 20
95.0082422562
  0
LWPOLYLINE
  5
239
100
AcDbEntity
  8
ASSI
100
AcDbPolyline
 62
253
  6
CONTINUOUS
 90
10
 70
0
 10
123.9371197892
 20
111.2928149012
 10
123.9414067315
 20
109.6043490612
 10
123.9508613706
 20
107.8948061565
 10
123.9657138717
 20
106.1644095437
 10
123.9860271248
 20
104.4265071246
 10
124.0121251514
 20
102.6681439748
 10
124.045010008
 20
100.8504166272
 10
124.0856159026
 20
98.9608999233
 10
124.1343922626
 20
97.0132935902
 10
124.1920225688
 20
95.0082422562
  0
LWPOLYLINE
  5
23A
100
AcDbEntity
  8
0
100
AcDbPolyline
 62
7
  6
CONTINUOUS
 90
10
 70
0
 10
124.0055150217
 20
129.431298094
 10
123.9565231253
 20
127.6089115523
 10
123.911398105
 20
125.7236446104
 10
123.8720603459
 20
123.8431687082
 10
123.838511045
 20
121.9675299021
 10
123.8107507753
 20
120.0967681161
 10
123.7887798919
 20
118.230920932
 10
123.772598675
 20
116.3700264606
 10
123.7622069971
 20
114.5141243456
 10
123.7576637226
 20
112.7238716056
  0
LWPOLYLINE
  5
23B
100
AcDbEntity
  8
ASSI
100
AcDbPolyline
 62
7
  6
CONTINUOUS
 90
10
 70
0
 10
124.0055150217
 20
129.431298094
 10
123.9565231253
 20
127.6089115523
 10
123.911398105
 20
125.7236446104
 10
123.8720603459
 20
123.8431687082
 10
123.838511045
 20
121.9675299021
 10
123.8107507753
 20
120.0967681161
 10
123.7887798919
 20
118.230920932
 10
123.772598675
 20
116.3700264606
 10
123.7622069971
 20
114.5141243456
 10
123.7576637226
 20
112.7238716056
  0
LWPOLYLINE
  5
23C
100
AcDbEntity
  8
0
100
AcDbPolyline
 62
253
  6
CONTINUOUS
 90
10
 70
0
 10
124.1920225445
 20
129.2115285124
 10
124.1385140563
 20
127.2701639069
 10
124.0920343447
 20
125.3660235413
 10
124.0522713501
 20
123.4989091926
 10
124.0192689309
 20
121.6895754107
 10
123.9922466579
 20
119.9167701911
 10
123.9702399615
 20
118.1177391015
 10
123.9533768311
 20
116.2719450647
 10
123.9422376702
 20
114.4005646305
 10
123.937119791
 20
112.5038787004
  0
LWPOLYLINE
  5
23D
100
AcDbEntity
  8
ASSI
100
AcDbPolyline
 62
253
  6
CONTINUOUS
 90
10
 70
0
 10
124.1920225445
 20
129.2115285124
 10
124.1385140563
 20
127.2701639069
 10
124.0920343447
 20
125.3660235413
 10
124.0522713501
 20
123.4989091926
 10
124.0192689309
 20
121.6895754107
 10
123.9922466579
 20
119.9167701911
 10
123.9702399615
 20
118.1177391015
 10
123.9533768311
 20
116.2719450647
 10
123.9422376702
 20
114.4005646305
 10
123.937119791
 20
112.5038787004
  0
LWPOLYLINE
  5
23E
100
AcDbEntity
  8
0
100
AcDbPolyline
 62
253
  6
CONTINUOUS
 90
16
 70
0
 10
123.937119775
 20
111.292814956
 10
123.9385199094
 20
111.3375938357
 10
123.9438311113
 20
111.3830763241
 10
123.9526054771
 20
111.4293866501
 10
123.964380566
 20
111.4770522172
 10
123.9793183005
 20
111.525760755
 10
123.9976834717
 20
111.5741196285
 10
124.018664873
 20
111.6215733274
 10
124.0419320091
 20
111.6681478629
 10
124.0679792703
 20
111.7129729403
 10
124.0960504325
 20
111.7555147473
 10
124.1254388462
 20
111.7955515366
 10
124.1566727518
 20
111.8324783935
 10
124.1894367293
 20
111.8658281841
 10
124.2225254454
 20
111.895414765
 10
124.2551608289
 20
111.9210463606
  0
LWPOLYLINE
  5
23F
100
AcDbEntity
  8
ASSI
100
AcDbPolyline
 62
253
  6
CONTINUOUS
 90
16
 70
0
 10
123.937119775
 20
111.292814956
 10
123.9385199094
 20
111.3375938357
 10
123.9438311113
 20
111.3830763241
 10
123.9526054771
 20
111.4293866501
 10
123.964380566
 20
111.4770522172
 10
123.9793183005
 20
111.525760755
 10
123.9976834717
 20
111.5741196285
 10
124.018664873
 20
111.6215733274
 10
124.0419320091
 20
111.6681478629
 10
124.0679792703
 20
111.7129729403
 10
124.0960504325
 20
111.7555147473
 10
124.1254388462
 20
111.7955515366
 10
124.1566727518
 20
111.8324783935
 10
124.1894367293
 20
111.8658281841
 10
124.2225254454
 20
111.895414765
 10
124.2551608289
 20
111.9210463606
  0
LINE
  5
240
100
AcDbEntity
  8
0
100
AcDbLine
 62
7
  6
CONTINUOUS
 10
141.2319392687
 20
125.9804467834
 11
140.5960343517
 21
125.7842796992
  0
LINE
  5
241
100
AcDbEntity
  8
ASSI
100
AcDbLine
 62
7
  6
CONTINUOUS
 10
141.2319392687
 20
125.9804467834
 11
140.5960343517
 21
125.7842796992
  0
LWPOLYLINE
  5
242
100
AcDbEntity
  8
0
100
AcDbPolyline
 62
253
  6
CONTINUOUS
 90
16
 70
0
 10
159.7086105882
 20
80.7439798006
 10
159.7519404984
 20
80.7308166513
 10
159.79735653
 20
80.7203288882
 10
159.844418303
 20
80.7126182067
 10
159.8926694795
 20
80.707759374
 10
159.9416421885
 20
80.705799504
 10
159.9908615623
 20
80.7067576009
 10
160.0398503417
 20
80.7106243744
 10
160.0881335034
 20
80.7173623301
 10
160.1352428662
 20
80.7269061328
 10
160.1807216306
 20
80.7391632404
 10
160.2241288085
 20
80.7540148009
 10
160.2650434989
 20
80.7713168051
 10
160.3030689695
 20
80.7909014828
 10
160.3378365035
 20
80.8125789297
 10
160.369008975
 20
80.836138949
  0
LWPOLYLINE
  5
243
100
AcDbEntity
  8
ASSI
100
AcDbPolyline
 62
253
  6
CONTINUOUS
 90
16
 70
0
 10
159.7086105882
 20
80.7439798006
 10
159.7519404984
 20
80.7308166513
 10
159.79735653
 20
80.7203288882
 10
159.844418303
 20
80.7126182067
 10
159.8926694795
 20
80.707759374
 10
159.9416421885
 20
80.705799504
 10
159.9908615623
 20
80.7067576009
 10
160.0398503417
 20
80.7106243744
 10
160.0881335034
 20
80.7173623301
 10
160.1352428662
 20
80.7269061328
 10
160.1807216306
 20
80.7391632404
 10
160.2241288085
 20
80.7540148009
 10
160.2650434989
 20
80.7713168051
 10
160.3030689695
 20
80.7909014828
 10
160.3378365035
 20
80.8125789297
 10
160.369008975
 20
80.836138949
  0
LWPOLYLINE
  5
244
100
AcDbEntity
  8
0
100
AcDbPolyline
 62
7
  6
CONTINUOUS
 90
14
 70
0
 10
159.954124
 20
80.2343815819
 10
159.9598412906
 20
80.2324057203
 10
160.0129055188
 20
80.2167565702
 10
160.0674553721
 20
80.2054659469
 10
160.1232540491
 20
80.1986435639
 10
160.180282183
 20
80.1963925809
 10
160.2383074651
 20
80.1988628696
 10
160.2969285144
 20
80.2061700468
 10
160.3559654957
 20
80.2184092436
 10
160.4151871166
 20
80.2356553053
 10
160.4743526857
 20
80.2579644292
 10
160.5334357002
 20
80.2854804787
 10
160.592378126
 20
80.3183575411
 10
160.6504080515
 20
80.3562681134
  0
LWPOLYLINE
  5
245
100
AcDbEntity
  8
ASSI
100
AcDbPolyline
 62
7
  6
CONTINUOUS
 90
14
 70
0
 10
159.954124
 20
80.2343815819
 10
159.9598412906
 20
80.2324057203
 10
160.0129055188
 20
80.2167565702
 10
160.0674553721
 20
80.2054659469
 10
160.1232540491
 20
80.1986435639
 10
160.180282183
 20
80.1963925809
 10
160.2383074651
 20
80.1988628696
 10
160.2969285144
 20
80.2061700468
 10
160.3559654957
 20
80.2184092436
 10
160.4151871166
 20
80.2356553053
 10
160.4743526857
 20
80.2579644292
 10
160.5334357002
 20
80.2854804787
 10
160.592378126
 20
80.3183575411
 10
160.6504080515
 20
80.3562681134
  0
LINE
  5
246
100
AcDbEntity
  8
0
100
AcDbLine
 62
7
  6
CONTINUOUS
 10
128.3773276531
 20
130.6804138561
 11
128.3779965656
 21
130.6913191234
  0
LINE
  5
247
100
AcDbEntity
  8
ASSI
100
AcDbLine
 62
7
  6
CONTINUOUS
 10
128.3773276531
 20
130.6804138561
 11
128.3779965656
 21
130.6913191234
  0
LINE
  5
248
100
AcDbEntity
  8
0
100
AcDbLine
 62
7
  6
CONTINUOUS
 10
128.4391488211
 20
131.1183198339
 11
128.3779965656
 21
130.6913191234
  0
LINE
  5
249
100
AcDbEntity
  8
ASSI
100
AcDbLine
 62
7
  6
CONTINUOUS
 10
128.4391488211
 20
131.1183198339
 11
128.3779965656
 21
130.6913191234
  0
LWPOLYLINE
  5
24A
100
AcDbEntity
  8
0
100
AcDbPolyline
 62
7
  6
CONTINUOUS
 90
12
 70
0
 10
123.927464072
 20
111.8889935066
 10
123.9150098988
 20
111.8776630493
 10
123.8865061816
 20
111.8485617414
 10
123.8605087147
 20
111.8172926082
 10
123.8371184467
 20
111.7839835118
 10
123.8164949622
 20
111.7488449975
 10
123.7988139987
 20
111.7121741999
 10
123.784168481
 20
111.6741674638
 10
123.7726311225
 20
111.6349592114
 10
123.7643117957
 20
111.5948012585
 10
123.7593075763
 20
111.554048793
 10
123.7576637607
 20
111.5130217758
  0
LWPOLYLINE
  5
24B
100
AcDbEntity
  8
ASSI
100
AcDbPolyline
 62
7
  6
CONTINUOUS
 90
12
 70
0
 10
123.927464072
 20
111.8889935066
 10
123.9150098988
 20
111.8776630493
 10
123.8865061816
 20
111.8485617414
 10
123.8605087147
 20
111.8172926082
 10
123.8371184467
 20
111.7839835118
 10
123.8164949622
 20
111.7488449975
 10
123.7988139987
 20
111.7121741999
 10
123.784168481
 20
111.6741674638
 10
123.7726311225
 20
111.6349592114
 10
123.7643117957
 20
111.5948012585
 10
123.7593075763
 20
111.554048793
 10
123.7576637607
 20
111.5130217758
  0
LINE
  5
24C
100
AcDbEntity
  8
0
100
AcDbLine
 62
7
  6
CONTINUOUS
 10
123.9274496581
 20
111.8889808303
 11
124.2507296734
 21
112.1733143085
  0
LINE
  5
24D
100
AcDbEntity
  8
ASSI
100
AcDbLine
 62
7
  6
CONTINUOUS
 10
123.9274496581
 20
111.8889808303
 11
124.2507296734
 21
112.1733143085
  0
LINE
  5
24E
100
AcDbEntity
  8
0
100
AcDbLine
 62
253
  6
CONTINUOUS
 10
124.2551608085
 20
111.9210463431
 11
124.4399814748
 21
112.0836010956
  0
LINE
  5
24F
100
AcDbEntity
  8
ASSI
100
AcDbLine
 62
253
  6
CONTINUOUS
 10
124.2551608085
 20
111.9210463431
 11
124.4399814748
 21
112.0836010956
  0
LWPOLYLINE
  5
250
100
AcDbEntity
  8
0
100
AcDbPolyline
 62
253
  6
CONTINUOUS
 90
12
 70
0
 10
123.9274640719
 20
111.8889935066
 10
123.9361459455
 20
111.8962571446
 10
123.9605770309
 20
111.9132527326
 10
123.9872500176
 20
111.9271753447
 10
124.0159764776
 20
111.9379362525
 10
124.046559123
 20
111.9454614828
 10
124.0787805587
 20
111.9496908629
 10
124.1123833737
 20
111.9505842567
 10
124.1470935996
 20
111.9481330683
 10
124.1826390615
 20
111.9423586275
 10
124.2187535629
 20
111.9333062367
 10
124.2551608286
 20
111.9210463608
  0
LWPOLYLINE
  5
251
100
AcDbEntity
  8
ASSI
100
AcDbPolyline
 62
253
  6
CONTINUOUS
 90
12
 70
0
 10
123.9274640719
 20
111.8889935066
 10
123.9361459455
 20
111.8962571446
 10
123.9605770309
 20
111.9132527326
 10
123.9872500176
 20
111.9271753447
 10
124.0159764776
 20
111.9379362525
 10
124.046559123
 20
111.9454614828
 10
124.0787805587
 20
111.9496908629
 10
124.1123833737
 20
111.9505842567
 10
124.1470935996
 20
111.9481330683
 10
124.1826390615
 20
111.9423586275
 10
124.2187535629
 20
111.9333062367
 10
124.2551608286
 20
111.9210463608
  0
LWPOLYLINE
  5
252
100
AcDbEntity
  8
0
100
AcDbPolyline
 62
7
  6
CONTINUOUS
 90
10
 70
0
 10
151.2048591566
 20
83.5169728708
 10
152.1153590613
 20
83.1541293189
 10
153.0955138883
 20
82.7691960529
 10
154.0791782821
 20
82.3887227508
 10
155.0662829172
 20
82.0127277803
 10
156.056764932
 20
81.6412260384
 10
157.0505636907
 20
81.2742312363
 10
158.0476173332
 20
80.9117571381
 10
159.0478602328
 20
80.5538179248
 10
159.9545330122
 20
80.2342381134
  0
LWPOLYLINE
  5
253
100
AcDbEntity
  8
ASSI
100
AcDbPolyline
 62
7
  6
CONTINUOUS
 90
10
 70
0
 10
151.2048591566
 20
83.5169728708
 10
152.1153590613
 20
83.1541293189
 10
153.0955138883
 20
82.7691960529
 10
154.0791782821
 20
82.3887227508
 10
155.0662829172
 20
82.0127277803
 10
156.056764932
 20
81.6412260384
 10
157.0505636907
 20
81.2742312363
 10
158.0476173332
 20
80.9117571381
 10
159.0478602328
 20
80.5538179248
 10
159.9545330122
 20
80.2342381134
  0
LWPOLYLINE
  5
254
100
AcDbEntity
  8
0
100
AcDbPolyline
 62
253
  6
CONTINUOUS
 90
13
 70
0
 10
150.9648103947
 20
84.0161571058
 10
151.7107198961
 20
83.718742597
 10
152.4478324452
 20
83.4282806713
 10
153.1759955817
 20
83.1446717822
 10
153.8915057016
 20
82.8691688833
 10
154.5977465846
 20
82.6002990672
 10
155.305317347
 20
82.3339741412
 10
156.013800337
 20
82.0703464068
 10
156.7235585802
 20
81.8092634607
 10
157.4466026482
 20
81.546390864
 10
158.1870583039
 20
81.280411302
 10
158.9410274742
 20
81.0129006527
 10
159.7086105871
 20
80.7439798093
  0
LWPOLYLINE
  5
255
100
AcDbEntity
  8
ASSI
100
AcDbPolyline
 62
253
  6
CONTINUOUS
 90
13
 70
0
 10
150.9648103947
 20
84.0161571058
 10
151.7107198961
 20
83.718742597
 10
152.4478324452
 20
83.4282806713
 10
153.1759955817
 20
83.1446717822
 10
153.8915057016
 20
82.8691688833
 10
154.5977465846
 20
82.6002990672
 10
155.305317347
 20
82.3339741412
 10
156.013800337
 20
82.0703464068
 10
156.7235585802
 20
81.8092634607
 10
157.4466026482
 20
81.546390864
 10
158.1870583039
 20
81.280411302
 10
158.9410274742
 20
81.0129006527
 10
159.7086105871
 20
80.7439798093
  0
LINE
  5
256
100
AcDbEntity
  8
0
100
AcDbLine
 62
253
  6
CONTINUOUS
 10
132.5338893982
 20
91.4184304934
 11
150.9648103947
 21
84.0161571058
  0
LINE
  5
257
100
AcDbEntity
  8
ASSI
100
AcDbLine
 62
253
  6
CONTINUOUS
 10
132.5338893982
 20
91.4184304934
 11
150.9648103947
 21
84.0161571058
  0
LINE
  5
258
100
AcDbEntity
  8
0
100
AcDbLine
 62
7
  6
CONTINUOUS
 10
132.7740940521
 20
90.9191830018
 11
151.2048610548
 21
83.5169715116
  0
LINE
  5
259
100
AcDbEntity
  8
ASSI
100
AcDbLine
 62
7
  6
CONTINUOUS
 10
132.7740940521
 20
90.9191830018
 11
151.2048610548
 21
83.5169715116
  0
LWPOLYLINE
  5
25A
100
AcDbEntity
  8
0
100
AcDbPolyline
 62
253
  6
CONTINUOUS
 90
13
 70
0
 10
159.9541186735
 20
80.2343835069
 10
159.9198422541
 20
80.2493502551
 10
159.8864537867
 20
80.2702642363
 10
159.8555405926
 20
80.2965240164
 10
159.8272443859
 20
80.328001746
 10
159.8016892885
 20
80.3645452703
 10
159.7790222799
 20
80.4059643868
 10
159.7593493651
 20
80.4520514089
 10
159.7427526931
 20
80.5025844127
 10
159.729324826
 20
80.5573195899
 10
159.7191332555
 20
80.6159920117
 10
159.7122180543
 20
80.6783138233
 10
159.7086105901
 20
80.743979808
  0
LWPOLYLINE
  5
25B
100
AcDbEntity
  8
ASSI
100
AcDbPolyline
 62
253
  6
CONTINUOUS
 90
13
 70
0
 10
159.9541186735
 20
80.2343835069
 10
159.9198422541
 20
80.2493502551
 10
159.8864537867
 20
80.2702642363
 10
159.8555405926
 20
80.2965240164
 10
159.8272443859
 20
80.328001746
 10
159.8016892885
 20
80.3645452703
 10
159.7790222799
 20
80.4059643868
 10
159.7593493651
 20
80.4520514089
 10
159.7427526931
 20
80.5025844127
 10
159.729324826
 20
80.5573195899
 10
159.7191332555
 20
80.6159920117
 10
159.7122180543
 20
80.6783138233
 10
159.7086105901
 20
80.743979808
  0
LWPOLYLINE
  5
25C
100
AcDbEntity
  8
0
100
AcDbPolyline
 62
7
  6
CONTINUOUS
 90
10
 70
0
 10
124.4256357265
 20
94.5035042024
 10
125.2484123801
 20
94.1288170593
 10
126.173053075
 20
93.713606609
 10
127.104538568
 20
93.3014735942
 10
128.042824128
 20
92.8924462802
 10
128.9878676617
 20
92.4865509743
 10
129.9396281061
 20
92.083813429
 10
130.8980572121
 20
91.6842616849
 10
131.8630983814
 20
91.287926345
 10
132.7740973249
 20
90.9191823353
  0
LWPOLYLINE
  5
25D
100
AcDbEntity
  8
ASSI
100
AcDbPolyline
 62
7
  6
CONTINUOUS
 90
10
 70
0
 10
124.4256357265
 20
94.5035042024
 10
125.2484123801
 20
94.1288170593
 10
126.173053075
 20
93.713606609
 10
127.104538568
 20
93.3014735942
 10
128.042824128
 20
92.8924462802
 10
128.9878676617
 20
92.4865509743
 10
129.9396281061
 20
92.083813429
 10
130.8980572121
 20
91.6842616849
 10
131.8630983814
 20
91.287926345
 10
132.7740973249
 20
90.9191823353
  0
LWPOLYLINE
  5
25E
100
AcDbEntity
  8
0
100
AcDbPolyline
 62
253
  6
CONTINUOUS
 90
10
 70
0
 10
124.1920225688
 20
95.0082422562
 10
125.0266588154
 20
94.6266532145
 10
125.8793774969
 20
94.2422000601
 10
126.7503495948
 20
93.8550525539
 10
127.6337982453
 20
93.4679979239
 10
128.53577224
 20
93.0785477444
 10
129.4744705339
 20
92.6791868043
 10
130.4564000233
 20
92.2677936531
 10
131.4760496727
 20
91.8473918697
 10
132.5338893982
 20
91.4184304934
  0
LWPOLYLINE
  5
25F
100
AcDbEntity
  8
ASSI
100
AcDbPolyline
 62
253
  6
CONTINUOUS
 90
10
 70
0
 10
124.1920225688
 20
95.0082422562
 10
125.0266588154
 20
94.6266532145
 10
125.8793774969
 20
94.2422000601
 10
126.7503495948
 20
93.8550525539
 10
127.6337982453
 20
93.4679979239
 10
128.53577224
 20
93.0785477444
 10
129.4744705339
 20
92.6791868043
 10
130.4564000233
 20
92.2677936531
 10
131.4760496727
 20
91.8473918697
 10
132.5338893982
 20
91.4184304934
  0
LWPOLYLINE
  5
260
100
AcDbEntity
  8
0
100
AcDbPolyline
 62
253
  6
CONTINUOUS
 90
10
 70
0
 10
124.1920306624
 20
95.0082484311
 10
124.1552422332
 20
95.0272624197
 10
124.1218482854
 20
95.0484262298
 10
124.0921726193
 20
95.0715346489
 10
124.0665029816
 20
95.0963636089
 10
124.0450882749
 20
95.1226723588
 10
124.0281361445
 20
95.150205799
 10
124.0158109646
 20
95.178696955
 10
124.0082322448
 20
95.2078695654
 10
124.0055480613
 20
95.2339016616
  0
LWPOLYLINE
  5
261
100
AcDbEntity
  8
ASSI
100
AcDbPolyline
 62
253
  6
CONTINUOUS
 90
10
 70
0
 10
124.1920306624
 20
95.0082484311
 10
124.1552422332
 20
95.0272624197
 10
124.1218482854
 20
95.0484262298
 10
124.0921726193
 20
95.0715346489
 10
124.0665029816
 20
95.0963636089
 10
124.0450882749
 20
95.1226723588
 10
124.0281361445
 20
95.150205799
 10
124.0158109646
 20
95.178696955
 10
124.0082322448
 20
95.2078695654
 10
124.0055480613
 20
95.2339016616
  0
LINE
  5
262
100
AcDbEntity
  8
0
100
AcDbLine
 62
7
  6
CONTINUOUS
 10
128.4391488211
 20
131.1183198339
 11
128.4452460868
 21
130.5910331399
  0
LINE
  5
263
100
AcDbEntity
  8
ASSI
100
AcDbLine
 62
7
  6
CONTINUOUS
 10
128.4391488211
 20
131.1183198339
 11
128.4452460868
 21
130.5910331399
  0
LINE
  5
264
100
AcDbEntity
  8
0
100
AcDbLine
 62
253
  6
CONTINUOUS
 10
128.3779965656
 20
130.6913191234
 11
128.3779965656
 21
130.6804138561
  0
LINE
  5
265
100
AcDbEntity
  8
ASSI
100
AcDbLine
 62
253
  6
CONTINUOUS
 10
128.3779965656
 20
130.6913191234
 11
128.3779965656
 21
130.6804138561
  0
LINE
  5
266
100
AcDbEntity
  8
0
100
AcDbLine
 62
7
  6
CONTINUOUS
 10
150.4883573692
 20
122.2628605932
 11
149.8524524522
 21
122.066693509
  0
LINE
  5
267
100
AcDbEntity
  8
ASSI
100
AcDbLine
 62
7
  6
CONTINUOUS
 10
150.4883573692
 20
122.2628605932
 11
149.8524524522
 21
122.066693509
  0
LWPOLYLINE
  5
268
100
AcDbEntity
  8
0
100
AcDbPolyline
 62
253
  6
CONTINUOUS
 90
11
 70
0
 10
132.5338888399
 20
91.4184299949
 10
132.5390942866
 20
91.342984516
 10
132.5488260164
 20
91.2721124539
 10
132.5630194912
 20
91.2062838121
 10
132.5815805839
 20
91.1459351475
 10
132.6043862026
 20
91.0914666754
 10
132.6312851068
 20
91.0432396152
 10
132.6620989106
 20
91.0015737952
 10
132.6966232655
 20
90.9667455312
 10
132.7346292158
 20
90.9389857944
 10
132.7740940521
 20
90.9191830018
  0
LWPOLYLINE
  5
269
100
AcDbEntity
  8
ASSI
100
AcDbPolyline
 62
253
  6
CONTINUOUS
 90
11
 70
0
 10
132.5338888399
 20
91.4184299949
 10
132.5390942866
 20
91.342984516
 10
132.5488260164
 20
91.2721124539
 10
132.5630194912
 20
91.2062838121
 10
132.5815805839
 20
91.1459351475
 10
132.6043862026
 20
91.0914666754
 10
132.6312851068
 20
91.0432396152
 10
132.6620989106
 20
91.0015737952
 10
132.6966232655
 20
90.9667455312
 10
132.7346292158
 20
90.9389857944
 10
132.7740940521
 20
90.9191830018
  0
LWPOLYLINE
  5
26A
100
AcDbEntity
  8
0
100
AcDbPolyline
 62
253
  6
CONTINUOUS
 90
10
 70
0
 10
132.2218784574
 20
108.8675316595
 10
132.2233875684
 20
108.8261291914
 10
132.2280077072
 20
108.7877144244
 10
132.2356886958
 20
108.7527045691
 10
132.2463471134
 20
108.7214798566
 10
132.2598672022
 20
108.6943794086
 10
132.2761021249
 20
108.6716975546
 10
132.294875559
 20
108.653680635
 10
132.3159836121
 20
108.640524326
 10
132.3225235729
 20
108.6376342575
  0
LWPOLYLINE
  5
26B
100
AcDbEntity
  8
ASSI
100
AcDbPolyline
 62
253
  6
CONTINUOUS
 90
10
 70
0
 10
132.2218784574
 20
108.8675316595
 10
132.2233875684
 20
108.8261291914
 10
132.2280077072
 20
108.7877144244
 10
132.2356886958
 20
108.7527045691
 10
132.2463471134
 20
108.7214798566
 10
132.2598672022
 20
108.6943794086
 10
132.2761021249
 20
108.6716975546
 10
132.294875559
 20
108.653680635
 10
132.3159836121
 20
108.640524326
 10
132.3225235729
 20
108.6376342575
  0
LWPOLYLINE
  5
26C
100
AcDbEntity
  8
0
100
AcDbPolyline
 62
253
  6
CONTINUOUS
 90
10
 70
0
 10
132.2218786054
 20
107.6498368561
 10
132.2278517496
 20
105.8214974255
 10
132.2410022307
 20
103.9992174845
 10
132.2613288302
 20
102.183053377
 10
132.288830833
 20
100.373032163
 10
132.3235067496
 20
98.5692396115
 10
132.3653531537
 20
96.7718192043
 10
132.4143669291
 20
94.9808552597
 10
132.4705464318
 20
93.1963739291
 10
132.5338893982
 20
91.4184304934
  0
LWPOLYLINE
  5
26D
100
AcDbEntity
  8
ASSI
100
AcDbPolyline
 62
253
  6
CONTINUOUS
 90
10
 70
0
 10
132.2218786054
 20
107.6498368561
 10
132.2278517496
 20
105.8214974255
 10
132.2410022307
 20
103.9992174845
 10
132.2613288302
 20
102.183053377
 10
132.288830833
 20
100.373032163
 10
132.3235067496
 20
98.5692396115
 10
132.3653531537
 20
96.7718192043
 10
132.4143669291
 20
94.9808552597
 10
132.4705464318
 20
93.1963739291
 10
132.5338893982
 20
91.4184304934
  0
LWPOLYLINE
  5
26E
100
AcDbEntity
  8
0
100
AcDbPolyline
 62
253
  6
CONTINUOUS
 90
7
 70
0
 10
132.2218786054
 20
108.8675317796
 10
132.2278518065
 20
110.7056679931
 10
132.2410024222
 20
112.5495025976
 10
132.2613292242
 20
114.3989772439
 10
132.2888315301
 20
116.2540662398
 10
132.3235078175
 20
118.1146788346
 10
132.3653544633
 20
119.9806582357
  0
LWPOLYLINE
  5
26F
100
AcDbEntity
  8
ASSI
100
AcDbPolyline
 62
253
  6
CONTINUOUS
 90
7
 70
0
 10
132.2218786054
 20
108.8675317796
 10
132.2278518065
 20
110.7056679931
 10
132.2410024222
 20
112.5495025976
 10
132.2613292242
 20
114.3989772439
 10
132.2888315301
 20
116.2540662398
 10
132.3235078175
 20
118.1146788346
 10
132.3653544633
 20
119.9806582357
  0
LINE
  5
270
100
AcDbEntity
  8
0
100
AcDbLine
 62
253
  6
CONTINUOUS
 10
132.3653544633
 20
119.9806582357
 11
132.4143681807
 21
121.8519123726
  0
LINE
  5
271
100
AcDbEntity
  8
ASSI
100
AcDbLine
 62
253
  6
CONTINUOUS
 10
132.3653544633
 20
119.9806582357
 11
132.4143681807
 21
121.8519123726
  0
LWPOLYLINE
  5
272
100
AcDbEntity
  8
0
100
AcDbPolyline
 62
253
  6
CONTINUOUS
 90
3
 70
0
 10
132.4143681807
 20
121.8519123726
 10
132.4705472796
 20
123.7284148812
 10
132.5338893982
 20
125.6101066998
  0
LWPOLYLINE
  5
273
100
AcDbEntity
  8
ASSI
100
AcDbPolyline
 62
253
  6
CONTINUOUS
 90
3
 70
0
 10
132.4143681807
 20
121.8519123726
 10
132.4705472796
 20
123.7284148812
 10
132.5338893982
 20
125.6101066998
  0
LWPOLYLINE
  5
274
100
AcDbEntity
  8
0
100
AcDbPolyline
 62
253
  6
CONTINUOUS
 90
16
 70
0
 10
132.2218786028
 20
107.649836854
 10
132.2233877146
 20
107.6936941228
 10
132.2280078518
 20
107.739629635
 10
132.2356888366
 20
107.7871444995
 10
132.2463472482
 20
107.8357226729
 10
132.2598673292
 20
107.8848365632
 10
132.2761022423
 20
107.9339527602
 10
132.2948756652
 20
107.9825378289
 10
132.3159837059
 20
108.0300641023
 10
132.3391971168
 20
108.0760154129
 10
132.3642637845
 20
108.1198926984
 10
132.390911468
 20
108.1612194217
 10
132.4188507554
 20
108.1995467465
 10
132.447778207
 20
108.2344584122
 10
132.4773796511
 20
108.2655752543
 10
132.5073335961
 20
108.2925593229
  0
LWPOLYLINE
  5
275
100
AcDbEntity
  8
ASSI
100
AcDbPolyline
 62
253
  6
CONTINUOUS
 90
16
 70
0
 10
132.2218786028
 20
107.649836854
 10
132.2233877146
 20
107.6936941228
 10
132.2280078518
 20
107.739629635
 10
132.2356888366
 20
107.7871444995
 10
132.2463472482
 20
107.8357226729
 10
132.2598673292
 20
107.8848365632
 10
132.2761022423
 20
107.9339527602
 10
132.2948756652
 20
107.9825378289
 10
132.3159837059
 20
108.0300641023
 10
132.3391971168
 20
108.0760154129
 10
132.3642637845
 20
108.1198926984
 10
132.390911468
 20
108.1612194217
 10
132.4188507554
 20
108.1995467465
 10
132.447778207
 20
108.2344584122
 10
132.4773796511
 20
108.2655752543
 10
132.5073335961
 20
108.2925593229
  0
LWPOLYLINE
  5
276
100
AcDbEntity
  8
0
100
AcDbPolyline
 62
253
  6
CONTINUOUS
 90
19
 70
0
 10
132.5338894024
 20
125.6101067029
 10
132.5390948447
 20
125.6940694919
 10
132.548826565
 20
125.7808683425
 10
132.5630200255
 20
125.8699276301
 10
132.5815810991
 20
125.9606567392
 10
132.6043866942
 20
126.0524539808
 10
132.6312855708
 20
126.1447105822
 10
132.6620993432
 20
126.2368147243
 10
132.6966236636
 20
126.3281555993
 10
132.7346295766
 20
126.4181274609
 10
132.775865038
 20
126.5061336419
 10
132.8200565862
 20
126.5915905107
 10
132.8669111558
 20
126.6739313423
 10
132.9161180207
 20
126.7526100762
 10
132.9673508554
 20
126.8271049377
 10
133.0202698985
 20
126.8969218987
 10
133.0745242063
 20
126.9615979531
 10
133.1297539801
 20
127.0207041883
 10
133.1855929518
 20
127.0738486289
  0
LWPOLYLINE
  5
277
100
AcDbEntity
  8
ASSI
100
AcDbPolyline
 62
253
  6
CONTINUOUS
 90
19
 70
0
 10
132.5338894024
 20
125.6101067029
 10
132.5390948447
 20
125.6940694919
 10
132.548826565
 20
125.7808683425
 10
132.5630200255
 20
125.8699276301
 10
132.5815810991
 20
125.9606567392
 10
132.6043866942
 20
126.0524539808
 10
132.6312855708
 20
126.1447105822
 10
132.6620993432
 20
126.2368147243
 10
132.6966236636
 20
126.3281555993
 10
132.7346295766
 20
126.4181274609
 10
132.775865038
 20
126.5061336419
 10
132.8200565862
 20
126.5915905107
 10
132.8669111558
 20
126.6739313423
 10
132.9161180207
 20
126.7526100762
 10
132.9673508554
 20
126.8271049377
 10
133.0202698985
 20
126.8969218987
 10
133.0745242063
 20
126.9615979531
 10
133.1297539801
 20
127.0207041883
 10
133.1855929518
 20
127.0738486289
  0
LINE
  5
278
100
AcDbEntity
  8
0
100
AcDbLine
 62
253
  6
CONTINUOUS
 10
141.4784205364
 20
93.1117164916
 11
141.6832085475
 21
93.0294690095
  0
LWPOLYLINE
  5
279
100
AcDbEntity
  8
0
100
AcDbPolyline
 62
253
  6
CONTINUOUS
 90
51
 70
0
 10
141.4784205354
 20
93.1117165319
 10
141.4720059255
 20
93.1143900653
 10
141.4655909089
 20
93.1172584983
 10
141.4591813815
 20
93.1203191054
 10
141.452783239
 20
93.1235691607
 10
141.4464023774
 20
93.1270059387
 10
141.4400446923
 20
93.1306267135
 10
141.4337160796
 20
93.1344287596
 10
141.4274224351
 20
93.1384093513
 10
141.4211696547
 20
93.1425657628
 10
141.4149636342
 20
93.1468952685
 10
141.408810485
 20
93.1513945016
 10
141.4027171816
 20
93.1560575309
 10
141.3966909139
 20
93.160877784
 10
141.3907388721
 20
93.1658486886
 10
141.3848682462
 20
93.1709636723
 10
141.3790862262
 20
93.1762161628
 10
141.3734000023
 20
93.1815995878
 10
141.3678167643
 20
93.1871073748
 10
141.3623437025
 20
93.1927329516
 10
141.3569880069
 20
93.1984697458
 10
141.3517561066
 20
93.2043114859
 10
141.3466513869
 20
93.2102531039
 10
141.3416764726
 20
93.2162898326
 10
141.3368339879
 20
93.2224169047
 10
141.3321265575
 20
93.2286295532
 10
141.3275568542
 20
93.2349233274
 10
141.3231277445
 20
93.2412950437
 10
141.3188421432
 20
93.2477418347
 10
141.3147029649
 20
93.2542608336
 10
141.3107131246
 20
93.260849173
 10
141.306876032
 20
93.2675027984
 10
141.3031970765
 20
93.2742129053
 10
141.2996821423
 20
93.2809695015
 10
141.2963371139
 20
93.287762595
 10
141.2931678755
 20
93.2945821938
 10
141.2901797836
 20
93.3014185847
 10
141.2873760833
 20
93.3082631705
 10
141.2847594917
 20
93.3151076331
 10
141.2823327261
 20
93.321943654
 10
141.2800985036
 20
93.3287629151
 10
141.278059184
 20
93.335557513
 10
141.2762156974
 20
93.3423212038
 10
141.2745686167
 20
93.3490481583
 10
141.2731185144
 20
93.3557325475
 10
141.2718659635
 20
93.3623685423
 10
141.2708115365
 20
93.3689503137
 10
141.2699558063
 20
93.3754720326
 10
141.2692993456
 20
93.3819278698
 10
141.2688427271
 20
93.3883119964
 10
141.2685865236
 20
93.3946185832
  0
LWPOLYLINE
  5
27A
100
AcDbEntity
  8
0
100
AcDbPolyline
 62
7
  6
CONTINUOUS
 90
8
 70
0
 10
123.8595906111
 20
112.420805832
 10
123.8336292855
 20
112.4584148821
 10
123.8111000535
 20
112.4984558433
 10
123.7922748671
 20
112.5405648465
 10
123.7773070646
 20
112.5845860707
 10
123.7664237681
 20
112.6301733
 10
123.7598389031
 20
112.6767694532
 10
123.7576637226
 20
112.7238716103
  0
LWPOLYLINE
  5
27B
100
AcDbEntity
  8
ASSI
100
AcDbPolyline
 62
7
  6
CONTINUOUS
 90
8
 70
0
 10
123.8595906111
 20
112.420805832
 10
123.8336292855
 20
112.4584148821
 10
123.8111000535
 20
112.4984558433
 10
123.7922748671
 20
112.5405648465
 10
123.7773070646
 20
112.5845860707
 10
123.7664237681
 20
112.6301733
 10
123.7598389031
 20
112.6767694532
 10
123.7576637226
 20
112.7238716103
  0
LINE
  5
27C
100
AcDbEntity
  8
0
100
AcDbLine
 62
7
  6
CONTINUOUS
 10
137.6136517171
 20
127.4336326365
 11
137.5524994616
 21
127.006631926
  0
LINE
  5
27D
100
AcDbEntity
  8
ASSI
100
AcDbLine
 62
7
  6
CONTINUOUS
 10
137.6136517171
 20
127.4336326365
 11
137.5524994616
 21
127.006631926
  0
LINE
  5
27E
100
AcDbEntity
  8
0
100
AcDbLine
 62
253
  6
CONTINUOUS
 10
141.5952614187
 20
97.3258959876
 11
141.3904734077
 21
97.4081434697
  0
LWPOLYLINE
  5
27F
100
AcDbEntity
  8
0
100
AcDbPolyline
 62
253
  6
CONTINUOUS
 90
51
 70
0
 10
141.5952614182
 20
97.3258960232
 10
141.6016758148
 20
97.3232208818
 10
141.6080886733
 20
97.3203492327
 10
141.6144941047
 20
97.3172838091
 10
141.6208862197
 20
97.3140273443
 10
141.6272591292
 20
97.3105825715
 10
141.6336069441
 20
97.3069522241
 10
141.6399237752
 20
97.3031390353
 10
141.6462037333
 20
97.2991457383
 10
141.6524409294
 20
97.2949750665
 10
141.6586294743
 20
97.2906297531
 10
141.6647632683
 20
97.2861131792
 10
141.6708353689
 20
97.2814313176
 10
141.6768386232
 20
97.2765907891
 10
141.6827658784
 20
97.2715982142
 10
141.6886099814
 20
97.2664602136
 10
141.6943637793
 20
97.261183408
 10
141.7000201192
 20
97.2557744181
 10
141.705571848
 20
97.2502398644
 10
141.7110118129
 20
97.2445863678
 10
141.7163328609
 20
97.2388205488
 10
141.7215286035
 20
97.2329487246
 10
141.7265957102
 20
97.2269759975
 10
141.7315316147
 20
97.2209071667
 10
141.736333751
 20
97.2147470309
 10
141.7409995529
 20
97.2085003893
 10
141.7455264005
 20
97.2021717237
 10
141.7499114583
 20
97.195764249
 10
141.7541518371
 20
97.1892808629
 10
141.7582446477
 20
97.1827244635
 10
141.7621870006
 20
97.1760979485
 10
141.7659755231
 20
97.1694054073
 10
141.7696049075
 20
97.1626556959
 10
141.7730693626
 20
97.1558588615
 10
141.7763630972
 20
97.1490249515
 10
141.7794803199
 20
97.1421640133
 10
141.7824157649
 20
97.1352858142
 10
141.7851662672
 20
97.1283990015
 10
141.7877291873
 20
97.1215119424
 10
141.7901018857
 20
97.1146330041
 10
141.7922817227
 20
97.1077705539
 10
141.7942664124
 20
97.100932544
 10
141.7960550834
 20
97.0941252668
 10
141.7976472179
 20
97.0873545998
 10
141.7990422983
 20
97.0806264205
 10
141.8002398068
 20
97.0739466061
 10
141.8012392256
 20
97.0673210342
 10
141.802040037
 20
97.0607555823
 10
141.8026417233
 20
97.0542561277
 10
141.8030437666
 20
97.0478285479
 10
141.8032456494
 20
97.0414787204
  0
LINE
  5
280
100
AcDbEntity
  8
0
100
AcDbLine
 62
253
  6
CONTINUOUS
 10
137.5524994616
 20
127.006631926
 11
137.5524994616
 21
126.9957266587
  0
LINE
  5
281
100
AcDbEntity
  8
ASSI
100
AcDbLine
 62
253
  6
CONTINUOUS
 10
137.5524994616
 20
127.006631926
 11
137.5524994616
 21
126.9957266587
  0
LINE
  5
282
100
AcDbEntity
  8
0
100
AcDbLine
 62
7
  6
CONTINUOUS
 10
137.5518305492
 20
126.9957266587
 11
137.5524994616
 21
127.006631926
  0
LINE
  5
283
100
AcDbEntity
  8
ASSI
100
AcDbLine
 62
7
  6
CONTINUOUS
 10
137.5518305492
 20
126.9957266587
 11
137.5524994616
 21
127.006631926
  0
LWPOLYLINE
  5
284
100
AcDbEntity
  8
SUPERFICI
100
AcDbPolyline
 62
7
  6
CONTINUOUS
 90
34
 70
0
 10
138.9818172476
 20
109.751040203
 10
138.9779672623
 20
109.7476905629
 10
138.9443792401
 20
109.7149916201
 10
138.9142071335
 20
109.6790580672
 10
138.8875600082
 20
109.6399405307
 10
138.8643299905
 20
109.5975893428
 10
138.8447620196
 20
109.5524372256
 10
138.8288603667
 20
109.504315646
 10
138.8166217473
 20
109.453393933
 10
138.8082792488
 20
109.4006111869
 10
138.8039079261
 20
109.3460804048
 10
138.8034329358
 20
109.2896887649
 10
138.8068619389
 20
109.2320361741
 10
138.8142655031
 20
109.1729550876
 10
138.8255728936
 20
109.1126129212
 10
138.8405792401
 20
109.0521115585
 10
138.8593042954
 20
108.9915872098
 10
138.8817273678
 20
108.9309029143
 10
138.9075823821
 20
108.8707503647
 10
138.936952226
 20
108.8110409111
 10
138.969752808
 20
108.7518622377
 10
139.0054672038
 20
108.6941702318
 10
139.0441006847
 20
108.6380431778
 10
139.0856464865
 20
108.58340159
 10
139.129569358
 20
108.5309644792
 10
139.1759387037
 20
108.4807182104
 10
139.2246836918
 20
108.4326752678
 10
139.2750586136
 20
108.3875937576
 10
139.3271033529
 20
108.345523667
 10
139.3807768561
 20
108.3064140638
 10
139.4352120433
 20
108.2708717019
 10
139.4901196611
 20
108.2390986492
 10
139.5457882946
 20
108.2108922965
 10
139.6022177499
 20
108.1862524863
  0
LWPOLYLINE
  5
285
100
AcDbEntity
  8
0
100
AcDbPolyline
 62
7
  6
CONTINUOUS
 90
13
 70
0
 10
138.9818087218
 20
109.7510504925
 10
138.9905321267
 20
109.7583426078
 10
139.0341982463
 20
109.7898429928
 10
139.081289025
 20
109.8160400483
 10
139.1319585487
 20
109.8368584257
 10
139.1860504745
 20
109.852371665
 10
139.2423624195
 20
109.8623104081
 10
139.3008478793
 20
109.8665600984
 10
139.3615514518
 20
109.8652337679
 10
139.4234074294
 20
109.8584034602
 10
139.4860602098
 20
109.8460928977
 10
139.5498643231
 20
109.8282775026
 10
139.6148194694
 20
109.8049570358
  0
LWPOLYLINE
  5
286
100
AcDbEntity
  8
ASSI
100
AcDbPolyline
 62
7
  6
CONTINUOUS
 90
13
 70
0
 10
138.9818087218
 20
109.7510504925
 10
138.9905321267
 20
109.7583426078
 10
139.0341982463
 20
109.7898429928
 10
139.081289025
 20
109.8160400483
 10
139.1319585487
 20
109.8368584257
 10
139.1860504745
 20
109.852371665
 10
139.2423624195
 20
109.8623104081
 10
139.3008478793
 20
109.8665600984
 10
139.3615514518
 20
109.8652337679
 10
139.4234074294
 20
109.8584034602
 10
139.4860602098
 20
109.8460928977
 10
139.5498643231
 20
109.8282775026
 10
139.6148194694
 20
109.8049570358
  0
LINE
  5
287
100
AcDbEntity
  8
SUPERFICI
100
AcDbLine
 62
7
  6
CONTINUOUS
 10
139.0144004803
 20
109.7765714352
 11
138.9818172476
 21
109.751040203
  0
LINE
  5
288
100
AcDbEntity
  8
0
100
AcDbLine
 62
7
  6
CONTINUOUS
 10
159.6628602652
 20
118.5781733958
 11
159.0269553482
 21
118.3820063117
  0
LINE
  5
289
100
AcDbEntity
  8
ASSI
100
AcDbLine
 62
7
  6
CONTINUOUS
 10
159.6628602652
 20
118.5781733958
 11
159.0269553482
 21
118.3820063117
  0
LWPOLYLINE
  5
28A
100
AcDbEntity
  8
SUPERFICI
100
AcDbPolyline
 62
7
  6
CONTINUOUS
 90
14
 70
0
 10
143.3011303904
 20
99.3438266236
 10
143.3573369139
 20
99.3231809616
 10
143.412788833
 20
99.3066265524
 10
143.4674863221
 20
99.2941635431
 10
143.5217125024
 20
99.2857565747
 10
143.5751848808
 20
99.2814415343
 10
143.6270553419
 20
99.2813255482
 10
143.6773073871
 20
99.2854976788
 10
143.7259586573
 20
99.2938698222
 10
143.7722122856
 20
99.3062833871
 10
143.8159654394
 20
99.3227711344
 10
143.8573223514
 20
99.3433014759
 10
143.8957966627
 20
99.3676192217
 10
143.9116440736
 20
99.3794171367
  0
LWPOLYLINE
  5
28B
100
AcDbEntity
  8
SUPERFICI
100
AcDbPolyline
 62
7
  6
CONTINUOUS
 90
3
 70
0
 10
139.614712458
 20
100.8243751737
 10
142.8916834164
 20
99.508509953
 10
143.3011303904
 20
99.3438266236
  0
LINE
  5
28C
100
AcDbEntity
  8
0
100
AcDbLine
 62
7
  6
CONTINUOUS
 10
143.3010236107
 20
99.343858502
 11
139.6148193466
 21
100.8243323128
  0
LINE
  5
28D
100
AcDbEntity
  8
ASSI
100
AcDbLine
 62
7
  6
CONTINUOUS
 10
143.3010236107
 20
99.343858502
 11
139.6148193466
 21
100.8243323128
  0
LWPOLYLINE
  5
28E
100
AcDbEntity
  8
0
100
AcDbPolyline
 62
7
  6
CONTINUOUS
 90
29
 70
0
 10
139.6148193466
 20
100.8243323128
 10
139.5498079571
 20
100.8530715805
 10
139.4859667143
 20
100.8862633818
 10
139.4232959189
 20
100.9239079697
 10
139.3614411654
 20
100.966267399
 10
139.3007579322
 20
101.0130805166
 10
139.2423115532
 20
101.0635629372
 10
139.1860674979
 20
101.1178548733
 10
139.1320621959
 20
101.1758177052
 10
139.0814674398
 20
101.236248813
 10
139.0344291123
 20
101.2990994787
 10
138.9908035734
 20
101.3644202976
 10
138.9513280855
 20
101.4311574122
 10
138.9159944326
 20
101.4994845476
 10
138.8848130871
 20
101.5692298635
 10
138.8585487336
 20
101.6388206405
 10
138.8373612524
 20
101.708118163
 10
138.8210922395
 20
101.7772623745
 10
138.8100280854
 20
101.8450978168
 10
138.80425742
 20
101.9117445076
 10
138.8036923437
 20
101.9770830312
 10
138.8083533853
 20
102.0395978874
 10
138.8183319358
 20
102.0991018834
 10
138.8335359545
 20
102.1557816612
 10
138.8537097436
 20
102.2086815727
 10
138.8790189822
 20
102.2578112998
 10
138.9092965656
 20
102.3031599649
 10
138.943786725
 20
102.3437403339
 10
138.9740698156
 20
102.372355502
  0
LWPOLYLINE
  5
28F
100
AcDbEntity
  8
ASSI
100
AcDbPolyline
 62
7
  6
CONTINUOUS
 90
29
 70
0
 10
139.6148193466
 20
100.8243323128
 10
139.5498079571
 20
100.8530715805
 10
139.4859667143
 20
100.8862633818
 10
139.4232959189
 20
100.9239079697
 10
139.3614411654
 20
100.966267399
 10
139.3007579322
 20
101.0130805166
 10
139.2423115532
 20
101.0635629372
 10
139.1860674979
 20
101.1178548733
 10
139.1320621959
 20
101.1758177052
 10
139.0814674398
 20
101.236248813
 10
139.0344291123
 20
101.2990994787
 10
138.9908035734
 20
101.3644202976
 10
138.9513280855
 20
101.4311574122
 10
138.9159944326
 20
101.4994845476
 10
138.8848130871
 20
101.5692298635
 10
138.8585487336
 20
101.6388206405
 10
138.8373612524
 20
101.708118163
 10
138.8210922395
 20
101.7772623745
 10
138.8100280854
 20
101.8450978168
 10
138.80425742
 20
101.9117445076
 10
138.8036923437
 20
101.9770830312
 10
138.8083533853
 20
102.0395978874
 10
138.8183319358
 20
102.0991018834
 10
138.8335359545
 20
102.1557816612
 10
138.8537097436
 20
102.2086815727
 10
138.8790189822
 20
102.2578112998
 10
138.9092965656
 20
102.3031599649
 10
138.943786725
 20
102.3437403339
 10
138.9740698156
 20
102.372355502
  0
LINE
  5
290
100
AcDbEntity
  8
0
100
AcDbLine
 62
7
  6
CONTINUOUS
 10
137.6136517171
 20
127.4336326365
 11
137.6197489828
 21
126.9063459425
  0
LINE
  5
291
100
AcDbEntity
  8
ASSI
100
AcDbLine
 62
7
  6
CONTINUOUS
 10
137.6136517171
 20
127.4336326365
 11
137.6197489828
 21
126.9063459425
  0
LWPOLYLINE
  5
292
100
AcDbEntity
  8
0
100
AcDbPolyline
 62
7
  6
CONTINUOUS
 90
11
 70
0
 10
159.5421635367
 20
98.0144701015
 10
159.5835779633
 20
98.0026296861
 10
159.6316886137
 20
97.9935561595
 10
159.6806301027
 20
97.9892245393
 10
159.7299419328
 20
97.9897280791
 10
159.7791083311
 20
97.9951098158
 10
159.8276765987
 20
98.0053686946
 10
159.8751555447
 20
98.0204553784
 10
159.9210324537
 20
98.0402583859
 10
159.9648241112
 20
98.0646166046
 10
160.0038104485
 20
98.0915856608
  0
LWPOLYLINE
  5
293
100
AcDbEntity
  8
ASSI
100
AcDbPolyline
 62
7
  6
CONTINUOUS
 90
11
 70
0
 10
159.5421635367
 20
98.0144701015
 10
159.5835779633
 20
98.0026296861
 10
159.6316886137
 20
97.9935561595
 10
159.6806301027
 20
97.9892245393
 10
159.7299419328
 20
97.9897280791
 10
159.7791083311
 20
97.9951098158
 10
159.8276765987
 20
98.0053686946
 10
159.8751555447
 20
98.0204553784
 10
159.9210324537
 20
98.0402583859
 10
159.9648241112
 20
98.0646166046
 10
160.0038104485
 20
98.0915856608
  0
LWPOLYLINE
  5
294
100
AcDbEntity
  8
0
100
AcDbPolyline
 62
253
  6
CONTINUOUS
 90
16
 70
0
 10
159.4492280346
 20
98.2414154929
 10
159.4924288001
 20
98.228594849
 10
159.5375950981
 20
98.2182363188
 10
159.5842996249
 20
98.2104379007
 10
159.6321005169
 20
98.2052733734
 10
159.680545552
 20
98.2027915956
 10
159.7291764288
 20
98.2030160482
 10
159.7775330876
 20
98.2059446136
 10
159.8251580178
 20
98.2115495894
 10
159.8716006103
 20
98.2197779432
 10
159.9164214671
 20
98.2305518198
 10
159.9591965769
 20
98.2437692906
 10
159.9995212799
 20
98.2593053139
 10
160.037014083
 20
98.2770129115
 10
160.0713202722
 20
98.2967245552
 10
160.1021152877
 20
98.3182537596
  0
LWPOLYLINE
  5
295
100
AcDbEntity
  8
ASSI
100
AcDbPolyline
 62
253
  6
CONTINUOUS
 90
16
 70
0
 10
159.4492280346
 20
98.2414154929
 10
159.4924288001
 20
98.228594849
 10
159.5375950981
 20
98.2182363188
 10
159.5842996249
 20
98.2104379007
 10
159.6321005169
 20
98.2052733734
 10
159.680545552
 20
98.2027915956
 10
159.7291764288
 20
98.2030160482
 10
159.7775330876
 20
98.2059446136
 10
159.8251580178
 20
98.2115495894
 10
159.8716006103
 20
98.2197779432
 10
159.9164214671
 20
98.2305518198
 10
159.9591965769
 20
98.2437692906
 10
159.9995212799
 20
98.2593053139
 10
160.037014083
 20
98.2770129115
 10
160.0713202722
 20
98.2967245552
 10
160.1021152877
 20
98.3182537596
  0
LWPOLYLINE
  5
296
100
AcDbEntity
  8
SUPERFICI
100
AcDbPolyline
 62
7
  6
CONTINUOUS
 90
12
 70
0
 10
139.5458655082
 20
102.4427934683
 10
139.4902734652
 20
102.4592999322
 10
139.4354419371
 20
102.471698524
 10
139.3810941174
 20
102.4800227438
 10
139.3275074769
 20
102.4842396416
 10
139.2755137536
 20
102.4842498098
 10
139.2251238374
 20
102.4799667332
 10
139.17632801
 20
102.4714778999
 10
139.1299271296
 20
102.458944935
 10
139.0860255887
 20
102.4423362753
 10
139.0445204097
 20
102.4216846613
 10
139.0059012983
 20
102.3972480932
  0
LWPOLYLINE
  5
297
100
AcDbEntity
  8
0
100
AcDbPolyline
 62
253
  6
CONTINUOUS
 90
10
 70
0
 10
159.4492279274
 20
97.0303516738
 10
158.3205659854
 20
97.4101058124
 10
157.2313275879
 20
97.7858328207
 10
156.1807816514
 20
98.156809952
 10
155.1682508762
 20
98.5223589549
 10
154.1930524222
 20
98.8818386771
 10
153.2544979296
 20
99.2346441931
 10
152.3519693331
 20
99.5802117352
 10
151.4849166485
 20
99.9180159568
 10
150.6527996019
 20
100.2475634685
  0
LWPOLYLINE
  5
298
100
AcDbEntity
  8
ASSI
100
AcDbPolyline
 62
253
  6
CONTINUOUS
 90
10
 70
0
 10
159.4492279274
 20
97.0303516738
 10
158.3205659854
 20
97.4101058124
 10
157.2313275879
 20
97.7858328207
 10
156.1807816514
 20
98.156809952
 10
155.1682508762
 20
98.5223589549
 10
154.1930524222
 20
98.8818386771
 10
153.2544979296
 20
99.2346441931
 10
152.3519693331
 20
99.5802117352
 10
151.4849166485
 20
99.9180159568
 10
150.6527996019
 20
100.2475634685
  0
LINE
  5
299
100
AcDbEntity
  8
SUPERFICI
100
AcDbLine
 62
7
  6
CONTINUOUS
 10
139.6022178732
 20
102.422178973
 11
139.5458655082
 21
102.4427934683
  0
LINE
  5
29A
100
AcDbEntity
  8
SUPERFICI
100
AcDbLine
 62
7
  6
CONTINUOUS
 10
143.2882570227
 20
100.9417825507
 11
139.6022178732
 21
102.422178973
  0
LINE
  5
29B
100
AcDbEntity
  8
0
100
AcDbLine
 62
7
  6
CONTINUOUS
 10
139.6021511883
 20
102.4221987719
 11
143.2883235455
 21
100.9417557895
  0
LINE
  5
29C
100
AcDbEntity
  8
ASSI
100
AcDbLine
 62
7
  6
CONTINUOUS
 10
139.6021511883
 20
102.4221987719
 11
143.2883235455
 21
100.9417557895
  0
LWPOLYLINE
  5
29D
100
AcDbEntity
  8
0
100
AcDbPolyline
 62
7
  6
CONTINUOUS
 90
30
 70
0
 10
143.2883235455
 20
100.9417557895
 10
143.3532568335
 20
100.9129434864
 10
143.417002823
 20
100.8796667692
 10
143.4795618415
 20
100.8419259082
 10
143.5412884043
 20
100.7994596278
 10
143.601829121
 20
100.7525301359
 10
143.6601226629
 20
100.7019230977
 10
143.7162049309
 20
100.6474987661
 10
143.7700419629
 20
100.5893984991
 10
143.8204676428
 20
100.5288296265
 10
143.8673383315
 20
100.4658429084
 10
143.9107999232
 20
100.4003894626
 10
143.9501203403
 20
100.3335269388
 10
143.9853096861
 20
100.2650832325
 10
144.0163600991
 20
100.1952323196
 10
144.0425119274
 20
100.1255504495
 10
144.0636071149
 20
100.0561777106
 10
144.0798051513
 20
99.9869752167
 10
144.0908218229
 20
99.9191000228
 10
144.0965693233
 20
99.8524325815
 10
144.0971361335
 20
99.7870930117
 10
144.0925013998
 20
99.7245969748
 10
144.0825730322
 20
99.6651310361
 10
144.0674424149
 20
99.6085080491
 10
144.0473628308
 20
99.5556822086
 10
144.0221673558
 20
99.5066428687
 10
143.992021445
 20
99.4613994536
 10
143.9576760675
 20
99.4209355237
 10
143.91914045
 20
99.3854183496
 10
143.9116295309
 20
99.3794350815
  0
LWPOLYLINE
  5
29E
100
AcDbEntity
  8
ASSI
100
AcDbPolyline
 62
7
  6
CONTINUOUS
 90
30
 70
0
 10
143.2883235455
 20
100.9417557895
 10
143.3532568335
 20
100.9129434864
 10
143.417002823
 20
100.8796667692
 10
143.4795618415
 20
100.8419259082
 10
143.5412884043
 20
100.7994596278
 10
143.601829121
 20
100.7525301359
 10
143.6601226629
 20
100.7019230977
 10
143.7162049309
 20
100.6474987661
 10
143.7700419629
 20
100.5893984991
 10
143.8204676428
 20
100.5288296265
 10
143.8673383315
 20
100.4658429084
 10
143.9107999232
 20
100.4003894626
 10
143.9501203403
 20
100.3335269388
 10
143.9853096861
 20
100.2650832325
 10
144.0163600991
 20
100.1952323196
 10
144.0425119274
 20
100.1255504495
 10
144.0636071149
 20
100.0561777106
 10
144.0798051513
 20
99.9869752167
 10
144.0908218229
 20
99.9191000228
 10
144.0965693233
 20
99.8524325815
 10
144.0971361335
 20
99.7870930117
 10
144.0925013998
 20
99.7245969748
 10
144.0825730322
 20
99.6651310361
 10
144.0674424149
 20
99.6085080491
 10
144.0473628308
 20
99.5556822086
 10
144.0221673558
 20
99.5066428687
 10
143.992021445
 20
99.4613994536
 10
143.9576760675
 20
99.4209355237
 10
143.91914045
 20
99.3854183496
 10
143.9116295309
 20
99.3794350815
  0
LWPOLYLINE
  5
29F
100
AcDbEntity
  8
0
100
AcDbPolyline
 62
253
  6
CONTINUOUS
 90
10
 70
0
 10
123.937119775
 20
111.292814956
 10
123.9013559711
 20
111.3117276021
 10
123.8689630781
 20
111.3325494932
 10
123.840247555
 20
111.3550836404
 10
123.8154810734
 20
111.3791168521
 10
123.7948979367
 20
111.4044217609
 10
123.7786928691
 20
111.4307589762
 10
123.7670191834
 20
111.4578793433
 10
123.7599873354
 20
111.4855262738
 10
123.7576637607
 20
111.5130217759
  0
LWPOLYLINE
  5
2A0
100
AcDbEntity
  8
ASSI
100
AcDbPolyline
 62
253
  6
CONTINUOUS
 90
10
 70
0
 10
123.937119775
 20
111.292814956
 10
123.9013559711
 20
111.3117276021
 10
123.8689630781
 20
111.3325494932
 10
123.840247555
 20
111.3550836404
 10
123.8154810734
 20
111.3791168521
 10
123.7948979367
 20
111.4044217609
 10
123.7786928691
 20
111.4307589762
 10
123.7670191834
 20
111.4578793433
 10
123.7599873354
 20
111.4855262738
 10
123.7576637607
 20
111.5130217759
  0
LWPOLYLINE
  5
2A1
100
AcDbEntity
  8
0
100
AcDbPolyline
 62
253
  6
CONTINUOUS
 90
5
 70
0
 10
141.8829505569
 20
93.147876137
 10
141.8598832271
 20
94.118570198
 10
141.838909966
 20
95.0910746753
 10
141.8200307734
 20
96.0653805293
 10
141.8032456494
 20
97.0414787204
  0
LWPOLYLINE
  5
2A2
100
AcDbEntity
  8
0
100
AcDbPolyline
 62
253
  6
CONTINUOUS
 90
5
 70
0
 10
141.1888816162
 20
97.2882211666
 10
141.2056667402
 20
96.3121229755
 10
141.2245459327
 20
95.3378171216
 10
141.2455191939
 20
94.3653126443
 10
141.2685865236
 20
93.3946185832
  0
LWPOLYLINE
  5
2A3
100
AcDbEntity
  8
0
100
AcDbPolyline
 62
253
  6
CONTINUOUS
 90
51
 70
0
 10
141.8829505569
 20
93.147876137
 10
141.8830058479
 20
93.1416288789
 10
141.8828593578
 20
93.1354673278
 10
141.8825116271
 20
93.1293970151
 10
141.8819631967
 20
93.1234234723
 10
141.8812146073
 20
93.1175522309
 10
141.8802663995
 20
93.1117888223
 10
141.8791191142
 20
93.106138778
 10
141.877773292
 20
93.1006076295
 10
141.8762294736
 20
93.0952009082
 10
141.8744881998
 20
93.0899241456
 10
141.872550321
 20
93.0847829058
 10
141.8704179263
 20
93.0797828832
 10
141.8680934147
 20
93.0749298046
 10
141.8655791848
 20
93.070229397
 10
141.8628776357
 20
93.0656873873
 10
141.8599916091
 20
93.0613093978
 10
141.8569257187
 20
93.0571006313
 10
141.853685021
 20
93.0530661862
 10
141.8502745727
 20
93.0492111606
 10
141.8466994303
 20
93.0455406528
 10
141.8429643195
 20
93.0420590861
 10
141.8390726418
 20
93.0387681843
 10
141.8350274674
 20
93.0356689964
 10
141.8308318669
 20
93.0327625713
 10
141.8264889107
 20
93.030049958
 10
141.8220014739
 20
93.0275323713
 10
141.8173716507
 20
93.0252116899
 10
141.8126013398
 20
93.0230899582
 10
141.80769244
 20
93.0211692206
 10
141.8026468501
 20
93.0194515218
 10
141.7974674287
 20
93.0179389628
 10
141.7921608741
 20
93.0166338713
 10
141.7867348441
 20
93.0155386314
 10
141.7811969969
 20
93.0146556275
 10
141.7755549903
 20
93.0139872437
 10
141.7698164361
 20
93.0135353793
 10
141.7639887616
 20
93.0132999926
 10
141.7580793476
 20
93.013280557
 10
141.752095575
 20
93.0134765459
 10
141.7460448247
 20
93.0138874327
 10
141.7399342089
 20
93.0145124598
 10
141.7337697644
 20
93.0153499469
 10
141.7275572594
 20
93.0163979826
 10
141.7213024618
 20
93.0176546557
 10
141.7150111398
 20
93.019118055
 10
141.7086890615
 20
93.0207862691
 10
141.702341995
 20
93.022657387
 10
141.6959757082
 20
93.0247294972
 10
141.6895959694
 20
93.0270006885
 10
141.6832085465
 20
93.0294690498
  0
LWPOLYLINE
  5
2A4
100
AcDbEntity
  8
0
100
AcDbPolyline
 62
253
  6
CONTINUOUS
 90
51
 70
0
 10
141.1888816162
 20
97.2882211666
 10
141.1888803026
 20
97.2945119206
 10
141.1890801583
 20
97.300717393
 10
141.1894808999
 20
97.3068319284
 10
141.190082244
 20
97.3128498718
 10
141.1908839075
 20
97.3187655678
 10
141.191885607
 20
97.3245733614
 10
141.1930870591
 20
97.3302675972
 10
141.1944879807
 20
97.3358426201
 10
141.1960880883
 20
97.341292775
 10
141.1978870987
 20
97.3466124065
 10
141.1998841558
 20
97.3517958882
 10
141.2020761124
 20
97.3568377081
 10
141.2044592483
 20
97.3617323828
 10
141.2070298436
 20
97.3664744291
 10
141.2097841782
 20
97.3710583636
 10
141.2127185321
 20
97.3754787031
 10
141.2158291852
 20
97.3797299641
 10
141.2191124175
 20
97.3838066633
 10
141.2225645089
 20
97.3877033176
 10
141.2261817394
 20
97.3914144434
 10
141.2299603752
 20
97.3949353173
 10
141.2338966274
 20
97.3982642542
 10
141.2379866937
 20
97.4014003289
 10
141.2422267713
 20
97.4043426163
 10
141.2466130577
 20
97.4070901909
 10
141.2511420946
 20
97.4096419284
 10
141.2558118006
 20
97.411995907
 10
141.2606204384
 20
97.4141500055
 10
141.265566271
 20
97.4161021031
 10
141.270647561
 20
97.4178500786
 10
141.2758615649
 20
97.4193917591
 10
141.2812015137
 20
97.4207247638
 10
141.2866596318
 20
97.4218466604
 10
141.292228144
 20
97.422755016
 10
141.2978992746
 20
97.4234473981
 10
141.3036653104
 20
97.4239218621
 10
141.3095187862
 20
97.4241784149
 10
141.3154522989
 20
97.4242175513
 10
141.3214584456
 20
97.4240397662
 10
141.3275298232
 20
97.4236455543
 10
141.3336592994
 20
97.4230356453
 10
141.339840825
 20
97.4222117073
 10
141.3460686217
 20
97.4211756432
 10
141.3523369112
 20
97.4199293559
 10
141.358639915
 20
97.4184747483
 10
141.3649718549
 20
97.4168137231
 10
141.3713269524
 20
97.4149481834
 10
141.3776994291
 20
97.4128800319
 10
141.3840835068
 20
97.4106111716
 10
141.3904734071
 20
97.4081435053
  0
LWPOLYLINE
  5
2A5
100
AcDbEntity
  8
0
100
AcDbPolyline
 62
253
  6
CONTINUOUS
 90
5
 70
0
 10
141.8032456494
 20
111.9230827177
 10
141.8200307734
 20
112.9266800461
 10
141.838909966
 20
113.9319157584
 10
141.8598832271
 20
114.9387808152
 10
141.8829505569
 20
115.9472661769
  0
LWPOLYLINE
  5
2A6
100
AcDbEntity
  8
0
100
AcDbPolyline
 62
253
  6
CONTINUOUS
 90
5
 70
0
 10
141.2685865236
 20
116.1940086231
 10
141.2455191939
 20
115.1855232614
 10
141.2245459327
 20
114.1786582047
 10
141.2056667402
 20
113.1734224923
 10
141.1888816162
 20
112.169825164
  0
LWPOLYLINE
  5
2A7
100
AcDbEntity
  8
0
100
AcDbPolyline
 62
253
  6
CONTINUOUS
 90
51
 70
0
 10
141.8032456494
 20
111.9230827177
 10
141.8030431021
 20
111.9166249706
 10
141.8026397564
 20
111.9102528091
 10
141.8020360793
 20
111.9039720386
 10
141.8012325376
 20
111.8977884647
 10
141.8002295981
 20
111.891707893
 10
141.7990277277
 20
111.885736129
 10
141.7976273931
 20
111.8798789782
 10
141.7960290612
 20
111.8741422462
 10
141.7942331989
 20
111.8685317384
 10
141.7922402729
 20
111.8630532606
 10
141.790051328
 20
111.8577125936
 10
141.7876697208
 20
111.852515421
 10
141.7850993856
 20
111.8474674016
 10
141.7823442568
 20
111.8425741944
 10
141.7794082689
 20
111.8378414582
 10
141.7762953563
 20
111.833274852
 10
141.7730094534
 20
111.8288800347
 10
141.7695544946
 20
111.8246626653
 10
141.7659344143
 20
111.8206284027
 10
141.7621531469
 20
111.8167829057
 10
141.7582146161
 20
111.8131310535
 10
141.7541227018
 20
111.8096746057
 10
141.7498812732
 20
111.8064145422
 10
141.7454941997
 20
111.8033518428
 10
141.7409653503
 20
111.8004874874
 10
141.7362982522
 20
111.7978226569
 10
141.7314950646
 20
111.7953593366
 10
141.7265576045
 20
111.793099713
 10
141.7214876889
 20
111.7910459725
 10
141.7162871349
 20
111.7892003017
 10
141.7109587802
 20
111.7875649505
 10
141.7055095455
 20
111.7861424239
 10
141.6999473719
 20
111.7849352902
 10
141.6942802009
 20
111.783946118
 10
141.6885159737
 20
111.7831774755
 10
141.6826625534
 20
111.7826314303
 10
141.6767274907
 20
111.7823080455
 10
141.6707182582
 20
111.7822068831
 10
141.6646423283
 20
111.7823275052
 10
141.6585071735
 20
111.7826694739
 10
141.6523199857
 20
111.7832321082
 10
141.6460868333
 20
111.7840137561
 10
141.6398135041
 20
111.7850125221
 10
141.6335057858
 20
111.7862265112
 10
141.6271694661
 20
111.7876538281
 10
141.6208103328
 20
111.7892925777
 10
141.6144341736
 20
111.7911408647
 10
141.6080467763
 20
111.7931967939
 10
141.6016539286
 20
111.7954584703
 10
141.5952614182
 20
111.7979239985
  0
LWPOLYLINE
  5
2A8
100
AcDbEntity
  8
0
100
AcDbPolyline
 62
253
  6
CONTINUOUS
 90
51
 70
0
 10
141.2685865236
 20
116.1940086231
 10
141.2688440453
 20
116.2005121224
 10
141.2693033309
 20
116.2069299005
 10
141.2699635469
 20
116.2132561862
 10
141.27082386
 20
116.2194852084
 10
141.2718834368
 20
116.2256111957
 10
141.2731414438
 20
116.231628377
 10
141.2745970477
 20
116.2375309811
 10
141.276249415
 20
116.2433132366
 10
141.2780977123
 20
116.2489693725
 10
141.2801411063
 20
116.2544936174
 10
141.2823784449
 20
116.2598801603
 10
141.2848073017
 20
116.2651230305
 10
141.2874249316
 20
116.2702162175
 10
141.2902285895
 20
116.2751537108
 10
141.2932155304
 20
116.2799294997
 10
141.2963825621
 20
116.2845376751
 10
141.2997247039
 20
116.2889727334
 10
141.3032365278
 20
116.2932292722
 10
141.3069126061
 20
116.2973018891
 10
141.3107475109
 20
116.3011851818
 10
141.3147361861
 20
116.3048744563
 10
141.3188750632
 20
116.3083678519
 10
141.3231609455
 20
116.3116642163
 10
141.3275906363
 20
116.3147623969
 10
141.3321609389
 20
116.3176612415
 10
141.3368688475
 20
116.3203594281
 10
141.34171212
 20
116.322854957
 10
141.3466887053
 20
116.3251456588
 10
141.3517965522
 20
116.3272293642
 10
141.3570336095
 20
116.3291039039
 10
141.3623968435
 20
116.3307670334
 10
141.3678792909
 20
116.3322162079
 10
141.3734730058
 20
116.3334488072
 10
141.3791700424
 20
116.3344622114
 10
141.3849624548
 20
116.3352538004
 10
141.3908423692
 20
116.3358214604
 10
141.3968021999
 20
116.336165103
 10
141.402834433
 20
116.3362851461
 10
141.4089315549
 20
116.3361820075
 10
141.4150860519
 20
116.3358561052
 10
141.4212906972
 20
116.3353081024
 10
141.4275394115
 20
116.3345396452
 10
141.4338264025
 20
116.3335526248
 10
141.440145878
 20
116.3323489327
 10
141.4464920456
 20
116.3309304604
 10
141.4528591131
 20
116.3292990992
 10
141.4592412881
 20
116.3274567405
 10
141.4656327783
 20
116.3254052758
 10
141.4720277915
 20
116.3231465965
 10
141.4784205354
 20
116.3206825939
  0
LWPOLYLINE
  5
2A9
100
AcDbEntity
  8
SUPERFICI
100
AcDbPolyline
 62
7
  6
CONTINUOUS
 90
34
 70
0
 10
138.9740782262
 20
102.3723455593
 10
138.9701461568
 20
102.3689219902
 10
138.9372785942
 20
102.3368121929
 10
138.907856596
 20
102.3014921024
 10
138.8819878328
 20
102.2630112435
 10
138.8595658076
 20
102.2213210725
 10
138.8408268762
 20
102.1768475716
 10
138.825777877
 20
102.1294245269
 10
138.8144129292
 20
102.0792189557
 10
138.8069487864
 20
102.0271562509
 10
138.8034581355
 20
101.9733474779
 10
138.8038684641
 20
101.9176817225
 10
138.8081781455
 20
101.8607509237
 10
138.8164599519
 20
101.8023891196
 10
138.8286409071
 20
101.7427621071
 10
138.8445001858
 20
101.6829589826
 10
138.8640553142
 20
101.6231140796
 10
138.8872877983
 20
101.5630922599
 10
138.9139222492
 20
101.5035779657
 10
138.9440424153
 20
101.4444832794
 10
138.9775633267
 20
101.3858950998
 10
139.0139561447
 20
101.3287597814
 10
139.0532248046
 20
101.2731546186
 10
139.0953638777
 20
101.2190010681
 10
139.1398302154
 20
101.1670115063
 10
139.1866929054
 20
101.1171721222
 10
139.2358814477
 20
101.0694955439
 10
139.2866432186
 20
101.0247337262
 10
139.3390234819
 20
100.982932486
 10
139.3929758327
 20
100.9440450491
 10
139.4476101856
 20
100.9086845175
 10
139.5026296315
 20
100.8770550784
 10
139.5583304474
 20
100.848952013
 10
139.614712458
 20
100.8243751737
  0
LWPOLYLINE
  5
2AA
100
AcDbEntity
  8
0
100
AcDbPolyline
 62
7
  6
CONTINUOUS
 90
13
 70
0
 10
138.9740698156
 20
102.372355502
 10
138.9824775116
 20
102.3793830143
 10
139.0253786217
 20
102.4102555184
 10
139.0717661161
 20
102.4358754397
 10
139.121794319
 20
102.4561676081
 10
139.1753066367
 20
102.4712053037
 10
139.2311124896
 20
102.4807285777
 10
139.289167368
 20
102.4846245517
 10
139.3495138354
 20
102.4830044868
 10
139.4110919325
 20
102.4759446517
 10
139.4735479546
 20
102.4634701504
 10
139.5372344821
 20
102.4455549471
 10
139.6021511883
 20
102.4221987719
  0
LWPOLYLINE
  5
2AB
100
AcDbEntity
  8
ASSI
100
AcDbPolyline
 62
7
  6
CONTINUOUS
 90
13
 70
0
 10
138.9740698156
 20
102.372355502
 10
138.9824775116
 20
102.3793830143
 10
139.0253786217
 20
102.4102555184
 10
139.0717661161
 20
102.4358754397
 10
139.121794319
 20
102.4561676081
 10
139.1753066367
 20
102.4712053037
 10
139.2311124896
 20
102.4807285777
 10
139.289167368
 20
102.4846245517
 10
139.3495138354
 20
102.4830044868
 10
139.4110919325
 20
102.4759446517
 10
139.4735479546
 20
102.4634701504
 10
139.5372344821
 20
102.4455549471
 10
139.6021511883
 20
102.4221987719
  0
LWPOLYLINE
  5
2AC
100
AcDbEntity
  8
SUPERFICI
100
AcDbPolyline
 62
7
  6
CONTINUOUS
 90
32
 70
0
 10
143.9032809078
 20
106.7449339421
 10
143.9235990764
 20
106.7617920512
 10
143.9570539615
 20
106.7943829548
 10
143.9871024508
 20
106.830216237
 10
144.0136368617
 20
106.8692423625
 10
144.0367660504
 20
106.9115118079
 10
144.0562474777
 20
106.9565935259
 10
144.0720776995
 20
107.0046565106
 10
144.0842611177
 20
107.0555325335
 10
144.0925664393
 20
107.1082842916
 10
144.0969190647
 20
107.1627991529
 10
144.0973937683
 20
107.2191898842
 10
144.0939827369
 20
107.2768568139
 10
144.0866153164
 20
107.3359676392
 10
144.075361957
 20
107.3963544936
 10
144.0604259274
 20
107.4569138995
 10
144.041786331
 20
107.5175087625
 10
144.0194630966
 20
107.5782753959
 10
143.9937201975
 20
107.6385200065
 10
143.9644736968
 20
107.6983303577
 10
143.9318063098
 20
107.7576177035
 10
143.8962316163
 20
107.8154231902
 10
143.8577426929
 20
107.8716670758
 10
143.8163449696
 20
107.9264279045
 10
143.7725702912
 20
107.9789840404
 10
143.7263479044
 20
108.0293479302
 10
143.6777471503
 20
108.0775059965
 10
143.6275099216
 20
108.122697494
 10
143.5755885477
 20
108.1648746343
 10
143.5220295582
 20
108.2040842939
 10
143.467716186
 20
108.2397077575
 10
143.4129426284
 20
108.2715386165
  0
LINE
  5
2AD
100
AcDbEntity
  8
SUPERFICI
100
AcDbLine
 62
7
  6
CONTINUOUS
 10
139.0059012983
 20
102.3972480932
 11
138.9740782262
 21
102.3723455593
  0
LWPOLYLINE
  5
2AE
100
AcDbEntity
  8
0
100
AcDbPolyline
 62
7
  6
CONTINUOUS
 90
11
 70
0
 10
143.9032663719
 20
106.7449522888
 10
143.8675697156
 20
106.7198057441
 10
143.8206470846
 20
106.6937474646
 10
143.7701471757
 20
106.6730688972
 10
143.7162240504
 20
106.6576946876
 10
143.6600742876
 20
106.6478896993
 10
143.601741926
 20
106.6437664242
 10
143.5411809805
 20
106.6452107991
 10
143.4794530051
 20
106.652147861
 10
143.4169114659
 20
106.6645523109
 10
143.3532017724
 20
106.6824485376
  0
LWPOLYLINE
  5
2AF
100
AcDbEntity
  8
ASSI
100
AcDbPolyline
 62
7
  6
CONTINUOUS
 90
11
 70
0
 10
143.9032663719
 20
106.7449522888
 10
143.8675697156
 20
106.7198057441
 10
143.8206470846
 20
106.6937474646
 10
143.7701471757
 20
106.6730688972
 10
143.7162240504
 20
106.6576946876
 10
143.6600742876
 20
106.6478896993
 10
143.601741926
 20
106.6437664242
 10
143.5411809805
 20
106.6452107991
 10
143.4794530051
 20
106.652147861
 10
143.4169114659
 20
106.6645523109
 10
143.3532017724
 20
106.6824485376
  0
LWPOLYLINE
  5
2B0
100
AcDbEntity
  8
0
100
AcDbPolyline
 62
253
  6
CONTINUOUS
 90
10
 70
0
 10
159.6976841474
 20
97.6865299134
 10
158.5749512397
 20
98.0658337966
 10
157.4899980692
 20
98.439783303
 10
156.4428246361
 20
98.8083784327
 10
155.4340696864
 20
99.1722221737
 10
154.463094474
 20
99.5307115379
 10
153.5279827608
 20
99.8820375612
 10
152.6280958008
 20
100.2255972555
 10
151.76407234
 20
100.5619936089
 10
150.9359123785
 20
100.8912266214
  0
LWPOLYLINE
  5
2B1
100
AcDbEntity
  8
ASSI
100
AcDbPolyline
 62
253
  6
CONTINUOUS
 90
10
 70
0
 10
159.6976841474
 20
97.6865299134
 10
158.5749512397
 20
98.0658337966
 10
157.4899980692
 20
98.439783303
 10
156.4428246361
 20
98.8083784327
 10
155.4340696864
 20
99.1722221737
 10
154.463094474
 20
99.5307115379
 10
153.5279827608
 20
99.8820375612
 10
152.6280958008
 20
100.2255972555
 10
151.76407234
 20
100.5619936089
 10
150.9359123785
 20
100.8912266214
  0
LWPOLYLINE
  5
2B2
100
AcDbEntity
  8
0
100
AcDbPolyline
 62
7
  6
CONTINUOUS
 90
10
 70
0
 10
150.7530368384
 20
101.235524791
 10
151.6929288307
 20
100.8635748646
 10
152.6955327883
 20
100.474019046
 10
153.6945614613
 20
100.0932834844
 10
154.6898792812
 20
99.7213615875
 10
155.6813549365
 20
99.3582367848
 10
156.6688601696
 20
99.003884668
 10
157.6522451316
 20
98.6582801411
 10
158.6313329274
 20
98.3213987921
 10
159.5419783628
 20
98.0145317872
  0
LWPOLYLINE
  5
2B3
100
AcDbEntity
  8
ASSI
100
AcDbPolyline
 62
7
  6
CONTINUOUS
 90
10
 70
0
 10
150.7530368384
 20
101.235524791
 10
151.6929288307
 20
100.8635748646
 10
152.6955327883
 20
100.474019046
 10
153.6945614613
 20
100.0932834844
 10
154.6898792812
 20
99.7213615875
 10
155.6813549365
 20
99.3582367848
 10
156.6688601696
 20
99.003884668
 10
157.6522451316
 20
98.6582801411
 10
158.6313329274
 20
98.3213987921
 10
159.5419783628
 20
98.0145317872
  0
LWPOLYLINE
  5
2B4
100
AcDbEntity
  8
0
100
AcDbPolyline
 62
253
  6
CONTINUOUS
 90
10
 70
0
 10
150.6527996019
 20
101.465258392
 10
151.4869266402
 20
101.1348443193
 10
152.3555053838
 20
100.7962363183
 10
153.2590692076
 20
100.4499217277
 10
154.1981602405
 20
100.0964366561
 10
155.173388401
 20
99.7363195411
 10
156.1854335901
 20
99.3701138397
 10
157.2349689062
 20
98.9984334911
 10
158.3226605727
 20
98.6219637092
 10
159.4492279294
 20
98.2414154732
  0
LWPOLYLINE
  5
2B5
100
AcDbEntity
  8
ASSI
100
AcDbPolyline
 62
253
  6
CONTINUOUS
 90
10
 70
0
 10
150.6527996019
 20
101.465258392
 10
151.4869266402
 20
101.1348443193
 10
152.3555053838
 20
100.7962363183
 10
153.2590692076
 20
100.4499217277
 10
154.1981602405
 20
100.0964366561
 10
155.173388401
 20
99.7363195411
 10
156.1854335901
 20
99.3701138397
 10
157.2349689062
 20
98.9984334911
 10
158.3226605727
 20
98.6219637092
 10
159.4492279294
 20
98.2414154732
  0
LINE
  5
2B6
100
AcDbEntity
  8
0
100
AcDbLine
 62
7
  6
CONTINUOUS
 10
148.786440952
 20
102.0224128729
 11
150.7530373495
 21
101.2355243976
  0
LINE
  5
2B7
100
AcDbEntity
  8
ASSI
100
AcDbLine
 62
7
  6
CONTINUOUS
 10
148.786440952
 20
102.0224128729
 11
150.7530373495
 21
101.2355243976
  0
LINE
  5
2B8
100
AcDbEntity
  8
0
100
AcDbLine
 62
253
  6
CONTINUOUS
 10
150.6527996019
 20
100.2475634685
 11
148.8958205614
 21
100.9503629868
  0
LINE
  5
2B9
100
AcDbEntity
  8
ASSI
100
AcDbLine
 62
253
  6
CONTINUOUS
 10
150.6527996019
 20
100.2475634685
 11
148.8958205614
 21
100.9503629868
  0
LINE
  5
2BA
100
AcDbEntity
  8
0
100
AcDbLine
 62
253
  6
CONTINUOUS
 10
150.9359123785
 20
100.8912266214
 11
148.3022442802
 21
101.9456518119
  0
LINE
  5
2BB
100
AcDbEntity
  8
ASSI
100
AcDbLine
 62
253
  6
CONTINUOUS
 10
150.9359123785
 20
100.8912266214
 11
148.3022442802
 21
101.9456518119
  0
LINE
  5
2BC
100
AcDbEntity
  8
0
100
AcDbLine
 62
253
  6
CONTINUOUS
 10
147.1370955838
 20
102.8739964315
 11
150.6527996019
 21
101.465258392
  0
LINE
  5
2BD
100
AcDbEntity
  8
ASSI
100
AcDbLine
 62
253
  6
CONTINUOUS
 10
147.1370955838
 20
102.8739964315
 11
150.6527996019
 21
101.465258392
  0
LINE
  5
2BE
100
AcDbEntity
  8
0
100
AcDbLine
 62
253
  6
CONTINUOUS
 10
148.8958205614
 20
100.9503629868
 11
146.2636139084
 21
102.007380972
  0
LINE
  5
2BF
100
AcDbEntity
  8
ASSI
100
AcDbLine
 62
253
  6
CONTINUOUS
 10
148.8958205614
 20
100.9503629868
 11
146.2636139084
 21
102.007380972
  0
LWPOLYLINE
  5
2C0
100
AcDbEntity
  8
0
100
AcDbPolyline
 62
253
  6
CONTINUOUS
 90
3
 70
0
 10
146.2636139084
 20
102.007380972
 10
144.5098762769
 20
102.7130094425
 10
134.854089695
 20
106.5893585132
  0
LWPOLYLINE
  5
2C1
100
AcDbEntity
  8
ASSI
100
AcDbPolyline
 62
253
  6
CONTINUOUS
 90
3
 70
0
 10
146.2636139084
 20
102.007380972
 10
144.5098762769
 20
102.7130094425
 10
134.854089695
 20
106.5893585132
  0
LWPOLYLINE
  5
2C2
100
AcDbEntity
  8
0
100
AcDbPolyline
 62
7
  6
CONTINUOUS
 90
3
 70
0
 10
140.5971993888
 20
105.3141050664
 10
144.7102288489
 20
103.6607342571
 10
148.786440952
 20
102.0224128729
  0
LWPOLYLINE
  5
2C3
100
AcDbEntity
  8
ASSI
100
AcDbPolyline
 62
7
  6
CONTINUOUS
 90
3
 70
0
 10
140.5971993888
 20
105.3141050664
 10
144.7102288489
 20
103.6607342571
 10
148.786440952
 20
102.0224128729
  0
LINE
  5
2C4
100
AcDbEntity
  8
0
100
AcDbLine
 62
253
  6
CONTINUOUS
 10
141.8731030206
 20
104.9913363994
 11
147.1370955838
 21
102.8739964315
  0
LINE
  5
2C5
100
AcDbEntity
  8
ASSI
100
AcDbLine
 62
253
  6
CONTINUOUS
 10
141.8731030206
 20
104.9913363994
 11
147.1370955838
 21
102.8739964315
  0
LWPOLYLINE
  5
2C6
100
AcDbEntity
  8
0
100
AcDbPolyline
 62
253
  6
CONTINUOUS
 90
3
 70
0
 10
134.854089695
 20
106.5893585132
 10
133.098834928
 20
107.2958553828
 10
132.2218786054
 20
107.6498368561
  0
LWPOLYLINE
  5
2C7
100
AcDbEntity
  8
ASSI
100
AcDbPolyline
 62
253
  6
CONTINUOUS
 90
3
 70
0
 10
134.854089695
 20
106.5893585132
 10
133.098834928
 20
107.2958553828
 10
132.2218786054
 20
107.6498368561
  0
LWPOLYLINE
  5
2C8
100
AcDbEntity
  8
0
100
AcDbPolyline
 62
253
  6
CONTINUOUS
 90
3
 70
0
 10
148.3022442802
 20
101.9456518119
 10
133.3840356528
 20
107.9388786748
 10
132.5073335961
 20
108.2925593229
  0
LWPOLYLINE
  5
2C9
100
AcDbEntity
  8
ASSI
100
AcDbPolyline
 62
253
  6
CONTINUOUS
 90
3
 70
0
 10
148.3022442802
 20
101.9456518119
 10
133.3840356528
 20
107.9388786748
 10
132.5073335961
 20
108.2925593229
  0
LWPOLYLINE
  5
2CA
100
AcDbEntity
  8
0
100
AcDbPolyline
 62
7
  6
CONTINUOUS
 90
3
 70
0
 10
132.3225235729
 20
108.6376342575
 10
134.3533449973
 20
107.8190238637
 10
140.5971993888
 20
105.3141050664
  0
LWPOLYLINE
  5
2CB
100
AcDbEntity
  8
ASSI
100
AcDbPolyline
 62
7
  6
CONTINUOUS
 90
3
 70
0
 10
132.3225235729
 20
108.6376342575
 10
134.3533449973
 20
107.8190238637
 10
140.5971993888
 20
105.3141050664
  0
LWPOLYLINE
  5
2CC
100
AcDbEntity
  8
0
100
AcDbPolyline
 62
253
  6
CONTINUOUS
 90
3
 70
0
 10
132.2218786054
 20
108.8675317796
 10
133.0977733452
 20
108.5140161735
 10
141.8731030206
 20
104.9913363994
  0
LWPOLYLINE
  5
2CD
100
AcDbEntity
  8
ASSI
100
AcDbPolyline
 62
253
  6
CONTINUOUS
 90
3
 70
0
 10
132.2218786054
 20
108.8675317796
 10
133.0977733452
 20
108.5140161735
 10
141.8731030206
 20
104.9913363994
  0
LWPOLYLINE
  5
2CE
100
AcDbEntity
  8
0
100
AcDbPolyline
 62
253
  6
CONTINUOUS
 90
6
 70
0
 10
132.5073335961
 20
108.2925593229
 10
131.6826842444
 20
108.6271649718
 10
130.8344113991
 20
108.9784990669
 10
129.96251506
 20
109.3465616084
 10
129.0662501475
 20
109.7308039993
 10
128.1463617413
 20
110.1317748365
  0
LWPOLYLINE
  5
2CF
100
AcDbEntity
  8
ASSI
100
AcDbPolyline
 62
253
  6
CONTINUOUS
 90
6
 70
0
 10
132.5073335961
 20
108.2925593229
 10
131.6826842444
 20
108.6271649718
 10
130.8344113991
 20
108.9784990669
 10
129.96251506
 20
109.3465616084
 10
129.0662501475
 20
109.7308039993
 10
128.1463617413
 20
110.1317748365
  0
LWPOLYLINE
  5
2D0
100
AcDbEntity
  8
0
100
AcDbPolyline
 62
253
  6
CONTINUOUS
 90
10
 70
0
 10
132.2218786054
 20
107.6498368561
 10
131.3953347439
 20
107.9864627037
 10
130.5437067332
 20
108.3389559321
 10
129.6676109987
 20
108.7077710642
 10
128.7677266668
 20
109.0933723851
 10
127.8447420761
 20
109.496284927
 10
126.8993584361
 20
109.9170965727
 10
125.9323662982
 20
110.3563923345
 10
124.9446468831
 20
110.8147545905
 10
123.9371197892
 20
111.2928149012
  0
LWPOLYLINE
  5
2D1
100
AcDbEntity
  8
ASSI
100
AcDbPolyline
 62
253
  6
CONTINUOUS
 90
10
 70
0
 10
132.2218786054
 20
107.6498368561
 10
131.3953347439
 20
107.9864627037
 10
130.5437067332
 20
108.3389559321
 10
129.6676109987
 20
108.7077710642
 10
128.7677266668
 20
109.0933723851
 10
127.8447420761
 20
109.496284927
 10
126.8993584361
 20
109.9170965727
 10
125.9323662982
 20
110.3563923345
 10
124.9446468831
 20
110.8147545905
 10
123.9371197892
 20
111.2928149012
  0
LWPOLYLINE
  5
2D2
100
AcDbEntity
  8
0
100
AcDbPolyline
 62
253
  6
CONTINUOUS
 90
5
 70
0
 10
128.1463617413
 20
110.1317748365
 10
127.2050850805
 20
110.5511199104
 10
126.2431652445
 20
110.9893878179
 10
125.2598571539
 20
111.4460299621
 10
124.2551608085
 20
111.9210463431
  0
LWPOLYLINE
  5
2D3
100
AcDbEntity
  8
ASSI
100
AcDbPolyline
 62
253
  6
CONTINUOUS
 90
5
 70
0
 10
128.1463617413
 20
110.1317748365
 10
127.2050850805
 20
110.5511199104
 10
126.2431652445
 20
110.9893878179
 10
125.2598571539
 20
111.4460299621
 10
124.2551608085
 20
111.9210463431
  0
LWPOLYLINE
  5
2D4
100
AcDbEntity
  8
0
100
AcDbPolyline
 62
253
  6
CONTINUOUS
 90
10
 70
0
 10
123.937119791
 20
112.5038787004
 10
124.9465348298
 20
112.0264432172
 10
125.9356976069
 20
111.5687390599
 10
126.9036749255
 20
111.1301256765
 10
127.84957356
 20
110.7099948193
 10
128.7725918003
 20
110.3077715684
 10
129.6720180214
 20
109.9229140488
 10
130.547155009
 20
109.5549086142
 10
131.3973162349
 20
109.2032677198
 10
132.2218786054
 20
108.8675317796
  0
LWPOLYLINE
  5
2D5
100
AcDbEntity
  8
ASSI
100
AcDbPolyline
 62
253
  6
CONTINUOUS
 90
10
 70
0
 10
123.937119791
 20
112.5038787004
 10
124.9465348298
 20
112.0264432172
 10
125.9356976069
 20
111.5687390599
 10
126.9036749255
 20
111.1301256765
 10
127.84957356
 20
110.7099948193
 10
128.7725918003
 20
110.3077715684
 10
129.6720180214
 20
109.9229140488
 10
130.547155009
 20
109.5549086142
 10
131.3973162349
 20
109.2032677198
 10
132.2218786054
 20
108.8675317796
  0
LWPOLYLINE
  5
2D6
100
AcDbEntity
  8
0
100
AcDbPolyline
 62
7
  6
CONTINUOUS
 90
10
 70
0
 10
124.0419091873
 20
112.2723038905
 10
124.8503430715
 20
111.8890726579
 10
125.7365331534
 20
111.4767446536
 10
126.6385753568
 20
111.0650518758
 10
127.5564518185
 20
110.6540967866
 10
128.4901548293
 20
110.2439676706
 10
129.4396835319
 20
109.8347406413
 10
130.4050227891
 20
109.4264909809
 10
131.3861394008
 20
109.0192930137
 10
132.3225249023
 20
108.6376338952
  0
LWPOLYLINE
  5
2D7
100
AcDbEntity
  8
ASSI
100
AcDbPolyline
 62
7
  6
CONTINUOUS
 90
10
 70
0
 10
124.0419091873
 20
112.2723038905
 10
124.8503430715
 20
111.8890726579
 10
125.7365331534
 20
111.4767446536
 10
126.6385753568
 20
111.0650518758
 10
127.5564518185
 20
110.6540967866
 10
128.4901548293
 20
110.2439676706
 10
129.4396835319
 20
109.8347406413
 10
130.4050227891
 20
109.4264909809
 10
131.3861394008
 20
109.0192930137
 10
132.3225249023
 20
108.6376338952
  0
LWPOLYLINE
  5
2D8
100
AcDbEntity
  8
0
100
AcDbPolyline
 62
7
  6
CONTINUOUS
 90
7
 70
0
 10
124.041775009
 20
112.2723680972
 10
124.0311026476
 20
112.2776339564
 10
123.9920473636
 20
112.299745184
 10
123.9552200913
 20
112.3252025538
 10
123.9206452215
 20
112.3540092771
 10
123.888652815
 20
112.385969604
 10
123.8595906111
 20
112.420805832
  0
LWPOLYLINE
  5
2D9
100
AcDbEntity
  8
ASSI
100
AcDbPolyline
 62
7
  6
CONTINUOUS
 90
7
 70
0
 10
124.041775009
 20
112.2723680972
 10
124.0311026476
 20
112.2776339564
 10
123.9920473636
 20
112.299745184
 10
123.9552200913
 20
112.3252025538
 10
123.9206452215
 20
112.3540092771
 10
123.888652815
 20
112.385969604
 10
123.8595906111
 20
112.420805832
  0
LINE
  5
2DA
100
AcDbEntity
  8
0
100
AcDbLine
 62
7
  6
CONTINUOUS
 10
146.8700698176
 20
123.7160464463
 11
146.8089175621
 21
123.2890457358
  0
LINE
  5
2DB
100
AcDbEntity
  8
ASSI
100
AcDbLine
 62
7
  6
CONTINUOUS
 10
146.8700698176
 20
123.7160464463
 11
146.8089175621
 21
123.2890457358
  0
LINE
  5
2DC
100
AcDbEntity
  8
0
100
AcDbLine
 62
7
  6
CONTINUOUS
 10
143.3532017724
 20
106.6824485376
 11
143.2883235977
 21
106.705836276
  0
LINE
  5
2DD
100
AcDbEntity
  8
ASSI
100
AcDbLine
 62
7
  6
CONTINUOUS
 10
143.3532017724
 20
106.6824485376
 11
143.2883235977
 21
106.705836276
  0
LWPOLYLINE
  5
2DE
100
AcDbEntity
  8
SUPERFICI
100
AcDbPolyline
 62
7
  6
CONTINUOUS
 90
13
 70
0
 10
139.6147123614
 20
109.8049886453
 10
139.5584077592
 20
109.825553966
 10
139.5027839936
 20
109.8419676068
 10
139.4478412392
 20
109.8542297065
 10
139.3932950796
 20
109.8623745632
 10
139.3394305593
 20
109.8663683798
 10
139.2871021754
 20
109.8661092574
 10
139.236325941
 20
109.8615077362
 10
139.1870869854
 20
109.8526541891
 10
139.1401935193
 20
109.8397164998
 10
139.0957500184
 20
109.8226632533
 10
139.0536534071
 20
109.8015269855
 10
139.0144004803
 20
109.7765714352
  0
LWPOLYLINE
  5
2DF
100
AcDbEntity
  8
SUPERFICI
100
AcDbPolyline
 62
7
  6
CONTINUOUS
 90
14
 70
0
 10
143.2882568996
 20
106.705856064
 10
143.3445716736
 20
106.685210776
 10
143.4001733078
 20
106.6687121687
 10
143.455061995
 20
106.6563603989
 10
143.509515767
 20
106.6481229703
 10
143.5632572563
 20
106.6440329172
 10
143.6154536861
 20
106.6441887964
 10
143.6660963243
 20
106.6486788908
 10
143.7151950745
 20
106.6574158639
 10
143.7619451457
 20
106.6702348691
 10
143.8062435074
 20
106.6871685854
 10
143.848194605
 20
106.7081854745
 10
143.8873047635
 20
106.7330242848
 10
143.9032809078
 20
106.7449339421
  0
LINE
  5
2E0
100
AcDbEntity
  8
0
100
AcDbLine
 62
7
  6
CONTINUOUS
 10
162.22825747
 20
99.789127743
 11
162.321324862
 21
99.7517497802
  0
LINE
  5
2E1
100
AcDbEntity
  8
ASSI
100
AcDbLine
 62
7
  6
CONTINUOUS
 10
162.22825747
 20
99.789127743
 11
162.321324862
 21
99.7517497802
  0
LINE
  5
2E2
100
AcDbEntity
  8
SUPERFICI
100
AcDbLine
 62
7
  6
CONTINUOUS
 10
139.6022177499
 20
108.1862524863
 11
143.2882568996
 21
106.705856064
  0
LINE
  5
2E3
100
AcDbEntity
  8
0
100
AcDbLine
 62
7
  6
CONTINUOUS
 10
143.2883235977
 20
106.705836276
 11
139.6021511543
 21
108.1862791878
  0
LINE
  5
2E4
100
AcDbEntity
  8
ASSI
100
AcDbLine
 62
7
  6
CONTINUOUS
 10
143.2883235977
 20
106.705836276
 11
139.6021511543
 21
108.1862791878
  0
LINE
  5
2E5
100
AcDbEntity
  8
SUPERFICI
100
AcDbLine
 62
7
  6
CONTINUOUS
 10
143.3011302939
 20
108.3244400954
 11
139.6147123614
 21
109.8049886453
  0
LINE
  5
2E6
100
AcDbEntity
  8
0
100
AcDbLine
 62
7
  6
CONTINUOUS
 10
139.6148194694
 20
109.8049570358
 11
143.3010235181
 21
108.3244830486
  0
LINE
  5
2E7
100
AcDbEntity
  8
ASSI
100
AcDbLine
 62
7
  6
CONTINUOUS
 10
139.6148194694
 20
109.8049570358
 11
143.3010235181
 21
108.3244830486
  0
LWPOLYLINE
  5
2E8
100
AcDbEntity
  8
0
100
AcDbPolyline
 62
7
  6
CONTINUOUS
 90
29
 70
0
 10
139.6021511543
 20
108.1862791878
 10
139.5371794941
 20
108.2150600582
 10
139.47345678
 20
108.2483558416
 10
139.4109833394
 20
108.2861668038
 10
139.3494067098
 20
108.3287559023
 10
139.2890804785
 20
108.3758610903
 10
139.2310642502
 20
108.4266952905
 10
139.1753255123
 20
108.4814010256
 10
139.1218987163
 20
108.5398373382
 10
139.0719439195
 20
108.6007919356
 10
139.0256072202
 20
108.6642160722
 10
138.9827447751
 20
108.7301603102
 10
138.9440814673
 20
108.7975611064
 10
138.9096117322
 20
108.8665942834
 10
138.8793433763
 20
108.93708582
 10
138.8540207121
 20
109.0074469015
 10
138.8338023049
 20
109.0775378568
 10
138.8185310229
 20
109.1474995034
 10
138.8084767535
 20
109.216163051
 10
138.8037305021
 20
109.2836506676
 10
138.8042019378
 20
109.3498407186
 10
138.8098878724
 20
109.4131978489
 10
138.8208773497
 20
109.4735329977
 10
138.83708062
 20
109.5310346506
 10
138.8582252307
 20
109.5847329098
 10
138.8844781529
 20
109.6346384598
 10
138.9156709465
 20
109.680739431
 10
138.9510271582
 20
109.7220313879
 10
138.9818087218
 20
109.7510504925
  0
LWPOLYLINE
  5
2E9
100
AcDbEntity
  8
ASSI
100
AcDbPolyline
 62
7
  6
CONTINUOUS
 90
29
 70
0
 10
139.6021511543
 20
108.1862791878
 10
139.5371794941
 20
108.2150600582
 10
139.47345678
 20
108.2483558416
 10
139.4109833394
 20
108.2861668038
 10
139.3494067098
 20
108.3287559023
 10
139.2890804785
 20
108.3758610903
 10
139.2310642502
 20
108.4266952905
 10
139.1753255123
 20
108.4814010256
 10
139.1218987163
 20
108.5398373382
 10
139.0719439195
 20
108.6007919356
 10
139.0256072202
 20
108.6642160722
 10
138.9827447751
 20
108.7301603102
 10
138.9440814673
 20
108.7975611064
 10
138.9096117322
 20
108.8665942834
 10
138.8793433763
 20
108.93708582
 10
138.8540207121
 20
109.0074469015
 10
138.8338023049
 20
109.0775378568
 10
138.8185310229
 20
109.1474995034
 10
138.8084767535
 20
109.216163051
 10
138.8037305021
 20
109.2836506676
 10
138.8042019378
 20
109.3498407186
 10
138.8098878724
 20
109.4131978489
 10
138.8208773497
 20
109.4735329977
 10
138.83708062
 20
109.5310346506
 10
138.8582252307
 20
109.5847329098
 10
138.8844781529
 20
109.6346384598
 10
138.9156709465
 20
109.680739431
 10
138.9510271582
 20
109.7220313879
 10
138.9818087218
 20
109.7510504925
  0
LWPOLYLINE
  5
2EA
100
AcDbEntity
  8
0
100
AcDbPolyline
 62
7
  6
CONTINUOUS
 90
30
 70
0
 10
143.3010235181
 20
108.3244830486
 10
143.3659137489
 20
108.2956445334
 10
143.429538322
 20
108.2622752467
 10
143.4918975382
 20
108.2243754282
 10
143.5533440141
 20
108.1816815574
 10
143.6135262059
 20
108.1344580108
 10
143.6713883811
 20
108.0834970384
 10
143.7269644092
 20
108.0286578864
 10
143.7802223198
 20
107.9700828273
 10
143.8300076383
 20
107.908988667
 10
143.876176653
 20
107.845425902
 10
143.9188753183
 20
107.7793458327
 10
143.957383413
 20
107.711816276
 10
143.9917083069
 20
107.6426628136
 10
144.0218448866
 20
107.5720616757
 10
144.0470535944
 20
107.5016061643
 10
144.0671775078
 20
107.4314374181
 10
144.0823750257
 20
107.3614154893
 10
144.0923787047
 20
107.2927113566
 10
144.097098218
 20
107.2252036124
 10
144.0966246228
 20
107.159014259
 10
144.090961485
 20
107.0956785336
 10
144.0800192106
 20
107.0353851012
 10
144.0638867439
 20
106.9779447832
 10
144.0428343795
 20
106.9243251851
 10
144.0166940791
 20
106.874514692
 10
143.9856324553
 20
106.8285237787
 10
143.9504208839
 20
106.7873524634
 10
143.9110713998
 20
106.7511702097
 10
143.9032663719
 20
106.7449522888
  0
LWPOLYLINE
  5
2EB
100
AcDbEntity
  8
ASSI
100
AcDbPolyline
 62
7
  6
CONTINUOUS
 90
30
 70
0
 10
143.3010235181
 20
108.3244830486
 10
143.3659137489
 20
108.2956445334
 10
143.429538322
 20
108.2622752467
 10
143.4918975382
 20
108.2243754282
 10
143.5533440141
 20
108.1816815574
 10
143.6135262059
 20
108.1344580108
 10
143.6713883811
 20
108.0834970384
 10
143.7269644092
 20
108.0286578864
 10
143.7802223198
 20
107.9700828273
 10
143.8300076383
 20
107.908988667
 10
143.876176653
 20
107.845425902
 10
143.9188753183
 20
107.7793458327
 10
143.957383413
 20
107.711816276
 10
143.9917083069
 20
107.6426628136
 10
144.0218448866
 20
107.5720616757
 10
144.0470535944
 20
107.5016061643
 10
144.0671775078
 20
107.4314374181
 10
144.0823750257
 20
107.3614154893
 10
144.0923787047
 20
107.2927113566
 10
144.097098218
 20
107.2252036124
 10
144.0966246228
 20
107.159014259
 10
144.090961485
 20
107.0956785336
 10
144.0800192106
 20
107.0353851012
 10
144.0638867439
 20
106.9779447832
 10
144.0428343795
 20
106.9243251851
 10
144.0166940791
 20
106.874514692
 10
143.9856324553
 20
106.8285237787
 10
143.9504208839
 20
106.7873524634
 10
143.9110713998
 20
106.7511702097
 10
143.9032663719
 20
106.7449522888
  0
LWPOLYLINE
  5
2EC
100
AcDbEntity
  8
SUPERFICI
100
AcDbPolyline
 62
7
  6
CONTINUOUS
 90
3
 70
0
 10
143.4129426284
 20
108.2715386165
 10
143.3574140562
 20
108.2997827757
 10
143.3011302939
 20
108.3244400954
  0
LINE
  5
2ED
100
AcDbEntity
  8
0
100
AcDbLine
 62
7
  6
CONTINUOUS
 10
146.8700698176
 20
123.7160464463
 11
146.8761670833
 21
123.1887597523
  0
LINE
  5
2EE
100
AcDbEntity
  8
ASSI
100
AcDbLine
 62
7
  6
CONTINUOUS
 10
146.8700698176
 20
123.7160464463
 11
146.8761670833
 21
123.1887597523
  0
LINE
  5
2EF
100
AcDbEntity
  8
0
100
AcDbLine
 62
253
  6
CONTINUOUS
 10
146.8089175621
 20
123.2890457358
 11
146.8089175621
 21
123.2781404685
  0
LINE
  5
2F0
100
AcDbEntity
  8
ASSI
100
AcDbLine
 62
253
  6
CONTINUOUS
 10
146.8089175621
 20
123.2890457358
 11
146.8089175621
 21
123.2781404685
  0
LINE
  5
2F1
100
AcDbEntity
  8
0
100
AcDbLine
 62
7
  6
CONTINUOUS
 10
146.8082486496
 20
123.2781404685
 11
146.8089175621
 21
123.2890457358
  0
LINE
  5
2F2
100
AcDbEntity
  8
ASSI
100
AcDbLine
 62
7
  6
CONTINUOUS
 10
146.8082486496
 20
123.2781404685
 11
146.8089175621
 21
123.2890457358
  0
LINE
  5
2F3
100
AcDbEntity
  8
0
100
AcDbLine
 62
253
  6
CONTINUOUS
 10
160.3480549739
 20
116.426785808
 11
161.8503178554
 21
117.6996411125
  0
LINE
  5
2F4
100
AcDbEntity
  8
ASSI
100
AcDbLine
 62
253
  6
CONTINUOUS
 10
160.3480549739
 20
116.426785808
 11
161.8503178554
 21
117.6996411125
  0
LINE
  5
2F5
100
AcDbEntity
  8
0
100
AcDbLine
 62
253
  6
CONTINUOUS
 10
160.7649927398
 20
115.8594778564
 11
162.2853832237
 21
117.1476925332
  0
LINE
  5
2F6
100
AcDbEntity
  8
ASSI
100
AcDbLine
 62
253
  6
CONTINUOUS
 10
160.7649927398
 20
115.8594778564
 11
162.2853832237
 21
117.1476925332
  0
LINE
  5
2F7
100
AcDbEntity
  8
0
100
AcDbLine
 62
253
  6
CONTINUOUS
 10
141.3904734077
 20
111.8801715171
 11
141.5952614187
 21
111.797924035
  0
LWPOLYLINE
  5
2F8
100
AcDbEntity
  8
0
100
AcDbPolyline
 62
253
  6
CONTINUOUS
 90
51
 70
0
 10
141.3904734071
 20
111.8801714806
 10
141.3840616288
 20
111.8828487668
 10
141.3776575694
 20
111.8857276237
 10
141.37126711
 20
111.8888053117
 10
141.3648961321
 20
111.892079091
 10
141.358550517
 20
111.895546222
 10
141.352236146
 20
111.899203965
 10
141.3459589005
 20
111.9030495804
 10
141.3397246617
 20
111.9070803285
 10
141.333539311
 20
111.9112934696
 10
141.3274087296
 20
111.915686264
 10
141.3213389928
 20
111.9202553104
 10
141.3153369504
 20
111.9249945602
 10
141.309409646
 20
111.9298973034
 10
141.3035641234
 20
111.9349568297
 10
141.2978074262
 20
111.940166429
 10
141.2921465981
 20
111.945519391
 10
141.2865886828
 20
111.9510090056
 10
141.2811407239
 20
111.9566285626
 10
141.2758097652
 20
111.9623713518
 10
141.2706028502
 20
111.9682306631
 10
141.2655262582
 20
111.9742000898
 10
141.2605832103
 20
111.9802744398
 10
141.2557761634
 20
111.9864488246
 10
141.2511075741
 20
111.9927183556
 10
141.2465798992
 20
111.9990781444
 10
141.24219566
 20
112.0055236279
 10
141.2379576364
 20
112.0120515461
 10
141.233868673
 20
112.0186589643
 10
141.2299316143
 20
112.0253429482
 10
141.2261493048
 20
112.0321005631
 10
141.2225250408
 20
112.0389276569
 10
141.2190639254
 20
112.0458152062
 10
141.2157715135
 20
112.0527529702
 10
141.21265336
 20
112.0597307078
 10
141.2097150199
 20
112.0667381781
 10
141.2069615244
 20
112.0737654214
 10
141.20439581
 20
112.0808036036
 10
141.2020202899
 20
112.0878441718
 10
141.199837377
 20
112.0948785733
 10
141.1978494844
 20
112.101898255
 10
141.196058679
 20
112.1088950857
 10
141.1944656444
 20
112.1158626188
 10
141.1930707181
 20
112.1227948293
 10
141.1918742375
 20
112.1296856921
 10
141.1908765402
 20
112.1365291822
 10
141.1900779637
 20
112.1433192745
 10
141.1894788455
 20
112.1500499438
 10
141.1890795232
 20
112.1567151653
 10
141.1888803343
 20
112.1633089137
 10
141.1888816162
 20
112.169825164
  0
LWPOLYLINE
  5
2F9
100
AcDbEntity
  8
0
100
AcDbPolyline
 62
253
  6
CONTINUOUS
 90
11
 70
0
 10
150.9648103989
 20
84.0161571096
 10
150.9700070297
 20
83.9407152002
 10
150.9797250677
 20
83.8698486588
 10
150.9939000655
 20
83.8040274517
 10
151.0124380187
 20
83.7436880862
 10
151.0352159889
 20
83.6892307154
 10
151.0620829194
 20
83.6410164848
 10
151.0928606363
 20
83.5993651371
 10
151.1273450309
 20
83.5645528921
 10
151.1653074126
 20
83.5368106143
 10
151.2048591566
 20
83.5169728708
  0
LWPOLYLINE
  5
2FA
100
AcDbEntity
  8
ASSI
100
AcDbPolyline
 62
253
  6
CONTINUOUS
 90
11
 70
0
 10
150.9648103989
 20
84.0161571096
 10
150.9700070297
 20
83.9407152002
 10
150.9797250677
 20
83.8698486588
 10
150.9939000655
 20
83.8040274517
 10
151.0124380187
 20
83.7436880862
 10
151.0352159889
 20
83.6892307154
 10
151.0620829194
 20
83.6410164848
 10
151.0928606363
 20
83.5993651371
 10
151.1273450309
 20
83.5645528921
 10
151.1653074126
 20
83.5368106143
 10
151.2048591566
 20
83.5169728708
  0
LWPOLYLINE
  5
2FB
100
AcDbEntity
  8
0
100
AcDbPolyline
 62
253
  6
CONTINUOUS
 90
10
 70
0
 10
150.6527995993
 20
101.4652583899
 10
150.6542943176
 20
101.4238617146
 10
150.6588747795
 20
101.3854628921
 10
150.6664912383
 20
101.3504789596
 10
150.6770609739
 20
101.3192898665
 10
150.6904691919
 20
101.2922343474
 10
150.7065702699
 20
101.2696062435
 10
150.7251893393
 20
101.2516513114
 10
150.7461241844
 20
101.2385645539
 10
150.7530368384
 20
101.235524791
  0
LWPOLYLINE
  5
2FC
100
AcDbEntity
  8
ASSI
100
AcDbPolyline
 62
253
  6
CONTINUOUS
 90
10
 70
0
 10
150.6527995993
 20
101.4652583899
 10
150.6542943176
 20
101.4238617146
 10
150.6588747795
 20
101.3854628921
 10
150.6664912383
 20
101.3504789596
 10
150.6770609739
 20
101.3192898665
 10
150.6904691919
 20
101.2922343474
 10
150.7065702699
 20
101.2696062435
 10
150.7251893393
 20
101.2516513114
 10
150.7461241844
 20
101.2385645539
 10
150.7530368384
 20
101.235524791
  0
LWPOLYLINE
  5
2FD
100
AcDbEntity
  8
0
100
AcDbPolyline
 62
253
  6
CONTINUOUS
 90
3
 70
0
 10
150.8452891772
 20
87.5785393338
 10
150.9014682761
 20
85.7940752726
 10
150.9648103947
 20
84.0161571058
  0
LWPOLYLINE
  5
2FE
100
AcDbEntity
  8
ASSI
100
AcDbPolyline
 62
253
  6
CONTINUOUS
 90
3
 70
0
 10
150.8452891772
 20
87.5785393338
 10
150.9014682761
 20
85.7940752726
 10
150.9648103947
 20
84.0161571058
  0
LINE
  5
2FF
100
AcDbEntity
  8
0
100
AcDbLine
 62
253
  6
CONTINUOUS
 10
150.754428814
 20
91.1669159672
 11
150.7928854026
 21
89.5151058368
  0
LINE
  5
300
100
AcDbEntity
  8
ASSI
100
AcDbLine
 62
253
  6
CONTINUOUS
 10
150.754428814
 20
91.1669159672
 11
150.7928854026
 21
89.5151058368
  0
LINE
  5
301
100
AcDbEntity
  8
0
100
AcDbLine
 62
253
  6
CONTINUOUS
 10
150.7928854026
 20
89.5151058368
 11
150.8452891772
 21
87.5785393338
  0
LINE
  5
302
100
AcDbEntity
  8
ASSI
100
AcDbLine
 62
253
  6
CONTINUOUS
 10
150.7928854026
 20
89.5151058368
 11
150.8452891772
 21
87.5785393338
  0
LWPOLYLINE
  5
303
100
AcDbEntity
  8
0
100
AcDbPolyline
 62
253
  6
CONTINUOUS
 90
6
 70
0
 10
150.6527996019
 20
100.2475634685
 10
150.658772803
 20
98.4192131748
 10
150.6719234187
 20
96.5969232779
 10
150.6922502207
 20
94.7807501143
 10
150.7197525266
 20
92.9707182586
 10
150.754428814
 20
91.1669159672
  0
LWPOLYLINE
  5
304
100
AcDbEntity
  8
ASSI
100
AcDbPolyline
 62
253
  6
CONTINUOUS
 90
6
 70
0
 10
150.6527996019
 20
100.2475634685
 10
150.658772803
 20
98.4192131748
 10
150.6719234187
 20
96.5969232779
 10
150.6922502207
 20
94.7807501143
 10
150.7197525266
 20
92.9707182586
 10
150.754428814
 20
91.1669159672
  0
LWPOLYLINE
  5
305
100
AcDbEntity
  8
0
100
AcDbPolyline
 62
253
  6
CONTINUOUS
 90
7
 70
0
 10
150.6527996019
 20
101.465258392
 10
150.6587727461
 20
103.3033836491
 10
150.6719232272
 20
105.1472080772
 10
150.6922498267
 20
106.9966733356
 10
150.7197518295
 20
108.8517511933
 10
150.7544277461
 20
110.7123534407
 10
150.7962741502
 20
112.5783309829
  0
LWPOLYLINE
  5
306
100
AcDbEntity
  8
ASSI
100
AcDbPolyline
 62
253
  6
CONTINUOUS
 90
7
 70
0
 10
150.6527996019
 20
101.465258392
 10
150.6587727461
 20
103.3033836491
 10
150.6719232272
 20
105.1472080772
 10
150.6922498267
 20
106.9966733356
 10
150.7197518295
 20
108.8517511933
 10
150.7544277461
 20
110.7123534407
 10
150.7962741502
 20
112.5783309829
  0
LINE
  5
307
100
AcDbEntity
  8
0
100
AcDbLine
 62
253
  6
CONTINUOUS
 10
150.7962741502
 20
112.5783309829
 11
150.8533564443
 21
114.7191008784
  0
LINE
  5
308
100
AcDbEntity
  8
ASSI
100
AcDbLine
 62
253
  6
CONTINUOUS
 10
150.7962741502
 20
112.5783309829
 11
150.8533564443
 21
114.7191008784
  0
LWPOLYLINE
  5
309
100
AcDbEntity
  8
0
100
AcDbPolyline
 62
253
  6
CONTINUOUS
 90
3
 70
0
 10
150.8533564443
 20
114.7191008784
 10
150.9014674283
 20
116.3261148358
 10
150.9648103947
 20
118.2078333122
  0
LWPOLYLINE
  5
30A
100
AcDbEntity
  8
ASSI
100
AcDbPolyline
 62
253
  6
CONTINUOUS
 90
3
 70
0
 10
150.8533564443
 20
114.7191008784
 10
150.9014674283
 20
116.3261148358
 10
150.9648103947
 20
118.2078333122
  0
LWPOLYLINE
  5
30B
100
AcDbEntity
  8
0
100
AcDbPolyline
 62
253
  6
CONTINUOUS
 90
19
 70
0
 10
150.9648098371
 20
118.2078328967
 10
150.9700064807
 20
118.2917992691
 10
150.9797245352
 20
118.3786036618
 10
150.9938995533
 20
118.4676704126
 10
151.0124375303
 20
118.558408856
 10
151.0352155276
 20
118.6502172403
 10
151.0620824881
 20
118.7424867185
 10
151.0928602377
 20
118.8346053854
 10
151.1273446671
 20
118.9259623361
 10
151.1653070855
 20
119.0159517173
 10
151.2064957368
 20
119.1039767448
 10
151.2506374696
 20
119.1894536617
 10
151.2974395486
 20
119.2718156091
 10
151.3465915955
 20
119.3505163861
 10
151.3977676481
 20
119.4250340714
 10
151.4506283212
 20
119.4948744847
 10
151.504823058
 20
119.5595744642
 10
151.5599924543
 20
119.6187049381
 10
151.6157706424
 20
119.6718737697
  0
LWPOLYLINE
  5
30C
100
AcDbEntity
  8
ASSI
100
AcDbPolyline
 62
253
  6
CONTINUOUS
 90
19
 70
0
 10
150.9648098371
 20
118.2078328967
 10
150.9700064807
 20
118.2917992691
 10
150.9797245352
 20
118.3786036618
 10
150.9938995533
 20
118.4676704126
 10
151.0124375303
 20
118.558408856
 10
151.0352155276
 20
118.6502172403
 10
151.0620824881
 20
118.7424867185
 10
151.0928602377
 20
118.8346053854
 10
151.1273446671
 20
118.9259623361
 10
151.1653070855
 20
119.0159517173
 10
151.2064957368
 20
119.1039767448
 10
151.2506374696
 20
119.1894536617
 10
151.2974395486
 20
119.2718156091
 10
151.3465915955
 20
119.3505163861
 10
151.3977676481
 20
119.4250340714
 10
151.4506283212
 20
119.4948744847
 10
151.504823058
 20
119.5595744642
 10
151.5599924543
 20
119.6187049381
 10
151.6157706424
 20
119.6718737697
  0
LWPOLYLINE
  5
30D
100
AcDbEntity
  8
SUPERFICI
100
AcDbPolyline
 62
7
  6
CONTINUOUS
 90
34
 70
0
 10
143.9116440736
 20
99.3794171367
 10
143.9314117038
 20
99.3958298828
 10
143.9641456555
 20
99.427829212
 10
143.9934441647
 20
99.4630471558
 10
144.0192010957
 20
99.5014354878
 10
144.0415237761
 20
99.5430434284
 10
144.0601776768
 20
99.5874467832
 10
144.0751567166
 20
99.6348126025
 10
144.0864679634
 20
99.6849746563
 10
144.093896094
 20
99.7370083961
 10
144.0973686469
 20
99.790802949
 10
144.0969582951
 20
99.8464693591
 10
144.0926668377
 20
99.9034154688
 10
144.0844215048
 20
99.9618070187
 10
144.072294899
 20
100.0214781232
 10
144.0565063017
 20
100.0813387035
 10
144.0370371503
 20
100.1412535243
 10
144.0139050684
 20
100.2013570333
 10
143.9873830771
 20
100.2609632274
 10
143.9573864101
 20
100.3201592175
 10
143.9239986301
 20
100.3788568864
 10
143.8877448723
 20
100.4361070728
 10
143.8486194278
 20
100.4918311339
 10
143.8066265127
 20
100.5461064679
 10
143.7623058751
 20
100.5982177479
 10
143.7155869065
 20
100.6481776224
 10
143.6665387883
 20
100.6959722552
 10
143.6159108513
 20
100.7408465076
 10
143.5636628478
 20
100.7827500938
 10
143.5098338556
 20
100.821732328
 10
143.4552922295
 20
100.8571875002
 10
143.4003271942
 20
100.8889135193
 10
143.3446488566
 20
100.9171119228
 10
143.2882570227
 20
100.9417825507
  0
LWPOLYLINE
  5
30E
100
AcDbEntity
  8
0
100
AcDbPolyline
 62
7
  6
CONTINUOUS
 90
12
 70
0
 10
143.9116295309
 20
99.3794350815
 10
143.8764030986
 20
99.3546787669
 10
143.8301832801
 20
99.3291951602
 10
143.7803245272
 20
99.3090409275
 10
143.72698105
 20
99.2941407813
 10
143.6713378839
 20
99.2847498699
 10
143.6134369833
 20
99.2809790224
 10
143.5532344872
 20
99.2827158107
 10
143.4917867301
 20
99.289880513
 10
143.4294454568
 20
99.3024462472
 10
143.3658578504
 20
99.3204389944
 10
143.3010236107
 20
99.343858502
  0
LWPOLYLINE
  5
30F
100
AcDbEntity
  8
ASSI
100
AcDbPolyline
 62
7
  6
CONTINUOUS
 90
12
 70
0
 10
143.9116295309
 20
99.3794350815
 10
143.8764030986
 20
99.3546787669
 10
143.8301832801
 20
99.3291951602
 10
143.7803245272
 20
99.3090409275
 10
143.72698105
 20
99.2941407813
 10
143.6713378839
 20
99.2847498699
 10
143.6134369833
 20
99.2809790224
 10
143.5532344872
 20
99.2827158107
 10
143.4917867301
 20
99.289880513
 10
143.4294454568
 20
99.3024462472
 10
143.3658578504
 20
99.3204389944
 10
143.3010236107
 20
99.343858502
  0
LWPOLYLINE
  5
310
100
AcDbEntity
  8
0
100
AcDbPolyline
 62
253
  6
CONTINUOUS
 90
16
 70
0
 10
150.6527994551
 20
100.2475633472
 10
150.6542941763
 20
100.2914264106
 10
150.6588746429
 20
100.3373778722
 10
150.6664911077
 20
100.3849186678
 10
150.677060851
 20
100.4335324716
 10
150.6904690779
 20
100.4826913046
 10
150.7065701661
 20
100.531861268
 10
150.7251892466
 20
100.5805083423
 10
150.7461241036
 20
100.6281041871
 10
150.7691473702
 20
100.6741318789
 10
150.7940089979
 20
100.7180915253
 10
150.8204389725
 20
100.7595056946
 10
150.8481502464
 20
100.7979246004
 10
150.8768418562
 20
100.8329309871
 10
150.9062021913
 20
100.8641446614
 10
150.9359123785
 20
100.8912266214
  0
LWPOLYLINE
  5
311
100
AcDbEntity
  8
ASSI
100
AcDbPolyline
 62
253
  6
CONTINUOUS
 90
16
 70
0
 10
150.6527994551
 20
100.2475633472
 10
150.6542941763
 20
100.2914264106
 10
150.6588746429
 20
100.3373778722
 10
150.6664911077
 20
100.3849186678
 10
150.677060851
 20
100.4335324716
 10
150.6904690779
 20
100.4826913046
 10
150.7065701661
 20
100.531861268
 10
150.7251892466
 20
100.5805083423
 10
150.7461241036
 20
100.6281041871
 10
150.7691473702
 20
100.6741318789
 10
150.7940089979
 20
100.7180915253
 10
150.8204389725
 20
100.7595056946
 10
150.8481502464
 20
100.7979246004
 10
150.8768418562
 20
100.8329309871
 10
150.9062021913
 20
100.8641446614
 10
150.9359123785
 20
100.8912266214
  0
LINE
  5
312
100
AcDbEntity
  8
0
100
AcDbLine
 62
253
  6
CONTINUOUS
 10
141.6832085475
 20
116.2384351538
 11
141.4784205364
 21
116.3206826359
  0
LWPOLYLINE
  5
313
100
AcDbEntity
  8
0
100
AcDbPolyline
 62
253
  6
CONTINUOUS
 90
51
 70
0
 10
141.6832085465
 20
116.2384351118
 10
141.6896178184
 20
116.2357572058
 10
141.6960175103
 20
116.2328762195
 10
141.7024017482
 20
116.2297948964
 10
141.708764658
 20
116.2265159802
 10
141.7151003657
 20
116.2230422143
 10
141.7214029972
 20
116.2193763422
 10
141.7276666786
 20
116.2155211075
 10
141.7338855356
 20
116.2114792536
 10
141.7400536945
 20
116.2072535241
 10
141.7461652809
 20
116.2028466626
 10
141.7522142345
 20
116.1982620774
 10
141.7581937484
 20
116.1935058372
 10
141.7640968294
 20
116.1885846755
 10
141.7699164841
 20
116.1835053257
 10
141.7756457193
 20
116.1782745215
 10
141.7812775417
 20
116.1728989963
 10
141.7868049579
 20
116.1673854837
 10
141.7922209747
 20
116.1617407171
 10
141.7975185989
 20
116.1559714302
 10
141.802690837
 20
116.1500843564
 10
141.8077314571
 20
116.1440859287
 10
141.8126372723
 20
116.1379813778
 10
141.817405857
 20
116.1317756337
 10
141.8220347856
 20
116.1254736267
 10
141.8265216323
 20
116.1190802867
 10
141.8308639062
 20
116.1126002132
 10
141.8350588543
 20
116.106036683
 10
141.8391036583
 20
116.0993926423
 10
141.8429954999
 20
116.0926710371
 10
141.8467315605
 20
116.0858748136
 10
141.8503085771
 20
116.0790081463
 10
141.853721507
 20
116.072080124
 10
141.8569648626
 20
116.0651010636
 10
141.8600331565
 20
116.0580812824
 10
141.8629209011
 20
116.0510310974
 10
141.8656231328
 20
116.0439605436
 10
141.8681369837
 20
116.036878527
 10
141.8704601098
 20
116.0297936717
 10
141.872590167
 20
116.0227146015
 10
141.8745248114
 20
116.0156499403
 10
141.8762620415
 20
116.0086078852
 10
141.877801227
 20
116.0015949256
 10
141.8791420798
 20
115.9946171238
 10
141.8802843121
 20
115.9876805423
 10
141.8812276362
 20
115.9807912436
 10
141.8819717641
 20
115.9739552901
 10
141.882516408
 20
115.9671787443
 10
141.8828612799
 20
115.9604676685
 10
141.8830060922
 20
115.9538281252
 10
141.8829505569
 20
115.9472661769
  0
LINE
  5
314
100
AcDbEntity
  8
0
100
AcDbLine
 62
253
  6
CONTINUOUS
 10
155.9834204581
 20
119.6043585384
 11
155.9834204581
 21
119.5934532712
  0
LINE
  5
315
100
AcDbEntity
  8
ASSI
100
AcDbLine
 62
253
  6
CONTINUOUS
 10
155.9834204581
 20
119.6043585384
 11
155.9834204581
 21
119.5934532712
  0
LINE
  5
316
100
AcDbEntity
  8
0
100
AcDbLine
 62
7
  6
CONTINUOUS
 10
155.9827515457
 20
119.5934532712
 11
155.9834204581
 21
119.6043585384
  0
LINE
  5
317
100
AcDbEntity
  8
ASSI
100
AcDbLine
 62
7
  6
CONTINUOUS
 10
155.9827515457
 20
119.5934532712
 11
155.9834204581
 21
119.6043585384
  0
LINE
  5
318
100
AcDbEntity
  8
0
100
AcDbLine
 62
7
  6
CONTINUOUS
 10
156.0445727136
 20
120.0313592489
 11
155.9834204581
 21
119.6043585384
  0
LINE
  5
319
100
AcDbEntity
  8
ASSI
100
AcDbLine
 62
7
  6
CONTINUOUS
 10
156.0445727136
 20
120.0313592489
 11
155.9834204581
 21
119.6043585384
  0
LWPOLYLINE
  5
31A
100
AcDbEntity
  8
0
100
AcDbPolyline
 62
253
  6
CONTINUOUS
 90
11
 70
0
 10
124.1920225458
 20
129.2115285231
 10
124.155233886
 20
129.2300499511
 10
124.1218398094
 20
129.2503855232
 10
124.0921641241
 20
129.272338054
 10
124.0664945826
 20
129.2956946792
 10
124.0450800915
 20
129.3202289196
 10
124.028128298
 20
129.345702877
 10
124.0158035763
 20
129.3718695414
 10
124.0082254341
 20
129.3984751857
 10
124.0054673534
 20
129.4252618264
 10
124.0055059941
 20
129.4309662049
  0
LWPOLYLINE
  5
31B
100
AcDbEntity
  8
ASSI
100
AcDbPolyline
 62
253
  6
CONTINUOUS
 90
11
 70
0
 10
124.1920225458
 20
129.2115285231
 10
124.155233886
 20
129.2300499511
 10
124.1218398094
 20
129.2503855232
 10
124.0921641241
 20
129.272338054
 10
124.0664945826
 20
129.2956946792
 10
124.0450800915
 20
129.3202289196
 10
124.028128298
 20
129.345702877
 10
124.0158035763
 20
129.3718695414
 10
124.0082254341
 20
129.3984751857
 10
124.0054673534
 20
129.4252618264
 10
124.0055059941
 20
129.4309662049
  0
LINE
  5
31C
100
AcDbEntity
  8
0
100
AcDbLine
 62
7
  6
CONTINUOUS
 10
156.0445727136
 20
120.0313592489
 11
156.0506699794
 21
119.5040725549
  0
LINE
  5
31D
100
AcDbEntity
  8
ASSI
100
AcDbLine
 62
7
  6
CONTINUOUS
 10
156.0445727136
 20
120.0313592489
 11
156.0506699794
 21
119.5040725549
  0
LWPOLYLINE
  5
31E
100
AcDbEntity
  8
0
100
AcDbPolyline
 62
253
  6
CONTINUOUS
 90
16
 70
0
 10
159.7086171915
 20
114.9472719504
 10
159.7519465678
 20
114.9336159921
 10
159.7973620151
 20
114.9222996178
 10
159.8444231678
 20
114.9134325556
 10
159.8926737029
 20
114.9071007839
 10
159.9416457648
 20
114.9033656979
 10
159.9908645016
 20
114.9022635142
 10
160.0398526696
 20
114.9038049199
 10
160.0881352609
 20
114.9079749691
 10
160.1352441088
 20
114.9147332273
 10
160.1807224281
 20
114.9240141638
 10
160.2241292435
 20
114.9357277873
 10
160.265043666
 20
114.9497605178
 10
160.3030689735
 20
114.9659762886
 10
160.3378364583
 20
114.9842178655
 10
160.3690090015
 20
115.0043083711
  0
LWPOLYLINE
  5
31F
100
AcDbEntity
  8
ASSI
100
AcDbPolyline
 62
253
  6
CONTINUOUS
 90
16
 70
0
 10
159.7086171915
 20
114.9472719504
 10
159.7519465678
 20
114.9336159921
 10
159.7973620151
 20
114.9222996178
 10
159.8444231678
 20
114.9134325556
 10
159.8926737029
 20
114.9071007839
 10
159.9416457648
 20
114.9033656979
 10
159.9908645016
 20
114.9022635142
 10
160.0398526696
 20
114.9038049199
 10
160.0881352609
 20
114.9079749691
 10
160.1352441088
 20
114.9147332273
 10
160.1807224281
 20
114.9240141638
 10
160.2241292435
 20
114.9357277873
 10
160.265043666
 20
114.9497605178
 10
160.3030689735
 20
114.9659762886
 10
160.3378364583
 20
114.9842178655
 10
160.3690090015
 20
115.0043083711
  0
LWPOLYLINE
  5
320
100
AcDbEntity
  8
0
100
AcDbPolyline
 62
253
  6
CONTINUOUS
 90
3
 70
0
 10
160.3480549739
 20
116.426785808
 10
159.4353650858
 20
116.742065389
 10
158.5128005955
 20
117.0666643716
  0
LWPOLYLINE
  5
321
100
AcDbEntity
  8
ASSI
100
AcDbPolyline
 62
253
  6
CONTINUOUS
 90
3
 70
0
 10
160.3480549739
 20
116.426785808
 10
159.4353650858
 20
116.742065389
 10
158.5128005955
 20
117.0666643716
  0
LWPOLYLINE
  5
322
100
AcDbEntity
  8
0
100
AcDbPolyline
 62
253
  6
CONTINUOUS
 90
10
 70
0
 10
159.7086105606
 20
114.9472660636
 10
158.7960100334
 20
115.2649905057
 10
157.8727330743
 20
115.5916457027
 10
156.9389995392
 20
115.9273820493
 10
156.0013123248
 20
116.2700070488
 10
155.0535659317
 20
116.6219626746
 10
154.0773423652
 20
116.9905847109
 10
153.06697979
 20
117.3786868418
 10
152.0292773467
 20
117.7843006421
 10
150.9648103947
 20
118.2078333122
  0
LWPOLYLINE
  5
323
100
AcDbEntity
  8
ASSI
100
AcDbPolyline
 62
253
  6
CONTINUOUS
 90
10
 70
0
 10
159.7086105606
 20
114.9472660636
 10
158.7960100334
 20
115.2649905057
 10
157.8727330743
 20
115.5916457027
 10
156.9389995392
 20
115.9273820493
 10
156.0013123248
 20
116.2700070488
 10
155.0535659317
 20
116.6219626746
 10
154.0773423652
 20
116.9905847109
 10
153.06697979
 20
117.3786868418
 10
152.0292773467
 20
117.7843006421
 10
150.9648103947
 20
118.2078333122
  0
LINE
  5
324
100
AcDbEntity
  8
0
100
AcDbLine
 62
253
  6
CONTINUOUS
 10
150.9648103947
 20
118.2078333122
 11
132.5338893982
 21
125.6101066998
  0
LINE
  5
325
100
AcDbEntity
  8
ASSI
100
AcDbLine
 62
253
  6
CONTINUOUS
 10
150.9648103947
 20
118.2078333122
 11
132.5338893982
 21
125.6101066998
  0
LWPOLYLINE
  5
326
100
AcDbEntity
  8
0
100
AcDbPolyline
 62
253
  6
CONTINUOUS
 90
13
 70
0
 10
132.5338893982
 20
125.6101066998
 10
131.791351314
 20
125.910282912
 10
131.0634037849
 20
126.2082523826
 10
130.3499355897
 20
126.5038986628
 10
129.6542784062
 20
126.7956641351
 10
128.9728492438
 20
127.0848585229
 10
128.2952875211
 20
127.3757654151
 10
127.6219741187
 20
127.6682023891
 10
126.9525458764
 20
127.9623217379
 10
126.2757886385
 20
128.2631102861
 10
125.5881306986
 20
128.572339205
 10
124.8934877316
 20
128.8884470349
 10
124.1920225445
 20
129.2115285124
  0
LWPOLYLINE
  5
327
100
AcDbEntity
  8
ASSI
100
AcDbPolyline
 62
253
  6
CONTINUOUS
 90
13
 70
0
 10
132.5338893982
 20
125.6101066998
 10
131.791351314
 20
125.910282912
 10
131.0634037849
 20
126.2082523826
 10
130.3499355897
 20
126.5038986628
 10
129.6542784062
 20
126.7956641351
 10
128.9728492438
 20
127.0848585229
 10
128.2952875211
 20
127.3757654151
 10
127.6219741187
 20
127.6682023891
 10
126.9525458764
 20
127.9623217379
 10
126.2757886385
 20
128.2631102861
 10
125.5881306986
 20
128.572339205
 10
124.8934877316
 20
128.8884470349
 10
124.1920225445
 20
129.2115285124
  0
LWPOLYLINE
  5
328
100
AcDbEntity
  8
0
100
AcDbPolyline
 62
253
  6
CONTINUOUS
 90
9
 70
0
 10
130.3117896812
 20
128.2585607933
 10
129.6322886067
 20
128.5476677864
 10
128.9564667102
 20
128.838713169
 10
128.2843999824
 20
129.1314326088
 10
127.6160124328
 20
129.4260904383
 10
126.940257254
 20
129.7278131166
 10
126.253452177
 20
130.0383094637
 10
125.5592794708
 20
130.3558706597
 10
124.8577391355
 20
130.6804967047
  0
LWPOLYLINE
  5
329
100
AcDbEntity
  8
ASSI
100
AcDbPolyline
 62
253
  6
CONTINUOUS
 90
9
 70
0
 10
130.3117896812
 20
128.2585607933
 10
129.6322886067
 20
128.5476677864
 10
128.9564667102
 20
128.838713169
 10
128.2843999824
 20
129.1314326088
 10
127.6160124328
 20
129.4260904383
 10
126.940257254
 20
129.7278131166
 10
126.253452177
 20
130.0383094637
 10
125.5592794708
 20
130.3558706597
 10
124.8577391355
 20
130.6804967047
  0
LWPOLYLINE
  5
32A
100
AcDbEntity
  8
0
100
AcDbPolyline
 62
253
  6
CONTINUOUS
 90
19
 70
0
 10
160.1021152471
 20
97.1084313862
 10
160.1003986338
 20
97.1441624101
 10
160.095691016
 20
97.1810001327
 10
160.0880025333
 20
97.2186766261
 10
160.0773596113
 20
97.2569348498
 10
160.0638219612
 20
97.295467436
 10
160.0474980279
 20
97.3339186556
 10
160.0285037986
 20
97.3719929125
 10
160.0069749853
 20
97.4093988873
 10
159.9831060729
 20
97.4457928607
 10
159.957102859
 20
97.4808714315
 10
159.9291489205
 20
97.5143964714
 10
159.8994362364
 20
97.5461376721
 10
159.8681760968
 20
97.575862692
 10
159.8356183114
 20
97.6033276818
 10
159.8020283451
 20
97.6283073966
 10
159.7676695632
 20
97.6506080807
 10
159.7327992503
 20
97.6700647946
 10
159.6976841492
 20
97.6865299148
  0
LWPOLYLINE
  5
32B
100
AcDbEntity
  8
ASSI
100
AcDbPolyline
 62
253
  6
CONTINUOUS
 90
19
 70
0
 10
160.1021152471
 20
97.1084313862
 10
160.1003986338
 20
97.1441624101
 10
160.095691016
 20
97.1810001327
 10
160.0880025333
 20
97.2186766261
 10
160.0773596113
 20
97.2569348498
 10
160.0638219612
 20
97.295467436
 10
160.0474980279
 20
97.3339186556
 10
160.0285037986
 20
97.3719929125
 10
160.0069749853
 20
97.4093988873
 10
159.9831060729
 20
97.4457928607
 10
159.957102859
 20
97.4808714315
 10
159.9291489205
 20
97.5143964714
 10
159.8994362364
 20
97.5461376721
 10
159.8681760968
 20
97.575862692
 10
159.8356183114
 20
97.6033276818
 10
159.8020283451
 20
97.6283073966
 10
159.7676695632
 20
97.6506080807
 10
159.7327992503
 20
97.6700647946
 10
159.6976841492
 20
97.6865299148
  0
LWPOLYLINE
  5
32C
100
AcDbEntity
  8
0
100
AcDbPolyline
 62
253
  6
CONTINUOUS
 90
10
 70
0
 10
159.4492280346
 20
98.2414154929
 10
159.4509990714
 20
98.1992342846
 10
159.4549185967
 20
98.1613131651
 10
159.4611848861
 20
98.1273234226
 10
159.4703876423
 20
98.0968419003
 10
159.4823901429
 20
98.0702015111
 10
159.4963262351
 20
98.0483022836
 10
159.5124883612
 20
98.0312747811
 10
159.5311310315
 20
98.0190307491
 10
159.5421234314
 20
98.0144834821
  0
LWPOLYLINE
  5
32D
100
AcDbEntity
  8
ASSI
100
AcDbPolyline
 62
253
  6
CONTINUOUS
 90
10
 70
0
 10
159.4492280346
 20
98.2414154929
 10
159.4509990714
 20
98.1992342846
 10
159.4549185967
 20
98.1613131651
 10
159.4611848861
 20
98.1273234226
 10
159.4703876423
 20
98.0968419003
 10
159.4823901429
 20
98.0702015111
 10
159.4963262351
 20
98.0483022836
 10
159.5124883612
 20
98.0312747811
 10
159.5311310315
 20
98.0190307491
 10
159.5421234314
 20
98.0144834821
  0
LWPOLYLINE
  5
32E
100
AcDbEntity
  8
0
100
AcDbPolyline
 62
253
  6
CONTINUOUS
 90
4
 70
0
 10
160.369008975
 20
80.836138949
 10
160.3135281703
 20
82.6882290599
 10
160.264759225
 20
84.514050332
 10
160.2227021391
 20
86.3136027653
  0
LWPOLYLINE
  5
32F
100
AcDbEntity
  8
ASSI
100
AcDbPolyline
 62
253
  6
CONTINUOUS
 90
4
 70
0
 10
160.369008975
 20
80.836138949
 10
160.3135281703
 20
82.6882290599
 10
160.264759225
 20
84.514050332
 10
160.2227021391
 20
86.3136027653
  0
LWPOLYLINE
  5
330
100
AcDbEntity
  8
0
100
AcDbPolyline
 62
253
  6
CONTINUOUS
 90
10
 70
0
 10
159.7086105871
 20
80.7439798093
 10
159.6541766096
 20
82.5969231233
 10
159.6068821188
 20
84.4242481594
 10
159.5664150553
 20
86.2256418919
 10
159.5328243171
 20
87.9804257528
 10
159.5053244354
 20
89.7085690381
 10
159.4829357216
 20
91.4712335366
 10
159.4657811254
 20
93.2891618831
 10
159.4544460899
 20
95.1421325333
 10
159.4492279274
 20
97.0303516738
  0
LWPOLYLINE
  5
331
100
AcDbEntity
  8
ASSI
100
AcDbPolyline
 62
253
  6
CONTINUOUS
 90
10
 70
0
 10
159.7086105871
 20
80.7439798093
 10
159.6541766096
 20
82.5969231233
 10
159.6068821188
 20
84.4242481594
 10
159.5664150553
 20
86.2256418919
 10
159.5328243171
 20
87.9804257528
 10
159.5053244354
 20
89.7085690381
 10
159.4829357216
 20
91.4712335366
 10
159.4657811254
 20
93.2891618831
 10
159.4544460899
 20
95.1421325333
 10
159.4492279274
 20
97.0303516738
  0
LWPOLYLINE
  5
332
100
AcDbEntity
  8
0
100
AcDbPolyline
 62
253
  6
CONTINUOUS
 90
7
 70
0
 10
160.2227021391
 20
86.3136027653
 10
160.1876974095
 20
88.0665471139
 10
160.1594045394
 20
89.7932226237
 10
160.1368020371
 20
91.5546470321
 10
160.1195494058
 20
93.3711595849
 10
160.1079871424
 20
95.2224210363
 10
160.1021152471
 20
97.1084313862
  0
LWPOLYLINE
  5
333
100
AcDbEntity
  8
ASSI
100
AcDbPolyline
 62
253
  6
CONTINUOUS
 90
7
 70
0
 10
160.2227021391
 20
86.3136027653
 10
160.1876974095
 20
88.0665471139
 10
160.1594045394
 20
89.7932226237
 10
160.1368020371
 20
91.5546470321
 10
160.1195494058
 20
93.3711595849
 10
160.1079871424
 20
95.2224210363
 10
160.1021152471
 20
97.1084313862
  0
LWPOLYLINE
  5
334
100
AcDbEntity
  8
0
100
AcDbPolyline
 62
253
  6
CONTINUOUS
 90
6
 70
0
 10
160.1021152869
 20
98.318253759
 10
160.1061987556
 20
100.011792233
 10
160.1161810669
 20
101.7351636286
 10
160.1320622209
 20
103.4883679458
 10
160.1531835451
 20
105.2576932153
 10
160.180203712
 20
107.0568514064
  0
LWPOLYLINE
  5
335
100
AcDbEntity
  8
ASSI
100
AcDbPolyline
 62
253
  6
CONTINUOUS
 90
6
 70
0
 10
160.1021152869
 20
98.318253759
 10
160.1061987556
 20
100.011792233
 10
160.1161810669
 20
101.7351636286
 10
160.1320622209
 20
103.4883679458
 10
160.1531835451
 20
105.2576932153
 10
160.180203712
 20
107.0568514064
  0
LWPOLYLINE
  5
336
100
AcDbEntity
  8
0
100
AcDbPolyline
 62
253
  6
CONTINUOUS
 90
5
 70
0
 10
159.4492279294
 20
98.2414154732
 10
159.4535848012
 20
99.9369619112
 10
159.4632085852
 20
101.6621329451
 10
159.4783294466
 20
103.4170822991
 10
159.4989999519
 20
105.1885566477
  0
LWPOLYLINE
  5
337
100
AcDbEntity
  8
ASSI
100
AcDbPolyline
 62
253
  6
CONTINUOUS
 90
5
 70
0
 10
159.4492279294
 20
98.2414154732
 10
159.4535848012
 20
99.9369619112
 10
159.4632085852
 20
101.6621329451
 10
159.4783294466
 20
103.4170822991
 10
159.4989999519
 20
105.1885566477
  0
LWPOLYLINE
  5
338
100
AcDbEntity
  8
0
100
AcDbPolyline
 62
253
  6
CONTINUOUS
 90
6
 70
0
 10
159.4989999519
 20
105.1885566477
 10
159.5255544461
 20
106.9900502175
 10
159.559025956
 20
108.8621335184
 10
159.6003590129
 20
110.8187706819
 10
159.6499927209
 20
112.8469898234
 10
159.7086105606
 20
114.9472660636
  0
LWPOLYLINE
  5
339
100
AcDbEntity
  8
ASSI
100
AcDbPolyline
 62
253
  6
CONTINUOUS
 90
6
 70
0
 10
159.4989999519
 20
105.1885566477
 10
159.5255544461
 20
106.9900502175
 10
159.559025956
 20
108.8621335184
 10
159.6003590129
 20
110.8187706819
 10
159.6499927209
 20
112.8469898234
 10
159.7086105606
 20
114.9472660636
  0
LINE
  5
33A
100
AcDbEntity
  8
0
100
AcDbLine
 62
253
  6
CONTINUOUS
 10
160.180203712
 20
107.0568514064
 11
160.2150987393
 21
108.9269784268
  0
LINE
  5
33B
100
AcDbEntity
  8
ASSI
100
AcDbLine
 62
253
  6
CONTINUOUS
 10
160.180203712
 20
107.0568514064
 11
160.2150987393
 21
108.9269784268
  0
LINE
  5
33C
100
AcDbEntity
  8
0
100
AcDbLine
 62
253
  6
CONTINUOUS
 10
160.2150987393
 20
108.9269784268
 11
160.2590726191
 21
110.9033188357
  0
LINE
  5
33D
100
AcDbEntity
  8
ASSI
100
AcDbLine
 62
253
  6
CONTINUOUS
 10
160.2150987393
 20
108.9269784268
 11
160.2590726191
 21
110.9033188357
  0
LWPOLYLINE
  5
33E
100
AcDbEntity
  8
0
100
AcDbPolyline
 62
253
  6
CONTINUOUS
 90
3
 70
0
 10
160.2590726191
 20
110.9033188357
 10
160.3098307204
 20
112.9075628937
 10
160.3690090016
 20
115.0043083711
  0
LWPOLYLINE
  5
33F
100
AcDbEntity
  8
ASSI
100
AcDbPolyline
 62
253
  6
CONTINUOUS
 90
3
 70
0
 10
160.2590726191
 20
110.9033188357
 10
160.3098307204
 20
112.9075628937
 10
160.3690090016
 20
115.0043083711
  0
LWPOLYLINE
  5
340
100
AcDbEntity
  8
0
100
AcDbPolyline
 62
253
  6
CONTINUOUS
 90
16
 70
0
 10
159.4492279946
 20
97.0303516519
 10
159.4509987993
 20
97.0749798729
 10
159.4549180692
 20
97.12101963
 10
159.4611840433
 20
97.1683357197
 10
159.4703862989
 20
97.2170330508
 10
159.4823881623
 20
97.2669193444
 10
159.4963237159
 20
97.3170562798
 10
159.5124854247
 20
97.3664452525
 10
159.5311277368
 20
97.4148773192
 10
159.5512384119
 20
97.4620872203
 10
159.5728969451
 20
97.5072055159
 10
159.5963356945
 20
97.5496332539
 10
159.6206013244
 20
97.5893603247
 10
159.6453817153
 20
97.6259181383
 10
159.6710691684
 20
97.6584788634
 10
159.6976841492
 20
97.6865299148
  0
LWPOLYLINE
  5
341
100
AcDbEntity
  8
ASSI
100
AcDbPolyline
 62
253
  6
CONTINUOUS
 90
16
 70
0
 10
159.4492279946
 20
97.0303516519
 10
159.4509987993
 20
97.0749798729
 10
159.4549180692
 20
97.12101963
 10
159.4611840433
 20
97.1683357197
 10
159.4703862989
 20
97.2170330508
 10
159.4823881623
 20
97.2669193444
 10
159.4963237159
 20
97.3170562798
 10
159.5124854247
 20
97.3664452525
 10
159.5311277368
 20
97.4148773192
 10
159.5512384119
 20
97.4620872203
 10
159.5728969451
 20
97.5072055159
 10
159.5963356945
 20
97.5496332539
 10
159.6206013244
 20
97.5893603247
 10
159.6453817153
 20
97.6259181383
 10
159.6710691684
 20
97.6584788634
 10
159.6976841492
 20
97.6865299148
  0
LWPOLYLINE
  5
342
100
AcDbEntity
  8
0
100
AcDbPolyline
 62
253
  6
CONTINUOUS
 90
10
 70
0
 10
160.1021152869
 20
98.318253759
 10
160.1003986711
 20
98.2834438097
 10
160.0956910464
 20
98.2500685698
 10
160.0880025536
 20
98.2183913973
 10
160.0773596184
 20
98.1886506644
 10
160.0638219534
 20
98.1611073737
 10
160.047498008
 20
98.1360299482
 10
160.0285037759
 20
98.1136193033
 10
160.0069749684
 20
98.0940551308
 10
160.0038104485
 20
98.0915856608
  0
LWPOLYLINE
  5
343
100
AcDbEntity
  8
ASSI
100
AcDbPolyline
 62
253
  6
CONTINUOUS
 90
10
 70
0
 10
160.1021152869
 20
98.318253759
 10
160.1003986711
 20
98.2834438097
 10
160.0956910464
 20
98.2500685698
 10
160.0880025536
 20
98.2183913973
 10
160.0773596184
 20
98.1886506644
 10
160.0638219534
 20
98.1611073737
 10
160.047498008
 20
98.1360299482
 10
160.0285037759
 20
98.1136193033
 10
160.0069749684
 20
98.0940551308
 10
160.0038104485
 20
98.0915856608
  0
LWPOLYLINE
  5
344
100
AcDbEntity
  8
0
100
AcDbPolyline
 62
253
  6
CONTINUOUS
 90
22
 70
0
 10
159.7086105792
 20
114.9472661125
 10
159.7122180326
 20
115.0192318554
 10
159.7191332266
 20
115.0934388322
 10
159.7293247933
 20
115.169519526
 10
159.7427526606
 20
115.2470889
 10
159.7593493355
 20
115.325770117
 10
159.7790222535
 20
115.4051971488
 10
159.8016892648
 20
115.4849807153
 10
159.8272443653
 20
115.5647195466
 10
159.8555405754
 20
115.6440266841
 10
159.8864537729
 20
115.7225051002
 10
159.9198422441
 20
115.7997644364
 10
159.9555147609
 20
115.8754329143
 10
159.9933143797
 20
115.9491319324
 10
160.0330671236
 20
116.0204907174
 10
160.0745414885
 20
116.0891633578
 10
160.1175490967
 20
116.1548001837
 10
160.1618961194
 20
116.2170745802
 10
160.2073325427
 20
116.2756964156
 10
160.2536365282
 20
116.3303756081
 10
160.3006149435
 20
116.3808248735
 10
160.3480549739
 20
116.426785808
  0
LWPOLYLINE
  5
345
100
AcDbEntity
  8
ASSI
100
AcDbPolyline
 62
253
  6
CONTINUOUS
 90
22
 70
0
 10
159.7086105792
 20
114.9472661125
 10
159.7122180326
 20
115.0192318554
 10
159.7191332266
 20
115.0934388322
 10
159.7293247933
 20
115.169519526
 10
159.7427526606
 20
115.2470889
 10
159.7593493355
 20
115.325770117
 10
159.7790222535
 20
115.4051971488
 10
159.8016892648
 20
115.4849807153
 10
159.8272443653
 20
115.5647195466
 10
159.8555405754
 20
115.6440266841
 10
159.8864537729
 20
115.7225051002
 10
159.9198422441
 20
115.7997644364
 10
159.9555147609
 20
115.8754329143
 10
159.9933143797
 20
115.9491319324
 10
160.0330671236
 20
116.0204907174
 10
160.0745414885
 20
116.0891633578
 10
160.1175490967
 20
116.1548001837
 10
160.1618961194
 20
116.2170745802
 10
160.2073325427
 20
116.2756964156
 10
160.2536365282
 20
116.3303756081
 10
160.3006149435
 20
116.3808248735
 10
160.3480549739
 20
116.426785808
  0
LWPOLYLINE
  5
346
100
AcDbEntity
  8
0
100
AcDbPolyline
 62
253
  6
CONTINUOUS
 90
22
 70
0
 10
160.3690090016
 20
115.0043083711
 10
160.3713160973
 20
115.0463566585
 10
160.3756187782
 20
115.0893077646
 10
160.3819170441
 20
115.1331616894
 10
160.3902611688
 20
115.1781612213
 10
160.4006008787
 20
115.2240635719
 10
160.4127853524
 20
115.2701403759
 10
160.426840968
 20
115.3163761796
 10
160.4427413475
 20
115.3627864366
 10
160.460256536
 20
115.4086891426
 10
160.479412301
 20
115.4540799588
 10
160.500182875
 20
115.498963224
 10
160.5222610002
 20
115.5426699505
 10
160.5456661217
 20
115.5851810934
 10
160.5703787944
 20
115.6265156976
 10
160.5960334254
 20
115.666061909
 10
160.6226569806
 20
115.7038039751
 10
160.650222494
 20
115.7397576485
 10
160.6782834757
 20
115.7733583329
 10
160.7066910956
 20
115.8044178296
 10
160.7355941836
 20
115.8331243375
 10
160.7649927398
 20
115.8594778564
  0
LWPOLYLINE
  5
347
100
AcDbEntity
  8
ASSI
100
AcDbPolyline
 62
253
  6
CONTINUOUS
 90
22
 70
0
 10
160.3690090016
 20
115.0043083711
 10
160.3713160973
 20
115.0463566585
 10
160.3756187782
 20
115.0893077646
 10
160.3819170441
 20
115.1331616894
 10
160.3902611688
 20
115.1781612213
 10
160.4006008787
 20
115.2240635719
 10
160.4127853524
 20
115.2701403759
 10
160.426840968
 20
115.3163761796
 10
160.4427413475
 20
115.3627864366
 10
160.460256536
 20
115.4086891426
 10
160.479412301
 20
115.4540799588
 10
160.500182875
 20
115.498963224
 10
160.5222610002
 20
115.5426699505
 10
160.5456661217
 20
115.5851810934
 10
160.5703787944
 20
115.6265156976
 10
160.5960334254
 20
115.666061909
 10
160.6226569806
 20
115.7038039751
 10
160.650222494
 20
115.7397576485
 10
160.6782834757
 20
115.7733583329
 10
160.7066910956
 20
115.8044178296
 10
160.7355941836
 20
115.8331243375
 10
160.7649927398
 20
115.8594778564
  0
LINE
  5
348
100
AcDbEntity
  8
0
100
AcDbLine
 62
253
  6
CONTINUOUS
 10
162.321324862
 20
99.7517497802
 11
159.6976841474
 21
97.6865299134
  0
LINE
  5
349
100
AcDbEntity
  8
ASSI
100
AcDbLine
 62
253
  6
CONTINUOUS
 10
162.321324862
 20
99.7517497802
 11
159.6976841474
 21
97.6865299134
  0
LINE
  5
34A
100
AcDbEntity
  8
0
100
AcDbLine
 62
253
  6
CONTINUOUS
 10
162.7309476906
 20
99.1777379641
 11
160.1021152471
 21
97.1084313862
  0
LINE
  5
34B
100
AcDbEntity
  8
ASSI
100
AcDbLine
 62
253
  6
CONTINUOUS
 10
162.7309476906
 20
99.1777379641
 11
160.1021152471
 21
97.1084313862
  0
LINE
  5
34C
100
AcDbEntity
  8
0
100
AcDbLine
 62
253
  6
CONTINUOUS
 10
160.0038104485
 20
98.0915856608
 11
160.003517639
 21
98.0913618179
  0
LINE
  5
34D
100
AcDbEntity
  8
ASSI
100
AcDbLine
 62
253
  6
CONTINUOUS
 10
160.0038104485
 20
98.0915856608
 11
160.003517639
 21
98.0913618179
  0
LINE
  5
34E
100
AcDbEntity
  8
0
100
AcDbLine
 62
253
  6
CONTINUOUS
 10
160.1021152869
 20
98.318253759
 11
162.7309476906
 21
100.3243948887
  0
LINE
  5
34F
100
AcDbEntity
  8
ASSI
100
AcDbLine
 62
253
  6
CONTINUOUS
 10
160.1021152869
 20
98.318253759
 11
162.7309476906
 21
100.3243948887
  0
LINE
  5
350
100
AcDbEntity
  8
0
100
AcDbLine
 62
7
  6
CONTINUOUS
 10
160.0035165341
 20
98.0913609748
 11
162.6321064245
 21
100.0973170352
  0
LINE
  5
351
100
AcDbEntity
  8
ASSI
100
AcDbLine
 62
7
  6
CONTINUOUS
 10
160.0035165341
 20
98.0913609748
 11
162.6321064245
 21
100.0973170352
  0
LWPOLYLINE
  5
352
100
AcDbEntity
  8
0
100
AcDbPolyline
 62
253
  6
CONTINUOUS
 90
16
 70
0
 10
160.1021152478
 20
97.1084313868
 10
160.0713202323
 20
97.0867808217
 10
160.0370140431
 20
97.0669489654
 10
159.9995212401
 20
97.0491234407
 10
159.959196537
 20
97.0334728913
 10
159.9164214273
 20
97.0201453792
 10
159.8716005704
 20
97.0092669868
 10
159.8251579779
 20
97.0009406316
 10
159.7775330477
 20
96.9952450961
 10
159.7291763888
 20
96.9922342694
 10
159.680545512
 20
96.9919366317
 10
159.6321004769
 20
96.9943549935
 10
159.5842995849
 20
96.9994664751
 10
159.5375950581
 20
97.0072227199
 10
159.4924287601
 20
97.0175503477
 10
159.4492279946
 20
97.0303516519
  0
LWPOLYLINE
  5
353
100
AcDbEntity
  8
ASSI
100
AcDbPolyline
 62
253
  6
CONTINUOUS
 90
16
 70
0
 10
160.1021152478
 20
97.1084313868
 10
160.0713202323
 20
97.0867808217
 10
160.0370140431
 20
97.0669489654
 10
159.9995212401
 20
97.0491234407
 10
159.959196537
 20
97.0334728913
 10
159.9164214273
 20
97.0201453792
 10
159.8716005704
 20
97.0092669868
 10
159.8251579779
 20
97.0009406316
 10
159.7775330477
 20
96.9952450961
 10
159.7291763888
 20
96.9922342694
 10
159.680545512
 20
96.9919366317
 10
159.6321004769
 20
96.9943549935
 10
159.5842995849
 20
96.9994664751
 10
159.5375950581
 20
97.0072227199
 10
159.4924287601
 20
97.0175503477
 10
159.4492279946
 20
97.0303516519
  0
LWPOLYLINE
  5
354
100
AcDbEntity
  8
0
100
AcDbPolyline
 62
253
  6
CONTINUOUS
 90
10
 70
0
 10
124.8577391354
 20
130.6804967046
 10
124.8142782447
 20
130.6948019525
 10
124.7714569199
 20
130.7046116459
 10
124.7297435106
 20
130.7098185098
 10
124.6895942335
 20
130.7103656119
 10
124.6514482204
 20
130.7062469839
 10
124.615722709
 20
130.6975077002
 10
124.5828084268
 20
130.6842433775
 10
124.5530653371
 20
130.6665991181
 10
124.529903625
 20
130.6477232147
  0
LWPOLYLINE
  5
355
100
AcDbEntity
  8
ASSI
100
AcDbPolyline
 62
253
  6
CONTINUOUS
 90
10
 70
0
 10
124.8577391354
 20
130.6804967046
 10
124.8142782447
 20
130.6948019525
 10
124.7714569199
 20
130.7046116459
 10
124.7297435106
 20
130.7098185098
 10
124.6895942335
 20
130.7103656119
 10
124.6514482204
 20
130.7062469839
 10
124.615722709
 20
130.6975077002
 10
124.5828084268
 20
130.6842433775
 10
124.5530653371
 20
130.6665991181
 10
124.529903625
 20
130.6477232147
  0
LWPOLYLINE
  5
356
100
AcDbEntity
  8
0
100
AcDbPolyline
 62
253
  6
CONTINUOUS
 90
8
 70
0
 10
158.5128005955
 20
117.0666643716
 10
157.5803615029
 20
117.4005827559
 10
156.6440696473
 20
117.7411511614
 10
155.6979031894
 20
118.0910389686
 10
154.7237966117
 20
118.4582543189
 10
153.715728075
 20
118.8454665927
 10
152.6797194186
 20
119.2500064097
 10
151.6157706424
 20
119.6718737697
  0
LWPOLYLINE
  5
357
100
AcDbEntity
  8
ASSI
100
AcDbPolyline
 62
253
  6
CONTINUOUS
 90
8
 70
0
 10
158.5128005955
 20
117.0666643716
 10
157.5803615029
 20
117.4005827559
 10
156.6440696473
 20
117.7411511614
 10
155.6979031894
 20
118.0910389686
 10
154.7237966117
 20
118.4582543189
 10
153.715728075
 20
118.8454665927
 10
152.6797194186
 20
119.2500064097
 10
151.6157706424
 20
119.6718737697
  0
LINE
  5
358
100
AcDbEntity
  8
0
100
AcDbLine
 62
7
  6
CONTINUOUS
 10
140.3967954121
 20
125.7899848014
 11
137.637023114
 21
126.8983715739
  0
LINE
  5
359
100
AcDbEntity
  8
ASSI
100
AcDbLine
 62
7
  6
CONTINUOUS
 10
140.3967954121
 20
125.7899848014
 11
137.637023114
 21
126.8983715739
  0
LINE
  5
35A
100
AcDbEntity
  8
0
100
AcDbLine
 62
7
  6
CONTINUOUS
 10
131.2222925161
 20
129.4746719987
 11
128.4625202179
 21
130.5830587713
  0
LINE
  5
35B
100
AcDbEntity
  8
ASSI
100
AcDbLine
 62
7
  6
CONTINUOUS
 10
131.2222925161
 20
129.4746719987
 11
128.4625202179
 21
130.5830587713
  0
LINE
  5
35C
100
AcDbEntity
  8
0
100
AcDbLine
 62
7
  6
CONTINUOUS
 10
146.8934412144
 20
123.1807853837
 11
149.6532135126
 21
122.0723986112
  0
LINE
  5
35D
100
AcDbEntity
  8
ASSI
100
AcDbLine
 62
7
  6
CONTINUOUS
 10
146.8934412144
 20
123.1807853837
 11
149.6532135126
 21
122.0723986112
  0
LINE
  5
35E
100
AcDbEntity
  8
0
100
AcDbLine
 62
7
  6
CONTINUOUS
 10
156.0679441105
 20
119.4960981863
 11
158.8277164086
 21
118.3877114138
  0
LINE
  5
35F
100
AcDbEntity
  8
ASSI
100
AcDbLine
 62
7
  6
CONTINUOUS
 10
156.0679441105
 20
119.4960981863
 11
158.8277164086
 21
118.3877114138
  0
LINE
  5
360
100
AcDbEntity
  8
0
100
AcDbLine
 62
7
  6
CONTINUOUS
 10
161.8503178554
 20
117.6996411125
 11
159.6628602652
 21
118.5781733958
  0
LINE
  5
361
100
AcDbEntity
  8
ASSI
100
AcDbLine
 62
7
  6
CONTINUOUS
 10
161.8503178554
 20
117.6996411125
 11
159.6628602652
 21
118.5781733958
  0
LINE
  5
362
100
AcDbEntity
  8
0
100
AcDbLine
 62
7
  6
CONTINUOUS
 10
156.0445727136
 20
120.0313592489
 11
150.4883573692
 21
122.2628605932
  0
LINE
  5
363
100
AcDbEntity
  8
ASSI
100
AcDbLine
 62
7
  6
CONTINUOUS
 10
156.0445727136
 20
120.0313592489
 11
150.4883573692
 21
122.2628605932
  0
LINE
  5
364
100
AcDbEntity
  8
0
100
AcDbLine
 62
7
  6
CONTINUOUS
 10
146.8700698176
 20
123.7160464463
 11
141.2319392687
 21
125.9804467834
  0
LINE
  5
365
100
AcDbEntity
  8
ASSI
100
AcDbLine
 62
7
  6
CONTINUOUS
 10
146.8700698176
 20
123.7160464463
 11
141.2319392687
 21
125.9804467834
  0
LINE
  5
366
100
AcDbEntity
  8
0
100
AcDbLine
 62
7
  6
CONTINUOUS
 10
137.6136517171
 20
127.4336326365
 11
132.0574363727
 21
129.6651339808
  0
LINE
  5
367
100
AcDbEntity
  8
ASSI
100
AcDbLine
 62
7
  6
CONTINUOUS
 10
137.6136517171
 20
127.4336326365
 11
132.0574363727
 21
129.6651339808
  0
LINE
  5
368
100
AcDbEntity
  8
0
100
AcDbLine
 62
7
  6
CONTINUOUS
 10
128.4391488211
 20
131.1183198339
 11
126.251691231
 21
131.9968521172
  0
LINE
  5
369
100
AcDbEntity
  8
ASSI
100
AcDbLine
 62
7
  6
CONTINUOUS
 10
128.4391488211
 20
131.1183198339
 11
126.251691231
 21
131.9968521172
  0
LWPOLYLINE
  5
36A
100
AcDbEntity
  8
0
100
AcDbPolyline
 62
253
  6
CONTINUOUS
 90
5
 70
0
 10
151.6157706424
 20
119.6718737697
 10
132.444493544
 20
127.3739804013
 10
131.7178921499
 20
127.6717171008
 10
131.0057887694
 20
127.9670587273
 10
130.3117896812
 20
128.2585607933
  0
LWPOLYLINE
  5
36B
100
AcDbEntity
  8
ASSI
100
AcDbPolyline
 62
253
  6
CONTINUOUS
 90
5
 70
0
 10
151.6157706424
 20
119.6718737697
 10
132.444493544
 20
127.3739804013
 10
131.7178921499
 20
127.6717171008
 10
131.0057887694
 20
127.9670587273
 10
130.3117896812
 20
128.2585607933
  0
LWPOLYLINE
  5
36C
100
AcDbEntity
  8
0
100
AcDbPolyline
 62
253
  6
CONTINUOUS
 90
16
 70
0
 10
160.3480549739
 20
116.426785808
 10
160.3901156937
 20
116.4067437189
 10
160.4318805491
 20
116.3825818591
 10
160.4728927525
 20
116.3545644897
 10
160.5127037483
 20
116.3229980403
 10
160.5508781189
 20
116.288227757
 10
160.5869983466
 20
116.2506339269
 10
160.6206693801
 20
116.2106277183
 10
160.651522955
 20
116.1686466842
 10
160.6792216221
 20
116.1251499763
 10
160.7034624375
 20
116.0806133234
 10
160.7239802765
 20
116.0355238285
 10
160.7405507329
 20
115.990374641
 10
160.7529925737
 20
115.945659563
 10
160.7611697208
 20
115.9018676489
 10
160.7649927398
 20
115.8594778564
  0
LWPOLYLINE
  5
36D
100
AcDbEntity
  8
ASSI
100
AcDbPolyline
 62
253
  6
CONTINUOUS
 90
16
 70
0
 10
160.3480549739
 20
116.426785808
 10
160.3901156937
 20
116.4067437189
 10
160.4318805491
 20
116.3825818591
 10
160.4728927525
 20
116.3545644897
 10
160.5127037483
 20
116.3229980403
 10
160.5508781189
 20
116.288227757
 10
160.5869983466
 20
116.2506339269
 10
160.6206693801
 20
116.2106277183
 10
160.651522955
 20
116.1686466842
 10
160.6792216221
 20
116.1251499763
 10
160.7034624375
 20
116.0806133234
 10
160.7239802765
 20
116.0355238285
 10
160.7405507329
 20
115.990374641
 10
160.7529925737
 20
115.945659563
 10
160.7611697208
 20
115.9018676489
 10
160.7649927398
 20
115.8594778564
  0
LINE
  5
36E
100
AcDbEntity
  8
0
100
AcDbLine
 62
7
  6
CONTINUOUS
 10
162.2853832237
 20
117.1476925332
 11
162.7309476906
 21
110.4819582066
  0
LINE
  5
36F
100
AcDbEntity
  8
ASSI
100
AcDbLine
 62
7
  6
CONTINUOUS
 10
162.2853832237
 20
117.1476925332
 11
162.7309476906
 21
110.4819582066
  0
LINE
  5
370
100
AcDbEntity
  8
0
100
AcDbLine
 62
7
  6
CONTINUOUS
 10
162.7309476906
 20
110.4819582066
 11
162.7309476906
 21
100.3243948887
  0
LINE
  5
371
100
AcDbEntity
  8
ASSI
100
AcDbLine
 62
7
  6
CONTINUOUS
 10
162.7309476906
 20
110.4819582066
 11
162.7309476906
 21
100.3243948887
  0
LINE
  5
372
100
AcDbEntity
  8
0
100
AcDbLine
 62
7
  6
CONTINUOUS
 10
162.7309476906
 20
89.0201746462
 11
162.7309476906
 21
99.1777379641
  0
LINE
  5
373
100
AcDbEntity
  8
ASSI
100
AcDbLine
 62
7
  6
CONTINUOUS
 10
162.7309476906
 20
89.0201746462
 11
162.7309476906
 21
99.1777379641
  0
LINE
  5
374
100
AcDbEntity
  8
0
100
AcDbLine
 62
7
  6
CONTINUOUS
 10
162.2853832237
 20
81.6636870145
 11
162.7309476906
 21
89.0201746462
  0
LINE
  5
375
100
AcDbEntity
  8
ASSI
100
AcDbLine
 62
7
  6
CONTINUOUS
 10
162.2853832237
 20
81.6636870145
 11
162.7309476906
 21
89.0201746462
  0
LWPOLYLINE
  5
376
100
AcDbEntity
  8
0
100
AcDbPolyline
 62
253
  6
CONTINUOUS
 90
8
 70
0
 10
160.6506174323
 20
80.3564071711
 10
160.679223123
 20
80.3800686095
 10
160.7034636317
 20
80.4073038894
 10
160.7239811346
 20
80.4384561039
 10
160.7405512649
 20
80.4731845233
 10
160.7529928245
 20
80.5111093056
 10
160.7611697685
 20
80.551815649
 10
160.7649926961
 20
80.5948583376
  0
LWPOLYLINE
  5
377
100
AcDbEntity
  8
ASSI
100
AcDbPolyline
 62
253
  6
CONTINUOUS
 90
8
 70
0
 10
160.6506174323
 20
80.3564071711
 10
160.679223123
 20
80.3800686095
 10
160.7034636317
 20
80.4073038894
 10
160.7239811346
 20
80.4384561039
 10
160.7405512649
 20
80.4731845233
 10
160.7529928245
 20
80.5111093056
 10
160.7611697685
 20
80.551815649
 10
160.7649926961
 20
80.5948583376
  0
LINE
  5
378
100
AcDbEntity
  8
0
100
AcDbLine
 62
253
  6
CONTINUOUS
 10
162.2853832237
 20
81.6636870145
 11
160.7649926961
 21
80.5948583376
  0
LINE
  5
379
100
AcDbEntity
  8
ASSI
100
AcDbLine
 62
253
  6
CONTINUOUS
 10
162.2853832237
 20
81.6636870145
 11
160.7649926961
 21
80.5948583376
  0
LINE
  5
37A
100
AcDbEntity
  8
0
100
AcDbLine
 62
7
  6
CONTINUOUS
 10
162.1620365301
 20
81.4189289676
 11
160.6506173608
 21
80.3564071209
  0
LINE
  5
37B
100
AcDbEntity
  8
ASSI
100
AcDbLine
 62
7
  6
CONTINUOUS
 10
162.1620365301
 20
81.4189289676
 11
160.6506173608
 21
80.3564071209
  0
LWPOLYLINE
  5
37C
100
AcDbEntity
  8
0
100
AcDbPolyline
 62
253
  6
CONTINUOUS
 90
22
 70
0
 10
160.7649926961
 20
80.5948583376
 10
160.7355941391
 20
80.5756356232
 10
160.7066910502
 20
80.5595340162
 10
160.6782834296
 20
80.5465535166
 10
160.6502224471
 20
80.5366515937
 10
160.6226569328
 20
80.5298707781
 10
160.596033377
 20
80.5263386622
 10
160.5703787453
 20
80.5261128033
 10
160.545666072
 20
80.529135644
 10
160.52226095
 20
80.5353621048
 10
160.5001828243
 20
80.5448413755
 10
160.4794122499
 20
80.5575242661
 10
160.4602564844
 20
80.5732181269
 10
160.4427412956
 20
80.5919672439
 10
160.4268409158
 20
80.6137273311
 10
160.4127853
 20
80.6381728805
 10
160.4006008252
 20
80.6653602385
 10
160.3902611143
 20
80.6952330588
 10
160.3819169915
 20
80.7272967946
 10
160.3756187313
 20
80.7613865972
 10
160.3713160591
 20
80.7976673153
 10
160.369008975
 20
80.836138949
  0
LWPOLYLINE
  5
37D
100
AcDbEntity
  8
ASSI
100
AcDbPolyline
 62
253
  6
CONTINUOUS
 90
22
 70
0
 10
160.7649926961
 20
80.5948583376
 10
160.7355941391
 20
80.5756356232
 10
160.7066910502
 20
80.5595340162
 10
160.6782834296
 20
80.5465535166
 10
160.6502224471
 20
80.5366515937
 10
160.6226569328
 20
80.5298707781
 10
160.596033377
 20
80.5263386622
 10
160.5703787453
 20
80.5261128033
 10
160.545666072
 20
80.529135644
 10
160.52226095
 20
80.5353621048
 10
160.5001828243
 20
80.5448413755
 10
160.4794122499
 20
80.5575242661
 10
160.4602564844
 20
80.5732181269
 10
160.4427412956
 20
80.5919672439
 10
160.4268409158
 20
80.6137273311
 10
160.4127853
 20
80.6381728805
 10
160.4006008252
 20
80.6653602385
 10
160.3902611143
 20
80.6952330588
 10
160.3819169915
 20
80.7272967946
 10
160.3756187313
 20
80.7613865972
 10
160.3713160591
 20
80.7976673153
 10
160.369008975
 20
80.836138949
  0
ELLIPSE
  5
37E
100
AcDbEntity
  8
0
100
AcDbEllipse
 62
7
  6
CONTINUOUS
 10
161.8757023476
 20
81.8288252422
 30
0.0
 11
-0.2850203122
 21
0.4108138748
 31
0.0
 40
0.7191175512
 41
-3.1374309805
 42
-2.401520857
  0
ELLIPSE
  5
37F
100
AcDbEntity
  8
0
100
AcDbEllipse
 62
7
  6
CONTINUOUS
 10
162.3212312689
 20
99.3421957512
 30
0.0
 11
0.3170403205
 21
-0.3867036085
 31
0.0
 40
0.6711200097
 41
0.6859711218
 42
2.2565390145
  0
ELLIPSE
  5
380
100
AcDbEntity
  8
ASSI
100
AcDbEllipse
 62
7
  6
CONTINUOUS
 10
161.8757023476
 20
81.8288252422
 30
0.0
 11
-0.2850203122
 21
0.4108138748
 31
0.0
 40
0.7191175512
 41
-3.1374309805
 42
-2.401520857
  0
ELLIPSE
  5
381
100
AcDbEntity
  8
ASSI
100
AcDbEllipse
 62
7
  6
CONTINUOUS
 10
162.3212312689
 20
99.3421957512
 30
0.0
 11
0.3170403205
 21
-0.3867036085
 31
0.0
 40
0.6711200097
 41
0.6859711218
 42
2.2565390145
  0
ELLIPSE
  5
382
100
AcDbEntity
  8
0
100
AcDbEllipse
 62
7
  6
CONTINUOUS
 10
126.2763276905
 20
131.6092235466
 30
0.0
 11
-0.3432468395
 21
0.3635678883
 31
0.0
 40
0.6190547263
 41
-0.930363261
 42
0.0001592011
  0
ELLIPSE
  5
383
100
AcDbEntity
  8
0
100
AcDbEllipse
 62
7
  6
CONTINUOUS
 10
161.8757023476
 20
117.3117121151
 30
0.0
 11
-0.3433580121
 21
0.3640648834
 31
0.0
 40
0.6179721343
 41
-2.4982952834
 42
-0.9288689526
  0
ELLIPSE
  5
384
100
AcDbEntity
  8
0
100
AcDbEllipse
 62
7
  6
CONTINUOUS
 10
162.3212312689
 20
100.4890398052
 30
0.0
 11
-0.3170686951
 21
0.3868251561
 31
0.0
 40
0.6708195125
 41
-3.1651785864
 42
-2.4557308722
  0
ELLIPSE
  5
385
100
AcDbEntity
  8
0
100
AcDbEllipse
 62
7
  6
CONTINUOUS
 10
158.9424316959
 20
118.4902666638
 30
0.0
 11
0.1999434854
 21
0.0078174272
 31
0.0
 40
0.6081570881
 41
-2.2054349231
 42
-1.1582373719
  0
ELLIPSE
  5
386
100
AcDbEntity
  8
0
100
AcDbEllipse
 62
7
  6
CONTINUOUS
 10
156.1826593977
 20
119.5986534363
 30
0.0
 11
0.1999434854
 21
0.0078174272
 31
0.0
 40
0.6081570881
 41
3.1201007963
 42
4.077750384
  0
ELLIPSE
  5
387
100
AcDbEntity
  8
0
100
AcDbEllipse
 62
7
  6
CONTINUOUS
 10
149.7679287998
 20
122.1749538611
 30
0.0
 11
0.1999434854
 21
0.0078174272
 31
0.0
 40
0.6081570881
 41
-2.2054349231
 42
-1.1582373719
  0
ELLIPSE
  5
388
100
AcDbEntity
  8
0
100
AcDbEllipse
 62
7
  6
CONTINUOUS
 10
147.0081565017
 20
123.2833406337
 30
0.0
 11
0.1999434854
 21
0.0078174272
 31
0.0
 40
0.6081570881
 41
3.1201007963
 42
4.077750384
  0
ELLIPSE
  5
389
100
AcDbEntity
  8
0
100
AcDbEllipse
 62
7
  6
CONTINUOUS
 10
137.7517384012
 20
127.0009268239
 30
0.0
 11
0.1999434854
 21
0.0078174272
 31
0.0
 40
0.6081570881
 41
3.1201007963
 42
4.077750384
  0
ELLIPSE
  5
38A
100
AcDbEntity
  8
0
100
AcDbEllipse
 62
7
  6
CONTINUOUS
 10
140.5115106994
 20
125.8925400513
 30
0.0
 11
0.1999434854
 21
0.0078174272
 31
0.0
 40
0.6081570881
 41
-2.2054349231
 42
-1.1582373719
  0
ELLIPSE
  5
38B
100
AcDbEntity
  8
0
100
AcDbEllipse
 62
7
  6
CONTINUOUS
 10
131.3370078033
 20
129.5772272487
 30
0.0
 11
0.1999434854
 21
0.0078174272
 31
0.0
 40
0.6081570881
 41
-2.2054349231
 42
-1.1582373719
  0
ELLIPSE
  5
38C
100
AcDbEntity
  8
0
100
AcDbEllipse
 62
7
  6
CONTINUOUS
 10
128.5772355052
 20
130.6856140213
 30
0.0
 11
0.1999434854
 21
0.0078174272
 31
0.0
 40
0.6081570881
 41
3.1201007963
 42
4.077750384
  0
ELLIPSE
  5
38D
100
AcDbEntity
  8
ASSI
100
AcDbEllipse
 62
7
  6
CONTINUOUS
 10
126.2763276905
 20
131.6092235466
 30
0.0
 11
-0.3432468395
 21
0.3635678883
 31
0.0
 40
0.6190547263
 41
-0.930363261
 42
0.0001592011
  0
ELLIPSE
  5
38E
100
AcDbEntity
  8
ASSI
100
AcDbEllipse
 62
7
  6
CONTINUOUS
 10
161.8757023476
 20
117.3117121151
 30
0.0
 11
-0.3433580121
 21
0.3640648834
 31
0.0
 40
0.6179721343
 41
-2.4982952834
 42
-0.9288689526
  0
ELLIPSE
  5
38F
100
AcDbEntity
  8
ASSI
100
AcDbEllipse
 62
7
  6
CONTINUOUS
 10
162.3212312689
 20
100.4890398052
 30
0.0
 11
-0.3170686951
 21
0.3868251561
 31
0.0
 40
0.6708195125
 41
-3.1651785864
 42
-2.4557308722
  0
ELLIPSE
  5
390
100
AcDbEntity
  8
ASSI
100
AcDbEllipse
 62
7
  6
CONTINUOUS
 10
158.9424316959
 20
118.4902666638
 30
0.0
 11
0.1999434854
 21
0.0078174272
 31
0.0
 40
0.6081570881
 41
-2.2054349231
 42
-1.1582373719
  0
ELLIPSE
  5
391
100
AcDbEntity
  8
ASSI
100
AcDbEllipse
 62
7
  6
CONTINUOUS
 10
156.1826593977
 20
119.5986534363
 30
0.0
 11
0.1999434854
 21
0.0078174272
 31
0.0
 40
0.6081570881
 41
3.1201007963
 42
4.077750384
  0
ELLIPSE
  5
392
100
AcDbEntity
  8
ASSI
100
AcDbEllipse
 62
7
  6
CONTINUOUS
 10
149.7679287998
 20
122.1749538611
 30
0.0
 11
0.1999434854
 21
0.0078174272
 31
0.0
 40
0.6081570881
 41
-2.2054349231
 42
-1.1582373719
  0
ELLIPSE
  5
393
100
AcDbEntity
  8
ASSI
100
AcDbEllipse
 62
7
  6
CONTINUOUS
 10
147.0081565017
 20
123.2833406337
 30
0.0
 11
0.1999434854
 21
0.0078174272
 31
0.0
 40
0.6081570881
 41
3.1201007963
 42
4.077750384
  0
ELLIPSE
  5
394
100
AcDbEntity
  8
ASSI
100
AcDbEllipse
 62
7
  6
CONTINUOUS
 10
137.7517384012
 20
127.0009268239
 30
0.0
 11
0.1999434854
 21
0.0078174272
 31
0.0
 40
0.6081570881
 41
3.1201007963
 42
4.077750384
  0
ELLIPSE
  5
395
100
AcDbEntity
  8
ASSI
100
AcDbEllipse
 62
7
  6
CONTINUOUS
 10
140.5115106994
 20
125.8925400513
 30
0.0
 11
0.1999434854
 21
0.0078174272
 31
0.0
 40
0.6081570881
 41
-2.2054349231
 42
-1.1582373719
  0
ELLIPSE
  5
396
100
AcDbEntity
  8
ASSI
100
AcDbEllipse
 62
7
  6
CONTINUOUS
 10
131.3370078033
 20
129.5772272487
 30
0.0
 11
0.1999434854
 21
0.0078174272
 31
0.0
 40
0.6081570881
 41
-2.2054349231
 42
-1.1582373719
  0
ELLIPSE
  5
397
100
AcDbEntity
  8
ASSI
100
AcDbEllipse
 62
7
  6
CONTINUOUS
 10
128.5772355052
 20
130.6856140213
 30
0.0
 11
0.1999434854
 21
0.0078174272
 31
0.0
 40
0.6081570881
 41
3.1201007963
 42
4.077750384
  0
ENDSEC
  0
SECTION
  2
OBJECTS
  0
DICTIONARY
  5
C
100
AcDbDictionary
280
0
281
1
  3
ACAD_GROUP
350
D
  3
ACAD_MLINESTYLE
350
17
  3
ACAD_LAYOUT
350
1A
  3
ACAD_PLOTSETTINGS
350
19
  3
ACAD_PLOTSTYLENAME
350
E
  0
DICTIONARY
  5
D
102
{ACAD_REACTORS
330
C
102
}
100
AcDbDictionary
280
0
281
1
  0
ACDBDICTIONARYWDFLT
  5
E
102
{ACAD_REACTORS
330
C
102
}
100
AcDbDictionary
281
1
  3
Normal
350
F
100
AcDbDictionaryWithDefault
340
F
  0
DICTIONARY
  5
17
102
{ACAD_REACTORS
330
C
102
}
100
AcDbDictionary
280
0
281
1
  3
Standard
350
18
  0
DICTIONARY
  5
19
102
{ACAD_REACTORS
330
C
102
}
100
AcDbDictionary
281
1
  0
DICTIONARY
  5
1A
102
{ACAD_REACTORS
330
C
102
}
100
AcDbDictionary
281
1
  3
Model
350
398
  3
Layout1
350
399
  0
ACDBPLACEHOLDER
  5
F
102
{ACAD_REACTORS
330
E
102
}
  0
MLINESTYLE
  5
18
102
{ACAD_REACTORS
330
17
102
}
100
AcDbMlineStyle
  2
STANDARD
 70
0
  3

 62
256
 51
90.0
 52
90.0
 71
2
 49
0.5
 62
256
  6
BYLAYER
 49
-0.5
 62
256
  6
BYLAYER
  0
LAYOUT
  5
398
102
{ACAD_REACTORS
330
1A
102
}
100
AcDbPlotSettings
  1

  2
none_device
  4
ISO_A4_(297.00_x_210.00_MM)
  6

 40
0.0
 41
0.0
 42
0.0
 43
0.0
 44
297.0
 45
210.0
 46
0.0
 47
0.0
 48
0.0
 49
0.0
140
0.0
141
0.0
142
1.0
143
1.0
 70
1024
 72
1
 73
0
 74
0
  7

 75
0
147
1.0
148
0.0
149
0.0
100
AcDbLayout
  1
Model
 70
0
 71
0
 10
0.0
 20
0.0
 11
297.0
 21
210.0
 12
0.0
 22
0.0
 32
0.0
 14
0.0
 24
0.0
 34
0.0
 15
0.0
 25
0.0
 35
0.0
146
0.0
 13
0.0
 23
0.0
 33
0.0
 16
1.0
 26
0.0
 36
0.0
 17
0.0
 27
1.0
 37
0.0
 76
0
330
21F
345
0
346
0
  0
LAYOUT
  5
399
102
{ACAD_REACTORS
330
1A
102
}
100
AcDbPlotSettings
  1

  2
none_device
  4
ISO_A4_(297.00_x_210.00_MM)
  6

 40
0.0
 41
0.0
 42
0.0
 43
0.0
 44
297.0
 45
210.0
 46
0.0
 47
0.0
 48
0.0
 49
0.0
140
0.0
141
0.0
142
1.0
143
1.0
 70
0
 72
1
 73
0
 74
0
  7

 75
0
147
1.0
148
0.0
149
0.0
100
AcDbLayout
  1
Layout1
 70
0
 71
1
 10
0.0
 20
0.0
 11
297.0
 21
210.0
 12
0.0
 22
0.0
 32
0.0
 14
0.0
 24
0.0
 34
0.0
 15
0.0
 25
0.0
 35
0.0
146
0.0
 13
0.0
 23
0.0
 33
0.0
 16
1.0
 26
0.0
 36
0.0
 17
0.0
 27
1.0
 37
0.0
 76
0
330
220
345
0
346
0
  0
ENDSEC
  0
EOF
