  0
SECTION
  2
HEADER
  9
$ACADVER
  1
AC1015
  9
$DWGCODEPAGE
  3
ANSI_1252
  9
$EXTMAX
 10
297.0
 20
210.0
 30
0.0
  9
$EXTMIN
 10
0.0
 20
0.0
 30
0.0
  9
$LIMMIN
 10
0.0
 20
0.0
  9
$LIMMAX
 10
297.0
 20
210.0
  9
$VIEWCTR
 10
148.5
 20
105.0
  9
$VIEWSIZE
 40
210.0
  9
$CLAYER
  8
0
  9
$LTSCALE
 40
16.335
  9
$CELTYPE
  6
BYLAYER
  9
$DIMSCALE
 40
1.0
  9
$DIMASZ
 40
3.0
  9
$DIMEXO
 40
0.5
  9
$DIMDLI
 40
11.286
  9
$DIMEXE
 40
1.5
  9
$DIMCEN
 40
2.673
  9
$DIMLFAC
 40
1.0
  9
$DIMBLK
  1
_FILLED
  9
$DIMTXT
 40
3.0
  9
$DIMTOL
 70
1
  9
$DIMLIM
 70
0
  9
$DIMTFAC
 40
1.0
  9
$DIMTP
 40
0.01
  9
$DIMTM
 40
0.01
  9
$DIMGAP
 40
0.625
  9
$DIMDSEP
 70
44
  9
$PDMODE
 70
3
  9
$PDSIZE
 40
3.0
  9
$HANDSEED
  5
466
  9
$TILEMODE
 70
1
  9
$MEASUREMENT
 70
1
  9
$INSUNITS
 70
4
  0
ENDSEC
  0
SECTION
  2
CLASSES
  0
CLASS
  1
ACDBDICTIONARYWDFLT
  2
AcDbDictionaryWithDefault
  3
AutoCAD 2000
 90
0
280
0
281
0
  0
CLASS
  1
ACDBPLACEHOLDER
  2
AcDbPlaceHolder
  3
AutoCAD 2000
 90
0
280
0
281
0
  0
CLASS
  1
LAYOUT
  2
AcDbLayout
  3
AutoCAD 2000
 90
0
280
0
281
0
  0
ENDSEC
  0
SECTION
  2
TABLES
  0
TABLE
  2
VPORT
  5
8
100
AcDbSymbolTable
 70
2
  0
VPORT
  5
1F4
100
AcDbSymbolTableRecord
100
AcDbViewportTableRecord
  2
*ACTIVE
 70
0
 10
0.0
 20
0.0
 11
1.0
 21
1.0
 12
148.5
 22
105.0
 13
0.0
 23
0.0
 14
1.0
 24
1.0
 15
0.0
 25
0.0
 16
0.0
 26
0.0
 36
1.0
 17
0.0
 27
0.0
 37
0.0
 40
210.0
 41
1.4142857143
 42
50.0
 43
0.0
 44
0.0
 50
0.0
 51
0.0
 71
0
 72
100
 73
1
 74
1
 75
0
 76
0
 77
0
 78
0
  0
ENDTAB
  0
TABLE
  2
LTYPE
  5
5
100
AcDbSymbolTable
 70
6
  0
LTYPE
  5
14
100
AcDbSymbolTableRecord
100
AcDbLinetypeTableRecord
  2
BYBLOCK
 70
0
  3

 72
65
 73
0
 40
0.0
  0
LTYPE
  5
15
100
AcDbSymbolTableRecord
100
AcDbLinetypeTableRecord
  2
BYLAYER
 70
0
  3

 72
65
 73
0
 40
0.0
  0
LTYPE
  5
16
100
AcDbSymbolTableRecord
100
AcDbLinetypeTableRecord
  2
CONTINUOUS
 70
64
  3
Solid line
 72
65
 73
0
 40
0.0
  0
LTYPE
  5
1F5
100
AcDbSymbolTableRecord
100
AcDbLinetypeTableRecord
  2
CENTER
 70
64
  3
____ _ ____ _ ____ _ ____ _ ____ _ ____ _ ____
 72
65
 73
4
 40
0.6
 49
0.375
 74
0
 49
-0.075
 74
0
 49
0.075
 74
0
 49
-0.075
 74
0
  0
LTYPE
  5
1F6
100
AcDbSymbolTableRecord
100
AcDbLinetypeTableRecord
  2
HIDDEN
 70
64
  3
- - - - - - - - - - - - - - - - - - - -
 72
65
 73
2
 40
0.2
 49
0.1
 74
0
 49
-0.1
 74
0
  0
LTYPE
  5
1F7
100
AcDbSymbolTableRecord
100
AcDbLinetypeTableRecord
  2
PHANTOM
 70
64
  3
_____ _ _ _____ _ _ _____ _ _ _____
 72
65
 73
6
 40
0.8
 49
0.45
 74
0
 49
-0.05
 74
0
 49
0.1
 74
0
 49
-0.05
 74
0
 49
0.1
 74
0
 49
-0.05
 74
0
  0
LTYPE
  5
1F8
100
AcDbSymbolTableRecord
100
AcDbLinetypeTableRecord
  2
DOT
 70
64
  3
. . . . . . . . . . . . . . . . . . . .
 72
65
 73
2
 40
0.2
 49
0.1
 74
0
 49
-0.1
 74
0
  0
LTYPE
  5
1F9
100
AcDbSymbolTableRecord
100
AcDbLinetypeTableRecord
  2
DASHED
 70
64
  3
- - - - - - - - - - - - - - - - - - - -
 72
65
 73
2
 40
0.2
 49
0.1
 74
0
 49
-0.1
 74
0
  0
ENDTAB
  0
TABLE
  2
LAYER
  5
2
100
AcDbSymbolTable
 70
36
  0
LAYER
  5
10
100
AcDbSymbolTableRecord
100
AcDbLayerTableRecord
  2
0
 70
0
 62
7
  6
CONTINUOUS
370
-3
390
F
  0
LAYER
  5
1FA
100
AcDbSymbolTableRecord
100
AcDbLayerTableRecord
  2
DEFAULT_1
 70
0
 62
7
  6
CENTER
370
-3
390
F
  0
LAYER
  5
1FB
100
AcDbSymbolTableRecord
100
AcDbLayerTableRecord
  2
DEFAULT_2
 70
0
 62
7
  6
HIDDEN
370
-3
390
F
  0
LAYER
  5
1FC
100
AcDbSymbolTableRecord
100
AcDbLayerTableRecord
  2
DEFAULT_3
 70
0
 62
7
  6
PHANTOM
370
-3
390
F
  0
LAYER
  5
1FD
100
AcDbSymbolTableRecord
100
AcDbLayerTableRecord
  2
ASSI
 70
0
 62
7
  6
CONTINUOUS
370
-3
390
F
  0
LAYER
  5
1FE
100
AcDbSymbolTableRecord
100
AcDbLayerTableRecord
  2
COLOR3
 70
0
 62
7
  6
CONTINUOUS
370
-3
390
F
  0
LAYER
  5
1FF
100
AcDbSymbolTableRecord
100
AcDbLayerTableRecord
  2
COORDINATE
 70
0
 62
7
  6
CONTINUOUS
370
-3
390
F
  0
LAYER
  5
200
100
AcDbSymbolTableRecord
100
AcDbLayerTableRecord
  2
COPY_PUBLISH
 70
0
 62
7
  6
CONTINUOUS
370
-3
390
F
  0
LAYER
  5
201
100
AcDbSymbolTableRecord
100
AcDbLayerTableRecord
  2
COSMETIC
 70
0
 62
7
  6
CONTINUOUS
370
-3
390
F
  0
LAYER
  5
202
100
AcDbSymbolTableRecord
100
AcDbLayerTableRecord
  2
COSMETICI
 70
0
 62
7
  6
CONTINUOUS
370
-3
390
F
  0
LAYER
  5
203
100
AcDbSymbolTableRecord
100
AcDbLayerTableRecord
  2
CURVE
 70
0
 62
7
  6
CONTINUOUS
370
-3
390
F
  0
LAYER
  5
204
100
AcDbSymbolTableRecord
100
AcDbLayerTableRecord
  2
DRAFT
 70
0
 62
7
  6
CONTINUOUS
370
-3
390
F
  0
LAYER
  5
205
100
AcDbSymbolTableRecord
100
AcDbLayerTableRecord
  2
IMPORT_IGES
 70
0
 62
7
  6
CONTINUOUS
370
-3
390
F
  0
LAYER
  5
206
100
AcDbSymbolTableRecord
100
AcDbLayerTableRecord
  2
INTFCLR_1
 70
0
 62
7
  6
CONTINUOUS
370
-3
390
F
  0
LAYER
  5
207
100
AcDbSymbolTableRecord
100
AcDbLayerTableRecord
  2
INTF_1
 70
0
 62
7
  6
CONTINUOUS
370
-3
390
F
  0
LAYER
  5
208
100
AcDbSymbolTableRecord
100
AcDbLayerTableRecord
  2
INTF_10
 70
0
 62
7
  6
CONTINUOUS
370
-3
390
F
  0
LAYER
  5
209
100
AcDbSymbolTableRecord
100
AcDbLayerTableRecord
  2
INTF_13
 70
0
 62
7
  6
CONTINUOUS
370
-3
390
F
  0
LAYER
  5
20A
100
AcDbSymbolTableRecord
100
AcDbLayerTableRecord
  2
INTF_15
 70
0
 62
7
  6
CONTINUOUS
370
-3
390
F
  0
LAYER
  5
20B
100
AcDbSymbolTableRecord
100
AcDbLayerTableRecord
  2
INTF_16
 70
0
 62
7
  6
CONTINUOUS
370
-3
390
F
  0
LAYER
  5
20C
100
AcDbSymbolTableRecord
100
AcDbLayerTableRecord
  2
INTF_18
 70
0
 62
7
  6
CONTINUOUS
370
-3
390
F
  0
LAYER
  5
20D
100
AcDbSymbolTableRecord
100
AcDbLayerTableRecord
  2
INTF_20
 70
0
 62
7
  6
CONTINUOUS
370
-3
390
F
  0
LAYER
  5
20E
100
AcDbSymbolTableRecord
100
AcDbLayerTableRecord
  2
INTF_3
 70
0
 62
7
  6
CONTINUOUS
370
-3
390
F
  0
LAYER
  5
20F
100
AcDbSymbolTableRecord
100
AcDbLayerTableRecord
  2
INTF_5
 70
0
 62
7
  6
CONTINUOUS
370
-3
390
F
  0
LAYER
  5
210
100
AcDbSymbolTableRecord
100
AcDbLayerTableRecord
  2
INTF_8
 70
0
 62
7
  6
CONTINUOUS
370
-3
390
F
  0
LAYER
  5
211
100
AcDbSymbolTableRecord
100
AcDbLayerTableRecord
  2
NOTE
 70
0
 62
7
  6
CONTINUOUS
370
-3
390
F
  0
LAYER
  5
212
100
AcDbSymbolTableRecord
100
AcDbLayerTableRecord
  2
PIANI
 70
0
 62
7
  6
CONTINUOUS
370
-3
390
F
  0
LAYER
  5
213
100
AcDbSymbolTableRecord
100
AcDbLayerTableRecord
  2
PUNTI
 70
0
 62
7
  6
CONTINUOUS
370
-3
390
F
  0
LAYER
  5
214
100
AcDbSymbolTableRecord
100
AcDbLayerTableRecord
  2
RACCORDO
 70
0
 62
7
  6
CONTINUOUS
370
-3
390
F
  0
LAYER
  5
215
100
AcDbSymbolTableRecord
100
AcDbLayerTableRecord
  2
SIMBOLI
 70
0
 62
7
  6
CONTINUOUS
370
-3
390
F
  0
LAYER
  5
216
100
AcDbSymbolTableRecord
100
AcDbLayerTableRecord
  2
SMUSSO
 70
0
 62
7
  6
CONTINUOUS
370
-3
390
F
  0
LAYER
  5
217
100
AcDbSymbolTableRecord
100
AcDbLayerTableRecord
  2
SNAPLINE
 70
0
 62
7
  6
CONTINUOUS
370
-3
390
F
  0
LAYER
  5
218
100
AcDbSymbolTableRecord
100
AcDbLayerTableRecord
  2
SOLIDO
 70
0
 62
7
  6
CONTINUOUS
370
-3
390
F
  0
LAYER
  5
219
100
AcDbSymbolTableRecord
100
AcDbLayerTableRecord
  2
SUPERFICI
 70
0
 62
7
  6
CONTINUOUS
370
-3
390
F
  0
LAYER
  5
21A
100
AcDbSymbolTableRecord
100
AcDbLayerTableRecord
  2
SUPERFICI_SKEL
 70
0
 62
7
  6
CONTINUOUS
370
-3
390
F
  0
LAYER
  5
21B
100
AcDbSymbolTableRecord
100
AcDbLayerTableRecord
  2
TRASH
 70
0
 62
7
  6
CONTINUOUS
370
-3
390
F
  0
LAYER
  5
21C
100
AcDbSymbolTableRecord
100
AcDbLayerTableRecord
  2
___SHELL
 70
0
 62
7
  6
CONTINUOUS
370
-3
390
F
  0
ENDTAB
  0
TABLE
  2
STYLE
  5
3
100
AcDbSymbolTable
 70
1
  0
STYLE
  5
11
100
AcDbSymbolTableRecord
100
AcDbTextStyleTableRecord
  2
STANDARD
 70
0
 40
0.0
 41
0.8
 50
0.0
 71
0
 42
0.2
  3
txt
  4

  0
STYLE
  5
21D
100
AcDbSymbolTableRecord
100
AcDbTextStyleTableRecord
  2
TEXTSTYLE_1
 70
0
 40
0.0
 41
0.8
 50
0.0
 71
0
 42
0.2
  3
gdt
  4

  0
ENDTAB
  0
TABLE
  2
VIEW
  5
6
100
AcDbSymbolTable
 70
0
  0
ENDTAB
  0
TABLE
  2
UCS
  5
7
100
AcDbSymbolTable
 70
0
  0
ENDTAB
  0
TABLE
  2
APPID
  5
9
100
AcDbSymbolTable
 70
1
  0
APPID
  5
21E
100
AcDbSymbolTableRecord
100
AcDbRegAppTableRecord
  2
ACAD
 70
0
  0
ENDTAB
  0
TABLE
  2
BLOCK_RECORD
  5
1
100
AcDbSymbolTable
 70
0
  0
BLOCK_RECORD
  5
21F
100
AcDbSymbolTableRecord
100
AcDbBlockTableRecord
  2
*Model_Space
  0
BLOCK_RECORD
  5
220
100
AcDbSymbolTableRecord
100
AcDbBlockTableRecord
  2
*Paper_Space
  0
ENDTAB
  0
TABLE
  2
DIMSTYLE
  5
A
100
AcDbSymbolTable
 70
1
100
AcDbDimStyleTable
 71
0
  0
DIMSTYLE
105
221
100
AcDbSymbolTableRecord
100
AcDbDimStyleTableRecord
  2
STANDARD
 70
0
  3

  4

 40
1.0
 41
3.0
 42
0.5
 43
0.38
 44
1.5
 45
0.0
 46
0.0
 47
0.01
 48
0.01
140
3.0
141
0.09
142
0.0
143
25.4
144
1.0
145
0.0
146
1.0
147
0.625
 71
1.0
 72
0.0
 73
0
 74
0
 75
0
 76
0
 77
1
 78
8
170
0
171
2
172
0
173
0
174
0
175
0
176
0
177
0
178
0
270
2
271
2
272
2
273
2
274
2
275
0
280
0
281
0
282
0
283
1
284
8
285
0
286
0
287
3
288
0
340
11
278
44
  0
ENDTAB
  0
ENDSEC
  0
SECTION
  2
BLOCKS
  0
BLOCK
  5
20
100
AcDbEntity
  8
0
100
AcDbBlockBegin
  2
*Model_Space
 70
0
 10
0.0
 20
0.0
 30
0.0
  3
*Model_Space
  1

  0
ENDBLK
  5
21
100
AcDbEntity
  8
0
100
AcDbBlockEnd
  0
BLOCK
  5
1C
100
AcDbEntity
  8
0
100
AcDbBlockBegin
  2
*Paper_Space
 70
0
 10
0.0
 20
0.0
 30
0.0
  3
*Paper_Space
  1

  0
ENDBLK
  5
1D
100
AcDbEntity
  8
0
100
AcDbBlockEnd
  0
ENDSEC
  0
SECTION
  2
ENTITIES
  0
LWPOLYLINE
  5
222
100
AcDbEntity
  8
0
100
AcDbPolyline
 62
7
  6
CONTINUOUS
 90
18
 70
0
 10
123.4125813966
 20
131.2072942762
 10
123.355654773
 20
131.1488459956
 10
123.3024468498
 20
131.0870279813
 10
123.2528104028
 20
131.0223595153
 10
123.2064273551
 20
130.9550444499
 10
123.1630586569
 20
130.8851717325
 10
123.1226978924
 20
130.8130868329
 10
123.0853271216
 20
130.7390343527
 10
123.0509324542
 20
130.6631459161
 10
123.0195918897
 20
130.585707284
 10
122.9914127999
 20
130.5069766856
 10
122.9664797884
 20
130.4270966695
 10
122.944939657
 20
130.3462928575
 10
122.9269969768
 20
130.264847552
 10
122.9128258314
 20
130.1828109077
 10
122.9026901376
 20
130.1002331314
 10
122.8969322785
 20
130.0174010288
 10
122.8962632352
 20
129.9982478764
  0
LWPOLYLINE
  5
223
100
AcDbEntity
  8
ASSI
100
AcDbPolyline
 62
7
  6
CONTINUOUS
 90
18
 70
0
 10
123.4125813966
 20
131.2072942762
 10
123.355654773
 20
131.1488459956
 10
123.3024468498
 20
131.0870279813
 10
123.2528104028
 20
131.0223595153
 10
123.2064273551
 20
130.9550444499
 10
123.1630586569
 20
130.8851717325
 10
123.1226978924
 20
130.8130868329
 10
123.0853271216
 20
130.7390343527
 10
123.0509324542
 20
130.6631459161
 10
123.0195918897
 20
130.585707284
 10
122.9914127999
 20
130.5069766856
 10
122.9664797884
 20
130.4270966695
 10
122.944939657
 20
130.3462928575
 10
122.9269969768
 20
130.264847552
 10
122.9128258314
 20
130.1828109077
 10
122.9026901376
 20
130.1002331314
 10
122.8969322785
 20
130.0174010288
 10
122.8962632352
 20
129.9982478764
  0
LINE
  5
224
100
AcDbEntity
  8
0
100
AcDbLine
 62
7
  6
CONTINUOUS
 10
124.8238293534
 20
132.5400576818
 11
123.4125813966
 21
131.2072942762
  0
LINE
  5
225
100
AcDbEntity
  8
ASSI
100
AcDbLine
 62
7
  6
CONTINUOUS
 10
124.8238293534
 20
132.5400576818
 11
123.4125813966
 21
131.2072942762
  0
LINE
  5
226
100
AcDbEntity
  8
0
100
AcDbLine
 62
253
  6
CONTINUOUS
 10
125.1424545104
 20
132.5641323167
 11
123.7484918948
 21
131.2477669697
  0
LINE
  5
227
100
AcDbEntity
  8
ASSI
100
AcDbLine
 62
253
  6
CONTINUOUS
 10
125.1424545104
 20
132.5641323167
 11
123.7484918948
 21
131.2477669697
  0
LINE
  5
228
100
AcDbEntity
  8
0
100
AcDbLine
 62
7
  6
CONTINUOUS
 10
123.4206563779
 20
131.2149934736
 11
123.4202107971
 21
131.2145739082
  0
LINE
  5
229
100
AcDbEntity
  8
ASSI
100
AcDbLine
 62
7
  6
CONTINUOUS
 10
123.4206563779
 20
131.2149934736
 11
123.4202107971
 21
131.2145739082
  0
LWPOLYLINE
  5
22A
100
AcDbEntity
  8
0
100
AcDbPolyline
 62
253
  6
CONTINUOUS
 90
22
 70
0
 10
123.7484918948
 20
131.2477669696
 10
123.6993305732
 20
131.2024978634
 10
123.6505623699
 20
131.1527680151
 10
123.6024457496
 20
131.0988174841
 10
123.5552534959
 20
131.0409015506
 10
123.5092171616
 20
130.9793063862
 10
123.4645262178
 20
130.9143464371
 10
123.4214134947
 20
130.8463326436
 10
123.3801109536
 20
130.7755971574
 10
123.3407940616
 20
130.7025083886
 10
123.3036684661
 20
130.6274243783
 10
123.2689315441
 20
130.5507074745
 10
123.2367284395
 20
130.4727479545
 10
123.2072257273
 20
130.3939261792
 10
123.1805815534
 20
130.3146254961
 10
123.15690681
 20
130.235247344
 10
123.1363238218
 20
130.156186425
 10
123.1189415927
 20
130.0778212204
 10
123.1048285775
 20
130.0005274292
 10
123.094053366
 20
129.9246814359
 10
123.0866818701
 20
129.8506578886
 10
123.0827544004
 20
129.7788207023
  0
LWPOLYLINE
  5
22B
100
AcDbEntity
  8
ASSI
100
AcDbPolyline
 62
253
  6
CONTINUOUS
 90
22
 70
0
 10
123.7484918948
 20
131.2477669696
 10
123.6993305732
 20
131.2024978634
 10
123.6505623699
 20
131.1527680151
 10
123.6024457496
 20
131.0988174841
 10
123.5552534959
 20
131.0409015506
 10
123.5092171616
 20
130.9793063862
 10
123.4645262178
 20
130.9143464371
 10
123.4214134947
 20
130.8463326436
 10
123.3801109536
 20
130.7755971574
 10
123.3407940616
 20
130.7025083886
 10
123.3036684661
 20
130.6274243783
 10
123.2689315441
 20
130.5507074745
 10
123.2367284395
 20
130.4727479545
 10
123.2072257273
 20
130.3939261792
 10
123.1805815534
 20
130.3146254961
 10
123.15690681
 20
130.235247344
 10
123.1363238218
 20
130.156186425
 10
123.1189415927
 20
130.0778212204
 10
123.1048285775
 20
130.0005274292
 10
123.094053366
 20
129.9246814359
 10
123.0866818701
 20
129.8506578886
 10
123.0827544004
 20
129.7788207023
  0
LINE
  5
22C
100
AcDbEntity
  8
0
100
AcDbLine
 62
7
  6
CONTINUOUS
 10
130.9481996521
 20
130.2324141803
 11
130.3122947351
 21
130.0362470961
  0
LINE
  5
22D
100
AcDbEntity
  8
ASSI
100
AcDbLine
 62
7
  6
CONTINUOUS
 10
130.9481996521
 20
130.2324141803
 11
130.3122947351
 21
130.0362470961
  0
LWPOLYLINE
  5
22E
100
AcDbEntity
  8
0
100
AcDbPolyline
 62
253
  6
CONTINUOUS
 90
10
 70
0
 10
122.648284841
 20
113.2910307894
 10
122.6505997356
 20
113.2633456998
 10
122.6576204196
 20
113.2357958828
 10
122.6692806715
 20
113.2087635057
 10
122.6854702211
 20
113.1825041893
 10
122.7060359834
 20
113.1572662195
 10
122.7307835015
 20
113.1332882263
 10
122.7594787756
 20
113.1107969344
 10
122.791850469
 20
113.0900050176
 10
122.8275924858
 20
113.0711090775
  0
LWPOLYLINE
  5
22F
100
AcDbEntity
  8
ASSI
100
AcDbPolyline
 62
253
  6
CONTINUOUS
 90
10
 70
0
 10
122.648284841
 20
113.2910307894
 10
122.6505997356
 20
113.2633456998
 10
122.6576204196
 20
113.2357958828
 10
122.6692806715
 20
113.2087635057
 10
122.6854702211
 20
113.1825041893
 10
122.7060359834
 20
113.1572662195
 10
122.7307835015
 20
113.1332882263
 10
122.7594787756
 20
113.1107969344
 10
122.791850469
 20
113.0900050176
 10
122.8275924858
 20
113.0711090775
  0
LWPOLYLINE
  5
230
100
AcDbEntity
  8
ASSI
100
AcDbPolyline
 62
253
  6
CONTINUOUS
 90
12
 70
0
 10
123.0827544149
 20
95.5755080271
 10
123.0866818841
 20
95.5097151009
 10
123.0940533805
 20
95.4472115754
 10
123.1048285929
 20
95.388306246
 10
123.1189416086
 20
95.3332973348
 10
123.1363238375
 20
95.2824501979
 10
123.1569068253
 20
95.2359989456
 10
123.1805815685
 20
95.1941762791
 10
123.2072257425
 20
95.157196434
 10
123.2367284546
 20
95.1252351116
 10
123.2689315589
 20
95.0984581283
 10
123.3030368038
 20
95.077393463
  0
LWPOLYLINE
  5
231
100
AcDbEntity
  8
0
100
AcDbPolyline
 62
253
  6
CONTINUOUS
 90
12
 70
0
 10
123.0827544149
 20
95.5755080271
 10
123.0866818841
 20
95.5097151009
 10
123.0940533805
 20
95.4472115754
 10
123.1048285929
 20
95.388306246
 10
123.1189416086
 20
95.3332973348
 10
123.1363238375
 20
95.2824501979
 10
123.1569068253
 20
95.2359989456
 10
123.1805815685
 20
95.1941762791
 10
123.2072257425
 20
95.157196434
 10
123.2367284546
 20
95.1252351116
 10
123.2689315589
 20
95.0984581283
 10
123.3030368038
 20
95.077393463
  0
LWPOLYLINE
  5
232
100
AcDbEntity
  8
ASSI
100
AcDbPolyline
 62
7
  6
CONTINUOUS
 90
14
 70
0
 10
122.8962994366
 20
95.8011588225
 10
122.897314974
 20
95.7757958001
 10
122.9051848153
 20
95.6861801939
 10
122.9193144445
 20
95.6021524867
 10
122.9393927177
 20
95.5235900231
 10
122.965199606
 20
95.4501899096
 10
122.9965603229
 20
95.3818424874
 10
123.0331487622
 20
95.3187623241
 10
123.0746809257
 20
95.261027308
 10
123.1208788272
 20
95.208756704
 10
123.1711955642
 20
95.1623288253
 10
123.2251291595
 20
95.1219315564
 10
123.2823370643
 20
95.0876215011
 10
123.3168869252
 20
95.0705499194
  0
LWPOLYLINE
  5
233
100
AcDbEntity
  8
0
100
AcDbPolyline
 62
7
  6
CONTINUOUS
 90
14
 70
0
 10
122.8962994366
 20
95.8011588225
 10
122.897314974
 20
95.7757958001
 10
122.9051848153
 20
95.6861801939
 10
122.9193144445
 20
95.6021524867
 10
122.9393927177
 20
95.5235900231
 10
122.965199606
 20
95.4501899096
 10
122.9965603229
 20
95.3818424874
 10
123.0331487622
 20
95.3187623241
 10
123.0746809257
 20
95.261027308
 10
123.1208788272
 20
95.208756704
 10
123.1711955642
 20
95.1623288253
 10
123.2251291595
 20
95.1219315564
 10
123.2823370643
 20
95.0876215011
 10
123.3168869252
 20
95.0705499194
  0
LWPOLYLINE
  5
234
100
AcDbEntity
  8
0
100
AcDbPolyline
 62
253
  6
CONTINUOUS
 90
9
 70
0
 10
122.8275924858
 20
113.0711090775
 10
122.8289938972
 20
113.0290781466
 10
122.8343070814
 20
112.990597855
 10
122.8430845839
 20
112.9555993445
 10
122.8548646193
 20
112.9240822187
 10
122.8698089302
 20
112.8962595577
 10
122.8881815817
 20
112.8725771906
 10
122.9091719337
 20
112.8536088656
 10
122.9322045892
 20
112.8396186762
  0
LWPOLYLINE
  5
235
100
AcDbEntity
  8
ASSI
100
AcDbPolyline
 62
253
  6
CONTINUOUS
 90
9
 70
0
 10
122.8275924858
 20
113.0711090775
 10
122.8289938972
 20
113.0290781466
 10
122.8343070814
 20
112.990597855
 10
122.8430845839
 20
112.9555993445
 10
122.8548646193
 20
112.9240822187
 10
122.8698089302
 20
112.8962595577
 10
122.8881815817
 20
112.8725771906
 10
122.9091719337
 20
112.8536088656
 10
122.9322045892
 20
112.8396186762
  0
LWPOLYLINE
  5
236
100
AcDbEntity
  8
ASSI
100
AcDbPolyline
 62
7
  6
CONTINUOUS
 90
10
 70
0
 10
122.6482847883
 20
112.0801765452
 10
122.6528072583
 20
110.3036250929
 10
122.6631855228
 20
108.4659792359
 10
122.6793568811
 20
106.6332518761
 10
122.7013219428
 20
104.8054825615
 10
122.7290808575
 20
102.9827083829
 10
122.7626337666
 20
101.1649654365
 10
122.8019801293
 20
99.3522949617
 10
122.84711878
 20
97.5447428845
 10
122.8962876506
 20
95.8013419204
  0
LWPOLYLINE
  5
237
100
AcDbEntity
  8
0
100
AcDbPolyline
 62
7
  6
CONTINUOUS
 90
10
 70
0
 10
122.6482847883
 20
112.0801765452
 10
122.6528072583
 20
110.3036250929
 10
122.6631855228
 20
108.4659792359
 10
122.6793568811
 20
106.6332518761
 10
122.7013219428
 20
104.8054825615
 10
122.7290808575
 20
102.9827083829
 10
122.7626337666
 20
101.1649654365
 10
122.8019801293
 20
99.3522949617
 10
122.84711878
 20
97.5447428845
 10
122.8962876506
 20
95.8013419204
  0
LWPOLYLINE
  5
238
100
AcDbEntity
  8
ASSI
100
AcDbPolyline
 62
253
  6
CONTINUOUS
 90
10
 70
0
 10
122.8275926544
 20
111.860040755
 10
122.8318866055
 20
110.1710002443
 10
122.8413566634
 20
108.4610679995
 10
122.8562315512
 20
106.7304662399
 10
122.876571537
 20
104.9925916206
 10
122.902699195
 20
103.2344371258
 10
122.9356182982
 20
101.4169480505
 10
122.9762634843
 20
99.5276487305
 10
123.0250815685
 20
97.5802876215
 10
123.0827544089
 20
95.5755080161
  0
LWPOLYLINE
  5
239
100
AcDbEntity
  8
0
100
AcDbPolyline
 62
253
  6
CONTINUOUS
 90
10
 70
0
 10
122.8275926544
 20
111.860040755
 10
122.8318866055
 20
110.1710002443
 10
122.8413566634
 20
108.4610679995
 10
122.8562315512
 20
106.7304662399
 10
122.876571537
 20
104.9925916206
 10
122.902699195
 20
103.2344371258
 10
122.9356182982
 20
101.4169480505
 10
122.9762634843
 20
99.5276487305
 10
123.0250815685
 20
97.5802876215
 10
123.0827544089
 20
95.5755080161
  0
LWPOLYLINE
  5
23A
100
AcDbEntity
  8
0
100
AcDbPolyline
 62
7
  6
CONTINUOUS
 90
10
 70
0
 10
122.8962664094
 20
129.9985799016
 10
122.8472452162
 20
128.1757541705
 10
122.8020942406
 20
126.2901541178
 10
122.7627345216
 20
124.4094516869
 10
122.7291672489
 20
122.5336929173
 10
122.7013929677
 20
120.6629177502
 10
122.6794119993
 20
118.7971638024
 10
122.6632244605
 20
116.9364691018
 10
122.6528294337
 20
115.0808726728
 10
122.648284841
 20
113.2910307894
  0
LWPOLYLINE
  5
23B
100
AcDbEntity
  8
ASSI
100
AcDbPolyline
 62
7
  6
CONTINUOUS
 90
10
 70
0
 10
122.8962664094
 20
129.9985799016
 10
122.8472452162
 20
128.1757541705
 10
122.8020942406
 20
126.2901541178
 10
122.7627345216
 20
124.4094516869
 10
122.7291672489
 20
122.5336929173
 10
122.7013929677
 20
120.6629177502
 10
122.6794119993
 20
118.7971638024
 10
122.6632244605
 20
116.9364691018
 10
122.6528294337
 20
115.0808726728
 10
122.648284841
 20
113.2910307894
  0
LWPOLYLINE
  5
23C
100
AcDbEntity
  8
0
100
AcDbPolyline
 62
253
  6
CONTINUOUS
 90
10
 70
0
 10
123.0827544104
 20
129.7788207036
 10
123.0292237943
 20
127.8383775863
 10
122.9827132196
 20
125.9349192018
 10
122.9429139919
 20
124.0682499361
 10
122.9098735429
 20
122.2591246761
 10
122.8828140526
 20
120.4862959539
 10
122.8607727974
 20
118.6870182164
 10
122.8438805141
 20
116.8407590689
 10
122.8327205345
 20
114.9686950014
 10
122.8275926455
 20
113.0711089997
  0
LWPOLYLINE
  5
23D
100
AcDbEntity
  8
ASSI
100
AcDbPolyline
 62
253
  6
CONTINUOUS
 90
10
 70
0
 10
123.0827544104
 20
129.7788207036
 10
123.0292237943
 20
127.8383775863
 10
122.9827132196
 20
125.9349192018
 10
122.9429139919
 20
124.0682499361
 10
122.9098735429
 20
122.2591246761
 10
122.8828140526
 20
120.4862959539
 10
122.8607727974
 20
118.6870182164
 10
122.8438805141
 20
116.8407590689
 10
122.8327205345
 20
114.9686950014
 10
122.8275926455
 20
113.0711089997
  0
LWPOLYLINE
  5
23E
100
AcDbEntity
  8
ASSI
100
AcDbPolyline
 62
253
  6
CONTINUOUS
 90
16
 70
0
 10
122.827592432
 20
111.8600407917
 10
122.828993866
 20
111.9048187195
 10
122.8343074397
 20
111.9503001276
 10
122.8430855673
 20
111.9966089336
 10
122.8548662842
 20
112.0442721119
 10
122.8698112981
 20
112.0929771869
 10
122.8881847157
 20
112.1413318569
 10
122.9091757147
 20
112.1887809449
 10
122.9324540629
 20
112.2353502946
 10
122.958513331
 20
112.2801695647
 10
122.98659733
 20
112.3227051587
 10
123.0159997216
 20
112.362735426
 10
123.0472480983
 20
112.3996553546
 10
123.0800267987
 20
112.4329978983
 10
123.1131307475
 20
112.46257714
 10
123.1457818558
 20
112.4882014461
  0
LWPOLYLINE
  5
23F
100
AcDbEntity
  8
0
100
AcDbPolyline
 62
253
  6
CONTINUOUS
 90
16
 70
0
 10
122.827592432
 20
111.8600407917
 10
122.828993866
 20
111.9048187195
 10
122.8343074397
 20
111.9503001276
 10
122.8430855673
 20
111.9966089336
 10
122.8548662842
 20
112.0442721119
 10
122.8698112981
 20
112.0929771869
 10
122.8881847157
 20
112.1413318569
 10
122.9091757147
 20
112.1887809449
 10
122.9324540629
 20
112.2353502946
 10
122.958513331
 20
112.2801695647
 10
122.98659733
 20
112.3227051587
 10
123.0159997216
 20
112.362735426
 10
123.0472480983
 20
112.3996553546
 10
123.0800267987
 20
112.4329978983
 10
123.1131307475
 20
112.46257714
 10
123.1457818558
 20
112.4882014461
  0
LINE
  5
240
100
AcDbEntity
  8
0
100
AcDbLine
 62
7
  6
CONTINUOUS
 10
140.1227025482
 20
126.5477269829
 11
139.4867976312
 21
126.3515598988
  0
LINE
  5
241
100
AcDbEntity
  8
ASSI
100
AcDbLine
 62
7
  6
CONTINUOUS
 10
140.1227025482
 20
126.5477269829
 11
139.4867976312
 21
126.3515598988
  0
LWPOLYLINE
  5
242
100
AcDbEntity
  8
ASSI
100
AcDbPolyline
 62
253
  6
CONTINUOUS
 90
16
 70
0
 10
158.3536369702
 20
81.4099263924
 10
158.3969665394
 20
81.3967650621
 10
158.4423818813
 20
81.3862790472
 10
158.4894426527
 20
81.3785700192
 10
158.5376925564
 20
81.3737127241
 10
158.5866637653
 20
81.3717542581
 10
158.6358814587
 20
81.37271361
 10
158.6848684261
 20
81.3765814782
 10
158.7331496941
 20
81.3833203602
 10
158.7802571314
 20
81.3928649163
 10
158.8257339885
 20
81.4051226033
 10
158.8691393256
 20
81.4199745717
 10
158.9100522882
 20
81.4372768181
 10
158.9480761876
 20
81.4568615815
 10
158.9828423475
 20
81.4785389695
 10
159.0140136779
 20
81.5020988001
  0
LWPOLYLINE
  5
243
100
AcDbEntity
  8
0
100
AcDbPolyline
 62
253
  6
CONTINUOUS
 90
16
 70
0
 10
158.3536369702
 20
81.4099263924
 10
158.3969665394
 20
81.3967650621
 10
158.4423818813
 20
81.3862790472
 10
158.4894426527
 20
81.3785700192
 10
158.5376925564
 20
81.3737127241
 10
158.5866637653
 20
81.3717542581
 10
158.6358814587
 20
81.37271361
 10
158.6848684261
 20
81.3765814782
 10
158.7331496941
 20
81.3833203602
 10
158.7802571314
 20
81.3928649163
 10
158.8257339885
 20
81.4051226033
 10
158.8691393256
 20
81.4199745717
 10
158.9100522882
 20
81.4372768181
 10
158.9480761876
 20
81.4568615815
 10
158.9828423475
 20
81.4785389695
 10
159.0140136779
 20
81.5020988001
  0
LWPOLYLINE
  5
244
100
AcDbEntity
  8
ASSI
100
AcDbPolyline
 62
7
  6
CONTINUOUS
 90
12
 70
0
 10
158.5986612909
 20
80.9005152351
 10
158.6309764531
 20
80.890072085
 10
158.6986643876
 20
80.8738484107
 10
158.7684392001
 20
80.8645976235
 10
158.8397764408
 20
80.862532039
 10
158.9125071259
 20
80.8678676375
 10
158.9861909267
 20
80.8808528289
 10
159.060147567
 20
80.9016090426
 10
159.1341662831
 20
80.9303299843
 10
159.2080847119
 20
80.967292744
 10
159.2815069209
 20
81.0126350658
 10
159.2951693009
 20
81.0220656607
  0
LWPOLYLINE
  5
245
100
AcDbEntity
  8
0
100
AcDbPolyline
 62
7
  6
CONTINUOUS
 90
12
 70
0
 10
158.5986612909
 20
80.9005152351
 10
158.6309764531
 20
80.890072085
 10
158.6986643876
 20
80.8738484107
 10
158.7684392001
 20
80.8645976235
 10
158.8397764408
 20
80.862532039
 10
158.9125071259
 20
80.8678676375
 10
158.9861909267
 20
80.8808528289
 10
159.060147567
 20
80.9016090426
 10
159.1341662831
 20
80.9303299843
 10
159.2080847119
 20
80.967292744
 10
159.2815069209
 20
81.0126350658
 10
159.2951693009
 20
81.0220656607
  0
LINE
  5
246
100
AcDbEntity
  8
0
100
AcDbLine
 62
7
  6
CONTINUOUS
 10
127.2680909326
 20
131.2476940556
 11
127.268759845
 21
131.2585993229
  0
LINE
  5
247
100
AcDbEntity
  8
ASSI
100
AcDbLine
 62
7
  6
CONTINUOUS
 10
127.2680909326
 20
131.2476940556
 11
127.268759845
 21
131.2585993229
  0
LINE
  5
248
100
AcDbEntity
  8
0
100
AcDbLine
 62
7
  6
CONTINUOUS
 10
127.3299121006
 20
131.6856000334
 11
127.268759845
 21
131.2585993229
  0
LINE
  5
249
100
AcDbEntity
  8
ASSI
100
AcDbLine
 62
7
  6
CONTINUOUS
 10
127.3299121006
 20
131.6856000334
 11
127.268759845
 21
131.2585993229
  0
LWPOLYLINE
  5
24A
100
AcDbEntity
  8
ASSI
100
AcDbPolyline
 62
7
  6
CONTINUOUS
 90
10
 70
0
 10
122.8180113608
 20
112.4560837196
 10
122.7939780912
 20
112.4334898194
 10
122.7612277561
 20
112.3972144551
 10
122.7321992725
 20
112.3579510056
 10
122.7072358161
 20
112.3162245753
 10
122.6864453674
 20
112.2722754941
 10
122.6699357544
 20
112.2262330205
 10
122.6579393906
 20
112.1784739534
 10
122.650683351
 20
112.1296074996
 10
122.6482847881
 20
112.080176543
  0
LWPOLYLINE
  5
24B
100
AcDbEntity
  8
0
100
AcDbPolyline
 62
7
  6
CONTINUOUS
 90
10
 70
0
 10
122.8180113608
 20
112.4560837196
 10
122.7939780912
 20
112.4334898194
 10
122.7612277561
 20
112.3972144551
 10
122.7321992725
 20
112.3579510056
 10
122.7072358161
 20
112.3162245753
 10
122.6864453674
 20
112.2722754941
 10
122.6699357544
 20
112.2262330205
 10
122.6579393906
 20
112.1784739534
 10
122.650683351
 20
112.1296074996
 10
122.6482847881
 20
112.080176543
  0
LINE
  5
24C
100
AcDbEntity
  8
ASSI
100
AcDbLine
 62
7
  6
CONTINUOUS
 10
122.8180706852
 20
112.4561359151
 11
123.1416454055
 21
112.7407285942
  0
LINE
  5
24D
100
AcDbEntity
  8
0
100
AcDbLine
 62
7
  6
CONTINUOUS
 10
122.8180706852
 20
112.4561359151
 11
123.1416454055
 21
112.7407285942
  0
LINE
  5
24E
100
AcDbEntity
  8
ASSI
100
AcDbLine
 62
253
  6
CONTINUOUS
 10
123.1457818828
 20
112.4882014693
 11
123.3311611508
 21
112.6512475271
  0
LINE
  5
24F
100
AcDbEntity
  8
0
100
AcDbLine
 62
253
  6
CONTINUOUS
 10
123.1457818828
 20
112.4882014693
 11
123.3311611508
 21
112.6512475271
  0
LWPOLYLINE
  5
250
100
AcDbEntity
  8
ASSI
100
AcDbPolyline
 62
253
  6
CONTINUOUS
 90
10
 70
0
 10
122.8180700491
 20
112.4561353556
 10
122.8362557519
 20
112.4705708217
 10
122.8669207404
 20
112.4891240322
 10
122.9006870294
 20
112.5031924276
 10
122.9371922706
 20
112.5126188363
 10
122.976031228
 20
112.5172928766
 10
123.0167668021
 20
112.5171598815
 10
123.0589466576
 20
112.5122219422
 10
123.1021100588
 20
112.5025335899
 10
123.1457818562
 20
112.4882014459
  0
LWPOLYLINE
  5
251
100
AcDbEntity
  8
0
100
AcDbPolyline
 62
253
  6
CONTINUOUS
 90
10
 70
0
 10
122.8180700491
 20
112.4561353556
 10
122.8362557519
 20
112.4705708217
 10
122.8669207404
 20
112.4891240322
 10
122.9006870294
 20
112.5031924276
 10
122.9371922706
 20
112.5126188363
 10
122.976031228
 20
112.5172928766
 10
123.0167668021
 20
112.5171598815
 10
123.0589466576
 20
112.5122219422
 10
123.1021100588
 20
112.5025335899
 10
123.1457818562
 20
112.4882014459
  0
LWPOLYLINE
  5
252
100
AcDbEntity
  8
0
100
AcDbPolyline
 62
253
  6
CONTINUOUS
 90
79
 70
0
 10
127.8294335435
 20
118.6124557199
 10
127.8218722889
 20
118.6077663314
 10
127.8146676545
 20
118.6026688436
 10
127.8078097589
 20
118.5971744366
 10
127.8012887204
 20
118.5912942904
 10
127.7950946576
 20
118.5850395848
 10
127.7892176889
 20
118.5784214999
 10
127.7836504839
 20
118.5714497835
 10
127.7783959164
 20
118.564128455
 10
127.7734594116
 20
118.5564601016
 10
127.7688463945
 20
118.5484473106
 10
127.76456229
 20
118.5400926692
 10
127.7606125233
 20
118.5313987648
 10
127.7570036594
 20
118.5223687223
 10
127.7537468243
 20
118.5130078183
 10
127.7508542839
 20
118.503321867
 10
127.7483391186
 20
118.4933106643
 10
127.7462176668
 20
118.4829499321
 10
127.7445070814
 20
118.472209374
 10
127.7432259515
 20
118.4610707646
 10
127.7423986105
 20
118.4495641635
 10
127.7420508282
 20
118.4377317011
 10
127.742205366
 20
118.4256084647
 10
127.7428729532
 20
118.4132013675
 10
127.744061311
 20
118.4005102793
 10
127.7457756
 20
118.3875435356
 10
127.7480107387
 20
118.3743433355
 10
127.7507590854
 20
118.3609603441
 10
127.754012998
 20
118.3474452262
 10
127.7577648348
 20
118.3338486467
 10
127.7620069538
 20
118.3202212707
 10
127.7667297526
 20
118.3066108674
 10
127.7719157864
 20
118.2930536238
 10
127.7775456499
 20
118.2795828314
 10
127.7835999379
 20
118.2662317815
 10
127.7900592452
 20
118.2530337656
 10
127.7969041664
 20
118.2400220751
 10
127.804119486
 20
118.2272237025
 10
127.8117067472
 20
118.214640444
 10
127.819671683
 20
118.2022677972
 10
127.8280200263
 20
118.1901012595
 10
127.8367575103
 20
118.1781363284
 10
127.8458898677
 20
118.1663685013
 10
127.8554160172
 20
118.1548009336
 10
127.8653076191
 20
118.1434674129
 10
127.8755295196
 20
118.1324093846
 10
127.8860465646
 20
118.1216682943
 10
127.8968236002
 20
118.1112855876
 10
127.9078254724
 20
118.1013027098
 10
127.9190158463
 20
118.0917576448
 10
127.9303536634
 20
118.082674529
 10
127.9417966845
 20
118.0740740372
 10
127.9533026703
 20
118.065976844
 10
127.9648293814
 20
118.0584036241
 10
127.9763345786
 20
118.0513750523
 10
127.987783595
 20
118.0449064625
 10
127.9991720538
 20
118.0389918253
 10
128.0105031506
 20
118.0336197707
 10
128.0217729763
 20
118.0287799116
 10
128.0329492018
 20
118.0244657935
 10
128.0439923932
 20
118.0206719448
 10
128.0548723762
 20
118.0173898984
 10
128.0655960139
 20
118.0145992052
 10
128.0761794289
 20
118.0122764207
 10
128.0866353863
 20
118.0104011519
 10
128.0969632211
 20
118.0089652132
 10
128.107158911
 20
118.0079634707
 10
128.1172173898
 20
118.0073914332
 10
128.1271294158
 20
118.0072471803
 10
128.1368847036
 20
118.0075294345
 10
128.1464729678
 20
118.0082369181
 10
128.155883923
 20
118.0093683536
 10
128.1651072837
 20
118.0109224633
 10
128.174133484
 20
118.0129006165
 10
128.1829558352
 20
118.0153147693
 10
128.1915683685
 20
118.0181795248
 10
128.1999651148
 20
118.0215094859
 10
128.2081401049
 20
118.0253192557
 10
128.2160873699
 20
118.0296234372
  0
LWPOLYLINE
  5
253
100
AcDbEntity
  8
0
100
AcDbPolyline
 62
253
  6
CONTINUOUS
 90
16
 70
0
 10
128.2160873699
 20
118.0296234372
 10
128.3981541912
 20
118.1337341108
 10
128.582229821
 20
118.235266416
 10
128.7683276962
 20
118.3342362157
 10
128.9564612535
 20
118.4306593727
 10
129.1466439296
 20
118.5245517499
 10
129.3388798158
 20
118.6159238378
 10
129.5331356222
 20
118.7047646375
 10
129.7293687133
 20
118.7910577775
 10
129.9275364535
 20
118.8747868866
 10
130.1275962075
 20
118.9559355934
 10
130.3295157013
 20
119.0344908418
 10
130.5333041065
 20
119.1104528369
 10
130.7389809561
 20
119.1838250986
 10
130.9465657833
 20
119.2546111472
 10
131.1560781211
 20
119.3228145029
  0
LWPOLYLINE
  5
254
100
AcDbEntity
  8
0
100
AcDbPolyline
 62
253
  6
CONTINUOUS
 90
16
 70
0
 10
130.908860923
 20
119.955746037
 10
130.6891610671
 20
119.8855203294
 10
130.4715076073
 20
119.8125222248
 10
130.2558751009
 20
119.7367449784
 10
130.0422381054
 20
119.6581818453
 10
129.830571178
 20
119.5768260809
 10
129.6208633568
 20
119.4926760976
 10
129.4131616032
 20
119.4057509373
 10
129.207527359
 20
119.3160747992
 10
129.0040220664
 20
119.2236718826
 10
128.8027071674
 20
119.1285663865
 10
128.6036304601
 20
119.0307753785
 10
128.4067851662
 20
118.930287399
 10
128.2121508636
 20
118.8270838569
 10
128.0197071301
 20
118.721146161
 10
127.8294335435
 20
118.6124557199
  0
LWPOLYLINE
  5
255
100
AcDbEntity
  8
0
100
AcDbPolyline
 62
253
  6
CONTINUOUS
 90
46
 70
0
 10
131.1560781211
 20
119.3228145029
 10
131.158922231
 20
119.3236467218
 10
131.1617742785
 20
119.3243827379
 10
131.164638647
 20
119.3250225602
 10
131.1675197198
 20
119.3255661981
 10
131.1704218804
 20
119.3260136605
 10
131.1733495122
 20
119.3263649567
 10
131.1763059746
 20
119.326620107
 10
131.1792905318
 20
119.3267791768
 10
131.1823014242
 20
119.3268422424
 10
131.185336892
 20
119.3268093803
 10
131.1883951757
 20
119.3266806671
 10
131.1914745154
 20
119.3264561793
 10
131.1945729927
 20
119.3261362825
 10
131.1976880534
 20
119.3257225002
 10
131.2008169844
 20
119.3252166449
 10
131.2039570728
 20
119.3246205292
 10
131.2071056054
 20
119.3239359659
 10
131.2102598693
 20
119.3231647674
 10
131.2134172852
 20
119.3223086395
 10
131.2165758087
 20
119.3213688605
 10
131.2197335291
 20
119.3203466016
 10
131.2228885359
 20
119.3192430342
 10
131.2260389184
 20
119.3180593296
 10
131.2291827661
 20
119.316796659
 10
131.2329442298
 20
119.315178739
 10
131.2366912073
 20
119.3134500412
 10
131.2404213735
 20
119.3116118119
 10
131.2441324039
 20
119.3096652977
 10
131.2478219735
 20
119.3076117449
 10
131.2514874723
 20
119.3054526514
 10
131.2551251493
 20
119.3031905206
 10
131.258730968
 20
119.3008281075
 10
131.2623008922
 20
119.2983681671
 10
131.2658308855
 20
119.2958134542
 10
131.2693172865
 20
119.2931669004
 10
131.2727579329
 20
119.2904321435
 10
131.2761510375
 20
119.2876129981
 10
131.279494813
 20
119.2847132785
 10
131.2827874721
 20
119.2817367993
 10
131.2854918087
 20
119.2791993183
 10
131.2881631155
 20
119.2766062014
 10
131.2908051015
 20
119.2739524691
 10
131.2934214756
 20
119.2712331419
 10
131.2960159468
 20
119.2684432403
 10
131.298592224
 20
119.2655777848
  0
LWPOLYLINE
  5
256
100
AcDbEntity
  8
0
100
AcDbPolyline
 62
253
  6
CONTINUOUS
 90
46
 70
0
 10
149.4834850051
 20
91.2132091109
 10
149.4807237335
 20
91.2124447492
 10
149.4779506105
 20
91.2117733842
 10
149.4751613262
 20
91.2111950672
 10
149.4723515707
 20
91.2107098492
 10
149.4695170342
 20
91.2103177811
 10
149.4666534068
 20
91.2100189142
 10
149.4637573863
 20
91.209813275
 10
149.4608297005
 20
91.2097007916
 10
149.4578720849
 20
91.2096813678
 10
149.4548862749
 20
91.2097549072
 10
149.4518740061
 20
91.2099213135
 10
149.4488370138
 20
91.2101804904
 10
149.445777202
 20
91.21053206
 10
149.4426971482
 20
91.2109745183
 10
149.4395995984
 20
91.2115060796
 10
149.4364872986
 20
91.2121249583
 10
149.4333629947
 20
91.2128293687
 10
149.4302294327
 20
91.2136175252
 10
149.4270892223
 20
91.2144877469
 10
149.4239444277
 20
91.215438772
 10
149.4207969768
 20
91.2164694432
 10
149.4176487976
 20
91.2175786034
 10
149.4145018179
 20
91.2187650955
 10
149.4113579657
 20
91.2200277623
 10
149.40759202
 20
91.221642011
 10
149.4038356903
 20
91.2233630479
 10
149.4000913131
 20
91.2251896362
 10
149.3963612246
 20
91.2271205389
 10
149.3926477613
 20
91.2291545191
 10
149.3889535501
 20
91.2312900929
 10
149.3852823814
 20
91.2335247888
 10
149.381638336
 20
91.2358558884
 10
149.3780254949
 20
91.2382806734
 10
149.374447939
 20
91.2407964253
 10
149.3709093884
 20
91.2434002606
 10
149.3674121194
 20
91.2460886349
 10
149.3639580473
 20
91.2488578387
 10
149.3605490876
 20
91.2517041626
 10
149.3571871557
 20
91.2546238969
 10
149.354422024
 20
91.2571115773
 10
149.3516870226
 20
91.2596525187
 10
149.3489782936
 20
91.2622515784
 10
149.3462919792
 20
91.2649136139
 10
149.3436242212
 20
91.2676434825
 10
149.3409711619
 20
91.2704460417
  0
LINE
  5
257
100
AcDbEntity
  8
ASSI
100
AcDbLine
 62
253
  6
CONTINUOUS
 10
141.0814204767
 20
88.499274475
 11
141.0558649549
 21
88.4958838393
  0
LINE
  5
258
100
AcDbEntity
  8
0
100
AcDbLine
 62
253
  6
CONTINUOUS
 10
141.0814204767
 20
88.499274475
 11
141.0558649549
 21
88.4958838393
  0
LWPOLYLINE
  5
259
100
AcDbEntity
  8
ASSI
100
AcDbPolyline
 62
253
  6
CONTINUOUS
 90
4
 70
0
 10
141.0558649549
 20
88.4958838393
 10
141.0302103773
 20
88.4956577089
 10
141.0054977396
 20
88.4986802215
 10
140.9820926283
 20
88.5049062996
  0
LWPOLYLINE
  5
25A
100
AcDbEntity
  8
0
100
AcDbPolyline
 62
253
  6
CONTINUOUS
 90
4
 70
0
 10
141.0558649549
 20
88.4958838393
 10
141.0302103773
 20
88.4956577089
 10
141.0054977396
 20
88.4986802215
 10
140.9820926283
 20
88.5049062996
  0
LWPOLYLINE
  5
25B
100
AcDbEntity
  8
ASSI
100
AcDbPolyline
 62
253
  6
CONTINUOUS
 90
16
 70
0
 10
140.168461587
 20
88.7135028015
 10
140.2117911562
 20
88.7003414712
 10
140.2572064981
 20
88.6898554562
 10
140.3042672695
 20
88.6821464282
 10
140.3525171732
 20
88.6772891332
 10
140.401488382
 20
88.6753306671
 10
140.4507060755
 20
88.6762900191
 10
140.4996930429
 20
88.6801578873
 10
140.5479743109
 20
88.6868967693
 10
140.5950817482
 20
88.6964413254
 10
140.6405586053
 20
88.7086990124
 10
140.6839639424
 20
88.7235509808
 10
140.7248769049
 20
88.7408532272
 10
140.7629008044
 20
88.7604379906
 10
140.7976669642
 20
88.7821153786
 10
140.8288382947
 20
88.8056752092
  0
LWPOLYLINE
  5
25C
100
AcDbEntity
  8
0
100
AcDbPolyline
 62
253
  6
CONTINUOUS
 90
16
 70
0
 10
140.168461587
 20
88.7135028015
 10
140.2117911562
 20
88.7003414712
 10
140.2572064981
 20
88.6898554562
 10
140.3042672695
 20
88.6821464282
 10
140.3525171732
 20
88.6772891332
 10
140.401488382
 20
88.6753306671
 10
140.4507060755
 20
88.6762900191
 10
140.4996930429
 20
88.6801578873
 10
140.5479743109
 20
88.6868967693
 10
140.5950817482
 20
88.6964413254
 10
140.6405586053
 20
88.7086990124
 10
140.6839639424
 20
88.7235509808
 10
140.7248769049
 20
88.7408532272
 10
140.7629008044
 20
88.7604379906
 10
140.7976669642
 20
88.7821153786
 10
140.8288382947
 20
88.8056752092
  0
LWPOLYLINE
  5
25D
100
AcDbEntity
  8
ASSI
100
AcDbPolyline
 62
7
  6
CONTINUOUS
 90
12
 70
0
 10
140.4134859077
 20
88.2040916442
 10
140.4458010699
 20
88.1936484941
 10
140.5134890044
 20
88.1774248198
 10
140.5832638169
 20
88.1681740325
 10
140.6546010576
 20
88.1661084481
 10
140.7273317427
 20
88.1714440466
 10
140.8010155435
 20
88.184429238
 10
140.8749721837
 20
88.2051854517
 10
140.9489908999
 20
88.2339063934
 10
141.0229093286
 20
88.270869153
 10
141.0963315377
 20
88.3162114748
 10
141.1009843095
 20
88.3194230973
  0
LWPOLYLINE
  5
25E
100
AcDbEntity
  8
0
100
AcDbPolyline
 62
7
  6
CONTINUOUS
 90
12
 70
0
 10
140.4134859077
 20
88.2040916442
 10
140.4458010699
 20
88.1936484941
 10
140.5134890044
 20
88.1774248198
 10
140.5832638169
 20
88.1681740325
 10
140.6546010576
 20
88.1661084481
 10
140.7273317427
 20
88.1714440466
 10
140.8010155435
 20
88.184429238
 10
140.8749721837
 20
88.2051854517
 10
140.9489908999
 20
88.2339063934
 10
141.0229093286
 20
88.270869153
 10
141.0963315377
 20
88.3162114748
 10
141.1009843095
 20
88.3194230973
  0
LWPOLYLINE
  5
25F
100
AcDbEntity
  8
ASSI
100
AcDbPolyline
 62
253
  6
CONTINUOUS
 90
13
 70
0
 10
140.9820926283
 20
88.5049062996
 10
140.9600144885
 20
88.5143851318
 10
140.9392438752
 20
88.5270675295
 10
140.9200880391
 20
88.5427608497
 10
140.9025727474
 20
88.5615093762
 10
140.8866722329
 20
88.5832688251
 10
140.8726164453
 20
88.6077137019
 10
140.8604317598
 20
88.6349003511
 10
140.8500918012
 20
88.6647724281
 10
140.8417473931
 20
88.6968354052
 10
140.8354488099
 20
88.7309244398
 10
140.8311457771
 20
88.7672043744
 10
140.8288382947
 20
88.8056752092
  0
LWPOLYLINE
  5
260
100
AcDbEntity
  8
0
100
AcDbPolyline
 62
253
  6
CONTINUOUS
 90
13
 70
0
 10
140.9820926283
 20
88.5049062996
 10
140.9600144885
 20
88.5143851318
 10
140.9392438752
 20
88.5270675295
 10
140.9200880391
 20
88.5427608497
 10
140.9025727474
 20
88.5615093762
 10
140.8866722329
 20
88.5832688251
 10
140.8726164453
 20
88.6077137019
 10
140.8604317598
 20
88.6349003511
 10
140.8500918012
 20
88.6647724281
 10
140.8417473931
 20
88.6968354052
 10
140.8354488099
 20
88.7309244398
 10
140.8311457771
 20
88.7672043744
 10
140.8288382947
 20
88.8056752092
  0
LWPOLYLINE
  5
261
100
AcDbEntity
  8
ASSI
100
AcDbPolyline
 62
253
  6
CONTINUOUS
 90
13
 70
0
 10
140.4134790869
 20
88.2040940762
 10
140.3796888226
 20
88.2188885603
 10
140.3463014948
 20
88.2398013455
 10
140.315389326
 20
88.2660598604
 10
140.2870940123
 20
88.2975362646
 10
140.2615396559
 20
88.3340784149
 10
140.2388732428
 20
88.375496114
 10
140.2192007659
 20
88.4215816863
 10
140.2026043589
 20
88.4721132217
 10
140.1891765894
 20
88.5268469229
 10
140.1789849461
 20
88.5855178742
 10
140.1720694905
 20
88.647838236
 10
140.1684615868
 20
88.7135028057
  0
LWPOLYLINE
  5
262
100
AcDbEntity
  8
0
100
AcDbPolyline
 62
253
  6
CONTINUOUS
 90
13
 70
0
 10
140.4134790869
 20
88.2040940762
 10
140.3796888226
 20
88.2188885603
 10
140.3463014948
 20
88.2398013455
 10
140.315389326
 20
88.2660598604
 10
140.2870940123
 20
88.2975362646
 10
140.2615396559
 20
88.3340784149
 10
140.2388732428
 20
88.375496114
 10
140.2192007659
 20
88.4215816863
 10
140.2026043589
 20
88.4721132217
 10
140.1891765894
 20
88.5268469229
 10
140.1789849461
 20
88.5855178742
 10
140.1720694905
 20
88.647838236
 10
140.1684615868
 20
88.7135028057
  0
LWPOLYLINE
  5
263
100
AcDbEntity
  8
ASSI
100
AcDbPolyline
 62
253
  6
CONTINUOUS
 90
13
 70
0
 10
158.5986544701
 20
80.9005176671
 10
158.5648642059
 20
80.9153121512
 10
158.531476878
 20
80.9362249365
 10
158.5005647092
 20
80.9624834513
 10
158.4722693955
 20
80.9939598555
 10
158.4467150391
 20
81.0305020058
 10
158.424048626
 20
81.0719197049
 10
158.4043761491
 20
81.1180052773
 10
158.3877797421
 20
81.1685368126
 10
158.3743519726
 20
81.2232705138
 10
158.3641603293
 20
81.2819414651
 10
158.3572448737
 20
81.3442618269
 10
158.35363697
 20
81.4099263967
  0
LWPOLYLINE
  5
264
100
AcDbEntity
  8
0
100
AcDbPolyline
 62
253
  6
CONTINUOUS
 90
13
 70
0
 10
158.5986544701
 20
80.9005176671
 10
158.5648642059
 20
80.9153121512
 10
158.531476878
 20
80.9362249365
 10
158.5005647092
 20
80.9624834513
 10
158.4722693955
 20
80.9939598555
 10
158.4467150391
 20
81.0305020058
 10
158.424048626
 20
81.0719197049
 10
158.4043761491
 20
81.1180052773
 10
158.3877797421
 20
81.1685368126
 10
158.3743519726
 20
81.2232705138
 10
158.3641603293
 20
81.2819414651
 10
158.3572448737
 20
81.3442618269
 10
158.35363697
 20
81.4099263967
  0
LWPOLYLINE
  5
265
100
AcDbEntity
  8
ASSI
100
AcDbPolyline
 62
7
  6
CONTINUOUS
 90
10
 70
0
 10
123.3163653169
 20
95.0707853138
 10
125.0597295532
 20
94.2825503118
 10
126.9197522043
 20
93.4653639501
 10
128.8010387457
 20
92.6629984373
 10
130.7031670505
 20
91.8756394533
 10
132.6257102114
 20
91.1034678107
 10
134.5682285109
 20
90.3466548315
 10
136.5302707711
 20
89.6053627805
 10
138.5113804433
 20
88.8797491976
 10
140.4143825978
 20
88.2037760304
  0
LWPOLYLINE
  5
266
100
AcDbEntity
  8
0
100
AcDbPolyline
 62
7
  6
CONTINUOUS
 90
10
 70
0
 10
123.3163653169
 20
95.0707853138
 10
125.0597295532
 20
94.2825503118
 10
126.9197522043
 20
93.4653639501
 10
128.8010387457
 20
92.6629984373
 10
130.7031670505
 20
91.8756394533
 10
132.6257102114
 20
91.1034678107
 10
134.5682285109
 20
90.3466548315
 10
136.5302707711
 20
89.6053627805
 10
138.5113804433
 20
88.8797491976
 10
140.4143825978
 20
88.2037760304
  0
LWPOLYLINE
  5
267
100
AcDbEntity
  8
ASSI
100
AcDbPolyline
 62
7
  6
CONTINUOUS
 90
10
 70
0
 10
141.5015407001
 20
87.7672089047
 10
143.2449049364
 20
86.9789739027
 10
145.1049275875
 20
86.161787541
 10
146.9862141289
 20
85.3594220282
 10
148.8883424337
 20
84.5720630442
 10
150.8108855947
 20
83.7998914016
 10
152.7534038941
 20
83.0430784224
 10
154.7154461543
 20
82.3017863714
 10
156.6965558265
 20
81.5761727885
 10
158.599557981
 20
80.9001996213
  0
LWPOLYLINE
  5
268
100
AcDbEntity
  8
0
100
AcDbPolyline
 62
7
  6
CONTINUOUS
 90
10
 70
0
 10
141.5015407001
 20
87.7672089047
 10
143.2449049364
 20
86.9789739027
 10
145.1049275875
 20
86.161787541
 10
146.9862141289
 20
85.3594220282
 10
148.8883424337
 20
84.5720630442
 10
150.8108855947
 20
83.7998914016
 10
152.7534038941
 20
83.0430784224
 10
154.7154461543
 20
82.3017863714
 10
156.6965558265
 20
81.5761727885
 10
158.599557981
 20
80.9001996213
  0
LWPOLYLINE
  5
269
100
AcDbEntity
  8
ASSI
100
AcDbPolyline
 62
253
  6
CONTINUOUS
 90
31
 70
0
 10
123.0827544089
 20
95.5755080161
 10
123.6109366312
 20
95.333331403
 10
124.1407118206
 20
95.0925373372
 10
124.6720686302
 20
94.8531284792
 10
125.2048707694
 20
94.6151630085
 10
125.7392310153
 20
94.3785873587
 10
126.2755152665
 20
94.1432392548
 10
126.8138902292
 20
93.9090483526
 10
127.3541745949
 20
93.6760962463
 10
127.8962144104
 20
93.4444501907
 10
128.4399635013
 20
93.2141297503
 10
128.9854490567
 20
92.9851233043
 10
129.5326253778
 20
92.7574499447
 10
130.0815582485
 20
92.5310823712
 10
130.6321628294
 20
92.3060557535
 10
131.1841646766
 20
92.0824806173
 10
131.7371941847
 20
91.8605015325
 10
132.2915941996
 20
91.6399754032
 10
132.8481637596
 20
91.4205852286
 10
133.4058393865
 20
91.2027506923
 10
133.9656677517
 20
90.9860617267
 10
134.531655495
 20
90.7689926655
 10
135.1028764271
 20
90.5519446674
 10
135.680310206
 20
90.3345876185
 10
136.2709176786
 20
90.1143823243
 10
136.8749900598
 20
89.8913511024
 10
137.4924186128
 20
89.6656618222
 10
138.1296830995
 20
89.4351012297
 10
138.7890705967
 20
89.1990591645
 10
139.4686116167
 20
88.9584714734
 10
140.1684615857
 20
88.7135028117
  0
LWPOLYLINE
  5
26A
100
AcDbEntity
  8
0
100
AcDbPolyline
 62
253
  6
CONTINUOUS
 90
31
 70
0
 10
123.0827544089
 20
95.5755080161
 10
123.6109366312
 20
95.333331403
 10
124.1407118206
 20
95.0925373372
 10
124.6720686302
 20
94.8531284792
 10
125.2048707694
 20
94.6151630085
 10
125.7392310153
 20
94.3785873587
 10
126.2755152665
 20
94.1432392548
 10
126.8138902292
 20
93.9090483526
 10
127.3541745949
 20
93.6760962463
 10
127.8962144104
 20
93.4444501907
 10
128.4399635013
 20
93.2141297503
 10
128.9854490567
 20
92.9851233043
 10
129.5326253778
 20
92.7574499447
 10
130.0815582485
 20
92.5310823712
 10
130.6321628294
 20
92.3060557535
 10
131.1841646766
 20
92.0824806173
 10
131.7371941847
 20
91.8605015325
 10
132.2915941996
 20
91.6399754032
 10
132.8481637596
 20
91.4205852286
 10
133.4058393865
 20
91.2027506923
 10
133.9656677517
 20
90.9860617267
 10
134.531655495
 20
90.7689926655
 10
135.1028764271
 20
90.5519446674
 10
135.680310206
 20
90.3345876185
 10
136.2709176786
 20
90.1143823243
 10
136.8749900598
 20
89.8913511024
 10
137.4924186128
 20
89.6656618222
 10
138.1296830995
 20
89.4351012297
 10
138.7890705967
 20
89.1990591645
 10
139.4686116167
 20
88.9584714734
 10
140.1684615857
 20
88.7135028117
  0
LWPOLYLINE
  5
26B
100
AcDbEntity
  8
ASSI
100
AcDbPolyline
 62
253
  6
CONTINUOUS
 90
31
 70
0
 10
141.2679297921
 20
88.2719316071
 10
141.7961120144
 20
88.0297549939
 10
142.3258872039
 20
87.7889609281
 10
142.8572440134
 20
87.5495520701
 10
143.3900461526
 20
87.3115865994
 10
143.9244063985
 20
87.0750109496
 10
144.4606906497
 20
86.8396628457
 10
144.9990656124
 20
86.6054719436
 10
145.5393499781
 20
86.3725198372
 10
146.0813897936
 20
86.1408737816
 10
146.6251388845
 20
85.9105533412
 10
147.1706244399
 20
85.6815468952
 10
147.717800761
 20
85.4538735356
 10
148.2667336317
 20
85.2275059621
 10
148.8173382126
 20
85.0024793445
 10
149.3693400598
 20
84.7789042082
 10
149.9223695679
 20
84.5569251235
 10
150.4767695828
 20
84.3363989941
 10
151.0333391428
 20
84.1170088195
 10
151.5910147698
 20
83.8991742832
 10
152.1508431349
 20
83.6824853176
 10
152.7168308783
 20
83.4654162564
 10
153.2880518103
 20
83.2483682583
 10
153.8654855892
 20
83.0310112094
 10
154.4560930618
 20
82.8108059152
 10
155.060165443
 20
82.5877746933
 10
155.6775939961
 20
82.3620854131
 10
156.3148584827
 20
82.1315248206
 10
156.9742459799
 20
81.8954827554
 10
157.653787
 20
81.6548950643
 10
158.3536369689
 20
81.4099264026
  0
LWPOLYLINE
  5
26C
100
AcDbEntity
  8
0
100
AcDbPolyline
 62
253
  6
CONTINUOUS
 90
31
 70
0
 10
141.2679297921
 20
88.2719316071
 10
141.7961120144
 20
88.0297549939
 10
142.3258872039
 20
87.7889609281
 10
142.8572440134
 20
87.5495520701
 10
143.3900461526
 20
87.3115865994
 10
143.9244063985
 20
87.0750109496
 10
144.4606906497
 20
86.8396628457
 10
144.9990656124
 20
86.6054719436
 10
145.5393499781
 20
86.3725198372
 10
146.0813897936
 20
86.1408737816
 10
146.6251388845
 20
85.9105533412
 10
147.1706244399
 20
85.6815468952
 10
147.717800761
 20
85.4538735356
 10
148.2667336317
 20
85.2275059621
 10
148.8173382126
 20
85.0024793445
 10
149.3693400598
 20
84.7789042082
 10
149.9223695679
 20
84.5569251235
 10
150.4767695828
 20
84.3363989941
 10
151.0333391428
 20
84.1170088195
 10
151.5910147698
 20
83.8991742832
 10
152.1508431349
 20
83.6824853176
 10
152.7168308783
 20
83.4654162564
 10
153.2880518103
 20
83.2483682583
 10
153.8654855892
 20
83.0310112094
 10
154.4560930618
 20
82.8108059152
 10
155.060165443
 20
82.5877746933
 10
155.6775939961
 20
82.3620854131
 10
156.3148584827
 20
82.1315248206
 10
156.9742459799
 20
81.8954827554
 10
157.653787
 20
81.6548950643
 10
158.3536369689
 20
81.4099264026
  0
LWPOLYLINE
  5
26D
100
AcDbEntity
  8
ASSI
100
AcDbPolyline
 62
253
  6
CONTINUOUS
 90
10
 70
0
 10
123.0827624317
 20
95.5755141586
 10
123.0459768441
 20
95.5945286931
 10
123.0125856679
 20
95.6156928658
 10
122.9829126545
 20
95.6388014749
 10
122.9572455054
 20
95.6636304656
 10
122.9358330821
 20
95.6899391029
 10
122.9188829934
 20
95.7174723059
 10
122.9065595829
 20
95.7459631202
 10
122.8989823347
 20
95.7751353068
 10
122.8962994366
 20
95.8011588225
  0
LWPOLYLINE
  5
26E
100
AcDbEntity
  8
0
100
AcDbPolyline
 62
253
  6
CONTINUOUS
 90
10
 70
0
 10
123.0827624317
 20
95.5755141586
 10
123.0459768441
 20
95.5945286931
 10
123.0125856679
 20
95.6156928658
 10
122.9829126545
 20
95.6388014749
 10
122.9572455054
 20
95.6636304656
 10
122.9358330821
 20
95.6899391029
 10
122.9188829934
 20
95.7174723059
 10
122.9065595829
 20
95.7459631202
 10
122.8989823347
 20
95.7751353068
 10
122.8962994366
 20
95.8011588225
  0
LWPOLYLINE
  5
26F
100
AcDbEntity
  8
ASSI
100
AcDbPolyline
 62
253
  6
CONTINUOUS
 90
10
 70
0
 10
141.2679378149
 20
88.2719377495
 10
141.2311522273
 20
88.290952284
 10
141.1977610511
 20
88.3121164567
 10
141.1680880377
 20
88.3352250658
 10
141.1424208886
 20
88.3600540565
 10
141.1210084653
 20
88.3863626939
 10
141.1040583766
 20
88.4138958968
 10
141.0917349661
 20
88.4423867111
 10
141.084157718
 20
88.4715588977
 10
141.0814748199
 20
88.4975824134
  0
LWPOLYLINE
  5
270
100
AcDbEntity
  8
0
100
AcDbPolyline
 62
253
  6
CONTINUOUS
 90
10
 70
0
 10
141.2679378149
 20
88.2719377495
 10
141.2311522273
 20
88.290952284
 10
141.1977610511
 20
88.3121164567
 10
141.1680880377
 20
88.3352250658
 10
141.1424208886
 20
88.3600540565
 10
141.1210084653
 20
88.3863626939
 10
141.1040583766
 20
88.4138958968
 10
141.0917349661
 20
88.4423867111
 10
141.084157718
 20
88.4715588977
 10
141.0814748199
 20
88.4975824134
  0
LINE
  5
271
100
AcDbEntity
  8
0
100
AcDbLine
 62
7
  6
CONTINUOUS
 10
127.3299121006
 20
131.6856000334
 11
127.3360093663
 21
131.1583133394
  0
LINE
  5
272
100
AcDbEntity
  8
ASSI
100
AcDbLine
 62
7
  6
CONTINUOUS
 10
127.3299121006
 20
131.6856000334
 11
127.3360093663
 21
131.1583133394
  0
LINE
  5
273
100
AcDbEntity
  8
0
100
AcDbLine
 62
253
  6
CONTINUOUS
 10
127.268759845
 20
131.2585993229
 11
127.2687598461
 21
131.2476940557
  0
LINE
  5
274
100
AcDbEntity
  8
ASSI
100
AcDbLine
 62
253
  6
CONTINUOUS
 10
127.268759845
 20
131.2585993229
 11
127.2687598461
 21
131.2476940557
  0
LINE
  5
275
100
AcDbEntity
  8
ASSI
100
AcDbLine
 62
7
  6
CONTINUOUS
 10
143.0090047366
 20
125.2364812727
 11
141.60538619
 21
123.9109975083
  0
LINE
  5
276
100
AcDbEntity
  8
0
100
AcDbLine
 62
7
  6
CONTINUOUS
 10
143.0090047366
 20
125.2364812727
 11
141.60538619
 21
123.9109975083
  0
LWPOLYLINE
  5
277
100
AcDbEntity
  8
SUPERFICI
100
AcDbPolyline
 62
7
  6
CONTINUOUS
 90
34
 70
0
 10
128.6792577587
 20
114.0375723352
 10
128.6757228116
 20
114.0344983215
 10
128.6426209166
 20
114.0022518269
 10
128.6128920471
 20
113.9667027379
 10
128.5866476131
 20
113.9278934787
 10
128.5637731232
 20
113.8857791873
 10
128.5445173602
 20
113.8408064147
 10
128.5288881328
 20
113.7928074508
 10
128.5168757316
 20
113.7419485006
 10
128.5087023784
 20
113.6891767557
 10
128.5044416213
 20
113.6346073486
 10
128.5040189622
 20
113.578124383
 10
128.5074344102
 20
113.5203283858
 10
128.5147540531
 20
113.4610561008
 10
128.5259124801
 20
113.4004713034
 10
128.5407123406
 20
113.339664975
 10
128.5591770251
 20
113.2787633445
 10
128.5812848807
 20
113.2176415371
 10
128.6067707384
 20
113.1570136751
 10
128.6357253157
 20
113.0967867592
 10
128.6680608184
 20
113.0370560881
 10
128.7032438109
 20
112.9788178359
 10
128.7412788982
 20
112.9221644178
 10
128.7821646469
 20
112.8670059268
 10
128.8253577016
 20
112.8140643729
 10
128.8709166526
 20
112.7633371537
 10
128.9187861263
 20
112.714829433
 10
128.9682506622
 20
112.6692739532
 10
129.0193605412
 20
112.626709999
 10
129.0720679763
 20
112.5871002904
 10
129.1255087591
 20
112.551061417
 10
129.1793947378
 20
112.5187988535
 10
129.2340149516
 20
112.4901078631
 10
129.2893701094
 20
112.4649890282
  0
LINE
  5
278
100
AcDbEntity
  8
0
100
AcDbLine
 62
253
  6
CONTINUOUS
 10
140.8078858896
 20
124.3963297638
 11
142.3101601383
 21
125.6691946996
  0
LINE
  5
279
100
AcDbEntity
  8
ASSI
100
AcDbLine
 62
253
  6
CONTINUOUS
 10
140.8078858896
 20
124.3963297638
 11
142.3101601383
 21
125.6691946996
  0
LINE
  5
27A
100
AcDbEntity
  8
0
100
AcDbLine
 62
253
  6
CONTINUOUS
 10
141.2248236555
 20
123.8290218121
 11
142.7452255066
 21
125.1172461203
  0
LINE
  5
27B
100
AcDbEntity
  8
ASSI
100
AcDbLine
 62
253
  6
CONTINUOUS
 10
141.2248236555
 20
123.8290218121
 11
142.7452255066
 21
125.1172461203
  0
LWPOLYLINE
  5
27C
100
AcDbEntity
  8
0
100
AcDbPolyline
 62
7
  6
CONTINUOUS
 90
12
 70
0
 10
128.6792427116
 20
114.0375910587
 10
128.6945219548
 20
114.0501269174
 10
128.7415849461
 20
114.0822862233
 10
128.7930673595
 20
114.1082131803
 10
128.8487883588
 20
114.128016826
 10
128.9072935177
 20
114.1412803878
 10
128.9685304268
 20
114.1478438217
 10
129.0325561681
 20
114.1478708807
 10
129.0980771242
 20
114.1414277635
 10
129.1646621725
 20
114.1285366058
 10
129.232744777
 20
114.1091771478
 10
129.3023267112
 20
114.0833508135
  0
LWPOLYLINE
  5
27D
100
AcDbEntity
  8
ASSI
100
AcDbPolyline
 62
7
  6
CONTINUOUS
 90
12
 70
0
 10
128.6792427116
 20
114.0375910587
 10
128.6945219548
 20
114.0501269174
 10
128.7415849461
 20
114.0822862233
 10
128.7930673595
 20
114.1082131803
 10
128.8487883588
 20
114.128016826
 10
128.9072935177
 20
114.1412803878
 10
128.9685304268
 20
114.1478438217
 10
129.0325561681
 20
114.1478708807
 10
129.0980771242
 20
114.1414277635
 10
129.1646621725
 20
114.1285366058
 10
129.232744777
 20
114.1091771478
 10
129.3023267112
 20
114.0833508135
  0
LINE
  5
27E
100
AcDbEntity
  8
SUPERFICI
100
AcDbLine
 62
7
  6
CONTINUOUS
 10
128.7116095203
 20
114.0628642794
 11
128.6792577587
 21
114.0375723352
  0
LINE
  5
27F
100
AcDbEntity
  8
ASSI
100
AcDbLine
 62
7
  6
CONTINUOUS
 10
149.1333750354
 20
122.9288377712
 11
148.4974701184
 21
122.7326706871
  0
LINE
  5
280
100
AcDbEntity
  8
0
100
AcDbLine
 62
7
  6
CONTINUOUS
 10
149.1333750354
 20
122.9288377712
 11
148.4974701184
 21
122.7326706871
  0
LWPOLYLINE
  5
281
100
AcDbEntity
  8
0
100
AcDbPolyline
 62
253
  6
CONTINUOUS
 90
51
 70
0
 10
130.9082974393
 20
98.1693971504
 10
130.9199626158
 20
98.1570258445
 10
130.9317513647
 20
98.1449269822
 10
130.9436784225
 20
98.1330802293
 10
130.9557585256
 20
98.1214652517
 10
130.9680064103
 20
98.1100617153
 10
130.9804344796
 20
98.098853204
 10
130.9930458026
 20
98.0878389734
 10
131.0058411148
 20
98.0770221971
 10
131.018821152
 20
98.0664060488
 10
131.0319866498
 20
98.055993702
 10
131.0453350342
 20
98.0457906735
 10
131.0588504932
 20
98.0358118521
 10
131.0725139052
 20
98.0260744699
 10
131.0863061487
 20
98.0165957589
 10
131.1002081019
 20
98.007392951
 10
131.1142013981
 20
97.9984820202
 10
131.1282706895
 20
97.989873908
 10
131.1424013829
 20
97.9815782981
 10
131.1565788853
 20
97.973604874
 10
131.1707886037
 20
97.9659633192
 10
131.1850174609
 20
97.9586624681
 10
131.1992584445
 20
97.9517077584
 10
131.2135060579
 20
97.9451037786
 10
131.2277548046
 20
97.9388551173
 10
131.2419991881
 20
97.9329663629
 10
131.2562341289
 20
97.9274411952
 10
131.2704562151
 20
97.9222796581
 10
131.284662452
 20
97.9174808866
 10
131.2988498445
 20
97.9130440157
 10
131.3130153979
 20
97.9089681806
 10
131.3271536656
 20
97.9052531732
 10
131.341249394
 20
97.9019014139
 10
131.355284878
 20
97.8989159797
 10
131.3692424121
 20
97.8962999478
 10
131.3831042912
 20
97.8940563956
 10
131.3968521955
 20
97.8921873879
 10
131.4104653473
 20
97.8906909405
 10
131.4239223541
 20
97.8895640568
 10
131.4372018237
 20
97.8888037404
 10
131.4502823639
 20
97.8884069946
 10
131.4631467027
 20
97.8883705051
 10
131.4757940496
 20
97.8886896862
 10
131.4882277347
 20
97.8893596345
 10
131.500451088
 20
97.8903754463
 10
131.5124674395
 20
97.8917322183
 10
131.5242819282
 20
97.8934271891
 10
131.535906929
 20
97.8954661663
 10
131.5473566259
 20
97.8978570997
 10
131.558645203
 20
97.900607939
 10
131.5697868442
 20
97.9037266342
  0
LWPOLYLINE
  5
282
100
AcDbEntity
  8
0
100
AcDbPolyline
 62
253
  6
CONTINUOUS
 90
16
 70
0
 10
131.1557957787
 20
98.5740224508
 10
130.9463142008
 20
98.8030531069
 10
130.7387309325
 20
99.0338105881
 10
130.5330123216
 20
99.2663304938
 10
130.3291247157
 20
99.500648423
 10
130.1270344627
 20
99.7367999749
 10
129.9267287281
 20
99.9747952883
 10
129.7282779479
 20
100.2145426602
 10
129.5317733759
 20
100.4559249272
 10
129.3373062658
 20
100.6988249258
 10
129.1449678713
 20
100.9431254926
 10
128.9548287266
 20
101.1887349961
 10
128.7668764866
 20
101.4356639319
 10
128.581078087
 20
101.6839483277
 10
128.3974004631
 20
101.9336242111
 10
128.2158105503
 20
102.1847276096
  0
LWPOLYLINE
  5
283
100
AcDbEntity
  8
0
100
AcDbPolyline
 62
253
  6
CONTINUOUS
 90
79
 70
0
 10
128.2158105503
 20
102.1847276096
 10
128.2079342506
 20
102.195372783
 10
128.1998286321
 20
102.2057545872
 10
128.1914998273
 20
102.215880265
 10
128.1829539683
 20
102.2257570588
 10
128.1741971876
 20
102.2353922114
 10
128.1652356175
 20
102.2447929653
 10
128.1560751568
 20
102.253964136
 10
128.1467207713
 20
102.2629008311
 10
128.1371771932
 20
102.2715957308
 10
128.1274491546
 20
102.2800415156
 10
128.117541388
 20
102.2882308658
 10
128.1074586255
 20
102.2961564618
 10
128.0972066379
 20
102.3038094283
 10
128.0867953492
 20
102.3111746666
 10
128.0762357221
 20
102.3182355223
 10
128.0655333117
 20
102.3249766781
 10
128.0546720425
 20
102.3313881646
 10
128.0436304316
 20
102.3374613492
 10
128.032399185
 20
102.3431813454
 10
128.0210177654
 20
102.3485082497
 10
128.0095378242
 20
102.3533959045
 10
127.9980029768
 20
102.3578043264
 10
127.9864246934
 20
102.3617182298
 10
127.9748064078
 20
102.3651285031
 10
127.9631584776
 20
102.3680258236
 10
127.9515189556
 20
102.3704000236
 10
127.9399328182
 20
102.3722407242
 10
127.9284450419
 20
102.3735375463
 10
127.9171006032
 20
102.3742801109
 10
127.9059444784
 20
102.3744580391
 10
127.8950180355
 20
102.3740643154
 10
127.884348208
 20
102.3731053783
 10
127.8739583209
 20
102.37159103
 10
127.8638716993
 20
102.3695310724
 10
127.854111668
 20
102.3669353076
 10
127.8447015521
 20
102.3638135378
 10
127.8356605079
 20
102.3601731203
 10
127.8269910165
 20
102.3560116342
 10
127.8186913907
 20
102.3513242138
 10
127.8107599429
 20
102.3461059934
 10
127.8031949856
 20
102.3403521075
 10
127.7959948316
 20
102.3340576904
 10
127.7891620157
 20
102.3272230149
 10
127.7827159627
 20
102.3198689072
 10
127.7766803198
 20
102.312021332
 10
127.7710787342
 20
102.3037062539
 10
127.765934853
 20
102.2949496376
 10
127.7612723234
 20
102.2857774478
 10
127.7571109951
 20
102.2762183229
 10
127.753455528
 20
102.2663115965
 10
127.7503067843
 20
102.2560992761
 10
127.7476656264
 20
102.245623369
 10
127.7455329166
 20
102.2349258827
 10
127.7439095172
 20
102.2240488246
 10
127.7427945547
 20
102.2130272903
 10
127.7421802117
 20
102.2018687284
 10
127.7420569351
 20
102.1905736759
 10
127.7424130134
 20
102.1791506332
 10
127.7432281026
 20
102.1676399554
 10
127.7444797005
 20
102.156089961
 10
127.746146537
 20
102.144539218
 10
127.7482122696
 20
102.1329872925
 10
127.7506617877
 20
102.1214239998
 10
127.7534814135
 20
102.109841936
 10
127.7566631993
 20
102.0982448204
 10
127.7602006299
 20
102.0866391529
 10
127.7640873352
 20
102.0750324406
 10
127.7683175253
 20
102.0634362198
 10
127.7728855552
 20
102.0518630341
 10
127.7777857799
 20
102.0403254268
 10
127.7830125545
 20
102.0288359416
 10
127.788560234
 20
102.0174071219
 10
127.7944260087
 20
102.0060496602
 10
127.8006184102
 20
101.994766845
 10
127.8071488052
 20
101.9835601139
 10
127.8140285605
 20
101.9724309044
 10
127.8212690428
 20
101.961380654
 10
127.828881619
 20
101.9504108003
  0
LWPOLYLINE
  5
284
100
AcDbEntity
  8
0
100
AcDbPolyline
 62
253
  6
CONTINUOUS
 90
16
 70
0
 10
127.828881619
 20
101.9504108003
 10
128.0192031211
 20
101.6866050806
 10
128.2116875744
 20
101.4244390857
 10
128.4063551803
 20
101.1638877587
 10
128.6032261401
 20
100.9049260425
 10
128.8023206549
 20
100.6475288801
 10
129.0036454254
 20
100.39168861
 10
129.2071531498
 20
100.1374671526
 10
129.4127830259
 20
99.884943824
 10
129.6204742514
 20
99.6341979401
 10
129.8301660239
 20
99.385308817
 10
130.0418118806
 20
99.1383390225
 10
130.2554227162
 20
98.8932841317
 10
130.4710237651
 20
98.6501229715
 10
130.6886402614
 20
98.4088343687
 10
130.9082974393
 20
98.1693971504
  0
LWPOLYLINE
  5
285
100
AcDbEntity
  8
ASSI
100
AcDbPolyline
 62
7
  6
CONTINUOUS
 90
19
 70
0
 10
141.6058356435
 20
123.9114129434
 10
141.5977567798
 20
123.9037178671
 10
141.5408301563
 20
123.8452695866
 10
141.487622233
 20
123.7834515722
 10
141.437985786
 20
123.7187831062
 10
141.3916027383
 20
123.6514680408
 10
141.3482340401
 20
123.5815953234
 10
141.3078732756
 20
123.5095104238
 10
141.2705025049
 20
123.4354579436
 10
141.2361078375
 20
123.359569507
 10
141.2047672729
 20
123.2821308749
 10
141.1765881831
 20
123.2034002765
 10
141.1516551716
 20
123.1235202604
 10
141.1301150402
 20
123.0427164484
 10
141.11217236
 20
122.9612711429
 10
141.0980012146
 20
122.8792344986
 10
141.0878655209
 20
122.7966567223
 10
141.0821076617
 20
122.7138246198
 10
141.0814386184
 20
122.6946714673
  0
LWPOLYLINE
  5
286
100
AcDbEntity
  8
0
100
AcDbPolyline
 62
7
  6
CONTINUOUS
 90
19
 70
0
 10
141.6058356435
 20
123.9114129434
 10
141.5977567798
 20
123.9037178671
 10
141.5408301563
 20
123.8452695866
 10
141.487622233
 20
123.7834515722
 10
141.437985786
 20
123.7187831062
 10
141.3916027383
 20
123.6514680408
 10
141.3482340401
 20
123.5815953234
 10
141.3078732756
 20
123.5095104238
 10
141.2705025049
 20
123.4354579436
 10
141.2361078375
 20
123.359569507
 10
141.2047672729
 20
123.2821308749
 10
141.1765881831
 20
123.2034002765
 10
141.1516551716
 20
123.1235202604
 10
141.1301150402
 20
123.0427164484
 10
141.11217236
 20
122.9612711429
 10
141.0980012146
 20
122.8792344986
 10
141.0878655209
 20
122.7966567223
 10
141.0821076617
 20
122.7138246198
 10
141.0814386184
 20
122.6946714673
  0
LINE
  5
287
100
AcDbEntity
  8
ASSI
100
AcDbLine
 62
253
  6
CONTINUOUS
 10
143.3276298936
 20
125.2605559076
 11
141.933667278
 21
123.9441905606
  0
LINE
  5
288
100
AcDbEntity
  8
0
100
AcDbLine
 62
253
  6
CONTINUOUS
 10
143.3276298936
 20
125.2605559076
 11
141.933667278
 21
123.9441905606
  0
LWPOLYLINE
  5
289
100
AcDbEntity
  8
ASSI
100
AcDbPolyline
 62
253
  6
CONTINUOUS
 90
22
 70
0
 10
141.933667278
 20
123.9441905605
 10
141.8845059565
 20
123.8989214543
 10
141.8357377531
 20
123.849191606
 10
141.7876211329
 20
123.795241075
 10
141.7404288791
 20
123.7373251415
 10
141.6943925449
 20
123.6757299771
 10
141.649701601
 20
123.610770028
 10
141.6065888779
 20
123.5427562345
 10
141.5652863368
 20
123.4720207483
 10
141.5259694448
 20
123.3989319796
 10
141.4888438493
 20
123.3238479692
 10
141.4541069273
 20
123.2471310654
 10
141.4219038228
 20
123.1691715454
 10
141.3924011105
 20
123.0903497701
 10
141.3657569366
 20
123.011049087
 10
141.3420821932
 20
122.9316709349
 10
141.321499205
 20
122.8526100159
 10
141.3041169759
 20
122.7742448113
 10
141.2900039607
 20
122.6969510201
 10
141.2792287492
 20
122.6211050268
 10
141.2718572533
 20
122.5470814795
 10
141.2679297837
 20
122.4752442932
  0
LWPOLYLINE
  5
28A
100
AcDbEntity
  8
0
100
AcDbPolyline
 62
253
  6
CONTINUOUS
 90
22
 70
0
 10
141.933667278
 20
123.9441905605
 10
141.8845059565
 20
123.8989214543
 10
141.8357377531
 20
123.849191606
 10
141.7876211329
 20
123.795241075
 10
141.7404288791
 20
123.7373251415
 10
141.6943925449
 20
123.6757299771
 10
141.649701601
 20
123.610770028
 10
141.6065888779
 20
123.5427562345
 10
141.5652863368
 20
123.4720207483
 10
141.5259694448
 20
123.3989319796
 10
141.4888438493
 20
123.3238479692
 10
141.4541069273
 20
123.2471310654
 10
141.4219038228
 20
123.1691715454
 10
141.3924011105
 20
123.0903497701
 10
141.3657569366
 20
123.011049087
 10
141.3420821932
 20
122.9316709349
 10
141.321499205
 20
122.8526100159
 10
141.3041169759
 20
122.7742448113
 10
141.2900039607
 20
122.6969510201
 10
141.2792287492
 20
122.6211050268
 10
141.2718572533
 20
122.5470814795
 10
141.2679297837
 20
122.4752442932
  0
LWPOLYLINE
  5
28B
100
AcDbEntity
  8
0
100
AcDbPolyline
 62
7
  6
CONTINUOUS
 90
8
 70
0
 10
122.750195374
 20
112.9879861978
 10
122.7242378809
 20
113.0255937711
 10
122.7017121679
 20
113.0656325676
 10
122.6828900397
 20
113.10773883
 10
122.6679247445
 20
113.1517568179
 10
122.657043318
 20
113.1973404124
 10
122.6504596126
 20
113.2439326625
 10
122.648284841
 20
113.2910307921
  0
LWPOLYLINE
  5
28C
100
AcDbEntity
  8
ASSI
100
AcDbPolyline
 62
7
  6
CONTINUOUS
 90
8
 70
0
 10
122.750195374
 20
112.9879861978
 10
122.7242378809
 20
113.0255937711
 10
122.7017121679
 20
113.0656325676
 10
122.6828900397
 20
113.10773883
 10
122.6679247445
 20
113.1517568179
 10
122.657043318
 20
113.1973404124
 10
122.6504596126
 20
113.2439326625
 10
122.648284841
 20
113.2910307921
  0
LINE
  5
28D
100
AcDbEntity
  8
0
100
AcDbLine
 62
7
  6
CONTINUOUS
 10
136.5044149966
 20
128.000912836
 11
136.4432627411
 21
127.5739121255
  0
LINE
  5
28E
100
AcDbEntity
  8
ASSI
100
AcDbLine
 62
7
  6
CONTINUOUS
 10
136.5044149966
 20
128.000912836
 11
136.4432627411
 21
127.5739121255
  0
LWPOLYLINE
  5
28F
100
AcDbEntity
  8
SUPERFICI
100
AcDbPolyline
 62
7
  6
CONTINUOUS
 90
34
 70
0
 10
128.6716448322
 20
106.6589806397
 10
128.668020155
 20
106.6558262514
 10
128.6356355858
 20
106.624166351
 10
128.6066514459
 20
106.5892273726
 10
128.5811776488
 20
106.5510506922
 10
128.5591013012
 20
106.5095925951
 10
128.5406628069
 20
106.4652920452
 10
128.5258724051
 20
106.4179837059
 10
128.5147181482
 20
106.3678315826
 10
128.5074069202
 20
106.3157684398
 10
128.5040099833
 20
106.2619072869
 10
128.5044553874
 20
106.206134566
 10
128.5087350728
 20
106.14904307
 10
128.5169175496
 20
106.0904708096
 10
128.5289352466
 20
106.0305805068
 10
128.5445758516
 20
105.9704518968
 10
128.5638610529
 20
105.9102095908
 10
128.5867710936
 20
105.8497304752
 10
128.6130311973
 20
105.7897224426
 10
128.6427332248
 20
105.7300932789
 10
128.6757883371
 20
105.6709375616
 10
128.7116501461
 20
105.6132429119
 10
128.7503217809
 20
105.5571009034
 10
128.7918032506
 20
105.5024224197
 10
128.8355425594
 20
105.4499233008
 10
128.8815978287
 20
105.3996008359
 10
128.9299140189
 20
105.3514601653
 10
128.9797681833
 20
105.3062279396
 10
129.0311961777
 20
105.2639497211
 10
129.0841644248
 20
105.2245817579
 10
129.1378442018
 20
105.188715431
 10
129.1919591626
 20
105.1565477863
 10
129.246786427
 20
105.1278824079
 10
129.3023266473
 20
105.10271983
  0
LWPOLYLINE
  5
290
100
AcDbEntity
  8
SUPERFICI
100
AcDbPolyline
 62
7
  6
CONTINUOUS
 90
32
 70
0
 10
133.6002438332
 20
111.0311214687
 10
133.6206756806
 20
111.0480469068
 10
133.6548330892
 20
111.0811590321
 10
133.6855181528
 20
111.1174913257
 10
133.7126124954
 20
111.1569954793
 10
133.7362316761
 20
111.1997173913
 10
133.7561163188
 20
111.2452025566
 10
133.7722561886
 20
111.2936163153
 10
133.7846599239
 20
111.3447919515
 10
133.7930962088
 20
111.3977766868
 10
133.7974878658
 20
111.4524526669
 10
133.7979114259
 20
111.5089372015
 10
133.7943659926
 20
111.5666301616
 10
133.7867832775
 20
111.625693718
 10
133.7752324664
 20
111.6859664713
 10
133.7599187258
 20
111.7463628331
 10
133.7408189211
 20
111.806757007
 10
133.7179580061
 20
111.8672763641
 10
133.6916129745
 20
111.9272148277
 10
133.661692378
 20
111.9866649502
 10
133.6282905252
 20
112.0455366343
 10
133.5919624915
 20
112.1028493751
 10
133.5527062677
 20
112.1585125164
 10
133.5105268352
 20
112.2126192624
 10
133.4659888546
 20
112.2644641477
 10
133.4190348249
 20
112.3140503911
 10
133.3697251845
 20
112.361377275
 10
133.3188003385
 20
112.4057324497
 10
133.2662243369
 20
112.4470702757
 10
133.2120353188
 20
112.4854382419
 10
133.1570832567
 20
112.5202623738
 10
133.1016513773
 20
112.551351262
  0
LWPOLYLINE
  5
291
100
AcDbEntity
  8
ASSI
100
AcDbPolyline
 62
7
  6
CONTINUOUS
 90
12
 70
0
 10
128.6716299173
 20
106.6589988293
 10
128.6864119398
 20
106.6711235388
 10
128.7326700391
 20
106.7026343505
 10
128.7834154493
 20
106.7279659969
 10
128.8384668097
 20
106.7472274947
 10
128.8963851184
 20
106.7600148679
 10
128.9571214637
 20
106.76617142
 10
129.0207297778
 20
106.7658577979
 10
129.0859219815
 20
106.7591433661
 10
129.152268939
 20
106.7460514188
 10
129.2202025344
 20
106.7265608449
 10
129.2897247403
 20
106.7006732299
  0
LWPOLYLINE
  5
292
100
AcDbEntity
  8
0
100
AcDbPolyline
 62
7
  6
CONTINUOUS
 90
12
 70
0
 10
128.6716299173
 20
106.6589988293
 10
128.6864119398
 20
106.6711235388
 10
128.7326700391
 20
106.7026343505
 10
128.7834154493
 20
106.7279659969
 10
128.8384668097
 20
106.7472274947
 10
128.8963851184
 20
106.7600148679
 10
128.9571214637
 20
106.76617142
 10
129.0207297778
 20
106.7658577979
 10
129.0859219815
 20
106.7591433661
 10
129.152268939
 20
106.7460514188
 10
129.2202025344
 20
106.7265608449
 10
129.2897247403
 20
106.7006732299
  0
LINE
  5
293
100
AcDbEntity
  8
SUPERFICI
100
AcDbLine
 62
7
  6
CONTINUOUS
 10
128.7032300246
 20
106.683640048
 11
128.6716448322
 21
106.6589806397
  0
LWPOLYLINE
  5
294
100
AcDbEntity
  8
0
100
AcDbPolyline
 62
7
  6
CONTINUOUS
 90
10
 70
0
 10
133.6002456529
 20
111.0311192415
 10
133.5527795904
 20
110.9985796713
 10
133.4996968823
 20
110.9713334225
 10
133.4422707403
 20
110.9501266175
 10
133.382006926
 20
110.9354179186
 10
133.3189628645
 20
110.927370996
 10
133.2530859406
 20
110.9258262819
 10
133.18571364
 20
110.9307548828
 10
133.1172920177
 20
110.9421473642
 10
133.0473777053
 20
110.9600154297
  0
LWPOLYLINE
  5
295
100
AcDbEntity
  8
ASSI
100
AcDbPolyline
 62
7
  6
CONTINUOUS
 90
10
 70
0
 10
133.6002456529
 20
111.0311192415
 10
133.5527795904
 20
110.9985796713
 10
133.4996968823
 20
110.9713334225
 10
133.4422707403
 20
110.9501266175
 10
133.382006926
 20
110.9354179186
 10
133.3189628645
 20
110.927370996
 10
133.2530859406
 20
110.9258262819
 10
133.18571364
 20
110.9307548828
 10
133.1172920177
 20
110.9421473642
 10
133.0473777053
 20
110.9600154297
  0
LINE
  5
296
100
AcDbEntity
  8
0
100
AcDbLine
 62
253
  6
CONTINUOUS
 10
136.4432627411
 20
127.5739121255
 11
136.4432627292
 21
127.5630068575
  0
LINE
  5
297
100
AcDbEntity
  8
ASSI
100
AcDbLine
 62
253
  6
CONTINUOUS
 10
136.4432627411
 20
127.5739121255
 11
136.4432627292
 21
127.5630068575
  0
LINE
  5
298
100
AcDbEntity
  8
0
100
AcDbLine
 62
7
  6
CONTINUOUS
 10
136.4425938286
 20
127.5630068583
 11
136.4432627411
 21
127.5739121255
  0
LINE
  5
299
100
AcDbEntity
  8
ASSI
100
AcDbLine
 62
7
  6
CONTINUOUS
 10
136.4425938286
 20
127.5630068583
 11
136.4432627411
 21
127.5739121255
  0
LINE
  5
29A
100
AcDbEntity
  8
ASSI
100
AcDbLine
 62
7
  6
CONTINUOUS
 10
158.3078779314
 20
119.2441505738
 11
157.6719730144
 21
119.0479834897
  0
LINE
  5
29B
100
AcDbEntity
  8
0
100
AcDbLine
 62
7
  6
CONTINUOUS
 10
158.3078779314
 20
119.2441505738
 11
157.6719730144
 21
119.0479834897
  0
LINE
  5
29C
100
AcDbEntity
  8
ASSI
100
AcDbLine
 62
7
  6
CONTINUOUS
 10
151.2450256348
 20
96.2943136332
 11
151.1736767364
 21
96.3186925552
  0
LINE
  5
29D
100
AcDbEntity
  8
0
100
AcDbLine
 62
7
  6
CONTINUOUS
 10
151.2450256348
 20
96.2943136332
 11
151.1736767364
 21
96.3186925552
  0
LINE
  5
29E
100
AcDbEntity
  8
ASSI
100
AcDbLine
 62
7
  6
CONTINUOUS
 10
133.0598502516
 20
103.5978900423
 11
132.9885013532
 21
103.6222689643
  0
LINE
  5
29F
100
AcDbEntity
  8
0
100
AcDbLine
 62
7
  6
CONTINUOUS
 10
133.0598502516
 20
103.5978900423
 11
132.9885013532
 21
103.6222689643
  0
LWPOLYLINE
  5
2A0
100
AcDbEntity
  8
SUPERFICI
100
AcDbPolyline
 62
7
  6
CONTINUOUS
 90
14
 70
0
 10
151.1736767573
 20
96.3186925471
 10
151.2306394889
 20
96.2986739204
 10
151.2868353917
 20
96.2827503038
 10
151.3422638151
 20
96.2709211553
 10
151.397197345
 20
96.2631562969
 10
151.4513626134
 20
96.2594852558
 10
151.5039392822
 20
96.2599964088
 10
151.5549176105
 20
96.2647684966
 10
151.6043052262
 20
96.2737209966
 10
151.6513062492
 20
96.2867020438
 10
151.6958239668
 20
96.3037396033
 10
151.737952061
 20
96.324803144
 10
151.7771790766
 20
96.3496520705
 10
151.7936491469
 20
96.3619188741
  0
LWPOLYLINE
  5
2A1
100
AcDbEntity
  8
SUPERFICI
100
AcDbPolyline
 62
7
  6
CONTINUOUS
 90
14
 70
0
 10
132.9885013741
 20
103.6222689562
 10
133.0454641057
 20
103.6022503295
 10
133.1016600085
 20
103.5863267129
 10
133.1570884318
 20
103.5744975644
 10
133.2120219618
 20
103.566732706
 10
133.2661872302
 20
103.5630616649
 10
133.318763899
 20
103.5635728179
 10
133.3697422272
 20
103.5683449057
 10
133.419129843
 20
103.5772974057
 10
133.4661308659
 20
103.5902784529
 10
133.5106485836
 20
103.6073160124
 10
133.5527766778
 20
103.6283795531
 10
133.5920036934
 20
103.6532284796
 10
133.6084737637
 20
103.6654952832
  0
LINE
  5
2A2
100
AcDbEntity
  8
SUPERFICI
100
AcDbLine
 62
7
  6
CONTINUOUS
 10
150.3464550109
 20
96.6410242694
 11
151.1736767573
 21
96.3186925471
  0
LINE
  5
2A3
100
AcDbEntity
  8
ASSI
100
AcDbLine
 62
7
  6
CONTINUOUS
 10
151.1736767364
 20
96.3186925552
 11
150.3464266013
 21
96.6410354355
  0
LINE
  5
2A4
100
AcDbEntity
  8
0
100
AcDbLine
 62
7
  6
CONTINUOUS
 10
151.1736767364
 20
96.3186925552
 11
150.3464266013
 21
96.6410354355
  0
LINE
  5
2A5
100
AcDbEntity
  8
ASSI
100
AcDbLine
 62
7
  6
CONTINUOUS
 10
132.9885013532
 20
103.6222689643
 11
132.1612512181
 21
103.9446118446
  0
LINE
  5
2A6
100
AcDbEntity
  8
0
100
AcDbLine
 62
7
  6
CONTINUOUS
 10
132.9885013532
 20
103.6222689643
 11
132.1612512181
 21
103.9446118446
  0
LINE
  5
2A7
100
AcDbEntity
  8
SUPERFICI
100
AcDbLine
 62
7
  6
CONTINUOUS
 10
132.1612796277
 20
103.9446006785
 11
132.9885013741
 21
103.6222689562
  0
LINE
  5
2A8
100
AcDbEntity
  8
SUPERFICI
100
AcDbLine
 62
7
  6
CONTINUOUS
 10
149.5238056274
 20
96.9671759219
 11
150.3464550109
 21
96.6410242694
  0
LINE
  5
2A9
100
AcDbEntity
  8
ASSI
100
AcDbLine
 62
7
  6
CONTINUOUS
 10
150.3464266013
 20
96.6410354355
 11
149.5237941083
 21
96.9671805287
  0
LINE
  5
2AA
100
AcDbEntity
  8
0
100
AcDbLine
 62
7
  6
CONTINUOUS
 10
150.3464266013
 20
96.6410354355
 11
149.5237941083
 21
96.9671805287
  0
LINE
  5
2AB
100
AcDbEntity
  8
ASSI
100
AcDbLine
 62
7
  6
CONTINUOUS
 10
132.1612512181
 20
103.9446118446
 11
131.3386187251
 21
104.2707569378
  0
LINE
  5
2AC
100
AcDbEntity
  8
0
100
AcDbLine
 62
7
  6
CONTINUOUS
 10
132.1612512181
 20
103.9446118446
 11
131.3386187251
 21
104.2707569378
  0
LINE
  5
2AD
100
AcDbEntity
  8
SUPERFICI
100
AcDbLine
 62
7
  6
CONTINUOUS
 10
131.3386302441
 20
104.270752331
 11
132.1612796277
 21
103.9446006785
  0
LINE
  5
2AE
100
AcDbEntity
  8
SUPERFICI
100
AcDbLine
 62
7
  6
CONTINUOUS
 10
130.5205944924
 20
104.6007082893
 11
131.3386302441
 21
104.270752331
  0
LINE
  5
2AF
100
AcDbEntity
  8
ASSI
100
AcDbLine
 62
7
  6
CONTINUOUS
 10
131.3386187251
 20
104.2707569378
 11
130.5206249713
 21
104.6006958897
  0
LINE
  5
2B0
100
AcDbEntity
  8
0
100
AcDbLine
 62
7
  6
CONTINUOUS
 10
131.3386187251
 20
104.2707569378
 11
130.5206249713
 21
104.6006958897
  0
LINE
  5
2B1
100
AcDbEntity
  8
ASSI
100
AcDbLine
 62
7
  6
CONTINUOUS
 10
149.5237941083
 20
96.9671805287
 11
148.7058003545
 21
97.2971194806
  0
LINE
  5
2B2
100
AcDbEntity
  8
0
100
AcDbLine
 62
7
  6
CONTINUOUS
 10
149.5237941083
 20
96.9671805287
 11
148.7058003545
 21
97.2971194806
  0
LINE
  5
2B3
100
AcDbEntity
  8
SUPERFICI
100
AcDbLine
 62
7
  6
CONTINUOUS
 10
148.7057698756
 20
97.2971318802
 11
149.5238056274
 21
96.9671759219
  0
LINE
  5
2B4
100
AcDbEntity
  8
ASSI
100
AcDbLine
 62
7
  6
CONTINUOUS
 10
130.5206249713
 20
104.6006958897
 11
129.7072606532
 21
104.934432411
  0
LINE
  5
2B5
100
AcDbEntity
  8
0
100
AcDbLine
 62
7
  6
CONTINUOUS
 10
130.5206249713
 20
104.6006958897
 11
129.7072606532
 21
104.934432411
  0
LINE
  5
2B6
100
AcDbEntity
  8
ASSI
100
AcDbLine
 62
7
  6
CONTINUOUS
 10
148.7058003545
 20
97.2971194806
 11
147.8924360364
 21
97.6308560019
  0
LINE
  5
2B7
100
AcDbEntity
  8
0
100
AcDbLine
 62
7
  6
CONTINUOUS
 10
148.7058003545
 20
97.2971194806
 11
147.8924360364
 21
97.6308560019
  0
LWPOLYLINE
  5
2B8
100
AcDbEntity
  8
SUPERFICI
100
AcDbPolyline
 62
7
  6
CONTINUOUS
 90
3
 70
0
 10
129.3023266473
 20
105.10271983
 10
129.7072407081
 20
104.9344406652
 10
130.5205944924
 20
104.6007082893
  0
LINE
  5
2B9
100
AcDbEntity
  8
ASSI
100
AcDbLine
 62
7
  6
CONTINUOUS
 10
129.7072505917
 20
104.9344365925
 11
129.3023267184
 21
105.1027198004
  0
LINE
  5
2BA
100
AcDbEntity
  8
0
100
AcDbLine
 62
7
  6
CONTINUOUS
 10
129.7072505917
 20
104.9344365925
 11
129.3023267184
 21
105.1027198004
  0
LINE
  5
2BB
100
AcDbEntity
  8
ASSI
100
AcDbLine
 62
7
  6
CONTINUOUS
 10
147.8924259749
 20
97.6308601834
 11
147.4875021016
 21
97.7991433913
  0
LINE
  5
2BC
100
AcDbEntity
  8
0
100
AcDbLine
 62
7
  6
CONTINUOUS
 10
147.8924259749
 20
97.6308601834
 11
147.4875021016
 21
97.7991433913
  0
LWPOLYLINE
  5
2BD
100
AcDbEntity
  8
SUPERFICI
100
AcDbPolyline
 62
7
  6
CONTINUOUS
 90
3
 70
0
 10
147.4875020305
 20
97.7991434209
 10
147.8924160913
 20
97.6308642561
 10
148.7057698756
 20
97.2971318802
  0
LWPOLYLINE
  5
2BE
100
AcDbEntity
  8
ASSI
100
AcDbPolyline
 62
7
  6
CONTINUOUS
 90
27
 70
0
 10
129.3023267184
 20
105.1027198004
 10
129.2326853862
 20
105.1349862909
 10
129.1645663301
 20
105.1723952814
 10
129.0979677418
 20
105.2149453026
 10
129.032459258
 20
105.2629738536
 10
128.9684688302
 20
105.3161414949
 10
128.907280646
 20
105.3734301817
 10
128.848842053
 20
105.4350390472
 10
128.7932009888
 20
105.5007652352
 10
128.7417891396
 20
105.5689850148
 10
128.6947848191
 20
105.6396357203
 10
128.6520032365
 20
105.712774931
 10
128.6143289116
 20
105.7869572714
 10
128.5818117833
 20
105.8623354014
 10
128.5543964964
 20
105.9387524414
 10
128.5328082293
 20
106.0142975612
 10
128.5172027752
 20
106.0888888924
 10
128.5074207878
 20
106.1626055396
 10
128.5037140022
 20
106.2337775003
 10
128.5062360335
 20
106.3023457074
 10
128.5148330095
 20
106.3683690395
 10
128.5292951623
 20
106.430354142
 10
128.5497844778
 20
106.488245071
 10
128.5761421046
 20
106.5421002279
 10
128.6076763848
 20
106.5905972175
 10
128.6444531886
 20
106.6335373935
 10
128.6716299173
 20
106.6589988293
  0
LWPOLYLINE
  5
2BF
100
AcDbEntity
  8
0
100
AcDbPolyline
 62
7
  6
CONTINUOUS
 90
27
 70
0
 10
129.3023267184
 20
105.1027198004
 10
129.2326853862
 20
105.1349862909
 10
129.1645663301
 20
105.1723952814
 10
129.0979677418
 20
105.2149453026
 10
129.032459258
 20
105.2629738536
 10
128.9684688302
 20
105.3161414949
 10
128.907280646
 20
105.3734301817
 10
128.848842053
 20
105.4350390472
 10
128.7932009888
 20
105.5007652352
 10
128.7417891396
 20
105.5689850148
 10
128.6947848191
 20
105.6396357203
 10
128.6520032365
 20
105.712774931
 10
128.6143289116
 20
105.7869572714
 10
128.5818117833
 20
105.8623354014
 10
128.5543964964
 20
105.9387524414
 10
128.5328082293
 20
106.0142975612
 10
128.5172027752
 20
106.0888888924
 10
128.5074207878
 20
106.1626055396
 10
128.5037140022
 20
106.2337775003
 10
128.5062360335
 20
106.3023457074
 10
128.5148330095
 20
106.3683690395
 10
128.5292951623
 20
106.430354142
 10
128.5497844778
 20
106.488245071
 10
128.5761421046
 20
106.5421002279
 10
128.6076763848
 20
106.5905972175
 10
128.6444531886
 20
106.6335373935
 10
128.6716299173
 20
106.6589988293
  0
LWPOLYLINE
  5
2C0
100
AcDbEntity
  8
ASSI
100
AcDbPolyline
 62
7
  6
CONTINUOUS
 90
27
 70
0
 10
147.4875021016
 20
97.7991433913
 10
147.4178607694
 20
97.8314098818
 10
147.3497417133
 20
97.8688188723
 10
147.283143125
 20
97.9113688935
 10
147.2176346412
 20
97.9593974446
 10
147.1536442134
 20
98.0125650858
 10
147.0924560292
 20
98.0698537726
 10
147.0340174362
 20
98.1314626381
 10
146.978376372
 20
98.1971888261
 10
146.9269645229
 20
98.2654086057
 10
146.8799602023
 20
98.3360593113
 10
146.8371786197
 20
98.4091985219
 10
146.7995042948
 20
98.4833808623
 10
146.7669871665
 20
98.5587589923
 10
146.7395718796
 20
98.6351760323
 10
146.7179836125
 20
98.7107211521
 10
146.7023781584
 20
98.7853124833
 10
146.6925961711
 20
98.8590291305
 10
146.6888893855
 20
98.9302010912
 10
146.6914114167
 20
98.9987692983
 10
146.7000083927
 20
99.0647926304
 10
146.7144705456
 20
99.1267777329
 10
146.734959861
 20
99.1846686619
 10
146.7613174878
 20
99.2385238189
 10
146.792851768
 20
99.2870208084
 10
146.8296285718
 20
99.3299609845
 10
146.8568053005
 20
99.3554224202
  0
LWPOLYLINE
  5
2C1
100
AcDbEntity
  8
0
100
AcDbPolyline
 62
7
  6
CONTINUOUS
 90
27
 70
0
 10
147.4875021016
 20
97.7991433913
 10
147.4178607694
 20
97.8314098818
 10
147.3497417133
 20
97.8688188723
 10
147.283143125
 20
97.9113688935
 10
147.2176346412
 20
97.9593974446
 10
147.1536442134
 20
98.0125650858
 10
147.0924560292
 20
98.0698537726
 10
147.0340174362
 20
98.1314626381
 10
146.978376372
 20
98.1971888261
 10
146.9269645229
 20
98.2654086057
 10
146.8799602023
 20
98.3360593113
 10
146.8371786197
 20
98.4091985219
 10
146.7995042948
 20
98.4833808623
 10
146.7669871665
 20
98.5587589923
 10
146.7395718796
 20
98.6351760323
 10
146.7179836125
 20
98.7107211521
 10
146.7023781584
 20
98.7853124833
 10
146.6925961711
 20
98.8590291305
 10
146.6888893855
 20
98.9302010912
 10
146.6914114167
 20
98.9987692983
 10
146.7000083927
 20
99.0647926304
 10
146.7144705456
 20
99.1267777329
 10
146.734959861
 20
99.1846686619
 10
146.7613174878
 20
99.2385238189
 10
146.792851768
 20
99.2870208084
 10
146.8296285718
 20
99.3299609845
 10
146.8568053005
 20
99.3554224202
  0
LWPOLYLINE
  5
2C2
100
AcDbEntity
  8
0
100
AcDbPolyline
 62
253
  6
CONTINUOUS
 90
51
 70
0
 10
149.0934728225
 20
90.8658207413
 10
149.105137999
 20
90.8534494355
 10
149.116926748
 20
90.8413505731
 10
149.1288538058
 20
90.8295038202
 10
149.1409339088
 20
90.8178888426
 10
149.1531817935
 20
90.8064853063
 10
149.1656098628
 20
90.7952767949
 10
149.1782211858
 20
90.7842625643
 10
149.191016498
 20
90.773445788
 10
149.2039965352
 20
90.7628296397
 10
149.217162033
 20
90.7524172929
 10
149.2305104174
 20
90.7422142644
 10
149.2440258764
 20
90.732235443
 10
149.2576892885
 20
90.7224980608
 10
149.2714815319
 20
90.7130193498
 10
149.2853834851
 20
90.7038165419
 10
149.2993767814
 20
90.6949056111
 10
149.3134460727
 20
90.686297499
 10
149.3275767661
 20
90.678001889
 10
149.3417542686
 20
90.6700284649
 10
149.3559639869
 20
90.6623869101
 10
149.3701928441
 20
90.655086059
 10
149.3844338277
 20
90.6481313493
 10
149.3986814411
 20
90.6415273695
 10
149.4129301878
 20
90.6352787082
 10
149.4271745713
 20
90.6293899539
 10
149.4414095121
 20
90.6238647861
 10
149.4556315983
 20
90.618703249
 10
149.4698378352
 20
90.6139044775
 10
149.4840252277
 20
90.6094676066
 10
149.4981907811
 20
90.6053917715
 10
149.5123290488
 20
90.6016767642
 10
149.5264247773
 20
90.5983250048
 10
149.5404602612
 20
90.5953395706
 10
149.5544177953
 20
90.5927235388
 10
149.5682796744
 20
90.5904799865
 10
149.5820275787
 20
90.5886109789
 10
149.5956407305
 20
90.5871145314
 10
149.6090977373
 20
90.5859876477
 10
149.622377207
 20
90.5852273313
 10
149.6354577471
 20
90.5848305855
 10
149.6483220859
 20
90.584794096
 10
149.6609694328
 20
90.5851132771
 10
149.6734031179
 20
90.5857832254
 10
149.6856264713
 20
90.5867990373
 10
149.6976428227
 20
90.5881558092
 10
149.7094573114
 20
90.58985078
 10
149.7210823122
 20
90.5918897572
 10
149.7325320091
 20
90.5942806906
 10
149.7438205862
 20
90.59703153
 10
149.7549622274
 20
90.6001502251
  0
LINE
  5
2C3
100
AcDbEntity
  8
0
100
AcDbLine
 62
7
  6
CONTINUOUS
 10
136.5044149966
 20
128.000912836
 11
136.5105122623
 21
127.473626142
  0
LINE
  5
2C4
100
AcDbEntity
  8
ASSI
100
AcDbLine
 62
7
  6
CONTINUOUS
 10
136.5044149966
 20
128.000912836
 11
136.5105122623
 21
127.473626142
  0
LWPOLYLINE
  5
2C5
100
AcDbEntity
  8
SUPERFICI
100
AcDbPolyline
 62
7
  6
CONTINUOUS
 90
32
 70
0
 10
133.6084737637
 20
103.6654952832
 10
133.6283565177
 20
103.6819762569
 10
133.6618053646
 20
103.7145069579
 10
133.691752878
 20
103.7502351495
 10
133.718081922
 20
103.7891137172
 10
133.7409067141
 20
103.8311872986
 10
133.7599763597
 20
103.8760076128
 10
133.7752778668
 20
103.9237381239
 10
133.7868224385
 20
103.9742138506
 10
133.7943951804
 20
104.0264936035
 10
133.7979208731
 20
104.0804608811
 10
133.7974738274
 20
104.1362314262
 10
133.7930632821
 20
104.1932122873
 10
133.7846189492
 20
104.2515632803
 10
133.7722117524
 20
104.3111251453
 10
133.7560626191
 20
104.3708262142
 10
133.7361506747
 20
104.4305423189
 10
133.7124984192
 20
104.4903990279
 10
133.6853915803
 20
104.5496990598
 10
133.6547380106
 20
104.6085342426
 10
133.6206326191
 20
104.6668151057
 10
133.583641227
 20
104.7235720036
 10
133.5437632267
 20
104.7787157958
 10
133.5010022312
 20
104.8323381746
 10
133.4559295582
 20
104.8837400353
 10
133.4084879754
 20
104.9329250928
 10
133.3587377871
 20
104.9798922223
 10
133.3074255007
 20
105.0239341135
 10
133.2545023838
 20
105.0650127501
 10
133.2000195729
 20
105.103168156
 10
133.1448717941
 20
105.1378087401
 10
133.0893572166
 20
105.1687372336
  0
LWPOLYLINE
  5
2C6
100
AcDbEntity
  8
ASSI
100
AcDbPolyline
 62
7
  6
CONTINUOUS
 90
10
 70
0
 10
133.6084757658
 20
103.665492886
 10
133.5615822769
 20
103.6334412014
 10
133.5092387179
 20
103.6068088353
 10
133.4524873248
 20
103.5861611404
 10
133.3928168896
 20
103.5719430401
 10
133.3302823322
 20
103.5643166349
 10
133.2648331946
 20
103.563123598
 10
133.1977969022
 20
103.5683254244
 10
133.1296160147
 20
103.5799093471
 10
133.0598502516
 20
103.5978900423
  0
LWPOLYLINE
  5
2C7
100
AcDbEntity
  8
0
100
AcDbPolyline
 62
7
  6
CONTINUOUS
 90
10
 70
0
 10
133.6084757658
 20
103.665492886
 10
133.5615822769
 20
103.6334412014
 10
133.5092387179
 20
103.6068088353
 10
133.4524873248
 20
103.5861611404
 10
133.3928168896
 20
103.5719430401
 10
133.3302823322
 20
103.5643166349
 10
133.2648331946
 20
103.563123598
 10
133.1977969022
 20
103.5683254244
 10
133.1296160147
 20
103.5799093471
 10
133.0598502516
 20
103.5978900423
  0
LWPOLYLINE
  5
2C8
100
AcDbEntity
  8
0
100
AcDbPolyline
 62
253
  6
CONTINUOUS
 90
16
 70
0
 10
149.0940363062
 20
112.6521696279
 10
148.8743364503
 20
112.5819439203
 10
148.6566829905
 20
112.5089458157
 10
148.4410504842
 20
112.4331685693
 10
148.2274134886
 20
112.3546054362
 10
148.0157465612
 20
112.2732496718
 10
147.8060387401
 20
112.1890996885
 10
147.5983369864
 20
112.1021745282
 10
147.3927027422
 20
112.0124983901
 10
147.1891974496
 20
111.9200954735
 10
146.9878825507
 20
111.8249899774
 10
146.7888058433
 20
111.7271989694
 10
146.5919605494
 20
111.6267109899
 10
146.3973262468
 20
111.5235074478
 10
146.2048825133
 20
111.4175697519
 10
146.0146089267
 20
111.3088793108
  0
LWPOLYLINE
  5
2C9
100
AcDbEntity
  8
0
100
AcDbPolyline
 62
253
  6
CONTINUOUS
 90
46
 70
0
 10
149.3412535044
 20
112.0192380938
 10
149.3440976142
 20
112.0200703127
 10
149.3469496617
 20
112.0208063288
 10
149.3498140302
 20
112.0214461512
 10
149.3526951031
 20
112.021989789
 10
149.3555972637
 20
112.0224372514
 10
149.3585248954
 20
112.0227885476
 10
149.3614813578
 20
112.0230436979
 10
149.364465915
 20
112.0232027677
 10
149.3674768074
 20
112.0232658333
 10
149.3705122753
 20
112.0232329713
 10
149.3735705589
 20
112.0231042581
 10
149.3766498987
 20
112.0228797702
 10
149.3797483759
 20
112.0225598734
 10
149.3828634366
 20
112.0221460911
 10
149.3859923676
 20
112.0216402358
 10
149.389132456
 20
112.0210441202
 10
149.3922809886
 20
112.0203595568
 10
149.3954352525
 20
112.0195883583
 10
149.3985926684
 20
112.0187322304
 10
149.4017511919
 20
112.0177924514
 10
149.4049089123
 20
112.0167701925
 10
149.4080639191
 20
112.0156666251
 10
149.4112143017
 20
112.0144829205
 10
149.4143581493
 20
112.01322025
 10
149.4181196131
 20
112.0116023299
 10
149.4218665905
 20
112.0098736321
 10
149.4255967568
 20
112.0080354028
 10
149.4293077871
 20
112.0060888886
 10
149.4329973567
 20
112.0040353358
 10
149.4366628555
 20
112.0018762423
 10
149.4403005325
 20
111.9996141115
 10
149.4439063513
 20
111.9972516985
 10
149.4474762755
 20
111.994791758
 10
149.4510062688
 20
111.9922370451
 10
149.4544926697
 20
111.9895904913
 10
149.4579333161
 20
111.9868557344
 10
149.4613264207
 20
111.984036589
 10
149.4646701962
 20
111.9811368694
 10
149.4679628554
 20
111.9781603902
 10
149.4706671919
 20
111.9756229092
 10
149.4733384987
 20
111.9730297923
 10
149.4759804847
 20
111.97037606
 10
149.4785968589
 20
111.9676567328
 10
149.4811913301
 20
111.9648668312
 10
149.4837676073
 20
111.9620013757
  0
LWPOLYLINE
  5
2CA
100
AcDbEntity
  8
0
100
AcDbPolyline
 62
253
  6
CONTINUOUS
 90
46
 70
0
 10
131.2983096219
 20
98.51678552
 10
131.2955483503
 20
98.5160211582
 10
131.2927752273
 20
98.5153497933
 10
131.289985943
 20
98.5147714763
 10
131.2871761875
 20
98.5142862582
 10
131.284341651
 20
98.5138941902
 10
131.2814780236
 20
98.5135953233
 10
131.2785820031
 20
98.5133896841
 10
131.2756543173
 20
98.5132772007
 10
131.2726967017
 20
98.5132577768
 10
131.2697108917
 20
98.5133313162
 10
131.2666986229
 20
98.5134977226
 10
131.2636616306
 20
98.5137568995
 10
131.2606018188
 20
98.5141084691
 10
131.257521765
 20
98.5145509274
 10
131.2544242152
 20
98.5150824887
 10
131.2513119153
 20
98.5157013673
 10
131.2481876114
 20
98.5164057777
 10
131.2450540495
 20
98.5171939342
 10
131.2419138391
 20
98.518064156
 10
131.2387690445
 20
98.519015181
 10
131.2356215936
 20
98.5200458523
 10
131.2324734144
 20
98.5211550125
 10
131.2293264347
 20
98.5223415046
 10
131.2261825825
 20
98.5236041714
 10
131.2224166368
 20
98.52521842
 10
131.2186603071
 20
98.526939457
 10
131.2149159299
 20
98.5287660453
 10
131.2111858414
 20
98.530696948
 10
131.2074723781
 20
98.5327309282
 10
131.2037781669
 20
98.534866502
 10
131.2001069982
 20
98.5371011979
 10
131.1964629528
 20
98.5394322975
 10
131.1928501117
 20
98.5418570825
 10
131.1892725558
 20
98.5443728344
 10
131.1857340052
 20
98.5469766697
 10
131.1822367361
 20
98.549665044
 10
131.1787826641
 20
98.5524342478
 10
131.1753737044
 20
98.5552805716
 10
131.1720117725
 20
98.5582003059
 10
131.1692466408
 20
98.5606879864
 10
131.1665116394
 20
98.5632289278
 10
131.1638029104
 20
98.5658279875
 10
131.1611165959
 20
98.5684900229
 10
131.158448838
 20
98.5712198916
 10
131.1557957787
 20
98.5740224508
  0
LWPOLYLINE
  5
2CB
100
AcDbEntity
  8
ASSI
100
AcDbPolyline
 62
7
  6
CONTINUOUS
 90
11
 70
0
 10
158.1871528085
 20
98.6802886953
 10
158.2285371143
 20
98.6684671482
 10
158.2766387426
 20
98.6594044913
 10
158.3255699753
 20
98.6550817752
 10
158.3748704732
 20
98.6555920954
 10
158.4240248948
 20
98.6609783491
 10
158.472580925
 20
98.6712394211
 10
158.5200477041
 20
98.6863259497
 10
158.5659128566
 20
98.7061264701
 10
158.6096935613
 20
98.7304799654
 10
158.6486747749
 20
98.7574458205
  0
LWPOLYLINE
  5
2CC
100
AcDbEntity
  8
0
100
AcDbPolyline
 62
7
  6
CONTINUOUS
 90
11
 70
0
 10
158.1871528085
 20
98.6802886953
 10
158.2285371143
 20
98.6684671482
 10
158.2766387426
 20
98.6594044913
 10
158.3255699753
 20
98.6550817752
 10
158.3748704732
 20
98.6555920954
 10
158.4240248948
 20
98.6609783491
 10
158.472580925
 20
98.6712394211
 10
158.5200477041
 20
98.6863259497
 10
158.5659128566
 20
98.7061264701
 10
158.6096935613
 20
98.7304799654
 10
158.6486747749
 20
98.7574458205
  0
LWPOLYLINE
  5
2CD
100
AcDbEntity
  8
ASSI
100
AcDbPolyline
 62
253
  6
CONTINUOUS
 90
16
 70
0
 10
158.094259651
 20
98.9072203982
 10
158.1374573237
 20
98.8944123777
 10
158.182617936
 20
98.8840655714
 10
158.2293144643
 20
98.8762778152
 10
158.2771053545
 20
98.8711227485
 10
158.3255387185
 20
98.8686491145
 10
158.3741566079
 20
98.8688803035
 10
158.4224993293
 20
98.8718141348
 10
158.4701097461
 20
98.8774228712
 10
158.516537625
 20
98.885653473
 10
158.5613439399
 20
98.8964281049
 10
158.6041050412
 20
98.9096448851
 10
158.644416616
 20
98.9251788447
 10
158.6818974972
 20
98.9428831027
 10
158.7161932713
 20
98.9625902512
 10
158.746979649
 20
98.984113946
  0
LWPOLYLINE
  5
2CE
100
AcDbEntity
  8
0
100
AcDbPolyline
 62
253
  6
CONTINUOUS
 90
16
 70
0
 10
158.094259651
 20
98.9072203982
 10
158.1374573237
 20
98.8944123777
 10
158.182617936
 20
98.8840655714
 10
158.2293144643
 20
98.8762778152
 10
158.2771053545
 20
98.8711227485
 10
158.3255387185
 20
98.8686491145
 10
158.3741566079
 20
98.8688803035
 10
158.4224993293
 20
98.8718141348
 10
158.4701097461
 20
98.8774228712
 10
158.516537625
 20
98.885653473
 10
158.5613439399
 20
98.8964281049
 10
158.6041050412
 20
98.9096448851
 10
158.644416616
 20
98.9251788447
 10
158.6818974972
 20
98.9428831027
 10
158.7161932713
 20
98.9625902512
 10
158.746979649
 20
98.984113946
  0
LWPOLYLINE
  5
2CF
100
AcDbEntity
  8
SUPERFICI
100
AcDbPolyline
 62
7
  6
CONTINUOUS
 90
12
 70
0
 10
147.419187032
 20
99.4184040512
 10
147.3645686628
 20
99.4354886047
 10
147.3106897578
 20
99.4484979182
 10
147.2572711368
 20
99.457471097
 10
147.2045910721
 20
99.462368313
 10
147.1534841946
 20
99.463069928
 10
147.1039706838
 20
99.4594909361
 10
147.0560279451
 20
99.4517144348
 10
147.0104247736
 20
99.4398716023
 10
146.9672513465
 20
99.4239294654
 10
146.9264141783
 20
99.4039183916
 10
146.8884054078
 20
99.3800636389
  0
LWPOLYLINE
  5
2D0
100
AcDbEntity
  8
SUPERFICI
100
AcDbPolyline
 62
7
  6
CONTINUOUS
 90
12
 70
0
 10
129.2340116488
 20
106.7219804603
 10
129.1793932795
 20
106.7390650138
 10
129.1255143746
 20
106.7520743273
 10
129.0720957536
 20
106.7610475061
 10
129.0194156888
 20
106.7659447221
 10
128.9683088113
 20
106.7666463371
 10
128.9187953006
 20
106.7630673452
 10
128.8708525619
 20
106.7552908439
 10
128.8252493903
 20
106.7434480114
 10
128.7820759633
 20
106.7275058745
 10
128.7412387951
 20
106.7074948006
 10
128.7032300246
 20
106.683640048
  0
LWPOLYLINE
  5
2D1
100
AcDbEntity
  8
ASSI
100
AcDbPolyline
 62
253
  6
CONTINUOUS
 90
10
 70
0
 10
158.0942595298
 20
97.6961522657
 10
156.0967170818
 20
98.3737319324
 10
154.1232561299
 20
99.0728076936
 10
152.1742675374
 20
99.7932265619
 10
150.2502560168
 20
100.5347863042
 10
148.351487745
 20
101.2973744251
 10
146.4779999101
 20
102.0809759969
 10
144.6300679078
 20
102.8854860214
 10
142.8081957888
 20
103.7107016029
 10
141.0127680376
 20
104.5564643459
  0
LWPOLYLINE
  5
2D2
100
AcDbEntity
  8
0
100
AcDbPolyline
 62
253
  6
CONTINUOUS
 90
10
 70
0
 10
158.0942595298
 20
97.6961522657
 10
156.0967170818
 20
98.3737319324
 10
154.1232561299
 20
99.0728076936
 10
152.1742675374
 20
99.7932265619
 10
150.2502560168
 20
100.5347863042
 10
148.351487745
 20
101.2973744251
 10
146.4779999101
 20
102.0809759969
 10
144.6300679078
 20
102.8854860214
 10
142.8081957888
 20
103.7107016029
 10
141.0127680376
 20
104.5564643459
  0
LINE
  5
2D3
100
AcDbEntity
  8
SUPERFICI
100
AcDbLine
 62
7
  6
CONTINUOUS
 10
147.4745455806
 20
99.3972448343
 11
147.419187032
 21
99.4184040512
  0
LINE
  5
2D4
100
AcDbEntity
  8
SUPERFICI
100
AcDbLine
 62
7
  6
CONTINUOUS
 10
129.2893701973
 20
106.7008212434
 11
129.2340116488
 21
106.7219804603
  0
LINE
  5
2D5
100
AcDbEntity
  8
SUPERFICI
100
AcDbLine
 62
7
  6
CONTINUOUS
 10
151.1615118821
 20
97.9164760483
 11
150.3339178675
 21
98.2388966877
  0
LINE
  5
2D6
100
AcDbEntity
  8
ASSI
100
AcDbLine
 62
7
  6
CONTINUOUS
 10
150.3338090824
 20
98.2389394407
 11
151.1611480745
 21
97.9166165399
  0
LINE
  5
2D7
100
AcDbEntity
  8
0
100
AcDbLine
 62
7
  6
CONTINUOUS
 10
150.3338090824
 20
98.2389394407
 11
151.1611480745
 21
97.9166165399
  0
LINE
  5
2D8
100
AcDbEntity
  8
ASSI
100
AcDbLine
 62
7
  6
CONTINUOUS
 10
132.1486336992
 20
105.5425158497
 11
132.9759726913
 21
105.220192949
  0
LINE
  5
2D9
100
AcDbEntity
  8
0
100
AcDbLine
 62
7
  6
CONTINUOUS
 10
132.1486336992
 20
105.5425158497
 11
132.9759726913
 21
105.220192949
  0
LINE
  5
2DA
100
AcDbEntity
  8
SUPERFICI
100
AcDbLine
 62
7
  6
CONTINUOUS
 10
132.9763364988
 20
105.2200524574
 11
132.1487424843
 21
105.5424730968
  0
LINE
  5
2DB
100
AcDbEntity
  8
SUPERFICI
100
AcDbLine
 62
7
  6
CONTINUOUS
 10
150.3339178675
 20
98.2388966877
 11
149.5111295762
 21
98.5650795629
  0
LINE
  5
2DC
100
AcDbEntity
  8
ASSI
100
AcDbLine
 62
7
  6
CONTINUOUS
 10
149.5111293689
 20
98.5650796446
 11
150.3338090824
 21
98.2389394407
  0
LINE
  5
2DD
100
AcDbEntity
  8
0
100
AcDbLine
 62
7
  6
CONTINUOUS
 10
149.5111293689
 20
98.5650796446
 11
150.3338090824
 21
98.2389394407
  0
LINE
  5
2DE
100
AcDbEntity
  8
ASSI
100
AcDbLine
 62
7
  6
CONTINUOUS
 10
131.3259539857
 20
105.8686560537
 11
132.1486336992
 21
105.5425158497
  0
LINE
  5
2DF
100
AcDbEntity
  8
0
100
AcDbLine
 62
7
  6
CONTINUOUS
 10
131.3259539857
 20
105.8686560537
 11
132.1486336992
 21
105.5425158497
  0
LINE
  5
2E0
100
AcDbEntity
  8
SUPERFICI
100
AcDbLine
 62
7
  6
CONTINUOUS
 10
132.1487424843
 20
105.5424730968
 11
131.325954193
 21
105.8686559719
  0
LINE
  5
2E1
100
AcDbEntity
  8
SUPERFICI
100
AcDbLine
 62
7
  6
CONTINUOUS
 10
131.325954193
 20
105.8686559719
 11
130.5079287378
 21
106.1986157399
  0
LINE
  5
2E2
100
AcDbEntity
  8
ASSI
100
AcDbLine
 62
7
  6
CONTINUOUS
 10
130.507954528
 20
106.1986052471
 11
131.3259539857
 21
105.8686560537
  0
LINE
  5
2E3
100
AcDbEntity
  8
0
100
AcDbLine
 62
7
  6
CONTINUOUS
 10
130.507954528
 20
106.1986052471
 11
131.3259539857
 21
105.8686560537
  0
LINE
  5
2E4
100
AcDbEntity
  8
ASSI
100
AcDbLine
 62
7
  6
CONTINUOUS
 10
148.6931299112
 20
98.895028838
 11
149.5111293689
 21
98.5650796446
  0
LINE
  5
2E5
100
AcDbEntity
  8
0
100
AcDbLine
 62
7
  6
CONTINUOUS
 10
148.6931299112
 20
98.895028838
 11
149.5111293689
 21
98.5650796446
  0
LINE
  5
2E6
100
AcDbEntity
  8
SUPERFICI
100
AcDbLine
 62
7
  6
CONTINUOUS
 10
149.5111295762
 20
98.5650795629
 11
148.693104121
 21
98.8950393308
  0
LINE
  5
2E7
100
AcDbEntity
  8
SUPERFICI
100
AcDbLine
 62
7
  6
CONTINUOUS
 10
130.5079287378
 20
106.1986157399
 11
129.6944106448
 21
106.5324562857
  0
LINE
  5
2E8
100
AcDbEntity
  8
SUPERFICI
100
AcDbLine
 62
7
  6
CONTINUOUS
 10
148.693104121
 20
98.8950393308
 11
147.879586028
 21
99.2288798766
  0
LINE
  5
2E9
100
AcDbEntity
  8
SUPERFICI
100
AcDbLine
 62
7
  6
CONTINUOUS
 10
129.6944106448
 20
106.5324562857
 11
129.2893701973
 21
106.7008212434
  0
LWPOLYLINE
  5
2EA
100
AcDbEntity
  8
ASSI
100
AcDbPolyline
 62
7
  6
CONTINUOUS
 90
3
 70
0
 10
129.2897247403
 20
106.7006732299
 10
129.6946255673
 20
106.5323673272
 10
130.507954528
 20
106.1986052471
  0
LWPOLYLINE
  5
2EB
100
AcDbEntity
  8
0
100
AcDbPolyline
 62
7
  6
CONTINUOUS
 90
3
 70
0
 10
129.2897247403
 20
106.7006732299
 10
129.6946255673
 20
106.5323673272
 10
130.507954528
 20
106.1986052471
  0
LWPOLYLINE
  5
2EC
100
AcDbEntity
  8
ASSI
100
AcDbPolyline
 62
7
  6
CONTINUOUS
 90
3
 70
0
 10
147.4749001235
 20
99.3970968208
 10
147.8798009505
 20
99.2287909182
 10
148.6931299112
 20
98.895028838
  0
LWPOLYLINE
  5
2ED
100
AcDbEntity
  8
0
100
AcDbPolyline
 62
7
  6
CONTINUOUS
 90
3
 70
0
 10
147.4749001235
 20
99.3970968208
 10
147.8798009505
 20
99.2287909182
 10
148.6931299112
 20
98.895028838
  0
LINE
  5
2EE
100
AcDbEntity
  8
SUPERFICI
100
AcDbLine
 62
7
  6
CONTINUOUS
 10
147.879586028
 20
99.2288798766
 11
147.4745455806
 21
99.3972448343
  0
LWPOLYLINE
  5
2EF
100
AcDbEntity
  8
ASSI
100
AcDbPolyline
 62
7
  6
CONTINUOUS
 90
27
 70
0
 10
132.9759726913
 20
105.220192949
 10
133.0474391316
 20
105.1894375037
 10
133.1173911712
 20
105.1535392513
 10
133.1858268365
 20
105.1124965644
 10
133.2531861591
 20
105.0659776439
 10
133.3190263524
 20
105.0143120233
 10
133.382019818
 20
104.9584888873
 10
133.4422145792
 20
104.8983070855
 10
133.4995577634
 20
104.8339637003
 10
133.552567254
 20
104.7670425747
 10
133.6010514869
 20
104.6975955304
 10
133.6451957642
 20
104.6255654395
 10
133.6840809832
 20
104.5523707805
 10
133.717648767
 20
104.4778528054
 10
133.7459525454
 20
104.402166035
 10
133.7682396943
 20
104.3271978082
 10
133.7843446563
 20
104.2530216927
 10
133.7944300598
 20
104.1795615954
 10
133.7982349011
 20
104.1084798166
 10
133.7955989459
 20
104.0398303995
 10
133.7866827015
 20
103.973559503
 10
133.7717059594
 20
103.9111673505
 10
133.7505031702
 20
103.8527069367
 10
133.7232432571
 20
103.7981281206
 10
133.6906469592
 20
103.7487757966
 10
133.6526508859
 20
103.7048505369
 10
133.6084757658
 20
103.665492886
  0
LWPOLYLINE
  5
2F0
100
AcDbEntity
  8
0
100
AcDbPolyline
 62
7
  6
CONTINUOUS
 90
27
 70
0
 10
132.9759726913
 20
105.220192949
 10
133.0474391316
 20
105.1894375037
 10
133.1173911712
 20
105.1535392513
 10
133.1858268365
 20
105.1124965644
 10
133.2531861591
 20
105.0659776439
 10
133.3190263524
 20
105.0143120233
 10
133.382019818
 20
104.9584888873
 10
133.4422145792
 20
104.8983070855
 10
133.4995577634
 20
104.8339637003
 10
133.552567254
 20
104.7670425747
 10
133.6010514869
 20
104.6975955304
 10
133.6451957642
 20
104.6255654395
 10
133.6840809832
 20
104.5523707805
 10
133.717648767
 20
104.4778528054
 10
133.7459525454
 20
104.402166035
 10
133.7682396943
 20
104.3271978082
 10
133.7843446563
 20
104.2530216927
 10
133.7944300598
 20
104.1795615954
 10
133.7982349011
 20
104.1084798166
 10
133.7955989459
 20
104.0398303995
 10
133.7866827015
 20
103.973559503
 10
133.7717059594
 20
103.9111673505
 10
133.7505031702
 20
103.8527069367
 10
133.7232432571
 20
103.7981281206
 10
133.6906469592
 20
103.7487757966
 10
133.6526508859
 20
103.7048505369
 10
133.6084757658
 20
103.665492886
  0
LWPOLYLINE
  5
2F1
100
AcDbEntity
  8
ASSI
100
AcDbPolyline
 62
7
  6
CONTINUOUS
 90
27
 70
0
 10
151.1611480745
 20
97.9166165399
 10
151.2326145148
 20
97.8858610946
 10
151.3025665545
 20
97.8499628423
 10
151.3710022197
 20
97.8089201553
 10
151.4383615423
 20
97.7624012348
 10
151.5042017357
 20
97.7107356142
 10
151.5671952012
 20
97.6549124782
 10
151.6273899624
 20
97.5947306765
 10
151.6847331466
 20
97.5303872912
 10
151.7377426372
 20
97.4634661656
 10
151.7862268701
 20
97.3940191213
 10
151.8303711474
 20
97.3219890305
 10
151.8692563664
 20
97.2487943714
 10
151.9028241502
 20
97.1742763963
 10
151.9311279286
 20
97.0985896259
 10
151.9534150775
 20
97.0236213991
 10
151.9695200396
 20
96.9494452836
 10
151.979605443
 20
96.8759851863
 10
151.9834102843
 20
96.8049034075
 10
151.9807743291
 20
96.7362539904
 10
151.9718580847
 20
96.6699830939
 10
151.9568813426
 20
96.6075909414
 10
151.9356785534
 20
96.5491305277
 10
151.9084186404
 20
96.4945517115
 10
151.8758223424
 20
96.4451993875
 10
151.8378262691
 20
96.4012741278
 10
151.793651149
 20
96.3619164769
  0
LWPOLYLINE
  5
2F2
100
AcDbEntity
  8
0
100
AcDbPolyline
 62
7
  6
CONTINUOUS
 90
27
 70
0
 10
151.1611480745
 20
97.9166165399
 10
151.2326145148
 20
97.8858610946
 10
151.3025665545
 20
97.8499628423
 10
151.3710022197
 20
97.8089201553
 10
151.4383615423
 20
97.7624012348
 10
151.5042017357
 20
97.7107356142
 10
151.5671952012
 20
97.6549124782
 10
151.6273899624
 20
97.5947306765
 10
151.6847331466
 20
97.5303872912
 10
151.7377426372
 20
97.4634661656
 10
151.7862268701
 20
97.3940191213
 10
151.8303711474
 20
97.3219890305
 10
151.8692563664
 20
97.2487943714
 10
151.9028241502
 20
97.1742763963
 10
151.9311279286
 20
97.0985896259
 10
151.9534150775
 20
97.0236213991
 10
151.9695200396
 20
96.9494452836
 10
151.979605443
 20
96.8759851863
 10
151.9834102843
 20
96.8049034075
 10
151.9807743291
 20
96.7362539904
 10
151.9718580847
 20
96.6699830939
 10
151.9568813426
 20
96.6075909414
 10
151.9356785534
 20
96.5491305277
 10
151.9084186404
 20
96.4945517115
 10
151.8758223424
 20
96.4451993875
 10
151.8378262691
 20
96.4012741278
 10
151.793651149
 20
96.3619164769
  0
LWPOLYLINE
  5
2F3
100
AcDbEntity
  8
SUPERFICI
100
AcDbPolyline
 62
7
  6
CONTINUOUS
 90
3
 70
0
 10
133.0893572166
 20
105.1687372336
 10
133.0331785507
 20
105.1961516148
 10
132.9763364988
 20
105.2200524574
  0
LWPOLYLINE
  5
2F4
100
AcDbEntity
  8
SUPERFICI
100
AcDbPolyline
 62
7
  6
CONTINUOUS
 90
3
 70
0
 10
151.2745325999
 20
97.8651608245
 10
151.2183539339
 20
97.8925752057
 10
151.1615118821
 20
97.9164760483
  0
LWPOLYLINE
  5
2F5
100
AcDbEntity
  8
ASSI
100
AcDbPolyline
 62
253
  6
CONTINUOUS
 90
10
 70
0
 10
122.827592432
 20
111.8600407917
 10
122.7918504153
 20
111.8789561278
 10
122.7594787218
 20
111.8997790032
 10
122.7307834477
 20
111.9223125236
 10
122.7060359295
 20
111.9463436156
 10
122.6854701672
 20
111.9716450525
 10
122.6692806176
 20
111.9979776044
 10
122.6576203657
 20
112.025092293
 10
122.6505996817
 20
112.0527327191
 10
122.6482847881
 20
112.0801765429
  0
LWPOLYLINE
  5
2F6
100
AcDbEntity
  8
0
100
AcDbPolyline
 62
253
  6
CONTINUOUS
 90
10
 70
0
 10
122.827592432
 20
111.8600407917
 10
122.7918504153
 20
111.8789561278
 10
122.7594787218
 20
111.8997790032
 10
122.7307834477
 20
111.9223125236
 10
122.7060359295
 20
111.9463436156
 10
122.6854701672
 20
111.9716450525
 10
122.6692806176
 20
111.9979776044
 10
122.6576203657
 20
112.025092293
 10
122.6505996817
 20
112.0527327191
 10
122.6482847881
 20
112.0801765429
  0
LWPOLYLINE
  5
2F7
100
AcDbEntity
  8
0
100
AcDbPolyline
 62
253
  6
CONTINUOUS
 90
16
 70
0
 10
149.3409711619
 20
91.2704460417
 10
149.1314895841
 20
91.4994766978
 10
148.9239063157
 20
91.730234179
 10
148.7181877048
 20
91.9627540847
 10
148.5143000989
 20
92.1970720139
 10
148.3122098459
 20
92.4332235658
 10
148.1119041113
 20
92.6712188793
 10
147.9134533311
 20
92.9109662512
 10
147.7169487591
 20
93.1523485181
 10
147.522481649
 20
93.3952485167
 10
147.3301432546
 20
93.6395490835
 10
147.1400041098
 20
93.885158587
 10
146.9520518698
 20
94.1320875228
 10
146.7662534702
 20
94.3803719186
 10
146.5825758463
 20
94.630047802
 10
146.4009859335
 20
94.8811512005
  0
LWPOLYLINE
  5
2F8
100
AcDbEntity
  8
0
100
AcDbPolyline
 62
253
  6
CONTINUOUS
 90
79
 70
0
 10
146.4009859335
 20
94.8811512005
 10
146.3931096338
 20
94.8917963739
 10
146.3850040153
 20
94.9021781781
 10
146.3766752105
 20
94.9123038559
 10
146.3681293515
 20
94.9221806498
 10
146.3593725708
 20
94.9318158023
 10
146.3504110007
 20
94.9412165562
 10
146.34125054
 20
94.9503877269
 10
146.3318961545
 20
94.959324422
 10
146.3223525764
 20
94.9680193217
 10
146.3126245379
 20
94.9764651065
 10
146.3027167712
 20
94.9846544567
 10
146.2926340088
 20
94.9925800527
 10
146.2823820211
 20
95.0002330192
 10
146.2719707324
 20
95.0075982575
 10
146.2614111053
 20
95.0146591132
 10
146.2507086949
 20
95.0214002691
 10
146.2398474257
 20
95.0278117555
 10
146.2288058148
 20
95.0338849401
 10
146.2175745683
 20
95.0396049363
 10
146.2061931486
 20
95.0449318406
 10
146.1947132074
 20
95.0498194954
 10
146.1831783601
 20
95.0542279174
 10
146.1716000766
 20
95.0581418207
 10
146.159981791
 20
95.061552094
 10
146.1483338608
 20
95.0644494145
 10
146.1366943388
 20
95.0668236145
 10
146.1251082015
 20
95.0686643151
 10
146.1136204252
 20
95.0699611372
 10
146.1022759864
 20
95.0707037018
 10
146.0911198616
 20
95.07088163
 10
146.0801934187
 20
95.0704879063
 10
146.0695235912
 20
95.0695289693
 10
146.0591337041
 20
95.0680146209
 10
146.0490470825
 20
95.0659546633
 10
146.0392870512
 20
95.0633588986
 10
146.0298769353
 20
95.0602371287
 10
146.0208358911
 20
95.0565967112
 10
146.0121663997
 20
95.0524352251
 10
146.0038667739
 20
95.0477478047
 10
145.9959353261
 20
95.0425295844
 10
145.9883703689
 20
95.0367756985
 10
145.9811702148
 20
95.0304812814
 10
145.9743373989
 20
95.0236466058
 10
145.9678913459
 20
95.0162924981
 10
145.961855703
 20
95.0084449229
 10
145.9562541174
 20
95.0001298448
 10
145.9511102362
 20
94.9913732285
 10
145.9464477066
 20
94.9822010387
 10
145.9422863783
 20
94.9726419138
 10
145.9386309112
 20
94.9627351874
 10
145.9354821675
 20
94.952522867
 10
145.9328410096
 20
94.9420469599
 10
145.9307082998
 20
94.9313494736
 10
145.9290849004
 20
94.9204724155
 10
145.9279699379
 20
94.9094508812
 10
145.927355595
 20
94.8982923193
 10
145.9272323183
 20
94.8869972668
 10
145.9275883966
 20
94.8755742242
 10
145.9284034858
 20
94.8640635463
 10
145.9296550837
 20
94.8525135519
 10
145.9313219202
 20
94.8409628089
 10
145.9333876528
 20
94.8294108834
 10
145.935837171
 20
94.8178475907
 10
145.9386567968
 20
94.8062655269
 10
145.9418385825
 20
94.7946684113
 10
145.9453760131
 20
94.7830627438
 10
145.9492627184
 20
94.7714560315
 10
145.9534929085
 20
94.7598598108
 10
145.9580609384
 20
94.748286625
 10
145.9629611631
 20
94.7367490178
 10
145.9681879377
 20
94.7252595325
 10
145.9737356172
 20
94.7138307128
 10
145.9796013919
 20
94.7024732511
 10
145.9857937934
 20
94.6911904359
 10
145.9923241884
 20
94.6799837048
 10
145.9992039437
 20
94.6688544953
 10
146.006444426
 20
94.6578042449
 10
146.0140570023
 20
94.6468343912
  0
LWPOLYLINE
  5
2F9
100
AcDbEntity
  8
0
100
AcDbPolyline
 62
253
  6
CONTINUOUS
 90
16
 70
0
 10
146.0140570023
 20
94.6468343912
 10
146.2043785043
 20
94.3830286715
 10
146.3968629576
 20
94.1208626767
 10
146.5915305636
 20
93.8603113496
 10
146.7884015233
 20
93.6013496334
 10
146.9874960381
 20
93.343952471
 10
147.1888208086
 20
93.0881122009
 10
147.392328533
 20
92.8338907435
 10
147.5979584091
 20
92.5813674149
 10
147.8056496346
 20
92.330621531
 10
148.0153414071
 20
92.0817324079
 10
148.2269872638
 20
91.8347626134
 10
148.4405980994
 20
91.5897077226
 10
148.6561991483
 20
91.3465465624
 10
148.8738156446
 20
91.1052579596
 10
149.0934728225
 20
90.8658207413
  0
LWPOLYLINE
  5
2FA
100
AcDbEntity
  8
ASSI
100
AcDbPolyline
 62
253
  6
CONTINUOUS
 90
10
 70
0
 10
140.8334602242
 20
105.9874543803
 10
140.8357751188
 20
105.9597692908
 10
140.8427958028
 20
105.9322194737
 10
140.8544560547
 20
105.9051870966
 10
140.8706456043
 20
105.8789277802
 10
140.8912113666
 20
105.8536898104
 10
140.9159588847
 20
105.8297118172
 10
140.9446541588
 20
105.8072205253
 10
140.9770258522
 20
105.7864286085
 10
141.012767869
 20
105.7675326685
  0
LWPOLYLINE
  5
2FB
100
AcDbEntity
  8
0
100
AcDbPolyline
 62
253
  6
CONTINUOUS
 90
10
 70
0
 10
140.8334602242
 20
105.9874543803
 10
140.8357751188
 20
105.9597692908
 10
140.8427958028
 20
105.9322194737
 10
140.8544560547
 20
105.9051870966
 10
140.8706456043
 20
105.8789277802
 10
140.8912113666
 20
105.8536898104
 10
140.9159588847
 20
105.8297118172
 10
140.9446541588
 20
105.8072205253
 10
140.9770258522
 20
105.7864286085
 10
141.012767869
 20
105.7675326685
  0
LWPOLYLINE
  5
2FC
100
AcDbEntity
  8
ASSI
100
AcDbPolyline
 62
253
  6
CONTINUOUS
 90
12
 70
0
 10
141.2679297981
 20
88.271931618
 10
141.2718572673
 20
88.2061386918
 10
141.2792287637
 20
88.1436351663
 10
141.2900039761
 20
88.0847298369
 10
141.3041169918
 20
88.0297209257
 10
141.3214992207
 20
87.9788737888
 10
141.3420822085
 20
87.9324225365
 10
141.3657569517
 20
87.89059987
 10
141.3924011257
 20
87.8536200249
 10
141.4219038378
 20
87.8216587026
 10
141.4541069421
 20
87.7948817193
 10
141.4882121871
 20
87.7738170539
  0
LWPOLYLINE
  5
2FD
100
AcDbEntity
  8
0
100
AcDbPolyline
 62
253
  6
CONTINUOUS
 90
12
 70
0
 10
141.2679297981
 20
88.271931618
 10
141.2718572673
 20
88.2061386918
 10
141.2792287637
 20
88.1436351663
 10
141.2900039761
 20
88.0847298369
 10
141.3041169918
 20
88.0297209257
 10
141.3214992207
 20
87.9788737888
 10
141.3420822085
 20
87.9324225365
 10
141.3657569517
 20
87.89059987
 10
141.3924011257
 20
87.8536200249
 10
141.4219038378
 20
87.8216587026
 10
141.4541069421
 20
87.7948817193
 10
141.4882121871
 20
87.7738170539
  0
LWPOLYLINE
  5
2FE
100
AcDbEntity
  8
ASSI
100
AcDbPolyline
 62
253
  6
CONTINUOUS
 90
16
 70
0
 10
140.5618043225
 20
105.0778643748
 10
140.5593862797
 20
105.1208750448
 10
140.5526643145
 20
105.1654019083
 10
140.5416679226
 20
105.210976774
 10
140.5264552327
 20
105.2571629868
 10
140.5071616683
 20
105.303406754
 10
140.4840429181
 20
105.3490463568
 10
140.4573868886
 20
105.3935272966
 10
140.42746112
 20
105.4364151381
 10
140.3945857157
 20
105.4772483544
 10
140.3591135421
 20
105.5155825261
 10
140.3214384346
 20
105.5509863484
 10
140.281984418
 20
105.5830593083
 10
140.2411895886
 20
105.6114458793
 10
140.1994995471
 20
105.6358365867
 10
140.1573732247
 20
105.6559629034
  0
LWPOLYLINE
  5
2FF
100
AcDbEntity
  8
0
100
AcDbPolyline
 62
253
  6
CONTINUOUS
 90
16
 70
0
 10
140.5618043225
 20
105.0778643748
 10
140.5593862797
 20
105.1208750448
 10
140.5526643145
 20
105.1654019083
 10
140.5416679226
 20
105.210976774
 10
140.5264552327
 20
105.2571629868
 10
140.5071616683
 20
105.303406754
 10
140.4840429181
 20
105.3490463568
 10
140.4573868886
 20
105.3935272966
 10
140.42746112
 20
105.4364151381
 10
140.3945857157
 20
105.4772483544
 10
140.3591135421
 20
105.5155825261
 10
140.3214384346
 20
105.5509863484
 10
140.281984418
 20
105.5830593083
 10
140.2411895886
 20
105.6114458793
 10
140.1994995471
 20
105.6358365867
 10
140.1573732247
 20
105.6559629034
  0
LWPOLYLINE
  5
300
100
AcDbEntity
  8
0
100
AcDbPolyline
 62
253
  6
CONTINUOUS
 90
10
 70
0
 10
139.9090842678
 20
106.2107968073
 10
139.9108539378
 20
106.1686164956
 10
139.9147706391
 20
106.1306960862
 10
139.9210325658
 20
106.0967073714
 10
139.9302290875
 20
106.0662277411
 10
139.942223461
 20
106.0395901203
 10
139.9561500048
 20
106.0176940297
 10
139.9723012393
 20
106.0006700783
 10
139.9909314791
 20
105.988430234
 10
140.0019377576
 20
105.9838783273
  0
LWPOLYLINE
  5
301
100
AcDbEntity
  8
ASSI
100
AcDbPolyline
 62
253
  6
CONTINUOUS
 90
10
 70
0
 10
139.9090842678
 20
106.2107968073
 10
139.9108539378
 20
106.1686164956
 10
139.9147706391
 20
106.1306960862
 10
139.9210325658
 20
106.0967073714
 10
139.9302290875
 20
106.0662277411
 10
139.942223461
 20
106.0395901203
 10
139.9561500048
 20
106.0176940297
 10
139.9723012393
 20
106.0006700783
 10
139.9909314791
 20
105.988430234
 10
140.0019377576
 20
105.9838783273
  0
LWPOLYLINE
  5
302
100
AcDbEntity
  8
ASSI
100
AcDbPolyline
 62
7
  6
CONTINUOUS
 90
14
 70
0
 10
141.0814748199
 20
88.4975824134
 10
141.0824903572
 20
88.472219391
 10
141.0903601985
 20
88.3826037849
 10
141.1044898278
 20
88.2985760776
 10
141.1245681009
 20
88.2200136141
 10
141.1503749892
 20
88.1466135005
 10
141.1817357061
 20
88.0782660783
 10
141.2183241454
 20
88.015185915
 10
141.2598563089
 20
87.9574508989
 10
141.3060542104
 20
87.9051802949
 10
141.3563709474
 20
87.8587524162
 10
141.4103045427
 20
87.8183551474
 10
141.4675124475
 20
87.784045092
 10
141.5020623085
 20
87.7669735103
  0
LWPOLYLINE
  5
303
100
AcDbEntity
  8
0
100
AcDbPolyline
 62
7
  6
CONTINUOUS
 90
14
 70
0
 10
141.0814748199
 20
88.4975824134
 10
141.0824903572
 20
88.472219391
 10
141.0903601985
 20
88.3826037849
 10
141.1044898278
 20
88.2985760776
 10
141.1245681009
 20
88.2200136141
 10
141.1503749892
 20
88.1466135005
 10
141.1817357061
 20
88.0782660783
 10
141.2183241454
 20
88.015185915
 10
141.2598563089
 20
87.9574508989
 10
141.3060542104
 20
87.9051802949
 10
141.3563709474
 20
87.8587524162
 10
141.4103045427
 20
87.8183551474
 10
141.4675124475
 20
87.784045092
 10
141.5020623085
 20
87.7669735103
  0
LWPOLYLINE
  5
304
100
AcDbEntity
  8
ASSI
100
AcDbPolyline
 62
253
  6
CONTINUOUS
 90
9
 70
0
 10
141.012767869
 20
105.7675326685
 10
141.0141692804
 20
105.7255017375
 10
141.0194824646
 20
105.6870214459
 10
141.0282599672
 20
105.6520229354
 10
141.0400400026
 20
105.6205058096
 10
141.0549843135
 20
105.5926831486
 10
141.0733569649
 20
105.5690007815
 10
141.094347317
 20
105.5500324566
 10
141.1173799724
 20
105.5360422672
  0
LWPOLYLINE
  5
305
100
AcDbEntity
  8
0
100
AcDbPolyline
 62
253
  6
CONTINUOUS
 90
9
 70
0
 10
141.012767869
 20
105.7675326685
 10
141.0141692804
 20
105.7255017375
 10
141.0194824646
 20
105.6870214459
 10
141.0282599672
 20
105.6520229354
 10
141.0400400026
 20
105.6205058096
 10
141.0549843135
 20
105.5926831486
 10
141.0733569649
 20
105.5690007815
 10
141.094347317
 20
105.5500324566
 10
141.1173799724
 20
105.5360422672
  0
LWPOLYLINE
  5
306
100
AcDbEntity
  8
ASSI
100
AcDbPolyline
 62
253
  6
CONTINUOUS
 90
10
 70
0
 10
140.8288382947
 20
88.8056752092
 10
140.7733557798
 20
90.6568588392
 10
140.7245795099
 20
92.4819973902
 10
140.6825094849
 20
94.2810908623
 10
140.6474833403
 20
96.0338000206
 10
140.6191634406
 20
97.7604641
 10
140.5965368797
 20
99.5221008046
 10
140.5792660219
 20
101.3390493694
 10
140.5676885029
 20
103.1909705594
 10
140.5618043225
 20
105.0778643748
  0
LWPOLYLINE
  5
307
100
AcDbEntity
  8
0
100
AcDbPolyline
 62
253
  6
CONTINUOUS
 90
10
 70
0
 10
140.8288382947
 20
88.8056752092
 10
140.7733557798
 20
90.6568588392
 10
140.7245795099
 20
92.4819973902
 10
140.6825094849
 20
94.2810908623
 10
140.6474833403
 20
96.0338000206
 10
140.6191634406
 20
97.7604641
 10
140.5965368797
 20
99.5221008046
 10
140.5792660219
 20
101.3390493694
 10
140.5676885029
 20
103.1909705594
 10
140.5618043225
 20
105.0778643748
  0
LWPOLYLINE
  5
308
100
AcDbEntity
  8
ASSI
100
AcDbPolyline
 62
253
  6
CONTINUOUS
 90
10
 70
0
 10
140.1684615857
 20
88.7135028117
 10
140.1140600644
 20
90.565533098
 10
140.0667827883
 20
92.3921649728
 10
140.0263210632
 20
94.1930883149
 10
139.9927270938
 20
95.9476298549
 10
139.965218287
 20
97.675758845
 10
139.9428176006
 20
99.4386318752
 10
139.9256509981
 20
101.2569916168
 10
139.9143065845
 20
103.1106211646
 10
139.9090841466
 20
104.9997286747
  0
LWPOLYLINE
  5
309
100
AcDbEntity
  8
0
100
AcDbPolyline
 62
253
  6
CONTINUOUS
 90
10
 70
0
 10
140.1684615857
 20
88.7135028117
 10
140.1140600644
 20
90.565533098
 10
140.0667827883
 20
92.3921649728
 10
140.0263210632
 20
94.1930883149
 10
139.9927270938
 20
95.9476298549
 10
139.965218287
 20
97.675758845
 10
139.9428176006
 20
99.4386318752
 10
139.9256509981
 20
101.2569916168
 10
139.9143065845
 20
103.1106211646
 10
139.9090841466
 20
104.9997286747
  0
LWPOLYLINE
  5
30A
100
AcDbEntity
  8
ASSI
100
AcDbPolyline
 62
7
  6
CONTINUOUS
 90
10
 70
0
 10
140.8334601715
 20
104.7766001361
 10
140.8379826415
 20
103.0000486838
 10
140.848360906
 20
101.1624028268
 10
140.8645322643
 20
99.329675467
 10
140.886497326
 20
97.5019061525
 10
140.9142562407
 20
95.6791319739
 10
140.9478091499
 20
93.8613890274
 10
140.9871555125
 20
92.0487185527
 10
141.0322941632
 20
90.2411664754
 10
141.0814630338
 20
88.4977655113
  0
LWPOLYLINE
  5
30B
100
AcDbEntity
  8
0
100
AcDbPolyline
 62
7
  6
CONTINUOUS
 90
10
 70
0
 10
140.8334601715
 20
104.7766001361
 10
140.8379826415
 20
103.0000486838
 10
140.848360906
 20
101.1624028268
 10
140.8645322643
 20
99.329675467
 10
140.886497326
 20
97.5019061525
 10
140.9142562407
 20
95.6791319739
 10
140.9478091499
 20
93.8613890274
 10
140.9871555125
 20
92.0487185527
 10
141.0322941632
 20
90.2411664754
 10
141.0814630338
 20
88.4977655113
  0
LWPOLYLINE
  5
30C
100
AcDbEntity
  8
ASSI
100
AcDbPolyline
 62
253
  6
CONTINUOUS
 90
10
 70
0
 10
141.0127680376
 20
104.5564643459
 10
141.0170619887
 20
102.8674238352
 10
141.0265320466
 20
101.1574915904
 10
141.0414069344
 20
99.4268898309
 10
141.0617469202
 20
97.6890152115
 10
141.0878745782
 20
95.9308607167
 10
141.1207936814
 20
94.1133716414
 10
141.1614388675
 20
92.2240723214
 10
141.2102569517
 20
90.2767112124
 10
141.2679297921
 20
88.2719316071
  0
LWPOLYLINE
  5
30D
100
AcDbEntity
  8
0
100
AcDbPolyline
 62
253
  6
CONTINUOUS
 90
10
 70
0
 10
141.0127680376
 20
104.5564643459
 10
141.0170619887
 20
102.8674238352
 10
141.0265320466
 20
101.1574915904
 10
141.0414069344
 20
99.4268898309
 10
141.0617469202
 20
97.6890152115
 10
141.0878745782
 20
95.9308607167
 10
141.1207936814
 20
94.1133716414
 10
141.1614388675
 20
92.2240723214
 10
141.2102569517
 20
90.2767112124
 10
141.2679297921
 20
88.2719316071
  0
LWPOLYLINE
  5
30E
100
AcDbEntity
  8
0
100
AcDbPolyline
 62
253
  6
CONTINUOUS
 90
10
 70
0
 10
140.5618042648
 20
106.2876903544
 10
140.5658962238
 20
107.9818117361
 10
140.5758893716
 20
109.7055860021
 10
140.5917837081
 20
111.4590131522
 10
140.6129213217
 20
113.2283312404
 10
140.6399601241
 20
115.0273022127
 10
140.6748738499
 20
116.897211908
 10
140.7183204107
 20
118.8518222723
 10
140.7696418949
 20
120.8773713596
 10
140.8288383025
 20
122.9738591697
  0
LWPOLYLINE
  5
30F
100
AcDbEntity
  8
ASSI
100
AcDbPolyline
 62
253
  6
CONTINUOUS
 90
10
 70
0
 10
140.5618042648
 20
106.2876903544
 10
140.5658962238
 20
107.9818117361
 10
140.5758893716
 20
109.7055860021
 10
140.5917837081
 20
111.4590131522
 10
140.6129213217
 20
113.2283312404
 10
140.6399601241
 20
115.0273022127
 10
140.6748738499
 20
116.897211908
 10
140.7183204107
 20
118.8518222723
 10
140.7696418949
 20
120.8773713596
 10
140.8288383025
 20
122.9738591697
  0
LWPOLYLINE
  5
310
100
AcDbEntity
  8
0
100
AcDbPolyline
 62
253
  6
CONTINUOUS
 90
5
 70
0
 10
139.9090841365
 20
106.2107969186
 10
139.9134440852
 20
107.9069262889
 10
139.9230734045
 20
109.6325038276
 10
139.9382008175
 20
111.3876820332
 10
139.9588768064
 20
113.159154972
  0
LWPOLYLINE
  5
311
100
AcDbEntity
  8
ASSI
100
AcDbPolyline
 62
253
  6
CONTINUOUS
 90
5
 70
0
 10
139.9090841365
 20
106.2107969186
 10
139.9134440852
 20
107.9069262889
 10
139.9230734045
 20
109.6325038276
 10
139.9382008175
 20
111.3876820332
 10
139.9588768064
 20
113.159154972
  0
LINE
  5
312
100
AcDbEntity
  8
0
100
AcDbLine
 62
253
  6
CONTINUOUS
 10
139.9588768064
 20
113.159154972
 11
139.9854337313
 21
114.9604661506
  0
LINE
  5
313
100
AcDbEntity
  8
ASSI
100
AcDbLine
 62
253
  6
CONTINUOUS
 10
139.9588768064
 20
113.159154972
 11
139.9854337313
 21
114.9604661506
  0
LWPOLYLINE
  5
314
100
AcDbEntity
  8
0
100
AcDbPolyline
 62
253
  6
CONTINUOUS
 90
5
 70
0
 10
139.9854337313
 20
114.9604661506
 10
140.018904723
 20
116.8323388079
 10
140.0602342051
 20
118.788787845
 10
140.109859207
 20
120.8167888092
 10
140.1684615865
 20
122.9168154986
  0
LWPOLYLINE
  5
315
100
AcDbEntity
  8
ASSI
100
AcDbPolyline
 62
253
  6
CONTINUOUS
 90
5
 70
0
 10
139.9854337313
 20
114.9604661506
 10
140.018904723
 20
116.8323388079
 10
140.0602342051
 20
118.788787845
 10
140.109859207
 20
120.8167888092
 10
140.1684615865
 20
122.9168154986
  0
LWPOLYLINE
  5
316
100
AcDbEntity
  8
ASSI
100
AcDbPolyline
 62
7
  6
CONTINUOUS
 90
10
 70
0
 10
141.0814417926
 20
122.6950034925
 10
141.0324205994
 20
120.8721777614
 10
140.9872696238
 20
118.9865777087
 10
140.9479099048
 20
117.1058752778
 10
140.9143426321
 20
115.2301165082
 10
140.8865683509
 20
113.3593413411
 10
140.8645873825
 20
111.4935873933
 10
140.8483998437
 20
109.6328926927
 10
140.8380048169
 20
107.7772962637
 10
140.8334602242
 20
105.9874543803
  0
LWPOLYLINE
  5
317
100
AcDbEntity
  8
0
100
AcDbPolyline
 62
7
  6
CONTINUOUS
 90
10
 70
0
 10
141.0814417926
 20
122.6950034925
 10
141.0324205994
 20
120.8721777614
 10
140.9872696238
 20
118.9865777087
 10
140.9479099048
 20
117.1058752778
 10
140.9143426321
 20
115.2301165082
 10
140.8865683509
 20
113.3593413411
 10
140.8645873825
 20
111.4935873933
 10
140.8483998437
 20
109.6328926927
 10
140.8380048169
 20
107.7772962637
 10
140.8334602242
 20
105.9874543803
  0
LWPOLYLINE
  5
318
100
AcDbEntity
  8
ASSI
100
AcDbPolyline
 62
253
  6
CONTINUOUS
 90
10
 70
0
 10
141.2679297937
 20
122.4752442946
 10
141.2143991776
 20
120.5348011773
 10
141.1678886028
 20
118.6313427927
 10
141.1280893751
 20
116.7646735271
 10
141.0950489261
 20
114.955548267
 10
141.0679894358
 20
113.1827195448
 10
141.0459481806
 20
111.3834418073
 10
141.0290558973
 20
109.5371826598
 10
141.0178959178
 20
107.6651185923
 10
141.0127680287
 20
105.7675325906
  0
LWPOLYLINE
  5
319
100
AcDbEntity
  8
0
100
AcDbPolyline
 62
253
  6
CONTINUOUS
 90
10
 70
0
 10
141.2679297937
 20
122.4752442946
 10
141.2143991776
 20
120.5348011773
 10
141.1678886028
 20
118.6313427927
 10
141.1280893751
 20
116.7646735271
 10
141.0950489261
 20
114.955548267
 10
141.0679894358
 20
113.1827195448
 10
141.0459481806
 20
111.3834418073
 10
141.0290558973
 20
109.5371826598
 10
141.0178959178
 20
107.6651185923
 10
141.0127680287
 20
105.7675325906
  0
LWPOLYLINE
  5
31A
100
AcDbEntity
  8
ASSI
100
AcDbPolyline
 62
253
  6
CONTINUOUS
 90
16
 70
0
 10
141.0127678153
 20
104.5564643826
 10
141.0141692492
 20
104.6012423105
 10
141.0194828229
 20
104.6467237185
 10
141.0282609505
 20
104.6930325246
 10
141.0400416674
 20
104.7406957028
 10
141.0549866813
 20
104.7894007778
 10
141.0733600989
 20
104.8377554478
 10
141.0943510979
 20
104.8852045358
 10
141.1176294461
 20
104.9317738856
 10
141.1436887143
 20
104.9765931556
 10
141.1717727132
 20
105.0191287496
 10
141.2011751048
 20
105.0591590169
 10
141.2324234816
 20
105.0960789456
 10
141.2652021819
 20
105.1294214892
 10
141.2983061307
 20
105.1590007309
 10
141.330957239
 20
105.184625037
  0
LWPOLYLINE
  5
31B
100
AcDbEntity
  8
0
100
AcDbPolyline
 62
253
  6
CONTINUOUS
 90
16
 70
0
 10
141.0127678153
 20
104.5564643826
 10
141.0141692492
 20
104.6012423105
 10
141.0194828229
 20
104.6467237185
 10
141.0282609505
 20
104.6930325246
 10
141.0400416674
 20
104.7406957028
 10
141.0549866813
 20
104.7894007778
 10
141.0733600989
 20
104.8377554478
 10
141.0943510979
 20
104.8852045358
 10
141.1176294461
 20
104.9317738856
 10
141.1436887143
 20
104.9765931556
 10
141.1717727132
 20
105.0191287496
 10
141.2011751048
 20
105.0591590169
 10
141.2324234816
 20
105.0960789456
 10
141.2652021819
 20
105.1294214892
 10
141.2983061307
 20
105.1590007309
 10
141.330957239
 20
105.184625037
  0
LWPOLYLINE
  5
31C
100
AcDbEntity
  8
ASSI
100
AcDbPolyline
 62
253
  6
CONTINUOUS
 90
16
 70
0
 10
139.9090843259
 20
104.999728613
 10
139.9108537626
 20
105.0443569507
 10
139.9147702075
 20
105.0903977118
 10
139.9210318176
 20
105.1377155422
 10
139.9302278375
 20
105.1864152466
 10
139.9422215724
 20
105.2363042628
 10
139.9561475759
 20
105.2864441391
 10
139.9722983909
 20
105.3358367271
 10
139.9909282701
 20
105.3842731007
 10
140.0110253141
 20
105.4314874872
 10
140.0326692667
 20
105.4766105743
 10
140.0560924882
 20
105.519043634
 10
140.0803418015
 20
105.5587761443
 10
140.1051053064
 20
105.595339419
 10
140.130775543
 20
105.6279058561
 10
140.1573732247
 20
105.6559629034
  0
LWPOLYLINE
  5
31D
100
AcDbEntity
  8
0
100
AcDbPolyline
 62
253
  6
CONTINUOUS
 90
16
 70
0
 10
139.9090843259
 20
104.999728613
 10
139.9108537626
 20
105.0443569507
 10
139.9147702075
 20
105.0903977118
 10
139.9210318176
 20
105.1377155422
 10
139.9302278375
 20
105.1864152466
 10
139.9422215724
 20
105.2363042628
 10
139.9561475759
 20
105.2864441391
 10
139.9722983909
 20
105.3358367271
 10
139.9909282701
 20
105.3842731007
 10
140.0110253141
 20
105.4314874872
 10
140.0326692667
 20
105.4766105743
 10
140.0560924882
 20
105.519043634
 10
140.0803418015
 20
105.5587761443
 10
140.1051053064
 20
105.595339419
 10
140.130775543
 20
105.6279058561
 10
140.1573732247
 20
105.6559629034
  0
LWPOLYLINE
  5
31E
100
AcDbEntity
  8
0
100
AcDbPolyline
 62
253
  6
CONTINUOUS
 90
22
 70
0
 10
140.1684616011
 20
122.9168155045
 10
140.1720695056
 20
122.9887810475
 10
140.1789849623
 20
123.0629877598
 10
140.1891766069
 20
123.139068133
 10
140.2026043771
 20
123.2166371353
 10
140.2192007836
 20
123.2953179408
 10
140.2388732601
 20
123.374744539
 10
140.2615396731
 20
123.4545276583
 10
140.2870940293
 20
123.5342660362
 10
140.3153893429
 20
123.6135727294
 10
140.3463015113
 20
123.6920507174
 10
140.3796888387
 20
123.7693096477
 10
140.4153600892
 20
123.8449777547
 10
140.4531583421
 20
123.9186764422
 10
140.492909642
 20
123.990034941
 10
140.5343824753
 20
124.0587073501
 10
140.5773884885
 20
124.1243440035
 10
140.6217338765
 20
124.186618288
 10
140.6671686145
 20
124.2452400788
 10
140.7134708762
 20
124.299919298
 10
140.7604475648
 20
124.3503686608
 10
140.8078858896
 20
124.3963297637
  0
LWPOLYLINE
  5
31F
100
AcDbEntity
  8
ASSI
100
AcDbPolyline
 62
253
  6
CONTINUOUS
 90
22
 70
0
 10
140.1684616011
 20
122.9168155045
 10
140.1720695056
 20
122.9887810475
 10
140.1789849623
 20
123.0629877598
 10
140.1891766069
 20
123.139068133
 10
140.2026043771
 20
123.2166371353
 10
140.2192007836
 20
123.2953179408
 10
140.2388732601
 20
123.374744539
 10
140.2615396731
 20
123.4545276583
 10
140.2870940293
 20
123.5342660362
 10
140.3153893429
 20
123.6135727294
 10
140.3463015113
 20
123.6920507174
 10
140.3796888387
 20
123.7693096477
 10
140.4153600892
 20
123.8449777547
 10
140.4531583421
 20
123.9186764422
 10
140.492909642
 20
123.990034941
 10
140.5343824753
 20
124.0587073501
 10
140.5773884885
 20
124.1243440035
 10
140.6217338765
 20
124.186618288
 10
140.6671686145
 20
124.2452400788
 10
140.7134708762
 20
124.299919298
 10
140.7604475648
 20
124.3503686608
 10
140.8078858896
 20
124.3963297637
  0
LWPOLYLINE
  5
320
100
AcDbEntity
  8
0
100
AcDbPolyline
 62
253
  6
CONTINUOUS
 90
22
 70
0
 10
140.8288383025
 20
122.9738591697
 10
140.8311457882
 20
123.0159072695
 10
140.8354488235
 20
123.0588581467
 10
140.8417474084
 20
123.1027118014
 10
140.8500918172
 20
123.147711016
 10
140.8604317756
 20
123.193613008
 10
140.8726164608
 20
123.2396894302
 10
140.8866722485
 20
123.2859248278
 10
140.9025727629
 20
123.3323346556
 10
140.9200880546
 20
123.3782369309
 10
140.9392438906
 20
123.4236273164
 10
140.9600145039
 20
123.4685101494
 10
140.9820926436
 20
123.5122164594
 10
141.0054977548
 20
123.5547272037
 10
141.0302103924
 20
123.5960614251
 10
141.0558649699
 20
123.6356072817
 10
141.0824884526
 20
123.6733490211
 10
141.1100538751
 20
123.7093023957
 10
141.1381147549
 20
123.7429028207
 10
141.1665222644
 20
123.7739621009
 10
141.1954252313
 20
123.8026684314
 10
141.2248236555
 20
123.8290218121
  0
LWPOLYLINE
  5
321
100
AcDbEntity
  8
ASSI
100
AcDbPolyline
 62
253
  6
CONTINUOUS
 90
22
 70
0
 10
140.8288383025
 20
122.9738591697
 10
140.8311457882
 20
123.0159072695
 10
140.8354488235
 20
123.0588581467
 10
140.8417474084
 20
123.1027118014
 10
140.8500918172
 20
123.147711016
 10
140.8604317756
 20
123.193613008
 10
140.8726164608
 20
123.2396894302
 10
140.8866722485
 20
123.2859248278
 10
140.9025727629
 20
123.3323346556
 10
140.9200880546
 20
123.3782369309
 10
140.9392438906
 20
123.4236273164
 10
140.9600145039
 20
123.4685101494
 10
140.9820926436
 20
123.5122164594
 10
141.0054977548
 20
123.5547272037
 10
141.0302103924
 20
123.5960614251
 10
141.0558649699
 20
123.6356072817
 10
141.0824884526
 20
123.6733490211
 10
141.1100538751
 20
123.7093023957
 10
141.1381147549
 20
123.7429028207
 10
141.1665222644
 20
123.7739621009
 10
141.1954252313
 20
123.8026684314
 10
141.2248236555
 20
123.8290218121
  0
LWPOLYLINE
  5
322
100
AcDbEntity
  8
0
100
AcDbPolyline
 62
253
  6
CONTINUOUS
 90
8
 70
0
 10
140.561804265
 20
106.2876903545
 10
140.5593862177
 20
106.2460892321
 10
140.552664242
 20
106.206630062
 10
140.5416678366
 20
106.1697629756
 10
140.5264551332
 20
106.1358815946
 10
140.507161558
 20
106.1054323555
 10
140.4840428005
 20
106.0788684037
 10
140.4634993917
 20
106.0610222296
  0
LWPOLYLINE
  5
323
100
AcDbEntity
  8
ASSI
100
AcDbPolyline
 62
253
  6
CONTINUOUS
 90
8
 70
0
 10
140.561804265
 20
106.2876903545
 10
140.5593862177
 20
106.2460892321
 10
140.552664242
 20
106.206630062
 10
140.5416678366
 20
106.1697629756
 10
140.5264551332
 20
106.1358815946
 10
140.507161558
 20
106.1054323555
 10
140.4840428005
 20
106.0788684037
 10
140.4634993917
 20
106.0610222296
  0
LINE
  5
324
100
AcDbEntity
  8
ASSI
100
AcDbLine
 62
253
  6
CONTINUOUS
 10
140.8339708321
 20
106.1885521459
 11
140.1573732248
 21
105.6559629036
  0
LINE
  5
325
100
AcDbEntity
  8
0
100
AcDbLine
 62
253
  6
CONTINUOUS
 10
140.8339708321
 20
106.1885521459
 11
140.1573732248
 21
105.6559629036
  0
LINE
  5
326
100
AcDbEntity
  8
0
100
AcDbLine
 62
253
  6
CONTINUOUS
 10
140.4634993917
 20
106.0610222296
 11
140.463207656
 21
106.0607992063
  0
LINE
  5
327
100
AcDbEntity
  8
ASSI
100
AcDbLine
 62
253
  6
CONTINUOUS
 10
140.4634993917
 20
106.0610222296
 11
140.463207656
 21
106.0607992063
  0
LINE
  5
328
100
AcDbEntity
  8
0
100
AcDbLine
 62
253
  6
CONTINUOUS
 10
140.5618042648
 20
106.2876903544
 11
140.8347514346
 21
106.4959845548
  0
LINE
  5
329
100
AcDbEntity
  8
ASSI
100
AcDbLine
 62
253
  6
CONTINUOUS
 10
140.5618042648
 20
106.2876903544
 11
140.8347514346
 21
106.4959845548
  0
LINE
  5
32A
100
AcDbEntity
  8
0
100
AcDbLine
 62
7
  6
CONTINUOUS
 10
140.4632055117
 20
106.0607975699
 11
140.8343656344
 21
106.3440410307
  0
LINE
  5
32B
100
AcDbEntity
  8
ASSI
100
AcDbLine
 62
7
  6
CONTINUOUS
 10
140.4632055117
 20
106.0607975699
 11
140.8343656344
 21
106.3440410307
  0
LWPOLYLINE
  5
32C
100
AcDbEntity
  8
0
100
AcDbPolyline
 62
253
  6
CONTINUOUS
 90
79
 70
0
 10
146.0146089267
 20
111.3088793108
 10
146.0070476721
 20
111.3041899223
 10
145.9998430377
 20
111.2990924345
 10
145.9929851421
 20
111.2935980275
 10
145.9864641036
 20
111.2877178813
 10
145.9802700408
 20
111.2814631757
 10
145.9743930721
 20
111.2748450908
 10
145.9688258671
 20
111.2678733744
 10
145.9635712996
 20
111.2605520459
 10
145.9586347948
 20
111.2528836925
 10
145.9540217777
 20
111.2448709015
 10
145.9497376732
 20
111.2365162601
 10
145.9457879065
 20
111.2278223557
 10
145.9421790426
 20
111.2187923132
 10
145.9389222075
 20
111.2094314092
 10
145.9360296671
 20
111.1997454579
 10
145.9335145018
 20
111.1897342552
 10
145.93139305
 20
111.179373523
 10
145.9296824646
 20
111.1686329649
 10
145.9284013347
 20
111.1574943555
 10
145.9275739938
 20
111.1459877544
 10
145.9272262114
 20
111.1341552921
 10
145.9273807492
 20
111.1220320557
 10
145.9280483365
 20
111.1096249584
 10
145.9292366942
 20
111.0969338702
 10
145.9309509832
 20
111.0839671265
 10
145.9331861219
 20
111.0707669265
 10
145.9359344686
 20
111.057383935
 10
145.9391883813
 20
111.0438688171
 10
145.942940218
 20
111.0302722376
 10
145.947182337
 20
111.0166448616
 10
145.9519051358
 20
111.0030344583
 10
145.9570911696
 20
110.9894772147
 10
145.9627210331
 20
110.9760064223
 10
145.9687753212
 20
110.9626553724
 10
145.9752346284
 20
110.9494573566
 10
145.9820795496
 20
110.9364456661
 10
145.9892948692
 20
110.9236472934
 10
145.9968821304
 20
110.9110640349
 10
146.0048470662
 20
110.8986913881
 10
146.0131954096
 20
110.8865248505
 10
146.0219328935
 20
110.8745599193
 10
146.0310652509
 20
110.8627920922
 10
146.0405914004
 20
110.8512245245
 10
146.0504830024
 20
110.8398910038
 10
146.0607049028
 20
110.8288329755
 10
146.0712219479
 20
110.8180918853
 10
146.0819989834
 20
110.8077091785
 10
146.0930008556
 20
110.7977263007
 10
146.1041912295
 20
110.7881812357
 10
146.1155290466
 20
110.7790981199
 10
146.1269720677
 20
110.7704976281
 10
146.1384780535
 20
110.7624004349
 10
146.1500047647
 20
110.754827215
 10
146.1615099618
 20
110.7477986432
 10
146.1729589782
 20
110.7413300534
 10
146.184347437
 20
110.7354154162
 10
146.1956785338
 20
110.7300433616
 10
146.2069483595
 20
110.7252035025
 10
146.218124585
 20
110.7208893844
 10
146.2291677765
 20
110.7170955357
 10
146.2400477595
 20
110.7138134893
 10
146.2507713972
 20
110.7110227962
 10
146.2613548121
 20
110.7087000116
 10
146.2718107695
 20
110.7068247428
 10
146.2821386043
 20
110.7053888041
 10
146.2923342942
 20
110.7043870616
 10
146.302392773
 20
110.7038150241
 10
146.312304799
 20
110.7036707712
 10
146.3220600868
 20
110.7039530254
 10
146.3316483511
 20
110.704660509
 10
146.3410593062
 20
110.7057919445
 10
146.3502826669
 20
110.7073460542
 10
146.3593088672
 20
110.7093242074
 10
146.3681312184
 20
110.7117383602
 10
146.3767437517
 20
110.7146031157
 10
146.385140498
 20
110.7179330768
 10
146.3933154881
 20
110.7217428466
 10
146.4012627532
 20
110.7260470281
  0
LWPOLYLINE
  5
32D
100
AcDbEntity
  8
0
100
AcDbPolyline
 62
253
  6
CONTINUOUS
 90
16
 70
0
 10
146.4012627532
 20
110.7260470281
 10
146.5833295744
 20
110.8301577017
 10
146.7674052043
 20
110.9316900069
 10
146.9535030794
 20
111.0306598066
 10
147.1416366367
 20
111.1270829636
 10
147.3318193128
 20
111.2209753408
 10
147.524055199
 20
111.3123474287
 10
147.7183110054
 20
111.4011882284
 10
147.9145440965
 20
111.4874813684
 10
148.1127118367
 20
111.5712104775
 10
148.3127715908
 20
111.6523591843
 10
148.5146910845
 20
111.7309144328
 10
148.7184794897
 20
111.8068764278
 10
148.9241563393
 20
111.8802486895
 10
149.1317411665
 20
111.9510347381
 10
149.3412535044
 20
112.0192380938
  0
LWPOLYLINE
  5
32E
100
AcDbEntity
  8
0
100
AcDbPolyline
 62
7
  6
CONTINUOUS
 90
11
 70
0
 10
140.0019774253
 20
105.9838651044
 10
140.0433617311
 20
105.9720435573
 10
140.0914633594
 20
105.9629809004
 10
140.1403945921
 20
105.9586581843
 10
140.18969509
 20
105.9591685045
 10
140.2388495115
 20
105.9645547582
 10
140.2874055418
 20
105.9748158302
 10
140.3348723209
 20
105.9899023588
 10
140.3807374734
 20
106.0097028791
 10
140.4245181781
 20
106.0340563745
 10
140.4634993917
 20
106.0610222296
  0
LWPOLYLINE
  5
32F
100
AcDbEntity
  8
ASSI
100
AcDbPolyline
 62
7
  6
CONTINUOUS
 90
11
 70
0
 10
140.0019774253
 20
105.9838651044
 10
140.0433617311
 20
105.9720435573
 10
140.0914633594
 20
105.9629809004
 10
140.1403945921
 20
105.9586581843
 10
140.18969509
 20
105.9591685045
 10
140.2388495115
 20
105.9645547582
 10
140.2874055418
 20
105.9748158302
 10
140.3348723209
 20
105.9899023588
 10
140.3807374734
 20
106.0097028791
 10
140.4245181781
 20
106.0340563745
 10
140.4634993917
 20
106.0610222296
  0
LWPOLYLINE
  5
330
100
AcDbEntity
  8
0
100
AcDbPolyline
 62
253
  6
CONTINUOUS
 90
16
 70
0
 10
139.9090842678
 20
106.2107968073
 10
139.9522819404
 20
106.1979887868
 10
139.9974425528
 20
106.1876419805
 10
140.0441390811
 20
106.1798542243
 10
140.0919299713
 20
106.1746991576
 10
140.1403633353
 20
106.1722255236
 10
140.1889812247
 20
106.1724567126
 10
140.2373239461
 20
106.1753905438
 10
140.2849343629
 20
106.1809992803
 10
140.3313622418
 20
106.1892298821
 10
140.3761685566
 20
106.200004514
 10
140.418929658
 20
106.2132212941
 10
140.4592412328
 20
106.2287552537
 10
140.496722114
 20
106.2464595118
 10
140.5310178881
 20
106.2661666603
 10
140.5618042658
 20
106.2876903551
  0
LWPOLYLINE
  5
331
100
AcDbEntity
  8
ASSI
100
AcDbPolyline
 62
253
  6
CONTINUOUS
 90
16
 70
0
 10
139.9090842678
 20
106.2107968073
 10
139.9522819404
 20
106.1979887868
 10
139.9974425528
 20
106.1876419805
 10
140.0441390811
 20
106.1798542243
 10
140.0919299713
 20
106.1746991576
 10
140.1403633353
 20
106.1722255236
 10
140.1889812247
 20
106.1724567126
 10
140.2373239461
 20
106.1753905438
 10
140.2849343629
 20
106.1809992803
 10
140.3313622418
 20
106.1892298821
 10
140.3761685566
 20
106.200004514
 10
140.418929658
 20
106.2132212941
 10
140.4592412328
 20
106.2287552537
 10
140.496722114
 20
106.2464595118
 10
140.5310178881
 20
106.2661666603
 10
140.5618042658
 20
106.2876903551
  0
LINE
  5
332
100
AcDbEntity
  8
ASSI
100
AcDbLine
 62
7
  6
CONTINUOUS
 10
158.1871131408
 20
98.6803019182
 11
158.1871528085
 21
98.6802886953
  0
LINE
  5
333
100
AcDbEntity
  8
0
100
AcDbLine
 62
7
  6
CONTINUOUS
 10
158.1871131408
 20
98.6803019182
 11
158.1871528085
 21
98.6802886953
  0
LINE
  5
334
100
AcDbEntity
  8
0
100
AcDbLine
 62
7
  6
CONTINUOUS
 10
140.0019377576
 20
105.9838783273
 11
140.0019774253
 21
105.9838651044
  0
LINE
  5
335
100
AcDbEntity
  8
ASSI
100
AcDbLine
 62
7
  6
CONTINUOUS
 10
140.0019377576
 20
105.9838783273
 11
140.0019774253
 21
105.9838651044
  0
LWPOLYLINE
  5
336
100
AcDbEntity
  8
ASSI
100
AcDbPolyline
 62
253
  6
CONTINUOUS
 90
10
 70
0
 10
158.3425486081
 20
98.3523864945
 10
156.3525383612
 20
99.0275000979
 10
154.3872834356
 20
99.723701254
 10
152.4467838314
 20
100.4409899628
 10
150.5307688333
 20
101.1794749563
 10
148.6395091564
 20
101.9390475026
 10
146.7738169467
 20
102.7193814057
 10
144.9339629194
 20
103.5203679337
 10
143.1196763591
 20
104.3421158185
 10
141.330957266
 20
105.1846250602
  0
LWPOLYLINE
  5
337
100
AcDbEntity
  8
0
100
AcDbPolyline
 62
253
  6
CONTINUOUS
 90
10
 70
0
 10
158.3425486081
 20
98.3523864945
 10
156.3525383612
 20
99.0275000979
 10
154.3872834356
 20
99.723701254
 10
152.4467838314
 20
100.4409899628
 10
150.5307688333
 20
101.1794749563
 10
148.6395091564
 20
101.9390475026
 10
146.7738169467
 20
102.7193814057
 10
144.9339629194
 20
103.5203679337
 10
143.1196763591
 20
104.3421158185
 10
141.330957266
 20
105.1846250602
  0
LWPOLYLINE
  5
338
100
AcDbEntity
  8
ASSI
100
AcDbPolyline
 62
253
  6
CONTINUOUS
 90
10
 70
0
 10
139.9090841466
 20
104.9997286747
 10
137.9115416985
 20
105.6773083415
 10
135.9380807467
 20
106.3763841027
 10
133.9890921542
 20
107.096802971
 10
132.0650806335
 20
107.8383627132
 10
130.1663123618
 20
108.6009508342
 10
128.2928245269
 20
109.384552406
 10
126.4448925246
 20
110.1890624305
 10
124.6230204056
 20
111.014278012
 10
122.8275926544
 20
111.860040755
  0
LWPOLYLINE
  5
339
100
AcDbEntity
  8
0
100
AcDbPolyline
 62
253
  6
CONTINUOUS
 90
10
 70
0
 10
139.9090841466
 20
104.9997286747
 10
137.9115416985
 20
105.6773083415
 10
135.9380807467
 20
106.3763841027
 10
133.9890921542
 20
107.096802971
 10
132.0650806335
 20
107.8383627132
 10
130.1663123618
 20
108.6009508342
 10
128.2928245269
 20
109.384552406
 10
126.4448925246
 20
110.1890624305
 10
124.6230204056
 20
111.014278012
 10
122.8275926544
 20
111.860040755
  0
LWPOLYLINE
  5
33A
100
AcDbEntity
  8
ASSI
100
AcDbPolyline
 62
253
  6
CONTINUOUS
 90
10
 70
0
 10
140.1573732248
 20
105.6559629036
 10
138.167362978
 20
106.3310765069
 10
136.2021080524
 20
107.0272776631
 10
134.2616084482
 20
107.7445663719
 10
132.3455934501
 20
108.4830513654
 10
130.4543337732
 20
109.2426239117
 10
128.5886415635
 20
110.0229578148
 10
126.7487875362
 20
110.8239443428
 10
124.9345009759
 20
111.6456922276
 10
123.1457818828
 20
112.4882014693
  0
LWPOLYLINE
  5
33B
100
AcDbEntity
  8
0
100
AcDbPolyline
 62
253
  6
CONTINUOUS
 90
10
 70
0
 10
140.1573732248
 20
105.6559629036
 10
138.167362978
 20
106.3310765069
 10
136.2021080524
 20
107.0272776631
 10
134.2616084482
 20
107.7445663719
 10
132.3455934501
 20
108.4830513654
 10
130.4543337732
 20
109.2426239117
 10
128.5886415635
 20
110.0229578148
 10
126.7487875362
 20
110.8239443428
 10
124.9345009759
 20
111.6456922276
 10
123.1457818828
 20
112.4882014693
  0
LWPOLYLINE
  5
33C
100
AcDbEntity
  8
0
100
AcDbPolyline
 62
253
  6
CONTINUOUS
 90
10
 70
0
 10
122.8275926455
 20
113.0711089997
 10
124.6230193102
 20
112.2279657759
 10
126.4448905865
 20
111.404715022
 10
128.2928220023
 20
110.6015149609
 10
130.1663095191
 20
109.8185683776
 10
132.0650777528
 20
109.0559802254
 10
133.9890895268
 20
108.3137654417
 10
135.9380786752
 20
107.592036585
 10
137.911540496
 20
106.8909960176
 10
139.9090841365
 20
106.2107969186
  0
LWPOLYLINE
  5
33D
100
AcDbEntity
  8
ASSI
100
AcDbPolyline
 62
253
  6
CONTINUOUS
 90
10
 70
0
 10
122.8275926455
 20
113.0711089997
 10
124.6230193102
 20
112.2279657759
 10
126.4448905865
 20
111.404715022
 10
128.2928220023
 20
110.6015149609
 10
130.1663095191
 20
109.8185683776
 10
132.0650777528
 20
109.0559802254
 10
133.9890895268
 20
108.3137654417
 10
135.9380786752
 20
107.592036585
 10
137.911540496
 20
106.8909960176
 10
139.9090841365
 20
106.2107969186
  0
LWPOLYLINE
  5
33E
100
AcDbEntity
  8
ASSI
100
AcDbPolyline
 62
253
  6
CONTINUOUS
 90
10
 70
0
 10
141.0127680287
 20
105.7675325906
 10
142.8081946934
 20
104.9243893668
 10
144.6300659697
 20
104.1011386129
 10
146.4779973856
 20
103.2979385519
 10
148.3514849023
 20
102.5149919685
 10
150.250253136
 20
101.7524038164
 10
152.17426491
 20
101.0101890326
 10
154.1232540584
 20
100.2884601759
 10
156.0967158792
 20
99.5874196085
 10
158.0942595197
 20
98.9072205095
  0
LWPOLYLINE
  5
33F
100
AcDbEntity
  8
0
100
AcDbPolyline
 62
253
  6
CONTINUOUS
 90
10
 70
0
 10
141.0127680287
 20
105.7675325906
 10
142.8081946934
 20
104.9243893668
 10
144.6300659697
 20
104.1011386129
 10
146.4779973856
 20
103.2979385519
 10
148.3514849023
 20
102.5149919685
 10
150.250253136
 20
101.7524038164
 10
152.17426491
 20
101.0101890326
 10
154.1232540584
 20
100.2884601759
 10
156.0967158792
 20
99.5874196085
 10
158.0942595197
 20
98.9072205095
  0
LWPOLYLINE
  5
340
100
AcDbEntity
  8
0
100
AcDbPolyline
 62
7
  6
CONTINUOUS
 90
13
 70
0
 10
122.9323934567
 20
112.8395282355
 10
124.2219717963
 20
112.2306456031
 10
125.5892210071
 20
111.603125881
 10
126.9719662887
 20
110.9867587238
 10
128.369888705
 20
110.3817030796
 10
129.7826909928
 20
109.7881032636
 10
131.2101168729
 20
109.2060651868
 10
132.6518932522
 20
108.6356966835
 10
134.1077470238
 20
108.0771056801
 10
135.577413986
 20
107.530391782
 10
137.0605527563
 20
106.9956636372
 10
138.5567905991
 20
106.4730364755
 10
140.0017928273
 20
105.9839266649
  0
LWPOLYLINE
  5
341
100
AcDbEntity
  8
ASSI
100
AcDbPolyline
 62
7
  6
CONTINUOUS
 90
13
 70
0
 10
122.9323934567
 20
112.8395282355
 10
124.2219717963
 20
112.2306456031
 10
125.5892210071
 20
111.603125881
 10
126.9719662887
 20
110.9867587238
 10
128.369888705
 20
110.3817030796
 10
129.7826909928
 20
109.7881032636
 10
131.2101168729
 20
109.2060651868
 10
132.6518932522
 20
108.6356966835
 10
134.1077470238
 20
108.0771056801
 10
135.577413986
 20
107.530391782
 10
137.0605527563
 20
106.9956636372
 10
138.5567905991
 20
106.4730364755
 10
140.0017928273
 20
105.9839266649
  0
LWPOLYLINE
  5
342
100
AcDbEntity
  8
ASSI
100
AcDbPolyline
 62
7
  6
CONTINUOUS
 90
13
 70
0
 10
141.1175688399
 20
105.5359518264
 10
142.4071471796
 20
104.927069194
 10
143.7743963903
 20
104.2995494719
 10
145.1571416719
 20
103.6831823148
 10
146.5550640882
 20
103.0781266705
 10
147.967866376
 20
102.4845268545
 10
149.3952922561
 20
101.9024887777
 10
150.8370686354
 20
101.3321202745
 10
152.292922407
 20
100.773529271
 10
153.7625893692
 20
100.2268153729
 10
155.2457281395
 20
99.6920872281
 10
156.7419659823
 20
99.1694600664
 10
158.1869682105
 20
98.6803502558
  0
LWPOLYLINE
  5
343
100
AcDbEntity
  8
0
100
AcDbPolyline
 62
7
  6
CONTINUOUS
 90
13
 70
0
 10
141.1175688399
 20
105.5359518264
 10
142.4071471796
 20
104.927069194
 10
143.7743963903
 20
104.2995494719
 10
145.1571416719
 20
103.6831823148
 10
146.5550640882
 20
103.0781266705
 10
147.967866376
 20
102.4845268545
 10
149.3952922561
 20
101.9024887777
 10
150.8370686354
 20
101.3321202745
 10
152.292922407
 20
100.773529271
 10
153.7625893692
 20
100.2268153729
 10
155.2457281395
 20
99.6920872281
 10
156.7419659823
 20
99.1694600664
 10
158.1869682105
 20
98.6803502558
  0
LINE
  5
344
100
AcDbEntity
  8
0
100
AcDbLine
 62
7
  6
CONTINUOUS
 10
122.9322045892
 20
112.8396186762
 11
122.9322594326
 21
112.8395924039
  0
LINE
  5
345
100
AcDbEntity
  8
ASSI
100
AcDbLine
 62
7
  6
CONTINUOUS
 10
122.9322045892
 20
112.8396186762
 11
122.9322594326
 21
112.8395924039
  0
LINE
  5
346
100
AcDbEntity
  8
ASSI
100
AcDbLine
 62
7
  6
CONTINUOUS
 10
141.1173799724
 20
105.5360422672
 11
141.1174348158
 21
105.5360159948
  0
LINE
  5
347
100
AcDbEntity
  8
0
100
AcDbLine
 62
7
  6
CONTINUOUS
 10
141.1173799724
 20
105.5360422672
 11
141.1174348158
 21
105.5360159948
  0
LWPOLYLINE
  5
348
100
AcDbEntity
  8
0
100
AcDbPolyline
 62
7
  6
CONTINUOUS
 90
7
 70
0
 10
122.9322594326
 20
112.8395924039
 10
122.9216870203
 20
112.8448114818
 10
122.8826357348
 20
112.8669245648
 10
122.8458124808
 20
112.8923832238
 10
122.8112417675
 20
112.9211905457
 10
122.7792535484
 20
112.9531507465
 10
122.750195374
 20
112.9879861978
  0
LWPOLYLINE
  5
349
100
AcDbEntity
  8
ASSI
100
AcDbPolyline
 62
7
  6
CONTINUOUS
 90
7
 70
0
 10
122.9322594326
 20
112.8395924039
 10
122.9216870203
 20
112.8448114818
 10
122.8826357348
 20
112.8669245648
 10
122.8458124808
 20
112.8923832238
 10
122.8112417675
 20
112.9211905457
 10
122.7792535484
 20
112.9531507465
 10
122.750195374
 20
112.9879861978
  0
LWPOLYLINE
  5
34A
100
AcDbEntity
  8
ASSI
100
AcDbPolyline
 62
7
  6
CONTINUOUS
 90
7
 70
0
 10
141.1174348158
 20
105.5360159948
 10
141.1068624035
 20
105.5412350727
 10
141.067811118
 20
105.5633481557
 10
141.030987864
 20
105.5888068148
 10
140.9964171507
 20
105.6176141366
 10
140.9644289316
 20
105.6495743374
 10
140.9353707572
 20
105.6844097888
  0
LWPOLYLINE
  5
34B
100
AcDbEntity
  8
0
100
AcDbPolyline
 62
7
  6
CONTINUOUS
 90
7
 70
0
 10
141.1174348158
 20
105.5360159948
 10
141.1068624035
 20
105.5412350727
 10
141.067811118
 20
105.5633481557
 10
141.030987864
 20
105.5888068148
 10
140.9964171507
 20
105.6176141366
 10
140.9644289316
 20
105.6495743374
 10
140.9353707572
 20
105.6844097888
  0
LWPOLYLINE
  5
34C
100
AcDbEntity
  8
ASSI
100
AcDbPolyline
 62
253
  6
CONTINUOUS
 90
10
 70
0
 10
141.0127678153
 20
104.5564643826
 10
140.9770257985
 20
104.5753797187
 10
140.944654105
 20
104.5962025942
 10
140.9159588309
 20
104.6187361145
 10
140.8912113128
 20
104.6427672065
 10
140.8706455504
 20
104.6680686434
 10
140.8544560008
 20
104.6944011953
 10
140.8427957489
 20
104.7215158839
 10
140.8357750649
 20
104.74915631
 10
140.8334601713
 20
104.7766001338
  0
LWPOLYLINE
  5
34D
100
AcDbEntity
  8
0
100
AcDbPolyline
 62
253
  6
CONTINUOUS
 90
10
 70
0
 10
141.0127678153
 20
104.5564643826
 10
140.9770257985
 20
104.5753797187
 10
140.944654105
 20
104.5962025942
 10
140.9159588309
 20
104.6187361145
 10
140.8912113128
 20
104.6427672065
 10
140.8706455504
 20
104.6680686434
 10
140.8544560008
 20
104.6944011953
 10
140.8427957489
 20
104.7215158839
 10
140.8357750649
 20
104.74915631
 10
140.8334601713
 20
104.7766001338
  0
LWPOLYLINE
  5
34E
100
AcDbEntity
  8
0
100
AcDbPolyline
 62
253
  6
CONTINUOUS
 90
79
 70
0
 10
134.2025265061
 20
115.6253414196
 10
134.2104735124
 20
115.6147541657
 10
134.2186728758
 20
115.6044491528
 10
134.2271179214
 20
115.5944186939
 10
134.235801974
 20
115.5846551016
 10
134.2447183584
 20
115.5751506888
 10
134.2538603998
 20
115.5658977682
 10
134.2632217533
 20
115.5568911594
 10
134.2727973966
 20
115.5481357081
 10
134.2825826376
 20
115.539638767
 10
134.2925727843
 20
115.5314076886
 10
134.3027631446
 20
115.5234498256
 10
134.3131490265
 20
115.5157725304
 10
134.323724691
 20
115.5083847045
 10
134.334480212
 20
115.5013014448
 10
134.3454046162
 20
115.494539397
 10
134.356492608
 20
115.4881140909
 10
134.3677616016
 20
115.4820365928
 10
134.379234689
 20
115.476316853
 10
134.3909222748
 20
115.4709706681
 10
134.4027840153
 20
115.4660372196
 10
134.4147668796
 20
115.4615615354
 10
134.4268261283
 20
115.4575826778
 10
134.438950187
 20
115.4541158473
 10
134.4511357725
 20
115.4511702789
 10
134.4633722617
 20
115.4487550777
 10
134.4756196703
 20
115.4468788293
 10
134.487830674
 20
115.4455499893
 10
134.4999579486
 20
115.4447770135
 10
134.5119541695
 20
115.4445683575
 10
134.5237720126
 20
115.4449324772
 10
134.5353678427
 20
115.4458745308
 10
134.5467127828
 20
115.4473864878
 10
134.5577816451
 20
115.44945702
 10
134.5685492416
 20
115.4520747996
 10
134.5789903848
 20
115.4552284985
 10
134.5890798867
 20
115.4589067888
 10
134.5987970694
 20
115.4631010665
 10
134.608139294
 20
115.4678136234
 10
134.6171084314
 20
115.4730494757
 10
134.6257063527
 20
115.4788136391
 10
134.6339349287
 20
115.4851111297
 10
134.6417960303
 20
115.4919469634
 10
134.6492868707
 20
115.499320661
 10
134.6563860315
 20
115.5072097633
 10
134.6630674362
 20
115.5155863156
 10
134.6693050086
 20
115.5244223635
 10
134.6750726725
 20
115.5336899526
 10
134.6803443514
 20
115.5433611284
 10
134.6850979086
 20
115.5534053788
 10
134.6893269648
 20
115.5637819618
 10
134.6930290802
 20
115.5744475779
 10
134.6962018151
 20
115.5853589273
 10
134.6988427296
 20
115.5964727105
 10
134.7009493839
 20
115.607745628
 10
134.7025214314
 20
115.6191415844
 10
134.7035668978
 20
115.6306533019
 10
134.704095902
 20
115.6422807069
 10
134.7041205775
 20
115.6540156449
 10
134.7036611177
 20
115.6658176372
 10
134.7027397305
 20
115.6776381245
 10
134.7013776618
 20
115.6894385185
 10
134.6995923084
 20
115.7012201173
 10
134.6974001052
 20
115.7129941901
 10
134.694815869
 20
115.7247690737
 10
134.6918479453
 20
115.7365413748
 10
134.6885030617
 20
115.7483047676
 10
134.6847877569
 20
115.760051883
 10
134.6807078135
 20
115.7717711787
 10
134.6762688253
 20
115.7834500692
 10
134.6714763859
 20
115.795075969
 10
134.6663360891
 20
115.8066362926
 10
134.6608535284
 20
115.8181184546
 10
134.6550313573
 20
115.8295116343
 10
134.648860468
 20
115.8408120712
 10
134.6423288123
 20
115.8520177696
 10
134.6354243419
 20
115.8631267337
 10
134.6281350089
 20
115.8741369679
 10
134.620448765
 20
115.8850464765
  0
LWPOLYLINE
  5
34F
100
AcDbEntity
  8
0
100
AcDbPolyline
 62
253
  6
CONTINUOUS
 90
16
 70
0
 10
134.620448765
 20
115.8850464765
 10
134.4282721487
 20
116.1473325756
 10
134.234446909
 20
116.4084002626
 10
134.0389607162
 20
116.6682810425
 10
133.8418012407
 20
116.9270064205
 10
133.6429561528
 20
117.1846079014
 10
133.4424261979
 20
117.4410992464
 10
133.2402644207
 20
117.6964232392
 10
133.036536941
 20
117.9505049197
 10
132.8313098786
 20
118.2032693278
 10
132.6246493532
 20
118.4546415032
 10
132.4166070346
 20
118.7045631433
 10
132.2071767923
 20
118.9530425756
 10
131.9963380456
 20
119.2001047854
 10
131.784070214
 20
119.4457747578
 10
131.5703527169
 20
119.6900774779
  0
LWPOLYLINE
  5
350
100
AcDbEntity
  8
ASSI
100
AcDbPolyline
 62
7
  6
CONTINUOUS
 90
8
 70
0
 10
140.9353707572
 20
105.6844097888
 10
140.9094132641
 20
105.722017362
 10
140.8868875511
 20
105.7620561586
 10
140.8680654229
 20
105.8041624209
 10
140.8531001277
 20
105.8481804088
 10
140.8422187012
 20
105.8937640033
 10
140.8356349958
 20
105.9403562535
 10
140.8334602242
 20
105.987454383
  0
LWPOLYLINE
  5
351
100
AcDbEntity
  8
0
100
AcDbPolyline
 62
7
  6
CONTINUOUS
 90
8
 70
0
 10
140.9353707572
 20
105.6844097888
 10
140.9094132641
 20
105.722017362
 10
140.8868875511
 20
105.7620561586
 10
140.8680654229
 20
105.8041624209
 10
140.8531001277
 20
105.8481804088
 10
140.8422187012
 20
105.8937640033
 10
140.8356349958
 20
105.9403562535
 10
140.8334602242
 20
105.987454383
  0
LINE
  5
352
100
AcDbEntity
  8
0
100
AcDbLine
 62
7
  6
CONTINUOUS
 10
142.7452255066
 20
125.1172461203
 11
142.7533904963
 21
124.9950962281
  0
LINE
  5
353
100
AcDbEntity
  8
ASSI
100
AcDbLine
 62
7
  6
CONTINUOUS
 10
142.7452255066
 20
125.1172461203
 11
142.7533904963
 21
124.9950962281
  0
LINE
  5
354
100
AcDbEntity
  8
ASSI
100
AcDbLine
 62
7
  6
CONTINUOUS
 10
145.5150874838
 20
124.3820236243
 11
145.4539352283
 21
123.9550229138
  0
LINE
  5
355
100
AcDbEntity
  8
0
100
AcDbLine
 62
7
  6
CONTINUOUS
 10
145.5150874838
 20
124.3820236243
 11
145.4539352283
 21
123.9550229138
  0
LWPOLYLINE
  5
356
100
AcDbEntity
  8
ASSI
100
AcDbPolyline
 62
7
  6
CONTINUOUS
 90
10
 70
0
 10
141.003186744
 20
105.1525073105
 10
140.9791534744
 20
105.1299134103
 10
140.9464031393
 20
105.093638046
 10
140.9173746557
 20
105.0543745965
 10
140.8924111993
 20
105.0126481663
 10
140.8716207506
 20
104.968699085
 10
140.8551111376
 20
104.9226566115
 10
140.8431147738
 20
104.8748975444
 10
140.8358587343
 20
104.8260310905
 10
140.8334601713
 20
104.7766001339
  0
LWPOLYLINE
  5
357
100
AcDbEntity
  8
0
100
AcDbPolyline
 62
7
  6
CONTINUOUS
 90
10
 70
0
 10
141.003186744
 20
105.1525073105
 10
140.9791534744
 20
105.1299134103
 10
140.9464031393
 20
105.093638046
 10
140.9173746557
 20
105.0543745965
 10
140.8924111993
 20
105.0126481663
 10
140.8716207506
 20
104.968699085
 10
140.8551111376
 20
104.9226566115
 10
140.8431147738
 20
104.8748975444
 10
140.8358587343
 20
104.8260310905
 10
140.8334601713
 20
104.7766001339
  0
LINE
  5
358
100
AcDbEntity
  8
ASSI
100
AcDbLine
 62
7
  6
CONTINUOUS
 10
141.0032460685
 20
105.152559506
 11
141.3268207887
 21
105.4371521851
  0
LINE
  5
359
100
AcDbEntity
  8
0
100
AcDbLine
 62
7
  6
CONTINUOUS
 10
141.0032460685
 20
105.152559506
 11
141.3268207887
 21
105.4371521851
  0
LINE
  5
35A
100
AcDbEntity
  8
ASSI
100
AcDbLine
 62
253
  6
CONTINUOUS
 10
141.330957266
 20
105.1846250602
 11
141.516336534
 21
105.347671118
  0
LINE
  5
35B
100
AcDbEntity
  8
0
100
AcDbLine
 62
253
  6
CONTINUOUS
 10
141.330957266
 20
105.1846250602
 11
141.516336534
 21
105.347671118
  0
LWPOLYLINE
  5
35C
100
AcDbEntity
  8
ASSI
100
AcDbPolyline
 62
253
  6
CONTINUOUS
 90
10
 70
0
 10
141.0032454323
 20
105.1525589465
 10
141.0214311351
 20
105.1669944126
 10
141.0520961237
 20
105.1855476231
 10
141.0858624127
 20
105.1996160185
 10
141.1223676538
 20
105.2090424272
 10
141.1612066112
 20
105.2137164676
 10
141.2019421853
 20
105.2135834724
 10
141.2441220408
 20
105.2086455331
 10
141.287285442
 20
105.1989571808
 10
141.3309572394
 20
105.1846250369
  0
LWPOLYLINE
  5
35D
100
AcDbEntity
  8
0
100
AcDbPolyline
 62
253
  6
CONTINUOUS
 90
10
 70
0
 10
141.0032454323
 20
105.1525589465
 10
141.0214311351
 20
105.1669944126
 10
141.0520961237
 20
105.1855476231
 10
141.0858624127
 20
105.1996160185
 10
141.1223676538
 20
105.2090424272
 10
141.1612066112
 20
105.2137164676
 10
141.2019421853
 20
105.2135834724
 10
141.2441220408
 20
105.2086455331
 10
141.287285442
 20
105.1989571808
 10
141.3309572394
 20
105.1846250369
  0
LINE
  5
35E
100
AcDbEntity
  8
ASSI
100
AcDbLine
 62
253
  6
CONTINUOUS
 10
141.1339372279
 20
105.5282233877
 11
140.5618043225
 21
105.0778643748
  0
LINE
  5
35F
100
AcDbEntity
  8
0
100
AcDbLine
 62
253
  6
CONTINUOUS
 10
141.1339372279
 20
105.5282233877
 11
140.5618043225
 21
105.0778643748
  0
LWPOLYLINE
  5
360
100
AcDbEntity
  8
ASSI
100
AcDbPolyline
 62
253
  6
CONTINUOUS
 90
16
 70
0
 10
140.5618043233
 20
105.0778643754
 10
140.5310179456
 20
105.0562192748
 10
140.4967221715
 20
105.0363918684
 10
140.4592412903
 20
105.0185696377
 10
140.4189297155
 20
105.002921106
 10
140.3761686142
 20
104.9895942377
 10
140.3313622995
 20
104.9787150425
 10
140.2849344206
 20
104.970386391
 10
140.2373240039
 20
104.9646870456
 10
140.1889812826
 20
104.9616709028
 10
140.1403633933
 20
104.9613664784
 10
140.0919300293
 20
104.9637766453
 10
140.0441391391
 20
104.9688786132
 10
139.9974426109
 20
104.976624141
 10
139.9522819985
 20
104.9869399887
 10
139.9090843259
 20
104.999728613
  0
LWPOLYLINE
  5
361
100
AcDbEntity
  8
0
100
AcDbPolyline
 62
253
  6
CONTINUOUS
 90
16
 70
0
 10
140.5618043233
 20
105.0778643754
 10
140.5310179456
 20
105.0562192748
 10
140.4967221715
 20
105.0363918684
 10
140.4592412903
 20
105.0185696377
 10
140.4189297155
 20
105.002921106
 10
140.3761686142
 20
104.9895942377
 10
140.3313622995
 20
104.9787150425
 10
140.2849344206
 20
104.970386391
 10
140.2373240039
 20
104.9646870456
 10
140.1889812826
 20
104.9616709028
 10
140.1403633933
 20
104.9613664784
 10
140.0919300293
 20
104.9637766453
 10
140.0441391391
 20
104.9688786132
 10
139.9974426109
 20
104.976624141
 10
139.9522819985
 20
104.9869399887
 10
139.9090843259
 20
104.999728613
  0
LWPOLYLINE
  5
362
100
AcDbEntity
  8
0
100
AcDbPolyline
 62
253
  6
CONTINUOUS
 90
79
 70
0
 10
134.619871333
 20
99.2229806625
 10
134.6275072089
 20
99.2277311772
 10
134.6347621733
 20
99.2328698929
 10
134.6416467378
 20
99.2383861457
 10
134.6481714139
 20
99.2442692718
 10
134.6543467134
 20
99.2505086073
 10
134.6601831476
 20
99.2570934883
 10
134.665688551
 20
99.2640145798
 10
134.6708600494
 20
99.2712678622
 10
134.6756920913
 20
99.2788506445
 10
134.6801791253
 20
99.2867602361
 10
134.6843155999
 20
99.2949939462
 10
134.6880959636
 20
99.3035490838
 10
134.6915135072
 20
99.3124224059
 10
134.6945568902
 20
99.3216084602
 10
134.6972136141
 20
99.3311012419
 10
134.6994701371
 20
99.3409005772
 10
134.7013087435
 20
99.351029616
 10
134.702710674
 20
99.3615173389
 10
134.7036560973
 20
99.3723809535
 10
134.7041208938
 20
99.3835905756
 10
134.7040798715
 20
99.3951045478
 10
134.7035107095
 20
99.406888144
 10
134.7024025709
 20
99.4189343626
 10
134.7007474895
 20
99.4312431333
 10
134.6985404338
 20
99.4438062261
 10
134.6957881097
 20
99.4565827727
 10
134.6925001574
 20
99.469523745
 10
134.688686217
 20
99.4825801151
 10
134.684355929
 20
99.4957028551
 10
134.6795189335
 20
99.5088429368
 10
134.6741867981
 20
99.5219542008
 10
134.6683787996
 20
99.5350019607
 10
134.6621161421
 20
99.5479543986
 10
134.6554200297
 20
99.5607796967
 10
134.6483116664
 20
99.573446037
 10
134.6408122563
 20
99.5859216016
 10
134.6329384746
 20
99.5981805937
 10
134.6246888799
 20
99.6102213003
 10
134.6160575021
 20
99.6220480297
 10
134.6070383708
 20
99.6336650902
 10
134.5976255159
 20
99.6450767897
 10
134.5878129671
 20
99.6562874367
 10
134.5776020385
 20
99.6672940661
 10
134.5670231819
 20
99.6780646209
 10
134.5561141338
 20
99.6885597707
 10
134.5449126303
 20
99.6987401854
 10
134.5334564076
 20
99.7085665348
 10
134.5217832022
 20
99.7179994885
 10
134.509931831
 20
99.7270030962
 10
134.4979454346
 20
99.735554927
 10
134.4858682344
 20
99.7436359297
 10
134.4737444515
 20
99.7512270531
 10
134.4616183074
 20
99.7583092462
 10
134.4495340234
 20
99.7648634579
 10
134.4375278324
 20
99.770875637
 10
134.4256040138
 20
99.7763517331
 10
134.4137588588
 20
99.7813026959
 10
134.401996006
 20
99.7857386908
 10
134.390348485
 20
99.7896667462
 10
134.378856673
 20
99.7930931065
 10
134.3675513142
 20
99.7960267054
 10
134.3564246204
 20
99.7984872343
 10
134.3454591703
 20
99.8004970741
 10
134.3346411025
 20
99.8020757193
 10
134.3239707937
 20
99.8032311198
 10
134.3134521805
 20
99.8039683391
 10
134.3030902906
 20
99.8042918367
 10
134.292894516
 20
99.8042036564
 10
134.2828753399
 20
99.8037052376
 10
134.2730432455
 20
99.8027980199
 10
134.2634087159
 20
99.801483443
 10
134.2539822343
 20
99.7997629464
 10
134.2447736311
 20
99.7976353774
 10
134.2357901247
 20
99.795089214
 10
134.2270382808
 20
99.792110342
 10
134.2185246652
 20
99.7886846471
 10
134.2102558434
 20
99.7847980149
 10
134.2022383812
 20
99.7804363313
  0
LWPOLYLINE
  5
363
100
AcDbEntity
  8
0
100
AcDbPolyline
 62
253
  6
CONTINUOUS
 90
16
 70
0
 10
134.2022383812
 20
99.7804363313
 10
134.0190633851
 20
99.675417894
 10
133.8343541701
 20
99.5733665862
 10
133.6481043099
 20
99.4742722877
 10
133.4603073782
 20
99.3781248782
 10
133.2709569487
 20
99.2849142375
 10
133.0800556089
 20
99.194635346
 10
132.8876420012
 20
99.1073035873
 10
132.693763782
 20
99.0229394452
 10
132.4984686073
 20
98.9415634041
 10
132.3018041334
 20
98.863195948
 10
132.1038076116
 20
98.7878542101
 10
131.9044746733
 20
98.7155419198
 10
131.7037905446
 20
98.6462594556
 10
131.501740452
 20
98.5800071962
 10
131.2983096219
 20
98.51678552
  0
LWPOLYLINE
  5
364
100
AcDbEntity
  8
SUPERFICI
100
AcDbPolyline
 62
7
  6
CONTINUOUS
 90
12
 70
0
 10
147.4319550536
 20
106.8009527223
 10
147.3771260917
 20
106.8179960714
 10
147.32301453
 20
106.8309039297
 10
147.2693529435
 20
106.8397107031
 10
147.2164079633
 20
106.8443813459
 10
147.1649792271
 20
106.8448105243
 10
147.1150725131
 20
106.8409162515
 10
147.0666798434
 20
106.8327787635
 10
147.0205785643
 20
106.8205347433
 10
146.9768592435
 20
106.8041511922
 10
146.9354281353
 20
106.7836585891
 10
146.8967849035
 20
106.7592878703
  0
LINE
  5
365
100
AcDbEntity
  8
ASSI
100
AcDbLine
 62
7
  6
CONTINUOUS
 10
151.2325530885
 20
103.6564390207
 11
151.1611480254
 21
103.6807842893
  0
LINE
  5
366
100
AcDbEntity
  8
0
100
AcDbLine
 62
7
  6
CONTINUOUS
 10
151.2325530885
 20
103.6564390207
 11
151.1611480254
 21
103.6807842893
  0
LINE
  5
367
100
AcDbEntity
  8
0
100
AcDbLine
 62
7
  6
CONTINUOUS
 10
133.0473777053
 20
110.9600154297
 11
132.9759726422
 21
110.9843606984
  0
LINE
  5
368
100
AcDbEntity
  8
ASSI
100
AcDbLine
 62
7
  6
CONTINUOUS
 10
133.0473777053
 20
110.9600154297
 11
132.9759726422
 21
110.9843606984
  0
LWPOLYLINE
  5
369
100
AcDbEntity
  8
SUPERFICI
100
AcDbPolyline
 62
7
  6
CONTINUOUS
 90
14
 70
0
 10
151.1615117918
 20
103.6806438312
 10
151.2183573539
 20
103.6607027044
 10
151.2745341222
 20
103.6448947168
 10
151.3300413881
 20
103.6332192785
 10
151.38516621
 20
103.6256437377
 10
151.4396206302
 20
103.6221999885
 10
151.492540616
 20
103.6229835849
 10
151.5439037813
 20
103.6280777251
 10
151.5937301843
 20
103.6373972338
 10
151.6412178477
 20
103.6507837518
 10
151.6862700726
 20
103.6682649097
 10
151.7289803972
 20
103.6898103835
 10
151.7688310824
 20
103.7151739442
 10
151.7854192164
 20
103.7275450596
  0
LWPOLYLINE
  5
36A
100
AcDbEntity
  8
SUPERFICI
100
AcDbPolyline
 62
7
  6
CONTINUOUS
 90
14
 70
0
 10
132.9763364086
 20
110.9842202403
 10
133.0331819706
 20
110.9642791135
 10
133.089358739
 20
110.9484711259
 10
133.1448660049
 20
110.9367956875
 10
133.1999908268
 20
110.9292201468
 10
133.2544452469
 20
110.9257763976
 10
133.3073652328
 20
110.926559994
 10
133.3587283981
 20
110.9316541342
 10
133.4085548011
 20
110.9409736429
 10
133.4560424645
 20
110.9543601608
 10
133.5010946894
 20
110.9718413188
 10
133.543805014
 20
110.9933867925
 10
133.5836556992
 20
111.0187503533
 10
133.6002438332
 20
111.0311214687
  0
LINE
  5
36B
100
AcDbEntity
  8
SUPERFICI
100
AcDbLine
 62
7
  6
CONTINUOUS
 10
147.4875020741
 20
106.7797744129
 11
147.4319550536
 21
106.8009527223
  0
LINE
  5
36C
100
AcDbEntity
  8
SUPERFICI
100
AcDbLine
 62
7
  6
CONTINUOUS
 10
150.3339157936
 20
104.003003204
 11
151.1615117918
 21
103.6806438312
  0
LINE
  5
36D
100
AcDbEntity
  8
ASSI
100
AcDbLine
 62
7
  6
CONTINUOUS
 10
151.1611480254
 20
103.6807842893
 11
150.3338090335
 21
104.0030451552
  0
LINE
  5
36E
100
AcDbEntity
  8
0
100
AcDbLine
 62
7
  6
CONTINUOUS
 10
151.1611480254
 20
103.6807842893
 11
150.3338090335
 21
104.0030451552
  0
LINE
  5
36F
100
AcDbEntity
  8
0
100
AcDbLine
 62
7
  6
CONTINUOUS
 10
132.9759726422
 20
110.9843606984
 11
132.1486336503
 21
111.3066215643
  0
LINE
  5
370
100
AcDbEntity
  8
ASSI
100
AcDbLine
 62
7
  6
CONTINUOUS
 10
132.9759726422
 20
110.9843606984
 11
132.1486336503
 21
111.3066215643
  0
LINE
  5
371
100
AcDbEntity
  8
SUPERFICI
100
AcDbLine
 62
7
  6
CONTINUOUS
 10
132.1487404104
 20
111.3065796131
 11
132.9763364086
 21
110.9842202403
  0
LINE
  5
372
100
AcDbEntity
  8
SUPERFICI
100
AcDbLine
 62
7
  6
CONTINUOUS
 10
151.173676802
 20
105.29932354
 11
150.3464571323
 21
105.6216578287
  0
LINE
  5
373
100
AcDbEntity
  8
ASSI
100
AcDbLine
 62
7
  6
CONTINUOUS
 10
150.3464265941
 20
105.6216698322
 11
151.1736767291
 21
105.2993235682
  0
LINE
  5
374
100
AcDbEntity
  8
0
100
AcDbLine
 62
7
  6
CONTINUOUS
 10
150.3464265941
 20
105.6216698322
 11
151.1736767291
 21
105.2993235682
  0
LINE
  5
375
100
AcDbEntity
  8
0
100
AcDbLine
 62
7
  6
CONTINUOUS
 10
132.1612512109
 20
112.9252462412
 11
132.9885013459
 21
112.6028999773
  0
LINE
  5
376
100
AcDbEntity
  8
ASSI
100
AcDbLine
 62
7
  6
CONTINUOUS
 10
132.1612512109
 20
112.9252462412
 11
132.9885013459
 21
112.6028999773
  0
LINE
  5
377
100
AcDbEntity
  8
SUPERFICI
100
AcDbLine
 62
7
  6
CONTINUOUS
 10
132.9885014187
 20
112.6028999491
 11
132.1612817491
 21
112.9252342378
  0
LINE
  5
378
100
AcDbEntity
  8
SUPERFICI
100
AcDbLine
 62
7
  6
CONTINUOUS
 10
149.5111266685
 20
104.3291598313
 11
150.3339157936
 21
104.003003204
  0
LINE
  5
379
100
AcDbEntity
  8
ASSI
100
AcDbLine
 62
7
  6
CONTINUOUS
 10
150.3338090335
 20
104.0030451552
 11
149.5111293203
 21
104.3291587721
  0
LINE
  5
37A
100
AcDbEntity
  8
0
100
AcDbLine
 62
7
  6
CONTINUOUS
 10
150.3338090335
 20
104.0030451552
 11
149.5111293203
 21
104.3291587721
  0
LINE
  5
37B
100
AcDbEntity
  8
0
100
AcDbLine
 62
7
  6
CONTINUOUS
 10
132.1486336503
 20
111.3066215643
 11
131.325953937
 21
111.6327351812
  0
LINE
  5
37C
100
AcDbEntity
  8
ASSI
100
AcDbLine
 62
7
  6
CONTINUOUS
 10
132.1486336503
 20
111.3066215643
 11
131.325953937
 21
111.6327351812
  0
LINE
  5
37D
100
AcDbEntity
  8
SUPERFICI
100
AcDbLine
 62
7
  6
CONTINUOUS
 10
131.3259512853
 20
111.6327362404
 11
132.1487404104
 21
111.3065796131
  0
LINE
  5
37E
100
AcDbEntity
  8
SUPERFICI
100
AcDbLine
 62
7
  6
CONTINUOUS
 10
150.3464571323
 20
105.6216578287
 11
149.5238086221
 21
105.9478105679
  0
LINE
  5
37F
100
AcDbEntity
  8
ASSI
100
AcDbLine
 62
7
  6
CONTINUOUS
 10
149.5237941011
 20
105.9478163746
 11
150.3464265941
 21
105.6216698322
  0
LINE
  5
380
100
AcDbEntity
  8
0
100
AcDbLine
 62
7
  6
CONTINUOUS
 10
149.5237941011
 20
105.9478163746
 11
150.3464265941
 21
105.6216698322
  0
LINE
  5
381
100
AcDbEntity
  8
0
100
AcDbLine
 62
7
  6
CONTINUOUS
 10
131.3386187179
 20
113.2513927836
 11
132.1612512109
 21
112.9252462412
  0
LINE
  5
382
100
AcDbEntity
  8
ASSI
100
AcDbLine
 62
7
  6
CONTINUOUS
 10
131.3386187179
 20
113.2513927836
 11
132.1612512109
 21
112.9252462412
  0
LINE
  5
383
100
AcDbEntity
  8
SUPERFICI
100
AcDbLine
 62
7
  6
CONTINUOUS
 10
132.1612817491
 20
112.9252342378
 11
131.3386332389
 21
113.251386977
  0
LINE
  5
384
100
AcDbEntity
  8
ASSI
100
AcDbLine
 62
7
  6
CONTINUOUS
 10
160.8732751362
 20
100.455104921
 11
160.9663425282
 21
100.4177269582
  0
LINE
  5
385
100
AcDbEntity
  8
0
100
AcDbLine
 62
7
  6
CONTINUOUS
 10
160.8732751362
 20
100.455104921
 11
160.9663425282
 21
100.4177269582
  0
LINE
  5
386
100
AcDbEntity
  8
SUPERFICI
100
AcDbLine
 62
7
  6
CONTINUOUS
 10
131.3386332389
 20
113.251386977
 11
130.5205971768
 21
113.5813425572
  0
LINE
  5
387
100
AcDbEntity
  8
0
100
AcDbLine
 62
7
  6
CONTINUOUS
 10
130.5206249641
 20
113.5813312527
 11
131.3386187179
 21
113.2513927836
  0
LINE
  5
388
100
AcDbEntity
  8
ASSI
100
AcDbLine
 62
7
  6
CONTINUOUS
 10
130.5206249641
 20
113.5813312527
 11
131.3386187179
 21
113.2513927836
  0
LINE
  5
389
100
AcDbEntity
  8
ASSI
100
AcDbLine
 62
7
  6
CONTINUOUS
 10
148.7058003473
 20
106.2777548436
 11
149.5237941011
 21
105.9478163746
  0
LINE
  5
38A
100
AcDbEntity
  8
0
100
AcDbLine
 62
7
  6
CONTINUOUS
 10
148.7058003473
 20
106.2777548436
 11
149.5237941011
 21
105.9478163746
  0
LINE
  5
38B
100
AcDbEntity
  8
SUPERFICI
100
AcDbLine
 62
7
  6
CONTINUOUS
 10
149.5238086221
 20
105.9478105679
 11
148.70577256
 21
106.2777661481
  0
LINE
  5
38C
100
AcDbEntity
  8
SUPERFICI
100
AcDbLine
 62
7
  6
CONTINUOUS
 10
130.5079261269
 20
111.9627047737
 11
131.3259512853
 21
111.6327362404
  0
LINE
  5
38D
100
AcDbEntity
  8
0
100
AcDbLine
 62
7
  6
CONTINUOUS
 10
131.325953937
 20
111.6327351812
 11
130.5079544797
 21
111.9626932374
  0
LINE
  5
38E
100
AcDbEntity
  8
ASSI
100
AcDbLine
 62
7
  6
CONTINUOUS
 10
131.325953937
 20
111.6327351812
 11
130.5079544797
 21
111.9626932374
  0
LINE
  5
38F
100
AcDbEntity
  8
ASSI
100
AcDbLine
 62
7
  6
CONTINUOUS
 10
149.5111293203
 20
104.3291587721
 11
148.6931298629
 21
104.6591168283
  0
LINE
  5
390
100
AcDbEntity
  8
0
100
AcDbLine
 62
7
  6
CONTINUOUS
 10
149.5111293203
 20
104.3291587721
 11
148.6931298629
 21
104.6591168283
  0
LINE
  5
391
100
AcDbEntity
  8
SUPERFICI
100
AcDbLine
 62
7
  6
CONTINUOUS
 10
148.6931015101
 20
104.6591283646
 11
149.5111266685
 21
104.3291598313
  0
LINE
  5
392
100
AcDbEntity
  8
0
100
AcDbLine
 62
7
  6
CONTINUOUS
 10
130.5079544797
 20
111.9626932374
 11
129.6946255192
 21
112.2964996292
  0
LINE
  5
393
100
AcDbEntity
  8
ASSI
100
AcDbLine
 62
7
  6
CONTINUOUS
 10
130.5079544797
 20
111.9626932374
 11
129.6946255192
 21
112.2964996292
  0
LINE
  5
394
100
AcDbEntity
  8
ASSI
100
AcDbLine
 62
7
  6
CONTINUOUS
 10
148.6931298629
 20
104.6591168283
 11
147.8798009024
 21
104.9929232201
  0
LINE
  5
395
100
AcDbEntity
  8
0
100
AcDbLine
 62
7
  6
CONTINUOUS
 10
148.6931298629
 20
104.6591168283
 11
147.8798009024
 21
104.9929232201
  0
LINE
  5
396
100
AcDbEntity
  8
SUPERFICI
100
AcDbLine
 62
7
  6
CONTINUOUS
 10
130.5205971768
 20
113.5813425572
 11
129.7072513964
 21
113.9150692019
  0
LINE
  5
397
100
AcDbEntity
  8
SUPERFICI
100
AcDbLine
 62
7
  6
CONTINUOUS
 10
148.70577256
 20
106.2777661481
 11
147.8924267797
 21
106.6114927928
  0
LINE
  5
398
100
AcDbEntity
  8
SUPERFICI
100
AcDbLine
 62
7
  6
CONTINUOUS
 10
129.7072513964
 20
113.9150692019
 11
129.3023266909
 21
114.083350822
  0
LWPOLYLINE
  5
399
100
AcDbEntity
  8
0
100
AcDbPolyline
 62
7
  6
CONTINUOUS
 90
3
 70
0
 10
129.3023267112
 20
114.0833508135
 10
129.7072606461
 20
113.9150653579
 10
130.5206249641
 20
113.5813312527
  0
LWPOLYLINE
  5
39A
100
AcDbEntity
  8
ASSI
100
AcDbPolyline
 62
7
  6
CONTINUOUS
 90
3
 70
0
 10
129.3023267112
 20
114.0833508135
 10
129.7072606461
 20
113.9150653579
 10
130.5206249641
 20
113.5813312527
  0
LINE
  5
39B
100
AcDbEntity
  8
SUPERFICI
100
AcDbLine
 62
7
  6
CONTINUOUS
 10
147.8924267797
 20
106.6114927928
 11
147.4875020741
 21
106.7797744129
  0
LWPOLYLINE
  5
39C
100
AcDbEntity
  8
ASSI
100
AcDbPolyline
 62
7
  6
CONTINUOUS
 90
3
 70
0
 10
147.4875020944
 20
106.7797744044
 10
147.8924360293
 20
106.6114889488
 10
148.7058003473
 20
106.2777548436
  0
LWPOLYLINE
  5
39D
100
AcDbEntity
  8
0
100
AcDbPolyline
 62
7
  6
CONTINUOUS
 90
3
 70
0
 10
147.4875020944
 20
106.7797744044
 10
147.8924360293
 20
106.6114889488
 10
148.7058003473
 20
106.2777548436
  0
LWPOLYLINE
  5
39E
100
AcDbEntity
  8
SUPERFICI
100
AcDbPolyline
 62
7
  6
CONTINUOUS
 90
3
 70
0
 10
129.2893701094
 20
112.4649890282
 10
129.6944094421
 20
112.2965890775
 10
130.5079261269
 20
111.9627047737
  0
LINE
  5
39F
100
AcDbEntity
  8
0
100
AcDbLine
 62
7
  6
CONTINUOUS
 10
129.6946255192
 20
112.2964996292
 11
129.2897246924
 21
112.4648409803
  0
LINE
  5
3A0
100
AcDbEntity
  8
ASSI
100
AcDbLine
 62
7
  6
CONTINUOUS
 10
129.6946255192
 20
112.2964996292
 11
129.2897246924
 21
112.4648409803
  0
LINE
  5
3A1
100
AcDbEntity
  8
ASSI
100
AcDbLine
 62
7
  6
CONTINUOUS
 10
147.8798009024
 20
104.9929232201
 11
147.4749000756
 21
105.1612645712
  0
LINE
  5
3A2
100
AcDbEntity
  8
0
100
AcDbLine
 62
7
  6
CONTINUOUS
 10
147.8798009024
 20
104.9929232201
 11
147.4749000756
 21
105.1612645712
  0
LWPOLYLINE
  5
3A3
100
AcDbEntity
  8
SUPERFICI
100
AcDbPolyline
 62
7
  6
CONTINUOUS
 90
3
 70
0
 10
147.4745454926
 20
105.1614126191
 10
147.8795848254
 20
104.9930126684
 10
148.6931015101
 20
104.6591283646
  0
LWPOLYLINE
  5
3A4
100
AcDbEntity
  8
0
100
AcDbPolyline
 62
7
  6
CONTINUOUS
 90
27
 70
0
 10
132.9885013459
 20
112.6028999773
 10
133.0599108511
 20
112.5720818893
 10
133.1297139153
 20
112.5360523575
 10
133.1979087644
 20
112.4948099165
 10
133.2649323681
 20
112.4480224791
 10
133.3303454093
 20
112.3960201745
 10
133.3928302728
 20
112.3397936652
 10
133.4524328138
 20
112.2791382501
 10
133.5091026741
 20
112.2142548026
 10
133.5613746588
 20
112.1467396047
 10
133.6090571698
 20
112.0766444403
 10
133.6523356547
 20
112.0039122682
 10
133.6903080604
 20
111.9299741013
 10
133.722913528
 20
111.8546683345
 10
133.7502078064
 20
111.7781521703
 10
133.7714623749
 20
111.7023337005
 10
133.7865116093
 20
111.6272867408
 10
133.7955177746
 20
111.5529345774
 10
133.7982434247
 20
111.4809589176
 10
133.794527997
 20
111.4114131374
 10
133.7845317977
 20
111.3442436286
 10
133.7684983657
 20
111.2809714095
 10
133.746261841
 20
111.2216492505
 10
133.7179910243
 20
111.1662269002
 10
133.6844307853
 20
111.1160703424
 10
133.6455199139
 20
111.0713820404
 10
133.6002456529
 20
111.0311192415
  0
LWPOLYLINE
  5
3A5
100
AcDbEntity
  8
ASSI
100
AcDbPolyline
 62
7
  6
CONTINUOUS
 90
27
 70
0
 10
132.9885013459
 20
112.6028999773
 10
133.0599108511
 20
112.5720818893
 10
133.1297139153
 20
112.5360523575
 10
133.1979087644
 20
112.4948099165
 10
133.2649323681
 20
112.4480224791
 10
133.3303454093
 20
112.3960201745
 10
133.3928302728
 20
112.3397936652
 10
133.4524328138
 20
112.2791382501
 10
133.5091026741
 20
112.2142548026
 10
133.5613746588
 20
112.1467396047
 10
133.6090571698
 20
112.0766444403
 10
133.6523356547
 20
112.0039122682
 10
133.6903080604
 20
111.9299741013
 10
133.722913528
 20
111.8546683345
 10
133.7502078064
 20
111.7781521703
 10
133.7714623749
 20
111.7023337005
 10
133.7865116093
 20
111.6272867408
 10
133.7955177746
 20
111.5529345774
 10
133.7982434247
 20
111.4809589176
 10
133.794527997
 20
111.4114131374
 10
133.7845317977
 20
111.3442436286
 10
133.7684983657
 20
111.2809714095
 10
133.746261841
 20
111.2216492505
 10
133.7179910243
 20
111.1662269002
 10
133.6844307853
 20
111.1160703424
 10
133.6455199139
 20
111.0713820404
 10
133.6002456529
 20
111.0311192415
  0
LWPOLYLINE
  5
3A6
100
AcDbEntity
  8
0
100
AcDbPolyline
 62
7
  6
CONTINUOUS
 90
27
 70
0
 10
129.2897246924
 20
112.4648409803
 10
129.2201429651
 20
112.4971402921
 10
129.1521728683
 20
112.534662057
 10
129.0858123941
 20
112.5774046409
 10
129.0206328645
 20
112.6257091434
 10
128.9570601384
 20
112.6792321643
 10
128.8963725502
 20
112.7369441645
 10
128.8385205715
 20
112.7990450613
 10
128.7835486698
 20
112.8653308875
 10
128.7328728731
 20
112.9341636632
 10
128.6866718096
 20
113.0054809704
 10
128.6447602625
 20
113.0793400068
 10
128.6080061237
 20
113.1542803444
 10
128.57646252
 20
113.2304564308
 10
128.5500710712
 20
113.3077096899
 10
128.5295311561
 20
113.384109167
 10
128.5149984916
 20
113.4595732332
 10
128.5063142381
 20
113.5341810853
 10
128.503705308
 20
113.6062424972
 10
128.5073257229
 20
113.6756983365
 10
128.5170217336
 20
113.7426079801
 10
128.532558325
 20
113.8054587344
 10
128.554097993
 20
113.864195103
 10
128.5814818091
 20
113.9188754147
 10
128.6139918866
 20
113.968157111
 10
128.6516910604
 20
114.0118391648
 10
128.6792427116
 20
114.0375910587
  0
LWPOLYLINE
  5
3A7
100
AcDbEntity
  8
ASSI
100
AcDbPolyline
 62
7
  6
CONTINUOUS
 90
27
 70
0
 10
129.2897246924
 20
112.4648409803
 10
129.2201429651
 20
112.4971402921
 10
129.1521728683
 20
112.534662057
 10
129.0858123941
 20
112.5774046409
 10
129.0206328645
 20
112.6257091434
 10
128.9570601384
 20
112.6792321643
 10
128.8963725502
 20
112.7369441645
 10
128.8385205715
 20
112.7990450613
 10
128.7835486698
 20
112.8653308875
 10
128.7328728731
 20
112.9341636632
 10
128.6866718096
 20
113.0054809704
 10
128.6447602625
 20
113.0793400068
 10
128.6080061237
 20
113.1542803444
 10
128.57646252
 20
113.2304564308
 10
128.5500710712
 20
113.3077096899
 10
128.5295311561
 20
113.384109167
 10
128.5149984916
 20
113.4595732332
 10
128.5063142381
 20
113.5341810853
 10
128.503705308
 20
113.6062424972
 10
128.5073257229
 20
113.6756983365
 10
128.5170217336
 20
113.7426079801
 10
128.532558325
 20
113.8054587344
 10
128.554097993
 20
113.864195103
 10
128.5814818091
 20
113.9188754147
 10
128.6139918866
 20
113.968157111
 10
128.6516910604
 20
114.0118391648
 10
128.6792427116
 20
114.0375910587
  0
LWPOLYLINE
  5
3A8
100
AcDbEntity
  8
ASSI
100
AcDbPolyline
 62
7
  6
CONTINUOUS
 90
27
 70
0
 10
147.4749000756
 20
105.1612645712
 10
147.4053183484
 20
105.1935638831
 10
147.3373482515
 20
105.2310856479
 10
147.2709877773
 20
105.2738282319
 10
147.2058082477
 20
105.3221327343
 10
147.1422355216
 20
105.3756557553
 10
147.0815479334
 20
105.4333677554
 10
147.0236959547
 20
105.4954686522
 10
146.968724053
 20
105.5617544784
 10
146.9180482563
 20
105.6305872541
 10
146.8718471928
 20
105.7019045613
 10
146.8299356458
 20
105.7757635977
 10
146.7931815069
 20
105.8507039353
 10
146.7616379032
 20
105.9268800217
 10
146.7352464544
 20
106.0041332808
 10
146.7147065394
 20
106.0805327579
 10
146.7001738748
 20
106.1559968241
 10
146.6914896214
 20
106.2306046763
 10
146.6888806912
 20
106.3026660881
 10
146.6925011061
 20
106.3721219274
 10
146.7021971168
 20
106.439031571
 10
146.7177337082
 20
106.5018823253
 10
146.7392733762
 20
106.560618694
 10
146.7666571923
 20
106.6152990056
 10
146.7991672698
 20
106.6645807019
 10
146.8368664436
 20
106.7082627558
 10
146.8644180949
 20
106.7340146496
  0
LWPOLYLINE
  5
3A9
100
AcDbEntity
  8
0
100
AcDbPolyline
 62
7
  6
CONTINUOUS
 90
27
 70
0
 10
147.4749000756
 20
105.1612645712
 10
147.4053183484
 20
105.1935638831
 10
147.3373482515
 20
105.2310856479
 10
147.2709877773
 20
105.2738282319
 10
147.2058082477
 20
105.3221327343
 10
147.1422355216
 20
105.3756557553
 10
147.0815479334
 20
105.4333677554
 10
147.0236959547
 20
105.4954686522
 10
146.968724053
 20
105.5617544784
 10
146.9180482563
 20
105.6305872541
 10
146.8718471928
 20
105.7019045613
 10
146.8299356458
 20
105.7757635977
 10
146.7931815069
 20
105.8507039353
 10
146.7616379032
 20
105.9268800217
 10
146.7352464544
 20
106.0041332808
 10
146.7147065394
 20
106.0805327579
 10
146.7001738748
 20
106.1559968241
 10
146.6914896214
 20
106.2306046763
 10
146.6888806912
 20
106.3026660881
 10
146.6925011061
 20
106.3721219274
 10
146.7021971168
 20
106.439031571
 10
146.7177337082
 20
106.5018823253
 10
146.7392733762
 20
106.560618694
 10
146.7666571923
 20
106.6152990056
 10
146.7991672698
 20
106.6645807019
 10
146.8368664436
 20
106.7082627558
 10
146.8644180949
 20
106.7340146496
  0
LWPOLYLINE
  5
3AA
100
AcDbEntity
  8
SUPERFICI
100
AcDbPolyline
 62
7
  6
CONTINUOUS
 90
3
 70
0
 10
133.1016513773
 20
112.551351262
 10
133.0454572164
 20
112.5788969443
 10
132.9885014187
 20
112.6028999491
  0
LWPOLYLINE
  5
3AB
100
AcDbEntity
  8
0
100
AcDbPolyline
 62
253
  6
CONTINUOUS
 90
51
 70
0
 10
131.5703527169
 20
119.6900774779
 10
131.5590068528
 20
119.7027103491
 10
131.5475234509
 20
119.7150593371
 10
131.5358884521
 20
119.7271453307
 10
131.5240877974
 20
119.738989219
 10
131.5121074278
 20
119.7506118909
 10
131.4999354898
 20
119.7620302127
 10
131.4875689518
 20
119.7732449594
 10
131.4750069878
 20
119.7842528834
 10
131.4622487719
 20
119.7950507371
 10
131.4492934779
 20
119.8056352727
 10
131.4361435451
 20
119.8160008633
 10
131.4228144731
 20
119.826132364
 10
131.4093250271
 20
119.8360122508
 10
131.3956939719
 20
119.8456229995
 10
131.3819400726
 20
119.8549470861
 10
131.3680813742
 20
119.863968273
 10
131.3541330426
 20
119.8726754695
 10
131.3401095237
 20
119.8810588717
 10
131.3260252635
 20
119.8891086754
 10
131.3118947081
 20
119.8968150766
 10
131.2977307928
 20
119.904169125
 10
131.283540411
 20
119.9111652853
 10
131.2693289457
 20
119.9177988759
 10
131.2551017799
 20
119.9240652152
 10
131.2408642963
 20
119.9299596217
 10
131.2266214966
 20
119.9354783517
 10
131.212376857
 20
119.9406214142
 10
131.1981334724
 20
119.9453897561
 10
131.1838944378
 20
119.9497843243
 10
131.1696628481
 20
119.9538060657
 10
131.1554442589
 20
119.9574552775
 10
131.1412540684
 20
119.960729658
 10
131.1271101356
 20
119.9636262561
 10
131.1130303194
 20
119.9661421203
 10
131.0990324787
 20
119.9682742993
 10
131.0851351345
 20
119.970020893
 10
131.0713594554
 20
119.9713842058
 10
131.0577272722
 20
119.9723675934
 10
131.0442604155
 20
119.9729744114
 10
131.030980716
 20
119.9732080154
 10
131.0179058267
 20
119.973072032
 10
131.0050366899
 20
119.9725711713
 10
130.9923700701
 20
119.9717104141
 10
130.979902732
 20
119.9704947416
 10
130.9676314402
 20
119.9689291347
 10
130.9555510271
 20
119.9670163314
 10
130.9436485968
 20
119.9647500973
 10
130.9319093214
 20
119.9621219551
 10
130.9203183728
 20
119.9591234274
 10
130.908860923
 20
119.955746037
  0
LWPOLYLINE
  5
3AC
100
AcDbEntity
  8
0
100
AcDbPolyline
 62
253
  6
CONTINUOUS
 90
16
 70
0
 10
131.298592224
 20
119.2655777848
 10
131.5019937514
 20
119.031566643
 10
131.7040428681
 20
118.7962758501
 10
131.904768702
 20
118.5596661008
 10
132.1042003806
 20
118.3216980897
 10
132.3023670317
 20
118.0823325114
 10
132.4992769257
 20
117.8415554881
 10
132.6948549028
 20
117.5994548537
 10
132.8890049462
 20
117.3561438698
 10
133.0816310386
 20
117.1117357978
 10
133.2726371631
 20
116.8663438993
 10
133.4619474533
 20
116.6200554379
 10
133.6495666456
 20
116.3728536855
 10
133.8355196271
 20
116.1246959157
 10
134.0198312849
 20
115.8755394025
 10
134.2025265061
 20
115.6253414196
  0
LINE
  5
3AD
100
AcDbEntity
  8
ASSI
100
AcDbLine
 62
7
  6
CONTINUOUS
 10
145.5150874838
 20
124.3820236243
 11
145.5211847495
 21
123.8547369303
  0
LINE
  5
3AE
100
AcDbEntity
  8
0
100
AcDbLine
 62
7
  6
CONTINUOUS
 10
145.5150874838
 20
124.3820236243
 11
145.5211847495
 21
123.8547369303
  0
LINE
  5
3AF
100
AcDbEntity
  8
ASSI
100
AcDbLine
 62
253
  6
CONTINUOUS
 10
145.4539352283
 20
123.9550229138
 11
145.4539352293
 21
123.9441176466
  0
LINE
  5
3B0
100
AcDbEntity
  8
0
100
AcDbLine
 62
253
  6
CONTINUOUS
 10
145.4539352283
 20
123.9550229138
 11
145.4539352293
 21
123.9441176466
  0
LINE
  5
3B1
100
AcDbEntity
  8
ASSI
100
AcDbLine
 62
7
  6
CONTINUOUS
 10
145.4532663158
 20
123.9441176465
 11
145.4539352283
 21
123.9550229138
  0
LINE
  5
3B2
100
AcDbEntity
  8
0
100
AcDbLine
 62
7
  6
CONTINUOUS
 10
145.4532663158
 20
123.9441176465
 11
145.4539352283
 21
123.9550229138
  0
LWPOLYLINE
  5
3B3
100
AcDbEntity
  8
SUPERFICI
100
AcDbPolyline
 62
7
  6
CONTINUOUS
 90
34
 70
0
 10
146.8644331419
 20
106.7339959261
 10
146.8608981948
 20
106.7309219125
 10
146.8277962998
 20
106.6986754178
 10
146.7980674303
 20
106.6631263289
 10
146.7718229963
 20
106.6243170696
 10
146.7489485065
 20
106.5822027782
 10
146.7296927435
 20
106.5372300056
 10
146.7140635161
 20
106.4892310417
 10
146.7020511149
 20
106.4383720915
 10
146.6938777617
 20
106.3856003466
 10
146.6896170046
 20
106.3310309395
 10
146.6891943454
 20
106.2745479739
 10
146.6926097934
 20
106.2167519768
 10
146.6999294363
 20
106.1574796917
 10
146.7110878633
 20
106.0968948944
 10
146.7258877238
 20
106.0360885659
 10
146.7443524083
 20
105.9751869354
 10
146.7664602639
 20
105.914065128
 10
146.7919461217
 20
105.853437266
 10
146.8209006989
 20
105.7932103501
 10
146.8532362016
 20
105.733479679
 10
146.8884191941
 20
105.6752414268
 10
146.9264542814
 20
105.6185880087
 10
146.9673400301
 20
105.5634295177
 10
147.0105330848
 20
105.5104879638
 10
147.0560920358
 20
105.4597607446
 10
147.1039615096
 20
105.4112530239
 10
147.1534260454
 20
105.3656975441
 10
147.2045359244
 20
105.3231335899
 10
147.2572433595
 20
105.2835238813
 10
147.3106841423
 20
105.2474850079
 10
147.364570121
 20
105.2152224444
 10
147.4191903348
 20
105.186531454
 10
147.4745454926
 20
105.1614126191
  0
LINE
  5
3B4
100
AcDbEntity
  8
ASSI
100
AcDbLine
 62
253
  6
CONTINUOUS
 10
158.9930612728
 20
117.0927533547
 11
160.4953355215
 21
118.3656182906
  0
LINE
  5
3B5
100
AcDbEntity
  8
0
100
AcDbLine
 62
253
  6
CONTINUOUS
 10
158.9930612728
 20
117.0927533547
 11
160.4953355215
 21
118.3656182906
  0
LINE
  5
3B6
100
AcDbEntity
  8
ASSI
100
AcDbLine
 62
253
  6
CONTINUOUS
 10
159.4099990388
 20
116.525445403
 11
160.9304008899
 21
117.8136697112
  0
LINE
  5
3B7
100
AcDbEntity
  8
0
100
AcDbLine
 62
253
  6
CONTINUOUS
 10
159.4099990388
 20
116.525445403
 11
160.9304008899
 21
117.8136697112
  0
LWPOLYLINE
  5
3B8
100
AcDbEntity
  8
ASSI
100
AcDbPolyline
 62
7
  6
CONTINUOUS
 90
12
 70
0
 10
146.8644180949
 20
106.7340146496
 10
146.879697338
 20
106.7465505083
 10
146.9267603293
 20
106.7787098142
 10
146.9782427427
 20
106.8046367712
 10
147.033963742
 20
106.8244404169
 10
147.0924689009
 20
106.8377039787
 10
147.15370581
 20
106.8442674126
 10
147.2177315513
 20
106.8442944716
 10
147.2832525075
 20
106.8378513544
 10
147.3498375557
 20
106.8249601967
 10
147.4179201602
 20
106.8056007387
 10
147.4875020944
 20
106.7797744044
  0
LWPOLYLINE
  5
3B9
100
AcDbEntity
  8
0
100
AcDbPolyline
 62
7
  6
CONTINUOUS
 90
12
 70
0
 10
146.8644180949
 20
106.7340146496
 10
146.879697338
 20
106.7465505083
 10
146.9267603293
 20
106.7787098142
 10
146.9782427427
 20
106.8046367712
 10
147.033963742
 20
106.8244404169
 10
147.0924689009
 20
106.8377039787
 10
147.15370581
 20
106.8442674126
 10
147.2177315513
 20
106.8442944716
 10
147.2832525075
 20
106.8378513544
 10
147.3498375557
 20
106.8249601967
 10
147.4179201602
 20
106.8056007387
 10
147.4875020944
 20
106.7797744044
  0
LINE
  5
3BA
100
AcDbEntity
  8
SUPERFICI
100
AcDbLine
 62
7
  6
CONTINUOUS
 10
146.8967849035
 20
106.7592878703
 11
146.8644331419
 21
106.7339959261
  0
LWPOLYLINE
  5
3BB
100
AcDbEntity
  8
0
100
AcDbPolyline
 62
253
  6
CONTINUOUS
 90
10
 70
0
 10
133.5715569516
 20
98.669666389
 10
133.6425576561
 20
98.7035605782
 10
133.7670227248
 20
98.7641843119
 10
133.8908243091
 20
98.8260317931
 10
134.013965457
 20
98.8891059733
 10
134.1364492167
 20
98.9534098041
 10
134.258278636
 20
99.0189462369
 10
134.3794567632
 20
99.0857182233
 10
134.4999866462
 20
99.1537287146
 10
134.619871333
 20
99.2229806625
  0
LWPOLYLINE
  5
3BC
100
AcDbEntity
  8
0
100
AcDbPolyline
 62
253
  6
CONTINUOUS
 90
3
 70
0
 10
133.442039106
 20
98.609107413
 10
133.4712089531
 20
98.6226043309
 10
133.5715569516
 20
98.669666389
  0
LWPOLYLINE
  5
3BD
100
AcDbEntity
  8
0
100
AcDbPolyline
 62
253
  6
CONTINUOUS
 90
13
 70
0
 10
131.5697868442
 20
97.9037266342
 10
131.7226214117
 20
97.9500797605
 10
131.8747104754
 20
97.9980940088
 10
132.0260615946
 20
98.0477704344
 10
132.1766823292
 20
98.0991100926
 10
132.3265802387
 20
98.1521140385
 10
132.4757628827
 20
98.2067833275
 10
132.6242378209
 20
98.2631190146
 10
132.7896914261
 20
98.3281919479
 10
132.9542325625
 20
98.3953418946
 10
133.1178270249
 20
98.4645542145
 10
133.2804406079
 20
98.5358142674
 10
133.442039106
 20
98.609107413
  0
LWPOLYLINE
  5
3BE
100
AcDbEntity
  8
SUPERFICI
100
AcDbPolyline
 62
7
  6
CONTINUOUS
 90
12
 70
0
 10
129.2467796704
 20
114.1045291314
 10
129.1919507085
 20
114.1215724804
 10
129.1378391468
 20
114.1344803388
 10
129.0841775602
 20
114.1432871122
 10
129.0312325801
 20
114.147957755
 10
128.9798038439
 20
114.1483869334
 10
128.9298971299
 20
114.1444926606
 10
128.8815044602
 20
114.1363551726
 10
128.835403181
 20
114.1241111524
 10
128.7916838603
 20
114.1077276013
 10
128.7502527521
 20
114.0872349982
 10
128.7116095203
 20
114.0628642794
  0
LINE
  5
3BF
100
AcDbEntity
  8
SUPERFICI
100
AcDbLine
 62
7
  6
CONTINUOUS
 10
129.3023266909
 20
114.083350822
 11
129.2467796704
 21
114.1045291314
  0
LWPOLYLINE
  5
3C0
100
AcDbEntity
  8
ASSI
100
AcDbPolyline
 62
7
  6
CONTINUOUS
 90
27
 70
0
 10
151.1736767291
 20
105.2993235682
 10
151.2450862343
 20
105.2685054802
 10
151.3148892985
 20
105.2324759484
 10
151.3830841476
 20
105.1912335074
 10
151.4501077513
 20
105.14444607
 10
151.5155207925
 20
105.0924437654
 10
151.578005656
 20
105.0362172561
 10
151.637608197
 20
104.975561841
 10
151.6942780573
 20
104.9106783935
 10
151.746550042
 20
104.8431631956
 10
151.794232553
 20
104.7730680312
 10
151.837511038
 20
104.7003358591
 10
151.8754834436
 20
104.6263976922
 10
151.9080889112
 20
104.5510919255
 10
151.9353831896
 20
104.4745757612
 10
151.9566377581
 20
104.3987572914
 10
151.9716869925
 20
104.3237103318
 10
151.9806931578
 20
104.2493581683
 10
151.9834188079
 20
104.1773825085
 10
151.9797033802
 20
104.1078367283
 10
151.969707181
 20
104.0406672195
 10
151.9536737489
 20
103.9773950004
 10
151.9314372242
 20
103.9180728414
 10
151.9031664076
 20
103.8626504911
 10
151.8696061686
 20
103.8124939333
 10
151.8306952971
 20
103.7678056314
 10
151.7854210361
 20
103.7275428324
  0
LWPOLYLINE
  5
3C1
100
AcDbEntity
  8
0
100
AcDbPolyline
 62
7
  6
CONTINUOUS
 90
27
 70
0
 10
151.1736767291
 20
105.2993235682
 10
151.2450862343
 20
105.2685054802
 10
151.3148892985
 20
105.2324759484
 10
151.3830841476
 20
105.1912335074
 10
151.4501077513
 20
105.14444607
 10
151.5155207925
 20
105.0924437654
 10
151.578005656
 20
105.0362172561
 10
151.637608197
 20
104.975561841
 10
151.6942780573
 20
104.9106783935
 10
151.746550042
 20
104.8431631956
 10
151.794232553
 20
104.7730680312
 10
151.837511038
 20
104.7003358591
 10
151.8754834436
 20
104.6263976922
 10
151.9080889112
 20
104.5510919255
 10
151.9353831896
 20
104.4745757612
 10
151.9566377581
 20
104.3987572914
 10
151.9716869925
 20
104.3237103318
 10
151.9806931578
 20
104.2493581683
 10
151.9834188079
 20
104.1773825085
 10
151.9797033802
 20
104.1078367283
 10
151.969707181
 20
104.0406672195
 10
151.9536737489
 20
103.9773950004
 10
151.9314372242
 20
103.9180728414
 10
151.9031664076
 20
103.8626504911
 10
151.8696061686
 20
103.8124939333
 10
151.8306952971
 20
103.7678056314
 10
151.7854210361
 20
103.7275428324
  0
LWPOLYLINE
  5
3C2
100
AcDbEntity
  8
SUPERFICI
100
AcDbPolyline
 62
7
  6
CONTINUOUS
 90
3
 70
0
 10
151.2868267605
 20
105.2477748529
 10
151.2306325996
 20
105.2753205352
 10
151.173676802
 20
105.29932354
  0
LWPOLYLINE
  5
3C3
100
AcDbEntity
  8
ASSI
100
AcDbPolyline
 62
7
  6
CONTINUOUS
 90
10
 70
0
 10
151.7854210361
 20
103.7275428324
 10
151.7379549736
 20
103.6950032622
 10
151.6848722655
 20
103.6677570134
 10
151.6274461235
 20
103.6465502084
 10
151.5671823092
 20
103.6318415095
 10
151.5041382477
 20
103.6237945869
 10
151.4382613238
 20
103.6222498728
 10
151.3708890232
 20
103.6271784737
 10
151.3024674009
 20
103.6385709551
 10
151.2325530885
 20
103.6564390207
  0
LWPOLYLINE
  5
3C4
100
AcDbEntity
  8
0
100
AcDbPolyline
 62
7
  6
CONTINUOUS
 90
10
 70
0
 10
151.7854210361
 20
103.7275428324
 10
151.7379549736
 20
103.6950032622
 10
151.6848722655
 20
103.6677570134
 10
151.6274461235
 20
103.6465502084
 10
151.5671823092
 20
103.6318415095
 10
151.5041382477
 20
103.6237945869
 10
151.4382613238
 20
103.6222498728
 10
151.3708890232
 20
103.6271784737
 10
151.3024674009
 20
103.6385709551
 10
151.2325530885
 20
103.6564390207
  0
LWPOLYLINE
  5
3C5
100
AcDbEntity
  8
SUPERFICI
100
AcDbPolyline
 62
7
  6
CONTINUOUS
 90
34
 70
0
 10
146.8568202154
 20
99.3554042307
 10
146.8531955382
 20
99.3522498423
 10
146.820810969
 20
99.3205899419
 10
146.7918268291
 20
99.2856509635
 10
146.766353032
 20
99.2474742831
 10
146.7442766844
 20
99.206016186
 10
146.7258381901
 20
99.1617156361
 10
146.7110477883
 20
99.1144072969
 10
146.6998935314
 20
99.0642551735
 10
146.6925823034
 20
99.0121920307
 10
146.6891853665
 20
98.9583308778
 10
146.6896307706
 20
98.9025581569
 10
146.693910456
 20
98.845466661
 10
146.7020929329
 20
98.7868944006
 10
146.7141106298
 20
98.7270040977
 10
146.7297512348
 20
98.6668754877
 10
146.7490364361
 20
98.6066331817
 10
146.7719464768
 20
98.5461540661
 10
146.7982065805
 20
98.4861460336
 10
146.827908608
 20
98.4265168698
 10
146.8609637203
 20
98.3673611525
 10
146.8968255293
 20
98.3096665028
 10
146.9354971641
 20
98.2535244943
 10
146.9769786338
 20
98.1988460106
 10
147.0207179426
 20
98.1463468917
 10
147.0667732119
 20
98.0960244268
 10
147.1150894021
 20
98.0478837562
 10
147.1649435665
 20
98.0026515305
 10
147.2163715609
 20
97.960373312
 10
147.269339808
 20
97.9210053488
 10
147.323019585
 20
97.8851390219
 10
147.3771345458
 20
97.8529713772
 10
147.4319618102
 20
97.8243059988
 10
147.4875020305
 20
97.7991434209
  0
LWPOLYLINE
  5
3C6
100
AcDbEntity
  8
SUPERFICI
100
AcDbPolyline
 62
7
  6
CONTINUOUS
 90
32
 70
0
 10
151.7854192164
 20
103.7275450596
 10
151.8058510638
 20
103.7444704977
 10
151.8400084724
 20
103.7775826231
 10
151.870693536
 20
103.8139149167
 10
151.8977878787
 20
103.8534190702
 10
151.9214070593
 20
103.8961409822
 10
151.941291702
 20
103.9416261475
 10
151.9574315718
 20
103.9900399062
 10
151.9698353071
 20
104.0412155424
 10
151.978271592
 20
104.0942002778
 10
151.982663249
 20
104.1488762578
 10
151.9830868091
 20
104.2053607924
 10
151.9795413758
 20
104.2630537525
 10
151.9719586607
 20
104.322117309
 10
151.9604078496
 20
104.3823900622
 10
151.9450941091
 20
104.442786424
 10
151.9259943043
 20
104.5031805979
 10
151.9031333893
 20
104.563699955
 10
151.8767883577
 20
104.6236384186
 10
151.8468677612
 20
104.6830885411
 10
151.8134659085
 20
104.7419602253
 10
151.7771378747
 20
104.799272966
 10
151.7378816509
 20
104.8549361073
 10
151.6957022184
 20
104.9090428533
 10
151.6511642378
 20
104.9608877386
 10
151.6042102081
 20
105.010473982
 10
151.5549005678
 20
105.0578008659
 10
151.5039757217
 20
105.1021560406
 10
151.4513997201
 20
105.1434938666
 10
151.3972107021
 20
105.1818618328
 10
151.3422586399
 20
105.2166859647
 10
151.2868267605
 20
105.2477748529
  0
LWPOLYLINE
  5
3C7
100
AcDbEntity
  8
ASSI
100
AcDbPolyline
 62
7
  6
CONTINUOUS
 90
12
 70
0
 10
146.8568053005
 20
99.3554224202
 10
146.871587323
 20
99.3675471297
 10
146.9178454223
 20
99.3990579414
 10
146.9685908325
 20
99.4243895878
 10
147.0236421929
 20
99.4436510857
 10
147.0815605016
 20
99.4564384588
 10
147.1422968469
 20
99.4625950109
 10
147.2059051611
 20
99.4622813888
 10
147.2710973647
 20
99.455566957
 10
147.3374443222
 20
99.4424750097
 10
147.4053779177
 20
99.4229844358
 10
147.4749001235
 20
99.3970968208
  0
LWPOLYLINE
  5
3C8
100
AcDbEntity
  8
0
100
AcDbPolyline
 62
7
  6
CONTINUOUS
 90
12
 70
0
 10
146.8568053005
 20
99.3554224202
 10
146.871587323
 20
99.3675471297
 10
146.9178454223
 20
99.3990579414
 10
146.9685908325
 20
99.4243895878
 10
147.0236421929
 20
99.4436510857
 10
147.0815605016
 20
99.4564384588
 10
147.1422968469
 20
99.4625950109
 10
147.2059051611
 20
99.4622813888
 10
147.2710973647
 20
99.455566957
 10
147.3374443222
 20
99.4424750097
 10
147.4053779177
 20
99.4229844358
 10
147.4749001235
 20
99.3970968208
  0
LINE
  5
3C9
100
AcDbEntity
  8
SUPERFICI
100
AcDbLine
 62
7
  6
CONTINUOUS
 10
146.8884054078
 20
99.3800636389
 11
146.8568202154
 21
99.3554042307
  0
LWPOLYLINE
  5
3CA
100
AcDbEntity
  8
0
100
AcDbPolyline
 62
253
  6
CONTINUOUS
 90
51
 70
0
 10
149.7555281001
 20
112.3865010688
 10
149.7441822361
 20
112.39913394
 10
149.7326988341
 20
112.411482928
 10
149.7210638353
 20
112.4235689216
 10
149.7092631806
 20
112.4354128099
 10
149.697282811
 20
112.4470354818
 10
149.685110873
 20
112.4584538036
 10
149.672744335
 20
112.4696685503
 10
149.660182371
 20
112.4806764744
 10
149.6474241551
 20
112.491474328
 10
149.6344688611
 20
112.5020588636
 10
149.6213189283
 20
112.5124244542
 10
149.6079898564
 20
112.5225559549
 10
149.5945004103
 20
112.5324358417
 10
149.5808693552
 20
112.5420465904
 10
149.5671154558
 20
112.551370677
 10
149.5532567574
 20
112.5603918639
 10
149.5393084258
 20
112.5690990605
 10
149.5252849069
 20
112.5774824626
 10
149.5112006468
 20
112.5855322663
 10
149.4970700913
 20
112.5932386675
 10
149.482906176
 20
112.600592716
 10
149.4687157942
 20
112.6075888763
 10
149.454504329
 20
112.6142224669
 10
149.4402771631
 20
112.6204888062
 10
149.4260396795
 20
112.6263832126
 10
149.4117968798
 20
112.6319019426
 10
149.3975522402
 20
112.6370450051
 10
149.3833088556
 20
112.641813347
 10
149.3690698211
 20
112.6462079152
 10
149.3548382313
 20
112.6502296566
 10
149.3406196421
 20
112.6538788684
 10
149.3264294516
 20
112.657153249
 10
149.3122855188
 20
112.660049847
 10
149.2982057026
 20
112.6625657112
 10
149.2842078619
 20
112.6646978903
 10
149.2703105177
 20
112.6664444839
 10
149.2565348386
 20
112.6678077968
 10
149.2429026554
 20
112.6687911843
 10
149.2294357987
 20
112.6693980023
 10
149.2161560992
 20
112.6696316063
 10
149.2030812099
 20
112.6694956229
 10
149.1902120731
 20
112.6689947622
 10
149.1775454533
 20
112.668134005
 10
149.1650781153
 20
112.6669183325
 10
149.1528068234
 20
112.6653527257
 10
149.1407264103
 20
112.6634399223
 10
149.12882398
 20
112.6611736882
 10
149.1170847046
 20
112.658545546
 10
149.105493756
 20
112.6555470183
 10
149.0940363062
 20
112.6521696279
  0
LWPOLYLINE
  5
3CB
100
AcDbEntity
  8
0
100
AcDbPolyline
 62
253
  6
CONTINUOUS
 90
16
 70
0
 10
149.4837676073
 20
111.9620013757
 10
149.6871691346
 20
111.7279902339
 10
149.8892182514
 20
111.492699441
 10
150.0899440852
 20
111.2560896918
 10
150.2893757638
 20
111.0181216806
 10
150.4875424149
 20
110.7787561023
 10
150.6844523089
 20
110.537979079
 10
150.8800302861
 20
110.2958784447
 10
151.0741803294
 20
110.0525674607
 10
151.2668064218
 20
109.8081593887
 10
151.4578125463
 20
109.5627674902
 10
151.6471228365
 20
109.3164790289
 10
151.8347420288
 20
109.0692772764
 10
152.0206950103
 20
108.8211195066
 10
152.2050066681
 20
108.5719629934
 10
152.3877018893
 20
108.3217650105
  0
LWPOLYLINE
  5
3CC
100
AcDbEntity
  8
0
100
AcDbPolyline
 62
253
  6
CONTINUOUS
 90
79
 70
0
 10
152.3877018893
 20
108.3217650105
 10
152.3956488956
 20
108.3111777566
 10
152.4038482591
 20
108.3008727437
 10
152.4122933046
 20
108.2908422848
 10
152.4209773572
 20
108.2810786925
 10
152.4298937417
 20
108.2715742797
 10
152.439035783
 20
108.2623213591
 10
152.4483971366
 20
108.2533147503
 10
152.4579727799
 20
108.244559299
 10
152.4677580209
 20
108.2360623579
 10
152.4777481675
 20
108.2278312795
 10
152.4879385278
 20
108.2198734165
 10
152.4983244097
 20
108.2121961213
 10
152.5089000743
 20
108.2048082955
 10
152.5196555952
 20
108.1977250357
 10
152.5305799994
 20
108.1909629879
 10
152.5416679912
 20
108.1845376819
 10
152.5529369848
 20
108.1784601837
 10
152.5644100722
 20
108.1727404439
 10
152.576097658
 20
108.167394259
 10
152.5879593985
 20
108.1624608105
 10
152.5999422629
 20
108.1579851263
 10
152.6120015115
 20
108.1540062687
 10
152.6241255702
 20
108.1505394382
 10
152.6363111557
 20
108.1475938698
 10
152.6485476449
 20
108.1451786686
 10
152.6607950535
 20
108.1433024202
 10
152.6730060573
 20
108.1419735802
 10
152.6851333318
 20
108.1412006044
 10
152.6971295527
 20
108.1409919484
 10
152.7089473958
 20
108.1413560681
 10
152.7205432259
 20
108.1422981217
 10
152.731888166
 20
108.1438100787
 10
152.7429570283
 20
108.1458806109
 10
152.7537246249
 20
108.1484983905
 10
152.764165768
 20
108.1516520895
 10
152.7742552699
 20
108.1553303797
 10
152.7839724526
 20
108.1595246574
 10
152.7933146772
 20
108.1642372144
 10
152.8022838147
 20
108.1694730666
 10
152.8108817359
 20
108.17523723
 10
152.8191103119
 20
108.1815347206
 10
152.8269714136
 20
108.1883705543
 10
152.834462254
 20
108.1957442519
 10
152.8415614147
 20
108.2036333542
 10
152.8482428194
 20
108.2120099065
 10
152.8544803918
 20
108.2208459545
 10
152.8602480557
 20
108.2301135436
 10
152.8655197346
 20
108.2397847193
 10
152.8702732918
 20
108.2498289697
 10
152.874502348
 20
108.2602055528
 10
152.8782044634
 20
108.2708711688
 10
152.8813771983
 20
108.2817825182
 10
152.8840181128
 20
108.2928963014
 10
152.8861247671
 20
108.3041692189
 10
152.8876968146
 20
108.3155651753
 10
152.888742281
 20
108.3270768928
 10
152.8892712852
 20
108.3387042978
 10
152.8892959608
 20
108.3504392358
 10
152.8888365009
 20
108.3622412282
 10
152.8879151137
 20
108.3740617154
 10
152.886553045
 20
108.3858621095
 10
152.8847676916
 20
108.3976437082
 10
152.8825754884
 20
108.409417781
 10
152.8799912522
 20
108.4211926646
 10
152.8770233285
 20
108.4329649657
 10
152.8736784449
 20
108.4447283585
 10
152.8699631401
 20
108.4564754739
 10
152.8658831968
 20
108.4681947696
 10
152.8614442085
 20
108.4798736601
 10
152.8566517692
 20
108.4914995599
 10
152.8515114723
 20
108.5030598835
 10
152.8460289116
 20
108.5145420455
 10
152.8402067406
 20
108.5259352252
 10
152.8340358512
 20
108.5372356621
 10
152.8275041955
 20
108.5484413605
 10
152.8205997252
 20
108.5595503246
 10
152.8133103921
 20
108.5705605588
 10
152.8056241482
 20
108.5814700675
  0
LWPOLYLINE
  5
3CD
100
AcDbEntity
  8
0
100
AcDbPolyline
 62
253
  6
CONTINUOUS
 90
16
 70
0
 10
152.8056241482
 20
108.5814700675
 10
152.6134475319
 20
108.8437561665
 10
152.4196222922
 20
109.1048238535
 10
152.2241360994
 20
109.3647046334
 10
152.0269766239
 20
109.6234300114
 10
151.828131536
 20
109.8810314924
 10
151.6276015811
 20
110.1375228373
 10
151.4254398039
 20
110.3928468301
 10
151.2217123242
 20
110.6469285106
 10
151.0164852618
 20
110.8996929187
 10
150.8098247364
 20
111.1510650941
 10
150.6017824179
 20
111.4009867342
 10
150.3923521755
 20
111.6494661665
 10
150.1815134288
 20
111.8965283763
 10
149.9692455972
 20
112.1421983487
 10
149.7555281001
 20
112.3865010688
  0
LINE
  5
3CE
100
AcDbEntity
  8
ASSI
100
AcDbLine
 62
253
  6
CONTINUOUS
 10
154.6284381243
 20
120.2703357164
 11
154.6284381124
 21
120.2594304484
  0
LINE
  5
3CF
100
AcDbEntity
  8
0
100
AcDbLine
 62
253
  6
CONTINUOUS
 10
154.6284381243
 20
120.2703357164
 11
154.6284381124
 21
120.2594304484
  0
LINE
  5
3D0
100
AcDbEntity
  8
ASSI
100
AcDbLine
 62
7
  6
CONTINUOUS
 10
154.6277692118
 20
120.2594304492
 11
154.6284381243
 21
120.2703357164
  0
LINE
  5
3D1
100
AcDbEntity
  8
0
100
AcDbLine
 62
7
  6
CONTINUOUS
 10
154.6277692118
 20
120.2594304492
 11
154.6284381243
 21
120.2703357164
  0
LINE
  5
3D2
100
AcDbEntity
  8
ASSI
100
AcDbLine
 62
7
  6
CONTINUOUS
 10
154.6895903798
 20
120.6973364269
 11
154.6284381243
 21
120.2703357164
  0
LINE
  5
3D3
100
AcDbEntity
  8
0
100
AcDbLine
 62
7
  6
CONTINUOUS
 10
154.6895903798
 20
120.6973364269
 11
154.6284381243
 21
120.2703357164
  0
LWPOLYLINE
  5
3D4
100
AcDbEntity
  8
0
100
AcDbPolyline
 62
253
  6
CONTINUOUS
 90
11
 70
0
 10
123.0827544119
 20
129.7788207162
 10
123.045968587
 20
129.797342368
 10
123.0125772751
 20
129.8176778917
 10
122.9829042356
 20
129.8396301158
 10
122.9572371758
 20
129.8629861935
 10
122.9358249612
 20
129.8875196661
 10
122.9188752029
 20
129.9129926592
 10
122.9065522444
 20
129.9391581888
 10
122.8989755679
 20
129.9657625562
 10
122.8962186363
 20
129.9925478076
 10
122.8962573793
 20
129.9982480389
  0
LWPOLYLINE
  5
3D5
100
AcDbEntity
  8
ASSI
100
AcDbPolyline
 62
253
  6
CONTINUOUS
 90
11
 70
0
 10
123.0827544119
 20
129.7788207162
 10
123.045968587
 20
129.797342368
 10
123.0125772751
 20
129.8176778917
 10
122.9829042356
 20
129.8396301158
 10
122.9572371758
 20
129.8629861935
 10
122.9358249612
 20
129.8875196661
 10
122.9188752029
 20
129.9129926592
 10
122.9065522444
 20
129.9391581888
 10
122.8989755679
 20
129.9657625562
 10
122.8962186363
 20
129.9925478076
 10
122.8962573793
 20
129.9982480389
  0
LINE
  5
3D6
100
AcDbEntity
  8
ASSI
100
AcDbLine
 62
7
  6
CONTINUOUS
 10
154.6895903798
 20
120.6973364269
 11
154.6956876455
 21
120.1700497329
  0
LINE
  5
3D7
100
AcDbEntity
  8
0
100
AcDbLine
 62
7
  6
CONTINUOUS
 10
154.6895903798
 20
120.6973364269
 11
154.6956876455
 21
120.1700497329
  0
LWPOLYLINE
  5
3D8
100
AcDbEntity
  8
SUPERFICI
100
AcDbPolyline
 62
7
  6
CONTINUOUS
 90
32
 70
0
 10
151.7936491469
 20
96.3619188741
 10
151.8135319009
 20
96.3783998478
 10
151.8469807478
 20
96.4109305488
 10
151.8769282612
 20
96.4466587404
 10
151.9032573052
 20
96.4855373082
 10
151.9260820973
 20
96.5276108895
 10
151.945151743
 20
96.5724312037
 10
151.96045325
 20
96.6201617148
 10
151.9719978217
 20
96.6706374415
 10
151.9795705636
 20
96.7229171944
 10
151.9830962563
 20
96.776884472
 10
151.9826492106
 20
96.8326550171
 10
151.9782386653
 20
96.8896358783
 10
151.9697943324
 20
96.9479868712
 10
151.9573871356
 20
97.0075487362
 10
151.9412380023
 20
97.0672498051
 10
151.9213260579
 20
97.1269659098
 10
151.8976738024
 20
97.1868226188
 10
151.8705669635
 20
97.2461226507
 10
151.8399133938
 20
97.3049578335
 10
151.8058080024
 20
97.3632386966
 10
151.7688166102
 20
97.4199955945
 10
151.7289386099
 20
97.4751393867
 10
151.6861776144
 20
97.5287617655
 10
151.6411049414
 20
97.5801636262
 10
151.5936633586
 20
97.6293486837
 10
151.5439131704
 20
97.6763158133
 10
151.4926008839
 20
97.7203577044
 10
151.439677767
 20
97.761436341
 10
151.3851949561
 20
97.7995917469
 10
151.3300471773
 20
97.834232331
 10
151.2745325999
 20
97.8651608245
  0
LWPOLYLINE
  5
3D9
100
AcDbEntity
  8
ASSI
100
AcDbPolyline
 62
7
  6
CONTINUOUS
 90
10
 70
0
 10
151.793651149
 20
96.3619164769
 10
151.7467576602
 20
96.3298647923
 10
151.6944141011
 20
96.3032324262
 10
151.637662708
 20
96.2825847313
 10
151.5779922728
 20
96.268366631
 10
151.5154577154
 20
96.2607402258
 10
151.4500085779
 20
96.2595471889
 10
151.3829722854
 20
96.2647490153
 10
151.314791398
 20
96.276332938
 10
151.2450256348
 20
96.2943136332
  0
LWPOLYLINE
  5
3DA
100
AcDbEntity
  8
0
100
AcDbPolyline
 62
7
  6
CONTINUOUS
 90
10
 70
0
 10
151.793651149
 20
96.3619164769
 10
151.7467576602
 20
96.3298647923
 10
151.6944141011
 20
96.3032324262
 10
151.637662708
 20
96.2825847313
 10
151.5779922728
 20
96.268366631
 10
151.5154577154
 20
96.2607402258
 10
151.4500085779
 20
96.2595471889
 10
151.3829722854
 20
96.2647490153
 10
151.314791398
 20
96.276332938
 10
151.2450256348
 20
96.2943136332
  0
LWPOLYLINE
  5
3DB
100
AcDbEntity
  8
ASSI
100
AcDbPolyline
 62
253
  6
CONTINUOUS
 90
16
 70
0
 10
158.3536435977
 20
115.6132449483
 10
158.3969726343
 20
115.5995904934
 10
158.4423873923
 20
115.5882754623
 10
158.4894475429
 20
115.5794095622
 10
158.5376968039
 20
115.5730787546
 10
158.5866673639
 20
115.5693444212
 10
158.6358844177
 20
115.5682427688
 10
158.6848707707
 20
115.5697844787
 10
158.7331514645
 20
115.5739546029
 10
158.7802583831
 20
115.5807127091
 10
158.8257347907
 20
115.5899932724
 10
158.8691397607
 20
115.6017063112
 10
158.9100524506
 20
115.6157382591
 10
158.9480761823
 20
115.6319530662
 10
158.9828422881
 20
115.6501935182
 10
159.0140136856
 20
115.6702827607
  0
LWPOLYLINE
  5
3DC
100
AcDbEntity
  8
0
100
AcDbPolyline
 62
253
  6
CONTINUOUS
 90
16
 70
0
 10
158.3536435977
 20
115.6132449483
 10
158.3969726343
 20
115.5995904934
 10
158.4423873923
 20
115.5882754623
 10
158.4894475429
 20
115.5794095622
 10
158.5376968039
 20
115.5730787546
 10
158.5866673639
 20
115.5693444212
 10
158.6358844177
 20
115.5682427688
 10
158.6848707707
 20
115.5697844787
 10
158.7331514645
 20
115.5739546029
 10
158.7802583831
 20
115.5807127091
 10
158.8257347907
 20
115.5899932724
 10
158.8691397607
 20
115.6017063112
 10
158.9100524506
 20
115.6157382591
 10
158.9480761823
 20
115.6319530662
 10
158.9828422881
 20
115.6501935182
 10
159.0140136856
 20
115.6702827607
  0
LWPOLYLINE
  5
3DD
100
AcDbEntity
  8
0
100
AcDbPolyline
 62
253
  6
CONTINUOUS
 90
16
 70
0
 10
140.1684682145
 20
122.9168213574
 10
140.2117972511
 20
122.9031669025
 10
140.2572120091
 20
122.8918518713
 10
140.3042721597
 20
122.8829859713
 10
140.3525214207
 20
122.8766551637
 10
140.4014919806
 20
122.8729208303
 10
140.4507090345
 20
122.8718191779
 10
140.4996953875
 20
122.8733608878
 10
140.5479760813
 20
122.877531012
 10
140.5950829998
 20
122.8842891181
 10
140.6405594075
 20
122.8935696815
 10
140.6839643775
 20
122.9052827203
 10
140.7248770674
 20
122.9193146682
 10
140.7629007991
 20
122.9355294753
 10
140.7976669049
 20
122.9537699273
 10
140.8288383024
 20
122.9738591698
  0
LWPOLYLINE
  5
3DE
100
AcDbEntity
  8
ASSI
100
AcDbPolyline
 62
253
  6
CONTINUOUS
 90
16
 70
0
 10
140.1684682145
 20
122.9168213574
 10
140.2117972511
 20
122.9031669025
 10
140.2572120091
 20
122.8918518713
 10
140.3042721597
 20
122.8829859713
 10
140.3525214207
 20
122.8766551637
 10
140.4014919806
 20
122.8729208303
 10
140.4507090345
 20
122.8718191779
 10
140.4996953875
 20
122.8733608878
 10
140.5479760813
 20
122.877531012
 10
140.5950829998
 20
122.8842891181
 10
140.6405594075
 20
122.8935696815
 10
140.6839643775
 20
122.9052827203
 10
140.7248770674
 20
122.9193146682
 10
140.7629007991
 20
122.9355294753
 10
140.7976669049
 20
122.9537699273
 10
140.8288383024
 20
122.9738591698
  0
LINE
  5
3DF
100
AcDbEntity
  8
ASSI
100
AcDbLine
 62
253
  6
CONTINUOUS
 10
158.3536369698
 20
115.6132390895
 11
157.775033008
 21
115.8141126318
  0
LINE
  5
3E0
100
AcDbEntity
  8
0
100
AcDbLine
 62
253
  6
CONTINUOUS
 10
158.3536369698
 20
115.6132390895
 11
157.775033008
 21
115.8141126318
  0
LINE
  5
3E1
100
AcDbEntity
  8
0
100
AcDbLine
 62
253
  6
CONTINUOUS
 10
140.1684615865
 20
122.9168154986
 11
139.5898576248
 21
123.1176890409
  0
LINE
  5
3E2
100
AcDbEntity
  8
ASSI
100
AcDbLine
 62
253
  6
CONTINUOUS
 10
140.1684615865
 20
122.9168154986
 11
139.5898576248
 21
123.1176890409
  0
LINE
  5
3E3
100
AcDbEntity
  8
ASSI
100
AcDbLine
 62
253
  6
CONTINUOUS
 10
157.775033008
 20
115.8141126318
 11
156.8457508178
 21
116.1412318667
  0
LINE
  5
3E4
100
AcDbEntity
  8
0
100
AcDbLine
 62
253
  6
CONTINUOUS
 10
157.775033008
 20
115.8141126318
 11
156.8457508178
 21
116.1412318667
  0
LINE
  5
3E5
100
AcDbEntity
  8
0
100
AcDbLine
 62
253
  6
CONTINUOUS
 10
139.5898576248
 20
123.1176890409
 11
138.6605754346
 21
123.4448082758
  0
LINE
  5
3E6
100
AcDbEntity
  8
ASSI
100
AcDbLine
 62
253
  6
CONTINUOUS
 10
139.5898576248
 20
123.1176890409
 11
138.6605754346
 21
123.4448082758
  0
LWPOLYLINE
  5
3E7
100
AcDbEntity
  8
ASSI
100
AcDbPolyline
 62
253
  6
CONTINUOUS
 90
28
 70
0
 10
156.8457508178
 20
116.1412318667
 10
156.050192668
 20
116.4250489435
 10
155.4789742757
 20
116.6314321673
 10
154.9091887351
 20
116.8393376214
 10
154.3406634463
 20
117.0488308224
 10
153.7735944013
 20
117.259842204
 10
153.2081446519
 20
117.4723119643
 10
152.6443621134
 20
117.6862219651
 10
152.0822183639
 20
117.9015828174
 10
151.5217603003
 20
118.1183764104
 10
150.96292074
 20
118.3366288989
 10
150.4057862683
 20
118.5563065432
 10
149.8506316832
 20
118.7772991077
 10
149.2978201261
 20
118.9994567274
 10
148.7470000453
 20
119.2229153672
 10
148.1973790519
 20
119.4479974743
 10
147.650006585
 20
119.6742718653
 10
147.103854705
 20
119.9021639516
 10
146.5550592439
 20
120.1333161059
 10
146.0045898875
 20
120.3673627996
 10
145.4515748358
 20
120.6047224988
 10
144.8894913518
 20
120.8482932766
 10
144.3182717834
 20
121.0982359473
 10
143.7382323201
 20
121.3545525767
 10
143.1435612611
 20
121.6200036626
 10
142.5324864851
 20
121.8956211921
 10
141.9072039768
 20
122.1806548541
 10
141.2679297937
 20
122.4752442946
  0
LWPOLYLINE
  5
3E8
100
AcDbEntity
  8
0
100
AcDbPolyline
 62
253
  6
CONTINUOUS
 90
28
 70
0
 10
156.8457508178
 20
116.1412318667
 10
156.050192668
 20
116.4250489435
 10
155.4789742757
 20
116.6314321673
 10
154.9091887351
 20
116.8393376214
 10
154.3406634463
 20
117.0488308224
 10
153.7735944013
 20
117.259842204
 10
153.2081446519
 20
117.4723119643
 10
152.6443621134
 20
117.6862219651
 10
152.0822183639
 20
117.9015828174
 10
151.5217603003
 20
118.1183764104
 10
150.96292074
 20
118.3366288989
 10
150.4057862683
 20
118.5563065432
 10
149.8506316832
 20
118.7772991077
 10
149.2978201261
 20
118.9994567274
 10
148.7470000453
 20
119.2229153672
 10
148.1973790519
 20
119.4479974743
 10
147.650006585
 20
119.6742718653
 10
147.103854705
 20
119.9021639516
 10
146.5550592439
 20
120.1333161059
 10
146.0045898875
 20
120.3673627996
 10
145.4515748358
 20
120.6047224988
 10
144.8894913518
 20
120.8482932766
 10
144.3182717834
 20
121.0982359473
 10
143.7382323201
 20
121.3545525767
 10
143.1435612611
 20
121.6200036626
 10
142.5324864851
 20
121.8956211921
 10
141.9072039768
 20
122.1806548541
 10
141.2679297937
 20
122.4752442946
  0
LWPOLYLINE
  5
3E9
100
AcDbEntity
  8
0
100
AcDbPolyline
 62
253
  6
CONTINUOUS
 90
28
 70
0
 10
138.6605754346
 20
123.4448082758
 10
137.8650172848
 20
123.7286253526
 10
137.2937988925
 20
123.9350085764
 10
136.7240133519
 20
124.1429140305
 10
136.1554880631
 20
124.3524072315
 10
135.5884190181
 20
124.5634186131
 10
135.0229692687
 20
124.7758883734
 10
134.4591867302
 20
124.9897983742
 10
133.8970429807
 20
125.2051592265
 10
133.3365849171
 20
125.4219528195
 10
132.7777453567
 20
125.640205308
 10
132.2206108851
 20
125.8598829522
 10
131.6654562999
 20
126.0808755168
 10
131.1126447428
 20
126.3030331365
 10
130.5618246621
 20
126.5264917762
 10
130.0122036687
 20
126.7515738834
 10
129.4648312018
 20
126.9778482743
 10
128.9186793218
 20
127.2057403607
 10
128.3698838606
 20
127.436892515
 10
127.8194145043
 20
127.6709392087
 10
127.2663994526
 20
127.9082989079
 10
126.7043159685
 20
128.1518696857
 10
126.1330964002
 20
128.4018123564
 10
125.5530569368
 20
128.6581289858
 10
124.9583858779
 20
128.9235800717
 10
124.3473111018
 20
129.1991976012
 10
123.7220285936
 20
129.4842312632
 10
123.0827544104
 20
129.7788207036
  0
LWPOLYLINE
  5
3EA
100
AcDbEntity
  8
ASSI
100
AcDbPolyline
 62
253
  6
CONTINUOUS
 90
28
 70
0
 10
138.6605754346
 20
123.4448082758
 10
137.8650172848
 20
123.7286253526
 10
137.2937988925
 20
123.9350085764
 10
136.7240133519
 20
124.1429140305
 10
136.1554880631
 20
124.3524072315
 10
135.5884190181
 20
124.5634186131
 10
135.0229692687
 20
124.7758883734
 10
134.4591867302
 20
124.9897983742
 10
133.8970429807
 20
125.2051592265
 10
133.3365849171
 20
125.4219528195
 10
132.7777453567
 20
125.640205308
 10
132.2206108851
 20
125.8598829522
 10
131.6654562999
 20
126.0808755168
 10
131.1126447428
 20
126.3030331365
 10
130.5618246621
 20
126.5264917762
 10
130.0122036687
 20
126.7515738834
 10
129.4648312018
 20
126.9778482743
 10
128.9186793218
 20
127.2057403607
 10
128.3698838606
 20
127.436892515
 10
127.8194145043
 20
127.6709392087
 10
127.2663994526
 20
127.9082989079
 10
126.7043159685
 20
128.1518696857
 10
126.1330964002
 20
128.4018123564
 10
125.5530569368
 20
128.6581289858
 10
124.9583858779
 20
128.9235800717
 10
124.3473111018
 20
129.1991976012
 10
123.7220285936
 20
129.4842312632
 10
123.0827544104
 20
129.7788207036
  0
LWPOLYLINE
  5
3EB
100
AcDbEntity
  8
ASSI
100
AcDbPolyline
 62
253
  6
CONTINUOUS
 90
11
 70
0
 10
141.2679297952
 20
122.4752443071
 10
141.2311439702
 20
122.4937659589
 10
141.1977526583
 20
122.5141014826
 10
141.1680796188
 20
122.5360537067
 10
141.142412559
 20
122.5594097844
 10
141.1210003444
 20
122.583943257
 10
141.1040505862
 20
122.6094162501
 10
141.0917276276
 20
122.6355817797
 10
141.0841509511
 20
122.6621861471
 10
141.0813940195
 20
122.6889713985
 10
141.0814327625
 20
122.6946716298
  0
LWPOLYLINE
  5
3EC
100
AcDbEntity
  8
0
100
AcDbPolyline
 62
253
  6
CONTINUOUS
 90
11
 70
0
 10
141.2679297952
 20
122.4752443071
 10
141.2311439702
 20
122.4937659589
 10
141.1977526583
 20
122.5141014826
 10
141.1680796188
 20
122.5360537067
 10
141.142412559
 20
122.5594097844
 10
141.1210003444
 20
122.583943257
 10
141.1040505862
 20
122.6094162501
 10
141.0917276276
 20
122.6355817797
 10
141.0841509511
 20
122.6621861471
 10
141.0813940195
 20
122.6889713985
 10
141.0814327625
 20
122.6946716298
  0
LWPOLYLINE
  5
3ED
100
AcDbEntity
  8
ASSI
100
AcDbPolyline
 62
253
  6
CONTINUOUS
 90
16
 70
0
 10
158.7469797058
 20
97.7742879657
 10
158.7445616629
 20
97.8172986357
 10
158.7378396977
 20
97.8618254992
 10
158.7268433059
 20
97.9074003649
 10
158.7116306159
 20
97.9535865777
 10
158.6923370515
 20
97.9998303449
 10
158.6692183014
 20
98.0454699477
 10
158.6425622718
 20
98.0899508875
 10
158.6126365032
 20
98.132838729
 10
158.5797610989
 20
98.1736719453
 10
158.5442889253
 20
98.212006117
 10
158.5066138178
 20
98.2474099393
 10
158.4671598012
 20
98.2794828992
 10
158.4263649718
 20
98.3078694702
 10
158.3846749304
 20
98.3322601776
 10
158.3425486079
 20
98.3523864943
  0
LWPOLYLINE
  5
3EE
100
AcDbEntity
  8
0
100
AcDbPolyline
 62
253
  6
CONTINUOUS
 90
16
 70
0
 10
158.7469797058
 20
97.7742879657
 10
158.7445616629
 20
97.8172986357
 10
158.7378396977
 20
97.8618254992
 10
158.7268433059
 20
97.9074003649
 10
158.7116306159
 20
97.9535865777
 10
158.6923370515
 20
97.9998303449
 10
158.6692183014
 20
98.0454699477
 10
158.6425622718
 20
98.0899508875
 10
158.6126365032
 20
98.132838729
 10
158.5797610989
 20
98.1736719453
 10
158.5442889253
 20
98.212006117
 10
158.5066138178
 20
98.2474099393
 10
158.4671598012
 20
98.2794828992
 10
158.4263649718
 20
98.3078694702
 10
158.3846749304
 20
98.3322601776
 10
158.3425486079
 20
98.3523864943
  0
LWPOLYLINE
  5
3EF
100
AcDbEntity
  8
ASSI
100
AcDbPolyline
 62
253
  6
CONTINUOUS
 90
10
 70
0
 10
158.094259651
 20
98.9072203982
 10
158.096029321
 20
98.8650400865
 10
158.0999460223
 20
98.8271196771
 10
158.1062079491
 20
98.7931309624
 10
158.1154044707
 20
98.762651332
 10
158.1273988442
 20
98.7360137113
 10
158.141325388
 20
98.7141176206
 10
158.1574766225
 20
98.6970936692
 10
158.1761068623
 20
98.6848538249
 10
158.1871131408
 20
98.6803019182
  0
LWPOLYLINE
  5
3F0
100
AcDbEntity
  8
0
100
AcDbPolyline
 62
253
  6
CONTINUOUS
 90
10
 70
0
 10
158.094259651
 20
98.9072203982
 10
158.096029321
 20
98.8650400865
 10
158.0999460223
 20
98.8271196771
 10
158.1062079491
 20
98.7931309624
 10
158.1154044707
 20
98.762651332
 10
158.1273988442
 20
98.7360137113
 10
158.141325388
 20
98.7141176206
 10
158.1574766225
 20
98.6970936692
 10
158.1761068623
 20
98.6848538249
 10
158.1871131408
 20
98.6803019182
  0
LWPOLYLINE
  5
3F1
100
AcDbEntity
  8
ASSI
100
AcDbPolyline
 62
253
  6
CONTINUOUS
 90
10
 70
0
 10
159.0140136779
 20
81.5020988001
 10
158.958531163
 20
83.3532824301
 10
158.9097548931
 20
85.1784209811
 10
158.8676848681
 20
86.9775144532
 10
158.8326587235
 20
88.7302236115
 10
158.8043388239
 20
90.4568876909
 10
158.7817122629
 20
92.2185243956
 10
158.7644414052
 20
94.0354729603
 10
158.7528638861
 20
95.8873941504
 10
158.7469797058
 20
97.7742879657
  0
LWPOLYLINE
  5
3F2
100
AcDbEntity
  8
0
100
AcDbPolyline
 62
253
  6
CONTINUOUS
 90
10
 70
0
 10
159.0140136779
 20
81.5020988001
 10
158.958531163
 20
83.3532824301
 10
158.9097548931
 20
85.1784209811
 10
158.8676848681
 20
86.9775144532
 10
158.8326587235
 20
88.7302236115
 10
158.8043388239
 20
90.4568876909
 10
158.7817122629
 20
92.2185243956
 10
158.7644414052
 20
94.0354729603
 10
158.7528638861
 20
95.8873941504
 10
158.7469797058
 20
97.7742879657
  0
LWPOLYLINE
  5
3F3
100
AcDbEntity
  8
ASSI
100
AcDbPolyline
 62
253
  6
CONTINUOUS
 90
10
 70
0
 10
158.3536369689
 20
81.4099264026
 10
158.2992354476
 20
83.2619566889
 10
158.2519581715
 20
85.0885885637
 10
158.2114964464
 20
86.8895119058
 10
158.177902477
 20
88.6440534458
 10
158.1503936703
 20
90.3721824359
 10
158.1279929838
 20
92.1350554661
 10
158.1108263813
 20
93.9534152077
 10
158.0994819677
 20
95.8070447555
 10
158.0942595298
 20
97.6961522657
  0
LWPOLYLINE
  5
3F4
100
AcDbEntity
  8
0
100
AcDbPolyline
 62
253
  6
CONTINUOUS
 90
10
 70
0
 10
158.3536369689
 20
81.4099264026
 10
158.2992354476
 20
83.2619566889
 10
158.2519581715
 20
85.0885885637
 10
158.2114964464
 20
86.8895119058
 10
158.177902477
 20
88.6440534458
 10
158.1503936703
 20
90.3721824359
 10
158.1279929838
 20
92.1350554661
 10
158.1108263813
 20
93.9534152077
 10
158.0994819677
 20
95.8070447555
 10
158.0942595298
 20
97.6961522657
  0
LWPOLYLINE
  5
3F5
100
AcDbEntity
  8
ASSI
100
AcDbPolyline
 62
253
  6
CONTINUOUS
 90
10
 70
0
 10
158.746979648
 20
98.9841139453
 10
158.751071607
 20
100.678235327
 10
158.7610647548
 20
102.402009593
 10
158.7769590913
 20
104.1554367431
 10
158.798096705
 20
105.9247548313
 10
158.8251355073
 20
107.7237258036
 10
158.8600492332
 20
109.5936354989
 10
158.9034957939
 20
111.5482458633
 10
158.9548172781
 20
113.5737949505
 10
159.0140136857
 20
115.6702827607
  0
LWPOLYLINE
  5
3F6
100
AcDbEntity
  8
0
100
AcDbPolyline
 62
253
  6
CONTINUOUS
 90
10
 70
0
 10
158.746979648
 20
98.9841139453
 10
158.751071607
 20
100.678235327
 10
158.7610647548
 20
102.402009593
 10
158.7769590913
 20
104.1554367431
 10
158.798096705
 20
105.9247548313
 10
158.8251355073
 20
107.7237258036
 10
158.8600492332
 20
109.5936354989
 10
158.9034957939
 20
111.5482458633
 10
158.9548172781
 20
113.5737949505
 10
159.0140136857
 20
115.6702827607
  0
LWPOLYLINE
  5
3F7
100
AcDbEntity
  8
ASSI
100
AcDbPolyline
 62
253
  6
CONTINUOUS
 90
5
 70
0
 10
158.0942595197
 20
98.9072205095
 10
158.0986194684
 20
100.6033498798
 10
158.1082487877
 20
102.3289274185
 10
158.1233762007
 20
104.0841056241
 10
158.1440521896
 20
105.8555785629
  0
LWPOLYLINE
  5
3F8
100
AcDbEntity
  8
0
100
AcDbPolyline
 62
253
  6
CONTINUOUS
 90
5
 70
0
 10
158.0942595197
 20
98.9072205095
 10
158.0986194684
 20
100.6033498798
 10
158.1082487877
 20
102.3289274185
 10
158.1233762007
 20
104.0841056241
 10
158.1440521896
 20
105.8555785629
  0
LINE
  5
3F9
100
AcDbEntity
  8
ASSI
100
AcDbLine
 62
253
  6
CONTINUOUS
 10
158.1440521896
 20
105.8555785629
 11
158.1706091145
 21
107.6568897415
  0
LINE
  5
3FA
100
AcDbEntity
  8
0
100
AcDbLine
 62
253
  6
CONTINUOUS
 10
158.1440521896
 20
105.8555785629
 11
158.1706091145
 21
107.6568897415
  0
LWPOLYLINE
  5
3FB
100
AcDbEntity
  8
ASSI
100
AcDbPolyline
 62
253
  6
CONTINUOUS
 90
5
 70
0
 10
158.1706091145
 20
107.6568897415
 10
158.2040801062
 20
109.5287623988
 10
158.2454095884
 20
111.4852114359
 10
158.2950345902
 20
113.5132124001
 10
158.3536369698
 20
115.6132390895
  0
LWPOLYLINE
  5
3FC
100
AcDbEntity
  8
0
100
AcDbPolyline
 62
253
  6
CONTINUOUS
 90
5
 70
0
 10
158.1706091145
 20
107.6568897415
 10
158.2040801062
 20
109.5287623988
 10
158.2454095884
 20
111.4852114359
 10
158.2950345902
 20
113.5132124001
 10
158.3536369698
 20
115.6132390895
  0
LWPOLYLINE
  5
3FD
100
AcDbEntity
  8
ASSI
100
AcDbPolyline
 62
253
  6
CONTINUOUS
 90
16
 70
0
 10
158.0942597091
 20
97.6961522039
 10
158.0960291458
 20
97.7407805416
 10
158.0999455907
 20
97.7868213027
 10
158.1062072008
 20
97.8341391331
 10
158.1154032207
 20
97.8828388375
 10
158.1273969556
 20
97.9327278537
 10
158.1413229591
 20
97.98286773
 10
158.1574737741
 20
98.032260318
 10
158.1761036533
 20
98.0806966916
 10
158.1962006973
 20
98.1279110781
 10
158.2178446499
 20
98.1730341652
 10
158.2412678714
 20
98.2154672249
 10
158.2655171847
 20
98.2551997352
 10
158.2902806896
 20
98.2917630099
 10
158.3159509262
 20
98.324329447
 10
158.3425486079
 20
98.3523864943
  0
LWPOLYLINE
  5
3FE
100
AcDbEntity
  8
0
100
AcDbPolyline
 62
253
  6
CONTINUOUS
 90
16
 70
0
 10
158.0942597091
 20
97.6961522039
 10
158.0960291458
 20
97.7407805416
 10
158.0999455907
 20
97.7868213027
 10
158.1062072008
 20
97.8341391331
 10
158.1154032207
 20
97.8828388375
 10
158.1273969556
 20
97.9327278537
 10
158.1413229591
 20
97.98286773
 10
158.1574737741
 20
98.032260318
 10
158.1761036533
 20
98.0806966916
 10
158.1962006973
 20
98.1279110781
 10
158.2178446499
 20
98.1730341652
 10
158.2412678714
 20
98.2154672249
 10
158.2655171847
 20
98.2551997352
 10
158.2902806896
 20
98.2917630099
 10
158.3159509262
 20
98.324329447
 10
158.3425486079
 20
98.3523864943
  0
LWPOLYLINE
  5
3FF
100
AcDbEntity
  8
ASSI
100
AcDbPolyline
 62
253
  6
CONTINUOUS
 90
22
 70
0
 10
158.3536369843
 20
115.6132390955
 10
158.3572448888
 20
115.6852046384
 10
158.3641603456
 20
115.7594113508
 10
158.3743519901
 20
115.835491724
 10
158.3877797603
 20
115.9130607262
 10
158.4043761668
 20
115.9917415317
 10
158.4240486433
 20
116.0711681299
 10
158.4467150563
 20
116.1509512493
 10
158.4722694125
 20
116.2306896271
 10
158.5005647261
 20
116.3099963203
 10
158.5314768945
 20
116.3884743083
 10
158.5648642219
 20
116.4657332386
 10
158.6005354724
 20
116.5414013456
 10
158.6383337253
 20
116.6151000331
 10
158.6780850252
 20
116.6864585319
 10
158.7195578585
 20
116.755130941
 10
158.7625638718
 20
116.8207675944
 10
158.8069092597
 20
116.8830418789
 10
158.8523439977
 20
116.9416636697
 10
158.8986462594
 20
116.9963428889
 10
158.945622948
 20
117.0467922517
 10
158.9930612728
 20
117.0927533546
  0
LWPOLYLINE
  5
400
100
AcDbEntity
  8
0
100
AcDbPolyline
 62
253
  6
CONTINUOUS
 90
22
 70
0
 10
158.3536369843
 20
115.6132390955
 10
158.3572448888
 20
115.6852046384
 10
158.3641603456
 20
115.7594113508
 10
158.3743519901
 20
115.835491724
 10
158.3877797603
 20
115.9130607262
 10
158.4043761668
 20
115.9917415317
 10
158.4240486433
 20
116.0711681299
 10
158.4467150563
 20
116.1509512493
 10
158.4722694125
 20
116.2306896271
 10
158.5005647261
 20
116.3099963203
 10
158.5314768945
 20
116.3884743083
 10
158.5648642219
 20
116.4657332386
 10
158.6005354724
 20
116.5414013456
 10
158.6383337253
 20
116.6151000331
 10
158.6780850252
 20
116.6864585319
 10
158.7195578585
 20
116.755130941
 10
158.7625638718
 20
116.8207675944
 10
158.8069092597
 20
116.8830418789
 10
158.8523439977
 20
116.9416636697
 10
158.8986462594
 20
116.9963428889
 10
158.945622948
 20
117.0467922517
 10
158.9930612728
 20
117.0927533546
  0
LWPOLYLINE
  5
401
100
AcDbEntity
  8
ASSI
100
AcDbPolyline
 62
253
  6
CONTINUOUS
 90
22
 70
0
 10
159.0140136857
 20
115.6702827607
 10
159.0163211714
 20
115.7123308604
 10
159.0206242067
 20
115.7552817376
 10
159.0269227916
 20
115.7991353923
 10
159.0352672004
 20
115.8441346069
 10
159.0456071588
 20
115.8900365989
 10
159.0577918441
 20
115.9361130211
 10
159.0718476317
 20
115.9823484187
 10
159.0877481461
 20
116.0287582465
 10
159.1052634378
 20
116.0746605218
 10
159.1244192738
 20
116.1200509073
 10
159.1451898871
 20
116.1649337403
 10
159.1672680268
 20
116.2086400503
 10
159.190673138
 20
116.2511507946
 10
159.2153857757
 20
116.292485016
 10
159.2410403531
 20
116.3320308726
 10
159.2676638358
 20
116.369772612
 10
159.2952292583
 20
116.4057259867
 10
159.3232901381
 20
116.4393264116
 10
159.3516976477
 20
116.4703856918
 10
159.3806006146
 20
116.4990920223
 10
159.4099990388
 20
116.525445403
  0
LWPOLYLINE
  5
402
100
AcDbEntity
  8
0
100
AcDbPolyline
 62
253
  6
CONTINUOUS
 90
22
 70
0
 10
159.0140136857
 20
115.6702827607
 10
159.0163211714
 20
115.7123308604
 10
159.0206242067
 20
115.7552817376
 10
159.0269227916
 20
115.7991353923
 10
159.0352672004
 20
115.8441346069
 10
159.0456071588
 20
115.8900365989
 10
159.0577918441
 20
115.9361130211
 10
159.0718476317
 20
115.9823484187
 10
159.0877481461
 20
116.0287582465
 10
159.1052634378
 20
116.0746605218
 10
159.1244192738
 20
116.1200509073
 10
159.1451898871
 20
116.1649337403
 10
159.1672680268
 20
116.2086400503
 10
159.190673138
 20
116.2511507946
 10
159.2153857757
 20
116.292485016
 10
159.2410403531
 20
116.3320308726
 10
159.2676638358
 20
116.369772612
 10
159.2952292583
 20
116.4057259867
 10
159.3232901381
 20
116.4393264116
 10
159.3516976477
 20
116.4703856918
 10
159.3806006146
 20
116.4990920223
 10
159.4099990388
 20
116.525445403
  0
LWPOLYLINE
  5
403
100
AcDbEntity
  8
ASSI
100
AcDbPolyline
 62
253
  6
CONTINUOUS
 90
8
 70
0
 10
158.7469796482
 20
98.9841139454
 10
158.7445616009
 20
98.9425128231
 10
158.7378396253
 20
98.9030536529
 10
158.7268432198
 20
98.8661865665
 10
158.7116305164
 20
98.8323051855
 10
158.6923369412
 20
98.8018559465
 10
158.6692181837
 20
98.7752919946
 10
158.6486747749
 20
98.7574458205
  0
LWPOLYLINE
  5
404
100
AcDbEntity
  8
0
100
AcDbPolyline
 62
253
  6
CONTINUOUS
 90
8
 70
0
 10
158.7469796482
 20
98.9841139454
 10
158.7445616009
 20
98.9425128231
 10
158.7378396253
 20
98.9030536529
 10
158.7268432198
 20
98.8661865665
 10
158.7116305164
 20
98.8323051855
 10
158.6923369412
 20
98.8018559465
 10
158.6692181837
 20
98.7752919946
 10
158.6486747749
 20
98.7574458205
  0
LINE
  5
405
100
AcDbEntity
  8
ASSI
100
AcDbLine
 62
253
  6
CONTINUOUS
 10
160.9663425282
 20
100.4177269582
 11
158.3425486081
 21
98.3523864945
  0
LINE
  5
406
100
AcDbEntity
  8
0
100
AcDbLine
 62
253
  6
CONTINUOUS
 10
160.9663425282
 20
100.4177269582
 11
158.3425486081
 21
98.3523864945
  0
LINE
  5
407
100
AcDbEntity
  8
ASSI
100
AcDbLine
 62
253
  6
CONTINUOUS
 10
161.3759653568
 20
99.8437151421
 11
158.7469797058
 21
97.7742879657
  0
LINE
  5
408
100
AcDbEntity
  8
0
100
AcDbLine
 62
253
  6
CONTINUOUS
 10
161.3759653568
 20
99.8437151421
 11
158.7469797058
 21
97.7742879657
  0
LINE
  5
409
100
AcDbEntity
  8
ASSI
100
AcDbLine
 62
253
  6
CONTINUOUS
 10
158.6486747749
 20
98.7574458205
 11
158.6483830393
 21
98.7572227972
  0
LINE
  5
40A
100
AcDbEntity
  8
0
100
AcDbLine
 62
253
  6
CONTINUOUS
 10
158.6486747749
 20
98.7574458205
 11
158.6483830393
 21
98.7572227972
  0
LINE
  5
40B
100
AcDbEntity
  8
ASSI
100
AcDbLine
 62
253
  6
CONTINUOUS
 10
158.746979648
 20
98.9841139453
 11
161.3759653568
 21
100.9903720667
  0
LINE
  5
40C
100
AcDbEntity
  8
0
100
AcDbLine
 62
253
  6
CONTINUOUS
 10
158.746979648
 20
98.9841139453
 11
161.3759653568
 21
100.9903720667
  0
LINE
  5
40D
100
AcDbEntity
  8
ASSI
100
AcDbLine
 62
7
  6
CONTINUOUS
 10
158.6483808949
 20
98.7572211608
 11
161.2771083759
 21
100.7632822209
  0
LINE
  5
40E
100
AcDbEntity
  8
0
100
AcDbLine
 62
7
  6
CONTINUOUS
 10
158.6483808949
 20
98.7572211608
 11
161.2771083759
 21
100.7632822209
  0
LWPOLYLINE
  5
40F
100
AcDbEntity
  8
ASSI
100
AcDbPolyline
 62
253
  6
CONTINUOUS
 90
16
 70
0
 10
158.7469797065
 20
97.7742879663
 10
158.7161933288
 20
97.7526428657
 10
158.6818975547
 20
97.7328154593
 10
158.6444166735
 20
97.7149932286
 10
158.6041050987
 20
97.6993446969
 10
158.5613439974
 20
97.6860178286
 10
158.5165376827
 20
97.6751386334
 10
158.4701098039
 20
97.6668099819
 10
158.4224993872
 20
97.6611106365
 10
158.3741566658
 20
97.6580944938
 10
158.3255387765
 20
97.6577900693
 10
158.2771054125
 20
97.6602002362
 10
158.2293145224
 20
97.6653022041
 10
158.1826179941
 20
97.6730477319
 10
158.1374573817
 20
97.6833635796
 10
158.0942597091
 20
97.6961522039
  0
LWPOLYLINE
  5
410
100
AcDbEntity
  8
0
100
AcDbPolyline
 62
253
  6
CONTINUOUS
 90
16
 70
0
 10
158.7469797065
 20
97.7742879663
 10
158.7161933288
 20
97.7526428657
 10
158.6818975547
 20
97.7328154593
 10
158.6444166735
 20
97.7149932286
 10
158.6041050987
 20
97.6993446969
 10
158.5613439974
 20
97.6860178286
 10
158.5165376827
 20
97.6751386334
 10
158.4701098039
 20
97.6668099819
 10
158.4224993872
 20
97.6611106365
 10
158.3741566658
 20
97.6580944938
 10
158.3255387765
 20
97.6577900693
 10
158.2771054125
 20
97.6602002362
 10
158.2293145224
 20
97.6653022041
 10
158.1826179941
 20
97.6730477319
 10
158.1374573817
 20
97.6833635796
 10
158.0942597091
 20
97.6961522039
  0
LWPOLYLINE
  5
411
100
AcDbEntity
  8
0
100
AcDbPolyline
 62
253
  6
CONTINUOUS
 90
79
 70
0
 10
152.8050467162
 20
91.9194042534
 10
152.8126825921
 20
91.9241547681
 10
152.8199375565
 20
91.9292934838
 10
152.826822121
 20
91.9348097366
 10
152.8333467972
 20
91.9406928627
 10
152.8395220966
 20
91.9469321982
 10
152.8453585308
 20
91.9535170792
 10
152.8508639343
 20
91.9604381707
 10
152.8560354327
 20
91.9676914531
 10
152.8608674746
 20
91.9752742354
 10
152.8653545085
 20
91.983183827
 10
152.8694909831
 20
91.9914175371
 10
152.8732713468
 20
91.9999726747
 10
152.8766888905
 20
92.0088459968
 10
152.8797322734
 20
92.0180320511
 10
152.8823889973
 20
92.0275248328
 10
152.8846455203
 20
92.0373241681
 10
152.8864841267
 20
92.0474532069
 10
152.8878860572
 20
92.0579409298
 10
152.8888314805
 20
92.0688045444
 10
152.889296277
 20
92.0800141665
 10
152.8892552547
 20
92.0915281387
 10
152.8886860927
 20
92.1033117349
 10
152.8875779541
 20
92.1153579535
 10
152.8859228727
 20
92.1276667242
 10
152.8837158171
 20
92.140229817
 10
152.8809634929
 20
92.1530063636
 10
152.8776755406
 20
92.1659473359
 10
152.8738616003
 20
92.179003706
 10
152.8695313122
 20
92.192126446
 10
152.8646943167
 20
92.2052665277
 10
152.8593621814
 20
92.2183777917
 10
152.8535541829
 20
92.2314255516
 10
152.8472915253
 20
92.2443779895
 10
152.8405954129
 20
92.2572032876
 10
152.8334870496
 20
92.2698696279
 10
152.8259876395
 20
92.2823451925
 10
152.8181138578
 20
92.2946041846
 10
152.8098642631
 20
92.3066448912
 10
152.8012328853
 20
92.3184716207
 10
152.7922137541
 20
92.3300886811
 10
152.7828008991
 20
92.3415003807
 10
152.7729883503
 20
92.3527110276
 10
152.7627774217
 20
92.363717657
 10
152.7521985652
 20
92.3744882118
 10
152.741289517
 20
92.3849833616
 10
152.7300880135
 20
92.3951637763
 10
152.7186317908
 20
92.4049901257
 10
152.7069585854
 20
92.4144230794
 10
152.6951072142
 20
92.4234266871
 10
152.6831208179
 20
92.4319785179
 10
152.6710436176
 20
92.4400595206
 10
152.6589198347
 20
92.447650644
 10
152.6467936906
 20
92.4547328371
 10
152.6347094066
 20
92.4612870488
 10
152.6227032156
 20
92.4672992279
 10
152.610779397
 20
92.4727753241
 10
152.598934242
 20
92.4777262869
 10
152.5871713892
 20
92.4821622817
 10
152.5755238682
 20
92.4860903371
 10
152.5640320562
 20
92.4895166974
 10
152.5527266974
 20
92.4924502963
 10
152.5416000036
 20
92.4949108253
 10
152.5306345536
 20
92.496920665
 10
152.5198164857
 20
92.4984993102
 10
152.5091461769
 20
92.4996547107
 10
152.4986275638
 20
92.50039193
 10
152.4882656738
 20
92.5007154277
 10
152.4780698992
 20
92.5006272473
 10
152.4680507231
 20
92.5001288285
 10
152.4582186287
 20
92.4992216108
 10
152.4485840991
 20
92.4979070339
 10
152.4391576175
 20
92.4961865373
 10
152.4299490143
 20
92.4940589683
 10
152.4209655079
 20
92.491512805
 10
152.412213664
 20
92.4885339329
 10
152.4037000484
 20
92.485108238
 10
152.3954312266
 20
92.4812216058
 10
152.3874137644
 20
92.4768599222
  0
LWPOLYLINE
  5
412
100
AcDbEntity
  8
0
100
AcDbPolyline
 62
253
  6
CONTINUOUS
 90
16
 70
0
 10
152.3874137644
 20
92.4768599222
 10
152.2042387683
 20
92.3718414849
 10
152.0195295533
 20
92.2697901771
 10
151.8332796931
 20
92.1706958786
 10
151.6454827614
 20
92.0745484691
 10
151.4561323319
 20
91.9813378284
 10
151.2652309921
 20
91.891058937
 10
151.0728173845
 20
91.8037271782
 10
150.8789391652
 20
91.7193630361
 10
150.6836439905
 20
91.637986995
 10
150.4869795166
 20
91.5596195389
 10
150.2889829949
 20
91.484277801
 10
150.0896500565
 20
91.4119655107
 10
149.8889659278
 20
91.3426830466
 10
149.6869158353
 20
91.2764307871
 10
149.4834850051
 20
91.2132091109
  0
LWPOLYLINE
  5
413
100
AcDbEntity
  8
0
100
AcDbPolyline
 62
253
  6
CONTINUOUS
 90
10
 70
0
 10
151.7567323348
 20
91.36608998
 10
151.8277330393
 20
91.3999841692
 10
151.952198108
 20
91.4606079028
 10
152.0759996923
 20
91.522455384
 10
152.1991408403
 20
91.5855295642
 10
152.3216245999
 20
91.649833395
 10
152.4434540192
 20
91.7153698278
 10
152.5646321464
 20
91.7821418142
 10
152.6851620294
 20
91.8501523055
 10
152.8050467162
 20
91.9194042534
  0
LWPOLYLINE
  5
414
100
AcDbEntity
  8
0
100
AcDbPolyline
 62
253
  6
CONTINUOUS
 90
3
 70
0
 10
151.6272144892
 20
91.3055310039
 10
151.6563843363
 20
91.3190279218
 10
151.7567323348
 20
91.36608998
  0
LWPOLYLINE
  5
415
100
AcDbEntity
  8
0
100
AcDbPolyline
 62
253
  6
CONTINUOUS
 90
13
 70
0
 10
149.7549622274
 20
90.6001502251
 10
149.907796795
 20
90.6465033514
 10
150.0598858586
 20
90.6945175997
 10
150.2112369778
 20
90.7441940253
 10
150.3618577124
 20
90.7955336835
 10
150.5117556219
 20
90.8485376295
 10
150.6609382659
 20
90.9032069184
 10
150.8094132041
 20
90.9595426055
 10
150.9748668093
 20
91.0246155388
 10
151.1394079458
 20
91.0917654856
 10
151.3030024081
 20
91.1609778054
 10
151.4656159911
 20
91.2322378583
 10
151.6272144892
 20
91.3055310039
  0
LWPOLYLINE
  5
416
100
AcDbEntity
  8
ASSI
100
AcDbPolyline
 62
253
  6
CONTINUOUS
 90
10
 70
0
 10
141.933667278
 20
123.9441905605
 10
141.8902063873
 20
123.9584958084
 10
141.8473850625
 20
123.9683055018
 10
141.8056716532
 20
123.9735123657
 10
141.7655223762
 20
123.9740594679
 10
141.7273763631
 20
123.9699408398
 10
141.6916508516
 20
123.9612015562
 10
141.6587365694
 20
123.9479372335
 10
141.6289934798
 20
123.9302929741
 10
141.6058317611
 20
123.9114170645
  0
LWPOLYLINE
  5
417
100
AcDbEntity
  8
0
100
AcDbPolyline
 62
253
  6
CONTINUOUS
 90
10
 70
0
 10
141.933667278
 20
123.9441905605
 10
141.8902063873
 20
123.9584958084
 10
141.8473850625
 20
123.9683055018
 10
141.8056716532
 20
123.9735123657
 10
141.7655223762
 20
123.9740594679
 10
141.7273763631
 20
123.9699408398
 10
141.6916508516
 20
123.9612015562
 10
141.6587365694
 20
123.9479372335
 10
141.6289934798
 20
123.9302929741
 10
141.6058317611
 20
123.9114170645
  0
LWPOLYLINE
  5
418
100
AcDbEntity
  8
0
100
AcDbPolyline
 62
253
  6
CONTINUOUS
 90
10
 70
0
 10
123.7484918948
 20
131.2477669696
 10
123.705031004
 20
131.2620722175
 10
123.6622096793
 20
131.2718819109
 10
123.62049627
 20
131.2770887748
 10
123.5803469929
 20
131.277635877
 10
123.5422009799
 20
131.2735172489
 10
123.5064754684
 20
131.2647779652
 10
123.4735611862
 20
131.2515136426
 10
123.4438180965
 20
131.2338693831
 10
123.4206563779
 20
131.2149934736
  0
LWPOLYLINE
  5
419
100
AcDbEntity
  8
ASSI
100
AcDbPolyline
 62
253
  6
CONTINUOUS
 90
10
 70
0
 10
123.7484918948
 20
131.2477669696
 10
123.705031004
 20
131.2620722175
 10
123.6622096793
 20
131.2718819109
 10
123.62049627
 20
131.2770887748
 10
123.5803469929
 20
131.277635877
 10
123.5422009799
 20
131.2735172489
 10
123.5064754684
 20
131.2647779652
 10
123.4735611862
 20
131.2515136426
 10
123.4438180965
 20
131.2338693831
 10
123.4206563779
 20
131.2149934736
  0
LWPOLYLINE
  5
41A
100
AcDbEntity
  8
ASSI
100
AcDbPolyline
 62
253
  6
CONTINUOUS
 90
31
 70
0
 10
158.9930612728
 20
117.0927533547
 10
158.4152530342
 20
117.2919617003
 10
157.8393261067
 20
117.4926223669
 10
157.2652804903
 20
117.6947353544
 10
156.6932714878
 20
117.8982451299
 10
156.1231437965
 20
118.1032072263
 10
155.5544315083
 20
118.3097882426
 10
154.9869008313
 20
118.5180716349
 10
154.4207855575
 20
118.7279739472
 10
153.8563211543
 20
118.9394114103
 10
153.2935711712
 20
119.1523618826
 10
152.7324720587
 20
119.3668475058
 10
152.1730686368
 20
119.5828509348
 10
151.615277768
 20
119.8004068238
 10
151.0591825898
 20
120.0194805186
 10
150.5050773346
 20
120.2399507121
 10
149.9533084136
 20
120.461675216
 10
149.4035294157
 20
120.6847962184
 10
148.8549953399
 20
120.9096189769
 10
148.3087574741
 20
121.1356717716
 10
147.7637645305
 20
121.3634263223
 10
147.2161176442
 20
121.5946030464
 10
146.6666650939
 20
121.8287502245
 10
146.1145586011
 20
122.0663195761
 10
145.5533544647
 20
122.3103866763
 10
144.9827019864
 20
122.5609842203
 10
144.4029518646
 20
122.8180795129
 10
143.8087124934
 20
123.0846500443
 10
143.198186671
 20
123.361688311
 10
142.5731715992
 20
123.6482018164
 10
141.933667278
 20
123.9441905606
  0
LWPOLYLINE
  5
41B
100
AcDbEntity
  8
0
100
AcDbPolyline
 62
253
  6
CONTINUOUS
 90
31
 70
0
 10
158.9930612728
 20
117.0927533547
 10
158.4152530342
 20
117.2919617003
 10
157.8393261067
 20
117.4926223669
 10
157.2652804903
 20
117.6947353544
 10
156.6932714878
 20
117.8982451299
 10
156.1231437965
 20
118.1032072263
 10
155.5544315083
 20
118.3097882426
 10
154.9869008313
 20
118.5180716349
 10
154.4207855575
 20
118.7279739472
 10
153.8563211543
 20
118.9394114103
 10
153.2935711712
 20
119.1523618826
 10
152.7324720587
 20
119.3668475058
 10
152.1730686368
 20
119.5828509348
 10
151.615277768
 20
119.8004068238
 10
151.0591825898
 20
120.0194805186
 10
150.5050773346
 20
120.2399507121
 10
149.9533084136
 20
120.461675216
 10
149.4035294157
 20
120.6847962184
 10
148.8549953399
 20
120.9096189769
 10
148.3087574741
 20
121.1356717716
 10
147.7637645305
 20
121.3634263223
 10
147.2161176442
 20
121.5946030464
 10
146.6666650939
 20
121.8287502245
 10
146.1145586011
 20
122.0663195761
 10
145.5533544647
 20
122.3103866763
 10
144.9827019864
 20
122.5609842203
 10
144.4029518646
 20
122.8180795129
 10
143.8087124934
 20
123.0846500443
 10
143.198186671
 20
123.361688311
 10
142.5731715992
 20
123.6482018164
 10
141.933667278
 20
123.9441905606
  0
LWPOLYLINE
  5
41C
100
AcDbEntity
  8
0
100
AcDbPolyline
 62
253
  6
CONTINUOUS
 90
31
 70
0
 10
140.8078858896
 20
124.3963297638
 10
140.230077651
 20
124.5955381094
 10
139.6541507235
 20
124.796198776
 10
139.0801051071
 20
124.9983117635
 10
138.5080961046
 20
125.201821539
 10
137.9379684133
 20
125.4067836353
 10
137.3692561251
 20
125.6133646517
 10
136.8017254481
 20
125.821648044
 10
136.2356101743
 20
126.0315503563
 10
135.6711457711
 20
126.2429878194
 10
135.1083957879
 20
126.4559382917
 10
134.5472966755
 20
126.6704239149
 10
133.9878932536
 20
126.8864273439
 10
133.4301023848
 20
127.1039832329
 10
132.8740072066
 20
127.3230569277
 10
132.3199019514
 20
127.5435271212
 10
131.7681330304
 20
127.765251625
 10
131.2183540325
 20
127.9883726275
 10
130.6698199567
 20
128.213195386
 10
130.1235820909
 20
128.4392481806
 10
129.5785891473
 20
128.6670027314
 10
129.0309422609
 20
128.8981794555
 10
128.4814897107
 20
129.1323266336
 10
127.9293832179
 20
129.3698959852
 10
127.3681790815
 20
129.6139630854
 10
126.7975266032
 20
129.8645606294
 10
126.2177764814
 20
130.121655922
 10
125.6235371102
 20
130.3882264533
 10
125.0130112877
 20
130.6652647201
 10
124.3879962159
 20
130.9517782255
 10
123.7484918948
 20
131.2477669697
  0
LWPOLYLINE
  5
41D
100
AcDbEntity
  8
ASSI
100
AcDbPolyline
 62
253
  6
CONTINUOUS
 90
31
 70
0
 10
140.8078858896
 20
124.3963297638
 10
140.230077651
 20
124.5955381094
 10
139.6541507235
 20
124.796198776
 10
139.0801051071
 20
124.9983117635
 10
138.5080961046
 20
125.201821539
 10
137.9379684133
 20
125.4067836353
 10
137.3692561251
 20
125.6133646517
 10
136.8017254481
 20
125.821648044
 10
136.2356101743
 20
126.0315503563
 10
135.6711457711
 20
126.2429878194
 10
135.1083957879
 20
126.4559382917
 10
134.5472966755
 20
126.6704239149
 10
133.9878932536
 20
126.8864273439
 10
133.4301023848
 20
127.1039832329
 10
132.8740072066
 20
127.3230569277
 10
132.3199019514
 20
127.5435271212
 10
131.7681330304
 20
127.765251625
 10
131.2183540325
 20
127.9883726275
 10
130.6698199567
 20
128.213195386
 10
130.1235820909
 20
128.4392481806
 10
129.5785891473
 20
128.6670027314
 10
129.0309422609
 20
128.8981794555
 10
128.4814897107
 20
129.1323266336
 10
127.9293832179
 20
129.3698959852
 10
127.3681790815
 20
129.6139630854
 10
126.7975266032
 20
129.8645606294
 10
126.2177764814
 20
130.121655922
 10
125.6235371102
 20
130.3882264533
 10
125.0130112877
 20
130.6652647201
 10
124.3879962159
 20
130.9517782255
 10
123.7484918948
 20
131.2477669697
  0
LINE
  5
41E
100
AcDbEntity
  8
ASSI
100
AcDbLine
 62
7
  6
CONTINUOUS
 10
157.4727340748
 20
119.0536885918
 11
154.7129617766
 21
120.1620753643
  0
LINE
  5
41F
100
AcDbEntity
  8
0
100
AcDbLine
 62
7
  6
CONTINUOUS
 10
157.4727340748
 20
119.0536885918
 11
154.7129617766
 21
120.1620753643
  0
LINE
  5
420
100
AcDbEntity
  8
ASSI
100
AcDbLine
 62
7
  6
CONTINUOUS
 10
148.2982311787
 20
122.7383757892
 11
145.5384588806
 21
123.8467625617
  0
LINE
  5
421
100
AcDbEntity
  8
0
100
AcDbLine
 62
7
  6
CONTINUOUS
 10
148.2982311787
 20
122.7383757892
 11
145.5384588806
 21
123.8467625617
  0
LINE
  5
422
100
AcDbEntity
  8
0
100
AcDbLine
 62
7
  6
CONTINUOUS
 10
139.2875586916
 20
126.3572650009
 11
136.5277863934
 21
127.4656517734
  0
LINE
  5
423
100
AcDbEntity
  8
ASSI
100
AcDbLine
 62
7
  6
CONTINUOUS
 10
139.2875586916
 20
126.3572650009
 11
136.5277863934
 21
127.4656517734
  0
LINE
  5
424
100
AcDbEntity
  8
0
100
AcDbLine
 62
7
  6
CONTINUOUS
 10
130.1130557955
 20
130.0419521983
 11
127.3532834974
 21
131.1503389708
  0
LINE
  5
425
100
AcDbEntity
  8
ASSI
100
AcDbLine
 62
7
  6
CONTINUOUS
 10
130.1130557955
 20
130.0419521983
 11
127.3532834974
 21
131.1503389708
  0
LINE
  5
426
100
AcDbEntity
  8
ASSI
100
AcDbLine
 62
7
  6
CONTINUOUS
 10
160.4953355215
 20
118.3656182906
 11
158.3078779314
 21
119.2441505738
  0
LINE
  5
427
100
AcDbEntity
  8
0
100
AcDbLine
 62
7
  6
CONTINUOUS
 10
160.4953355215
 20
118.3656182906
 11
158.3078779314
 21
119.2441505738
  0
LINE
  5
428
100
AcDbEntity
  8
ASSI
100
AcDbLine
 62
7
  6
CONTINUOUS
 10
154.6895903798
 20
120.6973364269
 11
149.1333750354
 21
122.9288377712
  0
LINE
  5
429
100
AcDbEntity
  8
0
100
AcDbLine
 62
7
  6
CONTINUOUS
 10
154.6895903798
 20
120.6973364269
 11
149.1333750354
 21
122.9288377712
  0
LINE
  5
42A
100
AcDbEntity
  8
ASSI
100
AcDbLine
 62
7
  6
CONTINUOUS
 10
145.5150874838
 20
124.3820236243
 11
143.3276298936
 21
125.2605559076
  0
LINE
  5
42B
100
AcDbEntity
  8
0
100
AcDbLine
 62
7
  6
CONTINUOUS
 10
145.5150874838
 20
124.3820236243
 11
143.3276298936
 21
125.2605559076
  0
LINE
  5
42C
100
AcDbEntity
  8
0
100
AcDbLine
 62
7
  6
CONTINUOUS
 10
142.3101601383
 20
125.6691946996
 11
140.1227025482
 21
126.5477269829
  0
LINE
  5
42D
100
AcDbEntity
  8
ASSI
100
AcDbLine
 62
7
  6
CONTINUOUS
 10
142.3101601383
 20
125.6691946996
 11
140.1227025482
 21
126.5477269829
  0
LINE
  5
42E
100
AcDbEntity
  8
0
100
AcDbLine
 62
7
  6
CONTINUOUS
 10
136.5044149966
 20
128.000912836
 11
130.9481996521
 21
130.2324141803
  0
LINE
  5
42F
100
AcDbEntity
  8
ASSI
100
AcDbLine
 62
7
  6
CONTINUOUS
 10
136.5044149966
 20
128.000912836
 11
130.9481996521
 21
130.2324141803
  0
LINE
  5
430
100
AcDbEntity
  8
0
100
AcDbLine
 62
7
  6
CONTINUOUS
 10
127.3299121006
 20
131.6856000334
 11
125.1424545104
 21
132.5641323167
  0
LINE
  5
431
100
AcDbEntity
  8
ASSI
100
AcDbLine
 62
7
  6
CONTINUOUS
 10
127.3299121006
 20
131.6856000334
 11
125.1424545104
 21
132.5641323167
  0
LWPOLYLINE
  5
432
100
AcDbEntity
  8
0
100
AcDbPolyline
 62
253
  6
CONTINUOUS
 90
16
 70
0
 10
140.8078858896
 20
124.3963297637
 10
140.8499466095
 20
124.3762876746
 10
140.8917114648
 20
124.3521258148
 10
140.9327236682
 20
124.3241084455
 10
140.972534664
 20
124.2925419961
 10
141.0107090346
 20
124.2577717127
 10
141.0468292623
 20
124.2201778826
 10
141.0805002958
 20
124.1801716741
 10
141.1113538707
 20
124.13819064
 10
141.1390525378
 20
124.094693932
 10
141.1632933532
 20
124.0501572792
 10
141.1838111922
 20
124.0050677843
 10
141.2003816487
 20
123.9599185967
 10
141.2128234894
 20
123.9152035187
 10
141.2210006365
 20
123.8714116047
 10
141.2248236555
 20
123.8290218121
  0
LWPOLYLINE
  5
433
100
AcDbEntity
  8
ASSI
100
AcDbPolyline
 62
253
  6
CONTINUOUS
 90
16
 70
0
 10
140.8078858896
 20
124.3963297637
 10
140.8499466095
 20
124.3762876746
 10
140.8917114648
 20
124.3521258148
 10
140.9327236682
 20
124.3241084455
 10
140.972534664
 20
124.2925419961
 10
141.0107090346
 20
124.2577717127
 10
141.0468292623
 20
124.2201778826
 10
141.0805002958
 20
124.1801716741
 10
141.1113538707
 20
124.13819064
 10
141.1390525378
 20
124.094693932
 10
141.1632933532
 20
124.0501572792
 10
141.1838111922
 20
124.0050677843
 10
141.2003816487
 20
123.9599185967
 10
141.2128234894
 20
123.9152035187
 10
141.2210006365
 20
123.8714116047
 10
141.2248236555
 20
123.8290218121
  0
LWPOLYLINE
  5
434
100
AcDbEntity
  8
ASSI
100
AcDbPolyline
 62
253
  6
CONTINUOUS
 90
16
 70
0
 10
158.9930612728
 20
117.0927533546
 10
159.0351219927
 20
117.0727112656
 10
159.076886848
 20
117.0485494057
 10
159.1178990514
 20
117.0205320364
 10
159.1577100473
 20
116.988965587
 10
159.1958844178
 20
116.9541953037
 10
159.2320046455
 20
116.9166014735
 10
159.265675679
 20
116.876595265
 10
159.2965292539
 20
116.8346142309
 10
159.324227921
 20
116.791117523
 10
159.3484687364
 20
116.7465808701
 10
159.3689865754
 20
116.7014913752
 10
159.3855570319
 20
116.6563421876
 10
159.3979988726
 20
116.6116271096
 10
159.4061760198
 20
116.5678351956
 10
159.4099990388
 20
116.525445403
  0
LWPOLYLINE
  5
435
100
AcDbEntity
  8
0
100
AcDbPolyline
 62
253
  6
CONTINUOUS
 90
16
 70
0
 10
158.9930612728
 20
117.0927533546
 10
159.0351219927
 20
117.0727112656
 10
159.076886848
 20
117.0485494057
 10
159.1178990514
 20
117.0205320364
 10
159.1577100473
 20
116.988965587
 10
159.1958844178
 20
116.9541953037
 10
159.2320046455
 20
116.9166014735
 10
159.265675679
 20
116.876595265
 10
159.2965292539
 20
116.8346142309
 10
159.324227921
 20
116.791117523
 10
159.3484687364
 20
116.7465808701
 10
159.3689865754
 20
116.7014913752
 10
159.3855570319
 20
116.6563421876
 10
159.3979988726
 20
116.6116271096
 10
159.4061760198
 20
116.5678351956
 10
159.4099990388
 20
116.525445403
  0
LINE
  5
436
100
AcDbEntity
  8
ASSI
100
AcDbLine
 62
7
  6
CONTINUOUS
 10
160.9304008899
 20
117.8136697112
 11
161.3759653568
 21
111.1479353846
  0
LINE
  5
437
100
AcDbEntity
  8
0
100
AcDbLine
 62
7
  6
CONTINUOUS
 10
160.9304008899
 20
117.8136697112
 11
161.3759653568
 21
111.1479353846
  0
LINE
  5
438
100
AcDbEntity
  8
ASSI
100
AcDbLine
 62
7
  6
CONTINUOUS
 10
161.3759653568
 20
111.1479353846
 11
161.3759653568
 21
100.9903720667
  0
LINE
  5
439
100
AcDbEntity
  8
0
100
AcDbLine
 62
7
  6
CONTINUOUS
 10
161.3759653568
 20
111.1479353846
 11
161.3759653568
 21
100.9903720667
  0
LINE
  5
43A
100
AcDbEntity
  8
ASSI
100
AcDbLine
 62
7
  6
CONTINUOUS
 10
161.3759653568
 20
89.6861518242
 11
161.3759653568
 21
99.8437151421
  0
LINE
  5
43B
100
AcDbEntity
  8
0
100
AcDbLine
 62
7
  6
CONTINUOUS
 10
161.3759653568
 20
89.6861518242
 11
161.3759653568
 21
99.8437151421
  0
LINE
  5
43C
100
AcDbEntity
  8
ASSI
100
AcDbLine
 62
7
  6
CONTINUOUS
 10
160.9304008899
 20
82.3296641926
 11
161.3759653568
 21
89.6861518242
  0
LINE
  5
43D
100
AcDbEntity
  8
0
100
AcDbLine
 62
7
  6
CONTINUOUS
 10
160.9304008899
 20
82.3296641926
 11
161.3759653568
 21
89.6861518242
  0
LWPOLYLINE
  5
43E
100
AcDbEntity
  8
ASSI
100
AcDbPolyline
 62
253
  6
CONTINUOUS
 90
8
 70
0
 10
159.2956237609
 20
81.0223763789
 10
159.3242294515
 20
81.0460378172
 10
159.3484699603
 20
81.0732730971
 10
159.3689874632
 20
81.1044253116
 10
159.3855575935
 20
81.139153731
 10
159.3979991532
 20
81.1770785133
 10
159.4061760971
 20
81.2177848567
 10
159.4099990248
 20
81.2608275454
  0
LWPOLYLINE
  5
43F
100
AcDbEntity
  8
0
100
AcDbPolyline
 62
253
  6
CONTINUOUS
 90
8
 70
0
 10
159.2956237609
 20
81.0223763789
 10
159.3242294515
 20
81.0460378172
 10
159.3484699603
 20
81.0732730971
 10
159.3689874632
 20
81.1044253116
 10
159.3855575935
 20
81.139153731
 10
159.3979991532
 20
81.1770785133
 10
159.4061760971
 20
81.2177848567
 10
159.4099990248
 20
81.2608275454
  0
LINE
  5
440
100
AcDbEntity
  8
ASSI
100
AcDbLine
 62
253
  6
CONTINUOUS
 10
160.9304008899
 20
82.3296641926
 11
159.4099990248
 21
81.2608275454
  0
LINE
  5
441
100
AcDbEntity
  8
0
100
AcDbLine
 62
253
  6
CONTINUOUS
 10
160.9304008899
 20
82.3296641926
 11
159.4099990248
 21
81.2608275454
  0
LINE
  5
442
100
AcDbEntity
  8
ASSI
100
AcDbLine
 62
7
  6
CONTINUOUS
 10
160.8070697188
 20
82.0849170579
 11
159.2956236894
 21
81.0223763287
  0
LINE
  5
443
100
AcDbEntity
  8
0
100
AcDbLine
 62
7
  6
CONTINUOUS
 10
160.8070697188
 20
82.0849170579
 11
159.2956236894
 21
81.0223763287
  0
LWPOLYLINE
  5
444
100
AcDbEntity
  8
ASSI
100
AcDbPolyline
 62
253
  6
CONTINUOUS
 90
22
 70
0
 10
159.4099990248
 20
81.2608275454
 10
159.3806006004
 20
81.241604898
 10
159.3516976333
 20
81.2255033019
 10
159.3232901236
 20
81.2125227571
 10
159.2952292436
 20
81.2026207329
 10
159.2676638209
 20
81.19583976
 10
159.2410403381
 20
81.1923074302
 10
159.2153857605
 20
81.1920812998
 10
159.1906731228
 20
81.1951038124
 10
159.1672680115
 20
81.2013298905
 10
159.1451898718
 20
81.2108087227
 10
159.1244192584
 20
81.2234911204
 10
159.1052634223
 20
81.2391844406
 10
159.0877481306
 20
81.2579329671
 10
159.0718476161
 20
81.279692416
 10
159.0577918285
 20
81.3041372929
 10
159.0456071431
 20
81.331323942
 10
159.0352671845
 20
81.361196019
 10
159.0269227763
 20
81.3932589961
 10
159.0206241931
 20
81.4273480307
 10
159.0163211603
 20
81.4636279654
 10
159.0140136779
 20
81.5020988001
  0
LWPOLYLINE
  5
445
100
AcDbEntity
  8
0
100
AcDbPolyline
 62
253
  6
CONTINUOUS
 90
22
 70
0
 10
159.4099990248
 20
81.2608275454
 10
159.3806006004
 20
81.241604898
 10
159.3516976333
 20
81.2255033019
 10
159.3232901236
 20
81.2125227571
 10
159.2952292436
 20
81.2026207329
 10
159.2676638209
 20
81.19583976
 10
159.2410403381
 20
81.1923074302
 10
159.2153857605
 20
81.1920812998
 10
159.1906731228
 20
81.1951038124
 10
159.1672680115
 20
81.2013298905
 10
159.1451898718
 20
81.2108087227
 10
159.1244192584
 20
81.2234911204
 10
159.1052634223
 20
81.2391844406
 10
159.0877481306
 20
81.2579329671
 10
159.0718476161
 20
81.279692416
 10
159.0577918285
 20
81.3041372929
 10
159.0456071431
 20
81.331323942
 10
159.0352671845
 20
81.361196019
 10
159.0269227763
 20
81.3932589961
 10
159.0206241931
 20
81.4273480307
 10
159.0163211603
 20
81.4636279654
 10
159.0140136779
 20
81.5020988001
  0
ELLIPSE
  5
446
100
AcDbEntity
  8
ASSI
100
AcDbEllipse
 62
7
  6
CONTINUOUS
 10
160.5207200138
 20
82.4948024202
 30
0.0
 11
-0.2850203122
 21
0.4108138748
 31
0.0
 40
0.7191175512
 41
-3.136779368
 42
-2.401520857
  0
ELLIPSE
  5
447
100
AcDbEntity
  8
ASSI
100
AcDbEllipse
 62
7
  6
CONTINUOUS
 10
160.966248935
 20
100.0081729292
 30
0.0
 11
0.3170403205
 21
-0.3867036085
 31
0.0
 40
0.6711200097
 41
0.6859711218
 42
2.2565390145
  0
ELLIPSE
  5
448
100
AcDbEntity
  8
0
100
AcDbEllipse
 62
7
  6
CONTINUOUS
 10
160.5207200138
 20
82.4948024202
 30
0.0
 11
-0.2850203122
 21
0.4108138748
 31
0.0
 40
0.7191175512
 41
-3.136779368
 42
-2.401520857
  0
ELLIPSE
  5
449
100
AcDbEntity
  8
0
100
AcDbEllipse
 62
7
  6
CONTINUOUS
 10
160.966248935
 20
100.0081729292
 30
0.0
 11
0.3170403205
 21
-0.3867036085
 31
0.0
 40
0.6711200097
 41
0.6859711218
 42
2.2565390145
  0
ELLIPSE
  5
44A
100
AcDbEntity
  8
0
100
AcDbEllipse
 62
7
  6
CONTINUOUS
 10
142.3355446305
 20
125.2812657022
 30
0.0
 11
-0.3433580121
 21
0.3640648834
 31
0.0
 40
0.6179721343
 41
-2.4982952834
 42
-0.9288689526
  0
ELLIPSE
  5
44B
100
AcDbEntity
  8
0
100
AcDbEllipse
 62
7
  6
CONTINUOUS
 10
127.4679987847
 20
131.2528942208
 30
0.0
 11
0.1999434854
 21
0.0078174272
 31
0.0
 40
0.6081570881
 41
3.1201007963
 42
4.077750384
  0
ELLIPSE
  5
44C
100
AcDbEntity
  8
0
100
AcDbEllipse
 62
7
  6
CONTINUOUS
 10
130.2277710828
 20
130.1445074482
 30
0.0
 11
0.1999434854
 21
0.0078174272
 31
0.0
 40
0.6081570881
 41
-2.2054349231
 42
-1.1582373719
  0
ELLIPSE
  5
44D
100
AcDbEntity
  8
0
100
AcDbEllipse
 62
7
  6
CONTINUOUS
 10
139.4022739788
 20
126.4598202509
 30
0.0
 11
0.1999434854
 21
0.0078174272
 31
0.0
 40
0.6081570881
 41
-2.2054349231
 42
-1.1582373719
  0
ELLIPSE
  5
44E
100
AcDbEntity
  8
0
100
AcDbEllipse
 62
7
  6
CONTINUOUS
 10
136.6425016807
 20
127.5682070234
 30
0.0
 11
0.1999434854
 21
0.0078174272
 31
0.0
 40
0.6081570881
 41
3.1201007963
 42
4.077750384
  0
ELLIPSE
  5
44F
100
AcDbEntity
  8
0
100
AcDbEllipse
 62
7
  6
CONTINUOUS
 10
125.1670909699
 20
132.1765037461
 30
0.0
 11
-0.3432468395
 21
0.3635678883
 31
0.0
 40
0.6190547263
 41
-0.930363261
 42
0.000238127
  0
ELLIPSE
  5
450
100
AcDbEntity
  8
ASSI
100
AcDbEllipse
 62
7
  6
CONTINUOUS
 10
125.1670909699
 20
132.1765037461
 30
0.0
 11
-0.3432468395
 21
0.3635678883
 31
0.0
 40
0.6190547263
 41
-0.930363261
 42
0.000238127
  0
ELLIPSE
  5
451
100
AcDbEntity
  8
ASSI
100
AcDbEllipse
 62
7
  6
CONTINUOUS
 10
142.3355446305
 20
125.2812657022
 30
0.0
 11
-0.3433580121
 21
0.3640648834
 31
0.0
 40
0.6179721343
 41
-2.4982952834
 42
-0.9288689526
  0
ELLIPSE
  5
452
100
AcDbEntity
  8
ASSI
100
AcDbEllipse
 62
7
  6
CONTINUOUS
 10
127.4679987847
 20
131.2528942208
 30
0.0
 11
0.1999434854
 21
0.0078174272
 31
0.0
 40
0.6081570881
 41
3.1201007963
 42
4.077750384
  0
ELLIPSE
  5
453
100
AcDbEntity
  8
ASSI
100
AcDbEllipse
 62
7
  6
CONTINUOUS
 10
130.2277710828
 20
130.1445074482
 30
0.0
 11
0.1999434854
 21
0.0078174272
 31
0.0
 40
0.6081570881
 41
-2.2054349231
 42
-1.1582373719
  0
ELLIPSE
  5
454
100
AcDbEntity
  8
ASSI
100
AcDbEllipse
 62
7
  6
CONTINUOUS
 10
139.4022739788
 20
126.4598202509
 30
0.0
 11
0.1999434854
 21
0.0078174272
 31
0.0
 40
0.6081570881
 41
-2.2054349231
 42
-1.1582373719
  0
ELLIPSE
  5
455
100
AcDbEntity
  8
ASSI
100
AcDbEllipse
 62
7
  6
CONTINUOUS
 10
136.6425016807
 20
127.5682070234
 30
0.0
 11
0.1999434854
 21
0.0078174272
 31
0.0
 40
0.6081570881
 41
3.1201007963
 42
4.077750384
  0
ELLIPSE
  5
456
100
AcDbEntity
  8
ASSI
100
AcDbEllipse
 62
7
  6
CONTINUOUS
 10
143.3522663531
 20
124.872927337
 30
0.0
 11
-0.3432468395
 21
0.3635678883
 31
0.0
 40
0.6190547263
 41
-0.930363261
 42
0.000238127
  0
ELLIPSE
  5
457
100
AcDbEntity
  8
ASSI
100
AcDbEllipse
 62
7
  6
CONTINUOUS
 10
160.5207200138
 20
117.9776892932
 30
0.0
 11
-0.3433580121
 21
0.3640648834
 31
0.0
 40
0.6179721343
 41
-2.4982952834
 42
-0.9288689526
  0
ELLIPSE
  5
458
100
AcDbEntity
  8
ASSI
100
AcDbEllipse
 62
7
  6
CONTINUOUS
 10
160.966248935
 20
101.1550169832
 30
0.0
 11
-0.3170686951
 21
0.3868251561
 31
0.0
 40
0.6708195125
 41
-3.1644370718
 42
-2.4557308722
  0
ELLIPSE
  5
459
100
AcDbEntity
  8
ASSI
100
AcDbEllipse
 62
7
  6
CONTINUOUS
 10
145.6531741679
 20
123.9493178117
 30
0.0
 11
0.1999434854
 21
0.0078174272
 31
0.0
 40
0.6081570881
 41
3.1201007963
 42
4.077750384
  0
ELLIPSE
  5
45A
100
AcDbEntity
  8
ASSI
100
AcDbEllipse
 62
7
  6
CONTINUOUS
 10
148.412946466
 20
122.8409310392
 30
0.0
 11
0.1999434854
 21
0.0078174272
 31
0.0
 40
0.6081570881
 41
-2.2054349231
 42
-1.1582373719
  0
ELLIPSE
  5
45B
100
AcDbEntity
  8
ASSI
100
AcDbEllipse
 62
7
  6
CONTINUOUS
 10
157.587449362
 20
119.1562438418
 30
0.0
 11
0.1999434854
 21
0.0078174272
 31
0.0
 40
0.6081570881
 41
-2.2054349231
 42
-1.1582373719
  0
ELLIPSE
  5
45C
100
AcDbEntity
  8
ASSI
100
AcDbEllipse
 62
7
  6
CONTINUOUS
 10
154.8276770639
 20
120.2646306143
 30
0.0
 11
0.1999434854
 21
0.0078174272
 31
0.0
 40
0.6081570881
 41
3.1201007963
 42
4.077750384
  0
ELLIPSE
  5
45D
100
AcDbEntity
  8
0
100
AcDbEllipse
 62
7
  6
CONTINUOUS
 10
160.5207200138
 20
117.9776892932
 30
0.0
 11
-0.3433580121
 21
0.3640648834
 31
0.0
 40
0.6179721343
 41
-2.4982952834
 42
-0.9288689526
  0
ELLIPSE
  5
45E
100
AcDbEntity
  8
0
100
AcDbEllipse
 62
7
  6
CONTINUOUS
 10
160.966248935
 20
101.1550169832
 30
0.0
 11
-0.3170686951
 21
0.3868251561
 31
0.0
 40
0.6708195125
 41
-3.1644370718
 42
-2.4557308722
  0
ELLIPSE
  5
45F
100
AcDbEntity
  8
0
100
AcDbEllipse
 62
7
  6
CONTINUOUS
 10
145.6531741679
 20
123.9493178117
 30
0.0
 11
0.1999434854
 21
0.0078174272
 31
0.0
 40
0.6081570881
 41
3.1201007963
 42
4.077750384
  0
ELLIPSE
  5
460
100
AcDbEntity
  8
0
100
AcDbEllipse
 62
7
  6
CONTINUOUS
 10
148.412946466
 20
122.8409310392
 30
0.0
 11
0.1999434854
 21
0.0078174272
 31
0.0
 40
0.6081570881
 41
-2.2054349231
 42
-1.1582373719
  0
ELLIPSE
  5
461
100
AcDbEntity
  8
0
100
AcDbEllipse
 62
7
  6
CONTINUOUS
 10
157.587449362
 20
119.1562438418
 30
0.0
 11
0.1999434854
 21
0.0078174272
 31
0.0
 40
0.6081570881
 41
-2.2054349231
 42
-1.1582373719
  0
ELLIPSE
  5
462
100
AcDbEntity
  8
0
100
AcDbEllipse
 62
7
  6
CONTINUOUS
 10
154.8276770639
 20
120.2646306143
 30
0.0
 11
0.1999434854
 21
0.0078174272
 31
0.0
 40
0.6081570881
 41
3.1201007963
 42
4.077750384
  0
ELLIPSE
  5
463
100
AcDbEntity
  8
0
100
AcDbEllipse
 62
7
  6
CONTINUOUS
 10
143.3522663531
 20
124.872927337
 30
0.0
 11
-0.3432468395
 21
0.3635678883
 31
0.0
 40
0.6190547263
 41
-0.930363261
 42
0.000238127
  0
ENDSEC
  0
SECTION
  2
OBJECTS
  0
DICTIONARY
  5
C
100
AcDbDictionary
280
0
281
1
  3
ACAD_GROUP
350
D
  3
ACAD_MLINESTYLE
350
17
  3
ACAD_LAYOUT
350
1A
  3
ACAD_PLOTSETTINGS
350
19
  3
ACAD_PLOTSTYLENAME
350
E
  0
DICTIONARY
  5
D
102
{ACAD_REACTORS
330
C
102
}
100
AcDbDictionary
280
0
281
1
  0
ACDBDICTIONARYWDFLT
  5
E
102
{ACAD_REACTORS
330
C
102
}
100
AcDbDictionary
281
1
  3
Normal
350
F
100
AcDbDictionaryWithDefault
340
F
  0
DICTIONARY
  5
17
102
{ACAD_REACTORS
330
C
102
}
100
AcDbDictionary
280
0
281
1
  3
Standard
350
18
  0
DICTIONARY
  5
19
102
{ACAD_REACTORS
330
C
102
}
100
AcDbDictionary
281
1
  0
DICTIONARY
  5
1A
102
{ACAD_REACTORS
330
C
102
}
100
AcDbDictionary
281
1
  3
Model
350
464
  3
Layout1
350
465
  0
ACDBPLACEHOLDER
  5
F
102
{ACAD_REACTORS
330
E
102
}
  0
MLINESTYLE
  5
18
102
{ACAD_REACTORS
330
17
102
}
100
AcDbMlineStyle
  2
STANDARD
 70
0
  3

 62
256
 51
90.0
 52
90.0
 71
2
 49
0.5
 62
256
  6
BYLAYER
 49
-0.5
 62
256
  6
BYLAYER
  0
LAYOUT
  5
464
102
{ACAD_REACTORS
330
1A
102
}
100
AcDbPlotSettings
  1

  2
none_device
  4
ISO_A4_(297.00_x_210.00_MM)
  6

 40
0.0
 41
0.0
 42
0.0
 43
0.0
 44
297.0
 45
210.0
 46
0.0
 47
0.0
 48
0.0
 49
0.0
140
0.0
141
0.0
142
1.0
143
1.0
 70
1024
 72
1
 73
0
 74
0
  7

 75
0
147
1.0
148
0.0
149
0.0
100
AcDbLayout
  1
Model
 70
0
 71
0
 10
0.0
 20
0.0
 11
297.0
 21
210.0
 12
0.0
 22
0.0
 32
0.0
 14
0.0
 24
0.0
 34
0.0
 15
0.0
 25
0.0
 35
0.0
146
0.0
 13
0.0
 23
0.0
 33
0.0
 16
1.0
 26
0.0
 36
0.0
 17
0.0
 27
1.0
 37
0.0
 76
0
330
21F
345
0
346
0
  0
LAYOUT
  5
465
102
{ACAD_REACTORS
330
1A
102
}
100
AcDbPlotSettings
  1

  2
none_device
  4
ISO_A4_(297.00_x_210.00_MM)
  6

 40
0.0
 41
0.0
 42
0.0
 43
0.0
 44
297.0
 45
210.0
 46
0.0
 47
0.0
 48
0.0
 49
0.0
140
0.0
141
0.0
142
1.0
143
1.0
 70
0
 72
1
 73
0
 74
0
  7

 75
0
147
1.0
148
0.0
149
0.0
100
AcDbLayout
  1
Layout1
 70
0
 71
1
 10
0.0
 20
0.0
 11
297.0
 21
210.0
 12
0.0
 22
0.0
 32
0.0
 14
0.0
 24
0.0
 34
0.0
 15
0.0
 25
0.0
 35
0.0
146
0.0
 13
0.0
 23
0.0
 33
0.0
 16
1.0
 26
0.0
 36
0.0
 17
0.0
 27
1.0
 37
0.0
 76
0
330
220
345
0
346
0
  0
ENDSEC
  0
EOF
