  0
SECTION
  2
HEADER
  9
$ACADVER
  1
AC1021
  9
$DWGCODEPAGE
  3
ANSI_1252
  9
$EXTMAX
 10
297.0
 20
210.0
 30
0.0
  9
$EXTMIN
 10
0.0
 20
0.0
 30
0.0
  9
$LIMMIN
 10
0.0
 20
0.0
  9
$LIMMAX
 10
297.0
 20
210.0
  9
$VIEWCTR
 10
148.5
 20
105.0
  9
$VIEWSIZE
 40
210.0
  9
$CLAYER
  8
0
  9
$LTSCALE
 40
16.335
  9
$CELTYPE
  6
BYLAYER
  9
$DIMSCALE
 40
1.0
  9
$DIMASZ
 40
3.0
  9
$DIMEXO
 40
0.5
  9
$DIMDLI
 40
11.286
  9
$DIMEXE
 40
1.5
  9
$DIMCEN
 40
2.673
  9
$DIMLFAC
 40
1.0
  9
$DIMBLK
  1
_FILLED
  9
$DIMALT
 70
0
  9
$DIMALTF
 40
25.4
  9
$DIMTXT
 40
3.0
  9
$DIMTOL
 70
1
  9
$DIMLIM
 70
0
  9
$DIMTFAC
 40
1.0
  9
$DIMTP
 40
0.01
  9
$DIMTM
 40
0.01
  9
$DIMGAP
 40
0.625
  9
$DIMDSEP
 70
44
  9
$AUNITS
 70
0
  9
$PDMODE
 70
3
  9
$PDSIZE
 40
3.0
  9
$HANDSEED
  5
2DD
  9
$TILEMODE
 70
1
  9
$MEASUREMENT
 70
1
  9
$INSUNITS
 70
4
  0
ENDSEC
  0
SECTION
  2
CLASSES
  0
CLASS
  1
ACDBDICTIONARYWDFLT
  2
AcDbDictionaryWithDefault
  3
AutoCAD 2000
 90
0
 91
1
280
0
281
0
  0
CLASS
  1
ACDBPLACEHOLDER
  2
AcDbPlaceHolder
  3
AutoCAD 2000
 90
0
 91
1
280
0
281
0
  0
CLASS
  1
LAYOUT
  2
AcDbLayout
  3
AutoCAD 2000
 90
0
 91
0
280
0
281
0
  0
ENDSEC
  0
SECTION
  2
TABLES
  0
TABLE
  2
VPORT
  5
8
100
AcDbSymbolTable
 70
2
  0
VPORT
  5
1F4
100
AcDbSymbolTableRecord
100
AcDbViewportTableRecord
  2
*ACTIVE
 70
0
 10
0.0
 20
0.0
 11
1.0
 21
1.0
 12
148.5
 22
105.0
 13
0.0
 23
0.0
 14
1.0
 24
1.0
 15
0.0
 25
0.0
 16
0.0
 26
0.0
 36
1.0
 17
0.0
 27
0.0
 37
0.0
 40
210.0
 41
1.4142857143
 42
50.0
 43
0.0
 44
0.0
 50
0.0
 51
0.0
 71
0
 72
100
 73
1
 74
1
 75
0
 76
0
 77
0
 78
0
  0
ENDTAB
  0
TABLE
  2
LTYPE
  5
5
100
AcDbSymbolTable
 70
6
  0
LTYPE
  5
14
100
AcDbSymbolTableRecord
100
AcDbLinetypeTableRecord
  2
BYBLOCK
 70
0
  3

 72
65
 73
0
 40
0.0
  0
LTYPE
  5
15
100
AcDbSymbolTableRecord
100
AcDbLinetypeTableRecord
  2
BYLAYER
 70
0
  3

 72
65
 73
0
 40
0.0
  0
LTYPE
  5
16
100
AcDbSymbolTableRecord
100
AcDbLinetypeTableRecord
  2
CONTINUOUS
 70
64
  3
Solid line
 72
65
 73
0
 40
0.0
  0
LTYPE
  5
1F5
100
AcDbSymbolTableRecord
100
AcDbLinetypeTableRecord
  2
CENTER
 70
64
  3
____ _ ____ _ ____ _ ____ _ ____ _ ____ _ ____
 72
65
 73
4
 40
0.6
 49
0.375
 74
0
 49
-0.075
 74
0
 49
0.075
 74
0
 49
-0.075
 74
0
  0
LTYPE
  5
1F6
100
AcDbSymbolTableRecord
100
AcDbLinetypeTableRecord
  2
HIDDEN
 70
64
  3
- - - - - - - - - - - - - - - - - - - -
 72
65
 73
2
 40
0.2
 49
0.1
 74
0
 49
-0.1
 74
0
  0
LTYPE
  5
1F7
100
AcDbSymbolTableRecord
100
AcDbLinetypeTableRecord
  2
PHANTOM
 70
64
  3
_____ _ _ _____ _ _ _____ _ _ _____
 72
65
 73
6
 40
0.8
 49
0.45
 74
0
 49
-0.05
 74
0
 49
0.1
 74
0
 49
-0.05
 74
0
 49
0.1
 74
0
 49
-0.05
 74
0
  0
LTYPE
  5
1F8
100
AcDbSymbolTableRecord
100
AcDbLinetypeTableRecord
  2
DOT
 70
64
  3
. . . . . . . . . . . . . . . . . . . .
 72
65
 73
2
 40
0.2
 49
0.1
 74
0
 49
-0.1
 74
0
  0
LTYPE
  5
1F9
100
AcDbSymbolTableRecord
100
AcDbLinetypeTableRecord
  2
DASHED
 70
64
  3
- - - - - - - - - - - - - - - - - - - -
 72
65
 73
2
 40
0.2
 49
0.1
 74
0
 49
-0.1
 74
0
  0
ENDTAB
  0
TABLE
  2
LAYER
  5
2
100
AcDbSymbolTable
 70
36
  0
LAYER
  5
10
100
AcDbSymbolTableRecord
100
AcDbLayerTableRecord
  2
0
 70
0
 62
7
  6
CONTINUOUS
370
-3
390
F
  0
LAYER
  5
1FA
100
AcDbSymbolTableRecord
100
AcDbLayerTableRecord
  2
DEFAULT_1
 70
0
 62
7
  6
CENTER
370
-3
390
F
  0
LAYER
  5
1FB
100
AcDbSymbolTableRecord
100
AcDbLayerTableRecord
  2
DEFAULT_2
 70
0
 62
7
  6
HIDDEN
370
-3
390
F
  0
LAYER
  5
1FC
100
AcDbSymbolTableRecord
100
AcDbLayerTableRecord
  2
DEFAULT_3
 70
0
 62
7
  6
PHANTOM
370
-3
390
F
  0
LAYER
  5
1FD
100
AcDbSymbolTableRecord
100
AcDbLayerTableRecord
  2
ASSI
 70
0
 62
7
  6
CONTINUOUS
370
-3
390
F
  0
LAYER
  5
1FE
100
AcDbSymbolTableRecord
100
AcDbLayerTableRecord
  2
COLOR3
 70
0
 62
7
  6
CONTINUOUS
370
-3
390
F
  0
LAYER
  5
1FF
100
AcDbSymbolTableRecord
100
AcDbLayerTableRecord
  2
COORDINATE
 70
0
 62
7
  6
CONTINUOUS
370
-3
390
F
  0
LAYER
  5
200
100
AcDbSymbolTableRecord
100
AcDbLayerTableRecord
  2
COPY_PUBLISH
 70
0
 62
7
  6
CONTINUOUS
370
-3
390
F
  0
LAYER
  5
201
100
AcDbSymbolTableRecord
100
AcDbLayerTableRecord
  2
COSMETIC
 70
0
 62
7
  6
CONTINUOUS
370
-3
390
F
  0
LAYER
  5
202
100
AcDbSymbolTableRecord
100
AcDbLayerTableRecord
  2
COSMETICI
 70
0
 62
7
  6
CONTINUOUS
370
-3
390
F
  0
LAYER
  5
203
100
AcDbSymbolTableRecord
100
AcDbLayerTableRecord
  2
CURVE
 70
0
 62
7
  6
CONTINUOUS
370
-3
390
F
  0
LAYER
  5
204
100
AcDbSymbolTableRecord
100
AcDbLayerTableRecord
  2
DRAFT
 70
0
 62
7
  6
CONTINUOUS
370
-3
390
F
  0
LAYER
  5
205
100
AcDbSymbolTableRecord
100
AcDbLayerTableRecord
  2
IMPORT_IGES
 70
0
 62
7
  6
CONTINUOUS
370
-3
390
F
  0
LAYER
  5
206
100
AcDbSymbolTableRecord
100
AcDbLayerTableRecord
  2
INTFCLR_1
 70
0
 62
7
  6
CONTINUOUS
370
-3
390
F
  0
LAYER
  5
207
100
AcDbSymbolTableRecord
100
AcDbLayerTableRecord
  2
INTF_10
 70
0
 62
7
  6
CONTINUOUS
370
-3
390
F
  0
LAYER
  5
208
100
AcDbSymbolTableRecord
100
AcDbLayerTableRecord
  2
INTF_13
 70
0
 62
7
  6
CONTINUOUS
370
-3
390
F
  0
LAYER
  5
209
100
AcDbSymbolTableRecord
100
AcDbLayerTableRecord
  2
INTF_15
 70
0
 62
7
  6
CONTINUOUS
370
-3
390
F
  0
LAYER
  5
20A
100
AcDbSymbolTableRecord
100
AcDbLayerTableRecord
  2
INTF_16
 70
0
 62
7
  6
CONTINUOUS
370
-3
390
F
  0
LAYER
  5
20B
100
AcDbSymbolTableRecord
100
AcDbLayerTableRecord
  2
INTF_18
 70
0
 62
7
  6
CONTINUOUS
370
-3
390
F
  0
LAYER
  5
20C
100
AcDbSymbolTableRecord
100
AcDbLayerTableRecord
  2
INTF_20
 70
0
 62
7
  6
CONTINUOUS
370
-3
390
F
  0
LAYER
  5
20D
100
AcDbSymbolTableRecord
100
AcDbLayerTableRecord
  2
INTF_3
 70
0
 62
7
  6
CONTINUOUS
370
-3
390
F
  0
LAYER
  5
20E
100
AcDbSymbolTableRecord
100
AcDbLayerTableRecord
  2
INTF_5
 70
0
 62
7
  6
CONTINUOUS
370
-3
390
F
  0
LAYER
  5
20F
100
AcDbSymbolTableRecord
100
AcDbLayerTableRecord
  2
INTF_8
 70
0
 62
7
  6
CONTINUOUS
370
-3
390
F
  0
LAYER
  5
210
100
AcDbSymbolTableRecord
100
AcDbLayerTableRecord
  2
LIVELLO_1
 70
0
 62
7
  6
CONTINUOUS
370
-3
390
F
  0
LAYER
  5
211
100
AcDbSymbolTableRecord
100
AcDbLayerTableRecord
  2
NOTE
 70
0
 62
7
  6
CONTINUOUS
370
-3
390
F
  0
LAYER
  5
212
100
AcDbSymbolTableRecord
100
AcDbLayerTableRecord
  2
PIANI
 70
0
 62
7
  6
CONTINUOUS
370
-3
390
F
  0
LAYER
  5
213
100
AcDbSymbolTableRecord
100
AcDbLayerTableRecord
  2
PUNTI
 70
0
 62
7
  6
CONTINUOUS
370
-3
390
F
  0
LAYER
  5
214
100
AcDbSymbolTableRecord
100
AcDbLayerTableRecord
  2
RACCORDO
 70
0
 62
7
  6
CONTINUOUS
370
-3
390
F
  0
LAYER
  5
215
100
AcDbSymbolTableRecord
100
AcDbLayerTableRecord
  2
SIMBOLI
 70
0
 62
7
  6
CONTINUOUS
370
-3
390
F
  0
LAYER
  5
216
100
AcDbSymbolTableRecord
100
AcDbLayerTableRecord
  2
SMUSSO
 70
0
 62
7
  6
CONTINUOUS
370
-3
390
F
  0
LAYER
  5
217
100
AcDbSymbolTableRecord
100
AcDbLayerTableRecord
  2
SNAPLINE
 70
0
 62
7
  6
CONTINUOUS
370
-3
390
F
  0
LAYER
  5
218
100
AcDbSymbolTableRecord
100
AcDbLayerTableRecord
  2
SOLIDO
 70
0
 62
7
  6
CONTINUOUS
370
-3
390
F
  0
LAYER
  5
219
100
AcDbSymbolTableRecord
100
AcDbLayerTableRecord
  2
SUPERFICI
 70
0
 62
7
  6
CONTINUOUS
370
-3
390
F
  0
LAYER
  5
21A
100
AcDbSymbolTableRecord
100
AcDbLayerTableRecord
  2
SUPERFICI_SKEL
 70
0
 62
7
  6
CONTINUOUS
370
-3
390
F
  0
LAYER
  5
21B
100
AcDbSymbolTableRecord
100
AcDbLayerTableRecord
  2
TRASH
 70
0
 62
7
  6
CONTINUOUS
370
-3
390
F
  0
LAYER
  5
21C
100
AcDbSymbolTableRecord
100
AcDbLayerTableRecord
  2
WHITE
 70
0
 62
7
  6
CONTINUOUS
370
-3
390
F
  0
LAYER
  5
21D
100
AcDbSymbolTableRecord
100
AcDbLayerTableRecord
  2
___SHELL
 70
0
 62
7
  6
CONTINUOUS
370
-3
390
F
  0
ENDTAB
  0
TABLE
  2
STYLE
  5
3
100
AcDbSymbolTable
 70
1
  0
STYLE
  5
11
100
AcDbSymbolTableRecord
100
AcDbTextStyleTableRecord
  2
STANDARD
 70
0
 40
0.0
 41
0.8
 50
0.0
 71
0
 42
0.2
  3
txt
  4

  0
STYLE
  5
21E
100
AcDbSymbolTableRecord
100
AcDbTextStyleTableRecord
  2
TEXTSTYLE_1
 70
0
 40
0.0
 41
0.8
 50
0.0
 71
0
 42
0.2
  3
gdt
  4

  0
ENDTAB
  0
TABLE
  2
VIEW
  5
6
100
AcDbSymbolTable
 70
0
  0
ENDTAB
  0
TABLE
  2
UCS
  5
7
100
AcDbSymbolTable
 70
0
  0
ENDTAB
  0
TABLE
  2
APPID
  5
9
100
AcDbSymbolTable
 70
1
  0
APPID
  5
21F
100
AcDbSymbolTableRecord
100
AcDbRegAppTableRecord
  2
ACAD
 70
0
  0
ENDTAB
  0
TABLE
  2
BLOCK_RECORD
  5
1
100
AcDbSymbolTable
 70
0
  0
BLOCK_RECORD
  5
220
100
AcDbSymbolTableRecord
100
AcDbBlockTableRecord
  2
*Model_Space
  0
BLOCK_RECORD
  5
221
100
AcDbSymbolTableRecord
100
AcDbBlockTableRecord
  2
*Paper_Space
  0
ENDTAB
  0
TABLE
  2
DIMSTYLE
  5
A
100
AcDbSymbolTable
 70
1
100
AcDbDimStyleTable
 71
0
  0
DIMSTYLE
105
222
100
AcDbSymbolTableRecord
100
AcDbDimStyleTableRecord
  2
STANDARD
 70
0
  3

  4

 40
1.0
 41
3.0
 42
0.5
 43
0.38
 44
1.5
 45
0.0
 46
0.0
 47
0.01
 48
0.01
140
3.0
141
0.09
142
0.0
143
25.4
144
1.0
145
0.0
146
1.0
147
0.625
 71
1.0
 72
0.0
 73
0
 74
0
 75
0
 76
0
 77
1
 78
8
170
0
171
1
172
0
173
0
174
0
175
0
176
0
177
0
178
0
270
2
271
2
272
2
273
2
274
2
275
0
280
0
281
0
282
0
283
1
284
8
285
0
286
0
287
3
288
0
340
11
278
44
  0
ENDTAB
  0
ENDSEC
  0
SECTION
  2
BLOCKS
  0
BLOCK
  5
20
100
AcDbEntity
  8
0
100
AcDbBlockBegin
  2
*Model_Space
 70
0
 10
0.0
 20
0.0
 30
0.0
  3
*Model_Space
  1

  0
ENDBLK
  5
21
100
AcDbEntity
  8
0
100
AcDbBlockEnd
  0
BLOCK
  5
1C
100
AcDbEntity
  8
0
100
AcDbBlockBegin
  2
*Paper_Space
 70
0
 10
0.0
 20
0.0
 30
0.0
  3
*Paper_Space
  1

  0
ENDBLK
  5
1D
100
AcDbEntity
  8
0
100
AcDbBlockEnd
  0
ENDSEC
  0
SECTION
  2
ENTITIES
  0
LWPOLYLINE
  5
223
100
AcDbEntity
  8
ASSI
100
AcDbPolyline
 62
7
  6
CONTINUOUS
 90
19
 70
0
 10
-18.1450239043
 20
25.5036655835
 10
-18.1837324251
 20
25.4766184501
 10
-18.2510077411
 20
25.4242297647
 10
-18.3151404557
 20
25.3674389024
 10
-18.376154295
 20
25.3065611737
 10
-18.4340264877
 20
25.241894907
 10
-18.488572204
 20
25.173853478
 10
-18.539709063
 20
25.1027389163
 10
-18.5873241229
 20
25.0288052108
 10
-18.6311397447
 20
24.9525573246
 10
-18.671036052
 20
24.8742672395
 10
-18.7068519775
 20
24.7941817745
 10
-18.7383309353
 20
24.7128112566
 10
-18.7653154832
 20
24.6303893602
 10
-18.7876138254
 20
24.5471325537
 10
-18.8049920125
 20
24.4633933584
 10
-18.8172099194
 20
24.3793457984
 10
-18.8240067151
 20
24.2951611433
 10
-18.8246092524
 20
24.2806178794
  0
LINE
  5
224
100
AcDbEntity
  8
ASSI
100
AcDbLine
 62
7
  6
CONTINUOUS
 10
-15.7107740844
 20
27.1360328403
 11
-18.1451478226
 21
25.5035905323
  0
LINE
  5
225
100
AcDbEntity
  8
ASSI
100
AcDbLine
 62
253
  6
CONTINUOUS
 10
-15.4612345854
 20
27.1107563198
 11
-17.8851772138
 21
25.4853089052
  0
LWPOLYLINE
  5
226
100
AcDbEntity
  8
ASSI
100
AcDbPolyline
 62
253
  6
CONTINUOUS
 90
22
 70
0
 10
-17.8851772139
 20
25.4853089052
 10
-17.9454650837
 20
25.4453277378
 10
-18.0052556521
 20
25.400859047
 10
-18.0642387221
 20
25.3521152052
 10
-18.1220927305
 20
25.2993223694
 10
-18.1785340143
 20
25.242741572
 10
-18.233317802
 20
25.182666201
 10
-18.2861642705
 20
25.1193819393
 10
-18.3367955149
 20
25.0531957181
 10
-18.3849848606
 20
24.9844561935
 10
-18.4304846411
 20
24.9134988163
 10
-18.4730590048
 20
24.8406642247
 10
-18.5125204995
 20
24.766326077
 10
-18.5486683682
 20
24.690846138
 10
-18.581313939
 20
24.6145900618
 10
-18.6103138331
 20
24.5379462497
 10
-18.635520266
 20
24.4612953637
 10
-18.6568038231
 20
24.3850033277
 10
-18.6740756585
 20
24.3094373698
 10
-18.6872514187
 20
24.2349654695
 10
-18.6962546246
 20
24.1619542356
 10
-18.7010372348
 20
24.0907622036
  0
LINE
  5
227
100
AcDbEntity
  8
ASSI
100
AcDbLine
 62
7
  6
CONTINUOUS
 10
-13.5526867993
 20
26.0087847478
 11
-13.7329214476
 21
25.5946027384
  0
LWPOLYLINE
  5
228
100
AcDbEntity
  8
ASSI
100
AcDbPolyline
 62
253
  6
CONTINUOUS
 90
11
 70
0
 10
-18.7010371437
 20
-10.0005700797
 10
-18.6962545317
 20
-10.0665578262
 10
-18.687251324
 20
-10.1296269619
 10
-18.6740755623
 20
-10.1894655105
 10
-18.6568037265
 20
-10.2457694103
 10
-18.6355201703
 20
-10.2982669965
 10
-18.6103137385
 20
-10.3467176794
 10
-18.5813138452
 20
-10.3908781976
 10
-18.5486682752
 20
-10.4305222659
 10
-18.5125204074
 20
-10.4654630315
 10
-18.4696365919
 20
-10.4977916352
  0
LWPOLYLINE
  5
229
100
AcDbEntity
  8
ASSI
100
AcDbPolyline
 62
253
  6
CONTINUOUS
 90
8
 70
0
 10
-19.0162861536
 20
7.471648965
 10
-19.0144912353
 20
7.4296069443
 10
-19.008199922
 20
7.3907004002
 10
-18.9978445736
 20
7.3549054
 10
-18.9838003149
 20
7.3222664345
 10
-18.965922875
 20
7.2929799366
 10
-18.9440953659
 20
7.2674663532
 10
-18.9192712162
 20
7.2465120865
  0
LWPOLYLINE
  5
22A
100
AcDbEntity
  8
ASSI
100
AcDbPolyline
 62
7
  6
CONTINUOUS
 90
13
 70
0
 10
-18.824564513
 20
-9.8120065627
 10
-18.8241969632
 20
-9.8208821656
 10
-18.8173971723
 20
-9.902819837
 10
-18.8047159706
 20
-9.9812934294
 10
-18.7863594059
 20
-10.0560665046
 10
-18.7625385964
 20
-10.1270578496
 10
-18.7334562675
 20
-10.1941294424
 10
-18.6993916172
 20
-10.2569714237
 10
-18.660642065
 20
-10.3153695156
 10
-18.6175166135
 20
-10.3691336507
 10
-18.5704576892
 20
-10.417951617
 10
-18.5198970732
 20
-10.4616119625
 10
-18.4696649563
 20
-10.4977659168
  0
LINE
  5
22B
100
AcDbEntity
  8
ASSI
100
AcDbLine
 62
253
  6
CONTINUOUS
 10
-19.1338621013
 20
7.6576522432
 11
-19.1337717353
 21
7.6519521144
  0
LWPOLYLINE
  5
22C
100
AcDbEntity
  8
ASSI
100
AcDbPolyline
 62
7
  6
CONTINUOUS
 90
10
 70
0
 10
-19.1338620994
 20
6.436237139
 10
-19.1281975735
 20
4.6650062013
 10
-19.1152340688
 20
2.832358858
 10
-19.0950521314
 20
1.0041114487
 10
-19.0676515679
 20
-0.8196965547
 10
-19.0330325563
 20
-2.639028167
 10
-18.9911952801
 20
-4.4538473426
 10
-18.9421404111
 20
-6.2641139717
 10
-18.8858693327
 20
-8.069782564
 10
-18.8245799622
 20
-9.8118155422
  0
LWPOLYLINE
  5
22D
100
AcDbEntity
  8
ASSI
100
AcDbPolyline
 62
253
  6
CONTINUOUS
 90
10
 70
0
 10
-19.0162861379
 20
6.2502827503
 10
-19.0109810021
 20
4.5712729901
 10
-18.9993039282
 20
2.869403591
 10
-18.9809570656
 20
1.1448819086
 10
-18.9558418208
 20
-0.5895128118
 10
-18.9235462001
 20
-2.3461871781
 10
-18.8828511347
 20
-4.1624361156
 10
-18.8326206731
 20
-6.050218374
 10
-18.7722956895
 20
-7.9964531834
 10
-18.70103725
 20
-10.0005701183
  0
LWPOLYLINE
  5
22E
100
AcDbEntity
  8
ASSI
100
AcDbPolyline
 62
7
  6
CONTINUOUS
 90
10
 70
0
 10
-18.8246091432
 20
24.2808431026
 10
-18.8857140868
 20
22.4699932759
 10
-18.9420002384
 20
20.5960426215
 10
-18.9910713789
 20
18.7262540638
 10
-19.0329260966
 20
16.8606726691
 10
-19.067563716
 20
14.999337522
 10
-19.0949837218
 20
13.1422862728
 10
-19.1151858136
 20
11.2895573831
 10
-19.1281701098
 20
9.4411907041
 10
-19.1338621012
 20
7.6576522432
  0
LWPOLYLINE
  5
22F
100
AcDbEntity
  8
ASSI
100
AcDbPolyline
 62
253
  6
CONTINUOUS
 90
13
 70
0
 10
-18.7010372537
 20
24.0907622061
 10
-18.7517511854
 20
22.6327114226
 10
-18.797309349
 20
21.2006748056
 10
-18.8379252612
 20
19.7945567372
 10
-18.8736209423
 20
18.4219276711
 10
-18.9048349597
 20
17.0750023058
 10
-18.9322025084
 20
15.7307595286
 10
-18.9557262265
 20
14.3892492017
 10
-18.9754129222
 20
13.0504468432
 10
-18.9915074634
 20
11.6914382983
 10
-19.0038702219
 20
10.3047206838
 10
-19.0121978547
 20
8.8980794889
 10
-19.0162861379
 20
7.4716489461
  0
LWPOLYLINE
  5
230
100
AcDbEntity
  8
ASSI
100
AcDbPolyline
 62
253
  6
CONTINUOUS
 90
16
 70
0
 10
-19.0162861531
 20
6.2502827697
 10
-19.0144911709
 20
6.2947665054
 10
-19.0081994039
 20
6.3395478479
 10
-18.9978433435
 20
6.3847950593
 10
-18.9837982794
 20
6.4310783315
 10
-18.965919987
 20
6.4780702726
 10
-18.9440915775
 20
6.5243591389
 10
-18.9191087981
 20
6.5694727696
 10
-18.8912707798
 20
6.6134695788
 10
-18.8602471908
 20
6.6554353301
 10
-18.8268158284
 20
6.694914542
 10
-18.7916740449
 20
6.7317571232
 10
-18.7544449835
 20
6.7653096677
 10
-18.7155170879
 20
6.795139661
 10
-18.6760808178
 20
6.8211826574
 10
-18.6369478195
 20
6.843326451
  0
LWPOLYLINE
  5
231
100
AcDbEntity
  8
ASSI
100
AcDbPolyline
 62
253
  6
CONTINUOUS
 90
16
 70
0
 10
11.9575537552
 20
-27.7024563252
 10
11.996165848
 20
-27.7198469071
 10
12.0375911492
 20
-27.7347935392
 10
12.0814280014
 20
-27.7471512997
 10
12.1272513652
 20
-27.7568003685
 10
12.1746169396
 20
-27.7636471887
 10
12.223065471
 20
-27.767625374
 10
12.272127205
 20
-27.7686963521
 10
12.321326442
 20
-27.7668497389
 10
12.370186149
 20
-27.762103439
 10
12.4182325849
 20
-27.7545034723
 10
12.4649998945
 20
-27.7441235276
 10
12.5100346244
 20
-27.7310642482
 10
12.5529001206
 20
-27.7154522562
 10
12.5931807617
 20
-27.6974389246
 10
12.6304859888
 20
-27.6771989095
  0
LWPOLYLINE
  5
232
100
AcDbEntity
  8
ASSI
100
AcDbPolyline
 62
7
  6
CONTINUOUS
 90
12
 70
0
 10
12.2197585454
 20
-28.2175943172
 10
12.2759568872
 20
-28.2432838778
 10
12.3392856144
 20
-28.2658974289
 10
12.4050396942
 20
-28.2829802635
 10
12.4728138486
 20
-28.2943475854
 10
12.5421448746
 20
-28.2998529327
 10
12.6130484811
 20
-28.2993832623
 10
12.6852013755
 20
-28.292787502
 10
12.7582099258
 20
-28.27996652
 10
12.8321517743
 20
-28.2607148568
 10
12.9069069026
 20
-28.2347910641
 10
12.9886478462
 20
-28.1988860042
  0
LWPOLYLINE
  5
233
100
AcDbEntity
  8
ASSI
100
AcDbPolyline
 62
7
  6
CONTINUOUS
 90
10
 70
0
 10
4.5827857918
 20
-24.0806669282
 10
5.3651698922
 20
-24.529372294
 10
6.2110791326
 20
-25.0077843851
 10
7.0633396263
 20
-25.4828757859
 10
7.9218966083
 20
-25.9546154172
 10
8.7867017625
 20
-26.4229769217
 10
9.6577093621
 20
-26.8879357096
 10
10.534872269
 20
-27.3494665943
 10
11.4181398629
 20
-27.8075433858
 10
12.2195938064
 20
-28.2175164654
  0
LINE
  5
234
100
AcDbEntity
  8
ASSI
100
AcDbLine
 62
7
  6
CONTINUOUS
 10
-11.327064166
 20
-14.8945211881
 11
4.5827838166
 21
-24.0806680161
  0
LWPOLYLINE
  5
235
100
AcDbEntity
  8
ASSI
100
AcDbPolyline
 62
7
  6
CONTINUOUS
 90
10
 70
0
 10
-18.4695358731
 20
-10.4978577837
 10
-17.7699303923
 20
-10.9541846101
 10
-16.9804990074
 20
-11.4620143224
 10
-16.1845515924
 20
-11.9666097102
 10
-15.3821349761
 20
-12.4679434953
 10
-14.5732935302
 20
-12.9659904522
 10
-13.7580699463
 20
-13.4607263654
 10
-12.9365147859
 20
-13.9521231841
 10
-12.1086864258
 20
-14.4401491234
 10
-11.327062079
 20
-14.8945201629
  0
LWPOLYLINE
  5
236
100
AcDbEntity
  8
ASSI
100
AcDbPolyline
 62
253
  6
CONTINUOUS
 90
10
 70
0
 10
-18.70103725
 20
-10.0005701183
 10
-17.9931893804
 20
-10.4638246242
 10
-17.2689979717
 20
-10.9313250421
 10
-16.5282425286
 20
-11.4029180203
 10
-15.7760072707
 20
-11.8751281305
 10
-15.0068481612
 20
-12.3511577637
 10
-14.2043781662
 20
-12.8406615653
 10
-13.3625574458
 20
-13.3465047515
 10
-12.4861089953
 20
-13.8649881686
 10
-11.5743971975
 20
-14.3956906679
  0
LWPOLYLINE
  5
237
100
AcDbEntity
  8
ASSI
100
AcDbPolyline
 62
253
  6
CONTINUOUS
 90
8
 70
0
 10
-18.7010275205
 20
-10.0005647881
 10
-18.7315724441
 20
-9.9780251978
 10
-18.7581745577
 20
-9.9536939895
 10
-18.7805759336
 20
-9.9278070725
 10
-18.7985593737
 20
-9.9006154399
 10
-18.8119505152
 20
-9.8723827349
 10
-18.8206195208
 20
-9.8433826946
 10
-18.824564513
 20
-9.8120065627
  0
LWPOLYLINE
  5
238
100
AcDbEntity
  8
0
100
AcDbPolyline
 62
253
  6
CONTINUOUS
 90
88
 70
0
 10
-13.8512758367
 20
12.4339248854
 10
-13.8552476533
 20
12.4315441211
 10
-13.85903933
 20
12.4289430053
 10
-13.8626656784
 20
12.4261200937
 10
-13.86614151
 20
12.4230739423
 10
-13.8694816365
 20
12.4198031068
 10
-13.873482396
 20
12.4153964531
 10
-13.8772864204
 20
12.4106339691
 10
-13.8808858709
 20
12.40551315
 10
-13.8842729083
 20
12.4000314909
 10
-13.8874386537
 20
12.3941899303
 10
-13.8903700671
 20
12.3880031799
 10
-13.8930530685
 20
12.3814893951
 10
-13.8954735779
 20
12.3746667311
 10
-13.8972118518
 20
12.3689966543
 10
-13.898767845
 20
12.3631392925
 10
-13.900136283
 20
12.3570934237
 10
-13.9013118911
 20
12.3508578262
 10
-13.9022893948
 20
12.3444312782
 10
-13.9030635631
 20
12.3378149231
 10
-13.9036293387
 20
12.3310193647
 10
-13.903981708
 20
12.324057572
 10
-13.9041156573
 20
12.3169425138
 10
-13.904026173
 20
12.3096871593
 10
-13.9037101362
 20
12.3023057316
 10
-13.9031720066
 20
12.2948174709
 10
-13.902418139
 20
12.2872428718
 10
-13.9014548878
 20
12.2796024286
 10
-13.9002886077
 20
12.271916636
 10
-13.8989250023
 20
12.2642028424
 10
-13.8973671719
 20
12.2564658121
 10
-13.8956175658
 20
12.2487071637
 10
-13.8936786333
 20
12.2409285155
 10
-13.8915528237
 20
12.233131486
 10
-13.8892421239
 20
12.2253182412
 10
-13.8867466712
 20
12.2174931383
 10
-13.8840661407
 20
12.2096610823
 10
-13.8812002073
 20
12.201826978
 10
-13.878148546
 20
12.1939957303
 10
-13.8749115505
 20
12.1861740436
 10
-13.8714924906
 20
12.1783758208
 10
-13.8678953546
 20
12.170616764
 10
-13.864124131
 20
12.1629125757
 10
-13.8601828085
 20
12.155278958
 10
-13.8560763358
 20
12.147730978
 10
-13.8518135042
 20
12.1402811611
 10
-13.847404065
 20
12.1329413978
 10
-13.8428577698
 20
12.1257235781
 10
-13.8381843702
 20
12.1186395925
 10
-13.833392769
 20
12.1116999571
 10
-13.8284884741
 20
12.1049096928
 10
-13.8234761447
 20
12.0982724464
 10
-13.8183604401
 20
12.0917918649
 10
-13.8131460195
 20
12.0854715951
 10
-13.8078365944
 20
12.0793151552
 10
-13.8024320858
 20
12.0733255488
 10
-13.7969314665
 20
12.0675056508
 10
-13.7913337099
 20
12.061858336
 10
-13.785637789
 20
12.0563864794
 10
-13.7798446973
 20
12.05109522
 10
-13.7739635109
 20
12.0459987545
 10
-13.7680053261
 20
12.0411135434
 10
-13.7619812394
 20
12.0364560477
 10
-13.7559023471
 20
12.032042728
 10
-13.7508062227
 20
12.0285644373
 10
-13.7457070407
 20
12.02528313
 10
-13.740632097
 20
12.022214792
 10
-13.7356040261
 20
12.0193711194
 10
-13.7306268175
 20
12.0167466497
 10
-13.7256997993
 20
12.0143316311
 10
-13.7208208362
 20
12.0121167324
 10
-13.7159819395
 20
12.0100943057
 10
-13.7111736571
 20
12.0082571241
 10
-13.7040087834
 20
12.0058377685
 10
-13.696924571
 20
12.0038239114
 10
-13.6899527423
 20
12.0022185684
 10
-13.6831197233
 20
12.0010169861
 10
-13.6764460981
 20
12.0002123862
 10
-13.6699343805
 20
11.999797659
 10
-13.6635844769
 20
11.9997656871
 10
-13.6574039366
 20
12.0001096533
 10
-13.6514022189
 20
12.000822815
 10
-13.6455887837
 20
12.00189843
 10
-13.6410773904
 20
12.0030178893
 10
-13.636682003
 20
12.0043767424
 10
-13.6323920728
 20
12.0059867284
 10
-13.6281970509
 20
12.007859586
 10
-13.6240863885
 20
12.0100070543
  0
LWPOLYLINE
  5
239
100
AcDbEntity
  8
0
100
AcDbPolyline
 62
253
  6
CONTINUOUS
 90
88
 70
0
 10
-13.8350483139
 20
12.4036037524
 10
-13.8384672895
 20
12.4015608165
 10
-13.8417305201
 20
12.3993272299
 10
-13.8448508177
 20
12.3969019034
 10
-13.8478409942
 20
12.3942837479
 10
-13.8507138616
 20
12.3914716745
 10
-13.8541542644
 20
12.3876820492
 10
-13.8574250123
 20
12.3835845353
 10
-13.8605197275
 20
12.3791759426
 10
-13.863432032
 20
12.3744530811
 10
-13.8661544143
 20
12.3694160544
 10
-13.8686748287
 20
12.3640781406
 10
-13.8709800957
 20
12.3584559117
 10
-13.8730570359
 20
12.3525659394
 10
-13.8745457351
 20
12.3476712158
 10
-13.8758755156
 20
12.3426175853
 10
-13.8770420227
 20
12.3374068907
 10
-13.8780409014
 20
12.332040975
 10
-13.878867797
 20
12.326521681
 10
-13.8795185395
 20
12.3208520482
 10
-13.8799896977
 20
12.3150399029
 10
-13.8802780252
 20
12.3090942681
 10
-13.8803802757
 20
12.3030241667
 10
-13.8802932026
 20
12.2968386217
 10
-13.8800148716
 20
12.2905476748
 10
-13.8795485965
 20
12.2841654424
 10
-13.8788990029
 20
12.2777070597
 10
-13.8780707167
 20
12.2711876616
 10
-13.8770683636
 20
12.2646223834
 10
-13.8758961541
 20
12.2580243774
 10
-13.8745566379
 20
12.2513988651
 10
-13.8730519495
 20
12.2447490852
 10
-13.8713842233
 20
12.2380782765
 10
-13.8695555938
 20
12.2313896776
 10
-13.8675677842
 20
12.2246866501
 10
-13.8654208721
 20
12.2179730473
 10
-13.8631145241
 20
12.2112528452
 10
-13.8606484066
 20
12.2045300197
 10
-13.8580221861
 20
12.1978085471
 10
-13.8552361659
 20
12.1910940416
 10
-13.8522931968
 20
12.1843986703
 10
-13.8491967666
 20
12.1777362387
 10
-13.8459503631
 20
12.1711205522
 10
-13.8425574739
 20
12.1645654163
 10
-13.8390225599
 20
12.1580842075
 10
-13.8353539742
 20
12.1516885868
 10
-13.8315610427
 20
12.1453897865
 10
-13.8276530917
 20
12.1391990387
 10
-13.8236394471
 20
12.1331275756
 10
-13.8195284507
 20
12.1271850714
 10
-13.8153245065
 20
12.1213749688
 10
-13.811031034
 20
12.1156991523
 10
-13.8066514527
 20
12.1101595065
 10
-13.8021891821
 20
12.1047579163
 10
-13.797646782
 20
12.0994962685
 10
-13.7930233726
 20
12.0943764598
 10
-13.7883172144
 20
12.0894003893
 10
-13.7835265677
 20
12.084569956
 10
-13.7786496931
 20
12.0798870589
 10
-13.7736868536
 20
12.0753557803
 10
-13.7686463238
 20
12.0709889356
 10
-13.7635383806
 20
12.0668015235
 10
-13.7583733014
 20
12.0628085427
 10
-13.7531613631
 20
12.0590249918
 10
-13.7487926735
 20
12.0560437328
 10
-13.7444223647
 20
12.0532323948
 10
-13.7400742215
 20
12.050605046
 10
-13.7357680776
 20
12.0481720299
 10
-13.7315079624
 20
12.0459287927
 10
-13.727293954
 20
12.0438670561
 10
-13.723124676
 20
12.0419787835
 10
-13.7189929337
 20
12.0402569042
 10
-13.7148900776
 20
12.0386945893
 10
-13.7087801686
 20
12.0366396817
 10
-13.7027414041
 20
12.0349313028
 10
-13.6967982039
 20
12.0335708468
 10
-13.6909702206
 20
12.0325537861
 10
-13.6852726326
 20
12.0318742523
 10
-13.6797074881
 20
12.0315269342
 10
-13.6742752469
 20
12.0315066297
 10
-13.6689831456
 20
12.0318080158
 10
-13.6638401149
 20
12.0324257394
 10
-13.6588550855
 20
12.0333544473
 10
-13.6549845716
 20
12.034319891
 10
-13.6512119497
 20
12.0354911937
 10
-13.6475282754
 20
12.0368786102
 10
-13.6439246041
 20
12.0384923955
 10
-13.6403919914
 20
12.0403428045
  0
LWPOLYLINE
  5
23A
100
AcDbEntity
  8
0
100
AcDbPolyline
 62
253
  6
CONTINUOUS
 90
16
 70
0
 10
-13.6403919914
 20
12.0403428045
 10
-13.531280351
 20
12.1000748065
 10
-13.4209810436
 20
12.1578679743
 10
-13.3094822283
 20
12.2137318341
 10
-13.1967720642
 20
12.2676759119
 10
-13.0828387103
 20
12.319709734
 10
-12.9676779207
 20
12.3698391497
 10
-12.8513158295
 20
12.4180553005
 10
-12.733786166
 20
12.4643456515
 10
-12.6151226593
 20
12.5086976674
 10
-12.4953590389
 20
12.5510988131
 10
-12.3745209557
 20
12.5915390565
 10
-12.2526017492
 20
12.6300183778
 10
-12.1295866805
 20
12.66653926
 10
-12.0054610108
 20
12.7011041863
 10
-11.8802100014
 20
12.7337156398
  0
LWPOLYLINE
  5
23B
100
AcDbEntity
  8
0
100
AcDbPolyline
 62
253
  6
CONTINUOUS
 90
16
 70
0
 10
-13.6240863885
 20
12.0100070543
 10
-13.5151715938
 20
12.0696425439
 10
-13.4050717885
 20
12.127342884
 10
-13.2937753022
 20
12.1831175585
 10
-13.1812704644
 20
12.2369760515
 10
-13.0675456048
 20
12.2889278471
 10
-12.9525965442
 20
12.3389787867
 10
-12.836449068
 20
12.3871201422
 10
-12.719136453
 20
12.4333395429
 10
-12.6006919759
 20
12.4776246182
 10
-12.4811489135
 20
12.5199629975
 10
-12.360532562
 20
12.5603447702
 10
-12.2388362955
 20
12.5987698658
 10
-12.116045508
 20
12.6352406738
 10
-11.9921455932
 20
12.6697595838
 10
-11.8671219449
 20
12.7023289854
  0
LWPOLYLINE
  5
23C
100
AcDbEntity
  8
ASSI
100
AcDbPolyline
 62
253
  6
CONTINUOUS
 90
13
 70
0
 10
4.3354360343
 20
-23.5818289801
 10
4.9776746609
 20
-23.9505430263
 10
5.6140318385
 20
-24.3117536526
 10
6.2443258209
 20
-24.6655457079
 10
6.8654698588
 20
-25.0103992256
 10
7.4801691705
 20
-25.3480208953
 10
8.0970726449
 20
-25.6832518059
 10
8.7156197908
 20
-26.0158047169
 10
9.3363015576
 20
-26.3459709908
 10
9.9696383517
 20
-26.6792781267
 10
10.6192913715
 20
-27.0174569876
 10
11.2818874626
 20
-27.3585513866
 10
11.9575537541
 20
-27.702456318
  0
LINE
  5
23D
100
AcDbEntity
  8
ASSI
100
AcDbLine
 62
253
  6
CONTINUOUS
 10
-11.5743991645
 20
-14.3956931019
 11
4.3354340675
 21
-23.581831413
  0
LWPOLYLINE
  5
23E
100
AcDbEntity
  8
ASSI
100
AcDbPolyline
 62
253
  6
CONTINUOUS
 90
12
 70
0
 10
12.2195968657
 20
-28.2175180202
 10
12.1783355842
 20
-28.1932498912
 10
12.1399883726
 20
-28.1638375154
 10
12.1048826812
 20
-28.129498489
 10
12.0731777958
 20
-28.0903975598
 10
12.0450482513
 20
-28.0467395695
 10
12.0206277342
 20
-27.9987426624
 10
12.0000224658
 20
-27.9466367092
 10
11.9833421095
 20
-27.8906743214
 10
11.9706700696
 20
-27.8311266169
 10
11.9620605105
 20
-27.7682847727
 10
11.9575537509
 20
-27.7024563065
  0
LWPOLYLINE
  5
23F
100
AcDbEntity
  8
ASSI
100
AcDbPolyline
 62
253
  6
CONTINUOUS
 90
8
 70
0
 10
-19.1337717353
 20
7.6519521144
 10
-19.1304841689
 20
7.6239846104
 10
-19.1225005208
 20
7.5963293473
 10
-19.1098962907
 20
7.5692478217
 10
-19.0927906624
 20
7.5429961064
 10
-19.0713453841
 20
7.5178224352
 10
-19.0457632458
 20
7.4939648553
 10
-19.0162861536
 20
7.471648965
  0
LWPOLYLINE
  5
240
100
AcDbEntity
  8
ASSI
100
AcDbPolyline
 62
7
  6
CONTINUOUS
 90
13
 70
0
 10
-18.8970099968
 20
6.862039301
 10
-18.9185505713
 20
6.8479268426
 10
-18.9529796778
 20
6.8218093487
 10
-18.9850962983
 20
6.7927461547
 10
-19.0146334377
 20
6.760946143
 10
-19.0413501849
 20
6.7266360913
 10
-19.0650920124
 20
6.6899517539
 10
-19.085592636
 20
6.6512242203
 10
-19.1026606119
 20
6.6107512808
 10
-19.1161884432
 20
6.5686520988
 10
-19.1259977322
 20
6.5252220239
 10
-19.1319178542
 20
6.4809422646
 10
-19.1338620994
 20
6.4362371349
  0
LINE
  5
241
100
AcDbEntity
  8
ASSI
100
AcDbLine
 62
7
  6
CONTINUOUS
 10
-18.8969597129
 20
6.8620704279
 11
-18.6123311391
 21
7.038194887
  0
LINE
  5
242
100
AcDbEntity
  8
ASSI
100
AcDbLine
 62
253
  6
CONTINUOUS
 10
-18.6369478248
 20
6.8433264478
 11
-18.4738522912
 21
6.9442478424
  0
LWPOLYLINE
  5
243
100
AcDbEntity
  8
ASSI
100
AcDbPolyline
 62
253
  6
CONTINUOUS
 90
9
 70
0
 10
-18.8969597129
 20
6.8620704279
 10
-18.8792870266
 20
6.8716320479
 10
-18.8499747277
 20
6.882338878
 10
-18.8182718393
 20
6.88814975
 10
-18.7845302752
 20
6.8889944353
 10
-18.7491297647
 20
6.8848613692
 10
-18.7124634032
 20
6.8757970589
 10
-18.6749317032
 20
6.8619011063
 10
-18.6369478196
 20
6.843326451
  0
LWPOLYLINE
  5
244
100
AcDbEntity
  8
0
100
AcDbPolyline
 62
253
  6
CONTINUOUS
 90
32
 70
0
 10
-11.9926875044
 20
-7.8975537112
 10
-11.9872784932
 20
-7.9047594942
 10
-11.9818066879
 20
-7.9118644903
 10
-11.9762724898
 20
-7.9188709147
 10
-11.9706763004
 20
-7.925780982
 10
-11.965018521
 20
-7.9325969072
 10
-11.9592995531
 20
-7.9393209052
 10
-11.9535201727
 20
-7.945954419
 10
-11.9476826551
 20
-7.9524958045
 10
-11.9417896503
 20
-7.9589426455
 10
-11.9358438083
 20
-7.9652925263
 10
-11.929847779
 20
-7.9715430306
 10
-11.9238042126
 20
-7.9776917426
 10
-11.9177159662
 20
-7.9837361226
 10
-11.9115867258
 20
-7.9896731361
 10
-11.9054203844
 20
-7.9954996251
 10
-11.8992208352
 20
-8.0012124315
 10
-11.8929919713
 20
-8.0068083973
 10
-11.886737686
 20
-8.0122843642
 10
-11.8804604712
 20
-8.0176378387
 10
-11.8741572157
 20
-8.0228689842
 10
-11.8678234067
 20
-8.0279786286
 10
-11.8614545319
 20
-8.0329675998
 10
-11.8550460788
 20
-8.0378367256
 10
-11.8485935349
 20
-8.0425868339
 10
-11.8430275622
 20
-8.0465622371
 10
-11.8374427941
 20
-8.0504392228
 10
-11.8318561437
 20
-8.0542062068
 10
-11.8262845239
 20
-8.0578516049
 10
-11.820744848
 20
-8.0613638328
 10
-11.8152540289
 20
-8.0647313063
 10
-11.8098289798
 20
-8.0679424411
  0
LWPOLYLINE
  5
245
100
AcDbEntity
  8
0
100
AcDbPolyline
 62
253
  6
CONTINUOUS
 90
31
 70
0
 10
-12.00601506
 20
-7.9119872757
 10
-12.0002550615
 20
-7.9196712239
 10
-11.9944373031
 20
-7.9272425305
 10
-11.9885574796
 20
-7.9347088065
 10
-11.9826112857
 20
-7.9420776631
 10
-11.9765944161
 20
-7.9493567111
 10
-11.9705028518
 20
-7.9565525247
 10
-11.9643337203
 20
-7.9636675301
 10
-11.9580844353
 20
-7.9707031168
 10
-11.9517524106
 20
-7.977660674
 10
-11.94533506
 20
-7.9845415911
 10
-11.9388318638
 20
-7.9913451463
 10
-11.9322505685
 20
-7.998062173
 10
-11.9256009871
 20
-8.0046813937
 10
-11.9188929327
 20
-8.0111915306
 10
-11.9121362182
 20
-8.0175813061
 10
-11.9053408336
 20
-8.0238399826
 10
-11.8985174759
 20
-8.029958983
 10
-11.891677019
 20
-8.0359302705
 10
-11.8848303369
 20
-8.0417458078
 10
-11.8779883036
 20
-8.0473975582
 10
-11.8711595964
 20
-8.0528793557
 10
-11.8643441065
 20
-8.0581925187
 10
-11.8575395284
 20
-8.0633402366
 10
-11.8507435569
 20
-8.0683256989
 10
-11.8439538866
 20
-8.073152095
 10
-11.8371676455
 20
-8.0778224205
 10
-11.8303796961
 20
-8.0823388954
 10
-11.8235843342
 20
-8.086703546
 10
-11.8167758557
 20
-8.0909183983
 10
-11.8099485563
 20
-8.0949854786
  0
LWPOLYLINE
  5
246
100
AcDbEntity
  8
0
100
AcDbPolyline
 62
253
  6
CONTINUOUS
 90
16
 70
0
 10
-11.8754211537
 20
-7.6657098773
 10
-12.0005274704
 20
-7.494642887
 10
-12.124528375
 20
-7.3225579972
 10
-12.2474383645
 20
-7.1494392708
 10
-12.3692719358
 20
-6.9752707702
 10
-12.490043586
 20
-6.8000365582
 10
-12.6097596539
 20
-6.6237325124
 10
-12.7283938453
 20
-6.4464017694
 10
-12.8459117081
 20
-6.2680992807
 10
-12.96227879
 20
-6.088879998
 10
-13.0774606386
 20
-5.9087988727
 10
-13.191430473
 20
-5.7278986659
 10
-13.3041921975
 20
-5.5461733773
 10
-13.4157573878
 20
-5.3636048158
 10
-13.5261376195
 20
-5.1801747905
 10
-13.6353444682
 20
-4.9958651106
  0
LWPOLYLINE
  5
247
100
AcDbEntity
  8
0
100
AcDbPolyline
 62
253
  6
CONTINUOUS
 90
16
 70
0
 10
-11.8619755223
 20
-7.6513809652
 10
-11.9869263089
 20
-7.4805383742
 10
-12.1107659434
 20
-7.3086896849
 10
-12.2335089056
 20
-7.1358193082
 10
-12.3551696751
 20
-6.9619116549
 10
-12.4757627317
 20
-6.7869511356
 10
-12.5952944916
 20
-6.6109338223
 10
-12.7137391177
 20
-6.4339024314
 10
-12.8310627094
 20
-6.2559113404
 10
-12.9472313662
 20
-6.0770149265
 10
-13.0622111874
 20
-5.8972675675
 10
-13.175975846
 20
-5.7167115925
 10
-13.2885293089
 20
-5.5353411386
 10
-13.3998831164
 20
-5.3531382946
 10
-13.510048809
 20
-5.1700851494
 10
-13.6190379269
 20
-4.9861637919
  0
LWPOLYLINE
  5
248
100
AcDbEntity
  8
0
100
AcDbPolyline
 62
253
  6
CONTINUOUS
 90
88
 70
0
 10
-13.6190379269
 20
-4.9861637919
 10
-13.6231490327
 20
-4.9793168114
 10
-13.627345037
 20
-4.9726307187
 10
-13.6316350829
 20
-4.9660833567
 10
-13.6360283135
 20
-4.9596525685
 10
-13.6405338719
 20
-4.9533161971
 10
-13.6463343594
 20
-4.9455036697
 10
-13.6523223986
 20
-4.9378142797
 10
-13.658495743
 20
-4.9302582582
 10
-13.6648521461
 20
-4.9228458366
 10
-13.6713859565
 20
-4.9155903261
 10
-13.6780779049
 20
-4.9085173572
 10
-13.6849053175
 20
-4.9016556407
 10
-13.6918455203
 20
-4.8950338871
 10
-13.6974652777
 20
-4.8899272862
 10
-13.7031408393
 20
-4.8849997471
 10
-13.7088703349
 20
-4.8802583806
 10
-13.7146518944
 20
-4.8757102976
 10
-13.7204836473
 20
-4.8713626087
 10
-13.7263617972
 20
-4.8672234296
 10
-13.7322748413
 20
-4.8633048957
 10
-13.7382093506
 20
-4.859620147
 10
-13.7441518961
 20
-4.8561823239
 10
-13.7500890485
 20
-4.8530045664
 10
-13.7560073637
 20
-4.8500978448
 10
-13.7618933371
 20
-4.8474644501
 10
-13.7677334488
 20
-4.8451045031
 10
-13.773514179
 20
-4.843018125
 10
-13.7792220078
 20
-4.8412054367
 10
-13.7848456796
 20
-4.8396660629
 10
-13.790382994
 20
-4.8383976442
 10
-13.7958340151
 20
-4.8373973246
 10
-13.8011988067
 20
-4.8366622484
 10
-13.8064774325
 20
-4.8361895598
 10
-13.8116692523
 20
-4.8359773352
 10
-13.816770808
 20
-4.8360273805
 10
-13.8217779374
 20
-4.8363424337
 10
-13.8266864784
 20
-4.8369252329
 10
-13.8314922687
 20
-4.8377785162
 10
-13.8361900335
 20
-4.8389047954
 10
-13.8407700485
 20
-4.8403056776
 10
-13.8452214765
 20
-4.841982544
 10
-13.8495334807
 20
-4.8439367754
 10
-13.8536952238
 20
-4.8461697528
 10
-13.857696927
 20
-4.8486811627
 10
-13.8615330426
 20
-4.8514639128
 10
-13.865199081
 20
-4.8545092166
 10
-13.8686905526
 20
-4.8578082874
 10
-13.8720029677
 20
-4.8613523386
 10
-13.875132516
 20
-4.8651331974
 10
-13.8780781034
 20
-4.8691451466
 10
-13.8808393152
 20
-4.8733830832
 10
-13.8834157367
 20
-4.8778419039
 10
-13.885806953
 20
-4.8825165055
 10
-13.8880121424
 20
-4.8874030857
 10
-13.8900288544
 20
-4.8925030464
 10
-13.8918542316
 20
-4.8978190901
 10
-13.8934854168
 20
-4.9033539195
 10
-13.8949195524
 20
-4.9091102373
 10
-13.8961530123
 20
-4.9150888651
 10
-13.8971790959
 20
-4.9212831008
 10
-13.8979903338
 20
-4.9276843614
 10
-13.8985792566
 20
-4.9342840638
 10
-13.8989383948
 20
-4.9410736249
 10
-13.8990577491
 20
-4.9468658863
 10
-13.8990139667
 20
-4.9527517972
 10
-13.8988086707
 20
-4.9586991214
 10
-13.8984444818
 20
-4.9646804097
 10
-13.8979280117
 20
-4.9706873625
 10
-13.8972668698
 20
-4.9767164672
 10
-13.8964675344
 20
-4.9827665258
 10
-13.8955319593
 20
-4.9888455969
 10
-13.894460967
 20
-4.9949640534
 10
-13.8926041482
 20
-5.0042248982
 10
-13.8904579319
 20
-5.0135524377
 10
-13.8880366223
 20
-5.0229024702
 10
-13.8853579807
 20
-5.0322350321
 10
-13.88243829
 20
-5.0415176462
 10
-13.8792844623
 20
-5.0507435436
 10
-13.8759020407
 20
-5.0599096445
 10
-13.8723004632
 20
-5.0690019172
 10
-13.8684901409
 20
-5.0780035917
 10
-13.8644814854
 20
-5.0868978985
 10
-13.8611353067
 20
-5.0939296041
 10
-13.8576534843
 20
-5.1009022819
 10
-13.8540206446
 20
-5.1078363519
 10
-13.8502214139
 20
-5.1147522342
 10
-13.8462404187
 20
-5.121670349
  0
LWPOLYLINE
  5
249
100
AcDbEntity
  8
0
100
AcDbPolyline
 62
253
  6
CONTINUOUS
 90
88
 70
0
 10
-13.6353444682
 20
-4.9958651106
 10
-13.6388768572
 20
-4.9899766969
 10
-13.6424824041
 20
-4.984226913
 10
-13.6461690127
 20
-4.9785965707
 10
-13.6499445873
 20
-4.9730664818
 10
-13.6538170317
 20
-4.9676174581
 10
-13.6588031465
 20
-4.9608985101
 10
-13.6639521761
 20
-4.9542841618
 10
-13.6692633259
 20
-4.9477823302
 10
-13.6747358016
 20
-4.9414009323
 10
-13.6803654564
 20
-4.935151051
 10
-13.6861347341
 20
-4.9290564335
 10
-13.6920227262
 20
-4.9231439931
 10
-13.6980085243
 20
-4.9174406432
 10
-13.7028546788
 20
-4.9130455061
 10
-13.7077462201
 20
-4.908808663
 10
-13.7126793208
 20
-4.9047373656
 10
-13.7176501534
 20
-4.9008388656
 10
-13.7226548903
 20
-4.8971204145
 10
-13.7276887891
 20
-4.8935895358
 10
-13.7327434481
 20
-4.8902548397
 10
-13.7378095505
 20
-4.8871252083
 10
-13.7428777796
 20
-4.8842095235
 10
-13.7479388186
 20
-4.8815166674
 10
-13.7529832235
 20
-4.8790540617
 10
-13.758001041
 20
-4.8768232876
 10
-13.7629821903
 20
-4.8748244662
 10
-13.7679165908
 20
-4.8730577183
 10
-13.7727941618
 20
-4.8715231652
 10
-13.7776062586
 20
-4.8702206235
 10
-13.7823499809
 20
-4.8691486941
 10
-13.7870238643
 20
-4.8683056735
 10
-13.7916264445
 20
-4.8676898582
 10
-13.7961562571
 20
-4.8672995448
 10
-13.8006115084
 20
-4.8671336955
 10
-13.8049890881
 20
-4.8671939349
 10
-13.8092855561
 20
-4.8674825531
 10
-13.8134974728
 20
-4.8680018404
 10
-13.8176213982
 20
-4.8687540868
 10
-13.8216528713
 20
-4.8697413922
 10
-13.8255833452
 20
-4.8709650946
 10
-13.8294032521
 20
-4.8724263415
 10
-13.8331030238
 20
-4.8741262806
 10
-13.8366730924
 20
-4.8760660595
 10
-13.8401047823
 20
-4.8782452173
 10
-13.8433929886
 20
-4.8806568598
 10
-13.8465334991
 20
-4.8832924839
 10
-13.8495221014
 20
-4.8861435869
 10
-13.8523545831
 20
-4.889201666
 10
-13.8550274919
 20
-4.8924589587
 10
-13.8575404153
 20
-4.8959106638
 10
-13.8598937009
 20
-4.8995527208
 10
-13.8620876962
 20
-4.9033810688
 10
-13.8641227486
 20
-4.9073916472
 10
-13.8659987402
 20
-4.9115815933
 10
-13.8677136899
 20
-4.9159528368
 10
-13.8692651514
 20
-4.9205085054
 10
-13.8706506783
 20
-4.9252517267
 10
-13.8718678239
 20
-4.9301856284
 10
-13.8729134422
 20
-4.9353114969
 10
-13.8737815882
 20
-4.9406232524
 10
-13.8744656173
 20
-4.9461129736
 10
-13.8749588849
 20
-4.9517727395
 10
-13.8752547463
 20
-4.9575946288
 10
-13.8753466265
 20
-4.9625604088
 10
-13.8752984748
 20
-4.9676051467
 10
-13.8751119614
 20
-4.9727007153
 10
-13.8747896254
 20
-4.9778229907
 10
-13.8743374827
 20
-4.9829638617
 10
-13.8737624185
 20
-4.9881192203
 10
-13.8730703197
 20
-4.9932872074
 10
-13.8722630803
 20
-4.9984749598
 10
-13.8713415965
 20
-5.0036918633
 10
-13.8697484517
 20
-5.0115813637
 10
-13.867911274
 20
-5.0195229822
 10
-13.8658415715
 20
-5.0274832249
 10
-13.8635528783
 20
-5.0354329821
 10
-13.8610574135
 20
-5.0433488116
 10
-13.8583601078
 20
-5.051225558
 10
-13.8554650314
 20
-5.0590601479
 10
-13.8523801008
 20
-5.0668395508
 10
-13.8491141944
 20
-5.074548247
 10
-13.8456761902
 20
-5.0821707167
 10
-13.8428048781
 20
-5.0882003813
 10
-13.839815864
 20
-5.0941821897
 10
-13.8366959065
 20
-5.1001334034
 10
-13.8334317642
 20
-5.1060712839
 10
-13.8300101957
 20
-5.1120130927
  0
LWPOLYLINE
  5
24A
100
AcDbEntity
  8
0
100
AcDbPolyline
 62
253
  6
CONTINUOUS
 90
16
 70
0
 10
-13.8462404187
 20
-5.121670349
 10
-13.7323705193
 20
-5.3142821176
 10
-13.617228045
 20
-5.5059806377
 10
-13.5007988797
 20
-5.6967869705
 10
-13.3830689077
 20
-5.8867221772
 10
-13.2640240131
 20
-6.0758073187
 10
-13.1436591379
 20
-6.2640491686
 10
-13.0220054556
 20
-6.4513973502
 10
-12.8991031978
 20
-6.6377871992
 10
-12.7749925959
 20
-6.8231540512
 10
-12.6497138813
 20
-7.007433242
 10
-12.5232977522
 20
-7.1905739973
 10
-12.3957367738
 20
-7.3725811026
 10
-12.2670139777
 20
-7.5534732337
 10
-12.1371123958
 20
-7.7332690662
 10
-12.00601506
 20
-7.9119872757
  0
LWPOLYLINE
  5
24B
100
AcDbEntity
  8
0
100
AcDbPolyline
 62
253
  6
CONTINUOUS
 90
16
 70
0
 10
-13.8300101957
 20
-5.1120130927
 10
-13.716319893
 20
-5.3042888999
 10
-13.6013591242
 20
-5.4956538686
 10
-13.4851138305
 20
-5.6861289539
 10
-13.367569953
 20
-5.8757351115
 10
-13.248713433
 20
-6.0644932967
 10
-13.1285392254
 20
-6.2524102441
 10
-13.0070783407
 20
-6.439435805
 10
-12.8843708033
 20
-6.6255056102
 10
-12.7604566375
 20
-6.8105552902
 10
-12.6353758675
 20
-6.9945204756
 10
-12.5091590273
 20
-7.1773506183
 10
-12.3817986892
 20
-7.3590504551
 10
-12.2532779348
 20
-7.5396385441
 10
-12.1235798459
 20
-7.7191334435
 10
-11.9926875044
 20
-7.8975537112
  0
LWPOLYLINE
  5
24C
100
AcDbEntity
  8
ASSI
100
AcDbPolyline
 62
7
  6
CONTINUOUS
 90
5
 70
0
 10
-19.1043258746
 20
7.487697029
 10
-19.1171502618
 20
7.5288110559
 10
-19.1264324501
 20
7.5711255373
 10
-19.1320271446
 20
7.6142014987
 10
-19.1338621013
 20
7.6576522467
  0
LWPOLYLINE
  5
24D
100
AcDbEntity
  8
ASSI
100
AcDbPolyline
 62
253
  6
CONTINUOUS
 90
10
 70
0
 10
-11.5744076087
 20
-14.3956882263
 10
-11.5679955878
 20
-14.4714290958
 10
-11.5560065717
 20
-14.5430840326
 10
-11.5385200678
 20
-14.610177843
 10
-11.5156520412
 20
-14.672265581
 10
-11.487554146
 20
-14.7289354995
 10
-11.4544127187
 20
-14.7798117807
 10
-11.4164475434
 20
-14.8245570286
 10
-11.3739103936
 20
-14.8628745061
 10
-11.3270833629
 20
-14.8945101034
  0
LWPOLYLINE
  5
24E
100
AcDbEntity
  8
ASSI
100
AcDbPolyline
 62
253
  6
CONTINUOUS
 90
9
 70
0
 10
-11.9579625876
 20
3.0353323862
 10
-11.9561113523
 20
2.9939059055
 10
-11.9504394958
 20
2.9551387106
 10
-11.9410086329
 20
2.9194519392
 10
-11.9279212136
 20
2.8872332653
 10
-11.9113194097
 20
2.8588326884
 10
-11.8913835711
 20
2.834558731
 10
-11.8683302656
 20
2.8146750871
 10
-11.8544219009
 20
2.8056967004
  0
LWPOLYLINE
  5
24F
100
AcDbEntity
  8
ASSI
100
AcDbPolyline
 62
253
  6
CONTINUOUS
 90
3
 70
0
 10
-11.7816406886
 20
-9.044257096
 10
-11.6879350341
 20
-11.7263277236
 10
-11.5743991645
 20
-14.3956931019
  0
LINE
  5
250
100
AcDbEntity
  8
ASSI
100
AcDbLine
 62
7
  6
CONTINUOUS
 10
-13.5526867993
 20
26.0087847478
 11
-13.5314831853
 21
25.3923609523
  0
LINE
  5
251
100
AcDbEntity
  8
ASSI
100
AcDbLine
 62
253
  6
CONTINUOUS
 10
-11.8555048214
 20
-6.3496668942
 11
-11.7816406886
 21
-9.044257096
  0
LWPOLYLINE
  5
252
100
AcDbEntity
  8
ASSI
100
AcDbPolyline
 62
253
  6
CONTINUOUS
 90
4
 70
0
 10
-11.9579559537
 20
1.8073501799
 10
-11.9436702708
 20
-0.9236752228
 10
-11.9095175207
 20
-3.6427437467
 10
-11.8555048214
 20
-6.3496668942
  0
LINE
  5
253
100
AcDbEntity
  8
ASSI
100
AcDbLine
 62
253
  6
CONTINUOUS
 10
-13.7329214476
 20
25.5946027384
 11
-13.7329214302
 21
25.5326294747
  0
LWPOLYLINE
  5
254
100
AcDbEntity
  8
ASSI
100
AcDbPolyline
 62
253
  6
CONTINUOUS
 90
5
 70
0
 10
-11.9579559631
 20
3.0353285613
 10
-11.9436700385
 20
5.7831396893
 10
-11.9095172851
 20
8.5420041787
 10
-11.8555048212
 20
11.311725312
 10
-11.7816411624
 20
14.0921056862
  0
LWPOLYLINE
  5
255
100
AcDbEntity
  8
ASSI
100
AcDbPolyline
 62
253
  6
CONTINUOUS
 90
3
 70
0
 10
-11.7816411624
 20
14.0921056862
 10
-11.6879362206
 20
16.8829472267
 10
-11.5744013022
 20
19.6840512023
  0
LWPOLYLINE
  5
256
100
AcDbEntity
  8
ASSI
100
AcDbPolyline
 62
253
  6
CONTINUOUS
 90
16
 70
0
 10
-11.9579625876
 20
1.8073540103
 10
-11.9561108781
 20
1.850923853
 10
-11.9504376751
 20
1.8962462408
 10
-11.9410047473
 20
1.9428286626
 10
-11.9279146656
 20
1.9901650869
 10
-11.911309799
 20
2.037741033
 10
-11.8913708686
 20
2.0850391596
 10
-11.8683147109
 20
2.1315455965
 10
-11.8423919826
 20
2.1767551762
 10
-11.8138846868
 20
2.2201765296
 10
-11.7831027319
 20
2.261338094
 10
-11.7503806378
 20
2.2997929933
 10
-11.7160741423
 20
2.3351236116
 10
-11.6805560496
 20
2.3669464866
 10
-11.6442121502
 20
2.394916419
 10
-11.6074371933
 20
2.418730047
  0
LWPOLYLINE
  5
257
100
AcDbEntity
  8
ASSI
100
AcDbPolyline
 62
253
  6
CONTINUOUS
 90
19
 70
0
 10
-11.5744076087
 20
19.6840548435
 10
-11.5679956319
 20
19.7671997492
 10
-11.5560066899
 20
19.8526990126
 10
-11.538520263
 20
19.9399856418
 10
-11.5156522757
 20
20.028480837
 10
-11.4875543651
 20
20.1175976802
 10
-11.4544129042
 20
20.2067450251
 10
-11.4164477019
 20
20.295331623
 10
-11.3739105172
 20
20.3827700421
 10
-11.3270834477
 20
20.4684804132
 10
-11.276277039
 20
20.5518943305
 10
-11.221828226
 20
20.6324586186
 10
-11.1640981003
 20
20.709638998
 10
-11.103469513
 20
20.7829236327
 10
-11.040344536
 20
20.8518265232
 10
-10.9751417976
 20
20.9158907275
 10
-10.9082937041
 20
20.9746913937
 10
-10.8402435721
 20
21.0278385771
 10
-10.7714426898
 20
21.0749798253
  0
LINE
  5
258
100
AcDbEntity
  8
ASSI
100
AcDbLine
 62
7
  6
CONTINUOUS
 10
-5.63309085
 20
21.4361093025
 11
-5.8133254983
 21
21.0219272932
  0
LWPOLYLINE
  5
259
100
AcDbEntity
  8
0
100
AcDbPolyline
 62
253
  6
CONTINUOUS
 90
33
 70
0
 10
-11.8096809033
 20
-8.068088075
 10
-11.8042016679
 20
-8.0712129428
 10
-11.7988120723
 20
-8.0741761326
 10
-11.7934905021
 20
-8.0769916066
 10
-11.788215343
 20
-8.0796733269
 10
-11.7829649809
 20
-8.0822352556
 10
-11.7777178014
 20
-8.0846913548
 10
-11.7714029706
 20
-8.0875137126
 10
-11.7650723467
 20
-8.0901983576
 10
-11.758736678
 20
-8.0927398662
 10
-11.752406713
 20
-8.0951328144
 10
-11.7460932
 20
-8.0973717787
 10
-11.7398053263
 20
-8.0994522874
 10
-11.7335460345
 20
-8.1013736777
 10
-11.7273167064
 20
-8.103136239
 10
-11.7211187234
 20
-8.1047402607
 10
-11.7149534672
 20
-8.1061860323
 10
-11.7088227875
 20
-8.1074735303
 10
-11.7027304057
 20
-8.1086014792
 10
-11.6966805118
 20
-8.109568291
 10
-11.6906772953
 20
-8.1103723773
 10
-11.6847249458
 20
-8.11101215
 10
-11.678827493
 20
-8.1114861249
 10
-11.6729883254
 20
-8.1117932348
 10
-11.6672106714
 20
-8.1119325163
 10
-11.6614977597
 20
-8.1119030061
 10
-11.6558528186
 20
-8.1117037411
 10
-11.6512021556
 20
-8.1114069126
 10
-11.6465980257
 20
-8.1109885395
 10
-11.6420375179
 20
-8.1104456313
 10
-11.6375177214
 20
-8.1097751977
 10
-11.6330357254
 20
-8.1089742483
 10
-11.6285886192
 20
-8.1080397926
  0
LWPOLYLINE
  5
25A
100
AcDbEntity
  8
0
100
AcDbPolyline
 62
253
  6
CONTINUOUS
 90
31
 70
0
 10
-11.809999774
 20
-8.0950150625
 10
-11.803052325
 20
-8.0989896752
 10
-11.7961327542
 20
-8.1027833086
 10
-11.7892349563
 20
-8.1064009406
 10
-11.7823528265
 20
-8.1098475492
 10
-11.7754802595
 20
-8.1131281122
 10
-11.7686118154
 20
-8.1162466792
 10
-11.7617447143
 20
-8.1192035854
 10
-11.7548768414
 20
-8.1219982378
 10
-11.7480060819
 20
-8.1246300432
 10
-11.7411303211
 20
-8.1270984083
 10
-11.7342496257
 20
-8.1294020678
 10
-11.72737279
 20
-8.1315370675
 10
-11.7205107895
 20
-8.1334987807
 10
-11.7136746002
 20
-8.1352825811
 10
-11.7068751978
 20
-8.1368838421
 10
-11.7001233455
 20
-8.1382987128
 10
-11.6934289569
 20
-8.1395264447
 10
-11.6868017328
 20
-8.140567065
 10
-11.6802513741
 20
-8.1414206006
 10
-11.673787582
 20
-8.1420870788
 10
-11.6674180299
 20
-8.1425667889
 10
-11.6611422821
 20
-8.1428610698
 10
-11.6549578756
 20
-8.1429715226
 10
-11.6488623474
 20
-8.1428997485
 10
-11.6428532343
 20
-8.1426473487
 10
-11.6369277738
 20
-8.1422151488
 10
-11.6310820051
 20
-8.1416008728
 10
-11.6253116676
 20
-8.140801469
 10
-11.619612501
 20
-8.139813886
 10
-11.6139802449
 20
-8.1386350721
  0
LWPOLYLINE
  5
25B
100
AcDbEntity
  8
0
100
AcDbPolyline
 62
253
  6
CONTINUOUS
 90
31
 70
0
 10
-11.8204882242
 20
-7.7175470451
 10
-11.822424054
 20
-7.7163692783
 10
-11.8243532497
 20
-7.71515318
 10
-11.8262761967
 20
-7.7138983523
 10
-11.8281932808
 20
-7.7126043974
 10
-11.8301048876
 20
-7.7112709174
 10
-11.8320114028
 20
-7.7098975145
 10
-11.833913212
 20
-7.7084837908
 10
-11.8358107009
 20
-7.7070293485
 10
-11.8377042551
 20
-7.7055337897
 10
-11.8395942603
 20
-7.7039967165
 10
-11.8414808454
 20
-7.7024179897
 10
-11.8433631117
 20
-7.7007985034
 10
-11.845239904
 20
-7.6991394104
 10
-11.847110067
 20
-7.6974418633
 10
-11.8489724454
 20
-7.695707015
 10
-11.8508258838
 20
-7.6939360181
 10
-11.852669227
 20
-7.6921300253
 10
-11.8545013196
 20
-7.6902901894
 10
-11.8563210063
 20
-7.6884176631
 10
-11.8581271317
 20
-7.6865135991
 10
-11.8599187735
 20
-7.684578868
 10
-11.8616959402
 20
-7.6826132121
 10
-11.8634588734
 20
-7.6806160913
 10
-11.8652078146
 20
-7.6785869657
 10
-11.8669430053
 20
-7.6765252955
 10
-11.8686646869
 20
-7.6744305407
 10
-11.8703731011
 20
-7.6723021614
 10
-11.8720684893
 20
-7.6701396177
 10
-11.873751093
 20
-7.6679423696
 10
-11.8754211537
 20
-7.6657098773
  0
LWPOLYLINE
  5
25C
100
AcDbEntity
  8
0
100
AcDbPolyline
 62
253
  6
CONTINUOUS
 90
31
 70
0
 10
-11.8212332389
 20
-7.6900029369
 10
-11.8226569954
 20
-7.689121817
 10
-11.8240756669
 20
-7.6882123676
 10
-11.8254904009
 20
-7.6872740476
 10
-11.8269023454
 20
-7.6863063155
 10
-11.8283126481
 20
-7.6853086301
 10
-11.8297222581
 20
-7.6842805044
 10
-11.8311313303
 20
-7.6832216679
 10
-11.8325398209
 20
-7.6821319046
 10
-11.833947686
 20
-7.6810109983
 10
-11.8353548819
 20
-7.6798587329
 10
-11.8367611683
 20
-7.6786750798
 10
-11.8381655184
 20
-7.6774607611
 10
-11.839566709
 20
-7.6762166863
 10
-11.8409635169
 20
-7.6749437651
 10
-11.842354719
 20
-7.673642907
 10
-11.8437391115
 20
-7.6723150813
 10
-11.8451155693
 20
-7.6709614954
 10
-11.8464829867
 20
-7.6695834161
 10
-11.8478402581
 20
-7.6681821105
 10
-11.849186278
 20
-7.6667588455
 10
-11.8505201106
 20
-7.6653147104
 10
-11.8518414996
 20
-7.6638500832
 10
-11.8531503584
 20
-7.6623651644
 10
-11.8544466007
 20
-7.6608601545
 10
-11.8557301399
 20
-7.6593352537
 10
-11.8570010596
 20
-7.6577903551
 10
-11.8582601238
 20
-7.6562241215
 10
-11.8595082663
 20
-7.6546349083
 10
-11.8607464212
 20
-7.6530210711
 10
-11.8619755223
 20
-7.6513809652
  0
LWPOLYLINE
  5
25D
100
AcDbEntity
  8
ASSI
100
AcDbPolyline
 62
7
  6
CONTINUOUS
 90
4
 70
0
 10
-19.0459517792
 20
7.3738371299
 10
-19.0686032266
 20
7.4100193361
 10
-19.0881128975
 20
7.4480605695
 10
-19.1043258746
 20
7.487697029
  0
LWPOLYLINE
  5
25E
100
AcDbEntity
  8
0
100
AcDbPolyline
 62
253
  6
CONTINUOUS
 90
25
 70
0
 10
-11.7815462471
 20
-7.7316853156
 10
-11.7830226409
 20
-7.7315271648
 10
-11.7845125642
 20
-7.7313324157
 10
-11.786016798
 20
-7.731100654
 10
-11.7875361231
 20
-7.7308314653
 10
-11.7890713204
 20
-7.7305244355
 10
-11.7906231706
 20
-7.7301791501
 10
-11.7921924547
 20
-7.7297951949
 10
-11.7937799534
 20
-7.7293721556
 10
-11.7953859607
 20
-7.7289097932
 10
-11.7970088219
 20
-7.7284085702
 10
-11.7986463956
 20
-7.7278691243
 10
-11.8002965403
 20
-7.7272920935
 10
-11.8019571144
 20
-7.7266781154
 10
-11.8036259763
 20
-7.7260278279
 10
-11.8053009847
 20
-7.7253418688
 10
-11.8069799978
 20
-7.7246208759
 10
-11.8086613506
 20
-7.7238653123
 10
-11.810345283
 20
-7.7230749423
 10
-11.8120325115
 20
-7.7222493555
 10
-11.8137237525
 20
-7.7213881415
 10
-11.8154197222
 20
-7.7204908899
 10
-11.8171211372
 20
-7.7195571903
 10
-11.8188287137
 20
-7.7185866323
 10
-11.8205431682
 20
-7.7175788054
  0
LINE
  5
25F
100
AcDbEntity
  8
ASSI
100
AcDbLine
 62
7
  6
CONTINUOUS
 10
-5.63309085
 20
21.4361093025
 11
-5.611887236
 21
20.819685507
  0
LINE
  5
260
100
AcDbEntity
  8
ASSI
100
AcDbLine
 62
253
  6
CONTINUOUS
 10
-5.8133254983
 20
21.0219272932
 11
-5.8133254809
 21
20.9599540294
  0
LWPOLYLINE
  5
261
100
AcDbEntity
  8
0
100
AcDbPolyline
 62
253
  6
CONTINUOUS
 90
16
 70
0
 10
-11.6139802449
 20
-8.1386350721
 10
-11.4883772031
 20
-8.108532153
 10
-11.3638370052
 20
-8.0762524845
 10
-11.2403477923
 20
-8.0417963061
 10
-11.1178977057
 20
-8.0051638575
 10
-10.9964748866
 20
-7.9663553785
 10
-10.8760734847
 20
-7.9253724126
 10
-10.7567116847
 20
-7.8822217186
 10
-10.6384136797
 20
-7.8369113593
 10
-10.5212036629
 20
-7.7894493975
 10
-10.4051058276
 20
-7.739843896
 10
-10.2901392441
 20
-7.6880999504
 10
-10.1763024919
 20
-7.6342107885
 10
-10.0635890275
 20
-7.5781666708
 10
-9.9519923076
 20
-7.5199578581
 10
-9.8415057888
 20
-7.4595746108
  0
LWPOLYLINE
  5
262
100
AcDbEntity
  8
0
100
AcDbPolyline
 62
253
  6
CONTINUOUS
 90
16
 70
0
 10
-11.6285886192
 20
-8.1080397926
 10
-11.5032251718
 20
-8.0779872688
 10
-11.3789178426
 20
-8.0457611451
 10
-11.2556548564
 20
-8.0113615227
 10
-11.1334244382
 20
-7.9747885028
 10
-11.012214813
 20
-7.9360421865
 10
-10.8920202044
 20
-7.8951239781
 10
-10.7728588309
 20
-7.8520404946
 10
-10.6547549097
 20
-7.806799656
 10
-10.537732658
 20
-7.7594093825
 10
-10.421816293
 20
-7.7098775942
 10
-10.3070249194
 20
-7.6582092495
 10
-10.1933571925
 20
-7.6043974605
 10
-10.0808066551
 20
-7.5484323775
 10
-9.9693668498
 20
-7.490304151
 10
-9.8590313196
 20
-7.4300029313
  0
LWPOLYLINE
  5
263
100
AcDbEntity
  8
0
100
AcDbPolyline
 62
253
  6
CONTINUOUS
 90
31
 70
0
 10
-11.7775503752
 20
-7.7002010009
 10
-11.7788863151
 20
-7.7004670273
 10
-11.7802322494
 20
-7.7006885915
 10
-11.7815882339
 20
-7.7008659925
 10
-11.7829543242
 20
-7.7009995291
 10
-11.784330576
 20
-7.7010895002
 10
-11.7857170451
 20
-7.7011362049
 10
-11.7871137872
 20
-7.701139942
 10
-11.7885208579
 20
-7.7011010104
 10
-11.789938313
 20
-7.701019709
 10
-11.7913662082
 20
-7.7008963368
 10
-11.7928044639
 20
-7.7007312023
 10
-11.7942524598
 20
-7.7005246529
 10
-11.7957094399
 20
-7.7002770454
 10
-11.7971746487
 20
-7.6999887369
 10
-11.7986473304
 20
-7.6996600843
 10
-11.8001267292
 20
-7.6992914445
 10
-11.8016120895
 20
-7.6988831745
 10
-11.8031026556
 20
-7.6984356312
 10
-11.8045976716
 20
-7.6979491717
 10
-11.8060963819
 20
-7.6974241529
 10
-11.8075981988
 20
-7.6968608348
 10
-11.8091032067
 20
-7.6962590901
 10
-11.8106116581
 20
-7.6956186945
 10
-11.8121238054
 20
-7.6949394238
 10
-11.813639901
 20
-7.6942210538
 10
-11.8151601974
 20
-7.6934633602
 10
-11.8166849471
 20
-7.6926661187
 10
-11.8182144024
 20
-7.6918291052
 10
-11.8197488159
 20
-7.6909520954
 10
-11.82128844
 20
-7.690034865
  0
LWPOLYLINE
  5
264
100
AcDbEntity
  8
ASSI
100
AcDbPolyline
 62
253
  6
CONTINUOUS
 90
16
 70
0
 10
11.6386514907
 20
-10.2281278152
 10
11.677318189
 20
-10.2451572922
 10
11.7186650938
 20
-10.2599437004
 10
11.7623012266
 20
-10.272347219
 10
11.8078139553
 20
-10.2822505585
 10
11.8547729155
 20
-10.2895600744
 10
11.9027340822
 20
-10.2942066483
 10
11.9512439551
 20
-10.2961463384
 10
11.9998438001
 20
-10.2953607967
 10
12.0480740087
 20
-10.2918574523
 10
12.0954784918
 20
-10.2856694403
 10
12.1416090138
 20
-10.2768552777
 10
12.1860293852
 20
-10.2654983093
 10
12.2283195714
 20
-10.2517059248
 10
12.2680796672
 20
-10.2356085472
 10
12.3049336991
 20
-10.2173583941
  0
LWPOLYLINE
  5
265
100
AcDbEntity
  8
ASSI
100
AcDbPolyline
 62
7
  6
CONTINUOUS
 90
12
 70
0
 10
11.7419630132
 20
-10.4575354474
 10
11.7539039941
 20
-10.4631528929
 10
11.7985431817
 20
-10.48090282
 10
11.8447803311
 20
-10.4943109568
 10
11.8922482642
 20
-10.5032317562
 10
11.9405282934
 20
-10.5075380149
 10
11.9891546584
 20
-10.5071402472
 10
12.0376721478
 20
-10.5019959088
 10
12.0856309856
 20
-10.4921026447
 10
12.1325432819
 20
-10.4775102092
 10
12.1778978575
 20
-10.4583356272
 10
12.1977021998
 20
-10.4482389579
  0
LWPOLYLINE
  5
266
100
AcDbEntity
  8
ASSI
100
AcDbPolyline
 62
253
  6
CONTINUOUS
 90
10
 70
0
 10
11.6386514493
 20
-11.4494940067
 10
10.7572365574
 20
-11.0174131166
 10
9.8824677007
 20
-10.5802236442
 10
9.0144068064
 20
-10.1379367725
 10
8.1531471697
 20
-9.6905803311
 10
7.2987195192
 20
-9.2381495207
 10
6.451094771
 20
-8.7806052436
 10
5.6103080241
 20
-8.3179405954
 10
4.776455807
 20
-7.8501825362
 10
3.9496040709
 20
-7.3773414464
  0
LINE
  5
267
100
AcDbEntity
  8
ASSI
100
AcDbLine
 62
253
  6
CONTINUOUS
 10
11.9576711085
 20
-10.8216230839
 11
11.0797564506
 21
-10.3912635525
  0
LINE
  5
268
100
AcDbEntity
  8
ASSI
100
AcDbLine
 62
253
  6
CONTINUOUS
 10
3.9494882222
 20
-7.3774087201
 11
-11.9579559537
 21
1.8073501799
  0
LWPOLYLINE
  5
269
100
AcDbEntity
  8
ASSI
100
AcDbPolyline
 62
253
  6
CONTINUOUS
 90
10
 70
0
 10
-11.957840105
 20
1.8074174536
 10
-12.7768507453
 20
2.284876742
 10
-13.5871974947
 20
2.7664587312
 10
-14.3888623947
 20
3.2521253019
 10
-15.1817991071
 20
3.7418208742
 10
-15.9660192584
 20
4.2355249392
 10
-16.7415895488
 20
4.7332536505
 10
-17.5085179525
 20
5.2349890194
 10
-18.2667566077
 20
5.7406773231
 10
-19.0162861379
 20
6.2502827503
  0
LWPOLYLINE
  5
26A
100
AcDbEntity
  8
ASSI
100
AcDbPolyline
 62
253
  6
CONTINUOUS
 90
10
 70
0
 10
-19.0162861379
 20
7.4716489461
 10
-18.2667508978
 20
6.9634223978
 10
-17.5085078531
 20
6.458952382
 10
-16.7415764264
 20
5.9582746232
 10
-15.9660045244
 20
5.4614431577
 10
-15.1817842194
 20
4.9684755059
 10
-14.3888488596
 20
4.4793542613
 10
-13.5871868642
 20
3.9940994719
 10
-12.776844615
 20
3.5127670519
 10
-11.9578401145
 20
3.0353950667
  0
LWPOLYLINE
  5
26B
100
AcDbEntity
  8
ASSI
100
AcDbPolyline
 62
7
  6
CONTINUOUS
 90
10
 70
0
 10
-18.9163045256
 20
7.2444170049
 10
-18.2048764597
 20
6.7617688224
 10
-17.4330561206
 20
6.2478280141
 10
-16.6529284405
 20
5.7382709604
 10
-15.8645753379
 20
5.2331501123
 10
-15.0680677038
 20
4.73250755
 10
-14.2634713699
 20
4.2363814866
 10
-13.4508585566
 20
3.7448134081
 10
-12.6303187715
 20
3.2578521815
 10
-11.8543060065
 20
2.8057624009
  0
LINE
  5
26C
100
AcDbEntity
  8
ASSI
100
AcDbLine
 62
7
  6
CONTINUOUS
 10
-18.9162973973
 20
7.2444121722
 11
-18.9162298072
 21
7.2443658788
  0
LWPOLYLINE
  5
26D
100
AcDbEntity
  8
ASSI
100
AcDbPolyline
 62
7
  6
CONTINUOUS
 90
6
 70
0
 10
-18.9162298072
 20
7.2443658788
 10
-18.9279987639
 20
7.252670788
 10
-18.9612045482
 20
7.2790508585
 10
-18.9920797651
 20
7.3081749828
 10
-19.0203926686
 20
7.3398359011
 10
-19.0459517792
 20
7.3738371299
  0
LWPOLYLINE
  5
26E
100
AcDbEntity
  8
ASSI
100
AcDbPolyline
 62
253
  6
CONTINUOUS
 90
9
 70
0
 10
-19.0162861531
 20
6.2502827697
 10
-19.0457632453
 20
6.2726182101
 10
-19.0713453836
 20
6.2965069969
 10
-19.0927906618
 20
6.3217232368
 10
-19.1098962901
 20
6.34802848
 10
-19.1225005203
 20
6.3751739864
 10
-19.1304841683
 20
6.4029030786
 10
-19.1337717348
 20
6.4309535617
 10
-19.1338620994
 20
6.4362371349
  0
LINE
  5
26F
100
AcDbEntity
  8
ASSI
100
AcDbLine
 62
7
  6
CONTINUOUS
 10
2.3572157774
 20
16.8226063979
 11
2.1769811291
 21
16.4084243886
  0
LWPOLYLINE
  5
270
100
AcDbEntity
  8
ASSI
100
AcDbPolyline
 62
253
  6
CONTINUOUS
 90
9
 70
0
 10
11.0797564506
 20
-10.3912635525
 10
10.2085835762
 20
-9.9558413797
 10
9.3441524855
 20
-9.5153565655
 10
8.4864307025
 20
-9.0698126547
 10
7.6354507032
 20
-8.6192061024
 10
6.7913099146
 20
-8.1635262745
 10
5.9540408126
 20
-7.7027696263
 10
5.1236109213
 20
-7.2369397023
 10
4.3000202409
 20
-6.7660365028
  0
LWPOLYLINE
  5
271
100
AcDbEntity
  8
ASSI
100
AcDbPolyline
 62
253
  6
CONTINUOUS
 90
10
 70
0
 10
3.9496040614
 20
-6.1493638334
 10
4.7764620554
 20
-6.6222921581
 10
5.6103190677
 20
-7.0902996161
 10
6.4511091026
 20
-7.5533758243
 10
7.298735586
 20
-8.0114942082
 10
8.1531633764
 20
-8.4646612623
 10
9.0144215182
 20
-8.9129148821
 10
9.8824792415
 20
-9.3562594494
 10
10.757243208
 20
-9.7946674987
 10
11.6386514494
 20
-10.2281278109
  0
LWPOLYLINE
  5
272
100
AcDbEntity
  8
ASSI
100
AcDbPolyline
 62
7
  6
CONTINUOUS
 90
10
 70
0
 10
4.0531513395
 20
-6.3790041033
 10
4.8313175728
 20
-6.8243275623
 10
5.6746486856
 20
-7.2981211771
 10
6.5260097104
 20
-7.7673724851
 10
7.3853146278
 20
-8.2320306532
 10
8.2524900957
 20
-8.6920547699
 10
9.1274683432
 20
-9.1474075787
 10
10.0101750245
 20
-9.5980489584
 10
10.900517935
 20
-10.0439324702
 10
11.7417957427
 20
-10.4574540118
  0
LINE
  5
273
100
AcDbEntity
  8
ASSI
100
AcDbLine
 62
253
  6
CONTINUOUS
 10
4.3000202409
 20
-6.7660365028
 11
-11.6074371934
 21
2.4187300525
  0
LINE
  5
274
100
AcDbEntity
  8
ASSI
100
AcDbLine
 62
7
  6
CONTINUOUS
 10
-11.8544219009
 20
2.8056967004
 11
4.0530355333
 21
-6.3790698549
  0
LINE
  5
275
100
AcDbEntity
  8
ASSI
100
AcDbLine
 62
253
  6
CONTINUOUS
 10
-11.9579559631
 20
3.0353285613
 11
3.9494882128
 21
-6.1494303388
  0
LWPOLYLINE
  5
276
100
AcDbEntity
  8
ASSI
100
AcDbPolyline
 62
253
  6
CONTINUOUS
 90
5
 70
0
 10
-11.6074371934
 20
2.4187300525
 10
-12.4230882848
 20
2.8943046617
 10
-13.2300863994
 20
3.3739053006
 10
-14.0284315371
 20
3.857531969
 10
-14.8181178469
 20
4.3452036357
  0
LWPOLYLINE
  5
277
100
AcDbEntity
  8
ASSI
100
AcDbPolyline
 62
253
  6
CONTINUOUS
 90
6
 70
0
 10
-14.8181178469
 20
4.3452036357
 10
-15.5991511799
 20
4.836901332
 10
-16.3715490888
 20
5.332568152
 10
-17.1353174248
 20
5.8321851269
 10
-17.8904503368
 20
6.3357712255
 10
-18.6369478248
 20
6.8433264478
  0
LWPOLYLINE
  5
278
100
AcDbEntity
  8
0
100
AcDbPolyline
 62
253
  6
CONTINUOUS
 90
16
 70
0
 10
-11.782699161
 20
12.6535075853
 10
-11.6630081019
 20
12.479485171
 10
-11.5443094719
 20
12.304555365
 10
-11.4265925344
 20
12.1287084375
 10
-11.3098465532
 20
11.9519346587
 10
-11.1940607917
 20
11.7742242988
 10
-11.0792299846
 20
11.595575451
 10
-10.9653707494
 20
11.4160174998
 10
-10.8525051751
 20
11.2355876531
 10
-10.7406553501
 20
11.0543231185
 10
-10.6298433633
 20
10.8722611036
 10
-10.520086618
 20
10.6894304041
 10
-10.4113837769
 20
10.5058261679
 10
-10.3037288176
 20
10.3214351308
 10
-10.1971157174
 20
10.1362440288
 10
-10.0915384539
 20
9.9502395977
  0
LWPOLYLINE
  5
279
100
AcDbEntity
  8
0
100
AcDbPolyline
 62
253
  6
CONTINUOUS
 90
16
 70
0
 10
-11.7680135566
 20
12.6685524422
 10
-11.6481648031
 20
12.4943019562
 10
-11.5293034657
 20
12.3191328729
 10
-11.4114188693
 20
12.1430353521
 10
-11.2945003388
 20
11.9659995536
 10
-11.1785371989
 20
11.7880156372
 10
-11.0635242565
 20
11.6090816033
 10
-10.9494782463
 20
11.4292268141
 10
-10.8364213852
 20
11.2484884724
 10
-10.7243758897
 20
11.0669037809
 10
-10.6133639768
 20
10.8845099424
 10
-10.5034031715
 20
10.7013357355
 10
-10.3944922333
 20
10.5173762416
 10
-10.2866252298
 20
10.3326181182
 10
-10.1797962291
 20
10.1470480226
 10
-10.0739992988
 20
9.9606526122
  0
LWPOLYLINE
  5
27A
100
AcDbEntity
  8
0
100
AcDbPolyline
 62
253
  6
CONTINUOUS
 90
88
 70
0
 10
-10.0915384539
 20
9.9502395977
 10
-10.0875494876
 20
9.943322636
 10
-10.0834637678
 20
9.936573362
 10
-10.0792727439
 20
9.9299692891
 10
-10.0749678652
 20
9.9234879305
 10
-10.070540581
 20
9.9171067996
 10
-10.0648244076
 20
9.9092461358
 10
-10.0589054601
 20
9.9015173923
 10
-10.0527855835
 20
9.8939310192
 10
-10.0464666227
 20
9.8864974664
 10
-10.0399538522
 20
9.8792302516
 10
-10.0332662643
 20
9.8721551628
 10
-10.0264262809
 20
9.865301056
 10
-10.0194563238
 20
9.8586967868
 10
-10.0138002018
 20
9.8536113916
 10
-10.0080768701
 20
9.8487116092
 10
-10.002287952
 20
9.8440046887
 10
-9.9964350709
 20
9.8394978791
 10
-9.9905198503
 20
9.8351984296
 10
-9.9845458886
 20
9.8311145673
 10
-9.9785246858
 20
9.8272584322
 10
-9.9724697167
 20
9.8236431425
 10
-9.9663944564
 20
9.8202818165
 10
-9.9603123798
 20
9.8171875722
 10
-9.9542370842
 20
9.8143712977
 10
-9.9481826554
 20
9.8118349606
 10
-9.9421633012
 20
9.809578298
 10
-9.9361932296
 20
9.8076010472
 10
-9.9302866486
 20
9.8059029456
 10
-9.9244554076
 20
9.8044832835
 10
-9.9187019223
 20
9.8033395631
 10
-9.9130262496
 20
9.8024688398
 10
-9.9074284467
 20
9.8018681689
 10
-9.9019085706
 20
9.8015346058
 10
-9.8964673766
 20
9.8014661449
 10
-9.8911084126
 20
9.8016645374
 10
-9.8858359247
 20
9.8021324738
 10
-9.880654159
 20
9.8028726445
 10
-9.8755673617
 20
9.8038877399
 10
-9.8705809592
 20
9.8051801854
 10
-9.8657050991
 20
9.8067513459
 10
-9.8609511097
 20
9.8086023215
 10
-9.8563303189
 20
9.8107342122
 10
-9.8518540548
 20
9.8131481179
 10
-9.8475326132
 20
9.8158434309
 10
-9.8433721606
 20
9.8188127126
 10
-9.839377831
 20
9.8220468166
 10
-9.8355547587
 20
9.8255365965
 10
-9.8319080779
 20
9.829272906
 10
-9.8284421819
 20
9.8332472462
 10
-9.8251585016
 20
9.8374537091
 10
-9.822057727
 20
9.841887034
 10
-9.819140548
 20
9.8465419604
 10
-9.8164076549
 20
9.8514132276
 10
-9.8138601024
 20
9.8564969031
 10
-9.811500405
 20
9.8617943656
 10
-9.809331442
 20
9.8673083219
 10
-9.8073560927
 20
9.8730414784
 10
-9.8055772363
 20
9.8789965421
 10
-9.8039986501
 20
9.8851742597
 10
-9.8026277018
 20
9.8915675392
 10
-9.8014726574
 20
9.8981673287
 10
-9.8005417825
 20
9.9049645764
 10
-9.7998433429
 20
9.9119502304
 10
-9.7994440006
 20
9.9179043587
 10
-9.7992116304
 20
9.9239499544
 10
-9.799146051
 20
9.9300539331
 10
-9.7992458057
 20
9.9361881627
 10
-9.7995043361
 20
9.94234432
 10
-9.7999138083
 20
9.9485190338
 10
-9.8004674679
 20
9.9547112767
 10
-9.8011628787
 20
9.9609293946
 10
-9.8019986841
 20
9.9671840773
 10
-9.8035114272
 20
9.9766443382
 10
-9.8053250049
 20
9.9861647665
 10
-9.8074264576
 20
9.9957003218
 10
-9.8097989888
 20
10.0052104209
 10
-9.8124270018
 20
10.014662139
 10
-9.8153035342
 20
10.0240487262
 10
-9.8184228924
 20
10.0333671932
 10
-9.8217758213
 20
10.0426034199
 10
-9.8253521754
 20
10.0517405028
 10
-9.8291418095
 20
10.0607615388
 10
-9.8323236552
 20
10.067888319
 10
-9.8356506808
 20
10.0749505415
 10
-9.8391380601
 20
10.0819687366
 10
-9.8428009667
 20
10.0889634348
 10
-9.8466545747
 20
10.0959551664
  0
LWPOLYLINE
  5
27B
100
AcDbEntity
  8
0
100
AcDbPolyline
 62
253
  6
CONTINUOUS
 90
88
 70
0
 10
-10.0739992988
 20
9.9606526122
 10
-10.0705717434
 20
9.9547039204
 10
-10.0670608135
 20
9.9488997222
 10
-10.0634591172
 20
9.9432205398
 10
-10.0597592629
 20
9.9376468953
 10
-10.0559538587
 20
9.9321593109
 10
-10.0510398925
 20
9.9253988726
 10
-10.0459498948
 20
9.9187505866
 10
-10.0406843055
 20
9.9122225707
 10
-10.0352435645
 20
9.9058229423
 10
-10.0296314808
 20
9.8995629753
 10
-10.0238653403
 20
9.8934665689
 10
-10.0179657981
 20
9.8875607783
 10
-10.0119535093
 20
9.8818726588
 10
-10.0070752297
 20
9.8774959821
 10
-10.0021416794
 20
9.8732832696
 10
-9.9971565262
 20
9.8692418607
 10
-9.9921234379
 20
9.8653790945
 10
-9.9870460824
 20
9.8617023103
 10
-9.9819290774
 20
9.858219102
 10
-9.9767808398
 20
9.8549380816
 10
-9.9716107363
 20
9.8518681158
 10
-9.9664281337
 20
9.8490180712
 10
-9.9612423988
 20
9.8463968143
 10
-9.9560631018
 20
9.8440117071
 10
-9.9509006273
 20
9.8418640917
 10
-9.9457655635
 20
9.8399538058
 10
-9.9406684984
 20
9.8382806868
 10
-9.9356200201
 20
9.8368445721
 10
-9.9306292221
 20
9.835645027
 10
-9.9256992196
 20
9.834680527
 10
-9.9208316331
 20
9.8339492755
 10
-9.916028083
 20
9.8334494758
 10
-9.9112901899
 20
9.8331793312
 10
-9.9066198889
 20
9.8331377201
 10
-9.9020203739
 20
9.8333262215
 10
-9.8974951534
 20
9.8337470896
 10
-9.893047736
 20
9.8344025785
 10
-9.88868163
 20
9.8352949423
 10
-9.8844014277
 20
9.8364262085
 10
-9.8802160558
 20
9.8377974983
 10
-9.8761355248
 20
9.8394097059
 10
-9.8721698451
 20
9.8412637258
 10
-9.8683290273
 20
9.8433604525
 10
-9.8646222184
 20
9.8456991525
 10
-9.8610551128
 20
9.8482725813
 10
-9.8576325416
 20
9.8510718664
 10
-9.8543593357
 20
9.8540881357
 10
-9.8512403264
 20
9.8573125166
 10
-9.8482795103
 20
9.8607369214
 10
-9.8454775475
 20
9.8643564011
 10
-9.8428342638
 20
9.8681667912
 10
-9.8403494849
 20
9.8721639273
 10
-9.8380230365
 20
9.876343645
 10
-9.8358551776
 20
9.8807029963
 10
-9.8338478993
 20
9.8852438998
 10
-9.8320036262
 20
9.8899694908
 10
-9.8303247827
 20
9.8948829044
 10
-9.8288137932
 20
9.8999872757
 10
-9.8274739032
 20
9.9052838273
 10
-9.8263116434
 20
9.9107661312
 10
-9.8253343653
 20
9.9164258469
 10
-9.8245494205
 20
9.9222546338
 10
-9.8239641609
 20
9.9282441512
 10
-9.823633504
 20
9.9333481752
 10
-9.8234461875
 20
9.9385291773
 10
-9.8234017764
 20
9.9437583094
 10
-9.8234987344
 20
9.9490108619
 10
-9.8237311199
 20
9.9542786804
 10
-9.8240918901
 20
9.9595577492
 10
-9.8245749446
 20
9.9648463338
 10
-9.8251779535
 20
9.9701518248
 10
-9.8258995293
 20
9.9754838943
 10
-9.8272002958
 20
9.9835416843
 10
-9.8287547831
 20
9.9916458442
 10
-9.830552476
 20
9.9997623221
 10
-9.8325805302
 20
10.0078616322
 10
-9.8348272158
 20
10.0159200698
 10
-9.83728759
 20
10.0239324906
 10
-9.8399575161
 20
10.0318958628
 10
-9.8428292948
 20
10.0397970438
 10
-9.8458943365
 20
10.0476203632
 10
-9.8491440514
 20
10.0553501508
 10
-9.8518739283
 20
10.0614603348
 10
-9.8547295759
 20
10.067517969
 10
-9.8577240715
 20
10.0735403933
 10
-9.8608704923
 20
10.0795449472
 10
-9.8641819157
 20
10.0855489704
  0
LWPOLYLINE
  5
27C
100
AcDbEntity
  8
0
100
AcDbPolyline
 62
253
  6
CONTINUOUS
 90
16
 70
0
 10
-9.8641819157
 20
10.0855489704
 10
-9.9743953634
 20
10.2799359123
 10
-10.0857274581
 20
10.4734710141
 10
-10.1981850335
 20
10.6661686183
 10
-10.3117749232
 20
10.8580430674
 10
-10.4265039609
 20
11.0491087039
 10
-10.5423738693
 20
11.2393706745
 10
-10.6593659273
 20
11.4287973431
 10
-10.777456303
 20
11.6173478779
 10
-10.8966211643
 20
11.804981447
 10
-11.0168366793
 20
11.9916572187
 10
-11.1380849982
 20
12.1773428725
 10
-11.2603722011
 20
12.3620401343
 10
-11.3837103499
 20
12.5457592413
 10
-11.5081115068
 20
12.7285104308
 10
-11.6335877341
 20
12.9103039401
  0
LWPOLYLINE
  5
27D
100
AcDbEntity
  8
0
100
AcDbPolyline
 62
253
  6
CONTINUOUS
 90
16
 70
0
 10
-9.8466545747
 20
10.0959551664
 10
-9.9570470435
 20
10.2906736667
 10
-10.06856017
 20
10.4845385263
 10
-10.1812008002
 20
10.6775641161
 10
-10.2949757798
 20
10.869764807
 10
-10.4098919547
 20
11.0611549698
 10
-10.5259510504
 20
11.2517397617
 10
-10.6431343109
 20
11.441487485
 10
-10.7614178601
 20
11.6303572284
 10
-10.8807778216
 20
11.8183080805
 10
-11.0011903192
 20
12.0052991298
 10
-11.1226374705
 20
12.1912979931
 10
-11.2451253687
 20
12.3763063989
 10
-11.3686661008
 20
12.5603346036
 10
-11.4932717538
 20
12.7433928639
 10
-11.6189544147
 20
12.9254914362
  0
LINE
  5
27E
100
AcDbEntity
  8
ASSI
100
AcDbLine
 62
253
  6
CONTINUOUS
 10
12.750701307
 20
7.7965366925
 11
15.3050037998
 21
9.3467158677
  0
LWPOLYLINE
  5
27F
100
AcDbEntity
  8
0
100
AcDbPolyline
 62
253
  6
CONTINUOUS
 90
35
 70
0
 10
-11.6335877341
 20
12.9103039401
 10
-11.6387560829
 20
12.9176169093
 10
-11.6439943223
 20
12.9248253164
 10
-11.649302036
 20
12.9319315104
 10
-11.6546788078
 20
12.9389378404
 10
-11.6601242215
 20
12.9458466555
 10
-11.6656378607
 20
12.9526603048
 10
-11.6712188846
 20
12.9593803078
 10
-11.6768647524
 20
12.9660048668
 10
-11.682572499
 20
12.9725313542
 10
-11.688339159
 20
12.9789571429
 10
-11.694161767
 20
12.9852796053
 10
-11.7000373577
 20
12.9914961143
 10
-11.7059630563
 20
12.9976040838
 10
-11.7119363498
 20
13.003601094
 10
-11.7179548156
 20
13.0094847664
 10
-11.7240160314
 20
13.0152527223
 10
-11.7301175745
 20
13.0209025834
 10
-11.7362570225
 20
13.0264319712
 10
-11.742432591
 20
13.0318387579
 10
-11.7486450471
 20
13.0371218198
 10
-11.7548957964
 20
13.0422802837
 10
-11.7611835553
 20
13.0473116269
 10
-11.7674962852
 20
13.0522067274
 10
-11.7738192586
 20
13.0569548136
 10
-11.7785635031
 20
13.0604153152
 10
-11.7833239216
 20
13.063796887
 10
-11.7881192104
 20
13.0671093536
 10
-11.7929680657
 20
13.0703625398
 10
-11.7962350894
 20
13.0725005849
 10
-11.7995125401
 20
13.0746035777
 10
-11.8027787279
 20
13.076658446
 10
-11.8060119628
 20
13.0786521177
 10
-11.8091905551
 20
13.0805715209
 10
-11.812292815
 20
13.0824035834
  0
LWPOLYLINE
  5
280
100
AcDbEntity
  8
0
100
AcDbPolyline
 62
253
  6
CONTINUOUS
 90
31
 70
0
 10
-11.6189544147
 20
12.9254914362
 10
-11.6244406721
 20
12.933265545
 10
-11.6299923189
 20
12.9409242433
 10
-11.6356133076
 20
12.9484751609
 10
-11.6413075908
 20
12.955925928
 10
-11.6470791211
 20
12.9632841745
 10
-11.6529316174
 20
12.9705564879
 10
-11.6588678642
 20
12.9777452867
 10
-11.6648904119
 20
12.9848519466
 10
-11.6710018113
 20
12.9918778437
 10
-11.6772046129
 20
12.9988243538
 10
-11.6834993843
 20
13.0056907434
 10
-11.6898787607
 20
13.0124678416
 10
-11.696333394
 20
13.0191443679
 10
-11.7028539362
 20
13.025709042
 10
-11.7094310393
 20
13.0321505834
 10
-11.7160551477
 20
13.0384582588
 10
-11.7227158743
 20
13.0446235235
 10
-11.7294026246
 20
13.0506383796
 10
-11.7361048039
 20
13.0564948294
 10
-11.7428118174
 20
13.0621848752
 10
-11.7495151966
 20
13.0677023819
 10
-11.756214977
 20
13.0730486651
 10
-11.7629133199
 20
13.0782269031
 10
-11.7696123869
 20
13.0832402742
 10
-11.7763143394
 20
13.0880919567
 10
-11.783021927
 20
13.0927849286
 10
-11.7897402508
 20
13.0973213665
 10
-11.7964750005
 20
13.1017032467
 10
-11.8032318652
 20
13.1059325455
 10
-11.8100165344
 20
13.1100112392
  0
LWPOLYLINE
  5
281
100
AcDbEntity
  8
ASSI
100
AcDbPolyline
 62
253
  6
CONTINUOUS
 90
10
 70
0
 10
4.3354403739
 20
-23.5818350542
 10
4.3418523506
 20
-23.65757557
 10
4.3538412925
 20
-23.7292303036
 10
4.3713277194
 20
-23.7963240454
 10
4.3941957066
 20
-23.8584118621
 10
4.4222936173
 20
-23.9150819423
 10
4.4554350782
 20
-23.965958359
 10
4.4934002805
 20
-24.0107036929
 10
4.5359374653
 20
-24.0490212372
 10
4.5827838166
 20
-24.0806680161
  0
LINE
  5
282
100
AcDbEntity
  8
ASSI
100
AcDbLine
 62
253
  6
CONTINUOUS
 10
2.1769811291
 20
16.4084243886
 11
2.1769811465
 21
16.3464511248
  0
LINE
  5
283
100
AcDbEntity
  8
ASSI
100
AcDbLine
 62
253
  6
CONTINUOUS
 10
13.1133821496
 20
7.1901337114
 11
15.6897908873
 21
8.7537289329
  0
LWPOLYLINE
  5
284
100
AcDbEntity
  8
0
100
AcDbPolyline
 62
253
  6
CONTINUOUS
 90
88
 70
0
 10
-9.8415057888
 20
-7.4595746108
 10
-9.8376629818
 20
-7.4572684097
 10
-9.8340090226
 20
-7.4547470743
 10
-9.8305292612
 20
-7.4520092402
 10
-9.8272090477
 20
-7.4490535431
 10
-9.8240337323
 20
-7.4458786186
 10
-9.8202521197
 20
-7.4415996264
 10
-9.8166819284
 20
-7.4369734778
 10
-9.813331067
 20
-7.4319976911
 10
-9.810207444
 20
-7.4266697846
 10
-9.807319852
 20
-7.4209906289
 10
-9.8046806195
 20
-7.414974504
 10
-9.8023029587
 20
-7.4086390423
 10
-9.8002000821
 20
-7.4020018762
 10
-9.7987242615
 20
-7.3964850614
 10
-9.7974380675
 20
-7.3907852453
 10
-9.7963468088
 20
-7.3849012331
 10
-9.7954557942
 20
-7.3788318294
 10
-9.7947703324
 20
-7.3725758394
 10
-9.7942955844
 20
-7.3661343661
 10
-9.7940361194
 20
-7.3595177061
 10
-9.7939963588
 20
-7.352738454
 10
-9.794180724
 20
-7.3458092047
 10
-9.7945936364
 20
-7.3387425528
 10
-9.7952375765
 20
-7.3315523192
 10
-9.7961072607
 20
-7.3242572295
 10
-9.7971954646
 20
-7.3168772352
 10
-9.7984949636
 20
-7.309432288
 10
-9.7999985333
 20
-7.3019423395
 10
-9.8016997346
 20
-7.2944242845
 10
-9.8035952698
 20
-7.2868827911
 10
-9.8056826267
 20
-7.2793194705
 10
-9.8079592929
 20
-7.2717359338
 10
-9.8104227562
 20
-7.2641337923
 10
-9.8130709398
 20
-7.2565151851
 10
-9.8159035081
 20
-7.248884362
 10
-9.8189205613
 20
-7.2412461011
 10
-9.8221221994
 20
-7.23360518
 10
-9.8255085222
 20
-7.2259663766
 10
-9.8290788343
 20
-7.218336225
 10
-9.8328292576
 20
-7.210728284
 10
-9.8367551184
 20
-7.2031578689
 10
-9.840851743
 20
-7.1956402946
 10
-9.8451144579
 20
-7.1881908765
 10
-9.8495376602
 20
-7.1808243137
 10
-9.8541120307
 20
-7.1735528418
 10
-9.8588273211
 20
-7.1663880804
 10
-9.8636732832
 20
-7.159341649
 10
-9.8686396685
 20
-7.1524251673
 10
-9.8737171351
 20
-7.1456489127
 10
-9.8788999661
 20
-7.1390177945
 10
-9.884183351
 20
-7.1325353797
 10
-9.8895624793
 20
-7.1262052351
 10
-9.8950325403
 20
-7.120030928
 10
-9.9005896706
 20
-7.1140158979
 10
-9.9062337952
 20
-7.1081630755
 10
-9.9119657863
 20
-7.102475264
 10
-9.9177865159
 20
-7.0969552667
 10
-9.9236968564
 20
-7.0916058867
 10
-9.9296955717
 20
-7.0864321372
 10
-9.9357729949
 20
-7.08144787
 10
-9.9419173506
 20
-7.0766691468
 10
-9.9481168639
 20
-7.0721120292
 10
-9.9543597595
 20
-7.067792579
 10
-9.9595833102
 20
-7.0643872372
 10
-9.9648009571
 20
-7.0611737565
 10
-9.9699848467
 20
-7.0581677976
 10
-9.9751119522
 20
-7.0553808265
 10
-9.9801785528
 20
-7.0528075324
 10
-9.9851857545
 20
-7.0504384101
 10
-9.9901360987
 20
-7.0482643596
 10
-9.9950378698
 20
-7.0462779019
 10
-9.9999007879
 20
-7.0444719629
 10
-10.0071326006
 20
-7.0420908541
 10
-10.0142658028
 20
-7.0401049289
 10
-10.0212687374
 20
-7.0385172259
 10
-10.0281153654
 20
-7.0373232066
 10
-10.034785546
 20
-7.0365163426
 10
-10.0412771131
 20
-7.0360897237
 10
-10.0475904925
 20
-7.0360364248
 10
-10.0537185034
 20
-7.0363498431
 10
-10.0596520632
 20
-7.0370234566
 10
-10.0653820893
 20
-7.038050743
 10
-10.0698158982
 20
-7.039125291
 10
-10.0741235966
 20
-7.0404334193
 10
-10.0783151485
 20
-7.0419865315
 10
-10.0824005177
 20
-7.0437960313
 10
-10.0863896681
 20
-7.0458733225
  0
LWPOLYLINE
  5
285
100
AcDbEntity
  8
0
100
AcDbPolyline
 62
253
  6
CONTINUOUS
 90
88
 70
0
 10
-9.8590313196
 20
-7.4300029313
 10
-9.8557237876
 20
-7.4280244331
 10
-9.8525794752
 20
-7.4258598407
 10
-9.8495857091
 20
-7.4235081286
 10
-9.8467298163
 20
-7.4209682712
 10
-9.8439991233
 20
-7.418239243
 10
-9.8407477185
 20
-7.4145601836
 10
-9.8376786196
 20
-7.4105807971
 10
-9.8347983099
 20
-7.4062979379
 10
-9.8321132722
 20
-7.4017084608
 10
-9.8296309729
 20
-7.3968124255
 10
-9.8273628114
 20
-7.3916227134
 10
-9.8253211703
 20
-7.3861554112
 10
-9.823518432
 20
-7.3804266057
 10
-9.8222562248
 20
-7.3756650152
 10
-9.8211590933
 20
-7.3707481513
 10
-9.8202312906
 20
-7.365677807
 10
-9.8194770698
 20
-7.3604557757
 10
-9.8189006839
 20
-7.3550838504
 10
-9.8185061503
 20
-7.3495649841
 10
-9.818296544
 20
-7.3439067687
 10
-9.8182747044
 20
-7.3381179556
 10
-9.8184434709
 20
-7.3322072964
 10
-9.8188056829
 20
-7.3261835426
 10
-9.8193628296
 20
-7.3200564408
 10
-9.8201109999
 20
-7.3138397171
 10
-9.8210449326
 20
-7.3075480929
 10
-9.8221593666
 20
-7.3011962894
 10
-9.8234490406
 20
-7.2947990276
 10
-9.8249091921
 20
-7.2883691066
 10
-9.826537054
 20
-7.2819116355
 10
-9.8283303577
 20
-7.2754298011
 10
-9.8302868346
 20
-7.2689267902
 10
-9.8324042162
 20
-7.2624057897
 10
-9.8346806372
 20
-7.2558701007
 10
-9.8371158455
 20
-7.2493234819
 10
-9.8397099918
 20
-7.2427698063
 10
-9.8424632273
 20
-7.236212947
 10
-9.8453757028
 20
-7.229656777
 10
-9.8484468637
 20
-7.2231067673
 10
-9.8516733318
 20
-7.2165747807
 10
-9.8550510234
 20
-7.2100742781
 10
-9.8585758547
 20
-7.2036187202
 10
-9.8622437421
 20
-7.1972215678
 10
-9.8660496524
 20
-7.1908958667
 10
-9.8699847562
 20
-7.184653003
 10
-9.8740392747
 20
-7.1785039479
 10
-9.8782034291
 20
-7.1724596725
 10
-9.8824674408
 20
-7.166531148
 10
-9.8868225771
 20
-7.160727827
 10
-9.8912642899
 20
-7.1550530877
 10
-9.8957890774
 20
-7.1495087902
 10
-9.9003934377
 20
-7.1440967943
 10
-9.9050738688
 20
-7.1388189597
 10
-9.9098277247
 20
-7.1336771446
 10
-9.9146557829
 20
-7.1286731996
 10
-9.9195596768
 20
-7.1238089736
 10
-9.9245410396
 20
-7.1190863156
 10
-9.9296015049
 20
-7.1145070743
 10
-9.9347406171
 20
-7.110075232
 10
-9.9399495662
 20
-7.105803303
 10
-9.9452174533
 20
-7.1017059352
 10
-9.9505333794
 20
-7.0977977762
 10
-9.9558864458
 20
-7.0940934738
 10
-9.9603648455
 20
-7.091173733
 10
-9.9648371791
 20
-7.0884195273
 10
-9.9692791574
 20
-7.0858446529
 10
-9.9736705893
 20
-7.0834592614
 10
-9.978007676
 20
-7.0812589275
 10
-9.9822907167
 20
-7.0792355813
 10
-9.9865214455
 20
-7.077381384
 10
-9.9907073351
 20
-7.0756894197
 10
-9.994857293
 20
-7.0741530034
 10
-10.0010250634
 20
-7.0721296511
 10
-10.0071064129
 20
-7.0704441354
 10
-10.0130769775
 20
-7.0690979041
 10
-10.0189174026
 20
-7.0680866151
 10
-10.024612849
 20
-7.0674046027
 10
-10.0301615268
 20
-7.067046694
 10
-10.0355632266
 20
-7.0670078177
 10
-10.0408110104
 20
-7.0672828141
 10
-10.0458962583
 20
-7.067866502
 10
-10.0508103502
 20
-7.0687536998
 10
-10.0546147407
 20
-7.0696806063
 10
-10.0583125135
 20
-7.0708084081
 10
-10.0619121072
 20
-7.0721470701
 10
-10.0654219607
 20
-7.0737065575
 10
-10.0688505129
 20
-7.0754968351
  0
LWPOLYLINE
  5
286
100
AcDbEntity
  8
0
100
AcDbPolyline
 62
253
  6
CONTINUOUS
 90
16
 70
0
 10
-10.0863896681
 20
-7.0458733225
 10
-10.1918951474
 20
-7.1035378926
 10
-10.2984456691
 20
-7.1591846617
 10
-10.4060475113
 20
-7.2128219375
 10
-10.5147069519
 20
-7.2644580276
 10
-10.6244302691
 20
-7.3141012397
 10
-10.7352190498
 20
-7.361757176
 10
-10.8470561169
 20
-7.4074206178
 10
-10.9599196022
 20
-7.4510836407
 10
-11.0737876375
 20
-7.4927383205
 10
-11.1886383547
 20
-7.532376733
 10
-11.3044553543
 20
-7.5699921823
 10
-11.4212441118
 20
-7.605582887
 10
-11.5390155716
 20
-7.6391482937
 10
-11.657780678
 20
-7.6706878494
 10
-11.7775503752
 20
-7.7002010009
  0
LWPOLYLINE
  5
287
100
AcDbEntity
  8
0
100
AcDbPolyline
 62
253
  6
CONTINUOUS
 90
16
 70
0
 10
-10.0688505129
 20
-7.0754968351
 10
-10.1745552741
 20
-7.1332592366
 10
-10.2813070563
 20
-7.1889997001
 10
-10.3891121502
 20
-7.2427265543
 10
-10.4979768462
 20
-7.294448128
 10
-10.607907435
 20
-7.3441727498
 10
-10.7189055071
 20
-7.3919060381
 10
-10.8309538524
 20
-7.4376427702
 10
-10.9440305611
 20
-7.481375013
 10
-11.0581137231
 20
-7.5230948334
 10
-11.1731814284
 20
-7.5627942984
 10
-11.2892172467
 20
-7.6004667048
 10
-11.4062266661
 20
-7.6361102701
 10
-11.5242206544
 20
-7.6697244417
 10
-11.6432101797
 20
-7.701308667
 10
-11.7632062095
 20
-7.7308623936
  0
LINE
  5
288
100
AcDbEntity
  8
ASSI
100
AcDbLine
 62
7
  6
CONTINUOUS
 10
15.8828658173
 20
-8.6323861248
 11
15.733033132
 21
-8.5458746101
  0
LWPOLYLINE
  5
289
100
AcDbEntity
  8
ASSI
100
AcDbPolyline
 62
253
  6
CONTINUOUS
 90
9
 70
0
 10
3.9494948467
 20
-6.1494341691
 10
3.9513465562
 20
-6.1908657042
 10
3.9570197591
 20
-6.2296368194
 10
3.966452687
 20
-6.2653263325
 10
3.9795427687
 20
-6.2975466586
 10
3.9961476352
 20
-6.325947721
 10
4.0160865656
 20
-6.3502208706
 10
4.0391427233
 20
-6.3701026345
 10
4.0530355333
 20
-6.3790698549
  0
LWPOLYLINE
  5
28A
100
AcDbEntity
  8
ASSI
100
AcDbPolyline
 62
253
  6
CONTINUOUS
 90
3
 70
0
 10
4.1271593085
 20
-18.2297988303
 10
4.2213519701
 20
-20.9121506497
 10
4.3354340675
 20
-23.581831413
  0
LINE
  5
28B
100
AcDbEntity
  8
ASSI
100
AcDbLine
 62
7
  6
CONTINUOUS
 10
2.3572157774
 20
16.8226063979
 11
2.3784193914
 21
16.2061826024
  0
LINE
  5
28C
100
AcDbEntity
  8
ASSI
100
AcDbLine
 62
253
  6
CONTINUOUS
 10
4.0528673894
 20
-15.5349616301
 11
4.1271593085
 21
-18.2297988303
  0
LWPOLYLINE
  5
28D
100
AcDbEntity
  8
ASSI
100
AcDbPolyline
 62
253
  6
CONTINUOUS
 90
4
 70
0
 10
3.9494882222
 20
-7.3774087201
 10
3.9640240293
 20
-10.1085785415
 10
3.9984861244
 20
-12.8278256773
 10
4.0528673894
 20
-15.5349616301
  0
LWPOLYLINE
  5
28E
100
AcDbEntity
  8
ASSI
100
AcDbPolyline
 62
253
  6
CONTINUOUS
 90
5
 70
0
 10
3.9494882128
 20
-6.1494303388
 10
3.9640242616
 20
-3.4017636294
 10
3.9984863599
 20
-0.6430777519
 10
4.0528673895
 20
2.1264305762
 10
4.1271588347
 20
4.9065639518
  0
LWPOLYLINE
  5
28F
100
AcDbEntity
  8
ASSI
100
AcDbPolyline
 62
253
  6
CONTINUOUS
 90
3
 70
0
 10
4.1271588347
 20
4.9065639518
 10
4.2213507836
 20
7.6971243007
 10
4.3354319298
 20
10.4979128912
  0
LWPOLYLINE
  5
290
100
AcDbEntity
  8
ASSI
100
AcDbPolyline
 62
253
  6
CONTINUOUS
 90
16
 70
0
 10
3.9494948467
 20
-7.377412545
 10
3.951346082
 20
-7.3338483042
 10
3.9570179385
 20
-7.2885313916
 10
3.9664488014
 20
-7.2419540961
 10
3.9795362207
 20
-7.1946223984
 10
3.9961380245
 20
-7.1470504746
 10
4.0160738632
 20
-7.0997551105
 10
4.0391271686
 20
-7.0532500873
 10
4.065047507
 20
-7.0080406006
 10
4.0935532991
 20
-6.9646177721
 10
4.1243348794
 20
-6.9234533148
 10
4.1570578599
 20
-6.8849944083
 10
4.191366763
 20
-6.8496588408
 10
4.2268888825
 20
-6.8178304714
 10
4.2632383328
 20
-6.7898550593
 10
4.3000202409
 20
-6.7660365083
  0
LWPOLYLINE
  5
291
100
AcDbEntity
  8
ASSI
100
AcDbPolyline
 62
253
  6
CONTINUOUS
 90
19
 70
0
 10
4.3354403739
 20
10.4979080156
 10
4.3418523948
 20
10.581053326
 10
4.3538414109
 20
10.6665528782
 10
4.3713279149
 20
10.753839665
 10
4.3941959414
 20
10.8423348268
 10
4.4222938367
 20
10.9314514905
 10
4.4554352639
 20
11.0205986612
 10
4.4934004393
 20
11.1091851419
 10
4.5359375891
 20
11.1966234538
 10
4.5827646198
 20
11.2823337324
 10
4.6335709889
 20
11.3657475731
 10
4.6880197636
 20
11.4463118005
 10
4.7457498564
 20
11.523492137
 10
4.8063784185
 20
11.5967767459
 10
4.8695033798
 20
11.6656796259
 10
4.9347061145
 20
11.7297438338
 10
5.0015542178
 20
11.7885445152
 10
5.0696043734
 20
11.8416917217
 10
5.138405293
 20
11.8888329972
  0
LINE
  5
292
100
AcDbEntity
  8
ASSI
100
AcDbLine
 62
7
  6
CONTINUOUS
 10
10.2768117267
 20
12.2499309527
 11
10.0965770784
 21
11.8357489433
  0
LWPOLYLINE
  5
293
100
AcDbEntity
  8
0
100
AcDbPolyline
 62
253
  6
CONTINUOUS
 90
31
 70
0
 10
-11.8205956105
 20
12.7202755455
 10
-11.8187084243
 20
12.7190949803
 10
-11.8168299526
 20
12.7178766257
 10
-11.8149598435
 20
12.7166200886
 10
-11.8130977449
 20
12.715324976
 10
-11.811243305
 20
12.7139908951
 10
-11.8093961718
 20
12.7126174527
 10
-11.8075559935
 20
12.711204256
 10
-11.8057224182
 20
12.709750912
 10
-11.8038950939
 20
12.7082570276
 10
-11.8020736687
 20
12.70672221
 10
-11.8002580259
 20
12.7051463161
 10
-11.7984489894
 20
12.7035302033
 10
-11.7966476183
 20
12.7018749789
 10
-11.7948549717
 20
12.7001817503
 10
-11.7930721086
 20
12.6984516246
 10
-11.7913000881
 20
12.6966857094
 10
-11.7895399694
 20
12.6948851119
 10
-11.7877928114
 20
12.6930509394
 10
-11.7860596733
 20
12.6911842993
 10
-11.7843416142
 20
12.6892862988
 10
-11.7826394834
 20
12.6873577728
 10
-11.7809532908
 20
12.6853984653
 10
-11.7792828367
 20
12.6834078476
 10
-11.7776279214
 20
12.6813853913
 10
-11.7759883451
 20
12.6793305678
 10
-11.774363908
 20
12.6772428485
 10
-11.7727544104
 20
12.6751217048
 10
-11.7711596524
 20
12.6729666083
 10
-11.7695794344
 20
12.6707770302
 10
-11.7680135566
 20
12.6685524422
  0
LWPOLYLINE
  5
294
100
AcDbEntity
  8
0
100
AcDbPolyline
 62
253
  6
CONTINUOUS
 90
31
 70
0
 10
-11.8213655402
 20
12.6918392166
 10
-11.8199869044
 20
12.6909539421
 10
-11.8186150268
 20
12.6900413645
 10
-11.817248836
 20
12.6891009459
 10
-11.8158872605
 20
12.6881321486
 10
-11.8145292289
 20
12.6871344347
 10
-11.8131738615
 20
12.6861073281
 10
-11.8118210461
 20
12.685050598
 10
-11.8104708621
 20
12.6839640751
 10
-11.809123389
 20
12.6828475901
 10
-11.8077787065
 20
12.6817009738
 10
-11.8064370552
 20
12.6805242137
 10
-11.8050993212
 20
12.6793179245
 10
-11.8037665517
 20
12.6780828778
 10
-11.8024397938
 20
12.6768198451
 10
-11.8011200948
 20
12.6755295979
 10
-11.7998085187
 20
12.6742130315
 10
-11.798506197
 20
12.6728715361
 10
-11.797214278
 20
12.6715066258
 10
-11.79593391
 20
12.6701198144
 10
-11.7946662413
 20
12.6687126161
 10
-11.7934121787
 20
12.6672862
 10
-11.7921716632
 20
12.6658403558
 10
-11.7909443941
 20
12.6643745285
 10
-11.7897300708
 20
12.662888163
 10
-11.7885283928
 20
12.6613807043
 10
-11.7873390595
 20
12.6598515973
 10
-11.7861617702
 20
12.6583002869
 10
-11.7849962245
 20
12.6567262182
 10
-11.7838421216
 20
12.655128836
 10
-11.782699161
 20
12.6535075853
  0
LWPOLYLINE
  5
295
100
AcDbEntity
  8
0
100
AcDbPolyline
 62
253
  6
CONTINUOUS
 90
36
 70
0
 10
-11.8124408378
 20
13.0825495695
 10
-11.8161124154
 20
13.0846650546
 10
-11.8196686794
 20
13.0866631765
 10
-11.823136838
 20
13.0885607668
 10
-11.8265440992
 20
13.0903746569
 10
-11.8299176712
 20
13.0921216782
 10
-11.8332847619
 20
13.0938186621
 10
-11.8383627816
 20
13.0962955102
 10
-11.8434593729
 20
13.0986846928
 10
-11.8485464721
 20
13.1009732576
 10
-11.8535960151
 20
13.1031482526
 10
-11.8585863072
 20
13.1052001331
 10
-11.8635211295
 20
13.1071329844
 10
-11.8684106319
 20
13.1089542993
 10
-11.8732649646
 20
13.1106715703
 10
-11.879696124
 20
13.1128096358
 10
-11.8860821489
 20
13.114777412
 10
-11.8924223846
 20
13.116576256
 10
-11.8987161338
 20
13.1182074792
 10
-11.9049625316
 20
13.1196722116
 10
-11.9111606707
 20
13.1209715373
 10
-11.917309644
 20
13.1221065408
 10
-11.9234085441
 20
13.1230783063
 10
-11.9294564639
 20
13.1238879181
 10
-11.935452463
 20
13.1245361842
 10
-11.9413954686
 20
13.1250228076
 10
-11.9472843745
 20
13.1253472147
 10
-11.9531180745
 20
13.1255088322
 10
-11.9588954627
 20
13.1255070866
 10
-11.9646154328
 20
13.1253414044
 10
-11.9702769222
 20
13.1250108563
 10
-11.9758790414
 20
13.1245130888
 10
-11.9814209442
 20
13.1238453925
 10
-11.9869017846
 20
13.123005058
 10
-11.9923207164
 20
13.121989376
 10
-11.9976768935
 20
13.120795637
  0
LWPOLYLINE
  5
296
100
AcDbEntity
  8
0
100
AcDbPolyline
 62
253
  6
CONTINUOUS
 90
31
 70
0
 10
-11.8099652909
 20
13.110040808
 10
-11.8169570566
 20
13.1140682087
 10
-11.8239296723
 20
13.1179067967
 10
-11.8308892589
 20
13.1215617214
 10
-11.8378419372
 20
13.125038132
 10
-11.8447938279
 20
13.1283411781
 10
-11.8517503901
 20
13.1314750461
 10
-11.8587144364
 20
13.1344400714
 10
-11.8656881175
 20
13.1372356265
 10
-11.8726735842
 20
13.139861084
 10
-11.8796729873
 20
13.1423158164
 10
-11.8866862741
 20
13.1445985383
 10
-11.893704578
 20
13.146705333
 10
-11.900716829
 20
13.1486316257
 10
-11.9077119567
 20
13.1503728418
 10
-11.9146788913
 20
13.1519244065
 10
-11.9216067375
 20
13.15328254
 10
-11.9284853009
 20
13.1544466414
 10
-11.935304562
 20
13.1554169047
 10
-11.9420545013
 20
13.1561935239
 10
-11.9487250992
 20
13.1567766928
 10
-11.9553084046
 20
13.1571668419
 10
-11.9618047393
 20
13.1573653466
 10
-11.9682164935
 20
13.157373819
 10
-11.9745460572
 20
13.157193871
 10
-11.9807958205
 20
13.1568271144
 10
-11.9869685539
 20
13.1562743423
 10
-11.9930685486
 20
13.1555330714
 10
-11.9991004762
 20
13.1545999996
 10
-12.0050690083
 20
13.153471825
 10
-12.0109788164
 20
13.1521452452
  0
LINE
  5
297
100
AcDbEntity
  8
ASSI
100
AcDbLine
 62
7
  6
CONTINUOUS
 10
13.3964560137
 20
10.4486874397
 11
12.7238111487
 21
10.318816918
  0
LWPOLYLINE
  5
298
100
AcDbEntity
  8
ASSI
100
AcDbPolyline
 62
253
  6
CONTINUOUS
 90
9
 70
0
 10
-18.7010372524
 20
24.0907622147
 10
-18.7315823233
 20
24.112810594
 10
-18.7581844674
 20
24.1363159312
 10
-18.780585752
 20
24.1610503198
 10
-18.7985689754
 20
24.1867739366
 10
-18.8119597735
 20
24.213237367
 10
-18.8206283097
 20
24.2401840229
 10
-18.8244905345
 20
24.2673526312
 10
-18.8246169754
 20
24.2806181473
  0
LWPOLYLINE
  5
299
100
AcDbEntity
  8
ASSI
100
AcDbPolyline
 62
253
  6
CONTINUOUS
 90
16
 70
0
 10
12.3049336977
 20
-11.437472299
 10
12.3027657676
 20
-11.39436383
 10
12.2969130494
 20
-11.3493224323
 10
12.287401854
 20
-11.3028176709
 10
12.2742829087
 20
-11.2552904784
 10
12.2576733269
 20
-11.2073061271
 10
12.2377933441
 20
-11.1595492575
 10
12.2148905033
 20
-11.1126007846
 10
12.1891946453
 20
-11.0669199441
 10
12.1609806339
 20
-11.0229981288
 10
12.130551316
 20
-10.9813128892
 10
12.0982445518
 20
-10.9423327184
 10
12.064423952
 20
-10.9064983753
 10
12.0294650589
 20
-10.874207155
 10
11.9937497259
 20
-10.8458111843
 10
11.9576711137
 20
-10.821623081
  0
LWPOLYLINE
  5
29A
100
AcDbEntity
  8
ASSI
100
AcDbPolyline
 62
253
  6
CONTINUOUS
 90
9
 70
0
 10
11.6386514907
 20
-10.2281278152
 10
11.6407646506
 20
-10.2703550387
 10
11.6458510312
 20
-10.3085667814
 10
11.6540356383
 20
-10.3431088437
 10
11.665850806
 20
-10.3744607422
 10
11.6811831138
 20
-10.4022772989
 10
11.6991740763
 20
-10.4255749589
 10
11.7199804192
 20
-10.4442505242
 10
11.7418446885
 20
-10.4574778039
  0
LWPOLYLINE
  5
29B
100
AcDbEntity
  8
ASSI
100
AcDbPolyline
 62
253
  6
CONTINUOUS
 90
5
 70
0
 10
12.6304859888
 20
-27.6771989095
 10
12.5784852005
 20
-26.2786635917
 10
12.5313711681
 20
-24.9004950122
 10
12.4891438914
 20
-23.5426931711
 10
12.4520949775
 20
-22.2126323405
  0
LWPOLYLINE
  5
29C
100
AcDbEntity
  8
ASSI
100
AcDbPolyline
 62
253
  6
CONTINUOUS
 90
13
 70
0
 10
11.9575537541
 20
-27.702456318
 10
11.9062614708
 20
-26.3033026446
 10
11.8601783126
 20
-24.9241785783
 10
11.8190907627
 20
-23.5652350649
 10
11.782979707
 20
-22.2340663087
 10
11.7514036719
 20
-20.9233951327
 10
11.7237187448
 20
-19.6109389651
 10
11.6999193587
 20
-18.2967524054
 10
11.6800016343
 20
-16.9808171428
 10
11.6637207722
 20
-15.64050175
 10
11.6512164231
 20
-14.2681420918
 10
11.6427919076
 20
-12.8711733773
 10
11.6386514493
 20
-11.4494940067
  0
LINE
  5
29D
100
AcDbEntity
  8
ASSI
100
AcDbLine
 62
7
  6
CONTINUOUS
 10
10.2768117267
 20
12.2499309527
 11
10.2980153407
 21
11.6335071571
  0
LINE
  5
29E
100
AcDbEntity
  8
ASSI
100
AcDbLine
 62
253
  6
CONTINUOUS
 10
10.0965770784
 20
11.8357489433
 11
10.0965770958
 21
11.7737756796
  0
LWPOLYLINE
  5
29F
100
AcDbEntity
  8
ASSI
100
AcDbPolyline
 62
253
  6
CONTINUOUS
 90
10
 70
0
 10
11.6386514494
 20
-10.2281278109
 10
11.6440135963
 20
-8.5429588954
 10
11.6558287293
 20
-6.8275253904
 10
11.6743946993
 20
-5.0816907011
 10
11.6998018557
 20
-3.3181249794
 10
11.7324704361
 20
-1.5239410976
 10
11.7736442406
 20
0.3395778993
 10
11.8244674645
 20
2.2857072891
 10
11.8854909897
 20
4.3020072068
 10
11.9575537501
 20
6.3888760063
  0
LWPOLYLINE
  5
2A0
100
AcDbEntity
  8
ASSI
100
AcDbPolyline
 62
253
  6
CONTINUOUS
 90
22
 70
0
 10
11.9575538094
 20
6.3888760632
 10
11.9620605676
 20
6.4602273756
 10
11.9706701264
 20
6.5334659019
 10
11.9833421665
 20
6.6082286474
 10
12.0000225234
 20
6.6841361177
 10
12.020627792
 20
6.7608197865
 10
12.0450483094
 20
6.8379244478
 10
12.0731778544
 20
6.9150707877
 10
12.1048827405
 20
6.9918700028
 10
12.1399884325
 20
7.0679516808
 10
12.1783356446
 20
7.1429332001
 10
12.219745095
 20
7.2164403969
 10
12.2639895446
 20
7.2881225851
 10
12.3108680637
 20
7.3576189635
 10
12.3601603414
 20
7.4245782862
 10
12.4115913235
 20
7.4886798306
 10
12.4649207471
 20
7.549594931
 10
12.5199024753
 20
7.6070184552
 10
12.5762394661
 20
7.660687197
 10
12.6336564526
 20
7.7103352765
 10
12.6919006566
 20
7.7556968205
 10
12.750701307
 20
7.7965366925
  0
LWPOLYLINE
  5
2A1
100
AcDbEntity
  8
0
100
AcDbPolyline
 62
253
  6
CONTINUOUS
 90
27
 70
0
 10
-11.8612421547
 20
12.7349010509
 10
-11.8598540257
 20
12.7347777184
 10
-11.8584561991
 20
12.734622951
 10
-11.8570480828
 20
12.7344364397
 10
-11.8556290847
 20
12.7342178756
 10
-11.8541986128
 20
12.7339669497
 10
-11.8527560749
 20
12.7336833531
 10
-11.8513008791
 20
12.7333667767
 10
-11.8498324331
 20
12.7330169117
 10
-11.8483501449
 20
12.7326334491
 10
-11.8468537962
 20
12.732216212
 10
-11.845344664
 20
12.731765552
 10
-11.8438243991
 20
12.7312819527
 10
-11.8422946524
 20
12.7307658979
 10
-11.8407570745
 20
12.7302178712
 10
-11.8392133164
 20
12.7296383562
 10
-11.8376650288
 20
12.7290278367
 10
-11.8361138625
 20
12.7283867962
 10
-11.8345614683
 20
12.7277157185
 10
-11.8328150921
 20
12.7269252652
 10
-11.831068479
 20
12.7260969613
 10
-11.8293208568
 20
12.72523036
 10
-11.8275714533
 20
12.7243250146
 10
-11.8258194962
 20
12.7233804782
 10
-11.8240642135
 20
12.722396304
 10
-11.8223048328
 20
12.7213720452
 10
-11.8205405821
 20
12.720307255
  0
LWPOLYLINE
  5
2A2
100
AcDbEntity
  8
ASSI
100
AcDbPolyline
 62
253
  6
CONTINUOUS
 90
16
 70
0
 10
11.9575622212
 20
6.3888811848
 10
11.9961737959
 20
6.3709991778
 10
12.0375985068
 20
6.3552263514
 10
12.0814347102
 20
6.3417156352
 10
12.1272573813
 20
6.3305980256
 10
12.1746222348
 20
6.3219813162
 10
12.2230700331
 20
6.3159490522
 10
12.2721310382
 20
6.3125597208
 10
12.3213295671
 20
6.3118461843
 10
12.3701886031
 20
6.3138153608
 10
12.4182344212
 20
6.3184481578
 10
12.465001181
 20
6.3256996568
 10
12.5100354439
 20
6.3354995491
 10
12.5529005689
 20
6.3477528173
 10
12.5931809464
 20
6.3623406568
 10
12.630486028
 20
6.3791216277
  0
LWPOLYLINE
  5
2A3
100
AcDbEntity
  8
ASSI
100
AcDbPolyline
 62
253
  6
CONTINUOUS
 90
10
 70
0
 10
11.9575537501
 20
6.3888760063
 10
11.1532502123
 20
6.7964382182
 10
10.3418021947
 20
7.2135577637
 10
9.5234741561
 20
7.6403612974
 10
8.704272096
 20
8.0739056153
 10
7.8786609571
 20
8.5173405543
 10
7.0299535378
 20
8.9801474466
 10
6.1531962016
 20
9.4658186686
 10
5.2547808449
 20
9.9716186695
 10
4.3354338965
 20
10.4979127285
  0
LINE
  5
2A4
100
AcDbEntity
  8
ASSI
100
AcDbLine
 62
253
  6
CONTINUOUS
 10
4.3354319298
 20
10.4979128912
 11
-11.5744013022
 21
19.6840512023
  0
LWPOLYLINE
  5
2A5
100
AcDbEntity
  8
ASSI
100
AcDbPolyline
 62
253
  6
CONTINUOUS
 90
13
 70
0
 10
-11.5743993352
 20
19.6840510408
 10
-12.2129031624
 20
20.0549215133
 10
-12.8382790476
 20
20.4224726002
 10
-13.45067323
 20
20.7865997757
 10
-14.0474515033
 20
21.1455217805
 10
-14.6315699211
 20
21.5008004751
 10
-15.2114156915
 20
21.8574280396
 10
-15.7865012653
 20
22.2150751176
 10
-16.3573211237
 20
22.5740310324
 10
-16.9334224972
 20
22.9403851828
 10
-17.5177951747
 20
23.3162560952
 10
-18.107060509
 20
23.6996907542
 10
-18.7010372537
 20
24.0907622061
  0
LWPOLYLINE
  5
2A6
100
AcDbEntity
  8
ASSI
100
AcDbPolyline
 62
253
  6
CONTINUOUS
 90
9
 70
0
 10
12.4520949775
 20
-22.2126323405
 10
12.4199328194
 20
-20.9029382482
 10
12.3917825966
 20
-19.591488078
 10
12.3673693158
 20
-18.2784702052
 10
12.3469679703
 20
-16.9636962544
 10
12.3305287197
 20
-15.6244782827
 10
12.3180349507
 20
-14.2532536424
 10
12.3095032767
 20
-12.8575849812
 10
12.3049336977
 20
-11.437472299
  0
LWPOLYLINE
  5
2A7
100
AcDbEntity
  8
ASSI
100
AcDbPolyline
 62
253
  6
CONTINUOUS
 90
10
 70
0
 10
12.3049336982
 20
-10.2173583946
 10
12.3098945008
 20
-8.534164256
 10
12.3220588209
 20
-6.8205514009
 10
12.3414266587
 20
-5.0765198293
 10
12.3671988115
 20
-3.3151309851
 10
12.4001744818
 20
-1.5233234243
 10
12.4427512779
 20
0.3380871842
 10
12.4957284023
 20
2.2821622842
 10
12.5583066523
 20
4.295840432
 10
12.6304860281
 20
6.3791216276
  0
LWPOLYLINE
  5
2A8
100
AcDbEntity
  8
ASSI
100
AcDbPolyline
 62
253
  6
CONTINUOUS
 90
16
 70
0
 10
11.6386514902
 20
-11.4494940111
 10
11.6407644033
 20
-11.4051956576
 10
11.645850445
 20
-11.3597199712
 10
11.6540346066
 20
-11.3132204903
 10
11.6658491243
 20
-11.2656509914
 10
11.6811806347
 20
-11.2171900618
 10
11.6991708912
 20
-11.1686861996
 10
11.7199766769
 20
-11.1211613596
 10
11.7438034737
 20
-11.0748485026
 10
11.7696819549
 20
-11.0299115134
 10
11.7975559414
 20
-10.9872224982
 10
11.8275384391
 20
-10.9473995116
 10
11.8587279599
 20
-10.9103580979
 10
11.8907392612
 20
-10.8765327572
 10
11.9237610175
 20
-10.846784272
 10
11.9576711136
 20
-10.8216230809
  0
LWPOLYLINE
  5
2A9
100
AcDbEntity
  8
ASSI
100
AcDbPolyline
 62
253
  6
CONTINUOUS
 90
9
 70
0
 10
12.3049336982
 20
-10.2173583946
 10
12.3027657644
 20
-10.2585846335
 10
12.2969130373
 20
-10.2972542575
 10
12.2874018303
 20
-10.3329215163
 10
12.2742828735
 20
-10.36519979
 10
12.2576732825
 20
-10.3936573873
 10
12.2377932934
 20
-10.4178677125
 10
12.2148904509
 20
-10.437543299
 10
12.1977021998
 20
-10.4482389579
  0
LWPOLYLINE
  5
2AA
100
AcDbEntity
  8
ASSI
100
AcDbPolyline
 62
253
  6
CONTINUOUS
 90
22
 70
0
 10
12.6304860281
 20
6.3791216276
 10
12.6332998978
 20
6.4207911407
 10
12.6385473045
 20
6.4631520889
 10
12.6462282481
 20
6.5062044723
 10
12.6564040357
 20
6.5501850287
 10
12.6690133603
 20
6.5948570203
 10
12.6838723006
 20
6.6395102332
 10
12.7010130227
 20
6.6841265097
 10
12.7204033606
 20
6.7287240076
 10
12.7417628947
 20
6.7726469869
 10
12.7651230475
 20
6.8158884335
 10
12.7904523964
 20
6.8584553616
 10
12.8173762538
 20
6.8997130734
 10
12.8459183329
 20
6.9396405577
 10
12.8760549205
 20
6.9782588257
 10
12.9073401894
 20
7.0149962136
 10
12.9398070236
 20
7.0498342047
 10
12.9734225392
 20
7.0827913157
 10
13.0076422575
 20
7.1133514332
 10
13.0422846855
 20
7.1413425194
 10
13.0775313162
 20
7.1669366121
 10
13.1133821496
 20
7.1901337114
  0
LINE
  5
2AB
100
AcDbEntity
  8
ASSI
100
AcDbLine
 62
7
  6
CONTINUOUS
 10
5.4768600644
 20
15.021362885
 11
4.8042151995
 21
14.8914923633
  0
LINE
  5
2AC
100
AcDbEntity
  8
0
100
AcDbLine
 62
253
  6
CONTINUOUS
 10
-11.8802100014
 20
12.7337156398
 11
-11.8612421547
 21
12.7349010509
  0
LWPOLYLINE
  5
2AD
100
AcDbEntity
  8
ASSI
100
AcDbPolyline
 62
253
  6
CONTINUOUS
 90
10
 70
0
 10
12.750701307
 20
7.7965366925
 10
11.9461214368
 20
8.2015821085
 10
11.1352534332
 20
8.6164961128
 10
10.3180972964
 20
9.0412787054
 10
9.5000124478
 20
9.4725366129
 10
8.675639466
 20
9.9136631086
 10
7.8289000861
 20
10.3748380129
 10
6.9544348865
 20
10.8594545991
 10
6.0576032888
 20
11.3641195939
 10
5.138405293
 20
11.8888329972
  0
LINE
  5
2AE
100
AcDbEntity
  8
ASSI
100
AcDbLine
 62
253
  6
CONTINUOUS
 10
5.138405293
 20
11.8888329972
 11
-10.7714426898
 21
21.0749798253
  0
LWPOLYLINE
  5
2AF
100
AcDbEntity
  8
ASSI
100
AcDbPolyline
 62
253
  6
CONTINUOUS
 90
13
 70
0
 10
-10.7714426898
 20
21.0749798253
 10
-11.4085314443
 20
21.4454434098
 10
-12.0326722946
 20
21.8124573313
 10
-12.6438652407
 20
22.1760215899
 10
-13.2391557918
 20
22.5344442987
 10
-13.8214984387
 20
22.8894173445
 10
-14.3997566535
 20
23.2460163875
 10
-14.9737768752
 20
23.6038814256
 10
-15.5437126648
 20
23.9633724607
 10
-16.1188881779
 20
24.3306451597
 10
-16.7024114663
 20
24.7077514111
 10
-17.2911744783
 20
25.0926393263
 10
-17.8851772138
 20
25.4853089052
  0
LWPOLYLINE
  5
2B0
100
AcDbEntity
  8
ASSI
100
AcDbPolyline
 62
253
  6
CONTINUOUS
 90
16
 70
0
 10
12.750701307
 20
7.7965366925
 10
12.7867502372
 20
7.7724385039
 10
12.8226072712
 20
7.7442619299
 10
12.8578802362
 20
7.7123151414
 10
12.8921833473
 20
7.6769475441
 10
12.9251414273
 20
7.638545958
 10
12.9563940098
 20
7.597530386
 10
12.9855992814
 20
7.5543494207
 10
13.0124378205
 20
7.5094753375
 10
13.0366160906
 20
7.4633989299
 10
13.0578696511
 20
7.4166241411
 10
13.0759660491
 20
7.369662553
 10
13.0907073621
 20
7.3230277901
 10
13.1019323624
 20
7.2772299027
 10
13.109518281
 20
7.2327697878
 10
13.1133821496
 20
7.1901337114
  0
LINE
  5
2B1
100
AcDbEntity
  8
ASSI
100
AcDbLine
 62
7
  6
CONTINUOUS
 10
15.6897908873
 20
8.7537289329
 11
16.236459612
 21
2.0225079311
  0
LINE
  5
2B2
100
AcDbEntity
  8
ASSI
100
AcDbLine
 62
7
  6
CONTINUOUS
 10
16.236459612
 20
2.0225079311
 11
16.236459612
 21
-8.1018012146
  0
LINE
  5
2B3
100
AcDbEntity
  8
ASSI
100
AcDbLine
 62
7
  6
CONTINUOUS
 10
16.236459612
 20
-19.3690133209
 11
16.236459612
 21
-9.2447041753
  0
LINE
  5
2B4
100
AcDbEntity
  8
ASSI
100
AcDbLine
 62
253
  6
CONTINUOUS
 10
15.8828658173
 20
-8.6323861248
 11
11.9576711085
 21
-10.8216230839
  0
LINE
  5
2B5
100
AcDbEntity
  8
ASSI
100
AcDbLine
 62
253
  6
CONTINUOUS
 10
16.236459612
 20
-9.2447041753
 11
12.3049336977
 21
-11.437472299
  0
LINE
  5
2B6
100
AcDbEntity
  8
ASSI
100
AcDbLine
 62
253
  6
CONTINUOUS
 10
12.3049336982
 20
-10.2173583946
 11
16.236459612
 21
-8.1018012146
  0
LINE
  5
2B7
100
AcDbEntity
  8
ASSI
100
AcDbLine
 62
7
  6
CONTINUOUS
 10
12.1976831748
 20
-10.4482491969
 11
16.1285872716
 21
-8.3330266172
  0
LWPOLYLINE
  5
2B8
100
AcDbEntity
  8
ASSI
100
AcDbPolyline
 62
253
  6
CONTINUOUS
 90
16
 70
0
 10
12.3049336986
 20
-11.4374722985
 10
12.2680796667
 20
-11.4558448444
 10
12.2283195709
 20
-11.4720634575
 10
12.1860293847
 20
-11.4859747737
 10
12.1416090133
 20
-11.4974472453
 10
12.0954784913
 20
-11.5063723906
 10
12.0480740082
 20
-11.5126658153
 10
11.9998437996
 20
-11.5162680056
 10
11.9512439546
 20
-11.5171448917
 10
11.9027340817
 20
-11.5152881807
 10
11.8547729149
 20
-11.5107154358
 10
11.8078139547
 20
-11.5034699009
 10
11.7623012261
 20
-11.4936200892
 10
11.7186650933
 20
-11.4812591394
 10
11.6773181885
 20
-11.4665039381
 10
11.6386514902
 20
-11.4494940111
  0
LWPOLYLINE
  5
2B9
100
AcDbEntity
  8
0
100
AcDbPolyline
 62
253
  6
CONTINUOUS
 90
16
 70
0
 10
-11.9976768935
 20
13.120795637
 10
-12.1284459212
 20
13.087584126
 10
-12.2580405239
 20
13.0522804178
 10
-12.3864773144
 20
13.014880481
 10
-12.5137729053
 20
12.9753802843
 10
-12.6399439093
 20
12.9337757961
 10
-12.7649973993
 20
12.8900660112
 10
-12.8889022901
 20
12.8442620282
 10
-13.0116179564
 20
12.7963779714
 10
-13.1331037732
 20
12.7464279657
 10
-13.2533191155
 20
12.6944261354
 10
-13.37223241
 20
12.6403823634
 10
-13.489848291
 20
12.5842895652
 10
-13.6061804446
 20
12.5261364148
 10
-13.7212425568
 20
12.4659115859
 10
-13.8350483139
 20
12.4036037524
  0
LWPOLYLINE
  5
2BA
100
AcDbEntity
  8
0
100
AcDbPolyline
 62
253
  6
CONTINUOUS
 90
16
 70
0
 10
-12.0109788164
 20
13.1521452452
 10
-12.1419872821
 20
13.1188820653
 10
-12.2718147527
 20
13.0835238373
 10
-12.4004779616
 20
13.0460666061
 10
-12.5279936424
 20
13.0065064163
 10
-12.6543785287
 20
12.9648393127
 10
-12.7796397783
 20
12.921064379
 10
-12.9037462467
 20
12.8751928551
 10
-13.0266572138
 20
12.8272390198
 10
-13.1483319594
 20
12.777217152
 10
-13.2687297634
 20
12.7251415306
 10
-13.3878189965
 20
12.6710221784
 10
-13.5056043942
 20
12.6148520947
 10
-13.6220997825
 20
12.5566200225
 10
-13.737318988
 20
12.496314705
 10
-13.8512758367
 20
12.4339248854
  0
LWPOLYLINE
  5
2BB
100
AcDbEntity
  8
0
100
AcDbPolyline
 62
253
  6
CONTINUOUS
 90
32
 70
0
 10
-11.8671219449
 20
12.7023289854
 10
-11.8658207986
 20
12.7026097245
 10
-11.8645128931
 20
12.7028505411
 10
-11.8631981882
 20
12.7030517042
 10
-11.8618766436
 20
12.7032134827
 10
-11.8605482193
 20
12.7033361455
 10
-11.8592128751
 20
12.7034199615
 10
-11.8578705707
 20
12.7034651998
 10
-11.8565212661
 20
12.7034721293
 10
-11.855164921
 20
12.7034410188
 10
-11.8538014952
 20
12.7033721374
 10
-11.8524309486
 20
12.703265754
 10
-11.85091521
 20
12.7031057371
 10
-11.849391564
 20
12.7029010183
 10
-11.8478607677
 20
12.7026519477
 10
-11.8463235785
 20
12.7023588754
 10
-11.8447807536
 20
12.7020221514
 10
-11.8432330505
 20
12.701642126
 10
-11.8416812263
 20
12.7012191491
 10
-11.8401260384
 20
12.700753571
 10
-11.838568244
 20
12.7002457417
 10
-11.8370086005
 20
12.6996960112
 10
-11.8354476983
 20
12.6991046297
 10
-11.8338854604
 20
12.6984714467
 10
-11.8323216431
 20
12.6977962117
 10
-11.8307560024
 20
12.6970786742
 10
-11.8291882946
 20
12.6963185836
 10
-11.8276182758
 20
12.6955156896
 10
-11.8260457023
 20
12.6946697415
 10
-11.8244703301
 20
12.6937804889
 10
-11.8228919156
 20
12.6928476812
 10
-11.8213102148
 20
12.691871068
  0
LWPOLYLINE
  5
2BC
100
AcDbEntity
  8
ASSI
100
AcDbPolyline
 62
253
  6
CONTINUOUS
 90
9
 70
0
 10
-17.8851772139
 20
25.4853089052
 10
-17.9229520803
 20
25.5038355797
 10
-17.9601113604
 20
25.5178175464
 10
-17.9962486326
 20
25.5271018967
 10
-18.030968666
 20
25.5315871032
 10
-18.0638917114
 20
25.5312241244
 10
-18.0946576598
 20
25.5260169559
 10
-18.1229300263
 20
25.5160225836
 10
-18.1450275854
 20
25.5036710809
  0
LINE
  5
2BD
100
AcDbEntity
  8
ASSI
100
AcDbLine
 62
7
  6
CONTINUOUS
 10
2.2287449381
 20
16.2926027559
 11
4.6110300342
 21
14.9171011985
  0
LINE
  5
2BE
100
AcDbEntity
  8
ASSI
100
AcDbLine
 62
7
  6
CONTINUOUS
 10
10.1483408874
 20
11.7199273106
 11
12.5306259835
 21
10.3444257532
  0
LINE
  5
2BF
100
AcDbEntity
  8
ASSI
100
AcDbLine
 62
7
  6
CONTINUOUS
 10
-3.3792765932
 20
19.5306041031
 11
-5.7615616893
 21
20.9061056605
  0
LINE
  5
2C0
100
AcDbEntity
  8
ASSI
100
AcDbLine
 62
7
  6
CONTINUOUS
 10
-11.2988725425
 20
24.1032795483
 11
-13.6811576386
 21
25.4787811058
  0
LINE
  5
2C1
100
AcDbEntity
  8
ASSI
100
AcDbLine
 62
7
  6
CONTINUOUS
 10
15.3050037998
 20
9.3467158677
 11
13.3964560137
 21
10.4486874397
  0
LINE
  5
2C2
100
AcDbEntity
  8
ASSI
100
AcDbLine
 62
7
  6
CONTINUOUS
 10
10.2768117267
 20
12.2499309527
 11
5.4768600644
 21
15.021362885
  0
LINE
  5
2C3
100
AcDbEntity
  8
ASSI
100
AcDbLine
 62
7
  6
CONTINUOUS
 10
2.3572157774
 20
16.8226063979
 11
-2.513446563
 21
19.6348657896
  0
LINE
  5
2C4
100
AcDbEntity
  8
ASSI
100
AcDbLine
 62
7
  6
CONTINUOUS
 10
-5.63309085
 20
21.4361093025
 11
-10.4330425123
 21
24.2075412348
  0
LINE
  5
2C5
100
AcDbEntity
  8
ASSI
100
AcDbLine
 62
7
  6
CONTINUOUS
 10
-13.5526867993
 20
26.0087847478
 11
-15.4612345854
 21
27.1107563198
  0
LINE
  5
2C6
100
AcDbEntity
  8
ASSI
100
AcDbLine
 62
7
  6
CONTINUOUS
 10
15.6897908873
 20
-26.6992960487
 11
16.236459612
 21
-19.3690133209
  0
LINE
  5
2C7
100
AcDbEntity
  8
ASSI
100
AcDbLine
 62
7
  6
CONTINUOUS
 10
-2.513446563
 20
19.6348657896
 11
-3.186091428
 21
19.5049952679
  0
LINE
  5
2C8
100
AcDbEntity
  8
ASSI
100
AcDbLine
 62
7
  6
CONTINUOUS
 10
-10.4330425123
 20
24.2075412348
 11
-11.1056873772
 21
24.0776707132
  0
LWPOLYLINE
  5
2C9
100
AcDbEntity
  8
ASSI
100
AcDbPolyline
 62
253
  6
CONTINUOUS
 90
9
 70
0
 10
12.9888323836
 20
-28.1988040196
 10
13.0124392966
 20
-28.184880722
 10
13.0366173643
 20
-28.164657719
 10
13.0578706624
 20
-28.1398955143
 10
13.0759667709
 20
-28.1108649627
 10
13.0907078013
 20
-28.0778835926
 10
13.1019325558
 20
-28.0413121413
 10
13.1095182936
 20
-28.0015506119
 10
13.1133820757
 20
-27.9590338897
  0
LINE
  5
2CA
100
AcDbEntity
  8
ASSI
100
AcDbLine
 62
253
  6
CONTINUOUS
 10
15.6897908873
 20
-26.6992960487
 11
13.1133820757
 21
-27.9590338897
  0
LINE
  5
2CB
100
AcDbEntity
  8
ASSI
100
AcDbLine
 62
7
  6
CONTINUOUS
 10
15.5529003401
 20
-26.9451002528
 11
12.9888323836
 21
-28.1988040196
  0
LWPOLYLINE
  5
2CC
100
AcDbEntity
  8
ASSI
100
AcDbPolyline
 62
253
  6
CONTINUOUS
 90
22
 70
0
 10
13.1133820757
 20
-27.9590338897
 10
13.0775312419
 20
-27.9751235856
 10
13.0422846108
 20
-27.9881541782
 10
13.0076421824
 20
-27.9981256676
 10
12.9734224637
 20
-28.0050649033
 10
12.9398069477
 20
-28.0089450358
 10
12.9073401131
 20
-28.0096855166
 10
12.8760548439
 20
-28.0072317934
 10
12.845918256
 20
-28.0016384184
 10
12.8173761767
 20
-27.9929885003
 10
12.7904523191
 20
-27.9812350417
 10
12.76512297
 20
-27.9664250399
 10
12.741762817
 20
-27.9487825947
 10
12.7204032828
 20
-27.9282662578
 10
12.7010129448
 20
-27.9049174775
 10
12.6838722225
 20
-27.8790846986
 10
12.6690132808
 20
-27.850714515
 10
12.6564039549
 20
-27.8198603327
 10
12.6462281702
 20
-27.7870308148
 10
12.6385472352
 20
-27.7523955154
 10
12.6332998414
 20
-27.7157848803
 10
12.6304859888
 20
-27.6771989095
  0
ELLIPSE
  5
2CD
100
AcDbEntity
  8
ASSI
100
AcDbEllipse
 62
7
  6
CONTINUOUS
 10
15.3361596485
 20
-26.4945075327
 30
0.0
 11
-0.2148753492
 21
0.4514925988
 31
0.0
 40
0.626010046
 41
-3.1349764991
 42
-2.3100583745
  0
ELLIPSE
  5
2CE
100
AcDbEntity
  8
ASSI
100
AcDbEllipse
 62
7
  6
CONTINUOUS
 10
15.882785026
 20
-9.0405901602
 30
0.0
 11
-0.2501454382
 21
0.4329727255
 31
0.0
 40
0.577463496
 41
-2.3564333972
 42
-0.7858655045
  0
ELLIPSE
  5
2CF
100
AcDbEntity
  8
0
100
AcDbEllipse
 62
253
  6
CONTINUOUS
 10
287.0947392747
 20
156.3711586063
 30
0.0
 11
589.1056735761
 21
107.8392862014
 31
0.0
 40
0.2135076606
 41
-2.1415052651
 42
-2.141469176
  0
ELLIPSE
  5
2D0
100
AcDbEntity
  8
ASSI
100
AcDbEllipse
 62
7
  6
CONTINUOUS
 10
15.3361596485
 20
8.9574024654
 30
0.0
 11
-0.280860955
 21
0.4142191515
 31
0.0
 40
0.5243459323
 41
-2.3941007373
 42
-0.8246744066
  0
ELLIPSE
  5
2D1
100
AcDbEntity
  8
ASSI
100
AcDbEllipse
 62
7
  6
CONTINUOUS
 10
15.882785026
 20
-7.8975006828
 30
0.0
 11
-0.2502024655
 21
0.4330717124
 31
0.0
 40
0.5771997317
 41
-3.1590443311
 42
-2.3566615088
  0
ELLIPSE
  5
2D2
100
AcDbEntity
  8
ASSI
100
AcDbEllipse
 62
7
  6
CONTINUOUS
 10
-15.4307244521
 20
26.7218157454
 30
0.0
 11
-0.2806490066
 21
0.4138128862
 31
0.0
 40
0.5253010868
 41
-0.8257150379
 42
-0.0027521587
  0
ELLIPSE
  5
2D3
100
AcDbEntity
  8
ASSI
100
AcDbEllipse
 62
7
  6
CONTINUOUS
 10
12.6720473397
 20
10.4346385507
 30
0.0
 11
0.1999154856
 21
0.0095814127
 31
0.0
 40
0.6067642562
 41
-2.385266879
 42
-1.3380693278
  0
ELLIPSE
  5
2D4
100
AcDbEntity
  8
ASSI
100
AcDbEllipse
 62
7
  6
CONTINUOUS
 10
4.7524513904
 20
15.007313996
 30
0.0
 11
0.1999154856
 21
0.0095814127
 31
0.0
 40
0.6067642562
 41
-2.385266879
 42
-1.3380693278
  0
ELLIPSE
  5
2D5
100
AcDbEntity
  8
ASSI
100
AcDbEllipse
 62
7
  6
CONTINUOUS
 10
-3.237855237
 20
19.6208169006
 30
0.0
 11
0.1999154856
 21
0.0095814127
 31
0.0
 40
0.6067642562
 41
-2.385266879
 42
-1.3380693278
  0
ELLIPSE
  5
2D6
100
AcDbEntity
  8
ASSI
100
AcDbEllipse
 62
7
  6
CONTINUOUS
 10
-11.1574511863
 20
24.1934923458
 30
0.0
 11
0.1999154856
 21
0.0095814127
 31
0.0
 40
0.6067642562
 41
-2.385266879
 42
-1.3380693278
  0
ELLIPSE
  5
2D7
100
AcDbEntity
  8
ASSI
100
AcDbEllipse
 62
7
  6
CONTINUOUS
 10
10.2897622436
 20
11.8101401081
 30
0.0
 11
0.1999154856
 21
0.0095814127
 31
0.0
 40
0.6067642562
 41
2.850720877
 42
3.8979184282
  0
ELLIPSE
  5
2D8
100
AcDbEntity
  8
ASSI
100
AcDbEllipse
 62
7
  6
CONTINUOUS
 10
2.3701662943
 20
16.3828155534
 30
0.0
 11
0.1999154856
 21
0.0095814127
 31
0.0
 40
0.6067642562
 41
2.850720877
 42
3.8979184282
  0
ELLIPSE
  5
2D9
100
AcDbEntity
  8
ASSI
100
AcDbEllipse
 62
7
  6
CONTINUOUS
 10
-5.6201403331
 20
20.996318458
 30
0.0
 11
0.1999154856
 21
0.0095814127
 31
0.0
 40
0.6067642562
 41
2.850720877
 42
3.8979184282
  0
ELLIPSE
  5
2DA
100
AcDbEntity
  8
ASSI
100
AcDbEllipse
 62
7
  6
CONTINUOUS
 10
-13.5397362823
 20
25.5689939033
 30
0.0
 11
0.1999154856
 21
0.0095814127
 31
0.0
 40
0.6067642562
 41
2.850720877
 42
3.8979184282
  0
ENDSEC
  0
SECTION
  2
OBJECTS
  0
DICTIONARY
  5
C
100
AcDbDictionary
280
0
281
1
  3
ACAD_GROUP
350
D
  3
ACAD_MLINESTYLE
350
17
  3
ACAD_LAYOUT
350
1A
  3
ACAD_PLOTSETTINGS
350
19
  3
ACAD_PLOTSTYLENAME
350
E
  0
DICTIONARY
  5
D
102
{ACAD_REACTORS
330
C
102
}
100
AcDbDictionary
280
0
281
1
  0
ACDBDICTIONARYWDFLT
  5
E
102
{ACAD_REACTORS
330
C
102
}
100
AcDbDictionary
281
1
  3
Normal
350
F
100
AcDbDictionaryWithDefault
340
F
  0
DICTIONARY
  5
17
102
{ACAD_REACTORS
330
C
102
}
100
AcDbDictionary
280
0
281
1
  3
Standard
350
18
  0
DICTIONARY
  5
19
102
{ACAD_REACTORS
330
C
102
}
100
AcDbDictionary
281
1
  0
DICTIONARY
  5
1A
102
{ACAD_REACTORS
330
C
102
}
100
AcDbDictionary
281
1
  3
Model
350
2DB
  3
Layout1
350
2DC
  0
ACDBPLACEHOLDER
  5
F
102
{ACAD_REACTORS
330
E
102
}
  0
MLINESTYLE
  5
18
102
{ACAD_REACTORS
330
17
102
}
100
AcDbMlineStyle
  2
STANDARD
 70
0
  3

 62
256
 51
90.0
 52
90.0
 71
2
 49
0.5
 62
256
  6
BYLAYER
 49
-0.5
 62
256
  6
BYLAYER
  0
LAYOUT
  5
2DB
102
{ACAD_REACTORS
330
1A
102
}
100
AcDbPlotSettings
  1

  2
none_device
  4
ISO_A4_(297.00_x_210.00_MM)
  6

 40
0.0
 41
0.0
 42
0.0
 43
0.0
 44
297.0
 45
210.0
 46
0.0
 47
0.0
 48
0.0
 49
0.0
140
0.0
141
0.0
142
1.0
143
1.0
 70
1024
 72
1
 73
0
 74
0
  7

 75
0
147
1.0
148
0.0
149
0.0
100
AcDbLayout
  1
Model
 70
0
 71
0
 10
0.0
 20
0.0
 11
297.0
 21
210.0
 12
0.0
 22
0.0
 32
0.0
 14
0.0
 24
0.0
 34
0.0
 15
0.0
 25
0.0
 35
0.0
146
0.0
 13
0.0
 23
0.0
 33
0.0
 16
1.0
 26
0.0
 36
0.0
 17
0.0
 27
1.0
 37
0.0
 76
0
330
220
345
0
346
0
  0
LAYOUT
  5
2DC
102
{ACAD_REACTORS
330
1A
102
}
100
AcDbPlotSettings
  1

  2
none_device
  4
ISO_A4_(297.00_x_210.00_MM)
  6

 40
0.0
 41
0.0
 42
0.0
 43
0.0
 44
297.0
 45
210.0
 46
0.0
 47
0.0
 48
0.0
 49
0.0
140
0.0
141
0.0
142
1.0
143
1.0
 70
0
 72
1
 73
0
 74
0
  7

 75
0
147
1.0
148
0.0
149
0.0
100
AcDbLayout
  1
Layout1
 70
0
 71
1
 10
0.0
 20
0.0
 11
297.0
 21
210.0
 12
0.0
 22
0.0
 32
0.0
 14
0.0
 24
0.0
 34
0.0
 15
0.0
 25
0.0
 35
0.0
146
0.0
 13
0.0
 23
0.0
 33
0.0
 16
1.0
 26
0.0
 36
0.0
 17
0.0
 27
1.0
 37
0.0
 76
0
330
221
345
0
346
0
  0
ENDSEC
  0
EOF
