  0
SECTION
  2
HEADER
  9
$ACADVER
  1
AC1021
  9
$DWGCODEPAGE
  3
ANSI_1252
  9
$EXTMAX
 10
297.0
 20
210.0
 30
0.0
  9
$EXTMIN
 10
0.0
 20
0.0
 30
0.0
  9
$LIMMIN
 10
0.0
 20
0.0
  9
$LIMMAX
 10
297.0
 20
210.0
  9
$VIEWCTR
 10
148.5
 20
105.0
  9
$VIEWSIZE
 40
210.0
  9
$CLAYER
  8
0
  9
$LTSCALE
 40
16.335
  9
$CELTYPE
  6
BYLAYER
  9
$DIMSCALE
 40
1.0
  9
$DIMASZ
 40
3.0
  9
$DIMEXO
 40
0.5
  9
$DIMDLI
 40
11.286
  9
$DIMEXE
 40
1.5
  9
$DIMCEN
 40
2.673
  9
$DIMLFAC
 40
1.0
  9
$DIMBLK
  1
_FILLED
  9
$DIMALT
 70
0
  9
$DIMALTF
 40
25.4
  9
$DIMTXT
 40
3.0
  9
$DIMTOL
 70
1
  9
$DIMLIM
 70
0
  9
$DIMTFAC
 40
1.0
  9
$DIMTP
 40
0.01
  9
$DIMTM
 40
0.01
  9
$DIMGAP
 40
0.625
  9
$DIMDSEP
 70
44
  9
$AUNITS
 70
0
  9
$PDMODE
 70
3
  9
$PDSIZE
 40
3.0
  9
$HANDSEED
  5
2C7
  9
$TILEMODE
 70
1
  9
$MEASUREMENT
 70
1
  9
$INSUNITS
 70
4
  0
ENDSEC
  0
SECTION
  2
CLASSES
  0
CLASS
  1
ACDBDICTIONARYWDFLT
  2
AcDbDictionaryWithDefault
  3
AutoCAD 2000
 90
0
 91
1
280
0
281
0
  0
CLASS
  1
ACDBPLACEHOLDER
  2
AcDbPlaceHolder
  3
AutoCAD 2000
 90
0
 91
1
280
0
281
0
  0
CLASS
  1
LAYOUT
  2
AcDbLayout
  3
AutoCAD 2000
 90
0
 91
0
280
0
281
0
  0
ENDSEC
  0
SECTION
  2
TABLES
  0
TABLE
  2
VPORT
  5
8
100
AcDbSymbolTable
 70
2
  0
VPORT
  5
1F4
100
AcDbSymbolTableRecord
100
AcDbViewportTableRecord
  2
*ACTIVE
 70
0
 10
0.0
 20
0.0
 11
1.0
 21
1.0
 12
148.5
 22
105.0
 13
0.0
 23
0.0
 14
1.0
 24
1.0
 15
0.0
 25
0.0
 16
0.0
 26
0.0
 36
1.0
 17
0.0
 27
0.0
 37
0.0
 40
210.0
 41
1.4142857143
 42
50.0
 43
0.0
 44
0.0
 50
0.0
 51
0.0
 71
0
 72
100
 73
1
 74
1
 75
0
 76
0
 77
0
 78
0
  0
ENDTAB
  0
TABLE
  2
LTYPE
  5
5
100
AcDbSymbolTable
 70
6
  0
LTYPE
  5
14
100
AcDbSymbolTableRecord
100
AcDbLinetypeTableRecord
  2
BYBLOCK
 70
0
  3

 72
65
 73
0
 40
0.0
  0
LTYPE
  5
15
100
AcDbSymbolTableRecord
100
AcDbLinetypeTableRecord
  2
BYLAYER
 70
0
  3

 72
65
 73
0
 40
0.0
  0
LTYPE
  5
16
100
AcDbSymbolTableRecord
100
AcDbLinetypeTableRecord
  2
CONTINUOUS
 70
64
  3
Solid line
 72
65
 73
0
 40
0.0
  0
LTYPE
  5
1F5
100
AcDbSymbolTableRecord
100
AcDbLinetypeTableRecord
  2
CENTER
 70
64
  3
____ _ ____ _ ____ _ ____ _ ____ _ ____ _ ____
 72
65
 73
4
 40
0.6
 49
0.375
 74
0
 49
-0.075
 74
0
 49
0.075
 74
0
 49
-0.075
 74
0
  0
LTYPE
  5
1F6
100
AcDbSymbolTableRecord
100
AcDbLinetypeTableRecord
  2
HIDDEN
 70
64
  3
- - - - - - - - - - - - - - - - - - - -
 72
65
 73
2
 40
0.2
 49
0.1
 74
0
 49
-0.1
 74
0
  0
LTYPE
  5
1F7
100
AcDbSymbolTableRecord
100
AcDbLinetypeTableRecord
  2
PHANTOM
 70
64
  3
_____ _ _ _____ _ _ _____ _ _ _____
 72
65
 73
6
 40
0.8
 49
0.45
 74
0
 49
-0.05
 74
0
 49
0.1
 74
0
 49
-0.05
 74
0
 49
0.1
 74
0
 49
-0.05
 74
0
  0
LTYPE
  5
1F8
100
AcDbSymbolTableRecord
100
AcDbLinetypeTableRecord
  2
DOT
 70
64
  3
. . . . . . . . . . . . . . . . . . . .
 72
65
 73
2
 40
0.2
 49
0.1
 74
0
 49
-0.1
 74
0
  0
LTYPE
  5
1F9
100
AcDbSymbolTableRecord
100
AcDbLinetypeTableRecord
  2
DASHED
 70
64
  3
- - - - - - - - - - - - - - - - - - - -
 72
65
 73
2
 40
0.2
 49
0.1
 74
0
 49
-0.1
 74
0
  0
ENDTAB
  0
TABLE
  2
LAYER
  5
2
100
AcDbSymbolTable
 70
36
  0
LAYER
  5
10
100
AcDbSymbolTableRecord
100
AcDbLayerTableRecord
  2
0
 70
0
 62
7
  6
CONTINUOUS
370
-3
390
F
  0
LAYER
  5
1FA
100
AcDbSymbolTableRecord
100
AcDbLayerTableRecord
  2
DEFAULT_1
 70
0
 62
7
  6
CENTER
370
-3
390
F
  0
LAYER
  5
1FB
100
AcDbSymbolTableRecord
100
AcDbLayerTableRecord
  2
DEFAULT_2
 70
0
 62
7
  6
HIDDEN
370
-3
390
F
  0
LAYER
  5
1FC
100
AcDbSymbolTableRecord
100
AcDbLayerTableRecord
  2
DEFAULT_3
 70
0
 62
7
  6
PHANTOM
370
-3
390
F
  0
LAYER
  5
1FD
100
AcDbSymbolTableRecord
100
AcDbLayerTableRecord
  2
ASSI
 70
0
 62
7
  6
CONTINUOUS
370
-3
390
F
  0
LAYER
  5
1FE
100
AcDbSymbolTableRecord
100
AcDbLayerTableRecord
  2
COLOR3
 70
0
 62
7
  6
CONTINUOUS
370
-3
390
F
  0
LAYER
  5
1FF
100
AcDbSymbolTableRecord
100
AcDbLayerTableRecord
  2
COORDINATE
 70
0
 62
7
  6
CONTINUOUS
370
-3
390
F
  0
LAYER
  5
200
100
AcDbSymbolTableRecord
100
AcDbLayerTableRecord
  2
COPY_PUBLISH
 70
0
 62
7
  6
CONTINUOUS
370
-3
390
F
  0
LAYER
  5
201
100
AcDbSymbolTableRecord
100
AcDbLayerTableRecord
  2
COSMETIC
 70
0
 62
7
  6
CONTINUOUS
370
-3
390
F
  0
LAYER
  5
202
100
AcDbSymbolTableRecord
100
AcDbLayerTableRecord
  2
COSMETICI
 70
0
 62
7
  6
CONTINUOUS
370
-3
390
F
  0
LAYER
  5
203
100
AcDbSymbolTableRecord
100
AcDbLayerTableRecord
  2
CURVE
 70
0
 62
7
  6
CONTINUOUS
370
-3
390
F
  0
LAYER
  5
204
100
AcDbSymbolTableRecord
100
AcDbLayerTableRecord
  2
DRAFT
 70
0
 62
7
  6
CONTINUOUS
370
-3
390
F
  0
LAYER
  5
205
100
AcDbSymbolTableRecord
100
AcDbLayerTableRecord
  2
IMPORT_IGES
 70
0
 62
7
  6
CONTINUOUS
370
-3
390
F
  0
LAYER
  5
206
100
AcDbSymbolTableRecord
100
AcDbLayerTableRecord
  2
INTFCLR_1
 70
0
 62
7
  6
CONTINUOUS
370
-3
390
F
  0
LAYER
  5
207
100
AcDbSymbolTableRecord
100
AcDbLayerTableRecord
  2
INTF_10
 70
0
 62
7
  6
CONTINUOUS
370
-3
390
F
  0
LAYER
  5
208
100
AcDbSymbolTableRecord
100
AcDbLayerTableRecord
  2
INTF_13
 70
0
 62
7
  6
CONTINUOUS
370
-3
390
F
  0
LAYER
  5
209
100
AcDbSymbolTableRecord
100
AcDbLayerTableRecord
  2
INTF_15
 70
0
 62
7
  6
CONTINUOUS
370
-3
390
F
  0
LAYER
  5
20A
100
AcDbSymbolTableRecord
100
AcDbLayerTableRecord
  2
INTF_16
 70
0
 62
7
  6
CONTINUOUS
370
-3
390
F
  0
LAYER
  5
20B
100
AcDbSymbolTableRecord
100
AcDbLayerTableRecord
  2
INTF_18
 70
0
 62
7
  6
CONTINUOUS
370
-3
390
F
  0
LAYER
  5
20C
100
AcDbSymbolTableRecord
100
AcDbLayerTableRecord
  2
INTF_20
 70
0
 62
7
  6
CONTINUOUS
370
-3
390
F
  0
LAYER
  5
20D
100
AcDbSymbolTableRecord
100
AcDbLayerTableRecord
  2
INTF_3
 70
0
 62
7
  6
CONTINUOUS
370
-3
390
F
  0
LAYER
  5
20E
100
AcDbSymbolTableRecord
100
AcDbLayerTableRecord
  2
INTF_5
 70
0
 62
7
  6
CONTINUOUS
370
-3
390
F
  0
LAYER
  5
20F
100
AcDbSymbolTableRecord
100
AcDbLayerTableRecord
  2
INTF_8
 70
0
 62
7
  6
CONTINUOUS
370
-3
390
F
  0
LAYER
  5
210
100
AcDbSymbolTableRecord
100
AcDbLayerTableRecord
  2
LIVELLO_1
 70
0
 62
7
  6
CONTINUOUS
370
-3
390
F
  0
LAYER
  5
211
100
AcDbSymbolTableRecord
100
AcDbLayerTableRecord
  2
NOTE
 70
0
 62
7
  6
CONTINUOUS
370
-3
390
F
  0
LAYER
  5
212
100
AcDbSymbolTableRecord
100
AcDbLayerTableRecord
  2
PIANI
 70
0
 62
7
  6
CONTINUOUS
370
-3
390
F
  0
LAYER
  5
213
100
AcDbSymbolTableRecord
100
AcDbLayerTableRecord
  2
PUNTI
 70
0
 62
7
  6
CONTINUOUS
370
-3
390
F
  0
LAYER
  5
214
100
AcDbSymbolTableRecord
100
AcDbLayerTableRecord
  2
RACCORDO
 70
0
 62
7
  6
CONTINUOUS
370
-3
390
F
  0
LAYER
  5
215
100
AcDbSymbolTableRecord
100
AcDbLayerTableRecord
  2
SIMBOLI
 70
0
 62
7
  6
CONTINUOUS
370
-3
390
F
  0
LAYER
  5
216
100
AcDbSymbolTableRecord
100
AcDbLayerTableRecord
  2
SMUSSO
 70
0
 62
7
  6
CONTINUOUS
370
-3
390
F
  0
LAYER
  5
217
100
AcDbSymbolTableRecord
100
AcDbLayerTableRecord
  2
SNAPLINE
 70
0
 62
7
  6
CONTINUOUS
370
-3
390
F
  0
LAYER
  5
218
100
AcDbSymbolTableRecord
100
AcDbLayerTableRecord
  2
SOLIDO
 70
0
 62
7
  6
CONTINUOUS
370
-3
390
F
  0
LAYER
  5
219
100
AcDbSymbolTableRecord
100
AcDbLayerTableRecord
  2
SUPERFICI
 70
0
 62
7
  6
CONTINUOUS
370
-3
390
F
  0
LAYER
  5
21A
100
AcDbSymbolTableRecord
100
AcDbLayerTableRecord
  2
SUPERFICI_SKEL
 70
0
 62
7
  6
CONTINUOUS
370
-3
390
F
  0
LAYER
  5
21B
100
AcDbSymbolTableRecord
100
AcDbLayerTableRecord
  2
TRASH
 70
0
 62
7
  6
CONTINUOUS
370
-3
390
F
  0
LAYER
  5
21C
100
AcDbSymbolTableRecord
100
AcDbLayerTableRecord
  2
WHITE
 70
0
 62
7
  6
CONTINUOUS
370
-3
390
F
  0
LAYER
  5
21D
100
AcDbSymbolTableRecord
100
AcDbLayerTableRecord
  2
___SHELL
 70
0
 62
7
  6
CONTINUOUS
370
-3
390
F
  0
ENDTAB
  0
TABLE
  2
STYLE
  5
3
100
AcDbSymbolTable
 70
1
  0
STYLE
  5
11
100
AcDbSymbolTableRecord
100
AcDbTextStyleTableRecord
  2
STANDARD
 70
0
 40
0.0
 41
0.8
 50
0.0
 71
0
 42
0.2
  3
txt
  4

  0
STYLE
  5
21E
100
AcDbSymbolTableRecord
100
AcDbTextStyleTableRecord
  2
TEXTSTYLE_1
 70
0
 40
0.0
 41
0.8
 50
0.0
 71
0
 42
0.2
  3
gdt
  4

  0
ENDTAB
  0
TABLE
  2
VIEW
  5
6
100
AcDbSymbolTable
 70
0
  0
ENDTAB
  0
TABLE
  2
UCS
  5
7
100
AcDbSymbolTable
 70
0
  0
ENDTAB
  0
TABLE
  2
APPID
  5
9
100
AcDbSymbolTable
 70
1
  0
APPID
  5
21F
100
AcDbSymbolTableRecord
100
AcDbRegAppTableRecord
  2
ACAD
 70
0
  0
ENDTAB
  0
TABLE
  2
BLOCK_RECORD
  5
1
100
AcDbSymbolTable
 70
0
  0
BLOCK_RECORD
  5
220
100
AcDbSymbolTableRecord
100
AcDbBlockTableRecord
  2
*Model_Space
  0
BLOCK_RECORD
  5
221
100
AcDbSymbolTableRecord
100
AcDbBlockTableRecord
  2
*Paper_Space
  0
ENDTAB
  0
TABLE
  2
DIMSTYLE
  5
A
100
AcDbSymbolTable
 70
1
100
AcDbDimStyleTable
 71
0
  0
DIMSTYLE
105
222
100
AcDbSymbolTableRecord
100
AcDbDimStyleTableRecord
  2
STANDARD
 70
0
  3

  4

 40
1.0
 41
3.0
 42
0.5
 43
0.38
 44
1.5
 45
0.0
 46
0.0
 47
0.01
 48
0.01
140
3.0
141
0.09
142
0.0
143
25.4
144
1.0
145
0.0
146
1.0
147
0.625
 71
1.0
 72
0.0
 73
0
 74
0
 75
0
 76
0
 77
1
 78
8
170
0
171
1
172
0
173
0
174
0
175
0
176
0
177
0
178
0
270
2
271
2
272
2
273
2
274
2
275
0
280
0
281
0
282
0
283
1
284
8
285
0
286
0
287
3
288
0
340
11
278
44
  0
ENDTAB
  0
ENDSEC
  0
SECTION
  2
BLOCKS
  0
BLOCK
  5
20
100
AcDbEntity
  8
0
100
AcDbBlockBegin
  2
*Model_Space
 70
0
 10
0.0
 20
0.0
 30
0.0
  3
*Model_Space
  1

  0
ENDBLK
  5
21
100
AcDbEntity
  8
0
100
AcDbBlockEnd
  0
BLOCK
  5
1C
100
AcDbEntity
  8
0
100
AcDbBlockBegin
  2
*Paper_Space
 70
0
 10
0.0
 20
0.0
 30
0.0
  3
*Paper_Space
  1

  0
ENDBLK
  5
1D
100
AcDbEntity
  8
0
100
AcDbBlockEnd
  0
ENDSEC
  0
SECTION
  2
ENTITIES
  0
LINE
  5
223
100
AcDbEntity
  8
0
100
AcDbLine
 62
7
  6
CONTINUOUS
 10
-8.7352115018
 20
22.0461385608
 11
-8.7353317389
 21
22.0460580123
  0
LWPOLYLINE
  5
224
100
AcDbEntity
  8
0
100
AcDbPolyline
 62
7
  6
CONTINUOUS
 90
19
 70
0
 10
-8.7352078208
 20
22.0461330635
 10
-8.7739162487
 20
22.0190859978
 10
-8.8411914759
 20
21.9666973977
 10
-8.905324109
 20
21.9099066356
 10
-8.9663378737
 20
21.8490290218
 10
-9.02421
 20
21.7843628834
 10
-9.0787556612
 20
21.7163215923
 10
-9.1298924769
 20
21.6452071769
 10
-9.1775075064
 20
21.5712736249
 10
-9.2213231133
 20
21.4950258945
 10
-9.2612194218
 20
21.4167359664
 10
-9.2970353654
 20
21.3366506582
 10
-9.3285143597
 20
21.2552802924
 10
-9.3554989631
 20
21.1728585423
 10
-9.3777973803
 20
21.0896018758
 10
-9.3951756627
 20
21.0058628115
 10
-9.4073936865
 20
20.9218153727
 10
-9.4141906213
 20
20.8376308286
 10
-9.4147931828
 20
20.8230876485
  0
LINE
  5
225
100
AcDbEntity
  8
0
100
AcDbLine
 62
7
  6
CONTINUOUS
 10
-6.3009563776
 20
23.6785014087
 11
-8.7353317389
 21
22.0460580123
  0
LINE
  5
226
100
AcDbEntity
  8
0
100
AcDbLine
 62
253
  6
CONTINUOUS
 10
-6.0514168786
 20
23.6532248881
 11
-8.4753611301
 21
22.0277763852
  0
LWPOLYLINE
  5
227
100
AcDbEntity
  8
0
100
AcDbPolyline
 62
253
  6
CONTINUOUS
 90
22
 70
0
 10
-8.4753611301
 20
22.0277763852
 10
-8.5356489601
 20
21.9877953114
 10
-8.5954394913
 20
21.9433267286
 10
-8.6544225276
 20
21.8945830078
 10
-8.7122765064
 20
21.8417903041
 10
-8.7687177658
 20
21.7852096486
 10
-8.8235015353
 20
21.7251344281
 10
-8.8763479927
 20
21.661850324
 10
-8.9269792337
 20
21.5956642652
 10
-8.975168585
 20
21.5269249066
 10
-9.0206683805
 20
21.4559676969
 10
-9.063242769
 20
21.3831332722
 10
-9.1027042993
 20
21.3087952892
 10
-9.1388522148
 20
21.2333155105
 10
-9.1714978436
 20
21.1570595881
 10
-9.2004978075
 20
21.0804159215
 10
-9.2257043225
 20
21.0037651711
 10
-9.2469879736
 20
20.9274732583
 10
-9.2642599135
 20
20.851907408
 10
-9.277435788
 20
20.7774355975
 10
-9.2864391178
 20
20.7044244342
 10
-9.291221861
 20
20.6332324521
  0
LWPOLYLINE
  5
228
100
AcDbEntity
  8
0
100
AcDbPolyline
 62
253
  6
CONTINUOUS
 90
16
 70
0
 10
5.4574679567
 20
-21.9738129547
 10
5.4960800554
 20
-21.9912034505
 10
5.5375053465
 20
-22.0061499913
 10
5.581342174
 20
-22.0185076564
 10
5.6271654997
 20
-22.0281566271
 10
5.6745310245
 20
-22.0350033478
 10
5.7229794963
 20
-22.0389814332
 10
5.7720411629
 20
-22.0400523122
 10
5.8212403264
 20
-22.0382056016
 10
5.870099956
 20
-22.0334592069
 10
5.9181463129
 20
-22.0258591487
 10
5.9649135436
 20
-22.0154791167
 10
6.009948197
 20
-22.0024197546
 10
6.0528136211
 20
-21.986807685
 10
6.0930941962
 20
-21.9687942812
 10
6.1303993652
 20
-21.9485541995
  0
LWPOLYLINE
  5
229
100
AcDbEntity
  8
0
100
AcDbPolyline
 62
7
  6
CONTINUOUS
 90
12
 70
0
 10
5.7196729658
 20
-22.48894881
 10
5.7758702399
 20
-22.5146378245
 10
5.8391989763
 20
-22.5372513756
 10
5.9049530645
 20
-22.5543342086
 10
5.9727272261
 20
-22.5657015277
 10
6.042058258
 20
-22.5712068718
 10
6.1129618697
 20
-22.5707371981
 10
6.1851147688
 20
-22.5641414344
 10
6.2581233233
 20
-22.5513204493
 10
6.3320651757
 20
-22.5320687835
 10
6.406820308
 20
-22.5061449887
 10
6.4885612662
 20
-22.4702399222
  0
LINE
  5
22A
100
AcDbEntity
  8
0
100
AcDbLine
 62
7
  6
CONTINUOUS
 10
5.7196349749
 20
-22.4889353454
 11
5.7195115138
 21
-22.4888726289
  0
LWPOLYLINE
  5
22B
100
AcDbEntity
  8
0
100
AcDbPolyline
 62
253
  6
CONTINUOUS
 90
12
 70
0
 10
5.7195115138
 20
-22.4888726289
 10
5.6782501945
 20
-22.4646046016
 10
5.6399030232
 20
-22.4351923877
 10
5.6047973559
 20
-22.4008535347
 10
5.5730924772
 20
-22.3617527888
 10
5.5449629221
 20
-22.3180949906
 10
5.5205423768
 20
-22.2700982828
 10
5.4999370616
 20
-22.2179925341
 10
5.483256638
 20
-22.162030353
 10
5.47058451
 20
-22.1024828552
 10
5.4619748425
 20
-22.0396412158
 10
5.4574679543
 20
-21.9738129504
  0
LWPOLYLINE
  5
22C
100
AcDbEntity
  8
0
100
AcDbPolyline
 62
7
  6
CONTINUOUS
 90
10
 70
0
 10
-9.0597213428
 20
-13.9553892308
 10
-7.5832771799
 20
-14.9115082449
 10
-5.9973619999
 20
-15.9099466112
 10
-4.385585263
 20
-16.8957644362
 10
-2.7483071412
 20
-17.8687365282
 10
-1.0858917936
 20
-18.8286433581
 10
0.601282925
 20
-19.7752745101
 10
2.3128229702
 20
-20.7084261052
 10
4.0483254056
 20
-21.6278972083
 10
5.7195084543
 20
-22.4888710741
  0
LWPOLYLINE
  5
22D
100
AcDbEntity
  8
0
100
AcDbPolyline
 62
253
  6
CONTINUOUS
 90
31
 70
0
 10
-9.2912218522
 20
-13.4581042803
 10
-8.8446030168
 20
-13.7511391724
 10
-8.395981964
 20
-14.0429634533
 10
-7.9453690649
 20
-14.3335733482
 10
-7.4928808821
 20
-14.6228975166
 10
-7.0384226149
 20
-14.911000368
 10
-6.5816831895
 20
-15.1980794574
 10
-6.1225197914
 20
-15.4842212338
 10
-5.6610862159
 20
-15.7693266314
 10
-5.1975136768
 20
-16.0533135419
 10
-4.731841711
 20
-16.3361579407
 10
-4.2640470761
 20
-16.6178740741
 10
-3.7941689988
 20
-16.898438433
 10
-3.3221509518
 20
-17.1778846775
 10
-2.8480658472
 20
-17.4561694357
 10
-2.3721505246
 20
-17.7331556212
 10
-1.8947252285
 20
-18.0086628562
 10
-1.4154956169
 20
-18.2828673744
 10
-0.9337707168
 20
-18.5561635487
 10
-0.450471136
 20
-18.8280286927
 10
0.0353100925
 20
-19.0989742749
 10
0.5270579
 20
-19.3709145001
 10
1.023980821
 20
-19.643358803
 10
1.5269444453
 20
-19.9167326786
 10
2.0420384608
 20
-20.1942513297
 10
2.569555562
 20
-20.4759218144
 10
3.109440221
 20
-20.7615668261
 10
3.6674093376
 20
-21.0540302524
 10
4.2455323176
 20
-21.354146316
 10
4.8421509188
 20
-21.6607897632
 10
5.4574679551
 20
-21.9738129444
  0
LINE
  5
22E
100
AcDbEntity
  8
0
100
AcDbLine
 62
7
  6
CONTINUOUS
 10
-9.0598218709
 20
-13.9553232072
 11
-9.0597200186
 21
-13.9553901003
  0
LWPOLYLINE
  5
22F
100
AcDbEntity
  8
0
100
AcDbPolyline
 62
253
  6
CONTINUOUS
 90
8
 70
0
 10
-9.2912122194
 20
-13.4580989931
 10
-9.3217570199
 20
-13.4355593804
 10
-9.3483590159
 20
-13.4112281502
 10
-9.3707602817
 20
-13.3853412114
 10
-9.388743621
 20
-13.3581495568
 10
-9.4021346722
 20
-13.3299168289
 10
-9.4108035994
 20
-13.3009167642
 10
-9.4147484939
 20
-13.2695413499
  0
LINE
  5
230
100
AcDbEntity
  8
0
100
AcDbLine
 62
7
  6
CONTINUOUS
 10
-4.1428690925
 20
22.5512533162
 11
-4.3231037409
 21
22.1370713068
  0
LINE
  5
231
100
AcDbEntity
  8
0
100
AcDbLine
 62
253
  6
CONTINUOUS
 10
-1.4670626908
 20
-11.0818482039
 11
-2.1984424314
 21
-11.1268377698
  0
LINE
  5
232
100
AcDbEntity
  8
0
100
AcDbLine
 62
253
  6
CONTINUOUS
 10
-2.1984424314
 20
-11.1268377698
 11
-2.5644297199
 21
-11.1480788348
  0
LWPOLYLINE
  5
233
100
AcDbEntity
  8
0
100
AcDbPolyline
 62
253
  6
CONTINUOUS
 90
29
 70
0
 10
-2.5644297199
 20
-11.1480788348
 10
-2.5655223869
 20
-11.1481377608
 10
-2.5666233057
 20
-11.1481658634
 10
-2.5677325246
 20
-11.1481632641
 10
-2.5688500922
 20
-11.1481300844
 10
-2.569976057
 20
-11.1480664458
 10
-2.5711104673
 20
-11.1479724698
 10
-2.5722533718
 20
-11.1478482779
 10
-2.5734048189
 20
-11.1476939916
 10
-2.574564857
 20
-11.1475097323
 10
-2.5757335346
 20
-11.1472956217
 10
-2.5769109002
 20
-11.147051781
 10
-2.5780970023
 20
-11.146778332
 10
-2.5792918893
 20
-11.1464753959
 10
-2.5803345973
 20
-11.1461889997
 10
-2.581383946
 20
-11.1458800627
 10
-2.5824399414
 20
-11.1455481007
 10
-2.5835025892
 20
-11.1451926296
 10
-2.5845718953
 20
-11.1448131653
 10
-2.5856478657
 20
-11.1444092237
 10
-2.5867305061
 20
-11.1439803206
 10
-2.5878198225
 20
-11.1435259719
 10
-2.5889158207
 20
-11.1430456936
 10
-2.5900185065
 20
-11.1425390014
 10
-2.5911278858
 20
-11.1420054113
 10
-2.5922439646
 20
-11.1414444392
 10
-2.5933667485
 20
-11.1408556009
 10
-2.5944962436
 20
-11.1402384123
 10
-2.5956324557
 20
-11.1395923892
  0
LWPOLYLINE
  5
234
100
AcDbEntity
  8
0
100
AcDbPolyline
 62
253
  6
CONTINUOUS
 90
55
 70
0
 10
-1.2902470295
 20
-11.9839421069
 10
-1.294936296
 20
-11.9812147915
 10
-1.2995872791
 20
-11.9783443929
 10
-1.3042118441
 20
-11.9753266357
 10
-1.3088218563
 20
-11.9721572449
 10
-1.313429181
 20
-11.9688319453
 10
-1.3180432891
 20
-11.9653471188
 10
-1.322664073
 20
-11.9617017754
 10
-1.3272890307
 20
-11.9578955824
 10
-1.3319156603
 20
-11.9539282067
 10
-1.3365414597
 20
-11.9497993155
 10
-1.3411630928
 20
-11.9455093115
 10
-1.345773886
 20
-11.9410615398
 10
-1.3503663318
 20
-11.9364600813
 10
-1.3549329224
 20
-11.9317090168
 10
-1.3594661502
 20
-11.9268124268
 10
-1.3632116502
 20
-11.9226255638
 10
-1.3669166947
 20
-11.9183539354
 10
-1.3705692108
 20
-11.9140110015
 10
-1.3741603104
 20
-11.9096062042
 10
-1.377693847
 20
-11.9051329142
 10
-1.381176859
 20
-11.9005804843
 10
-1.3846140717
 20
-11.8959411059
 10
-1.3880009576
 20
-11.8912183249
 10
-1.3913306758
 20
-11.8864185257
 10
-1.3945963855
 20
-11.8815480925
 10
-1.3977912458
 20
-11.8766134098
 10
-1.4009084159
 20
-11.871620862
 10
-1.403941782
 20
-11.8665771403
 10
-1.4068881383
 20
-11.8614901631
 10
-1.409745006
 20
-11.8563681555
 10
-1.4125099064
 20
-11.851219343
 10
-1.4151803606
 20
-11.8460519507
 10
-1.41775389
 20
-11.8408742038
 10
-1.420229423
 20
-11.8356910945
 10
-1.422611517
 20
-11.8304946822
 10
-1.4249061367
 20
-11.8252737933
 10
-1.4271169983
 20
-11.820022279
 10
-1.4292388233
 20
-11.8147540904
 10
-1.4312640845
 20
-11.8094882035
 10
-1.4335584566
 20
-11.803195027
 10
-1.4357026561
 20
-11.7969420702
 10
-1.4376964012
 20
-11.7907389129
 10
-1.4395394103
 20
-11.7845951349
 10
-1.4412314015
 20
-11.778520316
 10
-1.4427724436
 20
-11.7725226483
 10
-1.4441640069
 20
-11.7666047723
 10
-1.4454079123
 20
-11.7607679407
 10
-1.4465059806
 20
-11.7550134061
 10
-1.4474600327
 20
-11.7493424214
 10
-1.4482712586
 20
-11.7437539818
 10
-1.4489383246
 20
-11.7382380537
 10
-1.4494592666
 20
-11.732782346
 10
-1.44983212
 20
-11.7273745676
 10
-1.4500549204
 20
-11.7220024274
  0
LWPOLYLINE
  5
235
100
AcDbEntity
  8
0
100
AcDbPolyline
 62
253
  6
CONTINUOUS
 90
29
 70
0
 10
-2.5956324557
 20
-11.1395923892
 10
-2.5969774768
 20
-11.1387981356
 10
-2.5983176951
 20
-11.1379776379
 10
-2.5996532354
 20
-11.1371309468
 10
-2.6009842225
 20
-11.1362581129
 10
-2.6023107811
 20
-11.1353591867
 10
-2.6036330361
 20
-11.1344342188
 10
-2.604951112
 20
-11.1334832599
 10
-2.6062651338
 20
-11.1325063604
 10
-2.6075752262
 20
-11.1315035711
 10
-2.608881514
 20
-11.1304749425
 10
-2.6101841218
 20
-11.1294205252
 10
-2.6114831745
 20
-11.1283403697
 10
-2.6127787969
 20
-11.1272345267
 10
-2.6138989383
 20
-11.1262553307
 10
-2.6150163601
 20
-11.1252565543
 10
-2.6161308257
 20
-11.1242378732
 10
-2.6172420983
 20
-11.1231989634
 10
-2.6183499412
 20
-11.1221395005
 10
-2.6194541178
 20
-11.1210591603
 10
-2.6205543913
 20
-11.1199576187
 10
-2.621650525
 20
-11.1188345514
 10
-2.6227422823
 20
-11.1176896342
 10
-2.6238294264
 20
-11.116522543
 10
-2.6249117207
 20
-11.1153329534
 10
-2.6259889284
 20
-11.1141205413
 10
-2.6270608128
 20
-11.1128849825
 10
-2.6281271373
 20
-11.1116259528
 10
-2.6291876651
 20
-11.1103431279
  0
LWPOLYLINE
  5
236
100
AcDbEntity
  8
0
100
AcDbPolyline
 62
253
  6
CONTINUOUS
 90
29
 70
0
 10
-3.7933017854
 20
-10.4362943862
 10
-3.7946320646
 20
-10.4354885149
 10
-3.795957394
 20
-10.4346565632
 10
-3.7972778974
 20
-10.433798581
 10
-3.7985936985
 20
-10.4329146186
 10
-3.7999049211
 20
-10.4320047259
 10
-3.801211689
 20
-10.4310689531
 10
-3.802514126
 20
-10.4301073502
 10
-3.8038123559
 20
-10.4291199674
 10
-3.8051065025
 20
-10.4281068546
 10
-3.8063966896
 20
-10.4270680622
 10
-3.8076830409
 20
-10.42600364
 10
-3.8089656802
 20
-10.4249136381
 10
-3.8102447313
 20
-10.4237981068
 10
-3.811350383
 20
-10.4228106418
 10
-3.8124531977
 20
-10.4218037156
 10
-3.8135529407
 20
-10.4207770047
 10
-3.8146493772
 20
-10.419730186
 10
-3.8157422724
 20
-10.418662936
 10
-3.8168313915
 20
-10.4175749314
 10
-3.8179164997
 20
-10.4164658488
 10
-3.8189973623
 20
-10.415335365
 10
-3.8200737445
 20
-10.4141831565
 10
-3.8211454114
 20
-10.4130089
 10
-3.8222121282
 20
-10.4118122722
 10
-3.8232736603
 20
-10.4105929497
 10
-3.8243297728
 20
-10.4093506093
 10
-3.8253802309
 20
-10.4080849274
 10
-3.8264247998
 20
-10.4067955809
  0
LWPOLYLINE
  5
237
100
AcDbEntity
  8
0
100
AcDbPolyline
 62
253
  6
CONTINUOUS
 90
11
 70
0
 10
-9.2912218433
 20
-13.4581042701
 10
-9.2864391004
 20
-13.5240918222
 10
-9.2774357698
 20
-13.5871607648
 10
-9.2642598941
 20
-13.6469991236
 10
-9.2469879535
 20
-13.7033028389
 10
-9.2257043028
 20
-13.7558002478
 10
-9.2004977883
 20
-13.8042507626
 10
-9.1714978245
 20
-13.8484111233
 10
-9.1388521957
 20
-13.8880550461
 10
-9.1027042804
 20
-13.9229956796
 10
-9.0598218709
 20
-13.9553232072
  0
LWPOLYLINE
  5
238
100
AcDbEntity
  8
0
100
AcDbPolyline
 62
253
  6
CONTINUOUS
 90
8
 70
0
 10
-9.6065558054
 20
4.0140774533
 10
-9.6047608262
 20
3.9720353797
 10
-9.5984693833
 20
3.9331286865
 10
-9.5881138137
 20
3.8973334647
 10
-9.5740692111
 20
3.8646942187
 10
-9.556191322
 20
3.8354073897
 10
-9.5343633039
 20
3.809893426
 10
-9.5095384536
 20
3.788938636
  0
LWPOLYLINE
  5
239
100
AcDbEntity
  8
0
100
AcDbPolyline
 62
7
  6
CONTINUOUS
 90
13
 70
0
 10
-9.4147484939
 20
-13.2695413499
 10
-9.4143809369
 20
-13.2784166941
 10
-9.4075810088
 20
-13.3603541445
 10
-9.3948996949
 20
-13.4388275187
 10
-9.3765430439
 20
-13.5136003779
 10
-9.3527221746
 20
-13.5845915107
 10
-9.3236398113
 20
-13.6516628998
 10
-9.2895751521
 20
-13.7145046874
 10
-9.2508256161
 20
-13.7729025969
 10
-9.2077002023
 20
-13.8266665666
 10
-9.160641335
 20
-13.8754843863
 10
-9.1100807926
 20
-13.9191446052
 10
-9.0598502377
 20
-13.9552974874
  0
LINE
  5
23A
100
AcDbEntity
  8
0
100
AcDbLine
 62
253
  6
CONTINUOUS
 10
-9.7241224747
 20
4.2000743916
 11
-9.7240322549
 21
4.1943785997
  0
LWPOLYLINE
  5
23B
100
AcDbEntity
  8
0
100
AcDbPolyline
 62
7
  6
CONTINUOUS
 90
10
 70
0
 10
-9.7241225401
 20
2.9786571124
 10
-9.7184580091
 20
1.2078497957
 10
-9.70549387
 20
-0.6244791108
 10
-9.6853093868
 20
-2.4525126305
 10
-9.6579038479
 20
-4.2762114495
 10
-9.6232771136
 20
-6.0955386468
 10
-9.5814290551
 20
-7.9104582906
 10
-9.5323603934
 20
-9.7209292611
 10
-9.4760726267
 20
-11.5269057182
 10
-9.4147638719
 20
-13.2693502732
  0
LWPOLYLINE
  5
23C
100
AcDbEntity
  8
0
100
AcDbPolyline
 62
253
  6
CONTINUOUS
 90
10
 70
0
 10
-9.6065556639
 20
2.7927090528
 10
-9.6012272244
 20
1.1094611383
 10
-9.5895053992
 20
-0.5951365049
 10
-9.5711085438
 20
-2.320886551
 10
-9.5459645204
 20
-4.0544491378
 10
-9.5136740741
 20
-5.8088162566
 10
-9.4729948904
 20
-7.6230010561
 10
-9.4227738584
 20
-9.5095304057
 10
-9.3624627568
 20
-11.4547545545
 10
-9.2912218522
 20
-13.4581042803
  0
LWPOLYLINE
  5
23D
100
AcDbEntity
  8
0
100
AcDbPolyline
 62
7
  6
CONTINUOUS
 90
10
 70
0
 10
-9.4147930588
 20
20.8233128771
 10
-9.4759179607
 20
19.0120094847
 10
-9.5322210838
 20
17.1377170134
 10
-9.5813061179
 20
15.2676983177
 10
-9.6231716162
 20
13.4019991078
 10
-9.6578169342
 20
11.5406590952
 10
-9.6852417064
 20
9.6837156969
 10
-9.7054458215
 20
7.8312067663
 10
-9.7184304571
 20
5.9831712585
 10
-9.7241224747
 20
4.2000743916
  0
LWPOLYLINE
  5
23E
100
AcDbEntity
  8
0
100
AcDbPolyline
 62
253
  6
CONTINUOUS
 90
10
 70
0
 10
-9.2912218507
 20
20.6332324524
 10
-9.3573481619
 20
18.7055931399
 10
-9.4148081191
 20
16.8140602227
 10
-9.4639818951
 20
14.9584711913
 10
-9.5048098598
 20
13.1594963289
 10
-9.5382511593
 20
11.3960512336
 10
-9.5654950823
 20
9.6057319706
 10
-9.5863818241
 20
7.7680711462
 10
-9.6001917569
 20
5.9041028049
 10
-9.6065556713
 20
4.0140773599
  0
LWPOLYLINE
  5
23F
100
AcDbEntity
  8
0
100
AcDbPolyline
 62
253
  6
CONTINUOUS
 90
16
 70
0
 10
-9.6065558723
 20
2.7927091116
 10
-9.6047608265
 20
2.8371927763
 10
-9.5984689279
 20
2.8819740329
 10
-9.5881126448
 20
2.9272211179
 10
-9.5740672352
 20
2.9735041881
 10
-9.5561884912
 20
3.0204958376
 10
-9.5343595704
 20
3.0667843515
 10
-9.5093761895
 20
3.1118975899
 10
-9.4815374624
 20
3.1558939524
 10
-9.450513116
 20
3.1978592044
 10
-9.417080941
 20
3.2373378809
 10
-9.3819382671
 20
3.2741798935
 10
-9.3447082895
 20
3.3077318299
 10
-9.3057794702
 20
3.3375611834
 10
-9.2663422456
 20
3.3636035258
 10
-9.2272082606
 20
3.3857466629
  0
LINE
  5
240
100
AcDbEntity
  8
0
100
AcDbLine
 62
253
  6
CONTINUOUS
 10
6.2506146699
 20
13.5251825383
 11
8.8049189299
 21
15.0753627859
  0
LWPOLYLINE
  5
241
100
AcDbEntity
  8
0
100
AcDbPolyline
 62
253
  6
CONTINUOUS
 90
42
 70
0
 10
-2.6740371436
 20
-9.3340476687
 10
-2.6727505749
 20
-9.3339349797
 10
-2.6714518752
 20
-9.333877542
 10
-2.6701392564
 20
-9.333874032
 10
-2.66881093
 20
-9.333923126
 10
-2.6674651077
 20
-9.3340235007
 10
-2.6661000012
 20
-9.3341738324
 10
-2.6647138222
 20
-9.3343727976
 10
-2.6630682069
 20
-9.3346650236
 10
-2.661392312
 20
-9.3350219321
 10
-2.6596869738
 20
-9.3354438117
 10
-2.6579530289
 20
-9.3359309507
 10
-2.6561913138
 20
-9.3364836376
 10
-2.6544026648
 20
-9.3371021609
 10
-2.6525882282
 20
-9.3377866489
 10
-2.6507503897
 20
-9.3385365892
 10
-2.6488918445
 20
-9.3393513095
 10
-2.6470152881
 20
-9.3402301372
 10
-2.6451234157
 20
-9.3411723999
 10
-2.6432189227
 20
-9.3421774251
 10
-2.6415784722
 20
-9.3430883158
 10
-2.6399322705
 20
-9.3440443794
 10
-2.6382818582
 20
-9.3450451714
 10
-2.6366287763
 20
-9.3460902476
 10
-2.6349745653
 20
-9.3471791636
 10
-2.6333207661
 20
-9.3483114751
 10
-2.6316689194
 20
-9.3494867376
 10
-2.6300205018
 20
-9.3507045571
 10
-2.6283767331
 20
-9.3519647393
 10
-2.6267387691
 20
-9.3532671403
 10
-2.6251077654
 20
-9.3546116162
 10
-2.6234848776
 20
-9.3559980228
 10
-2.6218712615
 20
-9.3574262163
 10
-2.6202680727
 20
-9.3588960526
 10
-2.6188745027
 20
-9.3602167006
 10
-2.6174891234
 20
-9.3615719913
 10
-2.6161112573
 20
-9.3629647945
 10
-2.614740227
 20
-9.3643979804
 10
-2.6133753549
 20
-9.3658744188
 10
-2.6120159634
 20
-9.36739698
 10
-2.6106613752
 20
-9.3689685338
 10
-2.6093109127
 20
-9.3705919503
  0
LINE
  5
242
100
AcDbEntity
  8
0
100
AcDbLine
 62
253
  6
CONTINUOUS
 10
-2.6803988053
 20
-10.386847024
 11
-3.4014082452
 21
-10.4264425371
  0
LINE
  5
243
100
AcDbEntity
  8
0
100
AcDbLine
 62
253
  6
CONTINUOUS
 10
-3.4014082452
 20
-10.4264425371
 11
-3.7625043537
 21
-10.4450148493
  0
LWPOLYLINE
  5
244
100
AcDbEntity
  8
0
100
AcDbPolyline
 62
253
  6
CONTINUOUS
 90
29
 70
0
 10
-3.7625043537
 20
-10.4450148493
 10
-3.7635826602
 20
-10.4450655926
 10
-3.764669125
 20
-10.4450854493
 10
-3.765763796
 20
-10.4450745407
 10
-3.7668667208
 20
-10.4450329879
 10
-3.7679779471
 20
-10.4449609122
 10
-3.7690975227
 20
-10.4448584347
 10
-3.7702254953
 20
-10.4447256768
 10
-3.7713619125
 20
-10.4445627597
 10
-3.7725068221
 20
-10.4443698045
 10
-3.7736602719
 20
-10.4441469326
 10
-3.7748223095
 20
-10.443894265
 10
-3.7759929826
 20
-10.4436119231
 10
-3.777172339
 20
-10.443300028
 10
-3.7782015043
 20
-10.4430058136
 10
-3.7792372336
 20
-10.4426890082
 10
-3.780279533
 20
-10.4423491275
 10
-3.7813284084
 20
-10.4419856872
 10
-3.7823838659
 20
-10.4415982029
 10
-3.7834459115
 20
-10.4411861902
 10
-3.7845145513
 20
-10.4407491649
 10
-3.7855897914
 20
-10.4402866426
 10
-3.7866716377
 20
-10.439798139
 10
-3.7877600963
 20
-10.4392831696
 10
-3.7888551733
 20
-10.4387412503
 10
-3.7899568746
 20
-10.4381718967
 10
-3.7910652064
 20
-10.4375746243
 10
-3.7921801746
 20
-10.436948949
 10
-3.7933017854
 20
-10.4362943862
  0
LWPOLYLINE
  5
245
100
AcDbEntity
  8
0
100
AcDbPolyline
 62
253
  6
CONTINUOUS
 90
55
 70
0
 10
-1.3404510106
 20
-9.9877722582
 10
-1.3357540928
 20
-9.9905019427
 10
-1.3310964364
 20
-9.9933741255
 10
-1.3264661036
 20
-9.9963931144
 10
-1.3218511566
 20
-9.9995632172
 10
-1.3172396575
 20
-10.0028887417
 10
-1.3126220794
 20
-10.0063733357
 10
-1.3079985393
 20
-10.0100180077
 10
-1.3033715653
 20
-10.0138231063
 10
-1.2987436855
 20
-10.01778898
 10
-1.2941174278
 20
-10.0219159773
 10
-1.2894961572
 20
-10.0262037127
 10
-1.2848865866
 20
-10.0306488628
 10
-1.2802962662
 20
-10.0352473702
 10
-1.2757327457
 20
-10.0399951775
 10
-1.2712035752
 20
-10.0448882272
 10
-1.2674622415
 20
-10.0490719371
 10
-1.2637621059
 20
-10.0533402243
 10
-1.2601152694
 20
-10.0576796208
 10
-1.2565306499
 20
-10.0620806776
 10
-1.2530044327
 20
-10.0665500201
 10
-1.2495296201
 20
-10.0710982926
 10
-1.2461015162
 20
-10.0757333104
 10
-1.2427246341
 20
-10.0804515732
 10
-1.2394057885
 20
-10.0852467518
 10
-1.2361517945
 20
-10.0901125168
 10
-1.232969467
 20
-10.095042539
 10
-1.2298656208
 20
-10.1000304891
 10
-1.2268463417
 20
-10.1050697115
 10
-1.2239147976
 20
-10.1101522456
 10
-1.2210734275
 20
-10.1152698042
 10
-1.2183246701
 20
-10.1204141003
 10
-1.2156709641
 20
-10.1255768468
 10
-1.2131147484
 20
-10.1307497567
 10
-1.210657063
 20
-10.1359277834
 10
-1.2082933525
 20
-10.1411188423
 10
-1.2060176628
 20
-10.1463340895
 10
-1.2038262629
 20
-10.1515796829
 10
-1.2017243143
 20
-10.1568417891
 10
-1.1997192015
 20
-10.1621015767
 10
-1.1974491982
 20
-10.1683875832
 10
-1.1953295001
 20
-10.1746336136
 10
-1.1933603347
 20
-10.1808301476
 10
-1.1915419296
 20
-10.186967665
 10
-1.1898745127
 20
-10.1930366458
 10
-1.1883579714
 20
-10.1990289347
 10
-1.1869908332
 20
-10.2049418367
 10
-1.1857712856
 20
-10.2107740216
 10
-1.1846975161
 20
-10.2165241592
 10
-1.1837677121
 20
-10.2221909195
 10
-1.1829807001
 20
-10.227775257
 10
-1.1823378632
 20
-10.2332872648
 10
-1.1818412236
 20
-10.2387393208
 10
-1.1814928033
 20
-10.244143803
 10
-1.1812946246
 20
-10.2495130891
  0
LWPOLYLINE
  5
246
100
AcDbEntity
  8
0
100
AcDbPolyline
 62
253
  6
CONTINUOUS
 90
44
 70
0
 10
-3.8264247998
 20
-10.4067955809
 10
-3.8277361612
 20
-10.4051443555
 10
-3.8290170733
 20
-10.4034757568
 10
-3.8302700661
 20
-10.4017877204
 10
-3.8314976699
 20
-10.400078182
 10
-3.8327024146
 20
-10.3983450771
 10
-3.8338868304
 20
-10.3965863415
 10
-3.8350534474
 20
-10.3947999107
 10
-3.8362042889
 20
-10.3929841471
 10
-3.837339351
 20
-10.3911391201
 10
-3.8384581228
 20
-10.3892653259
 10
-3.8395600937
 20
-10.3873632607
 10
-3.8406447529
 20
-10.3854334206
 10
-3.8417115896
 20
-10.3834763018
 10
-3.8427600931
 20
-10.3814924004
 10
-3.8437896205
 20
-10.3794825145
 10
-3.8447990002
 20
-10.3774486497
 10
-3.8457869287
 20
-10.3753931132
 10
-3.8467521022
 20
-10.3733182124
 10
-3.8476932173
 20
-10.3712262549
 10
-3.8486089702
 20
-10.3691195478
 10
-3.8494980572
 20
-10.3670003987
 10
-3.8503592177
 20
-10.3648710887
 10
-3.8511913624
 20
-10.3627337939
 10
-3.8519934447
 20
-10.3605906643
 10
-3.8527644183
 20
-10.3584438497
 10
-3.8535032368
 20
-10.3562955002
 10
-3.8542088537
 20
-10.3541477655
 10
-3.8548802225
 20
-10.3520027958
 10
-3.8555163437
 20
-10.3498626071
 10
-3.8561164044
 20
-10.3477286808
 10
-3.8566796387
 20
-10.3456023646
 10
-3.8572052806
 20
-10.343485006
 10
-3.8576925641
 20
-10.3413779528
 10
-3.8581407232
 20
-10.3392825525
 10
-3.858548992
 20
-10.3372001528
 10
-3.8588727679
 20
-10.3353894289
 10
-3.8591640962
 20
-10.3335885036
 10
-3.8594216566
 20
-10.3317961903
 10
-3.8596441291
 20
-10.3300113025
 10
-3.8598301934
 20
-10.3282326533
 10
-3.8599785295
 20
-10.3264590562
 10
-3.8600878172
 20
-10.3246893245
 10
-3.8601567362
 20
-10.3229222715
  0
LWPOLYLINE
  5
247
100
AcDbEntity
  8
0
100
AcDbPolyline
 62
253
  6
CONTINUOUS
 90
42
 70
0
 10
-2.6291876651
 20
-11.1103431279
 10
-2.6305073615
 20
-11.1086774047
 10
-2.6317969553
 20
-11.1069964007
 10
-2.633059
 20
-11.1052979021
 10
-2.6342960487
 20
-11.1035796951
 10
-2.6355106548
 20
-11.101839566
 10
-2.6367053715
 20
-11.1000753009
 10
-2.6378827521
 20
-11.0982846862
 10
-2.6392370269
 20
-11.0961601141
 10
-2.6405702471
 20
-11.0939975582
 10
-2.6418814795
 20
-11.0917979125
 10
-2.6431697905
 20
-11.0895620713
 10
-2.6444342467
 20
-11.0872909286
 10
-2.6456739148
 20
-11.0849853785
 10
-2.646887676
 20
-11.0826467341
 10
-2.6480736705
 20
-11.0802779839
 10
-2.6492298535
 20
-11.0778825353
 10
-2.6503541797
 20
-11.0754637957
 10
-2.6514446042
 20
-11.0730251724
 10
-2.6524990819
 20
-11.0705700729
 10
-2.6533727937
 20
-11.0684551419
 10
-2.6542175132
 20
-11.0663325807
 10
-2.6550321604
 20
-11.0642043605
 10
-2.6558156552
 20
-11.0620724529
 10
-2.6565669177
 20
-11.059938829
 10
-2.6572848678
 20
-11.0578054604
 10
-2.6579684256
 20
-11.0556743183
 10
-2.6586165455
 20
-11.0535472661
 10
-2.6592283206
 20
-11.0514257353
 10
-2.6598028782
 20
-11.0493110494
 10
-2.6603393457
 20
-11.0472045318
 10
-2.6608368505
 20
-11.0451075061
 10
-2.6612945202
 20
-11.0430212956
 10
-2.661711482
 20
-11.0409472238
 10
-2.6620421145
 20
-11.0391430943
 10
-2.6623395471
 20
-11.0373482699
 10
-2.6626024152
 20
-11.0355617487
 10
-2.6628293537
 20
-11.0337825287
 10
-2.6630189979
 20
-11.0320096081
 10
-2.6631699829
 20
-11.0302419849
 10
-2.6632809439
 20
-11.0284786573
 10
-2.6633505161
 20
-11.0267186232
  0
LWPOLYLINE
  5
248
100
AcDbEntity
  8
0
100
AcDbPolyline
 62
253
  6
CONTINUOUS
 90
8
 70
0
 10
-9.7240322549
 20
4.1943785997
 10
-9.7207455452
 20
4.1664116348
 10
-9.7127629295
 20
4.1387568501
 10
-9.7001598948
 20
4.111675727
 10
-9.683055609
 20
4.0854243234
 10
-9.6616118012
 20
4.0602508604
 10
-9.6360312395
 20
4.0363933741
 10
-9.6065558054
 20
4.0140774533
  0
LWPOLYLINE
  5
249
100
AcDbEntity
  8
0
100
AcDbPolyline
 62
253
  6
CONTINUOUS
 90
31
 70
0
 10
-3.7256810132
 20
8.3320419119
 10
-3.7311750255
 20
8.324635518
 10
-3.7368764199
 20
8.3173998881
 10
-3.742789192
 20
8.3103359861
 10
-3.7489173374
 20
8.3034447762
 10
-3.7552648515
 20
8.2967272226
 10
-3.76183573
 20
8.2901842894
 10
-3.7686339685
 20
8.2838169407
 10
-3.7756635625
 20
8.2776261408
 10
-3.7829285075
 20
8.2716128537
 10
-3.7904327992
 20
8.2657780437
 10
-3.7981788424
 20
8.2601234855
 10
-3.8061626797
 20
8.2546541973
 10
-3.814378763
 20
8.2493760079
 10
-3.822821544
 20
8.2442947462
 10
-3.8314854747
 20
8.2394162409
 10
-3.8403650069
 20
8.2347463208
 10
-3.8494545924
 20
8.2302908149
 10
-3.8587486832
 20
8.2260555519
 10
-3.8682417311
 20
8.2220463607
 10
-3.8779281879
 20
8.2182690701
 10
-3.8878041203
 20
8.2147293141
 10
-3.897872054
 20
8.2114319474
 10
-3.9081361293
 20
8.2083816299
 10
-3.9186004868
 20
8.2055830216
 10
-3.9292692669
 20
8.2030407823
 10
-3.9401466101
 20
8.2007595719
 10
-3.9512366567
 20
8.1987440504
 10
-3.9625435472
 20
8.1969988777
 10
-3.9740714221
 20
8.1955287136
 10
-3.9858244219
 20
8.1943382181
  0
LWPOLYLINE
  5
24A
100
AcDbEntity
  8
0
100
AcDbPolyline
 62
253
  6
CONTINUOUS
 90
43
 70
0
 10
-1.0868800823
 20
9.0711084912
 10
-1.0860007344
 20
9.0719911526
 10
-1.0850948408
 20
9.0728228926
 10
-1.0841621407
 20
9.073605951
 10
-1.0832023734
 20
9.0743425676
 10
-1.0822152781
 20
9.075034982
 10
-1.0812005942
 20
9.0756854341
 10
-1.0799463539
 20
9.0764131187
 10
-1.0786525466
 20
9.0770837467
 10
-1.0773197084
 20
9.0776974616
 10
-1.0759483754
 20
9.0782544074
 10
-1.0745390835
 20
9.0787547277
 10
-1.0730927372
 20
9.0791984998
 10
-1.0716117136
 20
9.0795855351
 10
-1.0700987581
 20
9.0799155783
 10
-1.0685566161
 20
9.0801883741
 10
-1.066988033
 20
9.0804036674
 10
-1.0653956062
 20
9.0805613104
 10
-1.0637813409
 20
9.080661585
 10
-1.0621470941
 20
9.0807048809
 10
-1.060494723
 20
9.0806915874
 10
-1.0588260847
 20
9.0806220941
 10
-1.0571429731
 20
9.0804967515
 10
-1.0554469296
 20
9.0803157535
 10
-1.0537394322
 20
9.0800792553
 10
-1.0520219591
 20
9.0797874118
 10
-1.0502959883
 20
9.0794403781
 10
-1.048563244
 20
9.0790384242
 10
-1.046826434
 20
9.0785822807
 10
-1.0450885122
 20
9.0780727933
 10
-1.0433524323
 20
9.0775108076
 10
-1.0416211483
 20
9.0768971692
 10
-1.0398972012
 20
9.0762326233
 10
-1.0381814808
 20
9.0755175128
 10
-1.0364744642
 20
9.0747520804
 10
-1.0347766286
 20
9.0739365686
 10
-1.0330884509
 20
9.0730712198
 10
-1.0316890317
 20
9.0723118287
 10
-1.0302949696
 20
9.0715159042
 10
-1.0289045832
 20
9.0706813534
 10
-1.0275161913
 20
9.0698060834
 10
-1.0261281128
 20
9.0688880015
 10
-1.0247386663
 20
9.0679250146
  0
LINE
  5
24B
100
AcDbEntity
  8
0
100
AcDbLine
 62
253
  6
CONTINUOUS
 10
-1.2308522083
 20
8.9286908739
 11
-1.0868800823
 21
9.0711084912
  0
LINE
  5
24C
100
AcDbEntity
  8
0
100
AcDbLine
 62
253
  6
CONTINUOUS
 10
-1.5851299876
 20
8.5794940742
 11
-1.4334085949
 21
8.7290070186
  0
LWPOLYLINE
  5
24D
100
AcDbEntity
  8
0
100
AcDbPolyline
 62
7
  6
CONTINUOUS
 90
13
 70
0
 10
-9.4872704438
 20
3.4044595089
 10
-9.5088087388
 20
3.3903486288
 10
-9.5432381513
 20
3.3642311915
 10
-9.5753550813
 20
3.3351680029
 10
-9.604892525
 20
3.3033679454
 10
-9.6316095585
 20
3.2690578041
 10
-9.655351654
 20
3.2323733281
 10
-9.6758525187
 20
3.1936456089
 10
-9.6929206996
 20
3.1531724455
 10
-9.7064486952
 20
3.1110730031
 10
-9.7162581014
 20
3.0676426363
 10
-9.7221782876
 20
3.0233625647
 10
-9.7241225403
 20
2.9786571123
  0
LINE
  5
24E
100
AcDbEntity
  8
0
100
AcDbLine
 62
7
  6
CONTINUOUS
 10
-9.4872201541
 20
3.4044906393
 11
-9.2018482942
 21
3.5810750341
  0
LINE
  5
24F
100
AcDbEntity
  8
0
100
AcDbLine
 62
253
  6
CONTINUOUS
 10
-9.2272082273
 20
3.3857466831
 11
-9.0630314798
 21
3.4873371189
  0
LINE
  5
250
100
AcDbEntity
  8
0
100
AcDbLine
 62
253
  6
CONTINUOUS
 10
6.6132955125
 20
12.9187795572
 11
9.1897060174
 21
14.4823758511
  0
LWPOLYLINE
  5
251
100
AcDbEntity
  8
0
100
AcDbPolyline
 62
253
  6
CONTINUOUS
 90
9
 70
0
 10
-9.4872201541
 20
3.4044906393
 10
-9.469547434
 20
3.4140522751
 10
-9.4402351356
 20
3.4247590984
 10
-9.4085322502
 20
3.4305699645
 10
-9.374790691
 20
3.4314146454
 10
-9.3393901862
 20
3.427281577
 10
-9.3027238308
 20
3.4182172662
 10
-9.2651921372
 20
3.4043213149
 10
-9.2272082603
 20
3.3857466627
  0
LWPOLYLINE
  5
252
100
AcDbEntity
  8
0
100
AcDbPolyline
 62
253
  6
CONTINUOUS
 90
42
 70
0
 10
-3.8709847797
 20
-8.6303329689
 10
-3.8697154073
 20
-8.6302302297
 10
-3.8684340551
 20
-8.6301828341
 10
-3.8671389605
 20
-8.6301894722
 10
-3.8658283606
 20
-8.6302488336
 10
-3.8645004929
 20
-8.6303596083
 10
-3.8631535944
 20
-8.6305204861
 10
-3.8617859026
 20
-8.6307301569
 10
-3.8601622339
 20
-8.6310350874
 10
-3.8585086879
 20
-8.6314049287
 10
-3.856826089
 20
-8.6318399625
 10
-3.8551152614
 20
-8.6323404702
 10
-3.8533770292
 20
-8.6329067334
 10
-3.8516122166
 20
-8.6335390335
 10
-3.8498219538
 20
-8.6342374898
 10
-3.8480085942
 20
-8.6350015711
 10
-3.8461747972
 20
-8.6358305841
 10
-3.844323222
 20
-8.6367238354
 10
-3.842456528
 20
-8.6376806316
 10
-3.8405773745
 20
-8.6387002792
 10
-3.8389587448
 20
-8.6396237585
 10
-3.837334435
 20
-8.6405924488
 10
-3.8357059649
 20
-8.6416058938
 10
-3.8340748546
 20
-8.6426636372
 10
-3.8324426239
 20
-8.6437652229
 10
-3.8308107928
 20
-8.6449101946
 10
-3.8291808812
 20
-8.6460980962
 10
-3.8275543458
 20
-8.647328522
 10
-3.8259323894
 20
-8.648601269
 10
-3.8243161519
 20
-8.6499161848
 10
-3.8227067729
 20
-8.6512731169
 10
-3.8211053921
 20
-8.6526719128
 10
-3.8195131492
 20
-8.6541124202
 10
-3.8179311839
 20
-8.6555944866
 10
-3.8165560522
 20
-8.6569257625
 10
-3.8151889928
 20
-8.6582916157
 10
-3.8138293366
 20
-8.6596949216
 10
-3.8124764144
 20
-8.6611385557
 10
-3.8111295572
 20
-8.6626253934
 10
-3.8097880959
 20
-8.6641583101
 10
-3.8084513614
 20
-8.6657401812
 10
-3.8071186847
 20
-8.6673738821
  0
LINE
  5
253
100
AcDbEntity
  8
0
100
AcDbLine
 62
253
  6
CONTINUOUS
 10
-2.0466541444
 20
-10.0420238877
 11
-1.4762702604
 21
-10.7161209828
  0
LINE
  5
254
100
AcDbEntity
  8
0
100
AcDbLine
 62
253
  6
CONTINUOUS
 10
-2.6093109127
 20
-9.3705919503
 11
-2.0466541444
 21
-10.0420238877
  0
LINE
  5
255
100
AcDbEntity
  8
0
100
AcDbLine
 62
253
  6
CONTINUOUS
 10
-3.2520304756
 20
-9.3428012139
 11
-2.6896517966
 21
-10.0203395376
  0
LINE
  5
256
100
AcDbEntity
  8
0
100
AcDbLine
 62
253
  6
CONTINUOUS
 10
-3.8071186847
 20
-8.6673738821
 11
-3.2520304756
 21
-9.3428012139
  0
LWPOLYLINE
  5
257
100
AcDbEntity
  8
0
100
AcDbPolyline
 62
7
  6
CONTINUOUS
 90
5
 70
0
 10
-9.6945867136
 20
4.0301201907
 10
-9.7074109212
 20
4.0712340013
 10
-9.7166929682
 20
4.1135482345
 10
-9.7222875663
 20
4.1566239254
 10
-9.7241224747
 20
4.2000743929
  0
LINE
  5
258
100
AcDbEntity
  8
0
100
AcDbLine
 62
253
  6
CONTINUOUS
 10
-4.3231037409
 20
22.1370713068
 11
-4.3231037234
 21
22.075098043
  0
LWPOLYLINE
  5
259
100
AcDbEntity
  8
0
100
AcDbPolyline
 62
253
  6
CONTINUOUS
 90
55
 70
0
 10
-3.9071933188
 20
10.9422033098
 10
-3.9069663771
 20
10.9475761532
 10
-3.9065968168
 20
10.9528140322
 10
-3.9060863372
 20
10.957932022
 10
-3.9054366379
 20
10.962945198
 10
-3.904649418
 20
10.9678686352
 10
-3.9037258512
 20
10.9727142469
 10
-3.9026650086
 20
10.9774812988
 10
-3.9014654353
 20
10.9821658943
 10
-3.9001256767
 20
10.9867641371
 10
-3.8986442778
 20
10.9912721309
 10
-3.8970200387
 20
10.9956851686
 10
-3.8952527777
 20
10.9999953006
 10
-3.8933425679
 20
11.0041937665
 10
-3.8912894821
 20
11.0082718063
 10
-3.8890935935
 20
11.0122206594
 10
-3.8871556707
 20
11.0154054995
 10
-3.8851247756
 20
11.0184842736
 10
-3.8830070537
 20
11.0214467122
 10
-3.880806606
 20
11.0242849914
 10
-3.8785193546
 20
11.0270010704
 10
-3.876139177
 20
11.0295993537
 10
-3.8736613729
 20
11.0320824114
 10
-3.8710869297
 20
11.0344454734
 10
-3.8684182568
 20
11.036681935
 10
-3.8656577637
 20
11.0387851913
 10
-3.8628078599
 20
11.0407486374
 10
-3.8598709549
 20
11.0425656686
 10
-3.8568500635
 20
11.0442309309
 10
-3.8537506223
 20
11.045744075
 10
-3.8505786733
 20
11.0471060021
 10
-3.8473402583
 20
11.0483176137
 10
-3.8440414194
 20
11.0493798114
 10
-3.8406881985
 20
11.0502934965
 10
-3.837284456
 20
11.0510598491
 10
-3.8338253268
 20
11.0516811637
 10
-3.8303037641
 20
11.0521600132
 10
-3.826716091
 20
11.0524984511
 10
-3.8230721104
 20
11.0526964519
 10
-3.819384995
 20
11.0527534706
 10
-3.8149196517
 20
11.052636003
 10
-3.8104194411
 20
11.0523196373
 10
-3.8058926411
 20
11.0518092744
 10
-3.8013475296
 20
11.0511098153
 10
-3.7967923848
 20
11.050226161
 10
-3.792234434
 20
11.0491629587
 10
-3.787676703
 20
11.0479238402
 10
-3.7831211672
 20
11.0465121837
 10
-3.7785698018
 20
11.0449313674
 10
-3.7740245822
 20
11.0431847693
 10
-3.7694851932
 20
11.0412735752
 10
-3.7649421582
 20
11.0391902016
 10
-3.7603837097
 20
11.0369248727
 10
-3.7557980808
 20
11.0344678125
 10
-3.7511735042
 20
11.0318092453
  0
LWPOLYLINE
  5
25A
100
AcDbEntity
  8
0
100
AcDbPolyline
 62
253
  6
CONTINUOUS
 90
54
 70
0
 10
-0.9423031115
 20
7.2175660242
 10
-0.9401109625
 20
7.2211694299
 10
-0.9378000584
 20
7.2246061751
 10
-0.9353670876
 20
7.227888192
 10
-0.9328087384
 20
7.231027413
 10
-0.9301221992
 20
7.2340331521
 10
-0.9273066587
 20
7.2369042503
 10
-0.9243618057
 20
7.2396369302
 10
-0.921287329
 20
7.2422274147
 10
-0.9180829172
 20
7.2446719264
 10
-0.9147488018
 20
7.2469662587
 10
-0.9112873854
 20
7.2491044871
 10
-0.9077016133
 20
7.2510802578
 10
-0.9039944306
 20
7.2528872168
 10
-0.9001687828
 20
7.2545190104
 10
-0.8968937772
 20
7.2557403876
 10
-0.8935486758
 20
7.2568316734
 10
-0.8901436052
 20
7.2577888314
 10
-0.8866856224
 20
7.2586084276
 10
-0.883169507
 20
7.2592894364
 10
-0.8795869694
 20
7.2598314345
 10
-0.8759319145
 20
7.2602334681
 10
-0.8722070264
 20
7.2604924622
 10
-0.8684171835
 20
7.2606048114
 10
-0.8645672647
 20
7.2605669103
 10
-0.8606621486
 20
7.2603751534
 10
-0.8567067137
 20
7.2600259355
 10
-0.8527060568
 20
7.2595168943
 10
-0.8486661457
 20
7.2588506402
 10
-0.8445931665
 20
7.2580310268
 10
-0.8404933052
 20
7.2570619077
 10
-0.8363727475
 20
7.2559471365
 10
-0.8322376795
 20
7.2546905669
 10
-0.8280918138
 20
7.2532950308
 10
-0.8239289698
 20
7.2517592741
 10
-0.8197404937
 20
7.250081021
 10
-0.815521784
 20
7.248259595
 10
-0.8112844499
 20
7.2463007163
 10
-0.807044153
 20
7.244211704
 10
-0.8019707688
 20
7.2415427437
 10
-0.7969237237
 20
7.2387055293
 10
-0.7919110705
 20
7.2357086591
 10
-0.7869408623
 20
7.2325607314
 10
-0.782021152
 20
7.2292703446
 10
-0.7771588174
 20
7.2258452608
 10
-0.7723560366
 20
7.2222898975
 10
-0.7676138127
 20
7.2186078358
 10
-0.7629331488
 20
7.214802657
 10
-0.7583150479
 20
7.2108779424
 10
-0.7537586495
 20
7.2068343161
 10
-0.7492556391
 20
7.2026605735
 10
-0.7447958386
 20
7.1983425532
 10
-0.74036907
 20
7.1938660937
 10
-0.7359651553
 20
7.1892170333
  0
LWPOLYLINE
  5
25B
100
AcDbEntity
  8
0
100
AcDbPolyline
 62
7
  6
CONTINUOUS
 90
4
 70
0
 10
-9.6362133364
 20
3.9162607211
 10
-9.6588645203
 20
3.9524428243
 10
-9.678373949
 20
3.9904839119
 10
-9.6945867136
 20
4.0301201907
  0
LINE
  5
25C
100
AcDbEntity
  8
0
100
AcDbLine
 62
7
  6
CONTINUOUS
 10
-4.1428690925
 20
22.5512533162
 11
-4.1216654785
 21
21.9348295206
  0
LINE
  5
25D
100
AcDbEntity
  8
0
100
AcDbLine
 62
253
  6
CONTINUOUS
 10
-2.6633505161
 20
-11.0267186232
 11
-2.6803988053
 21
-10.386847024
  0
LWPOLYLINE
  5
25E
100
AcDbEntity
  8
0
100
AcDbPolyline
 62
253
  6
CONTINUOUS
 90
3
 70
0
 10
-3.8601567362
 20
-10.3229222715
 10
-3.8885130256
 20
-9.2251539644
 10
-3.9014647358
 20
-8.675521613
  0
LINE
  5
25F
100
AcDbEntity
  8
0
100
AcDbLine
 62
253
  6
CONTINUOUS
 10
-2.6896517966
 20
-10.0203395376
 11
-2.7049375459
 21
-9.3794790732
  0
LWPOLYLINE
  5
260
100
AcDbEntity
  8
0
100
AcDbPolyline
 62
253
  6
CONTINUOUS
 90
42
 70
0
 10
-3.9014647358
 20
-8.675521613
 10
-3.9014835
 20
-8.6737889729
 10
-3.9014604003
 20
-8.6720960044
 10
-3.9013963531
 20
-8.6704391181
 10
-3.9012922747
 20
-8.6688147242
 10
-3.9011490816
 20
-8.6672192333
 10
-3.9009676899
 20
-8.6656490556
 10
-3.9007490161
 20
-8.6641006016
 10
-3.9004477191
 20
-8.6623179056
 10
-3.9000967015
 20
-8.6605611891
 10
-3.8996957408
 20
-8.658831749
 10
-3.8992446142
 20
-8.6571308823
 10
-3.8987430991
 20
-8.6554598861
 10
-3.8981909728
 20
-8.6538200573
 10
-3.8975881597
 20
-8.6522129588
 10
-3.8969351715
 20
-8.6506412172
 10
-3.8962326669
 20
-8.6491077248
 10
-3.8954813048
 20
-8.6476153743
 10
-3.8946817439
 20
-8.6461670579
 10
-3.8938346429
 20
-8.6447656682
 10
-3.8930712332
 20
-8.643603969
 10
-3.8922738877
 20
-8.6424803905
 10
-3.8914431141
 20
-8.6413964515
 10
-3.89057942
 20
-8.6403536711
 10
-3.8896833132
 20
-8.639353568
 10
-3.8887553014
 20
-8.6383976611
 10
-3.8877958921
 20
-8.6374874693
 10
-3.8868055273
 20
-8.6366244543
 10
-3.8857843864
 20
-8.6358098483
 10
-3.8847325827
 20
-8.6350448264
 10
-3.8836502298
 20
-8.6343305636
 10
-3.8825374413
 20
-8.6336682351
 10
-3.8813943307
 20
-8.6330590159
 10
-3.8802210114
 20
-8.632504081
 10
-3.8791693011
 20
-8.6320641519
 10
-3.8780924376
 20
-8.6316685816
 10
-3.876988309
 20
-8.6313192679
 10
-3.8758548037
 20
-8.6310181085
 10
-3.8746898098
 20
-8.6307670011
 10
-3.8734912157
 20
-8.6305678436
 10
-3.8722569096
 20
-8.6304225336
 10
-3.8709847797
 20
-8.6303329689
  0
LWPOLYLINE
  5
261
100
AcDbEntity
  8
0
100
AcDbPolyline
 62
253
  6
CONTINUOUS
 90
44
 70
0
 10
-2.7049375459
 20
-9.3794790732
 10
-2.7049559452
 20
-9.3777693304
 10
-2.7049322658
 20
-9.3760971363
 10
-2.7048673607
 20
-9.3744591645
 10
-2.7047620832
 20
-9.3728520882
 10
-2.7046172864
 20
-9.3712725808
 10
-2.7044338234
 20
-9.3697173157
 10
-2.7042125473
 20
-9.3681829664
 10
-2.7039541399
 20
-9.3666668777
 10
-2.7036585965
 20
-9.3651690816
 10
-2.7033257411
 20
-9.3636902815
 10
-2.7029553978
 20
-9.3622311809
 10
-2.7025473905
 20
-9.3607924832
 10
-2.7021015431
 20
-9.3593748919
 10
-2.7016176798
 20
-9.3579791105
 10
-2.7010957275
 20
-9.3566060294
 10
-2.700536026
 20
-9.3552572875
 10
-2.699939018
 20
-9.3539347106
 10
-2.6993051464
 20
-9.3526401244
 10
-2.6986348538
 20
-9.3513753549
 10
-2.6979285832
 20
-9.3501422277
 10
-2.6971867774
 20
-9.3489425687
 10
-2.6964099044
 20
-9.3477781432
 10
-2.6955985338
 20
-9.3466504742
 10
-2.6947532608
 20
-9.3455610241
 10
-2.6938746802
 20
-9.3445112554
 10
-2.692963387
 20
-9.3435026306
 10
-2.6920199762
 20
-9.3425366121
 10
-2.6910450428
 20
-9.3416146624
 10
-2.6900391132
 20
-9.3407381743
 10
-2.6890024399
 20
-9.339908262
 10
-2.6879352068
 20
-9.3391259703
 10
-2.6868375978
 20
-9.3383923437
 10
-2.6857097969
 20
-9.3377084269
 10
-2.684551988
 20
-9.3370752645
 10
-2.683364355
 20
-9.3364939012
 10
-2.6823004765
 20
-9.3360286873
 10
-2.6812117526
 20
-9.3356056299
 10
-2.6800960314
 20
-9.3352264272
 10
-2.6789511608
 20
-9.3348927774
 10
-2.6777749888
 20
-9.3346063785
 10
-2.6765653633
 20
-9.3343689287
 10
-2.6753201322
 20
-9.334182126
 10
-2.6740371436
 20
-9.3340476687
  0
LWPOLYLINE
  5
262
100
AcDbEntity
  8
0
100
AcDbPolyline
 62
253
  6
CONTINUOUS
 90
57
 70
0
 10
-2.3979992199
 20
8.4071172374
 10
-2.3982894327
 20
8.3831827813
 10
-2.3979940028
 20
8.3589800352
 10
-2.3971193481
 20
8.3344689887
 10
-2.3956718868
 20
8.3096096313
 10
-2.3936553782
 20
8.2843668744
 10
-2.3910629466
 20
8.2587253153
 10
-2.387885058
 20
8.2326744732
 10
-2.384112178
 20
8.206203867
 10
-2.3797371055
 20
8.1793153765
 10
-2.3747619714
 20
8.1520603237
 10
-2.3691912399
 20
8.1245023917
 10
-2.3630293748
 20
8.0967052631
 10
-2.3562823593
 20
8.0687304387
 10
-2.3489622534
 20
8.0406306901
 10
-2.3410826362
 20
8.0124566071
 10
-2.3326570868
 20
7.984258779
 10
-2.3236969969
 20
7.9560805875
 10
-2.3142050085
 20
7.9279365815
 10
-2.3041815759
 20
7.8998341018
 10
-2.2936271539
 20
7.8717804893
 10
-2.2825419639
 20
7.8437848327
 10
-2.270925296
 20
7.8158632126
 10
-2.2587762074
 20
7.7880334573
 10
-2.2460937551
 20
7.7603133951
 10
-2.2328789062
 20
7.7327246227
 10
-2.2191402676
 20
7.7053038092
 10
-2.2048883558
 20
7.678091392
 10
-2.1901336875
 20
7.6511278084
 10
-2.1748901943
 20
7.6244521709
 10
-2.1591854665
 20
7.5980982922
 10
-2.1430505096
 20
7.5720986604
 10
-2.1265163287
 20
7.5464857633
 10
-2.1096108856
 20
7.5212873145
 10
-2.0923499676
 20
7.4965119307
 10
-2.0747463183
 20
7.4721634541
 10
-2.0568126812
 20
7.4482457271
 10
-2.0385608108
 20
7.4247628325
 10
-2.0199985039
 20
7.4017198155
 10
-2.0011325683
 20
7.3791219618
 10
-1.9819698116
 20
7.3569745573
 10
-1.9625212559
 20
7.3352876437
 10
-1.9428147814
 20
7.3140902863
 10
-1.9228824831
 20
7.2934163064
 10
-1.9027564556
 20
7.2732995255
 10
-1.8824709672
 20
7.2537736328
 10
-1.86206898
 20
7.2348717893
 10
-1.8415956297
 20
7.2166270238
 10
-1.8210960518
 20
7.1990723654
 10
-1.8006077809
 20
7.1822339328
 10
-1.7801379477
 20
7.1661102045
 10
-1.7596860817
 20
7.1506927489
 10
-1.7392517126
 20
7.1359731342
 10
-1.7188281313
 20
7.1219420902
 10
-1.6983836745
 20
7.108586991
 10
-1.6778804402
 20
7.0958943722
 10
-1.6572805263
 20
7.0838507691
  0
LINE
  5
263
100
AcDbEntity
  8
0
100
AcDbLine
 62
253
  6
CONTINUOUS
 10
-3.6301521351
 20
9.8854228666
 11
-3.6633225798
 21
8.539247012
  0
LINE
  5
264
100
AcDbEntity
  8
0
100
AcDbLine
 62
253
  6
CONTINUOUS
 10
-3.1302671272
 20
9.5010911507
 11
-3.147322593
 21
8.8282789726
  0
LWPOLYLINE
  5
265
100
AcDbEntity
  8
0
100
AcDbPolyline
 62
253
  6
CONTINUOUS
 90
3
 70
0
 10
-3.9564845071
 20
9.0538304825
 10
-3.9246356745
 20
10.312197585
 10
-3.9071933188
 20
10.9422033098
  0
LWPOLYLINE
  5
266
100
AcDbEntity
  8
0
100
AcDbPolyline
 62
253
  6
CONTINUOUS
 90
30
 70
0
 10
-3.6653481496
 20
8.529235074
 10
-3.6655931302
 20
8.5213810791
 10
-3.6659668648
 20
8.5136147938
 10
-3.6664705423
 20
8.505925086
 10
-3.6671053518
 20
8.4983008235
 10
-3.6678724822
 20
8.490730874
 10
-3.6687731226
 20
8.4832041054
 10
-3.669808462
 20
8.4757093854
 10
-3.670979804
 20
8.4682384553
 10
-3.6722889109
 20
8.4607945501
 10
-3.6737376593
 20
8.453383778
 10
-3.6753279261
 20
8.4460122474
 10
-3.6770615881
 20
8.4386860666
 10
-3.6789405221
 20
8.4314113441
 10
-3.6809666048
 20
8.4241941881
 10
-3.6831416028
 20
8.417040705
 10
-3.6854668408
 20
8.409956993
 10
-3.6879435333
 20
8.4029491482
 10
-3.6905728948
 20
8.3960232669
 10
-3.6933561397
 20
8.3891854452
 10
-3.6962944825
 20
8.3824417792
 10
-3.6993891377
 20
8.3757983652
 10
-3.7022264346
 20
8.3700712917
 10
-3.7051869156
 20
8.3644230255
 10
-3.7082731583
 20
8.3588509511
 10
-3.7114877403
 20
8.3533524528
 10
-3.7148332391
 20
8.3479249153
 10
-3.7183122325
 20
8.342565723
 10
-3.721927298
 20
8.3372722603
 10
-3.7256810132
 20
8.3320419119
  0
LWPOLYLINE
  5
267
100
AcDbEntity
  8
0
100
AcDbPolyline
 62
253
  6
CONTINUOUS
 90
41
 70
0
 10
-3.147322593
 20
8.8282789726
 10
-3.147361432
 20
8.8271933713
 10
-3.1474237691
 20
8.8261315955
 10
-3.1475090243
 20
8.8250921803
 10
-3.1476166176
 20
8.8240736606
 10
-3.147745969
 20
8.8230745715
 10
-3.1478964985
 20
8.8220934479
 10
-3.1480676262
 20
8.8211288248
 10
-3.1482587719
 20
8.8201792374
 10
-3.1485011042
 20
8.819110921
 10
-3.148768632
 20
8.8180605119
 10
-3.1490611623
 20
8.8170281924
 10
-3.1493785018
 20
8.8160141449
 10
-3.1497204576
 20
8.8150185518
 10
-3.1500868366
 20
8.8140415956
 10
-3.1504774457
 20
8.8130834585
 10
-3.1509634144
 20
8.8119898674
 10
-3.1514811421
 20
8.8109236692
 10
-3.1520296705
 20
8.8098863936
 10
-3.1526080417
 20
8.8088795704
 10
-3.1532152975
 20
8.8079047292
 10
-3.1538504797
 20
8.8069633997
 10
-3.1545125631
 20
8.8060570364
 10
-3.1552002532
 20
8.8051867927
 10
-3.1559121886
 20
8.8043537468
 10
-3.1566470076
 20
8.803558977
 10
-3.1574033489
 20
8.8028035615
 10
-3.1581798507
 20
8.8020885786
 10
-3.1589753061
 20
8.8014149294
 10
-3.1597891252
 20
8.800782807
 10
-3.1606208728
 20
8.8001922274
 10
-3.1614701136
 20
8.7996432064
 10
-3.1623364124
 20
8.7991357601
 10
-3.1632193337
 20
8.7986699045
 10
-3.163989351
 20
8.7983038114
 10
-3.16477295
 20
8.7979688779
 10
-3.1655718197
 20
8.7976656953
 10
-3.1663876493
 20
8.7973948551
 10
-3.1672221276
 20
8.7971569485
 10
-3.1680769438
 20
8.7969525672
 10
-3.1689537869
 20
8.7967823023
  0
LWPOLYLINE
  5
268
100
AcDbEntity
  8
0
100
AcDbPolyline
 62
253
  6
CONTINUOUS
 90
51
 70
0
 10
-2.7041069268
 20
8.5843142976
 10
-2.7025763697
 20
8.6231187938
 10
-2.6999181549
 20
8.6611928498
 10
-2.6961430989
 20
8.6986375266
 10
-2.6912573351
 20
8.7355376899
 10
-2.6852482655
 20
8.7719134237
 10
-2.678098609
 20
8.807768616
 10
-2.669796936
 20
8.8430852216
 10
-2.6603552231
 20
8.8777574596
 10
-2.6497912978
 20
8.9116576156
 10
-2.6381255056
 20
8.9446676979
 10
-2.6253882619
 20
8.9767086062
 10
-2.6116124999
 20
9.0077109629
 10
-2.5968267018
 20
9.0376127163
 10
-2.5810415473
 20
9.0663811177
 10
-2.5642632655
 20
9.0939907442
 10
-2.5464980853
 20
9.1204161731
 10
-2.5277522358
 20
9.1456319814
 10
-2.5080319459
 20
9.1696127463
 10
-2.4903584935
 20
9.1891628532
 10
-2.4719806638
 20
9.2077554753
 10
-2.4529054184
 20
9.2253591846
 10
-2.4331397189
 20
9.2419425532
 10
-2.412690527
 20
9.2574741531
 10
-2.3915648043
 20
9.2719225563
 10
-2.3697695124
 20
9.2852563349
 10
-2.3473170783
 20
9.2974503643
 10
-2.3242417908
 20
9.3085047338
 10
-2.3005834038
 20
9.3184258358
 10
-2.2763816715
 20
9.3272200629
 10
-2.251676348
 20
9.3348938078
 10
-2.2265071872
 20
9.3414534629
 10
-2.2009139434
 20
9.3469054208
 10
-2.1705635289
 20
9.3518748908
 10
-2.1397010949
 20
9.3553574954
 10
-2.1083377366
 20
9.3573653672
 10
-2.076484549
 20
9.3579106386
 10
-2.0441526273
 20
9.3570054423
 10
-2.0113530666
 20
9.3546619106
 10
-1.978108388
 20
9.3508902485
 10
-1.9444868178
 20
9.345692949
 10
-1.9105680083
 20
9.3390705775
 10
-1.8764360965
 20
9.3310308974
 10
-1.8421931586
 20
9.3216104633
 10
-1.8079457554
 20
9.3108530276
 10
-1.7737816876
 20
9.2987967288
 10
-1.7397137142
 20
9.2854572491
 10
-1.7057358344
 20
9.270844657
 10
-1.6718294971
 20
9.254956389
 10
-1.6379259529
 20
9.2377393555
 10
-1.6039439025
 20
9.2191278352
  0
LINE
  5
269
100
AcDbEntity
  8
0
100
AcDbLine
 62
7
  6
CONTINUOUS
 10
3.7767268568
 20
17.9785778709
 11
3.5964922084
 21
17.5643958615
  0
LWPOLYLINE
  5
26A
100
AcDbEntity
  8
0
100
AcDbPolyline
 62
253
  6
CONTINUOUS
 90
46
 70
0
 10
-0.663396361
 20
6.9089723481
 10
-0.6753691363
 20
6.8871973689
 10
-0.6877620317
 20
6.8664222048
 10
-0.7005433155
 20
6.8466188953
 10
-0.7136812559
 20
6.8277594802
 10
-0.727144121
 20
6.8098159992
 10
-0.7409001789
 20
6.792760492
 10
-0.754917698
 20
6.7765649984
 10
-0.7691649462
 20
6.761201558
 10
-0.7856946778
 20
6.7446266379
 10
-0.8024750508
 20
6.7290621712
 10
-0.819498098
 20
6.714468367
 10
-0.836755852
 20
6.7008054349
 10
-0.8542403453
 20
6.6880335843
 10
-0.8719436107
 20
6.6761130246
 10
-0.8898576808
 20
6.6650039651
 10
-0.9110188454
 20
6.6530233027
 10
-0.9324771134
 20
6.6420739109
 10
-0.9542535042
 20
6.6321366776
 10
-0.9763690369
 20
6.6231924909
 10
-0.998844731
 20
6.6152222385
 10
-1.0217016057
 20
6.6082068086
 10
-1.0449583313
 20
6.6021312615
 10
-1.0686241825
 20
6.5969973469
 10
-1.092706085
 20
6.592810987
 10
-1.1172109643
 20
6.589578104
 10
-1.1421457462
 20
6.5873046201
 10
-1.1675173563
 20
6.5859964574
 10
-1.193325303
 20
6.5856586397
 10
-1.2195394255
 20
6.5862925965
 10
-1.2461221457
 20
6.587898859
 10
-1.2730358857
 20
6.5904779581
 10
-1.3002430672
 20
6.594030425
 10
-1.3277061124
 20
6.5985567907
 10
-1.3553872754
 20
6.6040549576
 10
-1.3832481397
 20
6.6105123126
 10
-1.4112501212
 20
6.6179136139
 10
-1.4393546356
 20
6.6262436196
 10
-1.4675230988
 20
6.6354870879
 10
-1.4957169267
 20
6.6456287769
 10
-1.5239060793
 20
6.6566578141
 10
-1.5520946947
 20
6.668580804
 10
-1.5802954554
 20
6.6814087204
 10
-1.6085210436
 20
6.6951525372
 10
-1.6367841417
 20
6.7098232281
 10
-1.6650974323
 20
6.7254317671
  0
LWPOLYLINE
  5
26B
100
AcDbEntity
  8
0
100
AcDbPolyline
 62
253
  6
CONTINUOUS
 90
10
 70
0
 10
5.1384951984
 20
-5.7208985199
 10
3.3768320069
 20
-4.848908195
 10
1.645293007
 20
-3.9580203453
 10
-0.0557832204
 20
-3.0484258235
 10
-1.7259608934
 20
-2.1203757053
 10
-3.3650119227
 20
-1.1740082107
 10
-4.9729041456
 20
-0.2093419012
 10
-6.5493981122
 20
0.7734915087
 10
-8.0940588574
 20
1.7742403518
 10
-9.6065556639
 20
2.7927090528
  0
LWPOLYLINE
  5
26C
100
AcDbEntity
  8
0
100
AcDbPolyline
 62
253
  6
CONTINUOUS
 90
10
 70
0
 10
5.4575039641
 20
-5.0930220534
 10
3.7024952053
 20
-4.2242307107
 10
1.9781546861
 20
-3.3370146407
 10
0.2844824065
 20
-2.4313738435
 10
-1.3787553376
 20
-1.5071733735
 10
-3.011324842
 20
-0.5645481762
 10
-4.6125249944
 20
0.3960969117
 10
-6.1821220907
 20
1.3746269448
 10
-7.720349835
 20
2.3711768686
 10
-9.2272082273
 20
3.3857466831
  0
LWPOLYLINE
  5
26D
100
AcDbEntity
  8
0
100
AcDbPolyline
 62
7
  6
CONTINUOUS
 90
13
 70
0
 10
-9.5065760399
 20
3.7868465305
 10
-8.4200883167
 20
3.0531811267
 10
-7.2626603866
 20
2.2932363193
 10
-6.0865483027
 20
1.5428178466
 10
-4.892018301
 20
0.802114941
 10
-3.6793190499
 20
0.0712997626
 10
-2.4486698708
 20
-0.6494980659
 10
-1.2003069856
 20
-1.3601447381
 10
0.0655334651
 20
-2.0605063667
 10
1.3486225994
 20
-2.7504587192
 10
2.6486575492
 20
-3.4298604548
 10
3.9653059011
 20
-4.098560206
 10
5.2416388733
 20
-4.7288563487
  0
LINE
  5
26E
100
AcDbEntity
  8
0
100
AcDbLine
 62
7
  6
CONTINUOUS
 10
-9.5065689006
 20
3.7868416601
 11
-9.5065013023
 21
3.7867953583
  0
LWPOLYLINE
  5
26F
100
AcDbEntity
  8
0
100
AcDbPolyline
 62
7
  6
CONTINUOUS
 90
6
 70
0
 10
-9.5065013023
 20
3.7867953583
 10
-9.5182614733
 20
3.7950943561
 10
-9.5514669688
 20
3.8214745003
 10
-9.5823418914
 20
3.8505986515
 10
-9.6106545032
 20
3.8822595505
 10
-9.6362133364
 20
3.9162607211
  0
LWPOLYLINE
  5
270
100
AcDbEntity
  8
0
100
AcDbPolyline
 62
253
  6
CONTINUOUS
 90
9
 70
0
 10
-9.6065558723
 20
2.7927091116
 10
-9.6360313064
 20
2.8150445934
 10
-9.6616118682
 20
2.8389333016
 10
-9.683055676
 20
2.8641493521
 10
-9.7001599618
 20
2.8904543061
 10
-9.7127629965
 20
2.9175994361
 10
-9.7207456121
 20
2.9453280792
 10
-9.7240323219
 20
2.9733780557
 10
-9.7241225403
 20
2.9786571122
  0
LINE
  5
271
100
AcDbEntity
  8
0
100
AcDbLine
 62
253
  6
CONTINUOUS
 10
-1.4500549204
 20
-11.7220024274
 11
-1.4670626908
 21
-11.0818482039
  0
LINE
  5
272
100
AcDbEntity
  8
0
100
AcDbLine
 62
253
  6
CONTINUOUS
 10
-1.1812946246
 20
-10.2495130891
 11
-1.1399142034
 21
-11.8968719322
  0
LINE
  5
273
100
AcDbEntity
  8
0
100
AcDbLine
 62
253
  6
CONTINUOUS
 10
-1.4762702604
 20
-10.7161209828
 11
-1.491527116
 21
-10.0746965737
  0
LWPOLYLINE
  5
274
100
AcDbEntity
  8
0
100
AcDbPolyline
 62
253
  6
CONTINUOUS
 90
55
 70
0
 10
-1.1399142034
 20
-11.8968719322
 10
-1.1398447781
 20
-11.9021150815
 10
-1.1399259367
 20
-11.9072254651
 10
-1.1401550812
 20
-11.9122177554
 10
-1.1405296133
 20
-11.9171066244
 10
-1.1410469351
 20
-11.9219067444
 10
-1.1417051566
 20
-11.926629722
 10
-1.1425052201
 20
-11.9312749013
 10
-1.1434487763
 20
-11.9358385606
 10
-1.1445374757
 20
-11.9403169784
 10
-1.1457729689
 20
-11.944706433
 10
-1.1471566896
 20
-11.9490023922
 10
-1.1486892046
 20
-11.9531970803
 10
-1.1503708636
 20
-11.9572819111
 10
-1.1522020167
 20
-11.9612482983
 10
-1.1541830137
 20
-11.9650876554
 10
-1.1559475725
 20
-11.9681830411
 10
-1.1578107041
 20
-11.9711741963
 10
-1.1597666801
 20
-11.9740510687
 10
-1.1618116896
 20
-11.9768060018
 10
-1.1639495932
 20
-11.9794409246
 10
-1.1661861691
 20
-11.981960162
 10
-1.1685258863
 20
-11.9843662802
 10
-1.1709679763
 20
-11.9866548103
 10
-1.1735103614
 20
-11.9888195245
 10
-1.1761509639
 20
-11.990854195
 10
-1.1788877059
 20
-11.9927525943
 10
-1.1817185098
 20
-11.9945084944
 10
-1.1846406155
 20
-11.9961168638
 10
-1.1876485337
 20
-11.9975774547
 10
-1.190736093
 20
-11.9988912157
 10
-1.1938971217
 20
-12.0000590951
 10
-1.1971254482
 20
-12.0010820414
 10
-1.2004149011
 20
-12.0019610029
 10
-1.2037614787
 20
-12.0026971886
 10
-1.2071698587
 20
-12.0032928493
 10
-1.2106468888
 20
-12.003750496
 10
-1.2141961092
 20
-12.0040721424
 10
-1.2178078307
 20
-12.0042578114
 10
-1.2214690564
 20
-12.0043070284
 10
-1.225911907
 20
-12.0041862318
 10
-1.2303988717
 20
-12.0038730082
 10
-1.2349214936
 20
-12.0033721052
 10
-1.2394713161
 20
-12.00268827
 10
-1.2440398823
 20
-12.0018262502
 10
-1.2486197887
 20
-12.0007905494
 10
-1.253207844
 20
-11.9995846964
 10
-1.25780191
 20
-11.9982119761
 10
-1.2623998484
 20
-11.9966756736
 10
-1.2669995211
 20
-11.9949790738
 10
-1.2716011737
 20
-11.9931233458
 10
-1.2762145866
 20
-11.9911011953
 10
-1.280851924
 20
-11.9889032121
 10
-1.2855253502
 20
-11.9865199861
 10
-1.2902470295
 20
-11.9839421069
  0
LWPOLYLINE
  5
275
100
AcDbEntity
  8
0
100
AcDbPolyline
 62
253
  6
CONTINUOUS
 90
55
 70
0
 10
-1.491527116
 20
-10.0746965737
 10
-1.4915730905
 20
-10.0694712829
 10
-1.4914700749
 20
-10.0643774641
 10
-1.4912205222
 20
-10.0594004349
 10
-1.4908268856
 20
-10.0545255127
 10
-1.490291618
 20
-10.0497380149
 10
-1.4896164874
 20
-10.0450263409
 10
-1.4888005209
 20
-10.0403912169
 10
-1.4878420603
 20
-10.035836451
 10
-1.4867394475
 20
-10.0313658512
 10
-1.4854910243
 20
-10.0269832256
 10
-1.484095345
 20
-10.0226931692
 10
-1.4825518131
 20
-10.0185034259
 10
-1.4808600443
 20
-10.0144225262
 10
-1.4790196544
 20
-10.0104590009
 10
-1.4770302592
 20
-10.0066213807
 10
-1.4752593
 20
-10.0035265377
 10
-1.473390201
 20
-10.0005350408
 10
-1.4714285651
 20
-9.9976568779
 10
-1.4693780796
 20
-9.9948996598
 10
-1.4672347706
 20
-9.9922614888
 10
-1.4649927486
 20
-9.9897380903
 10
-1.462647449
 20
-9.9873269726
 10
-1.4601996064
 20
-9.9850327756
 10
-1.4576512802
 20
-9.9828619222
 10
-1.4550045299
 20
-9.9808208354
 10
-1.4522614149
 20
-9.9789159381
 10
-1.4494239947
 20
-9.9771536532
 10
-1.4464950013
 20
-9.975539183
 10
-1.443479857
 20
-9.9740728475
 10
-1.4403846568
 20
-9.9727537462
 10
-1.4372154957
 20
-9.9715809783
 10
-1.4339784686
 20
-9.9705536434
 10
-1.4306796703
 20
-9.9696708407
 10
-1.4273230314
 20
-9.968931401
 10
-1.4239038242
 20
-9.96833308
 10
-1.4204151564
 20
-9.9678733645
 10
-1.4168534677
 20
-9.9675502427
 10
-1.4132285258
 20
-9.967363707
 10
-1.4095534302
 20
-9.967314251
 10
-1.4050932009
 20
-9.9674356048
 10
-1.4005881148
 20
-9.9677502817
 10
-1.3960466731
 20
-9.9682534995
 10
-1.391477377
 20
-9.9689404757
 10
-1.3868887278
 20
-9.969806428
 10
-1.38228817
 20
-9.9708468215
 10
-1.3776789222
 20
-9.9720581114
 10
-1.3730631462
 20
-9.9734370006
 10
-1.3684430039
 20
-9.9749801918
 10
-1.3638206571
 20
-9.9766843878
 10
-1.3591958638
 20
-9.9785484291
 10
-1.3545587651
 20
-9.9805797073
 10
-1.3498970986
 20
-9.982787752
 10
-1.3451986013
 20
-9.9851820925
 10
-1.3404510106
 20
-9.9877722582
  0
LWPOLYLINE
  5
276
100
AcDbEntity
  8
0
100
AcDbPolyline
 62
253
  6
CONTINUOUS
 90
53
 70
0
 10
-0.6084168741
 20
7.7226358301
 10
-0.6085080997
 20
7.7202734212
 10
-0.6086605416
 20
7.7179821706
 10
-0.6088733771
 20
7.7157534416
 10
-0.6091457836
 20
7.713578598
 10
-0.6094769385
 20
7.7114490034
 10
-0.6098660193
 20
7.7093560212
 10
-0.6103125119
 20
7.7072929541
 10
-0.610817137
 20
7.7052608608
 10
-0.6113809241
 20
7.7032627394
 10
-0.6120049024
 20
7.7013015875
 10
-0.6126901014
 20
7.699380403
 10
-0.6134375503
 20
7.6975021838
 10
-0.6142480983
 20
7.6956702031
 10
-0.6151218737
 20
7.6938888355
 10
-0.6160588249
 20
7.6921627311
 10
-0.6170588999
 20
7.6904965398
 10
-0.6181220469
 20
7.6888949116
 10
-0.619248214
 20
7.6873624966
 10
-0.6202636669
 20
7.6861076156
 10
-0.6213256323
 20
7.6849099576
 10
-0.62243436
 20
7.6837724789
 10
-0.6235901002
 20
7.6826981357
 10
-0.6247931027
 20
7.6816898844
 10
-0.6260436175
 20
7.6807506812
 10
-0.6273418946
 20
7.6798834823
 10
-0.6286879965
 20
7.6790906639
 10
-0.6300812355
 20
7.6783722818
 10
-0.6315207368
 20
7.6777278121
 10
-0.6330056251
 20
7.6771567304
 10
-0.6345350255
 20
7.6766585126
 10
-0.6361080629
 20
7.6762326347
 10
-0.6377238622
 20
7.6758785723
 10
-0.6393814673
 20
7.67559578
 10
-0.6410795979
 20
7.6753836271
 10
-0.6428168925
 20
7.6752414613
 10
-0.6445919897
 20
7.6751686307
 10
-0.646403528
 20
7.675164483
 10
-0.648250146
 20
7.6752283661
 10
-0.6501304822
 20
7.6753596279
 10
-0.6523647956
 20
7.6755968849
 10
-0.6546397164
 20
7.6759229025
 10
-0.6569518109
 20
7.6763356191
 10
-0.6592976452
 20
7.6768329728
 10
-0.6616737857
 20
7.677412902
 10
-0.6640767985
 20
7.678073345
 10
-0.6661564617
 20
7.6787026276
 10
-0.6682580979
 20
7.679392264
 10
-0.6703864601
 20
7.6801449697
 10
-0.6725463009
 20
7.6809634602
 10
-0.6747423734
 20
7.6818504509
 10
-0.6769794304
 20
7.6828086574
 10
-0.6792622247
 20
7.6838407952
  0
LWPOLYLINE
  5
277
100
AcDbEntity
  8
0
100
AcDbPolyline
 62
253
  6
CONTINUOUS
 90
16
 70
0
 10
5.1384952864
 20
-4.4995303368
 10
5.1771620427
 20
-4.5165588643
 10
5.2185087951
 20
-4.5313443716
 10
5.262144582
 20
-4.5437470516
 10
5.3076567907
 20
-4.5536496269
 10
5.3546150788
 20
-4.5609584642
 10
5.4025754452
 20
-4.565604455
 10
5.4510844149
 20
-4.5675436654
 10
5.4996832806
 20
-4.5667577521
 10
5.5479124611
 20
-4.5632541473
 10
5.595315895
 20
-4.5570659876
 10
5.6414453744
 20
-4.5482517888
 10
5.6858647368
 20
-4.5368948929
 10
5.7281539736
 20
-4.5231026846
 10
5.7679132045
 20
-4.5070055802
 10
5.804766479
 20
-4.4887557886
  0
LWPOLYLINE
  5
278
100
AcDbEntity
  8
0
100
AcDbPolyline
 62
7
  6
CONTINUOUS
 90
12
 70
0
 10
5.2418060648
 20
-4.7289378411
 10
5.2537444182
 20
-4.7345537615
 10
5.298383049
 20
-4.7523026458
 10
5.3446195102
 20
-4.7657098776
 10
5.3920866454
 20
-4.7746299258
 10
5.4403657893
 20
-4.7789356006
 10
5.4889912069
 20
-4.7785374276
 10
5.5375077144
 20
-4.7733928697
 10
5.585465563
 20
-4.7634995757
 10
5.6323768908
 20
-4.7489073006
 10
5.6777305486
 20
-4.7297330646
 10
5.6975349871
 20
-4.7196363484
  0
LINE
  5
279
100
AcDbEntity
  8
0
100
AcDbLine
 62
7
  6
CONTINUOUS
 10
5.2416878139
 20
-4.728880237
 11
5.2418060648
 21
-4.7289378411
  0
LWPOLYLINE
  5
27A
100
AcDbEntity
  8
0
100
AcDbPolyline
 62
253
  6
CONTINUOUS
 90
10
 70
0
 10
-9.6065556713
 20
4.0140773599
 10
-8.0940597831
 20
2.998220957
 10
-6.5493997604
 20
1.999431528
 10
-4.9729063056
 20
1.0179044747
 10
-3.3650143693
 20
0.0538913528
 10
-1.7259633869
 20
-0.8924761689
 10
-0.0557855072
 20
-1.8211795208
 10
1.6452911944
 20
-2.732080421
 10
3.3768309492
 20
-3.624927666
 10
5.1384951895
 20
-4.4995302135
  0
LWPOLYLINE
  5
27B
100
AcDbEntity
  8
0
100
AcDbPolyline
 62
253
  6
CONTINUOUS
 90
55
 70
0
 10
-4.6227720142
 20
8.6418639692
 10
-4.6277625521
 20
8.6564175522
 10
-4.6323283254
 20
8.6708987722
 10
-4.6364983076
 20
8.6853880194
 10
-4.6403014718
 20
8.699965684
 10
-4.6437588028
 20
8.7146952111
 10
-4.6468593302
 20
8.7295722648
 10
-4.6495840951
 20
8.7445755641
 10
-4.6519141384
 20
8.759683828
 10
-4.6534807908
 20
8.771829211
 10
-4.6547703262
 20
8.7840022447
 10
-4.6557703833
 20
8.7961770223
 10
-4.6564686008
 20
8.8083276371
 10
-4.656852617
 20
8.8204281822
 10
-4.6569118189
 20
8.8324543928
 10
-4.6566425852
 20
8.8443885715
 10
-4.6560430429
 20
8.8562146627
 10
-4.655111319
 20
8.8679166111
 10
-4.6538455404
 20
8.8794783611
 10
-4.6522443206
 20
8.8908868031
 10
-4.6503082182
 20
8.9021406109
 10
-4.6480382786
 20
8.9132414042
 10
-4.6454355468
 20
8.9241908028
 10
-4.642501068
 20
8.9349904263
 10
-4.6383686958
 20
8.9482792464
 10
-4.6337255619
 20
8.9613244039
 10
-4.6285776264
 20
8.9741137288
 10
-4.622930849
 20
8.9866350512
 10
-4.6174962135
 20
8.9975300111
 10
-4.6116684358
 20
9.0081933938
 10
-4.6054438112
 20
9.018614993
 10
-4.5988186351
 20
9.0287846021
 10
-4.5917892028
 20
9.0386920148
 10
-4.5843518096
 20
9.0483270247
 10
-4.5765027509
 20
9.0576794253
 10
-4.568238322
 20
9.0667390102
 10
-4.5595548183
 20
9.075495573
 10
-4.5504502729
 20
9.0839388601
 10
-4.5409296703
 20
9.0920584294
 10
-4.5309997327
 20
9.0998437916
 10
-4.5206671824
 20
9.1072844574
 10
-4.5099387417
 20
9.1143699377
 10
-4.4988211328
 20
9.1210897429
 10
-4.4873210781
 20
9.127433384
 10
-4.4754452998
 20
9.1333903716
 10
-4.4632005201
 20
9.1389502165
 10
-4.4505912692
 20
9.144102934
 10
-4.4376133086
 20
9.1488405587
 10
-4.4242602076
 20
9.1531556297
 10
-4.4105255356
 20
9.1570406862
 10
-4.3964028619
 20
9.1604882672
 10
-4.3818857559
 20
9.1634909121
 10
-4.3669677869
 20
9.1660411599
 10
-4.3516425243
 20
9.1681315498
 10
-4.3359035374
 20
9.169754621
  0
LWPOLYLINE
  5
27C
100
AcDbEntity
  8
0
100
AcDbPolyline
 62
253
  6
CONTINUOUS
 90
31
 70
0
 10
-3.1528878863
 20
9.6079993364
 10
-3.1513702591
 20
9.604180463
 10
-3.1499005755
 20
9.6003565542
 10
-3.1484786148
 20
9.5965270287
 10
-3.1471041561
 20
9.5926913051
 10
-3.1457769784
 20
9.5888488022
 10
-3.144496861
 20
9.5849989385
 10
-3.143263583
 20
9.5811411328
 10
-3.1420771692
 20
9.5772751714
 10
-3.1409386275
 20
9.5734023119
 10
-3.1398492115
 20
9.5695241796
 10
-3.1388101748
 20
9.5656423998
 10
-3.1378227708
 20
9.5617585979
 10
-3.1368882533
 20
9.5578743991
 10
-3.1360078757
 20
9.5539914288
 10
-3.1352829829
 20
9.5505962487
 10
-3.1346015827
 20
9.5472051438
 10
-3.1339647574
 20
9.5438200042
 10
-3.1333735887
 20
9.54044272
 10
-3.1328291589
 20
9.5370751816
 10
-3.13233255
 20
9.533719279
 10
-3.1318848438
 20
9.5303769024
 10
-3.1314871226
 20
9.5270499421
 10
-3.1311405317
 20
9.5237400442
 10
-3.1308464703
 20
9.5204478791
 10
-3.130606401
 20
9.517173873
 10
-3.1304217865
 20
9.5139184524
 10
-3.1302940892
 20
9.5106820435
 10
-3.1302247718
 20
9.5074650727
 10
-3.1302152969
 20
9.5042679663
 10
-3.1302671272
 20
9.5010911507
  0
LINE
  5
27D
100
AcDbEntity
  8
0
100
AcDbLine
 62
253
  6
CONTINUOUS
 10
-3.2284750823
 20
8.8480542758
 11
-3.6301521351
 21
9.8854228666
  0
LINE
  5
27E
100
AcDbEntity
  8
0
100
AcDbLine
 62
253
  6
CONTINUOUS
 10
-3.6255896263
 20
10.8705676141
 11
-3.1510629292
 21
9.6085624419
  0
LINE
  5
27F
100
AcDbEntity
  8
0
100
AcDbLine
 62
253
  6
CONTINUOUS
 10
-0.9735946759
 20
8.9944247771
 11
-0.6227849836
 21
7.7806754734
  0
LWPOLYLINE
  5
280
100
AcDbEntity
  8
0
100
AcDbPolyline
 62
253
  6
CONTINUOUS
 90
41
 70
0
 10
-1.5951832749
 20
8.5130586917
 10
-1.5956083444
 20
8.5149320331
 10
-1.5959965994
 20
8.5167863079
 10
-1.5963492958
 20
8.5186245117
 10
-1.5966676895
 20
8.5204496404
 10
-1.5969530364
 20
8.5222646898
 10
-1.5972065922
 20
8.5240726556
 10
-1.5974296128
 20
8.5258765337
 10
-1.5976524794
 20
8.5279788897
 10
-1.5978350485
 20
8.5300785238
 10
-1.5979768752
 20
8.5321742007
 10
-1.5980775142
 20
8.5342646847
 10
-1.5981365207
 20
8.5363487403
 10
-1.5981534495
 20
8.5384251319
 10
-1.5981278846
 20
8.5404923493
 10
-1.5980595261
 20
8.542547782
 10
-1.5979481034
 20
8.5445885452
 10
-1.5977933454
 20
8.5466117537
 10
-1.5975949815
 20
8.5486145225
 10
-1.5973527408
 20
8.5505939665
 10
-1.5970663775
 20
8.5525472531
 10
-1.5967357451
 20
8.5544717594
 10
-1.5963607224
 20
8.5563649152
 10
-1.5959411878
 20
8.5582241502
 10
-1.59547702
 20
8.5600468939
 10
-1.5949680977
 20
8.561830576
 10
-1.5944961409
 20
8.5633264884
 10
-1.5939909904
 20
8.5647906763
 10
-1.5934524227
 20
8.5662220017
 10
-1.5928802142
 20
8.5676193269
 10
-1.5922741412
 20
8.568981514
 10
-1.5916339803
 20
8.5703074251
 10
-1.5909595078
 20
8.5715959224
 10
-1.5903407711
 20
8.5726918146
 10
-1.5896939354
 20
8.5737576844
 10
-1.5890173425
 20
8.5747930253
 10
-1.5883093344
 20
8.575797331
 10
-1.5875682529
 20
8.5767700951
 10
-1.5867924401
 20
8.5777108113
 10
-1.5859802377
 20
8.5786189731
 10
-1.5851299876
 20
8.5794940742
  0
LINE
  5
281
100
AcDbEntity
  8
0
100
AcDbLine
 62
253
  6
CONTINUOUS
 10
3.5964922084
 20
17.5643958615
 11
3.5964920172
 21
17.5024230643
  0
LINE
  5
282
100
AcDbEntity
  8
0
100
AcDbLine
 62
7
  6
CONTINUOUS
 10
9.3827809474
 20
-2.9037392066
 11
9.2329482621
 21
-2.8172276919
  0
LWPOLYLINE
  5
283
100
AcDbEntity
  8
0
100
AcDbPolyline
 62
253
  6
CONTINUOUS
 90
34
 70
0
 10
-0.6227849836
 20
7.7806754734
 10
-0.6219879812
 20
7.7790894339
 10
-0.6212177216
 20
7.7775030812
 10
-0.6204729196
 20
7.7759148328
 10
-0.6197522898
 20
7.7743231066
 10
-0.6190545471
 20
7.7727263199
 10
-0.618378406
 20
7.7711228906
 10
-0.6177228234
 20
7.7695116125
 10
-0.6170877238
 20
7.7678927848
 10
-0.6164732737
 20
7.766267083
 10
-0.6158796396
 20
7.7646351826
 10
-0.6153069881
 20
7.7629977592
 10
-0.6147554857
 20
7.7613554881
 10
-0.6141218452
 20
7.7593793786
 10
-0.6135192534
 20
7.757398809
 10
-0.6129480645
 20
7.7554153271
 10
-0.6124086327
 20
7.7534304808
 10
-0.6119013122
 20
7.7514458177
 10
-0.6114264662
 20
7.7494628838
 10
-0.6109844934
 20
7.7474832178
 10
-0.610575802
 20
7.7455083565
 10
-0.6102007998
 20
7.7435398367
 10
-0.6098598946
 20
7.7415791954
 10
-0.609553481
 20
7.7396279446
 10
-0.6092818999
 20
7.7376874979
 10
-0.6090454788
 20
7.7357592438
 10
-0.6088445451
 20
7.7338445711
 10
-0.6086794262
 20
7.7319448686
 10
-0.6085694886
 20
7.7303738331
 10
-0.608485238
 20
7.7288126371
 10
-0.608427263
 20
7.7272597596
 10
-0.6083961518
 20
7.7257136799
 10
-0.6083924927
 20
7.724172877
 10
-0.6084168741
 20
7.7226358301
  0
LWPOLYLINE
  5
284
100
AcDbEntity
  8
0
100
AcDbPolyline
 62
253
  6
CONTINUOUS
 90
16
 70
0
 10
5.804766548
 20
-5.7088712715
 10
5.8025986148
 20
-5.6657627681
 10
5.7967458895
 20
-5.6207213436
 10
5.7872346855
 20
-5.5742165648
 10
5.7741157335
 20
-5.5266893688
 10
5.7575061489
 20
-5.4787050252
 10
5.7376261647
 20
-5.4309481641
 10
5.714723322
 20
-5.3839996967
 10
5.6890274631
 20
-5.3383188624
 10
5.6608134523
 20
-5.2943970546
 10
5.6303841373
 20
-5.2527118243
 10
5.5980773778
 20
-5.2137316633
 10
5.5642567836
 20
-5.1778973291
 10
5.5292978964
 20
-5.1456061163
 10
5.4935825697
 20
-5.117210152
 10
5.457503964
 20
-5.0930220534
  0
LWPOLYLINE
  5
285
100
AcDbEntity
  8
0
100
AcDbPolyline
 62
253
  6
CONTINUOUS
 90
9
 70
0
 10
5.1384952864
 20
-4.4995303368
 10
5.1406083424
 20
-4.5417575125
 10
5.1456945226
 20
-4.5799692089
 10
5.1538788309
 20
-4.6145111888
 10
5.1656935826
 20
-4.645862926
 10
5.1810253525
 20
-4.673679241
 10
5.199015682
 20
-4.6969766189
 10
5.2198213081
 20
-4.7156518584
 10
5.2416878139
 20
-4.728880237
  0
LWPOLYLINE
  5
286
100
AcDbEntity
  8
0
100
AcDbPolyline
 62
253
  6
CONTINUOUS
 90
4
 70
0
 10
6.1303993652
 20
-21.9485541995
 10
6.0627671301
 20
-20.0984506772
 10
6.0033063456
 20
-18.2749929115
 10
5.9520170117
 20
-16.4781809024
  0
LWPOLYLINE
  5
287
100
AcDbEntity
  8
0
100
AcDbPolyline
 62
253
  6
CONTINUOUS
 90
10
 70
0
 10
5.4574679551
 20
-21.9738129444
 10
5.3905901706
 20
-20.1229685298
 10
5.3324686167
 20
-18.2981709285
 10
5.2827231204
 20
-16.4996966452
 10
5.2414174318
 20
-14.7481447248
 10
5.207588285
 20
-13.0235407421
 10
5.180034032
 20
-11.2648612591
 10
5.158910358
 20
-9.4514567223
 10
5.1449410102
 20
-7.6035277895
 10
5.1384951984
 20
-5.7208985199
  0
LINE
  5
288
100
AcDbEntity
  8
0
100
AcDbLine
 62
7
  6
CONTINUOUS
 10
3.7767268568
 20
17.9785778709
 11
3.7979304708
 21
17.3621540754
  0
LWPOLYLINE
  5
289
100
AcDbEntity
  8
0
100
AcDbPolyline
 62
253
  6
CONTINUOUS
 90
7
 70
0
 10
5.9520170117
 20
-16.4781809024
 10
5.9093107921
 20
-14.7283108895
 10
5.8747760232
 20
-13.0050866332
 10
5.8471777135
 20
-11.2476194151
 10
5.8261041991
 20
-9.4356129957
 10
5.811967144
 20
-7.5893636145
 10
5.804766548
 20
-5.7088712715
  0
LWPOLYLINE
  5
28A
100
AcDbEntity
  8
0
100
AcDbPolyline
 62
253
  6
CONTINUOUS
 90
10
 70
0
 10
5.8047664778
 20
-4.4887557892
 10
5.8097805025
 20
-2.8012936849
 10
5.8219850905
 20
-1.0849136659
 10
5.8413802417
 20
0.6603842679
 10
5.8671642376
 20
2.4209586078
 10
5.9001387967
 20
4.2104508625
 10
5.9427090745
 20
6.0697855576
 10
5.9956767893
 20
8.0126042017
 10
6.0582402227
 20
10.0252652862
 10
6.1303993747
 20
12.1077688111
  0
LWPOLYLINE
  5
28B
100
AcDbEntity
  8
0
100
AcDbPolyline
 62
253
  6
CONTINUOUS
 90
10
 70
0
 10
5.1384951895
 20
-4.4995302135
 10
5.1438808694
 20
-2.8100961008
 10
5.155740376
 20
-1.0918828922
 10
5.1743553539
 20
0.6552373226
 10
5.1997894997
 20
2.4180031104
 10
5.2324505093
 20
4.2098723858
 10
5.2736060211
 20
6.0713075128
 10
5.3244175873
 20
8.0161718184
 10
5.3854249877
 20
10.0314437498
 10
5.4574679556
 20
12.1175237878
  0
LWPOLYLINE
  5
28C
100
AcDbEntity
  8
0
100
AcDbPolyline
 62
253
  6
CONTINUOUS
 90
16
 70
0
 10
5.138495357
 20
-5.720898599
 10
5.1406081644
 20
-5.6766002185
 10
5.1456940039
 20
-5.6311244249
 10
5.1538778649
 20
-5.5846247683
 10
5.1656919647
 20
-5.5370550316
 10
5.1810229355
 20
-5.4885938231
 10
5.199012557
 20
-5.4400896533
 10
5.2198176241
 20
-5.3925644448
 10
5.2436436073
 20
-5.346251157
 10
5.2695211941
 20
-5.3013137147
 10
5.2973942255
 20
-5.2586242175
 10
5.3273757117
 20
-5.2188007042
 10
5.3585641668
 20
-5.1817587515
 10
5.3905743614
 20
-5.1479328686
 10
5.4235949926
 20
-5.1181838231
 10
5.457503964
 20
-5.0930220534
  0
LWPOLYLINE
  5
28D
100
AcDbEntity
  8
0
100
AcDbPolyline
 62
253
  6
CONTINUOUS
 90
9
 70
0
 10
5.804766478
 20
-4.4887557891
 10
5.8025985408
 20
-4.5299820593
 10
5.7967458064
 20
-4.5686517019
 10
5.7872345907
 20
-4.6043189679
 10
5.7741156272
 20
-4.6365972371
 10
5.7575060334
 20
-4.665054823
 10
5.7376260429
 20
-4.6892651378
 10
5.7147231985
 20
-4.7089407163
 10
5.6975349871
 20
-4.7196363484
  0
LWPOLYLINE
  5
28E
100
AcDbEntity
  8
0
100
AcDbPolyline
 62
253
  6
CONTINUOUS
 90
22
 70
0
 10
5.457467972
 20
12.1175237922
 10
5.4619748608
 20
12.1888750613
 10
5.4705845298
 20
12.262113529
 10
5.4832566593
 20
12.3368762022
 10
5.4999370835
 20
12.4127835873
 10
5.5205423983
 20
12.4894671599
 10
5.544962943
 20
12.5665717167
 10
5.573092498
 20
12.6437179456
 10
5.6047973765
 20
12.7205170448
 10
5.6399030437
 20
12.7965986038
 10
5.6782502146
 20
12.8715800029
 10
5.7196596086
 20
12.9450870797
 10
5.7639039871
 20
13.0167691503
 10
5.8107824217
 20
13.0862654147
 10
5.8600746033
 20
13.1532246287
 10
5.911505478
 20
13.2173260712
 10
5.9648347848
 20
13.2782410782
 10
6.0198163885
 20
13.3356645185
 10
6.0761532478
 20
13.3893331871
 10
6.1335700972
 20
13.4389812054
 10
6.191814161
 20
13.4843427011
 10
6.2506146699
 20
13.5251825382
  0
LWPOLYLINE
  5
28F
100
AcDbEntity
  8
0
100
AcDbPolyline
 62
253
  6
CONTINUOUS
 90
22
 70
0
 10
6.1303993747
 20
12.1077688111
 10
6.1332133069
 20
12.1494382847
 10
6.1384607715
 20
12.1917991875
 10
6.1461417686
 20
12.2348515196
 10
6.1563176065
 20
12.2788320184
 10
6.1689269769
 20
12.3235039465
 10
6.1837859544
 20
12.3681570913
 10
6.2009267034
 20
12.4127732943
 10
6.2203170595
 20
12.4573707139
 10
6.2416766038
 20
12.5012936137
 10
6.2650367589
 20
12.5445349795
 10
6.2903661021
 20
12.5871018254
 10
6.3172899474
 20
12.6283594568
 10
6.3458320077
 20
12.6682868626
 10
6.37596857
 20
12.706905054
 10
6.4072538089
 20
12.7436423698
 10
6.4397206081
 20
12.7784802934
 10
6.473336084
 20
12.8114373414
 10
6.50755576
 20
12.8419974028
 10
6.542198144
 20
12.8699884408
 10
6.5774447282
 20
12.8955824922
 10
6.6132955125
 20
12.9187795572
  0
LWPOLYLINE
  5
290
100
AcDbEntity
  8
0
100
AcDbPolyline
 62
253
  6
CONTINUOUS
 90
43
 70
0
 10
-1.6572805263
 20
7.0838507691
 10
-1.6373903893
 20
7.0728740693
 10
-1.617470986
 20
7.0625062865
 10
-1.5975068138
 20
7.0527482967
 10
-1.5774823697
 20
7.043600976
 10
-1.5573821511
 20
7.0350652005
 10
-1.5371906552
 20
7.0271418464
 10
-1.5168923793
 20
7.0198317897
 10
-1.4964820389
 20
7.0131393495
 10
-1.4759952234
 20
7.0070826169
 10
-1.4554777403
 20
7.0016831261
 10
-1.4349753972
 20
6.9969624111
 10
-1.4145340017
 20
6.9929420062
 10
-1.3941993614
 20
6.9896434454
 10
-1.374017284
 20
6.9870882628
 10
-1.3540287448
 20
6.9852948391
 10
-1.3342553901
 20
6.9842689413
 10
-1.3147140337
 20
6.9840131828
 10
-1.2954214898
 20
6.9845301772
 10
-1.2763945722
 20
6.9858225381
 10
-1.2576500951
 20
6.9878928788
 10
-1.2392048723
 20
6.990743813
 10
-1.2210748187
 20
6.9943761933
 10
-1.2032722532
 20
6.9987838294
 10
-1.1858085953
 20
7.0039587701
 10
-1.1686952646
 20
7.0098930643
 10
-1.1519436809
 20
7.0165787609
 10
-1.1355652637
 20
7.0240079087
 10
-1.1195714327
 20
7.0321725565
 10
-1.1039748198
 20
7.0410620831
 10
-1.0887929063
 20
7.0506551865
 10
-1.0740443857
 20
7.0609278948
 10
-1.0597479516
 20
7.0718562357
 10
-1.0459222974
 20
7.0834162373
 10
-1.0325861167
 20
7.0955839275
 10
-1.019758103
 20
7.1083353343
 10
-1.0074529233
 20
7.1216519037
 10
-0.9956691381
 20
7.1355367546
 10
-0.9844012813
 20
7.1499984239
 10
-0.9736438868
 20
7.1650454487
 10
-0.9633914887
 20
7.1806863659
 10
-0.9536386208
 20
7.1969297125
 10
-0.9423031115
 20
7.2175660242
  0
LWPOLYLINE
  5
291
100
AcDbEntity
  8
0
100
AcDbPolyline
 62
253
  6
CONTINUOUS
 90
23
 70
0
 10
-0.6802024427
 20
7.6843637486
 10
-0.6809124904
 20
7.6847619286
 10
-0.6816302167
 20
7.6851712772
 10
-0.682355821
 20
7.6855925187
 10
-0.683089503
 20
7.6860263771
 10
-0.6838314624
 20
7.6864735769
 10
-0.6845818987
 20
7.6869348422
 10
-0.6853410115
 20
7.6874108973
 10
-0.686012415
 20
7.6878401069
 10
-0.6866901806
 20
7.688281439
 10
-0.6873738743
 20
7.688735138
 10
-0.6880630624
 20
7.6892014485
 10
-0.688757311
 20
7.6896806148
 10
-0.6894561864
 20
7.6901728816
 10
-0.6901592548
 20
7.6906784933
 10
-0.6908660824
 20
7.6911976944
 10
-0.6914972195
 20
7.6916708603
 10
-0.6921309247
 20
7.692155415
 10
-0.6927671386
 20
7.6926518169
 10
-0.6934058017
 20
7.6931605243
 10
-0.6940468546
 20
7.6936819956
 10
-0.694690238
 20
7.694216689
 10
-0.6953358925
 20
7.694765063
  0
LWPOLYLINE
  5
292
100
AcDbEntity
  8
0
100
AcDbPolyline
 62
253
  6
CONTINUOUS
 90
58
 70
0
 10
-1.6650974323
 20
6.7254317671
 10
-1.6983326874
 20
6.7449509681
 10
-1.7315061891
 20
6.7657522651
 10
-1.7646957141
 20
6.7878692533
 10
-1.7979691617
 20
6.8113362383
 10
-1.8313549213
 20
6.8361903665
 10
-1.8648715054
 20
6.8624694945
 10
-1.8985130408
 20
6.8901905465
 10
-1.9321761141
 20
6.9192867169
 10
-1.9657329266
 20
6.9496702675
 10
-1.9990619699
 20
6.9812525435
 10
-2.0320668968
 20
7.0139412244
 10
-2.0646576501
 20
7.0476430731
 10
-2.0967581058
 20
7.0822793936
 10
-2.1283478708
 20
7.1178296548
 10
-2.1594204851
 20
7.1542878665
 10
-2.1899646472
 20
7.1916444644
 10
-2.2199496912
 20
7.2298755857
 10
-2.2493401098
 20
7.2689537931
 10
-2.2709700922
 20
7.2988003867
 10
-2.2922231521
 20
7.3290877154
 10
-2.3130768164
 20
7.359795462
 10
-2.3335086121
 20
7.3909033091
 10
-2.3534924505
 20
7.4223822398
 10
-2.3729877802
 20
7.4541684394
 10
-2.391950434
 20
7.4861893938
 10
-2.4103362449
 20
7.5183725887
 10
-2.4281142441
 20
7.5506639936
 10
-2.4453062575
 20
7.5830835127
 10
-2.4619473093
 20
7.615669534
 10
-2.478072424
 20
7.6484604452
 10
-2.4937138522
 20
7.6814986785
 10
-2.5088927501
 20
7.7148428428
 10
-2.5236275003
 20
7.7485555914
 10
-2.5379364851
 20
7.7826995773
 10
-2.5518269925
 20
7.8173078282
 10
-2.5652619315
 20
7.8522948686
 10
-2.5781931163
 20
7.8875455975
 10
-2.5905723612
 20
7.9229449139
 10
-2.6023616347
 20
7.9584078494
 10
-2.6135635222
 20
7.9939699658
 10
-2.6241907636
 20
8.0296969576
 10
-2.6342560986
 20
8.0656545192
 10
-2.6437616191
 20
8.1018690315
 10
-2.6526668264
 20
8.1382096212
 10
-2.660920574
 20
8.1745061015
 10
-2.6684717154
 20
8.2105882853
 10
-2.6752778665
 20
8.2462830355
 10
-2.6813316923
 20
8.281405414
 10
-2.6866346199
 20
8.3157675323
 10
-2.6911880767
 20
8.3491815019
 10
-2.6950006297
 20
8.3815089331
 10
-2.6981094058
 20
8.4128094313
 10
-2.7005586716
 20
8.4431921006
 10
-2.7023926937
 20
8.4727660451
 10
-2.7039443823
 20
8.5110973312
 10
-2.7045070952
 20
8.5482562734
 10
-2.7041069268
 20
8.5843142976
  0
LWPOLYLINE
  5
293
100
AcDbEntity
  8
0
100
AcDbPolyline
 62
253
  6
CONTINUOUS
 90
42
 70
0
 10
-4.3270708508
 20
8.279444433
 10
-4.336820811
 20
8.2854272676
 10
-4.346535004
 20
8.2916210667
 10
-4.3562160619
 20
8.2980329435
 10
-4.3658666164
 20
8.3046700112
 10
-4.3754892995
 20
8.3115393832
 10
-4.385086743
 20
8.3186481726
 10
-4.3946597573
 20
8.3260025633
 10
-4.404201867
 20
8.3336050219
 10
-4.4137047753
 20
8.3414570855
 10
-4.4231601852
 20
8.3495602912
 10
-4.4325597999
 20
8.3579161761
 10
-4.4418953224
 20
8.3665262774
 10
-4.4498399469
 20
8.3741100046
 10
-4.4577264588
 20
8.3818834384
 10
-4.4655499296
 20
8.389848385
 10
-4.4733054304
 20
8.3980066504
 10
-4.4809880326
 20
8.4063600408
 10
-4.4885928073
 20
8.4149103623
 10
-4.496114826
 20
8.4236594211
 10
-4.5035488185
 20
8.432607544
 10
-4.5108881497
 20
8.4417491421
 10
-4.5181258431
 20
8.4510771468
 10
-4.5252549222
 20
8.4605844901
 10
-4.5322684105
 20
8.4702641035
 10
-4.5391593315
 20
8.4801089189
 10
-4.5459207086
 20
8.4901118679
 10
-4.5525453779
 20
8.500265222
 10
-4.5590254246
 20
8.5105586119
 10
-4.5653527466
 20
8.5209810081
 10
-4.5715192416
 20
8.5315213808
 10
-4.5775168074
 20
8.5421687005
 10
-4.5833373419
 20
8.5529119378
 10
-4.5889727426
 20
8.5637400629
 10
-4.593745903
 20
8.5732773484
 10
-4.5983682181
 20
8.5828740661
 10
-4.6028367889
 20
8.5925331002
 10
-4.6071487165
 20
8.6022573351
 10
-4.6113011019
 20
8.6120496551
 10
-4.615291046
 20
8.6219129445
 10
-4.6191156497
 20
8.6318500878
 10
-4.6227720142
 20
8.6418639692
  0
LWPOLYLINE
  5
294
100
AcDbEntity
  8
0
100
AcDbPolyline
 62
253
  6
CONTINUOUS
 90
21
 70
0
 10
-1.4334085949
 20
8.7290070186
 10
-1.4428655809
 20
8.7370183909
 10
-1.4522729045
 20
8.7448837407
 10
-1.461631227
 20
8.7526014139
 10
-1.4709412098
 20
8.7601697563
 10
-1.480203514
 20
8.7675871136
 10
-1.489418801
 20
8.7748518318
 10
-1.4985877321
 20
8.7819622566
 10
-1.5077109686
 20
8.7889167338
 10
-1.5167891717
 20
8.7957136093
 10
-1.5258230027
 20
8.8023512288
 10
-1.5348129901
 20
8.8088279325
 10
-1.5437591308
 20
8.8151420371
 10
-1.5526612892
 20
8.8212918537
 10
-1.5615193292
 20
8.8272756936
 10
-1.5703331152
 20
8.8330918677
 10
-1.5791025112
 20
8.8387386872
 10
-1.5878273815
 20
8.8442144632
 10
-1.5965075902
 20
8.8495175067
 10
-1.6051430016
 20
8.8546461289
 10
-1.6137334797
 20
8.8595986408
  0
LINE
  5
295
100
AcDbEntity
  8
0
100
AcDbLine
 62
253
  6
CONTINUOUS
 10
-0.6953358925
 20
7.694765063
 11
-1.2665606642
 21
8.190114097
  0
LINE
  5
296
100
AcDbEntity
  8
0
100
AcDbLine
 62
253
  6
CONTINUOUS
 10
-1.2665606642
 20
8.190114097
 11
-1.5509821739
 21
8.4386859239
  0
LINE
  5
297
100
AcDbEntity
  8
0
100
AcDbLine
 62
253
  6
CONTINUOUS
 10
-0.6959837587
 20
7.6953275758
 11
-0.6966337771
 21
7.6959046858
  0
LWPOLYLINE
  5
298
100
AcDbEntity
  8
0
100
AcDbPolyline
 62
253
  6
CONTINUOUS
 90
41
 70
0
 10
-1.5509821739
 20
8.4386859239
 10
-1.5523579415
 20
8.4399323425
 10
-1.5537139427
 20
8.4412051269
 10
-1.5550524285
 20
8.4425055681
 10
-1.5563756502
 20
8.4438349566
 10
-1.5576858589
 20
8.4451945833
 10
-1.5589853058
 20
8.4465857389
 10
-1.5602762419
 20
8.4480097142
 10
-1.5617738424
 20
8.4497137946
 10
-1.5632620681
 20
8.4514637936
 10
-1.5647400641
 20
8.453259202
 10
-1.5662069754
 20
8.4550995102
 10
-1.5676619471
 20
8.4569842089
 10
-1.5691041245
 20
8.4589127887
 10
-1.5705324431
 20
8.4608844106
 10
-1.5719450009
 20
8.4628969169
 10
-1.5733396866
 20
8.4649478207
 10
-1.5747143888
 20
8.4670346347
 10
-1.5760669961
 20
8.4691548718
 10
-1.577395397
 20
8.4713060449
 10
-1.5786975288
 20
8.4734856844
 10
-1.5799715225
 20
8.4756913911
 10
-1.5812155579
 20
8.477920783
 10
-1.5824278148
 20
8.4801714787
 10
-1.5836064728
 20
8.4824410962
 10
-1.5847497117
 20
8.484727254
 10
-1.5857001144
 20
8.4866982833
 10
-1.5866223354
 20
8.4886788531
 10
-1.5875155529
 20
8.4906681016
 10
-1.5883789447
 20
8.492665167
 10
-1.5892116889
 20
8.4946691876
 10
-1.5900129634
 20
8.4966793016
 10
-1.5907819462
 20
8.4986946474
 10
-1.5914276543
 20
8.5004620457
 10
-1.5920473614
 20
8.5022343513
 10
-1.5926404191
 20
8.504013126
 10
-1.5932061791
 20
8.5057999314
 10
-1.593743993
 20
8.507596329
 10
-1.5942532125
 20
8.5094038805
 10
-1.5947331892
 20
8.5112241475
 10
-1.5951832749
 20
8.5130586917
  0
LWPOLYLINE
  5
299
100
AcDbEntity
  8
0
100
AcDbPolyline
 62
253
  6
CONTINUOUS
 90
53
 70
0
 10
-0.7359651553
 20
7.1892170333
 10
-0.7317309254
 20
7.1845167951
 10
-0.7276020884
 20
7.1797364091
 10
-0.723566829
 20
7.174866018
 10
-0.7196133321
 20
7.1698957645
 10
-0.7157297826
 20
7.1648157913
 10
-0.7119068204
 20
7.1596180725
 10
-0.7081449061
 20
7.1543019076
 10
-0.7044469553
 20
7.1488684274
 10
-0.7008158836
 20
7.1433187627
 10
-0.6972546066
 20
7.1376540443
 10
-0.693766717
 20
7.131876466
 10
-0.6903585156
 20
7.1259924735
 10
-0.68703698
 20
7.1200095754
 10
-0.6838090882
 20
7.1139352804
 10
-0.6806818178
 20
7.1077770971
 10
-0.678158357
 20
7.1025887268
 10
-0.6757178561
 20
7.097364341
 10
-0.6733685533
 20
7.0921209655
 10
-0.6711167278
 20
7.0868709005
 10
-0.668960823
 20
7.0816075433
 10
-0.6668973229
 20
7.0763195657
 10
-0.6645405549
 20
7.0699311585
 10
-0.6623201587
 20
7.0635051017
 10
-0.6602445061
 20
7.0570555121
 10
-0.6583219687
 20
7.0505965064
 10
-0.656560918
 20
7.0441422013
 10
-0.6549681355
 20
7.037706399
 10
-0.6535440414
 20
7.0313016435
 10
-0.6522874657
 20
7.0249401639
 10
-0.6511972383
 20
7.0186341898
 10
-0.6502721892
 20
7.0123959504
 10
-0.649626437
 20
7.0072549513
 10
-0.6490926316
 20
7.0021583741
 10
-0.6486688252
 20
6.9970951103
 10
-0.648353503
 20
6.9920589366
 10
-0.6481468817
 20
6.9870631711
 10
-0.648049611
 20
6.9821260173
 10
-0.6480773321
 20
6.9763003857
 10
-0.6482597065
 20
6.9705925549
 10
-0.6485929871
 20
6.9650097118
 10
-0.6490734269
 20
6.9595590435
 10
-0.6496972785
 20
6.954247737
 10
-0.6504609838
 20
6.9490817211
 10
-0.6513617392
 20
6.9440618912
 10
-0.6523969299
 20
6.9391878845
 10
-0.6535639414
 20
6.9344593382
 10
-0.6548601587
 20
6.9298758895
 10
-0.6562846357
 20
6.9254359751
 10
-0.6578430991
 20
6.9211332297
 10
-0.6595429442
 20
6.9169600873
 10
-0.6613915665
 20
6.912908982
 10
-0.663396361
 20
6.9089723481
  0
LINE
  5
29A
100
AcDbEntity
  8
0
100
AcDbLine
 62
253
  6
CONTINUOUS
 10
9.3827809474
 20
-2.9037392066
 11
5.4575039641
 21
-5.0930220534
  0
LINE
  5
29B
100
AcDbEntity
  8
0
100
AcDbLine
 62
253
  6
CONTINUOUS
 10
9.7363747421
 20
-3.516057257
 11
5.804766548
 21
-5.7088712715
  0
LINE
  5
29C
100
AcDbEntity
  8
0
100
AcDbLine
 62
253
  6
CONTINUOUS
 10
5.8047664778
 20
-4.4887557892
 11
9.7363747421
 21
-2.3731542964
  0
LINE
  5
29D
100
AcDbEntity
  8
0
100
AcDbLine
 62
7
  6
CONTINUOUS
 10
5.6975159541
 20
-4.7196465917
 11
9.6285024017
 21
-2.6043796989
  0
LWPOLYLINE
  5
29E
100
AcDbEntity
  8
0
100
AcDbPolyline
 62
253
  6
CONTINUOUS
 90
16
 70
0
 10
5.8047665489
 20
-5.708871271
 10
5.7679132745
 20
-5.727243501
 10
5.7281540436
 20
-5.7434618861
 10
5.6858648067
 20
-5.7573730705
 10
5.6414454444
 20
-5.768845513
 10
5.5953159651
 20
-5.7777707363
 10
5.5479125313
 20
-5.7840643487
 10
5.4996833509
 20
-5.7876668371
 10
5.4510844853
 20
-5.7885441301
 10
5.4025755156
 20
-5.7866879313
 10
5.3546151493
 20
-5.7821157987
 10
5.3076568612
 20
-5.7748709684
 10
5.2621446526
 20
-5.7650219434
 10
5.2185088657
 20
-5.752661851
 10
5.1771621134
 20
-5.7379075656
 10
5.138495357
 20
-5.720898599
  0
LWPOLYLINE
  5
29F
100
AcDbEntity
  8
0
100
AcDbPolyline
 62
253
  6
CONTINUOUS
 90
31
 70
0
 10
-3.9858244219
 20
8.1943382181
 10
-3.9978783539
 20
8.1934442146
 10
-4.0099009054
 20
8.1928461634
 10
-4.0218922745
 20
8.1925400958
 10
-4.0338526595
 20
8.1925220429
 10
-4.0457822583
 20
8.1927880359
 10
-4.0576812692
 20
8.193334106
 10
-4.0695498903
 20
8.1941562844
 10
-4.0813883197
 20
8.1952506022
 10
-4.0931967555
 20
8.1966130907
 10
-4.1049753959
 20
8.1982397811
 10
-4.1167233149
 20
8.2001265023
 10
-4.1284350901
 20
8.2022682744
 10
-4.1401041748
 20
8.2046599149
 10
-4.1517240225
 20
8.2072962418
 10
-4.1632880867
 20
8.2101720728
 10
-4.1747898207
 20
8.2132822255
 10
-4.1862226779
 20
8.2166215179
 10
-4.1975801119
 20
8.2201847675
 10
-4.208855576
 20
8.2239667922
 10
-4.2200425237
 20
8.2279624098
 10
-4.2311358759
 20
8.2321673562
 10
-4.2421364235
 20
8.2365810411
 10
-4.253046425
 20
8.241203792
 10
-4.2638681387
 20
8.2460359368
 10
-4.2746038232
 20
8.2510778033
 10
-4.2852557367
 20
8.2563297193
 10
-4.2958261379
 20
8.2617920124
 10
-4.306317285
 20
8.2674650106
 10
-4.3167314365
 20
8.2733490415
 10
-4.3270708508
 20
8.279444433
  0
LWPOLYLINE
  5
2A0
100
AcDbEntity
  8
0
100
AcDbPolyline
 62
253
  6
CONTINUOUS
 90
57
 70
0
 10
-1.6137334797
 20
8.8595986408
 10
-1.6343229786
 20
8.8709422799
 10
-1.6546111605
 20
8.881445
 10
-1.6746012054
 20
8.8911378523
 10
-1.6942962934
 20
8.9000518877
 10
-1.7136996046
 20
8.9082181572
 10
-1.7328143191
 20
8.9156677119
 10
-1.7516436169
 20
8.9224316027
 10
-1.7701906782
 20
8.9285408807
 10
-1.7910423681
 20
8.9347579011
 10
-1.811513712
 20
8.9401871615
 10
-1.8315888459
 20
8.9448553498
 10
-1.8512519057
 20
8.9487891541
 10
-1.8704870273
 20
8.9520152624
 10
-1.8892783467
 20
8.9545603628
 10
-1.9076099998
 20
8.9564511432
 10
-1.9284046588
 20
8.9578638047
 10
-1.9485860485
 20
8.9584533745
 10
-1.9681881491
 20
8.9582510377
 10
-1.9872449408
 20
8.9572879791
 10
-2.0057904039
 20
8.955595384
 10
-2.0238585187
 20
8.9532044374
 10
-2.0449465184
 20
8.949451397
 10
-2.0653858912
 20
8.9447555913
 10
-2.08516646
 20
8.9391349747
 10
-2.1042780478
 20
8.9326075017
 10
-2.1227104776
 20
8.9251911266
 10
-2.1404564944
 20
8.916907146
 10
-2.1575205318
 20
8.9077902245
 10
-2.1739099451
 20
8.897878369
 10
-2.1896320899
 20
8.8872095861
 10
-2.2046943218
 20
8.8758218826
 10
-2.2191063209
 20
8.8637507431
 10
-2.2328870667
 20
8.8510215632
 10
-2.2460578636
 20
8.837657216
 10
-2.2586400156
 20
8.823680575
 10
-2.270654827
 20
8.8091145135
 10
-2.2821213508
 20
8.7939784456
 10
-2.2930496347
 20
8.778277949
 10
-2.3034474749
 20
8.7620151421
 10
-2.3133226678
 20
8.7451921434
 10
-2.3226830098
 20
8.7278110712
 10
-2.3315338423
 20
8.7098755131
 10
-2.3398706871
 20
8.6913949325
 10
-2.3476866107
 20
8.6723802615
 10
-2.3549746801
 20
8.6528424327
 10
-2.3617279619
 20
8.6327923782
 10
-2.3679392451
 20
8.6122423045
 10
-2.3736002072
 20
8.5912095142
 10
-2.378702248
 20
8.5697125839
 10
-2.3832367672
 20
8.5477700903
 10
-2.3871951646
 20
8.52540061
 10
-2.3905684791
 20
8.5026172689
 10
-2.3933463067
 20
8.4794113894
 10
-2.3955178826
 20
8.4557688433
 10
-2.3970724419
 20
8.4316755021
 10
-2.3979992199
 20
8.4071172374
  0
LWPOLYLINE
  5
2A1
100
AcDbEntity
  8
0
100
AcDbPolyline
 62
253
  6
CONTINUOUS
 90
25
 70
0
 10
-1.6039439025
 20
9.2191278352
 10
-1.5882100241
 20
9.2100572412
 10
-1.5724887183
 20
9.200718289
 10
-1.5567771957
 20
9.1911096336
 10
-1.5410726669
 20
9.1812299306
 10
-1.5253723425
 20
9.1710778351
 10
-1.509673433
 20
9.1606520024
 10
-1.4939731491
 20
9.1499510878
 10
-1.4782687012
 20
9.1389737466
 10
-1.4625591491
 20
9.1277198219
 10
-1.4468509481
 20
9.1161939086
 10
-1.4311524027
 20
9.1044017894
 10
-1.4154718174
 20
9.0923492469
 10
-1.3998174966
 20
9.0800420639
 10
-1.3841977448
 20
9.067486023
 10
-1.3686208664
 20
9.0546869069
 10
-1.353095166
 20
9.0416504983
 10
-1.3376272364
 20
9.0283809789
 10
-1.3222168246
 20
9.0148761259
 10
-1.3068619659
 20
9.0011321157
 10
-1.2915606958
 20
8.9871451244
 10
-1.2763110495
 20
8.9729113283
 10
-1.2611110626
 20
8.9584269037
 10
-1.2459587704
 20
8.9436880268
 10
-1.2308522083
 20
8.9286908739
  0
LWPOLYLINE
  5
2A2
100
AcDbEntity
  8
0
100
AcDbPolyline
 62
253
  6
CONTINUOUS
 90
42
 70
0
 10
-3.7511735042
 20
11.0318092453
 10
-3.7480298819
 20
11.029888409
 10
-3.7449084165
 20
11.0278776408
 10
-3.7418057721
 20
11.0257774646
 10
-3.738718613
 20
11.023588404
 10
-3.7356436031
 20
11.0213109827
 10
-3.7325774066
 20
11.0189457245
 10
-3.7289059727
 20
11.0159923197
 10
-3.7252430522
 20
11.0129147632
 10
-3.721589271
 20
11.0097146341
 10
-3.7179452548
 20
11.0063935117
 10
-3.7143116295
 20
11.0029529753
 10
-3.7106897951
 20
10.9993954414
 10
-3.7070842488
 20
10.9957266764
 10
-3.7035002622
 20
10.9919532837
 10
-3.6999431065
 20
10.9880818669
 10
-3.6964180534
 20
10.9841190296
 10
-3.692929918
 20
10.9800710112
 10
-3.6894816898
 20
10.9759425937
 10
-3.6860759023
 20
10.9717381951
 10
-3.6827150889
 20
10.9674622334
 10
-3.6794017827
 20
10.9631191263
 10
-3.676138542
 20
10.9587132516
 10
-3.6729280236
 20
10.9542488252
 10
-3.6697729091
 20
10.949730023
 10
-3.6666758801
 20
10.9451610209
 10
-3.6636396181
 20
10.9405459945
 10
-3.660667096
 20
10.9358897799
 10
-3.6577624517
 20
10.9311998535
 10
-3.6549301141
 20
10.926484352
 10
-3.6521745124
 20
10.921751412
 10
-3.6495000757
 20
10.9170091701
 10
-3.6469104963
 20
10.9122645849
 10
-3.6444065194
 20
10.9075199036
 10
-3.6419881535
 20
10.9027761953
 10
-3.639655407
 20
10.8980345289
 10
-3.6374082885
 20
10.8932959737
 10
-3.6352465359
 20
10.8885599413
 10
-3.6331688053
 20
10.8838192132
 10
-3.6311734823
 20
10.8790649137
 10
-3.6292589524
 20
10.8742881669
 10
-3.6274236012
 20
10.869480097
  0
LWPOLYLINE
  5
2A3
100
AcDbEntity
  8
0
100
AcDbPolyline
 62
253
  6
CONTINUOUS
 90
41
 70
0
 10
-1.0247386663
 20
9.0679250146
 10
-1.0232193172
 20
9.066840552
 10
-1.0217184747
 20
9.0657180327
 10
-1.0202334062
 20
9.064556534
 10
-1.0187613791
 20
9.0633551333
 10
-1.017299661
 20
9.0621129079
 10
-1.0158455191
 20
9.0608289351
 10
-1.014396221
 20
9.0595022922
 10
-1.0127087481
 20
9.0578997122
 10
-1.0110252003
 20
9.0562383201
 10
-1.0093466292
 20
9.0545186381
 10
-1.0076740865
 20
9.0527411886
 10
-1.0060086236
 20
9.0509064941
 10
-1.0043512923
 20
9.049015077
 10
-1.0027034125
 20
9.0470678288
 10
-1.0010673783
 20
9.0450671184
 10
-0.9994458519
 20
9.0430156835
 10
-0.9978414959
 20
9.0409162623
 10
-0.9962569725
 20
9.0387715927
 10
-0.9946949443
 20
9.0365844125
 10
-0.9933759514
 20
9.0346779095
 10
-0.9920769137
 20
9.0327438032
 10
-0.9907993033
 20
9.0307837112
 10
-0.9895445925
 20
9.0287992507
 10
-0.9883142533
 20
9.0267920392
 10
-0.9871097579
 20
9.0247636941
 10
-0.9859325785
 20
9.0227158328
 10
-0.9847841378
 20
9.0206499841
 10
-0.9836656615
 20
9.0185673228
 10
-0.982578326
 20
9.0164689348
 10
-0.9815233074
 20
9.0143559063
 10
-0.9805017822
 20
9.0122293234
 10
-0.9795149266
 20
9.0100902721
 10
-0.978563917
 20
9.0079398385
 10
-0.9777621249
 20
9.0060492611
 10
-0.976989536
 20
9.0041487385
 10
-0.9762470086
 20
9.0022362088
 10
-0.9755354008
 20
9.0003096099
 10
-0.9748555706
 20
8.9983668797
 10
-0.9742083763
 20
8.9964059561
 10
-0.9735946759
 20
8.9944247771
  0
LINE
  5
2A4
100
AcDbEntity
  8
0
100
AcDbLine
 62
7
  6
CONTINUOUS
 10
9.1897060174
 20
14.4823758511
 11
9.7363747421
 21
7.7511548493
  0
LINE
  5
2A5
100
AcDbEntity
  8
0
100
AcDbLine
 62
7
  6
CONTINUOUS
 10
9.7363747421
 20
7.7511548493
 11
9.7363747421
 21
-2.3731542964
  0
LINE
  5
2A6
100
AcDbEntity
  8
0
100
AcDbLine
 62
7
  6
CONTINUOUS
 10
9.7363747421
 20
-13.6403664027
 11
9.7363747421
 21
-3.516057257
  0
LWPOLYLINE
  5
2A7
100
AcDbEntity
  8
0
100
AcDbPolyline
 62
253
  6
CONTINUOUS
 90
53
 70
0
 10
-3.1689537869
 20
8.7967823023
 10
-3.1698695631
 20
8.7966523768
 10
-3.1707952222
 20
8.7965754091
 10
-3.1717308534
 20
8.7965494071
 10
-3.172676546
 20
8.7965723784
 10
-3.1736323893
 20
8.7966423307
 10
-3.1745984726
 20
8.7967572718
 10
-3.1755748853
 20
8.7969152093
 10
-3.1765617167
 20
8.7971141509
 10
-3.1777023116
 20
8.7973895296
 10
-3.1788562584
 20
8.7977150689
 10
-3.180023184
 20
8.7980899748
 10
-3.1812027156
 20
8.7985134537
 10
-3.1823944803
 20
8.7989847119
 10
-3.1835981051
 20
8.7995029554
 10
-3.1848132172
 20
8.8000673907
 10
-3.1862444739
 20
8.8007830314
 10
-3.1876878945
 20
8.8015580675
 10
-3.189140515
 20
8.8023901029
 10
-3.1905993715
 20
8.8032767414
 10
-3.1920614998
 20
8.8042155867
 10
-3.1935239362
 20
8.8052042428
 10
-3.1949837825
 20
8.8062402164
 10
-3.1964384051
 20
8.8073206258
 10
-3.1978852362
 20
8.8084424925
 10
-3.199321708
 20
8.8096028379
 10
-3.2007452528
 20
8.8107986832
 10
-3.202153303
 20
8.8120270498
 10
-3.2035436586
 20
8.8132853427
 10
-3.2049155917
 20
8.8145725011
 10
-3.206268742
 20
8.8158878477
 10
-3.2076027495
 20
8.8172307055
 10
-3.208917254
 20
8.8186003971
 10
-3.2102118954
 20
8.8199962454
 10
-3.2114860467
 20
8.821417359
 10
-3.2127380136
 20
8.8228619897
 10
-3.2139658352
 20
8.824328175
 10
-3.2151675502
 20
8.8258139527
 10
-3.2163411977
 20
8.8273173603
 10
-3.2174848165
 20
8.8288364354
 10
-3.2185966204
 20
8.8303693959
 10
-3.2196755221
 20
8.8319151806
 10
-3.2207206093
 20
8.8334729085
 10
-3.2217309695
 20
8.8350416987
 10
-3.2227056904
 20
8.8366206703
 10
-3.2236438595
 20
8.8382089424
 10
-3.2244182815
 20
8.8395775478
 10
-3.2251649697
 20
8.8409547532
 10
-3.2258837149
 20
8.8423429727
 10
-3.2265743079
 20
8.8437446205
 10
-3.2272365396
 20
8.8451621108
 10
-3.2278702008
 20
8.8465978578
 10
-3.2284750823
 20
8.8480542758
  0
LWPOLYLINE
  5
2A8
100
AcDbEntity
  8
0
100
AcDbPolyline
 62
253
  6
CONTINUOUS
 90
32
 70
0
 10
-4.3359035374
 20
9.169754621
 10
-4.325261773
 20
9.1705440712
 10
-4.3145978089
 20
9.1710667539
 10
-4.3039123754
 20
9.1713272804
 10
-4.2932062029
 20
9.1713302621
 10
-4.2824800217
 20
9.1710803106
 10
-4.2690463197
 20
9.1704188057
 10
-4.2555902175
 20
9.1693758861
 10
-4.2421194376
 20
9.1679581397
 10
-4.2286417022
 20
9.1661721548
 10
-4.2151626724
 20
9.1640237245
 10
-4.2016797636
 20
9.1615154625
 10
-4.1881883298
 20
9.1586491874
 10
-4.1746837249
 20
9.155426718
 10
-4.1611622023
 20
9.1518494011
 10
-4.1476236113
 20
9.1479166968
 10
-4.1340687009
 20
9.1436275935
 10
-4.1204982196
 20
9.1389810796
 10
-4.1069126711
 20
9.1339757206
 10
-4.0933115778
 20
9.1286083917
 10
-4.0796942169
 20
9.1228755451
 10
-4.0660598657
 20
9.1167736331
 10
-4.055139873
 20
9.111623625
 10
-4.0442094154
 20
9.1062311242
 10
-4.0332693643
 20
9.1005921103
 10
-4.0223205911
 20
9.0947025628
 10
-4.0113639673
 20
9.0885584614
 10
-4.0004002917
 20
9.0821553981
 10
-3.9894300723
 20
9.0754874146
 10
-3.9784537448
 20
9.0685481648
 10
-3.9674717445
 20
9.0613313027
 10
-3.9564845071
 20
9.0538304825
  0
LINE
  5
2A9
100
AcDbEntity
  8
0
100
AcDbLine
 62
7
  6
CONTINUOUS
 10
9.1897060174
 20
-20.9706491304
 11
9.7363747421
 21
-13.6403664027
  0
LWPOLYLINE
  5
2AA
100
AcDbEntity
  8
0
100
AcDbPolyline
 62
253
  6
CONTINUOUS
 90
9
 70
0
 10
-9.2912218489
 20
20.6332324647
 10
-9.3217667997
 20
20.6552808306
 10
-9.3483688299
 20
20.6787861365
 10
-9.3707700085
 20
20.7035204767
 10
-9.3887531354
 20
20.7292440292
 10
-9.4021438479
 20
20.7557073807
 10
-9.4108123108
 20
20.7826539448
 10
-9.4146744753
 20
20.8098224497
 10
-9.4148008916
 20
20.8230879159
  0
LINE
  5
2AB
100
AcDbEntity
  8
0
100
AcDbLine
 62
7
  6
CONTINUOUS
 10
6.8963711437
 20
16.1773343579
 11
6.2237262788
 21
16.0474638363
  0
LWPOLYLINE
  5
2AC
100
AcDbEntity
  8
0
100
AcDbPolyline
 62
253
  6
CONTINUOUS
 90
16
 70
0
 10
5.4574763844
 20
12.1175289291
 10
5.4960879687
 20
12.0996469763
 10
5.5375126729
 20
12.0838741921
 10
5.5813488547
 20
12.0703635051
 10
5.6271714904
 20
12.0592459113
 10
5.6745362965
 20
12.0506292037
 10
5.722984037
 20
12.0445969273
 10
5.772044976
 20
12.0412075692
 10
5.8212434323
 20
12.0404939918
 10
5.8701023912
 20
12.0424631138
 10
5.9181481298
 20
12.0470958431
 10
5.9649148099
 20
12.0543472621
 10
6.0099489948
 20
12.0641470629
 10
6.0528140455
 20
12.0764002294
 10
6.0930943544
 20
12.0909879584
 10
6.1303993747
 20
12.1077688111
  0
LINE
  5
2AD
100
AcDbEntity
  8
0
100
AcDbLine
 62
253
  6
CONTINUOUS
 10
6.2506146699
 20
13.5251825383
 11
5.7424688016
 21
13.7805901301
  0
LWPOLYLINE
  5
2AE
100
AcDbEntity
  8
0
100
AcDbPolyline
 62
253
  6
CONTINUOUS
 90
31
 70
0
 10
5.4574679556
 20
12.1175237878
 10
4.9486890459
 20
12.3746682321
 10
4.4420917426
 20
12.6330177526
 10
3.9376825739
 20
12.8925663556
 10
3.4355853462
 20
13.1532468832
 10
2.9356882436
 20
13.4151139206
 10
2.4376483264
 20
13.6783466236
 10
1.9413155143
 20
13.9430272462
 10
1.4468617044
 20
14.2090671743
 10
0.9544293274
 20
14.4763907761
 10
0.4640600661
 20
14.7449752661
 10
-0.0242708412
 20
15.014834013
 10
-0.5105226912
 20
15.2859443608
 10
-0.9947537355
 20
15.5583389738
 10
-1.4768889093
 20
15.8319757229
 10
-1.9566909369
 20
16.1067177736
 10
-2.4338475423
 20
16.3823801473
 10
-2.9086638002
 20
16.6591328806
 10
-3.3818224862
 20
16.9373750795
 10
-3.8524202998
 20
17.2165740647
 10
-4.3213411156
 20
17.4972546379
 10
-4.7918942252
 20
17.781432416
 10
-5.2632345404
 20
18.068647795
 10
-5.7360946834
 20
18.3594030434
 10
-6.2160242386
 20
18.6572252131
 10
-6.7030402918
 20
18.9622804954
 10
-7.196831567
 20
19.2745392492
 10
-7.7022913759
 20
19.5973208916
 10
-8.2208542858
 20
19.9318261932
 10
-8.7505828281
 20
20.2770911221
 10
-9.2912218507
 20
20.6332324524
  0
LWPOLYLINE
  5
2AF
100
AcDbEntity
  8
0
100
AcDbPolyline
 62
253
  6
CONTINUOUS
 90
30
 70
0
 10
5.7424688016
 20
13.7805901301
 10
5.2365767336
 20
14.037249543
 10
4.7329384659
 20
14.295160777
 10
4.2316900097
 20
14.5542532104
 10
3.7326953539
 20
14.8145974648
 10
3.2355464646
 20
15.076405405
 10
2.7400385505
 20
15.3397832026
 10
2.246376403
 20
15.6046246859
 10
1.7547663627
 20
15.8708232052
 10
1.265264251
 20
16.1383504399
 10
0.7778142465
 20
16.4072347105
 10
0.2924552257
 20
16.6774543287
 10
-0.1908842168
 20
16.9490519848
 10
-0.6721326757
 20
17.2219849884
 10
-1.1510370591
 20
17.49610358
 10
-1.6272992119
 20
17.7712320683
 10
-2.1012172893
 20
18.0475461446
 10
-2.5734326639
 20
18.3254231237
 10
-3.0430519653
 20
18.6042899455
 10
-3.510968564
 20
18.8847196701
 10
-3.9805039452
 20
19.1688087921
 10
-4.4509575317
 20
19.4560244143
 10
-4.9230299007
 20
19.746899434
 10
-5.4021442679
 20
20.0451290378
 10
-5.8886342139
 20
20.3507807663
 10
-6.3821661581
 20
20.6637870788
 10
-6.8871625745
 20
20.9876405405
 10
-7.4050976209
 20
21.3235053396
 10
-7.9344971394
 20
21.6702172878
 10
-8.4753611301
 20
22.0277763852
  0
LWPOLYLINE
  5
2B0
100
AcDbEntity
  8
0
100
AcDbPolyline
 62
253
  6
CONTINUOUS
 90
16
 70
0
 10
6.2506146699
 20
13.5251825382
 10
6.2866636001
 20
13.5010843496
 10
6.3225206341
 20
13.4729077757
 10
6.3577935991
 20
13.4409609872
 10
6.3920967103
 20
13.4055933899
 10
6.4250547902
 20
13.3671918038
 10
6.4563073727
 20
13.3261762318
 10
6.4855126443
 20
13.2829952665
 10
6.5123511834
 20
13.2381211833
 10
6.5365294536
 20
13.1920447756
 10
6.557783014
 20
13.1452699869
 10
6.575879412
 20
13.0983083988
 10
6.590620725
 20
13.0516736359
 10
6.6018457253
 20
13.0058757484
 10
6.6094316439
 20
12.9614156336
 10
6.6132955125
 20
12.9187795572
  0
LWPOLYLINE
  5
2B1
100
AcDbEntity
  8
0
100
AcDbPolyline
 62
253
  6
CONTINUOUS
 90
9
 70
0
 10
-8.4753611301
 20
22.0277763852
 10
-8.5131359965
 20
22.0463030597
 10
-8.5502952767
 20
22.0602850263
 10
-8.5864325488
 20
22.0695693767
 10
-8.6211525823
 20
22.0740545831
 10
-8.6540756277
 20
22.0736916043
 10
-8.684841576
 20
22.0684844358
 10
-8.7131139426
 20
22.0584900636
 10
-8.7352115018
 20
22.0461385608
  0
LINE
  5
2B2
100
AcDbEntity
  8
0
100
AcDbLine
 62
7
  6
CONTINUOUS
 10
6.0305411135
 20
16.0730726714
 11
3.6482560175
 21
17.4485742289
  0
LINE
  5
2B3
100
AcDbEntity
  8
0
100
AcDbLine
 62
7
  6
CONTINUOUS
 10
-1.8890548358
 20
20.6457481167
 11
-4.2713399318
 21
22.0212496741
  0
LINE
  5
2B4
100
AcDbEntity
  8
0
100
AcDbLine
 62
7
  6
CONTINUOUS
 10
8.8049189299
 20
15.0753627859
 11
6.8963711437
 21
16.1773343579
  0
LINE
  5
2B5
100
AcDbEntity
  8
0
100
AcDbLine
 62
7
  6
CONTINUOUS
 10
3.7767268568
 20
17.9785778709
 11
-1.0232248056
 21
20.7500098032
  0
LINE
  5
2B6
100
AcDbEntity
  8
0
100
AcDbLine
 62
7
  6
CONTINUOUS
 10
-4.1428690925
 20
22.5512533162
 11
-6.0514168786
 21
23.6532248881
  0
LINE
  5
2B7
100
AcDbEntity
  8
0
100
AcDbLine
 62
7
  6
CONTINUOUS
 10
-1.0232248056
 20
20.7500098032
 11
-1.6958696705
 21
20.6201392815
  0
LWPOLYLINE
  5
2B8
100
AcDbEntity
  8
0
100
AcDbPolyline
 62
253
  6
CONTINUOUS
 90
9
 70
0
 10
6.4887458034
 20
-22.4701579376
 10
6.5123527163
 20
-22.45623464
 10
6.536530784
 20
-22.436011637
 10
6.5577840821
 20
-22.4112494323
 10
6.5758801907
 20
-22.3822188807
 10
6.590621221
 20
-22.3492375107
 10
6.6018459755
 20
-22.3126660593
 10
6.6094317134
 20
-22.2729045299
 10
6.6132954955
 20
-22.2303878077
  0
LINE
  5
2B9
100
AcDbEntity
  8
0
100
AcDbLine
 62
253
  6
CONTINUOUS
 10
9.1897060174
 20
-20.9706491304
 11
6.6132954955
 21
-22.2303878077
  0
LINE
  5
2BA
100
AcDbEntity
  8
0
100
AcDbLine
 62
7
  6
CONTINUOUS
 10
9.0528154701
 20
-21.2164533346
 11
6.4887458034
 21
-22.4701579376
  0
LWPOLYLINE
  5
2BB
100
AcDbEntity
  8
0
100
AcDbPolyline
 62
253
  6
CONTINUOUS
 90
22
 70
0
 10
6.6132954955
 20
-22.2303878077
 10
6.5774447109
 20
-22.2464774841
 10
6.5421981265
 20
-22.259508067
 10
6.5075557423
 20
-22.2694795563
 10
6.4733360661
 20
-22.2764188016
 10
6.43972059
 20
-22.2802989534
 10
6.4072537906
 20
-22.2810394633
 10
6.3759685516
 20
-22.2785857792
 10
6.3458319892
 20
-22.2729924531
 10
6.3172899288
 20
-22.2643425927
 10
6.2903660834
 20
-22.2525892012
 10
6.2650367401
 20
-22.2377792754
 10
6.241676585
 20
-22.2201369134
 10
6.2203170406
 20
-22.1996206673
 10
6.2009266844
 20
-22.1762719851
 10
6.1837859354
 20
-22.1504393091
 10
6.1689269577
 20
-22.1220692337
 10
6.156317587
 20
-22.0912151644
 10
6.1461417499
 20
-22.0583857605
 10
6.1384607549
 20
-22.0237505748
 10
6.1332132934
 20
-21.9871400545
 10
6.1303993652
 20
-21.9485541995
  0
ELLIPSE
  5
2BC
100
AcDbEntity
  8
0
100
AcDbEllipse
 62
7
  6
CONTINUOUS
 10
8.8360747785
 20
-20.7658606145
 30
0.0
 11
-0.2148753492
 21
0.4514925988
 31
0.0
 40
0.626010046
 41
-3.1349764991
 42
-2.3100583745
  0
ELLIPSE
  5
2BD
100
AcDbEntity
  8
0
100
AcDbEllipse
 62
7
  6
CONTINUOUS
 10
9.382700156
 20
-3.311943242
 30
0.0
 11
-0.2501454382
 21
0.4329727255
 31
0.0
 40
0.577463496
 41
-2.3564333972
 42
-0.7858655045
  0
ELLIPSE
  5
2BE
100
AcDbEntity
  8
0
100
AcDbEllipse
 62
7
  6
CONTINUOUS
 10
-6.0209067453
 20
23.2642843137
 30
0.0
 11
-0.2806490066
 21
0.4138128862
 31
0.0
 40
0.5253010868
 41
-0.8257150379
 42
-0.0027521587
  0
ELLIPSE
  5
2BF
100
AcDbEntity
  8
0
100
AcDbEllipse
 62
7
  6
CONTINUOUS
 10
8.8360747785
 20
14.6860493836
 30
0.0
 11
-0.280860955
 21
0.4142191515
 31
0.0
 40
0.5243459323
 41
-2.3941007373
 42
-0.8246744066
  0
ELLIPSE
  5
2C0
100
AcDbEntity
  8
0
100
AcDbEllipse
 62
7
  6
CONTINUOUS
 10
9.382700156
 20
-2.1688537646
 30
0.0
 11
-0.2502024655
 21
0.4330717124
 31
0.0
 40
0.5771997317
 41
-3.1590443311
 42
-2.3566615088
  0
ELLIPSE
  5
2C1
100
AcDbEntity
  8
0
100
AcDbEllipse
 62
7
  6
CONTINUOUS
 10
6.1719624698
 20
16.1632854689
 30
0.0
 11
0.1999154856
 21
0.0095814127
 31
0.0
 40
0.6067642562
 41
-2.385266879
 42
-1.3380693278
  0
ELLIPSE
  5
2C2
100
AcDbEntity
  8
0
100
AcDbEllipse
 62
7
  6
CONTINUOUS
 10
-1.7476334795
 20
20.7359609142
 30
0.0
 11
0.1999154856
 21
0.0095814127
 31
0.0
 40
0.6067642562
 41
-2.385266879
 42
-1.3380693278
  0
ELLIPSE
  5
2C3
100
AcDbEntity
  8
0
100
AcDbEllipse
 62
7
  6
CONTINUOUS
 10
3.7896773737
 20
17.5387870263
 30
0.0
 11
0.1999154856
 21
0.0095814127
 31
0.0
 40
0.6067642562
 41
2.850720877
 42
3.8979184282
  0
ELLIPSE
  5
2C4
100
AcDbEntity
  8
0
100
AcDbEllipse
 62
7
  6
CONTINUOUS
 10
-4.1299185756
 20
22.1114624716
 30
0.0
 11
0.1999154856
 21
0.0095814127
 31
0.0
 40
0.6067642562
 41
2.850720877
 42
3.8979184282
  0
ENDSEC
  0
SECTION
  2
OBJECTS
  0
DICTIONARY
  5
C
100
AcDbDictionary
280
0
281
1
  3
ACAD_GROUP
350
D
  3
ACAD_MLINESTYLE
350
17
  3
ACAD_LAYOUT
350
1A
  3
ACAD_PLOTSETTINGS
350
19
  3
ACAD_PLOTSTYLENAME
350
E
  0
DICTIONARY
  5
D
102
{ACAD_REACTORS
330
C
102
}
100
AcDbDictionary
280
0
281
1
  0
ACDBDICTIONARYWDFLT
  5
E
102
{ACAD_REACTORS
330
C
102
}
100
AcDbDictionary
281
1
  3
Normal
350
F
100
AcDbDictionaryWithDefault
340
F
  0
DICTIONARY
  5
17
102
{ACAD_REACTORS
330
C
102
}
100
AcDbDictionary
280
0
281
1
  3
Standard
350
18
  0
DICTIONARY
  5
19
102
{ACAD_REACTORS
330
C
102
}
100
AcDbDictionary
281
1
  0
DICTIONARY
  5
1A
102
{ACAD_REACTORS
330
C
102
}
100
AcDbDictionary
281
1
  3
Model
350
2C5
  3
Layout1
350
2C6
  0
ACDBPLACEHOLDER
  5
F
102
{ACAD_REACTORS
330
E
102
}
  0
MLINESTYLE
  5
18
102
{ACAD_REACTORS
330
17
102
}
100
AcDbMlineStyle
  2
STANDARD
 70
0
  3

 62
256
 51
90.0
 52
90.0
 71
2
 49
0.5
 62
256
  6
BYLAYER
 49
-0.5
 62
256
  6
BYLAYER
  0
LAYOUT
  5
2C5
102
{ACAD_REACTORS
330
1A
102
}
100
AcDbPlotSettings
  1

  2
none_device
  4
ISO_A4_(297.00_x_210.00_MM)
  6

 40
0.0
 41
0.0
 42
0.0
 43
0.0
 44
297.0
 45
210.0
 46
0.0
 47
0.0
 48
0.0
 49
0.0
140
0.0
141
0.0
142
1.0
143
1.0
 70
1024
 72
1
 73
0
 74
0
  7

 75
0
147
1.0
148
0.0
149
0.0
100
AcDbLayout
  1
Model
 70
0
 71
0
 10
0.0
 20
0.0
 11
297.0
 21
210.0
 12
0.0
 22
0.0
 32
0.0
 14
0.0
 24
0.0
 34
0.0
 15
0.0
 25
0.0
 35
0.0
146
0.0
 13
0.0
 23
0.0
 33
0.0
 16
1.0
 26
0.0
 36
0.0
 17
0.0
 27
1.0
 37
0.0
 76
0
330
220
345
0
346
0
  0
LAYOUT
  5
2C6
102
{ACAD_REACTORS
330
1A
102
}
100
AcDbPlotSettings
  1

  2
none_device
  4
ISO_A4_(297.00_x_210.00_MM)
  6

 40
0.0
 41
0.0
 42
0.0
 43
0.0
 44
297.0
 45
210.0
 46
0.0
 47
0.0
 48
0.0
 49
0.0
140
0.0
141
0.0
142
1.0
143
1.0
 70
0
 72
1
 73
0
 74
0
  7

 75
0
147
1.0
148
0.0
149
0.0
100
AcDbLayout
  1
Layout1
 70
0
 71
1
 10
0.0
 20
0.0
 11
297.0
 21
210.0
 12
0.0
 22
0.0
 32
0.0
 14
0.0
 24
0.0
 34
0.0
 15
0.0
 25
0.0
 35
0.0
146
0.0
 13
0.0
 23
0.0
 33
0.0
 16
1.0
 26
0.0
 36
0.0
 17
0.0
 27
1.0
 37
0.0
 76
0
330
221
345
0
346
0
  0
ENDSEC
  0
EOF
