  0
SECTION
  2
HEADER
  9
$ACADVER
  1
AC1021
  9
$DWGCODEPAGE
  3
ANSI_1252
  9
$EXTMAX
 10
297.0
 20
210.0
 30
0.0
  9
$EXTMIN
 10
0.0
 20
0.0
 30
0.0
  9
$LIMMIN
 10
0.0
 20
0.0
  9
$LIMMAX
 10
297.0
 20
210.0
  9
$VIEWCTR
 10
148.5
 20
105.0
  9
$VIEWSIZE
 40
210.0
  9
$CLAYER
  8
0
  9
$LTSCALE
 40
16.335
  9
$CELTYPE
  6
BYLAYER
  9
$DIMSCALE
 40
1.0
  9
$DIMASZ
 40
3.0
  9
$DIMEXO
 40
0.5
  9
$DIMDLI
 40
11.286
  9
$DIMEXE
 40
1.5
  9
$DIMCEN
 40
2.673
  9
$DIMLFAC
 40
1.0
  9
$DIMBLK
  1
_FILLED
  9
$DIMALT
 70
0
  9
$DIMALTF
 40
25.4
  9
$DIMTXT
 40
3.0
  9
$DIMTOL
 70
1
  9
$DIMLIM
 70
0
  9
$DIMTFAC
 40
1.0
  9
$DIMTP
 40
0.01
  9
$DIMTM
 40
0.01
  9
$DIMGAP
 40
0.625
  9
$DIMDSEP
 70
44
  9
$AUNITS
 70
0
  9
$PDMODE
 70
3
  9
$PDSIZE
 40
3.0
  9
$HANDSEED
  5
2E8
  9
$TILEMODE
 70
1
  9
$MEASUREMENT
 70
1
  9
$INSUNITS
 70
4
  0
ENDSEC
  0
SECTION
  2
CLASSES
  0
CLASS
  1
ACDBDICTIONARYWDFLT
  2
AcDbDictionaryWithDefault
  3
AutoCAD 2000
 90
0
 91
1
280
0
281
0
  0
CLASS
  1
ACDBPLACEHOLDER
  2
AcDbPlaceHolder
  3
AutoCAD 2000
 90
0
 91
1
280
0
281
0
  0
CLASS
  1
LAYOUT
  2
AcDbLayout
  3
AutoCAD 2000
 90
0
 91
0
280
0
281
0
  0
ENDSEC
  0
SECTION
  2
TABLES
  0
TABLE
  2
VPORT
  5
8
100
AcDbSymbolTable
 70
2
  0
VPORT
  5
1F4
100
AcDbSymbolTableRecord
100
AcDbViewportTableRecord
  2
*ACTIVE
 70
0
 10
0.0
 20
0.0
 11
1.0
 21
1.0
 12
148.5
 22
105.0
 13
0.0
 23
0.0
 14
1.0
 24
1.0
 15
0.0
 25
0.0
 16
0.0
 26
0.0
 36
1.0
 17
0.0
 27
0.0
 37
0.0
 40
210.0
 41
1.4142857143
 42
50.0
 43
0.0
 44
0.0
 50
0.0
 51
0.0
 71
0
 72
100
 73
1
 74
1
 75
0
 76
0
 77
0
 78
0
  0
ENDTAB
  0
TABLE
  2
LTYPE
  5
5
100
AcDbSymbolTable
 70
6
  0
LTYPE
  5
14
100
AcDbSymbolTableRecord
100
AcDbLinetypeTableRecord
  2
BYBLOCK
 70
0
  3

 72
65
 73
0
 40
0.0
  0
LTYPE
  5
15
100
AcDbSymbolTableRecord
100
AcDbLinetypeTableRecord
  2
BYLAYER
 70
0
  3

 72
65
 73
0
 40
0.0
  0
LTYPE
  5
16
100
AcDbSymbolTableRecord
100
AcDbLinetypeTableRecord
  2
CONTINUOUS
 70
64
  3
Solid line
 72
65
 73
0
 40
0.0
  0
LTYPE
  5
1F5
100
AcDbSymbolTableRecord
100
AcDbLinetypeTableRecord
  2
CENTER
 70
64
  3
____ _ ____ _ ____ _ ____ _ ____ _ ____ _ ____
 72
65
 73
4
 40
0.6
 49
0.375
 74
0
 49
-0.075
 74
0
 49
0.075
 74
0
 49
-0.075
 74
0
  0
LTYPE
  5
1F6
100
AcDbSymbolTableRecord
100
AcDbLinetypeTableRecord
  2
HIDDEN
 70
64
  3
- - - - - - - - - - - - - - - - - - - -
 72
65
 73
2
 40
0.2
 49
0.1
 74
0
 49
-0.1
 74
0
  0
LTYPE
  5
1F7
100
AcDbSymbolTableRecord
100
AcDbLinetypeTableRecord
  2
PHANTOM
 70
64
  3
_____ _ _ _____ _ _ _____ _ _ _____
 72
65
 73
6
 40
0.8
 49
0.45
 74
0
 49
-0.05
 74
0
 49
0.1
 74
0
 49
-0.05
 74
0
 49
0.1
 74
0
 49
-0.05
 74
0
  0
LTYPE
  5
1F8
100
AcDbSymbolTableRecord
100
AcDbLinetypeTableRecord
  2
DOT
 70
64
  3
. . . . . . . . . . . . . . . . . . . .
 72
65
 73
2
 40
0.2
 49
0.1
 74
0
 49
-0.1
 74
0
  0
LTYPE
  5
1F9
100
AcDbSymbolTableRecord
100
AcDbLinetypeTableRecord
  2
DASHED
 70
64
  3
- - - - - - - - - - - - - - - - - - - -
 72
65
 73
2
 40
0.2
 49
0.1
 74
0
 49
-0.1
 74
0
  0
ENDTAB
  0
TABLE
  2
LAYER
  5
2
100
AcDbSymbolTable
 70
36
  0
LAYER
  5
10
100
AcDbSymbolTableRecord
100
AcDbLayerTableRecord
  2
0
 70
0
 62
7
  6
CONTINUOUS
370
-3
390
F
  0
LAYER
  5
1FA
100
AcDbSymbolTableRecord
100
AcDbLayerTableRecord
  2
DEFAULT_1
 70
0
 62
7
  6
CENTER
370
-3
390
F
  0
LAYER
  5
1FB
100
AcDbSymbolTableRecord
100
AcDbLayerTableRecord
  2
DEFAULT_2
 70
0
 62
7
  6
HIDDEN
370
-3
390
F
  0
LAYER
  5
1FC
100
AcDbSymbolTableRecord
100
AcDbLayerTableRecord
  2
DEFAULT_3
 70
0
 62
7
  6
PHANTOM
370
-3
390
F
  0
LAYER
  5
1FD
100
AcDbSymbolTableRecord
100
AcDbLayerTableRecord
  2
ASSI
 70
0
 62
7
  6
CONTINUOUS
370
-3
390
F
  0
LAYER
  5
1FE
100
AcDbSymbolTableRecord
100
AcDbLayerTableRecord
  2
COLOR3
 70
0
 62
7
  6
CONTINUOUS
370
-3
390
F
  0
LAYER
  5
1FF
100
AcDbSymbolTableRecord
100
AcDbLayerTableRecord
  2
COORDINATE
 70
0
 62
7
  6
CONTINUOUS
370
-3
390
F
  0
LAYER
  5
200
100
AcDbSymbolTableRecord
100
AcDbLayerTableRecord
  2
COPY_PUBLISH
 70
0
 62
7
  6
CONTINUOUS
370
-3
390
F
  0
LAYER
  5
201
100
AcDbSymbolTableRecord
100
AcDbLayerTableRecord
  2
COSMETIC
 70
0
 62
7
  6
CONTINUOUS
370
-3
390
F
  0
LAYER
  5
202
100
AcDbSymbolTableRecord
100
AcDbLayerTableRecord
  2
COSMETICI
 70
0
 62
7
  6
CONTINUOUS
370
-3
390
F
  0
LAYER
  5
203
100
AcDbSymbolTableRecord
100
AcDbLayerTableRecord
  2
CURVE
 70
0
 62
7
  6
CONTINUOUS
370
-3
390
F
  0
LAYER
  5
204
100
AcDbSymbolTableRecord
100
AcDbLayerTableRecord
  2
DRAFT
 70
0
 62
7
  6
CONTINUOUS
370
-3
390
F
  0
LAYER
  5
205
100
AcDbSymbolTableRecord
100
AcDbLayerTableRecord
  2
IMPORT_IGES
 70
0
 62
7
  6
CONTINUOUS
370
-3
390
F
  0
LAYER
  5
206
100
AcDbSymbolTableRecord
100
AcDbLayerTableRecord
  2
INTFCLR_1
 70
0
 62
7
  6
CONTINUOUS
370
-3
390
F
  0
LAYER
  5
207
100
AcDbSymbolTableRecord
100
AcDbLayerTableRecord
  2
INTF_10
 70
0
 62
7
  6
CONTINUOUS
370
-3
390
F
  0
LAYER
  5
208
100
AcDbSymbolTableRecord
100
AcDbLayerTableRecord
  2
INTF_13
 70
0
 62
7
  6
CONTINUOUS
370
-3
390
F
  0
LAYER
  5
209
100
AcDbSymbolTableRecord
100
AcDbLayerTableRecord
  2
INTF_15
 70
0
 62
7
  6
CONTINUOUS
370
-3
390
F
  0
LAYER
  5
20A
100
AcDbSymbolTableRecord
100
AcDbLayerTableRecord
  2
INTF_16
 70
0
 62
7
  6
CONTINUOUS
370
-3
390
F
  0
LAYER
  5
20B
100
AcDbSymbolTableRecord
100
AcDbLayerTableRecord
  2
INTF_18
 70
0
 62
7
  6
CONTINUOUS
370
-3
390
F
  0
LAYER
  5
20C
100
AcDbSymbolTableRecord
100
AcDbLayerTableRecord
  2
INTF_20
 70
0
 62
7
  6
CONTINUOUS
370
-3
390
F
  0
LAYER
  5
20D
100
AcDbSymbolTableRecord
100
AcDbLayerTableRecord
  2
INTF_3
 70
0
 62
7
  6
CONTINUOUS
370
-3
390
F
  0
LAYER
  5
20E
100
AcDbSymbolTableRecord
100
AcDbLayerTableRecord
  2
INTF_5
 70
0
 62
7
  6
CONTINUOUS
370
-3
390
F
  0
LAYER
  5
20F
100
AcDbSymbolTableRecord
100
AcDbLayerTableRecord
  2
INTF_8
 70
0
 62
7
  6
CONTINUOUS
370
-3
390
F
  0
LAYER
  5
210
100
AcDbSymbolTableRecord
100
AcDbLayerTableRecord
  2
LIVELLO_1
 70
0
 62
7
  6
CONTINUOUS
370
-3
390
F
  0
LAYER
  5
211
100
AcDbSymbolTableRecord
100
AcDbLayerTableRecord
  2
NOTE
 70
0
 62
7
  6
CONTINUOUS
370
-3
390
F
  0
LAYER
  5
212
100
AcDbSymbolTableRecord
100
AcDbLayerTableRecord
  2
PIANI
 70
0
 62
7
  6
CONTINUOUS
370
-3
390
F
  0
LAYER
  5
213
100
AcDbSymbolTableRecord
100
AcDbLayerTableRecord
  2
PUNTI
 70
0
 62
7
  6
CONTINUOUS
370
-3
390
F
  0
LAYER
  5
214
100
AcDbSymbolTableRecord
100
AcDbLayerTableRecord
  2
RACCORDO
 70
0
 62
7
  6
CONTINUOUS
370
-3
390
F
  0
LAYER
  5
215
100
AcDbSymbolTableRecord
100
AcDbLayerTableRecord
  2
SIMBOLI
 70
0
 62
7
  6
CONTINUOUS
370
-3
390
F
  0
LAYER
  5
216
100
AcDbSymbolTableRecord
100
AcDbLayerTableRecord
  2
SMUSSO
 70
0
 62
7
  6
CONTINUOUS
370
-3
390
F
  0
LAYER
  5
217
100
AcDbSymbolTableRecord
100
AcDbLayerTableRecord
  2
SNAPLINE
 70
0
 62
7
  6
CONTINUOUS
370
-3
390
F
  0
LAYER
  5
218
100
AcDbSymbolTableRecord
100
AcDbLayerTableRecord
  2
SOLIDO
 70
0
 62
7
  6
CONTINUOUS
370
-3
390
F
  0
LAYER
  5
219
100
AcDbSymbolTableRecord
100
AcDbLayerTableRecord
  2
SUPERFICI
 70
0
 62
7
  6
CONTINUOUS
370
-3
390
F
  0
LAYER
  5
21A
100
AcDbSymbolTableRecord
100
AcDbLayerTableRecord
  2
SUPERFICI_SKEL
 70
0
 62
7
  6
CONTINUOUS
370
-3
390
F
  0
LAYER
  5
21B
100
AcDbSymbolTableRecord
100
AcDbLayerTableRecord
  2
TRASH
 70
0
 62
7
  6
CONTINUOUS
370
-3
390
F
  0
LAYER
  5
21C
100
AcDbSymbolTableRecord
100
AcDbLayerTableRecord
  2
WHITE
 70
0
 62
7
  6
CONTINUOUS
370
-3
390
F
  0
LAYER
  5
21D
100
AcDbSymbolTableRecord
100
AcDbLayerTableRecord
  2
___SHELL
 70
0
 62
7
  6
CONTINUOUS
370
-3
390
F
  0
ENDTAB
  0
TABLE
  2
STYLE
  5
3
100
AcDbSymbolTable
 70
1
  0
STYLE
  5
11
100
AcDbSymbolTableRecord
100
AcDbTextStyleTableRecord
  2
STANDARD
 70
0
 40
0.0
 41
0.8
 50
0.0
 71
0
 42
0.2
  3
txt
  4

  0
STYLE
  5
21E
100
AcDbSymbolTableRecord
100
AcDbTextStyleTableRecord
  2
TEXTSTYLE_1
 70
0
 40
0.0
 41
0.8
 50
0.0
 71
0
 42
0.2
  3
gdt
  4

  0
ENDTAB
  0
TABLE
  2
VIEW
  5
6
100
AcDbSymbolTable
 70
0
  0
ENDTAB
  0
TABLE
  2
UCS
  5
7
100
AcDbSymbolTable
 70
0
  0
ENDTAB
  0
TABLE
  2
APPID
  5
9
100
AcDbSymbolTable
 70
1
  0
APPID
  5
21F
100
AcDbSymbolTableRecord
100
AcDbRegAppTableRecord
  2
ACAD
 70
0
  0
ENDTAB
  0
TABLE
  2
BLOCK_RECORD
  5
1
100
AcDbSymbolTable
 70
0
  0
BLOCK_RECORD
  5
220
100
AcDbSymbolTableRecord
100
AcDbBlockTableRecord
  2
*Model_Space
  0
BLOCK_RECORD
  5
221
100
AcDbSymbolTableRecord
100
AcDbBlockTableRecord
  2
*Paper_Space
  0
ENDTAB
  0
TABLE
  2
DIMSTYLE
  5
A
100
AcDbSymbolTable
 70
1
100
AcDbDimStyleTable
 71
0
  0
DIMSTYLE
105
222
100
AcDbSymbolTableRecord
100
AcDbDimStyleTableRecord
  2
STANDARD
 70
0
  3

  4

 40
1.0
 41
3.0
 42
0.5
 43
0.38
 44
1.5
 45
0.0
 46
0.0
 47
0.01
 48
0.01
140
3.0
141
0.09
142
0.0
143
25.4
144
1.0
145
0.0
146
1.0
147
0.625
 71
1.0
 72
0.0
 73
0
 74
0
 75
0
 76
0
 77
1
 78
8
170
0
171
1
172
0
173
0
174
0
175
0
176
0
177
0
178
0
270
2
271
2
272
2
273
2
274
2
275
0
280
0
281
0
282
0
283
1
284
8
285
0
286
0
287
3
288
0
340
11
278
44
  0
ENDTAB
  0
ENDSEC
  0
SECTION
  2
BLOCKS
  0
BLOCK
  5
20
100
AcDbEntity
  8
0
100
AcDbBlockBegin
  2
*Model_Space
 70
0
 10
0.0
 20
0.0
 30
0.0
  3
*Model_Space
  1

  0
ENDBLK
  5
21
100
AcDbEntity
  8
0
100
AcDbBlockEnd
  0
BLOCK
  5
1C
100
AcDbEntity
  8
0
100
AcDbBlockBegin
  2
*Paper_Space
 70
0
 10
0.0
 20
0.0
 30
0.0
  3
*Paper_Space
  1

  0
ENDBLK
  5
1D
100
AcDbEntity
  8
0
100
AcDbBlockEnd
  0
ENDSEC
  0
SECTION
  2
ENTITIES
  0
LINE
  5
223
100
AcDbEntity
  8
0
100
AcDbLine
 62
7
  6
CONTINUOUS
 10
-8.6736957355
 20
22.2705246415
 11
-8.6738159726
 21
22.2704440929
  0
LWPOLYLINE
  5
224
100
AcDbEntity
  8
0
100
AcDbPolyline
 62
7
  6
CONTINUOUS
 90
19
 70
0
 10
-8.6736920545
 20
22.2705191442
 10
-8.7124004825
 20
22.2434720785
 10
-8.7796757096
 20
22.1910834784
 10
-8.8438083427
 20
22.1342927163
 10
-8.9048221074
 20
22.0734151025
 10
-8.9626942337
 20
22.0087489641
 10
-9.0172398949
 20
21.940707673
 10
-9.0683767107
 20
21.8695932576
 10
-9.1159917402
 20
21.7956597056
 10
-9.1598073471
 20
21.7194119752
 10
-9.1997036556
 20
21.6411220471
 10
-9.2355195992
 20
21.5610367389
 10
-9.2669985935
 20
21.4796663731
 10
-9.2939831968
 20
21.397244623
 10
-9.316281614
 20
21.3139879565
 10
-9.3336598964
 20
21.2302488922
 10
-9.3458779202
 20
21.1462014534
 10
-9.3526748551
 20
21.0620169093
 10
-9.3532774166
 20
21.0474737292
  0
LINE
  5
225
100
AcDbEntity
  8
0
100
AcDbLine
 62
7
  6
CONTINUOUS
 10
-6.2394406114
 20
23.9028874894
 11
-8.6738159726
 21
22.2704440929
  0
LINE
  5
226
100
AcDbEntity
  8
0
100
AcDbLine
 62
253
  6
CONTINUOUS
 10
-5.9899011124
 20
23.8776109688
 11
-8.4138453638
 21
22.2521624659
  0
LWPOLYLINE
  5
227
100
AcDbEntity
  8
0
100
AcDbPolyline
 62
253
  6
CONTINUOUS
 90
22
 70
0
 10
-8.4138453639
 20
22.2521624659
 10
-8.4741331939
 20
22.212181392
 10
-8.5339237251
 20
22.1677128093
 10
-8.5929067614
 20
22.1189690885
 10
-8.6507607402
 20
22.0661763848
 10
-8.7072019995
 20
22.0095957293
 10
-8.7619857691
 20
21.9495205088
 10
-8.8148322265
 20
21.8862364047
 10
-8.8654634675
 20
21.8200503459
 10
-8.9136528188
 20
21.7513109873
 10
-8.9591526142
 20
21.6803537776
 10
-9.0017270028
 20
21.6075193529
 10
-9.0411885331
 20
21.5331813698
 10
-9.0773364485
 20
21.4577015912
 10
-9.1099820773
 20
21.3814456688
 10
-9.1389820413
 20
21.3048020022
 10
-9.1641885563
 20
21.2281512518
 10
-9.1854722073
 20
21.151859339
 10
-9.2027441472
 20
21.0762934887
 10
-9.2159200218
 20
21.0018216782
 10
-9.2249233516
 20
20.9288105149
 10
-9.2297060948
 20
20.8576185328
  0
LWPOLYLINE
  5
228
100
AcDbEntity
  8
0
100
AcDbPolyline
 62
253
  6
CONTINUOUS
 90
16
 70
0
 10
5.5189837229
 20
-21.749426874
 10
5.5575958216
 20
-21.7668173698
 10
5.5990211127
 20
-21.7817639106
 10
5.6428579402
 20
-21.7941215757
 10
5.6886812659
 20
-21.8037705464
 10
5.7360467907
 20
-21.8106172671
 10
5.7844952625
 20
-21.8145953525
 10
5.8335569291
 20
-21.8156662315
 10
5.8827560926
 20
-21.8138195209
 10
5.9316157223
 20
-21.8090731262
 10
5.9796620791
 20
-21.801473068
 10
6.0264293098
 20
-21.791093036
 10
6.0714639633
 20
-21.7780336739
 10
6.1143293873
 20
-21.7624216043
 10
6.1546099624
 20
-21.7444082005
 10
6.1919151315
 20
-21.7241681188
  0
LWPOLYLINE
  5
229
100
AcDbEntity
  8
0
100
AcDbPolyline
 62
7
  6
CONTINUOUS
 90
12
 70
0
 10
5.781188732
 20
-22.2645627293
 10
5.8373860061
 20
-22.2902517439
 10
5.9007147425
 20
-22.3128652949
 10
5.9664688308
 20
-22.3299481279
 10
6.0342429923
 20
-22.341315447
 10
6.1035740243
 20
-22.3468207911
 10
6.1744776359
 20
-22.3463511174
 10
6.246630535
 20
-22.3397553537
 10
6.3196390895
 20
-22.3269343686
 10
6.3935809419
 20
-22.3076827028
 10
6.4683360742
 20
-22.281758908
 10
6.5500770325
 20
-22.2458538415
  0
LINE
  5
22A
100
AcDbEntity
  8
0
100
AcDbLine
 62
7
  6
CONTINUOUS
 10
5.7811507412
 20
-22.2645492647
 11
5.78102728
 21
-22.2644865482
  0
LWPOLYLINE
  5
22B
100
AcDbEntity
  8
0
100
AcDbPolyline
 62
253
  6
CONTINUOUS
 90
12
 70
0
 10
5.78102728
 20
-22.2644865482
 10
5.7397659608
 20
-22.2402185209
 10
5.7014187895
 20
-22.210806307
 10
5.6663131221
 20
-22.176467454
 10
5.6346082435
 20
-22.1373667081
 10
5.6064786883
 20
-22.0937089099
 10
5.582058143
 20
-22.0457122021
 10
5.5614528278
 20
-21.9936064534
 10
5.5447724043
 20
-21.9376442723
 10
5.5321002763
 20
-21.8780967745
 10
5.5234906087
 20
-21.8152551351
 10
5.5189837206
 20
-21.7494268697
  0
LWPOLYLINE
  5
22C
100
AcDbEntity
  8
0
100
AcDbPolyline
 62
7
  6
CONTINUOUS
 90
10
 70
0
 10
-8.9982055766
 20
-13.7310031501
 10
-7.5217614137
 20
-14.6871221642
 10
-5.9358462337
 20
-15.6855605305
 10
-4.3240694968
 20
-16.6713783555
 10
-2.686791375
 20
-17.6443504475
 10
-1.0243760273
 20
-18.6042572774
 10
0.6627986913
 20
-19.5508884294
 10
2.3743387364
 20
-20.4840400245
 10
4.1098411719
 20
-21.4035111276
 10
5.7810242205
 20
-22.2644849934
  0
LWPOLYLINE
  5
22D
100
AcDbEntity
  8
0
100
AcDbPolyline
 62
253
  6
CONTINUOUS
 90
31
 70
0
 10
-9.229706086
 20
-13.2337181996
 10
-8.7830872505
 20
-13.5267530917
 10
-8.3344661978
 20
-13.8185773726
 10
-7.8838532987
 20
-14.1091872675
 10
-7.4313651158
 20
-14.3985114359
 10
-6.9769068486
 20
-14.6866142873
 10
-6.5201674233
 20
-14.9736933767
 10
-6.0610040251
 20
-15.2598351531
 10
-5.5995704496
 20
-15.5449405507
 10
-5.1359979106
 20
-15.8289274612
 10
-4.6703259448
 20
-16.11177186
 10
-4.2025313099
 20
-16.3934879934
 10
-3.7326532326
 20
-16.6740523523
 10
-3.2606351855
 20
-16.9534985968
 10
-2.786550081
 20
-17.231783355
 10
-2.3106347584
 20
-17.5087695405
 10
-1.8332094622
 20
-17.7842767755
 10
-1.3539798507
 20
-18.0584812937
 10
-0.8722549505
 20
-18.331777468
 10
-0.3889553697
 20
-18.603642612
 10
0.0968258587
 20
-18.8745881942
 10
0.5885736662
 20
-19.1465284194
 10
1.0854965872
 20
-19.4189727223
 10
1.5884602116
 20
-19.6923465979
 10
2.1035542271
 20
-19.969865249
 10
2.6310713282
 20
-20.2515357337
 10
3.1709559873
 20
-20.5371807454
 10
3.7289251038
 20
-20.8296441717
 10
4.3070480839
 20
-21.1297602353
 10
4.903666685
 20
-21.4364036825
 10
5.5189837213
 20
-21.7494268637
  0
LINE
  5
22E
100
AcDbEntity
  8
0
100
AcDbLine
 62
7
  6
CONTINUOUS
 10
-8.9983061047
 20
-13.7309371265
 11
-8.9982042523
 21
-13.7310040196
  0
LWPOLYLINE
  5
22F
100
AcDbEntity
  8
0
100
AcDbPolyline
 62
253
  6
CONTINUOUS
 90
8
 70
0
 10
-9.2296964532
 20
-13.2337129124
 10
-9.2602412537
 20
-13.2111732997
 10
-9.2868432496
 20
-13.1868420695
 10
-9.3092445155
 20
-13.1609551308
 10
-9.3272278547
 20
-13.1337634761
 10
-9.3406189059
 20
-13.1055307482
 10
-9.3492878332
 20
-13.0765306835
 10
-9.3532327277
 20
-13.0451552692
  0
LINE
  5
230
100
AcDbEntity
  8
0
100
AcDbLine
 62
7
  6
CONTINUOUS
 10
-4.0813533263
 20
22.7756393969
 11
-4.2615879746
 21
22.3614573875
  0
LWPOLYLINE
  5
231
100
AcDbEntity
  8
0
100
AcDbPolyline
 62
253
  6
CONTINUOUS
 90
37
 70
0
 10
-3.8230243282
 20
11.2910959898
 10
-3.8200694987
 20
11.2927019252
 10
-3.8170586367
 20
11.2941798676
 10
-3.8139923501
 20
11.295532364
 10
-3.8108712469
 20
11.2967619616
 10
-3.8076959351
 20
11.2978712072
 10
-3.8044670225
 20
11.2988626481
 10
-3.8011851171
 20
11.2997388311
 10
-3.7978511348
 20
11.300501943
 10
-3.7944672232
 20
11.3011527291
 10
-3.791035838
 20
11.3016915745
 10
-3.7875594346
 20
11.3021188643
 10
-3.7840404688
 20
11.3024349835
 10
-3.7804813961
 20
11.3026403172
 10
-3.776884672
 20
11.3027352503
 10
-3.7732525567
 20
11.3027200887
 10
-3.7695865284
 20
11.3025948215
 10
-3.7658878697
 20
11.3023593584
 10
-3.7621578631
 20
11.3020136093
 10
-3.7583977915
 20
11.301557484
 10
-3.7546089374
 20
11.3009908923
 10
-3.7507925835
 20
11.300313744
 10
-3.7469500639
 20
11.2995258185
 10
-3.7430829185
 20
11.2986263734
 10
-3.7391927384
 20
11.2976145357
 10
-3.735281115
 20
11.2964894325
 10
-3.7313496395
 20
11.2952501909
 10
-3.7273999032
 20
11.2938959381
 10
-3.7234334974
 20
11.2924258012
 10
-3.7199502427
 20
11.2910433902
 10
-3.7164551512
 20
11.2895692401
 10
-3.7129479306
 20
11.2880010038
 10
-3.7094282884
 20
11.2863363343
 10
-3.7058959323
 20
11.2845728846
 10
-3.7023505696
 20
11.2827083076
 10
-3.6987919082
 20
11.2807402563
 10
-3.6952196554
 20
11.2786663837
  0
LWPOLYLINE
  5
232
100
AcDbEntity
  8
0
100
AcDbPolyline
 62
253
  6
CONTINUOUS
 90
29
 70
0
 10
-3.4303248463
 20
-10.4480920553
 10
-3.4331861816
 20
-10.4482565946
 10
-3.4360753834
 20
-10.4483336515
 10
-3.438992371
 20
-10.4483244171
 10
-3.4419370639
 20
-10.4482300826
 10
-3.4449093815
 20
-10.448051839
 10
-3.4479092433
 20
-10.4477908775
 10
-3.4509365687
 20
-10.4474483893
 10
-3.453991046
 20
-10.4470254673
 10
-3.4570714392
 20
-10.4465228119
 10
-3.4601762814
 20
-10.4459410252
 10
-3.4633041055
 20
-10.4452807096
 10
-3.4664534443
 20
-10.4445424671
 10
-3.4696228308
 20
-10.4437269001
 10
-3.472810798
 20
-10.4428346108
 10
-3.4760159402
 20
-10.4418661684
 10
-3.4792370976
 20
-10.4408220106
 10
-3.4824731715
 20
-10.4397025423
 10
-3.4857230635
 20
-10.4385081682
 10
-3.488985675
 20
-10.4372392932
 10
-3.4922599075
 20
-10.435896322
 10
-3.4955446626
 20
-10.4344796594
 10
-3.4988390902
 20
-10.4329894642
 10
-3.5021433342
 20
-10.4314249112
 10
-3.5054577871
 20
-10.4297849293
 10
-3.5087828414
 20
-10.4280684472
 10
-3.5121188895
 20
-10.4262743938
 10
-3.5154663239
 20
-10.4244016978
 10
-3.518825537
 20
-10.4224492882
  0
LWPOLYLINE
  5
233
100
AcDbEntity
  8
0
100
AcDbPolyline
 62
253
  6
CONTINUOUS
 90
29
 70
0
 10
-1.1638604854
 20
-11.7822714139
 10
-1.1672667434
 20
-11.780317196
 10
-1.170667643
 20
-11.7782941333
 10
-1.1740636208
 20
-11.7762026533
 10
-1.1774551138
 20
-11.7740431832
 10
-1.1808425585
 20
-11.7718161504
 10
-1.184226392
 20
-11.7695219824
 10
-1.1876070509
 20
-11.7671611064
 10
-1.1909846713
 20
-11.7647340439
 10
-1.1943581859
 20
-11.7622416919
 10
-1.1977262269
 20
-11.7596850416
 10
-1.2010874262
 20
-11.7570650842
 10
-1.204440416
 20
-11.7543828108
 10
-1.2077838281
 20
-11.7516392125
 10
-1.2111162947
 20
-11.7488352804
 10
-1.2144364492
 20
-11.7459719928
 10
-1.2177429307
 20
-11.743050276
 10
-1.2210343797
 20
-11.7400710434
 10
-1.2243094366
 20
-11.7370352083
 10
-1.227566742
 20
-11.7339436841
 10
-1.2308049363
 20
-11.7307973842
 10
-1.2340226599
 20
-11.7275972219
 10
-1.2372187597
 20
-11.7243437655
 10
-1.2403929068
 20
-11.7210362024
 10
-1.2435449788
 20
-11.7176733751
 10
-1.2466748531
 20
-11.7142541256
 10
-1.2497824073
 20
-11.7107772965
 10
-1.2528675188
 20
-11.70724173
 10
-1.255930065
 20
-11.7036462684
  0
LWPOLYLINE
  5
234
100
AcDbEntity
  8
0
100
AcDbPolyline
 62
253
  6
CONTINUOUS
 90
53
 70
0
 10
-2.3263316108
 20
-11.8789129426
 10
-2.3319081777
 20
-11.8755913865
 10
-2.337431346
 20
-11.8721002585
 10
-2.3429147852
 20
-11.8684355335
 10
-2.3483721652
 20
-11.8645931862
 10
-2.3538171555
 20
-11.8605691916
 10
-2.3592605483
 20
-11.8563604065
 10
-2.364701626
 20
-11.8519672162
 10
-2.3701367931
 20
-11.8473908882
 10
-2.3755624545
 20
-11.8426326898
 10
-2.3809750148
 20
-11.8376938884
 10
-2.3863702188
 20
-11.8325763443
 10
-2.3917411714
 20
-11.8272842885
 10
-2.3970803174
 20
-11.8218225453
 10
-2.4023801017
 20
-11.8161959386
 10
-2.4076329692
 20
-11.8104092925
 10
-2.4119677776
 20
-11.8054701399
 10
-2.4162526387
 20
-11.8004369373
 10
-2.4204754327
 20
-11.7953234232
 10
-2.4246270225
 20
-11.7901395573
 10
-2.4287102012
 20
-11.7848801835
 10
-2.4327307444
 20
-11.7795363667
 10
-2.4374773788
 20
-11.7730039834
 10
-2.4421312915
 20
-11.7663471482
 10
-2.4466816391
 20
-11.7595758737
 10
-2.4511175781
 20
-11.7527001722
 10
-2.4554282651
 20
-11.7457300562
 10
-2.4596041828
 20
-11.7386756422
 10
-2.4636411178
 20
-11.7315474634
 10
-2.4675361831
 20
-11.7243561571
 10
-2.4712864915
 20
-11.7171123607
 10
-2.4748891558
 20
-11.7098267115
 10
-2.4777775242
 20
-11.7037283702
 10
-2.4805657746
 20
-11.6975984845
 10
-2.4832583244
 20
-11.6914271873
 10
-2.485857172
 20
-11.68521041
 10
-2.488354639
 20
-11.6789672772
 10
-2.4907406279
 20
-11.6727227119
 10
-2.493445226
 20
-11.6652574572
 10
-2.4959739861
 20
-11.6578392328
 10
-2.4983261389
 20
-11.6504812428
 10
-2.5005009155
 20
-11.6431966911
 10
-2.5024975466
 20
-11.6359987817
 10
-2.5043158308
 20
-11.6288985297
 10
-2.5059578368
 20
-11.6218981951
 10
-2.5074262009
 20
-11.6149978491
 10
-2.5087235593
 20
-11.6081975628
 10
-2.5098525484
 20
-11.6014974073
 10
-2.5108149654
 20
-11.5948950746
 10
-2.5116092513
 20
-11.5883787405
 10
-2.512233008
 20
-11.5819342013
 10
-2.5126838373
 20
-11.5755472537
 10
-2.5129593411
 20
-11.5692036941
  0
LWPOLYLINE
  5
235
100
AcDbEntity
  8
0
100
AcDbPolyline
 62
253
  6
CONTINUOUS
 90
53
 70
0
 10
-2.3505143533
 20
-11.0443318044
 10
-2.3449204284
 20
-11.047663659
 10
-2.3393803709
 20
-11.0511653111
 10
-2.3338805176
 20
-11.0548407092
 10
-2.3284072057
 20
-11.0586938022
 10
-2.322946772
 20
-11.0627285388
 10
-2.3174884358
 20
-11.0669479829
 10
-2.3120329451
 20
-11.0713516599
 10
-2.3065839302
 20
-11.07593821
 10
-2.3011450213
 20
-11.0807062737
 10
-2.2957198488
 20
-11.0856544913
 10
-2.2903126891
 20
-11.0907809269
 10
-2.284930404
 20
-11.0960813382
 10
-2.2795805016
 20
-11.1015509066
 10
-2.2742704898
 20
-11.1071848133
 10
-2.2690078766
 20
-11.1129782397
 10
-2.2646652783
 20
-11.1179226595
 10
-2.2603728872
 20
-11.1229608359
 10
-2.2561427806
 20
-11.1280790942
 10
-2.2519840652
 20
-11.1332675204
 10
-2.2478939643
 20
-11.1385312439
 10
-2.2438667302
 20
-11.1438791547
 10
-2.2391124015
 20
-11.1504160686
 10
-2.2344511551
 20
-11.1570770348
 10
-2.2298938217
 20
-11.1638520744
 10
-2.2254512319
 20
-11.1707312083
 10
-2.2211342161
 20
-11.1777044574
 10
-2.2169522833
 20
-11.1847617363
 10
-2.2129096559
 20
-11.1918925333
 10
-2.2090092348
 20
-11.1990862301
 10
-2.2052539205
 20
-11.2063322085
 10
-2.201646614
 20
-11.2136198503
 10
-2.1987546668
 20
-11.2197197153
 10
-2.1959631198
 20
-11.2258509811
 10
-2.1932675757
 20
-11.2320234893
 10
-2.1906660551
 20
-11.2382412921
 10
-2.1881662508
 20
-11.2444852836
 10
-2.1857782737
 20
-11.2507305685
 10
-2.1830717684
 20
-11.2581965351
 10
-2.1805416408
 20
-11.2656153164
 10
-2.1781886777
 20
-11.2729737138
 10
-2.1760136662
 20
-11.280258529
 10
-2.174017393
 20
-11.2874565633
 10
-2.1722000758
 20
-11.2945568083
 10
-2.1705596556
 20
-11.3015570149
 10
-2.1690935038
 20
-11.3084571241
 10
-2.1677989921
 20
-11.3152570768
 10
-2.166673492
 20
-11.321956814
 10
-2.1657152189
 20
-11.3285586505
 10
-2.164925763
 20
-11.335074397
 10
-2.1643075583
 20
-11.3415182378
 10
-2.1638630387
 20
-11.3479043574
 10
-2.1635946382
 20
-11.3542469402
  0
LWPOLYLINE
  5
236
100
AcDbEntity
  8
0
100
AcDbPolyline
 62
253
  6
CONTINUOUS
 90
42
 70
0
 10
-3.518825537
 20
-10.4224492882
 10
-3.5226068558
 20
-10.4201548296
 10
-3.5263726007
 20
-10.4177601311
 10
-3.5301272863
 20
-10.4152647133
 10
-3.5338754273
 20
-10.4126680969
 10
-3.5376215386
 20
-10.4099698024
 10
-3.5413701348
 20
-10.4071693505
 10
-3.5458766944
 20
-10.4036734659
 10
-3.5503927791
 20
-10.4000300382
 10
-3.5549178345
 20
-10.3962393212
 10
-3.5594513063
 20
-10.3923015685
 10
-3.56399264
 20
-10.3882170341
 10
-3.5685399591
 20
-10.3839873324
 10
-3.573086099
 20
-10.3796195212
 10
-3.5776225729
 20
-10.3751220191
 10
-3.582140894
 20
-10.3705032447
 10
-3.5866325755
 20
-10.3657716166
 10
-3.5910898977
 20
-10.3609349882
 10
-3.5955082094
 20
-10.3559989526
 10
-3.5998836262
 20
-10.3509685379
 10
-3.6042122638
 20
-10.3458487721
 10
-3.6084902379
 20
-10.3406446832
 10
-3.6127135588
 20
-10.3353613546
 10
-3.6168778149
 20
-10.3300040915
 10
-3.620978489
 20
-10.3245782544
 10
-3.6250110641
 20
-10.3190892038
 10
-3.628971023
 20
-10.3135423003
 10
-3.632853426
 20
-10.3079438686
 10
-3.6366516429
 20
-10.3023040909
 10
-3.6403586209
 20
-10.2966341135
 10
-3.6439673072
 20
-10.2909450828
 10
-3.6474706488
 20
-10.285248145
 10
-3.6508628178
 20
-10.2795526288
 10
-3.654142885
 20
-10.2738605915
 10
-3.657311146
 20
-10.2681722728
 10
-3.6603678965
 20
-10.2624879123
 10
-3.6633134321
 20
-10.2568077496
 10
-3.6661482444
 20
-10.2511303223
 10
-3.6688736087
 20
-10.2454473593
 10
-3.6714909961
 20
-10.2397488874
 10
-3.6740018778
 20
-10.2340249337
 10
-3.6764077251
 20
-10.2282655248
  0
LWPOLYLINE
  5
237
100
AcDbEntity
  8
0
100
AcDbPolyline
 62
253
  6
CONTINUOUS
 90
11
 70
0
 10
-9.229706077
 20
-13.2337181894
 10
-9.2249233341
 20
-13.2997057415
 10
-9.2159200036
 20
-13.3627746841
 10
-9.2027441278
 20
-13.422613043
 10
-9.1854721873
 20
-13.4789167582
 10
-9.1641885365
 20
-13.5314141671
 10
-9.1389820221
 20
-13.5798646819
 10
-9.1099820583
 20
-13.6240250427
 10
-9.0773364295
 20
-13.6636689654
 10
-9.0411885142
 20
-13.698609599
 10
-8.9983061047
 20
-13.7309371265
  0
LWPOLYLINE
  5
238
100
AcDbEntity
  8
0
100
AcDbPolyline
 62
253
  6
CONTINUOUS
 90
8
 70
0
 10
-9.5450400391
 20
4.238463534
 10
-9.54324506
 20
4.1964214604
 10
-9.536953617
 20
4.1575147672
 10
-9.5265980474
 20
4.1217195454
 10
-9.5125534449
 20
4.0890802994
 10
-9.4946755557
 20
4.0597934704
 10
-9.4728475376
 20
4.0342795067
 10
-9.4480226873
 20
4.0133247167
  0
LWPOLYLINE
  5
239
100
AcDbEntity
  8
0
100
AcDbPolyline
 62
7
  6
CONTINUOUS
 90
13
 70
0
 10
-9.3532327277
 20
-13.0451552692
 10
-9.3528651706
 20
-13.0540306134
 10
-9.3460652426
 20
-13.1359680638
 10
-9.3333839286
 20
-13.214441438
 10
-9.3150272777
 20
-13.2892142972
 10
-9.2912064083
 20
-13.36020543
 10
-9.262124045
 20
-13.4272768191
 10
-9.2280593858
 20
-13.4901186067
 10
-9.1893098499
 20
-13.5485165163
 10
-9.146184436
 20
-13.6022804859
 10
-9.0991255687
 20
-13.6510983056
 10
-9.0485650264
 20
-13.6947585245
 10
-8.9983344714
 20
-13.7309114067
  0
LINE
  5
23A
100
AcDbEntity
  8
0
100
AcDbLine
 62
253
  6
CONTINUOUS
 10
-9.6626067084
 20
4.4244604723
 11
-9.6625164887
 21
4.4187646804
  0
LWPOLYLINE
  5
23B
100
AcDbEntity
  8
0
100
AcDbPolyline
 62
7
  6
CONTINUOUS
 90
10
 70
0
 10
-9.6626067739
 20
3.2030431931
 10
-9.6569422429
 20
1.4322358764
 10
-9.6439781038
 20
-0.4000930301
 10
-9.6237936206
 20
-2.2281265498
 10
-9.5963880816
 20
-4.0518253688
 10
-9.5617613474
 20
-5.8711525661
 10
-9.5199132889
 20
-7.6860722099
 10
-9.4708446272
 20
-9.4965431804
 10
-9.4145568604
 20
-11.3025196375
 10
-9.3532481057
 20
-13.0449641926
  0
LWPOLYLINE
  5
23C
100
AcDbEntity
  8
0
100
AcDbPolyline
 62
253
  6
CONTINUOUS
 90
10
 70
0
 10
-9.5450398976
 20
3.0170951335
 10
-9.5397114581
 20
1.333847219
 10
-9.527989633
 20
-0.3707504242
 10
-9.5095927775
 20
-2.0965004703
 10
-9.4844487541
 20
-3.8300630571
 10
-9.4521583079
 20
-5.5844301759
 10
-9.4114791242
 20
-7.3986149754
 10
-9.3612580921
 20
-9.285144325
 10
-9.3009469905
 20
-11.2303684738
 10
-9.229706086
 20
-13.2337181996
  0
LWPOLYLINE
  5
23D
100
AcDbEntity
  8
0
100
AcDbPolyline
 62
7
  6
CONTINUOUS
 90
10
 70
0
 10
-9.3532772926
 20
21.0476989578
 10
-9.4144021945
 20
19.2363955654
 10
-9.4707053176
 20
17.3621030941
 10
-9.5197903516
 20
15.4920843984
 10
-9.5616558499
 20
13.6263851885
 10
-9.5963011679
 20
11.7650451759
 10
-9.6237259402
 20
9.9081017776
 10
-9.6439300553
 20
8.055592847
 10
-9.6569146908
 20
6.2075573392
 10
-9.6626067085
 20
4.4244604723
  0
LWPOLYLINE
  5
23E
100
AcDbEntity
  8
0
100
AcDbPolyline
 62
253
  6
CONTINUOUS
 90
10
 70
0
 10
-9.2297060845
 20
20.8576185331
 10
-9.2958323957
 20
18.9299792206
 10
-9.3532923528
 20
17.0384463034
 10
-9.4024661289
 20
15.182857272
 10
-9.4432940935
 20
13.3838824096
 10
-9.476735393
 20
11.6204373143
 10
-9.5039793161
 20
9.8301180513
 10
-9.5248660578
 20
7.9924572269
 10
-9.5386759907
 20
6.1284888856
 10
-9.5450399051
 20
4.2384634406
  0
LWPOLYLINE
  5
23F
100
AcDbEntity
  8
0
100
AcDbPolyline
 62
253
  6
CONTINUOUS
 90
16
 70
0
 10
-9.545040106
 20
3.0170951923
 10
-9.5432450602
 20
3.061578857
 10
-9.5369531616
 20
3.1063601136
 10
-9.5265968785
 20
3.1516071986
 10
-9.5125514689
 20
3.1978902687
 10
-9.494672725
 20
3.2448819183
 10
-9.4728438041
 20
3.2911704322
 10
-9.4478604232
 20
3.3362836706
 10
-9.4200216961
 20
3.3802800331
 10
-9.3889973498
 20
3.4222452851
 10
-9.3555651747
 20
3.4617239616
 10
-9.3204225009
 20
3.4985659742
 10
-9.2831925233
 20
3.5321179106
 10
-9.2442637039
 20
3.5619472641
 10
-9.2048264793
 20
3.5879896065
 10
-9.1656924944
 20
3.6101327436
  0
LINE
  5
240
100
AcDbEntity
  8
0
100
AcDbLine
 62
253
  6
CONTINUOUS
 10
6.3121304362
 20
13.749568619
 11
8.8664346961
 21
15.2997488666
  0
LINE
  5
241
100
AcDbEntity
  8
0
100
AcDbLine
 62
253
  6
CONTINUOUS
 10
-0.8426650256
 20
9.2649145206
 11
-1.4023862342
 21
8.9412798085
  0
LINE
  5
242
100
AcDbEntity
  8
0
100
AcDbLine
 62
253
  6
CONTINUOUS
 10
-1.6523682702
 20
9.3878706765
 11
-1.0937351989
 21
9.710445074
  0
LINE
  5
243
100
AcDbEntity
  8
0
100
AcDbLine
 62
253
  6
CONTINUOUS
 10
-3.1138400241
 20
7.953437326
 11
-3.6566726842
 21
7.6403315381
  0
LINE
  5
244
100
AcDbEntity
  8
0
100
AcDbLine
 62
253
  6
CONTINUOUS
 10
-3.9024014073
 20
8.0892053821
 11
-3.3604976278
 21
8.4016596219
  0
LWPOLYLINE
  5
245
100
AcDbEntity
  8
0
100
AcDbPolyline
 62
253
  6
CONTINUOUS
 90
37
 70
0
 10
-3.3604976278
 20
8.4016596219
 10
-3.3575706379
 20
8.4033076314
 10
-3.3545845435
 20
8.4048242015
 10
-3.3515400465
 20
8.4062120909
 10
-3.3484378489
 20
8.4074740586
 10
-3.3452786526
 20
8.4086128633
 10
-3.3420631595
 20
8.4096312639
 10
-3.3387920715
 20
8.410532019
 10
-3.335466429
 20
8.4113175161
 10
-3.3320886254
 20
8.4119886561
 10
-3.3286613927
 20
8.4125459683
 10
-3.3251874628
 20
8.4129899823
 10
-3.3216695675
 20
8.4133212274
 10
-3.3181104387
 20
8.4135402331
 10
-3.3145128084
 20
8.4136475288
 10
-3.3108791628
 20
8.413643569
 10
-3.3072110062
 20
8.4135285087
 10
-3.303509597
 20
8.4133024282
 10
-3.2997761938
 20
8.4129654073
 10
-3.2960120553
 20
8.4125175264
 10
-3.29221844
 20
8.4119588655
 10
-3.2883966064
 20
8.4112895047
 10
-3.2845478697
 20
8.4105093801
 10
-3.2806737713
 20
8.4096178508
 10
-3.276775909
 20
8.4086141322
 10
-3.2728558808
 20
8.4074974393
 10
-3.2689152844
 20
8.4062669874
 10
-3.2649557179
 20
8.4049219915
 10
-3.2609787791
 20
8.403461667
 10
-3.2574857326
 20
8.4020883622
 10
-3.2539802971
 20
8.4006238427
 10
-3.2504621606
 20
8.3990657935
 10
-3.2469310113
 20
8.3974118994
 10
-3.2433865373
 20
8.3956598451
 10
-3.2398284269
 20
8.3938073156
 10
-3.2362563681
 20
8.3918519955
 10
-3.2326700491
 20
8.3897915699
  0
LWPOLYLINE
  5
246
100
AcDbEntity
  8
0
100
AcDbPolyline
 62
253
  6
CONTINUOUS
 90
36
 70
0
 10
-1.0937351989
 20
9.710445074
 10
-1.0907045861
 20
9.7121231368
 10
-1.0876148131
 20
9.7136711846
 10
-1.0844665574
 20
9.7150919182
 10
-1.0812604964
 20
9.7163880378
 10
-1.0779973074
 20
9.7175622442
 10
-1.0746776679
 20
9.7186172377
 10
-1.0713022552
 20
9.719555719
 10
-1.067872093
 20
9.7203800179
 10
-1.0643895899
 20
9.7210909816
 10
-1.0608575007
 20
9.7216890867
 10
-1.0572785804
 20
9.7221748097
 10
-1.0536555836
 20
9.7225486271
 10
-1.0499912653
 20
9.7228110155
 10
-1.0462883804
 20
9.7229624514
 10
-1.0425494389
 20
9.7230033399
 10
-1.0387759722
 20
9.7229338001
 10
-1.0349692669
 20
9.7227538794
 10
-1.0311306094
 20
9.7224636256
 10
-1.0272612864
 20
9.7220630861
 10
-1.0233625845
 20
9.7215523085
 10
-1.0194357902
 20
9.7209313404
 10
-1.0154822489
 20
9.7202000877
 10
-1.0115035404
 20
9.7193578901
 10
-1.0075013036
 20
9.7184039455
 10
-1.0034771772
 20
9.717337452
 10
-0.9994327998
 20
9.7161576077
 10
-0.9953698102
 20
9.7148636104
 10
-0.991289847
 20
9.7134546582
 10
-0.9871941994
 20
9.7119295132
 10
-0.9830827581
 20
9.7102851929
 10
-0.9789550641
 20
9.7085182793
 10
-0.9748106586
 20
9.7066253538
 10
-0.9706490826
 20
9.7046029984
 10
-0.9664698772
 20
9.7024477946
 10
-0.9622725835
 20
9.7001563243
  0
LWPOLYLINE
  5
247
100
AcDbEntity
  8
0
100
AcDbPolyline
 62
253
  6
CONTINUOUS
 90
53
 70
0
 10
-3.6566726842
 20
7.6403315381
 10
-3.6606379398
 20
7.6381844395
 10
-3.6646846253
 20
7.636274393
 10
-3.6688206206
 20
7.6345923338
 10
-3.6730538057
 20
7.6331291976
 10
-3.6773920606
 20
7.6318759199
 10
-3.68184175
 20
7.6308254721
 10
-3.6864031774
 20
7.6299789698
 10
-3.691075131
 20
7.6293395644
 10
-3.6958563991
 20
7.6289104072
 10
-3.7007457697
 20
7.6286946498
 10
-3.7057412385
 20
7.628695487
 10
-3.7108376293
 20
7.6289162876
 10
-3.7160289736
 20
7.6293604637
 10
-3.7213093025
 20
7.6300314274
 10
-3.7266726473
 20
7.630932591
 10
-3.7311994997
 20
7.631861091
 10
-3.7357661408
 20
7.6329491252
 10
-3.7403588544
 20
7.6341939976
 10
-3.7449676719
 20
7.6355942192
 10
-3.7495976157
 20
7.6371531316
 10
-3.754257456
 20
7.6388752837
 10
-3.7598966951
 20
7.6411625005
 10
-3.7655804831
 20
7.6436917113
 10
-3.771297689
 20
7.6464632946
 10
-3.7770371817
 20
7.6494776289
 10
-3.7827878303
 20
7.6527350924
 10
-3.7885388706
 20
7.6562342998
 10
-3.7942810067
 20
7.6599668099
 10
-3.8000053096
 20
7.6639224177
 10
-3.80570285
 20
7.6680909182
 10
-3.8113646991
 20
7.6724621063
 10
-3.8160515038
 20
7.6762543796
 10
-3.8207159745
 20
7.6801873047
 10
-3.8253667636
 20
7.6842678649
 10
-3.8300080136
 20
7.6884990068
 10
-3.8346258274
 20
7.692867529
 10
-3.839201798
 20
7.6973561934
 10
-3.8446158031
 20
7.7028795618
 10
-3.8499351848
 20
7.7085372518
 10
-3.85515208
 20
7.7143154032
 10
-3.8602586257
 20
7.7202001556
 10
-3.8652469589
 20
7.7261776489
 10
-3.870110666
 20
7.7322358221
 10
-3.8748491313
 20
7.7383698132
 10
-3.8794631885
 20
7.7445765594
 10
-3.8839536714
 20
7.7508529981
 10
-3.8883214138
 20
7.7571960665
 10
-3.8925683698
 20
7.76360632
 10
-3.8967009763
 20
7.7700987851
 10
-3.9007267906
 20
7.7766921065
 10
-3.9046533698
 20
7.7834049287
 10
-3.9084882714
 20
7.7902558963
  0
LWPOLYLINE
  5
248
100
AcDbEntity
  8
0
100
AcDbPolyline
 62
253
  6
CONTINUOUS
 90
53
 70
0
 10
-3.0667915859
 20
9.8999939432
 10
-3.0708146087
 20
9.8978246937
 10
-3.074918315
 20
9.8958930685
 10
-3.0791106447
 20
9.8941899587
 10
-3.0833995379
 20
9.8927062557
 10
-3.0877929346
 20
9.8914328505
 10
-3.0922972461
 20
9.8903626704
 10
-3.0969127686
 20
9.8894967867
 10
-3.1016382696
 20
9.8888383065
 10
-3.1064725167
 20
9.8883903371
 10
-3.1114142773
 20
9.8881559857
 10
-3.1164615136
 20
9.888138406
 10
-3.1216089664
 20
9.8883409375
 10
-3.1268505711
 20
9.8887669662
 10
-3.1321802632
 20
9.8894198779
 10
-3.1375919782
 20
9.8903030585
 10
-3.1421582993
 20
9.8912166093
 10
-3.1467635241
 20
9.8922897257
 10
-3.1513938077
 20
9.8935197129
 10
-3.1560390712
 20
9.8949050672
 10
-3.1607042998
 20
9.8964490501
 10
-3.1653982449
 20
9.8981561141
 10
-3.1710768295
 20
9.9004248996
 10
-3.176798228
 20
9.9029352614
 10
-3.1825513009
 20
9.9056875272
 10
-3.1883249084
 20
9.9086820249
 10
-3.194107911
 20
9.9119190822
 10
-3.1998895403
 20
9.9153972799
 10
-3.2056605128
 20
9.9191082119
 10
-3.2114119163
 20
9.9230417252
 10
-3.2171348388
 20
9.9271876667
 10
-3.222820368
 20
9.9315358834
 10
-3.2275256128
 20
9.9353087219
 10
-3.2322073311
 20
9.9392219055
 10
-3.2368741529
 20
9.9432823612
 10
-3.2415302144
 20
9.9474930237
 10
-3.2461616771
 20
9.9518408588
 10
-3.2507502086
 20
9.9563088401
 10
-3.256177945
 20
9.9618076572
 10
-3.2615096613
 20
9.9674412627
 10
-3.2667375572
 20
9.9731959523
 10
-3.2718538321
 20
9.9790580216
 10
-3.2768506857
 20
9.9850137662
 10
-3.2817217567
 20
9.9910512595
 10
-3.2864664418
 20
9.9971656845
 10
-3.2910855771
 20
10.003354002
 10
-3.2955799985
 20
10.0096131725
 10
-3.299950542
 20
10.0159401569
 10
-3.3041991454
 20
10.0223355019
 10
-3.3083321529
 20
10.0288140987
 10
-3.3123570108
 20
10.0353944247
 10
-3.316281165
 20
10.0420949571
 10
-3.3201120617
 20
10.0489341734
  0
LWPOLYLINE
  5
249
100
AcDbEntity
  8
0
100
AcDbPolyline
 62
253
  6
CONTINUOUS
 90
53
 70
0
 10
-1.4023862342
 20
8.9412798085
 10
-1.4065076009
 20
8.9390803787
 10
-1.410710203
 20
8.9371173385
 10
-1.4150021803
 20
8.9353815777
 10
-1.4193916728
 20
8.9338639861
 10
-1.4238868205
 20
8.9325554536
 10
-1.4284942161
 20
8.9314489172
 10
-1.433214264
 20
8.9305455024
 10
-1.4380458216
 20
8.9298483815
 10
-1.442987746
 20
8.9293607272
 10
-1.4480388945
 20
8.929085712
 10
-1.4531972667
 20
8.929026564
 10
-1.4584574319
 20
8.9291867335
 10
-1.4638131015
 20
8.9295697264
 10
-1.4692579871
 20
8.9301790486
 10
-1.4747858002
 20
8.931018206
 10
-1.4794493354
 20
8.9318948194
 10
-1.4841517352
 20
8.9329308101
 10
-1.4888786427
 20
8.9341235133
 10
-1.4936195776
 20
8.9354714246
 10
-1.4983795665
 20
8.9369776826
 10
-1.5031675127
 20
8.9386465868
 10
-1.5089580624
 20
8.9408688416
 10
-1.5147905232
 20
8.9433318684
 10
-1.5206537268
 20
8.9460360373
 10
-1.5265365049
 20
8.9489817189
 10
-1.5324276892
 20
8.9521692834
 10
-1.5383164422
 20
8.9555973266
 10
-1.5441932501
 20
8.9592573451
 10
-1.5500489301
 20
8.9631390609
 10
-1.5558742993
 20
8.9672321962
 10
-1.5616601748
 20
8.9715264729
 10
-1.5664472922
 20
8.9752533912
 10
-1.5712093821
 20
8.979119624
 10
-1.5759552199
 20
8.9831319416
 10
-1.5806890439
 20
8.9872932033
 10
-1.585396943
 20
8.9915906228
 10
-1.5900604685
 20
8.9960075026
 10
-1.595576154
 20
9.0014444959
 10
-1.6009935187
 20
9.0070159744
 10
-1.6063047052
 20
9.0127084447
 10
-1.6115018567
 20
9.0185084137
 10
-1.6165771159
 20
9.024402388
 10
-1.6215240667
 20
9.030378607
 10
-1.6263420571
 20
9.0364322401
 10
-1.6310318757
 20
9.0425601894
 10
-1.6355943115
 20
9.0487593568
 10
-1.6400301532
 20
9.0550266445
 10
-1.6443413195
 20
9.0613625322
 10
-1.6485342485
 20
9.06778181
 10
-1.6526165082
 20
9.074302846
 10
-1.6565956666
 20
9.0809440082
 10
-1.6604792917
 20
9.0877236643
  0
LINE
  5
24A
100
AcDbEntity
  8
0
100
AcDbLine
 62
253
  6
CONTINUOUS
 10
-1.1122084161
 20
-10.259499076
 11
-1.4344455793
 21
-10.2880224843
  0
LINE
  5
24B
100
AcDbEntity
  8
0
100
AcDbLine
 62
253
  6
CONTINUOUS
 10
-1.6252075793
 20
-9.8272941702
 11
-1.3038646861
 21
-9.7989990168
  0
LINE
  5
24C
100
AcDbEntity
  8
0
100
AcDbLine
 62
253
  6
CONTINUOUS
 10
-3.1163259782
 20
-10.4246421295
 11
-3.4303248463
 21
-10.4480920553
  0
LINE
  5
24D
100
AcDbEntity
  8
0
100
AcDbLine
 62
253
  6
CONTINUOUS
 10
-3.6187631875
 20
-9.9858780317
 11
-3.3050508639
 21
-9.9627663894
  0
LWPOLYLINE
  5
24E
100
AcDbEntity
  8
0
100
AcDbPolyline
 62
253
  6
CONTINUOUS
 90
53
 70
0
 10
-1.3038646861
 20
-9.7989990168
 10
-1.2990627271
 20
-9.7987353508
 10
-1.2942147847
 20
-9.7986945668
 10
-1.2893103897
 20
-9.7988723394
 10
-1.284339073
 20
-9.7992643434
 10
-1.2792903654
 20
-9.7998662535
 10
-1.2741558451
 20
-9.8006748357
 10
-1.26893528
 20
-9.8016912213
 10
-1.2636304851
 20
-9.8029176331
 10
-1.2582432758
 20
-9.8043562938
 10
-1.2527754672
 20
-9.8060094261
 10
-1.2472297794
 20
-9.8078789881
 10
-1.2416125519
 20
-9.8099658794
 10
-1.2359310289
 20
-9.8122707349
 10
-1.2301924546
 20
-9.8147941895
 10
-1.2244040735
 20
-9.8175368783
 10
-1.2195493626
 20
-9.819989097
 10
-1.21467985
 20
-9.8225866669
 10
-1.2098102912
 20
-9.8253222525
 10
-1.2049515097
 20
-9.8281909025
 10
-1.2000985997
 20
-9.831197203
 10
-1.195242723
 20
-9.8343481245
 10
-1.1894038905
 20
-9.838327307
 10
-1.1835602644
 20
-9.8425210017
 10
-1.1777240499
 20
-9.8469254294
 10
-1.1719074522
 20
-9.8515368105
 10
-1.1661226767
 20
-9.8563513658
 10
-1.1603812336
 20
-9.8613639751
 10
-1.1546918536
 20
-9.8665641559
 10
-1.1490625721
 20
-9.8719400849
 10
-1.1435014249
 20
-9.8774799387
 10
-1.1380164475
 20
-9.883171894
 10
-1.1335074623
 20
-9.8880254659
 10
-1.1290486834
 20
-9.8929853124
 10
-1.124631841
 20
-9.898060293
 10
-1.1202528842
 20
-9.9032543372
 10
-1.1159246376
 20
-9.9085516563
 10
-1.1116641445
 20
-9.913931532
 10
-1.1066611035
 20
-9.9204708021
 10
-1.1017863346
 20
-9.9270850134
 10
-1.0970460024
 20
-9.9337600598
 10
-1.0924462715
 20
-9.9404818353
 10
-1.0879933064
 20
-9.947236234
 10
-1.083692016
 20
-9.9540111218
 10
-1.0795422858
 20
-9.9608022535
 10
-1.0755427455
 20
-9.9676073557
 10
-1.0716920251
 20
-9.9744241551
 10
-1.0679887543
 20
-9.9812503785
 10
-1.0644309556
 20
-9.9880871423
 10
-1.061014223
 20
-9.9949491217
 10
-1.0577335433
 20
-10.0018543817
 10
-1.0545839031
 20
-10.0088209873
 10
-1.0515602891
 20
-10.0158670035
  0
LWPOLYLINE
  5
24F
100
AcDbEntity
  8
0
100
AcDbPolyline
 62
253
  6
CONTINUOUS
 90
29
 70
0
 10
-1.4344455793
 20
-10.2880224843
 10
-1.4373786746
 20
-10.2881561691
 10
-1.4403374698
 20
-10.2882125224
 10
-1.4433221078
 20
-10.288192102
 10
-1.4463327312
 20
-10.2880954662
 10
-1.4493694827
 20
-10.2879231727
 10
-1.4524325049
 20
-10.2876757798
 10
-1.4555219406
 20
-10.2873538454
 10
-1.4586377249
 20
-10.2869578314
 10
-1.4617789632
 20
-10.2864878158
 10
-1.4649445531
 20
-10.2859437802
 10
-1.4681333924
 20
-10.2853257063
 10
-1.4713443789
 20
-10.284633576
 10
-1.4745764104
 20
-10.283867371
 10
-1.4778283846
 20
-10.2830270729
 10
-1.4810991812
 20
-10.2821126586
 10
-1.4843876075
 20
-10.2811240847
 10
-1.4876924526
 20
-10.2800613027
 10
-1.4910125057
 20
-10.2789242643
 10
-1.494346556
 20
-10.2777129211
 10
-1.4976933926
 20
-10.2764272247
 10
-1.5010518047
 20
-10.2750671267
 10
-1.5044208567
 20
-10.2736323468
 10
-1.5078007138
 20
-10.2721216769
 10
-1.5111918161
 20
-10.2705336771
 10
-1.5145946041
 20
-10.2688669075
 10
-1.518009518
 20
-10.2671199281
 10
-1.5214369983
 20
-10.265291299
 10
-1.5248774852
 20
-10.2633795802
  0
LWPOLYLINE
  5
250
100
AcDbEntity
  8
0
100
AcDbPolyline
 62
253
  6
CONTINUOUS
 90
53
 70
0
 10
-3.3050508639
 20
-9.9627663894
 10
-3.3003650712
 20
-9.9625548009
 10
-3.2956329171
 20
-9.9625680065
 10
-3.2908443144
 20
-9.9628016744
 10
-3.2859891754
 20
-9.9632514729
 10
-3.2810574129
 20
-9.9639130703
 10
-3.2760409023
 20
-9.9647832178
 10
-3.270939372
 20
-9.9658629976
 10
-3.2657545131
 20
-9.967154575
 10
-3.2604880169
 20
-9.9686601152
 10
-3.2551415746
 20
-9.9703817835
 10
-3.2497177928
 20
-9.9723214586
 10
-3.2442229391
 20
-9.9744798743
 10
-3.2386641966
 20
-9.9768574782
 10
-3.2330487483
 20
-9.9794547176
 10
-3.2273837772
 20
-9.9822720401
 10
-3.2226320736
 20
-9.9847869171
 10
-3.217865645
 20
-9.9874471989
 10
-3.2130991689
 20
-9.990245144
 10
-3.208343435
 20
-9.9931754606
 10
-3.2035936821
 20
-9.9962426547
 10
-3.1988412608
 20
-9.999453682
 10
-3.1931271098
 20
-10.0035038975
 10
-3.1874084439
 20
-10.0077672433
 10
-3.1816970456
 20
-10.012239714
 10
-3.1760046971
 20
-10.0169173041
 10
-3.1703431809
 20
-10.0217960079
 10
-3.1647236445
 20
-10.0268704859
 10
-3.1591546969
 20
-10.0321300628
 10
-3.1536443121
 20
-10.0375627296
 10
-3.1482004643
 20
-10.0431564768
 10
-3.1428311275
 20
-10.0488992953
 10
-3.138417231
 20
-10.0537928335
 10
-3.1340525085
 20
-10.0587904813
 10
-3.1297288524
 20
-10.0639011663
 10
-3.125442277
 20
-10.0691288687
 10
-3.1212052825
 20
-10.0744577784
 10
-3.1170344909
 20
-10.0798671376
 10
-3.112136554
 20
-10.0864389722
 10
-3.1073639366
 20
-10.0930827151
 10
-3.1027226905
 20
-10.0997843183
 10
-3.0982188675
 20
-10.1065297337
 10
-3.0938585195
 20
-10.1133049134
 10
-3.0896464729
 20
-10.1200977775
 10
-3.0855826528
 20
-10.1269041187
 10
-3.0816657591
 20
-10.1337216981
 10
-3.0778944915
 20
-10.1405482766
 10
-3.0742675498
 20
-10.147381615
 10
-3.0707830349
 20
-10.1542228429
 10
-3.0674366519
 20
-10.161086563
 10
-3.0642235071
 20
-10.1679907468
 10
-3.0611387065
 20
-10.1749533656
 10
-3.0581773565
 20
-10.1819923906
  0
LWPOLYLINE
  5
251
100
AcDbEntity
  8
0
100
AcDbPolyline
 62
253
  6
CONTINUOUS
 90
53
 70
0
 10
-2.3968543587
 20
-9.2101671158
 10
-2.3912685206
 20
-9.2132895515
 10
-2.3857467296
 20
-9.2161716839
 10
-2.3802751485
 20
-9.2188254962
 10
-2.3748399399
 20
-9.2212629716
 10
-2.3694272664
 20
-9.2234960935
 10
-2.3640262073
 20
-9.2255343765
 10
-2.3586375079
 20
-9.2273774607
 10
-2.3532648303
 20
-9.2290225178
 10
-2.3479118365
 20
-9.2304667192
 10
-2.3425821883
 20
-9.2317072366
 10
-2.337280181
 20
-9.2327410832
 10
-2.3320126426
 20
-9.2335646393
 10
-2.3267870344
 20
-9.2341741267
 10
-2.3216108174
 20
-9.2345657674
 10
-2.3164914531
 20
-9.2347357832
 10
-2.3122753599
 20
-9.2347058095
 10
-2.3081156376
 20
-9.2345193333
 10
-2.3040239948
 20
-9.2341763819
 10
-2.3000092791
 20
-9.2336765693
 10
-2.2960688939
 20
-9.2330178555
 10
-2.2921973815
 20
-9.2321977873
 10
-2.287638143
 20
-9.2309975815
 10
-2.2831808831
 20
-9.2295591631
 10
-2.2788362624
 20
-9.2278802028
 10
-2.2746149416
 20
-9.2259583712
 10
-2.2705275814
 20
-9.2237913389
 10
-2.2665834749
 20
-9.2213784255
 10
-2.2627864457
 20
-9.2187255458
 10
-2.2591389497
 20
-9.2158402633
 10
-2.255643443
 20
-9.2127301416
 10
-2.2523023815
 20
-9.2094027444
 10
-2.24963701
 20
-9.2064678235
 10
-2.2470765917
 20
-9.2033822123
 10
-2.2446171204
 20
-9.2001408537
 10
-2.2422567847
 20
-9.1967418643
 10
-2.2400025505
 20
-9.193196055
 10
-2.2378635782
 20
-9.1895174101
 10
-2.2354592398
 20
-9.1849454893
 10
-2.2332342069
 20
-9.1802152232
 10
-2.2311886167
 20
-9.1753394121
 10
-2.2293226066
 20
-9.1703308563
 10
-2.2276363137
 20
-9.1652023561
 10
-2.2261294002
 20
-9.1599651017
 10
-2.2247996271
 20
-9.1546238425
 10
-2.2236442802
 20
-9.149181718
 10
-2.2226606455
 20
-9.1436418675
 10
-2.2218460086
 20
-9.1380074303
 10
-2.2211986474
 20
-9.1322780989
 10
-2.2207208067
 20
-9.1264397775
 10
-2.2204157234
 20
-9.1204749235
 10
-2.2202866341
 20
-9.1143659943
 10
-2.2203367757
 20
-9.108095447
  0
LWPOLYLINE
  5
252
100
AcDbEntity
  8
0
100
AcDbPolyline
 62
253
  6
CONTINUOUS
 90
53
 70
0
 10
-2.4149385323
 20
-8.3717767078
 10
-2.4205077461
 20
-8.3686634274
 10
-2.4260133739
 20
-8.3657893398
 10
-2.4314692489
 20
-8.3631425223
 10
-2.4368892041
 20
-8.3607110525
 10
-2.4422870728
 20
-8.3584830078
 10
-2.4476737796
 20
-8.3564489333
 10
-2.4530486155
 20
-8.3546092446
 10
-2.4584079632
 20
-8.3529668249
 10
-2.4637482052
 20
-8.3515245575
 10
-2.4690657241
 20
-8.3502853255
 10
-2.4743562515
 20
-8.3492521759
 10
-2.4796129154
 20
-8.3484288102
 10
-2.4848281926
 20
-8.3478190935
 10
-2.48999456
 20
-8.347426891
 10
-2.4951044945
 20
-8.3472560677
 10
-2.4993130011
 20
-8.3472852383
 10
-2.5034653224
 20
-8.3474708185
 10
-2.5075496872
 20
-8.3478127984
 10
-2.511557201
 20
-8.3483115826
 10
-2.5154904769
 20
-8.3489692348
 10
-2.5193550048
 20
-8.3497882336
 10
-2.5239060654
 20
-8.3509871826
 10
-2.5283553879
 20
-8.3524244219
 10
-2.5326923257
 20
-8.3541023334
 10
-2.5369062321
 20
-8.3560232993
 10
-2.5409864606
 20
-8.3581897016
 10
-2.5449237316
 20
-8.3606022629
 10
-2.5487142334
 20
-8.3632550682
 10
-2.5523555213
 20
-8.366140543
 10
-2.5558451508
 20
-8.3692511126
 10
-2.5591806773
 20
-8.3725792027
 10
-2.5618417085
 20
-8.3755148845
 10
-2.564398055
 20
-8.3786014382
 10
-2.5668537455
 20
-8.3818439399
 10
-2.5692106155
 20
-8.3852442885
 10
-2.5714617269
 20
-8.388791673
 10
-2.5735979482
 20
-8.3924721053
 10
-2.5759995117
 20
-8.3970464471
 10
-2.5782223646
 20
-8.4017794348
 10
-2.5802663877
 20
-8.4066582687
 10
-2.5821314617
 20
-8.4116701491
 10
-2.5838174671
 20
-8.4168022761
 10
-2.5853247574
 20
-8.4220434578
 10
-2.5866555775
 20
-8.4273889334
 10
-2.5878126447
 20
-8.43283555
 10
-2.5887986767
 20
-8.4383801546
 10
-2.5896163911
 20
-8.4440195944
 10
-2.5902675192
 20
-8.4497541717
 10
-2.5907498479
 20
-8.4555980098
 10
-2.5910601783
 20
-8.4615686877
 10
-2.5911953109
 20
-8.4676837838
 10
-2.5911520468
 20
-8.4739608771
  0
LWPOLYLINE
  5
253
100
AcDbEntity
  8
0
100
AcDbPolyline
 62
253
  6
CONTINUOUS
 90
42
 70
0
 10
-1.5248774852
 20
-10.2633795802
 10
-1.5287521757
 20
-10.2611272107
 10
-1.5326100028
 20
-10.2587733163
 10
-1.5364555576
 20
-10.2563175707
 10
-1.5402934314
 20
-10.2537596477
 10
-1.5441282155
 20
-10.2510992213
 10
-1.5479645009
 20
-10.2483359652
 10
-1.5525750832
 20
-10.2448840039
 10
-1.5571939321
 20
-10.2412837774
 10
-1.5618205408
 20
-10.2375355648
 10
-1.5664544026
 20
-10.2336396453
 10
-1.5710950105
 20
-10.2295962981
 10
-1.5757404925
 20
-10.2254071638
 10
-1.5803835152
 20
-10.2210793292
 10
-1.5850153797
 20
-10.2166212424
 10
-1.5896273874
 20
-10.2120413517
 10
-1.5942108396
 20
-10.2073481052
 10
-1.5987578103
 20
-10.2025494191
 10
-1.6032634642
 20
-10.1976510817
 10
-1.6077237391
 20
-10.1926583491
 10
-1.6121345727
 20
-10.1875764776
 10
-1.6164919024
 20
-10.1824107234
 10
-1.6207916114
 20
-10.177166333
 10
-1.6250293638
 20
-10.1718485144
 10
-1.6292007693
 20
-10.1664624657
 10
-1.6333014376
 20
-10.1610133854
 10
-1.6373269782
 20
-10.1555064714
 10
-1.6412725518
 20
-10.1499478971
 10
-1.6451315229
 20
-10.1443477347
 10
-1.648896807
 20
-10.1387170317
 10
-1.6525613196
 20
-10.1330668352
 10
-1.6561179763
 20
-10.1274081926
 10
-1.6595609292
 20
-10.1217503608
 10
-1.6628892768
 20
-10.1160954361
 10
-1.6661033542
 20
-10.1104437241
 10
-1.6692034966
 20
-10.1047955306
 10
-1.6721900391
 20
-10.0991511615
 10
-1.6750635256
 20
-10.093509201
 10
-1.677825335
 20
-10.0878613467
 10
-1.6804770551
 20
-10.082197575
 10
-1.6830202733
 20
-10.076507862
 10
-1.6854565774
 20
-10.0707821838
  0
LWPOLYLINE
  5
254
100
AcDbEntity
  8
0
100
AcDbPolyline
 62
253
  6
CONTINUOUS
 90
52
 70
0
 10
-2.3859021613
 20
-9.6787515554
 10
-2.3736146478
 20
-9.6860758631
 10
-2.3613768208
 20
-9.6938265925
 10
-2.3491548607
 20
-9.7020185211
 10
-2.3369149478
 20
-9.7106664263
 10
-2.3246296667
 20
-9.7197834792
 10
-2.3122972186
 20
-9.7293764259
 10
-2.2999222089
 20
-9.7394504061
 10
-2.287509243
 20
-9.7500105594
 10
-2.2750674873
 20
-9.761057257
 10
-2.2626243518
 20
-9.7725717955
 10
-2.2502118075
 20
-9.784530703
 10
-2.2378618254
 20
-9.7969105076
 10
-2.2280465144
 20
-9.8071037437
 10
-2.2182969456
 20
-9.8175520322
 10
-2.2086183598
 20
-9.8282560733
 10
-2.1990159978
 20
-9.839216567
 10
-2.1894951006
 20
-9.8504342138
 10
-2.1790205536
 20
-9.8631970318
 10
-2.1686740889
 20
-9.8762570393
 10
-2.1584767449
 20
-9.8895930884
 10
-2.1484495603
 20
-9.9031840314
 10
-2.1386135733
 20
-9.9170087205
 10
-2.1289898224
 20
-9.9310460078
 10
-2.119599346
 20
-9.9452747456
 10
-2.1104631826
 20
-9.9596737861
 10
-2.1016023706
 20
-9.9742219814
 10
-2.0930348953
 20
-9.9888981802
 10
-2.0847665299
 20
-10.0036812162
 10
-2.0767999943
 20
-10.0185499194
 10
-2.0691380084
 20
-10.0334831201
 10
-2.0617832924
 20
-10.0484596482
 10
-2.0547385661
 20
-10.063458334
 10
-2.0480065496
 20
-10.0784580074
 10
-2.0415899629
 20
-10.0934374986
 10
-2.0354915259
 20
-10.1083756377
 10
-2.0290133916
 20
-10.1251082702
 10
-2.0229388242
 20
-10.1417497132
 10
-2.0172652896
 20
-10.1582879068
 10
-2.0119902541
 20
-10.174710791
 10
-2.0071121044
 20
-10.1910026466
 10
-2.0026329111
 20
-10.2071331172
 10
-1.9985556654
 20
-10.2230681877
 10
-1.9948833584
 20
-10.2387738426
 10
-1.9916173913
 20
-10.2542213905
 10
-1.988752805
 20
-10.269403436
 10
-1.9862830499
 20
-10.2843179079
 10
-1.9842015769
 20
-10.2989627348
 10
-1.9825032721
 20
-10.3133420695
 10
-1.9811887636
 20
-10.327484961
 10
-1.980260115
 20
-10.3414266827
 10
-1.97971939
 20
-10.3552025078
  0
LWPOLYLINE
  5
255
100
AcDbEntity
  8
0
100
AcDbPolyline
 62
253
  6
CONTINUOUS
 90
52
 70
0
 10
-2.3632209778
 20
-10.5765011198
 10
-2.3755032555
 20
-10.5691786139
 10
-2.3877337588
 20
-10.561428428
 10
-2.3999461682
 20
-10.5532358537
 10
-2.4121741642
 20
-10.5445861827
 10
-2.4244450445
 20
-10.5354663028
 10
-2.4367605755
 20
-10.5258694868
 10
-2.4491161409
 20
-10.5157906034
 10
-2.4615071243
 20
-10.5052245216
 10
-2.4739243782
 20
-10.4941708808
 10
-2.4863406304
 20
-10.4826484019
 10
-2.4987240777
 20
-10.4706805765
 10
-2.5110429166
 20
-10.4582908962
 10
-2.5208319494
 20
-10.4480890863
 10
-2.5305541037
 20
-10.437631653
 10
-2.5402042047
 20
-10.4269179257
 10
-2.5497770773
 20
-10.4159472337
 10
-2.5592675466
 20
-10.4047189061
 10
-2.5697072871
 20
-10.391943699
 10
-2.5800180947
 20
-10.378870835
 10
-2.590179158
 20
-10.365521554
 10
-2.6001696654
 20
-10.3519170957
 10
-2.6099688054
 20
-10.3380786998
 10
-2.6195557664
 20
-10.3240276061
 10
-2.6289097369
 20
-10.3097850543
 10
-2.6380099055
 20
-10.2953722842
 10
-2.6468354604
 20
-10.2808105355
 10
-2.6553686093
 20
-10.2661210501
 10
-2.6636036361
 20
-10.251325078
 10
-2.6715378435
 20
-10.2364438711
 10
-2.6791685345
 20
-10.2214986817
 10
-2.6864930119
 20
-10.2065107616
 10
-2.6935085787
 20
-10.1915013631
 10
-2.7002125377
 20
-10.1764917381
 10
-2.7066021919
 20
-10.1615031387
 10
-2.712674844
 20
-10.146556817
 10
-2.7191253556
 20
-10.1298162118
 10
-2.7251737235
 20
-10.1131683329
 10
-2.7308224232
 20
-10.096625502
 10
-2.7360739303
 20
-10.0802000405
 10
-2.7409298158
 20
-10.0639079594
 10
-2.7453880324
 20
-10.047780028
 10
-2.7494456285
 20
-10.0318507049
 10
-2.7530996522
 20
-10.0161544487
 10
-2.7563487657
 20
-10.0007202573
 10
-2.7591980858
 20
-9.985555286
 10
-2.7616543432
 20
-9.9706612295
 10
-2.7637242686
 20
-9.9560397823
 10
-2.7654131491
 20
-9.9416865038
 10
-2.7667204975
 20
-9.9275724124
 10
-2.7676443831
 20
-9.9136623912
 10
-2.7681828753
 20
-9.8999213236
  0
LWPOLYLINE
  5
256
100
AcDbEntity
  8
0
100
AcDbPolyline
 62
253
  6
CONTINUOUS
 90
28
 70
0
 10
-3.2343829412
 20
-9.2762622649
 10
-3.2377285422
 20
-9.2742561252
 10
-3.2410677417
 20
-9.2721783779
 10
-3.2444009893
 20
-9.2700296199
 10
-3.2477287347
 20
-9.2678104484
 10
-3.2510514273
 20
-9.2655214603
 10
-3.2543695168
 20
-9.2631632526
 10
-3.2576834528
 20
-9.2607364225
 10
-3.2609933739
 20
-9.2582416738
 10
-3.2642981745
 20
-9.2556801377
 10
-3.2675964379
 20
-9.2530530524
 10
-3.2708867475
 20
-9.2503616561
 10
-3.2741676867
 20
-9.2476071868
 10
-3.2774378389
 20
-9.2447908828
 10
-3.2806957874
 20
-9.2419139821
 10
-3.2839401424
 20
-9.2389776854
 10
-3.2871696216
 20
-9.235983043
 10
-3.2903829696
 20
-9.2329310677
 10
-3.2935789307
 20
-9.2298227725
 10
-3.2967562496
 20
-9.22665917
 10
-3.2999136706
 20
-9.2234412733
 10
-3.3030499385
 20
-9.2201700951
 10
-3.3061639896
 20
-9.2168462969
 10
-3.3092555289
 20
-9.213469135
 10
-3.3123244534
 20
-9.2100375143
 10
-3.31537066
 20
-9.20655034
 10
-3.3183940456
 20
-9.2030065168
 10
-3.3213945072
 20
-9.1994049497
  0
LINE
  5
257
100
AcDbEntity
  8
0
100
AcDbLine
 62
253
  6
CONTINUOUS
 10
-1.255930065
 20
-11.7036462684
 11
-1.5879013479
 21
-11.3067205442
  0
LWPOLYLINE
  5
258
100
AcDbEntity
  8
0
100
AcDbPolyline
 62
253
  6
CONTINUOUS
 90
53
 70
0
 10
-1.5879013479
 20
-11.3067205442
 10
-1.5927410246
 20
-11.3008386034
 10
-1.597450582
 20
-11.2948887286
 10
-1.6020436266
 20
-11.2888583561
 10
-1.6065337651
 20
-11.2827349222
 10
-1.6109346039
 20
-11.2765058631
 10
-1.6152569093
 20
-11.2701610815
 10
-1.6195000861
 20
-11.2637003442
 10
-1.6236606989
 20
-11.2571258844
 10
-1.6277353124
 20
-11.2504399353
 10
-1.6317204909
 20
-11.24364473
 10
-1.6356121304
 20
-11.2367436328
 10
-1.6394034515
 20
-11.2297445324
 10
-1.6430870058
 20
-11.2226564487
 10
-1.6466553453
 20
-11.2154884013
 10
-1.6501010216
 20
-11.2082494101
 10
-1.6528726369
 20
-11.2021714791
 10
-1.6555453431
 20
-11.1960692501
 10
-1.6581105862
 20
-11.1899614278
 10
-1.6605617707
 20
-11.1838617199
 10
-1.6629001347
 20
-11.1777638462
 10
-1.6651288745
 20
-11.1716565294
 10
-1.6676607632
 20
-11.1643052244
 10
-1.6700305427
 20
-11.1569395036
 10
-1.6722293596
 20
-11.1495747887
 10
-1.6742483605
 20
-11.1422265011
 10
-1.6760786919
 20
-11.1349100622
 10
-1.6777132069
 20
-11.1276400691
 10
-1.6791515847
 20
-11.1204278209
 10
-1.6803952108
 20
-11.1132837923
 10
-1.6814454712
 20
-11.106218458
 10
-1.6823037513
 20
-11.0992422927
 10
-1.682873376
 20
-11.0935017076
 10
-1.6833117039
 20
-11.0878196644
 10
-1.6836197956
 20
-11.0821855078
 10
-1.6837984771
 20
-11.0765940429
 10
-1.6838476373
 20
-11.0710619162
 10
-1.6837669302
 20
-11.0656112345
 10
-1.6834991174
 20
-11.0592040513
 10
-1.6830488838
 20
-11.0529541893
 10
-1.6824213152
 20
-11.0468698551
 10
-1.6816214975
 20
-11.0409592554
 10
-1.6806545164
 20
-11.0352305967
 10
-1.6795251264
 20
-11.0296904335
 10
-1.6782367571
 20
-11.0243387118
 10
-1.6767925067
 20
-11.0191737255
 10
-1.6751954734
 20
-11.0141937684
 10
-1.6734487553
 20
-11.0093971343
 10
-1.6715533822
 20
-11.0047812756
 10
-1.669502109
 20
-11.0003402782
 10
-1.6672856222
 20
-10.9960673865
 10
-1.6648946081
 20
-10.991955845
 10
-1.6623197532
 20
-10.9879988979
  0
LINE
  5
259
100
AcDbEntity
  8
0
100
AcDbLine
 62
253
  6
CONTINUOUS
 10
-3.3213945072
 20
-9.1994049497
 11
-3.6486939619
 21
-8.7948630554
  0
LWPOLYLINE
  5
25A
100
AcDbEntity
  8
0
100
AcDbPolyline
 62
253
  6
CONTINUOUS
 90
8
 70
0
 10
-9.6625164887
 20
4.4187646804
 10
-9.6592297789
 20
4.3907977155
 10
-9.6512471632
 20
4.3631429308
 10
-9.6386441286
 20
4.3360618077
 10
-9.6215398428
 20
4.3098104041
 10
-9.600096035
 20
4.2846369411
 10
-9.5745154732
 20
4.2607794548
 10
-9.5450400391
 20
4.238463534
  0
LWPOLYLINE
  5
25B
100
AcDbEntity
  8
0
100
AcDbPolyline
 62
7
  6
CONTINUOUS
 90
13
 70
0
 10
-9.4257546775
 20
3.6288455895
 10
-9.4472929726
 20
3.6147347095
 10
-9.481722385
 20
3.5886172722
 10
-9.5138393151
 20
3.5595540836
 10
-9.5433767587
 20
3.5277540261
 10
-9.5700937923
 20
3.4934438848
 10
-9.5938358877
 20
3.4567594088
 10
-9.6143367524
 20
3.4180316896
 10
-9.6314049334
 20
3.3775585262
 10
-9.6449329289
 20
3.3354590838
 10
-9.6547423352
 20
3.292028717
 10
-9.6606625214
 20
3.2477486454
 10
-9.6626067741
 20
3.203043193
  0
LINE
  5
25C
100
AcDbEntity
  8
0
100
AcDbLine
 62
7
  6
CONTINUOUS
 10
-9.4257043879
 20
3.62887672
 11
-9.1403325279
 21
3.8054611148
  0
LINE
  5
25D
100
AcDbEntity
  8
0
100
AcDbLine
 62
253
  6
CONTINUOUS
 10
-9.1656924611
 20
3.6101327638
 11
-9.0015157136
 21
3.7117231995
  0
LINE
  5
25E
100
AcDbEntity
  8
0
100
AcDbLine
 62
253
  6
CONTINUOUS
 10
6.6748112788
 20
13.1431656378
 11
9.2512217836
 21
14.7067619318
  0
LWPOLYLINE
  5
25F
100
AcDbEntity
  8
0
100
AcDbPolyline
 62
253
  6
CONTINUOUS
 90
37
 70
0
 10
-1.700927804
 20
7.4404127684
 10
-1.6979451064
 20
7.4420927073
 10
-1.6949020256
 20
7.4436414052
 10
-1.6917992827
 20
7.4450616339
 10
-1.6886375987
 20
7.4463561651
 10
-1.6854176948
 20
7.4475277706
 10
-1.682140292
 20
7.4485792221
 10
-1.6788061114
 20
7.4495132913
 10
-1.6754162229
 20
7.450332375
 10
-1.671973091
 20
7.4510373703
 10
-1.6684795293
 20
7.4516287994
 10
-1.6649383511
 20
7.4521071844
 10
-1.6613523698
 20
7.4524730474
 10
-1.6577243989
 20
7.4527269106
 10
-1.6540572518
 20
7.4528692961
 10
-1.6503534855
 20
7.4529006543
 10
-1.6466146324
 20
7.4528211486
 10
-1.6428419681
 20
7.4526308706
 10
-1.6390367687
 20
7.4523299121
 10
-1.6352003101
 20
7.4519183646
 10
-1.6313338681
 20
7.4513963197
 10
-1.6274387185
 20
7.4507638692
 10
-1.6235161958
 20
7.4500209587
 10
-1.6195678677
 20
7.4491669498
 10
-1.6155953603
 20
7.4482010583
 10
-1.6116002999
 20
7.4471224999
 10
-1.6075843126
 20
7.4459304902
 10
-1.6035490246
 20
7.4446242449
 10
-1.5994960621
 20
7.4432029797
 10
-1.5959362649
 20
7.4418641081
 10
-1.5923638608
 20
7.4404342737
 10
-1.5887785301
 20
7.4389111761
 10
-1.5851799529
 20
7.4372925153
 10
-1.5815678096
 20
7.4355759909
 10
-1.5779417801
 20
7.4337593026
 10
-1.5743015448
 20
7.4318401504
 10
-1.5706467838
 20
7.4298162338
  0
LWPOLYLINE
  5
260
100
AcDbEntity
  8
0
100
AcDbPolyline
 62
253
  6
CONTINUOUS
 90
9
 70
0
 10
-9.4257043879
 20
3.62887672
 10
-9.4080316678
 20
3.6384383558
 10
-9.3787193694
 20
3.6491451791
 10
-9.347016484
 20
3.6549560452
 10
-9.3132749248
 20
3.6558007261
 10
-9.27787442
 20
3.6516676577
 10
-9.2412080645
 20
3.6426033468
 10
-9.203676371
 20
3.6287073956
 10
-9.165692494
 20
3.6101327434
  0
LINE
  5
261
100
AcDbEntity
  8
0
100
AcDbLine
 62
253
  6
CONTINUOUS
 10
-1.4151477192
 20
-11.0540496215
 11
-1.0822760794
 21
-11.4505131503
  0
LWPOLYLINE
  5
262
100
AcDbEntity
  8
0
100
AcDbPolyline
 62
253
  6
CONTINUOUS
 90
53
 70
0
 10
-1.0822760794
 20
-11.4505131503
 10
-1.0774346982
 20
-11.4563889775
 10
-1.0727226346
 20
-11.4623318913
 10
-1.0681264388
 20
-11.4683543933
 10
-1.063632661
 20
-11.4744689852
 10
-1.0592278512
 20
-11.4806881686
 10
-1.0549013778
 20
-11.4870219881
 10
-1.0506538817
 20
-11.4934706589
 10
-1.0464888222
 20
-11.5000319392
 10
-1.0424096584
 20
-11.5067035871
 10
-1.0384198496
 20
-11.5134833607
 10
-1.0345235067
 20
-11.5203679224
 10
-1.0307273485
 20
-11.5273495511
 10
-1.0270387454
 20
-11.5344194297
 10
-1.0234650681
 20
-11.5415687415
 10
-1.0200136871
 20
-11.5487886694
 10
-1.0172369738
 20
-11.5548506574
 10
-1.0145587687
 20
-11.5609372555
 10
-1.0119875335
 20
-11.5670301576
 10
-1.0095297978
 20
-11.5731159702
 10
-1.007184363
 20
-11.5792009492
 10
-1.0049480983
 20
-11.5852962631
 10
-1.0024066666
 20
-11.592634234
 10
-1.0000268598
 20
-11.5999878309
 10
-0.9978176058
 20
-11.6073417153
 10
-0.995787833
 20
-11.6146805486
 10
-0.9939464696
 20
-11.621988992
 10
-0.9923007392
 20
-11.6292525447
 10
-0.9908510477
 20
-11.6364600571
 10
-0.9895960966
 20
-11.6436012176
 10
-0.9885345872
 20
-11.6506657143
 10
-0.987665221
 20
-11.6576432354
 10
-0.9870865391
 20
-11.6633867096
 10
-0.9866393412
 20
-11.6690731695
 10
-0.9863225803
 20
-11.6747131616
 10
-0.9861354484
 20
-11.6803117997
 10
-0.9860780934
 20
-11.6858524684
 10
-0.9861509018
 20
-11.69131312
 10
-0.9864096752
 20
-11.6977342154
 10
-0.9868513682
 20
-11.7040001158
 10
-0.9874709082
 20
-11.7101026
 10
-0.9882632226
 20
-11.7160334465
 10
-0.9892232389
 20
-11.721784434
 10
-0.9903462129
 20
-11.727348995
 10
-0.9916287151
 20
-11.7327271784
 10
-0.9930676443
 20
-11.7379206866
 10
-0.9946598994
 20
-11.7429312225
 10
-0.9964023793
 20
-11.7477604887
 10
-0.9982940325
 20
-11.7524110426
 10
-1.0003420052
 20
-11.7568888612
 10
-1.0025554935
 20
-11.7612007762
 10
-1.0049436932
 20
-11.7653536192
 10
-1.0075158002
 20
-11.7693542219
  0
LINE
  5
263
100
AcDbEntity
  8
0
100
AcDbLine
 62
253
  6
CONTINUOUS
 10
-3.4782572917
 20
-8.5434435475
 11
-3.1536441844
 21
-8.9447330142
  0
LWPOLYLINE
  5
264
100
AcDbEntity
  8
0
100
AcDbPolyline
 62
253
  6
CONTINUOUS
 90
53
 70
0
 10
-3.1536441844
 20
-8.9447330142
 10
-3.1489737607
 20
-8.9506113974
 10
-3.1444260203
 20
-8.9565530799
 10
-3.1399884108
 20
-8.9625700767
 10
-3.1356483798
 20
-8.9686744032
 10
-3.1313933749
 20
-8.9748780744
 10
-3.1272134164
 20
-8.9811909133
 10
-3.1231088148
 20
-8.987613974
 10
-3.1190824534
 20
-8.9941461186
 10
-3.1151372155
 20
-9.000786209
 10
-3.1112759843
 20
-9.0075331071
 10
-3.1075026058
 20
-9.0143837155
 10
-3.1038247772
 20
-9.0213270984
 10
-3.1002511584
 20
-9.0283503608
 10
-3.0967904095
 20
-9.0354406073
 10
-3.0934511904
 20
-9.042584943
 10
-3.0902415111
 20
-9.0497713965
 10
-3.0871667817
 20
-9.0569916924
 10
-3.0842317621
 20
-9.064238479
 10
-3.0814412124
 20
-9.071504405
 10
-3.0787998926
 20
-9.0787821187
 10
-3.0763127566
 20
-9.0860642424
 10
-3.0739855329
 20
-9.0933432939
 10
-3.071824144
 20
-9.1006117647
 10
-3.0698345124
 20
-9.1078621464
 10
-3.0680225603
 20
-9.1150869306
 10
-3.0663932509
 20
-9.1222783158
 10
-3.0649477101
 20
-9.1294273277
 10
-3.0636861045
 20
-9.1365246991
 10
-3.0626086007
 20
-9.1435611627
 10
-3.0617153653
 20
-9.1505274512
 10
-3.0611117582
 20
-9.1562745599
 10
-3.0606355768
 20
-9.1619740985
 10
-3.060286167
 20
-9.1676336654
 10
-3.0600631114
 20
-9.1732563988
 10
-3.05996694
 20
-9.1788275964
 10
-3.0599984198
 20
-9.1843280962
 10
-3.0602050559
 20
-9.1908126049
 10
-3.0605936257
 20
-9.1971598662
 10
-3.0611611408
 20
-9.2033620314
 10
-3.0619046129
 20
-9.2094112516
 10
-3.0628210536
 20
-9.215299678
 10
-3.0639076796
 20
-9.2210204912
 10
-3.0651625284
 20
-9.2265709897
 10
-3.0665838425
 20
-9.2319495012
 10
-3.0681698643
 20
-9.2371543535
 10
-3.0699188363
 20
-9.2421838744
 10
-3.0715007574
 20
-9.2462406143
 10
-3.0732010194
 20
-9.2501771424
 10
-3.0750260237
 20
-9.2539961663
 10
-3.0769821718
 20
-9.2577003933
 10
-3.0790758653
 20
-9.2612925309
 10
-3.0813135055
 20
-9.2647752866
  0
LWPOLYLINE
  5
265
100
AcDbEntity
  8
0
100
AcDbPolyline
 62
253
  6
CONTINUOUS
 90
53
 70
0
 10
-3.6486939619
 20
-8.7948630554
 10
-3.6534120473
 20
-8.7888759874
 10
-3.6580028044
 20
-8.7828250261
 10
-3.6624794173
 20
-8.7766972808
 10
-3.6668550701
 20
-8.7704798613
 10
-3.6711429472
 20
-8.7641598769
 10
-3.675353477
 20
-8.7577269433
 10
-3.6794860663
 20
-8.7511806997
 10
-3.683537366
 20
-8.7445232916
 10
-3.6875040271
 20
-8.7377568643
 10
-3.6913827006
 20
-8.7308835632
 10
-3.6951693681
 20
-8.7239067107
 10
-3.6988573336
 20
-8.7168343377
 10
-3.7024392317
 20
-8.7096756522
 10
-3.7059076968
 20
-8.7024398623
 10
-3.7092553636
 20
-8.695136176
 10
-3.7119468126
 20
-8.6890068231
 10
-3.7145408991
 20
-8.6828556907
 10
-3.7170292635
 20
-8.6767017551
 10
-3.719405454
 20
-8.6705589517
 10
-3.7216706511
 20
-8.6644210512
 10
-3.7238279436
 20
-8.6582767832
 10
-3.7262763122
 20
-8.6508851745
 10
-3.7285653017
 20
-8.6434834111
 10
-3.7306864679
 20
-8.6360867367
 10
-3.7326313667
 20
-8.628710395
 10
-3.7343915539
 20
-8.6213696298
 10
-3.7359602414
 20
-8.6140788911
 10
-3.7373372637
 20
-8.6068494549
 10
-3.7385241113
 20
-8.5996918033
 10
-3.7395222747
 20
-8.5926164186
 10
-3.7403332444
 20
-8.5856337829
 10
-3.740867165
 20
-8.5798905518
 10
-3.7412731821
 20
-8.5742083922
 10
-3.7415523528
 20
-8.5685766872
 10
-3.7417055238
 20
-8.5629902151
 10
-3.7417327007
 20
-8.557465335
 10
-3.7416336784
 20
-8.5520238012
 10
-3.7413488652
 20
-8.5456296792
 10
-3.740886985
 20
-8.5393949223
 10
-3.7402529928
 20
-8.5333275506
 10
-3.7394518434
 20
-8.5274355845
 10
-3.7384884918
 20
-8.5217270441
 10
-3.7373675705
 20
-8.5162083365
 10
-3.7360924221
 20
-8.5108794163
 10
-3.7346660672
 20
-8.5057386248
 10
-3.733091526
 20
-8.5007843033
 10
-3.731371819
 20
-8.4960147932
 10
-3.7295079528
 20
-8.4914276002
 10
-3.7274928792
 20
-8.4870168875
 10
-3.7253175361
 20
-8.482775983
 10
-3.7229728616
 20
-8.4786982142
 10
-3.7204497937
 20
-8.4747769089
  0
LWPOLYLINE
  5
266
100
AcDbEntity
  8
0
100
AcDbPolyline
 62
253
  6
CONTINUOUS
 90
53
 70
0
 10
-3.0581773565
 20
-10.1819923906
 10
-3.0553844443
 20
-10.1890029838
 10
-3.0527663935
 20
-10.1959584305
 10
-3.0503136931
 20
-10.2028759684
 10
-3.0480168318
 20
-10.2097728351
 10
-3.0458662985
 20
-10.2166662681
 10
-3.0438546416
 20
-10.2235700054
 10
-3.0419826487
 20
-10.2304837856
 10
-3.0402531668
 20
-10.2374038477
 10
-3.0386690431
 20
-10.2443264306
 10
-3.0372331247
 20
-10.2512477733
 10
-3.035948506
 20
-10.2581629499
 10
-3.0348192711
 20
-10.2650623747
 10
-3.0338497515
 20
-10.2719352974
 10
-3.0330442784
 20
-10.2787709675
 10
-3.0324071834
 20
-10.2855586344
 10
-3.0320078087
 20
-10.2911687593
 10
-3.0317296232
 20
-10.2967208264
 10
-3.031573879
 20
-10.302197579
 10
-3.0315418548
 20
-10.3075861257
 10
-3.0316349359
 20
-10.3128910364
 10
-3.0318545343
 20
-10.3181212464
 10
-3.0322871368
 20
-10.3243063415
 10
-3.0329069586
 20
-10.3303813772
 10
-3.0337170008
 20
-10.3363309966
 10
-3.0347202644
 20
-10.3421398424
 10
-3.0359197506
 20
-10.3477925577
 10
-3.0373169287
 20
-10.3532754858
 10
-3.0389071412
 20
-10.3585817719
 10
-3.0406841988
 20
-10.3637062614
 10
-3.042641912
 20
-10.3686438001
 10
-3.0447740916
 20
-10.3733892336
 10
-3.0466808957
 20
-10.377194963
 10
-3.0487080575
 20
-10.3808707276
 10
-3.0508590756
 20
-10.3844235484
 10
-3.05313531
 20
-10.3878570767
 10
-3.0555295653
 20
-10.3911614841
 10
-3.0580325073
 20
-10.3943235725
 10
-3.0611675094
 20
-10.3979152427
 10
-3.0644363354
 20
-10.4012818108
 10
-3.0678297416
 20
-10.4044221199
 10
-3.0713384841
 20
-10.4073350126
 10
-3.0749533192
 20
-10.4100193318
 10
-3.0786660931
 20
-10.41247465
 10
-3.0824730126
 20
-10.4147034586
 10
-3.0863713743
 20
-10.4167089786
 10
-3.090358475
 20
-10.4184944308
 10
-3.0944316116
 20
-10.4200630364
 10
-3.0985907427
 20
-10.4214170246
 10
-3.1028464757
 20
-10.4225546576
 10
-3.1072120797
 20
-10.4234732058
 10
-3.1117008242
 20
-10.4241699396
 10
-3.1163259782
 20
-10.4246421295
  0
LWPOLYLINE
  5
267
100
AcDbEntity
  8
0
100
AcDbPolyline
 62
253
  6
CONTINUOUS
 90
53
 70
0
 10
-3.6764077251
 20
-10.2282655248
 10
-3.67918342
 20
-10.2212495629
 10
-3.6817860466
 20
-10.2142892814
 10
-3.6842250409
 20
-10.2073673637
 10
-3.6865098389
 20
-10.2004664933
 10
-3.6886498766
 20
-10.1935693537
 10
-3.6906525393
 20
-10.1866621488
 10
-3.6925170091
 20
-10.1797451654
 10
-3.6942404176
 20
-10.1728222109
 10
-3.6958198962
 20
-10.1658970926
 10
-3.6972525767
 20
-10.1589736179
 10
-3.6985353442
 20
-10.1520567534
 10
-3.6996641001
 20
-10.145156103
 10
-3.7006344994
 20
-10.1382824299
 10
-3.7014421972
 20
-10.1314464971
 10
-3.7020828485
 20
-10.1246590678
 10
-3.7024861884
 20
-10.1190495253
 10
-3.7027692127
 20
-10.1134983624
 10
-3.7029306274
 20
-10.1080228014
 10
-3.7029691168
 20
-10.1026357064
 10
-3.7028832774
 20
-10.0973325098
 10
-3.702671684
 20
-10.0921042855
 10
-3.7022496684
 20
-10.0859219575
 10
-3.7016414428
 20
-10.0798501823
 10
-3.7008439351
 20
-10.0739044055
 10
-3.6998540734
 20
-10.0681000726
 10
-3.6986687858
 20
-10.0624526292
 10
-3.6972865353
 20
-10.0569757973
 10
-3.6957119249
 20
-10.0516764045
 10
-3.6939510925
 20
-10.0465595549
 10
-3.6920101761
 20
-10.0416303525
 10
-3.6898953137
 20
-10.0368939014
 10
-3.6880033109
 20
-10.0330961167
 10
-3.6859913058
 20
-10.0294286952
 10
-3.6838558292
 20
-10.0258846008
 10
-3.6815955369
 20
-10.0224601619
 10
-3.6792175821
 20
-10.019165166
 10
-3.6767312428
 20
-10.0160127655
 10
-3.6736164934
 20
-10.0124330235
 10
-3.6703682345
 20
-10.0090786512
 10
-3.66699567
 20
-10.0059507415
 10
-3.6635080039
 20
-10.0030503874
 10
-3.6599144401
 20
-10.0003786819
 10
-3.6562230991
 20
-9.9979359934
 10
-3.652437767
 20
-9.9957197916
 10
-3.6485611469
 20
-9.9937268216
 10
-3.6445959414
 20
-9.9919538284
 10
-3.6405448533
 20
-9.9903975572
 10
-3.6364079248
 20
-9.9890557523
 10
-3.6321745553
 20
-9.987930156
 10
-3.6278314834
 20
-9.9870235095
 10
-3.6233654479
 20
-9.9863385543
 10
-3.6187631875
 20
-9.9858780317
  0
LWPOLYLINE
  5
268
100
AcDbEntity
  8
0
100
AcDbPolyline
 62
7
  6
CONTINUOUS
 90
5
 70
0
 10
-9.6330709474
 20
4.2545062714
 10
-9.6458951549
 20
4.295620082
 10
-9.655177202
 20
4.3379343152
 10
-9.6607718
 20
4.3810100061
 10
-9.6626067084
 20
4.4244604736
  0
LINE
  5
269
100
AcDbEntity
  8
0
100
AcDbLine
 62
253
  6
CONTINUOUS
 10
-4.2615879746
 20
22.3614573875
 11
-4.2615879571
 21
22.2994841237
  0
LWPOLYLINE
  5
26A
100
AcDbEntity
  8
0
100
AcDbPolyline
 62
253
  6
CONTINUOUS
 90
55
 70
0
 10
-4.4765086733
 20
9.9028858662
 10
-4.4762672485
 20
9.9092540527
 10
-4.4758574152
 20
9.9154589175
 10
-4.4752814734
 20
9.921518158
 10
-4.4745417231
 20
9.9274494717
 10
-4.473640464
 20
9.9332705562
 10
-4.472579374
 20
9.9389954087
 10
-4.4713576414
 20
9.9446232253
 10
-4.4699738325
 20
9.9501495021
 10
-4.4684265135
 20
9.955569735
 10
-4.4667142506
 20
9.96087942
 10
-4.4648358889
 20
9.9660731604
 10
-4.4627913883
 20
9.9711419887
 10
-4.4605809876
 20
9.9760760449
 10
-4.4582049257
 20
9.9808654688
 10
-4.4556634413
 20
9.9855004003
 10
-4.4534204564
 20
9.9892367442
 10
-4.4510695638
 20
9.9928474253
 10
-4.4486175669
 20
9.9963209148
 10
-4.4460691458
 20
9.9996483375
 10
-4.4434204886
 20
10.0028314342
 10
-4.4406656599
 20
10.0058745993
 10
-4.4378000936
 20
10.0087803549
 10
-4.4348246982
 20
10.0115437327
 10
-4.4317417513
 20
10.0141578918
 10
-4.4285535304
 20
10.0166159912
 10
-4.425262313
 20
10.0189111903
 10
-4.4218703766
 20
10.0210366479
 10
-4.418380527
 20
10.0229868071
 10
-4.4147976833
 20
10.0247612456
 10
-4.411127293
 20
10.0263608248
 10
-4.4073748036
 20
10.0277864063
 10
-4.4035456624
 20
10.0290388516
 10
-4.399645317
 20
10.0301190223
 10
-4.3956770885
 20
10.0310279253
 10
-4.3916357936
 20
10.0317671495
 10
-4.3875141224
 20
10.0323384295
 10
-4.3833087945
 20
10.0327430285
 10
-4.3790326451
 20
10.0329803252
 10
-4.3747025385
 20
10.0330492269
 10
-4.3694559038
 20
10.0329094457
 10
-4.3641668267
 20
10.0325318518
 10
-4.3588462788
 20
10.0319226944
 10
-4.3535052312
 20
10.0310882228
 10
-4.3481546555
 20
10.0300346861
 10
-4.3428039475
 20
10.0287679651
 10
-4.3374562007
 20
10.0272924666
 10
-4.3321129333
 20
10.0256122291
 10
-4.3267756635
 20
10.0237312909
 10
-4.3214459093
 20
10.0216536906
 10
-4.3161226491
 20
10.0193808531
 10
-4.3107947026
 20
10.0169037502
 10
-4.3054483495
 20
10.0142107403
 10
-4.3000698698
 20
10.0112901817
 10
-4.2946455432
 20
10.0081304327
  0
LWPOLYLINE
  5
26B
100
AcDbEntity
  8
0
100
AcDbPolyline
 62
253
  6
CONTINUOUS
 90
53
 70
0
 10
-0.9196239806
 20
6.063901649
 10
-0.9237183575
 20
6.0616812725
 10
-0.9278963083
 20
6.0596961347
 10
-0.9321660516
 20
6.0579370386
 10
-0.9365358061
 20
6.0563947874
 10
-0.9410137902
 20
6.0550601845
 10
-0.9456066528
 20
6.0539261089
 10
-0.950314763
 20
6.0529937441
 10
-0.95513692
 20
6.0522663494
 10
-0.960071923
 20
6.0517471843
 10
-0.9651185713
 20
6.051439508
 10
-0.9702748333
 20
6.0513466405
 10
-0.9755353544
 20
6.0514721441
 10
-0.9808939491
 20
6.0518196417
 10
-0.9863444319
 20
6.0523927559
 10
-0.9918806174
 20
6.0531951097
 10
-0.9965533328
 20
6.0540407093
 10
-1.0012670244
 20
6.0550455807
 10
-1.0060074483
 20
6.0562072856
 10
-1.01076425
 20
6.0575245318
 10
-1.0155426337
 20
6.0590006114
 10
-1.0203516932
 20
6.0606399623
 10
-1.0261713314
 20
6.0628277757
 10
-1.0320367754
 20
6.065257712
 10
-1.0379365625
 20
6.0679303924
 10
-1.0438592301
 20
6.0708464383
 10
-1.0497933157
 20
6.0740064709
 10
-1.0557277185
 20
6.0774093013
 10
-1.061652785
 20
6.0810464993
 10
-1.0675592238
 20
6.0849078247
 10
-1.0734377434
 20
6.0889830372
 10
-1.079279052
 20
6.0932618964
 10
-1.08411407
 20
6.0969779144
 10
-1.0889257516
 20
6.1008350746
 10
-1.0937230542
 20
6.1048402094
 10
-1.0985102812
 20
6.1089961864
 10
-1.1032731218
 20
6.1132900145
 10
-1.1079926116
 20
6.1177047378
 10
-1.1135761852
 20
6.1231407044
 10
-1.1190619195
 20
6.1287125871
 10
-1.1244417094
 20
6.1344066291
 10
-1.1297074497
 20
6.1402090737
 10
-1.134851035
 20
6.1461061641
 10
-1.1398658477
 20
6.1520859105
 10
-1.1447512196
 20
6.1581433918
 10
-1.1495079701
 20
6.1642754538
 10
-1.1541369185
 20
6.1704789424
 10
-1.1586388844
 20
6.1767507036
 10
-1.1630158602
 20
6.1830912204
 10
-1.1672745324
 20
6.1895155245
 10
-1.1714227603
 20
6.1960422851
 10
-1.1754684036
 20
6.2026901711
 10
-1.1794193218
 20
6.2094778515
  0
LWPOLYLINE
  5
26C
100
AcDbEntity
  8
0
100
AcDbPolyline
 62
7
  6
CONTINUOUS
 90
4
 70
0
 10
-9.5746975701
 20
4.1406468018
 10
-9.5973487541
 20
4.176828905
 10
-9.6168581828
 20
4.2148699926
 10
-9.6330709474
 20
4.2545062714
  0
LWPOLYLINE
  5
26D
100
AcDbEntity
  8
0
100
AcDbPolyline
 62
253
  6
CONTINUOUS
 90
53
 70
0
 10
-1.0515602891
 20
-10.0158670035
 10
-1.0487473655
 20
-10.0228175405
 10
-1.0461118208
 20
-10.0297161928
 10
-1.0436440893
 20
-10.0365800193
 10
-1.0413346053
 20
-10.0434260789
 10
-1.039173803
 20
-10.0502714305
 10
-1.0371541957
 20
-10.057129653
 10
-1.0352766126
 20
-10.0640004058
 10
-1.0335439623
 20
-10.0708798683
 10
-1.0319591531
 20
-10.0777642202
 10
-1.0305250934
 20
-10.0846496409
 10
-1.029244929
 20
-10.0915311998
 10
-1.0281227553
 20
-10.0983995261
 10
-1.027162905
 20
-10.1052441389
 10
-1.026369711
 20
-10.1120545573
 10
-1.025747506
 20
-10.1188203005
 10
-1.0253625352
 20
-10.1244149245
 10
-1.025100568
 20
-10.1299543394
 10
-1.0249628567
 20
-10.1354216389
 10
-1.0249507047
 20
-10.1408042148
 10
-1.0250656187
 20
-10.1461066512
 10
-1.0253091567
 20
-10.1513378299
 10
-1.0257734533
 20
-10.1575285407
 10
-1.0264283485
 20
-10.1636138802
 10
-1.0272769793
 20
-10.1695782982
 10
-1.0283224825
 20
-10.1754062441
 10
-1.0295679952
 20
-10.1810821675
 10
-1.0310150995
 20
-10.186592239
 10
-1.0326591586
 20
-10.1919295125
 10
-1.0344939806
 20
-10.1970887633
 10
-1.036513374
 20
-10.2020647664
 10
-1.038711147
 20
-10.2068522969
 10
-1.0406756206
 20
-10.2106958399
 10
-1.0427632912
 20
-10.2144119023
 10
-1.0449777809
 20
-10.2180075156
 10
-1.047320502
 20
-10.2214862964
 10
-1.0497840277
 20
-10.2248382012
 10
-1.0523587217
 20
-10.2280497714
 10
-1.0555827177
 20
-10.2317031216
 10
-1.0589434025
 20
-10.235133699
 10
-1.0624312588
 20
-10.2383401929
 10
-1.0660367694
 20
-10.2413212927
 10
-1.0697504173
 20
-10.2440756879
 10
-1.073563813
 20
-10.2466028228
 10
-1.0774730782
 20
-10.2489051613
 10
-1.0814754622
 20
-10.2509859223
 10
-1.0855682144
 20
-10.2528483245
 10
-1.0897485843
 20
-10.2544955868
 10
-1.0940165411
 20
-10.2559299809
 10
-1.0983829338
 20
-10.2571499904
 10
-1.1028613313
 20
-10.2581531518
 10
-1.1074653024
 20
-10.2589370015
 10
-1.1122084161
 20
-10.259499076
  0
LWPOLYLINE
  5
26E
100
AcDbEntity
  8
0
100
AcDbPolyline
 62
253
  6
CONTINUOUS
 90
53
 70
0
 10
-1.6854565774
 20
-10.0707821838
 10
-1.6883777483
 20
-10.0635468426
 10
-1.6911036535
 20
-10.0563800061
 10
-1.6936452518
 20
-10.0492641963
 10
-1.6960135017
 20
-10.042181935
 10
-1.6982193618
 20
-10.0351157439
 10
-1.7002715932
 20
-10.0280517833
 10
-1.702170167
 20
-10.0209907666
 10
-1.7039128565
 20
-10.0139370459
 10
-1.7054974353
 20
-10.0068949729
 10
-1.7069216768
 20
-9.9998688996
 10
-1.7081831461
 20
-9.9928641588
 10
-1.7092785737
 20
-9.9858900077
 10
-1.7102044819
 20
-9.9789566841
 10
-1.7109573929
 20
-9.9720744263
 10
-1.7115338289
 20
-9.9652534723
 10
-1.7118770871
 20
-9.959625354
 10
-1.7120946333
 20
-9.9540636094
 10
-1.7121857229
 20
-9.9485849304
 10
-1.7121495729
 20
-9.9432019961
 10
-1.7119852486
 20
-9.9379114349
 10
-1.711691777
 20
-9.9327058619
 10
-1.71116771
 20
-9.9265651527
 10
-1.7104542464
 20
-9.9205485794
 10
-1.7095493629
 20
-9.9146685284
 10
-1.7084510358
 20
-9.9089373861
 10
-1.7071572417
 20
-9.903367539
 10
-1.7056673465
 20
-9.8979699211
 10
-1.7039862742
 20
-9.8927496577
 10
-1.7021203383
 20
-9.8877104214
 10
-1.7000758523
 20
-9.882855885
 10
-1.6978591297
 20
-9.8781897213
 10
-1.6958837283
 20
-9.874446439
 10
-1.6937900493
 20
-9.8708304989
 10
-1.6915750397
 20
-9.8673358781
 10
-1.6892376697
 20
-9.8639595152
 10
-1.6867850036
 20
-9.860710195
 10
-1.6842261292
 20
-9.8575996635
 10
-1.6810269497
 20
-9.8540635409
 10
-1.6776968367
 20
-9.8507451391
 10
-1.6742447102
 20
-9.8476454092
 10
-1.6706794905
 20
-9.8447653019
 10
-1.6670100976
 20
-9.8421057682
 10
-1.663244442
 20
-9.8396670932
 10
-1.6593863946
 20
-9.8374468996
 10
-1.6554388164
 20
-9.8354421444
 10
-1.6514045684
 20
-9.8336497849
 10
-1.6472865119
 20
-9.8320667778
 10
-1.6430848546
 20
-9.8306909496
 10
-1.6387891912
 20
-9.8295236028
 10
-1.6343864632
 20
-9.8285669094
 10
-1.6298636121
 20
-9.8278230413
 10
-1.6252075793
 20
-9.8272941702
  0
LWPOLYLINE
  5
26F
100
AcDbEntity
  8
0
100
AcDbPolyline
 62
253
  6
CONTINUOUS
 90
53
 70
0
 10
-2.5819790698
 20
-8.8992732071
 10
-2.5817536994
 20
-8.9055618006
 10
-2.5813571034
 20
-8.9118915936
 10
-2.5807916721
 20
-8.918276452
 10
-2.5800597955
 20
-8.9247302417
 10
-2.579163864
 20
-8.9312668289
 10
-2.5781056343
 20
-8.9378973279
 10
-2.5768843301
 20
-8.9446218468
 10
-2.5754985416
 20
-8.951437742
 10
-2.5739468591
 20
-8.95834237
 10
-2.5722278728
 20
-8.9653330873
 10
-2.5703404473
 20
-8.9724061152
 10
-2.5682845445
 20
-8.9795531343
 10
-2.5660604004
 20
-8.9867646899
 10
-2.5636682511
 20
-8.9940313276
 10
-2.5611083328
 20
-9.0013435926
 10
-2.558848164
 20
-9.0074630471
 10
-2.5564782876
 20
-9.0135893527
 10
-2.5540053381
 20
-9.0197042405
 10
-2.5514339279
 20
-9.0257941671
 10
-2.54876058
 20
-9.0318644918
 10
-2.5459797952
 20
-9.0379252992
 10
-2.5424954537
 20
-9.0451945556
 10
-2.5388519407
 20
-9.0524499619
 10
-2.5350527129
 20
-9.0596768509
 10
-2.5311012267
 20
-9.0668605552
 10
-2.5270009387
 20
-9.0739864077
 10
-2.5227561161
 20
-9.0810407726
 10
-2.5183742685
 20
-9.0880141402
 10
-2.5138637161
 20
-9.0948980322
 10
-2.5092327789
 20
-9.1016839704
 10
-2.5044897771
 20
-9.1083634764
 10
-2.5004557217
 20
-9.1138446285
 10
-2.4963427268
 20
-9.1192549721
 10
-2.4921438974
 20
-9.1246034976
 10
-2.4878563689
 20
-9.1298941916
 10
-2.4834933968
 20
-9.1351110256
 10
-2.4790722666
 20
-9.1402329673
 10
-2.4737113854
 20
-9.1462292785
 10
-2.4683029501
 20
-9.1520514282
 10
-2.462858263
 20
-9.1576921862
 10
-2.4573886264
 20
-9.1631443222
 10
-2.4519053424
 20
-9.1684006062
 10
-2.4464180838
 20
-9.1734553191
 10
-2.4409300049
 20
-9.1783087879
 10
-2.4354426304
 20
-9.1829628508
 10
-2.4299574852
 20
-9.187419346
 10
-2.4244760941
 20
-9.1916801116
 10
-2.4189973861
 20
-9.1957474243
 10
-2.4135099077
 20
-9.1996253133
 10
-2.4079996099
 20
-9.2033182465
 10
-2.4024524433
 20
-9.2068306914
 10
-2.3968543587
 20
-9.2101671158
  0
LWPOLYLINE
  5
270
100
AcDbEntity
  8
0
100
AcDbPolyline
 62
253
  6
CONTINUOUS
 90
53
 70
0
 10
-2.2295098206
 20
-8.6827831563
 10
-2.2297276194
 20
-8.6765019039
 10
-2.2301165058
 20
-8.6701798198
 10
-2.2306741062
 20
-8.6638029267
 10
-2.2313980474
 20
-8.6573572473
 10
-2.2322859562
 20
-8.6508288042
 10
-2.2333360888
 20
-8.6442064063
 10
-2.2345492204
 20
-8.6374900072
 10
-2.2359267555
 20
-8.6306823464
 10
-2.2374700991
 20
-8.6237861638
 10
-2.2391806558
 20
-8.616804199
 10
-2.2410595652
 20
-8.60974029
 10
-2.2431069069
 20
-8.6026026681
 10
-2.2453224952
 20
-8.5954006629
 10
-2.2477061444
 20
-8.588143604
 10
-2.250257669
 20
-8.5808408209
 10
-2.2525109829
 20
-8.5747290701
 10
-2.2548742753
 20
-8.5686100388
 10
-2.2573410737
 20
-8.5625017207
 10
-2.2599069036
 20
-8.556417441
 10
-2.2625752821
 20
-8.5503518515
 10
-2.2653517247
 20
-8.5442949359
 10
-2.2688317155
 20
-8.5370293285
 10
-2.2724718871
 20
-8.5297765502
 10
-2.2762688662
 20
-8.522551363
 10
-2.2802192791
 20
-8.5153685294
 10
-2.2843197525
 20
-8.5082428116
 10
-2.2885661087
 20
-8.5011879003
 10
-2.2929509535
 20
-8.4942131994
 10
-2.2974660887
 20
-8.4873270415
 10
-2.302103316
 20
-8.4805377588
 10
-2.3068544371
 20
-8.4738536838
 10
-2.3108967219
 20
-8.4683677111
 10
-2.3150192404
 20
-8.4629516765
 10
-2.3192288264
 20
-8.4575966706
 10
-2.3235282801
 20
-8.4522987822
 10
-2.3279042666
 20
-8.447074092
 10
-2.3323394171
 20
-8.4419436786
 10
-2.3377183478
 20
-8.435936444
 10
-2.3431461035
 20
-8.4301025699
 10
-2.3486113241
 20
-8.4244493049
 10
-2.3541026495
 20
-8.4189838976
 10
-2.3596087195
 20
-8.4137135968
 10
-2.3651198026
 20
-8.4086441478
 10
-2.3706326811
 20
-8.4037752833
 10
-2.376145766
 20
-8.3991052325
 10
-2.381657468
 20
-8.3946322249
 10
-2.3871661982
 20
-8.3903544899
 10
-2.3926729985
 20
-8.386269807
 10
-2.3981894349
 20
-8.3823741567
 10
-2.4037297046
 20
-8.3786630696
 10
-2.4093080047
 20
-8.3751320764
 10
-2.4149385323
 20
-8.3717767078
  0
LINE
  5
271
100
AcDbEntity
  8
0
100
AcDbLine
 62
7
  6
CONTINUOUS
 10
-4.0813533263
 20
22.7756393969
 11
-4.0601497123
 21
22.1592156013
  0
LINE
  5
272
100
AcDbEntity
  8
0
100
AcDbLine
 62
253
  6
CONTINUOUS
 10
-2.5129593411
 20
-11.5692036941
 11
-2.5252373525
 21
-11.1454249428
  0
LINE
  5
273
100
AcDbEntity
  8
0
100
AcDbLine
 62
253
  6
CONTINUOUS
 10
-2.1635946382
 20
-11.3542469402
 11
-2.1513165359
 21
-11.778025639
  0
LINE
  5
274
100
AcDbEntity
  8
0
100
AcDbLine
 62
253
  6
CONTINUOUS
 10
-2.5911520468
 20
-8.4739608771
 11
-2.5819790698
 21
-8.8992732071
  0
LINE
  5
275
100
AcDbEntity
  8
0
100
AcDbLine
 62
253
  6
CONTINUOUS
 10
-2.2203367757
 20
-9.108095447
 11
-2.2295098206
 21
-8.6827831563
  0
LWPOLYLINE
  5
276
100
AcDbEntity
  8
0
100
AcDbPolyline
 62
253
  6
CONTINUOUS
 90
53
 70
0
 10
-2.1513165359
 20
-11.778025639
 10
-2.1512204131
 20
-11.7841634275
 10
-2.1512978475
 20
-11.7901444357
 10
-2.1515457055
 20
-11.7959856567
 10
-2.1519608532
 20
-11.8017040836
 10
-2.1525401569
 20
-11.8073167095
 10
-2.1532812684
 20
-11.8128369487
 10
-2.154184982
 20
-11.818263901
 10
-2.1552528774
 20
-11.823593087
 10
-2.1564865342
 20
-11.8288200277
 10
-2.1578875324
 20
-11.8339402438
 10
-2.1594572396
 20
-11.8389484592
 10
-2.1611961767
 20
-11.8438362088
 10
-2.1631046524
 20
-11.8485942307
 10
-2.1651829756
 20
-11.8532132628
 10
-2.1674314551
 20
-11.857684043
 10
-2.169434419
 20
-11.8612888619
 10
-2.1715501063
 20
-11.8647735286
 10
-2.1737728618
 20
-11.8681272755
 10
-2.1760988382
 20
-11.8713417523
 10
-2.1785314191
 20
-11.8744182787
 10
-2.181075796
 20
-11.8773605916
 10
-2.1842819874
 20
-11.8807165107
 10
-2.1876539647
 20
-11.8838732633
 10
-2.1911890522
 20
-11.8868195693
 10
-2.1948845739
 20
-11.8895441485
 10
-2.1987378539
 20
-11.8920357207
 10
-2.2027453402
 20
-11.8942850474
 10
-2.2068999755
 20
-11.8962910572
 10
-2.2111938267
 20
-11.8980547203
 10
-2.2156189604
 20
-11.8995770071
 10
-2.2201674432
 20
-11.9008588879
 10
-2.2240482075
 20
-11.9017442673
 10
-2.228015693
 20
-11.9024644667
 10
-2.2320764711
 20
-11.9030205812
 10
-2.236233212
 20
-11.9034133095
 10
-2.2404729816
 20
-11.9036417666
 10
-2.2447789448
 20
-11.9037046713
 10
-2.2500127291
 20
-11.9035611686
 10
-2.2553062416
 20
-11.9031832785
 10
-2.2606481343
 20
-11.9025768535
 10
-2.2660270594
 20
-11.9017477464
 10
-2.2714316692
 20
-11.9007018098
 10
-2.2768522163
 20
-11.8994445325
 10
-2.282285355
 20
-11.8979799479
 10
-2.2877293399
 20
-11.8963117253
 10
-2.2931824256
 20
-11.8944435342
 10
-2.298642867
 20
-11.8923790441
 10
-2.304111617
 20
-11.8901193036
 10
-2.3096004217
 20
-11.8876548783
 10
-2.3151237259
 20
-11.8849737131
 10
-2.3206959741
 20
-11.8820637529
 10
-2.3263316108
 20
-11.8789129426
  0
LWPOLYLINE
  5
277
100
AcDbEntity
  8
0
100
AcDbPolyline
 62
253
  6
CONTINUOUS
 90
53
 70
0
 10
-2.5252373525
 20
-11.1454249428
 10
-2.5253263938
 20
-11.1392729841
 10
-2.5252416149
 20
-11.1332789025
 10
-2.524986169
 20
-11.1274257309
 10
-2.5245632093
 20
-11.121696502
 10
-2.5239758893
 20
-11.1160742486
 10
-2.5232265744
 20
-11.1105455605
 10
-2.5223144795
 20
-11.1051112551
 10
-2.5212380317
 20
-11.099775707
 10
-2.5199956579
 20
-11.0945432907
 10
-2.5185857854
 20
-11.0894183806
 10
-2.5170070606
 20
-11.0844061735
 10
-2.5152590084
 20
-11.0795151549
 10
-2.5133413731
 20
-11.0747546328
 10
-2.5112538989
 20
-11.070133915
 10
-2.50899633
 20
-11.0656623094
 10
-2.5069858984
 20
-11.0620574994
 10
-2.5048629813
 20
-11.0585735359
 10
-2.5026333921
 20
-11.0552212515
 10
-2.5003011135
 20
-11.0520090332
 10
-2.4978628059
 20
-11.0489354852
 10
-2.495313299
 20
-11.0459967664
 10
-2.4921017803
 20
-11.0426458166
 10
-2.4887254694
 20
-11.0394945335
 10
-2.4851871465
 20
-11.036553961
 10
-2.4814895917
 20
-11.0338351432
 10
-2.4776355851
 20
-11.0313491244
 10
-2.4736287857
 20
-11.0291049322
 10
-2.4694763681
 20
-11.0271035293
 10
-2.4651863858
 20
-11.0253438623
 10
-2.4607668923
 20
-11.0238248774
 10
-2.4562259412
 20
-11.0225455211
 10
-2.4523529628
 20
-11.0216615938
 10
-2.4483945966
 20
-11.0209422147
 10
-2.444344208
 20
-11.0203862549
 10
-2.4401990611
 20
-11.019992986
 10
-2.4359720173
 20
-11.0197632812
 10
-2.4316798367
 20
-11.0196984142
 10
-2.4264638931
 20
-11.0198386119
 10
-2.4211895797
 20
-11.0202121645
 10
-2.4158681891
 20
-11.0208132264
 10
-2.4105110135
 20
-11.0216359519
 10
-2.4051293454
 20
-11.0226744954
 10
-2.3997328738
 20
-11.0239233755
 10
-2.3943248751
 20
-11.0253785667
 10
-2.3889070223
 20
-11.0270364079
 10
-2.3834809885
 20
-11.0288932378
 10
-2.3780484468
 20
-11.0309453952
 10
-2.3726084115
 20
-11.0331918096
 10
-2.367149263
 20
-11.0356417741
 10
-2.3616567227
 20
-11.0383071722
 10
-2.3561165122
 20
-11.0411998877
 10
-2.3505143533
 20
-11.0443318044
  0
LWPOLYLINE
  5
278
100
AcDbEntity
  8
0
100
AcDbPolyline
 62
253
  6
CONTINUOUS
 90
52
 70
0
 10
-2.7681828753
 20
-9.8999213236
 10
-2.7683371412
 20
-9.886198922
 10
-2.7680996761
 20
-9.8727319943
 10
-2.7674695084
 20
-9.8595129542
 10
-2.7664456668
 20
-9.8465342151
 10
-2.7650271796
 20
-9.8337881907
 10
-2.7632130753
 20
-9.8212672945
 10
-2.7610023825
 20
-9.8089639401
 10
-2.7583941297
 20
-9.796870541
 10
-2.7557407797
 20
-9.7862949907
 10
-2.7527696774
 20
-9.77589808
 10
-2.7494779595
 20
-9.7656985519
 10
-2.7458627628
 20
-9.7557151495
 10
-2.7419212239
 20
-9.745966616
 10
-2.7376504798
 20
-9.7364716943
 10
-2.7330476671
 20
-9.7272491278
 10
-2.7281099226
 20
-9.7183176593
 10
-2.7228343831
 20
-9.7096960321
 10
-2.7172198236
 20
-9.7014029231
 10
-2.7112715721
 20
-9.6934567444
 10
-2.7049965947
 20
-9.6858758422
 10
-2.6984018578
 20
-9.6786785625
 10
-2.6914943275
 20
-9.6718832514
 10
-2.68428097
 20
-9.665508255
 10
-2.6767687516
 20
-9.6595719192
 10
-2.6689646385
 20
-9.6540925902
 10
-2.6608755969
 20
-9.649088614
 10
-2.6525099998
 20
-9.6445742195
 10
-2.643881847
 20
-9.6405471671
 10
-2.6350065448
 20
-9.6370010997
 10
-2.6258995
 20
-9.6339296605
 10
-2.6165761189
 20
-9.6313264926
 10
-2.6070518081
 20
-9.6291852391
 10
-2.5973419741
 20
-9.627499543
 10
-2.5874620233
 20
-9.6262630476
 10
-2.5774273624
 20
-9.6254693958
 10
-2.5659716148
 20
-9.6250980692
 10
-2.5543554378
 20
-9.6252707803
 10
-2.5425947082
 20
-9.6259791385
 10
-2.5307053028
 20
-9.627214753
 10
-2.5187060632
 20
-9.6289679745
 10
-2.5066276895
 20
-9.6312241199
 10
-2.4945038465
 20
-9.6339672476
 10
-2.4823681991
 20
-9.6371814162
 10
-2.4702493079
 20
-9.6408515768
 10
-2.4581553171
 20
-9.6449662525
 10
-2.4460892666
 20
-9.6495148588
 10
-2.4340541963
 20
-9.6544868115
 10
-2.4220471719
 20
-9.6598770757
 10
-2.4100413619
 20
-9.6657028135
 10
-2.3980039603
 20
-9.6719867362
 10
-2.3859021613
 20
-9.6787515554
  0
LWPOLYLINE
  5
279
100
AcDbEntity
  8
0
100
AcDbPolyline
 62
253
  6
CONTINUOUS
 90
55
 70
0
 10
-2.617078708
 20
6.5129290816
 10
-2.6171118325
 20
6.5065123634
 10
-2.6169723034
 20
6.500055609
 10
-2.6166630633
 20
6.4935444297
 10
-2.6161870548
 20
6.4869644365
 10
-2.6155472207
 20
6.4803012406
 10
-2.614745749
 20
6.4735433242
 10
-2.6137818097
 20
6.4666906533
 10
-2.6126538183
 20
6.4597460649
 10
-2.6113601902
 20
6.4527123958
 10
-2.6098993408
 20
6.4455924832
 10
-2.6082699079
 20
6.4383902778
 10
-2.6064714189
 20
6.4311141857
 10
-2.6045036233
 20
6.4237737269
 10
-2.602366271
 20
6.4163784213
 10
-2.6000591115
 20
6.408937789
 10
-2.5980075874
 20
6.4027116531
 10
-2.5958438418
 20
6.3964790458
 10
-2.593573749
 20
6.3902583614
 10
-2.5912012882
 20
6.3840631582
 10
-2.5887228598
 20
6.377887649
 10
-2.5861329694
 20
6.3717212102
 10
-2.58342733
 20
6.3655565032
 10
-2.580606484
 20
6.3593993294
 10
-2.5776721814
 20
6.3532587748
 10
-2.5746261722
 20
6.3471439255
 10
-2.5714702062
 20
6.3410638678
 10
-2.5682060334
 20
6.3350276878
 10
-2.5648359245
 20
6.3290438121
 10
-2.5613642334
 20
6.3231180288
 10
-2.5577958347
 20
6.3172554668
 10
-2.5541356033
 20
6.3114612548
 10
-2.5503884138
 20
6.3057405213
 10
-2.5465591408
 20
6.3000983951
 10
-2.5426506958
 20
6.294537565
 10
-2.5386581363
 20
6.2890509604
 10
-2.5345745566
 20
6.2836290709
 10
-2.5303970438
 20
6.2782675577
 10
-2.5261386565
 20
6.272982769
 10
-2.521816446
 20
6.2677962247
 10
-2.5165665497
 20
6.2617273592
 10
-2.5112607348
 20
6.2558381711
 10
-2.5059104341
 20
6.2501358774
 10
-2.5005270804
 20
6.2446276947
 10
-2.4951221067
 20
6.23932084
 10
-2.489705312
 20
6.2342209832
 10
-2.4842799613
 20
6.2293276068
 10
-2.4788476858
 20
6.2246386463
 10
-2.4734101166
 20
6.2201520373
 10
-2.4679688851
 20
6.2158657153
 10
-2.4625229609
 20
6.2117771971
 10
-2.4570606675
 20
6.2078823236
 10
-2.4515676668
 20
6.2041765169
 10
-2.446029621
 20
6.2006551991
 10
-2.4404321918
 20
6.1973137922
  0
LWPOLYLINE
  5
27A
100
AcDbEntity
  8
0
100
AcDbPolyline
 62
253
  6
CONTINUOUS
 90
53
 70
0
 10
-2.2378384184
 20
7.1889074051
 10
-2.2377914202
 20
7.195347459
 10
-2.2379192164
 20
7.2018268569
 10
-2.2382186333
 20
7.2083596981
 10
-2.2386864975
 20
7.2149600815
 10
-2.2393196352
 20
7.2216421062
 10
-2.2401156458
 20
7.2284170625
 10
-2.2410752188
 20
7.2352850053
 10
-2.242199817
 20
7.2422431807
 10
-2.2434909027
 20
7.2492888348
 10
-2.2449499385
 20
7.2564192135
 10
-2.2465781528
 20
7.2636304092
 10
-2.2483758386
 20
7.2709138989
 10
-2.2503430545
 20
7.2782600058
 10
-2.2524798594
 20
7.2856590533
 10
-2.2547863121
 20
7.2931013644
 10
-2.2568369871
 20
7.299327218
 10
-2.2589995272
 20
7.3055579574
 10
-2.2612679458
 20
7.3117751439
 10
-2.263638053
 20
7.3179650086
 10
-2.2661128461
 20
7.32413246
 10
-2.2686971193
 20
7.3302870761
 10
-2.2719476934
 20
7.3376640528
 10
-2.2753602018
 20
7.3450222549
 10
-2.278932024
 20
7.3523475982
 10
-2.2826605397
 20
7.3596259985
 10
-2.2865431283
 20
7.3668433718
 10
-2.2905763339
 20
7.3739866385
 10
-2.2947533576
 20
7.3810467381
 10
-2.2990665652
 20
7.3880156145
 10
-2.3035083223
 20
7.3948852118
 10
-2.3080709946
 20
7.4016474741
 10
-2.3119618486
 20
7.407197064
 10
-2.3159375668
 20
7.412674911
 10
-2.3200043464
 20
7.4180894052
 10
-2.3241646535
 20
7.4234441128
 10
-2.3284060314
 20
7.4287233064
 10
-2.3327122929
 20
7.4339064348
 10
-2.3379455251
 20
7.4399751702
 10
-2.3432380921
 20
7.4458688049
 10
-2.3485792066
 20
7.4515801654
 10
-2.3539580811
 20
7.4571020781
 10
-2.359363928
 20
7.4624273695
 10
-2.3647874404
 20
7.4675502696
 10
-2.370225233
 20
7.472470621
 10
-2.3756754011
 20
7.47718967
 10
-2.3811360399
 20
7.4817086628
 10
-2.3866052445
 20
7.4860288454
 10
-2.3920837924
 20
7.4901519151
 10
-2.3975831905
 20
7.4940813729
 10
-2.4031176278
 20
7.4978211712
 10
-2.4087012934
 20
7.5013752621
 10
-2.4143483763
 20
7.5047475978
  0
LINE
  5
27B
100
AcDbEntity
  8
0
100
AcDbLine
 62
253
  6
CONTINUOUS
 10
-2.599428216
 20
7.3977599559
 11
-2.617078708
 21
6.5129290816
  0
LINE
  5
27C
100
AcDbEntity
  8
0
100
AcDbLine
 62
253
  6
CONTINUOUS
 10
-2.255489585
 20
6.3040761413
 11
-2.2378384184
 21
7.1889074051
  0
LINE
  5
27D
100
AcDbEntity
  8
0
100
AcDbLine
 62
253
  6
CONTINUOUS
 10
-2.5317371415
 20
10.1506868066
 11
-2.5057381623
 21
11.0408564514
  0
LINE
  5
27E
100
AcDbEntity
  8
0
100
AcDbLine
 62
253
  6
CONTINUOUS
 10
-2.1441447822
 20
10.832005969
 11
-2.1701447558
 21
9.9418357501
  0
LWPOLYLINE
  5
27F
100
AcDbEntity
  8
0
100
AcDbPolyline
 62
253
  6
CONTINUOUS
 90
57
 70
0
 10
-2.9604271968
 20
9.0013229253
 10
-2.9597869375
 20
9.0187566655
 10
-2.9587305011
 20
9.0359187269
 10
-2.9572587886
 20
9.0528443106
 10
-2.9553727012
 20
9.0695686177
 10
-2.9530719272
 20
9.0861197162
 10
-2.9503513042
 20
9.1024971413
 10
-2.947204457
 20
9.1186932947
 10
-2.9436250103
 20
9.1347005783
 10
-2.9396080427
 20
9.1505072304
 10
-2.9351544473
 20
9.1660848349
 10
-2.9302665707
 20
9.1814008122
 10
-2.9249467599
 20
9.1964225826
 10
-2.9191967182
 20
9.2111203922
 10
-2.9130155753
 20
9.2254757909
 10
-2.9064018176
 20
9.239473154
 10
-2.8993539315
 20
9.2530968572
 10
-2.8918715237
 20
9.266329676
 10
-2.8839586834
 20
9.2791479862
 10
-2.8756206199
 20
9.2915265639
 10
-2.8668625429
 20
9.3034401847
 10
-2.857687283
 20
9.3148657329
 10
-2.8480881562
 20
9.3257885249
 10
-2.8380560998
 20
9.3361959852
 10
-2.8275820508
 20
9.3460755386
 10
-2.8166613692
 20
9.3554106323
 10
-2.805307105
 20
9.3641688046
 10
-2.7935367312
 20
9.3723136166
 10
-2.7813677204
 20
9.3798086292
 10
-2.768822119
 20
9.3866238781
 10
-2.7559402676
 20
9.3927552975
 10
-2.7427670804
 20
9.3982052963
 10
-2.7293474713
 20
9.4029762833
 10
-2.7157189805
 20
9.4070732539
 10
-2.7018896515
 20
9.4105115491
 10
-2.6878601538
 20
9.4133090965
 10
-2.6736311568
 20
9.4154838235
 10
-2.6592051327
 20
9.417051524
 10
-2.6445917644
 20
9.4180194569
 10
-2.6298025377
 20
9.4183927477
 10
-2.6148489382
 20
9.4181765217
 10
-2.599744337
 20
9.4173762346
 10
-2.5845096466
 20
9.4159986642
 10
-2.5691676647
 20
9.414050919
 10
-2.5537411893
 20
9.4115401073
 10
-2.5382548792
 20
9.4084750214
 10
-2.5227408373
 20
9.4048711903
 10
-2.5072330277
 20
9.4007458269
 10
-2.4917654144
 20
9.3961161442
 10
-2.4763662362
 20
9.3909979675
 10
-2.4610408304
 20
9.3854015717
 10
-2.4457888093
 20
9.3793358438
 10
-2.430609785
 20
9.372809671
 10
-2.4154986817
 20
9.365827322
 10
-2.4004316718
 20
9.3583745913
 10
-2.3853802396
 20
9.350432655
 10
-2.3703158696
 20
9.3419826891
  0
LWPOLYLINE
  5
280
100
AcDbEntity
  8
0
100
AcDbPolyline
 62
253
  6
CONTINUOUS
 90
57
 70
0
 10
-1.810682767
 20
8.3372413106
 10
-1.8113269926
 20
8.319779154
 10
-1.81239314
 20
8.3025971935
 10
-1.8138795909
 20
8.2856601445
 10
-1.8157847274
 20
8.2689327225
 10
-1.8181080545
 20
8.2523869001
 10
-1.8208535707
 20
8.2360236784
 10
-1.824026398
 20
8.219851316
 10
-1.8276316582
 20
8.203878071
 10
-1.831673194
 20
8.1881157384
 10
-1.8361497307
 20
8.1725902586
 10
-1.8410587145
 20
8.1573311085
 10
-1.8463975916
 20
8.1423677651
 10
-1.8521644628
 20
8.1277272346
 10
-1.8583600477
 20
8.1134266406
 10
-1.8649857203
 20
8.0994806362
 10
-1.8720428549
 20
8.0859038743
 10
-1.8795317595
 20
8.0727126019
 10
-1.8874484774
 20
8.0599294431
 10
-1.895787986
 20
8.0475786159
 10
-1.9045452626
 20
8.0356843383
 10
-1.913717622
 20
8.0242688276
 10
-1.9233117288
 20
8.0133462983
 10
-1.933336585
 20
8.002928964
 10
-1.9438011928
 20
7.9930290383
 10
-1.9547102823
 20
7.9836627033
 10
-1.9660514966
 20
7.9748620138
 10
-1.9778082069
 20
7.9666629932
 10
-1.9899637842
 20
7.9591016646
 10
-2.0024977389
 20
7.952207869
 10
-2.0153741379
 20
7.9459867173
 10
-2.0285531873
 20
7.940437138
 10
-2.0419950934
 20
7.9355580597
 10
-2.0556659722
 20
7.9313461146
 10
-2.0695555798
 20
7.9277887491
 10
-2.0836595821
 20
7.9248711132
 10
-2.0979736454
 20
7.922578357
 10
-2.1124923018
 20
7.9208973797
 10
-2.1272055493
 20
7.9198220766
 10
-2.1421022519
 20
7.9193480926
 10
-2.1571712739
 20
7.9194710723
 10
-2.1723992489
 20
7.9201863378
 10
-2.1877638883
 20
7.9214879212
 10
-2.203240673
 20
7.9233695319
 10
-2.2188050841
 20
7.9258248797
 10
-2.2344304484
 20
7.9288456419
 10
-2.2500814773
 20
7.9324153673
 10
-2.2657207282
 20
7.9365155728
 10
-2.2813107582
 20
7.9411277753
 10
-2.2968207387
 20
7.9462350813
 10
-2.3122462966
 20
7.9518269576
 10
-2.3275896726
 20
7.9578944609
 10
-2.3428531077
 20
7.9644286476
 10
-2.3580432119
 20
7.9714251875
 10
-2.373184073
 20
7.9788982028
 10
-2.3883041481
 20
7.9868664287
 10
-2.4034318943
 20
7.9953486006
  0
LWPOLYLINE
  5
281
100
AcDbEntity
  8
0
100
AcDbPolyline
 62
253
  6
CONTINUOUS
 90
53
 70
0
 10
-3.3761905447
 20
9.2455823297
 10
-3.3764362015
 20
9.2391962789
 10
-3.3768541602
 20
9.2329741771
 10
-3.3774419551
 20
9.2268984159
 10
-3.3781971206
 20
9.2209513865
 10
-3.3791171907
 20
9.2151154807
 10
-3.3802003375
 20
9.209376749
 10
-3.3814472835
 20
9.2037358793
 10
-3.3828593893
 20
9.1981972184
 10
-3.384438015
 20
9.1927651135
 10
-3.3861845211
 20
9.1874439114
 10
-3.388099976
 20
9.1822388711
 10
-3.3901842806
 20
9.1771588996
 10
-3.3924370437
 20
9.1722138156
 10
-3.3948578744
 20
9.1674134381
 10
-3.3974463816
 20
9.1627675859
 10
-3.3997301323
 20
9.1590221454
 10
-3.4021229709
 20
9.1554023887
 10
-3.404617815
 20
9.1519198716
 10
-3.4072097431
 20
9.1485834777
 10
-3.4099024772
 20
9.1453914011
 10
-3.4127019006
 20
9.1423391637
 10
-3.4162079417
 20
9.1388579641
 10
-3.419871972
 20
9.1355831629
 10
-3.4236898765
 20
9.1325262389
 10
-3.4276575402
 20
9.1296986707
 10
-3.431770848
 20
9.127111937
 10
-3.436024781
 20
9.1247753701
 10
-3.440410704
 20
9.1226897177
 10
-3.444919078
 20
9.1208535811
 10
-3.4495403638
 20
9.1192655616
 10
-3.4542650223
 20
9.1179242605
 10
-3.4582764675
 20
9.1169938158
 10
-3.4623604338
 20
9.1162320219
 10
-3.46652428
 20
9.1156371688
 10
-3.4707713224
 20
9.1152080358
 10
-3.4750887063
 20
9.1149453606
 10
-3.4794595345
 20
9.1148503701
 10
-3.4847543243
 20
9.1149580912
 10
-3.4900907889
 20
9.1153029946
 10
-3.4954579755
 20
9.1158790297
 10
-3.5008449313
 20
9.1166801457
 10
-3.5062407033
 20
9.117700292
 10
-3.5116359172
 20
9.1189337702
 10
-3.5170275119
 20
9.1203762914
 10
-3.5224140047
 20
9.1220239187
 10
-3.527793913
 20
9.1238727156
 10
-3.533165754
 20
9.1259187453
 10
-3.5385305652
 20
9.1281606372
 10
-3.5438994649
 20
9.1306072854
 10
-3.5492860913
 20
9.1332701501
 10
-3.5547040828
 20
9.1361606913
 10
-3.5601670776
 20
9.1392903693
  0
LWPOLYLINE
  5
282
100
AcDbEntity
  8
0
100
AcDbPolyline
 62
253
  6
CONTINUOUS
 90
53
 70
0
 10
-2.1701447558
 20
9.9418357501
 10
-2.1704123709
 20
9.9354880044
 10
-2.1708522074
 20
9.9293011203
 10
-2.1714618217
 20
9.923257737
 10
-2.1722387706
 20
9.9173404936
 10
-2.1731806106
 20
9.911532029
 10
-2.1742855093
 20
9.9058186008
 10
-2.1755540783
 20
9.9002009402
 10
-2.1769875399
 20
9.894683397
 10
-2.1785871164
 20
9.8892703209
 10
-2.1803540304
 20
9.8839660616
 10
-2.182289225
 20
9.878775817
 10
-2.1843925273
 20
9.873708177
 10
-2.186663485
 20
9.86877258
 10
-2.189101646
 20
9.8639784639
 10
-2.1917065582
 20
9.859335267
 10
-2.1940033012
 20
9.8555889753
 10
-2.196408846
 20
9.851965171
 10
-2.1989165091
 20
9.8484749824
 10
-2.2015215731
 20
9.8451270382
 10
-2.2042271862
 20
9.8419199697
 10
-2.2070384625
 20
9.8388499086
 10
-2.2105566516
 20
9.835344156
 10
-2.2142310846
 20
9.832040943
 10
-2.2180584859
 20
9.8289510888
 10
-2.2220355799
 20
9.8260854125
 10
-2.2261590909
 20
9.8234547333
 10
-2.2304250016
 20
9.821067944
 10
-2.2348263282
 20
9.8189262318
 10
-2.2393553453
 20
9.8170288576
 10
-2.2440043275
 20
9.8153750825
 10
-2.2487655493
 20
9.8139641672
 10
-2.2528152174
 20
9.8129732817
 10
-2.2569439028
 20
9.8121494629
 10
-2.2611580435
 20
9.8114916379
 10
-2.2654602174
 20
9.8109991935
 10
-2.2698375614
 20
9.8106733546
 10
-2.2742733521
 20
9.8105158059
 10
-2.2796529188
 20
9.8105499014
 10
-2.2850817558
 20
9.8108235057
 10
-2.2905490513
 20
9.811331364
 10
-2.2960439937
 20
9.8120682218
 10
-2.3015557714
 20
9.8130288242
 10
-2.3070750811
 20
9.8142082314
 10
-2.3125986538
 20
9.815602763
 10
-2.3181247286
 20
9.8172090536
 10
-2.3236515449
 20
9.8190237376
 10
-2.3291773418
 20
9.8210434496
 10
-2.334702971
 20
9.8232674384
 10
-2.3402397328
 20
9.82570541
 10
-2.3458015396
 20
9.8283696847
 10
-2.3514023042
 20
9.8312725829
 10
-2.3570559391
 20
9.834426425
  0
LWPOLYLINE
  5
283
100
AcDbEntity
  8
0
100
AcDbPolyline
 62
253
  6
CONTINUOUS
 90
53
 70
0
 10
-2.5057381623
 20
11.0408564514
 10
-2.5054551207
 20
11.0472412785
 10
-2.5050000768
 20
11.0534648622
 10
-2.5043753421
 20
11.0595446785
 10
-2.5035832282
 20
11.0654982034
 10
-2.5026260464
 20
11.0713429131
 10
-2.5015054979
 20
11.0770926406
 10
-2.5002208422
 20
11.0827466483
 10
-2.4987707281
 20
11.0883005556
 10
-2.4971538048
 20
11.0937499818
 10
-2.4953687212
 20
11.0990905465
 10
-2.4934144145
 20
11.104316985
 10
-2.4912909742
 20
11.1094204959
 10
-2.488998778
 20
11.1143913938
 10
-2.4865382037
 20
11.1192199933
 10
-2.483909629
 20
11.123896609
 10
-2.4815922084
 20
11.1276697306
 10
-2.4791653185
 20
11.131319146
 10
-2.4766358947
 20
11.1348334191
 10
-2.4740087582
 20
11.1382037359
 10
-2.4712802741
 20
11.1414317688
 10
-2.4684446932
 20
11.1445218123
 10
-2.464894836
 20
11.1480506247
 10
-2.4611863613
 20
11.1513754964
 10
-2.4573231496
 20
11.1544850076
 10
-2.4533090815
 20
11.1573677384
 10
-2.4491480375
 20
11.1600122691
 10
-2.4448447165
 20
11.1624092596
 10
-2.4404070907
 20
11.1645576887
 10
-2.4358439504
 20
11.1664586149
 10
-2.431164086
 20
11.1681130966
 10
-2.4263762879
 20
11.1695221922
 10
-2.4223082991
 20
11.170509892
 10
-2.4181642501
 20
11.1713293565
 10
-2.4139369302
 20
11.1719820224
 10
-2.4096232372
 20
11.172468817
 10
-2.4052365036
 20
11.1727886304
 10
-2.4007941704
 20
11.1729398433
 10
-2.3954113996
 20
11.1728979152
 10
-2.389984999
 20
11.1726167656
 10
-2.3845262873
 20
11.172102289
 10
-2.3790465827
 20
11.1713603804
 10
-2.373557204
 20
11.1703969342
 10
-2.3680678155
 20
11.1692174991
 10
-2.3625814653
 20
11.1678262385
 10
-2.3570995474
 20
11.1662269699
 10
-2.3516234559
 20
11.1644235105
 10
-2.3461545848
 20
11.1624196777
 10
-2.3406917856
 20
11.1602167054
 10
-2.3352237397
 20
11.1578054932
 10
-2.3297365857
 20
11.1551743574
 10
-2.3242164624
 20
11.1523116143
 10
-2.3186495086
 20
11.1492055802
  0
LINE
  5
284
100
AcDbEntity
  8
0
100
AcDbLine
 62
7
  6
CONTINUOUS
 10
3.838242623
 20
18.2029639516
 11
3.6580079747
 21
17.7887819422
  0
LWPOLYLINE
  5
285
100
AcDbEntity
  8
0
100
AcDbPolyline
 62
253
  6
CONTINUOUS
 90
10
 70
0
 10
5.2000109646
 20
-5.4965124392
 10
3.4383477731
 20
-4.6245221143
 10
1.7068087733
 20
-3.7336342646
 10
0.0057325458
 20
-2.8240397428
 10
-1.6644451272
 20
-1.8959896246
 10
-3.3034961565
 20
-0.94962213
 10
-4.9113883793
 20
0.0150441795
 10
-6.487882346
 20
0.9978775894
 10
-8.0325430911
 20
1.9986264325
 10
-9.5450398976
 20
3.0170951335
  0
LWPOLYLINE
  5
286
100
AcDbEntity
  8
0
100
AcDbPolyline
 62
253
  6
CONTINUOUS
 90
10
 70
0
 10
5.5190197303
 20
-4.8686359727
 10
3.7640109715
 20
-3.99984463
 10
2.0396704523
 20
-3.11262856
 10
0.3459981727
 20
-2.2069877628
 10
-1.3172395713
 20
-1.2827872928
 10
-2.9498090758
 20
-0.3401620955
 10
-4.5510092282
 20
0.6204829924
 10
-6.1206063245
 20
1.5990130255
 10
-7.6588340688
 20
2.5955629493
 10
-9.1656924611
 20
3.6101327638
  0
LWPOLYLINE
  5
287
100
AcDbEntity
  8
0
100
AcDbPolyline
 62
7
  6
CONTINUOUS
 90
13
 70
0
 10
-9.4450602736
 20
4.0112326112
 10
-8.3585725505
 20
3.2775672074
 10
-7.2011446204
 20
2.5176224
 10
-6.0250325364
 20
1.7672039273
 10
-4.8305025348
 20
1.0265010217
 10
-3.6178032836
 20
0.2956858433
 10
-2.3871541045
 20
-0.4251119853
 10
-1.1387912194
 20
-1.1357586574
 10
0.1270492314
 20
-1.836120286
 10
1.4101383657
 20
-2.5260726385
 10
2.7101733154
 20
-3.2054743741
 10
4.0268216673
 20
-3.8741741253
 10
5.3031546396
 20
-4.504470268
  0
LINE
  5
288
100
AcDbEntity
  8
0
100
AcDbLine
 62
7
  6
CONTINUOUS
 10
-9.4450531343
 20
4.0112277408
 11
-9.444985536
 21
4.011181439
  0
LWPOLYLINE
  5
289
100
AcDbEntity
  8
0
100
AcDbPolyline
 62
7
  6
CONTINUOUS
 90
6
 70
0
 10
-9.444985536
 20
4.011181439
 10
-9.456745707
 20
4.0194804368
 10
-9.4899512026
 20
4.045860581
 10
-9.5208261252
 20
4.0749847322
 10
-9.549138737
 20
4.1066456312
 10
-9.5746975701
 20
4.1406468018
  0
LWPOLYLINE
  5
28A
100
AcDbEntity
  8
0
100
AcDbPolyline
 62
253
  6
CONTINUOUS
 90
9
 70
0
 10
-9.545040106
 20
3.0170951923
 10
-9.5745155401
 20
3.0394306741
 10
-9.6000961019
 20
3.0633193823
 10
-9.6215399097
 20
3.0885354328
 10
-9.6386441956
 20
3.1148403868
 10
-9.6512472302
 20
3.1419855168
 10
-9.6592298459
 20
3.1697141599
 10
-9.6625165557
 20
3.1977641364
 10
-9.6626067741
 20
3.2030431929
  0
LWPOLYLINE
  5
28B
100
AcDbEntity
  8
0
100
AcDbPolyline
 62
253
  6
CONTINUOUS
 90
52
 70
0
 10
-1.97971939
 20
-10.3552025078
 10
-1.979566853
 20
-10.3688983067
 10
-1.9798080813
 20
-10.3823405957
 10
-1.9804439847
 20
-10.3955368968
 10
-1.9814754732
 20
-10.4084947319
 10
-1.9829034564
 20
-10.4212216231
 10
-1.9847288443
 20
-10.4337250923
 10
-1.9869525467
 20
-10.4460126614
 10
-1.9895754734
 20
-10.4580918525
 10
-1.9922432142
 20
-10.4686560684
 10
-1.9952299307
 20
-10.479042932
 10
-1.9985384433
 20
-10.4892337922
 10
-2.0021715722
 20
-10.4992099979
 10
-2.006132138
 20
-10.5089528978
 10
-2.0104229608
 20
-10.518443841
 10
-2.0150468611
 20
-10.5276641762
 10
-2.0200066591
 20
-10.5365952523
 10
-2.0253051753
 20
-10.5452184181
 10
-2.0309435955
 20
-10.5535150555
 10
-2.0369165675
 20
-10.5614666776
 10
-2.0432171045
 20
-10.5690548306
 10
-2.0498382199
 20
-10.5762610608
 10
-2.0567729271
 20
-10.5830669141
 10
-2.0640142393
 20
-10.5894539369
 10
-2.0715551697
 20
-10.5954036752
 10
-2.0793887318
 20
-10.6008976752
 10
-2.0875079388
 20
-10.6059174831
 10
-2.0959043857
 20
-10.6104487414
 10
-2.1045639935
 20
-10.6144934787
 10
-2.113471265
 20
-10.6180578199
 10
-2.122610703
 20
-10.6211478898
 10
-2.1319668102
 20
-10.6237698134
 10
-2.1415240894
 20
-10.6259297157
 10
-2.1512670433
 20
-10.6276337215
 10
-2.1611801747
 20
-10.6288879558
 10
-2.1712479862
 20
-10.6296985435
 10
-2.1827408672
 20
-10.6300877111
 10
-2.1943938228
 20
-10.6299314199
 10
-2.2061907738
 20
-10.6292379498
 10
-2.2181156415
 20
-10.6280155804
 10
-2.2301493665
 20
-10.6262738686
 10
-2.2422609677
 20
-10.6240274804
 10
-2.2544164835
 20
-10.6212923591
 10
-2.2665819524
 20
-10.618084448
 10
-2.278728591
 20
-10.6144187974
 10
-2.2908483279
 20
-10.610306886
 10
-2.30293827
 20
-10.6057592997
 10
-2.3149955242
 20
-10.6007866244
 10
-2.3270231531
 20
-10.5953938891
 10
-2.3390480434
 20
-10.5895638963
 10
-2.3511030374
 20
-10.5832738913
 10
-2.3632209778
 20
-10.5765011198
  0
LWPOLYLINE
  5
28C
100
AcDbEntity
  8
0
100
AcDbPolyline
 62
253
  6
CONTINUOUS
 90
55
 70
0
 10
-0.2498995229
 20
7.4616326403
 10
-0.2501459161
 20
7.4552471694
 10
-0.2505696256
 20
7.4490216532
 10
-0.2511681503
 20
7.442938488
 10
-0.2519389889
 20
7.43698007
 10
-0.2528796405
 20
7.4311287955
 10
-0.2539882649
 20
7.4253707254
 10
-0.255265666
 20
7.4197065795
 10
-0.2567133086
 20
7.4141407422
 10
-0.2583326576
 20
7.408677598
 10
-0.2601251779
 20
7.4033215314
 10
-0.2620920358
 20
7.3980778434
 10
-0.2642332045
 20
7.392955501
 10
-0.2665483585
 20
7.387964388
 10
-0.2690371726
 20
7.383114388
 10
-0.2716993214
 20
7.3784153848
 10
-0.2740487763
 20
7.3746230259
 10
-0.2765111315
 20
7.3709541204
 10
-0.279079142
 20
7.3674203991
 10
-0.2817477918
 20
7.3640308759
 10
-0.2845209809
 20
7.3607836955
 10
-0.2874048385
 20
7.3576742858
 10
-0.2904040678
 20
7.3546999624
 10
-0.2935176686
 20
7.3518655922
 10
-0.2967432147
 20
7.3491779301
 10
-0.30007828
 20
7.3466437311
 10
-0.3035204383
 20
7.3442697498
 10
-0.3070672635
 20
7.3420627413
 10
-0.3107157775
 20
7.3400282117
 10
-0.3144607942
 20
7.3381666734
 10
-0.3182965753
 20
7.3364773901
 10
-0.3222173828
 20
7.3349596253
 10
-0.3262174784
 20
7.3336126428
 10
-0.330291124
 20
7.3324357062
 10
-0.3344348069
 20
7.3314278884
 10
-0.3386539161
 20
7.330587498
 10
-0.3429560657
 20
7.3299126528
 10
-0.3473446841
 20
7.3294020391
 10
-0.3518064547
 20
7.3290566165
 10
-0.3563238747
 20
7.3288779129
 10
-0.3617967388
 20
7.3288842691
 10
-0.3673131694
 20
7.3291270203
 10
-0.3728618017
 20
7.3296002855
 10
-0.3784312709
 20
7.3302981839
 10
-0.3840102122
 20
7.3312148345
 10
-0.3895888932
 20
7.3323446796
 10
-0.3951641105
 20
7.3336834535
 10
-0.4007342933
 20
7.3352272137
 10
-0.4062978706
 20
7.3369720177
 10
-0.4118532716
 20
7.338913923
 10
-0.4174015533
 20
7.3410515177
 10
-0.4229542854
 20
7.3433935124
 10
-0.4285256655
 20
7.3459511485
 10
-0.4341298915
 20
7.3487356672
 10
-0.4397811609
 20
7.35175831
  0
LWPOLYLINE
  5
28D
100
AcDbEntity
  8
0
100
AcDbPolyline
 62
253
  6
CONTINUOUS
 90
55
 70
0
 10
-1.3877878743
 20
8.0970995707
 10
-1.387541911
 20
8.1034641889
 10
-1.3871218745
 20
8.1096692158
 10
-1.38653013
 20
8.1157323234
 10
-1.3857690427
 20
8.1216711839
 10
-1.384840978
 20
8.1275034695
 10
-1.3837476612
 20
8.1332431503
 10
-1.3824882584
 20
8.138889389
 10
-1.3810612959
 20
8.1444376465
 10
-1.3794653
 20
8.1498833835
 10
-1.3776987972
 20
8.1552220608
 10
-1.3757605943
 20
8.1604482611
 10
-1.3736506217
 20
8.1655530544
 10
-1.3713690903
 20
8.1705266327
 10
-1.3689162109
 20
8.175359188
 10
-1.3662921945
 20
8.1800409122
 10
-1.3639760714
 20
8.1838190677
 10
-1.3615481793
 20
8.1874740694
 10
-1.3590154478
 20
8.1909943186
 10
-1.3563826187
 20
8.1943708932
 10
-1.3536456815
 20
8.1976055791
 10
-1.3507984377
 20
8.2007028388
 10
-1.3478361137
 20
8.2036652253
 10
-1.3447596357
 20
8.2064876533
 10
-1.3415713546
 20
8.2091631275
 10
-1.3382736215
 20
8.2116846531
 10
-1.3348687874
 20
8.2140452349
 10
-1.3313592032
 20
8.216237878
 10
-1.3277477621
 20
8.2182568765
 10
-1.3240395254
 20
8.2201016821
 10
-1.3202400964
 20
8.2217730356
 10
-1.3163550786
 20
8.2232716779
 10
-1.3123900754
 20
8.2245983498
 10
-1.3083506901
 20
8.2257537923
 10
-1.3042403259
 20
8.2267389318
 10
-1.3000535853
 20
8.2275554374
 10
-1.2957828705
 20
8.228205164
 10
-1.2914247785
 20
8.2286894194
 10
-1.2869926848
 20
8.2290073244
 10
-1.2825041599
 20
8.2291574528
 10
-1.2770650256
 20
8.2291155609
 10
-1.271581368
 20
8.228836116
 10
-1.2660646236
 20
8.2283252174
 10
-1.2605262289
 20
8.2275889641
 10
-1.2549776203
 20
8.2266334555
 10
-1.249428589
 20
8.2254644479
 10
-1.243882344
 20
8.2240863274
 10
-1.2383404492
 20
8.2225031373
 10
-1.2328044683
 20
8.2207189209
 10
-1.2272759652
 20
8.2187377215
 10
-1.2217538633
 20
8.2165610053
 10
-1.2162265263
 20
8.2141799299
 10
-1.2106796772
 20
8.2115830758
 10
-1.2050990395
 20
8.2087590234
 10
-1.1994703363
 20
8.2056963531
  0
LWPOLYLINE
  5
28E
100
AcDbEntity
  8
0
100
AcDbPolyline
 62
253
  6
CONTINUOUS
 90
16
 70
0
 10
5.2000110526
 20
-4.2751442561
 10
5.238677809
 20
-4.2921727836
 10
5.2800245614
 20
-4.3069582909
 10
5.3236603482
 20
-4.3193609709
 10
5.3691725569
 20
-4.3292635462
 10
5.416130845
 20
-4.3365723835
 10
5.4640912114
 20
-4.3412183744
 10
5.5126001812
 20
-4.3431575847
 10
5.5611990468
 20
-4.3423716714
 10
5.6094282274
 20
-4.3388680666
 10
5.6568316612
 20
-4.3326799069
 10
5.7029611406
 20
-4.3238657081
 10
5.747380503
 20
-4.3125088122
 10
5.7896697399
 20
-4.2987166039
 10
5.8294289708
 20
-4.2826194995
 10
5.8662822452
 20
-4.2643697079
  0
LWPOLYLINE
  5
28F
100
AcDbEntity
  8
0
100
AcDbPolyline
 62
7
  6
CONTINUOUS
 90
12
 70
0
 10
5.3033218311
 20
-4.5045517604
 10
5.3152601845
 20
-4.5101676808
 10
5.3598988153
 20
-4.5279165651
 10
5.4061352765
 20
-4.5413237969
 10
5.4536024117
 20
-4.5502438452
 10
5.5018815556
 20
-4.5545495199
 10
5.5505069731
 20
-4.5541513469
 10
5.5990234806
 20
-4.549006789
 10
5.6469813293
 20
-4.539113495
 10
5.693892657
 20
-4.5245212199
 10
5.7392463148
 20
-4.5053469839
 10
5.7590507534
 20
-4.4952502677
  0
LINE
  5
290
100
AcDbEntity
  8
0
100
AcDbLine
 62
7
  6
CONTINUOUS
 10
5.3032035801
 20
-4.5044941563
 11
5.3033218311
 21
-4.5045517604
  0
LWPOLYLINE
  5
291
100
AcDbEntity
  8
0
100
AcDbPolyline
 62
253
  6
CONTINUOUS
 90
10
 70
0
 10
-9.5450399051
 20
4.2384634406
 10
-8.0325440168
 20
3.2226070377
 10
-6.4878839942
 20
2.2238176087
 10
-4.9113905394
 20
1.2422905554
 10
-3.303498603
 20
0.2782774335
 10
-1.6644476207
 20
-0.6680900882
 10
0.0057302591
 20
-1.5967934401
 10
1.7068069606
 20
-2.5076943403
 10
3.4383467154
 20
-3.4005415853
 10
5.2000109557
 20
-4.2751441328
  0
LWPOLYLINE
  5
292
100
AcDbEntity
  8
0
100
AcDbPolyline
 62
253
  6
CONTINUOUS
 90
53
 70
0
 10
-3.7204497937
 20
-8.4747769089
 10
-3.7178164101
 20
-8.4710702198
 10
-3.71505573
 20
-8.4675861308
 10
-3.7121637828
 20
-8.4643121995
 10
-3.709136598
 20
-8.4612359833
 10
-3.705970205
 20
-8.4583450401
 10
-3.7026613314
 20
-8.4556296204
 10
-3.6992094977
 20
-8.4530907471
 10
-3.6956149224
 20
-8.4507321359
 10
-3.6918778241
 20
-8.4485575027
 10
-3.6879984216
 20
-8.4465705634
 10
-3.6839775381
 20
-8.4447753543
 10
-3.6798184163
 20
-8.4431771943
 10
-3.6755249036
 20
-8.4417817225
 10
-3.6711008473
 20
-8.4405945783
 10
-3.6665500948
 20
-8.4396214011
 10
-3.6626653465
 20
-8.4389777362
 10
-3.658706822
 20
-8.4384886429
 10
-3.6546860568
 20
-8.4381561885
 10
-3.6506112903
 20
-8.4379823799
 10
-3.6464775777
 20
-8.4379689821
 10
-3.642276678
 20
-8.4381176996
 10
-3.6371391701
 20
-8.4385128103
 10
-3.6319019774
 20
-8.4391483124
 10
-3.6265740316
 20
-8.4400286969
 10
-3.6211642642
 20
-8.4411584545
 10
-3.6156816071
 20
-8.4425420762
 10
-3.6101351148
 20
-8.4441820737
 10
-3.6045343349
 20
-8.4460730417
 10
-3.5988889378
 20
-8.4482075955
 10
-3.5932085939
 20
-8.4505783508
 10
-3.5875029738
 20
-8.4531779228
 10
-3.5827335632
 20
-8.4555151314
 10
-3.5779445364
 20
-8.4580104513
 10
-3.5731271147
 20
-8.4606682218
 10
-3.5682772207
 20
-8.4634901112
 10
-3.5634095828
 20
-8.4664671061
 10
-3.5585436308
 20
-8.4695875223
 10
-3.5527301433
 20
-8.4735062648
 10
-3.546957073
 20
-8.4776027885
 10
-3.5412344306
 20
-8.4818651732
 10
-3.5355722268
 20
-8.4862814984
 10
-3.5299804723
 20
-8.490839844
 10
-3.5244675244
 20
-8.495529693
 10
-3.5190351259
 20
-8.5003461421
 10
-3.5136833663
 20
-8.5052856912
 10
-3.508412335
 20
-8.5103448403
 10
-3.5032221213
 20
-8.5155200895
 10
-3.4981109814
 20
-8.5208113645
 10
-3.4930698385
 20
-8.5262322937
 10
-3.4880877826
 20
-8.5317999311
 10
-3.4831539036
 20
-8.5375313311
 10
-3.4782572917
 20
-8.5434435475
  0
LWPOLYLINE
  5
293
100
AcDbEntity
  8
0
100
AcDbPolyline
 62
253
  6
CONTINUOUS
 90
3
 70
0
 10
-1.1794193218
 20
6.2094778515
 10
-1.6195408399
 20
6.985232576
 10
-1.707534737
 20
7.1411630013
  0
LWPOLYLINE
  5
294
100
AcDbEntity
  8
0
100
AcDbPolyline
 62
253
  6
CONTINUOUS
 90
53
 70
0
 10
-1.707534737
 20
7.1411630013
 10
-1.7112771022
 20
7.1479608682
 10
-1.7148564032
 20
7.154767991
 10
-1.718284194
 20
7.1616001724
 10
-1.7215720287
 20
7.168473215
 10
-1.7247314615
 20
7.1754029213
 10
-1.7277715738
 20
7.1824019356
 10
-1.7306915566
 20
7.1894702677
 10
-1.7334881285
 20
7.1966047687
 10
-1.7361580078
 20
7.2038022899
 10
-1.7386979129
 20
7.2110596827
 10
-1.7411041333
 20
7.2183725902
 10
-1.7433712424
 20
7.2257318233
 10
-1.7454933846
 20
7.233126985
 10
-1.7474647044
 20
7.2405476782
 10
-1.7492793462
 20
7.2479835058
 10
-1.7506674812
 20
7.2541819255
 10
-1.7519384121
 20
7.2603646384
 10
-1.7530878053
 20
7.2665126478
 10
-1.7541121084
 20
7.2726119163
 10
-1.7550108929
 20
7.278668244
 10
-1.7557845117
 20
7.2846923904
 10
-1.7565470915
 20
7.2918882121
 10
-1.7571243085
 20
7.2990368359
 10
-1.7575105305
 20
7.3061219114
 10
-1.7577001256
 20
7.3131270882
 10
-1.7576874619
 20
7.3200360161
 10
-1.7574686009
 20
7.3268336733
 10
-1.7570463791
 20
7.3335103522
 10
-1.7564253264
 20
7.3400576738
 10
-1.7556099728
 20
7.3464672591
 10
-1.7546048484
 20
7.3527307292
 10
-1.7536248169
 20
7.3578350134
 10
-1.7525143747
 20
7.3628414798
 10
-1.7512717504
 20
7.3677595987
 10
-1.7498964415
 20
7.3725941172
 10
-1.7483930209
 20
7.3773308912
 10
-1.7467673301
 20
7.3819510535
 10
-1.7446629803
 20
7.3873193406
 10
-1.7423989714
 20
7.3924874409
 10
-1.7399833014
 20
7.3974502571
 10
-1.7374239683
 20
7.4022026914
 10
-1.7347289699
 20
7.4067396464
 10
-1.7319054747
 20
7.4110573033
 10
-1.7289573327
 20
7.4151569585
 10
-1.7258875644
 20
7.4190411874
 10
-1.7226991903
 20
7.4227125652
 10
-1.7193952308
 20
7.4261736673
 10
-1.7159761498
 20
7.4294270495
 10
-1.7124321853
 20
7.432475191
 10
-1.7087510187
 20
7.4353205515
 10
-1.7049203311
 20
7.4379655907
 10
-1.700927804
 20
7.4404127684
  0
LINE
  5
295
100
AcDbEntity
  8
0
100
AcDbLine
 62
253
  6
CONTINUOUS
 10
-3.5710111835
 20
11.1412856988
 11
-3.0586817724
 21
10.2001402579
  0
LWPOLYLINE
  5
296
100
AcDbEntity
  8
0
100
AcDbPolyline
 62
253
  6
CONTINUOUS
 90
3
 70
0
 10
-3.3201120617
 20
10.0489341734
 10
-3.7460887807
 20
10.8331280055
 10
-3.8315537183
 20
10.9912546787
  0
LWPOLYLINE
  5
297
100
AcDbEntity
  8
0
100
AcDbPolyline
 62
253
  6
CONTINUOUS
 90
53
 70
0
 10
-3.1072340749
 20
8.2526865252
 10
-3.1035569302
 20
8.24587299
 10
-3.100039798
 20
8.2390510233
 10
-3.0966713246
 20
8.2322047378
 10
-3.0934401561
 20
8.2253182459
 10
-3.0903349386
 20
8.2183756602
 10
-3.0873467521
 20
8.211364283
 10
-3.0844764123
 20
8.2042841748
 10
-3.0817271684
 20
8.1971385859
 10
-3.0791022697
 20
8.1899307666
 10
-3.0766049656
 20
8.182663967
 10
-3.0742389167
 20
8.1753426142
 10
-3.0720094284
 20
8.1679758421
 10
-3.0699222172
 20
8.1605739617
 10
-3.0679829998
 20
8.1531472837
 10
-3.0661974927
 20
8.145706119
 10
-3.0648312704
 20
8.1395036616
 10
-3.0635800195
 20
8.1333171163
 10
-3.0624479983
 20
8.1271652951
 10
-3.0614387057
 20
8.1210620814
 10
-3.0605526031
 20
8.1150016434
 10
-3.0597893923
 20
8.1089732207
 10
-3.0590363659
 20
8.1017720867
 10
-3.0584655326
 20
8.0946181478
 10
-3.0580825504
 20
8.0875279927
 10
-3.0578930773
 20
8.0805182094
 10
-3.0579027712
 20
8.0736053865
 10
-3.0581156173
 20
8.0668047337
 10
-3.058528909
 20
8.0601259462
 10
-3.0591382671
 20
8.0535773408
 10
-3.0599393121
 20
8.0471672341
 10
-3.0609276648
 20
8.0409039428
 10
-3.0618919321
 20
8.0358003079
 10
-3.0629850029
 20
8.0307949584
 10
-3.064208647
 20
8.0258784491
 10
-3.065563376
 20
8.0210460742
 10
-3.0670446674
 20
8.0163120865
 10
-3.0686467403
 20
8.0116954779
 10
-3.0707208612
 20
8.0063326064
 10
-3.0729526413
 20
8.0011711927
 10
-3.0753341385
 20
7.9962163197
 10
-3.077857411
 20
7.9914730706
 10
-3.0805145171
 20
7.9869465285
 10
-3.0832983406
 20
7.9826404899
 10
-3.0862050692
 20
7.9785536053
 10
-3.0892317163
 20
7.9746832386
 10
-3.0923752956
 20
7.9710267537
 10
-3.0956328204
 20
7.9675815146
 10
-3.0990038237
 20
7.9643449297
 10
-3.1024979159
 20
7.9613145865
 10
-3.1061272268
 20
7.9584881169
 10
-3.1099038862
 20
7.9558631527
 10
-3.1138400241
 20
7.953437326
  0
LWPOLYLINE
  5
298
100
AcDbEntity
  8
0
100
AcDbPolyline
 62
253
  6
CONTINUOUS
 90
53
 70
0
 10
-3.0586817724
 20
10.2001402579
 10
-3.0550273064
 20
10.1933147564
 10
-3.0515333488
 20
10.1864804552
 10
-3.0481885938
 20
10.1796214476
 10
-3.0449817356
 20
10.1727218272
 10
-3.0419014682
 20
10.1657656873
 10
-3.0389389107
 20
10.1587403151
 10
-3.0360948811
 20
10.1516457717
 10
-3.0333726223
 20
10.1444853122
 10
-3.0307753772
 20
10.1372621913
 10
-3.0283063888
 20
10.129979664
 10
-3.0259693062
 20
10.1226421629
 10
-3.0237694034
 20
10.1152588316
 10
-3.0217123608
 20
10.1078399913
 10
-3.0198038587
 20
10.1003959635
 10
-3.0180495774
 20
10.0929370693
 10
-3.0167097305
 20
10.0867195596
 10
-3.0154851039
 20
10.0805177381
 10
-3.0143798755
 20
10.0743504493
 10
-3.0133974863
 20
10.0682315978
 10
-3.0125384302
 20
10.0621553283
 10
-3.0118024641
 20
10.0561108456
 10
-3.0110824449
 20
10.0488901082
 10
-3.0105449273
 20
10.041716241
 10
-3.0101955133
 20
10.0346058858
 10
-3.0100398049
 20
10.0275756846
 10
-3.0100834041
 20
10.0206422794
 10
-3.0103302413
 20
10.01382093
 10
-3.0107775603
 20
10.0071213665
 10
-3.0114209334
 20
10.000551937
 10
-3.0122559327
 20
9.9941209895
 10
-3.0132781304
 20
9.987836872
 10
-3.0142704975
 20
9.9827159068
 10
-3.0153916136
 20
9.9776932243
 10
-3.0166433038
 20
9.9727593448
 10
-3.0180261067
 20
9.9679095474
 10
-3.0195354144
 20
9.9631581459
 10
-3.0211653327
 20
9.9585242131
 10
-3.0232725064
 20
9.9531407662
 10
-3.025536875
 20
9.9479590544
 10
-3.0279504416
 20
9.9429841931
 10
-3.0305052097
 20
9.938221298
 10
-3.0331931824
 20
9.9336754846
 10
-3.036007199
 20
9.929350575
 10
-3.0389434421
 20
9.9252452178
 10
-3.0419989306
 20
9.9213567682
 10
-3.045170683
 20
9.9176825816
 10
-3.0484557179
 20
9.914220013
 10
-3.0518535805
 20
9.9109664583
 10
-3.0553739215
 20
9.9079194755
 10
-3.059028918
 20
9.905076663
 10
-3.0628307471
 20
9.9024356194
 10
-3.0667915859
 20
9.8999939432
  0
LWPOLYLINE
  5
299
100
AcDbEntity
  8
0
100
AcDbPolyline
 62
253
  6
CONTINUOUS
 90
53
 70
0
 10
-3.9084882714
 20
7.7902558963
 10
-3.9121440275
 20
7.7971059496
 10
-3.915640674
 20
7.8039628396
 10
-3.9189894627
 20
7.8108424534
 10
-3.9222016452
 20
7.8177606783
 10
-3.9252884732
 20
7.8247334015
 10
-3.9282587944
 20
7.8317733364
 10
-3.9311118407
 20
7.8388805001
 10
-3.9338444402
 20
7.8460517361
 10
-3.936453421
 20
7.8532838877
 10
-3.9389356109
 20
7.8605737981
 10
-3.941287416
 20
7.8679170897
 10
-3.9435035544
 20
7.8753045013
 10
-3.9455783219
 20
7.8827255504
 10
-3.9475060148
 20
7.890169755
 10
-3.9492809289
 20
7.8976266325
 10
-3.9506390484
 20
7.9038406487
 10
-3.9518828829
 20
7.9100371194
 10
-3.9530082051
 20
7.9161969777
 10
-3.9540115543
 20
7.922306123
 10
-3.954892537
 20
7.9283703201
 10
-3.9556515266
 20
7.9344003001
 10
-3.9564007937
 20
7.9416004092
 10
-3.9569694809
 20
7.9487503825
 10
-3.9573521409
 20
7.955833904
 10
-3.9575433261
 20
7.9628346575
 10
-3.9575375891
 20
7.9697363271
 10
-3.9573311228
 20
7.9765239314
 10
-3.956926682
 20
7.9831878286
 10
-3.9563286623
 20
7.9897197116
 10
-3.9555414588
 20
7.9961112732
 10
-3.954569467
 20
8.0023542064
 10
-3.9536207778
 20
8.0074394917
 10
-3.9525451028
 20
8.0124252046
 10
-3.9513407293
 20
8.0173207557
 10
-3.9500071708
 20
8.0221308694
 10
-3.9485488449
 20
8.026841524
 10
-3.9469713957
 20
8.0314340115
 10
-3.9449288265
 20
8.0367672334
 10
-3.9427305962
 20
8.0418983783
 10
-3.9403844539
 20
8.0468224694
 10
-3.9378981488
 20
8.0515345298
 10
-3.9352794302
 20
8.0560295828
 10
-3.9325352445
 20
8.0603039136
 10
-3.9296693281
 20
8.064358856
 10
-3.9266846147
 20
8.0681970059
 10
-3.9235840378
 20
8.071820959
 10
-3.9203705311
 20
8.0752333113
 10
-3.9170445457
 20
8.0784366063
 10
-3.9135966024
 20
8.0814331786
 10
-3.9100147395
 20
8.0842253104
 10
-3.906286995
 20
8.0868152842
 10
-3.9024014073
 20
8.0892053821
  0
LWPOLYLINE
  5
29A
100
AcDbEntity
  8
0
100
AcDbPolyline
 62
253
  6
CONTINUOUS
 90
53
 70
0
 10
-3.8315537183
 20
10.9912546787
 10
-3.8351692661
 20
10.9980704236
 10
-3.8386249158
 20
11.0048954785
 10
-3.8419319058
 20
11.0117456567
 10
-3.8451014741
 20
11.0186367712
 10
-3.8481448589
 20
11.0255846352
 10
-3.8510708989
 20
11.0326018714
 10
-3.8538788348
 20
11.0396883402
 10
-3.8565655077
 20
11.0468407115
 10
-3.8591277587
 20
11.0540556554
 10
-3.8615624291
 20
11.0613298418
 10
-3.8638659679
 20
11.0686587888
 10
-3.866033256
 20
11.0760334065
 10
-3.8680587825
 20
11.0834434532
 10
-3.8699370363
 20
11.0908786873
 10
-3.8716625064
 20
11.0983288671
 10
-3.8729795662
 20
11.104539249
 10
-3.8741826333
 20
11.1107341959
 10
-3.8752676417
 20
11.1168950061
 10
-3.8762312406
 20
11.1230078891
 10
-3.8770729383
 20
11.1290786988
 10
-3.877792958
 20
11.1351182
 10
-3.8784956943
 20
11.1423335367
 10
-3.8790180001
 20
11.1495025252
 10
-3.8793543392
 20
11.1566083998
 10
-3.8794991758
 20
11.1636343952
 10
-3.8794469738
 20
11.1705637456
 10
-3.8791938363
 20
11.1773810955
 10
-3.8787424218
 20
11.1840767293
 10
-3.8780970279
 20
11.1906423414
 10
-3.8772619521
 20
11.1970696262
 10
-3.8762414918
 20
11.203350278
 10
-3.8752518689
 20
11.2084685266
 10
-3.8741346169
 20
11.213488625
 10
-3.8728878618
 20
11.2184200195
 10
-3.8715110176
 20
11.2232673869
 10
-3.870008652
 20
11.2280163277
 10
-3.8683866209
 20
11.2326476729
 10
-3.8662901062
 20
11.2380277384
 10
-3.8640376391
 20
11.2432057412
 10
-3.8616371528
 20
11.2481765591
 10
-3.8590965806
 20
11.25293507
 10
-3.8564238556
 20
11.2574761519
 10
-3.8536260744
 20
11.2617959841
 10
-3.8507069863
 20
11.2658959525
 10
-3.8476695041
 20
11.2697787443
 10
-3.8445165405
 20
11.273447047
 10
-3.8412510081
 20
11.276903548
 10
-3.8378733202
 20
11.2801508777
 10
-3.8343738923
 20
11.2831914399
 10
-3.8307406404
 20
11.2860275814
 10
-3.8269614803
 20
11.2886616491
 10
-3.8230243282
 20
11.2910959898
  0
LINE
  5
29B
100
AcDbEntity
  8
0
100
AcDbLine
 62
253
  6
CONTINUOUS
 10
3.6580079747
 20
17.7887819422
 11
3.6580077835
 21
17.726809145
  0
LWPOLYLINE
  5
29C
100
AcDbEntity
  8
0
100
AcDbPolyline
 62
253
  6
CONTINUOUS
 90
42
 70
0
 10
-3.0813135055
 20
-9.2647752866
 10
-3.0831845486
 20
-9.2673720041
 10
-3.0851319821
 20
-9.2698499198
 10
-3.0871562473
 20
-9.2722143362
 10
-3.0892577854
 20
-9.2744705561
 10
-3.0914370375
 20
-9.2766238821
 10
-3.0936944448
 20
-9.278679617
 10
-3.0965069568
 20
-9.2810235556
 10
-3.0994324324
 20
-9.2832342273
 10
-3.1024706563
 20
-9.2853112608
 10
-3.1056214134
 20
-9.2872542847
 10
-3.1088844884
 20
-9.2890629274
 10
-3.1122585769
 20
-9.2907364516
 10
-3.1157380174
 20
-9.2922726561
 10
-3.1193160594
 20
-9.2936689736
 10
-3.1229859522
 20
-9.2949228368
 10
-3.1267409453
 20
-9.2960316786
 10
-3.1305747256
 20
-9.2969933685
 10
-3.1344827307
 20
-9.2978075239
 10
-3.138460836
 20
-9.2984741987
 10
-3.1425049166
 20
-9.2989934471
 10
-3.1466108478
 20
-9.2993653233
 10
-3.1507745045
 20
-9.2995898043
 10
-3.1549917601
 20
-9.2996665593
 10
-3.159258488
 20
-9.2995951803
 10
-3.1635705611
 20
-9.2993752597
 10
-3.1679238526
 20
-9.2990063893
 10
-3.1723134781
 20
-9.2984885541
 10
-3.1767315225
 20
-9.2978233089
 10
-3.1811693132
 20
-9.2970126013
 10
-3.1856181775
 20
-9.296058379
 10
-3.1900694427
 20
-9.2949625893
 10
-3.1945158491
 20
-9.293726971
 10
-3.1989557876
 20
-9.2923524264
 10
-3.2033890622
 20
-9.2908396487
 10
-3.2078154767
 20
-9.2891893313
 10
-3.2122348351
 20
-9.2874021675
 10
-3.2166482534
 20
-9.2854774454
 10
-3.2210620963
 20
-9.2834088322
 10
-3.2254840406
 20
-9.2811885897
 10
-3.2299217633
 20
-9.27880898
 10
-3.2343829412
 20
-9.2762622649
  0
LWPOLYLINE
  5
29D
100
AcDbEntity
  8
0
100
AcDbPolyline
 62
253
  6
CONTINUOUS
 90
54
 70
0
 10
-2.4404321918
 20
6.1973137922
 10
-2.4356918821
 20
6.1946532283
 10
-2.4309974767
 20
6.1921720703
 10
-2.4263410975
 20
6.1898628097
 10
-2.4217148668
 20
6.1877179376
 10
-2.4171109064
 20
6.1857299454
 10
-2.4125213385
 20
6.1838913245
 10
-2.407024821
 20
6.18187407
 10
-2.4015424203
 20
6.1800630797
 10
-2.3960788723
 20
6.1784603359
 10
-2.3906389129
 20
6.1770678209
 10
-2.3852272781
 20
6.1758875168
 10
-2.379848849
 20
6.174921464
 10
-2.3745090885
 20
6.1741719344
 10
-2.3692136046
 20
6.1736412582
 10
-2.3639680054
 20
6.1733317654
 10
-2.3587778988
 20
6.1732457861
 10
-2.3545002933
 20
6.1733463412
 10
-2.350274647
 20
6.1736037845
 10
-2.3461104879
 20
6.1740181687
 10
-2.342014944
 20
6.1745900089
 10
-2.3379855428
 20
6.1753216717
 10
-2.3340174115
 20
6.1762159865
 10
-2.3293328999
 20
6.1775073901
 10
-2.3247405628
 20
6.1790392247
 10
-2.3202513629
 20
6.1808136281
 10
-2.3158762627
 20
6.182832738
 10
-2.3116262247
 20
6.1850986923
 10
-2.3075107737
 20
6.1876121119
 10
-2.3035336835
 20
6.1903675504
 10
-2.2996972903
 20
6.1933580447
 10
-2.2960039301
 20
6.1965766314
 10
-2.292455939
 20
6.2000163474
 10
-2.2896111579
 20
6.2030482165
 10
-2.2868651835
 20
6.206234049
 10
-2.2842142494
 20
6.2095790819
 10
-2.2816569274
 20
6.2130852373
 10
-2.2792011419
 20
6.2167411772
 10
-2.2768571554
 20
6.2205322488
 10
-2.2742035751
 20
6.2252412731
 10
-2.2717265733
 20
6.2301104406
 10
-2.2694269598
 20
6.235126405
 10
-2.2673055443
 20
6.24027582
 10
-2.2653631368
 20
6.2455453393
 10
-2.2635999624
 20
6.2509233491
 10
-2.2620139072
 20
6.2564051662
 10
-2.2606022726
 20
6.2619878397
 10
-2.25936236
 20
6.2676684189
 10
-2.2582914707
 20
6.2734439531
 10
-2.2573877994
 20
6.2793149592
 10
-2.2566531139
 20
6.2852958253
 10
-2.2560900756
 20
6.2914044071
 10
-2.2557013456
 20
6.2976585605
 10
-2.255489585
 20
6.3040761413
  0
LINE
  5
29E
100
AcDbEntity
  8
0
100
AcDbLine
 62
7
  6
CONTINUOUS
 10
9.4442967136
 20
-2.6793531259
 11
9.2944640283
 21
-2.5928416112
  0
LINE
  5
29F
100
AcDbEntity
  8
0
100
AcDbLine
 62
253
  6
CONTINUOUS
 10
-1.4427799577
 20
7.294000547
 11
-0.9135454682
 21
6.3623566573
  0
LWPOLYLINE
  5
2A0
100
AcDbEntity
  8
0
100
AcDbPolyline
 62
253
  6
CONTINUOUS
 90
53
 70
0
 10
-0.9135454682
 20
6.3623566573
 10
-0.9097753899
 20
6.355628054
 10
-0.9061692559
 20
6.3488880123
 10
-0.9027154276
 20
6.3421209868
 10
-0.899402266
 20
6.3353114326
 10
-0.8962181324
 20
6.3284438042
 10
-0.893153873
 20
6.3215056894
 10
-0.8902102739
 20
6.3144972062
 10
-0.8873906059
 20
6.3074216053
 10
-0.8846981403
 20
6.3002821377
 10
-0.8821361479
 20
6.293082054
 10
-0.8797083117
 20
6.2858257455
 10
-0.8774199629
 20
6.2785221644
 10
-0.8752768443
 20
6.2711814032
 10
-0.8732846992
 20
6.2638135546
 10
-0.8714492705
 20
6.2564287111
 10
-0.8700437712
 20
6.2502710884
 10
-0.8687554194
 20
6.2441271997
 10
-0.8675885433
 20
6.2380155721
 10
-0.8665466951
 20
6.231949867
 10
-0.865630323
 20
6.2259242821
 10
-0.8648390988
 20
6.2199281493
 10
-0.8640554216
 20
6.2127624684
 10
-0.8634572685
 20
6.2056403369
 10
-0.863050423
 20
6.1985782555
 10
-0.8628406684
 20
6.1915927246
 10
-0.8628337883
 20
6.184700245
 10
-0.8630338792
 20
6.1779159529
 10
-0.8634382902
 20
6.1712495273
 10
-0.8640426834
 20
6.1647092833
 10
-0.864842721
 20
6.1583035355
 10
-0.8658340652
 20
6.1520405989
 10
-0.8668039157
 20
6.146934209
 10
-0.8679054323
 20
6.1419233797
 10
-0.8691404419
 20
6.1369987232
 10
-0.8705094962
 20
6.1321555994
 10
-0.8720080473
 20
6.1274083598
 10
-0.8736302724
 20
6.1227761037
 10
-0.8757323254
 20
6.1173914361
 10
-0.8779960142
 20
6.1122050684
 10
-0.8804132688
 20
6.1072222209
 10
-0.8829760193
 20
6.1024481141
 10
-0.885676196
 20
6.0978879685
 10
-0.8885065729
 20
6.0935457013
 10
-0.8914633002
 20
6.0894200164
 10
-0.8945433721
 20
6.0855083145
 10
-0.8977437826
 20
6.0818079963
 10
-0.901061526
 20
6.0783164626
 10
-0.904496148
 20
6.0750311305
 10
-0.9080574008
 20
6.0719494833
 10
-0.911757588
 20
6.0690690208
 10
-0.9156090133
 20
6.0663872428
 10
-0.9196239806
 20
6.063901649
  0
LWPOLYLINE
  5
2A1
100
AcDbEntity
  8
0
100
AcDbPolyline
 62
253
  6
CONTINUOUS
 90
53
 70
0
 10
-0.8341329296
 20
9.5647573942
 10
-0.830391408
 20
9.5579405856
 10
-0.8268153724
 20
9.5511143964
 10
-0.823393272
 20
9.5442631037
 10
-0.8201135558
 20
9.5373709846
 10
-0.8169646732
 20
9.5304223162
 10
-0.8139375388
 20
9.5234044944
 10
-0.81103293
 20
9.5163173898
 10
-0.8082540897
 20
9.5091639918
 10
-0.8056042608
 20
9.5019472899
 10
-0.8030866861
 20
9.4946702736
 10
-0.8007050526
 20
9.4873371967
 10
-0.7984648227
 20
9.4799573713
 10
-0.7963719026
 20
9.472541374
 10
-0.7944321989
 20
9.4650997813
 10
-0.7926516178
 20
9.4576431698
 10
-0.7912937514
 20
9.4514276929
 10
-0.7900547346
 20
9.4452285014
 10
-0.7889388135
 20
9.4390649658
 10
-0.7879494651
 20
9.4329514305
 10
-0.7870870892
 20
9.4268821378
 10
-0.7863513164
 20
9.4208463039
 10
-0.7856359836
 20
9.4136380578
 10
-0.7851077799
 20
9.4064784629
 10
-0.7847720575
 20
9.3993835181
 10
-0.7846341689
 20
9.3923692222
 10
-0.7846994665
 20
9.3854515742
 10
-0.7849716193
 20
9.3786453213
 10
-0.7854475638
 20
9.3719602045
 10
-0.7861225529
 20
9.3654047133
 10
-0.7869918399
 20
9.3589873371
 10
-0.7880506777
 20
9.3527165653
 10
-0.7890751734
 20
9.3476066362
 10
-0.7902298156
 20
9.342594923
 10
-0.7915164148
 20
9.3376719376
 10
-0.7929354843
 20
9.3328328877
 10
-0.7944823484
 20
9.3280917636
 10
-0.7961510342
 20
9.3234672514
 10
-0.7983062383
 20
9.3180935444
 10
-0.8006202611
 20
9.3129197735
 10
-0.8030850991
 20
9.3079510457
 10
-0.8056927486
 20
9.3031924677
 10
-0.8084352061
 20
9.2986491465
 10
-0.8113052996
 20
9.294324924
 10
-0.8142991837
 20
9.290218583
 10
-0.8174138447
 20
9.2863276411
 10
-0.8206462688
 20
9.2826496163
 10
-0.8239934422
 20
9.2791820264
 10
-0.827454911
 20
9.2759223956
 10
-0.8310404595
 20
9.2728682736
 10
-0.834762432
 20
9.2700172164
 10
-0.8386331727
 20
9.26736678
 10
-0.8426650256
 20
9.2649145206
  0
LWPOLYLINE
  5
2A2
100
AcDbEntity
  8
0
100
AcDbPolyline
 62
253
  6
CONTINUOUS
 90
53
 70
0
 10
-1.6604792917
 20
9.0877236643
 10
-1.6641976918
 20
9.0945370356
 10
-1.6677525786
 20
9.1013598862
 10
-1.6711554527
 20
9.1082080479
 10
-1.6744178146
 20
9.1150973524
 10
-1.6775511646
 20
9.1220436313
 10
-1.6805645409
 20
9.1290595538
 10
-1.6834571312
 20
9.1361451378
 10
-1.6862256608
 20
9.1432972386
 10
-1.688866855
 20
9.1505127113
 10
-1.6913774393
 20
9.1577884113
 10
-1.6937537137
 20
9.1651199803
 10
-1.6959902784
 20
9.172498206
 10
-1.6980813084
 20
9.1799126626
 10
-1.7000209786
 20
9.1873529242
 10
-1.7018034639
 20
9.1948085651
 10
-1.7031644473
 20
9.2010236547
 10
-1.7044079772
 20
9.2072231255
 10
-1.7055298011
 20
9.2133879189
 10
-1.706526426
 20
9.2195039518
 10
-1.7073973945
 20
9.2255770445
 10
-1.7081430084
 20
9.2316179932
 10
-1.7088716882
 20
9.2388340623
 10
-1.7094147298
 20
9.2460030068
 10
-1.7097665711
 20
9.2531084433
 10
-1.7099216499
 20
9.2601339882
 10
-1.7098744038
 20
9.2670632583
 10
-1.7096209628
 20
9.2738811984
 10
-1.7091642245
 20
9.2805780669
 10
-1.7085087787
 20
9.2871454505
 10
-1.7076592151
 20
9.2935749358
 10
-1.7066201235
 20
9.2998581096
 10
-1.7056120005
 20
9.304978648
 10
-1.7044736264
 20
9.3100012442
 10
-1.7032031795
 20
9.3149354038
 10
-1.7018001336
 20
9.3197858939
 10
-1.7002691447
 20
9.324538527
 10
-1.6986161639
 20
9.3291743771
 10
-1.6964795641
 20
9.3345611931
 10
-1.6941839105
 20
9.339747466
 10
-1.6917372477
 20
9.3447280737
 10
-1.6891476202
 20
9.349497894
 10
-1.6864230724
 20
9.3540518047
 10
-1.6835708108
 20
9.3583859673
 10
-1.6805946886
 20
9.3625016777
 10
-1.6774977208
 20
9.3664015157
 10
-1.6742829227
 20
9.3700880608
 10
-1.6709533092
 20
9.3735638927
 10
-1.6675093334
 20
9.3768315753
 10
-1.6639411994
 20
9.3798936097
 10
-1.6602365494
 20
9.3827524812
 10
-1.6563830257
 20
9.385410675
 10
-1.6523682702
 20
9.3878706765
  0
LWPOLYLINE
  5
2A3
100
AcDbEntity
  8
0
100
AcDbPolyline
 62
253
  6
CONTINUOUS
 90
16
 70
0
 10
5.8662823143
 20
-5.4844851908
 10
5.8641143811
 20
-5.4413766874
 10
5.8582616557
 20
-5.3963352629
 10
5.8487504517
 20
-5.3498304841
 10
5.8356314997
 20
-5.3023032881
 10
5.8190219151
 20
-5.2543189445
 10
5.799141931
 20
-5.2065620834
 10
5.7762390883
 20
-5.159613616
 10
5.7505432293
 20
-5.1139327817
 10
5.7223292185
 20
-5.0700109739
 10
5.6918999035
 20
-5.0283257436
 10
5.659593144
 20
-4.9893455826
 10
5.6257725498
 20
-4.9535112484
 10
5.5908136626
 20
-4.9212200356
 10
5.5550983359
 20
-4.8928240713
 10
5.5190197302
 20
-4.8686359727
  0
LWPOLYLINE
  5
2A4
100
AcDbEntity
  8
0
100
AcDbPolyline
 62
253
  6
CONTINUOUS
 90
9
 70
0
 10
5.2000110526
 20
-4.2751442561
 10
5.2021241086
 20
-4.3173714318
 10
5.2072102889
 20
-4.3555831282
 10
5.2153945971
 20
-4.3901251081
 10
5.2272093488
 20
-4.4214768453
 10
5.2425411188
 20
-4.4492931603
 10
5.2605314482
 20
-4.4725905382
 10
5.2813370744
 20
-4.4912657777
 10
5.3032035801
 20
-4.5044941563
  0
LWPOLYLINE
  5
2A5
100
AcDbEntity
  8
0
100
AcDbPolyline
 62
253
  6
CONTINUOUS
 90
4
 70
0
 10
6.1919151315
 20
-21.7241681188
 10
6.1242828964
 20
-19.8740645965
 10
6.0648221118
 20
-18.0506068308
 10
6.0135327779
 20
-16.2537948217
  0
LWPOLYLINE
  5
2A6
100
AcDbEntity
  8
0
100
AcDbPolyline
 62
253
  6
CONTINUOUS
 90
10
 70
0
 10
5.5189837213
 20
-21.7494268637
 10
5.4521059369
 20
-19.8985824491
 10
5.3939843829
 20
-18.0737848478
 10
5.3442388866
 20
-16.2753105645
 10
5.3029331981
 20
-14.5237586441
 10
5.2691040513
 20
-12.7991546614
 10
5.2415497982
 20
-11.0404751784
 10
5.2204261242
 20
-9.2270706416
 10
5.2064567765
 20
-7.3791417088
 10
5.2000109646
 20
-5.4965124392
  0
LINE
  5
2A7
100
AcDbEntity
  8
0
100
AcDbLine
 62
7
  6
CONTINUOUS
 10
3.838242623
 20
18.2029639516
 11
3.859446237
 21
17.5865401561
  0
LWPOLYLINE
  5
2A8
100
AcDbEntity
  8
0
100
AcDbPolyline
 62
253
  6
CONTINUOUS
 90
7
 70
0
 10
6.0135327779
 20
-16.2537948217
 10
5.9708265584
 20
-14.5039248088
 10
5.9362917895
 20
-12.7807005525
 10
5.9086934797
 20
-11.0232333344
 10
5.8876199654
 20
-9.211226915
 10
5.8734829102
 20
-7.3649775338
 10
5.8662823143
 20
-5.4844851908
  0
LWPOLYLINE
  5
2A9
100
AcDbEntity
  8
0
100
AcDbPolyline
 62
253
  6
CONTINUOUS
 90
10
 70
0
 10
5.866282244
 20
-4.2643697085
 10
5.8712962688
 20
-2.5769076043
 10
5.8835008567
 20
-0.8605275852
 10
5.9028960079
 20
0.8847703486
 10
5.9286800038
 20
2.6453446885
 10
5.961654563
 20
4.4348369432
 10
6.0042248407
 20
6.2941716383
 10
6.0571925555
 20
8.2369902824
 10
6.119755989
 20
10.2496513669
 10
6.191915141
 20
12.3321548918
  0
LWPOLYLINE
  5
2AA
100
AcDbEntity
  8
0
100
AcDbPolyline
 62
253
  6
CONTINUOUS
 90
10
 70
0
 10
5.2000109557
 20
-4.2751441328
 10
5.2053966356
 20
-2.5857100201
 10
5.2172561422
 20
-0.8674968115
 10
5.2358711202
 20
0.8796234033
 10
5.2613052659
 20
2.6423891911
 10
5.2939662755
 20
4.4342584665
 10
5.3351217874
 20
6.2956935935
 10
5.3859333535
 20
8.2405578991
 10
5.446940754
 20
10.2558298305
 10
5.5189837219
 20
12.3419098685
  0
LWPOLYLINE
  5
2AB
100
AcDbEntity
  8
0
100
AcDbPolyline
 62
253
  6
CONTINUOUS
 90
16
 70
0
 10
5.2000111232
 20
-5.4965125183
 10
5.2021239306
 20
-5.4522141378
 10
5.2072097702
 20
-5.4067383442
 10
5.2153936311
 20
-5.3602386876
 10
5.2272077309
 20
-5.3126689509
 10
5.2425387017
 20
-5.2642077424
 10
5.2605283233
 20
-5.2157035726
 10
5.2813333904
 20
-5.1681783641
 10
5.3051593736
 20
-5.1218650763
 10
5.3310369604
 20
-5.076927634
 10
5.3589099918
 20
-5.0342381368
 10
5.3888914779
 20
-4.9944146236
 10
5.4200799331
 20
-4.9573726708
 10
5.4520901277
 20
-4.9235467879
 10
5.4851107589
 20
-4.8937977424
 10
5.5190197302
 20
-4.8686359727
  0
LWPOLYLINE
  5
2AC
100
AcDbEntity
  8
0
100
AcDbPolyline
 62
253
  6
CONTINUOUS
 90
9
 70
0
 10
5.8662822443
 20
-4.2643697084
 10
5.8641143071
 20
-4.3055959786
 10
5.8582615727
 20
-4.3442656212
 10
5.8487503569
 20
-4.3799328872
 10
5.8356313934
 20
-4.4122111564
 10
5.8190217996
 20
-4.4406687423
 10
5.7991418091
 20
-4.4648790571
 10
5.7762389648
 20
-4.4845546356
 10
5.7590507533
 20
-4.4952502677
  0
LWPOLYLINE
  5
2AD
100
AcDbEntity
  8
0
100
AcDbPolyline
 62
253
  6
CONTINUOUS
 90
22
 70
0
 10
5.5189837382
 20
12.3419098729
 10
5.5234906271
 20
12.413261142
 10
5.532100296
 20
12.4864996097
 10
5.5447724255
 20
12.5612622829
 10
5.5614528498
 20
12.637169668
 10
5.5820581645
 20
12.7138532406
 10
5.6064787092
 20
12.7909577974
 10
5.6346082642
 20
12.8681040263
 10
5.6663131428
 20
12.9449031255
 10
5.7014188099
 20
13.0209846845
 10
5.7397659808
 20
13.0959660836
 10
5.7811753749
 20
13.1694731604
 10
5.8254197534
 20
13.241155231
 10
5.872298188
 20
13.3106514954
 10
5.9215903695
 20
13.3776107094
 10
5.9730212443
 20
13.4417121519
 10
6.026350551
 20
13.5026271589
 10
6.0813321547
 20
13.5600505992
 10
6.137669014
 20
13.6137192678
 10
6.1950858635
 20
13.6633672861
 10
6.2533299273
 20
13.7087287818
 10
6.3121304361
 20
13.7495686189
  0
LWPOLYLINE
  5
2AE
100
AcDbEntity
  8
0
100
AcDbPolyline
 62
253
  6
CONTINUOUS
 90
22
 70
0
 10
6.191915141
 20
12.3321548918
 10
6.1947290731
 20
12.3738243654
 10
6.1999765378
 20
12.4161852682
 10
6.2076575348
 20
12.4592376003
 10
6.2178333728
 20
12.5032180991
 10
6.2304427431
 20
12.5478900272
 10
6.2453017206
 20
12.592543172
 10
6.2624424696
 20
12.637159375
 10
6.2818328257
 20
12.6817567946
 10
6.3031923701
 20
12.7256796944
 10
6.3265525251
 20
12.7689210602
 10
6.3518818684
 20
12.8114879061
 10
6.3788057137
 20
12.8527455375
 10
6.407347774
 20
12.8926729433
 10
6.4374843363
 20
12.9312911347
 10
6.4687695752
 20
12.9680284505
 10
6.5012363744
 20
13.0028663741
 10
6.5348518502
 20
13.0358234221
 10
6.5690715262
 20
13.0663834835
 10
6.6037139102
 20
13.0943745215
 10
6.6389604944
 20
13.1199685729
 10
6.6748112788
 20
13.1431656378
  0
LWPOLYLINE
  5
2AF
100
AcDbEntity
  8
0
100
AcDbPolyline
 62
253
  6
CONTINUOUS
 90
42
 70
0
 10
-1.0075158002
 20
-11.7693542219
 10
-1.0094189873
 20
-11.7720056376
 10
-1.0114030451
 20
-11.7745346048
 10
-1.0134681622
 20
-11.77694664
 10
-1.0156145272
 20
-11.7792472595
 10
-1.0178423288
 20
-11.7814419796
 10
-1.0201517555
 20
-11.7835363168
 10
-1.0230309736
 20
-11.7859231831
 10
-1.0260276997
 20
-11.7881733752
 10
-1.0291416301
 20
-11.7902868271
 10
-1.0323724608
 20
-11.7922634726
 10
-1.035719888
 20
-11.7941032455
 10
-1.039182453
 20
-11.7958056805
 10
-1.0427540788
 20
-11.7973687158
 10
-1.0464275332
 20
-11.7987898901
 10
-1.0501955843
 20
-11.8000667425
 10
-1.0540510003
 20
-11.8011968117
 10
-1.0579869365
 20
-11.8021781124
 10
-1.0619980981
 20
-11.8030105618
 10
-1.0660795776
 20
-11.803694553
 10
-1.0702264675
 20
-11.804230479
 10
-1.0744338604
 20
-11.8046187327
 10
-1.0786970108
 20
-11.8048596408
 10
-1.0830118206
 20
-11.8049532652
 10
-1.087374354
 20
-11.8048996012
 10
-1.091780675
 20
-11.8046986443
 10
-1.0962268477
 20
-11.80435039
 10
-1.1007081207
 20
-11.8038551849
 10
-1.1052164809
 20
-11.803214781
 10
-1.1097431
 20
-11.8024312815
 10
-1.1142791494
 20
-11.8015067894
 10
-1.1188158009
 20
-11.8004434079
 10
-1.1233456387
 20
-11.799243053
 10
-1.1278668992
 20
-11.7979068913
 10
-1.1323792311
 20
-11.7964359024
 10
-1.1368822834
 20
-11.7948310656
 10
-1.1413757053
 20
-11.7930933606
 10
-1.1458605409
 20
-11.7912223692
 10
-1.1503434158
 20
-11.789212084
 10
-1.1548323509
 20
-11.7870550998
 10
-1.1593353671
 20
-11.7847440114
 10
-1.1638604854
 20
-11.7822714139
  0
LWPOLYLINE
  5
2B0
100
AcDbEntity
  8
0
100
AcDbPolyline
 62
253
  6
CONTINUOUS
 90
53
 70
0
 10
-1.6623197532
 20
-10.9879988979
 10
-1.6596263105
 20
-10.9842849774
 10
-1.6568035108
 20
-10.9807911276
 10
-1.6538472467
 20
-10.9775049585
 10
-1.6507534108
 20
-10.9744140802
 10
-1.6475178955
 20
-10.9715061025
 10
-1.6441373042
 20
-10.9687713245
 10
-1.6406110832
 20
-10.966210802
 10
-1.6369393892
 20
-10.9638282797
 10
-1.6331223792
 20
-10.9616275024
 10
-1.6291602101
 20
-10.9596122148
 10
-1.6250536691
 20
-10.9577864934
 10
-1.620806065
 20
-10.9561557404
 10
-1.6164213365
 20
-10.9547256895
 10
-1.6119034228
 20
-10.9535020746
 10
-1.6072562628
 20
-10.9524906294
 10
-1.6032893383
 20
-10.9518137785
 10
-1.5992472551
 20
-10.9512904236
 10
-1.5951418735
 20
-10.9509227385
 10
-1.5909816785
 20
-10.950712804
 10
-1.586761654
 20
-10.9506623265
 10
-1.5824734085
 20
-10.9507729192
 10
-1.5772295676
 20
-10.9511207979
 10
-1.5718844278
 20
-10.9517074298
 10
-1.5664470123
 20
-10.9525373041
 10
-1.5609263441
 20
-10.95361491
 10
-1.5553314464
 20
-10.9549447368
 10
-1.5496714982
 20
-10.9565292879
 10
-1.5439563018
 20
-10.9583631233
 10
-1.5381958157
 20
-10.9604388172
 10
-1.5323999981
 20
-10.9627489437
 10
-1.5265788072
 20
-10.9652860771
 10
-1.5217131681
 20
-10.9675698211
 10
-1.5168278935
 20
-10.9700102475
 10
-1.5119140529
 20
-10.9726115521
 10
-1.5069674838
 20
-10.9753753309
 10
-1.5020030969
 20
-10.9782927814
 10
-1.497040571
 20
-10.9813525017
 10
-1.491111729
 20
-10.9851972426
 10
-1.4852240568
 20
-10.9892187368
 10
-1.4793877066
 20
-10.9934052878
 10
-1.4736128308
 20
-10.9977451994
 10
-1.4679095816
 20
-11.0022267752
 10
-1.4622864444
 20
-11.0068396829
 10
-1.4567452372
 20
-11.0115790474
 10
-1.4512861109
 20
-11.0164413577
 10
-1.4459092167
 20
-11.0214231027
 10
-1.4406147055
 20
-11.0265207716
 10
-1.4354008448
 20
-11.0317342494
 10
-1.4302583671
 20
-11.0370770067
 10
-1.425176121
 20
-11.0425659101
 10
-1.4201429555
 20
-11.0482178261
 10
-1.4151477192
 20
-11.0540496215
  0
LWPOLYLINE
  5
2B1
100
AcDbEntity
  8
0
100
AcDbPolyline
 62
253
  6
CONTINUOUS
 90
53
 70
0
 10
-2.4143483763
 20
7.5047475978
 10
-2.4198909395
 20
7.5078426175
 10
-2.425381815
 20
7.5106976149
 10
-2.4308346931
 20
7.5133242625
 10
-2.4362632641
 20
7.515734233
 10
-2.4416812184
 20
7.517939199
 10
-2.4470994498
 20
7.5199483447
 10
-2.4525176663
 20
7.5217609005
 10
-2.4579327795
 20
7.5233736085
 10
-2.463341701
 20
7.5247832107
 10
-2.4687413422
 20
7.525986449
 10
-2.4741277331
 20
7.5269798618
 10
-2.4794933764
 20
7.5277591723
 10
-2.4848298932
 20
7.5283199001
 10
-2.4901289045
 20
7.5286575648
 10
-2.4953820313
 20
7.5287676858
 10
-2.4997171494
 20
7.5286828877
 10
-2.5040013839
 20
7.5284372782
 10
-2.5082215338
 20
7.5280311738
 10
-2.5123676255
 20
7.5274644207
 10
-2.5164425937
 20
7.5267349838
 10
-2.5204525999
 20
7.5258403579
 10
-2.5251839705
 20
7.5245455782
 10
-2.5298199385
 20
7.5230070794
 10
-2.5343497737
 20
7.5212226222
 10
-2.5387627457
 20
7.5191899673
 10
-2.5430481244
 20
7.5169068755
 10
-2.5471964507
 20
7.5143728808
 10
-2.551203351
 20
7.5115946113
 10
-2.555065723
 20
7.5085804681
 10
-2.5587804643
 20
7.5053388527
 10
-2.5623444725
 20
7.5018781665
 10
-2.5651981773
 20
7.4988312934
 10
-2.5679497328
 20
7.4956328847
 10
-2.5706038198
 20
7.4922777028
 10
-2.5731627208
 20
7.4887637575
 10
-2.5756191254
 20
7.4851020466
 10
-2.5779633248
 20
7.4813068147
 10
-2.5806172789
 20
7.4765943881
 10
-2.5830950748
 20
7.4717230745
 10
-2.5853961103
 20
7.4667057448
 10
-2.5875197834
 20
7.4615552696
 10
-2.5894654918
 20
7.4562845197
 10
-2.591233165
 20
7.4509047751
 10
-2.5928248578
 20
7.4454209532
 10
-2.5942431564
 20
7.4398363806
 10
-2.5954906471
 20
7.434154384
 10
-2.5965699162
 20
7.42837829
 10
-2.597482708
 20
7.4225078827
 10
-2.5982273992
 20
7.4165287752
 10
-2.5988015244
 20
7.4104230379
 10
-2.5992026185
 20
7.4041727414
 10
-2.599428216
 20
7.3977599559
  0
LWPOLYLINE
  5
2B2
100
AcDbEntity
  8
0
100
AcDbPolyline
 62
253
  6
CONTINUOUS
 90
3
 70
0
 10
-0.439781815
 20
7.3517307931
 10
-1.0179113865
 20
7.6739363672
 10
-1.2098500016
 20
7.7817897895
  0
LWPOLYLINE
  5
2B3
100
AcDbEntity
  8
0
100
AcDbPolyline
 62
253
  6
CONTINUOUS
 90
3
 70
0
 10
-1.1994697762
 20
8.205718735
 10
-1.0075472315
 20
8.0978559081
 10
-0.429480434
 20
7.7756135979
  0
LWPOLYLINE
  5
2B4
100
AcDbEntity
  8
0
100
AcDbPolyline
 62
253
  6
CONTINUOUS
 90
55
 70
0
 10
-0.4294797415
 20
7.7756414791
 10
-0.4238937658
 20
7.7724432293
 10
-0.4183651588
 20
7.7690712992
 10
-0.4128797859
 20
7.7655210817
 10
-0.4074235126
 20
7.7617879696
 10
-0.4019822042
 20
7.7578673556
 10
-0.3965446229
 20
7.7537553931
 10
-0.3911111167
 20
7.7494512781
 10
-0.3856849305
 20
7.7449549669
 10
-0.380269309
 20
7.740266416
 10
-0.374867497
 20
7.7353855818
 10
-0.3694836233
 20
7.7303132089
 10
-0.3641253537
 20
7.7250531948
 10
-0.3588012378
 20
7.719610225
 10
-0.3535198254
 20
7.7139889851
 10
-0.3482896663
 20
7.7081941606
 10
-0.3439778892
 20
7.70323796
 10
-0.3397208021
 20
7.6981794129
 10
-0.335531565
 20
7.6930334634
 10
-0.3314200337
 20
7.6878107753
 10
-0.3273828465
 20
7.6825048903
 10
-0.3234133372
 20
7.6771050694
 10
-0.3195071383
 20
7.6716034384
 10
-0.3156690758
 20
7.6660035812
 10
-0.3119062745
 20
7.6603119463
 10
-0.308225859
 20
7.6545349823
 10
-0.3046349539
 20
7.6486791377
 10
-0.3011406838
 20
7.642750861
 10
-0.2977493093
 20
7.6367567883
 10
-0.2944636347
 20
7.6307043059
 10
-0.2912856
 20
7.6246009874
 10
-0.2882171456
 20
7.6184544067
 10
-0.2852602114
 20
7.6122721376
 10
-0.2824167378
 20
7.6060617538
 10
-0.2796874973
 20
7.5998276465
 10
-0.2770685924
 20
7.5935614767
 10
-0.2745549582
 20
7.5872517226
 10
-0.2721439207
 20
7.58089302
 10
-0.2698423704
 20
7.5745046337
 10
-0.2676595892
 20
7.5681119862
 10
-0.2652074202
 20
7.5604658897
 10
-0.2629396318
 20
7.5528636595
 10
-0.2608562115
 20
7.54531869
 10
-0.2589571468
 20
7.5378443756
 10
-0.2572424253
 20
7.5304541107
 10
-0.255711576
 20
7.5231591223
 10
-0.2543622932
 20
7.5159619673
 10
-0.2531918128
 20
7.5088630352
 10
-0.2521973705
 20
7.5018627156
 10
-0.2513762021
 20
7.4949613979
 10
-0.2507265578
 20
7.4881569051
 10
-0.2502507455
 20
7.4814367933
 10
-0.2499520873
 20
7.4747860521
 10
-0.2498339057
 20
7.4681896713
 10
-0.2498995229
 20
7.4616326403
  0
LWPOLYLINE
  5
2B5
100
AcDbEntity
  8
0
100
AcDbPolyline
 62
253
  6
CONTINUOUS
 90
55
 70
0
 10
-1.2098505306
 20
7.7817677002
 10
-1.2154013302
 20
7.7849980814
 10
-1.2208944101
 20
7.7884040587
 10
-1.2263436655
 20
7.7919900958
 10
-1.2317629917
 20
7.7957606568
 10
-1.2371662841
 20
7.7997202055
 10
-1.2425645996
 20
7.8038724593
 10
-1.247957642
 20
7.8082181494
 10
-1.2533422766
 20
7.8127572603
 10
-1.2587153688
 20
7.8174897769
 10
-1.2640737839
 20
7.8224156838
 10
-1.2694134987
 20
7.8275341548
 10
-1.2747269348
 20
7.8328411198
 10
-1.280005625
 20
7.8383316982
 10
-1.2852411023
 20
7.844001009
 10
-1.2904248996
 20
7.8498441715
 10
-1.2946977818
 20
7.8548406847
 10
-1.2989158197
 20
7.8599392888
 10
-1.3030659379
 20
7.8651247338
 10
-1.3071383434
 20
7.8703860866
 10
-1.3111363735
 20
7.8757296804
 10
-1.3150666481
 20
7.8811661655
 10
-1.3189335312
 20
7.8867033343
 10
-1.3227323633
 20
7.8923375483
 10
-1.3264562292
 20
7.8980623116
 10
-1.3300982138
 20
7.9038711282
 10
-1.3336514019
 20
7.9097575018
 10
-1.3371088782
 20
7.9157149366
 10
-1.3404645582
 20
7.9217367553
 10
-1.3437156806
 20
7.927815556
 10
-1.3468603145
 20
7.9339437556
 10
-1.3498965292
 20
7.940113771
 10
-1.3528223941
 20
7.9463180191
 10
-1.3556359783
 20
7.9525489169
 10
-1.3583365035
 20
7.958802064
 10
-1.3609277999
 20
7.9650857914
 10
-1.3634148501
 20
7.9714116125
 10
-1.3658002813
 20
7.977784898
 10
-1.3680772981
 20
7.9841864465
 10
-1.37023675
 20
7.9905909134
 10
-1.3726626559
 20
7.9982495207
 10
-1.3749060806
 20
8.0058625172
 10
-1.3769670136
 20
8.0134165854
 10
-1.3788454443
 20
8.0208984081
 10
-1.3805413624
 20
8.0282946677
 10
-1.3820552097
 20
8.0355942105
 10
-1.3833892383
 20
8.0427945368
 10
-1.3845461526
 20
8.0498953108
 10
-1.3855286574
 20
8.0568961965
 10
-1.3863394569
 20
8.0637968577
 10
-1.3869802586
 20
8.0705994749
 10
-1.3874487804
 20
8.0773162933
 10
-1.3877417431
 20
8.0839620744
 10
-1.3878558675
 20
8.0905515796
 10
-1.3877878743
 20
8.0970995707
  0
LWPOLYLINE
  5
2B6
100
AcDbEntity
  8
0
100
AcDbPolyline
 62
253
  6
CONTINUOUS
 90
36
 70
0
 10
-1.5706467838
 20
7.4298162338
 10
-1.5665413028
 20
7.4274256753
 10
-1.5624541198
 20
7.4249230429
 10
-1.5583842376
 20
7.4223102009
 10
-1.5543306588
 20
7.4195890137
 10
-1.550292386
 20
7.4167613455
 10
-1.5462684218
 20
7.4138290606
 10
-1.5422577688
 20
7.4107940235
 10
-1.5382600566
 20
7.4076583591
 10
-1.5342774226
 20
7.404425236
 10
-1.530312631
 20
7.4010980835
 10
-1.5263684461
 20
7.397680331
 10
-1.5224476323
 20
7.3941754078
 10
-1.5185529539
 20
7.3905867433
 10
-1.5146871751
 20
7.3869177667
 10
-1.5108527628
 20
7.3831715508
 10
-1.5070509932
 20
7.379349742
 10
-1.5032828451
 20
7.37545363
 10
-1.4995492974
 20
7.3714845047
 10
-1.4958513288
 20
7.3674436559
 10
-1.4921899181
 20
7.3633323733
 10
-1.4885660441
 20
7.3591519467
 10
-1.4849808676
 20
7.3549037005
 10
-1.481436278
 20
7.3505890978
 10
-1.4779343465
 20
7.3462096361
 10
-1.4744771444
 20
7.3417668132
 10
-1.4710667431
 20
7.3372621267
 10
-1.4677052139
 20
7.3326970742
 10
-1.4643946281
 20
7.3280731534
 10
-1.4611369375
 20
7.3233913294
 10
-1.4579336163
 20
7.3186504373
 10
-1.4547860188
 20
7.3138487798
 10
-1.4516954997
 20
7.3089846594
 10
-1.4486634134
 20
7.3040563787
 10
-1.4456911146
 20
7.2990622404
 10
-1.4427799577
 20
7.294000547
  0
LWPOLYLINE
  5
2B7
100
AcDbEntity
  8
0
100
AcDbPolyline
 62
253
  6
CONTINUOUS
 90
57
 70
0
 10
-2.4034318943
 20
7.9953486006
 10
-2.4185751018
 20
8.0043517702
 10
-2.4336791637
 20
8.0138436957
 10
-2.4487728874
 20
8.0238384341
 10
-2.4638850799
 20
8.0343500427
 10
-2.4790398679
 20
8.0453919099
 10
-2.494242656
 20
8.0569747505
 10
-2.5094941683
 20
8.0691086105
 10
-2.5247951288
 20
8.0818035361
 10
-2.5401401278
 20
8.0950638536
 10
-2.5554992206
 20
8.1088710107
 10
-2.5708363292
 20
8.123200735
 10
-2.586115375
 20
8.1380287546
 10
-2.6013029425
 20
8.1533320498
 10
-2.6163762669
 20
8.169092612
 10
-2.631315246
 20
8.185293685
 10
-2.6460997774
 20
8.2019185127
 10
-2.6607105042
 20
8.2189509747
 10
-2.6751310492
 20
8.2363774924
 10
-2.6893457804
 20
8.2541851228
 10
-2.7033390658
 20
8.2723609231
 10
-2.7170963389
 20
8.2908941537
 10
-2.7306072945
 20
8.3097828887
 10
-2.7438626932
 20
8.3290274056
 10
-2.7568532954
 20
8.3486279821
 10
-2.7695661767
 20
8.368578981
 10
-2.7819736739
 20
8.3888511072
 10
-2.7940444394
 20
8.4094091509
 10
-2.8057471252
 20
8.4302179022
 10
-2.8170530173
 20
8.4512385597
 10
-2.8279439377
 20
8.4724179553
 10
-2.838404342
 20
8.4936993289
 10
-2.8484186858
 20
8.5150259208
 10
-2.8579761444
 20
8.5363511759
 10
-2.8670847708
 20
8.5576693584
 10
-2.8757573375
 20
8.5789849376
 10
-2.884006617
 20
8.6003023826
 10
-2.8918433499
 20
8.6216243379
 10
-2.8992701489
 20
8.6429461498
 10
-2.906287595
 20
8.66426134
 10
-2.9128962691
 20
8.6855634302
 10
-2.9190953861
 20
8.7068409486
 10
-2.9248786969
 20
8.7280624495
 10
-2.9302385861
 20
8.7491914937
 10
-2.9351674387
 20
8.7701916419
 10
-2.9396586909
 20
8.791025186
 10
-2.9437099853
 20
8.8116493411
 10
-2.9473200159
 20
8.8320200536
 10
-2.950487477
 20
8.8520932696
 10
-2.9532126369
 20
8.8718335032
 10
-2.9555020617
 20
8.8912395392
 10
-2.9573638918
 20
8.9103187303
 10
-2.9588062675
 20
8.9290784291
 10
-2.9598355037
 20
8.9475299503
 10
-2.9604506127
 20
8.9657004568
 10
-2.9606487814
 20
8.9836210735
 10
-2.9604271968
 20
9.0013229253
  0
LWPOLYLINE
  5
2B8
100
AcDbEntity
  8
0
100
AcDbPolyline
 62
253
  6
CONTINUOUS
 90
3
 70
0
 10
-3.5601665359
 20
9.1393129931
 10
-4.1193407193
 20
9.4726629101
 10
-4.3049433417
 20
9.5842216835
  0
LWPOLYLINE
  5
2B9
100
AcDbEntity
  8
0
100
AcDbPolyline
 62
253
  6
CONTINUOUS
 90
3
 70
0
 10
-4.2946462489
 20
10.0081020057
 10
-4.1090198452
 20
9.8965571493
 10
-3.5497888926
 20
9.5632404543
  0
LWPOLYLINE
  5
2BA
100
AcDbEntity
  8
0
100
AcDbPolyline
 62
253
  6
CONTINUOUS
 90
36
 70
0
 10
-3.2326700491
 20
8.3897915699
 10
-3.2286429908
 20
8.3873610611
 10
-3.2246337669
 20
8.384819108
 10
-3.2206414167
 20
8.3821675482
 10
-3.2166649794
 20
8.3794082192
 10
-3.2127034944
 20
8.3765429586
 10
-3.2087560009
 20
8.3735736039
 10
-3.2048215384
 20
8.3705019926
 10
-3.200899749
 20
8.3673302121
 10
-3.1969926871
 20
8.3640613486
 10
-3.1931030101
 20
8.3606987377
 10
-3.1892333753
 20
8.3572457155
 10
-3.1853864401
 20
8.3537056179
 10
-3.1815648619
 20
8.3500817806
 10
-3.177771298
 20
8.3463775395
 10
-3.1740081375
 20
8.3425958915
 10
-3.1702766959
 20
8.338738477
 10
-3.1665780207
 20
8.3348065973
 10
-3.1629131592
 20
8.3308015539
 10
-3.1592831587
 20
8.3267246481
 10
-3.1556890665
 20
8.3225771814
 10
-3.1521319299
 20
8.318360455
 10
-3.148612969
 20
8.3140758021
 10
-3.1451340938
 20
8.309724683
 10
-3.1416973872
 20
8.3053085897
 10
-3.138304932
 20
8.3008290143
 10
-3.134958811
 20
8.2962874487
 10
-3.131661107
 20
8.2916853851
 10
-3.1284139027
 20
8.2870243154
 10
-3.1252191692
 20
8.2823051969
 10
-3.1220784303
 20
8.2775268471
 10
-3.118993098
 20
8.2726875487
 10
-3.1159645843
 20
8.2677855846
 10
-3.1129943012
 20
8.2628192375
 10
-3.1100836607
 20
8.2577867901
 10
-3.1072340749
 20
8.2526865252
  0
LWPOLYLINE
  5
2BB
100
AcDbEntity
  8
0
100
AcDbPolyline
 62
253
  6
CONTINUOUS
 90
55
 70
0
 10
-3.5497894661
 20
9.5632175309
 10
-3.5443759799
 20
9.5599058658
 10
-3.5390185525
 20
9.5564206525
 10
-3.5337035599
 20
9.5527571149
 10
-3.5284173779
 20
9.5489104764
 10
-3.5231463823
 20
9.5448759608
 10
-3.5178797321
 20
9.5406495877
 10
-3.5126177195
 20
9.53623056
 10
-3.5073634197
 20
9.5316188766
 10
-3.5021199079
 20
9.5268145366
 10
-3.4968902596
 20
9.5218175387
 10
-3.4916784245
 20
9.5166287076
 10
-3.4864918509
 20
9.5112521704
 10
-3.4813388618
 20
9.5056928799
 10
-3.4762277799
 20
9.499955789
 10
-3.4711669283
 20
9.4940458504
 10
-3.4669952606
 20
9.4889945308
 10
-3.462877075
 20
9.4838420387
 10
-3.4588251915
 20
9.4786037951
 10
-3.4548492185
 20
9.4732908513
 10
-3.4509459169
 20
9.4678967792
 10
-3.4471088357
 20
9.4624107808
 10
-3.4433337286
 20
9.4568249509
 10
-3.4396251681
 20
9.4511429557
 10
-3.4359899312
 20
9.4453713539
 10
-3.4324347951
 20
9.4395167046
 10
-3.4289665367
 20
9.4335855664
 10
-3.4255919332
 20
9.4275844984
 10
-3.4223169439
 20
9.4215202421
 10
-3.4191442573
 20
9.4154002706
 10
-3.4160757442
 20
9.4092322396
 10
-3.4131132753
 20
9.4030238048
 10
-3.4102587214
 20
9.396782622
 10
-3.4075139533
 20
9.390516347
 10
-3.4048797169
 20
9.384229426
 10
-3.4023522589
 20
9.3779134674
 10
-3.3999267012
 20
9.3715568699
 10
-3.3976004624
 20
9.3651542044
 10
-3.3953801482
 20
9.3587247291
 10
-3.3932746607
 20
9.3522938741
 10
-3.3909096182
 20
9.3446057257
 10
-3.3887227477
 20
9.3369655113
 10
-3.386714051
 20
9.3293865323
 10
-3.3848835302
 20
9.32188209
 10
-3.3832311872
 20
9.3144654855
 10
-3.3817565844
 20
9.307147862
 10
-3.3804575264
 20
9.2999317285
 10
-3.3793313783
 20
9.2928174362
 10
-3.3783755051
 20
9.2858053359
 10
-3.377587272
 20
9.2788957785
 10
-3.3769650205
 20
9.2720865862
 10
-3.376510998
 20
9.2653654665
 10
-3.3762284286
 20
9.258717598
 10
-3.3761205362
 20
9.2521281595
 10
-3.3761905447
 20
9.2455823297
  0
LWPOLYLINE
  5
2BC
100
AcDbEntity
  8
0
100
AcDbPolyline
 62
253
  6
CONTINUOUS
 90
53
 70
0
 10
-4.3049426752
 20
9.584249739
 10
-4.310297842
 20
9.5875810707
 10
-4.3155971721
 20
9.5910874284
 10
-4.3208540423
 20
9.5947734669
 10
-4.3260818293
 20
9.5986438407
 10
-4.3312939099
 20
9.6027032044
 10
-4.3365009267
 20
9.6069554148
 10
-4.3417025846
 20
9.6114011367
 10
-4.3468958542
 20
9.6160402371
 10
-4.3520777063
 20
9.6208725827
 10
-4.3572451114
 20
9.6258980407
 10
-4.3623941922
 20
9.6311156593
 10
-4.3675176796
 20
9.6365212131
 10
-4.3726074563
 20
9.642109658
 10
-4.3776554051
 20
9.64787595
 10
-4.3826534089
 20
9.653815045
 10
-4.386773094
 20
9.6588905673
 10
-4.3908399038
 20
9.6640671482
 10
-4.394841284
 20
9.6693293471
 10
-4.3987678351
 20
9.6746660903
 10
-4.4026227772
 20
9.6800837716
 10
-4.406412485
 20
9.6855931518
 10
-4.4108792405
 20
9.6923355857
 10
-4.415249692
 20
9.6992140595
 10
-4.4195122932
 20
9.7062170714
 10
-4.4236554978
 20
9.7133331194
 10
-4.4276677595
 20
9.7205507017
 10
-4.4315389197
 20
9.7278580514
 10
-4.4352643717
 20
9.7352423428
 10
-4.4388408966
 20
9.7426904851
 10
-4.4422652755
 20
9.7501893875
 10
-4.4455342896
 20
9.7577259593
 10
-4.4481385716
 20
9.7640289649
 10
-4.4506375077
 20
9.7703606523
 10
-4.4530358795
 20
9.7767326345
 10
-4.4553361961
 20
9.7831503305
 10
-4.4575318771
 20
9.7895943817
 10
-4.4596140693
 20
9.7960392349
 10
-4.4619529771
 20
9.8037432774
 10
-4.4641156988
 20
9.8113983542
 10
-4.4661022204
 20
9.8189911408
 10
-4.4679125278
 20
9.826508313
 10
-4.4695466071
 20
9.8339365463
 10
-4.4710048817
 20
9.8412646962
 10
-4.472289525
 20
9.848490338
 10
-4.4734031481
 20
9.8556132265
 10
-4.4743483617
 20
9.8626331169
 10
-4.4751277768
 20
9.8695497642
 10
-4.4757430397
 20
9.876365404
 10
-4.4761919378
 20
9.8830921949
 10
-4.4764712942
 20
9.8897447761
 10
-4.4765779317
 20
9.8963377868
 10
-4.4765086733
 20
9.9028858662
  0
LINE
  5
2BD
100
AcDbEntity
  8
0
100
AcDbLine
 62
253
  6
CONTINUOUS
 10
9.4442967136
 20
-2.6793531259
 11
5.5190197303
 21
-4.8686359727
  0
LINE
  5
2BE
100
AcDbEntity
  8
0
100
AcDbLine
 62
253
  6
CONTINUOUS
 10
9.7978905083
 20
-3.2916711763
 11
5.8662823143
 21
-5.4844851908
  0
LINE
  5
2BF
100
AcDbEntity
  8
0
100
AcDbLine
 62
253
  6
CONTINUOUS
 10
5.866282244
 20
-4.2643697085
 11
9.7978905083
 21
-2.1487682157
  0
LINE
  5
2C0
100
AcDbEntity
  8
0
100
AcDbLine
 62
7
  6
CONTINUOUS
 10
5.7590317204
 20
-4.495260511
 11
9.6900181679
 21
-2.3799936182
  0
LWPOLYLINE
  5
2C1
100
AcDbEntity
  8
0
100
AcDbPolyline
 62
253
  6
CONTINUOUS
 90
16
 70
0
 10
5.8662823152
 20
-5.4844851903
 10
5.8294290407
 20
-5.5028574203
 10
5.7896698099
 20
-5.5190758054
 10
5.747380573
 20
-5.5329869898
 10
5.7029612107
 20
-5.5444594323
 10
5.6568317314
 20
-5.5533846556
 10
5.6094282976
 20
-5.559678268
 10
5.5611991171
 20
-5.5632807564
 10
5.5126002515
 20
-5.5641580494
 10
5.4640912819
 20
-5.5623018506
 10
5.4161309155
 20
-5.5577297181
 10
5.3691726275
 20
-5.5504848877
 10
5.3236604188
 20
-5.5406358627
 10
5.280024632
 20
-5.5282757703
 10
5.2386778796
 20
-5.5135214849
 10
5.2000111232
 20
-5.4965125183
  0
LWPOLYLINE
  5
2C2
100
AcDbEntity
  8
0
100
AcDbPolyline
 62
253
  6
CONTINUOUS
 90
36
 70
0
 10
-0.9622725835
 20
9.7001563243
 10
-0.958148528
 20
9.6977795427
 10
-0.954043586
 20
9.6952905062
 10
-0.9499567367
 20
9.6926910762
 10
-0.9458869595
 20
9.6899831142
 10
-0.9418332336
 20
9.6871684815
 10
-0.9377945385
 20
9.6842490397
 10
-0.9337698532
 20
9.6812266502
 10
-0.9297587901
 20
9.6781034405
 10
-0.9257634928
 20
9.6748826023
 10
-0.9217867379
 20
9.6715675934
 10
-0.9178313019
 20
9.6681618713
 10
-0.9138999613
 20
9.6646688939
 10
-0.9099954927
 20
9.6610921188
 10
-0.9061206727
 20
9.6574350038
 10
-0.90227797
 20
9.6537006435
 10
-0.8984686227
 20
9.6498906803
 10
-0.8946935612
 20
9.6460063936
 10
-0.8909537157
 20
9.6420490627
 10
-0.8872500166
 20
9.6380199669
 10
-0.8835833941
 20
9.6339203856
 10
-0.8799547786
 20
9.6297515982
 10
-0.8763652858
 20
9.6255149207
 10
-0.8728167736
 20
9.6212118167
 10
-0.8693112849
 20
9.6168437868
 10
-0.8658508629
 20
9.6124123313
 10
-0.8624375508
 20
9.6079189506
 10
-0.8590733918
 20
9.6033651452
 10
-0.8557604289
 20
9.5987524155
 10
-0.8525005832
 20
9.594081731
 10
-0.8492952875
 20
9.5893519382
 10
-0.8461458523
 20
9.5845613527
 10
-0.8430535883
 20
9.57970829
 10
-0.8400198061
 20
9.5747910656
 10
-0.8370458163
 20
9.5698079951
 10
-0.8341329296
 20
9.5647573942
  0
LWPOLYLINE
  5
2C3
100
AcDbEntity
  8
0
100
AcDbPolyline
 62
253
  6
CONTINUOUS
 90
54
 70
0
 10
-2.3186495086
 20
11.1492055802
 10
-2.3139168651
 20
11.146393055
 10
-2.3092371701
 20
11.1434550988
 10
-2.3046025184
 20
11.140390209
 10
-2.3000050047
 20
11.137196883
 10
-2.2954367238
 20
11.1338736184
 10
-2.2908897704
 20
11.1304189124
 10
-2.2854534739
 20
11.1260986443
 10
-2.2800410011
 20
11.1215903225
 10
-2.2746568477
 20
11.1168973326
 10
-2.2693055092
 20
11.11202306
 10
-2.2639914814
 20
11.1069708902
 10
-2.2587194565
 20
11.1017443656
 10
-2.2534949138
 20
11.0963476562
 10
-2.2483235291
 20
11.0907850889
 10
-2.2432109783
 20
11.0850609904
 10
-2.2381629371
 20
11.0791796877
 10
-2.2340106415
 20
11.0741631033
 10
-2.2299165647
 20
11.0690516547
 10
-2.2258901855
 20
11.0638566427
 10
-2.2219386208
 20
11.0585860966
 10
-2.2180595404
 20
11.0532349621
 10
-2.2142482522
 20
11.0477949135
 10
-2.2097606964
 20
11.0411419031
 10
-2.2053745616
 20
11.0343593027
 10
-2.2011004047
 20
11.0274575478
 10
-2.1969487826
 20
11.0204470737
 10
-2.192930252
 20
11.0133383155
 10
-2.1890539517
 20
11.0061415685
 10
-2.1853233473
 20
10.9988665664
 10
-2.1817404861
 20
10.9915229029
 10
-2.1783074154
 20
10.9841201717
 10
-2.1750261826
 20
10.9766679662
 10
-2.1724085194
 20
10.9704244116
 10
-2.1698943042
 20
10.9641436426
 10
-2.16748012
 20
10.9578161395
 10
-2.1651646601
 20
10.9514383001
 10
-2.1629550567
 20
10.9450301913
 10
-2.1608605523
 20
10.9386177975
 10
-2.1585094605
 20
10.9309486922
 10
-2.1563376079
 20
10.9233247594
 10
-2.1543451824
 20
10.9157599245
 10
-2.1525323719
 20
10.908268113
 10
-2.1508993641
 20
10.9008632501
 10
-2.1494458635
 20
10.8935568989
 10
-2.1481696421
 20
10.8863511726
 10
-2.1470679884
 20
10.8792458219
 10
-2.1461381911
 20
10.8722405976
 10
-2.1453775386
 20
10.8653352505
 10
-2.1447843455
 20
10.8585271955
 10
-2.1443610296
 20
10.8518045041
 10
-2.1441110346
 20
10.8451529121
 10
-2.1440378042
 20
10.8385581551
 10
-2.1441447822
 20
10.832005969
  0
LWPOLYLINE
  5
2C4
100
AcDbEntity
  8
0
100
AcDbPolyline
 62
253
  6
CONTINUOUS
 90
57
 70
0
 10
-2.3703158696
 20
9.3419826891
 10
-2.3551591422
 20
9.3329738708
 10
-2.3400379553
 20
9.3234783722
 10
-2.324923269
 20
9.3134819415
 10
-2.3097860432
 20
9.3029703271
 10
-2.2946019714
 20
9.2919299918
 10
-2.279365682
 20
9.280350255
 10
-2.2640765369
 20
9.2682211505
 10
-2.2487338981
 20
9.2555327122
 10
-2.233343224
 20
9.2422806097
 10
-2.2179343582
 20
9.2284830568
 10
-2.2025432411
 20
9.2141639032
 10
-2.1872058127
 20
9.1993469987
 10
-2.1719555316
 20
9.1840551148
 10
-2.1568159301
 20
9.1683067105
 10
-2.1418080588
 20
9.1521191666
 10
-2.1269529687
 20
9.1355098638
 10
-2.1122707044
 20
9.1184952839
 10
-2.0977772878
 20
9.1010883119
 10
-2.0834877346
 20
9.0833009336
 10
-2.0694170608
 20
9.0651451349
 10
-2.0555789012
 20
9.0466298905
 10
-2.0419813664
 20
9.0277521304
 10
-2.028631186
 20
9.0085057735
 10
-2.0155350897
 20
8.9888847385
 10
-2.0027047416
 20
8.9688907405
 10
-1.9901715441
 20
8.9485566785
 10
-1.9779718341
 20
8.9279232478
 10
-1.9661419487
 20
8.9070311439
 10
-1.9547150357
 20
8.8859245592
 10
-1.9437114861
 20
8.8646616762
 10
-1.9331485017
 20
8.8433041745
 10
-1.9230432846
 20
8.8219137337
 10
-1.9134077244
 20
8.8005405593
 10
-1.9042324625
 20
8.7791889595
 10
-1.8955028281
 20
8.7578517684
 10
-1.8872041505
 20
8.7365218198
 10
-1.8793240685
 20
8.7151941649
 10
-1.8718594598
 20
8.6938727232
 10
-1.8648095114
 20
8.6725636314
 10
-1.8581734107
 20
8.6512730262
 10
-1.8519517716
 20
8.6300123565
 10
-1.8461509159
 20
8.6088143212
 10
-1.8407785922
 20
8.5877169313
 10
-1.8358425491
 20
8.5667581981
 10
-1.8313493637
 20
8.5459774794
 10
-1.8273009282
 20
8.5254195208
 10
-1.823697963
 20
8.5051304146
 10
-1.8205411887
 20
8.4851562532
 10
-1.8178296196
 20
8.4655338339
 10
-1.8155554436
 20
8.446262774
 10
-1.8137091423
 20
8.4273333956
 10
-1.8122811972
 20
8.4087360207
 10
-1.8112639674
 20
8.3904573516
 10
-1.8106573217
 20
8.3724696094
 10
-1.8104630061
 20
8.3547413953
 10
-1.810682767
 20
8.3372413106
  0
LWPOLYLINE
  5
2C5
100
AcDbEntity
  8
0
100
AcDbPolyline
 62
253
  6
CONTINUOUS
 90
53
 70
0
 10
-2.3570559391
 20
9.834426425
 10
-2.3625983931
 20
9.8377351575
 10
-2.3680787868
 20
9.8412204564
 10
-2.373510952
 20
9.8448865014
 10
-2.3789087206
 20
9.8487374721
 10
-2.3842859245
 20
9.8527775481
 10
-2.3896535781
 20
9.8570101704
 10
-2.395011425
 20
9.861435826
 10
-2.4003563914
 20
9.8660542633
 10
-2.4056854035
 20
9.8708652307
 10
-2.4109953874
 20
9.8758684764
 10
-2.4162823715
 20
9.8810629076
 10
-2.4215387932
 20
9.8864440658
 10
-2.4267561921
 20
9.8920066513
 10
-2.4319261078
 20
9.8977453642
 10
-2.43704008
 20
9.9036549049
 10
-2.4412515398
 20
9.9087040876
 10
-2.4454053064
 20
9.9138525263
 10
-2.4494884119
 20
9.9190845271
 10
-2.4534910346
 20
9.9243885878
 10
-2.4574159398
 20
9.9297699717
 10
-2.4612690391
 20
9.935238134
 10
-2.465802869
 20
9.9419233922
 10
-2.4702314499
 20
9.9487371843
 10
-2.4745444202
 20
9.9556694681
 10
-2.4787314184
 20
9.9627102015
 10
-2.4827820827
 20
9.9698493421
 10
-2.4866873404
 20
9.9770765296
 10
-2.4904432733
 20
9.9843801304
 10
-2.4940472522
 20
9.9917481926
 10
-2.4974966478
 20
9.9991687645
 10
-2.5007888306
 20
10.0066298941
 10
-2.5034113004
 20
10.0128727588
 10
-2.505927092
 20
10.0191459587
 10
-2.5083405285
 20
10.0254599636
 10
-2.5106537685
 20
10.0318193553
 10
-2.5128603122
 20
10.0382051629
 10
-2.5149514954
 20
10.0445925275
 10
-2.5172989396
 20
10.0522293792
 10
-2.5194678133
 20
10.0598194813
 10
-2.5214581418
 20
10.0673496393
 10
-2.5232699504
 20
10.0748066585
 10
-2.5249032644
 20
10.0821773444
 10
-2.5263585442
 20
10.0894506443
 10
-2.5276379909
 20
10.0966240735
 10
-2.5287442408
 20
10.1036972893
 10
-2.5296799301
 20
10.110669949
 10
-2.5304476951
 20
10.1175417099
 10
-2.5310491897
 20
10.1243147233
 10
-2.531482139
 20
10.1310011175
 10
-2.5317432856
 20
10.1376155146
 10
-2.5318293722
 20
10.1441725369
 10
-2.5317371415
 20
10.1506868066
  0
LWPOLYLINE
  5
2C6
100
AcDbEntity
  8
0
100
AcDbPolyline
 62
253
  6
CONTINUOUS
 90
36
 70
0
 10
-3.6952196554
 20
11.2786663837
 10
-3.6912206701
 20
11.2762271949
 10
-3.6872401951
 20
11.2736765042
 10
-3.6832772575
 20
11.2710161446
 10
-3.6793308841
 20
11.2682479489
 10
-3.6754001019
 20
11.2653737503
 10
-3.6714839377
 20
11.2623953816
 10
-3.6675814184
 20
11.2593146759
 10
-3.6636921725
 20
11.2561337228
 10
-3.659818234
 20
11.2528556382
 10
-3.6559622387
 20
11.2494837948
 10
-3.6521268222
 20
11.246021565
 10
-3.6483146202
 20
11.2424723216
 10
-3.6445282682
 20
11.2388394371
 10
-3.6407704019
 20
11.235126284
 10
-3.6370433838
 20
11.2313358888
 10
-3.6333484834
 20
11.2274698931
 10
-3.629686697
 20
11.2235295922
 10
-3.626059021
 20
11.2195162817
 10
-3.6224664517
 20
11.2154312568
 10
-3.6189099854
 20
11.211275813
 10
-3.6153906184
 20
11.2070512458
 10
-3.6119095208
 20
11.2027588846
 10
-3.6084685571
 20
11.1984001963
 10
-3.6050697655
 20
11.1939766817
 10
-3.6017151841
 20
11.1894898417
 10
-3.5984068513
 20
11.1849411773
 10
-3.5951468051
 20
11.1803321894
 10
-3.5919370839
 20
11.1756643788
 10
-3.5887796145
 20
11.1709387128
 10
-3.5856758789
 20
11.166154024
 10
-3.5826272478
 20
11.1613086112
 10
-3.5796350921
 20
11.1564007734
 10
-3.5767007823
 20
11.1514288095
 10
-3.5738256892
 20
11.1463910183
 10
-3.5710111835
 20
11.1412856988
  0
LINE
  5
2C7
100
AcDbEntity
  8
0
100
AcDbLine
 62
7
  6
CONTINUOUS
 10
9.2512217836
 20
14.7067619318
 11
9.7978905083
 21
7.97554093
  0
LINE
  5
2C8
100
AcDbEntity
  8
0
100
AcDbLine
 62
7
  6
CONTINUOUS
 10
9.7978905083
 20
7.97554093
 11
9.7978905083
 21
-2.1487682157
  0
LINE
  5
2C9
100
AcDbEntity
  8
0
100
AcDbLine
 62
7
  6
CONTINUOUS
 10
9.7978905083
 20
-13.415980322
 11
9.7978905083
 21
-3.2916711763
  0
LINE
  5
2CA
100
AcDbEntity
  8
0
100
AcDbLine
 62
7
  6
CONTINUOUS
 10
9.2512217836
 20
-20.7462630497
 11
9.7978905083
 21
-13.415980322
  0
LWPOLYLINE
  5
2CB
100
AcDbEntity
  8
0
100
AcDbPolyline
 62
253
  6
CONTINUOUS
 90
9
 70
0
 10
-9.2297060827
 20
20.8576185454
 10
-9.2602510335
 20
20.8796669113
 10
-9.2868530637
 20
20.9031722171
 10
-9.3092542422
 20
20.9279065574
 10
-9.3272373692
 20
20.9536301099
 10
-9.3406280817
 20
20.9800934614
 10
-9.3492965445
 20
21.0070400255
 10
-9.353158709
 20
21.0342085304
 10
-9.3532851254
 20
21.0474739966
  0
LINE
  5
2CC
100
AcDbEntity
  8
0
100
AcDbLine
 62
7
  6
CONTINUOUS
 10
6.95788691
 20
16.4017204386
 11
6.285242045
 21
16.271849917
  0
LWPOLYLINE
  5
2CD
100
AcDbEntity
  8
0
100
AcDbPolyline
 62
253
  6
CONTINUOUS
 90
16
 70
0
 10
5.5189921506
 20
12.3419150098
 10
5.557603735
 20
12.324033057
 10
5.5990284392
 20
12.3082602728
 10
5.6428646209
 20
12.2947495858
 10
5.6886872566
 20
12.283631992
 10
5.7360520628
 20
12.2750152844
 10
5.7844998033
 20
12.268983008
 10
5.8335607423
 20
12.2655936499
 10
5.8827591985
 20
12.2648800725
 10
5.9316181574
 20
12.2668491945
 10
5.979663896
 20
12.2714819238
 10
6.0264305762
 20
12.2787333428
 10
6.0714647611
 20
12.2885331436
 10
6.1143298118
 20
12.3007863101
 10
6.1546101206
 20
12.3153740391
 10
6.1919151409
 20
12.3321548918
  0
LINE
  5
2CE
100
AcDbEntity
  8
0
100
AcDbLine
 62
253
  6
CONTINUOUS
 10
6.3121304362
 20
13.749568619
 11
5.8039845678
 21
14.0049762108
  0
LWPOLYLINE
  5
2CF
100
AcDbEntity
  8
0
100
AcDbPolyline
 62
253
  6
CONTINUOUS
 90
31
 70
0
 10
5.5189837219
 20
12.3419098685
 10
5.0102048122
 20
12.5990543128
 10
4.5036075089
 20
12.8574038333
 10
3.9991983401
 20
13.1169524363
 10
3.4971011124
 20
13.3776329639
 10
2.9972040098
 20
13.6395000013
 10
2.4991640926
 20
13.9027327043
 10
2.0028312806
 20
14.1674133269
 10
1.5083774707
 20
14.433453255
 10
1.0159450936
 20
14.7007768568
 10
0.5255758324
 20
14.9693613467
 10
0.037244925
 20
15.2392200937
 10
-0.449006925
 20
15.5103304415
 10
-0.9332379692
 20
15.7827250545
 10
-1.4153731431
 20
16.0563618036
 10
-1.8951751706
 20
16.3311038543
 10
-2.3723317761
 20
16.606766228
 10
-2.847148034
 20
16.8835189613
 10
-3.32030672
 20
17.1617611602
 10
-3.7909045336
 20
17.4409601454
 10
-4.2598253494
 20
17.7216407186
 10
-4.7303784589
 20
18.0058184967
 10
-5.2017187741
 20
18.2930338757
 10
-5.6745789171
 20
18.5837891241
 10
-6.1545084724
 20
18.8816112938
 10
-6.6415245255
 20
19.1866665761
 10
-7.1353158007
 20
19.4989253299
 10
-7.6407756096
 20
19.8217069723
 10
-8.1593385196
 20
20.1562122739
 10
-8.6890670618
 20
20.5014772028
 10
-9.2297060845
 20
20.8576185331
  0
LWPOLYLINE
  5
2D0
100
AcDbEntity
  8
0
100
AcDbPolyline
 62
253
  6
CONTINUOUS
 90
30
 70
0
 10
5.8039845678
 20
14.0049762108
 10
5.2980924998
 20
14.2616356237
 10
4.7944542321
 20
14.5195468577
 10
4.293205776
 20
14.7786392911
 10
3.7942111201
 20
15.0389835455
 10
3.2970622309
 20
15.3007914857
 10
2.8015543168
 20
15.5641692833
 10
2.3078921693
 20
15.8290107666
 10
1.816282129
 20
16.0952092858
 10
1.3267800173
 20
16.3627365206
 10
0.8393300128
 20
16.6316207912
 10
0.3539709919
 20
16.9018404094
 10
-0.1293684506
 20
17.1734380655
 10
-0.6106169095
 20
17.4463710691
 10
-1.0895212928
 20
17.7204896607
 10
-1.5657834457
 20
17.995618149
 10
-2.039701523
 20
18.2719322253
 10
-2.5119168977
 20
18.5498092044
 10
-2.9815361991
 20
18.8286760262
 10
-3.4494527978
 20
19.1091057508
 10
-3.9189881789
 20
19.3931948728
 10
-4.3894417655
 20
19.680410495
 10
-4.8615141345
 20
19.9712855147
 10
-5.3406285016
 20
20.2695151185
 10
-5.8271184476
 20
20.575166847
 10
-6.3206503919
 20
20.8881731595
 10
-6.8256468082
 20
21.2120266212
 10
-7.3435818546
 20
21.5478914203
 10
-7.8729813732
 20
21.8946033685
 10
-8.4138453638
 20
22.2521624659
  0
LWPOLYLINE
  5
2D1
100
AcDbEntity
  8
0
100
AcDbPolyline
 62
253
  6
CONTINUOUS
 90
16
 70
0
 10
6.3121304361
 20
13.7495686189
 10
6.3481793664
 20
13.7254704303
 10
6.3840364004
 20
13.6972938564
 10
6.4193093654
 20
13.6653470679
 10
6.4536124765
 20
13.6299794706
 10
6.4865705565
 20
13.5915778845
 10
6.5178231389
 20
13.5505623125
 10
6.5470284106
 20
13.5073813472
 10
6.5738669497
 20
13.462507264
 10
6.5980452198
 20
13.4164308563
 10
6.6192987803
 20
13.3696560676
 10
6.6373951783
 20
13.3226944795
 10
6.6521364912
 20
13.2760597166
 10
6.6633614916
 20
13.2302618291
 10
6.6709474102
 20
13.1858017143
 10
6.6748112788
 20
13.1431656378
  0
LWPOLYLINE
  5
2D2
100
AcDbEntity
  8
0
100
AcDbPolyline
 62
253
  6
CONTINUOUS
 90
9
 70
0
 10
-8.4138453639
 20
22.2521624659
 10
-8.4516202303
 20
22.2706891404
 10
-8.4887795104
 20
22.284671107
 10
-8.5249167826
 20
22.2939554574
 10
-8.5596368161
 20
22.2984406638
 10
-8.5925598614
 20
22.298077685
 10
-8.6233258098
 20
22.2928705165
 10
-8.6515981763
 20
22.2828761443
 10
-8.6736957355
 20
22.2705246415
  0
LINE
  5
2D3
100
AcDbEntity
  8
0
100
AcDbLine
 62
7
  6
CONTINUOUS
 10
6.0920568798
 20
16.2974587521
 11
3.7097717837
 21
17.6729603096
  0
LINE
  5
2D4
100
AcDbEntity
  8
0
100
AcDbLine
 62
7
  6
CONTINUOUS
 10
-1.8275390695
 20
20.8701341974
 11
-4.2098241656
 21
22.2456357548
  0
LINE
  5
2D5
100
AcDbEntity
  8
0
100
AcDbLine
 62
7
  6
CONTINUOUS
 10
8.8664346961
 20
15.2997488666
 11
6.95788691
 21
16.4017204386
  0
LINE
  5
2D6
100
AcDbEntity
  8
0
100
AcDbLine
 62
7
  6
CONTINUOUS
 10
3.838242623
 20
18.2029639516
 11
-0.9617090393
 21
20.9743958839
  0
LINE
  5
2D7
100
AcDbEntity
  8
0
100
AcDbLine
 62
7
  6
CONTINUOUS
 10
-4.0813533263
 20
22.7756393969
 11
-5.9899011124
 21
23.8776109688
  0
LINE
  5
2D8
100
AcDbEntity
  8
0
100
AcDbLine
 62
7
  6
CONTINUOUS
 10
-0.9617090393
 20
20.9743958839
 11
-1.6343539042
 21
20.8445253622
  0
LWPOLYLINE
  5
2D9
100
AcDbEntity
  8
0
100
AcDbPolyline
 62
253
  6
CONTINUOUS
 90
9
 70
0
 10
6.5502615696
 20
-22.2457718569
 10
6.5738684826
 20
-22.2318485593
 10
6.5980465502
 20
-22.2116255563
 10
6.6192998483
 20
-22.1868633516
 10
6.6373959569
 20
-22.1578328
 10
6.6521369872
 20
-22.12485143
 10
6.6633617418
 20
-22.0882799786
 10
6.6709474796
 20
-22.0485184492
 10
6.6748112617
 20
-22.006001727
  0
LINE
  5
2DA
100
AcDbEntity
  8
0
100
AcDbLine
 62
253
  6
CONTINUOUS
 10
9.2512217836
 20
-20.7462630497
 11
6.6748112617
 21
-22.006001727
  0
LINE
  5
2DB
100
AcDbEntity
  8
0
100
AcDbLine
 62
7
  6
CONTINUOUS
 10
9.1143312364
 20
-20.9920672539
 11
6.5502615696
 21
-22.2457718569
  0
LWPOLYLINE
  5
2DC
100
AcDbEntity
  8
0
100
AcDbPolyline
 62
253
  6
CONTINUOUS
 90
22
 70
0
 10
6.6748112617
 20
-22.006001727
 10
6.6389604772
 20
-22.0220914034
 10
6.6037138928
 20
-22.0351219863
 10
6.5690715085
 20
-22.0450934756
 10
6.5348518323
 20
-22.0520327209
 10
6.5012363563
 20
-22.0559128727
 10
6.4687695569
 20
-22.0566533826
 10
6.4374843178
 20
-22.0541996985
 10
6.4073477554
 20
-22.0486063724
 10
6.378805695
 20
-22.039956512
 10
6.3518818497
 20
-22.0282031205
 10
6.3265525063
 20
-22.0133931947
 10
6.3031923512
 20
-21.9957508327
 10
6.2818328068
 20
-21.9752345866
 10
6.2624424507
 20
-21.9518859044
 10
6.2453017016
 20
-21.9260532284
 10
6.2304427239
 20
-21.897683153
 10
6.2178333533
 20
-21.8668290837
 10
6.2076575161
 20
-21.8339996798
 10
6.1999765211
 20
-21.7993644941
 10
6.1947290596
 20
-21.7627539738
 10
6.1919151315
 20
-21.7241681188
  0
ELLIPSE
  5
2DD
100
AcDbEntity
  8
0
100
AcDbEllipse
 62
7
  6
CONTINUOUS
 10
8.8975905448
 20
-20.5414745338
 30
0.0
 11
-0.2148753492
 21
0.4514925988
 31
0.0
 40
0.626010046
 41
-3.1349764991
 42
-2.3100583745
  0
ELLIPSE
  5
2DE
100
AcDbEntity
  8
0
100
AcDbEllipse
 62
7
  6
CONTINUOUS
 10
9.4442159223
 20
-3.0875571613
 30
0.0
 11
-0.2501454382
 21
0.4329727255
 31
0.0
 40
0.577463496
 41
-2.3564333972
 42
-0.7858655045
  0
ELLIPSE
  5
2DF
100
AcDbEntity
  8
0
100
AcDbEllipse
 62
7
  6
CONTINUOUS
 10
-5.9593909791
 20
23.4886703944
 30
0.0
 11
-0.2806490066
 21
0.4138128862
 31
0.0
 40
0.5253010868
 41
-0.8257150379
 42
-0.0027521587
  0
ELLIPSE
  5
2E0
100
AcDbEntity
  8
0
100
AcDbEllipse
 62
7
  6
CONTINUOUS
 10
8.8975905448
 20
14.9104354643
 30
0.0
 11
-0.280860955
 21
0.4142191515
 31
0.0
 40
0.5243459323
 41
-2.3941007373
 42
-0.8246744066
  0
ELLIPSE
  5
2E1
100
AcDbEntity
  8
0
100
AcDbEllipse
 62
7
  6
CONTINUOUS
 10
9.4442159223
 20
-1.9444676839
 30
0.0
 11
-0.2502024655
 21
0.4330717124
 31
0.0
 40
0.5771997317
 41
-3.1590443311
 42
-2.3566615088
  0
ELLIPSE
  5
2E2
100
AcDbEntity
  8
0
100
AcDbEllipse
 62
7
  6
CONTINUOUS
 10
6.233478236
 20
16.3876715496
 30
0.0
 11
0.1999154856
 21
0.0095814127
 31
0.0
 40
0.6067642562
 41
-2.385266879
 42
-1.3380693278
  0
ELLIPSE
  5
2E3
100
AcDbEntity
  8
0
100
AcDbEllipse
 62
7
  6
CONTINUOUS
 10
-1.6861177133
 20
20.9603469949
 30
0.0
 11
0.1999154856
 21
0.0095814127
 31
0.0
 40
0.6067642562
 41
-2.385266879
 42
-1.3380693278
  0
ELLIPSE
  5
2E4
100
AcDbEntity
  8
0
100
AcDbEllipse
 62
7
  6
CONTINUOUS
 10
3.8511931399
 20
17.763173107
 30
0.0
 11
0.1999154856
 21
0.0095814127
 31
0.0
 40
0.6067642562
 41
2.850720877
 42
3.8979184282
  0
ELLIPSE
  5
2E5
100
AcDbEntity
  8
0
100
AcDbEllipse
 62
7
  6
CONTINUOUS
 10
-4.0684028094
 20
22.3358485523
 30
0.0
 11
0.1999154856
 21
0.0095814127
 31
0.0
 40
0.6067642562
 41
2.850720877
 42
3.8979184282
  0
ENDSEC
  0
SECTION
  2
OBJECTS
  0
DICTIONARY
  5
C
100
AcDbDictionary
280
0
281
1
  3
ACAD_GROUP
350
D
  3
ACAD_MLINESTYLE
350
17
  3
ACAD_LAYOUT
350
1A
  3
ACAD_PLOTSETTINGS
350
19
  3
ACAD_PLOTSTYLENAME
350
E
  0
DICTIONARY
  5
D
102
{ACAD_REACTORS
330
C
102
}
100
AcDbDictionary
280
0
281
1
  0
ACDBDICTIONARYWDFLT
  5
E
102
{ACAD_REACTORS
330
C
102
}
100
AcDbDictionary
281
1
  3
Normal
350
F
100
AcDbDictionaryWithDefault
340
F
  0
DICTIONARY
  5
17
102
{ACAD_REACTORS
330
C
102
}
100
AcDbDictionary
280
0
281
1
  3
Standard
350
18
  0
DICTIONARY
  5
19
102
{ACAD_REACTORS
330
C
102
}
100
AcDbDictionary
281
1
  0
DICTIONARY
  5
1A
102
{ACAD_REACTORS
330
C
102
}
100
AcDbDictionary
281
1
  3
Model
350
2E6
  3
Layout1
350
2E7
  0
ACDBPLACEHOLDER
  5
F
102
{ACAD_REACTORS
330
E
102
}
  0
MLINESTYLE
  5
18
102
{ACAD_REACTORS
330
17
102
}
100
AcDbMlineStyle
  2
STANDARD
 70
0
  3

 62
256
 51
90.0
 52
90.0
 71
2
 49
0.5
 62
256
  6
BYLAYER
 49
-0.5
 62
256
  6
BYLAYER
  0
LAYOUT
  5
2E6
102
{ACAD_REACTORS
330
1A
102
}
100
AcDbPlotSettings
  1

  2
none_device
  4
ISO_A4_(297.00_x_210.00_MM)
  6

 40
0.0
 41
0.0
 42
0.0
 43
0.0
 44
297.0
 45
210.0
 46
0.0
 47
0.0
 48
0.0
 49
0.0
140
0.0
141
0.0
142
1.0
143
1.0
 70
1024
 72
1
 73
0
 74
0
  7

 75
0
147
1.0
148
0.0
149
0.0
100
AcDbLayout
  1
Model
 70
0
 71
0
 10
0.0
 20
0.0
 11
297.0
 21
210.0
 12
0.0
 22
0.0
 32
0.0
 14
0.0
 24
0.0
 34
0.0
 15
0.0
 25
0.0
 35
0.0
146
0.0
 13
0.0
 23
0.0
 33
0.0
 16
1.0
 26
0.0
 36
0.0
 17
0.0
 27
1.0
 37
0.0
 76
0
330
220
345
0
346
0
  0
LAYOUT
  5
2E7
102
{ACAD_REACTORS
330
1A
102
}
100
AcDbPlotSettings
  1

  2
none_device
  4
ISO_A4_(297.00_x_210.00_MM)
  6

 40
0.0
 41
0.0
 42
0.0
 43
0.0
 44
297.0
 45
210.0
 46
0.0
 47
0.0
 48
0.0
 49
0.0
140
0.0
141
0.0
142
1.0
143
1.0
 70
0
 72
1
 73
0
 74
0
  7

 75
0
147
1.0
148
0.0
149
0.0
100
AcDbLayout
  1
Layout1
 70
0
 71
1
 10
0.0
 20
0.0
 11
297.0
 21
210.0
 12
0.0
 22
0.0
 32
0.0
 14
0.0
 24
0.0
 34
0.0
 15
0.0
 25
0.0
 35
0.0
146
0.0
 13
0.0
 23
0.0
 33
0.0
 16
1.0
 26
0.0
 36
0.0
 17
0.0
 27
1.0
 37
0.0
 76
0
330
221
345
0
346
0
  0
ENDSEC
  0
EOF
