  0
SECTION
  2
HEADER
  9
$ACADVER
  1
AC1021
  9
$DWGCODEPAGE
  3
ANSI_1252
  9
$EXTMAX
 10
297.0
 20
210.0
 30
0.0
  9
$EXTMIN
 10
0.0
 20
0.0
 30
0.0
  9
$LIMMIN
 10
0.0
 20
0.0
  9
$LIMMAX
 10
297.0
 20
210.0
  9
$VIEWCTR
 10
148.5
 20
105.0
  9
$VIEWSIZE
 40
210.0
  9
$CLAYER
  8
0
  9
$LTSCALE
 40
16.335
  9
$CELTYPE
  6
BYLAYER
  9
$DIMSCALE
 40
1.0
  9
$DIMASZ
 40
3.0
  9
$DIMEXO
 40
0.5
  9
$DIMDLI
 40
11.286
  9
$DIMEXE
 40
1.5
  9
$DIMCEN
 40
2.673
  9
$DIMLFAC
 40
1.0
  9
$DIMBLK
  1
_FILLED
  9
$DIMALT
 70
0
  9
$DIMALTF
 40
25.4
  9
$DIMTXT
 40
3.0
  9
$DIMTOL
 70
1
  9
$DIMLIM
 70
0
  9
$DIMTFAC
 40
1.0
  9
$DIMTP
 40
0.01
  9
$DIMTM
 40
0.01
  9
$DIMGAP
 40
0.625
  9
$DIMDSEP
 70
44
  9
$AUNITS
 70
0
  9
$PDMODE
 70
3
  9
$PDSIZE
 40
3.0
  9
$HANDSEED
  5
28A
  9
$TILEMODE
 70
1
  9
$MEASUREMENT
 70
1
  9
$INSUNITS
 70
4
  0
ENDSEC
  0
SECTION
  2
CLASSES
  0
CLASS
  1
ACDBDICTIONARYWDFLT
  2
AcDbDictionaryWithDefault
  3
AutoCAD 2000
 90
0
 91
1
280
0
281
0
  0
CLASS
  1
ACDBPLACEHOLDER
  2
AcDbPlaceHolder
  3
AutoCAD 2000
 90
0
 91
1
280
0
281
0
  0
CLASS
  1
LAYOUT
  2
AcDbLayout
  3
AutoCAD 2000
 90
0
 91
0
280
0
281
0
  0
ENDSEC
  0
SECTION
  2
TABLES
  0
TABLE
  2
VPORT
  5
8
100
AcDbSymbolTable
 70
2
  0
VPORT
  5
1F4
100
AcDbSymbolTableRecord
100
AcDbViewportTableRecord
  2
*ACTIVE
 70
0
 10
0.0
 20
0.0
 11
1.0
 21
1.0
 12
148.5
 22
105.0
 13
0.0
 23
0.0
 14
1.0
 24
1.0
 15
0.0
 25
0.0
 16
0.0
 26
0.0
 36
1.0
 17
0.0
 27
0.0
 37
0.0
 40
210.0
 41
1.4142857143
 42
50.0
 43
0.0
 44
0.0
 50
0.0
 51
0.0
 71
0
 72
100
 73
1
 74
1
 75
0
 76
0
 77
0
 78
0
  0
ENDTAB
  0
TABLE
  2
LTYPE
  5
5
100
AcDbSymbolTable
 70
6
  0
LTYPE
  5
14
100
AcDbSymbolTableRecord
100
AcDbLinetypeTableRecord
  2
BYBLOCK
 70
0
  3

 72
65
 73
0
 40
0.0
  0
LTYPE
  5
15
100
AcDbSymbolTableRecord
100
AcDbLinetypeTableRecord
  2
BYLAYER
 70
0
  3

 72
65
 73
0
 40
0.0
  0
LTYPE
  5
16
100
AcDbSymbolTableRecord
100
AcDbLinetypeTableRecord
  2
CONTINUOUS
 70
64
  3
Solid line
 72
65
 73
0
 40
0.0
  0
LTYPE
  5
1F5
100
AcDbSymbolTableRecord
100
AcDbLinetypeTableRecord
  2
CENTER
 70
64
  3
____ _ ____ _ ____ _ ____ _ ____ _ ____ _ ____
 72
65
 73
4
 40
0.6
 49
0.375
 74
0
 49
-0.075
 74
0
 49
0.075
 74
0
 49
-0.075
 74
0
  0
LTYPE
  5
1F6
100
AcDbSymbolTableRecord
100
AcDbLinetypeTableRecord
  2
HIDDEN
 70
64
  3
- - - - - - - - - - - - - - - - - - - -
 72
65
 73
2
 40
0.2
 49
0.1
 74
0
 49
-0.1
 74
0
  0
LTYPE
  5
1F7
100
AcDbSymbolTableRecord
100
AcDbLinetypeTableRecord
  2
PHANTOM
 70
64
  3
_____ _ _ _____ _ _ _____ _ _ _____
 72
65
 73
6
 40
0.8
 49
0.45
 74
0
 49
-0.05
 74
0
 49
0.1
 74
0
 49
-0.05
 74
0
 49
0.1
 74
0
 49
-0.05
 74
0
  0
LTYPE
  5
1F8
100
AcDbSymbolTableRecord
100
AcDbLinetypeTableRecord
  2
DOT
 70
64
  3
. . . . . . . . . . . . . . . . . . . .
 72
65
 73
2
 40
0.2
 49
0.1
 74
0
 49
-0.1
 74
0
  0
LTYPE
  5
1F9
100
AcDbSymbolTableRecord
100
AcDbLinetypeTableRecord
  2
DASHED
 70
64
  3
- - - - - - - - - - - - - - - - - - - -
 72
65
 73
2
 40
0.2
 49
0.1
 74
0
 49
-0.1
 74
0
  0
ENDTAB
  0
TABLE
  2
LAYER
  5
2
100
AcDbSymbolTable
 70
36
  0
LAYER
  5
10
100
AcDbSymbolTableRecord
100
AcDbLayerTableRecord
  2
0
 70
0
 62
7
  6
CONTINUOUS
370
-3
390
F
  0
LAYER
  5
1FA
100
AcDbSymbolTableRecord
100
AcDbLayerTableRecord
  2
DEFAULT_1
 70
0
 62
7
  6
CENTER
370
-3
390
F
  0
LAYER
  5
1FB
100
AcDbSymbolTableRecord
100
AcDbLayerTableRecord
  2
DEFAULT_2
 70
0
 62
7
  6
HIDDEN
370
-3
390
F
  0
LAYER
  5
1FC
100
AcDbSymbolTableRecord
100
AcDbLayerTableRecord
  2
DEFAULT_3
 70
0
 62
7
  6
PHANTOM
370
-3
390
F
  0
LAYER
  5
1FD
100
AcDbSymbolTableRecord
100
AcDbLayerTableRecord
  2
ASSI
 70
0
 62
7
  6
CONTINUOUS
370
-3
390
F
  0
LAYER
  5
1FE
100
AcDbSymbolTableRecord
100
AcDbLayerTableRecord
  2
COLOR3
 70
0
 62
7
  6
CONTINUOUS
370
-3
390
F
  0
LAYER
  5
1FF
100
AcDbSymbolTableRecord
100
AcDbLayerTableRecord
  2
COORDINATE
 70
0
 62
7
  6
CONTINUOUS
370
-3
390
F
  0
LAYER
  5
200
100
AcDbSymbolTableRecord
100
AcDbLayerTableRecord
  2
COPY_PUBLISH
 70
0
 62
7
  6
CONTINUOUS
370
-3
390
F
  0
LAYER
  5
201
100
AcDbSymbolTableRecord
100
AcDbLayerTableRecord
  2
COSMETIC
 70
0
 62
7
  6
CONTINUOUS
370
-3
390
F
  0
LAYER
  5
202
100
AcDbSymbolTableRecord
100
AcDbLayerTableRecord
  2
COSMETICI
 70
0
 62
7
  6
CONTINUOUS
370
-3
390
F
  0
LAYER
  5
203
100
AcDbSymbolTableRecord
100
AcDbLayerTableRecord
  2
CURVE
 70
0
 62
7
  6
CONTINUOUS
370
-3
390
F
  0
LAYER
  5
204
100
AcDbSymbolTableRecord
100
AcDbLayerTableRecord
  2
DRAFT
 70
0
 62
7
  6
CONTINUOUS
370
-3
390
F
  0
LAYER
  5
205
100
AcDbSymbolTableRecord
100
AcDbLayerTableRecord
  2
IMPORT_IGES
 70
0
 62
7
  6
CONTINUOUS
370
-3
390
F
  0
LAYER
  5
206
100
AcDbSymbolTableRecord
100
AcDbLayerTableRecord
  2
INTFCLR_1
 70
0
 62
7
  6
CONTINUOUS
370
-3
390
F
  0
LAYER
  5
207
100
AcDbSymbolTableRecord
100
AcDbLayerTableRecord
  2
INTF_10
 70
0
 62
7
  6
CONTINUOUS
370
-3
390
F
  0
LAYER
  5
208
100
AcDbSymbolTableRecord
100
AcDbLayerTableRecord
  2
INTF_13
 70
0
 62
7
  6
CONTINUOUS
370
-3
390
F
  0
LAYER
  5
209
100
AcDbSymbolTableRecord
100
AcDbLayerTableRecord
  2
INTF_15
 70
0
 62
7
  6
CONTINUOUS
370
-3
390
F
  0
LAYER
  5
20A
100
AcDbSymbolTableRecord
100
AcDbLayerTableRecord
  2
INTF_16
 70
0
 62
7
  6
CONTINUOUS
370
-3
390
F
  0
LAYER
  5
20B
100
AcDbSymbolTableRecord
100
AcDbLayerTableRecord
  2
INTF_18
 70
0
 62
7
  6
CONTINUOUS
370
-3
390
F
  0
LAYER
  5
20C
100
AcDbSymbolTableRecord
100
AcDbLayerTableRecord
  2
INTF_20
 70
0
 62
7
  6
CONTINUOUS
370
-3
390
F
  0
LAYER
  5
20D
100
AcDbSymbolTableRecord
100
AcDbLayerTableRecord
  2
INTF_3
 70
0
 62
7
  6
CONTINUOUS
370
-3
390
F
  0
LAYER
  5
20E
100
AcDbSymbolTableRecord
100
AcDbLayerTableRecord
  2
INTF_5
 70
0
 62
7
  6
CONTINUOUS
370
-3
390
F
  0
LAYER
  5
20F
100
AcDbSymbolTableRecord
100
AcDbLayerTableRecord
  2
INTF_8
 70
0
 62
7
  6
CONTINUOUS
370
-3
390
F
  0
LAYER
  5
210
100
AcDbSymbolTableRecord
100
AcDbLayerTableRecord
  2
NOTE
 70
0
 62
7
  6
CONTINUOUS
370
-3
390
F
  0
LAYER
  5
211
100
AcDbSymbolTableRecord
100
AcDbLayerTableRecord
  2
PIANI
 70
0
 62
7
  6
CONTINUOUS
370
-3
390
F
  0
LAYER
  5
212
100
AcDbSymbolTableRecord
100
AcDbLayerTableRecord
  2
PUNTI
 70
0
 62
7
  6
CONTINUOUS
370
-3
390
F
  0
LAYER
  5
213
100
AcDbSymbolTableRecord
100
AcDbLayerTableRecord
  2
RACCORDO
 70
0
 62
7
  6
CONTINUOUS
370
-3
390
F
  0
LAYER
  5
214
100
AcDbSymbolTableRecord
100
AcDbLayerTableRecord
  2
SIMBOLI
 70
0
 62
7
  6
CONTINUOUS
370
-3
390
F
  0
LAYER
  5
215
100
AcDbSymbolTableRecord
100
AcDbLayerTableRecord
  2
SMUSSO
 70
0
 62
7
  6
CONTINUOUS
370
-3
390
F
  0
LAYER
  5
216
100
AcDbSymbolTableRecord
100
AcDbLayerTableRecord
  2
SNAPLINE
 70
0
 62
7
  6
CONTINUOUS
370
-3
390
F
  0
LAYER
  5
217
100
AcDbSymbolTableRecord
100
AcDbLayerTableRecord
  2
SOLIDO
 70
0
 62
7
  6
CONTINUOUS
370
-3
390
F
  0
LAYER
  5
218
100
AcDbSymbolTableRecord
100
AcDbLayerTableRecord
  2
SUPERFICI
 70
0
 62
7
  6
CONTINUOUS
370
-3
390
F
  0
LAYER
  5
219
100
AcDbSymbolTableRecord
100
AcDbLayerTableRecord
  2
SUPERFICI_SKEL
 70
0
 62
7
  6
CONTINUOUS
370
-3
390
F
  0
LAYER
  5
21A
100
AcDbSymbolTableRecord
100
AcDbLayerTableRecord
  2
TRASH
 70
0
 62
7
  6
CONTINUOUS
370
-3
390
F
  0
LAYER
  5
21B
100
AcDbSymbolTableRecord
100
AcDbLayerTableRecord
  2
___SHELL
 70
0
 62
7
  6
CONTINUOUS
370
-3
390
F
  0
ENDTAB
  0
TABLE
  2
STYLE
  5
3
100
AcDbSymbolTable
 70
1
  0
STYLE
  5
11
100
AcDbSymbolTableRecord
100
AcDbTextStyleTableRecord
  2
STANDARD
 70
0
 40
0.0
 41
0.8
 50
0.0
 71
0
 42
0.2
  3
txt
  4

  0
STYLE
  5
21C
100
AcDbSymbolTableRecord
100
AcDbTextStyleTableRecord
  2
TEXTSTYLE_1
 70
0
 40
0.0
 41
0.8
 50
0.0
 71
0
 42
0.2
  3
gdt
  4

  0
ENDTAB
  0
TABLE
  2
VIEW
  5
6
100
AcDbSymbolTable
 70
0
  0
ENDTAB
  0
TABLE
  2
UCS
  5
7
100
AcDbSymbolTable
 70
0
  0
ENDTAB
  0
TABLE
  2
APPID
  5
9
100
AcDbSymbolTable
 70
1
  0
APPID
  5
21D
100
AcDbSymbolTableRecord
100
AcDbRegAppTableRecord
  2
ACAD
 70
0
  0
ENDTAB
  0
TABLE
  2
BLOCK_RECORD
  5
1
100
AcDbSymbolTable
 70
0
  0
BLOCK_RECORD
  5
21E
100
AcDbSymbolTableRecord
100
AcDbBlockTableRecord
  2
*Model_Space
  0
BLOCK_RECORD
  5
21F
100
AcDbSymbolTableRecord
100
AcDbBlockTableRecord
  2
*Paper_Space
  0
ENDTAB
  0
TABLE
  2
DIMSTYLE
  5
A
100
AcDbSymbolTable
 70
1
100
AcDbDimStyleTable
 71
0
  0
DIMSTYLE
105
220
100
AcDbSymbolTableRecord
100
AcDbDimStyleTableRecord
  2
STANDARD
 70
0
  3

  4

 40
1.0
 41
3.0
 42
0.5
 43
0.38
 44
1.5
 45
0.0
 46
0.0
 47
0.01
 48
0.01
140
3.0
141
0.09
142
0.0
143
25.4
144
1.0
145
0.0
146
1.0
147
0.625
 71
1.0
 72
0.0
 73
0
 74
0
 75
0
 76
0
 77
1
 78
8
170
0
171
1
172
0
173
0
174
0
175
0
176
0
177
0
178
0
270
2
271
2
272
2
273
2
274
2
275
0
280
0
281
0
282
0
283
1
284
8
285
0
286
0
287
3
288
0
340
11
278
44
  0
ENDTAB
  0
ENDSEC
  0
SECTION
  2
BLOCKS
  0
BLOCK
  5
20
100
AcDbEntity
  8
0
100
AcDbBlockBegin
  2
*Model_Space
 70
0
 10
0.0
 20
0.0
 30
0.0
  3
*Model_Space
  1

  0
ENDBLK
  5
21
100
AcDbEntity
  8
0
100
AcDbBlockEnd
  0
BLOCK
  5
1C
100
AcDbEntity
  8
0
100
AcDbBlockBegin
  2
*Paper_Space
 70
0
 10
0.0
 20
0.0
 30
0.0
  3
*Paper_Space
  1

  0
ENDBLK
  5
1D
100
AcDbEntity
  8
0
100
AcDbBlockEnd
  0
ENDSEC
  0
SECTION
  2
ENTITIES
  0
LINE
  5
221
100
AcDbEntity
  8
0
100
AcDbLine
 62
7
  6
CONTINUOUS
 10
-8.8600006276
 20
22.125152145
 11
-8.8601208647
 21
22.1250715965
  0
LWPOLYLINE
  5
222
100
AcDbEntity
  8
0
100
AcDbPolyline
 62
7
  6
CONTINUOUS
 90
19
 70
0
 10
-8.8599969466
 20
22.1251466477
 10
-8.8987053745
 20
22.098099582
 10
-8.9659806017
 20
22.0457109819
 10
-9.0301132348
 20
21.9889202198
 10
-9.0911269995
 20
21.928042606
 10
-9.1489991258
 20
21.8633764676
 10
-9.203544787
 20
21.7953351765
 10
-9.2546816027
 20
21.7242207611
 10
-9.3022966322
 20
21.6502872091
 10
-9.3461122391
 20
21.5740394787
 10
-9.3860085477
 20
21.4957495506
 10
-9.4218244913
 20
21.4156642424
 10
-9.4533034855
 20
21.3342938766
 10
-9.4802880889
 20
21.2518721265
 10
-9.5025865061
 20
21.16861546
 10
-9.5199647885
 20
21.0848763957
 10
-9.5321828123
 20
21.0008289569
 10
-9.5389797471
 20
20.9166444128
 10
-9.5395823086
 20
20.9021012327
  0
LINE
  5
223
100
AcDbEntity
  8
0
100
AcDbLine
 62
7
  6
CONTINUOUS
 10
-6.4257455034
 20
23.7575149929
 11
-8.8601208647
 21
22.1250715965
  0
LINE
  5
224
100
AcDbEntity
  8
0
100
AcDbLine
 62
253
  6
CONTINUOUS
 10
-6.1762060045
 20
23.7322384724
 11
-8.6001502559
 21
22.1067899694
  0
LWPOLYLINE
  5
225
100
AcDbEntity
  8
0
100
AcDbPolyline
 62
253
  6
CONTINUOUS
 90
22
 70
0
 10
-8.600150256
 20
22.1067899694
 10
-8.6604380859
 20
22.0668088956
 10
-8.7202286172
 20
22.0223403128
 10
-8.7792116534
 20
21.973596592
 10
-8.8370656322
 20
21.9208038883
 10
-8.8935068916
 20
21.8642232328
 10
-8.9482906612
 20
21.8041480123
 10
-9.0011371185
 20
21.7408639082
 10
-9.0517683595
 20
21.6746778494
 10
-9.0999577109
 20
21.6059384908
 10
-9.1454575063
 20
21.5349812811
 10
-9.1880318949
 20
21.4621468564
 10
-9.2274934251
 20
21.3878088734
 10
-9.2636413406
 20
21.3123290947
 10
-9.2962869694
 20
21.2360731723
 10
-9.3252869333
 20
21.1594295057
 10
-9.3504934483
 20
21.0827787553
 10
-9.3717770994
 20
21.0064868425
 10
-9.3890490393
 20
20.9309209922
 10
-9.4022249138
 20
20.8564491817
 10
-9.4112282436
 20
20.7834380184
 10
-9.4160109868
 20
20.7122460363
  0
LWPOLYLINE
  5
226
100
AcDbEntity
  8
0
100
AcDbPolyline
 62
253
  6
CONTINUOUS
 90
16
 70
0
 10
5.3326788309
 20
-21.8947993704
 10
5.3712909295
 20
-21.9121898663
 10
5.4127162207
 20
-21.9271364071
 10
5.4565530482
 20
-21.9394940722
 10
5.5023763738
 20
-21.9491430429
 10
5.5497418987
 20
-21.9559897636
 10
5.5981903705
 20
-21.959967849
 10
5.647252037
 20
-21.961038728
 10
5.6964512006
 20
-21.9591920174
 10
5.7453108302
 20
-21.9544456227
 10
5.7933571871
 20
-21.9468455645
 10
5.8401244178
 20
-21.9364655325
 10
5.8851590712
 20
-21.9234061704
 10
5.9280244953
 20
-21.9077941008
 10
5.9683050703
 20
-21.889780697
 10
6.0056102394
 20
-21.8695406153
  0
LWPOLYLINE
  5
227
100
AcDbEntity
  8
0
100
AcDbPolyline
 62
7
  6
CONTINUOUS
 90
12
 70
0
 10
5.59488384
 20
-22.4099352257
 10
5.651081114
 20
-22.4356242403
 10
5.7144098505
 20
-22.4582377914
 10
5.7801639387
 20
-22.4753206244
 10
5.8479381003
 20
-22.4866879435
 10
5.9172691322
 20
-22.4921932875
 10
5.9881727439
 20
-22.4917236139
 10
6.060325643
 20
-22.4851278502
 10
6.1333341975
 20
-22.4723068651
 10
6.2072760499
 20
-22.4530551993
 10
6.2820311822
 20
-22.4271314045
 10
6.3637721404
 20
-22.391226338
  0
LINE
  5
228
100
AcDbEntity
  8
0
100
AcDbLine
 62
7
  6
CONTINUOUS
 10
5.5948458491
 20
-22.4099217612
 11
5.594722388
 21
-22.4098590447
  0
LWPOLYLINE
  5
229
100
AcDbEntity
  8
0
100
AcDbPolyline
 62
253
  6
CONTINUOUS
 90
12
 70
0
 10
5.594722388
 20
-22.4098590447
 10
5.5534610687
 20
-22.3855910174
 10
5.5151138974
 20
-22.3561788035
 10
5.4800082301
 20
-22.3218399505
 10
5.4483033514
 20
-22.2827392046
 10
5.4201737963
 20
-22.2390814064
 10
5.395753251
 20
-22.1910846986
 10
5.3751479358
 20
-22.1389789499
 10
5.3584675122
 20
-22.0830167688
 10
5.3457953842
 20
-22.023469271
 10
5.3371857166
 20
-21.9606276316
 10
5.3326788285
 20
-21.8947993662
  0
LWPOLYLINE
  5
22A
100
AcDbEntity
  8
0
100
AcDbPolyline
 62
7
  6
CONTINUOUS
 90
10
 70
0
 10
-9.1845104686
 20
-13.8763756466
 10
-7.7080663057
 20
-14.8324946607
 10
-6.1221511257
 20
-15.830933027
 10
-4.5103743888
 20
-16.816750852
 10
-2.873096267
 20
-17.789722944
 10
-1.2106809194
 20
-18.7496297739
 10
0.4764937992
 20
-19.6962609259
 10
2.1880338444
 20
-20.629412521
 10
3.9235362798
 20
-21.5488836241
 10
5.5947193285
 20
-22.4098574898
  0
LWPOLYLINE
  5
22B
100
AcDbEntity
  8
0
100
AcDbPolyline
 62
253
  6
CONTINUOUS
 90
31
 70
0
 10
-9.4160109781
 20
-13.3790906961
 10
-8.9693921426
 20
-13.6721255882
 10
-8.5207710898
 20
-13.9639498691
 10
-8.0701581908
 20
-14.254559764
 10
-7.6176700079
 20
-14.5438839324
 10
-7.1632117407
 20
-14.8319867838
 10
-6.7064723154
 20
-15.1190658732
 10
-6.2473089172
 20
-15.4052076496
 10
-5.7858753417
 20
-15.6903130472
 10
-5.3223028026
 20
-15.9742999577
 10
-4.8566308368
 20
-16.2571443565
 10
-4.3888362019
 20
-16.5388604898
 10
-3.9189581246
 20
-16.8194248487
 10
-3.4469400776
 20
-17.0988710933
 10
-2.972854973
 20
-17.3771558515
 10
-2.4969396504
 20
-17.654142037
 10
-2.0195143543
 20
-17.929649272
 10
-1.5402847427
 20
-18.2038537902
 10
-1.0585598426
 20
-18.4771499645
 10
-0.5752602618
 20
-18.7490151085
 10
-0.0894790333
 20
-19.0199606907
 10
0.4022687742
 20
-19.2919009159
 10
0.8991916952
 20
-19.5643452188
 10
1.4021553195
 20
-19.8377190944
 10
1.917249335
 20
-20.1152377455
 10
2.4447664361
 20
-20.3969082302
 10
2.9846510952
 20
-20.6825532419
 10
3.5426202117
 20
-20.9750166682
 10
4.1207431918
 20
-21.2751327318
 10
4.7173617929
 20
-21.581776179
 10
5.3326788292
 20
-21.8947993602
  0
LINE
  5
22C
100
AcDbEntity
  8
0
100
AcDbLine
 62
7
  6
CONTINUOUS
 10
-9.1846109968
 20
-13.876309623
 11
-9.1845091444
 21
-13.8763765161
  0
LWPOLYLINE
  5
22D
100
AcDbEntity
  8
0
100
AcDbPolyline
 62
253
  6
CONTINUOUS
 90
8
 70
0
 10
-9.4160013452
 20
-13.3790854089
 10
-9.4465461457
 20
-13.3565457961
 10
-9.4731481417
 20
-13.332214566
 10
-9.4955494075
 20
-13.3063276272
 10
-9.5135327468
 20
-13.2791359726
 10
-9.526923798
 20
-13.2509032446
 10
-9.5355927253
 20
-13.22190318
 10
-9.5395376197
 20
-13.1905277657
  0
LINE
  5
22E
100
AcDbEntity
  8
0
100
AcDbLine
 62
7
  6
CONTINUOUS
 10
-4.2676582183
 20
22.6302669004
 11
-4.4478928667
 21
22.216084891
  0
LWPOLYLINE
  5
22F
100
AcDbEntity
  8
0
100
AcDbPolyline
 62
253
  6
CONTINUOUS
 90
11
 70
0
 10
-9.4160109691
 20
-13.3790906859
 10
-9.4112282262
 20
-13.445078238
 10
-9.4022248956
 20
-13.5081471806
 10
-9.3890490199
 20
-13.5679855394
 10
-9.3717770794
 20
-13.6242892547
 10
-9.3504934286
 20
-13.6767866636
 10
-9.3252869142
 20
-13.7252371784
 10
-9.2962869503
 20
-13.7693975391
 10
-9.2636413216
 20
-13.8090414619
 10
-9.2274934063
 20
-13.8439820954
 10
-9.1846109968
 20
-13.876309623
  0
LWPOLYLINE
  5
230
100
AcDbEntity
  8
0
100
AcDbPolyline
 62
253
  6
CONTINUOUS
 90
8
 70
0
 10
-9.7313449312
 20
4.0930910375
 10
-9.7295499521
 20
4.0510489639
 10
-9.7232585091
 20
4.0121422707
 10
-9.7129029395
 20
3.9763470489
 10
-9.6988583369
 20
3.9437078029
 10
-9.6809804478
 20
3.9144209739
 10
-9.6591524297
 20
3.8889070102
 10
-9.6343275794
 20
3.8679522202
  0
LWPOLYLINE
  5
231
100
AcDbEntity
  8
0
100
AcDbPolyline
 62
7
  6
CONTINUOUS
 90
13
 70
0
 10
-9.5395376197
 20
-13.1905277657
 10
-9.5391700627
 20
-13.1994031098
 10
-9.5323701346
 20
-13.2813405603
 10
-9.5196888207
 20
-13.3598139345
 10
-9.5013321698
 20
-13.4345867937
 10
-9.4775113004
 20
-13.5055779265
 10
-9.4484289371
 20
-13.5726493156
 10
-9.4143642779
 20
-13.6354911032
 10
-9.3756147419
 20
-13.6938890127
 10
-9.3324893281
 20
-13.7476529824
 10
-9.2854304608
 20
-13.7964708021
 10
-9.2348699184
 20
-13.840131021
 10
-9.1846393635
 20
-13.8762839032
  0
LINE
  5
232
100
AcDbEntity
  8
0
100
AcDbLine
 62
253
  6
CONTINUOUS
 10
-9.8489116005
 20
4.2790879758
 11
-9.8488213808
 21
4.2733921839
  0
LWPOLYLINE
  5
233
100
AcDbEntity
  8
0
100
AcDbPolyline
 62
7
  6
CONTINUOUS
 90
10
 70
0
 10
-9.848911666
 20
3.0576706966
 10
-9.843247135
 20
1.2868633799
 10
-9.8302829958
 20
-0.5454655266
 10
-9.8100985127
 20
-2.3734990463
 10
-9.7826929737
 20
-4.1971978653
 10
-9.7480662394
 20
-6.0165250626
 10
-9.7062181809
 20
-7.8314447064
 10
-9.6571495192
 20
-9.6419156769
 10
-9.6008617525
 20
-11.447892134
 10
-9.5395529978
 20
-13.190336689
  0
LWPOLYLINE
  5
234
100
AcDbEntity
  8
0
100
AcDbPolyline
 62
253
  6
CONTINUOUS
 90
10
 70
0
 10
-9.7313447897
 20
2.871722637
 10
-9.7260163502
 20
1.1884747225
 10
-9.714294525
 20
-0.5161229207
 10
-9.6958976696
 20
-2.2418729668
 10
-9.6707536462
 20
-3.9754355536
 10
-9.6384631999
 20
-5.7298026724
 10
-9.5977840162
 20
-7.5439874719
 10
-9.5475629842
 20
-9.4305168215
 10
-9.4872518826
 20
-11.3757409703
 10
-9.4160109781
 20
-13.3790906961
  0
LWPOLYLINE
  5
235
100
AcDbEntity
  8
0
100
AcDbPolyline
 62
7
  6
CONTINUOUS
 90
10
 70
0
 10
-9.5395821846
 20
20.9023264613
 10
-9.6007070866
 20
19.0910230689
 10
-9.6570102096
 20
17.2167305976
 10
-9.7060952437
 20
15.3467119019
 10
-9.747960742
 20
13.481012692
 10
-9.78260606
 20
11.6196726794
 10
-9.8100308322
 20
9.7627292811
 10
-9.8302349474
 20
7.9102203505
 10
-9.8432195829
 20
6.0621848427
 10
-9.8489116005
 20
4.2790879758
  0
LWPOLYLINE
  5
236
100
AcDbEntity
  8
0
100
AcDbPolyline
 62
253
  6
CONTINUOUS
 90
10
 70
0
 10
-9.4160109766
 20
20.7122460366
 10
-9.4821372877
 20
18.7846067241
 10
-9.5395972449
 20
16.8930738069
 10
-9.588771021
 20
15.0374847755
 10
-9.6295989856
 20
13.2385099131
 10
-9.6630402851
 20
11.4750648178
 10
-9.6902842081
 20
9.6847455548
 10
-9.7111709499
 20
7.8470847304
 10
-9.7249808828
 20
5.9831163891
 10
-9.7313447971
 20
4.0930909441
  0
LWPOLYLINE
  5
237
100
AcDbEntity
  8
0
100
AcDbPolyline
 62
253
  6
CONTINUOUS
 90
16
 70
0
 10
-9.7313449981
 20
2.8717226958
 10
-9.7295499523
 20
2.9162063605
 10
-9.7232580537
 20
2.9609876171
 10
-9.7129017706
 20
3.0062347021
 10
-9.698856361
 20
3.0525177723
 10
-9.6809776171
 20
3.0995094218
 10
-9.6591486962
 20
3.1457979357
 10
-9.6341653153
 20
3.1909111741
 10
-9.6063265882
 20
3.2349075366
 10
-9.5753022418
 20
3.2768727886
 10
-9.5418700668
 20
3.3163514651
 10
-9.5067273929
 20
3.3531934777
 10
-9.4694974153
 20
3.3867454141
 10
-9.430568596
 20
3.4165747676
 10
-9.3911313714
 20
3.44261711
 10
-9.3519973864
 20
3.4647602471
  0
LINE
  5
238
100
AcDbEntity
  8
0
100
AcDbLine
 62
253
  6
CONTINUOUS
 10
6.1258255441
 20
13.6041961225
 11
8.6801298041
 21
15.1543763701
  0
LWPOLYLINE
  5
239
100
AcDbEntity
  8
0
100
AcDbPolyline
 62
253
  6
CONTINUOUS
 90
8
 70
0
 10
-9.8488213808
 20
4.2733921839
 10
-9.845534671
 20
4.245425219
 10
-9.8375520553
 20
4.2177704343
 10
-9.8249490207
 20
4.1906893112
 10
-9.8078447348
 20
4.1644379076
 10
-9.786400927
 20
4.1392644446
 10
-9.7608203653
 20
4.1154069583
 10
-9.7313449312
 20
4.0930910375
  0
LWPOLYLINE
  5
23A
100
AcDbEntity
  8
0
100
AcDbPolyline
 62
7
  6
CONTINUOUS
 90
13
 70
0
 10
-9.6120595696
 20
3.4834730931
 10
-9.6335978646
 20
3.469362213
 10
-9.6680272771
 20
3.4432447757
 10
-9.7001442071
 20
3.4141815871
 10
-9.7296816508
 20
3.3823815296
 10
-9.7563986843
 20
3.3480713883
 10
-9.7801407798
 20
3.3113869123
 10
-9.8006416445
 20
3.2726591931
 10
-9.8177098255
 20
3.2321860297
 10
-9.831237821
 20
3.1900865873
 10
-9.8410472273
 20
3.1466562205
 10
-9.8469674134
 20
3.1023761489
 10
-9.8489116661
 20
3.0576706965
  0
LINE
  5
23B
100
AcDbEntity
  8
0
100
AcDbLine
 62
7
  6
CONTINUOUS
 10
-9.6120092799
 20
3.4835042235
 11
-9.32663742
 21
3.6600886183
  0
LINE
  5
23C
100
AcDbEntity
  8
0
100
AcDbLine
 62
253
  6
CONTINUOUS
 10
-9.3519973531
 20
3.4647602673
 11
-9.1878206056
 21
3.5663507031
  0
LINE
  5
23D
100
AcDbEntity
  8
0
100
AcDbLine
 62
253
  6
CONTINUOUS
 10
6.4885063867
 20
12.9977931414
 11
9.0649168915
 21
14.5613894353
  0
LWPOLYLINE
  5
23E
100
AcDbEntity
  8
0
100
AcDbPolyline
 62
253
  6
CONTINUOUS
 90
9
 70
0
 10
-9.6120092799
 20
3.4835042235
 10
-9.5943365599
 20
3.4930658593
 10
-9.5650242614
 20
3.5037726826
 10
-9.533321376
 20
3.5095835487
 10
-9.4995798169
 20
3.5104282296
 10
-9.464179312
 20
3.5062951612
 10
-9.4275129566
 20
3.4972308504
 10
-9.3899812631
 20
3.4833348991
 10
-9.3519973861
 20
3.4647602469
  0
LWPOLYLINE
  5
23F
100
AcDbEntity
  8
0
100
AcDbPolyline
 62
7
  6
CONTINUOUS
 90
5
 70
0
 10
-9.8193758394
 20
4.1091337749
 10
-9.832200047
 20
4.1502475855
 10
-9.8414820941
 20
4.1925618188
 10
-9.8470766921
 20
4.2356375096
 10
-9.8489116005
 20
4.2790879771
  0
LINE
  5
240
100
AcDbEntity
  8
0
100
AcDbLine
 62
253
  6
CONTINUOUS
 10
-4.4478928667
 20
22.216084891
 11
-4.4478928492
 21
22.1541116272
  0
LWPOLYLINE
  5
241
100
AcDbEntity
  8
0
100
AcDbPolyline
 62
7
  6
CONTINUOUS
 90
4
 70
0
 10
-9.7610024622
 20
3.9952743053
 10
-9.7836536461
 20
4.0314564085
 10
-9.8031630748
 20
4.0694974961
 10
-9.8193758394
 20
4.1091337749
  0
LINE
  5
242
100
AcDbEntity
  8
0
100
AcDbLine
 62
7
  6
CONTINUOUS
 10
-4.2676582183
 20
22.6302669004
 11
-4.2464546043
 21
22.0138431048
  0
LWPOLYLINE
  5
243
100
AcDbEntity
  8
0
100
AcDbPolyline
 62
253
  6
CONTINUOUS
 90
3
 70
0
 10
-3.0597694287
 20
-10.9767009182
 10
-3.094864028
 20
-9.6362205361
 10
-3.110570808
 20
-8.964857306
  0
LWPOLYLINE
  5
244
100
AcDbEntity
  8
0
100
AcDbPolyline
 62
253
  6
CONTINUOUS
 90
87
 70
0
 10
-3.110570808
 20
-8.964857306
 10
-3.1106843614
 20
-8.9405168977
 10
-3.109920989
 20
-8.916717413
 10
-3.1082827802
 20
-8.8934946753
 10
-3.1057718242
 20
-8.8708845081
 10
-3.1023902104
 20
-8.848922735
 10
-3.098140028
 20
-8.8276451795
 10
-3.0930233664
 20
-8.807087665
 10
-3.0878382357
 20
-8.7897190739
 10
-3.0819992436
 20
-8.7729556715
 10
-3.0755143274
 20
-8.7568239375
 10
-3.0683914241
 20
-8.7413503517
 10
-3.0606406132
 20
-8.7265611086
 10
-3.0522805423
 20
-8.7124812615
 10
-3.0433320012
 20
-8.6991355786
 10
-3.0338157798
 20
-8.6865488278
 10
-3.023750695
 20
-8.6747416649
 10
-3.0131476726
 20
-8.6637182958
 10
-3.0020156654
 20
-8.6534788139
 10
-2.9903636264
 20
-8.6440233128
 10
-2.978198906
 20
-8.6353532105
 10
-2.9655224452
 20
-8.6274752236
 10
-2.9523335825
 20
-8.620397393
 10
-2.9386316564
 20
-8.6141277596
 10
-2.9244212097
 20
-8.6086757877
 10
-2.9097276028
 20
-8.6040566331
 10
-2.8945814002
 20
-8.6002868748
 10
-2.8790131667
 20
-8.597383092
 10
-2.863055653
 20
-8.5953580507
 10
-2.8467503546
 20
-8.5942092655
 10
-2.8301409533
 20
-8.5939304379
 10
-2.8132711308
 20
-8.5945152695
 10
-2.7961778572
 20
-8.5959571053
 10
-2.7788712559
 20
-8.598247863
 10
-2.7613547389
 20
-8.6013791038
 10
-2.7436317179
 20
-8.6053423887
 10
-2.7257046884
 20
-8.6101320824
 10
-2.7075724796
 20
-8.6157537631
 10
-2.6892330045
 20
-8.6222158124
 10
-2.6706841758
 20
-8.6295266121
 10
-2.6519322026
 20
-8.637690485
 10
-2.6330164792
 20
-8.6466955192
 10
-2.613984696
 20
-8.6565257437
 10
-2.5948845434
 20
-8.6671651876
 10
-2.5757638214
 20
-8.6785939618
 10
-2.5566707682
 20
-8.690776504
 10
-2.5376537314
 20
-8.7036733334
 10
-2.5187610587
 20
-8.7172449694
 10
-2.5000327753
 20
-8.731457468
 10
-2.4814756154
 20
-8.7462990327
 10
-2.4630879906
 20
-8.7617634035
 10
-2.4448683128
 20
-8.7778443207
 10
-2.4268158035
 20
-8.7945373313
 10
-2.4089329235
 20
-8.8118452102
 10
-2.3912229436
 20
-8.8297725394
 10
-2.3736891346
 20
-8.8483239007
 10
-2.3563417121
 20
-8.8674956338
 10
-2.3392186721
 20
-8.8872511098
 10
-2.3223649552
 20
-8.9075454577
 10
-2.3058255024
 20
-8.9283338063
 10
-2.2896431995
 20
-8.949569919
 10
-2.2738527131
 20
-8.9712020962
 10
-2.2584866551
 20
-8.9931772727
 10
-2.2435776372
 20
-9.0154423832
 10
-2.2291528341
 20
-9.0379519325
 10
-2.2152176721
 20
-9.0606907048
 10
-2.2017721406
 20
-9.0836510539
 10
-2.1888162287
 20
-9.1068253341
 10
-2.1763515132
 20
-9.1302053848
 10
-2.16438592
 20
-9.1537809881
 10
-2.1529289625
 20
-9.1775414116
 10
-2.1419901539
 20
-9.2014759228
 10
-2.131581235
 20
-9.2255672446
 10
-2.1217228556
 20
-9.2497719219
 10
-2.112437893
 20
-9.2740399546
 10
-2.1037492245
 20
-9.298321343
 10
-2.0956775196
 20
-9.3225683145
 10
-2.088234617
 20
-9.346742007
 10
-2.0814301478
 20
-9.3708057857
 10
-2.0752737432
 20
-9.3947230158
 10
-2.0690420122
 20
-9.4218331171
 10
-2.0636732292
 20
-9.4486646715
 10
-2.0591713115
 20
-9.4751783921
 10
-2.0555401763
 20
-9.5013349918
 10
-2.0527837405
 20
-9.5270951837
 10
-2.0509059215
 20
-9.5524196807
 10
-2.0499106363
 20
-9.577269196
  0
LWPOLYLINE
  5
245
100
AcDbEntity
  8
0
100
AcDbPolyline
 62
253
  6
CONTINUOUS
 90
3
 70
0
 10
-3.110570808
 20
7.7727833682
 10
-3.0779301991
 20
9.1524546551
 10
-3.0597694287
 20
9.84329114
  0
LWPOLYLINE
  5
246
100
AcDbEntity
  8
0
100
AcDbPolyline
 62
253
  6
CONTINUOUS
 90
87
 70
0
 10
-2.0499106363
 20
7.1603714782
 10
-2.0509059226
 20
7.1353908398
 10
-2.0527837423
 20
7.1109478872
 10
-2.0555401739
 20
7.0870795017
 10
-2.0591712961
 20
7.0638225645
 10
-2.0636731876
 20
7.0412139571
 10
-2.0690419272
 20
7.0192905607
 10
-2.0752735933
 20
6.9980892565
 10
-2.0814299208
 20
6.9801599087
 10
-2.0882342936
 20
6.9628391075
 10
-2.0956770813
 20
6.9461543106
 10
-2.1037486531
 20
6.9301329754
 10
-2.1124371735
 20
6.9148023106
 10
-2.1217219869
 20
6.9001885288
 10
-2.1315802328
 20
6.8863175937
 10
-2.1419890506
 20
6.873215469
 10
-2.1529278029
 20
6.8609038614
 10
-2.164384745
 20
6.8493874498
 10
-2.1763503552
 20
6.8386666559
 10
-2.1888151119
 20
6.8287419018
 10
-2.2017710806
 20
6.8196149426
 10
-2.2152166742
 20
6.8112928681
 10
-2.2291518926
 20
6.803784101
 10
-2.2435767356
 20
6.7970970646
 10
-2.2584857691
 20
6.7912417373
 10
-2.2738518224
 20
6.7862343206
 10
-2.2896422908
 20
6.7820925713
 10
-2.3058245697
 20
6.7788342465
 10
-2.3223639986
 20
6.7764732147
 10
-2.3392176946
 20
6.7750077915
 10
-2.3563407191
 20
6.7744324042
 10
-2.3736881337
 20
6.7747414802
 10
-2.3912219438
 20
6.7759289557
 10
-2.4089319322
 20
6.7779868027
 10
-2.4268148256
 20
6.7809065024
 10
-2.4448673509
 20
6.7846795357
 10
-2.4630870448
 20
6.7893002486
 10
-2.4814746848
 20
6.7947744465
 10
-2.5000318581
 20
6.8011107996
 10
-2.5187601522
 20
6.8083179783
 10
-2.5376528321
 20
6.8164006089
 10
-2.5566698732
 20
6.8253471435
 10
-2.5757629288
 20
6.8351419901
 10
-2.594883652
 20
6.8457695568
 10
-2.6139838053
 20
6.8572102072
 10
-2.633015588
 20
6.8694281261
 10
-2.651931309
 20
6.882383454
 10
-2.670683277
 20
6.8960363311
 10
-2.6892320971
 20
6.9103524496
 10
-2.707571561
 20
6.9253197093
 10
-2.7257037567
 20
6.9409315616
 10
-2.7436307725
 20
6.9571814582
 10
-2.76135378
 20
6.974064719
 10
-2.7788702861
 20
6.9915841376
 10
-2.7961768813
 20
7.009744376
 10
-2.8132701562
 20
7.0285500962
 10
-2.8301399888
 20
7.0479975837
 10
-2.8467494076
 20
7.0680496182
 10
-2.8630547287
 20
7.0886606029
 10
-2.8790122681
 20
7.1097849411
 10
-2.8945805273
 20
7.1313755949
 10
-2.9097267495
 20
7.1533797621
 10
-2.9244203637
 20
7.1757431992
 10
-2.9386307985
 20
7.1984116629
 10
-2.9523326899
 20
7.2213386124
 10
-2.9655215027
 20
7.2445083173
 10
-2.9781979088
 20
7.2679127499
 10
-2.9903625801
 20
7.2915438824
 10
-3.0020145856
 20
7.3153931817
 10
-3.0131465826
 20
7.339450093
 10
-3.0237496253
 20
7.3637035562
 10
-3.0338147677
 20
7.3881425112
 10
-3.0433310877
 20
7.4127492086
 10
-3.0522797562
 20
7.4374791414
 10
-3.0606399678
 20
7.4622811138
 10
-3.068390917
 20
7.4871039295
 10
-3.075513943
 20
7.5118986564
 10
-3.0819989638
 20
7.5366254179
 10
-3.0878380424
 20
7.561246601
 10
-3.0930232415
 20
7.585724593
 10
-3.09813996
 20
7.6134784886
 10
-3.1023901796
 20
7.6409558874
 10
-3.1057718151
 20
7.6681164449
 10
-3.1082827809
 20
7.6949198163
 10
-3.109920992
 20
7.7213256571
 10
-3.1106843628
 20
7.7472936227
 10
-3.110570808
 20
7.7727833682
  0
LWPOLYLINE
  5
247
100
AcDbEntity
  8
0
100
AcDbPolyline
 62
253
  6
CONTINUOUS
 90
87
 70
0
 10
-3.0597694287
 20
9.84329114
 10
-3.0586425371
 20
9.868350305
 10
-3.0566399483
 20
9.8928674153
 10
-3.0537656628
 20
9.9168055672
 10
-3.0500236806
 20
9.9401278569
 10
-3.0454180022
 20
9.9627973806
 10
-3.0399526278
 20
9.9847772345
 10
-3.0336315577
 20
10.0060305148
 10
-3.0274029719
 20
10.0240016629
 10
-3.0205318491
 20
10.0413608902
 10
-3.0130277316
 20
10.0580808132
 10
-3.0049001618
 20
10.0741340486
 10
-2.9961608743
 20
10.0894934675
 10
-2.9868303739
 20
10.1041329596
 10
-2.9769313578
 20
10.1180266694
 10
-2.966486523
 20
10.1311487413
 10
-2.9555163251
 20
10.1434775869
 10
-2.9440322528
 20
10.1550086874
 10
-2.9320435534
 20
10.1657417915
 10
-2.9195594738
 20
10.1756766476
 10
-2.9065876805
 20
10.1848116678
 10
-2.893129516
 20
10.193139918
 10
-2.8791847421
 20
10.2006531276
 10
-2.8647531207
 20
10.2073430261
 10
-2.8498398438
 20
10.213199789
 10
-2.8344718248
 20
10.2182073764
 10
-2.8186814073
 20
10.2223481946
 10
-2.802500935
 20
10.2256046497
 10
-2.7859648091
 20
10.2279630361
 10
-2.7691156616
 20
10.2294252007
 10
-2.751998182
 20
10.2299968783
 10
-2.7346570599
 20
10.2296838038
 10
-2.7171300498
 20
10.2284921945
 10
-2.6994271663
 20
10.2264301964
 10
-2.6815514893
 20
10.2235064381
 10
-2.6635060983
 20
10.219729548
 10
-2.6452932753
 20
10.2151052838
 10
-2.6269121122
 20
10.209627921
 10
-2.6083609028
 20
10.2032888639
 10
-2.5896379412
 20
10.1960795174
 10
-2.5707498513
 20
10.1879953218
 10
-2.5517365758
 20
10.1790478618
 10
-2.5326463874
 20
10.1692527578
 10
-2.5135275589
 20
10.1586256302
 10
-2.4944282721
 20
10.1471861312
 10
-2.4753963465
 20
10.1349700389
 10
-2.4564795109
 20
10.1220171632
 10
-2.4377254939
 20
10.1083673139
 10
-2.4191737416
 20
10.094054745
 10
-2.4008305689
 20
10.079091487
 10
-2.3826940081
 20
10.0634840143
 10
-2.3647620913
 20
10.0472388015
 10
-2.3470337743
 20
10.0303604459
 10
-2.3295117071
 20
10.0128460369
 10
-2.312199463
 20
9.9946907865
 10
-2.2951006158
 20
9.9758899068
 10
-2.2782254689
 20
9.9564469824
 10
-2.2616112469
 20
9.9363990875
 10
-2.2453019043
 20
9.915791669
 10
-2.2293413956
 20
9.8946701737
 10
-2.2137714874
 20
9.8730814864
 10
-2.1986251933
 20
9.8510782447
 10
-2.183933339
 20
9.8287145244
 10
-2.1697267502
 20
9.806044401
 10
-2.1560310464
 20
9.7831142525
 10
-2.1428510229
 20
9.7599396654
 10
-2.1301862686
 20
9.7365285287
 10
-2.1180363728
 20
9.7128887311
 10
-2.1064025317
 20
9.6890286626
 10
-2.0952923695
 20
9.6649587182
 10
-2.0847151178
 20
9.6406897942
 10
-2.0746800079
 20
9.6162327865
 10
-2.0651982303
 20
9.5916052917
 10
-2.056288811
 20
9.5668517067
 10
-2.0479727349
 20
9.5420231288
 10
-2.040270987
 20
9.5171706551
 10
-2.0332023948
 20
9.4923431247
 10
-2.0267771567
 20
9.4675803435
 10
-2.0210033133
 20
9.4429198592
 10
-2.0158889054
 20
9.4183992195
 10
-2.010859996
 20
9.3905924263
 10
-2.0067049423
 20
9.3630577215
 10
-2.0034257942
 20
9.3358354972
 10
-2.0010246018
 20
9.3089661457
 10
-1.9995034148
 20
9.2824900591
 10
-1.9988642832
 20
9.2564476298
 10
-1.9991092569
 20
9.23087925
  0
LINE
  5
248
100
AcDbEntity
  8
0
100
AcDbLine
 62
7
  6
CONTINUOUS
 10
3.651937731
 20
18.0575914551
 11
3.4717030826
 21
17.6434094457
  0
LWPOLYLINE
  5
249
100
AcDbEntity
  8
0
100
AcDbPolyline
 62
253
  6
CONTINUOUS
 90
10
 70
0
 10
5.0137060725
 20
-5.6418849357
 10
3.2520428811
 20
-4.7698946108
 10
1.5205038812
 20
-3.8790067611
 10
-0.1805723462
 20
-2.9694122393
 10
-1.8507500192
 20
-2.0413621211
 10
-3.4898010485
 20
-1.0949946265
 10
-5.0976932714
 20
-0.130328317
 10
-6.674187238
 20
0.8525050929
 10
-8.2188479832
 20
1.853253936
 10
-9.7313447897
 20
2.871722637
  0
LWPOLYLINE
  5
24A
100
AcDbEntity
  8
0
100
AcDbPolyline
 62
253
  6
CONTINUOUS
 90
10
 70
0
 10
5.3327148383
 20
-5.0140084692
 10
3.5777060794
 20
-4.1452171265
 10
1.8533655602
 20
-3.2580010565
 10
0.1596932807
 20
-2.3523602593
 10
-1.5035444634
 20
-1.4281597893
 10
-3.1361139678
 20
-0.485534592
 10
-4.7373141203
 20
0.4751104959
 10
-6.3069112166
 20
1.4536405291
 10
-7.8451389608
 20
2.4501904529
 10
-9.3519973531
 20
3.4647602673
  0
LWPOLYLINE
  5
24B
100
AcDbEntity
  8
0
100
AcDbPolyline
 62
7
  6
CONTINUOUS
 90
13
 70
0
 10
-9.6313651657
 20
3.8658601147
 10
-8.5448774425
 20
3.1321947109
 10
-7.3874495124
 20
2.3722499035
 10
-6.2113374285
 20
1.6218314308
 10
-5.0168074269
 20
0.8811285252
 10
-3.8041081757
 20
0.1503133468
 10
-2.5734589966
 20
-0.5704844817
 10
-1.3250961115
 20
-1.2811311539
 10
-0.0592556607
 20
-1.9814927825
 10
1.2238334736
 20
-2.671445135
 10
2.5238684233
 20
-3.3508468706
 10
3.8405167752
 20
-4.0195466218
 10
5.1168497475
 20
-4.6498427645
  0
LINE
  5
24C
100
AcDbEntity
  8
0
100
AcDbLine
 62
7
  6
CONTINUOUS
 10
-9.6313580264
 20
3.8658552443
 11
-9.6312904281
 21
3.8658089425
  0
LWPOLYLINE
  5
24D
100
AcDbEntity
  8
0
100
AcDbPolyline
 62
7
  6
CONTINUOUS
 90
6
 70
0
 10
-9.6312904281
 20
3.8658089425
 10
-9.6430505991
 20
3.8741079403
 10
-9.6762560947
 20
3.9004880845
 10
-9.7071310173
 20
3.9296122357
 10
-9.7354436291
 20
3.9612731347
 10
-9.7610024622
 20
3.9952743053
  0
LWPOLYLINE
  5
24E
100
AcDbEntity
  8
0
100
AcDbPolyline
 62
253
  6
CONTINUOUS
 90
9
 70
0
 10
-9.7313449981
 20
2.8717226958
 10
-9.7608204322
 20
2.8940581776
 10
-9.786400994
 20
2.9179468858
 10
-9.8078448018
 20
2.9431629363
 10
-9.8249490876
 20
2.9694678903
 10
-9.8375521223
 20
2.9966130203
 10
-9.845534738
 20
3.0243416634
 10
-9.8488214477
 20
3.0523916399
 10
-9.8489116661
 20
3.0576706964
  0
LWPOLYLINE
  5
24F
100
AcDbEntity
  8
0
100
AcDbPolyline
 62
253
  6
CONTINUOUS
 90
3
 70
0
 10
-2.0499106363
 20
-9.577269196
 10
-2.0342038562
 20
-10.2486324261
 10
-1.9991092569
 20
-11.5891128082
  0
LWPOLYLINE
  5
250
100
AcDbEntity
  8
0
100
AcDbPolyline
 62
253
  6
CONTINUOUS
 90
87
 70
0
 10
-1.9991092569
 20
-11.5891128082
 10
-1.9988642847
 20
-11.6133798762
 10
-1.999503418
 20
-11.6371097445
 10
-2.001024603
 20
-11.6602666331
 10
-2.0034257858
 20
-11.6828147621
 10
-2.0067049125
 20
-11.7047183515
 10
-2.0108599294
 20
-11.7259416213
 10
-2.0158887826
 20
-11.7464487917
 10
-2.0210031224
 20
-11.7637765882
 10
-2.0267768798
 20
-11.7805022105
 10
-2.0332020139
 20
-11.7965991421
 10
-2.0402704838
 20
-11.8120408664
 10
-2.0479720938
 20
-11.8268011433
 10
-2.0562880296
 20
-11.8408548386
 10
-2.0651973217
 20
-11.8541770941
 10
-2.074679001
 20
-11.8667430521
 10
-2.0847140534
 20
-11.8785319563
 10
-2.0952912851
 20
-11.8895394585
 10
-2.1064014577
 20
-11.8997653122
 10
-2.1180353328
 20
-11.9092092709
 10
-2.1301852784
 20
-11.9178697665
 10
-2.1428500888
 20
-11.925739944
 10
-2.1560301651
 20
-11.9328116268
 10
-2.1697259081
 20
-11.9390766383
 10
-2.1839325153
 20
-11.944525379
 10
-2.1986243708
 20
-11.9491425581
 10
-2.2137706549
 20
-11.9529114617
 10
-2.2293405482
 20
-11.9558153762
 10
-2.2453010424
 20
-11.9578414001
 10
-2.261610373
 20
-11.9589918811
 10
-2.2782245869
 20
-11.9592729794
 10
-2.2950997308
 20
-11.958690855
 10
-2.3121985811
 20
-11.9572520315
 10
-2.3295108331
 20
-11.9549644877
 10
-2.3470329113
 20
-11.9518365659
 10
-2.3647612407
 20
-11.9478766084
 10
-2.3826931698
 20
-11.9430901597
 10
-2.400829742
 20
-11.937471573
 10
-2.4191729244
 20
-11.9310124038
 10
-2.4377246842
 20
-11.9237042075
 10
-2.456478706
 20
-11.9155426027
 10
-2.4753955442
 20
-11.906539461
 10
-2.4944274705
 20
-11.8967107172
 10
-2.5135267569
 20
-11.8860723062
 10
-2.5326455842
 20
-11.8746440896
 10
-2.5517357701
 20
-11.8624616361
 10
-2.5707490414
 20
-11.8495644411
 10
-2.5896371248
 20
-11.8359920002
 10
-2.6083600771
 20
-11.82177828
 10
-2.6269112749
 20
-11.8069351331
 10
-2.6452924248
 20
-11.7914688831
 10
-2.6635052334
 20
-11.7753858536
 10
-2.6815506099
 20
-11.7586905643
 10
-2.6994262736
 20
-11.7413803175
 10
-2.7171291469
 20
-11.7234506115
 10
-2.7346561516
 20
-11.7048969445
 10
-2.7519972744
 20
-11.6857230688
 10
-2.76911476
 20
-11.6659657519
 10
-2.7859639174
 20
-11.6456700157
 10
-2.8025000557
 20
-11.6248808817
 10
-2.818680541
 20
-11.603644734
 10
-2.8344709661
 20
-11.5820134055
 10
-2.8498389808
 20
-11.5600400917
 10
-2.864752235
 20
-11.5377779881
 10
-2.8791838114
 20
-11.5152727232
 10
-2.8931285255
 20
-11.4925396589
 10
-2.9065866258
 20
-11.4695865902
 10
-2.9195583607
 20
-11.4464213122
 10
-2.9320423975
 20
-11.423052136
 10
-2.9440310785
 20
-11.3994894374
 10
-2.9555151651
 20
-11.3757441084
 10
-2.9664854182
 20
-11.3518270408
 10
-2.9769303533
 20
-11.327755661
 10
-2.9868295024
 20
-11.3035735336
 10
-2.9961601516
 20
-11.2793307574
 10
-3.0048995871
 20
-11.2550774316
 10
-3.0130272903
 20
-11.2308614186
 10
-3.0205315231
 20
-11.2067216354
 10
-3.0274027426
 20
-11.1826947623
 10
-3.033631406
 20
-11.1588174798
 10
-3.0399525415
 20
-11.1317568018
 10
-3.0454179597
 20
-11.104978685
 10
-3.0500236646
 20
-11.078522398
 10
-3.05376566
 20
-11.0524272093
 10
-3.0566399499
 20
-11.0267323874
 10
-3.0586425382
 20
-11.0014772009
 10
-3.0597694287
 20
-10.9767009182
  0
LWPOLYLINE
  5
251
100
AcDbEntity
  8
0
100
AcDbPolyline
 62
253
  6
CONTINUOUS
 90
3
 70
0
 10
-1.9991092569
 20
9.23087925
 10
-2.0172700273
 20
8.5400427652
 10
-2.0499106363
 20
7.1603714782
  0
LWPOLYLINE
  5
252
100
AcDbEntity
  8
0
100
AcDbPolyline
 62
253
  6
CONTINUOUS
 90
16
 70
0
 10
5.0137061605
 20
-4.4205167526
 10
5.0523729169
 20
-4.4375452801
 10
5.0937196693
 20
-4.4523307874
 10
5.1373554562
 20
-4.4647334674
 10
5.1828676648
 20
-4.4746360427
 10
5.2298259529
 20
-4.48194488
 10
5.2777863193
 20
-4.4865908708
 10
5.3262952891
 20
-4.4885300812
 10
5.3748941548
 20
-4.4877441679
 10
5.4231233353
 20
-4.4842405631
 10
5.4705267692
 20
-4.4780524034
 10
5.5166562486
 20
-4.4692382046
 10
5.5610756109
 20
-4.4578813087
 10
5.6033648478
 20
-4.4440891004
 10
5.6431240787
 20
-4.427991996
 10
5.6799773531
 20
-4.4097422044
  0
LWPOLYLINE
  5
253
100
AcDbEntity
  8
0
100
AcDbPolyline
 62
7
  6
CONTINUOUS
 90
12
 70
0
 10
5.117016939
 20
-4.6499242569
 10
5.1289552924
 20
-4.6555401773
 10
5.1735939232
 20
-4.6732890616
 10
5.2198303844
 20
-4.6866962934
 10
5.2672975196
 20
-4.6956163416
 10
5.3155766635
 20
-4.6999220164
 10
5.3642020811
 20
-4.6995238434
 10
5.4127185886
 20
-4.6943792855
 10
5.4606764372
 20
-4.6844859915
 10
5.507587765
 20
-4.6698937164
 10
5.5529414227
 20
-4.6507194804
 10
5.5727458613
 20
-4.6406227642
  0
LINE
  5
254
100
AcDbEntity
  8
0
100
AcDbLine
 62
7
  6
CONTINUOUS
 10
5.1168986881
 20
-4.6498666528
 11
5.117016939
 21
-4.6499242569
  0
LWPOLYLINE
  5
255
100
AcDbEntity
  8
0
100
AcDbPolyline
 62
253
  6
CONTINUOUS
 90
10
 70
0
 10
-9.7313447971
 20
4.0930909441
 10
-8.2188489089
 20
3.0772345412
 10
-6.6741888862
 20
2.0784451122
 10
-5.0976954314
 20
1.0969180589
 10
-3.4898034951
 20
0.132904937
 10
-1.8507525127
 20
-0.8134625847
 10
-0.180574633
 20
-1.7421659366
 10
1.5205020685
 20
-2.6530668368
 10
3.2520418234
 20
-3.5459140818
 10
5.0137060637
 20
-4.4205166293
  0
LINE
  5
256
100
AcDbEntity
  8
0
100
AcDbLine
 62
253
  6
CONTINUOUS
 10
3.4717030826
 20
17.6434094457
 11
3.4717028914
 21
17.5814366485
  0
LINE
  5
257
100
AcDbEntity
  8
0
100
AcDbLine
 62
7
  6
CONTINUOUS
 10
9.2579918215
 20
-2.8247256224
 11
9.1081591362
 21
-2.7382141077
  0
LWPOLYLINE
  5
258
100
AcDbEntity
  8
0
100
AcDbPolyline
 62
253
  6
CONTINUOUS
 90
16
 70
0
 10
5.6799774222
 20
-5.6298576873
 10
5.677809489
 20
-5.5867491839
 10
5.6719567636
 20
-5.5417077594
 10
5.6624455597
 20
-5.4952029806
 10
5.6493266077
 20
-5.4476757846
 10
5.6327170231
 20
-5.399691441
 10
5.6128370389
 20
-5.3519345799
 10
5.5899341962
 20
-5.3049861125
 10
5.5642383372
 20
-5.2593052782
 10
5.5360243264
 20
-5.2153834704
 10
5.5055950115
 20
-5.1736982401
 10
5.4732882519
 20
-5.1347180791
 10
5.4394676578
 20
-5.0988837449
 10
5.4045087706
 20
-5.0665925321
 10
5.3687934439
 20
-5.0381965678
 10
5.3327148382
 20
-5.0140084692
  0
LWPOLYLINE
  5
259
100
AcDbEntity
  8
0
100
AcDbPolyline
 62
253
  6
CONTINUOUS
 90
9
 70
0
 10
5.0137061605
 20
-4.4205167526
 10
5.0158192166
 20
-4.4627439283
 10
5.0209053968
 20
-4.5009556247
 10
5.0290897051
 20
-4.5354976046
 10
5.0409044567
 20
-4.5668493418
 10
5.0562362267
 20
-4.5946656568
 10
5.0742265561
 20
-4.6179630347
 10
5.0950321823
 20
-4.6366382742
 10
5.1168986881
 20
-4.6498666528
  0
LWPOLYLINE
  5
25A
100
AcDbEntity
  8
0
100
AcDbPolyline
 62
253
  6
CONTINUOUS
 90
4
 70
0
 10
6.0056102394
 20
-21.8695406153
 10
5.9379780043
 20
-20.019437093
 10
5.8785172198
 20
-18.1959793273
 10
5.8272278858
 20
-16.3991673182
  0
LWPOLYLINE
  5
25B
100
AcDbEntity
  8
0
100
AcDbPolyline
 62
253
  6
CONTINUOUS
 90
10
 70
0
 10
5.3326788292
 20
-21.8947993602
 10
5.2658010448
 20
-20.0439549456
 10
5.2076794909
 20
-18.2191573443
 10
5.1579339945
 20
-16.420683061
 10
5.116628306
 20
-14.6691311406
 10
5.0827991592
 20
-12.9445271579
 10
5.0552449062
 20
-11.1858476749
 10
5.0341212322
 20
-9.3724431381
 10
5.0201518844
 20
-7.5245142053
 10
5.0137060725
 20
-5.6418849357
  0
LINE
  5
25C
100
AcDbEntity
  8
0
100
AcDbLine
 62
7
  6
CONTINUOUS
 10
3.651937731
 20
18.0575914551
 11
3.673141345
 21
17.4411676596
  0
LWPOLYLINE
  5
25D
100
AcDbEntity
  8
0
100
AcDbPolyline
 62
253
  6
CONTINUOUS
 90
7
 70
0
 10
5.8272278858
 20
-16.3991673182
 10
5.7845216663
 20
-14.6492973053
 10
5.7499868974
 20
-12.926073049
 10
5.7223885877
 20
-11.1686058309
 10
5.7013150733
 20
-9.3565994115
 10
5.6871780182
 20
-7.5103500303
 10
5.6799774222
 20
-5.6298576873
  0
LWPOLYLINE
  5
25E
100
AcDbEntity
  8
0
100
AcDbPolyline
 62
253
  6
CONTINUOUS
 90
10
 70
0
 10
5.679977352
 20
-4.409742205
 10
5.6849913767
 20
-2.7222801007
 10
5.6971959647
 20
-1.0059000817
 10
5.7165911158
 20
0.7393978521
 10
5.7423751118
 20
2.499972192
 10
5.7753496709
 20
4.2894644467
 10
5.8179199487
 20
6.1487991418
 10
5.8708876635
 20
8.0916177859
 10
5.9334510969
 20
10.1042788704
 10
6.0056102489
 20
12.1867823953
  0
LWPOLYLINE
  5
25F
100
AcDbEntity
  8
0
100
AcDbPolyline
 62
253
  6
CONTINUOUS
 90
10
 70
0
 10
5.0137060637
 20
-4.4205166293
 10
5.0190917436
 20
-2.7310825166
 10
5.0309512502
 20
-1.012869308
 10
5.0495662281
 20
0.7342509068
 10
5.0750003738
 20
2.4970166946
 10
5.1076613835
 20
4.28888597
 10
5.1488168953
 20
6.150321097
 10
5.1996284615
 20
8.0951854026
 10
5.2606358619
 20
10.110457334
 10
5.3326788298
 20
12.196537372
  0
LWPOLYLINE
  5
260
100
AcDbEntity
  8
0
100
AcDbPolyline
 62
253
  6
CONTINUOUS
 90
16
 70
0
 10
5.0137062312
 20
-5.6418850148
 10
5.0158190386
 20
-5.5975866343
 10
5.0209048781
 20
-5.5521108407
 10
5.029088739
 20
-5.5056111841
 10
5.0409028389
 20
-5.4580414474
 10
5.0562338097
 20
-5.4095802389
 10
5.0742234312
 20
-5.3610760691
 10
5.0950284983
 20
-5.3135508606
 10
5.1188544815
 20
-5.2672375728
 10
5.1447320683
 20
-5.2223001305
 10
5.1726050997
 20
-5.1796106333
 10
5.2025865859
 20
-5.13978712
 10
5.233775041
 20
-5.1027451673
 10
5.2657852356
 20
-5.0689192843
 10
5.2988058668
 20
-5.0391702389
 10
5.3327148382
 20
-5.0140084692
  0
LWPOLYLINE
  5
261
100
AcDbEntity
  8
0
100
AcDbPolyline
 62
253
  6
CONTINUOUS
 90
9
 70
0
 10
5.6799773522
 20
-4.4097422049
 10
5.677809415
 20
-4.4509684751
 10
5.6719566806
 20
-4.4896381177
 10
5.6624454649
 20
-4.5253053837
 10
5.6493265013
 20
-4.5575836529
 10
5.6327169076
 20
-4.5860412388
 10
5.6128369171
 20
-4.6102515536
 10
5.5899340727
 20
-4.6299271321
 10
5.5727458613
 20
-4.6406227642
  0
LWPOLYLINE
  5
262
100
AcDbEntity
  8
0
100
AcDbPolyline
 62
253
  6
CONTINUOUS
 90
22
 70
0
 10
5.3326788462
 20
12.1965373764
 10
5.337185735
 20
12.2678886455
 10
5.3457954039
 20
12.3411271132
 10
5.3584675334
 20
12.4158897864
 10
5.3751479577
 20
12.4917971715
 10
5.3957532725
 20
12.5684807441
 10
5.4201738172
 20
12.6455853009
 10
5.4483033722
 20
12.7227315298
 10
5.4800082507
 20
12.799530629
 10
5.5151139179
 20
12.875612188
 10
5.5534610888
 20
12.9505935871
 10
5.5948704828
 20
13.0241006639
 10
5.6391148613
 20
13.0957827345
 10
5.6859932959
 20
13.1652789989
 10
5.7352854775
 20
13.2322382129
 10
5.7867163522
 20
13.2963396554
 10
5.840045659
 20
13.3572546624
 10
5.8950272626
 20
13.4146781027
 10
5.9513641219
 20
13.4683467713
 10
6.0087809714
 20
13.5179947896
 10
6.0670250352
 20
13.5633562853
 10
6.1258255441
 20
13.6041961224
  0
LWPOLYLINE
  5
263
100
AcDbEntity
  8
0
100
AcDbPolyline
 62
253
  6
CONTINUOUS
 90
22
 70
0
 10
6.0056102489
 20
12.1867823953
 10
6.0084241811
 20
12.2284518689
 10
6.0136716457
 20
12.2708127717
 10
6.0213526427
 20
12.3138651038
 10
6.0315284807
 20
12.3578456026
 10
6.0441378511
 20
12.4025175307
 10
6.0589968285
 20
12.4471706755
 10
6.0761375776
 20
12.4917868785
 10
6.0955279337
 20
12.5363842981
 10
6.116887478
 20
12.5803071979
 10
6.1402476331
 20
12.6235485637
 10
6.1655769763
 20
12.6661154096
 10
6.1925008216
 20
12.707373041
 10
6.2210428819
 20
12.7473004468
 10
6.2511794442
 20
12.7859186382
 10
6.2824646831
 20
12.822655954
 10
6.3149314823
 20
12.8574938776
 10
6.3485469581
 20
12.8904509256
 10
6.3827666341
 20
12.921010987
 10
6.4174090182
 20
12.949002025
 10
6.4526556023
 20
12.9745960764
 10
6.4885063867
 20
12.9977931414
  0
LINE
  5
264
100
AcDbEntity
  8
0
100
AcDbLine
 62
253
  6
CONTINUOUS
 10
9.2579918215
 20
-2.8247256224
 11
5.3327148383
 21
-5.0140084692
  0
LINE
  5
265
100
AcDbEntity
  8
0
100
AcDbLine
 62
253
  6
CONTINUOUS
 10
9.6115856163
 20
-3.4370436728
 11
5.6799774222
 21
-5.6298576873
  0
LINE
  5
266
100
AcDbEntity
  8
0
100
AcDbLine
 62
253
  6
CONTINUOUS
 10
5.679977352
 20
-4.409742205
 11
9.6115856163
 21
-2.2941407122
  0
LINE
  5
267
100
AcDbEntity
  8
0
100
AcDbLine
 62
7
  6
CONTINUOUS
 10
5.5727268283
 20
-4.6406330075
 11
9.5037132759
 21
-2.5253661147
  0
LWPOLYLINE
  5
268
100
AcDbEntity
  8
0
100
AcDbPolyline
 62
253
  6
CONTINUOUS
 90
16
 70
0
 10
5.6799774231
 20
-5.6298576868
 10
5.6431241487
 20
-5.6482299168
 10
5.6033649178
 20
-5.6644483019
 10
5.5610756809
 20
-5.6783594863
 10
5.5166563186
 20
-5.6898319288
 10
5.4705268393
 20
-5.6987571521
 10
5.4231234055
 20
-5.7050507645
 10
5.374894225
 20
-5.7086532529
 10
5.3262953595
 20
-5.7095305459
 10
5.2777863898
 20
-5.7076743471
 10
5.2298260234
 20
-5.7031022145
 10
5.1828677354
 20
-5.6958573842
 10
5.1373555268
 20
-5.6860083592
 10
5.0937197399
 20
-5.6736482668
 10
5.0523729875
 20
-5.6588939814
 10
5.0137062312
 20
-5.6418850148
  0
LINE
  5
269
100
AcDbEntity
  8
0
100
AcDbLine
 62
7
  6
CONTINUOUS
 10
9.0649168915
 20
14.5613894353
 11
9.6115856163
 21
7.8301684335
  0
LINE
  5
26A
100
AcDbEntity
  8
0
100
AcDbLine
 62
7
  6
CONTINUOUS
 10
9.6115856163
 20
7.8301684335
 11
9.6115856163
 21
-2.2941407122
  0
LINE
  5
26B
100
AcDbEntity
  8
0
100
AcDbLine
 62
7
  6
CONTINUOUS
 10
9.6115856163
 20
-13.5613528185
 11
9.6115856163
 21
-3.4370436728
  0
LINE
  5
26C
100
AcDbEntity
  8
0
100
AcDbLine
 62
7
  6
CONTINUOUS
 10
9.0649168915
 20
-20.8916355462
 11
9.6115856163
 21
-13.5613528185
  0
LWPOLYLINE
  5
26D
100
AcDbEntity
  8
0
100
AcDbPolyline
 62
253
  6
CONTINUOUS
 90
9
 70
0
 10
-9.4160109748
 20
20.7122460489
 10
-9.4465559256
 20
20.7342944148
 10
-9.4731579557
 20
20.7577997207
 10
-9.4955591343
 20
20.7825340609
 10
-9.5135422612
 20
20.8082576134
 10
-9.5269329737
 20
20.8347209649
 10
-9.5356014366
 20
20.861667529
 10
-9.5394636011
 20
20.8888360339
 10
-9.5395900175
 20
20.9021015001
  0
LINE
  5
26E
100
AcDbEntity
  8
0
100
AcDbLine
 62
7
  6
CONTINUOUS
 10
6.7715820179
 20
16.2563479421
 11
6.098937153
 21
16.1264774205
  0
LWPOLYLINE
  5
26F
100
AcDbEntity
  8
0
100
AcDbPolyline
 62
253
  6
CONTINUOUS
 90
16
 70
0
 10
5.3326872586
 20
12.1965425133
 10
5.3712988429
 20
12.1786605605
 10
5.4127235471
 20
12.1628877763
 10
5.4565597288
 20
12.1493770894
 10
5.5023823646
 20
12.1382594955
 10
5.5497471707
 20
12.1296427879
 10
5.5981949112
 20
12.1236105115
 10
5.6472558502
 20
12.1202211534
 10
5.6964543065
 20
12.119507576
 10
5.7453132654
 20
12.1214766981
 10
5.793359004
 20
12.1261094274
 10
5.8401256841
 20
12.1333608463
 10
5.885159869
 20
12.1431606471
 10
5.9280249197
 20
12.1554138136
 10
5.9683052286
 20
12.1700015426
 10
6.0056102488
 20
12.1867823954
  0
LINE
  5
270
100
AcDbEntity
  8
0
100
AcDbLine
 62
253
  6
CONTINUOUS
 10
6.1258255441
 20
13.6041961225
 11
5.6176796758
 21
13.8596037143
  0
LWPOLYLINE
  5
271
100
AcDbEntity
  8
0
100
AcDbPolyline
 62
253
  6
CONTINUOUS
 90
31
 70
0
 10
5.3326788298
 20
12.196537372
 10
4.8238999201
 20
12.4536818163
 10
4.3173026168
 20
12.7120313368
 10
3.812893448
 20
12.9715799398
 10
3.3107962204
 20
13.2322604674
 10
2.8108991177
 20
13.4941275048
 10
2.3128592006
 20
13.7573602078
 10
1.8165263885
 20
14.0220408304
 10
1.3220725786
 20
14.2880807586
 10
0.8296402015
 20
14.5554043603
 10
0.3392709403
 20
14.8239888503
 10
-0.1490599671
 20
15.0938475972
 10
-0.6353118171
 20
15.364957945
 10
-1.1195428613
 20
15.637352558
 10
-1.6016780352
 20
15.9109893071
 10
-2.0814800627
 20
16.1857313578
 10
-2.5586366681
 20
16.4613937315
 10
-3.033452926
 20
16.7381464648
 10
-3.506611612
 20
17.0163886637
 10
-3.9772094256
 20
17.2955876489
 10
-4.4461302414
 20
17.5762682221
 10
-4.916683351
 20
17.8604460002
 10
-5.3880236662
 20
18.1476613792
 10
-5.8608838092
 20
18.4384166276
 10
-6.3408133644
 20
18.7362387973
 10
-6.8278294176
 20
19.0412940796
 10
-7.3216206928
 20
19.3535528334
 10
-7.8270805017
 20
19.6763344759
 10
-8.3456434116
 20
20.0108397774
 10
-8.8753719539
 20
20.3561047063
 10
-9.4160109766
 20
20.7122460366
  0
LWPOLYLINE
  5
272
100
AcDbEntity
  8
0
100
AcDbPolyline
 62
253
  6
CONTINUOUS
 90
30
 70
0
 10
5.6176796758
 20
13.8596037143
 10
5.1117876077
 20
14.1162631272
 10
4.60814934
 20
14.3741743612
 10
4.1069008839
 20
14.6332667946
 10
3.6079062281
 20
14.893611049
 10
3.1107573388
 20
15.1554189892
 10
2.6152494247
 20
15.4187967868
 10
2.1215872772
 20
15.6836382701
 10
1.6299772369
 20
15.9498367894
 10
1.1404751252
 20
16.2173640241
 10
0.6530251207
 20
16.4862482947
 10
0.1676660998
 20
16.7564679129
 10
-0.3156733426
 20
17.028065569
 10
-0.7969218015
 20
17.3009985726
 10
-1.2758261849
 20
17.5751171642
 10
-1.7520883378
 20
17.8502456525
 10
-2.2260064151
 20
18.1265597288
 10
-2.6982217898
 20
18.4044367079
 10
-3.1678410911
 20
18.6833035297
 10
-3.6357576899
 20
18.9637332543
 10
-4.105293071
 20
19.2478223763
 10
-4.5757466576
 20
19.5350379985
 10
-5.0478190265
 20
19.8259130182
 10
-5.5269333937
 20
20.124142622
 10
-6.0134233397
 20
20.4297943505
 10
-6.5069552839
 20
20.742800663
 10
-7.0119517003
 20
21.0666541247
 10
-7.5298867467
 20
21.4025189238
 10
-8.0592862653
 20
21.749230872
 10
-8.6001502559
 20
22.1067899694
  0
LWPOLYLINE
  5
273
100
AcDbEntity
  8
0
100
AcDbPolyline
 62
253
  6
CONTINUOUS
 90
16
 70
0
 10
6.1258255441
 20
13.6041961224
 10
6.1618744743
 20
13.5800979338
 10
6.1977315083
 20
13.5519213599
 10
6.2330044733
 20
13.5199745714
 10
6.2673075845
 20
13.4846069741
 10
6.3002656644
 20
13.446205388
 10
6.3315182469
 20
13.405189816
 10
6.3607235185
 20
13.3620088507
 10
6.3875620576
 20
13.3171347675
 10
6.4117403277
 20
13.2710583598
 10
6.4329938882
 20
13.2242835711
 10
6.4510902862
 20
13.177321983
 10
6.4658315992
 20
13.1306872201
 10
6.4770565995
 20
13.0848893326
 10
6.4846425181
 20
13.0404292178
 10
6.4885063867
 20
12.9977931414
  0
LWPOLYLINE
  5
274
100
AcDbEntity
  8
0
100
AcDbPolyline
 62
253
  6
CONTINUOUS
 90
9
 70
0
 10
-8.600150256
 20
22.1067899694
 10
-8.6379251224
 20
22.1253166439
 10
-8.6750844025
 20
22.1392986105
 10
-8.7112216747
 20
22.1485829609
 10
-8.7459417081
 20
22.1530681673
 10
-8.7788647535
 20
22.1527051885
 10
-8.8096307019
 20
22.1474980201
 10
-8.8379030684
 20
22.1375036478
 10
-8.8600006276
 20
22.125152145
  0
LINE
  5
275
100
AcDbEntity
  8
0
100
AcDbLine
 62
7
  6
CONTINUOUS
 10
5.9057519877
 20
16.1520862556
 11
3.5234668916
 21
17.5275878131
  0
LINE
  5
276
100
AcDbEntity
  8
0
100
AcDbLine
 62
7
  6
CONTINUOUS
 10
-2.0138439616
 20
20.7247617009
 11
-4.3961290577
 21
22.1002632583
  0
LINE
  5
277
100
AcDbEntity
  8
0
100
AcDbLine
 62
7
  6
CONTINUOUS
 10
8.6801298041
 20
15.1543763701
 11
6.7715820179
 21
16.2563479421
  0
LINE
  5
278
100
AcDbEntity
  8
0
100
AcDbLine
 62
7
  6
CONTINUOUS
 10
3.651937731
 20
18.0575914551
 11
-1.1480139314
 21
20.8290233874
  0
LINE
  5
279
100
AcDbEntity
  8
0
100
AcDbLine
 62
7
  6
CONTINUOUS
 10
-4.2676582183
 20
22.6302669004
 11
-6.1762060045
 21
23.7322384724
  0
LINE
  5
27A
100
AcDbEntity
  8
0
100
AcDbLine
 62
7
  6
CONTINUOUS
 10
-1.1480139314
 20
20.8290233874
 11
-1.8206587963
 21
20.6991528657
  0
LWPOLYLINE
  5
27B
100
AcDbEntity
  8
0
100
AcDbPolyline
 62
253
  6
CONTINUOUS
 90
9
 70
0
 10
6.3639566775
 20
-22.3911443534
 10
6.3875635905
 20
-22.3772210558
 10
6.4117416582
 20
-22.3569980528
 10
6.4329949563
 20
-22.3322358481
 10
6.4510910648
 20
-22.3032052965
 10
6.4658320952
 20
-22.2702239265
 10
6.4770568497
 20
-22.2336524751
 10
6.4846425875
 20
-22.1938909457
 10
6.4885063697
 20
-22.1513742235
  0
LINE
  5
27C
100
AcDbEntity
  8
0
100
AcDbLine
 62
253
  6
CONTINUOUS
 10
9.0649168915
 20
-20.8916355462
 11
6.4885063697
 21
-22.1513742235
  0
LINE
  5
27D
100
AcDbEntity
  8
0
100
AcDbLine
 62
7
  6
CONTINUOUS
 10
8.9280263443
 20
-21.1374397504
 11
6.3639566775
 21
-22.3911443534
  0
LWPOLYLINE
  5
27E
100
AcDbEntity
  8
0
100
AcDbPolyline
 62
253
  6
CONTINUOUS
 90
22
 70
0
 10
6.4885063697
 20
-22.1513742235
 10
6.4526555851
 20
-22.1674638999
 10
6.4174090007
 20
-22.1804944828
 10
6.3827666165
 20
-22.1904659721
 10
6.3485469402
 20
-22.1974052174
 10
6.3149314642
 20
-22.2012853692
 10
6.2824646648
 20
-22.2020258791
 10
6.2511794258
 20
-22.199572195
 10
6.2210428633
 20
-22.1939788689
 10
6.1925008029
 20
-22.1853290085
 10
6.1655769576
 20
-22.173575617
 10
6.1402476143
 20
-22.1587656912
 10
6.1168874592
 20
-22.1411233292
 10
6.0955279148
 20
-22.1206070831
 10
6.0761375586
 20
-22.0972584009
 10
6.0589968096
 20
-22.0714257249
 10
6.0441378318
 20
-22.0430556495
 10
6.0315284612
 20
-22.0122015802
 10
6.0213526241
 20
-21.9793721763
 10
6.0136716291
 20
-21.9447369906
 10
6.0084241675
 20
-21.9081264703
 10
6.0056102394
 20
-21.8695406153
  0
ELLIPSE
  5
27F
100
AcDbEntity
  8
0
100
AcDbEllipse
 62
7
  6
CONTINUOUS
 10
8.7112856527
 20
-20.6868470303
 30
0.0
 11
-0.2148753492
 21
0.4514925988
 31
0.0
 40
0.626010046
 41
-3.1349764991
 42
-2.3100583745
  0
ELLIPSE
  5
280
100
AcDbEntity
  8
0
100
AcDbEllipse
 62
7
  6
CONTINUOUS
 10
9.2579110302
 20
-3.2329296578
 30
0.0
 11
-0.2501454382
 21
0.4329727255
 31
0.0
 40
0.577463496
 41
-2.3564333972
 42
-0.7858655045
  0
ELLIPSE
  5
281
100
AcDbEntity
  8
0
100
AcDbEllipse
 62
7
  6
CONTINUOUS
 10
-6.1456958711
 20
23.3432978979
 30
0.0
 11
-0.2806490066
 21
0.4138128862
 31
0.0
 40
0.5253010868
 41
-0.8257150379
 42
-0.0027521587
  0
ELLIPSE
  5
282
100
AcDbEntity
  8
0
100
AcDbEllipse
 62
7
  6
CONTINUOUS
 10
8.7112856527
 20
14.7650629678
 30
0.0
 11
-0.280860955
 21
0.4142191515
 31
0.0
 40
0.5243459323
 41
-2.3941007373
 42
-0.8246744066
  0
ELLIPSE
  5
283
100
AcDbEntity
  8
0
100
AcDbEllipse
 62
7
  6
CONTINUOUS
 10
9.2579110302
 20
-2.0898401804
 30
0.0
 11
-0.2502024655
 21
0.4330717124
 31
0.0
 40
0.5771997317
 41
-3.1590443311
 42
-2.3566615088
  0
ELLIPSE
  5
284
100
AcDbEntity
  8
0
100
AcDbEllipse
 62
7
  6
CONTINUOUS
 10
6.047173344
 20
16.2422990531
 30
0.0
 11
0.1999154856
 21
0.0095814127
 31
0.0
 40
0.6067642562
 41
-2.385266879
 42
-1.3380693278
  0
ELLIPSE
  5
285
100
AcDbEntity
  8
0
100
AcDbEllipse
 62
7
  6
CONTINUOUS
 10
-1.8724226053
 20
20.8149744984
 30
0.0
 11
0.1999154856
 21
0.0095814127
 31
0.0
 40
0.6067642562
 41
-2.385266879
 42
-1.3380693278
  0
ELLIPSE
  5
286
100
AcDbEntity
  8
0
100
AcDbEllipse
 62
7
  6
CONTINUOUS
 10
3.6648882479
 20
17.6178006105
 30
0.0
 11
0.1999154856
 21
0.0095814127
 31
0.0
 40
0.6067642562
 41
2.850720877
 42
3.8979184282
  0
ELLIPSE
  5
287
100
AcDbEntity
  8
0
100
AcDbEllipse
 62
7
  6
CONTINUOUS
 10
-4.2547077014
 20
22.1904760558
 30
0.0
 11
0.1999154856
 21
0.0095814127
 31
0.0
 40
0.6067642562
 41
2.850720877
 42
3.8979184282
  0
ENDSEC
  0
SECTION
  2
OBJECTS
  0
DICTIONARY
  5
C
100
AcDbDictionary
280
0
281
1
  3
ACAD_GROUP
350
D
  3
ACAD_MLINESTYLE
350
17
  3
ACAD_LAYOUT
350
1A
  3
ACAD_PLOTSETTINGS
350
19
  3
ACAD_PLOTSTYLENAME
350
E
  0
DICTIONARY
  5
D
102
{ACAD_REACTORS
330
C
102
}
100
AcDbDictionary
280
0
281
1
  0
ACDBDICTIONARYWDFLT
  5
E
102
{ACAD_REACTORS
330
C
102
}
100
AcDbDictionary
281
1
  3
Normal
350
F
100
AcDbDictionaryWithDefault
340
F
  0
DICTIONARY
  5
17
102
{ACAD_REACTORS
330
C
102
}
100
AcDbDictionary
280
0
281
1
  3
Standard
350
18
  0
DICTIONARY
  5
19
102
{ACAD_REACTORS
330
C
102
}
100
AcDbDictionary
281
1
  0
DICTIONARY
  5
1A
102
{ACAD_REACTORS
330
C
102
}
100
AcDbDictionary
281
1
  3
Model
350
288
  3
Layout1
350
289
  0
ACDBPLACEHOLDER
  5
F
102
{ACAD_REACTORS
330
E
102
}
  0
MLINESTYLE
  5
18
102
{ACAD_REACTORS
330
17
102
}
100
AcDbMlineStyle
  2
STANDARD
 70
0
  3

 62
256
 51
90.0
 52
90.0
 71
2
 49
0.5
 62
256
  6
BYLAYER
 49
-0.5
 62
256
  6
BYLAYER
  0
LAYOUT
  5
288
102
{ACAD_REACTORS
330
1A
102
}
100
AcDbPlotSettings
  1

  2
none_device
  4
ISO_A4_(297.00_x_210.00_MM)
  6

 40
0.0
 41
0.0
 42
0.0
 43
0.0
 44
297.0
 45
210.0
 46
0.0
 47
0.0
 48
0.0
 49
0.0
140
0.0
141
0.0
142
1.0
143
1.0
 70
1024
 72
1
 73
0
 74
0
  7

 75
0
147
1.0
148
0.0
149
0.0
100
AcDbLayout
  1
Model
 70
0
 71
0
 10
0.0
 20
0.0
 11
297.0
 21
210.0
 12
0.0
 22
0.0
 32
0.0
 14
0.0
 24
0.0
 34
0.0
 15
0.0
 25
0.0
 35
0.0
146
0.0
 13
0.0
 23
0.0
 33
0.0
 16
1.0
 26
0.0
 36
0.0
 17
0.0
 27
1.0
 37
0.0
 76
0
330
21E
345
0
346
0
  0
LAYOUT
  5
289
102
{ACAD_REACTORS
330
1A
102
}
100
AcDbPlotSettings
  1

  2
none_device
  4
ISO_A4_(297.00_x_210.00_MM)
  6

 40
0.0
 41
0.0
 42
0.0
 43
0.0
 44
297.0
 45
210.0
 46
0.0
 47
0.0
 48
0.0
 49
0.0
140
0.0
141
0.0
142
1.0
143
1.0
 70
0
 72
1
 73
0
 74
0
  7

 75
0
147
1.0
148
0.0
149
0.0
100
AcDbLayout
  1
Layout1
 70
0
 71
1
 10
0.0
 20
0.0
 11
297.0
 21
210.0
 12
0.0
 22
0.0
 32
0.0
 14
0.0
 24
0.0
 34
0.0
 15
0.0
 25
0.0
 35
0.0
146
0.0
 13
0.0
 23
0.0
 33
0.0
 16
1.0
 26
0.0
 36
0.0
 17
0.0
 27
1.0
 37
0.0
 76
0
330
21F
345
0
346
0
  0
ENDSEC
  0
EOF
