  0
SECTION
  2
HEADER
  9
$ACADVER
  1
AC1021
  9
$DWGCODEPAGE
  3
ANSI_1252
  9
$EXTMAX
 10
297.0
 20
210.0
 30
0.0
  9
$EXTMIN
 10
0.0
 20
0.0
 30
0.0
  9
$LIMMIN
 10
0.0
 20
0.0
  9
$LIMMAX
 10
297.0
 20
210.0
  9
$VIEWCTR
 10
148.5
 20
105.0
  9
$VIEWSIZE
 40
210.0
  9
$CLAYER
  8
0
  9
$LTSCALE
 40
16.335
  9
$CELTYPE
  6
BYLAYER
  9
$DIMSCALE
 40
1.0
  9
$DIMASZ
 40
3.0
  9
$DIMEXO
 40
0.5
  9
$DIMDLI
 40
11.286
  9
$DIMEXE
 40
1.5
  9
$DIMCEN
 40
2.673
  9
$DIMLFAC
 40
1.0
  9
$DIMBLK
  1
_FILLED
  9
$DIMALT
 70
0
  9
$DIMALTF
 40
25.4
  9
$DIMTXT
 40
3.0
  9
$DIMTOL
 70
1
  9
$DIMLIM
 70
0
  9
$DIMTFAC
 40
1.0
  9
$DIMTP
 40
0.01
  9
$DIMTM
 40
0.01
  9
$DIMGAP
 40
0.625
  9
$DIMDSEP
 70
44
  9
$AUNITS
 70
0
  9
$PDMODE
 70
3
  9
$PDSIZE
 40
3.0
  9
$HANDSEED
  5
974
  9
$TILEMODE
 70
1
  9
$MEASUREMENT
 70
1
  9
$INSUNITS
 70
4
  0
ENDSEC
  0
SECTION
  2
CLASSES
  0
CLASS
  1
ACDBDICTIONARYWDFLT
  2
AcDbDictionaryWithDefault
  3
AutoCAD 2000
 90
0
 91
1
280
0
281
0
  0
CLASS
  1
ACDBPLACEHOLDER
  2
AcDbPlaceHolder
  3
AutoCAD 2000
 90
0
 91
1
280
0
281
0
  0
CLASS
  1
LAYOUT
  2
AcDbLayout
  3
AutoCAD 2000
 90
0
 91
0
280
0
281
0
  0
ENDSEC
  0
SECTION
  2
TABLES
  0
TABLE
  2
VPORT
  5
8
100
AcDbSymbolTable
 70
2
  0
VPORT
  5
1F4
100
AcDbSymbolTableRecord
100
AcDbViewportTableRecord
  2
*ACTIVE
 70
0
 10
0.0
 20
0.0
 11
1.0
 21
1.0
 12
148.5
 22
105.0
 13
0.0
 23
0.0
 14
1.0
 24
1.0
 15
0.0
 25
0.0
 16
0.0
 26
0.0
 36
1.0
 17
0.0
 27
0.0
 37
0.0
 40
210.0
 41
1.4142857143
 42
50.0
 43
0.0
 44
0.0
 50
0.0
 51
0.0
 71
0
 72
100
 73
1
 74
1
 75
0
 76
0
 77
0
 78
0
  0
ENDTAB
  0
TABLE
  2
LTYPE
  5
5
100
AcDbSymbolTable
 70
6
  0
LTYPE
  5
14
100
AcDbSymbolTableRecord
100
AcDbLinetypeTableRecord
  2
BYBLOCK
 70
0
  3

 72
65
 73
0
 40
0.0
  0
LTYPE
  5
15
100
AcDbSymbolTableRecord
100
AcDbLinetypeTableRecord
  2
BYLAYER
 70
0
  3

 72
65
 73
0
 40
0.0
  0
LTYPE
  5
16
100
AcDbSymbolTableRecord
100
AcDbLinetypeTableRecord
  2
CONTINUOUS
 70
64
  3
Solid line
 72
65
 73
0
 40
0.0
  0
LTYPE
  5
1F5
100
AcDbSymbolTableRecord
100
AcDbLinetypeTableRecord
  2
CENTER
 70
64
  3
____ _ ____ _ ____ _ ____ _ ____ _ ____ _ ____
 72
65
 73
4
 40
0.6
 49
0.375
 74
0
 49
-0.075
 74
0
 49
0.075
 74
0
 49
-0.075
 74
0
  0
LTYPE
  5
1F6
100
AcDbSymbolTableRecord
100
AcDbLinetypeTableRecord
  2
HIDDEN
 70
64
  3
- - - - - - - - - - - - - - - - - - - -
 72
65
 73
2
 40
0.2
 49
0.1
 74
0
 49
-0.1
 74
0
  0
LTYPE
  5
1F7
100
AcDbSymbolTableRecord
100
AcDbLinetypeTableRecord
  2
PHANTOM
 70
64
  3
_____ _ _ _____ _ _ _____ _ _ _____
 72
65
 73
6
 40
0.8
 49
0.45
 74
0
 49
-0.05
 74
0
 49
0.1
 74
0
 49
-0.05
 74
0
 49
0.1
 74
0
 49
-0.05
 74
0
  0
LTYPE
  5
1F8
100
AcDbSymbolTableRecord
100
AcDbLinetypeTableRecord
  2
DOT
 70
64
  3
. . . . . . . . . . . . . . . . . . . .
 72
65
 73
2
 40
0.2
 49
0.1
 74
0
 49
-0.1
 74
0
  0
LTYPE
  5
1F9
100
AcDbSymbolTableRecord
100
AcDbLinetypeTableRecord
  2
DASHED
 70
64
  3
- - - - - - - - - - - - - - - - - - - -
 72
65
 73
2
 40
0.2
 49
0.1
 74
0
 49
-0.1
 74
0
  0
ENDTAB
  0
TABLE
  2
LAYER
  5
2
100
AcDbSymbolTable
 70
36
  0
LAYER
  5
10
100
AcDbSymbolTableRecord
100
AcDbLayerTableRecord
  2
0
 70
0
 62
7
  6
CONTINUOUS
370
-3
390
F
  0
LAYER
  5
1FA
100
AcDbSymbolTableRecord
100
AcDbLayerTableRecord
  2
DEFAULT_1
 70
0
 62
7
  6
CENTER
370
-3
390
F
  0
LAYER
  5
1FB
100
AcDbSymbolTableRecord
100
AcDbLayerTableRecord
  2
DEFAULT_2
 70
0
 62
7
  6
HIDDEN
370
-3
390
F
  0
LAYER
  5
1FC
100
AcDbSymbolTableRecord
100
AcDbLayerTableRecord
  2
DEFAULT_3
 70
0
 62
7
  6
PHANTOM
370
-3
390
F
  0
LAYER
  5
1FD
100
AcDbSymbolTableRecord
100
AcDbLayerTableRecord
  2
ASSI
 70
0
 62
7
  6
CONTINUOUS
370
-3
390
F
  0
LAYER
  5
1FE
100
AcDbSymbolTableRecord
100
AcDbLayerTableRecord
  2
COORDINATE
 70
0
 62
7
  6
CONTINUOUS
370
-3
390
F
  0
LAYER
  5
1FF
100
AcDbSymbolTableRecord
100
AcDbLayerTableRecord
  2
COPY_PUBLISH
 70
0
 62
7
  6
CONTINUOUS
370
-3
390
F
  0
LAYER
  5
200
100
AcDbSymbolTableRecord
100
AcDbLayerTableRecord
  2
COSMETIC
 70
0
 62
7
  6
CONTINUOUS
370
-3
390
F
  0
LAYER
  5
201
100
AcDbSymbolTableRecord
100
AcDbLayerTableRecord
  2
COSMETICI
 70
0
 62
7
  6
CONTINUOUS
370
-3
390
F
  0
LAYER
  5
202
100
AcDbSymbolTableRecord
100
AcDbLayerTableRecord
  2
CURVE
 70
0
 62
7
  6
CONTINUOUS
370
-3
390
F
  0
LAYER
  5
203
100
AcDbSymbolTableRecord
100
AcDbLayerTableRecord
  2
CURVE_VERN
 70
0
 62
7
  6
CONTINUOUS
370
-3
390
F
  0
LAYER
  5
204
100
AcDbSymbolTableRecord
100
AcDbLayerTableRecord
  2
DRAFT
 70
0
 62
7
  6
CONTINUOUS
370
-3
390
F
  0
LAYER
  5
205
100
AcDbSymbolTableRecord
100
AcDbLayerTableRecord
  2
IMPORT_IGES
 70
0
 62
7
  6
CONTINUOUS
370
-3
390
F
  0
LAYER
  5
206
100
AcDbSymbolTableRecord
100
AcDbLayerTableRecord
  2
INTFCLR_1
 70
0
 62
7
  6
CONTINUOUS
370
-3
390
F
  0
LAYER
  5
207
100
AcDbSymbolTableRecord
100
AcDbLayerTableRecord
  2
INTF_1
 70
0
 62
7
  6
CONTINUOUS
370
-3
390
F
  0
LAYER
  5
208
100
AcDbSymbolTableRecord
100
AcDbLayerTableRecord
  2
INTF_7
 70
0
 62
7
  6
CONTINUOUS
370
-3
390
F
  0
LAYER
  5
209
100
AcDbSymbolTableRecord
100
AcDbLayerTableRecord
  2
INTF_CYAN
 70
0
 62
7
  6
CONTINUOUS
370
-3
390
F
  0
LAYER
  5
20A
100
AcDbSymbolTableRecord
100
AcDbLayerTableRecord
  2
NOTE
 70
0
 62
7
  6
CONTINUOUS
370
-3
390
F
  0
LAYER
  5
20B
100
AcDbSymbolTableRecord
100
AcDbLayerTableRecord
  2
PIANI
 70
0
 62
7
  6
CONTINUOUS
370
-3
390
F
  0
LAYER
  5
20C
100
AcDbSymbolTableRecord
100
AcDbLayerTableRecord
  2
PUNTI
 70
0
 62
7
  6
CONTINUOUS
370
-3
390
F
  0
LAYER
  5
20D
100
AcDbSymbolTableRecord
100
AcDbLayerTableRecord
  2
RACCORDO
 70
0
 62
7
  6
CONTINUOUS
370
-3
390
F
  0
LAYER
  5
20E
100
AcDbSymbolTableRecord
100
AcDbLayerTableRecord
  2
RGB__255__255__255__
 70
0
 62
7
  6
CONTINUOUS
370
-3
390
F
  0
LAYER
  5
20F
100
AcDbSymbolTableRecord
100
AcDbLayerTableRecord
  2
RGB____0____0____0__
 70
0
 62
7
  6
CONTINUOUS
370
-3
390
F
  0
LAYER
  5
210
100
AcDbSymbolTableRecord
100
AcDbLayerTableRecord
  2
SIMBOLI
 70
0
 62
7
  6
CONTINUOUS
370
-3
390
F
  0
LAYER
  5
211
100
AcDbSymbolTableRecord
100
AcDbLayerTableRecord
  2
SMUSSO
 70
0
 62
7
  6
CONTINUOUS
370
-3
390
F
  0
LAYER
  5
212
100
AcDbSymbolTableRecord
100
AcDbLayerTableRecord
  2
SNAPLINE
 70
0
 62
7
  6
CONTINUOUS
370
-3
390
F
  0
LAYER
  5
213
100
AcDbSymbolTableRecord
100
AcDbLayerTableRecord
  2
SUPERFICI
 70
0
 62
7
  6
CONTINUOUS
370
-3
390
F
  0
LAYER
  5
214
100
AcDbSymbolTableRecord
100
AcDbLayerTableRecord
  2
TRASH
 70
0
 62
7
  6
CONTINUOUS
370
-3
390
F
  0
LAYER
  5
215
100
AcDbSymbolTableRecord
100
AcDbLayerTableRecord
  2
XSEC_DATUMS
 70
0
 62
7
  6
CONTINUOUS
370
-3
390
F
  0
ENDTAB
  0
TABLE
  2
STYLE
  5
3
100
AcDbSymbolTable
 70
1
  0
STYLE
  5
11
100
AcDbSymbolTableRecord
100
AcDbTextStyleTableRecord
  2
STANDARD
 70
0
 40
0.0
 41
0.8
 50
0.0
 71
0
 42
0.2
  3
txt
  4

  0
STYLE
  5
216
100
AcDbSymbolTableRecord
100
AcDbTextStyleTableRecord
  2
TEXTSTYLE_1
 70
0
 40
0.0
 41
0.8
 50
0.0
 71
0
 42
0.2
  3
gdt
  4

  0
ENDTAB
  0
TABLE
  2
VIEW
  5
6
100
AcDbSymbolTable
 70
0
  0
ENDTAB
  0
TABLE
  2
UCS
  5
7
100
AcDbSymbolTable
 70
0
  0
ENDTAB
  0
TABLE
  2
APPID
  5
9
100
AcDbSymbolTable
 70
1
  0
APPID
  5
217
100
AcDbSymbolTableRecord
100
AcDbRegAppTableRecord
  2
ACAD
 70
0
  0
ENDTAB
  0
TABLE
  2
BLOCK_RECORD
  5
1
100
AcDbSymbolTable
 70
0
  0
BLOCK_RECORD
  5
218
100
AcDbSymbolTableRecord
100
AcDbBlockTableRecord
  2
*Model_Space
  0
BLOCK_RECORD
  5
219
100
AcDbSymbolTableRecord
100
AcDbBlockTableRecord
  2
*Paper_Space
  0
BLOCK_RECORD
  5
21A
100
AcDbSymbolTableRecord
100
AcDbBlockTableRecord
  2
_FILLED
  0
ENDTAB
  0
TABLE
  2
DIMSTYLE
  5
A
100
AcDbSymbolTable
 70
1
100
AcDbDimStyleTable
 71
0
  0
DIMSTYLE
105
21B
100
AcDbSymbolTableRecord
100
AcDbDimStyleTableRecord
  2
STANDARD
 70
0
  3

  4

 40
1.0
 41
3.0
 42
0.5
 43
0.38
 44
1.5
 45
0.0
 46
0.0
 47
0.01
 48
0.01
140
3.0
141
0.09
142
0.0
143
25.4
144
1.0
145
0.0
146
1.0
147
0.625
 71
1.0
 72
0.0
 73
0
 74
0
 75
0
 76
0
 77
1
 78
8
 79
2
170
0
171
1
172
0
173
0
174
0
175
0
176
0
177
0
178
0
270
2
179
2
271
2
272
2
273
2
274
2
275
0
280
0
281
0
282
0
283
1
284
8
285
0
286
0
287
3
288
0
340
11
278
44
341
21A
342
21A
343
21A
344
21A
  0
ENDTAB
  0
ENDSEC
  0
SECTION
  2
BLOCKS
  0
BLOCK
  5
20
100
AcDbEntity
  8
0
100
AcDbBlockBegin
  2
*Model_Space
 70
0
 10
0.0
 20
0.0
 30
0.0
  3
*Model_Space
  1

  0
ENDBLK
  5
21
100
AcDbEntity
  8
0
100
AcDbBlockEnd
  0
BLOCK
  5
1C
100
AcDbEntity
  8
0
100
AcDbBlockBegin
  2
*Paper_Space
 70
0
 10
0.0
 20
0.0
 30
0.0
  3
*Paper_Space
  1

  0
ENDBLK
  5
1D
100
AcDbEntity
  8
0
100
AcDbBlockEnd
  0
BLOCK
  5
21C
100
AcDbEntity
  8
0
100
AcDbBlockBegin
  2
_FILLED
 70
64
 10
0.0
 20
0.0
  3
_FILLED
  1

  0
SOLID
  5
21D
100
AcDbEntity
  8
0
  6
BYBLOCK
 62
0
100
AcDbTrace
 10
0.0
 20
0.0
 11
-1.0
 21
0.1333333333
 12
-1.0
 22
-0.1333333333
 13
-1.0
 23
-0.1333333333
  0
ENDBLK
  5
21E
100
AcDbEntity
  8
0
  6
BYBLOCK
 62
0
100
AcDbBlockEnd
  0
ENDSEC
  0
SECTION
  2
ENTITIES
  0
LINE
  5
21F
100
AcDbEntity
  8
0
100
AcDbLine
 62
7
  6
CONTINUOUS
 10
3.5853335788
 20
-24.5833755024
 11
3.5833756784
 21
-24.5651373444
  0
LINE
  5
220
100
AcDbEntity
  8
RACCORDO
100
AcDbLine
 62
7
  6
CONTINUOUS
 10
-30.9211005689
 20
-8.44083738
 11
-30.7392286696
 21
-10.2539264427
  0
LINE
  5
221
100
AcDbEntity
  8
RACCORDO
100
AcDbLine
 62
7
  6
CONTINUOUS
 10
-31.0097250086
 20
-8.3117989037
 11
-30.8265180101
 21
-10.1386816334
  0
LINE
  5
222
100
AcDbEntity
  8
0
100
AcDbLine
 62
7
  6
CONTINUOUS
 10
4.0769151351
 20
-24.7126680855
 11
4.0735931211
 21
-24.6790299473
  0
LINE
  5
223
100
AcDbEntity
  8
0
100
AcDbLine
 62
7
  6
CONTINUOUS
 10
-9.5664780974
 20
-10.5010262481
 11
-9.5646534259
 21
-10.5199599257
  0
LINE
  5
224
100
AcDbEntity
  8
0
100
AcDbLine
 62
7
  6
CONTINUOUS
 10
3.9681726287
 20
-24.7496289341
 11
3.9711151386
 21
-24.781386168
  0
LINE
  5
225
100
AcDbEntity
  8
RACCORDO
100
AcDbLine
 62
7
  6
CONTINUOUS
 10
-31.1700715082
 20
-6.467331117
 11
-31.0097250086
 21
-8.3117989037
  0
LINE
  5
226
100
AcDbEntity
  8
RACCORDO
100
AcDbLine
 62
7
  6
CONTINUOUS
 10
-31.0804532165
 20
-6.6103499752
 11
-30.9211005689
 21
-8.44083738
  0
LINE
  5
227
100
AcDbEntity
  8
0
100
AcDbLine
 62
7
  6
CONTINUOUS
 10
-2.0019377901
 20
-22.1516140551
 11
-1.9459306961
 21
-22.8809360972
  0
LINE
  5
228
100
AcDbEntity
  8
0
100
AcDbLine
 62
7
  6
CONTINUOUS
 10
-1.5886989303
 20
-22.3902129936
 11
-1.5326918363
 21
-23.1195350358
  0
LINE
  5
229
100
AcDbEntity
  8
0
100
AcDbLine
 62
7
  6
CONTINUOUS
 10
-1.4262181564
 20
-23.0580584675
 11
-1.4822757446
 21
-22.3287662005
  0
LINE
  5
22A
100
AcDbEntity
  8
0
100
AcDbLine
 62
7
  6
CONTINUOUS
 10
2.6898593017
 20
-24.8688049103
 11
2.745230533
 21
-25.5895540608
  0
LINE
  5
22B
100
AcDbEntity
  8
0
100
AcDbLine
 62
7
  6
CONTINUOUS
 10
3.1019538307
 20
-25.1134277087
 11
3.1568066613
 21
-25.827192959
  0
LINE
  5
22C
100
AcDbEntity
  8
0
100
AcDbLine
 62
7
  6
CONTINUOUS
 10
3.2632803411
 20
-25.7657163907
 11
3.2072946574
 21
-25.0373009441
  0
LINE
  5
22D
100
AcDbEntity
  8
RACCORDO
100
AcDbLine
 62
7
  6
CONTINUOUS
 10
-31.2172547308
 20
-4.7628301641
 11
-31.0804532165
 21
-6.6103499752
  0
LINE
  5
22E
100
AcDbEntity
  8
RACCORDO
100
AcDbLine
 62
7
  6
CONTINUOUS
 10
-31.3075265819
 20
-4.6056343093
 11
-31.1700715082
 21
-6.467331117
  0
LINE
  5
22F
100
AcDbEntity
  8
0
100
AcDbLine
 62
7
  6
CONTINUOUS
 10
3.091406868
 20
-24.9703887869
 11
3.1019538307
 21
-25.1134277087
  0
LINE
  5
230
100
AcDbEntity
  8
0
100
AcDbLine
 62
7
  6
CONTINUOUS
 10
-2.0542593701
 20
-21.4198071163
 11
-2.0019377901
 21
-22.1516140551
  0
LINE
  5
231
100
AcDbEntity
  8
0
100
AcDbLine
 62
7
  6
CONTINUOUS
 10
-1.6410205103
 20
-21.6584060549
 11
-1.5886989303
 21
-22.3902129936
  0
LINE
  5
232
100
AcDbEntity
  8
0
100
AcDbLine
 62
7
  6
CONTINUOUS
 10
-1.4822757446
 20
-22.3287662005
 11
-1.5346444983
 21
-21.5969864759
  0
LINE
  5
233
100
AcDbEntity
  8
0
100
AcDbLine
 62
7
  6
CONTINUOUS
 10
2.6380875743
 20
-24.1456285825
 11
2.6898593017
 21
-24.8688049103
  0
LINE
  5
234
100
AcDbEntity
  8
0
100
AcDbLine
 62
7
  6
CONTINUOUS
 10
-9.5062021804
 20
-10.1386208641
 11
-9.507574938
 21
-10.1190420819
  0
LINE
  5
235
100
AcDbEntity
  8
0
100
AcDbLine
 62
7
  6
CONTINUOUS
 10
-9.4971737029
 20
-10.4321479639
 11
-9.4980342217
 21
-10.4195260223
  0
LINE
  5
236
100
AcDbEntity
  8
RACCORDO
100
AcDbLine
 62
7
  6
CONTINUOUS
 10
-23.7263536577
 20
-4.4706050469
 11
-23.7286768714
 21
-4.4359224317
  0
LINE
  5
237
100
AcDbEntity
  8
RACCORDO
100
AcDbLine
 62
7
  6
CONTINUOUS
 10
-24.4125936503
 20
-4.5017537199
 11
-24.4163790426
 21
-4.4450923751
  0
LINE
  5
238
100
AcDbEntity
  8
0
100
AcDbLine
 62
7
  6
CONTINUOUS
 10
2.5899179395
 20
-23.4200612378
 11
2.6380875743
 21
-24.1456285825
  0
LINE
  5
239
100
AcDbEntity
  8
0
100
AcDbLine
 62
7
  6
CONTINUOUS
 10
-2.1028927692
 20
-20.6855525807
 11
-2.0542593701
 21
-21.4198071163
  0
LINE
  5
23A
100
AcDbEntity
  8
0
100
AcDbLine
 62
7
  6
CONTINUOUS
 10
-1.6896539095
 20
-20.9241515193
 11
-1.6410205103
 21
-21.6584060549
  0
LINE
  5
23B
100
AcDbEntity
  8
0
100
AcDbLine
 62
7
  6
CONTINUOUS
 10
-1.5346444983
 20
-21.5969864759
 11
-1.5833217438
 21
-20.8627566595
  0
LINE
  5
23C
100
AcDbEntity
  8
RACCORDO
100
AcDbLine
 62
7
  6
CONTINUOUS
 10
-31.3314734598
 20
-2.8986561512
 11
-31.2172547308
 21
-4.7628301641
  0
LINE
  5
23D
100
AcDbEntity
  8
RACCORDO
100
AcDbLine
 62
7
  6
CONTINUOUS
 10
-31.4220637482
 20
-2.7271443149
 11
-31.3075265819
 21
-4.6056343093
  0
LINE
  5
23E
100
AcDbEntity
  8
RACCORDO
100
AcDbLine
 62
7
  6
CONTINUOUS
 10
-23.4501098742
 20
31.7915368651
 11
-23.4485527473
 21
31.7619402059
  0
LINE
  5
23F
100
AcDbEntity
  8
RACCORDO
100
AcDbLine
 62
7
  6
CONTINUOUS
 10
-31.423084892
 20
-1.0182049074
 11
-31.3314734598
 21
-2.8986561512
  0
LINE
  5
240
100
AcDbEntity
  8
RACCORDO
100
AcDbLine
 62
7
  6
CONTINUOUS
 10
-31.5109494272
 20
-0.8963298282
 11
-31.4220637482
 21
-2.7271443149
  0
LINE
  5
241
100
AcDbEntity
  8
RACCORDO
100
AcDbLine
 62
7
  6
CONTINUOUS
 10
-24.4163790426
 20
-4.4450923751
 11
-24.5372727529
 21
-1.5336571658
  0
LINE
  5
242
100
AcDbEntity
  8
RACCORDO
100
AcDbLine
 62
7
  6
CONTINUOUS
 10
-23.7286772809
 20
-4.4359226676
 11
-23.8494516059
 21
-1.5273925089
  0
LINE
  5
243
100
AcDbEntity
  8
RACCORDO
100
AcDbLine
 62
7
  6
CONTINUOUS
 10
-31.626178913
 20
2.0627048616
 11
-31.5109494272
 21
-0.8963299161
  0
LINE
  5
244
100
AcDbEntity
  8
RACCORDO
100
AcDbLine
 62
7
  6
CONTINUOUS
 10
-31.5400228553
 20
1.9891048408
 11
-31.423084964
 21
-1.0182048659
  0
LINE
  5
245
100
AcDbEntity
  8
RACCORDO
100
AcDbLine
 62
7
  6
CONTINUOUS
 10
-24.5372727529
 20
-1.5336571658
 11
-24.6361961711
 21
1.3901781045
  0
LINE
  5
246
100
AcDbEntity
  8
RACCORDO
100
AcDbLine
 62
7
  6
CONTINUOUS
 10
-23.8494516059
 20
-1.5273925089
 11
-23.9482687351
 21
1.3931385039
  0
LINE
  5
247
100
AcDbEntity
  8
RACCORDO
100
AcDbLine
 62
7
  6
CONTINUOUS
 10
-31.7225115942
 20
5.0952578454
 11
-31.626178913
 21
2.0627048616
  0
LINE
  5
248
100
AcDbEntity
  8
RACCORDO
100
AcDbLine
 62
7
  6
CONTINUOUS
 10
-31.6357166799
 20
5.0112412302
 11
-31.5400228553
 21
1.9891048408
  0
LINE
  5
249
100
AcDbEntity
  8
0
100
AcDbLine
 62
7
  6
CONTINUOUS
 10
-9.7439703468
 20
-10.2339661499
 11
-9.7529989424
 21
-9.9404352071
  0
LINE
  5
24A
100
AcDbEntity
  8
0
100
AcDbLine
 62
7
  6
CONTINUOUS
 10
-9.4971737029
 20
-10.4321479639
 11
-9.5062022986
 21
-10.1386170211
  0
LINE
  5
24B
100
AcDbEntity
  8
RACCORDO
100
AcDbLine
 62
7
  6
CONTINUOUS
 10
-24.6361961711
 20
1.3901781045
 11
-24.7131431218
 21
4.3262216343
  0
LINE
  5
24C
100
AcDbEntity
  8
RACCORDO
100
AcDbLine
 62
7
  6
CONTINUOUS
 10
-23.9482687351
 20
1.3931385039
 11
-24.0251286686
 21
4.3256703708
  0
LINE
  5
24D
100
AcDbEntity
  8
RACCORDO
100
AcDbLine
 62
7
  6
CONTINUOUS
 10
-31.797439883
 20
8.1423923866
 11
-31.7225115942
 21
5.0952578454
  0
LINE
  5
24E
100
AcDbEntity
  8
RACCORDO
100
AcDbLine
 62
7
  6
CONTINUOUS
 10
-31.7101567885
 20
8.0479924912
 11
-31.6357166799
 21
5.0112412302
  0
LINE
  5
24F
100
AcDbEntity
  8
0
100
AcDbLine
 62
7
  6
CONTINUOUS
 10
-9.5646534259
 20
-10.5199599257
 11
-9.5642171001
 21
-10.5382783009
  0
LINE
  5
250
100
AcDbEntity
  8
RACCORDO
100
AcDbLine
 62
7
  6
CONTINUOUS
 10
-24.7131431218
 20
4.3262216343
 11
-24.7681089096
 21
7.2742808826
  0
LINE
  5
251
100
AcDbEntity
  8
RACCORDO
100
AcDbLine
 62
7
  6
CONTINUOUS
 10
-24.0251286686
 20
4.3256703708
 11
-24.0800335787
 21
7.2703971988
  0
LINE
  5
252
100
AcDbEntity
  8
RACCORDO
100
AcDbLine
 62
7
  6
CONTINUOUS
 10
-31.8509570639
 20
11.2038673053
 11
-31.797439883
 21
8.1423923866
  0
LINE
  5
253
100
AcDbEntity
  8
RACCORDO
100
AcDbLine
 62
7
  6
CONTINUOUS
 10
-31.7633354626
 20
11.0991839512
 11
-31.7101567885
 21
8.0479924912
  0
LINE
  5
254
100
AcDbEntity
  8
0
100
AcDbLine
 62
7
  6
CONTINUOUS
 10
-9.4971737029
 20
-10.4321479639
 11
-9.4970555262
 21
-10.4398151681
  0
LINE
  5
255
100
AcDbEntity
  8
RACCORDO
100
AcDbLine
 62
7
  6
CONTINUOUS
 10
-23.449687667
 20
-6.0088951044
 11
-23.450109874
 21
-5.9785940804
  0
LINE
  5
256
100
AcDbEntity
  8
RACCORDO
100
AcDbLine
 62
7
  6
CONTINUOUS
 10
-24.7681089096
 20
7.2742808826
 11
-24.801089993
 21
10.2341622715
  0
LINE
  5
257
100
AcDbEntity
  8
RACCORDO
100
AcDbLine
 62
7
  6
CONTINUOUS
 10
-24.0800335787
 20
7.2703971988
 11
-24.112981293
 21
10.2271248809
  0
LINE
  5
258
100
AcDbEntity
  8
RACCORDO
100
AcDbLine
 62
7
  6
CONTINUOUS
 10
-31.8830608635
 20
14.279466968
 11
-31.8509570639
 21
11.2038673053
  0
LINE
  5
259
100
AcDbEntity
  8
RACCORDO
100
AcDbLine
 62
7
  6
CONTINUOUS
 10
-31.7952453037
 20
14.1645639385
 11
-31.7633354626
 21
11.0991839512
  0
LINE
  5
25A
100
AcDbEntity
  8
RACCORDO
100
AcDbLine
 62
7
  6
CONTINUOUS
 10
-31.5109412835
 20
36.1108303841
 11
-31.5109766814
 21
36.1188391004
  0
LINE
  5
25B
100
AcDbEntity
  8
RACCORDO
100
AcDbLine
 62
7
  6
CONTINUOUS
 10
-24.801089993
 20
10.2341622715
 11
-24.8120839882
 21
13.2056711974
  0
LINE
  5
25C
100
AcDbEntity
  8
RACCORDO
100
AcDbLine
 62
7
  6
CONTINUOUS
 10
-24.112981293
 20
10.2271248809
 11
-24.1239652944
 21
13.1952710958
  0
LINE
  5
25D
100
AcDbEntity
  8
RACCORDO
100
AcDbLine
 62
7
  6
CONTINUOUS
 10
-31.89375
 20
17.3689865828
 11
-31.8830608635
 21
14.279466968
  0
LINE
  5
25E
100
AcDbEntity
  8
RACCORDO
100
AcDbLine
 62
7
  6
CONTINUOUS
 10
-31.8058820425
 20
17.2438021344
 11
-31.7952453037
 21
14.1645639385
  0
LINE
  5
25F
100
AcDbEntity
  8
0
100
AcDbLine
 62
7
  6
CONTINUOUS
 10
-21.6701216412
 20
-3.2473237134
 11
-21.6701216412
 21
30.6033771282
  0
LINE
  5
260
100
AcDbEntity
  8
0
100
AcDbLine
 62
7
  6
CONTINUOUS
 10
-9.5642171001
 20
-10.8327058604
 11
-9.5642171001
 21
-10.5382783009
  0
LINE
  5
261
100
AcDbEntity
  8
0
100
AcDbLine
 62
7
  6
CONTINUOUS
 10
-9.4970936017
 20
-10.7317423338
 11
-9.4970936017
 21
-10.4373147743
  0
LINE
  5
262
100
AcDbEntity
  8
RACCORDO
100
AcDbLine
 62
7
  6
CONTINUOUS
 10
-31.8830236135
 20
20.472212307
 11
-31.89375
 21
17.3689865828
  0
LINE
  5
263
100
AcDbEntity
  8
RACCORDO
100
AcDbLine
 62
7
  6
CONTINUOUS
 10
-31.7952453096
 20
20.3366815229
 11
-31.8058820425
 21
17.2438021344
  0
LINE
  5
264
100
AcDbEntity
  8
RACCORDO
100
AcDbLine
 62
7
  6
CONTINUOUS
 10
-24.8120839882
 20
13.2056711974
 11
-24.8010899936
 21
16.1886124366
  0
LINE
  5
265
100
AcDbEntity
  8
RACCORDO
100
AcDbLine
 62
7
  6
CONTINUOUS
 10
-24.1239652944
 20
13.1952710958
 11
-24.1129812043
 21
16.1748390389
  0
LINE
  5
266
100
AcDbEntity
  8
RACCORDO
100
AcDbLine
 62
7
  6
CONTINUOUS
 10
-31.8508832837
 20
23.5889287255
 11
-31.8830236135
 21
20.472212307
  0
LINE
  5
267
100
AcDbEntity
  8
RACCORDO
100
AcDbLine
 62
7
  6
CONTINUOUS
 10
-31.7633354727
 20
23.4429836647
 11
-31.7952453096
 21
20.3366815229
  0
LINE
  5
268
100
AcDbEntity
  8
RACCORDO
100
AcDbLine
 62
7
  6
CONTINUOUS
 10
-24.8010899936
 20
16.1886124366
 11
-24.7681089106
 21
19.1827902222
  0
LINE
  5
269
100
AcDbEntity
  8
RACCORDO
100
AcDbLine
 62
7
  6
CONTINUOUS
 10
-24.1129812043
 20
16.1748390389
 11
-24.0800334013
 21
19.1658255147
  0
LINE
  5
26A
100
AcDbEntity
  8
RACCORDO
100
AcDbLine
 62
7
  6
CONTINUOUS
 10
-23.449687667
 20
31.8223254325
 11
-23.4501098742
 21
31.7915368651
  0
LINE
  5
26B
100
AcDbEntity
  8
RACCORDO
100
AcDbLine
 62
7
  6
CONTINUOUS
 10
-29.8762418947
 20
54.5050149936
 11
-29.8760496689
 21
54.5167336561
  0
LINE
  5
26C
100
AcDbEntity
  8
RACCORDO
100
AcDbLine
 62
7
  6
CONTINUOUS
 10
-31.7973310133
 20
26.7189288942
 11
-31.8508832837
 21
23.5889287255
  0
LINE
  5
26D
100
AcDbEntity
  8
RACCORDO
100
AcDbLine
 62
7
  6
CONTINUOUS
 10
-31.7101568007
 20
26.5623718153
 11
-31.7633354727
 21
23.4429836647
  0
LINE
  5
26E
100
AcDbEntity
  8
RACCORDO
100
AcDbLine
 62
7
  6
CONTINUOUS
 10
-24.7681089106
 20
19.1827902222
 11
-24.7131431232
 21
22.1880079453
  0
LINE
  5
26F
100
AcDbEntity
  8
RACCORDO
100
AcDbLine
 62
7
  6
CONTINUOUS
 10
-24.0800334013
 20
19.1658255147
 11
-24.0251285034
 21
22.1676386165
  0
LINE
  5
270
100
AcDbEntity
  8
RACCORDO
100
AcDbLine
 62
7
  6
CONTINUOUS
 10
-31.6357166917
 20
29.6945852607
 11
-31.7101568007
 21
26.5623718153
  0
LINE
  5
271
100
AcDbEntity
  8
RACCORDO
100
AcDbLine
 62
7
  6
CONTINUOUS
 10
-31.7223697981
 20
29.8619937579
 11
-31.7973310133
 21
26.7189288942
  0
LINE
  5
272
100
AcDbEntity
  8
0
100
AcDbLine
 62
7
  6
CONTINUOUS
 10
-9.5642171001
 20
-10.8327058604
 11
-9.5646512742
 21
-10.8499224049
  0
LINE
  5
273
100
AcDbEntity
  8
RACCORDO
100
AcDbLine
 62
7
  6
CONTINUOUS
 10
-24.7131431232
 20
22.1880079453
 11
-24.6361961724
 21
25.2040681876
  0
LINE
  5
274
100
AcDbEntity
  8
RACCORDO
100
AcDbLine
 62
7
  6
CONTINUOUS
 10
-24.0251285034
 20
22.1676386165
 11
-23.9482687169
 21
25.1800810417
  0
LINE
  5
275
100
AcDbEntity
  8
RACCORDO
100
AcDbLine
 62
7
  6
CONTINUOUS
 10
-31.6260070761
 20
33.017873068
 11
-31.7223697981
 21
29.8619937579
  0
LINE
  5
276
100
AcDbEntity
  8
RACCORDO
100
AcDbLine
 62
7
  6
CONTINUOUS
 10
-31.5400228631
 20
32.8394409145
 11
-31.6357166917
 21
29.6945852607
  0
LINE
  5
277
100
AcDbEntity
  8
RACCORDO
100
AcDbLine
 62
7
  6
CONTINUOUS
 10
-24.6361961724
 20
25.2040681876
 11
-24.5372727539
 21
28.2307727366
  0
LINE
  5
278
100
AcDbEntity
  8
RACCORDO
100
AcDbLine
 62
7
  6
CONTINUOUS
 10
-23.9482687169
 20
25.1800810417
 11
-23.8494518356
 21
28.2033500929
  0
LINE
  5
279
100
AcDbEntity
  8
0
100
AcDbLine
 62
7
  6
CONTINUOUS
 10
-11.8951689494
 20
-8.9918910376
 11
-11.8944699362
 21
-8.9705459341
  0
LINE
  5
27A
100
AcDbEntity
  8
0
100
AcDbLine
 62
7
  6
CONTINUOUS
 10
-11.3772221435
 20
-8.9808833285
 11
-11.3779210533
 21
-9.0022255453
  0
LINE
  5
27B
100
AcDbEntity
  8
RACCORDO
100
AcDbLine
 62
7
  6
CONTINUOUS
 10
-31.4230849635
 20
35.9967158232
 11
-31.5400228631
 21
32.8394409145
  0
LINE
  5
27C
100
AcDbEntity
  8
RACCORDO
100
AcDbLine
 62
7
  6
CONTINUOUS
 10
-31.5109766794
 20
36.1188391497
 11
-31.6260070761
 21
33.017873068
  0
LINE
  5
27D
100
AcDbEntity
  8
0
100
AcDbLine
 62
7
  6
CONTINUOUS
 10
-11.8944699362
 20
-8.9705459341
 11
-11.894161679
 21
-8.9623894425
  0
LINE
  5
27E
100
AcDbEntity
  8
0
100
AcDbLine
 62
7
  6
CONTINUOUS
 10
-11.3769139397
 20
-8.9727278454
 11
-11.3772221435
 21
-8.9808833285
  0
LINE
  5
27F
100
AcDbEntity
  8
RACCORDO
100
AcDbLine
 62
7
  6
CONTINUOUS
 10
-24.5372727539
 20
28.2307727366
 11
-24.4163790426
 21
31.2679226602
  0
LINE
  5
280
100
AcDbEntity
  8
RACCORDO
100
AcDbLine
 62
7
  6
CONTINUOUS
 10
-23.8494518356
 20
28.2033500929
 11
-23.7286778596
 21
31.2374457699
  0
LINE
  5
281
100
AcDbEntity
  8
0
100
AcDbLine
 62
7
  6
CONTINUOUS
 10
-11.894161679
 20
-8.9623894425
 11
-11.8938840706
 21
-8.9559962001
  0
LINE
  5
282
100
AcDbEntity
  8
0
100
AcDbLine
 62
7
  6
CONTINUOUS
 10
-11.3766363853
 20
-8.9663351349
 11
-11.3769139397
 21
-8.9727278454
  0
LINE
  5
283
100
AcDbEntity
  8
RACCORDO
100
AcDbLine
 62
7
  6
CONTINUOUS
 10
-31.4218359033
 20
38.0685814966
 11
-31.5109766786
 21
36.1188391003
  0
LINE
  5
284
100
AcDbEntity
  8
RACCORDO
100
AcDbLine
 62
7
  6
CONTINUOUS
 10
-31.3314734644
 20
37.9946434174
 11
-31.4230848915
 21
35.9967157817
  0
LINE
  5
285
100
AcDbEntity
  8
RACCORDO
100
AcDbLine
 62
7
  6
CONTINUOUS
 10
-23.450109874
 20
-5.9785940804
 11
-23.4485527456
 21
-5.94719928
  0
LINE
  5
286
100
AcDbEntity
  8
0
100
AcDbLine
 62
7
  6
CONTINUOUS
 10
-11.8938840706
 20
-8.9559962001
 11
-11.8936392012
 21
-8.9514144893
  0
LINE
  5
287
100
AcDbEntity
  8
RACCORDO
100
AcDbLine
 62
7
  6
CONTINUOUS
 10
-31.3072848277
 20
40.0931361271
 11
-31.4218359033
 21
38.0685814966
  0
LINE
  5
288
100
AcDbEntity
  8
RACCORDO
100
AcDbLine
 62
7
  6
CONTINUOUS
 10
-31.2172547381
 20
40.0052751899
 11
-31.3314734644
 21
37.9946434174
  0
LINE
  5
289
100
AcDbEntity
  8
RACCORDO
100
AcDbLine
 62
7
  6
CONTINUOUS
 10
-24.4163790426
 20
31.2679226602
 11
-24.4126599746
 21
31.3252752638
  0
LINE
  5
28A
100
AcDbEntity
  8
RACCORDO
100
AcDbLine
 62
7
  6
CONTINUOUS
 10
-23.7286777235
 20
31.2374458328
 11
-23.7263810257
 21
31.2724772831
  0
LINE
  5
28B
100
AcDbEntity
  8
RACCORDO
100
AcDbLine
 62
7
  6
CONTINUOUS
 10
-31.1698366492
 20
42.130126065
 11
-31.3072848277
 21
40.0931361271
  0
LINE
  5
28C
100
AcDbEntity
  8
RACCORDO
100
AcDbLine
 62
7
  6
CONTINUOUS
 10
-31.0804532212
 20
42.0282058243
 11
-31.2172547381
 21
40.0052751899
  0
LINE
  5
28D
100
AcDbEntity
  8
RACCORDO
100
AcDbLine
 62
7
  6
CONTINUOUS
 10
-31.0095212545
 20
44.179079943
 11
-31.1698366492
 21
42.130126065
  0
LINE
  5
28E
100
AcDbEntity
  8
RACCORDO
100
AcDbLine
 62
7
  6
CONTINUOUS
 10
-30.9211005562
 20
44.0630252768
 11
-31.0804532212
 21
42.0282058243
  0
LINE
  5
28F
100
AcDbEntity
  8
RACCORDO
100
AcDbLine
 62
7
  6
CONTINUOUS
 10
-30.8263730514
 20
46.239599579
 11
-31.0095212545
 21
44.179079943
  0
LINE
  5
290
100
AcDbEntity
  8
RACCORDO
100
AcDbLine
 62
7
  6
CONTINUOUS
 10
-30.7392286261
 20
46.1093260877
 11
-30.9211005562
 21
44.0630252768
  0
LINE
  5
291
100
AcDbEntity
  8
RACCORDO
100
AcDbLine
 62
7
  6
CONTINUOUS
 10
-30.5348691279
 20
48.1667036511
 11
-30.7392286261
 21
46.1093260877
  0
LINE
  5
292
100
AcDbEntity
  8
RACCORDO
100
AcDbLine
 62
7
  6
CONTINUOUS
 10
-30.6204260581
 20
48.311316839
 11
-30.8263730514
 21
46.239599579
  0
LINE
  5
293
100
AcDbEntity
  8
RACCORDO
100
AcDbLine
 62
7
  6
CONTINUOUS
 10
-23.4485527456
 20
-5.94719928
 11
-23.4450250016
 21
-5.9148865045
  0
LINE
  5
294
100
AcDbEntity
  8
RACCORDO
100
AcDbLine
 62
7
  6
CONTINUOUS
 10
-30.3080629454
 20
50.2347465031
 11
-30.5348691279
 21
48.1667036511
  0
LINE
  5
295
100
AcDbEntity
  8
RACCORDO
100
AcDbLine
 62
7
  6
CONTINUOUS
 10
-30.3917188011
 20
50.3938337938
 11
-30.6204260581
 21
48.311316839
  0
LINE
  5
296
100
AcDbEntity
  8
RACCORDO
100
AcDbLine
 62
7
  6
CONTINUOUS
 10
-24.4126599746
 20
31.3252752638
 11
-24.4061487908
 21
31.3810809949
  0
LINE
  5
297
100
AcDbEntity
  8
RACCORDO
100
AcDbLine
 62
7
  6
CONTINUOUS
 10
-23.7263810257
 20
31.2724772831
 11
-23.7223672011
 21
31.3068437271
  0
LINE
  5
298
100
AcDbEntity
  8
RACCORDO
100
AcDbLine
 62
7
  6
CONTINUOUS
 10
-30.0588605595
 20
52.3130362188
 11
-30.3080629454
 21
50.2347465031
  0
LINE
  5
299
100
AcDbEntity
  8
RACCORDO
100
AcDbLine
 62
7
  6
CONTINUOUS
 10
-30.1403083611
 20
52.486668048
 11
-30.3917188011
 21
50.3938337938
  0
LINE
  5
29A
100
AcDbEntity
  8
RACCORDO
100
AcDbLine
 62
7
  6
CONTINUOUS
 10
-29.8760496689
 20
54.5167336561
 11
-29.8758455834
 21
54.5184132213
  0
LINE
  5
29B
100
AcDbEntity
  8
RACCORDO
100
AcDbLine
 62
7
  6
CONTINUOUS
 10
-29.7873148579
 20
54.4011548981
 11
-30.0588605595
 21
52.3130362188
  0
LINE
  5
29C
100
AcDbEntity
  8
RACCORDO
100
AcDbLine
 62
7
  6
CONTINUOUS
 10
-29.8758452647
 20
54.5184155811
 11
-30.1403083611
 21
52.486668048
  0
LINE
  5
29D
100
AcDbEntity
  8
RACCORDO
100
AcDbLine
 62
7
  6
CONTINUOUS
 10
-29.8682846782
 20
54.5660896253
 11
-29.8758410831
 21
54.5184126131
  0
LINE
  5
29E
100
AcDbEntity
  8
RACCORDO
100
AcDbLine
 62
7
  6
CONTINUOUS
 10
-29.7814173119
 20
54.4378739458
 11
-29.7873148579
 21
54.4011548981
  0
LINE
  5
29F
100
AcDbEntity
  8
RACCORDO
100
AcDbLine
 62
7
  6
CONTINUOUS
 10
-24.4061487908
 20
31.3810809949
 11
-24.3968454692
 21
31.4353398634
  0
LINE
  5
2A0
100
AcDbEntity
  8
RACCORDO
100
AcDbLine
 62
7
  6
CONTINUOUS
 10
-23.7223672011
 20
31.3068437271
 11
-23.7166023308
 21
31.3404120473
  0
LINE
  5
2A1
100
AcDbEntity
  8
RACCORDO
100
AcDbLine
 62
7
  6
CONTINUOUS
 10
-29.2065945554
 20
54.7484524662
 11
-29.202342551
 21
54.7721540812
  0
LINE
  5
2A2
100
AcDbEntity
  8
RACCORDO
100
AcDbLine
 62
7
  6
CONTINUOUS
 10
-29.8563986464
 20
54.6221748178
 11
-29.8682846782
 21
54.5660896253
  0
LINE
  5
2A3
100
AcDbEntity
  8
RACCORDO
100
AcDbLine
 62
7
  6
CONTINUOUS
 10
-29.7738947127
 20
54.4732655897
 11
-29.7814173119
 21
54.4378739458
  0
LINE
  5
2A4
100
AcDbEntity
  8
RACCORDO
100
AcDbLine
 62
7
  6
CONTINUOUS
 10
-29.202342551
 20
54.7721540812
 11
-29.196470845
 21
54.7962700793
  0
LINE
  5
2A5
100
AcDbEntity
  8
RACCORDO
100
AcDbLine
 62
7
  6
CONTINUOUS
 10
-29.7647472787
 20
54.5073297471
 11
-29.7738947127
 21
54.4732655897
  0
LINE
  5
2A6
100
AcDbEntity
  8
RACCORDO
100
AcDbLine
 62
7
  6
CONTINUOUS
 10
-29.8416472466
 20
54.6760862485
 11
-29.8563986464
 21
54.6221748178
  0
LINE
  5
2A7
100
AcDbEntity
  8
RACCORDO
100
AcDbLine
 62
7
  6
CONTINUOUS
 10
-29.196470845
 20
54.7962700793
 11
-29.1890259645
 21
54.8206093221
  0
LINE
  5
2A8
100
AcDbEntity
  8
RACCORDO
100
AcDbLine
 62
7
  6
CONTINUOUS
 10
33.2794220129
 20
-54.16875
 11
33.320585309
 21
-54.1671752393
  0
LINE
  5
2A9
100
AcDbEntity
  8
RACCORDO
100
AcDbLine
 62
7
  6
CONTINUOUS
 10
33.39820615
 20
-53.7584252625
 11
33.4230342393
 21
-53.7584333462
  0
LINE
  5
2AA
100
AcDbEntity
  8
RACCORDO
100
AcDbLine
 62
7
  6
CONTINUOUS
 10
33.0567881982
 20
-54.0331808528
 11
33.0794002085
 21
-54.033388922
  0
LINE
  5
2AB
100
AcDbEntity
  8
RACCORDO
100
AcDbLine
 62
7
  6
CONTINUOUS
 10
33.2377260869
 20
-54.1672079104
 11
33.2794220129
 21
-54.16875
  0
LINE
  5
2AC
100
AcDbEntity
  8
RACCORDO
100
AcDbLine
 62
7
  6
CONTINUOUS
 10
33.3737725794
 20
-53.7569699487
 11
33.39820615
 21
-53.7584252625
  0
LINE
  5
2AD
100
AcDbEntity
  8
RACCORDO
100
AcDbLine
 62
7
  6
CONTINUOUS
 10
33.0330797547
 20
-54.0309609825
 11
33.0567881982
 21
-54.0331808528
  0
LINE
  5
2AE
100
AcDbEntity
  8
RACCORDO
100
AcDbLine
 62
7
  6
CONTINUOUS
 10
33.1956435708
 20
-54.1626106622
 11
33.2377260869
 21
-54.1672079104
  0
LINE
  5
2AF
100
AcDbEntity
  8
RACCORDO
100
AcDbLine
 62
7
  6
CONTINUOUS
 10
33.3499074886
 20
-53.7540777664
 11
33.3737725794
 21
-53.7569699487
  0
LINE
  5
2B0
100
AcDbEntity
  8
RACCORDO
100
AcDbLine
 62
7
  6
CONTINUOUS
 10
33.0085425225
 20
-54.0267713163
 11
33.0330797547
 21
-54.0309609825
  0
LINE
  5
2B1
100
AcDbEntity
  8
RACCORDO
100
AcDbLine
 62
7
  6
CONTINUOUS
 10
33.153162854
 20
-54.1550111574
 11
33.1956435708
 21
-54.1626106622
  0
LINE
  5
2B2
100
AcDbEntity
  8
0
100
AcDbLine
 62
7
  6
CONTINUOUS
 10
22.1399160186
 20
-28.6132433436
 11
22.1188474046
 21
-28.609412026
  0
LINE
  5
2B3
100
AcDbEntity
  8
RACCORDO
100
AcDbLine
 62
7
  6
CONTINUOUS
 10
33.3267807912
 20
-53.7497693071
 11
33.3499074886
 21
-53.7540777664
  0
LINE
  5
2B4
100
AcDbEntity
  8
RACCORDO
100
AcDbLine
 62
7
  6
CONTINUOUS
 10
23.8141811268
 20
-33.2334093751
 11
23.762260866
 21
-33.2232757494
  0
LINE
  5
2B5
100
AcDbEntity
  8
0
100
AcDbLine
 62
7
  6
CONTINUOUS
 10
3.4207667141
 20
-24.7947357653
 11
3.4362045616
 21
-24.7978254638
  0
LINE
  5
2B6
100
AcDbEntity
  8
0
100
AcDbLine
 62
7
  6
CONTINUOUS
 10
3.5418400018
 20
-24.7362680928
 11
3.5265629127
 21
-24.7331592777
  0
LINE
  5
2B7
100
AcDbEntity
  8
0
100
AcDbLine
 62
7
  6
CONTINUOUS
 10
3.7463321186
 20
-25.172266262
 11
3.7379971928
 21
-25.1704747759
  0
LINE
  5
2B8
100
AcDbEntity
  8
0
100
AcDbLine
 62
7
  6
CONTINUOUS
 10
20.48210477
 20
-27.3342294299
 11
20.5009119791
 21
-27.3382890322
  0
LINE
  5
2B9
100
AcDbEntity
  8
RACCORDO
100
AcDbLine
 62
7
  6
CONTINUOUS
 10
24.0184851754
 20
-32.5687038458
 11
23.9875238044
 21
-32.561736999
  0
LINE
  5
2BA
100
AcDbEntity
  8
0
100
AcDbLine
 62
7
  6
CONTINUOUS
 10
19.8661417845
 20
-27.3406005439
 11
19.880408094
 21
-27.3439735692
  0
LINE
  5
2BB
100
AcDbEntity
  8
RACCORDO
100
AcDbLine
 62
7
  6
CONTINUOUS
 10
32.9831881785
 20
-54.0205981472
 11
33.0085425225
 21
-54.0267713163
  0
LINE
  5
2BC
100
AcDbEntity
  8
RACCORDO
100
AcDbLine
 62
7
  6
CONTINUOUS
 10
33.1103101969
 20
-54.1444456537
 11
33.153162854
 21
-54.1550111574
  0
LINE
  5
2BD
100
AcDbEntity
  8
RACCORDO
100
AcDbLine
 62
7
  6
CONTINUOUS
 10
33.3045571439
 20
-53.744075246
 11
33.3267807912
 21
-53.7497693071
  0
LINE
  5
2BE
100
AcDbEntity
  8
0
100
AcDbLine
 62
7
  6
CONTINUOUS
 10
22.1604815892
 20
-28.6185646794
 11
22.1399160186
 21
-28.6132433436
  0
LINE
  5
2BF
100
AcDbEntity
  8
0
100
AcDbLine
 62
7
  6
CONTINUOUS
 10
22.130901681
 20
-28.3197155356
 11
22.151473304
 21
-28.3250398058
  0
LINE
  5
2C0
100
AcDbEntity
  8
0
100
AcDbLine
 62
7
  6
CONTINUOUS
 10
3.4049113978
 20
-24.7905228819
 11
3.4207667141
 21
-24.7947357653
  0
LINE
  5
2C1
100
AcDbEntity
  8
0
100
AcDbLine
 62
7
  6
CONTINUOUS
 10
3.5265629127
 20
-24.7331592777
 11
3.5108354772
 21
-24.728956409
  0
LINE
  5
2C2
100
AcDbEntity
  8
RACCORDO
100
AcDbLine
 62
7
  6
CONTINUOUS
 10
23.762260866
 20
-33.2232757494
 11
23.7090409321
 21
-33.2088899731
  0
LINE
  5
2C3
100
AcDbEntity
  8
0
100
AcDbLine
 62
7
  6
CONTINUOUS
 10
20.5009119791
 20
-27.3382890322
 11
20.519350962
 21
-27.3437828587
  0
LINE
  5
2C4
100
AcDbEntity
  8
0
100
AcDbLine
 62
7
  6
CONTINUOUS
 10
-11.3188931743
 20
-8.9659323325
 11
-11.3004541914
 21
-8.971426159
  0
LINE
  5
2C5
100
AcDbEntity
  8
RACCORDO
100
AcDbLine
 62
7
  6
CONTINUOUS
 10
23.9875238044
 20
-32.561736999
 11
23.955911694
 21
-32.5521645632
  0
LINE
  5
2C6
100
AcDbEntity
  8
RACCORDO
100
AcDbLine
 62
7
  6
CONTINUOUS
 10
32.9570042438
 20
-54.0124558156
 11
32.9831881785
 21
-54.0205981472
  0
LINE
  5
2C7
100
AcDbEntity
  8
RACCORDO
100
AcDbLine
 62
7
  6
CONTINUOUS
 10
33.067075944
 20
-54.1309259542
 11
33.1103101969
 21
-54.1444456537
  0
LINE
  5
2C8
100
AcDbEntity
  8
0
100
AcDbLine
 62
7
  6
CONTINUOUS
 10
3.3887864043
 20
-24.7854488198
 11
3.4049113978
 21
-24.7905228819
  0
LINE
  5
2C9
100
AcDbEntity
  8
0
100
AcDbLine
 62
7
  6
CONTINUOUS
 10
3.5108354772
 20
-24.728956409
 11
3.4948210743
 21
-24.7238991441
  0
LINE
  5
2CA
100
AcDbEntity
  8
0
100
AcDbLine
 62
7
  6
CONTINUOUS
 10
3.7379971928
 20
-25.1704747759
 11
3.7292943634
 21
-25.1676866358
  0
LINE
  5
2CB
100
AcDbEntity
  8
0
100
AcDbLine
 62
7
  6
CONTINUOUS
 10
20.5415682312
 20
-27.3550315104
 11
20.5536024465
 21
-27.3589480332
  0
LINE
  5
2CC
100
AcDbEntity
  8
0
100
AcDbLine
 62
7
  6
CONTINUOUS
 10
-11.2782369222
 20
-8.9826748107
 11
-11.2662027069
 21
-8.9865913334
  0
LINE
  5
2CD
100
AcDbEntity
  8
0
100
AcDbLine
 62
7
  6
CONTINUOUS
 10
22.1786809048
 20
-28.2972217809
 11
22.1666761904
 21
-28.2932874004
  0
LINE
  5
2CE
100
AcDbEntity
  8
0
100
AcDbLine
 62
7
  6
CONTINUOUS
 10
-9.6411242486
 20
-9.9248650812
 11
-9.653128963
 21
-9.9209307007
  0
LINE
  5
2CF
100
AcDbEntity
  8
RACCORDO
100
AcDbLine
 62
7
  6
CONTINUOUS
 10
33.2833947734
 20
-53.7370361235
 11
33.3045571439
 21
-53.744075246
  0
LINE
  5
2D0
100
AcDbEntity
  8
0
100
AcDbLine
 62
7
  6
CONTINUOUS
 10
22.1803900904
 20
-28.6253361791
 11
22.1604815892
 21
-28.6185646794
  0
LINE
  5
2D1
100
AcDbEntity
  8
0
100
AcDbLine
 62
7
  6
CONTINUOUS
 10
22.151473304
 20
-28.3250398058
 11
22.1713879558
 21
-28.3318153733
  0
LINE
  5
2D2
100
AcDbEntity
  8
0
100
AcDbLine
 62
7
  6
CONTINUOUS
 10
-9.639415063
 20
-10.2529794794
 11
-9.6593235642
 21
-10.2462079797
  0
LINE
  5
2D3
100
AcDbEntity
  8
0
100
AcDbLine
 62
7
  6
CONTINUOUS
 10
-9.6683318494
 20
-9.952683106
 11
-9.6484171976
 21
-9.9594586736
  0
LINE
  5
2D4
100
AcDbEntity
  8
RACCORDO
100
AcDbLine
 62
7
  6
CONTINUOUS
 10
23.7090409321
 20
-33.2088899731
 11
23.6553072084
 21
-33.1905695865
  0
LINE
  5
2D5
100
AcDbEntity
  8
0
100
AcDbLine
 62
7
  6
CONTINUOUS
 10
19.880408094
 20
-27.3439735692
 11
19.8949866628
 21
-27.3490671662
  0
LINE
  5
2D6
100
AcDbEntity
  8
0
100
AcDbLine
 62
7
  6
CONTINUOUS
 10
-11.9393970594
 20
-8.9716168695
 11
-11.9248184906
 21
-8.9767104665
  0
LINE
  5
2D7
100
AcDbEntity
  8
0
100
AcDbLine
 62
7
  6
CONTINUOUS
 10
3.3723909804
 20
-24.7795289573
 11
3.3887864043
 21
-24.7854488198
  0
LINE
  5
2D8
100
AcDbEntity
  8
RACCORDO
100
AcDbLine
 62
7
  6
CONTINUOUS
 10
-24.3520024794
 20
-4.4760243607
 11
-24.3166149337
 21
-4.4888253024
  0
LINE
  5
2D9
100
AcDbEntity
  8
0
100
AcDbLine
 62
7
  6
CONTINUOUS
 10
3.4948210743
 20
-24.7238991441
 11
3.4785232198
 21
-24.7179982948
  0
LINE
  5
2DA
100
AcDbEntity
  8
RACCORDO
100
AcDbLine
 62
7
  6
CONTINUOUS
 10
32.9302221778
 20
-54.0024283594
 11
32.9570042438
 21
-54.0124558156
  0
LINE
  5
2DB
100
AcDbEntity
  8
RACCORDO
100
AcDbLine
 62
7
  6
CONTINUOUS
 10
23.955911694
 20
-32.5521645632
 11
23.9238496317
 21
-32.5400920681
  0
LINE
  5
2DC
100
AcDbEntity
  8
RACCORDO
100
AcDbLine
 62
7
  6
CONTINUOUS
 10
33.0234631243
 20
-54.1144645551
 11
33.067075944
 21
-54.1309259542
  0
LINE
  5
2DD
100
AcDbEntity
  8
0
100
AcDbLine
 62
7
  6
CONTINUOUS
 10
20.519350962
 20
-27.3437828587
 11
20.5373141404
 21
-27.3506789845
  0
LINE
  5
2DE
100
AcDbEntity
  8
0
100
AcDbLine
 62
7
  6
CONTINUOUS
 10
-11.3004541914
 20
-8.971426159
 11
-11.282491013
 21
-8.9783222847
  0
LINE
  5
2DF
100
AcDbEntity
  8
0
100
AcDbLine
 62
7
  6
CONTINUOUS
 10
3.0471685242
 20
-24.0139552157
 11
3.0105308469
 21
-23.9993740912
  0
LINE
  5
2E0
100
AcDbEntity
  8
0
100
AcDbLine
 62
7
  6
CONTINUOUS
 10
3.3557257572
 20
-24.7727479976
 11
3.3723909804
 21
-24.7795289573
  0
LINE
  5
2E1
100
AcDbEntity
  8
0
100
AcDbLine
 62
7
  6
CONTINUOUS
 10
3.4785232198
 20
-24.7179982948
 11
3.4619382794
 21
-24.7112431284
  0
LINE
  5
2E2
100
AcDbEntity
  8
RACCORDO
100
AcDbLine
 62
7
  6
CONTINUOUS
 10
23.6553072084
 20
-33.1905695865
 11
23.6013210769
 21
-33.1684208062
  0
LINE
  5
2E3
100
AcDbEntity
  8
RACCORDO
100
AcDbLine
 62
7
  6
CONTINUOUS
 10
33.263444351
 20
-53.7287020565
 11
33.2833947734
 21
-53.7370361235
  0
LINE
  5
2E4
100
AcDbEntity
  8
0
100
AcDbLine
 62
7
  6
CONTINUOUS
 10
2.5899179395
 20
-23.4200612378
 11
2.6318151897
 21
-23.4376376793
  0
LINE
  5
2E5
100
AcDbEntity
  8
0
100
AcDbLine
 62
7
  6
CONTINUOUS
 10
2.7380366838
 20
-23.3761946616
 11
2.6962515904
 21
-23.3586655204
  0
LINE
  5
2E6
100
AcDbEntity
  8
0
100
AcDbLine
 62
7
  6
CONTINUOUS
 10
22.1994924171
 20
-28.6335071276
 11
22.1803900904
 21
-28.6253361791
  0
LINE
  5
2E7
100
AcDbEntity
  8
0
100
AcDbLine
 62
7
  6
CONTINUOUS
 10
-9.6203127363
 20
-10.2611504278
 11
-9.639415063
 21
-10.2529794794
  0
LINE
  5
2E8
100
AcDbEntity
  8
0
100
AcDbLine
 62
7
  6
CONTINUOUS
 10
22.1713879558
 20
-28.3318153733
 11
22.190495083
 21
-28.3399910229
  0
LINE
  5
2E9
100
AcDbEntity
  8
0
100
AcDbLine
 62
7
  6
CONTINUOUS
 10
-9.6484171976
 20
-9.9594586736
 11
-9.6293100704
 21
-9.9676343232
  0
LINE
  5
2EA
100
AcDbEntity
  8
0
100
AcDbLine
 62
7
  6
CONTINUOUS
 10
2.6318151897
 20
-23.4376376793
 11
2.6736936323
 21
-23.4555899955
  0
LINE
  5
2EB
100
AcDbEntity
  8
0
100
AcDbLine
 62
7
  6
CONTINUOUS
 10
2.7798148001
 20
-23.3941031183
 11
2.7380366838
 21
-23.3761946616
  0
LINE
  5
2EC
100
AcDbEntity
  8
0
100
AcDbLine
 62
7
  6
CONTINUOUS
 10
3.0836571098
 20
-24.0297567858
 11
3.0471685242
 21
-24.0139552157
  0
LINE
  5
2ED
100
AcDbEntity
  8
RACCORDO
100
AcDbLine
 62
7
  6
CONTINUOUS
 10
32.9029189904
 20
-53.9905439043
 11
32.9302221778
 21
-54.0024283594
  0
LINE
  5
2EE
100
AcDbEntity
  8
0
100
AcDbLine
 62
7
  6
CONTINUOUS
 10
2.6736936323
 20
-23.4555899955
 11
2.7155532142
 21
-23.4739182214
  0
LINE
  5
2EF
100
AcDbEntity
  8
0
100
AcDbLine
 62
7
  6
CONTINUOUS
 10
2.8215858866
 20
-23.4123909254
 11
2.7798148001
 21
-23.3941031183
  0
LINE
  5
2F0
100
AcDbEntity
  8
RACCORDO
100
AcDbLine
 62
7
  6
CONTINUOUS
 10
-24.3853362085
 20
-4.4614120726
 11
-24.3520024794
 21
-4.4760243607
  0
LINE
  5
2F1
100
AcDbEntity
  8
RACCORDO
100
AcDbLine
 62
7
  6
CONTINUOUS
 10
32.9794983622
 20
-54.0950723802
 11
33.0234631243
 21
-54.1144645551
  0
LINE
  5
2F2
100
AcDbEntity
  8
0
100
AcDbLine
 62
7
  6
CONTINUOUS
 10
3.3389406472
 20
-24.7653219044
 11
3.3557257572
 21
-24.7727479976
  0
LINE
  5
2F3
100
AcDbEntity
  8
0
100
AcDbLine
 62
7
  6
CONTINUOUS
 10
3.4619382794
 20
-24.7112431284
 11
3.445218945
 21
-24.7038409591
  0
LINE
  5
2F4
100
AcDbEntity
  8
0
100
AcDbLine
 62
7
  6
CONTINUOUS
 10
2.7155532142
 20
-23.4739182214
 11
2.7573621822
 21
-23.4925655347
  0
LINE
  5
2F5
100
AcDbEntity
  8
0
100
AcDbLine
 62
7
  6
CONTINUOUS
 10
2.8633179446
 20
-23.4310009524
 11
2.8215858866
 21
-23.4123909254
  0
LINE
  5
2F6
100
AcDbEntity
  8
RACCORDO
100
AcDbLine
 62
7
  6
CONTINUOUS
 10
23.9238496317
 20
-32.5400920681
 11
23.8914965213
 21
-32.525616078
  0
LINE
  5
2F7
100
AcDbEntity
  8
0
100
AcDbLine
 62
7
  6
CONTINUOUS
 10
2.9050428803
 20
-23.4499903907
 11
2.8633179446
 21
-23.4310009524
  0
LINE
  5
2F8
100
AcDbEntity
  8
0
100
AcDbLine
 62
7
  6
CONTINUOUS
 10
2.7573621822
 20
-23.4925655347
 11
2.7991521958
 21
-23.5115888194
  0
LINE
  5
2F9
100
AcDbEntity
  8
0
100
AcDbLine
 62
7
  6
CONTINUOUS
 10
19.8949866628
 20
-27.3490671662
 11
19.909766856
 21
-27.3558424616
  0
LINE
  5
2FA
100
AcDbEntity
  8
0
100
AcDbLine
 62
7
  6
CONTINUOUS
 10
-11.9248184906
 20
-8.9767104665
 11
-11.9100382974
 21
-8.9834857619
  0
LINE
  5
2FB
100
AcDbEntity
  8
0
100
AcDbLine
 62
7
  6
CONTINUOUS
 10
2.9468564898
 20
-23.4695307641
 11
2.9050428803
 21
-23.4499903907
  0
LINE
  5
2FC
100
AcDbEntity
  8
0
100
AcDbLine
 62
7
  6
CONTINUOUS
 10
2.7991521958
 20
-23.5115888194
 11
2.841018313
 21
-23.5311586751
  0
LINE
  5
2FD
100
AcDbEntity
  8
0
100
AcDbLine
 62
7
  6
CONTINUOUS
 10
3.1199964509
 20
-24.0467789025
 11
3.0836571098
 21
-24.0297567858
  0
LINE
  5
2FE
100
AcDbEntity
  8
0
100
AcDbLine
 62
7
  6
CONTINUOUS
 10
3.3220856076
 20
-24.7573226747
 11
3.3389406472
 21
-24.7653219044
  0
LINE
  5
2FF
100
AcDbEntity
  8
0
100
AcDbLine
 62
7
  6
CONTINUOUS
 10
3.445218945
 20
-24.7038409591
 11
3.4284161005
 21
-24.6958609009
  0
LINE
  5
300
100
AcDbEntity
  8
0
100
AcDbLine
 62
7
  6
CONTINUOUS
 10
20.5373141404
 20
-27.3506789845
 11
20.5546872876
 21
-27.358932832
  0
LINE
  5
301
100
AcDbEntity
  8
0
100
AcDbLine
 62
7
  6
CONTINUOUS
 10
-11.282491013
 20
-8.9783222847
 11
-11.2651178658
 21
-8.9865761323
  0
LINE
  5
302
100
AcDbEntity
  8
RACCORDO
100
AcDbLine
 62
7
  6
CONTINUOUS
 10
23.6013210769
 20
-33.1684208062
 11
23.546819471
 21
-33.1423384916
  0
LINE
  5
303
100
AcDbEntity
  8
0
100
AcDbLine
 62
7
  6
CONTINUOUS
 10
2.9887671733
 20
-23.4896216076
 11
2.9468564898
 21
-23.4695307641
  0
LINE
  5
304
100
AcDbEntity
  8
0
100
AcDbLine
 62
7
  6
CONTINUOUS
 10
2.841018313
 20
-23.5311586751
 11
2.8829695007
 21
-23.5512752134
  0
LINE
  5
305
100
AcDbEntity
  8
0
100
AcDbLine
 62
7
  6
CONTINUOUS
 10
20.5536024465
 20
-27.3589480332
 11
20.5638026762
 21
-27.3639458866
  0
LINE
  5
306
100
AcDbEntity
  8
0
100
AcDbLine
 62
7
  6
CONTINUOUS
 10
-11.2662027069
 20
-8.9865913334
 11
-11.2560024772
 21
-8.9915891869
  0
LINE
  5
307
100
AcDbEntity
  8
0
100
AcDbLine
 62
7
  6
CONTINUOUS
 10
22.1886609406
 20
-28.3021187246
 11
22.1786809048
 21
-28.2972217809
  0
LINE
  5
308
100
AcDbEntity
  8
0
100
AcDbLine
 62
7
  6
CONTINUOUS
 10
-9.6311442128
 20
-9.9297620248
 11
-9.6411242486
 21
-9.9248650812
  0
LINE
  5
309
100
AcDbEntity
  8
0
100
AcDbLine
 62
7
  6
CONTINUOUS
 10
2.8829695007
 20
-23.5512752134
 11
2.9249966958
 21
-23.571938386
  0
LINE
  5
30A
100
AcDbEntity
  8
0
100
AcDbLine
 62
7
  6
CONTINUOUS
 10
3.0307664349
 20
-23.5102634493
 11
2.9887671733
 21
-23.4896216076
  0
LINE
  5
30B
100
AcDbEntity
  8
RACCORDO
100
AcDbLine
 62
7
  6
CONTINUOUS
 10
32.8750172533
 20
-53.9767746552
 11
32.9029189904
 21
-53.9905439043
  0
LINE
  5
30C
100
AcDbEntity
  8
RACCORDO
100
AcDbLine
 62
7
  6
CONTINUOUS
 10
32.9351957501
 20
-54.0727392067
 11
32.9794983622
 21
-54.0950723802
  0
LINE
  5
30D
100
AcDbEntity
  8
0
100
AcDbLine
 62
7
  6
CONTINUOUS
 10
3.1562418946
 20
-24.0650667723
 11
3.1199964509
 21
-24.0467789025
  0
LINE
  5
30E
100
AcDbEntity
  8
0
100
AcDbLine
 62
7
  6
CONTINUOUS
 10
3.072924712
 20
-23.5316293114
 11
3.0307664349
 21
-23.5102634493
  0
LINE
  5
30F
100
AcDbEntity
  8
0
100
AcDbLine
 62
7
  6
CONTINUOUS
 10
2.9249966958
 20
-23.571938386
 11
2.9671678953
 21
-23.5933185625
  0
LINE
  5
310
100
AcDbEntity
  8
0
100
AcDbLine
 62
7
  6
CONTINUOUS
 10
3.3051106309
 20
-24.7486783451
 11
3.3220856076
 21
-24.7573226747
  0
LINE
  5
311
100
AcDbEntity
  8
0
100
AcDbLine
 62
7
  6
CONTINUOUS
 10
3.4284161005
 20
-24.6958609009
 11
3.4114788126
 21
-24.687233873
  0
LINE
  5
312
100
AcDbEntity
  8
0
100
AcDbLine
 62
7
  6
CONTINUOUS
 10
35.6825623346
 20
-19.1280081635
 11
35.677965405
 21
-19.1256660287
  0
LINE
  5
313
100
AcDbEntity
  8
RACCORDO
100
AcDbLine
 62
7
  6
CONTINUOUS
 10
33.2448479186
 20
-53.7191323814
 11
33.263444351
 21
-53.7287020565
  0
LINE
  5
314
100
AcDbEntity
  8
RACCORDO
100
AcDbLine
 62
7
  6
CONTINUOUS
 10
23.8914965213
 20
-32.525616078
 11
23.8589614249
 21
-32.5087960464
  0
LINE
  5
315
100
AcDbEntity
  8
0
100
AcDbLine
 62
7
  6
CONTINUOUS
 10
3.1152503999
 20
-23.5537180527
 11
3.072924712
 21
-23.5316293114
  0
LINE
  5
316
100
AcDbEntity
  8
0
100
AcDbLine
 62
7
  6
CONTINUOUS
 10
2.9671678953
 20
-23.5933185625
 11
3.0094895185
 21
-23.6154137912
  0
LINE
  5
317
100
AcDbEntity
  8
0
100
AcDbLine
 62
7
  6
CONTINUOUS
 10
22.2176455024
 20
-28.6430163283
 11
22.1994924171
 21
-28.6335071276
  0
LINE
  5
318
100
AcDbEntity
  8
0
100
AcDbLine
 62
7
  6
CONTINUOUS
 10
-9.602159651
 20
-10.2706596286
 11
-9.6203127363
 21
-10.2611504278
  0
LINE
  5
319
100
AcDbEntity
  8
0
100
AcDbLine
 62
7
  6
CONTINUOUS
 10
22.190495083
 20
-28.3399910229
 11
22.2086505495
 21
-28.3495047654
  0
LINE
  5
31A
100
AcDbEntity
  8
0
100
AcDbLine
 62
7
  6
CONTINUOUS
 10
-9.6293100704
 20
-9.9676343232
 11
-9.6111546039
 21
-9.9771480657
  0
LINE
  5
31B
100
AcDbEntity
  8
RACCORDO
100
AcDbLine
 62
7
  6
CONTINUOUS
 10
-24.4163790329
 20
-4.445092369
 11
-24.3853362085
 21
-4.4614120726
  0
LINE
  5
31C
100
AcDbEntity
  8
0
100
AcDbLine
 62
7
  6
CONTINUOUS
 10
3.1577350292
 20
-23.5765308633
 11
3.1152503999
 21
-23.5537180527
  0
LINE
  5
31D
100
AcDbEntity
  8
0
100
AcDbLine
 62
7
  6
CONTINUOUS
 10
3.0094895185
 20
-23.6154137912
 11
3.0519550723
 21
-23.6382260726
  0
LINE
  5
31E
100
AcDbEntity
  8
0
100
AcDbLine
 62
7
  6
CONTINUOUS
 10
3.1923379018
 20
-24.084575316
 11
3.1562418946
 21
-24.0650667723
  0
LINE
  5
31F
100
AcDbEntity
  8
0
100
AcDbLine
 62
7
  6
CONTINUOUS
 10
3.4114788126
 20
-24.687233873
 11
3.3944070665
 21
-24.6779598852
  0
LINE
  5
320
100
AcDbEntity
  8
0
100
AcDbLine
 62
7
  6
CONTINUOUS
 10
3.2880157022
 20
-24.7393889255
 11
3.3051106309
 21
-24.7486783451
  0
LINE
  5
321
100
AcDbEntity
  8
RACCORDO
100
AcDbLine
 62
7
  6
CONTINUOUS
 10
23.546819471
 20
-33.1423384916
 11
23.4918019748
 21
-33.1123229085
  0
LINE
  5
322
100
AcDbEntity
  8
RACCORDO
100
AcDbLine
 62
7
  6
CONTINUOUS
 10
32.8465168619
 20
-53.9611206949
 11
32.8750172533
 21
-53.9767746552
  0
LINE
  5
323
100
AcDbEntity
  8
0
100
AcDbLine
 62
7
  6
CONTINUOUS
 10
20.5546872876
 20
-27.358932832
 11
20.5638026762
 21
-27.3639458866
  0
LINE
  5
324
100
AcDbEntity
  8
0
100
AcDbLine
 62
7
  6
CONTINUOUS
 10
-11.2651178658
 20
-8.9865761323
 11
-11.2560024772
 21
-8.9915891869
  0
LINE
  5
325
100
AcDbEntity
  8
0
100
AcDbLine
 62
7
  6
CONTINUOUS
 10
3.2004237366
 20
-23.6002442644
 11
3.1577350292
 21
-23.5765308633
  0
LINE
  5
326
100
AcDbEntity
  8
0
100
AcDbLine
 62
7
  6
CONTINUOUS
 10
3.0519550723
 20
-23.6382260726
 11
3.0946131824
 21
-23.6619317057
  0
LINE
  5
327
100
AcDbEntity
  8
RACCORDO
100
AcDbLine
 62
7
  6
CONTINUOUS
 10
-23.1151476068
 20
-5.3862707655
 11
-23.1340883782
 21
-5.3757397342
  0
LINE
  5
328
100
AcDbEntity
  8
RACCORDO
100
AcDbLine
 62
7
  6
CONTINUOUS
 10
32.9050597491
 20
-54.0559693765
 11
32.9351957501
 21
-54.0727392067
  0
LINE
  5
329
100
AcDbEntity
  8
0
100
AcDbLine
 62
7
  6
CONTINUOUS
 10
19.909766856
 20
-27.3558424616
 11
19.924636204
 21
-27.3642477373
  0
LINE
  5
32A
100
AcDbEntity
  8
0
100
AcDbLine
 62
7
  6
CONTINUOUS
 10
-11.9100382974
 20
-8.9834857619
 11
-11.8951689494
 21
-8.9918910376
  0
LINE
  5
32B
100
AcDbEntity
  8
0
100
AcDbLine
 62
7
  6
CONTINUOUS
 10
3.2433632891
 20
-23.6248831394
 11
3.2004237366
 21
-23.6002442644
  0
LINE
  5
32C
100
AcDbEntity
  8
0
100
AcDbLine
 62
7
  6
CONTINUOUS
 10
3.0946131824
 20
-23.6619317057
 11
3.1375085898
 21
-23.686554128
  0
LINE
  5
32D
100
AcDbEntity
  8
0
100
AcDbLine
 62
7
  6
CONTINUOUS
 10
3.2281180491
 20
-24.1051691679
 11
3.1923379018
 21
-24.084575316
  0
LINE
  5
32E
100
AcDbEntity
  8
RACCORDO
100
AcDbLine
 62
7
  6
CONTINUOUS
 10
-29.1479951642
 20
-18.2273186158
 11
32.9051163211
 21
-54.0560074792
  0
LINE
  5
32F
100
AcDbEntity
  8
RACCORDO
100
AcDbLine
 62
7
  6
CONTINUOUS
 10
-29.2065945554
 20
-18.1324318707
 11
32.8465168619
 21
-53.9611206949
  0
LINE
  5
330
100
AcDbEntity
  8
0
100
AcDbLine
 62
7
  6
CONTINUOUS
 10
-3.1563716404
 20
-22.1820426663
 11
-2.7922045771
 21
-22.3923081646
  0
LINE
  5
331
100
AcDbEntity
  8
0
100
AcDbLine
 62
7
  6
CONTINUOUS
 10
-1.9459306961
 20
-22.8809360972
 11
-1.5326918363
 21
-23.1195350358
  0
LINE
  5
332
100
AcDbEntity
  8
0
100
AcDbLine
 62
7
  6
CONTINUOUS
 10
-1.3173035752
 20
-23.2438975183
 11
-0.921967952
 21
-23.4721593524
  0
LINE
  5
333
100
AcDbEntity
  8
0
100
AcDbLine
 62
7
  6
CONTINUOUS
 10
-0.3480122061
 20
-23.8035542067
 11
-0.290055613
 21
-23.8370176172
  0
LINE
  5
334
100
AcDbEntity
  8
0
100
AcDbLine
 62
7
  6
CONTINUOUS
 10
0.2861869162
 20
-24.1697328315
 11
0.6904441056
 21
-24.4031458662
  0
LINE
  5
335
100
AcDbEntity
  8
0
100
AcDbLine
 62
7
  6
CONTINUOUS
 10
0.9038263048
 20
-24.5263500737
 11
1.3125814004
 21
-24.762360143
  0
LINE
  5
336
100
AcDbEntity
  8
0
100
AcDbLine
 62
7
  6
CONTINUOUS
 10
2.0964227024
 20
-25.2149402869
 11
2.5319594674
 21
-25.4664137565
  0
LINE
  5
337
100
AcDbEntity
  8
0
100
AcDbLine
 62
7
  6
CONTINUOUS
 10
2.745230533
 20
-25.5895540608
 11
3.1568066613
 21
-25.827192959
  0
LINE
  5
338
100
AcDbEntity
  8
0
100
AcDbLine
 62
7
  6
CONTINUOUS
 10
3.7896249999
 20
-26.1925743366
 11
4.1871127663
 21
-26.4220787912
  0
LINE
  5
339
100
AcDbEntity
  8
0
100
AcDbLine
 62
7
  6
CONTINUOUS
 10
1.3926075949
 20
-24.391489176
 11
1.9553705475
 21
-24.7164214518
  0
LINE
  5
33A
100
AcDbEntity
  8
0
100
AcDbLine
 62
7
  6
CONTINUOUS
 10
1.4517418054
 20
-24.1018441499
 11
1.8473885556
 21
-24.3302856249
  0
LINE
  5
33B
100
AcDbEntity
  8
0
100
AcDbLine
 62
7
  6
CONTINUOUS
 10
3.091406868
 20
-24.9703887869
 11
3.3129756789
 21
-25.0983198414
  0
LINE
  5
33C
100
AcDbEntity
  8
0
100
AcDbLine
 62
7
  6
CONTINUOUS
 10
1.8080401712
 20
-24.1846751161
 11
1.5581618888
 21
-24.0403985276
  0
LINE
  5
33D
100
AcDbEntity
  8
0
100
AcDbLine
 62
7
  6
CONTINUOUS
 10
3.051853783
 20
-24.6030319931
 11
3.2880157022
 21
-24.7393889255
  0
LINE
  5
33E
100
AcDbEntity
  8
0
100
AcDbLine
 62
7
  6
CONTINUOUS
 10
3.3944070665
 20
-24.6779598852
 11
3.1582451472
 21
-24.5416029528
  0
LINE
  5
33F
100
AcDbEntity
  8
0
100
AcDbLine
 62
7
  6
CONTINUOUS
 10
-3.9409256983
 20
-19.6244228506
 11
-3.4920203725
 21
-19.8836151596
  0
LINE
  5
340
100
AcDbEntity
  8
0
100
AcDbLine
 62
7
  6
CONTINUOUS
 10
-2.725763402
 20
-20.326042331
 11
-2.3128066778
 21
-20.5644783679
  0
LINE
  5
341
100
AcDbEntity
  8
0
100
AcDbLine
 62
7
  6
CONTINUOUS
 10
-1.2955027583
 20
-21.1518569012
 11
-0.8826054311
 21
-21.3902586431
  0
LINE
  5
342
100
AcDbEntity
  8
0
100
AcDbLine
 62
7
  6
CONTINUOUS
 10
-0.0604919746
 20
-21.8649366494
 11
0.3483670658
 21
-22.1010067351
  0
LINE
  5
343
100
AcDbEntity
  8
0
100
AcDbLine
 62
7
  6
CONTINUOUS
 10
1.3678290752
 20
-22.6896313225
 11
1.7675883584
 21
-22.9204473225
  0
LINE
  5
344
100
AcDbEntity
  8
0
100
AcDbLine
 62
7
  6
CONTINUOUS
 10
-2.1028927692
 20
-20.6855525807
 11
-1.6896539095
 21
-20.9241515193
  0
LINE
  5
345
100
AcDbEntity
  8
0
100
AcDbLine
 62
7
  6
CONTINUOUS
 10
1.8739205316
 20
-22.8590524583
 11
1.4741612484
 21
-22.6282364583
  0
LINE
  5
346
100
AcDbEntity
  8
0
100
AcDbLine
 62
7
  6
CONTINUOUS
 10
0.454699239
 20
-22.039611871
 11
0.0458401986
 21
-21.8035417852
  0
LINE
  5
347
100
AcDbEntity
  8
0
100
AcDbLine
 62
7
  6
CONTINUOUS
 10
-0.7762732579
 20
-21.328863779
 11
-1.1891705851
 21
-21.0904620371
  0
LINE
  5
348
100
AcDbEntity
  8
0
100
AcDbLine
 62
7
  6
CONTINUOUS
 10
-2.2064745046
 20
-20.5030835038
 11
-2.6194312287
 21
-20.2646474668
  0
LINE
  5
349
100
AcDbEntity
  8
0
100
AcDbLine
 62
7
  6
CONTINUOUS
 10
-3.3856881993
 20
-19.8222202954
 11
-3.8345935251
 21
-19.5630279864
  0
LINE
  5
34A
100
AcDbEntity
  8
0
100
AcDbLine
 62
7
  6
CONTINUOUS
 10
-1.5833217438
 20
-20.8627566595
 11
-1.9965606036
 21
-20.624157721
  0
LINE
  5
34B
100
AcDbEntity
  8
RACCORDO
100
AcDbLine
 62
7
  6
CONTINUOUS
 10
23.4918019748
 20
-33.1123229085
 11
-23.449687667
 21
-6.0088951044
  0
LINE
  5
34C
100
AcDbEntity
  8
RACCORDO
100
AcDbLine
 62
7
  6
CONTINUOUS
 10
23.8263752986
 20
-32.4897175418
 11
-23.1151474043
 21
-5.3862706486
  0
LINE
  5
34D
100
AcDbEntity
  8
0
100
AcDbLine
 62
7
  6
CONTINUOUS
 10
24.1422504574
 20
-30.3510942654
 11
-21.1052114685
 21
-4.2257768333
  0
LINE
  5
34E
100
AcDbEntity
  8
0
100
AcDbLine
 62
7
  6
CONTINUOUS
 10
-11.3779210533
 20
-9.0022255453
 11
-9.7529989424
 21
-9.9404352071
  0
LINE
  5
34F
100
AcDbEntity
  8
0
100
AcDbLine
 62
7
  6
CONTINUOUS
 10
20.4418841001
 20
-27.374582245
 11
22.066806211
 21
-28.3127919068
  0
LINE
  5
350
100
AcDbEntity
  8
0
100
AcDbLine
 62
7
  6
CONTINUOUS
 10
-11.256000192
 20
-8.9915905063
 11
-9.6310780811
 21
-9.9298001681
  0
LINE
  5
351
100
AcDbEntity
  8
0
100
AcDbLine
 62
7
  6
CONTINUOUS
 10
20.5638049614
 20
-27.363947206
 11
22.1887270723
 21
-28.3021568678
  0
LINE
  5
352
100
AcDbEntity
  8
0
100
AcDbLine
 62
7
  6
CONTINUOUS
 10
35.6396958504
 20
-19.0513545173
 11
35.7496238282
 21
-19.114825554
  0
LINE
  5
353
100
AcDbEntity
  8
DRAFT
100
AcDbLine
 62
7
  6
CONTINUOUS
 10
36.0651470427
 20
-18.0907854472
 11
36.4187004333
 21
-18.2949227439
  0
LINE
  5
354
100
AcDbEntity
  8
RACCORDO
100
AcDbLine
 62
7
  6
CONTINUOUS
 10
23.8589614249
 20
-32.5087960464
 11
23.8263744688
 21
-32.4897181262
  0
LINE
  5
355
100
AcDbEntity
  8
0
100
AcDbLine
 62
7
  6
CONTINUOUS
 10
-9.7439703468
 20
-10.2339661499
 11
-9.7281696241
 21
-10.2432620922
  0
LINE
  5
356
100
AcDbEntity
  8
0
100
AcDbLine
 62
7
  6
CONTINUOUS
 10
22.0758348066
 20
-28.6063228496
 11
22.0916355293
 21
-28.615618792
  0
LINE
  5
357
100
AcDbEntity
  8
RACCORDO
100
AcDbLine
 62
7
  6
CONTINUOUS
 10
-23.1340883782
 20
-5.3757397342
 11
-23.1528085338
 21
-5.3646951858
  0
LINE
  5
358
100
AcDbEntity
  8
0
100
AcDbLine
 62
7
  6
CONTINUOUS
 10
3.2865069009
 20
-23.6504226172
 11
3.2433632891
 21
-23.6248831394
  0
LINE
  5
359
100
AcDbEntity
  8
0
100
AcDbLine
 62
7
  6
CONTINUOUS
 10
3.1375085898
 20
-23.686554128
 11
3.1805965352
 21
-23.7120699142
  0
LINE
  5
35A
100
AcDbEntity
  8
RACCORDO
100
AcDbLine
 62
7
  6
CONTINUOUS
 10
-23.449687667
 20
-6.0088951044
 11
-23.4794943504
 21
-5.9910938725
  0
LINE
  5
35B
100
AcDbEntity
  8
RACCORDO
100
AcDbLine
 62
7
  6
CONTINUOUS
 10
-29.2353811694
 20
-18.1150179397
 11
-29.2065945554
 21
-18.1324318707
  0
LINE
  5
35C
100
AcDbEntity
  8
RACCORDO
100
AcDbLine
 62
7
  6
CONTINUOUS
 10
-29.1877461674
 20
-18.2032600283
 11
-29.1478903955
 21
-18.2273740933
  0
LINE
  5
35D
100
AcDbEntity
  8
0
100
AcDbLine
 62
7
  6
CONTINUOUS
 10
3.3302406544
 20
-25.1088639135
 11
3.3129756789
 21
-25.0983198414
  0
LINE
  5
35E
100
AcDbEntity
  8
0
100
AcDbLine
 62
7
  6
CONTINUOUS
 10
3.2635268728
 20
-24.1268031989
 11
3.2281180491
 21
-24.1051691679
  0
LINE
  5
35F
100
AcDbEntity
  8
0
100
AcDbLine
 62
7
  6
CONTINUOUS
 10
3.3297593967
 20
-23.6769645763
 11
3.2865069009
 21
-23.6504226172
  0
LINE
  5
360
100
AcDbEntity
  8
0
100
AcDbLine
 62
7
  6
CONTINUOUS
 10
3.1805965352
 20
-23.7120699142
 11
3.2237914109
 21
-23.7385850587
  0
LINE
  5
361
100
AcDbEntity
  8
0
100
AcDbLine
 62
7
  6
CONTINUOUS
 10
-9.6191045137
 20
-9.9371700904
 11
-9.6311442128
 21
-9.9297620248
  0
LINE
  5
362
100
AcDbEntity
  8
0
100
AcDbLine
 62
7
  6
CONTINUOUS
 10
22.2007006397
 20
-28.3095267901
 11
22.1886609406
 21
-28.3021187246
  0
LINE
  5
363
100
AcDbEntity
  8
RACCORDO
100
AcDbLine
 62
7
  6
CONTINUOUS
 10
-23.1528085338
 20
-5.3646951858
 11
-23.1712905078
 21
-5.3531724648
  0
LINE
  5
364
100
AcDbEntity
  8
RACCORDO
100
AcDbLine
 62
7
  6
CONTINUOUS
 10
-23.4794943504
 20
-5.9910938725
 11
-23.5089030113
 21
-5.9725773501
  0
LINE
  5
365
100
AcDbEntity
  8
RACCORDO
100
AcDbLine
 62
7
  6
CONTINUOUS
 10
-24.0178112471
 20
31.6414278691
 11
-23.9827701151
 21
31.6193396818
  0
LINE
  5
366
100
AcDbEntity
  8
0
100
AcDbLine
 62
7
  6
CONTINUOUS
 10
-9.5850917649
 20
-10.2814358624
 11
-9.602159651
 21
-10.2706596286
  0
LINE
  5
367
100
AcDbEntity
  8
0
100
AcDbLine
 62
7
  6
CONTINUOUS
 10
22.2347133885
 20
-28.6537925621
 11
22.2176455024
 21
-28.6430163283
  0
LINE
  5
368
100
AcDbEntity
  8
0
100
AcDbLine
 62
7
  6
CONTINUOUS
 10
-9.6111546039
 20
-9.9771480657
 11
-9.5940856074
 21
-9.9879289271
  0
LINE
  5
369
100
AcDbEntity
  8
0
100
AcDbLine
 62
7
  6
CONTINUOUS
 10
22.2086505495
 20
-28.3495047654
 11
22.225719546
 21
-28.3602856269
  0
LINE
  5
36A
100
AcDbEntity
  8
RACCORDO
100
AcDbLine
 62
7
  6
CONTINUOUS
 10
24.3659140677
 20
-32.6113741187
 11
24.3373751927
 21
-32.5932924476
  0
LINE
  5
36B
100
AcDbEntity
  8
RACCORDO
100
AcDbLine
 62
7
  6
CONTINUOUS
 10
-31.4230829823
 20
-1.0182505789
 11
-31.4402063585
 21
-1.0073981433
  0
LINE
  5
36C
100
AcDbEntity
  8
0
100
AcDbLine
 62
7
  6
CONTINUOUS
 10
3.373123118
 20
-23.7044591202
 11
3.3297593967
 21
-23.6769645763
  0
LINE
  5
36D
100
AcDbEntity
  8
0
100
AcDbLine
 62
7
  6
CONTINUOUS
 10
3.2237914109
 20
-23.7385850587
 11
3.2670977992
 21
-23.7660506235
  0
LINE
  5
36E
100
AcDbEntity
  8
RACCORDO
100
AcDbLine
 62
7
  6
CONTINUOUS
 10
-29.7873148147
 20
-17.3251516043
 11
-29.8044831716
 21
-17.3140707051
  0
LINE
  5
36F
100
AcDbEntity
  8
0
100
AcDbLine
 62
7
  6
CONTINUOUS
 10
3.2986198681
 20
-24.1495225173
 11
3.2635268728
 21
-24.1268031989
  0
LINE
  5
370
100
AcDbEntity
  8
0
100
AcDbLine
 62
7
  6
CONTINUOUS
 10
35.677965405
 20
-19.1256660287
 11
35.6736221363
 21
-19.1228534234
  0
LINE
  5
371
100
AcDbEntity
  8
0
100
AcDbLine
 62
7
  6
CONTINUOUS
 10
3.2670977992
 20
-23.7660506235
 11
3.3105111997
 21
-23.7945154925
  0
LINE
  5
372
100
AcDbEntity
  8
0
100
AcDbLine
 62
7
  6
CONTINUOUS
 10
3.4165958052
 20
-23.7329560914
 11
3.373123118
 21
-23.7044591202
  0
LINE
  5
373
100
AcDbEntity
  8
RACCORDO
100
AcDbLine
 62
7
  6
CONTINUOUS
 10
-23.1712905078
 20
-5.3531724648
 11
-23.1895002047
 21
-5.341220036
  0
LINE
  5
374
100
AcDbEntity
  8
RACCORDO
100
AcDbLine
 62
7
  6
CONTINUOUS
 10
-29.2641998787
 20
-18.0960377927
 11
-29.2353811694
 21
-18.1150179397
  0
LINE
  5
375
100
AcDbEntity
  8
RACCORDO
100
AcDbLine
 62
7
  6
CONTINUOUS
 10
-29.1579008983
 20
-18.2207882719
 11
-29.1479951642
 21
-18.2273186158
  0
LINE
  5
376
100
AcDbEntity
  8
RACCORDO
100
AcDbLine
 62
7
  6
CONTINUOUS
 10
32.8952098576
 20
-54.0494765906
 11
32.9050574055
 21
-54.0559734353
  0
LINE
  5
377
100
AcDbEntity
  8
RACCORDO
100
AcDbLine
 62
7
  6
CONTINUOUS
 10
-23.5089030113
 20
-5.9725773501
 11
-23.537913619
 21
-5.9533455176
  0
LINE
  5
378
100
AcDbEntity
  8
RACCORDO
100
AcDbLine
 62
7
  6
CONTINUOUS
 10
-29.2349478135
 20
-18.1718315675
 11
-29.1877461674
 21
-18.2032600283
  0
LINE
  5
379
100
AcDbEntity
  8
0
100
AcDbLine
 62
7
  6
CONTINUOUS
 10
3.4600754355
 20
-23.7627069403
 11
3.4165958052
 21
-23.7329560914
  0
LINE
  5
37A
100
AcDbEntity
  8
0
100
AcDbLine
 62
7
  6
CONTINUOUS
 10
3.333397104
 20
-24.1733270773
 11
3.2986198681
 21
-24.1495225173
  0
LINE
  5
37B
100
AcDbEntity
  8
0
100
AcDbLine
 62
7
  6
CONTINUOUS
 10
3.3105111997
 20
-23.7945154925
 11
3.3539324352
 21
-23.8242323573
  0
LINE
  5
37C
100
AcDbEntity
  8
0
100
AcDbLine
 62
7
  6
CONTINUOUS
 10
3.3473444696
 20
-25.1206052623
 11
3.3302406544
 21
-25.1088639135
  0
LINE
  5
37D
100
AcDbEntity
  8
0
100
AcDbLine
 62
7
  6
CONTINUOUS
 10
-9.7281696241
 20
-10.2432620922
 11
-9.7124797835
 21
-10.254053642
  0
LINE
  5
37E
100
AcDbEntity
  8
0
100
AcDbLine
 62
7
  6
CONTINUOUS
 10
22.0916355293
 20
-28.615618792
 11
22.1073253699
 21
-28.6264103418
  0
LINE
  5
37F
100
AcDbEntity
  8
RACCORDO
100
AcDbLine
 62
7
  6
CONTINUOUS
 10
-23.1895002047
 20
-5.341220036
 11
-23.2074404658
 21
-5.3288595193
  0
LINE
  5
380
100
AcDbEntity
  8
RACCORDO
100
AcDbLine
 62
7
  6
CONTINUOUS
 10
-23.537913619
 20
-5.9533455176
 11
-23.5665202333
 21
-5.933370743
  0
LINE
  5
381
100
AcDbEntity
  8
RACCORDO
100
AcDbLine
 62
7
  6
CONTINUOUS
 10
-23.368162763
 20
31.5861543829
 11
-23.3504697815
 21
31.5736575377
  0
LINE
  5
382
100
AcDbEntity
  8
RACCORDO
100
AcDbLine
 62
7
  6
CONTINUOUS
 10
23.5733269076
 20
4.4827265555
 11
23.591019891
 21
4.4702297147
  0
LINE
  5
383
100
AcDbEntity
  8
0
100
AcDbLine
 62
7
  6
CONTINUOUS
 10
3.3539324352
 20
-23.8242323573
 11
3.3974480508
 21
-23.8551826282
  0
LINE
  5
384
100
AcDbEntity
  8
0
100
AcDbLine
 62
7
  6
CONTINUOUS
 10
3.5036525682
 20
-23.7936968115
 11
3.4600754355
 21
-23.7627069403
  0
LINE
  5
385
100
AcDbEntity
  8
RACCORDO
100
AcDbLine
 62
7
  6
CONTINUOUS
 10
-29.293050578
 20
-18.0754913467
 11
-29.2641998787
 21
-18.0960377927
  0
LINE
  5
386
100
AcDbEntity
  8
RACCORDO
100
AcDbLine
 62
7
  6
CONTINUOUS
 10
23.5795774205
 20
4.6630879255
 11
23.6078462764
 21
4.6429181336
  0
LINE
  5
387
100
AcDbEntity
  8
0
100
AcDbLine
 62
7
  6
CONTINUOUS
 10
-9.6024441096
 20
-9.9490855247
 11
-9.6191045137
 21
-9.9371700904
  0
LINE
  5
388
100
AcDbEntity
  8
0
100
AcDbLine
 62
7
  6
CONTINUOUS
 10
22.2173610438
 20
-28.3214422245
 11
22.2007006397
 21
-28.3095267901
  0
LINE
  5
389
100
AcDbEntity
  8
RACCORDO
100
AcDbLine
 62
7
  6
CONTINUOUS
 10
-23.2074404658
 20
-5.3288595193
 11
-23.225150573
 21
-5.3160797996
  0
LINE
  5
38A
100
AcDbEntity
  8
RACCORDO
100
AcDbLine
 62
7
  6
CONTINUOUS
 10
-29.281611728
 20
-18.1376632031
 11
-29.2349478135
 21
-18.1718315675
  0
LINE
  5
38B
100
AcDbEntity
  8
RACCORDO
100
AcDbLine
 62
7
  6
CONTINUOUS
 10
-24.0515706946
 20
31.6661397823
 11
-24.0178112471
 21
31.6414278691
  0
LINE
  5
38C
100
AcDbEntity
  8
0
100
AcDbLine
 62
7
  6
CONTINUOUS
 10
3.3515440023
 20
-24.1866328386
 11
3.333397104
 21
-24.1733270773
  0
LINE
  5
38D
100
AcDbEntity
  8
RACCORDO
100
AcDbLine
 62
7
  6
CONTINUOUS
 10
-23.5665202333
 20
-5.933370743
 11
-23.5947286739
 21
-5.9126805812
  0
LINE
  5
38E
100
AcDbEntity
  8
RACCORDO
100
AcDbLine
 62
7
  6
CONTINUOUS
 10
-31.4402063617
 20
36.0074198417
 11
-31.4557010504
 21
36.0187822018
  0
LINE
  5
38F
100
AcDbEntity
  8
RACCORDO
100
AcDbLine
 62
7
  6
CONTINUOUS
 10
24.3373731708
 20
3.1194050662
 11
24.3115493502
 21
3.1383534813
  0
LINE
  5
390
100
AcDbEntity
  8
0
100
AcDbLine
 62
7
  6
CONTINUOUS
 10
3.3974480508
 20
-23.8551826282
 11
3.4409717842
 21
-23.8873847084
  0
LINE
  5
391
100
AcDbEntity
  8
0
100
AcDbLine
 62
7
  6
CONTINUOUS
 10
3.5472369279
 20
-23.8259403733
 11
3.5036525682
 21
-23.7936968115
  0
LINE
  5
392
100
AcDbEntity
  8
RACCORDO
100
AcDbLine
 62
7
  6
CONTINUOUS
 10
23.655958741
 20
4.4284795681
 11
23.6848911498
 21
4.406947893
  0
LINE
  5
393
100
AcDbEntity
  8
RACCORDO
100
AcDbLine
 62
7
  6
CONTINUOUS
 10
23.6078462764
 20
4.6429181336
 11
23.6356248789
 21
4.6219797889
  0
LINE
  5
394
100
AcDbEntity
  8
RACCORDO
100
AcDbLine
 62
7
  6
CONTINUOUS
 10
-23.225150573
 20
-5.3160797996
 11
-23.2426166895
 21
-5.3029088886
  0
LINE
  5
395
100
AcDbEntity
  8
0
100
AcDbLine
 62
7
  6
CONTINUOUS
 10
-9.5692369081
 20
-10.2933984206
 11
-9.5850917649
 21
-10.2814358624
  0
LINE
  5
396
100
AcDbEntity
  8
0
100
AcDbLine
 62
7
  6
CONTINUOUS
 10
22.2505682453
 20
-28.6657551203
 11
22.2347133885
 21
-28.6537925621
  0
LINE
  5
397
100
AcDbEntity
  8
0
100
AcDbLine
 62
7
  6
CONTINUOUS
 10
-9.5940856074
 20
-9.9879289271
 11
-9.5782292111
 21
-9.9998973777
  0
LINE
  5
398
100
AcDbEntity
  8
0
100
AcDbLine
 62
7
  6
CONTINUOUS
 10
22.225719546
 20
-28.3602856269
 11
22.2415759423
 21
-28.3722540775
  0
LINE
  5
399
100
AcDbEntity
  8
RACCORDO
100
AcDbLine
 62
7
  6
CONTINUOUS
 10
24.3373751927
 20
-32.5932924476
 11
24.3115509929
 21
-32.5737480216
  0
LINE
  5
39A
100
AcDbEntity
  8
RACCORDO
100
AcDbLine
 62
7
  6
CONTINUOUS
 10
-31.4402063585
 20
-1.0073981433
 11
-31.455701047
 21
-0.9956650762
  0
LINE
  5
39B
100
AcDbEntity
  8
0
100
AcDbLine
 62
7
  6
CONTINUOUS
 10
3.3642871788
 20
-25.1335438514
 11
3.3473444696
 21
-25.1206052623
  0
LINE
  5
39C
100
AcDbEntity
  8
RACCORDO
100
AcDbLine
 62
7
  6
CONTINUOUS
 10
-29.3220349742
 20
-18.0532987597
 11
-29.293050578
 21
-18.0754913467
  0
LINE
  5
39D
100
AcDbEntity
  8
RACCORDO
100
AcDbLine
 62
7
  6
CONTINUOUS
 10
-23.5947286739
 20
-5.9126805812
 11
-23.6225565296
 21
-5.8913577799
  0
LINE
  5
39E
100
AcDbEntity
  8
0
100
AcDbLine
 62
7
  6
CONTINUOUS
 10
3.5904553963
 20
-23.8597332589
 11
3.5472369279
 21
-23.8259403733
  0
LINE
  5
39F
100
AcDbEntity
  8
RACCORDO
100
AcDbLine
 62
7
  6
CONTINUOUS
 10
-29.8044831716
 20
-17.3140707051
 11
-29.8200429109
 21
-17.3019012676
  0
LINE
  5
3A0
100
AcDbEntity
  8
0
100
AcDbLine
 62
7
  6
CONTINUOUS
 10
3.4409717842
 20
-23.8873847084
 11
3.484145404
 21
-23.9211466759
  0
LINE
  5
3A1
100
AcDbEntity
  8
RACCORDO
100
AcDbLine
 62
7
  6
CONTINUOUS
 10
-23.2426166895
 20
-5.3029088886
 11
-23.259826963
 21
-5.2893739408
  0
LINE
  5
3A2
100
AcDbEntity
  8
0
100
AcDbLine
 62
7
  6
CONTINUOUS
 10
-9.7124797835
 20
-10.254053642
 11
-9.6970200437
 21
-10.2662680889
  0
LINE
  5
3A3
100
AcDbEntity
  8
0
100
AcDbLine
 62
7
  6
CONTINUOUS
 10
22.1073253699
 20
-28.6264103418
 11
22.1227851097
 21
-28.6386247886
  0
LINE
  5
3A4
100
AcDbEntity
  8
RACCORDO
100
AcDbLine
 62
7
  6
CONTINUOUS
 10
23.6356248789
 20
4.6219797889
 11
23.6629400633
 21
4.6003609778
  0
LINE
  5
3A5
100
AcDbEntity
  8
RACCORDO
100
AcDbLine
 62
7
  6
CONTINUOUS
 10
-29.3276585073
 20
-18.1008719729
 11
-29.281611728
 21
-18.1376632031
  0
LINE
  5
3A6
100
AcDbEntity
  8
RACCORDO
100
AcDbLine
 62
7
  6
CONTINUOUS
 10
-23.6225565296
 20
-5.8913577799
 11
-23.6500000518
 21
-5.8694155978
  0
LINE
  5
3A7
100
AcDbEntity
  8
0
100
AcDbLine
 62
7
  6
CONTINUOUS
 10
3.3694829937
 20
-24.2009933133
 11
3.3515440023
 21
-24.1866328386
  0
LINE
  5
3A8
100
AcDbEntity
  8
RACCORDO
100
AcDbLine
 62
7
  6
CONTINUOUS
 10
23.6848911498
 20
4.406947893
 11
23.7145771859
 21
4.3829814899
  0
LINE
  5
3A9
100
AcDbEntity
  8
RACCORDO
100
AcDbLine
 62
7
  6
CONTINUOUS
 10
-29.351050938
 20
-18.0295395397
 11
-29.3220349742
 21
-18.0532987597
  0
LINE
  5
3AA
100
AcDbEntity
  8
RACCORDO
100
AcDbLine
 62
7
  6
CONTINUOUS
 10
-23.259826963
 20
-5.2893739408
 11
-23.2768237257
 21
-5.275451848
  0
LINE
  5
3AB
100
AcDbEntity
  8
0
100
AcDbLine
 62
7
  6
CONTINUOUS
 10
3.484145404
 20
-23.9211466759
 11
3.5268497921
 21
-23.9565710304
  0
LINE
  5
3AC
100
AcDbEntity
  8
0
100
AcDbLine
 62
7
  6
CONTINUOUS
 10
3.6331838929
 20
-23.89517382
 11
3.5904553963
 21
-23.8597332589
  0
LINE
  5
3AD
100
AcDbEntity
  8
RACCORDO
100
AcDbLine
 62
7
  6
CONTINUOUS
 10
23.6629400633
 20
4.6003609778
 11
23.6897893635
 21
4.5780756995
  0
LINE
  5
3AE
100
AcDbEntity
  8
RACCORDO
100
AcDbLine
 62
7
  6
CONTINUOUS
 10
-23.6500000518
 20
-5.8694155978
 11
-23.6770627845
 21
-5.8468406454
  0
LINE
  5
3AF
100
AcDbEntity
  8
0
100
AcDbLine
 62
7
  6
CONTINUOUS
 10
3.3811765903
 20
-25.1477315629
 11
3.3642871788
 21
-25.1335438514
  0
LINE
  5
3B0
100
AcDbEntity
  8
RACCORDO
100
AcDbLine
 62
7
  6
CONTINUOUS
 10
-24.0838051943
 20
31.6932973528
 11
-24.0515706946
 21
31.6661397823
  0
LINE
  5
3B1
100
AcDbEntity
  8
0
100
AcDbLine
 62
7
  6
CONTINUOUS
 10
-9.5868832546
 20
-9.9622620959
 11
-9.6024441096
 21
-9.9490855247
  0
LINE
  5
3B2
100
AcDbEntity
  8
0
100
AcDbLine
 62
7
  6
CONTINUOUS
 10
22.2329218988
 20
-28.3346187957
 11
22.2173610438
 21
-28.3214422245
  0
LINE
  5
3B3
100
AcDbEntity
  8
RACCORDO
100
AcDbLine
 62
7
  6
CONTINUOUS
 10
-23.2768237257
 20
-5.275451848
 11
-23.2935949514
 21
-5.2611648141
  0
LINE
  5
3B4
100
AcDbEntity
  8
RACCORDO
100
AcDbLine
 62
7
  6
CONTINUOUS
 10
-29.3729357644
 20
-18.0616153762
 11
-29.3276585073
 21
-18.1008719729
  0
LINE
  5
3B5
100
AcDbEntity
  8
RACCORDO
100
AcDbLine
 62
7
  6
CONTINUOUS
 10
-23.6770627845
 20
-5.8468406454
 11
-23.7037732497
 21
-5.8236756943
  0
LINE
  5
3B6
100
AcDbEntity
  8
0
100
AcDbLine
 62
7
  6
CONTINUOUS
 10
3.3872141824
 20
-24.2164084324
 11
3.3694829937
 21
-24.2009933133
  0
LINE
  5
3B7
100
AcDbEntity
  8
RACCORDO
100
AcDbLine
 62
7
  6
CONTINUOUS
 10
23.6897893635
 20
4.5780756995
 11
23.7161754501
 21
4.5551100604
  0
LINE
  5
3B8
100
AcDbEntity
  8
RACCORDO
100
AcDbLine
 62
7
  6
CONTINUOUS
 10
-31.4557010504
 20
36.0187822018
 11
-31.4694568437
 21
36.0307702603
  0
LINE
  5
3B9
100
AcDbEntity
  8
RACCORDO
100
AcDbLine
 62
7
  6
CONTINUOUS
 10
24.3115493502
 20
3.1383534813
 11
24.2886238837
 21
3.1583498714
  0
LINE
  5
3BA
100
AcDbEntity
  8
RACCORDO
100
AcDbLine
 62
7
  6
CONTINUOUS
 10
23.7145771859
 20
4.3829814899
 11
23.7448299393
 21
4.3565910496
  0
LINE
  5
3BB
100
AcDbEntity
  8
RACCORDO
100
AcDbLine
 62
7
  6
CONTINUOUS
 10
-29.1696640012
 20
-18.2105198677
 11
-29.1579008983
 21
-18.2207882719
  0
LINE
  5
3BC
100
AcDbEntity
  8
RACCORDO
100
AcDbLine
 62
7
  6
CONTINUOUS
 10
-29.3797925177
 20
-18.0044525556
 11
-29.351050938
 21
-18.0295395397
  0
LINE
  5
3BD
100
AcDbEntity
  8
RACCORDO
100
AcDbLine
 62
7
  6
CONTINUOUS
 10
32.88344687
 20
-54.0392081119
 11
32.8952098576
 21
-54.0494765906
  0
LINE
  5
3BE
100
AcDbEntity
  8
0
100
AcDbLine
 62
7
  6
CONTINUOUS
 10
3.5268497921
 20
-23.9565710304
 11
3.5692048533
 21
-23.9935547533
  0
LINE
  5
3BF
100
AcDbEntity
  8
0
100
AcDbLine
 62
7
  6
CONTINUOUS
 10
3.6755472853
 20
-23.9321631859
 11
3.6331838929
 21
-23.89517382
  0
LINE
  5
3C0
100
AcDbEntity
  8
0
100
AcDbLine
 62
7
  6
CONTINUOUS
 10
35.6736221363
 20
-19.1228534234
 11
35.6655760931
 21
-19.1157798393
  0
LINE
  5
3C1
100
AcDbEntity
  8
RACCORDO
100
AcDbLine
 62
7
  6
CONTINUOUS
 10
-23.2935949514
 20
-5.2611648141
 11
-23.3101297611
 21
-5.2465343421
  0
LINE
  5
3C2
100
AcDbEntity
  8
0
100
AcDbLine
 62
7
  6
CONTINUOUS
 10
-9.6970200437
 20
-10.2662680889
 11
-9.681901219
 21
-10.2798286168
  0
LINE
  5
3C3
100
AcDbEntity
  8
0
100
AcDbLine
 62
7
  6
CONTINUOUS
 10
22.1227851097
 20
-28.6386247886
 11
22.1379039344
 21
-28.6521853165
  0
LINE
  5
3C4
100
AcDbEntity
  8
0
100
AcDbLine
 62
7
  6
CONTINUOUS
 10
-9.5547138258
 20
-10.3064577094
 11
-9.5692369081
 21
-10.2933984206
  0
LINE
  5
3C5
100
AcDbEntity
  8
0
100
AcDbLine
 62
7
  6
CONTINUOUS
 10
22.2650913276
 20
-28.6788144091
 11
22.2505682453
 21
-28.6657551203
  0
LINE
  5
3C6
100
AcDbEntity
  8
0
100
AcDbLine
 62
7
  6
CONTINUOUS
 10
-9.5782292111
 20
-9.9998973777
 11
-9.5637029332
 21
-10.0129655664
  0
LINE
  5
3C7
100
AcDbEntity
  8
0
100
AcDbLine
 62
7
  6
CONTINUOUS
 10
22.2415759423
 20
-28.3722540775
 11
22.2561022202
 21
-28.3853222662
  0
LINE
  5
3C8
100
AcDbEntity
  8
RACCORDO
100
AcDbLine
 62
7
  6
CONTINUOUS
 10
-23.7037732497
 20
-5.8236756943
 11
-23.7301301643
 21
-5.7999319528
  0
LINE
  5
3C9
100
AcDbEntity
  8
RACCORDO
100
AcDbLine
 62
7
  6
CONTINUOUS
 10
23.7161754501
 20
4.5551100604
 11
23.7421328697
 21
4.5315103104
  0
LINE
  5
3CA
100
AcDbEntity
  8
RACCORDO
100
AcDbLine
 62
7
  6
CONTINUOUS
 10
24.3115509929
 20
-32.5737480216
 11
24.2886251468
 21
-32.5528798533
  0
LINE
  5
3CB
100
AcDbEntity
  8
RACCORDO
100
AcDbLine
 62
7
  6
CONTINUOUS
 10
-31.455701047
 20
-0.9956650762
 11
-31.4694568403
 21
-0.9831348304
  0
LINE
  5
3CC
100
AcDbEntity
  8
0
100
AcDbLine
 62
7
  6
CONTINUOUS
 10
3.5692048533
 20
-23.9935547533
 11
3.6112110745
 21
-24.0320975233
  0
LINE
  5
3CD
100
AcDbEntity
  8
0
100
AcDbLine
 62
7
  6
CONTINUOUS
 10
3.7175460605
 20
-23.9707010351
 11
3.6755472853
 21
-23.9321631859
  0
LINE
  5
3CE
100
AcDbEntity
  8
RACCORDO
100
AcDbLine
 62
7
  6
CONTINUOUS
 10
-23.3843352891
 20
31.600993215
 11
-23.368162763
 21
31.5861543829
  0
LINE
  5
3CF
100
AcDbEntity
  8
RACCORDO
100
AcDbLine
 62
7
  6
CONTINUOUS
 10
23.5571543788
 20
4.4975653837
 11
23.5733269076
 21
4.4827265555
  0
LINE
  5
3D0
100
AcDbEntity
  8
RACCORDO
100
AcDbLine
 62
7
  6
CONTINUOUS
 10
-23.3101297611
 20
-5.2465343421
 11
-23.3264710009
 21
-5.2315267549
  0
LINE
  5
3D1
100
AcDbEntity
  8
0
100
AcDbLine
 62
7
  6
CONTINUOUS
 10
3.3979051163
 20
-25.1631163668
 11
3.3811765903
 21
-25.1477315629
  0
LINE
  5
3D2
100
AcDbEntity
  8
RACCORDO
100
AcDbLine
 62
7
  6
CONTINUOUS
 10
-29.4082517213
 20
-17.9780271963
 11
-29.3797925177
 21
-18.0044525556
  0
LINE
  5
3D3
100
AcDbEntity
  8
RACCORDO
100
AcDbLine
 62
7
  6
CONTINUOUS
 10
-23.7301301643
 20
-5.7999319528
 11
-23.7561345386
 21
-5.7755980384
  0
LINE
  5
3D4
100
AcDbEntity
  8
RACCORDO
100
AcDbLine
 62
7
  6
CONTINUOUS
 10
-29.4173349271
 20
-18.020018408
 11
-29.3729357644
 21
-18.0616153762
  0
LINE
  5
3D5
100
AcDbEntity
  8
0
100
AcDbLine
 62
7
  6
CONTINUOUS
 10
3.4048182019
 20
-24.2329134505
 11
3.3872141824
 21
-24.2164084324
  0
LINE
  5
3D6
100
AcDbEntity
  8
RACCORDO
100
AcDbLine
 62
7
  6
CONTINUOUS
 10
23.7448299393
 20
4.3565910496
 11
23.7754781494
 21
4.327792236
  0
LINE
  5
3D7
100
AcDbEntity
  8
RACCORDO
100
AcDbLine
 62
7
  6
CONTINUOUS
 10
23.7421328697
 20
4.5315103104
 11
23.7676616312
 21
4.5072884039
  0
LINE
  5
3D8
100
AcDbEntity
  8
RACCORDO
100
AcDbLine
 62
7
  6
CONTINUOUS
 10
-29.8200429109
 20
-17.3019012676
 11
-29.8338832536
 21
-17.2887299334
  0
LINE
  5
3D9
100
AcDbEntity
  8
RACCORDO
100
AcDbLine
 62
7
  6
CONTINUOUS
 10
-23.3264710009
 20
-5.2315267549
 11
-23.3426074248
 21
-5.2161592814
  0
LINE
  5
3DA
100
AcDbEntity
  8
RACCORDO
100
AcDbLine
 62
7
  6
CONTINUOUS
 10
-29.8338850782
 20
54.4336840495
 11
-29.8459080512
 21
54.445267852
  0
LINE
  5
3DB
100
AcDbEntity
  8
RACCORDO
100
AcDbLine
 62
7
  6
CONTINUOUS
 10
-24.1142824713
 20
31.722704889
 11
-24.0838051943
 21
31.6932973528
  0
LINE
  5
3DC
100
AcDbEntity
  8
RACCORDO
100
AcDbLine
 62
7
  6
CONTINUOUS
 10
-23.7561345386
 20
-5.7755980384
 11
-23.781818329
 21
-5.7506828331
  0
LINE
  5
3DD
100
AcDbEntity
  8
RACCORDO
100
AcDbLine
 62
7
  6
CONTINUOUS
 10
-29.4364357404
 20
-17.9502734404
 11
-29.4082517213
 21
-17.9780271963
  0
LINE
  5
3DE
100
AcDbEntity
  8
RACCORDO
100
AcDbLine
 62
7
  6
CONTINUOUS
 10
24.096993536
 20
3.8586867721
 11
24.0953189893
 21
3.8603372506
  0
LINE
  5
3DF
100
AcDbEntity
  8
RACCORDO
100
AcDbLine
 62
7
  6
CONTINUOUS
 10
-23.3426074248
 20
-5.2161592814
 11
-23.3585276892
 21
-5.2004492252
  0
LINE
  5
3E0
100
AcDbEntity
  8
RACCORDO
100
AcDbLine
 62
7
  6
CONTINUOUS
 10
23.7676616312
 20
4.5072884039
 11
23.7927619983
 21
4.4824325272
  0
LINE
  5
3E1
100
AcDbEntity
  8
0
100
AcDbLine
 62
7
  6
CONTINUOUS
 10
-9.572502292
 20
-9.9766041454
 11
-9.5868832546
 21
-9.9622620959
  0
LINE
  5
3E2
100
AcDbEntity
  8
0
100
AcDbLine
 62
7
  6
CONTINUOUS
 10
22.2473028614
 20
-28.3489608451
 11
22.2329218988
 21
-28.3346187957
  0
LINE
  5
3E3
100
AcDbEntity
  8
0
100
AcDbLine
 62
7
  6
CONTINUOUS
 10
3.6112110745
 20
-24.0320975233
 11
3.6332641055
 21
-24.0541061755
  0
LINE
  5
3E4
100
AcDbEntity
  8
0
100
AcDbLine
 62
7
  6
CONTINUOUS
 10
3.740421847
 20
-23.9935603091
 11
3.7175460605
 21
-23.9707010351
  0
LINE
  5
3E5
100
AcDbEntity
  8
RACCORDO
100
AcDbLine
 62
7
  6
CONTINUOUS
 10
-23.781818329
 20
-5.7506828331
 11
-23.8071830444
 21
-5.725194889
  0
LINE
  5
3E6
100
AcDbEntity
  8
RACCORDO
100
AcDbLine
 62
7
  6
CONTINUOUS
 10
-29.4607200528
 20
-17.9762288775
 11
-29.4173349271
 21
-18.020018408
  0
LINE
  5
3E7
100
AcDbEntity
  8
0
100
AcDbLine
 62
7
  6
CONTINUOUS
 10
3.422214718
 20
-24.2504729146
 11
3.4048182019
 21
-24.2329134505
  0
LINE
  5
3E8
100
AcDbEntity
  8
RACCORDO
100
AcDbLine
 62
7
  6
CONTINUOUS
 10
23.7754781494
 20
4.327792236
 11
23.8062653177
 21
4.2967051019
  0
LINE
  5
3E9
100
AcDbEntity
  8
0
100
AcDbLine
 62
7
  6
CONTINUOUS
 10
-9.681901219
 20
-10.2798286168
 11
-9.667248852
 21
-10.2946336519
  0
LINE
  5
3EA
100
AcDbEntity
  8
0
100
AcDbLine
 62
7
  6
CONTINUOUS
 10
22.1379039344
 20
-28.6521853165
 11
22.1525563014
 21
-28.6669903517
  0
LINE
  5
3EB
100
AcDbEntity
  8
0
100
AcDbLine
 62
7
  6
CONTINUOUS
 10
3.4141497769
 20
-25.1795423174
 11
3.3979051163
 21
-25.1631163668
  0
LINE
  5
3EC
100
AcDbEntity
  8
RACCORDO
100
AcDbLine
 62
7
  6
CONTINUOUS
 10
-23.3585276892
 20
-5.2004492252
 11
-23.3742721156
 21
-5.1843547795
  0
LINE
  5
3ED
100
AcDbEntity
  8
RACCORDO
100
AcDbLine
 62
7
  6
CONTINUOUS
 10
23.7927619983
 20
4.4824325272
 11
23.8174689048
 21
4.4569532816
  0
LINE
  5
3EE
100
AcDbEntity
  8
RACCORDO
100
AcDbLine
 62
7
  6
CONTINUOUS
 10
-23.8071830444
 20
-5.725194889
 11
-23.8322268373
 21
-5.6991254379
  0
LINE
  5
3EF
100
AcDbEntity
  8
RACCORDO
100
AcDbLine
 62
7
  6
CONTINUOUS
 10
-29.4640613499
 20
-17.9214610036
 11
-29.4364357404
 21
-17.9502734404
  0
LINE
  5
3F0
100
AcDbEntity
  8
RACCORDO
100
AcDbLine
 62
7
  6
CONTINUOUS
 10
-31.4694568437
 20
36.0307702603
 11
-31.4813759022
 21
36.0432987506
  0
LINE
  5
3F1
100
AcDbEntity
  8
RACCORDO
100
AcDbLine
 62
7
  6
CONTINUOUS
 10
24.2886238837
 20
3.1583498714
 11
24.2687598301
 21
3.1792520109
  0
LINE
  5
3F2
100
AcDbEntity
  8
0
100
AcDbLine
 62
7
  6
CONTINUOUS
 10
3.7302277591
 20
-25.180655233
 11
3.7480839377
 21
-25.1994505451
  0
LINE
  5
3F3
100
AcDbEntity
  8
RACCORDO
100
AcDbLine
 62
7
  6
CONTINUOUS
 10
-23.3742721156
 20
-5.1843547795
 11
-23.3898289475
 21
-5.1678895646
  0
LINE
  5
3F4
100
AcDbEntity
  8
RACCORDO
100
AcDbLine
 62
7
  6
CONTINUOUS
 10
23.8174689048
 20
4.4569532816
 11
23.841785117
 21
4.4308599452
  0
LINE
  5
3F5
100
AcDbEntity
  8
0
100
AcDbLine
 62
7
  6
CONTINUOUS
 10
-9.5416312886
 20
-10.3205159211
 11
-9.5547138258
 21
-10.3064577094
  0
LINE
  5
3F6
100
AcDbEntity
  8
0
100
AcDbLine
 62
7
  6
CONTINUOUS
 10
22.2781738648
 20
-28.6928726209
 11
22.2650913276
 21
-28.6788144091
  0
LINE
  5
3F7
100
AcDbEntity
  8
0
100
AcDbLine
 62
7
  6
CONTINUOUS
 10
-9.5637029332
 20
-10.0129655664
 11
-9.5506179001
 21
-10.0270344514
  0
LINE
  5
3F8
100
AcDbEntity
  8
0
100
AcDbLine
 62
7
  6
CONTINUOUS
 10
22.2561022202
 20
-28.3853222662
 11
22.2691872533
 21
-28.3993911511
  0
LINE
  5
3F9
100
AcDbEntity
  8
RACCORDO
100
AcDbLine
 62
7
  6
CONTINUOUS
 10
-23.8322268373
 20
-5.6991254379
 11
-23.856976616
 21
-5.672457373
  0
LINE
  5
3FA
100
AcDbEntity
  8
0
100
AcDbLine
 62
7
  6
CONTINUOUS
 10
3.6332641055
 20
-24.0541061755
 11
3.6555830543
 21
-24.0781621168
  0
LINE
  5
3FB
100
AcDbEntity
  8
0
100
AcDbLine
 62
7
  6
CONTINUOUS
 10
3.7635800205
 20
-24.0186213233
 11
3.740421847
 21
-23.9935603091
  0
LINE
  5
3FC
100
AcDbEntity
  8
RACCORDO
100
AcDbLine
 62
7
  6
CONTINUOUS
 10
23.8062653177
 20
4.2967051019
 11
23.837011384
 21
4.2634052925
  0
LINE
  5
3FD
100
AcDbEntity
  8
RACCORDO
100
AcDbLine
 62
7
  6
CONTINUOUS
 10
-29.5028397997
 20
-17.9305062991
 11
-29.4607200528
 21
-17.9762288775
  0
LINE
  5
3FE
100
AcDbEntity
  8
0
100
AcDbLine
 62
7
  6
CONTINUOUS
 10
3.4391624353
 20
-24.2689806599
 11
3.422214718
 21
-24.2504729146
  0
LINE
  5
3FF
100
AcDbEntity
  8
RACCORDO
100
AcDbLine
 62
7
  6
CONTINUOUS
 10
-23.3898289475
 20
-5.1678895646
 11
-23.405185466
 21
-5.1510678072
  0
LINE
  5
400
100
AcDbEntity
  8
RACCORDO
100
AcDbLine
 62
7
  6
CONTINUOUS
 10
-24.1427829129
 20
31.7541504865
 11
-24.1142824713
 21
31.722704889
  0
LINE
  5
401
100
AcDbEntity
  8
RACCORDO
100
AcDbLine
 62
7
  6
CONTINUOUS
 10
-29.4911227105
 20
-17.8915788967
 11
-29.4640613499
 21
-17.9214610036
  0
LINE
  5
402
100
AcDbEntity
  8
RACCORDO
100
AcDbLine
 62
7
  6
CONTINUOUS
 10
24.2886251468
 20
-32.5528798533
 11
24.2687607179
 21
-32.5308363707
  0
LINE
  5
403
100
AcDbEntity
  8
RACCORDO
100
AcDbLine
 62
7
  6
CONTINUOUS
 10
-31.4694568403
 20
-0.9831348304
 11
-31.4813758987
 21
-0.9698965286
  0
LINE
  5
404
100
AcDbEntity
  8
RACCORDO
100
AcDbLine
 62
7
  6
CONTINUOUS
 10
-23.856976616
 20
-5.672457373
 11
-23.8814361766
 21
-5.6451965979
  0
LINE
  5
405
100
AcDbEntity
  8
0
100
AcDbLine
 62
7
  6
CONTINUOUS
 10
3.429872659
 20
-25.1970957963
 11
3.4141497769
 21
-25.1795423174
  0
LINE
  5
406
100
AcDbEntity
  8
RACCORDO
100
AcDbLine
 62
7
  6
CONTINUOUS
 10
23.841785117
 20
4.4308599452
 11
23.8657082071
 21
4.4041434146
  0
LINE
  5
407
100
AcDbEntity
  8
0
100
AcDbLine
 62
7
  6
CONTINUOUS
 10
-9.667248852
 20
-10.2946336519
 11
-9.6531993867
 21
-10.3105513435
  0
LINE
  5
408
100
AcDbEntity
  8
0
100
AcDbLine
 62
7
  6
CONTINUOUS
 10
22.1525563014
 20
-28.6669903517
 11
22.1666057667
 21
-28.6829080433
  0
LINE
  5
409
100
AcDbEntity
  8
RACCORDO
100
AcDbLine
 62
7
  6
CONTINUOUS
 10
-23.405185466
 20
-5.1510678072
 11
-23.4203771013
 21
-5.1338417375
  0
LINE
  5
40A
100
AcDbEntity
  8
0
100
AcDbLine
 62
7
  6
CONTINUOUS
 10
3.7480839377
 20
-25.1994505451
 11
3.7651011523
 21
-25.2187803045
  0
LINE
  5
40B
100
AcDbEntity
  8
RACCORDO
100
AcDbLine
 62
7
  6
CONTINUOUS
 10
-23.8814361766
 20
-5.6451965979
 11
-23.9056013093
 21
-5.6173369451
  0
LINE
  5
40C
100
AcDbEntity
  8
0
100
AcDbLine
 62
7
  6
CONTINUOUS
 10
3.8759448483
 20
-25.162847834
 11
3.8568906223
 21
-25.1408449477
  0
LINE
  5
40D
100
AcDbEntity
  8
0
100
AcDbLine
 62
7
  6
CONTINUOUS
 10
3.6555830543
 20
-24.0781621168
 11
3.6781683879
 21
-24.1042650391
  0
LINE
  5
40E
100
AcDbEntity
  8
RACCORDO
100
AcDbLine
 62
7
  6
CONTINUOUS
 10
23.837011384
 20
4.2634052925
 11
23.8675499669
 21
4.2279725297
  0
LINE
  5
40F
100
AcDbEntity
  8
RACCORDO
100
AcDbLine
 62
7
  6
CONTINUOUS
 10
23.8657082071
 20
4.4041434146
 11
23.8892653316
 21
4.3767867264
  0
LINE
  5
410
100
AcDbEntity
  8
0
100
AcDbLine
 62
7
  6
CONTINUOUS
 10
3.7870211078
 20
-24.0458837298
 11
3.7635800205
 21
-24.0186213233
  0
LINE
  5
411
100
AcDbEntity
  8
RACCORDO
100
AcDbLine
 62
7
  6
CONTINUOUS
 10
-29.5435547848
 20
-17.883024397
 11
-29.5028397997
 21
-17.9305062991
  0
LINE
  5
412
100
AcDbEntity
  8
RACCORDO
100
AcDbLine
 62
7
  6
CONTINUOUS
 10
-29.5176245721
 20
-17.8606372488
 11
-29.4911227105
 21
-17.8915788967
  0
LINE
  5
413
100
AcDbEntity
  8
RACCORDO
100
AcDbLine
 62
7
  6
CONTINUOUS
 10
-29.8459080512
 20
54.445267852
 11
-29.8560274624
 21
54.4570865553
  0
LINE
  5
414
100
AcDbEntity
  8
RACCORDO
100
AcDbLine
 62
7
  6
CONTINUOUS
 10
-29.8338832536
 20
-17.2887299334
 11
-29.8459056622
 21
-17.2746504768
  0
LINE
  5
415
100
AcDbEntity
  8
RACCORDO
100
AcDbLine
 62
7
  6
CONTINUOUS
 10
-29.1800663829
 20
-18.198325385
 11
-29.1696640012
 21
-18.2105198677
  0
LINE
  5
416
100
AcDbEntity
  8
RACCORDO
100
AcDbLine
 62
7
  6
CONTINUOUS
 10
32.8730446175
 20
-54.0270136033
 11
32.88344687
 21
-54.0392081119
  0
LINE
  5
417
100
AcDbEntity
  8
0
100
AcDbLine
 62
7
  6
CONTINUOUS
 10
-9.559417906
 20
-9.9919579685
 11
-9.572502292
 21
-9.9766041454
  0
LINE
  5
418
100
AcDbEntity
  8
0
100
AcDbLine
 62
7
  6
CONTINUOUS
 10
22.2603872474
 20
-28.3643146682
 11
22.2473028614
 21
-28.3489608451
  0
LINE
  5
419
100
AcDbEntity
  8
RACCORDO
100
AcDbLine
 62
7
  6
CONTINUOUS
 10
-23.4203771013
 20
-5.1338417375
 11
-23.4353902363
 21
-5.1162229892
  0
LINE
  5
41A
100
AcDbEntity
  8
RACCORDO
100
AcDbLine
 62
7
  6
CONTINUOUS
 10
-23.3988967987
 20
31.618090941
 11
-23.3843352891
 21
31.600993215
  0
LINE
  5
41B
100
AcDbEntity
  8
RACCORDO
100
AcDbLine
 62
7
  6
CONTINUOUS
 10
23.542592866
 20
4.5146631066
 11
23.5571543788
 21
4.4975653837
  0
LINE
  5
41C
100
AcDbEntity
  8
0
100
AcDbLine
 62
7
  6
CONTINUOUS
 10
3.4557241375
 20
-24.2885161937
 11
3.4391624353
 21
-24.2689806599
  0
LINE
  5
41D
100
AcDbEntity
  8
RACCORDO
100
AcDbLine
 62
7
  6
CONTINUOUS
 10
-23.9056013093
 20
-5.6173369451
 11
-23.9294868876
 21
-5.588843184
  0
LINE
  5
41E
100
AcDbEntity
  8
RACCORDO
100
AcDbLine
 62
7
  6
CONTINUOUS
 10
23.8892653316
 20
4.3767867264
 11
23.9124614905
 21
4.3487964792
  0
LINE
  5
41F
100
AcDbEntity
  8
RACCORDO
100
AcDbLine
 62
7
  6
CONTINUOUS
 10
-23.4353902363
 20
-5.1162229892
 11
-23.4502100996
 21
-5.0982236968
  0
LINE
  5
420
100
AcDbEntity
  8
0
100
AcDbLine
 62
7
  6
CONTINUOUS
 10
3.4451121512
 20
-25.2156901027
 11
3.429872659
 21
-25.1970957963
  0
LINE
  5
421
100
AcDbEntity
  8
0
100
AcDbLine
 62
7
  6
CONTINUOUS
 10
3.6781683879
 20
-24.1042650391
 11
3.7010964838
 21
-24.1323851705
  0
LINE
  5
422
100
AcDbEntity
  8
0
100
AcDbLine
 62
7
  6
CONTINUOUS
 10
3.7651011523
 20
-25.2187803045
 11
3.7812796209
 21
-25.238644365
  0
LINE
  5
423
100
AcDbEntity
  8
RACCORDO
100
AcDbLine
 62
7
  6
CONTINUOUS
 10
-23.9294868876
 20
-5.588843184
 11
-23.953098411
 21
-5.5597190526
  0
LINE
  5
424
100
AcDbEntity
  8
RACCORDO
100
AcDbLine
 62
7
  6
CONTINUOUS
 10
-29.5432996139
 20
-17.8289374686
 11
-29.5176245721
 21
-17.8606372488
  0
LINE
  5
425
100
AcDbEntity
  8
0
100
AcDbLine
 62
7
  6
CONTINUOUS
 10
3.8108431399
 20
-24.0753201264
 11
3.7870211078
 21
-24.0458837298
  0
LINE
  5
426
100
AcDbEntity
  8
RACCORDO
100
AcDbLine
 62
7
  6
CONTINUOUS
 10
23.8675499669
 20
4.2279725297
 11
23.8976685519
 21
4.1905634429
  0
LINE
  5
427
100
AcDbEntity
  8
RACCORDO
100
AcDbLine
 62
7
  6
CONTINUOUS
 10
-29.5827302666
 20
-17.8339427589
 11
-29.5435547848
 21
-17.883024397
  0
LINE
  5
428
100
AcDbEntity
  8
0
100
AcDbLine
 62
7
  6
CONTINUOUS
 10
35.6655760931
 20
-19.1157798393
 11
35.6583839587
 21
-19.1067683356
  0
LINE
  5
429
100
AcDbEntity
  8
0
100
AcDbLine
 62
7
  6
CONTINUOUS
 10
3.8937945358
 20
-25.1852274741
 11
3.8759448483
 21
-25.162847834
  0
LINE
  5
42A
100
AcDbEntity
  8
RACCORDO
100
AcDbLine
 62
7
  6
CONTINUOUS
 10
23.9124614905
 20
4.3487964792
 11
23.9352920974
 21
4.3201662883
  0
LINE
  5
42B
100
AcDbEntity
  8
RACCORDO
100
AcDbLine
 62
7
  6
CONTINUOUS
 10
-23.4502100996
 20
-5.0982236968
 11
-23.4648658976
 21
-5.079791348
  0
LINE
  5
42C
100
AcDbEntity
  8
RACCORDO
100
AcDbLine
 62
7
  6
CONTINUOUS
 10
-24.1691011511
 20
31.7874075553
 11
-24.1427829129
 21
31.7541504865
  0
LINE
  5
42D
100
AcDbEntity
  8
0
100
AcDbLine
 62
7
  6
CONTINUOUS
 10
-9.6531993867
 20
-10.3105513435
 11
-9.6398656437
 21
-10.3274548909
  0
LINE
  5
42E
100
AcDbEntity
  8
0
100
AcDbLine
 62
7
  6
CONTINUOUS
 10
22.1666057667
 20
-28.6829080433
 11
22.1799395097
 21
-28.6998115907
  0
LINE
  5
42F
100
AcDbEntity
  8
0
100
AcDbLine
 62
7
  6
CONTINUOUS
 10
3.4718375483
 20
-24.3089996724
 11
3.4557241375
 21
-24.2885161937
  0
LINE
  5
430
100
AcDbEntity
  8
RACCORDO
100
AcDbLine
 62
7
  6
CONTINUOUS
 10
-23.953098411
 20
-5.5597190526
 11
-23.9764298734
 21
-5.5299604902
  0
LINE
  5
431
100
AcDbEntity
  8
0
100
AcDbLine
 62
7
  6
CONTINUOUS
 10
-9.5300872785
 20
-10.3354677667
 11
-9.5416312886
 21
-10.3205159211
  0
LINE
  5
432
100
AcDbEntity
  8
0
100
AcDbLine
 62
7
  6
CONTINUOUS
 10
22.2897178749
 20
-28.7078244665
 11
22.2781738648
 21
-28.6928726209
  0
LINE
  5
433
100
AcDbEntity
  8
0
100
AcDbLine
 62
7
  6
CONTINUOUS
 10
-9.5506179001
 20
-10.0270344514
 11
-9.5390751281
 21
-10.0419951001
  0
LINE
  5
434
100
AcDbEntity
  8
0
100
AcDbLine
 62
7
  6
CONTINUOUS
 10
22.2691872533
 20
-28.3993911511
 11
22.2807300253
 21
-28.4143517999
  0
LINE
  5
435
100
AcDbEntity
  8
RACCORDO
100
AcDbLine
 62
7
  6
CONTINUOUS
 10
-31.4813759022
 20
36.0432987506
 11
-31.4913734503
 21
36.0562785628
  0
LINE
  5
436
100
AcDbEntity
  8
RACCORDO
100
AcDbLine
 62
7
  6
CONTINUOUS
 10
24.2687598301
 20
3.1792520109
 11
24.2520984737
 21
3.2009112319
  0
LINE
  5
437
100
AcDbEntity
  8
0
100
AcDbLine
 62
7
  6
CONTINUOUS
 10
3.7010964838
 20
-24.1323851705
 11
3.7242921184
 21
-24.162551521
  0
LINE
  5
438
100
AcDbEntity
  8
RACCORDO
100
AcDbLine
 62
7
  6
CONTINUOUS
 10
-23.4648658976
 20
-5.079791348
 11
-23.4793408914
 21
-5.0609372829
  0
LINE
  5
439
100
AcDbEntity
  8
RACCORDO
100
AcDbLine
 62
7
  6
CONTINUOUS
 10
23.9352920974
 20
4.3201662883
 11
23.9577699563
 21
4.290859728
  0
LINE
  5
43A
100
AcDbEntity
  8
RACCORDO
100
AcDbLine
 62
7
  6
CONTINUOUS
 10
-29.5681404481
 20
-17.7964701845
 11
-29.5432996139
 21
-17.8289374686
  0
LINE
  5
43B
100
AcDbEntity
  8
0
100
AcDbLine
 62
7
  6
CONTINUOUS
 10
3.8349493935
 20
-24.1069570517
 11
3.8108431399
 21
-24.0753201264
  0
LINE
  5
43C
100
AcDbEntity
  8
RACCORDO
100
AcDbLine
 62
7
  6
CONTINUOUS
 10
-23.9764298734
 20
-5.5299604902
 11
-23.9994788454
 21
-5.4995205399
  0
LINE
  5
43D
100
AcDbEntity
  8
0
100
AcDbLine
 62
7
  6
CONTINUOUS
 10
3.4596597241
 20
-25.2349096683
 11
3.4451121512
 21
-25.2156901027
  0
LINE
  5
43E
100
AcDbEntity
  8
RACCORDO
100
AcDbLine
 62
7
  6
CONTINUOUS
 10
23.8976685519
 20
4.1905634429
 11
23.9272006396
 21
4.1513070238
  0
LINE
  5
43F
100
AcDbEntity
  8
0
100
AcDbLine
 62
7
  6
CONTINUOUS
 10
3.7812796209
 20
-25.238644365
 11
3.7966296806
 21
-25.2592326107
  0
LINE
  5
440
100
AcDbEntity
  8
RACCORDO
100
AcDbLine
 62
7
  6
CONTINUOUS
 10
-29.6201312955
 20
-17.7835522328
 11
-29.5827302666
 21
-17.8339427589
  0
LINE
  5
441
100
AcDbEntity
  8
RACCORDO
100
AcDbLine
 62
7
  6
CONTINUOUS
 10
-23.4793408914
 20
-5.0609372829
 11
-23.4936175005
 21
-5.0416725597
  0
LINE
  5
442
100
AcDbEntity
  8
RACCORDO
100
AcDbLine
 62
7
  6
CONTINUOUS
 10
23.9577699563
 20
4.290859728
 11
23.9799017499
 21
4.2608812194
  0
LINE
  5
443
100
AcDbEntity
  8
RACCORDO
100
AcDbLine
 62
7
  6
CONTINUOUS
 10
-23.9994788454
 20
-5.4995205399
 11
-24.0222521923
 21
-5.4684012037
  0
LINE
  5
444
100
AcDbEntity
  8
0
100
AcDbLine
 62
7
  6
CONTINUOUS
 10
3.9103730114
 20
-25.2081446058
 11
3.8937945358
 21
-25.1852274741
  0
LINE
  5
445
100
AcDbEntity
  8
RACCORDO
100
AcDbLine
 62
7
  6
CONTINUOUS
 10
-29.5921532075
 20
-17.7632437785
 11
-29.5681404481
 21
-17.7964701845
  0
LINE
  5
446
100
AcDbEntity
  8
0
100
AcDbLine
 62
7
  6
CONTINUOUS
 10
3.4870738121
 20
-24.3300858843
 11
3.4718375483
 21
-24.3089996724
  0
LINE
  5
447
100
AcDbEntity
  8
RACCORDO
100
AcDbLine
 62
7
  6
CONTINUOUS
 10
24.2687607179
 20
-32.5308363707
 11
24.2520989948
 21
-32.5077743613
  0
LINE
  5
448
100
AcDbEntity
  8
0
100
AcDbLine
 62
7
  6
CONTINUOUS
 10
-9.5476952648
 20
-10.0081940752
 11
-9.559417906
 21
-9.9919579685
  0
LINE
  5
449
100
AcDbEntity
  8
0
100
AcDbLine
 62
7
  6
CONTINUOUS
 10
22.2721098886
 20
-28.380550775
 11
22.2603872474
 21
-28.3643146682
  0
LINE
  5
44A
100
AcDbEntity
  8
RACCORDO
100
AcDbLine
 62
7
  6
CONTINUOUS
 10
-31.4813758987
 20
-0.9698965286
 11
-31.4913734468
 21
-0.9560443294
  0
LINE
  5
44B
100
AcDbEntity
  8
0
100
AcDbLine
 62
7
  6
CONTINUOUS
 10
3.7242921184
 20
-24.162551521
 11
3.7475285577
 21
-24.1948518219
  0
LINE
  5
44C
100
AcDbEntity
  8
RACCORDO
100
AcDbLine
 62
7
  6
CONTINUOUS
 10
-23.4936175005
 20
-5.0416725597
 11
-23.5077180361
 21
-5.0219401082
  0
LINE
  5
44D
100
AcDbEntity
  8
0
100
AcDbLine
 62
7
  6
CONTINUOUS
 10
3.8590485004
 20
-24.1408749134
 11
3.8349493935
 21
-24.1069570517
  0
LINE
  5
44E
100
AcDbEntity
  8
RACCORDO
100
AcDbLine
 62
7
  6
CONTINUOUS
 10
23.9799017499
 20
4.2608812194
 11
24.001681302
 21
4.2302266036
  0
LINE
  5
44F
100
AcDbEntity
  8
RACCORDO
100
AcDbLine
 62
7
  6
CONTINUOUS
 10
-24.0222521923
 20
-5.4684012037
 11
-24.0447424243
 21
-5.4366000823
  0
LINE
  5
450
100
AcDbEntity
  8
0
100
AcDbLine
 62
7
  6
CONTINUOUS
 10
-9.6398656437
 20
-10.3274548909
 11
-9.6273447007
 21
-10.3452223034
  0
LINE
  5
451
100
AcDbEntity
  8
0
100
AcDbLine
 62
7
  6
CONTINUOUS
 10
22.1799395097
 20
-28.6998115907
 11
22.1924604527
 21
-28.7175790032
  0
LINE
  5
452
100
AcDbEntity
  8
RACCORDO
100
AcDbLine
 62
7
  6
CONTINUOUS
 10
23.9272006396
 20
4.1513070238
 11
23.95599684
 21
4.1103300829
  0
LINE
  5
453
100
AcDbEntity
  8
0
100
AcDbLine
 62
7
  6
CONTINUOUS
 10
3.4734544677
 20
-25.2547162667
 11
3.4596597241
 21
-25.2349096683
  0
LINE
  5
454
100
AcDbEntity
  8
RACCORDO
100
AcDbLine
 62
7
  6
CONTINUOUS
 10
-29.6556349273
 20
-17.7320276286
 11
-29.6201312955
 21
-17.7835522328
  0
LINE
  5
455
100
AcDbEntity
  8
RACCORDO
100
AcDbLine
 62
7
  6
CONTINUOUS
 10
-23.5077180361
 20
-5.0219401082
 11
-23.5216207115
 21
-5.0017538413
  0
LINE
  5
456
100
AcDbEntity
  8
RACCORDO
100
AcDbLine
 62
7
  6
CONTINUOUS
 10
-24.1930475423
 20
31.822236452
 11
-24.1691011511
 21
31.7874075553
  0
LINE
  5
457
100
AcDbEntity
  8
0
100
AcDbLine
 62
7
  6
CONTINUOUS
 10
3.7966296806
 20
-25.2592326107
 11
3.8111415356
 21
-25.2803547948
  0
LINE
  5
458
100
AcDbEntity
  8
RACCORDO
100
AcDbLine
 62
7
  6
CONTINUOUS
 10
24.001681302
 20
4.2302266036
 11
24.0231021729
 21
4.1988466083
  0
LINE
  5
459
100
AcDbEntity
  8
RACCORDO
100
AcDbLine
 62
7
  6
CONTINUOUS
 10
-24.0447424243
 20
-5.4366000823
 11
-24.0669255131
 21
-5.4040635754
  0
LINE
  5
45A
100
AcDbEntity
  8
RACCORDO
100
AcDbLine
 62
7
  6
CONTINUOUS
 10
-29.6150909574
 20
-17.7295863726
 11
-29.5921532075
 21
-17.7632437785
  0
LINE
  5
45B
100
AcDbEntity
  8
RACCORDO
100
AcDbLine
 62
7
  6
CONTINUOUS
 10
-29.8560274624
 20
54.4570865553
 11
-29.8641712639
 21
54.4690560131
  0
LINE
  5
45C
100
AcDbEntity
  8
RACCORDO
100
AcDbLine
 62
7
  6
CONTINUOUS
 10
-29.8459056622
 20
-17.2746504768
 11
-29.856024542
 21
-17.2597631377
  0
LINE
  5
45D
100
AcDbEntity
  8
0
100
AcDbLine
 62
7
  6
CONTINUOUS
 10
3.7475285577
 20
-24.1948518219
 11
3.7709715229
 21
-24.2294078877
  0
LINE
  5
45E
100
AcDbEntity
  8
RACCORDO
100
AcDbLine
 62
7
  6
CONTINUOUS
 10
-23.4117657516
 20
31.6373518191
 11
-23.3988967987
 21
31.618090941
  0
LINE
  5
45F
100
AcDbEntity
  8
RACCORDO
100
AcDbLine
 62
7
  6
CONTINUOUS
 10
23.5297239093
 20
4.5339239826
 11
23.542592866
 21
4.5146631066
  0
LINE
  5
460
100
AcDbEntity
  8
0
100
AcDbLine
 62
7
  6
CONTINUOUS
 10
3.8833209714
 20
-24.1772281715
 11
3.8590485004
 21
-24.1408749134
  0
LINE
  5
461
100
AcDbEntity
  8
RACCORDO
100
AcDbLine
 62
7
  6
CONTINUOUS
 10
-23.5216207115
 20
-5.0017538413
 11
-23.5353048825
 21
-4.981123839
  0
LINE
  5
462
100
AcDbEntity
  8
RACCORDO
100
AcDbLine
 62
7
  6
CONTINUOUS
 10
24.1984578202
 20
-33.133426375
 11
24.1751920928
 21
-33.0982044714
  0
LINE
  5
463
100
AcDbEntity
  8
0
100
AcDbLine
 62
7
  6
CONTINUOUS
 10
3.9257476014
 20
-25.2314380535
 11
3.9103730114
 21
-25.2081446058
  0
LINE
  5
464
100
AcDbEntity
  8
RACCORDO
100
AcDbLine
 62
7
  6
CONTINUOUS
 10
-24.0669255131
 20
-5.4040635754
 11
-24.0888099161
 21
-5.370792152
  0
LINE
  5
465
100
AcDbEntity
  8
0
100
AcDbLine
 62
7
  6
CONTINUOUS
 10
3.5013801793
 20
-24.3518492309
 11
3.4870738121
 21
-24.3300858843
  0
LINE
  5
466
100
AcDbEntity
  8
RACCORDO
100
AcDbLine
 62
7
  6
CONTINUOUS
 10
24.0231021729
 20
4.1988466083
 11
24.0441724388
 21
4.1667439345
  0
LINE
  5
467
100
AcDbEntity
  8
RACCORDO
100
AcDbLine
 62
7
  6
CONTINUOUS
 10
23.95599684
 20
4.1103300829
 11
23.9838919645
 21
4.0678036934
  0
LINE
  5
468
100
AcDbEntity
  8
0
100
AcDbLine
 62
7
  6
CONTINUOUS
 10
3.8111415356
 20
-25.2803547948
 11
3.8247850825
 21
-25.3014406568
  0
LINE
  5
469
100
AcDbEntity
  8
0
100
AcDbLine
 62
7
  6
CONTINUOUS
 10
3.4865578164
 20
-25.275147772
 11
3.4734544677
 21
-25.2547162667
  0
LINE
  5
46A
100
AcDbEntity
  8
RACCORDO
100
AcDbLine
 62
7
  6
CONTINUOUS
 10
-29.6369429167
 20
-17.6954932938
 11
-29.6150909574
 21
-17.7295863726
  0
LINE
  5
46B
100
AcDbEntity
  8
0
100
AcDbLine
 62
7
  6
CONTINUOUS
 10
3.7709715229
 20
-24.2294078877
 11
3.7944571643
 21
-24.2660966669
  0
LINE
  5
46C
100
AcDbEntity
  8
RACCORDO
100
AcDbLine
 62
7
  6
CONTINUOUS
 10
-29.1890255932
 20
-18.1843014784
 11
-29.1800663829
 21
-18.198325385
  0
LINE
  5
46D
100
AcDbEntity
  8
RACCORDO
100
AcDbLine
 62
7
  6
CONTINUOUS
 10
32.8640855394
 20
-54.0129897324
 11
32.8730446175
 21
-54.0270136033
  0
LINE
  5
46E
100
AcDbEntity
  8
RACCORDO
100
AcDbLine
 62
7
  6
CONTINUOUS
 10
-23.5353048825
 20
-4.981123839
 11
-23.5487873812
 21
-4.9599844425
  0
LINE
  5
46F
100
AcDbEntity
  8
RACCORDO
100
AcDbLine
 62
7
  6
CONTINUOUS
 10
-29.6891069694
 20
-17.6795412085
 11
-29.6556349273
 21
-17.7320276286
  0
LINE
  5
470
100
AcDbEntity
  8
RACCORDO
100
AcDbLine
 62
7
  6
CONTINUOUS
 10
-24.0888099161
 20
-5.370792152
 11
-24.1103864007
 21
-5.3367848505
  0
LINE
  5
471
100
AcDbEntity
  8
RACCORDO
100
AcDbLine
 62
7
  6
CONTINUOUS
 10
24.0441724388
 20
4.1667439345
 11
24.0648846479
 21
4.1339162049
  0
LINE
  5
472
100
AcDbEntity
  8
0
100
AcDbLine
 62
7
  6
CONTINUOUS
 10
-9.5201682543
 20
-10.3512012642
 11
-9.5300872785
 21
-10.3354677667
  0
LINE
  5
473
100
AcDbEntity
  8
0
100
AcDbLine
 62
7
  6
CONTINUOUS
 10
22.2996368991
 20
-28.7235579639
 11
22.2897178749
 21
-28.7078244665
  0
LINE
  5
474
100
AcDbEntity
  8
0
100
AcDbLine
 62
7
  6
CONTINUOUS
 10
-9.5390751281
 20
-10.0419951001
 11
-9.5291603347
 21
-10.0577350338
  0
LINE
  5
475
100
AcDbEntity
  8
0
100
AcDbLine
 62
7
  6
CONTINUOUS
 10
22.2807300253
 20
-28.4143517999
 11
22.2906448187
 21
-28.4300917336
  0
LINE
  5
476
100
AcDbEntity
  8
0
100
AcDbLine
 62
7
  6
CONTINUOUS
 10
3.9075884553
 20
-24.2158609383
 11
3.8833209714
 21
-24.1772281715
  0
LINE
  5
477
100
AcDbEntity
  8
0
100
AcDbLine
 62
7
  6
CONTINUOUS
 10
-9.6273447007
 20
-10.3452223034
 11
-9.615737878
 21
-10.3637108049
  0
LINE
  5
478
100
AcDbEntity
  8
0
100
AcDbLine
 62
7
  6
CONTINUOUS
 10
22.1924604527
 20
-28.7175790032
 11
22.2040672754
 21
-28.7360675046
  0
LINE
  5
479
100
AcDbEntity
  8
0
100
AcDbLine
 62
7
  6
CONTINUOUS
 10
3.9401194173
 20
-25.2546248724
 11
3.9257476014
 21
-25.2314380535
  0
LINE
  5
47A
100
AcDbEntity
  8
RACCORDO
100
AcDbLine
 62
7
  6
CONTINUOUS
 10
-23.5487873812
 20
-4.9599844425
 11
-23.5620542794
 21
-4.9383223923
  0
LINE
  5
47B
100
AcDbEntity
  8
RACCORDO
100
AcDbLine
 62
7
  6
CONTINUOUS
 10
23.9838919645
 20
4.0678036934
 11
24.0107430468
 21
4.0238911162
  0
LINE
  5
47C
100
AcDbEntity
  8
RACCORDO
100
AcDbLine
 62
7
  6
CONTINUOUS
 10
-24.1103864007
 20
-5.3367848505
 11
-24.1316043123
 21
-5.3019858659
  0
LINE
  5
47D
100
AcDbEntity
  8
0
100
AcDbLine
 62
7
  6
CONTINUOUS
 10
3.8247850825
 20
-25.3014406568
 11
3.8374854421
 21
-25.3223514578
  0
LINE
  5
47E
100
AcDbEntity
  8
0
100
AcDbLine
 62
7
  6
CONTINUOUS
 10
-9.5373409511
 20
-10.0252599584
 11
-9.5476952648
 21
-10.0081940752
  0
LINE
  5
47F
100
AcDbEntity
  8
0
100
AcDbLine
 62
7
  6
CONTINUOUS
 10
22.2824642023
 20
-28.3976166582
 11
22.2721098886
 21
-28.380550775
  0
LINE
  5
480
100
AcDbEntity
  8
RACCORDO
100
AcDbLine
 62
7
  6
CONTINUOUS
 10
24.0648846479
 20
4.1339162049
 11
24.0852091343
 21
4.1003065642
  0
LINE
  5
481
100
AcDbEntity
  8
RACCORDO
100
AcDbLine
 62
7
  6
CONTINUOUS
 10
-29.6577185926
 20
-17.6609682123
 11
-29.6369429167
 21
-17.6954932938
  0
LINE
  5
482
100
AcDbEntity
  8
0
100
AcDbLine
 62
7
  6
CONTINUOUS
 10
3.5148100559
 20
-24.3742148754
 11
3.5013801793
 21
-24.3518492309
  0
LINE
  5
483
100
AcDbEntity
  8
RACCORDO
100
AcDbLine
 62
7
  6
CONTINUOUS
 10
-31.4913734503
 20
36.0562785628
 11
-31.4993783794
 21
36.0696173764
  0
LINE
  5
484
100
AcDbEntity
  8
RACCORDO
100
AcDbLine
 62
7
  6
CONTINUOUS
 10
24.2520984737
 20
3.2009112319
 11
24.2387583195
 21
3.2231734821
  0
LINE
  5
485
100
AcDbEntity
  8
0
100
AcDbLine
 62
7
  6
CONTINUOUS
 10
3.4989446451
 20
-25.2959028419
 11
3.4865578164
 21
-25.275147772
  0
LINE
  5
486
100
AcDbEntity
  8
0
100
AcDbLine
 62
7
  6
CONTINUOUS
 10
3.7944571643
 20
-24.2660966669
 11
3.817264692
 21
-24.3046383928
  0
LINE
  5
487
100
AcDbEntity
  8
RACCORDO
100
AcDbLine
 62
7
  6
CONTINUOUS
 10
-29.7203527156
 20
-17.6263815282
 11
-29.6891069694
 21
-17.6795412085
  0
LINE
  5
488
100
AcDbEntity
  8
RACCORDO
100
AcDbLine
 62
7
  6
CONTINUOUS
 10
-23.5620542794
 20
-4.9383223923
 11
-23.5750648873
 21
-4.9161793984
  0
LINE
  5
489
100
AcDbEntity
  8
RACCORDO
100
AcDbLine
 62
7
  6
CONTINUOUS
 10
-24.1316043123
 20
-5.3019858659
 11
-24.1524464252
 21
-5.2663763805
  0
LINE
  5
48A
100
AcDbEntity
  8
0
100
AcDbLine
 62
7
  6
CONTINUOUS
 10
3.9534624723
 20
-25.2775740749
 11
3.9401194173
 21
-25.2546248724
  0
LINE
  5
48B
100
AcDbEntity
  8
RACCORDO
100
AcDbLine
 62
7
  6
CONTINUOUS
 10
24.0852091343
 20
4.1003065642
 11
24.1051556601
 21
4.0659162345
  0
LINE
  5
48C
100
AcDbEntity
  8
0
100
AcDbLine
 62
7
  6
CONTINUOUS
 10
3.9310216135
 20
-24.2563878845
 11
3.9075884553
 21
-24.2158609383
  0
LINE
  5
48D
100
AcDbEntity
  8
0
100
AcDbLine
 62
7
  6
CONTINUOUS
 10
35.6583839587
 20
-19.1067683356
 11
35.6520971558
 21
-19.0957986466
  0
LINE
  5
48E
100
AcDbEntity
  8
RACCORDO
100
AcDbLine
 62
7
  6
CONTINUOUS
 10
24.0107430468
 20
4.0238911162
 11
24.0364175569
 21
3.9787615535
  0
LINE
  5
48F
100
AcDbEntity
  8
0
100
AcDbLine
 62
7
  6
CONTINUOUS
 10
3.8374854421
 20
-25.3223514578
 11
3.8493177559
 21
-25.3432257605
  0
LINE
  5
490
100
AcDbEntity
  8
RACCORDO
100
AcDbLine
 62
7
  6
CONTINUOUS
 10
-29.6772016815
 20
-17.6263519206
 11
-29.6577185926
 21
-17.6609682123
  0
LINE
  5
491
100
AcDbEntity
  8
RACCORDO
100
AcDbLine
 62
7
  6
CONTINUOUS
 10
-23.5750648873
 20
-4.9161793984
 11
-23.5877911056
 21
-4.8935727597
  0
LINE
  5
492
100
AcDbEntity
  8
RACCORDO
100
AcDbLine
 62
7
  6
CONTINUOUS
 10
-24.1524464252
 20
-5.2663763805
 11
-24.1729289863
 21
-5.2299745907
  0
LINE
  5
493
100
AcDbEntity
  8
RACCORDO
100
AcDbLine
 62
7
  6
CONTINUOUS
 10
24.1751920928
 20
-33.0982044714
 11
24.154638345
 21
-33.0616190581
  0
LINE
  5
494
100
AcDbEntity
  8
RACCORDO
100
AcDbLine
 62
7
  6
CONTINUOUS
 10
24.2520989948
 20
-32.5077743613
 11
24.2387584865
 21
-32.4838578571
  0
LINE
  5
495
100
AcDbEntity
  8
RACCORDO
100
AcDbLine
 62
7
  6
CONTINUOUS
 10
-31.4913734468
 20
-0.9560443294
 11
-31.499378376
 21
-0.9416767582
  0
LINE
  5
496
100
AcDbEntity
  8
0
100
AcDbLine
 62
7
  6
CONTINUOUS
 10
-9.615737878
 20
-10.3637108049
 11
-9.6051351093
 21
-10.3827763276
  0
LINE
  5
497
100
AcDbEntity
  8
0
100
AcDbLine
 62
7
  6
CONTINUOUS
 10
22.2040672754
 20
-28.7360675046
 11
22.2146700441
 21
-28.7551330273
  0
LINE
  5
498
100
AcDbEntity
  8
RACCORDO
100
AcDbLine
 62
7
  6
CONTINUOUS
 10
24.1051556601
 20
4.0659162345
 11
24.1247152383
 21
4.030744396
  0
LINE
  5
499
100
AcDbEntity
  8
0
100
AcDbLine
 62
7
  6
CONTINUOUS
 10
3.5106227197
 20
-25.3169615949
 11
3.4989446451
 21
-25.2959028419
  0
LINE
  5
49A
100
AcDbEntity
  8
0
100
AcDbLine
 62
7
  6
CONTINUOUS
 10
3.5270937027
 20
-24.3966138261
 11
3.5148100559
 21
-24.3742148754
  0
LINE
  5
49B
100
AcDbEntity
  8
0
100
AcDbLine
 62
7
  6
CONTINUOUS
 10
3.817264692
 20
-24.3046383928
 11
3.8394940427
 21
-24.3454012257
  0
LINE
  5
49C
100
AcDbEntity
  8
RACCORDO
100
AcDbLine
 62
7
  6
CONTINUOUS
 10
-24.1729289863
 20
-5.2299745907
 11
-24.1930514791
 21
-5.1927801692
  0
LINE
  5
49D
100
AcDbEntity
  8
0
100
AcDbLine
 62
7
  6
CONTINUOUS
 10
3.9658030493
 20
-25.3004164497
 11
3.9534624723
 21
-25.2775740749
  0
LINE
  5
49E
100
AcDbEntity
  8
0
100
AcDbLine
 62
7
  6
CONTINUOUS
 10
3.8493177559
 20
-25.3432257605
 11
3.8604767169
 21
-25.363909413
  0
LINE
  5
49F
100
AcDbEntity
  8
RACCORDO
100
AcDbLine
 62
7
  6
CONTINUOUS
 10
-29.7492714514
 20
-17.572699018
 11
-29.7203527156
 21
-17.6263815282
  0
LINE
  5
4A0
100
AcDbEntity
  8
RACCORDO
100
AcDbLine
 62
7
  6
CONTINUOUS
 10
24.1247152383
 20
4.030744396
 11
24.143830172
 21
3.9947311778
  0
LINE
  5
4A1
100
AcDbEntity
  8
RACCORDO
100
AcDbLine
 62
7
  6
CONTINUOUS
 10
-23.5877911056
 20
-4.8935727597
 11
-23.6079811253
 21
-4.8554883082
  0
LINE
  5
4A2
100
AcDbEntity
  8
0
100
AcDbLine
 62
7
  6
CONTINUOUS
 10
3.9537202672
 20
-24.2992446713
 11
3.9310216135
 21
-24.2563878845
  0
LINE
  5
4A3
100
AcDbEntity
  8
RACCORDO
100
AcDbLine
 62
7
  6
CONTINUOUS
 10
24.0364175569
 20
3.9787615535
 11
24.060784296
 21
3.9326066205
  0
LINE
  5
4A4
100
AcDbEntity
  8
RACCORDO
100
AcDbLine
 62
7
  6
CONTINUOUS
 10
-29.6953844691
 20
-17.5916276022
 11
-29.6772016815
 21
-17.6263519206
  0
LINE
  5
4A5
100
AcDbEntity
  8
RACCORDO
100
AcDbLine
 62
7
  6
CONTINUOUS
 10
-29.856024542
 20
-17.2597631377
 11
-29.8641678508
 21
-17.244173908
  0
LINE
  5
4A6
100
AcDbEntity
  8
RACCORDO
100
AcDbLine
 62
7
  6
CONTINUOUS
 10
-23.4228700858
 20
31.6586679942
 11
-23.4117657516
 21
31.6373518191
  0
LINE
  5
4A7
100
AcDbEntity
  8
RACCORDO
100
AcDbLine
 62
7
  6
CONTINUOUS
 10
23.5186195711
 20
4.5552401569
 11
23.5297239093
 21
4.5339239826
  0
LINE
  5
4A8
100
AcDbEntity
  8
0
100
AcDbLine
 62
7
  6
CONTINUOUS
 10
3.8604767169
 20
-25.363909413
 11
3.8709673232
 21
-25.3843477487
  0
LINE
  5
4A9
100
AcDbEntity
  8
0
100
AcDbLine
 62
7
  6
CONTINUOUS
 10
3.9774203894
 20
-25.3230619009
 11
3.9658030493
 21
-25.3004164497
  0
LINE
  5
4AA
100
AcDbEntity
  8
0
100
AcDbLine
 62
7
  6
CONTINUOUS
 10
3.5215847353
 20
-25.3383436024
 11
3.5106227197
 21
-25.3169615949
  0
LINE
  5
4AB
100
AcDbEntity
  8
RACCORDO
100
AcDbLine
 62
7
  6
CONTINUOUS
 10
-24.1930514791
 20
-5.1927801692
 11
-24.225020654
 21
-5.1301097485
  0
LINE
  5
4AC
100
AcDbEntity
  8
RACCORDO
100
AcDbLine
 62
7
  6
CONTINUOUS
 10
-29.8641712639
 20
54.4690560131
 11
-29.8702814739
 21
54.4810910056
  0
LINE
  5
4AD
100
AcDbEntity
  8
0
100
AcDbLine
 62
7
  6
CONTINUOUS
 10
3.8394940427
 20
-24.3454012257
 11
3.8610480553
 21
-24.3880151679
  0
LINE
  5
4AE
100
AcDbEntity
  8
RACCORDO
100
AcDbLine
 62
7
  6
CONTINUOUS
 10
24.143830172
 20
3.9947311778
 11
24.1624815694
 21
3.9578567997
  0
LINE
  5
4AF
100
AcDbEntity
  8
0
100
AcDbLine
 62
7
  6
CONTINUOUS
 10
-9.5284329616
 20
-10.0429833871
 11
-9.5373409511
 21
-10.0252599584
  0
LINE
  5
4B0
100
AcDbEntity
  8
0
100
AcDbLine
 62
7
  6
CONTINUOUS
 10
22.2913721918
 20
-28.4153400868
 11
22.2824642023
 21
-28.3976166582
  0
LINE
  5
4B1
100
AcDbEntity
  8
0
100
AcDbLine
 62
7
  6
CONTINUOUS
 10
-9.5119485048
 20
-10.3675985772
 11
-9.5201682543
 21
-10.3512012642
  0
LINE
  5
4B2
100
AcDbEntity
  8
0
100
AcDbLine
 62
7
  6
CONTINUOUS
 10
22.3078566486
 20
-28.7399552769
 11
22.2996368991
 21
-28.7235579639
  0
LINE
  5
4B3
100
AcDbEntity
  8
0
100
AcDbLine
 62
7
  6
CONTINUOUS
 10
-9.5291603347
 20
-10.0577350338
 11
-9.5209470534
 21
-10.07413591
  0
LINE
  5
4B4
100
AcDbEntity
  8
0
100
AcDbLine
 62
7
  6
CONTINUOUS
 10
22.2906448187
 20
-28.4300917336
 11
22.2988581
 21
-28.4464926097
  0
LINE
  5
4B5
100
AcDbEntity
  8
0
100
AcDbLine
 62
7
  6
CONTINUOUS
 10
3.5381447489
 20
-24.419004591
 11
3.5270937027
 21
-24.3966138261
  0
LINE
  5
4B6
100
AcDbEntity
  8
RACCORDO
100
AcDbLine
 62
7
  6
CONTINUOUS
 10
-29.7757466484
 20
-17.5186499985
 11
-29.7492714514
 21
-17.572699018
  0
LINE
  5
4B7
100
AcDbEntity
  8
RACCORDO
100
AcDbLine
 62
7
  6
CONTINUOUS
 10
-23.6079811253
 20
-4.8554883082
 11
-23.626886095
 21
-4.8168394472
  0
LINE
  5
4B8
100
AcDbEntity
  8
0
100
AcDbLine
 62
7
  6
CONTINUOUS
 10
3.9755877485
 20
-24.3439935495
 11
3.9537202672
 21
-24.2992446713
  0
LINE
  5
4B9
100
AcDbEntity
  8
0
100
AcDbLine
 62
7
  6
CONTINUOUS
 10
-9.6051351093
 20
-10.3827763276
 11
-9.5956153054
 21
-10.4022760874
  0
LINE
  5
4BA
100
AcDbEntity
  8
0
100
AcDbLine
 62
7
  6
CONTINUOUS
 10
22.2146700441
 20
-28.7551330273
 11
22.224189848
 21
-28.7746327872
  0
LINE
  5
4BB
100
AcDbEntity
  8
RACCORDO
100
AcDbLine
 62
7
  6
CONTINUOUS
 10
24.060784296
 20
3.9326066205
 11
24.0837272086
 21
3.8856166605
  0
LINE
  5
4BC
100
AcDbEntity
  8
0
100
AcDbLine
 62
7
  6
CONTINUOUS
 10
3.9883535558
 20
-25.3455064525
 11
3.9774203894
 21
-25.3230619009
  0
LINE
  5
4BD
100
AcDbEntity
  8
RACCORDO
100
AcDbLine
 62
7
  6
CONTINUOUS
 10
-29.7122735169
 20
-17.556811168
 11
-29.6953844691
 21
-17.5916276022
  0
LINE
  5
4BE
100
AcDbEntity
  8
0
100
AcDbLine
 62
7
  6
CONTINUOUS
 10
3.8709673232
 20
-25.3843477487
 11
3.8807846934
 21
-25.4045953555
  0
LINE
  5
4BF
100
AcDbEntity
  8
RACCORDO
100
AcDbLine
 62
7
  6
CONTINUOUS
 10
24.1624815694
 20
3.9578567997
 11
24.1806893011
 21
3.9201415509
  0
LINE
  5
4C0
100
AcDbEntity
  8
0
100
AcDbLine
 62
7
  6
CONTINUOUS
 10
3.5317828234
 20
-25.3598067933
 11
3.5215847353
 21
-25.3383436024
  0
LINE
  5
4C1
100
AcDbEntity
  8
RACCORDO
100
AcDbLine
 62
7
  6
CONTINUOUS
 10
-29.1964706205
 20
-18.1685593028
 11
-29.1890255932
 21
-18.1843014784
  0
LINE
  5
4C2
100
AcDbEntity
  8
RACCORDO
100
AcDbLine
 62
7
  6
CONTINUOUS
 10
32.8566406347
 20
-53.9972476649
 11
32.8640855394
 21
-54.0129897324
  0
LINE
  5
4C3
100
AcDbEntity
  8
RACCORDO
100
AcDbLine
 62
7
  6
CONTINUOUS
 10
-24.225020654
 20
-5.1301097485
 11
-24.2547683807
 21
-5.0669095093
  0
LINE
  5
4C4
100
AcDbEntity
  8
RACCORDO
100
AcDbLine
 62
7
  6
CONTINUOUS
 10
24.154638345
 20
-33.0616190581
 11
24.1369446829
 21
-33.0239337616
  0
LINE
  5
4C5
100
AcDbEntity
  8
0
100
AcDbLine
 62
7
  6
CONTINUOUS
 10
3.8807846934
 20
-25.4045953555
 11
3.8901085878
 21
-25.4246620394
  0
LINE
  5
4C6
100
AcDbEntity
  8
0
100
AcDbLine
 62
7
  6
CONTINUOUS
 10
3.8610480553
 20
-24.3880151679
 11
3.8809100003
 21
-24.431093408
  0
LINE
  5
4C7
100
AcDbEntity
  8
RACCORDO
100
AcDbLine
 62
7
  6
CONTINUOUS
 10
24.1806893011
 20
3.9201415509
 11
24.1984538834
 21
3.8815857002
  0
LINE
  5
4C8
100
AcDbEntity
  8
0
100
AcDbLine
 62
7
  6
CONTINUOUS
 10
3.9985636404
 20
-25.3677539761
 11
3.9883535558
 21
-25.3455064525
  0
LINE
  5
4C9
100
AcDbEntity
  8
RACCORDO
100
AcDbLine
 62
7
  6
CONTINUOUS
 10
24.0837272086
 20
3.8856166605
 11
24.0953188891
 21
3.8603382144
  0
LINE
  5
4CA
100
AcDbEntity
  8
RACCORDO
100
AcDbLine
 62
7
  6
CONTINUOUS
 10
-23.626886095
 20
-4.8168394472
 11
-23.644429415
 21
-4.777741308
  0
LINE
  5
4CB
100
AcDbEntity
  8
RACCORDO
100
AcDbLine
 62
7
  6
CONTINUOUS
 10
-29.7276742464
 20
-17.5222927487
 11
-29.7122735169
 21
-17.556811168
  0
LINE
  5
4CC
100
AcDbEntity
  8
0
100
AcDbLine
 62
7
  6
CONTINUOUS
 10
3.8901085878
 20
-25.4246620394
 11
3.8989708016
 21
-25.4445741641
  0
LINE
  5
4CD
100
AcDbEntity
  8
0
100
AcDbLine
 62
7
  6
CONTINUOUS
 10
3.995499486
 20
-24.3889394043
 11
3.9755877485
 21
-24.3439935495
  0
LINE
  5
4CE
100
AcDbEntity
  8
0
100
AcDbLine
 62
7
  6
CONTINUOUS
 10
3.5480500526
 20
-24.4414283382
 11
3.5381447489
 21
-24.419004591
  0
LINE
  5
4CF
100
AcDbEntity
  8
RACCORDO
100
AcDbLine
 62
7
  6
CONTINUOUS
 10
-29.7996334063
 20
-17.4644768283
 11
-29.7757466484
 21
-17.5186499985
  0
LINE
  5
4D0
100
AcDbEntity
  8
0
100
AcDbLine
 62
7
  6
CONTINUOUS
 10
4.0082127775
 20
-25.3897262474
 11
3.9985636404
 21
-25.3677539761
  0
LINE
  5
4D1
100
AcDbEntity
  8
0
100
AcDbLine
 62
7
  6
CONTINUOUS
 10
3.5412011203
 20
-25.381270415
 11
3.5317828234
 21
-25.3598067933
  0
LINE
  5
4D2
100
AcDbEntity
  8
RACCORDO
100
AcDbLine
 62
7
  6
CONTINUOUS
 10
-31.4993783794
 20
36.0696173764
 11
-31.5053337536
 21
36.0832203178
  0
LINE
  5
4D3
100
AcDbEntity
  8
RACCORDO
100
AcDbLine
 62
7
  6
CONTINUOUS
 10
24.0953189893
 20
3.8603372506
 11
24.1069675845
 21
3.8337242157
  0
LINE
  5
4D4
100
AcDbEntity
  8
RACCORDO
100
AcDbLine
 62
7
  6
CONTINUOUS
 10
24.2387583195
 20
3.2231734821
 11
24.2288342502
 21
3.2458804197
  0
LINE
  5
4D5
100
AcDbEntity
  8
RACCORDO
100
AcDbLine
 62
7
  6
CONTINUOUS
 10
-24.2547683807
 20
-5.0669095093
 11
-24.2822940067
 21
-5.0031790375
  0
LINE
  5
4D6
100
AcDbEntity
  8
RACCORDO
100
AcDbLine
 62
7
  6
CONTINUOUS
 10
24.1984538834
 20
3.8815857002
 11
24.2263739201
 21
3.8165338237
  0
LINE
  5
4D7
100
AcDbEntity
  8
0
100
AcDbLine
 62
7
  6
CONTINUOUS
 10
3.8989708016
 20
-25.4445741641
 11
3.9073396118
 21
-25.4643053168
  0
LINE
  5
4D8
100
AcDbEntity
  8
0
100
AcDbLine
 62
7
  6
CONTINUOUS
 10
-9.5956153054
 20
-10.4022760874
 11
-9.5872507579
 21
-10.4220616876
  0
LINE
  5
4D9
100
AcDbEntity
  8
0
100
AcDbLine
 62
7
  6
CONTINUOUS
 10
22.224189848
 20
-28.7746327872
 11
22.2325543955
 21
-28.7944183873
  0
LINE
  5
4DA
100
AcDbEntity
  8
0
100
AcDbLine
 62
7
  6
CONTINUOUS
 10
4.017319149
 20
-25.4114187341
 11
4.0082127775
 21
-25.3897262474
  0
LINE
  5
4DB
100
AcDbEntity
  8
0
100
AcDbLine
 62
7
  6
CONTINUOUS
 10
3.8809100003
 20
-24.431093408
 11
3.8989071114
 21
-24.4747680104
  0
LINE
  5
4DC
100
AcDbEntity
  8
RACCORDO
100
AcDbLine
 62
7
  6
CONTINUOUS
 10
-23.644429415
 20
-4.777741308
 11
-23.6605799667
 21
-4.7382157187
  0
LINE
  5
4DD
100
AcDbEntity
  8
0
100
AcDbLine
 62
7
  6
CONTINUOUS
 10
3.9073396118
 20
-25.4643053168
 11
3.9152994312
 21
-25.4837861858
  0
LINE
  5
4DE
100
AcDbEntity
  8
0
100
AcDbLine
 62
7
  6
CONTINUOUS
 10
-9.5210006723
 20
-10.0612396985
 11
-9.5284329616
 21
-10.0429833871
  0
LINE
  5
4DF
100
AcDbEntity
  8
0
100
AcDbLine
 62
7
  6
CONTINUOUS
 10
22.2988044811
 20
-28.4335963982
 11
22.2913721918
 21
-28.4153400868
  0
LINE
  5
4E0
100
AcDbEntity
  8
RACCORDO
100
AcDbLine
 62
7
  6
CONTINUOUS
 10
-29.7415624102
 20
-17.4880931616
 11
-29.7276742464
 21
-17.5222927487
  0
LINE
  5
4E1
100
AcDbEntity
  8
RACCORDO
100
AcDbLine
 62
7
  6
CONTINUOUS
 10
24.2387584865
 20
-32.4838578571
 11
24.2288340795
 21
-32.4592569678
  0
LINE
  5
4E2
100
AcDbEntity
  8
RACCORDO
100
AcDbLine
 62
7
  6
CONTINUOUS
 10
-31.499378376
 20
-0.9416767582
 11
-31.5053337503
 21
-0.9268960058
  0
LINE
  5
4E3
100
AcDbEntity
  8
0
100
AcDbLine
 62
7
  6
CONTINUOUS
 10
3.5498558474
 20
-25.402814979
 11
3.5412011203
 21
-25.381270415
  0
LINE
  5
4E4
100
AcDbEntity
  8
RACCORDO
100
AcDbLine
 62
7
  6
CONTINUOUS
 10
-23.4321476204
 20
31.6819201022
 11
-23.4228700858
 21
31.6586679942
  0
LINE
  5
4E5
100
AcDbEntity
  8
0
100
AcDbLine
 62
7
  6
CONTINUOUS
 10
4.0258646072
 20
-25.4328359451
 11
4.017319149
 21
-25.4114187341
  0
LINE
  5
4E6
100
AcDbEntity
  8
0
100
AcDbLine
 62
7
  6
CONTINUOUS
 10
3.5567994389
 20
-24.463440252
 11
3.5480500526
 21
-24.4414283382
  0
LINE
  5
4E7
100
AcDbEntity
  8
RACCORDO
100
AcDbLine
 62
7
  6
CONTINUOUS
 10
-24.2822940067
 20
-5.0031790375
 11
-24.3077506924
 21
-4.9385406802
  0
LINE
  5
4E8
100
AcDbEntity
  8
0
100
AcDbLine
 62
7
  6
CONTINUOUS
 10
3.9152994312
 20
-25.4837861858
 11
3.922855234
 21
-25.5030060728
  0
LINE
  5
4E9
100
AcDbEntity
  8
0
100
AcDbLine
 62
7
  6
CONTINUOUS
 10
4.0131978049
 20
-24.4341114821
 11
3.995499486
 21
-24.3889394043
  0
LINE
  5
4EA
100
AcDbEntity
  8
RACCORDO
100
AcDbLine
 62
7
  6
CONTINUOUS
 10
-29.8208364733
 20
-17.4103095415
 11
-29.7996334063
 21
-17.4644768283
  0
LINE
  5
4EB
100
AcDbEntity
  8
0
100
AcDbLine
 62
7
  6
CONTINUOUS
 10
4.0339566819
 20
-25.4539132916
 11
4.0258646072
 21
-25.4328359451
  0
LINE
  5
4EC
100
AcDbEntity
  8
RACCORDO
100
AcDbLine
 62
7
  6
CONTINUOUS
 10
24.1369446829
 20
-33.0239337616
 11
24.122238603
 21
-32.9854201339
  0
LINE
  5
4ED
100
AcDbEntity
  8
0
100
AcDbLine
 62
7
  6
CONTINUOUS
 10
-9.5054895918
 20
-10.384536898
 11
-9.5119485048
 21
-10.3675985772
  0
LINE
  5
4EE
100
AcDbEntity
  8
0
100
AcDbLine
 62
7
  6
CONTINUOUS
 10
22.3143155616
 20
-28.7568935978
 11
22.3078566486
 21
-28.7399552769
  0
LINE
  5
4EF
100
AcDbEntity
  8
0
100
AcDbLine
 62
7
  6
CONTINUOUS
 10
-9.5209470534
 20
-10.07413591
 11
-9.5144973584
 21
-10.0910702939
  0
LINE
  5
4F0
100
AcDbEntity
  8
0
100
AcDbLine
 62
7
  6
CONTINUOUS
 10
22.2988581
 20
-28.4464926097
 11
22.305307795
 21
-28.4634269937
  0
LINE
  5
4F1
100
AcDbEntity
  8
RACCORDO
100
AcDbLine
 62
7
  6
CONTINUOUS
 10
-29.8641678508
 20
-17.244173908
 11
-29.8702776117
 21
-17.2279937764
  0
LINE
  5
4F2
100
AcDbEntity
  8
0
100
AcDbLine
 62
7
  6
CONTINUOUS
 10
3.922855234
 20
-25.5030060728
 11
3.9300020347
 21
-25.521975683
  0
LINE
  5
4F3
100
AcDbEntity
  8
0
100
AcDbLine
 62
7
  6
CONTINUOUS
 10
3.8989071114
 20
-24.4747680104
 11
3.9152143514
 21
-24.5189054522
  0
LINE
  5
4F4
100
AcDbEntity
  8
0
100
AcDbLine
 62
7
  6
CONTINUOUS
 10
4.041596684
 20
-25.4746186228
 11
4.0339566819
 21
-25.4539132916
  0
LINE
  5
4F5
100
AcDbEntity
  8
RACCORDO
100
AcDbLine
 62
7
  6
CONTINUOUS
 10
-23.6605799667
 20
-4.7382157187
 11
-23.6752143863
 21
-4.6984861948
  0
LINE
  5
4F6
100
AcDbEntity
  8
RACCORDO
100
AcDbLine
 62
7
  6
CONTINUOUS
 10
-29.7539614322
 20
-17.4541909446
 11
-29.7415624102
 21
-17.4880931616
  0
LINE
  5
4F7
100
AcDbEntity
  8
0
100
AcDbLine
 62
7
  6
CONTINUOUS
 10
3.557747201
 20
-25.424440353
 11
3.5498558474
 21
-25.402814979
  0
LINE
  5
4F8
100
AcDbEntity
  8
0
100
AcDbLine
 62
7
  6
CONTINUOUS
 10
3.9300020347
 20
-25.521975683
 11
3.9368092418
 21
-25.540657854
  0
LINE
  5
4F9
100
AcDbEntity
  8
0
100
AcDbLine
 62
7
  6
CONTINUOUS
 10
-9.5872507579
 20
-10.4220616876
 11
-9.5801045232
 21
-10.4419841306
  0
LINE
  5
4FA
100
AcDbEntity
  8
0
100
AcDbLine
 62
7
  6
CONTINUOUS
 10
22.2325543955
 20
-28.7944183873
 11
22.2397006302
 21
-28.8143408303
  0
LINE
  5
4FB
100
AcDbEntity
  8
RACCORDO
100
AcDbLine
 62
7
  6
CONTINUOUS
 10
-24.3077506924
 20
-4.9385406802
 11
-24.3309838176
 21
-4.8733711653
  0
LINE
  5
4FC
100
AcDbEntity
  8
0
100
AcDbLine
 62
7
  6
CONTINUOUS
 10
4.0487832387
 20
-25.4949841319
 11
4.041596684
 21
-25.4746186228
  0
LINE
  5
4FD
100
AcDbEntity
  8
0
100
AcDbLine
 62
7
  6
CONTINUOUS
 10
3.9368092418
 20
-25.540657854
 11
3.9432754213
 21
-25.5590287266
  0
LINE
  5
4FE
100
AcDbEntity
  8
0
100
AcDbLine
 62
7
  6
CONTINUOUS
 10
3.5643772898
 20
-24.4849882279
 11
3.5567994389
 21
-24.463440252
  0
LINE
  5
4FF
100
AcDbEntity
  8
0
100
AcDbLine
 62
7
  6
CONTINUOUS
 10
4.028942498
 20
-24.4794791287
 11
4.0131978049
 21
-24.4341114821
  0
LINE
  5
500
100
AcDbEntity
  8
RACCORDO
100
AcDbLine
 62
7
  6
CONTINUOUS
 10
-29.839263106
 20
-17.3562393807
 11
-29.8208364733
 21
-17.4103095415
  0
LINE
  5
501
100
AcDbEntity
  8
0
100
AcDbLine
 62
7
  6
CONTINUOUS
 10
4.0556197897
 20
-25.5150417844
 11
4.0487832387
 21
-25.4949841319
  0
LINE
  5
502
100
AcDbEntity
  8
0
100
AcDbLine
 62
7
  6
CONTINUOUS
 10
3.5700071424
 20
-25.4606151153
 11
3.557747201
 21
-25.424440353
  0
LINE
  5
503
100
AcDbEntity
  8
RACCORDO
100
AcDbLine
 62
7
  6
CONTINUOUS
 10
-29.2023424548
 20
-18.1512236322
 11
-29.1964706205
 21
-18.1685593028
  0
LINE
  5
504
100
AcDbEntity
  8
0
100
AcDbLine
 62
7
  6
CONTINUOUS
 10
3.9432754213
 20
-25.5590287266
 11
3.9494019427
 21
-25.5771122028
  0
LINE
  5
505
100
AcDbEntity
  8
RACCORDO
100
AcDbLine
 62
7
  6
CONTINUOUS
 10
32.8507688998
 20
-53.9799121825
 11
32.8566406347
 21
-53.9972476649
  0
LINE
  5
506
100
AcDbEntity
  8
RACCORDO
100
AcDbLine
 62
7
  6
CONTINUOUS
 10
-29.8702814739
 20
54.4810910056
 11
-29.8743145891
 21
54.4931058467
  0
LINE
  5
507
100
AcDbEntity
  8
0
100
AcDbLine
 62
7
  6
CONTINUOUS
 10
3.5819481513
 20
-25.4966769017
 11
3.5700071424
 21
-25.4606151153
  0
LINE
  5
508
100
AcDbEntity
  8
0
100
AcDbLine
 62
7
  6
CONTINUOUS
 10
3.9152143514
 20
-24.5189054522
 11
3.9293349791
 21
-24.5617216035
  0
LINE
  5
509
100
AcDbEntity
  8
0
100
AcDbLine
 62
7
  6
CONTINUOUS
 10
3.9494019427
 20
-25.5771122028
 11
3.9552623903
 21
-25.5949427821
  0
LINE
  5
50A
100
AcDbEntity
  8
0
100
AcDbLine
 62
7
  6
CONTINUOUS
 10
4.0620986843
 20
-25.5347575725
 11
4.0556197897
 21
-25.5150417844
  0
LINE
  5
50B
100
AcDbEntity
  8
RACCORDO
100
AcDbLine
 62
7
  6
CONTINUOUS
 10
-23.6752143863
 20
-4.6984861948
 11
-23.6881552781
 21
-4.6589729498
  0
LINE
  5
50C
100
AcDbEntity
  8
RACCORDO
100
AcDbLine
 62
7
  6
CONTINUOUS
 10
-29.7647486264
 20
-17.4209131139
 11
-29.7539614322
 21
-17.4541909446
  0
LINE
  5
50D
100
AcDbEntity
  8
0
100
AcDbLine
 62
7
  6
CONTINUOUS
 10
3.59357028
 20
-25.5326256753
 11
3.5819481513
 21
-25.4966769017
  0
LINE
  5
50E
100
AcDbEntity
  8
RACCORDO
100
AcDbLine
 62
7
  6
CONTINUOUS
 10
-24.3309838176
 20
-4.8733711653
 11
-24.3515313711
 21
-4.8088018493
  0
LINE
  5
50F
100
AcDbEntity
  8
0
100
AcDbLine
 62
7
  6
CONTINUOUS
 10
3.9552623903
 20
-25.5949427821
 11
3.9608470721
 21
-25.6124945999
  0
LINE
  5
510
100
AcDbEntity
  8
0
100
AcDbLine
 62
7
  6
CONTINUOUS
 10
-9.5150160295
 20
-10.0800748263
 11
-9.5210006723
 21
-10.0612396985
  0
LINE
  5
511
100
AcDbEntity
  8
0
100
AcDbLine
 62
7
  6
CONTINUOUS
 10
22.3047891239
 20
-28.4524315261
 11
22.2988044811
 21
-28.4335963982
  0
LINE
  5
512
100
AcDbEntity
  8
0
100
AcDbLine
 62
7
  6
CONTINUOUS
 10
4.068227493
 20
-25.5541655587
 11
4.0620986843
 21
-25.5347575725
  0
LINE
  5
513
100
AcDbEntity
  8
0
100
AcDbLine
 62
7
  6
CONTINUOUS
 10
3.6048223884
 20
-25.5684270413
 11
3.59357028
 21
-25.5326256753
  0
LINE
  5
514
100
AcDbEntity
  8
0
100
AcDbLine
 62
7
  6
CONTINUOUS
 10
3.9608470721
 20
-25.6124945999
 11
3.9661656125
 21
-25.6297935658
  0
LINE
  5
515
100
AcDbEntity
  8
0
100
AcDbLine
 62
7
  6
CONTINUOUS
 10
4.0741325075
 20
-25.5733998053
 11
4.068227493
 21
-25.5541655587
  0
LINE
  5
516
100
AcDbEntity
  8
0
100
AcDbLine
 62
7
  6
CONTINUOUS
 10
4.0423832508
 20
-24.5232586665
 11
4.028942498
 21
-24.4794791287
  0
LINE
  5
517
100
AcDbEntity
  8
0
100
AcDbLine
 62
7
  6
CONTINUOUS
 10
3.6265239088
 20
-25.6397935487
 11
3.6048223884
 21
-25.5684270413
  0
LINE
  5
518
100
AcDbEntity
  8
0
100
AcDbLine
 62
7
  6
CONTINUOUS
 10
3.5707994084
 20
-24.5061242467
 11
3.5643772898
 21
-24.4849882279
  0
LINE
  5
519
100
AcDbEntity
  8
0
100
AcDbLine
 62
7
  6
CONTINUOUS
 10
3.9661656125
 20
-25.6297935658
 11
3.9713205849
 21
-25.6469518298
  0
LINE
  5
51A
100
AcDbEntity
  8
0
100
AcDbLine
 62
7
  6
CONTINUOUS
 10
4.0798040299
 20
-25.5924520726
 11
4.0741325075
 21
-25.5733998053
  0
LINE
  5
51B
100
AcDbEntity
  8
0
100
AcDbLine
 62
7
  6
CONTINUOUS
 10
3.7896249999
 20
-26.1925743366
 11
3.7000460789
 21
-25.8912492791
  0
LINE
  5
51C
100
AcDbEntity
  8
RACCORDO
100
AcDbLine
 62
7
  6
CONTINUOUS
 10
24.122238603
 20
-32.9854201339
 11
24.1106260742
 21
-32.9463556959
  0
LINE
  5
51D
100
AcDbEntity
  8
RACCORDO
100
AcDbLine
 62
7
  6
CONTINUOUS
 10
-23.439546404
 20
31.7069779386
 11
-23.4321476204
 21
31.6819201022
  0
LINE
  5
51E
100
AcDbEntity
  8
0
100
AcDbLine
 62
7
  6
CONTINUOUS
 10
-9.5801045232
 20
-10.4419841306
 11
-9.5742318542
 21
-10.4618895648
  0
LINE
  5
51F
100
AcDbEntity
  8
0
100
AcDbLine
 62
7
  6
CONTINUOUS
 10
22.2397006302
 20
-28.8143408303
 11
22.2455732992
 21
-28.8342462645
  0
LINE
  5
520
100
AcDbEntity
  8
0
100
AcDbLine
 62
7
  6
CONTINUOUS
 10
3.647565049
 20
-25.7111137484
 11
3.6265239088
 21
-25.6397935487
  0
LINE
  5
521
100
AcDbEntity
  8
0
100
AcDbLine
 62
7
  6
CONTINUOUS
 10
3.9713205849
 20
-25.6469518298
 11
3.9763068819
 21
-25.663964717
  0
LINE
  5
522
100
AcDbEntity
  8
0
100
AcDbLine
 62
7
  6
CONTINUOUS
 10
3.7000460789
 20
-25.8912492791
 11
3.647565049
 21
-25.7111137484
  0
LINE
  5
523
100
AcDbEntity
  8
RACCORDO
100
AcDbLine
 62
7
  6
CONTINUOUS
 10
-29.8548170175
 20
-17.3023426879
 11
-29.839263106
 21
-17.3562393807
  0
LINE
  5
524
100
AcDbEntity
  8
0
100
AcDbLine
 62
7
  6
CONTINUOUS
 10
4.0906309848
 20
-25.630194229
 11
4.0798040299
 21
-25.5924520726
  0
LINE
  5
525
100
AcDbEntity
  8
RACCORDO
100
AcDbLine
 62
7
  6
CONTINUOUS
 10
-23.6881552781
 20
-4.6589729498
 11
-23.6993636594
 21
-4.6198033618
  0
LINE
  5
526
100
AcDbEntity
  8
0
100
AcDbLine
 62
7
  6
CONTINUOUS
 10
3.9763068819
 20
-25.663964717
 11
3.9906771662
 21
-25.714579871
  0
LINE
  5
527
100
AcDbEntity
  8
0
100
AcDbLine
 62
7
  6
CONTINUOUS
 10
3.9293349791
 20
-24.5617216035
 11
3.9409551902
 21
-24.6028417123
  0
LINE
  5
528
100
AcDbEntity
  8
0
100
AcDbLine
 62
7
  6
CONTINUOUS
 10
4.1012878301
 20
-25.6679824398
 11
4.0906309848
 21
-25.630194229
  0
LINE
  5
529
100
AcDbEntity
  8
RACCORDO
100
AcDbLine
 62
7
  6
CONTINUOUS
 10
-29.7738830304
 20
-17.3883686233
 11
-29.7647486264
 21
-17.4209131139
  0
LINE
  5
52A
100
AcDbEntity
  8
RACCORDO
100
AcDbLine
 62
7
  6
CONTINUOUS
 10
-31.5053337536
 20
36.0832203178
 11
-31.5091972148
 21
36.0969906346
  0
LINE
  5
52B
100
AcDbEntity
  8
0
100
AcDbLine
 62
7
  6
CONTINUOUS
 10
4.2935864461
 20
-26.3606022229
 11
4.2124026735
 21
-26.068816217
  0
LINE
  5
52C
100
AcDbEntity
  8
0
100
AcDbLine
 62
7
  6
CONTINUOUS
 10
4.1062079841
 20
-26.1312272122
 11
4.1871127663
 21
-26.4220787912
  0
LINE
  5
52D
100
AcDbEntity
  8
RACCORDO
100
AcDbLine
 62
7
  6
CONTINUOUS
 10
-24.3515313711
 20
-4.8088018493
 11
-24.3692801053
 21
-4.7448820839
  0
LINE
  5
52E
100
AcDbEntity
  8
0
100
AcDbLine
 62
7
  6
CONTINUOUS
 10
3.9906771662
 20
-25.714579871
 11
4.1062079841
 21
-26.1312272122
  0
LINE
  5
52F
100
AcDbEntity
  8
0
100
AcDbLine
 62
7
  6
CONTINUOUS
 10
4.2124026735
 20
-26.068816217
 11
4.1012878301
 21
-25.6679824398
  0
LINE
  5
530
100
AcDbEntity
  8
0
100
AcDbLine
 62
7
  6
CONTINUOUS
 10
-9.5008398895
 20
-10.4018893669
 11
-9.5054895918
 21
-10.384536898
  0
LINE
  5
531
100
AcDbEntity
  8
0
100
AcDbLine
 62
7
  6
CONTINUOUS
 10
22.3189652639
 20
-28.7742460666
 11
22.3143155616
 21
-28.7568935978
  0
LINE
  5
532
100
AcDbEntity
  8
0
100
AcDbLine
 62
7
  6
CONTINUOUS
 10
-9.5144973584
 20
-10.0910702939
 11
-9.5098576325
 21
-10.1084093947
  0
LINE
  5
533
100
AcDbEntity
  8
0
100
AcDbLine
 62
7
  6
CONTINUOUS
 10
22.305307795
 20
-28.4634269937
 11
22.3099475209
 21
-28.4807660944
  0
LINE
  5
534
100
AcDbEntity
  8
0
100
AcDbLine
 62
7
  6
CONTINUOUS
 10
3.5761024708
 20
-24.5265598064
 11
3.5707994084
 21
-24.5061242467
  0
LINE
  5
535
100
AcDbEntity
  8
0
100
AcDbLine
 62
7
  6
CONTINUOUS
 10
4.0532149292
 20
-24.5650286114
 11
4.0423832508
 21
-24.5232586665
  0
LINE
  5
536
100
AcDbEntity
  8
RACCORDO
100
AcDbLine
 62
7
  6
CONTINUOUS
 10
24.2288340795
 20
-32.4592569678
 11
24.2223963625
 21
-32.4341466709
  0
LINE
  5
537
100
AcDbEntity
  8
RACCORDO
100
AcDbLine
 62
7
  6
CONTINUOUS
 10
-31.5053337503
 20
-0.9268960058
 11
-31.5091972116
 21
-0.9118072019
  0
LINE
  5
538
100
AcDbEntity
  8
RACCORDO
100
AcDbLine
 62
7
  6
CONTINUOUS
 10
-23.6993636594
 20
-4.6198033618
 11
-23.7088226889
 21
-4.5810945901
  0
LINE
  5
539
100
AcDbEntity
  8
RACCORDO
100
AcDbLine
 62
7
  6
CONTINUOUS
 10
-29.8702776117
 20
-17.2279937764
 11
-29.8743103255
 21
-17.2113379389
  0
LINE
  5
53A
100
AcDbEntity
  8
RACCORDO
100
AcDbLine
 62
7
  6
CONTINUOUS
 10
-24.3692801053
 20
-4.7448820839
 11
-24.3843424778
 21
-4.6815620188
  0
LINE
  5
53B
100
AcDbEntity
  8
0
100
AcDbLine
 62
7
  6
CONTINUOUS
 10
3.9409551902
 20
-24.6028417123
 11
3.9503886163
 21
-24.6426406394
  0
LINE
  5
53C
100
AcDbEntity
  8
RACCORDO
100
AcDbLine
 62
7
  6
CONTINUOUS
 10
-29.7814051862
 20
-17.3564481925
 11
-29.7738830304
 21
-17.3883686233
  0
LINE
  5
53D
100
AcDbEntity
  8
RACCORDO
100
AcDbLine
 62
7
  6
CONTINUOUS
 10
-29.8673875601
 20
-17.2486514732
 11
-29.8548170175
 21
-17.3023426879
  0
LINE
  5
53E
100
AcDbEntity
  8
0
100
AcDbLine
 62
7
  6
CONTINUOUS
 10
-9.5105206314
 20
-10.0994142755
 11
-9.5150160295
 21
-10.0800748263
  0
LINE
  5
53F
100
AcDbEntity
  8
0
100
AcDbLine
 62
7
  6
CONTINUOUS
 10
-9.5742318542
 20
-10.4618895648
 11
-9.5696784675
 21
-10.4816209054
  0
LINE
  5
540
100
AcDbEntity
  8
RACCORDO
100
AcDbLine
 62
7
  6
CONTINUOUS
 10
-29.2065945554
 20
-18.1324318707
 11
-29.2023424548
 21
-18.1512236322
  0
LINE
  5
541
100
AcDbEntity
  8
0
100
AcDbLine
 62
7
  6
CONTINUOUS
 10
3.5802986358
 20
-24.5461987833
 11
3.5761024708
 21
-24.5265598064
  0
LINE
  5
542
100
AcDbEntity
  8
0
100
AcDbLine
 62
7
  6
CONTINUOUS
 10
4.0617421457
 20
-24.605210787
 11
4.0532149292
 21
-24.5650286114
  0
LINE
  5
543
100
AcDbEntity
  8
RACCORDO
100
AcDbLine
 62
7
  6
CONTINUOUS
 10
-23.4450250058
 20
31.7337011871
 11
-23.439546404
 21
31.7069779386
  0
LINE
  5
544
100
AcDbEntity
  8
0
100
AcDbLine
 62
7
  6
CONTINUOUS
 10
3.9503886163
 20
-24.6426406394
 11
3.9580778305
 21
-24.6804598931
  0
LINE
  5
545
100
AcDbEntity
  8
RACCORDO
100
AcDbLine
 62
7
  6
CONTINUOUS
 10
-23.7088226889
 20
-4.5810945901
 11
-23.7164634012
 21
-4.5432322296
  0
LINE
  5
546
100
AcDbEntity
  8
RACCORDO
100
AcDbLine
 62
7
  6
CONTINUOUS
 10
-24.3843424778
 20
-4.6815620188
 11
-24.3965957639
 21
-4.6198246704
  0
LINE
  5
547
100
AcDbEntity
  8
RACCORDO
100
AcDbLine
 62
7
  6
CONTINUOUS
 10
-29.7873148579
 20
-17.3251516382
 11
-29.7814051862
 21
-17.3564481925
  0
LINE
  5
548
100
AcDbEntity
  8
RACCORDO
100
AcDbLine
 62
7
  6
CONTINUOUS
 10
-29.8746459178
 20
-17.2093576054
 11
-29.8673875601
 21
-17.2486514732
  0
LINE
  5
549
100
AcDbEntity
  8
0
100
AcDbLine
 62
7
  6
CONTINUOUS
 10
4.0685272838
 20
-24.6432877507
 11
4.0617421457
 21
-24.605210787
  0
LINE
  5
54A
100
AcDbEntity
  8
RACCORDO
100
AcDbLine
 62
7
  6
CONTINUOUS
 10
-29.8743103255
 20
-17.2113379389
 11
-29.8746159151
 21
-17.2095420849
  0
LINE
  5
54B
100
AcDbEntity
  8
0
100
AcDbLine
 62
7
  6
CONTINUOUS
 10
3.9580778305
 20
-24.6804598931
 11
3.9639980981
 21
-24.7160337466
  0
LINE
  5
54C
100
AcDbEntity
  8
0
100
AcDbLine
 62
7
  6
CONTINUOUS
 10
-9.5696784675
 20
-10.4816209054
 11
-9.5664780974
 21
-10.5010262481
  0
LINE
  5
54D
100
AcDbEntity
  8
RACCORDO
100
AcDbLine
 62
7
  6
CONTINUOUS
 10
-29.8746159151
 20
-17.2095420849
 11
-29.8746459178
 21
-17.2093576054
  0
LINE
  5
54E
100
AcDbEntity
  8
0
100
AcDbLine
 62
7
  6
CONTINUOUS
 10
3.5833756784
 20
-24.5651373444
 11
3.5802986358
 21
-24.5461987833
  0
LINE
  5
54F
100
AcDbEntity
  8
RACCORDO
100
AcDbLine
 62
7
  6
CONTINUOUS
 10
-29.8743145891
 20
54.4931058467
 11
-29.8762418947
 21
54.5050149936
  0
LINE
  5
550
100
AcDbEntity
  8
0
100
AcDbLine
 62
7
  6
CONTINUOUS
 10
-9.4980342217
 20
-10.4195260223
 11
-9.5008398895
 21
-10.4018893669
  0
LINE
  5
551
100
AcDbEntity
  8
0
100
AcDbLine
 62
7
  6
CONTINUOUS
 10
-9.5098576325
 20
-10.1084093947
 11
-9.5071056461
 21
-10.1257352979
  0
LINE
  5
552
100
AcDbEntity
  8
RACCORDO
100
AcDbLine
 62
7
  6
CONTINUOUS
 10
-23.7164634012
 20
-4.5432322296
 11
-23.7222922925
 21
-4.5064024695
  0
LINE
  5
553
100
AcDbEntity
  8
RACCORDO
100
AcDbLine
 62
7
  6
CONTINUOUS
 10
-24.3965957639
 20
-4.6198246704
 11
-24.4059992198
 21
-4.559997816
  0
LINE
  5
554
100
AcDbEntity
  8
RACCORDO
100
AcDbLine
 62
7
  6
CONTINUOUS
 10
-30.1400741481
 20
-15.5104098688
 11
-29.8746200108
 21
-17.2095427529
  0
LINE
  5
555
100
AcDbEntity
  8
RACCORDO
100
AcDbLine
 62
7
  6
CONTINUOUS
 10
-30.0588606054
 20
-15.5852366988
 11
-29.7873148579
 21
-17.3251516382
  0
LINE
  5
556
100
AcDbEntity
  8
0
100
AcDbLine
 62
7
  6
CONTINUOUS
 10
-9.507574938
 20
-10.1190420819
 11
-9.5105206314
 21
-10.0994142755
  0
LINE
  5
557
100
AcDbEntity
  8
RACCORDO
100
AcDbLine
 62
7
  6
CONTINUOUS
 10
-30.3916484714
 20
-13.7383675059
 11
-30.1400741481
 21
-15.5104098688
  0
LINE
  5
558
100
AcDbEntity
  8
RACCORDO
100
AcDbLine
 62
7
  6
CONTINUOUS
 10
-30.3080630116
 20
-13.8264882981
 11
-30.0588606054
 21
-15.5852366988
  0
LINE
  5
559
100
AcDbEntity
  8
0
100
AcDbLine
 62
7
  6
CONTINUOUS
 10
4.0735931211
 20
-24.6790299473
 11
4.0685272838
 21
-24.6432877507
  0
LINE
  5
55A
100
AcDbEntity
  8
RACCORDO
100
AcDbLine
 62
7
  6
CONTINUOUS
 10
-30.6204809058
 20
-11.9476543317
 11
-30.3916484714
 21
-13.7383675059
  0
LINE
  5
55B
100
AcDbEntity
  8
RACCORDO
100
AcDbLine
 62
7
  6
CONTINUOUS
 10
-30.534869194
 20
-12.0492632672
 11
-30.3080630116
 21
-13.8264882981
  0
LINE
  5
55C
100
AcDbEntity
  8
RACCORDO
100
AcDbLine
 62
7
  6
CONTINUOUS
 10
-31.5091972148
 20
36.0969906346
 11
-31.5109412835
 21
36.1108303841
  0
LINE
  5
55D
100
AcDbEntity
  8
RACCORDO
100
AcDbLine
 62
7
  6
CONTINUOUS
 10
-23.4485527473
 20
31.7619402059
 11
-23.4450250058
 21
31.7337011871
  0
LINE
  5
55E
100
AcDbEntity
  8
0
100
AcDbLine
 62
7
  6
CONTINUOUS
 10
3.9639980981
 20
-24.7160337466
 11
3.9681726287
 21
-24.7496289341
  0
LINE
  5
55F
100
AcDbEntity
  8
RACCORDO
100
AcDbLine
 62
7
  6
CONTINUOUS
 10
-31.5091972116
 20
-0.9118072019
 11
-31.5109412805
 21
-0.8965176671
  0
LINE
  5
560
100
AcDbEntity
  8
RACCORDO
100
AcDbLine
 62
7
  6
CONTINUOUS
 10
-30.8265180101
 20
-10.1386816334
 11
-30.6204809058
 21
-11.9476543317
  0
LINE
  5
561
100
AcDbEntity
  8
RACCORDO
100
AcDbLine
 62
7
  6
CONTINUOUS
 10
-30.7392286696
 20
-10.2539264427
 11
-30.534869194
 21
-12.0492632672
  0
LINE
  5
562
100
AcDbEntity
  8
RACCORDO
100
AcDbLine
 62
7
  6
CONTINUOUS
 10
-23.7222922925
 20
-4.5064024695
 11
-23.7263536577
 21
-4.4706050469
  0
LINE
  5
563
100
AcDbEntity
  8
RACCORDO
100
AcDbLine
 62
7
  6
CONTINUOUS
 10
-24.4059992198
 20
-4.559997816
 11
-24.4125936503
 21
-4.5017537199
  0
LINE
  5
564
100
AcDbEntity
  8
0
100
AcDbLine
 62
7
  6
CONTINUOUS
 10
3.7292943634
 20
-25.1676866358
 11
3.7302277591
 21
-25.180655233
  0
LINE
  5
565
100
AcDbEntity
  8
0
100
AcDbLine
 62
7
  6
CONTINUOUS
 10
3.1582451472
 20
-24.5416029528
 11
3.1242965075
 21
-24.0489485235
  0
LINE
  5
566
100
AcDbEntity
  8
0
100
AcDbLine
 62
7
  6
CONTINUOUS
 10
3.0105308469
 20
-23.9993740912
 11
3.051853783
 21
-24.6030319931
  0
LINE
  5
567
100
AcDbEntity
  8
0
100
AcDbLine
 62
7
  6
CONTINUOUS
 10
4.0789840618
 20
-24.7443755828
 11
4.0769151351
 21
-24.7126680855
  0
LINE
  5
568
100
AcDbEntity
  8
0
100
AcDbLine
 62
7
  6
CONTINUOUS
 10
3.9711151386
 20
-24.781386168
 11
3.9729008561
 21
-24.8112788369
  0
LINE
  5
569
100
AcDbEntity
  8
0
100
AcDbLine
 62
7
  6
CONTINUOUS
 10
3.586421438
 20
-24.6023560698
 11
3.5853335788
 21
-24.5833755024
  0
LINE
  5
56A
100
AcDbEntity
  8
0
100
AcDbLine
 62
7
  6
CONTINUOUS
 10
4.0798642949
 20
-24.7741296425
 11
4.0789840618
 21
-24.7443755828
  0
LINE
  5
56B
100
AcDbEntity
  8
0
100
AcDbLine
 62
7
  6
CONTINUOUS
 10
3.9729008561
 20
-24.8112788369
 11
3.9734530544
 21
-24.8393345447
  0
LINE
  5
56C
100
AcDbEntity
  8
0
100
AcDbLine
 62
7
  6
CONTINUOUS
 10
3.5867113849
 20
-24.6207213178
 11
3.586421438
 21
-24.6023560698
  0
LINE
  5
56D
100
AcDbEntity
  8
0
100
AcDbLine
 62
7
  6
CONTINUOUS
 10
-9.4970555255
 20
-10.734261534
 11
-9.4978355341
 21
-10.7539940324
  0
LINE
  5
56E
100
AcDbEntity
  8
0
100
AcDbLine
 62
7
  6
CONTINUOUS
 10
-11.3763915588
 20
-8.9617530753
 11
-11.3766363853
 21
-8.9663351349
  0
LINE
  5
56F
100
AcDbEntity
  8
0
100
AcDbLine
 62
7
  6
CONTINUOUS
 10
-9.4976204938
 20
-10.4495327941
 11
-9.4970555255
 21
-10.4398339732
  0
LINE
  5
570
100
AcDbEntity
  8
0
100
AcDbLine
 62
7
  6
CONTINUOUS
 10
-9.4970555255
 20
-10.734261534
 11
-9.497631163
 21
-10.7440514002
  0
LINE
  5
571
100
AcDbEntity
  8
0
100
AcDbLine
 62
7
  6
CONTINUOUS
 10
-11.8936392012
 20
-8.9514144893
 11
-11.8934289211
 21
-8.948678953
  0
LINE
  5
572
100
AcDbEntity
  8
0
100
AcDbLine
 62
7
  6
CONTINUOUS
 10
-11.376181294
 20
-8.9590159839
 11
-11.3763915588
 21
-8.9617530753
  0
LINE
  5
573
100
AcDbEntity
  8
0
100
AcDbLine
 62
7
  6
CONTINUOUS
 10
-9.5646512742
 20
-10.8499224049
 11
-9.5664688533
 21
-10.8662692181
  0
LINE
  5
574
100
AcDbEntity
  8
RACCORDO
100
AcDbLine
 62
7
  6
CONTINUOUS
 10
-23.4450250016
 20
-5.9148865045
 11
-23.4395463965
 21
-5.8818366958
  0
LINE
  5
575
100
AcDbEntity
  8
RACCORDO
100
AcDbLine
 62
7
  6
CONTINUOUS
 10
-23.4395463965
 20
-5.8818366958
 11
-23.4321476091
 21
-5.8482349227
  0
LINE
  5
576
100
AcDbEntity
  8
RACCORDO
100
AcDbLine
 62
7
  6
CONTINUOUS
 10
-24.3968454692
 20
31.4353398634
 11
-24.3847301885
 21
31.4883575579
  0
LINE
  5
577
100
AcDbEntity
  8
RACCORDO
100
AcDbLine
 62
7
  6
CONTINUOUS
 10
-23.7166023308
 20
31.3404120473
 11
-23.7090424561
 21
31.3731069442
  0
LINE
  5
578
100
AcDbEntity
  8
RACCORDO
100
AcDbLine
 62
7
  6
CONTINUOUS
 10
-24.3847301885
 20
31.4883575579
 11
-24.369822645
 21
31.5398284522
  0
LINE
  5
579
100
AcDbEntity
  8
RACCORDO
100
AcDbLine
 62
7
  6
CONTINUOUS
 10
-23.7090424561
 20
31.3731069442
 11
-23.6996728299
 21
31.4047242921
  0
LINE
  5
57A
100
AcDbEntity
  8
RACCORDO
100
AcDbLine
 62
7
  6
CONTINUOUS
 10
-29.7539277848
 20
54.5401837817
 11
-29.7647472787
 21
54.5073297471
  0
LINE
  5
57B
100
AcDbEntity
  8
RACCORDO
100
AcDbLine
 62
7
  6
CONTINUOUS
 10
-29.8241334334
 20
54.7277517728
 11
-29.8416472466
 21
54.6760862485
  0
LINE
  5
57C
100
AcDbEntity
  8
RACCORDO
100
AcDbLine
 62
7
  6
CONTINUOUS
 10
-29.1890259645
 20
54.8206093221
 11
-29.1800669062
 21
54.8449789004
  0
LINE
  5
57D
100
AcDbEntity
  8
RACCORDO
100
AcDbLine
 62
7
  6
CONTINUOUS
 10
-29.7414838347
 20
54.5717101861
 11
-29.7539277848
 21
54.5401837817
  0
LINE
  5
57E
100
AcDbEntity
  8
RACCORDO
100
AcDbLine
 62
7
  6
CONTINUOUS
 10
-29.8039386395
 20
54.7771321867
 11
-29.8241334334
 21
54.7277517728
  0
LINE
  5
57F
100
AcDbEntity
  8
RACCORDO
100
AcDbLine
 62
7
  6
CONTINUOUS
 10
33.320585309
 20
-54.1671752393
 11
33.3608777225
 21
-54.1624744285
  0
LINE
  5
580
100
AcDbEntity
  8
RACCORDO
100
AcDbLine
 62
7
  6
CONTINUOUS
 10
33.4480800773
 20
-53.7569941422
 11
33.4731653437
 21
-53.7541178974
  0
LINE
  5
581
100
AcDbEntity
  8
RACCORDO
100
AcDbLine
 62
7
  6
CONTINUOUS
 10
33.0794002085
 20
-54.033388922
 11
33.1008945444
 21
-54.0315623639
  0
LINE
  5
582
100
AcDbEntity
  8
RACCORDO
100
AcDbLine
 62
7
  6
CONTINUOUS
 10
33.4230342393
 20
-53.7584333462
 11
33.4480800773
 21
-53.7569941422
  0
LINE
  5
583
100
AcDbEntity
  8
RACCORDO
100
AcDbLine
 62
7
  6
CONTINUOUS
 10
24.0779396872
 20
-32.5747123627
 11
24.0486637709
 21
-32.5730349342
  0
LINE
  5
584
100
AcDbEntity
  8
0
100
AcDbLine
 62
7
  6
CONTINUOUS
 10
3.754299194
 20
-25.1730610587
 11
3.7463321186
 21
-25.172266262
  0
LINE
  5
585
100
AcDbEntity
  8
0
100
AcDbLine
 62
7
  6
CONTINUOUS
 10
22.1188474046
 20
-28.609412026
 11
22.0974335408
 21
-28.6070994213
  0
LINE
  5
586
100
AcDbEntity
  8
0
100
AcDbLine
 62
7
  6
CONTINUOUS
 10
22.0884091182
 20
-28.3135687782
 11
22.10982778
 21
-28.3158823808
  0
LINE
  5
587
100
AcDbEntity
  8
RACCORDO
100
AcDbLine
 62
7
  6
CONTINUOUS
 10
23.864764558
 20
-33.2391909523
 11
23.8141811268
 21
-33.2334093751
  0
LINE
  5
588
100
AcDbEntity
  8
0
100
AcDbLine
 62
7
  6
CONTINUOUS
 10
19.8522966701
 20
-27.3389740697
 11
19.8661417845
 21
-27.3406005439
  0
LINE
  5
589
100
AcDbEntity
  8
0
100
AcDbLine
 62
7
  6
CONTINUOUS
 10
3.4362045616
 20
-24.7978254638
 11
3.4512785105
 21
-24.7998060851
  0
LINE
  5
58A
100
AcDbEntity
  8
0
100
AcDbLine
 62
7
  6
CONTINUOUS
 10
3.556697844
 20
-24.7382903215
 11
3.5418400018
 21
-24.7362680928
  0
LINE
  5
58B
100
AcDbEntity
  8
0
100
AcDbLine
 62
7
  6
CONTINUOUS
 10
20.463029678
 20
-27.3316270997
 11
20.48210477
 21
-27.3342294299
  0
LINE
  5
58C
100
AcDbEntity
  8
RACCORDO
100
AcDbLine
 62
7
  6
CONTINUOUS
 10
24.0486637709
 20
-32.5730349342
 11
24.0184851754
 21
-32.5687038458
  0
LINE
  5
58D
100
AcDbEntity
  8
0
100
AcDbLine
 62
7
  6
CONTINUOUS
 10
20.5287714488
 20
-27.3527988406
 11
20.5415682312
 21
-27.3550315104
  0
LINE
  5
58E
100
AcDbEntity
  8
0
100
AcDbLine
 62
7
  6
CONTINUOUS
 10
22.1666761904
 20
-28.2932874004
 11
22.1539045858
 21
-28.2910309588
  0
LINE
  5
58F
100
AcDbEntity
  8
0
100
AcDbLine
 62
7
  6
CONTINUOUS
 10
22.10982778
 20
-28.3158823808
 11
22.130901681
 21
-28.3197155356
  0
LINE
  5
590
100
AcDbEntity
  8
0
100
AcDbLine
 62
7
  6
CONTINUOUS
 10
-11.3377003834
 20
-8.9618727302
 11
-11.3188931743
 21
-8.9659323325
  0
LINE
  5
591
100
AcDbEntity
  8
RACCORDO
100
AcDbLine
 62
7
  6
CONTINUOUS
 10
-24.2794252676
 20
-4.4997238504
 11
-24.2406979949
 21
-4.5086424879
  0
LINE
  5
592
100
AcDbEntity
  8
0
100
AcDbLine
 62
7
  6
CONTINUOUS
 10
-11.9536633689
 20
-8.9682438442
 11
-11.9393970594
 21
-8.9716168695
  0
LINE
  5
593
100
AcDbEntity
  8
0
100
AcDbLine
 62
7
  6
CONTINUOUS
 10
-9.6593235642
 20
-10.2462079797
 11
-9.6798891348
 21
-10.2408866439
  0
LINE
  5
594
100
AcDbEntity
  8
0
100
AcDbLine
 62
7
  6
CONTINUOUS
 10
-9.6889034724
 20
-9.9473588359
 11
-9.6683318494
 21
-9.952683106
  0
LINE
  5
595
100
AcDbEntity
  8
RACCORDO
100
AcDbLine
 62
7
  6
CONTINUOUS
 10
-24.3166149337
 20
-4.4888253024
 11
-24.2794252676
 21
-4.4997238504
  0
LINE
  5
596
100
AcDbEntity
  8
0
100
AcDbLine
 62
7
  6
CONTINUOUS
 10
35.6923896414
 20
-19.1311561347
 11
35.6825623346
 21
-19.1280081635
  0
LINE
  5
597
100
AcDbEntity
  8
RACCORDO
100
AcDbLine
 62
7
  6
CONTINUOUS
 10
-23.9827701151
 20
31.6193396818
 11
-23.9466997974
 21
31.6000343832
  0
LINE
  5
598
100
AcDbEntity
  8
RACCORDO
100
AcDbLine
 62
7
  6
CONTINUOUS
 10
-24.4163765396
 20
31.2679239648
 11
-24.3853339312
 21
31.2512879148
  0
LINE
  5
599
100
AcDbEntity
  8
RACCORDO
100
AcDbLine
 62
7
  6
CONTINUOUS
 10
-23.504876334
 20
31.8522421835
 11
-23.449687667
 21
31.8223254325
  0
LINE
  5
59A
100
AcDbEntity
  8
RACCORDO
100
AcDbLine
 62
7
  6
CONTINUOUS
 10
-23.3623159535
 20
31.5801431802
 11
-23.3467981792
 21
31.5714677614
  0
LINE
  5
59B
100
AcDbEntity
  8
RACCORDO
100
AcDbLine
 62
7
  6
CONTINUOUS
 10
-23.3466500115
 20
31.5713835973
 11
23.5948396302
 21
4.4679557932
  0
LINE
  5
59C
100
AcDbEntity
  8
RACCORDO
100
AcDbLine
 62
7
  6
CONTINUOUS
 10
-23.449687667
 20
31.8223254325
 11
23.4918019748
 21
4.7188976283
  0
LINE
  5
59D
100
AcDbEntity
  8
RACCORDO
100
AcDbLine
 62
7
  6
CONTINUOUS
 10
23.5948766373
 20
4.4679343721
 11
23.6014711391
 21
4.464076395
  0
LINE
  5
59E
100
AcDbEntity
  8
RACCORDO
100
AcDbLine
 62
7
  6
CONTINUOUS
 10
23.591019891
 20
4.4702297147
 11
23.5948396302
 21
4.4679557932
  0
LINE
  5
59F
100
AcDbEntity
  8
RACCORDO
100
AcDbLine
 62
7
  6
CONTINUOUS
 10
-23.3504697815
 20
31.5736575377
 11
-23.3467975357
 21
31.5714688766
  0
LINE
  5
5A0
100
AcDbEntity
  8
RACCORDO
100
AcDbLine
 62
7
  6
CONTINUOUS
 10
23.4918019748
 20
4.7188976283
 11
23.5215508512
 21
4.7010630196
  0
LINE
  5
5A1
100
AcDbEntity
  8
RACCORDO
100
AcDbLine
 62
7
  6
CONTINUOUS
 10
-31.4230829854
 20
35.9967639958
 11
-31.4402063617
 21
36.0074198417
  0
LINE
  5
5A2
100
AcDbEntity
  8
RACCORDO
100
AcDbLine
 62
7
  6
CONTINUOUS
 10
24.3659116721
 20
3.1016393978
 11
24.3373731708
 21
3.1194050662
  0
LINE
  5
5A3
100
AcDbEntity
  8
RACCORDO
100
AcDbLine
 62
7
  6
CONTINUOUS
 10
23.6014711391
 20
4.464076395
 11
23.6280804682
 21
4.4475112583
  0
LINE
  5
5A4
100
AcDbEntity
  8
RACCORDO
100
AcDbLine
 62
7
  6
CONTINUOUS
 10
23.5215508512
 20
4.7010630196
 11
23.5508093228
 21
4.6824597801
  0
LINE
  5
5A5
100
AcDbEntity
  8
RACCORDO
100
AcDbLine
 62
7
  6
CONTINUOUS
 10
23.5508093228
 20
4.6824597801
 11
23.5795774205
 21
4.6630879255
  0
LINE
  5
5A6
100
AcDbEntity
  8
RACCORDO
100
AcDbLine
 62
7
  6
CONTINUOUS
 10
23.6280804682
 20
4.4475112583
 11
23.655958741
 21
4.4284795681
  0
LINE
  5
5A7
100
AcDbEntity
  8
RACCORDO
100
AcDbLine
 62
7
  6
CONTINUOUS
 10
-29.8200441439
 20
54.4224176215
 11
-29.8338850782
 21
54.4336840495
  0
LINE
  5
5A8
100
AcDbEntity
  8
RACCORDO
100
AcDbLine
 62
7
  6
CONTINUOUS
 10
33.0332997924
 20
18.7567707705
 11
33.0087518878
 21
18.7854544648
  0
LINE
  5
5A9
100
AcDbEntity
  8
RACCORDO
100
AcDbLine
 62
7
  6
CONTINUOUS
 10
33.0569934303
 20
18.7264243248
 11
33.0332997924
 21
18.7567707705
  0
LINE
  5
5AA
100
AcDbEntity
  8
RACCORDO
100
AcDbLine
 62
7
  6
CONTINUOUS
 10
33.3783990462
 20
18.9131752783
 11
33.3452526839
 21
18.9579686123
  0
LINE
  5
5AB
100
AcDbEntity
  8
RACCORDO
100
AcDbLine
 62
7
  6
CONTINUOUS
 10
33.0795923151
 20
18.6947095201
 11
33.0569934303
 21
18.7264243248
  0
LINE
  5
5AC
100
AcDbEntity
  8
RACCORDO
100
AcDbLine
 62
7
  6
CONTINUOUS
 10
33.101086307
 20
18.6616128843
 11
33.0795923151
 21
18.6947095201
  0
LINE
  5
5AD
100
AcDbEntity
  8
0
100
AcDbLine
 62
7
  6
CONTINUOUS
 10
35.6520971558
 20
-19.0957986466
 11
35.6468631253
 21
-19.0830152541
  0
LINE
  5
5AE
100
AcDbEntity
  8
RACCORDO
100
AcDbLine
 62
7
  6
CONTINUOUS
 10
24.1069675845
 20
3.8337242157
 11
24.1278619527
 21
3.7823715014
  0
LINE
  5
5AF
100
AcDbEntity
  8
RACCORDO
100
AcDbLine
 62
7
  6
CONTINUOUS
 10
23.5093420326
 20
4.5784922657
 11
23.5186195711
 21
4.5552401569
  0
LINE
  5
5B0
100
AcDbEntity
  8
RACCORDO
100
AcDbLine
 62
7
  6
CONTINUOUS
 10
24.2263739201
 20
3.8165338237
 11
24.2519134812
 21
3.7508710652
  0
LINE
  5
5B1
100
AcDbEntity
  8
RACCORDO
100
AcDbLine
 62
7
  6
CONTINUOUS
 10
24.1278619527
 20
3.7823715014
 11
24.1466347649
 21
3.7312205999
  0
LINE
  5
5B2
100
AcDbEntity
  8
RACCORDO
100
AcDbLine
 62
7
  6
CONTINUOUS
 10
24.2519134812
 20
3.7508710652
 11
24.2750732176
 21
3.6845977635
  0
LINE
  5
5B3
100
AcDbEntity
  8
RACCORDO
100
AcDbLine
 62
7
  6
CONTINUOUS
 10
24.1466347649
 20
3.7312205999
 11
24.1632450341
 21
3.6805421293
  0
LINE
  5
5B4
100
AcDbEntity
  8
RACCORDO
100
AcDbLine
 62
7
  6
CONTINUOUS
 10
24.2750732176
 20
3.6845977635
 11
24.2959803138
 21
3.6173228137
  0
LINE
  5
5B5
100
AcDbEntity
  8
RACCORDO
100
AcDbLine
 62
7
  6
CONTINUOUS
 10
23.5019432452
 20
4.6035501046
 11
23.5093420326
 21
4.5784922657
  0
LINE
  5
5B6
100
AcDbEntity
  8
RACCORDO
100
AcDbLine
 62
7
  6
CONTINUOUS
 10
24.1632450341
 20
3.6805421293
 11
24.1776693218
 21
3.6306105651
  0
LINE
  5
5B7
100
AcDbEntity
  8
RACCORDO
100
AcDbLine
 62
7
  6
CONTINUOUS
 10
24.2288342502
 20
3.2458804197
 11
24.2223968513
 21
3.2688705402
  0
LINE
  5
5B8
100
AcDbEntity
  8
RACCORDO
100
AcDbLine
 62
7
  6
CONTINUOUS
 10
24.2959803138
 20
3.6173228137
 11
24.314509041
 21
3.549438079
  0
LINE
  5
5B9
100
AcDbEntity
  8
RACCORDO
100
AcDbLine
 62
7
  6
CONTINUOUS
 10
24.1776693218
 20
3.6306105651
 11
24.1899121688
 21
3.5816634677
  0
LINE
  5
5BA
100
AcDbEntity
  8
RACCORDO
100
AcDbLine
 62
7
  6
CONTINUOUS
 10
24.314509041
 20
3.549438079
 11
24.3302803682
 21
3.4821181893
  0
LINE
  5
5BB
100
AcDbEntity
  8
0
100
AcDbLine
 62
7
  6
CONTINUOUS
 10
22.309284522
 20
-28.4717709752
 11
22.3047891239
 21
-28.4524315261
  0
LINE
  5
5BC
100
AcDbEntity
  8
0
100
AcDbLine
 62
7
  6
CONTINUOUS
 10
22.2455732992
 20
-28.8342462645
 11
22.2501266859
 21
-28.8539776052
  0
LINE
  5
5BD
100
AcDbEntity
  8
RACCORDO
100
AcDbLine
 62
7
  6
CONTINUOUS
 10
32.8465168619
 20
-53.9611206949
 11
32.8507688998
 21
-53.9799121825
  0
LINE
  5
5BE
100
AcDbEntity
  8
RACCORDO
100
AcDbLine
 62
7
  6
CONTINUOUS
 10
24.1106260742
 20
-32.9463556959
 11
24.102190774
 21
-32.9070219374
  0
LINE
  5
5BF
100
AcDbEntity
  8
0
100
AcDbLine
 62
7
  6
CONTINUOUS
 10
22.2501266859
 20
-28.8539776052
 11
22.253327056
 21
-28.8733829479
  0
LINE
  5
5C0
100
AcDbEntity
  8
0
100
AcDbLine
 62
7
  6
CONTINUOUS
 10
22.3217709317
 20
-28.791882722
 11
22.3189652639
 21
-28.7742460666
  0
LINE
  5
5C1
100
AcDbEntity
  8
0
100
AcDbLine
 62
7
  6
CONTINUOUS
 10
22.3099475209
 20
-28.4807660944
 11
22.3126995073
 21
-28.4980919976
  0
LINE
  5
5C2
100
AcDbEntity
  8
0
100
AcDbLine
 62
7
  6
CONTINUOUS
 10
22.3122302154
 20
-28.4913987816
 11
22.309284522
 21
-28.4717709752
  0
LINE
  5
5C3
100
AcDbEntity
  8
0
100
AcDbLine
 62
7
  6
CONTINUOUS
 10
22.253327056
 20
-28.8733829479
 11
22.2551517275
 21
-28.8923166255
  0
LINE
  5
5C4
100
AcDbEntity
  8
0
100
AcDbLine
 62
7
  6
CONTINUOUS
 10
22.313602973
 20
-28.5109775639
 11
22.3122302154
 21
-28.4913987816
  0
LINE
  5
5C5
100
AcDbEntity
  8
0
100
AcDbLine
 62
7
  6
CONTINUOUS
 10
22.3226314504
 20
-28.8045046637
 11
22.3217709317
 21
-28.791882722
  0
LINE
  5
5C6
100
AcDbEntity
  8
0
100
AcDbLine
 62
7
  6
CONTINUOUS
 10
4.0794898159
 20
-24.801954138
 11
4.0798642949
 21
-24.7741296425
  0
LINE
  5
5C7
100
AcDbEntity
  8
0
100
AcDbLine
 62
7
  6
CONTINUOUS
 10
3.9734530544
 20
-24.8393345447
 11
3.9730574845
 21
-24.8657753492
  0
LINE
  5
5C8
100
AcDbEntity
  8
0
100
AcDbLine
 62
7
  6
CONTINUOUS
 10
3.586203358
 20
-24.638471287
 11
3.5867113849
 21
-24.6207213178
  0
LINE
  5
5C9
100
AcDbEntity
  8
0
100
AcDbLine
 62
7
  6
CONTINUOUS
 10
4.0781557569
 20
-24.8280924818
 11
4.0794898159
 21
-24.801954138
  0
LINE
  5
5CA
100
AcDbEntity
  8
0
100
AcDbLine
 62
7
  6
CONTINUOUS
 10
3.9730574845
 20
-24.8657753492
 11
3.971731266
 21
-24.8906111773
  0
LINE
  5
5CB
100
AcDbEntity
  8
0
100
AcDbLine
 62
7
  6
CONTINUOUS
 10
3.5848915283
 20
-24.6556488771
 11
3.586203358
 21
-24.638471287
  0
LINE
  5
5CC
100
AcDbEntity
  8
0
100
AcDbLine
 62
7
  6
CONTINUOUS
 10
-9.4978355341
 20
-10.7539940324
 11
-9.5001771424
 21
-10.7736448839
  0
LINE
  5
5CD
100
AcDbEntity
  8
0
100
AcDbLine
 62
7
  6
CONTINUOUS
 10
-9.4999435372
 20
-10.4617112858
 11
-9.4976204938
 21
-10.4495327941
  0
LINE
  5
5CE
100
AcDbEntity
  8
0
100
AcDbLine
 62
7
  6
CONTINUOUS
 10
-11.8934289211
 20
-8.948678953
 11
-11.8932613376
 21
-8.9478087744
  0
LINE
  5
5CF
100
AcDbEntity
  8
0
100
AcDbLine
 62
7
  6
CONTINUOUS
 10
-11.3760122796
 20
-8.958143254
 11
-11.376181294
 21
-8.9590159839
  0
LINE
  5
5D0
100
AcDbEntity
  8
RACCORDO
100
AcDbLine
 62
7
  6
CONTINUOUS
 10
-23.4321476091
 20
-5.8482349227
 11
-23.4228700705
 21
-5.8142693448
  0
LINE
  5
5D1
100
AcDbEntity
  8
RACCORDO
100
AcDbLine
 62
7
  6
CONTINUOUS
 10
-24.369822645
 20
31.5398284522
 11
-24.3521824603
 21
31.5888353935
  0
LINE
  5
5D2
100
AcDbEntity
  8
RACCORDO
100
AcDbLine
 62
7
  6
CONTINUOUS
 10
-23.6996728299
 20
31.4047242921
 11
-23.6885380131
 21
31.4349603674
  0
LINE
  5
5D3
100
AcDbEntity
  8
RACCORDO
100
AcDbLine
 62
7
  6
CONTINUOUS
 10
-29.1800669062
 20
54.8449789004
 11
-29.1696646689
 21
54.8691856607
  0
LINE
  5
5D4
100
AcDbEntity
  8
RACCORDO
100
AcDbLine
 62
7
  6
CONTINUOUS
 10
-29.7275581188
 20
54.6015564865
 11
-29.7414838347
 21
54.5717101861
  0
LINE
  5
5D5
100
AcDbEntity
  8
RACCORDO
100
AcDbLine
 62
7
  6
CONTINUOUS
 10
-29.7811546622
 20
54.8241319459
 11
-29.8039386395
 21
54.7771321867
  0
LINE
  5
5D6
100
AcDbEntity
  8
RACCORDO
100
AcDbLine
 62
7
  6
CONTINUOUS
 10
-29.1696646689
 20
54.8691856607
 11
-29.1579016914
 21
54.8930377368
  0
LINE
  5
5D7
100
AcDbEntity
  8
RACCORDO
100
AcDbLine
 62
7
  6
CONTINUOUS
 10
33.3608777225
 20
-54.1624744285
 11
33.4001814642
 21
-54.1546570203
  0
LINE
  5
5D8
100
AcDbEntity
  8
RACCORDO
100
AcDbLine
 62
7
  6
CONTINUOUS
 10
33.1008945444
 20
-54.0315623639
 11
33.1212935324
 21
-54.0277231481
  0
LINE
  5
5D9
100
AcDbEntity
  8
RACCORDO
100
AcDbLine
 62
7
  6
CONTINUOUS
 10
33.4731653437
 20
-53.7541178974
 11
33.4981114374
 21
-53.74982509
  0
LINE
  5
5DA
100
AcDbEntity
  8
0
100
AcDbLine
 62
7
  6
CONTINUOUS
 10
19.9226368231
 20
-27.3201179608
 11
19.9265438158
 21
-27.3201654742
  0
LINE
  5
5DB
100
AcDbEntity
  8
0
100
AcDbLine
 62
7
  6
CONTINUOUS
 10
20.4418841001
 20
-27.374582245
 11
19.924636204
 21
-27.3642477373
  0
LINE
  5
5DC
100
AcDbEntity
  8
0
100
AcDbLine
 62
7
  6
CONTINUOUS
 10
20.4437928738
 20
-27.3304999538
 11
19.9265449777
 21
-27.3201654461
  0
LINE
  5
5DD
100
AcDbEntity
  8
RACCORDO
100
AcDbLine
 62
7
  6
CONTINUOUS
 10
23.9140515526
 20
-33.2407183138
 11
23.864764558
 21
-33.2391909523
  0
LINE
  5
5DE
100
AcDbEntity
  8
0
100
AcDbLine
 62
7
  6
CONTINUOUS
 10
22.0974335408
 20
-28.6070994213
 11
22.0758348066
 21
-28.6063228496
  0
LINE
  5
5DF
100
AcDbEntity
  8
0
100
AcDbLine
 62
7
  6
CONTINUOUS
 10
22.066806211
 20
-28.3127919068
 11
22.0884091182
 21
-28.3135687782
  0
LINE
  5
5E0
100
AcDbEntity
  8
0
100
AcDbLine
 62
7
  6
CONTINUOUS
 10
20.5153032806
 20
-27.352264924
 11
20.5287714488
 21
-27.3527988406
  0
LINE
  5
5E1
100
AcDbEntity
  8
0
100
AcDbLine
 62
7
  6
CONTINUOUS
 10
22.1539045858
 20
-28.2910309588
 11
22.1404603634
 21
-28.2904694086
  0
LINE
  5
5E2
100
AcDbEntity
  8
0
100
AcDbLine
 62
7
  6
CONTINUOUS
 10
3.4512785105
 20
-24.7998060851
 11
3.4659352403
 21
-24.800663355
  0
LINE
  5
5E3
100
AcDbEntity
  8
0
100
AcDbLine
 62
7
  6
CONTINUOUS
 10
20.4437928738
 20
-27.3304999538
 11
20.463029678
 21
-27.3316270997
  0
LINE
  5
5E4
100
AcDbEntity
  8
0
100
AcDbLine
 62
7
  6
CONTINUOUS
 10
3.5627815351
 20
-24.7386821803
 11
3.556697844
 21
-24.7382903215
  0
LINE
  5
5E5
100
AcDbEntity
  8
0
100
AcDbLine
 62
7
  6
CONTINUOUS
 10
35.7029621998
 20
-19.1321708345
 11
35.6923896414
 21
-19.1311561347
  0
LINE
  5
5E6
100
AcDbEntity
  8
0
100
AcDbLine
 62
7
  6
CONTINUOUS
 10
-11.3567754754
 20
-8.9592704
 11
-11.3377003834
 21
-8.9618727302
  0
LINE
  5
5E7
100
AcDbEntity
  8
RACCORDO
100
AcDbLine
 62
7
  6
CONTINUOUS
 10
-24.2406979949
 20
-4.5086424879
 11
-24.2007085657
 21
-4.5155177806
  0
LINE
  5
5E8
100
AcDbEntity
  8
0
100
AcDbLine
 62
7
  6
CONTINUOUS
 10
-11.2910337046
 20
-8.9804421408
 11
-11.2782369222
 21
-8.9826748107
  0
LINE
  5
5E9
100
AcDbEntity
  8
0
100
AcDbLine
 62
7
  6
CONTINUOUS
 10
-9.653128963
 20
-9.9209307007
 11
-9.6659005676
 21
-9.918674259
  0
LINE
  5
5EA
100
AcDbEntity
  8
0
100
AcDbLine
 62
7
  6
CONTINUOUS
 10
-9.6798891348
 20
-10.2408866439
 11
-9.7009577488
 21
-10.2370553263
  0
LINE
  5
5EB
100
AcDbEntity
  8
0
100
AcDbLine
 62
7
  6
CONTINUOUS
 10
-9.7099773734
 20
-9.943525681
 11
-9.6889034724
 21
-9.9473588359
  0
LINE
  5
5EC
100
AcDbEntity
  8
RACCORDO
100
AcDbLine
 62
7
  6
CONTINUOUS
 10
-23.4145449486
 20
31.6049953221
 11
-23.38925396
 21
31.5938309506
  0
LINE
  5
5ED
100
AcDbEntity
  8
RACCORDO
100
AcDbLine
 62
7
  6
CONTINUOUS
 10
-23.9466997974
 20
31.6000343832
 11
-23.909860209
 21
31.5836510829
  0
LINE
  5
5EE
100
AcDbEntity
  8
RACCORDO
100
AcDbLine
 62
7
  6
CONTINUOUS
 10
-24.3853339312
 20
31.2512879148
 11
-24.3520003796
 21
31.2360792901
  0
LINE
  5
5EF
100
AcDbEntity
  8
RACCORDO
100
AcDbLine
 62
7
  6
CONTINUOUS
 10
-23.5599042395
 20
31.878020619
 11
-23.504876334
 21
31.8522421835
  0
LINE
  5
5F0
100
AcDbEntity
  8
RACCORDO
100
AcDbLine
 62
7
  6
CONTINUOUS
 10
-23.38925396
 20
31.5938309506
 11
-23.3623159535
 21
31.5801431802
  0
LINE
  5
5F1
100
AcDbEntity
  8
RACCORDO
100
AcDbLine
 62
7
  6
CONTINUOUS
 10
-29.7873148099
 20
54.4011549158
 11
-29.8044837925
 21
54.4115487825
  0
LINE
  5
5F2
100
AcDbEntity
  8
RACCORDO
100
AcDbLine
 62
7
  6
CONTINUOUS
 10
32.8749925086
 20
18.9021701623
 11
32.8465168619
 21
18.919763642
  0
LINE
  5
5F3
100
AcDbEntity
  8
RACCORDO
100
AcDbLine
 62
7
  6
CONTINUOUS
 10
33.0840507195
 20
19.208524299
 11
33.0440213683
 21
19.2339358363
  0
LINE
  5
5F4
100
AcDbEntity
  8
RACCORDO
100
AcDbLine
 62
7
  6
CONTINUOUS
 10
36.1581526561
 20
20.5164566751
 11
36.18144986
 21
20.5003102106
  0
LINE
  5
5F5
100
AcDbEntity
  8
RACCORDO
100
AcDbLine
 62
7
  6
CONTINUOUS
 10
-29.8044837925
 20
54.4115487825
 11
-29.8200441439
 21
54.4224176215
  0
LINE
  5
5F6
100
AcDbEntity
  8
RACCORDO
100
AcDbLine
 62
7
  6
CONTINUOUS
 10
32.9028933549
 20
18.8826600528
 11
32.8749925086
 21
18.9021701623
  0
LINE
  5
5F7
100
AcDbEntity
  8
RACCORDO
100
AcDbLine
 62
7
  6
CONTINUOUS
 10
33.123654383
 20
19.1803097148
 11
33.0840507195
 21
19.208524299
  0
LINE
  5
5F8
100
AcDbEntity
  8
RACCORDO
100
AcDbLine
 62
7
  6
CONTINUOUS
 10
36.18144986
 20
20.5003102106
 11
36.2036813065
 21
20.4831762394
  0
LINE
  5
5F9
100
AcDbEntity
  8
RACCORDO
100
AcDbLine
 62
7
  6
CONTINUOUS
 10
32.9302195063
 20
18.8612333519
 11
32.9028933549
 21
18.8826600528
  0
LINE
  5
5FA
100
AcDbEntity
  8
RACCORDO
100
AcDbLine
 62
7
  6
CONTINUOUS
 10
33.1627035712
 20
19.1493873551
 11
33.123654383
 21
19.1803097148
  0
LINE
  5
5FB
100
AcDbEntity
  8
RACCORDO
100
AcDbLine
 62
7
  6
CONTINUOUS
 10
36.2036813065
 20
20.4831762394
 11
36.2248090547
 21
20.4650314095
  0
LINE
  5
5FC
100
AcDbEntity
  8
RACCORDO
100
AcDbLine
 62
7
  6
CONTINUOUS
 10
32.9570648376
 20
18.8378056957
 11
32.9302195063
 21
18.8612333519
  0
LINE
  5
5FD
100
AcDbEntity
  8
RACCORDO
100
AcDbLine
 62
7
  6
CONTINUOUS
 10
33.2010637577
 20
19.1158647406
 11
33.1627035712
 21
19.1493873551
  0
LINE
  5
5FE
100
AcDbEntity
  8
RACCORDO
100
AcDbLine
 62
7
  6
CONTINUOUS
 10
36.2248090547
 20
20.4650314095
 11
36.2448710454
 21
20.4458990729
  0
LINE
  5
5FF
100
AcDbEntity
  8
RACCORDO
100
AcDbLine
 62
7
  6
CONTINUOUS
 10
33.2386136267
 20
19.0798498551
 11
33.2010637577
 21
19.1158647406
  0
LINE
  5
600
100
AcDbEntity
  8
RACCORDO
100
AcDbLine
 62
7
  6
CONTINUOUS
 10
32.9833358963
 20
18.8124616019
 11
32.9570648376
 21
18.8378056957
  0
LINE
  5
601
100
AcDbEntity
  8
RACCORDO
100
AcDbLine
 62
7
  6
CONTINUOUS
 10
33.2752448954
 20
19.0414478647
 11
33.2386136267
 21
19.0798498551
  0
LINE
  5
602
100
AcDbEntity
  8
RACCORDO
100
AcDbLine
 62
7
  6
CONTINUOUS
 10
36.2448710454
 20
20.4458990729
 11
36.2639811013
 21
20.4258492861
  0
LINE
  5
603
100
AcDbEntity
  8
RACCORDO
100
AcDbLine
 62
7
  6
CONTINUOUS
 10
33.0087518878
 20
18.7854544648
 11
32.9833358963
 21
18.8124616019
  0
LINE
  5
604
100
AcDbEntity
  8
RACCORDO
100
AcDbLine
 62
7
  6
CONTINUOUS
 10
33.3108327444
 20
19.0007747939
 11
33.2752448954
 21
19.0414478647
  0
LINE
  5
605
100
AcDbEntity
  8
RACCORDO
100
AcDbLine
 62
7
  6
CONTINUOUS
 10
36.2639811013
 20
20.4258492861
 11
36.2821711497
 21
20.4049233402
  0
LINE
  5
606
100
AcDbEntity
  8
RACCORDO
100
AcDbLine
 62
7
  6
CONTINUOUS
 10
33.3452526839
 20
18.9579686123
 11
33.3108327444
 21
19.0007747939
  0
LINE
  5
607
100
AcDbEntity
  8
RACCORDO
100
AcDbLine
 62
7
  6
CONTINUOUS
 10
36.2821711497
 20
20.4049233402
 11
36.2994092631
 21
20.3830799441
  0
LINE
  5
608
100
AcDbEntity
  8
RACCORDO
100
AcDbLine
 62
7
  6
CONTINUOUS
 10
36.2994092631
 20
20.3830799441
 11
36.3157134816
 21
20.3602652808
  0
LINE
  5
609
100
AcDbEntity
  8
RACCORDO
100
AcDbLine
 62
7
  6
CONTINUOUS
 10
33.4101459248
 20
18.8665404753
 11
33.3783990462
 21
18.9131752783
  0
LINE
  5
60A
100
AcDbEntity
  8
RACCORDO
100
AcDbLine
 62
7
  6
CONTINUOUS
 10
36.3157134816
 20
20.3602652808
 11
36.33116878
 21
20.3363854666
  0
LINE
  5
60B
100
AcDbEntity
  8
RACCORDO
100
AcDbLine
 62
7
  6
CONTINUOUS
 10
33.4403847112
 20
18.8182116941
 11
33.4101459248
 21
18.8665404753
  0
LINE
  5
60C
100
AcDbEntity
  8
RACCORDO
100
AcDbLine
 62
7
  6
CONTINUOUS
 10
33.1214866352
 20
18.6271482876
 11
33.101086307
 21
18.6616128843
  0
LINE
  5
60D
100
AcDbEntity
  8
RACCORDO
100
AcDbLine
 62
7
  6
CONTINUOUS
 10
36.33116878
 20
20.3363854666
 11
36.3456901835
 21
20.3115343853
  0
LINE
  5
60E
100
AcDbEntity
  8
RACCORDO
100
AcDbLine
 62
7
  6
CONTINUOUS
 10
33.4690391706
 20
18.7683449511
 11
33.4403847112
 21
18.8182116941
  0
LINE
  5
60F
100
AcDbEntity
  8
RACCORDO
100
AcDbLine
 62
7
  6
CONTINUOUS
 10
33.1405848478
 20
18.5916511285
 11
33.1214866352
 21
18.6271482876
  0
LINE
  5
610
100
AcDbEntity
  8
RACCORDO
100
AcDbLine
 62
7
  6
CONTINUOUS
 10
33.4959972379
 20
18.7170937844
 11
33.4690391706
 21
18.7683449511
  0
LINE
  5
611
100
AcDbEntity
  8
RACCORDO
100
AcDbLine
 62
7
  6
CONTINUOUS
 10
36.3456901835
 20
20.3115343853
 11
36.3590408073
 21
20.2859398714
  0
LINE
  5
612
100
AcDbEntity
  8
RACCORDO
100
AcDbLine
 62
7
  6
CONTINUOUS
 10
33.1583697777
 20
18.5551098537
 11
33.1405848478
 21
18.5916511285
  0
LINE
  5
613
100
AcDbEntity
  8
RACCORDO
100
AcDbLine
 62
7
  6
CONTINUOUS
 10
33.5211552588
 20
18.6646258607
 11
33.4959972379
 21
18.7170937844
  0
LINE
  5
614
100
AcDbEntity
  8
RACCORDO
100
AcDbLine
 62
7
  6
CONTINUOUS
 10
36.3590408073
 20
20.2859398714
 11
36.3712234001
 21
20.2595089744
  0
LINE
  5
615
100
AcDbEntity
  8
RACCORDO
100
AcDbLine
 62
7
  6
CONTINUOUS
 10
33.1748538469
 20
18.5175364764
 11
33.1583697777
 21
18.5551098537
  0
LINE
  5
616
100
AcDbEntity
  8
RACCORDO
100
AcDbLine
 62
7
  6
CONTINUOUS
 10
33.5444540114
 20
18.6111236202
 11
33.5211552588
 21
18.6646258607
  0
LINE
  5
617
100
AcDbEntity
  8
RACCORDO
100
AcDbLine
 62
7
  6
CONTINUOUS
 10
36.3712234001
 20
20.2595089744
 11
36.3822352133
 21
20.232334645
  0
LINE
  5
618
100
AcDbEntity
  8
RACCORDO
100
AcDbLine
 62
7
  6
CONTINUOUS
 10
33.1898638816
 20
18.479301707
 11
33.1748538469
 21
18.5175364764
  0
LINE
  5
619
100
AcDbEntity
  8
RACCORDO
100
AcDbLine
 62
7
  6
CONTINUOUS
 10
33.5657926535
 20
18.5567559292
 11
33.5444540114
 21
18.6111236202
  0
LINE
  5
61A
100
AcDbEntity
  8
RACCORDO
100
AcDbLine
 62
7
  6
CONTINUOUS
 10
33.5850825418
 20
18.5016973137
 11
33.5657926535
 21
18.5567559292
  0
LINE
  5
61B
100
AcDbEntity
  8
RACCORDO
100
AcDbLine
 62
7
  6
CONTINUOUS
 10
36.3822352133
 20
20.232334645
 11
36.3918311164
 21
20.2049235698
  0
LINE
  5
61C
100
AcDbEntity
  8
RACCORDO
100
AcDbLine
 62
7
  6
CONTINUOUS
 10
33.2033864419
 20
18.4403993377
 11
33.1898638816
 21
18.479301707
  0
LINE
  5
61D
100
AcDbEntity
  8
RACCORDO
100
AcDbLine
 62
7
  6
CONTINUOUS
 10
33.6022888427
 20
18.4461427096
 11
33.5850825418
 21
18.5016973137
  0
LINE
  5
61E
100
AcDbEntity
  8
RACCORDO
100
AcDbLine
 62
7
  6
CONTINUOUS
 10
33.2154362415
 20
18.4008360445
 11
33.2033864419
 21
18.4403993377
  0
LINE
  5
61F
100
AcDbEntity
  8
0
100
AcDbLine
 62
7
  6
CONTINUOUS
 10
35.6468631253
 20
-19.0830152541
 11
35.6427744355
 21
-19.0686496008
  0
LINE
  5
620
100
AcDbEntity
  8
RACCORDO
100
AcDbLine
 62
7
  6
CONTINUOUS
 10
33.6173319391
 20
18.3902438692
 11
33.6022888427
 21
18.4461427096
  0
LINE
  5
621
100
AcDbEntity
  8
RACCORDO
100
AcDbLine
 62
7
  6
CONTINUOUS
 10
33.2258821398
 20
18.3610017923
 11
33.2154362415
 21
18.4008360445
  0
LINE
  5
622
100
AcDbEntity
  8
RACCORDO
100
AcDbLine
 62
7
  6
CONTINUOUS
 10
24.1899121688
 20
3.5816634677
 11
24.1999879203
 21
3.5339657739
  0
LINE
  5
623
100
AcDbEntity
  8
RACCORDO
100
AcDbLine
 62
7
  6
CONTINUOUS
 10
23.4964646401
 20
4.6302733576
 11
23.5019432452
 21
4.6035501046
  0
LINE
  5
624
100
AcDbEntity
  8
RACCORDO
100
AcDbLine
 62
7
  6
CONTINUOUS
 10
24.3302803682
 20
3.4821181893
 11
24.3431808883
 21
3.4154131663
  0
LINE
  5
625
100
AcDbEntity
  8
0
100
AcDbLine
 62
7
  6
CONTINUOUS
 10
35.6427744355
 20
-19.0686496008
 11
35.6398549874
 21
-19.0529007879
  0
LINE
  5
626
100
AcDbEntity
  8
RACCORDO
100
AcDbLine
 62
7
  6
CONTINUOUS
 10
24.1999879203
 20
3.5339657739
 11
24.2079230198
 21
3.4878404714
  0
LINE
  5
627
100
AcDbEntity
  8
RACCORDO
100
AcDbLine
 62
7
  6
CONTINUOUS
 10
33.2448478706
 20
-53.7191324191
 11
32.9433137466
 21
-51.9619028488
  0
LINE
  5
628
100
AcDbEntity
  8
RACCORDO
100
AcDbLine
 62
7
  6
CONTINUOUS
 10
33.6543570906
 20
-53.6838804984
 11
33.3532618736
 21
-51.9292259194
  0
LINE
  5
629
100
AcDbEntity
  8
RACCORDO
100
AcDbLine
 62
7
  6
CONTINUOUS
 10
32.9433137466
 20
-51.9619028488
 11
32.6666005174
 21
-50.187270218
  0
LINE
  5
62A
100
AcDbEntity
  8
RACCORDO
100
AcDbLine
 62
7
  6
CONTINUOUS
 10
33.3532618736
 20
-51.9292259194
 11
33.0770408064
 21
-50.1579033498
  0
LINE
  5
62B
100
AcDbEntity
  8
RACCORDO
100
AcDbLine
 62
7
  6
CONTINUOUS
 10
33.2495675637
 20
-53.7497212061
 11
33.2448478706
 21
-53.7191324191
  0
LINE
  5
62C
100
AcDbEntity
  8
RACCORDO
100
AcDbLine
 62
7
  6
CONTINUOUS
 10
24.3431808883
 20
3.4154131663
 11
24.3533247938
 21
3.3492733993
  0
LINE
  5
62D
100
AcDbEntity
  8
RACCORDO
100
AcDbLine
 62
7
  6
CONTINUOUS
 10
32.6666005174
 20
-50.187270218
 11
32.4147610706
 21
-48.3955913535
  0
LINE
  5
62E
100
AcDbEntity
  8
RACCORDO
100
AcDbLine
 62
7
  6
CONTINUOUS
 10
33.0770408064
 20
-50.1579033498
 11
32.8256938888
 21
-48.3699127897
  0
LINE
  5
62F
100
AcDbEntity
  8
RACCORDO
100
AcDbLine
 62
7
  6
CONTINUOUS
 10
24.102190774
 20
-32.9070219374
 11
24.0969934852
 21
-32.867702289
  0
LINE
  5
630
100
AcDbEntity
  8
RACCORDO
100
AcDbLine
 62
7
  6
CONTINUOUS
 10
24.2079230198
 20
3.4878404714
 11
24.2137870321
 21
3.4435040769
  0
LINE
  5
631
100
AcDbEntity
  8
RACCORDO
100
AcDbLine
 62
7
  6
CONTINUOUS
 10
24.2223968513
 20
3.2688705402
 11
24.2194919092
 21
3.2919803251
  0
LINE
  5
632
100
AcDbEntity
  8
RACCORDO
100
AcDbLine
 62
7
  6
CONTINUOUS
 10
32.4147610706
 20
-48.3955913535
 11
32.1878418751
 21
-46.5872286987
  0
LINE
  5
633
100
AcDbEntity
  8
RACCORDO
100
AcDbLine
 62
7
  6
CONTINUOUS
 10
32.8256938888
 20
-48.3699127897
 11
32.5991797216
 21
-46.5648810402
  0
LINE
  5
634
100
AcDbEntity
  8
RACCORDO
100
AcDbLine
 62
7
  6
CONTINUOUS
 10
23.4929368962
 20
4.6585123828
 11
23.4964646401
 21
4.6302733576
  0
LINE
  5
635
100
AcDbEntity
  8
RACCORDO
100
AcDbLine
 62
7
  6
CONTINUOUS
 10
24.3533247938
 20
3.3492733993
 11
24.3606737261
 21
3.2847236914
  0
LINE
  5
636
100
AcDbEntity
  8
RACCORDO
100
AcDbLine
 62
7
  6
CONTINUOUS
 10
24.2223963625
 20
-32.4341466709
 11
24.2194661226
 21
-32.408119123
  0
LINE
  5
637
100
AcDbEntity
  8
RACCORDO
100
AcDbLine
 62
7
  6
CONTINUOUS
 10
33.6547132917
 20
18.1677101881
 11
33.6488731806
 21
18.2227616826
  0
LINE
  5
638
100
AcDbEntity
  8
0
100
AcDbLine
 62
7
  6
CONTINUOUS
 10
35.6398549874
 20
-19.0529007879
 11
35.6381039314
 21
-19.0358864771
  0
LINE
  5
639
100
AcDbEntity
  8
RACCORDO
100
AcDbLine
 62
7
  6
CONTINUOUS
 10
33.2525720618
 20
-53.779034636
 11
33.2495675637
 21
-53.7497212061
  0
LINE
  5
63A
100
AcDbEntity
  8
RACCORDO
100
AcDbLine
 62
7
  6
CONTINUOUS
 10
31.9858878267
 20
-44.7625441933
 11
31.8089426585
 21
-42.9218989029
  0
LINE
  5
63B
100
AcDbEntity
  8
RACCORDO
100
AcDbLine
 62
7
  6
CONTINUOUS
 10
32.3975397041
 20
-44.7431813001
 11
32.2208980344
 21
-42.9059331654
  0
LINE
  5
63C
100
AcDbEntity
  8
RACCORDO
100
AcDbLine
 62
7
  6
CONTINUOUS
 10
33.2512963857
 20
18.2002558222
 11
33.2474701608
 21
18.2402650468
  0
LINE
  5
63D
100
AcDbEntity
  8
RACCORDO
100
AcDbLine
 62
7
  6
CONTINUOUS
 10
24.2137870321
 20
3.4435040769
 11
24.2176653871
 21
3.4011879835
  0
LINE
  5
63E
100
AcDbEntity
  8
RACCORDO
100
AcDbLine
 62
7
  6
CONTINUOUS
 10
33.6580817036
 20
-53.7288213308
 11
33.6543570906
 21
-53.6838804984
  0
LINE
  5
63F
100
AcDbEntity
  8
RACCORDO
100
AcDbLine
 62
7
  6
CONTINUOUS
 10
31.8089426585
 20
-42.9218989029
 11
31.657042265
 21
-41.0656611572
  0
LINE
  5
640
100
AcDbEntity
  8
RACCORDO
100
AcDbLine
 62
7
  6
CONTINUOUS
 10
32.2208980344
 20
-42.9059331654
 11
32.069296112
 21
-41.0535098347
  0
LINE
  5
641
100
AcDbEntity
  8
RACCORDO
100
AcDbLine
 62
7
  6
CONTINUOUS
 10
24.3606737261
 20
3.2847236914
 11
24.365214735
 21
3.2221055592
  0
LINE
  5
642
100
AcDbEntity
  8
RACCORDO
100
AcDbLine
 62
7
  6
CONTINUOUS
 10
32.069296112
 20
-41.0535098347
 11
31.9426925375
 21
-39.1855381093
  0
LINE
  5
643
100
AcDbEntity
  8
RACCORDO
100
AcDbLine
 62
7
  6
CONTINUOUS
 10
31.657042265
 20
-41.0656611572
 11
31.5302142762
 21
-39.194206773
  0
LINE
  5
644
100
AcDbEntity
  8
RACCORDO
100
AcDbLine
 62
7
  6
CONTINUOUS
 10
31.9426925375
 20
-39.1855381093
 11
31.8410873108
 21
-37.3020179893
  0
LINE
  5
645
100
AcDbEntity
  8
RACCORDO
100
AcDbLine
 62
7
  6
CONTINUOUS
 10
31.5302142762
 20
-39.194206773
 11
31.4284832003
 21
-37.3079127234
  0
LINE
  5
646
100
AcDbEntity
  8
RACCORDO
100
AcDbLine
 62
7
  6
CONTINUOUS
 10
23.4913797679
 20
4.6881090504
 11
23.4929368962
 21
4.6585123828
  0
LINE
  5
647
100
AcDbEntity
  8
RACCORDO
100
AcDbLine
 62
7
  6
CONTINUOUS
 10
24.2176653871
 20
3.4011879835
 11
24.2196635621
 21
3.3612301188
  0
LINE
  5
648
100
AcDbEntity
  8
RACCORDO
100
AcDbLine
 62
7
  6
CONTINUOUS
 10
24.0969934852
 20
-32.867702289
 11
24.0950716585
 21
-32.8286800796
  0
LINE
  5
649
100
AcDbEntity
  8
RACCORDO
100
AcDbLine
 62
7
  6
CONTINUOUS
 10
31.4284832721
 20
-37.3079127649
 11
31.2986181717
 21
-34.2931389993
  0
LINE
  5
64A
100
AcDbEntity
  8
RACCORDO
100
AcDbLine
 62
7
  6
CONTINUOUS
 10
24.1122597034
 20
-29.5521483232
 11
24.2194666095
 21
-32.4081126193
  0
LINE
  5
64B
100
AcDbEntity
  8
RACCORDO
100
AcDbLine
 62
7
  6
CONTINUOUS
 10
24.2570465599
 20
-29.7068855763
 11
24.3659116625
 21
-32.6113756425
  0
LINE
  5
64C
100
AcDbEntity
  8
0
100
AcDbLine
 62
7
  6
CONTINUOUS
 10
22.0758348066
 20
-28.6063228496
 11
22.066806211
 21
-28.3127919068
  0
LINE
  5
64D
100
AcDbEntity
  8
0
100
AcDbLine
 62
7
  6
CONTINUOUS
 10
22.3226314504
 20
-28.8045046637
 11
22.3136028548
 21
-28.5109737209
  0
LINE
  5
64E
100
AcDbEntity
  8
RACCORDO
100
AcDbLine
 62
7
  6
CONTINUOUS
 10
24.0225644591
 20
-26.6236694657
 11
24.1122597034
 21
-29.5521483232
  0
LINE
  5
64F
100
AcDbEntity
  8
RACCORDO
100
AcDbLine
 62
7
  6
CONTINUOUS
 10
24.1679649066
 20
-26.7887327977
 11
24.2570465599
 21
-29.7068855763
  0
LINE
  5
650
100
AcDbEntity
  8
RACCORDO
100
AcDbLine
 62
7
  6
CONTINUOUS
 10
24.365214735
 20
3.2221055592
 11
24.3669607096
 21
3.161077457
  0
LINE
  5
651
100
AcDbEntity
  8
0
100
AcDbLine
 62
7
  6
CONTINUOUS
 10
22.2551517275
 20
-28.8923166255
 11
22.2555880533
 21
-28.9106350007
  0
LINE
  5
652
100
AcDbEntity
  8
RACCORDO
100
AcDbLine
 62
7
  6
CONTINUOUS
 10
23.9527998397
 20
-23.6816600036
 11
24.0225644591
 21
-26.6236694657
  0
LINE
  5
653
100
AcDbEntity
  8
RACCORDO
100
AcDbLine
 62
7
  6
CONTINUOUS
 10
24.0986728777
 20
-23.8571091081
 11
24.1679649066
 21
-26.7887327977
  0
LINE
  5
654
100
AcDbEntity
  8
RACCORDO
100
AcDbLine
 62
7
  6
CONTINUOUS
 10
24.2194661226
 20
-32.408119123
 11
24.2200173182
 21
-32.4321521534
  0
LINE
  5
655
100
AcDbEntity
  8
RACCORDO
100
AcDbLine
 62
7
  6
CONTINUOUS
 10
24.3659116625
 20
-32.6113756425
 11
24.3669825442
 21
-32.665969331
  0
LINE
  5
656
100
AcDbEntity
  8
RACCORDO
100
AcDbLine
 62
7
  6
CONTINUOUS
 10
23.9029714075
 20
-20.7263364823
 11
23.9527998397
 21
-23.6816600036
  0
LINE
  5
657
100
AcDbEntity
  8
RACCORDO
100
AcDbLine
 62
7
  6
CONTINUOUS
 10
24.0491753843
 20
-20.9122071734
 11
24.0986728777
 21
-23.8571091081
  0
LINE
  5
658
100
AcDbEntity
  8
0
100
AcDbLine
 62
7
  6
CONTINUOUS
 10
22.3226314504
 20
-28.8045046637
 11
22.3227496272
 21
-28.8121718679
  0
LINE
  5
659
100
AcDbEntity
  8
RACCORDO
100
AcDbLine
 62
7
  6
CONTINUOUS
 10
23.4918019748
 20
-33.1123229085
 11
23.4913797677
 21
-33.0820218954
  0
LINE
  5
65A
100
AcDbEntity
  8
RACCORDO
100
AcDbLine
 62
7
  6
CONTINUOUS
 10
23.8730808721
 20
-17.7578923959
 11
23.9029714075
 21
-20.7263364823
  0
LINE
  5
65B
100
AcDbEntity
  8
RACCORDO
100
AcDbLine
 62
7
  6
CONTINUOUS
 10
24.0194757519
 20
-17.9542204468
 11
24.0491753843
 21
-20.9122071734
  0
LINE
  5
65C
100
AcDbEntity
  8
RACCORDO
100
AcDbLine
 62
7
  6
CONTINUOUS
 10
24.2196635621
 20
3.3612301188
 11
24.2199289514
 21
3.3238543647
  0
LINE
  5
65D
100
AcDbEntity
  8
RACCORDO
100
AcDbLine
 62
7
  6
CONTINUOUS
 10
24.2194919092
 20
3.2919803251
 11
24.2194258188
 21
3.3051477592
  0
LINE
  5
65E
100
AcDbEntity
  8
RACCORDO
100
AcDbLine
 62
7
  6
CONTINUOUS
 10
23.8631291166
 20
-14.7765116251
 11
23.8730808721
 21
-17.7578923959
  0
LINE
  5
65F
100
AcDbEntity
  8
RACCORDO
100
AcDbLine
 62
7
  6
CONTINUOUS
 10
24.0095757178
 20
-14.9833431579
 11
24.0194757519
 21
-17.9542204468
  0
LINE
  5
660
100
AcDbEntity
  8
0
100
AcDbLine
 62
7
  6
CONTINUOUS
 10
22.2555880533
 20
-29.2050625602
 11
22.2555880533
 21
-28.9106350007
  0
LINE
  5
661
100
AcDbEntity
  8
0
100
AcDbLine
 62
7
  6
CONTINUOUS
 10
22.3227115517
 20
-29.1040990336
 11
22.3227115517
 21
-28.8096714741
  0
LINE
  5
662
100
AcDbEntity
  8
RACCORDO
100
AcDbLine
 62
7
  6
CONTINUOUS
 10
23.8731166531
 20
-11.782386226
 11
23.8631291166
 21
-14.7765116251
  0
LINE
  5
663
100
AcDbEntity
  8
RACCORDO
100
AcDbLine
 62
7
  6
CONTINUOUS
 10
24.0194757524
 20
-11.9997702811
 11
24.0095757178
 21
-14.9833431579
  0
LINE
  5
664
100
AcDbEntity
  8
RACCORDO
100
AcDbLine
 62
7
  6
CONTINUOUS
 10
23.9030418806
 20
-8.7757095136
 11
23.8731166531
 21
-11.782386226
  0
LINE
  5
665
100
AcDbEntity
  8
RACCORDO
100
AcDbLine
 62
7
  6
CONTINUOUS
 10
24.0491753852
 20
-9.0036978326
 11
24.0194757524
 21
-11.9997702811
  0
LINE
  5
666
100
AcDbEntity
  8
RACCORDO
100
AcDbLine
 62
7
  6
CONTINUOUS
 10
23.4918019748
 20
4.7188976283
 11
23.4913797679
 21
4.6881090504
  0
LINE
  5
667
100
AcDbEntity
  8
0
100
AcDbLine
 62
7
  6
CONTINUOUS
 10
19.924636204
 20
-27.3642477373
 11
19.9253352172
 21
-27.3429026338
  0
LINE
  5
668
100
AcDbEntity
  8
0
100
AcDbLine
 62
7
  6
CONTINUOUS
 10
20.4425830099
 20
-27.3532400282
 11
20.4418841001
 21
-27.374582245
  0
LINE
  5
669
100
AcDbEntity
  8
0
100
AcDbLine
 62
7
  6
CONTINUOUS
 10
19.9253352172
 20
-27.3429026338
 11
19.9256434744
 21
-27.3347461422
  0
LINE
  5
66A
100
AcDbEntity
  8
0
100
AcDbLine
 62
7
  6
CONTINUOUS
 10
20.4428912137
 20
-27.3450845451
 11
20.4425830099
 21
-27.3532400282
  0
LINE
  5
66B
100
AcDbEntity
  8
0
100
AcDbLine
 62
7
  6
CONTINUOUS
 10
4.0758744005
 20
-24.8525592076
 11
4.0781557569
 21
-24.8280924818
  0
LINE
  5
66C
100
AcDbEntity
  8
0
100
AcDbLine
 62
7
  6
CONTINUOUS
 10
3.971731266
 20
-24.8906111773
 11
3.9694560419
 21
-24.9138329231
  0
LINE
  5
66D
100
AcDbEntity
  8
0
100
AcDbLine
 62
7
  6
CONTINUOUS
 10
3.5827816155
 20
-24.6722112603
 11
3.5848915283
 21
-24.6556488771
  0
LINE
  5
66E
100
AcDbEntity
  8
0
100
AcDbLine
 62
7
  6
CONTINUOUS
 10
3.9694560419
 20
-24.9138329231
 11
3.9664644533
 21
-24.935634026
  0
LINE
  5
66F
100
AcDbEntity
  8
0
100
AcDbLine
 62
7
  6
CONTINUOUS
 10
4.0726321418
 20
-24.8753406595
 11
4.0758744005
 21
-24.8525592076
  0
LINE
  5
670
100
AcDbEntity
  8
0
100
AcDbLine
 62
7
  6
CONTINUOUS
 10
-9.497631163
 20
-10.7440514002
 11
-9.4999836148
 21
-10.7562892324
  0
LINE
  5
671
100
AcDbEntity
  8
0
100
AcDbLine
 62
7
  6
CONTINUOUS
 10
-9.5001771424
 20
-10.7736448839
 11
-9.504068141
 21
-10.7930589062
  0
LINE
  5
672
100
AcDbEntity
  8
0
100
AcDbLine
 62
7
  6
CONTINUOUS
 10
-9.5664688533
 20
-10.8662692181
 11
-9.5696578172
 21
-10.8816211064
  0
LINE
  5
673
100
AcDbEntity
  8
RACCORDO
100
AcDbLine
 62
7
  6
CONTINUOUS
 10
-23.4228700705
 20
-5.8142693448
 11
-23.4117657324
 21
-5.7801301592
  0
LINE
  5
674
100
AcDbEntity
  8
RACCORDO
100
AcDbLine
 62
7
  6
CONTINUOUS
 10
-24.3521824603
 20
31.5888353935
 11
-24.3316835687
 21
31.6353336458
  0
LINE
  5
675
100
AcDbEntity
  8
RACCORDO
100
AcDbLine
 62
7
  6
CONTINUOUS
 10
-23.6885380131
 20
31.4349603674
 11
-23.6756323848
 21
31.4637343775
  0
LINE
  5
676
100
AcDbEntity
  8
RACCORDO
100
AcDbLine
 62
7
  6
CONTINUOUS
 10
-29.7121371157
 20
54.6296924748
 11
-29.7275581188
 21
54.6015564865
  0
LINE
  5
677
100
AcDbEntity
  8
RACCORDO
100
AcDbLine
 62
7
  6
CONTINUOUS
 10
-29.1579016914
 20
54.8930377368
 11
-29.1448711977
 21
54.9163460745
  0
LINE
  5
678
100
AcDbEntity
  8
RACCORDO
100
AcDbLine
 62
7
  6
CONTINUOUS
 10
-29.7558845451
 20
54.8686583636
 11
-29.7811546622
 21
54.8241319459
  0
LINE
  5
679
100
AcDbEntity
  8
RACCORDO
100
AcDbLine
 62
7
  6
CONTINUOUS
 10
-29.1448711977
 20
54.9163460745
 11
-29.1306764608
 21
54.9389259246
  0
LINE
  5
67A
100
AcDbEntity
  8
RACCORDO
100
AcDbLine
 62
7
  6
CONTINUOUS
 10
-29.6952352162
 20
54.6561480358
 11
-29.7121371157
 21
54.6296924748
  0
LINE
  5
67B
100
AcDbEntity
  8
RACCORDO
100
AcDbLine
 62
7
  6
CONTINUOUS
 10
33.4981114374
 20
-53.74982509
 11
33.5227407483
 21
-53.7441462836
  0
LINE
  5
67C
100
AcDbEntity
  8
RACCORDO
100
AcDbLine
 62
7
  6
CONTINUOUS
 10
23.961372684
 20
-33.2379704314
 11
23.9140515526
 21
-33.2407183138
  0
LINE
  5
67D
100
AcDbEntity
  8
0
100
AcDbLine
 62
7
  6
CONTINUOUS
 10
3.4659352403
 20
-24.800663355
 11
3.4798666897
 21
-24.8000926494
  0
LINE
  5
67E
100
AcDbEntity
  8
0
100
AcDbLine
 62
7
  6
CONTINUOUS
 10
19.9001745476
 20
-27.3210311461
 11
19.9226368231
 21
-27.3201179608
  0
LINE
  5
67F
100
AcDbEntity
  8
RACCORDO
100
AcDbLine
 62
7
  6
CONTINUOUS
 10
24.1061490154
 20
-32.5737091445
 11
24.0779396872
 21
-32.5747123627
  0
LINE
  5
680
100
AcDbEntity
  8
0
100
AcDbLine
 62
7
  6
CONTINUOUS
 10
19.8389790522
 20
-27.3391066339
 11
19.8522966701
 21
-27.3389740697
  0
LINE
  5
681
100
AcDbEntity
  8
0
100
AcDbLine
 62
7
  6
CONTINUOUS
 10
-11.3760122796
 20
-8.958143254
 11
-11.3567754754
 21
-8.9592704
  0
LINE
  5
682
100
AcDbEntity
  8
0
100
AcDbLine
 62
7
  6
CONTINUOUS
 10
-9.7009577488
 20
-10.2370553263
 11
-9.7223716126
 21
-10.2347427215
  0
LINE
  5
683
100
AcDbEntity
  8
0
100
AcDbLine
 62
7
  6
CONTINUOUS
 10
-9.7313960352
 20
-9.9412120785
 11
-9.7099773734
 21
-9.943525681
  0
LINE
  5
684
100
AcDbEntity
  8
RACCORDO
100
AcDbLine
 62
7
  6
CONTINUOUS
 10
-24.2007085657
 20
-4.5155177806
 11
-24.1597414072
 21
-4.5203008276
  0
LINE
  5
685
100
AcDbEntity
  8
0
100
AcDbLine
 62
7
  6
CONTINUOUS
 10
-11.9675084833
 20
-8.96661737
 11
-11.9536633689
 21
-8.9682438442
  0
LINE
  5
686
100
AcDbEntity
  8
RACCORDO
100
AcDbLine
 62
7
  6
CONTINUOUS
 10
24.1021907423
 20
3.8575417624
 11
24.096993536
 21
3.8586867721
  0
LINE
  5
687
100
AcDbEntity
  8
RACCORDO
100
AcDbLine
 62
7
  6
CONTINUOUS
 10
-24.3166129748
 20
31.2224062644
 11
-24.2794234152
 21
31.2103660892
  0
LINE
  5
688
100
AcDbEntity
  8
RACCORDO
100
AcDbLine
 62
7
  6
CONTINUOUS
 10
-23.909860209
 20
31.5836510829
 11
-23.8725168079
 21
31.5703078355
  0
LINE
  5
689
100
AcDbEntity
  8
RACCORDO
100
AcDbLine
 62
7
  6
CONTINUOUS
 10
-23.4378569426
 20
31.6136948633
 11
-23.4145449486
 21
31.6049953221
  0
LINE
  5
68A
100
AcDbEntity
  8
RACCORDO
100
AcDbLine
 62
7
  6
CONTINUOUS
 10
-24.3520003796
 20
31.2360792901
 11
-24.3166129748
 21
31.2224062644
  0
LINE
  5
68B
100
AcDbEntity
  8
RACCORDO
100
AcDbLine
 62
7
  6
CONTINUOUS
 10
-23.6147709677
 20
31.8996609537
 11
-23.5599042395
 21
31.878020619
  0
LINE
  5
68C
100
AcDbEntity
  8
RACCORDO
100
AcDbLine
 62
7
  6
CONTINUOUS
 10
33.2833947488
 20
17.9872834633
 11
33.3045570208
 21
17.9783397192
  0
LINE
  5
68D
100
AcDbEntity
  8
RACCORDO
100
AcDbLine
 62
7
  6
CONTINUOUS
 10
33.263444367
 20
17.9969177988
 11
33.2833947488
 21
17.9872834633
  0
LINE
  5
68E
100
AcDbEntity
  8
RACCORDO
100
AcDbLine
 62
7
  6
CONTINUOUS
 10
-29.009090049
 20
55.0626246605
 11
-29.0506653585
 21
55.0843288578
  0
LINE
  5
68F
100
AcDbEntity
  8
RACCORDO
100
AcDbLine
 62
7
  6
CONTINUOUS
 10
-29.2065945554
 20
54.7484524662
 11
-29.2354094076
 21
54.7639248608
  0
LINE
  5
690
100
AcDbEntity
  8
RACCORDO
100
AcDbLine
 62
7
  6
CONTINUOUS
 10
-24.8384583683
 20
55.7353038924
 11
-24.8146786944
 21
55.7224974282
  0
LINE
  5
691
100
AcDbEntity
  8
RACCORDO
100
AcDbLine
 62
7
  6
CONTINUOUS
 10
33.2448479138
 20
18.0071741331
 11
33.263444367
 21
17.9969177988
  0
LINE
  5
692
100
AcDbEntity
  8
RACCORDO
100
AcDbLine
 62
7
  6
CONTINUOUS
 10
32.8465168619
 20
18.919763642
 11
-29.2065945554
 21
54.7484524662
  0
LINE
  5
693
100
AcDbEntity
  8
RACCORDO
100
AcDbLine
 62
7
  6
CONTINUOUS
 10
33.0440213683
 20
19.2339358363
 11
-29.009090049
 21
55.0626246605
  0
LINE
  5
694
100
AcDbEntity
  8
RACCORDO
100
AcDbLine
 62
7
  6
CONTINUOUS
 10
-27.4340109731
 20
56.173234739
 11
34.7933239018
 21
20.2439514739
  0
LINE
  5
695
100
AcDbEntity
  8
RACCORDO
100
AcDbLine
 62
7
  6
CONTINUOUS
 10
-24.8146786944
 20
55.7224974282
 11
36.1337896947
 21
20.531615633
  0
LINE
  5
696
100
AcDbEntity
  8
RACCORDO
100
AcDbLine
 62
7
  6
CONTINUOUS
 10
36.1337896947
 20
20.531615633
 11
36.1581526561
 21
20.5164566751
  0
LINE
  5
697
100
AcDbEntity
  8
RACCORDO
100
AcDbLine
 62
7
  6
CONTINUOUS
 10
36.3918311164
 20
20.2049235698
 11
36.3999472408
 21
20.177384022
  0
LINE
  5
698
100
AcDbEntity
  8
RACCORDO
100
AcDbLine
 62
7
  6
CONTINUOUS
 10
36.3999472408
 20
20.177384022
 11
36.4066474552
 21
20.1496077285
  0
LINE
  5
699
100
AcDbEntity
  8
RACCORDO
100
AcDbLine
 62
7
  6
CONTINUOUS
 10
33.6301315885
 20
18.3342057164
 11
33.6173319391
 21
18.3902438692
  0
LINE
  5
69A
100
AcDbEntity
  8
RACCORDO
100
AcDbLine
 62
7
  6
CONTINUOUS
 10
33.2347096329
 20
18.320875844
 11
33.2258821398
 21
18.3610017923
  0
LINE
  5
69B
100
AcDbEntity
  8
RACCORDO
100
AcDbLine
 62
7
  6
CONTINUOUS
 10
33.6406667629
 20
18.278304363
 11
33.6301315885
 21
18.3342057164
  0
LINE
  5
69C
100
AcDbEntity
  8
RACCORDO
100
AcDbLine
 62
7
  6
CONTINUOUS
 10
36.4066474552
 20
20.1496077285
 11
36.411878235
 21
20.1217765568
  0
LINE
  5
69D
100
AcDbEntity
  8
RACCORDO
100
AcDbLine
 62
7
  6
CONTINUOUS
 10
33.2419343774
 20
18.2804793623
 11
33.2347096329
 21
18.320875844
  0
LINE
  5
69E
100
AcDbEntity
  8
RACCORDO
100
AcDbLine
 62
7
  6
CONTINUOUS
 10
33.6488731806
 20
18.2227616826
 11
33.6406667629
 21
18.278304363
  0
LINE
  5
69F
100
AcDbEntity
  8
RACCORDO
100
AcDbLine
 62
7
  6
CONTINUOUS
 10
33.2474701608
 20
18.2402650468
 11
33.2419343774
 21
18.2804793623
  0
LINE
  5
6A0
100
AcDbEntity
  8
RACCORDO
100
AcDbLine
 62
7
  6
CONTINUOUS
 10
32.1878418751
 20
-46.5872286987
 11
31.9858878267
 21
-44.7625441933
  0
LINE
  5
6A1
100
AcDbEntity
  8
RACCORDO
100
AcDbLine
 62
7
  6
CONTINUOUS
 10
32.5991797216
 20
-46.5648810402
 11
32.3975397041
 21
-44.7431813001
  0
LINE
  5
6A2
100
AcDbEntity
  8
RACCORDO
100
AcDbLine
 62
7
  6
CONTINUOUS
 10
36.4156217389
 20
20.0939511295
 11
36.4178958083
 21
20.0660708241
  0
LINE
  5
6A3
100
AcDbEntity
  8
RACCORDO
100
AcDbLine
 62
7
  6
CONTINUOUS
 10
33.6582150141
 20
18.1132918216
 11
33.6547132917
 21
18.1677101881
  0
LINE
  5
6A4
100
AcDbEntity
  8
RACCORDO
100
AcDbLine
 62
7
  6
CONTINUOUS
 10
33.253434473
 20
18.1604290701
 11
33.2512963857
 21
18.2002558222
  0
LINE
  5
6A5
100
AcDbEntity
  8
RACCORDO
100
AcDbLine
 62
7
  6
CONTINUOUS
 10
33.2538611465
 20
-53.8070728782
 11
33.2525720618
 21
-53.779034636
  0
LINE
  5
6A6
100
AcDbEntity
  8
RACCORDO
100
AcDbLine
 62
7
  6
CONTINUOUS
 10
31.8410873108
 20
-37.3020179893
 11
31.7112902108
 21
-34.2888819118
  0
LINE
  5
6A7
100
AcDbEntity
  8
RACCORDO
100
AcDbLine
 62
7
  6
CONTINUOUS
 10
31.2986181717
 20
-34.2931389993
 11
31.192347194
 21
-31.2648954559
  0
LINE
  5
6A8
100
AcDbEntity
  8
RACCORDO
100
AcDbLine
 62
7
  6
CONTINUOUS
 10
31.7112902108
 20
-34.2888819118
 11
31.6050891293
 21
-31.2627134997
  0
LINE
  5
6A9
100
AcDbEntity
  8
0
100
AcDbLine
 62
7
  6
CONTINUOUS
 10
35.6381039314
 20
-19.0358864771
 11
35.6375172362
 21
-19.0177692752
  0
LINE
  5
6AA
100
AcDbEntity
  8
RACCORDO
100
AcDbLine
 62
7
  6
CONTINUOUS
 10
33.6593579962
 20
-53.772163481
 11
33.6580817036
 21
-53.7288213308
  0
LINE
  5
6AB
100
AcDbEntity
  8
RACCORDO
100
AcDbLine
 62
7
  6
CONTINUOUS
 10
36.4178958083
 20
20.0660708241
 11
36.4187004432
 21
20.0381356405
  0
LINE
  5
6AC
100
AcDbEntity
  8
RACCORDO
100
AcDbLine
 62
7
  6
CONTINUOUS
 10
31.192347194
 20
-31.2648954559
 11
31.1096799879
 21
-28.223393946
  0
LINE
  5
6AD
100
AcDbEntity
  8
RACCORDO
100
AcDbLine
 62
7
  6
CONTINUOUS
 10
31.6050891293
 20
-31.2627134997
 11
31.5224840663
 21
-28.223512753
  0
LINE
  5
6AE
100
AcDbEntity
  8
RACCORDO
100
AcDbLine
 62
7
  6
CONTINUOUS
 10
33.6593575207
 20
18.0596720169
 11
33.6582150141
 21
18.1132918216
  0
LINE
  5
6AF
100
AcDbEntity
  8
RACCORDO
100
AcDbLine
 62
7
  6
CONTINUOUS
 10
31.1096799879
 20
-28.223393946
 11
31.0506238483
 21
-25.1688089023
  0
LINE
  5
6B0
100
AcDbEntity
  8
RACCORDO
100
AcDbLine
 62
7
  6
CONTINUOUS
 10
31.5224840663
 20
-28.223512753
 11
31.4634707991
 21
-25.1710268144
  0
LINE
  5
6B1
100
AcDbEntity
  8
RACCORDO
100
AcDbLine
 62
7
  6
CONTINUOUS
 10
31.0506238483
 20
-25.1688089023
 11
31.0151865968
 21
-22.1013922368
  0
LINE
  5
6B2
100
AcDbEntity
  8
RACCORDO
100
AcDbLine
 62
7
  6
CONTINUOUS
 10
31.4634707991
 20
-25.1710268144
 11
31.4280535504
 21
-22.1055085411
  0
LINE
  5
6B3
100
AcDbEntity
  8
RACCORDO
100
AcDbLine
 62
7
  6
CONTINUOUS
 10
33.2538608524
 20
18.1211690347
 11
33.253434473
 21
18.1604290701
  0
LINE
  5
6B4
100
AcDbEntity
  8
RACCORDO
100
AcDbLine
 62
7
  6
CONTINUOUS
 10
31.0151865968
 20
-22.1013922368
 11
31.0033737722
 21
-19.0214749881
  0
LINE
  5
6B5
100
AcDbEntity
  8
RACCORDO
100
AcDbLine
 62
7
  6
CONTINUOUS
 10
31.4280535504
 20
-22.1055085411
 11
31.4162449885
 21
-19.0277165052
  0
LINE
  5
6B6
100
AcDbEntity
  8
RACCORDO
100
AcDbLine
 62
7
  6
CONTINUOUS
 10
35.4994616177
 20
-52.830737172
 11
35.4994616177
 21
19.0208850741
  0
LINE
  5
6B7
100
AcDbEntity
  8
0
100
AcDbLine
 62
7
  6
CONTINUOUS
 10
35.6375172362
 20
-13.6450272917
 11
35.6375172362
 21
-19.0177692752
  0
LINE
  5
6B8
100
AcDbEntity
  8
RACCORDO
100
AcDbLine
 62
7
  6
CONTINUOUS
 10
31.0033737722
 20
-19.0214749881
 11
31.0151865905
 21
-15.9292746521
  0
LINE
  5
6B9
100
AcDbEntity
  8
RACCORDO
100
AcDbLine
 62
7
  6
CONTINUOUS
 10
31.4162449885
 20
-19.0277165052
 11
31.4280535605
 21
-15.9376462428
  0
LINE
  5
6BA
100
AcDbEntity
  8
RACCORDO
100
AcDbLine
 62
7
  6
CONTINUOUS
 10
31.0151865905
 20
-15.9292746521
 11
31.0506238373
 21
-12.825009188
  0
LINE
  5
6BB
100
AcDbEntity
  8
RACCORDO
100
AcDbLine
 62
7
  6
CONTINUOUS
 10
31.4280535605
 20
-15.9376462428
 11
31.4634708193
 21
-12.8353022178
  0
LINE
  5
6BC
100
AcDbEntity
  8
RACCORDO
100
AcDbLine
 62
7
  6
CONTINUOUS
 10
33.2534256474
 20
-53.8339313244
 11
33.2538611465
 21
-53.8070728782
  0
LINE
  5
6BD
100
AcDbEntity
  8
RACCORDO
100
AcDbLine
 62
7
  6
CONTINUOUS
 10
24.0986728789
 20
-5.9953227956
 11
24.0491753852
 21
-9.0036978326
  0
LINE
  5
6BE
100
AcDbEntity
  8
RACCORDO
100
AcDbLine
 62
7
  6
CONTINUOUS
 10
23.9529028468
 20
-5.7566670923
 11
23.9030418806
 21
-8.7757095136
  0
LINE
  5
6BF
100
AcDbEntity
  8
RACCORDO
100
AcDbLine
 62
7
  6
CONTINUOUS
 10
24.2200173182
 20
-32.4321521534
 11
24.2196060775
 21
-32.456589575
  0
LINE
  5
6C0
100
AcDbEntity
  8
RACCORDO
100
AcDbLine
 62
7
  6
CONTINUOUS
 10
24.3669607096
 20
3.161077457
 11
24.3659116625
 21
3.1016393928
  0
LINE
  5
6C1
100
AcDbEntity
  8
RACCORDO
100
AcDbLine
 62
7
  6
CONTINUOUS
 10
31.0506238373
 20
-12.825009188
 11
31.1096799742
 21
-9.7090146211
  0
LINE
  5
6C2
100
AcDbEntity
  8
RACCORDO
100
AcDbLine
 62
7
  6
CONTINUOUS
 10
31.4634708193
 20
-12.8353022178
 11
31.5224840911
 21
-9.7214563935
  0
LINE
  5
6C3
100
AcDbEntity
  8
RACCORDO
100
AcDbLine
 62
7
  6
CONTINUOUS
 10
24.0226967426
 20
-2.7254555217
 11
23.9529028468
 21
-5.7566670923
  0
LINE
  5
6C4
100
AcDbEntity
  8
RACCORDO
100
AcDbLine
 62
7
  6
CONTINUOUS
 10
24.1679649078
 20
-2.9748427131
 11
24.0986728789
 21
-5.9953227956
  0
LINE
  5
6C5
100
AcDbEntity
  8
RACCORDO
100
AcDbLine
 62
7
  6
CONTINUOUS
 10
33.658080932
 20
18.0070359852
 11
33.6593575207
 21
18.0596720169
  0
LINE
  5
6C6
100
AcDbEntity
  8
0
100
AcDbLine
 62
7
  6
CONTINUOUS
 10
22.2555880533
 20
-29.2050625602
 11
22.2551538792
 21
-29.2222791046
  0
LINE
  5
6C7
100
AcDbEntity
  8
RACCORDO
100
AcDbLine
 62
7
  6
CONTINUOUS
 10
31.1096799742
 20
-9.7090146211
 11
31.1923471793
 21
-6.5815514255
  0
LINE
  5
6C8
100
AcDbEntity
  8
RACCORDO
100
AcDbLine
 62
7
  6
CONTINUOUS
 10
31.5224840911
 20
-9.7214563935
 11
31.6050891514
 21
-6.596366091
  0
LINE
  5
6C9
100
AcDbEntity
  8
RACCORDO
100
AcDbLine
 62
7
  6
CONTINUOUS
 10
24.2199289514
 20
3.3238543647
 11
24.2194273636
 21
3.3052033368
  0
LINE
  5
6CA
100
AcDbEntity
  8
RACCORDO
100
AcDbLine
 62
7
  6
CONTINUOUS
 10
24.1124169052
 20
0.3177006062
 11
24.0226967426
 21
-2.7254555217
  0
LINE
  5
6CB
100
AcDbEntity
  8
RACCORDO
100
AcDbLine
 62
7
  6
CONTINUOUS
 10
24.2570465607
 20
0.0575443271
 11
24.1679649078
 21
-2.9748427131
  0
LINE
  5
6CC
100
AcDbEntity
  8
RACCORDO
100
AcDbLine
 62
7
  6
CONTINUOUS
 10
24.3669825442
 20
-32.665969331
 11
24.3652795609
 21
-32.7190062651
  0
LINE
  5
6CD
100
AcDbEntity
  8
RACCORDO
100
AcDbLine
 62
7
  6
CONTINUOUS
 10
31.1923471793
 20
-6.5815514255
 11
31.2986181581
 21
-3.4428029278
  0
LINE
  5
6CE
100
AcDbEntity
  8
RACCORDO
100
AcDbLine
 62
7
  6
CONTINUOUS
 10
31.6050891514
 20
-6.596366091
 11
31.7112902246
 21
-3.4597739892
  0
LINE
  5
6CF
100
AcDbEntity
  8
RACCORDO
100
AcDbLine
 62
7
  6
CONTINUOUS
 10
24.0950716585
 20
-32.8286800796
 11
24.0964391422
 21
-32.7902364947
  0
LINE
  5
6D0
100
AcDbEntity
  8
RACCORDO
100
AcDbLine
 62
7
  6
CONTINUOUS
 10
24.2194258188
 20
3.3051477592
 11
24.1124169052
 21
0.3177006062
  0
LINE
  5
6D1
100
AcDbEntity
  8
RACCORDO
100
AcDbLine
 62
7
  6
CONTINUOUS
 10
24.3659116625
 20
3.1016393928
 11
24.2570465607
 21
0.0575443271
  0
LINE
  5
6D2
100
AcDbEntity
  8
0
100
AcDbLine
 62
7
  6
CONTINUOUS
 10
22.3227496279
 20
-29.1066182338
 11
22.3219696193
 21
-29.1263507321
  0
LINE
  5
6D3
100
AcDbEntity
  8
RACCORDO
100
AcDbLine
 62
7
  6
CONTINUOUS
 10
31.2986181581
 20
-3.4428029278
 11
31.4284832618
 21
-0.2929920817
  0
LINE
  5
6D4
100
AcDbEntity
  8
0
100
AcDbLine
 62
7
  6
CONTINUOUS
 10
19.9256434744
 20
-27.3347461422
 11
19.9259210828
 21
-27.3283528998
  0
LINE
  5
6D5
100
AcDbEntity
  8
0
100
AcDbLine
 62
7
  6
CONTINUOUS
 10
20.4431687681
 20
-27.3386918346
 11
20.4428912137
 21
-27.3450845451
  0
LINE
  5
6D6
100
AcDbEntity
  8
RACCORDO
100
AcDbLine
 62
7
  6
CONTINUOUS
 10
23.4913797677
 20
-33.0820218954
 11
23.4929368946
 21
-33.0506271051
  0
LINE
  5
6D7
100
AcDbEntity
  8
0
100
AcDbLine
 62
7
  6
CONTINUOUS
 10
19.9259210828
 20
-27.3283528998
 11
19.9261659521
 21
-27.323771189
  0
LINE
  5
6D8
100
AcDbEntity
  8
0
100
AcDbLine
 62
7
  6
CONTINUOUS
 10
20.4434135946
 20
-27.334109775
 11
20.4431687681
 21
-27.3386918346
  0
LINE
  5
6D9
100
AcDbEntity
  8
0
100
AcDbLine
 62
7
  6
CONTINUOUS
 10
22.3221846596
 20
-28.8218894939
 11
22.3227496279
 21
-28.812190673
  0
LINE
  5
6DA
100
AcDbEntity
  8
0
100
AcDbLine
 62
7
  6
CONTINUOUS
 10
22.3227496279
 20
-29.1066182338
 11
22.3221739904
 21
-29.1164081
  0
LINE
  5
6DB
100
AcDbEntity
  8
RACCORDO
100
AcDbLine
 62
7
  6
CONTINUOUS
 10
24.2196060775
 20
-32.456589575
 11
24.2182933955
 21
-32.4782078069
  0
LINE
  5
6DC
100
AcDbEntity
  8
0
100
AcDbLine
 62
7
  6
CONTINUOUS
 10
19.9261659521
 20
-27.323771189
 11
19.9263762323
 21
-27.3210356527
  0
LINE
  5
6DD
100
AcDbEntity
  8
0
100
AcDbLine
 62
7
  6
CONTINUOUS
 10
20.4436238594
 20
-27.3313726837
 11
20.4434135946
 21
-27.334109775
  0
LINE
  5
6DE
100
AcDbEntity
  8
0
100
AcDbLine
 62
7
  6
CONTINUOUS
 10
3.9664644533
 20
-24.935634026
 11
3.9627637342
 21
-24.956016851
  0
LINE
  5
6DF
100
AcDbEntity
  8
0
100
AcDbLine
 62
7
  6
CONTINUOUS
 10
3.5798908267
 20
-24.688029922
 11
3.5827816155
 21
-24.6722112603
  0
LINE
  5
6E0
100
AcDbEntity
  8
0
100
AcDbLine
 62
7
  6
CONTINUOUS
 10
4.0686853977
 20
-24.8966378885
 11
4.0726321418
 21
-24.8753406595
  0
LINE
  5
6E1
100
AcDbEntity
  8
0
100
AcDbLine
 62
7
  6
CONTINUOUS
 10
-9.504068141
 20
-10.7930589062
 11
-9.509456859
 21
-10.8120231724
  0
LINE
  5
6E2
100
AcDbEntity
  8
0
100
AcDbLine
 62
7
  6
CONTINUOUS
 10
-9.5696578172
 20
-10.8816211064
 11
-9.5709067094
 21
-10.8855398424
  0
LINE
  5
6E3
100
AcDbEntity
  8
RACCORDO
100
AcDbLine
 62
7
  6
CONTINUOUS
 10
-23.4117657324
 20
-5.7801301592
 11
-23.3988967757
 21
-5.7460085346
  0
LINE
  5
6E4
100
AcDbEntity
  8
RACCORDO
100
AcDbLine
 62
7
  6
CONTINUOUS
 10
-23.3988967757
 20
-5.7460085346
 11
-23.3843352629
 21
-5.7120955416
  0
LINE
  5
6E5
100
AcDbEntity
  8
RACCORDO
100
AcDbLine
 62
7
  6
CONTINUOUS
 10
-24.3316835687
 20
31.6353336458
 11
-24.3084527045
 21
31.6793675946
  0
LINE
  5
6E6
100
AcDbEntity
  8
RACCORDO
100
AcDbLine
 62
7
  6
CONTINUOUS
 10
-23.6756323848
 20
31.4637343775
 11
-23.6609925734
 21
31.4909030167
  0
LINE
  5
6E7
100
AcDbEntity
  8
RACCORDO
100
AcDbLine
 62
7
  6
CONTINUOUS
 10
-29.7282138329
 20
54.9106478017
 11
-29.7558845451
 21
54.8686583636
  0
LINE
  5
6E8
100
AcDbEntity
  8
RACCORDO
100
AcDbLine
 62
7
  6
CONTINUOUS
 10
-29.1306764608
 20
54.9389259246
 11
-29.1154299856
 21
54.9605983062
  0
LINE
  5
6E9
100
AcDbEntity
  8
RACCORDO
100
AcDbLine
 62
7
  6
CONTINUOUS
 10
-29.6770373817
 20
54.6806606878
 11
-29.6952352162
 21
54.6561480358
  0
LINE
  5
6EA
100
AcDbEntity
  8
RACCORDO
100
AcDbLine
 62
7
  6
CONTINUOUS
 10
24.0066667905
 20
-33.2308712851
 11
23.961372684
 21
-33.2379704314
  0
LINE
  5
6EB
100
AcDbEntity
  8
RACCORDO
100
AcDbLine
 62
7
  6
CONTINUOUS
 10
24.1331620918
 20
-32.5700492496
 11
24.1061490154
 21
-32.5737091445
  0
LINE
  5
6EC
100
AcDbEntity
  8
0
100
AcDbLine
 62
7
  6
CONTINUOUS
 10
19.8779514754
 20
-27.3239467624
 11
19.9001745476
 21
-27.3210311461
  0
LINE
  5
6ED
100
AcDbEntity
  8
0
100
AcDbLine
 62
7
  6
CONTINUOUS
 10
20.5012695278
 20
-27.3534329973
 11
20.5153032806
 21
-27.352264924
  0
LINE
  5
6EE
100
AcDbEntity
  8
0
100
AcDbLine
 62
7
  6
CONTINUOUS
 10
22.1404603634
 20
-28.2904694086
 11
22.1264442813
 21
-28.2916072406
  0
LINE
  5
6EF
100
AcDbEntity
  8
0
100
AcDbLine
 62
7
  6
CONTINUOUS
 10
3.761788244
 20
-25.1726713928
 11
3.754299194
 21
-25.1730610587
  0
LINE
  5
6F0
100
AcDbEntity
  8
0
100
AcDbLine
 62
7
  6
CONTINUOUS
 10
-11.8971683303
 20
-8.947761261
 11
-11.8932613376
 21
-8.9478087744
  0
LINE
  5
6F1
100
AcDbEntity
  8
0
100
AcDbLine
 62
7
  6
CONTINUOUS
 10
-11.3779210533
 20
-9.0022255453
 11
-11.8951689494
 21
-8.9918910376
  0
LINE
  5
6F2
100
AcDbEntity
  8
0
100
AcDbLine
 62
7
  6
CONTINUOUS
 10
-11.3760122796
 20
-8.958143254
 11
-11.8932601757
 21
-8.9478087463
  0
LINE
  5
6F3
100
AcDbEntity
  8
0
100
AcDbLine
 62
7
  6
CONTINUOUS
 10
-9.7223716126
 20
-10.2347427215
 11
-9.7439703468
 21
-10.2339661499
  0
LINE
  5
6F4
100
AcDbEntity
  8
0
100
AcDbLine
 62
7
  6
CONTINUOUS
 10
-9.7529989424
 20
-9.9404352071
 11
-9.7313960352
 21
-9.9412120785
  0
LINE
  5
6F5
100
AcDbEntity
  8
0
100
AcDbLine
 62
7
  6
CONTINUOUS
 10
-11.3045018728
 20
-8.9799082242
 11
-11.2910337046
 21
-8.9804421408
  0
LINE
  5
6F6
100
AcDbEntity
  8
0
100
AcDbLine
 62
7
  6
CONTINUOUS
 10
-9.6659005676
 20
-9.918674259
 11
-9.67934479
 21
-9.9181127088
  0
LINE
  5
6F7
100
AcDbEntity
  8
RACCORDO
100
AcDbLine
 62
7
  6
CONTINUOUS
 10
-24.1597414072
 20
-4.5203008276
 11
-24.1180879011
 21
-4.5229576092
  0
LINE
  5
6F8
100
AcDbEntity
  8
RACCORDO
100
AcDbLine
 62
7
  6
CONTINUOUS
 10
-24.2794234152
 20
31.2103660892
 11
-24.240696217
 21
31.200044402
  0
LINE
  5
6F9
100
AcDbEntity
  8
RACCORDO
100
AcDbLine
 62
7
  6
CONTINUOUS
 10
-23.8725168079
 20
31.5703078355
 11
-23.8349386827
 21
31.5601007895
  0
LINE
  5
6FA
100
AcDbEntity
  8
RACCORDO
100
AcDbLine
 62
7
  6
CONTINUOUS
 10
33.3499070127
 20
17.9627733381
 11
33.3737718594
 21
17.9562615273
  0
LINE
  5
6FB
100
AcDbEntity
  8
RACCORDO
100
AcDbLine
 62
7
  6
CONTINUOUS
 10
-23.4586605818
 20
31.6199935553
 11
-23.4378569426
 21
31.6136948633
  0
LINE
  5
6FC
100
AcDbEntity
  8
RACCORDO
100
AcDbLine
 62
7
  6
CONTINUOUS
 10
33.3267805161
 20
17.9701502423
 11
33.3499070127
 21
17.9627733381
  0
LINE
  5
6FD
100
AcDbEntity
  8
RACCORDO
100
AcDbLine
 62
7
  6
CONTINUOUS
 10
-23.6697426602
 20
31.9172665526
 11
-23.6147709677
 21
31.8996609537
  0
LINE
  5
6FE
100
AcDbEntity
  8
RACCORDO
100
AcDbLine
 62
7
  6
CONTINUOUS
 10
33.3045570208
 20
17.9783397192
 11
33.3267805161
 21
17.9701502423
  0
LINE
  5
6FF
100
AcDbEntity
  8
RACCORDO
100
AcDbLine
 62
7
  6
CONTINUOUS
 10
-29.0506653585
 20
55.0843288578
 11
-29.0923298708
 21
55.1030418389
  0
LINE
  5
700
100
AcDbEntity
  8
RACCORDO
100
AcDbLine
 62
7
  6
CONTINUOUS
 10
-29.2354094076
 20
54.7639248608
 11
-29.2642291164
 21
54.7771640845
  0
LINE
  5
701
100
AcDbEntity
  8
RACCORDO
100
AcDbLine
 62
7
  6
CONTINUOUS
 10
-24.8614660049
 20
55.7459626784
 11
-24.8384583683
 21
55.7353038924
  0
LINE
  5
702
100
AcDbEntity
  8
RACCORDO
100
AcDbLine
 62
7
  6
CONTINUOUS
 10
36.411878235
 20
20.1217765568
 11
36.4156217389
 21
20.0939511295
  0
LINE
  5
703
100
AcDbEntity
  8
DRAFT
100
AcDbLine
 62
7
  6
CONTINUOUS
 10
36.4187004432
 20
20.0381356405
 11
36.4187004333
 21
-12.0037678514
  0
LINE
  5
704
100
AcDbEntity
  8
DRAFT
100
AcDbLine
 62
7
  6
CONTINUOUS
 10
36.4187004333
 20
-18.2949227439
 11
36.4187004561
 21
-50.3368261039
  0
LINE
  5
705
100
AcDbEntity
  8
RACCORDO
100
AcDbLine
 62
7
  6
CONTINUOUS
 10
33.6582103691
 20
-53.813750555
 11
33.6593579962
 21
-53.772163481
  0
LINE
  5
706
100
AcDbEntity
  8
RACCORDO
100
AcDbLine
 62
7
  6
CONTINUOUS
 10
36.4187004561
 20
-50.3368261039
 11
36.4179005609
 21
-50.3638218835
  0
LINE
  5
707
100
AcDbEntity
  8
0
100
AcDbLine
 62
7
  6
CONTINUOUS
 10
35.6375172362
 20
-13.6450272917
 11
35.6381039314
 21
-13.6258833916
  0
LINE
  5
708
100
AcDbEntity
  8
RACCORDO
100
AcDbLine
 62
7
  6
CONTINUOUS
 10
33.252567734
 20
18.0826038235
 11
33.2538608524
 21
18.1211690347
  0
LINE
  5
709
100
AcDbEntity
  8
RACCORDO
100
AcDbLine
 62
7
  6
CONTINUOUS
 10
31.7112902246
 20
-3.4597739892
 11
31.8410873108
 21
-0.311680088
  0
LINE
  5
70A
100
AcDbEntity
  8
RACCORDO
100
AcDbLine
 62
7
  6
CONTINUOUS
 10
31.4284831896
 20
-0.29299204
 11
31.5302142755
 21
1.6990927983
  0
LINE
  5
70B
100
AcDbEntity
  8
RACCORDO
100
AcDbLine
 62
7
  6
CONTINUOUS
 10
31.8410873108
 20
-0.311680088
 11
31.9426927163
 21
1.6774883589
  0
LINE
  5
70C
100
AcDbEntity
  8
RACCORDO
100
AcDbLine
 62
7
  6
CONTINUOUS
 10
31.5302142755
 20
1.6990927983
 11
31.6570422712
 21
3.7024442048
  0
LINE
  5
70D
100
AcDbEntity
  8
RACCORDO
100
AcDbLine
 62
7
  6
CONTINUOUS
 10
31.9426927163
 20
1.6774883589
 11
32.0692965185
 21
3.6771006852
  0
LINE
  5
70E
100
AcDbEntity
  8
RACCORDO
100
AcDbLine
 62
7
  6
CONTINUOUS
 10
33.6543570906
 20
17.9555550984
 11
33.658080932
 21
18.0070359852
  0
LINE
  5
70F
100
AcDbEntity
  8
RACCORDO
100
AcDbLine
 62
7
  6
CONTINUOUS
 10
31.6570422712
 20
3.7024442048
 11
31.8089426647
 21
5.7166569029
  0
LINE
  5
710
100
AcDbEntity
  8
RACCORDO
100
AcDbLine
 62
7
  6
CONTINUOUS
 10
32.0692965185
 20
3.6771006852
 11
32.2208987173
 21
5.6871568907
  0
LINE
  5
711
100
AcDbEntity
  8
RACCORDO
100
AcDbLine
 62
7
  6
CONTINUOUS
 10
33.2495633281
 20
18.0446054879
 11
33.252567734
 21
18.0826038235
  0
LINE
  5
712
100
AcDbEntity
  8
RACCORDO
100
AcDbLine
 62
7
  6
CONTINUOUS
 10
24.3652795609
 20
-32.7190062651
 11
24.3608027354
 21
-32.7704864291
  0
LINE
  5
713
100
AcDbEntity
  8
RACCORDO
100
AcDbLine
 62
7
  6
CONTINUOUS
 10
31.8089426647
 20
5.7166569029
 11
31.9858878137
 21
7.7413184485
  0
LINE
  5
714
100
AcDbEntity
  8
RACCORDO
100
AcDbLine
 62
7
  6
CONTINUOUS
 10
32.2208987173
 20
5.6871568907
 11
32.3975408367
 21
7.7080740309
  0
LINE
  5
715
100
AcDbEntity
  8
RACCORDO
100
AcDbLine
 62
7
  6
CONTINUOUS
 10
31.9858878137
 20
7.7413184485
 11
32.187841826
 21
9.7760237782
  0
LINE
  5
716
100
AcDbEntity
  8
RACCORDO
100
AcDbLine
 62
7
  6
CONTINUOUS
 10
32.3975408367
 20
7.7080740309
 11
32.5991813527
 21
9.7394350503
  0
LINE
  5
717
100
AcDbEntity
  8
RACCORDO
100
AcDbLine
 62
7
  6
CONTINUOUS
 10
24.2182933955
 20
-32.4782078069
 11
24.2162966871
 21
-32.4969452678
  0
LINE
  5
718
100
AcDbEntity
  8
RACCORDO
100
AcDbLine
 62
7
  6
CONTINUOUS
 10
23.4929368946
 20
-33.0506271051
 11
23.496464636
 21
-33.0183143389
  0
LINE
  5
719
100
AcDbEntity
  8
RACCORDO
100
AcDbLine
 62
7
  6
CONTINUOUS
 10
32.187841826
 20
9.7760237782
 11
32.4147609955
 21
11.8203754833
  0
LINE
  5
71A
100
AcDbEntity
  8
RACCORDO
100
AcDbLine
 62
7
  6
CONTINUOUS
 10
32.5991813527
 20
9.7394350503
 11
32.8256956934
 21
11.7799887834
  0
LINE
  5
71B
100
AcDbEntity
  8
0
100
AcDbLine
 62
7
  6
CONTINUOUS
 10
22.2551538792
 20
-29.2222791046
 11
22.2533363001
 21
-29.2386259179
  0
LINE
  5
71C
100
AcDbEntity
  8
0
100
AcDbLine
 62
7
  6
CONTINUOUS
 10
22.3219696193
 20
-29.1263507321
 11
22.319628011
 21
-29.1460015837
  0
LINE
  5
71D
100
AcDbEntity
  8
RACCORDO
100
AcDbLine
 62
7
  6
CONTINUOUS
 10
32.4147609955
 20
11.8203754833
 11
32.6666004431
 21
13.8739645021
  0
LINE
  5
71E
100
AcDbEntity
  8
RACCORDO
100
AcDbLine
 62
7
  6
CONTINUOUS
 10
32.8256956934
 20
11.7799887834
 11
33.0770423345
 21
13.8293181748
  0
LINE
  5
71F
100
AcDbEntity
  8
RACCORDO
100
AcDbLine
 62
7
  6
CONTINUOUS
 10
24.0964391422
 20
-32.7902364947
 11
24.1010860825
 21
-32.7526485505
  0
LINE
  5
720
100
AcDbEntity
  8
RACCORDO
100
AcDbLine
 62
7
  6
CONTINUOUS
 10
33.2448478706
 20
18.0071741172
 11
33.2495633281
 21
18.0446054879
  0
LINE
  5
721
100
AcDbEntity
  8
RACCORDO
100
AcDbLine
 62
7
  6
CONTINUOUS
 10
32.6666004431
 20
13.8739645021
 11
32.9433136956
 21
15.9363700128
  0
LINE
  5
722
100
AcDbEntity
  8
RACCORDO
100
AcDbLine
 62
7
  6
CONTINUOUS
 10
33.0770423345
 20
13.8293181748
 11
33.3532628003
 21
15.8878402798
  0
LINE
  5
723
100
AcDbEntity
  8
RACCORDO
100
AcDbLine
 62
7
  6
CONTINUOUS
 10
24.3608027354
 20
-32.7704864291
 11
24.3535572414
 21
-32.820703142
  0
LINE
  5
724
100
AcDbEntity
  8
0
100
AcDbLine
 62
7
  6
CONTINUOUS
 10
3.9627637342
 20
-24.956016851
 11
3.9583456192
 21
-24.9749797183
  0
LINE
  5
725
100
AcDbEntity
  8
0
100
AcDbLine
 62
7
  6
CONTINUOUS
 10
4.0640435301
 20
-24.9164476505
 11
4.0686853977
 21
-24.8966378885
  0
LINE
  5
726
100
AcDbEntity
  8
0
100
AcDbLine
 62
7
  6
CONTINUOUS
 10
3.5762394259
 20
-24.7031183007
 11
3.5798908267
 21
-24.688029922
  0
LINE
  5
727
100
AcDbEntity
  8
0
100
AcDbLine
 62
7
  6
CONTINUOUS
 10
3.9583456192
 20
-24.9749797183
 11
3.9534195973
 21
-24.9927099353
  0
LINE
  5
728
100
AcDbEntity
  8
0
100
AcDbLine
 62
7
  6
CONTINUOUS
 10
4.0586960689
 20
-24.9347739264
 11
4.0640435301
 21
-24.9164476505
  0
LINE
  5
729
100
AcDbEntity
  8
0
100
AcDbLine
 62
7
  6
CONTINUOUS
 10
-9.504059269
 20
-10.4737616635
 11
-9.4999435372
 21
-10.4617112858
  0
LINE
  5
72A
100
AcDbEntity
  8
0
100
AcDbLine
 62
7
  6
CONTINUOUS
 10
-9.4999836148
 20
-10.7562892324
 11
-9.5041338399
 21
-10.7683667842
  0
LINE
  5
72B
100
AcDbEntity
  8
0
100
AcDbLine
 62
7
  6
CONTINUOUS
 10
-9.509456859
 20
-10.8120231724
 11
-9.5163049744
 21
-10.8304601959
  0
LINE
  5
72C
100
AcDbEntity
  8
RACCORDO
100
AcDbLine
 62
7
  6
CONTINUOUS
 10
-23.3843352629
 20
-5.7120955416
 11
-23.3681627341
 21
-5.6785810826
  0
LINE
  5
72D
100
AcDbEntity
  8
RACCORDO
100
AcDbLine
 62
7
  6
CONTINUOUS
 10
-24.3084527045
 20
31.6793675946
 11
-24.2829294291
 21
31.7201533842
  0
LINE
  5
72E
100
AcDbEntity
  8
RACCORDO
100
AcDbLine
 62
7
  6
CONTINUOUS
 10
-23.6609925734
 20
31.4909030167
 11
-23.6448003521
 21
31.516146416
  0
LINE
  5
72F
100
AcDbEntity
  8
RACCORDO
100
AcDbLine
 62
7
  6
CONTINUOUS
 10
-29.6982511281
 20
54.9499894972
 11
-29.7282138329
 21
54.9106478017
  0
LINE
  5
730
100
AcDbEntity
  8
RACCORDO
100
AcDbLine
 62
7
  6
CONTINUOUS
 10
-29.1154299856
 20
54.9605983062
 11
-29.0992526109
 21
54.9811914358
  0
LINE
  5
731
100
AcDbEntity
  8
RACCORDO
100
AcDbLine
 62
7
  6
CONTINUOUS
 10
24.1588993614
 20
-32.5637638615
 11
24.1331620918
 21
-32.5700492496
  0
LINE
  5
732
100
AcDbEntity
  8
0
100
AcDbLine
 62
7
  6
CONTINUOUS
 10
20.4867979375
 20
-27.3562867942
 11
20.5012695278
 21
-27.3534329973
  0
LINE
  5
733
100
AcDbEntity
  8
0
100
AcDbLine
 62
7
  6
CONTINUOUS
 10
22.1264442813
 20
-28.2916072406
 11
22.1119615926
 21
-28.2944358898
  0
LINE
  5
734
100
AcDbEntity
  8
0
100
AcDbLine
 62
7
  6
CONTINUOUS
 10
3.4798666897
 20
-24.8000926494
 11
3.4930384808
 21
-24.7980112146
  0
LINE
  5
735
100
AcDbEntity
  8
0
100
AcDbLine
 62
7
  6
CONTINUOUS
 10
19.8262909578
 20
-27.3409968815
 11
19.8389790522
 21
-27.3391066339
  0
LINE
  5
736
100
AcDbEntity
  8
0
100
AcDbLine
 62
7
  6
CONTINUOUS
 10
35.7141152659
 20
-19.1310250247
 11
35.7029621998
 21
-19.1321708345
  0
LINE
  5
737
100
AcDbEntity
  8
0
100
AcDbLine
 62
7
  6
CONTINUOUS
 10
-11.9196306058
 20
-8.9486744464
 11
-11.8971683303
 21
-8.947761261
  0
LINE
  5
738
100
AcDbEntity
  8
RACCORDO
100
AcDbLine
 62
7
  6
CONTINUOUS
 10
-24.0760443103
 20
-4.5234692288
 11
-24.0339096725
 21
-4.5218320476
  0
LINE
  5
739
100
AcDbEntity
  8
0
100
AcDbLine
 62
7
  6
CONTINUOUS
 10
-11.9808261012
 20
-8.9667499342
 11
-11.9675084833
 21
-8.96661737
  0
LINE
  5
73A
100
AcDbEntity
  8
RACCORDO
100
AcDbLine
 62
7
  6
CONTINUOUS
 10
-24.1180879011
 20
-4.5229576092
 11
-24.0760443103
 21
-4.5234692288
  0
LINE
  5
73B
100
AcDbEntity
  8
RACCORDO
100
AcDbLine
 62
7
  6
CONTINUOUS
 10
33.4230329244
 20
17.946012142
 11
33.4480784242
 21
17.942347539
  0
LINE
  5
73C
100
AcDbEntity
  8
RACCORDO
100
AcDbLine
 62
7
  6
CONTINUOUS
 10
-23.8349386827
 20
31.5601007895
 11
-23.7973966133
 21
31.5531034947
  0
LINE
  5
73D
100
AcDbEntity
  8
RACCORDO
100
AcDbLine
 62
7
  6
CONTINUOUS
 10
33.3982051483
 20
17.9506611712
 11
33.4230329244
 21
17.946012142
  0
LINE
  5
73E
100
AcDbEntity
  8
RACCORDO
100
AcDbLine
 62
7
  6
CONTINUOUS
 10
-24.240696217
 20
31.200044402
 11
-24.2007068336
 21
31.1915146175
  0
LINE
  5
73F
100
AcDbEntity
  8
RACCORDO
100
AcDbLine
 62
7
  6
CONTINUOUS
 10
33.3737718594
 20
17.9562615273
 11
33.3982051483
 21
17.9506611712
  0
LINE
  5
740
100
AcDbEntity
  8
RACCORDO
100
AcDbLine
 62
7
  6
CONTINUOUS
 10
-23.4766077352
 20
31.6241178359
 11
-23.4586605818
 21
31.6199935553
  0
LINE
  5
741
100
AcDbEntity
  8
RACCORDO
100
AcDbLine
 62
7
  6
CONTINUOUS
 10
-23.7245514907
 20
31.9307349197
 11
-23.6697426602
 21
31.9172665526
  0
LINE
  5
742
100
AcDbEntity
  8
RACCORDO
100
AcDbLine
 62
7
  6
CONTINUOUS
 10
-24.9757184023
 20
55.7897498389
 11
-25.1727996377
 21
55.8578697971
  0
LINE
  5
743
100
AcDbEntity
  8
RACCORDO
100
AcDbLine
 62
7
  6
CONTINUOUS
 10
-25.0128194416
 20
55.7955772105
 11
-24.9118172861
 21
55.7595873153
  0
LINE
  5
744
100
AcDbEntity
  8
RACCORDO
100
AcDbLine
 62
7
  6
CONTINUOUS
 10
-29.0923298708
 20
55.1030418389
 11
-29.1339427558
 21
55.1187081306
  0
LINE
  5
745
100
AcDbEntity
  8
RACCORDO
100
AcDbLine
 62
7
  6
CONTINUOUS
 10
-24.8695081673
 20
55.7492674279
 11
-24.9757184023
 21
55.7897498389
  0
LINE
  5
746
100
AcDbEntity
  8
RACCORDO
100
AcDbLine
 62
7
  6
CONTINUOUS
 10
-29.2642291164
 20
54.7771640845
 11
-29.2930535771
 21
54.7881701755
  0
LINE
  5
747
100
AcDbEntity
  8
RACCORDO
100
AcDbLine
 62
7
  6
CONTINUOUS
 10
-24.9118172861
 20
55.7595873153
 11
-24.8146788174
 21
55.7224974835
  0
LINE
  5
748
100
AcDbEntity
  8
RACCORDO
100
AcDbLine
 62
7
  6
CONTINUOUS
 10
-24.8695063361
 20
55.7492530157
 11
-24.8614660049
 21
55.7459626784
  0
LINE
  5
749
100
AcDbEntity
  8
RACCORDO
100
AcDbLine
 62
7
  6
CONTINUOUS
 10
33.2512743563
 20
-53.8595148764
 11
33.2534256474
 21
-53.8339313244
  0
LINE
  5
74A
100
AcDbEntity
  8
0
100
AcDbLine
 62
7
  6
CONTINUOUS
 10
35.6381039314
 20
-13.6258833916
 11
35.6398549874
 21
-13.6057575993
  0
LINE
  5
74B
100
AcDbEntity
  8
RACCORDO
100
AcDbLine
 62
7
  6
CONTINUOUS
 10
33.654692774
 20
-53.8534239136
 11
33.6582103691
 21
-53.813750555
  0
LINE
  5
74C
100
AcDbEntity
  8
RACCORDO
100
AcDbLine
 62
7
  6
CONTINUOUS
 10
36.4179005609
 20
-50.3638218835
 11
36.4156267055
 21
-50.3890751506
  0
LINE
  5
74D
100
AcDbEntity
  8
0
100
AcDbLine
 62
7
  6
CONTINUOUS
 10
35.6398549874
 20
-13.6057575993
 11
35.6427744355
 21
-13.5848078663
  0
LINE
  5
74E
100
AcDbEntity
  8
RACCORDO
100
AcDbLine
 62
7
  6
CONTINUOUS
 10
32.9433136956
 20
15.9363700128
 11
33.2448478706
 21
18.0071741172
  0
LINE
  5
74F
100
AcDbEntity
  8
RACCORDO
100
AcDbLine
 62
7
  6
CONTINUOUS
 10
33.3532628003
 20
15.8878402798
 11
33.6543570906
 21
17.9555550984
  0
LINE
  5
750
100
AcDbEntity
  8
RACCORDO
100
AcDbLine
 62
7
  6
CONTINUOUS
 10
24.2162966871
 20
-32.4969452678
 11
24.2138275382
 21
-32.5128997881
  0
LINE
  5
751
100
AcDbEntity
  8
RACCORDO
100
AcDbLine
 62
7
  6
CONTINUOUS
 10
23.496464636
 20
-33.0183143389
 11
23.5019432378
 21
-32.9852645383
  0
LINE
  5
752
100
AcDbEntity
  8
RACCORDO
100
AcDbLine
 62
7
  6
CONTINUOUS
 10
32.8465168619
 20
18.919763642
 11
32.8507689625
 21
18.9434656227
  0
LINE
  5
753
100
AcDbEntity
  8
0
100
AcDbLine
 62
7
  6
CONTINUOUS
 10
22.3198616162
 20
-28.8340679855
 11
22.3221846596
 21
-28.8218894939
  0
LINE
  5
754
100
AcDbEntity
  8
0
100
AcDbLine
 62
7
  6
CONTINUOUS
 10
22.3221739904
 20
-29.1164081
 11
22.3198215386
 21
-29.1286459322
  0
LINE
  5
755
100
AcDbEntity
  8
0
100
AcDbLine
 62
7
  6
CONTINUOUS
 10
19.9263762323
 20
-27.3210356527
 11
19.9265438158
 21
-27.3201654742
  0
LINE
  5
756
100
AcDbEntity
  8
0
100
AcDbLine
 62
7
  6
CONTINUOUS
 10
20.4437928738
 20
-27.3304999538
 11
20.4436238594
 21
-27.3313726837
  0
LINE
  5
757
100
AcDbEntity
  8
0
100
AcDbLine
 62
7
  6
CONTINUOUS
 10
22.319628011
 20
-29.1460015837
 11
22.3157370124
 21
-29.165415606
  0
LINE
  5
758
100
AcDbEntity
  8
RACCORDO
100
AcDbLine
 62
7
  6
CONTINUOUS
 10
24.3535572414
 20
-32.820703142
 11
24.3435380331
 21
-32.8693630008
  0
LINE
  5
759
100
AcDbEntity
  8
RACCORDO
100
AcDbLine
 62
7
  6
CONTINUOUS
 10
24.2138275382
 20
-32.5128997881
 11
24.2110805794
 21
-32.5262226678
  0
LINE
  5
75A
100
AcDbEntity
  8
0
100
AcDbLine
 62
7
  6
CONTINUOUS
 10
22.2533363001
 20
-29.2386259179
 11
22.2501473362
 21
-29.2539778062
  0
LINE
  5
75B
100
AcDbEntity
  8
RACCORDO
100
AcDbLine
 62
7
  6
CONTINUOUS
 10
24.1010860825
 20
-32.7526485505
 11
24.1089789945
 21
-32.7161870975
  0
LINE
  5
75C
100
AcDbEntity
  8
RACCORDO
100
AcDbLine
 62
7
  6
CONTINUOUS
 10
23.5019432378
 20
-32.9852645383
 11
23.5093420215
 21
-32.951662772
  0
LINE
  5
75D
100
AcDbEntity
  8
RACCORDO
100
AcDbLine
 62
7
  6
CONTINUOUS
 10
32.8507689625
 20
18.9434656227
 11
32.8566407968
 21
18.9675819404
  0
LINE
  5
75E
100
AcDbEntity
  8
0
100
AcDbLine
 62
7
  6
CONTINUOUS
 10
3.5718069248
 20
-24.7174631066
 11
3.5762394259
 21
-24.7031183007
  0
LINE
  5
75F
100
AcDbEntity
  8
0
100
AcDbLine
 62
7
  6
CONTINUOUS
 10
3.9534195973
 20
-24.9927099353
 11
3.9479982102
 21
-25.0092119287
  0
LINE
  5
760
100
AcDbEntity
  8
0
100
AcDbLine
 62
7
  6
CONTINUOUS
 10
4.052869789
 20
-24.9518285357
 11
4.0586960689
 21
-24.9347739264
  0
LINE
  5
761
100
AcDbEntity
  8
0
100
AcDbLine
 62
7
  6
CONTINUOUS
 10
-9.5163049744
 20
-10.8304601959
 11
-9.5246364206
 21
-10.8484094283
  0
LINE
  5
762
100
AcDbEntity
  8
RACCORDO
100
AcDbLine
 62
7
  6
CONTINUOUS
 10
-23.3681627341
 20
-5.6785810826
 11
-23.3504697506
 21
-5.645652828
  0
LINE
  5
763
100
AcDbEntity
  8
RACCORDO
100
AcDbLine
 62
7
  6
CONTINUOUS
 10
-24.2829294291
 20
31.7201533842
 11
-24.2552608811
 21
31.7574294074
  0
LINE
  5
764
100
AcDbEntity
  8
RACCORDO
100
AcDbLine
 62
7
  6
CONTINUOUS
 10
-23.6448003521
 20
31.516146416
 11
-23.6271794826
 21
31.5393486425
  0
LINE
  5
765
100
AcDbEntity
  8
RACCORDO
100
AcDbLine
 62
7
  6
CONTINUOUS
 10
-29.6575316109
 20
54.7032075042
 11
-29.6770373817
 21
54.6806606878
  0
LINE
  5
766
100
AcDbEntity
  8
RACCORDO
100
AcDbLine
 62
7
  6
CONTINUOUS
 10
-29.0992526109
 20
54.9811914358
 11
-29.0822725567
 21
55.0005420804
  0
LINE
  5
767
100
AcDbEntity
  8
RACCORDO
100
AcDbLine
 62
7
  6
CONTINUOUS
 10
-29.6661218967
 20
54.9865754005
 11
-29.6982511281
 21
54.9499894972
  0
LINE
  5
768
100
AcDbEntity
  8
RACCORDO
100
AcDbLine
 62
7
  6
CONTINUOUS
 10
24.0499992563
 20
-33.219494206
 11
24.0066667905
 21
-33.2308712851
  0
LINE
  5
769
100
AcDbEntity
  8
0
100
AcDbLine
 62
7
  6
CONTINUOUS
 10
19.8561428507
 20
-27.3288236856
 11
19.8779514754
 21
-27.3239467624
  0
LINE
  5
76A
100
AcDbEntity
  8
0
100
AcDbLine
 62
7
  6
CONTINUOUS
 10
3.7689096018
 20
-25.1712849316
 11
3.761788244
 21
-25.1726713928
  0
LINE
  5
76B
100
AcDbEntity
  8
0
100
AcDbLine
 62
7
  6
CONTINUOUS
 10
-11.941853678
 20
-8.9515900627
 11
-11.9196306058
 21
-8.9486744464
  0
LINE
  5
76C
100
AcDbEntity
  8
RACCORDO
100
AcDbLine
 62
7
  6
CONTINUOUS
 10
-24.0339096725
 20
-4.5218320476
 11
-23.991983673
 21
-4.5180577099
  0
LINE
  5
76D
100
AcDbEntity
  8
0
100
AcDbLine
 62
7
  6
CONTINUOUS
 10
-11.3185356256
 20
-8.9810762975
 11
-11.3045018728
 21
-8.9799082242
  0
LINE
  5
76E
100
AcDbEntity
  8
0
100
AcDbLine
 62
7
  6
CONTINUOUS
 10
-9.67934479
 20
-9.9181127088
 11
-9.6933608721
 21
-9.9192505409
  0
LINE
  5
76F
100
AcDbEntity
  8
RACCORDO
100
AcDbLine
 62
7
  6
CONTINUOUS
 10
24.1106259552
 20
3.8578909165
 11
24.1021907423
 21
3.8575417624
  0
LINE
  5
770
100
AcDbEntity
  8
RACCORDO
100
AcDbLine
 62
7
  6
CONTINUOUS
 10
33.473163334
 20
17.9396934525
 11
33.4981090596
 21
17.9380687785
  0
LINE
  5
771
100
AcDbEntity
  8
RACCORDO
100
AcDbLine
 62
7
  6
CONTINUOUS
 10
33.4480784242
 20
17.942347539
 11
33.473163334
 21
17.9396934525
  0
LINE
  5
772
100
AcDbEntity
  8
RACCORDO
100
AcDbLine
 62
7
  6
CONTINUOUS
 10
-24.1597396953
 20
31.1848374051
 11
-24.1180861873
 21
31.1800602573
  0
LINE
  5
773
100
AcDbEntity
  8
RACCORDO
100
AcDbLine
 62
7
  6
CONTINUOUS
 10
-23.4914844926
 20
31.6264001798
 11
-23.4766077352
 21
31.6241178359
  0
LINE
  5
774
100
AcDbEntity
  8
RACCORDO
100
AcDbLine
 62
7
  6
CONTINUOUS
 10
-24.2007068336
 20
31.1915146175
 11
-24.1597396953
 21
31.1848374051
  0
LINE
  5
775
100
AcDbEntity
  8
RACCORDO
100
AcDbLine
 62
7
  6
CONTINUOUS
 10
-23.7783957179
 20
31.9397576713
 11
-23.7245514907
 21
31.9307349197
  0
LINE
  5
776
100
AcDbEntity
  8
RACCORDO
100
AcDbLine
 62
7
  6
CONTINUOUS
 10
-25.3394185782
 20
55.8942127521
 11
-25.2265382851
 21
55.8631670053
  0
LINE
  5
777
100
AcDbEntity
  8
RACCORDO
100
AcDbLine
 62
7
  6
CONTINUOUS
 10
-25.1727996377
 20
55.8578697971
 11
-25.3664169675
 21
55.9158074826
  0
LINE
  5
778
100
AcDbEntity
  8
RACCORDO
100
AcDbLine
 62
7
  6
CONTINUOUS
 10
-25.2265382851
 20
55.8631670053
 11
-25.1177759107
 21
55.8301974851
  0
LINE
  5
779
100
AcDbEntity
  8
RACCORDO
100
AcDbLine
 62
7
  6
CONTINUOUS
 10
-29.1339427558
 20
55.1187081306
 11
-29.1753380578
 21
55.1312737534
  0
LINE
  5
77A
100
AcDbEntity
  8
RACCORDO
100
AcDbLine
 62
7
  6
CONTINUOUS
 10
-29.2930535771
 20
54.7881701755
 11
-29.3219664049
 21
54.7969673565
  0
LINE
  5
77B
100
AcDbEntity
  8
RACCORDO
100
AcDbLine
 62
7
  6
CONTINUOUS
 10
-25.1177759107
 20
55.8301974851
 11
-25.0128194416
 21
55.7955772105
  0
LINE
  5
77C
100
AcDbEntity
  8
RACCORDO
100
AcDbLine
 62
7
  6
CONTINUOUS
 10
36.4156267055
 20
-50.3890751506
 11
36.4144591735
 21
-50.3976599987
  0
LINE
  5
77D
100
AcDbEntity
  8
RACCORDO
100
AcDbLine
 62
7
  6
CONTINUOUS
 10
33.6488228175
 20
-53.8910502525
 11
33.654692774
 21
-53.8534239136
  0
LINE
  5
77E
100
AcDbEntity
  8
RACCORDO
100
AcDbLine
 62
7
  6
CONTINUOUS
 10
33.2474337691
 20
-53.88353815
 11
33.2512743563
 21
-53.8595148764
  0
LINE
  5
77F
100
AcDbEntity
  8
RACCORDO
100
AcDbLine
 62
7
  6
CONTINUOUS
 10
36.3974599383
 20
-50.5038621548
 11
36.4144707797
 21
-50.3976688208
  0
LINE
  5
780
100
AcDbEntity
  8
RACCORDO
100
AcDbLine
 62
7
  6
CONTINUOUS
 10
36.418700425
 20
-50.3368264119
 11
36.4015694946
 21
-50.4435317415
  0
LINE
  5
781
100
AcDbEntity
  8
RACCORDO
100
AcDbLine
 62
7
  6
CONTINUOUS
 10
36.4015694946
 20
-50.4435317415
 11
36.3812920038
 21
-50.5533417369
  0
LINE
  5
782
100
AcDbEntity
  8
0
100
AcDbLine
 62
7
  6
CONTINUOUS
 10
35.6427744355
 20
-13.5848078663
 11
35.6468631253
 21
-13.5631314026
  0
LINE
  5
783
100
AcDbEntity
  8
0
100
AcDbLine
 62
7
  6
CONTINUOUS
 10
35.6468631253
 20
-13.5631314026
 11
35.6520971558
 21
-13.5409743805
  0
LINE
  5
784
100
AcDbEntity
  8
RACCORDO
100
AcDbLine
 62
7
  6
CONTINUOUS
 10
24.2110805794
 20
-32.5262226678
 11
24.2082705603
 21
-32.5369568738
  0
LINE
  5
785
100
AcDbEntity
  8
RACCORDO
100
AcDbLine
 62
7
  6
CONTINUOUS
 10
23.5093420215
 20
-32.951662772
 11
23.5186195561
 21
-32.9176971996
  0
LINE
  5
786
100
AcDbEntity
  8
RACCORDO
100
AcDbLine
 62
7
  6
CONTINUOUS
 10
24.3435380331
 20
-32.8693630008
 11
24.3307294333
 21
-32.9155861414
  0
LINE
  5
787
100
AcDbEntity
  8
0
100
AcDbLine
 62
7
  6
CONTINUOUS
 10
22.3157370124
 20
-29.165415606
 11
22.3103482944
 21
-29.1843798721
  0
LINE
  5
788
100
AcDbEntity
  8
RACCORDO
100
AcDbLine
 62
7
  6
CONTINUOUS
 10
32.8566407968
 20
18.9675819404
 11
32.8640858241
 21
18.9919214469
  0
LINE
  5
789
100
AcDbEntity
  8
0
100
AcDbLine
 62
7
  6
CONTINUOUS
 10
3.9479982102
 20
-25.0092119287
 11
3.9420680741
 21
-25.0244818321
  0
LINE
  5
78A
100
AcDbEntity
  8
0
100
AcDbLine
 62
7
  6
CONTINUOUS
 10
3.5665492962
 20
-24.7308958031
 11
3.5718069248
 21
-24.7174631066
  0
LINE
  5
78B
100
AcDbEntity
  8
0
100
AcDbLine
 62
7
  6
CONTINUOUS
 10
4.046586983
 20
-24.9676162198
 11
4.052869789
 21
-24.9518285357
  0
LINE
  5
78C
100
AcDbEntity
  8
0
100
AcDbLine
 62
7
  6
CONTINUOUS
 10
-9.5099565431
 20
-10.4856047159
 11
-9.504059269
 21
-10.4737616635
  0
LINE
  5
78D
100
AcDbEntity
  8
0
100
AcDbLine
 62
7
  6
CONTINUOUS
 10
-9.5041338399
 20
-10.7683667842
 11
-9.51005164
 21
-10.7801961753
  0
LINE
  5
78E
100
AcDbEntity
  8
RACCORDO
100
AcDbLine
 62
7
  6
CONTINUOUS
 10
-23.3504697506
 20
-5.645652828
 11
-23.3313553879
 21
-5.6134951658
  0
LINE
  5
78F
100
AcDbEntity
  8
RACCORDO
100
AcDbLine
 62
7
  6
CONTINUOUS
 10
-23.3313553879
 20
-5.6134951658
 11
-23.3109266804
 21
-5.5822881688
  0
LINE
  5
790
100
AcDbEntity
  8
RACCORDO
100
AcDbLine
 62
7
  6
CONTINUOUS
 10
-29.0822725567
 20
55.0005420804
 11
-29.0646244127
 21
55.0184968481
  0
LINE
  5
791
100
AcDbEntity
  8
RACCORDO
100
AcDbLine
 62
7
  6
CONTINUOUS
 10
-29.6367310521
 20
54.723810988
 11
-29.6575316109
 21
54.7032075042
  0
LINE
  5
792
100
AcDbEntity
  8
RACCORDO
100
AcDbLine
 62
7
  6
CONTINUOUS
 10
-29.6319556192
 20
55.0203205928
 11
-29.6661218967
 21
54.9865754005
  0
LINE
  5
793
100
AcDbEntity
  8
RACCORDO
100
AcDbLine
 62
7
  6
CONTINUOUS
 10
-29.0646244127
 20
55.0184968481
 11
-29.0464480616
 21
55.0349134159
  0
LINE
  5
794
100
AcDbEntity
  8
0
100
AcDbLine
 62
7
  6
CONTINUOUS
 10
35.7256929106
 20
-19.1277408942
 11
35.7141152659
 21
-19.1310250247
  0
LINE
  5
795
100
AcDbEntity
  8
0
100
AcDbLine
 62
7
  6
CONTINUOUS
 10
3.4930384808
 20
-24.7980112146
 11
3.5054854137
 21
-24.7945015227
  0
LINE
  5
796
100
AcDbEntity
  8
0
100
AcDbLine
 62
7
  6
CONTINUOUS
 10
3.7759940584
 20
-25.169464816
 11
3.7689096018
 21
-25.1712849316
  0
LINE
  5
797
100
AcDbEntity
  8
0
100
AcDbLine
 62
7
  6
CONTINUOUS
 10
-9.6933608721
 20
-9.9192505409
 11
-9.7078435608
 21
-9.92207919
  0
LINE
  5
798
100
AcDbEntity
  8
0
100
AcDbLine
 62
7
  6
CONTINUOUS
 10
-11.9935141956
 20
-8.9686401818
 11
-11.9808261012
 21
-8.9667499342
  0
LINE
  5
799
100
AcDbEntity
  8
RACCORDO
100
AcDbLine
 62
7
  6
CONTINUOUS
 10
-23.991983673
 20
-4.5180577099
 11
-23.9505645131
 21
-4.5121730612
  0
LINE
  5
79A
100
AcDbEntity
  8
RACCORDO
100
AcDbLine
 62
7
  6
CONTINUOUS
 10
33.5227379976
 20
17.9374850841
 11
33.5468748001
 21
17.9379465249
  0
LINE
  5
79B
100
AcDbEntity
  8
RACCORDO
100
AcDbLine
 62
7
  6
CONTINUOUS
 10
33.4981090596
 20
17.9380687785
 11
33.5227379976
 21
17.9374850841
  0
LINE
  5
79C
100
AcDbEntity
  8
RACCORDO
100
AcDbLine
 62
7
  6
CONTINUOUS
 10
-24.1180861873
 20
31.1800602573
 11
-24.0760425765
 21
31.1772171525
  0
LINE
  5
79D
100
AcDbEntity
  8
RACCORDO
100
AcDbLine
 62
7
  6
CONTINUOUS
 10
-23.5029141662
 20
31.6272247925
 11
-23.4914844926
 21
31.6264001798
  0
LINE
  5
79E
100
AcDbEntity
  8
RACCORDO
100
AcDbLine
 62
7
  6
CONTINUOUS
 10
-23.8312426313
 20
31.9442323423
 11
-23.7783957179
 21
31.9397576713
  0
LINE
  5
79F
100
AcDbEntity
  8
RACCORDO
100
AcDbLine
 62
7
  6
CONTINUOUS
 10
-23.7973966133
 20
31.5531034947
 11
-23.7601611197
 21
31.549366372
  0
LINE
  5
7A0
100
AcDbEntity
  8
RACCORDO
100
AcDbLine
 62
7
  6
CONTINUOUS
 10
-25.5561918954
 20
55.9637732237
 11
-25.7417714827
 21
56.0020270058
  0
LINE
  5
7A1
100
AcDbEntity
  8
RACCORDO
100
AcDbLine
 62
7
  6
CONTINUOUS
 10
-25.5810357151
 20
55.9492032111
 11
-25.4572310674
 21
55.9229623836
  0
LINE
  5
7A2
100
AcDbEntity
  8
RACCORDO
100
AcDbLine
 62
7
  6
CONTINUOUS
 10
-29.3219664049
 20
54.7969673565
 11
-29.3508835664
 21
54.8035315572
  0
LINE
  5
7A3
100
AcDbEntity
  8
RACCORDO
100
AcDbLine
 62
7
  6
CONTINUOUS
 10
-29.1753380578
 20
55.1312737534
 11
-29.2164070648
 21
55.1407139034
  0
LINE
  5
7A4
100
AcDbEntity
  8
RACCORDO
100
AcDbLine
 62
7
  6
CONTINUOUS
 10
-25.4572310674
 20
55.9229623836
 11
-25.3394185782
 21
55.8942127521
  0
LINE
  5
7A5
100
AcDbEntity
  8
RACCORDO
100
AcDbLine
 62
7
  6
CONTINUOUS
 10
-25.3664169675
 20
55.9158074826
 11
-25.5561918954
 21
55.9637732237
  0
LINE
  5
7A6
100
AcDbEntity
  8
RACCORDO
100
AcDbLine
 62
7
  6
CONTINUOUS
 10
36.3581718621
 20
-50.7086292926
 11
36.3974599383
 21
-50.5038621548
  0
LINE
  5
7A7
100
AcDbEntity
  8
RACCORDO
100
AcDbLine
 62
7
  6
CONTINUOUS
 10
36.3812920038
 20
-50.5533417369
 11
36.3575463001
 21
-50.6661917183
  0
LINE
  5
7A8
100
AcDbEntity
  8
RACCORDO
100
AcDbLine
 62
7
  6
CONTINUOUS
 10
33.6405822092
 20
-53.9265226714
 11
33.6488228175
 21
-53.8910502525
  0
LINE
  5
7A9
100
AcDbEntity
  8
RACCORDO
100
AcDbLine
 62
7
  6
CONTINUOUS
 10
36.3117997527
 20
-50.9053321394
 11
36.3581718621
 21
-50.7086292926
  0
LINE
  5
7AA
100
AcDbEntity
  8
RACCORDO
100
AcDbLine
 62
7
  6
CONTINUOUS
 10
36.3575463001
 20
-50.6661917183
 11
36.3299183231
 21
-50.7825724295
  0
LINE
  5
7AB
100
AcDbEntity
  8
RACCORDO
100
AcDbLine
 62
7
  6
CONTINUOUS
 10
33.2418836298
 20
-53.9059748252
 11
33.2474337691
 21
-53.88353815
  0
LINE
  5
7AC
100
AcDbEntity
  8
0
100
AcDbLine
 62
7
  6
CONTINUOUS
 10
35.6520971558
 20
-13.5409743805
 11
35.6583839587
 21
-13.5187335502
  0
LINE
  5
7AD
100
AcDbEntity
  8
RACCORDO
100
AcDbLine
 62
7
  6
CONTINUOUS
 10
24.1089789945
 20
-32.7161870975
 11
24.1200610037
 21
-32.6811148691
  0
LINE
  5
7AE
100
AcDbEntity
  8
0
100
AcDbLine
 62
7
  6
CONTINUOUS
 10
22.2501473362
 20
-29.2539778062
 11
22.248898444
 21
-29.2578965422
  0
LINE
  5
7AF
100
AcDbEntity
  8
RACCORDO
100
AcDbLine
 62
7
  6
CONTINUOUS
 10
24.2082705603
 20
-32.5369568738
 11
24.2056507772
 21
-32.545077806
  0
LINE
  5
7B0
100
AcDbEntity
  8
RACCORDO
100
AcDbLine
 62
7
  6
CONTINUOUS
 10
23.5186195561
 20
-32.9176971996
 11
23.5297238903
 21
-32.8835580177
  0
LINE
  5
7B1
100
AcDbEntity
  8
0
100
AcDbLine
 62
7
  6
CONTINUOUS
 10
22.3157458844
 20
-28.8461183633
 11
22.3198616162
 21
-28.8340679855
  0
LINE
  5
7B2
100
AcDbEntity
  8
0
100
AcDbLine
 62
7
  6
CONTINUOUS
 10
22.3198215386
 20
-29.1286459322
 11
22.3156713135
 21
-29.1407234839
  0
LINE
  5
7B3
100
AcDbEntity
  8
RACCORDO
100
AcDbLine
 62
7
  6
CONTINUOUS
 10
32.8640858241
 20
18.9919214469
 11
32.8730450344
 21
19.0162912249
  0
LINE
  5
7B4
100
AcDbEntity
  8
0
100
AcDbLine
 62
7
  6
CONTINUOUS
 10
22.3103482944
 20
-29.1843798721
 11
22.303500179
 21
-29.2028168957
  0
LINE
  5
7B5
100
AcDbEntity
  8
RACCORDO
100
AcDbLine
 62
7
  6
CONTINUOUS
 10
32.8730450344
 20
19.0162912249
 11
32.8834474161
 21
19.0404981173
  0
LINE
  5
7B6
100
AcDbEntity
  8
0
100
AcDbLine
 62
7
  6
CONTINUOUS
 10
3.9420680741
 20
-25.0244818321
 11
3.9357998826
 21
-25.0386944513
  0
LINE
  5
7B7
100
AcDbEntity
  8
0
100
AcDbLine
 62
7
  6
CONTINUOUS
 10
4.0398244713
 20
-24.9821328277
 11
4.046586983
 21
-24.9676162198
  0
LINE
  5
7B8
100
AcDbEntity
  8
0
100
AcDbLine
 62
7
  6
CONTINUOUS
 10
3.5604730236
 20
-24.7434529026
 11
3.5665492962
 21
-24.7308958031
  0
LINE
  5
7B9
100
AcDbEntity
  8
0
100
AcDbLine
 62
7
  6
CONTINUOUS
 10
-9.5246364206
 20
-10.8484094283
 11
-9.5344246341
 21
-10.8657457664
  0
LINE
  5
7BA
100
AcDbEntity
  8
RACCORDO
100
AcDbLine
 62
7
  6
CONTINUOUS
 10
-23.3109266804
 20
-5.5822881688
 11
-23.2892980228
 21
-5.5522065865
  0
LINE
  5
7BB
100
AcDbEntity
  8
RACCORDO
100
AcDbLine
 62
7
  6
CONTINUOUS
 10
-24.2552608811
 20
31.7574294074
 11
-24.2253013521
 21
31.791456526
  0
LINE
  5
7BC
100
AcDbEntity
  8
RACCORDO
100
AcDbLine
 62
7
  6
CONTINUOUS
 10
-23.6271794826
 20
31.5393486425
 11
-23.6081521867
 21
31.5605450667
  0
LINE
  5
7BD
100
AcDbEntity
  8
RACCORDO
100
AcDbLine
 62
7
  6
CONTINUOUS
 10
-29.5959062339
 20
55.0511225077
 11
-29.6319556192
 21
55.0203205928
  0
LINE
  5
7BE
100
AcDbEntity
  8
RACCORDO
100
AcDbLine
 62
7
  6
CONTINUOUS
 10
-29.6148586898
 20
54.7422766927
 11
-29.6367310521
 21
54.723810988
  0
LINE
  5
7BF
100
AcDbEntity
  8
RACCORDO
100
AcDbLine
 62
7
  6
CONTINUOUS
 10
-29.0464480616
 20
55.0349134159
 11
-29.027887569
 21
55.0496616559
  0
LINE
  5
7C0
100
AcDbEntity
  8
RACCORDO
100
AcDbLine
 62
7
  6
CONTINUOUS
 10
24.136944378
 20
3.8630509041
 11
24.1222383926
 21
3.8597317185
  0
LINE
  5
7C1
100
AcDbEntity
  8
0
100
AcDbLine
 62
7
  6
CONTINUOUS
 10
-11.9636623027
 20
-8.9564669858
 11
-11.941853678
 21
-8.9515900627
  0
LINE
  5
7C2
100
AcDbEntity
  8
0
100
AcDbLine
 62
7
  6
CONTINUOUS
 10
-11.3330072159
 20
-8.9839300944
 11
-11.3185356256
 21
-8.9810762975
  0
LINE
  5
7C3
100
AcDbEntity
  8
RACCORDO
100
AcDbLine
 62
7
  6
CONTINUOUS
 10
-23.9505645131
 20
-4.5121730612
 11
-23.9099467889
 21
-4.5042199563
  0
LINE
  5
7C4
100
AcDbEntity
  8
RACCORDO
100
AcDbLine
 62
7
  6
CONTINUOUS
 10
24.1222383926
 20
3.8597317185
 11
24.1106259552
 21
3.8578909165
  0
LINE
  5
7C5
100
AcDbEntity
  8
RACCORDO
100
AcDbLine
 62
7
  6
CONTINUOUS
 10
33.570347623
 20
17.9394498156
 11
33.5929893495
 21
17.9419842535
  0
LINE
  5
7C6
100
AcDbEntity
  8
RACCORDO
100
AcDbLine
 62
7
  6
CONTINUOUS
 10
33.5468748001
 20
17.9379465249
 11
33.570347623
 21
17.9394498156
  0
LINE
  5
7C7
100
AcDbEntity
  8
RACCORDO
100
AcDbLine
 62
7
  6
CONTINUOUS
 10
-23.8831217049
 20
31.94426307
 11
-23.8312426313
 21
31.9442323423
  0
LINE
  5
7C8
100
AcDbEntity
  8
RACCORDO
100
AcDbLine
 62
7
  6
CONTINUOUS
 10
-23.7601611197
 20
31.549366372
 11
-23.7235005128
 21
31.5489163502
  0
LINE
  5
7C9
100
AcDbEntity
  8
RACCORDO
100
AcDbLine
 62
7
  6
CONTINUOUS
 10
-24.0760425765
 20
31.1772171525
 11
-24.0339079044
 21
31.1763283126
  0
LINE
  5
7CA
100
AcDbEntity
  8
RACCORDO
100
AcDbLine
 62
7
  6
CONTINUOUS
 10
-25.8421185707
 20
55.9909463806
 11
-25.7100060338
 21
55.9722388539
  0
LINE
  5
7CB
100
AcDbEntity
  8
RACCORDO
100
AcDbLine
 62
7
  6
CONTINUOUS
 10
-29.3508835664
 20
54.8035315572
 11
-29.3795533903
 21
54.8077904098
  0
LINE
  5
7CC
100
AcDbEntity
  8
RACCORDO
100
AcDbLine
 62
7
  6
CONTINUOUS
 10
-29.2164070648
 20
55.1407139034
 11
-29.2570937169
 21
55.1470137725
  0
LINE
  5
7CD
100
AcDbEntity
  8
RACCORDO
100
AcDbLine
 62
7
  6
CONTINUOUS
 10
-25.7417714827
 20
56.0020270058
 11
-25.9228400094
 21
56.030870081
  0
LINE
  5
7CE
100
AcDbEntity
  8
RACCORDO
100
AcDbLine
 62
7
  6
CONTINUOUS
 10
-25.7100060338
 20
55.9722388539
 11
-25.5810357151
 21
55.9492032111
  0
LINE
  5
7CF
100
AcDbEntity
  8
RACCORDO
100
AcDbLine
 62
7
  6
CONTINUOUS
 10
36.3299183231
 20
-50.7825724295
 11
36.2981294755
 21
-50.9018298078
  0
LINE
  5
7D0
100
AcDbEntity
  8
RACCORDO
100
AcDbLine
 62
7
  6
CONTINUOUS
 10
36.2587130009
 20
-51.0937517447
 11
36.3117997527
 21
-50.9053321394
  0
LINE
  5
7D1
100
AcDbEntity
  8
RACCORDO
100
AcDbLine
 62
7
  6
CONTINUOUS
 10
36.2981294755
 20
-50.9018298078
 11
36.2621188321
 21
-51.0221761123
  0
LINE
  5
7D2
100
AcDbEntity
  8
RACCORDO
100
AcDbLine
 62
7
  6
CONTINUOUS
 10
33.6300227767
 20
-53.9597178274
 11
33.6405822092
 21
-53.9265226714
  0
LINE
  5
7D3
100
AcDbEntity
  8
0
100
AcDbLine
 62
7
  6
CONTINUOUS
 10
35.6583839587
 20
-13.5187335502
 11
35.6655760931
 21
-13.4967456604
  0
LINE
  5
7D4
100
AcDbEntity
  8
RACCORDO
100
AcDbLine
 62
7
  6
CONTINUOUS
 10
24.3307294333
 20
-32.9155861414
 11
24.3150069243
 21
-32.9593232839
  0
LINE
  5
7D5
100
AcDbEntity
  8
0
100
AcDbLine
 62
7
  6
CONTINUOUS
 10
35.6655760931
 20
-13.4967456604
 11
35.6736221363
 21
-13.4750278214
  0
LINE
  5
7D6
100
AcDbEntity
  8
RACCORDO
100
AcDbLine
 62
7
  6
CONTINUOUS
 10
23.5297238903
 20
-32.8835580177
 11
23.5425928432
 21
-32.8494363954
  0
LINE
  5
7D7
100
AcDbEntity
  8
RACCORDO
100
AcDbLine
 62
7
  6
CONTINUOUS
 10
24.2056507772
 20
-32.545077806
 11
24.2035262805
 21
-32.5505298198
  0
LINE
  5
7D8
100
AcDbEntity
  8
RACCORDO
100
AcDbLine
 62
7
  6
CONTINUOUS
 10
32.8834474161
 20
19.0404981173
 11
32.895210519
 21
19.0643502578
  0
LINE
  5
7D9
100
AcDbEntity
  8
0
100
AcDbLine
 62
7
  6
CONTINUOUS
 10
3.9357998826
 20
-25.0386944513
 11
3.9292144459
 21
-25.0518545768
  0
LINE
  5
7DA
100
AcDbEntity
  8
0
100
AcDbLine
 62
7
  6
CONTINUOUS
 10
4.0327409356
 20
-24.9955767633
 11
4.0398244713
 21
-24.9821328277
  0
LINE
  5
7DB
100
AcDbEntity
  8
0
100
AcDbLine
 62
7
  6
CONTINUOUS
 10
3.9292144459
 20
-25.0518545768
 11
3.9222902825
 21
-25.0639578652
  0
LINE
  5
7DC
100
AcDbEntity
  8
0
100
AcDbLine
 62
7
  6
CONTINUOUS
 10
-9.5176026499
 20
-10.4971420523
 11
-9.5099565431
 21
-10.4856047159
  0
LINE
  5
7DD
100
AcDbEntity
  8
0
100
AcDbLine
 62
7
  6
CONTINUOUS
 10
-9.51005164
 20
-10.7801961753
 11
-9.5176939552
 21
-10.7916913315
  0
LINE
  5
7DE
100
AcDbEntity
  8
0
100
AcDbLine
 62
7
  6
CONTINUOUS
 10
-9.5344246341
 20
-10.8657457664
 11
-9.5455975585
 21
-10.8822976319
  0
LINE
  5
7DF
100
AcDbEntity
  8
RACCORDO
100
AcDbLine
 62
7
  6
CONTINUOUS
 10
-23.2892980228
 20
-5.5522065865
 11
-23.2665905288
 21
-5.5234188661
  0
LINE
  5
7E0
100
AcDbEntity
  8
RACCORDO
100
AcDbLine
 62
7
  6
CONTINUOUS
 10
-24.2253013521
 20
31.791456526
 11
-24.1930514791
 21
31.8222344084
  0
LINE
  5
7E1
100
AcDbEntity
  8
RACCORDO
100
AcDbLine
 62
7
  6
CONTINUOUS
 10
-23.6081521867
 20
31.5605450667
 11
-23.5877911056
 21
31.5797018933
  0
LINE
  5
7E2
100
AcDbEntity
  8
RACCORDO
100
AcDbLine
 62
7
  6
CONTINUOUS
 10
-29.5672006095
 20
55.0726090276
 11
-29.5959062339
 21
55.0511225077
  0
LINE
  5
7E3
100
AcDbEntity
  8
RACCORDO
100
AcDbLine
 62
7
  6
CONTINUOUS
 10
-29.5919069047
 20
54.7585808057
 11
-29.6148586898
 21
54.7422766927
  0
LINE
  5
7E4
100
AcDbEntity
  8
RACCORDO
100
AcDbLine
 62
7
  6
CONTINUOUS
 10
-29.5671728458
 20
55.0726299302
 11
-27.9588776958
 21
56.2066611607
  0
LINE
  5
7E5
100
AcDbEntity
  8
RACCORDO
100
AcDbLine
 62
7
  6
CONTINUOUS
 10
-29.009090049
 20
55.0626246605
 11
-27.4340109731
 21
56.173234739
  0
LINE
  5
7E6
100
AcDbEntity
  8
RACCORDO
100
AcDbLine
 62
7
  6
CONTINUOUS
 10
24.1546379436
 20
3.8678245559
 11
24.136944378
 21
3.8630509041
  0
LINE
  5
7E7
100
AcDbEntity
  8
RACCORDO
100
AcDbLine
 62
7
  6
CONTINUOUS
 10
-23.9099467889
 20
-4.5042199563
 11
-23.8704193968
 21
-4.4942549621
  0
LINE
  5
7E8
100
AcDbEntity
  8
RACCORDO
100
AcDbLine
 62
7
  6
CONTINUOUS
 10
33.5929893495
 20
17.9419842535
 11
33.6146387797
 21
17.9455317942
  0
LINE
  5
7E9
100
AcDbEntity
  8
RACCORDO
100
AcDbLine
 62
7
  6
CONTINUOUS
 10
-23.9919818604
 20
31.1774000596
 11
-23.9505626498
 21
31.1804247707
  0
LINE
  5
7EA
100
AcDbEntity
  8
RACCORDO
100
AcDbLine
 62
7
  6
CONTINUOUS
 10
-24.0339079044
 20
31.1763283126
 11
-23.9919818604
 21
31.1774000596
  0
LINE
  5
7EB
100
AcDbEntity
  8
RACCORDO
100
AcDbLine
 62
7
  6
CONTINUOUS
 10
-23.5105099888
 20
31.6271215155
 11
-23.5029141662
 21
31.6272247925
  0
LINE
  5
7EC
100
AcDbEntity
  8
RACCORDO
100
AcDbLine
 62
7
  6
CONTINUOUS
 10
-29.3795533903
 20
54.8077904098
 11
-29.4079958569
 21
54.8097252426
  0
LINE
  5
7ED
100
AcDbEntity
  8
RACCORDO
100
AcDbLine
 62
7
  6
CONTINUOUS
 10
-29.2570937169
 20
55.1470137725
 11
-29.2973046986
 21
55.1501381006
  0
LINE
  5
7EE
100
AcDbEntity
  8
RACCORDO
100
AcDbLine
 62
7
  6
CONTINUOUS
 10
-25.9767125918
 20
56.0047467909
 11
-25.8421185707
 21
55.9909463806
  0
LINE
  5
7EF
100
AcDbEntity
  8
RACCORDO
100
AcDbLine
 62
7
  6
CONTINUOUS
 10
-25.9228400094
 20
56.030870081
 11
-26.0990715652
 21
56.050641952
  0
LINE
  5
7F0
100
AcDbEntity
  8
RACCORDO
100
AcDbLine
 62
7
  6
CONTINUOUS
 10
36.1993130107
 20
-51.2737024933
 11
36.2587130009
 21
-51.0937517447
  0
LINE
  5
7F1
100
AcDbEntity
  8
RACCORDO
100
AcDbLine
 62
7
  6
CONTINUOUS
 10
36.2621188321
 20
-51.0221761123
 11
36.2214237391
 21
-51.1439304222
  0
LINE
  5
7F2
100
AcDbEntity
  8
RACCORDO
100
AcDbLine
 62
7
  6
CONTINUOUS
 10
33.2346433248
 20
-53.9268519026
 11
33.2418836298
 21
-53.9059748252
  0
LINE
  5
7F3
100
AcDbEntity
  8
RACCORDO
100
AcDbLine
 62
7
  6
CONTINUOUS
 10
36.2214237391
 20
-51.1439304222
 11
36.1759061339
 21
-51.2665619295
  0
LINE
  5
7F4
100
AcDbEntity
  8
0
100
AcDbLine
 62
7
  6
CONTINUOUS
 10
35.6736221363
 20
-13.4750278214
 11
35.6825623346
 21
-13.4535068772
  0
LINE
  5
7F5
100
AcDbEntity
  8
RACCORDO
100
AcDbLine
 62
7
  6
CONTINUOUS
 10
24.1200610037
 20
-32.6811148691
 11
24.1342522556
 21
-32.6476845881
  0
LINE
  5
7F6
100
AcDbEntity
  8
RACCORDO
100
AcDbLine
 62
7
  6
CONTINUOUS
 10
23.5425928432
 20
-32.8494363954
 11
23.5571543527
 21
-32.8155234031
  0
LINE
  5
7F7
100
AcDbEntity
  8
RACCORDO
100
AcDbLine
 62
7
  6
CONTINUOUS
 10
24.3150069243
 20
-32.9593232839
 11
24.2964943483
 21
-33.0006241341
  0
LINE
  5
7F8
100
AcDbEntity
  8
0
100
AcDbLine
 62
7
  6
CONTINUOUS
 10
35.6825623346
 20
-13.4535068772
 11
35.6923896414
 21
-13.4322190128
  0
LINE
  5
7F9
100
AcDbEntity
  8
RACCORDO
100
AcDbLine
 62
7
  6
CONTINUOUS
 10
24.2035262805
 20
-32.5505298198
 11
24.2022255065
 21
-32.5533402368
  0
LINE
  5
7FA
100
AcDbEntity
  8
0
100
AcDbLine
 62
7
  6
CONTINUOUS
 10
22.303500179
 20
-29.2028168957
 11
22.2951687328
 21
-29.2207661281
  0
LINE
  5
7FB
100
AcDbEntity
  8
RACCORDO
100
AcDbLine
 62
7
  6
CONTINUOUS
 10
23.5571543527
 20
-32.8155234031
 11
23.5733268789
 21
-32.7820089433
  0
LINE
  5
7FC
100
AcDbEntity
  8
0
100
AcDbLine
 62
7
  6
CONTINUOUS
 10
22.3098486103
 20
-28.8579614157
 11
22.3157458844
 21
-28.8461183633
  0
LINE
  5
7FD
100
AcDbEntity
  8
0
100
AcDbLine
 62
7
  6
CONTINUOUS
 10
22.3156713135
 20
-29.1407234839
 11
22.3097535134
 21
-29.1525528751
  0
LINE
  5
7FE
100
AcDbEntity
  8
RACCORDO
100
AcDbLine
 62
7
  6
CONTINUOUS
 10
32.895210519
 20
19.0643502578
 11
32.9082411075
 21
19.0876585921
  0
LINE
  5
7FF
100
AcDbEntity
  8
0
100
AcDbLine
 62
7
  6
CONTINUOUS
 10
3.5535713163
 20
-24.7550980967
 11
3.5604730236
 21
-24.7434529026
  0
LINE
  5
800
100
AcDbEntity
  8
0
100
AcDbLine
 62
7
  6
CONTINUOUS
 10
4.0253504915
 20
-25.0079659504
 11
4.0327409356
 21
-24.9955767633
  0
LINE
  5
801
100
AcDbEntity
  8
RACCORDO
100
AcDbLine
 62
7
  6
CONTINUOUS
 10
32.9082411075
 20
19.0876585921
 11
32.9224359
 21
19.1102383762
  0
LINE
  5
802
100
AcDbEntity
  8
0
100
AcDbLine
 62
7
  6
CONTINUOUS
 10
3.9222902825
 20
-25.0639578652
 11
3.9151347412
 21
-25.0751653604
  0
LINE
  5
803
100
AcDbEntity
  8
0
100
AcDbLine
 62
7
  6
CONTINUOUS
 10
-9.5455975585
 20
-10.8822976319
 11
-9.5553576789
 21
-10.8945176577
  0
LINE
  5
804
100
AcDbEntity
  8
RACCORDO
100
AcDbLine
 62
7
  6
CONTINUOUS
 10
-23.2665905288
 20
-5.5234188661
 11
-23.2429313534
 21
-5.4960862099
  0
LINE
  5
805
100
AcDbEntity
  8
RACCORDO
100
AcDbLine
 62
7
  6
CONTINUOUS
 10
-24.1930514791
 20
31.8222344084
 11
-24.15529995
 21
31.8523523356
  0
LINE
  5
806
100
AcDbEntity
  8
RACCORDO
100
AcDbLine
 62
7
  6
CONTINUOUS
 10
-29.027887569
 20
55.0496616559
 11
-29.0090900493
 21
55.0626246606
  0
LINE
  5
807
100
AcDbEntity
  8
RACCORDO
100
AcDbLine
 62
7
  6
CONTINUOUS
 10
-29.5522046947
 20
55.0827282517
 11
-29.5670390062
 21
55.0727243402
  0
LINE
  5
808
100
AcDbEntity
  8
RACCORDO
100
AcDbLine
 62
7
  6
CONTINUOUS
 10
33.6146387797
 20
17.9455317942
 11
33.6351417787
 21
17.9500671809
  0
LINE
  5
809
100
AcDbEntity
  8
RACCORDO
100
AcDbLine
 62
7
  6
CONTINUOUS
 10
-23.9505626498
 20
31.1804247707
 11
-23.9099448731
 21
31.185380932
  0
LINE
  5
80A
100
AcDbEntity
  8
RACCORDO
100
AcDbLine
 62
7
  6
CONTINUOUS
 10
-23.5146497669
 20
31.626708046
 11
-23.5105099888
 21
31.6271215155
  0
LINE
  5
80B
100
AcDbEntity
  8
RACCORDO
100
AcDbLine
 62
7
  6
CONTINUOUS
 10
-23.9333243416
 20
31.9398514427
 11
-23.8831217049
 21
31.94426307
  0
LINE
  5
80C
100
AcDbEntity
  8
RACCORDO
100
AcDbLine
 62
7
  6
CONTINUOUS
 10
-23.7235005128
 20
31.5489163502
 11
-23.6876789612
 21
31.5517566722
  0
LINE
  5
80D
100
AcDbEntity
  8
RACCORDO
100
AcDbLine
 62
7
  6
CONTINUOUS
 10
-26.2555861408
 20
56.016802011
 11
-26.1145273573
 21
56.0134938334
  0
LINE
  5
80E
100
AcDbEntity
  8
RACCORDO
100
AcDbLine
 62
7
  6
CONTINUOUS
 10
-26.2701081978
 20
56.0617288251
 11
-26.3636249405
 21
56.064301896
  0
LINE
  5
80F
100
AcDbEntity
  8
RACCORDO
100
AcDbLine
 62
7
  6
CONTINUOUS
 10
-26.1145273573
 20
56.0134938334
 11
-25.9767125918
 21
56.0047467909
  0
LINE
  5
810
100
AcDbEntity
  8
RACCORDO
100
AcDbLine
 62
7
  6
CONTINUOUS
 10
-26.0990715652
 20
56.050641952
 11
-26.2701081978
 21
56.0617288251
  0
LINE
  5
811
100
AcDbEntity
  8
RACCORDO
100
AcDbLine
 62
7
  6
CONTINUOUS
 10
36.1340111113
 20
-51.4450695004
 11
36.1993130107
 21
-51.2737024933
  0
LINE
  5
812
100
AcDbEntity
  8
RACCORDO
100
AcDbLine
 62
7
  6
CONTINUOUS
 10
36.1759061339
 20
-51.2665619295
 11
36.1262715656
 21
-51.3870447255
  0
LINE
  5
813
100
AcDbEntity
  8
RACCORDO
100
AcDbLine
 62
7
  6
CONTINUOUS
 10
33.6172087576
 20
-53.9905161057
 11
33.6300227767
 21
-53.9597178274
  0
LINE
  5
814
100
AcDbEntity
  8
RACCORDO
100
AcDbLine
 62
7
  6
CONTINUOUS
 10
36.0632655844
 20
-51.6077355991
 11
36.1340111113
 21
-51.4450695004
  0
LINE
  5
815
100
AcDbEntity
  8
0
100
AcDbLine
 62
7
  6
CONTINUOUS
 10
35.6923896414
 20
-13.4322190128
 11
35.7029621998
 21
-13.4115144206
  0
LINE
  5
816
100
AcDbEntity
  8
RACCORDO
100
AcDbLine
 62
7
  6
CONTINUOUS
 10
23.5733268789
 20
-32.7820089433
 11
23.5910198604
 21
-32.7490806864
  0
LINE
  5
817
100
AcDbEntity
  8
RACCORDO
100
AcDbLine
 62
7
  6
CONTINUOUS
 10
24.1342522556
 20
-32.6476845881
 11
24.151450491
 21
-32.6161371459
  0
LINE
  5
818
100
AcDbEntity
  8
RACCORDO
100
AcDbLine
 62
7
  6
CONTINUOUS
 10
24.2964943483
 20
-33.0006241341
 11
24.275547824
 21
-33.0387577791
  0
LINE
  5
819
100
AcDbEntity
  8
0
100
AcDbLine
 62
7
  6
CONTINUOUS
 10
22.2951687328
 20
-29.2207661281
 11
22.2853805193
 21
-29.2381024661
  0
LINE
  5
81A
100
AcDbEntity
  8
0
100
AcDbLine
 62
7
  6
CONTINUOUS
 10
4.0176383477
 20
-25.0192829153
 11
4.0253504915
 21
-25.0079659504
  0
LINE
  5
81B
100
AcDbEntity
  8
RACCORDO
100
AcDbLine
 62
7
  6
CONTINUOUS
 10
32.9224359
 20
19.1102383762
 11
32.9376823871
 21
19.1319106403
  0
LINE
  5
81C
100
AcDbEntity
  8
0
100
AcDbLine
 62
7
  6
CONTINUOUS
 10
3.9151347412
 20
-25.0751653604
 11
3.9077529128
 21
-25.0854931392
  0
LINE
  5
81D
100
AcDbEntity
  8
0
100
AcDbLine
 62
7
  6
CONTINUOUS
 10
-9.5269294018
 20
-10.5082598455
 11
-9.5176026499
 21
-10.4971420523
  0
LINE
  5
81E
100
AcDbEntity
  8
0
100
AcDbLine
 62
7
  6
CONTINUOUS
 10
-9.5176939552
 20
-10.7916913315
 11
-9.5270051777
 21
-10.8027686103
  0
LINE
  5
81F
100
AcDbEntity
  8
RACCORDO
100
AcDbLine
 62
7
  6
CONTINUOUS
 10
-23.2429313534
 20
-5.4960862099
 11
-23.2184529807
 21
-5.4703616721
  0
LINE
  5
820
100
AcDbEntity
  8
RACCORDO
100
AcDbLine
 62
7
  6
CONTINUOUS
 10
-23.5877911056
 20
31.5797018933
 11
-23.5639056278
 21
31.5984178396
  0
LINE
  5
821
100
AcDbEntity
  8
RACCORDO
100
AcDbLine
 62
7
  6
CONTINUOUS
 10
-29.5678845973
 20
54.7727466686
 11
-29.5919069047
 21
54.7585808057
  0
LINE
  5
822
100
AcDbEntity
  8
RACCORDO
100
AcDbLine
 62
7
  6
CONTINUOUS
 10
-29.519519563
 20
55.1017793966
 11
-29.5522046947
 21
55.0827282517
  0
LINE
  5
823
100
AcDbEntity
  8
RACCORDO
100
AcDbLine
 62
7
  6
CONTINUOUS
 10
-23.5162321081
 20
31.6264095602
 11
-23.5146497669
 21
31.626708046
  0
LINE
  5
824
100
AcDbEntity
  8
RACCORDO
100
AcDbLine
 62
7
  6
CONTINUOUS
 10
-23.9817890255
 20
31.9309216449
 11
-23.9333243416
 21
31.9398514427
  0
LINE
  5
825
100
AcDbEntity
  8
RACCORDO
100
AcDbLine
 62
7
  6
CONTINUOUS
 10
-23.6876789612
 20
31.5517566722
 11
-23.6529545871
 21
31.5578668712
  0
LINE
  5
826
100
AcDbEntity
  8
RACCORDO
100
AcDbLine
 62
7
  6
CONTINUOUS
 10
-23.9099448731
 20
31.185380932
 11
-23.8704174304
 21
31.1922332921
  0
LINE
  5
827
100
AcDbEntity
  8
RACCORDO
100
AcDbLine
 62
7
  6
CONTINUOUS
 10
-26.4317215405
 20
56.064581342
 11
-26.5628029891
 21
56.0612403162
  0
LINE
  5
828
100
AcDbEntity
  8
RACCORDO
100
AcDbLine
 62
7
  6
CONTINUOUS
 10
-26.3646487522
 20
56.0148561644
 11
-26.2555861408
 21
56.016802011
  0
LINE
  5
829
100
AcDbEntity
  8
RACCORDO
100
AcDbLine
 62
7
  6
CONTINUOUS
 10
-29.4079958569
 20
54.8097252426
 11
-29.4361901842
 21
54.8093550198
  0
LINE
  5
82A
100
AcDbEntity
  8
RACCORDO
100
AcDbLine
 62
7
  6
CONTINUOUS
 10
-29.2973046986
 20
55.1501381006
 11
-29.3368597245
 21
55.1500558538
  0
LINE
  5
82B
100
AcDbEntity
  8
RACCORDO
100
AcDbLine
 62
7
  6
CONTINUOUS
 10
-26.3636588668
 20
56.0643023455
 11
-26.4317215405
 21
56.064581342
  0
LINE
  5
82C
100
AcDbEntity
  8
RACCORDO
100
AcDbLine
 62
7
  6
CONTINUOUS
 10
36.1262715656
 20
-51.3870447255
 11
36.0728003475
 21
-51.504333943
  0
LINE
  5
82D
100
AcDbEntity
  8
RACCORDO
100
AcDbLine
 62
7
  6
CONTINUOUS
 10
33.2257984112
 20
-53.9459642953
 11
33.2346433248
 21
-53.9268519026
  0
LINE
  5
82E
100
AcDbEntity
  8
RACCORDO
100
AcDbLine
 62
7
  6
CONTINUOUS
 10
35.9875861042
 20
-51.7615812946
 11
36.0632655844
 21
-51.6077355991
  0
LINE
  5
82F
100
AcDbEntity
  8
RACCORDO
100
AcDbLine
 62
7
  6
CONTINUOUS
 10
36.0728003475
 20
-51.504333943
 11
36.015113781
 21
-51.6193195176
  0
LINE
  5
830
100
AcDbEntity
  8
0
100
AcDbLine
 62
7
  6
CONTINUOUS
 10
35.7029621998
 20
-13.4115144206
 11
35.7141152659
 21
-13.3917826083
  0
LINE
  5
831
100
AcDbEntity
  8
RACCORDO
100
AcDbLine
 62
7
  6
CONTINUOUS
 10
23.5910198604
 20
-32.7490806864
 11
23.6101342222
 21
-32.7169230208
  0
LINE
  5
832
100
AcDbEntity
  8
0
100
AcDbLine
 62
7
  6
CONTINUOUS
 10
35.7141152659
 20
-13.3917826083
 11
35.7256929106
 21
-13.3732387923
  0
LINE
  5
833
100
AcDbEntity
  8
0
100
AcDbLine
 62
7
  6
CONTINUOUS
 10
22.3022025035
 20
-28.869498752
 11
22.3098486103
 21
-28.8579614157
  0
LINE
  5
834
100
AcDbEntity
  8
0
100
AcDbLine
 62
7
  6
CONTINUOUS
 10
22.3097535134
 20
-29.1525528751
 11
22.3021111982
 21
-29.1640480313
  0
LINE
  5
835
100
AcDbEntity
  8
0
100
AcDbLine
 62
7
  6
CONTINUOUS
 10
3.5457801035
 20
-24.765553706
 11
3.5535713163
 21
-24.7550980967
  0
LINE
  5
836
100
AcDbEntity
  8
0
100
AcDbLine
 62
7
  6
CONTINUOUS
 10
4.0097199236
 20
-25.0296729008
 11
4.0176383477
 21
-25.0192829153
  0
LINE
  5
837
100
AcDbEntity
  8
RACCORDO
100
AcDbLine
 62
7
  6
CONTINUOUS
 10
32.9376823871
 20
19.1319106403
 11
32.9538597238
 21
19.1525036083
  0
LINE
  5
838
100
AcDbEntity
  8
0
100
AcDbLine
 62
7
  6
CONTINUOUS
 10
3.9077529128
 20
-25.0854931392
 11
3.9001391996
 21
-25.0949254628
  0
LINE
  5
839
100
AcDbEntity
  8
RACCORDO
100
AcDbLine
 62
7
  6
CONTINUOUS
 10
32.9538597238
 20
19.1525036083
 11
32.9708396869
 21
19.1718540581
  0
LINE
  5
83A
100
AcDbEntity
  8
RACCORDO
100
AcDbLine
 62
7
  6
CONTINUOUS
 10
-23.2184529807
 20
-5.4703616721
 11
-23.1932924819
 21
-5.446389302
  0
LINE
  5
83B
100
AcDbEntity
  8
RACCORDO
100
AcDbLine
 62
7
  6
CONTINUOUS
 10
-24.15529995
 20
31.8523523356
 11
-24.1153307295
 21
31.878265872
  0
LINE
  5
83C
100
AcDbEntity
  8
RACCORDO
100
AcDbLine
 62
7
  6
CONTINUOUS
 10
-23.5639056278
 20
31.5984178396
 11
-23.5384582709
 21
31.6146817507
  0
LINE
  5
83D
100
AcDbEntity
  8
RACCORDO
100
AcDbLine
 62
7
  6
CONTINUOUS
 10
-29.5430397319
 20
54.7846504936
 11
-29.5678845973
 21
54.7727466686
  0
LINE
  5
83E
100
AcDbEntity
  8
RACCORDO
100
AcDbLine
 62
7
  6
CONTINUOUS
 10
-29.4854005929
 20
55.117745618
 11
-29.519519563
 21
55.1017793966
  0
LINE
  5
83F
100
AcDbEntity
  8
RACCORDO
100
AcDbLine
 62
7
  6
CONTINUOUS
 10
-23.8704174304
 20
31.1922332921
 11
-23.8322614667
 21
31.2009331126
  0
LINE
  5
840
100
AcDbEntity
  8
RACCORDO
100
AcDbLine
 62
7
  6
CONTINUOUS
 10
-26.6918081698
 20
56.0528202162
 11
-26.8185660379
 21
56.0393907182
  0
LINE
  5
841
100
AcDbEntity
  8
RACCORDO
100
AcDbLine
 62
7
  6
CONTINUOUS
 10
-29.4361901842
 20
54.8093550198
 11
-29.4638235081
 21
54.8066638454
  0
LINE
  5
842
100
AcDbEntity
  8
RACCORDO
100
AcDbLine
 62
7
  6
CONTINUOUS
 10
-26.576776281
 20
55.9999770641
 11
-26.4717330403
 21
56.0092229229
  0
LINE
  5
843
100
AcDbEntity
  8
RACCORDO
100
AcDbLine
 62
7
  6
CONTINUOUS
 10
-29.3368597245
 20
55.1500558538
 11
-29.3755744434
 21
55.1467648029
  0
LINE
  5
844
100
AcDbEntity
  8
RACCORDO
100
AcDbLine
 62
7
  6
CONTINUOUS
 10
-26.5628029891
 20
56.0612403162
 11
-26.6918081698
 21
56.0528202162
  0
LINE
  5
845
100
AcDbEntity
  8
RACCORDO
100
AcDbLine
 62
7
  6
CONTINUOUS
 10
-26.4717330403
 20
56.0092229229
 11
-26.3646487522
 21
56.0148561644
  0
LINE
  5
846
100
AcDbEntity
  8
RACCORDO
100
AcDbLine
 62
7
  6
CONTINUOUS
 10
33.6021526006
 20
-54.0188312237
 11
33.6172087576
 21
-53.9905161057
  0
LINE
  5
847
100
AcDbEntity
  8
RACCORDO
100
AcDbLine
 62
7
  6
CONTINUOUS
 10
35.9402635017
 20
-51.8492009399
 11
35.9875861042
 21
-51.7615812946
  0
LINE
  5
848
100
AcDbEntity
  8
RACCORDO
100
AcDbLine
 62
7
  6
CONTINUOUS
 10
36.015113781
 20
-51.6193195176
 11
35.9531454791
 21
-51.7319146418
  0
LINE
  5
849
100
AcDbEntity
  8
RACCORDO
100
AcDbLine
 62
7
  6
CONTINUOUS
 10
35.9094684401
 20
-51.9031597412
 11
35.9402453628
 21
-51.8492323767
  0
LINE
  5
84A
100
AcDbEntity
  8
RACCORDO
100
AcDbLine
 62
7
  6
CONTINUOUS
 10
23.6101342222
 20
-32.7169230208
 11
23.6305629296
 21
-32.6857160192
  0
LINE
  5
84B
100
AcDbEntity
  8
RACCORDO
100
AcDbLine
 62
7
  6
CONTINUOUS
 10
24.275547824
 20
-33.0387577791
 11
24.2522854387
 21
-33.0734809736
  0
LINE
  5
84C
100
AcDbEntity
  8
0
100
AcDbLine
 62
7
  6
CONTINUOUS
 10
22.2853805193
 20
-29.2381024661
 11
22.2742075949
 21
-29.2546543316
  0
LINE
  5
84D
100
AcDbEntity
  8
RACCORDO
100
AcDbLine
 62
7
  6
CONTINUOUS
 10
24.151450491
 20
-32.6161371459
 11
24.1715317833
 21
-32.5866998664
  0
LINE
  5
84E
100
AcDbEntity
  8
0
100
AcDbLine
 62
7
  6
CONTINUOUS
 10
35.7256929106
 20
-13.3732387923
 11
35.7375760789
 21
-13.3559526803
  0
LINE
  5
84F
100
AcDbEntity
  8
RACCORDO
100
AcDbLine
 62
7
  6
CONTINUOUS
 10
23.6305629296
 20
-32.6857160192
 11
23.6521915882
 21
-32.6556344315
  0
LINE
  5
850
100
AcDbEntity
  8
0
100
AcDbLine
 62
7
  6
CONTINUOUS
 10
4.001598021
 20
-25.0391345618
 11
4.0097199236
 21
-25.0296729008
  0
LINE
  5
851
100
AcDbEntity
  8
0
100
AcDbLine
 62
7
  6
CONTINUOUS
 10
3.9001391996
 20
-25.0949254628
 11
3.8923849912
 21
-25.1035756026
  0
LINE
  5
852
100
AcDbEntity
  8
RACCORDO
100
AcDbLine
 62
7
  6
CONTINUOUS
 10
32.9708396869
 20
19.1718540581
 11
32.9884876917
 21
19.1898086162
  0
LINE
  5
853
100
AcDbEntity
  8
0
100
AcDbLine
 62
7
  6
CONTINUOUS
 10
-9.5378590352
 20
-10.5188682348
 11
-9.5269294018
 21
-10.5082598455
  0
LINE
  5
854
100
AcDbEntity
  8
0
100
AcDbLine
 62
7
  6
CONTINUOUS
 10
-9.5270051777
 20
-10.8027686103
 11
-9.5379175561
 21
-10.81334741
  0
LINE
  5
855
100
AcDbEntity
  8
RACCORDO
100
AcDbLine
 62
7
  6
CONTINUOUS
 10
-23.1932924819
 20
-5.446389302
 11
-23.1675907479
 21
-5.4243033371
  0
LINE
  5
856
100
AcDbEntity
  8
RACCORDO
100
AcDbLine
 62
7
  6
CONTINUOUS
 10
-23.6529545871
 20
31.5578668712
 11
-23.619577607
 21
31.5672029183
  0
LINE
  5
857
100
AcDbEntity
  8
RACCORDO
100
AcDbLine
 62
7
  6
CONTINUOUS
 10
-26.7802976729
 20
55.9709413751
 11
-26.6796174371
 21
55.9871883371
  0
LINE
  5
858
100
AcDbEntity
  8
RACCORDO
100
AcDbLine
 62
7
  6
CONTINUOUS
 10
-26.8185660379
 20
56.0393907182
 11
-26.9429226561
 21
56.0210289816
  0
LINE
  5
859
100
AcDbEntity
  8
RACCORDO
100
AcDbLine
 62
7
  6
CONTINUOUS
 10
-26.6796174371
 20
55.9871883371
 11
-26.576776281
 21
55.9999770641
  0
LINE
  5
85A
100
AcDbEntity
  8
RACCORDO
100
AcDbLine
 62
7
  6
CONTINUOUS
 10
33.2153315935
 20
-53.9632921335
 11
33.2257984112
 21
-53.9459642953
  0
LINE
  5
85B
100
AcDbEntity
  8
RACCORDO
100
AcDbLine
 62
7
  6
CONTINUOUS
 10
35.9531454791
 20
-51.7319146418
 11
35.8806341919
 21
-51.8512528519
  0
LINE
  5
85C
100
AcDbEntity
  8
RACCORDO
100
AcDbLine
 62
7
  6
CONTINUOUS
 10
35.8412925958
 20
-52.015054521
 11
35.9094684401
 21
-51.9031597412
  0
LINE
  5
85D
100
AcDbEntity
  8
0
100
AcDbLine
 62
7
  6
CONTINUOUS
 10
35.7375760789
 20
-13.3559526803
 11
35.7496238282
 21
-13.3400504412
  0
LINE
  5
85E
100
AcDbEntity
  8
RACCORDO
100
AcDbLine
 62
7
  6
CONTINUOUS
 10
23.6521915882
 20
-32.6556344315
 11
23.6748990841
 21
-32.6268467052
  0
LINE
  5
85F
100
AcDbEntity
  8
0
100
AcDbLine
 62
7
  6
CONTINUOUS
 10
22.2742075949
 20
-29.2546543316
 11
22.2644474745
 21
-29.2668743575
  0
LINE
  5
860
100
AcDbEntity
  8
RACCORDO
100
AcDbLine
 62
7
  6
CONTINUOUS
 10
24.2522854387
 20
-33.0734809736
 11
24.2265876713
 21
-33.1050378714
  0
LINE
  5
861
100
AcDbEntity
  8
0
100
AcDbLine
 62
7
  6
CONTINUOUS
 10
22.2928757516
 20
-28.8806165452
 11
22.3022025035
 21
-28.869498752
  0
LINE
  5
862
100
AcDbEntity
  8
0
100
AcDbLine
 62
7
  6
CONTINUOUS
 10
22.3021111982
 20
-29.1640480313
 11
22.2927999757
 21
-29.1751253101
  0
LINE
  5
863
100
AcDbEntity
  8
0
100
AcDbLine
 62
7
  6
CONTINUOUS
 10
3.5370906376
 20
-24.7748260603
 11
3.5457801035
 21
-24.765553706
  0
LINE
  5
864
100
AcDbEntity
  8
0
100
AcDbLine
 62
7
  6
CONTINUOUS
 10
3.9932693109
 20
-25.047669595
 11
4.001598021
 21
-25.0391345618
  0
LINE
  5
865
100
AcDbEntity
  8
0
100
AcDbLine
 62
7
  6
CONTINUOUS
 10
3.8923849912
 20
-25.1035756026
 11
3.8844886029
 21
-25.1114273125
  0
LINE
  5
866
100
AcDbEntity
  8
RACCORDO
100
AcDbLine
 62
7
  6
CONTINUOUS
 10
32.9884876917
 20
19.1898086162
 11
33.0066638583
 21
19.2062249732
  0
LINE
  5
867
100
AcDbEntity
  8
0
100
AcDbLine
 62
7
  6
CONTINUOUS
 10
-9.5503186152
 20
-10.5288988466
 11
-9.5378590352
 21
-10.5188682348
  0
LINE
  5
868
100
AcDbEntity
  8
RACCORDO
100
AcDbLine
 62
7
  6
CONTINUOUS
 10
-23.1675907479
 20
-5.4243033371
 11
-23.1414917004
 21
-5.4042274521
  0
LINE
  5
869
100
AcDbEntity
  8
RACCORDO
100
AcDbLine
 62
7
  6
CONTINUOUS
 10
-23.5384582709
 20
31.6146817507
 11
-23.5149934547
 21
31.6268381925
  0
LINE
  5
86A
100
AcDbEntity
  8
RACCORDO
100
AcDbLine
 62
7
  6
CONTINUOUS
 10
-24.1153307295
 20
31.878265872
 11
-24.0731462998
 21
31.899973725
  0
LINE
  5
86B
100
AcDbEntity
  8
RACCORDO
100
AcDbLine
 62
7
  6
CONTINUOUS
 10
-29.517369221
 20
54.7942701281
 11
-29.5430397319
 21
54.7846504936
  0
LINE
  5
86C
100
AcDbEntity
  8
RACCORDO
100
AcDbLine
 62
7
  6
CONTINUOUS
 10
-29.4499618886
 20
55.1305841705
 11
-29.4854005929
 21
55.117745618
  0
LINE
  5
86D
100
AcDbEntity
  8
RACCORDO
100
AcDbLine
 62
7
  6
CONTINUOUS
 10
-26.8790635581
 20
55.9513175536
 11
-26.7802976729
 21
55.9709413751
  0
LINE
  5
86E
100
AcDbEntity
  8
RACCORDO
100
AcDbLine
 62
7
  6
CONTINUOUS
 10
-26.9429226561
 20
56.0210289816
 11
-27.0647267807
 21
55.997844188
  0
LINE
  5
86F
100
AcDbEntity
  8
RACCORDO
100
AcDbLine
 62
7
  6
CONTINUOUS
 10
-29.4638235081
 20
54.8066638454
 11
-29.4908774088
 21
54.8016272643
  0
LINE
  5
870
100
AcDbEntity
  8
RACCORDO
100
AcDbLine
 62
7
  6
CONTINUOUS
 10
-29.3755744434
 20
55.1467648029
 11
-29.4133105395
 21
55.1402690701
  0
LINE
  5
871
100
AcDbEntity
  8
RACCORDO
100
AcDbLine
 62
7
  6
CONTINUOUS
 10
35.7697491484
 20
-52.122643539
 11
35.8412925958
 21
-52.015054521
  0
LINE
  5
872
100
AcDbEntity
  8
RACCORDO
100
AcDbLine
 62
7
  6
CONTINUOUS
 10
33.5849286357
 20
-54.0445651654
 11
33.6021526006
 21
-54.0188312237
  0
LINE
  5
873
100
AcDbEntity
  8
RACCORDO
100
AcDbLine
 62
7
  6
CONTINUOUS
 10
35.8806341919
 20
-51.8512528519
 11
35.8039188957
 21
-51.9655008756
  0
LINE
  5
874
100
AcDbEntity
  8
RACCORDO
100
AcDbLine
 62
7
  6
CONTINUOUS
 10
35.6949722434
 20
-52.2258136593
 11
35.7697491484
 21
-52.122643539
  0
LINE
  5
875
100
AcDbEntity
  8
RACCORDO
100
AcDbLine
 62
7
  6
CONTINUOUS
 10
24.1715317833
 20
-32.5866998664
 11
24.1943514309
 21
-32.5595848684
  0
LINE
  5
876
100
AcDbEntity
  8
RACCORDO
100
AcDbLine
 62
7
  6
CONTINUOUS
 10
23.6748990841
 20
-32.6268467052
 11
23.6985582625
 21
-32.5995140426
  0
LINE
  5
877
100
AcDbEntity
  8
0
100
AcDbLine
 62
7
  6
CONTINUOUS
 10
3.984840092
 20
-25.0554277543
 11
3.9932693109
 21
-25.047669595
  0
LINE
  5
878
100
AcDbEntity
  8
RACCORDO
100
AcDbLine
 62
7
  6
CONTINUOUS
 10
36.4022539435
 20
20.0242831018
 11
36.4187004297
 21
20.038135759
  0
LINE
  5
879
100
AcDbEntity
  8
RACCORDO
100
AcDbLine
 62
7
  6
CONTINUOUS
 10
36.3829231703
 20
20.0082730801
 11
36.4022539435
 21
20.0242831018
  0
LINE
  5
87A
100
AcDbEntity
  8
RACCORDO
100
AcDbLine
 62
7
  6
CONTINUOUS
 10
36.3604292402
 20
19.9901620562
 11
36.3829231703
 21
20.0082730801
  0
LINE
  5
87B
100
AcDbEntity
  8
0
100
AcDbLine
 62
7
  6
CONTINUOUS
 10
-9.5379175561
 20
-10.81334741
 11
-9.5503516885
 21
-10.8233507559
  0
LINE
  5
87C
100
AcDbEntity
  8
RACCORDO
100
AcDbLine
 62
7
  6
CONTINUOUS
 10
33.0066638583
 20
19.2062249732
 11
33.0252241206
 21
19.2209730113
  0
LINE
  5
87D
100
AcDbEntity
  8
RACCORDO
100
AcDbLine
 62
7
  6
CONTINUOUS
 10
36.3346028665
 20
19.9703811148
 11
36.3604292402
 21
19.9901620562
  0
LINE
  5
87E
100
AcDbEntity
  8
RACCORDO
100
AcDbLine
 62
7
  6
CONTINUOUS
 10
-23.1414917004
 20
-5.4042274521
 11
-23.1151414862
 21
-5.3862740656
  0
LINE
  5
87F
100
AcDbEntity
  8
RACCORDO
100
AcDbLine
 62
7
  6
CONTINUOUS
 10
-23.5149934547
 20
31.6268381925
 11
-23.5142456024
 21
31.6271851795
  0
LINE
  5
880
100
AcDbEntity
  8
0
100
AcDbLine
 62
7
  6
CONTINUOUS
 10
-23.7286778596
 20
31.2374457699
 11
-23.1953691417
 21
31.4840359191
  0
LINE
  5
881
100
AcDbEntity
  8
RACCORDO
100
AcDbLine
 62
7
  6
CONTINUOUS
 10
-23.5162831022
 20
31.6263866779
 11
-23.5162321081
 21
31.6264095602
  0
LINE
  5
882
100
AcDbEntity
  8
RACCORDO
100
AcDbLine
 62
7
  6
CONTINUOUS
 10
-23.7611378516
 20
31.2236149193
 11
-23.7286760777
 21
31.2374355776
  0
LINE
  5
883
100
AcDbEntity
  8
RACCORDO
100
AcDbLine
 62
7
  6
CONTINUOUS
 10
-29.4908774088
 20
54.8016272643
 11
-29.517369221
 21
54.7942701281
  0
LINE
  5
884
100
AcDbEntity
  8
RACCORDO
100
AcDbLine
 62
7
  6
CONTINUOUS
 10
-26.9989255177
 20
55.9220218499
 11
-26.9758077378
 21
55.9284069287
  0
LINE
  5
885
100
AcDbEntity
  8
RACCORDO
100
AcDbLine
 62
7
  6
CONTINUOUS
 10
-29.4133105395
 20
55.1402690701
 11
-29.4499618886
 21
55.1305841705
  0
LINE
  5
886
100
AcDbEntity
  8
RACCORDO
100
AcDbLine
 62
7
  6
CONTINUOUS
 10
-26.9758077378
 20
55.9284069287
 11
-26.8790635581
 21
55.9513175536
  0
LINE
  5
887
100
AcDbEntity
  8
RACCORDO
100
AcDbLine
 62
7
  6
CONTINUOUS
 10
-27.0647267807
 20
55.997844188
 11
-27.1113462329
 21
55.9869321619
  0
LINE
  5
888
100
AcDbEntity
  8
RACCORDO
100
AcDbLine
 62
7
  6
CONTINUOUS
 10
35.8039188957
 20
-51.9655008756
 11
35.7231022448
 21
-52.0745910151
  0
LINE
  5
889
100
AcDbEntity
  8
RACCORDO
100
AcDbLine
 62
7
  6
CONTINUOUS
 10
33.2032590202
 20
-53.9788561878
 11
33.2153315935
 21
-53.9632921335
  0
LINE
  5
88A
100
AcDbEntity
  8
RACCORDO
100
AcDbLine
 62
7
  6
CONTINUOUS
 10
35.617110926
 20
-52.3244697442
 11
35.6949722434
 21
-52.2258136593
  0
LINE
  5
88B
100
AcDbEntity
  8
RACCORDO
100
AcDbLine
 62
7
  6
CONTINUOUS
 10
23.6985582625
 20
-32.5995140426
 11
23.723036639
 21
-32.5737894983
  0
LINE
  5
88C
100
AcDbEntity
  8
RACCORDO
100
AcDbLine
 62
7
  6
CONTINUOUS
 10
24.2265876713
 20
-33.1050378714
 11
24.1984538834
 21
-33.1334288774
  0
LINE
  5
88D
100
AcDbEntity
  8
RACCORDO
100
AcDbLine
 62
7
  6
CONTINUOUS
 10
24.1943514309
 20
-32.5595848684
 11
24.2014407467
 21
-32.5525494634
  0
LINE
  5
88E
100
AcDbEntity
  8
0
100
AcDbLine
 62
7
  6
CONTINUOUS
 10
22.2819461182
 20
-28.8912249345
 11
22.2928757516
 21
-28.8806165452
  0
LINE
  5
88F
100
AcDbEntity
  8
0
100
AcDbLine
 62
7
  6
CONTINUOUS
 10
22.2927999757
 20
-29.1751253101
 11
22.2818875973
 21
-29.1857041098
  0
LINE
  5
890
100
AcDbEntity
  8
0
100
AcDbLine
 62
7
  6
CONTINUOUS
 10
3.8844886029
 20
-25.1114273125
 11
3.8764513159
 21
-25.1184971078
  0
LINE
  5
891
100
AcDbEntity
  8
0
100
AcDbLine
 62
7
  6
CONTINUOUS
 10
3.5275112278
 20
-24.7829091218
 11
3.5370906376
 21
-24.7748260603
  0
LINE
  5
892
100
AcDbEntity
  8
0
100
AcDbLine
 62
7
  6
CONTINUOUS
 10
3.9763039578
 20
-25.0623840593
 11
3.984840092
 21
-25.0554277543
  0
LINE
  5
893
100
AcDbEntity
  8
0
100
AcDbLine
 62
7
  6
CONTINUOUS
 10
3.8764513159
 20
-25.1184971078
 11
3.8683690315
 21
-25.1249473604
  0
LINE
  5
894
100
AcDbEntity
  8
RACCORDO
100
AcDbLine
 62
7
  6
CONTINUOUS
 10
36.3050516155
 20
19.9486345745
 11
36.3346028665
 21
19.9703811148
  0
LINE
  5
895
100
AcDbEntity
  8
RACCORDO
100
AcDbLine
 62
7
  6
CONTINUOUS
 10
36.27104594
 20
19.9239174723
 11
36.3050516155
 21
19.9486345745
  0
LINE
  5
896
100
AcDbEntity
  8
RACCORDO
100
AcDbLine
 62
7
  6
CONTINUOUS
 10
36.2318716774
 20
19.8962082679
 11
36.27104594
 21
19.9239174723
  0
LINE
  5
897
100
AcDbEntity
  8
RACCORDO
100
AcDbLine
 62
7
  6
CONTINUOUS
 10
33.0252241206
 20
19.2209730113
 11
33.0440213683
 21
19.2339358363
  0
LINE
  5
898
100
AcDbEntity
  8
RACCORDO
100
AcDbLine
 62
7
  6
CONTINUOUS
 10
36.1873389618
 20
19.8657808654
 11
36.2318716774
 21
19.8962082679
  0
LINE
  5
899
100
AcDbEntity
  8
RACCORDO
100
AcDbLine
 62
7
  6
CONTINUOUS
 10
36.1374870227
 20
19.8320929716
 11
36.1873389618
 21
19.8657808654
  0
LINE
  5
89A
100
AcDbEntity
  8
0
100
AcDbLine
 62
7
  6
CONTINUOUS
 10
-9.5642171001
 20
-10.5382783009
 11
-9.5503186152
 21
-10.5288988466
  0
LINE
  5
89B
100
AcDbEntity
  8
0
100
AcDbLine
 62
7
  6
CONTINUOUS
 10
-9.5503516885
 20
-10.8233507559
 11
-9.5642171001
 21
-10.8327058604
  0
LINE
  5
89C
100
AcDbEntity
  8
RACCORDO
100
AcDbLine
 62
7
  6
CONTINUOUS
 10
36.0821447901
 20
19.7950542678
 11
36.1374870227
 21
19.8320929716
  0
LINE
  5
89D
100
AcDbEntity
  8
RACCORDO
100
AcDbLine
 62
7
  6
CONTINUOUS
 10
36.0208159682
 20
19.7550497213
 11
36.0821447901
 21
19.7950542678
  0
LINE
  5
89E
100
AcDbEntity
  8
RACCORDO
100
AcDbLine
 62
7
  6
CONTINUOUS
 10
-23.6195781471
 20
-4.9131623947
 11
-23.5877890766
 21
-4.8935721582
  0
LINE
  5
89F
100
AcDbEntity
  8
RACCORDO
100
AcDbLine
 62
7
  6
CONTINUOUS
 10
-23.6529551151
 20
-4.9331502059
 11
-23.6195781471
 21
-4.9131623947
  0
LINE
  5
8A0
100
AcDbEntity
  8
RACCORDO
100
AcDbLine
 62
7
  6
CONTINUOUS
 10
-23.6876794745
 20
-4.9533915645
 11
-23.6529551151
 21
-4.9331502059
  0
LINE
  5
8A1
100
AcDbEntity
  8
0
100
AcDbLine
 62
7
  6
CONTINUOUS
 10
-23.7286772809
 20
-4.4359226676
 11
-21.6701216412
 21
-3.2473237134
  0
LINE
  5
8A2
100
AcDbEntity
  8
0
100
AcDbLine
 62
7
  6
CONTINUOUS
 10
-23.1151474043
 20
-5.3862706486
 11
-21.1052114685
 21
-4.2257768333
  0
LINE
  5
8A3
100
AcDbEntity
  8
RACCORDO
100
AcDbLine
 62
7
  6
CONTINUOUS
 10
-23.7235010101
 20
-4.9737406164
 11
-23.6876794745
 21
-4.9533915645
  0
LINE
  5
8A4
100
AcDbEntity
  8
RACCORDO
100
AcDbLine
 62
7
  6
CONTINUOUS
 10
-24.0731462998
 20
31.899973725
 11
-24.0285730499
 21
31.9175516794
  0
LINE
  5
8A5
100
AcDbEntity
  8
RACCORDO
100
AcDbLine
 62
7
  6
CONTINUOUS
 10
-23.619577607
 20
31.5672029183
 11
-23.5877885281
 21
31.5796975399
  0
LINE
  5
8A6
100
AcDbEntity
  8
RACCORDO
100
AcDbLine
 62
7
  6
CONTINUOUS
 10
35.7231022448
 20
-52.0745910151
 11
35.6386610308
 21
-52.178098322
  0
LINE
  5
8A7
100
AcDbEntity
  8
RACCORDO
100
AcDbLine
 62
7
  6
CONTINUOUS
 10
33.5656204161
 20
-54.0676320148
 11
33.5849286357
 21
-54.0445651654
  0
LINE
  5
8A8
100
AcDbEntity
  8
RACCORDO
100
AcDbLine
 62
7
  6
CONTINUOUS
 10
35.5363400402
 20
-52.4185320878
 11
35.617110926
 21
-52.3244697442
  0
LINE
  5
8A9
100
AcDbEntity
  8
RACCORDO
100
AcDbLine
 62
7
  6
CONTINUOUS
 10
35.6386610308
 20
-52.178098322
 11
35.5503670199
 21
-52.2763328481
  0
LINE
  5
8AA
100
AcDbEntity
  8
RACCORDO
100
AcDbLine
 62
7
  6
CONTINUOUS
 10
23.723036639
 20
-32.5737894983
 11
23.7481971425
 21
-32.5498171219
  0
LINE
  5
8AB
100
AcDbEntity
  8
0
100
AcDbLine
 62
7
  6
CONTINUOUS
 10
3.8683690315
 20
-25.1249473604
 11
3.8602391245
 21
-25.1307694694
  0
LINE
  5
8AC
100
AcDbEntity
  8
0
100
AcDbLine
 62
7
  6
CONTINUOUS
 10
3.9676669159
 20
-25.0685637567
 11
3.9763039578
 21
-25.0623840593
  0
LINE
  5
8AD
100
AcDbEntity
  8
0
100
AcDbLine
 62
7
  6
CONTINUOUS
 10
-9.5642171001
 20
-10.8327058604
 11
-9.610787202
 21
-10.8625133458
  0
LINE
  5
8AE
100
AcDbEntity
  8
RACCORDO
100
AcDbLine
 62
7
  6
CONTINUOUS
 10
35.896941396
 20
19.6766379371
 11
36.0208159682
 21
19.7550497213
  0
LINE
  5
8AF
100
AcDbEntity
  8
RACCORDO
100
AcDbLine
 62
7
  6
CONTINUOUS
 10
35.8385235061
 20
19.6400717356
 11
35.896941396
 21
19.6766379371
  0
LINE
  5
8B0
100
AcDbEntity
  8
RACCORDO
100
AcDbLine
 62
7
  6
CONTINUOUS
 10
35.7155043313
 20
19.5641445495
 11
35.8385235061
 21
19.6400717356
  0
LINE
  5
8B1
100
AcDbEntity
  8
RACCORDO
100
AcDbLine
 62
7
  6
CONTINUOUS
 10
35.584721749
 20
19.484593717
 11
35.7155043313
 21
19.5641445495
  0
LINE
  5
8B2
100
AcDbEntity
  8
RACCORDO
100
AcDbLine
 62
7
  6
CONTINUOUS
 10
35.446492474
 20
19.4016801044
 11
35.584721749
 21
19.484593717
  0
LINE
  5
8B3
100
AcDbEntity
  8
0
100
AcDbLine
 62
7
  6
CONTINUOUS
 10
-9.7439703468
 20
-10.2339661499
 11
-10.213188952
 21
-10.5146941252
  0
LINE
  5
8B4
100
AcDbEntity
  8
0
100
AcDbLine
 62
7
  6
CONTINUOUS
 10
-9.5642171001
 20
-10.5382783009
 11
-9.8628743189
 21
-10.7169614039
  0
LINE
  5
8B5
100
AcDbEntity
  8
RACCORDO
100
AcDbLine
 62
7
  6
CONTINUOUS
 10
35.4357614345
 20
19.3952988983
 11
35.446492474
 21
19.4016801044
  0
LINE
  5
8B6
100
AcDbEntity
  8
RACCORDO
100
AcDbLine
 62
7
  6
CONTINUOUS
 10
33.0440213683
 20
19.2339358363
 11
34.7933239018
 21
20.2439514739
  0
LINE
  5
8B7
100
AcDbEntity
  8
RACCORDO
100
AcDbLine
 62
7
  6
CONTINUOUS
 10
33.6543570906
 20
17.9555550984
 11
35.4994616177
 21
19.0208850741
  0
LINE
  5
8B8
100
AcDbEntity
  8
RACCORDO
100
AcDbLine
 62
7
  6
CONTINUOUS
 10
35.0856902618
 20
20.0016129374
 11
35.1678720198
 21
20.0474250705
  0
LINE
  5
8B9
100
AcDbEntity
  8
RACCORDO
100
AcDbLine
 62
7
  6
CONTINUOUS
 10
-23.7601616009
 20
-4.9940507314
 11
-23.7235010101
 21
-4.9737406164
  0
LINE
  5
8BA
100
AcDbEntity
  8
RACCORDO
100
AcDbLine
 62
7
  6
CONTINUOUS
 10
35.1678720198
 20
20.0474250705
 11
35.3055183084
 21
20.1233693268
  0
LINE
  5
8BB
100
AcDbEntity
  8
RACCORDO
100
AcDbLine
 62
7
  6
CONTINUOUS
 10
35.3055183084
 20
20.1233693268
 11
35.436303062
 21
20.1944022349
  0
LINE
  5
8BC
100
AcDbEntity
  8
RACCORDO
100
AcDbLine
 62
7
  6
CONTINUOUS
 10
-23.7973970796
 20
-5.0141755598
 11
-23.7601616009
 21
-4.9940507314
  0
LINE
  5
8BD
100
AcDbEntity
  8
RACCORDO
100
AcDbLine
 62
7
  6
CONTINUOUS
 10
35.436303062
 20
20.1944022349
 11
35.49903917
 21
20.2280757067
  0
LINE
  5
8BE
100
AcDbEntity
  8
RACCORDO
100
AcDbLine
 62
7
  6
CONTINUOUS
 10
35.49903917
 20
20.2280757067
 11
35.559911147
 21
20.2603913653
  0
LINE
  5
8BF
100
AcDbEntity
  8
RACCORDO
100
AcDbLine
 62
7
  6
CONTINUOUS
 10
-23.7611399185
 20
-4.4530658361
 11
-23.7286781493
 21
-4.4358970016
  0
LINE
  5
8C0
100
AcDbEntity
  8
RACCORDO
100
AcDbLine
 62
7
  6
CONTINUOUS
 10
-23.8349391367
 20
-5.0339700872
 11
-23.7973970796
 21
-5.0141755598
  0
LINE
  5
8C1
100
AcDbEntity
  8
RACCORDO
100
AcDbLine
 62
7
  6
CONTINUOUS
 10
-23.8725172533
 20
-5.053291679
 11
-23.8349391367
 21
-5.0339700872
  0
LINE
  5
8C2
100
AcDbEntity
  8
RACCORDO
100
AcDbLine
 62
7
  6
CONTINUOUS
 10
-23.9098606508
 20
-5.0720011087
 11
-23.8725172533
 21
-5.053291679
  0
LINE
  5
8C3
100
AcDbEntity
  8
RACCORDO
100
AcDbLine
 62
7
  6
CONTINUOUS
 10
-23.7957483721
 20
31.2114185147
 11
-23.7611378516
 21
31.2236149193
  0
LINE
  5
8C4
100
AcDbEntity
  8
RACCORDO
100
AcDbLine
 62
7
  6
CONTINUOUS
 10
35.4994616177
 20
-52.4580130115
 11
35.5363400402
 21
-52.4185320878
  0
LINE
  5
8C5
100
AcDbEntity
  8
RACCORDO
100
AcDbLine
 62
7
  6
CONTINUOUS
 10
33.1897161144
 20
-53.9925125688
 11
33.2032590202
 21
-53.9788561878
  0
LINE
  5
8C6
100
AcDbEntity
  8
RACCORDO
100
AcDbLine
 62
7
  6
CONTINUOUS
 10
35.5503670199
 20
-52.2763328481
 11
35.4994616177
 21
-52.3276133092
  0
LINE
  5
8C7
100
AcDbEntity
  8
RACCORDO
100
AcDbLine
 62
7
  6
CONTINUOUS
 10
23.7481971425
 20
-32.5498171219
 11
23.7738988818
 21
-32.5277311512
  0
LINE
  5
8C8
100
AcDbEntity
  8
RACCORDO
100
AcDbLine
 62
7
  6
CONTINUOUS
 10
24.1984538834
 20
-33.1334288774
 11
24.1650347514
 21
-33.1610453328
  0
LINE
  5
8C9
100
AcDbEntity
  8
0
100
AcDbLine
 62
7
  6
CONTINUOUS
 10
22.2694865382
 20
-28.9012555463
 11
22.2819461182
 21
-28.8912249345
  0
LINE
  5
8CA
100
AcDbEntity
  8
0
100
AcDbLine
 62
7
  6
CONTINUOUS
 10
22.2818875973
 20
-29.1857041098
 11
22.2694534649
 21
-29.1957074556
  0
LINE
  5
8CB
100
AcDbEntity
  8
0
100
AcDbLine
 62
7
  6
CONTINUOUS
 10
3.9590539689
 20
-25.0741918872
 11
3.9676669159
 21
-25.0685637567
  0
LINE
  5
8CC
100
AcDbEntity
  8
0
100
AcDbLine
 62
7
  6
CONTINUOUS
 10
3.5195173006
 20
-24.7881288804
 11
3.5275112278
 21
-24.7829091218
  0
LINE
  5
8CD
100
AcDbEntity
  8
0
100
AcDbLine
 62
7
  6
CONTINUOUS
 10
3.8602391245
 20
-25.1307694694
 11
3.8520639313
 21
-25.1359722285
  0
LINE
  5
8CE
100
AcDbEntity
  8
0
100
AcDbLine
 62
7
  6
CONTINUOUS
 10
-3.8345935251
 20
-19.5630279864
 11
-3.9409256983
 21
-19.6244228506
  0
LINE
  5
8CF
100
AcDbEntity
  8
0
100
AcDbLine
 62
7
  6
CONTINUOUS
 10
-3.3856881993
 20
-19.8222202954
 11
-3.4920203725
 21
-19.8836151596
  0
LINE
  5
8D0
100
AcDbEntity
  8
RACCORDO
100
AcDbLine
 62
7
  6
CONTINUOUS
 10
35.559911147
 20
20.2603913653
 11
35.6897448962
 21
20.3284816089
  0
LINE
  5
8D1
100
AcDbEntity
  8
0
100
AcDbLine
 62
7
  6
CONTINUOUS
 10
-12.013408498
 20
-8.9758591752
 11
-12.4689358621
 21
-9.2122541305
  0
LINE
  5
8D2
100
AcDbEntity
  8
0
100
AcDbLine
 62
7
  6
CONTINUOUS
 10
-11.8951689494
 20
-8.9918910376
 11
-12.3983442997
 21
-9.2530128138
  0
LINE
  5
8D3
100
AcDbEntity
  8
0
100
AcDbLine
 62
7
  6
CONTINUOUS
 10
-11.3779210533
 20
-9.0022255453
 11
-11.3628076194
 21
-8.9945526565
  0
LINE
  5
8D4
100
AcDbEntity
  8
0
100
AcDbLine
 62
7
  6
CONTINUOUS
 10
-9.7377739016
 20
-9.9327112566
 11
-9.7529989424
 21
-9.9404352071
  0
LINE
  5
8D5
100
AcDbEntity
  8
RACCORDO
100
AcDbLine
 62
7
  6
CONTINUOUS
 10
35.6897448962
 20
20.3284816089
 11
35.7550485176
 21
20.3616015846
  0
LINE
  5
8D6
100
AcDbEntity
  8
0
100
AcDbLine
 62
7
  6
CONTINUOUS
 10
-12.0135117523
 20
-8.9759128538
 11
-12.0054524325
 21
-8.9719082372
  0
LINE
  5
8D7
100
AcDbEntity
  8
RACCORDO
100
AcDbLine
 62
7
  6
CONTINUOUS
 10
35.7550485176
 20
20.3616015846
 11
35.8147904066
 21
20.391019856
  0
LINE
  5
8D8
100
AcDbEntity
  8
RACCORDO
100
AcDbLine
 62
7
  6
CONTINUOUS
 10
-23.9467002419
 20
-5.0899635609
 11
-23.9098606508
 21
-5.0720011087
  0
LINE
  5
8D9
100
AcDbEntity
  8
RACCORDO
100
AcDbLine
 62
7
  6
CONTINUOUS
 10
35.8147904066
 20
20.391019856
 11
35.8688853013
 21
20.4173587438
  0
LINE
  5
8DA
100
AcDbEntity
  8
RACCORDO
100
AcDbLine
 62
7
  6
CONTINUOUS
 10
35.8688853013
 20
20.4173587438
 11
35.9174969891
 21
20.4407211767
  0
LINE
  5
8DB
100
AcDbEntity
  8
RACCORDO
100
AcDbLine
 62
7
  6
CONTINUOUS
 10
-23.9827705698
 20
-5.1070496025
 11
-23.9467002419
 21
-5.0899635609
  0
LINE
  5
8DC
100
AcDbEntity
  8
RACCORDO
100
AcDbLine
 62
7
  6
CONTINUOUS
 10
35.9174969891
 20
20.4407211767
 11
35.9610755823
 21
20.4608018748
  0
LINE
  5
8DD
100
AcDbEntity
  8
RACCORDO
100
AcDbLine
 62
7
  6
CONTINUOUS
 10
-24.0178117204
 20
-5.1231361157
 11
-23.9827705698
 21
-5.1070496025
  0
LINE
  5
8DE
100
AcDbEntity
  8
RACCORDO
100
AcDbLine
 62
7
  6
CONTINUOUS
 10
-23.7957504177
 20
-4.4685866182
 11
-23.7611399185
 21
-4.4530658361
  0
LINE
  5
8DF
100
AcDbEntity
  8
RACCORDO
100
AcDbLine
 62
7
  6
CONTINUOUS
 10
35.9610755823
 20
20.4608018748
 11
35.9994788581
 21
20.4779021319
  0
LINE
  5
8E0
100
AcDbEntity
  8
RACCORDO
100
AcDbLine
 62
7
  6
CONTINUOUS
 10
-24.0515711961
 20
-5.1381071853
 11
-24.0178117204
 21
-5.1231361157
  0
LINE
  5
8E1
100
AcDbEntity
  8
RACCORDO
100
AcDbLine
 62
7
  6
CONTINUOUS
 10
35.9994788581
 20
20.4779021319
 11
36.0330825144
 21
20.4926297242
  0
LINE
  5
8E2
100
AcDbEntity
  8
RACCORDO
100
AcDbLine
 62
7
  6
CONTINUOUS
 10
-23.8322614667
 20
31.2009331126
 11
-23.7957483721
 21
31.2114185147
  0
LINE
  5
8E3
100
AcDbEntity
  8
RACCORDO
100
AcDbLine
 62
7
  6
CONTINUOUS
 10
-24.0285730499
 20
31.9175516794
 11
-23.9817890255
 21
31.9309216449
  0
LINE
  5
8E4
100
AcDbEntity
  8
RACCORDO
100
AcDbLine
 62
7
  6
CONTINUOUS
 10
33.5442639405
 20
-54.0879789194
 11
33.5656204161
 21
-54.0676320148
  0
LINE
  5
8E5
100
AcDbEntity
  8
RACCORDO
100
AcDbLine
 62
7
  6
CONTINUOUS
 10
23.7738988818
 20
-32.5277311512
 11
23.7999979351
 21
-32.5076552609
  0
LINE
  5
8E6
100
AcDbEntity
  8
0
100
AcDbLine
 62
7
  6
CONTINUOUS
 10
23.8263752986
 20
-32.4897175418
 11
24.2123143819
 21
-32.2175791234
  0
LINE
  5
8E7
100
AcDbEntity
  8
0
100
AcDbLine
 62
7
  6
CONTINUOUS
 10
22.2555880533
 20
-28.9106350007
 11
22.2694865382
 21
-28.9012555463
  0
LINE
  5
8E8
100
AcDbEntity
  8
0
100
AcDbLine
 62
7
  6
CONTINUOUS
 10
22.2694534649
 20
-29.1957074556
 11
22.2555880533
 21
-29.2050625602
  0
LINE
  5
8E9
100
AcDbEntity
  8
0
100
AcDbLine
 62
7
  6
CONTINUOUS
 10
3.9531637227
 20
-25.0777553987
 11
3.9590539689
 21
-25.0741918872
  0
LINE
  5
8EA
100
AcDbEntity
  8
0
100
AcDbLine
 62
7
  6
CONTINUOUS
 10
3.8520639313
 20
-25.1359722285
 11
3.8467335911
 21
-25.139135098
  0
LINE
  5
8EB
100
AcDbEntity
  8
0
100
AcDbLine
 62
7
  6
CONTINUOUS
 10
-2.6194312287
 20
-20.2646474668
 11
-2.725763402
 21
-20.326042331
  0
LINE
  5
8EC
100
AcDbEntity
  8
0
100
AcDbLine
 62
7
  6
CONTINUOUS
 10
-2.2064745046
 20
-20.5030835038
 11
-2.3128066778
 21
-20.5644783679
  0
LINE
  5
8ED
100
AcDbEntity
  8
0
100
AcDbLine
 62
7
  6
CONTINUOUS
 10
-1.9965606036
 20
-20.624157721
 11
-2.1028927692
 21
-20.6855525807
  0
LINE
  5
8EE
100
AcDbEntity
  8
0
100
AcDbLine
 62
7
  6
CONTINUOUS
 10
-1.5833217438
 20
-20.8627566595
 11
-1.6896539095
 21
-20.9241515193
  0
LINE
  5
8EF
100
AcDbEntity
  8
0
100
AcDbLine
 62
7
  6
CONTINUOUS
 10
-1.1891705851
 20
-21.0904620371
 11
-1.2955027583
 21
-21.1518569012
  0
LINE
  5
8F0
100
AcDbEntity
  8
0
100
AcDbLine
 62
7
  6
CONTINUOUS
 10
-2.6857308972
 20
-22.3308315963
 11
-2.7922045771
 21
-22.3923081646
  0
LINE
  5
8F1
100
AcDbEntity
  8
0
100
AcDbLine
 62
7
  6
CONTINUOUS
 10
-0.7762732579
 20
-21.328863779
 11
-0.8826054311
 21
-21.3902586431
  0
LINE
  5
8F2
100
AcDbEntity
  8
0
100
AcDbLine
 62
7
  6
CONTINUOUS
 10
0.0458401986
 20
-21.8035417852
 11
-0.0604919746
 21
-21.8649366494
  0
LINE
  5
8F3
100
AcDbEntity
  8
0
100
AcDbLine
 62
7
  6
CONTINUOUS
 10
-1.4262181564
 20
-23.0580584675
 11
-1.5326918363
 21
-23.1195350358
  0
LINE
  5
8F4
100
AcDbEntity
  8
0
100
AcDbLine
 62
7
  6
CONTINUOUS
 10
0.454699239
 20
-22.039611871
 11
0.3483670658
 21
-22.1010067351
  0
LINE
  5
8F5
100
AcDbEntity
  8
0
100
AcDbLine
 62
7
  6
CONTINUOUS
 10
-0.8154942722
 20
-23.4106827841
 11
-0.921967952
 21
-23.4721593524
  0
LINE
  5
8F6
100
AcDbEntity
  8
0
100
AcDbLine
 62
7
  6
CONTINUOUS
 10
1.4741612484
 20
-22.6282364583
 11
1.3678290752
 21
-22.6896313225
  0
LINE
  5
8F7
100
AcDbEntity
  8
0
100
AcDbLine
 62
7
  6
CONTINUOUS
 10
-0.1835819332
 20
-23.7755410489
 11
-0.290055613
 21
-23.8370176172
  0
LINE
  5
8F8
100
AcDbEntity
  8
0
100
AcDbLine
 62
7
  6
CONTINUOUS
 10
1.8739205316
 20
-22.8590524583
 11
1.7675883584
 21
-22.9204473225
  0
LINE
  5
8F9
100
AcDbEntity
  8
0
100
AcDbLine
 62
7
  6
CONTINUOUS
 10
0.7969177854
 20
-24.3416692979
 11
0.6904441056
 21
-24.4031458662
  0
LINE
  5
8FA
100
AcDbEntity
  8
0
100
AcDbLine
 62
7
  6
CONTINUOUS
 10
2.6962515904
 20
-23.3586655204
 11
2.5899179395
 21
-23.4200612378
  0
LINE
  5
8FB
100
AcDbEntity
  8
0
100
AcDbLine
 62
7
  6
CONTINUOUS
 10
1.5581618888
 20
-24.0403985276
 11
1.4517418054
 21
-24.1018441499
  0
LINE
  5
8FC
100
AcDbEntity
  8
0
100
AcDbLine
 62
7
  6
CONTINUOUS
 10
1.4190550803
 20
-24.7008835747
 11
1.3125814004
 21
-24.762360143
  0
LINE
  5
8FD
100
AcDbEntity
  8
0
100
AcDbLine
 62
7
  6
CONTINUOUS
 10
3.7175460605
 20
-23.9707010351
 11
3.6112110745
 21
-24.0320975233
  0
LINE
  5
8FE
100
AcDbEntity
  8
0
100
AcDbLine
 62
7
  6
CONTINUOUS
 10
3.1582451472
 20
-24.5416029528
 11
3.051853783
 21
-24.6030319931
  0
LINE
  5
8FF
100
AcDbEntity
  8
0
100
AcDbLine
 62
7
  6
CONTINUOUS
 10
3.3944070665
 20
-24.6779598852
 11
3.2880157022
 21
-24.7393889255
  0
LINE
  5
900
100
AcDbEntity
  8
0
100
AcDbLine
 62
7
  6
CONTINUOUS
 10
2.6384331472
 20
-25.4049371882
 11
2.5319594674
 21
-25.4664137565
  0
LINE
  5
901
100
AcDbEntity
  8
0
100
AcDbLine
 62
7
  6
CONTINUOUS
 10
3.7451842504
 20
-25.1720195424
 11
3.7302277591
 21
-25.180655233
  0
LINE
  5
902
100
AcDbEntity
  8
0
100
AcDbLine
 62
7
  6
CONTINUOUS
 10
3.2632803411
 20
-25.7657163907
 11
3.1568066613
 21
-25.827192959
  0
LINE
  5
903
100
AcDbEntity
  8
0
100
AcDbLine
 62
7
  6
CONTINUOUS
 10
4.1065136147
 20
-25.6868540139
 11
4.0000812423
 21
-25.7483067318
  0
LINE
  5
904
100
AcDbEntity
  8
0
100
AcDbLine
 62
7
  6
CONTINUOUS
 10
4.2935864461
 20
-26.3606022229
 11
4.1871127663
 21
-26.4220787912
  0
LINE
  5
905
100
AcDbEntity
  8
0
100
AcDbLine
 62
7
  6
CONTINUOUS
 10
3.9531414761
 20
-25.077720771
 11
3.8439468643
 21
-25.1407440557
  0
LINE
  5
906
100
AcDbEntity
  8
0
100
AcDbLine
 62
7
  6
CONTINUOUS
 10
-12.013408498
 20
-8.9758591752
 11
-12.0054771157
 21
-8.9722735068
  0
LINE
  5
907
100
AcDbEntity
  8
RACCORDO
100
AcDbLine
 62
7
  6
CONTINUOUS
 10
-24.0838057342
 20
-5.1518549333
 11
-24.0515711961
 21
-5.1381071853
  0
LINE
  5
908
100
AcDbEntity
  8
0
100
AcDbLine
 62
7
  6
CONTINUOUS
 10
-12.0054524325
 20
-8.9719082372
 11
-11.984917004
 21
-8.9632603634
  0
LINE
  5
909
100
AcDbEntity
  8
RACCORDO
100
AcDbLine
 62
7
  6
CONTINUOUS
 10
36.0330825144
 20
20.4926297242
 11
36.0631216011
 21
20.5051140449
  0
LINE
  5
90A
100
AcDbEntity
  8
RACCORDO
100
AcDbLine
 62
7
  6
CONTINUOUS
 10
-24.1142830608
 20
-5.1642802969
 11
-24.0838057342
 21
-5.1518549333
  0
LINE
  5
90B
100
AcDbEntity
  8
RACCORDO
100
AcDbLine
 62
7
  6
CONTINUOUS
 10
36.0631216011
 20
20.5051140449
 11
36.090048389
 21
20.5155471302
  0
LINE
  5
90C
100
AcDbEntity
  8
RACCORDO
100
AcDbLine
 62
7
  6
CONTINUOUS
 10
-24.1427835637
 20
-5.175293742
 11
-24.1142830608
 21
-5.1642802969
  0
LINE
  5
90D
100
AcDbEntity
  8
RACCORDO
100
AcDbLine
 62
7
  6
CONTINUOUS
 10
-23.8322634776
 20
-4.4823489553
 11
-23.7957504177
 21
-4.4685866182
  0
LINE
  5
90E
100
AcDbEntity
  8
RACCORDO
100
AcDbLine
 62
7
  6
CONTINUOUS
 10
36.090048389
 20
20.5155471302
 11
36.1135742123
 21
20.5242910973
  0
LINE
  5
90F
100
AcDbEntity
  8
RACCORDO
100
AcDbLine
 62
7
  6
CONTINUOUS
 10
36.1135742123
 20
20.5242910973
 11
36.1337896983
 21
20.5316156303
  0
LINE
  5
910
100
AcDbEntity
  8
RACCORDO
100
AcDbLine
 62
7
  6
CONTINUOUS
 10
23.7999979351
 20
-32.5076552609
 11
23.8263481557
 21
-32.4897018697
  0
LINE
  5
911
100
AcDbEntity
  8
RACCORDO
100
AcDbLine
 62
7
  6
CONTINUOUS
 10
24.1650347514
 20
-33.1610453328
 11
24.1291810194
 21
-33.1845826377
  0
LINE
  5
912
100
AcDbEntity
  8
0
100
AcDbLine
 62
7
  6
CONTINUOUS
 10
22.2555880533
 20
-29.2050625602
 11
22.2090179514
 21
-29.2348700455
  0
LINE
  5
913
100
AcDbEntity
  8
0
100
AcDbLine
 62
7
  6
CONTINUOUS
 10
35.7496238282
 20
-19.114825554
 11
35.7375760789
 21
-19.1223288745
  0
LINE
  5
914
100
AcDbEntity
  8
0
100
AcDbLine
 62
7
  6
CONTINUOUS
 10
22.0758348066
 20
-28.6063228496
 11
21.6066162014
 21
-28.887050825
  0
LINE
  5
915
100
AcDbEntity
  8
0
100
AcDbLine
 62
7
  6
CONTINUOUS
 10
22.2555880533
 20
-28.9106350007
 11
21.9569308345
 21
-29.0893181036
  0
LINE
  5
916
100
AcDbEntity
  8
0
100
AcDbLine
 62
7
  6
CONTINUOUS
 10
3.5170032365
 20
-24.7895067612
 11
3.5195173006
 21
-24.7881288804
  0
LINE
  5
917
100
AcDbEntity
  8
0
100
AcDbLine
 62
7
  6
CONTINUOUS
 10
3.8439468643
 20
-25.1407440557
 11
3.8358967925
 21
-25.1451011221
  0
LINE
  5
918
100
AcDbEntity
  8
0
100
AcDbLine
 62
7
  6
CONTINUOUS
 10
3.8358967925
 20
-25.1451011221
 11
3.8279046561
 21
-25.149027384
  0
LINE
  5
919
100
AcDbEntity
  8
0
100
AcDbLine
 62
7
  6
CONTINUOUS
 10
-11.3628076194
 20
-8.9945526565
 11
-11.3477991365
 21
-8.9884361065
  0
LINE
  5
91A
100
AcDbEntity
  8
0
100
AcDbLine
 62
7
  6
CONTINUOUS
 10
-9.722684652
 20
-9.9265773041
 11
-9.7377739016
 21
-9.9327112566
  0
LINE
  5
91B
100
AcDbEntity
  8
RACCORDO
100
AcDbLine
 62
7
  6
CONTINUOUS
 10
-24.1691018754
 20
-5.1848159086
 11
-24.1427835637
 21
-5.175293742
  0
LINE
  5
91C
100
AcDbEntity
  8
RACCORDO
100
AcDbLine
 62
7
  6
CONTINUOUS
 10
-24.1930483527
 20
-5.1927781821
 11
-24.1691018754
 21
-5.1848159086
  0
LINE
  5
91D
100
AcDbEntity
  8
RACCORDO
100
AcDbLine
 62
7
  6
CONTINUOUS
 10
-23.8704193968
 20
-4.4942549621
 11
-23.8322634776
 21
-4.4823489553
  0
LINE
  5
91E
100
AcDbEntity
  8
RACCORDO
100
AcDbLine
 62
7
  6
CONTINUOUS
 10
33.6351417787
 20
17.9500671809
 11
33.6543523735
 21
17.9555581234
  0
LINE
  5
91F
100
AcDbEntity
  8
RACCORDO
100
AcDbLine
 62
7
  6
CONTINUOUS
 10
33.1746889066
 20
-54.0042411301
 11
33.1897161144
 21
-53.9925125688
  0
LINE
  5
920
100
AcDbEntity
  8
RACCORDO
100
AcDbLine
 62
7
  6
CONTINUOUS
 10
33.5209485015
 20
-54.1055390673
 11
33.5442639405
 21
-54.0879789194
  0
LINE
  5
921
100
AcDbEntity
  8
0
100
AcDbLine
 62
7
  6
CONTINUOUS
 10
19.8063966554
 20
-27.348215875
 11
19.3508692913
 21
-27.5846108302
  0
LINE
  5
922
100
AcDbEntity
  8
0
100
AcDbLine
 62
7
  6
CONTINUOUS
 10
19.924636204
 20
-27.3642477373
 11
19.4214608537
 21
-27.6253695136
  0
LINE
  5
923
100
AcDbEntity
  8
0
100
AcDbLine
 62
7
  6
CONTINUOUS
 10
20.4418841001
 20
-27.374582245
 11
20.456997534
 21
-27.3669093562
  0
LINE
  5
924
100
AcDbEntity
  8
0
100
AcDbLine
 62
7
  6
CONTINUOUS
 10
22.0820312518
 20
-28.3050679564
 11
22.066806211
 21
-28.3127919068
  0
LINE
  5
925
100
AcDbEntity
  8
0
100
AcDbLine
 62
7
  6
CONTINUOUS
 10
19.8062934011
 20
-27.3482695535
 11
19.8143527209
 21
-27.344264937
  0
LINE
  5
926
100
AcDbEntity
  8
0
100
AcDbLine
 62
7
  6
CONTINUOUS
 10
3.8279046561
 20
-25.149027384
 11
3.8200470294
 21
-25.1526629004
  0
LINE
  5
927
100
AcDbEntity
  8
0
100
AcDbLine
 62
7
  6
CONTINUOUS
 10
3.8200470294
 20
-25.1526629004
 11
3.8123450277
 21
-25.1560242984
  0
LINE
  5
928
100
AcDbEntity
  8
0
100
AcDbLine
 62
7
  6
CONTINUOUS
 10
3.5054854137
 20
-24.7945015227
 11
3.5170032365
 21
-24.7895067612
  0
LINE
  5
929
100
AcDbEntity
  8
RACCORDO
100
AcDbLine
 62
7
  6
CONTINUOUS
 10
24.1984572241
 20
3.8815874346
 11
24.1751915939
 21
3.8740182762
  0
LINE
  5
92A
100
AcDbEntity
  8
0
100
AcDbLine
 62
7
  6
CONTINUOUS
 10
-11.984917004
 20
-8.9632603634
 11
-11.9636623027
 21
-8.9564669858
  0
LINE
  5
92B
100
AcDbEntity
  8
0
100
AcDbLine
 62
7
  6
CONTINUOUS
 10
-11.3477991365
 20
-8.9884361065
 11
-11.3330072159
 21
-8.9839300944
  0
LINE
  5
92C
100
AcDbEntity
  8
0
100
AcDbLine
 62
7
  6
CONTINUOUS
 10
-12.0054771157
 20
-8.9722735068
 11
-11.9935141956
 21
-8.9686401818
  0
LINE
  5
92D
100
AcDbEntity
  8
RACCORDO
100
AcDbLine
 62
7
  6
CONTINUOUS
 10
24.1751915939
 20
3.8740182762
 11
24.1546379436
 21
3.8678245559
  0
LINE
  5
92E
100
AcDbEntity
  8
RACCORDO
100
AcDbLine
 62
7
  6
CONTINUOUS
 10
33.6351462316
 20
-53.6967047482
 11
33.6543570906
 21
-53.6838804984
  0
LINE
  5
92F
100
AcDbEntity
  8
RACCORDO
100
AcDbLine
 62
7
  6
CONTINUOUS
 10
24.1291810194
 20
-33.1845826377
 11
24.0908902053
 21
-33.2040423659
  0
LINE
  5
930
100
AcDbEntity
  8
RACCORDO
100
AcDbLine
 62
7
  6
CONTINUOUS
 10
24.20617289
 20
-32.5434593353
 11
24.1832894241
 21
-32.5548732336
  0
LINE
  5
931
100
AcDbEntity
  8
0
100
AcDbLine
 62
7
  6
CONTINUOUS
 10
35.7375760789
 20
-19.1223288745
 11
35.7256929106
 21
-19.1277408942
  0
LINE
  5
932
100
AcDbEntity
  8
0
100
AcDbLine
 62
7
  6
CONTINUOUS
 10
19.8063966554
 20
-27.348215875
 11
19.8143280377
 21
-27.3446302066
  0
LINE
  5
933
100
AcDbEntity
  8
0
100
AcDbLine
 62
7
  6
CONTINUOUS
 10
19.8143527209
 20
-27.344264937
 11
19.8348881494
 21
-27.3356170631
  0
LINE
  5
934
100
AcDbEntity
  8
0
100
AcDbLine
 62
7
  6
CONTINUOUS
 10
3.8123450277
 20
-25.1560242984
 11
3.8047774041
 21
-25.1590950388
  0
LINE
  5
935
100
AcDbEntity
  8
0
100
AcDbLine
 62
7
  6
CONTINUOUS
 10
3.8047774041
 20
-25.1590950388
 11
3.7901501938
 21
-25.1647433294
  0
LINE
  5
936
100
AcDbEntity
  8
0
100
AcDbLine
 62
7
  6
CONTINUOUS
 10
3.7901501938
 20
-25.1647433294
 11
3.7830905241
 21
-25.167320935
  0
LINE
  5
937
100
AcDbEntity
  8
0
100
AcDbLine
 62
7
  6
CONTINUOUS
 10
-9.7078435608
 20
-9.92207919
 11
-9.722684652
 21
-9.9265773041
  0
LINE
  5
938
100
AcDbEntity
  8
RACCORDO
100
AcDbLine
 62
7
  6
CONTINUOUS
 10
33.1581900851
 20
-54.0140630266
 11
33.1746889066
 21
-54.0042411301
  0
LINE
  5
939
100
AcDbEntity
  8
RACCORDO
100
AcDbLine
 62
7
  6
CONTINUOUS
 10
33.4957745475
 20
-54.1202533523
 11
33.5209485015
 21
-54.1055390673
  0
LINE
  5
93A
100
AcDbEntity
  8
RACCORDO
100
AcDbLine
 62
7
  6
CONTINUOUS
 10
33.6146429352
 20
-53.7085212031
 11
33.6351462316
 21
-53.6967047482
  0
LINE
  5
93B
100
AcDbEntity
  8
0
100
AcDbLine
 62
7
  6
CONTINUOUS
 10
20.456997534
 20
-27.3669093562
 11
20.4720060169
 21
-27.3607928063
  0
LINE
  5
93C
100
AcDbEntity
  8
0
100
AcDbLine
 62
7
  6
CONTINUOUS
 10
22.0971205014
 20
-28.2989340038
 11
22.0820312518
 21
-28.3050679564
  0
LINE
  5
93D
100
AcDbEntity
  8
0
100
AcDbLine
 62
7
  6
CONTINUOUS
 10
35.6375172362
 20
-18.2436507655
 11
36.0651470427
 21
-18.0907854472
  0
LINE
  5
93E
100
AcDbEntity
  8
0
100
AcDbLine
 62
7
  6
CONTINUOUS
 10
3.7830905241
 20
-25.167320935
 11
3.7759940584
 21
-25.169464816
  0
LINE
  5
93F
100
AcDbEntity
  8
RACCORDO
100
AcDbLine
 62
7
  6
CONTINUOUS
 10
33.5929931798
 20
-53.7192457328
 11
33.6146429352
 21
-53.7085212031
  0
LINE
  5
940
100
AcDbEntity
  8
RACCORDO
100
AcDbLine
 62
7
  6
CONTINUOUS
 10
33.4871270976
 20
-54.1244527759
 11
33.4957745475
 21
-54.1202533523
  0
LINE
  5
941
100
AcDbEntity
  8
RACCORDO
100
AcDbLine
 62
7
  6
CONTINUOUS
 10
24.0908902053
 20
-33.2040423659
 11
24.0499992563
 21
-33.219494206
  0
LINE
  5
942
100
AcDbEntity
  8
RACCORDO
100
AcDbLine
 62
7
  6
CONTINUOUS
 10
24.1832894241
 20
-32.5548732336
 11
24.1588993614
 21
-32.5637638615
  0
LINE
  5
943
100
AcDbEntity
  8
0
100
AcDbLine
 62
7
  6
CONTINUOUS
 10
19.8348881494
 20
-27.3356170631
 11
19.8561428507
 21
-27.3288236856
  0
LINE
  5
944
100
AcDbEntity
  8
0
100
AcDbLine
 62
7
  6
CONTINUOUS
 10
20.4720060169
 20
-27.3607928063
 11
20.4867979375
 21
-27.3562867942
  0
LINE
  5
945
100
AcDbEntity
  8
0
100
AcDbLine
 62
7
  6
CONTINUOUS
 10
19.8143280377
 20
-27.3446302066
 11
19.8262909578
 21
-27.3409968815
  0
LINE
  5
946
100
AcDbEntity
  8
0
100
AcDbLine
 62
7
  6
CONTINUOUS
 10
22.1119615926
 20
-28.2944358898
 11
22.0971205014
 21
-28.2989340038
  0
LINE
  5
947
100
AcDbEntity
  8
RACCORDO
100
AcDbLine
 62
7
  6
CONTINUOUS
 10
33.6543570906
 20
-53.6838804984
 11
35.4994616177
 21
-52.830737172
  0
LINE
  5
948
100
AcDbEntity
  8
RACCORDO
100
AcDbLine
 62
7
  6
CONTINUOUS
 10
33.4870860489
 20
-54.1244717606
 11
35.2660024633
 21
-53.3019326334
  0
LINE
  5
949
100
AcDbEntity
  8
RACCORDO
100
AcDbLine
 62
7
  6
CONTINUOUS
 10
33.474751244
 20
-54.1299543704
 11
33.487094702
 21
-54.1244638743
  0
LINE
  5
94A
100
AcDbEntity
  8
RACCORDO
100
AcDbLine
 62
7
  6
CONTINUOUS
 10
33.1403948592
 20
-54.0218964781
 11
33.1581900851
 21
-54.0140630266
  0
LINE
  5
94B
100
AcDbEntity
  8
RACCORDO
100
AcDbLine
 62
7
  6
CONTINUOUS
 10
33.5703511066
 20
-53.7288019812
 11
33.5929931798
 21
-53.7192457328
  0
LINE
  5
94C
100
AcDbEntity
  8
RACCORDO
100
AcDbLine
 62
7
  6
CONTINUOUS
 10
33.4383049564
 20
-54.143754366
 11
33.474751244
 21
-54.1299543704
  0
LINE
  5
94D
100
AcDbEntity
  8
RACCORDO
100
AcDbLine
 62
7
  6
CONTINUOUS
 10
33.5468779217
 20
-53.7371219101
 11
33.5703511066
 21
-53.7288019812
  0
LINE
  5
94E
100
AcDbEntity
  8
RACCORDO
100
AcDbLine
 62
7
  6
CONTINUOUS
 10
33.1212935324
 20
-54.0277231481
 11
33.1403948592
 21
-54.0218964781
  0
LINE
  5
94F
100
AcDbEntity
  8
RACCORDO
100
AcDbLine
 62
7
  6
CONTINUOUS
 10
33.5227407483
 20
-53.7441462836
 11
33.5468779217
 21
-53.7371219101
  0
LINE
  5
950
100
AcDbEntity
  8
RACCORDO
100
AcDbLine
 62
7
  6
CONTINUOUS
 10
33.4001814642
 20
-54.1546570203
 11
33.4383049564
 21
-54.143754366
  0
ELLIPSE
  5
951
100
AcDbEntity
  8
RACCORDO
100
AcDbEllipse
 62
7
  6
CONTINUOUS
 10
34.7913844414
 20
-52.4196628608
 30
0.0
 11
-0.5013954353
 21
0.868386877
 31
0.0
 40
0.5757524875
 41
-3.193807042
 42
-2.3576120761
  0
ELLIPSE
  5
952
100
AcDbEntity
  8
RACCORDO
100
AcDbEllipse
 62
7
  6
CONTINUOUS
 10
34.7913844414
 20
19.4274805376
 30
0.0
 11
-0.5000243598
 21
0.8660113392
 31
0.0
 40
0.5789151826
 41
-2.3548735497
 42
-0.7868162787
  0
ELLIPSE
  5
953
100
AcDbEntity
  8
0
100
AcDbEllipse
 62
7
  6
CONTINUOUS
 10
31.2910284214
 20
-11.9933165033
 30
0.0
 11
5.1478346794
 21
0.9575482268
 31
0.0
 40
0.6665647798
 41
-0.659806461
 42
-0.2750682551
  0
ELLIPSE
  5
954
100
AcDbEntity
  8
0
100
AcDbEllipse
 62
7
  6
CONTINUOUS
 10
-21.1036599001
 20
-3.5726000842
 30
0.0
 11
-0.4000194878
 21
0.6928090714
 31
0.0
 40
0.5789151826
 41
0.7867191038
 42
2.3547763749
  0
ELLIPSE
  5
955
100
AcDbEntity
  8
RACCORDO
100
AcDbEllipse
 62
7
  6
CONTINUOUS
 10
-27.4320715127
 20
55.3545241624
 30
0.0
 11
-0.5013954353
 21
0.868386877
 31
0.0
 40
0.5757524875
 41
-0.7840766935
 42
0.0522143884
  0
ELLIPSE
  5
956
100
AcDbEntity
  8
0
100
AcDbEllipse
 62
7
  6
CONTINUOUS
 10
117.4575660909
 20
56.4500086027
 30
0.0
 11
39.1800363569
 21
166.771600627
 31
0.0
 40
0.6952787603
 41
-4.0582710037
 42
-4.0520519271
  0
ELLIPSE
  5
957
100
AcDbEntity
  8
0
100
AcDbEllipse
 62
7
  6
CONTINUOUS
 10
117.337571284
 20
56.5192921003
 30
0.0
 11
36.3273260789
 21
167.8500336627
 31
0.0
 40
0.6986691259
 41
-4.0633258715
 42
-4.0599783714
  0
ELLIPSE
  5
958
100
AcDbEntity
  8
0
100
AcDbEllipse
 62
7
  6
CONTINUOUS
 10
122.1977612998
 20
53.7130792976
 30
0.0
 11
114.3785628885
 21
126.8331436935
 31
0.0
 40
0.3814884295
 41
-3.7749997375
 42
-3.7582407772
  0
ELLIPSE
  5
959
100
AcDbEntity
  8
0
100
AcDbEllipse
 62
7
  6
CONTINUOUS
 10
121.2912675747
 20
54.2364774135
 30
0.0
 11
119.2955655771
 21
123.9425008751
 31
0.0
 40
0.3418816387
 41
2.5114106547
 42
2.5207125223
  0
ELLIPSE
  5
95A
100
AcDbEntity
  8
0
100
AcDbEllipse
 62
7
  6
CONTINUOUS
 10
117.6492013446
 20
56.3393608089
 30
0.0
 11
74.860692141
 21
150.1514847236
 31
0.0
 40
0.6139811386
 41
-3.8879057392
 42
-3.8770055701
  0
ELLIPSE
  5
95B
100
AcDbEntity
  8
0
100
AcDbEllipse
 62
7
  6
CONTINUOUS
 10
113.8146910289
 20
58.5533590075
 30
0.0
 11
10.3359625088
 21
176.147449689
 31
0.0
 40
0.7160762854
 41
-4.1952960075
 42
-4.1843502229
  0
ELLIPSE
  5
95C
100
AcDbEntity
  8
0
100
AcDbEllipse
 62
7
  6
CONTINUOUS
 10
117.6636450332
 20
56.3310212041
 30
0.0
 11
94.1614645594
 21
139.0072043829
 31
0.0
 40
0.5232362147
 41
-3.818611197
 42
-3.8018522366
  0
ELLIPSE
  5
95D
100
AcDbEntity
  8
0
100
AcDbEllipse
 62
7
  6
CONTINUOUS
 10
111.6068483188
 20
59.8281397176
 30
0.0
 11
25.197493157
 21
171.7264306672
 31
0.0
 40
0.7088651675
 41
-4.1305439516
 42
-4.1137849913
  0
ELLIPSE
  5
95E
100
AcDbEntity
  8
0
100
AcDbEllipse
 62
7
  6
CONTINUOUS
 10
117.8673499851
 20
56.213404518
 30
0.0
 11
112.0796125288
 21
128.1997887921
 31
0.0
 40
0.3995644544
 41
2.5056447912
 42
2.5171780801
  0
ELLIPSE
  5
95F
100
AcDbEntity
  8
0
100
AcDbEllipse
 62
7
  6
CONTINUOUS
 10
122.2607969834
 20
53.676683284
 30
0.0
 11
111.5409348807
 21
128.3466174189
 31
0.0
 40
0.4029729773
 41
-3.7711474679
 42
-3.7672052666
  0
ELLIPSE
  5
960
100
AcDbEntity
  8
0
100
AcDbEllipse
 62
7
  6
CONTINUOUS
 10
118.5822563477
 20
55.8006265441
 30
0.0
 11
114.8996317544
 21
126.3505868295
 31
0.0
 40
0.3765254089
 41
-3.7743605251
 42
-3.7575864559
  0
ELLIPSE
  5
961
100
AcDbEntity
  8
0
100
AcDbEllipse
 62
7
  6
CONTINUOUS
 10
112.3915335784
 20
59.3750722831
 30
0.0
 11
34.8790515577
 21
168.2218372011
 31
0.0
 40
0.7002280922
 41
-4.083553027
 42
-4.0732562346
  0
ELLIPSE
  5
962
100
AcDbEntity
  8
0
100
AcDbEllipse
 62
7
  6
CONTINUOUS
 10
122.2607969834
 20
53.676683284
 30
0.0
 11
111.6408621069
 21
128.46160051
 31
0.0
 40
0.4029729773
 41
-3.7734975727
 42
-3.7672784961
  0
ELLIPSE
  5
963
100
AcDbEntity
  8
0
100
AcDbEllipse
 62
7
  6
CONTINUOUS
 10
117.4007485802
 20
56.4828143212
 30
0.0
 11
27.7199550573
 21
170.8927161612
 31
0.0
 40
0.7069483398
 41
-4.1184032562
 42
-4.1016442958
  0
ELLIPSE
  5
964
100
AcDbEntity
  8
0
100
AcDbEllipse
 62
7
  6
CONTINUOUS
 10
122.3461619998
 20
53.6273945934
 30
0.0
 11
112.3368188975
 21
128.0464503217
 31
0.0
 40
0.3975597956
 41
-3.7638120257
 42
-3.7604645255
  0
ELLIPSE
  5
965
100
AcDbEntity
  8
0
100
AcDbEllipse
 62
7
  6
CONTINUOUS
 10
114.2047047279
 20
58.3281699857
 30
0.0
 11
11.1244698303
 21
175.9326856508
 31
0.0
 40
0.7158559188
 41
-4.1974141895
 42
-4.1881123219
  0
ELLIPSE
  5
966
100
AcDbEntity
  8
0
100
AcDbEllipse
 62
7
  6
CONTINUOUS
 10
117.7680892071
 20
56.2707164472
 30
0.0
 11
70.6979803911
 21
152.386377754
 31
0.0
 40
0.6282888553
 41
-3.9123652881
 42
-3.8956063278
  0
ELLIPSE
  5
967
100
AcDbEntity
  8
0
100
AcDbEllipse
 62
7
  6
CONTINUOUS
 10
121.7081897193
 20
53.9957517925
 30
0.0
 11
119.7380480774
 21
123.6846625809
 31
0.0
 40
0.3382731367
 41
-3.7657717072
 42
-3.7548715381
  0
ELLIPSE
  5
968
100
AcDbEntity
  8
0
100
AcDbEllipse
 62
7
  6
CONTINUOUS
 10
117.8383228896
 20
56.2301643991
 30
0.0
 11
91.8754124545
 21
140.3767918018
 31
0.0
 40
0.5363054271
 41
-3.8203908374
 42
-3.8094450528
  0
ELLIPSE
  5
969
100
AcDbEntity
  8
0
100
AcDbEllipse
 62
7
  6
CONTINUOUS
 10
31.2910284214
 20
-17.4000956742
 30
0.0
 11
5.1774686765
 21
-0.6785096723
 31
0.0
 40
0.4693271057
 41
-0.4750202125
 42
-0.0902820066
  0
ELLIPSE
  5
96A
100
AcDbEntity
  8
0
100
AcDbEllipse
 62
7
  6
CONTINUOUS
 10
117.8383228896
 20
56.2301643991
 30
0.0
 11
91.793176838
 21
140.2511436908
 31
0.0
 40
0.5363054271
 41
-3.8172892496
 42
-3.8093664661
  0
ELLIPSE
  5
96B
100
AcDbEntity
  8
0
100
AcDbEllipse
 62
7
  6
CONTINUOUS
 10
112.3915335784
 20
59.3750722831
 30
0.0
 11
34.9102989816
 21
168.3725436803
 31
0.0
 40
0.7002280922
 41
-4.0836165049
 42
-4.072083216
  0
ELLIPSE
  5
96C
100
AcDbEntity
  8
0
100
AcDbEllipse
 62
7
  6
CONTINUOUS
 10
118.5822563477
 20
55.8006265441
 30
0.0
 11
115.0025679679
 21
126.4637817179
 31
0.0
 40
0.3765254089
 41
-3.774424003
 42
-3.7576650427
  0
ELLIPSE
  5
96D
100
AcDbEntity
  8
0
100
AcDbEllipse
 62
7
  6
CONTINUOUS
 10
121.7081897193
 20
53.9957517925
 30
0.0
 11
119.630873242
 21
123.5739552196
 31
0.0
 40
0.3382731367
 41
-3.7633732141
 42
-3.7547929514
  0
ELLIPSE
  5
96E
100
AcDbEntity
  8
0
100
AcDbEllipse
 62
7
  6
CONTINUOUS
 10
117.7680892071
 20
56.2707164472
 30
0.0
 11
70.634700218
 21
152.2499801326
 31
0.0
 40
0.6282888553
 41
-3.9123018102
 42
-3.8955277411
  0
ELLIPSE
  5
96F
100
AcDbEntity
  8
0
100
AcDbEllipse
 62
7
  6
CONTINUOUS
 10
114.2047047279
 20
58.3281699857
 30
0.0
 11
11.1145125674
 21
175.7752122584
 31
0.0
 40
0.7158559188
 41
-4.1973507117
 42
-4.1888571326
  0
ELLIPSE
  5
970
100
AcDbEntity
  8
0
100
AcDbEllipse
 62
7
  6
CONTINUOUS
 10
122.3461619998
 20
53.6273945934
 30
0.0
 11
112.236268736
 21
127.9318388222
 31
0.0
 40
0.3975597956
 41
-3.7627502891
 42
-3.7603859388
  0
ELLIPSE
  5
971
100
AcDbEntity
  8
0
100
AcDbEllipse
 62
7
  6
CONTINUOUS
 10
117.4007485802
 20
56.4828143212
 30
0.0
 11
27.6951435486
 21
170.7397539322
 31
0.0
 40
0.7069483398
 41
-4.1183397783
 42
-4.1015657091
  0
ENDSEC
  0
SECTION
  2
OBJECTS
  0
DICTIONARY
  5
C
100
AcDbDictionary
280
0
281
1
  3
ACAD_GROUP
350
D
  3
ACAD_MLINESTYLE
350
17
  3
ACAD_LAYOUT
350
1A
  3
ACAD_PLOTSETTINGS
350
19
  3
ACAD_PLOTSTYLENAME
350
E
  0
DICTIONARY
  5
D
102
{ACAD_REACTORS
330
C
102
}
100
AcDbDictionary
280
0
281
1
  0
ACDBDICTIONARYWDFLT
  5
E
102
{ACAD_REACTORS
330
C
102
}
100
AcDbDictionary
281
1
  3
Normal
350
F
100
AcDbDictionaryWithDefault
340
F
  0
DICTIONARY
  5
17
102
{ACAD_REACTORS
330
C
102
}
100
AcDbDictionary
280
0
281
1
  3
Standard
350
18
  0
DICTIONARY
  5
19
102
{ACAD_REACTORS
330
C
102
}
100
AcDbDictionary
281
1
  0
DICTIONARY
  5
1A
102
{ACAD_REACTORS
330
C
102
}
100
AcDbDictionary
281
1
  3
Model
350
972
  3
Layout1
350
973
  0
ACDBPLACEHOLDER
  5
F
102
{ACAD_REACTORS
330
E
102
}
  0
MLINESTYLE
  5
18
102
{ACAD_REACTORS
330
17
102
}
100
AcDbMlineStyle
  2
STANDARD
 70
0
  3

 62
256
 51
90.0
 52
90.0
 71
2
 49
0.5
 62
256
  6
BYLAYER
 49
-0.5
 62
256
  6
BYLAYER
  0
LAYOUT
  5
972
102
{ACAD_REACTORS
330
1A
102
}
100
AcDbPlotSettings
  1

  2
none_device
  4
ISO_A4_(297.00_x_210.00_MM)
  6

 40
0.0
 41
0.0
 42
0.0
 43
0.0
 44
297.0
 45
210.0
 46
0.0
 47
0.0
 48
0.0
 49
0.0
140
0.0
141
0.0
142
1.0
143
1.0
 70
1024
 72
1
 73
0
 74
0
  7

 75
0
147
1.0
148
0.0
149
0.0
100
AcDbLayout
  1
Model
 70
0
 71
0
 10
0.0
 20
0.0
 11
297.0
 21
210.0
 12
0.0
 22
0.0
 32
0.0
 14
0.0
 24
0.0
 34
0.0
 15
0.0
 25
0.0
 35
0.0
146
0.0
 13
0.0
 23
0.0
 33
0.0
 16
1.0
 26
0.0
 36
0.0
 17
0.0
 27
1.0
 37
0.0
 76
0
330
218
345
0
346
0
  0
LAYOUT
  5
973
102
{ACAD_REACTORS
330
1A
102
}
100
AcDbPlotSettings
  1

  2
none_device
  4
ISO_A4_(297.00_x_210.00_MM)
  6

 40
0.0
 41
0.0
 42
0.0
 43
0.0
 44
297.0
 45
210.0
 46
0.0
 47
0.0
 48
0.0
 49
0.0
140
0.0
141
0.0
142
1.0
143
1.0
 70
0
 72
1
 73
0
 74
0
  7

 75
0
147
1.0
148
0.0
149
0.0
100
AcDbLayout
  1
Layout1
 70
0
 71
1
 10
0.0
 20
0.0
 11
297.0
 21
210.0
 12
0.0
 22
0.0
 32
0.0
 14
0.0
 24
0.0
 34
0.0
 15
0.0
 25
0.0
 35
0.0
146
0.0
 13
0.0
 23
0.0
 33
0.0
 16
1.0
 26
0.0
 36
0.0
 17
0.0
 27
1.0
 37
0.0
 76
0
330
219
345
0
346
0
  0
ENDSEC
  0
EOF
