  0
SECTION
  2
HEADER
  9
$ACADVER
  1
AC1021
  9
$DWGCODEPAGE
  3
ANSI_1252
  9
$EXTMAX
 10
297.0
 20
210.0
 30
0.0
  9
$EXTMIN
 10
0.0
 20
0.0
 30
0.0
  9
$LIMMIN
 10
0.0
 20
0.0
  9
$LIMMAX
 10
297.0
 20
210.0
  9
$VIEWCTR
 10
148.5
 20
105.0
  9
$VIEWSIZE
 40
210.0
  9
$CLAYER
  8
0
  9
$LTSCALE
 40
16.335
  9
$CELTYPE
  6
BYLAYER
  9
$DIMSCALE
 40
1.0
  9
$DIMASZ
 40
3.0
  9
$DIMEXO
 40
0.5
  9
$DIMDLI
 40
11.286
  9
$DIMEXE
 40
1.5
  9
$DIMCEN
 40
2.673
  9
$DIMLFAC
 40
1.0
  9
$DIMBLK
  1
_FILLED
  9
$DIMALT
 70
0
  9
$DIMALTF
 40
25.4
  9
$DIMTXT
 40
3.0
  9
$DIMTOL
 70
1
  9
$DIMLIM
 70
0
  9
$DIMTFAC
 40
1.0
  9
$DIMTP
 40
0.01
  9
$DIMTM
 40
0.01
  9
$DIMGAP
 40
0.625
  9
$DIMDSEP
 70
44
  9
$AUNITS
 70
0
  9
$PDMODE
 70
3
  9
$PDSIZE
 40
3.0
  9
$HANDSEED
  5
950
  9
$TILEMODE
 70
1
  9
$MEASUREMENT
 70
1
  9
$INSUNITS
 70
4
  0
ENDSEC
  0
SECTION
  2
CLASSES
  0
CLASS
  1
ACDBDICTIONARYWDFLT
  2
AcDbDictionaryWithDefault
  3
AutoCAD 2000
 90
0
 91
1
280
0
281
0
  0
CLASS
  1
ACDBPLACEHOLDER
  2
AcDbPlaceHolder
  3
AutoCAD 2000
 90
0
 91
1
280
0
281
0
  0
CLASS
  1
LAYOUT
  2
AcDbLayout
  3
AutoCAD 2000
 90
0
 91
0
280
0
281
0
  0
ENDSEC
  0
SECTION
  2
TABLES
  0
TABLE
  2
VPORT
  5
8
100
AcDbSymbolTable
 70
2
  0
VPORT
  5
1F4
100
AcDbSymbolTableRecord
100
AcDbViewportTableRecord
  2
*ACTIVE
 70
0
 10
0.0
 20
0.0
 11
1.0
 21
1.0
 12
148.5
 22
105.0
 13
0.0
 23
0.0
 14
1.0
 24
1.0
 15
0.0
 25
0.0
 16
0.0
 26
0.0
 36
1.0
 17
0.0
 27
0.0
 37
0.0
 40
210.0
 41
1.4142857143
 42
50.0
 43
0.0
 44
0.0
 50
0.0
 51
0.0
 71
0
 72
100
 73
1
 74
1
 75
0
 76
0
 77
0
 78
0
  0
ENDTAB
  0
TABLE
  2
LTYPE
  5
5
100
AcDbSymbolTable
 70
6
  0
LTYPE
  5
14
100
AcDbSymbolTableRecord
100
AcDbLinetypeTableRecord
  2
BYBLOCK
 70
0
  3

 72
65
 73
0
 40
0.0
  0
LTYPE
  5
15
100
AcDbSymbolTableRecord
100
AcDbLinetypeTableRecord
  2
BYLAYER
 70
0
  3

 72
65
 73
0
 40
0.0
  0
LTYPE
  5
16
100
AcDbSymbolTableRecord
100
AcDbLinetypeTableRecord
  2
CONTINUOUS
 70
64
  3
Solid line
 72
65
 73
0
 40
0.0
  0
LTYPE
  5
1F5
100
AcDbSymbolTableRecord
100
AcDbLinetypeTableRecord
  2
CENTER
 70
64
  3
____ _ ____ _ ____ _ ____ _ ____ _ ____ _ ____
 72
65
 73
4
 40
0.6
 49
0.375
 74
0
 49
-0.075
 74
0
 49
0.075
 74
0
 49
-0.075
 74
0
  0
LTYPE
  5
1F6
100
AcDbSymbolTableRecord
100
AcDbLinetypeTableRecord
  2
HIDDEN
 70
64
  3
- - - - - - - - - - - - - - - - - - - -
 72
65
 73
2
 40
0.2
 49
0.1
 74
0
 49
-0.1
 74
0
  0
LTYPE
  5
1F7
100
AcDbSymbolTableRecord
100
AcDbLinetypeTableRecord
  2
PHANTOM
 70
64
  3
_____ _ _ _____ _ _ _____ _ _ _____
 72
65
 73
6
 40
0.8
 49
0.45
 74
0
 49
-0.05
 74
0
 49
0.1
 74
0
 49
-0.05
 74
0
 49
0.1
 74
0
 49
-0.05
 74
0
  0
LTYPE
  5
1F8
100
AcDbSymbolTableRecord
100
AcDbLinetypeTableRecord
  2
DOT
 70
64
  3
. . . . . . . . . . . . . . . . . . . .
 72
65
 73
2
 40
0.2
 49
0.1
 74
0
 49
-0.1
 74
0
  0
LTYPE
  5
1F9
100
AcDbSymbolTableRecord
100
AcDbLinetypeTableRecord
  2
DASHED
 70
64
  3
- - - - - - - - - - - - - - - - - - - -
 72
65
 73
2
 40
0.2
 49
0.1
 74
0
 49
-0.1
 74
0
  0
ENDTAB
  0
TABLE
  2
LAYER
  5
2
100
AcDbSymbolTable
 70
36
  0
LAYER
  5
10
100
AcDbSymbolTableRecord
100
AcDbLayerTableRecord
  2
0
 70
0
 62
7
  6
CONTINUOUS
370
-3
390
F
  0
LAYER
  5
1FA
100
AcDbSymbolTableRecord
100
AcDbLayerTableRecord
  2
DEFAULT_1
 70
0
 62
7
  6
CENTER
370
-3
390
F
  0
LAYER
  5
1FB
100
AcDbSymbolTableRecord
100
AcDbLayerTableRecord
  2
DEFAULT_2
 70
0
 62
7
  6
HIDDEN
370
-3
390
F
  0
LAYER
  5
1FC
100
AcDbSymbolTableRecord
100
AcDbLayerTableRecord
  2
DEFAULT_3
 70
0
 62
7
  6
PHANTOM
370
-3
390
F
  0
LAYER
  5
1FD
100
AcDbSymbolTableRecord
100
AcDbLayerTableRecord
  2
ASSI
 70
0
 62
7
  6
CONTINUOUS
370
-3
390
F
  0
LAYER
  5
1FE
100
AcDbSymbolTableRecord
100
AcDbLayerTableRecord
  2
COORDINATE
 70
0
 62
7
  6
CONTINUOUS
370
-3
390
F
  0
LAYER
  5
1FF
100
AcDbSymbolTableRecord
100
AcDbLayerTableRecord
  2
COPY_PUBLISH
 70
0
 62
7
  6
CONTINUOUS
370
-3
390
F
  0
LAYER
  5
200
100
AcDbSymbolTableRecord
100
AcDbLayerTableRecord
  2
COSMETIC
 70
0
 62
7
  6
CONTINUOUS
370
-3
390
F
  0
LAYER
  5
201
100
AcDbSymbolTableRecord
100
AcDbLayerTableRecord
  2
COSMETICI
 70
0
 62
7
  6
CONTINUOUS
370
-3
390
F
  0
LAYER
  5
202
100
AcDbSymbolTableRecord
100
AcDbLayerTableRecord
  2
CURVE
 70
0
 62
7
  6
CONTINUOUS
370
-3
390
F
  0
LAYER
  5
203
100
AcDbSymbolTableRecord
100
AcDbLayerTableRecord
  2
CURVE_VERN
 70
0
 62
7
  6
CONTINUOUS
370
-3
390
F
  0
LAYER
  5
204
100
AcDbSymbolTableRecord
100
AcDbLayerTableRecord
  2
DRAFT
 70
0
 62
7
  6
CONTINUOUS
370
-3
390
F
  0
LAYER
  5
205
100
AcDbSymbolTableRecord
100
AcDbLayerTableRecord
  2
IMPORT_IGES
 70
0
 62
7
  6
CONTINUOUS
370
-3
390
F
  0
LAYER
  5
206
100
AcDbSymbolTableRecord
100
AcDbLayerTableRecord
  2
INTFCLR_1
 70
0
 62
7
  6
CONTINUOUS
370
-3
390
F
  0
LAYER
  5
207
100
AcDbSymbolTableRecord
100
AcDbLayerTableRecord
  2
INTF_1
 70
0
 62
7
  6
CONTINUOUS
370
-3
390
F
  0
LAYER
  5
208
100
AcDbSymbolTableRecord
100
AcDbLayerTableRecord
  2
INTF_7
 70
0
 62
7
  6
CONTINUOUS
370
-3
390
F
  0
LAYER
  5
209
100
AcDbSymbolTableRecord
100
AcDbLayerTableRecord
  2
INTF_CYAN
 70
0
 62
7
  6
CONTINUOUS
370
-3
390
F
  0
LAYER
  5
20A
100
AcDbSymbolTableRecord
100
AcDbLayerTableRecord
  2
NOTE
 70
0
 62
7
  6
CONTINUOUS
370
-3
390
F
  0
LAYER
  5
20B
100
AcDbSymbolTableRecord
100
AcDbLayerTableRecord
  2
PIANI
 70
0
 62
7
  6
CONTINUOUS
370
-3
390
F
  0
LAYER
  5
20C
100
AcDbSymbolTableRecord
100
AcDbLayerTableRecord
  2
PUNTI
 70
0
 62
7
  6
CONTINUOUS
370
-3
390
F
  0
LAYER
  5
20D
100
AcDbSymbolTableRecord
100
AcDbLayerTableRecord
  2
RACCORDO
 70
0
 62
7
  6
CONTINUOUS
370
-3
390
F
  0
LAYER
  5
20E
100
AcDbSymbolTableRecord
100
AcDbLayerTableRecord
  2
RGB__255__255__255__
 70
0
 62
7
  6
CONTINUOUS
370
-3
390
F
  0
LAYER
  5
20F
100
AcDbSymbolTableRecord
100
AcDbLayerTableRecord
  2
RGB____0____0____0__
 70
0
 62
7
  6
CONTINUOUS
370
-3
390
F
  0
LAYER
  5
210
100
AcDbSymbolTableRecord
100
AcDbLayerTableRecord
  2
SIMBOLI
 70
0
 62
7
  6
CONTINUOUS
370
-3
390
F
  0
LAYER
  5
211
100
AcDbSymbolTableRecord
100
AcDbLayerTableRecord
  2
SMUSSO
 70
0
 62
7
  6
CONTINUOUS
370
-3
390
F
  0
LAYER
  5
212
100
AcDbSymbolTableRecord
100
AcDbLayerTableRecord
  2
SNAPLINE
 70
0
 62
7
  6
CONTINUOUS
370
-3
390
F
  0
LAYER
  5
213
100
AcDbSymbolTableRecord
100
AcDbLayerTableRecord
  2
SUPERFICI
 70
0
 62
7
  6
CONTINUOUS
370
-3
390
F
  0
LAYER
  5
214
100
AcDbSymbolTableRecord
100
AcDbLayerTableRecord
  2
TRASH
 70
0
 62
7
  6
CONTINUOUS
370
-3
390
F
  0
LAYER
  5
215
100
AcDbSymbolTableRecord
100
AcDbLayerTableRecord
  2
XSEC_DATUMS
 70
0
 62
7
  6
CONTINUOUS
370
-3
390
F
  0
ENDTAB
  0
TABLE
  2
STYLE
  5
3
100
AcDbSymbolTable
 70
1
  0
STYLE
  5
11
100
AcDbSymbolTableRecord
100
AcDbTextStyleTableRecord
  2
STANDARD
 70
0
 40
0.0
 41
0.8
 50
0.0
 71
0
 42
0.2
  3
txt
  4

  0
STYLE
  5
216
100
AcDbSymbolTableRecord
100
AcDbTextStyleTableRecord
  2
TEXTSTYLE_1
 70
0
 40
0.0
 41
0.8
 50
0.0
 71
0
 42
0.2
  3
gdt
  4

  0
ENDTAB
  0
TABLE
  2
VIEW
  5
6
100
AcDbSymbolTable
 70
0
  0
ENDTAB
  0
TABLE
  2
UCS
  5
7
100
AcDbSymbolTable
 70
0
  0
ENDTAB
  0
TABLE
  2
APPID
  5
9
100
AcDbSymbolTable
 70
1
  0
APPID
  5
217
100
AcDbSymbolTableRecord
100
AcDbRegAppTableRecord
  2
ACAD
 70
0
  0
ENDTAB
  0
TABLE
  2
BLOCK_RECORD
  5
1
100
AcDbSymbolTable
 70
0
  0
BLOCK_RECORD
  5
218
100
AcDbSymbolTableRecord
100
AcDbBlockTableRecord
  2
*Model_Space
  0
BLOCK_RECORD
  5
219
100
AcDbSymbolTableRecord
100
AcDbBlockTableRecord
  2
*Paper_Space
  0
BLOCK_RECORD
  5
21A
100
AcDbSymbolTableRecord
100
AcDbBlockTableRecord
  2
_FILLED
  0
ENDTAB
  0
TABLE
  2
DIMSTYLE
  5
A
100
AcDbSymbolTable
 70
1
100
AcDbDimStyleTable
 71
0
  0
DIMSTYLE
105
21B
100
AcDbSymbolTableRecord
100
AcDbDimStyleTableRecord
  2
STANDARD
 70
0
  3

  4

 40
1.0
 41
3.0
 42
0.5
 43
0.38
 44
1.5
 45
0.0
 46
0.0
 47
0.01
 48
0.01
140
3.0
141
0.09
142
0.0
143
25.4
144
1.0
145
0.0
146
1.0
147
0.625
 71
1.0
 72
0.0
 73
0
 74
0
 75
0
 76
0
 77
1
 78
8
 79
2
170
0
171
1
172
0
173
0
174
0
175
0
176
0
177
0
178
0
270
2
179
2
271
2
272
2
273
2
274
2
275
0
280
0
281
0
282
0
283
1
284
8
285
0
286
0
287
3
288
0
340
11
278
44
341
21A
342
21A
343
21A
344
21A
  0
ENDTAB
  0
ENDSEC
  0
SECTION
  2
BLOCKS
  0
BLOCK
  5
20
100
AcDbEntity
  8
0
100
AcDbBlockBegin
  2
*Model_Space
 70
0
 10
0.0
 20
0.0
 30
0.0
  3
*Model_Space
  1

  0
ENDBLK
  5
21
100
AcDbEntity
  8
0
100
AcDbBlockEnd
  0
BLOCK
  5
1C
100
AcDbEntity
  8
0
100
AcDbBlockBegin
  2
*Paper_Space
 70
0
 10
0.0
 20
0.0
 30
0.0
  3
*Paper_Space
  1

  0
ENDBLK
  5
1D
100
AcDbEntity
  8
0
100
AcDbBlockEnd
  0
BLOCK
  5
21C
100
AcDbEntity
  8
0
100
AcDbBlockBegin
  2
_FILLED
 70
64
 10
0.0
 20
0.0
  3
_FILLED
  1

  0
SOLID
  5
21D
100
AcDbEntity
  8
0
  6
BYBLOCK
 62
0
100
AcDbTrace
 10
0.0
 20
0.0
 11
-1.0
 21
0.1333333333
 12
-1.0
 22
-0.1333333333
 13
-1.0
 23
-0.1333333333
  0
ENDBLK
  5
21E
100
AcDbEntity
  8
0
  6
BYBLOCK
 62
0
100
AcDbBlockEnd
  0
ENDSEC
  0
SECTION
  2
ENTITIES
  0
LINE
  5
21F
100
AcDbEntity
  8
0
100
AcDbLine
 62
7
  6
CONTINUOUS
 10
4.7819257055
 20
-24.5743392515
 11
4.7853913353
 21
-24.608225462
  0
LINE
  5
220
100
AcDbEntity
  8
RACCORDO
100
AcDbLine
 62
7
  6
CONTINUOUS
 10
-30.2123505689
 20
-8.33958738
 11
-30.0304786696
 21
-10.1526764427
  0
LINE
  5
221
100
AcDbEntity
  8
RACCORDO
100
AcDbLine
 62
7
  6
CONTINUOUS
 10
-30.3009750086
 20
-8.2105489037
 11
-30.1177680101
 21
-10.0374316334
  0
LINE
  5
222
100
AcDbEntity
  8
0
100
AcDbLine
 62
7
  6
CONTINUOUS
 10
-8.8577280974
 20
-10.3997762481
 11
-8.8559034259
 21
-10.4187099257
  0
LINE
  5
223
100
AcDbEntity
  8
RACCORDO
100
AcDbLine
 62
7
  6
CONTINUOUS
 10
-30.4613215082
 20
-6.366081117
 11
-30.3009750086
 21
-8.2105489037
  0
LINE
  5
224
100
AcDbEntity
  8
RACCORDO
100
AcDbLine
 62
7
  6
CONTINUOUS
 10
-30.3717032165
 20
-6.5090999752
 11
-30.2123505689
 21
-8.33958738
  0
LINE
  5
225
100
AcDbEntity
  8
0
100
AcDbLine
 62
7
  6
CONTINUOUS
 10
-1.0242326011
 20
-22.6567325361
 11
-1.0803407747
 21
-21.9274700987
  0
LINE
  5
226
100
AcDbEntity
  8
0
100
AcDbLine
 62
7
  6
CONTINUOUS
 10
3.666928628
 20
-25.3653504996
 11
3.6114574633
 21
-24.6446602644
  0
LINE
  5
227
100
AcDbEntity
  8
0
100
AcDbLine
 62
7
  6
CONTINUOUS
 10
3.9720303411
 20
-25.6644663907
 11
3.9171280178
 21
-24.9507297789
  0
LINE
  5
228
100
AcDbEntity
  8
0
100
AcDbLine
 62
7
  6
CONTINUOUS
 10
-1.1307070162
 20
-22.7182095289
 11
-1.1867646043
 21
-21.9889172619
  0
LINE
  5
229
100
AcDbEntity
  8
0
100
AcDbLine
 62
7
  6
CONTINUOUS
 10
-0.7174681564
 20
-22.9568084675
 11
-0.7735257446
 21
-22.2275162005
  0
LINE
  5
22A
100
AcDbEntity
  8
0
100
AcDbLine
 62
7
  6
CONTINUOUS
 10
3.5604542128
 20
-25.4268274925
 11
3.50503306
 21
-24.7061077727
  0
LINE
  5
22B
100
AcDbEntity
  8
RACCORDO
100
AcDbLine
 62
7
  6
CONTINUOUS
 10
-30.5085047308
 20
-4.6615801641
 11
-30.3717032165
 21
-6.5090999752
  0
LINE
  5
22C
100
AcDbEntity
  8
RACCORDO
100
AcDbLine
 62
7
  6
CONTINUOUS
 10
-30.5987765819
 20
-4.5043843093
 11
-30.4613215082
 21
-6.366081117
  0
LINE
  5
22D
100
AcDbEntity
  8
0
100
AcDbLine
 62
7
  6
CONTINUOUS
 10
-1.1867646043
 20
-21.9889172619
 11
-1.2391333581
 21
-21.2571375374
  0
LINE
  5
22E
100
AcDbEntity
  8
0
100
AcDbLine
 62
7
  6
CONTINUOUS
 10
-1.0803407747
 20
-21.9274700987
 11
-1.1327567877
 21
-21.1957176376
  0
LINE
  5
22F
100
AcDbEntity
  8
0
100
AcDbLine
 62
7
  6
CONTINUOUS
 10
-0.7735257446
 20
-22.2275162005
 11
-0.8258944983
 21
-21.4957364759
  0
LINE
  5
230
100
AcDbEntity
  8
0
100
AcDbLine
 62
7
  6
CONTINUOUS
 10
-8.7974521804
 20
-10.0373708641
 11
-8.798824938
 21
-10.0177920819
  0
LINE
  5
231
100
AcDbEntity
  8
0
100
AcDbLine
 62
7
  6
CONTINUOUS
 10
-8.7884237029
 20
-10.3308979639
 11
-8.7892842217
 21
-10.3182760223
  0
LINE
  5
232
100
AcDbEntity
  8
RACCORDO
100
AcDbLine
 62
7
  6
CONTINUOUS
 10
-23.0176036577
 20
-4.3693550469
 11
-23.0199268714
 21
-4.3346724317
  0
LINE
  5
233
100
AcDbEntity
  8
RACCORDO
100
AcDbLine
 62
7
  6
CONTINUOUS
 10
-23.7038436503
 20
-4.4005037199
 11
-23.7076290426
 21
-4.3438423751
  0
LINE
  5
234
100
AcDbEntity
  8
0
100
AcDbLine
 62
7
  6
CONTINUOUS
 10
-1.1327567877
 20
-21.1957176376
 11
-1.1732370976
 21
-20.5890610273
  0
LINE
  5
235
100
AcDbEntity
  8
0
100
AcDbLine
 62
7
  6
CONTINUOUS
 10
-1.2391333581
 20
-21.2571375374
 11
-1.2878106036
 21
-20.522907721
  0
LINE
  5
236
100
AcDbEntity
  8
0
100
AcDbLine
 62
7
  6
CONTINUOUS
 10
-0.8258944983
 20
-21.4957364759
 11
-0.8745717438
 21
-20.7615066595
  0
LINE
  5
237
100
AcDbEntity
  8
RACCORDO
100
AcDbLine
 62
7
  6
CONTINUOUS
 10
-30.6227234598
 20
-2.7974061512
 11
-30.5085047308
 21
-4.6615801641
  0
LINE
  5
238
100
AcDbEntity
  8
RACCORDO
100
AcDbLine
 62
7
  6
CONTINUOUS
 10
-30.7133137482
 20
-2.6258943149
 11
-30.5987765819
 21
-4.5043843093
  0
LINE
  5
239
100
AcDbEntity
  8
RACCORDO
100
AcDbLine
 62
7
  6
CONTINUOUS
 10
-22.7413598742
 20
31.8927868651
 11
-22.7398027473
 21
31.8631902059
  0
LINE
  5
23A
100
AcDbEntity
  8
RACCORDO
100
AcDbLine
 62
7
  6
CONTINUOUS
 10
-30.714334892
 20
-0.9169549074
 11
-30.6227234598
 21
-2.7974061512
  0
LINE
  5
23B
100
AcDbEntity
  8
RACCORDO
100
AcDbLine
 62
7
  6
CONTINUOUS
 10
-30.8021994272
 20
-0.7950798282
 11
-30.7133137482
 21
-2.6258943149
  0
LINE
  5
23C
100
AcDbEntity
  8
RACCORDO
100
AcDbLine
 62
7
  6
CONTINUOUS
 10
-23.7076290426
 20
-4.3438423751
 11
-23.8285227529
 21
-1.4324071658
  0
LINE
  5
23D
100
AcDbEntity
  8
RACCORDO
100
AcDbLine
 62
7
  6
CONTINUOUS
 10
-23.0199272809
 20
-4.3346726676
 11
-23.1407016059
 21
-1.4261425089
  0
LINE
  5
23E
100
AcDbEntity
  8
RACCORDO
100
AcDbLine
 62
7
  6
CONTINUOUS
 10
-30.917428913
 20
2.1639548616
 11
-30.8021994272
 21
-0.7950799161
  0
LINE
  5
23F
100
AcDbEntity
  8
RACCORDO
100
AcDbLine
 62
7
  6
CONTINUOUS
 10
-30.8312728553
 20
2.0903548408
 11
-30.714334964
 21
-0.9169548659
  0
LINE
  5
240
100
AcDbEntity
  8
RACCORDO
100
AcDbLine
 62
7
  6
CONTINUOUS
 10
-23.8285227529
 20
-1.4324071658
 11
-23.9274461711
 21
1.4914281045
  0
LINE
  5
241
100
AcDbEntity
  8
RACCORDO
100
AcDbLine
 62
7
  6
CONTINUOUS
 10
-23.1407016059
 20
-1.4261425089
 11
-23.2395187351
 21
1.4943885039
  0
LINE
  5
242
100
AcDbEntity
  8
RACCORDO
100
AcDbLine
 62
7
  6
CONTINUOUS
 10
-31.0137615942
 20
5.1965078454
 11
-30.917428913
 21
2.1639548616
  0
LINE
  5
243
100
AcDbEntity
  8
RACCORDO
100
AcDbLine
 62
7
  6
CONTINUOUS
 10
-30.9269666799
 20
5.1124912302
 11
-30.8312728553
 21
2.0903548408
  0
LINE
  5
244
100
AcDbEntity
  8
0
100
AcDbLine
 62
7
  6
CONTINUOUS
 10
-9.0352203468
 20
-10.1327161499
 11
-9.0442489424
 21
-9.8391852071
  0
LINE
  5
245
100
AcDbEntity
  8
0
100
AcDbLine
 62
7
  6
CONTINUOUS
 10
-8.7884237029
 20
-10.3308979639
 11
-8.7974522986
 21
-10.0373670211
  0
LINE
  5
246
100
AcDbEntity
  8
RACCORDO
100
AcDbLine
 62
7
  6
CONTINUOUS
 10
-23.9274461711
 20
1.4914281045
 11
-24.0043931218
 21
4.4274716343
  0
LINE
  5
247
100
AcDbEntity
  8
RACCORDO
100
AcDbLine
 62
7
  6
CONTINUOUS
 10
-23.2395187351
 20
1.4943885039
 11
-23.3163786686
 21
4.4269203708
  0
LINE
  5
248
100
AcDbEntity
  8
RACCORDO
100
AcDbLine
 62
7
  6
CONTINUOUS
 10
-31.088689883
 20
8.2436423866
 11
-31.0137615942
 21
5.1965078454
  0
LINE
  5
249
100
AcDbEntity
  8
RACCORDO
100
AcDbLine
 62
7
  6
CONTINUOUS
 10
-31.0014067885
 20
8.1492424912
 11
-30.9269666799
 21
5.1124912302
  0
LINE
  5
24A
100
AcDbEntity
  8
0
100
AcDbLine
 62
7
  6
CONTINUOUS
 10
-8.8559034259
 20
-10.4187099257
 11
-8.8554671001
 21
-10.4370283009
  0
LINE
  5
24B
100
AcDbEntity
  8
RACCORDO
100
AcDbLine
 62
7
  6
CONTINUOUS
 10
-24.0043931218
 20
4.4274716343
 11
-24.0593589096
 21
7.3755308826
  0
LINE
  5
24C
100
AcDbEntity
  8
RACCORDO
100
AcDbLine
 62
7
  6
CONTINUOUS
 10
-23.3163786686
 20
4.4269203708
 11
-23.3712835787
 21
7.3716471988
  0
LINE
  5
24D
100
AcDbEntity
  8
RACCORDO
100
AcDbLine
 62
7
  6
CONTINUOUS
 10
-31.1422070639
 20
11.3051173053
 11
-31.088689883
 21
8.2436423866
  0
LINE
  5
24E
100
AcDbEntity
  8
RACCORDO
100
AcDbLine
 62
7
  6
CONTINUOUS
 10
-31.0545854626
 20
11.2004339512
 11
-31.0014067885
 21
8.1492424912
  0
LINE
  5
24F
100
AcDbEntity
  8
0
100
AcDbLine
 62
7
  6
CONTINUOUS
 10
-8.7884237029
 20
-10.3308979639
 11
-8.7883055262
 21
-10.3385651681
  0
LINE
  5
250
100
AcDbEntity
  8
RACCORDO
100
AcDbLine
 62
7
  6
CONTINUOUS
 10
-22.740937667
 20
-5.9076451044
 11
-22.741359874
 21
-5.8773440804
  0
LINE
  5
251
100
AcDbEntity
  8
RACCORDO
100
AcDbLine
 62
7
  6
CONTINUOUS
 10
-24.0593589096
 20
7.3755308826
 11
-24.092339993
 21
10.3354122715
  0
LINE
  5
252
100
AcDbEntity
  8
RACCORDO
100
AcDbLine
 62
7
  6
CONTINUOUS
 10
-23.3712835787
 20
7.3716471988
 11
-23.404231293
 21
10.3283748809
  0
LINE
  5
253
100
AcDbEntity
  8
RACCORDO
100
AcDbLine
 62
7
  6
CONTINUOUS
 10
-31.1743108635
 20
14.380716968
 11
-31.1422070639
 21
11.3051173053
  0
LINE
  5
254
100
AcDbEntity
  8
RACCORDO
100
AcDbLine
 62
7
  6
CONTINUOUS
 10
-31.0864953037
 20
14.2658139385
 11
-31.0545854626
 21
11.2004339512
  0
LINE
  5
255
100
AcDbEntity
  8
RACCORDO
100
AcDbLine
 62
7
  6
CONTINUOUS
 10
-30.8021912835
 20
36.2120803841
 11
-30.8022266814
 21
36.2200891004
  0
LINE
  5
256
100
AcDbEntity
  8
RACCORDO
100
AcDbLine
 62
7
  6
CONTINUOUS
 10
-24.092339993
 20
10.3354122715
 11
-24.1033339882
 21
13.3069211974
  0
LINE
  5
257
100
AcDbEntity
  8
RACCORDO
100
AcDbLine
 62
7
  6
CONTINUOUS
 10
-23.404231293
 20
10.3283748809
 11
-23.4152152944
 21
13.2965210958
  0
LINE
  5
258
100
AcDbEntity
  8
RACCORDO
100
AcDbLine
 62
7
  6
CONTINUOUS
 10
-31.185
 20
17.4702365828
 11
-31.1743108635
 21
14.380716968
  0
LINE
  5
259
100
AcDbEntity
  8
RACCORDO
100
AcDbLine
 62
7
  6
CONTINUOUS
 10
-31.0971320425
 20
17.3450521344
 11
-31.0864953037
 21
14.2658139385
  0
LINE
  5
25A
100
AcDbEntity
  8
0
100
AcDbLine
 62
7
  6
CONTINUOUS
 10
-20.9613716412
 20
-3.1460737134
 11
-20.9613716412
 21
30.7046271282
  0
LINE
  5
25B
100
AcDbEntity
  8
0
100
AcDbLine
 62
7
  6
CONTINUOUS
 10
-8.8554671001
 20
-10.7314558604
 11
-8.8554671001
 21
-10.4370283009
  0
LINE
  5
25C
100
AcDbEntity
  8
0
100
AcDbLine
 62
7
  6
CONTINUOUS
 10
-8.7883436017
 20
-10.6304923338
 11
-8.7883436017
 21
-10.3360647743
  0
LINE
  5
25D
100
AcDbEntity
  8
RACCORDO
100
AcDbLine
 62
7
  6
CONTINUOUS
 10
-31.1742736135
 20
20.573462307
 11
-31.185
 21
17.4702365828
  0
LINE
  5
25E
100
AcDbEntity
  8
RACCORDO
100
AcDbLine
 62
7
  6
CONTINUOUS
 10
-31.0864953096
 20
20.4379315229
 11
-31.0971320425
 21
17.3450521344
  0
LINE
  5
25F
100
AcDbEntity
  8
RACCORDO
100
AcDbLine
 62
7
  6
CONTINUOUS
 10
-24.1033339882
 20
13.3069211974
 11
-24.0923399936
 21
16.2898624366
  0
LINE
  5
260
100
AcDbEntity
  8
RACCORDO
100
AcDbLine
 62
7
  6
CONTINUOUS
 10
-23.4152152944
 20
13.2965210958
 11
-23.4042312043
 21
16.2760890389
  0
LINE
  5
261
100
AcDbEntity
  8
RACCORDO
100
AcDbLine
 62
7
  6
CONTINUOUS
 10
-31.1421332837
 20
23.6901787255
 11
-31.1742736135
 21
20.573462307
  0
LINE
  5
262
100
AcDbEntity
  8
RACCORDO
100
AcDbLine
 62
7
  6
CONTINUOUS
 10
-31.0545854727
 20
23.5442336647
 11
-31.0864953096
 21
20.4379315229
  0
LINE
  5
263
100
AcDbEntity
  8
RACCORDO
100
AcDbLine
 62
7
  6
CONTINUOUS
 10
-24.0923399936
 20
16.2898624366
 11
-24.0593589106
 21
19.2840402222
  0
LINE
  5
264
100
AcDbEntity
  8
RACCORDO
100
AcDbLine
 62
7
  6
CONTINUOUS
 10
-23.4042312043
 20
16.2760890389
 11
-23.3712834013
 21
19.2670755147
  0
LINE
  5
265
100
AcDbEntity
  8
RACCORDO
100
AcDbLine
 62
7
  6
CONTINUOUS
 10
-22.740937667
 20
31.9235754325
 11
-22.7413598742
 21
31.8927868651
  0
LINE
  5
266
100
AcDbEntity
  8
RACCORDO
100
AcDbLine
 62
7
  6
CONTINUOUS
 10
-29.1674918947
 20
54.6062649936
 11
-29.1672996689
 21
54.6179836561
  0
LINE
  5
267
100
AcDbEntity
  8
RACCORDO
100
AcDbLine
 62
7
  6
CONTINUOUS
 10
-31.0885810133
 20
26.8201788942
 11
-31.1421332837
 21
23.6901787255
  0
LINE
  5
268
100
AcDbEntity
  8
RACCORDO
100
AcDbLine
 62
7
  6
CONTINUOUS
 10
-31.0014068007
 20
26.6636218153
 11
-31.0545854727
 21
23.5442336647
  0
LINE
  5
269
100
AcDbEntity
  8
RACCORDO
100
AcDbLine
 62
7
  6
CONTINUOUS
 10
-24.0593589106
 20
19.2840402222
 11
-24.0043931232
 21
22.2892579453
  0
LINE
  5
26A
100
AcDbEntity
  8
RACCORDO
100
AcDbLine
 62
7
  6
CONTINUOUS
 10
-23.3712834013
 20
19.2670755147
 11
-23.3163785034
 21
22.2688886165
  0
LINE
  5
26B
100
AcDbEntity
  8
RACCORDO
100
AcDbLine
 62
7
  6
CONTINUOUS
 10
-30.9269666917
 20
29.7958352607
 11
-31.0014068007
 21
26.6636218153
  0
LINE
  5
26C
100
AcDbEntity
  8
RACCORDO
100
AcDbLine
 62
7
  6
CONTINUOUS
 10
-31.0136197981
 20
29.9632437579
 11
-31.0885810133
 21
26.8201788942
  0
LINE
  5
26D
100
AcDbEntity
  8
0
100
AcDbLine
 62
7
  6
CONTINUOUS
 10
-8.8554671001
 20
-10.7314558604
 11
-8.8559012742
 21
-10.7486724049
  0
LINE
  5
26E
100
AcDbEntity
  8
RACCORDO
100
AcDbLine
 62
7
  6
CONTINUOUS
 10
-24.0043931232
 20
22.2892579453
 11
-23.9274461724
 21
25.3053181876
  0
LINE
  5
26F
100
AcDbEntity
  8
RACCORDO
100
AcDbLine
 62
7
  6
CONTINUOUS
 10
-23.3163785034
 20
22.2688886165
 11
-23.2395187169
 21
25.2813310417
  0
LINE
  5
270
100
AcDbEntity
  8
RACCORDO
100
AcDbLine
 62
7
  6
CONTINUOUS
 10
-30.9172570761
 20
33.119123068
 11
-31.0136197981
 21
29.9632437579
  0
LINE
  5
271
100
AcDbEntity
  8
RACCORDO
100
AcDbLine
 62
7
  6
CONTINUOUS
 10
-30.8312728631
 20
32.9406909145
 11
-30.9269666917
 21
29.7958352607
  0
LINE
  5
272
100
AcDbEntity
  8
RACCORDO
100
AcDbLine
 62
7
  6
CONTINUOUS
 10
-23.9274461724
 20
25.3053181876
 11
-23.8285227539
 21
28.3320227366
  0
LINE
  5
273
100
AcDbEntity
  8
RACCORDO
100
AcDbLine
 62
7
  6
CONTINUOUS
 10
-23.2395187169
 20
25.2813310417
 11
-23.1407018356
 21
28.3046000929
  0
LINE
  5
274
100
AcDbEntity
  8
0
100
AcDbLine
 62
7
  6
CONTINUOUS
 10
-11.1864189494
 20
-8.8906410376
 11
-11.1857199362
 21
-8.8692959341
  0
LINE
  5
275
100
AcDbEntity
  8
0
100
AcDbLine
 62
7
  6
CONTINUOUS
 10
-10.6684721435
 20
-8.8796333285
 11
-10.6691710533
 21
-8.9009755453
  0
LINE
  5
276
100
AcDbEntity
  8
RACCORDO
100
AcDbLine
 62
7
  6
CONTINUOUS
 10
-30.7143349635
 20
36.0979658232
 11
-30.8312728631
 21
32.9406909145
  0
LINE
  5
277
100
AcDbEntity
  8
RACCORDO
100
AcDbLine
 62
7
  6
CONTINUOUS
 10
-30.8022266794
 20
36.2200891497
 11
-30.9172570761
 21
33.119123068
  0
LINE
  5
278
100
AcDbEntity
  8
0
100
AcDbLine
 62
7
  6
CONTINUOUS
 10
-11.1857199362
 20
-8.8692959341
 11
-11.185411679
 21
-8.8611394425
  0
LINE
  5
279
100
AcDbEntity
  8
0
100
AcDbLine
 62
7
  6
CONTINUOUS
 10
-10.6681639397
 20
-8.8714778454
 11
-10.6684721435
 21
-8.8796333285
  0
LINE
  5
27A
100
AcDbEntity
  8
RACCORDO
100
AcDbLine
 62
7
  6
CONTINUOUS
 10
-23.8285227539
 20
28.3320227366
 11
-23.7076290426
 21
31.3691726602
  0
LINE
  5
27B
100
AcDbEntity
  8
RACCORDO
100
AcDbLine
 62
7
  6
CONTINUOUS
 10
-23.1407018356
 20
28.3046000929
 11
-23.0199278596
 21
31.3386957699
  0
LINE
  5
27C
100
AcDbEntity
  8
0
100
AcDbLine
 62
7
  6
CONTINUOUS
 10
-11.185411679
 20
-8.8611394425
 11
-11.1851340706
 21
-8.8547462001
  0
LINE
  5
27D
100
AcDbEntity
  8
0
100
AcDbLine
 62
7
  6
CONTINUOUS
 10
-10.6678863853
 20
-8.8650851349
 11
-10.6681639397
 21
-8.8714778454
  0
LINE
  5
27E
100
AcDbEntity
  8
RACCORDO
100
AcDbLine
 62
7
  6
CONTINUOUS
 10
-30.7130859033
 20
38.1698314966
 11
-30.8022266786
 21
36.2200891003
  0
LINE
  5
27F
100
AcDbEntity
  8
RACCORDO
100
AcDbLine
 62
7
  6
CONTINUOUS
 10
-30.6227234644
 20
38.0958934174
 11
-30.7143348915
 21
36.0979657817
  0
LINE
  5
280
100
AcDbEntity
  8
RACCORDO
100
AcDbLine
 62
7
  6
CONTINUOUS
 10
-22.741359874
 20
-5.8773440804
 11
-22.7398027456
 21
-5.84594928
  0
LINE
  5
281
100
AcDbEntity
  8
RACCORDO
100
AcDbLine
 62
7
  6
CONTINUOUS
 10
-30.5985348277
 20
40.1943861271
 11
-30.7130859033
 21
38.1698314966
  0
LINE
  5
282
100
AcDbEntity
  8
RACCORDO
100
AcDbLine
 62
7
  6
CONTINUOUS
 10
-30.5085047381
 20
40.1065251899
 11
-30.6227234644
 21
38.0958934174
  0
LINE
  5
283
100
AcDbEntity
  8
RACCORDO
100
AcDbLine
 62
7
  6
CONTINUOUS
 10
-23.7076290426
 20
31.3691726602
 11
-23.7039099746
 21
31.4265252638
  0
LINE
  5
284
100
AcDbEntity
  8
RACCORDO
100
AcDbLine
 62
7
  6
CONTINUOUS
 10
-23.0199277235
 20
31.3386958328
 11
-23.0176310257
 21
31.3737272831
  0
LINE
  5
285
100
AcDbEntity
  8
RACCORDO
100
AcDbLine
 62
7
  6
CONTINUOUS
 10
-30.4610866492
 20
42.231376065
 11
-30.5985348277
 21
40.1943861271
  0
LINE
  5
286
100
AcDbEntity
  8
RACCORDO
100
AcDbLine
 62
7
  6
CONTINUOUS
 10
-30.3717032212
 20
42.1294558243
 11
-30.5085047381
 21
40.1065251899
  0
LINE
  5
287
100
AcDbEntity
  8
RACCORDO
100
AcDbLine
 62
7
  6
CONTINUOUS
 10
-30.3007712545
 20
44.280329943
 11
-30.4610866492
 21
42.231376065
  0
LINE
  5
288
100
AcDbEntity
  8
RACCORDO
100
AcDbLine
 62
7
  6
CONTINUOUS
 10
-30.2123505562
 20
44.1642752768
 11
-30.3717032212
 21
42.1294558243
  0
LINE
  5
289
100
AcDbEntity
  8
RACCORDO
100
AcDbLine
 62
7
  6
CONTINUOUS
 10
-30.1176230514
 20
46.340849579
 11
-30.3007712545
 21
44.280329943
  0
LINE
  5
28A
100
AcDbEntity
  8
RACCORDO
100
AcDbLine
 62
7
  6
CONTINUOUS
 10
-30.0304786261
 20
46.2105760877
 11
-30.2123505562
 21
44.1642752768
  0
LINE
  5
28B
100
AcDbEntity
  8
RACCORDO
100
AcDbLine
 62
7
  6
CONTINUOUS
 10
-29.8261191279
 20
48.2679536511
 11
-30.0304786261
 21
46.2105760877
  0
LINE
  5
28C
100
AcDbEntity
  8
RACCORDO
100
AcDbLine
 62
7
  6
CONTINUOUS
 10
-29.9116760581
 20
48.412566839
 11
-30.1176230514
 21
46.340849579
  0
LINE
  5
28D
100
AcDbEntity
  8
RACCORDO
100
AcDbLine
 62
7
  6
CONTINUOUS
 10
-22.7398027456
 20
-5.84594928
 11
-22.7362750016
 21
-5.8136365045
  0
LINE
  5
28E
100
AcDbEntity
  8
RACCORDO
100
AcDbLine
 62
7
  6
CONTINUOUS
 10
-29.5993129454
 20
50.3359965031
 11
-29.8261191279
 21
48.2679536511
  0
LINE
  5
28F
100
AcDbEntity
  8
RACCORDO
100
AcDbLine
 62
7
  6
CONTINUOUS
 10
-29.6829688011
 20
50.4950837938
 11
-29.9116760581
 21
48.412566839
  0
LINE
  5
290
100
AcDbEntity
  8
RACCORDO
100
AcDbLine
 62
7
  6
CONTINUOUS
 10
-23.7039099746
 20
31.4265252638
 11
-23.6973987908
 21
31.4823309949
  0
LINE
  5
291
100
AcDbEntity
  8
RACCORDO
100
AcDbLine
 62
7
  6
CONTINUOUS
 10
-23.0176310257
 20
31.3737272831
 11
-23.0136172011
 21
31.4080937271
  0
LINE
  5
292
100
AcDbEntity
  8
RACCORDO
100
AcDbLine
 62
7
  6
CONTINUOUS
 10
-29.3501105595
 20
52.4142862188
 11
-29.5993129454
 21
50.3359965031
  0
LINE
  5
293
100
AcDbEntity
  8
RACCORDO
100
AcDbLine
 62
7
  6
CONTINUOUS
 10
-29.4315583611
 20
52.587918048
 11
-29.6829688011
 21
50.4950837938
  0
LINE
  5
294
100
AcDbEntity
  8
RACCORDO
100
AcDbLine
 62
7
  6
CONTINUOUS
 10
-29.1672996689
 20
54.6179836561
 11
-29.1670955834
 21
54.6196632213
  0
LINE
  5
295
100
AcDbEntity
  8
RACCORDO
100
AcDbLine
 62
7
  6
CONTINUOUS
 10
-29.0785648579
 20
54.5024048981
 11
-29.3501105595
 21
52.4142862188
  0
LINE
  5
296
100
AcDbEntity
  8
RACCORDO
100
AcDbLine
 62
7
  6
CONTINUOUS
 10
-29.1670952647
 20
54.6196655811
 11
-29.4315583611
 21
52.587918048
  0
LINE
  5
297
100
AcDbEntity
  8
RACCORDO
100
AcDbLine
 62
7
  6
CONTINUOUS
 10
-29.1595346782
 20
54.6673396253
 11
-29.1670910831
 21
54.6196626131
  0
LINE
  5
298
100
AcDbEntity
  8
RACCORDO
100
AcDbLine
 62
7
  6
CONTINUOUS
 10
-29.0726673119
 20
54.5391239458
 11
-29.0785648579
 21
54.5024048981
  0
LINE
  5
299
100
AcDbEntity
  8
RACCORDO
100
AcDbLine
 62
7
  6
CONTINUOUS
 10
-23.6973987908
 20
31.4823309949
 11
-23.6880954692
 21
31.5365898634
  0
LINE
  5
29A
100
AcDbEntity
  8
RACCORDO
100
AcDbLine
 62
7
  6
CONTINUOUS
 10
-23.0136172011
 20
31.4080937271
 11
-23.0078523308
 21
31.4416620473
  0
LINE
  5
29B
100
AcDbEntity
  8
RACCORDO
100
AcDbLine
 62
7
  6
CONTINUOUS
 10
-28.4978445554
 20
54.8497024662
 11
-28.493592551
 21
54.8734040812
  0
LINE
  5
29C
100
AcDbEntity
  8
RACCORDO
100
AcDbLine
 62
7
  6
CONTINUOUS
 10
-29.1476486464
 20
54.7234248178
 11
-29.1595346782
 21
54.6673396253
  0
LINE
  5
29D
100
AcDbEntity
  8
RACCORDO
100
AcDbLine
 62
7
  6
CONTINUOUS
 10
-29.0651447127
 20
54.5745155897
 11
-29.0726673119
 21
54.5391239458
  0
LINE
  5
29E
100
AcDbEntity
  8
RACCORDO
100
AcDbLine
 62
7
  6
CONTINUOUS
 10
-28.493592551
 20
54.8734040812
 11
-28.487720845
 21
54.8975200793
  0
LINE
  5
29F
100
AcDbEntity
  8
RACCORDO
100
AcDbLine
 62
7
  6
CONTINUOUS
 10
-29.0559972787
 20
54.6085797471
 11
-29.0651447127
 21
54.5745155897
  0
LINE
  5
2A0
100
AcDbEntity
  8
RACCORDO
100
AcDbLine
 62
7
  6
CONTINUOUS
 10
-29.1328972466
 20
54.7773362485
 11
-29.1476486464
 21
54.7234248178
  0
LINE
  5
2A1
100
AcDbEntity
  8
RACCORDO
100
AcDbLine
 62
7
  6
CONTINUOUS
 10
-28.487720845
 20
54.8975200793
 11
-28.4802759645
 21
54.9218593221
  0
LINE
  5
2A2
100
AcDbEntity
  8
RACCORDO
100
AcDbLine
 62
7
  6
CONTINUOUS
 10
33.9881720129
 20
-54.0675
 11
34.029335309
 21
-54.0659252393
  0
LINE
  5
2A3
100
AcDbEntity
  8
RACCORDO
100
AcDbLine
 62
7
  6
CONTINUOUS
 10
34.10695615
 20
-53.6571752625
 11
34.1317842393
 21
-53.6571833462
  0
LINE
  5
2A4
100
AcDbEntity
  8
RACCORDO
100
AcDbLine
 62
7
  6
CONTINUOUS
 10
33.7655381982
 20
-53.9319308528
 11
33.7881502085
 21
-53.932138922
  0
LINE
  5
2A5
100
AcDbEntity
  8
RACCORDO
100
AcDbLine
 62
7
  6
CONTINUOUS
 10
33.9464760869
 20
-54.0659579104
 11
33.9881720129
 21
-54.0675
  0
LINE
  5
2A6
100
AcDbEntity
  8
RACCORDO
100
AcDbLine
 62
7
  6
CONTINUOUS
 10
34.0825225794
 20
-53.6557199487
 11
34.10695615
 21
-53.6571752625
  0
LINE
  5
2A7
100
AcDbEntity
  8
RACCORDO
100
AcDbLine
 62
7
  6
CONTINUOUS
 10
33.7418297547
 20
-53.9297109825
 11
33.7655381982
 21
-53.9319308528
  0
LINE
  5
2A8
100
AcDbEntity
  8
RACCORDO
100
AcDbLine
 62
7
  6
CONTINUOUS
 10
33.9043935708
 20
-54.0613606622
 11
33.9464760869
 21
-54.0659579104
  0
LINE
  5
2A9
100
AcDbEntity
  8
RACCORDO
100
AcDbLine
 62
7
  6
CONTINUOUS
 10
34.0586574886
 20
-53.6528277664
 11
34.0825225794
 21
-53.6557199487
  0
LINE
  5
2AA
100
AcDbEntity
  8
RACCORDO
100
AcDbLine
 62
7
  6
CONTINUOUS
 10
33.7172925225
 20
-53.9255213163
 11
33.7418297547
 21
-53.9297109825
  0
LINE
  5
2AB
100
AcDbEntity
  8
RACCORDO
100
AcDbLine
 62
7
  6
CONTINUOUS
 10
33.861912854
 20
-54.0537611574
 11
33.9043935708
 21
-54.0613606622
  0
LINE
  5
2AC
100
AcDbEntity
  8
RACCORDO
100
AcDbLine
 62
7
  6
CONTINUOUS
 10
34.0355307912
 20
-53.6485193071
 11
34.0586574886
 21
-53.6528277664
  0
LINE
  5
2AD
100
AcDbEntity
  8
RACCORDO
100
AcDbLine
 62
7
  6
CONTINUOUS
 10
24.5229311268
 20
-33.1321593751
 11
24.471010866
 21
-33.1220257494
  0
LINE
  5
2AE
100
AcDbEntity
  8
0
100
AcDbLine
 62
7
  6
CONTINUOUS
 10
4.2363030552
 20
-24.6321401223
 11
4.2516125766
 21
-24.6351928986
  0
LINE
  5
2AF
100
AcDbEntity
  8
0
100
AcDbLine
 62
7
  6
CONTINUOUS
 10
4.562630832
 20
-25.009664575
 11
4.5537303961
 21
-25.0078838518
  0
LINE
  5
2B0
100
AcDbEntity
  8
0
100
AcDbLine
 62
7
  6
CONTINUOUS
 10
4.6690340617
 20
-24.9482286993
 11
4.6601338419
 21
-24.9464478452
  0
LINE
  5
2B1
100
AcDbEntity
  8
0
100
AcDbLine
 62
7
  6
CONTINUOUS
 10
21.19085477
 20
-27.2329794299
 11
21.2096619791
 21
-27.2370390322
  0
LINE
  5
2B2
100
AcDbEntity
  8
RACCORDO
100
AcDbLine
 62
7
  6
CONTINUOUS
 10
24.7272351754
 20
-32.4674538458
 11
24.6962738044
 21
-32.460486999
  0
LINE
  5
2B3
100
AcDbEntity
  8
0
100
AcDbLine
 62
7
  6
CONTINUOUS
 10
20.5748917845
 20
-27.2393505439
 11
20.589158094
 21
-27.2427235692
  0
LINE
  5
2B4
100
AcDbEntity
  8
RACCORDO
100
AcDbLine
 62
7
  6
CONTINUOUS
 10
33.6919381785
 20
-53.9193481472
 11
33.7172925225
 21
-53.9255213163
  0
LINE
  5
2B5
100
AcDbEntity
  8
RACCORDO
100
AcDbLine
 62
7
  6
CONTINUOUS
 10
33.8190601969
 20
-54.0431956537
 11
33.861912854
 21
-54.0537611574
  0
LINE
  5
2B6
100
AcDbEntity
  8
RACCORDO
100
AcDbLine
 62
7
  6
CONTINUOUS
 10
34.0133071439
 20
-53.642825246
 11
34.0355307912
 21
-53.6485193071
  0
LINE
  5
2B7
100
AcDbEntity
  8
0
100
AcDbLine
 62
7
  6
CONTINUOUS
 10
22.8692315892
 20
-28.5173146794
 11
22.8486660186
 21
-28.5119933436
  0
LINE
  5
2B8
100
AcDbEntity
  8
0
100
AcDbLine
 62
7
  6
CONTINUOUS
 10
22.839651681
 20
-28.2184655356
 11
22.860223304
 21
-28.2237898058
  0
LINE
  5
2B9
100
AcDbEntity
  8
0
100
AcDbLine
 62
7
  6
CONTINUOUS
 10
4.2205201544
 20
-24.6279775262
 11
4.2363030552
 21
-24.6321401223
  0
LINE
  5
2BA
100
AcDbEntity
  8
RACCORDO
100
AcDbLine
 62
7
  6
CONTINUOUS
 10
24.471010866
 20
-33.1220257494
 11
24.4177909321
 21
-33.1076399731
  0
LINE
  5
2BB
100
AcDbEntity
  8
0
100
AcDbLine
 62
7
  6
CONTINUOUS
 10
21.2096619791
 20
-27.2370390322
 11
21.228100962
 21
-27.2425328587
  0
LINE
  5
2BC
100
AcDbEntity
  8
0
100
AcDbLine
 62
7
  6
CONTINUOUS
 10
-10.6101431743
 20
-8.8646823325
 11
-10.5917041914
 21
-8.870176159
  0
LINE
  5
2BD
100
AcDbEntity
  8
RACCORDO
100
AcDbLine
 62
7
  6
CONTINUOUS
 10
24.6962738044
 20
-32.460486999
 11
24.664661694
 21
-32.4509145632
  0
LINE
  5
2BE
100
AcDbEntity
  8
0
100
AcDbLine
 62
7
  6
CONTINUOUS
 10
4.5537303961
 20
-25.0078838518
 11
4.5444473545
 21
-25.0050008823
  0
LINE
  5
2BF
100
AcDbEntity
  8
0
100
AcDbLine
 62
7
  6
CONTINUOUS
 10
4.6601338419
 20
-24.9464478452
 11
4.6508509528
 21
-24.9435647782
  0
LINE
  5
2C0
100
AcDbEntity
  8
RACCORDO
100
AcDbLine
 62
7
  6
CONTINUOUS
 10
33.6657542438
 20
-53.9112058156
 11
33.6919381785
 21
-53.9193481472
  0
LINE
  5
2C1
100
AcDbEntity
  8
RACCORDO
100
AcDbLine
 62
7
  6
CONTINUOUS
 10
33.775825944
 20
-54.0296759542
 11
33.8190601969
 21
-54.0431956537
  0
LINE
  5
2C2
100
AcDbEntity
  8
0
100
AcDbLine
 62
7
  6
CONTINUOUS
 10
4.2044259411
 20
-24.6229394154
 11
4.2205201544
 21
-24.6279775262
  0
LINE
  5
2C3
100
AcDbEntity
  8
0
100
AcDbLine
 62
7
  6
CONTINUOUS
 10
21.2503182312
 20
-27.2537815104
 11
21.2623524465
 21
-27.2576980332
  0
LINE
  5
2C4
100
AcDbEntity
  8
0
100
AcDbLine
 62
7
  6
CONTINUOUS
 10
-10.5694869222
 20
-8.8814248107
 11
-10.5574527069
 21
-8.8853413334
  0
LINE
  5
2C5
100
AcDbEntity
  8
0
100
AcDbLine
 62
7
  6
CONTINUOUS
 10
22.8874309048
 20
-28.1959717809
 11
22.8754261904
 21
-28.1920374004
  0
LINE
  5
2C6
100
AcDbEntity
  8
0
100
AcDbLine
 62
7
  6
CONTINUOUS
 10
-8.9323742486
 20
-9.8236150812
 11
-8.944378963
 21
-9.8196807007
  0
LINE
  5
2C7
100
AcDbEntity
  8
RACCORDO
100
AcDbLine
 62
7
  6
CONTINUOUS
 10
33.9921447734
 20
-53.6357861235
 11
34.0133071439
 21
-53.642825246
  0
LINE
  5
2C8
100
AcDbEntity
  8
0
100
AcDbLine
 62
7
  6
CONTINUOUS
 10
22.8891400904
 20
-28.5240861791
 11
22.8692315892
 21
-28.5173146794
  0
LINE
  5
2C9
100
AcDbEntity
  8
0
100
AcDbLine
 62
7
  6
CONTINUOUS
 10
22.860223304
 20
-28.2237898058
 11
22.8801379558
 21
-28.2305653733
  0
LINE
  5
2CA
100
AcDbEntity
  8
0
100
AcDbLine
 62
7
  6
CONTINUOUS
 10
-8.930665063
 20
-10.1517294794
 11
-8.9505735642
 21
-10.1449579797
  0
LINE
  5
2CB
100
AcDbEntity
  8
0
100
AcDbLine
 62
7
  6
CONTINUOUS
 10
-8.9595818494
 20
-9.851433106
 11
-8.9396671976
 21
-9.8582086736
  0
LINE
  5
2CC
100
AcDbEntity
  8
RACCORDO
100
AcDbLine
 62
7
  6
CONTINUOUS
 10
24.4177909321
 20
-33.1076399731
 11
24.3640572084
 21
-33.0893195865
  0
LINE
  5
2CD
100
AcDbEntity
  8
0
100
AcDbLine
 62
7
  6
CONTINUOUS
 10
20.589158094
 20
-27.2427235692
 11
20.6037366628
 21
-27.2478171662
  0
LINE
  5
2CE
100
AcDbEntity
  8
0
100
AcDbLine
 62
7
  6
CONTINUOUS
 10
-11.2306470594
 20
-8.8703668695
 11
-11.2160684906
 21
-8.8754604665
  0
LINE
  5
2CF
100
AcDbEntity
  8
0
100
AcDbLine
 62
7
  6
CONTINUOUS
 10
4.1880183838
 20
-24.6170330053
 11
4.2044259411
 21
-24.6229394154
  0
LINE
  5
2D0
100
AcDbEntity
  8
RACCORDO
100
AcDbLine
 62
7
  6
CONTINUOUS
 10
-23.6432524794
 20
-4.3747743607
 11
-23.6078649337
 21
-4.3875753024
  0
LINE
  5
2D1
100
AcDbEntity
  8
RACCORDO
100
AcDbLine
 62
7
  6
CONTINUOUS
 10
33.6389721778
 20
-53.9011783594
 11
33.6657542438
 21
-53.9112058156
  0
LINE
  5
2D2
100
AcDbEntity
  8
RACCORDO
100
AcDbLine
 62
7
  6
CONTINUOUS
 10
24.664661694
 20
-32.4509145632
 11
24.6325996317
 21
-32.4388420681
  0
LINE
  5
2D3
100
AcDbEntity
  8
RACCORDO
100
AcDbLine
 62
7
  6
CONTINUOUS
 10
33.7322131243
 20
-54.0132145551
 11
33.775825944
 21
-54.0296759542
  0
LINE
  5
2D4
100
AcDbEntity
  8
0
100
AcDbLine
 62
7
  6
CONTINUOUS
 10
21.228100962
 20
-27.2425328587
 11
21.2460641404
 21
-27.2494289845
  0
LINE
  5
2D5
100
AcDbEntity
  8
0
100
AcDbLine
 62
7
  6
CONTINUOUS
 10
-10.5917041914
 20
-8.870176159
 11
-10.573741013
 21
-8.8770722847
  0
LINE
  5
2D6
100
AcDbEntity
  8
0
100
AcDbLine
 62
7
  6
CONTINUOUS
 10
3.8623696183
 20
-23.8513422059
 11
3.8256349762
 21
-23.8367165499
  0
LINE
  5
2D7
100
AcDbEntity
  8
0
100
AcDbLine
 62
7
  6
CONTINUOUS
 10
3.9687238818
 20
-23.7899346128
 11
3.9319896244
 21
-23.775308709
  0
LINE
  5
2D8
100
AcDbEntity
  8
0
100
AcDbLine
 62
7
  6
CONTINUOUS
 10
4.1712993924
 20
-24.6102511617
 11
4.1880183838
 21
-24.6170330053
  0
LINE
  5
2D9
100
AcDbEntity
  8
RACCORDO
100
AcDbLine
 62
7
  6
CONTINUOUS
 10
24.3640572084
 20
-33.0893195865
 11
24.3100710769
 21
-33.0671708062
  0
LINE
  5
2DA
100
AcDbEntity
  8
RACCORDO
100
AcDbLine
 62
7
  6
CONTINUOUS
 10
33.972194351
 20
-53.6274520565
 11
33.9921447734
 21
-53.6357861235
  0
LINE
  5
2DB
100
AcDbEntity
  8
0
100
AcDbLine
 62
7
  6
CONTINUOUS
 10
3.4050015904
 20
-23.2574155204
 11
3.4468154759
 21
-23.2749564764
  0
LINE
  5
2DC
100
AcDbEntity
  8
0
100
AcDbLine
 62
7
  6
CONTINUOUS
 10
22.9082424171
 20
-28.5322571276
 11
22.8891400904
 21
-28.5240861791
  0
LINE
  5
2DD
100
AcDbEntity
  8
0
100
AcDbLine
 62
7
  6
CONTINUOUS
 10
-8.9115627363
 20
-10.1599004278
 11
-8.930665063
 21
-10.1517294794
  0
LINE
  5
2DE
100
AcDbEntity
  8
0
100
AcDbLine
 62
7
  6
CONTINUOUS
 10
22.8801379558
 20
-28.2305653733
 11
22.899245083
 21
-28.2387410229
  0
LINE
  5
2DF
100
AcDbEntity
  8
0
100
AcDbLine
 62
7
  6
CONTINUOUS
 10
-8.9396671976
 20
-9.8582086736
 11
-8.9205600704
 21
-9.8663843232
  0
LINE
  5
2E0
100
AcDbEntity
  8
0
100
AcDbLine
 62
7
  6
CONTINUOUS
 10
3.4468154759
 20
-23.2749564764
 11
3.4886273921
 21
-23.292879836
  0
LINE
  5
2E1
100
AcDbEntity
  8
0
100
AcDbLine
 62
7
  6
CONTINUOUS
 10
3.8989322295
 20
-23.8671800147
 11
3.8623696183
 21
-23.8513422059
  0
LINE
  5
2E2
100
AcDbEntity
  8
0
100
AcDbLine
 62
7
  6
CONTINUOUS
 10
4.0052861843
 20
-23.8057726199
 11
3.9687238818
 21
-23.7899346128
  0
LINE
  5
2E3
100
AcDbEntity
  8
RACCORDO
100
AcDbLine
 62
7
  6
CONTINUOUS
 10
33.6116689904
 20
-53.8892939043
 11
33.6389721778
 21
-53.9011783594
  0
LINE
  5
2E4
100
AcDbEntity
  8
0
100
AcDbLine
 62
7
  6
CONTINUOUS
 10
3.4886273921
 20
-23.292879836
 11
3.5304372865
 21
-23.3111856341
  0
LINE
  5
2E5
100
AcDbEntity
  8
RACCORDO
100
AcDbLine
 62
7
  6
CONTINUOUS
 10
-23.6765862085
 20
-4.3601620726
 11
-23.6432524794
 21
-4.3747743607
  0
LINE
  5
2E6
100
AcDbEntity
  8
RACCORDO
100
AcDbLine
 62
7
  6
CONTINUOUS
 10
33.6882483622
 20
-53.9938223802
 11
33.7322131243
 21
-54.0132145551
  0
LINE
  5
2E7
100
AcDbEntity
  8
0
100
AcDbLine
 62
7
  6
CONTINUOUS
 10
4.1544369844
 20
-24.6028066383
 11
4.1712993924
 21
-24.6102511617
  0
LINE
  5
2E8
100
AcDbEntity
  8
0
100
AcDbLine
 62
7
  6
CONTINUOUS
 10
3.5304372865
 20
-23.3111856341
 11
3.5722154604
 21
-23.3298176151
  0
LINE
  5
2E9
100
AcDbEntity
  8
RACCORDO
100
AcDbLine
 62
7
  6
CONTINUOUS
 10
24.6325996317
 20
-32.4388420681
 11
24.6002465213
 21
-32.424366078
  0
LINE
  5
2EA
100
AcDbEntity
  8
0
100
AcDbLine
 62
7
  6
CONTINUOUS
 10
3.5722154604
 20
-23.3298176151
 11
3.6139915195
 21
-23.3488320958
  0
LINE
  5
2EB
100
AcDbEntity
  8
0
100
AcDbLine
 62
7
  6
CONTINUOUS
 10
20.6037366628
 20
-27.2478171662
 11
20.618516856
 21
-27.2545924616
  0
LINE
  5
2EC
100
AcDbEntity
  8
0
100
AcDbLine
 62
7
  6
CONTINUOUS
 10
-11.2160684906
 20
-8.8754604665
 11
-11.2012882974
 21
-8.8822357619
  0
LINE
  5
2ED
100
AcDbEntity
  8
0
100
AcDbLine
 62
7
  6
CONTINUOUS
 10
3.6139915195
 20
-23.3488320958
 11
3.6558543601
 21
-23.3683979743
  0
LINE
  5
2EE
100
AcDbEntity
  8
0
100
AcDbLine
 62
7
  6
CONTINUOUS
 10
3.9353226564
 20
-23.884230078
 11
3.8989322295
 21
-23.8671800147
  0
LINE
  5
2EF
100
AcDbEntity
  8
0
100
AcDbLine
 62
7
  6
CONTINUOUS
 10
4.0416763783
 20
-23.8228228323
 11
4.0052861843
 21
-23.8057726199
  0
LINE
  5
2F0
100
AcDbEntity
  8
0
100
AcDbLine
 62
7
  6
CONTINUOUS
 10
4.1374871514
 20
-24.5947703626
 11
4.1544369844
 21
-24.6028066383
  0
LINE
  5
2F1
100
AcDbEntity
  8
0
100
AcDbLine
 62
7
  6
CONTINUOUS
 10
21.2460641404
 20
-27.2494289845
 11
21.2634372876
 21
-27.257682832
  0
LINE
  5
2F2
100
AcDbEntity
  8
0
100
AcDbLine
 62
7
  6
CONTINUOUS
 10
-10.573741013
 20
-8.8770722847
 11
-10.5563678658
 21
-8.8853261323
  0
LINE
  5
2F3
100
AcDbEntity
  8
RACCORDO
100
AcDbLine
 62
7
  6
CONTINUOUS
 10
24.3100710769
 20
-33.0671708062
 11
24.255569471
 21
-33.0410884916
  0
LINE
  5
2F4
100
AcDbEntity
  8
0
100
AcDbLine
 62
7
  6
CONTINUOUS
 10
3.6558543601
 20
-23.3683979743
 11
3.697812205
 21
-23.3885150521
  0
LINE
  5
2F5
100
AcDbEntity
  8
0
100
AcDbLine
 62
7
  6
CONTINUOUS
 10
21.2623524465
 20
-27.2576980332
 11
21.2725526762
 21
-27.2626958866
  0
LINE
  5
2F6
100
AcDbEntity
  8
0
100
AcDbLine
 62
7
  6
CONTINUOUS
 10
-10.5574527069
 20
-8.8853413334
 11
-10.5472524772
 21
-8.8903391869
  0
LINE
  5
2F7
100
AcDbEntity
  8
0
100
AcDbLine
 62
7
  6
CONTINUOUS
 10
22.8974109406
 20
-28.2008687246
 11
22.8874309048
 21
-28.1959717809
  0
LINE
  5
2F8
100
AcDbEntity
  8
0
100
AcDbLine
 62
7
  6
CONTINUOUS
 10
-8.9223942128
 20
-9.8285120248
 11
-8.9323742486
 21
-9.8236150812
  0
LINE
  5
2F9
100
AcDbEntity
  8
0
100
AcDbLine
 62
7
  6
CONTINUOUS
 10
3.697812205
 20
-23.3885150521
 11
3.7398567351
 21
-23.409183591
  0
LINE
  5
2FA
100
AcDbEntity
  8
RACCORDO
100
AcDbLine
 62
7
  6
CONTINUOUS
 10
33.5837672533
 20
-53.8755246552
 11
33.6116689904
 21
-53.8892939043
  0
LINE
  5
2FB
100
AcDbEntity
  8
RACCORDO
100
AcDbLine
 62
7
  6
CONTINUOUS
 10
33.6439457501
 20
-53.9714892067
 11
33.6882483622
 21
-53.9938223802
  0
LINE
  5
2FC
100
AcDbEntity
  8
0
100
AcDbLine
 62
7
  6
CONTINUOUS
 10
3.9715980085
 20
-23.9025413738
 11
3.9353226564
 21
-23.884230078
  0
LINE
  5
2FD
100
AcDbEntity
  8
0
100
AcDbLine
 62
7
  6
CONTINUOUS
 10
4.0779515745
 20
-23.8411342284
 11
4.0416763783
 21
-23.8228228323
  0
LINE
  5
2FE
100
AcDbEntity
  8
0
100
AcDbLine
 62
7
  6
CONTINUOUS
 10
3.7398567351
 20
-23.409183591
 11
3.7820520177
 21
-23.4305731898
  0
LINE
  5
2FF
100
AcDbEntity
  8
0
100
AcDbLine
 62
7
  6
CONTINUOUS
 10
4.1203938505
 20
-24.5860714415
 11
4.1374871514
 21
-24.5947703626
  0
LINE
  5
300
100
AcDbEntity
  8
0
100
AcDbLine
 62
7
  6
CONTINUOUS
 10
36.3913123346
 20
-19.0267581635
 11
36.386715405
 21
-19.0244160287
  0
LINE
  5
301
100
AcDbEntity
  8
RACCORDO
100
AcDbLine
 62
7
  6
CONTINUOUS
 10
33.9535979186
 20
-53.6178823814
 11
33.972194351
 21
-53.6274520565
  0
LINE
  5
302
100
AcDbEntity
  8
RACCORDO
100
AcDbLine
 62
7
  6
CONTINUOUS
 10
24.6002465213
 20
-32.424366078
 11
24.5677114249
 21
-32.4075460464
  0
LINE
  5
303
100
AcDbEntity
  8
0
100
AcDbLine
 62
7
  6
CONTINUOUS
 10
3.7820520177
 20
-23.4305731898
 11
3.8244058607
 21
-23.4526828772
  0
LINE
  5
304
100
AcDbEntity
  8
0
100
AcDbLine
 62
7
  6
CONTINUOUS
 10
22.9263955024
 20
-28.5417663283
 11
22.9082424171
 21
-28.5322571276
  0
LINE
  5
305
100
AcDbEntity
  8
0
100
AcDbLine
 62
7
  6
CONTINUOUS
 10
-8.893409651
 20
-10.1694096286
 11
-8.9115627363
 21
-10.1599004278
  0
LINE
  5
306
100
AcDbEntity
  8
0
100
AcDbLine
 62
7
  6
CONTINUOUS
 10
22.899245083
 20
-28.2387410229
 11
22.9174005495
 21
-28.2482547654
  0
LINE
  5
307
100
AcDbEntity
  8
0
100
AcDbLine
 62
7
  6
CONTINUOUS
 10
-8.9205600704
 20
-9.8663843232
 11
-8.9024046039
 21
-9.8758980657
  0
LINE
  5
308
100
AcDbEntity
  8
RACCORDO
100
AcDbLine
 62
7
  6
CONTINUOUS
 10
-23.7076290329
 20
-4.343842369
 11
-23.6765862085
 21
-4.3601620726
  0
LINE
  5
309
100
AcDbEntity
  8
0
100
AcDbLine
 62
7
  6
CONTINUOUS
 10
3.8244058607
 20
-23.4526828772
 11
3.8669103821
 21
-23.4755136734
  0
LINE
  5
30A
100
AcDbEntity
  8
0
100
AcDbLine
 62
7
  6
CONTINUOUS
 10
4.0077009833
 20
-23.9220650519
 11
3.9715980085
 21
-23.9025413738
  0
LINE
  5
30B
100
AcDbEntity
  8
0
100
AcDbLine
 62
7
  6
CONTINUOUS
 10
4.1140544691
 20
-23.8606579578
 11
4.0779515745
 21
-23.8411342284
  0
LINE
  5
30C
100
AcDbEntity
  8
0
100
AcDbLine
 62
7
  6
CONTINUOUS
 10
4.1031570665
 20
-24.5767098852
 11
4.1203938505
 21
-24.5860714415
  0
LINE
  5
30D
100
AcDbEntity
  8
RACCORDO
100
AcDbLine
 62
7
  6
CONTINUOUS
 10
24.255569471
 20
-33.0410884916
 11
24.2005519748
 21
-33.0110729085
  0
LINE
  5
30E
100
AcDbEntity
  8
RACCORDO
100
AcDbLine
 62
7
  6
CONTINUOUS
 10
33.5552668619
 20
-53.8598706949
 11
33.5837672533
 21
-53.8755246552
  0
LINE
  5
30F
100
AcDbEntity
  8
0
100
AcDbLine
 62
7
  6
CONTINUOUS
 10
21.2634372876
 20
-27.257682832
 11
21.2725526762
 21
-27.2626958866
  0
LINE
  5
310
100
AcDbEntity
  8
0
100
AcDbLine
 62
7
  6
CONTINUOUS
 10
-10.5563678658
 20
-8.8853261323
 11
-10.5472524772
 21
-8.8903391869
  0
LINE
  5
311
100
AcDbEntity
  8
0
100
AcDbLine
 62
7
  6
CONTINUOUS
 10
3.8669103821
 20
-23.4755136734
 11
3.9096061113
 21
-23.4992381651
  0
LINE
  5
312
100
AcDbEntity
  8
RACCORDO
100
AcDbLine
 62
7
  6
CONTINUOUS
 10
-22.4063976068
 20
-5.2850207655
 11
-22.4253383782
 21
-5.2744897342
  0
LINE
  5
313
100
AcDbEntity
  8
RACCORDO
100
AcDbLine
 62
7
  6
CONTINUOUS
 10
33.6138097491
 20
-53.9547193765
 11
33.6439457501
 21
-53.9714892067
  0
LINE
  5
314
100
AcDbEntity
  8
0
100
AcDbLine
 62
7
  6
CONTINUOUS
 10
20.618516856
 20
-27.2545924616
 11
20.633386204
 21
-27.2629977373
  0
LINE
  5
315
100
AcDbEntity
  8
0
100
AcDbLine
 62
7
  6
CONTINUOUS
 10
-11.2012882974
 20
-8.8822357619
 11
-11.1864189494
 21
-8.8906410376
  0
LINE
  5
316
100
AcDbEntity
  8
0
100
AcDbLine
 62
7
  6
CONTINUOUS
 10
3.9096061113
 20
-23.4992381651
 11
3.952536778
 21
-23.5238797043
  0
LINE
  5
317
100
AcDbEntity
  8
0
100
AcDbLine
 62
7
  6
CONTINUOUS
 10
4.0434598674
 20
-23.9426544328
 11
4.0077009833
 21
-23.9220650519
  0
LINE
  5
318
100
AcDbEntity
  8
0
100
AcDbLine
 62
7
  6
CONTINUOUS
 10
4.1498133442
 20
-23.8812473396
 11
4.1140544691
 21
-23.8606579578
  0
LINE
  5
319
100
AcDbEntity
  8
RACCORDO
100
AcDbLine
 62
7
  6
CONTINUOUS
 10
-28.4392451642
 20
-18.1260686158
 11
33.6138663211
 21
-53.9547574792
  0
LINE
  5
31A
100
AcDbEntity
  8
RACCORDO
100
AcDbLine
 62
7
  6
CONTINUOUS
 10
-28.4978445554
 20
-18.0311818707
 11
33.5552668619
 21
-53.8598706949
  0
LINE
  5
31B
100
AcDbEntity
  8
0
100
AcDbLine
 62
7
  6
CONTINUOUS
 10
5.0023364461
 20
-26.2593522229
 11
4.6048486797
 21
-26.0298477683
  0
LINE
  5
31C
100
AcDbEntity
  8
0
100
AcDbLine
 62
7
  6
CONTINUOUS
 10
3.9720303411
 20
-25.6644663907
 11
3.5604542128
 21
-25.4268274925
  0
LINE
  5
31D
100
AcDbEntity
  8
0
100
AcDbLine
 62
7
  6
CONTINUOUS
 10
3.3471831472
 20
-25.3036871882
 11
2.9116463822
 21
-25.0522137186
  0
LINE
  5
31E
100
AcDbEntity
  8
0
100
AcDbLine
 62
7
  6
CONTINUOUS
 10
2.1278050803
 20
-24.5996335747
 11
1.7190499846
 21
-24.3636235054
  0
LINE
  5
31F
100
AcDbEntity
  8
0
100
AcDbLine
 62
7
  6
CONTINUOUS
 10
1.5056677854
 20
-24.2404192979
 11
1.101410596
 21
-24.0070062632
  0
LINE
  5
320
100
AcDbEntity
  8
0
100
AcDbLine
 62
7
  6
CONTINUOUS
 10
0.5251680668
 20
-23.6742910489
 11
0.4672114737
 21
-23.6408276384
  0
LINE
  5
321
100
AcDbEntity
  8
0
100
AcDbLine
 62
7
  6
CONTINUOUS
 10
-0.1067442722
 20
-23.3094327841
 11
-0.5020798954
 21
-23.08117095
  0
LINE
  5
322
100
AcDbEntity
  8
0
100
AcDbLine
 62
7
  6
CONTINUOUS
 10
-0.7174681564
 20
-22.9568084675
 11
-1.1307070162
 21
-22.7182095289
  0
LINE
  5
323
100
AcDbEntity
  8
0
100
AcDbLine
 62
7
  6
CONTINUOUS
 10
-1.9769808972
 20
-22.2295815963
 11
-2.3411479606
 21
-22.019316098
  0
LINE
  5
324
100
AcDbEntity
  8
0
100
AcDbLine
 62
7
  6
CONTINUOUS
 10
4.961361083
 20
-26.112739576
 11
4.7113230949
 21
-25.9683707754
  0
LINE
  5
325
100
AcDbEntity
  8
0
100
AcDbLine
 62
7
  6
CONTINUOUS
 10
3.9618516456
 20
-25.5356353537
 11
3.666928628
 21
-25.3653504996
  0
LINE
  5
326
100
AcDbEntity
  8
0
100
AcDbLine
 62
7
  6
CONTINUOUS
 10
3.3012736288
 20
-25.1542256219
 11
3.0181207974
 21
-24.9907367258
  0
LINE
  5
327
100
AcDbEntity
  8
0
100
AcDbLine
 62
7
  6
CONTINUOUS
 10
2.1512841969
 20
-24.4902361367
 11
1.8255243997
 21
-24.3021465125
  0
LINE
  5
328
100
AcDbEntity
  8
0
100
AcDbLine
 62
7
  6
CONTINUOUS
 10
1.4846337872
 20
-24.1053205452
 11
1.2078850111
 21
-23.9455292704
  0
LINE
  5
329
100
AcDbEntity
  8
0
100
AcDbLine
 62
7
  6
CONTINUOUS
 10
-0.108831055
 20
-23.1852739161
 11
-0.3956054802
 21
-23.0196939571
  0
LINE
  5
32A
100
AcDbEntity
  8
0
100
AcDbLine
 62
7
  6
CONTINUOUS
 10
-0.7275973328
 20
-22.8280060222
 11
-1.0242326011
 21
-22.6567325361
  0
LINE
  5
32B
100
AcDbEntity
  8
0
100
AcDbLine
 62
7
  6
CONTINUOUS
 10
-1.9496253862
 20
-22.1224223399
 11
-2.2346735455
 21
-21.9578391052
  0
LINE
  5
32C
100
AcDbEntity
  8
0
100
AcDbLine
 62
7
  6
CONTINUOUS
 10
2.77056354
 20
-24.553712602
 11
2.2078005873
 21
-24.2287803262
  0
LINE
  5
32D
100
AcDbEntity
  8
0
100
AcDbLine
 62
7
  6
CONTINUOUS
 10
2.877007212
 20
-24.4922533598
 11
2.3142442594
 21
-24.167321084
  0
LINE
  5
32E
100
AcDbEntity
  8
0
100
AcDbLine
 62
7
  6
CONTINUOUS
 10
2.662558639
 20
-24.1675900025
 11
2.2669118888
 21
-23.9391485276
  0
LINE
  5
32F
100
AcDbEntity
  8
0
100
AcDbLine
 62
7
  6
CONTINUOUS
 10
4.1281403497
 20
-24.9356273442
 11
3.9065715388
 21
-24.8076962897
  0
LINE
  5
330
100
AcDbEntity
  8
0
100
AcDbLine
 62
7
  6
CONTINUOUS
 10
4.2345556489
 20
-24.8741844842
 11
4.0129868379
 21
-24.7462534296
  0
LINE
  5
331
100
AcDbEntity
  8
0
100
AcDbLine
 62
7
  6
CONTINUOUS
 10
4.1031570665
 20
-24.5767098852
 11
3.8669951472
 21
-24.4403529528
  0
LINE
  5
332
100
AcDbEntity
  8
0
100
AcDbLine
 62
7
  6
CONTINUOUS
 10
2.5826705316
 20
-22.7578024583
 11
2.1829112484
 21
-22.5269864583
  0
LINE
  5
333
100
AcDbEntity
  8
0
100
AcDbLine
 62
7
  6
CONTINUOUS
 10
1.163449239
 20
-21.938361871
 11
0.7545901986
 21
-21.7022917852
  0
LINE
  5
334
100
AcDbEntity
  8
0
100
AcDbLine
 62
7
  6
CONTINUOUS
 10
-0.0675232579
 20
-21.227613779
 11
-0.4804205851
 21
-20.9892120371
  0
LINE
  5
335
100
AcDbEntity
  8
0
100
AcDbLine
 62
7
  6
CONTINUOUS
 10
-1.4977245046
 20
-20.4018335038
 11
-1.9106812287
 21
-20.1633974668
  0
LINE
  5
336
100
AcDbEntity
  8
0
100
AcDbLine
 62
7
  6
CONTINUOUS
 10
-2.6769381993
 20
-19.7209702954
 11
-3.1258435251
 21
-19.4617779864
  0
LINE
  5
337
100
AcDbEntity
  8
0
100
AcDbLine
 62
7
  6
CONTINUOUS
 10
-0.8745717438
 20
-20.7615066595
 11
-1.2878106036
 21
-20.522907721
  0
LINE
  5
338
100
AcDbEntity
  8
RACCORDO
100
AcDbLine
 62
7
  6
CONTINUOUS
 10
24.2005519748
 20
-33.0110729085
 11
-22.740937667
 21
-5.9076451044
  0
LINE
  5
339
100
AcDbEntity
  8
RACCORDO
100
AcDbLine
 62
7
  6
CONTINUOUS
 10
24.5351252986
 20
-32.3884675418
 11
-22.4063974043
 21
-5.2850206486
  0
LINE
  5
33A
100
AcDbEntity
  8
0
100
AcDbLine
 62
7
  6
CONTINUOUS
 10
24.8510004574
 20
-30.2498442654
 11
-20.3964614685
 21
-4.1245268333
  0
LINE
  5
33B
100
AcDbEntity
  8
0
100
AcDbLine
 62
7
  6
CONTINUOUS
 10
-10.6691710533
 20
-8.9009755453
 11
-9.0442489424
 21
-9.8391852071
  0
LINE
  5
33C
100
AcDbEntity
  8
0
100
AcDbLine
 62
7
  6
CONTINUOUS
 10
21.1506341001
 20
-27.273332245
 11
22.775556211
 21
-28.2115419068
  0
LINE
  5
33D
100
AcDbEntity
  8
0
100
AcDbLine
 62
7
  6
CONTINUOUS
 10
-10.547250192
 20
-8.8903405063
 11
-8.9223280811
 21
-9.8285501681
  0
LINE
  5
33E
100
AcDbEntity
  8
0
100
AcDbLine
 62
7
  6
CONTINUOUS
 10
21.2725549614
 20
-27.262697206
 11
22.8974770723
 21
-28.2009068678
  0
LINE
  5
33F
100
AcDbEntity
  8
0
100
AcDbLine
 62
7
  6
CONTINUOUS
 10
36.3484458504
 20
-18.9501045173
 11
36.4583738282
 21
-19.013575554
  0
LINE
  5
340
100
AcDbEntity
  8
DRAFT
100
AcDbLine
 62
7
  6
CONTINUOUS
 10
36.7738970427
 20
-17.9895354472
 11
37.1274504333
 21
-18.1936727439
  0
LINE
  5
341
100
AcDbEntity
  8
RACCORDO
100
AcDbLine
 62
7
  6
CONTINUOUS
 10
24.5677114249
 20
-32.4075460464
 11
24.5351244688
 21
-32.3884681262
  0
LINE
  5
342
100
AcDbEntity
  8
0
100
AcDbLine
 62
7
  6
CONTINUOUS
 10
-9.0352203468
 20
-10.1327161499
 11
-9.0194196241
 21
-10.1420120922
  0
LINE
  5
343
100
AcDbEntity
  8
0
100
AcDbLine
 62
7
  6
CONTINUOUS
 10
22.7845848066
 20
-28.5050728496
 11
22.8003855293
 21
-28.514368792
  0
LINE
  5
344
100
AcDbEntity
  8
RACCORDO
100
AcDbLine
 62
7
  6
CONTINUOUS
 10
-22.4253383782
 20
-5.2744897342
 11
-22.4440585338
 21
-5.2634451858
  0
LINE
  5
345
100
AcDbEntity
  8
0
100
AcDbLine
 62
7
  6
CONTINUOUS
 10
3.952536778
 20
-23.5238797043
 11
3.9956586339
 21
-23.5494149513
  0
LINE
  5
346
100
AcDbEntity
  8
RACCORDO
100
AcDbLine
 62
7
  6
CONTINUOUS
 10
-22.740937667
 20
-5.9076451044
 11
-22.7707443504
 21
-5.8898438725
  0
LINE
  5
347
100
AcDbEntity
  8
RACCORDO
100
AcDbLine
 62
7
  6
CONTINUOUS
 10
-28.5266311694
 20
-18.0137679397
 11
-28.4978445554
 21
-18.0311818707
  0
LINE
  5
348
100
AcDbEntity
  8
RACCORDO
100
AcDbLine
 62
7
  6
CONTINUOUS
 10
-28.4789961674
 20
-18.1020100283
 11
-28.4391403955
 21
-18.1261240933
  0
LINE
  5
349
100
AcDbEntity
  8
0
100
AcDbLine
 62
7
  6
CONTINUOUS
 10
4.1451803209
 20
-24.9460279751
 11
4.1281403497
 21
-24.9356273442
  0
LINE
  5
34A
100
AcDbEntity
  8
0
100
AcDbLine
 62
7
  6
CONTINUOUS
 10
4.251594478
 20
-24.8845843819
 11
4.2345556489
 21
-24.8741844842
  0
LINE
  5
34B
100
AcDbEntity
  8
0
100
AcDbLine
 62
7
  6
CONTINUOUS
 10
4.0788174341
 20
-23.9642606161
 11
4.0434598674
 21
-23.9426544328
  0
LINE
  5
34C
100
AcDbEntity
  8
0
100
AcDbLine
 62
7
  6
CONTINUOUS
 10
4.1851709718
 20
-23.9028534731
 11
4.1498133442
 21
-23.8812473396
  0
LINE
  5
34D
100
AcDbEntity
  8
0
100
AcDbLine
 62
7
  6
CONTINUOUS
 10
3.9956586339
 20
-23.5494149513
 11
4.0388810088
 21
-23.5759464443
  0
LINE
  5
34E
100
AcDbEntity
  8
0
100
AcDbLine
 62
7
  6
CONTINUOUS
 10
-8.9103545137
 20
-9.8359200904
 11
-8.9223942128
 21
-9.8285120248
  0
LINE
  5
34F
100
AcDbEntity
  8
0
100
AcDbLine
 62
7
  6
CONTINUOUS
 10
22.9094506397
 20
-28.2082767901
 11
22.8974109406
 21
-28.2008687246
  0
LINE
  5
350
100
AcDbEntity
  8
RACCORDO
100
AcDbLine
 62
7
  6
CONTINUOUS
 10
-22.4440585338
 20
-5.2634451858
 11
-22.4625405078
 21
-5.2519224648
  0
LINE
  5
351
100
AcDbEntity
  8
RACCORDO
100
AcDbLine
 62
7
  6
CONTINUOUS
 10
-22.7707443504
 20
-5.8898438725
 11
-22.8001530113
 21
-5.8713273501
  0
LINE
  5
352
100
AcDbEntity
  8
0
100
AcDbLine
 62
7
  6
CONTINUOUS
 10
-8.8763417649
 20
-10.1801858624
 11
-8.893409651
 21
-10.1694096286
  0
LINE
  5
353
100
AcDbEntity
  8
0
100
AcDbLine
 62
7
  6
CONTINUOUS
 10
22.9434633885
 20
-28.5525425621
 11
22.9263955024
 21
-28.5417663283
  0
LINE
  5
354
100
AcDbEntity
  8
0
100
AcDbLine
 62
7
  6
CONTINUOUS
 10
-8.9024046039
 20
-9.8758980657
 11
-8.8853356074
 21
-9.8866789271
  0
LINE
  5
355
100
AcDbEntity
  8
0
100
AcDbLine
 62
7
  6
CONTINUOUS
 10
22.9174005495
 20
-28.2482547654
 11
22.934469546
 21
-28.2590356269
  0
LINE
  5
356
100
AcDbEntity
  8
RACCORDO
100
AcDbLine
 62
7
  6
CONTINUOUS
 10
25.0746640677
 20
-32.5101241187
 11
25.0461251927
 21
-32.4920424476
  0
LINE
  5
357
100
AcDbEntity
  8
RACCORDO
100
AcDbLine
 62
7
  6
CONTINUOUS
 10
-30.7143329823
 20
-0.9170005789
 11
-30.7314563585
 21
-0.9061481433
  0
LINE
  5
358
100
AcDbEntity
  8
0
100
AcDbLine
 62
7
  6
CONTINUOUS
 10
4.0388810088
 20
-23.5759464443
 11
4.0822053544
 21
-23.6034233328
  0
LINE
  5
359
100
AcDbEntity
  8
RACCORDO
100
AcDbLine
 62
7
  6
CONTINUOUS
 10
-29.0785648147
 20
-17.2239016043
 11
-29.0957331716
 21
-17.2128207051
  0
LINE
  5
35A
100
AcDbEntity
  8
0
100
AcDbLine
 62
7
  6
CONTINUOUS
 10
4.113830942
 20
-23.9869324812
 11
4.0788174341
 21
-23.9642606161
  0
LINE
  5
35B
100
AcDbEntity
  8
0
100
AcDbLine
 62
7
  6
CONTINUOUS
 10
4.2201846118
 20
-23.9255252381
 11
4.1851709718
 21
-23.9028534731
  0
LINE
  5
35C
100
AcDbEntity
  8
0
100
AcDbLine
 62
7
  6
CONTINUOUS
 10
36.386715405
 20
-19.0244160287
 11
36.3823721363
 21
-19.0216034234
  0
LINE
  5
35D
100
AcDbEntity
  8
0
100
AcDbLine
 62
7
  6
CONTINUOUS
 10
4.0822053544
 20
-23.6034233328
 11
4.125630301
 21
-23.6318964133
  0
LINE
  5
35E
100
AcDbEntity
  8
RACCORDO
100
AcDbLine
 62
7
  6
CONTINUOUS
 10
-22.4625405078
 20
-5.2519224648
 11
-22.4807502047
 21
-5.239970036
  0
LINE
  5
35F
100
AcDbEntity
  8
RACCORDO
100
AcDbLine
 62
7
  6
CONTINUOUS
 10
-28.5554498787
 20
-17.9947877927
 11
-28.5266311694
 21
-18.0137679397
  0
LINE
  5
360
100
AcDbEntity
  8
RACCORDO
100
AcDbLine
 62
7
  6
CONTINUOUS
 10
-28.4491508983
 20
-18.1195382719
 11
-28.4392451642
 21
-18.1260686158
  0
LINE
  5
361
100
AcDbEntity
  8
RACCORDO
100
AcDbLine
 62
7
  6
CONTINUOUS
 10
33.6039598576
 20
-53.9482265906
 11
33.6138074055
 21
-53.9547234353
  0
LINE
  5
362
100
AcDbEntity
  8
RACCORDO
100
AcDbLine
 62
7
  6
CONTINUOUS
 10
-22.8001530113
 20
-5.8713273501
 11
-22.829163619
 21
-5.8520955176
  0
LINE
  5
363
100
AcDbEntity
  8
RACCORDO
100
AcDbLine
 62
7
  6
CONTINUOUS
 10
-28.5261978135
 20
-18.0705815675
 11
-28.4789961674
 21
-18.1020100283
  0
LINE
  5
364
100
AcDbEntity
  8
0
100
AcDbLine
 62
7
  6
CONTINUOUS
 10
4.125630301
 20
-23.6318964133
 11
4.1690610015
 21
-23.6616206576
  0
LINE
  5
365
100
AcDbEntity
  8
0
100
AcDbLine
 62
7
  6
CONTINUOUS
 10
4.1485004598
 20
-24.0106699825
 11
4.113830942
 21
-23.9869324812
  0
LINE
  5
366
100
AcDbEntity
  8
0
100
AcDbLine
 62
7
  6
CONTINUOUS
 10
4.2548543331
 20
-23.949262589
 11
4.2201846118
 21
-23.9255252381
  0
LINE
  5
367
100
AcDbEntity
  8
0
100
AcDbLine
 62
7
  6
CONTINUOUS
 10
4.2684793886
 20
-24.8961509463
 11
4.251594478
 21
-24.8845843819
  0
LINE
  5
368
100
AcDbEntity
  8
0
100
AcDbLine
 62
7
  6
CONTINUOUS
 10
4.1620663466
 20
-24.9575955988
 11
4.1451803209
 21
-24.9460279751
  0
LINE
  5
369
100
AcDbEntity
  8
0
100
AcDbLine
 62
7
  6
CONTINUOUS
 10
-9.0194196241
 20
-10.1420120922
 11
-9.0037297835
 21
-10.152803642
  0
LINE
  5
36A
100
AcDbEntity
  8
0
100
AcDbLine
 62
7
  6
CONTINUOUS
 10
22.8003855293
 20
-28.514368792
 11
22.8160753699
 21
-28.5251603418
  0
LINE
  5
36B
100
AcDbEntity
  8
RACCORDO
100
AcDbLine
 62
7
  6
CONTINUOUS
 10
-22.4807502047
 20
-5.239970036
 11
-22.4986904658
 21
-5.2276095193
  0
LINE
  5
36C
100
AcDbEntity
  8
RACCORDO
100
AcDbLine
 62
7
  6
CONTINUOUS
 10
-22.829163619
 20
-5.8520955176
 11
-22.8577702333
 21
-5.832120743
  0
LINE
  5
36D
100
AcDbEntity
  8
RACCORDO
100
AcDbLine
 62
7
  6
CONTINUOUS
 10
-22.659412763
 20
31.6874043829
 11
-22.6417197815
 21
31.6749075377
  0
LINE
  5
36E
100
AcDbEntity
  8
0
100
AcDbLine
 62
7
  6
CONTINUOUS
 10
4.1690610015
 20
-23.6616206576
 11
4.2125878643
 21
-23.6925806862
  0
LINE
  5
36F
100
AcDbEntity
  8
RACCORDO
100
AcDbLine
 62
7
  6
CONTINUOUS
 10
-28.584300578
 20
-17.9742413467
 11
-28.5554498787
 21
-17.9947877927
  0
LINE
  5
370
100
AcDbEntity
  8
0
100
AcDbLine
 62
7
  6
CONTINUOUS
 10
-8.8936941096
 20
-9.8478355247
 11
-8.9103545137
 21
-9.8359200904
  0
LINE
  5
371
100
AcDbEntity
  8
0
100
AcDbLine
 62
7
  6
CONTINUOUS
 10
22.9261110438
 20
-28.2201922245
 11
22.9094506397
 21
-28.2082767901
  0
LINE
  5
372
100
AcDbEntity
  8
RACCORDO
100
AcDbLine
 62
7
  6
CONTINUOUS
 10
-22.4986904658
 20
-5.2276095193
 11
-22.516400573
 21
-5.2148297996
  0
LINE
  5
373
100
AcDbEntity
  8
RACCORDO
100
AcDbLine
 62
7
  6
CONTINUOUS
 10
-28.572861728
 20
-18.0364132031
 11
-28.5261978135
 21
-18.0705815675
  0
LINE
  5
374
100
AcDbEntity
  8
RACCORDO
100
AcDbLine
 62
7
  6
CONTINUOUS
 10
-23.3428206946
 20
31.7673897823
 11
-23.3090612471
 21
31.7426778691
  0
LINE
  5
375
100
AcDbEntity
  8
RACCORDO
100
AcDbLine
 62
7
  6
CONTINUOUS
 10
-22.8577702333
 20
-5.832120743
 11
-22.8859786739
 21
-5.8114305812
  0
LINE
  5
376
100
AcDbEntity
  8
RACCORDO
100
AcDbLine
 62
7
  6
CONTINUOUS
 10
-30.7314563617
 20
36.1086698417
 11
-30.7469510504
 21
36.1200322018
  0
LINE
  5
377
100
AcDbEntity
  8
RACCORDO
100
AcDbLine
 62
7
  6
CONTINUOUS
 10
25.0461231708
 20
3.2206550662
 11
25.0202993502
 21
3.2396034813
  0
LINE
  5
378
100
AcDbEntity
  8
0
100
AcDbLine
 62
7
  6
CONTINUOUS
 10
4.169564121
 20
-24.0262031054
 11
4.1485004598
 21
-24.0106699825
  0
LINE
  5
379
100
AcDbEntity
  8
0
100
AcDbLine
 62
7
  6
CONTINUOUS
 10
4.275918162
 20
-23.9647955554
 11
4.2548543331
 21
-23.949262589
  0
LINE
  5
37A
100
AcDbEntity
  8
0
100
AcDbLine
 62
7
  6
CONTINUOUS
 10
4.2125878643
 20
-23.6925806862
 11
4.2561207643
 21
-23.724791692
  0
LINE
  5
37B
100
AcDbEntity
  8
RACCORDO
100
AcDbLine
 62
7
  6
CONTINUOUS
 10
24.364708741
 20
4.5297295681
 11
24.3936411498
 21
4.508197893
  0
LINE
  5
37C
100
AcDbEntity
  8
RACCORDO
100
AcDbLine
 62
7
  6
CONTINUOUS
 10
24.3165962764
 20
4.7441681336
 11
24.3443748789
 21
4.7232297889
  0
LINE
  5
37D
100
AcDbEntity
  8
RACCORDO
100
AcDbLine
 62
7
  6
CONTINUOUS
 10
-22.516400573
 20
-5.2148297996
 11
-22.5338666895
 21
-5.2016588886
  0
LINE
  5
37E
100
AcDbEntity
  8
0
100
AcDbLine
 62
7
  6
CONTINUOUS
 10
-8.8604869081
 20
-10.1921484206
 11
-8.8763417649
 21
-10.1801858624
  0
LINE
  5
37F
100
AcDbEntity
  8
0
100
AcDbLine
 62
7
  6
CONTINUOUS
 10
22.9593182453
 20
-28.5645051203
 11
22.9434633885
 21
-28.5525425621
  0
LINE
  5
380
100
AcDbEntity
  8
0
100
AcDbLine
 62
7
  6
CONTINUOUS
 10
-8.8853356074
 20
-9.8866789271
 11
-8.8694792111
 21
-9.8986473777
  0
LINE
  5
381
100
AcDbEntity
  8
0
100
AcDbLine
 62
7
  6
CONTINUOUS
 10
22.934469546
 20
-28.2590356269
 11
22.9503259423
 21
-28.2710040775
  0
LINE
  5
382
100
AcDbEntity
  8
RACCORDO
100
AcDbLine
 62
7
  6
CONTINUOUS
 10
25.0461251927
 20
-32.4920424476
 11
25.0203009929
 21
-32.4724980216
  0
LINE
  5
383
100
AcDbEntity
  8
RACCORDO
100
AcDbLine
 62
7
  6
CONTINUOUS
 10
-30.7314563585
 20
-0.9061481433
 11
-30.746951047
 21
-0.8944150762
  0
LINE
  5
384
100
AcDbEntity
  8
0
100
AcDbLine
 62
7
  6
CONTINUOUS
 10
4.1787984784
 20
-24.9703301807
 11
4.1620663466
 21
-24.9575955988
  0
LINE
  5
385
100
AcDbEntity
  8
0
100
AcDbLine
 62
7
  6
CONTINUOUS
 10
4.2852104323
 20
-24.9088841428
 11
4.2684793886
 21
-24.8961509463
  0
LINE
  5
386
100
AcDbEntity
  8
RACCORDO
100
AcDbLine
 62
7
  6
CONTINUOUS
 10
-28.6132849742
 20
-17.9520487597
 11
-28.584300578
 21
-17.9742413467
  0
LINE
  5
387
100
AcDbEntity
  8
RACCORDO
100
AcDbLine
 62
7
  6
CONTINUOUS
 10
-22.8859786739
 20
-5.8114305812
 11
-22.9138065296
 21
-5.7901077799
  0
LINE
  5
388
100
AcDbEntity
  8
RACCORDO
100
AcDbLine
 62
7
  6
CONTINUOUS
 10
-29.0957331716
 20
-17.2128207051
 11
-29.1112929109
 21
-17.2006512676
  0
LINE
  5
389
100
AcDbEntity
  8
0
100
AcDbLine
 62
7
  6
CONTINUOUS
 10
4.2561207643
 20
-23.724791692
 11
4.2992942109
 21
-23.7585544024
  0
LINE
  5
38A
100
AcDbEntity
  8
RACCORDO
100
AcDbLine
 62
7
  6
CONTINUOUS
 10
-22.5338666895
 20
-5.2016588886
 11
-22.551076963
 21
-5.1881239408
  0
LINE
  5
38B
100
AcDbEntity
  8
0
100
AcDbLine
 62
7
  6
CONTINUOUS
 10
-9.0037297835
 20
-10.152803642
 11
-8.9882700437
 21
-10.1650180889
  0
LINE
  5
38C
100
AcDbEntity
  8
0
100
AcDbLine
 62
7
  6
CONTINUOUS
 10
22.8160753699
 20
-28.5251603418
 11
22.8315351097
 21
-28.5373747886
  0
LINE
  5
38D
100
AcDbEntity
  8
RACCORDO
100
AcDbLine
 62
7
  6
CONTINUOUS
 10
24.3443748789
 20
4.7232297889
 11
24.3716900633
 21
4.7016109778
  0
LINE
  5
38E
100
AcDbEntity
  8
RACCORDO
100
AcDbLine
 62
7
  6
CONTINUOUS
 10
-28.6189085073
 20
-17.9996219729
 11
-28.572861728
 21
-18.0364132031
  0
LINE
  5
38F
100
AcDbEntity
  8
RACCORDO
100
AcDbLine
 62
7
  6
CONTINUOUS
 10
-22.9138065296
 20
-5.7901077799
 11
-22.9412500518
 21
-5.7681655978
  0
LINE
  5
390
100
AcDbEntity
  8
RACCORDO
100
AcDbLine
 62
7
  6
CONTINUOUS
 10
24.3936411498
 20
4.508197893
 11
24.4233271859
 21
4.4842314899
  0
LINE
  5
391
100
AcDbEntity
  8
0
100
AcDbLine
 62
7
  6
CONTINUOUS
 10
4.1903160408
 20
-24.0431485659
 11
4.169564121
 21
-24.0262031054
  0
LINE
  5
392
100
AcDbEntity
  8
0
100
AcDbLine
 62
7
  6
CONTINUOUS
 10
4.2966703577
 20
-23.9817408073
 11
4.275918162
 21
-23.9647955554
  0
LINE
  5
393
100
AcDbEntity
  8
RACCORDO
100
AcDbLine
 62
7
  6
CONTINUOUS
 10
-28.642300938
 20
-17.9282895397
 11
-28.6132849742
 21
-17.9520487597
  0
LINE
  5
394
100
AcDbEntity
  8
RACCORDO
100
AcDbLine
 62
7
  6
CONTINUOUS
 10
-22.551076963
 20
-5.1881239408
 11
-22.5680737257
 21
-5.174201848
  0
LINE
  5
395
100
AcDbEntity
  8
0
100
AcDbLine
 62
7
  6
CONTINUOUS
 10
4.2992942109
 20
-23.7585544024
 11
4.3419866659
 21
-23.7939688674
  0
LINE
  5
396
100
AcDbEntity
  8
RACCORDO
100
AcDbLine
 62
7
  6
CONTINUOUS
 10
24.3716900633
 20
4.7016109778
 11
24.3985393635
 21
4.6793256995
  0
LINE
  5
397
100
AcDbEntity
  8
RACCORDO
100
AcDbLine
 62
7
  6
CONTINUOUS
 10
-22.9412500518
 20
-5.7681655978
 11
-22.9683127845
 21
-5.7455906454
  0
LINE
  5
398
100
AcDbEntity
  8
0
100
AcDbLine
 62
7
  6
CONTINUOUS
 10
4.1954680504
 20
-24.984263102
 11
4.1787984784
 21
-24.9703301807
  0
LINE
  5
399
100
AcDbEntity
  8
0
100
AcDbLine
 62
7
  6
CONTINUOUS
 10
4.301878807
 20
-24.9228152136
 11
4.2852104323
 21
-24.9088841428
  0
LINE
  5
39A
100
AcDbEntity
  8
RACCORDO
100
AcDbLine
 62
7
  6
CONTINUOUS
 10
-23.3750551943
 20
31.7945473528
 11
-23.3428206946
 21
31.7673897823
  0
LINE
  5
39B
100
AcDbEntity
  8
0
100
AcDbLine
 62
7
  6
CONTINUOUS
 10
-8.8781332546
 20
-9.8610120959
 11
-8.8936941096
 21
-9.8478355247
  0
LINE
  5
39C
100
AcDbEntity
  8
0
100
AcDbLine
 62
7
  6
CONTINUOUS
 10
22.9416718988
 20
-28.2333687957
 11
22.9261110438
 21
-28.2201922245
  0
LINE
  5
39D
100
AcDbEntity
  8
RACCORDO
100
AcDbLine
 62
7
  6
CONTINUOUS
 10
-22.5680737257
 20
-5.174201848
 11
-22.5848449514
 21
-5.1599148141
  0
LINE
  5
39E
100
AcDbEntity
  8
RACCORDO
100
AcDbLine
 62
7
  6
CONTINUOUS
 10
-28.6641857644
 20
-17.9603653762
 11
-28.6189085073
 21
-17.9996219729
  0
LINE
  5
39F
100
AcDbEntity
  8
RACCORDO
100
AcDbLine
 62
7
  6
CONTINUOUS
 10
-22.9683127845
 20
-5.7455906454
 11
-22.9950232497
 21
-5.7224256943
  0
LINE
  5
3A0
100
AcDbEntity
  8
RACCORDO
100
AcDbLine
 62
7
  6
CONTINUOUS
 10
24.3985393635
 20
4.6793256995
 11
24.4249254501
 21
4.6563600604
  0
LINE
  5
3A1
100
AcDbEntity
  8
RACCORDO
100
AcDbLine
 62
7
  6
CONTINUOUS
 10
-30.7469510504
 20
36.1200322018
 11
-30.7607068437
 21
36.1320202603
  0
LINE
  5
3A2
100
AcDbEntity
  8
RACCORDO
100
AcDbLine
 62
7
  6
CONTINUOUS
 10
25.0202993502
 20
3.2396034813
 11
24.9973738837
 21
3.2595998714
  0
LINE
  5
3A3
100
AcDbEntity
  8
RACCORDO
100
AcDbLine
 62
7
  6
CONTINUOUS
 10
24.4233271859
 20
4.4842314899
 11
24.4535799393
 21
4.4578410496
  0
LINE
  5
3A4
100
AcDbEntity
  8
RACCORDO
100
AcDbLine
 62
7
  6
CONTINUOUS
 10
-28.4609140012
 20
-18.1092698677
 11
-28.4491508983
 21
-18.1195382719
  0
LINE
  5
3A5
100
AcDbEntity
  8
RACCORDO
100
AcDbLine
 62
7
  6
CONTINUOUS
 10
-28.6710425177
 20
-17.9032025556
 11
-28.642300938
 21
-17.9282895397
  0
LINE
  5
3A6
100
AcDbEntity
  8
RACCORDO
100
AcDbLine
 62
7
  6
CONTINUOUS
 10
33.59219687
 20
-53.9379581119
 11
33.6039598576
 21
-53.9482265906
  0
LINE
  5
3A7
100
AcDbEntity
  8
0
100
AcDbLine
 62
7
  6
CONTINUOUS
 10
4.3419866659
 20
-23.7939688674
 11
4.3843204536
 21
-23.8309345186
  0
LINE
  5
3A8
100
AcDbEntity
  8
0
100
AcDbLine
 62
7
  6
CONTINUOUS
 10
36.3823721363
 20
-19.0216034234
 11
36.3743260931
 21
-19.0145298393
  0
LINE
  5
3A9
100
AcDbEntity
  8
RACCORDO
100
AcDbLine
 62
7
  6
CONTINUOUS
 10
-22.5848449514
 20
-5.1599148141
 11
-22.6013797611
 21
-5.1452843421
  0
LINE
  5
3AA
100
AcDbEntity
  8
0
100
AcDbLine
 62
7
  6
CONTINUOUS
 10
-8.9882700437
 20
-10.1650180889
 11
-8.973151219
 21
-10.1785786168
  0
LINE
  5
3AB
100
AcDbEntity
  8
0
100
AcDbLine
 62
7
  6
CONTINUOUS
 10
22.8315351097
 20
-28.5373747886
 11
22.8466539344
 21
-28.5509353165
  0
LINE
  5
3AC
100
AcDbEntity
  8
0
100
AcDbLine
 62
7
  6
CONTINUOUS
 10
4.2107563948
 20
-24.0615062477
 11
4.1903160408
 21
-24.0431485659
  0
LINE
  5
3AD
100
AcDbEntity
  8
0
100
AcDbLine
 62
7
  6
CONTINUOUS
 10
4.317111096
 20
-24.0000982281
 11
4.2966703577
 21
-23.9817408073
  0
LINE
  5
3AE
100
AcDbEntity
  8
0
100
AcDbLine
 62
7
  6
CONTINUOUS
 10
-8.8459638258
 20
-10.2052077094
 11
-8.8604869081
 21
-10.1921484206
  0
LINE
  5
3AF
100
AcDbEntity
  8
0
100
AcDbLine
 62
7
  6
CONTINUOUS
 10
22.9738413276
 20
-28.5775644091
 11
22.9593182453
 21
-28.5645051203
  0
LINE
  5
3B0
100
AcDbEntity
  8
0
100
AcDbLine
 62
7
  6
CONTINUOUS
 10
-8.8694792111
 20
-9.8986473777
 11
-8.8549529332
 21
-9.9117155664
  0
LINE
  5
3B1
100
AcDbEntity
  8
0
100
AcDbLine
 62
7
  6
CONTINUOUS
 10
22.9503259423
 20
-28.2710040775
 11
22.9648522202
 21
-28.2840722662
  0
LINE
  5
3B2
100
AcDbEntity
  8
RACCORDO
100
AcDbLine
 62
7
  6
CONTINUOUS
 10
-22.9950232497
 20
-5.7224256943
 11
-23.0213801643
 21
-5.6986819528
  0
LINE
  5
3B3
100
AcDbEntity
  8
RACCORDO
100
AcDbLine
 62
7
  6
CONTINUOUS
 10
24.4249254501
 20
4.6563600604
 11
24.4508828697
 21
4.6327603104
  0
LINE
  5
3B4
100
AcDbEntity
  8
RACCORDO
100
AcDbLine
 62
7
  6
CONTINUOUS
 10
25.0203009929
 20
-32.4724980216
 11
24.9973751468
 21
-32.4516298533
  0
LINE
  5
3B5
100
AcDbEntity
  8
RACCORDO
100
AcDbLine
 62
7
  6
CONTINUOUS
 10
-30.746951047
 20
-0.8944150762
 11
-30.7607068403
 21
-0.8818848304
  0
LINE
  5
3B6
100
AcDbEntity
  8
0
100
AcDbLine
 62
7
  6
CONTINUOUS
 10
4.2119839368
 20
-24.9993628417
 11
4.1954680504
 21
-24.984263102
  0
LINE
  5
3B7
100
AcDbEntity
  8
0
100
AcDbLine
 62
7
  6
CONTINUOUS
 10
4.3183935231
 20
-24.9379127766
 11
4.301878807
 21
-24.9228152136
  0
LINE
  5
3B8
100
AcDbEntity
  8
0
100
AcDbLine
 62
7
  6
CONTINUOUS
 10
4.3843204536
 20
-23.8309345186
 11
4.4262960605
 21
-23.8694510351
  0
LINE
  5
3B9
100
AcDbEntity
  8
RACCORDO
100
AcDbLine
 62
7
  6
CONTINUOUS
 10
-22.6755852891
 20
31.702243215
 11
-22.659412763
 21
31.6874043829
  0
LINE
  5
3BA
100
AcDbEntity
  8
RACCORDO
100
AcDbLine
 62
7
  6
CONTINUOUS
 10
24.2659043788
 20
4.5988153837
 11
24.2820769076
 21
4.5839765555
  0
LINE
  5
3BB
100
AcDbEntity
  8
RACCORDO
100
AcDbLine
 62
7
  6
CONTINUOUS
 10
-22.6013797611
 20
-5.1452843421
 11
-22.6177210009
 21
-5.1302767549
  0
LINE
  5
3BC
100
AcDbEntity
  8
RACCORDO
100
AcDbLine
 62
7
  6
CONTINUOUS
 10
-28.6995017213
 20
-17.8767771963
 11
-28.6710425177
 21
-17.9032025556
  0
LINE
  5
3BD
100
AcDbEntity
  8
RACCORDO
100
AcDbLine
 62
7
  6
CONTINUOUS
 10
-23.0213801643
 20
-5.6986819528
 11
-23.0473845386
 21
-5.6743480384
  0
LINE
  5
3BE
100
AcDbEntity
  8
RACCORDO
100
AcDbLine
 62
7
  6
CONTINUOUS
 10
-28.7085849271
 20
-17.918768408
 11
-28.6641857644
 21
-17.9603653762
  0
LINE
  5
3BF
100
AcDbEntity
  8
RACCORDO
100
AcDbLine
 62
7
  6
CONTINUOUS
 10
24.4535799393
 20
4.4578410496
 11
24.4842281494
 21
4.429042236
  0
LINE
  5
3C0
100
AcDbEntity
  8
RACCORDO
100
AcDbLine
 62
7
  6
CONTINUOUS
 10
24.4508828697
 20
4.6327603104
 11
24.4764116312
 21
4.6085384039
  0
LINE
  5
3C1
100
AcDbEntity
  8
RACCORDO
100
AcDbLine
 62
7
  6
CONTINUOUS
 10
-29.1112929109
 20
-17.2006512676
 11
-29.1251332536
 21
-17.1874799334
  0
LINE
  5
3C2
100
AcDbEntity
  8
RACCORDO
100
AcDbLine
 62
7
  6
CONTINUOUS
 10
-22.6177210009
 20
-5.1302767549
 11
-22.6338574248
 21
-5.1149092814
  0
LINE
  5
3C3
100
AcDbEntity
  8
RACCORDO
100
AcDbLine
 62
7
  6
CONTINUOUS
 10
-29.1251350782
 20
54.5349340495
 11
-29.1371580512
 21
54.546517852
  0
LINE
  5
3C4
100
AcDbEntity
  8
RACCORDO
100
AcDbLine
 62
7
  6
CONTINUOUS
 10
-23.4055324713
 20
31.823954889
 11
-23.3750551943
 21
31.7945473528
  0
LINE
  5
3C5
100
AcDbEntity
  8
RACCORDO
100
AcDbLine
 62
7
  6
CONTINUOUS
 10
-23.0473845386
 20
-5.6743480384
 11
-23.073068329
 21
-5.6494328331
  0
LINE
  5
3C6
100
AcDbEntity
  8
0
100
AcDbLine
 62
7
  6
CONTINUOUS
 10
4.2310336649
 20
-24.0813461384
 11
4.2107563948
 21
-24.0615062477
  0
LINE
  5
3C7
100
AcDbEntity
  8
0
100
AcDbLine
 62
7
  6
CONTINUOUS
 10
4.3373888594
 20
-24.019937806
 11
4.317111096
 21
-24.0000982281
  0
LINE
  5
3C8
100
AcDbEntity
  8
RACCORDO
100
AcDbLine
 62
7
  6
CONTINUOUS
 10
-28.7276857404
 20
-17.8490234404
 11
-28.6995017213
 21
-17.8767771963
  0
LINE
  5
3C9
100
AcDbEntity
  8
RACCORDO
100
AcDbLine
 62
7
  6
CONTINUOUS
 10
24.805743536
 20
3.9599367721
 11
24.8040689893
 21
3.9615872506
  0
LINE
  5
3CA
100
AcDbEntity
  8
RACCORDO
100
AcDbLine
 62
7
  6
CONTINUOUS
 10
-22.6338574248
 20
-5.1149092814
 11
-22.6497776892
 21
-5.0991992252
  0
LINE
  5
3CB
100
AcDbEntity
  8
RACCORDO
100
AcDbLine
 62
7
  6
CONTINUOUS
 10
24.4764116312
 20
4.6085384039
 11
24.5015119983
 21
4.5836825272
  0
LINE
  5
3CC
100
AcDbEntity
  8
0
100
AcDbLine
 62
7
  6
CONTINUOUS
 10
-8.863752292
 20
-9.8753541454
 11
-8.8781332546
 21
-9.8610120959
  0
LINE
  5
3CD
100
AcDbEntity
  8
0
100
AcDbLine
 62
7
  6
CONTINUOUS
 10
22.9560528614
 20
-28.2477108451
 11
22.9416718988
 21
-28.2333687957
  0
LINE
  5
3CE
100
AcDbEntity
  8
0
100
AcDbLine
 62
7
  6
CONTINUOUS
 10
4.4262960605
 20
-23.8694510351
 11
4.4490082507
 21
-23.8921408096
  0
LINE
  5
3CF
100
AcDbEntity
  8
RACCORDO
100
AcDbLine
 62
7
  6
CONTINUOUS
 10
-23.073068329
 20
-5.6494328331
 11
-23.0984330444
 21
-5.623944889
  0
LINE
  5
3D0
100
AcDbEntity
  8
0
100
AcDbLine
 62
7
  6
CONTINUOUS
 10
4.2280725605
 20
-25.0155349703
 11
4.2119839368
 21
-24.9993628417
  0
LINE
  5
3D1
100
AcDbEntity
  8
0
100
AcDbLine
 62
7
  6
CONTINUOUS
 10
4.3344814124
 20
-24.9540828195
 11
4.3183935231
 21
-24.9379127766
  0
LINE
  5
3D2
100
AcDbEntity
  8
RACCORDO
100
AcDbLine
 62
7
  6
CONTINUOUS
 10
-28.7519700528
 20
-17.8749788775
 11
-28.7085849271
 21
-17.918768408
  0
LINE
  5
3D3
100
AcDbEntity
  8
RACCORDO
100
AcDbLine
 62
7
  6
CONTINUOUS
 10
24.4842281494
 20
4.429042236
 11
24.5150153177
 21
4.3979551019
  0
LINE
  5
3D4
100
AcDbEntity
  8
0
100
AcDbLine
 62
7
  6
CONTINUOUS
 10
-8.973151219
 20
-10.1785786168
 11
-8.958498852
 21
-10.1933836519
  0
LINE
  5
3D5
100
AcDbEntity
  8
0
100
AcDbLine
 62
7
  6
CONTINUOUS
 10
22.8466539344
 20
-28.5509353165
 11
22.8613063014
 21
-28.5657403517
  0
LINE
  5
3D6
100
AcDbEntity
  8
RACCORDO
100
AcDbLine
 62
7
  6
CONTINUOUS
 10
-22.6497776892
 20
-5.0991992252
 11
-22.6655221156
 21
-5.0831047795
  0
LINE
  5
3D7
100
AcDbEntity
  8
RACCORDO
100
AcDbLine
 62
7
  6
CONTINUOUS
 10
24.5015119983
 20
4.5836825272
 11
24.5262189048
 21
4.5582032816
  0
LINE
  5
3D8
100
AcDbEntity
  8
RACCORDO
100
AcDbLine
 62
7
  6
CONTINUOUS
 10
-23.0984330444
 20
-5.623944889
 11
-23.1234768373
 21
-5.5978754379
  0
LINE
  5
3D9
100
AcDbEntity
  8
RACCORDO
100
AcDbLine
 62
7
  6
CONTINUOUS
 10
-28.7553113499
 20
-17.8202110036
 11
-28.7276857404
 21
-17.8490234404
  0
LINE
  5
3DA
100
AcDbEntity
  8
RACCORDO
100
AcDbLine
 62
7
  6
CONTINUOUS
 10
-30.7607068437
 20
36.1320202603
 11
-30.7726259022
 21
36.1445487506
  0
LINE
  5
3DB
100
AcDbEntity
  8
RACCORDO
100
AcDbLine
 62
7
  6
CONTINUOUS
 10
24.9973738837
 20
3.2595998714
 11
24.9775098301
 21
3.2805020109
  0
LINE
  5
3DC
100
AcDbEntity
  8
RACCORDO
100
AcDbLine
 62
7
  6
CONTINUOUS
 10
-22.6655221156
 20
-5.0831047795
 11
-22.6810789475
 21
-5.0666395646
  0
LINE
  5
3DD
100
AcDbEntity
  8
0
100
AcDbLine
 62
7
  6
CONTINUOUS
 10
4.2509998871
 20
-24.1025979072
 11
4.2310336649
 21
-24.0813461384
  0
LINE
  5
3DE
100
AcDbEntity
  8
0
100
AcDbLine
 62
7
  6
CONTINUOUS
 10
4.3573556838
 20
-24.0411892094
 11
4.3373888594
 21
-24.019937806
  0
LINE
  5
3DF
100
AcDbEntity
  8
0
100
AcDbLine
 62
7
  6
CONTINUOUS
 10
4.5453815917
 20
-25.0179689936
 11
4.5656398206
 21
-25.0395940403
  0
LINE
  5
3E0
100
AcDbEntity
  8
RACCORDO
100
AcDbLine
 62
7
  6
CONTINUOUS
 10
24.5262189048
 20
4.5582032816
 11
24.550535117
 21
4.5321099452
  0
LINE
  5
3E1
100
AcDbEntity
  8
0
100
AcDbLine
 62
7
  6
CONTINUOUS
 10
-8.8328812886
 20
-10.2192659211
 11
-8.8459638258
 21
-10.2052077094
  0
LINE
  5
3E2
100
AcDbEntity
  8
0
100
AcDbLine
 62
7
  6
CONTINUOUS
 10
22.9869238648
 20
-28.5916226209
 11
22.9738413276
 21
-28.5775644091
  0
LINE
  5
3E3
100
AcDbEntity
  8
0
100
AcDbLine
 62
7
  6
CONTINUOUS
 10
-8.8549529332
 20
-9.9117155664
 11
-8.8418679001
 21
-9.9257844514
  0
LINE
  5
3E4
100
AcDbEntity
  8
0
100
AcDbLine
 62
7
  6
CONTINUOUS
 10
22.9648522202
 20
-28.2840722662
 11
22.9779372533
 21
-28.2981411511
  0
LINE
  5
3E5
100
AcDbEntity
  8
RACCORDO
100
AcDbLine
 62
7
  6
CONTINUOUS
 10
-23.1234768373
 20
-5.5978754379
 11
-23.148226616
 21
-5.571207373
  0
LINE
  5
3E6
100
AcDbEntity
  8
0
100
AcDbLine
 62
7
  6
CONTINUOUS
 10
4.4490082507
 20
-23.8921408096
 11
4.4720000051
 21
-23.9170017307
  0
LINE
  5
3E7
100
AcDbEntity
  8
RACCORDO
100
AcDbLine
 62
7
  6
CONTINUOUS
 10
24.5150153177
 20
4.3979551019
 11
24.545761384
 21
4.3646552925
  0
LINE
  5
3E8
100
AcDbEntity
  8
RACCORDO
100
AcDbLine
 62
7
  6
CONTINUOUS
 10
-28.7940897997
 20
-17.8292562991
 11
-28.7519700528
 21
-17.8749788775
  0
LINE
  5
3E9
100
AcDbEntity
  8
RACCORDO
100
AcDbLine
 62
7
  6
CONTINUOUS
 10
-22.6810789475
 20
-5.0666395646
 11
-22.696435466
 21
-5.0498178072
  0
LINE
  5
3EA
100
AcDbEntity
  8
RACCORDO
100
AcDbLine
 62
7
  6
CONTINUOUS
 10
-23.4340329129
 20
31.8554004865
 11
-23.4055324713
 21
31.823954889
  0
LINE
  5
3EB
100
AcDbEntity
  8
RACCORDO
100
AcDbLine
 62
7
  6
CONTINUOUS
 10
-28.7823727105
 20
-17.7903288967
 11
-28.7553113499
 21
-17.8202110036
  0
LINE
  5
3EC
100
AcDbEntity
  8
0
100
AcDbLine
 62
7
  6
CONTINUOUS
 10
4.2437144946
 20
-25.0328714113
 11
4.2280725605
 21
-25.0155349703
  0
LINE
  5
3ED
100
AcDbEntity
  8
0
100
AcDbLine
 62
7
  6
CONTINUOUS
 10
4.3501231778
 20
-24.9714172714
 11
4.3344814124
 21
-24.9540828195
  0
LINE
  5
3EE
100
AcDbEntity
  8
RACCORDO
100
AcDbLine
 62
7
  6
CONTINUOUS
 10
24.9973751468
 20
-32.4516298533
 11
24.9775107179
 21
-32.4295863707
  0
LINE
  5
3EF
100
AcDbEntity
  8
RACCORDO
100
AcDbLine
 62
7
  6
CONTINUOUS
 10
-30.7607068403
 20
-0.8818848304
 11
-30.7726258987
 21
-0.8686465286
  0
LINE
  5
3F0
100
AcDbEntity
  8
RACCORDO
100
AcDbLine
 62
7
  6
CONTINUOUS
 10
-23.148226616
 20
-5.571207373
 11
-23.1726861766
 21
-5.5439465979
  0
LINE
  5
3F1
100
AcDbEntity
  8
RACCORDO
100
AcDbLine
 62
7
  6
CONTINUOUS
 10
24.550535117
 20
4.5321099452
 11
24.5744582071
 21
4.5053934146
  0
LINE
  5
3F2
100
AcDbEntity
  8
0
100
AcDbLine
 62
7
  6
CONTINUOUS
 10
-8.958498852
 20
-10.1933836519
 11
-8.9444493867
 21
-10.2093013435
  0
LINE
  5
3F3
100
AcDbEntity
  8
0
100
AcDbLine
 62
7
  6
CONTINUOUS
 10
22.8613063014
 20
-28.5657403517
 11
22.8753557667
 21
-28.5816580433
  0
LINE
  5
3F4
100
AcDbEntity
  8
RACCORDO
100
AcDbLine
 62
7
  6
CONTINUOUS
 10
-22.696435466
 20
-5.0498178072
 11
-22.7116271013
 21
-5.0325917375
  0
LINE
  5
3F5
100
AcDbEntity
  8
RACCORDO
100
AcDbLine
 62
7
  6
CONTINUOUS
 10
-23.1726861766
 20
-5.5439465979
 11
-23.1968513093
 21
-5.5160869451
  0
LINE
  5
3F6
100
AcDbEntity
  8
0
100
AcDbLine
 62
7
  6
CONTINUOUS
 10
4.5656398206
 20
-25.0395940403
 11
4.5846932818
 21
-25.061595907
  0
LINE
  5
3F7
100
AcDbEntity
  8
RACCORDO
100
AcDbLine
 62
7
  6
CONTINUOUS
 10
24.545761384
 20
4.3646552925
 11
24.5762999669
 21
4.3292225297
  0
LINE
  5
3F8
100
AcDbEntity
  8
RACCORDO
100
AcDbLine
 62
7
  6
CONTINUOUS
 10
24.5744582071
 20
4.5053934146
 11
24.5980153316
 21
4.4780367264
  0
LINE
  5
3F9
100
AcDbEntity
  8
0
100
AcDbLine
 62
7
  6
CONTINUOUS
 10
4.4720000051
 20
-23.9170017307
 11
4.4952718383
 21
-23.9440334586
  0
LINE
  5
3FA
100
AcDbEntity
  8
RACCORDO
100
AcDbLine
 62
7
  6
CONTINUOUS
 10
-28.8348047848
 20
-17.781774397
 11
-28.7940897997
 21
-17.8292562991
  0
LINE
  5
3FB
100
AcDbEntity
  8
RACCORDO
100
AcDbLine
 62
7
  6
CONTINUOUS
 10
-28.8088745721
 20
-17.7593872488
 11
-28.7823727105
 21
-17.7903288967
  0
LINE
  5
3FC
100
AcDbEntity
  8
RACCORDO
100
AcDbLine
 62
7
  6
CONTINUOUS
 10
-29.1371580512
 20
54.546517852
 11
-29.1472774624
 21
54.5583365553
  0
LINE
  5
3FD
100
AcDbEntity
  8
0
100
AcDbLine
 62
7
  6
CONTINUOUS
 10
4.2702106622
 20
-24.1250508975
 11
4.2509998871
 21
-24.1025979072
  0
LINE
  5
3FE
100
AcDbEntity
  8
0
100
AcDbLine
 62
7
  6
CONTINUOUS
 10
4.3765671688
 20
-24.0636417796
 11
4.3573556838
 21
-24.0411892094
  0
LINE
  5
3FF
100
AcDbEntity
  8
RACCORDO
100
AcDbLine
 62
7
  6
CONTINUOUS
 10
-29.1251332536
 20
-17.1874799334
 11
-29.1371556622
 21
-17.1734004768
  0
LINE
  5
400
100
AcDbEntity
  8
RACCORDO
100
AcDbLine
 62
7
  6
CONTINUOUS
 10
-28.4713163829
 20
-18.097075385
 11
-28.4609140012
 21
-18.1092698677
  0
LINE
  5
401
100
AcDbEntity
  8
RACCORDO
100
AcDbLine
 62
7
  6
CONTINUOUS
 10
33.5817946175
 20
-53.9257636033
 11
33.59219687
 21
-53.9379581119
  0
LINE
  5
402
100
AcDbEntity
  8
0
100
AcDbLine
 62
7
  6
CONTINUOUS
 10
-8.850667906
 20
-9.8907079685
 11
-8.863752292
 21
-9.8753541454
  0
LINE
  5
403
100
AcDbEntity
  8
0
100
AcDbLine
 62
7
  6
CONTINUOUS
 10
22.9691372474
 20
-28.2630646682
 11
22.9560528614
 21
-28.2477108451
  0
LINE
  5
404
100
AcDbEntity
  8
RACCORDO
100
AcDbLine
 62
7
  6
CONTINUOUS
 10
-22.7116271013
 20
-5.0325917375
 11
-22.7266402363
 21
-5.0149729892
  0
LINE
  5
405
100
AcDbEntity
  8
RACCORDO
100
AcDbLine
 62
7
  6
CONTINUOUS
 10
-22.6901467987
 20
31.719340941
 11
-22.6755852891
 21
31.702243215
  0
LINE
  5
406
100
AcDbEntity
  8
RACCORDO
100
AcDbLine
 62
7
  6
CONTINUOUS
 10
24.251342866
 20
4.6159131066
 11
24.2659043788
 21
4.5988153837
  0
LINE
  5
407
100
AcDbEntity
  8
RACCORDO
100
AcDbLine
 62
7
  6
CONTINUOUS
 10
-23.1968513093
 20
-5.5160869451
 11
-23.2207368876
 21
-5.487593184
  0
LINE
  5
408
100
AcDbEntity
  8
RACCORDO
100
AcDbLine
 62
7
  6
CONTINUOUS
 10
24.5980153316
 20
4.4780367264
 11
24.6212114905
 21
4.4500464792
  0
LINE
  5
409
100
AcDbEntity
  8
0
100
AcDbLine
 62
7
  6
CONTINUOUS
 10
4.3653385814
 20
-24.9898238909
 11
4.3501231778
 21
-24.9714172714
  0
LINE
  5
40A
100
AcDbEntity
  8
0
100
AcDbLine
 62
7
  6
CONTINUOUS
 10
4.2589296307
 20
-25.0512799293
 11
4.2437144946
 21
-25.0328714113
  0
LINE
  5
40B
100
AcDbEntity
  8
RACCORDO
100
AcDbLine
 62
7
  6
CONTINUOUS
 10
-22.7266402363
 20
-5.0149729892
 11
-22.7414600996
 21
-4.9969736968
  0
LINE
  5
40C
100
AcDbEntity
  8
RACCORDO
100
AcDbLine
 62
7
  6
CONTINUOUS
 10
-23.2207368876
 20
-5.487593184
 11
-23.244348411
 21
-5.4584690526
  0
LINE
  5
40D
100
AcDbEntity
  8
0
100
AcDbLine
 62
7
  6
CONTINUOUS
 10
4.4952718383
 20
-23.9440334586
 11
4.5189180572
 21
-23.9732092943
  0
LINE
  5
40E
100
AcDbEntity
  8
RACCORDO
100
AcDbLine
 62
7
  6
CONTINUOUS
 10
-28.8345496139
 20
-17.7276874686
 11
-28.8088745721
 21
-17.7593872488
  0
LINE
  5
40F
100
AcDbEntity
  8
RACCORDO
100
AcDbLine
 62
7
  6
CONTINUOUS
 10
24.5762999669
 20
4.3292225297
 11
24.6064185519
 21
4.2918134429
  0
LINE
  5
410
100
AcDbEntity
  8
RACCORDO
100
AcDbLine
 62
7
  6
CONTINUOUS
 10
-28.8739802666
 20
-17.7326927589
 11
-28.8348047848
 21
-17.781774397
  0
LINE
  5
411
100
AcDbEntity
  8
0
100
AcDbLine
 62
7
  6
CONTINUOUS
 10
36.3743260931
 20
-19.0145298393
 11
36.3671339587
 21
-19.0055183356
  0
LINE
  5
412
100
AcDbEntity
  8
0
100
AcDbLine
 62
7
  6
CONTINUOUS
 10
4.5846932818
 20
-25.061595907
 11
4.6025422414
 21
-25.0839744154
  0
LINE
  5
413
100
AcDbEntity
  8
RACCORDO
100
AcDbLine
 62
7
  6
CONTINUOUS
 10
24.6212114905
 20
4.4500464792
 11
24.6440420974
 21
4.4214162883
  0
LINE
  5
414
100
AcDbEntity
  8
RACCORDO
100
AcDbLine
 62
7
  6
CONTINUOUS
 10
-22.7414600996
 20
-4.9969736968
 11
-22.7561158976
 21
-4.978541348
  0
LINE
  5
415
100
AcDbEntity
  8
RACCORDO
100
AcDbLine
 62
7
  6
CONTINUOUS
 10
-23.4603511511
 20
31.8886575553
 11
-23.4340329129
 21
31.8554004865
  0
LINE
  5
416
100
AcDbEntity
  8
0
100
AcDbLine
 62
7
  6
CONTINUOUS
 10
-8.9444493867
 20
-10.2093013435
 11
-8.9311156437
 21
-10.2262048909
  0
LINE
  5
417
100
AcDbEntity
  8
0
100
AcDbLine
 62
7
  6
CONTINUOUS
 10
22.8753557667
 20
-28.5816580433
 11
22.8886895097
 21
-28.5985615907
  0
LINE
  5
418
100
AcDbEntity
  8
RACCORDO
100
AcDbLine
 62
7
  6
CONTINUOUS
 10
-23.244348411
 20
-5.4584690526
 11
-23.2676798734
 21
-5.4287104902
  0
LINE
  5
419
100
AcDbEntity
  8
0
100
AcDbLine
 62
7
  6
CONTINUOUS
 10
4.3950921755
 20
-24.0874648864
 11
4.3765671688
 21
-24.0636417796
  0
LINE
  5
41A
100
AcDbEntity
  8
0
100
AcDbLine
 62
7
  6
CONTINUOUS
 10
4.288734843
 20
-24.1488744838
 11
4.2702106622
 21
-24.1250508975
  0
LINE
  5
41B
100
AcDbEntity
  8
0
100
AcDbLine
 62
7
  6
CONTINUOUS
 10
-8.8213372785
 20
-10.2342177667
 11
-8.8328812886
 21
-10.2192659211
  0
LINE
  5
41C
100
AcDbEntity
  8
0
100
AcDbLine
 62
7
  6
CONTINUOUS
 10
22.9984678749
 20
-28.6065744665
 11
22.9869238648
 21
-28.5916226209
  0
LINE
  5
41D
100
AcDbEntity
  8
0
100
AcDbLine
 62
7
  6
CONTINUOUS
 10
-8.8418679001
 20
-9.9257844514
 11
-8.8303251281
 21
-9.9407451001
  0
LINE
  5
41E
100
AcDbEntity
  8
0
100
AcDbLine
 62
7
  6
CONTINUOUS
 10
22.9779372533
 20
-28.2981411511
 11
22.9894800253
 21
-28.3131017999
  0
LINE
  5
41F
100
AcDbEntity
  8
RACCORDO
100
AcDbLine
 62
7
  6
CONTINUOUS
 10
-30.7726259022
 20
36.1445487506
 11
-30.7826234503
 21
36.1575285628
  0
LINE
  5
420
100
AcDbEntity
  8
RACCORDO
100
AcDbLine
 62
7
  6
CONTINUOUS
 10
24.9775098301
 20
3.2805020109
 11
24.9608484737
 21
3.3021612319
  0
LINE
  5
421
100
AcDbEntity
  8
RACCORDO
100
AcDbLine
 62
7
  6
CONTINUOUS
 10
-22.7561158976
 20
-4.978541348
 11
-22.7705908914
 21
-4.9596872829
  0
LINE
  5
422
100
AcDbEntity
  8
RACCORDO
100
AcDbLine
 62
7
  6
CONTINUOUS
 10
24.6440420974
 20
4.4214162883
 11
24.6665199563
 21
4.392109728
  0
LINE
  5
423
100
AcDbEntity
  8
RACCORDO
100
AcDbLine
 62
7
  6
CONTINUOUS
 10
-28.8593904481
 20
-17.6952201845
 11
-28.8345496139
 21
-17.7276874686
  0
LINE
  5
424
100
AcDbEntity
  8
0
100
AcDbLine
 62
7
  6
CONTINUOUS
 10
4.5189180572
 20
-23.9732092943
 11
4.5428456317
 21
-24.0045550938
  0
LINE
  5
425
100
AcDbEntity
  8
0
100
AcDbLine
 62
7
  6
CONTINUOUS
 10
4.2735033831
 20
-25.0703898472
 11
4.2589296307
 21
-25.0512799293
  0
LINE
  5
426
100
AcDbEntity
  8
0
100
AcDbLine
 62
7
  6
CONTINUOUS
 10
4.3799130578
 20
-25.0089324014
 11
4.3653385814
 21
-24.9898238909
  0
LINE
  5
427
100
AcDbEntity
  8
RACCORDO
100
AcDbLine
 62
7
  6
CONTINUOUS
 10
-23.2676798734
 20
-5.4287104902
 11
-23.2907288454
 21
-5.3982705399
  0
LINE
  5
428
100
AcDbEntity
  8
RACCORDO
100
AcDbLine
 62
7
  6
CONTINUOUS
 10
24.6064185519
 20
4.2918134429
 11
24.6359506396
 21
4.2525570238
  0
LINE
  5
429
100
AcDbEntity
  8
RACCORDO
100
AcDbLine
 62
7
  6
CONTINUOUS
 10
-28.9113812955
 20
-17.6823022328
 11
-28.8739802666
 21
-17.7326927589
  0
LINE
  5
42A
100
AcDbEntity
  8
RACCORDO
100
AcDbLine
 62
7
  6
CONTINUOUS
 10
-22.7705908914
 20
-4.9596872829
 11
-22.7848675005
 21
-4.9404225597
  0
LINE
  5
42B
100
AcDbEntity
  8
RACCORDO
100
AcDbLine
 62
7
  6
CONTINUOUS
 10
24.6665199563
 20
4.392109728
 11
24.6886517499
 21
4.3621312194
  0
LINE
  5
42C
100
AcDbEntity
  8
RACCORDO
100
AcDbLine
 62
7
  6
CONTINUOUS
 10
-23.2907288454
 20
-5.3982705399
 11
-23.3135021923
 21
-5.3671512037
  0
LINE
  5
42D
100
AcDbEntity
  8
0
100
AcDbLine
 62
7
  6
CONTINUOUS
 10
4.6025422414
 20
-25.0839744154
 11
4.6191200193
 21
-25.1068902753
  0
LINE
  5
42E
100
AcDbEntity
  8
RACCORDO
100
AcDbLine
 62
7
  6
CONTINUOUS
 10
-28.8834032075
 20
-17.6619937785
 11
-28.8593904481
 21
-17.6952201845
  0
LINE
  5
42F
100
AcDbEntity
  8
RACCORDO
100
AcDbLine
 62
7
  6
CONTINUOUS
 10
24.9775107179
 20
-32.4295863707
 11
24.9608489948
 21
-32.4065243613
  0
LINE
  5
430
100
AcDbEntity
  8
0
100
AcDbLine
 62
7
  6
CONTINUOUS
 10
-8.8389452648
 20
-9.9069440752
 11
-8.850667906
 21
-9.8907079685
  0
LINE
  5
431
100
AcDbEntity
  8
0
100
AcDbLine
 62
7
  6
CONTINUOUS
 10
22.9808598886
 20
-28.279300775
 11
22.9691372474
 21
-28.2630646682
  0
LINE
  5
432
100
AcDbEntity
  8
RACCORDO
100
AcDbLine
 62
7
  6
CONTINUOUS
 10
-30.7726258987
 20
-0.8686465286
 11
-30.7826234468
 21
-0.8547943294
  0
LINE
  5
433
100
AcDbEntity
  8
RACCORDO
100
AcDbLine
 62
7
  6
CONTINUOUS
 10
-22.7848675005
 20
-4.9404225597
 11
-22.7989680361
 21
-4.9206901082
  0
LINE
  5
434
100
AcDbEntity
  8
0
100
AcDbLine
 62
7
  6
CONTINUOUS
 10
4.5428456317
 20
-24.0045550938
 11
4.5667742986
 21
-24.0381491989
  0
LINE
  5
435
100
AcDbEntity
  8
RACCORDO
100
AcDbLine
 62
7
  6
CONTINUOUS
 10
24.6886517499
 20
4.3621312194
 11
24.710431302
 21
4.3314766036
  0
LINE
  5
436
100
AcDbEntity
  8
0
100
AcDbLine
 62
7
  6
CONTINUOUS
 10
4.3065044922
 20
-24.1738986845
 11
4.288734843
 21
-24.1488744838
  0
LINE
  5
437
100
AcDbEntity
  8
0
100
AcDbLine
 62
7
  6
CONTINUOUS
 10
4.412862759
 20
-24.1124885524
 11
4.3950921755
 21
-24.0874648864
  0
LINE
  5
438
100
AcDbEntity
  8
RACCORDO
100
AcDbLine
 62
7
  6
CONTINUOUS
 10
-23.3135021923
 20
-5.3671512037
 11
-23.3359924243
 21
-5.3353500823
  0
LINE
  5
439
100
AcDbEntity
  8
0
100
AcDbLine
 62
7
  6
CONTINUOUS
 10
-8.9311156437
 20
-10.2262048909
 11
-8.9185947007
 21
-10.2439723034
  0
LINE
  5
43A
100
AcDbEntity
  8
0
100
AcDbLine
 62
7
  6
CONTINUOUS
 10
22.8886895097
 20
-28.5985615907
 11
22.9012104527
 21
-28.6163290032
  0
LINE
  5
43B
100
AcDbEntity
  8
RACCORDO
100
AcDbLine
 62
7
  6
CONTINUOUS
 10
24.6359506396
 20
4.2525570238
 11
24.66474684
 21
4.2115800829
  0
LINE
  5
43C
100
AcDbEntity
  8
0
100
AcDbLine
 62
7
  6
CONTINUOUS
 10
4.2873833342
 20
-25.0901815186
 11
4.2735033831
 21
-25.0703898472
  0
LINE
  5
43D
100
AcDbEntity
  8
0
100
AcDbLine
 62
7
  6
CONTINUOUS
 10
4.3937942781
 20
-25.028723307
 11
4.3799130578
 21
-25.0089324014
  0
LINE
  5
43E
100
AcDbEntity
  8
RACCORDO
100
AcDbLine
 62
7
  6
CONTINUOUS
 10
-28.9468849273
 20
-17.6307776286
 11
-28.9113812955
 21
-17.6823022328
  0
LINE
  5
43F
100
AcDbEntity
  8
RACCORDO
100
AcDbLine
 62
7
  6
CONTINUOUS
 10
-22.7989680361
 20
-4.9206901082
 11
-22.8128707115
 21
-4.9005038413
  0
LINE
  5
440
100
AcDbEntity
  8
RACCORDO
100
AcDbLine
 62
7
  6
CONTINUOUS
 10
-23.4842975423
 20
31.923486452
 11
-23.4603511511
 21
31.8886575553
  0
LINE
  5
441
100
AcDbEntity
  8
RACCORDO
100
AcDbLine
 62
7
  6
CONTINUOUS
 10
24.710431302
 20
4.3314766036
 11
24.7318521729
 21
4.3000966083
  0
LINE
  5
442
100
AcDbEntity
  8
RACCORDO
100
AcDbLine
 62
7
  6
CONTINUOUS
 10
-23.3359924243
 20
-5.3353500823
 11
-23.3581755131
 21
-5.3028135754
  0
LINE
  5
443
100
AcDbEntity
  8
RACCORDO
100
AcDbLine
 62
7
  6
CONTINUOUS
 10
-28.9063409574
 20
-17.6283363726
 11
-28.8834032075
 21
-17.6619937785
  0
LINE
  5
444
100
AcDbEntity
  8
RACCORDO
100
AcDbLine
 62
7
  6
CONTINUOUS
 10
-29.1472774624
 20
54.5583365553
 11
-29.1554212639
 21
54.5703060131
  0
LINE
  5
445
100
AcDbEntity
  8
RACCORDO
100
AcDbLine
 62
7
  6
CONTINUOUS
 10
-29.1371556622
 20
-17.1734004768
 11
-29.147274542
 21
-17.1585131377
  0
LINE
  5
446
100
AcDbEntity
  8
0
100
AcDbLine
 62
7
  6
CONTINUOUS
 10
4.5667742986
 20
-24.0381491989
 11
4.5908798323
 21
-24.0741366368
  0
LINE
  5
447
100
AcDbEntity
  8
RACCORDO
100
AcDbLine
 62
7
  6
CONTINUOUS
 10
-22.7030157516
 20
31.7386018191
 11
-22.6901467987
 21
31.719340941
  0
LINE
  5
448
100
AcDbEntity
  8
RACCORDO
100
AcDbLine
 62
7
  6
CONTINUOUS
 10
24.2384739093
 20
4.6351739826
 11
24.251342866
 21
4.6159131066
  0
LINE
  5
449
100
AcDbEntity
  8
RACCORDO
100
AcDbLine
 62
7
  6
CONTINUOUS
 10
-22.8128707115
 20
-4.9005038413
 11
-22.8265548825
 21
-4.879873839
  0
LINE
  5
44A
100
AcDbEntity
  8
RACCORDO
100
AcDbLine
 62
7
  6
CONTINUOUS
 10
24.9072078202
 20
-33.032176375
 11
24.8839420928
 21
-32.9969544714
  0
LINE
  5
44B
100
AcDbEntity
  8
0
100
AcDbLine
 62
7
  6
CONTINUOUS
 10
4.6191200193
 20
-25.1068902753
 11
4.6344939484
 21
-25.1301823393
  0
LINE
  5
44C
100
AcDbEntity
  8
RACCORDO
100
AcDbLine
 62
7
  6
CONTINUOUS
 10
-23.3581755131
 20
-5.3028135754
 11
-23.3800599161
 21
-5.269542152
  0
LINE
  5
44D
100
AcDbEntity
  8
RACCORDO
100
AcDbLine
 62
7
  6
CONTINUOUS
 10
24.7318521729
 20
4.3000966083
 11
24.7529224388
 21
4.2679939345
  0
LINE
  5
44E
100
AcDbEntity
  8
RACCORDO
100
AcDbLine
 62
7
  6
CONTINUOUS
 10
24.66474684
 20
4.2115800829
 11
24.6926419645
 21
4.1690536934
  0
LINE
  5
44F
100
AcDbEntity
  8
0
100
AcDbLine
 62
7
  6
CONTINUOUS
 10
4.4070351187
 20
-25.0492157356
 11
4.3937942781
 21
-25.028723307
  0
LINE
  5
450
100
AcDbEntity
  8
0
100
AcDbLine
 62
7
  6
CONTINUOUS
 10
4.3006224485
 20
-25.1106742225
 11
4.2873833342
 21
-25.0901815186
  0
LINE
  5
451
100
AcDbEntity
  8
0
100
AcDbLine
 62
7
  6
CONTINUOUS
 10
4.4292292976
 20
-24.1379931068
 11
4.412862759
 21
-24.1124885524
  0
LINE
  5
452
100
AcDbEntity
  8
0
100
AcDbLine
 62
7
  6
CONTINUOUS
 10
4.3228700125
 20
-24.1994038177
 11
4.3065044922
 21
-24.1738986845
  0
LINE
  5
453
100
AcDbEntity
  8
RACCORDO
100
AcDbLine
 62
7
  6
CONTINUOUS
 10
-28.9281929167
 20
-17.5942432938
 11
-28.9063409574
 21
-17.6283363726
  0
LINE
  5
454
100
AcDbEntity
  8
RACCORDO
100
AcDbLine
 62
7
  6
CONTINUOUS
 10
-28.4802755932
 20
-18.0830514784
 11
-28.4713163829
 21
-18.097075385
  0
LINE
  5
455
100
AcDbEntity
  8
RACCORDO
100
AcDbLine
 62
7
  6
CONTINUOUS
 10
33.5728355394
 20
-53.9117397324
 11
33.5817946175
 21
-53.9257636033
  0
LINE
  5
456
100
AcDbEntity
  8
RACCORDO
100
AcDbLine
 62
7
  6
CONTINUOUS
 10
-22.8265548825
 20
-4.879873839
 11
-22.8400373812
 21
-4.8587344425
  0
LINE
  5
457
100
AcDbEntity
  8
RACCORDO
100
AcDbLine
 62
7
  6
CONTINUOUS
 10
-28.9803569694
 20
-17.5782912085
 11
-28.9468849273
 21
-17.6307776286
  0
LINE
  5
458
100
AcDbEntity
  8
RACCORDO
100
AcDbLine
 62
7
  6
CONTINUOUS
 10
-23.3800599161
 20
-5.269542152
 11
-23.4016364007
 21
-5.2355348505
  0
LINE
  5
459
100
AcDbEntity
  8
RACCORDO
100
AcDbLine
 62
7
  6
CONTINUOUS
 10
24.7529224388
 20
4.2679939345
 11
24.7736346479
 21
4.2351662049
  0
LINE
  5
45A
100
AcDbEntity
  8
0
100
AcDbLine
 62
7
  6
CONTINUOUS
 10
-8.8114182543
 20
-10.2499512642
 11
-8.8213372785
 21
-10.2342177667
  0
LINE
  5
45B
100
AcDbEntity
  8
0
100
AcDbLine
 62
7
  6
CONTINUOUS
 10
4.5908798323
 20
-24.0741366368
 11
4.6149885559
 21
-24.1123709935
  0
LINE
  5
45C
100
AcDbEntity
  8
0
100
AcDbLine
 62
7
  6
CONTINUOUS
 10
23.0083868991
 20
-28.6223079639
 11
22.9984678749
 21
-28.6065744665
  0
LINE
  5
45D
100
AcDbEntity
  8
0
100
AcDbLine
 62
7
  6
CONTINUOUS
 10
-8.8303251281
 20
-9.9407451001
 11
-8.8204103347
 21
-9.9564850338
  0
LINE
  5
45E
100
AcDbEntity
  8
0
100
AcDbLine
 62
7
  6
CONTINUOUS
 10
22.9894800253
 20
-28.3131017999
 11
22.9993948187
 21
-28.3288417336
  0
LINE
  5
45F
100
AcDbEntity
  8
0
100
AcDbLine
 62
7
  6
CONTINUOUS
 10
-8.9185947007
 20
-10.2439723034
 11
-8.906987878
 21
-10.2624608049
  0
LINE
  5
460
100
AcDbEntity
  8
0
100
AcDbLine
 62
7
  6
CONTINUOUS
 10
22.9012104527
 20
-28.6163290032
 11
22.9128172754
 21
-28.6348175046
  0
LINE
  5
461
100
AcDbEntity
  8
0
100
AcDbLine
 62
7
  6
CONTINUOUS
 10
4.6344939484
 20
-25.1301823393
 11
4.6488651601
 21
-25.1533677459
  0
LINE
  5
462
100
AcDbEntity
  8
RACCORDO
100
AcDbLine
 62
7
  6
CONTINUOUS
 10
-22.8400373812
 20
-4.8587344425
 11
-22.8533042794
 21
-4.8370723923
  0
LINE
  5
463
100
AcDbEntity
  8
RACCORDO
100
AcDbLine
 62
7
  6
CONTINUOUS
 10
24.6926419645
 20
4.1690536934
 11
24.7194930468
 21
4.1251411162
  0
LINE
  5
464
100
AcDbEntity
  8
RACCORDO
100
AcDbLine
 62
7
  6
CONTINUOUS
 10
-23.4016364007
 20
-5.2355348505
 11
-23.4228543123
 21
-5.2007358659
  0
LINE
  5
465
100
AcDbEntity
  8
0
100
AcDbLine
 62
7
  6
CONTINUOUS
 10
-8.8285909511
 20
-9.9240099584
 11
-8.8389452648
 21
-9.9069440752
  0
LINE
  5
466
100
AcDbEntity
  8
0
100
AcDbLine
 62
7
  6
CONTINUOUS
 10
22.9912142023
 20
-28.2963666582
 11
22.9808598886
 21
-28.279300775
  0
LINE
  5
467
100
AcDbEntity
  8
RACCORDO
100
AcDbLine
 62
7
  6
CONTINUOUS
 10
24.7736346479
 20
4.2351662049
 11
24.7939591343
 21
4.2015565642
  0
LINE
  5
468
100
AcDbEntity
  8
RACCORDO
100
AcDbLine
 62
7
  6
CONTINUOUS
 10
-28.9489685926
 20
-17.5597182123
 11
-28.9281929167
 21
-17.5942432938
  0
LINE
  5
469
100
AcDbEntity
  8
0
100
AcDbLine
 62
7
  6
CONTINUOUS
 10
4.3131641191
 20
-25.1315557341
 11
4.3006224485
 21
-25.1106742225
  0
LINE
  5
46A
100
AcDbEntity
  8
0
100
AcDbLine
 62
7
  6
CONTINUOUS
 10
4.4195787269
 20
-25.0700974096
 11
4.4070351187
 21
-25.0492157356
  0
LINE
  5
46B
100
AcDbEntity
  8
RACCORDO
100
AcDbLine
 62
7
  6
CONTINUOUS
 10
-30.7826234503
 20
36.1575285628
 11
-30.7906283794
 21
36.1708673764
  0
LINE
  5
46C
100
AcDbEntity
  8
RACCORDO
100
AcDbLine
 62
7
  6
CONTINUOUS
 10
24.9608484737
 20
3.3021612319
 11
24.9475083195
 21
3.3244234821
  0
LINE
  5
46D
100
AcDbEntity
  8
RACCORDO
100
AcDbLine
 62
7
  6
CONTINUOUS
 10
-29.0116027156
 20
-17.5251315282
 11
-28.9803569694
 21
-17.5782912085
  0
LINE
  5
46E
100
AcDbEntity
  8
RACCORDO
100
AcDbLine
 62
7
  6
CONTINUOUS
 10
-22.8533042794
 20
-4.8370723923
 11
-22.8663148873
 21
-4.8149293984
  0
LINE
  5
46F
100
AcDbEntity
  8
RACCORDO
100
AcDbLine
 62
7
  6
CONTINUOUS
 10
-23.4228543123
 20
-5.2007358659
 11
-23.4436964252
 21
-5.1651263805
  0
LINE
  5
470
100
AcDbEntity
  8
0
100
AcDbLine
 62
7
  6
CONTINUOUS
 10
4.6488651601
 20
-25.1533677459
 11
4.6622076629
 21
-25.17631549
  0
LINE
  5
471
100
AcDbEntity
  8
0
100
AcDbLine
 62
7
  6
CONTINUOUS
 10
4.6149885559
 20
-24.1123709935
 11
4.6382963486
 21
-24.1524932379
  0
LINE
  5
472
100
AcDbEntity
  8
RACCORDO
100
AcDbLine
 62
7
  6
CONTINUOUS
 10
24.7939591343
 20
4.2015565642
 11
24.8139056601
 21
4.1671662345
  0
LINE
  5
473
100
AcDbEntity
  8
0
100
AcDbLine
 62
7
  6
CONTINUOUS
 10
36.3671339587
 20
-19.0055183356
 11
36.3608471558
 21
-18.9945486466
  0
LINE
  5
474
100
AcDbEntity
  8
RACCORDO
100
AcDbLine
 62
7
  6
CONTINUOUS
 10
24.7194930468
 20
4.1251411162
 11
24.7451675569
 21
4.0800115535
  0
LINE
  5
475
100
AcDbEntity
  8
0
100
AcDbLine
 62
7
  6
CONTINUOUS
 10
4.3376830256
 20
-24.2254559307
 11
4.3228700125
 21
-24.1994038177
  0
LINE
  5
476
100
AcDbEntity
  8
0
100
AcDbLine
 62
7
  6
CONTINUOUS
 10
4.4440434223
 20
-24.1640445917
 11
4.4292292976
 21
-24.1379931068
  0
LINE
  5
477
100
AcDbEntity
  8
RACCORDO
100
AcDbLine
 62
7
  6
CONTINUOUS
 10
-28.9684516815
 20
-17.5251019206
 11
-28.9489685926
 21
-17.5597182123
  0
LINE
  5
478
100
AcDbEntity
  8
RACCORDO
100
AcDbLine
 62
7
  6
CONTINUOUS
 10
-22.8663148873
 20
-4.8149293984
 11
-22.8790411056
 21
-4.7923227597
  0
LINE
  5
479
100
AcDbEntity
  8
RACCORDO
100
AcDbLine
 62
7
  6
CONTINUOUS
 10
-23.4436964252
 20
-5.1651263805
 11
-23.4641789863
 21
-5.1287245907
  0
LINE
  5
47A
100
AcDbEntity
  8
RACCORDO
100
AcDbLine
 62
7
  6
CONTINUOUS
 10
24.8839420928
 20
-32.9969544714
 11
24.863388345
 21
-32.9603690581
  0
LINE
  5
47B
100
AcDbEntity
  8
RACCORDO
100
AcDbLine
 62
7
  6
CONTINUOUS
 10
24.9608489948
 20
-32.4065243613
 11
24.9475084865
 21
-32.3826078571
  0
LINE
  5
47C
100
AcDbEntity
  8
0
100
AcDbLine
 62
7
  6
CONTINUOUS
 10
4.4314338446
 20
-25.0913618758
 11
4.4195787269
 21
-25.0700974096
  0
LINE
  5
47D
100
AcDbEntity
  8
0
100
AcDbLine
 62
7
  6
CONTINUOUS
 10
4.325017095
 20
-25.1528195427
 11
4.3131641191
 21
-25.1315557341
  0
LINE
  5
47E
100
AcDbEntity
  8
RACCORDO
100
AcDbLine
 62
7
  6
CONTINUOUS
 10
-30.7826234468
 20
-0.8547943294
 11
-30.790628376
 21
-0.8404267582
  0
LINE
  5
47F
100
AcDbEntity
  8
0
100
AcDbLine
 62
7
  6
CONTINUOUS
 10
-8.906987878
 20
-10.2624608049
 11
-8.8963851093
 21
-10.2815263276
  0
LINE
  5
480
100
AcDbEntity
  8
0
100
AcDbLine
 62
7
  6
CONTINUOUS
 10
22.9128172754
 20
-28.6348175046
 11
22.9234200441
 21
-28.6538830273
  0
LINE
  5
481
100
AcDbEntity
  8
RACCORDO
100
AcDbLine
 62
7
  6
CONTINUOUS
 10
24.8139056601
 20
4.1671662345
 11
24.8334652383
 21
4.131994396
  0
LINE
  5
482
100
AcDbEntity
  8
RACCORDO
100
AcDbLine
 62
7
  6
CONTINUOUS
 10
-23.4641789863
 20
-5.1287245907
 11
-23.4843014791
 21
-5.0915301692
  0
LINE
  5
483
100
AcDbEntity
  8
0
100
AcDbLine
 62
7
  6
CONTINUOUS
 10
4.6622076629
 20
-25.17631549
 11
4.6745477444
 21
-25.1991563779
  0
LINE
  5
484
100
AcDbEntity
  8
RACCORDO
100
AcDbLine
 62
7
  6
CONTINUOUS
 10
-29.0405214514
 20
-17.471449018
 11
-29.0116027156
 21
-17.5251315282
  0
LINE
  5
485
100
AcDbEntity
  8
0
100
AcDbLine
 62
7
  6
CONTINUOUS
 10
4.6382963486
 20
-24.1524932379
 11
4.6609009124
 21
-24.1949136677
  0
LINE
  5
486
100
AcDbEntity
  8
RACCORDO
100
AcDbLine
 62
7
  6
CONTINUOUS
 10
24.8334652383
 20
4.131994396
 11
24.852580172
 21
4.0959811778
  0
LINE
  5
487
100
AcDbEntity
  8
RACCORDO
100
AcDbLine
 62
7
  6
CONTINUOUS
 10
-22.8790411056
 20
-4.7923227597
 11
-22.8992311253
 21
-4.7542383082
  0
LINE
  5
488
100
AcDbEntity
  8
RACCORDO
100
AcDbLine
 62
7
  6
CONTINUOUS
 10
24.7451675569
 20
4.0800115535
 11
24.769534296
 21
4.0338566205
  0
LINE
  5
489
100
AcDbEntity
  8
RACCORDO
100
AcDbLine
 62
7
  6
CONTINUOUS
 10
-28.9866344691
 20
-17.4903776022
 11
-28.9684516815
 21
-17.5251019206
  0
LINE
  5
48A
100
AcDbEntity
  8
RACCORDO
100
AcDbLine
 62
7
  6
CONTINUOUS
 10
-29.147274542
 20
-17.1585131377
 11
-29.1554178508
 21
-17.142923908
  0
LINE
  5
48B
100
AcDbEntity
  8
RACCORDO
100
AcDbLine
 62
7
  6
CONTINUOUS
 10
-22.7141200858
 20
31.7599179942
 11
-22.7030157516
 21
31.7386018191
  0
LINE
  5
48C
100
AcDbEntity
  8
RACCORDO
100
AcDbLine
 62
7
  6
CONTINUOUS
 10
24.2273695711
 20
4.6564901569
 11
24.2384739093
 21
4.6351739826
  0
LINE
  5
48D
100
AcDbEntity
  8
0
100
AcDbLine
 62
7
  6
CONTINUOUS
 10
4.3361731282
 20
-25.1744718219
 11
4.325017095
 21
-25.1528195427
  0
LINE
  5
48E
100
AcDbEntity
  8
0
100
AcDbLine
 62
7
  6
CONTINUOUS
 10
4.4425922317
 20
-25.1130152498
 11
4.4314338446
 21
-25.0913618758
  0
LINE
  5
48F
100
AcDbEntity
  8
0
100
AcDbLine
 62
7
  6
CONTINUOUS
 10
4.6745477444
 20
-25.1991563779
 11
4.6861646801
 21
-25.22180045
  0
LINE
  5
490
100
AcDbEntity
  8
RACCORDO
100
AcDbLine
 62
7
  6
CONTINUOUS
 10
-23.4843014791
 20
-5.0915301692
 11
-23.516270654
 21
-5.0288597485
  0
LINE
  5
491
100
AcDbEntity
  8
RACCORDO
100
AcDbLine
 62
7
  6
CONTINUOUS
 10
-29.1554212639
 20
54.5703060131
 11
-29.1615314739
 21
54.5823410056
  0
LINE
  5
492
100
AcDbEntity
  8
RACCORDO
100
AcDbLine
 62
7
  6
CONTINUOUS
 10
24.852580172
 20
4.0959811778
 11
24.8712315694
 21
4.0591067997
  0
LINE
  5
493
100
AcDbEntity
  8
0
100
AcDbLine
 62
7
  6
CONTINUOUS
 10
4.3510929135
 20
-24.2519883098
 11
4.3376830256
 21
-24.2254559307
  0
LINE
  5
494
100
AcDbEntity
  8
0
100
AcDbLine
 62
7
  6
CONTINUOUS
 10
4.4574545065
 20
-24.190576298
 11
4.4440434223
 21
-24.1640445917
  0
LINE
  5
495
100
AcDbEntity
  8
0
100
AcDbLine
 62
7
  6
CONTINUOUS
 10
-8.8196829616
 20
-9.9417333871
 11
-8.8285909511
 21
-9.9240099584
  0
LINE
  5
496
100
AcDbEntity
  8
0
100
AcDbLine
 62
7
  6
CONTINUOUS
 10
23.0001221918
 20
-28.3140900868
 11
22.9912142023
 21
-28.2963666582
  0
LINE
  5
497
100
AcDbEntity
  8
0
100
AcDbLine
 62
7
  6
CONTINUOUS
 10
-8.8031985048
 20
-10.2663485772
 11
-8.8114182543
 21
-10.2499512642
  0
LINE
  5
498
100
AcDbEntity
  8
0
100
AcDbLine
 62
7
  6
CONTINUOUS
 10
23.0166066486
 20
-28.6387052769
 11
23.0083868991
 21
-28.6223079639
  0
LINE
  5
499
100
AcDbEntity
  8
0
100
AcDbLine
 62
7
  6
CONTINUOUS
 10
-8.8204103347
 20
-9.9564850338
 11
-8.8121970534
 21
-9.97288591
  0
LINE
  5
49A
100
AcDbEntity
  8
0
100
AcDbLine
 62
7
  6
CONTINUOUS
 10
22.9993948187
 20
-28.3288417336
 11
23.0076081
 21
-28.3452426097
  0
LINE
  5
49B
100
AcDbEntity
  8
0
100
AcDbLine
 62
7
  6
CONTINUOUS
 10
4.6609009124
 20
-24.1949136677
 11
4.6827076168
 21
-24.2392199513
  0
LINE
  5
49C
100
AcDbEntity
  8
RACCORDO
100
AcDbLine
 62
7
  6
CONTINUOUS
 10
-29.0669966484
 20
-17.4173999985
 11
-29.0405214514
 21
-17.471449018
  0
LINE
  5
49D
100
AcDbEntity
  8
RACCORDO
100
AcDbLine
 62
7
  6
CONTINUOUS
 10
-22.8992311253
 20
-4.7542383082
 11
-22.918136095
 21
-4.7155894472
  0
LINE
  5
49E
100
AcDbEntity
  8
0
100
AcDbLine
 62
7
  6
CONTINUOUS
 10
-8.8963851093
 20
-10.2815263276
 11
-8.8868653054
 21
-10.3010260874
  0
LINE
  5
49F
100
AcDbEntity
  8
0
100
AcDbLine
 62
7
  6
CONTINUOUS
 10
22.9234200441
 20
-28.6538830273
 11
22.932939848
 21
-28.6733827872
  0
LINE
  5
4A0
100
AcDbEntity
  8
RACCORDO
100
AcDbLine
 62
7
  6
CONTINUOUS
 10
24.769534296
 20
4.0338566205
 11
24.7924772086
 21
3.9868666605
  0
LINE
  5
4A1
100
AcDbEntity
  8
0
100
AcDbLine
 62
7
  6
CONTINUOUS
 10
4.6861646801
 20
-25.22180045
 11
4.6970975408
 21
-25.2442437371
  0
LINE
  5
4A2
100
AcDbEntity
  8
RACCORDO
100
AcDbLine
 62
7
  6
CONTINUOUS
 10
-29.0035235169
 20
-17.455561168
 11
-28.9866344691
 21
-17.4903776022
  0
LINE
  5
4A3
100
AcDbEntity
  8
RACCORDO
100
AcDbLine
 62
7
  6
CONTINUOUS
 10
24.8712315694
 20
4.0591067997
 11
24.8894393011
 21
4.0213915509
  0
LINE
  5
4A4
100
AcDbEntity
  8
0
100
AcDbLine
 62
7
  6
CONTINUOUS
 10
4.346549972
 20
-25.1962194695
 11
4.3361731282
 21
-25.1744718219
  0
LINE
  5
4A5
100
AcDbEntity
  8
0
100
AcDbLine
 62
7
  6
CONTINUOUS
 10
4.4529714186
 20
-25.1347642039
 11
4.4425922317
 21
-25.1130152498
  0
LINE
  5
4A6
100
AcDbEntity
  8
RACCORDO
100
AcDbLine
 62
7
  6
CONTINUOUS
 10
-28.4877206205
 20
-18.0673093028
 11
-28.4802755932
 21
-18.0830514784
  0
LINE
  5
4A7
100
AcDbEntity
  8
RACCORDO
100
AcDbLine
 62
7
  6
CONTINUOUS
 10
33.5653906347
 20
-53.8959976649
 11
33.5728355394
 21
-53.9117397324
  0
LINE
  5
4A8
100
AcDbEntity
  8
RACCORDO
100
AcDbLine
 62
7
  6
CONTINUOUS
 10
-23.516270654
 20
-5.0288597485
 11
-23.5460183807
 21
-4.9656595093
  0
LINE
  5
4A9
100
AcDbEntity
  8
RACCORDO
100
AcDbLine
 62
7
  6
CONTINUOUS
 10
24.863388345
 20
-32.9603690581
 11
24.8456946829
 21
-32.9226837616
  0
LINE
  5
4AA
100
AcDbEntity
  8
RACCORDO
100
AcDbLine
 62
7
  6
CONTINUOUS
 10
24.8894393011
 20
4.0213915509
 11
24.9072038834
 21
3.9828357002
  0
LINE
  5
4AB
100
AcDbEntity
  8
0
100
AcDbLine
 62
7
  6
CONTINUOUS
 10
4.6970975408
 20
-25.2442437371
 11
4.7073074108
 21
-25.2664901039
  0
LINE
  5
4AC
100
AcDbEntity
  8
RACCORDO
100
AcDbLine
 62
7
  6
CONTINUOUS
 10
24.7924772086
 20
3.9868666605
 11
24.8040688891
 21
3.9615882144
  0
LINE
  5
4AD
100
AcDbEntity
  8
0
100
AcDbLine
 62
7
  6
CONTINUOUS
 10
4.3628963306
 20
-24.27808239
 11
4.3510929135
 21
-24.2519883098
  0
LINE
  5
4AE
100
AcDbEntity
  8
0
100
AcDbLine
 62
7
  6
CONTINUOUS
 10
4.4692591524
 20
-24.2166696873
 11
4.4574545065
 21
-24.190576298
  0
LINE
  5
4AF
100
AcDbEntity
  8
RACCORDO
100
AcDbLine
 62
7
  6
CONTINUOUS
 10
-22.918136095
 20
-4.7155894472
 11
-22.935679415
 21
-4.676491308
  0
LINE
  5
4B0
100
AcDbEntity
  8
0
100
AcDbLine
 62
7
  6
CONTINUOUS
 10
4.6827076168
 20
-24.2392199513
 11
4.7026234131
 21
-24.2838193963
  0
LINE
  5
4B1
100
AcDbEntity
  8
RACCORDO
100
AcDbLine
 62
7
  6
CONTINUOUS
 10
-29.0189242464
 20
-17.4210427487
 11
-29.0035235169
 21
-17.455561168
  0
LINE
  5
4B2
100
AcDbEntity
  8
RACCORDO
100
AcDbLine
 62
7
  6
CONTINUOUS
 10
-29.0908834063
 20
-17.3632268283
 11
-29.0669966484
 21
-17.4173999985
  0
LINE
  5
4B3
100
AcDbEntity
  8
0
100
AcDbLine
 62
7
  6
CONTINUOUS
 10
4.46254401
 20
-25.1565108985
 11
4.4529714186
 21
-25.1347642039
  0
LINE
  5
4B4
100
AcDbEntity
  8
0
100
AcDbLine
 62
7
  6
CONTINUOUS
 10
4.3561203052
 20
-25.2179647213
 11
4.346549972
 21
-25.1962194695
  0
LINE
  5
4B5
100
AcDbEntity
  8
0
100
AcDbLine
 62
7
  6
CONTINUOUS
 10
4.7073074108
 20
-25.2664901039
 11
4.7169564347
 21
-25.2884614429
  0
LINE
  5
4B6
100
AcDbEntity
  8
RACCORDO
100
AcDbLine
 62
7
  6
CONTINUOUS
 10
-30.7906283794
 20
36.1708673764
 11
-30.7965837536
 21
36.1844703178
  0
LINE
  5
4B7
100
AcDbEntity
  8
RACCORDO
100
AcDbLine
 62
7
  6
CONTINUOUS
 10
-23.5460183807
 20
-4.9656595093
 11
-23.5735440067
 21
-4.9019290375
  0
LINE
  5
4B8
100
AcDbEntity
  8
0
100
AcDbLine
 62
7
  6
CONTINUOUS
 10
-8.8868653054
 20
-10.3010260874
 11
-8.8785007579
 21
-10.3208116876
  0
LINE
  5
4B9
100
AcDbEntity
  8
0
100
AcDbLine
 62
7
  6
CONTINUOUS
 10
22.932939848
 20
-28.6733827872
 11
22.9413043955
 21
-28.6931683873
  0
LINE
  5
4BA
100
AcDbEntity
  8
0
100
AcDbLine
 62
7
  6
CONTINUOUS
 10
4.7169564347
 20
-25.2884614429
 11
4.7260627999
 21
-25.3101532329
  0
LINE
  5
4BB
100
AcDbEntity
  8
RACCORDO
100
AcDbLine
 62
7
  6
CONTINUOUS
 10
-22.935679415
 20
-4.676491308
 11
-22.9518299667
 21
-4.6369657187
  0
LINE
  5
4BC
100
AcDbEntity
  8
0
100
AcDbLine
 62
7
  6
CONTINUOUS
 10
-8.8122506723
 20
-9.9599896985
 11
-8.8196829616
 21
-9.9417333871
  0
LINE
  5
4BD
100
AcDbEntity
  8
0
100
AcDbLine
 62
7
  6
CONTINUOUS
 10
23.0075544811
 20
-28.3323463982
 11
23.0001221918
 21
-28.3140900868
  0
LINE
  5
4BE
100
AcDbEntity
  8
RACCORDO
100
AcDbLine
 62
7
  6
CONTINUOUS
 10
-29.0328124102
 20
-17.3868431616
 11
-29.0189242464
 21
-17.4210427487
  0
LINE
  5
4BF
100
AcDbEntity
  8
RACCORDO
100
AcDbLine
 62
7
  6
CONTINUOUS
 10
24.9475084865
 20
-32.3826078571
 11
24.9375840795
 21
-32.3580069678
  0
LINE
  5
4C0
100
AcDbEntity
  8
RACCORDO
100
AcDbLine
 62
7
  6
CONTINUOUS
 10
-30.790628376
 20
-0.8404267582
 11
-30.7965837503
 21
-0.8256460058
  0
LINE
  5
4C1
100
AcDbEntity
  8
0
100
AcDbLine
 62
7
  6
CONTINUOUS
 10
4.4713377784
 20
-25.1783529192
 11
4.46254401
 21
-25.1565108985
  0
LINE
  5
4C2
100
AcDbEntity
  8
0
100
AcDbLine
 62
7
  6
CONTINUOUS
 10
4.3649118257
 20
-25.2398050878
 11
4.3561203052
 21
-25.2179647213
  0
LINE
  5
4C3
100
AcDbEntity
  8
RACCORDO
100
AcDbLine
 62
7
  6
CONTINUOUS
 10
-22.7233976204
 20
31.7831701022
 11
-22.7141200858
 21
31.7599179942
  0
LINE
  5
4C4
100
AcDbEntity
  8
0
100
AcDbLine
 62
7
  6
CONTINUOUS
 10
4.7260627999
 20
-25.3101532329
 11
4.7346083534
 21
-25.3315699714
  0
LINE
  5
4C5
100
AcDbEntity
  8
0
100
AcDbLine
 62
7
  6
CONTINUOUS
 10
4.4793572549
 20
-24.2421256879
 11
4.4692591524
 21
-24.2166696873
  0
LINE
  5
4C6
100
AcDbEntity
  8
0
100
AcDbLine
 62
7
  6
CONTINUOUS
 10
4.3729931814
 20
-24.3035390964
 11
4.3628963306
 21
-24.27808239
  0
LINE
  5
4C7
100
AcDbEntity
  8
0
100
AcDbLine
 62
7
  6
CONTINUOUS
 10
4.7026234131
 20
-24.2838193963
 11
4.720416235
 21
-24.3287733492
  0
LINE
  5
4C8
100
AcDbEntity
  8
RACCORDO
100
AcDbLine
 62
7
  6
CONTINUOUS
 10
-23.5735440067
 20
-4.9019290375
 11
-23.5990006924
 21
-4.8372906802
  0
LINE
  5
4C9
100
AcDbEntity
  8
RACCORDO
100
AcDbLine
 62
7
  6
CONTINUOUS
 10
-29.1120864733
 20
-17.3090595415
 11
-29.0908834063
 21
-17.3632268283
  0
LINE
  5
4CA
100
AcDbEntity
  8
0
100
AcDbLine
 62
7
  6
CONTINUOUS
 10
4.7346083534
 20
-25.3315699714
 11
4.7427006193
 21
-25.3526471526
  0
LINE
  5
4CB
100
AcDbEntity
  8
RACCORDO
100
AcDbLine
 62
7
  6
CONTINUOUS
 10
24.8456946829
 20
-32.9226837616
 11
24.830988603
 21
-32.8841701339
  0
LINE
  5
4CC
100
AcDbEntity
  8
0
100
AcDbLine
 62
7
  6
CONTINUOUS
 10
-8.7967395918
 20
-10.283286898
 11
-8.8031985048
 21
-10.2663485772
  0
LINE
  5
4CD
100
AcDbEntity
  8
0
100
AcDbLine
 62
7
  6
CONTINUOUS
 10
23.0230655616
 20
-28.6556435978
 11
23.0166066486
 21
-28.6387052769
  0
LINE
  5
4CE
100
AcDbEntity
  8
0
100
AcDbLine
 62
7
  6
CONTINUOUS
 10
-8.8121970534
 20
-9.97288591
 11
-8.8057473584
 21
-9.9898202939
  0
LINE
  5
4CF
100
AcDbEntity
  8
0
100
AcDbLine
 62
7
  6
CONTINUOUS
 10
23.0076081
 20
-28.3452426097
 11
23.014057795
 21
-28.3621769937
  0
LINE
  5
4D0
100
AcDbEntity
  8
RACCORDO
100
AcDbLine
 62
7
  6
CONTINUOUS
 10
-29.1554178508
 20
-17.142923908
 11
-29.1615276117
 21
-17.1267437764
  0
LINE
  5
4D1
100
AcDbEntity
  8
0
100
AcDbLine
 62
7
  6
CONTINUOUS
 10
4.7427006193
 20
-25.3526471526
 11
4.750340918
 21
-25.3733526579
  0
LINE
  5
4D2
100
AcDbEntity
  8
RACCORDO
100
AcDbLine
 62
7
  6
CONTINUOUS
 10
-22.9518299667
 20
-4.6369657187
 11
-22.9664643863
 21
-4.5972361948
  0
LINE
  5
4D3
100
AcDbEntity
  8
RACCORDO
100
AcDbLine
 62
7
  6
CONTINUOUS
 10
-29.0452114322
 20
-17.3529409446
 11
-29.0328124102
 21
-17.3868431616
  0
LINE
  5
4D4
100
AcDbEntity
  8
0
100
AcDbLine
 62
7
  6
CONTINUOUS
 10
4.4793529318
 20
-25.2002901254
 11
4.4713377784
 21
-25.1783529192
  0
LINE
  5
4D5
100
AcDbEntity
  8
0
100
AcDbLine
 62
7
  6
CONTINUOUS
 10
4.3729247411
 20
-25.2617404289
 11
4.3649118257
 21
-25.2398050878
  0
LINE
  5
4D6
100
AcDbEntity
  8
0
100
AcDbLine
 62
7
  6
CONTINUOUS
 10
-8.8785007579
 20
-10.3208116876
 11
-8.8713545232
 21
-10.3407341306
  0
LINE
  5
4D7
100
AcDbEntity
  8
0
100
AcDbLine
 62
7
  6
CONTINUOUS
 10
22.9413043955
 20
-28.6931683873
 11
22.9484506302
 21
-28.7130908303
  0
LINE
  5
4D8
100
AcDbEntity
  8
RACCORDO
100
AcDbLine
 62
7
  6
CONTINUOUS
 10
-23.5990006924
 20
-4.8372906802
 11
-23.6222338176
 21
-4.7721211653
  0
LINE
  5
4D9
100
AcDbEntity
  8
0
100
AcDbLine
 62
7
  6
CONTINUOUS
 10
4.750340918
 20
-25.3733526579
 11
4.7575278652
 21
-25.3937186481
  0
LINE
  5
4DA
100
AcDbEntity
  8
0
100
AcDbLine
 62
7
  6
CONTINUOUS
 10
4.720416235
 20
-24.3287733492
 11
4.7363203441
 21
-24.3740190046
  0
LINE
  5
4DB
100
AcDbEntity
  8
RACCORDO
100
AcDbLine
 62
7
  6
CONTINUOUS
 10
-29.130513106
 20
-17.2549893807
 11
-29.1120864733
 21
-17.3090595415
  0
LINE
  5
4DC
100
AcDbEntity
  8
0
100
AcDbLine
 62
7
  6
CONTINUOUS
 10
4.7575278652
 20
-25.3937186481
 11
4.7643648715
 21
-25.4137770743
  0
LINE
  5
4DD
100
AcDbEntity
  8
0
100
AcDbLine
 62
7
  6
CONTINUOUS
 10
4.4878493054
 20
-24.2671431139
 11
4.4793572549
 21
-24.2421256879
  0
LINE
  5
4DE
100
AcDbEntity
  8
0
100
AcDbLine
 62
7
  6
CONTINUOUS
 10
4.3814839473
 20
-24.3285572466
 11
4.3729931814
 21
-24.3035390964
  0
LINE
  5
4DF
100
AcDbEntity
  8
0
100
AcDbLine
 62
7
  6
CONTINUOUS
 10
4.491649606
 20
-25.2365620894
 11
4.4793529318
 21
-25.2002901254
  0
LINE
  5
4E0
100
AcDbEntity
  8
0
100
AcDbLine
 62
7
  6
CONTINUOUS
 10
4.3852193502
 20
-25.2980135632
 11
4.3729247411
 21
-25.2617404289
  0
LINE
  5
4E1
100
AcDbEntity
  8
RACCORDO
100
AcDbLine
 62
7
  6
CONTINUOUS
 10
-28.4935924548
 20
-18.0499736322
 11
-28.4877206205
 21
-18.0673093028
  0
LINE
  5
4E2
100
AcDbEntity
  8
RACCORDO
100
AcDbLine
 62
7
  6
CONTINUOUS
 10
33.5595188998
 20
-53.8786621825
 11
33.5653906347
 21
-53.8959976649
  0
LINE
  5
4E3
100
AcDbEntity
  8
RACCORDO
100
AcDbLine
 62
7
  6
CONTINUOUS
 10
-29.1615314739
 20
54.5823410056
 11
-29.1655645891
 21
54.5943558467
  0
LINE
  5
4E4
100
AcDbEntity
  8
0
100
AcDbLine
 62
7
  6
CONTINUOUS
 10
4.3971916291
 20
-25.3341661025
 11
4.3852193502
 21
-25.2980135632
  0
LINE
  5
4E5
100
AcDbEntity
  8
0
100
AcDbLine
 62
7
  6
CONTINUOUS
 10
4.50362396
 20
-25.2727134491
 11
4.491649606
 21
-25.2365620894
  0
LINE
  5
4E6
100
AcDbEntity
  8
0
100
AcDbLine
 62
7
  6
CONTINUOUS
 10
4.7643648715
 20
-25.4137770743
 11
4.7708442927
 21
-25.4334939708
  0
LINE
  5
4E7
100
AcDbEntity
  8
RACCORDO
100
AcDbLine
 62
7
  6
CONTINUOUS
 10
-22.9664643863
 20
-4.5972361948
 11
-22.9794052781
 21
-4.5577229498
  0
LINE
  5
4E8
100
AcDbEntity
  8
RACCORDO
100
AcDbLine
 62
7
  6
CONTINUOUS
 10
-29.0559986264
 20
-17.3196631139
 11
-29.0452114322
 21
-17.3529409446
  0
LINE
  5
4E9
100
AcDbEntity
  8
0
100
AcDbLine
 62
7
  6
CONTINUOUS
 10
4.5152760425
 20
-25.3087441699
 11
4.50362396
 21
-25.2727134491
  0
LINE
  5
4EA
100
AcDbEntity
  8
0
100
AcDbLine
 62
7
  6
CONTINUOUS
 10
4.4088416263
 20
-25.3701980121
 11
4.3971916291
 21
-25.3341661025
  0
LINE
  5
4EB
100
AcDbEntity
  8
RACCORDO
100
AcDbLine
 62
7
  6
CONTINUOUS
 10
-23.6222338176
 20
-4.7721211653
 11
-23.6427813711
 21
-4.7075518493
  0
LINE
  5
4EC
100
AcDbEntity
  8
0
100
AcDbLine
 62
7
  6
CONTINUOUS
 10
-8.8062660295
 20
-9.9788248263
 11
-8.8122506723
 21
-9.9599896985
  0
LINE
  5
4ED
100
AcDbEntity
  8
0
100
AcDbLine
 62
7
  6
CONTINUOUS
 10
23.0135391239
 20
-28.3511815261
 11
23.0075544811
 21
-28.3323463982
  0
LINE
  5
4EE
100
AcDbEntity
  8
0
100
AcDbLine
 62
7
  6
CONTINUOUS
 10
4.7708442927
 20
-25.4334939708
 11
4.776973691
 21
-25.4529033579
  0
LINE
  5
4EF
100
AcDbEntity
  8
0
100
AcDbLine
 62
7
  6
CONTINUOUS
 10
4.4201180635
 20
-25.4060757441
 11
4.4088416263
 21
-25.3701980121
  0
LINE
  5
4F0
100
AcDbEntity
  8
0
100
AcDbLine
 62
7
  6
CONTINUOUS
 10
4.5265545747
 20
-25.3446207036
 11
4.5152760425
 21
-25.3087441699
  0
LINE
  5
4F1
100
AcDbEntity
  8
0
100
AcDbLine
 62
7
  6
CONTINUOUS
 10
4.7363203441
 20
-24.3740190046
 11
4.7499403448
 21
-24.4177786591
  0
LINE
  5
4F2
100
AcDbEntity
  8
0
100
AcDbLine
 62
7
  6
CONTINUOUS
 10
4.776973691
 20
-25.4529033579
 11
4.782879298
 21
-25.4721391574
  0
LINE
  5
4F3
100
AcDbEntity
  8
0
100
AcDbLine
 62
7
  6
CONTINUOUS
 10
4.5482991497
 20
-25.416112152
 11
4.5265545747
 21
-25.3446207036
  0
LINE
  5
4F4
100
AcDbEntity
  8
0
100
AcDbLine
 62
7
  6
CONTINUOUS
 10
4.4418584166
 20
-25.4775696164
 11
4.4201180635
 21
-25.4060757441
  0
LINE
  5
4F5
100
AcDbEntity
  8
0
100
AcDbLine
 62
7
  6
CONTINUOUS
 10
4.782879298
 20
-25.4721391574
 11
4.788551407
 21
-25.4911931419
  0
LINE
  5
4F6
100
AcDbEntity
  8
0
100
AcDbLine
 62
7
  6
CONTINUOUS
 10
4.6048486797
 20
-26.0298477683
 11
4.5154309481
 21
-25.7291450625
  0
LINE
  5
4F7
100
AcDbEntity
  8
0
100
AcDbLine
 62
7
  6
CONTINUOUS
 10
4.7113230949
 20
-25.9683707754
 11
4.62188686
 21
-25.6676788263
  0
LINE
  5
4F8
100
AcDbEntity
  8
RACCORDO
100
AcDbLine
 62
7
  6
CONTINUOUS
 10
24.830988603
 20
-32.8841701339
 11
24.8193760742
 21
-32.8451056959
  0
LINE
  5
4F9
100
AcDbEntity
  8
RACCORDO
100
AcDbLine
 62
7
  6
CONTINUOUS
 10
-22.730796404
 20
31.8082279386
 11
-22.7233976204
 21
31.7831701022
  0
LINE
  5
4FA
100
AcDbEntity
  8
0
100
AcDbLine
 62
7
  6
CONTINUOUS
 10
-8.8713545232
 20
-10.3407341306
 11
-8.8654818542
 21
-10.3606395648
  0
LINE
  5
4FB
100
AcDbEntity
  8
0
100
AcDbLine
 62
7
  6
CONTINUOUS
 10
4.4629261155
 20
-25.5489748488
 11
4.4418584166
 21
-25.4775696164
  0
LINE
  5
4FC
100
AcDbEntity
  8
0
100
AcDbLine
 62
7
  6
CONTINUOUS
 10
4.5693711166
 20
-25.487514925
 11
4.5482991497
 21
-25.416112152
  0
LINE
  5
4FD
100
AcDbEntity
  8
0
100
AcDbLine
 62
7
  6
CONTINUOUS
 10
22.9484506302
 20
-28.7130908303
 11
22.9543232992
 21
-28.7329962645
  0
LINE
  5
4FE
100
AcDbEntity
  8
0
100
AcDbLine
 62
7
  6
CONTINUOUS
 10
4.62188686
 20
-25.6676788263
 11
4.5693711166
 21
-25.487514925
  0
LINE
  5
4FF
100
AcDbEntity
  8
0
100
AcDbLine
 62
7
  6
CONTINUOUS
 10
4.5154309481
 20
-25.7291450625
 11
4.4629261155
 21
-25.5489748488
  0
LINE
  5
500
100
AcDbEntity
  8
RACCORDO
100
AcDbLine
 62
7
  6
CONTINUOUS
 10
-29.1460670175
 20
-17.2010926879
 11
-29.130513106
 21
-17.2549893807
  0
LINE
  5
501
100
AcDbEntity
  8
0
100
AcDbLine
 62
7
  6
CONTINUOUS
 10
4.4948323078
 20
-24.2914005824
 11
4.4878493054
 21
-24.2671431139
  0
LINE
  5
502
100
AcDbEntity
  8
0
100
AcDbLine
 62
7
  6
CONTINUOUS
 10
4.3884656561
 20
-24.352815441
 11
4.3814839473
 21
-24.3285572466
  0
LINE
  5
503
100
AcDbEntity
  8
0
100
AcDbLine
 62
7
  6
CONTINUOUS
 10
4.788551407
 20
-25.4911931419
 11
4.7993795119
 21
-25.5289390126
  0
LINE
  5
504
100
AcDbEntity
  8
RACCORDO
100
AcDbLine
 62
7
  6
CONTINUOUS
 10
-22.9794052781
 20
-4.5577229498
 11
-22.9906136594
 21
-4.5185533618
  0
LINE
  5
505
100
AcDbEntity
  8
0
100
AcDbLine
 62
7
  6
CONTINUOUS
 10
4.7993795119
 20
-25.5289390126
 11
4.8100373684
 21
-25.5667307247
  0
LINE
  5
506
100
AcDbEntity
  8
RACCORDO
100
AcDbLine
 62
7
  6
CONTINUOUS
 10
-29.0651330304
 20
-17.2871186233
 11
-29.0559986264
 21
-17.3196631139
  0
LINE
  5
507
100
AcDbEntity
  8
RACCORDO
100
AcDbLine
 62
7
  6
CONTINUOUS
 10
-30.7965837536
 20
36.1844703178
 11
-30.8004472148
 21
36.1982406346
  0
LINE
  5
508
100
AcDbEntity
  8
0
100
AcDbLine
 62
7
  6
CONTINUOUS
 10
4.9214103738
 20
-25.9684996439
 11
5.0023364461
 21
-26.2593522229
  0
LINE
  5
509
100
AcDbEntity
  8
RACCORDO
100
AcDbLine
 62
7
  6
CONTINUOUS
 10
-23.6427813711
 20
-4.7075518493
 11
-23.6605301053
 21
-4.6436320839
  0
LINE
  5
50A
100
AcDbEntity
  8
0
100
AcDbLine
 62
7
  6
CONTINUOUS
 10
4.8100373684
 20
-25.5667307247
 11
4.9214103738
 21
-25.9684996439
  0
LINE
  5
50B
100
AcDbEntity
  8
0
100
AcDbLine
 62
7
  6
CONTINUOUS
 10
-8.7920898895
 20
-10.3006393669
 11
-8.7967395918
 21
-10.283286898
  0
LINE
  5
50C
100
AcDbEntity
  8
0
100
AcDbLine
 62
7
  6
CONTINUOUS
 10
23.0277152639
 20
-28.6729960666
 11
23.0230655616
 21
-28.6556435978
  0
LINE
  5
50D
100
AcDbEntity
  8
0
100
AcDbLine
 62
7
  6
CONTINUOUS
 10
-8.8057473584
 20
-9.9898202939
 11
-8.8011076325
 21
-10.0071593947
  0
LINE
  5
50E
100
AcDbEntity
  8
0
100
AcDbLine
 62
7
  6
CONTINUOUS
 10
23.014057795
 20
-28.3621769937
 11
23.0186975209
 21
-28.3795160944
  0
LINE
  5
50F
100
AcDbEntity
  8
0
100
AcDbLine
 62
7
  6
CONTINUOUS
 10
4.7499403448
 20
-24.4177786591
 11
4.7609693299
 21
-24.4596610094
  0
LINE
  5
510
100
AcDbEntity
  8
RACCORDO
100
AcDbLine
 62
7
  6
CONTINUOUS
 10
-30.7965837503
 20
-0.8256460058
 11
-30.8004472116
 21
-0.8105572019
  0
LINE
  5
511
100
AcDbEntity
  8
RACCORDO
100
AcDbLine
 62
7
  6
CONTINUOUS
 10
-22.9906136594
 20
-4.5185533618
 11
-23.0000726889
 21
-4.4798445901
  0
LINE
  5
512
100
AcDbEntity
  8
RACCORDO
100
AcDbLine
 62
7
  6
CONTINUOUS
 10
-29.1615276117
 20
-17.1267437764
 11
-29.1655603255
 21
-17.1100879389
  0
LINE
  5
513
100
AcDbEntity
  8
RACCORDO
100
AcDbLine
 62
7
  6
CONTINUOUS
 10
-23.6605301053
 20
-4.6436320839
 11
-23.6755924778
 21
-4.5803120188
  0
LINE
  5
514
100
AcDbEntity
  8
RACCORDO
100
AcDbLine
 62
7
  6
CONTINUOUS
 10
-29.0726551862
 20
-17.2551981925
 11
-29.0651330304
 21
-17.2871186233
  0
LINE
  5
515
100
AcDbEntity
  8
0
100
AcDbLine
 62
7
  6
CONTINUOUS
 10
4.3939706097
 20
-24.3762065729
 11
4.3884656561
 21
-24.352815441
  0
LINE
  5
516
100
AcDbEntity
  8
0
100
AcDbLine
 62
7
  6
CONTINUOUS
 10
4.5003385562
 20
-24.3147909921
 11
4.4948323078
 21
-24.2914005824
  0
LINE
  5
517
100
AcDbEntity
  8
RACCORDO
100
AcDbLine
 62
7
  6
CONTINUOUS
 10
-29.1586375601
 20
-17.1474014732
 11
-29.1460670175
 21
-17.2010926879
  0
LINE
  5
518
100
AcDbEntity
  8
0
100
AcDbLine
 62
7
  6
CONTINUOUS
 10
-8.8017706314
 20
-9.9981642755
 11
-8.8062660295
 21
-9.9788248263
  0
LINE
  5
519
100
AcDbEntity
  8
0
100
AcDbLine
 62
7
  6
CONTINUOUS
 10
-8.8654818542
 20
-10.3606395648
 11
-8.8609284675
 21
-10.3803709054
  0
LINE
  5
51A
100
AcDbEntity
  8
RACCORDO
100
AcDbLine
 62
7
  6
CONTINUOUS
 10
-28.4978445554
 20
-18.0311818707
 11
-28.4935924548
 21
-18.0499736322
  0
LINE
  5
51B
100
AcDbEntity
  8
0
100
AcDbLine
 62
7
  6
CONTINUOUS
 10
4.7609693299
 20
-24.4596610094
 11
4.7697138462
 21
-24.5000575914
  0
LINE
  5
51C
100
AcDbEntity
  8
RACCORDO
100
AcDbLine
 62
7
  6
CONTINUOUS
 10
-22.7362750058
 20
31.8349511871
 11
-22.730796404
 21
31.8082279386
  0
LINE
  5
51D
100
AcDbEntity
  8
RACCORDO
100
AcDbLine
 62
7
  6
CONTINUOUS
 10
-23.0000726889
 20
-4.4798445901
 11
-23.0077134012
 21
-4.4419822296
  0
LINE
  5
51E
100
AcDbEntity
  8
RACCORDO
100
AcDbLine
 62
7
  6
CONTINUOUS
 10
-23.6755924778
 20
-4.5803120188
 11
-23.6878457639
 21
-4.5185746704
  0
LINE
  5
51F
100
AcDbEntity
  8
RACCORDO
100
AcDbLine
 62
7
  6
CONTINUOUS
 10
-29.0785648579
 20
-17.2239016382
 11
-29.0726551862
 21
-17.2551981925
  0
LINE
  5
520
100
AcDbEntity
  8
RACCORDO
100
AcDbLine
 62
7
  6
CONTINUOUS
 10
-29.1658959178
 20
-17.1081076054
 11
-29.1586375601
 21
-17.1474014732
  0
LINE
  5
521
100
AcDbEntity
  8
0
100
AcDbLine
 62
7
  6
CONTINUOUS
 10
4.7697138462
 20
-24.5000575914
 11
4.7766967398
 21
-24.5383662453
  0
LINE
  5
522
100
AcDbEntity
  8
0
100
AcDbLine
 62
7
  6
CONTINUOUS
 10
4.397966572
 20
-24.398837704
 11
4.3939706097
 21
-24.3762065729
  0
LINE
  5
523
100
AcDbEntity
  8
0
100
AcDbLine
 62
7
  6
CONTINUOUS
 10
4.5043358225
 20
-24.3374213994
 11
4.5003385562
 21
-24.3147909921
  0
LINE
  5
524
100
AcDbEntity
  8
RACCORDO
100
AcDbLine
 62
7
  6
CONTINUOUS
 10
-29.1655603255
 20
-17.1100879389
 11
-29.1658659151
 21
-17.1082920849
  0
LINE
  5
525
100
AcDbEntity
  8
0
100
AcDbLine
 62
7
  6
CONTINUOUS
 10
-8.8609284675
 20
-10.3803709054
 11
-8.8577280974
 21
-10.3997762481
  0
LINE
  5
526
100
AcDbEntity
  8
RACCORDO
100
AcDbLine
 62
7
  6
CONTINUOUS
 10
-29.1658659151
 20
-17.1082920849
 11
-29.1658959178
 21
-17.1081076054
  0
LINE
  5
527
100
AcDbEntity
  8
RACCORDO
100
AcDbLine
 62
7
  6
CONTINUOUS
 10
-29.1655645891
 20
54.5943558467
 11
-29.1674918947
 21
54.6062649936
  0
LINE
  5
528
100
AcDbEntity
  8
0
100
AcDbLine
 62
7
  6
CONTINUOUS
 10
-8.7892842217
 20
-10.3182760223
 11
-8.7920898895
 21
-10.3006393669
  0
LINE
  5
529
100
AcDbEntity
  8
0
100
AcDbLine
 62
7
  6
CONTINUOUS
 10
-8.8011076325
 20
-10.0071593947
 11
-8.7983556461
 21
-10.0244852979
  0
LINE
  5
52A
100
AcDbEntity
  8
RACCORDO
100
AcDbLine
 62
7
  6
CONTINUOUS
 10
-23.0077134012
 20
-4.4419822296
 11
-23.0135422925
 21
-4.4051524695
  0
LINE
  5
52B
100
AcDbEntity
  8
RACCORDO
100
AcDbLine
 62
7
  6
CONTINUOUS
 10
-23.6878457639
 20
-4.5185746704
 11
-23.6972492198
 21
-4.458747816
  0
LINE
  5
52C
100
AcDbEntity
  8
RACCORDO
100
AcDbLine
 62
7
  6
CONTINUOUS
 10
-29.4313241481
 20
-15.4091598688
 11
-29.1658700108
 21
-17.1082927529
  0
LINE
  5
52D
100
AcDbEntity
  8
RACCORDO
100
AcDbLine
 62
7
  6
CONTINUOUS
 10
-29.3501106054
 20
-15.4839866988
 11
-29.0785648579
 21
-17.2239016382
  0
LINE
  5
52E
100
AcDbEntity
  8
0
100
AcDbLine
 62
7
  6
CONTINUOUS
 10
-8.798824938
 20
-10.0177920819
 11
-8.8017706314
 21
-9.9981642755
  0
LINE
  5
52F
100
AcDbEntity
  8
0
100
AcDbLine
 62
7
  6
CONTINUOUS
 10
4.7766967398
 20
-24.5383662453
 11
4.7819257055
 21
-24.5743392515
  0
LINE
  5
530
100
AcDbEntity
  8
RACCORDO
100
AcDbLine
 62
7
  6
CONTINUOUS
 10
-29.6828984714
 20
-13.6371175059
 11
-29.4313241481
 21
-15.4091598688
  0
LINE
  5
531
100
AcDbEntity
  8
RACCORDO
100
AcDbLine
 62
7
  6
CONTINUOUS
 10
-29.5993130116
 20
-13.7252382981
 11
-29.3501106054
 21
-15.4839866988
  0
LINE
  5
532
100
AcDbEntity
  8
RACCORDO
100
AcDbLine
 62
7
  6
CONTINUOUS
 10
-29.9117309058
 20
-11.8464043317
 11
-29.6828984714
 21
-13.6371175059
  0
LINE
  5
533
100
AcDbEntity
  8
RACCORDO
100
AcDbLine
 62
7
  6
CONTINUOUS
 10
-29.826119194
 20
-11.9480132672
 11
-29.5993130116
 21
-13.7252382981
  0
LINE
  5
534
100
AcDbEntity
  8
RACCORDO
100
AcDbLine
 62
7
  6
CONTINUOUS
 10
-30.8004472148
 20
36.1982406346
 11
-30.8021912835
 21
36.2120803841
  0
LINE
  5
535
100
AcDbEntity
  8
RACCORDO
100
AcDbLine
 62
7
  6
CONTINUOUS
 10
-22.7398027473
 20
31.8631902059
 11
-22.7362750058
 21
31.8349511871
  0
LINE
  5
536
100
AcDbEntity
  8
RACCORDO
100
AcDbLine
 62
7
  6
CONTINUOUS
 10
-30.8004472116
 20
-0.8105572019
 11
-30.8021912805
 21
-0.7952676671
  0
LINE
  5
537
100
AcDbEntity
  8
RACCORDO
100
AcDbLine
 62
7
  6
CONTINUOUS
 10
-30.1177680101
 20
-10.0374316334
 11
-29.9117309058
 21
-11.8464043317
  0
LINE
  5
538
100
AcDbEntity
  8
RACCORDO
100
AcDbLine
 62
7
  6
CONTINUOUS
 10
-30.0304786696
 20
-10.1526764427
 11
-29.826119194
 21
-11.9480132672
  0
LINE
  5
539
100
AcDbEntity
  8
0
100
AcDbLine
 62
7
  6
CONTINUOUS
 10
4.4004535951
 20
-24.4207087991
 11
4.397966572
 21
-24.398837704
  0
LINE
  5
53A
100
AcDbEntity
  8
0
100
AcDbLine
 62
7
  6
CONTINUOUS
 10
4.5068241587
 20
-24.3592917688
 11
4.5043358225
 21
-24.3374213994
  0
LINE
  5
53B
100
AcDbEntity
  8
RACCORDO
100
AcDbLine
 62
7
  6
CONTINUOUS
 10
-23.0135422925
 20
-4.4051524695
 11
-23.0176036577
 21
-4.3693550469
  0
LINE
  5
53C
100
AcDbEntity
  8
RACCORDO
100
AcDbLine
 62
7
  6
CONTINUOUS
 10
-23.6972492198
 20
-4.458747816
 11
-23.7038436503
 21
-4.4005037199
  0
LINE
  5
53D
100
AcDbEntity
  8
0
100
AcDbLine
 62
7
  6
CONTINUOUS
 10
3.9171280178
 20
-24.9507297789
 11
3.9065715388
 21
-24.8076962897
  0
LINE
  5
53E
100
AcDbEntity
  8
0
100
AcDbLine
 62
7
  6
CONTINUOUS
 10
4.5453815917
 20
-25.0179689936
 11
4.5444473545
 21
-25.0050008823
  0
LINE
  5
53F
100
AcDbEntity
  8
0
100
AcDbLine
 62
7
  6
CONTINUOUS
 10
3.50503306
 20
-24.7061077727
 11
3.453214654
 21
-23.9829583739
  0
LINE
  5
540
100
AcDbEntity
  8
0
100
AcDbLine
 62
7
  6
CONTINUOUS
 10
3.6114574633
 20
-24.6446602644
 11
3.5595922941
 21
-23.9215378434
  0
LINE
  5
541
100
AcDbEntity
  8
0
100
AcDbLine
 62
7
  6
CONTINUOUS
 10
4.7853913353
 20
-24.608225462
 11
4.7875900486
 21
-24.6401680886
  0
LINE
  5
542
100
AcDbEntity
  8
0
100
AcDbLine
 62
7
  6
CONTINUOUS
 10
3.8669951472
 20
-24.4403529528
 11
3.8256349762
 21
-23.8367165499
  0
LINE
  5
543
100
AcDbEntity
  8
0
100
AcDbLine
 62
7
  6
CONTINUOUS
 10
3.5595922941
 20
-23.9215378434
 11
3.5184568207
 21
-23.3059401774
  0
LINE
  5
544
100
AcDbEntity
  8
0
100
AcDbLine
 62
7
  6
CONTINUOUS
 10
3.453214654
 20
-23.9829583739
 11
3.4050015904
 21
-23.2574155204
  0
LINE
  5
545
100
AcDbEntity
  8
0
100
AcDbLine
 62
7
  6
CONTINUOUS
 10
4.4015557872
 20
-24.4400537666
 11
4.4004535951
 21
-24.4207087991
  0
LINE
  5
546
100
AcDbEntity
  8
0
100
AcDbLine
 62
7
  6
CONTINUOUS
 10
4.5079276044
 20
-24.3786383244
 11
4.5068241587
 21
-24.3592917688
  0
LINE
  5
547
100
AcDbEntity
  8
0
100
AcDbLine
 62
7
  6
CONTINUOUS
 10
4.7875900486
 20
-24.6401680886
 11
4.7885871427
 21
-24.6701322624
  0
LINE
  5
548
100
AcDbEntity
  8
0
100
AcDbLine
 62
7
  6
CONTINUOUS
 10
4.5082011027
 20
-24.3973470824
 11
4.5079276044
 21
-24.3786383244
  0
LINE
  5
549
100
AcDbEntity
  8
0
100
AcDbLine
 62
7
  6
CONTINUOUS
 10
4.4018282072
 20
-24.4587611752
 11
4.4015557872
 21
-24.4400537666
  0
LINE
  5
54A
100
AcDbEntity
  8
0
100
AcDbLine
 62
7
  6
CONTINUOUS
 10
-8.7883055255
 20
-10.633011534
 11
-8.7890855341
 21
-10.6527440324
  0
LINE
  5
54B
100
AcDbEntity
  8
0
100
AcDbLine
 62
7
  6
CONTINUOUS
 10
-11.1851340706
 20
-8.8547462001
 11
-11.1848892012
 21
-8.8501644893
  0
LINE
  5
54C
100
AcDbEntity
  8
0
100
AcDbLine
 62
7
  6
CONTINUOUS
 10
-10.6676415588
 20
-8.8605030753
 11
-10.6678863853
 21
-8.8650851349
  0
LINE
  5
54D
100
AcDbEntity
  8
0
100
AcDbLine
 62
7
  6
CONTINUOUS
 10
-8.7888704938
 20
-10.3482827941
 11
-8.7883055255
 21
-10.3385839732
  0
LINE
  5
54E
100
AcDbEntity
  8
0
100
AcDbLine
 62
7
  6
CONTINUOUS
 10
-8.7883055255
 20
-10.633011534
 11
-8.788881163
 21
-10.6428014002
  0
LINE
  5
54F
100
AcDbEntity
  8
0
100
AcDbLine
 62
7
  6
CONTINUOUS
 10
-11.1848892012
 20
-8.8501644893
 11
-11.1846789211
 21
-8.847428953
  0
LINE
  5
550
100
AcDbEntity
  8
0
100
AcDbLine
 62
7
  6
CONTINUOUS
 10
-10.667431294
 20
-8.8577659839
 11
-10.6676415588
 21
-8.8605030753
  0
LINE
  5
551
100
AcDbEntity
  8
RACCORDO
100
AcDbLine
 62
7
  6
CONTINUOUS
 10
-22.7362750016
 20
-5.8136365045
 11
-22.7307963965
 21
-5.7805866958
  0
LINE
  5
552
100
AcDbEntity
  8
RACCORDO
100
AcDbLine
 62
7
  6
CONTINUOUS
 10
-23.6880954692
 20
31.5365898634
 11
-23.6759801885
 21
31.5896075579
  0
LINE
  5
553
100
AcDbEntity
  8
RACCORDO
100
AcDbLine
 62
7
  6
CONTINUOUS
 10
-23.0078523308
 20
31.4416620473
 11
-23.0002924561
 21
31.4743569442
  0
LINE
  5
554
100
AcDbEntity
  8
RACCORDO
100
AcDbLine
 62
7
  6
CONTINUOUS
 10
-23.6759801885
 20
31.5896075579
 11
-23.661072645
 21
31.6410784522
  0
LINE
  5
555
100
AcDbEntity
  8
RACCORDO
100
AcDbLine
 62
7
  6
CONTINUOUS
 10
-29.0451777848
 20
54.6414337817
 11
-29.0559972787
 21
54.6085797471
  0
LINE
  5
556
100
AcDbEntity
  8
RACCORDO
100
AcDbLine
 62
7
  6
CONTINUOUS
 10
-29.1153834334
 20
54.8290017728
 11
-29.1328972466
 21
54.7773362485
  0
LINE
  5
557
100
AcDbEntity
  8
RACCORDO
100
AcDbLine
 62
7
  6
CONTINUOUS
 10
-28.4802759645
 20
54.9218593221
 11
-28.4713169062
 21
54.9462289004
  0
LINE
  5
558
100
AcDbEntity
  8
RACCORDO
100
AcDbLine
 62
7
  6
CONTINUOUS
 10
-29.0327338347
 20
54.6729601861
 11
-29.0451777848
 21
54.6414337817
  0
LINE
  5
559
100
AcDbEntity
  8
RACCORDO
100
AcDbLine
 62
7
  6
CONTINUOUS
 10
-29.0951886395
 20
54.8783821867
 11
-29.1153834334
 21
54.8290017728
  0
LINE
  5
55A
100
AcDbEntity
  8
RACCORDO
100
AcDbLine
 62
7
  6
CONTINUOUS
 10
34.029335309
 20
-54.0659252393
 11
34.0696277225
 21
-54.0612244285
  0
LINE
  5
55B
100
AcDbEntity
  8
RACCORDO
100
AcDbLine
 62
7
  6
CONTINUOUS
 10
34.1568300773
 20
-53.6557441422
 11
34.1819153437
 21
-53.6528678974
  0
LINE
  5
55C
100
AcDbEntity
  8
RACCORDO
100
AcDbLine
 62
7
  6
CONTINUOUS
 10
33.7881502085
 20
-53.932138922
 11
33.8096445444
 21
-53.9303123639
  0
LINE
  5
55D
100
AcDbEntity
  8
RACCORDO
100
AcDbLine
 62
7
  6
CONTINUOUS
 10
34.1317842393
 20
-53.6571833462
 11
34.1568300773
 21
-53.6557441422
  0
LINE
  5
55E
100
AcDbEntity
  8
RACCORDO
100
AcDbLine
 62
7
  6
CONTINUOUS
 10
24.7866896872
 20
-32.4734623627
 11
24.7574137709
 21
-32.4717849342
  0
LINE
  5
55F
100
AcDbEntity
  8
0
100
AcDbLine
 62
7
  6
CONTINUOUS
 10
22.8275974046
 20
-28.508162026
 11
22.8061835408
 21
-28.5058494213
  0
LINE
  5
560
100
AcDbEntity
  8
0
100
AcDbLine
 62
7
  6
CONTINUOUS
 10
22.7971591182
 20
-28.2123187782
 11
22.81857778
 21
-28.2146323808
  0
LINE
  5
561
100
AcDbEntity
  8
RACCORDO
100
AcDbLine
 62
7
  6
CONTINUOUS
 10
24.573514558
 20
-33.1379409523
 11
24.5229311268
 21
-33.1321593751
  0
LINE
  5
562
100
AcDbEntity
  8
0
100
AcDbLine
 62
7
  6
CONTINUOUS
 10
20.5610466701
 20
-27.2377240697
 11
20.5748917845
 21
-27.2393505439
  0
LINE
  5
563
100
AcDbEntity
  8
0
100
AcDbLine
 62
7
  6
CONTINUOUS
 10
4.2516125766
 20
-24.6351928986
 11
4.266475581
 21
-24.6371435064
  0
LINE
  5
564
100
AcDbEntity
  8
0
100
AcDbLine
 62
7
  6
CONTINUOUS
 10
21.171779678
 20
-27.2303770997
 11
21.19085477
 21
-27.2329794299
  0
LINE
  5
565
100
AcDbEntity
  8
RACCORDO
100
AcDbLine
 62
7
  6
CONTINUOUS
 10
24.7574137709
 20
-32.4717849342
 11
24.7272351754
 21
-32.4674538458
  0
LINE
  5
566
100
AcDbEntity
  8
0
100
AcDbLine
 62
7
  6
CONTINUOUS
 10
21.2375214488
 20
-27.2515488406
 11
21.2503182312
 21
-27.2537815104
  0
LINE
  5
567
100
AcDbEntity
  8
0
100
AcDbLine
 62
7
  6
CONTINUOUS
 10
22.8754261904
 20
-28.1920374004
 11
22.8626545858
 21
-28.1897809588
  0
LINE
  5
568
100
AcDbEntity
  8
0
100
AcDbLine
 62
7
  6
CONTINUOUS
 10
22.8486660186
 20
-28.5119933436
 11
22.8275974046
 21
-28.508162026
  0
LINE
  5
569
100
AcDbEntity
  8
0
100
AcDbLine
 62
7
  6
CONTINUOUS
 10
22.81857778
 20
-28.2146323808
 11
22.839651681
 21
-28.2184655356
  0
LINE
  5
56A
100
AcDbEntity
  8
0
100
AcDbLine
 62
7
  6
CONTINUOUS
 10
-10.6289503834
 20
-8.8606227302
 11
-10.6101431743
 21
-8.8646823325
  0
LINE
  5
56B
100
AcDbEntity
  8
RACCORDO
100
AcDbLine
 62
7
  6
CONTINUOUS
 10
-23.5706752676
 20
-4.3984738504
 11
-23.5319479949
 21
-4.4073924879
  0
LINE
  5
56C
100
AcDbEntity
  8
0
100
AcDbLine
 62
7
  6
CONTINUOUS
 10
-11.2449133689
 20
-8.8669938442
 11
-11.2306470594
 21
-8.8703668695
  0
LINE
  5
56D
100
AcDbEntity
  8
0
100
AcDbLine
 62
7
  6
CONTINUOUS
 10
-8.9505735642
 20
-10.1449579797
 11
-8.9711391348
 21
-10.1396366439
  0
LINE
  5
56E
100
AcDbEntity
  8
0
100
AcDbLine
 62
7
  6
CONTINUOUS
 10
-8.9801534724
 20
-9.8461088359
 11
-8.9595818494
 21
-9.851433106
  0
LINE
  5
56F
100
AcDbEntity
  8
RACCORDO
100
AcDbLine
 62
7
  6
CONTINUOUS
 10
-23.6078649337
 20
-4.3875753024
 11
-23.5706752676
 21
-4.3984738504
  0
LINE
  5
570
100
AcDbEntity
  8
0
100
AcDbLine
 62
7
  6
CONTINUOUS
 10
36.4011396414
 20
-19.0299061347
 11
36.3913123346
 21
-19.0267581635
  0
LINE
  5
571
100
AcDbEntity
  8
RACCORDO
100
AcDbLine
 62
7
  6
CONTINUOUS
 10
-23.2740201151
 20
31.7205896818
 11
-23.2379497974
 21
31.7012843832
  0
LINE
  5
572
100
AcDbEntity
  8
RACCORDO
100
AcDbLine
 62
7
  6
CONTINUOUS
 10
-23.7076265396
 20
31.3691739648
 11
-23.6765839312
 21
31.3525379148
  0
LINE
  5
573
100
AcDbEntity
  8
RACCORDO
100
AcDbLine
 62
7
  6
CONTINUOUS
 10
-22.796126334
 20
31.9534921835
 11
-22.740937667
 21
31.9235754325
  0
LINE
  5
574
100
AcDbEntity
  8
RACCORDO
100
AcDbLine
 62
7
  6
CONTINUOUS
 10
-22.6535659535
 20
31.6813931802
 11
-22.6380481792
 21
31.6727177614
  0
LINE
  5
575
100
AcDbEntity
  8
RACCORDO
100
AcDbLine
 62
7
  6
CONTINUOUS
 10
-22.6379000115
 20
31.6726335973
 11
24.3035896302
 21
4.5692057932
  0
LINE
  5
576
100
AcDbEntity
  8
RACCORDO
100
AcDbLine
 62
7
  6
CONTINUOUS
 10
-22.740937667
 20
31.9235754325
 11
24.2005519748
 21
4.8201476283
  0
LINE
  5
577
100
AcDbEntity
  8
RACCORDO
100
AcDbLine
 62
7
  6
CONTINUOUS
 10
24.3036266373
 20
4.5691843721
 11
24.3102211391
 21
4.565326395
  0
LINE
  5
578
100
AcDbEntity
  8
RACCORDO
100
AcDbLine
 62
7
  6
CONTINUOUS
 10
24.299769891
 20
4.5714797147
 11
24.3035896302
 21
4.5692057932
  0
LINE
  5
579
100
AcDbEntity
  8
RACCORDO
100
AcDbLine
 62
7
  6
CONTINUOUS
 10
-22.6417197815
 20
31.6749075377
 11
-22.6380475357
 21
31.6727188766
  0
LINE
  5
57A
100
AcDbEntity
  8
RACCORDO
100
AcDbLine
 62
7
  6
CONTINUOUS
 10
24.2005519748
 20
4.8201476283
 11
24.2303008512
 21
4.8023130196
  0
LINE
  5
57B
100
AcDbEntity
  8
RACCORDO
100
AcDbLine
 62
7
  6
CONTINUOUS
 10
-30.7143329854
 20
36.0980139958
 11
-30.7314563617
 21
36.1086698417
  0
LINE
  5
57C
100
AcDbEntity
  8
RACCORDO
100
AcDbLine
 62
7
  6
CONTINUOUS
 10
25.0746616721
 20
3.2028893978
 11
25.0461231708
 21
3.2206550662
  0
LINE
  5
57D
100
AcDbEntity
  8
RACCORDO
100
AcDbLine
 62
7
  6
CONTINUOUS
 10
24.3102211391
 20
4.565326395
 11
24.3368304682
 21
4.5487612583
  0
LINE
  5
57E
100
AcDbEntity
  8
RACCORDO
100
AcDbLine
 62
7
  6
CONTINUOUS
 10
-23.3090612471
 20
31.7426778691
 11
-23.2740201151
 21
31.7205896818
  0
LINE
  5
57F
100
AcDbEntity
  8
RACCORDO
100
AcDbLine
 62
7
  6
CONTINUOUS
 10
24.2303008512
 20
4.8023130196
 11
24.2595593228
 21
4.7837097801
  0
LINE
  5
580
100
AcDbEntity
  8
RACCORDO
100
AcDbLine
 62
7
  6
CONTINUOUS
 10
24.2595593228
 20
4.7837097801
 11
24.2883274205
 21
4.7643379255
  0
LINE
  5
581
100
AcDbEntity
  8
RACCORDO
100
AcDbLine
 62
7
  6
CONTINUOUS
 10
24.3368304682
 20
4.5487612583
 11
24.364708741
 21
4.5297295681
  0
LINE
  5
582
100
AcDbEntity
  8
RACCORDO
100
AcDbLine
 62
7
  6
CONTINUOUS
 10
24.2820769076
 20
4.5839765555
 11
24.299769891
 21
4.5714797147
  0
LINE
  5
583
100
AcDbEntity
  8
RACCORDO
100
AcDbLine
 62
7
  6
CONTINUOUS
 10
24.2883274205
 20
4.7643379255
 11
24.3165962764
 21
4.7441681336
  0
LINE
  5
584
100
AcDbEntity
  8
RACCORDO
100
AcDbLine
 62
7
  6
CONTINUOUS
 10
-29.1112941439
 20
54.5236676215
 11
-29.1251350782
 21
54.5349340495
  0
LINE
  5
585
100
AcDbEntity
  8
RACCORDO
100
AcDbLine
 62
7
  6
CONTINUOUS
 10
24.8040689893
 20
3.9615872506
 11
24.8157175845
 21
3.9349742157
  0
LINE
  5
586
100
AcDbEntity
  8
RACCORDO
100
AcDbLine
 62
7
  6
CONTINUOUS
 10
24.9475083195
 20
3.3244234821
 11
24.9375842502
 21
3.3471304197
  0
LINE
  5
587
100
AcDbEntity
  8
RACCORDO
100
AcDbLine
 62
7
  6
CONTINUOUS
 10
24.9072038834
 20
3.9828357002
 11
24.9351239201
 21
3.9177838237
  0
LINE
  5
588
100
AcDbEntity
  8
0
100
AcDbLine
 62
7
  6
CONTINUOUS
 10
36.3608471558
 20
-18.9945486466
 11
36.3556131253
 21
-18.9817652541
  0
LINE
  5
589
100
AcDbEntity
  8
RACCORDO
100
AcDbLine
 62
7
  6
CONTINUOUS
 10
24.8157175845
 20
3.9349742157
 11
24.8366119527
 21
3.8836215014
  0
LINE
  5
58A
100
AcDbEntity
  8
RACCORDO
100
AcDbLine
 62
7
  6
CONTINUOUS
 10
24.2180920326
 20
4.6797422657
 11
24.2273695711
 21
4.6564901569
  0
LINE
  5
58B
100
AcDbEntity
  8
RACCORDO
100
AcDbLine
 62
7
  6
CONTINUOUS
 10
24.9351239201
 20
3.9177838237
 11
24.9606634812
 21
3.8521210652
  0
LINE
  5
58C
100
AcDbEntity
  8
RACCORDO
100
AcDbLine
 62
7
  6
CONTINUOUS
 10
24.8366119527
 20
3.8836215014
 11
24.8553847649
 21
3.8324705999
  0
LINE
  5
58D
100
AcDbEntity
  8
RACCORDO
100
AcDbLine
 62
7
  6
CONTINUOUS
 10
24.9606634812
 20
3.8521210652
 11
24.9838232176
 21
3.7858477635
  0
LINE
  5
58E
100
AcDbEntity
  8
RACCORDO
100
AcDbLine
 62
7
  6
CONTINUOUS
 10
24.8553847649
 20
3.8324705999
 11
24.8719950341
 21
3.7817921293
  0
LINE
  5
58F
100
AcDbEntity
  8
RACCORDO
100
AcDbLine
 62
7
  6
CONTINUOUS
 10
24.9838232176
 20
3.7858477635
 11
25.0047303138
 21
3.7185728137
  0
LINE
  5
590
100
AcDbEntity
  8
RACCORDO
100
AcDbLine
 62
7
  6
CONTINUOUS
 10
24.2106932452
 20
4.7048001046
 11
24.2180920326
 21
4.6797422657
  0
LINE
  5
591
100
AcDbEntity
  8
RACCORDO
100
AcDbLine
 62
7
  6
CONTINUOUS
 10
24.8719950341
 20
3.7817921293
 11
24.8864193218
 21
3.7318605651
  0
LINE
  5
592
100
AcDbEntity
  8
RACCORDO
100
AcDbLine
 62
7
  6
CONTINUOUS
 10
24.9375842502
 20
3.3471304197
 11
24.9311468513
 21
3.3701205402
  0
LINE
  5
593
100
AcDbEntity
  8
RACCORDO
100
AcDbLine
 62
7
  6
CONTINUOUS
 10
25.0047303138
 20
3.7185728137
 11
25.023259041
 21
3.650688079
  0
LINE
  5
594
100
AcDbEntity
  8
RACCORDO
100
AcDbLine
 62
7
  6
CONTINUOUS
 10
24.9375840795
 20
-32.3580069678
 11
24.9311463625
 21
-32.3328966709
  0
LINE
  5
595
100
AcDbEntity
  8
RACCORDO
100
AcDbLine
 62
7
  6
CONTINUOUS
 10
24.8864193218
 20
3.7318605651
 11
24.8986621688
 21
3.6829134677
  0
LINE
  5
596
100
AcDbEntity
  8
0
100
AcDbLine
 62
7
  6
CONTINUOUS
 10
23.018034522
 20
-28.3705209752
 11
23.0135391239
 21
-28.3511815261
  0
LINE
  5
597
100
AcDbEntity
  8
0
100
AcDbLine
 62
7
  6
CONTINUOUS
 10
22.9543232992
 20
-28.7329962645
 11
22.9588766859
 21
-28.7527276052
  0
LINE
  5
598
100
AcDbEntity
  8
RACCORDO
100
AcDbLine
 62
7
  6
CONTINUOUS
 10
33.5552668619
 20
-53.8598706949
 11
33.5595188998
 21
-53.8786621825
  0
LINE
  5
599
100
AcDbEntity
  8
RACCORDO
100
AcDbLine
 62
7
  6
CONTINUOUS
 10
24.8193760742
 20
-32.8451056959
 11
24.810940774
 21
-32.8057719374
  0
LINE
  5
59A
100
AcDbEntity
  8
0
100
AcDbLine
 62
7
  6
CONTINUOUS
 10
22.9588766859
 20
-28.7527276052
 11
22.962077056
 21
-28.7721329479
  0
LINE
  5
59B
100
AcDbEntity
  8
0
100
AcDbLine
 62
7
  6
CONTINUOUS
 10
23.0305209317
 20
-28.690632722
 11
23.0277152639
 21
-28.6729960666
  0
LINE
  5
59C
100
AcDbEntity
  8
0
100
AcDbLine
 62
7
  6
CONTINUOUS
 10
23.0186975209
 20
-28.3795160944
 11
23.0214495073
 21
-28.3968419976
  0
LINE
  5
59D
100
AcDbEntity
  8
0
100
AcDbLine
 62
7
  6
CONTINUOUS
 10
23.0209802154
 20
-28.3901487816
 11
23.018034522
 21
-28.3705209752
  0
LINE
  5
59E
100
AcDbEntity
  8
0
100
AcDbLine
 62
7
  6
CONTINUOUS
 10
22.962077056
 20
-28.7721329479
 11
22.9639017275
 21
-28.7910666255
  0
LINE
  5
59F
100
AcDbEntity
  8
0
100
AcDbLine
 62
7
  6
CONTINUOUS
 10
23.022352973
 20
-28.4097275639
 11
23.0209802154
 21
-28.3901487816
  0
LINE
  5
5A0
100
AcDbEntity
  8
0
100
AcDbLine
 62
7
  6
CONTINUOUS
 10
23.0313814504
 20
-28.7032546637
 11
23.0305209317
 21
-28.690632722
  0
LINE
  5
5A1
100
AcDbEntity
  8
0
100
AcDbLine
 62
7
  6
CONTINUOUS
 10
4.7885871427
 20
-24.6701322624
 11
4.7883156753
 21
-24.6981539423
  0
LINE
  5
5A2
100
AcDbEntity
  8
0
100
AcDbLine
 62
7
  6
CONTINUOUS
 10
4.4012707909
 20
-24.4768310673
 11
4.4018282072
 21
-24.4587611752
  0
LINE
  5
5A3
100
AcDbEntity
  8
0
100
AcDbLine
 62
7
  6
CONTINUOUS
 10
4.5076445893
 20
-24.4154180853
 11
4.5082011027
 21
-24.3973470824
  0
LINE
  5
5A4
100
AcDbEntity
  8
0
100
AcDbLine
 62
7
  6
CONTINUOUS
 10
4.7883156753
 20
-24.6981539423
 11
4.7870736998
 21
-24.7244825859
  0
LINE
  5
5A5
100
AcDbEntity
  8
0
100
AcDbLine
 62
7
  6
CONTINUOUS
 10
-8.8559012742
 20
-10.7486724049
 11
-8.8577188533
 21
-10.7650192181
  0
LINE
  5
5A6
100
AcDbEntity
  8
0
100
AcDbLine
 62
7
  6
CONTINUOUS
 10
-8.7890855341
 20
-10.6527440324
 11
-8.7914271424
 21
-10.6723948839
  0
LINE
  5
5A7
100
AcDbEntity
  8
0
100
AcDbLine
 62
7
  6
CONTINUOUS
 10
-11.1846789211
 20
-8.847428953
 11
-11.1845113376
 21
-8.8465587744
  0
LINE
  5
5A8
100
AcDbEntity
  8
0
100
AcDbLine
 62
7
  6
CONTINUOUS
 10
-10.6672622796
 20
-8.856893254
 11
-10.667431294
 21
-8.8577659839
  0
LINE
  5
5A9
100
AcDbEntity
  8
RACCORDO
100
AcDbLine
 62
7
  6
CONTINUOUS
 10
-22.7307963965
 20
-5.7805866958
 11
-22.7233976091
 21
-5.7469849227
  0
LINE
  5
5AA
100
AcDbEntity
  8
RACCORDO
100
AcDbLine
 62
7
  6
CONTINUOUS
 10
-22.7233976091
 20
-5.7469849227
 11
-22.7141200705
 21
-5.7130193448
  0
LINE
  5
5AB
100
AcDbEntity
  8
RACCORDO
100
AcDbLine
 62
7
  6
CONTINUOUS
 10
-23.0002924561
 20
31.4743569442
 11
-22.9909228299
 21
31.5059742921
  0
LINE
  5
5AC
100
AcDbEntity
  8
RACCORDO
100
AcDbLine
 62
7
  6
CONTINUOUS
 10
-23.661072645
 20
31.6410784522
 11
-23.6434324603
 21
31.6900853935
  0
LINE
  5
5AD
100
AcDbEntity
  8
RACCORDO
100
AcDbLine
 62
7
  6
CONTINUOUS
 10
-22.9909228299
 20
31.5059742921
 11
-22.9797880131
 21
31.5362103674
  0
LINE
  5
5AE
100
AcDbEntity
  8
RACCORDO
100
AcDbLine
 62
7
  6
CONTINUOUS
 10
-28.4713169062
 20
54.9462289004
 11
-28.4609146689
 21
54.9704356607
  0
LINE
  5
5AF
100
AcDbEntity
  8
RACCORDO
100
AcDbLine
 62
7
  6
CONTINUOUS
 10
-29.0188081188
 20
54.7028064865
 11
-29.0327338347
 21
54.6729601861
  0
LINE
  5
5B0
100
AcDbEntity
  8
RACCORDO
100
AcDbLine
 62
7
  6
CONTINUOUS
 10
-29.0724046622
 20
54.9253819459
 11
-29.0951886395
 21
54.8783821867
  0
LINE
  5
5B1
100
AcDbEntity
  8
RACCORDO
100
AcDbLine
 62
7
  6
CONTINUOUS
 10
-28.4609146689
 20
54.9704356607
 11
-28.4491516914
 21
54.9942877368
  0
LINE
  5
5B2
100
AcDbEntity
  8
RACCORDO
100
AcDbLine
 62
7
  6
CONTINUOUS
 10
34.0696277225
 20
-54.0612244285
 11
34.1089314642
 21
-54.0534070203
  0
LINE
  5
5B3
100
AcDbEntity
  8
RACCORDO
100
AcDbLine
 62
7
  6
CONTINUOUS
 10
33.8096445444
 20
-53.9303123639
 11
33.8300435324
 21
-53.9264731481
  0
LINE
  5
5B4
100
AcDbEntity
  8
RACCORDO
100
AcDbLine
 62
7
  6
CONTINUOUS
 10
34.1819153437
 20
-53.6528678974
 11
34.2068614374
 21
-53.64857509
  0
LINE
  5
5B5
100
AcDbEntity
  8
0
100
AcDbLine
 62
7
  6
CONTINUOUS
 10
20.6313868231
 20
-27.2188679608
 11
20.6352938158
 21
-27.2189154742
  0
LINE
  5
5B6
100
AcDbEntity
  8
0
100
AcDbLine
 62
7
  6
CONTINUOUS
 10
21.1506341001
 20
-27.273332245
 11
20.633386204
 21
-27.2629977373
  0
LINE
  5
5B7
100
AcDbEntity
  8
0
100
AcDbLine
 62
7
  6
CONTINUOUS
 10
21.1525428738
 20
-27.2292499538
 11
20.6352949777
 21
-27.2189154461
  0
LINE
  5
5B8
100
AcDbEntity
  8
RACCORDO
100
AcDbLine
 62
7
  6
CONTINUOUS
 10
24.6228015526
 20
-33.1394683138
 11
24.573514558
 21
-33.1379409523
  0
LINE
  5
5B9
100
AcDbEntity
  8
0
100
AcDbLine
 62
7
  6
CONTINUOUS
 10
22.8061835408
 20
-28.5058494213
 11
22.7845848066
 21
-28.5050728496
  0
LINE
  5
5BA
100
AcDbEntity
  8
0
100
AcDbLine
 62
7
  6
CONTINUOUS
 10
22.775556211
 20
-28.2115419068
 11
22.7971591182
 21
-28.2123187782
  0
LINE
  5
5BB
100
AcDbEntity
  8
0
100
AcDbLine
 62
7
  6
CONTINUOUS
 10
21.2240532806
 20
-27.251014924
 11
21.2375214488
 21
-27.2515488406
  0
LINE
  5
5BC
100
AcDbEntity
  8
0
100
AcDbLine
 62
7
  6
CONTINUOUS
 10
22.8626545858
 20
-28.1897809588
 11
22.8492103634
 21
-28.1892194086
  0
LINE
  5
5BD
100
AcDbEntity
  8
0
100
AcDbLine
 62
7
  6
CONTINUOUS
 10
4.266475581
 20
-24.6371435064
 11
4.2808654398
 21
-24.6379841384
  0
LINE
  5
5BE
100
AcDbEntity
  8
0
100
AcDbLine
 62
7
  6
CONTINUOUS
 10
21.1525428738
 20
-27.2292499538
 11
21.171779678
 21
-27.2303770997
  0
LINE
  5
5BF
100
AcDbEntity
  8
0
100
AcDbLine
 62
7
  6
CONTINUOUS
 10
4.5711487289
 20
-25.0103430071
 11
4.562630832
 21
-25.009664575
  0
LINE
  5
5C0
100
AcDbEntity
  8
0
100
AcDbLine
 62
7
  6
CONTINUOUS
 10
4.6775516789
 20
-24.9489072959
 11
4.6690340617
 21
-24.9482286993
  0
LINE
  5
5C1
100
AcDbEntity
  8
0
100
AcDbLine
 62
7
  6
CONTINUOUS
 10
36.4117121998
 20
-19.0309208345
 11
36.4011396414
 21
-19.0299061347
  0
LINE
  5
5C2
100
AcDbEntity
  8
0
100
AcDbLine
 62
7
  6
CONTINUOUS
 10
-10.6480254754
 20
-8.8580204
 11
-10.6289503834
 21
-8.8606227302
  0
LINE
  5
5C3
100
AcDbEntity
  8
RACCORDO
100
AcDbLine
 62
7
  6
CONTINUOUS
 10
-23.5319479949
 20
-4.4073924879
 11
-23.4919585657
 21
-4.4142677806
  0
LINE
  5
5C4
100
AcDbEntity
  8
0
100
AcDbLine
 62
7
  6
CONTINUOUS
 10
-10.5822837046
 20
-8.8791921408
 11
-10.5694869222
 21
-8.8814248107
  0
LINE
  5
5C5
100
AcDbEntity
  8
0
100
AcDbLine
 62
7
  6
CONTINUOUS
 10
-8.944378963
 20
-9.8196807007
 11
-8.9571505676
 21
-9.817424259
  0
LINE
  5
5C6
100
AcDbEntity
  8
0
100
AcDbLine
 62
7
  6
CONTINUOUS
 10
-8.9711391348
 20
-10.1396366439
 11
-8.9922077488
 21
-10.1358053263
  0
LINE
  5
5C7
100
AcDbEntity
  8
0
100
AcDbLine
 62
7
  6
CONTINUOUS
 10
-9.0012273734
 20
-9.842275681
 11
-8.9801534724
 21
-9.8461088359
  0
LINE
  5
5C8
100
AcDbEntity
  8
RACCORDO
100
AcDbLine
 62
7
  6
CONTINUOUS
 10
-22.7057949486
 20
31.7062453221
 11
-22.68050396
 21
31.6950809506
  0
LINE
  5
5C9
100
AcDbEntity
  8
RACCORDO
100
AcDbLine
 62
7
  6
CONTINUOUS
 10
-23.2379497974
 20
31.7012843832
 11
-23.201110209
 21
31.6849010829
  0
LINE
  5
5CA
100
AcDbEntity
  8
RACCORDO
100
AcDbLine
 62
7
  6
CONTINUOUS
 10
-23.6765839312
 20
31.3525379148
 11
-23.6432503796
 21
31.3373292901
  0
LINE
  5
5CB
100
AcDbEntity
  8
RACCORDO
100
AcDbLine
 62
7
  6
CONTINUOUS
 10
-22.8511542395
 20
31.979270619
 11
-22.796126334
 21
31.9534921835
  0
LINE
  5
5CC
100
AcDbEntity
  8
RACCORDO
100
AcDbLine
 62
7
  6
CONTINUOUS
 10
-22.68050396
 20
31.6950809506
 11
-22.6535659535
 21
31.6813931802
  0
LINE
  5
5CD
100
AcDbEntity
  8
RACCORDO
100
AcDbLine
 62
7
  6
CONTINUOUS
 10
-29.0785648099
 20
54.5024049158
 11
-29.0957337925
 21
54.5127987825
  0
LINE
  5
5CE
100
AcDbEntity
  8
RACCORDO
100
AcDbLine
 62
7
  6
CONTINUOUS
 10
33.5837425086
 20
19.0034201623
 11
33.5552668619
 21
19.021013642
  0
LINE
  5
5CF
100
AcDbEntity
  8
RACCORDO
100
AcDbLine
 62
7
  6
CONTINUOUS
 10
33.7928007195
 20
19.309774299
 11
33.7527713683
 21
19.3351858363
  0
LINE
  5
5D0
100
AcDbEntity
  8
RACCORDO
100
AcDbLine
 62
7
  6
CONTINUOUS
 10
-29.0957337925
 20
54.5127987825
 11
-29.1112941439
 21
54.5236676215
  0
LINE
  5
5D1
100
AcDbEntity
  8
RACCORDO
100
AcDbLine
 62
7
  6
CONTINUOUS
 10
33.6116433549
 20
18.9839100528
 11
33.5837425086
 21
19.0034201623
  0
LINE
  5
5D2
100
AcDbEntity
  8
RACCORDO
100
AcDbLine
 62
7
  6
CONTINUOUS
 10
33.832404383
 20
19.2815597148
 11
33.7928007195
 21
19.309774299
  0
LINE
  5
5D3
100
AcDbEntity
  8
RACCORDO
100
AcDbLine
 62
7
  6
CONTINUOUS
 10
36.89019986
 20
20.6015602106
 11
36.9124313065
 21
20.5844262394
  0
LINE
  5
5D4
100
AcDbEntity
  8
RACCORDO
100
AcDbLine
 62
7
  6
CONTINUOUS
 10
33.6389695063
 20
18.9624833519
 11
33.6116433549
 21
18.9839100528
  0
LINE
  5
5D5
100
AcDbEntity
  8
RACCORDO
100
AcDbLine
 62
7
  6
CONTINUOUS
 10
33.8714535712
 20
19.2506373551
 11
33.832404383
 21
19.2815597148
  0
LINE
  5
5D6
100
AcDbEntity
  8
RACCORDO
100
AcDbLine
 62
7
  6
CONTINUOUS
 10
36.9124313065
 20
20.5844262394
 11
36.9335590547
 21
20.5662814095
  0
LINE
  5
5D7
100
AcDbEntity
  8
RACCORDO
100
AcDbLine
 62
7
  6
CONTINUOUS
 10
33.6658148376
 20
18.9390556957
 11
33.6389695063
 21
18.9624833519
  0
LINE
  5
5D8
100
AcDbEntity
  8
RACCORDO
100
AcDbLine
 62
7
  6
CONTINUOUS
 10
33.9098137577
 20
19.2171147406
 11
33.8714535712
 21
19.2506373551
  0
LINE
  5
5D9
100
AcDbEntity
  8
RACCORDO
100
AcDbLine
 62
7
  6
CONTINUOUS
 10
36.9335590547
 20
20.5662814095
 11
36.9536210454
 21
20.5471490729
  0
LINE
  5
5DA
100
AcDbEntity
  8
RACCORDO
100
AcDbLine
 62
7
  6
CONTINUOUS
 10
33.9473636267
 20
19.1810998551
 11
33.9098137577
 21
19.2171147406
  0
LINE
  5
5DB
100
AcDbEntity
  8
RACCORDO
100
AcDbLine
 62
7
  6
CONTINUOUS
 10
33.6920858963
 20
18.9137116019
 11
33.6658148376
 21
18.9390556957
  0
LINE
  5
5DC
100
AcDbEntity
  8
RACCORDO
100
AcDbLine
 62
7
  6
CONTINUOUS
 10
33.9839948954
 20
19.1426978647
 11
33.9473636267
 21
19.1810998551
  0
LINE
  5
5DD
100
AcDbEntity
  8
RACCORDO
100
AcDbLine
 62
7
  6
CONTINUOUS
 10
36.9536210454
 20
20.5471490729
 11
36.9727311013
 21
20.5270992861
  0
LINE
  5
5DE
100
AcDbEntity
  8
RACCORDO
100
AcDbLine
 62
7
  6
CONTINUOUS
 10
33.7175018878
 20
18.8867044648
 11
33.6920858963
 21
18.9137116019
  0
LINE
  5
5DF
100
AcDbEntity
  8
RACCORDO
100
AcDbLine
 62
7
  6
CONTINUOUS
 10
34.0195827444
 20
19.1020247939
 11
33.9839948954
 21
19.1426978647
  0
LINE
  5
5E0
100
AcDbEntity
  8
RACCORDO
100
AcDbLine
 62
7
  6
CONTINUOUS
 10
36.9727311013
 20
20.5270992861
 11
36.9909211497
 21
20.5061733402
  0
LINE
  5
5E1
100
AcDbEntity
  8
RACCORDO
100
AcDbLine
 62
7
  6
CONTINUOUS
 10
33.7420497924
 20
18.8580207705
 11
33.7175018878
 21
18.8867044648
  0
LINE
  5
5E2
100
AcDbEntity
  8
RACCORDO
100
AcDbLine
 62
7
  6
CONTINUOUS
 10
34.0540026839
 20
19.0592186123
 11
34.0195827444
 21
19.1020247939
  0
LINE
  5
5E3
100
AcDbEntity
  8
RACCORDO
100
AcDbLine
 62
7
  6
CONTINUOUS
 10
36.9909211497
 20
20.5061733402
 11
37.0081592631
 21
20.4843299441
  0
LINE
  5
5E4
100
AcDbEntity
  8
RACCORDO
100
AcDbLine
 62
7
  6
CONTINUOUS
 10
33.7657434303
 20
18.8276743248
 11
33.7420497924
 21
18.8580207705
  0
LINE
  5
5E5
100
AcDbEntity
  8
RACCORDO
100
AcDbLine
 62
7
  6
CONTINUOUS
 10
34.0871490462
 20
19.0144252783
 11
34.0540026839
 21
19.0592186123
  0
LINE
  5
5E6
100
AcDbEntity
  8
RACCORDO
100
AcDbLine
 62
7
  6
CONTINUOUS
 10
37.0081592631
 20
20.4843299441
 11
37.0244634816
 21
20.4615152808
  0
LINE
  5
5E7
100
AcDbEntity
  8
RACCORDO
100
AcDbLine
 62
7
  6
CONTINUOUS
 10
33.7883423151
 20
18.7959595201
 11
33.7657434303
 21
18.8276743248
  0
LINE
  5
5E8
100
AcDbEntity
  8
RACCORDO
100
AcDbLine
 62
7
  6
CONTINUOUS
 10
34.1188959248
 20
18.9677904753
 11
34.0871490462
 21
19.0144252783
  0
LINE
  5
5E9
100
AcDbEntity
  8
RACCORDO
100
AcDbLine
 62
7
  6
CONTINUOUS
 10
33.809836307
 20
18.7628628843
 11
33.7883423151
 21
18.7959595201
  0
LINE
  5
5EA
100
AcDbEntity
  8
RACCORDO
100
AcDbLine
 62
7
  6
CONTINUOUS
 10
37.0244634816
 20
20.4615152808
 11
37.03991878
 21
20.4376354666
  0
LINE
  5
5EB
100
AcDbEntity
  8
RACCORDO
100
AcDbLine
 62
7
  6
CONTINUOUS
 10
34.1491347112
 20
18.9194616941
 11
34.1188959248
 21
18.9677904753
  0
LINE
  5
5EC
100
AcDbEntity
  8
RACCORDO
100
AcDbLine
 62
7
  6
CONTINUOUS
 10
33.8302366352
 20
18.7283982876
 11
33.809836307
 21
18.7628628843
  0
LINE
  5
5ED
100
AcDbEntity
  8
RACCORDO
100
AcDbLine
 62
7
  6
CONTINUOUS
 10
37.03991878
 20
20.4376354666
 11
37.0544401835
 21
20.4127843853
  0
LINE
  5
5EE
100
AcDbEntity
  8
RACCORDO
100
AcDbLine
 62
7
  6
CONTINUOUS
 10
34.1777891706
 20
18.8695949511
 11
34.1491347112
 21
18.9194616941
  0
LINE
  5
5EF
100
AcDbEntity
  8
RACCORDO
100
AcDbLine
 62
7
  6
CONTINUOUS
 10
33.8493348478
 20
18.6929011285
 11
33.8302366352
 21
18.7283982876
  0
LINE
  5
5F0
100
AcDbEntity
  8
RACCORDO
100
AcDbLine
 62
7
  6
CONTINUOUS
 10
34.2047472379
 20
18.8183437844
 11
34.1777891706
 21
18.8695949511
  0
LINE
  5
5F1
100
AcDbEntity
  8
RACCORDO
100
AcDbLine
 62
7
  6
CONTINUOUS
 10
37.0544401835
 20
20.4127843853
 11
37.0677908073
 21
20.3871898714
  0
LINE
  5
5F2
100
AcDbEntity
  8
RACCORDO
100
AcDbLine
 62
7
  6
CONTINUOUS
 10
33.8671197777
 20
18.6563598537
 11
33.8493348478
 21
18.6929011285
  0
LINE
  5
5F3
100
AcDbEntity
  8
RACCORDO
100
AcDbLine
 62
7
  6
CONTINUOUS
 10
34.2299052588
 20
18.7658758607
 11
34.2047472379
 21
18.8183437844
  0
LINE
  5
5F4
100
AcDbEntity
  8
RACCORDO
100
AcDbLine
 62
7
  6
CONTINUOUS
 10
37.0677908073
 20
20.3871898714
 11
37.0799734001
 21
20.3607589744
  0
LINE
  5
5F5
100
AcDbEntity
  8
RACCORDO
100
AcDbLine
 62
7
  6
CONTINUOUS
 10
33.8836038469
 20
18.6187864764
 11
33.8671197777
 21
18.6563598537
  0
LINE
  5
5F6
100
AcDbEntity
  8
RACCORDO
100
AcDbLine
 62
7
  6
CONTINUOUS
 10
34.2532040114
 20
18.7123736202
 11
34.2299052588
 21
18.7658758607
  0
LINE
  5
5F7
100
AcDbEntity
  8
RACCORDO
100
AcDbLine
 62
7
  6
CONTINUOUS
 10
37.0799734001
 20
20.3607589744
 11
37.0909852133
 21
20.333584645
  0
LINE
  5
5F8
100
AcDbEntity
  8
RACCORDO
100
AcDbLine
 62
7
  6
CONTINUOUS
 10
33.8986138816
 20
18.580551707
 11
33.8836038469
 21
18.6187864764
  0
LINE
  5
5F9
100
AcDbEntity
  8
RACCORDO
100
AcDbLine
 62
7
  6
CONTINUOUS
 10
34.2745426535
 20
18.6580059292
 11
34.2532040114
 21
18.7123736202
  0
LINE
  5
5FA
100
AcDbEntity
  8
RACCORDO
100
AcDbLine
 62
7
  6
CONTINUOUS
 10
34.2938325418
 20
18.6029473137
 11
34.2745426535
 21
18.6580059292
  0
LINE
  5
5FB
100
AcDbEntity
  8
RACCORDO
100
AcDbLine
 62
7
  6
CONTINUOUS
 10
33.9121364419
 20
18.5416493377
 11
33.8986138816
 21
18.580551707
  0
LINE
  5
5FC
100
AcDbEntity
  8
RACCORDO
100
AcDbLine
 62
7
  6
CONTINUOUS
 10
34.3110388427
 20
18.5473927096
 11
34.2938325418
 21
18.6029473137
  0
LINE
  5
5FD
100
AcDbEntity
  8
RACCORDO
100
AcDbLine
 62
7
  6
CONTINUOUS
 10
33.9241862415
 20
18.5020860445
 11
33.9121364419
 21
18.5416493377
  0
LINE
  5
5FE
100
AcDbEntity
  8
0
100
AcDbLine
 62
7
  6
CONTINUOUS
 10
36.3556131253
 20
-18.9817652541
 11
36.3515244355
 21
-18.9673996008
  0
LINE
  5
5FF
100
AcDbEntity
  8
RACCORDO
100
AcDbLine
 62
7
  6
CONTINUOUS
 10
25.023259041
 20
3.650688079
 11
25.0390303682
 21
3.5833681893
  0
LINE
  5
600
100
AcDbEntity
  8
RACCORDO
100
AcDbLine
 62
7
  6
CONTINUOUS
 10
24.8986621688
 20
3.6829134677
 11
24.9087379203
 21
3.6352157739
  0
LINE
  5
601
100
AcDbEntity
  8
RACCORDO
100
AcDbLine
 62
7
  6
CONTINUOUS
 10
24.2052146401
 20
4.7315233576
 11
24.2106932452
 21
4.7048001046
  0
LINE
  5
602
100
AcDbEntity
  8
RACCORDO
100
AcDbLine
 62
7
  6
CONTINUOUS
 10
25.0390303682
 20
3.5833681893
 11
25.0519308883
 21
3.5166631663
  0
LINE
  5
603
100
AcDbEntity
  8
RACCORDO
100
AcDbLine
 62
7
  6
CONTINUOUS
 10
24.9087379203
 20
3.6352157739
 11
24.9166730198
 21
3.5890904714
  0
LINE
  5
604
100
AcDbEntity
  8
RACCORDO
100
AcDbLine
 62
7
  6
CONTINUOUS
 10
33.9535978706
 20
-53.6178824191
 11
33.6520637466
 21
-51.8606528488
  0
LINE
  5
605
100
AcDbEntity
  8
RACCORDO
100
AcDbLine
 62
7
  6
CONTINUOUS
 10
34.3631070906
 20
-53.5826304984
 11
34.0620118736
 21
-51.8279759194
  0
LINE
  5
606
100
AcDbEntity
  8
RACCORDO
100
AcDbLine
 62
7
  6
CONTINUOUS
 10
33.6520637466
 20
-51.8606528488
 11
33.3753505174
 21
-50.086020218
  0
LINE
  5
607
100
AcDbEntity
  8
RACCORDO
100
AcDbLine
 62
7
  6
CONTINUOUS
 10
34.0620118736
 20
-51.8279759194
 11
33.7857908064
 21
-50.0566533498
  0
LINE
  5
608
100
AcDbEntity
  8
RACCORDO
100
AcDbLine
 62
7
  6
CONTINUOUS
 10
33.9583175637
 20
-53.6484712061
 11
33.9535978706
 21
-53.6178824191
  0
LINE
  5
609
100
AcDbEntity
  8
RACCORDO
100
AcDbLine
 62
7
  6
CONTINUOUS
 10
25.0519308883
 20
3.5166631663
 11
25.0620747938
 21
3.4505233993
  0
LINE
  5
60A
100
AcDbEntity
  8
RACCORDO
100
AcDbLine
 62
7
  6
CONTINUOUS
 10
33.3753505174
 20
-50.086020218
 11
33.1235110706
 21
-48.2943413535
  0
LINE
  5
60B
100
AcDbEntity
  8
RACCORDO
100
AcDbLine
 62
7
  6
CONTINUOUS
 10
33.7857908064
 20
-50.0566533498
 11
33.5344438888
 21
-48.2686627897
  0
LINE
  5
60C
100
AcDbEntity
  8
RACCORDO
100
AcDbLine
 62
7
  6
CONTINUOUS
 10
24.810940774
 20
-32.8057719374
 11
24.8057434852
 21
-32.766452289
  0
LINE
  5
60D
100
AcDbEntity
  8
RACCORDO
100
AcDbLine
 62
7
  6
CONTINUOUS
 10
24.9166730198
 20
3.5890904714
 11
24.9225370321
 21
3.5447540769
  0
LINE
  5
60E
100
AcDbEntity
  8
RACCORDO
100
AcDbLine
 62
7
  6
CONTINUOUS
 10
24.9311468513
 20
3.3701205402
 11
24.9282419092
 21
3.3932303251
  0
LINE
  5
60F
100
AcDbEntity
  8
RACCORDO
100
AcDbLine
 62
7
  6
CONTINUOUS
 10
33.1235110706
 20
-48.2943413535
 11
32.8965918751
 21
-46.4859786987
  0
LINE
  5
610
100
AcDbEntity
  8
RACCORDO
100
AcDbLine
 62
7
  6
CONTINUOUS
 10
24.2016868962
 20
4.7597623828
 11
24.2052146401
 21
4.7315233576
  0
LINE
  5
611
100
AcDbEntity
  8
RACCORDO
100
AcDbLine
 62
7
  6
CONTINUOUS
 10
25.0620747938
 20
3.4505233993
 11
25.0694237261
 21
3.3859736914
  0
LINE
  5
612
100
AcDbEntity
  8
RACCORDO
100
AcDbLine
 62
7
  6
CONTINUOUS
 10
24.9311463625
 20
-32.3328966709
 11
24.9282161226
 21
-32.306869123
  0
LINE
  5
613
100
AcDbEntity
  8
0
100
AcDbLine
 62
7
  6
CONTINUOUS
 10
36.3486049874
 20
-18.9516507879
 11
36.3468539314
 21
-18.9346364771
  0
LINE
  5
614
100
AcDbEntity
  8
RACCORDO
100
AcDbLine
 62
7
  6
CONTINUOUS
 10
33.9613220618
 20
-53.677784636
 11
33.9583175637
 21
-53.6484712061
  0
LINE
  5
615
100
AcDbEntity
  8
RACCORDO
100
AcDbLine
 62
7
  6
CONTINUOUS
 10
32.6946378267
 20
-44.6612941933
 11
32.5176926585
 21
-42.8206489029
  0
LINE
  5
616
100
AcDbEntity
  8
RACCORDO
100
AcDbLine
 62
7
  6
CONTINUOUS
 10
33.1062897041
 20
-44.6419313001
 11
32.9296480344
 21
-42.8046831654
  0
LINE
  5
617
100
AcDbEntity
  8
RACCORDO
100
AcDbLine
 62
7
  6
CONTINUOUS
 10
24.9225370321
 20
3.5447540769
 11
24.9264153871
 21
3.5024379835
  0
LINE
  5
618
100
AcDbEntity
  8
RACCORDO
100
AcDbLine
 62
7
  6
CONTINUOUS
 10
34.3668317036
 20
-53.6275713308
 11
34.3631070906
 21
-53.5826304984
  0
LINE
  5
619
100
AcDbEntity
  8
RACCORDO
100
AcDbLine
 62
7
  6
CONTINUOUS
 10
32.5176926585
 20
-42.8206489029
 11
32.365792265
 21
-40.9644111572
  0
LINE
  5
61A
100
AcDbEntity
  8
RACCORDO
100
AcDbLine
 62
7
  6
CONTINUOUS
 10
32.9296480344
 20
-42.8046831654
 11
32.778046112
 21
-40.9522598347
  0
LINE
  5
61B
100
AcDbEntity
  8
RACCORDO
100
AcDbLine
 62
7
  6
CONTINUOUS
 10
25.0694237261
 20
3.3859736914
 11
25.073964735
 21
3.3233555592
  0
LINE
  5
61C
100
AcDbEntity
  8
RACCORDO
100
AcDbLine
 62
7
  6
CONTINUOUS
 10
32.778046112
 20
-40.9522598347
 11
32.6514425375
 21
-39.0842881093
  0
LINE
  5
61D
100
AcDbEntity
  8
RACCORDO
100
AcDbLine
 62
7
  6
CONTINUOUS
 10
32.365792265
 20
-40.9644111572
 11
32.2389642762
 21
-39.092956773
  0
LINE
  5
61E
100
AcDbEntity
  8
RACCORDO
100
AcDbLine
 62
7
  6
CONTINUOUS
 10
32.6514425375
 20
-39.0842881093
 11
32.5498373108
 21
-37.2007679893
  0
LINE
  5
61F
100
AcDbEntity
  8
RACCORDO
100
AcDbLine
 62
7
  6
CONTINUOUS
 10
32.2389642762
 20
-39.092956773
 11
32.1372332003
 21
-37.2066627234
  0
LINE
  5
620
100
AcDbEntity
  8
RACCORDO
100
AcDbLine
 62
7
  6
CONTINUOUS
 10
24.2001297679
 20
4.7893590504
 11
24.2016868962
 21
4.7597623828
  0
LINE
  5
621
100
AcDbEntity
  8
RACCORDO
100
AcDbLine
 62
7
  6
CONTINUOUS
 10
24.9264153871
 20
3.5024379835
 11
24.9284135621
 21
3.4624801188
  0
LINE
  5
622
100
AcDbEntity
  8
RACCORDO
100
AcDbLine
 62
7
  6
CONTINUOUS
 10
24.8057434852
 20
-32.766452289
 11
24.8038216585
 21
-32.7274300796
  0
LINE
  5
623
100
AcDbEntity
  8
RACCORDO
100
AcDbLine
 62
7
  6
CONTINUOUS
 10
24.8210097034
 20
-29.4508983232
 11
24.9282166095
 21
-32.3068626193
  0
LINE
  5
624
100
AcDbEntity
  8
RACCORDO
100
AcDbLine
 62
7
  6
CONTINUOUS
 10
24.9657965599
 20
-29.6056355763
 11
25.0746616625
 21
-32.5101256425
  0
LINE
  5
625
100
AcDbEntity
  8
0
100
AcDbLine
 62
7
  6
CONTINUOUS
 10
22.7845848066
 20
-28.5050728496
 11
22.775556211
 21
-28.2115419068
  0
LINE
  5
626
100
AcDbEntity
  8
0
100
AcDbLine
 62
7
  6
CONTINUOUS
 10
23.0313814504
 20
-28.7032546637
 11
23.0223528548
 21
-28.4097237209
  0
LINE
  5
627
100
AcDbEntity
  8
RACCORDO
100
AcDbLine
 62
7
  6
CONTINUOUS
 10
24.7313144591
 20
-26.5224194657
 11
24.8210097034
 21
-29.4508983232
  0
LINE
  5
628
100
AcDbEntity
  8
RACCORDO
100
AcDbLine
 62
7
  6
CONTINUOUS
 10
24.8767149066
 20
-26.6874827977
 11
24.9657965599
 21
-29.6056355763
  0
LINE
  5
629
100
AcDbEntity
  8
RACCORDO
100
AcDbLine
 62
7
  6
CONTINUOUS
 10
25.073964735
 20
3.3233555592
 11
25.0757107096
 21
3.262327457
  0
LINE
  5
62A
100
AcDbEntity
  8
0
100
AcDbLine
 62
7
  6
CONTINUOUS
 10
22.9639017275
 20
-28.7910666255
 11
22.9643380533
 21
-28.8093850007
  0
LINE
  5
62B
100
AcDbEntity
  8
RACCORDO
100
AcDbLine
 62
7
  6
CONTINUOUS
 10
24.6615498397
 20
-23.5804100036
 11
24.7313144591
 21
-26.5224194657
  0
LINE
  5
62C
100
AcDbEntity
  8
RACCORDO
100
AcDbLine
 62
7
  6
CONTINUOUS
 10
24.8074228777
 20
-23.7558591081
 11
24.8767149066
 21
-26.6874827977
  0
LINE
  5
62D
100
AcDbEntity
  8
RACCORDO
100
AcDbLine
 62
7
  6
CONTINUOUS
 10
24.9282161226
 20
-32.306869123
 11
24.9287673182
 21
-32.3309021534
  0
LINE
  5
62E
100
AcDbEntity
  8
RACCORDO
100
AcDbLine
 62
7
  6
CONTINUOUS
 10
25.0746616625
 20
-32.5101256425
 11
25.0757325442
 21
-32.564719331
  0
LINE
  5
62F
100
AcDbEntity
  8
RACCORDO
100
AcDbLine
 62
7
  6
CONTINUOUS
 10
24.6117214075
 20
-20.6250864823
 11
24.6615498397
 21
-23.5804100036
  0
LINE
  5
630
100
AcDbEntity
  8
RACCORDO
100
AcDbLine
 62
7
  6
CONTINUOUS
 10
24.7579253843
 20
-20.8109571734
 11
24.8074228777
 21
-23.7558591081
  0
LINE
  5
631
100
AcDbEntity
  8
0
100
AcDbLine
 62
7
  6
CONTINUOUS
 10
23.0313814504
 20
-28.7032546637
 11
23.0314996272
 21
-28.7109218679
  0
LINE
  5
632
100
AcDbEntity
  8
RACCORDO
100
AcDbLine
 62
7
  6
CONTINUOUS
 10
24.2005519748
 20
-33.0110729085
 11
24.2001297677
 21
-32.9807718954
  0
LINE
  5
633
100
AcDbEntity
  8
RACCORDO
100
AcDbLine
 62
7
  6
CONTINUOUS
 10
24.5818308721
 20
-17.6566423959
 11
24.6117214075
 21
-20.6250864823
  0
LINE
  5
634
100
AcDbEntity
  8
RACCORDO
100
AcDbLine
 62
7
  6
CONTINUOUS
 10
24.7282257519
 20
-17.8529704468
 11
24.7579253843
 21
-20.8109571734
  0
LINE
  5
635
100
AcDbEntity
  8
RACCORDO
100
AcDbLine
 62
7
  6
CONTINUOUS
 10
24.9284135621
 20
3.4624801188
 11
24.9286789514
 21
3.4251043647
  0
LINE
  5
636
100
AcDbEntity
  8
RACCORDO
100
AcDbLine
 62
7
  6
CONTINUOUS
 10
24.9282419092
 20
3.3932303251
 11
24.9281758188
 21
3.4063977592
  0
LINE
  5
637
100
AcDbEntity
  8
RACCORDO
100
AcDbLine
 62
7
  6
CONTINUOUS
 10
24.5718791166
 20
-14.6752616251
 11
24.5818308721
 21
-17.6566423959
  0
LINE
  5
638
100
AcDbEntity
  8
RACCORDO
100
AcDbLine
 62
7
  6
CONTINUOUS
 10
24.7183257178
 20
-14.8820931579
 11
24.7282257519
 21
-17.8529704468
  0
LINE
  5
639
100
AcDbEntity
  8
0
100
AcDbLine
 62
7
  6
CONTINUOUS
 10
22.9643380533
 20
-29.1038125602
 11
22.9643380533
 21
-28.8093850007
  0
LINE
  5
63A
100
AcDbEntity
  8
0
100
AcDbLine
 62
7
  6
CONTINUOUS
 10
23.0314615517
 20
-29.0028490336
 11
23.0314615517
 21
-28.7084214741
  0
LINE
  5
63B
100
AcDbEntity
  8
RACCORDO
100
AcDbLine
 62
7
  6
CONTINUOUS
 10
24.5818666531
 20
-11.681136226
 11
24.5718791166
 21
-14.6752616251
  0
LINE
  5
63C
100
AcDbEntity
  8
RACCORDO
100
AcDbLine
 62
7
  6
CONTINUOUS
 10
24.7282257524
 20
-11.8985202811
 11
24.7183257178
 21
-14.8820931579
  0
LINE
  5
63D
100
AcDbEntity
  8
0
100
AcDbLine
 62
7
  6
CONTINUOUS
 10
20.633386204
 20
-27.2629977373
 11
20.6340852172
 21
-27.2416526338
  0
LINE
  5
63E
100
AcDbEntity
  8
0
100
AcDbLine
 62
7
  6
CONTINUOUS
 10
4.3998722379
 20
-24.494324373
 11
4.4012707909
 21
-24.4768310673
  0
LINE
  5
63F
100
AcDbEntity
  8
0
100
AcDbLine
 62
7
  6
CONTINUOUS
 10
4.5062467089
 20
-24.43291237
 11
4.5076445893
 21
-24.4154180853
  0
LINE
  5
640
100
AcDbEntity
  8
0
100
AcDbLine
 62
7
  6
CONTINUOUS
 10
4.7870736998
 20
-24.7244825859
 11
4.7848743432
 21
-24.7491348721
  0
LINE
  5
641
100
AcDbEntity
  8
0
100
AcDbLine
 62
7
  6
CONTINUOUS
 10
4.3976437398
 20
-24.5111802337
 11
4.3998722379
 21
-24.494324373
  0
LINE
  5
642
100
AcDbEntity
  8
0
100
AcDbLine
 62
7
  6
CONTINUOUS
 10
4.5040187076
 20
-24.4497689713
 11
4.5062467089
 21
-24.43291237
  0
LINE
  5
643
100
AcDbEntity
  8
0
100
AcDbLine
 62
7
  6
CONTINUOUS
 10
4.7848743432
 20
-24.7491348721
 11
4.7817031496
 21
-24.7720950041
  0
LINE
  5
644
100
AcDbEntity
  8
0
100
AcDbLine
 62
7
  6
CONTINUOUS
 10
-8.7911935372
 20
-10.3604612858
 11
-8.7888704938
 21
-10.3482827941
  0
LINE
  5
645
100
AcDbEntity
  8
0
100
AcDbLine
 62
7
  6
CONTINUOUS
 10
-8.788881163
 20
-10.6428014002
 11
-8.7912336148
 21
-10.6550392324
  0
LINE
  5
646
100
AcDbEntity
  8
0
100
AcDbLine
 62
7
  6
CONTINUOUS
 10
-8.7914271424
 20
-10.6723948839
 11
-8.795318141
 21
-10.6918089062
  0
LINE
  5
647
100
AcDbEntity
  8
0
100
AcDbLine
 62
7
  6
CONTINUOUS
 10
-8.8577188533
 20
-10.7650192181
 11
-8.8609078172
 21
-10.7803711064
  0
LINE
  5
648
100
AcDbEntity
  8
RACCORDO
100
AcDbLine
 62
7
  6
CONTINUOUS
 10
-22.7141200705
 20
-5.7130193448
 11
-22.7030157324
 21
-5.6788801592
  0
LINE
  5
649
100
AcDbEntity
  8
RACCORDO
100
AcDbLine
 62
7
  6
CONTINUOUS
 10
-23.6434324603
 20
31.6900853935
 11
-23.6229335687
 21
31.7365836458
  0
LINE
  5
64A
100
AcDbEntity
  8
RACCORDO
100
AcDbLine
 62
7
  6
CONTINUOUS
 10
-22.9797880131
 20
31.5362103674
 11
-22.9668823848
 21
31.5649843775
  0
LINE
  5
64B
100
AcDbEntity
  8
RACCORDO
100
AcDbLine
 62
7
  6
CONTINUOUS
 10
-29.0033871157
 20
54.7309424748
 11
-29.0188081188
 21
54.7028064865
  0
LINE
  5
64C
100
AcDbEntity
  8
RACCORDO
100
AcDbLine
 62
7
  6
CONTINUOUS
 10
-28.4491516914
 20
54.9942877368
 11
-28.4361211977
 21
55.0175960745
  0
LINE
  5
64D
100
AcDbEntity
  8
RACCORDO
100
AcDbLine
 62
7
  6
CONTINUOUS
 10
-29.0471345451
 20
54.9699083636
 11
-29.0724046622
 21
54.9253819459
  0
LINE
  5
64E
100
AcDbEntity
  8
RACCORDO
100
AcDbLine
 62
7
  6
CONTINUOUS
 10
-28.4361211977
 20
55.0175960745
 11
-28.4219264608
 21
55.0401759246
  0
LINE
  5
64F
100
AcDbEntity
  8
RACCORDO
100
AcDbLine
 62
7
  6
CONTINUOUS
 10
34.2068614374
 20
-53.64857509
 11
34.2314907483
 21
-53.6428962836
  0
LINE
  5
650
100
AcDbEntity
  8
RACCORDO
100
AcDbLine
 62
7
  6
CONTINUOUS
 10
24.670122684
 20
-33.1367204314
 11
24.6228015526
 21
-33.1394683138
  0
LINE
  5
651
100
AcDbEntity
  8
0
100
AcDbLine
 62
7
  6
CONTINUOUS
 10
20.6089245476
 20
-27.2197811461
 11
20.6313868231
 21
-27.2188679608
  0
LINE
  5
652
100
AcDbEntity
  8
0
100
AcDbLine
 62
7
  6
CONTINUOUS
 10
4.2808654398
 20
-24.6379841384
 11
4.2945399091
 21
-24.6374572625
  0
LINE
  5
653
100
AcDbEntity
  8
RACCORDO
100
AcDbLine
 62
7
  6
CONTINUOUS
 10
24.8148990154
 20
-32.4724591445
 11
24.7866896872
 21
-32.4734623627
  0
LINE
  5
654
100
AcDbEntity
  8
0
100
AcDbLine
 62
7
  6
CONTINUOUS
 10
20.5477290522
 20
-27.2378566339
 11
20.5610466701
 21
-27.2377240697
  0
LINE
  5
655
100
AcDbEntity
  8
0
100
AcDbLine
 62
7
  6
CONTINUOUS
 10
-10.6672622796
 20
-8.856893254
 11
-10.6480254754
 21
-8.8580204
  0
LINE
  5
656
100
AcDbEntity
  8
0
100
AcDbLine
 62
7
  6
CONTINUOUS
 10
-8.9922077488
 20
-10.1358053263
 11
-9.0136216126
 21
-10.1334927215
  0
LINE
  5
657
100
AcDbEntity
  8
0
100
AcDbLine
 62
7
  6
CONTINUOUS
 10
-9.0226460352
 20
-9.8399620785
 11
-9.0012273734
 21
-9.842275681
  0
LINE
  5
658
100
AcDbEntity
  8
RACCORDO
100
AcDbLine
 62
7
  6
CONTINUOUS
 10
-23.4919585657
 20
-4.4142677806
 11
-23.4509914072
 21
-4.4190508276
  0
LINE
  5
659
100
AcDbEntity
  8
0
100
AcDbLine
 62
7
  6
CONTINUOUS
 10
-11.2587584833
 20
-8.86536737
 11
-11.2449133689
 21
-8.8669938442
  0
LINE
  5
65A
100
AcDbEntity
  8
RACCORDO
100
AcDbLine
 62
7
  6
CONTINUOUS
 10
24.8109407423
 20
3.9587917624
 11
24.805743536
 21
3.9599367721
  0
LINE
  5
65B
100
AcDbEntity
  8
RACCORDO
100
AcDbLine
 62
7
  6
CONTINUOUS
 10
-23.6078629748
 20
31.3236562644
 11
-23.5706734152
 21
31.3116160892
  0
LINE
  5
65C
100
AcDbEntity
  8
RACCORDO
100
AcDbLine
 62
7
  6
CONTINUOUS
 10
-23.201110209
 20
31.6849010829
 11
-23.1637668079
 21
31.6715578355
  0
LINE
  5
65D
100
AcDbEntity
  8
RACCORDO
100
AcDbLine
 62
7
  6
CONTINUOUS
 10
-22.7291069426
 20
31.7149448633
 11
-22.7057949486
 21
31.7062453221
  0
LINE
  5
65E
100
AcDbEntity
  8
RACCORDO
100
AcDbLine
 62
7
  6
CONTINUOUS
 10
-23.6432503796
 20
31.3373292901
 11
-23.6078629748
 21
31.3236562644
  0
LINE
  5
65F
100
AcDbEntity
  8
RACCORDO
100
AcDbLine
 62
7
  6
CONTINUOUS
 10
-22.9060209677
 20
32.0009109537
 11
-22.8511542395
 21
31.979270619
  0
LINE
  5
660
100
AcDbEntity
  8
RACCORDO
100
AcDbLine
 62
7
  6
CONTINUOUS
 10
33.9921447488
 20
18.0885334633
 11
34.0133070208
 21
18.0795897192
  0
LINE
  5
661
100
AcDbEntity
  8
RACCORDO
100
AcDbLine
 62
7
  6
CONTINUOUS
 10
33.972194367
 20
18.0981677988
 11
33.9921447488
 21
18.0885334633
  0
LINE
  5
662
100
AcDbEntity
  8
RACCORDO
100
AcDbLine
 62
7
  6
CONTINUOUS
 10
-28.300340049
 20
55.1638746605
 11
-28.3419153585
 21
55.1855788578
  0
LINE
  5
663
100
AcDbEntity
  8
RACCORDO
100
AcDbLine
 62
7
  6
CONTINUOUS
 10
-28.4978445554
 20
54.8497024662
 11
-28.5266594076
 21
54.8651748608
  0
LINE
  5
664
100
AcDbEntity
  8
RACCORDO
100
AcDbLine
 62
7
  6
CONTINUOUS
 10
-24.1297083683
 20
55.8365538924
 11
-24.1059286944
 21
55.8237474282
  0
LINE
  5
665
100
AcDbEntity
  8
RACCORDO
100
AcDbLine
 62
7
  6
CONTINUOUS
 10
33.9535979138
 20
18.1084241331
 11
33.972194367
 21
18.0981677988
  0
LINE
  5
666
100
AcDbEntity
  8
RACCORDO
100
AcDbLine
 62
7
  6
CONTINUOUS
 10
33.5552668619
 20
19.021013642
 11
-28.4978445554
 21
54.8497024662
  0
LINE
  5
667
100
AcDbEntity
  8
RACCORDO
100
AcDbLine
 62
7
  6
CONTINUOUS
 10
33.7527713683
 20
19.3351858363
 11
-28.300340049
 21
55.1638746605
  0
LINE
  5
668
100
AcDbEntity
  8
RACCORDO
100
AcDbLine
 62
7
  6
CONTINUOUS
 10
-26.7252609731
 20
56.274484739
 11
35.5020739018
 21
20.3452014739
  0
LINE
  5
669
100
AcDbEntity
  8
RACCORDO
100
AcDbLine
 62
7
  6
CONTINUOUS
 10
-24.1059286944
 20
55.8237474282
 11
36.8425396947
 21
20.632865633
  0
LINE
  5
66A
100
AcDbEntity
  8
RACCORDO
100
AcDbLine
 62
7
  6
CONTINUOUS
 10
36.8425396947
 20
20.632865633
 11
36.8669026561
 21
20.6177066751
  0
LINE
  5
66B
100
AcDbEntity
  8
RACCORDO
100
AcDbLine
 62
7
  6
CONTINUOUS
 10
36.8669026561
 20
20.6177066751
 11
36.89019986
 21
20.6015602106
  0
LINE
  5
66C
100
AcDbEntity
  8
RACCORDO
100
AcDbLine
 62
7
  6
CONTINUOUS
 10
37.0909852133
 20
20.333584645
 11
37.1005811164
 21
20.3061735698
  0
LINE
  5
66D
100
AcDbEntity
  8
RACCORDO
100
AcDbLine
 62
7
  6
CONTINUOUS
 10
37.1005811164
 20
20.3061735698
 11
37.1086972408
 21
20.278634022
  0
LINE
  5
66E
100
AcDbEntity
  8
RACCORDO
100
AcDbLine
 62
7
  6
CONTINUOUS
 10
34.3260819391
 20
18.4914938692
 11
34.3110388427
 21
18.5473927096
  0
LINE
  5
66F
100
AcDbEntity
  8
RACCORDO
100
AcDbLine
 62
7
  6
CONTINUOUS
 10
33.9346321398
 20
18.4622517923
 11
33.9241862415
 21
18.5020860445
  0
LINE
  5
670
100
AcDbEntity
  8
RACCORDO
100
AcDbLine
 62
7
  6
CONTINUOUS
 10
37.1086972408
 20
20.278634022
 11
37.1153974552
 21
20.2508577285
  0
LINE
  5
671
100
AcDbEntity
  8
RACCORDO
100
AcDbLine
 62
7
  6
CONTINUOUS
 10
34.3388815885
 20
18.4354557164
 11
34.3260819391
 21
18.4914938692
  0
LINE
  5
672
100
AcDbEntity
  8
RACCORDO
100
AcDbLine
 62
7
  6
CONTINUOUS
 10
33.9434596329
 20
18.422125844
 11
33.9346321398
 21
18.4622517923
  0
LINE
  5
673
100
AcDbEntity
  8
RACCORDO
100
AcDbLine
 62
7
  6
CONTINUOUS
 10
34.3494167629
 20
18.379554363
 11
34.3388815885
 21
18.4354557164
  0
LINE
  5
674
100
AcDbEntity
  8
RACCORDO
100
AcDbLine
 62
7
  6
CONTINUOUS
 10
37.1153974552
 20
20.2508577285
 11
37.120628235
 21
20.2230265568
  0
LINE
  5
675
100
AcDbEntity
  8
0
100
AcDbLine
 62
7
  6
CONTINUOUS
 10
36.3515244355
 20
-18.9673996008
 11
36.3486049874
 21
-18.9516507879
  0
LINE
  5
676
100
AcDbEntity
  8
RACCORDO
100
AcDbLine
 62
7
  6
CONTINUOUS
 10
33.9506843774
 20
18.3817293623
 11
33.9434596329
 21
18.422125844
  0
LINE
  5
677
100
AcDbEntity
  8
RACCORDO
100
AcDbLine
 62
7
  6
CONTINUOUS
 10
34.3576231806
 20
18.3240116826
 11
34.3494167629
 21
18.379554363
  0
LINE
  5
678
100
AcDbEntity
  8
RACCORDO
100
AcDbLine
 62
7
  6
CONTINUOUS
 10
33.9562201608
 20
18.3415150468
 11
33.9506843774
 21
18.3817293623
  0
LINE
  5
679
100
AcDbEntity
  8
RACCORDO
100
AcDbLine
 62
7
  6
CONTINUOUS
 10
33.5344438888
 20
-48.2686627897
 11
33.3079297216
 21
-46.4636310402
  0
LINE
  5
67A
100
AcDbEntity
  8
RACCORDO
100
AcDbLine
 62
7
  6
CONTINUOUS
 10
32.8965918751
 20
-46.4859786987
 11
32.6946378267
 21
-44.6612941933
  0
LINE
  5
67B
100
AcDbEntity
  8
RACCORDO
100
AcDbLine
 62
7
  6
CONTINUOUS
 10
33.3079297216
 20
-46.4636310402
 11
33.1062897041
 21
-44.6419313001
  0
LINE
  5
67C
100
AcDbEntity
  8
RACCORDO
100
AcDbLine
 62
7
  6
CONTINUOUS
 10
34.3634632917
 20
18.2689601881
 11
34.3576231806
 21
18.3240116826
  0
LINE
  5
67D
100
AcDbEntity
  8
RACCORDO
100
AcDbLine
 62
7
  6
CONTINUOUS
 10
33.9600463857
 20
18.3015058222
 11
33.9562201608
 21
18.3415150468
  0
LINE
  5
67E
100
AcDbEntity
  8
RACCORDO
100
AcDbLine
 62
7
  6
CONTINUOUS
 10
37.1243717389
 20
20.1952011295
 11
37.1266458083
 21
20.1673208241
  0
LINE
  5
67F
100
AcDbEntity
  8
RACCORDO
100
AcDbLine
 62
7
  6
CONTINUOUS
 10
34.3669650141
 20
18.2145418216
 11
34.3634632917
 21
18.2689601881
  0
LINE
  5
680
100
AcDbEntity
  8
RACCORDO
100
AcDbLine
 62
7
  6
CONTINUOUS
 10
33.962184473
 20
18.2616790701
 11
33.9600463857
 21
18.3015058222
  0
LINE
  5
681
100
AcDbEntity
  8
RACCORDO
100
AcDbLine
 62
7
  6
CONTINUOUS
 10
33.9626111465
 20
-53.7058228782
 11
33.9613220618
 21
-53.677784636
  0
LINE
  5
682
100
AcDbEntity
  8
RACCORDO
100
AcDbLine
 62
7
  6
CONTINUOUS
 10
32.1372332721
 20
-37.2066627649
 11
32.0073681717
 21
-34.1918889993
  0
LINE
  5
683
100
AcDbEntity
  8
RACCORDO
100
AcDbLine
 62
7
  6
CONTINUOUS
 10
32.5498373108
 20
-37.2007679893
 11
32.4200402108
 21
-34.1876319118
  0
LINE
  5
684
100
AcDbEntity
  8
RACCORDO
100
AcDbLine
 62
7
  6
CONTINUOUS
 10
32.0073681717
 20
-34.1918889993
 11
31.901097194
 21
-31.1636454559
  0
LINE
  5
685
100
AcDbEntity
  8
RACCORDO
100
AcDbLine
 62
7
  6
CONTINUOUS
 10
32.4200402108
 20
-34.1876319118
 11
32.3138391293
 21
-31.1614634997
  0
LINE
  5
686
100
AcDbEntity
  8
0
100
AcDbLine
 62
7
  6
CONTINUOUS
 10
36.3468539314
 20
-18.9346364771
 11
36.3462672362
 21
-18.9165192752
  0
LINE
  5
687
100
AcDbEntity
  8
RACCORDO
100
AcDbLine
 62
7
  6
CONTINUOUS
 10
34.3681079962
 20
-53.670913481
 11
34.3668317036
 21
-53.6275713308
  0
LINE
  5
688
100
AcDbEntity
  8
RACCORDO
100
AcDbLine
 62
7
  6
CONTINUOUS
 10
37.1266458083
 20
20.1673208241
 11
37.1274504432
 21
20.1393856405
  0
LINE
  5
689
100
AcDbEntity
  8
RACCORDO
100
AcDbLine
 62
7
  6
CONTINUOUS
 10
31.901097194
 20
-31.1636454559
 11
31.8184299879
 21
-28.122143946
  0
LINE
  5
68A
100
AcDbEntity
  8
RACCORDO
100
AcDbLine
 62
7
  6
CONTINUOUS
 10
32.3138391293
 20
-31.1614634997
 11
32.2312340663
 21
-28.122262753
  0
LINE
  5
68B
100
AcDbEntity
  8
RACCORDO
100
AcDbLine
 62
7
  6
CONTINUOUS
 10
34.3681075207
 20
18.1609220169
 11
34.3669650141
 21
18.2145418216
  0
LINE
  5
68C
100
AcDbEntity
  8
RACCORDO
100
AcDbLine
 62
7
  6
CONTINUOUS
 10
31.8184299879
 20
-28.122143946
 11
31.7593738483
 21
-25.0675589023
  0
LINE
  5
68D
100
AcDbEntity
  8
RACCORDO
100
AcDbLine
 62
7
  6
CONTINUOUS
 10
32.2312340663
 20
-28.122262753
 11
32.1722207991
 21
-25.0697768144
  0
LINE
  5
68E
100
AcDbEntity
  8
RACCORDO
100
AcDbLine
 62
7
  6
CONTINUOUS
 10
31.7593738483
 20
-25.0675589023
 11
31.7239365968
 21
-22.0001422368
  0
LINE
  5
68F
100
AcDbEntity
  8
RACCORDO
100
AcDbLine
 62
7
  6
CONTINUOUS
 10
32.1722207991
 20
-25.0697768144
 11
32.1368035504
 21
-22.0042585411
  0
LINE
  5
690
100
AcDbEntity
  8
RACCORDO
100
AcDbLine
 62
7
  6
CONTINUOUS
 10
33.9626108524
 20
18.2224190347
 11
33.962184473
 21
18.2616790701
  0
LINE
  5
691
100
AcDbEntity
  8
RACCORDO
100
AcDbLine
 62
7
  6
CONTINUOUS
 10
31.7239365968
 20
-22.0001422368
 11
31.7121237722
 21
-18.9202249881
  0
LINE
  5
692
100
AcDbEntity
  8
RACCORDO
100
AcDbLine
 62
7
  6
CONTINUOUS
 10
32.1368035504
 20
-22.0042585411
 11
32.1249949885
 21
-18.9264665052
  0
LINE
  5
693
100
AcDbEntity
  8
RACCORDO
100
AcDbLine
 62
7
  6
CONTINUOUS
 10
31.7121237722
 20
-18.9202249881
 11
31.7239365905
 21
-15.8280246521
  0
LINE
  5
694
100
AcDbEntity
  8
RACCORDO
100
AcDbLine
 62
7
  6
CONTINUOUS
 10
32.1249949885
 20
-18.9264665052
 11
32.1368035605
 21
-15.8363962428
  0
LINE
  5
695
100
AcDbEntity
  8
RACCORDO
100
AcDbLine
 62
7
  6
CONTINUOUS
 10
24.6117918806
 20
-8.6744595136
 11
24.5818666531
 21
-11.681136226
  0
LINE
  5
696
100
AcDbEntity
  8
RACCORDO
100
AcDbLine
 62
7
  6
CONTINUOUS
 10
24.7579253852
 20
-8.9024478326
 11
24.7282257524
 21
-11.8985202811
  0
LINE
  5
697
100
AcDbEntity
  8
RACCORDO
100
AcDbLine
 62
7
  6
CONTINUOUS
 10
31.7239365905
 20
-15.8280246521
 11
31.7593738373
 21
-12.723759188
  0
LINE
  5
698
100
AcDbEntity
  8
RACCORDO
100
AcDbLine
 62
7
  6
CONTINUOUS
 10
32.1368035605
 20
-15.8363962428
 11
32.1722208193
 21
-12.7340522178
  0
LINE
  5
699
100
AcDbEntity
  8
RACCORDO
100
AcDbLine
 62
7
  6
CONTINUOUS
 10
24.2005519748
 20
4.8201476283
 11
24.2001297679
 21
4.7893590504
  0
LINE
  5
69A
100
AcDbEntity
  8
RACCORDO
100
AcDbLine
 62
7
  6
CONTINUOUS
 10
24.8074228789
 20
-5.8940727956
 11
24.7579253852
 21
-8.9024478326
  0
LINE
  5
69B
100
AcDbEntity
  8
RACCORDO
100
AcDbLine
 62
7
  6
CONTINUOUS
 10
24.6616528468
 20
-5.6554170923
 11
24.6117918806
 21
-8.6744595136
  0
LINE
  5
69C
100
AcDbEntity
  8
RACCORDO
100
AcDbLine
 62
7
  6
CONTINUOUS
 10
24.9287673182
 20
-32.3309021534
 11
24.9283560775
 21
-32.355339575
  0
LINE
  5
69D
100
AcDbEntity
  8
RACCORDO
100
AcDbLine
 62
7
  6
CONTINUOUS
 10
25.0757107096
 20
3.262327457
 11
25.0746616625
 21
3.2028893928
  0
LINE
  5
69E
100
AcDbEntity
  8
RACCORDO
100
AcDbLine
 62
7
  6
CONTINUOUS
 10
31.7593738373
 20
-12.723759188
 11
31.8184299742
 21
-9.6077646211
  0
LINE
  5
69F
100
AcDbEntity
  8
RACCORDO
100
AcDbLine
 62
7
  6
CONTINUOUS
 10
32.1722208193
 20
-12.7340522178
 11
32.2312340911
 21
-9.6202063935
  0
LINE
  5
6A0
100
AcDbEntity
  8
RACCORDO
100
AcDbLine
 62
7
  6
CONTINUOUS
 10
24.7314467426
 20
-2.6242055217
 11
24.6616528468
 21
-5.6554170923
  0
LINE
  5
6A1
100
AcDbEntity
  8
RACCORDO
100
AcDbLine
 62
7
  6
CONTINUOUS
 10
24.8767149078
 20
-2.8735927131
 11
24.8074228789
 21
-5.8940727956
  0
LINE
  5
6A2
100
AcDbEntity
  8
0
100
AcDbLine
 62
7
  6
CONTINUOUS
 10
22.9643380533
 20
-29.1038125602
 11
22.9639038792
 21
-29.1210291046
  0
LINE
  5
6A3
100
AcDbEntity
  8
RACCORDO
100
AcDbLine
 62
7
  6
CONTINUOUS
 10
31.8184299742
 20
-9.6077646211
 11
31.9010971793
 21
-6.4803014255
  0
LINE
  5
6A4
100
AcDbEntity
  8
RACCORDO
100
AcDbLine
 62
7
  6
CONTINUOUS
 10
32.2312340911
 20
-9.6202063935
 11
32.3138391514
 21
-6.495116091
  0
LINE
  5
6A5
100
AcDbEntity
  8
RACCORDO
100
AcDbLine
 62
7
  6
CONTINUOUS
 10
24.9286789514
 20
3.4251043647
 11
24.9281773636
 21
3.4064533368
  0
LINE
  5
6A6
100
AcDbEntity
  8
RACCORDO
100
AcDbLine
 62
7
  6
CONTINUOUS
 10
24.8211669052
 20
0.4189506062
 11
24.7314467426
 21
-2.6242055217
  0
LINE
  5
6A7
100
AcDbEntity
  8
RACCORDO
100
AcDbLine
 62
7
  6
CONTINUOUS
 10
24.9657965607
 20
0.1587943271
 11
24.8767149078
 21
-2.8735927131
  0
LINE
  5
6A8
100
AcDbEntity
  8
RACCORDO
100
AcDbLine
 62
7
  6
CONTINUOUS
 10
25.0757325442
 20
-32.564719331
 11
25.0740295609
 21
-32.6177562651
  0
LINE
  5
6A9
100
AcDbEntity
  8
0
100
AcDbLine
 62
7
  6
CONTINUOUS
 10
21.1513330099
 20
-27.2519900282
 11
21.1506341001
 21
-27.273332245
  0
LINE
  5
6AA
100
AcDbEntity
  8
RACCORDO
100
AcDbLine
 62
7
  6
CONTINUOUS
 10
31.9010971793
 20
-6.4803014255
 11
32.0073681581
 21
-3.3415529278
  0
LINE
  5
6AB
100
AcDbEntity
  8
RACCORDO
100
AcDbLine
 62
7
  6
CONTINUOUS
 10
24.8038216585
 20
-32.7274300796
 11
24.8051891422
 21
-32.6889864947
  0
LINE
  5
6AC
100
AcDbEntity
  8
RACCORDO
100
AcDbLine
 62
7
  6
CONTINUOUS
 10
24.9281758188
 20
3.4063977592
 11
24.8211669052
 21
0.4189506062
  0
LINE
  5
6AD
100
AcDbEntity
  8
RACCORDO
100
AcDbLine
 62
7
  6
CONTINUOUS
 10
25.0746616625
 20
3.2028893928
 11
24.9657965607
 21
0.1587943271
  0
LINE
  5
6AE
100
AcDbEntity
  8
0
100
AcDbLine
 62
7
  6
CONTINUOUS
 10
20.6340852172
 20
-27.2416526338
 11
20.6343934744
 21
-27.2334961422
  0
LINE
  5
6AF
100
AcDbEntity
  8
0
100
AcDbLine
 62
7
  6
CONTINUOUS
 10
21.1516412137
 20
-27.2438345451
 11
21.1513330099
 21
-27.2519900282
  0
LINE
  5
6B0
100
AcDbEntity
  8
0
100
AcDbLine
 62
7
  6
CONTINUOUS
 10
23.0314996279
 20
-29.0053682338
 11
23.0307196193
 21
-29.0251007321
  0
LINE
  5
6B1
100
AcDbEntity
  8
0
100
AcDbLine
 62
7
  6
CONTINUOUS
 10
20.6343934744
 20
-27.2334961422
 11
20.6346710828
 21
-27.2271028998
  0
LINE
  5
6B2
100
AcDbEntity
  8
0
100
AcDbLine
 62
7
  6
CONTINUOUS
 10
21.1519187681
 20
-27.2374418346
 11
21.1516412137
 21
-27.2438345451
  0
LINE
  5
6B3
100
AcDbEntity
  8
RACCORDO
100
AcDbLine
 62
7
  6
CONTINUOUS
 10
24.2001297677
 20
-32.9807718954
 11
24.2016868946
 21
-32.9493771051
  0
LINE
  5
6B4
100
AcDbEntity
  8
0
100
AcDbLine
 62
7
  6
CONTINUOUS
 10
20.6346710828
 20
-27.2271028998
 11
20.6349159521
 21
-27.222521189
  0
LINE
  5
6B5
100
AcDbEntity
  8
0
100
AcDbLine
 62
7
  6
CONTINUOUS
 10
21.1521635946
 20
-27.232859775
 11
21.1519187681
 21
-27.2374418346
  0
LINE
  5
6B6
100
AcDbEntity
  8
0
100
AcDbLine
 62
7
  6
CONTINUOUS
 10
23.0309346596
 20
-28.7206394939
 11
23.0314996279
 21
-28.710940673
  0
LINE
  5
6B7
100
AcDbEntity
  8
0
100
AcDbLine
 62
7
  6
CONTINUOUS
 10
23.0314996279
 20
-29.0053682338
 11
23.0309239904
 21
-29.0151581
  0
LINE
  5
6B8
100
AcDbEntity
  8
RACCORDO
100
AcDbLine
 62
7
  6
CONTINUOUS
 10
24.9283560775
 20
-32.355339575
 11
24.9270433955
 21
-32.3769578069
  0
LINE
  5
6B9
100
AcDbEntity
  8
0
100
AcDbLine
 62
7
  6
CONTINUOUS
 10
20.6349159521
 20
-27.222521189
 11
20.6351262323
 21
-27.2197856527
  0
LINE
  5
6BA
100
AcDbEntity
  8
0
100
AcDbLine
 62
7
  6
CONTINUOUS
 10
21.1523738594
 20
-27.2301226837
 11
21.1521635946
 21
-27.232859775
  0
LINE
  5
6BB
100
AcDbEntity
  8
0
100
AcDbLine
 62
7
  6
CONTINUOUS
 10
4.7817031496
 20
-24.7720950041
 11
4.7778169182
 21
-24.7935636466
  0
LINE
  5
6BC
100
AcDbEntity
  8
0
100
AcDbLine
 62
7
  6
CONTINUOUS
 10
4.3946188884
 20
-24.527216063
 11
4.3976437398
 21
-24.5111802337
  0
LINE
  5
6BD
100
AcDbEntity
  8
0
100
AcDbLine
 62
7
  6
CONTINUOUS
 10
4.5009943423
 20
-24.4658049822
 11
4.5040187076
 21
-24.4497689713
  0
LINE
  5
6BE
100
AcDbEntity
  8
0
100
AcDbLine
 62
7
  6
CONTINUOUS
 10
-8.795318141
 20
-10.6918089062
 11
-8.800706859
 21
-10.7107731724
  0
LINE
  5
6BF
100
AcDbEntity
  8
0
100
AcDbLine
 62
7
  6
CONTINUOUS
 10
-8.8609078172
 20
-10.7803711064
 11
-8.8621567094
 21
-10.7842898424
  0
LINE
  5
6C0
100
AcDbEntity
  8
RACCORDO
100
AcDbLine
 62
7
  6
CONTINUOUS
 10
-22.7030157324
 20
-5.6788801592
 11
-22.6901467757
 21
-5.6447585346
  0
LINE
  5
6C1
100
AcDbEntity
  8
RACCORDO
100
AcDbLine
 62
7
  6
CONTINUOUS
 10
-22.6901467757
 20
-5.6447585346
 11
-22.6755852629
 21
-5.6108455416
  0
LINE
  5
6C2
100
AcDbEntity
  8
RACCORDO
100
AcDbLine
 62
7
  6
CONTINUOUS
 10
-23.6229335687
 20
31.7365836458
 11
-23.5997027045
 21
31.7806175946
  0
LINE
  5
6C3
100
AcDbEntity
  8
RACCORDO
100
AcDbLine
 62
7
  6
CONTINUOUS
 10
-22.9668823848
 20
31.5649843775
 11
-22.9522425734
 21
31.5921530167
  0
LINE
  5
6C4
100
AcDbEntity
  8
RACCORDO
100
AcDbLine
 62
7
  6
CONTINUOUS
 10
-28.9864852162
 20
54.7573980358
 11
-29.0033871157
 21
54.7309424748
  0
LINE
  5
6C5
100
AcDbEntity
  8
RACCORDO
100
AcDbLine
 62
7
  6
CONTINUOUS
 10
-29.0194638329
 20
55.0118978017
 11
-29.0471345451
 21
54.9699083636
  0
LINE
  5
6C6
100
AcDbEntity
  8
RACCORDO
100
AcDbLine
 62
7
  6
CONTINUOUS
 10
-28.4219264608
 20
55.0401759246
 11
-28.4066799856
 21
55.0618483062
  0
LINE
  5
6C7
100
AcDbEntity
  8
RACCORDO
100
AcDbLine
 62
7
  6
CONTINUOUS
 10
24.7154167905
 20
-33.1296212851
 11
24.670122684
 21
-33.1367204314
  0
LINE
  5
6C8
100
AcDbEntity
  8
RACCORDO
100
AcDbLine
 62
7
  6
CONTINUOUS
 10
24.8419120918
 20
-32.4687992496
 11
24.8148990154
 21
-32.4724591445
  0
LINE
  5
6C9
100
AcDbEntity
  8
0
100
AcDbLine
 62
7
  6
CONTINUOUS
 10
20.5867014754
 20
-27.2226967624
 11
20.6089245476
 21
-27.2197811461
  0
LINE
  5
6CA
100
AcDbEntity
  8
0
100
AcDbLine
 62
7
  6
CONTINUOUS
 10
21.2100195278
 20
-27.2521829973
 11
21.2240532806
 21
-27.251014924
  0
LINE
  5
6CB
100
AcDbEntity
  8
0
100
AcDbLine
 62
7
  6
CONTINUOUS
 10
22.8492103634
 20
-28.1892194086
 11
22.8351942813
 21
-28.1903572406
  0
LINE
  5
6CC
100
AcDbEntity
  8
0
100
AcDbLine
 62
7
  6
CONTINUOUS
 10
4.5791568104
 20
-25.0096957115
 11
4.5711487289
 21
-25.0103430071
  0
LINE
  5
6CD
100
AcDbEntity
  8
0
100
AcDbLine
 62
7
  6
CONTINUOUS
 10
4.6855594058
 20
-24.9482602035
 11
4.6775516789
 21
-24.9489072959
  0
LINE
  5
6CE
100
AcDbEntity
  8
0
100
AcDbLine
 62
7
  6
CONTINUOUS
 10
-11.1884183303
 20
-8.846511261
 11
-11.1845113376
 21
-8.8465587744
  0
LINE
  5
6CF
100
AcDbEntity
  8
0
100
AcDbLine
 62
7
  6
CONTINUOUS
 10
-10.6691710533
 20
-8.9009755453
 11
-11.1864189494
 21
-8.8906410376
  0
LINE
  5
6D0
100
AcDbEntity
  8
0
100
AcDbLine
 62
7
  6
CONTINUOUS
 10
-10.6672622796
 20
-8.856893254
 11
-11.1845101757
 21
-8.8465587463
  0
LINE
  5
6D1
100
AcDbEntity
  8
0
100
AcDbLine
 62
7
  6
CONTINUOUS
 10
-9.0136216126
 20
-10.1334927215
 11
-9.0352203468
 21
-10.1327161499
  0
LINE
  5
6D2
100
AcDbEntity
  8
0
100
AcDbLine
 62
7
  6
CONTINUOUS
 10
-9.0442489424
 20
-9.8391852071
 11
-9.0226460352
 21
-9.8399620785
  0
LINE
  5
6D3
100
AcDbEntity
  8
0
100
AcDbLine
 62
7
  6
CONTINUOUS
 10
-10.5957518728
 20
-8.8786582242
 11
-10.5822837046
 21
-8.8791921408
  0
LINE
  5
6D4
100
AcDbEntity
  8
0
100
AcDbLine
 62
7
  6
CONTINUOUS
 10
-8.9571505676
 20
-9.817424259
 11
-8.97059479
 21
-9.8168627088
  0
LINE
  5
6D5
100
AcDbEntity
  8
RACCORDO
100
AcDbLine
 62
7
  6
CONTINUOUS
 10
-23.4509914072
 20
-4.4190508276
 11
-23.4093379011
 21
-4.4217076092
  0
LINE
  5
6D6
100
AcDbEntity
  8
RACCORDO
100
AcDbLine
 62
7
  6
CONTINUOUS
 10
-23.5706734152
 20
31.3116160892
 11
-23.531946217
 21
31.301294402
  0
LINE
  5
6D7
100
AcDbEntity
  8
RACCORDO
100
AcDbLine
 62
7
  6
CONTINUOUS
 10
-23.1637668079
 20
31.6715578355
 11
-23.1261886827
 21
31.6613507895
  0
LINE
  5
6D8
100
AcDbEntity
  8
RACCORDO
100
AcDbLine
 62
7
  6
CONTINUOUS
 10
34.0586570127
 20
18.0640233381
 11
34.0825218594
 21
18.0575115273
  0
LINE
  5
6D9
100
AcDbEntity
  8
RACCORDO
100
AcDbLine
 62
7
  6
CONTINUOUS
 10
-22.7499105818
 20
31.7212435553
 11
-22.7291069426
 21
31.7149448633
  0
LINE
  5
6DA
100
AcDbEntity
  8
RACCORDO
100
AcDbLine
 62
7
  6
CONTINUOUS
 10
34.0355305161
 20
18.0714002423
 11
34.0586570127
 21
18.0640233381
  0
LINE
  5
6DB
100
AcDbEntity
  8
RACCORDO
100
AcDbLine
 62
7
  6
CONTINUOUS
 10
-22.9609926602
 20
32.0185165526
 11
-22.9060209677
 21
32.0009109537
  0
LINE
  5
6DC
100
AcDbEntity
  8
RACCORDO
100
AcDbLine
 62
7
  6
CONTINUOUS
 10
34.0133070208
 20
18.0795897192
 11
34.0355305161
 21
18.0714002423
  0
LINE
  5
6DD
100
AcDbEntity
  8
RACCORDO
100
AcDbLine
 62
7
  6
CONTINUOUS
 10
-28.3419153585
 20
55.1855788578
 11
-28.3835798708
 21
55.2042918389
  0
LINE
  5
6DE
100
AcDbEntity
  8
RACCORDO
100
AcDbLine
 62
7
  6
CONTINUOUS
 10
-28.5266594076
 20
54.8651748608
 11
-28.5554791164
 21
54.8784140845
  0
LINE
  5
6DF
100
AcDbEntity
  8
RACCORDO
100
AcDbLine
 62
7
  6
CONTINUOUS
 10
-24.1527160049
 20
55.8472126784
 11
-24.1297083683
 21
55.8365538924
  0
LINE
  5
6E0
100
AcDbEntity
  8
RACCORDO
100
AcDbLine
 62
7
  6
CONTINUOUS
 10
37.120628235
 20
20.2230265568
 11
37.1243717389
 21
20.1952011295
  0
LINE
  5
6E1
100
AcDbEntity
  8
RACCORDO
100
AcDbLine
 62
7
  6
CONTINUOUS
 10
36.2082116177
 20
-52.729487172
 11
36.2082116177
 21
19.1221350741
  0
LINE
  5
6E2
100
AcDbEntity
  8
0
100
AcDbLine
 62
7
  6
CONTINUOUS
 10
36.3462672362
 20
-13.5437772917
 11
36.3462672362
 21
-18.9165192752
  0
LINE
  5
6E3
100
AcDbEntity
  8
DRAFT
100
AcDbLine
 62
7
  6
CONTINUOUS
 10
37.1274504432
 20
20.1393856405
 11
37.1274504333
 21
-11.9025178514
  0
LINE
  5
6E4
100
AcDbEntity
  8
DRAFT
100
AcDbLine
 62
7
  6
CONTINUOUS
 10
37.1274504333
 20
-18.1936727439
 11
37.1274504561
 21
-50.2355761039
  0
LINE
  5
6E5
100
AcDbEntity
  8
RACCORDO
100
AcDbLine
 62
7
  6
CONTINUOUS
 10
33.9621756474
 20
-53.7326813244
 11
33.9626111465
 21
-53.7058228782
  0
LINE
  5
6E6
100
AcDbEntity
  8
RACCORDO
100
AcDbLine
 62
7
  6
CONTINUOUS
 10
34.366830932
 20
18.1082859852
 11
34.3681075207
 21
18.1609220169
  0
LINE
  5
6E7
100
AcDbEntity
  8
RACCORDO
100
AcDbLine
 62
7
  6
CONTINUOUS
 10
34.3669603691
 20
-53.712500555
 11
34.3681079962
 21
-53.670913481
  0
LINE
  5
6E8
100
AcDbEntity
  8
RACCORDO
100
AcDbLine
 62
7
  6
CONTINUOUS
 10
37.1274504561
 20
-50.2355761039
 11
37.1266505609
 21
-50.2625718835
  0
LINE
  5
6E9
100
AcDbEntity
  8
0
100
AcDbLine
 62
7
  6
CONTINUOUS
 10
36.3462672362
 20
-13.5437772917
 11
36.3468539314
 21
-13.5246333916
  0
LINE
  5
6EA
100
AcDbEntity
  8
RACCORDO
100
AcDbLine
 62
7
  6
CONTINUOUS
 10
33.961317734
 20
18.1838538235
 11
33.9626108524
 21
18.2224190347
  0
LINE
  5
6EB
100
AcDbEntity
  8
RACCORDO
100
AcDbLine
 62
7
  6
CONTINUOUS
 10
32.3138391514
 20
-6.495116091
 11
32.4200402246
 21
-3.3585239892
  0
LINE
  5
6EC
100
AcDbEntity
  8
RACCORDO
100
AcDbLine
 62
7
  6
CONTINUOUS
 10
32.0073681581
 20
-3.3415529278
 11
32.1372332618
 21
-0.1917420817
  0
LINE
  5
6ED
100
AcDbEntity
  8
RACCORDO
100
AcDbLine
 62
7
  6
CONTINUOUS
 10
32.4200402246
 20
-3.3585239892
 11
32.5498373108
 21
-0.210430088
  0
LINE
  5
6EE
100
AcDbEntity
  8
RACCORDO
100
AcDbLine
 62
7
  6
CONTINUOUS
 10
32.1372331896
 20
-0.19174204
 11
32.2389642755
 21
1.8003427983
  0
LINE
  5
6EF
100
AcDbEntity
  8
RACCORDO
100
AcDbLine
 62
7
  6
CONTINUOUS
 10
32.5498373108
 20
-0.210430088
 11
32.6514427163
 21
1.7787383589
  0
LINE
  5
6F0
100
AcDbEntity
  8
RACCORDO
100
AcDbLine
 62
7
  6
CONTINUOUS
 10
32.2389642755
 20
1.8003427983
 11
32.3657922712
 21
3.8036942048
  0
LINE
  5
6F1
100
AcDbEntity
  8
RACCORDO
100
AcDbLine
 62
7
  6
CONTINUOUS
 10
32.6514427163
 20
1.7787383589
 11
32.7780465185
 21
3.7783506852
  0
LINE
  5
6F2
100
AcDbEntity
  8
RACCORDO
100
AcDbLine
 62
7
  6
CONTINUOUS
 10
34.3631070906
 20
18.0568050984
 11
34.366830932
 21
18.1082859852
  0
LINE
  5
6F3
100
AcDbEntity
  8
RACCORDO
100
AcDbLine
 62
7
  6
CONTINUOUS
 10
32.3657922712
 20
3.8036942048
 11
32.5176926647
 21
5.8179069029
  0
LINE
  5
6F4
100
AcDbEntity
  8
RACCORDO
100
AcDbLine
 62
7
  6
CONTINUOUS
 10
32.7780465185
 20
3.7783506852
 11
32.9296487173
 21
5.7884068907
  0
LINE
  5
6F5
100
AcDbEntity
  8
RACCORDO
100
AcDbLine
 62
7
  6
CONTINUOUS
 10
33.9583133281
 20
18.1458554879
 11
33.961317734
 21
18.1838538235
  0
LINE
  5
6F6
100
AcDbEntity
  8
RACCORDO
100
AcDbLine
 62
7
  6
CONTINUOUS
 10
25.0740295609
 20
-32.6177562651
 11
25.0695527354
 21
-32.6692364291
  0
LINE
  5
6F7
100
AcDbEntity
  8
RACCORDO
100
AcDbLine
 62
7
  6
CONTINUOUS
 10
32.5176926647
 20
5.8179069029
 11
32.6946378137
 21
7.8425684485
  0
LINE
  5
6F8
100
AcDbEntity
  8
RACCORDO
100
AcDbLine
 62
7
  6
CONTINUOUS
 10
32.9296487173
 20
5.7884068907
 11
33.1062908367
 21
7.8093240309
  0
LINE
  5
6F9
100
AcDbEntity
  8
RACCORDO
100
AcDbLine
 62
7
  6
CONTINUOUS
 10
32.6946378137
 20
7.8425684485
 11
32.896591826
 21
9.8772737782
  0
LINE
  5
6FA
100
AcDbEntity
  8
RACCORDO
100
AcDbLine
 62
7
  6
CONTINUOUS
 10
33.1062908367
 20
7.8093240309
 11
33.3079313527
 21
9.8406850503
  0
LINE
  5
6FB
100
AcDbEntity
  8
RACCORDO
100
AcDbLine
 62
7
  6
CONTINUOUS
 10
24.9270433955
 20
-32.3769578069
 11
24.9250466871
 21
-32.3956952678
  0
LINE
  5
6FC
100
AcDbEntity
  8
RACCORDO
100
AcDbLine
 62
7
  6
CONTINUOUS
 10
24.2016868946
 20
-32.9493771051
 11
24.205214636
 21
-32.9170643389
  0
LINE
  5
6FD
100
AcDbEntity
  8
RACCORDO
100
AcDbLine
 62
7
  6
CONTINUOUS
 10
32.896591826
 20
9.8772737782
 11
33.1235109955
 21
11.9216254833
  0
LINE
  5
6FE
100
AcDbEntity
  8
RACCORDO
100
AcDbLine
 62
7
  6
CONTINUOUS
 10
33.3079313527
 20
9.8406850503
 11
33.5344456934
 21
11.8812387834
  0
LINE
  5
6FF
100
AcDbEntity
  8
0
100
AcDbLine
 62
7
  6
CONTINUOUS
 10
22.9639038792
 20
-29.1210291046
 11
22.9620863001
 21
-29.1373759179
  0
LINE
  5
700
100
AcDbEntity
  8
0
100
AcDbLine
 62
7
  6
CONTINUOUS
 10
23.0307196193
 20
-29.0251007321
 11
23.028378011
 21
-29.0447515837
  0
LINE
  5
701
100
AcDbEntity
  8
RACCORDO
100
AcDbLine
 62
7
  6
CONTINUOUS
 10
33.1235109955
 20
11.9216254833
 11
33.3753504431
 21
13.9752145021
  0
LINE
  5
702
100
AcDbEntity
  8
RACCORDO
100
AcDbLine
 62
7
  6
CONTINUOUS
 10
33.5344456934
 20
11.8812387834
 11
33.7857923345
 21
13.9305681748
  0
LINE
  5
703
100
AcDbEntity
  8
RACCORDO
100
AcDbLine
 62
7
  6
CONTINUOUS
 10
24.8051891422
 20
-32.6889864947
 11
24.8098360825
 21
-32.6513985505
  0
LINE
  5
704
100
AcDbEntity
  8
RACCORDO
100
AcDbLine
 62
7
  6
CONTINUOUS
 10
33.9535978706
 20
18.1084241172
 11
33.9583133281
 21
18.1458554879
  0
LINE
  5
705
100
AcDbEntity
  8
RACCORDO
100
AcDbLine
 62
7
  6
CONTINUOUS
 10
25.0695527354
 20
-32.6692364291
 11
25.0623072414
 21
-32.719453142
  0
LINE
  5
706
100
AcDbEntity
  8
0
100
AcDbLine
 62
7
  6
CONTINUOUS
 10
4.7778169182
 20
-24.7935636466
 11
4.7732246371
 21
-24.8135377793
  0
LINE
  5
707
100
AcDbEntity
  8
0
100
AcDbLine
 62
7
  6
CONTINUOUS
 10
4.3908121426
 20
-24.5424283756
 11
4.3946188884
 21
-24.527216063
  0
LINE
  5
708
100
AcDbEntity
  8
0
100
AcDbLine
 62
7
  6
CONTINUOUS
 10
4.4971880285
 20
-24.4810167753
 11
4.5009943423
 21
-24.4658049822
  0
LINE
  5
709
100
AcDbEntity
  8
0
100
AcDbLine
 62
7
  6
CONTINUOUS
 10
4.7732246371
 20
-24.8135377793
 11
4.7679162026
 21
-24.8320211643
  0
LINE
  5
70A
100
AcDbEntity
  8
0
100
AcDbLine
 62
7
  6
CONTINUOUS
 10
-8.795309269
 20
-10.3725116635
 11
-8.7911935372
 21
-10.3604612858
  0
LINE
  5
70B
100
AcDbEntity
  8
0
100
AcDbLine
 62
7
  6
CONTINUOUS
 10
-8.7912336148
 20
-10.6550392324
 11
-8.7953838399
 21
-10.6671167842
  0
LINE
  5
70C
100
AcDbEntity
  8
0
100
AcDbLine
 62
7
  6
CONTINUOUS
 10
-8.800706859
 20
-10.7107731724
 11
-8.8075549744
 21
-10.7292101959
  0
LINE
  5
70D
100
AcDbEntity
  8
RACCORDO
100
AcDbLine
 62
7
  6
CONTINUOUS
 10
-22.6755852629
 20
-5.6108455416
 11
-22.6594127341
 21
-5.5773310826
  0
LINE
  5
70E
100
AcDbEntity
  8
RACCORDO
100
AcDbLine
 62
7
  6
CONTINUOUS
 10
-23.5997027045
 20
31.7806175946
 11
-23.5741794291
 21
31.8214033842
  0
LINE
  5
70F
100
AcDbEntity
  8
RACCORDO
100
AcDbLine
 62
7
  6
CONTINUOUS
 10
-22.9522425734
 20
31.5921530167
 11
-22.9360503521
 21
31.617396416
  0
LINE
  5
710
100
AcDbEntity
  8
RACCORDO
100
AcDbLine
 62
7
  6
CONTINUOUS
 10
-28.9682873817
 20
54.7819106878
 11
-28.9864852162
 21
54.7573980358
  0
LINE
  5
711
100
AcDbEntity
  8
RACCORDO
100
AcDbLine
 62
7
  6
CONTINUOUS
 10
-28.9895011281
 20
55.0512394972
 11
-29.0194638329
 21
55.0118978017
  0
LINE
  5
712
100
AcDbEntity
  8
RACCORDO
100
AcDbLine
 62
7
  6
CONTINUOUS
 10
-28.4066799856
 20
55.0618483062
 11
-28.3905026109
 21
55.0824414358
  0
LINE
  5
713
100
AcDbEntity
  8
RACCORDO
100
AcDbLine
 62
7
  6
CONTINUOUS
 10
24.8676493614
 20
-32.4625138615
 11
24.8419120918
 21
-32.4687992496
  0
LINE
  5
714
100
AcDbEntity
  8
0
100
AcDbLine
 62
7
  6
CONTINUOUS
 10
21.1955479375
 20
-27.2550367942
 11
21.2100195278
 21
-27.2521829973
  0
LINE
  5
715
100
AcDbEntity
  8
0
100
AcDbLine
 62
7
  6
CONTINUOUS
 10
22.8351942813
 20
-28.1903572406
 11
22.8207115926
 21
-28.1931858898
  0
LINE
  5
716
100
AcDbEntity
  8
0
100
AcDbLine
 62
7
  6
CONTINUOUS
 10
4.2945399091
 20
-24.6374572625
 11
4.3074693858
 21
-24.6355047772
  0
LINE
  5
717
100
AcDbEntity
  8
0
100
AcDbLine
 62
7
  6
CONTINUOUS
 10
20.5350409578
 20
-27.2397468815
 11
20.5477290522
 21
-27.2378566339
  0
LINE
  5
718
100
AcDbEntity
  8
0
100
AcDbLine
 62
7
  6
CONTINUOUS
 10
36.4228652659
 20
-19.0297750247
 11
36.4117121998
 21
-19.0309208345
  0
LINE
  5
719
100
AcDbEntity
  8
0
100
AcDbLine
 62
7
  6
CONTINUOUS
 10
-11.2108806058
 20
-8.8474244464
 11
-11.1884183303
 21
-8.846511261
  0
LINE
  5
71A
100
AcDbEntity
  8
RACCORDO
100
AcDbLine
 62
7
  6
CONTINUOUS
 10
-23.3672943103
 20
-4.4222192288
 11
-23.3251596725
 21
-4.4205820476
  0
LINE
  5
71B
100
AcDbEntity
  8
0
100
AcDbLine
 62
7
  6
CONTINUOUS
 10
-11.2720761012
 20
-8.8654999342
 11
-11.2587584833
 21
-8.86536737
  0
LINE
  5
71C
100
AcDbEntity
  8
RACCORDO
100
AcDbLine
 62
7
  6
CONTINUOUS
 10
-23.4093379011
 20
-4.4217076092
 11
-23.3672943103
 21
-4.4222192288
  0
LINE
  5
71D
100
AcDbEntity
  8
RACCORDO
100
AcDbLine
 62
7
  6
CONTINUOUS
 10
34.1317829244
 20
18.047262142
 11
34.1568284242
 21
18.043597539
  0
LINE
  5
71E
100
AcDbEntity
  8
RACCORDO
100
AcDbLine
 62
7
  6
CONTINUOUS
 10
-23.1261886827
 20
31.6613507895
 11
-23.0886466133
 21
31.6543534947
  0
LINE
  5
71F
100
AcDbEntity
  8
RACCORDO
100
AcDbLine
 62
7
  6
CONTINUOUS
 10
34.1069551483
 20
18.0519111712
 11
34.1317829244
 21
18.047262142
  0
LINE
  5
720
100
AcDbEntity
  8
RACCORDO
100
AcDbLine
 62
7
  6
CONTINUOUS
 10
-23.531946217
 20
31.301294402
 11
-23.4919568336
 21
31.2927646175
  0
LINE
  5
721
100
AcDbEntity
  8
RACCORDO
100
AcDbLine
 62
7
  6
CONTINUOUS
 10
34.0825218594
 20
18.0575115273
 11
34.1069551483
 21
18.0519111712
  0
LINE
  5
722
100
AcDbEntity
  8
RACCORDO
100
AcDbLine
 62
7
  6
CONTINUOUS
 10
-22.7678577352
 20
31.7253678359
 11
-22.7499105818
 21
31.7212435553
  0
LINE
  5
723
100
AcDbEntity
  8
RACCORDO
100
AcDbLine
 62
7
  6
CONTINUOUS
 10
-23.0158014907
 20
32.0319849197
 11
-22.9609926602
 21
32.0185165526
  0
LINE
  5
724
100
AcDbEntity
  8
RACCORDO
100
AcDbLine
 62
7
  6
CONTINUOUS
 10
-24.2669684023
 20
55.8909998389
 11
-24.4640496377
 21
55.9591197971
  0
LINE
  5
725
100
AcDbEntity
  8
RACCORDO
100
AcDbLine
 62
7
  6
CONTINUOUS
 10
-24.3040694416
 20
55.8968272105
 11
-24.2030672861
 21
55.8608373153
  0
LINE
  5
726
100
AcDbEntity
  8
RACCORDO
100
AcDbLine
 62
7
  6
CONTINUOUS
 10
-28.3835798708
 20
55.2042918389
 11
-28.4251927558
 21
55.2199581306
  0
LINE
  5
727
100
AcDbEntity
  8
RACCORDO
100
AcDbLine
 62
7
  6
CONTINUOUS
 10
-24.1607581673
 20
55.8505174279
 11
-24.2669684023
 21
55.8909998389
  0
LINE
  5
728
100
AcDbEntity
  8
RACCORDO
100
AcDbLine
 62
7
  6
CONTINUOUS
 10
-28.5554791164
 20
54.8784140845
 11
-28.5843035771
 21
54.8894201755
  0
LINE
  5
729
100
AcDbEntity
  8
RACCORDO
100
AcDbLine
 62
7
  6
CONTINUOUS
 10
-24.2030672861
 20
55.8608373153
 11
-24.1059288174
 21
55.8237474835
  0
LINE
  5
72A
100
AcDbEntity
  8
RACCORDO
100
AcDbLine
 62
7
  6
CONTINUOUS
 10
-24.1607563361
 20
55.8505030157
 11
-24.1527160049
 21
55.8472126784
  0
LINE
  5
72B
100
AcDbEntity
  8
RACCORDO
100
AcDbLine
 62
7
  6
CONTINUOUS
 10
33.9600243563
 20
-53.7582648764
 11
33.9621756474
 21
-53.7326813244
  0
LINE
  5
72C
100
AcDbEntity
  8
0
100
AcDbLine
 62
7
  6
CONTINUOUS
 10
36.3468539314
 20
-13.5246333916
 11
36.3486049874
 21
-13.5045075993
  0
LINE
  5
72D
100
AcDbEntity
  8
RACCORDO
100
AcDbLine
 62
7
  6
CONTINUOUS
 10
34.363442774
 20
-53.7521739136
 11
34.3669603691
 21
-53.712500555
  0
LINE
  5
72E
100
AcDbEntity
  8
RACCORDO
100
AcDbLine
 62
7
  6
CONTINUOUS
 10
37.1266505609
 20
-50.2625718835
 11
37.1243767055
 21
-50.2878251506
  0
LINE
  5
72F
100
AcDbEntity
  8
RACCORDO
100
AcDbLine
 62
7
  6
CONTINUOUS
 10
33.3753504431
 20
13.9752145021
 11
33.6520636956
 21
16.0376200128
  0
LINE
  5
730
100
AcDbEntity
  8
RACCORDO
100
AcDbLine
 62
7
  6
CONTINUOUS
 10
33.7857923345
 20
13.9305681748
 11
34.0620128003
 21
15.9890902798
  0
LINE
  5
731
100
AcDbEntity
  8
0
100
AcDbLine
 62
7
  6
CONTINUOUS
 10
36.3486049874
 20
-13.5045075993
 11
36.3515244355
 21
-13.4835578663
  0
LINE
  5
732
100
AcDbEntity
  8
RACCORDO
100
AcDbLine
 62
7
  6
CONTINUOUS
 10
33.6520636956
 20
16.0376200128
 11
33.9535978706
 21
18.1084241172
  0
LINE
  5
733
100
AcDbEntity
  8
RACCORDO
100
AcDbLine
 62
7
  6
CONTINUOUS
 10
34.0620128003
 20
15.9890902798
 11
34.3631070906
 21
18.0568050984
  0
LINE
  5
734
100
AcDbEntity
  8
RACCORDO
100
AcDbLine
 62
7
  6
CONTINUOUS
 10
24.9250466871
 20
-32.3956952678
 11
24.9225775382
 21
-32.4116497881
  0
LINE
  5
735
100
AcDbEntity
  8
RACCORDO
100
AcDbLine
 62
7
  6
CONTINUOUS
 10
24.205214636
 20
-32.9170643389
 11
24.2106932378
 21
-32.8840145383
  0
LINE
  5
736
100
AcDbEntity
  8
RACCORDO
100
AcDbLine
 62
7
  6
CONTINUOUS
 10
33.5552668619
 20
19.021013642
 11
33.5595189625
 21
19.0447156227
  0
LINE
  5
737
100
AcDbEntity
  8
0
100
AcDbLine
 62
7
  6
CONTINUOUS
 10
23.0286116162
 20
-28.7328179855
 11
23.0309346596
 21
-28.7206394939
  0
LINE
  5
738
100
AcDbEntity
  8
0
100
AcDbLine
 62
7
  6
CONTINUOUS
 10
23.0309239904
 20
-29.0151581
 11
23.0285715386
 21
-29.0273959322
  0
LINE
  5
739
100
AcDbEntity
  8
0
100
AcDbLine
 62
7
  6
CONTINUOUS
 10
20.6351262323
 20
-27.2197856527
 11
20.6352938158
 21
-27.2189154742
  0
LINE
  5
73A
100
AcDbEntity
  8
0
100
AcDbLine
 62
7
  6
CONTINUOUS
 10
21.1525428738
 20
-27.2292499538
 11
21.1523738594
 21
-27.2301226837
  0
LINE
  5
73B
100
AcDbEntity
  8
0
100
AcDbLine
 62
7
  6
CONTINUOUS
 10
23.028378011
 20
-29.0447515837
 11
23.0244870124
 21
-29.064165606
  0
LINE
  5
73C
100
AcDbEntity
  8
RACCORDO
100
AcDbLine
 62
7
  6
CONTINUOUS
 10
25.0623072414
 20
-32.719453142
 11
25.0522880331
 21
-32.7681130008
  0
LINE
  5
73D
100
AcDbEntity
  8
RACCORDO
100
AcDbLine
 62
7
  6
CONTINUOUS
 10
24.9225775382
 20
-32.4116497881
 11
24.9198305794
 21
-32.4249726678
  0
LINE
  5
73E
100
AcDbEntity
  8
0
100
AcDbLine
 62
7
  6
CONTINUOUS
 10
22.9620863001
 20
-29.1373759179
 11
22.9588973362
 21
-29.1527278062
  0
LINE
  5
73F
100
AcDbEntity
  8
0
100
AcDbLine
 62
7
  6
CONTINUOUS
 10
4.3862087594
 20
-24.5568208454
 11
4.3908121426
 21
-24.5424283756
  0
LINE
  5
740
100
AcDbEntity
  8
0
100
AcDbLine
 62
7
  6
CONTINUOUS
 10
4.4925850656
 20
-24.495408167
 11
4.4971880285
 21
-24.4810167753
  0
LINE
  5
741
100
AcDbEntity
  8
0
100
AcDbLine
 62
7
  6
CONTINUOUS
 10
4.7679162026
 20
-24.8320211643
 11
4.7621198807
 21
-24.8492245699
  0
LINE
  5
742
100
AcDbEntity
  8
0
100
AcDbLine
 62
7
  6
CONTINUOUS
 10
-8.8075549744
 20
-10.7292101959
 11
-8.8158864206
 21
-10.7471594283
  0
LINE
  5
743
100
AcDbEntity
  8
RACCORDO
100
AcDbLine
 62
7
  6
CONTINUOUS
 10
-22.6594127341
 20
-5.5773310826
 11
-22.6417197506
 21
-5.544402828
  0
LINE
  5
744
100
AcDbEntity
  8
RACCORDO
100
AcDbLine
 62
7
  6
CONTINUOUS
 10
-23.5741794291
 20
31.8214033842
 11
-23.5465108811
 21
31.8586794074
  0
LINE
  5
745
100
AcDbEntity
  8
RACCORDO
100
AcDbLine
 62
7
  6
CONTINUOUS
 10
-22.9360503521
 20
31.617396416
 11
-22.9184294826
 21
31.6405986425
  0
LINE
  5
746
100
AcDbEntity
  8
RACCORDO
100
AcDbLine
 62
7
  6
CONTINUOUS
 10
-28.9487816109
 20
54.8044575042
 11
-28.9682873817
 21
54.7819106878
  0
LINE
  5
747
100
AcDbEntity
  8
RACCORDO
100
AcDbLine
 62
7
  6
CONTINUOUS
 10
-28.3905026109
 20
55.0824414358
 11
-28.3735225567
 21
55.1017920804
  0
LINE
  5
748
100
AcDbEntity
  8
RACCORDO
100
AcDbLine
 62
7
  6
CONTINUOUS
 10
-28.9573718967
 20
55.0878254005
 11
-28.9895011281
 21
55.0512394972
  0
LINE
  5
749
100
AcDbEntity
  8
RACCORDO
100
AcDbLine
 62
7
  6
CONTINUOUS
 10
24.7587492563
 20
-33.118244206
 11
24.7154167905
 21
-33.1296212851
  0
LINE
  5
74A
100
AcDbEntity
  8
0
100
AcDbLine
 62
7
  6
CONTINUOUS
 10
4.5867825523
 20
-25.0079459914
 11
4.5791568104
 21
-25.0096957115
  0
LINE
  5
74B
100
AcDbEntity
  8
0
100
AcDbLine
 62
7
  6
CONTINUOUS
 10
4.6931847297
 20
-24.9465107199
 11
4.6855594058
 21
-24.9482602035
  0
LINE
  5
74C
100
AcDbEntity
  8
0
100
AcDbLine
 62
7
  6
CONTINUOUS
 10
20.5648928507
 20
-27.2275736856
 11
20.5867014754
 21
-27.2226967624
  0
LINE
  5
74D
100
AcDbEntity
  8
0
100
AcDbLine
 62
7
  6
CONTINUOUS
 10
-11.233103678
 20
-8.8503400627
 11
-11.2108806058
 21
-8.8474244464
  0
LINE
  5
74E
100
AcDbEntity
  8
RACCORDO
100
AcDbLine
 62
7
  6
CONTINUOUS
 10
-23.3251596725
 20
-4.4205820476
 11
-23.283233673
 21
-4.4168077099
  0
LINE
  5
74F
100
AcDbEntity
  8
0
100
AcDbLine
 62
7
  6
CONTINUOUS
 10
-10.6097856256
 20
-8.8798262975
 11
-10.5957518728
 21
-8.8786582242
  0
LINE
  5
750
100
AcDbEntity
  8
0
100
AcDbLine
 62
7
  6
CONTINUOUS
 10
-8.97059479
 20
-9.8168627088
 11
-8.9846108721
 21
-9.8180005409
  0
LINE
  5
751
100
AcDbEntity
  8
RACCORDO
100
AcDbLine
 62
7
  6
CONTINUOUS
 10
24.8193759552
 20
3.9591409165
 11
24.8109407423
 21
3.9587917624
  0
LINE
  5
752
100
AcDbEntity
  8
RACCORDO
100
AcDbLine
 62
7
  6
CONTINUOUS
 10
34.181913334
 20
18.0409434525
 11
34.2068590596
 21
18.0393187785
  0
LINE
  5
753
100
AcDbEntity
  8
RACCORDO
100
AcDbLine
 62
7
  6
CONTINUOUS
 10
34.1568284242
 20
18.043597539
 11
34.181913334
 21
18.0409434525
  0
LINE
  5
754
100
AcDbEntity
  8
RACCORDO
100
AcDbLine
 62
7
  6
CONTINUOUS
 10
-23.4509896953
 20
31.2860874051
 11
-23.4093361873
 21
31.2813102573
  0
LINE
  5
755
100
AcDbEntity
  8
RACCORDO
100
AcDbLine
 62
7
  6
CONTINUOUS
 10
-22.7827344926
 20
31.7276501798
 11
-22.7678577352
 21
31.7253678359
  0
LINE
  5
756
100
AcDbEntity
  8
RACCORDO
100
AcDbLine
 62
7
  6
CONTINUOUS
 10
-23.4919568336
 20
31.2927646175
 11
-23.4509896953
 21
31.2860874051
  0
LINE
  5
757
100
AcDbEntity
  8
RACCORDO
100
AcDbLine
 62
7
  6
CONTINUOUS
 10
-23.0696457179
 20
32.0410076713
 11
-23.0158014907
 21
32.0319849197
  0
LINE
  5
758
100
AcDbEntity
  8
RACCORDO
100
AcDbLine
 62
7
  6
CONTINUOUS
 10
-24.6306685782
 20
55.9954627521
 11
-24.5177882851
 21
55.9644170053
  0
LINE
  5
759
100
AcDbEntity
  8
RACCORDO
100
AcDbLine
 62
7
  6
CONTINUOUS
 10
-24.4640496377
 20
55.9591197971
 11
-24.6576669675
 21
56.0170574826
  0
LINE
  5
75A
100
AcDbEntity
  8
RACCORDO
100
AcDbLine
 62
7
  6
CONTINUOUS
 10
-24.5177882851
 20
55.9644170053
 11
-24.4090259107
 21
55.9314474851
  0
LINE
  5
75B
100
AcDbEntity
  8
RACCORDO
100
AcDbLine
 62
7
  6
CONTINUOUS
 10
-28.4251927558
 20
55.2199581306
 11
-28.4665880578
 21
55.2325237534
  0
LINE
  5
75C
100
AcDbEntity
  8
RACCORDO
100
AcDbLine
 62
7
  6
CONTINUOUS
 10
-28.5843035771
 20
54.8894201755
 11
-28.6132164049
 21
54.8982173565
  0
LINE
  5
75D
100
AcDbEntity
  8
RACCORDO
100
AcDbLine
 62
7
  6
CONTINUOUS
 10
-24.4090259107
 20
55.9314474851
 11
-24.3040694416
 21
55.8968272105
  0
LINE
  5
75E
100
AcDbEntity
  8
RACCORDO
100
AcDbLine
 62
7
  6
CONTINUOUS
 10
37.1243767055
 20
-50.2878251506
 11
37.1232091735
 21
-50.2964099987
  0
LINE
  5
75F
100
AcDbEntity
  8
RACCORDO
100
AcDbLine
 62
7
  6
CONTINUOUS
 10
34.3575728175
 20
-53.7898002525
 11
34.363442774
 21
-53.7521739136
  0
LINE
  5
760
100
AcDbEntity
  8
RACCORDO
100
AcDbLine
 62
7
  6
CONTINUOUS
 10
33.9561837691
 20
-53.78228815
 11
33.9600243563
 21
-53.7582648764
  0
LINE
  5
761
100
AcDbEntity
  8
RACCORDO
100
AcDbLine
 62
7
  6
CONTINUOUS
 10
37.1062099383
 20
-50.4026121548
 11
37.1232207797
 21
-50.2964188208
  0
LINE
  5
762
100
AcDbEntity
  8
RACCORDO
100
AcDbLine
 62
7
  6
CONTINUOUS
 10
37.127450425
 20
-50.2355764119
 11
37.1103194946
 21
-50.3422817415
  0
LINE
  5
763
100
AcDbEntity
  8
0
100
AcDbLine
 62
7
  6
CONTINUOUS
 10
36.3515244355
 20
-13.4835578663
 11
36.3556131253
 21
-13.4618814026
  0
LINE
  5
764
100
AcDbEntity
  8
RACCORDO
100
AcDbLine
 62
7
  6
CONTINUOUS
 10
24.8098360825
 20
-32.6513985505
 11
24.8177289945
 21
-32.6149370975
  0
LINE
  5
765
100
AcDbEntity
  8
RACCORDO
100
AcDbLine
 62
7
  6
CONTINUOUS
 10
24.2106932378
 20
-32.8840145383
 11
24.2180920215
 21
-32.850412772
  0
LINE
  5
766
100
AcDbEntity
  8
0
100
AcDbLine
 62
7
  6
CONTINUOUS
 10
36.3556131253
 20
-13.4618814026
 11
36.3608471558
 21
-13.4397243805
  0
LINE
  5
767
100
AcDbEntity
  8
RACCORDO
100
AcDbLine
 62
7
  6
CONTINUOUS
 10
33.5595189625
 20
19.0447156227
 11
33.5653907968
 21
19.0688319404
  0
LINE
  5
768
100
AcDbEntity
  8
RACCORDO
100
AcDbLine
 62
7
  6
CONTINUOUS
 10
24.9198305794
 20
-32.4249726678
 11
24.9170205603
 21
-32.4357068738
  0
LINE
  5
769
100
AcDbEntity
  8
RACCORDO
100
AcDbLine
 62
7
  6
CONTINUOUS
 10
24.2180920215
 20
-32.850412772
 11
24.2273695561
 21
-32.8164471996
  0
LINE
  5
76A
100
AcDbEntity
  8
RACCORDO
100
AcDbLine
 62
7
  6
CONTINUOUS
 10
25.0522880331
 20
-32.7681130008
 11
25.0394794333
 21
-32.8143361414
  0
LINE
  5
76B
100
AcDbEntity
  8
0
100
AcDbLine
 62
7
  6
CONTINUOUS
 10
23.0244870124
 20
-29.064165606
 11
23.0190982944
 21
-29.0831298721
  0
LINE
  5
76C
100
AcDbEntity
  8
RACCORDO
100
AcDbLine
 62
7
  6
CONTINUOUS
 10
33.5653907968
 20
19.0688319404
 11
33.5728358241
 21
19.0931714469
  0
LINE
  5
76D
100
AcDbEntity
  8
0
100
AcDbLine
 62
7
  6
CONTINUOUS
 10
4.7621198807
 20
-24.8492245699
 11
4.755857541
 21
-24.865152478
  0
LINE
  5
76E
100
AcDbEntity
  8
0
100
AcDbLine
 62
7
  6
CONTINUOUS
 10
4.3807983876
 20
-24.5702217174
 11
4.3862087594
 21
-24.5568208454
  0
LINE
  5
76F
100
AcDbEntity
  8
0
100
AcDbLine
 62
7
  6
CONTINUOUS
 10
4.4871753945
 20
-24.5088075107
 11
4.4925850656
 21
-24.495408167
  0
LINE
  5
770
100
AcDbEntity
  8
0
100
AcDbLine
 62
7
  6
CONTINUOUS
 10
-8.8012065431
 20
-10.3843547159
 11
-8.795309269
 21
-10.3725116635
  0
LINE
  5
771
100
AcDbEntity
  8
0
100
AcDbLine
 62
7
  6
CONTINUOUS
 10
-8.7953838399
 20
-10.6671167842
 11
-8.80130164
 21
-10.6789461753
  0
LINE
  5
772
100
AcDbEntity
  8
RACCORDO
100
AcDbLine
 62
7
  6
CONTINUOUS
 10
-22.6417197506
 20
-5.544402828
 11
-22.6226053879
 21
-5.5122451658
  0
LINE
  5
773
100
AcDbEntity
  8
RACCORDO
100
AcDbLine
 62
7
  6
CONTINUOUS
 10
-22.6226053879
 20
-5.5122451658
 11
-22.6021766804
 21
-5.4810381688
  0
LINE
  5
774
100
AcDbEntity
  8
RACCORDO
100
AcDbLine
 62
7
  6
CONTINUOUS
 10
-28.3735225567
 20
55.1017920804
 11
-28.3558744127
 21
55.1197468481
  0
LINE
  5
775
100
AcDbEntity
  8
RACCORDO
100
AcDbLine
 62
7
  6
CONTINUOUS
 10
-28.9279810521
 20
54.825060988
 11
-28.9487816109
 21
54.8044575042
  0
LINE
  5
776
100
AcDbEntity
  8
RACCORDO
100
AcDbLine
 62
7
  6
CONTINUOUS
 10
-28.9232056192
 20
55.1215705928
 11
-28.9573718967
 21
55.0878254005
  0
LINE
  5
777
100
AcDbEntity
  8
RACCORDO
100
AcDbLine
 62
7
  6
CONTINUOUS
 10
-28.3558744127
 20
55.1197468481
 11
-28.3376980616
 21
55.1361634159
  0
LINE
  5
778
100
AcDbEntity
  8
0
100
AcDbLine
 62
7
  6
CONTINUOUS
 10
36.4344429106
 20
-19.0264908942
 11
36.4228652659
 21
-19.0297750247
  0
LINE
  5
779
100
AcDbEntity
  8
0
100
AcDbLine
 62
7
  6
CONTINUOUS
 10
4.3074693858
 20
-24.6355047772
 11
4.3196838601
 21
-24.6321845258
  0
LINE
  5
77A
100
AcDbEntity
  8
0
100
AcDbLine
 62
7
  6
CONTINUOUS
 10
-8.9846108721
 20
-9.8180005409
 11
-8.9990935608
 21
-9.82082919
  0
LINE
  5
77B
100
AcDbEntity
  8
0
100
AcDbLine
 62
7
  6
CONTINUOUS
 10
-11.2847641956
 20
-8.8673901818
 11
-11.2720761012
 21
-8.8654999342
  0
LINE
  5
77C
100
AcDbEntity
  8
RACCORDO
100
AcDbLine
 62
7
  6
CONTINUOUS
 10
-23.283233673
 20
-4.4168077099
 11
-23.2418145131
 21
-4.4109230612
  0
LINE
  5
77D
100
AcDbEntity
  8
RACCORDO
100
AcDbLine
 62
7
  6
CONTINUOUS
 10
34.2314879976
 20
18.0387350841
 11
34.2556248001
 21
18.0391965249
  0
LINE
  5
77E
100
AcDbEntity
  8
RACCORDO
100
AcDbLine
 62
7
  6
CONTINUOUS
 10
34.2068590596
 20
18.0393187785
 11
34.2314879976
 21
18.0387350841
  0
LINE
  5
77F
100
AcDbEntity
  8
RACCORDO
100
AcDbLine
 62
7
  6
CONTINUOUS
 10
-23.4093361873
 20
31.2813102573
 11
-23.3672925765
 21
31.2784671525
  0
LINE
  5
780
100
AcDbEntity
  8
RACCORDO
100
AcDbLine
 62
7
  6
CONTINUOUS
 10
-22.7941641662
 20
31.7284747925
 11
-22.7827344926
 21
31.7276501798
  0
LINE
  5
781
100
AcDbEntity
  8
RACCORDO
100
AcDbLine
 62
7
  6
CONTINUOUS
 10
-23.1224926313
 20
32.0454823423
 11
-23.0696457179
 21
32.0410076713
  0
LINE
  5
782
100
AcDbEntity
  8
RACCORDO
100
AcDbLine
 62
7
  6
CONTINUOUS
 10
-23.0886466133
 20
31.6543534947
 11
-23.0514111197
 21
31.650616372
  0
LINE
  5
783
100
AcDbEntity
  8
RACCORDO
100
AcDbLine
 62
7
  6
CONTINUOUS
 10
-24.8474418954
 20
56.0650232237
 11
-25.0330214827
 21
56.1032770058
  0
LINE
  5
784
100
AcDbEntity
  8
RACCORDO
100
AcDbLine
 62
7
  6
CONTINUOUS
 10
-24.8722857151
 20
56.0504532111
 11
-24.7484810674
 21
56.0242123836
  0
LINE
  5
785
100
AcDbEntity
  8
RACCORDO
100
AcDbLine
 62
7
  6
CONTINUOUS
 10
-28.6132164049
 20
54.8982173565
 11
-28.6421335664
 21
54.9047815572
  0
LINE
  5
786
100
AcDbEntity
  8
RACCORDO
100
AcDbLine
 62
7
  6
CONTINUOUS
 10
-28.4665880578
 20
55.2325237534
 11
-28.5076570648
 21
55.2419639034
  0
LINE
  5
787
100
AcDbEntity
  8
RACCORDO
100
AcDbLine
 62
7
  6
CONTINUOUS
 10
-24.7484810674
 20
56.0242123836
 11
-24.6306685782
 21
55.9954627521
  0
LINE
  5
788
100
AcDbEntity
  8
RACCORDO
100
AcDbLine
 62
7
  6
CONTINUOUS
 10
-24.6576669675
 20
56.0170574826
 11
-24.8474418954
 21
56.0650232237
  0
LINE
  5
789
100
AcDbEntity
  8
RACCORDO
100
AcDbLine
 62
7
  6
CONTINUOUS
 10
37.1103194946
 20
-50.3422817415
 11
37.0900420038
 21
-50.4520917369
  0
LINE
  5
78A
100
AcDbEntity
  8
RACCORDO
100
AcDbLine
 62
7
  6
CONTINUOUS
 10
37.0669218621
 20
-50.6073792926
 11
37.1062099383
 21
-50.4026121548
  0
LINE
  5
78B
100
AcDbEntity
  8
RACCORDO
100
AcDbLine
 62
7
  6
CONTINUOUS
 10
37.0900420038
 20
-50.4520917369
 11
37.0662963001
 21
-50.5649417183
  0
LINE
  5
78C
100
AcDbEntity
  8
RACCORDO
100
AcDbLine
 62
7
  6
CONTINUOUS
 10
34.3493322092
 20
-53.8252726714
 11
34.3575728175
 21
-53.7898002525
  0
LINE
  5
78D
100
AcDbEntity
  8
RACCORDO
100
AcDbLine
 62
7
  6
CONTINUOUS
 10
37.0205497527
 20
-50.8040821394
 11
37.0669218621
 21
-50.6073792926
  0
LINE
  5
78E
100
AcDbEntity
  8
RACCORDO
100
AcDbLine
 62
7
  6
CONTINUOUS
 10
37.0662963001
 20
-50.5649417183
 11
37.0386683231
 21
-50.6813224295
  0
LINE
  5
78F
100
AcDbEntity
  8
RACCORDO
100
AcDbLine
 62
7
  6
CONTINUOUS
 10
33.9506336298
 20
-53.8047248252
 11
33.9561837691
 21
-53.78228815
  0
LINE
  5
790
100
AcDbEntity
  8
0
100
AcDbLine
 62
7
  6
CONTINUOUS
 10
36.3608471558
 20
-13.4397243805
 11
36.3671339587
 21
-13.4174835502
  0
LINE
  5
791
100
AcDbEntity
  8
RACCORDO
100
AcDbLine
 62
7
  6
CONTINUOUS
 10
24.8177289945
 20
-32.6149370975
 11
24.8288110037
 21
-32.5798648691
  0
LINE
  5
792
100
AcDbEntity
  8
0
100
AcDbLine
 62
7
  6
CONTINUOUS
 10
22.9588973362
 20
-29.1527278062
 11
22.957648444
 21
-29.1566465422
  0
LINE
  5
793
100
AcDbEntity
  8
RACCORDO
100
AcDbLine
 62
7
  6
CONTINUOUS
 10
24.9170205603
 20
-32.4357068738
 11
24.9144007772
 21
-32.443827806
  0
LINE
  5
794
100
AcDbEntity
  8
RACCORDO
100
AcDbLine
 62
7
  6
CONTINUOUS
 10
24.2273695561
 20
-32.8164471996
 11
24.2384738903
 21
-32.7823080177
  0
LINE
  5
795
100
AcDbEntity
  8
0
100
AcDbLine
 62
7
  6
CONTINUOUS
 10
23.0244958844
 20
-28.7448683633
 11
23.0286116162
 21
-28.7328179855
  0
LINE
  5
796
100
AcDbEntity
  8
0
100
AcDbLine
 62
7
  6
CONTINUOUS
 10
23.0285715386
 20
-29.0273959322
 11
23.0244213135
 21
-29.0394734839
  0
LINE
  5
797
100
AcDbEntity
  8
RACCORDO
100
AcDbLine
 62
7
  6
CONTINUOUS
 10
33.5728358241
 20
19.0931714469
 11
33.5817950344
 21
19.1175412249
  0
LINE
  5
798
100
AcDbEntity
  8
RACCORDO
100
AcDbLine
 62
7
  6
CONTINUOUS
 10
33.5817950344
 20
19.1175412249
 11
33.5921974161
 21
19.1417481173
  0
LINE
  5
799
100
AcDbEntity
  8
0
100
AcDbLine
 62
7
  6
CONTINUOUS
 10
4.755857541
 20
-24.865152478
 11
4.7491064184
 21
-24.8798010027
  0
LINE
  5
79A
100
AcDbEntity
  8
0
100
AcDbLine
 62
7
  6
CONTINUOUS
 10
-8.8158864206
 20
-10.7471594283
 11
-8.8256746341
 21
-10.7644957664
  0
LINE
  5
79B
100
AcDbEntity
  8
RACCORDO
100
AcDbLine
 62
7
  6
CONTINUOUS
 10
-22.6021766804
 20
-5.4810381688
 11
-22.5805480228
 21
-5.4509565865
  0
LINE
  5
79C
100
AcDbEntity
  8
RACCORDO
100
AcDbLine
 62
7
  6
CONTINUOUS
 10
-23.5465108811
 20
31.8586794074
 11
-23.5165513521
 21
31.892706526
  0
LINE
  5
79D
100
AcDbEntity
  8
RACCORDO
100
AcDbLine
 62
7
  6
CONTINUOUS
 10
-22.9184294826
 20
31.6405986425
 11
-22.8994021867
 21
31.6617950667
  0
LINE
  5
79E
100
AcDbEntity
  8
RACCORDO
100
AcDbLine
 62
7
  6
CONTINUOUS
 10
-28.8871562339
 20
55.1523725077
 11
-28.9232056192
 21
55.1215705928
  0
LINE
  5
79F
100
AcDbEntity
  8
RACCORDO
100
AcDbLine
 62
7
  6
CONTINUOUS
 10
-28.9061086898
 20
54.8435266927
 11
-28.9279810521
 21
54.825060988
  0
LINE
  5
7A0
100
AcDbEntity
  8
RACCORDO
100
AcDbLine
 62
7
  6
CONTINUOUS
 10
24.845694378
 20
3.9643009041
 11
24.8309883926
 21
3.9609817185
  0
LINE
  5
7A1
100
AcDbEntity
  8
0
100
AcDbLine
 62
7
  6
CONTINUOUS
 10
-11.2549123027
 20
-8.8552169858
 11
-11.233103678
 21
-8.8503400627
  0
LINE
  5
7A2
100
AcDbEntity
  8
0
100
AcDbLine
 62
7
  6
CONTINUOUS
 10
-10.6242572159
 20
-8.8826800944
 11
-10.6097856256
 21
-8.8798262975
  0
LINE
  5
7A3
100
AcDbEntity
  8
RACCORDO
100
AcDbLine
 62
7
  6
CONTINUOUS
 10
-23.2418145131
 20
-4.4109230612
 11
-23.2011967889
 21
-4.4029699563
  0
LINE
  5
7A4
100
AcDbEntity
  8
RACCORDO
100
AcDbLine
 62
7
  6
CONTINUOUS
 10
24.8309883926
 20
3.9609817185
 11
24.8193759552
 21
3.9591409165
  0
LINE
  5
7A5
100
AcDbEntity
  8
RACCORDO
100
AcDbLine
 62
7
  6
CONTINUOUS
 10
34.279097623
 20
18.0406998156
 11
34.3017393495
 21
18.0432342535
  0
LINE
  5
7A6
100
AcDbEntity
  8
RACCORDO
100
AcDbLine
 62
7
  6
CONTINUOUS
 10
34.2556248001
 20
18.0391965249
 11
34.279097623
 21
18.0406998156
  0
LINE
  5
7A7
100
AcDbEntity
  8
RACCORDO
100
AcDbLine
 62
7
  6
CONTINUOUS
 10
-23.1743717049
 20
32.04551307
 11
-23.1224926313
 21
32.0454823423
  0
LINE
  5
7A8
100
AcDbEntity
  8
RACCORDO
100
AcDbLine
 62
7
  6
CONTINUOUS
 10
-23.0514111197
 20
31.650616372
 11
-23.0147505128
 21
31.6501663502
  0
LINE
  5
7A9
100
AcDbEntity
  8
RACCORDO
100
AcDbLine
 62
7
  6
CONTINUOUS
 10
-23.3672925765
 20
31.2784671525
 11
-23.3251579044
 21
31.2775783126
  0
LINE
  5
7AA
100
AcDbEntity
  8
RACCORDO
100
AcDbLine
 62
7
  6
CONTINUOUS
 10
-25.1333685707
 20
56.0921963806
 11
-25.0012560338
 21
56.0734888539
  0
LINE
  5
7AB
100
AcDbEntity
  8
RACCORDO
100
AcDbLine
 62
7
  6
CONTINUOUS
 10
-28.6421335664
 20
54.9047815572
 11
-28.6708033903
 21
54.9090404098
  0
LINE
  5
7AC
100
AcDbEntity
  8
RACCORDO
100
AcDbLine
 62
7
  6
CONTINUOUS
 10
-28.5076570648
 20
55.2419639034
 11
-28.5483437169
 21
55.2482637725
  0
LINE
  5
7AD
100
AcDbEntity
  8
RACCORDO
100
AcDbLine
 62
7
  6
CONTINUOUS
 10
-25.0330214827
 20
56.1032770058
 11
-25.2140900094
 21
56.132120081
  0
LINE
  5
7AE
100
AcDbEntity
  8
RACCORDO
100
AcDbLine
 62
7
  6
CONTINUOUS
 10
-25.0012560338
 20
56.0734888539
 11
-24.8722857151
 21
56.0504532111
  0
LINE
  5
7AF
100
AcDbEntity
  8
RACCORDO
100
AcDbLine
 62
7
  6
CONTINUOUS
 10
37.0386683231
 20
-50.6813224295
 11
37.0068794755
 21
-50.8005798078
  0
LINE
  5
7B0
100
AcDbEntity
  8
RACCORDO
100
AcDbLine
 62
7
  6
CONTINUOUS
 10
36.9674630009
 20
-50.9925017447
 11
37.0205497527
 21
-50.8040821394
  0
LINE
  5
7B1
100
AcDbEntity
  8
RACCORDO
100
AcDbLine
 62
7
  6
CONTINUOUS
 10
37.0068794755
 20
-50.8005798078
 11
36.9708688321
 21
-50.9209261123
  0
LINE
  5
7B2
100
AcDbEntity
  8
0
100
AcDbLine
 62
7
  6
CONTINUOUS
 10
36.3671339587
 20
-13.4174835502
 11
36.3743260931
 21
-13.3954956604
  0
LINE
  5
7B3
100
AcDbEntity
  8
RACCORDO
100
AcDbLine
 62
7
  6
CONTINUOUS
 10
25.0394794333
 20
-32.8143361414
 11
25.0237569243
 21
-32.8580732839
  0
LINE
  5
7B4
100
AcDbEntity
  8
0
100
AcDbLine
 62
7
  6
CONTINUOUS
 10
36.3743260931
 20
-13.3954956604
 11
36.3823721363
 21
-13.3737778214
  0
LINE
  5
7B5
100
AcDbEntity
  8
0
100
AcDbLine
 62
7
  6
CONTINUOUS
 10
23.0190982944
 20
-29.0831298721
 11
23.012250179
 21
-29.1015668957
  0
LINE
  5
7B6
100
AcDbEntity
  8
RACCORDO
100
AcDbLine
 62
7
  6
CONTINUOUS
 10
24.2384738903
 20
-32.7823080177
 11
24.2513428432
 21
-32.7481863954
  0
LINE
  5
7B7
100
AcDbEntity
  8
RACCORDO
100
AcDbLine
 62
7
  6
CONTINUOUS
 10
24.9144007772
 20
-32.443827806
 11
24.9122762805
 21
-32.4492798198
  0
LINE
  5
7B8
100
AcDbEntity
  8
RACCORDO
100
AcDbLine
 62
7
  6
CONTINUOUS
 10
33.5921974161
 20
19.1417481173
 11
33.603960519
 21
19.1656002578
  0
LINE
  5
7B9
100
AcDbEntity
  8
0
100
AcDbLine
 62
7
  6
CONTINUOUS
 10
4.3745895271
 20
-24.5826499383
 11
4.3807983876
 21
-24.5702217174
  0
LINE
  5
7BA
100
AcDbEntity
  8
0
100
AcDbLine
 62
7
  6
CONTINUOUS
 10
4.4809675594
 20
-24.5212336023
 11
4.4871753945
 21
-24.5088075107
  0
LINE
  5
7BB
100
AcDbEntity
  8
0
100
AcDbLine
 62
7
  6
CONTINUOUS
 10
4.7491064184
 20
-24.8798010027
 11
4.7420279421
 21
-24.8933682853
  0
LINE
  5
7BC
100
AcDbEntity
  8
0
100
AcDbLine
 62
7
  6
CONTINUOUS
 10
-8.8088526499
 20
-10.3958920523
 11
-8.8012065431
 21
-10.3843547159
  0
LINE
  5
7BD
100
AcDbEntity
  8
0
100
AcDbLine
 62
7
  6
CONTINUOUS
 10
-8.80130164
 20
-10.6789461753
 11
-8.8089439552
 21
-10.6904413315
  0
LINE
  5
7BE
100
AcDbEntity
  8
0
100
AcDbLine
 62
7
  6
CONTINUOUS
 10
-8.8256746341
 20
-10.7644957664
 11
-8.8368475585
 21
-10.7810476319
  0
LINE
  5
7BF
100
AcDbEntity
  8
RACCORDO
100
AcDbLine
 62
7
  6
CONTINUOUS
 10
-22.5805480228
 20
-5.4509565865
 11
-22.5578405288
 21
-5.4221688661
  0
LINE
  5
7C0
100
AcDbEntity
  8
RACCORDO
100
AcDbLine
 62
7
  6
CONTINUOUS
 10
-23.5165513521
 20
31.892706526
 11
-23.4843014791
 21
31.9234844084
  0
LINE
  5
7C1
100
AcDbEntity
  8
RACCORDO
100
AcDbLine
 62
7
  6
CONTINUOUS
 10
-22.8994021867
 20
31.6617950667
 11
-22.8790411056
 21
31.6809518933
  0
LINE
  5
7C2
100
AcDbEntity
  8
RACCORDO
100
AcDbLine
 62
7
  6
CONTINUOUS
 10
-28.3376980616
 20
55.1361634159
 11
-28.319137569
 21
55.1509116559
  0
LINE
  5
7C3
100
AcDbEntity
  8
RACCORDO
100
AcDbLine
 62
7
  6
CONTINUOUS
 10
-28.8584506095
 20
55.1738590276
 11
-28.8871562339
 21
55.1523725077
  0
LINE
  5
7C4
100
AcDbEntity
  8
RACCORDO
100
AcDbLine
 62
7
  6
CONTINUOUS
 10
-28.8831569047
 20
54.8598308057
 11
-28.9061086898
 21
54.8435266927
  0
LINE
  5
7C5
100
AcDbEntity
  8
RACCORDO
100
AcDbLine
 62
7
  6
CONTINUOUS
 10
-28.8584228458
 20
55.1738799302
 11
-27.2501276958
 21
56.3079111607
  0
LINE
  5
7C6
100
AcDbEntity
  8
RACCORDO
100
AcDbLine
 62
7
  6
CONTINUOUS
 10
-28.300340049
 20
55.1638746605
 11
-26.7252609731
 21
56.274484739
  0
LINE
  5
7C7
100
AcDbEntity
  8
RACCORDO
100
AcDbLine
 62
7
  6
CONTINUOUS
 10
24.8633879436
 20
3.9690745559
 11
24.845694378
 21
3.9643009041
  0
LINE
  5
7C8
100
AcDbEntity
  8
RACCORDO
100
AcDbLine
 62
7
  6
CONTINUOUS
 10
-23.2011967889
 20
-4.4029699563
 11
-23.1616693968
 21
-4.3930049621
  0
LINE
  5
7C9
100
AcDbEntity
  8
RACCORDO
100
AcDbLine
 62
7
  6
CONTINUOUS
 10
34.3017393495
 20
18.0432342535
 11
34.3233887797
 21
18.0467817942
  0
LINE
  5
7CA
100
AcDbEntity
  8
RACCORDO
100
AcDbLine
 62
7
  6
CONTINUOUS
 10
-23.2832318604
 20
31.2786500596
 11
-23.2418126498
 21
31.2816747707
  0
LINE
  5
7CB
100
AcDbEntity
  8
RACCORDO
100
AcDbLine
 62
7
  6
CONTINUOUS
 10
-23.3251579044
 20
31.2775783126
 11
-23.2832318604
 21
31.2786500596
  0
LINE
  5
7CC
100
AcDbEntity
  8
RACCORDO
100
AcDbLine
 62
7
  6
CONTINUOUS
 10
-22.8017599888
 20
31.7283715155
 11
-22.7941641662
 21
31.7284747925
  0
LINE
  5
7CD
100
AcDbEntity
  8
RACCORDO
100
AcDbLine
 62
7
  6
CONTINUOUS
 10
-28.6708033903
 20
54.9090404098
 11
-28.6992458569
 21
54.9109752426
  0
LINE
  5
7CE
100
AcDbEntity
  8
RACCORDO
100
AcDbLine
 62
7
  6
CONTINUOUS
 10
-28.5483437169
 20
55.2482637725
 11
-28.5885546986
 21
55.2513881006
  0
LINE
  5
7CF
100
AcDbEntity
  8
RACCORDO
100
AcDbLine
 62
7
  6
CONTINUOUS
 10
-25.2679625918
 20
56.1059967909
 11
-25.1333685707
 21
56.0921963806
  0
LINE
  5
7D0
100
AcDbEntity
  8
RACCORDO
100
AcDbLine
 62
7
  6
CONTINUOUS
 10
-25.2140900094
 20
56.132120081
 11
-25.3903215652
 21
56.151891952
  0
LINE
  5
7D1
100
AcDbEntity
  8
RACCORDO
100
AcDbLine
 62
7
  6
CONTINUOUS
 10
34.3387727767
 20
-53.8584678274
 11
34.3493322092
 21
-53.8252726714
  0
LINE
  5
7D2
100
AcDbEntity
  8
RACCORDO
100
AcDbLine
 62
7
  6
CONTINUOUS
 10
36.9080630107
 20
-51.1724524933
 11
36.9674630009
 21
-50.9925017447
  0
LINE
  5
7D3
100
AcDbEntity
  8
RACCORDO
100
AcDbLine
 62
7
  6
CONTINUOUS
 10
36.9708688321
 20
-50.9209261123
 11
36.9301737391
 21
-51.0426804222
  0
LINE
  5
7D4
100
AcDbEntity
  8
RACCORDO
100
AcDbLine
 62
7
  6
CONTINUOUS
 10
33.9433933248
 20
-53.8256019026
 11
33.9506336298
 21
-53.8047248252
  0
LINE
  5
7D5
100
AcDbEntity
  8
0
100
AcDbLine
 62
7
  6
CONTINUOUS
 10
36.3823721363
 20
-13.3737778214
 11
36.3913123346
 21
-13.3522568772
  0
LINE
  5
7D6
100
AcDbEntity
  8
RACCORDO
100
AcDbLine
 62
7
  6
CONTINUOUS
 10
24.8288110037
 20
-32.5798648691
 11
24.8430022556
 21
-32.5464345881
  0
LINE
  5
7D7
100
AcDbEntity
  8
RACCORDO
100
AcDbLine
 62
7
  6
CONTINUOUS
 10
24.2513428432
 20
-32.7481863954
 11
24.2659043527
 21
-32.7142734031
  0
LINE
  5
7D8
100
AcDbEntity
  8
RACCORDO
100
AcDbLine
 62
7
  6
CONTINUOUS
 10
25.0237569243
 20
-32.8580732839
 11
25.0052443483
 21
-32.8993741341
  0
LINE
  5
7D9
100
AcDbEntity
  8
0
100
AcDbLine
 62
7
  6
CONTINUOUS
 10
36.3913123346
 20
-13.3522568772
 11
36.4011396414
 21
-13.3309690128
  0
LINE
  5
7DA
100
AcDbEntity
  8
RACCORDO
100
AcDbLine
 62
7
  6
CONTINUOUS
 10
24.9122762805
 20
-32.4492798198
 11
24.9109755065
 21
-32.4520902368
  0
LINE
  5
7DB
100
AcDbEntity
  8
0
100
AcDbLine
 62
7
  6
CONTINUOUS
 10
23.012250179
 20
-29.1015668957
 11
23.0039187328
 21
-29.1195161281
  0
LINE
  5
7DC
100
AcDbEntity
  8
RACCORDO
100
AcDbLine
 62
7
  6
CONTINUOUS
 10
24.2659043527
 20
-32.7142734031
 11
24.2820768789
 21
-32.6807589433
  0
LINE
  5
7DD
100
AcDbEntity
  8
0
100
AcDbLine
 62
7
  6
CONTINUOUS
 10
23.0185986103
 20
-28.7567114157
 11
23.0244958844
 21
-28.7448683633
  0
LINE
  5
7DE
100
AcDbEntity
  8
0
100
AcDbLine
 62
7
  6
CONTINUOUS
 10
23.0244213135
 20
-29.0394734839
 11
23.0185035134
 21
-29.0513028751
  0
LINE
  5
7DF
100
AcDbEntity
  8
RACCORDO
100
AcDbLine
 62
7
  6
CONTINUOUS
 10
33.603960519
 20
19.1656002578
 11
33.6169911075
 21
19.1889085921
  0
LINE
  5
7E0
100
AcDbEntity
  8
0
100
AcDbLine
 62
7
  6
CONTINUOUS
 10
4.7420279421
 20
-24.8933682853
 11
4.7346370817
 21
-24.9058715042
  0
LINE
  5
7E1
100
AcDbEntity
  8
0
100
AcDbLine
 62
7
  6
CONTINUOUS
 10
4.3675733006
 20
-24.5940868125
 11
4.3745895271
 21
-24.5826499383
  0
LINE
  5
7E2
100
AcDbEntity
  8
0
100
AcDbLine
 62
7
  6
CONTINUOUS
 10
4.4739526378
 20
-24.5326678974
 11
4.4809675594
 21
-24.5212336023
  0
LINE
  5
7E3
100
AcDbEntity
  8
RACCORDO
100
AcDbLine
 62
7
  6
CONTINUOUS
 10
33.6169911075
 20
19.1889085921
 11
33.6311859
 21
19.2114883762
  0
LINE
  5
7E4
100
AcDbEntity
  8
0
100
AcDbLine
 62
7
  6
CONTINUOUS
 10
-8.8368475585
 20
-10.7810476319
 11
-8.8466076789
 21
-10.7932676577
  0
LINE
  5
7E5
100
AcDbEntity
  8
RACCORDO
100
AcDbLine
 62
7
  6
CONTINUOUS
 10
-22.5578405288
 20
-5.4221688661
 11
-22.5341813534
 21
-5.3948362099
  0
LINE
  5
7E6
100
AcDbEntity
  8
RACCORDO
100
AcDbLine
 62
7
  6
CONTINUOUS
 10
-28.319137569
 20
55.1509116559
 11
-28.3003400493
 21
55.1638746606
  0
LINE
  5
7E7
100
AcDbEntity
  8
RACCORDO
100
AcDbLine
 62
7
  6
CONTINUOUS
 10
-28.8434546947
 20
55.1839782517
 11
-28.8582890062
 21
55.1739743402
  0
LINE
  5
7E8
100
AcDbEntity
  8
RACCORDO
100
AcDbLine
 62
7
  6
CONTINUOUS
 10
34.3233887797
 20
18.0467817942
 11
34.3438917787
 21
18.0513171809
  0
LINE
  5
7E9
100
AcDbEntity
  8
RACCORDO
100
AcDbLine
 62
7
  6
CONTINUOUS
 10
-23.2418126498
 20
31.2816747707
 11
-23.2011948731
 21
31.286630932
  0
LINE
  5
7EA
100
AcDbEntity
  8
RACCORDO
100
AcDbLine
 62
7
  6
CONTINUOUS
 10
-22.8058997669
 20
31.727958046
 11
-22.8017599888
 21
31.7283715155
  0
LINE
  5
7EB
100
AcDbEntity
  8
RACCORDO
100
AcDbLine
 62
7
  6
CONTINUOUS
 10
-23.2245743416
 20
32.0411014427
 11
-23.1743717049
 21
32.04551307
  0
LINE
  5
7EC
100
AcDbEntity
  8
RACCORDO
100
AcDbLine
 62
7
  6
CONTINUOUS
 10
-23.0147505128
 20
31.6501663502
 11
-22.9789289612
 21
31.6530066722
  0
LINE
  5
7ED
100
AcDbEntity
  8
RACCORDO
100
AcDbLine
 62
7
  6
CONTINUOUS
 10
-25.5468361408
 20
56.118052011
 11
-25.4057773573
 21
56.1147438334
  0
LINE
  5
7EE
100
AcDbEntity
  8
RACCORDO
100
AcDbLine
 62
7
  6
CONTINUOUS
 10
-25.5613581978
 20
56.1629788251
 11
-25.6548749405
 21
56.165551896
  0
LINE
  5
7EF
100
AcDbEntity
  8
RACCORDO
100
AcDbLine
 62
7
  6
CONTINUOUS
 10
-25.4057773573
 20
56.1147438334
 11
-25.2679625918
 21
56.1059967909
  0
LINE
  5
7F0
100
AcDbEntity
  8
RACCORDO
100
AcDbLine
 62
7
  6
CONTINUOUS
 10
-25.3903215652
 20
56.151891952
 11
-25.5613581978
 21
56.1629788251
  0
LINE
  5
7F1
100
AcDbEntity
  8
RACCORDO
100
AcDbLine
 62
7
  6
CONTINUOUS
 10
36.9301737391
 20
-51.0426804222
 11
36.8846561339
 21
-51.1653119295
  0
LINE
  5
7F2
100
AcDbEntity
  8
RACCORDO
100
AcDbLine
 62
7
  6
CONTINUOUS
 10
36.8427611113
 20
-51.3438195004
 11
36.9080630107
 21
-51.1724524933
  0
LINE
  5
7F3
100
AcDbEntity
  8
RACCORDO
100
AcDbLine
 62
7
  6
CONTINUOUS
 10
36.8846561339
 20
-51.1653119295
 11
36.8350215656
 21
-51.2857947255
  0
LINE
  5
7F4
100
AcDbEntity
  8
RACCORDO
100
AcDbLine
 62
7
  6
CONTINUOUS
 10
34.3259587576
 20
-53.8892661057
 11
34.3387727767
 21
-53.8584678274
  0
LINE
  5
7F5
100
AcDbEntity
  8
0
100
AcDbLine
 62
7
  6
CONTINUOUS
 10
36.4011396414
 20
-13.3309690128
 11
36.4117121998
 21
-13.3102644206
  0
LINE
  5
7F6
100
AcDbEntity
  8
RACCORDO
100
AcDbLine
 62
7
  6
CONTINUOUS
 10
24.2820768789
 20
-32.6807589433
 11
24.2997698604
 21
-32.6478306864
  0
LINE
  5
7F7
100
AcDbEntity
  8
RACCORDO
100
AcDbLine
 62
7
  6
CONTINUOUS
 10
24.8430022556
 20
-32.5464345881
 11
24.860200491
 21
-32.5148871459
  0
LINE
  5
7F8
100
AcDbEntity
  8
RACCORDO
100
AcDbLine
 62
7
  6
CONTINUOUS
 10
25.0052443483
 20
-32.8993741341
 11
24.984297824
 21
-32.9375077791
  0
LINE
  5
7F9
100
AcDbEntity
  8
0
100
AcDbLine
 62
7
  6
CONTINUOUS
 10
23.0039187328
 20
-29.1195161281
 11
22.9941305193
 21
-29.1368524661
  0
LINE
  5
7FA
100
AcDbEntity
  8
0
100
AcDbLine
 62
7
  6
CONTINUOUS
 10
4.7346370817
 20
-24.9058715042
 11
4.7269181831
 21
-24.917293937
  0
LINE
  5
7FB
100
AcDbEntity
  8
RACCORDO
100
AcDbLine
 62
7
  6
CONTINUOUS
 10
33.6311859
 20
19.2114883762
 11
33.6464323871
 21
19.2331606403
  0
LINE
  5
7FC
100
AcDbEntity
  8
0
100
AcDbLine
 62
7
  6
CONTINUOUS
 10
-8.8181794018
 20
-10.4070098455
 11
-8.8088526499
 21
-10.3958920523
  0
LINE
  5
7FD
100
AcDbEntity
  8
0
100
AcDbLine
 62
7
  6
CONTINUOUS
 10
-8.8089439552
 20
-10.6904413315
 11
-8.8182551777
 21
-10.7015186103
  0
LINE
  5
7FE
100
AcDbEntity
  8
RACCORDO
100
AcDbLine
 62
7
  6
CONTINUOUS
 10
-22.5341813534
 20
-5.3948362099
 11
-22.5097029807
 21
-5.3691116721
  0
LINE
  5
7FF
100
AcDbEntity
  8
RACCORDO
100
AcDbLine
 62
7
  6
CONTINUOUS
 10
-23.4843014791
 20
31.9234844084
 11
-23.44654995
 21
31.9536023356
  0
LINE
  5
800
100
AcDbEntity
  8
RACCORDO
100
AcDbLine
 62
7
  6
CONTINUOUS
 10
-22.8790411056
 20
31.6809518933
 11
-22.8551556278
 21
31.6996678396
  0
LINE
  5
801
100
AcDbEntity
  8
RACCORDO
100
AcDbLine
 62
7
  6
CONTINUOUS
 10
-28.8591345973
 20
54.8739966686
 11
-28.8831569047
 21
54.8598308057
  0
LINE
  5
802
100
AcDbEntity
  8
RACCORDO
100
AcDbLine
 62
7
  6
CONTINUOUS
 10
-28.810769563
 20
55.2030293966
 11
-28.8434546947
 21
55.1839782517
  0
LINE
  5
803
100
AcDbEntity
  8
RACCORDO
100
AcDbLine
 62
7
  6
CONTINUOUS
 10
-22.8074821081
 20
31.7276595602
 11
-22.8058997669
 21
31.727958046
  0
LINE
  5
804
100
AcDbEntity
  8
RACCORDO
100
AcDbLine
 62
7
  6
CONTINUOUS
 10
-23.2730390255
 20
32.0321716449
 11
-23.2245743416
 21
32.0411014427
  0
LINE
  5
805
100
AcDbEntity
  8
RACCORDO
100
AcDbLine
 62
7
  6
CONTINUOUS
 10
-22.9789289612
 20
31.6530066722
 11
-22.9442045871
 21
31.6591168712
  0
LINE
  5
806
100
AcDbEntity
  8
RACCORDO
100
AcDbLine
 62
7
  6
CONTINUOUS
 10
-23.2011948731
 20
31.286630932
 11
-23.1616674304
 21
31.2934832921
  0
LINE
  5
807
100
AcDbEntity
  8
RACCORDO
100
AcDbLine
 62
7
  6
CONTINUOUS
 10
-25.7229715405
 20
56.165831342
 11
-25.8540529891
 21
56.1624903162
  0
LINE
  5
808
100
AcDbEntity
  8
RACCORDO
100
AcDbLine
 62
7
  6
CONTINUOUS
 10
-25.6558987522
 20
56.1161061644
 11
-25.5468361408
 21
56.118052011
  0
LINE
  5
809
100
AcDbEntity
  8
RACCORDO
100
AcDbLine
 62
7
  6
CONTINUOUS
 10
-28.6992458569
 20
54.9109752426
 11
-28.7274401842
 21
54.9106050198
  0
LINE
  5
80A
100
AcDbEntity
  8
RACCORDO
100
AcDbLine
 62
7
  6
CONTINUOUS
 10
-28.5885546986
 20
55.2513881006
 11
-28.6281097245
 21
55.2513058538
  0
LINE
  5
80B
100
AcDbEntity
  8
RACCORDO
100
AcDbLine
 62
7
  6
CONTINUOUS
 10
-25.6549088668
 20
56.1655523455
 11
-25.7229715405
 21
56.165831342
  0
LINE
  5
80C
100
AcDbEntity
  8
RACCORDO
100
AcDbLine
 62
7
  6
CONTINUOUS
 10
36.7720155844
 20
-51.5064855991
 11
36.8427611113
 21
-51.3438195004
  0
LINE
  5
80D
100
AcDbEntity
  8
RACCORDO
100
AcDbLine
 62
7
  6
CONTINUOUS
 10
36.8350215656
 20
-51.2857947255
 11
36.7815503475
 21
-51.403083943
  0
LINE
  5
80E
100
AcDbEntity
  8
RACCORDO
100
AcDbLine
 62
7
  6
CONTINUOUS
 10
33.9345484112
 20
-53.8447142953
 11
33.9433933248
 21
-53.8256019026
  0
LINE
  5
80F
100
AcDbEntity
  8
RACCORDO
100
AcDbLine
 62
7
  6
CONTINUOUS
 10
36.6963361042
 20
-51.6603312946
 11
36.7720155844
 21
-51.5064855991
  0
LINE
  5
810
100
AcDbEntity
  8
RACCORDO
100
AcDbLine
 62
7
  6
CONTINUOUS
 10
36.7815503475
 20
-51.403083943
 11
36.723863781
 21
-51.5180695176
  0
LINE
  5
811
100
AcDbEntity
  8
0
100
AcDbLine
 62
7
  6
CONTINUOUS
 10
36.4117121998
 20
-13.3102644206
 11
36.4228652659
 21
-13.2905326083
  0
LINE
  5
812
100
AcDbEntity
  8
RACCORDO
100
AcDbLine
 62
7
  6
CONTINUOUS
 10
24.2997698604
 20
-32.6478306864
 11
24.3188842222
 21
-32.6156730208
  0
LINE
  5
813
100
AcDbEntity
  8
0
100
AcDbLine
 62
7
  6
CONTINUOUS
 10
36.4228652659
 20
-13.2905326083
 11
36.4344429106
 21
-13.2719887923
  0
LINE
  5
814
100
AcDbEntity
  8
0
100
AcDbLine
 62
7
  6
CONTINUOUS
 10
23.0109525035
 20
-28.768248752
 11
23.0185986103
 21
-28.7567114157
  0
LINE
  5
815
100
AcDbEntity
  8
0
100
AcDbLine
 62
7
  6
CONTINUOUS
 10
23.0185035134
 20
-29.0513028751
 11
23.0108611982
 21
-29.0627980313
  0
LINE
  5
816
100
AcDbEntity
  8
0
100
AcDbLine
 62
7
  6
CONTINUOUS
 10
4.7269181831
 20
-24.917293937
 11
4.7189868385
 21
-24.9277828073
  0
LINE
  5
817
100
AcDbEntity
  8
0
100
AcDbLine
 62
7
  6
CONTINUOUS
 10
4.3597131649
 20
-24.6043042064
 11
4.3675733006
 21
-24.5940868125
  0
LINE
  5
818
100
AcDbEntity
  8
0
100
AcDbLine
 62
7
  6
CONTINUOUS
 10
4.4660942448
 20
-24.5428828219
 11
4.4739526378
 21
-24.5326678974
  0
LINE
  5
819
100
AcDbEntity
  8
RACCORDO
100
AcDbLine
 62
7
  6
CONTINUOUS
 10
33.6464323871
 20
19.2331606403
 11
33.6626097238
 21
19.2537536083
  0
LINE
  5
81A
100
AcDbEntity
  8
RACCORDO
100
AcDbLine
 62
7
  6
CONTINUOUS
 10
33.6626097238
 20
19.2537536083
 11
33.6795896869
 21
19.2731040581
  0
LINE
  5
81B
100
AcDbEntity
  8
RACCORDO
100
AcDbLine
 62
7
  6
CONTINUOUS
 10
-22.5097029807
 20
-5.3691116721
 11
-22.4845424819
 21
-5.345139302
  0
LINE
  5
81C
100
AcDbEntity
  8
RACCORDO
100
AcDbLine
 62
7
  6
CONTINUOUS
 10
-23.44654995
 20
31.9536023356
 11
-23.4065807295
 21
31.979515872
  0
LINE
  5
81D
100
AcDbEntity
  8
RACCORDO
100
AcDbLine
 62
7
  6
CONTINUOUS
 10
-22.8551556278
 20
31.6996678396
 11
-22.8297082709
 21
31.7159317507
  0
LINE
  5
81E
100
AcDbEntity
  8
RACCORDO
100
AcDbLine
 62
7
  6
CONTINUOUS
 10
-28.8342897319
 20
54.8859004936
 11
-28.8591345973
 21
54.8739966686
  0
LINE
  5
81F
100
AcDbEntity
  8
RACCORDO
100
AcDbLine
 62
7
  6
CONTINUOUS
 10
-28.7766505929
 20
55.218995618
 11
-28.810769563
 21
55.2030293966
  0
LINE
  5
820
100
AcDbEntity
  8
RACCORDO
100
AcDbLine
 62
7
  6
CONTINUOUS
 10
-23.1616674304
 20
31.2934832921
 11
-23.1235114667
 21
31.3021831126
  0
LINE
  5
821
100
AcDbEntity
  8
RACCORDO
100
AcDbLine
 62
7
  6
CONTINUOUS
 10
-25.9830581698
 20
56.1540702162
 11
-26.1098160379
 21
56.1406407182
  0
LINE
  5
822
100
AcDbEntity
  8
RACCORDO
100
AcDbLine
 62
7
  6
CONTINUOUS
 10
-28.7274401842
 20
54.9106050198
 11
-28.7550735081
 21
54.9079138454
  0
LINE
  5
823
100
AcDbEntity
  8
RACCORDO
100
AcDbLine
 62
7
  6
CONTINUOUS
 10
-25.868026281
 20
56.1012270641
 11
-25.7629830403
 21
56.1104729229
  0
LINE
  5
824
100
AcDbEntity
  8
RACCORDO
100
AcDbLine
 62
7
  6
CONTINUOUS
 10
-28.6281097245
 20
55.2513058538
 11
-28.6668244434
 21
55.2480148029
  0
LINE
  5
825
100
AcDbEntity
  8
RACCORDO
100
AcDbLine
 62
7
  6
CONTINUOUS
 10
-25.8540529891
 20
56.1624903162
 11
-25.9830581698
 21
56.1540702162
  0
LINE
  5
826
100
AcDbEntity
  8
RACCORDO
100
AcDbLine
 62
7
  6
CONTINUOUS
 10
-25.7629830403
 20
56.1104729229
 11
-25.6558987522
 21
56.1161061644
  0
LINE
  5
827
100
AcDbEntity
  8
RACCORDO
100
AcDbLine
 62
7
  6
CONTINUOUS
 10
34.3109026006
 20
-53.9175812237
 11
34.3259587576
 21
-53.8892661057
  0
LINE
  5
828
100
AcDbEntity
  8
RACCORDO
100
AcDbLine
 62
7
  6
CONTINUOUS
 10
36.6490135017
 20
-51.7479509399
 11
36.6963361042
 21
-51.6603312946
  0
LINE
  5
829
100
AcDbEntity
  8
RACCORDO
100
AcDbLine
 62
7
  6
CONTINUOUS
 10
36.723863781
 20
-51.5180695176
 11
36.6618954791
 21
-51.6306646418
  0
LINE
  5
82A
100
AcDbEntity
  8
RACCORDO
100
AcDbLine
 62
7
  6
CONTINUOUS
 10
36.6182184401
 20
-51.8019097412
 11
36.6489953628
 21
-51.7479823767
  0
LINE
  5
82B
100
AcDbEntity
  8
RACCORDO
100
AcDbLine
 62
7
  6
CONTINUOUS
 10
24.3188842222
 20
-32.6156730208
 11
24.3393129296
 21
-32.5844660192
  0
LINE
  5
82C
100
AcDbEntity
  8
RACCORDO
100
AcDbLine
 62
7
  6
CONTINUOUS
 10
24.984297824
 20
-32.9375077791
 11
24.9610354387
 21
-32.9722309736
  0
LINE
  5
82D
100
AcDbEntity
  8
0
100
AcDbLine
 62
7
  6
CONTINUOUS
 10
22.9941305193
 20
-29.1368524661
 11
22.9829575949
 21
-29.1534043316
  0
LINE
  5
82E
100
AcDbEntity
  8
RACCORDO
100
AcDbLine
 62
7
  6
CONTINUOUS
 10
24.860200491
 20
-32.5148871459
 11
24.8802817833
 21
-32.4854498664
  0
LINE
  5
82F
100
AcDbEntity
  8
0
100
AcDbLine
 62
7
  6
CONTINUOUS
 10
36.4344429106
 20
-13.2719887923
 11
36.4463260789
 21
-13.2547026803
  0
LINE
  5
830
100
AcDbEntity
  8
RACCORDO
100
AcDbLine
 62
7
  6
CONTINUOUS
 10
24.3393129296
 20
-32.5844660192
 11
24.3609415882
 21
-32.5543844315
  0
LINE
  5
831
100
AcDbEntity
  8
0
100
AcDbLine
 62
7
  6
CONTINUOUS
 10
4.7189868385
 20
-24.9277828073
 11
4.7108463562
 21
-24.9373375506
  0
LINE
  5
832
100
AcDbEntity
  8
RACCORDO
100
AcDbLine
 62
7
  6
CONTINUOUS
 10
33.6795896869
 20
19.2731040581
 11
33.6972376917
 21
19.2910586162
  0
LINE
  5
833
100
AcDbEntity
  8
0
100
AcDbLine
 62
7
  6
CONTINUOUS
 10
-8.8291090352
 20
-10.4176182348
 11
-8.8181794018
 21
-10.4070098455
  0
LINE
  5
834
100
AcDbEntity
  8
0
100
AcDbLine
 62
7
  6
CONTINUOUS
 10
-8.8182551777
 20
-10.7015186103
 11
-8.8291675561
 21
-10.71209741
  0
LINE
  5
835
100
AcDbEntity
  8
RACCORDO
100
AcDbLine
 62
7
  6
CONTINUOUS
 10
-22.4845424819
 20
-5.345139302
 11
-22.4588407479
 21
-5.3230533371
  0
LINE
  5
836
100
AcDbEntity
  8
RACCORDO
100
AcDbLine
 62
7
  6
CONTINUOUS
 10
-22.9442045871
 20
31.6591168712
 11
-22.910827607
 21
31.6684529183
  0
LINE
  5
837
100
AcDbEntity
  8
RACCORDO
100
AcDbLine
 62
7
  6
CONTINUOUS
 10
-26.0715476729
 20
56.0721913751
 11
-25.9708674371
 21
56.0884383371
  0
LINE
  5
838
100
AcDbEntity
  8
RACCORDO
100
AcDbLine
 62
7
  6
CONTINUOUS
 10
-26.1098160379
 20
56.1406407182
 11
-26.2341726561
 21
56.1222789816
  0
LINE
  5
839
100
AcDbEntity
  8
RACCORDO
100
AcDbLine
 62
7
  6
CONTINUOUS
 10
-25.9708674371
 20
56.0884383371
 11
-25.868026281
 21
56.1012270641
  0
LINE
  5
83A
100
AcDbEntity
  8
RACCORDO
100
AcDbLine
 62
7
  6
CONTINUOUS
 10
33.9240815935
 20
-53.8620421335
 11
33.9345484112
 21
-53.8447142953
  0
LINE
  5
83B
100
AcDbEntity
  8
RACCORDO
100
AcDbLine
 62
7
  6
CONTINUOUS
 10
36.6618954791
 20
-51.6306646418
 11
36.5893841919
 21
-51.7500028519
  0
LINE
  5
83C
100
AcDbEntity
  8
RACCORDO
100
AcDbLine
 62
7
  6
CONTINUOUS
 10
36.5500425958
 20
-51.913804521
 11
36.6182184401
 21
-51.8019097412
  0
LINE
  5
83D
100
AcDbEntity
  8
0
100
AcDbLine
 62
7
  6
CONTINUOUS
 10
36.4463260789
 20
-13.2547026803
 11
36.4583738282
 21
-13.2388004412
  0
LINE
  5
83E
100
AcDbEntity
  8
RACCORDO
100
AcDbLine
 62
7
  6
CONTINUOUS
 10
24.3609415882
 20
-32.5543844315
 11
24.3836490841
 21
-32.5255967052
  0
LINE
  5
83F
100
AcDbEntity
  8
0
100
AcDbLine
 62
7
  6
CONTINUOUS
 10
22.9829575949
 20
-29.1534043316
 11
22.9731974745
 21
-29.1656243575
  0
LINE
  5
840
100
AcDbEntity
  8
0
100
AcDbLine
 62
7
  6
CONTINUOUS
 10
23.0016257516
 20
-28.7793665452
 11
23.0109525035
 21
-28.768248752
  0
LINE
  5
841
100
AcDbEntity
  8
0
100
AcDbLine
 62
7
  6
CONTINUOUS
 10
23.0108611982
 20
-29.0627980313
 11
23.0015499757
 21
-29.0738753101
  0
LINE
  5
842
100
AcDbEntity
  8
0
100
AcDbLine
 62
7
  6
CONTINUOUS
 10
4.3510043019
 20
-24.6133037888
 11
4.3597131649
 21
-24.6043042064
  0
LINE
  5
843
100
AcDbEntity
  8
0
100
AcDbLine
 62
7
  6
CONTINUOUS
 10
4.4573877069
 20
-24.5518800671
 11
4.4660942448
 21
-24.5428828219
  0
LINE
  5
844
100
AcDbEntity
  8
0
100
AcDbLine
 62
7
  6
CONTINUOUS
 10
4.7108463562
 20
-24.9373375506
 11
4.7024928951
 21
-24.9459590868
  0
LINE
  5
845
100
AcDbEntity
  8
RACCORDO
100
AcDbLine
 62
7
  6
CONTINUOUS
 10
33.6972376917
 20
19.2910586162
 11
33.7154138583
 21
19.3074749732
  0
LINE
  5
846
100
AcDbEntity
  8
RACCORDO
100
AcDbLine
 62
7
  6
CONTINUOUS
 10
-22.4588407479
 20
-5.3230533371
 11
-22.4327417004
 21
-5.3029774521
  0
LINE
  5
847
100
AcDbEntity
  8
RACCORDO
100
AcDbLine
 62
7
  6
CONTINUOUS
 10
-22.8297082709
 20
31.7159317507
 11
-22.8062434547
 21
31.7280881925
  0
LINE
  5
848
100
AcDbEntity
  8
RACCORDO
100
AcDbLine
 62
7
  6
CONTINUOUS
 10
-23.4065807295
 20
31.979515872
 11
-23.3643962998
 21
32.001223725
  0
LINE
  5
849
100
AcDbEntity
  8
RACCORDO
100
AcDbLine
 62
7
  6
CONTINUOUS
 10
-28.808619221
 20
54.8955201281
 11
-28.8342897319
 21
54.8859004936
  0
LINE
  5
84A
100
AcDbEntity
  8
RACCORDO
100
AcDbLine
 62
7
  6
CONTINUOUS
 10
-28.7412118886
 20
55.2318341705
 11
-28.7766505929
 21
55.218995618
  0
LINE
  5
84B
100
AcDbEntity
  8
RACCORDO
100
AcDbLine
 62
7
  6
CONTINUOUS
 10
-26.1703135581
 20
56.0525675536
 11
-26.0715476729
 21
56.0721913751
  0
LINE
  5
84C
100
AcDbEntity
  8
RACCORDO
100
AcDbLine
 62
7
  6
CONTINUOUS
 10
-26.2341726561
 20
56.1222789816
 11
-26.3559767807
 21
56.099094188
  0
LINE
  5
84D
100
AcDbEntity
  8
RACCORDO
100
AcDbLine
 62
7
  6
CONTINUOUS
 10
-28.7550735081
 20
54.9079138454
 11
-28.7821274088
 21
54.9028772643
  0
LINE
  5
84E
100
AcDbEntity
  8
RACCORDO
100
AcDbLine
 62
7
  6
CONTINUOUS
 10
-28.6668244434
 20
55.2480148029
 11
-28.7045605395
 21
55.2415190701
  0
LINE
  5
84F
100
AcDbEntity
  8
RACCORDO
100
AcDbLine
 62
7
  6
CONTINUOUS
 10
36.4784991484
 20
-52.021393539
 11
36.5500425958
 21
-51.913804521
  0
LINE
  5
850
100
AcDbEntity
  8
RACCORDO
100
AcDbLine
 62
7
  6
CONTINUOUS
 10
34.2936786357
 20
-53.9433151654
 11
34.3109026006
 21
-53.9175812237
  0
LINE
  5
851
100
AcDbEntity
  8
RACCORDO
100
AcDbLine
 62
7
  6
CONTINUOUS
 10
36.5893841919
 20
-51.7500028519
 11
36.5126688957
 21
-51.8642508756
  0
LINE
  5
852
100
AcDbEntity
  8
RACCORDO
100
AcDbLine
 62
7
  6
CONTINUOUS
 10
24.9610354387
 20
-32.9722309736
 11
24.9353376713
 21
-33.0037878714
  0
LINE
  5
853
100
AcDbEntity
  8
RACCORDO
100
AcDbLine
 62
7
  6
CONTINUOUS
 10
24.8802817833
 20
-32.4854498664
 11
24.9031014309
 21
-32.4583348684
  0
LINE
  5
854
100
AcDbEntity
  8
RACCORDO
100
AcDbLine
 62
7
  6
CONTINUOUS
 10
24.3836490841
 20
-32.5255967052
 11
24.4073082625
 21
-32.4982640426
  0
LINE
  5
855
100
AcDbEntity
  8
0
100
AcDbLine
 62
7
  6
CONTINUOUS
 10
4.7024928951
 20
-24.9459590868
 11
4.6940313999
 21
-24.9537968146
  0
LINE
  5
856
100
AcDbEntity
  8
RACCORDO
100
AcDbLine
 62
7
  6
CONTINUOUS
 10
37.1110039435
 20
20.1255331018
 11
37.1274504297
 21
20.139385759
  0
LINE
  5
857
100
AcDbEntity
  8
RACCORDO
100
AcDbLine
 62
7
  6
CONTINUOUS
 10
37.0916731703
 20
20.1095230801
 11
37.1110039435
 21
20.1255331018
  0
LINE
  5
858
100
AcDbEntity
  8
RACCORDO
100
AcDbLine
 62
7
  6
CONTINUOUS
 10
37.0691792402
 20
20.0914120562
 11
37.0916731703
 21
20.1095230801
  0
LINE
  5
859
100
AcDbEntity
  8
0
100
AcDbLine
 62
7
  6
CONTINUOUS
 10
-8.8415686152
 20
-10.4276488466
 11
-8.8291090352
 21
-10.4176182348
  0
LINE
  5
85A
100
AcDbEntity
  8
0
100
AcDbLine
 62
7
  6
CONTINUOUS
 10
-8.8291675561
 20
-10.71209741
 11
-8.8416016885
 21
-10.7221007559
  0
LINE
  5
85B
100
AcDbEntity
  8
RACCORDO
100
AcDbLine
 62
7
  6
CONTINUOUS
 10
33.7154138583
 20
19.3074749732
 11
33.7339741206
 21
19.3222230113
  0
LINE
  5
85C
100
AcDbEntity
  8
RACCORDO
100
AcDbLine
 62
7
  6
CONTINUOUS
 10
37.0433528665
 20
20.0716311148
 11
37.0691792402
 21
20.0914120562
  0
LINE
  5
85D
100
AcDbEntity
  8
RACCORDO
100
AcDbLine
 62
7
  6
CONTINUOUS
 10
-22.4327417004
 20
-5.3029774521
 11
-22.4063914862
 21
-5.2850240656
  0
LINE
  5
85E
100
AcDbEntity
  8
RACCORDO
100
AcDbLine
 62
7
  6
CONTINUOUS
 10
-22.8062434547
 20
31.7280881925
 11
-22.8054956024
 21
31.7284351795
  0
LINE
  5
85F
100
AcDbEntity
  8
0
100
AcDbLine
 62
7
  6
CONTINUOUS
 10
-23.0199278596
 20
31.3386957699
 11
-22.4866191417
 21
31.5852859191
  0
LINE
  5
860
100
AcDbEntity
  8
RACCORDO
100
AcDbLine
 62
7
  6
CONTINUOUS
 10
-22.8075331022
 20
31.7276366779
 11
-22.8074821081
 21
31.7276595602
  0
LINE
  5
861
100
AcDbEntity
  8
RACCORDO
100
AcDbLine
 62
7
  6
CONTINUOUS
 10
-23.0523878516
 20
31.3248649193
 11
-23.0199260777
 21
31.3386855776
  0
LINE
  5
862
100
AcDbEntity
  8
RACCORDO
100
AcDbLine
 62
7
  6
CONTINUOUS
 10
-28.7821274088
 20
54.9028772643
 11
-28.808619221
 21
54.8955201281
  0
LINE
  5
863
100
AcDbEntity
  8
RACCORDO
100
AcDbLine
 62
7
  6
CONTINUOUS
 10
-26.2901755177
 20
56.0232718499
 11
-26.2670577378
 21
56.0296569287
  0
LINE
  5
864
100
AcDbEntity
  8
RACCORDO
100
AcDbLine
 62
7
  6
CONTINUOUS
 10
-28.7045605395
 20
55.2415190701
 11
-28.7412118886
 21
55.2318341705
  0
LINE
  5
865
100
AcDbEntity
  8
RACCORDO
100
AcDbLine
 62
7
  6
CONTINUOUS
 10
-26.2670577378
 20
56.0296569287
 11
-26.1703135581
 21
56.0525675536
  0
LINE
  5
866
100
AcDbEntity
  8
RACCORDO
100
AcDbLine
 62
7
  6
CONTINUOUS
 10
-26.3559767807
 20
56.099094188
 11
-26.4025962329
 21
56.0881821619
  0
LINE
  5
867
100
AcDbEntity
  8
RACCORDO
100
AcDbLine
 62
7
  6
CONTINUOUS
 10
36.4037222434
 20
-52.1245636593
 11
36.4784991484
 21
-52.021393539
  0
LINE
  5
868
100
AcDbEntity
  8
RACCORDO
100
AcDbLine
 62
7
  6
CONTINUOUS
 10
36.5126688957
 20
-51.8642508756
 11
36.4318522448
 21
-51.9733410151
  0
LINE
  5
869
100
AcDbEntity
  8
RACCORDO
100
AcDbLine
 62
7
  6
CONTINUOUS
 10
33.9120090202
 20
-53.8776061878
 11
33.9240815935
 21
-53.8620421335
  0
LINE
  5
86A
100
AcDbEntity
  8
RACCORDO
100
AcDbLine
 62
7
  6
CONTINUOUS
 10
36.325860926
 20
-52.2232197442
 11
36.4037222434
 21
-52.1245636593
  0
LINE
  5
86B
100
AcDbEntity
  8
RACCORDO
100
AcDbLine
 62
7
  6
CONTINUOUS
 10
24.4073082625
 20
-32.4982640426
 11
24.431786639
 21
-32.4725394983
  0
LINE
  5
86C
100
AcDbEntity
  8
RACCORDO
100
AcDbLine
 62
7
  6
CONTINUOUS
 10
24.9353376713
 20
-33.0037878714
 11
24.9072038834
 21
-33.0321788774
  0
LINE
  5
86D
100
AcDbEntity
  8
RACCORDO
100
AcDbLine
 62
7
  6
CONTINUOUS
 10
24.9031014309
 20
-32.4583348684
 11
24.9101907467
 21
-32.4512994634
  0
LINE
  5
86E
100
AcDbEntity
  8
0
100
AcDbLine
 62
7
  6
CONTINUOUS
 10
22.9906961182
 20
-28.7899749345
 11
23.0016257516
 21
-28.7793665452
  0
LINE
  5
86F
100
AcDbEntity
  8
0
100
AcDbLine
 62
7
  6
CONTINUOUS
 10
23.0015499757
 20
-29.0738753101
 11
22.9906375973
 21
-29.0844541098
  0
LINE
  5
870
100
AcDbEntity
  8
0
100
AcDbLine
 62
7
  6
CONTINUOUS
 10
4.6940313999
 20
-24.9537968146
 11
4.6854540413
 21
-24.9608257779
  0
LINE
  5
871
100
AcDbEntity
  8
0
100
AcDbLine
 62
7
  6
CONTINUOUS
 10
4.34145106
 20
-24.6210842036
 11
4.3510043019
 21
-24.6133037888
  0
LINE
  5
872
100
AcDbEntity
  8
0
100
AcDbLine
 62
7
  6
CONTINUOUS
 10
4.4478372272
 20
-24.5596582549
 11
4.4573877069
 21
-24.5518800671
  0
LINE
  5
873
100
AcDbEntity
  8
RACCORDO
100
AcDbLine
 62
7
  6
CONTINUOUS
 10
37.0138016155
 20
20.0498845745
 11
37.0433528665
 21
20.0716311148
  0
LINE
  5
874
100
AcDbEntity
  8
RACCORDO
100
AcDbLine
 62
7
  6
CONTINUOUS
 10
36.97979594
 20
20.0251674723
 11
37.0138016155
 21
20.0498845745
  0
LINE
  5
875
100
AcDbEntity
  8
RACCORDO
100
AcDbLine
 62
7
  6
CONTINUOUS
 10
36.9406216774
 20
19.9974582679
 11
36.97979594
 21
20.0251674723
  0
LINE
  5
876
100
AcDbEntity
  8
RACCORDO
100
AcDbLine
 62
7
  6
CONTINUOUS
 10
33.7339741206
 20
19.3222230113
 11
33.7527713683
 21
19.3351858363
  0
LINE
  5
877
100
AcDbEntity
  8
RACCORDO
100
AcDbLine
 62
7
  6
CONTINUOUS
 10
36.8960889618
 20
19.9670308654
 11
36.9406216774
 21
19.9974582679
  0
LINE
  5
878
100
AcDbEntity
  8
RACCORDO
100
AcDbLine
 62
7
  6
CONTINUOUS
 10
36.8462370227
 20
19.9333429716
 11
36.8960889618
 21
19.9670308654
  0
LINE
  5
879
100
AcDbEntity
  8
0
100
AcDbLine
 62
7
  6
CONTINUOUS
 10
-8.8554671001
 20
-10.4370283009
 11
-8.8415686152
 21
-10.4276488466
  0
LINE
  5
87A
100
AcDbEntity
  8
0
100
AcDbLine
 62
7
  6
CONTINUOUS
 10
-8.8416016885
 20
-10.7221007559
 11
-8.8554671001
 21
-10.7314558604
  0
LINE
  5
87B
100
AcDbEntity
  8
RACCORDO
100
AcDbLine
 62
7
  6
CONTINUOUS
 10
36.7908947901
 20
19.8963042678
 11
36.8462370227
 21
19.9333429716
  0
LINE
  5
87C
100
AcDbEntity
  8
RACCORDO
100
AcDbLine
 62
7
  6
CONTINUOUS
 10
36.7295659682
 20
19.8562997213
 11
36.7908947901
 21
19.8963042678
  0
LINE
  5
87D
100
AcDbEntity
  8
RACCORDO
100
AcDbLine
 62
7
  6
CONTINUOUS
 10
-22.9108281471
 20
-4.8119123947
 11
-22.8790390766
 21
-4.7923221582
  0
LINE
  5
87E
100
AcDbEntity
  8
RACCORDO
100
AcDbLine
 62
7
  6
CONTINUOUS
 10
-22.9442051151
 20
-4.8319002059
 11
-22.9108281471
 21
-4.8119123947
  0
LINE
  5
87F
100
AcDbEntity
  8
RACCORDO
100
AcDbLine
 62
7
  6
CONTINUOUS
 10
-22.9789294745
 20
-4.8521415645
 11
-22.9442051151
 21
-4.8319002059
  0
LINE
  5
880
100
AcDbEntity
  8
0
100
AcDbLine
 62
7
  6
CONTINUOUS
 10
-23.0199272809
 20
-4.3346726676
 11
-20.9613716412
 21
-3.1460737134
  0
LINE
  5
881
100
AcDbEntity
  8
0
100
AcDbLine
 62
7
  6
CONTINUOUS
 10
-22.4063974043
 20
-5.2850206486
 11
-20.3964614685
 21
-4.1245268333
  0
LINE
  5
882
100
AcDbEntity
  8
RACCORDO
100
AcDbLine
 62
7
  6
CONTINUOUS
 10
-23.0147510101
 20
-4.8724906164
 11
-22.9789294745
 21
-4.8521415645
  0
LINE
  5
883
100
AcDbEntity
  8
RACCORDO
100
AcDbLine
 62
7
  6
CONTINUOUS
 10
-23.3643962998
 20
32.001223725
 11
-23.3198230499
 21
32.0188016794
  0
LINE
  5
884
100
AcDbEntity
  8
RACCORDO
100
AcDbLine
 62
7
  6
CONTINUOUS
 10
-22.910827607
 20
31.6684529183
 11
-22.8790385281
 21
31.6809475399
  0
LINE
  5
885
100
AcDbEntity
  8
RACCORDO
100
AcDbLine
 62
7
  6
CONTINUOUS
 10
36.4318522448
 20
-51.9733410151
 11
36.3474110308
 21
-52.076848322
  0
LINE
  5
886
100
AcDbEntity
  8
RACCORDO
100
AcDbLine
 62
7
  6
CONTINUOUS
 10
34.2743704161
 20
-53.9663820148
 11
34.2936786357
 21
-53.9433151654
  0
LINE
  5
887
100
AcDbEntity
  8
RACCORDO
100
AcDbLine
 62
7
  6
CONTINUOUS
 10
36.2450900402
 20
-52.3172820878
 11
36.325860926
 21
-52.2232197442
  0
LINE
  5
888
100
AcDbEntity
  8
RACCORDO
100
AcDbLine
 62
7
  6
CONTINUOUS
 10
36.3474110308
 20
-52.076848322
 11
36.2591170199
 21
-52.1750828481
  0
LINE
  5
889
100
AcDbEntity
  8
RACCORDO
100
AcDbLine
 62
7
  6
CONTINUOUS
 10
24.431786639
 20
-32.4725394983
 11
24.4569471425
 21
-32.4485671219
  0
LINE
  5
88A
100
AcDbEntity
  8
0
100
AcDbLine
 62
7
  6
CONTINUOUS
 10
4.6854540413
 20
-24.9608257779
 11
4.6767682456
 21
-24.967071202
  0
LINE
  5
88B
100
AcDbEntity
  8
0
100
AcDbLine
 62
7
  6
CONTINUOUS
 10
-8.8554671001
 20
-10.7314558604
 11
-8.902037202
 21
-10.7612633458
  0
LINE
  5
88C
100
AcDbEntity
  8
RACCORDO
100
AcDbLine
 62
7
  6
CONTINUOUS
 10
36.605691396
 20
19.7778879371
 11
36.7295659682
 21
19.8562997213
  0
LINE
  5
88D
100
AcDbEntity
  8
RACCORDO
100
AcDbLine
 62
7
  6
CONTINUOUS
 10
36.5472735061
 20
19.7413217356
 11
36.605691396
 21
19.7778879371
  0
LINE
  5
88E
100
AcDbEntity
  8
RACCORDO
100
AcDbLine
 62
7
  6
CONTINUOUS
 10
36.4242543313
 20
19.6653945495
 11
36.5472735061
 21
19.7413217356
  0
LINE
  5
88F
100
AcDbEntity
  8
RACCORDO
100
AcDbLine
 62
7
  6
CONTINUOUS
 10
36.293471749
 20
19.585843717
 11
36.4242543313
 21
19.6653945495
  0
LINE
  5
890
100
AcDbEntity
  8
RACCORDO
100
AcDbLine
 62
7
  6
CONTINUOUS
 10
36.155242474
 20
19.5029301044
 11
36.293471749
 21
19.585843717
  0
LINE
  5
891
100
AcDbEntity
  8
0
100
AcDbLine
 62
7
  6
CONTINUOUS
 10
-9.0352203468
 20
-10.1327161499
 11
-9.504438952
 21
-10.4134441252
  0
LINE
  5
892
100
AcDbEntity
  8
0
100
AcDbLine
 62
7
  6
CONTINUOUS
 10
-8.8554671001
 20
-10.4370283009
 11
-9.1541243189
 21
-10.6157114039
  0
LINE
  5
893
100
AcDbEntity
  8
RACCORDO
100
AcDbLine
 62
7
  6
CONTINUOUS
 10
36.1445114345
 20
19.4965488983
 11
36.155242474
 21
19.5029301044
  0
LINE
  5
894
100
AcDbEntity
  8
RACCORDO
100
AcDbLine
 62
7
  6
CONTINUOUS
 10
33.7527713683
 20
19.3351858363
 11
35.5020739018
 21
20.3452014739
  0
LINE
  5
895
100
AcDbEntity
  8
RACCORDO
100
AcDbLine
 62
7
  6
CONTINUOUS
 10
34.3631070906
 20
18.0568050984
 11
36.2082116177
 21
19.1221350741
  0
LINE
  5
896
100
AcDbEntity
  8
RACCORDO
100
AcDbLine
 62
7
  6
CONTINUOUS
 10
35.7944402618
 20
20.1028629374
 11
35.8766220198
 21
20.1486750705
  0
LINE
  5
897
100
AcDbEntity
  8
RACCORDO
100
AcDbLine
 62
7
  6
CONTINUOUS
 10
-23.0514116009
 20
-4.8928007314
 11
-23.0147510101
 21
-4.8724906164
  0
LINE
  5
898
100
AcDbEntity
  8
RACCORDO
100
AcDbLine
 62
7
  6
CONTINUOUS
 10
35.8766220198
 20
20.1486750705
 11
36.0142683084
 21
20.2246193268
  0
LINE
  5
899
100
AcDbEntity
  8
RACCORDO
100
AcDbLine
 62
7
  6
CONTINUOUS
 10
36.0142683084
 20
20.2246193268
 11
36.145053062
 21
20.2956522349
  0
LINE
  5
89A
100
AcDbEntity
  8
RACCORDO
100
AcDbLine
 62
7
  6
CONTINUOUS
 10
-23.0886470796
 20
-4.9129255598
 11
-23.0514116009
 21
-4.8928007314
  0
LINE
  5
89B
100
AcDbEntity
  8
RACCORDO
100
AcDbLine
 62
7
  6
CONTINUOUS
 10
36.145053062
 20
20.2956522349
 11
36.20778917
 21
20.3293257067
  0
LINE
  5
89C
100
AcDbEntity
  8
RACCORDO
100
AcDbLine
 62
7
  6
CONTINUOUS
 10
-23.0523899185
 20
-4.3518158361
 11
-23.0199281493
 21
-4.3346470016
  0
LINE
  5
89D
100
AcDbEntity
  8
RACCORDO
100
AcDbLine
 62
7
  6
CONTINUOUS
 10
-23.1261891367
 20
-4.9327200872
 11
-23.0886470796
 21
-4.9129255598
  0
LINE
  5
89E
100
AcDbEntity
  8
RACCORDO
100
AcDbLine
 62
7
  6
CONTINUOUS
 10
-23.1637672533
 20
-4.952041679
 11
-23.1261891367
 21
-4.9327200872
  0
LINE
  5
89F
100
AcDbEntity
  8
RACCORDO
100
AcDbLine
 62
7
  6
CONTINUOUS
 10
-23.2011106508
 20
-4.9707511087
 11
-23.1637672533
 21
-4.952041679
  0
LINE
  5
8A0
100
AcDbEntity
  8
RACCORDO
100
AcDbLine
 62
7
  6
CONTINUOUS
 10
-23.0869983721
 20
31.3126685147
 11
-23.0523878516
 21
31.3248649193
  0
LINE
  5
8A1
100
AcDbEntity
  8
RACCORDO
100
AcDbLine
 62
7
  6
CONTINUOUS
 10
36.2082116177
 20
-52.3567630115
 11
36.2450900402
 21
-52.3172820878
  0
LINE
  5
8A2
100
AcDbEntity
  8
RACCORDO
100
AcDbLine
 62
7
  6
CONTINUOUS
 10
33.8984661144
 20
-53.8912625688
 11
33.9120090202
 21
-53.8776061878
  0
LINE
  5
8A3
100
AcDbEntity
  8
RACCORDO
100
AcDbLine
 62
7
  6
CONTINUOUS
 10
36.2591170199
 20
-52.1750828481
 11
36.2082116177
 21
-52.2263633092
  0
LINE
  5
8A4
100
AcDbEntity
  8
RACCORDO
100
AcDbLine
 62
7
  6
CONTINUOUS
 10
24.4569471425
 20
-32.4485671219
 11
24.4826488818
 21
-32.4264811512
  0
LINE
  5
8A5
100
AcDbEntity
  8
RACCORDO
100
AcDbLine
 62
7
  6
CONTINUOUS
 10
24.9072038834
 20
-33.0321788774
 11
24.8737847514
 21
-33.0597953328
  0
LINE
  5
8A6
100
AcDbEntity
  8
0
100
AcDbLine
 62
7
  6
CONTINUOUS
 10
22.9782365382
 20
-28.8000055463
 11
22.9906961182
 21
-28.7899749345
  0
LINE
  5
8A7
100
AcDbEntity
  8
0
100
AcDbLine
 62
7
  6
CONTINUOUS
 10
22.9906375973
 20
-29.0844541098
 11
22.9782034649
 21
-29.0944574556
  0
LINE
  5
8A8
100
AcDbEntity
  8
0
100
AcDbLine
 62
7
  6
CONTINUOUS
 10
4.6767682456
 20
-24.967071202
 11
4.6681019231
 21
-24.9727577031
  0
LINE
  5
8A9
100
AcDbEntity
  8
0
100
AcDbLine
 62
7
  6
CONTINUOUS
 10
4.3346513886
 20
-24.6254504541
 11
4.34145106
 21
-24.6210842036
  0
LINE
  5
8AA
100
AcDbEntity
  8
0
100
AcDbLine
 62
7
  6
CONTINUOUS
 10
4.4410377341
 20
-24.5640243427
 11
4.4478372272
 21
-24.5596582549
  0
LINE
  5
8AB
100
AcDbEntity
  8
RACCORDO
100
AcDbLine
 62
7
  6
CONTINUOUS
 10
36.20778917
 20
20.3293257067
 11
36.268661147
 21
20.3616413653
  0
LINE
  5
8AC
100
AcDbEntity
  8
RACCORDO
100
AcDbLine
 62
7
  6
CONTINUOUS
 10
36.268661147
 20
20.3616413653
 11
36.3984948962
 21
20.4297316089
  0
LINE
  5
8AD
100
AcDbEntity
  8
0
100
AcDbLine
 62
7
  6
CONTINUOUS
 10
-11.304658498
 20
-8.8746091752
 11
-11.7601858621
 21
-9.1110041305
  0
LINE
  5
8AE
100
AcDbEntity
  8
0
100
AcDbLine
 62
7
  6
CONTINUOUS
 10
-11.1864189494
 20
-8.8906410376
 11
-11.6895942997
 21
-9.1517628138
  0
LINE
  5
8AF
100
AcDbEntity
  8
0
100
AcDbLine
 62
7
  6
CONTINUOUS
 10
-10.6691710533
 20
-8.9009755453
 11
-10.6540576194
 21
-8.8933026565
  0
LINE
  5
8B0
100
AcDbEntity
  8
0
100
AcDbLine
 62
7
  6
CONTINUOUS
 10
-9.0290239016
 20
-9.8314612566
 11
-9.0442489424
 21
-9.8391852071
  0
LINE
  5
8B1
100
AcDbEntity
  8
RACCORDO
100
AcDbLine
 62
7
  6
CONTINUOUS
 10
36.3984948962
 20
20.4297316089
 11
36.4637985176
 21
20.4628515846
  0
LINE
  5
8B2
100
AcDbEntity
  8
0
100
AcDbLine
 62
7
  6
CONTINUOUS
 10
-11.3047617523
 20
-8.8746628538
 11
-11.2967024325
 21
-8.8706582372
  0
LINE
  5
8B3
100
AcDbEntity
  8
RACCORDO
100
AcDbLine
 62
7
  6
CONTINUOUS
 10
36.4637985176
 20
20.4628515846
 11
36.5235404066
 21
20.492269856
  0
LINE
  5
8B4
100
AcDbEntity
  8
RACCORDO
100
AcDbLine
 62
7
  6
CONTINUOUS
 10
-23.2379502419
 20
-4.9887135609
 11
-23.2011106508
 21
-4.9707511087
  0
LINE
  5
8B5
100
AcDbEntity
  8
RACCORDO
100
AcDbLine
 62
7
  6
CONTINUOUS
 10
36.5235404066
 20
20.492269856
 11
36.5776353013
 21
20.5186087438
  0
LINE
  5
8B6
100
AcDbEntity
  8
RACCORDO
100
AcDbLine
 62
7
  6
CONTINUOUS
 10
36.5776353013
 20
20.5186087438
 11
36.6262469891
 21
20.5419711767
  0
LINE
  5
8B7
100
AcDbEntity
  8
RACCORDO
100
AcDbLine
 62
7
  6
CONTINUOUS
 10
-23.2740205698
 20
-5.0057996025
 11
-23.2379502419
 21
-4.9887135609
  0
LINE
  5
8B8
100
AcDbEntity
  8
RACCORDO
100
AcDbLine
 62
7
  6
CONTINUOUS
 10
36.6262469891
 20
20.5419711767
 11
36.6698255823
 21
20.5620518748
  0
LINE
  5
8B9
100
AcDbEntity
  8
RACCORDO
100
AcDbLine
 62
7
  6
CONTINUOUS
 10
-23.3090617204
 20
-5.0218861157
 11
-23.2740205698
 21
-5.0057996025
  0
LINE
  5
8BA
100
AcDbEntity
  8
RACCORDO
100
AcDbLine
 62
7
  6
CONTINUOUS
 10
-23.0870004177
 20
-4.3673366182
 11
-23.0523899185
 21
-4.3518158361
  0
LINE
  5
8BB
100
AcDbEntity
  8
RACCORDO
100
AcDbLine
 62
7
  6
CONTINUOUS
 10
36.6698255823
 20
20.5620518748
 11
36.7082288581
 21
20.5791521319
  0
LINE
  5
8BC
100
AcDbEntity
  8
RACCORDO
100
AcDbLine
 62
7
  6
CONTINUOUS
 10
-23.3428211961
 20
-5.0368571853
 11
-23.3090617204
 21
-5.0218861157
  0
LINE
  5
8BD
100
AcDbEntity
  8
RACCORDO
100
AcDbLine
 62
7
  6
CONTINUOUS
 10
36.7082288581
 20
20.5791521319
 11
36.7418325144
 21
20.5938797242
  0
LINE
  5
8BE
100
AcDbEntity
  8
RACCORDO
100
AcDbLine
 62
7
  6
CONTINUOUS
 10
-23.1235114667
 20
31.3021831126
 11
-23.0869983721
 21
31.3126685147
  0
LINE
  5
8BF
100
AcDbEntity
  8
RACCORDO
100
AcDbLine
 62
7
  6
CONTINUOUS
 10
-23.3198230499
 20
32.0188016794
 11
-23.2730390255
 21
32.0321716449
  0
LINE
  5
8C0
100
AcDbEntity
  8
RACCORDO
100
AcDbLine
 62
7
  6
CONTINUOUS
 10
34.2530139405
 20
-53.9867289194
 11
34.2743704161
 21
-53.9663820148
  0
LINE
  5
8C1
100
AcDbEntity
  8
RACCORDO
100
AcDbLine
 62
7
  6
CONTINUOUS
 10
24.4826488818
 20
-32.4264811512
 11
24.5087479351
 21
-32.4064052609
  0
LINE
  5
8C2
100
AcDbEntity
  8
0
100
AcDbLine
 62
7
  6
CONTINUOUS
 10
24.5351252986
 20
-32.3884675418
 11
24.9210643819
 21
-32.1163291234
  0
LINE
  5
8C3
100
AcDbEntity
  8
0
100
AcDbLine
 62
7
  6
CONTINUOUS
 10
22.9643380533
 20
-28.8093850007
 11
22.9782365382
 21
-28.8000055463
  0
LINE
  5
8C4
100
AcDbEntity
  8
0
100
AcDbLine
 62
7
  6
CONTINUOUS
 10
22.9782034649
 20
-29.0944574556
 11
22.9643380533
 21
-29.1038125602
  0
LINE
  5
8C5
100
AcDbEntity
  8
0
100
AcDbLine
 62
7
  6
CONTINUOUS
 10
4.6681019231
 20
-24.9727577031
 11
4.6619140364
 21
-24.976505896
  0
LINE
  5
8C6
100
AcDbEntity
  8
0
100
AcDbLine
 62
7
  6
CONTINUOUS
 10
-2.0885986695
 20
-21.390479328
 11
-2.195025624
 21
-21.4519289177
  0
LINE
  5
8C7
100
AcDbEntity
  8
0
100
AcDbLine
 62
7
  6
CONTINUOUS
 10
-2.2346735455
 20
-21.9578391052
 11
-2.3411479606
 21
-22.019316098
  0
LINE
  5
8C8
100
AcDbEntity
  8
0
100
AcDbLine
 62
7
  6
CONTINUOUS
 10
-0.0175546277
 20
-21.8682814994
 11
-0.1239330172
 21
-21.9297030483
  0
LINE
  5
8C9
100
AcDbEntity
  8
0
100
AcDbLine
 62
7
  6
CONTINUOUS
 10
-1.0242326011
 20
-22.6567325361
 11
-1.1307070162
 21
-22.7182095289
  0
LINE
  5
8CA
100
AcDbEntity
  8
0
100
AcDbLine
 62
7
  6
CONTINUOUS
 10
-0.3956054802
 20
-23.0196939571
 11
-0.5020798954
 21
-23.08117095
  0
LINE
  5
8CB
100
AcDbEntity
  8
0
100
AcDbLine
 62
7
  6
CONTINUOUS
 10
0.5308521815
 20
-22.6234020993
 11
0.4244445928
 21
-22.6848405074
  0
LINE
  5
8CC
100
AcDbEntity
  8
0
100
AcDbLine
 62
7
  6
CONTINUOUS
 10
1.0169361144
 20
-22.4713282599
 11
0.9105573516
 21
-22.5327500243
  0
LINE
  5
8CD
100
AcDbEntity
  8
0
100
AcDbLine
 62
7
  6
CONTINUOUS
 10
0.5528044209
 20
-23.5914073434
 11
0.4672114737
 21
-23.6408276384
  0
LINE
  5
8CE
100
AcDbEntity
  8
0
100
AcDbLine
 62
7
  6
CONTINUOUS
 10
2.5212322661
 20
-23.1815939943
 11
2.4148637004
 21
-23.2430098711
  0
LINE
  5
8CF
100
AcDbEntity
  8
0
100
AcDbLine
 62
7
  6
CONTINUOUS
 10
1.2078850111
 20
-23.9455292704
 11
1.101410596
 21
-24.0070062632
  0
LINE
  5
8D0
100
AcDbEntity
  8
0
100
AcDbLine
 62
7
  6
CONTINUOUS
 10
1.8255243997
 20
-24.3021465125
 11
1.7190499846
 21
-24.3636235054
  0
LINE
  5
8D1
100
AcDbEntity
  8
0
100
AcDbLine
 62
7
  6
CONTINUOUS
 10
2.3142442594
 20
-24.167321084
 11
2.2078005873
 21
-24.2287803262
  0
LINE
  5
8D2
100
AcDbEntity
  8
0
100
AcDbLine
 62
7
  6
CONTINUOUS
 10
2.7689793605
 20
-24.1061440116
 11
2.662558639
 21
-24.1675900025
  0
LINE
  5
8D3
100
AcDbEntity
  8
0
100
AcDbLine
 62
7
  6
CONTINUOUS
 10
3.9319896244
 20
-23.775308709
 11
3.8256349762
 21
-23.8367165499
  0
LINE
  5
8D4
100
AcDbEntity
  8
0
100
AcDbLine
 62
7
  6
CONTINUOUS
 10
2.877007212
 20
-24.4922533598
 11
2.77056354
 21
-24.553712602
  0
LINE
  5
8D5
100
AcDbEntity
  8
0
100
AcDbLine
 62
7
  6
CONTINUOUS
 10
4.2548543322
 20
-23.9492625882
 11
4.1485004589
 21
-24.0106699818
  0
LINE
  5
8D6
100
AcDbEntity
  8
0
100
AcDbLine
 62
7
  6
CONTINUOUS
 10
3.0181207974
 20
-24.9907367258
 11
2.9116463822
 21
-25.0522137186
  0
LINE
  5
8D7
100
AcDbEntity
  8
0
100
AcDbLine
 62
7
  6
CONTINUOUS
 10
4.5068241601
 20
-24.3592918638
 11
4.4004535965
 21
-24.420708894
  0
LINE
  5
8D8
100
AcDbEntity
  8
0
100
AcDbLine
 62
7
  6
CONTINUOUS
 10
4.0129868379
 20
-24.7462534296
 11
3.9065715388
 21
-24.8076962897
  0
LINE
  5
8D9
100
AcDbEntity
  8
0
100
AcDbLine
 62
7
  6
CONTINUOUS
 10
4.3346440602
 20
-24.6254390141
 11
4.4410303907
 21
-24.5640128803
  0
LINE
  5
8DA
100
AcDbEntity
  8
0
100
AcDbLine
 62
7
  6
CONTINUOUS
 10
4.2345556489
 20
-24.8741844842
 11
4.1281403497
 21
-24.9356273442
  0
LINE
  5
8DB
100
AcDbEntity
  8
0
100
AcDbLine
 62
7
  6
CONTINUOUS
 10
3.666928628
 20
-25.3653504996
 11
3.5604542128
 21
-25.4268274925
  0
LINE
  5
8DC
100
AcDbEntity
  8
0
100
AcDbLine
 62
7
  6
CONTINUOUS
 10
4.6508509528
 20
-24.9435647782
 11
4.5444473545
 21
-25.0050008823
  0
LINE
  5
8DD
100
AcDbEntity
  8
0
100
AcDbLine
 62
7
  6
CONTINUOUS
 10
4.4793530219
 20
-25.2002903987
 11
4.3729248311
 21
-25.2617407022
  0
LINE
  5
8DE
100
AcDbEntity
  8
0
100
AcDbLine
 62
7
  6
CONTINUOUS
 10
4.7113230949
 20
-25.9683707754
 11
4.6048486797
 21
-26.0298477683
  0
LINE
  5
8DF
100
AcDbEntity
  8
0
100
AcDbLine
 62
7
  6
CONTINUOUS
 10
4.6619140364
 20
-24.976505896
 11
4.6594641614
 21
-24.9778972096
  0
LINE
  5
8E0
100
AcDbEntity
  8
0
100
AcDbLine
 62
7
  6
CONTINUOUS
 10
-11.304658498
 20
-8.8746091752
 11
-11.2967271157
 21
-8.8710235068
  0
LINE
  5
8E1
100
AcDbEntity
  8
RACCORDO
100
AcDbLine
 62
7
  6
CONTINUOUS
 10
-23.3750557342
 20
-5.0506049333
 11
-23.3428211961
 21
-5.0368571853
  0
LINE
  5
8E2
100
AcDbEntity
  8
RACCORDO
100
AcDbLine
 62
7
  6
CONTINUOUS
 10
36.7418325144
 20
20.5938797242
 11
36.7718716011
 21
20.6063640449
  0
LINE
  5
8E3
100
AcDbEntity
  8
RACCORDO
100
AcDbLine
 62
7
  6
CONTINUOUS
 10
-23.4055330608
 20
-5.0630302969
 11
-23.3750557342
 21
-5.0506049333
  0
LINE
  5
8E4
100
AcDbEntity
  8
RACCORDO
100
AcDbLine
 62
7
  6
CONTINUOUS
 10
36.7718716011
 20
20.6063640449
 11
36.798798389
 21
20.6167971302
  0
LINE
  5
8E5
100
AcDbEntity
  8
RACCORDO
100
AcDbLine
 62
7
  6
CONTINUOUS
 10
-23.4340335637
 20
-5.074043742
 11
-23.4055330608
 21
-5.0630302969
  0
LINE
  5
8E6
100
AcDbEntity
  8
RACCORDO
100
AcDbLine
 62
7
  6
CONTINUOUS
 10
-23.1235134776
 20
-4.3810989553
 11
-23.0870004177
 21
-4.3673366182
  0
LINE
  5
8E7
100
AcDbEntity
  8
RACCORDO
100
AcDbLine
 62
7
  6
CONTINUOUS
 10
36.798798389
 20
20.6167971302
 11
36.8223242123
 21
20.6255410973
  0
LINE
  5
8E8
100
AcDbEntity
  8
RACCORDO
100
AcDbLine
 62
7
  6
CONTINUOUS
 10
36.8223242123
 20
20.6255410973
 11
36.8425396983
 21
20.6328656303
  0
LINE
  5
8E9
100
AcDbEntity
  8
RACCORDO
100
AcDbLine
 62
7
  6
CONTINUOUS
 10
24.5087479351
 20
-32.4064052609
 11
24.5350981557
 21
-32.3884518697
  0
LINE
  5
8EA
100
AcDbEntity
  8
RACCORDO
100
AcDbLine
 62
7
  6
CONTINUOUS
 10
24.8737847514
 20
-33.0597953328
 11
24.8379310194
 21
-33.0833326377
  0
LINE
  5
8EB
100
AcDbEntity
  8
0
100
AcDbLine
 62
7
  6
CONTINUOUS
 10
22.9643380533
 20
-29.1038125602
 11
22.9177679514
 21
-29.1336200455
  0
LINE
  5
8EC
100
AcDbEntity
  8
0
100
AcDbLine
 62
7
  6
CONTINUOUS
 10
36.4583738282
 20
-19.013575554
 11
36.4463260789
 21
-19.0210788745
  0
LINE
  5
8ED
100
AcDbEntity
  8
0
100
AcDbLine
 62
7
  6
CONTINUOUS
 10
22.7845848066
 20
-28.5050728496
 11
22.3153662014
 21
-28.785800825
  0
LINE
  5
8EE
100
AcDbEntity
  8
0
100
AcDbLine
 62
7
  6
CONTINUOUS
 10
22.9643380533
 20
-28.8093850007
 11
22.6656808345
 21
-28.9880681036
  0
LINE
  5
8EF
100
AcDbEntity
  8
0
100
AcDbLine
 62
7
  6
CONTINUOUS
 10
4.3310305269
 20
-24.6274128602
 11
4.3346513886
 21
-24.6254504541
  0
LINE
  5
8F0
100
AcDbEntity
  8
0
100
AcDbLine
 62
7
  6
CONTINUOUS
 10
4.6594641614
 20
-24.9778972096
 11
4.6508456078
 21
-24.9824779702
  0
LINE
  5
8F1
100
AcDbEntity
  8
0
100
AcDbLine
 62
7
  6
CONTINUOUS
 10
4.6508456078
 20
-24.9824779702
 11
4.6423465895
 21
-24.9866890295
  0
LINE
  5
8F2
100
AcDbEntity
  8
0
100
AcDbLine
 62
7
  6
CONTINUOUS
 10
-11.2967024325
 20
-8.8706582372
 11
-11.276167004
 21
-8.8620103634
  0
LINE
  5
8F3
100
AcDbEntity
  8
0
100
AcDbLine
 62
7
  6
CONTINUOUS
 10
-10.6540576194
 20
-8.8933026565
 11
-10.6390491365
 21
-8.8871861065
  0
LINE
  5
8F4
100
AcDbEntity
  8
0
100
AcDbLine
 62
7
  6
CONTINUOUS
 10
-9.013934652
 20
-9.8253273041
 11
-9.0290239016
 21
-9.8314612566
  0
LINE
  5
8F5
100
AcDbEntity
  8
RACCORDO
100
AcDbLine
 62
7
  6
CONTINUOUS
 10
-23.4603518754
 20
-5.0835659086
 11
-23.4340335637
 21
-5.074043742
  0
LINE
  5
8F6
100
AcDbEntity
  8
RACCORDO
100
AcDbLine
 62
7
  6
CONTINUOUS
 10
-23.4842983527
 20
-5.0915281821
 11
-23.4603518754
 21
-5.0835659086
  0
LINE
  5
8F7
100
AcDbEntity
  8
RACCORDO
100
AcDbLine
 62
7
  6
CONTINUOUS
 10
34.3438917787
 20
18.0513171809
 11
34.3631023735
 21
18.0568081234
  0
LINE
  5
8F8
100
AcDbEntity
  8
RACCORDO
100
AcDbLine
 62
7
  6
CONTINUOUS
 10
33.8834389066
 20
-53.9029911301
 11
33.8984661144
 21
-53.8912625688
  0
LINE
  5
8F9
100
AcDbEntity
  8
RACCORDO
100
AcDbLine
 62
7
  6
CONTINUOUS
 10
34.2296985015
 20
-54.0042890673
 11
34.2530139405
 21
-53.9867289194
  0
LINE
  5
8FA
100
AcDbEntity
  8
0
100
AcDbLine
 62
7
  6
CONTINUOUS
 10
20.5151466554
 20
-27.246965875
 11
20.0596192913
 21
-27.4833608302
  0
LINE
  5
8FB
100
AcDbEntity
  8
0
100
AcDbLine
 62
7
  6
CONTINUOUS
 10
20.633386204
 20
-27.2629977373
 11
20.1302108537
 21
-27.5241195136
  0
LINE
  5
8FC
100
AcDbEntity
  8
0
100
AcDbLine
 62
7
  6
CONTINUOUS
 10
21.1506341001
 20
-27.273332245
 11
21.165747534
 21
-27.2656593562
  0
LINE
  5
8FD
100
AcDbEntity
  8
0
100
AcDbLine
 62
7
  6
CONTINUOUS
 10
22.7907812518
 20
-28.2038179564
 11
22.775556211
 21
-28.2115419068
  0
LINE
  5
8FE
100
AcDbEntity
  8
0
100
AcDbLine
 62
7
  6
CONTINUOUS
 10
20.5150434011
 20
-27.2470195535
 11
20.5231027209
 21
-27.243014937
  0
LINE
  5
8FF
100
AcDbEntity
  8
0
100
AcDbLine
 62
7
  6
CONTINUOUS
 10
4.6423465895
 20
-24.9866890295
 11
4.6339875826
 21
-24.9905493056
  0
LINE
  5
900
100
AcDbEntity
  8
RACCORDO
100
AcDbLine
 62
7
  6
CONTINUOUS
 10
24.9072072241
 20
3.9828374346
 11
24.8839415939
 21
3.9752682762
  0
LINE
  5
901
100
AcDbEntity
  8
0
100
AcDbLine
 62
7
  6
CONTINUOUS
 10
-11.276167004
 20
-8.8620103634
 11
-11.2549123027
 21
-8.8552169858
  0
LINE
  5
902
100
AcDbEntity
  8
RACCORDO
100
AcDbLine
 62
7
  6
CONTINUOUS
 10
-23.1616693968
 20
-4.3930049621
 11
-23.1235134776
 21
-4.3810989553
  0
LINE
  5
903
100
AcDbEntity
  8
0
100
AcDbLine
 62
7
  6
CONTINUOUS
 10
-10.6390491365
 20
-8.8871861065
 11
-10.6242572159
 21
-8.8826800944
  0
LINE
  5
904
100
AcDbEntity
  8
0
100
AcDbLine
 62
7
  6
CONTINUOUS
 10
-11.2967271157
 20
-8.8710235068
 11
-11.2847641956
 21
-8.8673901818
  0
LINE
  5
905
100
AcDbEntity
  8
RACCORDO
100
AcDbLine
 62
7
  6
CONTINUOUS
 10
24.8839415939
 20
3.9752682762
 11
24.8633879436
 21
3.9690745559
  0
LINE
  5
906
100
AcDbEntity
  8
RACCORDO
100
AcDbLine
 62
7
  6
CONTINUOUS
 10
34.3438962316
 20
-53.5954547482
 11
34.3631070906
 21
-53.5826304984
  0
LINE
  5
907
100
AcDbEntity
  8
RACCORDO
100
AcDbLine
 62
7
  6
CONTINUOUS
 10
24.8379310194
 20
-33.0833326377
 11
24.7996402053
 21
-33.1027923659
  0
LINE
  5
908
100
AcDbEntity
  8
RACCORDO
100
AcDbLine
 62
7
  6
CONTINUOUS
 10
24.91492289
 20
-32.4422093353
 11
24.8920394241
 21
-32.4536232336
  0
LINE
  5
909
100
AcDbEntity
  8
0
100
AcDbLine
 62
7
  6
CONTINUOUS
 10
36.4463260789
 20
-19.0210788745
 11
36.4344429106
 21
-19.0264908942
  0
LINE
  5
90A
100
AcDbEntity
  8
0
100
AcDbLine
 62
7
  6
CONTINUOUS
 10
20.5151466554
 20
-27.246965875
 11
20.5230780377
 21
-27.2433802066
  0
LINE
  5
90B
100
AcDbEntity
  8
0
100
AcDbLine
 62
7
  6
CONTINUOUS
 10
4.6339875826
 20
-24.9905493056
 11
4.6257479366
 21
-24.9940399968
  0
LINE
  5
90C
100
AcDbEntity
  8
0
100
AcDbLine
 62
7
  6
CONTINUOUS
 10
20.5231027209
 20
-27.243014937
 11
20.5436381494
 21
-27.2343670631
  0
LINE
  5
90D
100
AcDbEntity
  8
0
100
AcDbLine
 62
7
  6
CONTINUOUS
 10
4.3196838601
 20
-24.6321845258
 11
4.3310305269
 21
-24.6274128602
  0
LINE
  5
90E
100
AcDbEntity
  8
0
100
AcDbLine
 62
7
  6
CONTINUOUS
 10
4.6257479366
 20
-24.9940399968
 11
4.6098083231
 21
-25.000419195
  0
LINE
  5
90F
100
AcDbEntity
  8
0
100
AcDbLine
 62
7
  6
CONTINUOUS
 10
4.6098083231
 20
-25.000419195
 11
4.6021082489
 21
-25.0033077731
  0
LINE
  5
910
100
AcDbEntity
  8
0
100
AcDbLine
 62
7
  6
CONTINUOUS
 10
-8.9990935608
 20
-9.82082919
 11
-9.013934652
 21
-9.8253273041
  0
LINE
  5
911
100
AcDbEntity
  8
RACCORDO
100
AcDbLine
 62
7
  6
CONTINUOUS
 10
33.8669400851
 20
-53.9128130266
 11
33.8834389066
 21
-53.9029911301
  0
LINE
  5
912
100
AcDbEntity
  8
RACCORDO
100
AcDbLine
 62
7
  6
CONTINUOUS
 10
34.2045245475
 20
-54.0190033523
 11
34.2296985015
 21
-54.0042890673
  0
LINE
  5
913
100
AcDbEntity
  8
RACCORDO
100
AcDbLine
 62
7
  6
CONTINUOUS
 10
34.3233929352
 20
-53.6072712031
 11
34.3438962316
 21
-53.5954547482
  0
LINE
  5
914
100
AcDbEntity
  8
0
100
AcDbLine
 62
7
  6
CONTINUOUS
 10
21.165747534
 20
-27.2656593562
 11
21.1807560169
 21
-27.2595428063
  0
LINE
  5
915
100
AcDbEntity
  8
0
100
AcDbLine
 62
7
  6
CONTINUOUS
 10
22.8058705014
 20
-28.1976840038
 11
22.7907812518
 21
-28.2038179564
  0
LINE
  5
916
100
AcDbEntity
  8
0
100
AcDbLine
 62
7
  6
CONTINUOUS
 10
36.3462672362
 20
-18.1424007655
 11
36.7738970427
 21
-17.9895354472
  0
LINE
  5
917
100
AcDbEntity
  8
0
100
AcDbLine
 62
7
  6
CONTINUOUS
 10
4.7055316045
 20
-24.9428228607
 11
4.7008098443
 21
-24.9443289183
  0
LINE
  5
918
100
AcDbEntity
  8
0
100
AcDbLine
 62
7
  6
CONTINUOUS
 10
4.6021082489
 20
-25.0033077731
 11
4.5944081142
 21
-25.0057639355
  0
LINE
  5
919
100
AcDbEntity
  8
RACCORDO
100
AcDbLine
 62
7
  6
CONTINUOUS
 10
34.3017431798
 20
-53.6179957328
 11
34.3233929352
 21
-53.6072712031
  0
LINE
  5
91A
100
AcDbEntity
  8
RACCORDO
100
AcDbLine
 62
7
  6
CONTINUOUS
 10
34.1958770976
 20
-54.0232027759
 11
34.2045245475
 21
-54.0190033523
  0
LINE
  5
91B
100
AcDbEntity
  8
RACCORDO
100
AcDbLine
 62
7
  6
CONTINUOUS
 10
24.7996402053
 20
-33.1027923659
 11
24.7587492563
 21
-33.118244206
  0
LINE
  5
91C
100
AcDbEntity
  8
RACCORDO
100
AcDbLine
 62
7
  6
CONTINUOUS
 10
24.8920394241
 20
-32.4536232336
 11
24.8676493614
 21
-32.4625138615
  0
LINE
  5
91D
100
AcDbEntity
  8
0
100
AcDbLine
 62
7
  6
CONTINUOUS
 10
20.5436381494
 20
-27.2343670631
 11
20.5648928507
 21
-27.2275736856
  0
LINE
  5
91E
100
AcDbEntity
  8
0
100
AcDbLine
 62
7
  6
CONTINUOUS
 10
21.1807560169
 20
-27.2595428063
 11
21.1955479375
 21
-27.2550367942
  0
LINE
  5
91F
100
AcDbEntity
  8
0
100
AcDbLine
 62
7
  6
CONTINUOUS
 10
20.5230780377
 20
-27.2433802066
 11
20.5350409578
 21
-27.2397468815
  0
LINE
  5
920
100
AcDbEntity
  8
0
100
AcDbLine
 62
7
  6
CONTINUOUS
 10
22.8207115926
 20
-28.1931858898
 11
22.8058705014
 21
-28.1976840038
  0
LINE
  5
921
100
AcDbEntity
  8
0
100
AcDbLine
 62
7
  6
CONTINUOUS
 10
4.7008098443
 20
-24.9443289183
 11
4.6931847297
 21
-24.9465107199
  0
LINE
  5
922
100
AcDbEntity
  8
0
100
AcDbLine
 62
7
  6
CONTINUOUS
 10
4.5944081142
 20
-25.0057639355
 11
4.5867825523
 21
-25.0079459914
  0
LINE
  5
923
100
AcDbEntity
  8
RACCORDO
100
AcDbLine
 62
7
  6
CONTINUOUS
 10
34.3631070906
 20
-53.5826304984
 11
36.2082116177
 21
-52.729487172
  0
LINE
  5
924
100
AcDbEntity
  8
RACCORDO
100
AcDbLine
 62
7
  6
CONTINUOUS
 10
34.1958360489
 20
-54.0232217606
 11
35.9747524633
 21
-53.2006826334
  0
LINE
  5
925
100
AcDbEntity
  8
RACCORDO
100
AcDbLine
 62
7
  6
CONTINUOUS
 10
34.183501244
 20
-54.0287043704
 11
34.195844702
 21
-54.0232138743
  0
LINE
  5
926
100
AcDbEntity
  8
RACCORDO
100
AcDbLine
 62
7
  6
CONTINUOUS
 10
33.8491448592
 20
-53.9206464781
 11
33.8669400851
 21
-53.9128130266
  0
LINE
  5
927
100
AcDbEntity
  8
RACCORDO
100
AcDbLine
 62
7
  6
CONTINUOUS
 10
34.2791011066
 20
-53.6275519812
 11
34.3017431798
 21
-53.6179957328
  0
LINE
  5
928
100
AcDbEntity
  8
RACCORDO
100
AcDbLine
 62
7
  6
CONTINUOUS
 10
34.1470549564
 20
-54.042504366
 11
34.183501244
 21
-54.0287043704
  0
LINE
  5
929
100
AcDbEntity
  8
RACCORDO
100
AcDbLine
 62
7
  6
CONTINUOUS
 10
34.2556279217
 20
-53.6358719101
 11
34.2791011066
 21
-53.6275519812
  0
LINE
  5
92A
100
AcDbEntity
  8
RACCORDO
100
AcDbLine
 62
7
  6
CONTINUOUS
 10
33.8300435324
 20
-53.9264731481
 11
33.8491448592
 21
-53.9206464781
  0
LINE
  5
92B
100
AcDbEntity
  8
RACCORDO
100
AcDbLine
 62
7
  6
CONTINUOUS
 10
34.2314907483
 20
-53.6428962836
 11
34.2556279217
 21
-53.6358719101
  0
LINE
  5
92C
100
AcDbEntity
  8
RACCORDO
100
AcDbLine
 62
7
  6
CONTINUOUS
 10
34.1089314642
 20
-54.0534070203
 11
34.1470549564
 21
-54.042504366
  0
ELLIPSE
  5
92D
100
AcDbEntity
  8
RACCORDO
100
AcDbEllipse
 62
7
  6
CONTINUOUS
 10
35.5001344414
 20
-52.3184128608
 30
0.0
 11
-0.5013954353
 21
0.868386877
 31
0.0
 40
0.5757524875
 41
-3.193807042
 42
-2.3576120761
  0
ELLIPSE
  5
92E
100
AcDbEntity
  8
RACCORDO
100
AcDbEllipse
 62
7
  6
CONTINUOUS
 10
35.5001344414
 20
19.5287305376
 30
0.0
 11
-0.5000243598
 21
0.8660113392
 31
0.0
 40
0.5789151826
 41
-2.3548735497
 42
-0.7868162787
  0
ELLIPSE
  5
92F
100
AcDbEntity
  8
0
100
AcDbEllipse
 62
7
  6
CONTINUOUS
 10
119.2910063477
 20
55.9018765441
 30
0.0
 11
114.8996317544
 21
126.3505868295
 31
0.0
 40
0.3765254089
 41
-3.7743605251
 42
-3.7575864559
  0
ELLIPSE
  5
930
100
AcDbEntity
  8
0
100
AcDbEllipse
 62
7
  6
CONTINUOUS
 10
113.1002835784
 20
59.4763222831
 30
0.0
 11
34.8790515577
 21
168.2218372011
 31
0.0
 40
0.7002280922
 41
-4.083553027
 42
-4.0720093448
  0
ELLIPSE
  5
931
100
AcDbEntity
  8
0
100
AcDbEllipse
 62
7
  6
CONTINUOUS
 10
118.5470728896
 20
56.3314143991
 30
0.0
 11
91.793176838
 21
140.2511436908
 31
0.0
 40
0.5363054271
 41
-3.8203221232
 42
-3.8093664661
  0
ELLIPSE
  5
932
100
AcDbEntity
  8
0
100
AcDbEllipse
 62
7
  6
CONTINUOUS
 10
122.4169397193
 20
54.0970017925
 30
0.0
 11
119.630873242
 21
123.5739552196
 31
0.0
 40
0.3382731367
 41
-3.7657029519
 42
-3.7547929514
  0
ELLIPSE
  5
933
100
AcDbEntity
  8
0
100
AcDbEllipse
 62
7
  6
CONTINUOUS
 10
118.4768392071
 20
56.3719664472
 30
0.0
 11
70.634700218
 21
152.2499801326
 31
0.0
 40
0.6282888553
 41
-3.9123018102
 42
-3.8955277411
  0
ELLIPSE
  5
934
100
AcDbEntity
  8
0
100
AcDbEllipse
 62
7
  6
CONTINUOUS
 10
114.9134547279
 20
58.4294199857
 30
0.0
 11
11.1145125674
 21
175.7752122584
 31
0.0
 40
0.7158559188
 41
-4.1973507117
 42
-4.188040463
  0
ELLIPSE
  5
935
100
AcDbEntity
  8
0
100
AcDbEllipse
 62
7
  6
CONTINUOUS
 10
123.0549119998
 20
53.7286445934
 30
0.0
 11
112.236268736
 21
127.9318388222
 31
0.0
 40
0.3975597956
 41
-3.7637364601
 42
-3.7603859388
  0
ELLIPSE
  5
936
100
AcDbEntity
  8
0
100
AcDbEllipse
 62
7
  6
CONTINUOUS
 10
118.1094985802
 20
56.5840643212
 30
0.0
 11
27.6951435486
 21
170.7397539322
 31
0.0
 40
0.7069483398
 41
-4.1183397783
 42
-4.1015657091
  0
ELLIPSE
  5
937
100
AcDbEntity
  8
0
100
AcDbEllipse
 62
7
  6
CONTINUOUS
 10
122.9695469834
 20
53.777933284
 30
0.0
 11
111.5409348807
 21
128.3466174189
 31
0.0
 40
0.4029729773
 41
-3.7734299492
 42
-3.7672052666
  0
ELLIPSE
  5
938
100
AcDbEntity
  8
0
100
AcDbEllipse
 62
7
  6
CONTINUOUS
 10
31.9997784214
 20
-11.8920665033
 30
0.0
 11
5.1478346794
 21
0.9575482268
 31
0.0
 40
0.6665647798
 41
-0.659806461
 42
-0.2750682551
  0
ELLIPSE
  5
939
100
AcDbEntity
  8
0
100
AcDbEllipse
 62
7
  6
CONTINUOUS
 10
-20.3949099001
 20
-3.4713500842
 30
0.0
 11
-0.4000194878
 21
0.6928090714
 31
0.0
 40
0.5789151826
 41
0.7867191038
 42
2.3547763749
  0
ELLIPSE
  5
93A
100
AcDbEntity
  8
RACCORDO
100
AcDbEllipse
 62
7
  6
CONTINUOUS
 10
-26.7233215127
 20
55.4557741624
 30
0.0
 11
-0.5013954353
 21
0.868386877
 31
0.0
 40
0.5757524875
 41
-0.7840766935
 42
0.0522143884
  0
ELLIPSE
  5
93B
100
AcDbEntity
  8
0
100
AcDbEllipse
 62
7
  6
CONTINUOUS
 10
118.046321284
 20
56.6205421003
 30
0.0
 11
36.2948103059
 21
167.6997948705
 31
0.0
 40
0.6986691259
 41
-4.0632503059
 42
-4.0598997846
  0
ELLIPSE
  5
93C
100
AcDbEntity
  8
0
100
AcDbEllipse
 62
7
  6
CONTINUOUS
 10
118.1663160909
 20
56.5512586027
 30
0.0
 11
39.144967187
 21
166.622327116
 31
0.0
 40
0.6952787603
 41
-4.0582033802
 42
-4.0519786976
  0
ELLIPSE
  5
93D
100
AcDbEntity
  8
0
100
AcDbEllipse
 62
7
  6
CONTINUOUS
 10
118.5760999851
 20
56.314654518
 30
0.0
 11
111.9792925869
 21
128.0850400428
 31
0.0
 40
0.3995644544
 41
-3.7774770381
 42
-3.7659333559
  0
ELLIPSE
  5
93E
100
AcDbEntity
  8
0
100
AcDbEllipse
 62
7
  6
CONTINUOUS
 10
112.3155983188
 20
59.9293897176
 30
0.0
 11
25.1749394473
 21
171.5727221992
 31
0.0
 40
0.7088651675
 41
-4.1304804737
 42
-4.1137064045
  0
ELLIPSE
  5
93F
100
AcDbEntity
  8
0
100
AcDbEllipse
 62
7
  6
CONTINUOUS
 10
31.9997784214
 20
-17.2988456742
 30
0.0
 11
5.1774686765
 21
-0.6785096723
 31
0.0
 40
0.4693271057
 41
-0.4750202125
 42
-0.0902820066
  0
ELLIPSE
  5
940
100
AcDbEntity
  8
0
100
AcDbEllipse
 62
7
  6
CONTINUOUS
 10
118.1663160909
 20
56.5512586027
 30
0.0
 11
39.1098980172
 21
166.4730536049
 31
0.0
 40
0.6952787603
 41
-4.0581356351
 42
-4.0519053363
  0
ELLIPSE
  5
941
100
AcDbEntity
  8
0
100
AcDbEllipse
 62
7
  6
CONTINUOUS
 10
118.046321284
 20
56.6205421003
 30
0.0
 11
36.2622945329
 21
167.5495560783
 31
0.0
 40
0.6986691259
 41
-4.0631746043
 42
-4.0598210564
  0
ELLIPSE
  5
942
100
AcDbEntity
  8
0
100
AcDbEllipse
 62
7
  6
CONTINUOUS
 10
122.9065112998
 20
53.8143292976
 30
0.0
 11
114.1738075272
 21
126.6060927015
 31
0.0
 40
0.3814884295
 41
-3.7739014683
 42
-3.7580834622
  0
ELLIPSE
  5
943
100
AcDbEntity
  8
0
100
AcDbEllipse
 62
7
  6
CONTINUOUS
 10
114.5234410289
 20
58.6546090075
 30
0.0
 11
10.3174595334
 21
175.8321184433
 31
0.0
 40
0.7160762854
 41
-4.1951584555
 42
-4.1843514627
  0
ELLIPSE
  5
944
100
AcDbEntity
  8
0
100
AcDbEllipse
 62
7
  6
CONTINUOUS
 10
118.3579513446
 20
56.4406108089
 30
0.0
 11
74.7266798953
 21
149.8826902858
 31
0.0
 40
0.6139811386
 41
-3.8877681049
 42
-3.8768482551
  0
ELLIPSE
  5
945
100
AcDbEntity
  8
0
100
AcDbEllipse
 62
7
  6
CONTINUOUS
 10
122.0000175747
 20
54.3377274135
 30
0.0
 11
119.0820080186
 21
123.7206245819
 31
0.0
 40
0.3418816387
 41
-3.7706765582
 42
-3.7623289378
  0
ELLIPSE
  5
946
100
AcDbEntity
  8
0
100
AcDbEllipse
 62
7
  6
CONTINUOUS
 10
118.3723950332
 20
56.4322712041
 30
0.0
 11
93.9929009386
 21
138.7583599347
 31
0.0
 40
0.5232362147
 41
-3.8175129253
 42
-3.8016949217
  0
ELLIPSE
  5
947
100
AcDbEntity
  8
0
100
AcDbEllipse
 62
7
  6
CONTINUOUS
 10
118.5760999851
 20
56.314654518
 30
0.0
 11
111.878972645
 21
127.9702912935
 31
0.0
 40
0.3995644544
 41
-3.7764422127
 42
-3.7658593517
  0
ELLIPSE
  5
948
100
AcDbEntity
  8
0
100
AcDbEllipse
 62
7
  6
CONTINUOUS
 10
112.3155983188
 20
59.9293897176
 30
0.0
 11
25.1523857375
 21
171.4190137311
 31
0.0
 40
0.7088651675
 41
-4.1294456824
 42
-4.1136276763
  0
ELLIPSE
  5
949
100
AcDbEntity
  8
0
100
AcDbEllipse
 62
7
  6
CONTINUOUS
 10
118.3723950332
 20
56.4322712041
 30
0.0
 11
94.077182749
 21
138.8827821588
 31
0.0
 40
0.5232362147
 41
-3.8185477191
 42
-3.8017736499
  0
ELLIPSE
  5
94A
100
AcDbEntity
  8
0
100
AcDbEllipse
 62
7
  6
CONTINUOUS
 10
114.5234410289
 20
58.6546090075
 30
0.0
 11
10.3267110211
 21
175.9897840662
 31
0.0
 40
0.7160762854
 41
-4.1952272933
 42
-4.1842716361
  0
ELLIPSE
  5
94B
100
AcDbEntity
  8
0
100
AcDbEllipse
 62
7
  6
CONTINUOUS
 10
118.3579513446
 20
56.4406108089
 30
0.0
 11
74.7936860181
 21
150.0170875047
 31
0.0
 40
0.6139811386
 41
-3.8878369839
 42
-3.8769269833
  0
ELLIPSE
  5
94C
100
AcDbEntity
  8
0
100
AcDbEllipse
 62
7
  6
CONTINUOUS
 10
122.0000175747
 20
54.3377274135
 30
0.0
 11
119.1887867979
 21
123.8315627285
 31
0.0
 40
0.3418816387
 41
-3.7717111746
 42
-3.7624009259
  0
ELLIPSE
  5
94D
100
AcDbEntity
  8
0
100
AcDbEllipse
 62
7
  6
CONTINUOUS
 10
122.9065112998
 20
53.8143292976
 30
0.0
 11
114.2761852079
 21
126.7196181975
 31
0.0
 40
0.3814884295
 41
-3.7749362596
 42
-3.7581621904
  0
ENDSEC
  0
SECTION
  2
OBJECTS
  0
DICTIONARY
  5
C
100
AcDbDictionary
280
0
281
1
  3
ACAD_GROUP
350
D
  3
ACAD_MLINESTYLE
350
17
  3
ACAD_LAYOUT
350
1A
  3
ACAD_PLOTSETTINGS
350
19
  3
ACAD_PLOTSTYLENAME
350
E
  0
DICTIONARY
  5
D
102
{ACAD_REACTORS
330
C
102
}
100
AcDbDictionary
280
0
281
1
  0
ACDBDICTIONARYWDFLT
  5
E
102
{ACAD_REACTORS
330
C
102
}
100
AcDbDictionary
281
1
  3
Normal
350
F
100
AcDbDictionaryWithDefault
340
F
  0
DICTIONARY
  5
17
102
{ACAD_REACTORS
330
C
102
}
100
AcDbDictionary
280
0
281
1
  3
Standard
350
18
  0
DICTIONARY
  5
19
102
{ACAD_REACTORS
330
C
102
}
100
AcDbDictionary
281
1
  0
DICTIONARY
  5
1A
102
{ACAD_REACTORS
330
C
102
}
100
AcDbDictionary
281
1
  3
Model
350
94E
  3
Layout1
350
94F
  0
ACDBPLACEHOLDER
  5
F
102
{ACAD_REACTORS
330
E
102
}
  0
MLINESTYLE
  5
18
102
{ACAD_REACTORS
330
17
102
}
100
AcDbMlineStyle
  2
STANDARD
 70
0
  3

 62
256
 51
90.0
 52
90.0
 71
2
 49
0.5
 62
256
  6
BYLAYER
 49
-0.5
 62
256
  6
BYLAYER
  0
LAYOUT
  5
94E
102
{ACAD_REACTORS
330
1A
102
}
100
AcDbPlotSettings
  1

  2
none_device
  4
ISO_A4_(297.00_x_210.00_MM)
  6

 40
0.0
 41
0.0
 42
0.0
 43
0.0
 44
297.0
 45
210.0
 46
0.0
 47
0.0
 48
0.0
 49
0.0
140
0.0
141
0.0
142
1.0
143
1.0
 70
1024
 72
1
 73
0
 74
0
  7

 75
0
147
1.0
148
0.0
149
0.0
100
AcDbLayout
  1
Model
 70
0
 71
0
 10
0.0
 20
0.0
 11
297.0
 21
210.0
 12
0.0
 22
0.0
 32
0.0
 14
0.0
 24
0.0
 34
0.0
 15
0.0
 25
0.0
 35
0.0
146
0.0
 13
0.0
 23
0.0
 33
0.0
 16
1.0
 26
0.0
 36
0.0
 17
0.0
 27
1.0
 37
0.0
 76
0
330
218
345
0
346
0
  0
LAYOUT
  5
94F
102
{ACAD_REACTORS
330
1A
102
}
100
AcDbPlotSettings
  1

  2
none_device
  4
ISO_A4_(297.00_x_210.00_MM)
  6

 40
0.0
 41
0.0
 42
0.0
 43
0.0
 44
297.0
 45
210.0
 46
0.0
 47
0.0
 48
0.0
 49
0.0
140
0.0
141
0.0
142
1.0
143
1.0
 70
0
 72
1
 73
0
 74
0
  7

 75
0
147
1.0
148
0.0
149
0.0
100
AcDbLayout
  1
Layout1
 70
0
 71
1
 10
0.0
 20
0.0
 11
297.0
 21
210.0
 12
0.0
 22
0.0
 32
0.0
 14
0.0
 24
0.0
 34
0.0
 15
0.0
 25
0.0
 35
0.0
146
0.0
 13
0.0
 23
0.0
 33
0.0
 16
1.0
 26
0.0
 36
0.0
 17
0.0
 27
1.0
 37
0.0
 76
0
330
219
345
0
346
0
  0
ENDSEC
  0
EOF
