  0
SECTION
  2
HEADER
  9
$ACADVER
  1
AC1021
  9
$DWGCODEPAGE
  3
ANSI_1252
  9
$EXTMAX
 10
297.0
 20
210.0
 30
0.0
  9
$EXTMIN
 10
0.0
 20
0.0
 30
0.0
  9
$LIMMIN
 10
0.0
 20
0.0
  9
$LIMMAX
 10
297.0
 20
210.0
  9
$VIEWCTR
 10
148.5
 20
105.0
  9
$VIEWSIZE
 40
210.0
  9
$CLAYER
  8
0
  9
$LTSCALE
 40
16.335
  9
$CELTYPE
  6
BYLAYER
  9
$DIMSCALE
 40
1.0
  9
$DIMASZ
 40
3.0
  9
$DIMEXO
 40
1.85625
  9
$DIMDLI
 40
11.286
  9
$DIMEXE
 40
5.346
  9
$DIMCEN
 40
2.673
  9
$DIMLFAC
 40
1.0
  9
$DIMBLK
  1
_FILLED
  9
$DIMTXT
 40
3.0
  9
$DIMTOL
 70
1
  9
$DIMLIM
 70
0
  9
$DIMTFAC
 40
1.0
  9
$DIMTP
 40
0.01
  9
$DIMTM
 40
0.01
  9
$PDMODE
 70
3
  9
$PDSIZE
 40
3.0
  9
$HANDSEED
  5
33B
  9
$TILEMODE
 70
1
  9
$MEASUREMENT
 70
1
  9
$INSUNITS
 70
4
  0
ENDSEC
  0
SECTION
  2
CLASSES
  0
CLASS
  1
ACDBDICTIONARYWDFLT
  2
AcDbDictionaryWithDefault
  3
AutoCAD 2000
 90
0
 91
1
280
0
281
0
  0
CLASS
  1
ACDBPLACEHOLDER
  2
AcDbPlaceHolder
  3
AutoCAD 2000
 90
0
 91
1
280
0
281
0
  0
CLASS
  1
LAYOUT
  2
AcDbLayout
  3
AutoCAD 2000
 90
0
 91
0
280
0
281
0
  0
ENDSEC
  0
SECTION
  2
TABLES
  0
TABLE
  2
VPORT
  5
8
100
AcDbSymbolTable
 70
2
  0
VPORT
  5
1F4
100
AcDbSymbolTableRecord
100
AcDbViewportTableRecord
  2
*ACTIVE
 70
0
 10
0.0
 20
0.0
 11
1.0
 21
1.0
 12
148.5
 22
105.0
 13
0.0
 23
0.0
 14
1.0
 24
1.0
 15
0.0
 25
0.0
 16
0.0
 26
0.0
 36
1.0
 17
0.0
 27
0.0
 37
0.0
 40
210.0
 41
1.4142857143
 42
50.0
 43
0.0
 44
0.0
 50
0.0
 51
0.0
 71
0
 72
100
 73
1
 74
1
 75
0
 76
0
 77
0
 78
0
  0
ENDTAB
  0
TABLE
  2
LTYPE
  5
5
100
AcDbSymbolTable
 70
6
  0
LTYPE
  5
14
100
AcDbSymbolTableRecord
100
AcDbLinetypeTableRecord
  2
BYBLOCK
 70
0
  3

 72
65
 73
0
 40
0.0
  0
LTYPE
  5
15
100
AcDbSymbolTableRecord
100
AcDbLinetypeTableRecord
  2
BYLAYER
 70
0
  3

 72
65
 73
0
 40
0.0
  0
LTYPE
  5
16
100
AcDbSymbolTableRecord
100
AcDbLinetypeTableRecord
  2
CONTINUOUS
 70
64
  3
Solid line
 72
65
 73
0
 40
0.0
  0
LTYPE
  5
1F5
100
AcDbSymbolTableRecord
100
AcDbLinetypeTableRecord
  2
CENTER
 70
64
  3
____ _ ____ _ ____ _ ____ _ ____ _ ____ _ ____
 72
65
 73
4
 40
0.6
 49
0.375
 74
0
 49
-0.075
 74
0
 49
0.075
 74
0
 49
-0.075
 74
0
  0
LTYPE
  5
1F6
100
AcDbSymbolTableRecord
100
AcDbLinetypeTableRecord
  2
HIDDEN
 70
64
  3
- - - - - - - - - - - - - - - - - - - -
 72
65
 73
2
 40
0.2
 49
0.1
 74
0
 49
-0.1
 74
0
  0
LTYPE
  5
1F7
100
AcDbSymbolTableRecord
100
AcDbLinetypeTableRecord
  2
PHANTOM
 70
64
  3
_____ _ _ _____ _ _ _____ _ _ _____
 72
65
 73
6
 40
0.8
 49
0.45
 74
0
 49
-0.05
 74
0
 49
0.1
 74
0
 49
-0.05
 74
0
 49
0.1
 74
0
 49
-0.05
 74
0
  0
LTYPE
  5
1F8
100
AcDbSymbolTableRecord
100
AcDbLinetypeTableRecord
  2
DOT
 70
64
  3
. . . . . . . . . . . . . . . . . . . .
 72
65
 73
2
 40
0.2
 49
0.1
 74
0
 49
-0.1
 74
0
  0
LTYPE
  5
1F9
100
AcDbSymbolTableRecord
100
AcDbLinetypeTableRecord
  2
DASHED
 70
64
  3
- - - - - - - - - - - - - - - - - - - -
 72
65
 73
2
 40
0.2
 49
0.1
 74
0
 49
-0.1
 74
0
  0
ENDTAB
  0
TABLE
  2
LAYER
  5
2
100
AcDbSymbolTable
 70
36
  0
LAYER
  5
10
100
AcDbSymbolTableRecord
100
AcDbLayerTableRecord
  2
0
 70
0
 62
7
  6
CONTINUOUS
370
-3
390
F
  0
LAYER
  5
1FA
100
AcDbSymbolTableRecord
100
AcDbLayerTableRecord
  2
DEFAULT_1
 70
0
 62
7
  6
CENTER
370
-3
390
F
  0
LAYER
  5
1FB
100
AcDbSymbolTableRecord
100
AcDbLayerTableRecord
  2
DEFAULT_2
 70
0
 62
7
  6
HIDDEN
370
-3
390
F
  0
LAYER
  5
1FC
100
AcDbSymbolTableRecord
100
AcDbLayerTableRecord
  2
DEFAULT_3
 70
0
 62
7
  6
PHANTOM
370
-3
390
F
  0
LAYER
  5
1FD
100
AcDbSymbolTableRecord
100
AcDbLayerTableRecord
  2
ASSI
 70
0
 62
7
  6
CONTINUOUS
370
-3
390
F
  0
LAYER
  5
1FE
100
AcDbSymbolTableRecord
100
AcDbLayerTableRecord
  2
COORDINATE
 70
0
 62
7
  6
CONTINUOUS
370
-3
390
F
  0
LAYER
  5
1FF
100
AcDbSymbolTableRecord
100
AcDbLayerTableRecord
  2
COPY_PUBLISH
 70
0
 62
7
  6
CONTINUOUS
370
-3
390
F
  0
LAYER
  5
200
100
AcDbSymbolTableRecord
100
AcDbLayerTableRecord
  2
COSMETICI
 70
0
 62
7
  6
CONTINUOUS
370
-3
390
F
  0
LAYER
  5
201
100
AcDbSymbolTableRecord
100
AcDbLayerTableRecord
  2
CURVE
 70
0
 62
7
  6
CONTINUOUS
370
-3
390
F
  0
LAYER
  5
202
100
AcDbSymbolTableRecord
100
AcDbLayerTableRecord
  2
DRAFT
 70
0
 62
7
  6
CONTINUOUS
370
-3
390
F
  0
LAYER
  5
203
100
AcDbSymbolTableRecord
100
AcDbLayerTableRecord
  2
IMPORT_IGES
 70
0
 62
7
  6
CONTINUOUS
370
-3
390
F
  0
LAYER
  5
204
100
AcDbSymbolTableRecord
100
AcDbLayerTableRecord
  2
INTFCLR_1
 70
0
 62
7
  6
CONTINUOUS
370
-3
390
F
  0
LAYER
  5
205
100
AcDbSymbolTableRecord
100
AcDbLayerTableRecord
  2
INTF_2
 70
0
 62
7
  6
CONTINUOUS
370
-3
390
F
  0
LAYER
  5
206
100
AcDbSymbolTableRecord
100
AcDbLayerTableRecord
  2
INTF_5
 70
0
 62
7
  6
CONTINUOUS
370
-3
390
F
  0
LAYER
  5
207
100
AcDbSymbolTableRecord
100
AcDbLayerTableRecord
  2
INTF_9
 70
0
 62
7
  6
CONTINUOUS
370
-3
390
F
  0
LAYER
  5
208
100
AcDbSymbolTableRecord
100
AcDbLayerTableRecord
  2
NOTE
 70
0
 62
7
  6
CONTINUOUS
370
-3
390
F
  0
LAYER
  5
209
100
AcDbSymbolTableRecord
100
AcDbLayerTableRecord
  2
PIANI
 70
0
 62
7
  6
CONTINUOUS
370
-3
390
F
  0
LAYER
  5
20A
100
AcDbSymbolTableRecord
100
AcDbLayerTableRecord
  2
PUNTI
 70
0
 62
7
  6
CONTINUOUS
370
-3
390
F
  0
LAYER
  5
20B
100
AcDbSymbolTableRecord
100
AcDbLayerTableRecord
  2
RACCORDO
 70
0
 62
7
  6
CONTINUOUS
370
-3
390
F
  0
LAYER
  5
20C
100
AcDbSymbolTableRecord
100
AcDbLayerTableRecord
  2
SIMBOLI
 70
0
 62
7
  6
CONTINUOUS
370
-3
390
F
  0
LAYER
  5
20D
100
AcDbSymbolTableRecord
100
AcDbLayerTableRecord
  2
SMUSSO
 70
0
 62
7
  6
CONTINUOUS
370
-3
390
F
  0
LAYER
  5
20E
100
AcDbSymbolTableRecord
100
AcDbLayerTableRecord
  2
SNAPLINE
 70
0
 62
7
  6
CONTINUOUS
370
-3
390
F
  0
LAYER
  5
20F
100
AcDbSymbolTableRecord
100
AcDbLayerTableRecord
  2
SUPERFICI
 70
0
 62
7
  6
CONTINUOUS
370
-3
390
F
  0
LAYER
  5
210
100
AcDbSymbolTableRecord
100
AcDbLayerTableRecord
  2
TRASH
 70
0
 62
7
  6
CONTINUOUS
370
-3
390
F
  0
LAYER
  5
211
100
AcDbSymbolTableRecord
100
AcDbLayerTableRecord
  2
XSEC_DATUMS
 70
0
 62
7
  6
CONTINUOUS
370
-3
390
F
  0
ENDTAB
  0
TABLE
  2
STYLE
  5
3
100
AcDbSymbolTable
 70
1
  0
STYLE
  5
11
100
AcDbSymbolTableRecord
100
AcDbTextStyleTableRecord
  2
STANDARD
 70
0
 40
0.0
 41
0.8
 50
0.0
 71
0
 42
0.2
  3
txt
  4

  0
STYLE
  5
212
100
AcDbSymbolTableRecord
100
AcDbTextStyleTableRecord
  2
TEXTSTYLE_1
 70
0
 40
0.0
 41
0.8
 50
0.0
 71
0
 42
0.2
  3
gdt
  4

  0
ENDTAB
  0
TABLE
  2
VIEW
  5
6
100
AcDbSymbolTable
 70
0
  0
ENDTAB
  0
TABLE
  2
UCS
  5
7
100
AcDbSymbolTable
 70
0
  0
ENDTAB
  0
TABLE
  2
APPID
  5
9
100
AcDbSymbolTable
 70
1
  0
APPID
  5
213
100
AcDbSymbolTableRecord
100
AcDbRegAppTableRecord
  2
ACAD
 70
0
  0
ENDTAB
  0
TABLE
  2
BLOCK_RECORD
  5
1
100
AcDbSymbolTable
 70
0
  0
BLOCK_RECORD
  5
214
100
AcDbSymbolTableRecord
100
AcDbBlockTableRecord
  2
*Model_Space
  0
BLOCK_RECORD
  5
215
100
AcDbSymbolTableRecord
100
AcDbBlockTableRecord
  2
*Paper_Space
  0
ENDTAB
  0
TABLE
  2
DIMSTYLE
  5
A
100
AcDbSymbolTable
 70
1
100
AcDbDimStyleTable
 71
0
  0
DIMSTYLE
105
216
100
AcDbSymbolTableRecord
100
AcDbDimStyleTableRecord
  2
STANDARD
 70
0
  3

  4

 40
1.0
 41
3.0
 42
0.0625
 43
0.38
 44
0.18
 45
0.0
 46
0.0
 47
0.01
 48
0.01
140
3.0
141
0.09
142
0.0
143
25.4
144
1.0
145
0.0
146
1.0
147
0.09
 71
1.0
 72
0.0
 73
0
 74
0
 75
0
 76
0
 77
1
 78
8
170
0
171
2
172
0
173
0
174
0
175
0
176
0
177
0
178
0
270
2
271
2
272
2
273
2
274
2
275
0
280
0
281
0
282
0
283
1
284
8
285
0
286
0
287
3
288
0
340
11
  0
ENDTAB
  0
ENDSEC
  0
SECTION
  2
BLOCKS
  0
BLOCK
  5
20
100
AcDbEntity
  8
0
100
AcDbBlockBegin
  2
*Model_Space
 70
0
 10
0.0
 20
0.0
 30
0.0
  3
*Model_Space
  1

  0
ENDBLK
  5
21
100
AcDbEntity
  8
0
100
AcDbBlockEnd
  0
BLOCK
  5
1C
100
AcDbEntity
  8
0
100
AcDbBlockBegin
  2
*Paper_Space
 70
0
 10
0.0
 20
0.0
 30
0.0
  3
*Paper_Space
  1

  0
ENDBLK
  5
1D
100
AcDbEntity
  8
0
100
AcDbBlockEnd
  0
ENDSEC
  0
SECTION
  2
ENTITIES
  0
LWPOLYLINE
  5
217
100
AcDbEntity
  8
RACCORDO
100
AcDbPolyline
 62
7
  6
CONTINUOUS
 90
18
 70
0
 10
122.9680338395
 20
133.1430662657
 10
122.911103967
 20
133.084613986
 10
122.8578931563
 20
133.022791713
 10
122.8082541705
 20
132.9581188065
 10
122.7618689106
 20
132.8907991553
 10
122.7184983175
 20
132.8209217345
 10
122.6781359887
 20
132.7488320707
 10
122.6407640013
 20
132.6747748118
 10
122.6063684796
 20
132.5988816166
 10
122.5750274431
 20
132.5214382886
 10
122.5468482915
 20
132.4427031024
 10
122.52191565
 20
132.362818631
 10
122.5003763488
 20
132.282010511
 10
122.4824350037
 20
132.2005610935
 10
122.4682657414
 20
132.1185205307
 10
122.458132546
 20
132.0359389998
 10
122.4523778818
 20
131.9531033346
 10
122.4517096336
 20
131.9339475358
  0
LINE
  5
218
100
AcDbEntity
  8
RACCORDO
100
AcDbLine
 62
7
  6
CONTINUOUS
 10
126.1030690596
 20
136.1036594959
 11
122.9680338395
 21
133.1430662657
  0
LINE
  5
219
100
AcDbEntity
  8
RACCORDO
100
AcDbLine
 62
253
  6
CONTINUOUS
 10
126.4314115488
 20
136.1369105313
 11
123.3039486654
 21
133.1835431184
  0
LINE
  5
21A
100
AcDbEntity
  8
RACCORDO
100
AcDbLine
 62
7
  6
CONTINUOUS
 10
122.976113164
 20
133.1507696368
 11
122.9756675414
 21
133.1503500322
  0
LWPOLYLINE
  5
21B
100
AcDbEntity
  8
RACCORDO
100
AcDbPolyline
 62
253
  6
CONTINUOUS
 90
22
 70
0
 10
123.3039486391
 20
133.1835430936
 10
123.254777581
 20
133.1382737458
 10
123.2059996736
 20
133.0885432134
 10
123.1578734997
 20
133.034591565
 10
123.1106719945
 20
132.9766740662
 10
123.0646267873
 20
132.9150769347
 10
123.0199273468
 20
132.8501147261
 10
122.9768066035
 20
132.7820984154
 10
122.9354966183
 20
132.7113601806
 10
122.8961728447
 20
132.6382685387
 10
122.8590410082
 20
132.5631815747
 10
122.8242985676
 20
132.4864616691
 10
122.7920906465
 20
132.4084991913
 10
122.7625838753
 20
132.3296745505
 10
122.7359364587
 20
132.2503711272
 10
122.7122592623
 20
132.1709904296
 10
122.6916746424
 20
132.0919272062
 10
122.6742916376
 20
132.0135599701
 10
122.6601786723
 20
131.9362644673
 10
122.6494043347
 20
131.8604171227
 10
122.6420345612
 20
131.7863926163
 10
122.6381096609
 20
131.7145548969
  0
LINE
  5
21C
100
AcDbEntity
  8
RACCORDO
100
AcDbLine
 62
7
  6
CONTINUOUS
 10
131.8592720296
 20
132.1323817124
 11
133.2324315605
 21
133.4054675693
  0
LINE
  5
21D
100
AcDbEntity
  8
DRAFT
100
AcDbLine
 62
7
  6
CONTINUOUS
 10
133.2324315605
 20
132.2037270171
 11
132.598835155
 21
131.616306106
  0
LWPOLYLINE
  5
21E
100
AcDbEntity
  8
RACCORDO
100
AcDbPolyline
 62
253
  6
CONTINUOUS
 90
12
 70
0
 10
122.6114108957
 20
97.523465128
 10
122.6153338066
 20
97.4576600596
 10
122.6227023515
 20
97.3951439678
 10
122.6334762203
 20
97.3362257758
 10
122.6475894523
 20
97.2812038611
 10
122.6649734577
 20
97.230343685
 10
122.6855598378
 20
97.1838794177
 10
122.7092395192
 20
97.1420439018
 10
122.7358901164
 20
97.1050515046
 10
122.7654007903
 20
97.0730779806
 10
122.7976132811
 20
97.0462892862
 10
122.8317373724
 20
97.0252085787
  0
LWPOLYLINE
  5
21F
100
AcDbEntity
  8
RACCORDO
100
AcDbPolyline
 62
7
  6
CONTINUOUS
 90
14
 70
0
 10
122.4251331392
 20
97.7490280817
 10
122.426146545
 20
97.7236583061
 10
122.4340085501
 20
97.6340345974
 10
122.4481313907
 20
97.5499975344
 10
122.4682043343
 20
97.471424252
 10
122.4940076491
 20
97.398012305
 10
122.5253665332
 20
97.3296530145
 10
122.5619551546
 20
97.2665609458
 10
122.6034896727
 20
97.2088142615
 10
122.6496913752
 20
97.1565334136
 10
122.7000131873
 20
97.1100967994
 10
122.7539528984
 20
97.0696923732
 10
122.8111665141
 20
97.0353774272
 10
122.8455264062
 20
97.0183922081
  0
LWPOLYLINE
  5
220
100
AcDbEntity
  8
RACCORDO
100
AcDbPolyline
 62
7
  6
CONTINUOUS
 90
10
 70
0
 10
122.177734382
 20
114.1577998368
 10
122.1819160637
 20
112.3669444976
 10
122.192010839
 20
110.5146924224
 10
122.2079694347
 20
108.6674066571
 10
122.2297924553
 20
106.8251279853
 10
122.2574801692
 20
104.9878945595
 10
122.2910328336
 20
103.1557435799
 10
122.3304503134
 20
101.328716159
 10
122.3757318641
 20
99.5068588779
 10
122.4251213054
 20
97.7492106895
  0
LWPOLYLINE
  5
221
100
AcDbEntity
  8
RACCORDO
100
AcDbPolyline
 62
7
  6
CONTINUOUS
 90
10
 70
0
 10
122.4517127184
 20
131.9342796355
 10
122.402401956
 20
130.0967965196
 10
122.3570446907
 20
128.1966133095
 10
122.3175583358
 20
126.3013999168
 10
122.2839438006
 20
124.4112033704
 10
122.2562013645
 20
122.5260645803
 10
122.2343310216
 20
120.6460214327
 10
122.218332729
 20
118.7711123073
 10
122.208206043
 20
116.9013771589
 10
122.2039966674
 20
115.097799551
  0
LWPOLYLINE
  5
222
100
AcDbEntity
  8
RACCORDO
100
AcDbPolyline
 62
253
  6
CONTINUOUS
 90
10
 70
0
 10
122.6381095468
 20
131.7145548603
 10
122.584301963
 20
129.7599123084
 10
122.5375884594
 20
127.8422117224
 10
122.4976593728
 20
125.9612574274
 10
122.4645582589
 20
124.1377804029
 10
122.4375085144
 20
122.350556272
 10
122.4155569964
 20
120.536912346
 10
122.3988403211
 20
118.6763432935
 10
122.3879412529
 20
116.790004502
 10
122.3831624682
 20
114.8781821765
  0
LINE
  5
223
100
AcDbEntity
  8
RACCORDO
100
AcDbLine
 62
7
  6
CONTINUOUS
 10
135.5538855157
 20
130.6485416432
 11
136.9972566964
 21
131.8934289187
  0
LWPOLYLINE
  5
224
100
AcDbEntity
  8
RACCORDO
100
AcDbPolyline
 62
253
  6
CONTINUOUS
 90
16
 70
0
 10
158.2487450283
 20
83.2107081958
 10
158.2920715552
 20
83.1975618312
 10
158.3374807327
 20
83.1870891199
 10
158.3845325479
 20
83.179391542
 10
158.432771071
 20
83.1745436865
 10
158.4817288728
 20
83.1725925291
 10
158.5309315547
 20
83.1735569764
 10
158.5799023448
 20
83.1774276829
 10
158.6281667185
 20
83.1841671416
 10
158.6752569962
 20
83.1937100476
 10
158.7207168754
 20
83.2059639305
 10
158.7641058519
 20
83.2208100507
 10
158.8050034886
 20
83.2381045501
 10
158.8430134893
 20
83.2576798457
 10
158.8777675388
 20
83.2793462539
 10
158.908928872
 20
83.3028938282
  0
LWPOLYLINE
  5
225
100
AcDbEntity
  8
RACCORDO
100
AcDbPolyline
 62
7
  6
CONTINUOUS
 90
12
 70
0
 10
158.4937680492
 20
82.7011743951
 10
158.5258962075
 20
82.6907970345
 10
158.5935855672
 20
82.674573195
 10
158.6633620098
 20
82.6653224238
 10
158.7347010074
 20
82.6632570808
 10
158.8074333532
 20
82.6685931418
 10
158.881118692
 20
82.6815789524
 10
158.9550768119
 20
82.7023358998
 10
159.0290968673
 20
82.7310576103
 10
159.103016495
 20
82.7680210809
 10
159.1764398675
 20
82.8133640224
 10
159.1901048119
 20
82.8227963682
  0
LWPOLYLINE
  5
226
100
AcDbEntity
  8
RACCORDO
100
AcDbPolyline
 62
253
  6
CONTINUOUS
 90
10
 70
0
 10
122.1777348603
 20
114.1575142903
 10
122.1800339556
 20
114.130375994
 10
122.1870345993
 20
114.102713854
 10
122.1986696067
 20
114.0755813687
 10
122.2148255977
 20
114.0492380158
 10
122.2353504524
 20
114.0239280756
 10
122.26005751
 20
113.9998838896
 10
122.2887192635
 20
113.9773313941
 10
122.3210652308
 20
113.9564868077
 10
122.3567920193
 20
113.9375483314
  0
LWPOLYLINE
  5
227
100
AcDbEntity
  8
RACCORDO
100
AcDbPolyline
 62
7
  6
CONTINUOUS
 90
8
 70
0
 10
122.20400982
 20
115.097972199
 10
122.2051933096
 20
115.0654113321
 10
122.2107425393
 20
115.021368679
 10
122.2208111294
 20
114.9780058364
 10
122.2354072347
 20
114.935542159
 10
122.2544367969
 20
114.8944845804
 10
122.2776875005
 20
114.8554025846
 10
122.304305151
 20
114.8195830193
  0
LWPOLYLINE
  5
228
100
AcDbEntity
  8
RACCORDO
100
AcDbPolyline
 62
253
  6
CONTINUOUS
 90
10
 70
0
 10
122.3567920126
 20
113.93754833
 10
122.3607490642
 20
112.2391823493
 10
122.3699241814
 20
110.5183446149
 10
122.3845608575
 20
108.775269876
 10
122.4047420896
 20
107.0229888448
 10
122.4308010821
 20
105.2488893864
 10
122.4637299366
 20
103.4150636933
 10
122.5044609089
 20
101.5094200794
 10
122.5534576745
 20
99.5453366738
 10
122.6114107731
 20
97.5234650678
  0
LWPOLYLINE
  5
229
100
AcDbEntity
  8
RACCORDO
100
AcDbPolyline
 62
253
  6
CONTINUOUS
 90
10
 70
0
 10
149.441726265
 20
86.5048913842
 10
150.4364556562
 20
86.1088023445
 10
151.4196894876
 20
85.7234995269
 10
152.391129837
 20
85.3487883421
 10
153.3399054137
 20
84.9884564921
 10
154.2762168686
 20
84.6382426842
 10
155.2318328421
 20
84.2862759145
 10
156.2176581502
 20
83.9289173096
 10
157.2232373725
 20
83.5703210484
 10
158.2487450271
 20
83.2107082068
  0
LWPOLYLINE
  5
22A
100
AcDbEntity
  8
RACCORDO
100
AcDbPolyline
 62
7
  6
CONTINUOUS
 90
10
 70
0
 10
149.6818161342
 20
86.0056932823
 10
150.5957358705
 20
85.6413800202
 10
151.5802054856
 20
85.2547143087
 10
152.5690894167
 20
84.8722573482
 10
153.5623194685
 20
84.4940320958
 10
154.5598341266
 20
84.1200577155
 10
155.5615757688
 20
83.750351267
 10
156.5674859652
 20
83.3849300136
 10
157.5775024315
 20
83.0238115777
 10
158.4946643535
 20
82.7008592221
  0
LINE
  5
22B
100
AcDbEntity
  8
RACCORDO
100
AcDbLine
 62
7
  6
CONTINUOUS
 10
131.2509720018
 20
93.407935797
 11
149.6818161147
 21
86.0056932875
  0
LWPOLYLINE
  5
22C
100
AcDbEntity
  8
RACCORDO
100
AcDbPolyline
 62
253
  6
CONTINUOUS
 90
3
 70
0
 10
131.0108052685
 20
93.9071647718
 10
143.2981795368
 20
88.9720914379
 10
149.441726265
 20
86.5048913842
  0
LWPOLYLINE
  5
22D
100
AcDbEntity
  8
RACCORDO
100
AcDbPolyline
 62
253
  6
CONTINUOUS
 90
13
 70
0
 10
158.4937615313
 20
82.7011767221
 10
158.4598803173
 20
82.7160083633
 10
158.4265014695
 20
82.7369245372
 10
158.3955978978
 20
82.7631875406
 10
158.3673112269
 20
82.7946694777
 10
158.3417654505
 20
82.8312181544
 10
158.3191076342
 20
82.872643267
 10
158.2994437088
 20
82.9187370571
 10
158.2828557127
 20
82.9692775399
 10
158.2694362528
 20
83.0240208213
 10
158.2592527902
 20
83.0827018921
 10
158.2523452881
 20
83.1450328164
 10
158.2487450544
 20
83.210708286
  0
LWPOLYLINE
  5
22E
100
AcDbEntity
  8
RACCORDO
100
AcDbPolyline
 62
7
  6
CONTINUOUS
 90
10
 70
0
 10
122.8450066122
 20
97.0186269716
 10
123.6767782278
 20
96.6394910735
 10
124.6098870715
 20
96.2201330557
 10
125.5491656242
 20
95.8042595562
 10
126.4945635271
 20
95.3918963786
 10
127.4460330216
 20
94.9830674753
 10
128.4035277876
 20
94.5777961553
 10
129.3669927814
 20
94.1761083654
 10
130.3363643821
 20
93.778032594
 10
131.2509720035
 20
93.4079357991
  0
LWPOLYLINE
  5
22F
100
AcDbEntity
  8
RACCORDO
100
AcDbPolyline
 62
253
  6
CONTINUOUS
 90
10
 70
0
 10
122.6114107731
 20
97.5234650678
 10
123.452676123
 20
97.1384296838
 10
124.3117339416
 20
96.7507319969
 10
125.1887616202
 20
96.360542183
 10
126.0777179196
 20
95.9707591868
 10
126.9849278532
 20
95.5787818188
 10
127.9294269423
 20
95.1767707076
 10
128.9180302822
 20
94.762511708
 10
129.9449871793
 20
94.3391541764
 10
131.0108052685
 20
93.9071647718
  0
LWPOLYLINE
  5
230
100
AcDbEntity
  8
RACCORDO
100
AcDbPolyline
 62
253
  6
CONTINUOUS
 90
10
 70
0
 10
122.611418921
 20
97.5234712736
 10
122.5746590442
 20
97.5424892212
 10
122.5412929729
 20
97.5636541336
 10
122.5116440163
 20
97.586760928
 10
122.4859994657
 20
97.6115857048
 10
122.4646078106
 20
97.6378879182
 10
122.447676331
 20
97.6654127063
 10
122.4353690887
 20
97.6938933605
 10
122.4278053381
 20
97.72305391
 10
122.4251331392
 20
97.7490280817
  0
LWPOLYLINE
  5
231
100
AcDbEntity
  8
RACCORDO
100
AcDbPolyline
 62
253
  6
CONTINUOUS
 90
16
 70
0
 10
122.5923432273
 20
114.5162090112
 10
122.5873335383
 20
114.5112753719
 10
122.5832204943
 20
114.5061829597
 10
122.5800040956
 20
114.5009317748
 10
122.5776693097
 20
114.495467764
 10
122.5762311691
 20
114.4898449805
 10
122.5757347703
 20
114.4842255832
 10
122.5762084061
 20
114.4786113293
 10
122.5776237838
 20
114.4730004617
 10
122.5799411225
 20
114.4675498676
 10
122.5831902347
 20
114.4622618258
 10
122.5873413079
 20
114.4571340575
 10
122.5922651235
 20
114.4523166135
 10
122.5979186088
 20
114.4478595107
 10
122.6043448366
 20
114.4437127321
 10
122.6115438069
 20
114.4398762779
  0
LWPOLYLINE
  5
232
100
AcDbEntity
  8
RACCORDO
100
AcDbPolyline
 62
7
  6
CONTINUOUS
 90
10
 70
0
 10
122.3295918534
 20
114.4900266681
 10
122.3010069157
 20
114.4625627124
 10
122.2714833624
 20
114.4284181254
 10
122.2457066369
 20
114.3918034679
 10
122.2238638472
 20
114.3530731717
 10
122.2060985485
 20
114.3125470207
 10
122.1925973206
 20
114.2707471457
 10
122.1834318266
 20
114.2281573321
 10
122.1785862928
 20
114.1850920917
 10
122.1777475325
 20
114.15746462
  0
LINE
  5
233
100
AcDbEntity
  8
RACCORDO
100
AcDbLine
 62
7
  6
CONTINUOUS
 10
122.5275443392
 20
114.6641488587
 11
122.3301743503
 21
114.4905566391
  0
LINE
  5
234
100
AcDbEntity
  8
RACCORDO
100
AcDbLine
 62
253
  6
CONTINUOUS
 10
122.678625885
 20
114.5920969319
 11
122.5923432273
 21
114.5162090112
  0
LWPOLYLINE
  5
235
100
AcDbEntity
  8
RACCORDO
100
AcDbPolyline
 62
253
  6
CONTINUOUS
 90
16
 70
0
 10
122.6115438069
 20
114.4398762779
 10
122.5848450164
 20
114.4195097982
 10
122.5584576875
 20
114.3958265032
 10
122.5326681745
 20
114.3690834031
 10
122.5077563445
 20
114.3395707133
 10
122.4839925398
 20
114.3076087046
 10
122.4616346446
 20
114.2735442276
 10
122.440925286
 20
114.2377469491
 10
122.4220892014
 20
114.20060534
 10
122.4053307992
 20
114.1625224598
 10
122.3908319413
 20
114.1239115828
 10
122.3787499686
 20
114.085191713
 10
122.3692159945
 20
114.0467830372
 10
122.3623334814
 20
114.0091023653
 10
122.3581771179
 20
113.9725586065
 10
122.3567920089
 20
113.9375483328
  0
LWPOLYLINE
  5
236
100
AcDbEntity
  8
RACCORDO
100
AcDbPolyline
 62
253
  6
CONTINUOUS
 90
5
 70
0
 10
127.174176534
 20
112.8938778888
 10
127.1619466116
 20
112.8662381045
 10
127.1463976349
 20
112.841413154
 10
127.1277025213
 20
112.8196792593
 10
127.1127866435
 20
112.8063819672
  0
LWPOLYLINE
  5
237
100
AcDbEntity
  8
RACCORDO
100
AcDbPolyline
 62
253
  6
CONTINUOUS
 90
22
 70
0
 10
126.6208145563
 20
111.9789866774
 10
126.6511551494
 20
111.8760813694
 10
126.6866440918
 20
111.7731808284
 10
126.727284494
 20
111.6702873502
 10
126.7732387834
 20
111.5669580913
 10
126.824352919
 20
111.4636421638
 10
126.8801551263
 20
111.3616796366
 10
126.9407489242
 20
111.2610752845
 10
127.0060403295
 20
111.1618314728
 10
127.0752593964
 20
111.0652831551
 10
127.1484757777
 20
110.9714911448
 10
127.2256290893
 20
110.8804016192
 10
127.3057513865
 20
110.79317531
 10
127.3889094719
 20
110.7098759912
 10
127.4750441644
 20
110.630445708
 10
127.5629946443
 20
110.5558596053
 10
127.6527773078
 20
110.486223813
 10
127.7443802643
 20
110.4214357185
 10
127.8365957114
 20
110.3621538489
 10
127.9290202106
 20
110.3085970975
 10
128.0220574918
 20
110.2605469018
 10
128.1157083054
 20
110.2180039141
  0
LWPOLYLINE
  5
238
100
AcDbEntity
  8
RACCORDO
100
AcDbPolyline
 62
253
  6
CONTINUOUS
 90
22
 70
0
 10
127.1741765343
 20
112.1328882857
 10
127.1979391714
 20
112.0515782382
 10
127.2258699805
 20
111.9696655113
 10
127.2579305145
 20
111.887436456
 10
127.2940825399
 20
111.8051260037
 10
127.3342396092
 20
111.7230963953
 10
127.3782415037
 20
111.6418300665
 10
127.4259561085
 20
111.5616256833
 10
127.4772361321
 20
111.4827932969
 10
127.5318299994
 20
111.4058160399
 10
127.5895293968
 20
111.3309894959
 10
127.6501308644
 20
111.2585836336
 10
127.7133358359
 20
111.1890085094
 10
127.7789075271
 20
111.1225018686
 10
127.8465815966
 20
111.0593087443
 10
127.9159792938
 20
110.9997971337
 10
127.9868191302
 20
110.9441560056
 10
128.0588253983
 20
110.8925462256
 10
128.1316056513
 20
110.8452245358
 10
128.2048388143
 20
110.8023317557
 10
128.2782840345
 20
110.7639178325
 10
128.3516692158
 20
110.7300522313
  0
LWPOLYLINE
  5
239
100
AcDbEntity
  8
RACCORDO
100
AcDbPolyline
 62
253
  6
CONTINUOUS
 90
11
 70
0
 10
131.0108052685
 20
93.9071647718
 10
131.0160085747
 20
93.8317205286
 10
131.0257368802
 20
93.7608502018
 10
131.0399256701
 20
93.6950237809
 10
131.0584808487
 20
93.6346778061
 10
131.081279364
 20
93.5802124727
 10
131.1081700234
 20
93.5319889778
 10
131.1389744966
 20
93.4903271243
 10
131.173488498
 20
93.4555032004
 10
131.2114831416
 20
93.4277481475
 10
131.2509720018
 20
93.407935797
  0
LWPOLYLINE
  5
23A
100
AcDbEntity
  8
RACCORDO
100
AcDbPolyline
 62
253
  6
CONTINUOUS
 90
10
 70
0
 10
130.7010387118
 20
109.1500829752
 10
130.7100977848
 20
107.4349230839
 10
130.7254985976
 20
105.7250075622
 10
130.7472406834
 20
104.0203836308
 10
130.7753240999
 20
102.3210700477
 10
130.8097480686
 20
100.6271426998
 10
130.8505099108
 20
98.9387336874
 10
130.8976073588
 20
97.2559176163
 10
130.9510396194
 20
95.5787125123
 10
131.0108052685
 20
93.9071647718
  0
LWPOLYLINE
  5
23B
100
AcDbEntity
  8
RACCORDO
100
AcDbPolyline
 62
253
  6
CONTINUOUS
 90
10
 70
0
 10
130.7010387118
 20
112.3484362869
 10
130.7100977848
 20
114.0784376935
 10
130.7254985976
 20
115.8135844286
 10
130.7472406834
 20
117.5538285071
 10
130.7753240998
 20
119.2991512648
 10
130.8097480685
 20
121.0494755399
 10
130.8505099107
 20
122.8046648447
 10
130.8976073587
 20
124.5646408585
 10
130.9510396193
 20
126.3293842556
 10
131.0108052685
 20
128.0988463068
  0
LWPOLYLINE
  5
23C
100
AcDbEntity
  8
RACCORDO
100
AcDbPolyline
 62
253
  6
CONTINUOUS
 90
19
 70
0
 10
131.0108052707
 20
128.0988463084
 10
131.0160085768
 20
128.1828099571
 10
131.0257368823
 20
128.2696101445
 10
131.0399256721
 20
128.358671239
 10
131.0584808506
 20
128.4494026156
 10
131.0812793658
 20
128.5412025725
 10
131.1081700251
 20
128.6334623212
 10
131.1389744981
 20
128.7255700244
 10
131.1734884993
 20
128.8169148527
 10
131.2114831427
 20
128.906891036
 10
131.2527064599
 20
128.9949018807
 10
131.2968850708
 20
129.0803637267
 10
131.3437259967
 20
129.162709818
 10
131.3929186036
 20
129.2413940612
 10
131.4441366614
 20
129.3158946472
 10
131.4970405083
 20
129.3857175118
 10
131.5512793025
 20
129.4503996117
 10
131.6064933496
 20
129.5095119956
 10
131.6623164874
 20
129.5626626488
  0
LWPOLYLINE
  5
23D
100
AcDbEntity
  8
RACCORDO
100
AcDbPolyline
 62
253
  6
CONTINUOUS
 90
16
 70
0
 10
126.8615980798
 20
112.487850221
 10
126.8361599331
 20
112.4663832574
 10
126.8112412415
 20
112.4420888122
 10
126.7869985555
 20
112.4150592876
 10
126.7635970295
 20
112.3850794191
 10
126.7411377404
 20
112.3523477149
 10
126.7198318909
 20
112.3177039964
 10
126.7002571589
 20
112.2815003709
 10
126.6825861097
 20
112.2437837513
 10
126.6666140562
 20
112.2052316005
 10
126.6528335548
 20
112.16630028
 10
126.6415951082
 20
112.1272329322
 10
126.6325060646
 20
112.0885536273
 10
126.625676268
 20
112.0507264064
 10
126.6216894271
 20
112.0140846181
 10
126.6208145563
 20
111.9789866774
  0
LWPOLYLINE
  5
23E
100
AcDbEntity
  8
RACCORDO
100
AcDbPolyline
 62
253
  6
CONTINUOUS
 90
8
 70
0
 10
127.4003110477
 20
113.223476732
 10
127.3783326744
 20
113.2049660386
 10
127.3343144411
 20
113.1624459496
 10
127.2941404818
 20
113.1158268128
 10
127.2579713251
 20
113.0654032356
 10
127.2258941539
 20
113.0114479465
 10
127.1979482273
 20
112.9541842848
 10
127.1741728727
 20
112.8938673975
  0
LINE
  5
23F
100
AcDbEntity
  8
RACCORDO
100
AcDbLine
 62
253
  6
CONTINUOUS
 10
126.8615980756
 20
112.4878502229
 11
127.8787744773
 21
113.3223442332
  0
LINE
  5
240
100
AcDbEntity
  8
RACCORDO
100
AcDbLine
 62
253
  6
CONTINUOUS
 10
127.1741765343
 20
112.1328882857
 11
128.4073819729
 21
113.1415593747
  0
LINE
  5
241
100
AcDbEntity
  8
RACCORDO
100
AcDbLine
 62
7
  6
CONTINUOUS
 10
127.4020389165
 20
113.224863694
 11
127.4003110477
 21
113.223476732
  0
LINE
  5
242
100
AcDbEntity
  8
RACCORDO
100
AcDbLine
 62
253
  6
CONTINUOUS
 10
127.7234179621
 20
113.3315310171
 11
127.1741728727
 21
112.8938673975
  0
LINE
  5
243
100
AcDbEntity
  8
RACCORDO
100
AcDbLine
 62
7
  6
CONTINUOUS
 10
127.1126635395
 20
112.8062839216
 11
127.7724126348
 21
113.3312554822
  0
LWPOLYLINE
  5
244
100
AcDbEntity
  8
RACCORDO
100
AcDbPolyline
 62
253
  6
CONTINUOUS
 90
16
 70
0
 10
127.174176534
 20
112.8938778888
 10
127.1470931142
 20
112.874574234
 10
127.1172957105
 20
112.8586308706
 10
127.0849175355
 20
112.8458401052
 10
127.0498288231
 20
112.8358900574
 10
127.0122786173
 20
112.8289887171
 10
126.9731321982
 20
112.82563702
 10
126.9328946718
 20
112.825586863
 10
126.8917088664
 20
112.828678
 10
126.8502018561
 20
112.8353230689
 10
126.8089331932
 20
112.8451928659
 10
126.7682569105
 20
112.8579365042
 10
126.7286392772
 20
112.8739094016
 10
126.690572091
 20
112.8929502255
 10
126.6544973091
 20
112.9143160579
 10
126.6208145562
 20
112.9374670772
  0
LWPOLYLINE
  5
245
100
AcDbEntity
  8
RACCORDO
100
AcDbPolyline
 62
7
  6
CONTINUOUS
 90
14
 70
0
 10
127.4002575439
 20
113.2234255499
 10
127.4462762044
 20
113.2559578235
 10
127.4959262523
 20
113.282377411
 10
127.5486542165
 20
113.3028413594
 10
127.6056252176
 20
113.3180319274
 10
127.6669530358
 20
113.3278448423
 10
127.7318469178
 20
113.3320812809
 10
127.8002269636
 20
113.3306892643
 10
127.8715736481
 20
113.3235919333
 10
127.9452647998
 20
113.3108233394
 10
128.0212547017
 20
113.2923358424
 10
128.0992279759
 20
113.2680981415
 10
128.1784031286
 20
113.2382952694
 10
128.1973183508
 20
113.2304207299
  0
LWPOLYLINE
  5
246
100
AcDbEntity
  8
RACCORDO
100
AcDbPolyline
 62
7
  6
CONTINUOUS
 90
6
 70
0
 10
122.3050571356
 20
114.8185710682
 10
122.3363586899
 20
114.7843715263
 10
122.3711769001
 20
114.7532885385
 10
122.4092443574
 20
114.7255626932
 10
122.4504156362
 20
114.7013566204
 10
122.4665996818
 20
114.6932282762
  0
LINE
  5
247
100
AcDbEntity
  8
RACCORDO
100
AcDbLine
 62
253
  6
CONTINUOUS
 10
131.8592720296
 20
131.9285980291
 11
131.8592720296
 21
132.1323817124
  0
LINE
  5
248
100
AcDbEntity
  8
DRAFT
100
AcDbLine
 62
7
  6
CONTINUOUS
 10
133.2324315605
 20
133.4054675693
 11
133.2324315605
 21
132.2037270171
  0
LWPOLYLINE
  5
249
100
AcDbEntity
  8
RACCORDO
100
AcDbPolyline
 62
253
  6
CONTINUOUS
 90
16
 70
0
 10
128.3516003199
 20
110.7300819628
 10
128.3268043102
 20
110.7087735857
 10
128.3023005071
 20
110.684142766
 10
128.2783560995
 20
110.6564580776
 10
128.2552321769
 20
110.6260213939
 10
128.2331808821
 20
110.593164596
 10
128.2124426621
 20
110.5582459538
 10
128.1932436462
 20
110.5216462198
 10
128.1757931799
 20
110.4837644766
 10
128.160281543
 20
110.4450137863
 10
128.1468778741
 20
110.4058166857
 10
128.1357283265
 20
110.3666005794
 10
128.1269544747
 20
110.327793079
 10
128.1206519887
 20
110.2898173409
 10
128.1168895906
 20
110.253087452
 10
128.1157083056
 20
110.2180039142
  0
LINE
  5
24A
100
AcDbEntity
  8
RACCORDO
100
AcDbLine
 62
253
  6
CONTINUOUS
 10
129.9903001889
 20
112.0928497018
 11
128.351669813
 21
110.7300527261
  0
LWPOLYLINE
  5
24B
100
AcDbEntity
  8
RACCORDO
100
AcDbPolyline
 62
253
  6
CONTINUOUS
 90
16
 70
0
 10
127.174176534
 20
112.1328882869
 10
127.147095275
 20
112.1134780904
 10
127.1173001553
 20
112.0945965113
 10
127.0849242834
 20
112.076459506
 10
127.0498378929
 20
112.0594145358
 10
127.0122898908
 20
112.0435273285
 10
126.9731451873
 20
112.028720837
 10
126.9329086624
 20
112.0155628029
 10
126.8917231651
 20
112.0043052773
 10
126.8502157259
 20
111.9945312127
 10
126.8089458278
 20
111.9866863847
 10
126.7682676087
 20
111.9811449235
 10
126.7286476017
 20
111.977370791
 10
126.690577775
 20
111.9754081972
 10
126.6545001659
 20
111.9758624303
 10
126.6208145563
 20
111.9789866774
  0
LWPOLYLINE
  5
24C
100
AcDbEntity
  8
RACCORDO
100
AcDbPolyline
 62
253
  6
CONTINUOUS
 90
13
 70
0
 10
134.6761724436
 20
108.9340766335
 10
134.6733062729
 20
108.9254137118
 10
134.6670330736
 20
108.8973012282
 10
134.6648956005
 20
108.8679510122
 10
134.6669808784
 20
108.8380366825
 10
134.6733155205
 20
108.8078056186
 10
134.683709792
 20
108.777217353
 10
134.6980857417
 20
108.746935577
 10
134.7163621846
 20
108.7174616098
 10
134.7382609955
 20
108.6886002952
 10
134.7635463156
 20
108.6606819666
 10
134.7919906154
 20
108.6345319581
 10
134.8232637277
 20
108.6106811952
  0
LINE
  5
24D
100
AcDbEntity
  8
RACCORDO
100
AcDbLine
 62
7
  6
CONTINUOUS
 10
134.6763358342
 20
108.9345313091
 11
134.6761724436
 21
108.9340766335
  0
LWPOLYLINE
  5
24E
100
AcDbEntity
  8
RACCORDO
100
AcDbPolyline
 62
7
  6
CONTINUOUS
 90
8
 70
0
 10
134.676288365
 20
108.9344255626
 10
134.6715089428
 20
108.9215249987
 10
134.6506003378
 20
108.8726542765
 10
134.6263268585
 20
108.8269287187
 10
134.5988464772
 20
108.7847869071
 10
134.5680830529
 20
108.7461691125
 10
134.5334936437
 20
108.7106922037
 10
134.5155315771
 20
108.6948994852
  0
LWPOLYLINE
  5
24F
100
AcDbEntity
  8
RACCORDO
100
AcDbPolyline
 62
7
  6
CONTINUOUS
 90
9
 70
0
 10
134.6761724436
 20
108.9340766335
 10
134.6806290045
 20
108.9459107131
 10
134.6919404748
 20
108.9718411082
 10
134.7049896114
 20
108.9967895627
 10
134.719717359
 20
109.0206921652
 10
134.7361474248
 20
109.0435829764
 10
134.7542386826
 20
109.0653617162
 10
134.7738530914
 20
109.0858333219
 10
134.7948758423
 20
109.1048705655
  0
LWPOLYLINE
  5
250
100
AcDbEntity
  8
RACCORDO
100
AcDbPolyline
 62
253
  6
CONTINUOUS
 90
16
 70
0
 10
130.9285389942
 20
109.6655970828
 10
130.9046195083
 20
109.6439286036
 10
130.8809826376
 20
109.6189420033
 10
130.8578860876
 20
109.5909097029
 10
130.8355816726
 20
109.5601373298
 10
130.8143125706
 20
109.5269603853
 10
130.7943106721
 20
109.4917405874
 10
130.7757940513
 20
109.4548619263
 10
130.7589645892
 20
109.4167264785
 10
130.7440057721
 20
109.3777500229
 10
130.7310806913
 20
109.3383575074
 10
130.7203302649
 20
109.2989784162
 10
130.7118717013
 20
109.2600420871
 10
130.7057972217
 20
109.2219730308
 10
130.7021730541
 20
109.1851863021
 10
130.7010387118
 20
109.1500829752
  0
LWPOLYLINE
  5
251
100
AcDbEntity
  8
RACCORDO
100
AcDbPolyline
 62
253
  6
CONTINUOUS
 90
9
 70
0
 10
134.6673322187
 20
109.6507366169
 10
134.6733126767
 20
109.636123349
 10
134.6837057035
 20
109.621764957
 10
134.6980808094
 20
109.6089098416
 10
134.7163569469
 20
109.5974023178
 10
134.7382560414
 20
109.5878703711
 10
134.7635422802
 20
109.5804495611
 10
134.7919882221
 20
109.5747130584
 10
134.8232637266
 20
109.570452076
  0
LWPOLYLINE
  5
252
100
AcDbEntity
  8
RACCORDO
100
AcDbPolyline
 62
253
  6
CONTINUOUS
 90
22
 70
0
 10
134.8232637266
 20
109.570452076
 10
134.7921921426
 20
109.6730099506
 10
134.7558680641
 20
109.7754272632
 10
134.7142901839
 20
109.8777029581
 10
134.6672910921
 20
109.9802795077
 10
134.615035826
 20
110.0827125347
 10
134.5580212196
 20
110.1836702804
 10
134.4961450265
 20
110.2831448786
 10
134.4295061432
 20
110.3811415046
 10
134.3589022052
 20
110.4763472146
 10
134.2842661707
 20
110.5686989969
 10
134.2056614516
 20
110.6582569509
 10
134.124080842
 20
110.7438923658
 10
134.0394597566
 20
110.8255401035
 10
133.9518595149
 20
110.903262688
 10
133.8624616275
 20
110.9761227757
 10
133.7712518799
 20
111.0440140289
 10
133.6782420753
 20
111.1070408617
 10
133.5846528958
 20
111.1645821607
 10
133.4908908125
 20
111.2164305486
 10
133.3965481112
 20
111.2627924172
 10
133.3016244771
 20
111.3036675272
  0
LWPOLYLINE
  5
253
100
AcDbEntity
  8
RACCORDO
100
AcDbPolyline
 62
7
  6
CONTINUOUS
 90
6
 70
0
 10
134.6673322187
 20
109.6507366169
 10
134.6702024473
 20
109.6409109272
 10
134.6845155745
 20
109.6016149933
 10
134.7028974057
 20
109.5639489204
 10
134.7251768952
 20
109.528331244
 10
134.7511541469
 20
109.495149363
  0
LINE
  5
254
100
AcDbEntity
  8
RACCORDO
100
AcDbLine
 62
7
  6
CONTINUOUS
 10
134.6673055158
 20
109.6508326773
 11
134.6673322187
 21
109.6507366169
  0
LINE
  5
255
100
AcDbEntity
  8
RACCORDO
100
AcDbLine
 62
7
  6
CONTINUOUS
 10
150.2901930261
 20
124.7301083248
 11
151.663352557
 21
126.0031941817
  0
LINE
  5
256
100
AcDbEntity
  8
DRAFT
100
AcDbLine
 62
7
  6
CONTINUOUS
 10
151.663352557
 20
124.8014536295
 11
151.0297561515
 21
124.2140327184
  0
LWPOLYLINE
  5
257
100
AcDbEntity
  8
RACCORDO
100
AcDbPolyline
 62
253
  6
CONTINUOUS
 90
16
 70
0
 10
133.5290585468
 20
108.6209126679
 10
133.5051484313
 20
108.5992437948
 10
133.4815207751
 20
108.5742574508
 10
133.4584331344
 20
108.5462260025
 10
133.4361371789
 20
108.51545501
 10
133.4148759482
 20
108.4822798964
 10
133.394881203
 20
108.4470622908
 10
133.3763708984
 20
108.4101860871
 10
133.3595468082
 20
108.3720532587
 10
133.3445923254
 20
108.3330794773
 10
133.3316704632
 20
108.2936895811
 10
133.320922078
 20
108.2543129444
 10
133.3124643336
 20
108.2153787971
 10
133.3063894249
 20
108.1773115455
 10
133.3027635721
 20
108.1405261463
 10
133.3016262993
 20
108.1054235831
  0
LWPOLYLINE
  5
258
100
AcDbEntity
  8
RACCORDO
100
AcDbPolyline
 62
253
  6
CONTINUOUS
 90
16
 70
0
 10
135.0506874553
 20
109.1250487247
 10
135.0262860133
 20
109.1032101084
 10
135.0028373093
 20
109.0783026523
 10
134.9802157583
 20
109.0505546751
 10
134.9580670142
 20
109.0200439308
 10
134.9366533275
 20
108.9869114717
 10
134.9167717403
 20
108.9516716696
 10
134.8983823036
 20
108.9149570006
 10
134.8813993905
 20
108.8769798888
 10
134.866507471
 20
108.8379882444
 10
134.8536649041
 20
108.798658493
 10
134.8427320915
 20
108.7594745672
 10
134.8342969998
 20
108.7205281091
 10
134.8284849676
 20
108.6822698486
 10
134.8248817701
 20
108.6454650569
 10
134.8232637277
 20
108.6106811952
  0
LINE
  5
259
100
AcDbEntity
  8
RACCORDO
100
AcDbLine
 62
7
  6
CONTINUOUS
 10
135.0564788905
 20
109.3254037521
 11
134.7948758425
 21
109.1048705657
  0
LINE
  5
25A
100
AcDbEntity
  8
RACCORDO
100
AcDbLine
 62
253
  6
CONTINUOUS
 10
135.2135340698
 20
109.2623291909
 11
135.0506874598
 21
109.1250487229
  0
LINE
  5
25B
100
AcDbEntity
  8
RACCORDO
100
AcDbLine
 62
7
  6
CONTINUOUS
 10
134.5154703215
 20
108.6948414387
 11
134.5162669187
 21
108.6955088791
  0
LINE
  5
25C
100
AcDbEntity
  8
RACCORDO
100
AcDbLine
 62
253
  6
CONTINUOUS
 10
134.6913838355
 20
109.5875412909
 11
133.5289847244
 21
108.6209360758
  0
LWPOLYLINE
  5
25D
100
AcDbEntity
  8
RACCORDO
100
AcDbPolyline
 62
253
  6
CONTINUOUS
 90
10
 70
0
 10
134.7948758425
 20
109.1048705657
 10
134.8054139602
 20
109.1131014766
 10
134.8296611158
 20
109.1278858712
 10
134.8563880206
 20
109.1390137696
 10
134.8852973825
 20
109.1463614735
 10
134.916067811
 20
109.149847372
 10
134.9483571022
 20
109.1494327605
 10
134.9818062024
 20
109.1451223221
 10
135.0160432095
 20
109.1369640521
 10
135.0506874553
 20
109.1250487247
  0
LINE
  5
25E
100
AcDbEntity
  8
DRAFT
100
AcDbLine
 62
253
  6
CONTINUOUS
 10
148.4212211854
 20
104.6905763142
 11
148.9947975007
 21
104.6689314466
  0
LWPOLYLINE
  5
25F
100
AcDbEntity
  8
RACCORDO
100
AcDbPolyline
 62
253
  6
CONTINUOUS
 90
16
 70
0
 10
158.1885249541
 20
100.1513585945
 10
158.1972567792
 20
100.1487968863
 10
158.2062224392
 20
100.1467619389
 10
158.2154219341
 20
100.1452537521
 10
158.2249513965
 20
100.1442664345
 10
158.2347146938
 20
100.1438058776
 10
158.2444234276
 20
100.1438897559
 10
158.2540708992
 20
100.1445350125
 10
158.2636638073
 20
100.1457247044
 10
158.2729338501
 20
100.1474256772
 10
158.2818740126
 20
100.1496538686
 10
158.2904913097
 20
100.1523933411
 10
158.2985384845
 20
100.1555631277
 10
158.3059331178
 20
100.1591362394
 10
158.3127576288
 20
100.1631396652
 10
158.3190120173
 20
100.1675734052
  0
LWPOLYLINE
  5
260
100
AcDbEntity
  8
RACCORDO
100
AcDbPolyline
 62
253
  6
CONTINUOUS
 90
16
 70
0
 10
157.9901195375
 20
99.626400679
 10
158.0333399052
 20
99.6136321965
 10
158.078510449
 20
99.6033444038
 10
158.1252028855
 20
99.5956329575
 10
158.1729702683
 20
99.5905697746
 10
158.2213654352
 20
99.5881998808
 10
158.2699456968
 20
99.5885436959
 10
158.3182591008
 20
99.5915995481
 10
158.3658424354
 20
99.5973395325
 10
158.4122404652
 20
99.6057080433
 10
158.4570102378
 20
99.6166248085
 10
158.4997346355
 20
99.6299874909
 10
158.5400190878
 20
99.6456721641
 10
158.5774844562
 20
99.6635331678
 10
158.611772291
 20
99.6834027468
 10
158.6425568956
 20
99.7050945823
  0
LWPOLYLINE
  5
261
100
AcDbEntity
  8
RACCORDO
100
AcDbPolyline
 62
7
  6
CONTINUOUS
 90
13
 70
0
 10
158.0345283797
 20
100.4081950656
 10
158.0531451767
 20
100.4023679679
 10
158.098178541
 20
100.3912144034
 10
158.1453345159
 20
100.3836987426
 10
158.1941079493
 20
100.3801241345
 10
158.2423635101
 20
100.3806748449
 10
158.2904994232
 20
100.3852852053
 10
158.3389606294
 20
100.3942125484
 10
158.3856833013
 20
100.4071861748
 10
158.4304630014
 20
100.4241221155
 10
158.4737288476
 20
100.4452922876
 10
158.5140663688
 20
100.4701056808
 10
158.5337797702
 20
100.4843559754
  0
LINE
  5
262
100
AcDbEntity
  8
RACCORDO
100
AcDbLine
 62
253
  6
CONTINUOUS
 10
157.2032589883
 20
99.8893835533
 11
157.9901195189
 21
99.6264006665
  0
LINE
  5
263
100
AcDbEntity
  8
RACCORDO
100
AcDbLine
 62
253
  6
CONTINUOUS
 10
156.4202624544
 20
100.1556376019
 11
157.2032589883
 21
99.8893835533
  0
LWPOLYLINE
  5
264
100
AcDbEntity
  8
RACCORDO
100
AcDbPolyline
 62
253
  6
CONTINUOUS
 90
16
 70
0
 10
151.9840612697
 20
101.238750709
 10
152.0609353438
 20
101.2122658621
 10
152.1379341816
 20
101.1902518236
 10
152.2147859489
 20
101.172858057
 10
152.2912693103
 20
101.160220618
 10
152.3670440483
 20
101.1524648605
 10
152.441659846
 20
101.1496735291
 10
152.514844926
 20
101.1519066677
 10
152.5863136625
 20
101.1592035602
 10
152.6556172112
 20
101.1715288462
 10
152.7224906562
 20
101.1888503633
 10
152.7866973183
 20
101.2111212052
 10
152.8478694906
 20
101.2381995917
 10
152.9058013592
 20
101.2699803329
 10
152.9602860658
 20
101.3063350538
 10
152.9982297562
 20
101.3360607259
  0
LINE
  5
265
100
AcDbEntity
  8
RACCORDO
100
AcDbLine
 62
253
  6
CONTINUOUS
 10
155.6411595547
 20
100.4251430264
 11
156.4202624544
 21
100.1556376019
  0
LWPOLYLINE
  5
266
100
AcDbEntity
  8
RACCORDO
100
AcDbPolyline
 62
253
  6
CONTINUOUS
 90
22
 70
0
 10
151.765333647
 20
100.7197812086
 10
151.8624710017
 20
100.6856946143
 10
151.9590643975
 20
100.6575771933
 10
152.0551130639
 20
100.6354283138
 10
152.1510363616
 20
100.6191350586
 10
152.2464145662
 20
100.6088100658
 10
152.339986262
 20
100.604789273
 10
152.431734222
 20
100.6071873281
 10
152.5216715276
 20
100.615885948
 10
152.6085780368
 20
100.6308680246
 10
152.6923832394
 20
100.6522434945
 10
152.7731507707
 20
100.67989632
 10
152.8498581217
 20
100.7134673067
 10
152.9224319855
 20
100.7530640955
 10
152.9909374099
 20
100.7985716622
 10
153.0545566926
 20
100.8492944562
 10
153.1131810303
 20
100.9053120684
 10
153.1669107809
 20
100.9665373373
 10
153.2152401608
 20
101.032023037
 10
153.2579976901
 20
101.1014508681
 10
153.2953474052
 20
101.1751324821
 10
153.3272865855
 20
101.2530654271
  0
LINE
  5
267
100
AcDbEntity
  8
RACCORDO
100
AcDbLine
 62
253
  6
CONTINUOUS
 10
154.8659581431
 20
100.6978891657
 11
155.6411595547
 21
100.4251430264
  0
LINE
  5
268
100
AcDbEntity
  8
RACCORDO
100
AcDbLine
 62
253
  6
CONTINUOUS
 10
154.0946576214
 20
100.9738692121
 11
154.8659581431
 21
100.6978891657
  0
LINE
  5
269
100
AcDbEntity
  8
RACCORDO
100
AcDbLine
 62
253
  6
CONTINUOUS
 10
153.3272865855
 20
101.2530654271
 11
154.0946576214
 21
100.9738692121
  0
LWPOLYLINE
  5
26A
100
AcDbEntity
  8
RACCORDO
100
AcDbPolyline
 62
253
  6
CONTINUOUS
 90
22
 70
0
 10
133.301624477
 20
108.1054220781
 10
133.3965050097
 20
108.0700380563
 10
133.4908098154
 20
108.0405576459
 10
133.584539208
 20
108.0169810896
 10
133.6781007319
 20
107.9991873134
 10
133.7710880831
 20
107.9872983895
 10
133.8622810842
 20
107.9816795023
 10
133.9516685503
 20
107.9824464361
 10
134.0392640753
 20
107.9894853515
 10
134.1238847971
 20
108.0028170981
 10
134.2054693338
 20
108.0225565085
 10
134.2840823318
 20
108.0485913893
 10
134.3587298326
 20
108.0806019207
 10
134.4293485925
 20
108.1187028971
 10
134.4960054864
 20
108.1627824589
 10
134.557901214
 20
108.2121803654
 10
134.61493729
 20
108.2669852902
 10
134.6672155545
 20
108.3271112637
 10
134.7142362847
 20
108.3916353241
 10
134.755833483
 20
108.4602502729
 10
134.7921755269
 20
108.533265212
 10
134.8232637277
 20
108.6106811952
  0
LINE
  5
26B
100
AcDbEntity
  8
RACCORDO
100
AcDbLine
 62
253
  6
CONTINUOUS
 10
150.8828491345
 20
101.0578594374
 11
151.765333647
 21
100.7197812086
  0
LINE
  5
26C
100
AcDbEntity
  8
RACCORDO
100
AcDbLine
 62
253
  6
CONTINUOUS
 10
151.104520748
 20
101.5757079672
 11
151.9840618941
 21
101.2387512262
  0
LINE
  5
26D
100
AcDbEntity
  8
RACCORDO
100
AcDbLine
 62
253
  6
CONTINUOUS
 10
150.0050501831
 20
101.4005367661
 11
150.8828491345
 21
101.0578594374
  0
LINE
  5
26E
100
AcDbEntity
  8
RACCORDO
100
AcDbLine
 62
253
  6
CONTINUOUS
 10
150.2295695966
 20
101.9172641181
 11
151.104520748
 21
101.5757079672
  0
LINE
  5
26F
100
AcDbEntity
  8
RACCORDO
100
AcDbLine
 62
253
  6
CONTINUOUS
 10
149.1319597083
 20
101.7478095876
 11
150.0050501831
 21
101.4005367661
  0
LINE
  5
270
100
AcDbEntity
  8
RACCORDO
100
AcDbLine
 62
253
  6
CONTINUOUS
 10
149.3593108278
 20
102.2633836024
 11
150.2295695966
 21
101.9172641181
  0
LINE
  5
271
100
AcDbEntity
  8
RACCORDO
100
AcDbLine
 62
253
  6
CONTINUOUS
 10
146.5309464167
 20
102.792228139
 11
149.1319597083
 21
101.7478095876
  0
LINE
  5
272
100
AcDbEntity
  8
RACCORDO
100
AcDbLine
 62
253
  6
CONTINUOUS
 10
146.7584347275
 20
103.3076907035
 11
149.3593108278
 21
102.2633836024
  0
LINE
  5
273
100
AcDbEntity
  8
RACCORDO
100
AcDbLine
 62
253
  6
CONTINUOUS
 10
130.1220222997
 20
109.3841614194
 11
133.301624477
 21
108.1054220781
  0
LINE
  5
274
100
AcDbEntity
  8
RACCORDO
100
AcDbLine
 62
253
  6
CONTINUOUS
 10
130.3513965843
 20
109.8989380979
 11
133.5289847244
 21
108.6209360758
  0
LINE
  5
275
100
AcDbEntity
  8
RACCORDO
100
AcDbLine
 62
253
  6
CONTINUOUS
 10
129.2583082796
 20
109.7387534047
 11
130.1220222997
 21
109.3841614194
  0
LINE
  5
276
100
AcDbEntity
  8
RACCORDO
100
AcDbLine
 62
253
  6
CONTINUOUS
 10
129.4904812138
 20
110.2523961574
 11
130.3513965843
 21
109.8989380979
  0
LWPOLYLINE
  5
277
100
AcDbEntity
  8
RACCORDO
100
AcDbPolyline
 62
253
  6
CONTINUOUS
 90
3
 70
0
 10
128.1157083054
 20
110.2180039141
 10
128.4003870957
 20
110.0975014467
 10
129.2583082796
 20
109.7387534047
  0
LWPOLYLINE
  5
278
100
AcDbEntity
  8
RACCORDO
100
AcDbPolyline
 62
253
  6
CONTINUOUS
 90
3
 70
0
 10
128.351669813
 20
110.7300527261
 10
128.6353956968
 20
110.6099571876
 10
129.4904812138
 20
110.2523961574
  0
LINE
  5
279
100
AcDbEntity
  8
RACCORDO
100
AcDbLine
 62
253
  6
CONTINUOUS
 10
125.9004466487
 20
112.2972998536
 11
126.6208145563
 21
111.9789866774
  0
LINE
  5
27A
100
AcDbEntity
  8
RACCORDO
100
AcDbLine
 62
253
  6
CONTINUOUS
 10
125.1839185472
 20
112.618865229
 11
125.9004466487
 21
112.2972998536
  0
LINE
  5
27B
100
AcDbEntity
  8
RACCORDO
100
AcDbLine
 62
253
  6
CONTINUOUS
 10
124.4712698682
 20
112.9436731622
 11
125.1839185472
 21
112.618865229
  0
LINE
  5
27C
100
AcDbEntity
  8
RACCORDO
100
AcDbLine
 62
253
  6
CONTINUOUS
 10
123.7625146036
 20
113.2717250744
 11
124.4712698682
 21
112.9436731622
  0
LINE
  5
27D
100
AcDbEntity
  8
RACCORDO
100
AcDbLine
 62
253
  6
CONTINUOUS
 10
123.0576743192
 20
113.6030199069
 11
123.7625146036
 21
113.2717250744
  0
LINE
  5
27E
100
AcDbEntity
  8
RACCORDO
100
AcDbLine
 62
253
  6
CONTINUOUS
 10
122.3567920126
 20
113.93754833
 11
123.0576743192
 21
113.6030199069
  0
LWPOLYLINE
  5
27F
100
AcDbEntity
  8
RACCORDO
100
AcDbPolyline
 62
253
  6
CONTINUOUS
 90
3
 70
0
 10
122.6115438069
 20
114.4398762779
 10
122.9603533724
 20
114.2727641851
 10
123.6609104153
 20
113.9409637607
  0
LINE
  5
280
100
AcDbEntity
  8
RACCORDO
100
AcDbLine
 62
7
  6
CONTINUOUS
 10
122.4670170053
 20
114.6930272258
 11
122.4665996818
 21
114.6932282762
  0
LWPOLYLINE
  5
281
100
AcDbEntity
  8
RACCORDO
100
AcDbPolyline
 62
253
  6
CONTINUOUS
 90
10
 70
0
 10
122.3831624922
 20
114.8781821989
 10
122.3474197876
 20
114.8970871502
 10
122.3150583452
 20
114.9178795409
 10
122.2863818206
 20
114.9403613385
 10
122.2616609407
 20
114.9643159858
 10
122.2411234282
 20
114.9895184235
 10
122.2249561307
 20
115.0157383938
 10
122.2133113324
 20
115.0427318344
 10
122.2063025519
 20
115.0702399464
 10
122.2039966674
 20
115.0977994979
  0
LWPOLYLINE
  5
282
100
AcDbEntity
  8
RACCORDO
100
AcDbPolyline
 62
253
  6
CONTINUOUS
 90
9
 70
0
 10
122.4665996818
 20
114.6932282762
 10
122.4484475378
 20
114.7042695249
 10
122.4316958252
 20
114.7194281932
 10
122.4172027806
 20
114.7382149748
 10
122.4051256802
 20
114.7604259989
 10
122.3955955827
 20
114.7858202352
 10
122.3887159073
 20
114.8141221102
 10
122.3845613112
 20
114.8450244969
 10
122.3831768795
 20
114.8781920482
  0
LWPOLYLINE
  5
283
100
AcDbEntity
  8
RACCORDO
100
AcDbPolyline
 62
7
  6
CONTINUOUS
 90
6
 70
0
 10
134.7511541469
 20
109.495149363
 10
134.7805850434
 20
109.4647853625
 10
134.813159251
 20
109.4376215058
 10
134.848516917
 20
109.4140058886
 10
134.8862695287
 20
109.3942365525
 10
134.9037799948
 20
109.386724073
  0
LWPOLYLINE
  5
284
100
AcDbEntity
  8
RACCORDO
100
AcDbPolyline
 62
253
  6
CONTINUOUS
 90
11
 70
0
 10
140.2262657668
 20
90.2060280763
 10
140.2314669467
 20
90.1305846875
 10
140.2411919505
 20
90.0597156871
 10
140.2553762852
 20
89.9938910561
 10
140.2739258846
 20
89.9335473226
 10
140.2967177336
 20
89.8790846673
 10
140.323600684
 20
89.8308642692
 10
140.3543964565
 20
89.7892059108
 10
140.3889008233
 20
89.7543858573
 10
140.4268849622
 20
89.7266350242
 10
140.4663940399
 20
89.7068145524
  0
LWPOLYLINE
  5
285
100
AcDbEntity
  8
RACCORDO
100
AcDbPolyline
 62
253
  6
CONTINUOUS
 90
10
 70
0
 10
139.9140122533
 20
106.5661400921
 10
139.9195525463
 20
104.723738514
 10
139.9323835946
 20
102.8873297172
 10
139.9525048797
 20
101.056971948
 10
139.979916441
 20
99.2326907382
 10
140.0146174637
 20
97.414577303
 10
140.0566049687
 20
95.6027874176
 10
140.1058763079
 20
93.7974107266
 10
140.1624304729
 20
91.9984718662
 10
140.2262657668
 20
90.2060280763
  0
LINE
  5
286
100
AcDbEntity
  8
RACCORDO
100
AcDbLine
 62
7
  6
CONTINUOUS
 10
155.4281776929
 20
124.4911555311
 11
153.9848065122
 21
123.2462682556
  0
LINE
  5
287
100
AcDbEntity
  8
RACCORDO
100
AcDbLine
 62
253
  6
CONTINUOUS
 10
157.404230179
 20
100.4135058113
 11
158.1885249541
 21
100.1513585945
  0
LINE
  5
288
100
AcDbEntity
  8
RACCORDO
100
AcDbLine
 62
253
  6
CONTINUOUS
 10
157.9603629469
 20
100.5895763924
 11
157.1785815913
 21
100.8521204087
  0
LINE
  5
289
100
AcDbEntity
  8
RACCORDO
100
AcDbLine
 62
253
  6
CONTINUOUS
 10
156.6238091452
 20
100.6789032846
 11
157.404230179
 21
100.4135058113
  0
LINE
  5
28A
100
AcDbEntity
  8
RACCORDO
100
AcDbLine
 62
253
  6
CONTINUOUS
 10
157.1785815913
 20
100.8521204087
 11
156.4006173163
 21
101.1178000417
  0
LINE
  5
28B
100
AcDbEntity
  8
RACCORDO
100
AcDbLine
 62
253
  6
CONTINUOUS
 10
155.8472641727
 20
100.9475465737
 11
156.6238091452
 21
100.6789032846
  0
LINE
  5
28C
100
AcDbEntity
  8
RACCORDO
100
AcDbLine
 62
253
  6
CONTINUOUS
 10
156.4006173163
 20
101.1178000417
 11
155.6264989378
 21
101.3865951273
  0
LINE
  5
28D
100
AcDbEntity
  8
RACCORDO
100
AcDbLine
 62
253
  6
CONTINUOUS
 10
155.0746023145
 20
101.21942083
 11
155.8472641727
 21
100.9475465737
  0
LINE
  5
28E
100
AcDbEntity
  8
RACCORDO
100
AcDbLine
 62
253
  6
CONTINUOUS
 10
155.6264989378
 20
101.3865951273
 11
154.8562330919
 21
101.6584924949
  0
LWPOLYLINE
  5
28F
100
AcDbEntity
  8
RACCORDO
100
AcDbPolyline
 62
7
  6
CONTINUOUS
 90
7
 70
0
 10
154.3900501496
 20
101.6704528896
 10
154.9160755602
 20
101.4821416643
 10
155.4436489089
 20
101.2953808514
 10
155.9727566444
 20
101.1101747105
 10
156.5033855871
 20
100.9265273965
 10
157.0355221455
 20
100.7444432111
 10
158.0344976558
 20
100.4081947918
  0
LINE
  5
290
100
AcDbEntity
  8
RACCORDO
100
AcDbLine
 62
253
  6
CONTINUOUS
 10
154.3058353916
 20
101.4945115269
 11
155.0746023145
 21
101.21942083
  0
LINE
  5
291
100
AcDbEntity
  8
RACCORDO
100
AcDbLine
 62
253
  6
CONTINUOUS
 10
154.8562330919
 20
101.6584924949
 11
154.0898196019
 21
101.9334821543
  0
LINE
  5
292
100
AcDbEntity
  8
RACCORDO
100
AcDbLine
 62
253
  6
CONTINUOUS
 10
153.5409667461
 20
101.7728142925
 11
154.3058353916
 21
101.4945115269
  0
LINE
  5
293
100
AcDbEntity
  8
RACCORDO
100
AcDbLine
 62
7
  6
CONTINUOUS
 10
153.4049624493
 20
102.028806817
 11
154.3900501496
 21
101.6704528896
  0
LINE
  5
294
100
AcDbEntity
  8
RACCORDO
100
AcDbLine
 62
253
  6
CONTINUOUS
 10
154.0898196019
 20
101.9334821543
 11
153.3272865855
 21
102.2115458269
  0
LWPOLYLINE
  5
295
100
AcDbEntity
  8
RACCORDO
100
AcDbPolyline
 62
7
  6
CONTINUOUS
 90
13
 70
0
 10
145.0849459388
 20
105.2977382761
 10
145.1054877803
 20
105.2901316578
 10
145.1400147078
 20
105.2801169911
 10
145.17569975
 20
105.2731838141
 10
145.2123617153
 20
105.2694918138
 10
145.249480299
 20
105.269199542
 10
145.2869576796
 20
105.2724146508
 10
145.3243588338
 20
105.2792264461
 10
145.3612625158
 20
105.2896646584
 10
145.397529298
 20
105.3038269767
 10
145.432701723
 20
105.3217075827
 10
145.4662555618
 20
105.3431901811
 10
145.4832539971
 20
105.3560033367
  0
LWPOLYLINE
  5
296
100
AcDbEntity
  8
RACCORDO
100
AcDbPolyline
 62
253
  6
CONTINUOUS
 90
16
 70
0
 10
133.5289847498
 20
108.6209360991
 10
133.6039550742
 20
108.5930235118
 10
133.6790137229
 20
108.5695210237
 10
133.7538903194
 20
108.5505791746
 10
133.8283523162
 20
108.5363265033
 10
133.9020731718
 20
108.5268983774
 10
133.9746407323
 20
108.5224062514
 10
134.0457815064
 20
108.5229109425
 10
134.1152117432
 20
108.5284568625
 10
134.182524918
 20
108.5390458375
 10
134.2474547633
 20
108.5546492069
 10
134.3097632184
 20
108.5752241793
 10
134.3691235496
 20
108.6006681849
 10
134.4253285241
 20
108.6308809235
 10
134.4781671343
 20
108.6657370068
 10
134.5154703215
 20
108.6948414387
  0
LWPOLYLINE
  5
297
100
AcDbEntity
  8
RACCORDO
100
AcDbPolyline
 62
253
  6
CONTINUOUS
 90
22
 70
0
 10
146.5309464177
 20
105.9904735877
 10
146.4360445761
 20
106.0258405151
 10
146.341681921
 20
106.0552738268
 10
146.2478587394
 20
106.0787737729
 10
146.1541682191
 20
106.0964620244
 10
146.0610183713
 20
106.1082179117
 10
145.9696319844
 20
106.113678401
 10
145.8800217443
 20
106.112728931
 10
145.7921773088
 20
106.1054860125
 10
145.7072870417
 20
106.091933334
 10
145.6254148903
 20
106.0719581598
 10
145.5465000936
 20
106.0456758719
 10
145.471543792
 20
106.0134122206
 10
145.4006122637
 20
105.9750549082
 10
145.3336427793
 20
105.9307191805
 10
145.2714424328
 20
105.8810716766
 10
145.2141127434
 20
105.826026229
 10
145.1615554669
 20
105.7656717334
 10
145.1142771344
 20
105.7009366806
 10
145.0724471416
 20
105.6321310366
 10
145.0358984035
 20
105.5589467739
 10
145.0046322019
 20
105.4813849627
  0
LINE
  5
298
100
AcDbEntity
  8
RACCORDO
100
AcDbLine
 62
253
  6
CONTINUOUS
 10
151.765333647
 20
103.9175969182
 11
151.1764943563
 21
104.1427162703
  0
LINE
  5
299
100
AcDbEntity
  8
RACCORDO
100
AcDbLine
 62
7
  6
CONTINUOUS
 10
150.9863249499
 20
104.0621955242
 11
151.8440686219
 21
103.7333519236
  0
LINE
  5
29A
100
AcDbEntity
  8
RACCORDO
100
AcDbLine
 62
253
  6
CONTINUOUS
 10
151.1764943563
 20
104.1427162703
 11
150.5897281957
 21
104.3698109235
  0
LWPOLYLINE
  5
29B
100
AcDbEntity
  8
RACCORDO
100
AcDbPolyline
 62
7
  6
CONTINUOUS
 90
13
 70
0
 10
126.7031435183
 20
112.7528750592
 10
126.7345832671
 20
112.7406594865
 10
126.7691338454
 20
112.7305963596
 10
126.8048476916
 20
112.7236198075
 10
126.8415425024
 20
112.7198901077
 10
126.8786973337
 20
112.7195664712
 10
126.9162148741
 20
112.7227569352
 10
126.9536590579
 20
112.7295515516
 10
126.9906071686
 20
112.7399804977
 10
127.0269193654
 20
112.7541419594
 10
127.0621365742
 20
112.7720303834
 10
127.0957328835
 20
112.7935294178
 10
127.1127866435
 20
112.8063819672
  0
LWPOLYLINE
  5
29C
100
AcDbEntity
  8
RACCORDO
100
AcDbPolyline
 62
7
  6
CONTINUOUS
 90
22
 70
0
 10
151.8441023173
 20
103.7333335365
 10
151.8705772009
 20
103.7230117828
 10
151.9558310581
 20
103.6862615736
 10
152.0418114788
 20
103.6437730713
 10
152.1280026161
 20
103.5956448324
 10
152.2138722191
 20
103.5420532852
 10
152.298868526
 20
103.4832341176
 10
152.3825092493
 20
103.419423495
 10
152.46430717
 20
103.3509199662
 10
152.5437410776
 20
103.2780946646
 10
152.6203583832
 20
103.2013083607
 10
152.6937437819
 20
103.1209543863
 10
152.7634683827
 20
103.0374888401
 10
152.8291636377
 20
102.9513488651
 10
152.8904961442
 20
102.8630070646
 10
152.9471270669
 20
102.7730081099
 10
152.9987865518
 20
102.6818557334
 10
153.0452666032
 20
102.5900441068
 10
153.0863649691
 20
102.4981385724
 10
153.1219353512
 20
102.4066793082
 10
153.1519064135
 20
102.3161868024
 10
153.1604661141
 20
102.2872342942
  0
LINE
  5
29D
100
AcDbEntity
  8
RACCORDO
100
AcDbLine
 62
7
  6
CONTINUOUS
 10
150.0664389136
 20
104.4214811074
 11
150.9863249499
 21
104.0621955242
  0
LINE
  5
29E
100
AcDbEntity
  8
RACCORDO
100
AcDbLine
 62
253
  6
CONTINUOUS
 10
150.5897281957
 20
104.3698109235
 11
150.0050510116
 21
104.5988753424
  0
LINE
  5
29F
100
AcDbEntity
  8
RACCORDO
100
AcDbLine
 62
253
  6
CONTINUOUS
 10
150.0050510116
 20
104.5988753424
 11
149.4224625445
 21
104.8299097039
  0
LINE
  5
2A0
100
AcDbEntity
  8
RACCORDO
100
AcDbLine
 62
7
  6
CONTINUOUS
 10
149.2122991911
 20
104.7613222918
 11
150.0664389136
 21
104.4214811074
  0
LINE
  5
2A1
100
AcDbEntity
  8
RACCORDO
100
AcDbLine
 62
253
  6
CONTINUOUS
 10
134.8232637277
 20
108.6106811952
 11
145.0046322023
 21
104.5216140823
  0
LINE
  5
2A2
100
AcDbEntity
  8
RACCORDO
100
AcDbLine
 62
253
  6
CONTINUOUS
 10
135.0506874598
 20
109.1250487229
 11
145.2320649758
 21
105.0359779787
  0
LINE
  5
2A3
100
AcDbEntity
  8
RACCORDO
100
AcDbLine
 62
7
  6
CONTINUOUS
 10
134.9037414673
 20
109.3867395164
 11
145.0849919053
 21
105.297724542
  0
LINE
  5
2A4
100
AcDbEntity
  8
RACCORDO
100
AcDbLine
 62
253
  6
CONTINUOUS
 10
145.0046322019
 20
105.4813849627
 11
134.8232637266
 21
109.570452076
  0
LINE
  5
2A5
100
AcDbEntity
  8
DRAFT
100
AcDbLine
 62
7
  6
CONTINUOUS
 10
152.8591049566
 20
102.9082221419
 11
148.4212211854
 21
104.6905763142
  0
LINE
  5
2A6
100
AcDbEntity
  8
DRAFT
100
AcDbLine
 62
7
  6
CONTINUOUS
 10
134.3193596839
 20
110.3542018122
 11
129.9903001889
 21
112.0928497018
  0
LINE
  5
2A7
100
AcDbEntity
  8
SMUSSO
100
AcDbLine
 62
7
  6
CONTINUOUS
 10
152.6011835225
 20
103.2205255162
 11
148.9947975007
 21
104.6689314466
  0
LINE
  5
2A8
100
AcDbEntity
  8
SMUSSO
100
AcDbLine
 62
7
  6
CONTINUOUS
 10
134.043868179
 20
110.673561723
 11
130.5638765042
 21
112.0712048342
  0
LINE
  5
2A9
100
AcDbEntity
  8
RACCORDO
100
AcDbLine
 62
7
  6
CONTINUOUS
 10
146.611297703
 20
105.8056850667
 11
149.2122991897
 21
104.7613222924
  0
LINE
  5
2AA
100
AcDbEntity
  8
RACCORDO
100
AcDbLine
 62
253
  6
CONTINUOUS
 10
149.4224625445
 20
104.8299097039
 11
146.5309464177
 21
105.9904735877
  0
LINE
  5
2AB
100
AcDbEntity
  8
RACCORDO
100
AcDbLine
 62
7
  6
CONTINUOUS
 10
130.2404402466
 20
112.3821834339
 11
133.3819786228
 21
111.1188778573
  0
LINE
  5
2AC
100
AcDbEntity
  8
RACCORDO
100
AcDbLine
 62
253
  6
CONTINUOUS
 10
133.3016244771
 20
111.3036675272
 11
130.1220229206
 21
112.5825232987
  0
LINE
  5
2AD
100
AcDbEntity
  8
RACCORDO
100
AcDbLine
 62
7
  6
CONTINUOUS
 10
129.6362152989
 20
112.6292794102
 11
130.2404402466
 21
112.3821834339
  0
LINE
  5
2AE
100
AcDbEntity
  8
RACCORDO
100
AcDbLine
 62
253
  6
CONTINUOUS
 10
130.1220229206
 20
112.5825232987
 11
129.5455691529
 21
112.818391022
  0
LWPOLYLINE
  5
2AF
100
AcDbEntity
  8
RACCORDO
100
AcDbPolyline
 62
7
  6
CONTINUOUS
 90
22
 70
0
 10
133.3820176747
 20
111.1188563636
 10
133.4078356373
 20
111.1082224101
 10
133.4911034083
 20
111.0703832111
 10
133.5750769041
 20
111.0267459154
 10
133.6592254527
 20
110.9774273783
 10
133.7430497107
 20
110.9226000231
 10
133.8260786524
 20
110.8624548308
 10
133.9078649675
 20
110.7972002266
 10
133.987900203
 20
110.7271529741
 10
134.0656602552
 20
110.6526950649
 10
134.1407174718
 20
110.574169719
 10
134.2126394789
 20
110.491996197
 10
134.2809435986
 20
110.4067144621
 10
134.3452611231
 20
110.3187959869
 10
134.4052848176
 20
110.2287133195
 10
134.4606777853
 20
110.1370470315
 10
134.5111767273
 20
110.044333602
 10
134.5565988277
 20
109.9510627805
 10
134.5967713534
 20
109.8577739823
 10
134.6315595807
 20
109.7650046259
 10
134.6608893496
 20
109.6732981585
 10
134.6673262734
 20
109.6507377786
  0
LWPOLYLINE
  5
2B0
100
AcDbEntity
  8
RACCORDO
100
AcDbPolyline
 62
253
  6
CONTINUOUS
 90
10
 70
0
 10
158.0344976558
 20
100.4081947918
 10
158.0257396776
 20
100.4118111747
 10
158.0110625606
 20
100.4215087532
 10
157.9980111337
 20
100.4351803285
 10
157.9867270312
 20
100.4526775368
 10
157.977332708
 20
100.4738104982
 10
157.9699301113
 20
100.498349878
 10
157.9645995741
 20
100.5260293748
 10
157.9613989435
 20
100.5565486109
 10
157.9603629525
 20
100.5895763913
  0
LINE
  5
2B1
100
AcDbEntity
  8
RACCORDO
100
AcDbLine
 62
7
  6
CONTINUOUS
 10
129.0347980351
 20
112.8783428333
 11
129.6362152989
 21
112.6292794102
  0
LINE
  5
2B2
100
AcDbEntity
  8
RACCORDO
100
AcDbLine
 62
253
  6
CONTINUOUS
 10
129.5455691529
 20
112.818391022
 11
128.9716913809
 21
113.0560326885
  0
LWPOLYLINE
  5
2B3
100
AcDbEntity
  8
RACCORDO
100
AcDbPolyline
 62
253
  6
CONTINUOUS
 90
3
 70
0
 10
128.9716913809
 20
113.0560326885
 10
128.4003875392
 20
113.2954492232
 10
128.1157083054
 20
113.4158196237
  0
LINE
  5
2B4
100
AcDbEntity
  8
RACCORDO
100
AcDbLine
 62
7
  6
CONTINUOUS
 10
128.1974260374
 20
113.2303799961
 11
129.0347980351
 21
112.8783428333
  0
LINE
  5
2B5
100
AcDbEntity
  8
RACCORDO
100
AcDbLine
 62
7
  6
CONTINUOUS
 10
128.1974242366
 20
113.2303757428
 11
128.1973183508
 21
113.2304207299
  0
LWPOLYLINE
  5
2B6
100
AcDbEntity
  8
RACCORDO
100
AcDbPolyline
 62
253
  6
CONTINUOUS
 90
10
 70
0
 10
153.4050822103
 20
102.0287628178
 10
153.3977924014
 20
102.031862687
 10
153.3818187011
 20
102.0420191413
 10
153.3678423995
 20
102.0560390358
 10
153.3557909894
 20
102.0738100932
 10
153.3455101065
 20
102.0952498383
 10
153.3376041477
 20
102.1200076521
 10
153.332191192
 20
102.1478061974
 10
153.3288306276
 20
102.1784293437
 10
153.3272865855
 20
102.2115458269
  0
LWPOLYLINE
  5
2B7
100
AcDbEntity
  8
RACCORDO
100
AcDbPolyline
 62
7
  6
CONTINUOUS
 90
15
 70
0
 10
129.9903001889
 20
112.0928497018
 10
129.9146569325
 20
112.1255220488
 10
129.8391904552
 20
112.1627119025
 10
129.7641801426
 20
112.2043001214
 10
129.6898258179
 20
112.2502021922
 10
129.6164886173
 20
112.3002217859
 10
129.5446764185
 20
112.3540084018
 10
129.4747918832
 20
112.4112171111
 10
129.4069293409
 20
112.4717264527
 10
129.3411270659
 20
112.5354965012
 10
129.2775501935
 20
112.6023961708
 10
129.2165323241
 20
112.6721045115
 10
129.1583641956
 20
112.7443007297
 10
129.1032512452
 20
112.8187347366
 10
129.0737895779
 20
112.8621445769
  0
LWPOLYLINE
  5
2B8
100
AcDbEntity
  8
RACCORDO
100
AcDbPolyline
 62
7
  6
CONTINUOUS
 90
15
 70
0
 10
148.4212211854
 20
104.6905763142
 10
148.345577929
 20
104.7232486613
 10
148.2701114517
 20
104.7604385149
 10
148.1951011391
 20
104.8020267339
 10
148.1207468144
 20
104.8479288046
 10
148.0474096138
 20
104.8979483983
 10
147.975597415
 20
104.9517350142
 10
147.9057128797
 20
105.0089437235
 10
147.8378503374
 20
105.0694530651
 10
147.7720480624
 20
105.1332231136
 10
147.70847119
 20
105.2001227832
 10
147.6474533206
 20
105.269831124
 10
147.5892851921
 20
105.3420273421
 10
147.5341722417
 20
105.416461349
 10
147.5168022311
 20
105.4420549239
  0
LWPOLYLINE
  5
2B9
100
AcDbEntity
  8
RACCORDO
100
AcDbPolyline
 62
7
  6
CONTINUOUS
 90
9
 70
0
 10
130.5638765042
 20
112.0712048342
 10
130.456950243
 20
112.1174156932
 10
130.3509619666
 20
112.1697452797
 10
130.245911675
 20
112.2281935935
 10
130.1413057634
 20
112.2930774907
 10
130.0376378366
 20
112.3640801152
 10
129.9363887088
 20
112.4402508995
 10
129.8377005139
 20
112.5215943557
 10
129.7864555437
 20
112.5676451815
  0
LWPOLYLINE
  5
2BA
100
AcDbEntity
  8
RACCORDO
100
AcDbPolyline
 62
7
  6
CONTINUOUS
 90
9
 70
0
 10
148.9947975007
 20
104.6689314466
 10
148.8878712401
 20
104.7151423054
 10
148.7818829642
 20
104.7674718915
 10
148.676832673
 20
104.825920205
 10
148.5722267619
 20
104.8908041018
 10
148.4685588356
 20
104.9618067259
 10
148.3673097082
 20
105.0379775096
 10
148.2686215137
 20
105.1193209653
 10
148.2266658742
 20
105.1570240186
  0
LWPOLYLINE
  5
2BB
100
AcDbEntity
  8
RACCORDO
100
AcDbPolyline
 62
253
  6
CONTINUOUS
 90
10
 70
0
 10
134.9037414673
 20
109.3867395164
 10
134.8983778446
 20
109.3890982015
 10
134.8813953542
 20
109.3996398109
 10
134.8665040646
 20
109.4139975313
 10
134.8536622974
 20
109.432061954
 10
134.8427302864
 20
109.4537432034
 10
134.8342958957
 20
109.4786855655
 10
134.8284844171
 20
109.5066142042
 10
134.8248815949
 20
109.5373133249
 10
134.8232637266
 20
109.570452076
  0
LWPOLYLINE
  5
2BC
100
AcDbEntity
  8
RACCORDO
100
AcDbPolyline
 62
253
  6
CONTINUOUS
 90
10
 70
0
 10
145.0849349969
 20
105.2977426644
 10
145.0796306619
 20
105.3000771394
 10
145.0629643951
 20
105.3104904094
 10
145.0478780449
 20
105.3249252832
 10
145.034850466
 20
105.3430634803
 10
145.0242522582
 20
105.3646103104
 10
145.0156660104
 20
105.3896138273
 10
145.0091929471
 20
105.4178088783
 10
145.0054249001
 20
105.4485756758
 10
145.0046322019
 20
105.4813849628
  0
LWPOLYLINE
  5
2BD
100
AcDbEntity
  8
RACCORDO
100
AcDbPolyline
 62
253
  6
CONTINUOUS
 90
10
 70
0
 10
133.3819786228
 20
111.1188778573
 10
133.3763716187
 20
111.1213590486
 10
133.359547446
 20
111.1319297724
 10
133.3445928168
 20
111.1464041931
 10
133.3316707406
 20
111.1646245354
 10
133.3209220719
 20
111.1863921924
 10
133.3124639741
 20
111.2114698904
 10
133.3063886429
 20
111.2395842754
 10
133.3027623012
 20
111.2704288927
 10
133.3016244771
 20
111.3036675272
  0
LINE
  5
2BE
100
AcDbEntity
  8
RACCORDO
100
AcDbLine
 62
253
  6
CONTINUOUS
 10
126.6208145563
 20
112.9374670772
 11
125.9049599032
 21
113.2531573263
  0
LWPOLYLINE
  5
2BF
100
AcDbEntity
  8
RACCORDO
100
AcDbPolyline
 62
253
  6
CONTINUOUS
 90
10
 70
0
 10
130.7814042621
 20
112.1635852102
 10
130.7757940514
 20
112.1660688228
 10
130.7589645893
 20
112.1766459645
 10
130.7440057722
 20
112.1911273268
 10
130.7310806914
 20
112.209355024
 10
130.7203302649
 20
112.2311303252
 10
130.7118717014
 20
112.2562158211
 10
130.7057972217
 20
112.2843380126
 10
130.7021730542
 20
112.3151902921
 10
130.7010387119
 20
112.348436287
  0
LWPOLYLINE
  5
2C0
100
AcDbEntity
  8
RACCORDO
100
AcDbPolyline
 62
253
  6
CONTINUOUS
 90
10
 70
0
 10
146.6112076282
 20
105.8057160083
 10
146.6056873824
 20
105.8081624767
 10
146.5888645071
 20
105.8187333245
 10
146.5739111065
 20
105.8332080021
 10
146.5609901819
 20
105.8514287266
 10
146.5502425793
 20
105.8731968809
 10
146.5417854544
 20
105.8982751785
 10
146.535710995
 20
105.9263902504
 10
146.5320854166
 20
105.9572356248
 10
146.5309482401
 20
105.9904750682
  0
LINE
  5
2C1
100
AcDbEntity
  8
RACCORDO
100
AcDbLine
 62
253
  6
CONTINUOUS
 10
126.1435773654
 20
112.8051091365
 11
126.8615980756
 21
112.4878502229
  0
LINE
  5
2C2
100
AcDbEntity
  8
RACCORDO
100
AcDbLine
 62
253
  6
CONTINUOUS
 10
125.9049599032
 20
113.2531573263
 11
125.1928984525
 21
113.5719566261
  0
LINE
  5
2C3
100
AcDbEntity
  8
RACCORDO
100
AcDbLine
 62
253
  6
CONTINUOUS
 10
125.4294055138
 20
113.1255999944
 11
126.1435773654
 21
112.8051091365
  0
LWPOLYLINE
  5
2C4
100
AcDbEntity
  8
RACCORDO
100
AcDbPolyline
 62
253
  6
CONTINUOUS
 90
10
 70
0
 10
128.1973183508
 20
113.2304207299
 10
128.193243021
 20
113.2322696181
 10
128.1757926565
 20
113.2431060828
 10
128.1602811863
 20
113.2578192175
 10
128.1468777522
 20
113.2762485854
 10
128.1357285094
 20
113.2981932272
 10
128.1269550327
 20
113.3234138517
 10
128.1206529907
 20
113.3516354455
 10
128.1168911028
 20
113.3825502716
 10
128.1157103899
 20
113.4158212253
  0
LINE
  5
2C5
100
AcDbEntity
  8
RACCORDO
100
AcDbLine
 62
253
  6
CONTINUOUS
 10
125.1928984525
 20
113.5719566261
 11
124.4846690059
 21
113.8938563638
  0
LWPOLYLINE
  5
2C6
100
AcDbEntity
  8
RACCORDO
100
AcDbPolyline
 62
253
  6
CONTINUOUS
 90
10
 70
0
 10
126.7031435183
 20
112.7528750592
 10
126.7002619518
 20
112.7541924392
 10
126.6825903791
 20
112.7650296188
 10
126.6666176456
 20
112.7798502695
 10
126.6528363701
 20
112.798315317
 10
126.6415970643
 20
112.8201396642
 10
126.6325072264
 20
112.845373093
 10
126.6256767973
 20
112.8737415506
 10
126.6216895408
 20
112.9046175648
 10
126.6208145562
 20
112.9374670772
  0
LINE
  5
2C7
100
AcDbEntity
  8
RACCORDO
100
AcDbLine
 62
253
  6
CONTINUOUS
 10
124.7190907594
 20
113.449322527
 11
125.4294055138
 21
113.1255999944
  0
LWPOLYLINE
  5
2C8
100
AcDbEntity
  8
RACCORDO
100
AcDbPolyline
 62
253
  6
CONTINUOUS
 90
13
 70
0
 10
145.2320649803
 20
105.0359779769
 10
145.2664221486
 20
105.0201807807
 10
145.3004197891
 20
105.000934478
 10
145.3336798954
 20
104.9784529951
 10
145.3658326678
 20
104.952986221
 10
145.3965205715
 20
104.9248172708
 10
145.4254023212
 20
104.8942593536
 10
145.4521568343
 20
104.8616521121
 10
145.4764865126
 20
104.8273581659
 10
145.4981205918
 20
104.7917591837
 10
145.5168185152
 20
104.7552511344
 10
145.5323725188
 20
104.7182398338
 10
145.5446097214
 20
104.6811368012
  0
LWPOLYLINE
  5
2C9
100
AcDbEntity
  8
RACCORDO
100
AcDbPolyline
 62
253
  6
CONTINUOUS
 90
13
 70
0
 10
126.8615980798
 20
112.487850221
 10
126.8959644498
 20
112.4720482326
 10
126.9299710005
 20
112.4527953239
 10
126.9632394223
 20
112.4303056089
 10
126.9953996227
 20
112.4048292014
 10
127.0260937895
 20
112.3766494758
 10
127.054980381
 20
112.3460799309
 10
127.0817380881
 20
112.3134605192
 10
127.1060691124
 20
112.2791541942
 10
127.1277025213
 20
112.2435429791
 10
127.1463976349
 20
112.2070231973
 10
127.1619466116
 20
112.1700010122
 10
127.174176534
 20
112.1328882869
  0
LINE
  5
2CA
100
AcDbEntity
  8
RACCORDO
100
AcDbLine
 62
253
  6
CONTINUOUS
 10
124.4846690059
 20
113.8938563638
 11
123.7802848769
 21
114.2188612606
  0
LWPOLYLINE
  5
2CB
100
AcDbEntity
  8
RACCORDO
100
AcDbPolyline
 62
253
  6
CONTINUOUS
 90
3
 70
0
 10
123.6609104153
 20
113.9409637607
 10
124.0126606141
 20
113.7762755046
 10
124.7190907594
 20
113.449322527
  0
LINE
  5
2CC
100
AcDbEntity
  8
RACCORDO
100
AcDbLine
 62
253
  6
CONTINUOUS
 10
123.7802848769
 20
114.2188612606
 11
123.0797685452
 21
114.5469727034
  0
LWPOLYLINE
  5
2CD
100
AcDbEntity
  8
RACCORDO
100
AcDbPolyline
 62
7
  6
CONTINUOUS
 90
10
 70
0
 10
122.4670121474
 20
114.6930171167
 10
122.8861588068
 20
114.493122919
 10
123.3641218858
 20
114.2673660016
 10
123.8441614769
 20
114.0429450019
 10
124.3262641518
 20
113.8198663661
 10
124.8104180851
 20
113.5981358073
 10
125.2966118986
 20
113.3777588381
 10
125.7848338774
 20
113.1587411524
 10
126.2750718396
 20
112.9410887036
 10
126.70321429
 20
112.752844073
  0
LINE
  5
2CE
100
AcDbEntity
  8
RACCORDO
100
AcDbLine
 62
253
  6
CONTINUOUS
 10
123.0797685452
 20
114.5469727034
 11
122.3831624682
 21
114.8781821765
  0
LWPOLYLINE
  5
2CF
100
AcDbEntity
  8
RACCORDO
100
AcDbPolyline
 62
253
  6
CONTINUOUS
 90
16
 70
0
 10
140.1414404476
 20
107.0805667652
 10
140.1175806601
 20
107.0589461151
 10
140.09400161
 20
107.0340212649
 10
140.0709592533
 20
107.0060627798
 10
140.0487037203
 20
106.9753741557
 10
140.0274766002
 20
106.942288525
 10
140.0075083184
 20
106.90716504
 10
139.9890156353
 20
106.8703849745
 10
139.9721992934
 20
106.8323475848
 10
139.957241838
 20
106.7934657759
 10
139.9443056359
 20
106.7541616191
 10
139.9335311126
 20
106.7148617702
 10
139.9250352282
 20
106.6759928385
 10
139.9189102075
 20
106.6379767554
 10
139.9152225391
 20
106.6012261946
 10
139.9140122533
 20
106.5661400921
  0
LWPOLYLINE
  5
2D0
100
AcDbEntity
  8
RACCORDO
100
AcDbPolyline
 62
253
  6
CONTINUOUS
 90
10
 70
0
 10
122.5923432273
 20
114.5162090112
 10
122.5574948139
 20
114.527650109
 10
122.5230498198
 20
114.5353954455
 10
122.4893855036
 20
114.5393601364
 10
122.4568706074
 20
114.5395007036
 10
122.4258612423
 20
114.5358155552
 10
122.3966970001
 20
114.5283449748
 10
122.3696973299
 20
114.5171706924
 10
122.3451580321
 20
114.5024150243
 10
122.3301744174
 20
114.4905566981
  0
LWPOLYLINE
  5
2D1
100
AcDbEntity
  8
RACCORDO
100
AcDbPolyline
 62
253
  6
CONTINUOUS
 90
22
 70
0
 10
128.1157083054
 20
113.4158196237
 10
128.0220990794
 20
113.4527962918
 10
127.929098357
 20
113.4838566586
 10
127.8367053982
 20
113.5090001184
 10
127.7445166571
 20
113.5283525433
 10
127.6529354074
 20
113.5417878194
 10
127.5631689393
 20
113.5489256723
 10
127.4752285461
 20
113.5496465934
 10
127.3890984518
 20
113.5440666584
 10
127.3059407913
 20
113.5321554589
 10
127.2258148401
 20
113.5137938553
 10
127.1486537168
 20
113.4890952262
 10
127.0754264169
 20
113.4583749305
 10
127.0061931574
 20
113.4215146046
 10
126.9408844637
 20
113.3786256463
 10
126.8802718477
 20
113.3303657694
 10
126.8244488861
 20
113.2766429103
 10
126.7733124726
 20
113.2175419788
 10
126.7273371695
 20
113.1539846259
 10
126.6866779455
 20
113.0862756258
 10
126.6511714445
 20
113.0141038844
 10
126.6208145563
 20
112.9374670772
  0
LWPOLYLINE
  5
2D2
100
AcDbEntity
  8
RACCORDO
100
AcDbPolyline
 62
253
  6
CONTINUOUS
 90
10
 70
0
 10
151.8440686219
 20
103.7333519236
 10
151.8371926342
 20
103.7363312816
 10
151.8210063423
 20
103.7466594056
 10
151.8066206534
 20
103.7609196404
 10
151.7941924288
 20
103.7789564926
 10
151.7838571857
 20
103.8005732887
 10
151.7757276193
 20
103.8255343195
 10
151.7698923743
 20
103.8535674104
 10
151.7664150781
 20
103.8843668889
 10
151.7653336471
 20
103.9175969183
  0
LWPOLYLINE
  5
2D3
100
AcDbEntity
  8
RACCORDO
100
AcDbPolyline
 62
253
  6
CONTINUOUS
 90
10
 70
0
 10
149.2122991897
 20
104.7613222924
 10
149.2066654961
 20
104.7638153362
 10
149.1898470684
 20
104.7743880463
 10
149.1748980794
 20
104.7888654614
 10
149.1619815131
 20
104.8070897389
 10
149.151238195
 20
104.8288621853
 10
149.1427852558
 20
104.8539454223
 10
149.1367148555
 20
104.8820659754
 10
149.1330931777
 20
104.912917255
 10
149.1319597083
 20
104.9461628994
  0
LWPOLYLINE
  5
2D4
100
AcDbEntity
  8
RACCORDO
100
AcDbPolyline
 62
253
  6
CONTINUOUS
 90
16
 70
0
 10
158.3190120173
 20
100.1675734052
 10
158.3526285297
 20
100.1515172447
 10
158.3858987688
 20
100.1320661706
 10
158.418458325
 20
100.1094332308
 10
158.4499505725
 20
100.0838663246
 10
158.480030576
 20
100.055645487
 10
158.5083688684
 20
100.0250798215
 10
158.5346550597
 20
99.9925041146
 10
158.5586012364
 20
99.9582751689
 10
158.5799451158
 20
99.922767895
 10
158.5984529174
 20
99.8863712047
 10
158.613921925
 20
99.849483752
 10
158.6261827069
 20
99.8125095669
 10
158.6351009707
 20
99.7758536285
 10
158.640579034
 20
99.7399174303
 10
158.6425568956
 20
99.7050945823
  0
LINE
  5
2D5
100
AcDbEntity
  8
DRAFT
100
AcDbLine
 62
253
  6
CONTINUOUS
 10
129.9903001889
 20
112.0928497018
 11
130.5638765042
 21
112.0712048342
  0
LINE
  5
2D6
100
AcDbEntity
  8
RACCORDO
100
AcDbLine
 62
7
  6
CONTINUOUS
 10
161.5007182453
 20
102.7485020914
 11
161.5650051865
 21
102.7226830065
  0
LWPOLYLINE
  5
2D7
100
AcDbEntity
  8
RACCORDO
100
AcDbPolyline
 62
253
  6
CONTINUOUS
 90
22
 70
0
 10
145.5446097217
 20
104.6811368
 10
145.5693618332
 20
104.6003321385
 10
145.5984296666
 20
104.5190594446
 10
145.6317707259
 20
104.4376071373
 10
145.6693529175
 20
104.3562199226
 10
145.71107556
 20
104.2752530932
 10
145.7567438582
 20
104.1951652677
 10
145.8062246532
 20
104.1162580191
 10
145.8593642026
 20
104.03883814
 10
145.9158687091
 20
103.9633547675
 10
145.9755273412
 20
103.8901031929
 10
146.0381335934
 20
103.8193502763
 10
146.103346916
 20
103.7514672643
 10
146.1709282291
 20
103.686689263
 10
146.2406127619
 20
103.6252585367
 10
146.3119838829
 20
103.5675041386
 10
146.3847569685
 20
103.5136104576
 10
146.458659608
 20
103.4637369222
 10
146.5332723464
 20
103.4181070071
 10
146.6082660612
 20
103.3768492394
 10
146.6834104099
 20
103.340021403
 10
146.7584347518
 20
103.3076907256
  0
LWPOLYLINE
  5
2D8
100
AcDbEntity
  8
RACCORDO
100
AcDbPolyline
 62
253
  6
CONTINUOUS
 90
22
 70
0
 10
145.0046322023
 20
104.5216140823
 10
145.0358815869
 20
104.4192020166
 10
145.0724122264
 20
104.3169539621
 10
145.1142228428
 20
104.214868856
 10
145.1614795697
 20
104.1125031544
 10
145.2140139703
 20
104.0102984757
 10
145.2713223828
 20
103.9095810657
 10
145.3335034831
 20
103.8103558641
 10
145.400455325
 20
103.7126152003
 10
145.4713723928
 20
103.6176656518
 10
145.5463175787
 20
103.5255668501
 10
145.6252244431
 20
103.4362561985
 10
145.7070929342
 20
103.3508564965
 10
145.7919837287
 20
103.2694297028
 10
145.8798329628
 20
103.1919111884
 10
145.9694536112
 20
103.11923375
 10
146.0608566277
 20
103.0515010585
 10
146.1540287128
 20
102.9886074713
 10
146.2477465773
 20
102.9311719261
 10
146.3416020419
 20
102.8794003885
 10
146.4360020843
 20
102.8330858773
 10
146.5309464167
 20
102.792228139
  0
LWPOLYLINE
  5
2D9
100
AcDbEntity
  8
RACCORDO
100
AcDbPolyline
 62
253
  6
CONTINUOUS
 90
11
 70
0
 10
149.4417262673
 20
86.5048913862
 10
149.4469253204
 20
86.4294488513
 10
149.4566470218
 20
86.3585811769
 10
149.4708269004
 20
86.2927583351
 10
149.4893709197
 20
86.2324168422
 10
149.5121561015
 20
86.1779568639
 10
149.5390313417
 20
86.1297395616
 10
149.5698184122
 20
86.0880846972
 10
149.6043131429
 20
86.0532685128
 10
149.6422867756
 20
86.0255218981
 10
149.6818161156
 20
86.0056932898
  0
LWPOLYLINE
  5
2DA
100
AcDbEntity
  8
RACCORDO
100
AcDbPolyline
 62
253
  6
CONTINUOUS
 90
5
 70
0
 10
145.5446097207
 20
105.4434052178
 10
145.5323725181
 20
105.415781197
 10
145.5168185145
 20
105.390971358
 10
145.498120591
 20
105.3692516041
 10
145.4832539971
 20
105.3560033367
  0
LWPOLYLINE
  5
2DB
100
AcDbEntity
  8
RACCORDO
100
AcDbPolyline
 62
253
  6
CONTINUOUS
 90
16
 70
0
 10
145.2320649803
 20
105.0359779769
 10
145.208116267
 20
105.0139556388
 10
145.1845590586
 20
104.989089785
 10
145.1615870706
 20
104.9614806034
 10
145.1394589562
 20
104.9309597005
 10
145.1182765409
 20
104.8977326599
 10
145.0981392686
 20
104.8625942611
 10
145.0796255844
 20
104.8259288226
 10
145.0629599009
 20
104.7878242428
 10
145.0478742955
 20
104.7489108875
 10
145.034847546
 20
104.7096562164
 10
145.024250245
 20
104.670339187
 10
145.015664833
 20
104.6314550188
 10
145.0091924329
 20
104.5934640157
 10
145.0054248094
 20
104.5567273792
 10
145.0046322023
 20
104.5216140822
  0
LINE
  5
2DC
100
AcDbEntity
  8
RACCORDO
100
AcDbLine
 62
253
  6
CONTINUOUS
 10
158.8587292569
 20
118.9039416548
 11
162.2291977045
 21
121.759712569
  0
LINE
  5
2DD
100
AcDbEntity
  8
RACCORDO
100
AcDbLine
 62
253
  6
CONTINUOUS
 10
159.2756670228
 20
118.3366337032
 11
162.6383528165
 21
121.1858104371
  0
LWPOLYLINE
  5
2DE
100
AcDbEntity
  8
RACCORDO
100
AcDbPolyline
 62
253
  6
CONTINUOUS
 90
8
 70
0
 10
145.7792243438
 20
105.7796158365
 10
145.7568386749
 20
105.7608291667
 10
145.7111534612
 20
105.7170665656
 10
145.6694132733
 20
105.6692645618
 10
145.6318132853
 20
105.6177396104
 10
145.5984549432
 20
105.5627705331
 10
145.5693713522
 20
105.5045708891
 10
145.5446058977
 20
105.4433946362
  0
LINE
  5
2DF
100
AcDbEntity
  8
RACCORDO
100
AcDbLine
 62
7
  6
CONTINUOUS
 10
145.7807190251
 20
105.7808147636
 11
145.7792243438
 21
105.7796158365
  0
LINE
  5
2E0
100
AcDbEntity
  8
RACCORDO
100
AcDbLine
 62
253
  6
CONTINUOUS
 10
146.1158965176
 20
105.8986257809
 11
145.5446058977
 21
105.4433946362
  0
LINE
  5
2E1
100
AcDbEntity
  8
RACCORDO
100
AcDbLine
 62
7
  6
CONTINUOUS
 10
145.4831311868
 20
105.3559055247
 11
146.1667536212
 21
105.8998755759
  0
LWPOLYLINE
  5
2E2
100
AcDbEntity
  8
RACCORDO
100
AcDbPolyline
 62
7
  6
CONTINUOUS
 90
14
 70
0
 10
145.7791748217
 20
105.7795678422
 10
145.8266356101
 20
105.8133578335
 10
145.8801558951
 20
105.842503087
 10
145.936879895
 20
105.8653547547
 10
145.9977221193
 20
105.8825788666
 10
146.0626280082
 20
105.8941283827
 10
146.1308062311
 20
105.8998845906
 10
146.2022101925
 20
105.8998666843
 10
146.2762934271
 20
105.8940417899
 10
146.3524376057
 20
105.8824810405
 10
146.4306819542
 20
105.865159106
 10
146.5107347316
 20
105.842053959
 10
146.5917919943
 20
105.8133619104
 10
146.6112076282
 20
105.8057160083
  0
LWPOLYLINE
  5
2E3
100
AcDbEntity
  8
RACCORDO
100
AcDbPolyline
 62
253
  6
CONTINUOUS
 90
16
 70
0
 10
145.5446097207
 20
105.4434052178
 10
145.5183635551
 20
105.4249102403
 10
145.4895322668
 20
105.409591673
 10
145.4582313974
 20
105.3972507829
 10
145.4243135577
 20
105.387597332
 10
145.3880073937
 20
105.380830843
 10
145.3501406081
 20
105.3774114887
 10
145.3111624134
 20
105.37710491
 10
145.271182933
 20
105.3797757357
 10
145.2308102516
 20
105.3858071255
 10
145.1905584353
 20
105.3948926324
 10
145.1507382142
 20
105.4067189695
 10
145.1117991816
 20
105.4216217517
 10
145.0742035966
 20
105.4394561015
 10
145.0383556766
 20
105.4595414194
 10
145.0046322019
 20
105.4813849628
  0
LINE
  5
2E4
100
AcDbEntity
  8
DRAFT
100
AcDbLine
 62
7
  6
CONTINUOUS
 10
162.6383528165
 20
115.7957405637
 11
163.4027194475
 21
115.8651989946
  0
LWPOLYLINE
  5
2E5
100
AcDbEntity
  8
RACCORDO
100
AcDbPolyline
 62
253
  6
CONTINUOUS
 90
4
 70
0
 10
149.2814309073
 20
91.5364602998
 10
149.3285283553
 20
89.8536442287
 10
149.3819606159
 20
88.1764391247
 10
149.441726265
 20
86.5048913842
  0
LINE
  5
2E6
100
AcDbEntity
  8
RACCORDO
100
AcDbLine
 62
253
  6
CONTINUOUS
 10
149.2383449911
 20
93.3392318509
 11
149.2814309073
 21
91.5364602998
  0
LINE
  5
2E7
100
AcDbEntity
  8
RACCORDO
100
AcDbLine
 62
253
  6
CONTINUOUS
 10
149.2057121735
 20
94.9510435594
 11
149.2383449911
 21
93.3392318509
  0
LINE
  5
2E8
100
AcDbEntity
  8
RACCORDO
100
AcDbLine
 62
253
  6
CONTINUOUS
 10
149.1564195941
 20
98.3227341747
 11
149.1741440242
 21
96.933102654
  0
LINE
  5
2E9
100
AcDbEntity
  8
RACCORDO
100
AcDbLine
 62
253
  6
CONTINUOUS
 10
149.1741440242
 20
96.933102654
 11
149.2057121735
 21
94.9510435594
  0
LWPOLYLINE
  5
2EA
100
AcDbEntity
  8
RACCORDO
100
AcDbPolyline
 62
253
  6
CONTINUOUS
 90
3
 70
0
 10
149.1319597083
 20
101.7478095876
 10
149.1410187813
 20
100.0326496963
 10
149.1564195941
 20
98.3227341747
  0
LINE
  5
2EB
100
AcDbEntity
  8
RACCORDO
100
AcDbLine
 62
253
  6
CONTINUOUS
 10
150.2901930261
 20
124.7301083248
 11
150.2901930261
 21
124.5263246391
  0
LWPOLYLINE
  5
2EC
100
AcDbEntity
  8
RACCORDO
100
AcDbPolyline
 62
253
  6
CONTINUOUS
 90
10
 70
0
 10
149.1319597083
 20
104.9461628994
 10
149.1410187813
 20
106.6761643059
 10
149.1564195941
 20
108.4113110409
 10
149.1781616799
 20
110.1515551194
 10
149.2062450963
 20
111.896877877
 10
149.240669065
 20
113.6472021521
 10
149.2814309072
 20
115.4023914569
 10
149.3285283552
 20
117.1623674707
 10
149.3819606158
 20
118.9271108679
 10
149.441726265
 20
120.6965729192
  0
LWPOLYLINE
  5
2ED
100
AcDbEntity
  8
RACCORDO
100
AcDbPolyline
 62
253
  6
CONTINUOUS
 90
19
 70
0
 10
149.4417261316
 20
120.6965728198
 10
149.4469251878
 20
120.7805381874
 10
149.4566468932
 20
120.8673410384
 10
149.4708267767
 20
120.9564057235
 10
149.4893708017
 20
121.0471415937
 10
149.5121559901
 20
121.1389469172
 10
149.5390312376
 20
121.2312128699
 10
149.569818316
 20
121.3233275729
 10
149.6043130551
 20
121.4146801505
 10
149.6422866967
 20
121.504664781
 10
149.6834874114
 20
121.5926847146
 10
149.7276419692
 20
121.6781562308
 10
149.7744575507
 20
121.7605125092
 10
149.8236236899
 20
121.8392073889
 10
149.8748143322
 20
121.9137189902
 10
149.9276899975
 20
121.9835531754
 10
149.9819000309
 20
122.0482468262
 10
150.0370849285
 20
122.1073709147
 10
150.0928787214
 20
122.1605333483
  0
LWPOLYLINE
  5
2EE
100
AcDbEntity
  8
RACCORDO
100
AcDbPolyline
 62
253
  6
CONTINUOUS
 90
16
 70
0
 10
146.7583641013
 20
103.3077190654
 10
146.7344558728
 20
103.2860496948
 10
146.7108300747
 20
103.2610629436
 10
146.6877442348
 20
103.2330311744
 10
146.6654499953
 20
103.2022599415
 10
146.6441903698
 20
103.1690846601
 10
146.6241970942
 20
103.1338669501
 10
146.605688101
 20
103.0969906946
 10
146.5888651433
 20
103.0588578553
 10
146.5739115963
 20
103.0198840909
 10
146.5609904577
 20
102.9804942265
 10
146.5502425718
 20
102.9411176229
 10
146.5417850935
 20
102.9021834961
 10
146.5357102117
 20
102.8641162393
 10
146.5320841444
 20
102.8273307963
 10
146.5309464167
 20
102.792228139
  0
LINE
  5
2EF
100
AcDbEntity
  8
RACCORDO
100
AcDbLine
 62
253
  6
CONTINUOUS
 10
148.4212211854
 20
104.6905763142
 11
146.7584347275
 21
103.3076907035
  0
LINE
  5
2F0
100
AcDbEntity
  8
RACCORDO
100
AcDbLine
 62
253
  6
CONTINUOUS
 10
145.2320649758
 20
105.0359779787
 11
146.2777057055
 21
105.8938273678
  0
LINE
  5
2F1
100
AcDbEntity
  8
RACCORDO
100
AcDbLine
 62
253
  6
CONTINUOUS
 10
145.5446097217
 20
104.6811368
 11
146.8179949224
 21
105.7226766195
  0
LWPOLYLINE
  5
2F2
100
AcDbEntity
  8
RACCORDO
100
AcDbPolyline
 62
253
  6
CONTINUOUS
 90
16
 70
0
 10
145.5446097214
 20
104.6811368012
 10
145.5183656739
 20
104.6617189516
 10
145.4895366031
 20
104.6428441641
 10
145.4582379508
 20
104.6246990766
 10
145.4243223249
 20
104.6075710022
 10
145.3880182456
 20
104.5915207363
 10
145.3501530781
 20
104.5765203056
 10
145.3111758231
 20
104.5630977603
 10
145.2711966253
 20
104.551466892
 10
145.2308235365
 20
104.541267055
 10
145.190570554
 20
104.5329242549
 10
145.1507484984
 20
104.5267823958
 10
145.1118072107
 20
104.5223541952
 10
145.0742091045
 20
104.5196897139
 10
145.0383584617
 20
104.5193606408
 10
145.0046322023
 20
104.5216140822
  0
LWPOLYLINE
  5
2F3
100
AcDbEntity
  8
RACCORDO
100
AcDbPolyline
 62
253
  6
CONTINUOUS
 90
9
 70
0
 10
153.1585433271
 20
102.2937150443
 10
153.1662539887
 20
102.2762323869
 10
153.177886397
 20
102.2615342589
 10
153.1936596347
 20
102.2484934453
 10
153.2134718089
 20
102.2369424433
 10
153.2370154267
 20
102.2275475687
 10
153.2640262963
 20
102.2204511952
 10
153.2942405333
 20
102.2151939688
 10
153.3272865855
 20
102.2115458269
  0
LWPOLYLINE
  5
2F4
100
AcDbEntity
  8
RACCORDO
100
AcDbPolyline
 62
7
  6
CONTINUOUS
 90
10
 70
0
 10
153.1604661141
 20
102.2872342942
 10
153.1747858476
 20
102.2479085373
 10
153.193180331
 20
102.2102146787
 10
153.2154781794
 20
102.1745721924
 10
153.2414790437
 20
102.1413693618
 10
153.2709382359
 20
102.1109891063
 10
153.3035446818
 20
102.0838144858
 10
153.3389376339
 20
102.0601942951
 10
153.3767276084
 20
102.0404271202
 10
153.4051153989
 20
102.0287506446
  0
LINE
  5
2F5
100
AcDbEntity
  8
DRAFT
100
AcDbLine
 62
7
  6
CONTINUOUS
 10
151.663352557
 20
126.0031941817
 11
151.663352557
 21
124.8014536295
  0
LWPOLYLINE
  5
2F6
100
AcDbEntity
  8
RACCORDO
100
AcDbPolyline
 62
253
  6
CONTINUOUS
 90
22
 70
0
 10
153.3272865855
 20
102.2115458269
 10
153.2953645584
 20
102.3131557001
 10
153.2580333047
 20
102.414547108
 10
153.2152955456
 20
102.515722532
 10
153.1669882274
 20
102.6171243026
 10
153.113281847
 20
102.7183167874
 10
153.0546792431
 20
102.817985364
 10
152.9910796308
 20
102.9161274971
 10
152.9225922466
 20
103.0127533162
 10
152.8500331433
 20
103.1065656362
 10
152.7733370965
 20
103.1975072713
 10
152.6925775999
 20
103.2856427832
 10
152.6087760615
 20
103.3698552345
 10
152.5218689429
 20
103.450083525
 10
152.4319266714
 20
103.5263948221
 10
152.340168022
 20
103.5978614549
 10
152.2465792886
 20
103.6643794974
 10
152.151178344
 20
103.7260564621
 10
152.0552271422
 20
103.7822781807
 10
151.9591455925
 20
103.8328392516
 10
151.8625141673
 20
103.8779452969
 10
151.765333647
 20
103.9175969182
  0
LINE
  5
2F7
100
AcDbEntity
  8
RACCORDO
100
AcDbLine
 62
7
  6
CONTINUOUS
 10
153.1585185761
 20
102.2938011957
 11
153.1585433271
 21
102.2937150443
  0
LINE
  5
2F8
100
AcDbEntity
  8
DRAFT
100
AcDbLine
 62
7
  6
CONTINUOUS
 10
162.6383528165
 20
114.0826251515
 11
164.1234171076
 21
115.5757505666
  0
LWPOLYLINE
  5
2F9
100
AcDbEntity
  8
RACCORDO
100
AcDbPolyline
 62
253
  6
CONTINUOUS
 90
16
 70
0
 10
149.3593108278
 20
102.2633836024
 10
149.3354068957
 20
102.2417088765
 10
149.3117854093
 20
102.2167160975
 10
149.2887039063
 20
102.1886777539
 10
149.2664140369
 20
102.1578995388
 10
149.2451588206
 20
102.1247170176
 10
149.2251699964
 20
102.0894919687
 10
149.2066654961
 20
102.0526084398
 10
149.1898470684
 20
102.0144685604
 10
149.1748980794
 20
101.9754881576
 10
149.1619815132
 20
101.9360922224
 10
149.151238195
 20
101.8967102764
 10
149.1427852559
 20
101.8577716884
 10
149.1367148556
 20
101.8197009938
 10
149.1330931777
 20
101.7829132652
 10
149.1319597084
 20
101.7478095877
  0
LWPOLYLINE
  5
2FA
100
AcDbEntity
  8
RACCORDO
100
AcDbPolyline
 62
253
  6
CONTINUOUS
 90
16
 70
0
 10
158.2194000963
 20
117.424315012
 10
158.2627275675
 20
117.4106683669
 10
158.3081391572
 20
117.3993609711
 10
158.3551947065
 20
117.3905024232
 10
158.4034381218
 20
117.3841785862
 10
158.4524017962
 20
117.3804507548
 10
158.5016111414
 20
117.3793550614
 10
158.550589188
 20
117.3809021262
 10
158.5988612085
 20
117.385076954
 10
158.6459593186
 20
117.3918390796
 10
158.6914270123
 20
117.40112296
 10
158.7348235868
 20
117.4128386098
 10
158.7757284138
 20
117.426872473
 10
158.8137450169
 20
117.4430885244
 10
158.8485049139
 20
117.4613295871
 10
158.8796711891
 20
117.4814188568
  0
LWPOLYLINE
  5
2FB
100
AcDbEntity
  8
RACCORDO
100
AcDbPolyline
 62
253
  6
CONTINUOUS
 90
11
 70
0
 10
122.6381095482
 20
131.7145548735
 10
122.6013369268
 20
131.7330784077
 10
122.567958509
 20
131.7534151205
 10
122.5382978271
 20
131.7753678911
 10
122.5126423777
 20
131.7987239346
 10
122.4912408353
 20
131.8232568641
 10
122.4743006419
 20
131.8487288855
 10
122.4619859964
 20
131.8748931024
 10
122.4544162628
 20
131.9014959087
 10
122.4516648135
 20
131.9282794472
 10
122.4517037021
 20
131.9339477002
  0
LWPOLYLINE
  5
2FC
100
AcDbEntity
  8
RACCORDO
100
AcDbPolyline
 62
253
  6
CONTINUOUS
 90
13
 70
0
 10
153.1672258335
 20
101.5839814582
 10
153.1632272925
 20
101.5716808554
 10
153.1574026922
 20
101.5430516346
 10
153.1559171738
 20
101.513119597
 10
153.1588599037
 20
101.4826196454
 10
153.1662572759
 20
101.4518506441
 10
153.1778910009
 20
101.4207348125
 10
153.1936651144
 20
101.3899811032
 10
153.2134775781
 20
101.3601468249
 10
153.2370208493
 20
101.331006581
 10
153.2640306904
 20
101.3029081102
 10
153.2942431266
 20
101.2767401254
 10
153.3272865855
 20
101.2530654271
  0
LINE
  5
2FD
100
AcDbEntity
  8
RACCORDO
100
AcDbLine
 62
7
  6
CONTINUOUS
 10
153.1674131601
 20
101.5844932567
 11
153.1672258335
 21
101.5839814582
  0
LWPOLYLINE
  5
2FE
100
AcDbEntity
  8
RACCORDO
100
AcDbPolyline
 62
7
  6
CONTINUOUS
 90
9
 70
0
 10
153.1615236533
 20
101.5689779898
 10
153.1708294666
 20
101.5934764426
 10
153.1821402051
 20
101.6194404936
 10
153.1951928332
 20
101.6444213292
 10
153.2099281256
 20
101.6683547679
 10
153.226369735
 20
101.691274777
 10
153.2444763762
 20
101.7130806676
 10
153.2641096523
 20
101.7335767942
 10
153.28515439
 20
101.7526355125
  0
LWPOLYLINE
  5
2FF
100
AcDbEntity
  8
RACCORDO
100
AcDbPolyline
 62
7
  6
CONTINUOUS
 90
7
 70
0
 10
153.1615236533
 20
101.5689779898
 10
153.1389097501
 20
101.5177065585
 10
153.1126515575
 20
101.4698787806
 10
153.0829457666
 20
101.4258602172
 10
153.0497367639
 20
101.3855226197
 10
153.0124872864
 20
101.3484366911
 10
152.998287127
 20
101.336115548
  0
LINE
  5
300
100
AcDbEntity
  8
DRAFT
100
AcDbLine
 62
7
  6
CONTINUOUS
 10
162.6383528165
 20
110.7241017699
 11
164.1234171076
 21
112.3043444754
  0
LWPOLYLINE
  5
301
100
AcDbEntity
  8
RACCORDO
100
AcDbPolyline
 62
253
  6
CONTINUOUS
 90
16
 70
0
 10
153.5409667416
 20
101.7728142942
 10
153.5179960797
 20
101.7503582345
 10
153.4959581368
 20
101.7249087807
 10
153.4747096755
 20
101.6966786359
 10
153.45388093
 20
101.6656673406
 10
153.4337409316
 20
101.6320058528
 10
153.4150742639
 20
101.5963034628
 10
153.39779657
 20
101.5591779595
 10
153.3818224787
 20
101.5207798655
 10
153.3678455869
 20
101.481425918
 10
153.3557934224
 20
101.4417993553
 10
153.3455117909
 20
101.4023460884
 10
153.3376051788
 20
101.3631899827
 10
153.3321917045
 20
101.3247919067
 10
153.3288307895
 20
101.2878966228
 10
153.3272865855
 20
101.2530654271
  0
LWPOLYLINE
  5
302
100
AcDbEntity
  8
RACCORDO
100
AcDbPolyline
 62
253
  6
CONTINUOUS
 90
16
 70
0
 10
151.9841367585
 20
101.2387287809
 10
151.9611226285
 20
101.2167044908
 10
151.9383812853
 20
101.191365485
 10
151.9161607076
 20
101.1629880678
 10
151.8947031953
 20
101.1318816752
 10
151.8742427279
 20
101.0983855009
 10
151.8550024124
 20
101.0628647976
 10
151.8371920514
 20
101.0257068938
 10
151.8210058543
 20
100.9873169709
 10
151.8066203204
 20
100.9481136443
 10
151.7941923141
 20
100.9085243991
 10
151.7838573542
 20
100.8689809287
 10
151.7757281362
 20
100.8299144272
 10
151.7698933036
 20
100.7917508878
 10
151.7664164813
 20
100.7549064575
 10
151.7653355815
 20
100.7197828992
  0
LINE
  5
303
100
AcDbEntity
  8
RACCORDO
100
AcDbLine
 62
7
  6
CONTINUOUS
 10
153.5498748309
 20
101.9757977667
 11
153.2851543903
 21
101.7526355127
  0
LINE
  5
304
100
AcDbEntity
  8
RACCORDO
100
AcDbLine
 62
253
  6
CONTINUOUS
 10
153.7115826296
 20
101.916644941
 11
153.5409667461
 21
101.7728142925
  0
LINE
  5
305
100
AcDbEntity
  8
RACCORDO
100
AcDbLine
 62
7
  6
CONTINUOUS
 10
152.9982297562
 20
101.3360607259
 11
152.9988664849
 21
101.3365944315
  0
LINE
  5
306
100
AcDbEntity
  8
RACCORDO
100
AcDbLine
 62
253
  6
CONTINUOUS
 10
153.1813810528
 20
102.2343936846
 11
151.9840618941
 21
101.2387512262
  0
LWPOLYLINE
  5
307
100
AcDbEntity
  8
RACCORDO
100
AcDbPolyline
 62
253
  6
CONTINUOUS
 90
10
 70
0
 10
153.2851543903
 20
101.7526355127
 10
153.2956431947
 20
101.7608308127
 10
153.3198916414
 20
101.7756265269
 10
153.3466217218
 20
101.7867640372
 10
153.3755359441
 20
101.7941194722
 10
153.4063126907
 20
101.7976110932
 10
153.4386095001
 20
101.7972001124
 10
153.4720670395
 20
101.7928911771
 10
153.5063131118
 20
101.7847322937
 10
153.5409667416
 20
101.7728142942
  0
LWPOLYLINE
  5
308
100
AcDbEntity
  8
RACCORDO
100
AcDbPolyline
 62
253
  6
CONTINUOUS
 90
4
 70
0
 10
158.8587292569
 20
118.9039416548
 10
157.941214132
 20
119.2206732973
 10
157.0142944128
 20
119.5465991292
 10
156.0779700993
 20
119.8817191505
  0
LWPOLYLINE
  5
309
100
AcDbEntity
  8
RACCORDO
100
AcDbPolyline
 62
253
  6
CONTINUOUS
 90
10
 70
0
 10
158.2193934351
 20
117.4243090907
 10
157.3019112884
 20
117.7435678124
 10
156.3742354262
 20
118.0716197229
 10
155.4365823744
 20
118.4086175241
 10
154.4957190095
 20
118.7522840162
 10
153.5452666756
 20
119.105149681
 10
152.5660096791
 20
119.474825244
 10
151.5520317611
 20
119.8642342557
 10
150.5104083721
 20
120.2713400381
 10
149.441726265
 20
120.6965729192
  0
LWPOLYLINE
  5
30A
100
AcDbEntity
  8
RACCORDO
100
AcDbPolyline
 62
253
  6
CONTINUOUS
 90
7
 70
0
 10
156.0779700993
 20
119.8817191505
 10
155.1385244884
 20
120.2232549875
 10
154.1896742831
 20
120.5739850139
 10
153.2125695929
 20
120.9422443511
 10
152.2009271207
 20
121.3308113727
 10
151.1610301636
 20
121.7369077051
 10
150.0928787214
 20
122.1605333483
  0
LINE
  5
30B
100
AcDbEntity
  8
RACCORDO
100
AcDbLine
 62
253
  6
CONTINUOUS
 10
149.441726265
 20
120.6965729192
 11
131.0108052685
 21
128.0988463068
  0
LINE
  5
30C
100
AcDbEntity
  8
DRAFT
100
AcDbLine
 62
7
  6
CONTINUOUS
 10
163.4027194475
 20
115.8651989946
 11
164.1234171076
 21
115.5757505666
  0
LINE
  5
30D
100
AcDbEntity
  8
RACCORDO
100
AcDbLine
 62
253
  6
CONTINUOUS
 10
150.0928787214
 20
122.1605333483
 11
131.6623164874
 21
129.5626626488
  0
LWPOLYLINE
  5
30E
100
AcDbEntity
  8
RACCORDO
100
AcDbPolyline
 62
253
  6
CONTINUOUS
 90
10
 70
0
 10
131.0108052685
 20
128.0988463068
 10
130.0249547526
 20
128.4981969992
 10
129.0608636617
 20
128.8952612909
 10
128.1183159557
 20
129.2898132462
 10
127.2071926268
 20
129.6773101243
 10
126.3170694413
 20
130.06177463
 10
125.4177613359
 20
130.4562082477
 10
124.4996150239
 20
130.865220065
 10
123.5729650421
 20
131.2846133061
 10
122.6381095468
 20
131.7145548603
  0
LWPOLYLINE
  5
30F
100
AcDbEntity
  8
RACCORDO
100
AcDbPolyline
 62
253
  6
CONTINUOUS
 90
3
 70
0
 10
131.6623164874
 20
129.5626626488
 10
130.6789083643
 20
129.9618009078
 10
129.7167682399
 20
130.3584511038
  0
LWPOLYLINE
  5
310
100
AcDbEntity
  8
RACCORDO
100
AcDbPolyline
 62
253
  6
CONTINUOUS
 90
8
 70
0
 10
129.7167682399
 20
130.3584511038
 10
128.7758961141
 20
130.7526132367
 10
127.8664157894
 20
131.1399092914
 10
126.9782034633
 20
131.524717283
 10
126.0808877286
 20
131.9201712569
 10
125.1643447828
 20
132.3306492284
 10
124.2386984284
 20
132.7517731822
 10
123.3039486654
 20
133.1835431184
  0
LWPOLYLINE
  5
311
100
AcDbEntity
  8
RACCORDO
100
AcDbPolyline
 62
253
  6
CONTINUOUS
 90
10
 70
0
 10
158.908928872
 20
83.3028938282
 10
158.85323334
 20
85.1679409271
 10
158.8043124245
 20
87.0071014463
 10
158.7621661255
 20
88.8203753856
 10
158.7271277166
 20
90.5874407549
 10
158.6988639242
 20
92.3286195444
 10
158.6763749277
 20
94.1048777247
 10
158.6593274536
 20
95.9365372859
 10
158.6480547755
 20
97.8032762379
 10
158.6425568934
 20
99.7050945806
  0
LWPOLYLINE
  5
312
100
AcDbEntity
  8
RACCORDO
100
AcDbPolyline
 62
253
  6
CONTINUOUS
 90
10
 70
0
 10
158.2487450271
 20
83.2107082068
 10
158.1941453461
 20
85.0765374927
 10
158.1467379794
 20
86.9171316522
 10
158.1062136804
 20
88.7321795559
 10
158.0726204049
 20
90.5010270465
 10
158.045178155
 20
92.2436218749
 10
158.0229216653
 20
94.0210602738
 10
158.0059828347
 20
95.8540659059
 10
157.9949480491
 20
97.7224429017
 10
157.9901195189
 20
99.6264006665
  0
LWPOLYLINE
  5
313
100
AcDbEntity
  8
RACCORDO
100
AcDbPolyline
 62
253
  6
CONTINUOUS
 90
10
 70
0
 10
158.6129223826
 20
100.6660574386
 10
158.616625038
 20
102.3689409689
 10
158.6263142818
 20
104.1031586083
 10
158.6419901138
 20
105.8687103569
 10
158.662989285
 20
107.6522117067
 10
158.6899750445
 20
109.4670471657
 10
158.7249371399
 20
111.3533702578
 10
158.7685388204
 20
113.324565491
 10
158.8201168368
 20
115.3672483574
 10
158.8796711891
 20
117.4814188568
  0
LWPOLYLINE
  5
314
100
AcDbEntity
  8
RACCORDO
100
AcDbPolyline
 62
253
  6
CONTINUOUS
 90
5
 70
0
 10
157.9603629469
 20
100.5895763924
 10
157.9643576215
 20
102.2944252797
 10
157.9736745999
 20
104.030382309
 10
157.9885577669
 20
105.7976118609
 10
158.0090802601
 20
107.5832072805
  0
LWPOLYLINE
  5
315
100
AcDbEntity
  8
RACCORDO
100
AcDbPolyline
 62
253
  6
CONTINUOUS
 90
6
 70
0
 10
158.0090802601
 20
107.5832072805
 10
158.035585803
 20
109.4003388158
 10
158.0690980966
 20
111.2885765348
 10
158.1105609461
 20
113.2615524111
 10
158.1604288244
 20
115.3066364616
 10
158.2193934351
 20
117.4243090907
  0
LWPOLYLINE
  5
316
100
AcDbEntity
  8
RACCORDO
100
AcDbPolyline
 62
253
  6
CONTINUOUS
 90
22
 70
0
 10
158.2193934842
 20
117.4243091708
 10
158.2229972204
 20
117.4962758825
 10
158.2299083918
 20
117.570484578
 10
158.2400956631
 20
117.646567704
 10
158.2535190232
 20
117.7241401675
 10
158.2701109969
 20
117.802825097
 10
158.2897789962
 20
117.8822564537
 10
158.3124409351
 20
117.9620449006
 10
158.3379908518
 20
118.0417891042
 10
158.3662817191
 20
118.1211020788
 10
158.3971894886
 20
118.1995867258
 10
158.4305724991
 20
118.2768526082
 10
158.4662394471
 20
118.3525279036
 10
158.5040334681
 20
118.4262339279
 10
158.5437806438
 20
118.4975998216
 10
158.585249365
 20
118.5662796208
 10
158.6282513331
 20
118.631923571
 10
158.6725927834
 20
118.6942049681
 10
158.7180235735
 20
118.7528336256
 10
158.7643218698
 20
118.807519392
 10
158.8112946784
 20
118.8579748949
 10
158.8587292568
 20
118.9039416548
  0
LWPOLYLINE
  5
317
100
AcDbEntity
  8
RACCORDO
100
AcDbPolyline
 62
253
  6
CONTINUOUS
 90
22
 70
0
 10
158.8796711891
 20
117.4814188568
 10
158.881976697
 20
117.5234675541
 10
158.8862780156
 20
117.5664193687
 10
158.8925751448
 20
117.6102743007
 10
158.9009183535
 20
117.6552751606
 10
158.911257373
 20
117.7011791379
 10
158.9234413965
 20
117.7472578005
 10
158.9374968083
 20
117.7934956995
 10
158.9533972242
 20
117.8399082839
 10
158.9709126845
 20
117.8858134681
 10
158.9900689642
 20
117.9312069207
 10
159.0108402884
 20
117.9760929732
 10
159.0329193727
 20
118.0198025344
 10
159.0563256701
 20
118.0623165632
 10
159.0810397277
 20
118.1036541006
 10
159.1066959021
 20
118.1432031789
 10
159.1333211672
 20
118.1809480447
 10
159.1608885492
 20
118.2169044513
 10
159.1889514823
 20
118.2505076913
 10
159.2173611113
 20
118.2815695286
 10
159.2462662915
 20
118.3102781992
 10
159.2756670228
 20
118.3366337032
  0
LWPOLYLINE
  5
318
100
AcDbEntity
  8
RACCORDO
100
AcDbPolyline
 62
253
  6
CONTINUOUS
 90
16
 70
0
 10
158.6129223846
 20
100.6660574401
 10
158.5821314718
 20
100.6445788326
 10
158.5478360344
 20
100.6249186182
 10
158.5103619669
 20
100.60726232
 10
158.470067941
 20
100.5917778992
 10
158.427333332
 20
100.578609232
 10
158.3825529583
 20
100.5678764746
 10
158.3361441985
 20
100.5596809892
 10
158.2885502783
 20
100.5541025521
 10
158.2402267089
 20
100.5511937594
 10
158.1916369784
 20
100.5509816708
 10
158.1432333016
 20
100.5534675685
 10
158.0954586159
 20
100.5586287745
 10
158.0487603256
 20
100.5664192023
 10
158.0035856077
 20
100.5767670823
 10
157.9603629521
 20
100.5895764009
  0
LWPOLYLINE
  5
319
100
AcDbEntity
  8
RACCORDO
100
AcDbPolyline
 62
253
  6
CONTINUOUS
 90
10
 70
0
 10
123.3039486391
 20
133.1835430936
 10
123.2604877485
 20
133.1978483414
 10
123.2176664238
 20
133.2076580348
 10
123.1759530145
 20
133.2128648987
 10
123.1358037375
 20
133.2134120009
 10
123.0976577244
 20
133.2092933729
 10
123.0619322129
 20
133.2005540892
 10
123.0290179307
 20
133.1872897666
 10
122.999274841
 20
133.1696455072
 10
122.976113164
 20
133.1507696368
  0
LINE
  5
31A
100
AcDbEntity
  8
RACCORDO
100
AcDbLine
 62
7
  6
CONTINUOUS
 10
131.9359103704
 20
131.8825516448
 11
135.1391074865
 21
130.5960754686
  0
LINE
  5
31B
100
AcDbEntity
  8
RACCORDO
100
AcDbLine
 62
7
  6
CONTINUOUS
 10
150.3668313669
 20
124.4802782572
 11
153.570028483
 21
123.193802081
  0
LWPOLYLINE
  5
31C
100
AcDbEntity
  8
RACCORDO
100
AcDbPolyline
 62
253
  6
CONTINUOUS
 90
16
 70
0
 10
158.8587292568
 20
118.9039416548
 10
158.9007899767
 20
118.8838995657
 10
158.942554832
 20
118.8597377059
 10
158.9835670354
 20
118.8317203366
 10
159.0233780313
 20
118.8001538871
 10
159.0615524018
 20
118.7653836038
 10
159.0976726295
 20
118.7277897737
 10
159.131343663
 20
118.6877835652
 10
159.162197238
 20
118.645802531
 10
159.189895905
 20
118.6023058231
 10
159.2141367204
 20
118.5577691703
 10
159.2346545594
 20
118.5126796753
 10
159.2512250159
 20
118.4675304878
 10
159.2636668567
 20
118.4228154098
 10
159.2718440038
 20
118.3790234957
 10
159.2756670228
 20
118.3366337032
  0
LINE
  5
31D
100
AcDbEntity
  8
RACCORDO
100
AcDbLine
 62
7
  6
CONTINUOUS
 10
161.8927034493
 20
102.2634735536
 11
161.8927034493
 21
91.9690837854
  0
LWPOLYLINE
  5
31E
100
AcDbEntity
  8
RACCORDO
100
AcDbPolyline
 62
253
  6
CONTINUOUS
 90
16
 70
0
 10
158.1885249541
 20
100.1513585945
 10
158.167689174
 20
100.1286384823
 10
158.1471012588
 20
100.1026271796
 10
158.1269846239
 20
100.0736069557
 10
158.107557571
 20
100.0418927319
 10
158.089030918
 20
100.0078286641
 10
158.0716057123
 20
99.9717844084
 10
158.0554710482
 20
99.9341511095
 10
158.0408020156
 20
99.8953371561
 10
158.0277577996
 20
99.8557637488
 10
158.0164799529
 20
99.8158603301
 10
158.0070908601
 20
99.7760599233
 10
157.9996924094
 20
99.7367944342
 10
157.9943648867
 20
99.6984899636
 10
157.9911661052
 20
99.6615621837
 10
157.9901307768
 20
99.6264118268
  0
LWPOLYLINE
  5
31F
100
AcDbEntity
  8
RACCORDO
100
AcDbPolyline
 62
253
  6
CONTINUOUS
 90
8
 70
0
 10
158.5340433141
 20
100.4845431606
 10
158.5503072788
 20
100.4986021967
 10
158.5688158418
 20
100.519725468
 10
158.5842856397
 20
100.5439465598
 10
158.5965471295
 20
100.5710001509
 10
158.6054659548
 20
100.6005899134
 10
158.6109443902
 20
100.6323917838
 10
158.612922381
 20
100.6660574374
  0
LINE
  5
320
100
AcDbEntity
  8
RACCORDO
100
AcDbLine
 62
253
  6
CONTINUOUS
 10
158.3190120173
 20
100.1675734052
 11
161.5650051865
 21
102.7226830065
  0
LINE
  5
321
100
AcDbEntity
  8
RACCORDO
100
AcDbLine
 62
253
  6
CONTINUOUS
 10
158.6425568934
 20
99.7050945806
 11
161.8927034493
 21
102.2634735536
  0
LINE
  5
322
100
AcDbEntity
  8
RACCORDO
100
AcDbLine
 62
253
  6
CONTINUOUS
 10
162.6383528165
 20
103.7379845599
 11
158.6129223826
 21
100.6660574386
  0
LINE
  5
323
100
AcDbEntity
  8
RACCORDO
100
AcDbLine
 62
7
  6
CONTINUOUS
 10
162.5592672317
 20
103.5563126831
 11
158.5340434472
 21
100.4845432622
  0
LINE
  5
324
100
AcDbEntity
  8
RACCORDO
100
AcDbLine
 62
7
  6
CONTINUOUS
 10
126.4314115488
 20
136.1369105313
 11
133.2324315605
 21
133.4054675693
  0
LINE
  5
325
100
AcDbEntity
  8
DRAFT
100
AcDbLine
 62
7
  6
CONTINUOUS
 10
136.9972566964
 20
131.8934289187
 11
151.663352557
 21
126.0031941817
  0
LINE
  5
326
100
AcDbEntity
  8
RACCORDO
100
AcDbLine
 62
7
  6
CONTINUOUS
 10
155.4281776929
 20
124.4911555311
 11
162.2291977045
 21
121.759712569
  0
LINE
  5
327
100
AcDbEntity
  8
DRAFT
100
AcDbLine
 62
7
  6
CONTINUOUS
 10
162.6383528165
 20
114.0826251515
 11
162.6383528165
 21
110.7241017699
  0
LINE
  5
328
100
AcDbEntity
  8
RACCORDO
100
AcDbLine
 62
7
  6
CONTINUOUS
 10
162.6383528165
 20
103.7379845599
 11
162.6383528165
 21
110.7241017699
  0
LINE
  5
329
100
AcDbEntity
  8
RACCORDO
100
AcDbLine
 62
7
  6
CONTINUOUS
 10
162.6383528165
 20
114.0826251515
 11
162.6383528165
 21
121.1858104371
  0
LINE
  5
32A
100
AcDbEntity
  8
DRAFT
100
AcDbLine
 62
7
  6
CONTINUOUS
 10
164.1234171076
 20
115.5757505666
 11
164.1234171076
 21
112.3043444754
  0
LINE
  5
32B
100
AcDbEntity
  8
RACCORDO
100
AcDbLine
 62
7
  6
CONTINUOUS
 10
161.2645377994
 20
84.4391517898
 11
161.8927034493
 21
91.9690837854
  0
LWPOLYLINE
  5
32C
100
AcDbEntity
  8
RACCORDO
100
AcDbPolyline
 62
253
  6
CONTINUOUS
 90
8
 70
0
 10
159.190559137
 20
82.8231069921
 10
159.2191648274
 20
82.8467684301
 10
159.2434053362
 20
82.87400371
 10
159.2639228392
 20
82.9051559246
 10
159.2804929696
 20
82.939884344
 10
159.2929345293
 20
82.9778091264
 10
159.3011114733
 20
83.0185154698
 10
159.3049344009
 20
83.0615581586
  0
LINE
  5
32D
100
AcDbEntity
  8
RACCORDO
100
AcDbLine
 62
253
  6
CONTINUOUS
 10
161.2645377994
 20
84.4391517898
 11
159.3049344009
 21
83.0615581586
  0
LINE
  5
32E
100
AcDbEntity
  8
RACCORDO
100
AcDbLine
 62
7
  6
CONTINUOUS
 10
161.1343112214
 20
84.1895572106
 11
159.1905590656
 21
82.8231069419
  0
LWPOLYLINE
  5
32F
100
AcDbEntity
  8
RACCORDO
100
AcDbPolyline
 62
253
  6
CONTINUOUS
 90
22
 70
0
 10
159.3049344009
 20
83.0615581586
 10
159.2755316899
 20
83.0423328051
 10
159.2466246086
 20
83.0262291645
 10
159.218213157
 20
83.0132472369
 10
159.1901484566
 20
83.003344488
 10
159.1625793859
 20
82.9965634521
 10
159.135952581
 20
82.9930317323
 10
159.1102950235
 20
82.9928069121
 10
159.0855797317
 20
82.995831408
 10
159.0621723968
 20
83.0020600724
 10
159.0400924789
 20
83.0115421126
 10
159.0193205178
 20
83.0242283212
 10
159.0001638251
 20
83.0399259282
 10
158.9826481823
 20
83.058679228
 10
158.9667478078
 20
83.080443926
 10
158.9526926682
 20
83.1048943685
 10
158.9405091535
 20
83.1320869122
 10
158.9301708738
 20
83.1619652004
 10
158.9218286261
 20
83.1940345085
 10
158.915532676
 20
83.2281299284
 10
158.911232758
 20
83.2644163683
 10
158.908928872
 20
83.3028938282
  0
ELLIPSE
  5
330
100
AcDbEntity
  8
RACCORDO
100
AcDbEllipse
 62
7
  6
CONTINUOUS
 10
161.5649303119
 20
102.3950397833
 30
0.0
 11
0.2536322564
 21
-0.3093628868
 31
0.0
 40
0.6711200097
 41
0.6859711218
 42
2.2565390145
  0
ELLIPSE
  5
331
100
AcDbEntity
  8
RACCORDO
100
AcDbEllipse
 62
7
  6
CONTINUOUS
 10
160.8548711719
 20
84.6043000342
 30
0.0
 11
-0.269399584
 21
0.4214793685
 31
0.0
 40
0.7373072911
 41
-3.1087872535
 42
-2.3735136114
  0
ELLIPSE
  5
332
100
AcDbEntity
  8
RACCORDO
100
AcDbEllipse
 62
7
  6
CONTINUOUS
 10
162.2286363948
 20
121.3497999015
 30
0.0
 11
-0.3165198962
 21
0.3871139532
 31
0.0
 40
0.6720475734
 41
-2.4536186814
 42
-0.8841923507
  0
ELLIPSE
  5
333
100
AcDbEntity
  8
RACCORDO
100
AcDbEllipse
 62
7
  6
CONTINUOUS
 10
162.3105796792
 20
103.8697004931
 30
0.0
 11
-0.2536549561
 21
0.3094601249
 31
0.0
 40
0.6708195125
 41
-3.1644370557
 42
-2.4557308722
  0
ELLIPSE
  5
334
100
AcDbEntity
  8
RACCORDO
100
AcDbEllipse
 62
7
  6
CONTINUOUS
 10
126.4319728586
 20
135.7265469945
 30
0.0
 11
-0.3166934957
 21
0.3878404978
 31
0.0
 40
0.6702436759
 41
-0.8821199121
 42
0.0484752164
  0
ELLIPSE
  5
335
100
AcDbEntity
  8
RACCORDO
100
AcDbEllipse
 62
7
  6
CONTINUOUS
 10
135.3111804174
 20
130.7499083435
 30
0.0
 11
0.2999152281
 21
0.0117261408
 31
0.0
 40
0.6081570881
 41
-2.2054349231
 42
-0.6520918889
  0
ELLIPSE
  5
336
100
AcDbEntity
  8
RACCORDO
100
AcDbEllipse
 62
7
  6
CONTINUOUS
 10
153.7421014139
 20
123.347634956
 30
0.0
 11
0.2999152281
 21
0.0117261408
 31
0.0
 40
0.6081570881
 41
-2.2054349231
 42
-0.6520918889
  0
ELLIPSE
  5
337
100
AcDbEntity
  8
RACCORDO
100
AcDbEllipse
 62
7
  6
CONTINUOUS
 10
132.1079833013
 20
132.0363845198
 30
0.0
 11
0.2999152281
 21
0.0117261408
 31
0.0
 40
0.6081570881
 41
2.5244073498
 42
4.077750384
  0
ELLIPSE
  5
338
100
AcDbEntity
  8
RACCORDO
100
AcDbEllipse
 62
7
  6
CONTINUOUS
 10
150.5389042978
 20
124.6341111322
 30
0.0
 11
0.2999152281
 21
0.0117261408
 31
0.0
 40
0.6081570881
 41
2.5244073498
 42
4.077750384
  0
ENDSEC
  0
SECTION
  2
OBJECTS
  0
DICTIONARY
  5
C
100
AcDbDictionary
280
0
281
1
  3
ACAD_GROUP
350
D
  3
ACAD_MLINESTYLE
350
17
  3
ACAD_LAYOUT
350
1A
  3
ACAD_PLOTSETTINGS
350
19
  3
ACAD_PLOTSTYLENAME
350
E
  0
DICTIONARY
  5
D
102
{ACAD_REACTORS
330
C
102
}
100
AcDbDictionary
280
0
281
1
  0
ACDBDICTIONARYWDFLT
  5
E
102
{ACAD_REACTORS
330
C
102
}
100
AcDbDictionary
281
1
  3
Normal
350
F
100
AcDbDictionaryWithDefault
340
F
  0
DICTIONARY
  5
17
102
{ACAD_REACTORS
330
C
102
}
100
AcDbDictionary
280
0
281
1
  3
Standard
350
18
  0
DICTIONARY
  5
19
102
{ACAD_REACTORS
330
C
102
}
100
AcDbDictionary
281
1
  0
DICTIONARY
  5
1A
102
{ACAD_REACTORS
330
C
102
}
100
AcDbDictionary
281
1
  3
Model
350
339
  3
Layout1
350
33A
  0
ACDBPLACEHOLDER
  5
F
102
{ACAD_REACTORS
330
E
102
}
  0
MLINESTYLE
  5
18
102
{ACAD_REACTORS
330
17
102
}
100
AcDbMlineStyle
  2
STANDARD
 70
0
  3

 62
256
 51
90.0
 52
90.0
 71
2
 49
0.5
 62
256
  6
BYLAYER
 49
-0.5
 62
256
  6
BYLAYER
  0
LAYOUT
  5
339
102
{ACAD_REACTORS
330
1A
102
}
100
AcDbPlotSettings
  1

  2
none_device
  4
ISO_A4_(297.00_x_210.00_MM)
  6

 40
0.0
 41
0.0
 42
0.0
 43
0.0
 44
297.0
 45
210.0
 46
0.0
 47
0.0
 48
0.0
 49
0.0
140
0.0
141
0.0
142
1.0
143
1.0
 70
1024
 72
1
 73
0
 74
0
  7

 75
0
147
1.0
148
0.0
149
0.0
100
AcDbLayout
  1
Model
 70
0
 71
0
 10
0.0
 20
0.0
 11
297.0
 21
210.0
 12
0.0
 22
0.0
 32
0.0
 14
0.0
 24
0.0
 34
0.0
 15
0.0
 25
0.0
 35
0.0
146
0.0
 13
0.0
 23
0.0
 33
0.0
 16
1.0
 26
0.0
 36
0.0
 17
0.0
 27
1.0
 37
0.0
 76
0
330
214
345
0
346
0
  0
LAYOUT
  5
33A
102
{ACAD_REACTORS
330
1A
102
}
100
AcDbPlotSettings
  1

  2
none_device
  4
ISO_A4_(297.00_x_210.00_MM)
  6

 40
0.0
 41
0.0
 42
0.0
 43
0.0
 44
297.0
 45
210.0
 46
0.0
 47
0.0
 48
0.0
 49
0.0
140
0.0
141
0.0
142
1.0
143
1.0
 70
0
 72
1
 73
0
 74
0
  7

 75
0
147
1.0
148
0.0
149
0.0
100
AcDbLayout
  1
Layout1
 70
0
 71
1
 10
0.0
 20
0.0
 11
297.0
 21
210.0
 12
0.0
 22
0.0
 32
0.0
 14
0.0
 24
0.0
 34
0.0
 15
0.0
 25
0.0
 35
0.0
146
0.0
 13
0.0
 23
0.0
 33
0.0
 16
1.0
 26
0.0
 36
0.0
 17
0.0
 27
1.0
 37
0.0
 76
0
330
215
345
0
346
0
  0
ENDSEC
  0
EOF
