  0
SECTION
  2
HEADER
  9
$ACADVER
  1
AC1015
  9
$DWGCODEPAGE
  3
ANSI_1252
  9
$EXTMAX
 10
297.0
 20
210.0
 30
0.0
  9
$EXTMIN
 10
0.0
 20
0.0
 30
0.0
  9
$LIMMIN
 10
0.0
 20
0.0
  9
$LIMMAX
 10
297.0
 20
210.0
  9
$VIEWCTR
 10
148.5
 20
105.0
  9
$VIEWSIZE
 40
210.0
  9
$CLAYER
  8
0
  9
$LTSCALE
 40
16.335
  9
$CELTYPE
  6
BYLAYER
  9
$DIMSCALE
 40
1.0
  9
$DIMASZ
 40
3.0
  9
$DIMEXO
 40
1.85625
  9
$DIMDLI
 40
11.286
  9
$DIMEXE
 40
5.346
  9
$DIMCEN
 40
2.673
  9
$DIMLFAC
 40
1.0
  9
$DIMBLK
  1
_FILLED
  9
$DIMTXT
 40
3.0
  9
$DIMTOL
 70
1
  9
$DIMLIM
 70
0
  9
$DIMTFAC
 40
1.0
  9
$DIMTP
 40
0.01
  9
$DIMTM
 40
0.01
  9
$PDMODE
 70
3
  9
$PDSIZE
 40
3.0
  9
$HANDSEED
  5
4E1
  9
$TILEMODE
 70
1
  9
$MEASUREMENT
 70
1
  9
$INSUNITS
 70
4
  0
ENDSEC
  0
SECTION
  2
CLASSES
  0
CLASS
  1
ACDBDICTIONARYWDFLT
  2
AcDbDictionaryWithDefault
  3
AutoCAD 2000
 90
0
280
0
281
0
  0
CLASS
  1
ACDBPLACEHOLDER
  2
AcDbPlaceHolder
  3
AutoCAD 2000
 90
0
280
0
281
0
  0
CLASS
  1
LAYOUT
  2
AcDbLayout
  3
AutoCAD 2000
 90
0
280
0
281
0
  0
ENDSEC
  0
SECTION
  2
TABLES
  0
TABLE
  2
VPORT
  5
8
100
AcDbSymbolTable
 70
2
  0
VPORT
  5
1F4
100
AcDbSymbolTableRecord
100
AcDbViewportTableRecord
  2
*ACTIVE
 70
0
 10
0.0
 20
0.0
 11
1.0
 21
1.0
 12
148.5
 22
105.0
 13
0.0
 23
0.0
 14
1.0
 24
1.0
 15
0.0
 25
0.0
 16
0.0
 26
0.0
 36
1.0
 17
0.0
 27
0.0
 37
0.0
 40
210.0
 41
1.4142857143
 42
50.0
 43
0.0
 44
0.0
 50
0.0
 51
0.0
 71
0
 72
100
 73
1
 74
1
 75
0
 76
0
 77
0
 78
0
  0
ENDTAB
  0
TABLE
  2
LTYPE
  5
5
100
AcDbSymbolTable
 70
6
  0
LTYPE
  5
14
100
AcDbSymbolTableRecord
100
AcDbLinetypeTableRecord
  2
BYBLOCK
 70
0
  3

 72
65
 73
0
 40
0.0
  0
LTYPE
  5
15
100
AcDbSymbolTableRecord
100
AcDbLinetypeTableRecord
  2
BYLAYER
 70
0
  3

 72
65
 73
0
 40
0.0
  0
LTYPE
  5
16
100
AcDbSymbolTableRecord
100
AcDbLinetypeTableRecord
  2
CONTINUOUS
 70
64
  3
Solid line
 72
65
 73
0
 40
0.0
  0
LTYPE
  5
1F5
100
AcDbSymbolTableRecord
100
AcDbLinetypeTableRecord
  2
CENTER
 70
64
  3
____ _ ____ _ ____ _ ____ _ ____ _ ____ _ ____
 72
65
 73
4
 40
0.6
 49
0.375
 74
0
 49
-0.075
 74
0
 49
0.075
 74
0
 49
-0.075
 74
0
  0
LTYPE
  5
1F6
100
AcDbSymbolTableRecord
100
AcDbLinetypeTableRecord
  2
HIDDEN
 70
64
  3
- - - - - - - - - - - - - - - - - - - -
 72
65
 73
2
 40
0.2
 49
0.1
 74
0
 49
-0.1
 74
0
  0
LTYPE
  5
1F7
100
AcDbSymbolTableRecord
100
AcDbLinetypeTableRecord
  2
PHANTOM
 70
64
  3
_____ _ _ _____ _ _ _____ _ _ _____
 72
65
 73
6
 40
0.8
 49
0.45
 74
0
 49
-0.05
 74
0
 49
0.1
 74
0
 49
-0.05
 74
0
 49
0.1
 74
0
 49
-0.05
 74
0
  0
LTYPE
  5
1F8
100
AcDbSymbolTableRecord
100
AcDbLinetypeTableRecord
  2
DOT
 70
64
  3
. . . . . . . . . . . . . . . . . . . .
 72
65
 73
2
 40
0.2
 49
0.1
 74
0
 49
-0.1
 74
0
  0
LTYPE
  5
1F9
100
AcDbSymbolTableRecord
100
AcDbLinetypeTableRecord
  2
DASHED
 70
64
  3
- - - - - - - - - - - - - - - - - - - -
 72
65
 73
2
 40
0.2
 49
0.1
 74
0
 49
-0.1
 74
0
  0
ENDTAB
  0
TABLE
  2
LAYER
  5
2
100
AcDbSymbolTable
 70
36
  0
LAYER
  5
10
100
AcDbSymbolTableRecord
100
AcDbLayerTableRecord
  2
0
 70
0
 62
7
  6
CONTINUOUS
370
-3
390
F
  0
LAYER
  5
1FA
100
AcDbSymbolTableRecord
100
AcDbLayerTableRecord
  2
DEFAULT_1
 70
0
 62
7
  6
CENTER
370
-3
390
F
  0
LAYER
  5
1FB
100
AcDbSymbolTableRecord
100
AcDbLayerTableRecord
  2
DEFAULT_2
 70
0
 62
7
  6
HIDDEN
370
-3
390
F
  0
LAYER
  5
1FC
100
AcDbSymbolTableRecord
100
AcDbLayerTableRecord
  2
DEFAULT_3
 70
0
 62
7
  6
PHANTOM
370
-3
390
F
  0
LAYER
  5
1FD
100
AcDbSymbolTableRecord
100
AcDbLayerTableRecord
  2
ASSI
 70
0
 62
7
  6
CONTINUOUS
370
-3
390
F
  0
LAYER
  5
1FE
100
AcDbSymbolTableRecord
100
AcDbLayerTableRecord
  2
COORDINATE
 70
0
 62
7
  6
CONTINUOUS
370
-3
390
F
  0
LAYER
  5
1FF
100
AcDbSymbolTableRecord
100
AcDbLayerTableRecord
  2
COORD_ORIGINE
 70
0
 62
7
  6
CONTINUOUS
370
-3
390
F
  0
LAYER
  5
200
100
AcDbSymbolTableRecord
100
AcDbLayerTableRecord
  2
COPY_PUBLISH
 70
0
 62
7
  6
CONTINUOUS
370
-3
390
F
  0
LAYER
  5
201
100
AcDbSymbolTableRecord
100
AcDbLayerTableRecord
  2
COSMETIC
 70
0
 62
7
  6
CONTINUOUS
370
-3
390
F
  0
LAYER
  5
202
100
AcDbSymbolTableRecord
100
AcDbLayerTableRecord
  2
CURVE
 70
0
 62
7
  6
CONTINUOUS
370
-3
390
F
  0
LAYER
  5
203
100
AcDbSymbolTableRecord
100
AcDbLayerTableRecord
  2
DRAFT
 70
0
 62
7
  6
CONTINUOUS
370
-3
390
F
  0
LAYER
  5
204
100
AcDbSymbolTableRecord
100
AcDbLayerTableRecord
  2
IMPORT_IGES
 70
0
 62
7
  6
CONTINUOUS
370
-3
390
F
  0
LAYER
  5
205
100
AcDbSymbolTableRecord
100
AcDbLayerTableRecord
  2
INCISIONI
 70
0
 62
7
  6
CONTINUOUS
370
-3
390
F
  0
LAYER
  5
206
100
AcDbSymbolTableRecord
100
AcDbLayerTableRecord
  2
INTFCLR_1
 70
0
 62
7
  6
CONTINUOUS
370
-3
390
F
  0
LAYER
  5
207
100
AcDbSymbolTableRecord
100
AcDbLayerTableRecord
  2
INTF_1
 70
0
 62
7
  6
CONTINUOUS
370
-3
390
F
  0
LAYER
  5
208
100
AcDbSymbolTableRecord
100
AcDbLayerTableRecord
  2
INTF_15
 70
0
 62
7
  6
CONTINUOUS
370
-3
390
F
  0
LAYER
  5
209
100
AcDbSymbolTableRecord
100
AcDbLayerTableRecord
  2
INTF_16
 70
0
 62
7
  6
CONTINUOUS
370
-3
390
F
  0
LAYER
  5
20A
100
AcDbSymbolTableRecord
100
AcDbLayerTableRecord
  2
NOTE
 70
0
 62
7
  6
CONTINUOUS
370
-3
390
F
  0
LAYER
  5
20B
100
AcDbSymbolTableRecord
100
AcDbLayerTableRecord
  2
PIANI
 70
0
 62
7
  6
CONTINUOUS
370
-3
390
F
  0
LAYER
  5
20C
100
AcDbSymbolTableRecord
100
AcDbLayerTableRecord
  2
PIANI_COSTRUZIONE_PROFILO
 70
0
 62
7
  6
CONTINUOUS
370
-3
390
F
  0
LAYER
  5
20D
100
AcDbSymbolTableRecord
100
AcDbLayerTableRecord
  2
PIANI_ORIGINE
 70
0
 62
7
  6
CONTINUOUS
370
-3
390
F
  0
LAYER
  5
20E
100
AcDbSymbolTableRecord
100
AcDbLayerTableRecord
  2
PIANI_RIFERIMENTO
 70
0
 62
7
  6
CONTINUOUS
370
-3
390
F
  0
LAYER
  5
20F
100
AcDbSymbolTableRecord
100
AcDbLayerTableRecord
  2
PUNTI
 70
0
 62
7
  6
CONTINUOUS
370
-3
390
F
  0
LAYER
  5
210
100
AcDbSymbolTableRecord
100
AcDbLayerTableRecord
  2
RACCORDO
 70
0
 62
7
  6
CONTINUOUS
370
-3
390
F
  0
LAYER
  5
211
100
AcDbSymbolTableRecord
100
AcDbLayerTableRecord
  2
SKEL
 70
0
 62
7
  6
CONTINUOUS
370
-3
390
F
  0
LAYER
  5
212
100
AcDbSymbolTableRecord
100
AcDbLayerTableRecord
  2
SMUSSO
 70
0
 62
7
  6
CONTINUOUS
370
-3
390
F
  0
LAYER
  5
213
100
AcDbSymbolTableRecord
100
AcDbLayerTableRecord
  2
SNAPLINE
 70
0
 62
7
  6
CONTINUOUS
370
-3
390
F
  0
LAYER
  5
214
100
AcDbSymbolTableRecord
100
AcDbLayerTableRecord
  2
SUPERFICI
 70
0
 62
7
  6
CONTINUOUS
370
-3
390
F
  0
LAYER
  5
215
100
AcDbSymbolTableRecord
100
AcDbLayerTableRecord
  2
SUPERFICI_ESTETICHE
 70
0
 62
7
  6
CONTINUOUS
370
-3
390
F
  0
LAYER
  5
216
100
AcDbSymbolTableRecord
100
AcDbLayerTableRecord
  2
SUPERFICI_SKEL
 70
0
 62
7
  6
CONTINUOUS
370
-3
390
F
  0
LAYER
  5
217
100
AcDbSymbolTableRecord
100
AcDbLayerTableRecord
  2
TRASH
 70
0
 62
7
  6
CONTINUOUS
370
-3
390
F
  0
LAYER
  5
218
100
AcDbSymbolTableRecord
100
AcDbLayerTableRecord
  2
XSEC_DATUMS
 70
0
 62
7
  6
CONTINUOUS
370
-3
390
F
  0
ENDTAB
  0
TABLE
  2
STYLE
  5
3
100
AcDbSymbolTable
 70
1
  0
STYLE
  5
11
100
AcDbSymbolTableRecord
100
AcDbTextStyleTableRecord
  2
STANDARD
 70
0
 40
0.0
 41
0.8
 50
0.0
 71
0
 42
0.2
  3
txt
  4

  0
STYLE
  5
219
100
AcDbSymbolTableRecord
100
AcDbTextStyleTableRecord
  2
TEXTSTYLE_1
 70
0
 40
0.0
 41
0.8
 50
0.0
 71
0
 42
0.2
  3
gdt
  4

  0
ENDTAB
  0
TABLE
  2
VIEW
  5
6
100
AcDbSymbolTable
 70
0
  0
ENDTAB
  0
TABLE
  2
UCS
  5
7
100
AcDbSymbolTable
 70
0
  0
ENDTAB
  0
TABLE
  2
APPID
  5
9
100
AcDbSymbolTable
 70
1
  0
APPID
  5
21A
100
AcDbSymbolTableRecord
100
AcDbRegAppTableRecord
  2
ACAD
 70
0
  0
ENDTAB
  0
TABLE
  2
BLOCK_RECORD
  5
1
100
AcDbSymbolTable
 70
0
  0
BLOCK_RECORD
  5
21B
100
AcDbSymbolTableRecord
100
AcDbBlockTableRecord
  2
*Model_Space
  0
BLOCK_RECORD
  5
21C
100
AcDbSymbolTableRecord
100
AcDbBlockTableRecord
  2
*Paper_Space
  0
ENDTAB
  0
TABLE
  2
DIMSTYLE
  5
A
100
AcDbSymbolTable
 70
1
100
AcDbDimStyleTable
 71
0
  0
DIMSTYLE
105
21D
100
AcDbSymbolTableRecord
100
AcDbDimStyleTableRecord
  2
STANDARD
 70
0
  3

  4

 40
1.0
 41
3.0
 42
0.0625
 43
0.38
 44
0.18
 45
0.0
 46
0.0
 47
0.01
 48
0.01
140
3.0
141
0.09
142
0.0
143
25.4
144
1.0
145
0.0
146
1.0
147
0.09
 71
1.0
 72
0.0
 73
0
 74
0
 75
0
 76
0
 77
1
 78
8
170
0
171
2
172
0
173
0
174
0
175
0
176
0
177
0
178
0
270
2
271
2
272
2
273
2
274
2
275
0
280
0
281
0
282
0
283
1
284
8
285
0
286
0
287
3
288
0
340
11
  0
ENDTAB
  0
ENDSEC
  0
SECTION
  2
BLOCKS
  0
BLOCK
  5
20
100
AcDbEntity
  8
0
100
AcDbBlockBegin
  2
*Model_Space
 70
0
 10
0.0
 20
0.0
 30
0.0
  3
*Model_Space
  1

  0
ENDBLK
  5
21
100
AcDbEntity
  8
0
100
AcDbBlockEnd
  0
BLOCK
  5
1C
100
AcDbEntity
  8
0
100
AcDbBlockBegin
  2
*Paper_Space
 70
0
 10
0.0
 20
0.0
 30
0.0
  3
*Paper_Space
  1

  0
ENDBLK
  5
1D
100
AcDbEntity
  8
0
100
AcDbBlockEnd
  0
ENDSEC
  0
SECTION
  2
ENTITIES
  0
LWPOLYLINE
  5
21E
100
AcDbEntity
  8
ASSI
100
AcDbPolyline
 62
7
  6
CONTINUOUS
 90
12
 70
0
 10
-11.8381947974
 20
26.5218830614
 10
-11.8567046202
 20
26.5108257215
 10
-11.8779202477
 20
26.4951814704
 10
-11.897738077
 20
26.477102986
 10
-11.9159044044
 20
26.4567591908
 10
-11.9317592026
 20
26.4349914519
 10
-11.9455720745
 20
26.4115526478
 10
-11.9572923333
 20
26.386339662
 10
-11.9663371594
 20
26.3605496896
 10
-11.9727058016
 20
26.3344907773
 10
-11.9764999773
 20
26.3074850197
 10
-11.977503065
 20
26.2847961385
  0
LINE
  5
21F
100
AcDbEntity
  8
ASSI
100
AcDbLine
 62
7
  6
CONTINUOUS
 10
-11.8383359868
 20
26.5218077164
 11
-10.2711354964
 21
27.3673483352
  0
LINE
  5
220
100
AcDbEntity
  8
ASSI
100
AcDbLine
 62
253
  6
CONTINUOUS
 10
-11.7458393657
 20
26.5177361714
 11
-10.1795886195
 21
27.3627643814
  0
LINE
  5
221
100
AcDbEntity
  8
ASSI
100
AcDbLine
 62
7
  6
CONTINUOUS
 10
-10.2669276595
 20
27.3694542129
 11
-10.271093163
 21
27.367371175
  0
LINE
  5
222
100
AcDbEntity
  8
ASSI
100
AcDbLine
 62
7
  6
CONTINUOUS
 10
-10.2668698197
 20
27.3694810028
 11
-9.7231864419
 21
27.6205720037
  0
LINE
  5
223
100
AcDbEntity
  8
ASSI
100
AcDbLine
 62
253
  6
CONTINUOUS
 10
-10.1795886195
 20
27.3627643814
 11
-9.6368625568
 21
27.6134132625
  0
LINE
  5
224
100
AcDbEntity
  8
ASSI
100
AcDbLine
 62
7
  6
CONTINUOUS
 10
-9.6998380595
 20
27.6298922526
 11
-9.7229694235
 21
27.6206716805
  0
LWPOLYLINE
  5
225
100
AcDbEntity
  8
ASSI
100
AcDbPolyline
 62
7
  6
CONTINUOUS
 90
19
 70
0
 10
-15.4928431574
 20
22.696423107
 10
-15.5047998562
 20
22.6892345829
 10
-15.5769984785
 20
22.6413777089
 10
-15.6460855267
 20
22.5879688742
 10
-15.7120657611
 20
22.5292902132
 10
-15.7748329018
 20
22.4656765833
 10
-15.8340657688
 20
22.3976423556
 10
-15.8896845462
 20
22.325474209
 10
-15.9415430975
 20
22.2494469754
 10
-15.9892022327
 20
22.1702766791
 10
-16.0325363737
 20
22.0882786509
 10
-16.0713667249
 20
22.0037389128
 10
-16.1053111979
 20
21.9174889638
 10
-16.1342252436
 20
21.8298544076
 10
-16.1579359206
 20
21.7411108229
 10
-16.1761763788
 20
21.6519706328
 10
-16.188762847
 20
21.5627975575
 10
-16.1955408453
 20
21.4737480959
 10
-16.1959946605
 20
21.4618774513
  0
LINE
  5
226
100
AcDbEntity
  8
ASSI
100
AcDbLine
 62
7
  6
CONTINUOUS
 10
-15.4929971313
 20
22.6963452271
 11
-11.2626400463
 21
25.2041101774
  0
LINE
  5
227
100
AcDbEntity
  8
ASSI
100
AcDbLine
 62
253
  6
CONTINUOUS
 10
-11.2626400463
 20
25.05699486
 11
-15.256532775
 21
22.6894064983
  0
LWPOLYLINE
  5
228
100
AcDbEntity
  8
RACCORDO
100
AcDbPolyline
 62
7
  6
CONTINUOUS
 90
19
 70
0
 10
-14.515087134
 20
22.2166569295
 10
-14.5288912525
 20
22.2086020278
 10
-14.6024144121
 20
22.1610271399
 10
-14.673920357
 20
22.1068929201
 10
-14.7431115201
 20
22.046563021
 10
-14.8096233638
 20
21.9805111978
 10
-14.8729337313
 20
21.9093911338
 10
-14.9326705895
 20
21.833808344
 10
-14.98861446
 20
21.7541954555
 10
-15.0404551733
 20
21.6710736453
 10
-15.0879101213
 20
21.5850141971
 10
-15.1307233113
 20
21.4965270406
 10
-15.1686647311
 20
21.4061004949
 10
-15.2014976013
 20
21.3142995638
 10
-15.2289793732
 20
21.2216675989
 10
-15.2509292745
 20
21.1286340743
 10
-15.267134347
 20
21.0356718938
 10
-15.2773643083
 20
20.943371038
 10
-15.2806630576
 20
20.8858092993
  0
LINE
  5
229
100
AcDbEntity
  8
RACCORDO
100
AcDbLine
 62
7
  6
CONTINUOUS
 10
-12.5906069566
 20
23.3204623025
 11
-14.5151883393
 21
22.2166091606
  0
LINE
  5
22A
100
AcDbEntity
  8
RACCORDO
100
AcDbLine
 62
253
  6
CONTINUOUS
 10
-12.497469973
 20
23.3168320879
 11
-14.4230839957
 21
22.2123866703
  0
LINE
  5
22B
100
AcDbEntity
  8
RACCORDO
100
AcDbLine
 62
253
  6
CONTINUOUS
 10
-14.7843311823
 20
22.4181252389
 11
-12.8486182433
 21
23.4924062231
  0
LINE
  5
22C
100
AcDbEntity
  8
RACCORDO
100
AcDbLine
 62
253
  6
CONTINUOUS
 10
-14.636747907
 20
22.177533196
 11
-12.9869820163
 21
23.0931194325
  0
LINE
  5
22D
100
AcDbEntity
  8
ASSI
100
AcDbLine
 62
7
  6
CONTINUOUS
 10
-9.8967243679
 20
24.2739390336
 11
-10.4394504306
 21
23.9776489234
  0
LINE
  5
22E
100
AcDbEntity
  8
ASSI
100
AcDbLine
 62
253
  6
CONTINUOUS
 10
-9.6801253243
 20
25.4848791508
 11
-8.0582251976
 21
26.3020826705
  0
LINE
  5
22F
100
AcDbEntity
  8
ASSI
100
AcDbLine
 62
253
  6
CONTINUOUS
 10
-9.5387255072
 20
25.2410005414
 11
-7.9168253806
 21
26.0582040612
  0
LINE
  5
230
100
AcDbEntity
  8
ASSI
100
AcDbLine
 62
253
  6
CONTINUOUS
 10
-8.0582251976
 20
26.3020826705
 11
-7.5341187365
 21
26.562043339
  0
LINE
  5
231
100
AcDbEntity
  8
ASSI
100
AcDbLine
 62
253
  6
CONTINUOUS
 10
-7.9168253806
 20
26.0582040612
 11
-7.392720914
 21
26.3181637403
  0
LWPOLYLINE
  5
232
100
AcDbEntity
  8
ASSI
100
AcDbPolyline
 62
7
  6
CONTINUOUS
 90
12
 70
0
 10
-6.1217476189
 20
24.6291919231
 10
-6.1299064833
 20
24.6245621657
 10
-6.1490921162
 20
24.6117059577
 10
-6.1668798083
 20
24.5968493581
 10
-6.1830303721
 20
24.5801800302
 10
-6.1974807339
 20
24.5617249582
 10
-6.2100232787
 20
24.5416744619
 10
-6.2204604679
 20
24.5202886772
 10
-6.2287277106
 20
24.4976199456
 10
-6.2346989403
 20
24.473799594
 10
-6.2382339687
 20
24.4491377881
 10
-6.2392675741
 20
24.4264454133
  0
LINE
  5
233
100
AcDbEntity
  8
ASSI
100
AcDbLine
 62
7
  6
CONTINUOUS
 10
-8.8192761313
 20
23.9200550231
 11
-7.9168253806
 21
24.412729414
  0
LINE
  5
234
100
AcDbEntity
  8
ASSI
100
AcDbLine
 62
7
  6
CONTINUOUS
 10
-5.9099492484
 20
24.7434620913
 11
-6.121761612
 21
24.6291844618
  0
LINE
  5
235
100
AcDbEntity
  8
ASSI
100
AcDbLine
 62
253
  6
CONTINUOUS
 10
-5.795531961
 20
24.7377233503
 11
-6.0063862783
 21
24.6239626087
  0
LINE
  5
236
100
AcDbEntity
  8
ASSI
100
AcDbLine
 62
7
  6
CONTINUOUS
 10
-5.909955541
 20
24.7434587154
 11
-5.9047413376
 21
24.7460692966
  0
LINE
  5
237
100
AcDbEntity
  8
ASSI
100
AcDbLine
 62
253
  6
CONTINUOUS
 10
-4.7701732803
 20
24.9170342615
 11
-1.559625886
 21
26.5094894376
  0
LINE
  5
238
100
AcDbEntity
  8
ASSI
100
AcDbLine
 62
253
  6
CONTINUOUS
 10
-4.3760823707
 20
24.7199888067
 11
-1.3828049855
 21
26.2046764565
  0
LINE
  5
239
100
AcDbEntity
  8
ASSI
100
AcDbLine
 62
7
  6
CONTINUOUS
 10
-0.9049925658
 20
27.8387924171
 11
-7.2486896654
 21
24.770651808
  0
LINE
  5
23A
100
AcDbEntity
  8
ASSI
100
AcDbLine
 62
7
  6
CONTINUOUS
 10
-1.8593682889
 20
26.614356639
 11
-5.9046830665
 21
24.7460962177
  0
LINE
  5
23B
100
AcDbEntity
  8
ASSI
100
AcDbLine
 62
253
  6
CONTINUOUS
 10
-1.7514634343
 20
26.6054082117
 11
-5.795531961
 21
24.7377233503
  0
LINE
  5
23C
100
AcDbEntity
  8
ASSI
100
AcDbLine
 62
7
  6
CONTINUOUS
 10
-1.822700551
 20
26.629134329
 11
-1.859468578
 21
26.6142989432
  0
LWPOLYLINE
  5
23D
100
AcDbEntity
  8
ASSI
100
AcDbPolyline
 62
7
  6
CONTINUOUS
 90
6
 70
0
 10
-7.3642957932
 20
25.8498314965
 10
-7.3548218047
 20
25.8622596282
 10
-7.3412088884
 20
25.8831141627
 10
-7.3293555554
 20
25.9053808009
 10
-7.3194124575
 20
25.9289417732
 10
-7.3117587465
 20
25.9529187515
  0
LINE
  5
23E
100
AcDbEntity
  8
ASSI
100
AcDbLine
 62
253
  6
CONTINUOUS
 10
-7.3759580747
 20
25.9061046844
 11
-7.9168253806
 21
25.2368171983
  0
LINE
  5
23F
100
AcDbEntity
  8
ASSI
100
AcDbLine
 62
7
  6
CONTINUOUS
 10
-7.3642706315
 20
25.8498624608
 11
-7.9168253806
 21
25.1661125374
  0
LINE
  5
240
100
AcDbEntity
  8
DRAFT
100
AcDbLine
 62
7
  6
CONTINUOUS
 10
-8.1413000097
 20
21.1387471063
 11
-7.4218506337
 21
21.5315156677
  0
LINE
  5
241
100
AcDbEntity
  8
ASSI
100
AcDbLine
 62
7
  6
CONTINUOUS
 10
-2.1976386472
 20
22.8873067907
 11
-2.4094510108
 21
22.7730291612
  0
LINE
  5
242
100
AcDbEntity
  8
ASSI
100
AcDbLine
 62
253
  6
CONTINUOUS
 10
-2.0832213597
 20
22.8815680497
 11
-2.294075677
 21
22.7678073081
  0
LINE
  5
243
100
AcDbEntity
  8
ASSI
100
AcDbLine
 62
7
  6
CONTINUOUS
 10
-3.391341981
 20
22.1499877142
 11
-2.6965777946
 21
22.5082009012
  0
LINE
  5
244
100
AcDbEntity
  8
ASSI
100
AcDbLine
 62
253
  6
CONTINUOUS
 10
-3.7864377897
 20
23.5139883644
 11
-3.5680917523
 21
23.624003246
  0
LINE
  5
245
100
AcDbEntity
  8
ASSI
100
AcDbLine
 62
253
  6
CONTINUOUS
 10
-3.6096880183
 20
23.2091401028
 11
-3.391341981
 21
23.3191549843
  0
LINE
  5
246
100
AcDbEntity
  8
RACCORDO
100
AcDbLine
 62
253
  6
CONTINUOUS
 10
-15.3951413406
 20
17.3623283662
 11
-15.4315118766
 21
17.3440723811
  0
LINE
  5
247
100
AcDbEntity
  8
ASSI
100
AcDbLine
 62
7
  6
CONTINUOUS
 10
-2.1976449398
 20
22.8873034148
 11
-2.1924307364
 21
22.889913996
  0
LINE
  5
248
100
AcDbEntity
  8
ASSI
100
AcDbLine
 62
7
  6
CONTINUOUS
 10
1.130521858
 20
25.3849963748
 11
-2.6965777946
 21
23.4790187929
  0
LINE
  5
249
100
AcDbEntity
  8
ASSI
100
AcDbLine
 62
7
  6
CONTINUOUS
 10
-3.2022283383
 20
24.1330617905
 11
-1.3828761146
 21
25.0354739058
  0
LINE
  5
24A
100
AcDbEntity
  8
ASSI
100
AcDbLine
 62
253
  6
CONTINUOUS
 10
-3.5680917523
 20
23.624003246
 11
-2.8733275659
 21
23.9686114043
  0
LINE
  5
24B
100
AcDbEntity
  8
ASSI
100
AcDbLine
 62
253
  6
CONTINUOUS
 10
-3.391341981
 20
23.3191549843
 11
-2.6965777946
 21
23.6637631426
  0
LINE
  5
24C
100
AcDbEntity
  8
ASSI
100
AcDbLine
 62
253
  6
CONTINUOUS
 10
-3.0484284481
 20
24.0561618454
 11
1.8686746431
 21
26.4519588126
  0
LINE
  5
24D
100
AcDbEntity
  8
ASSI
100
AcDbLine
 62
253
  6
CONTINUOUS
 10
-2.7352448697
 20
23.8177496277
 11
2.0439020767
 21
26.1463291893
  0
LINE
  5
24E
100
AcDbEntity
  8
ASSI
100
AcDbLine
 62
7
  6
CONTINUOUS
 10
-1.4729217748
 20
23.2222070876
 11
-2.1923724652
 21
22.889940917
  0
LINE
  5
24F
100
AcDbEntity
  8
ASSI
100
AcDbLine
 62
253
  6
CONTINUOUS
 10
-1.3637719838
 20
23.2138336132
 11
-2.0832213597
 21
22.8815680497
  0
LWPOLYLINE
  5
250
100
AcDbEntity
  8
ASSI
100
AcDbPolyline
 62
7
  6
CONTINUOUS
 90
12
 70
0
 10
-0.9990115843
 20
-22.8462745596
 10
-0.9888199655
 20
-22.8506943025
 10
-0.9230813697
 20
-22.8752180459
 10
-0.8541879807
 20
-22.8940612428
 10
-0.7826605986
 20
-22.9068266284
 10
-0.7091718941
 20
-22.9131905841
 10
-0.6341588688
 20
-22.9129579785
 10
-0.5581339481
 20
-22.906008896
 10
-0.4817753923
 20
-22.8923200045
 10
-0.4055088966
 20
-22.8719111103
 10
-0.3296369532
 20
-22.8448356836
 10
-0.3218303094
 20
-22.8416597184
  0
LWPOLYLINE
  5
251
100
AcDbEntity
  8
ASSI
100
AcDbPolyline
 62
7
  6
CONTINUOUS
 90
10
 70
0
 10
-15.7780152331
 20
-15.4565798267
 10
-14.2985649359
 20
-16.285141064
 10
-12.7130646144
 20
-17.14863669
 10
-11.1018087694
 20
-18.0014481688
 10
-9.4651595486
 20
-18.8433834975
 10
-7.8034811543
 20
-19.6742563929
 10
-6.117149539
 20
-20.4938890607
 10
-4.4065588982
 20
-21.3021079882
 10
-2.6721138944
 20
-22.0987412828
 10
-0.9981695794
 20
-22.8466468758
  0
LINE
  5
252
100
AcDbEntity
  8
ASSI
100
AcDbLine
 62
7
  6
CONTINUOUS
 10
-15.7776648341
 20
-15.4567785566
 11
-15.7780187942
 21
-15.4565778049
  0
LWPOLYLINE
  5
253
100
AcDbEntity
  8
ASSI
100
AcDbPolyline
 62
7
  6
CONTINUOUS
 90
12
 70
0
 10
-2.4094370177
 20
22.7730366225
 10
-2.417595882
 20
22.7684068651
 10
-2.4367815149
 20
22.7555506571
 10
-2.4545692071
 20
22.7406940575
 10
-2.4707197709
 20
22.7240247296
 10
-2.4851701327
 20
22.7055696576
 10
-2.4977126774
 20
22.6855191613
 10
-2.5081498666
 20
22.6641333766
 10
-2.5164171094
 20
22.641464645
 10
-2.5223883391
 20
22.6176442934
 10
-2.5259233675
 20
22.5929824875
 10
-2.5269569729
 20
22.5702901127
  0
LINE
  5
254
100
AcDbEntity
  8
ASSI
100
AcDbLine
 62
7
  6
CONTINUOUS
 10
-3.6096880183
 20
22.0307861945
 11
-3.391341981
 21
22.1499877142
  0
LINE
  5
255
100
AcDbEntity
  8
ASSI
100
AcDbLine
 62
253
  6
CONTINUOUS
 10
-0.0741271885
 20
21.6578330638
 11
0.1442188489
 21
21.7678479453
  0
LINE
  5
256
100
AcDbEntity
  8
ASSI
100
AcDbLine
 62
253
  6
CONTINUOUS
 10
0.1026225829
 20
21.3529848022
 11
0.3209686203
 21
21.4629996837
  0
LINE
  5
257
100
AcDbEntity
  8
ASSI
100
AcDbLine
 62
253
  6
CONTINUOUS
 10
0.1442188489
 20
21.7678479453
 11
4.0495304297
 21
23.7049112797
  0
LINE
  5
258
100
AcDbEntity
  8
ASSI
100
AcDbLine
 62
253
  6
CONTINUOUS
 10
0.3209686203
 20
21.4629996837
 11
4.2263513301
 21
23.4000982987
  0
LINE
  5
259
100
AcDbEntity
  8
ASSI
100
AcDbLine
 62
7
  6
CONTINUOUS
 10
6.5373750037
 20
24.0711078922
 11
4.3345225029
 21
23.0354244987
  0
LINE
  5
25A
100
AcDbEntity
  8
ASSI
100
AcDbLine
 62
253
  6
CONTINUOUS
 10
6.6468292984
 20
24.062881485
 11
4.3345225029
 21
22.975737544
  0
LINE
  5
25B
100
AcDbEntity
  8
ASSI
100
AcDbLine
 62
7
  6
CONTINUOUS
 10
3.7497880268
 20
23.8097784812
 11
0.4719586966
 21
22.295968273
  0
LINE
  5
25C
100
AcDbEntity
  8
ASSI
100
AcDbLine
 62
253
  6
CONTINUOUS
 10
3.8576928814
 20
23.8008300539
 11
0.5330737307
 21
22.265410756
  0
LINE
  5
25D
100
AcDbEntity
  8
ASSI
100
AcDbLine
 62
7
  6
CONTINUOUS
 10
3.7864557647
 20
23.8245561712
 11
3.7496877376
 21
23.8097207854
  0
LINE
  5
25E
100
AcDbEntity
  8
ASSI
100
AcDbLine
 62
253
  6
CONTINUOUS
 10
5.2105426304
 20
-21.6117498075
 11
4.6696753246
 21
-21.5025468124
  0
LINE
  5
25F
100
AcDbEntity
  8
ASSI
100
AcDbLine
 62
253
  6
CONTINUOUS
 10
5.1374362032
 20
-21.3569388992
 11
4.6696753246
 21
-21.2624963466
  0
LWPOLYLINE
  5
260
100
AcDbEntity
  8
ASSI
100
AcDbPolyline
 62
7
  6
CONTINUOUS
 90
10
 70
0
 10
2.7969983929
 20
-23.1807199506
 10
2.8094569224
 20
-23.1864907368
 10
2.8307917538
 20
-23.1942976361
 10
2.8529708123
 20
-23.1998921018
 10
2.8757578963
 20
-23.2031769756
 10
2.8989908123
 20
-23.2040851283
 10
2.9224202057
 20
-23.2025547932
 10
2.9457106437
 20
-23.1985787397
 10
2.9686332048
 20
-23.1921804179
 10
2.9924678714
 20
-23.1827246908
  0
LINE
  5
261
100
AcDbEntity
  8
ASSI
100
AcDbLine
 62
7
  6
CONTINUOUS
 10
2.7972781518
 20
-23.1808610219
 11
1.0163878452
 21
-22.2904158686
  0
LINE
  5
262
100
AcDbEntity
  8
ASSI
100
AcDbLine
 62
253
  6
CONTINUOUS
 10
2.7320775049
 20
-23.0455288965
 11
1.1290405163
 21
-22.2440104022
  0
LINE
  5
263
100
AcDbEntity
  8
ASSI
100
AcDbLine
 62
253
  6
CONTINUOUS
 10
2.7320775049
 20
-22.7282586673
 11
1.7966089866
 21
-22.260525837
  0
LINE
  5
264
100
AcDbEntity
  8
ASSI
100
AcDbLine
 62
253
  6
CONTINUOUS
 10
1.6030447005
 20
-22.163743694
 11
1.4769484119
 21
-22.1006953081
  0
LINE
  5
265
100
AcDbEntity
  8
ASSI
100
AcDbLine
 62
253
  6
CONTINUOUS
 10
2.8207744174
 20
-22.4967202048
 11
2.0380904432
 21
-22.1053782176
  0
LWPOLYLINE
  5
266
100
AcDbEntity
  8
ASSI
100
AcDbPolyline
 62
7
  6
CONTINUOUS
 90
14
 70
0
 10
-16.1959659576
 20
-14.6956488457
 10
-16.1950845825
 20
-14.7159251967
 10
-16.1872101728
 20
-14.8037952484
 10
-16.172950941
 20
-14.8883506937
 10
-16.1524152254
 20
-14.9693661717
 10
-16.1257467658
 20
-15.0465900907
 10
-16.093166924
 20
-15.1195622993
 10
-16.0549317462
 20
-15.1879050093
 10
-16.011320371
 20
-15.2513331609
 10
-15.9627858889
 20
-15.3093776038
 10
-15.9098083404
 20
-15.3616740654
 10
-15.8529153266
 20
-15.4079581309
 10
-15.7928407929
 20
-15.4479315643
 10
-15.7776015784
 20
-15.4568103301
  0
LWPOLYLINE
  5
267
100
AcDbEntity
  8
ASSI
100
AcDbPolyline
 62
7
  6
CONTINUOUS
 90
13
 70
0
 10
-16.1959975314
 20
21.4620239614
 10
-16.2890829372
 20
18.4542111243
 10
-16.3670595292
 20
15.3895618834
 10
-16.4277177371
 20
12.333391272
 10
-16.4710457097
 20
9.2858802033
 10
-16.4970382254
 20
6.2471862028
 10
-16.5056915966
 20
3.2174578583
 10
-16.4970032613
 20
0.1968497731
 10
-16.470975509
 20
-2.8144861297
 10
-16.4276116929
 20
-5.8164051595
 10
-16.3669167783
 20
-8.8087550261
 10
-16.2889023695
 20
-11.7913668976
 10
-16.1959763606
 20
-14.6955828342
  0
LINE
  5
268
100
AcDbEntity
  8
DRAFT
100
AcDbLine
 62
7
  6
CONTINUOUS
 10
-3.873974133
 20
19.0050841679
 11
-3.1792099466
 21
19.4101953241
  0
LWPOLYLINE
  5
269
100
AcDbEntity
  8
ASSI
100
AcDbPolyline
 62
7
  6
CONTINUOUS
 90
12
 70
0
 10
0.7482582785
 20
20.228607558
 10
0.7369382555
 20
20.2221069078
 10
0.7146534553
 20
20.2067659807
 10
0.6937628724
 20
20.1887751004
 10
0.6745771642
 20
20.1683328104
 10
0.6578071252
 20
20.1463110642
 10
0.6431472788
 20
20.1224359665
 10
0.6306725464
 20
20.0966240064
 10
0.6210335138
 20
20.0701752942
 10
0.6142244836
 20
20.0434197726
 10
0.6101260795
 20
20.015609776
 10
0.6089976123
 20
19.991543866
  0
LINE
  5
26A
100
AcDbEntity
  8
ASSI
100
AcDbLine
 62
7
  6
CONTINUOUS
 10
0.3209686203
 20
20.2938324136
 11
0.1026225829
 21
20.1746308939
  0
LINE
  5
26B
100
AcDbEntity
  8
ASSI
100
AcDbLine
 62
7
  6
CONTINUOUS
 10
2.3153652088
 20
21.0740979826
 11
0.7481647185
 21
20.2285573639
  0
LINE
  5
26C
100
AcDbEntity
  8
ASSI
100
AcDbLine
 62
253
  6
CONTINUOUS
 10
2.4069120856
 20
21.0695140289
 11
0.8406613394
 21
20.2244858189
  0
LINE
  5
26D
100
AcDbEntity
  8
ASSI
100
AcDbLine
 62
7
  6
CONTINUOUS
 10
2.3154086431
 20
21.0741213729
 11
2.3195750797
 21
21.0762048774
  0
LINE
  5
26E
100
AcDbEntity
  8
ASSI
100
AcDbLine
 62
7
  6
CONTINUOUS
 10
0.3209686203
 20
20.2938324136
 11
4.226280201
 21
22.230895748
  0
LINE
  5
26F
100
AcDbEntity
  8
ASSI
100
AcDbLine
 62
7
  6
CONTINUOUS
 10
9.4204965074
 20
22.6760478805
 11
4.7664677433
 21
20.4716980549
  0
LINE
  5
270
100
AcDbEntity
  8
ASSI
100
AcDbLine
 62
7
  6
CONTINUOUS
 10
2.8633142633
 20
21.3273216512
 11
2.3196308854
 21
21.0762306503
  0
LINE
  5
271
100
AcDbEntity
  8
ASSI
100
AcDbLine
 62
253
  6
CONTINUOUS
 10
2.9496381483
 20
21.32016291
 11
2.4069120856
 21
21.0695140289
  0
LINE
  5
272
100
AcDbEntity
  8
ASSI
100
AcDbLine
 62
7
  6
CONTINUOUS
 10
2.9376972457
 20
-21.4989631853
 11
3.416783286
 21
-21.7385062055
  0
LINE
  5
273
100
AcDbEntity
  8
ASSI
100
AcDbLine
 62
253
  6
CONTINUOUS
 10
4.6696753246
 20
-21.1230673099
 11
5.1374362032
 21
-21.3569388992
  0
LINE
  5
274
100
AcDbEntity
  8
ASSI
100
AcDbLine
 62
7
  6
CONTINUOUS
 10
5.1607116096
 20
-21.3649716127
 11
4.6696753246
 21
-21.1194534699
  0
LWPOLYLINE
  5
275
100
AcDbEntity
  8
RACCORDO
100
AcDbPolyline
 62
7
  6
CONTINUOUS
 90
17
 70
0
 10
-15.39887544
 20
17.1205643322
 10
-15.3930891332
 20
17.0348389013
 10
-15.3824227564
 20
16.9483275009
 10
-15.3670194604
 20
16.8614195034
 10
-15.346999292
 20
16.7744397204
 10
-15.3224752081
 20
16.687799969
 10
-15.2936049407
 20
16.6019594986
 10
-15.2605384298
 20
16.5173523861
 10
-15.2234226617
 20
16.4344392576
 10
-15.1824370638
 20
16.3536599873
 10
-15.1377518291
 20
16.2754305063
 10
-15.0894924124
 20
16.2001322503
 10
-15.0379021824
 20
16.1282701816
 10
-14.9833045264
 20
16.0604111547
 10
-14.9258239407
 20
15.9968799576
 10
-14.8657465506
 20
15.9381492066
 10
-14.8036270802
 20
15.8848725509
  0
LWPOLYLINE
  5
276
100
AcDbEntity
  8
RACCORDO
100
AcDbPolyline
 62
7
  6
CONTINUOUS
 90
3
 70
0
 10
-15.3994074569
 20
17.2156784134
 10
-15.3996718079
 20
17.2049848528
 10
-15.39887544
 20
17.1205643322
  0
LINE
  5
277
100
AcDbEntity
  8
RACCORDO
100
AcDbLine
 62
7
  6
CONTINUOUS
 10
-15.3633777449
 20
18.4179363027
 11
-15.3994194621
 21
17.2156176582
  0
LINE
  5
278
100
AcDbEntity
  8
RACCORDO
100
AcDbLine
 62
7
  6
CONTINUOUS
 10
-15.3363565128
 20
19.2635946937
 11
-15.3633777449
 21
18.4179363027
  0
LINE
  5
279
100
AcDbEntity
  8
RACCORDO
100
AcDbLine
 62
7
  6
CONTINUOUS
 10
-15.3079363972
 20
20.1099065494
 11
-15.3363565128
 21
19.2635946937
  0
LINE
  5
27A
100
AcDbEntity
  8
RACCORDO
100
AcDbLine
 62
7
  6
CONTINUOUS
 10
-15.2806710432
 20
20.8858393965
 11
-15.3079363972
 21
20.1099065494
  0
LWPOLYLINE
  5
27B
100
AcDbEntity
  8
RACCORDO
100
AcDbPolyline
 62
7
  6
CONTINUOUS
 90
19
 70
0
 10
-1.1608714903
 20
15.564671892
 10
-1.1765674633
 20
15.5554916336
 10
-1.251640827
 20
15.5066105267
 10
-1.3245259171
 20
15.4509378561
 10
-1.3948851499
 20
15.3889073049
 10
-1.4623692951
 20
15.3210152209
 10
-1.5265105413
 20
15.2478774203
 10
-1.5869397994
 20
15.1701005883
 10
-1.6433847997
 20
15.088171881
 10
-1.6955068825
 20
15.0026644526
 10
-1.7430110538
 20
14.9141766337
 10
-1.7856148036
 20
14.8232600487
 10
-1.823062604
 20
14.7304906548
 10
-1.8551034727
 20
14.6364762859
 10
-1.8814953271
 20
14.5417863672
 10
-1.9020533523
 20
14.4469028997
 10
-1.9165544604
 20
14.3523369305
 10
-1.9247882354
 20
14.2587225122
 10
-1.9259334507
 20
14.233149967
  0
LINE
  5
27C
100
AcDbEntity
  8
RACCORDO
100
AcDbLine
 62
7
  6
CONTINUOUS
 10
0.7401565341
 20
16.6550262536
 11
-1.1609800293
 21
15.5646200034
  0
LINE
  5
27D
100
AcDbEntity
  8
RACCORDO
100
AcDbLine
 62
253
  6
CONTINUOUS
 10
0.8333441006
 20
16.6514250511
 11
-1.0688756949
 21
15.5603975079
  0
LINE
  5
27E
100
AcDbEntity
  8
RACCORDO
100
AcDbLine
 62
253
  6
CONTINUOUS
 10
-1.4773232684
 20
15.7395062717
 11
0.4821958303
 21
16.8269991863
  0
LINE
  5
27F
100
AcDbEntity
  8
RACCORDO
100
AcDbLine
 62
253
  6
CONTINUOUS
 10
-1.3297399937
 20
15.4989142285
 11
0.3438320573
 21
16.4277123957
  0
LINE
  5
280
100
AcDbEntity
  8
ASSI
100
AcDbLine
 62
7
  6
CONTINUOUS
 10
2.6897763372
 20
17.980688681
 11
2.1470502745
 21
17.6843985708
  0
LINE
  5
281
100
AcDbEntity
  8
ASSI
100
AcDbLine
 62
7
  6
CONTINUOUS
 10
10.6503804393
 20
21.6838398835
 11
4.9509085432
 21
18.6708527037
  0
LINE
  5
282
100
AcDbEntity
  8
ASSI
100
AcDbLine
 62
7
  6
CONTINUOUS
 10
10.6316206023
 20
22.0801547044
 11
4.7852015722
 21
19.0158182687
  0
LINE
  5
283
100
AcDbEntity
  8
ASSI
100
AcDbLine
 62
253
  6
CONTINUOUS
 10
4.5282755075
 20
20.0088323179
 11
2.9063753808
 21
19.1916287982
  0
LINE
  5
284
100
AcDbEntity
  8
ASSI
100
AcDbLine
 62
253
  6
CONTINUOUS
 10
4.6696753246
 20
19.7649537086
 11
3.0477751979
 21
18.9477501889
  0
LINE
  5
285
100
AcDbEntity
  8
ASSI
100
AcDbLine
 62
253
  6
CONTINUOUS
 10
5.052379974
 20
20.2687919971
 11
4.5282755075
 21
20.0088323179
  0
LINE
  5
286
100
AcDbEntity
  8
ASSI
100
AcDbLine
 62
253
  6
CONTINUOUS
 10
5.1937797911
 20
20.0249133878
 11
4.6696753246
 21
19.7649537086
  0
LINE
  5
287
100
AcDbEntity
  8
ASSI
100
AcDbLine
 62
253
  6
CONTINUOUS
 10
5.3644933589
 20
18.4640602958
 11
4.6696779863
 21
18.1194802907
  0
LINE
  5
288
100
AcDbEntity
  8
RACCORDO
100
AcDbLine
 62
253
  6
CONTINUOUS
 10
9.8222390348
 20
-13.213874592
 11
5.748851739
 21
-14.3432675643
  0
LINE
  5
289
100
AcDbEntity
  8
RACCORDO
100
AcDbLine
 62
7
  6
CONTINUOUS
 10
9.7101984944
 20
-13.1976869414
 11
5.748851739
 21
-14.2960153992
  0
LINE
  5
28A
100
AcDbEntity
  8
0
100
AcDbLine
 62
7
  6
CONTINUOUS
 10
-12.0888765435
 20
3.8401992271
 11
-12.0888765435
 21
-1.3415936946
  0
LINE
  5
28B
100
AcDbEntity
  8
ASSI
100
AcDbLine
 62
7
  6
CONTINUOUS
 10
-11.97750312
 20
25.9674874265
 11
-11.9775031667
 21
26.2848245355
  0
LINE
  5
28C
100
AcDbEntity
  8
ASSI
100
AcDbLine
 62
253
  6
CONTINUOUS
 10
-11.9189245229
 20
25.8968624077
 11
-11.9189245229
 21
26.2141138575
  0
LWPOLYLINE
  5
28D
100
AcDbEntity
  8
ASSI
100
AcDbPolyline
 62
7
  6
CONTINUOUS
 90
3
 70
0
 10
-7.3117587465
 20
25.9529187515
 10
-7.3063944562
 20
25.9770758042
 10
-7.3032512601
 20
26.0019058888
  0
LINE
  5
28E
100
AcDbEntity
  8
ASSI
100
AcDbLine
 62
253
  6
CONTINUOUS
 10
-0.5305569623
 20
15.3264186228
 11
3.7065924852
 21
17.601897355
  0
LINE
  5
28F
100
AcDbEntity
  8
ASSI
100
AcDbLine
 62
253
  6
CONTINUOUS
 10
5.0232287151
 20
17.5096894606
 11
-0.1678761325
 21
14.7219075275
  0
LINE
  5
290
100
AcDbEntity
  8
ASSI
100
AcDbLine
 62
7
  6
CONTINUOUS
 10
10.6799618107
 20
20.7529675731
 11
9.7607229952
 21
20.2933481654
  0
LINE
  5
291
100
AcDbEntity
  8
ASSI
100
AcDbLine
 62
253
  6
CONTINUOUS
 10
5.7179929016
 20
17.8543637725
 11
5.0232287151
 21
17.5097556142
  0
LWPOLYLINE
  5
292
100
AcDbEntity
  8
ASSI
100
AcDbPolyline
 62
7
  6
CONTINUOUS
 90
9
 70
0
 10
-11.9775035586
 20
25.9674874262
 10
-11.9773699391
 20
25.9593606815
 10
-11.9751871661
 20
25.9335928622
 10
-11.9703395346
 20
25.9084154139
 10
-11.9628767841
 20
25.8841465205
 10
-11.9529724615
 20
25.8611798577
 10
-11.9407616796
 20
25.8396654793
 10
-11.9263445745
 20
25.8197310822
 10
-11.9099622334
 20
25.8016767344
  0
LINE
  5
293
100
AcDbEntity
  8
ASSI
100
AcDbLine
 62
7
  6
CONTINUOUS
 10
-11.2626400463
 20
25.012023865
 11
-11.2626400463
 21
25.4659710169
  0
LINE
  5
294
100
AcDbEntity
  8
ASSI
100
AcDbLine
 62
253
  6
CONTINUOUS
 10
-11.1894167416
 20
24.9202852204
 11
-11.1894167416
 21
25.4293593646
  0
LINE
  5
295
100
AcDbEntity
  8
ASSI
100
AcDbLine
 62
7
  6
CONTINUOUS
 10
-11.0566793093
 20
24.1566201481
 11
-11.0566793093
 21
25.3669142318
  0
LINE
  5
296
100
AcDbEntity
  8
ASSI
100
AcDbLine
 62
253
  6
CONTINUOUS
 10
-10.9834560046
 20
24.0648116025
 11
-10.9834560046
 21
25.429110798
  0
LINE
  5
297
100
AcDbEntity
  8
ASSI
100
AcDbLine
 62
253
  6
CONTINUOUS
 10
-10.7898917185
 20
23.9680294595
 11
-10.7898917185
 21
25.3323286549
  0
LINE
  5
298
100
AcDbEntity
  8
0
100
AcDbLine
 62
7
  6
CONTINUOUS
 10
-10.4625309468
 20
0.8139184796
 11
-10.4625309468
 21
1.6366426132
  0
LINE
  5
299
100
AcDbEntity
  8
ASSI
100
AcDbLine
 62
253
  6
CONTINUOUS
 10
-10.4394504306
 20
23.9776489234
 11
-10.4394504306
 21
25.0543762091
  0
LINE
  5
29A
100
AcDbEntity
  8
0
100
AcDbLine
 62
7
  6
CONTINUOUS
 10
-10.0736222171
 20
-3.7348615038
 11
-10.0736222171
 21
-2.3492208578
  0
LINE
  5
29B
100
AcDbEntity
  8
ASSI
100
AcDbLine
 62
7
  6
CONTINUOUS
 10
-9.8967243679
 20
24.7830131777
 11
-9.8967243679
 21
24.2739390336
  0
LINE
  5
29C
100
AcDbEntity
  8
ASSI
100
AcDbLine
 62
253
  6
CONTINUOUS
 10
-9.8544232002
 20
24.8645943958
 11
-9.8544232002
 21
25.1818656958
  0
LINE
  5
29D
100
AcDbEntity
  8
ASSI
100
AcDbLine
 62
253
  6
CONTINUOUS
 10
-9.5740701699
 20
24.8633710939
 11
-9.5740701699
 21
25.1806398942
  0
LINE
  5
29E
100
AcDbEntity
  8
0
100
AcDbLine
 62
7
  6
CONTINUOUS
 10
-9.3134824273
 20
-4.1149313987
 11
-9.3134824273
 21
-5.4139695044
  0
LINE
  5
29F
100
AcDbEntity
  8
RACCORDO
100
AcDbLine
 62
253
  6
CONTINUOUS
 10
10.0526892658
 20
21.2068707861
 11
5.6898570609
 21
18.0365730897
  0
LINE
  5
2A0
100
AcDbEntity
  8
RACCORDO
100
AcDbLine
 62
7
  6
CONTINUOUS
 10
9.9899733821
 20
21.0510801025
 11
5.7110391386
 21
17.9417477381
  0
LINE
  5
2A1
100
AcDbEntity
  8
RACCORDO
100
AcDbLine
 62
7
  6
CONTINUOUS
 10
-2.3406100226
 20
9.9491307253
 11
-2.3412141982
 21
9.9488163191
  0
LINE
  5
2A2
100
AcDbEntity
  8
RACCORDO
100
AcDbLine
 62
253
  6
CONTINUOUS
 10
-2.0378380093
 20
10.7165391391
 11
-2.1273608497
 21
10.672552214
  0
LINE
  5
2A3
100
AcDbEntity
  8
RACCORDO
100
AcDbLine
 62
7
  6
CONTINUOUS
 10
-2.4785781896
 20
10.0067160347
 11
-2.4774708983
 21
10.0072561164
  0
LINE
  5
2A4
100
AcDbEntity
  8
DRAFT
100
AcDbLine
 62
7
  6
CONTINUOUS
 10
-2.1282589796
 20
10.1770682228
 11
-2.4785818223
 21
10.0067142682
  0
LWPOLYLINE
  5
2A5
100
AcDbEntity
  8
ASSI
100
AcDbPolyline
 62
7
  6
CONTINUOUS
 90
5
 70
0
 10
5.2344052687
 20
-21.4248612601
 10
5.2178923227
 20
-21.4062945269
 10
5.1995773098
 20
-21.3898599028
 10
5.1795992326
 20
-21.3756223698
 10
5.1604479951
 20
-21.3648408933
  0
LINE
  5
2A6
100
AcDbEntity
  8
RACCORDO
100
AcDbLine
 62
7
  6
CONTINUOUS
 10
-7.2881714081
 20
-7.0621099412
 11
-7.2719849782
 21
-8.2246955018
  0
LWPOLYLINE
  5
2A7
100
AcDbEntity
  8
ASSI
100
AcDbPolyline
 62
7
  6
CONTINUOUS
 90
13
 70
0
 10
-7.3024570653
 20
26.3620414383
 10
-7.3025227204
 20
26.3677777928
 10
-7.3043750047
 20
26.3929503916
 10
-7.3087866662
 20
26.4176850327
 10
-7.3157099785
 20
26.4416006907
 10
-7.3249885223
 20
26.4642926729
 10
-7.3365251158
 20
26.4856523403
 10
-7.3502485673
 20
26.5055801754
 10
-7.365957825
 20
26.523794745
 10
-7.3834278741
 20
26.5400803168
 10
-7.4025485196
 20
26.554358424
 10
-7.4230458737
 20
26.5664301247
 10
-7.4258243585
 20
26.5678434256
  0
LINE
  5
2A8
100
AcDbEntity
  8
ASSI
100
AcDbLine
 62
253
  6
CONTINUOUS
 10
-9.1697174192
 20
23.9104355592
 11
-9.1697174192
 21
24.5906068475
  0
LINE
  5
2A9
100
AcDbEntity
  8
ASSI
100
AcDbLine
 62
253
  6
CONTINUOUS
 10
-8.8192761313
 20
24.6782554692
 11
-8.8192761313
 21
23.9200550231
  0
LINE
  5
2AA
100
AcDbEntity
  8
0
100
AcDbLine
 62
7
  6
CONTINUOUS
 10
-8.2528222555
 20
-3.5846013128
 11
-8.2528222555
 21
-4.8836394185
  0
LINE
  5
2AB
100
AcDbEntity
  8
ASSI
100
AcDbLine
 62
7
  6
CONTINUOUS
 10
-7.9168253806
 20
24.412729414
 11
-7.9168253806
 21
26.0582040612
  0
LINE
  5
2AC
100
AcDbEntity
  8
DRAFT
100
AcDbLine
 62
7
  6
CONTINUOUS
 10
-7.4218506337
 20
21.5315156677
 11
-7.4218506337
 21
20.7790224183
  0
LINE
  5
2AD
100
AcDbEntity
  8
ASSI
100
AcDbLine
 62
253
  6
CONTINUOUS
 10
-7.35858897
 20
26.2925413965
 11
-7.35858897
 21
25.9525978016
  0
LINE
  5
2AE
100
AcDbEntity
  8
ASSI
100
AcDbLine
 62
7
  6
CONTINUOUS
 10
-7.3024569418
 20
26.3620414384
 11
-7.3024569301
 21
26.0220636387
  0
LINE
  5
2AF
100
AcDbEntity
  8
ASSI
100
AcDbLine
 62
7
  6
CONTINUOUS
 10
-7.3032512601
 20
26.0019058888
 11
-7.3024569444
 21
26.0220811234
  0
LWPOLYLINE
  5
2B0
100
AcDbEntity
  8
ASSI
100
AcDbPolyline
 62
7
  6
CONTINUOUS
 90
6
 70
0
 10
5.2222035202
 20
19.5565787199
 10
5.2300881762
 20
19.5668190492
 10
5.2440607051
 20
19.5878010206
 10
5.2562394485
 20
19.610256897
 10
5.2664756025
 20
19.6340655591
 10
5.274369676
 20
19.658301379
  0
LINE
  5
2B1
100
AcDbEntity
  8
ASSI
100
AcDbLine
 62
253
  6
CONTINUOUS
 10
4.6696753246
 20
18.9435668457
 11
5.2105426304
 21
19.6128543319
  0
LINE
  5
2B2
100
AcDbEntity
  8
ASSI
100
AcDbLine
 62
7
  6
CONTINUOUS
 10
4.6696753285
 20
18.8728621897
 11
5.222230125
 21
19.5566121719
  0
LINE
  5
2B3
100
AcDbEntity
  8
ASSI
100
AcDbLine
 62
7
  6
CONTINUOUS
 10
16.3368160602
 20
17.9245404484
 11
15.4175772447
 21
17.4649210406
  0
LINE
  5
2B4
100
AcDbEntity
  8
ASSI
100
AcDbLine
 62
7
  6
CONTINUOUS
 10
5.748851739
 20
12.6305582878
 11
5.8009250205
 21
12.6565949285
  0
LINE
  5
2B5
100
AcDbEntity
  8
ASSI
100
AcDbLine
 62
7
  6
CONTINUOUS
 10
16.3368160602
 20
16.6255023427
 11
15.4175772447
 21
16.1658829349
  0
LINE
  5
2B6
100
AcDbEntity
  8
ASSI
100
AcDbLine
 62
7
  6
CONTINUOUS
 10
5.8009250205
 20
11.3575568229
 11
5.748851739
 21
11.3315201821
  0
LINE
  5
2B7
100
AcDbEntity
  8
0
100
AcDbLine
 62
7
  6
CONTINUOUS
 10
-9.3134824273
 20
-5.4139695044
 11
-6.889461396
 21
-6.6259800201
  0
LINE
  5
2B8
100
AcDbEntity
  8
ASSI
100
AcDbLine
 62
7
  6
CONTINUOUS
 10
10.6503804393
 20
-14.6671757787
 11
10.0526892658
 21
-14.368330192
  0
LINE
  5
2B9
100
AcDbEntity
  8
0
100
AcDbLine
 62
7
  6
CONTINUOUS
 10
-10.0736222171
 20
-3.7348615038
 11
-9.3134824273
 21
-4.1149313987
  0
LINE
  5
2BA
100
AcDbEntity
  8
0
100
AcDbLine
 62
7
  6
CONTINUOUS
 10
-6.3789892854
 20
-5.5821779697
 11
-6.1612275259
 21
-5.6910588494
  0
LINE
  5
2BB
100
AcDbEntity
  8
ASSI
100
AcDbLine
 62
7
  6
CONTINUOUS
 10
8.5767580295
 20
-12.8509417105
 11
5.748851739
 21
-11.4369885652
  0
LINE
  5
2BC
100
AcDbEntity
  8
RACCORDO
100
AcDbLine
 62
7
  6
CONTINUOUS
 10
9.8222390348
 20
-13.213874592
 11
9.8408706196
 21
-13.2231903844
  0
LINE
  5
2BD
100
AcDbEntity
  8
0
100
AcDbLine
 62
7
  6
CONTINUOUS
 10
-8.2528222555
 20
-3.5846013128
 11
-9.0129620453
 21
-3.2045314179
  0
LINE
  5
2BE
100
AcDbEntity
  8
RACCORDO
100
AcDbLine
 62
7
  6
CONTINUOUS
 10
-6.4665865545
 20
-6.0736242179
 11
-6.451707803
 21
-7.4536857885
  0
LINE
  5
2BF
100
AcDbEntity
  8
0
100
AcDbLine
 62
7
  6
CONTINUOUS
 10
-6.3789892854
 20
-5.8154532488
 11
-6.3789892854
 21
-5.5821779697
  0
LINE
  5
2C0
100
AcDbEntity
  8
ASSI
100
AcDbLine
 62
7
  6
CONTINUOUS
 10
-6.2392680896
 20
24.4263982814
 11
-6.2392680896
 21
23.2417937756
  0
LINE
  5
2C1
100
AcDbEntity
  8
ASSI
100
AcDbLine
 62
253
  6
CONTINUOUS
 10
-6.1806894458
 20
24.3556876033
 11
-6.1806894458
 21
23.1684148219
  0
LINE
  5
2C2
100
AcDbEntity
  8
0
100
AcDbLine
 62
7
  6
CONTINUOUS
 10
-5.6188494956
 20
-5.4157519083
 11
-5.6188494956
 21
-4.5766072185
  0
LINE
  5
2C3
100
AcDbEntity
  8
ASSI
100
AcDbLine
 62
7
  6
CONTINUOUS
 10
18.8116897944
 20
16.6871035813
 11
15.2761558884
 21
14.9193366283
  0
LINE
  5
2C4
100
AcDbEntity
  8
ASSI
100
AcDbLine
 62
7
  6
CONTINUOUS
 10
7.3565599391
 20
10.9595386537
 11
10.8920938451
 21
12.7273056067
  0
LINE
  5
2C5
100
AcDbEntity
  8
0
100
AcDbLine
 62
7
  6
CONTINUOUS
 10
-10.4625309468
 20
1.6366426132
 11
-9.1209307381
 21
2.3074427176
  0
LINE
  5
2C6
100
AcDbEntity
  8
0
100
AcDbLine
 62
7
  6
CONTINUOUS
 10
19.766283949
 20
16.209806504
 11
8.3111540937
 21
10.4822415764
  0
LINE
  5
2C7
100
AcDbEntity
  8
0
100
AcDbLine
 62
7
  6
CONTINUOUS
 10
-8.2939990692
 20
1.8981844184
 11
-10.4625309468
 21
0.8139184796
  0
LINE
  5
2C8
100
AcDbEntity
  8
0
100
AcDbLine
 62
7
  6
CONTINUOUS
 10
5.748851739
 20
8.759329064
 11
7.886890025
 21
9.828348207
  0
LINE
  5
2C9
100
AcDbEntity
  8
0
100
AcDbLine
 62
7
  6
CONTINUOUS
 10
-12.0888765435
 20
-1.3415936946
 11
-10.0736222171
 21
-2.3492208578
  0
LINE
  5
2CA
100
AcDbEntity
  8
0
100
AcDbLine
 62
7
  6
CONTINUOUS
 10
-5.6188494956
 20
-4.5766072185
 11
-4.4099183172
 21
-5.1810728077
  0
LINE
  5
2CB
100
AcDbEntity
  8
ASSI
100
AcDbLine
 62
253
  6
CONTINUOUS
 10
-3.8900410487
 20
22.0230906234
 11
-3.8900410487
 21
23.2103634047
  0
LINE
  5
2CC
100
AcDbEntity
  8
ASSI
100
AcDbLine
 62
253
  6
CONTINUOUS
 10
-3.6096880183
 20
22.0307861945
 11
-3.6096880183
 21
23.2091401028
  0
LINE
  5
2CD
100
AcDbEntity
  8
ASSI
100
AcDbLine
 62
7
  6
CONTINUOUS
 10
-3.391341981
 20
22.1499877142
 11
-3.391341981
 21
23.3191549843
  0
LINE
  5
2CE
100
AcDbEntity
  8
ASSI
100
AcDbLine
 62
7
  6
CONTINUOUS
 10
-2.6965777946
 20
23.6637631426
 11
-2.6965777946
 21
22.5082009012
  0
LINE
  5
2CF
100
AcDbEntity
  8
ASSI
100
AcDbLine
 62
7
  6
CONTINUOUS
 10
-2.5269574883
 20
22.5702429807
 11
-2.5269574883
 21
21.385638475
  0
LINE
  5
2D0
100
AcDbEntity
  8
ASSI
100
AcDbLine
 62
253
  6
CONTINUOUS
 10
-2.4683788446
 20
22.4995323026
 11
-2.4683788446
 21
21.3122595213
  0
LWPOLYLINE
  5
2D1
100
AcDbEntity
  8
RACCORDO
100
AcDbPolyline
 62
7
  6
CONTINUOUS
 90
10
 70
0
 10
-4.4051551575
 20
0.0728765871
 10
-4.408074382
 20
-0.4090349892
 10
-4.4121121285
 20
-1.2851041113
 10
-4.4145069943
 20
-2.1603465043
 10
-4.4152589973
 20
-3.0347575164
 10
-4.4143681453
 20
-3.9083324565
 10
-4.4118344433
 20
-4.781066605
 10
-4.4076578865
 20
-5.6529552574
 10
-4.4018384435
 20
-6.5239937075
 10
-4.3978706101
 20
-7.0104029463
  0
LINE
  5
2D2
100
AcDbEntity
  8
RACCORDO
100
AcDbLine
 62
7
  6
CONTINUOUS
 10
-2.0070617033
 20
11.7611040204
 11
-2.0424071939
 21
10.5564313529
  0
LINE
  5
2D3
100
AcDbEntity
  8
RACCORDO
100
AcDbLine
 62
7
  6
CONTINUOUS
 10
-1.9805621838
 20
12.6082279733
 11
-2.0070617033
 21
11.7611040204
  0
LINE
  5
2D4
100
AcDbEntity
  8
RACCORDO
100
AcDbLine
 62
7
  6
CONTINUOUS
 10
-1.9526883525
 20
13.4559331846
 11
-1.9805621838
 21
12.6082279733
  0
LWPOLYLINE
  5
2D5
100
AcDbEntity
  8
RACCORDO
100
AcDbPolyline
 62
7
  6
CONTINUOUS
 90
13
 70
0
 10
-2.0424174943
 20
10.5563328429
 10
-2.0428304023
 20
10.5439963448
 10
-2.0485867568
 20
10.4648205308
 10
-2.0597399928
 20
10.3882506251
 10
-2.0763768665
 20
10.3149540089
 10
-2.0984267053
 20
10.2458099287
 10
-2.1255854282
 20
10.1819258553
 10
-2.1574949399
 20
10.1239487835
 10
-2.1938470038
 20
10.0722104909
 10
-2.2342724156
 20
10.0270724952
 10
-2.2782824833
 20
9.9887889011
 10
-2.3257734408
 20
9.9572503501
 10
-2.3405820263
 20
9.9491512018
  0
LINE
  5
2D6
100
AcDbEntity
  8
RACCORDO
100
AcDbLine
 62
7
  6
CONTINUOUS
 10
-1.9259404315
 20
14.2332129647
 11
-1.9526883525
 21
13.4559331846
  0
LINE
  5
2D7
100
AcDbEntity
  8
RACCORDO
100
AcDbLine
 62
7
  6
CONTINUOUS
 10
-12.6929689639
 20
-1.8018994807
 11
-13.3904930232
 21
-2.1520177418
  0
LINE
  5
2D8
100
AcDbEntity
  8
RACCORDO
100
AcDbLine
 62
7
  6
CONTINUOUS
 10
-10.7959613673
 20
-2.8334558397
 11
-11.5010942148
 21
-3.187393289
  0
LINE
  5
2D9
100
AcDbEntity
  8
0
100
AcDbLine
 62
7
  6
CONTINUOUS
 10
-12.0888765435
 20
-1.3415936946
 11
-6.9275693312
 21
1.2390599116
  0
LINE
  5
2DA
100
AcDbEntity
  8
0
100
AcDbLine
 62
7
  6
CONTINUOUS
 10
-4.8389537403
 20
0.2681133806
 11
-10.0736222171
 21
-2.3492208578
  0
LINE
  5
2DB
100
AcDbEntity
  8
0
100
AcDbLine
 62
7
  6
CONTINUOUS
 10
-4.4607343304
 20
-2.2274556661
 11
-4.4145845536
 21
-2.2505305545
  0
LWPOLYLINE
  5
2DC
100
AcDbEntity
  8
RACCORDO
100
AcDbPolyline
 62
7
  6
CONTINUOUS
 90
10
 70
0
 10
-13.734269062
 20
4.7366367969
 10
-12.9900285843
 20
4.3263517964
 10
-11.9223390651
 20
3.7503557608
 10
-10.8401222013
 20
3.1811303876
 10
-9.7435485514
 20
2.618768526
 10
-8.63279317
 20
2.0633606824
 10
-7.5080362712
 20
1.5149947515
 10
-6.36946466
 20
0.9737553566
 10
-5.2172689283
 20
0.4397252319
 10
-4.4037547897
 20
0.0706978395
  0
LWPOLYLINE
  5
2DD
100
AcDbEntity
  8
ASSI
100
AcDbPolyline
 62
7
  6
CONTINUOUS
 90
16
 70
0
 10
-1.2746383817
 20
26.3370711945
 10
-1.2764079062
 20
26.3687139231
 10
-1.2821039541
 20
26.4017192591
 10
-1.2917924742
 20
26.4342790395
 10
-1.3054908133
 20
26.465951063
 10
-1.323064793
 20
26.4961396039
 10
-1.3444004547
 20
26.5245072541
 10
-1.3694521068
 20
26.5508222642
 10
-1.3978537569
 20
26.5745735534
 10
-1.4291185435
 20
26.5953743891
 10
-1.4634716849
 20
26.6133933256
 10
-1.5005776956
 20
26.6283799563
 10
-1.5391313519
 20
26.6399266486
 10
-1.579406852
 20
26.6482707274
 10
-1.6213948096
 20
26.6533620065
 10
-1.6631142642
 20
26.6550315609
  0
LINE
  5
2DE
100
AcDbEntity
  8
ASSI
100
AcDbLine
 62
7
  6
CONTINUOUS
 10
-1.2746338128
 20
26.33719844
 11
-1.2746338128
 21
25.165457537
  0
LINE
  5
2DF
100
AcDbEntity
  8
ASSI
100
AcDbLine
 62
253
  6
CONTINUOUS
 10
-0.1777304474
 20
20.1669353228
 11
-0.1777304474
 21
21.3542081041
  0
LINE
  5
2E0
100
AcDbEntity
  8
ASSI
100
AcDbLine
 62
253
  6
CONTINUOUS
 10
0.1026225829
 20
20.1746308939
 11
0.1026225829
 21
21.3529848022
  0
LINE
  5
2E1
100
AcDbEntity
  8
ASSI
100
AcDbLine
 62
253
  6
CONTINUOUS
 10
-1.3828049855
 20
26.2046764565
 11
-1.3828761146
 21
25.0354739058
  0
LINE
  5
2E2
100
AcDbEntity
  8
ASSI
100
AcDbLine
 62
7
  6
CONTINUOUS
 10
-4.4607343304
 20
-2.2274556661
 11
-4.4145167293
 21
-2.1716660864
  0
LINE
  5
2E3
100
AcDbEntity
  8
RACCORDO
100
AcDbLine
 62
7
  6
CONTINUOUS
 10
-10.7811190882
 20
-4.2116464876
 11
-11.4863577802
 21
-4.5656370649
  0
LINE
  5
2E4
100
AcDbEntity
  8
RACCORDO
100
AcDbLine
 62
7
  6
CONTINUOUS
 10
-9.9884991912
 20
-4.6285492995
 11
-10.6969434448
 21
-4.9841488904
  0
LINE
  5
2E5
100
AcDbEntity
  8
0
100
AcDbLine
 62
7
  6
CONTINUOUS
 10
-10.0736222171
 20
-3.7348615038
 11
-9.0129620453
 21
-3.2045314179
  0
LINE
  5
2E6
100
AcDbEntity
  8
0
100
AcDbLine
 62
7
  6
CONTINUOUS
 10
-9.3134824273
 20
-4.1149313987
 11
-8.2528222555
 21
-3.5846013128
  0
LINE
  5
2E7
100
AcDbEntity
  8
0
100
AcDbLine
 62
7
  6
CONTINUOUS
 10
7.886890025
 20
3.9826767314
 11
5.748851739
 21
2.9136575884
  0
LINE
  5
2E8
100
AcDbEntity
  8
0
100
AcDbLine
 62
7
  6
CONTINUOUS
 10
-8.2528222555
 20
-4.1234996287
 11
-4.4607343304
 21
-2.2274556661
  0
LINE
  5
2E9
100
AcDbEntity
  8
0
100
AcDbLine
 62
7
  6
CONTINUOUS
 10
10.0435657077
 20
-5.1238933613
 11
6.1518001807
 21
-3.1780105978
  0
LINE
  5
2EA
100
AcDbEntity
  8
ASSI
100
AcDbLine
 62
7
  6
CONTINUOUS
 10
6.8874670968
 20
-3.4970888558
 11
6.1803603156
 21
-3.1435354652
  0
LWPOLYLINE
  5
2EB
100
AcDbEntity
  8
ASSI
100
AcDbPolyline
 62
7
  6
CONTINUOUS
 90
5
 70
0
 10
5.2778833975
 20
-21.5158427069
 10
5.2707162711
 20
-21.49100059
 10
5.2609987277
 20
-21.4674571833
 10
5.2488573684
 20
-21.4453559261
 10
5.2344052687
 20
-21.4248612601
  0
LWPOLYLINE
  5
2EC
100
AcDbEntity
  8
ASSI
100
AcDbPolyline
 62
7
  6
CONTINUOUS
 90
9
 70
0
 10
0.6089976185
 20
19.6742783196
 10
0.6090283041
 20
19.6703574351
 10
0.6108479576
 20
19.643903583
 10
0.6154847801
 20
19.617956998
 10
0.622887542
 20
19.5929050414
 10
0.6328904035
 20
19.569191871
 10
0.6453698295
 20
19.5469736858
 10
0.6602138302
 20
19.5264080274
 10
0.6771558825
 20
19.5078205107
  0
LINE
  5
2ED
100
AcDbEntity
  8
ASSI
100
AcDbLine
 62
7
  6
CONTINUOUS
 10
0.3209686203
 20
20.2938324136
 11
0.3209686203
 21
21.4629996837
  0
LINE
  5
2EE
100
AcDbEntity
  8
DRAFT
100
AcDbLine
 62
7
  6
CONTINUOUS
 10
0.6038113327
 20
16.5768247911
 11
0.6038113327
 21
16.6025360656
  0
LINE
  5
2EF
100
AcDbEntity
  8
ASSI
100
AcDbLine
 62
7
  6
CONTINUOUS
 10
0.6089975385
 20
19.9915741831
 11
0.6089975385
 21
19.6743053828
  0
LINE
  5
2F0
100
AcDbEntity
  8
ASSI
100
AcDbLine
 62
253
  6
CONTINUOUS
 10
0.6675761822
 20
19.920863505
 11
0.6675761822
 21
19.6035947046
  0
LINE
  5
2F1
100
AcDbEntity
  8
ASSI
100
AcDbLine
 62
7
  6
CONTINUOUS
 10
1.3238606588
 20
19.1727206644
 11
1.3238606588
 21
18.7188434131
  0
LINE
  5
2F2
100
AcDbEntity
  8
ASSI
100
AcDbLine
 62
253
  6
CONTINUOUS
 10
1.3970839636
 20
19.136109012
 11
1.3970839636
 21
18.6270348679
  0
LINE
  5
2F3
100
AcDbEntity
  8
ASSI
100
AcDbLine
 62
7
  6
CONTINUOUS
 10
1.5298213958
 20
17.8633697955
 11
1.5298213958
 21
19.0736638793
  0
LINE
  5
2F4
100
AcDbEntity
  8
ASSI
100
AcDbLine
 62
253
  6
CONTINUOUS
 10
1.6030447005
 20
-22.163743694
 11
1.6030447005
 21
-22.0487519585
  0
LINE
  5
2F5
100
AcDbEntity
  8
ASSI
100
AcDbLine
 62
253
  6
CONTINUOUS
 10
1.6030447005
 20
17.77156125
 11
1.6030447005
 21
19.1358604454
  0
LINE
  5
2F6
100
AcDbEntity
  8
ASSI
100
AcDbLine
 62
253
  6
CONTINUOUS
 10
1.7966089866
 20
-22.260525837
 11
1.7966089866
 21
-21.9690162462
  0
LINE
  5
2F7
100
AcDbEntity
  8
ASSI
100
AcDbLine
 62
253
  6
CONTINUOUS
 10
1.7966089866
 20
17.6747791069
 11
1.7966089866
 21
19.0390783024
  0
LINE
  5
2F8
100
AcDbEntity
  8
ASSI
100
AcDbLine
 62
253
  6
CONTINUOUS
 10
2.1470502745
 20
-22.0142365152
 11
2.1470502745
 21
-21.8246575616
  0
LINE
  5
2F9
100
AcDbEntity
  8
ASSI
100
AcDbLine
 62
253
  6
CONTINUOUS
 10
2.1470502745
 20
17.6843985708
 11
2.1470502745
 21
18.7611258565
  0
LINE
  5
2FA
100
AcDbEntity
  8
ASSI
100
AcDbLine
 62
253
  6
CONTINUOUS
 10
2.5604292776
 20
25.7597200105
 11
2.5604292776
 21
25.4695161847
  0
LINE
  5
2FB
100
AcDbEntity
  8
ASSI
100
AcDbLine
 62
7
  6
CONTINUOUS
 10
2.6321166654
 20
25.8473336668
 11
2.6321166654
 21
25.5027702858
  0
LINE
  5
2FC
100
AcDbEntity
  8
ASSI
100
AcDbLine
 62
7
  6
CONTINUOUS
 10
2.6897763372
 20
18.4897628252
 11
2.6897763372
 21
17.980688681
  0
LWPOLYLINE
  5
2FD
100
AcDbEntity
  8
ASSI
100
AcDbPolyline
 62
7
  6
CONTINUOUS
 90
3
 70
0
 10
5.274369676
 20
19.658301379
 10
5.2799105816
 20
19.6827249451
 10
5.2831871588
 20
19.7078671515
  0
LINE
  5
2FE
100
AcDbEntity
  8
RACCORDO
100
AcDbLine
 62
7
  6
CONTINUOUS
 10
-5.6313692301
 20
-5.4157519083
 11
-6.3243013496
 21
-5.7757897217
  0
LINE
  5
2FF
100
AcDbEntity
  8
RACCORDO
100
AcDbLine
 62
7
  6
CONTINUOUS
 10
-9.9722966023
 20
-5.7895507967
 11
-10.6819001145
 21
-6.1457322709
  0
LINE
  5
300
100
AcDbEntity
  8
0
100
AcDbLine
 62
7
  6
CONTINUOUS
 10
-9.3134824273
 20
-5.4139695044
 11
-8.2528222555
 21
-4.8836394185
  0
LINE
  5
301
100
AcDbEntity
  8
0
100
AcDbLine
 62
7
  6
CONTINUOUS
 10
-4.4141767145
 20
-3.974270828
 11
-5.6188494956
 21
-4.5766072185
  0
LINE
  5
302
100
AcDbEntity
  8
0
100
AcDbLine
 62
7
  6
CONTINUOUS
 10
5.748851739
 20
0.6111051436
 11
6.1191230721
 21
0.7962408101
  0
LINE
  5
303
100
AcDbEntity
  8
0
100
AcDbLine
 62
7
  6
CONTINUOUS
 10
-6.3789892854
 20
-5.5821779697
 11
-5.6188494956
 21
-5.2021080748
  0
LINE
  5
304
100
AcDbEntity
  8
ASSI
100
AcDbLine
 62
7
  6
CONTINUOUS
 10
6.1898337502
 20
-2.3660017186
 11
5.9994684153
 21
-2.2708190511
  0
LINE
  5
305
100
AcDbEntity
  8
0
100
AcDbLine
 62
7
  6
CONTINUOUS
 10
7.3764625594
 20
-2.906819117
 11
8.3111540937
 21
-3.3741648842
  0
LINE
  5
306
100
AcDbEntity
  8
ASSI
100
AcDbLine
 62
253
  6
CONTINUOUS
 10
8.45257545
 20
-1.2346308687
 11
7.7454686688
 21
-0.8810774781
  0
LWPOLYLINE
  5
307
100
AcDbEntity
  8
ASSI
100
AcDbPolyline
 62
7
  6
CONTINUOUS
 90
14
 70
0
 10
2.6321062197
 20
25.8472810526
 10
2.6297893163
 20
25.9162039023
 10
2.6230466807
 20
25.9816325961
 10
2.6118684499
 20
26.0447587738
 10
2.5962993532
 20
26.1052768262
 10
2.5764796934
 20
26.162700715
 10
2.5525255887
 20
26.2167766476
 10
2.5245343033
 20
26.2673689002
 10
2.4927319318
 20
26.3141499391
 10
2.4573709479
 20
26.3568336683
 10
2.4186617737
 20
26.3952452159
 10
2.3768931865
 20
26.4291984568
 10
2.3324070422
 20
26.4585068623
 10
2.3007662327
 20
26.4757128752
  0
LINE
  5
308
100
AcDbEntity
  8
ASSI
100
AcDbLine
 62
253
  6
CONTINUOUS
 10
2.7320775049
 20
18.8886128436
 11
2.7320775049
 21
18.5713613872
  0
LINE
  5
309
100
AcDbEntity
  8
ASSI
100
AcDbLine
 62
253
  6
CONTINUOUS
 10
2.7320775049
 20
-23.0455288965
 11
2.7320775049
 21
-22.7282586673
  0
LINE
  5
30A
100
AcDbEntity
  8
ASSI
100
AcDbLine
 62
253
  6
CONTINUOUS
 10
3.0124305353
 20
18.8873895417
 11
3.0124305353
 21
18.5701207413
  0
LINE
  5
30B
100
AcDbEntity
  8
ASSI
100
AcDbLine
 62
253
  6
CONTINUOUS
 10
3.0124305353
 20
-23.0467521984
 11
3.0124305353
 21
-22.7294833981
  0
LINE
  5
30C
100
AcDbEntity
  8
ASSI
100
AcDbLine
 62
253
  6
CONTINUOUS
 10
3.416783286
 20
18.297356495
 11
3.416783286
 21
17.6171852067
  0
LINE
  5
30D
100
AcDbEntity
  8
ASSI
100
AcDbLine
 62
253
  6
CONTINUOUS
 10
3.416783286
 20
-21.3016113523
 11
3.416783286
 21
-21.7385062055
  0
LINE
  5
30E
100
AcDbEntity
  8
ASSI
100
AcDbLine
 62
253
  6
CONTINUOUS
 10
3.7672245739
 20
18.3850051167
 11
3.7672245739
 21
17.6267102407
  0
LINE
  5
30F
100
AcDbEntity
  8
ASSI
100
AcDbLine
 62
253
  6
CONTINUOUS
 10
3.7672245739
 20
-21.1572526677
 11
3.7672245739
 21
-21.815471643
  0
LINE
  5
310
100
AcDbEntity
  8
ASSI
100
AcDbLine
 62
7
  6
CONTINUOUS
 10
4.3345225029
 20
23.5326202822
 11
4.3345225029
 21
22.3608793791
  0
LINE
  5
311
100
AcDbEntity
  8
ASSI
100
AcDbLine
 62
7
  6
CONTINUOUS
 10
4.6696753246
 20
-22.3239336752
 11
4.6696753246
 21
-20.7855025124
  0
LINE
  5
312
100
AcDbEntity
  8
ASSI
100
AcDbLine
 62
7
  6
CONTINUOUS
 10
4.6696753702
 20
18.1194789777
 11
4.6696753246
 21
19.7649537086
  0
LINE
  5
313
100
AcDbEntity
  8
ASSI
100
AcDbLine
 62
7
  6
CONTINUOUS
 10
5.0232287151
 20
17.5097556142
 11
5.0232287151
 21
16.7302668009
  0
LINE
  5
314
100
AcDbEntity
  8
ASSI
100
AcDbLine
 62
7
  6
CONTINUOUS
 10
5.0232287151
 20
-20.4222889714
 11
5.0232287151
 21
-19.6428001581
  0
LINE
  5
315
100
AcDbEntity
  8
ASSI
100
AcDbLine
 62
253
  6
CONTINUOUS
 10
4.2263513301
 20
23.4000982987
 11
4.2263290732
 21
23.034244807
  0
LINE
  5
316
100
AcDbEntity
  8
ASSI
100
AcDbLine
 62
253
  6
CONTINUOUS
 10
4.2263155424
 20
22.8118291134
 11
4.226280201
 21
22.230895748
  0
LINE
  5
317
100
AcDbEntity
  8
ASSI
100
AcDbLine
 62
7
  6
CONTINUOUS
 10
5.2831871588
 20
19.7078671515
 11
5.2840398441
 21
19.7288531242
  0
LINE
  5
318
100
AcDbEntity
  8
RACCORDO
100
AcDbLine
 62
7
  6
CONTINUOUS
 10
-6.463405813
 20
-6.4046075131
 11
-7.1486339308
 21
-6.7606424352
  0
LINE
  5
319
100
AcDbEntity
  8
0
100
AcDbLine
 62
7
  6
CONTINUOUS
 10
19.0591771678
 20
5.7237558891
 11
9.1596822312
 21
0.7740084208
  0
LINE
  5
31A
100
AcDbEntity
  8
0
100
AcDbLine
 62
7
  6
CONTINUOUS
 10
7.886890025
 20
-0.0876426664
 11
5.748851739
 21
-1.1566618094
  0
LINE
  5
31B
100
AcDbEntity
  8
0
100
AcDbLine
 62
7
  6
CONTINUOUS
 10
19.9430606443
 20
5.2818141509
 11
10.0435657077
 21
0.3320666826
  0
LINE
  5
31C
100
AcDbEntity
  8
ASSI
100
AcDbLine
 62
7
  6
CONTINUOUS
 10
7.7454686688
 20
-0.8810774781
 11
5.748851739
 21
-1.879385943
  0
LINE
  5
31D
100
AcDbEntity
  8
ASSI
100
AcDbLine
 62
7
  6
CONTINUOUS
 10
8.45257545
 20
-1.2346308687
 11
6.1898337502
 21
-2.3660017186
  0
LINE
  5
31E
100
AcDbEntity
  8
RACCORDO
100
AcDbLine
 62
253
  6
CONTINUOUS
 10
5.748851739
 20
-2.5765929711
 11
5.9595870172
 21
-2.4720667196
  0
LINE
  5
31F
100
AcDbEntity
  8
ASSI
100
AcDbLine
 62
7
  6
CONTINUOUS
 10
7.8349113879
 20
-0.8753971206
 11
8.5420181691
 21
-1.2289505112
  0
LINE
  5
320
100
AcDbEntity
  8
0
100
AcDbLine
 62
7
  6
CONTINUOUS
 10
6.1191230721
 20
0.7962408101
 11
7.886890025
 21
-0.0876426664
  0
LINE
  5
321
100
AcDbEntity
  8
0
100
AcDbLine
 62
7
  6
CONTINUOUS
 10
9.1596822312
 20
0.7740084208
 11
10.0435657077
 21
0.3320666826
  0
LINE
  5
322
100
AcDbEntity
  8
RACCORDO
100
AcDbLine
 62
7
  6
CONTINUOUS
 10
-14.8036270802
 20
15.8848725509
 11
-14.7397924186
 21
15.8374197231
  0
LINE
  5
323
100
AcDbEntity
  8
ASSI
100
AcDbLine
 62
7
  6
CONTINUOUS
 10
6.0157190571
 20
-2.8765992434
 11
6.1803603156
 21
-3.1435354652
  0
LINE
  5
324
100
AcDbEntity
  8
ASSI
100
AcDbLine
 62
7
  6
CONTINUOUS
 10
6.1898337502
 20
-2.3660017186
 11
6.8874670968
 21
-3.4970888558
  0
LWPOLYLINE
  5
325
100
AcDbEntity
  8
ASSI
100
AcDbPolyline
 62
7
  6
CONTINUOUS
 90
16
 70
0
 10
4.334517934
 20
23.5324930366
 10
4.3327484095
 20
23.5641357653
 10
4.3270523615
 20
23.5971411013
 10
4.3173638414
 20
23.6297008817
 10
4.3036655023
 20
23.6613729052
 10
4.2860915227
 20
23.6915614461
 10
4.2647558609
 20
23.7199290963
 10
4.2397042088
 20
23.7462441063
 10
4.2113025588
 20
23.7699953956
 10
4.1800377721
 20
23.7907962313
 10
4.1456846308
 20
23.8088151677
 10
4.10857862
 20
23.8238017985
 10
4.0700249638
 20
23.8353484907
 10
4.0297494637
 20
23.8436925696
 10
3.9877615061
 20
23.8487838487
 10
3.9460420515
 20
23.8504534031
  0
LWPOLYLINE
  5
326
100
AcDbEntity
  8
ASSI
100
AcDbPolyline
 62
7
  6
CONTINUOUS
 90
11
 70
0
 10
5.2840433464
 20
20.0689172942
 10
5.28356972
 20
20.0842153453
 10
5.279921923
 20
20.1138874811
 10
5.2726992762
 20
20.1426303129
 10
5.2620140708
 20
20.169973293
 10
5.2481896685
 20
20.195272953
 10
5.2314763026
 20
20.2183013237
 10
5.2120070964
 20
20.2389454388
 10
5.1901887676
 20
20.2568032984
 10
5.166459652
 20
20.2715940893
 10
5.1608200778
 20
20.2745211634
  0
LWPOLYLINE
  5
327
100
AcDbEntity
  8
RACCORDO
100
AcDbPolyline
 62
7
  6
CONTINUOUS
 90
15
 70
0
 10
6.0157131632
 20
-2.4027090801
 10
6.0154268697
 20
-2.3851537988
 10
6.0120752093
 20
-2.3401471963
 10
6.0050920615
 20
-2.2949936951
 10
5.9946050407
 20
-2.2499126242
 10
5.9807654827
 20
-2.2052925867
 10
5.9636803947
 20
-2.1613307533
 10
5.9434362561
 20
-2.1183263348
 10
5.9203028158
 20
-2.0768648903
 10
5.8943228083
 20
-2.0370951308
 10
5.8656442158
 20
-1.9994000967
 10
5.8348326134
 20
-1.9645630585
 10
5.8020192174
 20
-1.9327687238
 10
5.7673101902
 20
-1.9041962093
 10
5.748851739
 20
-1.8914785331
  0
LWPOLYLINE
  5
328
100
AcDbEntity
  8
ASSI
100
AcDbPolyline
 62
7
  6
CONTINUOUS
 90
4
 70
0
 10
5.2840442062
 20
-21.5707625666
 10
5.2840256966
 20
-21.5677536404
 10
5.2823328721
 20
-21.5415580593
 10
5.2778833975
 20
-21.5158427069
  0
LINE
  5
329
100
AcDbEntity
  8
ASSI
100
AcDbLine
 62
253
  6
CONTINUOUS
 10
5.2279117351
 20
-21.9802002852
 11
5.2279117351
 21
-21.6402566903
  0
LINE
  5
32A
100
AcDbEntity
  8
ASSI
100
AcDbLine
 62
253
  6
CONTINUOUS
 10
5.2279117351
 20
19.6593474491
 11
5.2279117351
 21
19.9992910439
  0
LINE
  5
32B
100
AcDbEntity
  8
ASSI
100
AcDbLine
 62
7
  6
CONTINUOUS
 10
5.284043775
 20
-21.9107344481
 11
5.284043775
 21
-21.5707907844
  0
LINE
  5
32C
100
AcDbEntity
  8
ASSI
100
AcDbLine
 62
7
  6
CONTINUOUS
 10
5.284043775
 20
19.7288132861
 11
5.284043775
 21
20.0687568811
  0
LINE
  5
32D
100
AcDbEntity
  8
ASSI
100
AcDbLine
 62
7
  6
CONTINUOUS
 10
5.7179929016
 20
-20.0474477538
 11
5.7179929016
 21
-18.8344105446
  0
LINE
  5
32E
100
AcDbEntity
  8
ASSI
100
AcDbLine
 62
7
  6
CONTINUOUS
 10
5.7179929016
 20
16.5899914888
 11
5.7179929016
 21
17.8543637725
  0
LINE
  5
32F
100
AcDbEntity
  8
RACCORDO
100
AcDbLine
 62
7
  6
CONTINUOUS
 10
5.748851739
 20
-18.7985048888
 11
5.748851739
 21
16.5745620701
  0
LINE
  5
330
100
AcDbEntity
  8
ASSI
100
AcDbLine
 62
7
  6
CONTINUOUS
 10
5.8009250205
 20
12.6565949285
 11
5.8009250205
 21
11.3575568229
  0
LINE
  5
331
100
AcDbEntity
  8
RACCORDO
100
AcDbLine
 62
253
  6
CONTINUOUS
 10
5.9595870172
 20
-2.4720667196
 11
5.9595870172
 21
-4.2101905109
  0
LINE
  5
332
100
AcDbEntity
  8
RACCORDO
100
AcDbLine
 62
7
  6
CONTINUOUS
 10
6.0157190571
 20
-2.4026008825
 11
6.0157190571
 21
-4.1407246594
  0
LINE
  5
333
100
AcDbEntity
  8
0
100
AcDbLine
 62
7
  6
CONTINUOUS
 10
6.1191230721
 20
0.7962408101
 11
6.1191230721
 21
3.0987932549
  0
LINE
  5
334
100
AcDbEntity
  8
ASSI
100
AcDbLine
 62
7
  6
CONTINUOUS
 10
7.3565599391
 20
10.9595386537
 11
7.3565599391
 21
10.0935132499
  0
LINE
  5
335
100
AcDbEntity
  8
ASSI
100
AcDbLine
 62
7
  6
CONTINUOUS
 10
5.2829154673
 20
-21.9347681759
 11
5.2840436897
 21
-21.9107032267
  0
LINE
  5
336
100
AcDbEntity
  8
ASSI
100
AcDbLine
 62
7
  6
CONTINUOUS
 10
6.1803603156
 20
-3.1435354652
 11
6.0157190571
 21
-3.3422750448
  0
LWPOLYLINE
  5
337
100
AcDbEntity
  8
RACCORDO
100
AcDbPolyline
 62
7
  6
CONTINUOUS
 90
12
 70
0
 10
5.8358337733
 20
-4.4773727076
 10
5.8530204059
 20
-4.4673799165
 10
5.8814755887
 20
-4.4473320012
 10
5.907805419
 20
-4.4240561442
 10
5.9316907847
 20
-4.3977762317
 10
5.9530539449
 20
-4.3684563794
 10
5.9716470486
 20
-4.3362577936
 10
5.9872134173
 20
-4.3014277058
 10
5.9996303562
 20
-4.2638833197
 10
6.0086861221
 20
-4.2236332508
 10
6.0141209973
 20
-4.18090931
 10
6.0157132878
 20
-4.1407289766
  0
LINE
  5
338
100
AcDbEntity
  8
RACCORDO
100
AcDbLine
 62
253
  6
CONTINUOUS
 10
5.9595870172
 20
-4.2101905109
 11
5.748851739
 21
-4.3238870281
  0
LINE
  5
339
100
AcDbEntity
  8
RACCORDO
100
AcDbLine
 62
7
  6
CONTINUOUS
 10
5.8358778558
 20
-4.4773492941
 11
5.748851739
 21
-4.5243018806
  0
LINE
  5
33A
100
AcDbEntity
  8
0
100
AcDbLine
 62
7
  6
CONTINUOUS
 10
8.3111540937
 20
-3.3741648842
 11
9.1596822312
 21
-2.9499008154
  0
LWPOLYLINE
  5
33B
100
AcDbEntity
  8
RACCORDO
100
AcDbPolyline
 62
7
  6
CONTINUOUS
 90
9
 70
0
 10
-14.6628938015
 20
15.7893781455
 10
-13.4909833888
 20
15.1392055242
 10
-12.2476989175
 20
14.4668805801
 10
-10.9868388759
 20
13.8026437835
 10
-9.7086450926
 20
13.1466276129
 10
-8.4133277464
 20
12.4989381891
 10
-7.1010824075
 20
11.859672079
 10
-5.7721231865
 20
11.2289330358
 10
-4.4267170187
 20
10.6068407063
  0
LINE
  5
33C
100
AcDbEntity
  8
RACCORDO
100
AcDbLine
 62
7
  6
CONTINUOUS
 10
-14.6628938015
 20
15.7893781455
 11
-14.6628238376
 21
15.7893388836
  0
LWPOLYLINE
  5
33D
100
AcDbEntity
  8
RACCORDO
100
AcDbPolyline
 62
7
  6
CONTINUOUS
 90
3
 70
0
 10
-14.7397924186
 20
15.8374197231
 10
-14.6743993556
 20
15.7959697666
 10
-14.6628155721
 20
15.7893535974
  0
LINE
  5
33E
100
AcDbEntity
  8
0
100
AcDbLine
 62
7
  6
CONTINUOUS
 10
7.886890025
 20
9.828348207
 11
7.886890025
 21
3.9826767314
  0
LINE
  5
33F
100
AcDbEntity
  8
0
100
AcDbLine
 62
7
  6
CONTINUOUS
 10
7.886890025
 20
-0.0876426664
 11
7.886890025
 21
-0.9013864392
  0
LINE
  5
340
100
AcDbEntity
  8
0
100
AcDbLine
 62
7
  6
CONTINUOUS
 10
8.3111540937
 20
10.4822415764
 11
8.3111540937
 21
-1.1135184736
  0
LINE
  5
341
100
AcDbEntity
  8
0
100
AcDbLine
 62
7
  6
CONTINUOUS
 10
8.3111540937
 20
-1.7785466275
 11
8.3111540937
 21
-3.3741648842
  0
LINE
  5
342
100
AcDbEntity
  8
ASSI
100
AcDbLine
 62
7
  6
CONTINUOUS
 10
8.5767580295
 20
-12.8509417105
 11
8.5767580295
 21
-13.5119462059
  0
LINE
  5
343
100
AcDbEntity
  8
0
100
AcDbLine
 62
7
  6
CONTINUOUS
 10
9.1596822312
 20
-2.9499008154
 11
9.1596822312
 21
0.7740084208
  0
LINE
  5
344
100
AcDbEntity
  8
ASSI
100
AcDbLine
 62
7
  6
CONTINUOUS
 10
9.7607229952
 20
20.2933481654
 11
9.7607229952
 21
18.9943100597
  0
LINE
  5
345
100
AcDbEntity
  8
ASSI
100
AcDbLine
 62
7
  6
CONTINUOUS
 10
6.8874670968
 20
-3.4970888558
 11
8.5232861281
 21
-1.5224806104
  0
LINE
  5
346
100
AcDbEntity
  8
0
100
AcDbLine
 62
7
  6
CONTINUOUS
 10
19.9430606443
 20
-0.1741458929
 11
10.0435657077
 21
-5.1238933613
  0
LWPOLYLINE
  5
347
100
AcDbEntity
  8
RACCORDO
100
AcDbPolyline
 62
7
  6
CONTINUOUS
 90
11
 70
0
 10
-3.1204064561
 20
10.0181142721
 10
-3.0468711595
 20
9.9888540583
 10
-2.977407726
 20
9.9674788322
 10
-2.9081973155
 20
9.9522394921
 10
-2.8395788044
 20
9.9431750248
 10
-2.7719312758
 20
9.9402732466
 10
-2.705567838
 20
9.9435066668
 10
-2.6408799883
 20
9.9528213112
 10
-2.5784105229
 20
9.9680390591
 10
-2.5185822645
 20
9.988922176
 10
-2.4774578657
 20
10.007262341
  0
LINE
  5
348
100
AcDbEntity
  8
RACCORDO
100
AcDbLine
 62
7
  6
CONTINUOUS
 10
-4.4267170187
 20
10.6068407063
 11
-3.1204152184
 21
10.0181044831
  0
LINE
  5
349
100
AcDbEntity
  8
0
100
AcDbLine
 62
7
  6
CONTINUOUS
 10
10.0435657077
 20
0.3320666826
 11
10.0435657077
 21
-5.1238933613
  0
LINE
  5
34A
100
AcDbEntity
  8
RACCORDO
100
AcDbLine
 62
7
  6
CONTINUOUS
 10
10.0526892658
 20
-14.368330192
 11
10.0526892658
 21
-13.5925155078
  0
LINE
  5
34B
100
AcDbEntity
  8
RACCORDO
100
AcDbLine
 62
7
  6
CONTINUOUS
 10
10.0526892658
 20
21.2068707861
 11
10.0526892658
 21
21.3678744965
  0
LINE
  5
34C
100
AcDbEntity
  8
ASSI
100
AcDbLine
 62
7
  6
CONTINUOUS
 10
10.6503804393
 20
-14.8733143721
 11
10.6503804393
 21
-14.6671757787
  0
LINE
  5
34D
100
AcDbEntity
  8
ASSI
100
AcDbLine
 62
7
  6
CONTINUOUS
 10
10.6503804393
 20
21.6838398835
 11
10.6503804393
 21
21.8899784769
  0
LWPOLYLINE
  5
34E
100
AcDbEntity
  8
ASSI
100
AcDbPolyline
 62
7
  6
CONTINUOUS
 90
4
 70
0
 10
-11.9099622334
 20
25.8016767344
 10
-11.8918636694
 20
25.7856920069
 10
-11.8721548862
 20
25.7718198516
 10
-11.8539237898
 20
25.7616139227
  0
LINE
  5
34F
100
AcDbEntity
  8
ASSI
100
AcDbLine
 62
7
  6
CONTINUOUS
 10
7.886890025
 20
9.828348207
 11
5.748851739
 21
10.89736735
  0
LINE
  5
350
100
AcDbEntity
  8
ASSI
100
AcDbLine
 62
7
  6
CONTINUOUS
 10
7.3565599391
 20
10.9595386537
 11
8.3111540937
 21
10.4822415764
  0
LINE
  5
351
100
AcDbEntity
  8
0
100
AcDbLine
 62
7
  6
CONTINUOUS
 10
19.0591771678
 20
5.7237558891
 11
19.9430606443
 21
5.2818141509
  0
LINE
  5
352
100
AcDbEntity
  8
ASSI
100
AcDbLine
 62
7
  6
CONTINUOUS
 10
5.748851739
 20
12.6826315693
 11
5.8009250205
 21
12.6565949285
  0
LINE
  5
353
100
AcDbEntity
  8
ASSI
100
AcDbLine
 62
7
  6
CONTINUOUS
 10
15.4175772447
 20
17.4649210406
 11
15.4175772447
 21
16.1658829349
  0
LINE
  5
354
100
AcDbEntity
  8
ASSI
100
AcDbLine
 62
7
  6
CONTINUOUS
 10
16.3368160602
 20
17.9245404484
 11
16.3368160602
 21
16.6255023427
  0
LINE
  5
355
100
AcDbEntity
  8
ASSI
100
AcDbLine
 62
7
  6
CONTINUOUS
 10
2.3945791194
 20
-21.7226920123
 11
2.1470502745
 21
-22.0142365152
  0
LINE
  5
356
100
AcDbEntity
  8
ASSI
100
AcDbLine
 62
253
  6
CONTINUOUS
 10
2.8207744174
 20
-22.4967202048
 11
3.4535646269
 21
-21.7514070387
  0
LINE
  5
357
100
AcDbEntity
  8
ASSI
100
AcDbLine
 62
7
  6
CONTINUOUS
 10
5.0232287151
 20
-19.6428001581
 11
5.748851739
 21
-18.7985048888
  0
LINE
  5
358
100
AcDbEntity
  8
ASSI
100
AcDbLine
 62
7
  6
CONTINUOUS
 10
5.748851739
 20
-14.2843709094
 11
8.5767580295
 21
-12.8509417105
  0
LINE
  5
359
100
AcDbEntity
  8
RACCORDO
100
AcDbLine
 62
253
  6
CONTINUOUS
 10
5.748851739
 20
-14.4137506903
 11
9.8408706196
 21
-13.2231903844
  0
LINE
  5
35A
100
AcDbEntity
  8
RACCORDO
100
AcDbLine
 62
253
  6
CONTINUOUS
 10
5.748851739
 20
-14.8447037972
 11
10.0526892658
 21
-13.5925155078
  0
LINE
  5
35B
100
AcDbEntity
  8
ASSI
100
AcDbLine
 62
7
  6
CONTINUOUS
 10
9.5930557394
 20
12.0777865538
 11
5.748851739
 21
13.999888554
  0
LINE
  5
35C
100
AcDbEntity
  8
RACCORDO
100
AcDbLine
 62
7
  6
CONTINUOUS
 10
0.8333441006
 20
16.6514250511
 11
-12.8486182433
 21
23.4924062231
  0
LINE
  5
35D
100
AcDbEntity
  8
DRAFT
100
AcDbLine
 62
7
  6
CONTINUOUS
 10
-3.1792099466
 20
19.4101953241
 11
-7.4218506337
 21
21.5315156677
  0
LINE
  5
35E
100
AcDbEntity
  8
ASSI
100
AcDbLine
 62
7
  6
CONTINUOUS
 10
10.8920938451
 20
12.7273056067
 11
5.748851739
 21
15.2989266597
  0
LINE
  5
35F
100
AcDbEntity
  8
ASSI
100
AcDbLine
 62
7
  6
CONTINUOUS
 10
1.7966089866
 20
17.6747791069
 11
1.6030447005
 21
17.77156125
  0
LINE
  5
360
100
AcDbEntity
  8
ASSI
100
AcDbLine
 62
7
  6
CONTINUOUS
 10
-10.7898917185
 20
23.9680294595
 11
-10.9834560046
 21
24.0648116025
  0
LWPOLYLINE
  5
361
100
AcDbEntity
  8
ASSI
100
AcDbPolyline
 62
7
  6
CONTINUOUS
 90
4
 70
0
 10
0.6771558825
 20
19.5078205107
 10
0.6959289808
 20
19.4914273189
 10
0.7164049797
 20
19.4772966012
 10
0.7325261895
 20
19.4683887361
  0
LINE
  5
362
100
AcDbEntity
  8
ASSI
100
AcDbLine
 62
253
  6
CONTINUOUS
 10
3.0304167697
 20
-22.6832988457
 11
3.7672245739
 21
-21.815471643
  0
LINE
  5
363
100
AcDbEntity
  8
ASSI
100
AcDbLine
 62
7
  6
CONTINUOUS
 10
9.4204965074
 20
-15.8190319763
 11
5.748851739
 21
-17.7142683533
  0
LINE
  5
364
100
AcDbEntity
  8
ASSI
100
AcDbLine
 62
7
  6
CONTINUOUS
 10
10.6316206023
 20
-15.0829169795
 11
5.748851739
 21
-17.5799223866
  0
LINE
  5
365
100
AcDbEntity
  8
ASSI
100
AcDbLine
 62
7
  6
CONTINUOUS
 10
10.6503804393
 20
-14.6671757787
 11
5.748851739
 21
-17.1516974129
  0
LINE
  5
366
100
AcDbEntity
  8
RACCORDO
100
AcDbLine
 62
7
  6
CONTINUOUS
 10
10.0526892658
 20
-14.368330192
 11
5.748851739
 21
-16.5117334442
  0
LINE
  5
367
100
AcDbEntity
  8
ASSI
100
AcDbLine
 62
7
  6
CONTINUOUS
 10
5.7179929016
 20
16.5899914888
 11
5.0232287151
 21
16.7302668009
  0
LINE
  5
368
100
AcDbEntity
  8
ASSI
100
AcDbLine
 62
7
  6
CONTINUOUS
 10
2.8499823176
 20
18.4175928594
 11
3.490369606
 21
18.2817465153
  0
LINE
  5
369
100
AcDbEntity
  8
ASSI
100
AcDbLine
 62
253
  6
CONTINUOUS
 10
3.0304167697
 20
18.5413052936
 11
3.7672245739
 21
18.3850051167
  0
LINE
  5
36A
100
AcDbEntity
  8
ASSI
100
AcDbLine
 62
7
  6
CONTINUOUS
 10
5.748851739
 20
16.5745620701
 11
5.0232287151
 21
16.7302668009
  0
LWPOLYLINE
  5
36B
100
AcDbEntity
  8
ASSI
100
AcDbPolyline
 62
7
  6
CONTINUOUS
 90
4
 70
0
 10
2.7972847668
 20
18.4360093482
 10
2.8062730362
 20
18.431765916
 10
2.8280268945
 20
18.423446439
 10
2.8499255281
 20
18.4176121363
  0
LWPOLYLINE
  5
36C
100
AcDbEntity
  8
ASSI
100
AcDbPolyline
 62
7
  6
CONTINUOUS
 90
4
 70
0
 10
-9.7892599354
 20
24.7292809856
 10
-9.7832096051
 20
24.7263692994
 10
-9.7601089686
 20
24.7172330616
 10
-9.7366001247
 20
24.7108606019
  0
LINE
  5
36D
100
AcDbEntity
  8
ASSI
100
AcDbLine
 62
7
  6
CONTINUOUS
 10
-11.1894167416
 20
24.9202852204
 11
-11.0566793093
 21
24.8539165043
  0
LINE
  5
36E
100
AcDbEntity
  8
ASSI
100
AcDbLine
 62
7
  6
CONTINUOUS
 10
-9.8967243679
 20
24.2739390336
 11
-9.1697174192
 21
23.9104355592
  0
LINE
  5
36F
100
AcDbEntity
  8
ASSI
100
AcDbLine
 62
7
  6
CONTINUOUS
 10
1.3970839636
 20
18.6270348679
 11
1.5298213958
 21
18.5606661517
  0
LINE
  5
370
100
AcDbEntity
  8
ASSI
100
AcDbLine
 62
7
  6
CONTINUOUS
 10
2.6897763372
 20
17.980688681
 11
3.416783286
 21
17.6171852067
  0
LINE
  5
371
100
AcDbEntity
  8
ASSI
100
AcDbLine
 62
7
  6
CONTINUOUS
 10
5.748851739
 20
16.5745620701
 11
5.7179929016
 21
16.5899914888
  0
LINE
  5
372
100
AcDbEntity
  8
ASSI
100
AcDbLine
 62
7
  6
CONTINUOUS
 10
2.7972835072
 20
18.4360092402
 11
1.9961255491
 21
18.8365882193
  0
LINE
  5
373
100
AcDbEntity
  8
ASSI
100
AcDbLine
 62
7
  6
CONTINUOUS
 10
1.5282519625
 20
19.0705250126
 11
0.7323226975
 21
19.468489645
  0
LINE
  5
374
100
AcDbEntity
  8
ASSI
100
AcDbLine
 62
7
  6
CONTINUOUS
 10
-9.7891059722
 20
24.7292040813
 11
-10.5903751561
 21
25.1298385718
  0
LINE
  5
375
100
AcDbEntity
  8
ASSI
100
AcDbLine
 62
7
  6
CONTINUOUS
 10
-11.0582487427
 20
25.3637753651
 11
-11.8541839324
 21
25.76174296
  0
LINE
  5
376
100
AcDbEntity
  8
ASSI
100
AcDbLine
 62
253
  6
CONTINUOUS
 10
-10.9834560046
 20
25.429110798
 11
-11.9189245229
 21
25.8968624077
  0
LINE
  5
377
100
AcDbEntity
  8
ASSI
100
AcDbLine
 62
253
  6
CONTINUOUS
 10
1.6030447005
 20
19.1358604454
 11
0.6675761822
 21
19.6035947046
  0
LINE
  5
378
100
AcDbEntity
  8
ASSI
100
AcDbLine
 62
253
  6
CONTINUOUS
 10
-9.8544232002
 20
24.8645943958
 11
-10.7898917185
 21
25.3323286549
  0
LINE
  5
379
100
AcDbEntity
  8
ASSI
100
AcDbLine
 62
253
  6
CONTINUOUS
 10
2.7320775049
 20
18.5713613872
 11
1.7966089866
 21
19.0390783024
  0
LINE
  5
37A
100
AcDbEntity
  8
ASSI
100
AcDbLine
 62
7
  6
CONTINUOUS
 10
-0.1777304474
 20
20.1669353228
 11
-2.4683788446
 21
21.3122595213
  0
LINE
  5
37B
100
AcDbEntity
  8
ASSI
100
AcDbLine
 62
7
  6
CONTINUOUS
 10
-3.8900410487
 20
22.0230906234
 11
-6.1806894458
 21
23.1684148219
  0
LINE
  5
37C
100
AcDbEntity
  8
ASSI
100
AcDbLine
 62
253
  6
CONTINUOUS
 10
2.7320775049
 20
18.8886128436
 11
0.6675761822
 21
19.920863505
  0
LINE
  5
37D
100
AcDbEntity
  8
ASSI
100
AcDbLine
 62
253
  6
CONTINUOUS
 10
-9.8544232002
 20
25.1818656958
 11
-11.9189245229
 21
26.2141138575
  0
LINE
  5
37E
100
AcDbEntity
  8
ASSI
100
AcDbLine
 62
7
  6
CONTINUOUS
 10
-7.9168253806
 20
24.412729414
 11
-6.2392680896
 21
23.5739507685
  0
LINE
  5
37F
100
AcDbEntity
  8
ASSI
100
AcDbLine
 62
7
  6
CONTINUOUS
 10
-3.391341981
 20
22.1499877142
 11
-2.5269574883
 21
21.7177954679
  0
LINE
  5
380
100
AcDbEntity
  8
ASSI
100
AcDbLine
 62
7
  6
CONTINUOUS
 10
0.3209686203
 20
20.2938324136
 11
0.6479894728
 21
20.1303219874
  0
LINE
  5
381
100
AcDbEntity
  8
ASSI
100
AcDbLine
 62
253
  6
CONTINUOUS
 10
2.9063753808
 20
19.1916287982
 11
0.8406613394
 21
20.2244858189
  0
LINE
  5
382
100
AcDbEntity
  8
ASSI
100
AcDbLine
 62
253
  6
CONTINUOUS
 10
-9.6801253243
 20
25.4848791508
 11
-11.7458393657
 21
26.5177361714
  0
LINE
  5
383
100
AcDbEntity
  8
ASSI
100
AcDbLine
 62
7
  6
CONTINUOUS
 10
-7.9168253806
 20
25.1047196656
 11
-7.2486896654
 21
24.770651808
  0
LINE
  5
384
100
AcDbEntity
  8
ASSI
100
AcDbLine
 62
7
  6
CONTINUOUS
 10
4.6696753319
 20
18.8114693093
 11
5.3644933589
 21
18.4640602958
  0
LINE
  5
385
100
AcDbEntity
  8
ASSI
100
AcDbLine
 62
7
  6
CONTINUOUS
 10
-2.6965777946
 20
22.5082009012
 11
-2.5269574883
 21
22.4233907481
  0
LINE
  5
386
100
AcDbEntity
  8
ASSI
100
AcDbLine
 62
253
  6
CONTINUOUS
 10
-0.2130804017
 20
21.4151777564
 11
-2.4330288903
 21
22.5251520007
  0
LINE
  5
387
100
AcDbEntity
  8
ASSI
100
AcDbLine
 62
253
  6
CONTINUOUS
 10
-3.9253910029
 20
23.271333057
 11
-6.1453394915
 21
24.3813073013
  0
LINE
  5
388
100
AcDbEntity
  8
ASSI
100
AcDbLine
 62
253
  6
CONTINUOUS
 10
-0.0741271885
 20
21.6578330638
 11
-2.294075677
 21
22.7678073081
  0
LINE
  5
389
100
AcDbEntity
  8
ASSI
100
AcDbLine
 62
253
  6
CONTINUOUS
 10
-3.7864377897
 20
23.5139883644
 11
-6.0063862783
 21
24.6239626087
  0
LINE
  5
38A
100
AcDbEntity
  8
0
100
AcDbLine
 62
7
  6
CONTINUOUS
 10
19.766283949
 20
5.3702024985
 11
19.766283949
 21
16.209806504
  0
LINE
  5
38B
100
AcDbEntity
  8
0
100
AcDbLine
 62
7
  6
CONTINUOUS
 10
19.9430606443
 20
5.2818141509
 11
19.9430606443
 21
-0.1741458929
  0
LWPOLYLINE
  5
38C
100
AcDbEntity
  8
ASSI
100
AcDbPolyline
 62
7
  6
CONTINUOUS
 90
10
 70
0
 10
5.1564851482
 20
-22.1410334179
 10
5.1787115281
 20
-22.1256761016
 10
5.1995434902
 20
-22.1076809152
 10
5.2186685847
 20
-22.0872507775
 10
5.2353824797
 20
-22.0652547756
 10
5.2499861542
 20
-22.041427933
 10
5.2624120802
 20
-22.015681699
 10
5.2720226512
 20
-21.9892873861
 10
5.2788204157
 20
-21.9625623024
 10
5.2829154673
 20
-21.9347681759
  0
LINE
  5
38D
100
AcDbEntity
  8
ASSI
100
AcDbLine
 62
253
  6
CONTINUOUS
 10
5.0232287151
 20
-20.4222889714
 11
5.7179929016
 21
-20.0474477538
  0
LINE
  5
38E
100
AcDbEntity
  8
ASSI
100
AcDbLine
 62
7
  6
CONTINUOUS
 10
4.8974887328
 20
-20.6905434291
 11
5.5933160017
 21
-20.3151286541
  0
LINE
  5
38F
100
AcDbEntity
  8
ASSI
100
AcDbLine
 62
7
  6
CONTINUOUS
 10
4.879714955
 20
-20.6989800429
 11
4.8974642914
 21
-20.6905568322
  0
LINE
  5
390
100
AcDbEntity
  8
ASSI
100
AcDbLine
 62
253
  6
CONTINUOUS
 10
-0.1678761496
 20
-22.5606154542
 11
5.0232287151
 21
-20.4222228179
  0
LINE
  5
391
100
AcDbEntity
  8
ASSI
100
AcDbLine
 62
7
  6
CONTINUOUS
 10
-0.3216116118
 20
-22.8415833485
 11
4.8796648233
 21
-20.6990006964
  0
LWPOLYLINE
  5
392
100
AcDbEntity
  8
ASSI
100
AcDbPolyline
 62
7
  6
CONTINUOUS
 90
10
 70
0
 10
3.0470706748
 20
21.3309750281
 10
3.0260240418
 20
21.338751478
 10
3.0041449583
 20
21.344374083
 10
2.9816607227
 20
21.3477476248
 10
2.958727322
 20
21.3488035068
 10
2.9355872107
 20
21.3474840122
 10
2.9125614178
 20
21.3437765226
 10
2.8898704213
 20
21.33770214
 10
2.8677174114
 20
21.3293012892
 10
2.8635547759
 20
21.327432122
  0
LINE
  5
393
100
AcDbEntity
  8
ASSI
100
AcDbLine
 62
7
  6
CONTINUOUS
 10
-9.5274885534
 20
27.6186752677
 11
-9.5417767727
 21
27.6252148435
  0
LINE
  5
394
100
AcDbEntity
  8
ASSI
100
AcDbLine
 62
7
  6
CONTINUOUS
 10
3.0589968187
 20
21.3254323764
 11
3.0470706748
 21
21.3309750281
  0
LINE
  5
395
100
AcDbEntity
  8
ASSI
100
AcDbLine
 62
7
  6
CONTINUOUS
 10
-5.795531961
 20
24.7377233503
 11
-3.5680917523
 21
23.624003246
  0
LINE
  5
396
100
AcDbEntity
  8
ASSI
100
AcDbLine
 62
7
  6
CONTINUOUS
 10
-2.0832213597
 20
22.8815680497
 11
0.1442188489
 21
21.7678479453
  0
LINE
  5
397
100
AcDbEntity
  8
ASSI
100
AcDbLine
 62
7
  6
CONTINUOUS
 10
-10.1795886195
 20
27.3627643814
 11
-8.0582251976
 21
26.3020826705
  0
LINE
  5
398
100
AcDbEntity
  8
ASSI
100
AcDbLine
 62
7
  6
CONTINUOUS
 10
2.4069120856
 20
21.0695140289
 11
4.5282755075
 21
20.0088323179
  0
LINE
  5
399
100
AcDbEntity
  8
ASSI
100
AcDbLine
 62
7
  6
CONTINUOUS
 10
0.5330737307
 20
22.265410756
 11
-1.3637719838
 21
23.2138336132
  0
LINE
  5
39A
100
AcDbEntity
  8
ASSI
100
AcDbLine
 62
7
  6
CONTINUOUS
 10
-2.8733275659
 20
23.9686114043
 11
-4.7701732803
 21
24.9170342615
  0
LINE
  5
39B
100
AcDbEntity
  8
ASSI
100
AcDbLine
 62
7
  6
CONTINUOUS
 10
7.1459490502
 20
18.9844400475
 11
15.2761558884
 21
14.9193366283
  0
LINE
  5
39C
100
AcDbEntity
  8
ASSI
100
AcDbLine
 62
253
  6
CONTINUOUS
 10
5.052379974
 20
20.2687919971
 11
2.9496381483
 21
21.32016291
  0
LINE
  5
39D
100
AcDbEntity
  8
ASSI
100
AcDbLine
 62
253
  6
CONTINUOUS
 10
-7.5341187365
 20
26.562043339
 11
-9.6368625568
 21
27.6134132625
  0
LINE
  5
39E
100
AcDbEntity
  8
ASSI
100
AcDbLine
 62
7
  6
CONTINUOUS
 10
5.1607197281
 20
20.2745720625
 11
3.0587345648
 21
21.3255646442
  0
LINE
  5
39F
100
AcDbEntity
  8
ASSI
100
AcDbLine
 62
7
  6
CONTINUOUS
 10
-7.4258004716
 20
26.5678321598
 11
-9.5277653479
 21
27.6188146005
  0
LINE
  5
3A0
100
AcDbEntity
  8
ASSI
100
AcDbLine
 62
7
  6
CONTINUOUS
 10
15.4175772447
 20
16.1658829349
 11
9.7607229952
 21
18.9943100597
  0
LINE
  5
3A1
100
AcDbEntity
  8
ASSI
100
AcDbLine
 62
7
  6
CONTINUOUS
 10
-9.5277861229
 20
27.6188249847
 11
-9.5274948804
 21
27.6186788267
  0
LINE
  5
3A2
100
AcDbEntity
  8
ASSI
100
AcDbLine
 62
7
  6
CONTINUOUS
 10
5.1447763574
 20
-22.1477713846
 11
5.1564851482
 21
-22.1410334179
  0
LINE
  5
3A3
100
AcDbEntity
  8
ASSI
100
AcDbLine
 62
253
  6
CONTINUOUS
 10
4.6696753246
 20
-22.3239336752
 11
5.1937797911
 21
-22.0411672917
  0
LINE
  5
3A4
100
AcDbEntity
  8
ASSI
100
AcDbLine
 62
7
  6
CONTINUOUS
 10
4.6198223843
 20
-22.4309964212
 11
5.1448765952
 21
-22.1477176288
  0
LINE
  5
3A5
100
AcDbEntity
  8
ASSI
100
AcDbLine
 62
7
  6
CONTINUOUS
 10
4.6156125134
 20
-22.433103316
 11
4.61977895
 21
-22.4310198115
  0
LINE
  5
3A6
100
AcDbEntity
  8
ASSI
100
AcDbLine
 62
253
  6
CONTINUOUS
 10
4.6696753246
 20
-22.3239336752
 11
3.0477751979
 21
-23.0729809017
  0
LINE
  5
3A7
100
AcDbEntity
  8
ASSI
100
AcDbLine
 62
7
  6
CONTINUOUS
 10
4.6155567076
 20
-22.4331290889
 11
2.992699266
 21
-23.1826184351
  0
LWPOLYLINE
  5
3A8
100
AcDbEntity
  8
ASSI
100
AcDbPolyline
 62
7
  6
CONTINUOUS
 90
4
 70
0
 10
6.7125802526
 20
24.1293976396
 10
6.6538389509
 20
24.1151779829
 10
6.5949769057
 20
24.0955444759
 10
6.5374092754
 20
24.0711119677
  0
LWPOLYLINE
  5
3A9
100
AcDbEntity
  8
ASSI
100
AcDbPolyline
 62
7
  6
CONTINUOUS
 90
5
 70
0
 10
3.9460420515
 20
23.8504534031
 10
3.9045571065
 20
23.8488190408
 10
3.8631542396
 20
23.8438273507
 10
3.8236537365
 20
23.8356646106
 10
3.7864557647
 20
23.8245561712
  0
LINE
  5
3AA
100
AcDbEntity
  8
ASSI
100
AcDbLine
 62
7
  6
CONTINUOUS
 10
-9.0957020754
 20
24.5749058584
 11
-9.7365183855
 21
24.7108432115
  0
LINE
  5
3AB
100
AcDbEntity
  8
ASSI
100
AcDbLine
 62
253
  6
CONTINUOUS
 10
-8.8192761313
 20
24.6782554692
 11
-9.5560839355
 21
24.8345556462
  0
LWPOLYLINE
  5
3AC
100
AcDbEntity
  8
ASSI
100
AcDbPolyline
 62
7
  6
CONTINUOUS
 90
8
 70
0
 10
-9.5417767727
 20
27.6252148435
 10
-9.5630062579
 20
27.6327759192
 10
-9.5850484006
 20
27.6381541921
 10
-9.6076743557
 20
27.6412566911
 10
-9.6307325373
 20
27.6420188927
 10
-9.6539940704
 20
27.6403777871
 10
-9.6771156818
 20
27.6363243727
 10
-9.6998380595
 20
27.6298922526
  0
LINE
  5
3AD
100
AcDbEntity
  8
ASSI
100
AcDbLine
 62
7
  6
CONTINUOUS
 10
17.5126516887
 20
16.0375845285
 11
16.3368160602
 21
16.6255023427
  0
LINE
  5
3AE
100
AcDbEntity
  8
ASSI
100
AcDbLine
 62
7
  6
CONTINUOUS
 10
9.7607229952
 20
19.9135488752
 11
8.9691885339
 21
20.3093161059
  0
LINE
  5
3AF
100
AcDbEntity
  8
ASSI
100
AcDbLine
 62
7
  6
CONTINUOUS
 10
15.4175772447
 20
17.4649210406
 11
9.7607229952
 21
20.2933481654
  0
LINE
  5
3B0
100
AcDbEntity
  8
ASSI
100
AcDbLine
 62
7
  6
CONTINUOUS
 10
5.105091234
 20
23.3977116868
 11
1.130521858
 21
25.3849963748
  0
LINE
  5
3B1
100
AcDbEntity
  8
ASSI
100
AcDbLine
 62
7
  6
CONTINUOUS
 10
10.6799618107
 20
20.7529675731
 11
16.3368160602
 21
17.9245404484
  0
LINE
  5
3B2
100
AcDbEntity
  8
ASSI
100
AcDbLine
 62
7
  6
CONTINUOUS
 10
18.8116897944
 20
16.6871035813
 11
19.766283949
 21
16.209806504
  0
LINE
  5
3B3
100
AcDbEntity
  8
ASSI
100
AcDbLine
 62
7
  6
CONTINUOUS
 10
2.6321166654
 20
25.5307923381
 11
6.0292660634
 21
23.832217639
  0
LINE
  5
3B4
100
AcDbEntity
  8
ASSI
100
AcDbLine
 62
7
  6
CONTINUOUS
 10
1.130521858
 20
25.3849963748
 11
2.5604292776
 21
25.4695161847
  0
LWPOLYLINE
  5
3B5
100
AcDbEntity
  8
ASSI
100
AcDbPolyline
 62
7
  6
CONTINUOUS
 90
8
 70
0
 10
7.085422301
 20
24.0833833888
 10
7.0430679424
 20
24.1024043106
 10
6.9926695453
 20
24.1196414035
 10
6.9397856356
 20
24.1320918976
 10
6.8848388823
 20
24.1394556738
 10
6.8284310229
 20
24.1415102036
 10
6.7709164508
 20
24.1381735787
 10
6.7125802526
 20
24.1293976396
  0
LINE
  5
3B6
100
AcDbEntity
  8
ASSI
100
AcDbLine
 62
253
  6
CONTINUOUS
 10
-0.9049925658
 20
27.8387924171
 11
1.8686746431
 21
26.4519588126
  0
LINE
  5
3B7
100
AcDbEntity
  8
ASSI
100
AcDbLine
 62
253
  6
CONTINUOUS
 10
6.6468292984
 20
24.062881485
 11
9.4204965074
 21
22.6760478805
  0
LINE
  5
3B8
100
AcDbEntity
  8
ASSI
100
AcDbLine
 62
7
  6
CONTINUOUS
 10
-0.6255110482
 20
27.9388514282
 11
2.3007017552
 21
26.4757450265
  0
LINE
  5
3B9
100
AcDbEntity
  8
ASSI
100
AcDbLine
 62
7
  6
CONTINUOUS
 10
7.0845479475
 20
24.0838219303
 11
10.0107607509
 21
22.6207155287
  0
LWPOLYLINE
  5
3BA
100
AcDbEntity
  8
ASSI
100
AcDbPolyline
 62
7
  6
CONTINUOUS
 90
5
 70
0
 10
-1.6631142642
 20
26.6550315609
 10
-1.7045992091
 20
26.6533971986
 10
-1.746002076
 20
26.6484055085
 10
-1.7855025792
 20
26.6402427685
 10
-1.822700551
 20
26.629134329
  0
ARC
  5
3BB
100
AcDbEntity
  8
RACCORDO
100
AcDbCircle
 62
253
  6
CONTINUOUS
 10
-13.7629096417
 20
17.3016208023
 40
1.6696247919
100
AcDbArc
 50
182.9878888457
 51
185.9231830951
  0
ARC
  5
3BC
100
AcDbEntity
  8
RACCORDO
100
AcDbCircle
 62
253
  6
CONTINUOUS
 10
-13.8709498334
 20
17.2956125922
 40
1.5614183391
100
AcDbArc
 50
180.7902938668
 51
182.9743682469
  0
ARC
  5
3BD
100
AcDbEntity
  8
RACCORDO
100
AcDbCircle
 62
253
  6
CONTINUOUS
 10
-13.9665239011
 20
17.2942575196
 40
1.4658346731
100
AcDbArc
 50
178.0524877437
 51
180.7888589484
  0
ARC
  5
3BE
100
AcDbEntity
  8
RACCORDO
100
AcDbCircle
 62
7
  6
CONTINUOUS
 10
-13.6246276395
 20
-1.6853166834
 40
0.5221387713
100
AcDbArc
 50
294.7100114845
 51
296.6420078289
  0
ARC
  5
3BF
100
AcDbEntity
  8
RACCORDO
100
AcDbCircle
 62
7
  6
CONTINUOUS
 10
-11.7306617764
 20
-2.7299838135
 40
0.5117857888
100
AcDbArc
 50
295.7433517025
 51
296.6514487813
  0
ARC
  5
3C0
100
AcDbEntity
  8
RACCORDO
100
AcDbCircle
 62
7
  6
CONTINUOUS
 10
-11.7151142603
 20
-4.1098630317
 40
0.5099602892
100
AcDbArc
 50
295.9308925517
 51
296.6524252897
  0
ARC
  5
3C1
100
AcDbEntity
  8
RACCORDO
100
AcDbCircle
 62
7
  6
CONTINUOUS
 10
-6.1035889797
 20
-6.2006271418
 40
0.4787491867
100
AcDbArc
 50
117.4528675967
 51
118.4022752223
  0
ARC
  5
3C2
100
AcDbEntity
  8
ASSI
100
AcDbCircle
 62
253
  6
CONTINUOUS
 10
-15.5468169855
 20
-15.049735226
 40
0.4679501358
100
AcDbArc
 50
236.6435688028
 51
237.3495177374
  0
ARC
  5
3C3
100
AcDbEntity
  8
ASSI
100
AcDbCircle
 62
253
  6
CONTINUOUS
 10
-15.5482566393
 20
-15.052008693
 40
0.4652592166
100
AcDbArc
 50
237.347743328
 51
240.4077048459
  0
ARC
  5
3C4
100
AcDbEntity
  8
RACCORDO
100
AcDbCircle
 62
7
  6
CONTINUOUS
 10
-6.2296573102
 20
-5.9671171927
 40
0.2133814241
100
AcDbArc
 50
118.4499889022
 51
127.4177336494
  0
ARC
  5
3C5
100
AcDbEntity
  8
ASSI
100
AcDbCircle
 62
7
  6
CONTINUOUS
 10
4.8071877345
 20
-20.5236933254
 40
0.1897068997
100
AcDbArc
 50
298.4131232313
 51
301.183179147
  0
ARC
  5
3C6
100
AcDbEntity
  8
ASSI
100
AcDbCircle
 62
253
  6
CONTINUOUS
 10
5.078330012
 20
-21.4755421251
 40
0.1325016742
100
AcDbArc
 50
54.4471051637
 51
63.5321853897
  0
ARC
  5
3C7
100
AcDbEntity
  8
ASSI
100
AcDbCircle
 62
253
  6
CONTINUOUS
 10
5.1183110788
 20
-21.4499034135
 40
0.0949111581
100
AcDbArc
 50
63.6308652201
 51
78.3745314915
  0
ARC
  5
3C8
100
AcDbEntity
  8
ASSI
100
AcDbCircle
 62
253
  6
CONTINUOUS
 10
-9.5699412428
 20
27.5344733216
 40
0.0942986567
100
AcDbArc
 50
63.4461754462
 51
66.0333017024
  0
ARC
  5
3C9
100
AcDbEntity
  8
RACCORDO
100
AcDbCircle
 62
253
  6
CONTINUOUS
 10
67.694134572
 20
171.8087651272
 40
172.3103937551
100
AcDbArc
 50
246.1937069194
 51
246.3878242146
  0
ARC
  5
3CA
100
AcDbEntity
  8
RACCORDO
100
AcDbCircle
 62
253
  6
CONTINUOUS
 10
62.8535445743
 20
161.8914207574
 40
159.6835751676
100
AcDbArc
 50
246.4026408547
 51
246.61325045
  0
ARC
  5
3CB
100
AcDbEntity
  8
RACCORDO
100
AcDbCircle
 62
253
  6
CONTINUOUS
 10
58.3564549509
 20
148.3312489676
 40
151.2769543364
100
AcDbArc
 50
245.0353385742
 51
246.0006382569
  0
ARC
  5
3CC
100
AcDbEntity
  8
RACCORDO
100
AcDbCircle
 62
253
  6
CONTINUOUS
 10
54.5859130028
 20
140.0573024951
 40
142.5228813198
100
AcDbArc
 50
242.7872642548
 51
246.1411396036
  0
ARC
  5
3CD
100
AcDbEntity
  8
RACCORDO
100
AcDbCircle
 62
253
  6
CONTINUOUS
 10
51.6680577056
 20
139.7459216392
 40
136.4494638674
100
AcDbArc
 50
240.2345260062
 51
240.4613160986
  0
ARC
  5
3CE
100
AcDbEntity
  8
RACCORDO
100
AcDbCircle
 62
253
  6
CONTINUOUS
 10
49.72564256
 20
113.3854410113
 40
132.3955519551
100
AcDbArc
 50
244.962816358
 51
245.9509647479
  0
ARC
  5
3CF
100
AcDbEntity
  8
RACCORDO
100
AcDbCircle
 62
253
  6
CONTINUOUS
 10
48.8734540256
 20
111.5046206225
 40
129.6268960251
100
AcDbArc
 50
244.7939832902
 51
245.7335521844
  0
ARC
  5
3D0
100
AcDbEntity
  8
RACCORDO
100
AcDbCircle
 62
253
  6
CONTINUOUS
 10
48.5673265075
 20
109.3972347853
 40
129.5352492441
100
AcDbArc
 50
244.5342904045
 51
244.9450311509
  0
ARC
  5
3D1
100
AcDbEntity
  8
RACCORDO
100
AcDbCircle
 62
253
  6
CONTINUOUS
 10
48.5060151397
 20
133.1301085428
 40
127.5257275402
100
AcDbArc
 50
240.0001638635
 51
240.2448375122
  0
ARC
  5
3D2
100
AcDbEntity
  8
RACCORDO
100
AcDbCircle
 62
253
  6
CONTINUOUS
 10
47.7348880866
 20
126.4928202277
 40
127.326891283
100
AcDbArc
 50
240.5688795684
 51
242.7376480419
  0
ARC
  5
3D3
100
AcDbEntity
  8
RACCORDO
100
AcDbCircle
 62
253
  6
CONTINUOUS
 10
47.7575794393
 20
107.637535002
 40
126.892219098
100
AcDbArc
 50
244.3609936008
 51
244.7073752931
  0
ARC
  5
3D4
100
AcDbEntity
  8
DRAFT
100
AcDbCircle
 62
7
  6
CONTINUOUS
 10
48.3547434296
 20
109.3160323832
 40
126.7985910285
100
AcDbArc
 50
244.8010495202
 51
245.4117126846
  0
ARC
  5
3D5
100
AcDbEntity
  8
RACCORDO
100
AcDbCircle
 62
253
  6
CONTINUOUS
 10
46.610172036
 20
104.0725773807
 40
124.9283019655
100
AcDbArc
 50
242.3390423484
 51
244.5308552975
  0
ARC
  5
3D6
100
AcDbEntity
  8
RACCORDO
100
AcDbCircle
 62
253
  6
CONTINUOUS
 10
46.1721915489
 20
103.1257284677
 40
123.1772701062
100
AcDbArc
 50
242.5119777004
 51
244.2830184599
  0
ARC
  5
3D7
100
AcDbEntity
  8
DRAFT
100
AcDbCircle
 62
7
  6
CONTINUOUS
 10
45.2593809745
 20
100.2725201167
 40
119.5813576373
100
AcDbArc
 50
242.491815304
 51
243.9150398162
  0
ARC
  5
3D8
100
AcDbEntity
  8
RACCORDO
100
AcDbCircle
 62
253
  6
CONTINUOUS
 10
42.8713761298
 20
97.9828244424
 40
116.7774789561
100
AcDbArc
 50
241.8642629557
 51
242.3043925656
  0
ARC
  5
3D9
100
AcDbEntity
  8
RACCORDO
100
AcDbCircle
 62
253
  6
CONTINUOUS
 10
43.0228696006
 20
98.1579120854
 40
116.2952946132
100
AcDbArc
 50
242.0459398848
 51
242.4872485884
  0
ARC
  5
3DA
100
AcDbEntity
  8
DRAFT
100
AcDbCircle
 62
7
  6
CONTINUOUS
 10
42.9712284703
 20
97.020947424
 40
114.6182923364
100
AcDbArc
 50
242.0326514751
 51
242.4803355823
  0
ARC
  5
3DB
100
AcDbEntity
  8
RACCORDO
100
AcDbCircle
 62
253
  6
CONTINUOUS
 10
40.8950875349
 20
95.6419023122
 40
112.5720875804
100
AcDbArc
 50
240.7500240203
 51
241.850944812
  0
ARC
  5
3DC
100
AcDbEntity
  8
RACCORDO
100
AcDbCircle
 62
253
  6
CONTINUOUS
 10
41.0503269738
 20
95.7966813396
 40
112.0757458971
100
AcDbArc
 50
240.9290820358
 51
242.0333891834
  0
ARC
  5
3DD
100
AcDbEntity
  8
DRAFT
100
AcDbCircle
 62
7
  6
CONTINUOUS
 10
40.8234203149
 20
94.3534128031
 40
110.0447545403
100
AcDbArc
 50
240.9013516046
 51
242.0256488567
  0
ARC
  5
3DE
100
AcDbEntity
  8
ASSI
100
AcDbCircle
 62
253
  6
CONTINUOUS
 10
534.7742561623
 20
-4.6972990485
 40
536.4213031719
100
AcDbArc
 50
178.0105254637
 51
178.4937885716
  0
ARC
  5
3DF
100
AcDbEntity
  8
RACCORDO
100
AcDbCircle
 62
253
  6
CONTINUOUS
 10
523.7543057732
 20
-4.4894483147
 40
525.942184455
100
AcDbArc
 50
177.9680860932
 51
178.368803324
  0
ARC
  5
3E0
100
AcDbEntity
  8
ASSI
100
AcDbCircle
 62
253
  6
CONTINUOUS
 10
524.4537686569
 20
-4.7293358013
 40
525.4353650597
100
AcDbArc
 50
177.9667098319
 51
178.2417372964
  0
ARC
  5
3E1
100
AcDbEntity
  8
RACCORDO
100
AcDbCircle
 62
253
  6
CONTINUOUS
 10
509.1098240169
 20
2.4126612966
 40
525.0440577624
100
AcDbArc
 50
177.9677433637
 51
178.3691460536
  0
ARC
  5
3E2
100
AcDbEntity
  8
RACCORDO
100
AcDbCircle
 62
253
  6
CONTINUOUS
 10
504.3020290175
 20
2.4252332823
 40
519.9476178332
100
AcDbArc
 50
177.9651610759
 51
178.3557885088
  0
ARC
  5
3E3
100
AcDbEntity
  8
RACCORDO
100
AcDbCircle
 62
253
  6
CONTINUOUS
 10
500.3998680572
 20
2.1597747778
 40
515.9674487377
100
AcDbArc
 50
177.9274120678
 51
178.3280452144
  0
ARC
  5
3E4
100
AcDbEntity
  8
RACCORDO
100
AcDbCircle
 62
253
  6
CONTINUOUS
 10
512.4157345988
 20
-4.2848744319
 40
515.032369316
100
AcDbArc
 50
177.9270512653
 51
178.3355279674
  0
ARC
  5
3E5
100
AcDbEntity
  8
ASSI
100
AcDbCircle
 62
253
  6
CONTINUOUS
 10
496.8213970283
 20
3.2191523754
 40
513.2123688906
100
AcDbArc
 50
177.9810773514
 51
182.0189226461
  0
ARC
  5
3E6
100
AcDbEntity
  8
ASSI
100
AcDbCircle
 62
253
  6
CONTINUOUS
 10
510.8570149461
 20
-4.1820265912
 40
512.4987942941
100
AcDbArc
 50
178.4810909093
 51
182.018733016
  0
ARC
  5
3E7
100
AcDbEntity
  8
RACCORDO
100
AcDbCircle
 62
253
  6
CONTINUOUS
 10
507.681870012
 20
-4.2814424894
 40
510.0285029578
100
AcDbArc
 50
177.9075964495
 51
178.3198515668
  0
ARC
  5
3E8
100
AcDbEntity
  8
ASSI
100
AcDbCircle
 62
253
  6
CONTINUOUS
 10
501.6420417351
 20
-4.1615480461
 40
502.6169746389
100
AcDbArc
 50
178.2266439174
 51
182.0578917607
  0
ARC
  5
3E9
100
AcDbEntity
  8
RACCORDO
100
AcDbCircle
 62
253
  6
CONTINUOUS
 10
456.7368681016
 20
-3.1756554206
 40
460.9848958464
100
AcDbArc
 50
179.5790160866
 51
180.5396432717
  0
ARC
  5
3EA
100
AcDbEntity
  8
RACCORDO
100
AcDbCircle
 62
253
  6
CONTINUOUS
 10
444.9186615478
 20
1.7637173995
 40
459.0495111794
100
AcDbArc
 50
179.5769910201
 51
180.5416683731
  0
ARC
  5
3EB
100
AcDbEntity
  8
RACCORDO
100
AcDbCircle
 62
253
  6
CONTINUOUS
 10
441.4036406635
 20
1.7496311659
 40
454.8108693732
100
AcDbArc
 50
179.6470345305
 51
180.4915246592
  0
ARC
  5
3EC
100
AcDbEntity
  8
DRAFT
100
AcDbCircle
 62
7
  6
CONTINUOUS
 10
437.1710066412
 20
2.0927398184
 40
449.8808339577
100
AcDbArc
 50
179.7351232124
 51
180.4960184233
  0
ARC
  5
3ED
100
AcDbEntity
  8
RACCORDO
100
AcDbCircle
 62
253
  6
CONTINUOUS
 10
422.8584162371
 20
-2.2778881654
 40
429.1849855972
100
AcDbArc
 50
180.5729707726
 51
180.7570983888
  0
ARC
  5
3EE
100
AcDbEntity
  8
RACCORDO
100
AcDbCircle
 62
253
  6
CONTINUOUS
 10
416.6002295411
 20
0.6717779147
 40
428.8342489016
100
AcDbArc
 50
180.5728955621
 51
180.7571737735
  0
ARC
  5
3EF
100
AcDbEntity
  8
RACCORDO
100
AcDbCircle
 62
253
  6
CONTINUOUS
 10
413.9194055911
 20
0.6720798736
 40
425.4380062808
100
AcDbArc
 50
180.5197809159
 51
180.7054063152
  0
ARC
  5
3F0
100
AcDbEntity
  8
DRAFT
100
AcDbCircle
 62
7
  6
CONTINUOUS
 10
411.1908299376
 20
1.0219112448
 40
422.0044026917
100
AcDbArc
 50
180.5234526795
 51
180.7105813471
  0
ARC
  5
3F1
100
AcDbEntity
  8
RACCORDO
100
AcDbCircle
 62
253
  6
CONTINUOUS
 10
414.0779880956
 20
-1.9080022869
 40
421.2449757109
100
AcDbArc
 50
180.7678031386
 51
180.9258438648
  0
ARC
  5
3F2
100
AcDbEntity
  8
RACCORDO
100
AcDbCircle
 62
253
  6
CONTINUOUS
 10
409.5092695281
 20
0.2248991414
 40
420.9507251591
100
AcDbArc
 50
180.7677479629
 51
180.9258991619
  0
ARC
  5
3F3
100
AcDbEntity
  8
RACCORDO
100
AcDbCircle
 62
253
  6
CONTINUOUS
 10
406.8722363783
 20
0.2292458283
 40
417.6017234431
100
AcDbArc
 50
180.7153066119
 51
180.8746200499
  0
ARC
  5
3F4
100
AcDbEntity
  8
DRAFT
100
AcDbCircle
 62
7
  6
CONTINUOUS
 10
404.9062800939
 20
0.5809840688
 40
414.9274841655
100
AcDbArc
 50
180.719383818
 51
180.8797178222
  0
LINE
  5
3F5
100
AcDbEntity
  8
RACCORDO
100
AcDbLine
 62
253
  6
CONTINUOUS
 10
-15.3479134461
 20
17.214143955
 11
-15.3497752586
 21
17.1502036939
  0
SPLINE
  5
3F6
100
AcDbEntity
  8
RACCORDO
100
AcDbSpline
 62
253
  6
CONTINUOUS
 70
0
 71
3
 72
9
 73
5
 74
3
 42
0.0000001
 43
0.0000001
 44
0.0000000001
 12
-13.2502928466
 22
5.8326488848
 32
0.0
 13
-12.5916315929
 23
7.1442891433
 33
0.0
 40
0.0
 40
0.0
 40
0.0
 40
0.0
 40
0.256412245
 40
1.0
 40
1.0
 40
1.0
 40
1.0
 10
-1.4773232684
 20
15.7395062717
 30
0.0
 10
-2.6098357138
 20
16.2380271367
 30
0.0
 10
-7.0035101958
 20
18.2339788872
 30
0.0
 10
-11.3020896399
 20
20.4415846954
 30
0.0
 10
-14.4230839957
 20
22.2123866703
 30
0.0
 11
-1.4773232684
 21
15.7395062717
 31
0.0
 11
-4.8567673534
 21
17.2755157454
 31
0.0
 11
-14.4230839957
 21
22.2123866703
 31
0.0
  0
SPLINE
  5
3F7
100
AcDbEntity
  8
RACCORDO
100
AcDbSpline
 62
253
  6
CONTINUOUS
 70
0
 71
3
 72
9
 73
5
 74
3
 42
0.0000001
 43
0.0000001
 44
0.0000000001
 12
-13.2429022163
 22
5.8650165525
 32
0.0
 13
-12.6138596558
 23
7.1178243064
 33
0.0
 40
0.0
 40
0.0
 40
0.0
 40
0.0
 40
0.5086963776
 40
1.0
 40
1.0
 40
1.0
 40
1.0
 10
-2.2794658965
 20
14.3447637711
 30
0.0
 10
-4.5250046919
 20
15.3392679961
 30
0.0
 10
-8.8966183085
 20
17.3924739949
 30
0.0
 10
-13.1644046859
 20
19.6544347046
 30
0.0
 10
-15.2301496663
 20
20.8201056597
 30
0.0
 11
-2.2794658965
 21
14.3447637711
 31
0.0
 11
-8.9457851311
 21
17.4822047792
 31
0.0
 11
-15.2301496663
 21
20.8201056597
 31
0.0
  0
SPLINE
  5
3F8
100
AcDbEntity
  8
RACCORDO
100
AcDbSpline
 62
253
  6
CONTINUOUS
 70
0
 71
3
 72
11
 73
7
 74
5
 42
0.0000001
 43
0.0000001
 44
0.0000000001
 12
0.0594981364
 22
1.6654337517
 32
0.0
 13
1.4496107271
 23
0.8220938812
 33
0.0
 40
0.0
 40
0.0
 40
0.0
 40
0.0
 40
0.2476010117
 40
0.5109867455
 40
0.7684064558
 40
1.0
 40
1.0
 40
1.0
 40
1.0
 10
-2.2794658937
 20
14.3447637727
 30
0.0
 10
-2.2745552941
 20
14.4822181333
 30
0.0
 10
-2.2218712441
 20
14.7649014342
 30
0.0
 10
-2.0496516925
 20
15.1589659122
 30
0.0
 10
-1.8016857956
 20
15.499419358
 30
0.0
 10
-1.5892300971
 20
15.6760423931
 30
0.0
 10
-1.4773232684
 20
15.7395062716
 30
0.0
 11
-2.2794658937
 21
14.3447637727
 31
0.0
 11
-2.208978805
 21
14.7513248474
 31
0.0
 11
-2.0342696011
 21
15.153987738
 31
0.0
 11
-1.7789608473
 21
15.4987325385
 31
0.0
 11
-1.4773232684
 21
15.7395062716
 31
0.0
  0
SPLINE
  5
3F9
100
AcDbEntity
  8
RACCORDO
100
AcDbSpline
 62
253
  6
CONTINUOUS
 70
0
 71
3
 72
9
 73
5
 74
3
 42
0.0000001
 43
0.0000001
 44
0.0000000001
 12
-0.1234018754
 22
-0.0692898796
 32
0.0
 13
-0.1140132
 23
-0.0838456944
 33
0.0
 40
0.0
 40
0.0
 40
0.0
 40
0.0
 40
0.2439562331
 40
1.0
 40
1.0
 40
1.0
 40
1.0
 10
-14.4230840039
 20
22.2123866656
 30
0.0
 10
-14.4331188895
 20
22.2067520996
 30
0.0
 10
-14.4738693158
 20
22.1829758925
 30
0.0
 10
-14.513086271
 20
22.1565963493
 30
0.0
 10
-14.5418192608
 20
22.1354660111
 30
0.0
 11
-14.4230840039
 21
22.2123866656
 31
0.0
 11
-14.4529102665
 21
22.1949964551
 31
0.0
 11
-14.5418192608
 21
22.1354660111
 31
0.0
  0
SPLINE
  5
3FA
100
AcDbEntity
  8
RACCORDO
100
AcDbSpline
 62
253
  6
CONTINUOUS
 70
0
 71
3
 72
11
 73
7
 74
5
 42
0.0000001
 43
0.0000001
 44
0.0000000001
 12
-1.2301804565
 22
-0.9046788842
 32
0.0
 13
-0.0560478154
 23
-1.5259903281
 33
0.0
 40
0.0
 40
0.0
 40
0.0
 40
0.0
 40
0.2395533861
 40
0.4974193745
 40
0.7566739133
 40
1.0
 40
1.0
 40
1.0
 40
1.0
 10
-14.5418192608
 20
22.1354660111
 30
0.0
 10
-14.6400505587
 20
22.063226381
 30
0.0
 10
-14.8230426151
 20
21.8839902592
 30
0.0
 10
-15.0358222513
 20
21.5600127747
 30
0.0
 10
-15.1813444121
 20
21.1986941297
 30
0.0
 10
-15.2256036539
 20
20.9438767549
 30
0.0
 10
-15.2301496191
 20
20.8201056699
 30
0.0
 11
-14.5418192608
 21
22.1354660111
 31
0.0
 11
-14.806305822
 21
21.8827637607
 31
0.0
 11
-15.0238795738
 21
21.5545662791
 31
0.0
 11
-15.1705776447
 21
21.1868626812
 31
0.0
 11
-15.2301496191
 21
20.8201056699
 31
0.0
  0
SPLINE
  5
3FB
100
AcDbEntity
  8
RACCORDO
100
AcDbSpline
 62
253
  6
CONTINUOUS
 70
0
 71
3
 72
9
 73
5
 74
3
 42
0.0000001
 43
0.0000001
 44
0.0000000001
 12
-0.0852341322
 22
0.0418344734
 32
0.0
 13
-0.0824600753
 23
-0.0470671481
 33
0.0
 40
0.0
 40
0.0
 40
0.0
 40
0.0
 40
0.5425186038
 40
1.0
 40
1.0
 40
1.0
 40
1.0
 10
-14.4230840039
 20
22.2123866656
 30
0.0
 10
-14.4384977047
 20
22.2199519923
 30
0.0
 10
-14.4694641939
 20
22.2302108748
 30
0.0
 10
-14.502515597
 20
22.2238398048
 30
0.0
 10
-14.5150902472
 20
22.2166623566
 30
0.0
 11
-14.4230840039
 21
22.2123866656
 31
0.0
 11
-14.472711143
 21
22.2261886269
 31
0.0
 11
-14.5150902472
 21
22.2166623566
 31
0.0
  0
SPLINE
  5
3FC
100
AcDbEntity
  8
RACCORDO
100
AcDbSpline
 62
253
  6
CONTINUOUS
 70
0
 71
3
 72
11
 73
7
 74
5
 42
0.0000001
 43
0.0000001
 44
0.0000000001
 12
-0.0757701489
 22
0.0423207988
 32
0.0
 13
0.0030432222
 23
0.0867346775
 33
0.0
 40
0.0
 40
0.0
 40
0.0
 40
0.0
 40
0.3042533211
 40
0.5682105755
 40
0.7952834351
 40
1.0
 40
1.0
 40
1.0
 40
1.0
 10
-15.2301496663
 20
20.8201056603
 30
0.0
 10
-15.2378341061
 20
20.8243977415
 30
0.0
 10
-15.2516559579
 20
20.8334533848
 30
0.0
 10
-15.2682983917
 20
20.8496134693
 30
0.0
 10
-15.2786791181
 20
20.8672231049
 30
0.0
 10
-15.2808797194
 20
20.879890947
 30
0.0
 10
-15.2806720534
 20
20.8858096221
 30
0.0
 11
-15.2301496663
 21
20.8201056603
 31
0.0
 11
-15.2520824515
 21
20.8348096094
 31
0.0
 11
-15.2682180229
 21
20.8510710717
 31
0.0
 11
-15.2778395723
 21
20.8682699069
 31
0.0
 11
-15.2806720534
 21
20.8858096221
 31
0.0
  0
SPLINE
  5
3FD
100
AcDbEntity
  8
RACCORDO
100
AcDbSpline
 62
253
  6
CONTINUOUS
 70
0
 71
3
 72
11
 73
7
 74
5
 42
0.0000001
 43
0.0000001
 44
0.0000000001
 12
-0.0748732207
 22
0.0423628897
 32
0.0
 13
0.0024714398
 23
0.0859913112
 33
0.0
 40
0.0
 40
0.0
 40
0.0
 40
0.0
 40
0.3025054532
 40
0.5658575735
 40
0.7936321692
 40
1.0
 40
1.0
 40
1.0
 40
1.0
 10
-15.3496767122
 20
17.1501478586
 30
0.0
 10
-15.3572265647
 20
17.1544195269
 30
0.0
 10
-15.3708160384
 20
17.1634431598
 30
0.0
 10
-15.3871674412
 20
17.1795422739
 30
0.0
 10
-15.3973793807
 20
17.1970941921
 30
0.0
 10
-15.3995791329
 20
17.2097020795
 30
0.0
 10
-15.3994091243
 20
17.2156173596
 30
0.0
 11
-15.3496767122
 21
17.1501478586
 31
0.0
 11
-15.3712044758
 21
17.1647691516
 31
0.0
 11
-15.3870584802
 21
17.1809529463
 31
0.0
 11
-15.3965486746
 21
17.1980961495
 31
0.0
 11
-15.3994091243
 21
17.2156173596
 31
0.0
  0
SPLINE
  5
3FE
100
AcDbEntity
  8
RACCORDO
100
AcDbSpline
 62
253
  6
CONTINUOUS
 70
0
 71
3
 72
11
 73
7
 74
5
 42
0.0000001
 43
0.0000001
 44
0.0000000001
 12
-0.0038541339
 22
-0.1310361297
 32
0.0
 13
0.114319721
 23
-0.0641585771
 33
0.0
 40
0.0
 40
0.0
 40
0.0
 40
0.0
 40
0.2843580008
 40
0.5434420101
 40
0.7787543084
 40
1.0
 40
1.0
 40
1.0
 40
1.0
 10
-14.7143231853
 20
15.9034076211
 30
0.0
 10
-14.7146885032
 20
15.8909872305
 30
0.0
 10
-14.7132425965
 20
15.8671023298
 30
0.0
 10
-14.7037795454
 20
15.8340623987
 30
0.0
 10
-14.6870752746
 20
15.8070869571
 30
0.0
 10
-14.6713226722
 20
15.7941133893
 30
0.0
 10
-14.6628917569
 20
15.7893817863
 30
0.0
 11
-14.7143231853
 21
15.9034076211
 31
0.0
 11
-14.7117631908
 21
15.8662183421
 31
0.0
 11
-14.7019713907
 21
15.8336963929
 31
0.0
 11
-14.685393281
 21
15.8076819775
 31
0.0
 11
-14.6628917569
 21
15.7893817863
 31
0.0
  0
SPLINE
  5
3FF
100
AcDbEntity
  8
RACCORDO
100
AcDbSpline
 62
253
  6
CONTINUOUS
 70
0
 71
3
 72
11
 73
7
 74
5
 42
0.0000001
 43
0.0000001
 44
0.0000000001
 12
-0.0035424232
 22
-0.1319741089
 32
0.0
 13
0.1206285719
 23
-0.0536512982
 33
0.0
 40
0.0
 40
0.0
 40
0.0
 40
0.0
 40
0.2979777591
 40
0.5615343757
 40
0.7912971712
 40
1.0
 40
1.0
 40
1.0
 40
1.0
 10
-3.1718860156
 20
10.1321891374
 30
0.0
 10
-3.1722378701
 20
10.1190806877
 30
0.0
 10
-3.1708375283
 20
10.0942368312
 30
0.0
 10
-3.1614642984
 20
10.0603413844
 30
0.0
 10
-3.1448472447
 20
10.0336499386
 30
0.0
 10
-3.1287993338
 20
10.0218542454
 30
0.0
 10
-3.1204074924
 20
10.0181218529
 30
0.0
 11
-3.1718860156
 21
10.1321891374
 31
0.0
 11
-3.1692729959
 21
10.0929365014
 31
0.0
 11
-3.1593989905
 21
10.0595717237
 31
0.0
 11
-3.1427920002
 21
10.0341878921
 31
0.0
 11
-3.1204074924
 21
10.0181218529
 31
0.0
  0
SPLINE
  5
400
100
AcDbEntity
  8
RACCORDO
100
AcDbSpline
 62
253
  6
CONTINUOUS
 70
0
 71
3
 72
11
 73
7
 74
5
 42
0.0000001
 43
0.0000001
 44
0.0000000001
 12
0.0509610404
 22
1.389795148
 32
0.0
 13
1.2158957353
 23
0.6750741751
 33
0.0
 40
0.0
 40
0.0
 40
0.0
 40
0.0
 40
0.2471700934
 40
0.5102109901
 40
0.7676896243
 40
1.0
 40
1.0
 40
1.0
 40
1.0
 10
-2.0065680396
 20
14.3403175189
 30
0.0
 10
-2.0023693579
 20
14.4548227845
 30
0.0
 10
-1.9578109558
 20
14.6903287288
 30
0.0
 10
-1.8122936808
 20
15.018095662
 30
0.0
 10
-1.6029115203
 20
15.3007417756
 30
0.0
 10
-1.4238950587
 20
15.44663865
 30
0.0
 10
-1.3297399937
 20
15.4989142285
 30
0.0
 11
-2.0065680396
 21
14.3403175189
 31
0.0
 11
-1.9469572313
 21
14.6788560165
 31
0.0
 11
-1.7994654908
 21
15.0136237967
 31
0.0
 11
-1.5840855704
 21
15.299691893
 31
0.0
 11
-1.3297399937
 21
15.4989142285
 31
0.0
  0
SPLINE
  5
401
100
AcDbEntity
  8
RACCORDO
100
AcDbSpline
 62
253
  6
CONTINUOUS
 70
0
 71
3
 72
11
 73
7
 74
5
 42
0.0000001
 43
0.0000001
 44
0.0000000001
 12
0.2544879149
 22
-0.1125526123
 32
0.0
 13
0.2539963679
 23
0.1136575314
 33
0.0
 40
0.0
 40
0.0
 40
0.0
 40
0.0
 40
0.2407388562
 40
0.5060690813
 40
0.7681635572
 40
1.0
 40
1.0
 40
1.0
 40
1.0
 10
-2.3994359476
 20
10.675027517
 30
0.0
 10
-2.3790142377
 20
10.6659955879
 30
0.0
 10
-2.3334561724
 20
10.6529140484
 30
0.0
 10
-2.26220537
 20
10.6461075343
 30
0.0
 10
-2.1916682073
 20
10.6514718838
 30
0.0
 10
-2.1469893878
 20
10.6637688947
 30
0.0
 10
-2.1273608497
 20
10.672552214
 30
0.0
 11
-2.3994359476
 21
10.675027517
 31
0.0
 11
-2.33535718
 21
10.6554952533
 31
0.0
 11
-2.2618855314
 21
10.6482046478
 31
0.0
 11
-2.1891974491
 21
10.6541655115
 31
0.0
 11
-2.1273608497
 21
10.672552214
 31
0.0
  0
SPLINE
  5
402
100
AcDbEntity
  8
RACCORDO
100
AcDbSpline
 62
253
  6
CONTINUOUS
 70
0
 71
3
 72
11
 73
7
 74
5
 42
0.0000001
 43
0.0000001
 44
0.0000000001
 12
0.2546511618
 22
-0.1140756403
 32
0.0
 13
0.2557374585
 23
0.1116190764
 33
0.0
 40
0.0
 40
0.0
 40
0.0
 40
0.0
 40
0.2406238519
 40
0.506208863
 40
0.7684841259
 40
1.0
 40
1.0
 40
1.0
 40
1.0
 10
-2.279456887
 20
14.3447683095
 30
0.0
 10
-2.2590318392
 20
14.3356185362
 30
0.0
 10
-2.2134057246
 20
14.3222700484
 30
0.0
 10
-2.1419802739
 20
14.314978147
 30
0.0
 10
-2.0712038169
 20
14.3197959584
 30
0.0
 10
-2.0263038003
 20
14.3317036564
 30
0.0
 10
-2.0065680399
 20
14.3403175191
 30
0.0
 11
-2.279456887
 21
14.3447683095
 31
0.0
 11
-2.2153341061
 21
14.3248590822
 31
0.0
 11
-2.1416378959
 21
14.3170624439
 31
0.0
 11
-2.0686537554
 21
14.3224666434
 31
0.0
 11
-2.0065680399
 21
14.3403175191
 31
0.0
  0
SPLINE
  5
403
100
AcDbEntity
  8
RACCORDO
100
AcDbSpline
 62
253
  6
CONTINUOUS
 70
0
 71
3
 72
11
 73
7
 74
5
 42
0.0000001
 43
0.0000001
 44
0.0000000001
 12
0.2608400917
 22
-0.1328570276
 32
0.0
 13
0.0128955347
 23
-0.2924418718
 33
0.0
 40
0.0
 40
0.0
 40
0.0
 40
0.0
 40
0.2305001886
 40
0.4905791889
 40
0.755789634
 40
1.0
 40
1.0
 40
1.0
 40
1.0
 10
-1.4773232684
 20
15.7395062716
 30
0.0
 10
-1.4572820383
 20
15.729298415
 30
0.0
 10
-1.4188330959
 20
15.6993074286
 30
0.0
 10
-1.3733956404
 20
15.6405159905
 30
0.0
 10
-1.3411722871
 20
15.5720751788
 30
0.0
 10
-1.3307897347
 20
15.5227200073
 30
0.0
 10
-1.3297399937
 20
15.4989142285
 30
0.0
 11
-1.4773232684
 21
15.7395062716
 31
0.0
 11
-1.4231284063
 21
15.6993120172
 31
0.0
 11
-1.3760533352
 21
15.6394788839
 31
0.0
 11
-1.343260692
 21
15.5691106976
 31
0.0
 11
-1.3297399937
 21
15.4989142285
 31
0.0
  0
SPLINE
  5
404
100
AcDbEntity
  8
RACCORDO
100
AcDbSpline
 62
253
  6
CONTINUOUS
 70
0
 71
3
 72
11
 73
7
 74
5
 42
0.0000001
 43
0.0000001
 44
0.0000000001
 12
0.7081302927
 22
0.3464172899
 32
0.0
 13
0.0193516803
 23
0.7880856316
 33
0.0
 40
0.0
 40
0.0
 40
0.0
 40
0.0
 40
0.2232516738
 40
0.459094281
 40
0.7168332375
 40
1.0
 40
1.0
 40
1.0
 40
1.0
 10
-2.4774683694
 20
10.0072571629
 30
0.0
 10
-2.4247712784
 20
10.0330365762
 30
0.0
 10
-2.3249576374
 20
10.1054968222
 30
0.0
 10
-2.2145477369
 20
10.2614923608
 30
0.0
 10
-2.1455812648
 20
10.4558079507
 30
0.0
 10
-2.1291874339
 20
10.5981656617
 30
0.0
 10
-2.1273608497
 20
10.672552214
 30
0.0
 11
-2.4774683694
 21
10.0072571629
 31
0.0
 11
-2.3345769556
 21
10.1100000352
 31
0.0
 11
-2.2252717413
 21
10.2603951464
 31
0.0
 11
-2.1550210471
 21
10.4510456145
 31
0.0
 11
-2.1273608497
 21
10.672552214
 31
0.0
  0
SPLINE
  5
405
100
AcDbEntity
  8
RACCORDO
100
AcDbSpline
 62
253
  6
CONTINUOUS
 70
0
 71
3
 72
15
 73
11
 74
9
 42
0.0000001
 43
0.0000001
 44
0.0000000001
 12
1.0522568665
 22
-0.4682820869
 32
0.0
 13
0.033677223
 23
1.1512595149
 33
0.0
 40
0.0
 40
0.0
 40
0.0
 40
0.0
 40
0.1332815688
 40
0.2565050513
 40
0.3724036708
 40
0.4855089538
 40
0.6010629239
 40
0.7236712736
 40
0.8563312196
 40
1.0
 40
1.0
 40
1.0
 40
1.0
 10
-3.1718861407
 20
10.1321890728
 30
0.0
 10
-3.1251373254
 20
10.1113846157
 30
0.0
 10
-3.0310511627
 20
10.0795676117
 30
0.0
 10
-2.8873341405
 20
10.0655630397
 30
0.0
 10
-2.7522629034
 20
10.0887451499
 30
0.0
 10
-2.6322419398
 20
10.1489215285
 30
0.0
 10
-2.5333011564
 20
10.2432468525
 30
0.0
 10
-2.4594263754
 20
10.3667030578
 30
0.0
 10
-2.4128040859
 20
10.5137766494
 30
0.0
 10
-2.4010487361
 20
10.6198941668
 30
0.0
 10
-2.3994359476
 20
10.675027517
 30
0.0
 11
-3.1718861407
 21
10.1321890728
 31
0.0
 11
-3.0260379338
 21
10.0843059334
 31
0.0
 11
-2.8846622818
 21
10.0718547579
 31
0.0
 11
-2.7532531422
 21
10.0953126834
 31
0.0
 11
-2.6368246309
 21
10.1537461928
 31
0.0
 11
-2.5399107027
 21
10.2449630182
 31
0.0
 11
-2.4662786038
 21
10.3654612486
 31
0.0
 11
-2.4188242203
 21
10.5106965055
 31
0.0
 11
-2.3994359476
 21
10.675027517
 31
0.0
  0
LINE
  5
406
100
AcDbEntity
  8
RACCORDO
100
AcDbLine
 62
253
  6
CONTINUOUS
 10
-14.7143232141
 20
15.9034076095
 11
-14.6272229412
 21
15.8545448108
  0
SPLINE
  5
407
100
AcDbEntity
  8
RACCORDO
100
AcDbSpline
 62
253
  6
CONTINUOUS
 70
0
 71
3
 72
9
 73
5
 74
3
 42
0.0000001
 43
0.0000001
 44
0.0000000001
 12
8.9500142864
 22
-5.0162161537
 32
0.0
 13
9.3011649408
 23
-4.3305324118
 33
0.0
 40
0.0
 40
0.0
 40
0.0
 40
0.0
 40
0.2445857067
 40
1.0
 40
1.0
 40
1.0
 40
1.0
 10
-14.6272229412
 20
15.8545448108
 30
0.0
 10
-13.8975410849
 20
15.4455798865
 30
0.0
 10
-10.897487014
 20
13.8034317383
 30
0.0
 10
-7.8334520967
 20
12.2788101531
 30
0.0
 10
-5.4913744496
 20
11.1883614592
 30
0.0
 11
-14.6272229412
 21
15.8545448108
 31
0.0
 11
-12.4261729221
 21
14.6493186498
 31
0.0
 11
-5.4913744496
 21
11.1883614592
 31
0.0
  0
SPLINE
  5
408
100
AcDbEntity
  8
RACCORDO
100
AcDbSpline
 62
253
  6
CONTINUOUS
 70
0
 71
3
 72
11
 73
7
 74
5
 42
0.0000001
 43
0.0000001
 44
0.0000000001
 12
-0.0419045685
 22
-1.4540179258
 32
0.0
 13
1.268228021
 23
-0.7124056485
 33
0.0
 40
0.0
 40
0.0
 40
0.0
 40
0.0
 40
0.2513121218
 40
0.5184759066
 40
0.7754657143
 40
1.0
 40
1.0
 40
1.0
 40
1.0
 10
-15.3496766668
 20
17.1501478766
 30
0.0
 10
-15.3531870422
 20
17.0283437666
 30
0.0
 10
-15.3213753834
 20
16.7755035014
 30
0.0
 10
-15.1891639908
 20
16.4203474035
 30
0.0
 10
-14.9883954798
 20
16.1143555622
 30
0.0
 10
-14.8092434384
 20
15.9567274407
 30
0.0
 10
-14.7143232141
 20
15.9034076095
 30
0.0
 11
-15.3496766668
 21
17.1501478766
 31
0.0
 11
-15.3090535568
 21
16.7868479475
 31
0.0
 11
-15.1741295382
 21
16.4223994029
 31
0.0
 11
-14.9654428702
 21
16.1122486942
 31
0.0
 11
-14.7143232141
 21
15.9034076095
 31
0.0
  0
SPLINE
  5
409
100
AcDbEntity
  8
ASSI
100
AcDbSpline
 62
7
  6
CONTINUOUS
 70
0
 71
3
 72
13
 73
9
 74
7
 42
0.0000001
 43
0.0000001
 44
0.0000000001
 12
0.2086710327
 22
0.2518882187
 32
0.0
 13
-0.2923890287
 23
0.1466285461
 33
0.0
 40
0.0
 40
0.0
 40
0.0
 40
0.0
 40
0.2912509546
 40
0.5720060506
 40
0.6975100638
 40
0.8094369884
 40
0.9086872575
 40
1.0
 40
1.0
 40
1.0
 40
1.0
 10
8.5232861281
 20
-1.5224806104
 30
0.0
 10
8.5435446739
 20
-1.4980263823
 30
0.0
 10
8.5757470589
 20
-1.4434644205
 30
0.0
 10
8.5950584031
 20
-1.3684826952
 30
0.0
 10
8.5938267288
 20
-1.311643629
 30
0.0
 10
8.584804542
 20
-1.2756503667
 30
0.0
 10
8.5677637299
 20
-1.246763659
 30
0.0
 10
8.5510073391
 20
-1.2334575461
 30
0.0
 10
8.5421077244
 20
-1.2289945279
 30
0.0
 11
8.5232861281
 21
-1.5224806104
 31
0.0
 11
8.5720949804
 21
-1.4406670573
 31
0.0
 11
8.5935238007
 21
-1.3513685452
 31
0.0
 11
8.592174391
 21
-1.3103389682
 31
0.0
 11
8.5827125782
 21
-1.2749720078
 31
0.0
 11
8.565683311
 21
-1.2473326516
 31
0.0
 11
8.5421077244
 21
-1.2289945279
 31
0.0
  0
SPLINE
  5
40A
100
AcDbEntity
  8
ASSI
100
AcDbSpline
 62
7
  6
CONTINUOUS
 70
0
 71
3
 72
9
 73
5
 74
3
 42
0.0000001
 43
0.0000001
 44
0.0000000001
 12
-0.0824418257
 22
0.0413432922
 32
0.0
 13
-0.0824908355
 23
-0.0412454178
 33
0.0
 40
0.0
 40
0.0
 40
0.0
 40
0.0
 40
0.4637962314
 40
1.0
 40
1.0
 40
1.0
 40
1.0
 10
8.5421077244
 20
-1.2289945279
 30
0.0
 10
8.5293623217
 20
-1.2226029069
 30
0.0
 10
8.4973555668
 20
-1.2172577318
 30
0.0
 10
8.4673194156
 20
-1.2272588859
 30
0.0
 10
8.45257545
 20
-1.2346308687
 30
0.0
 11
8.5421077244
 21
-1.2289945279
 31
0.0
 11
8.5000969877
 21
-1.2209458647
 31
0.0
 11
8.45257545
 21
-1.2346308687
 31
0.0
  0
SPLINE
  5
40B
100
AcDbEntity
  8
0
100
AcDbSpline
 62
7
  6
CONTINUOUS
 70
0
 71
3
 72
9
 73
5
 74
3
 42
0.0000001
 43
0.0000001
 44
0.0000000001
 12
-0.0823586259
 22
0.0411679539
 32
0.0
 13
-0.0823540828
 23
-0.0411770414
 33
0.0
 40
0.0
 40
0.0
 40
0.0
 40
0.0
 40
0.4636699454
 40
1.0
 40
1.0
 40
1.0
 40
1.0
 10
7.8348561299
 20
-0.8753740559
 30
0.0
 10
7.8221270567
 20
-0.8690112749
 30
0.0
 10
7.7901687059
 20
-0.8637212557
 30
0.0
 10
7.7601916587
 20
-0.8737159831
 30
0.0
 10
7.7454686688
 20
-0.8810774781
 30
0.0
 11
7.8348561299
 21
-0.8753740559
 31
0.0
 11
7.7929167633
 21
-0.867391694
 31
0.0
 11
7.7454686688
 21
-0.8810774781
 31
0.0
  0
SPLINE
  5
40C
100
AcDbEntity
  8
RACCORDO
100
AcDbSpline
 62
7
  6
CONTINUOUS
 70
0
 71
3
 72
11
 73
7
 74
5
 42
0.0000001
 43
0.0000001
 44
0.0000000001
 12
-0.0044136164
 22
0.351132602
 32
0.0
 13
0.3116081441
 23
0.1619072226
 33
0.0
 40
0.0
 40
0.0
 40
0.0
 40
0.0
 40
0.267432705
 40
0.5222239855
 40
0.764314431
 40
1.0
 40
1.0
 40
1.0
 40
1.0
 10
-7.2881756725
 20
-7.0621082761
 30
0.0
 10
-7.2885691209
 20
-7.0308068289
 30
0.0
 10
-7.2846852112
 20
-6.9694456776
 30
0.0
 10
-7.2610239726
 20
-6.8823352191
 30
0.0
 10
-7.2160672564
 20
-6.8076106821
 30
0.0
 10
-7.1708205847
 20
-6.7721703095
 30
0.0
 10
-7.1463400705
 20
-6.7594505776
 30
0.0
 11
-7.2881756725
 21
-7.0621082761
 31
0.0
 11
-7.2813700244
 21
-6.9684434388
 31
0.0
 11
-7.2566574957
 21
-6.8824513709
 31
0.0
 11
-7.2115851894
 21
-6.8103707002
 31
0.0
 11
-7.1463400705
 21
-6.7594505776
 31
0.0
  0
SPLINE
  5
40D
100
AcDbEntity
  8
ASSI
100
AcDbSpline
 62
7
  6
CONTINUOUS
 70
0
 71
3
 72
13
 73
9
 74
7
 42
0.0000001
 43
0.0000001
 44
0.0000000001
 12
0.3092727818
 22
-0.5497306504
 32
0.0
 13
-0.4979572077
 23
-0.3871589608
 33
0.0
 40
0.0
 40
0.0
 40
0.0
 40
0.0
 40
0.2942061298
 40
0.5679729652
 40
0.6912605556
 40
0.8036201313
 40
0.9057779327
 40
1.0
 40
1.0
 40
1.0
 40
1.0
 10
4.1421716455
 20
23.2590503047
 30
0.0
 10
4.1725016282
 20
23.205138929
 30
0.0
 10
4.2193040965
 20
23.0940208163
 30
0.0
 10
4.2428258928
 20
22.9486225338
 30
0.0
 10
4.2349593994
 20
22.8413361128
 30
0.0
 10
4.2167739615
 20
22.7721624436
 30
0.0
 10
4.1864681233
 20
22.7140663024
 30
0.0
 10
4.1578111647
 20
22.6833863756
 30
0.0
 10
4.1421716455
 20
22.6712267364
 30
0.0
 11
4.1421716455
 21
23.2590503047
 31
0.0
 11
4.213616118
 21
23.0877821352
 31
0.0
 11
4.2386083854
 21
22.9169201506
 31
0.0
 11
4.2323142734
 21
22.8394108685
 31
0.0
 11
4.213616118
 21
22.7710504334
 31
0.0
 11
4.183150711
 21
22.7142706519
 31
0.0
 11
4.1421716455
 21
22.6712267364
 31
0.0
  0
LINE
  5
40E
100
AcDbEntity
  8
DRAFT
100
AcDbLine
 62
7
  6
CONTINUOUS
 10
-7.3209518523
 20
-7.1286423267
 11
-7.2872135442
 21
-7.1451602167
  0
SPLINE
  5
40F
100
AcDbEntity
  8
RACCORDO
100
AcDbSpline
 62
7
  6
CONTINUOUS
 70
0
 71
3
 72
11
 73
7
 74
5
 42
0.0000001
 43
0.0000001
 44
0.0000000001
 12
-0.2433465503
 22
-0.1859629889
 32
0.0
 13
0.0028059741
 23
-0.306254638
 33
0.0
 40
0.0
 40
0.0
 40
0.0
 40
0.0
 40
0.2352110447
 40
0.4786241669
 40
0.7336769311
 40
1.0
 40
1.0
 40
1.0
 40
1.0
 10
-6.3593124918
 20
-5.7976439912
 30
0.0
 10
-6.3783917572
 20
-5.8122241741
 30
0.0
 10
-6.4124639244
 20
-5.8485947954
 30
0.0
 10
-6.4457691058
 20
-5.9165827763
 30
0.0
 10
-6.463760884
 20
-5.993059364
 30
0.0
 10
-6.4668396328
 20
-6.0464358239
 30
0.0
 10
-6.4665905342
 20
-6.0736233823
 30
0.0
 11
-6.3593124918
 21
-5.7976439912
 31
0.0
 11
-6.4088986389
 21
-5.8498992776
 31
0.0
 11
-6.4426411885
 21
-5.9163753804
 31
0.0
 11
-6.4612972927
 21
-5.9922292178
 31
0.0
 11
-6.4665905342
 21
-6.0736233823
 31
0.0
  0
SPLINE
  5
410
100
AcDbEntity
  8
RACCORDO
100
AcDbSpline
 62
253
  6
CONTINUOUS
 70
0
 71
3
 72
10
 73
6
 74
4
 42
0.0000001
 43
0.0000001
 44
0.0000000001
 12
-0.5389717159
 22
-0.2800486191
 32
0.0
 13
-0.5570329769
 23
0.2421404598
 33
0.0
 40
0.0
 40
0.0
 40
0.0
 40
0.0
 40
0.2334634669
 40
0.4746084861
 40
1.0
 40
1.0
 40
1.0
 40
1.0
 10
-2.3412174721
 20
9.9488191321
 30
0.0
 10
-2.3831608739
 20
9.9270254249
 30
0.0
 10
-2.4746260062
 20
9.8936836642
 30
0.0
 10
-2.6776769698
 20
9.8732847986
 30
0.0
 10
-2.8336100784
 20
9.9128899314
 30
0.0
 10
-2.9311635447
 20
9.9552961123
 30
0.0
 11
-2.3412174721
 21
9.9488191321
 31
0.0
 11
-2.4743324157
 21
9.8999484514
 31
0.0
 11
-2.6199888613
 21
9.8845502069
 31
0.0
 11
-2.9311635447
 21
9.9552961123
 31
0.0
  0
SPLINE
  5
411
100
AcDbEntity
  8
ASSI
100
AcDbSpline
 62
253
  6
CONTINUOUS
 70
0
 71
3
 72
11
 73
7
 74
5
 42
0.0000001
 43
0.0000001
 44
0.0000000001
 12
0.1170568738
 22
0.0540149533
 32
0.0
 13
0.0018556626
 23
0.1289049394
 33
0.0
 40
0.0
 40
0.0
 40
0.0
 40
0.0
 40
0.2158499043
 40
0.4486494297
 40
0.7095450212
 40
1.0
 40
1.0
 40
1.0
 40
1.0
 10
2.9926970555
 20
-23.1826136408
 30
0.0
 10
3.0011192938
 20
-23.1787272667
 30
0.0
 10
3.0171726768
 20
-23.167155737
 30
0.0
 10
3.0345944899
 20
-23.1415447825
 30
0.0
 10
3.0451967832
 20
-23.1092059607
 30
0.0
 10
3.0475955358
 20
-23.0854612621
 30
0.0
 10
3.0477751979
 20
-23.0729809017
 30
0.0
 11
2.9926970555
 21
-23.1826136408
 31
0.0
 11
3.0154001836
 21
-23.1665229604
 31
0.0
 11
3.0326935072
 21
-23.1419940349
 31
0.0
 11
3.0436650364
 21
-23.110199602
 31
0.0
 11
3.0477751979
 21
-23.0729809017
 31
0.0
  0
SPLINE
  5
412
100
AcDbEntity
  8
ASSI
100
AcDbSpline
 62
253
  6
CONTINUOUS
 70
0
 71
3
 72
11
 73
7
 74
5
 42
0.0000001
 43
0.0000001
 44
0.0000000001
 12
-0.1405017971
 22
0.0708328134
 32
0.0
 13
0.000000552
 23
0.1573468857
 33
0.0
 40
0.0
 40
0.0
 40
0.0
 40
0.0
 40
0.2175095698
 40
0.4509435265
 40
0.710649105
 40
1.0
 40
1.0
 40
1.0
 40
1.0
 10
2.7970040112
 20
-23.1807232688
 30
0.0
 10
2.7868171827
 20
-23.1755876639
 30
0.0
 10
2.7675527145
 20
-23.1608698475
 30
0.0
 10
2.7469018479
 20
-23.1291639109
 30
0.0
 10
2.7345315099
 20
-23.089612245
 30
0.0
 10
2.7320774517
 20
-23.0607050506
 30
0.0
 10
2.7320775049
 20
-23.0455288965
 30
0.0
 11
2.7970040112
 21
-23.1807232688
 31
0.0
 11
2.7696662644
 21
-23.1601329601
 31
0.0
 11
2.7491294158
 21
-23.1296807263
 31
0.0
 11
2.7363931136
 21
-23.0908523605
 31
0.0
 11
2.7320775049
 21
-23.0455288965
 31
0.0
  0
SPLINE
  5
413
100
AcDbEntity
  8
ASSI
100
AcDbSpline
 62
7
  6
CONTINUOUS
 70
0
 71
3
 72
9
 73
5
 74
3
 42
0.0000001
 43
0.0000001
 44
0.0000000001
 12
0.0541105048
 22
0.0291612789
 32
0.0
 13
0.0231339744
 23
0.0569486273
 33
0.0
 40
0.0
 40
0.0
 40
0.0
 40
0.0
 40
0.4784340984
 40
1.0
 40
1.0
 40
1.0
 40
1.0
 10
4.6197779485
 20
-22.4310165195
 30
0.0
 10
4.6284073853
 20
-22.4263659361
 30
0.0
 10
4.644561381
 20
-22.4128631024
 30
0.0
 10
4.6548916042
 20
-22.3947277936
 30
0.0
 10
4.6589135682
 20
-22.3848269729
 30
0.0
 11
4.6197779485
 21
-22.4310165195
 31
0.0
 11
4.6425315732
 21
-22.4123851342
 31
0.0
 11
4.6589135682
 21
-22.3848269729
 31
0.0
  0
SPLINE
  5
414
100
AcDbEntity
  8
ASSI
100
AcDbSpline
 62
7
  6
CONTINUOUS
 70
0
 71
3
 72
9
 73
5
 74
3
 42
0.0000001
 43
0.0000001
 44
0.0000000001
 12
0.0233562658
 22
0.0574958395
 32
0.0
 13
0.0
 23
0.062058736
 33
0.0
 40
0.0
 40
0.0
 40
0.0
 40
0.0
 40
0.2332872417
 40
1.0
 40
1.0
 40
1.0
 40
1.0
 10
4.6589135682
 20
-22.3848269729
 30
0.0
 10
4.6607298078
 20
-22.3803559577
 30
0.0
 10
4.6673461287
 20
-22.3607177705
 30
0.0
 10
4.6696753246
 20
-22.3397940835
 30
0.0
 10
4.6696753246
 20
-22.3239336752
 30
0.0
 11
4.6589135682
 21
-22.3848269729
 31
0.0
 11
4.6635834964
 21
-22.3711233199
 31
0.0
 11
4.6696753246
 21
-22.3239336752
 31
0.0
  0
SPLINE
  5
415
100
AcDbEntity
  8
ASSI
100
AcDbSpline
 62
253
  6
CONTINUOUS
 70
0
 71
3
 72
9
 73
5
 74
3
 42
0.0000001
 43
0.0000001
 44
0.0000000001
 12
-0.0353602901
 22
0.0075002769
 32
0.0
 13
0.0000004791
 23
0.0361469815
 33
0.0
 40
0.0
 40
0.0
 40
0.0
 40
0.0
 40
0.4489754688
 40
1.0
 40
1.0
 40
1.0
 40
1.0
 10
-9.5560839355
 20
24.8345556462
 30
0.0
 10
-9.5613759031
 20
24.8356781263
 30
0.0
 10
-9.5721168096
 20
24.8440115595
 30
0.0
 10
-9.5740702579
 20
24.8567318027
 30
0.0
 10
-9.5740701699
 20
24.8633710939
 30
0.0
 11
-9.5560839355
 21
24.8345556462
 31
0.0
 11
-9.5692493434
 21
24.8440454291
 31
0.0
 11
-9.5740701699
 21
24.8633710939
 31
0.0
  0
SPLINE
  5
416
100
AcDbEntity
  8
ASSI
100
AcDbSpline
 62
253
  6
CONTINUOUS
 70
0
 71
3
 72
9
 73
5
 74
3
 42
0.0000001
 43
0.0000001
 44
0.0000000001
 12
-0.0000013918
 22
0.0722030778
 32
0.0
 13
0.0644807939
 23
0.0324886391
 33
0.0
 40
0.0
 40
0.0
 40
0.0
 40
0.0
 40
0.5097236387
 40
1.0
 40
1.0
 40
1.0
 40
1.0
 10
-9.5740701699
 20
25.1806398942
 30
0.0
 10
-9.5740704063
 20
25.1929077661
 30
0.0
 10
-9.5663295005
 20
25.2168069451
 30
0.0
 10
-9.5492633102
 20
25.2356910708
 30
0.0
 10
-9.5387255072
 20
25.2410005414
 30
0.0
 11
-9.5740701699
 21
25.1806398942
 31
0.0
 11
-9.5637560824
 21
25.215968717
 31
0.0
 11
-9.5387255072
 21
25.2410005414
 31
0.0
  0
SPLINE
  5
417
100
AcDbEntity
  8
ASSI
100
AcDbSpline
 62
253
  6
CONTINUOUS
 70
0
 71
3
 72
9
 73
5
 74
3
 42
0.0000001
 43
0.0000001
 44
0.0000000001
 12
0.0806759489
 22
0.0369150306
 32
0.0
 13
0.0787986616
 23
-0.0407688501
 33
0.0
 40
0.0
 40
0.0
 40
0.0
 40
0.0
 40
0.4651560211
 40
1.0
 40
1.0
 40
1.0
 40
1.0
 10
-9.722967233
 20
27.6206669214
 30
0.0
 10
-9.7104582652
 20
27.626390671
 30
0.0
 10
-9.6796316532
 20
27.63070863
 30
0.0
 10
-9.6509108867
 20
27.6206815872
 30
0.0
 10
-9.6368625568
 20
27.6134132625
 30
0.0
 11
-9.722967233
 21
27.6206669214
 31
0.0
 11
-9.6822355389
 21
27.6273038905
 31
0.0
 11
-9.6368625568
 21
27.6134132625
 31
0.0
  0
SPLINE
  5
418
100
AcDbEntity
  8
ASSI
100
AcDbSpline
 62
253
  6
CONTINUOUS
 70
0
 71
3
 72
11
 73
7
 74
5
 42
0.0000001
 43
0.0000001
 44
0.0000000001
 12
0.0000416906
 22
-0.0962250162
 32
0.0
 13
0.0860662791
 23
-0.0430331394
 33
0.0
 40
0.0
 40
0.0
 40
0.0
 40
0.0
 40
0.2064739749
 40
0.4345185654
 40
0.698103973
 40
1.0
 40
1.0
 40
1.0
 40
1.0
 10
-11.9775031003
 20
26.2847961385
 30
0.0
 10
-11.9775002309
 20
26.2781734846
 30
0.0
 10
-11.9745562555
 20
26.2641351125
 30
0.0
 10
-11.9623406323
 20
26.2449485675
 30
0.0
 10
-11.9432547207
 20
26.2277790853
 30
0.0
 10
-11.9275855455
 20
26.2184443688
 30
0.0
 10
-11.9189245229
 20
26.2141138575
 30
0.0
 11
-11.9775031003
 21
26.2847961385
 31
0.0
 11
-11.9736503438
 21
26.265305314
 31
0.0
 11
-11.9622692845
 21
26.2465438397
 31
0.0
 11
-11.9437268048
 21
26.2292382276
 31
0.0
 11
-11.9189245229
 21
26.2141138575
 31
0.0
  0
SPLINE
  5
419
100
AcDbEntity
  8
ASSI
100
AcDbSpline
 62
253
  6
CONTINUOUS
 70
0
 71
3
 72
9
 73
5
 74
3
 42
0.0000001
 43
0.0000001
 44
0.0000000001
 12
0.0838255924
 22
0.0449468966
 32
0.0
 13
0.0856656421
 23
-0.0413322058
 33
0.0
 40
0.0
 40
0.0
 40
0.0
 40
0.0
 40
0.4626917864
 40
1.0
 40
1.0
 40
1.0
 40
1.0
 10
-11.8381934201
 20
26.5218805033
 30
0.0
 10
-11.825264949
 20
26.5288126899
 30
0.0
 10
-11.7923172239
 20
26.535022464
 30
0.0
 10
-11.7611823167
 20
26.5251388827
 30
0.0
 10
-11.7458393657
 20
26.5177361714
 30
0.0
 11
-11.8381934201
 21
26.5218805033
 31
0.0
 11
-11.7951637602
 21
26.5311137879
 31
0.0
 11
-11.7458393657
 21
26.5177361714
 31
0.0
  0
SPLINE
  5
41A
100
AcDbEntity
  8
ASSI
100
AcDbSpline
 62
253
  6
CONTINUOUS
 70
0
 71
3
 72
18
 73
14
 74
12
 42
0.0000001
 43
0.0000001
 44
0.0000000001
 12
0.2884012388
 22
0.1428740244
 32
0.0
 13
-0.2921659193
 23
-0.1350086552
 33
0.0
 40
0.0
 40
0.0
 40
0.0
 40
0.0
 40
0.0593413286
 40
0.1107776894
 40
0.1552071775
 40
0.1956008089
 40
0.2804952052
 40
0.3331353194
 40
0.3938218159
 40
0.5364451684
 40
0.6967673704
 40
0.8571446997
 40
1.0
 40
1.0
 40
1.0
 40
1.0
 10
-1.559625886
 20
26.5094894376
 30
0.0
 10
-1.5539211818
 20
26.512315549
 30
0.0
 10
-1.5436270204
 20
26.518391928
 30
0.0
 10
-1.5311515104
 20
26.5296451946
 30
0.0
 10
-1.5232546874
 20
26.5422345549
 30
0.0
 10
-1.5196681836
 20
26.5606359554
 30
0.0
 10
-1.5289195373
 20
26.5794103345
 30
0.0
 10
-1.5449377601
 20
26.5933874638
 30
0.0
 10
-1.5687030926
 20
26.6074843004
 30
0.0
 10
-1.6063407824
 20
26.6192949166
 30
0.0
 10
-1.6560272556
 20
26.6245813006
 30
0.0
 10
-1.7058633368
 20
26.6208019792
 30
0.0
 10
-1.7375509509
 20
26.6118371124
 30
0.0
 10
-1.7514634343
 20
26.6054082117
 30
0.0
 11
-1.559625886
 21
26.5094894376
 31
0.0
 11
-1.5432912708
 21
26.5193866773
 31
0.0
 11
-1.5312071952
 21
26.530702087
 31
0.0
 11
-1.5238777057
 21
26.5429805103
 31
0.0
 11
-1.5215609278
 21
26.5557731589
 31
0.0
 11
-1.532106555
 21
26.5809794361
 31
0.0
 11
-1.5445819644
 21
26.5924426524
 31
0.0
 11
-1.5612881151
 21
26.6025621705
 31
0.0
 11
-1.6047596224
 21
26.6173053198
 31
0.0
 11
-1.65604291
 21
26.6230127792
 31
0.0
 11
-1.7074918618
 21
26.6188429587
 31
0.0
 11
-1.7514634343
 21
26.6054082117
 31
0.0
  0
SPLINE
  5
41B
100
AcDbEntity
  8
ASSI
100
AcDbSpline
 62
253
  6
CONTINUOUS
 70
0
 71
3
 72
18
 73
14
 74
12
 42
0.0000001
 43
0.0000001
 44
0.0000000001
 12
0.2884012388
 22
0.1428740244
 32
0.0
 13
-0.2921659193
 23
-0.1350086552
 33
0.0
 40
0.0
 40
0.0
 40
0.0
 40
0.0
 40
0.0593413286
 40
0.1107776894
 40
0.1552071775
 40
0.1956008089
 40
0.2804952052
 40
0.3331353194
 40
0.3938218159
 40
0.5364451684
 40
0.6967673704
 40
0.8571446997
 40
1.0
 40
1.0
 40
1.0
 40
1.0
 10
4.0495304297
 20
23.7049112797
 30
0.0
 10
4.0552351339
 20
23.7077373912
 30
0.0
 10
4.0655292953
 20
23.7138137702
 30
0.0
 10
4.0780048053
 20
23.7250670368
 30
0.0
 10
4.0859016283
 20
23.737656397
 30
0.0
 10
4.0894881321
 20
23.7560577976
 30
0.0
 10
4.0802367784
 20
23.7748321767
 30
0.0
 10
4.0642185555
 20
23.7888093059
 30
0.0
 10
4.040453223
 20
23.8029061425
 30
0.0
 10
4.0028155333
 20
23.8147167587
 30
0.0
 10
3.95312906
 20
23.8200031428
 30
0.0
 10
3.9032929788
 20
23.8162238214
 30
0.0
 10
3.8716053648
 20
23.8072589545
 30
0.0
 10
3.8576928814
 20
23.8008300539
 30
0.0
 11
4.0495304297
 21
23.7049112797
 31
0.0
 11
4.0658650449
 21
23.7148085194
 31
0.0
 11
4.0779491205
 21
23.7261239292
 31
0.0
 11
4.08527861
 21
23.7384023525
 31
0.0
 11
4.0875953878
 21
23.7511950011
 31
0.0
 11
4.0770497607
 21
23.7764012783
 31
0.0
 11
4.0645743513
 21
23.7878644946
 31
0.0
 11
4.0478682006
 21
23.7979840127
 31
0.0
 11
4.0043966933
 21
23.8127271619
 31
0.0
 11
3.9531134057
 21
23.8184346214
 31
0.0
 11
3.9016644539
 21
23.8142648009
 31
0.0
 11
3.8576928814
 21
23.8008300539
 31
0.0
  0
SPLINE
  5
41C
100
AcDbEntity
  8
ASSI
100
AcDbSpline
 62
253
  6
CONTINUOUS
 70
0
 71
3
 72
11
 73
7
 74
5
 42
0.0000001
 43
0.0000001
 44
0.0000000001
 12
0.0001190189
 22
-0.0961856147
 32
0.0
 13
0.086031095
 23
-0.0430155475
 33
0.0
 40
0.0
 40
0.0
 40
0.0
 40
0.0
 40
0.2064745034
 40
0.4345350635
 40
0.6981241475
 40
1.0
 40
1.0
 40
1.0
 40
1.0
 10
-11.9775030669
 20
25.9674874265
 30
0.0
 10
-11.9774948755
 20
25.9608674675
 30
0.0
 10
-11.9745423714
 20
25.9468369301
 30
0.0
 10
-11.962324483
 20
25.9276628478
 30
0.0
 10
-11.9432439484
 20
25.9105035742
 30
0.0
 10
-11.9275814263
 20
25.9011735088
 30
0.0
 10
-11.9189245229
 20
25.8968450571
 30
0.0
 11
-11.9775030669
 21
25.9674874265
 31
0.0
 11
-11.9736386486
 21
25.9480071393
 31
0.0
 11
-11.9622539529
 21
25.9292565685
 31
0.0
 11
-11.9437156901
 21
25.9119611169
 31
0.0
 11
-11.9189245229
 21
25.8968450571
 31
0.0
  0
SPLINE
  5
41D
100
AcDbEntity
  8
RACCORDO
100
AcDbSpline
 62
7
  6
CONTINUOUS
 70
0
 71
3
 72
9
 73
5
 74
3
 42
0.0000001
 43
0.0000001
 44
0.0000000001
 12
0.0048217606
 22
-0.5262651982
 32
0.0
 13
0.2757529072
 23
-0.4482618012
 33
0.0
 40
0.0
 40
0.0
 40
0.0
 40
0.0
 40
0.4880784015
 40
1.0
 40
1.0
 40
1.0
 40
1.0
 10
-6.4665905342
 20
-6.0736233823
 30
0.0
 10
-6.4658060685
 20
-6.1592429412
 30
0.0
 10
-6.4287177867
 20
-6.3342128523
 30
0.0
 10
-6.3520451423
 20
-6.4933275176
 30
0.0
 10
-6.3049905193
 20
-6.5698191502
 30
0.0
 11
-6.4665905342
 21
-6.0736233823
 31
0.0
 11
-6.4201722822
 21
-6.3262639653
 31
0.0
 11
-6.3049905193
 21
-6.5698191502
 31
0.0
  0
SPLINE
  5
41E
100
AcDbEntity
  8
ASSI
100
AcDbSpline
 62
253
  6
CONTINUOUS
 70
0
 71
3
 72
10
 73
6
 74
4
 42
0.0000001
 43
0.0000001
 44
0.0000000001
 12
-0.0478202807
 22
0.0239112512
 32
0.0
 13
-0.0000014259
 23
-0.0534651959
 33
0.0
 40
0.0
 40
0.0
 40
0.0
 40
0.0
 40
0.2611523551
 40
0.4862749319
 40
1.0
 40
1.0
 40
1.0
 40
1.0
 10
-2.4330288903
 20
22.5251520007
 30
0.0
 10
-2.4371916833
 20
22.5272334939
 30
0.0
 10
-2.4458289396
 20
22.529984503
 30
0.0
 10
-2.4641956801
 20
22.5244650662
 30
0.0
 10
-2.4683786004
 20
22.5086877731
 30
0.0
 10
-2.4683788446
 20
22.4995323026
 30
0.0
 11
-2.4330288903
 21
22.5251520007
 31
0.0
 11
-2.4465537072
 21
22.5286207843
 31
0.0
 11
-2.4580234896
 21
22.5249718462
 31
0.0
 11
-2.4683788446
 21
22.4995323026
 31
0.0
  0
SPLINE
  5
41F
100
AcDbEntity
  8
ASSI
100
AcDbSpline
 62
253
  6
CONTINUOUS
 70
0
 71
3
 72
9
 73
5
 74
3
 42
0.0000001
 43
0.0000001
 44
0.0000000001
 12
0.0000004879
 22
0.0727379768
 32
0.0
 13
-0.0650592676
 23
0.0325285253
 33
0.0
 40
0.0
 40
0.0
 40
0.0
 40
0.0
 40
0.5121953554
 40
1.0
 40
1.0
 40
1.0
 40
1.0
 10
-0.1777304474
 20
21.3542081041
 30
0.0
 10
-0.1777303641
 20
21.3666267887
 30
0.0
 10
-0.1854418055
 20
21.390682737
 30
0.0
 10
-0.2025016641
 20
21.4098885678
 30
0.0
 10
-0.2130804017
 20
21.4151777564
 30
0.0
 11
-0.1777304474
 21
21.3542081041
 31
0.0
 11
-0.188082395
 21
21.3899970791
 31
0.0
 11
-0.2130804017
 21
21.4151777564
 31
0.0
  0
SPLINE
  5
420
100
AcDbEntity
  8
ASSI
100
AcDbSpline
 62
253
  6
CONTINUOUS
 70
0
 71
3
 72
10
 73
6
 74
4
 42
0.0000001
 43
0.0000001
 44
0.0000000001
 12
-0.0478202807
 22
0.0239112512
 32
0.0
 13
-0.0000014259
 23
-0.0534651959
 33
0.0
 40
0.0
 40
0.0
 40
0.0
 40
0.0
 40
0.2611523551
 40
0.4862749319
 40
1.0
 40
1.0
 40
1.0
 40
1.0
 10
-6.1453394915
 20
24.3813073013
 30
0.0
 10
-6.1495022845
 20
24.3833887945
 30
0.0
 10
-6.1581395408
 20
24.3861398037
 30
0.0
 10
-6.1765062814
 20
24.3806203669
 30
0.0
 10
-6.1806892016
 20
24.3648430737
 30
0.0
 10
-6.1806894458
 20
24.3556876033
 30
0.0
 11
-6.1453394915
 21
24.3813073013
 31
0.0
 11
-6.1588643084
 21
24.384776085
 31
0.0
 11
-6.1703340908
 21
24.3811271469
 31
0.0
 11
-6.1806894458
 21
24.3556876033
 31
0.0
  0
SPLINE
  5
421
100
AcDbEntity
  8
ASSI
100
AcDbSpline
 62
253
  6
CONTINUOUS
 70
0
 71
3
 72
9
 73
5
 74
3
 42
0.0000001
 43
0.0000001
 44
0.0000000001
 12
0.0000004879
 22
0.0727379768
 32
0.0
 13
-0.0650592676
 23
0.0325285253
 33
0.0
 40
0.0
 40
0.0
 40
0.0
 40
0.0
 40
0.5121953554
 40
1.0
 40
1.0
 40
1.0
 40
1.0
 10
-3.8900410487
 20
23.2103634047
 30
0.0
 10
-3.8900409654
 20
23.2227820893
 30
0.0
 10
-3.8977524067
 20
23.2468380377
 30
0.0
 10
-3.9148122653
 20
23.2660438685
 30
0.0
 10
-3.9253910029
 20
23.271333057
 30
0.0
 11
-3.8900410487
 21
23.2103634047
 31
0.0
 11
-3.9003929962
 21
23.2461523797
 31
0.0
 11
-3.9253910029
 21
23.271333057
 31
0.0
  0
SPLINE
  5
422
100
AcDbEntity
  8
ASSI
100
AcDbSpline
 62
7
  6
CONTINUOUS
 70
0
 71
3
 72
10
 73
6
 74
4
 42
0.0000001
 43
0.0000001
 44
0.0000000001
 12
0.170111722
 22
0.345119547
 32
0.0
 13
-0.1206318574
 23
0.3653675611
 33
0.0
 40
0.0
 40
0.0
 40
0.0
 40
0.0
 40
0.4539933938
 40
0.7184177455
 40
1.0
 40
1.0
 40
1.0
 40
1.0
 10
0.3209686203
 20
20.7979068758
 30
0.0
 10
0.3467118196
 20
20.8501342072
 30
0.0
 10
0.3619106679
 20
20.9452601178
 30
0.0
 10
0.3496377257
 20
21.0728279658
 30
0.0
 10
0.332291217
 20
21.1411049237
 30
0.0
 10
0.3209686203
 20
21.1753985975
 30
0.0
 11
0.3209686203
 21
20.7979068758
 31
0.0
 11
0.3563306151
 21
20.9689717392
 31
0.0
 11
0.3473515877
 21
21.0703164658
 31
0.0
 11
0.3209686203
 21
21.1753985975
 31
0.0
  0
SPLINE
  5
423
100
AcDbEntity
  8
ASSI
100
AcDbSpline
 62
253
  6
CONTINUOUS
 70
0
 71
3
 72
11
 73
7
 74
5
 42
0.0000001
 43
0.0000001
 44
0.0000000001
 12
-0.0000129856
 22
-0.0935240939
 32
0.0
 13
-0.0830519927
 23
-0.0430014281
 33
0.0
 40
0.0
 40
0.0
 40
0.0
 40
0.0
 40
0.2076695446
 40
0.4361879292
 40
0.699291716
 40
1.0
 40
1.0
 40
1.0
 40
1.0
 10
-7.3024569923
 20
26.0220636387
 30
0.0
 10
-7.3024578912
 20
26.0155896033
 30
0.0
 10
-7.3052493149
 20
26.0018929181
 30
0.0
 10
-7.3169190978
 20
25.9830820192
 30
0.0
 10
-7.3352093357
 20
25.9661679038
 30
0.0
 10
-7.3502641626
 20
25.9569080968
 30
0.0
 10
-7.35858897
 20
25.9525978016
 30
0.0
 11
-7.3024569923
 21
26.0220636387
 31
0.0
 11
-7.3061331239
 21
26.0029926066
 31
0.0
 11
-7.3170213372
 21
25.9846021708
 31
0.0
 11
-7.3347854489
 21
25.9675751829
 31
0.0
 11
-7.35858897
 21
25.9525978016
 31
0.0
  0
SPLINE
  5
424
100
AcDbEntity
  8
ASSI
100
AcDbSpline
 62
253
  6
CONTINUOUS
 70
0
 71
3
 72
11
 73
7
 74
5
 42
0.0000001
 43
0.0000001
 44
0.0000000001
 12
-0.0000129856
 22
-0.0935240939
 32
0.0
 13
-0.0830519927
 23
-0.043001428
 33
0.0
 40
0.0
 40
0.0
 40
0.0
 40
0.0
 40
0.2076695446
 40
0.4361879292
 40
0.699291716
 40
1.0
 40
1.0
 40
1.0
 40
1.0
 10
-7.3024569923
 20
26.3620072335
 30
0.0
 10
-7.3024578912
 20
26.3555331982
 30
0.0
 10
-7.3052493149
 20
26.3418365129
 30
0.0
 10
-7.3169190978
 20
26.323025614
 30
0.0
 10
-7.3352093357
 20
26.3061114986
 30
0.0
 10
-7.3502641626
 20
26.2968516917
 30
0.0
 10
-7.35858897
 20
26.2925413965
 30
0.0
 11
-7.3024569923
 21
26.3620072335
 31
0.0
 11
-7.3061331239
 21
26.3429362014
 31
0.0
 11
-7.3170213372
 21
26.3245457656
 31
0.0
 11
-7.3347854489
 21
26.3075187777
 31
0.0
 11
-7.35858897
 21
26.2925413965
 31
0.0
  0
SPLINE
  5
425
100
AcDbEntity
  8
RACCORDO
100
AcDbSpline
 62
253
  6
CONTINUOUS
 70
0
 71
3
 72
11
 73
7
 74
5
 42
0.0000001
 43
0.0000001
 44
0.0000000001
 12
-0.0000211277
 22
-0.0935198474
 32
0.0
 13
-0.0830482137
 23
-0.0429994943
 33
0.0
 40
0.0
 40
0.0
 40
0.0
 40
0.0
 40
0.20766954
 40
0.436189648
 40
0.6992938814
 40
1.0
 40
1.0
 40
1.0
 40
1.0
 10
6.015718994
 20
-4.1407289758
 30
0.0
 10
6.0157175315
 20
-4.147202717
 30
0.0
 10
6.0129252113
 20
-4.160898566
 30
0.0
 10
6.0012551749
 20
-4.1797081273
 30
0.0
 10
5.9829655046
 20
-4.1966211406
 30
0.0
 10
5.9679113859
 20
-4.2058804432
 30
0.0
 10
5.9595870172
 20
-4.2101905136
 30
0.0
 11
6.015718994
 21
-4.1407289758
 31
0.0
 11
6.0120416298
 21
-4.159798872
 31
0.0
 11
6.0011530268
 21
-4.178188137
 31
0.0
 11
5.9833893575
 21
-4.1952140328
 31
0.0
 11
5.9595870172
 21
-4.2101905136
 31
0.0
  0
SPLINE
  5
426
100
AcDbEntity
  8
ASSI
100
AcDbSpline
 62
253
  6
CONTINUOUS
 70
0
 71
3
 72
10
 73
6
 74
4
 42
0.0000001
 43
0.0000001
 44
0.0000000001
 12
0.0374985431
 22
0.0464822637
 32
0.0
 13
-0.031065602
 23
0.0510065677
 33
0.0
 40
0.0
 40
0.0
 40
0.0
 40
0.0
 40
0.3758715799
 40
0.6547334137
 40
1.0
 40
1.0
 40
1.0
 40
1.0
 10
-7.3642740434
 20
25.8498652177
 30
0.0
 10
-7.3595758312
 20
25.855689005
 30
0.0
 10
-7.3595438779
 20
25.8709029231
 30
0.0
 10
-7.3664620042
 20
25.8891446526
 30
0.0
 10
-7.3723827699
 20
25.9002343966
 30
0.0
 10
-7.3759580747
 20
25.9061046844
 30
0.0
 11
-7.3642740434
 21
25.8498652177
 31
0.0
 11
-7.3610424789
 21
25.8720792731
 31
0.0
 11
-7.3663226112
 21
25.8878743362
 31
0.0
 11
-7.3759580747
 21
25.9061046844
 31
0.0
  0
SPLINE
  5
427
100
AcDbEntity
  8
ASSI
100
AcDbSpline
 62
253
  6
CONTINUOUS
 70
0
 71
3
 72
11
 73
7
 74
5
 42
0.0000001
 43
0.0000001
 44
0.0000000001
 12
-0.1409343633
 22
0.0705506125
 32
0.0
 13
0.000001312
 23
0.1576067374
 33
0.0
 40
0.0
 40
0.0
 40
0.0
 40
0.0
 40
0.2174842744
 40
0.4508667617
 40
0.7105769087
 40
1.0
 40
1.0
 40
1.0
 40
1.0
 10
-9.7892617721
 20
24.7292818952
 30
0.0
 10
-9.7994787747
 20
24.7343964447
 30
0.0
 10
-9.8188099794
 20
24.7490907092
 30
0.0
 10
-9.8395425075
 20
24.780817559
 30
0.0
 10
-9.8519596883
 20
24.820430037
 30
0.0
 10
-9.8544233268
 20
24.8493893861
 30
0.0
 10
-9.8544232002
 20
24.8645943958
 30
0.0
 11
-9.7892617721
 21
24.7292818952
 31
0.0
 11
-9.8166912429
 21
24.7498375748
 31
0.0
 11
-9.8373042495
 21
24.7803017747
 31
0.0
 11
-9.8500901738
 21
24.8191856327
 31
0.0
 11
-9.8544232002
 21
24.8645943958
 31
0.0
  0
SPLINE
  5
428
100
AcDbEntity
  8
ASSI
100
AcDbSpline
 62
253
  6
CONTINUOUS
 70
0
 71
3
 72
11
 73
7
 74
5
 42
0.0000001
 43
0.0000001
 44
0.0000000001
 12
0.2312514505
 22
-0.0490368242
 32
0.0
 13
0.0857674302
 23
0.220285704
 33
0.0
 40
0.0
 40
0.0
 40
0.0
 40
0.0
 40
0.2233445289
 40
0.4614640225
 40
0.7216378373
 40
1.0
 40
1.0
 40
1.0
 40
1.0
 10
-9.7365128813
 20
24.7108691632
 30
0.0
 10
-9.7192966325
 20
24.707218461
 30
0.0
 10
-9.681567635
 20
24.7078813114
 30
0.0
 10
-9.6288608478
 20
24.7325697817
 30
0.0
 10
-9.5846875596
 20
24.7763261596
 30
0.0
 10
-9.5640420713
 20
24.8141159112
 30
0.0
 10
-9.5560839355
 20
24.8345556462
 30
0.0
 11
-9.7365128813
 21
24.7108691632
 31
0.0
 11
-9.6837184057
 21
24.7114029944
 31
0.0
 11
-9.6323106574
 21
24.7343331897
 31
0.0
 11
-9.5880523981
 21
24.7770399994
 31
0.0
 11
-9.5560839355
 21
24.8345556462
 31
0.0
  0
SPLINE
  5
429
100
AcDbEntity
  8
ASSI
100
AcDbSpline
 62
7
  6
CONTINUOUS
 70
0
 71
3
 72
9
 73
5
 74
3
 42
0.0000001
 43
0.0000001
 44
0.0000000001
 12
0.0309994455
 22
0.0143043227
 32
0.0
 13
0.0341398669
 23
0.0002208143
 33
0.0
 40
0.0
 40
0.0
 40
0.0
 40
0.0
 40
0.2452208379
 40
1.0
 40
1.0
 40
1.0
 40
1.0
 10
2.3195763672
 20
21.076199621
 30
0.0
 10
2.3221102706
 20
21.0773688604
 30
0.0
 10
2.3327033037
 20
21.0815664844
 30
0.0
 10
2.3442100942
 20
21.0833343866
 30
0.0
 10
2.3527994476
 20
21.083389942
 30
0.0
 11
2.3195763672
 21
21.076199621
 31
0.0
 11
2.3273604827
 21
21.0792814431
 31
0.0
 11
2.3527994476
 21
21.083389942
 31
0.0
  0
SPLINE
  5
42A
100
AcDbEntity
  8
ASSI
100
AcDbSpline
 62
7
  6
CONTINUOUS
 70
0
 71
3
 72
9
 73
5
 74
3
 42
0.0000001
 43
0.0000001
 44
0.0000000001
 12
0.0561628735
 22
0.0003632576
 32
0.0
 13
0.0502346519
 23
-0.0251173259
 33
0.0
 40
0.0
 40
0.0
 40
0.0
 40
0.0
 40
0.2336306509
 40
1.0
 40
1.0
 40
1.0
 40
1.0
 10
2.3527994476
 20
21.083389942
 30
0.0
 10
2.3571732372
 20
21.0834182314
 30
0.0
 10
2.3759035636
 20
21.082167593
 30
0.0
 10
2.3940793198
 20
21.0759304118
 30
0.0
 10
2.4069120856
 20
21.0695140289
 30
0.0
 11
2.3527994476
 21
21.083389942
 31
0.0
 11
2.3658949236
 21
21.0825616746
 31
0.0
 11
2.4069120856
 21
21.0695140289
 31
0.0
  0
SPLINE
  5
42B
100
AcDbEntity
  8
RACCORDO
100
AcDbSpline
 62
253
  6
CONTINUOUS
 70
0
 71
3
 72
11
 73
7
 74
5
 42
0.0000001
 43
0.0000001
 44
0.0000000001
 12
-0.0002165915
 22
-0.0934171367
 32
0.0
 13
-0.0829572339
 23
-0.0429523652
 33
0.0
 40
0.0
 40
0.0
 40
0.0
 40
0.0
 40
0.2076701784
 40
0.4362313414
 40
0.6993453769
 40
1.0
 40
1.0
 40
1.0
 40
1.0
 10
6.0157188619
 20
-2.4027090841
 30
0.0
 10
6.0157038688
 20
-2.4091757353
 30
0.0
 10
6.0128899581
 20
-2.4228514039
 30
0.0
 10
6.0012139099
 20
-2.4416287007
 30
0.0
 10
5.9829379306
 20
-2.4585150931
 30
0.0
 10
5.9679008425
 20
-2.4677621105
 30
0.0
 10
5.9595870172
 20
-2.4720667196
 30
0.0
 11
6.0157188619
 21
-2.4027090841
 31
0.0
 11
6.0120118516
 21
-2.4217516231
 31
0.0
 11
6.0011139377
 21
-2.4401126071
 31
0.0
 11
5.9833610021
 21
-2.4571120616
 31
0.0
 11
5.9595870172
 21
-2.4720667196
 31
0.0
  0
SPLINE
  5
42C
100
AcDbEntity
  8
ASSI
100
AcDbSpline
 62
253
  6
CONTINUOUS
 70
0
 71
3
 72
11
 73
7
 74
5
 42
0.0000001
 43
0.0000001
 44
0.0000000001
 12
-0.0001092739
 22
-0.1185541213
 32
0.0
 13
-0.1056633721
 23
-0.0537619142
 33
0.0
 40
0.0
 40
0.0
 40
0.0
 40
0.0
 40
0.2070713867
 40
0.435367768
 40
0.6987225536
 40
1.0
 40
1.0
 40
1.0
 40
1.0
 10
2.632116619
 20
25.8472810516
 30
0.0
 10
2.6321090765
 20
25.8390979962
 30
0.0
 10
2.6285185583
 20
25.8217704577
 30
0.0
 10
2.6135891451
 20
25.7980318455
 30
0.0
 10
2.5902353129
 20
25.7767381288
 30
0.0
 10
2.571040608
 20
25.7651190946
 30
0.0
 10
2.5604292776
 20
25.7597200105
 30
0.0
 11
2.632116619
 21
25.8472810516
 31
0.0
 11
2.6274014746
 21
25.8231889473
 31
0.0
 11
2.6134810534
 21
25.7999776885
 31
0.0
 11
2.5907942727
 21
25.7785274833
 31
0.0
 11
2.5604292776
 21
25.7597200105
 31
0.0
  0
SPLINE
  5
42D
100
AcDbEntity
  8
ASSI
100
AcDbSpline
 62
253
  6
CONTINUOUS
 70
0
 71
3
 72
9
 73
5
 74
3
 42
0.0000001
 43
0.0000001
 44
0.0000000001
 12
-0.1003296083
 22
0.0501915989
 32
0.0
 13
-0.1013241881
 23
-0.0481522151
 33
0.0
 40
0.0
 40
0.0
 40
0.0
 40
0.0
 40
0.4652843023
 40
1.0
 40
1.0
 40
1.0
 40
1.0
 10
3.0587582047
 20
21.3255523015
 30
0.0
 10
3.0431976074
 20
21.3333367558
 30
0.0
 10
3.0044364295
 20
21.3401734848
 30
0.0
 10
2.9676980263
 20
21.3287454917
 30
0.0
 10
2.9496381483
 20
21.32016291
 30
0.0
 11
3.0587582047
 21
21.3255523015
 31
0.0
 11
3.0075655816
 21
21.335744681
 31
0.0
 11
2.9496381483
 21
21.32016291
 31
0.0
  0
SPLINE
  5
42E
100
AcDbEntity
  8
ASSI
100
AcDbSpline
 62
253
  6
CONTINUOUS
 70
0
 71
3
 72
9
 73
5
 74
3
 42
0.0000001
 43
0.0000001
 44
0.0000000001
 12
-0.0996795919
 22
0.049839114
 32
0.0
 13
-0.1003890457
 23
-0.048394192
 33
0.0
 40
0.0
 40
0.0
 40
0.0
 40
0.0
 40
0.4648519224
 40
1.0
 40
1.0
 40
1.0
 40
1.0
 10
5.1607233269
 20
20.2745699385
 30
0.0
 10
5.1452779103
 20
20.2822925411
 30
0.0
 10
5.1067269402
 20
20.2889938835
 30
0.0
 10
5.0702876423
 20
20.2774246834
 30
0.0
 10
5.052379974
 20
20.2687919971
 30
0.0
 11
5.1607233269
 21
20.2745699385
 31
0.0
 11
5.1098932307
 21
20.2845747725
 31
0.0
 11
5.052379974
 21
20.2687919971
 31
0.0
  0
SPLINE
  5
42F
100
AcDbEntity
  8
ASSI
100
AcDbSpline
 62
253
  6
CONTINUOUS
 70
0
 71
3
 72
11
 73
7
 74
5
 42
0.0000001
 43
0.0000001
 44
0.0000000001
 12
-0.1405921882
 22
0.0703942378
 32
0.0
 13
-0.0000045769
 23
0.1572307606
 33
0.0
 40
0.0
 40
0.0
 40
0.0
 40
0.0
 40
0.2169986407
 40
0.4500358587
 40
0.7102954796
 40
1.0
 40
1.0
 40
1.0
 40
1.0
 10
-11.8541648444
 20
25.7617519421
 30
0.0
 10
-11.8643342823
 20
25.76684376
 30
0.0
 10
-11.8835903274
 20
25.7814747011
 30
0.0
 10
-11.9041890558
 20
25.813174422
 30
0.0
 10
-11.9164512809
 20
25.8527517588
 30
0.0
 10
-11.9189240719
 20
25.8816789163
 30
0.0
 10
-11.9189245138
 20
25.8968624037
 30
0.0
 11
-11.8541648444
 21
25.7617519421
 31
0.0
 11
-11.8814614422
 21
25.782221247
 31
0.0
 11
-11.9019310533
 21
25.8126108832
 31
0.0
 11
-11.9146151369
 21
25.8515162477
 31
0.0
 11
-11.9189245138
 21
25.8968624037
 31
0.0
  0
SPLINE
  5
430
100
AcDbEntity
  8
ASSI
100
AcDbSpline
 62
7
  6
CONTINUOUS
 70
0
 71
3
 72
11
 73
7
 74
5
 42
0.0000001
 43
0.0000001
 44
0.0000000001
 12
0.0027510263
 22
0.0562046123
 32
0.0
 13
0.0442103812
 23
0.034813342
 33
0.0
 40
0.0
 40
0.0
 40
0.0
 40
0.0
 40
0.1190601151
 40
0.3300678012
 40
0.6269737554
 40
1.0
 40
1.0
 40
1.0
 40
1.0
 10
-11.0566559159
 20
25.3645813203
 30
0.0
 10
-11.0565467368
 20
25.3668118961
 30
0.0
 10
-11.0526123255
 20
25.3722240343
 30
0.0
 10
-11.0447793478
 20
25.3805969531
 30
0.0
 10
-11.0322679952
 20
25.3916315553
 30
0.0
 10
-11.0225435441
 20
25.3995247378
 30
0.0
 10
-11.0170463333
 20
25.4038535012
 30
0.0
 11
-11.0566559159
 21
25.3645813203
 31
0.0
 11
-11.0536837201
 21
25.3705856979
 31
0.0
 11
-11.0457026917
 21
25.3793771931
 31
0.0
 11
-11.0333078514
 21
25.3905801932
 31
0.0
 11
-11.0170463333
 21
25.4038535012
 31
0.0
  0
SPLINE
  5
431
100
AcDbEntity
  8
ASSI
100
AcDbSpline
 62
7
  6
CONTINUOUS
 70
0
 71
3
 72
9
 73
5
 74
3
 42
0.0000001
 43
0.0000001
 44
0.0000000001
 12
0.0330198025
 22
0.0260013518
 32
0.0
 13
0.0340306727
 23
0.0246635555
 33
0.0
 40
0.0
 40
0.0
 40
0.0
 40
0.0
 40
0.2288015321
 40
1.0
 40
1.0
 40
1.0
 40
1.0
 10
-11.0170463333
 20
25.4038535012
 30
0.0
 10
-11.0145280061
 20
25.4058365509
 30
0.0
 10
-11.0034638123
 20
25.414430525
 30
0.0
 10
-10.9922041388
 20
25.4227706326
 30
0.0
 10
-10.9834560046
 20
25.429110798
 30
0.0
 11
-11.0170463333
 21
25.4038535012
 31
0.0
 11
-11.0094547637
 21
25.4097558898
 31
0.0
 11
-10.9834560046
 21
25.429110798
 31
0.0
  0
SPLINE
  5
432
100
AcDbEntity
  8
ASSI
100
AcDbSpline
 62
253
  6
CONTINUOUS
 70
0
 71
3
 72
10
 73
6
 74
4
 42
0.0000001
 43
0.0000001
 44
0.0000000001
 12
0.0468239032
 22
0.0232263555
 32
0.0
 13
-0.0000002012
 23
-0.0522679778
 33
0.0
 40
0.0
 40
0.0
 40
0.0
 40
0.0
 40
0.2583967523
 40
0.4816423278
 40
1.0
 40
1.0
 40
1.0
 40
1.0
 10
-7.392720914
 20
26.3181637403
 30
0.0
 10
-7.3886878658
 20
26.3201642786
 30
0.0
 10
-7.3802899945
 20
26.3228032511
 30
0.0
 10
-7.3624305468
 20
26.3170575959
 30
0.0
 10
-7.3585889353
 20
26.3015725656
 30
0.0
 10
-7.35858897
 20
26.2925413965
 30
0.0
 11
-7.392720914
 21
26.3181637403
 31
0.0
 11
-7.3796183876
 21
26.3214397866
 31
0.0
 11
-7.3685531838
 21
26.31773609
 31
0.0
 11
-7.35858897
 21
26.2925413965
 31
0.0
  0
SPLINE
  5
433
100
AcDbEntity
  8
ASSI
100
AcDbSpline
 62
7
  6
CONTINUOUS
 70
0
 71
3
 72
11
 73
7
 74
5
 42
0.0000001
 43
0.0000001
 44
0.0000000001
 12
0.0027510263
 22
0.0562046123
 32
0.0
 13
0.0442103812
 23
0.034813342
 33
0.0
 40
0.0
 40
0.0
 40
0.0
 40
0.0
 40
0.1190601151
 40
0.3300678012
 40
0.6269737554
 40
1.0
 40
1.0
 40
1.0
 40
1.0
 10
1.5298447892
 20
19.0713309677
 30
0.0
 10
1.5299539684
 20
19.0735615436
 30
0.0
 10
1.5338883796
 20
19.0789736818
 30
0.0
 10
1.5417213573
 20
19.0873466006
 30
0.0
 10
1.5542327099
 20
19.0983812027
 30
0.0
 10
1.563957161
 20
19.1062743852
 30
0.0
 10
1.5694543719
 20
19.1106031487
 30
0.0
 11
1.5298447892
 21
19.0713309677
 31
0.0
 11
1.5328169851
 21
19.0773353453
 31
0.0
 11
1.5407980134
 21
19.0861268405
 31
0.0
 11
1.5531928538
 21
19.0973298407
 31
0.0
 11
1.5694543719
 21
19.1106031487
 31
0.0
  0
SPLINE
  5
434
100
AcDbEntity
  8
ASSI
100
AcDbSpline
 62
7
  6
CONTINUOUS
 70
0
 71
3
 72
9
 73
5
 74
3
 42
0.0000001
 43
0.0000001
 44
0.0000000001
 12
0.0330198025
 22
0.0260013518
 32
0.0
 13
0.0340306727
 23
0.0246635555
 33
0.0
 40
0.0
 40
0.0
 40
0.0
 40
0.0
 40
0.2288015321
 40
1.0
 40
1.0
 40
1.0
 40
1.0
 10
1.5694543719
 20
19.1106031487
 30
0.0
 10
1.571972699
 20
19.1125861984
 30
0.0
 10
1.5830368928
 20
19.1211801724
 30
0.0
 10
1.5942965663
 20
19.12952028
 30
0.0
 10
1.6030447005
 20
19.1358604454
 30
0.0
 11
1.5694543719
 21
19.1106031487
 31
0.0
 11
1.5770459414
 21
19.1165055373
 31
0.0
 11
1.6030447005
 21
19.1358604454
 31
0.0
  0
SPLINE
  5
435
100
AcDbEntity
  8
RACCORDO
100
AcDbSpline
 62
253
  6
CONTINUOUS
 70
0
 71
3
 72
9
 73
5
 74
3
 42
0.0000001
 43
0.0000001
 44
0.0000000001
 12
9.6410670761
 22
-5.401292212
 32
0.0
 13
10.0917417197
 23
-4.5034299137
 33
0.0
 40
0.0
 40
0.0
 40
0.0
 40
0.0
 40
0.2436366123
 40
1.0
 40
1.0
 40
1.0
 40
1.0
 10
-14.1181434588
 20
5.1539574824
 30
0.0
 10
-13.3351711516
 20
4.7153066369
 30
0.0
 10
-10.0994322135
 20
2.9543745001
 30
0.0
 10
-6.7801339871
 20
1.3481919227
 30
0.0
 10
-4.2357926688
 20
0.2127820875
 30
0.0
 11
-14.1181434588
 21
5.1539574824
 31
0.0
 11
-11.7535222262
 21
3.8664373042
 31
0.0
 11
-4.2357926688
 21
0.2127820875
 31
0.0
  0
SPLINE
  5
436
100
AcDbEntity
  8
RACCORDO
100
AcDbSpline
 62
253
  6
CONTINUOUS
 70
0
 71
3
 72
13
 73
9
 74
7
 42
0.0000001
 43
0.0000001
 44
0.0000000001
 12
-1.78615777
 22
1.0088542944
 32
0.0
 13
0.0590123051
 23
2.0505277649
 33
0.0
 40
0.0
 40
0.0
 40
0.0
 40
0.0
 40
0.1074805319
 40
0.2249827748
 40
0.3507460376
 40
0.4821880874
 40
0.749049205
 40
1.0
 40
1.0
 40
1.0
 40
1.0
 10
-14.8306030577
 20
15.5978403519
 30
0.0
 10
-14.8945954535
 20
15.6339844173
 30
0.0
 10
-15.0207695315
 20
15.7237764896
 30
0.0
 10
-15.1915340445
 20
15.893324963
 30
0.0
 10
-15.3471397821
 20
16.0978510042
 30
0.0
 10
-15.5274559071
 20
16.4084046852
 30
0.0
 10
-15.6826926752
 20
16.8283276919
 30
0.0
 10
-15.7273351096
 20
17.1843306599
 30
0.0
 10
-15.7223987146
 20
17.3558578509
 30
0.0
 11
-14.8306030577
 21
15.5978403519
 31
0.0
 11
-15.0113518241
 21
15.7241046187
 31
0.0
 11
-15.1834490083
 21
15.8928751753
 31
0.0
 11
-15.3404031328
 21
16.0976265484
 31
0.0
 11
-15.4763088423
 21
16.3305081467
 31
0.0
 11
-15.6654702866
 21
16.844220615
 31
0.0
 11
-15.7223987146
 21
17.3558578509
 31
0.0
  0
SPLINE
  5
437
100
AcDbEntity
  8
ASSI
100
AcDbSpline
 62
7
  6
CONTINUOUS
 70
0
 71
3
 72
9
 73
5
 74
3
 42
0.0000001
 43
0.0000001
 44
0.0000000001
 12
0.0349373875
 22
0.016177147
 32
0.0
 13
0.0384614131
 23
0.0017438006
 33
0.0
 40
0.0
 40
0.0
 40
0.0
 40
0.0
 40
0.7434564307
 40
1.0
 40
1.0
 40
1.0
 40
1.0
 10
-2.192429486
 20
22.8899118808
 30
0.0
 10
-2.1837713442
 20
22.8939208822
 30
0.0
 10
-2.1711828186
 20
22.8975068227
 30
0.0
 10
-2.1583969872
 20
22.8986532109
 30
0.0
 10
-2.1551079778
 20
22.8988023312
 30
0.0
 11
-2.192429486
 21
22.8899118808
 31
0.0
 11
-2.1649442472
 21
22.8979044557
 31
0.0
 11
-2.1551079778
 21
22.8988023312
 31
0.0
  0
SPLINE
  5
438
100
AcDbEntity
  8
ASSI
100
AcDbSpline
 62
7
  6
CONTINUOUS
 70
0
 71
3
 72
9
 73
5
 74
3
 42
0.0000001
 43
0.0000001
 44
0.0000000001
 12
0.0743191444
 22
0.003369553
 32
0.0
 13
0.0665413503
 23
-0.0332706751
 33
0.0
 40
0.0
 40
0.0
 40
0.0
 40
0.0
 40
0.2323604911
 40
1.0
 40
1.0
 40
1.0
 40
1.0
 10
-2.1551079778
 20
22.8988023312
 30
0.0
 10
-2.1493517002
 20
22.8990633148
 30
0.0
 10
-2.1244837871
 20
22.898237392
 30
0.0
 10
-2.1002479495
 20
22.8900813446
 30
0.0
 10
-2.0832213597
 20
22.8815680497
 30
0.0
 11
-2.1551079778
 21
22.8988023312
 31
0.0
 11
-2.1378291858
 21
22.8982837275
 31
0.0
 11
-2.0832213597
 21
22.8815680497
 31
0.0
  0
SPLINE
  5
439
100
AcDbEntity
  8
ASSI
100
AcDbSpline
 62
253
  6
CONTINUOUS
 70
0
 71
3
 72
11
 73
7
 74
5
 42
0.0000001
 43
0.0000001
 44
0.0000000001
 12
0.0247849598
 22
-0.7266480306
 32
0.0
 13
0.6647499586
 23
-0.2945151052
 33
0.0
 40
0.0
 40
0.0
 40
0.0
 40
0.0
 40
0.2898984922
 40
0.549128838
 40
0.7820011107
 40
1.0
 40
1.0
 40
1.0
 40
1.0
 10
-1.3237036934
 20
-22.2354364641
 30
0.0
 10
-1.3213086526
 20
-22.3056545203
 30
0.0
 10
-1.3053977288
 20
-22.4387996277
 30
0.0
 10
-1.2413859687
 20
-22.619229808
 30
0.0
 10
-1.1396202704
 20
-22.7613854955
 30
0.0
 10
-1.0472867538
 20
-22.8248839718
 30
0.0
 10
-0.9989818363
 20
-22.8462852937
 30
0.0
 11
-1.3237036934
 21
-22.2354364641
 31
0.0
 11
-1.2964159012
 21
-22.4444392896
 31
0.0
 11
-1.230836226
 21
-22.6211411575
 31
0.0
 11
-1.1300943868
 21
-22.7572238887
 31
0.0
 11
-0.9989818363
 21
-22.8462852937
 31
0.0
  0
SPLINE
  5
43A
100
AcDbEntity
  8
RACCORDO
100
AcDbSpline
 62
253
  6
CONTINUOUS
 70
0
 71
3
 72
11
 73
7
 74
5
 42
0.0000001
 43
0.0000001
 44
0.0000000001
 12
0.0610139157
 22
1.66901704
 32
0.0
 13
1.4660519035
 23
0.800020246
 33
0.0
 40
0.0
 40
0.0
 40
0.0
 40
0.0
 40
0.2467357886
 40
0.5094759382
 40
0.7670665121
 40
1.0
 40
1.0
 40
1.0
 40
1.0
 10
-15.6030557448
 20
21.0313162231
 30
0.0
 10
-15.5980376393
 20
21.1685849684
 30
0.0
 10
-15.5442193151
 20
21.4509985227
 30
0.0
 10
-15.3681938734
 20
21.843728972
 30
0.0
 10
-15.114720488
 20
22.1820286165
 30
0.0
 10
-14.8981620429
 20
22.3560080704
 30
0.0
 10
-14.7843311818
 20
22.4181252392
 30
0.0
 11
-15.6030557448
 21
21.0313162231
 31
0.0
 11
-15.5311114968
 21
21.4370686517
 31
0.0
 11
-15.3528136236
 21
21.8380233929
 31
0.0
 11
-15.0922222729
 21
22.1803288045
 31
0.0
 11
-14.7843311818
 21
22.4181252392
 31
0.0
  0
SPLINE
  5
43B
100
AcDbEntity
  8
ASSI
100
AcDbSpline
 62
253
  6
CONTINUOUS
 70
0
 71
3
 72
11
 73
7
 74
5
 42
0.0000001
 43
0.0000001
 44
0.0000000001
 12
0.0602916195
 22
1.669898392
 32
0.0
 13
1.4636706792
 23
0.8061413412
 33
0.0
 40
0.0
 40
0.0
 40
0.0
 40
0.0
 40
0.246820322
 40
0.5097239768
 40
0.767335803
 40
1.0
 40
1.0
 40
1.0
 40
1.0
 10
-16.0723935083
 20
21.2993963305
 30
0.0
 10
-16.0674331094
 20
21.4367846167
 30
0.0
 10
-16.0138063692
 20
21.7194970185
 30
0.0
 10
-15.8384311238
 20
22.112887229
 30
0.0
 10
-15.5859109935
 20
22.452066986
 30
0.0
 10
-15.3700473628
 20
22.6268864223
 30
0.0
 10
-15.2565327751
 20
22.6894064983
 30
0.0
 11
-16.0723935083
 21
21.2993963305
 31
0.0
 11
-16.000756917
 21
21.7055607302
 31
0.0
 11
-15.8230503451
 21
22.1073222071
 31
0.0
 11
-15.5633315067
 21
22.4506107027
 31
0.0
 11
-15.2565327751
 21
22.6894064983
 31
0.0
  0
SPLINE
  5
43C
100
AcDbEntity
  8
RACCORDO
100
AcDbSpline
 62
253
  6
CONTINUOUS
 70
0
 71
3
 72
9
 73
5
 74
3
 42
0.0000001
 43
0.0000001
 44
0.0000000001
 12
-0.1210089528
 22
-0.0706178339
 32
0.0
 13
-0.1114709766
 23
-0.0848779506
 33
0.0
 40
0.0
 40
0.0
 40
0.0
 40
0.0
 40
0.2436912278
 40
1.0
 40
1.0
 40
1.0
 40
1.0
 10
-1.0688756944
 20
15.5603975082
 30
0.0
 10
-1.0787053011
 20
15.5546611927
 30
0.0
 10
-1.1186493522
 20
15.5304529936
 30
0.0
 10
-1.157028348
 20
15.5036874563
 30
0.0
 10
-1.1851305071
 20
15.4822894768
 30
0.0
 11
-1.0688756944
 21
15.5603975082
 31
0.0
 11
-1.0980803894
 21
15.5427106725
 31
0.0
 11
-1.1851305071
 21
15.4822894768
 31
0.0
  0
SPLINE
  5
43D
100
AcDbEntity
  8
RACCORDO
100
AcDbSpline
 62
253
  6
CONTINUOUS
 70
0
 71
3
 72
11
 73
7
 74
5
 42
0.0000001
 43
0.0000001
 44
0.0000000001
 12
-1.2138249373
 22
-0.9242493085
 32
0.0
 13
-0.0524611503
 23
-1.5247477137
 33
0.0
 40
0.0
 40
0.0
 40
0.0
 40
0.0
 40
0.2385354141
 40
0.4963468503
 40
0.7561078447
 40
1.0
 40
1.0
 40
1.0
 40
1.0
 10
-1.1851305071
 20
15.4822894768
 30
0.0
 10
-1.2816439185
 20
15.4088007463
 30
0.0
 10
-1.4610572098
 20
15.2271367447
 30
0.0
 10
-1.669003459
 20
14.9009033475
 30
0.0
 10
-1.8109894346
 20
14.5381040559
 30
0.0
 10
-1.8539795602
 20
14.2828686226
 30
0.0
 10
-1.8582445145
 20
14.1589106206
 30
0.0
 11
-1.1851305071
 21
15.4822894768
 31
0.0
 11
-1.4441797846
 21
15.2266875194
 31
0.0
 11
-1.657094703
 21
14.8959675024
 31
0.0
 11
-1.8004027337
 21
14.5264814483
 31
0.0
 11
-1.8582445145
 21
14.1589106206
 31
0.0
  0
SPLINE
  5
43E
100
AcDbEntity
  8
ASSI
100
AcDbSpline
 62
7
  6
CONTINUOUS
 70
0
 71
3
 72
9
 73
5
 74
3
 42
0.0000001
 43
0.0000001
 44
0.0000000001
 12
-0.256502206
 22
0.1303360411
 32
0.0
 13
-0.1443146273
 23
0.2489059132
 33
0.0
 40
0.0
 40
0.0
 40
0.0
 40
0.0
 40
0.4939555319
 40
1.0
 40
1.0
 40
1.0
 40
1.0
 10
-10.5896745419
 20
25.1295087866
 30
0.0
 10
-10.6319081031
 20
25.1509688561
 30
0.0
 10
-10.7080766159
 20
25.212638277
 30
0.0
 10
-10.7655485122
 20
25.2903428348
 30
0.0
 10
-10.7898917185
 20
25.3323286549
 30
0.0
 11
-10.5896745419
 21
25.1295087866
 31
0.0
 11
-10.7025939935
 21
25.2158052055
 31
0.0
 11
-10.7898917185
 21
25.3323286549
 31
0.0
  0
SPLINE
  5
43F
100
AcDbEntity
  8
ASSI
100
AcDbSpline
 62
253
  6
CONTINUOUS
 70
0
 71
3
 72
11
 73
7
 74
5
 42
0.0000001
 43
0.0000001
 44
0.0000000001
 12
-1.4432343864
 22
-0.8343278229
 32
0.0
 13
-0.0547811855
 23
-1.6661414801
 33
0.0
 40
0.0
 40
0.0
 40
0.0
 40
0.0
 40
0.23096881
 40
0.4883736669
 40
0.7520846433
 40
1.0
 40
1.0
 40
1.0
 40
1.0
 10
-0.5305569751
 20
15.3264186159
 30
0.0
 10
-0.6416710181
 20
15.2621840477
 30
0.0
 10
-0.8523111454
 20
15.0838183818
 30
0.0
 10
-1.0975576642
 20
14.7415220611
 30
0.0
 10
-1.267546798
 20
14.3460134483
 30
0.0
 10
-1.3191766429
 20
14.0627387862
 30
0.0
 10
-1.3237036752
 20
13.9250514331
 30
0.0
 11
-0.5305569751
 21
15.3264186159
 31
0.0
 11
-0.8294154804
 21
15.0836527073
 31
0.0
 11
-1.0821452672
 21
14.7368696861
 31
0.0
 11
-1.2547094804
 21
14.3325370305
 31
0.0
 11
-1.3237036752
 21
13.9250514331
 31
0.0
  0
SPLINE
  5
440
100
AcDbEntity
  8
RACCORDO
100
AcDbSpline
 62
253
  6
CONTINUOUS
 70
0
 71
3
 72
9
 73
5
 74
3
 42
0.0000001
 43
0.0000001
 44
0.0000000001
 12
-0.0085948779
 22
-0.3061137427
 32
0.0
 13
-0.0843143947
 23
-0.2943986723
 33
0.0
 40
0.0
 40
0.0
 40
0.0
 40
0.0
 40
0.2595836181
 40
1.0
 40
1.0
 40
1.0
 40
1.0
 10
-1.9737812488
 20
10.481549118
 30
0.0
 10
-1.9745249453
 20
10.455061747
 30
0.0
 10
-1.9802502251
 20
10.3531487351
 30
0.0
 10
-1.9977672561
 20
10.2517093528
 30
0.0
 10
-2.0185765091
 20
10.1790501529
 30
0.0
 11
-1.9737812488
 21
10.481549118
 31
0.0
 11
-1.9782918943
 21
10.4021837652
 31
0.0
 11
-2.0185765091
 21
10.1790501529
 31
0.0
  0
SPLINE
  5
441
100
AcDbEntity
  8
RACCORDO
100
AcDbSpline
 62
253
  6
CONTINUOUS
 70
0
 71
3
 72
13
 73
9
 74
7
 42
0.0000001
 43
0.0000001
 44
0.0000000001
 12
-0.3623249431
 22
-1.2651218397
 32
0.0
 13
-1.2033969155
 23
0.5325866102
 33
0.0
 40
0.0
 40
0.0
 40
0.0
 40
0.0
 40
0.2580407758
 40
0.3775441486
 40
0.4942226161
 40
0.6118066412
 40
0.7338269276
 40
1.0
 40
1.0
 40
1.0
 40
1.0
 10
-2.0185765091
 20
10.1790501529
 30
0.0
 10
-2.0497413789
 20
10.0702324792
 30
0.0
 10
-2.1230467024
 20
9.9151022448
 30
0.0
 10
-2.2777231962
 20
9.7607176978
 30
0.0
 10
-2.4120018684
 20
9.6797548629
 30
0.0
 10
-2.563052369
 20
9.6339037658
 30
0.0
 10
-2.7861347714
 20
9.6203736865
 30
0.0
 10
-2.9556880733
 20
9.6665147639
 30
0.0
 10
-3.0624586914
 20
9.7137681687
 30
0.0
 11
-2.0185765091
 21
10.1790501529
 31
0.0
 11
-2.1708986196
 21
9.8755525555
 31
0.0
 11
-2.2826343676
 21
9.7648853246
 31
0.0
 11
-2.4142379927
 21
9.6857831827
 31
0.0
 11
-2.5621586348
 21
9.6403570862
 31
0.0
 11
-2.7223888831
 21
9.6298148016
 31
0.0
 11
-3.0624586914
 21
9.7137681687
 31
0.0
  0
SPLINE
  5
442
100
AcDbEntity
  8
ASSI
100
AcDbSpline
 62
7
  6
CONTINUOUS
 70
0
 71
3
 72
9
 73
5
 74
3
 42
0.0000001
 43
0.0000001
 44
0.0000000001
 12
-0.256502206
 22
0.1303360411
 32
0.0
 13
-0.1443146273
 23
0.2489059132
 33
0.0
 40
0.0
 40
0.0
 40
0.0
 40
0.0
 40
0.4939555319
 40
1.0
 40
1.0
 40
1.0
 40
1.0
 10
1.9968261633
 20
18.8362584341
 30
0.0
 10
1.9545926021
 20
18.8577185035
 30
0.0
 10
1.8784240892
 20
18.9193879244
 30
0.0
 10
1.8209521929
 20
18.9970924822
 30
0.0
 10
1.7966089866
 20
19.0390783024
 30
0.0
 11
1.9968261633
 21
18.8362584341
 31
0.0
 11
1.8839067116
 21
18.9225548529
 31
0.0
 11
1.7966089866
 21
19.0390783024
 31
0.0
  0
SPLINE
  5
443
100
AcDbEntity
  8
ASSI
100
AcDbSpline
 62
7
  6
CONTINUOUS
 70
0
 71
3
 72
9
 73
5
 74
3
 42
0.0000001
 43
0.0000001
 44
0.0000000001
 12
0.0349373875
 22
0.016177147
 32
0.0
 13
0.0384614131
 23
0.0017438006
 33
0.0
 40
0.0
 40
0.0
 40
0.0
 40
0.0
 40
0.7434564307
 40
1.0
 40
1.0
 40
1.0
 40
1.0
 10
-5.9047400872
 20
24.7460671814
 30
0.0
 10
-5.8960819454
 20
24.7500761828
 30
0.0
 10
-5.8834934198
 20
24.7536621233
 30
0.0
 10
-5.8707075884
 20
24.7548085115
 30
0.0
 10
-5.867418579
 20
24.7549576318
 30
0.0
 11
-5.9047400872
 21
24.7460671814
 31
0.0
 11
-5.8772548485
 21
24.7540597563
 31
0.0
 11
-5.867418579
 21
24.7549576318
 31
0.0
  0
SPLINE
  5
444
100
AcDbEntity
  8
ASSI
100
AcDbSpline
 62
7
  6
CONTINUOUS
 70
0
 71
3
 72
9
 73
5
 74
3
 42
0.0000001
 43
0.0000001
 44
0.0000000001
 12
0.0743191444
 22
0.003369553
 32
0.0
 13
0.0665413503
 23
-0.0332706751
 33
0.0
 40
0.0
 40
0.0
 40
0.0
 40
0.0
 40
0.2323604911
 40
1.0
 40
1.0
 40
1.0
 40
1.0
 10
-5.867418579
 20
24.7549576318
 30
0.0
 10
-5.8616623014
 20
24.7552186155
 30
0.0
 10
-5.8367943883
 20
24.7543926927
 30
0.0
 10
-5.8125585508
 20
24.7462366452
 30
0.0
 10
-5.795531961
 20
24.7377233503
 30
0.0
 11
-5.867418579
 21
24.7549576318
 31
0.0
 11
-5.850139787
 21
24.7544390281
 31
0.0
 11
-5.795531961
 21
24.7377233503
 31
0.0
  0
SPLINE
  5
445
100
AcDbEntity
  8
ASSI
100
AcDbSpline
 62
253
  6
CONTINUOUS
 70
0
 71
3
 72
9
 73
5
 74
3
 42
0.0000001
 43
0.0000001
 44
0.0000000001
 12
14.3287805632
 22
-8.1717632373
 32
0.0
 13
15.1063384393
 23
-6.6249683615
 33
0.0
 40
0.0
 40
0.0
 40
0.0
 40
0.0
 40
0.4897616058
 40
1.0
 40
1.0
 40
1.0
 40
1.0
 10
-16.0723934992
 20
-14.8610915573
 30
0.0
 10
-13.7331646399
 20
-16.1951635191
 30
0.0
 10
-8.8770431201
 20
-18.7807221536
 30
0.0
 10
-3.8929816483
 20
-21.1086653862
 30
0.0
 10
-1.3237036925
 20
-22.235436459
 30
0.0
 11
-16.0723934992
 21
-14.8610915573
 31
0.0
 11
-8.9457923932
 21
-18.6659849297
 31
0.0
 11
-1.3237036925
 21
-22.235436459
 31
0.0
  0
SPLINE
  5
446
100
AcDbEntity
  8
ASSI
100
AcDbSpline
 62
7
  6
CONTINUOUS
 70
0
 71
3
 72
11
 73
7
 74
5
 42
0.0000001
 43
0.0000001
 44
0.0000000001
 12
0.6527085383
 22
-0.3343495956
 32
0.0
 13
0.0
 23
-0.7333608171
 33
0.0
 40
0.0
 40
0.0
 40
0.0
 40
0.0
 40
0.2291665379
 40
0.4879399238
 40
0.7531104567
 40
1.0
 40
1.0
 40
1.0
 40
1.0
 10
4.6696779862
 20
18.1194802857
 30
0.0
 10
4.7195376382
 20
18.0939397059
 30
0.0
 10
4.8149207716
 20
18.0184180122
 30
0.0
 10
4.9257020432
 20
17.8694879398
 30
0.0
 10
5.0020454025
 20
17.6955061782
 30
0.0
 10
5.0232287151
 20
17.5701086533
 30
0.0
 10
5.0232287151
 20
17.5097556142
 30
0.0
 11
4.6696779862
 21
18.1194802857
 31
0.0
 11
4.8039256914
 21
18.0183748523
 31
0.0
 11
4.9186188514
 21
17.8671804428
 31
0.0
 11
4.9959366173
 21
17.688745964
 31
0.0
 11
5.0232287151
 21
17.5097556142
 31
0.0
  0
SPLINE
  5
447
100
AcDbEntity
  8
ASSI
100
AcDbSpline
 62
7
  6
CONTINUOUS
 70
0
 71
3
 72
11
 73
7
 74
5
 42
0.0000001
 43
0.0000001
 44
0.0000000001
 12
0.2575099286
 22
0.1558388673
 32
0.0
 13
0.0
 23
0.300993548
 33
0.0
 40
0.0
 40
0.0
 40
0.0
 40
0.0
 40
0.2175208227
 40
0.4525013529
 40
0.7128527964
 40
1.0
 40
1.0
 40
1.0
 40
1.0
 10
4.9054133895
 20
-20.6859906713
 30
0.0
 10
4.9240846467
 20
-20.6746912717
 30
0.0
 10
4.9589872199
 20
-20.6441667188
 30
0.0
 10
4.9962819742
 20
-20.5820803221
 30
0.0
 10
5.0187101576
 20
-20.5061464822
 30
0.0
 10
5.0232287151
 20
-20.4510326364
 30
0.0
 10
5.0232287151
 20
-20.4222228179
 30
0.0
 11
4.9054133895
 21
-20.6859906713
 31
0.0
 11
4.9550457638
 21
-20.6432910472
 31
0.0
 11
4.9923177898
 21
-20.5831812077
 31
0.0
 11
5.0154152729
 21
-20.5082983714
 31
0.0
 11
5.0232287151
 21
-20.4222228179
 31
0.0
  0
SPLINE
  5
448
100
AcDbEntity
  8
ASSI
100
AcDbSpline
 62
253
  6
CONTINUOUS
 70
0
 71
3
 72
11
 73
7
 74
5
 42
0.0000001
 43
0.0000001
 44
0.0000000001
 12
-0.0144699929
 22
-0.3366195737
 32
0.0
 13
-0.3114700468
 23
-0.128485517
 33
0.0
 40
0.0
 40
0.0
 40
0.0
 40
0.0
 40
0.2901782888
 40
0.5506982161
 40
0.7836829758
 40
1.0
 40
1.0
 40
1.0
 40
1.0
 10
-0.1678761496
 20
-22.5606154542
 30
0.0
 10
-0.1692757755
 20
-22.5931753515
 30
0.0
 10
-0.1773557692
 20
-22.6549720292
 30
0.0
 10
-0.207974552
 20
-22.7384454182
 30
0.0
 10
-0.2559313911
 20
-22.8037324269
 30
0.0
 10
-0.2991534389
 20
-22.8323173945
 30
0.0
 10
-0.3216121968
 20
-22.8415819294
 30
0.0
 11
-0.1678761496
 21
-22.5606154542
 31
0.0
 11
-0.1815214683
 21
-22.6574284598
 31
0.0
 11
-0.2129687274
 21
-22.7393789806
 31
0.0
 11
-0.2605171741
 21
-22.8018396985
 31
0.0
 11
-0.3216121968
 21
-22.8415819294
 31
0.0
  0
SPLINE
  5
449
100
AcDbEntity
  8
ASSI
100
AcDbSpline
 62
253
  6
CONTINUOUS
 70
0
 71
3
 72
9
 73
5
 74
3
 42
0.0000001
 43
0.0000001
 44
0.0000000001
 12
0.0000005359
 22
-0.0501438427
 32
0.0
 13
-0.0315178344
 23
-0.0390003983
 33
0.0
 40
0.0
 40
0.0
 40
0.0
 40
0.0
 40
0.2368631391
 40
1.0
 40
1.0
 40
1.0
 40
1.0
 10
-7.35858897
 20
25.9525978016
 30
0.0
 10
-7.3585889277
 20
25.9486387256
 30
0.0
 10
-7.3604109812
 20
25.9319609282
 30
0.0
 10
-7.367940601
 20
25.9160255649
 30
0.0
 10
-7.3759580747
 20
25.9061046844
 30
0.0
 11
-7.35858897
 21
25.9525978016
 31
0.0
 11
-7.3597723005
 21
25.9407796684
 31
0.0
 11
-7.3759580747
 21
25.9061046844
 31
0.0
  0
SPLINE
  5
44A
100
AcDbEntity
  8
ASSI
100
AcDbSpline
 62
253
  6
CONTINUOUS
 70
0
 71
3
 72
11
 73
7
 74
5
 42
0.0000001
 43
0.0000001
 44
0.0000000001
 12
-0.6117604196
 22
-0.3217466587
 32
0.0
 13
-0.6343967757
 23
0.2744311467
 33
0.0
 40
0.0
 40
0.0
 40
0.0
 40
0.0
 40
0.237445402
 40
0.4997939078
 40
0.7622524585
 40
1.0
 40
1.0
 40
1.0
 40
1.0
 10
-0.6507722798
 20
-22.2101542023
 30
0.0
 10
-0.6991921794
 20
-22.2356199573
 30
0.0
 10
-0.8092497239
 20
-22.2738826266
 30
0.0
 10
-0.9843303047
 20
-22.2968247488
 30
0.0
 10
-1.160708143
 20
-22.2870700536
 30
0.0
 10
-1.2734199088
 20
-22.257179737
 30
0.0
 10
-1.3236953333
 20
-22.2354312936
 30
0.0
 11
-0.6507722798
 21
-22.2101542023
 31
0.0
 11
-0.8048356184
 21
-22.2667352051
 31
0.0
 11
-0.9845162001
 21
-22.2911965623
 31
0.0
 11
-1.1656019017
 21
-22.2802864477
 31
0.0
 11
-1.3236953333
 21
-22.2354312936
 31
0.0
  0
SPLINE
  5
44B
100
AcDbEntity
  8
ASSI
100
AcDbSpline
 62
253
  6
CONTINUOUS
 70
0
 71
3
 72
11
 73
7
 74
5
 42
0.0000001
 43
0.0000001
 44
0.0000000001
 12
-0.633294201
 22
-0.2678909028
 32
0.0
 13
-0.6289738261
 23
0.2778830812
 33
0.0
 40
0.0
 40
0.0
 40
0.0
 40
0.0
 40
0.2326601324
 40
0.4946330439
 40
0.7594589108
 40
1.0
 40
1.0
 40
1.0
 40
1.0
 10
-0.6507722703
 20
13.9131949558
 30
0.0
 10
-0.6998863745
 20
13.8924191115
 30
0.0
 10
-0.8108149984
 20
13.8636663384
 30
0.0
 10
-0.9852631774
 20
13.8522102728
 30
0.0
 10
-1.1609960421
 20
13.8701610885
 30
0.0
 10
-1.2732723261
 20
13.9027707592
 30
0.0
 10
-1.3237036758
 20
13.9250515256
 30
0.0
 11
-0.6507722703
 21
13.9131949558
 31
0.0
 11
-0.8048360925
 21
13.8700809541
 31
0.0
 11
-0.984518621
 21
13.8572661196
 31
0.0
 11
-1.1656073212
 21
13.876437485
 31
0.0
 11
-1.3237036758
 21
13.9250515256
 31
0.0
  0
SPLINE
  5
44C
100
AcDbEntity
  8
ASSI
100
AcDbSpline
 62
253
  6
CONTINUOUS
 70
0
 71
3
 72
11
 73
7
 74
5
 42
0.0000001
 43
0.0000001
 44
0.0000000001
 12
-0.0326907254
 22
0.7294715688
 32
0.0
 13
-0.6455789781
 23
0.3412114246
 33
0.0
 40
0.0
 40
0.0
 40
0.0
 40
0.0
 40
0.2449319447
 40
0.5106975777
 40
0.7706500547
 40
1.0
 40
1.0
 40
1.0
 40
1.0
 10
-0.1678761325
 20
14.7219075275
 30
0.0
 10
-0.1705451335
 20
14.7814644908
 30
0.0
 10
-0.196161575
 20
14.9048839024
 30
0.0
 10
-0.2753164522
 20
15.0764282963
 30
0.0
 10
-0.3867148956
 20
15.2242674424
 30
0.0
 10
-0.4812024726
 20
15.3003330094
 30
0.0
 10
-0.5305569738
 20
15.3264186166
 30
0.0
 11
-0.1678761325
 21
14.7219075275
 31
0.0
 11
-0.2012898623
 21
14.8976087559
 31
0.0
 11
-0.2819355296
 21
15.0741214859
 31
0.0
 11
-0.3975236111
 21
15.2246883086
 31
0.0
 11
-0.5305569738
 21
15.3264186166
 31
0.0
  0
SPLINE
  5
44D
100
AcDbEntity
  8
ASSI
100
AcDbSpline
 62
253
  6
CONTINUOUS
 70
0
 71
3
 72
11
 73
7
 74
5
 42
0.0000001
 43
0.0000001
 44
0.0000000001
 12
0.0075213618
 22
-0.2148850632
 32
0.0
 13
0.1862299081
 23
-0.1074736367
 33
0.0
 40
0.0
 40
0.0
 40
0.0
 40
0.0
 40
0.2161856707
 40
0.448327406
 40
0.708093892
 40
1.0
 40
1.0
 40
1.0
 40
1.0
 10
-16.1959577158
 20
-14.6956485637
 30
0.0
 10
-16.1954157122
 20
-14.7111335875
 30
0.0
 10
-16.1886904898
 20
-14.7432569715
 30
0.0
 10
-16.1630540548
 20
-14.7878193751
 30
0.0
 10
-16.1233795572
 20
-14.8282390744
 30
0.0
 10
-16.0905140372
 20
-14.8506342337
 30
0.0
 10
-16.072393488
 20
-14.8610916374
 30
0.0
 11
-16.1959577158
 21
-14.6956485637
 31
0.0
 11
-16.1867193977
 21
-14.7412048043
 31
0.0
 11
-16.1624752943
 21
-14.7848358104
 31
0.0
 11
-16.1239107739
 21
-14.8252395299
 31
0.0
 11
-16.072393488
 21
-14.8610916374
 31
0.0
  0
SPLINE
  5
44E
100
AcDbEntity
  8
ASSI
100
AcDbSpline
 62
253
  6
CONTINUOUS
 70
0
 71
3
 72
15
 73
11
 74
9
 42
0.0000001
 43
0.0000001
 44
0.0000000001
 12
0.0267333508
 22
-0.7242687755
 32
0.0
 13
0.6701640539
 23
0.2759711436
 33
0.0
 40
0.0
 40
0.0
 40
0.0
 40
0.0
 40
0.1457269165
 40
0.2792753725
 40
0.4018041859
 40
0.5165831376
 40
0.628599918
 40
0.743537831
 40
0.8663203531
 40
1.0
 40
1.0
 40
1.0
 40
1.0
 10
-0.6507722798
 20
-22.2101542024
 30
0.0
 10
-0.6494736902
 20
-22.2453360208
 30
0.0
 10
-0.6418151848
 20
-22.3127618711
 30
0.0
 10
-0.6127792039
 20
-22.4060868186
 30
0.0
 10
-0.5671971415
 20
-22.4842758442
 30
0.0
 10
-0.5061572235
 20
-22.5441895196
 30
0.0
 10
-0.4318233483
 20
-22.5828668091
 30
0.0
 10
-0.3476704561
 20
-22.5986338218
 30
0.0
 10
-0.2573651116
 20
-22.5914901278
 30
0.0
 10
-0.1977385809
 20
-22.5729126959
 30
0.0
 10
-0.1678761496
 20
-22.5606154542
 30
0.0
 11
-0.6507722798
 21
-22.2101542024
 31
0.0
 11
-0.6380714525
 21
-22.3150050925
 31
0.0
 11
-0.6084554807
 21
-22.4071536771
 31
0.0
 11
-0.5629657829
 21
-22.4834221364
 31
0.0
 11
-0.5031893766
 21
-22.5412747784
 31
0.0
 11
-0.4311817456
 21
-22.5787712731
 31
0.0
 11
-0.3494173561
 21
-22.5947059123
 31
0.0
 11
-0.2606408855
 21
-22.5885723212
 31
0.0
 11
-0.1678761496
 21
-22.5606154542
 31
0.0
  0
SPLINE
  5
44F
100
AcDbEntity
  8
ASSI
100
AcDbSpline
 62
253
  6
CONTINUOUS
 70
0
 71
3
 72
11
 73
7
 74
5
 42
0.0000001
 43
0.0000001
 44
0.0000000001
 12
-0.8610578597
 22
-0.4625328674
 32
0.0
 13
-0.034834436
 23
-0.9768028733
 33
0.0
 40
0.0
 40
0.0
 40
0.0
 40
0.0
 40
0.2334199064
 40
0.4910057105
 40
0.7535333017
 40
1.0
 40
1.0
 40
1.0
 40
1.0
 10
-0.1678761325
 20
14.7219075275
 30
0.0
 10
-0.2348721475
 20
14.6859194012
 30
0.0
 10
-0.3624931773
 20
14.5849630017
 30
0.0
 10
-0.5122091493
 20
14.3878579796
 30
0.0
 10
-0.6162163451
 20
14.1585916965
 30
0.0
 10
-0.6479104275
 20
13.9934447488
 30
0.0
 10
-0.6507722703
 20
13.9131949558
 30
0.0
 11
-0.1678761325
 21
14.7219075275
 31
0.0
 11
-0.3494173389
 21
14.583721813
 31
0.0
 11
-0.5031893588
 21
14.3843664801
 31
0.0
 11
-0.6084554618
 21
14.1503515761
 31
0.0
 11
-0.6507722703
 21
13.9131949558
 31
0.0
  0
SPLINE
  5
450
100
AcDbEntity
  8
ASSI
100
AcDbSpline
 62
253
  6
CONTINUOUS
 70
0
 71
3
 72
11
 73
7
 74
5
 42
0.0000001
 43
0.0000001
 44
0.0000000001
 12
-0.0069088798
 22
-0.2135331846
 32
0.0
 13
0.1858848867
 23
-0.1053136384
 33
0.0
 40
0.0
 40
0.0
 40
0.0
 40
0.0
 40
0.2056069763
 40
0.4328959395
 40
0.6962131395
 40
1.0
 40
1.0
 40
1.0
 40
1.0
 10
-16.1959764276
 20
21.461876843
 30
0.0
 10
-16.1964499323
 20
21.4472422055
 30
0.0
 10
-16.191077817
 20
21.4159899317
 30
0.0
 10
-16.1656822623
 20
21.3725207153
 30
0.0
 10
-16.125055093
 20
21.3324909625
 30
0.0
 10
-16.0912070736
 20
21.3100644243
 30
0.0
 10
-16.0723839449
 20
21.2994001244
 30
0.0
 11
-16.1959764276
 21
21.461876843
 31
0.0
 11
-16.1889966358
 21
21.4185080305
 31
0.0
 11
-16.1654521708
 21
21.3760386581
 31
0.0
 11
-16.1260802747
 21
21.335856144
 31
0.0
 11
-16.0723839449
 21
21.2994001244
 31
0.0
  0
SPLINE
  5
451
100
AcDbEntity
  8
ASSI
100
AcDbSpline
 62
253
  6
CONTINUOUS
 70
0
 71
3
 72
11
 73
7
 74
5
 42
0.0000001
 43
0.0000001
 44
0.0000000001
 12
0.2112905372
 22
0.1251305382
 32
0.0
 13
0.2219907159
 23
-0.1049831642
 33
0.0
 40
0.0
 40
0.0
 40
0.0
 40
0.0
 40
0.223697647
 40
0.4596515511
 40
0.7172199347
 40
1.0
 40
1.0
 40
1.0
 40
1.0
 10
-15.4928396291
 20
22.6964171718
 30
0.0
 10
-15.4770845638
 20
22.7057476408
 30
0.0
 10
-15.4415200603
 20
22.7199492295
 30
0.0
 10
-15.38235758
 20
22.7252028392
 30
0.0
 10
-15.3191040795
 20
22.7150227509
 30
0.0
 10
-15.2774576248
 20
22.6993022136
 30
0.0
 10
-15.2565327751
 20
22.6894064983
 30
0.0
 11
-15.4928396291
 21
22.6964171718
 31
0.0
 11
-15.441911414
 21
22.7170044136
 31
0.0
 11
-15.3842542546
 21
22.7227388442
 31
0.0
 11
-15.321699431
 21
22.7133914437
 31
0.0
 11
-15.2565327751
 21
22.6894064983
 31
0.0
  0
SPLINE
  5
452
100
AcDbEntity
  8
ASSI
100
AcDbSpline
 62
253
  6
CONTINUOUS
 70
0
 71
3
 72
11
 73
7
 74
5
 42
0.0000001
 43
0.0000001
 44
0.0000000001
 12
-0.55262749
 22
0.3637860026
 32
0.0
 13
-0.0246839061
 23
0.6611566404
 33
0.0
 40
0.0
 40
0.0
 40
0.0
 40
0.0
 40
0.2207351984
 40
0.456964294
 40
0.7158815231
 40
1.0
 40
1.0
 40
1.0
 40
1.0
 10
-15.8041173774
 20
-15.4405981661
 30
0.0
 10
-15.8447788236
 20
-15.4138313742
 30
0.0
 10
-15.920491109
 20
-15.3446488914
 30
0.0
 10
-16.0033873555
 20
-15.2082976616
 30
0.0
 10
-16.0562105522
 20
-15.0433958152
 30
0.0
 10
-16.0700557721
 20
-14.9237071543
 30
0.0
 10
-16.07239349
 20
-14.8610915484
 30
0.0
 11
-15.8041173774
 21
-15.4405981661
 31
0.0
 11
-15.9126045277
 21
-15.3428287057
 31
0.0
 11
-15.9953493051
 21
-15.2102357917
 31
0.0
 11
-16.0492815356
 21
-15.0476430126
 31
0.0
 11
-16.07239349
 21
-14.8610915484
 31
0.0
  0
SPLINE
  5
453
100
AcDbEntity
  8
ASSI
100
AcDbSpline
 62
253
  6
CONTINUOUS
 70
0
 71
3
 72
9
 73
5
 74
3
 42
0.0000001
 43
0.0000001
 44
0.0000000001
 12
0.0000039989
 22
-0.0361471944
 32
0.0
 13
0.0353695387
 23
-0.0074575741
 33
0.0
 40
0.0
 40
0.0
 40
0.0
 40
0.0
 40
0.5509787862
 40
1.0
 40
1.0
 40
1.0
 40
1.0
 10
3.0124305353
 20
18.5701207413
 30
0.0
 10
3.0124312697
 20
18.5634819622
 30
0.0
 10
3.0143834957
 20
18.5507655203
 30
0.0
 10
3.0251228786
 20
18.5424214966
 30
0.0
 10
3.0304167697
 20
18.5413052936
 30
0.0
 11
3.0124305353
 21
18.5701207413
 31
0.0
 11
3.0172501241
 21
18.5507963511
 31
0.0
 11
3.0304167697
 21
18.5413052936
 31
0.0
  0
SPLINE
  5
454
100
AcDbEntity
  8
RACCORDO
100
AcDbSpline
 62
253
  6
CONTINUOUS
 70
0
 71
3
 72
10
 73
6
 74
4
 42
0.0000001
 43
0.0000001
 44
0.0000000001
 12
0.386648647
 22
-0.3989104208
 32
0.0
 13
-0.0031738542
 23
-0.5555327413
 33
0.0
 40
0.0
 40
0.0
 40
0.0
 40
0.0
 40
0.5080858776
 40
0.7625492298
 40
1.0
 40
1.0
 40
1.0
 40
1.0
 10
5.74895778
 20
-1.969551746
 30
0.0
 10
5.8144413524
 20
-2.0371119964
 30
0.0
 10
5.8925316869
 20
-2.1598900801
 30
0.0
 10
5.949099716
 20
-2.3367281231
 30
0.0
 10
5.9598382286
 20
-2.4280961605
 30
0.0
 10
5.9595870172
 20
-2.4720667196
 30
0.0
 11
5.74895778
 21
-1.969551746
 31
0.0
 11
5.9029862183
 21
-2.2060842202
 31
0.0
 11
5.9454894583
 21
-2.3409083519
 31
0.0
 11
5.9595870172
 21
-2.4720667196
 31
0.0
  0
SPLINE
  5
455
100
AcDbEntity
  8
ASSI
100
AcDbSpline
 62
253
  6
CONTINUOUS
 70
0
 71
3
 72
9
 73
5
 74
3
 42
0.0000001
 43
0.0000001
 44
0.0000000001
 12
-0.0644809999
 22
-0.0324882589
 32
0.0
 13
0.0000008781
 23
-0.0722030907
 33
0.0
 40
0.0
 40
0.0
 40
0.0
 40
0.0
 40
0.490186815
 40
1.0
 40
1.0
 40
1.0
 40
1.0
 10
3.0477751979
 20
18.9477501889
 30
0.0
 10
3.0372392859
 20
18.9424417501
 30
0.0
 10
3.0201724626
 20
18.9235588873
 30
0.0
 10
3.012430386
 20
18.8996595709
 30
0.0
 10
3.0124305353
 20
18.8873895417
 30
0.0
 11
3.0477751979
 21
18.9477501889
 31
0.0
 11
3.0227480016
 21
18.9227241203
 31
0.0
 11
3.0124305353
 21
18.8873895417
 31
0.0
  0
SPLINE
  5
456
100
AcDbEntity
  8
RACCORDO
100
AcDbSpline
 62
253
  6
CONTINUOUS
 70
0
 71
3
 72
11
 73
7
 74
5
 42
0.0000001
 43
0.0000001
 44
0.0000000001
 12
0.001771168
 22
-0.3082672546
 32
0.0
 13
-0.2713279085
 23
-0.1463318264
 33
0.0
 40
0.0
 40
0.0
 40
0.0
 40
0.0
 40
0.2888581329
 40
0.5486769922
 40
0.7823744611
 40
1.0
 40
1.0
 40
1.0
 40
1.0
 10
5.9595870172
 20
-4.2101905109
 30
0.0
 10
5.959757556
 20
-4.2398723455
 30
0.0
 10
5.9553304538
 20
-4.2964834201
 30
0.0
 10
5.9319651567
 20
-4.3741977117
 30
0.0
 10
5.8925363752
 20
-4.43697027
 30
0.0
 10
5.855536306
 20
-4.4667408737
 30
0.0
 10
5.8358536785
 20
-4.4773560545
 30
0.0
 11
5.9595870172
 21
-4.2101905109
 31
0.0
 11
5.951781573
 21
-4.2988947301
 31
0.0
 11
5.9276861177
 21
-4.3752793687
 31
0.0
 11
5.888434038
 21
-4.4356895597
 31
0.0
 11
5.8358536785
 21
-4.4773560545
 31
0.0
  0
SPLINE
  5
457
100
AcDbEntity
  8
RACCORDO
100
AcDbSpline
 62
253
  6
CONTINUOUS
 70
0
 71
3
 72
9
 73
5
 74
3
 42
0.0000001
 43
0.0000001
 44
0.0000000001
 12
-0.0852268657
 22
0.0418309076
 32
0.0
 13
-0.0824587203
 23
-0.0470531924
 33
0.0
 40
0.0
 40
0.0
 40
0.0
 40
0.0
 40
0.5425167707
 40
1.0
 40
1.0
 40
1.0
 40
1.0
 10
-1.0688756944
 20
15.5603975082
 30
0.0
 10
-1.084288029
 20
15.5679621645
 30
0.0
 10
-1.1152515159
 20
15.5782203307
 30
0.0
 10
-1.1483001378
 20
15.5718527176
 30
0.0
 10
-1.1608746317
 20
15.5646773688
 30
0.0
 11
-1.0688756944
 21
15.5603975082
 31
0.0
 11
-1.118498157
 21
15.5741992456
 31
0.0
 11
-1.1608746317
 21
15.5646773688
 31
0.0
  0
SPLINE
  5
458
100
AcDbEntity
  8
RACCORDO
100
AcDbSpline
 62
253
  6
CONTINUOUS
 70
0
 71
3
 72
11
 73
7
 74
5
 42
0.0000001
 43
0.0000001
 44
0.0000000001
 12
-0.0967364836
 22
0.0429434063
 32
0.0
 13
0.0036349252
 23
0.1057774585
 33
0.0
 40
0.0
 40
0.0
 40
0.0
 40
0.0
 40
0.3121452026
 40
0.5797732391
 40
0.803780086
 40
1.0
 40
1.0
 40
1.0
 40
1.0
 10
-1.8582445139
 20
14.1589106206
 30
0.0
 10
-1.8683097903
 20
14.1633788133
 30
0.0
 10
-1.8864689036
 20
14.1730240489
 30
0.0
 10
-1.9087169501
 20
14.1909873157
 30
0.0
 10
-1.922957433
 20
14.2111748065
 30
0.0
 10
-1.9261784747
 20
14.2262316682
 30
0.0
 10
-1.9259407265
 20
14.2331502161
 30
0.0
 11
-1.8582445139
 21
14.1589106206
 31
0.0
 11
-1.8872512021
 21
14.174724629
 31
0.0
 11
-1.9089079644
 21
14.1929819905
 31
0.0
 11
-1.9219758691
 21
14.212764305
 31
0.0
 11
-1.9259407265
 21
14.2331502161
 31
0.0
  0
SPLINE
  5
459
100
AcDbEntity
  8
RACCORDO
100
AcDbSpline
 62
253
  6
CONTINUOUS
 70
0
 71
3
 72
11
 73
7
 74
5
 42
0.0000001
 43
0.0000001
 44
0.0000000001
 12
-0.0979367532
 22
0.0429005897
 32
0.0
 13
0.0028384638
 23
0.1068831668
 33
0.0
 40
0.0
 40
0.0
 40
0.0
 40
0.0
 40
0.3111798521
 40
0.5785305149
 40
0.8029300297
 40
1.0
 40
1.0
 40
1.0
 40
1.0
 10
-1.9737792232
 20
10.4815501866
 30
0.0
 10
-1.9839378713
 20
10.4860001196
 30
0.0
 10
-2.0022854579
 20
10.4956459505
 30
0.0
 10
-2.0247972537
 20
10.5137024739
 30
0.0
 10
-2.0392592187
 20
10.5340826008
 30
0.0
 10
-2.0426021045
 20
10.5493116373
 30
0.0
 10
-2.0424156459
 20
10.5563327915
 30
0.0
 11
-1.9737792232
 21
10.4815501866
 31
0.0
 11
-2.0030600051
 21
10.4973500642
 31
0.0
 11
-2.0249779466
 21
10.5157001774
 31
0.0
 11
-2.0382722138
 21
10.5356733064
 31
0.0
 11
-2.0424156459
 21
10.5563327915
 31
0.0
  0
SPLINE
  5
45A
100
AcDbEntity
  8
RACCORDO
100
AcDbSpline
 62
253
  6
CONTINUOUS
 70
0
 71
3
 72
11
 73
7
 74
5
 42
0.0000001
 43
0.0000001
 44
0.0000000001
 12
0.0071499768
 22
0.2844401679
 32
0.0
 13
0.2465873461
 23
0.1419577825
 33
0.0
 40
0.0
 40
0.0
 40
0.0
 40
0.0
 40
0.2507679519
 40
0.5174627016
 40
0.7746916747
 40
1.0
 40
1.0
 40
1.0
 40
1.0
 10
-3.0624586496
 20
9.7137681905
 30
0.0
 10
-3.0618609879
 20
9.7375443499
 30
0.0
 10
-3.0534230167
 20
9.7865008299
 30
0.0
 10
-3.0253147378
 20
9.854949205
 30
0.0
 10
-2.984781126
 20
9.9139371797
 30
0.0
 10
-2.9496513235
 20
9.9446211006
 30
0.0
 10
-2.9311319295
 20
9.955282524
 30
0.0
 11
-3.0624586496
 21
9.7137681905
 31
0.0
 11
-3.0512550551
 21
9.7842341119
 31
0.0
 11
-3.0225525105
 21
9.8544789859
 31
0.0
 11
-2.9804897405
 21
9.9143739477
 31
0.0
 11
-2.9311319295
 21
9.955282524
 31
0.0
  0
SPLINE
  5
45B
100
AcDbEntity
  8
RACCORDO
100
AcDbSpline
 62
253
  6
CONTINUOUS
 70
0
 71
3
 72
9
 73
5
 74
3
 42
0.0000001
 43
0.0000001
 44
0.0000000001
 12
0.0057384472
 22
0.196119754
 32
0.0
 13
0.1318038207
 23
0.1453397418
 33
0.0
 40
0.0
 40
0.0
 40
0.0
 40
0.0
 40
0.4874514583
 40
1.0
 40
1.0
 40
1.0
 40
1.0
 10
-14.8305995522
 20
15.5978417677
 30
0.0
 10
-14.8296671474
 20
15.6297080544
 30
0.0
 10
-14.8132505954
 20
15.6947440746
 30
0.0
 10
-14.7775908331
 20
15.7510244718
 30
0.0
 10
-14.7550722144
 20
15.775855696
 30
0.0
 11
-14.8305995522
 21
15.5978417677
 31
0.0
 11
-14.8090902445
 21
15.691031446
 31
0.0
 11
-14.7550722144
 21
15.775855696
 31
0.0
  0
SPLINE
  5
45C
100
AcDbEntity
  8
RACCORDO
100
AcDbSpline
 62
253
  6
CONTINUOUS
 70
0
 71
3
 72
9
 73
5
 74
3
 42
0.0000001
 43
0.0000001
 44
0.0000000001
 12
0.0424511228
 22
0.0468107464
 32
0.0
 13
0.052978084
 23
0.0344480249
 33
0.0
 40
0.0
 40
0.0
 40
0.0
 40
0.0
 40
0.2587827645
 40
1.0
 40
1.0
 40
1.0
 40
1.0
 10
-14.7550722144
 20
15.775855696
 30
0.0
 10
-14.7514103415
 20
15.7798936341
 30
0.0
 10
-14.7368128877
 20
15.7950798561
 30
0.0
 10
-14.7203579517
 20
15.8085275682
 30
0.0
 10
-14.7072685287
 20
15.8170387248
 30
0.0
 11
-14.7550722144
 21
15.775855696
 31
0.0
 11
-14.7437308097
 21
15.7876370737
 31
0.0
 11
-14.7072685287
 21
15.8170387248
 31
0.0
  0
SPLINE
  5
45D
100
AcDbEntity
  8
RACCORDO
100
AcDbSpline
 62
253
  6
CONTINUOUS
 70
0
 71
3
 72
11
 73
7
 74
5
 42
0.0000001
 43
0.0000001
 44
0.0000000001
 12
0.2597890049
 22
-0.1483504593
 32
0.0
 13
0.272972974
 23
0.1224089102
 33
0.0
 40
0.0
 40
0.0
 40
0.0
 40
0.0
 40
0.2309008094
 40
0.4961601714
 40
0.7634940608
 40
1.0
 40
1.0
 40
1.0
 40
1.0
 10
-15.7223987146
 20
17.3558578509
 30
0.0
 10
-15.7024035508
 20
17.3444397705
 30
0.0
 10
-15.655111369
 20
17.3276000329
 30
0.0
 10
-15.5792615033
 20
17.3174886197
 30
0.0
 10
-15.502276129
 20
17.3215215081
 30
0.0
 10
-15.4530317865
 20
17.3344222363
 30
0.0
 10
-15.4315118766
 20
17.3440723811
 30
0.0
 11
-15.7223987146
 21
17.3558578509
 31
0.0
 11
-15.6579533242
 21
17.3309901231
 31
0.0
 11
-15.5793681981
 21
17.3199585021
 31
0.0
 11
-15.4995250675
 21
17.3245712991
 31
0.0
 11
-15.4315118766
 21
17.3440723811
 31
0.0
  0
SPLINE
  5
45E
100
AcDbEntity
  8
RACCORDO
100
AcDbSpline
 62
253
  6
CONTINUOUS
 70
0
 71
3
 72
11
 73
7
 74
5
 42
0.0000001
 43
0.0000001
 44
0.0000000001
 12
0.2596583991
 22
-0.1463306026
 32
0.0
 13
0.2730517838
 23
0.1194899695
 33
0.0
 40
0.0
 40
0.0
 40
0.0
 40
0.0
 40
0.2316154934
 40
0.497149145
 40
0.7642210089
 40
1.0
 40
1.0
 40
1.0
 40
1.0
 10
-15.6030454293
 20
21.0313202448
 30
0.0
 10
-15.5829984599
 20
21.0200227666
 30
0.0
 10
-15.5357920326
 20
21.0032941793
 30
0.0
 10
-15.4601890851
 20
20.9930163869
 30
0.0
 10
-15.3835534387
 20
20.9966162325
 30
0.0
 10
-15.3344990996
 20
21.0090510747
 30
0.0
 10
-15.3130391416
 20
21.0184421495
 30
0.0
 11
-15.6030454293
 21
21.0313202448
 31
0.0
 11
-15.5385838995
 21
21.0066152423
 31
0.0
 11
-15.4602342992
 21
20.9954376706
 31
0.0
 11
-15.3807421459
 21
20.9996059617
 31
0.0
 11
-15.3130391416
 21
21.0184421495
 31
0.0
  0
SPLINE
  5
45F
100
AcDbEntity
  8
RACCORDO
100
AcDbSpline
 62
253
  6
CONTINUOUS
 70
0
 71
3
 72
11
 73
7
 74
5
 42
0.0000001
 43
0.0000001
 44
0.0000000001
 12
0.2608400918
 22
-0.1328570274
 32
0.0
 13
0.0128955347
 23
-0.2924418718
 33
0.0
 40
0.0
 40
0.0
 40
0.0
 40
0.0
 40
0.2305001887
 40
0.4905791889
 40
0.755789634
 40
1.0
 40
1.0
 40
1.0
 40
1.0
 10
-14.7843311818
 20
22.4181252392
 30
0.0
 10
-14.7642899516
 20
22.4079173825
 30
0.0
 10
-14.7258410092
 20
22.3779263961
 30
0.0
 10
-14.6804035537
 20
22.3191349581
 30
0.0
 10
-14.6481802004
 20
22.2506941463
 30
0.0
 10
-14.6377976481
 20
22.2013389748
 30
0.0
 10
-14.636747907
 20
22.177533196
 30
0.0
 11
-14.7843311818
 21
22.4181252392
 31
0.0
 11
-14.7301363196
 21
22.3779309847
 31
0.0
 11
-14.6830612485
 21
22.3180978515
 31
0.0
 11
-14.6502686053
 21
22.2477296652
 31
0.0
 11
-14.636747907
 21
22.177533196
 31
0.0
  0
SPLINE
  5
460
100
AcDbEntity
  8
RACCORDO
100
AcDbSpline
 62
253
  6
CONTINUOUS
 70
0
 71
3
 72
9
 73
5
 74
3
 42
0.0000001
 43
0.0000001
 44
0.0000000001
 12
-0.1563240799
 22
0.4364159546
 32
0.0
 13
-0.0477794738
 23
0.4611000166
 33
0.0
 40
0.0
 40
0.0
 40
0.0
 40
0.0
 40
0.2550460481
 40
1.0
 40
1.0
 40
1.0
 40
1.0
 10
-15.3193076052
 20
16.6782711696
 30
0.0
 10
-15.3325975515
 20
16.7153732245
 30
0.0
 10
-15.3804945128
 20
16.8622960193
 30
0.0
 10
-15.4117560441
 20
17.0148244347
 30
0.0
 10
-15.4236205467
 20
17.1293238613
 30
0.0
 11
-15.3193076052
 21
16.6782711696
 31
0.0
 11
-15.3559473034
 21
16.790682018
 31
0.0
 11
-15.4236205467
 21
17.1293238613
 31
0.0
  0
SPLINE
  5
461
100
AcDbEntity
  8
ASSI
100
AcDbSpline
 62
253
  6
CONTINUOUS
 70
0
 71
3
 72
10
 73
6
 74
4
 42
0.0000001
 43
0.0000001
 44
0.0000000001
 12
-0.0484779294
 22
-0.0223900683
 32
0.0
 13
0.0000002129
 23
0.0533987341
 33
0.0
 40
0.0
 40
0.0
 40
0.0
 40
0.0
 40
0.2604027024
 40
0.4870741077
 40
1.0
 40
1.0
 40
1.0
 40
1.0
 10
3.0477751979
 20
-23.0729809017
 30
0.0
 10
3.04356727
 20
-23.0749243798
 30
0.0
 10
3.0348458316
 20
-23.07737061
 30
0.0
 10
3.0166907228
 20
-23.0715046791
 30
0.0
 10
3.0124304988
 20
-23.0558820629
 30
0.0
 10
3.0124305353
 20
-23.0467521984
 30
0.0
 11
3.0477751979
 21
-23.0729809017
 31
0.0
 11
3.0342071346
 21
-23.0760241795
 31
0.0
 11
3.0227487806
 21
-23.0721239078
 31
0.0
 11
3.0124305353
 21
-23.0467521984
 31
0.0
  0
SPLINE
  5
462
100
AcDbEntity
  8
ASSI
100
AcDbSpline
 62
253
  6
CONTINUOUS
 70
0
 71
3
 72
9
 73
5
 74
3
 42
0.0000001
 43
0.0000001
 44
0.0000000001
 12
-0.0000005547
 22
0.0501152867
 32
0.0
 13
0.032435887
 23
0.0382028166
 33
0.0
 40
0.0
 40
0.0
 40
0.0
 40
0.0
 40
0.2366659259
 40
1.0
 40
1.0
 40
1.0
 40
1.0
 10
3.0124305353
 20
-22.7294833981
 30
0.0
 10
3.0124304915
 20
-22.7255298712
 30
0.0
 10
3.0143132435
 20
-22.7088609726
 30
0.0
 10
3.0221636304
 20
-22.6930193496
 30
0.0
 10
3.0304167697
 20
-22.6832988457
 30
0.0
 11
3.0124305353
 21
-22.7294833981
 31
0.0
 11
3.0136559098
 21
-22.7176862869
 31
0.0
 11
3.0304167697
 21
-22.6832988457
 31
0.0
  0
SPLINE
  5
463
100
AcDbEntity
  8
RACCORDO
100
AcDbSpline
 62
7
  6
CONTINUOUS
 70
0
 71
3
 72
10
 73
6
 74
4
 42
0.0000001
 43
0.0000001
 44
0.0000000001
 12
0.2686831691
 22
-0.505487389
 32
0.0
 13
0.5003039335
 23
-0.2782159591
 33
0.0
 40
0.0
 40
0.0
 40
0.0
 40
0.0
 40
0.5036193972
 40
0.7543273668
 40
1.0
 40
1.0
 40
1.0
 40
1.0
 10
-14.1181529969
 20
5.1526990413
 30
0.0
 10
-14.0730483117
 20
5.0678412899
 30
0.0
 10
-13.9902433579
 20
4.9477540116
 30
0.0
 10
-13.8532086131
 20
4.8143707107
 30
0.0
 10
-13.7752396361
 20
4.7594187978
 30
0.0
 10
-13.7342693079
 20
4.7366354487
 30
0.0
 11
-14.1181529969
 21
5.1526990413
 31
0.0
 11
-13.9533141338
 21
4.9161708514
 31
0.0
 11
-13.8499809895
 21
4.8165707091
 31
0.0
 11
-13.7342693079
 21
4.7366354487
 31
0.0
  0
SPLINE
  5
464
100
AcDbEntity
  8
RACCORDO
100
AcDbSpline
 62
7
  6
CONTINUOUS
 70
0
 71
3
 72
11
 73
7
 74
5
 42
0.0000001
 43
0.0000001
 44
0.0000000001
 12
0.6578398371
 22
0.4873152186
 32
0.0
 13
0.7436420383
 23
0.3423826696
 33
0.0
 40
0.0
 40
0.0
 40
0.0
 40
0.0
 40
0.1958816673
 40
0.440930424
 40
0.723890459
 40
1.0
 40
1.0
 40
1.0
 40
1.0
 10
-14.1099904157
 20
-2.5762182393
 30
0.0
 10
-14.0670374943
 20
-2.5443995335
 30
0.0
 10
-13.9677467224
 20
-2.4763108537
 30
0.0
 10
-13.8004239071
 20
-2.3712254887
 30
0.0
 10
-13.6102483344
 20
-2.2616880529
 30
0.0
 10
-13.4748009502
 20
-2.1911569371
 30
0.0
 10
-13.4063587296
 20
-2.1596452299
 30
0.0
 11
-14.1099904157
 21
-2.5762182393
 31
0.0
 11
-13.9782998327
 21
-2.4847084486
 31
0.0
 11
-13.8085774996
 21
-2.3777464848
 31
0.0
 11
-13.6078017097
 21
-2.262195964
 31
0.0
 11
-13.4063587296
 21
-2.1596452299
 31
0.0
  0
SPLINE
  5
465
100
AcDbEntity
  8
RACCORDO
100
AcDbSpline
 62
7
  6
CONTINUOUS
 70
0
 71
3
 72
11
 73
7
 74
5
 42
0.0000001
 43
0.0000001
 44
0.0000000001
 12
0.663728333
 22
0.4872815688
 32
0.0
 13
0.7416550603
 23
0.3576680011
 33
0.0
 40
0.0
 40
0.0
 40
0.0
 40
0.0
 40
0.1981847751
 40
0.4444308704
 40
0.7269014399
 40
1.0
 40
1.0
 40
1.0
 40
1.0
 10
-12.2126998557
 20
-3.615964482
 30
0.0
 10
-12.1688529056
 20
-3.5837738859
 30
0.0
 10
-12.0682565642
 20
-3.5146920362
 30
0.0
 10
-11.8998636767
 20
-3.4076350666
 30
0.0
 10
-11.7102259306
 20
-3.2959336622
 30
0.0
 10
-11.5758873334
 20
-3.2235337075
 30
0.0
 10
-11.5083723571
 20
-3.1909741688
 30
0.0
 11
-12.2126998557
 21
-3.615964482
 31
0.0
 11
-12.0786659191
 21
-3.5228838212
 31
0.0
 11
-11.907698915
 21
-3.4138839675
 31
0.0
 11
-11.7072491777
 21
-3.2959197287
 31
0.0
 11
-11.5083723571
 21
-3.1909741688
 31
0.0
  0
SPLINE
  5
466
100
AcDbEntity
  8
RACCORDO
100
AcDbSpline
 62
7
  6
CONTINUOUS
 70
0
 71
3
 72
11
 73
7
 74
5
 42
0.0000001
 43
0.0000001
 44
0.0000000001
 12
0.6641773224
 22
0.4881865923
 32
0.0
 13
0.7412937211
 23
0.3604736934
 33
0.0
 40
0.0
 40
0.0
 40
0.0
 40
0.0
 40
0.1979004253
 40
0.4441426425
 40
0.7268527837
 40
1.0
 40
1.0
 40
1.0
 40
1.0
 10
-12.1964472434
 20
-4.9952447472
 30
0.0
 10
-12.1526335852
 20
-4.9630406358
 30
0.0
 10
-12.0520579229
 20
-4.8938361019
 30
0.0
 10
-11.8836521962
 20
-4.7864213232
 30
0.0
 10
-11.6939672727
 20
-4.6741758308
 30
0.0
 10
-11.5596094147
 20
-4.6013023659
 30
0.0
 10
-11.4921153092
 20
-4.5684815706
 30
0.0
 11
-12.1964472434
 21
-4.9952447472
 31
0.0
 11
-12.0625425764
 21
-4.9020770861
 31
0.0
 11
-11.8915519784
 21
-4.7927094179
 31
0.0
 11
-11.6909541578
 21
-4.6741084714
 31
0.0
 11
-11.4921153092
 21
-4.5684815706
 31
0.0
  0
SPLINE
  5
467
100
AcDbEntity
  8
RACCORDO
100
AcDbSpline
 62
7
  6
CONTINUOUS
 70
0
 71
3
 72
11
 73
7
 74
5
 42
0.0000001
 43
0.0000001
 44
0.0000000001
 12
0.6664413277
 22
0.4882212764
 32
0.0
 13
0.7383451915
 23
0.3706081978
 33
0.0
 40
0.0
 40
0.0
 40
0.0
 40
0.0
 40
0.1988413608
 40
0.4455708654
 40
0.728079603
 40
1.0
 40
1.0
 40
1.0
 40
1.0
 10
-11.4037775184
 20
-5.4154987946
 30
0.0
 10
-11.3596054849
 20
-5.383139267
 30
0.0
 10
-11.2585136593
 20
-5.3135165499
 30
0.0
 10
-11.0896694723
 20
-5.2053463006
 30
0.0
 10
-10.9003430347
 20
-5.0920106099
 30
0.0
 10
-10.7662013999
 20
-5.0189125297
 30
0.0
 10
-10.699277694
 20
-4.9853205536
 30
0.0
 11
-11.4037775184
 21
-5.4154987946
 31
0.0
 11
-11.2689329789
 21
-5.3216813212
 31
0.0
 11
-11.097459275
 21
-5.2114791912
 31
0.0
 11
-10.8970304345
 21
-5.0918976759
 31
0.0
 11
-10.699277694
 21
-4.9853205536
 31
0.0
  0
SPLINE
  5
468
100
AcDbEntity
  8
RACCORDO
100
AcDbSpline
 62
7
  6
CONTINUOUS
 70
0
 71
3
 72
11
 73
7
 74
5
 42
0.0000001
 43
0.0000001
 44
0.0000000001
 12
0.6677758537
 22
0.4896869652
 32
0.0
 13
0.7400815508
 23
0.3714797608
 33
0.0
 40
0.0
 40
0.0
 40
0.0
 40
0.0
 40
0.198653756
 40
0.4455041551
 40
0.7283294626
 40
1.0
 40
1.0
 40
1.0
 40
1.0
 10
-11.3863742198
 20
-6.5774257936
 30
0.0
 10
-11.3421554926
 20
-6.544999742
 30
0.0
 10
-11.2408920808
 20
-6.4751526298
 30
0.0
 10
-11.071734015
 20
-6.3664670739
 30
0.0
 10
-10.8820509219
 20
-6.2526337394
 30
0.0
 10
-10.7478526394
 20
-6.1788367688
 30
0.0
 10
-10.6808331885
 20
-6.1451967334
 30
0.0
 11
-11.3863742198
 21
-6.5774257936
 31
0.0
 11
-11.2514083665
 21
-6.4833783569
 31
0.0
 11
-11.0795773478
 21
-6.3726606794
 31
0.0
 11
-10.8786440838
 21
-6.2523423292
 31
0.0
 11
-10.6808331885
 21
-6.1451967334
 31
0.0
  0
SPLINE
  5
469
100
AcDbEntity
  8
RACCORDO
100
AcDbSpline
 62
7
  6
CONTINUOUS
 70
0
 71
3
 72
9
 73
5
 74
3
 42
0.0000001
 43
0.0000001
 44
0.0000000001
 12
-0.2716705947
 22
0.4428844369
 32
0.0
 13
-0.0079480733
 23
0.51950781
 33
0.0
 40
0.0
 40
0.0
 40
0.0
 40
0.0
 40
0.511279812
 40
1.0
 40
1.0
 40
1.0
 40
1.0
 10
-7.1121212199
 20
-8.714552273
 30
0.0
 10
-7.1584211167
 20
-8.6390729825
 30
0.0
 10
-7.2339779586
 20
-8.4819070498
 30
0.0
 10
-7.2706934683
 20
-8.3093258077
 30
0.0
 10
-7.271988263
 20
-8.2246944895
 30
0.0
 11
-7.1121212199
 21
-8.714552273
 31
0.0
 11
-7.2255290946
 21
-8.474331775
 31
0.0
 11
-7.271988263
 21
-8.2246944895
 31
0.0
  0
SPLINE
  5
46A
100
AcDbEntity
  8
RACCORDO
100
AcDbSpline
 62
7
  6
CONTINUOUS
 70
0
 71
3
 72
9
 73
5
 74
3
 42
0.0000001
 43
0.0000001
 44
0.0000000001
 12
-0.2712400803
 22
0.4438986244
 32
0.0
 13
-0.0065383295
 23
0.5201676847
 33
0.0
 40
0.0
 40
0.0
 40
0.0
 40
0.0
 40
0.511442009
 40
1.0
 40
1.0
 40
1.0
 40
1.0
 10
-7.1290516913
 20
-7.5528617083
 30
0.0
 10
-7.1752928818
 20
-7.4771855735
 30
0.0
 10
-7.2506738416
 20
-7.319701124
 30
0.0
 10
-7.2871108881
 20
-7.1468189691
 30
0.0
 10
-7.2881756725
 20
-7.0621082761
 30
0.0
 11
-7.1290516913
 21
-7.5528617083
 31
0.0
 11
-7.2422121874
 21
-7.3120696241
 31
0.0
 11
-7.2881756725
 21
-7.0621082761
 31
0.0
  0
SPLINE
  5
46B
100
AcDbEntity
  8
RACCORDO
100
AcDbSpline
 62
7
  6
CONTINUOUS
 70
0
 71
3
 72
9
 73
5
 74
3
 42
0.0000001
 43
0.0000001
 44
0.0000000001
 12
-0.2762603078
 22
0.4470860818
 32
0.0
 13
-0.0064938956
 23
0.5255126559
 33
0.0
 40
0.0
 40
0.0
 40
0.0
 40
0.0
 40
0.5117197067
 40
1.0
 40
1.0
 40
1.0
 40
1.0
 10
-6.2892429936
 20
-7.9488468721
 30
0.0
 10
-6.3363656082
 20
-7.8725859525
 30
0.0
 10
-6.4132443267
 20
-7.7138388757
 30
0.0
 10
-6.4506549234
 20
-7.5392174493
 30
0.0
 10
-6.4517118704
 20
-7.4536849581
 30
0.0
 11
-6.2892429936
 21
-7.9488468721
 31
0.0
 11
-6.4047113125
 21
-7.7059611268
 31
0.0
 11
-6.4517118704
 21
-7.4536849581
 31
0.0
  0
SPLINE
  5
46C
100
AcDbEntity
  8
RACCORDO
100
AcDbSpline
 62
7
  6
CONTINUOUS
 70
0
 71
3
 72
10
 73
6
 74
4
 42
0.0000001
 43
0.0000001
 44
0.0000000001
 12
-0.2885374215
 22
0.4565827155
 32
0.0
 13
-0.0046467355
 23
0.5400926101
 33
0.0
 40
0.0
 40
0.0
 40
0.0
 40
0.0
 40
0.5118259106
 40
0.7605581124
 40
1.0
 40
1.0
 40
1.0
 40
1.0
 10
-4.22797676
 20
-7.5172250571
 30
0.0
 10
-4.2772037361
 20
-7.4393281024
 30
0.0
 10
-4.3387731315
 20
-7.3152037686
 30
0.0
 10
-4.3872157044
 20
-7.1414121299
 30
0.0
 10
-4.3975029614
 20
-7.0535090852
 30
0.0
 10
-4.3978738357
 20
-7.0104021538
 30
0.0
 11
-4.22797676
 21
-7.5172250571
 31
0.0
 11
-4.3488735093
 21
-7.2686188371
 31
0.0
 11
-4.3841971171
 21
-7.1390025157
 31
0.0
 11
-4.3978738357
 21
-7.0104021538
 31
0.0
  0
SPLINE
  5
46D
100
AcDbEntity
  8
RACCORDO
100
AcDbSpline
 62
7
  6
CONTINUOUS
 70
0
 71
3
 72
14
 73
10
 74
8
 42
0.0000001
 43
0.0000001
 44
0.0000000001
 12
-0.179281858
 22
-0.1273797219
 32
0.0
 13
-0.0011533634
 23
-0.2199232774
 33
0.0
 40
0.0
 40
0.0
 40
0.0
 40
0.0
 40
0.3837830867
 40
0.5468758963
 40
0.6887092992
 40
0.8073029488
 40
0.900350726
 40
0.9651973789
 40
1.0
 40
1.0
 40
1.0
 40
1.0
 10
-4.2358014349
 20
0.2115231577
 30
0.0
 10
-4.2587365499
 20
0.1952277634
 30
0.0
 10
-4.2912406531
 20
0.171740814
 30
0.0
 10
-4.3314926804
 20
0.1412831112
 30
0.0
 10
-4.3559285131
 20
0.1220749352
 30
0.0
 10
-4.3757773515
 20
0.1055484174
 30
0.0
 10
-4.391051339
 20
0.0918684096
 30
0.0
 10
-4.4003181929
 20
0.0818117281
 30
0.0
 10
-4.4051445257
 20
0.075426205
 30
0.0
 10
-4.4051579058
 20
0.0728749028
 30
0.0
 11
-4.2358014349
 21
0.2115231577
 31
0.0
 11
-4.3040908579
 21
0.1619188326
 31
0.0
 11
-4.332669899
 21
0.1402444142
 31
0.0
 11
-4.3571501461
 21
0.1209127239
 31
0.0
 11
-4.3771513259
 21
0.1041730593
 31
0.0
 11
-4.3922170496
 21
0.09032441
 31
0.0
 11
-4.4017774895
 21
0.0797419751
 31
0.0
 11
-4.4051579058
 21
0.0728749028
 31
0.0
  0
SPLINE
  5
46E
100
AcDbEntity
  8
ASSI
100
AcDbSpline
 62
253
  6
CONTINUOUS
 70
0
 71
3
 72
15
 73
11
 74
9
 42
0.0000001
 43
0.0000001
 44
0.0000000001
 12
0.7243265149
 22
0.3527323816
 32
0.0
 13
0.0001228057
 23
-0.8056481975
 33
0.0
 40
0.0
 40
0.0
 40
0.0
 40
0.0
 40
0.1338353339
 40
0.2551617679
 40
0.3675969175
 40
0.4771736623
 40
0.5907586865
 40
0.7140078628
 40
0.8501922091
 40
1.0
 40
1.0
 40
1.0
 40
1.0
 10
2.0439020767
 20
26.1463291893
 30
0.0
 10
2.0762155703
 20
26.162065208
 30
0.0
 10
2.1408395351
 20
26.186580031
 30
0.0
 10
2.2398488315
 20
26.1991976185
 30
0.0
 10
2.33232822
 20
26.1842405684
 30
0.0
 10
2.4135024758
 20
26.141491352
 30
0.0
 10
2.4789228045
 20
26.0733685911
 30
0.0
 10
2.5262982969
 20
25.9839026513
 30
0.0
 10
2.5546969132
 20
25.8769650057
 30
0.0
 10
2.5604231452
 20
25.7999508027
 30
0.0
 10
2.5604292776
 20
25.7597200105
 30
0.0
 11
2.0439020767
 21
26.1463291893
 31
0.0
 11
2.1451360847
 21
26.1834470157
 31
0.0
 11
2.2422443524
 21
26.1945981478
 31
0.0
 11
2.3315337736
 21
26.1793432748
 31
0.0
 11
2.4096797951
 21
26.1382748916
 31
0.0
 11
2.4737286438
 21
26.0729162917
 31
0.0
 11
2.5212821331
 21
25.9857483069
 31
0.0
 11
2.5505499001
 21
25.8800073666
 31
0.0
 11
2.5604292776
 21
25.7597200105
 31
0.0
  0
SPLINE
  5
46F
100
AcDbEntity
  8
ASSI
100
AcDbSpline
 62
253
  6
CONTINUOUS
 70
0
 71
3
 72
9
 73
5
 74
3
 42
0.0000001
 43
0.0000001
 44
0.0000000001
 12
-0.000000754
 22
0.2513982113
 32
0.0
 13
0.1608506199
 23
0.1932049138
 33
0.0
 40
0.0
 40
0.0
 40
0.0
 40
0.0
 40
0.4867531172
 40
1.0
 40
1.0
 40
1.0
 40
1.0
 10
2.7320775052
 20
-22.7282586674
 30
0.0
 10
2.7320773828
 20
-22.6874690464
 30
0.0
 10
2.7506240575
 20
-22.6036349472
 30
0.0
 10
2.7932557244
 20
-22.5297741447
 30
0.0
 10
2.8207744174
 20
-22.4967202048
 30
0.0
 11
2.7320775052
 21
-22.7282586674
 31
0.0
 11
2.7558391097
 21
-22.6082189874
 31
0.0
 11
2.8207744174
 21
-22.4967202048
 31
0.0
  0
SPLINE
  5
470
100
AcDbEntity
  8
ASSI
100
AcDbSpline
 62
7
  6
CONTINUOUS
 70
0
 71
3
 72
9
 73
5
 74
3
 42
0.0000001
 43
0.0000001
 44
0.0000000001
 12
0.2324688511
 22
0.1684806076
 32
0.0
 13
0.2481081076
 23
0.1444640054
 33
0.0
 40
0.0
 40
0.0
 40
0.0
 40
0.0
 40
0.4392426407
 40
1.0
 40
1.0
 40
1.0
 40
1.0
 10
1.7966089866
 20
-22.260525837
 30
0.0
 10
1.8306457306
 20
-22.2358578813
 30
0.0
 10
1.9101831477
 20
-22.1825482948
 30
0.0
 10
1.9917142941
 20
-22.1323813024
 30
0.0
 10
2.0380904432
 20
-22.1053782176
 30
0.0
 11
1.7966089866
 21
-22.260525837
 31
0.0
 11
1.9009028392
 21
-22.1896325077
 31
0.0
 11
2.0380904432
 21
-22.1053782176
 31
0.0
  0
SPLINE
  5
471
100
AcDbEntity
  8
ASSI
100
AcDbSpline
 62
253
  6
CONTINUOUS
 70
0
 71
3
 72
11
 73
7
 74
5
 42
0.0000001
 43
0.0000001
 44
0.0000000001
 12
0.0000057678
 22
-0.1576423069
 32
0.0
 13
0.1409405807
 23
-0.0706176301
 33
0.0
 40
0.0
 40
0.0
 40
0.0
 40
0.0
 40
0.2890071824
 40
0.5489866381
 40
0.7822674779
 40
1.0
 40
1.0
 40
1.0
 40
1.0
 10
2.732077497
 20
18.5713613918
 30
0.0
 10
2.7320780526
 20
18.5561748055
 30
0.0
 10
2.734571455
 20
18.5272223909
 30
0.0
 10
2.746926436
 20
18.4875974823
 30
0.0
 10
2.7676760688
 20
18.4558338313
 30
0.0
 10
2.7870378355
 20
18.4411613175
 30
0.0
 10
2.7972669515
 20
18.4360360659
 30
0.0
 11
2.732077497
 21
18.5713613918
 31
0.0
 11
2.7364152177
 21
18.5260085989
 31
0.0
 11
2.7491829124
 21
18.4870643484
 31
0.0
 11
2.7697883778
 21
18.4566043704
 31
0.0
 11
2.7972669515
 21
18.4360360659
 31
0.0
  0
SPLINE
  5
472
100
AcDbEntity
  8
ASSI
100
AcDbSpline
 62
7
  6
CONTINUOUS
 70
0
 71
3
 72
9
 73
5
 74
3
 42
0.0000001
 43
0.0000001
 44
0.0000000001
 12
-0.0575564483
 22
-0.0314343965
 32
0.0
 13
-0.0627838176
 23
-0.0189488328
 33
0.0
 40
0.0
 40
0.0
 40
0.0
 40
0.0
 40
0.2377321415
 40
1.0
 40
1.0
 40
1.0
 40
1.0
 10
3.7672245739
 20
17.6267102407
 30
0.0
 10
3.762663568
 20
17.6242192519
 30
0.0
 10
3.7431538435
 20
17.6143356235
 30
0.0
 10
3.7225451806
 20
17.6067120504
 30
0.0
 10
3.7065924852
 20
17.601897355
 30
0.0
 11
3.7672245739
 21
17.6267102407
 31
0.0
 11
3.7533252826
 21
17.6196476702
 31
0.0
 11
3.7065924852
 21
17.601897355
 31
0.0
  0
SPLINE
  5
473
100
AcDbEntity
  8
ASSI
100
AcDbSpline
 62
7
  6
CONTINUOUS
 70
0
 71
3
 72
9
 73
5
 74
3
 42
0.0000001
 43
0.0000001
 44
0.0000000001
 12
-0.0534480206
 22
0.0921841994
 32
0.0
 13
-0.0363432192
 23
0.1001687972
 33
0.0
 40
0.0
 40
0.0
 40
0.0
 40
0.0
 40
0.2514970587
 40
1.0
 40
1.0
 40
1.0
 40
1.0
 10
1.6030447005
 20
-22.163743694
 30
0.0
 10
1.5985640272
 20
-22.1560156756
 30
0.0
 10
1.5814051547
 20
-22.1249132867
 30
0.0
 10
1.5669085415
 20
-22.0923262254
 30
0.0
 10
1.5578408727
 20
-22.0673340123
 30
0.0
 11
1.6030447005
 21
-22.163743694
 31
0.0
 11
1.5901016052
 21
-22.1402774503
 31
0.0
 11
1.5578408727
 21
-22.0673340123
 31
0.0
  0
SPLINE
  5
474
100
AcDbEntity
  8
ASSI
100
AcDbSpline
 62
253
  6
CONTINUOUS
 70
0
 71
3
 72
11
 73
7
 74
5
 42
0.0000001
 43
0.0000001
 44
0.0000000001
 12
-0.0000010333
 22
-0.1572110393
 32
0.0
 13
0.1406188274
 23
-0.070296915
 33
0.0
 40
0.0
 40
0.0
 40
0.0
 40
0.0
 40
0.2900356228
 40
0.5500138918
 40
0.7831798501
 40
1.0
 40
1.0
 40
1.0
 40
1.0
 10
0.6675761822
 20
19.6035947046
 30
0.0
 10
0.6675760823
 20
19.5883957707
 30
0.0
 10
0.6700185401
 20
19.5594641927
 30
0.0
 10
0.6823398771
 20
19.5198973956
 30
0.0
 10
0.7029270715
 20
19.4882283035
 30
0.0
 10
0.7221592019
 20
19.4735705048
 30
0.0
 10
0.7323222003
 20
19.4684899089
 30
0.0
 11
0.6675761822
 21
19.6035947046
 31
0.0
 11
0.671879005
 21
19.5582013786
 31
0.0
 11
0.6845797645
 21
19.519353387
 31
0.0
 11
0.7050613243
 21
19.4889529381
 31
0.0
 11
0.7323222003
 21
19.4684899089
 31
0.0
  0
SPLINE
  5
475
100
AcDbEntity
  8
ASSI
100
AcDbSpline
 62
253
  6
CONTINUOUS
 70
0
 71
3
 72
11
 73
7
 74
5
 42
0.0000001
 43
0.0000001
 44
0.0000000001
 12
-0.3230275233
 22
-0.167266237
 32
0.0
 13
0.0000028942
 23
-0.3637647246
 33
0.0
 40
0.0
 40
0.0
 40
0.0
 40
0.0
 40
0.2309135441
 40
0.4895532553
 40
0.753895527
 40
1.0
 40
1.0
 40
1.0
 40
1.0
 10
2.9063753808
 20
19.1916287982
 30
0.0
 10
2.8815115707
 20
19.1787541183
 30
0.0
 10
2.8341377054
 20
19.1410577736
 30
0.0
 10
2.7794317498
 20
19.0668482831
 30
0.0
 10
2.7423017277
 20
18.9804560617
 30
0.0
 10
2.7320772675
 20
18.9184542189
 30
0.0
 10
2.7320775049
 20
18.8886128436
 30
0.0
 11
2.9063753808
 21
19.1916287982
 31
0.0
 11
2.8394571337
 21
19.1408582742
 31
0.0
 11
2.7829520056
 21
19.0656321473
 31
0.0
 11
2.7452881639
 21
18.9771568869
 31
0.0
 11
2.7320775049
 21
18.8886128436
 31
0.0
  0
SPLINE
  5
476
100
AcDbEntity
  8
ASSI
100
AcDbSpline
 62
253
  6
CONTINUOUS
 70
0
 71
3
 72
9
 73
5
 74
3
 42
0.0000001
 43
0.0000001
 44
0.0000000001
 12
-0.1162774439
 22
-0.0610413491
 32
0.0
 13
-0.0780154687
 23
-0.1056412651
 33
0.0
 40
0.0
 40
0.0
 40
0.0
 40
0.0
 40
0.2303291093
 40
1.0
 40
1.0
 40
1.0
 40
1.0
 10
0.8406613394
 20
20.2244858189
 30
0.0
 10
0.8317339794
 20
20.2197992857
 30
0.0
 10
0.794471943
 20
20.1966129656
 30
0.0
 10
0.7634961942
 20
20.1642084695
 30
0.0
 10
0.7434807824
 20
20.1371054673
 30
0.0
 11
0.8406613394
 21
20.2244858189
 31
0.0
 11
0.8149024131
 21
20.2086292787
 31
0.0
 11
0.7434807824
 21
20.1371054673
 31
0.0
  0
SPLINE
  5
477
100
AcDbEntity
  8
ASSI
100
AcDbSpline
 62
253
  6
CONTINUOUS
 70
0
 71
3
 72
9
 73
5
 74
3
 42
0.0000001
 43
0.0000001
 44
0.0000000001
 12
-0.137751897
 22
-0.1865307599
 32
0.0
 13
0.0000021084
 23
-0.2318821026
 33
0.0
 40
0.0
 40
0.0
 40
0.0
 40
0.0
 40
0.515081084
 40
1.0
 40
1.0
 40
1.0
 40
1.0
 10
0.7434807824
 20
20.1371054673
 30
0.0
 10
0.7198296503
 20
20.105079312
 30
0.0
 10
0.683269868
 20
20.0357005131
 30
0.0
 10
0.6675758414
 20
19.9583448442
 30
0.0
 10
0.6675761822
 20
19.920863505
 30
0.0
 11
0.7434807824
 21
20.1371054673
 31
0.0
 11
0.6877030085
 21
20.0314915665
 31
0.0
 11
0.6675761822
 21
19.920863505
 31
0.0
  0
SPLINE
  5
478
100
AcDbEntity
  8
ASSI
100
AcDbSpline
 62
253
  6
CONTINUOUS
 70
0
 71
3
 72
11
 73
7
 74
5
 42
0.0000001
 43
0.0000001
 44
0.0000000001
 12
-0.0000019047
 22
0.3637622627
 32
0.0
 13
0.3230249779
 23
0.1672657987
 33
0.0
 40
0.0
 40
0.0
 40
0.0
 40
0.0
 40
0.2460275742
 40
0.5103566058
 40
0.7690195998
 40
1.0
 40
1.0
 40
1.0
 40
1.0
 10
-9.8544231997
 20
25.1818656956
 30
0.0
 10
-9.8544233559
 20
25.2116975446
 30
0.0
 10
-9.8442028592
 20
25.2736878303
 30
0.0
 10
-9.8070827666
 20
25.3600747011
 30
0.0
 10
-9.7523772203
 20
25.4342953853
 30
0.0
 10
-9.7049961372
 20
25.472000777
 30
0.0
 10
-9.6801253243
 20
25.4848791508
 30
0.0
 11
-9.8544231997
 21
25.1818656956
 31
0.0
 11
-9.8412196554
 21
25.2703819052
 31
0.0
 11
-9.8035646078
 21
25.3588549672
 31
0.0
 11
-9.7470605218
 21
25.4340916727
 31
0.0
 11
-9.6801253243
 21
25.4848791508
 31
0.0
  0
SPLINE
  5
479
100
AcDbEntity
  8
ASSI
100
AcDbSpline
 62
253
  6
CONTINUOUS
 70
0
 71
3
 72
9
 73
5
 74
3
 42
0.0000001
 43
0.0000001
 44
0.0000000001
 12
-0.0000017219
 22
0.2280050728
 32
0.0
 13
0.133548538
 23
0.1848001656
 33
0.0
 40
0.0
 40
0.0
 40
0.0
 40
0.0
 40
0.4844999455
 40
1.0
 40
1.0
 40
1.0
 40
1.0
 10
-11.9189245229
 20
26.2141138575
 30
0.0
 10
-11.918924801
 20
26.2509366726
 30
0.0
 10
-11.9037479099
 20
26.3270046552
 30
0.0
 10
-11.8682823778
 20
26.3954330194
 30
0.0
 10
-11.8453342849
 20
26.4271878512
 30
0.0
 11
-11.9189245229
 21
26.2141138575
 31
0.0
 11
-11.8994558356
 21
26.3228532139
 31
0.0
 11
-11.8453342849
 21
26.4271878512
 31
0.0
  0
SPLINE
  5
47A
100
AcDbEntity
  8
ASSI
100
AcDbSpline
 62
253
  6
CONTINUOUS
 70
0
 71
3
 72
9
 73
5
 74
3
 42
0.0000001
 43
0.0000001
 44
0.0000000001
 12
0.0791590502
 22
0.1095377441
 32
0.0
 13
0.119659222
 23
0.0628199268
 33
0.0
 40
0.0
 40
0.0
 40
0.0
 40
0.0
 40
0.2690660329
 40
1.0
 40
1.0
 40
1.0
 40
1.0
 10
-11.8453342849
 20
26.4271878512
 30
0.0
 10
-11.8382346144
 20
26.4370121466
 30
0.0
 10
-11.8101791929
 20
26.4721900695
 30
0.0
 10
-11.7749936956
 20
26.502430432
 30
0.0
 10
-11.7458393657
 20
26.5177361714
 30
0.0
 11
-11.8453342849
 21
26.4271878512
 31
0.0
 11
-11.8226208997
 21
26.4555850527
 31
0.0
 11
-11.7458393657
 21
26.5177361714
 31
0.0
  0
SPLINE
  5
47B
100
AcDbEntity
  8
ASSI
100
AcDbSpline
 62
253
  6
CONTINUOUS
 70
0
 71
3
 72
9
 73
5
 74
3
 42
0.0000001
 43
0.0000001
 44
0.0000000001
 12
0.1003362716
 22
0.0483682212
 32
0.0
 13
0.0996520263
 23
-0.0497626956
 33
0.0
 40
0.0
 40
0.0
 40
0.0
 40
0.0
 40
0.5350743832
 40
1.0
 40
1.0
 40
1.0
 40
1.0
 10
-7.5341187081
 20
26.5620433248
 30
0.0
 10
-7.5162229186
 20
26.5706701902
 30
0.0
 10
-7.4798062364
 20
26.5822331492
 30
0.0
 10
-7.4412730629
 20
26.5755585259
 30
0.0
 10
-7.4258294696
 20
26.567846542
 30
0.0
 11
-7.5341187081
 21
26.5620433248
 31
0.0
 11
-7.4766456899
 21
26.5778227729
 31
0.0
 11
-7.4258294696
 21
26.567846542
 31
0.0
  0
SPLINE
  5
47C
100
AcDbEntity
  8
ASSI
100
AcDbSpline
 62
253
  6
CONTINUOUS
 70
0
 71
3
 72
9
 73
5
 74
3
 42
0.0000001
 43
0.0000001
 44
0.0000000001
 12
0.0975513207
 22
0.0463587883
 32
0.0
 13
0.0986942575
 23
-0.0438730096
 33
0.0
 40
0.0
 40
0.0
 40
0.0
 40
0.0
 40
0.5340871274
 40
1.0
 40
1.0
 40
1.0
 40
1.0
 10
-9.6368625568
 20
27.6134132625
 30
0.0
 10
-9.6194955886
 20
27.6216664732
 30
0.0
 10
-9.5842862167
 20
27.6327949173
 30
0.0
 10
-9.5469642421
 20
27.6274553759
 30
0.0
 10
-9.5316366004
 20
27.6206417093
 30
0.0
 11
-9.6368625568
 21
27.6134132625
 31
0.0
 11
-9.5812832261
 21
27.6288561133
 31
0.0
 11
-9.5316366004
 21
27.6206417093
 31
0.0
  0
SPLINE
  5
47D
100
AcDbEntity
  8
ASSI
100
AcDbSpline
 62
253
  6
CONTINUOUS
 70
0
 71
3
 72
11
 73
7
 74
5
 42
0.0000001
 43
0.0000001
 44
0.0000000001
 12
-0.0857674306
 22
-0.2202857061
 32
0.0
 13
-0.2312514524
 23
0.0490368253
 33
0.0
 40
0.0
 40
0.0
 40
0.0
 40
0.0
 40
0.2783621613
 40
0.5385359768
 40
0.776655476
 40
1.0
 40
1.0
 40
1.0
 40
1.0
 10
3.0304167697
 20
18.5413052936
 30
0.0
 10
3.0224586339
 20
18.5208655586
 30
0.0
 10
3.0018131452
 20
18.4830758068
 30
0.0
 10
2.9576398555
 20
18.4393194287
 30
0.0
 10
2.904933067
 20
18.4146309602
 30
0.0
 10
2.8672040693
 20
18.4139681091
 30
0.0
 10
2.8499878208
 20
18.4176188113
 30
0.0
 11
3.0304167697
 21
18.5413052936
 31
0.0
 11
2.9984483067
 21
18.4837896468
 31
0.0
 11
2.9541900461
 21
18.4410828373
 31
0.0
 11
2.9027822956
 21
18.4181526425
 31
0.0
 11
2.8499878208
 21
18.4176188113
 31
0.0
  0
SPLINE
  5
47E
100
AcDbEntity
  8
ASSI
100
AcDbSpline
 62
7
  6
CONTINUOUS
 70
0
 71
3
 72
10
 73
6
 74
4
 42
0.0000001
 43
0.0000001
 44
0.0000000001
 12
-0.2127160259
 22
-0.219357282
 32
0.0
 13
-0.2988271656
 23
0.0637812663
 33
0.0
 40
0.0
 40
0.0
 40
0.0
 40
0.0
 40
0.2482934291
 40
0.5043635743
 40
1.0
 40
1.0
 40
1.0
 40
1.0
 10
3.7672245739
 20
18.3850051167
 30
0.0
 10
3.7496192434
 20
18.3668501261
 30
0.0
 10
3.7097416383
 20
18.3336309276
 30
0.0
 10
3.6202723873
 20
18.2851158049
 30
0.0
 10
3.539015529
 20
18.2713770936
 30
0.0
 10
3.4896456529
 20
18.2819145332
 30
0.0
 11
3.7672245739
 21
18.3850051167
 31
0.0
 11
3.7090847922
 21
18.3362636775
 31
0.0
 11
3.6400813333
 21
18.2993761128
 31
0.0
 11
3.4896456529
 21
18.2819145332
 31
0.0
  0
SPLINE
  5
47F
100
AcDbEntity
  8
ASSI
100
AcDbSpline
 62
253
  6
CONTINUOUS
 70
0
 71
3
 72
11
 73
7
 74
5
 42
0.0000001
 43
0.0000001
 44
0.0000000001
 12
-0.2592592138
 22
-0.1251821714
 32
0.0
 13
-0.2575046934
 23
0.1287526653
 33
0.0
 40
0.0
 40
0.0
 40
0.0
 40
0.0
 40
0.2366131959
 40
0.5012536678
 40
0.765220306
 40
1.0
 40
1.0
 40
1.0
 40
1.0
 10
3.0124305353
 20
18.5701207413
 30
0.0
 10
2.9919824849
 20
18.5602474901
 30
0.0
 10
2.9453434687
 20
18.5462112611
 30
0.0
 10
2.8718080934
 20
18.5397027117
 30
0.0
 10
2.7985077525
 20
18.5468163462
 30
0.0
 10
2.752229796
 20
18.5612678727
 30
0.0
 10
2.7320775049
 20
18.5713440431
 30
0.0
 11
3.0124305353
 21
18.5701207413
 31
0.0
 11
2.9476103474
 21
18.5491737146
 31
0.0
 11
2.871753552
 21
18.5420584598
 31
0.0
 11
2.7961566677
 21
18.549834573
 31
0.0
 11
2.7320775049
 21
18.5713440431
 31
0.0
  0
SPLINE
  5
480
100
AcDbEntity
  8
ASSI
100
AcDbSpline
 62
253
  6
CONTINUOUS
 70
0
 71
3
 72
11
 73
7
 74
5
 42
0.0000001
 43
0.0000001
 44
0.0000000001
 12
-0.2592593051
 22
-0.1251819003
 32
0.0
 13
-0.257504789
 23
0.1287523945
 33
0.0
 40
0.0
 40
0.0
 40
0.0
 40
0.0
 40
0.236613166
 40
0.5012536621
 40
0.7652203297
 40
1.0
 40
1.0
 40
1.0
 40
1.0
 10
3.0124305353
 20
18.8873895417
 30
0.0
 10
2.9919824803
 20
18.8775163131
 30
0.0
 10
2.945343463
 20
18.8634801191
 30
0.0
 10
2.871808095
 20
18.8569715874
 30
0.0
 10
2.7985077606
 20
18.8640852039
 30
0.0
 10
2.7522298014
 20
18.8785366954
 30
0.0
 10
2.7320775049
 20
18.8886128436
 30
0.0
 11
3.0124305353
 21
18.8873895417
 31
0.0
 11
2.9476103487
 21
18.8664425664
 31
0.0
 11
2.8717535541
 21
18.8593273294
 31
0.0
 11
2.7961566688
 21
18.8671034246
 31
0.0
 11
2.7320775049
 21
18.8886128436
 31
0.0
  0
SPLINE
  5
481
100
AcDbEntity
  8
ASSI
100
AcDbSpline
 62
253
  6
CONTINUOUS
 70
0
 71
3
 72
11
 73
7
 74
5
 42
0.0000001
 43
0.0000001
 44
0.0000000001
 12
-0.0042751977
 22
0.2928511099
 32
0.0
 13
-0.260047887
 23
0.1347410344
 33
0.0
 40
0.0
 40
0.0
 40
0.0
 40
0.0
 40
0.2465056875
 40
0.5120768718
 40
0.771055458
 40
1.0
 40
1.0
 40
1.0
 40
1.0
 10
3.0477751979
 20
18.9477501889
 30
0.0
 10
3.0474239111
 20
18.9718133436
 30
0.0
 10
3.0385271665
 20
19.0217540434
 30
0.0
 10
3.0081376405
 20
19.0912709601
 30
0.0
 10
2.9641235691
 20
19.1509456966
 30
0.0
 10
2.9262208956
 20
19.1813460567
 30
0.0
 10
2.9063753808
 20
19.1916287982
 30
0.0
 11
3.0477751979
 21
18.9477501889
 31
0.0
 11
3.0362431676
 21
19.0190203905
 31
0.0
 11
3.0053231209
 21
19.090391608
 31
0.0
 11
2.9597205518
 21
19.1510023806
 31
0.0
 11
2.9063753808
 21
19.1916287982
 31
0.0
  0
SPLINE
  5
482
100
AcDbEntity
  8
ASSI
100
AcDbSpline
 62
253
  6
CONTINUOUS
 70
0
 71
3
 72
10
 73
6
 74
4
 42
0.0000001
 43
0.0000001
 44
0.0000000001
 12
0.0310656641
 22
-0.0510064764
 32
0.0
 13
-0.0374985269
 23
-0.0464822181
 33
0.0
 40
0.0
 40
0.0
 40
0.0
 40
0.0
 40
0.345266641
 40
0.6241284716
 40
1.0
 40
1.0
 40
1.0
 40
1.0
 10
5.2105426304
 20
19.6128543319
 30
0.0
 10
5.2141179429
 20
19.6069840536
 30
0.0
 10
5.2200387218
 20
19.5958943262
 30
0.0
 10
5.2269568701
 20
19.5776526211
 30
0.0
 10
5.226924923
 20
19.56243871
 30
0.0
 10
5.2222267135
 20
19.5566149292
 30
0.0
 11
5.2105426304
 21
19.6128543319
 31
0.0
 11
5.2201781169
 21
19.59462401
 31
0.0
 11
5.2254582657
 21
19.578828966
 31
0.0
 11
5.2222267135
 21
19.5566149292
 31
0.0
  0
SPLINE
  5
483
100
AcDbEntity
  8
ASSI
100
AcDbSpline
 62
253
  6
CONTINUOUS
 70
0
 71
3
 72
11
 73
7
 74
5
 42
0.0000001
 43
0.0000001
 44
0.0000000001
 12
0.0830519927
 22
0.043001428
 32
0.0
 13
0.0000129856
 23
0.0935240939
 33
0.0
 40
0.0
 40
0.0
 40
0.0
 40
0.0
 40
0.300708284
 40
0.5638120708
 40
0.7923304554
 40
1.0
 40
1.0
 40
1.0
 40
1.0
 10
5.2279117351
 20
19.6593474491
 30
0.0
 10
5.2362365425
 20
19.6636577443
 30
0.0
 10
5.2512913695
 20
19.6729175512
 30
0.0
 10
5.2695816073
 20
19.6898316666
 30
0.0
 10
5.2812513902
 20
19.7086425655
 30
0.0
 10
5.2840428139
 20
19.7223392508
 30
0.0
 10
5.2840437128
 20
19.7288132861
 30
0.0
 11
5.2279117351
 21
19.6593474491
 31
0.0
 11
5.2517152562
 21
19.6743248303
 31
0.0
 11
5.2694793679
 21
19.6913518182
 31
0.0
 11
5.2803675813
 21
19.709742254
 31
0.0
 11
5.2840437128
 21
19.7288132861
 31
0.0
  0
SPLINE
  5
484
100
AcDbEntity
  8
ASSI
100
AcDbSpline
 62
253
  6
CONTINUOUS
 70
0
 71
3
 72
11
 73
7
 74
5
 42
0.0000001
 43
0.0000001
 44
0.0000000001
 12
0.0830519925
 22
0.0430014281
 32
0.0
 13
0.0000129856
 23
0.0935240938
 33
0.0
 40
0.0
 40
0.0
 40
0.0
 40
0.0
 40
0.3007082848
 40
0.5638120704
 40
0.7923304547
 40
1.0
 40
1.0
 40
1.0
 40
1.0
 10
5.2279117351
 20
19.9992910439
 30
0.0
 10
5.2362365425
 20
20.0036013391
 30
0.0
 10
5.2512913695
 20
20.012861146
 30
0.0
 10
5.2695816073
 20
20.0297752614
 30
0.0
 10
5.2812513901
 20
20.0485861603
 30
0.0
 10
5.2840428139
 20
20.0622828455
 30
0.0
 10
5.2840437128
 20
20.0687568809
 30
0.0
 11
5.2279117351
 21
19.9992910439
 31
0.0
 11
5.2517152562
 21
20.0142684252
 31
0.0
 11
5.2694793678
 21
20.031295413
 31
0.0
 11
5.2803675811
 21
20.0496858488
 31
0.0
 11
5.2840437128
 21
20.0687568809
 31
0.0
  0
SPLINE
  5
485
100
AcDbEntity
  8
ASSI
100
AcDbSpline
 62
253
  6
CONTINUOUS
 70
0
 71
3
 72
11
 73
7
 74
5
 42
0.0000001
 43
0.0000001
 44
0.0000000001
 12
0.0040900125
 22
0.2942829918
 32
0.0
 13
-0.2649951358
 23
0.1280499335
 33
0.0
 40
0.0
 40
0.0
 40
0.0
 40
0.0
 40
0.2470852825
 40
0.5114851658
 40
0.7695777888
 40
1.0
 40
1.0
 40
1.0
 40
1.0
 10
5.1937797911
 20
20.0249133878
 30
0.0
 10
5.1941166517
 20
20.0491510532
 30
0.0
 10
5.1863294447
 20
20.0995433803
 30
0.0
 10
5.1563484228
 20
20.1695756283
 30
0.0
 10
5.1116461506
 20
20.2292398312
 30
0.0
 10
5.0727335624
 20
20.2589568142
 30
0.0
 10
5.052379974
 20
20.2687919971
 30
0.0
 11
5.1937797911
 21
20.0249133878
 31
0.0
 11
5.1837602643
 21
20.0969398424
 31
0.0
 11
5.1533713269
 21
20.1685766155
 31
0.0
 11
5.1072376481
 21
20.2289218323
 31
0.0
 11
5.052379974
 21
20.2687919971
 31
0.0
  0
SPLINE
  5
486
100
AcDbEntity
  8
ASSI
100
AcDbSpline
 62
7
  6
CONTINUOUS
 70
0
 71
3
 72
11
 73
7
 74
5
 42
0.0000001
 43
0.0000001
 44
0.0000000001
 12
0.2626045656
 22
-0.1313022828
 32
0.0
 13
0.0
 23
-0.2936008299
 33
0.0
 40
0.0
 40
0.0
 40
0.0
 40
0.0
 40
0.2296740836
 40
0.4882138821
 40
0.7532075651
 40
1.0
 40
1.0
 40
1.0
 40
1.0
 10
4.5282755075
 20
20.0088323179
 30
0.0
 10
4.5483799951
 20
19.9987800741
 30
0.0
 10
4.5867980573
 20
19.9687273
 30
0.0
 10
4.6311604175
 20
19.9090586142
 30
0.0
 10
4.6613424126
 20
19.8392797513
 30
0.0
 10
4.6696753246
 20
19.7891065299
 30
0.0
 10
4.6696753246
 20
19.7649537086
 30
0.0
 11
4.5282755075
 21
20.0088323179
 31
0.0
 11
4.5823879903
 21
19.9685957492
 31
0.0
 11
4.6282628892
 21
19.9081189592
 31
0.0
 11
4.6589136324
 21
19.8366085406
 31
0.0
 11
4.6696753246
 21
19.7649537086
 31
0.0
  0
SPLINE
  5
487
100
AcDbEntity
  8
ASSI
100
AcDbSpline
 62
253
  6
CONTINUOUS
 70
0
 71
3
 72
11
 73
7
 74
5
 42
0.0000001
 43
0.0000001
 44
0.0000000001
 12
-0.0860674549
 22
0.0430337276
 32
0.0
 13
-0.0000391052
 23
0.096226332
 33
0.0
 40
0.0
 40
0.0
 40
0.0
 40
0.0
 40
0.301896701
 40
0.5654819851
 40
0.7935260419
 40
1.0
 40
1.0
 40
1.0
 40
1.0
 10
0.6675761822
 20
19.6035947046
 30
0.0
 10
0.658915022
 20
19.6079252847
 30
0.0
 10
0.6432456244
 20
19.6172601567
 30
0.0
 10
0.6241595332
 20
19.6344299802
 30
0.0
 10
0.6119439859
 20
19.6536169418
 30
0.0
 10
0.6090002957
 20
19.6676555757
 30
0.0
 10
0.6089976043
 20
19.6742783196
 30
0.0
 11
0.6675761822
 21
19.6035947046
 31
0.0
 11
0.6427735288
 21
19.6187193525
 31
0.0
 11
0.6242309083
 21
19.6360253042
 31
0.0
 11
0.6128499708
 21
19.6547871429
 31
0.0
 11
0.6089976043
 21
19.6742783196
 31
0.0
  0
SPLINE
  5
488
100
AcDbEntity
  8
ASSI
100
AcDbSpline
 62
253
  6
CONTINUOUS
 70
0
 71
3
 72
11
 73
7
 74
5
 42
0.0000001
 43
0.0000001
 44
0.0000000001
 12
-0.0860645865
 22
0.0430322933
 32
0.0
 13
-0.0000454116
 23
0.0962231223
 33
0.0
 40
0.0
 40
0.0
 40
0.0
 40
0.0
 40
0.3018950576
 40
0.5654806419
 40
0.7935260005
 40
1.0
 40
1.0
 40
1.0
 40
1.0
 10
0.6675761822
 20
19.920863505
 30
0.0
 10
0.6589153578
 20
19.9251939172
 30
0.0
 10
0.6432465025
 20
19.9345284099
 30
0.0
 10
0.6241608495
 20
19.9516974011
 30
0.0
 10
0.6119451172
 20
19.9708833465
 30
0.0
 10
0.6090007312
 20
19.9849213417
 30
0.0
 10
0.6089976057
 20
19.991543866
 30
0.0
 11
0.6675761822
 21
19.920863505
 31
0.0
 11
0.6427744349
 21
19.9359874753
 31
0.0
 11
0.6242321579
 21
19.9532925986
 31
0.0
 11
0.6128509235
 21
19.9720535484
 31
0.0
 11
0.6089976057
 21
19.991543866
 31
0.0
  0
SPLINE
  5
489
100
AcDbEntity
  8
ASSI
100
AcDbSpline
 62
253
  6
CONTINUOUS
 70
0
 71
3
 72
9
 73
5
 74
3
 42
0.0000001
 43
0.0000001
 44
0.0000000001
 12
-0.0857124956
 22
0.041354812
 32
0.0
 13
-0.0838393409
 23
-0.0450312924
 33
0.0
 40
0.0
 40
0.0
 40
0.0
 40
0.0
 40
0.5373176054
 40
1.0
 40
1.0
 40
1.0
 40
1.0
 10
0.8406613394
 20
20.2244858189
 30
0.0
 10
0.8253097285
 20
20.2318927084
 30
0.0
 10
0.7941555351
 20
20.2417803224
 30
0.0
 10
0.7611901565
 20
20.2355497444
 30
0.0
 10
0.7482598275
 20
20.2286046823
 30
0.0
 11
0.8406613394
 21
20.2244858189
 31
0.0
 11
0.7913074276
 21
20.2378648
 31
0.0
 11
0.7482598275
 21
20.2286046823
 31
0.0
  0
SPLINE
  5
48A
100
AcDbEntity
  8
ASSI
100
AcDbSpline
 62
253
  6
CONTINUOUS
 70
0
 71
3
 72
9
 73
5
 74
3
 42
0.0000001
 43
0.0000001
 44
0.0000000001
 12
-0.0787764132
 22
0.0407573394
 32
0.0
 13
-0.0806659325
 23
-0.0368767044
 33
0.0
 40
0.0
 40
0.0
 40
0.0
 40
0.0
 40
0.5348396885
 40
1.0
 40
1.0
 40
1.0
 40
1.0
 10
2.9496381483
 20
21.32016291
 30
0.0
 10
2.9355938975
 20
21.3274291242
 30
0.0
 10
2.9068822893
 20
21.3374540123
 30
0.0
 10
2.8760645144
 20
21.3331451822
 30
0.0
 10
2.8635569843
 20
21.3274273225
 30
0.0
 11
2.9496381483
 21
21.32016291
 31
0.0
 11
2.904279206
 21
21.3340523301
 31
0.0
 11
2.8635569843
 21
21.3274273225
 31
0.0
  0
SPLINE
  5
48B
100
AcDbEntity
  8
ASSI
100
AcDbSpline
 62
7
  6
CONTINUOUS
 70
0
 71
3
 72
10
 73
6
 74
4
 42
0.0000001
 43
0.0000001
 44
0.0000000001
 12
-0.2127740416
 22
-0.2194171091
 32
0.0
 13
-0.2989126536
 23
0.0637799818
 33
0.0
 40
0.0
 40
0.0
 40
0.0
 40
0.0
 40
0.2480868159
 40
0.5042334556
 40
1.0
 40
1.0
 40
1.0
 40
1.0
 10
-8.8192761313
 20
24.6782554692
 30
0.0
 10
-8.8368716094
 20
24.6601106386
 30
0.0
 10
-8.8767514219
 20
24.6268970653
 30
0.0
 10
-8.9662334464
 20
24.5783322821
 30
0.0
 10
-9.0475458648
 20
24.5646683555
 30
0.0
 10
-9.0969428292
 20
24.5752083492
 30
0.0
 11
-8.8192761313
 21
24.6782554692
 31
0.0
 11
-8.8773824308
 21
24.6295401787
 31
0.0
 11
-8.9464199074
 21
24.5926213924
 31
0.0
 11
-9.0969428292
 21
24.5752083492
 31
0.0
  0
SPLINE
  5
48C
100
AcDbEntity
  8
ASSI
100
AcDbSpline
 62
253
  6
CONTINUOUS
 70
0
 71
3
 72
11
 73
7
 74
5
 42
0.0000001
 43
0.0000001
 44
0.0000000001
 12
0.257504789
 22
-0.1287523945
 32
0.0
 13
0.2592593051
 23
0.1251819003
 33
0.0
 40
0.0
 40
0.0
 40
0.0
 40
0.0
 40
0.2347796703
 40
0.4987463379
 40
0.763386834
 40
1.0
 40
1.0
 40
1.0
 40
1.0
 10
-9.8544232002
 20
24.8645943958
 30
0.0
 10
-9.8342709037
 20
24.8545182475
 30
0.0
 10
-9.7879929446
 20
24.8400667561
 30
0.0
 10
-9.7146926101
 20
24.8329531396
 30
0.0
 10
-9.6411572421
 20
24.8394616713
 30
0.0
 10
-9.5945182249
 20
24.8534978653
 30
0.0
 10
-9.5740701699
 20
24.8633710939
 30
0.0
 11
-9.8544232002
 21
24.8645943958
 31
0.0
 11
-9.7903440363
 21
24.8430849767
 31
0.0
 11
-9.7147471511
 21
24.8353088816
 31
0.0
 11
-9.6388903565
 21
24.8424241186
 31
0.0
 11
-9.5740701699
 21
24.8633710939
 31
0.0
  0
SPLINE
  5
48D
100
AcDbEntity
  8
ASSI
100
AcDbSpline
 62
253
  6
CONTINUOUS
 70
0
 71
3
 72
11
 73
7
 74
5
 42
0.0000001
 43
0.0000001
 44
0.0000000001
 12
0.2575047889
 22
-0.1287523949
 32
0.0
 13
0.259259305
 23
0.1251819007
 33
0.0
 40
0.0
 40
0.0
 40
0.0
 40
0.0
 40
0.2347796713
 40
0.4987463397
 40
0.763386835
 40
1.0
 40
1.0
 40
1.0
 40
1.0
 10
-9.8544232002
 20
25.1818631962
 30
0.0
 10
-9.8342709036
 20
25.1717870478
 30
0.0
 10
-9.7879929443
 20
25.1573355563
 30
0.0
 10
-9.7146926098
 20
25.1502219398
 30
0.0
 10
-9.6411572419
 20
25.1567304716
 30
0.0
 10
-9.5945182248
 20
25.1707666657
 30
0.0
 10
-9.5740701699
 20
25.1806398942
 30
0.0
 11
-9.8544232002
 21
25.1818631962
 31
0.0
 11
-9.790344036
 21
25.160353777
 31
0.0
 11
-9.7147471506
 21
25.1525776819
 31
0.0
 11
-9.6388903562
 21
25.159692919
 31
0.0
 11
-9.5740701699
 21
25.1806398942
 31
0.0
  0
SPLINE
  5
48E
100
AcDbEntity
  8
ASSI
100
AcDbSpline
 62
253
  6
CONTINUOUS
 70
0
 71
3
 72
11
 73
7
 74
5
 42
0.0000001
 43
0.0000001
 44
0.0000000001
 12
0.2600478871
 22
-0.1347410343
 32
0.0
 13
0.0042751974
 23
-0.2928511099
 33
0.0
 40
0.0
 40
0.0
 40
0.0
 40
0.0
 40
0.2289445384
 40
0.4879231217
 40
0.7534943086
 40
1.0
 40
1.0
 40
1.0
 40
1.0
 10
-9.6801253243
 20
25.4848791508
 30
0.0
 10
-9.6602798098
 20
25.4745964095
 30
0.0
 10
-9.6223771367
 20
25.44419605
 30
0.0
 10
-9.5783630653
 20
25.3845213139
 30
0.0
 10
-9.5479735388
 20
25.315004397
 30
0.0
 10
-9.5390767941
 20
25.2650636965
 30
0.0
 10
-9.5387255072
 20
25.2410005414
 30
0.0
 11
-9.6801253243
 21
25.4848791508
 31
0.0
 11
-9.626780154
 21
25.444252734
 31
0.0
 11
-9.5811775852
 21
25.3836419623
 31
0.0
 11
-9.5502575379
 21
25.3122707442
 31
0.0
 11
-9.5387255072
 21
25.2410005414
 31
0.0
  0
SPLINE
  5
48F
100
AcDbEntity
  8
ASSI
100
AcDbSpline
 62
7
  6
CONTINUOUS
 70
0
 71
3
 72
11
 73
7
 74
5
 42
0.0000001
 43
0.0000001
 44
0.0000000001
 12
-0.0
 22
0.2936008299
 32
0.0
 13
-0.2626045656
 23
0.1313022828
 33
0.0
 40
0.0
 40
0.0
 40
0.0
 40
0.0
 40
0.2467924349
 40
0.5117861179
 40
0.7703259164
 40
1.0
 40
1.0
 40
1.0
 40
1.0
 10
-7.9168253806
 20
26.0582040612
 30
0.0
 10
-7.9168253806
 20
26.0823568824
 30
0.0
 10
-7.9251582925
 20
26.1325301038
 30
0.0
 10
-7.9553402876
 20
26.2023089668
 30
0.0
 10
-7.9997026478
 20
26.2619776525
 30
0.0
 10
-8.03812071
 20
26.2920304267
 30
0.0
 10
-8.0582251976
 20
26.3020826705
 30
0.0
 11
-7.9168253806
 21
26.0582040612
 31
0.0
 11
-7.9275870728
 21
26.1298588932
 31
0.0
 11
-7.958237816
 21
26.2013693118
 31
0.0
 11
-8.0041127148
 21
26.2618461018
 31
0.0
 11
-8.0582251976
 21
26.3020826705
 31
0.0
  0
LINE
  5
490
100
AcDbEntity
  8
RACCORDO
100
AcDbLine
 62
253
  6
CONTINUOUS
 10
-2.9311625418
 20
9.9552966327
 11
-2.9399724884
 21
9.9591945959
  0
SPLINE
  5
491
100
AcDbEntity
  8
RACCORDO
100
AcDbSpline
 62
253
  6
CONTINUOUS
 70
0
 71
3
 72
11
 73
7
 74
5
 42
0.0000001
 43
0.0000001
 44
0.0000000001
 12
0.0499220832
 22
1.3900563531
 32
0.0
 13
1.2160901148
 23
0.6751842058
 33
0.0
 40
0.0
 40
0.0
 40
0.0
 40
0.0
 40
0.247105507
 40
0.5101365913
 40
0.7676577427
 40
1.0
 40
1.0
 40
1.0
 40
1.0
 10
-15.3130391413
 20
21.0184421494
 30
0.0
 10
-15.3089271341
 20
21.1329390093
 30
0.0
 10
-15.264540246
 20
21.3684814124
 30
0.0
 10
-15.1192319084
 20
21.6963899035
 30
0.0
 10
-14.9099635816
 20
21.9792315703
 30
0.0
 10
-14.7309309478
 20
22.1252419218
 30
0.0
 10
-14.636747907
 20
22.177533196
 30
0.0
 11
-15.3130391413
 21
21.0184421494
 31
0.0
 11
-15.2536836825
 21
21.3569903519
 31
0.0
 11
-15.10640485
 21
21.6919011257
 31
0.0
 11
-14.8911163191
 21
21.9781839706
 31
0.0
 11
-14.636747907
 21
22.177533196
 31
0.0
  0
SPLINE
  5
492
100
AcDbEntity
  8
ASSI
100
AcDbSpline
 62
253
  6
CONTINUOUS
 70
0
 71
3
 72
11
 73
7
 74
5
 42
0.0000001
 43
0.0000001
 44
0.0000000001
 12
0.2649951355
 22
-0.1280499339
 32
0.0
 13
-0.0040900118
 23
-0.2942829917
 33
0.0
 40
0.0
 40
0.0
 40
0.0
 40
0.0
 40
0.2304222131
 40
0.4885148378
 40
0.7529147197
 40
1.0
 40
1.0
 40
1.0
 40
1.0
 10
-7.5341207311
 20
26.5620423497
 30
0.0
 10
-7.5137671426
 20
26.5522071666
 30
0.0
 10
-7.4748545542
 20
26.5224901833
 30
0.0
 10
-7.430152282
 20
26.4628259801
 30
0.0
 10
-7.4001712604
 20
26.3927937323
 30
0.0
 10
-7.3923840534
 20
26.3424014055
 30
0.0
 10
-7.392720914
 20
26.3181637403
 30
0.0
 11
-7.5341207311
 21
26.5620423497
 31
0.0
 11
-7.4792630567
 21
26.5221721843
 31
0.0
 11
-7.4331293779
 21
26.461826967
 31
0.0
 11
-7.4027404407
 21
26.3901901943
 31
0.0
 11
-7.392720914
 21
26.3181637403
 31
0.0
  0
LINE
  5
493
100
AcDbEntity
  8
RACCORDO
100
AcDbLine
 62
253
  6
CONTINUOUS
 10
-15.3177210226
 20
20.8871036827
 11
-15.3130391413
 21
21.0184421494
  0
SPLINE
  5
494
100
AcDbEntity
  8
ASSI
100
AcDbSpline
 62
7
  6
CONTINUOUS
 70
0
 71
3
 72
9
 73
5
 74
3
 42
0.0000001
 43
0.0000001
 44
0.0000000001
 12
-0.0803798402
 22
0.0401899201
 32
0.0
 13
-0.0815990614
 23
-0.0376529093
 33
0.0
 40
0.0
 40
0.0
 40
0.0
 40
0.0
 40
0.5356764828
 40
1.0
 40
1.0
 40
1.0
 40
1.0
 10
-10.1795886195
 20
27.3627643814
 30
0.0
 10
-10.1939411496
 20
27.3699406465
 30
0.0
 10
-10.2231132555
 20
27.3797483256
 30
0.0
 10
-10.2542948835
 20
27.375277684
 30
0.0
 10
-10.2669243379
 20
27.3694499736
 30
0.0
 11
-10.1795886195
 21
27.3627643814
 31
0.0
 11
-10.2257714027
 21
27.3763509785
 31
0.0
 11
-10.2669243379
 21
27.3694499736
 31
0.0
  0
SPLINE
  5
495
100
AcDbEntity
  8
ASSI
100
AcDbSpline
 62
253
  6
CONTINUOUS
 70
0
 71
3
 72
9
 73
5
 74
3
 42
0.0000001
 43
0.0000001
 44
0.0000000001
 12
0.0533980009
 22
0.1429693515
 32
0.0
 13
-0.0421136761
 23
0.1466902187
 33
0.0
 40
0.0
 40
0.0
 40
0.0
 40
0.0
 40
0.2544748176
 40
1.0
 40
1.0
 40
1.0
 40
1.0
 10
5.2105426304
 20
-21.6117498075
 30
0.0
 10
5.2150721126
 20
-21.599622441
 30
0.0
 10
5.2291096358
 20
-21.5506853405
 30
0.0
 10
5.2282125723
 20
-21.4971466857
 30
0.0
 10
5.2177469703
 20
-21.460692935
 30
0.0
 11
5.2105426304
 21
-21.6117498075
 31
0.0
 11
5.2212493794
 21
-21.5744179367
 31
0.0
 11
5.2177469703
 21
-21.460692935
 31
0.0
  0
SPLINE
  5
496
100
AcDbEntity
  8
ASSI
100
AcDbSpline
 62
253
  6
CONTINUOUS
 70
0
 71
3
 72
9
 73
5
 74
3
 42
0.0000001
 43
0.0000001
 44
0.0000000001
 12
-0.0313295235
 22
0.1091268938
 32
0.0
 13
-0.0924413689
 23
0.0659151827
 33
0.0
 40
0.0
 40
0.0
 40
0.0
 40
0.0
 40
0.518651304
 40
1.0
 40
1.0
 40
1.0
 40
1.0
 10
5.2177469703
 20
-21.460692935
 30
0.0
 10
5.2123306042
 20
-21.4418266664
 30
0.0
 10
5.1967781397
 20
-21.4065974987
 30
0.0
 10
5.1702058564
 20
-21.3783175983
 30
0.0
 10
5.1553736789
 20
-21.3677415359
 30
0.0
 11
5.2177469703
 21
-21.460692935
 31
0.0
 11
5.19323367
 21
-21.407152706
 31
0.0
 11
5.1553736789
 21
-21.3677415359
 31
0.0
  0
SPLINE
  5
497
100
AcDbEntity
  8
ASSI
100
AcDbSpline
 62
253
  6
CONTINUOUS
 70
0
 71
3
 72
11
 73
7
 74
5
 42
0.0000001
 43
0.0000001
 44
0.0000000001
 12
0.0830519921
 22
0.0430015322
 32
0.0
 13
0.0000129856
 23
0.0935241412
 33
0.0
 40
0.0
 40
0.0
 40
0.0
 40
0.0
 40
0.3007082987
 40
0.5638121155
 40
0.79233051
 40
1.0
 40
1.0
 40
1.0
 40
1.0
 10
5.2279117351
 20
-21.6402566903
 30
0.0
 10
5.2362365428
 20
-21.6359463845
 30
0.0
 10
5.25129137
 20
-21.6266865585
 30
0.0
 10
5.269581607
 20
-21.6097724219
 30
0.0
 10
5.2812513892
 20
-21.5909615109
 30
0.0
 10
5.2840428139
 20
-21.5772648205
 30
0.0
 10
5.2840437128
 20
-21.5707907835
 30
0.0
 11
5.2279117351
 21
-21.6402566903
 31
0.0
 11
5.2517152561
 21
-21.6252792796
 31
0.0
 11
5.2694793681
 21
-21.6082522699
 31
0.0
 11
5.2803675815
 21
-21.5898618205
 31
0.0
 11
5.2840437128
 21
-21.5707907835
 31
0.0
  0
SPLINE
  5
498
100
AcDbEntity
  8
ASSI
100
AcDbSpline
 62
253
  6
CONTINUOUS
 70
0
 71
3
 72
11
 73
7
 74
5
 42
0.0000001
 43
0.0000001
 44
0.0000000001
 12
0.0830519927
 22
0.043001428
 32
0.0
 13
0.0000129856
 23
0.0935240939
 33
0.0
 40
0.0
 40
0.0
 40
0.0
 40
0.0
 40
0.300708284
 40
0.5638120708
 40
0.7923304554
 40
1.0
 40
1.0
 40
1.0
 40
1.0
 10
5.2279117351
 20
-21.9802002852
 30
0.0
 10
5.2362365425
 20
-21.97588999
 30
0.0
 10
5.2512913695
 20
-21.966630183
 30
0.0
 10
5.2695816073
 20
-21.9497160676
 30
0.0
 10
5.2812513902
 20
-21.9309051687
 30
0.0
 10
5.2840428139
 20
-21.9172084835
 30
0.0
 10
5.2840437128
 20
-21.9107344481
 30
0.0
 11
5.2279117351
 21
-21.9802002852
 31
0.0
 11
5.2517152562
 21
-21.9652229039
 31
0.0
 11
5.2694793679
 21
-21.948195916
 31
0.0
 11
5.2803675813
 21
-21.9298054802
 31
0.0
 11
5.2840437128
 21
-21.9107344481
 31
0.0
  0
SPLINE
  5
499
100
AcDbEntity
  8
ASSI
100
AcDbSpline
 62
253
  6
CONTINUOUS
 70
0
 71
3
 72
11
 73
7
 74
5
 42
0.0000001
 43
0.0000001
 44
0.0000000001
 12
0.0017322571
 22
-0.1228448832
 32
0.0
 13
-0.1081510858
 23
-0.0582855788
 33
0.0
 40
0.0
 40
0.0
 40
0.0
 40
0.0
 40
0.2880667099
 40
0.5480551474
 40
0.7818193646
 40
1.0
 40
1.0
 40
1.0
 40
1.0
 10
5.1937797911
 20
-22.0411672917
 30
0.0
 10
5.1939461263
 20
-22.0529631321
 30
0.0
 10
5.1923233
 20
-22.0755091844
 30
0.0
 10
5.1832258792
 20
-22.1065300342
 30
0.0
 10
5.1675111934
 20
-22.1315995479
 30
0.0
 10
5.1527404793
 20
-22.143475713
 30
0.0
 10
5.1448749884
 20
-22.1477146412
 30
0.0
 11
5.1937797911
 21
-22.0411672917
 31
0.0
 11
5.1909266312
 21
-22.0764431354
 31
0.0
 11
5.1814919139
 21
-22.1069593722
 31
0.0
 11
5.1658844174
 21
-22.1310678991
 31
0.0
 11
5.1448749884
 21
-22.1477146412
 31
0.0
  0
SPLINE
  5
49A
100
AcDbEntity
  8
ASSI
100
AcDbSpline
 62
7
  6
CONTINUOUS
 70
0
 71
3
 72
11
 73
7
 74
5
 42
0.0000001
 43
0.0000001
 44
0.0000000001
 12
0.3127343168
 22
-0.0698517
 32
0.0
 13
0.3197544845
 23
-0.0209542967
 33
0.0
 40
0.0
 40
0.0
 40
0.0
 40
0.0
 40
0.2600258425
 40
0.5362385583
 40
0.7904459356
 40
1.0
 40
1.0
 40
1.0
 40
1.0
 10
3.4535646269
 20
-21.7514070387
 30
0.0
 10
3.4806709616
 20
-21.7574614544
 30
0.0
 10
3.5361884632
 20
-21.771581874
 30
0.0
 10
3.618265268
 20
-21.791420693
 30
0.0
 10
3.6957229879
 20
-21.8071897418
 30
0.0
 10
3.7448892899
 20
-21.814007957
 30
0.0
 10
3.7672245739
 20
-21.815471643
 30
0.0
 11
3.4535646269
 21
-21.7514070387
 31
0.0
 11
3.5345510369
 21
-21.7710000319
 31
0.0
 11
3.6206710631
 21
-21.7914281394
 31
0.0
 11
3.7005838633
 21
-21.8072205056
 31
0.0
 11
3.7672245739
 21
-21.815471643
 31
0.0
  0
SPLINE
  5
49B
100
AcDbEntity
  8
ASSI
100
AcDbSpline
 62
253
  6
CONTINUOUS
 70
0
 71
3
 72
11
 73
7
 74
5
 42
0.0000001
 43
0.0000001
 44
0.0000000001
 12
0.250781152
 22
-0.1310694383
 32
0.0
 13
0.1497892018
 23
-0.2400699458
 33
0.0
 40
0.0
 40
0.0
 40
0.0
 40
0.0
 40
0.2433257346
 40
0.5160727117
 40
0.7803776914
 40
1.0
 40
1.0
 40
1.0
 40
1.0
 10
2.8207744174
 20
-22.4967202048
 30
0.0
 10
2.8411149201
 20
-22.5073510605
 30
0.0
 10
2.8822565823
 20
-22.5336961789
 30
0.0
 10
2.9397793539
 20
-22.5798058812
 30
0.0
 10
2.9907143926
 20
-22.6299235143
 30
0.0
 10
3.0194510862
 20
-22.6657239405
 30
0.0
 10
3.0304167697
 20
-22.6832988457
 30
0.0
 11
2.8207744174
 21
-22.4967202048
 31
0.0
 11
2.8792216821
 21
-22.5331163246
 31
0.0
 11
2.939515518
 21
-22.5812947675
 31
0.0
 11
2.992577143
 21
-22.6340010343
 31
0.0
 11
3.0304167697
 21
-22.6832988457
 31
0.0
  0
SPLINE
  5
49C
100
AcDbEntity
  8
ASSI
100
AcDbSpline
 62
253
  6
CONTINUOUS
 70
0
 71
3
 72
11
 73
7
 74
5
 42
0.0000001
 43
0.0000001
 44
0.0000000001
 12
0.257504789
 22
-0.1287523946
 32
0.0
 13
0.2592593051
 23
0.1251819004
 33
0.0
 40
0.0
 40
0.0
 40
0.0
 40
0.0
 40
0.2347796704
 40
0.4987463381
 40
0.7633868342
 40
1.0
 40
1.0
 40
1.0
 40
1.0
 10
2.7320775049
 20
-22.7282600962
 30
0.0
 10
2.7522298014
 20
-22.7383362444
 30
0.0
 10
2.7985077606
 20
-22.7527877359
 30
0.0
 10
2.871808095
 20
-22.7599013524
 30
0.0
 10
2.945343463
 20
-22.7533928207
 30
0.0
 10
2.9919824803
 20
-22.7393566267
 30
0.0
 10
3.0124305353
 20
-22.7294833981
 30
0.0
 11
2.7320775049
 21
-22.7282600962
 31
0.0
 11
2.7961566689
 21
-22.7497695152
 31
0.0
 11
2.8717535541
 21
-22.7575456104
 31
0.0
 11
2.9476103487
 21
-22.7504303733
 31
0.0
 11
3.0124305353
 21
-22.7294833981
 31
0.0
  0
SPLINE
  5
49D
100
AcDbEntity
  8
ASSI
100
AcDbSpline
 62
253
  6
CONTINUOUS
 70
0
 71
3
 72
11
 73
7
 74
5
 42
0.0000001
 43
0.0000001
 44
0.0000000001
 12
0.257504789
 22
-0.1287523945
 32
0.0
 13
0.2592593051
 23
0.1251819003
 33
0.0
 40
0.0
 40
0.0
 40
0.0
 40
0.0
 40
0.2347796703
 40
0.4987463379
 40
0.763386834
 40
1.0
 40
1.0
 40
1.0
 40
1.0
 10
2.7320775049
 20
-23.0455288965
 30
0.0
 10
2.7522298014
 20
-23.0556050448
 30
0.0
 10
2.7985077606
 20
-23.0700565363
 30
0.0
 10
2.871808095
 20
-23.0771701527
 30
0.0
 10
2.945343463
 20
-23.0706616211
 30
0.0
 10
2.9919824803
 20
-23.056625427
 30
0.0
 10
3.0124305353
 20
-23.0467521984
 30
0.0
 11
2.7320775049
 21
-23.0455288965
 31
0.0
 11
2.7961566688
 21
-23.0670383156
 31
0.0
 11
2.8717535541
 21
-23.0748144107
 31
0.0
 11
2.9476103487
 21
-23.0676991737
 31
0.0
 11
3.0124305353
 21
-23.0467521984
 31
0.0
  0
SPLINE
  5
49E
100
AcDbEntity
  8
ASSI
100
AcDbSpline
 62
253
  6
CONTINUOUS
 70
0
 71
3
 72
11
 73
7
 74
5
 42
0.0000001
 43
0.0000001
 44
0.0000000001
 12
0.4026003488
 22
0.1952390652
 32
0.0
 13
0.4002143527
 23
-0.2000844956
 33
0.0
 40
0.0
 40
0.0
 40
0.0
 40
0.0
 40
0.27852181
 40
0.5344491108
 40
0.7722103202
 40
1.0
 40
1.0
 40
1.0
 40
1.0
 10
1.8686746431
 20
26.4519588126
 30
0.0
 10
1.9060523024
 20
26.4700849252
 30
0.0
 10
1.9807567394
 20
26.4992804118
 30
0.0
 10
2.095009179
 20
26.519603759
 30
0.0
 10
2.2035189633
 20
26.5133643011
 30
0.0
 10
2.2703130096
 20
26.4909377303
 30
0.0
 10
2.3007012427
 20
26.4757453359
 30
0.0
 11
1.8686746431
 21
26.4519588126
 31
0.0
 11
1.9851017963
 21
26.4964057063
 31
0.0
 11
2.0980212192
 21
26.5154427671
 31
0.0
 11
2.2041776566
 21
26.508478795
 31
0.0
 11
2.3007012427
 21
26.4757453359
 31
0.0
  0
SPLINE
  5
49F
100
AcDbEntity
  8
ASSI
100
AcDbSpline
 62
253
  6
CONTINUOUS
 70
0
 71
3
 72
11
 73
7
 74
5
 42
0.0000001
 43
0.0000001
 44
0.0000000001
 12
0.1595996113
 22
0.0813941417
 32
0.0
 13
0.0001015022
 23
0.1791564454
 33
0.0
 40
0.0
 40
0.0
 40
0.0
 40
0.0
 40
0.3017267301
 40
0.5645973623
 40
0.7926900064
 40
1.0
 40
1.0
 40
1.0
 40
1.0
 10
4.2263513204
 20
23.4000993166
 30
0.0
 10
4.2424031434
 20
23.4082855793
 30
0.0
 10
4.2714136783
 20
23.4258441892
 30
0.0
 10
4.3066066383
 20
23.4581037983
 30
0.0
 10
4.3291407254
 20
23.4939642122
 30
0.0
 10
4.3345025137
 20
23.5201642744
 30
0.0
 10
4.3345095278
 20
23.5325445816
 30
0.0
 11
4.2263513204
 21
23.4000993166
 31
0.0
 11
4.2722837743
 21
23.4286000698
 31
0.0
 11
4.3064440297
 21
23.461019411
 31
0.0
 11
4.327426791
 21
23.4960852435
 31
0.0
 11
4.3345095278
 21
23.5325445816
 31
0.0
  0
SPLINE
  5
4A0
100
AcDbEntity
  8
ASSI
100
AcDbSpline
 62
253
  6
CONTINUOUS
 70
0
 71
3
 72
11
 73
7
 74
5
 42
0.0000001
 43
0.0000001
 44
0.0000000001
 12
0.1595996113
 22
0.0813941417
 32
0.0
 13
0.0001015022
 23
0.1791564454
 33
0.0
 40
0.0
 40
0.0
 40
0.0
 40
0.0
 40
0.3017267301
 40
0.5645973623
 40
0.7926900064
 40
1.0
 40
1.0
 40
1.0
 40
1.0
 10
-1.3828049952
 20
26.2046774744
 30
0.0
 10
-1.3667531723
 20
26.2128637371
 30
0.0
 10
-1.3377426374
 20
26.2304223471
 30
0.0
 10
-1.3025496774
 20
26.2626819561
 30
0.0
 10
-1.2800155902
 20
26.2985423701
 30
0.0
 10
-1.274653802
 20
26.3247424322
 30
0.0
 10
-1.2746467878
 20
26.3371227394
 30
0.0
 11
-1.3828049952
 21
26.2046774744
 31
0.0
 11
-1.3368725413
 21
26.2331782276
 31
0.0
 11
-1.302712286
 21
26.2655975688
 31
0.0
 11
-1.2817295246
 21
26.3006634013
 31
0.0
 11
-1.2746467878
 21
26.3371227394
 31
0.0
  0
SPLINE
  5
4A1
100
AcDbEntity
  8
ASSI
100
AcDbSpline
 62
253
  6
CONTINUOUS
 70
0
 71
3
 72
11
 73
7
 74
5
 42
0.0000001
 43
0.0000001
 44
0.0000000001
 12
0.3312438285
 22
-0.1600625469
 32
0.0
 13
-0.0051123801
 23
-0.3678537161
 33
0.0
 40
0.0
 40
0.0
 40
0.0
 40
0.0
 40
0.2304221291
 40
0.4885147234
 40
0.7529146663
 40
1.0
 40
1.0
 40
1.0
 40
1.0
 10
-1.559625886
 20
26.5094894376
 30
0.0
 10
-1.5341839166
 20
26.4971954533
 30
0.0
 10
-1.4855432075
 20
26.4600492239
 30
0.0
 10
-1.4296653772
 20
26.3854689812
 30
0.0
 10
-1.3921890793
 20
26.2979286776
 30
0.0
 10
-1.3824550472
 20
26.2349382633
 30
0.0
 10
-1.3828761119
 20
26.2046411772
 30
0.0
 11
-1.559625886
 21
26.5094894376
 31
0.0
 11
-1.4910538363
 21
26.4596517339
 31
0.0
 11
-1.433386749
 21
26.384220226
 31
0.0
 11
-1.3954005522
 21
26.2946742538
 31
0.0
 11
-1.3828761119
 21
26.2046411772
 31
0.0
  0
SPLINE
  5
4A2
100
AcDbEntity
  8
ASSI
100
AcDbSpline
 62
253
  6
CONTINUOUS
 70
0
 71
3
 72
9
 73
5
 74
3
 42
0.0000001
 43
0.0000001
 44
0.0000000001
 12
-0.0987551695
 22
0.051093948
 32
0.0
 13
-0.1009595448
 23
-0.0465869654
 33
0.0
 40
0.0
 40
0.0
 40
0.0
 40
0.0
 40
0.5348831908
 40
1.0
 40
1.0
 40
1.0
 40
1.0
 10
-1.7514634343
 20
26.6054082117
 30
0.0
 10
-1.7690709277
 20
26.6145179763
 30
0.0
 10
-1.8050776775
 20
26.6270766481
 30
0.0
 10
-1.8437128624
 20
26.6215734412
 30
0.0
 10
-1.8593655229
 20
26.6143506476
 30
0.0
 11
-1.7514634343
 21
26.6054082117
 31
0.0
 11
-1.8083417335
 21
26.6227853172
 31
0.0
 11
-1.8593655229
 21
26.6143506476
 31
0.0
  0
SPLINE
  5
4A3
100
AcDbEntity
  8
ASSI
100
AcDbSpline
 62
253
  6
CONTINUOUS
 70
0
 71
3
 72
9
 73
5
 74
3
 42
0.0000001
 43
0.0000001
 44
0.0000000001
 12
-0.1068732818
 22
0.0519357288
 32
0.0
 13
-0.1045970371
 23
-0.056379767
 33
0.0
 40
0.0
 40
0.0
 40
0.0
 40
0.0
 40
0.5372366612
 40
1.0
 40
1.0
 40
1.0
 40
1.0
 10
-6.0063862783
 20
24.6239626087
 30
0.0
 10
-6.0255250266
 20
24.6332632012
 30
0.0
 10
-6.0644075591
 20
24.6457046324
 30
0.0
 10
-6.1055850032
 20
24.637903438
 30
0.0
 10
-6.1217195613
 20
24.6292066082
 30
0.0
 11
-6.0063862783
 21
24.6239626087
 31
0.0
 11
-6.0679656353
 21
24.6407886951
 31
0.0
 11
-6.1217195613
 21
24.6292066082
 31
0.0
  0
SPLINE
  5
4A4
100
AcDbEntity
  8
ASSI
100
AcDbSpline
 62
253
  6
CONTINUOUS
 70
0
 71
3
 72
9
 73
5
 74
3
 42
0.0000001
 43
0.0000001
 44
0.0000000001
 12
-0.1068732818
 22
0.0519357288
 32
0.0
 13
-0.1045970371
 23
-0.056379767
 33
0.0
 40
0.0
 40
0.0
 40
0.0
 40
0.0
 40
0.5372366612
 40
1.0
 40
1.0
 40
1.0
 40
1.0
 10
-2.294075677
 20
22.7678073081
 30
0.0
 10
-2.3132144254
 20
22.7771079006
 30
0.0
 10
-2.3520969578
 20
22.7895493318
 30
0.0
 10
-2.393274402
 20
22.7817481374
 30
0.0
 10
-2.40940896
 20
22.7730513076
 30
0.0
 11
-2.294075677
 21
22.7678073081
 31
0.0
 11
-2.355655034
 21
22.7846333945
 31
0.0
 11
-2.40940896
 21
22.7730513076
 31
0.0
  0
SPLINE
  5
4A5
100
AcDbEntity
  8
ASSI
100
AcDbSpline
 62
253
  6
CONTINUOUS
 70
0
 71
3
 72
11
 73
7
 74
5
 42
0.0000001
 43
0.0000001
 44
0.0000000001
 12
-0.0042666542
 22
0.3662553148
 32
0.0
 13
-0.3257077762
 23
0.1675577645
 33
0.0
 40
0.0
 40
0.0
 40
0.0
 40
0.0
 40
0.2465204346
 40
0.5119835308
 40
0.7708932999
 40
1.0
 40
1.0
 40
1.0
 40
1.0
 10
-3.6096880183
 20
23.2091401028
 30
0.0
 10
-3.6100386242
 20
23.2392365759
 30
0.0
 10
-3.6210177599
 20
23.3017163832
 30
0.0
 10
-3.6589485268
 20
23.3886770115
 30
0.0
 10
-3.714054015
 20
23.4632738956
 30
0.0
 10
-3.7615638451
 20
23.5011921623
 30
0.0
 10
-3.7864377897
 20
23.5139883644
 30
0.0
 11
-3.6096880183
 21
23.2091401028
 31
0.0
 11
-3.6239065746
 21
23.2983091458
 31
0.0
 11
-3.6624870738
 21
23.3875614284
 31
0.0
 11
-3.7195602869
 21
23.463298101
 31
0.0
 11
-3.7864377897
 21
23.5139883644
 31
0.0
  0
SPLINE
  5
4A6
100
AcDbEntity
  8
ASSI
100
AcDbSpline
 62
7
  6
CONTINUOUS
 70
0
 71
3
 72
11
 73
7
 74
5
 42
0.0000001
 43
0.0000001
 44
0.0000000001
 12
-0.0
 22
0.3669998579
 32
0.0
 13
-0.328254652
 23
0.164127326
 33
0.0
 40
0.0
 40
0.0
 40
0.0
 40
0.0
 40
0.2468214196
 40
0.5117844928
 40
0.770298635
 40
1.0
 40
1.0
 40
1.0
 40
1.0
 10
-3.391341981
 20
23.3191549843
 30
0.0
 10
-3.391341981
 20
23.3493494596
 30
0.0
 10
-3.4017554965
 20
23.4120671485
 30
0.0
 10
-3.4394959718
 20
23.4992800726
 30
0.0
 10
-3.4949332576
 20
23.5738717469
 30
0.0
 10
-3.5429582384
 20
23.611436489
 30
0.0
 10
-3.5680917523
 20
23.624003246
 30
0.0
 11
-3.391341981
 21
23.3191549843
 31
0.0
 11
-3.4047964028
 21
23.4087336402
 31
0.0
 11
-3.443112449
 21
23.4981079791
 31
0.0
 11
-3.5004438308
 21
23.5737010511
 31
0.0
 11
-3.5680917523
 21
23.624003246
 31
0.0
  0
SPLINE
  5
4A7
100
AcDbEntity
  8
ASSI
100
AcDbSpline
 62
253
  6
CONTINUOUS
 70
0
 71
3
 72
11
 73
7
 74
5
 42
0.0000001
 43
0.0000001
 44
0.0000000001
 12
-0.0042666542
 22
0.3662553148
 32
0.0
 13
-0.3257077762
 23
0.1675577645
 33
0.0
 40
0.0
 40
0.0
 40
0.0
 40
0.0
 40
0.2465204346
 40
0.5119835308
 40
0.7708932999
 40
1.0
 40
1.0
 40
1.0
 40
1.0
 10
0.1026225829
 20
21.3529848022
 30
0.0
 10
0.1022719771
 20
21.3830812753
 30
0.0
 10
0.0912928413
 20
21.4455610826
 30
0.0
 10
0.0533620744
 20
21.5325217109
 30
0.0
 10
-0.0017434137
 20
21.607118595
 30
0.0
 10
-0.0492532439
 20
21.6450368617
 30
0.0
 10
-0.0741271885
 20
21.6578330638
 30
0.0
 11
0.1026225829
 21
21.3529848022
 31
0.0
 11
0.0884040266
 21
21.4421538452
 31
0.0
 11
0.0498235274
 21
21.5314061278
 31
0.0
 11
-0.0072496856
 21
21.6071428004
 31
0.0
 11
-0.0741271885
 21
21.6578330638
 31
0.0
  0
SPLINE
  5
4A8
100
AcDbEntity
  8
ASSI
100
AcDbSpline
 62
7
  6
CONTINUOUS
 70
0
 71
3
 72
11
 73
7
 74
5
 42
0.0000001
 43
0.0000001
 44
0.0000000001
 12
-0.0
 22
0.3669998579
 32
0.0
 13
-0.328254652
 23
0.164127326
 33
0.0
 40
0.0
 40
0.0
 40
0.0
 40
0.0
 40
0.2468214196
 40
0.5117844928
 40
0.770298635
 40
1.0
 40
1.0
 40
1.0
 40
1.0
 10
0.3209686203
 20
21.4629996837
 30
0.0
 10
0.3209686203
 20
21.493194159
 30
0.0
 10
0.3105551048
 20
21.5559118478
 30
0.0
 10
0.2728146294
 20
21.6431247719
 30
0.0
 10
0.2173773437
 20
21.7177164463
 30
0.0
 10
0.1693523628
 20
21.7552811884
 30
0.0
 10
0.1442188489
 20
21.7678479453
 30
0.0
 11
0.3209686203
 21
21.4629996837
 31
0.0
 11
0.3075141984
 21
21.5525783396
 31
0.0
 11
0.2691981523
 21
21.6419526785
 31
0.0
 11
0.2118667704
 21
21.7175457505
 31
0.0
 11
0.1442188489
 21
21.7678479453
 31
0.0
  0
SPLINE
  5
4A9
100
AcDbEntity
  8
ASSI
100
AcDbSpline
 62
253
  6
CONTINUOUS
 70
0
 71
3
 72
9
 73
5
 74
3
 42
0.0000001
 43
0.0000001
 44
0.0000000001
 12
-0.0987551695
 22
0.051093948
 32
0.0
 13
-0.1009595448
 23
-0.0465869654
 33
0.0
 40
0.0
 40
0.0
 40
0.0
 40
0.0
 40
0.5348831908
 40
1.0
 40
1.0
 40
1.0
 40
1.0
 10
3.8576928814
 20
23.8008300539
 30
0.0
 10
3.840085388
 20
23.8099398185
 30
0.0
 10
3.8040786381
 20
23.8224984903
 30
0.0
 10
3.7654434532
 20
23.8169952833
 30
0.0
 10
3.7497907928
 20
23.8097724898
 30
0.0
 11
3.8576928814
 21
23.8008300539
 31
0.0
 11
3.8008145822
 21
23.8182071594
 31
0.0
 11
3.7497907928
 21
23.8097724898
 31
0.0
  0
SPLINE
  5
4AA
100
AcDbEntity
  8
ASSI
100
AcDbSpline
 62
253
  6
CONTINUOUS
 70
0
 71
3
 72
11
 73
7
 74
5
 42
0.0000001
 43
0.0000001
 44
0.0000000001
 12
0.3312438285
 22
-0.1600625469
 32
0.0
 13
-0.0051123801
 23
-0.3678537161
 33
0.0
 40
0.0
 40
0.0
 40
0.0
 40
0.0
 40
0.2304221291
 40
0.4885147234
 40
0.7529146663
 40
1.0
 40
1.0
 40
1.0
 40
1.0
 10
4.0495304297
 20
23.7049112797
 30
0.0
 10
4.0749723991
 20
23.6926172955
 30
0.0
 10
4.1236131081
 20
23.6554710661
 30
0.0
 10
4.1794909385
 20
23.5808908233
 30
0.0
 10
4.2169672364
 20
23.4933505198
 30
0.0
 10
4.2267012684
 20
23.4303601055
 30
0.0
 10
4.2262802037
 20
23.4000630194
 30
0.0
 11
4.0495304297
 21
23.7049112797
 31
0.0
 11
4.1181024794
 21
23.6550735761
 31
0.0
 11
4.1757695667
 21
23.5796420682
 31
0.0
 11
4.2137557634
 21
23.490096096
 31
0.0
 11
4.2262802037
 21
23.4000630194
 31
0.0
  0
SPLINE
  5
4AB
100
AcDbEntity
  8
ASSI
100
AcDbSpline
 62
253
  6
CONTINUOUS
 70
0
 71
3
 72
11
 73
7
 74
5
 42
0.0000001
 43
0.0000001
 44
0.0000000001
 12
-0.086091312
 22
0.043045656
 32
0.0
 13
0.0000133645
 23
0.0962530121
 33
0.0
 40
0.0
 40
0.0
 40
0.0
 40
0.0
 40
0.3019103668
 40
0.5654931424
 40
0.7935263697
 40
1.0
 40
1.0
 40
1.0
 40
1.0
 10
-2.4683788446
 20
22.4995323026
 30
0.0
 10
-2.4770427978
 20
22.5038642792
 30
0.0
 10
-2.4927167061
 20
22.5132023048
 30
0.0
 10
-2.5118064407
 20
22.5303790517
 30
0.0
 10
-2.5240204466
 20
22.5495744663
 30
0.0
 10
-2.5269583459
 20
22.5636184111
 30
0.0
 10
-2.5269574261
 20
22.5702429807
 30
0.0
 11
-2.4683788446
 21
22.4995323026
 31
0.0
 11
-2.4931890337
 21
22.5146625859
 31
0.0
 11
-2.51173451
 21
22.5319754278
 31
0.0
 11
-2.5231129758
 21
22.55074466
 31
0.0
 11
-2.5269574261
 21
22.5702429807
 31
0.0
  0
SPLINE
  5
4AC
100
AcDbEntity
  8
ASSI
100
AcDbSpline
 62
253
  6
CONTINUOUS
 70
0
 71
3
 72
11
 73
7
 74
5
 42
0.0000001
 43
0.0000001
 44
0.0000000001
 12
-0.0000000004
 22
0.2909088214
 32
0.0
 13
0.2579535455
 23
0.1344913035
 33
0.0
 40
0.0
 40
0.0
 40
0.0
 40
0.0
 40
0.2462187672
 40
0.5106608001
 40
0.7692790838
 40
1.0
 40
1.0
 40
1.0
 40
1.0
 10
-2.4330288903
 20
22.5251520007
 30
0.0
 10
-2.4330288903
 20
22.5490277378
 30
0.0
 10
-2.4248796001
 20
22.5986314783
 30
0.0
 10
-2.3952907095
 20
22.6677811456
 30
0.0
 10
-2.3516932657
 20
22.7272195779
 30
0.0
 10
-2.3139141032
 20
22.7574639892
 30
0.0
 10
-2.294075677
 20
22.7678073081
 30
0.0
 11
-2.4330288903
 21
22.5251520007
 31
0.0
 11
-2.4224987276
 21
22.5960009462
 31
0.0
 11
-2.3924763803
 21
22.6668293012
 31
0.0
 11
-2.3474327459
 21
22.7270893786
 31
0.0
 11
-2.294075677
 21
22.7678073081
 31
0.0
  0
SPLINE
  5
4AD
100
AcDbEntity
  8
ASSI
100
AcDbSpline
 62
253
  6
CONTINUOUS
 70
0
 71
3
 72
11
 73
7
 74
5
 42
0.0000001
 43
0.0000001
 44
0.0000000001
 12
0.0
 22
0.2909088213
 32
0.0
 13
0.2579535453
 23
0.1344913038
 33
0.0
 40
0.0
 40
0.0
 40
0.0
 40
0.0
 40
0.2462187683
 40
0.5106608019
 40
0.7692790849
 40
1.0
 40
1.0
 40
1.0
 40
1.0
 10
-0.2130804017
 20
21.4151777564
 30
0.0
 10
-0.2130804017
 20
21.4390534936
 30
0.0
 10
-0.2049311113
 20
21.4886572343
 30
0.0
 10
-0.1753422206
 20
21.5578069016
 30
0.0
 10
-0.1317447768
 20
21.6172453338
 30
0.0
 10
-0.0939656145
 20
21.6474897449
 30
0.0
 10
-0.0741271885
 20
21.6578330638
 30
0.0
 11
-0.2130804017
 21
21.4151777564
 31
0.0
 11
-0.2025502388
 21
21.4860267022
 31
0.0
 11
-0.1725278913
 21
21.5568550573
 31
0.0
 11
-0.127484257
 21
21.6171151345
 31
0.0
 11
-0.0741271885
 21
21.6578330638
 31
0.0
  0
SPLINE
  5
4AE
100
AcDbEntity
  8
ASSI
100
AcDbSpline
 62
253
  6
CONTINUOUS
 70
0
 71
3
 72
11
 73
7
 74
5
 42
0.0000001
 43
0.0000001
 44
0.0000000001
 12
0.2575047899
 22
-0.1287523919
 32
0.0
 13
0.2592593058
 23
0.1251818983
 33
0.0
 40
0.0
 40
0.0
 40
0.0
 40
0.0
 40
0.2347796661
 40
0.498746331
 40
0.7633868303
 40
1.0
 40
1.0
 40
1.0
 40
1.0
 10
-0.1777304474
 20
21.3542081041
 30
0.0
 10
-0.1575781512
 20
21.3441319562
 30
0.0
 10
-0.1113001928
 20
21.3296804651
 30
0.0
 10
-0.0379998588
 20
21.3225668485
 30
0.0
 10
0.0355355095
 20
21.3290753798
 30
0.0
 10
0.0821745275
 20
21.3431115736
 30
0.0
 10
0.1026225829
 20
21.3529848022
 30
0.0
 11
-0.1777304474
 21
21.3542081041
 31
0.0
 11
-0.1136512847
 21
21.3326986857
 31
0.0
 11
-0.0380544003
 21
21.3249225905
 31
0.0
 11
0.0378023952
 21
21.3320378271
 31
0.0
 11
0.1026225829
 21
21.3529848022
 31
0.0
  0
SPLINE
  5
4AF
100
AcDbEntity
  8
ASSI
100
AcDbSpline
 62
253
  6
CONTINUOUS
 70
0
 71
3
 72
11
 73
7
 74
5
 42
0.0000001
 43
0.0000001
 44
0.0000000001
 12
-0.086091312
 22
0.043045656
 32
0.0
 13
0.0000133645
 23
0.0962530121
 33
0.0
 40
0.0
 40
0.0
 40
0.0
 40
0.0
 40
0.3019103668
 40
0.5654931424
 40
0.7935263697
 40
1.0
 40
1.0
 40
1.0
 40
1.0
 10
-6.1806894458
 20
24.3556876033
 30
0.0
 10
-6.189353399
 20
24.3600195799
 30
0.0
 10
-6.2050273073
 20
24.3693576054
 30
0.0
 10
-6.224117042
 20
24.3865343523
 30
0.0
 10
-6.2363310479
 20
24.4057297669
 30
0.0
 10
-6.2392689471
 20
24.4197737118
 30
0.0
 10
-6.2392680273
 20
24.4263982814
 30
0.0
 11
-6.1806894458
 21
24.3556876033
 31
0.0
 11
-6.205499635
 21
24.3708178865
 31
0.0
 11
-6.2240451112
 21
24.3881307284
 31
0.0
 11
-6.2354235771
 21
24.4068999606
 31
0.0
 11
-6.2392680273
 21
24.4263982814
 31
0.0
  0
SPLINE
  5
4B0
100
AcDbEntity
  8
ASSI
100
AcDbSpline
 62
253
  6
CONTINUOUS
 70
0
 71
3
 72
11
 73
7
 74
5
 42
0.0000001
 43
0.0000001
 44
0.0000000001
 12
-0.0000000004
 22
0.2909088214
 32
0.0
 13
0.2579535455
 23
0.1344913035
 33
0.0
 40
0.0
 40
0.0
 40
0.0
 40
0.0
 40
0.2462187672
 40
0.5106608001
 40
0.7692790838
 40
1.0
 40
1.0
 40
1.0
 40
1.0
 10
-6.1453394915
 20
24.3813073013
 30
0.0
 10
-6.1453394916
 20
24.4051830384
 30
0.0
 10
-6.1371902013
 20
24.4547867789
 30
0.0
 10
-6.1076013107
 20
24.5239364462
 30
0.0
 10
-6.0640038669
 20
24.5833748785
 30
0.0
 10
-6.0262247044
 20
24.6136192898
 30
0.0
 10
-6.0063862783
 20
24.6239626087
 30
0.0
 11
-6.1453394915
 21
24.3813073013
 31
0.0
 11
-6.1348093288
 21
24.4521562468
 31
0.0
 11
-6.1047869815
 21
24.5229846018
 31
0.0
 11
-6.0597433471
 21
24.5832446792
 31
0.0
 11
-6.0063862783
 21
24.6239626087
 31
0.0
  0
SPLINE
  5
4B1
100
AcDbEntity
  8
ASSI
100
AcDbSpline
 62
253
  6
CONTINUOUS
 70
0
 71
3
 72
11
 73
7
 74
5
 42
0.0000001
 43
0.0000001
 44
0.0000000001
 12
0.0
 22
0.2909088213
 32
0.0
 13
0.2579535453
 23
0.1344913038
 33
0.0
 40
0.0
 40
0.0
 40
0.0
 40
0.0
 40
0.2462187683
 40
0.5106608019
 40
0.7692790849
 40
1.0
 40
1.0
 40
1.0
 40
1.0
 10
-3.9253910029
 20
23.271333057
 30
0.0
 10
-3.9253910029
 20
23.2952087943
 30
0.0
 10
-3.9172417125
 20
23.3448125349
 30
0.0
 10
-3.8876528218
 20
23.4139622022
 30
0.0
 10
-3.844055378
 20
23.4734006344
 30
0.0
 10
-3.8062762157
 20
23.5036450455
 30
0.0
 10
-3.7864377897
 20
23.5139883644
 30
0.0
 11
-3.9253910029
 21
23.271333057
 31
0.0
 11
-3.91486084
 21
23.3421820028
 31
0.0
 11
-3.8848384926
 21
23.4130103579
 31
0.0
 11
-3.8397948582
 21
23.4732704351
 31
0.0
 11
-3.7864377897
 21
23.5139883644
 31
0.0
  0
SPLINE
  5
4B2
100
AcDbEntity
  8
ASSI
100
AcDbSpline
 62
253
  6
CONTINUOUS
 70
0
 71
3
 72
11
 73
7
 74
5
 42
0.0000001
 43
0.0000001
 44
0.0000000001
 12
0.2575047899
 22
-0.1287523919
 32
0.0
 13
0.2592593058
 23
0.1251818983
 33
0.0
 40
0.0
 40
0.0
 40
0.0
 40
0.0
 40
0.2347796661
 40
0.498746331
 40
0.7633868303
 40
1.0
 40
1.0
 40
1.0
 40
1.0
 10
-3.8900410487
 20
23.2103634047
 30
0.0
 10
-3.8698887525
 20
23.2002872568
 30
0.0
 10
-3.823610794
 20
23.1858357657
 30
0.0
 10
-3.75031046
 20
23.1787221491
 30
0.0
 10
-3.6767750917
 20
23.1852306804
 30
0.0
 10
-3.6301360737
 20
23.1992668742
 30
0.0
 10
-3.6096880183
 20
23.2091401028
 30
0.0
 11
-3.8900410487
 21
23.2103634047
 31
0.0
 11
-3.8259618859
 21
23.1888539863
 31
0.0
 11
-3.7503650015
 21
23.1810778911
 31
0.0
 11
-3.6745082061
 21
23.1881931277
 31
0.0
 11
-3.6096880183
 21
23.2091401028
 31
0.0
  0
SPLINE
  5
4B3
100
AcDbEntity
  8
ASSI
100
AcDbSpline
 62
253
  6
CONTINUOUS
 70
0
 71
3
 72
11
 73
7
 74
5
 42
0.0000001
 43
0.0000001
 44
0.0000000001
 12
0.329880605
 22
-0.1621482398
 32
0.0
 13
-0.0051550514
 23
-0.3675414135
 33
0.0
 40
0.0
 40
0.0
 40
0.0
 40
0.0
 40
0.2298231387
 40
0.4878750929
 40
0.7525806787
 40
1.0
 40
1.0
 40
1.0
 40
1.0
 10
1.8686746431
 20
26.4519588126
 30
0.0
 10
1.8939460418
 20
26.4395370068
 30
0.0
 10
1.9422099224
 20
26.4021210027
 30
0.0
 10
1.9975671389
 20
26.327322179
 30
0.0
 10
2.0346873743
 20
26.2396535925
 30
0.0
 10
2.0443272298
 20
26.1766414716
 30
0.0
 10
2.0439020767
 20
26.1463291893
 30
0.0
 11
1.8686746431
 21
26.4519588126
 31
0.0
 11
1.9366706926
 21
26.4018285732
 31
0.0
 11
1.9938473338
 21
26.3261441387
 31
0.0
 11
2.031501594
 21
26.2364256097
 31
0.0
 11
2.0439020767
 21
26.1463291893
 31
0.0
  0
SPLINE
  5
4B4
100
AcDbEntity
  8
ASSI
100
AcDbSpline
 62
253
  6
CONTINUOUS
 70
0
 71
3
 72
9
 73
5
 74
3
 42
0.0000001
 43
0.0000001
 44
0.0000000001
 12
-0.1004409607
 22
0.0510855561
 32
0.0
 13
-0.1020102299
 23
-0.0478751879
 33
0.0
 40
0.0
 40
0.0
 40
0.0
 40
0.0
 40
0.5343970039
 40
1.0
 40
1.0
 40
1.0
 40
1.0
 10
6.6468292984
 20
24.062881485
 30
0.0
 10
6.6289375156
 20
24.0719814744
 30
0.0
 10
6.5923421995
 20
24.0844216078
 30
0.0
 10
6.5532394571
 20
24.0785463039
 30
0.0
 10
6.5374073676
 20
24.0711160269
 30
0.0
 11
6.6468292984
 21
24.062881485
 31
0.0
 11
6.5891085898
 21
24.0800468889
 31
0.0
 11
6.5374073676
 21
24.0711160269
 31
0.0
  0
SPLINE
  5
4B5
100
AcDbEntity
  8
ASSI
100
AcDbSpline
 62
253
  6
CONTINUOUS
 70
0
 71
3
 72
11
 73
7
 74
5
 42
0.0000001
 43
0.0000001
 44
0.0000000001
 12
-0.4050136794
 22
0.2024841855
 32
0.0
 13
-0.4094659413
 23
-0.1933224478
 33
0.0
 40
0.0
 40
0.0
 40
0.0
 40
0.0
 40
0.2282020407
 40
0.4663331274
 40
0.7222036235
 40
1.0
 40
1.0
 40
1.0
 40
1.0
 10
7.0845485145
 20
24.0838217
 30
0.0
 10
7.0537401984
 20
24.0992241348
 30
0.0
 10
6.9861013697
 20
24.1220715519
 30
0.0
 10
6.8762504042
 20
24.1290383955
 30
0.0
 10
6.7605307078
 20
24.1095035086
 30
0.0
 10
6.68474535
 20
24.0807829101
 30
0.0
 10
6.6468292984
 20
24.062881485
 30
0.0
 11
7.0845485145
 21
24.0838217
 31
0.0
 11
6.9867529784
 21
24.1171911342
 31
0.0
 11
6.8791977597
 21
24.1248544968
 31
0.0
 11
6.7647905825
 21
24.1065613132
 31
0.0
 11
6.6468292984
 21
24.062881485
 31
0.0
  0
SPLINE
  5
4B6
100
AcDbEntity
  8
ASSI
100
AcDbSpline
 62
253
  6
CONTINUOUS
 70
0
 71
3
 72
10
 73
6
 74
4
 42
0.0000001
 43
0.0000001
 44
0.0000000001
 12
0.0000004625
 22
0.052268429
 32
0.0
 13
-0.0468245066
 23
-0.0232261546
 33
0.0
 40
0.0
 40
0.0
 40
0.0
 40
0.0
 40
0.5182866506
 40
0.7415358719
 40
1.0
 40
1.0
 40
1.0
 40
1.0
 10
5.2279117351
 20
19.9992910439
 30
0.0
 10
5.227911815
 20
20.0083210536
 30
0.0
 10
5.2240718609
 20
20.0238036751
 30
0.0
 10
5.2062136258
 20
20.029553685
 30
0.0
 10
5.1978139429
 20
20.0269144304
 30
0.0
 10
5.1937797911
 20
20.0249133878
 30
0.0
 11
5.2279117351
 21
19.9992910439
 31
0.0
 11
5.2179507728
 21
20.0244832829
 31
0.0
 11
5.2068860746
 21
20.0281894068
 31
0.0
 11
5.1937797911
 21
20.0249133878
 31
0.0
  0
SPLINE
  5
4B7
100
AcDbEntity
  8
ASSI
100
AcDbSpline
 62
253
  6
CONTINUOUS
 70
0
 71
3
 72
9
 73
5
 74
3
 42
0.0000001
 43
0.0000001
 44
0.0000000001
 12
0.0314967225
 22
0.0389820757
 32
0.0
 13
-0.0000321995
 23
0.0501163118
 33
0.0
 40
0.0
 40
0.0
 40
0.0
 40
0.0
 40
0.2555971139
 40
1.0
 40
1.0
 40
1.0
 40
1.0
 10
5.2105426304
 20
19.6128543319
 30
0.0
 10
5.2132261209
 20
19.6161755672
 30
0.0
 10
5.2225425928
 20
19.6300325558
 30
0.0
 10
5.2279197249
 20
19.6469118733
 30
0.0
 10
5.2279117351
 20
19.6593474491
 30
0.0
 11
5.2105426304
 21
19.6128543319
 31
0.0
 11
5.2177312909
 21
19.6234566282
 31
0.0
 11
5.2279117351
 21
19.6593474491
 31
0.0
  0
SPLINE
  5
4B8
100
AcDbEntity
  8
ASSI
100
AcDbSpline
 62
253
  6
CONTINUOUS
 70
0
 71
3
 72
9
 73
5
 74
3
 42
0.0000001
 43
0.0000001
 44
0.0000000001
 12
-0.0000037956
 22
0.0355290971
 32
0.0
 13
-0.0348352978
 23
0.006987044
 33
0.0
 40
0.0
 40
0.0
 40
0.0
 40
0.0
 40
0.5571938031
 40
1.0
 40
1.0
 40
1.0
 40
1.0
 10
5.2279117351
 20
-21.6402566903
 30
0.0
 10
5.2279110301
 20
-21.6336578261
 30
0.0
 10
5.2261731394
 20
-21.6211717424
 30
0.0
 10
5.2156843923
 20
-21.6127811097
 30
0.0
 10
5.2105426304
 20
-21.6117498075
 30
0.0
 11
5.2279117351
 21
-21.6402566903
 31
0.0
 11
5.2232575122
 21
-21.6210149831
 31
0.0
 11
5.2105426304
 21
-21.6117498075
 31
0.0
  0
SPLINE
  5
4B9
100
AcDbEntity
  8
ASSI
100
AcDbSpline
 62
253
  6
CONTINUOUS
 70
0
 71
3
 72
9
 73
5
 74
3
 42
0.0000001
 43
0.0000001
 44
0.0000000001
 12
0.0633521294
 22
0.0341790561
 32
0.0
 13
-0.0000008454
 23
0.0719840272
 33
0.0
 40
0.0
 40
0.0
 40
0.0
 40
0.0
 40
0.4876248425
 40
1.0
 40
1.0
 40
1.0
 40
1.0
 10
5.1937797911
 20
-22.0411672917
 30
0.0
 10
5.2040771485
 20
-22.0356117728
 30
0.0
 10
5.2204947072
 20
-22.0163047803
 30
0.0
 10
5.2279118795
 20
-21.9924945609
 30
0.0
 10
5.2279117351
 20
-21.9802002852
 30
0.0
 11
5.1937797911
 21
-22.0411672917
 31
0.0
 11
5.2179482737
 21
-22.0157118662
 31
0.0
 11
5.2279117351
 21
-21.9802002852
 31
0.0
  0
ELLIPSE
  5
4BA
100
AcDbEntity
  8
RACCORDO
100
AcDbEllipse
 62
7
  6
CONTINUOUS
 10
-12.4974053818
 20
23.1433570143
 30
0.0
 11
-0.0893248918
 21
0.1791819189
 31
0.0
 40
0.611934274
 41
-0.6831563312
 42
0.0353416601
  0
ELLIPSE
  5
4BB
100
AcDbEntity
  8
RACCORDO
100
AcDbEllipse
 62
7
  6
CONTINUOUS
 10
0.2742854785
 20
16.5382385692
 30
0.0
 11
1.1587552967
 21
0.8082340163
 31
0.0
 40
0.0984623514
 41
-1.5081049473
 42
-1.3360082989
  0
ELLIPSE
  5
4BC
100
AcDbEntity
  8
RACCORDO
100
AcDbEllipse
 62
7
  6
CONTINUOUS
 10
0.4821312391
 20
16.6535887038
 30
0.0
 11
-0.0892524615
 21
0.1791179969
 31
0.0
 40
0.6124818573
 41
-2.0729142985
 42
-0.6834093579
  0
ELLIPSE
  5
4BD
100
AcDbEntity
  8
RACCORDO
100
AcDbEllipse
 62
7
  6
CONTINUOUS
 10
9.8225605007
 20
-13.4778508974
 30
0.0
 11
-0.1316537962
 21
0.2729401056
 31
0.0
 40
0.6094565619
 41
-0.6679901581
 42
-0.1094228634
  0
ELLIPSE
  5
4BE
100
AcDbEntity
  8
ASSI
100
AcDbEllipse
 62
7
  6
CONTINUOUS
 10
5.3643856549
 20
-19.8705122205
 30
0.0
 11
-0.2237009107
 21
0.4473351135
 31
0.0
 40
0.6121897086
 41
-3.1223332426
 42
-2.2557347926
  0
ELLIPSE
  5
4BF
100
AcDbEntity
  8
ASSI
100
AcDbEllipse
 62
7
  6
CONTINUOUS
 10
5.3643856549
 20
18.031035486
 30
0.0
 11
-0.2235807756
 21
0.4472283268
 31
0.0
 40
0.6125552124
 41
-2.255296188
 42
-0.6848044477
  0
ELLIPSE
  5
4C0
100
AcDbEntity
  8
RACCORDO
100
AcDbEllipse
 62
7
  6
CONTINUOUS
 10
9.8405491538
 20
-13.4868452239
 30
0.0
 11
-0.1312734953
 21
0.2726279052
 31
0.0
 40
0.6112559224
 41
-2.2380176789
 42
-0.6687366997
  0
ELLIPSE
  5
4C1
100
AcDbEntity
  8
RACCORDO
100
AcDbEllipse
 62
7
  6
CONTINUOUS
 10
9.8405491538
 20
21.3133406142
 30
0.0
 11
-0.1316537962
 21
0.2729401056
 31
0.0
 40
0.6094565619
 41
-3.0319838079
 42
-2.2403018325
  0
ELLIPSE
  5
4C2
100
AcDbEntity
  8
ASSI
100
AcDbEllipse
 62
7
  6
CONTINUOUS
 10
-1.3637181318
 20
22.9972673563
 30
0.0
 11
-0.1118504554
 21
0.2236675568
 31
0.0
 40
0.6121897086
 41
-0.6846338794
 42
-0.0194291938
  0
ELLIPSE
  5
4C3
100
AcDbEntity
  8
ASSI
100
AcDbEllipse
 62
7
  6
CONTINUOUS
 10
-2.8733814179
 20
23.7520989993
 30
0.0
 11
-0.1117903878
 21
0.2236141634
 31
0.0
 40
0.6125552124
 41
-2.255296188
 42
-0.6848044477
  0
ELLIPSE
  5
4C4
100
AcDbEntity
  8
ASSI
100
AcDbEllipse
 62
7
  6
CONTINUOUS
 10
9.9556162529
 20
21.5302537889
 30
0.0
 11
0.4349639225
 21
0.9005141702
 31
0.0
 40
0.6016116119
 41
-0.8943064336
 42
-0.6613938699
  0
ELLIPSE
  5
4C5
100
AcDbEntity
  8
ASSI
100
AcDbEllipse
 62
7
  6
CONTINUOUS
 10
9.9556162529
 20
-15.2330390601
 30
0.0
 11
0.4349639225
 21
0.9005141702
 31
0.0
 40
0.6016116119
 41
-1.1272189973
 42
-0.8943064336
  0
ELLIPSE
  5
4C6
100
AcDbEntity
  8
ASSI
100
AcDbEllipse
 62
7
  6
CONTINUOUS
 10
10.1153071827
 20
-15.312884525
 30
0.0
 11
0.9927147821
 21
0.620457446
 31
0.0
 40
0.0764819879
 41
-2.3927159682
 42
-1.0722854976
  0
ELLIPSE
  5
4C7
100
AcDbEntity
  8
ASSI
100
AcDbEllipse
 62
7
  6
CONTINUOUS
 10
-1.624484671
 20
27.3203042508
 30
0.0
 11
1.004787277
 21
0.6140102217
 31
0.0
 40
0.0864918533
 41
0.0545281916
 42
0.7212730538
  0
ELLIPSE
  5
4C8
100
AcDbEntity
  8
RACCORDO
100
AcDbEllipse
 62
7
  6
CONTINUOUS
 10
0.8334086918
 20
16.4779499775
 30
0.0
 11
-0.0893248918
 21
0.1791819189
 31
0.0
 40
0.611934274
 41
-0.6831563312
 42
0.0366218912
  0
ELLIPSE
  5
4C9
100
AcDbEntity
  8
ASSI
100
AcDbEllipse
 62
7
  6
CONTINUOUS
 10
2.3821166654
 20
25.55781751
 30
0.0
 11
0.2495017023
 21
-0.0599821937
 31
0.0
 40
0.2630210944
 41
-0.7135232271
 42
0.0636829494
  0
ELLIPSE
  5
4CA
100
AcDbEntity
  8
ASSI
100
AcDbEllipse
 62
7
  6
CONTINUOUS
 10
4.6837989011
 20
17.6935825919
 30
0.0
 11
41.2152542262
 21
22.501943358
 31
0.0
 40
0.0081048063
 41
1.5667140536
 42
1.5886117747
  0
ELLIPSE
  5
4CB
100
AcDbEntity
  8
ASSI
100
AcDbEllipse
 62
7
  6
CONTINUOUS
 10
16.4031637339
 20
29.3134530129
 30
0.0
 11
18.2927339069
 21
9.4748417608
 31
0.0
 40
0.0170707209
 41
-2.6536573066
 42
-2.3141694431
  0
ELLIPSE
  5
4CC
100
AcDbEntity
  8
ASSI
100
AcDbEllipse
 62
7
  6
CONTINUOUS
 10
16.4031637339
 20
29.3134530129
 30
0.0
 11
18.2927339069
 21
9.4748417608
 31
0.0
 40
0.0170707209
 41
2.2964861198
 42
2.6359739833
  0
ELLIPSE
  5
4CD
100
AcDbEntity
  8
RACCORDO
100
AcDbEllipse
 62
7
  6
CONTINUOUS
 10
-12.8486828345
 20
23.3189957406
 30
0.0
 11
-0.0892524615
 21
0.1791179969
 31
0.0
 40
0.6124818573
 41
-2.2255365712
 42
-0.6834093579
  0
ELLIPSE
  5
4CE
100
AcDbEntity
  8
ASSI
100
AcDbEllipse
 62
7
  6
CONTINUOUS
 10
1.9733856819
 20
-21.9221374894
 30
0.0
 11
0.220014872
 21
0.1791173313
 31
0.0
 40
0.6627826692
 41
-1.8038058062
 42
-1.2976603231
  0
ELLIPSE
  5
4CF
100
AcDbEntity
  8
ASSI
100
AcDbEllipse
 62
7
  6
CONTINUOUS
 10
1.9733856819
 20
17.7745140716
 30
0.0
 11
0.249929385
 21
0.0111824824
 31
0.0
 40
0.5313301283
 41
-2.3799630874
 42
-0.8266200532
  0
ELLIPSE
  5
4D0
100
AcDbEntity
  8
ASSI
100
AcDbEllipse
 62
7
  6
CONTINUOUS
 10
-10.6131150232
 20
24.0677644242
 30
0.0
 11
0.249929385
 21
0.0111824824
 31
0.0
 40
0.5313301283
 41
-2.3799630874
 42
-0.8266200532
  0
ELLIPSE
  5
4D1
100
AcDbEntity
  8
ASSI
100
AcDbEllipse
 62
7
  6
CONTINUOUS
 10
3.5935599813
 20
17.7169201714
 30
0.0
 11
0.249929385
 21
0.0111824824
 31
0.0
 40
0.5313301283
 41
-2.3799630874
 42
-1.125412988
  0
ELLIPSE
  5
4D2
100
AcDbEntity
  8
ASSI
100
AcDbEllipse
 62
7
  6
CONTINUOUS
 10
1.5738606588
 20
18.7267698326
 30
0.0
 11
0.249929385
 21
0.0111824824
 31
0.0
 40
0.5313301283
 41
3.117765999
 42
3.9032222197
  0
ELLIPSE
  5
4D3
100
AcDbEntity
  8
ASSI
100
AcDbEllipse
 62
7
  6
CONTINUOUS
 10
-11.0126400463
 20
25.0200201851
 30
0.0
 11
0.249929385
 21
0.0111824824
 31
0.0
 40
0.5313301283
 41
3.118062645
 42
3.9032222197
  0
ELLIPSE
  5
4D4
100
AcDbEntity
  8
ASSI
100
AcDbEllipse
 62
7
  6
CONTINUOUS
 10
-8.9929407239
 20
24.0101705239
 30
0.0
 11
0.249929385
 21
0.0111824824
 31
0.0
 40
0.5313301283
 41
-2.3799630874
 42
-0.8266200532
  0
ELLIPSE
  5
4D5
100
AcDbEntity
  8
ASSI
100
AcDbEllipse
 62
7
  6
CONTINUOUS
 10
3.5935599813
 20
-21.5251178578
 30
0.0
 11
0.220014872
 21
0.1791173313
 31
0.0
 40
0.6627826692
 41
-2.8510033574
 42
-2.6599685648
  0
ELLIPSE
  5
4D6
100
AcDbEntity
  8
ASSI
100
AcDbEllipse
 62
7
  6
CONTINUOUS
 10
1.7798213958
 20
17.8712962147
 30
0.0
 11
0.249929385
 21
0.0111824824
 31
0.0
 40
0.5313301283
 41
3.1177659981
 42
3.9032222197
  0
ELLIPSE
  5
4D7
100
AcDbEntity
  8
ASSI
100
AcDbEllipse
 62
7
  6
CONTINUOUS
 10
-10.8066793093
 20
24.1645465672
 30
0.0
 11
0.249929385
 21
0.0111824824
 31
0.0
 40
0.5313301283
 41
3.1177659981
 42
3.9032222197
  0
ELLIPSE
  5
4D8
100
AcDbEntity
  8
ASSI
100
AcDbEllipse
 62
7
  6
CONTINUOUS
 10
-1.6603041073
 20
25.1695302025
 30
0.0
 11
0.3856611795
 21
-0.0054197667
 31
0.0
 40
0.4892375088
 41
-0.7610696355
 42
0.0068059907
  0
ELLIPSE
  5
4D9
100
AcDbEntity
  8
ASSI
100
AcDbEllipse
 62
7
  6
CONTINUOUS
 10
-2.3269574883
 20
21.3920474931
 30
0.0
 11
0.199943508
 21
0.008945986
 31
0.0
 40
0.5313301283
 41
3.1180383302
 42
3.9032222197
  0
ELLIPSE
  5
4DA
100
AcDbEntity
  8
ASSI
100
AcDbEllipse
 62
7
  6
CONTINUOUS
 10
-0.0363090912
 20
20.2467232945
 30
0.0
 11
0.199943508
 21
0.008945986
 31
0.0
 40
0.5313301283
 41
-2.3799630874
 42
-0.8266200532
  0
ELLIPSE
  5
4DB
100
AcDbEntity
  8
ASSI
100
AcDbEllipse
 62
7
  6
CONTINUOUS
 10
-6.0392680896
 20
23.2482027937
 30
0.0
 11
0.199943508
 21
0.008945986
 31
0.0
 40
0.5313301283
 41
3.1180383302
 42
3.9032222197
  0
ELLIPSE
  5
4DC
100
AcDbEntity
  8
ASSI
100
AcDbEllipse
 62
7
  6
CONTINUOUS
 10
-3.7486196924
 20
22.1028785951
 30
0.0
 11
0.199943508
 21
0.008945986
 31
0.0
 40
0.5313301283
 41
-2.3799630874
 42
-0.8266200532
  0
ELLIPSE
  5
4DD
100
AcDbEntity
  8
ASSI
100
AcDbEllipse
 62
7
  6
CONTINUOUS
 10
3.9488522084
 20
22.3649520446
 30
0.0
 11
0.3856611795
 21
-0.0054197667
 31
0.0
 40
0.4892375088
 41
-0.7610696355
 42
0.0068059907
  0
ELLIPSE
  5
4DE
100
AcDbEntity
  8
ASSI
100
AcDbEllipse
 62
7
  6
CONTINUOUS
 10
10.1153071827
 20
21.450408324
 30
0.0
 11
-0.7356038977
 21
1.2035991204
 31
0.0
 40
0.5552491559
 41
4.9036048137
 42
6.2240352843
  0
ENDSEC
  0
SECTION
  2
OBJECTS
  0
DICTIONARY
  5
C
100
AcDbDictionary
280
0
281
1
  3
ACAD_GROUP
350
D
  3
ACAD_MLINESTYLE
350
17
  3
ACAD_LAYOUT
350
1A
  3
ACAD_PLOTSETTINGS
350
19
  3
ACAD_PLOTSTYLENAME
350
E
  0
DICTIONARY
  5
D
102
{ACAD_REACTORS
330
C
102
}
100
AcDbDictionary
280
0
281
1
  0
ACDBDICTIONARYWDFLT
  5
E
102
{ACAD_REACTORS
330
C
102
}
100
AcDbDictionary
281
1
  3
Normal
350
F
100
AcDbDictionaryWithDefault
340
F
  0
DICTIONARY
  5
17
102
{ACAD_REACTORS
330
C
102
}
100
AcDbDictionary
280
0
281
1
  3
Standard
350
18
  0
DICTIONARY
  5
19
102
{ACAD_REACTORS
330
C
102
}
100
AcDbDictionary
281
1
  0
DICTIONARY
  5
1A
102
{ACAD_REACTORS
330
C
102
}
100
AcDbDictionary
281
1
  3
Model
350
4DF
  3
Layout1
350
4E0
  0
ACDBPLACEHOLDER
  5
F
102
{ACAD_REACTORS
330
E
102
}
  0
MLINESTYLE
  5
18
102
{ACAD_REACTORS
330
17
102
}
100
AcDbMlineStyle
  2
STANDARD
 70
0
  3

 62
256
 51
90.0
 52
90.0
 71
2
 49
0.5
 62
256
  6
BYLAYER
 49
-0.5
 62
256
  6
BYLAYER
  0
LAYOUT
  5
4DF
102
{ACAD_REACTORS
330
1A
102
}
100
AcDbPlotSettings
  1

  2
none_device
  4
ISO_A4_(297.00_x_210.00_MM)
  6

 40
0.0
 41
0.0
 42
0.0
 43
0.0
 44
297.0
 45
210.0
 46
0.0
 47
0.0
 48
0.0
 49
0.0
140
0.0
141
0.0
142
1.0
143
1.0
 70
1024
 72
1
 73
0
 74
0
  7

 75
0
147
1.0
148
0.0
149
0.0
100
AcDbLayout
  1
Model
 70
0
 71
0
 10
0.0
 20
0.0
 11
297.0
 21
210.0
 12
0.0
 22
0.0
 32
0.0
 14
0.0
 24
0.0
 34
0.0
 15
0.0
 25
0.0
 35
0.0
146
0.0
 13
0.0
 23
0.0
 33
0.0
 16
1.0
 26
0.0
 36
0.0
 17
0.0
 27
1.0
 37
0.0
 76
0
330
21B
345
0
346
0
  0
LAYOUT
  5
4E0
102
{ACAD_REACTORS
330
1A
102
}
100
AcDbPlotSettings
  1

  2
none_device
  4
ISO_A4_(297.00_x_210.00_MM)
  6

 40
0.0
 41
0.0
 42
0.0
 43
0.0
 44
297.0
 45
210.0
 46
0.0
 47
0.0
 48
0.0
 49
0.0
140
0.0
141
0.0
142
1.0
143
1.0
 70
0
 72
1
 73
0
 74
0
  7

 75
0
147
1.0
148
0.0
149
0.0
100
AcDbLayout
  1
Layout1
 70
0
 71
1
 10
0.0
 20
0.0
 11
297.0
 21
210.0
 12
0.0
 22
0.0
 32
0.0
 14
0.0
 24
0.0
 34
0.0
 15
0.0
 25
0.0
 35
0.0
146
0.0
 13
0.0
 23
0.0
 33
0.0
 16
1.0
 26
0.0
 36
0.0
 17
0.0
 27
1.0
 37
0.0
 76
0
330
21C
345
0
346
0
  0
ENDSEC
  0
EOF
