  0
SECTION
  2
HEADER
  9
$ACADVER
  1
AC1024
  9
$DWGCODEPAGE
  3
ANSI_1252
  9
$EXTMAX
 10
297.0
 20
210.0
 30
0.0
  9
$EXTMIN
 10
0.0
 20
0.0
 30
0.0
  9
$LIMMIN
 10
0.0
 20
0.0
  9
$LIMMAX
 10
297.0
 20
210.0
  9
$VIEWCTR
 10
148.5
 20
105.0
  9
$VIEWSIZE
 40
210.0
  9
$CLAYER
  8
0
  9
$LTSCALE
 40
16.335
  9
$CELTYPE
  6
BYLAYER
  9
$DIMSCALE
 40
1.0
  9
$DIMASZ
 40
3.0
  9
$DIMEXO
 40
0.5
  9
$DIMDLI
 40
11.286
  9
$DIMEXE
 40
1.5
  9
$DIMCEN
 40
2.673
  9
$DIMLFAC
 40
1.0
  9
$DIMBLK
  1
_FILLED
  9
$DIMALT
 70
0
  9
$DIMALTF
 40
0.0393700787
  9
$DIMTXT
 40
3.0
  9
$DIMTOL
 70
1
  9
$DIMLIM
 70
0
  9
$DIMTFAC
 40
1.0
  9
$DIMTP
 40
0.01
  9
$DIMTM
 40
0.01
  9
$DIMGAP
 40
0.625
  9
$DIMDSEP
 70
44
  9
$AUNITS
 70
0
  9
$PDMODE
 70
3
  9
$PDSIZE
 40
3.0
  9
$HANDSEED
  5
7C2
  9
$TILEMODE
 70
1
  9
$MEASUREMENT
 70
1
  9
$INSUNITS
 70
4
  0
ENDSEC
  0
SECTION
  2
CLASSES
  0
CLASS
  1
ACDBDICTIONARYWDFLT
  2
AcDbDictionaryWithDefault
  3
AutoCAD 2000
 90
0
 91
1
280
0
281
0
  0
CLASS
  1
ACDBPLACEHOLDER
  2
AcDbPlaceHolder
  3
AutoCAD 2000
 90
0
 91
1
280
0
281
0
  0
CLASS
  1
LAYOUT
  2
AcDbLayout
  3
AutoCAD 2000
 90
0
 91
0
280
0
281
0
  0
ENDSEC
  0
SECTION
  2
TABLES
  0
TABLE
  2
VPORT
  5
8
100
AcDbSymbolTable
 70
2
  0
VPORT
  5
1F4
100
AcDbSymbolTableRecord
100
AcDbViewportTableRecord
  2
*ACTIVE
 70
0
 10
0.0
 20
0.0
 11
1.0
 21
1.0
 12
148.5
 22
105.0
 13
0.0
 23
0.0
 14
1.0
 24
1.0
 15
0.0
 25
0.0
 16
0.0
 26
0.0
 36
1.0
 17
0.0
 27
0.0
 37
0.0
 40
210.0
 41
1.4142857143
 42
50.0
 43
0.0
 44
0.0
 50
0.0
 51
0.0
 71
0
 72
100
 73
1
 74
1
 75
0
 76
0
 77
0
 78
0
  0
ENDTAB
  0
TABLE
  2
LTYPE
  5
5
100
AcDbSymbolTable
 70
6
  0
LTYPE
  5
14
100
AcDbSymbolTableRecord
100
AcDbLinetypeTableRecord
  2
BYBLOCK
 70
0
  3

 72
65
 73
0
 40
0.0
  0
LTYPE
  5
15
100
AcDbSymbolTableRecord
100
AcDbLinetypeTableRecord
  2
BYLAYER
 70
0
  3

 72
65
 73
0
 40
0.0
  0
LTYPE
  5
16
100
AcDbSymbolTableRecord
100
AcDbLinetypeTableRecord
  2
CONTINUOUS
 70
64
  3
Solid line
 72
65
 73
0
 40
0.0
  0
LTYPE
  5
1F5
100
AcDbSymbolTableRecord
100
AcDbLinetypeTableRecord
  2
CENTER
 70
64
  3
____ _ ____ _ ____ _ ____ _ ____ _ ____ _ ____
 72
65
 73
4
 40
0.6
 49
0.375
 74
0
 49
-0.075
 74
0
 49
0.075
 74
0
 49
-0.075
 74
0
  0
LTYPE
  5
1F6
100
AcDbSymbolTableRecord
100
AcDbLinetypeTableRecord
  2
HIDDEN
 70
64
  3
- - - - - - - - - - - - - - - - - - - -
 72
65
 73
2
 40
0.2
 49
0.1
 74
0
 49
-0.1
 74
0
  0
LTYPE
  5
1F7
100
AcDbSymbolTableRecord
100
AcDbLinetypeTableRecord
  2
PHANTOM
 70
64
  3
_____ _ _ _____ _ _ _____ _ _ _____
 72
65
 73
6
 40
0.8
 49
0.45
 74
0
 49
-0.05
 74
0
 49
0.1
 74
0
 49
-0.05
 74
0
 49
0.1
 74
0
 49
-0.05
 74
0
  0
LTYPE
  5
1F8
100
AcDbSymbolTableRecord
100
AcDbLinetypeTableRecord
  2
DOT
 70
64
  3
. . . . . . . . . . . . . . . . . . . .
 72
65
 73
2
 40
0.2
 49
0.1
 74
0
 49
-0.1
 74
0
  0
LTYPE
  5
1F9
100
AcDbSymbolTableRecord
100
AcDbLinetypeTableRecord
  2
DASHED
 70
64
  3
- - - - - - - - - - - - - - - - - - - -
 72
65
 73
2
 40
0.2
 49
0.1
 74
0
 49
-0.1
 74
0
  0
ENDTAB
  0
TABLE
  2
LAYER
  5
2
100
AcDbSymbolTable
 70
36
  0
LAYER
  5
10
100
AcDbSymbolTableRecord
100
AcDbLayerTableRecord
  2
0
 70
0
 62
7
  6
CONTINUOUS
370
-3
390
F
  0
LAYER
  5
1FA
100
AcDbSymbolTableRecord
100
AcDbLayerTableRecord
  2
DEFAULT_1
 70
0
 62
7
  6
CENTER
370
-3
390
F
  0
LAYER
  5
1FB
100
AcDbSymbolTableRecord
100
AcDbLayerTableRecord
  2
DEFAULT_2
 70
0
 62
7
  6
HIDDEN
370
-3
390
F
  0
LAYER
  5
1FC
100
AcDbSymbolTableRecord
100
AcDbLayerTableRecord
  2
DEFAULT_3
 70
0
 62
7
  6
PHANTOM
370
-3
390
F
  0
LAYER
  5
1FD
100
AcDbSymbolTableRecord
100
AcDbLayerTableRecord
  2
0402_C_REF_70000
 70
0
 62
7
  6
CONTINUOUS
370
-3
390
F
  0
LAYER
  5
1FE
100
AcDbSymbolTableRecord
100
AcDbLayerTableRecord
  2
0402_C_REF_70000_1
 70
0
 62
7
  6
CONTINUOUS
370
-3
390
F
  0
LAYER
  5
1FF
100
AcDbSymbolTableRecord
100
AcDbLayerTableRecord
  2
0402_C_REF_70000_2
 70
0
 62
7
  6
CONTINUOUS
370
-3
390
F
  0
LAYER
  5
200
100
AcDbSymbolTableRecord
100
AcDbLayerTableRecord
  2
0402_C_REF_70000_3
 70
0
 62
7
  6
CONTINUOUS
370
-3
390
F
  0
LAYER
  5
201
100
AcDbSymbolTableRecord
100
AcDbLayerTableRecord
  2
0402_C_REF_70000_4
 70
0
 62
7
  6
CONTINUOUS
370
-3
390
F
  0
LAYER
  5
202
100
AcDbSymbolTableRecord
100
AcDbLayerTableRecord
  2
0402_C_REF_70000_5
 70
0
 62
7
  6
CONTINUOUS
370
-3
390
F
  0
LAYER
  5
203
100
AcDbSymbolTableRecord
100
AcDbLayerTableRecord
  2
0402_C_REF_70000_6
 70
0
 62
7
  6
CONTINUOUS
370
-3
390
F
  0
LAYER
  5
204
100
AcDbSymbolTableRecord
100
AcDbLayerTableRecord
  2
0402_C_REF_70000_7
 70
0
 62
7
  6
CONTINUOUS
370
-3
390
F
  0
LAYER
  5
205
100
AcDbSymbolTableRecord
100
AcDbLayerTableRecord
  2
0402_C_REF_70000_8
 70
0
 62
7
  6
CONTINUOUS
370
-3
390
F
  0
LAYER
  5
206
100
AcDbSymbolTableRecord
100
AcDbLayerTableRecord
  2
0402_R_REF_30000
 70
0
 62
7
  6
CONTINUOUS
370
-3
390
F
  0
LAYER
  5
207
100
AcDbSymbolTableRecord
100
AcDbLayerTableRecord
  2
0402_R_REF_30000_1
 70
0
 62
7
  6
CONTINUOUS
370
-3
390
F
  0
LAYER
  5
208
100
AcDbSymbolTableRecord
100
AcDbLayerTableRecord
  2
0402_R_REF_30000_10
 70
0
 62
7
  6
CONTINUOUS
370
-3
390
F
  0
LAYER
  5
209
100
AcDbSymbolTableRecord
100
AcDbLayerTableRecord
  2
0402_R_REF_30000_2
 70
0
 62
7
  6
CONTINUOUS
370
-3
390
F
  0
LAYER
  5
20A
100
AcDbSymbolTableRecord
100
AcDbLayerTableRecord
  2
0402_R_REF_30000_3
 70
0
 62
7
  6
CONTINUOUS
370
-3
390
F
  0
LAYER
  5
20B
100
AcDbSymbolTableRecord
100
AcDbLayerTableRecord
  2
0402_R_REF_30000_4
 70
0
 62
7
  6
CONTINUOUS
370
-3
390
F
  0
LAYER
  5
20C
100
AcDbSymbolTableRecord
100
AcDbLayerTableRecord
  2
0402_R_REF_30000_5
 70
0
 62
7
  6
CONTINUOUS
370
-3
390
F
  0
LAYER
  5
20D
100
AcDbSymbolTableRecord
100
AcDbLayerTableRecord
  2
0402_R_REF_30000_6
 70
0
 62
7
  6
CONTINUOUS
370
-3
390
F
  0
LAYER
  5
20E
100
AcDbSymbolTableRecord
100
AcDbLayerTableRecord
  2
0402_R_REF_30000_7
 70
0
 62
7
  6
CONTINUOUS
370
-3
390
F
  0
LAYER
  5
20F
100
AcDbSymbolTableRecord
100
AcDbLayerTableRecord
  2
0402_R_REF_30000_8
 70
0
 62
7
  6
CONTINUOUS
370
-3
390
F
  0
LAYER
  5
210
100
AcDbSymbolTableRecord
100
AcDbLayerTableRecord
  2
0402_R_REF_30000_9
 70
0
 62
7
  6
CONTINUOUS
370
-3
390
F
  0
LAYER
  5
211
100
AcDbSymbolTableRecord
100
AcDbLayerTableRecord
  2
0603_C_REF_90000
 70
0
 62
7
  6
CONTINUOUS
370
-3
390
F
  0
LAYER
  5
212
100
AcDbSymbolTableRecord
100
AcDbLayerTableRecord
  2
0603_C_REF_90000_1
 70
0
 62
7
  6
CONTINUOUS
370
-3
390
F
  0
LAYER
  5
213
100
AcDbSymbolTableRecord
100
AcDbLayerTableRecord
  2
0603_C_REF_90000_2
 70
0
 62
7
  6
CONTINUOUS
370
-3
390
F
  0
LAYER
  5
214
100
AcDbSymbolTableRecord
100
AcDbLayerTableRecord
  2
0603_C_REF_90000_3
 70
0
 62
7
  6
CONTINUOUS
370
-3
390
F
  0
LAYER
  5
215
100
AcDbSymbolTableRecord
100
AcDbLayerTableRecord
  2
06___PRT_ALL_SURFS
 70
0
 62
7
  6
CONTINUOUS
370
-3
390
F
  0
LAYER
  5
216
100
AcDbSymbolTableRecord
100
AcDbLayerTableRecord
  2
06___PRT_ALL_SURFS_1
 70
0
 62
7
  6
CONTINUOUS
370
-3
390
F
  0
LAYER
  5
217
100
AcDbSymbolTableRecord
100
AcDbLayerTableRecord
  2
06___PRT_ALL_SURFS_11
 70
0
 62
7
  6
CONTINUOUS
370
-3
390
F
  0
LAYER
  5
218
100
AcDbSymbolTableRecord
100
AcDbLayerTableRecord
  2
06___PRT_ALL_SURFS_12
 70
0
 62
7
  6
CONTINUOUS
370
-3
390
F
  0
LAYER
  5
219
100
AcDbSymbolTableRecord
100
AcDbLayerTableRecord
  2
06___PRT_ALL_SURFS_13
 70
0
 62
7
  6
CONTINUOUS
370
-3
390
F
  0
LAYER
  5
21A
100
AcDbSymbolTableRecord
100
AcDbLayerTableRecord
  2
06___PRT_ALL_SURFS_15
 70
0
 62
7
  6
CONTINUOUS
370
-3
390
F
  0
LAYER
  5
21B
100
AcDbSymbolTableRecord
100
AcDbLayerTableRecord
  2
06___PRT_ALL_SURFS_19
 70
0
 62
7
  6
CONTINUOUS
370
-3
390
F
  0
LAYER
  5
21C
100
AcDbSymbolTableRecord
100
AcDbLayerTableRecord
  2
06___PRT_ALL_SURFS_2
 70
0
 62
7
  6
CONTINUOUS
370
-3
390
F
  0
LAYER
  5
21D
100
AcDbSymbolTableRecord
100
AcDbLayerTableRecord
  2
06___PRT_ALL_SURFS_3
 70
0
 62
7
  6
CONTINUOUS
370
-3
390
F
  0
LAYER
  5
21E
100
AcDbSymbolTableRecord
100
AcDbLayerTableRecord
  2
06___PRT_ALL_SURFS_4
 70
0
 62
7
  6
CONTINUOUS
370
-3
390
F
  0
LAYER
  5
21F
100
AcDbSymbolTableRecord
100
AcDbLayerTableRecord
  2
06___PRT_ALL_SURFS_6
 70
0
 62
7
  6
CONTINUOUS
370
-3
390
F
  0
LAYER
  5
220
100
AcDbSymbolTableRecord
100
AcDbLayerTableRecord
  2
06___PRT_ALL_SURFS_7
 70
0
 62
7
  6
CONTINUOUS
370
-3
390
F
  0
LAYER
  5
221
100
AcDbSymbolTableRecord
100
AcDbLayerTableRecord
  2
06___PRT_ALL_SURFS_8
 70
0
 62
7
  6
CONTINUOUS
370
-3
390
F
  0
LAYER
  5
222
100
AcDbSymbolTableRecord
100
AcDbLayerTableRecord
  2
06___PRT_ALL_SURFS_9
 70
0
 62
7
  6
CONTINUOUS
370
-3
390
F
  0
LAYER
  5
223
100
AcDbSymbolTableRecord
100
AcDbLayerTableRecord
  2
0805_C_REF_145000
 70
0
 62
7
  6
CONTINUOUS
370
-3
390
F
  0
LAYER
  5
224
100
AcDbSymbolTableRecord
100
AcDbLayerTableRecord
  2
0805_C_REF_145000_1
 70
0
 62
7
  6
CONTINUOUS
370
-3
390
F
  0
LAYER
  5
225
100
AcDbSymbolTableRecord
100
AcDbLayerTableRecord
  2
0805_C_REF_145000_2
 70
0
 62
7
  6
CONTINUOUS
370
-3
390
F
  0
LAYER
  5
226
100
AcDbSymbolTableRecord
100
AcDbLayerTableRecord
  2
0805_C_REF_145000_3
 70
0
 62
7
  6
CONTINUOUS
370
-3
390
F
  0
LAYER
  5
227
100
AcDbSymbolTableRecord
100
AcDbLayerTableRecord
  2
0805_C_REF_145000_4
 70
0
 62
7
  6
CONTINUOUS
370
-3
390
F
  0
LAYER
  5
228
100
AcDbSymbolTableRecord
100
AcDbLayerTableRecord
  2
0805_R_REF_60000
 70
0
 62
7
  6
CONTINUOUS
370
-3
390
F
  0
LAYER
  5
229
100
AcDbSymbolTableRecord
100
AcDbLayerTableRecord
  2
0805_R_REF_60000_1
 70
0
 62
7
  6
CONTINUOUS
370
-3
390
F
  0
LAYER
  5
22A
100
AcDbSymbolTableRecord
100
AcDbLayerTableRecord
  2
0805_R_REF_60000_2
 70
0
 62
7
  6
CONTINUOUS
370
-3
390
F
  0
LAYER
  5
22B
100
AcDbSymbolTableRecord
100
AcDbLayerTableRecord
  2
0805_R_REF_60000_3
 70
0
 62
7
  6
CONTINUOUS
370
-3
390
F
  0
LAYER
  5
22C
100
AcDbSymbolTableRecord
100
AcDbLayerTableRecord
  2
0805_R_REF_60000_4
 70
0
 62
7
  6
CONTINUOUS
370
-3
390
F
  0
LAYER
  5
22D
100
AcDbSymbolTableRecord
100
AcDbLayerTableRecord
  2
0805_R_REF_60000_5
 70
0
 62
7
  6
CONTINUOUS
370
-3
390
F
  0
LAYER
  5
22E
100
AcDbSymbolTableRecord
100
AcDbLayerTableRecord
  2
1206_C_REF_180000
 70
0
 62
7
  6
CONTINUOUS
370
-3
390
F
  0
LAYER
  5
22F
100
AcDbSymbolTableRecord
100
AcDbLayerTableRecord
  2
1206_C_REF_180000_1
 70
0
 62
7
  6
CONTINUOUS
370
-3
390
F
  0
LAYER
  5
230
100
AcDbSymbolTableRecord
100
AcDbLayerTableRecord
  2
1206_R_REF_65000
 70
0
 62
7
  6
CONTINUOUS
370
-3
390
F
  0
LAYER
  5
231
100
AcDbSymbolTableRecord
100
AcDbLayerTableRecord
  2
1206_R_REF_65000_1
 70
0
 62
7
  6
CONTINUOUS
370
-3
390
F
  0
LAYER
  5
232
100
AcDbSymbolTableRecord
100
AcDbLayerTableRecord
  2
43001070A0
 70
0
 62
7
  6
CONTINUOUS
370
-3
390
F
  0
LAYER
  5
233
100
AcDbSymbolTableRecord
100
AcDbLayerTableRecord
  2
43001071A0
 70
0
 62
7
  6
CONTINUOUS
370
-3
390
F
  0
LAYER
  5
234
100
AcDbSymbolTableRecord
100
AcDbLayerTableRecord
  2
43901070A0
 70
0
 62
7
  6
CONTINUOUS
370
-3
390
F
  0
LAYER
  5
235
100
AcDbSymbolTableRecord
100
AcDbLayerTableRecord
  2
43901071A0
 70
0
 62
7
  6
CONTINUOUS
370
-3
390
F
  0
LAYER
  5
236
100
AcDbSymbolTableRecord
100
AcDbLayerTableRecord
  2
ASSI
 70
0
 62
7
  6
CONTINUOUS
370
-3
390
F
  0
LAYER
  5
237
100
AcDbSymbolTableRecord
100
AcDbLayerTableRecord
  2
CAP-E-5_0-11_0-2_0_1250000
 70
0
 62
7
  6
CONTINUOUS
370
-3
390
F
  0
LAYER
  5
238
100
AcDbSymbolTableRecord
100
AcDbLayerTableRecord
  2
CAP-E-8_0-11_5-3_5_1200000
 70
0
 62
7
  6
CONTINUOUS
370
-3
390
F
  0
LAYER
  5
239
100
AcDbSymbolTableRecord
100
AcDbLayerTableRecord
  2
COLOR1
 70
0
 62
7
  6
CONTINUOUS
370
-3
390
F
  0
LAYER
  5
23A
100
AcDbSymbolTableRecord
100
AcDbLayerTableRecord
  2
COLOR15
 70
0
 62
7
  6
CONTINUOUS
370
-3
390
F
  0
LAYER
  5
23B
100
AcDbSymbolTableRecord
100
AcDbLayerTableRecord
  2
COLOR17
 70
0
 62
7
  6
CONTINUOUS
370
-3
390
F
  0
LAYER
  5
23C
100
AcDbSymbolTableRecord
100
AcDbLayerTableRecord
  2
COLOR2
 70
0
 62
7
  6
CONTINUOUS
370
-3
390
F
  0
LAYER
  5
23D
100
AcDbSymbolTableRecord
100
AcDbLayerTableRecord
  2
COLOR28
 70
0
 62
7
  6
CONTINUOUS
370
-3
390
F
  0
LAYER
  5
23E
100
AcDbSymbolTableRecord
100
AcDbLayerTableRecord
  2
COLOR40
 70
0
 62
7
  6
CONTINUOUS
370
-3
390
F
  0
LAYER
  5
23F
100
AcDbSymbolTableRecord
100
AcDbLayerTableRecord
  2
COLOR5
 70
0
 62
7
  6
CONTINUOUS
370
-3
390
F
  0
LAYER
  5
240
100
AcDbSymbolTableRecord
100
AcDbLayerTableRecord
  2
COLOR6
 70
0
 62
7
  6
CONTINUOUS
370
-3
390
F
  0
LAYER
  5
241
100
AcDbSymbolTableRecord
100
AcDbLayerTableRecord
  2
COLOR67
 70
0
 62
7
  6
CONTINUOUS
370
-3
390
F
  0
LAYER
  5
242
100
AcDbSymbolTableRecord
100
AcDbLayerTableRecord
  2
COLOR71
 70
0
 62
7
  6
CONTINUOUS
370
-3
390
F
  0
LAYER
  5
243
100
AcDbSymbolTableRecord
100
AcDbLayerTableRecord
  2
COLORE_MATERIALE
 70
0
 62
7
  6
CONTINUOUS
370
-3
390
F
  0
LAYER
  5
244
100
AcDbSymbolTableRecord
100
AcDbLayerTableRecord
  2
COORDINATE
 70
0
 62
7
  6
CONTINUOUS
370
-3
390
F
  0
LAYER
  5
245
100
AcDbSymbolTableRecord
100
AcDbLayerTableRecord
  2
COORD_ORIGINE
 70
0
 62
7
  6
CONTINUOUS
370
-3
390
F
  0
LAYER
  5
246
100
AcDbSymbolTableRecord
100
AcDbLayerTableRecord
  2
COPY_PUBLISH
 70
0
 62
7
  6
CONTINUOUS
370
-3
390
F
  0
LAYER
  5
247
100
AcDbSymbolTableRecord
100
AcDbLayerTableRecord
  2
COSMETIC
 70
0
 62
7
  6
CONTINUOUS
370
-3
390
F
  0
LAYER
  5
248
100
AcDbSymbolTableRecord
100
AcDbLayerTableRecord
  2
COSMETICI
 70
0
 62
7
  6
CONTINUOUS
370
-3
390
F
  0
LAYER
  5
249
100
AcDbSymbolTableRecord
100
AcDbLayerTableRecord
  2
CR_MR2P5_MSB_SW_PTH_1000000
 70
0
 62
7
  6
CONTINUOUS
370
-3
390
F
  0
LAYER
  5
24A
100
AcDbSymbolTableRecord
100
AcDbLayerTableRecord
  2
CURVE
 70
0
 62
7
  6
CONTINUOUS
370
-3
390
F
  0
LAYER
  5
24B
100
AcDbSymbolTableRecord
100
AcDbLayerTableRecord
  2
DRAFT
 70
0
 62
7
  6
CONTINUOUS
370
-3
390
F
  0
LAYER
  5
24C
100
AcDbSymbolTableRecord
100
AcDbLayerTableRecord
  2
GEOMETRIA_SOLIDA
 70
0
 62
7
  6
CONTINUOUS
370
-3
390
F
  0
LAYER
  5
24D
100
AcDbSymbolTableRecord
100
AcDbLayerTableRecord
  2
GEOMETRIA_SOLIDA_1
 70
0
 62
7
  6
CONTINUOUS
370
-3
390
F
  0
LAYER
  5
24E
100
AcDbSymbolTableRecord
100
AcDbLayerTableRecord
  2
GEOMETRIA_SOLIDA_2
 70
0
 62
7
  6
CONTINUOUS
370
-3
390
F
  0
LAYER
  5
24F
100
AcDbSymbolTableRecord
100
AcDbLayerTableRecord
  2
GEOMETRIA_SOLIDA_3
 70
0
 62
7
  6
CONTINUOUS
370
-3
390
F
  0
LAYER
  5
250
100
AcDbSymbolTableRecord
100
AcDbLayerTableRecord
  2
IMPORT_IGES
 70
0
 62
7
  6
CONTINUOUS
370
-3
390
F
  0
LAYER
  5
251
100
AcDbSymbolTableRecord
100
AcDbLayerTableRecord
  2
IMPORT_IGES_1
 70
0
 62
7
  6
CONTINUOUS
370
-3
390
F
  0
LAYER
  5
252
100
AcDbSymbolTableRecord
100
AcDbLayerTableRecord
  2
IMPORT_IGES_5
 70
0
 62
7
  6
CONTINUOUS
370
-3
390
F
  0
LAYER
  5
253
100
AcDbSymbolTableRecord
100
AcDbLayerTableRecord
  2
IND-CHIP-0805_H1_1_REF_110000
 70
0
 62
7
  6
CONTINUOUS
370
-3
390
F
  0
LAYER
  5
254
100
AcDbSymbolTableRecord
100
AcDbLayerTableRecord
  2
INTFCLR_1
 70
0
 62
7
  6
CONTINUOUS
370
-3
390
F
  0
LAYER
  5
255
100
AcDbSymbolTableRecord
100
AcDbLayerTableRecord
  2
INTFCLR_1509
 70
0
 62
7
  6
CONTINUOUS
370
-3
390
F
  0
LAYER
  5
256
100
AcDbSymbolTableRecord
100
AcDbLayerTableRecord
  2
INTFCLR_1649
 70
0
 62
7
  6
CONTINUOUS
370
-3
390
F
  0
LAYER
  5
257
100
AcDbSymbolTableRecord
100
AcDbLayerTableRecord
  2
INTFCLR_3
 70
0
 62
7
  6
CONTINUOUS
370
-3
390
F
  0
LAYER
  5
258
100
AcDbSymbolTableRecord
100
AcDbLayerTableRecord
  2
INTF_1
 70
0
 62
7
  6
CONTINUOUS
370
-3
390
F
  0
LAYER
  5
259
100
AcDbSymbolTableRecord
100
AcDbLayerTableRecord
  2
INTF_11
 70
0
 62
7
  6
CONTINUOUS
370
-3
390
F
  0
LAYER
  5
25A
100
AcDbSymbolTableRecord
100
AcDbLayerTableRecord
  2
INTF_15
 70
0
 62
7
  6
CONTINUOUS
370
-3
390
F
  0
LAYER
  5
25B
100
AcDbSymbolTableRecord
100
AcDbLayerTableRecord
  2
INTF_16
 70
0
 62
7
  6
CONTINUOUS
370
-3
390
F
  0
LAYER
  5
25C
100
AcDbSymbolTableRecord
100
AcDbLayerTableRecord
  2
INTF_2
 70
0
 62
7
  6
CONTINUOUS
370
-3
390
F
  0
LAYER
  5
25D
100
AcDbSymbolTableRecord
100
AcDbLayerTableRecord
  2
INTF_3
 70
0
 62
7
  6
CONTINUOUS
370
-3
390
F
  0
LAYER
  5
25E
100
AcDbSymbolTableRecord
100
AcDbLayerTableRecord
  2
INTF_5
 70
0
 62
7
  6
CONTINUOUS
370
-3
390
F
  0
LAYER
  5
25F
100
AcDbSymbolTableRecord
100
AcDbLayerTableRecord
  2
INTF_7
 70
0
 62
7
  6
CONTINUOUS
370
-3
390
F
  0
LAYER
  5
260
100
AcDbSymbolTableRecord
100
AcDbLayerTableRecord
  2
INTF_8
 70
0
 62
7
  6
CONTINUOUS
370
-3
390
F
  0
LAYER
  5
261
100
AcDbSymbolTableRecord
100
AcDbLayerTableRecord
  2
INTF_YELLOW
 70
0
 62
7
  6
CONTINUOUS
370
-3
390
F
  0
LAYER
  5
262
100
AcDbSymbolTableRecord
100
AcDbLayerTableRecord
  2
LIVELLO_1
 70
0
 62
7
  6
CONTINUOUS
370
-3
390
F
  0
LAYER
  5
263
100
AcDbSymbolTableRecord
100
AcDbLayerTableRecord
  2
MINIMELF_R_REF_140000
 70
0
 62
7
  6
CONTINUOUS
370
-3
390
F
  0
LAYER
  5
264
100
AcDbSymbolTableRecord
100
AcDbLayerTableRecord
  2
NOTE
 70
0
 62
7
  6
CONTINUOUS
370
-3
390
F
  0
LAYER
  5
265
100
AcDbSymbolTableRecord
100
AcDbLayerTableRecord
  2
PIANI
 70
0
 62
7
  6
CONTINUOUS
370
-3
390
F
  0
LAYER
  5
266
100
AcDbSymbolTableRecord
100
AcDbLayerTableRecord
  2
PIANI_ORIGINE
 70
0
 62
7
  6
CONTINUOUS
370
-3
390
F
  0
LAYER
  5
267
100
AcDbSymbolTableRecord
100
AcDbLayerTableRecord
  2
PIANI_RIFERIMENTO
 70
0
 62
7
  6
CONTINUOUS
370
-3
390
F
  0
LAYER
  5
268
100
AcDbSymbolTableRecord
100
AcDbLayerTableRecord
  2
POWERDI-123_100000
 70
0
 62
7
  6
CONTINUOUS
370
-3
390
F
  0
LAYER
  5
269
100
AcDbSymbolTableRecord
100
AcDbLayerTableRecord
  2
PROFILO_NASCOSTO
 70
0
 62
7
  6
CONTINUOUS
370
-3
390
F
  0
LAYER
  5
26A
100
AcDbSymbolTableRecord
100
AcDbLayerTableRecord
  2
PUNTI
 70
0
 62
7
  6
CONTINUOUS
370
-3
390
F
  0
LAYER
  5
26B
100
AcDbSymbolTableRecord
100
AcDbLayerTableRecord
  2
QFN24-4_0-4_0-4_0-4_0_0_9-0_5-0
 70
0
 62
7
  6
CONTINUOUS
370
-3
390
F
  0
LAYER
  5
26C
100
AcDbSymbolTableRecord
100
AcDbLayerTableRecord
  2
RACCORDO
 70
0
 62
7
  6
CONTINUOUS
370
-3
390
F
  0
LAYER
  5
26D
100
AcDbSymbolTableRecord
100
AcDbLayerTableRecord
  2
SIMBOLI
 70
0
 62
7
  6
CONTINUOUS
370
-3
390
F
  0
LAYER
  5
26E
100
AcDbSymbolTableRecord
100
AcDbLayerTableRecord
  2
SMUSSO
 70
0
 62
7
  6
CONTINUOUS
370
-3
390
F
  0
LAYER
  5
26F
100
AcDbSymbolTableRecord
100
AcDbLayerTableRecord
  2
SNAPLINE
 70
0
 62
7
  6
CONTINUOUS
370
-3
390
F
  0
LAYER
  5
270
100
AcDbSymbolTableRecord
100
AcDbLayerTableRecord
  2
SUB_SMA_143000
 70
0
 62
7
  6
CONTINUOUS
370
-3
390
F
  0
LAYER
  5
271
100
AcDbSymbolTableRecord
100
AcDbLayerTableRecord
  2
SUB_SMA_143000_1
 70
0
 62
7
  6
CONTINUOUS
370
-3
390
F
  0
LAYER
  5
272
100
AcDbSymbolTableRecord
100
AcDbLayerTableRecord
  2
SUPERFICI
 70
0
 62
7
  6
CONTINUOUS
370
-3
390
F
  0
LAYER
  5
273
100
AcDbSymbolTableRecord
100
AcDbLayerTableRecord
  2
SUPERFICI_SKEL
 70
0
 62
7
  6
CONTINUOUS
370
-3
390
F
  0
LAYER
  5
274
100
AcDbSymbolTableRecord
100
AcDbLayerTableRecord
  2
TP10_SMD_0
 70
0
 62
7
  6
CONTINUOUS
370
-3
390
F
  0
LAYER
  5
275
100
AcDbSymbolTableRecord
100
AcDbLayerTableRecord
  2
TP10_SMD_0_1
 70
0
 62
7
  6
CONTINUOUS
370
-3
390
F
  0
LAYER
  5
276
100
AcDbSymbolTableRecord
100
AcDbLayerTableRecord
  2
TP10_SMD_0_2
 70
0
 62
7
  6
CONTINUOUS
370
-3
390
F
  0
LAYER
  5
277
100
AcDbSymbolTableRecord
100
AcDbLayerTableRecord
  2
TP10_SMD_0_3
 70
0
 62
7
  6
CONTINUOUS
370
-3
390
F
  0
LAYER
  5
278
100
AcDbSymbolTableRecord
100
AcDbLayerTableRecord
  2
TRASH
 70
0
 62
7
  6
CONTINUOUS
370
-3
390
F
  0
LAYER
  5
279
100
AcDbSymbolTableRecord
100
AcDbLayerTableRecord
  2
VG_CAP-E-8_0-13_0-3_5-0_6_14000
 70
0
 62
7
  6
CONTINUOUS
370
-3
390
F
  0
LAYER
  5
27A
100
AcDbSymbolTableRecord
100
AcDbLayerTableRecord
  2
VG_CAP-E-8_0-13_0-3_5-0_6_140_1
 70
0
 62
7
  6
CONTINUOUS
370
-3
390
F
  0
LAYER
  5
27B
100
AcDbSymbolTableRecord
100
AcDbLayerTableRecord
  2
VG_CAP-RND-9_0-12_0-4_0-10_0-0_
 70
0
 62
7
  6
CONTINUOUS
370
-3
390
F
  0
LAYER
  5
27C
100
AcDbSymbolTableRecord
100
AcDbLayerTableRecord
  2
VG_CAP-RND-9_0-12_0-4_0-10_0-_1
 70
0
 62
7
  6
CONTINUOUS
370
-3
390
F
  0
LAYER
  5
27D
100
AcDbSymbolTableRecord
100
AcDbLayerTableRecord
  2
VG_CN-SMT-USB-TYPE_C-24P-H9_3-T
 70
0
 62
7
  6
CONTINUOUS
370
-3
390
F
  0
LAYER
  5
27E
100
AcDbSymbolTableRecord
100
AcDbLayerTableRecord
  2
VG_DB_SOPA-4_150000
 70
0
 62
7
  6
CONTINUOUS
370
-3
390
F
  0
LAYER
  5
27F
100
AcDbSymbolTableRecord
100
AcDbLayerTableRecord
  2
VG_FUSE-RAD-8_5-4_3-7_85-5_08-0
 70
0
 62
7
  6
CONTINUOUS
370
-3
390
F
  0
LAYER
  5
280
100
AcDbSymbolTableRecord
100
AcDbLayerTableRecord
  2
VG_IND-RAD-7_0-12_0-2_5-0_6_120
 70
0
 62
7
  6
CONTINUOUS
370
-3
390
F
  0
LAYER
  5
281
100
AcDbSymbolTableRecord
100
AcDbLayerTableRecord
  2
VG_INSOP24D-9_4-13_43-1_6-0_75-
 70
0
 62
7
  6
CONTINUOUS
370
-3
390
F
  0
LAYER
  5
282
100
AcDbSymbolTableRecord
100
AcDbLayerTableRecord
  2
VG_PAD_SMD_REC_P1_0X2_5_1_14X2_
 70
0
 62
7
  6
CONTINUOUS
370
-3
390
F
  0
LAYER
  5
283
100
AcDbSymbolTableRecord
100
AcDbLayerTableRecord
  2
VG_PAD_SMD_REC_P2_0X2_5_2_14X2_
 70
0
 62
7
  6
CONTINUOUS
370
-3
390
F
  0
LAYER
  5
284
100
AcDbSymbolTableRecord
100
AcDbLayerTableRecord
  2
VG_PAD_SMD_REC_P2_0X2_5_2_14X_1
 70
0
 62
7
  6
CONTINUOUS
370
-3
390
F
  0
LAYER
  5
285
100
AcDbSymbolTableRecord
100
AcDbLayerTableRecord
  2
VG_PAD_SMD_REC_P2_0X2_5_2_14X_2
 70
0
 62
7
  6
CONTINUOUS
370
-3
390
F
  0
LAYER
  5
286
100
AcDbSymbolTableRecord
100
AcDbLayerTableRecord
  2
VG_PAD_SMD_REC_P2_0X2_5_2_14X_3
 70
0
 62
7
  6
CONTINUOUS
370
-3
390
F
  0
LAYER
  5
287
100
AcDbSymbolTableRecord
100
AcDbLayerTableRecord
  2
VG_POWER56_110000
 70
0
 62
7
  6
CONTINUOUS
370
-3
390
F
  0
LAYER
  5
288
100
AcDbSymbolTableRecord
100
AcDbLayerTableRecord
  2
VG_TRA_RM7_30W_4_1350000
 70
0
 62
7
  6
CONTINUOUS
370
-3
390
F
  0
LAYER
  5
289
100
AcDbSymbolTableRecord
100
AcDbLayerTableRecord
  2
VG_WDFN8-5-0_8_80000
 70
0
 62
7
  6
CONTINUOUS
370
-3
390
F
  0
LAYER
  5
28A
100
AcDbSymbolTableRecord
100
AcDbLayerTableRecord
  2
WHITE
 70
0
 62
7
  6
CONTINUOUS
370
-3
390
F
  0
LAYER
  5
28B
100
AcDbSymbolTableRecord
100
AcDbLayerTableRecord
  2
___SHELL
 70
0
 62
7
  6
CONTINUOUS
370
-3
390
F
  0
ENDTAB
  0
TABLE
  2
STYLE
  5
3
100
AcDbSymbolTable
 70
1
  0
STYLE
  5
11
100
AcDbSymbolTableRecord
100
AcDbTextStyleTableRecord
  2
STANDARD
 70
0
 40
0.0
 41
0.8
 50
0.0
 71
0
 42
0.2
  3
txt
  4

  0
STYLE
  5
28C
100
AcDbSymbolTableRecord
100
AcDbTextStyleTableRecord
  2
TEXTSTYLE_1
 70
0
 40
0.0
 41
0.8
 50
0.0
 71
0
 42
0.2
  3
gdt
  4

  0
ENDTAB
  0
TABLE
  2
VIEW
  5
6
100
AcDbSymbolTable
 70
0
  0
ENDTAB
  0
TABLE
  2
UCS
  5
7
100
AcDbSymbolTable
 70
0
  0
ENDTAB
  0
TABLE
  2
APPID
  5
9
100
AcDbSymbolTable
 70
1
  0
APPID
  5
28D
100
AcDbSymbolTableRecord
100
AcDbRegAppTableRecord
  2
ACAD
 70
0
  0
ENDTAB
  0
TABLE
  2
BLOCK_RECORD
  5
1
100
AcDbSymbolTable
 70
0
  0
BLOCK_RECORD
  5
28E
100
AcDbSymbolTableRecord
100
AcDbBlockTableRecord
  2
*Model_Space
  0
BLOCK_RECORD
  5
28F
100
AcDbSymbolTableRecord
100
AcDbBlockTableRecord
  2
*Paper_Space
  0
BLOCK_RECORD
  5
290
100
AcDbSymbolTableRecord
100
AcDbBlockTableRecord
  2
_FILLED
  0
ENDTAB
  0
TABLE
  2
DIMSTYLE
  5
A
100
AcDbSymbolTable
 70
1
100
AcDbDimStyleTable
 71
0
  0
DIMSTYLE
105
291
100
AcDbSymbolTableRecord
100
AcDbDimStyleTableRecord
  2
STANDARD
 70
0
  3

  4

 40
1.0
 41
3.0
 42
0.5
 43
0.38
 44
1.5
 45
0.0
 46
0.0
 47
0.01
 48
0.01
140
3.0
141
0.09
142
0.0
143
25.4
144
1.0
145
0.0
146
1.0
147
0.625
 71
1
 72
0
 73
0
 74
0
 75
0
 76
0
 77
1
 78
8
 79
2
170
0
171
1
172
0
173
0
174
0
175
0
176
0
177
0
178
0
270
2
179
2
271
2
272
2
273
2
274
2
275
0
280
0
281
0
282
0
283
1
284
8
285
0
286
0
287
3
288
0
340
11
278
44
341
290
342
290
343
290
344
290
  0
ENDTAB
  0
ENDSEC
  0
SECTION
  2
BLOCKS
  0
BLOCK
  5
20
100
AcDbEntity
  8
0
100
AcDbBlockBegin
  2
*Model_Space
 70
0
 10
0.0
 20
0.0
 30
0.0
  3
*Model_Space
  1

  0
ENDBLK
  5
21
100
AcDbEntity
  8
0
100
AcDbBlockEnd
  0
BLOCK
  5
1C
100
AcDbEntity
  8
0
100
AcDbBlockBegin
  2
*Paper_Space
 70
0
 10
0.0
 20
0.0
 30
0.0
  3
*Paper_Space
  1

  0
ENDBLK
  5
1D
100
AcDbEntity
  8
0
100
AcDbBlockEnd
  0
BLOCK
  5
292
100
AcDbEntity
  8
0
100
AcDbBlockBegin
  2
_FILLED
 70
64
 10
0.0
 20
0.0
  3
_FILLED
  1

  0
SOLID
  5
293
100
AcDbEntity
  8
0
  6
BYBLOCK
 62
0
100
AcDbTrace
 10
0.0
 20
0.0
 11
-1.0
 21
0.3166666667
 12
-1.0
 22
-0.3166666667
 13
-1.0
 23
-0.3166666667
  0
ENDBLK
  5
294
100
AcDbEntity
  8
0
  6
BYBLOCK
 62
0
100
AcDbBlockEnd
  0
ENDSEC
  0
SECTION
  2
ENTITIES
  0
LWPOLYLINE
  5
295
100
AcDbEntity
  8
ASSI
100
AcDbPolyline
 62
250
  6
CONTINUOUS
 90
11
 70
0
 10
-6.5814567443
 20
23.0095449602
 10
-6.5897874391
 20
22.9977474326
 10
-6.5977842056
 20
22.9854794909
 10
-6.6054170825
 20
22.9727687172
 10
-6.6126269779
 20
22.9596992143
 10
-6.619379579
 20
22.9463242119
 10
-6.625651292
 20
22.9326806918
 10
-6.631407561
 20
22.9188354932
 10
-6.6366243446
 20
22.9048399338
 10
-6.6412808325
 20
22.8907424952
 10
-6.645503244
 20
22.8760474215
  0
LWPOLYLINE
  5
296
100
AcDbEntity
  8
ASSI
100
AcDbPolyline
 62
250
  6
CONTINUOUS
 90
3
 70
0
 10
-6.5832297039
 20
23.007111905
 10
-6.5744106464
 20
23.0188322475
 10
-6.5652469025
 20
23.030062041
  0
LWPOLYLINE
  5
297
100
AcDbEntity
  8
ASSI
100
AcDbPolyline
 62
250
  6
CONTINUOUS
 90
3
 70
0
 10
-6.5640045286
 20
23.0315155629
 10
-6.5728335671
 20
23.0208307222
 10
-6.5814567443
 20
23.0095449602
  0
LINE
  5
298
100
AcDbEntity
  8
ASSI
100
AcDbLine
 62
250
  6
CONTINUOUS
 10
-6.5550096717
 20
23.0415818901
 11
-6.5652469025
 21
23.030062041
  0
LINE
  5
299
100
AcDbEntity
  8
ASSI
100
AcDbLine
 62
250
  6
CONTINUOUS
 10
-6.5458884181
 20
23.051015113
 11
-6.5557677249
 21
23.0407639739
  0
LWPOLYLINE
  5
29A
100
AcDbEntity
  8
ASSI
100
AcDbPolyline
 62
250
  6
CONTINUOUS
 90
7
 70
0
 10
-6.5460105506
 20
23.0508938063
 10
-6.5360105989
 20
23.0604141105
 10
-6.5258044263
 20
23.0692892011
 10
-6.5154334978
 20
23.0774822091
 10
-6.5049372978
 20
23.0849622232
 10
-6.4943529164
 20
23.0917034087
 10
-6.4837191576
 20
23.0976813014
  0
LWPOLYLINE
  5
29B
100
AcDbEntity
  8
ASSI
100
AcDbPolyline
 62
7
  6
CONTINUOUS
 90
7
 70
0
 10
-5.7213357965
 20
22.009055928
 10
-5.7547992098
 20
21.9834743797
 10
-5.7683651966
 20
21.9729103208
 10
-5.7793376472
 20
21.9633485282
 10
-5.7875348565
 20
21.9550081999
 10
-5.7927604822
 20
21.9488164044
 10
-5.7945588315
 20
21.9449982826
  0
LWPOLYLINE
  5
29C
100
AcDbEntity
  8
ASSI
100
AcDbPolyline
 62
7
  6
CONTINUOUS
 90
10
 70
0
 10
-6.5875245299
 20
23.0952520945
 10
-6.6097964246
 20
23.079908049
 10
-6.6306713482
 20
23.0619192173
 10
-6.6498408419
 20
23.041483917
 10
-6.6665978526
 20
23.0194706809
 10
-6.6812472202
 20
22.9956055985
 10
-6.6937137683
 20
22.9698053375
 10
-6.7033484427
 20
22.9433658566
 10
-6.7101561753
 20
22.9166149691
 10
-6.7142544413
 20
22.8888067508
  0
LWPOLYLINE
  5
29D
100
AcDbEntity
  8
ASSI
100
AcDbPolyline
 62
7
  6
CONTINUOUS
 90
19
 70
0
 10
-10.2307229493
 20
19.276368237
 10
-10.242679648
 20
19.269179713
 10
-10.3148782702
 20
19.221322839
 10
-10.3839653184
 20
19.1679140043
 10
-10.4499455528
 20
19.1092353433
 10
-10.5127126937
 20
19.0456217134
 10
-10.5719455606
 20
18.9775874856
 10
-10.6275643381
 20
18.905419339
 10
-10.6794228893
 20
18.8293921054
 10
-10.7270820245
 20
18.7502218091
 10
-10.7704161655
 20
18.6682237811
 10
-10.8092465167
 20
18.583684043
 10
-10.8431909898
 20
18.4974340938
 10
-10.8721050357
 20
18.409799537
 10
-10.8958157128
 20
18.3210559514
 10
-10.914056171
 20
18.2319157609
 10
-10.926642639
 20
18.1427426858
 10
-10.9334206372
 20
18.0536932248
 10
-10.9338744524
 20
18.0418225813
  0
LWPOLYLINE
  5
29E
100
AcDbEntity
  8
ASSI
100
AcDbPolyline
 62
7
  6
CONTINUOUS
 90
10
 70
0
 10
-6.5760745907
 20
23.1018281905
 10
-6.5945842748
 20
23.090770941
 10
-6.6157999697
 20
23.0751266567
 10
-6.635617872
 20
23.0570481133
 10
-6.6537842695
 20
23.0367042316
 10
-6.6696391086
 20
23.0149364082
 10
-6.6834519964
 20
22.9914975282
 10
-6.6951722523
 20
22.9662844757
 10
-6.7042170499
 20
22.9404944843
 10
-6.7105856482
 20
22.9144356225
  0
LINE
  5
29F
100
AcDbEntity
  8
ASSI
100
AcDbLine
 62
7
  6
CONTINUOUS
 10
-10.2308769232
 20
19.2762903571
 11
-6.0005198381
 21
21.7840553074
  0
LINE
  5
2A0
100
AcDbEntity
  8
ASSI
100
AcDbLine
 62
250
  6
CONTINUOUS
 10
-6.0005198381
 20
21.63693999
 11
-10.0547041256
 21
19.2335527368
  0
LINE
  5
2A1
100
AcDbEntity
  8
ASSI
100
AcDbLine
 62
7
  6
CONTINUOUS
 10
-6.57611904
 20
23.1018048217
 11
-6.5875245299
 21
23.0952520945
  0
LWPOLYLINE
  5
2A2
100
AcDbEntity
  8
ASSI
100
AcDbPolyline
 62
250
  6
CONTINUOUS
 90
7
 70
0
 10
-6.4837191576
 20
23.0976813014
 10
-6.4921064254
 20
23.0930323028
 10
-6.5007087028
 20
23.0877509011
 10
-6.5095020143
 20
23.0818077611
 10
-6.5184777179
 20
23.075161163
 10
-6.527585136
 20
23.0677995881
 10
-6.5367339319
 20
23.0597533447
  0
LINE
  5
2A3
100
AcDbEntity
  8
ASSI
100
AcDbLine
 62
7
  6
CONTINUOUS
 10
-5.00897247
 20
23.9473165666
 11
-6.5762157785
 21
23.1017528464
  0
LINE
  5
2A4
100
AcDbEntity
  8
ASSI
100
AcDbLine
 62
250
  6
CONTINUOUS
 10
-4.9174684114
 20
23.9427095114
 11
-6.4837191576
 21
23.0976813014
  0
LINE
  5
2A5
100
AcDbEntity
  8
ASSI
100
AcDbLine
 62
7
  6
CONTINUOUS
 10
-5.0048075628
 20
23.9493992914
 11
-5.0089730118
 21
23.9473162743
  0
LINE
  5
2A6
100
AcDbEntity
  8
ASSI
100
AcDbLine
 62
250
  6
CONTINUOUS
 10
-4.9174684114
 20
23.9427095114
 11
-4.3747423487
 21
24.1933583925
  0
LINE
  5
2A7
100
AcDbEntity
  8
ASSI
100
AcDbLine
 62
7
  6
CONTINUOUS
 10
-5.0048065611
 20
23.9493998316
 11
-4.4608492758
 21
24.2006169104
  0
LWPOLYLINE
  5
2A8
100
AcDbEntity
  8
ASSI
100
AcDbPolyline
 62
250
  6
CONTINUOUS
 90
13
 70
0
 10
-4.3747423487
 20
24.1933583925
 10
-4.365815381
 20
24.1973257966
 10
-4.3567250475
 20
24.2007982705
 10
-4.3474981693
 20
24.2037285242
 10
-4.3381460124
 20
24.206072938
 10
-4.3287207061
 20
24.2077773473
 10
-4.3193126799
 20
24.2087910026
 10
-4.3099576876
 20
24.2090803408
 10
-4.3006940607
 20
24.2086134689
 10
-4.2916126624
 20
24.2073699931
 10
-4.2827524748
 20
24.205336385
 10
-4.2741478448
 20
24.202500896
 10
-4.2656446224
 20
24.1987594718
  0
LWPOLYLINE
  5
2A9
100
AcDbEntity
  8
ASSI
100
AcDbPolyline
 62
250
  6
CONTINUOUS
 90
11
 70
0
 10
-4.3663755443
 20
24.197093023
 10
-4.3577806163
 20
24.200424667
 10
-4.3489811567
 20
24.2032984604
 10
-4.3399848575
 20
24.2056625747
 10
-4.3308429925
 20
24.2074525248
 10
-4.3216480466
 20
24.2086053555
 10
-4.3124359193
 20
24.2090759303
 10
-4.3032459858
 20
24.2088200378
 10
-4.2941741417
 20
24.2078034288
 10
-4.2852599265
 20
24.2059988821
 10
-4.2765450498
 20
24.2033817736
  0
LWPOLYLINE
  5
2AA
100
AcDbEntity
  8
ASSI
100
AcDbPolyline
 62
250
  6
CONTINUOUS
 90
6
 70
0
 10
-4.4608492758
 20
24.2006169104
 10
-4.4445269322
 20
24.205934466
 10
-4.4280875542
 20
24.2075896497
 10
-4.41077799
 20
24.2060183283
 10
-4.3928942959
 20
24.2012473761
 10
-4.3747423487
 20
24.1933583925
  0
LWPOLYLINE
  5
2AB
100
AcDbEntity
  8
ASSI
100
AcDbPolyline
 62
250
  6
CONTINUOUS
 90
3
 70
0
 10
-6.5553096133
 20
23.109354439
 10
-6.5707756828
 20
23.1044120353
 10
-6.5761190927
 20
23.1018049198
  0
LWPOLYLINE
  5
2AC
100
AcDbEntity
  8
ASSI
100
AcDbPolyline
 62
250
  6
CONTINUOUS
 90
12
 70
0
 10
-10.5397214275
 20
-18.8621458363
 10
-10.5822956258
 20
-18.8309558698
 10
-10.6217568615
 20
-18.7947646921
 10
-10.6579042997
 20
-18.7537567
 10
-10.6905493985
 20
-18.7081424854
 10
-10.7195490396
 20
-18.6581395838
 10
-10.7447555275
 20
-18.6040028349
 10
-10.7660392774
 20
-18.5460023233
 10
-10.7833112961
 20
-18.484405757
 10
-10.7964871961
 20
-18.4195107418
 10
-10.8054905387
 20
-18.3516458143
 10
-10.8102732819
 20
-18.2811464184
  0
LINE
  5
2AD
100
AcDbEntity
  8
ASSI
100
AcDbLine
 62
250
  6
CONTINUOUS
 10
-4.5427523861
 20
21.9365093119
 11
-4.5347020716
 21
21.9500923928
  0
LINE
  5
2AE
100
AcDbEntity
  8
ASSI
100
AcDbLine
 62
250
  6
CONTINUOUS
 10
-4.5351458666
 20
21.9493745508
 11
-4.5266489216
 21
21.9625628911
  0
LWPOLYLINE
  5
2AF
100
AcDbEntity
  8
ASSI
100
AcDbPolyline
 62
250
  6
CONTINUOUS
 90
13
 70
0
 10
-4.3003600284
 20
21.7980176538
 10
-4.2987266421
 20
21.8005102016
 10
-4.2970004652
 20
21.802938847
 10
-4.2952010958
 20
21.805271646
 10
-4.2933275743
 20
21.8075068252
 10
-4.2913808603
 20
21.809646158
 10
-4.2893834306
 20
21.8116630206
 10
-4.2873343877
 20
21.8135557014
 10
-4.285234629
 20
21.8153259121
 10
-4.2831093239
 20
21.8169521633
 10
-4.2809668621
 20
21.8184272921
 10
-4.2787988538
 20
21.8197584615
 10
-4.2766052991
 20
21.8209456714
  0
LINE
  5
2B0
100
AcDbEntity
  8
ASSI
100
AcDbLine
 62
250
  6
CONTINUOUS
 10
-4.5270860643
 20
21.961911865
 11
-4.5181690046
 21
21.9746632974
  0
LINE
  5
2B1
100
AcDbEntity
  8
ASSI
100
AcDbLine
 62
250
  6
CONTINUOUS
 10
-4.5185918673
 20
21.9740828548
 11
-4.5093022584
 21
21.9863304322
  0
LINE
  5
2B2
100
AcDbEntity
  8
ASSI
100
AcDbLine
 62
250
  6
CONTINUOUS
 10
-4.5097048448
 20
21.9858209433
 11
-4.5000803028
 21
21.997518308
  0
LINE
  5
2B3
100
AcDbEntity
  8
ASSI
100
AcDbLine
 62
250
  6
CONTINUOUS
 10
-4.5004574376
 20
21.9970785091
 11
-4.4905339023
 21
22.008185451
  0
LINE
  5
2B4
100
AcDbEntity
  8
ASSI
100
AcDbLine
 62
250
  6
CONTINUOUS
 10
-4.4908799993
 20
22.0078140809
 11
-4.4807064717
 21
22.0182809746
  0
LINE
  5
2B5
100
AcDbEntity
  8
ASSI
100
AcDbLine
 62
250
  6
CONTINUOUS
 10
-4.4810160591
 20
22.0179760309
 11
-4.4706331162
 21
22.0277671686
  0
LWPOLYLINE
  5
2B6
100
AcDbEntity
  8
ASSI
100
AcDbPolyline
 62
7
  6
CONTINUOUS
 90
12
 70
0
 10
-3.5571559231
 20
21.2582005992
 10
-3.5791886593
 20
21.2375558401
 10
-3.6030764509
 20
21.218290746
 10
-3.6286436892
 20
21.2007981486
 10
-3.6558439395
 20
21.1854458895
 10
-3.6842585715
 20
21.1725925308
 10
-3.7130736177
 20
21.1625239576
 10
-3.7419032952
 20
21.155426672
 10
-3.7704518578
 20
21.1514790476
 10
-3.7979889353
 20
21.1507380433
 10
-3.8240435134
 20
21.1531303725
 10
-3.8345911348
 20
21.1550650861
  0
LINE
  5
2B7
100
AcDbEntity
  8
ASSI
100
AcDbLine
 62
250
  6
CONTINUOUS
 10
-4.4709009065
 20
22.0275258742
 11
-4.4603503496
 21
22.0366080673
  0
LINE
  5
2B8
100
AcDbEntity
  8
ASSI
100
AcDbLine
 62
250
  6
CONTINUOUS
 10
-4.4605715701
 20
22.0364265898
 11
-4.4499066124
 21
22.0447622814
  0
LWPOLYLINE
  5
2B9
100
AcDbEntity
  8
ASSI
100
AcDbPolyline
 62
250
  6
CONTINUOUS
 90
3
 70
0
 10
-2.0656955722
 20
22.5532735945
 10
-2.0797385476
 20
22.5424096362
 10
-2.0964687619
 20
22.5325429316
  0
LWPOLYLINE
  5
2BA
100
AcDbEntity
  8
ASSI
100
AcDbPolyline
 62
250
  6
CONTINUOUS
 90
4
 70
0
 10
-4.4500772066
 20
22.0446356621
 10
-4.4394604556
 20
22.0521209779
 10
-4.4287566365
 20
22.0588585609
 10
-4.4180051162
 20
22.0648242807
  0
LWPOLYLINE
  5
2BB
100
AcDbEntity
  8
ASSI
100
AcDbPolyline
 62
250
  6
CONTINUOUS
 90
13
 70
0
 10
-0.7442660701
 20
21.2039077387
 10
-0.7624978828
 20
21.1929527585
 10
-0.7803833295
 20
21.1793039885
 10
-0.7976231387
 20
21.1631898094
 10
-0.8139288419
 20
21.1448798547
 10
-0.829027601
 20
21.1246804991
 10
-0.842666773
 20
21.1029297322
 10
-0.854618138
 20
21.0799915029
 10
-0.8646817174
 20
21.0562496294
 10
-0.8726891205
 20
21.0321013771
 10
-0.8785063619
 20
21.0079508112
 10
-0.8820361036
 20
20.9842020356
 10
-0.8832192834
 20
20.9612524313
  0
LWPOLYLINE
  5
2BC
100
AcDbEntity
  8
ASSI
100
AcDbPolyline
 62
7
  6
CONTINUOUS
 90
10
 70
0
 10
-0.8596273692
 20
21.2091370781
 10
-0.8677865782
 20
21.2045071132
 10
-0.886972163
 20
21.1916508945
 10
-0.9047598117
 20
21.1767942956
 10
-0.9209103219
 20
21.160124975
 10
-0.9353606319
 20
21.1416699371
 10
-0.9479031153
 20
21.1216195123
 10
-0.9583402526
 20
21.1002338205
 10
-0.9666074787
 20
21.0775651566
 10
-0.9725787134
 20
21.0537448165
  0
LWPOLYLINE
  5
2BD
100
AcDbEntity
  8
ASSI
100
AcDbPolyline
 62
7
  6
CONTINUOUS
 90
11
 70
0
 10
-0.8595886042
 20
21.2091571702
 10
-0.8619456237
 20
21.2078675194
 10
-0.88215349
 20
21.195160967
 10
-0.9009351703
 20
21.1802645791
 10
-0.918017337
 20
21.1633771318
 10
-0.9332889057
 20
21.1445749505
 10
-0.946520122
 20
21.1240753916
 10
-0.9575088033
 20
21.1021664447
 10
-0.9661799145
 20
21.0789421264
 10
-0.9724163217
 20
21.0545661194
 10
-0.9761137539
 20
21.0290829848
  0
LINE
  5
2BE
100
AcDbEntity
  8
ASSI
100
AcDbLine
 62
7
  6
CONTINUOUS
 10
-4.6346041598
 20
20.8538841636
 11
-5.1773302225
 21
20.5575940534
  0
LINE
  5
2BF
100
AcDbEntity
  8
ASSI
100
AcDbLine
 62
7
  6
CONTINUOUS
 10
-2.6547051724
 20
20.992674544
 11
-3.5571559231
 21
20.5000001531
  0
LINE
  5
2C0
100
AcDbEntity
  8
ASSI
100
AcDbLine
 62
7
  6
CONTINUOUS
 10
-0.6477918261
 20
21.3234272992
 11
-0.8596387343
 21
21.2091310321
  0
LINE
  5
2C1
100
AcDbEntity
  8
ASSI
100
AcDbLine
 62
250
  6
CONTINUOUS
 10
-0.5334117528
 20
21.3176684803
 11
-0.7442681153
 21
21.2039087613
  0
LWPOLYLINE
  5
2C2
100
AcDbEntity
  8
ASSI
100
AcDbPolyline
 62
250
  6
CONTINUOUS
 90
13
 70
0
 10
-0.859591052
 20
21.2091567401
 10
-0.8555832483
 20
21.2111942106
 10
-0.8469274334
 20
21.2148224702
 10
-0.8378661294
 20
21.217612761
 10
-0.8284335225
 20
21.2195503961
 10
-0.8186614611
 20
21.2206248477
 10
-0.8085941112
 20
21.2208283543
 10
-0.798268468
 20
21.2201583494
 10
-0.7877233956
 20
21.2186156096
 10
-0.7770089256
 20
21.2162072045
 10
-0.7661692465
 20
21.2129443478
 10
-0.7552418946
 20
21.2088394446
 10
-0.744268144
 20
21.2039087458
  0
LINE
  5
2C3
100
AcDbEntity
  8
ASSI
100
AcDbLine
 62
250
  6
CONTINUOUS
 10
-4.4180051162
 20
22.0648242807
 11
-2.7961049895
 21
22.8820278005
  0
LINE
  5
2C4
100
AcDbEntity
  8
ASSI
100
AcDbLine
 62
250
  6
CONTINUOUS
 10
-4.2766052991
 20
21.8209456714
 11
-2.6547051724
 21
22.6381491912
  0
LINE
  5
2C5
100
AcDbEntity
  8
ASSI
100
AcDbLine
 62
7
  6
CONTINUOUS
 10
-0.6477922563
 20
21.3234271006
 11
-0.64258462
 21
21.3260312974
  0
LINE
  5
2C6
100
AcDbEntity
  8
ASSI
100
AcDbLine
 62
250
  6
CONTINUOUS
 10
-2.7961049895
 20
22.8820278005
 11
-2.272000523
 21
23.1419874797
  0
LINE
  5
2C7
100
AcDbEntity
  8
ASSI
100
AcDbLine
 62
250
  6
CONTINUOUS
 10
-2.6547051724
 20
22.6381491912
 11
-2.1306007059
 21
22.8981088703
  0
LWPOLYLINE
  5
2C8
100
AcDbEntity
  8
ASSI
100
AcDbPolyline
 62
250
  6
CONTINUOUS
 90
8
 70
0
 10
-10.2307287739
 20
19.276378085
 10
-10.2038913233
 20
19.2894045302
 10
-10.1731254249
 20
19.2984412151
 10
-10.1402025461
 20
19.3025315083
 10
-10.1054827688
 20
19.3016306737
 10
-10.0693458276
 20
19.2957485637
 10
-10.0321869566
 20
19.2849495117
 10
-9.9944125669
 20
19.2693516282
  0
LINE
  5
2C9
100
AcDbEntity
  8
ASSI
100
AcDbLine
 62
7
  6
CONTINUOUS
 10
4.7088731694
 20
24.5888599093
 11
-1.9865694573
 21
21.350596938
  0
LWPOLYLINE
  5
2CA
100
AcDbEntity
  8
ASSI
100
AcDbPolyline
 62
250
  6
CONTINUOUS
 90
28
 70
0
 10
-2.1306007059
 20
22.8981088703
 10
-2.1289631948
 20
22.8988877889
 10
-2.1272908712
 20
22.8995654735
 10
-2.1255837351
 20
22.9001419241
 10
-2.1238314854
 20
22.9006282251
 10
-2.1220444231
 20
22.9010132922
 10
-2.1202534513
 20
22.9012638719
 10
-2.118457596
 20
22.9013760682
 10
-2.116657831
 20
22.9013537772
 10
-2.1148879817
 20
22.9011754335
 10
-2.1131484129
 20
22.9008360706
 10
-2.1114387597
 20
22.9003406549
 10
-2.109791752
 20
22.899682521
 10
-2.1082095956
 20
22.8988571201
 10
-2.1066900848
 20
22.8978690008
 10
-2.1052593317
 20
22.8967251433
 10
-2.1039201395
 20
22.8954229366
 10
-2.1026697049
 20
22.8939649916
 10
-2.1015257312
 20
22.8923661212
 10
-2.1004900285
 20
22.8906242719
 10
-2.0995607866
 20
22.8887414973
 10
-2.0987502781
 20
22.88673877
 10
-2.0980602384
 20
22.8846141487
 10
-2.0974889321
 20
22.8823695747
 10
-2.0970434248
 20
22.8800318458
 10
-2.0967260715
 20
22.8776098944
 10
-2.0965345173
 20
22.8750947879
 10
-2.0964687619
 20
22.8724865265
  0
LINE
  5
2CB
100
AcDbEntity
  8
RACCORDO
100
AcDbLine
 62
7
  6
CONTINUOUS
 10
22.0152393628
 20
32.1782812756
 11
5.544623552
 21
24.4107844879
  0
LINE
  5
2CC
100
AcDbEntity
  8
RACCORDO
100
AcDbLine
 62
250
  6
CONTINUOUS
 10
22.4546317234
 20
32.1461177282
 11
5.7910011251
 21
24.2875957014
  0
LINE
  5
2CD
100
AcDbEntity
  8
ASSI
100
AcDbLine
 62
7
  6
CONTINUOUS
 10
3.4081544082
 20
23.1967968175
 11
-0.64258444
 21
21.3260313805
  0
LINE
  5
2CE
100
AcDbEntity
  8
ASSI
100
AcDbLine
 62
250
  6
CONTINUOUS
 10
3.5160592631
 20
23.1878483903
 11
-0.5334117528
 21
21.3176684803
  0
LINE
  5
2CF
100
AcDbEntity
  8
ASSI
100
AcDbLine
 62
250
  6
CONTINUOUS
 10
-2.272000523
 20
23.1419874797
 11
-2.2637419932
 21
23.1457302973
  0
LWPOLYLINE
  5
2D0
100
AcDbEntity
  8
ASSI
100
AcDbPolyline
 62
7
  6
CONTINUOUS
 90
4
 70
0
 10
-0.64258462
 20
21.3260312974
 10
-0.6375802594
 20
21.3281689161
 10
-0.6219890545
 20
21.3328173565
 10
-0.6052959147
 20
21.3349036761
  0
LWPOLYLINE
  5
2D1
100
AcDbEntity
  8
ASSI
100
AcDbPolyline
 62
250
  6
CONTINUOUS
 90
4
 70
0
 10
3.5160592631
 20
23.1878483903
 10
3.5262544723
 20
23.1920566885
 10
3.5370749194
 20
23.1956599273
 10
3.5485206045
 20
23.1986581066
  0
LINE
  5
2D2
100
AcDbEntity
  8
ASSI
100
AcDbLine
 62
250
  6
CONTINUOUS
 10
-2.2637419932
 20
23.1457302973
 11
-2.2550109777
 21
23.149166005
  0
LINE
  5
2D3
100
AcDbEntity
  8
ASSI
100
AcDbLine
 62
250
  6
CONTINUOUS
 10
-2.2552540096
 20
23.1490776375
 11
-2.2462176662
 21
23.1520775428
  0
LINE
  5
2D4
100
AcDbEntity
  8
ASSI
100
AcDbLine
 62
250
  6
CONTINUOUS
 10
3.4081543556
 20
23.1967967932
 11
3.4288326335
 21
23.2035693109
  0
LINE
  5
2D5
100
AcDbEntity
  8
ASSI
100
AcDbLine
 62
7
  6
CONTINUOUS
 10
3.4780824961
 20
23.2215245784
 11
3.4411645773
 21
23.2102464863
  0
LWPOLYLINE
  5
2D6
100
AcDbEntity
  8
ASSI
100
AcDbPolyline
 62
7
  6
CONTINUOUS
 90
3
 70
0
 10
3.4801724078
 20
23.2220571595
 10
3.4436156326
 20
23.2111113149
 10
3.4080138067
 20
23.1967278155
  0
LWPOLYLINE
  5
2D7
100
AcDbEntity
  8
ASSI
100
AcDbPolyline
 62
7
  6
CONTINUOUS
 90
4
 70
0
 10
8.18454043
 20
-26.6226096615
 10
8.2078308498
 20
-26.6186336102
 10
8.2307533948
 20
-26.6122352939
 10
8.2545880944
 20
-26.6027795548
  0
LWPOLYLINE
  5
2D8
100
AcDbEntity
  8
ASSI
100
AcDbPolyline
 62
7
  6
CONTINUOUS
 90
5
 70
0
 10
8.1836101416
 20
-26.6227176708
 10
8.2064613482
 20
-26.6189360294
 10
8.2289508372
 20
-26.6128314642
 10
8.2508759076
 20
-26.6044506021
 10
8.2545935926
 20
-26.6027765158
  0
LINE
  5
2D9
100
AcDbEntity
  8
ASSI
100
AcDbLine
 62
250
  6
CONTINUOUS
 10
8.1597041923
 20
-26.4941453238
 11
8.1851316136
 21
-26.4917602753
  0
LINE
  5
2DA
100
AcDbEntity
  8
ASSI
100
AcDbLine
 62
7
  6
CONTINUOUS
 10
8.1606440944
 20
-26.6241450632
 11
8.18454043
 21
-26.6226096615
  0
LWPOLYLINE
  5
2DB
100
AcDbEntity
  8
ASSI
100
AcDbPolyline
 62
250
  6
CONTINUOUS
 90
8
 70
0
 10
8.1597042274
 20
-26.4941453216
 10
8.1338737984
 20
-26.4948692808
 10
8.1080725703
 20
-26.4939200348
 10
8.0827322672
 20
-26.4913134665
 10
8.0582769012
 20
-26.4870931906
 10
8.0351156766
 20
-26.4813298233
 10
8.0136361436
 20
-26.474119801
 10
7.994197713
 20
-26.4655837665
  0
LWPOLYLINE
  5
2DC
100
AcDbEntity
  8
ASSI
100
AcDbPolyline
 62
7
  6
CONTINUOUS
 90
3
 70
0
 10
8.9834117909
 20
-25.2307462151
 10
9.0073054341
 20
-25.2338579754
 10
9.029344782
 20
-25.2355265131
  0
LWPOLYLINE
  5
2DD
100
AcDbEntity
  8
ASSI
100
AcDbPolyline
 62
7
  6
CONTINUOUS
 90
3
 70
0
 10
8.1150910221
 20
-26.6199469749
 10
8.1378781232
 20
-26.6232318458
 10
8.1611110464
 20
-26.6241399991
  0
LWPOLYLINE
  5
2DE
100
AcDbEntity
  8
ASSI
100
AcDbPolyline
 62
7
  6
CONTINUOUS
 90
3
 70
0
 10
8.9728895649
 20
-25.2289224541
 10
8.9928836758
 20
-25.2319378665
 10
9.0117344783
 20
-25.2341854764
  0
LINE
  5
2DF
100
AcDbEntity
  8
ASSI
100
AcDbLine
 62
7
  6
CONTINUOUS
 10
8.9517904087
 20
-25.2253590426
 11
8.9834117909
 21
-25.2307462151
  0
LINE
  5
2E0
100
AcDbEntity
  8
ASSI
100
AcDbLine
 62
7
  6
CONTINUOUS
 10
8.9297875869
 20
-25.2213255486
 11
8.95784006
 21
-25.226452583
  0
LINE
  5
2E1
100
AcDbEntity
  8
ASSI
100
AcDbLine
 62
7
  6
CONTINUOUS
 10
8.9022231538
 20
-25.2157123575
 11
8.9306376257
 21
-25.2213828166
  0
LINE
  5
2E2
100
AcDbEntity
  8
ASSI
100
AcDbLine
 62
7
  6
CONTINUOUS
 10
8.8734095442
 20
-25.2093802534
 11
8.907249265
 21
-25.2167570227
  0
LINE
  5
2E3
100
AcDbEntity
  8
ASSI
100
AcDbLine
 62
7
  6
CONTINUOUS
 10
8.8612088747
 20
-25.2065853624
 11
8.8843361373
 21
-25.211780964
  0
LINE
  5
2E4
100
AcDbEntity
  8
ASSI
100
AcDbLine
 62
7
  6
CONTINUOUS
 10
8.715684835
 20
-25.1714619087
 11
8.7380811887
 21
-25.1766992731
  0
LINE
  5
2E5
100
AcDbEntity
  8
ASSI
100
AcDbLine
 62
7
  6
CONTINUOUS
 10
8.8160382866
 20
-25.1957599871
 11
8.8734095442
 21
-25.2093802534
  0
LINE
  5
2E6
100
AcDbEntity
  8
ASSI
100
AcDbLine
 62
7
  6
CONTINUOUS
 10
8.7333677887
 20
-25.1755770231
 11
8.7624532612
 21
-25.1826076046
  0
LINE
  5
2E7
100
AcDbEntity
  8
ASSI
100
AcDbLine
 62
7
  6
CONTINUOUS
 10
8.7523538285
 20
-25.1801360683
 11
8.8382594955
 21
-25.2011916633
  0
LWPOLYLINE
  5
2E8
100
AcDbEntity
  8
ASSI
100
AcDbPolyline
 62
7
  6
CONTINUOUS
 90
3
 70
0
 10
8.0715771284
 20
-26.6065456054
 10
8.0929119574
 20
-26.6143525021
 10
8.1155739152
 20
-26.6200421955
  0
LWPOLYLINE
  5
2E9
100
AcDbEntity
  8
ASSI
100
AcDbPolyline
 62
7
  6
CONTINUOUS
 90
12
 70
0
 10
4.263108624
 20
-26.2663294296
 10
4.2733002444
 20
-26.2707491733
 10
4.3390388383
 20
-26.2952729159
 10
4.4079322235
 20
-26.3141161119
 10
4.4794595995
 20
-26.3268814971
 10
4.5529482948
 20
-26.3332454533
 10
4.6279613023
 20
-26.3330128502
 10
4.7039862024
 20
-26.3260637739
 10
4.7803447505
 20
-26.3123748892
 10
4.8566112564
 20
-26.2919659975
 10
4.932483222
 20
-26.2648905668
 10
4.9402898974
 20
-26.2617145889
  0
LINE
  5
2EA
100
AcDbEntity
  8
ASSI
100
AcDbLine
 62
250
  6
CONTINUOUS
 10
3.3230997083
 20
-25.3842544646
 11
3.9384165156
 21
-25.655491329
  0
LINE
  5
2EB
100
AcDbEntity
  8
ASSI
100
AcDbLine
 62
250
  6
CONTINUOUS
 10
2.7265879749
 20
-25.1186055854
 11
3.3231550021
 21
-25.3842789612
  0
LINE
  5
2EC
100
AcDbEntity
  8
ASSI
100
AcDbLine
 62
7
  6
CONTINUOUS
 10
2.5900063138
 20
-25.5187961528
 11
4.2639506288
 21
-26.2667017458
  0
LINE
  5
2ED
100
AcDbEntity
  8
ASSI
100
AcDbLine
 62
250
  6
CONTINUOUS
 10
2.1483583832
 20
-24.8585293462
 11
2.7264812685
 21
-25.1185578291
  0
LINE
  5
2EE
100
AcDbEntity
  8
ASSI
100
AcDbLine
 62
250
  6
CONTINUOUS
 10
1.5903892797
 20
-24.6051447226
 11
2.1485126824
 21
-24.8585990845
  0
LINE
  5
2EF
100
AcDbEntity
  8
ASSI
100
AcDbLine
 62
250
  6
CONTINUOUS
 10
1.0505045689
 20
-24.3576804034
 11
1.5905892841
 21
-24.6052359779
  0
LWPOLYLINE
  5
2F0
100
AcDbEntity
  8
ASSI
100
AcDbPolyline
 62
7
  6
CONTINUOUS
 90
3
 70
0
 10
8.0591425993
 20
-26.6007874855
 10
8.0728989474
 20
-26.6071038019
 10
8.0938370558
 20
-26.6146348784
  0
LINE
  5
2F1
100
AcDbEntity
  8
ASSI
100
AcDbLine
 62
7
  6
CONTINUOUS
 10
0.8555613099
 20
-24.7221628582
 11
2.5900062994
 21
-25.5187961466
  0
LINE
  5
2F2
100
AcDbEntity
  8
ASSI
100
AcDbLine
 62
250
  6
CONTINUOUS
 10
0.5229873994
 20
-24.113670085
 11
1.0507465624
 21
-24.357791835
  0
LINE
  5
2F3
100
AcDbEntity
  8
ASSI
100
AcDbLine
 62
250
  6
CONTINUOUS
 10
0.0078933071
 20
-23.8732668446
 11
0.5232621509
 21
-24.1137977491
  0
LWPOLYLINE
  5
2F4
100
AcDbEntity
  8
CURVE
100
AcDbPolyline
 62
250
  6
CONTINUOUS
 90
7
 70
0
 10
-0.3948449281
 20
-22.2918700032
 10
0.0057470555
 20
-22.4792963063
 10
0.4077225163
 20
-22.6659847179
 10
0.8110769157
 20
-22.851933076
 10
1.2158057146
 20
-23.0371392186
 10
1.6219043743
 20
-23.2216009838
 10
1.9167858158
 20
-23.3546916833
  0
LINE
  5
2F5
100
AcDbEntity
  8
ASSI
100
AcDbLine
 62
250
  6
CONTINUOUS
 10
-0.4950704105
 20
-23.6364651103
 11
0.0081894859
 21
-23.8734056884
  0
LINE
  5
2F6
100
AcDbEntity
  8
ASSI
100
AcDbLine
 62
7
  6
CONTINUOUS
 10
-0.8550293309
 20
-23.9139439307
 11
0.8555613099
 21
-24.7221628582
  0
LINE
  5
2F7
100
AcDbEntity
  8
ASSI
100
AcDbLine
 62
250
  6
CONTINUOUS
 10
-0.9919934174
 20
-23.4004784945
 11
-0.4947617787
 21
-23.6366110492
  0
LINE
  5
2F8
100
AcDbEntity
  8
ASSI
100
AcDbLine
 62
250
  6
CONTINUOUS
 10
-1.4837413023
 20
-23.1649380477
 11
-0.9916800928
 21
-23.400627932
  0
LINE
  5
2F9
100
AcDbEntity
  8
ASSI
100
AcDbLine
 62
250
  6
CONTINUOUS
 10
-1.9695226011
 20
-22.9302690944
 11
-1.4834322868
 21
-23.165086696
  0
LINE
  5
2FA
100
AcDbEntity
  8
ASSI
100
AcDbLine
 62
7
  6
CONTINUOUS
 10
-2.5413609549
 20
-23.0943112586
 11
-0.8550293619
 21
-23.9139439158
  0
LINE
  5
2FB
100
AcDbEntity
  8
ASSI
100
AcDbLine
 62
250
  6
CONTINUOUS
 10
-2.4528222266
 20
-22.6948133267
 11
-1.969225451
 21
-22.9304132503
  0
LINE
  5
2FC
100
AcDbEntity
  8
ASSI
100
AcDbLine
 62
250
  6
CONTINUOUS
 10
-2.9345471318
 20
-22.4581276154
 11
-2.4525393332
 21
-22.6949517324
  0
LWPOLYLINE
  5
2FD
100
AcDbEntity
  8
CURVE
100
AcDbPolyline
 62
250
  6
CONTINUOUS
 90
3
 70
0
 10
-2.7856137922
 20
-21.1435791915
 10
-3.0299609513
 20
-21.023322453
 10
-3.1519268763
 20
-20.9630884055
  0
LINE
  5
2FE
100
AcDbEntity
  8
ASSI
100
AcDbLine
 62
250
  6
CONTINUOUS
 10
-3.4137767234
 20
-22.2206648049
 11
-2.9342801249
 21
-22.4582593613
  0
LINE
  5
2FF
100
AcDbEntity
  8
ASSI
100
AcDbLine
 62
250
  6
CONTINUOUS
 10
-3.891201999
 20
-21.9820833395
 11
-3.4135279363
 21
-22.2207886046
  0
LINE
  5
300
100
AcDbEntity
  8
ASSI
100
AcDbLine
 62
7
  6
CONTINUOUS
 10
-4.20303937
 20
-22.2634383523
 11
-2.5413609817
 21
-23.0943112455
  0
LINE
  5
301
100
AcDbEntity
  8
ASSI
100
AcDbLine
 62
7
  6
CONTINUOUS
 10
8.0593977631
 20
-26.6009155934
 11
6.2785080534
 21
-25.7104707386
  0
LINE
  5
302
100
AcDbEntity
  8
ASSI
100
AcDbLine
 62
250
  6
CONTINUOUS
 10
7.994197713
 20
-26.4655837665
 11
6.3911607244
 21
-25.6640652722
  0
LWPOLYLINE
  5
303
100
AcDbEntity
  8
CURVE
100
AcDbPolyline
 62
250
  6
CONTINUOUS
 90
4
 70
0
 10
-4.152824672
 20
-20.4634809107
 10
-3.9480607062
 20
-20.5664642601
 10
-3.7428963133
 20
-20.6692469156
 10
-3.5169867496
 20
-20.7819596413
  0
LINE
  5
304
100
AcDbEntity
  8
ASSI
100
AcDbLine
 62
250
  6
CONTINUOUS
 10
-4.367117306
 20
-21.7422305864
 11
-3.8909708968
 21
-21.9821993173
  0
LINE
  5
305
100
AcDbEntity
  8
ASSI
100
AcDbLine
 62
250
  6
CONTINUOUS
 10
-4.8412023943
 20
-21.5012627645
 11
-4.3669023208
 21
-21.7423393956
  0
LINE
  5
306
100
AcDbEntity
  8
ASSI
100
AcDbLine
 62
250
  6
CONTINUOUS
 10
-5.3132204312
 20
-21.2592985997
 11
-4.8410030085
 21
-21.5013645394
  0
LINE
  5
307
100
AcDbEntity
  8
ASSI
100
AcDbLine
 62
7
  6
CONTINUOUS
 10
-5.839688581
 20
-21.4215030284
 11
-4.2030393755
 21
-22.2634383496
  0
LINE
  5
308
100
AcDbEntity
  8
ASSI
100
AcDbLine
 62
250
  6
CONTINUOUS
 10
-5.7830985114
 20
-21.0163756531
 11
-5.3130364172
 21
-21.2593933298
  0
LINE
  5
309
100
AcDbEntity
  8
ASSI
100
AcDbLine
 62
250
  6
CONTINUOUS
 10
-6.2508931552
 20
-20.7724647746
 11
-5.7829296397
 21
-21.01646333
  0
LINE
  5
30A
100
AcDbEntity
  8
ASSI
100
AcDbLine
 62
250
  6
CONTINUOUS
 10
-6.716565122
 20
-20.5275863307
 11
-6.2507391994
 21
-20.77254539
  0
LINE
  5
30B
100
AcDbEntity
  8
ASSI
100
AcDbLine
 62
7
  6
CONTINUOUS
 10
-7.4509444102
 20
-20.5686915579
 11
-5.8396885927
 21
-21.4215030224
  0
LINE
  5
30C
100
AcDbEntity
  8
ASSI
100
AcDbLine
 62
7
  6
CONTINUOUS
 10
-9.0364447278
 20
-19.705195934
 11
-7.4509444308
 21
-20.568691547
  0
LINE
  5
30D
100
AcDbEntity
  8
ASSI
100
AcDbLine
 62
7
  6
CONTINUOUS
 10
-10.515895025
 20
-18.8766346967
 11
-9.0364447278
 21
-19.705195934
  0
LINE
  5
30E
100
AcDbEntity
  8
ASSI
100
AcDbLine
 62
7
  6
CONTINUOUS
 10
-10.515544626
 20
-18.8768334266
 11
-10.5158985861
 21
-18.8766326749
  0
LWPOLYLINE
  5
30F
100
AcDbEntity
  8
ASSI
100
AcDbPolyline
 62
250
  6
CONTINUOUS
 90
10
 70
0
 10
-10.810273291
 20
-18.2811464274
 10
-10.3636544276
 20
-18.5347640816
 10
-9.9150333544
 20
-18.7873429186
 10
-9.4644204428
 20
-19.0388796685
 10
-9.0119322563
 20
-19.289312578
 10
-8.5574739935
 20
-19.5386973969
 10
-8.1007345778
 20
-19.787205121
 10
-7.6415711976
 20
-20.0349105725
 10
-7.1801376453
 20
-20.2817279994
 10
-6.716565122
 20
-20.5275863307
  0
LINE
  5
310
100
AcDbEntity
  8
ASSI
100
AcDbLine
 62
250
  6
CONTINUOUS
 10
-10.5158985861
 20
-18.8766326749
 11
-10.5397214275
 21
-18.8621458363
  0
LWPOLYLINE
  5
311
100
AcDbEntity
  8
ASSI
100
AcDbPolyline
 62
7
  6
CONTINUOUS
 90
14
 70
0
 10
-10.9338457495
 20
-18.1157037159
 10
-10.9329643742
 20
-18.1359800715
 10
-10.9250899637
 20
-18.223850126
 10
-10.910830731
 20
-18.3084055722
 10
-10.8902950155
 20
-18.389421048
 10
-10.8636265567
 20
-18.4666449632
 10
-10.8310467155
 20
-18.5396171701
 10
-10.7928115362
 20
-18.6079598823
 10
-10.749200158
 20
-18.6713880374
 10
-10.7006656735
 20
-18.7294324817
 10
-10.6476881251
 20
-18.7817289418
 10
-10.5907951132
 20
-18.8280130047
 10
-10.5307205816
 20
-18.8679864362
 10
-10.5154813703
 20
-18.8768652001
  0
LWPOLYLINE
  5
312
100
AcDbEntity
  8
ASSI
100
AcDbPolyline
 62
250
  6
CONTINUOUS
 90
9
 70
0
 10
-10.810273291
 20
-18.2811464274
 10
-10.9067143687
 20
-15.3185613053
 10
-10.9856422864
 20
-12.3461083581
 10
-11.0470457145
 20
-9.3639371914
 10
-11.090914359
 20
-6.3721215422
 10
-11.1172379104
 20
-3.370888374
 10
-11.1260123246
 20
-0.3606211197
 10
-11.1172382201
 20
2.658525178
 10
-11.0909149204
 20
5.6863937759
  0
LINE
  5
313
100
AcDbEntity
  8
ASSI
100
AcDbLine
 62
7
  6
CONTINUOUS
 10
-11.0267822213
 20
-15.2114194761
 11
-10.9338561525
 21
-18.1156377042
  0
LWPOLYLINE
  5
314
100
AcDbEntity
  8
ASSI
100
AcDbPolyline
 62
7
  6
CONTINUOUS
 90
9
 70
0
 10
-11.1655975289
 20
8.9133364019
 10
-11.2089255016
 20
5.8658253333
 10
-11.2349180173
 20
2.8271313328
 10
-11.2435713884
 20
-0.2025970117
 10
-11.2348830532
 20
-3.2232050969
 10
-11.2088553009
 20
-6.2345409997
 10
-11.1654914848
 20
-9.2364600295
 10
-11.1047965702
 20
-12.2288098961
 10
-11.0267822213
 20
-15.2114194761
  0
LINE
  5
315
100
AcDbEntity
  8
ASSI
100
AcDbLine
 62
250
  6
CONTINUOUS
 10
-11.0909143591
 20
5.6864422276
 11
-11.0470457145
 21
8.7226343891
  0
LINE
  5
316
100
AcDbEntity
  8
ASSI
100
AcDbLine
 62
7
  6
CONTINUOUS
 10
-11.1049391597
 20
11.9695137565
 11
-11.165597385
 21
8.9133452471
  0
LWPOLYLINE
  5
317
100
AcDbEntity
  8
ASSI
100
AcDbPolyline
 62
250
  6
CONTINUOUS
 90
4
 70
0
 10
-11.0470464197
 20
8.7225937002
 10
-10.9856429801
 20
11.7668865256
 10
-10.9067148438
 20
14.8191894173
 10
-10.8102732902
 20
17.8793414608
  0
LINE
  5
318
100
AcDbEntity
  8
ASSI
100
AcDbLine
 62
7
  6
CONTINUOUS
 10
-11.0269627291
 20
15.0341562543
 11
-11.1049393211
 21
11.9695070134
  0
LINE
  5
319
100
AcDbEntity
  8
ASSI
100
AcDbLine
 62
7
  6
CONTINUOUS
 10
-10.9338773233
 20
18.0419690914
 11
-11.0269626846
 21
15.0341576895
  0
LWPOLYLINE
  5
31A
100
AcDbEntity
  8
ASSI
100
AcDbPolyline
 62
250
  6
CONTINUOUS
 90
21
 70
0
 10
-10.8102733002
 20
17.8793414605
 10
-10.8054905562
 20
17.9543477555
 10
-10.7964872125
 20
18.0308223627
 10
-10.7833113114
 20
18.1083895191
 10
-10.7660392921
 20
18.1866665128
 10
-10.7447555426
 20
18.2652723508
 10
-10.7195490551
 20
18.3438296734
 10
-10.6905494141
 20
18.4219621493
 10
-10.6579043154
 20
18.4992812073
 10
-10.6217568774
 20
18.5753947751
 10
-10.5822956419
 20
18.6499330085
 10
-10.539721444
 20
18.722532243
 10
-10.4942217448
 20
18.792821662
 10
-10.446032172
 20
18.8604627785
 10
-10.3954005746
 20
18.9251242762
 10
-10.3425543382
 20
18.986466581
 10
-10.2877723158
 20
19.0441904481
 10
-10.2313335401
 20
19.0980216055
 10
-10.1734807855
 20
19.1476839687
 10
-10.1144969263
 20
19.1929317952
 10
-10.0547041256
 20
19.2335527368
  0
LINE
  5
31B
100
AcDbEntity
  8
ASSI
100
AcDbLine
 62
250
  6
CONTINUOUS
 10
-6.651688205
 20
22.8484347342
 11
-6.6486818264
 21
22.8631336839
  0
LINE
  5
31C
100
AcDbEntity
  8
ASSI
100
AcDbLine
 62
250
  6
CONTINUOUS
 10
-6.6453538509
 20
22.8766081873
 11
-6.6488275961
 21
22.8624882974
  0
LWPOLYLINE
  5
31D
100
AcDbEntity
  8
ASSI
100
AcDbPolyline
 62
250
  6
CONTINUOUS
 90
10
 70
0
 10
-6.6417422585
 20
22.8892395589
 10
-6.6374079614
 20
22.9025886865
 10
-6.6324936457
 20
22.916049947
 10
-6.6269954408
 20
22.9295741875
 10
-6.6209492261
 20
22.9430310692
 10
-6.6143685264
 20
22.9563642024
 10
-6.6072640302
 20
22.9695271596
 10
-6.5996867443
 20
22.9824090687
 10
-6.5916690239
 20
22.9949490456
 10
-6.5832297039
 20
23.007111905
  0
LINE
  5
31E
100
AcDbEntity
  8
ASSI
100
AcDbLine
 62
250
  6
CONTINUOUS
 10
-4.5729401247
 20
21.8697814936
 11
-4.5676691457
 21
21.8841061561
  0
LINE
  5
31F
100
AcDbEntity
  8
ASSI
100
AcDbLine
 62
250
  6
CONTINUOUS
 10
-4.3080235347
 20
21.7821523678
 11
-4.3069521333
 21
21.7850089248
  0
LINE
  5
320
100
AcDbEntity
  8
ASSI
100
AcDbLine
 62
250
  6
CONTINUOUS
 10
-4.5680253058
 20
21.8831897702
 11
-4.5621320517
 21
21.8975733305
  0
LINE
  5
321
100
AcDbEntity
  8
ASSI
100
AcDbLine
 62
250
  6
CONTINUOUS
 10
-4.3070249519
 20
21.7848242242
 11
-4.3058287037
 21
21.7877009541
  0
LINE
  5
322
100
AcDbEntity
  8
ASSI
100
AcDbLine
 62
250
  6
CONTINUOUS
 10
-4.5625236989
 20
21.8966648568
 11
-4.5560498765
 21
21.9109631264
  0
LINE
  5
323
100
AcDbEntity
  8
ASSI
100
AcDbLine
 62
250
  6
CONTINUOUS
 10
-4.3059090726
 20
21.7875178848
 11
-4.3045977676
 21
21.7903667445
  0
LINE
  5
324
100
AcDbEntity
  8
ASSI
100
AcDbLine
 62
250
  6
CONTINUOUS
 10
-4.5564695218
 20
21.9100794656
 11
-4.5494386619
 21
21.9242163149
  0
LINE
  5
325
100
AcDbEntity
  8
ASSI
100
AcDbLine
 62
250
  6
CONTINUOUS
 10
-4.3046838457
 20
21.7901885391
 11
-4.3032569115
 21
21.7930044215
  0
LINE
  5
326
100
AcDbEntity
  8
ASSI
100
AcDbLine
 62
250
  6
CONTINUOUS
 10
-4.5498759479
 20
21.9233759999
 11
-4.5423082513
 21
21.9372911617
  0
LINE
  5
327
100
AcDbEntity
  8
ASSI
100
AcDbLine
 62
250
  6
CONTINUOUS
 10
-4.3033464019
 20
21.7928348824
 11
-4.3018085489
 21
21.7956158596
  0
LINE
  5
328
100
AcDbEntity
  8
ASSI
100
AcDbLine
 62
250
  6
CONTINUOUS
 10
-4.3018996104
 20
21.7954582193
 11
-4.3002688899
 21
21.7981624354
  0
LINE
  5
329
100
AcDbEntity
  8
ASSI
100
AcDbLine
 62
7
  6
CONTINUOUS
 10
-2.0927136205
 20
22.4421889897
 11
-2.0791075454
 21
22.4630275003
  0
LWPOLYLINE
  5
32A
100
AcDbEntity
  8
ASSI
100
AcDbPolyline
 62
7
  6
CONTINUOUS
 90
7
 70
0
 10
-2.0927015245
 20
22.4422048575
 10
-2.079088597
 20
22.4630594336
 10
-2.0672352678
 20
22.4853260991
 10
-2.057292184
 20
22.5088870824
 10
-2.0496384925
 20
22.5328640526
 10
-2.0442742237
 20
22.5570210731
 10
-2.0411320459
 20
22.5818431949
  0
LWPOLYLINE
  5
32B
100
AcDbEntity
  8
ASSI
100
AcDbPolyline
 62
250
  6
CONTINUOUS
 90
7
 70
0
 10
-2.1021504234
 20
22.4298075908
 10
-2.101167359
 20
22.4311558546
 10
-2.0983499715
 20
22.4385218041
 10
-2.0982290391
 20
22.4478674025
 10
-2.1008066079
 20
22.4590345133
 10
-2.1060390632
 20
22.4718341782
 10
-2.1138378666
 20
22.4860498144
  0
LINE
  5
32C
100
AcDbEntity
  8
ASSI
100
AcDbLine
 62
7
  6
CONTINUOUS
 10
-2.1021755875
 20
22.4297766238
 11
-2.0927136205
 21
22.4421889897
  0
LINE
  5
32D
100
AcDbEntity
  8
ASSI
100
AcDbLine
 62
250
  6
CONTINUOUS
 10
-2.1138378666
 20
22.4860498144
 11
-2.6547051724
 21
21.8167623283
  0
LINE
  5
32E
100
AcDbEntity
  8
ASSI
100
AcDbLine
 62
7
  6
CONTINUOUS
 10
-2.1021504234
 20
22.4298075908
 11
-2.6547051724
 21
21.7460576674
  0
LINE
  5
32F
100
AcDbEntity
  8
ASSI
100
AcDbLine
 62
250
  6
CONTINUOUS
 10
3.938424614
 20
22.8417782561
 11
3.9186902623
 21
22.8253109466
  0
LINE
  5
330
100
AcDbEntity
  8
ASSI
100
AcDbLine
 62
250
  6
CONTINUOUS
 10
3.8955207363
 20
22.8099423102
 11
3.9186958526
 21
22.8253151221
  0
LWPOLYLINE
  5
331
100
AcDbEntity
  8
ASSI
100
AcDbPolyline
 62
250
  6
CONTINUOUS
 90
3
 70
0
 10
1.4756824184
 20
20.0939334944
 10
1.4574505974
 20
20.0829785085
 10
1.4395651442
 20
20.0693297316
  0
LINE
  5
332
100
AcDbEntity
  8
ASSI
100
AcDbLine
 62
250
  6
CONTINUOUS
 10
3.8955170214
 20
22.8099400816
 11
3.8691543536
 21
22.7958333177
  0
LINE
  5
333
100
AcDbEntity
  8
ASSI
100
AcDbLine
 62
7
  6
CONTINUOUS
 10
3.9090958078
 20
21.6170487336
 11
3.8815983949
 21
21.6024457478
  0
LINE
  5
334
100
AcDbEntity
  8
ASSI
100
AcDbLine
 62
250
  6
CONTINUOUS
 10
1.4756824184
 20
20.0939334944
 11
1.6940284558
 21
20.2039483759
  0
LINE
  5
335
100
AcDbEntity
  8
ASSI
100
AcDbLine
 62
250
  6
CONTINUOUS
 10
1.6524321898
 20
19.7890852328
 11
1.8707782271
 21
19.8991001143
  0
LINE
  5
336
100
AcDbEntity
  8
ASSI
100
AcDbLine
 62
7
  6
CONTINUOUS
 10
6.6519236948
 20
22.1163863884
 11
5.5706803252
 21
21.5757647035
  0
LINE
  5
337
100
AcDbEntity
  8
ASSI
100
AcDbLine
 62
250
  6
CONTINUOUS
 10
1.6940284558
 20
20.2039483759
 11
2.3472472203
 21
20.5279496987
  0
LINE
  5
338
100
AcDbEntity
  8
ASSI
100
AcDbLine
 62
250
  6
CONTINUOUS
 10
1.8707782271
 20
19.8991001143
 11
2.5285466386
 21
20.2253580955
  0
LINE
  5
339
100
AcDbEntity
  8
ASSI
100
AcDbLine
 62
250
  6
CONTINUOUS
 10
7.5255491789
 20
23.1805219046
 11
5.2551073744
 21
22.0945152721
  0
LINE
  5
33A
100
AcDbEntity
  8
ASSI
100
AcDbLine
 62
250
  6
CONTINUOUS
 10
7.6992137715
 20
22.8779096104
 11
5.5738894864
 21
21.8613161591
  0
LINE
  5
33B
100
AcDbEntity
  8
ASSI
100
AcDbLine
 62
250
  6
CONTINUOUS
 10
3.695523414
 20
23.0965398667
 11
0.3804431835
 21
21.5113517171
  0
LINE
  5
33C
100
AcDbEntity
  8
ASSI
100
AcDbLine
 62
250
  6
CONTINUOUS
 10
3.8691543536
 20
22.7958333177
 11
0.772737554
 21
21.3152045319
  0
LINE
  5
33D
100
AcDbEntity
  8
ASSI
100
AcDbLine
 62
7
  6
CONTINUOUS
 10
4.6287369816
 20
21.9597086649
 11
3.8815983949
 21
21.6024457478
  0
LWPOLYLINE
  5
33E
100
AcDbEntity
  8
ASSI
100
AcDbPolyline
 62
250
  6
CONTINUOUS
 90
3
 70
0
 10
1.6524321898
 20
19.7890852328
 10
1.6326987796
 20
19.7807201252
 10
1.6109708619
 20
19.7736986373
  0
LINE
  5
33F
100
AcDbEntity
  8
ASSI
100
AcDbLine
 62
250
  6
CONTINUOUS
 10
10.4726628385
 20
-25.0318046775
 11
9.9317955327
 21
-24.9226016824
  0
LINE
  5
340
100
AcDbEntity
  8
ASSI
100
AcDbLine
 62
250
  6
CONTINUOUS
 10
10.3995564113
 20
-24.7769937692
 11
9.9317955327
 21
-24.6825512166
  0
LWPOLYLINE
  5
341
100
AcDbEntity
  8
ASSI
100
AcDbPolyline
 62
250
  6
CONTINUOUS
 90
3
 70
0
 10
10.4226174444
 20
-24.7849196615
 10
10.4166140915
 20
-24.7821981802
 10
10.3994935789
 20
-24.7769810323
  0
LWPOLYLINE
  5
342
100
AcDbEntity
  8
CURVE
100
AcDbPolyline
 62
250
  6
CONTINUOUS
 90
6
 70
0
 10
1.4508641302
 20
-22.625319257
 10
1.1651159224
 20
-22.4954854945
 10
0.8800563158
 20
-22.3652778845
 10
0.5956868923
 20
-22.2346971803
 10
0.3120092338
 20
-22.1037441356
 10
0.0290249221
 20
-21.9724195038
  0
LWPOLYLINE
  5
343
100
AcDbEntity
  8
CURVE
100
AcDbPolyline
 62
250
  6
CONTINUOUS
 90
6
 70
0
 10
0.001470606
 20
-21.2073208758
 10
0.2846523997
 20
-21.3385419178
 10
0.5685414963
 20
-21.469384052
 10
0.853136314
 20
-21.5998465249
 10
1.138435271
 20
-21.729928583
 10
1.4244367853
 20
-21.8596294728
  0
LWPOLYLINE
  5
344
100
AcDbEntity
  8
CURVE
100
AcDbPolyline
 62
250
  6
CONTINUOUS
 90
4
 70
0
 10
-2.6600354895
 20
-19.7037662147
 10
-2.8437316747
 20
-19.6137960112
 10
-3.0271043863
 20
-19.5236604711
 10
-3.2101531569
 20
-19.4333598168
  0
LWPOLYLINE
  5
345
100
AcDbEntity
  8
CURVE
100
AcDbPolyline
 62
250
  6
CONTINUOUS
 90
3
 70
0
 10
-3.1859017641
 20
-20.0893075665
 10
-3.0639184492
 20
-20.1495324523
 10
-2.8195267803
 20
-20.269765741
  0
LINE
  5
346
100
AcDbEntity
  8
ASSI
100
AcDbLine
 62
250
  6
CONTINUOUS
 10
7.994197713
 20
-26.1483135492
 11
7.0587291947
 21
-25.680580707
  0
LINE
  5
347
100
AcDbEntity
  8
ASSI
100
AcDbLine
 62
250
  6
CONTINUOUS
 10
6.7390683552
 20
-25.5207502872
 11
6.8651649086
 21
-25.583798564
  0
LINE
  5
348
100
AcDbEntity
  8
ASSI
100
AcDbLine
 62
250
  6
CONTINUOUS
 10
8.0828946256
 20
-25.9167750748
 11
7.3002106513
 21
-25.5254330877
  0
LINE
  5
349
100
AcDbEntity
  8
ASSI
100
AcDbLine
 62
250
  6
CONTINUOUS
 10
8.0828419566
 20
-25.9168371093
 11
7.3002106513
 21
-25.5254330877
  0
LINE
  5
34A
100
AcDbEntity
  8
ASSI
100
AcDbLine
 62
7
  6
CONTINUOUS
 10
8.6789034941
 20
-25.1585610755
 11
8.1998174538
 21
-24.9190180554
  0
LINE
  5
34B
100
AcDbEntity
  8
ASSI
100
AcDbLine
 62
250
  6
CONTINUOUS
 10
9.9317955327
 20
-24.5431221799
 11
10.3995564113
 21
-24.7769937692
  0
LINE
  5
34C
100
AcDbEntity
  8
ASSI
100
AcDbLine
 62
7
  6
CONTINUOUS
 10
10.4228376458
 20
-24.7850293965
 11
9.9317955327
 21
-24.5395083399
  0
LINE
  5
34D
100
AcDbEntity
  8
CURVE
100
AcDbLine
 62
250
  6
CONTINUOUS
 10
-4.0298306581
 20
-19.0249668884
 11
-3.7573382383
 21
-19.1614627905
  0
LWPOLYLINE
  5
34E
100
AcDbEntity
  8
ASSI
100
AcDbPolyline
 62
250
  6
CONTINUOUS
 90
16
 70
0
 10
8.0591242191
 20
-26.6007782663
 10
8.0536314173
 20
-26.5977773632
 10
8.045944922
 20
-26.5927262757
 10
8.0386845678
 20
-26.5868918976
 10
8.0318847561
 20
-26.5802931016
 10
8.025568992
 20
-26.57294332
 10
8.0197724327
 20
-26.5648745355
 10
8.0145191779
 20
-26.5561139953
 10
8.0098299796
 20
-26.5466893998
 10
8.0057284392
 20
-26.5366423713
 10
8.0022304264
 20
-26.5260083604
 10
7.9993497382
 20
-26.5148254458
 10
7.9971000087
 20
-26.5031460434
 10
7.9954889939
 20
-26.4910178005
 10
7.9945207013
 20
-26.4784816236
 10
7.994197713
 20
-26.4655837665
  0
LWPOLYLINE
  5
34F
100
AcDbEntity
  8
ASSI
100
AcDbPolyline
 62
250
  6
CONTINUOUS
 90
13
 70
0
 10
8.0828946256
 20
-25.9167750748
 10
8.101607708
 20
-25.9272126469
 10
8.12120064
 20
-25.9394135036
 10
8.1413418903
 20
-25.9531711947
 10
8.1616906493
 20
-25.9682529266
 10
8.1819025965
 20
-25.984403502
 10
8.2016357261
 20
-26.0013496375
 10
8.2205561346
 20
-26.0188045882
 10
8.2383436704
 20
-26.0364729993
 10
8.2546973511
 20
-26.0540559043
 10
8.2693404567
 20
-26.0712557834
 10
8.2820252117
 20
-26.0877815982
 10
8.2925369778
 20
-26.1033537158
  0
LINE
  5
350
100
AcDbEntity
  8
CURVE
100
AcDbLine
 62
250
  6
CONTINUOUS
 10
-2.8195265915
 20
-20.2697707442
 11
-2.6275651627
 21
-20.5783098327
  0
LINE
  5
351
100
AcDbEntity
  8
CURVE
100
AcDbLine
 62
250
  6
CONTINUOUS
 10
-3.7573382439
 20
-19.1614626342
 11
-3.5672948202
 21
-19.470960603
  0
LWPOLYLINE
  5
352
100
AcDbEntity
  8
ASSI
100
AcDbPolyline
 62
250
  6
CONTINUOUS
 90
8
 70
0
 10
-10.9337226883
 20
-18.1185347839
 10
-10.9298637416
 20
-18.1442735926
 10
-10.9211952788
 20
-18.1695871368
 10
-10.9078045664
 20
-18.1942085174
 10
-10.8898214395
 20
-18.2178990074
 10
-10.867420261
 20
-18.2404289059
 10
-10.8408182308
 20
-18.2615797649
 10
-10.8102732799
 20
-18.2811465074
  0
LWPOLYLINE
  5
353
100
AcDbEntity
  8
ASSI
100
AcDbPolyline
 62
250
  6
CONTINUOUS
 90
9
 70
0
 10
-10.9338821501
 20
18.0418228356
 10
-10.9337178459
 20
18.0312831399
 10
-10.929855099
 20
18.00798207
 10
-10.9211861761
 20
17.9848474743
 10
-10.9077951287
 20
17.9621036593
 10
-10.8898117927
 20
17.9399711432
 10
-10.8674105296
 20
17.9186645167
 10
-10.8408085357
 20
17.8983903629
 10
-10.8102637368
 20
17.8793452544
  0
LINE
  5
354
100
AcDbEntity
  8
ASSI
100
AcDbLine
 62
7
  6
CONTINUOUS
 10
-6.7105856482
 20
22.9144356225
 11
-6.7143797846
 21
22.8874299763
  0
LWPOLYLINE
  5
355
100
AcDbEntity
  8
ASSI
100
AcDbPolyline
 62
250
  6
CONTINUOUS
 90
5
 70
0
 10
-6.651688205
 20
22.8484347342
 10
-6.6539222725
 20
22.8345134334
 10
-6.655522119
 20
22.8207797598
 10
-6.6564836604
 20
22.8072786659
 10
-6.6568043148
 20
22.7940589875
  0
LINE
  5
356
100
AcDbEntity
  8
ASSI
100
AcDbLine
 62
250
  6
CONTINUOUS
 10
-4.5868156898
 20
21.8179660356
 11
-4.5840308286
 21
21.831259095
  0
LINE
  5
357
100
AcDbEntity
  8
ASSI
100
AcDbLine
 62
250
  6
CONTINUOUS
 10
-4.584204091
 20
21.8305013747
 11
-4.580809092
 21
21.8441802411
  0
LINE
  5
358
100
AcDbEntity
  8
ASSI
100
AcDbLine
 62
250
  6
CONTINUOUS
 10
-4.3103075545
 20
21.7743124337
 11
-4.3096157674
 21
21.7770435036
  0
LINE
  5
359
100
AcDbEntity
  8
ASSI
100
AcDbLine
 62
250
  6
CONTINUOUS
 10
-4.5810301245
 20
21.8433542848
 11
-4.5770038915
 21
21.8573629095
  0
LINE
  5
35A
100
AcDbEntity
  8
ASSI
100
AcDbLine
 62
250
  6
CONTINUOUS
 10
-4.30966086
 20
21.7768771627
 11
-4.3088456651
 21
21.7796801996
  0
LINE
  5
35B
100
AcDbEntity
  8
ASSI
100
AcDbLine
 62
7
  6
CONTINUOUS
 10
-2.057306032
 20
22.5088493066
 11
-2.0496479592
 21
22.5328286842
  0
LINE
  5
35C
100
AcDbEntity
  8
ASSI
100
AcDbLine
 62
250
  6
CONTINUOUS
 10
-4.577272705
 20
21.8564878979
 11
-4.5726255567
 21
21.870686812
  0
LINE
  5
35D
100
AcDbEntity
  8
ASSI
100
AcDbLine
 62
250
  6
CONTINUOUS
 10
-4.3089008456
 20
21.7795038632
 11
-4.3079590859
 21
21.7823349031
  0
LWPOLYLINE
  5
35E
100
AcDbEntity
  8
ASSI
100
AcDbPolyline
 62
250
  6
CONTINUOUS
 90
6
 70
0
 10
3.9384305553
 20
22.8417839013
 10
3.9545119048
 20
22.8591678646
 10
3.966770292
 20
22.8772793999
 10
3.9750774665
 20
22.8959267288
 10
3.9793429887
 20
22.91491106
 10
3.9799371355
 20
22.9266139137
  0
LWPOLYLINE
  5
35F
100
AcDbEntity
  8
RACCORDO
100
AcDbPolyline
 62
7
  6
CONTINUOUS
 90
6
 70
0
 10
4.9690753636
 20
20.633516457
 10
4.9636233964
 20
20.6304075992
 10
4.9565722927
 20
20.6258517249
 10
4.9498415162
 20
20.6208663595
 10
4.9434395187
 20
20.6154584531
 10
4.9371359513
 20
20.6093910767
  0
LWPOLYLINE
  5
360
100
AcDbEntity
  8
ASSI
100
AcDbPolyline
 62
250
  6
CONTINUOUS
 90
7
 70
0
 10
8.2295438574
 20
22.4843989892
 10
8.251104894
 20
22.4966591775
 10
8.2692731964
 20
22.5101570697
 10
8.283737833
 20
22.5246617561
 10
8.2942512295
 20
22.5399250951
 10
8.3006334018
 20
22.5556859483
 10
8.3027690579
 20
22.5725327561
  0
LWPOLYLINE
  5
361
100
AcDbEntity
  8
ASSI
100
AcDbPolyline
 62
7
  6
CONTINUOUS
 90
12
 70
0
 10
2.8526832321
 20
19.3529817775
 10
2.844524023
 20
19.3483518126
 10
2.8253384383
 20
19.3354955939
 10
2.8075507895
 20
19.3206389949
 10
2.7914002793
 20
19.3039696744
 10
2.7769499693
 20
19.2855146365
 10
2.7644074859
 20
19.2654642117
 10
2.7539703486
 20
19.2440785199
 10
2.7457031225
 20
19.2214098559
 10
2.7397318879
 20
19.1975895159
 10
2.7361968474
 20
19.1729276842
 10
2.7351632353
 20
19.1502352477
  0
LINE
  5
362
100
AcDbEntity
  8
ASSI
100
AcDbLine
 62
7
  6
CONTINUOUS
 10
1.8707782271
 20
18.7299328442
 11
1.6524321898
 21
18.6107313245
  0
LINE
  5
363
100
AcDbEntity
  8
RACCORDO
100
AcDbLine
 62
7
  6
CONTINUOUS
 10
4.9690758392
 20
20.6335167137
 11
5.3189194949
 21
20.8222653919
  0
LINE
  5
364
100
AcDbEntity
  8
RACCORDO
100
AcDbLine
 62
250
  6
CONTINUOUS
 10
5.1848148566
 20
20.6149738779
 11
5.5476796414
 21
20.810747754
  0
LINE
  5
365
100
AcDbEntity
  8
ASSI
100
AcDbLine
 62
7
  6
CONTINUOUS
 10
3.0645187751
 20
19.4672719986
 11
2.8526719024
 21
19.3529757506
  0
LINE
  5
366
100
AcDbEntity
  8
ASSI
100
AcDbLine
 62
250
  6
CONTINUOUS
 10
3.1788988484
 20
19.4615131796
 11
2.9680445311
 21
19.3477524381
  0
LINE
  5
367
100
AcDbEntity
  8
RACCORDO
100
AcDbLine
 62
250
  6
CONTINUOUS
 10
5.6686083768
 20
20.868082875
 11
5.6978819025
 21
20.8836567918
  0
LINE
  5
368
100
AcDbEntity
  8
RACCORDO
100
AcDbLine
 62
250
  6
CONTINUOUS
 10
5.6978819025
 20
20.8836567918
 11
5.705068562
 21
20.8874348133
  0
LINE
  5
369
100
AcDbEntity
  8
RACCORDO
100
AcDbLine
 62
250
  6
CONTINUOUS
 10
5.6621811716
 20
20.8647028208
 11
5.6686083768
 21
20.868082875
  0
LWPOLYLINE
  5
36A
100
AcDbEntity
  8
RACCORDO
100
AcDbPolyline
 62
7
  6
CONTINUOUS
 90
3
 70
0
 10
5.3189195159
 20
20.8222654016
 10
5.3234193053
 20
20.8246150766
 10
5.3293342512
 20
20.8274735472
  0
LINE
  5
36B
100
AcDbEntity
  8
RACCORDO
100
AcDbLine
 62
250
  6
CONTINUOUS
 10
5.705068562
 20
20.8874348133
 11
5.7124551858
 21
20.8912694015
  0
LINE
  5
36C
100
AcDbEntity
  8
RACCORDO
100
AcDbLine
 62
250
  6
CONTINUOUS
 10
5.6558382192
 20
20.8614124805
 11
5.6621811716
 21
20.8647028208
  0
LINE
  5
36D
100
AcDbEntity
  8
ASSI
100
AcDbLine
 62
7
  6
CONTINUOUS
 10
2.5528384575
 20
19.0815960036
 11
1.8707782271
 21
18.7299328442
  0
LINE
  5
36E
100
AcDbEntity
  8
RACCORDO
100
AcDbLine
 62
250
  6
CONTINUOUS
 10
5.7124551858
 20
20.8912694015
 11
5.7174989492
 21
20.8938540209
  0
LINE
  5
36F
100
AcDbEntity
  8
ASSI
100
AcDbLine
 62
7
  6
CONTINUOUS
 10
2.7351627198
 20
19.0115560712
 11
2.7142686674
 21
19.0008808986
  0
LINE
  5
370
100
AcDbEntity
  8
RACCORDO
100
AcDbLine
 62
250
  6
CONTINUOUS
 10
5.6516473252
 20
20.859270318
 11
5.6558382192
 21
20.8614124805
  0
LINE
  5
371
100
AcDbEntity
  8
RACCORDO
100
AcDbLine
 62
250
  6
CONTINUOUS
 10
5.7174989492
 20
20.8938540209
 11
5.7226440751
 21
20.8964587357
  0
LINE
  5
372
100
AcDbEntity
  8
ASSI
100
AcDbLine
 62
250
  6
CONTINUOUS
 10
5.1879930197
 20
18.2377781938
 11
5.406339057
 21
18.3477930753
  0
LINE
  5
373
100
AcDbEntity
  8
RACCORDO
100
AcDbLine
 62
250
  6
CONTINUOUS
 10
5.6474790804
 20
20.8571701062
 11
5.6516473252
 21
20.859270318
  0
LINE
  5
374
100
AcDbEntity
  8
ASSI
100
AcDbLine
 62
7
  6
CONTINUOUS
 10
3.064518345
 20
19.4672718
 11
3.0697259812
 21
19.4698759968
  0
LINE
  5
375
100
AcDbEntity
  8
RACCORDO
100
AcDbLine
 62
250
  6
CONTINUOUS
 10
5.7226440751
 20
20.8964587357
 11
5.7278960455
 21
20.8990811881
  0
LINE
  5
376
100
AcDbEntity
  8
ASSI
100
AcDbLine
 62
250
  6
CONTINUOUS
 10
9.3168677611
 20
20.2874441413
 11
5.406339057
 21
18.3477930753
  0
LINE
  5
377
100
AcDbEntity
  8
RACCORDO
100
AcDbLine
 62
250
  6
CONTINUOUS
 10
5.6433291575
 20
20.8551121704
 11
5.6474790804
 21
20.8571701062
  0
LINE
  5
378
100
AcDbEntity
  8
RACCORDO
100
AcDbLine
 62
250
  6
CONTINUOUS
 10
5.7278960455
 20
20.8990811881
 11
5.7332585335
 21
20.9017198131
  0
LINE
  5
379
100
AcDbEntity
  8
0
100
AcDbLine
 62
7
  6
CONTINUOUS
 10
26.8510681998
 20
29.94789949
 11
9.6697673783
 21
21.5765256062
  0
LINE
  5
37A
100
AcDbEntity
  8
RACCORDO
100
AcDbLine
 62
250
  6
CONTINUOUS
 10
5.6391910285
 20
20.85309688
 11
5.6433291575
 21
20.8551121704
  0
LINE
  5
37B
100
AcDbEntity
  8
RACCORDO
100
AcDbLine
 62
250
  6
CONTINUOUS
 10
5.7332585335
 20
20.9017198131
 11
5.7387371538
 21
20.9043723109
  0
LINE
  5
37C
100
AcDbEntity
  8
ASSI
100
AcDbLine
 62
7
  6
CONTINUOUS
 10
9.023084432
 20
20.3846572325
 11
5.7601637602
 21
18.8214914288
  0
LINE
  5
37D
100
AcDbEntity
  8
ASSI
100
AcDbLine
 62
250
  6
CONTINUOUS
 10
9.1341818388
 20
20.3772106543
 11
5.8221307174
 21
18.7905079502
  0
LINE
  5
37E
100
AcDbEntity
  8
RACCORDO
100
AcDbLine
 62
250
  6
CONTINUOUS
 10
5.635057094
 20
20.85112393
 11
5.6391910285
 21
20.85309688
  0
LINE
  5
37F
100
AcDbEntity
  8
RACCORDO
100
AcDbLine
 62
250
  6
CONTINUOUS
 10
5.7387371538
 20
20.9043723109
 11
5.7443369853
 21
20.907036111
  0
LINE
  5
380
100
AcDbEntity
  8
0
100
AcDbLine
 62
7
  6
CONTINUOUS
 10
28.2264405686
 20
29.2602133055
 11
10.7426218318
 21
21.0400983795
  0
LINE
  5
381
100
AcDbEntity
  8
RACCORDO
100
AcDbLine
 62
250
  6
CONTINUOUS
 10
5.7443369853
 20
20.907036111
 11
5.7500613684
 21
20.9097094806
  0
LINE
  5
382
100
AcDbEntity
  8
RACCORDO
100
AcDbLine
 62
250
  6
CONTINUOUS
 10
5.6309250896
 20
20.8491932607
 11
5.635057094
 21
20.85112393
  0
LINE
  5
383
100
AcDbEntity
  8
RACCORDO
100
AcDbLine
 62
7
  6
CONTINUOUS
 10
5.3293342671
 20
20.8274735545
 11
5.4511626397
 21
20.8838494
  0
LINE
  5
384
100
AcDbEntity
  8
RACCORDO
100
AcDbLine
 62
250
  6
CONTINUOUS
 10
5.5476796414
 20
20.810747754
 11
5.6309250896
 21
20.8491932607
  0
LINE
  5
385
100
AcDbEntity
  8
ASSI
100
AcDbLine
 62
7
  6
CONTINUOUS
 10
3.7471599942
 20
19.7827374733
 11
3.0697261612
 21
19.4698760799
  0
LINE
  5
386
100
AcDbEntity
  8
ASSI
100
AcDbLine
 62
250
  6
CONTINUOUS
 10
3.8553266806
 20
19.7739099686
 11
3.1788988484
 21
19.4615131796
  0
LINE
  5
387
100
AcDbEntity
  8
RACCORDO
100
AcDbLine
 62
7
  6
CONTINUOUS
 10
5.4612588438
 20
20.8884839828
 11
5.4511626397
 21
20.8838494
  0
LINE
  5
388
100
AcDbEntity
  8
RACCORDO
100
AcDbLine
 62
250
  6
CONTINUOUS
 10
5.7500613684
 20
20.9097094806
 11
5.755915199
 21
20.9123897653
  0
LWPOLYLINE
  5
389
100
AcDbEntity
  8
RACCORDO
100
AcDbPolyline
 62
250
  6
CONTINUOUS
 90
18
 70
0
 10
6.4000609702
 20
20.9405646699
 10
6.4056893804
 20
20.9431211644
 10
6.4113049483
 20
20.9453969566
 10
6.4168987666
 20
20.9473884367
 10
6.4224619625
 20
20.9490924458
 10
6.427985712
 20
20.9505062812
 10
6.4334612535
 20
20.9516277002
 10
6.4388799018
 20
20.9524549241
 10
6.444233062
 20
20.9529866409
 10
6.4495122432
 20
20.9532220071
 10
6.4547090717
 20
20.9531606493
 10
6.4598153044
 20
20.952802665
 10
6.4648228421
 20
20.952148622
 10
6.469723742
 20
20.9511995576
 10
6.4745102303
 20
20.9499569773
 10
6.4791747151
 20
20.948422852
 10
6.4837097975
 20
20.946599615
 10
6.4870355467
 20
20.9450373356
  0
LINE
  5
38A
100
AcDbEntity
  8
RACCORDO
100
AcDbLine
 62
7
  6
CONTINUOUS
 10
5.4718788134
 20
20.8932988247
 11
5.4612588438
 21
20.8884839828
  0
LWPOLYLINE
  5
38B
100
AcDbEntity
  8
RACCORDO
100
AcDbPolyline
 62
250
  6
CONTINUOUS
 90
22
 70
0
 10
5.4151152583
 20
20.867090059
 10
5.4182435957
 20
20.8685000016
 10
5.4274920605
 20
20.8722738953
 10
5.4369516773
 20
20.8755563506
 10
5.4466123205
 20
20.8783438538
 10
5.4564636492
 20
20.8806334213
 10
5.4664951185
 20
20.8824226023
 10
5.4766959906
 20
20.8837094815
 10
5.4870553463
 20
20.8844926817
 10
5.497562097
 20
20.8847713643
 10
5.508204996
 20
20.8845452311
 10
5.5189726512
 20
20.8838145243
 10
5.5298535367
 20
20.8825800258
 10
5.5408360055
 20
20.8808430573
 10
5.5519083019
 20
20.8786054778
 10
5.563058574
 20
20.8758696826
 10
5.5742748865
 20
20.8726386001
 10
5.5855452332
 20
20.8689156889
 10
5.5968575504
 20
20.864704934
 10
5.6081997292
 20
20.8600108425
 10
5.6195596289
 20
20.8548384392
 10
5.6309250896
 20
20.8491932607
  0
LWPOLYLINE
  5
38C
100
AcDbEntity
  8
RACCORDO
100
AcDbPolyline
 62
7
  6
CONTINUOUS
 90
22
 70
0
 10
5.3293342512
 20
20.8274735472
 10
5.332474905
 20
20.8288891815
 10
5.3417583591
 20
20.8326798879
 10
5.3512660432
 20
20.8359855638
 10
5.3609935362
 20
20.8388034951
 10
5.3709255215
 20
20.841128087
 10
5.3810415729
 20
20.8429546169
 10
5.3913234333
 20
20.8442812431
 10
5.4017669261
 20
20.8451088477
 10
5.4123725069
 20
20.8454373505
 10
5.4231373346
 20
20.8452652558
 10
5.4340422997
 20
20.8445914637
 10
5.4450632952
 20
20.8434172816
 10
5.4561807078
 20
20.8417461901
 10
5.4673902795
 20
20.839580184
 10
5.4786906757
 20
20.8369193663
 10
5.4900763568
 20
20.8337641318
 10
5.501529181
 20
20.8301185889
 10
5.5130289062
 20
20.8259887325
 10
5.5245606353
 20
20.8213803874
 10
5.5361149355
 20
20.8162981131
 10
5.5476796414
 20
20.810747754
  0
LINE
  5
38D
100
AcDbEntity
  8
ASSI
100
AcDbLine
 62
250
  6
CONTINUOUS
 10
9.0230843846
 20
20.3846572098
 11
9.0274414435
 21
20.3866135358
  0
LINE
  5
38E
100
AcDbEntity
  8
RACCORDO
100
AcDbLine
 62
250
  6
CONTINUOUS
 10
5.755915199
 20
20.9123897653
 11
5.7619031809
 21
20.9150742236
  0
LINE
  5
38F
100
AcDbEntity
  8
RACCORDO
100
AcDbLine
 62
7
  6
CONTINUOUS
 10
5.4830084043
 20
20.8982682542
 11
5.4718788134
 21
20.8932988247
  0
LINE
  5
390
100
AcDbEntity
  8
RACCORDO
100
AcDbLine
 62
7
  6
CONTINUOUS
 10
5.4946582672
 20
20.9033777962
 11
5.4830084043
 21
20.8982682542
  0
LINE
  5
391
100
AcDbEntity
  8
RACCORDO
100
AcDbLine
 62
250
  6
CONTINUOUS
 10
5.7619031809
 20
20.9150742236
 11
5.7680283473
 21
20.9177609832
  0
LINE
  5
392
100
AcDbEntity
  8
ASSI
100
AcDbLine
 62
250
  6
CONTINUOUS
 10
9.1442118661
 20
20.3815074173
 11
9.1341818388
 21
20.3772106543
  0
LWPOLYLINE
  5
393
100
AcDbEntity
  8
ASSI
100
AcDbPolyline
 62
7
  6
CONTINUOUS
 90
4
 70
0
 10
3.0697259812
 20
19.4698759968
 10
3.0747303418
 20
19.4720136155
 10
3.0903215467
 20
19.4766620559
 10
3.1070146866
 20
19.4787483755
  0
LWPOLYLINE
  5
394
100
AcDbEntity
  8
RACCORDO
100
AcDbPolyline
 62
250
  6
CONTINUOUS
 90
3
 70
0
 10
5.7680283473
 20
20.9177609832
 10
5.7742951418
 20
20.920447186
 10
5.7774829505
 20
20.921789052
  0
LINE
  5
395
100
AcDbEntity
  8
ASSI
100
AcDbLine
 62
7
  6
CONTINUOUS
 10
9.0576633472
 20
20.3992012266
 11
9.0230151412
 21
20.3846124891
  0
LWPOLYLINE
  5
396
100
AcDbEntity
  8
RACCORDO
100
AcDbPolyline
 62
250
  6
CONTINUOUS
 90
153
 70
0
 10
5.7774829505
 20
20.921789052
 10
5.7839687412
 20
20.9244693057
 10
5.7872680227
 20
20.9258066687
 10
5.7906053176
 20
20.9271418447
 10
5.7939806392
 20
20.9284748374
 10
5.7973953352
 20
20.9298046364
 10
5.800849479
 20
20.9311312719
 10
5.8043429972
 20
20.9324547137
 10
5.8078770178
 20
20.9337738607
 10
5.8114516232
 20
20.9350887426
 10
5.8150667311
 20
20.9363993297
 10
5.8187232216
 20
20.9377044315
 10
5.8224211193
 20
20.9390040549
 10
5.8261603997
 20
20.9402981931
 10
5.8299418698
 20
20.9415856356
 10
5.8337655621
 20
20.9428663919
 10
5.8376314441
 20
20.9441404525
 10
5.8415402252
 20
20.9454065775
 10
5.8454919472
 20
20.9466647792
 10
5.8494865683
 20
20.9479150452
 10
5.8535246729
 20
20.9491560982
 10
5.8576062985
 20
20.9503879491
 10
5.8617314075
 20
20.951610587
 10
5.8659004719
 20
20.9528227022
 10
5.8701135478
 20
20.9540243105
 10
5.8743705791
 20
20.9552153961
 10
5.8786718684
 20
20.956394603
 10
5.883017494
 20
20.9575619503
 10
5.8874073776
 20
20.9587174189
 10
5.8918415881
 20
20.9598595947
 10
5.8963202055
 20
20.9609884944
 10
5.9008431497
 20
20.9621041012
 10
5.9054102487
 20
20.9632049509
 10
5.9100215738
 20
20.9642910555
 10
5.9146770537
 20
20.9653624029
 10
5.9193763031
 20
20.9664174931
 10
5.9241192727
 20
20.9674563133
 10
5.9289060117
 20
20.9684788763
 10
5.9337362823
 20
20.9694837202
 10
5.9386129183
 20
20.9704713374
 10
5.943533086
 20
20.9714412356
 10
5.9484880463
 20
20.9723904755
 10
5.9534813661
 20
20.9733194367
 10
5.9585094785
 20
20.9742277396
 10
5.9635529442
 20
20.9751113057
 10
5.968609016
 20
20.9759693503
 10
5.9736804411
 20
20.976802658
 10
5.9787560215
 20
20.9776095042
 10
5.9838330331
 20
20.9783893386
 10
5.9889142001
 20
20.9791427113
 10
5.9939964974
 20
20.9798695484
 10
5.9990793813
 20
20.980569757
 10
6.0041633954
 20
20.9812434299
 10
6.0092471458
 20
20.9818907712
 10
6.0143306745
 20
20.9825117867
 10
6.0194139394
 20
20.9831064706
 10
6.0244954196
 20
20.9836750106
 10
6.029575334
 20
20.9842174235
 10
6.0346534636
 20
20.9847336925
 10
6.039727632
 20
20.9852239549
 10
6.0447979661
 20
20.9856882057
 10
6.0498643389
 20
20.9861264498
 10
6.0549241924
 20
20.9865388396
 10
6.0599776694
 20
20.9869253621
 10
6.0650246273
 20
20.9872860302
 10
6.0700620798
 20
20.9876210358
 10
6.0750900409
 20
20.9879303511
 10
6.0801084967
 20
20.9882140039
 10
6.0851144191
 20
20.9884722691
 10
6.0901077124
 20
20.9887051161
 10
6.0950884723
 20
20.9889125755
 10
6.100053958
 20
20.9890950145
 10
6.1050041562
 20
20.9892524096
 10
6.1099390801
 20
20.9893847843
 10
6.1148560281
 20
20.9894925762
 10
6.1197549597
 20
20.9895757624
 10
6.1246359155
 20
20.9896343656
 10
6.1294963158
 20
20.9896688917
 10
6.1343360886
 20
20.9896793208
 10
6.1391553059
 20
20.9896656727
 10
6.1439516046
 20
20.9896285126
 10
6.1487248999
 20
20.9895678253
 10
6.1534752766
 20
20.989483626
 10
6.1582006258
 20
20.9893765251
 10
6.1629010189
 20
20.9892465038
 10
6.1675763845
 20
20.9890935809
 10
6.1722243995
 20
20.9889184234
 10
6.1768452286
 20
20.9887209987
 10
6.1814387071
 20
20.9885013393
 10
6.1860020172
 20
20.9882602102
 10
6.1905350259
 20
20.9879975894
 10
6.1950378663
 20
20.9877134988
 10
6.1995081201
 20
20.9874087695
 10
6.2039455579
 20
20.9870833966
 10
6.2083504092
 20
20.9867373849
 10
6.2127209445
 20
20.9863715793
 10
6.2170570552
 20
20.9859859761
 10
6.22135885
 20
20.985580579
 10
6.225624925
 20
20.9851562446
 10
6.2298552001
 20
20.984712971
 10
6.2340497555
 20
20.9842507601
 10
6.2382074276
 20
20.9837704743
 10
6.2423281397
 20
20.9832721147
 10
6.2464119685
 20
20.9827556802
 10
6.2504579806
 20
20.9822220298
 10
6.2544660894
 20
20.9816711697
 10
6.2584363814
 20
20.9811030938
 10
6.2623681835
 20
20.9805186428
 10
6.2662614369
 20
20.9799178219
 10
6.2701162003
 20
20.979300626
 10
6.2739319764
 20
20.9786678797
 10
6.2777086887
 20
20.9780195943
 10
6.2814464136
 20
20.9773557585
 10
6.2851448831
 20
20.9766771638
 10
6.288804013
 20
20.9759838271
 10
6.2924238874
 20
20.9752757314
 10
6.2960044907
 20
20.9745536171
 10
6.2995457889
 20
20.9738174944
 10
6.3030478159
 20
20.9730673532
 10
6.3065106576
 20
20.9723039035
 10
6.3099342434
 20
20.9715271662
 10
6.313318644
 20
20.9707371204
 10
6.3166641574
 20
20.969934414
 10
6.3199706727
 20
20.9691190843
 10
6.3232383008
 20
20.9682910939
 10
6.3264676729
 20
20.9674509785
 10
6.3296587568
 20
20.9665987617
 10
6.3328115847
 20
20.9657344198
 10
6.3359268839
 20
20.9648584177
 10
6.3390046397
 20
20.9639707764
 10
6.3420448667
 20
20.9630714747
 10
6.3450483366
 20
20.9621609149
 10
6.3480150226
 20
20.9612391238
 10
6.3509449515
 20
20.9603060744
 10
6.3538389756
 20
20.9593620884
 10
6.3566970888
 20
20.9584071886
 10
6.3595192971
 20
20.9574413521
 10
6.3623064715
 20
20.9564648318
 10
6.3650586213
 20
20.955477646
 10
6.367775737
 20
20.9544797765
 10
6.3704586612
 20
20.9534714215
 10
6.3731074058
 20
20.9524525991
 10
6.3757219588
 20
20.9514232911
 10
6.3783031267
 20
20.9503836414
 10
6.3808509227
 20
20.9493336664
 10
6.3833653337
 20
20.9482733497
 10
6.3858471264
 20
20.9472027847
 10
6.3882963142
 20
20.9461219919
 10
6.3907128837
 20
20.945030951
 10
6.3930975614
 20
20.943929695
 10
6.3954505895
 20
20.942818235
 10
6.3977717257
 20
20.9416965599
 10
6.4000609702
 20
20.9405646699
  0
LINE
  5
397
100
AcDbEntity
  8
ASSI
100
AcDbLine
 62
250
  6
CONTINUOUS
 10
9.1442197902
 20
20.3815101753
 11
9.1549047606
 21
20.3852096402
  0
LINE
  5
398
100
AcDbEntity
  8
ASSI
100
AcDbLine
 62
7
  6
CONTINUOUS
 10
9.0919377975
 20
20.410093293
 11
9.0552075869
 21
20.3982931082
  0
LINE
  5
399
100
AcDbEntity
  8
ASSI
100
AcDbLine
 62
7
  6
CONTINUOUS
 10
9.0940155562
 20
20.4106531298
 11
9.0576633472
 21
20.3992012266
  0
LWPOLYLINE
  5
39A
100
AcDbEntity
  8
ASSI
100
AcDbPolyline
 62
250
  6
CONTINUOUS
 90
6
 70
0
 10
12.1140503295
 20
20.8418329997
 10
12.1333717552
 20
20.8478026441
 10
12.1541130644
 20
20.8498705071
 10
12.1759271752
 20
20.8480019159
 10
12.1984490973
 20
20.8422280694
 10
12.2213019587
 20
20.8326455134
  0
LINE
  5
39B
100
AcDbEntity
  8
ASSI
100
AcDbLine
 62
250
  6
CONTINUOUS
 10
9.0274414435
 20
20.3866135358
 11
9.0466969138
 21
20.3924523267
  0
LWPOLYLINE
  5
39C
100
AcDbEntity
  8
CURVE
100
AcDbPolyline
 62
250
  6
CONTINUOUS
 90
7
 70
0
 10
1.7743696602
 20
-18.735758576
 10
1.4779391955
 20
-18.6034701258
 10
1.0698341543
 20
-18.4200474787
 10
0.6632533259
 20
-18.2358005143
 10
0.2582012493
 20
-18.0507313944
 10
-0.1453175369
 20
-17.864842281
 10
-0.5472984936
 20
-17.6781353362
  0
LWPOLYLINE
  5
39D
100
AcDbEntity
  8
CURVE
100
AcDbPolyline
 62
250
  6
CONTINUOUS
 90
5
 70
0
 10
0.2201797804
 20
-17.5987796278
 10
0.4076945654
 20
-17.6846334403
 10
0.5955407715
 20
-17.7703097004
 10
0.7837179471
 20
-17.8558081928
 10
0.9722256407
 20
-17.9411287025
  0
LINE
  5
39E
100
AcDbEntity
  8
ASSI
100
AcDbLine
 62
7
  6
CONTINUOUS
 10
10.4416951456
 20
-24.795658372
 11
10.422635138
 21
-24.7849306767
  0
LINE
  5
39F
100
AcDbEntity
  8
ASSI
100
AcDbLine
 62
250
  6
CONTINUOUS
 10
10.4175027329
 20
-24.787779028
 11
10.3995055566
 21
-24.7769835014
  0
LINE
  5
3A0
100
AcDbEntity
  8
ASSI
100
AcDbLine
 62
7
  6
CONTINUOUS
 10
10.4618843375
 20
-24.8100632281
 11
10.4417194388
 21
-24.7956772386
  0
LWPOLYLINE
  5
3A1
100
AcDbEntity
  8
ASSI
100
AcDbPolyline
 62
250
  6
CONTINUOUS
 90
17
 70
0
 10
-6.656804315
 20
22.4767887703
 10
-6.6566499636
 20
22.4678104733
 10
-6.6561712765
 20
22.4587721535
 10
-6.6553439389
 20
22.4497050568
 10
-6.6541416774
 20
22.4406296648
 10
-6.6525417462
 20
22.4315967188
 10
-6.6505305433
 20
22.4226831897
 10
-6.6480905277
 20
22.4139265878
 10
-6.6452052176
 20
22.4053666288
 10
-6.6418740726
 20
22.3970780952
 10
-6.638088241
 20
22.3890986064
 10
-6.6338404328
 20
22.3814668851
 10
-6.6291447363
 20
22.3742502841
 10
-6.6240022087
 20
22.3674824816
 10
-6.6184155099
 20
22.3611968752
 10
-6.6124132807
 20
22.3554478555
 10
-6.6060064468
 20
22.3502611588
  0
LWPOLYLINE
  5
3A2
100
AcDbEntity
  8
ASSI
100
AcDbPolyline
 62
7
  6
CONTINUOUS
 90
6
 70
0
 10
-6.7153833505
 20
22.5474325562
 10
-6.715249731
 20
22.5393058112
 10
-6.7130669577
 20
22.5135379903
 10
-6.7082193254
 20
22.4883605399
 10
-6.7007565741
 20
22.4640916454
 10
-6.6908522512
 20
22.4411249833
  0
LWPOLYLINE
  5
3A3
100
AcDbEntity
  8
ASSI
100
AcDbPolyline
 62
7
  6
CONTINUOUS
 90
7
 70
0
 10
-6.7153829384
 20
22.5474705938
 10
-6.7153497997
 20
22.5434010076
 10
-6.7135129715
 20
22.5169396872
 10
-6.708861331
 20
22.4910068132
 10
-6.7014491236
 20
22.4659784864
 10
-6.6914465805
 20
22.4422981611
 10
-6.6786414697
 20
22.4196106064
  0
LWPOLYLINE
  5
3A4
100
AcDbEntity
  8
0
100
AcDbPolyline
 62
250
  6
CONTINUOUS
 90
10
 70
0
 10
-5.6655396485
 20
-6.2845189323
 10
-5.6695062991
 20
-5.6412467859
 10
-5.6724812751
 20
-4.9974917569
 10
-5.6744645864
 20
-4.3532560548
 10
-5.6754562412
 20
-3.7085433583
 10
-5.6754562527
 20
-3.0633544082
 10
-5.6744646173
 20
-2.4176869962
 10
-5.672481315
 20
-1.7715418463
 10
-5.669506331
 20
-1.1249226261
 10
-5.6655396485
 20
-0.4778315314
  0
LWPOLYLINE
  5
3A5
100
AcDbEntity
  8
ASSI
100
AcDbPolyline
 62
250
  6
CONTINUOUS
 90
10
 70
0
 10
-5.6585857787
 20
-6.2881282546
 10
-5.6625526951
 20
-5.6448562389
 10
-5.6655278704
 20
-5.0011012982
 10
-5.6675113146
 20
-4.3568656423
 10
-5.6685030359
 20
-3.7121529504
 10
-5.6685030474
 20
-3.0669639633
 10
-5.6675113455
 20
-2.4212964726
 10
-5.6655279103
 20
-1.7751512023
 10
-5.662552727
 20
-1.1285318204
 10
-5.6585857787
 20
-0.4814405233
  0
LINE
  5
3A6
100
AcDbEntity
  8
ASSI
100
AcDbLine
 62
7
  6
CONTINUOUS
 10
-6.7153829585
 20
22.8647696656
 11
-6.7153829585
 21
22.5475008653
  0
LINE
  5
3A7
100
AcDbEntity
  8
ASSI
100
AcDbLine
 62
250
  6
CONTINUOUS
 10
-6.6568043148
 20
22.7940589875
 11
-6.6568043148
 21
22.4767887701
  0
LINE
  5
3A8
100
AcDbEntity
  8
ASSI
100
AcDbLine
 62
7
  6
CONTINUOUS
 10
-6.0005198381
 20
21.5919420452
 11
-6.0005198381
 21
22.0459161469
  0
LINE
  5
3A9
100
AcDbEntity
  8
ASSI
100
AcDbLine
 62
250
  6
CONTINUOUS
 10
-5.9272965334
 20
21.5002303504
 11
-5.9272965334
 21
22.0093044946
  0
LINE
  5
3AA
100
AcDbEntity
  8
ASSI
100
AcDbLine
 62
7
  6
CONTINUOUS
 10
-5.7945591012
 20
21.9443511667
 11
-5.7945591012
 21
20.7364684274
  0
LINE
  5
3AB
100
AcDbEntity
  8
ASSI
100
AcDbLine
 62
250
  6
CONTINUOUS
 10
-5.7213357965
 20
22.009055928
 11
-5.7213357965
 21
20.6447567325
  0
LINE
  5
3AC
100
AcDbEntity
  8
ASSI
100
AcDbLine
 62
250
  6
CONTINUOUS
 10
-5.5277715104
 20
21.9122737849
 11
-5.5277715104
 21
20.5479745895
  0
LWPOLYLINE
  5
3AD
100
AcDbEntity
  8
ASSI
100
AcDbPolyline
 62
250
  6
CONTINUOUS
 90
6
 70
0
 10
-6.6568043148
 20
22.7940589875
 10
-6.6566078539
 20
22.8043748142
 10
-6.655995455
 20
22.8151879463
 10
-6.654931546
 20
22.8264880313
 10
-6.6533768823
 20
22.8382857988
 10
-6.6512987909
 20
22.8505357854
  0
LWPOLYLINE
  5
3AE
100
AcDbEntity
  8
0
100
AcDbPolyline
 62
250
  6
CONTINUOUS
 90
25
 70
0
 10
-5.6655396485
 20
-0.4778315314
 10
-5.6617374621
 20
-0.3733755932
 10
-5.6527766519
 20
-0.2735747001
 10
-5.6386570054
 20
-0.1784287437
 10
-5.6192849808
 20
-0.0878306588
 10
-5.5947506119
 20
-0.0018857886
 10
-5.5653281335
 20
0.0790878093
 10
-5.5309466762
 20
0.1552863061
 10
-5.4916690405
 20
0.2265174819
 10
-5.4479705914
 20
0.2918803869
 10
-5.3997710569
 20
0.3513062782
 10
-5.3471405364
 20
0.4048688902
 10
-5.2907821067
 20
0.4518799381
 10
-5.2309279766
 20
0.4922261431
 10
-5.1673359084
 20
0.5260257288
 10
-5.099998436
 20
0.5529371207
 10
-5.0286211354
 20
0.5731070528
 10
-4.9534839392
 20
0.5863959617
 10
-4.8754427921
 20
0.5920319159
 10
-4.7941940165
 20
0.5897749412
 10
-4.7100285492
 20
0.5798713689
 10
-4.6247014768
 20
0.5622751801
 10
-4.5387987484
 20
0.5369706156
 10
-4.4517312202
 20
0.5039751126
 10
-4.3634960734
 20
0.463290116
  0
LWPOLYLINE
  5
3AF
100
AcDbEntity
  8
ASSI
100
AcDbPolyline
 62
250
  6
CONTINUOUS
 90
25
 70
0
 10
-5.6585857787
 20
-0.4814405233
 10
-5.6547832724
 20
-0.3769841897
 10
-5.6458216942
 20
-0.2771827102
 10
-5.6317008324
 20
-0.182035977
 10
-5.6123271358
 20
-0.0914369188
 10
-5.5877906491
 20
-0.0054908855
 10
-5.5583656377
 20
0.0754840465
 10
-5.5239812279
 20
0.1516840473
 10
-5.4847002262
 20
0.2229168975
 10
-5.4409980441
 20
0.28828163
 10
-5.3927944048
 20
0.3477095044
 10
-5.3401594141
 20
0.4012742522
 10
-5.2837962121
 20
0.4482875645
 10
-5.2239370268
 20
0.4886361532
 10
-5.1603396025
 20
0.5224382514
 10
-5.0929964804
 20
0.5493522873
 10
-5.0216132146
 20
0.5695250051
 10
-4.9464697606
 20
0.5828168319
 10
-4.8684221373
 20
0.5884558103
 10
-4.787166645
 20
0.5862019787
 10
-4.7029942426
 20
0.5763016566
 10
-4.617660157
 20
0.5587087623
 10
-4.5317503833
 20
0.5334075162
 10
-4.4446757302
 20
0.500415377
 10
-4.3564333783
 20
0.4597337902
  0
LINE
  5
3B0
100
AcDbEntity
  8
ASSI
100
AcDbLine
 62
7
  6
CONTINUOUS
 10
-6.7142544413
 20
22.8888067508
 11
-6.7153828259
 21
22.8647398983
  0
LINE
  5
3B1
100
AcDbEntity
  8
ASSI
100
AcDbLine
 62
250
  6
CONTINUOUS
 10
-4.5921079189
 20
21.7720613162
 11
-4.5914745253
 21
21.7831216669
  0
LINE
  5
3B2
100
AcDbEntity
  8
ASSI
100
AcDbLine
 62
250
  6
CONTINUOUS
 10
-4.5914981516
 20
21.7828106244
 11
-4.5903871183
 21
21.7944934152
  0
LWPOLYLINE
  5
3B3
100
AcDbEntity
  8
ASSI
100
AcDbPolyline
 62
250
  6
CONTINUOUS
 90
3
 70
0
 10
-4.5904379813
 20
21.7940463883
 10
-4.5888020351
 20
21.8063473022
 10
-4.586688071
 20
21.8186372162
  0
LINE
  5
3B4
100
AcDbEntity
  8
ASSI
100
AcDbLine
 62
250
  6
CONTINUOUS
 10
-4.5888881899
 20
21.8057798227
 11
-4.5868156898
 21
21.8179660356
  0
LWPOLYLINE
  5
3B5
100
AcDbEntity
  8
ASSI
100
AcDbPolyline
 62
250
  6
CONTINUOUS
 90
15
 70
0
 10
-0.9162676078
 20
20.9498369525
 10
-0.9155031579
 20
20.951737875
 10
-0.914620984
 20
20.9535429628
 10
-0.9136170023
 20
20.9552497268
 10
-0.9124952967
 20
20.956860656
 10
-0.911264387
 20
20.9583378176
 10
-0.9099213702
 20
20.9596768774
 10
-0.9084691493
 20
20.9608821695
 10
-0.906924953
 20
20.9619287634
 10
-0.9052878303
 20
20.9628125245
 10
-0.9035587322
 20
20.9635375873
 10
-0.9017577399
 20
20.9640914251
 10
-0.8998839347
 20
20.9644712684
 10
-0.8979382353
 20
20.9646798867
 10
-0.8959434788
 20
20.9647130613
  0
LINE
  5
3B6
100
AcDbEntity
  8
RACCORDO
100
AcDbLine
 62
7
  6
CONTINUOUS
 10
4.0361816899
 20
19.6834824639
 11
4.9371352146
 21
20.6093906549
  0
LINE
  5
3B7
100
AcDbEntity
  8
RACCORDO
100
AcDbLine
 62
250
  6
CONTINUOUS
 10
4.1969146945
 20
19.6031159616
 11
5.1825682799
 21
20.6160702408
  0
LINE
  5
3B8
100
AcDbEntity
  8
ASSI
100
AcDbLine
 62
250
  6
CONTINUOUS
 10
6.0684482482
 20
16.7822392549
 11
6.0589155691
 21
16.7745492355
  0
LINE
  5
3B9
100
AcDbEntity
  8
ASSI
100
AcDbLine
 62
250
  6
CONTINUOUS
 10
6.0773408473
 20
16.7887991492
 11
6.0680229872
 21
16.7819108104
  0
LWPOLYLINE
  5
3BA
100
AcDbEntity
  8
ASSI
100
AcDbPolyline
 62
7
  6
CONTINUOUS
 90
8
 70
0
 10
5.9989761752
 20
16.802001742
 10
5.9767042805
 20
16.7866576964
 10
5.955829357
 20
16.7686688648
 10
5.9366598632
 20
16.7482335644
 10
5.9199028525
 20
16.7262203283
 10
5.9052534849
 20
16.7023552459
 10
5.8927869368
 20
16.6765549849
 10
5.8831522624
 20
16.650115504
  0
LINE
  5
3BB
100
AcDbEntity
  8
ASSI
100
AcDbLine
 62
250
  6
CONTINUOUS
 10
6.0860350342
 20
16.7946569935
 11
6.0769986908
 21
16.7885574086
  0
LWPOLYLINE
  5
3BC
100
AcDbEntity
  8
ASSI
100
AcDbPolyline
 62
7
  6
CONTINUOUS
 90
4
 70
0
 10
9.9445342299
 20
19.802952796
 10
9.9430867331
 20
19.8020679646
 10
9.9389696118
 20
19.7975172886
 10
9.934785111
 20
19.789956628
  0
LINE
  5
3BD
100
AcDbEntity
  8
ASSI
100
AcDbLine
 62
7
  6
CONTINUOUS
 10
6.0103816652
 20
16.8085544691
 11
5.9990321852
 21
16.802033921
  0
LWPOLYLINE
  5
3BE
100
AcDbEntity
  8
ASSI
100
AcDbPolyline
 62
250
  6
CONTINUOUS
 90
4
 70
0
 10
9.4936884983
 20
19.9826312932
 10
9.5194811189
 20
19.996986446
 10
9.5420574448
 20
20.0126428068
 10
9.5611710655
 20
20.029430923
  0
LWPOLYLINE
  5
3BF
100
AcDbEntity
  8
ASSI
100
AcDbPolyline
 62
250
  6
CONTINUOUS
 90
29
 70
0
 10
9.3168677611
 20
20.2874441413
 10
9.3257305788
 20
20.2923708276
 10
9.3333564063
 20
20.2976090764
 10
9.3397452434
 20
20.3031588878
 10
9.3449398752
 20
20.3090872871
 10
9.3488975167
 20
20.315327249
 10
9.3514898134
 20
20.3216776976
 10
9.352672047
 20
20.3281416574
 10
9.3524889357
 20
20.3347161038
 10
9.3509462797
 20
20.3411908872
 10
9.3479999916
 20
20.3475627782
 10
9.3436941587
 20
20.3538350063
 10
9.3381668425
 20
20.35980711
 10
9.3313786948
 20
20.3654693944
 10
9.3233690638
 20
20.3708315546
 10
9.3143940554
 20
20.3757222146
 10
9.3044224725
 20
20.3801261187
 10
9.2934855124
 20
20.3840585227
 10
9.2819328721
 20
20.3873938186
 10
9.2697447084
 20
20.3901127865
 10
9.2569408645
 20
20.3922346464
 10
9.2439305679
 20
20.39369145
 10
9.2307071973
 20
20.3944615398
 10
9.2172773739
 20
20.3945665733
 10
9.2040701891
 20
20.3940035748
 10
9.1910871488
 20
20.3927486009
 10
9.1783267472
 20
20.3908255949
 10
9.166213558
 20
20.3883034118
 10
9.1548891059
 20
20.3852050031
  0
LWPOLYLINE
  5
3C0
100
AcDbEntity
  8
ASSI
100
AcDbPolyline
 62
250
  6
CONTINUOUS
 90
3
 70
0
 10
6.1027815476
 20
16.8044309489
 10
6.0943942797
 20
16.7997819503
 10
6.0857920023
 20
16.7945005485
  0
LINE
  5
3C1
100
AcDbEntity
  8
ASSI
100
AcDbLine
 62
7
  6
CONTINUOUS
 10
9.5084065917
 20
18.8222458935
 11
9.4814507688
 21
18.8073938052
  0
LINE
  5
3C2
100
AcDbEntity
  8
ASSI
100
AcDbLine
 62
7
  6
CONTINUOUS
 10
5.5830888284
 20
16.8737775436
 11
5.364742791
 21
16.7545760239
  0
LINE
  5
3C3
100
AcDbEntity
  8
ASSI
100
AcDbLine
 62
7
  6
CONTINUOUS
 10
7.5775282351
 20
17.654066214
 11
6.0102849266
 21
16.8085024939
  0
LINE
  5
3C4
100
AcDbEntity
  8
ASSI
100
AcDbLine
 62
250
  6
CONTINUOUS
 10
7.6690322937
 20
17.6494591589
 11
6.1027815476
 21
16.8044309489
  0
LINE
  5
3C5
100
AcDbEntity
  8
DRAFT
100
AcDbLine
 62
7
  6
CONTINUOUS
 10
26.0981939657
 20
28.2596062911
 11
26.8510681998
 21
28.6426714844
  0
LINE
  5
3C6
100
AcDbEntity
  8
ASSI
100
AcDbLine
 62
250
  6
CONTINUOUS
 10
5.364742791
 20
17.9329299322
 11
5.5830888284
 21
18.0429448137
  0
LINE
  5
3C7
100
AcDbEntity
  8
ASSI
100
AcDbLine
 62
7
  6
CONTINUOUS
 10
7.5775287943
 20
17.6540664722
 11
7.5816951763
 21
17.6561499559
  0
LINE
  5
3C8
100
AcDbEntity
  8
0
100
AcDbLine
 62
7
  6
CONTINUOUS
 10
25.7996642691
 20
28.1500818918
 11
24.6932555418
 21
27.5990666526
  0
LINE
  5
3C9
100
AcDbEntity
  8
ASSI
100
AcDbLine
 62
250
  6
CONTINUOUS
 10
9.4936175324
 20
19.9825958797
 11
5.5830888284
 21
18.0429448137
  0
LINE
  5
3CA
100
AcDbEntity
  8
ASSI
100
AcDbLine
 62
7
  6
CONTINUOUS
 10
5.5830888284
 20
16.8737775436
 11
9.4814507688
 21
18.8073938052
  0
LINE
  5
3CB
100
AcDbEntity
  8
0
100
AcDbLine
 62
7
  6
CONTINUOUS
 10
30.3866021057
 20
28.180132537
 11
13.9869642342
 21
20.1896141468
  0
LINE
  5
3CC
100
AcDbEntity
  8
ASSI
100
AcDbLine
 62
7
  6
CONTINUOUS
 10
9.5954090602
 20
19.4101403282
 11
9.6630572679
 21
19.4425485218
  0
LINE
  5
3CD
100
AcDbEntity
  8
ASSI
100
AcDbLine
 62
7
  6
CONTINUOUS
 10
9.9445360655
 20
19.8029095889
 11
12.1102319187
 21
20.8401052002
  0
LINE
  5
3CE
100
AcDbEntity
  8
ASSI
100
AcDbLine
 62
250
  6
CONTINUOUS
 10
9.9522432474
 20
19.7459473356
 11
12.2213019601
 21
20.832645514
  0
LINE
  5
3CF
100
AcDbEntity
  8
0
100
AcDbLine
 62
7
  6
CONTINUOUS
 10
31.7619744746
 20
27.4924463526
 11
15.0735817344
 21
19.6463053967
  0
LINE
  5
3D0
100
AcDbEntity
  8
ASSI
100
AcDbLine
 62
250
  6
CONTINUOUS
 10
8.2117583564
 20
17.9001080399
 11
7.6690322937
 21
17.6494591589
  0
LINE
  5
3D1
100
AcDbEntity
  8
ASSI
100
AcDbLine
 62
7
  6
CONTINUOUS
 10
8.1256773044
 20
17.9073784013
 11
7.581694144
 21
17.6561494791
  0
LINE
  5
3D2
100
AcDbEntity
  8
ASSI
100
AcDbLine
 62
250
  6
CONTINUOUS
 10
12.1102674559
 20
20.8401222107
 11
12.1140503295
 21
20.8418329997
  0
LINE
  5
3D3
100
AcDbEntity
  8
ASSI
100
AcDbLine
 62
7
  6
CONTINUOUS
 10
8.1298533426
 20
17.9092531837
 11
8.1256773682
 21
17.9073782622
  0
LWPOLYLINE
  5
3D4
100
AcDbEntity
  8
ASSI
100
AcDbPolyline
 62
250
  6
CONTINUOUS
 90
10
 70
0
 10
12.2213019601
 20
20.832645514
 10
12.2734749744
 20
20.8552861404
 10
12.3252461795
 20
20.8730589438
 10
12.3763319906
 20
20.8858669232
 10
12.4264509364
 20
20.893640993
 10
12.4753292797
 20
20.8963384802
 10
12.5227025012
 20
20.8939432744
 10
12.5683093696
 20
20.8864694479
 10
12.6118992301
 20
20.8739582774
 10
12.6540898043
 20
20.8560513617
  0
LINE
  5
3D5
100
AcDbEntity
  8
ASSI
100
AcDbLine
 62
250
  6
CONTINUOUS
 10
10.3357183224
 20
16.8573851243
 11
10.3249133705
 21
16.8533778779
  0
LWPOLYLINE
  5
3D6
100
AcDbEntity
  8
ASSI
100
AcDbPolyline
 62
250
  6
CONTINUOUS
 90
3
 70
0
 10
8.2330971803
 20
17.908672277
 10
8.2224504254
 20
17.9047946581
 10
8.2117583564
 20
17.9001080399
  0
LWPOLYLINE
  5
3D7
100
AcDbEntity
  8
ASSI
100
AcDbPolyline
 62
7
  6
CONTINUOUS
 90
3
 70
0
 10
7.5816951763
 20
17.6561499559
 10
7.5983327581
 20
17.6616122806
 10
7.6149196557
 20
17.663335072
  0
LINE
  5
3D8
100
AcDbEntity
  8
ASSI
100
AcDbLine
 62
250
  6
CONTINUOUS
 10
8.1419738133
 20
17.9126841218
 11
8.1256773044
 21
17.9073784013
  0
LINE
  5
3D9
100
AcDbEntity
  8
ASSI
100
AcDbLine
 62
250
  6
CONTINUOUS
 10
8.2438304468
 20
17.9117681454
 11
8.2332136958
 21
17.9087102557
  0
LINE
  5
3DA
100
AcDbEntity
  8
ASSI
100
AcDbLine
 62
7
  6
CONTINUOUS
 10
10.4804365115
 20
-24.8267899837
 11
10.4616975157
 21
-24.809914771
  0
LINE
  5
3DB
100
AcDbEntity
  8
CURVE
100
AcDbLine
 62
250
  6
CONTINUOUS
 10
-1.4007721696
 20
-21.8148684516
 11
-1.5083301571
 21
-21.4043394848
  0
LINE
  5
3DC
100
AcDbEntity
  8
CURVE
100
AcDbLine
 62
250
  6
CONTINUOUS
 10
-1.5083301571
 20
-21.4043394848
 11
-1.6149976562
 21
-20.9956421539
  0
LINE
  5
3DD
100
AcDbEntity
  8
CURVE
100
AcDbLine
 62
250
  6
CONTINUOUS
 10
-1.6149976562
 20
-20.9956421539
 11
-1.7208016209
 21
-20.5886808603
  0
LWPOLYLINE
  5
3DE
100
AcDbEntity
  8
CURVE
100
AcDbPolyline
 62
250
  6
CONTINUOUS
 90
7
 70
0
 10
-1.9568245595
 20
-21.5474123809
 10
-2.0133097938
 20
-21.2689857512
 10
-2.0695209197
 20
-20.9909946895
 10
-2.1254576781
 20
-20.7134421882
 10
-2.1811243451
 20
-20.4363087049
 10
-2.2365251974
 20
-20.1595746964
 10
-2.2916599777
 20
-19.8832431544
  0
LWPOLYLINE
  5
3DF
100
AcDbEntity
  8
ASSI
100
AcDbPolyline
 62
250
  6
CONTINUOUS
 90
3
 70
0
 10
-4.591262644
 20
21.421643055
 10
-4.5920420527
 20
21.43293136
 10
-4.5923029917
 20
21.4445377249
  0
LWPOLYLINE
  5
3E0
100
AcDbEntity
  8
0
100
AcDbPolyline
 62
250
  6
CONTINUOUS
 90
4
 70
0
 10
-4.3634960734
 20
0.463290116
 10
-4.3620429564
 20
0.4301682229
 10
-4.3569927153
 20
0.3993502341
 10
-4.3484312697
 20
0.3713604565
  0
LWPOLYLINE
  5
3E1
100
AcDbEntity
  8
ASSI
100
AcDbPolyline
 62
250
  6
CONTINUOUS
 90
3
 70
0
 10
-4.3564333783
 20
0.4597337902
 10
-4.354980422
 20
0.4266119688
 10
-4.3499306294
 20
0.395794197
  0
LWPOLYLINE
  5
3E2
100
AcDbEntity
  8
0
100
AcDbPolyline
 62
250
  6
CONTINUOUS
 90
4
 70
0
 10
-3.7326656593
 20
0.1478499307
 10
-3.7312263775
 20
0.1147341507
 10
-3.7262156306
 20
0.0839354757
 10
-3.7177187275
 20
0.0559778636
  0
LWPOLYLINE
  5
3E3
100
AcDbEntity
  8
ASSI
100
AcDbPolyline
 62
250
  6
CONTINUOUS
 90
3
 70
0
 10
-3.7255518163
 20
0.1443179875
 10
-3.7241126866
 20
0.1112022922
 10
-3.7191023838
 20
0.0804038465
  0
LINE
  5
3E4
100
AcDbEntity
  8
CURVE
100
AcDbLine
 62
250
  6
CONTINUOUS
 10
-2.6275651627
 20
-20.5783098327
 11
-2.610629657
 21
-21.0152265699
  0
LINE
  5
3E5
100
AcDbEntity
  8
CURVE
100
AcDbLine
 62
250
  6
CONTINUOUS
 10
-3.5672948202
 20
-19.470960603
 11
-3.5592032028
 21
-19.6896070277
  0
LWPOLYLINE
  5
3E6
100
AcDbEntity
  8
CURVE
100
AcDbPolyline
 62
250
  6
CONTINUOUS
 90
3
 70
0
 10
-3.2101534192
 20
-19.4333525634
 10
-3.1981591378
 20
-19.7614009331
 10
-3.1859019173
 20
-20.0893035127
  0
LWPOLYLINE
  5
3E7
100
AcDbEntity
  8
IMPORT_IGES
100
AcDbPolyline
 62
7
  6
CONTINUOUS
 90
19
 70
0
 10
-3.8468871959
 20
-5.8989705073
 10
-3.8439838828
 20
-5.9820860981
 10
-3.8358600375
 20
-6.0661183427
 10
-3.82251566
 20
-6.1510672412
 10
-3.8037828547
 20
-6.237505511
 10
-3.7798295172
 20
-6.3248604346
 10
-3.7511593342
 20
-6.4114138597
 10
-3.7176883317
 20
-6.4971446607
 10
-3.6795004838
 20
-6.5820739631
 10
-3.637351399
 20
-6.6645469909
 10
-3.5911692707
 20
-6.7445192687
 10
-3.5410259055
 20
-6.8220352718
 10
-3.4878923328
 20
-6.8955736514
 10
-3.4317096875
 20
-6.9650670533
 10
-3.3725368347
 20
-7.0305828316
 10
-3.3115213982
 20
-7.0908016993
 10
-3.2490459195
 20
-7.145283894
 10
-3.1847278572
 20
-7.1944691782
 10
-3.1185672113
 20
-7.2383575518
  0
LWPOLYLINE
  5
3E8
100
AcDbEntity
  8
ASSI
100
AcDbPolyline
 62
250
  6
CONTINUOUS
 90
10
 70
0
 10
-5.2341515136
 20
-6.2898008849
 10
-5.2381067374
 20
-5.6470080274
 10
-5.2410731578
 20
-5.0037358835
 10
-5.2430507748
 20
-4.3599844532
 10
-5.2440395919
 20
-3.7157530023
 10
-5.2440396056
 20
-3.0710422649
 10
-5.2430508057
 20
-2.4258544438
 10
-5.2410731886
 20
-1.7801902729
 10
-5.2381067579
 20
-1.1340490181
 10
-5.2341515136
 20
-0.4874306795
  0
LINE
  5
3E9
100
AcDbEntity
  8
ASSI
100
AcDbLine
 62
250
  6
CONTINUOUS
 10
-5.1773302225
 20
21.6343213391
 11
-5.1773302225
 21
20.5575940534
  0
LINE
  5
3EA
100
AcDbEntity
  8
ASSI
100
AcDbLine
 62
7
  6
CONTINUOUS
 10
-4.6346041598
 20
21.3629583077
 11
-4.6346041598
 21
20.8538841636
  0
LINE
  5
3EB
100
AcDbEntity
  8
ASSI
100
AcDbLine
 62
250
  6
CONTINUOUS
 10
-4.5923029921
 20
21.4445395258
 11
-4.5923029921
 21
21.7618083261
  0
LINE
  5
3EC
100
AcDbEntity
  8
ASSI
100
AcDbLine
 62
250
  6
CONTINUOUS
 10
-4.3119499617
 20
21.4433162239
 11
-4.3119499617
 21
21.7605850242
  0
LINE
  5
3ED
100
AcDbEntity
  8
IMPORT_IGES
100
AcDbLine
 62
7
  6
CONTINUOUS
 10
-4.0590192303
 20
-0.4341036631
 11
-4.0590192303
 21
-5.7929044902
  0
LINE
  5
3EE
100
AcDbEntity
  8
ASSI
100
AcDbLine
 62
250
  6
CONTINUOUS
 10
-3.907597211
 20
20.4903806892
 11
-3.907597211
 21
21.1705519775
  0
LINE
  5
3EF
100
AcDbEntity
  8
IMPORT_IGES
100
AcDbLine
 62
7
  6
CONTINUOUS
 10
-3.8468871959
 20
-0.5401702036
 11
-3.8468871959
 21
-5.8989705073
  0
LINE
  5
3F0
100
AcDbEntity
  8
ASSI
100
AcDbLine
 62
250
  6
CONTINUOUS
 10
-3.5571559231
 20
21.2582005992
 11
-3.5571559231
 21
20.5000001531
  0
LINE
  5
3F1
100
AcDbEntity
  8
IMPORT_IGES
100
AcDbLine
 62
7
  6
CONTINUOUS
 10
-3.1889177472
 20
-6.1623174111
 11
-3.1889177472
 21
-0.9347927486
  0
LINE
  5
3F2
100
AcDbEntity
  8
IMPORT_IGES
100
AcDbLine
 62
7
  6
CONTINUOUS
 10
-2.6946632848
 20
-1.1819199798
 11
-2.6946632848
 21
-6.4094446423
  0
LINE
  5
3F3
100
AcDbEntity
  8
ASSI
100
AcDbLine
 62
7
  6
CONTINUOUS
 10
-2.6547051724
 20
20.992674544
 11
-2.6547051724
 21
22.6381491912
  0
LWPOLYLINE
  5
3F4
100
AcDbEntity
  8
ASSI
100
AcDbPolyline
 62
250
  6
CONTINUOUS
 90
7
 70
0
 10
-4.3119499617
 20
21.7605850242
 10
-4.3119223032
 20
21.7626404339
 10
-4.3117962143
 20
21.7647888403
 10
-4.3115716949
 20
21.7670302435
 10
-4.3112537084
 20
21.7693749852
 10
-4.3108372914
 20
21.7718127237
 10
-4.3103075545
 20
21.7743124337
  0
LINE
  5
3F5
100
AcDbEntity
  8
ASSI
100
AcDbLine
 62
250
  6
CONTINUOUS
 10
-4.5923029921
 20
21.7618083261
 11
-4.5921079189
 21
21.7720613162
  0
LWPOLYLINE
  5
3F6
100
AcDbEntity
  8
ASSI
100
AcDbPolyline
 62
250
  6
CONTINUOUS
 90
14
 70
0
 10
-5.23415153
 20
-0.4874306875
 10
-5.2311045493
 20
-0.4004844786
 10
-5.2234850546
 20
-0.3168810925
 10
-5.2114181839
 20
-0.2369187638
 10
-5.1950937243
 20
-0.1610504571
 10
-5.1746434691
 20
-0.0893208475
 10
-5.1500349884
 20
-0.0214573698
 10
-5.1212870487
 20
0.0424126589
 10
-5.0885682661
 20
0.1018459727
 10
-5.0520052232
 20
0.156586822
 10
-5.0117377422
 20
0.2064183653
 10
-4.9679375472
 20
0.2511187077
 10
-4.9208153189
 20
0.290472558
 10
-4.8707740338
 20
0.3242103247
  0
LWPOLYLINE
  5
3F7
100
AcDbEntity
  8
IMPORT_IGES
100
AcDbPolyline
 62
7
  6
CONTINUOUS
 90
8
 70
0
 10
-4.0590192303
 20
-0.4341041865
 10
-4.0554336534
 20
-0.3336601291
 10
-4.0453844307
 20
-0.2385179494
 10
-4.0288715624
 20
-0.1486776472
 10
-4.005692243
 20
-0.0636420948
 10
-3.9760492779
 20
0.0160915801
 10
-3.9405510828
 20
0.089031994
 10
-3.9235562439
 20
0.1160976965
  0
LINE
  5
3F8
100
AcDbEntity
  8
ASSI
100
AcDbLine
 62
7
  6
CONTINUOUS
 10
-2.0411320459
 20
22.5818431949
 11
-2.040336736
 21
22.6020262531
  0
LWPOLYLINE
  5
3F9
100
AcDbEntity
  8
0
100
AcDbPolyline
 62
250
  6
CONTINUOUS
 90
13
 70
0
 10
-3.7326656591
 20
-8.8445047871
 10
-3.7312264617
 20
-8.8099368888
 10
-3.7262159474
 20
-8.7740889635
 10
-3.7177193603
 20
-8.7375708928
 10
-3.7058812528
 20
-8.701003959
 10
-3.690903027
 20
-8.6650102759
 10
-3.6730395076
 20
-8.6302022046
 10
-3.6525946068
 20
-8.5971719353
 10
-3.6299161541
 20
-8.5664814125
 10
-3.6053899784
 20
-8.5386527746
 10
-3.5794333438
 20
-8.5141594704
 10
-3.552487851
 20
-8.493418205
 10
-3.525011924
 20
-8.4767818499
  0
LWPOLYLINE
  5
3FA
100
AcDbEntity
  8
ASSI
100
AcDbPolyline
 62
250
  6
CONTINUOUS
 90
13
 70
0
 10
-3.7255518161
 20
-8.848035539
 10
-3.7241127708
 20
-8.8134675647
 10
-3.7191027006
 20
-8.7776194202
 10
-3.7106068419
 20
-8.7411009905
 10
-3.6987697349
 20
-8.7045335638
 10
-3.6837927644
 20
-8.6685392624
 10
-3.6659307337
 20
-8.6337304575
 10
-3.6454875298
 20
-8.6006993518
 10
-3.6228109531
 20
-8.5700079038
 10
-3.5982868005
 20
-8.5421782675
 10
-3.5723323015
 20
-8.5176839087
 10
-3.5453890205
 20
-8.4969415503
 10
-3.5179153438
 20
-8.4803040821
  0
LWPOLYLINE
  5
3FB
100
AcDbEntity
  8
0
100
AcDbPolyline
 62
250
  6
CONTINUOUS
 90
13
 70
0
 10
-4.3634960733
 20
-8.5290634104
 10
-4.3620428708
 20
-8.494501549
 10
-4.3569923949
 20
-8.458672714
 10
-4.3484306307
 20
-8.4221865026
 10
-4.3365033051
 20
-8.385663693
 10
-4.3214133921
 20
-8.3497256421
 10
-4.303417647
 20
-8.3149837176
 10
-4.2828222716
 20
-8.2820289711
 10
-4.25997768
 20
-8.2514220222
 10
-4.235272503
 20
-8.2236834989
 10
-4.2091270377
 20
-8.1992852684
 10
-4.1819861081
 20
-8.1786423955
 10
-4.1543114539
 20
-8.1621060351
  0
LWPOLYLINE
  5
3FC
100
AcDbEntity
  8
ASSI
100
AcDbPolyline
 62
250
  6
CONTINUOUS
 90
13
 70
0
 10
-4.3564333782
 20
-8.5326209276
 10
-4.3549803363
 20
-8.4980589858
 10
-4.349930309
 20
-8.4622299237
 10
-4.3413692739
 20
-8.4257433425
 10
-4.3294429453
 20
-8.389220027
 10
-4.3143542806
 20
-8.3532813427
 10
-4.2963600135
 20
-8.3185386684
 10
-4.2757663211
 20
-8.2855830684
 10
-4.2529235887
 20
-8.2549751772
 10
-4.2282204157
 20
-8.2272356386
 10
-4.2020770651
 20
-8.2028363375
 10
-4.1749383252
 20
-8.1821923568
 10
-4.1472658983
 20
-8.1656548705
  0
LWPOLYLINE
  5
3FD
100
AcDbEntity
  8
ASSI
100
AcDbPolyline
 62
250
  6
CONTINUOUS
 90
7
 70
0
 10
-2.040336722
 20
22.9419523635
 10
-2.0417922513
 20
22.929909802
 10
-2.0465623481
 20
22.9171960914
 10
-2.0545748114
 20
22.9048966198
 10
-2.065695571
 20
22.8932171904
 10
-2.0797385468
 20
22.8823532315
 10
-2.0964687619
 20
22.8724865265
  0
LWPOLYLINE
  5
3FE
100
AcDbEntity
  8
ASSI
100
AcDbPolyline
 62
250
  6
CONTINUOUS
 90
5
 70
0
 10
-2.040336722
 20
22.6020087687
 10
-2.0417922546
 20
22.5899661936
 10
-2.0465623544
 20
22.5772524844
 10
-2.0545748193
 20
22.5649530151
 10
-2.0656955787
 20
22.5532735887
  0
LINE
  5
3FF
100
AcDbEntity
  8
ASSI
100
AcDbLine
 62
7
  6
CONTINUOUS
 10
-2.0442791997
 20
22.5569924316
 11
-2.0411324108
 21
22.5818339336
  0
LWPOLYLINE
  5
400
100
AcDbEntity
  8
ASSI
100
AcDbPolyline
 62
7
  6
CONTINUOUS
 90
6
 70
0
 10
3.992283809
 20
21.7065097162
 10
3.9832774528
 20
21.6869478027
 10
3.9700634756
 20
21.6676979421
 10
3.95322979
 20
21.6495443815
 10
3.9329723668
 20
21.6327485369
 10
3.9090952351
 20
21.6170489923
  0
LWPOLYLINE
  5
401
100
AcDbEntity
  8
ASSI
100
AcDbPolyline
 62
250
  6
CONTINUOUS
 90
3
 70
0
 10
5.9972552192
 20
16.7052937199
 10
5.9892157632
 20
16.69302489
 10
5.9810836226
 20
16.6795183647
  0
LINE
  5
402
100
AcDbEntity
  8
ASSI
100
AcDbLine
 62
250
  6
CONTINUOUS
 10
6.0056178908
 20
16.7170738752
 11
5.996713266
 21
16.70449708
  0
LINE
  5
403
100
AcDbEntity
  8
ASSI
100
AcDbLine
 62
250
  6
CONTINUOUS
 10
6.0142624451
 20
16.7283275713
 11
6.0050439608
 21
16.7162946076
  0
LINE
  5
404
100
AcDbEntity
  8
ASSI
100
AcDbLine
 62
250
  6
CONTINUOUS
 10
6.0231000044
 20
16.7389661325
 11
6.0136671381
 21
16.7275803696
  0
LINE
  5
405
100
AcDbEntity
  8
ASSI
100
AcDbLine
 62
250
  6
CONTINUOUS
 10
6.0320894887
 20
16.7489738042
 11
6.0224961765
 21
16.7382652103
  0
LINE
  5
406
100
AcDbEntity
  8
ASSI
100
AcDbLine
 62
250
  6
CONTINUOUS
 10
6.0411909663
 20
16.7583383464
 11
6.0314910335
 21
16.7483315375
  0
LINE
  5
407
100
AcDbEntity
  8
ASSI
100
AcDbLine
 62
250
  6
CONTINUOUS
 10
6.0503100768
 20
16.7669997093
 11
6.040612287
 21
16.7577647605
  0
LINE
  5
408
100
AcDbEntity
  8
ASSI
100
AcDbLine
 62
250
  6
CONTINUOUS
 10
6.0594077143
 20
16.7749633901
 11
6.0497667732
 21
16.7665029921
  0
LWPOLYLINE
  5
409
100
AcDbEntity
  8
ASSI
100
AcDbPolyline
 62
7
  6
CONTINUOUS
 90
7
 70
0
 10
6.8651649086
 20
15.7158055754
 10
6.8317014953
 20
15.6902240271
 10
6.8181355085
 20
15.6796599682
 10
6.8071630579
 20
15.6700981756
 10
6.7989658486
 20
15.6617578473
 10
6.7937402229
 20
15.6555660518
 10
6.7919418737
 20
15.6517479301
  0
LWPOLYLINE
  5
40A
100
AcDbEntity
  8
ASSI
100
AcDbPolyline
 62
250
  6
CONTINUOUS
 90
20
 70
0
 10
4.731563233
 20
11.9063637458
 10
4.6727593459
 20
11.8698210215
 10
4.6145132601
 20
11.8284267246
 10
4.5570957326
 20
11.7823957335
 10
4.5007600867
 20
11.7319748157
 10
4.4457808736
 20
11.6774138753
 10
4.3924533173
 20
11.6189627736
 10
4.3410228702
 20
11.5569125733
 10
4.2917306174
 20
11.4915814029
 10
4.2448521442
 20
11.423284736
 10
4.2006078942
 20
11.3523675916
 10
4.1591986255
 20
11.2791858915
 10
4.1208515691
 20
11.2040905677
 10
4.0857459927
 20
11.1274560683
 10
4.0540411487
 20
11.0496668824
 10
4.0259115735
 20
10.9710993726
 10
4.0014909977
 20
10.8921490919
 10
3.9808856688
 20
10.8132040411
 10
3.9642052408
 20
10.7346312513
 10
3.9515331018
 20
10.6568122159
  0
LWPOLYLINE
  5
40B
100
AcDbEntity
  8
ASSI
100
AcDbPolyline
 62
250
  6
CONTINUOUS
 90
7
 70
0
 10
10.4900319432
 20
16.5792361739
 10
10.5067621461
 20
16.5891028708
 10
10.5208051159
 20
16.5999668216
 10
10.5319258751
 20
16.611646244
 10
10.5399383423
 20
16.6239457101
 10
10.544708446
 20
16.6366594174
 10
10.5461639831
 20
16.648702011
  0
LWPOLYLINE
  5
40C
100
AcDbEntity
  8
ASSI
100
AcDbPolyline
 62
250
  6
CONTINUOUS
 90
7
 70
0
 10
10.4900319432
 20
16.239292579
 10
10.5067621583
 20
16.2491592841
 10
10.5208051341
 20
16.260023243
 10
10.5319258937
 20
16.2717026723
 10
10.539938357
 20
16.2840021439
 10
10.5447084538
 20
16.2967158546
 10
10.5461639831
 20
16.3087584161
  0
LWPOLYLINE
  5
40D
100
AcDbEntity
  8
ASSI
100
AcDbPolyline
 62
250
  6
CONTINUOUS
 90
9
 70
0
 10
8.1684955889
 20
15.7715739282
 10
8.1595686212
 20
15.7666768401
 10
8.1504782878
 20
15.7611221774
 10
8.1412514096
 20
15.754889471
 10
8.1318992526
 20
15.7479467329
 10
8.1224739464
 20
15.7402915624
 10
8.1130659201
 20
15.7319625418
 10
8.1037109279
 20
15.7229618768
 10
8.094447301
 20
15.7132959912
  0
LINE
  5
40E
100
AcDbEntity
  8
ASSI
100
AcDbLine
 62
7
  6
CONTINUOUS
 10
7.9518965454
 20
14.560633811
 11
7.4091704826
 21
14.2643437008
  0
LINE
  5
40F
100
AcDbEntity
  8
ASSI
100
AcDbLine
 62
250
  6
CONTINUOUS
 10
8.9687126933
 20
14.181842485
 11
4.7315632459
 21
11.9063637528
  0
LINE
  5
410
100
AcDbEntity
  8
ASSI
100
AcDbLine
 62
7
  6
CONTINUOUS
 10
16.2598827406
 20
18.4436473575
 11
10.2167023716
 21
15.2489610235
  0
LWPOLYLINE
  5
411
100
AcDbEntity
  8
ASSI
100
AcDbPolyline
 62
250
  6
CONTINUOUS
 90
9
 70
0
 10
8.309895406
 20
15.5276953189
 10
8.3080750049
 20
15.5267341579
 10
8.3062334204
 20
15.5256344469
 10
8.3043706525
 20
15.5243961859
 10
8.3024759886
 20
15.5230176627
 10
8.3005601414
 20
15.5215005895
 10
8.298655249
 20
15.519850103
 10
8.2967609433
 20
15.5180615175
 10
8.2948775924
 20
15.5161395189
  0
LINE
  5
412
100
AcDbEntity
  8
DRAFT
100
AcDbLine
 62
7
  6
CONTINUOUS
 10
10.6662606487
 20
15.0210679261
 11
16.6161806609
 21
18.1466202351
  0
LINE
  5
413
100
AcDbEntity
  8
ASSI
100
AcDbLine
 62
7
  6
CONTINUOUS
 10
16.2392174219
 20
18.8411776126
 11
10.0473217804
 21
15.5957633986
  0
LWPOLYLINE
  5
414
100
AcDbEntity
  8
ASSI
100
AcDbPolyline
 62
7
  6
CONTINUOUS
 90
7
 70
0
 10
9.029344782
 20
14.2066553707
 10
9.0201815428
 20
14.2018909562
 10
9.0106091436
 20
14.1973654187
 10
9.0006511076
 20
14.1930887323
 10
8.9903319343
 20
14.1890702784
 10
8.9796770394
 20
14.185318821
 10
8.9687126933
 20
14.181842485
  0
LINE
  5
415
100
AcDbEntity
  8
DRAFT
100
AcDbLine
 62
7
  6
CONTINUOUS
 10
29.6337278717
 20
26.4918393382
 11
30.3866021057
 21
26.8749045314
  0
LINE
  5
416
100
AcDbEntity
  8
ASSI
100
AcDbLine
 62
250
  6
CONTINUOUS
 10
9.7903957156
 20
16.5887774479
 11
8.1684955889
 21
15.7715739282
  0
LINE
  5
417
100
AcDbEntity
  8
ASSI
100
AcDbLine
 62
250
  6
CONTINUOUS
 10
9.9317955327
 20
16.3448988386
 11
8.309895406
 21
15.5276953189
  0
LINE
  5
418
100
AcDbEntity
  8
0
100
AcDbLine
 62
7
  6
CONTINUOUS
 10
29.335198175
 20
26.3823149388
 11
28.2287894478
 21
25.8312996996
  0
LINE
  5
419
100
AcDbEntity
  8
ASSI
100
AcDbLine
 62
250
  6
CONTINUOUS
 10
10.3145001821
 20
16.8487371271
 11
9.7903957156
 21
16.5887774479
  0
LINE
  5
41A
100
AcDbEntity
  8
ASSI
100
AcDbLine
 62
250
  6
CONTINUOUS
 10
10.4558999992
 20
16.6048585178
 11
9.9317955327
 21
16.3448988386
  0
LINE
  5
41B
100
AcDbEntity
  8
ASSI
100
AcDbLine
 62
250
  6
CONTINUOUS
 10
10.626613567
 20
15.0440054258
 11
9.9317981944
 21
14.6994254207
  0
LINE
  5
41C
100
AcDbEntity
  8
0
100
AcDbLine
 62
7
  6
CONTINUOUS
 10
33.9221360117
 20
26.412365584
 11
16.6913914301
 21
18.0169008467
  0
LINE
  5
41D
100
AcDbEntity
  8
ASSI
100
AcDbLine
 62
7
  6
CONTINUOUS
 10
15.0379779696
 20
19.4243075092
 11
10.0285879515
 21
17.0516431849
  0
LINE
  5
41E
100
AcDbEntity
  8
ASSI
100
AcDbLine
 62
250
  6
CONTINUOUS
 10
10.325133941
 20
16.8534678977
 11
10.3145001821
 21
16.8487371271
  0
LWPOLYLINE
  5
41F
100
AcDbEntity
  8
ASSI
100
AcDbPolyline
 62
250
  6
CONTINUOUS
 90
3
 70
0
 10
8.2745507434
 20
15.4673346717
 10
8.2548173332
 20
15.4589695641
 10
8.2330894155
 20
15.4519480762
  0
LWPOLYLINE
  5
420
100
AcDbEntity
  8
ASSI
100
AcDbPolyline
 62
250
  6
CONTINUOUS
 90
3
 70
0
 10
8.2330894155
 20
15.1346792759
 10
8.2548173332
 20
15.1417007637
 10
8.2745507434
 20
15.1500658713
  0
LINE
  5
421
100
AcDbEntity
  8
0
100
AcDbLine
 62
250
  6
CONTINUOUS
 10
-3.7326656591
 20
-8.8445047871
 11
-3.9434481113
 21
-8.7396224179
  0
LINE
  5
422
100
AcDbEntity
  8
ASSI
100
AcDbLine
 62
250
  6
CONTINUOUS
 10
-3.7255518161
 20
-8.848035539
 11
-3.936351369
 21
-8.7431620658
  0
LINE
  5
423
100
AcDbEntity
  8
0
100
AcDbLine
 62
250
  6
CONTINUOUS
 10
-3.525011924
 20
-8.4767818499
 11
-3.7352828665
 21
-8.3721530608
  0
LINE
  5
424
100
AcDbEntity
  8
ASSI
100
AcDbLine
 62
250
  6
CONTINUOUS
 10
-3.5179153438
 20
-8.4803040821
 11
-3.7282033465
 21
-8.3756841348
  0
LINE
  5
425
100
AcDbEntity
  8
ASSI
100
AcDbLine
 62
250
  6
CONTINUOUS
 10
-3.936351369
 20
-8.7431620658
 11
-4.1466453082
 21
-8.6380238197
  0
LINE
  5
426
100
AcDbEntity
  8
ASSI
100
AcDbLine
 62
250
  6
CONTINUOUS
 10
-3.7282033465
 20
-8.3756841348
 11
-3.937986938
 21
-8.2708010253
  0
LINE
  5
427
100
AcDbEntity
  8
0
100
AcDbLine
 62
250
  6
CONTINUOUS
 10
-3.9434481113
 20
-8.7396224179
 11
-4.1537250011
 21
-8.63447525
  0
LINE
  5
428
100
AcDbEntity
  8
0
100
AcDbLine
 62
250
  6
CONTINUOUS
 10
-3.7352828665
 20
-8.3721530608
 11
-3.9450494496
 21
-8.2672610835
  0
LINE
  5
429
100
AcDbEntity
  8
0
100
AcDbLine
 62
250
  6
CONTINUOUS
 10
-4.1537250011
 20
-8.63447525
 11
-4.3634960734
 21
-8.5290634104
  0
LINE
  5
42A
100
AcDbEntity
  8
ASSI
100
AcDbLine
 62
250
  6
CONTINUOUS
 10
-4.1466453082
 20
-8.6380238197
 11
-4.3564333783
 21
-8.5326209276
  0
LINE
  5
42B
100
AcDbEntity
  8
0
100
AcDbLine
 62
250
  6
CONTINUOUS
 10
-3.9450494496
 20
-8.2672610835
 11
-4.1543114468
 21
-8.1621060306
  0
LINE
  5
42C
100
AcDbEntity
  8
ASSI
100
AcDbLine
 62
250
  6
CONTINUOUS
 10
-3.937986938
 20
-8.2708010253
 11
-4.1472658914
 21
-8.1656548661
  0
LWPOLYLINE
  5
42D
100
AcDbEntity
  8
ASSI
100
AcDbPolyline
 62
250
  6
CONTINUOUS
 90
25
 70
0
 10
-4.1472658991
 20
-8.1656548701
 10
-4.2187980821
 20
-8.1266547535
 10
-4.2895197326
 20
-8.082331917
 10
-4.3591343777
 20
-8.032991597
 10
-4.4271928907
 20
-7.979087129
 10
-4.493604273
 20
-7.9208368622
 10
-4.5586047146
 20
-7.8581095898
 10
-4.6220809388
 20
-7.7909858376
 10
-4.6836037732
 20
-7.7198938286
 10
-4.7429188874
 20
-7.6451520927
 10
-4.7997937297
 20
-7.5670501648
 10
-4.8539783468
 20
-7.4859293699
 10
-4.9052176992
 20
-7.402217553
 10
-4.9531281192
 20
-7.3166056044
 10
-4.9977292276
 20
-7.2291300842
 10
-5.0392910216
 20
-7.1391987635
 10
-5.0776788275
 20
-7.0467786546
 10
-5.1124459884
 20
-6.9525869783
 10
-5.1433088275
 20
-6.8571417766
 10
-5.1700895394
 20
-6.7606269045
 10
-5.1924751511
 20
-6.6637108201
 10
-5.2101339095
 20
-6.5676585372
 10
-5.2229684733
 20
-6.4731742991
 10
-5.2309831185
 20
-6.3804150712
 10
-5.234151533
 20
-6.2898008943
  0
LWPOLYLINE
  5
42E
100
AcDbEntity
  8
0
100
AcDbPolyline
 62
250
  6
CONTINUOUS
 90
25
 70
0
 10
-4.3634960734
 20
-8.5290634104
 10
-4.4498102803
 20
-8.4817459476
 10
-4.5344667771
 20
-8.4288155946
 10
-4.6174698111
 20
-8.3702745157
 10
-4.6989499339
 20
-8.3059432328
 10
-4.7787836545
 20
-8.2360048103
 10
-4.8565946954
 20
-8.1610054808
 10
-4.9325703039
 20
-8.0807724755
 10
-5.0065300903
 20
-7.9954819956
 10
-5.0775494581
 20
-7.9062052758
 10
-5.1456066377
 20
-7.8128662774
 10
-5.2107331582
 20
-7.7155458576
 10
-5.2720885709
 20
-7.6155526695
 10
-5.3294846302
 20
-7.5132816916
 10
-5.3831209831
 20
-7.4083435324
 10
-5.4327409146
 20
-7.30087122
 10
-5.4785836203
 20
-7.1903982838
 10
-5.5204175413
 20
-7.0773948711
 10
-5.557281392
 20
-6.9633997056
 10
-5.5891109339
 20
-6.848084898
 10
-5.6159776087
 20
-6.731781787
 10
-5.6371266114
 20
-6.617019426
 10
-5.6523091393
 20
-6.5046422042
 10
-5.661779854
 20
-6.3938085687
 10
-5.6655396485
 20
-6.2845189323
  0
LWPOLYLINE
  5
42F
100
AcDbEntity
  8
ASSI
100
AcDbPolyline
 62
250
  6
CONTINUOUS
 90
25
 70
0
 10
-4.3564333783
 20
-8.5326209276
 10
-4.4427546472
 20
-8.4853071233
 10
-4.5274180883
 20
-8.4323803447
 10
-4.6104279494
 20
-8.3738427563
 10
-4.6919147941
 20
-8.3095148864
 10
-4.7717551206
 20
-8.2395797938
 10
-4.8495726159
 20
-8.1645836944
 10
-4.9255545418
 20
-8.0843538284
 10
-4.9995204948
 20
-7.9990663886
 10
-5.0705458007
 20
-7.9097925668
 10
-5.1386086886
 20
-7.8164563225
 10
-5.2037406884
 20
-7.7191385151
 10
-5.2651012772
 20
-7.6191477616
 10
-5.3225021946
 20
-7.5168790267
 10
-5.3761431013
 20
-7.4119429328
 10
-5.42576725
 20
-7.3044725124
 10
-5.4716138525
 20
-7.1940013073
 10
-5.5134513325
 20
-7.0809994524
 10
-5.550318321
 20
-6.9670056382
 10
-5.5821505723
 20
-6.851691976
 10
-5.6090195336
 20
-6.7353898036
 10
-5.630170336
 20
-6.62062814
 10
-5.6453541547
 20
-6.5082513627
 10
-5.6548256716
 20
-6.39741793
 10
-5.6585857787
 20
-6.2881282546
  0
LWPOLYLINE
  5
430
100
AcDbEntity
  8
IMPORT_IGES
100
AcDbPolyline
 62
7
  6
CONTINUOUS
 90
19
 70
0
 10
-3.2246332285
 20
-7.4376126017
 10
-3.3022627707
 20
-7.3772559178
 10
-3.3773989921
 20
-7.3113973189
 10
-3.4500418926
 20
-7.240036805
 10
-3.5205777043
 20
-7.1626876544
 10
-3.5886201951
 20
-7.0798365888
 10
-3.6530106689
 20
-6.9929437728
 10
-3.7136866295
 20
-6.9019496265
 10
-3.7707105732
 20
-6.8069137299
 10
-3.8231112923
 20
-6.7094749873
 10
-3.8708151833
 20
-6.6095950996
 10
-3.9138958496
 20
-6.507312366
 10
-3.9516028943
 20
-6.4043805876
 10
-3.9838520766
 20
-6.3007829978
 10
-4.0107276372
 20
-6.1965363632
 10
-4.0317319005
 20
-6.0934447851
 10
-4.0466989744
 20
-5.9921096304
 10
-4.055794751
 20
-5.8919295321
 10
-4.0590192303
 20
-5.7929044902
  0
LWPOLYLINE
  5
431
100
AcDbEntity
  8
ASSI
100
AcDbPolyline
 62
250
  6
CONTINUOUS
 90
4
 70
0
 10
10.461401721
 20
-24.8369112856
 10
10.4487148851
 20
-24.8179985922
 10
10.433998886
 20
-24.8015282751
 10
10.4175027329
 20
-24.787779028
  0
LWPOLYLINE
  5
432
100
AcDbEntity
  8
ASSI
100
AcDbPolyline
 62
7
  6
CONTINUOUS
 90
4
 70
0
 10
6.8651649086
 20
-25.583798564
 10
6.8470567094
 20
-25.5508894937
 10
6.8313538844
 20
-25.5169664036
 10
6.820078728
 20
-25.4873793596
  0
LWPOLYLINE
  5
433
100
AcDbEntity
  8
0
100
AcDbPolyline
 62
250
  6
CONTINUOUS
 90
4
 70
0
 10
-2.5095169681
 20
-7.8358935874
 10
-2.5178774668
 20
-7.8165515818
 10
-2.5211543206
 20
-7.7967987243
 10
-2.521200801
 20
-7.7946643133
  0
LWPOLYLINE
  5
434
100
AcDbEntity
  8
ASSI
100
AcDbPolyline
 62
250
  6
CONTINUOUS
 90
5
 70
0
 10
-4.3499306294
 20
0.395794197
 10
-4.3413699128
 20
0.3678047781
 10
-4.3294439158
 20
0.3431198965
 10
-4.3143555356
 20
0.3221595164
 10
-4.2963614709
 20
0.3052802372
  0
LWPOLYLINE
  5
435
100
AcDbEntity
  8
ASSI
100
AcDbPolyline
 62
250
  6
CONTINUOUS
 90
5
 70
0
 10
-3.7191023838
 20
0.0804038465
 10
-3.7106062092
 20
0.0524466045
 10
-3.6987687733
 20
0.0278061756
 10
-3.6837915205
 20
0.0069017076
 10
-3.665929289
 20
-0.0099112286
  0
LINE
  5
436
100
AcDbEntity
  8
ASSI
100
AcDbLine
 62
250
  6
CONTINUOUS
 10
-6.7153829119
 20
22.5474325565
 11
-6.7134768466
 21
22.5337275985
  0
LWPOLYLINE
  5
437
100
AcDbEntity
  8
ASSI
100
AcDbPolyline
 62
250
  6
CONTINUOUS
 90
7
 70
0
 10
-6.7153829505
 20
22.8647412682
 10
-6.7134768514
 20
22.850996416
 10
-6.7082637149
 20
22.8383262645
 10
-6.699823163
 20
22.8260985815
 10
-6.6882964284
 20
22.8145179692
 10
-6.6738763838
 20
22.8037782027
 10
-6.6568043148
 20
22.7940589875
  0
LINE
  5
438
100
AcDbEntity
  8
ASSI
100
AcDbLine
 62
7
  6
CONTINUOUS
 10
-2.0404025044
 20
22.9477225608
 11
-2.0423019069
 21
22.9732688366
  0
LWPOLYLINE
  5
439
100
AcDbEntity
  8
ASSI
100
AcDbPolyline
 62
7
  6
CONTINUOUS
 90
13
 70
0
 10
-2.6547051724
 20
22.6381491912
 10
-2.6559087893
 20
22.6613618271
 10
-2.6595180194
 20
22.6853830317
 10
-2.6654669288
 20
22.7098042452
 10
-2.673649061
 20
22.7342105124
 10
-2.6839235956
 20
22.7581846548
 10
-2.6961176078
 20
22.7813144418
 10
-2.7100250281
 20
22.8032029665
 10
-2.7254054539
 20
22.8234770856
 10
-2.7419923515
 20
22.8417910756
 10
-2.7595027721
 20
22.8578312212
 10
-2.7776422761
 20
22.8713210341
 10
-2.7961049895
 20
22.8820278005
  0
LWPOLYLINE
  5
43A
100
AcDbEntity
  8
CURVE
100
AcDbPolyline
 62
250
  6
CONTINUOUS
 90
3
 70
0
 10
0.0290218032
 20
-21.9723350389
 10
0.0150736565
 20
-21.5898739129
 10
0.0014671939
 20
-21.2072236741
  0
LWPOLYLINE
  5
43B
100
AcDbEntity
  8
CURVE
100
AcDbPolyline
 62
250
  6
CONTINUOUS
 90
6
 70
0
 10
-0.5473038457
 20
-17.6779409764
 10
-0.5208176052
 20
-18.6028961294
 10
-0.4923288208
 20
-19.5267614501
 10
-0.4618377086
 20
-20.4495305956
 10
-0.4293444848
 20
-21.3711972229
 10
-0.3948493656
 20
-22.291754989
  0
LINE
  5
43C
100
AcDbEntity
  8
CURVE
100
AcDbLine
 62
250
  6
CONTINUOUS
 10
0.2301083479
 20
-17.9743924985
 11
0.2201779935
 21
-17.5987108913
  0
LINE
  5
43D
100
AcDbEntity
  8
0
100
AcDbLine
 62
250
  6
CONTINUOUS
 10
-2.5211542689
 20
-1.9913752367
 11
-2.5212015285
 21
-1.9882075281
  0
LINE
  5
43E
100
AcDbEntity
  8
ASSI
100
AcDbLine
 62
7
  6
CONTINUOUS
 10
-2.0403368019
 20
22.9419910439
 11
-2.0404099749
 21
22.9480444481
  0
LINE
  5
43F
100
AcDbEntity
  8
0
100
AcDbLine
 62
7
  6
CONTINUOUS
 10
-2.5212936253
 20
-1.9568666204
 11
-2.5212011234
 21
-1.9881499335
  0
LINE
  5
440
100
AcDbEntity
  8
ASSI
100
AcDbLine
 62
250
  6
CONTINUOUS
 10
-2.0964687619
 20
22.8724865265
 11
-2.0964687619
 21
22.5325429316
  0
LINE
  5
441
100
AcDbEntity
  8
ASSI
100
AcDbLine
 62
7
  6
CONTINUOUS
 10
-2.040336737
 20
22.9419910439
 11
-2.040336722
 21
22.6020087687
  0
LINE
  5
442
100
AcDbEntity
  8
ASSI
100
AcDbLine
 62
7
  6
CONTINUOUS
 10
-0.9771478814
 20
21.0063434113
 11
-0.9771478814
 21
19.8217293078
  0
LINE
  5
443
100
AcDbEntity
  8
ASSI
100
AcDbLine
 62
250
  6
CONTINUOUS
 10
-0.9185692377
 20
20.9356327332
 11
-0.9185692377
 21
19.7483599519
  0
LWPOLYLINE
  5
444
100
AcDbEntity
  8
0
100
AcDbPolyline
 62
7
  6
CONTINUOUS
 90
10
 70
0
 10
-2.5212015285
 20
-1.9882075281
 10
-2.5247354203
 20
-2.5802408538
 10
-2.5277400663
 20
-3.2418129948
 10
-2.5297446245
 20
-3.9028744158
 10
-2.5307490928
 20
-4.5634224376
 10
-2.5307534684
 20
-5.2234548339
 10
-2.5297577476
 20
-5.8829695705
 10
-2.527761926
 20
-6.5419644228
 10
-2.5247659983
 20
-7.2004367123
 10
-2.5212014366
 20
-7.7945767752
  0
LWPOLYLINE
  5
445
100
AcDbEntity
  8
0
100
AcDbPolyline
 62
250
  6
CONTINUOUS
 90
10
 70
0
 10
-2.4293472998
 20
-2.0960597628
 10
-2.4331606053
 20
-2.7432218895
 10
-2.4360205723
 20
-3.3898944014
 10
-2.4379272109
 20
-4.0360750987
 10
-2.438880529
 20
-4.6817603102
 10
-2.43888054
 20
-5.3269493085
 10
-2.4379272407
 20
-5.9716442987
 10
-2.436020611
 20
-6.6158445365
 10
-2.4331606364
 20
-7.2595463394
 10
-2.4293472998
 20
-7.9027474941
  0
LWPOLYLINE
  5
446
100
AcDbEntity
  8
ASSI
100
AcDbPolyline
 62
250
  6
CONTINUOUS
 90
10
 70
0
 10
-2.4221289856
 20
-2.0995368629
 10
-2.4259419588
 20
-2.7466988212
 10
-2.4288016765
 20
-3.3933711971
 10
-2.4307081489
 20
-4.039551791
 10
-2.4316613839
 20
-4.6852369324
 10
-2.4316613949
 20
-5.3304258938
 10
-2.4307081787
 20
-5.97512088
 10
-2.4288017152
 20
-6.6193211469
 10
-2.4259419899
 20
-7.2630230125
 10
-2.4221289856
 20
-7.9062242638
  0
LINE
  5
447
100
AcDbEntity
  8
0
100
AcDbLine
 62
7
  6
CONTINUOUS
 10
-2.521200801
 20
-7.7946643133
 11
-2.5216099333
 21
-7.8425846532
  0
LWPOLYLINE
  5
448
100
AcDbEntity
  8
ASSI
100
AcDbPolyline
 62
250
  6
CONTINUOUS
 90
22
 70
0
 10
-2.0964687619
 20
22.5325429316
 10
-2.0964901435
 20
22.5307365343
 10
-2.0965840379
 20
22.5288536454
 10
-2.096750445
 20
22.526894265
 10
-2.0969855357
 20
22.5248521489
 10
-2.0972931391
 20
22.5227335413
 10
-2.0976847428
 20
22.5205571746
 10
-2.0981622383
 20
22.5183209671
 10
-2.098723734
 20
22.5160270004
 10
-2.0993750424
 20
22.5137002528
 10
-2.1001183849
 20
22.5113391898
 10
-2.10095154
 20
22.5089453458
 10
-2.1018736559
 20
22.5065483016
 10
-2.1028870318
 20
22.5041473696
 10
-2.1039893685
 20
22.5017432373
 10
-2.1051729164
 20
22.4993675481
 10
-2.1064397689
 20
22.4970206345
 10
-2.1077878327
 20
22.4947021641
 10
-2.1092030773
 20
22.4924427823
 10
-2.1106808261
 20
22.4902527043
 10
-2.1122257559
 20
22.488121715
 10
-2.1138378666
 20
22.4860498144
  0
LWPOLYLINE
  5
449
100
AcDbEntity
  8
ASSI
100
AcDbPolyline
 62
250
  6
CONTINUOUS
 90
7
 70
0
 10
-0.9185692377
 20
20.9356327332
 10
-0.9185415783
 20
20.9376832943
 10
-0.9184149045
 20
20.9397304884
 10
-0.9181892163
 20
20.9417743155
 10
-0.9178695064
 20
20.943830465
 10
-0.9174507821
 20
20.9458832475
 10
-0.9169180655
 20
20.9478855953
  0
LWPOLYLINE
  5
44A
100
AcDbEntity
  8
0
100
AcDbPolyline
 62
250
  6
CONTINUOUS
 90
25
 70
0
 10
-2.4293472998
 20
-7.9027474941
 10
-2.4318057972
 20
-8.0065318233
 10
-2.4395938398
 20
-8.105746535
 10
-2.4527112481
 20
-8.2003915414
 10
-2.4712502098
 20
-8.2905732321
 10
-2.4951151534
 20
-8.3761834939
 10
-2.5240233654
 20
-8.4569000262
 10
-2.5580372353
 20
-8.5329147571
 10
-2.5970865145
 20
-8.604031746
 10
-2.6406901591
 20
-8.6693472098
 10
-2.6889222083
 20
-8.7287892891
 10
-2.7416986858
 20
-8.7824247804
 10
-2.7983036505
 20
-8.829558974
 10
-2.8584931916
 20
-8.8700727406
 10
-2.9225013751
 20
-8.9040802183
 10
-2.9903303233
 20
-8.9312371673
 10
-3.0622619861
 20
-8.9516840836
 10
-3.1380000781
 20
-8.9652732295
 10
-3.2166812019
 20
-8.9712289581
 10
-3.2986044702
 20
-8.9693090145
 10
-3.3834580551
 20
-8.9597492837
 10
-3.469469273
 20
-8.9424949555
 10
-3.5560480813
 20
-8.9175282267
 10
-3.6437811769
 20
-8.8848653087
 10
-3.7326656591
 20
-8.8445047871
  0
LWPOLYLINE
  5
44B
100
AcDbEntity
  8
ASSI
100
AcDbPolyline
 62
250
  6
CONTINUOUS
 90
25
 70
0
 10
-2.4221289856
 20
-7.9062242638
 10
-2.4245877873
 20
-8.0100085096
 10
-2.4323765432
 20
-8.1092233756
 10
-2.4454950729
 20
-8.2038687737
 10
-2.4640355694
 20
-8.2940510944
 10
-2.4879024549
 20
-8.3796622229
 10
-2.5168129995
 20
-8.460379854
 10
-2.5508295981
 20
-8.5363959215
 10
-2.5898819958
 20
-8.6075144782
 10
-2.633489115
 20
-8.6728317182
 10
-2.6817250015
 20
-8.7322757856
 10
-2.734505672
 20
-8.7859134725
 10
-2.7911151313
 20
-8.8330500353
 10
-2.8513094484
 20
-8.8735663337
 10
-2.9153227098
 20
-8.9075765161
 10
-2.9831570456
 20
-8.9347363397
 10
-3.0550944308
 20
-8.955186314
 10
-3.1308385556
 20
-8.9687786873
 10
-3.2095259569
 20
-8.9747377686
 10
-3.2914557748
 20
-8.972821315
 10
-3.3763161556
 20
-8.9632651995
 10
-3.4623342703
 20
-8.9460145318
 10
-3.5489200286
 20
-8.9210514823
 10
-3.6366601771
 20
-8.8883922894
 10
-3.7255518161
 20
-8.848035539
  0
LINE
  5
44C
100
AcDbEntity
  8
ASSI
100
AcDbLine
 62
7
  6
CONTINUOUS
 10
-0.9760877588
 20
21.0293639918
 11
-0.9771476963
 21
21.0063933179
  0
LWPOLYLINE
  5
44D
100
AcDbEntity
  8
0
100
AcDbPolyline
 62
7
  6
CONTINUOUS
 90
11
 70
0
 10
-2.5216099333
 20
-7.8425846532
 10
-2.5256499776
 20
-7.9220966276
 10
-2.5339548661
 20
-7.9991502095
 10
-2.5465397252
 20
-8.0730359914
 10
-2.5633842555
 20
-8.1432550469
 10
-2.5844397552
 20
-8.2093897863
 10
-2.609561868
 20
-8.2708146631
 10
-2.6385458779
 20
-8.3270103626
 10
-2.6711859211
 20
-8.3776013448
 10
-2.7069732372
 20
-8.4219169197
 10
-2.745835193
 20
-8.4600787346
  0
LWPOLYLINE
  5
44E
100
AcDbEntity
  8
ASSI
100
AcDbPolyline
 62
7
  6
CONTINUOUS
 90
10
 70
0
 10
5.5830888284
 20
17.3778520057
 10
5.5970298111
 20
17.4115317962
 10
5.6074855482
 20
17.4476008309
 10
5.6144560396
 20
17.4860591098
 10
5.6179412853
 20
17.527337714
 10
5.6179412853
 20
17.5710055624
 10
5.6144560396
 20
17.6157694122
 10
5.6074855482
 20
17.6611981825
 10
5.5970298111
 20
17.7077229543
 10
5.5830888284
 20
17.7553437275
  0
LINE
  5
44F
100
AcDbEntity
  8
ASSI
100
AcDbLine
 62
250
  6
CONTINUOUS
 10
5.961143412
 20
16.640100673
 11
5.9550931441
 21
16.6255851406
  0
LINE
  5
450
100
AcDbEntity
  8
ASSI
100
AcDbLine
 62
250
  6
CONTINUOUS
 10
5.96746651
 20
16.6537886088
 11
5.9608494131
 21
16.6394303392
  0
LINE
  5
451
100
AcDbEntity
  8
ASSI
100
AcDbLine
 62
250
  6
CONTINUOUS
 10
5.97427065
 20
16.6671987951
 11
5.9671211261
 21
16.6530738594
  0
LINE
  5
452
100
AcDbEntity
  8
ASSI
100
AcDbLine
 62
250
  6
CONTINUOUS
 10
5.9815324565
 20
16.6802959808
 11
5.9738737272
 21
16.6664488617
  0
LWPOLYLINE
  5
453
100
AcDbEntity
  8
IMPORT_IGES
100
AcDbPolyline
 62
7
  6
CONTINUOUS
 90
9
 70
0
 10
-3.7441041803
 20
-0.0482230727
 10
-3.7720659104
 20
-0.0962173417
 10
-3.7958531336
 20
-0.1484611742
 10
-3.8154024111
 20
-0.2050272851
 10
-3.8307771817
 20
-0.2658429594
 10
-3.8416461728
 20
-0.3298690073
 10
-3.8478989601
 20
-0.3967590324
 10
-3.8496459678
 20
-0.4668594312
 10
-3.8468871959
 20
-0.5401702036
  0
LINE
  5
454
100
AcDbEntity
  8
ASSI
100
AcDbLine
 62
7
  6
CONTINUOUS
 10
5.9199273241
 20
16.7262561789
 11
5.9052674298
 21
16.7023809892
  0
LINE
  5
455
100
AcDbEntity
  8
ASSI
100
AcDbLine
 62
250
  6
CONTINUOUS
 10
8.0596278021
 20
15.6689792212
 11
8.0513548385
 21
15.6561241983
  0
LINE
  5
456
100
AcDbEntity
  8
ASSI
100
AcDbLine
 62
250
  6
CONTINUOUS
 10
5.996713266
 20
16.70449708
 11
5.9887164995
 21
16.6922291383
  0
LINE
  5
457
100
AcDbEntity
  8
ASSI
100
AcDbLine
 62
250
  6
CONTINUOUS
 10
8.0594146408
 20
15.6686615125
 11
8.0679088379
 21
15.6808325022
  0
LINE
  5
458
100
AcDbEntity
  8
ASSI
100
AcDbLine
 62
250
  6
CONTINUOUS
 10
8.067901085
 20
15.6808218469
 11
8.0767958604
 21
15.6925705908
  0
LINE
  5
459
100
AcDbEntity
  8
ASSI
100
AcDbLine
 62
250
  6
CONTINUOUS
 10
9.9317955327
 20
15.5235119757
 11
10.4726628385
 21
16.1927994618
  0
LINE
  5
45A
100
AcDbEntity
  8
ASSI
100
AcDbLine
 62
7
  6
CONTINUOUS
 10
9.9317955366
 20
15.4528073197
 11
10.484350336
 21
16.1365573054
  0
LINE
  5
45B
100
AcDbEntity
  8
ASSI
100
AcDbLine
 62
250
  6
CONTINUOUS
 10
8.076505715
 20
15.6922019502
 11
8.0860432675
 21
15.7038281565
  0
LINE
  5
45C
100
AcDbEntity
  8
ASSI
100
AcDbLine
 62
250
  6
CONTINUOUS
 10
8.2912448766
 20
15.5119495442
 11
8.2931731308
 21
15.5142564726
  0
LWPOLYLINE
  5
45D
100
AcDbEntity
  8
ASSI
100
AcDbPolyline
 62
250
  6
CONTINUOUS
 90
9
 70
0
 10
8.0853659027
 20
15.7030342137
 10
8.0956207059
 20
15.7145637284
 10
8.105484646
 20
15.7247256783
 10
8.1155997986
 20
15.7342755216
 10
8.125929135
 20
15.7431762372
 10
8.1364234985
 20
15.7513853096
 10
8.1470402496
 20
15.7588706253
 10
8.1577440686
 20
15.7656082083
 10
8.1684955889
 20
15.7715739282
  0
LWPOLYLINE
  5
45E
100
AcDbEntity
  8
ASSI
100
AcDbPolyline
 62
250
  6
CONTINUOUS
 90
9
 70
0
 10
8.2930384393
 20
15.514103301
 10
8.2951198448
 20
15.5163958054
 10
8.2971172745
 20
15.518412668
 10
8.2991663174
 20
15.5203053489
 10
8.3012660761
 20
15.5220755595
 10
8.3033913812
 20
15.5237018108
 10
8.305533843
 20
15.5251769395
 10
8.3077018513
 20
15.5265081089
 10
8.309895406
 20
15.5276953189
  0
LWPOLYLINE
  5
45F
100
AcDbEntity
  8
IMPORT_IGES
100
AcDbPolyline
 62
7
  6
CONTINUOUS
 90
3
 70
0
 10
-3.7021360947
 20
0.0057717366
 10
-3.7124895328
 20
-0.0052994114
 10
-3.7441041803
 20
-0.0482230727
  0
LWPOLYLINE
  5
460
100
AcDbEntity
  8
ASSI
100
AcDbPolyline
 62
7
  6
CONTINUOUS
 90
14
 70
0
 10
9.029344782
 20
14.9649502467
 10
9.0117344784
 20
14.9481116253
 10
8.9928836759
 20
14.9321811283
 10
8.9728895649
 20
14.9173600286
 10
8.9517904088
 20
14.9038463232
 10
8.929787587
 20
14.8918118629
 10
8.9072492651
 20
14.8813922602
 10
8.8843361374
 20
14.8727139265
 10
8.8612088748
 20
14.865908169
 10
8.8382594955
 20
14.8610580468
 10
8.8157020464
 20
14.8582045683
 10
8.7936830331
 20
14.8573809413
 10
8.7724979606
 20
14.8585723497
 10
8.7519113051
 20
14.8618143655
  0
LWPOLYLINE
  5
461
100
AcDbEntity
  8
ASSI
100
AcDbPolyline
 62
7
  6
CONTINUOUS
 90
12
 70
0
 10
9.029344782
 20
14.9649502467
 10
9.0073054341
 20
14.9442996667
 10
8.9834117908
 20
14.9250311277
 10
8.9578400599
 20
14.9075372961
 10
8.9306376255
 20
14.8921858219
 10
8.9022231537
 20
14.8793345309
 10
8.8734095441
 20
14.8692683895
 10
8.8445826966
 20
14.8621735342
 10
8.8160382865
 20
14.8582278365
 10
8.788505018
 20
14.8574879017
 10
8.7624532612
 20
14.8598806291
 10
8.7519095951
 20
14.8618147283
  0
LWPOLYLINE
  5
462
100
AcDbEntity
  8
ASSI
100
AcDbPolyline
 62
250
  6
CONTINUOUS
 90
22
 70
0
 10
5.0942440756
 20
11.3018526574
 10
5.0584133981
 20
11.2810865053
 10
5.0231832121
 20
11.2577124663
 10
4.9885535174
 20
11.2317305405
 10
4.954342013
 20
11.2029772461
 10
4.920731
 20
11.1716160648
 10
4.888267382
 20
11.1381374424
 10
4.856985312
 20
11.1025199025
 10
4.8268506369
 20
11.0647849214
 10
4.7983078013
 20
11.0254873743
 10
4.7713797965
 20
10.9846019507
 10
4.7460436313
 20
10.942153961
 10
4.7226747766
 20
10.898774212
 10
4.7013034249
 20
10.8544483107
 10
4.6818993838
 20
10.8091906501
 10
4.6647475467
 20
10.7636752155
 10
4.6498819395
 20
10.7178813812
 10
4.6372685363
 20
10.671829773
 10
4.6270901529
 20
10.6262562531
 10
4.619407728
 20
10.581406109
 10
4.614160323
 20
10.5370340532
 10
4.6113479378
 20
10.4931400858
  0
LINE
  5
463
100
AcDbEntity
  8
ASSI
100
AcDbLine
 62
250
  6
CONTINUOUS
 10
10.2853489233
 20
14.0896345906
 11
5.0942440756
 21
11.3018526574
  0
LINE
  5
464
100
AcDbEntity
  8
DRAFT
100
AcDbLine
 62
7
  6
CONTINUOUS
 10
33.1692617776
 20
24.7240723852
 11
33.9221360117
 21
25.1071375785
  0
LINE
  5
465
100
AcDbEntity
  8
RACCORDO
100
AcDbLine
 62
250
  6
CONTINUOUS
 10
35.9787246692
 20
25.0967805364
 11
10.9801131097
 21
12.3786672257
  0
LINE
  5
466
100
AcDbEntity
  8
0
100
AcDbLine
 62
7
  6
CONTINUOUS
 10
32.870732081
 20
24.6145479859
 11
31.7643233537
 21
24.0635327467
  0
LINE
  5
467
100
AcDbEntity
  8
ASSI
100
AcDbLine
 62
250
  6
CONTINUOUS
 10
10.9801131097
 20
14.4343089025
 11
10.2853489233
 21
14.0897007442
  0
LINE
  5
468
100
AcDbEntity
  8
RACCORDO
100
AcDbLine
 62
250
  6
CONTINUOUS
 10
17.3617075966
 20
16.8607764763
 11
35.4513041698
 21
25.647781505
  0
LINE
  5
469
100
AcDbEntity
  8
RACCORDO
100
AcDbLine
 62
250
  6
CONTINUOUS
 10
17.6993759304
 20
16.2783847492
 11
35.9512280174
 21
25.1442052457
  0
LINE
  5
46A
100
AcDbEntity
  8
0
100
AcDbLine
 62
7
  6
CONTINUOUS
 10
35.2975083805
 20
25.7246793996
 11
17.6438671986
 21
17.4247215035
  0
LWPOLYLINE
  5
46B
100
AcDbEntity
  8
ASSI
100
AcDbPolyline
 62
250
  6
CONTINUOUS
 90
16
 70
0
 10
4.6113479378
 20
10.4931400858
 10
4.5740427687
 20
10.4789445253
 10
4.5337621936
 20
10.4666448959
 10
4.4908967696
 20
10.4563604536
 10
4.4458621163
 20
10.4481909157
 10
4.3990948858
 20
10.4422154932
 10
4.3510485291
 20
10.4384921233
 10
4.3021888997
 20
10.4370569075
 10
4.2529897364
 20
10.4379237616
 10
4.2039280702
 20
10.4410842805
 10
4.1554795986
 20
10.4465078202
 10
4.1081140741
 20
10.4541417945
 10
4.0622907488
 20
10.463912185
 10
4.0184539216
 20
10.4757242588
 10
3.9770286307
 20
10.4894634872
 10
3.9384165323
 20
10.5049966556
  0
LWPOLYLINE
  5
46C
100
AcDbEntity
  8
IMPORT_IGES
100
AcDbPolyline
 62
7
  6
CONTINUOUS
 90
5
 70
0
 10
-2.7650138207
 20
-7.4151342471
 10
-2.6988581556
 20
-7.4374054169
 10
-2.6345442626
 20
-7.452537898
 10
-2.5720721415
 20
-7.4605316904
 10
-2.5232017152
 20
-7.461170947
  0
LWPOLYLINE
  5
46D
100
AcDbEntity
  8
0
100
AcDbPolyline
 62
250
  6
CONTINUOUS
 90
13
 70
0
 10
-5.6655396485
 20
-6.2845189323
 10
-5.6365006975
 20
-6.2977210573
 10
-5.6042568046
 20
-6.3088766122
 10
-5.5693605452
 20
-6.3177944202
 10
-5.5324099496
 20
-6.3243216537
 10
-5.4940382537
 20
-6.3283464528
 10
-5.4549030474
 20
-6.3297998432
 10
-5.4156750053
 20
-6.3286569176
 10
-5.3770263929
 20
-6.3249372628
 10
-5.3396195456
 20
-6.3187046237
 10
-5.3040955186
 20
-6.3100658115
 10
-5.2710631001
 20
-6.2991688727
 10
-5.241088379
 20
-6.2862005522
  0
LWPOLYLINE
  5
46E
100
AcDbEntity
  8
ASSI
100
AcDbPolyline
 62
250
  6
CONTINUOUS
 90
13
 70
0
 10
-5.6585857787
 20
-6.2881282546
 10
-5.6295462649
 20
-6.3013285344
 10
-5.5973024428
 20
-6.3124823341
 10
-5.5624068293
 20
-6.3213985268
 10
-5.5254573815
 20
-6.3279243283
 10
-5.4870872499
 20
-6.3319479152
 10
-5.4479539295
 20
-6.3334003408
 10
-5.4087279929
 20
-6.332256717
 10
-5.3700815997
 20
-6.3285366404
 10
-5.3326769786
 20
-6.3223038569
 10
-5.2971550801
 20
-6.3136651688
 10
-5.2641245927
 20
-6.3027686051
 10
-5.2341515136
 20
-6.2898008849
  0
LINE
  5
46F
100
AcDbEntity
  8
IMPORT_IGES
100
AcDbLine
 62
7
  6
CONTINUOUS
 10
-2.7650138207
 20
-7.4151342471
 11
-3.1185672113
 21
-7.2383575518
  0
LINE
  5
470
100
AcDbEntity
  8
IMPORT_IGES
100
AcDbLine
 62
7
  6
CONTINUOUS
 10
-3.1888952383
 20
-6.1623286655
 11
-2.6946632848
 21
-6.4094446423
  0
LINE
  5
471
100
AcDbEntity
  8
IMPORT_IGES
100
AcDbLine
 62
7
  6
CONTINUOUS
 10
-2.7296584816
 20
-7.6917865128
 11
-3.2246332285
 21
-7.4376126017
  0
LWPOLYLINE
  5
472
100
AcDbEntity
  8
0
100
AcDbPolyline
 62
250
  6
CONTINUOUS
 90
5
 70
0
 10
-2.4293472998
 20
-7.902747494
 10
-2.4557848222
 20
-7.8882091751
 10
-2.4782024199
 20
-7.8720320356
 10
-2.4962160064
 20
-7.8544933156
 10
-2.5095169681
 20
-7.8358935874
  0
LWPOLYLINE
  5
473
100
AcDbEntity
  8
ASSI
100
AcDbPolyline
 62
250
  6
CONTINUOUS
 90
8
 70
0
 10
-2.4221289856
 20
-7.9062242636
 10
-2.4485701535
 20
-7.8916862487
 10
-2.4709912193
 20
-7.875509095
 10
-2.4890079974
 20
-7.8579700716
 10
-2.5023117875
 20
-7.8393697871
 10
-2.5106746791
 20
-7.8200270152
 10
-2.5139534346
 20
-7.8002732287
 10
-2.5140001365
 20
-7.7981326117
  0
LWPOLYLINE
  5
474
100
AcDbEntity
  8
0
100
AcDbPolyline
 62
250
  6
CONTINUOUS
 90
5
 70
0
 10
-4.3484312697
 20
0.3713604565
 10
-4.3365042757
 20
0.3466750804
 10
-4.3214146473
 20
0.3257140784
 10
-4.3034191045
 20
0.3088340602
 10
-4.2857155885
 20
0.297733538
  0
LWPOLYLINE
  5
475
100
AcDbEntity
  8
0
100
AcDbPolyline
 62
250
  6
CONTINUOUS
 90
5
 70
0
 10
-3.7177187275
 20
0.0559778636
 10
-3.7058802911
 20
0.0313369306
 10
-3.690901783
 20
0.0104318328
 10
-3.6730380627
 20
-0.0063818479
 10
-3.6547254654
 20
-0.0177873775
  0
LWPOLYLINE
  5
476
100
AcDbEntity
  8
0
100
AcDbPolyline
 62
250
  6
CONTINUOUS
 90
3
 70
0
 10
-2.5095162105
 20
-2.0297839458
 10
-2.5178770382
 20
-2.0107557071
 10
-2.5211542689
 20
-1.9913752367
  0
LWPOLYLINE
  5
477
100
AcDbEntity
  8
ASSI
100
AcDbPolyline
 62
250
  6
CONTINUOUS
 90
10
 70
0
 10
8.0055781308
 20
-26.5362314563
 10
8.0093654139
 20
-26.5456494593
 10
8.0137300446
 20
-26.554649123
 10
8.018678871
 20
-26.5631788125
 10
8.0242156226
 20
-26.5711855747
 10
8.0303041226
 20
-26.5785750991
 10
8.0369309523
 20
-26.5853044676
 10
8.0440853171
 20
-26.5913379943
 10
8.0517155949
 20
-26.5966161216
 10
8.0591395008
 20
-26.6007859674
  0
LINE
  5
478
100
AcDbEntity
  8
ASSI
100
AcDbLine
 62
250
  6
CONTINUOUS
 10
-4.5881701047
 20
21.4001296612
 11
-4.5900056785
 21
21.4109494729
  0
LINE
  5
479
100
AcDbEntity
  8
ASSI
100
AcDbLine
 62
250
  6
CONTINUOUS
 10
-4.5899704991
 20
21.4107037753
 11
-4.5912790738
 21
21.421819939
  0
LWPOLYLINE
  5
47A
100
AcDbEntity
  8
ASSI
100
AcDbPolyline
 62
250
  6
CONTINUOUS
 90
22
 70
0
 10
4.6113479283
 20
-25.6302090724
 10
4.6141603092
 20
-25.6714341881
 10
4.6194077111
 20
-25.710826644
 10
4.6270901338
 20
-25.7483864402
 10
4.6372685166
 20
-25.7843010352
 10
4.6498819202
 20
-25.8183829704
 10
4.6647475278
 20
-25.8500698698
 10
4.681899365
 20
-25.8793088187
 10
4.7013034061
 20
-25.9061527319
 10
4.7226747577
 20
-25.9301979777
 10
4.7460436125
 20
-25.9514015117
 10
4.7713797778
 20
-25.9698063783
 10
4.7983077827
 20
-25.9851380796
 10
4.8268506183
 20
-25.9973494871
 10
4.8569852936
 20
-26.0064877292
 10
4.8882673638
 20
-26.0124196931
 10
4.920730982
 20
-26.0150914924
 10
4.9543419951
 20
-26.0145570135
 10
4.9885534997
 20
-26.0108448025
 10
5.0231831945
 20
-26.0039643751
 10
5.0584133808
 20
-25.9939062156
 10
5.0942440586
 20
-25.9806703242
  0
LWPOLYLINE
  5
47B
100
AcDbEntity
  8
ASSI
100
AcDbPolyline
 62
250
  6
CONTINUOUS
 90
14
 70
0
 10
3.9384165147
 20
-25.6554913341
 10
3.942923408
 20
-25.7258528092
 10
3.951533084
 20
-25.7935209057
 10
3.9642052235
 20
-25.8581640412
 10
3.9808856517
 20
-25.919464811
 10
4.0014909805
 20
-25.9771261099
 10
4.0259115561
 20
-26.0308699011
 10
4.0540411313
 20
-26.0804377689
 10
4.0857459753
 20
-26.1255818555
 10
4.1208515517
 20
-26.1660689161
 10
4.1591986079
 20
-26.2017030036
 10
4.2006078763
 20
-26.232310505
 10
4.244852126
 20
-26.2577279496
 10
4.2631326207
 20
-26.26634017
  0
LWPOLYLINE
  5
47C
100
AcDbEntity
  8
ASSI
100
AcDbPolyline
 62
7
  6
CONTINUOUS
 90
16
 70
0
 10
1.8707782271
 20
19.8991001143
 10
1.8698290515
 20
19.9220469214
 10
1.8669597056
 20
19.9457953713
 10
1.8621814452
 20
19.970095892
 10
1.8554998097
 20
19.9947796148
 10
1.8469829411
 20
20.0194826947
 10
1.8368251824
 20
20.0436564808
 10
1.8252777233
 20
20.0668469361
 10
1.8124177677
 20
20.0890270785
 10
1.7981969624
 20
20.1102803053
 10
1.7826057574
 20
20.1305169121
 10
1.7659126176
 20
20.1492946648
 10
1.748486644
 20
20.1661904172
 10
1.7305967794
 20
20.1809866289
 10
1.7123778641
 20
20.1936100494
 10
1.6940284558
 20
20.2039483759
  0
LWPOLYLINE
  5
47D
100
AcDbEntity
  8
CURVE
100
AcDbPolyline
 62
250
  6
CONTINUOUS
 90
5
 70
0
 10
1.9167910062
 20
-23.3548358819
 10
1.8768036929
 20
-22.2025268903
 10
1.8397385072
 20
-21.0486110173
 10
1.8055957996
 20
-19.8930991491
 10
1.7743759207
 20
-18.736002172
  0
LWPOLYLINE
  5
47E
100
AcDbEntity
  8
CURVE
100
AcDbPolyline
 62
250
  6
CONTINUOUS
 90
3
 70
0
 10
1.4244405413
 20
-21.8597411166
 10
1.4374902011
 20
-22.2426690576
 10
1.4508675634
 20
-22.625416275
  0
LINE
  5
47F
100
AcDbEntity
  8
CURVE
100
AcDbLine
 62
250
  6
CONTINUOUS
 10
0.9722275203
 20
-17.941202632
 11
0.981942236
 21
-18.3169920586
  0
LWPOLYLINE
  5
480
100
AcDbEntity
  8
ASSI
100
AcDbPolyline
 62
250
  6
CONTINUOUS
 90
11
 70
0
 10
1.3720791594
 20
19.7903085347
 10
1.3720425688
 20
19.7925438396
 10
1.3718991316
 20
19.7948605769
 10
1.3716488478
 20
19.7972587466
 10
1.3712947803
 20
19.799750103
 10
1.3708338662
 20
19.8023228918
 10
1.3702569172
 20
19.8049418504
 10
1.369560087
 20
19.8076094159
 10
1.368747222
 20
19.8103231511
 10
1.367820672
 20
19.8130404822
 10
1.366777013
 20
19.8157613992
  0
LINE
  5
481
100
AcDbEntity
  8
ASSI
100
AcDbLine
 62
250
  6
CONTINUOUS
 10
1.3720791594
 20
19.7903085347
 11
1.3720791594
 21
18.6030357534
  0
LINE
  5
482
100
AcDbEntity
  8
ASSI
100
AcDbLine
 62
250
  6
CONTINUOUS
 10
1.6524321898
 20
19.7890852328
 11
1.6524321898
 21
18.6107313245
  0
LINE
  5
483
100
AcDbEntity
  8
ASSI
100
AcDbLine
 62
7
  6
CONTINUOUS
 10
1.8707782271
 20
19.8991001143
 11
1.8707782271
 21
18.7299328442
  0
LINE
  5
484
100
AcDbEntity
  8
ASSI
100
AcDbLine
 62
7
  6
CONTINUOUS
 10
2.7351627198
 20
19.1501881107
 11
2.7351627198
 21
17.9655740072
  0
LINE
  5
485
100
AcDbEntity
  8
ASSI
100
AcDbLine
 62
250
  6
CONTINUOUS
 10
2.7937413636
 20
19.0794774326
 11
2.7937413636
 21
17.8922046513
  0
LWPOLYLINE
  5
486
100
AcDbEntity
  8
ASSI
100
AcDbPolyline
 62
250
  6
CONTINUOUS
 90
3
 70
0
 10
3.9799371347
 20
22.9266139663
 10
3.9793422529
 20
22.9149047744
 10
3.9750755272
 20
22.8959209075
  0
LWPOLYLINE
  5
487
100
AcDbEntity
  8
ASSI
100
AcDbPolyline
 62
250
  6
CONTINUOUS
 90
11
 70
0
 10
1.3367292052
 20
19.851278187
 10
1.337912385
 20
19.8742277914
 10
1.3414421266
 20
19.8979765669
 10
1.3472593681
 20
19.9221271328
 10
1.3552667712
 20
19.9462753851
 10
1.3653303506
 20
19.9700172586
 10
1.3772817156
 20
19.9929554879
 10
1.3909208876
 20
20.0147062548
 10
1.4060196466
 20
20.0349056104
 10
1.4223253499
 20
20.0532155651
 10
1.439565159
 20
20.0693297443
  0
LWPOLYLINE
  5
488
100
AcDbEntity
  8
ASSI
100
AcDbPolyline
 62
250
  6
CONTINUOUS
 90
13
 70
0
 10
2.8290913178
 20
19.1050971307
 10
2.8302744965
 20
19.128046724
 10
2.8338042352
 20
19.15179549
 10
2.8396214727
 20
19.1759460485
 10
2.8476288714
 20
19.200094296
 10
2.8576924467
 20
19.2238361674
 10
2.8696438085
 20
19.2467743974
 10
2.8832829789
 20
19.2685251676
 10
2.8983817383
 20
19.2887245285
 10
2.9146874439
 20
19.3070344897
 10
2.9319272573
 20
19.3231486758
 10
2.9498127103
 20
19.3367974524
 10
2.9680445311
 20
19.3477524381
  0
LINE
  5
489
100
AcDbEntity
  8
ASSI
100
AcDbLine
 62
7
  6
CONTINUOUS
 10
3.9976762683
 20
21.7396141535
 11
3.9969182359
 21
21.7262583536
  0
LWPOLYLINE
  5
48A
100
AcDbEntity
  8
ASSI
100
AcDbPolyline
 62
7
  6
CONTINUOUS
 90
6
 70
0
 10
3.99767689
 20
21.7396141491
 10
3.9969202858
 20
21.7262686089
 10
3.9922873756
 20
21.7065201818
 10
3.9832809629
 20
21.6869559659
 10
3.9700660984
 20
21.6677024368
 10
3.9532315341
 20
21.6495460091
  0
LINE
  5
48B
100
AcDbEntity
  8
ASSI
100
AcDbLine
 62
250
  6
CONTINUOUS
 10
3.9515331019
 20
10.6568122166
 11
3.9429234263
 21
10.58014078
  0
LWPOLYLINE
  5
48C
100
AcDbEntity
  8
CURVE
100
AcDbPolyline
 62
250
  6
CONTINUOUS
 90
4
 70
0
 10
-1.1787104884
 20
-20.4177332446
 10
-1.2534813491
 20
-20.8837521045
 10
-1.3274987228
 20
-21.3494434241
 10
-1.4007721696
 20
-21.8148684516
  0
LINE
  5
48D
100
AcDbEntity
  8
ASSI
100
AcDbLine
 62
250
  6
CONTINUOUS
 10
5.937756615
 20
16.5696085029
 11
5.9348125001
 21
16.5551843817
  0
LINE
  5
48E
100
AcDbEntity
  8
ASSI
100
AcDbLine
 62
250
  6
CONTINUOUS
 10
5.9412645148
 20
16.5837973388
 11
5.9376731091
 21
16.5692379448
  0
LINE
  5
48F
100
AcDbEntity
  8
ASSI
100
AcDbLine
 62
7
  6
CONTINUOUS
 10
5.8831536407
 20
16.6501201614
 11
5.8763446419
 21
16.6233646581
  0
LINE
  5
490
100
AcDbEntity
  8
ASSI
100
AcDbLine
 62
250
  6
CONTINUOUS
 10
5.9453761768
 20
16.5979964914
 11
5.9411468542
 21
16.5833578347
  0
LINE
  5
491
100
AcDbEntity
  8
ASSI
100
AcDbLine
 62
250
  6
CONTINUOUS
 10
5.9500752412
 20
16.6121541621
 11
5.9452198726
 21
16.5974921426
  0
LINE
  5
492
100
AcDbEntity
  8
ASSI
100
AcDbLine
 62
250
  6
CONTINUOUS
 10
8.0188215722
 20
15.5908302879
 11
8.0135605804
 21
15.576531141
  0
LINE
  5
493
100
AcDbEntity
  8
ASSI
100
AcDbLine
 62
250
  6
CONTINUOUS
 10
5.9553379811
 20
16.6262049116
 11
5.9498763605
 21
16.6115895812
  0
LINE
  5
494
100
AcDbEntity
  8
ASSI
100
AcDbLine
 62
250
  6
CONTINUOUS
 10
8.2795444449
 20
15.4917556589
 11
8.2785181809
 21
15.4890161759
  0
LINE
  5
495
100
AcDbEntity
  8
ASSI
100
AcDbLine
 62
7
  6
CONTINUOUS
 10
9.9347847777
 20
19.7899557555
 11
9.9306598929
 21
19.7791593742
  0
LINE
  5
496
100
AcDbEntity
  8
ASSI
100
AcDbLine
 62
250
  6
CONTINUOUS
 10
8.0244241242
 20
15.6044513339
 11
8.0184753993
 21
15.5899394176
  0
LINE
  5
497
100
AcDbEntity
  8
ASSI
100
AcDbLine
 62
250
  6
CONTINUOUS
 10
8.2806797402
 20
15.494468709
 11
8.2794757532
 21
15.4915738717
  0
LWPOLYLINE
  5
498
100
AcDbEntity
  8
ASSI
100
AcDbPolyline
 62
250
  6
CONTINUOUS
 90
8
 70
0
 10
8.2925369778
 20
15.1212504236
 10
8.2820252117
 20
15.0978795026
 10
8.2693404566
 20
15.0761212327
 10
8.2546973507
 20
15.0563437847
 10
8.2383436697
 20
15.0388818123
 10
8.2205561335
 20
15.0240307888
 10
8.2016357244
 20
15.0120420079
 10
8.181902594
 20
15.0031183313
  0
LINE
  5
499
100
AcDbEntity
  8
ASSI
100
AcDbLine
 62
250
  6
CONTINUOUS
 10
8.0305392721
 20
15.6178982527
 11
8.0239770062
 21
15.6034145042
  0
LINE
  5
49A
100
AcDbEntity
  8
ASSI
100
AcDbLine
 62
250
  6
CONTINUOUS
 10
8.2819228333
 20
15.4971557727
 11
8.2805916325
 21
15.4942675323
  0
LINE
  5
49B
100
AcDbEntity
  8
ASSI
100
AcDbLine
 62
250
  6
CONTINUOUS
 10
8.037142437
 20
15.6311199737
 11
8.0300311833
 21
15.616829113
  0
LINE
  5
49C
100
AcDbEntity
  8
ASSI
100
AcDbLine
 62
250
  6
CONTINUOUS
 10
8.2832597447
 20
15.4997881557
 11
8.2818168594
 21
15.4969381866
  0
LINE
  5
49D
100
AcDbEntity
  8
ASSI
100
AcDbLine
 62
7
  6
CONTINUOUS
 10
10.5062183931
 20
16.1678152581
 11
10.5183666151
 21
16.190218212
  0
LINE
  5
49E
100
AcDbEntity
  8
ASSI
100
AcDbLine
 62
250
  6
CONTINUOUS
 10
8.0442139625
 20
15.6440787301
 11
8.0366247572
 21
15.6301256474
  0
LINE
  5
49F
100
AcDbEntity
  8
ASSI
100
AcDbLine
 62
250
  6
CONTINUOUS
 10
8.2846926665
 20
15.5023664217
 11
8.2831543032
 21
15.4995845298
  0
LINE
  5
4A0
100
AcDbEntity
  8
ASSI
100
AcDbLine
 62
250
  6
CONTINUOUS
 10
8.0517241567
 20
15.6567216935
 11
8.043748319
 21
15.6432589594
  0
LWPOLYLINE
  5
4A1
100
AcDbEntity
  8
ASSI
100
AcDbPolyline
 62
250
  6
CONTINUOUS
 90
5
 70
0
 10
8.2846010947
 20
15.5022078668
 10
8.2861406767
 20
15.5047673012
 10
8.287774063
 20
15.5072598491
 10
8.2895002399
 20
15.5096884944
 10
8.2912996093
 20
15.5120212934
  0
LINE
  5
4A2
100
AcDbEntity
  8
ASSI
100
AcDbLine
 62
7
  6
CONTINUOUS
 10
10.4922156266
 20
16.1467750546
 11
10.5062183931
 21
16.1678152581
  0
LWPOLYLINE
  5
4A3
100
AcDbEntity
  8
ASSI
100
AcDbPolyline
 62
250
  6
CONTINUOUS
 90
10
 70
0
 10
10.4726628385
 20
16.1927994618
 10
10.4761006946
 20
16.1974300905
 10
10.4791818891
 20
16.202249155
 10
10.4819064223
 20
16.2072566555
 10
10.4843013971
 20
16.2125254152
 10
10.4863397106
 20
16.2179826109
 10
10.4879400528
 20
16.2234097722
 10
10.4890753208
 20
16.2287340756
 10
10.4897726175
 20
16.2340283445
 10
10.4900319432
 20
16.239292579
  0
LINE
  5
4A4
100
AcDbEntity
  8
ASSI
100
AcDbLine
 62
7
  6
CONTINUOUS
 10
10.4843237283
 20
16.1365238499
 11
10.4922156266
 21
16.1467750546
  0
LINE
  5
4A5
100
AcDbEntity
  8
ASSI
100
AcDbLine
 62
250
  6
CONTINUOUS
 10
-4.8707740338
 20
0.3242103247
 11
-4.8225283778
 21
0.3501609366
  0
LINE
  5
4A6
100
AcDbEntity
  8
ASSI
100
AcDbLine
 62
7
  6
CONTINUOUS
 10
11.3274952029
 20
11.7400225174
 11
10.9801131097
 21
11.5632909092
  0
LINE
  5
4A7
100
AcDbEntity
  8
RACCORDO
100
AcDbLine
 62
250
  6
CONTINUOUS
 10
36.3928751449
 20
23.6651469618
 11
11.3813644341
 21
10.940471172
  0
LWPOLYLINE
  5
4A8
100
AcDbEntity
  8
IMPORT_IGES
100
AcDbPolyline
 62
7
  6
CONTINUOUS
 90
4
 70
0
 10
-2.5215300857
 20
-7.739797646
 10
-2.5667929741
 20
-7.7349558669
 10
-2.6470391997
 20
-7.7177893801
 10
-2.7296584816
 20
-7.6917865128
  0
LWPOLYLINE
  5
4A9
100
AcDbEntity
  8
ASSI
100
AcDbPolyline
 62
250
  6
CONTINUOUS
 90
3
 70
0
 10
10.4798671766
 20
-24.8807478045
 10
10.4718447178
 20
-24.8579463336
 10
10.4614017175
 20
-24.8369112847
  0
LINE
  5
4AA
100
AcDbEntity
  8
ASSI
100
AcDbLine
 62
250
  6
CONTINUOUS
 10
-4.5830964786
 20
21.3802686305
 11
-4.5859598093
 21
21.3903102937
  0
LINE
  5
4AB
100
AcDbEntity
  8
ASSI
100
AcDbLine
 62
250
  6
CONTINUOUS
 10
-4.5858714638
 20
21.3899633273
 11
-4.5882296609
 21
21.4004321413
  0
LINE
  5
4AC
100
AcDbEntity
  8
ASSI
100
AcDbLine
 62
7
  6
CONTINUOUS
 10
-2.0422547421
 20
22.9728950867
 11
-2.0467589378
 21
22.9980256215
  0
LWPOLYLINE
  5
4AD
100
AcDbEntity
  8
ASSI
100
AcDbPolyline
 62
250
  6
CONTINUOUS
 90
9
 70
0
 10
1.6520787851
 20
19.8001598366
 10
1.6512511114
 20
19.811689063
 10
1.6499211489
 20
19.8236545357
 10
1.6480578331
 20
19.8360589057
 10
1.6456376184
 20
19.8488497068
 10
1.6426551135
 20
19.8619168915
 10
1.6390975464
 20
19.8752225967
 10
1.6349547505
 20
19.8887244808
 10
1.6302471659
 20
19.9022984221
  0
LWPOLYLINE
  5
4AE
100
AcDbEntity
  8
ASSI
100
AcDbPolyline
 62
7
  6
CONTINUOUS
 90
11
 70
0
 10
3.9799361517
 20
22.9266805097
 10
3.9783047877
 20
22.9529225501
 10
3.9727809078
 20
22.9855458872
 10
3.9633322132
 20
23.0177386618
 10
3.9499516166
 20
23.0490601544
 10
3.9327740489
 20
23.0789288576
 10
3.9118915202
 20
23.1070121547
 10
3.8873554466
 20
23.1330692546
 10
3.8595473111
 20
23.1565953493
 10
3.8289426741
 20
23.1772128496
 10
3.7952971722
 20
23.1950760106
  0
LWPOLYLINE
  5
4AF
100
AcDbEntity
  8
ASSI
100
AcDbPolyline
 62
250
  6
CONTINUOUS
 90
7
 70
0
 10
3.8691543536
 20
22.7958333177
 10
3.867494675
 20
22.8247901269
 10
3.8629385899
 20
22.8546359907
 10
3.8555614812
 20
22.8848770927
 10
3.8454854071
 20
22.9150130771
 10
3.8328770821
 20
22.9445453274
 10
3.8179451187
 20
22.9729852167
  0
LWPOLYLINE
  5
4B0
100
AcDbEntity
  8
ASSI
100
AcDbPolyline
 62
7
  6
CONTINUOUS
 90
12
 70
0
 10
3.9799352378
 20
22.9266395184
 10
3.9788825353
 20
22.9470439154
 10
3.9739491656
 20
22.9802341917
 10
3.964982744
 20
23.0130127303
 10
3.9519826894
 20
23.0449149609
 10
3.9350874534
 20
23.0753470951
 10
3.9143551385
 20
23.1040296528
 10
3.8898077464
 20
23.1307221107
 10
3.8618460319
 20
23.1548472402
 10
3.830981323
 20
23.1759792128
 10
3.7969971716
 20
23.1942767459
 10
3.7589935024
 20
23.2099367659
  0
LINE
  5
4B1
100
AcDbEntity
  8
ASSI
100
AcDbLine
 62
7
  6
CONTINUOUS
 10
2.5285466386
 20
20.2253580955
 11
2.5528384575
 21
19.0815960036
  0
LWPOLYLINE
  5
4B2
100
AcDbEntity
  8
ASSI
100
AcDbPolyline
 62
250
  6
CONTINUOUS
 90
28
 70
0
 10
5.0843897607
 20
17.9341532341
 10
5.08435317
 20
17.9363885389
 10
5.0842097328
 20
17.9387052762
 10
5.083959449
 20
17.941103446
 10
5.0836053815
 20
17.9435948024
 10
5.0831444674
 20
17.9461675912
 10
5.0825675184
 20
17.9487865498
 10
5.0818706883
 20
17.9514541152
 10
5.0810578232
 20
17.9541678505
 10
5.0801312732
 20
17.9568851816
 10
5.0790876143
 20
17.9596060986
 10
5.0779302704
 20
17.9623306115
 10
5.0766718643
 20
17.9650161758
 10
5.0753108743
 20
17.9676599749
 10
5.0738488221
 20
17.9702648255
 10
5.0723028946
 20
17.9727966335
 10
5.0706726958
 20
17.9752528449
 10
5.0689586219
 20
17.9776360136
 10
5.0671790479
 20
17.9799197076
 10
5.065333109
 20
17.982102847
 10
5.0634216701
 20
17.9841865118
 10
5.0614657009
 20
17.9861475099
 10
5.0594646683
 20
17.9879843411
 10
5.0574191053
 20
17.9896985056
 10
5.0553515808
 20
17.9912713115
 10
5.0532696176
 20
17.9926965283
 10
5.0511656928
 20
17.9939803866
 10
5.0490398064
 20
17.9951228864
  0
LINE
  5
4B3
100
AcDbEntity
  8
ASSI
100
AcDbLine
 62
7
  6
CONTINUOUS
 10
3.9976276891
 20
21.7396145154
 11
3.9799371485
 21
22.926613039
  0
LINE
  5
4B4
100
AcDbEntity
  8
ASSI
100
AcDbLine
 62
250
  6
CONTINUOUS
 10
3.8815983949
 20
21.6024457478
 11
3.8691543536
 21
22.7958333177
  0
LINE
  5
4B5
100
AcDbEntity
  8
ASSI
100
AcDbLine
 62
250
  6
CONTINUOUS
 10
4.6287369816
 20
21.9597086649
 11
4.6287369816
 21
20.2924503887
  0
LINE
  5
4B6
100
AcDbEntity
  8
ASSI
100
AcDbLine
 62
250
  6
CONTINUOUS
 10
5.0843897607
 20
16.7468804527
 11
5.0843897607
 21
17.9341532341
  0
LINE
  5
4B7
100
AcDbEntity
  8
ASSI
100
AcDbLine
 62
250
  6
CONTINUOUS
 10
5.364742791
 20
16.7545760239
 11
5.364742791
 21
17.9329299322
  0
LINE
  5
4B8
100
AcDbEntity
  8
ASSI
100
AcDbLine
 62
7
  6
CONTINUOUS
 10
5.5830888284
 20
18.0429448137
 11
5.5830888284
 21
16.8737775436
  0
LWPOLYLINE
  5
4B9
100
AcDbEntity
  8
ASSI
100
AcDbPolyline
 62
250
  6
CONTINUOUS
 90
9
 70
0
 10
3.6545415991
 20
-1.6863344816
 10
3.6279112631
 20
-4.7140495614
 10
3.6190341118
 20
-7.7331443356
 10
3.6279115755
 20
-10.7434631147
 10
3.6545421659
 20
-13.7448498023
 10
3.6989186781
 20
-16.7369193854
 10
3.7610297491
 20
-19.7194443737
 10
3.8408661382
 20
-22.6923515568
 10
3.9384165156
 20
-25.655491329
  0
LWPOLYLINE
  5
4BA
100
AcDbEntity
  8
ASSI
100
AcDbPolyline
 62
250
  6
CONTINUOUS
 90
9
 70
0
 10
4.3215596458
 20
-1.6829205866
 10
4.2943659032
 20
-4.7073921783
 10
4.2852966944
 20
-7.7232623668
 10
4.2943661209
 20
-10.7305239384
 10
4.3215600814
 20
-13.7291841067
 10
4.3668573635
 20
-16.7185518105
 10
4.4302508967
 20
-19.6983966958
 10
4.5117477517
 20
-22.6689491164
 10
4.6113479283
 20
-25.6302090724
  0
LINE
  5
4BB
100
AcDbEntity
  8
ASSI
100
AcDbLine
 62
250
  6
CONTINUOUS
 10
3.6989179664
 20
1.3496115093
 11
3.6545415991
 21
-1.6863344816
  0
LINE
  5
4BC
100
AcDbEntity
  8
ASSI
100
AcDbLine
 62
250
  6
CONTINUOUS
 10
4.3668568298
 20
1.3494397058
 11
4.3215596458
 21
-1.6829205866
  0
LINE
  5
4BD
100
AcDbEntity
  8
ASSI
100
AcDbLine
 62
250
  6
CONTINUOUS
 10
3.7610297494
 20
4.3935806114
 11
3.6989186782
 21
1.349652195
  0
LWPOLYLINE
  5
4BE
100
AcDbEntity
  8
ASSI
100
AcDbPolyline
 62
250
  6
CONTINUOUS
 90
3
 70
0
 10
3.9384165167
 20
10.5049965593
 10
3.8408656596
 20
7.4453991677
 10
3.7610290496
 20
4.3935505129
  0
LWPOLYLINE
  5
4BF
100
AcDbEntity
  8
ASSI
100
AcDbPolyline
 62
250
  6
CONTINUOUS
 90
4
 70
0
 10
4.6113479378
 20
10.4931400858
 10
4.5117474604
 20
7.4373512583
 10
4.4302504244
 20
4.3894511317
 10
4.3668568298
 20
1.3494397058
  0
LINE
  5
4C0
100
AcDbEntity
  8
ASSI
100
AcDbLine
 62
7
  6
CONTINUOUS
 10
5.8722462729
 20
16.5955547479
 11
5.8711178207
 21
16.5714890014
  0
LWPOLYLINE
  5
4C1
100
AcDbEntity
  8
ASSI
100
AcDbPolyline
 62
250
  6
CONTINUOUS
 90
13
 70
0
 10
5.0490398064
 20
17.9951228864
 10
5.0502229862
 20
18.0180724907
 10
5.0537527279
 20
18.0418212663
 10
5.0595699693
 20
18.0659718322
 10
5.0675773724
 20
18.0901200845
 10
5.0776409518
 20
18.113861958
 10
5.0895923168
 20
18.1368001873
 10
5.1032314888
 20
18.1585509542
 10
5.1183302479
 20
18.1787503097
 10
5.1346359511
 20
18.1970602645
 10
5.1518757603
 20
18.2131744436
 10
5.169761207
 20
18.2268232136
 10
5.1879930197
 20
18.2377781938
  0
LINE
  5
4C2
100
AcDbEntity
  8
ASSI
100
AcDbLine
 62
250
  6
CONTINUOUS
 10
3.9429234261
 20
10.5801407784
 11
3.9384165329
 21
10.504996563
  0
LWPOLYLINE
  5
4C3
100
AcDbEntity
  8
ASSI
100
AcDbPolyline
 62
250
  6
CONTINUOUS
 90
3
 70
0
 10
5.9309785862
 20
16.5275294072
 10
5.9300170447
 20
16.5140283134
 10
5.9296963903
 20
16.5008086349
  0
LINE
  5
4C4
100
AcDbEntity
  8
ASSI
100
AcDbLine
 62
250
  6
CONTINUOUS
 10
5.9326096199
 20
16.5414875504
 11
5.9309926772
 21
16.5276789233
  0
LINE
  5
4C5
100
AcDbEntity
  8
ASSI
100
AcDbLine
 62
7
  6
CONTINUOUS
 10
5.8763445298
 20
16.6233646165
 11
5.8722462639
 21
16.5955563982
  0
LINE
  5
4C6
100
AcDbEntity
  8
ASSI
100
AcDbLine
 62
250
  6
CONTINUOUS
 10
5.9348669801
 20
16.5554828604
 11
5.9325784326
 21
16.5412630808
  0
LWPOLYLINE
  5
4C7
100
AcDbEntity
  8
ASSI
100
AcDbPolyline
 62
250
  6
CONTINUOUS
 90
6
 70
0
 10
8.0019204842
 20
15.5355786717
 10
7.9991514944
 20
15.5218253301
 10
7.9969888284
 20
15.508198741
 10
7.9954396481
 20
15.4947483848
 10
7.9945083963
 20
15.4815194195
 10
7.994197713
 20
15.4685579736
  0
LINE
  5
4C8
100
AcDbEntity
  8
ASSI
100
AcDbLine
 62
250
  6
CONTINUOUS
 10
8.0019204842
 20
15.5355786717
 11
8.0054705806
 21
15.5501039322
  0
LWPOLYLINE
  5
4C9
100
AcDbEntity
  8
ASSI
100
AcDbPolyline
 62
250
  6
CONTINUOUS
 90
7
 70
0
 10
8.2767993245
 20
15.4834892842
 10
8.2761184516
 20
15.4807319626
 10
8.275555655
 20
15.4779786882
 10
8.2751168903
 20
15.4752593346
 10
8.2748041427
 20
15.4725838595
 10
8.2746154271
 20
15.4699423052
 10
8.2745507434
 20
15.4673346717
  0
LWPOLYLINE
  5
4CA
100
AcDbEntity
  8
CURVE
100
AcDbPolyline
 62
250
  6
CONTINUOUS
 90
4
 70
0
 10
-1.7208016209
 20
-20.5886808603
 10
-1.7998070229
 20
-20.9080606875
 10
-1.8784782175
 20
-21.2276244903
 10
-1.9568245595
 20
-21.5474123809
  0
LINE
  5
4CB
100
AcDbEntity
  8
ASSI
100
AcDbLine
 62
7
  6
CONTINUOUS
 10
9.9306598929
 20
19.7791593742
 11
9.9267641003
 21
19.7653633385
  0
LINE
  5
4CC
100
AcDbEntity
  8
ASSI
100
AcDbLine
 62
7
  6
CONTINUOUS
 10
10.5286143407
 20
16.2140675787
 11
10.5365153662
 21
16.2383599594
  0
LWPOLYLINE
  5
4CD
100
AcDbEntity
  8
ASSI
100
AcDbPolyline
 62
250
  6
CONTINUOUS
 90
3
 70
0
 10
8.0137518332
 20
15.5770822602
 10
8.0092335743
 20
15.5632557621
 10
8.00528513
 20
15.549404995
  0
LINE
  5
4CE
100
AcDbEntity
  8
ASSI
100
AcDbLine
 62
250
  6
CONTINUOUS
 10
10.4881508569
 20
16.1452722908
 11
10.4853337974
 21
16.1379061995
  0
LINE
  5
4CF
100
AcDbEntity
  8
ASSI
100
AcDbLine
 62
7
  6
CONTINUOUS
 10
10.5183666151
 20
16.190218212
 11
10.5286143407
 21
16.2140675787
  0
LINE
  5
4D0
100
AcDbEntity
  8
ASSI
100
AcDbLine
 62
250
  6
CONTINUOUS
 10
10.4818992202
 20
16.2072398281
 11
10.4842939605
 21
16.2125065955
  0
LINE
  5
4D1
100
AcDbEntity
  8
0
100
AcDbLine
 62
7
  6
CONTINUOUS
 10
30.3491451121
 20
17.0590003998
 11
19.1974416903
 21
11.1637279858
  0
LINE
  5
4D2
100
AcDbEntity
  8
DRAFT
100
AcDbLine
 62
7
  6
CONTINUOUS
 10
36.3928751449
 20
21.2303905303
 11
31.6684786773
 21
18.7842626521
  0
LINE
  5
4D3
100
AcDbEntity
  8
0
100
AcDbLine
 62
7
  6
CONTINUOUS
 10
30.3491451121
 20
15.5060083076
 11
19.1974416903
 21
9.853353778
  0
LINE
  5
4D4
100
AcDbEntity
  8
IMPORT_IGES
100
AcDbLine
 62
7
  6
CONTINUOUS
 10
-3.8468871959
 20
-0.5401702036
 11
-3.3008659658
 21
-0.2671595886
  0
LINE
  5
4D5
100
AcDbEntity
  8
IMPORT_IGES
100
AcDbLine
 62
7
  6
CONTINUOUS
 10
-3.1889177472
 20
-0.9347927486
 11
-2.8837199684
 21
-0.7822043617
  0
LINE
  5
4D6
100
AcDbEntity
  8
ASSI
100
AcDbLine
 62
7
  6
CONTINUOUS
 10
34.5037561789
 20
17.4769831456
 11
35.5644163507
 21
18.0073132315
  0
LINE
  5
4D7
100
AcDbEntity
  8
IMPORT_IGES
100
AcDbLine
 62
7
  6
CONTINUOUS
 10
-2.6867789603
 20
-1.1779551727
 11
-2.6946857936
 21
-1.1819087254
  0
LINE
  5
4D8
100
AcDbEntity
  8
0
100
AcDbLine
 62
7
  6
CONTINUOUS
 10
29.5984019277
 20
15.8813798998
 11
18.7022307372
 21
10.4548533123
  0
LINE
  5
4D9
100
AcDbEntity
  8
ASSI
100
AcDbLine
 62
250
  6
CONTINUOUS
 10
-5.2341515136
 20
-0.4874306795
 11
-3.953358448
 21
0.1309930636
  0
LINE
  5
4DA
100
AcDbEntity
  8
ASSI
100
AcDbLine
 62
7
  6
CONTINUOUS
 10
-4.8225283778
 20
0.3501609366
 11
-4.8204228111
 21
0.3511614911
  0
LINE
  5
4DB
100
AcDbEntity
  8
ASSI
100
AcDbLine
 62
7
  6
CONTINUOUS
 10
-4.8224946182
 20
0.3501727956
 11
-4.7876898782
 21
0.3648339404
  0
LINE
  5
4DC
100
AcDbEntity
  8
ASSI
100
AcDbLine
 62
7
  6
CONTINUOUS
 10
-4.7876898782
 20
0.3648339404
 11
-4.7413345286
 21
0.3786275923
  0
LWPOLYLINE
  5
4DD
100
AcDbEntity
  8
0
100
AcDbPolyline
 62
7
  6
CONTINUOUS
 90
3
 70
0
 10
-4.3594426734
 20
0.3315691964
 10
-4.2988071666
 20
0.3042202391
 10
-4.285715588
 20
0.2977335377
  0
LINE
  5
4DE
100
AcDbEntity
  8
ASSI
100
AcDbLine
 62
7
  6
CONTINUOUS
 10
-4.3523886753
 20
0.3280111238
 11
-4.2917463951
 21
0.3006637613
  0
LWPOLYLINE
  5
4DF
100
AcDbEntity
  8
0
100
AcDbPolyline
 62
250
  6
CONTINUOUS
 90
13
 70
0
 10
-5.6655396485
 20
-0.4778315316
 10
-5.6364999106
 20
-0.4910702615
 10
-5.6042552615
 20
-0.5023356236
 10
-5.5693583592
 20
-0.5114345849
 10
-5.532407315
 20
-0.5182112424
 10
-5.494035399
 20
-0.522549502
 10
-5.4549001815
 20
-0.5243750576
 10
-5.4156723494
 20
-0.523656656
 10
-5.3770241474
 20
-0.5204066413
 10
-5.3396178167
 20
-0.5146807286
 10
-5.3040943569
 20
-0.5065770553
 10
-5.2710625365
 20
-0.4962345129
 10
-5.2410883954
 20
-0.4838303556
  0
LWPOLYLINE
  5
4E0
100
AcDbEntity
  8
ASSI
100
AcDbPolyline
 62
250
  6
CONTINUOUS
 90
13
 70
0
 10
-5.6585857787
 20
-0.4814405234
 10
-5.629545478
 20
-0.4946774531
 10
-5.5973008998
 20
-0.5059411024
 10
-5.5624046434
 20
-0.5150384874
 10
-5.525454747
 20
-0.5218137484
 10
-5.4870843955
 20
-0.5261508275
 10
-5.4479510639
 20
-0.5279754462
 10
-5.4087253372
 20
-0.5272563708
 10
-5.3700793544
 20
-0.5240059556
 10
-5.3326752498
 20
-0.5182799169
 10
-5.2971539185
 20
-0.5101763838
 10
-5.2641240291
 20
-0.4998342313
 10
-5.23415153
 20
-0.4874306883
  0
LINE
  5
4E1
100
AcDbEntity
  8
ASSI
100
AcDbLine
 62
7
  6
CONTINUOUS
 10
-4.2917463951
 20
0.3006637613
 11
-4.2786528912
 21
0.2941771475
  0
LINE
  5
4E2
100
AcDbEntity
  8
ASSI
100
AcDbLine
 62
7
  6
CONTINUOUS
 10
-3.8425205297
 20
0.0756525685
 11
-3.6476119039
 21
-0.0213191315
  0
LINE
  5
4E3
100
AcDbEntity
  8
0
100
AcDbLine
 62
7
  6
CONTINUOUS
 10
-3.8496183461
 20
0.0791918757
 11
-3.6547254656
 21
-0.0177873774
  0
LINE
  5
4E4
100
AcDbEntity
  8
0
100
AcDbLine
 62
250
  6
CONTINUOUS
 10
-4.0135967844
 20
0.2877776865
 11
-3.7326656591
 21
0.1478499307
  0
LINE
  5
4E5
100
AcDbEntity
  8
ASSI
100
AcDbLine
 62
250
  6
CONTINUOUS
 10
-4.006505731
 20
0.2842349352
 11
-3.7255518161
 21
0.1443179874
  0
LINE
  5
4E6
100
AcDbEntity
  8
IMPORT_IGES
100
AcDbLine
 62
7
  6
CONTINUOUS
 10
-3.1889177472
 20
-0.9347927486
 11
-2.6946632848
 21
-1.1819199798
  0
LINE
  5
4E7
100
AcDbEntity
  8
0
100
AcDbLine
 62
250
  6
CONTINUOUS
 10
19.1974416903
 20
-11.7972813166
 11
18.6879824713
 21
-11.5425517071
  0
LINE
  5
4E8
100
AcDbEntity
  8
0
100
AcDbLine
 62
7
  6
CONTINUOUS
 10
-4.0963278361
 20
0.2025629284
 11
-3.8496183461
 21
0.0791918757
  0
LINE
  5
4E9
100
AcDbEntity
  8
ASSI
100
AcDbLine
 62
7
  6
CONTINUOUS
 10
-4.0892499368
 20
0.1990140031
 11
-3.8425205297
 21
0.0756525685
  0
LWPOLYLINE
  5
4EA
100
AcDbEntity
  8
0
100
AcDbPolyline
 62
250
  6
CONTINUOUS
 90
3
 70
0
 10
-4.3634960734
 20
0.463290116
 10
-4.2936287007
 20
0.4281340923
 10
-4.0135967844
 20
0.2877776865
  0
LWPOLYLINE
  5
4EB
100
AcDbEntity
  8
ASSI
100
AcDbPolyline
 62
250
  6
CONTINUOUS
 90
3
 70
0
 10
-4.3564333783
 20
0.4597337902
 10
-4.2865603454
 20
0.4245804871
 10
-4.006505731
 20
0.2842349352
  0
LINE
  5
4EC
100
AcDbEntity
  8
0
100
AcDbLine
 62
7
  6
CONTINUOUS
 10
-4.2857155885
 20
0.297733538
 11
-4.0963278361
 21
0.2025629284
  0
LINE
  5
4ED
100
AcDbEntity
  8
ASSI
100
AcDbLine
 62
7
  6
CONTINUOUS
 10
-4.2786528917
 20
0.2941771477
 11
-4.0892499368
 21
0.1990140031
  0
LINE
  5
4EE
100
AcDbEntity
  8
0
100
AcDbLine
 62
7
  6
CONTINUOUS
 10
-3.6546185874
 20
-0.0178403736
 11
-3.6347499812
 21
-0.027940359
  0
LWPOLYLINE
  5
4EF
100
AcDbEntity
  8
ASSI
100
AcDbPolyline
 62
250
  6
CONTINUOUS
 90
3
 70
0
 10
-3.7255518161
 20
0.1443179874
 10
-3.6386007971
 20
0.0973189307
 10
-3.553290118
 20
0.0447156689
  0
LWPOLYLINE
  5
4F0
100
AcDbEntity
  8
0
100
AcDbPolyline
 62
250
  6
CONTINUOUS
 90
3
 70
0
 10
-3.7326656591
 20
0.1478499307
 10
-3.6457216268
 20
0.1008475081
 10
-3.5604177883
 20
0.0482409282
  0
LWPOLYLINE
  5
4F1
100
AcDbEntity
  8
ASSI
100
AcDbPolyline
 62
250
  6
CONTINUOUS
 90
8
 70
0
 10
-2.4221289856
 20
-2.0995368629
 10
-2.4485695261
 20
-2.0850355327
 10
-2.47099029
 20
-2.0689684133
 10
-2.4890070445
 20
-2.0516108528
 10
-2.5023110297
 20
-2.0332603141
 10
-2.5106742503
 20
-2.0142312773
 10
-2.5139533828
 20
-1.99484985
 10
-2.5140008641
 20
-1.9916761126
  0
LWPOLYLINE
  5
4F2
100
AcDbEntity
  8
0
100
AcDbPolyline
 62
250
  6
CONTINUOUS
 90
5
 70
0
 10
-2.4293472998
 20
-2.0960597628
 10
-2.4557841949
 20
-2.0815581737
 10
-2.4782014907
 20
-2.0654911108
 10
-2.4962150536
 20
-2.0481338928
 10
-2.5095162105
 20
-2.0297839458
  0
LINE
  5
4F3
100
AcDbEntity
  8
0
100
AcDbLine
 62
7
  6
CONTINUOUS
 10
-3.6347499812
 20
-0.027940359
 11
-3.5620936254
 21
-0.0687680562
  0
LINE
  5
4F4
100
AcDbEntity
  8
ASSI
100
AcDbLine
 62
250
  6
CONTINUOUS
 10
-3.665929289
 20
-0.0099112286
 11
-3.6476119037
 21
-0.0213191316
  0
LINE
  5
4F5
100
AcDbEntity
  8
ASSI
100
AcDbLine
 62
250
  6
CONTINUOUS
 10
-4.2963614709
 20
0.3052802372
 11
-4.2786528917
 21
0.2941771477
  0
LWPOLYLINE
  5
4F6
100
AcDbEntity
  8
0
100
AcDbPolyline
 62
7
  6
CONTINUOUS
 90
22
 70
0
 10
-3.5620936254
 20
-0.0687680562
 10
-3.4882290042
 20
-0.116489799
 10
-3.4137042247
 20
-0.1710418608
 10
-3.3391316195
 20
-0.232237245
 10
-3.2651323782
 20
-0.2997710952
 10
-3.1922116887
 20
-0.3733777884
 10
-3.1208809388
 20
-0.4527151061
 10
-3.0517037121
 20
-0.5373075557
 10
-2.9851533023
 20
-0.6267218919
 10
-2.921675509
 20
-0.7204703144
 10
-2.8617357714
 20
-0.8179612878
 10
-2.8057214005
 20
-0.9186501135
 10
-2.7539827658
 20
-1.0219537672
 10
-2.706879032
 20
-1.127192375
 10
-2.6646725319
 20
-1.233785031
 10
-2.6276114949
 20
-1.341052667
 10
-2.5959566374
 20
-1.4481332091
 10
-2.5698224838
 20
-1.5544083579
 10
-2.5492816038
 20
-1.6592351037
 10
-2.5344045589
 20
-1.7617021084
 10
-2.5251251155
 20
-1.8610839178
 10
-2.5212936253
 20
-1.9568666204
  0
LWPOLYLINE
  5
4F7
100
AcDbEntity
  8
0
100
AcDbPolyline
 62
250
  6
CONTINUOUS
 90
23
 70
0
 10
-3.5604177883
 20
0.0482409282
 10
-3.4767584566
 20
-0.0099719248
 10
-3.3946214271
 20
-0.0739747024
 10
-3.3141360687
 20
-0.1435872789
 10
-3.2356845682
 20
-0.2182663758
 10
-3.1590852122
 20
-0.2981875268
 10
-3.0845266009
 20
-0.3831786374
 10
-3.0129494753
 20
-0.4721765493
 10
-2.9443883472
 20
-0.5652636736
 10
-2.8788183737
 20
-0.6623624941
 10
-2.8170953934
 20
-0.7621720518
 10
-2.7594194739
 20
-0.8643032858
 10
-2.7056017558
 20
-0.9691509739
 10
-2.6559165378
 20
-1.0765908597
 10
-2.6101315775
 20
-1.1870928859
 10
-2.5684865458
 20
-1.3001909649
 10
-2.5319651403
 20
-1.4143575706
 10
-2.5006482688
 20
-1.5299289227
 10
-2.4744619998
 20
-1.6465724413
 10
-2.4541607098
 20
-1.7617588611
 10
-2.4399986005
 20
-1.8746464931
 10
-2.431727179
 20
-1.9860799734
 10
-2.4293472998
 20
-2.0960597628
  0
LWPOLYLINE
  5
4F8
100
AcDbEntity
  8
ASSI
100
AcDbPolyline
 62
250
  6
CONTINUOUS
 90
23
 70
0
 10
-3.553290118
 20
0.0447156689
 10
-3.4696240908
 20
-0.0134939134
 10
-3.3874805013
 20
-0.0774934629
 10
-3.3069887263
 20
-0.1471028583
 10
-3.228530978
 20
-0.2217788341
 10
-3.1519255264
 20
-0.3016969178
 10
-3.0773609869
 20
-0.3866850212
 10
-3.0057781743
 20
-0.4756800186
 10
-2.937211603
 20
-0.5687643212
 10
-2.8716364265
 20
-0.6658604129
 10
-2.8099085476
 20
-0.7656673679
 10
-2.7522280517
 20
-0.8677961275
 10
-2.6984060612
 20
-0.9726414679
 10
-2.6487168868
 20
-1.0800791589
 10
-2.602928264
 20
-1.1905791366
 10
-2.5612798859
 20
-1.3036753207
 10
-2.5247555279
 20
-1.4178402326
 10
-2.4934361029
 20
-1.5334100985
 10
-2.4672476752
 20
-1.6500523331
 10
-2.4469446841
 20
-1.7652376999
 10
-2.432781353
 20
-1.8781245201
 10
-2.4245091684
 20
-1.9895574207
 10
-2.4221289856
 20
-2.0995368629
  0
LINE
  5
4F9
100
AcDbEntity
  8
ASSI
100
AcDbLine
 62
250
  6
CONTINUOUS
 10
-4.576185671
 20
21.362371186
 11
-4.5800147632
 21
21.3714625031
  0
LINE
  5
4FA
100
AcDbEntity
  8
ASSI
100
AcDbLine
 62
250
  6
CONTINUOUS
 10
-4.5798619061
 20
21.3710652803
 11
-4.5832163883
 21
21.3806469731
  0
LINE
  5
4FB
100
AcDbEntity
  8
ASSI
100
AcDbLine
 62
250
  6
CONTINUOUS
 10
-2.0987267591
 20
22.8866738021
 11
-2.0980435035
 21
22.8845561434
  0
LINE
  5
4FC
100
AcDbEntity
  8
ASSI
100
AcDbLine
 62
7
  6
CONTINUOUS
 10
-2.0466663474
 20
22.9976296839
 11
-2.0537274057
 21
23.021940155
  0
LINE
  5
4FD
100
AcDbEntity
  8
ASSI
100
AcDbLine
 62
250
  6
CONTINUOUS
 10
5.9303142432
 20
16.1657351212
 11
5.9311567662
 21
16.1564547043
  0
LWPOLYLINE
  5
4FE
100
AcDbEntity
  8
ASSI
100
AcDbPolyline
 62
250
  6
CONTINUOUS
 90
16
 70
0
 10
5.0942440756
 20
11.3018526574
 10
5.0903803488
 20
11.3470638112
 10
5.0827947203
 20
11.3937639556
 10
5.0715701127
 20
11.4414423601
 10
5.0568292516
 20
11.4895775781
 10
5.0387333171
 20
11.5376431735
 10
5.0174801773
 20
11.5851134772
 10
4.9933022321
 20
11.6314693124
 10
4.9664638906
 20
11.6762036497
 10
4.9372586733
 20
11.718827179
 10
4.9060059714
 20
11.7588737041
 10
4.873047595
 20
11.7959051803
 10
4.8387440574
 20
11.8295164998
 10
4.8034705619
 20
11.859340005
 10
4.7676128903
 20
11.8850494953
 10
4.7315632344
 20
11.9063637466
  0
LWPOLYLINE
  5
4FF
100
AcDbEntity
  8
ASSI
100
AcDbPolyline
 62
7
  6
CONTINUOUS
 90
8
 70
0
 10
5.5738894864
 20
21.8613161591
 10
5.5727337079
 20
21.8846147244
 10
5.5683919078
 20
21.9077417355
 10
5.5608539248
 20
21.9306772157
 10
5.549925796
 20
21.9537812152
 10
5.535761198
 20
21.9766070059
 10
5.5188686008
 20
21.9979128564
 10
5.4993358993
 20
22.0173326384
  0
LWPOLYLINE
  5
500
100
AcDbEntity
  8
ASSI
100
AcDbPolyline
 62
7
  6
CONTINUOUS
 90
16
 70
0
 10
5.5830888284
 20
18.0429448137
 10
5.5821396527
 20
18.0658916208
 10
5.5792703069
 20
18.0896400707
 10
5.5744920464
 20
18.1139405914
 10
5.5678104109
 20
18.1386243142
 10
5.5592935424
 20
18.163327394
 10
5.5491357836
 20
18.1875011802
 10
5.5375883245
 20
18.2106916354
 10
5.524728369
 20
18.2328717779
 10
5.5105075636
 20
18.2541250046
 10
5.4949163587
 20
18.2743616114
 10
5.4782232189
 20
18.2931393642
 10
5.4607972452
 20
18.3100351166
 10
5.4429073806
 20
18.3248313283
 10
5.4246884653
 20
18.3374547488
 10
5.406339057
 20
18.3477930753
  0
LWPOLYLINE
  5
501
100
AcDbEntity
  8
ASSI
100
AcDbPolyline
 62
250
  6
CONTINUOUS
 90
28
 70
0
 10
5.364742791
 20
17.9329299322
 10
5.3643893863
 20
17.944004536
 10
5.3635617126
 20
17.9555337624
 10
5.3622317501
 20
17.967499235
 10
5.3603684343
 20
17.9799036051
 10
5.3579482196
 20
17.9926944062
 10
5.3549657147
 20
18.0057615908
 10
5.3514081477
 20
18.0190672961
 10
5.3472653517
 20
18.0325691802
 10
5.3425577671
 20
18.0461431215
 10
5.3372907466
 20
18.0597376392
 10
5.3314693917
 20
18.0733073365
 10
5.3251339997
 20
18.0867367548
 10
5.3183088888
 20
18.0999653249
 10
5.3110090907
 20
18.1129558327
 10
5.303274214
 20
18.1256320081
 10
5.2951363629
 20
18.1379401115
 10
5.2866190424
 20
18.1498436983
 10
5.2777544317
 20
18.1612964357
 10
5.2685735105
 20
18.1722570812
 10
5.2591090701
 20
18.1826854213
 10
5.2493983331
 20
18.1925401103
 10
5.2394760343
 20
18.2017856709
 10
5.2293776159
 20
18.2103889328
 10
5.2191429223
 20
18.2183165181
 10
5.2088098851
 20
18.2255398767
 10
5.1984142152
 20
18.2320346405
 10
5.1879930197
 20
18.2377781938
  0
LWPOLYLINE
  5
502
100
AcDbEntity
  8
ASSI
100
AcDbPolyline
 62
250
  6
CONTINUOUS
 90
7
 70
0
 10
7.994197713
 20
-26.4655837665
 10
7.9943951483
 20
-26.4757026452
 10
7.9950119292
 20
-26.4859011874
 10
7.9960836279
 20
-26.4961334685
 10
7.997649321
 20
-26.5063710575
 10
7.9997418494
 20
-26.5165357343
 10
8.0023771623
 20
-26.5265074941
  0
LWPOLYLINE
  5
503
100
AcDbEntity
  8
ASSI
100
AcDbPolyline
 62
250
  6
CONTINUOUS
 90
3
 70
0
 10
5.9296963901
 20
16.1835384177
 10
5.9298507415
 20
16.1745601207
 10
5.9303294286
 20
16.165521801
  0
LWPOLYLINE
  5
504
100
AcDbEntity
  8
ASSI
100
AcDbPolyline
 62
250
  6
CONTINUOUS
 90
28
 70
0
 10
8.2745507434
 20
-26.4668070685
 10
8.274578932
 20
-26.4688479417
 10
8.2747064354
 20
-26.4708855718
 10
8.2749332535
 20
-26.4729199587
 10
8.2752544937
 20
-26.4749663048
 10
8.2756750487
 20
-26.4770094078
 10
8.2762095959
 20
-26.4790036604
 10
8.2768618155
 20
-26.4809485402
 10
8.2776280274
 20
-26.4828445696
 10
8.2785118687
 20
-26.484647709
 10
8.2795174341
 20
-26.4863556572
 10
8.2806406289
 20
-26.4879707155
 10
8.2818728051
 20
-26.4894557471
 10
8.2832170509
 20
-26.49080654
 10
8.2846702781
 20
-26.4920273063
 10
8.2862145744
 20
-26.4930935455
 10
8.2878506958
 20
-26.4940009481
 10
8.2895778862
 20
-26.4947538236
 10
8.2913759654
 20
-26.4953405999
 10
8.2932453725
 20
-26.4957586626
 10
8.2951856685
 20
-26.4960106263
 10
8.2971753559
 20
-26.496092762
 10
8.299215132
 20
-26.4960029365
 10
8.3013042995
 20
-26.4957432831
 10
8.3034192695
 20
-26.4953164728
 10
8.3055521792
 20
-26.494723396
 10
8.3077108913
 20
-26.4939631623
 10
8.309895406
 20
-26.4930357717
  0
LWPOLYLINE
  5
505
100
AcDbEntity
  8
ASSI
100
AcDbPolyline
 62
7
  6
CONTINUOUS
 90
9
 70
0
 10
5.8711177667
 20
16.2542202413
 10
5.8711509055
 20
16.250150655
 10
5.8729877336
 20
16.2236893346
 10
5.8776393741
 20
16.1977564606
 10
5.8850515815
 20
16.1727281339
 10
5.8950541246
 20
16.1490478085
 10
5.9075214947
 20
16.1268699334
 10
5.9223468198
 20
16.1063370438
 10
5.9392675038
 20
16.0877743786
  0
LINE
  5
506
100
AcDbEntity
  8
ASSI
100
AcDbLine
 62
7
  6
CONTINUOUS
 10
5.8711177466
 20
16.5715193131
 11
5.8711177466
 21
16.2542505128
  0
LINE
  5
507
100
AcDbEntity
  8
ASSI
100
AcDbLine
 62
250
  6
CONTINUOUS
 10
5.9296963903
 20
16.5008086349
 11
5.9296963903
 21
16.1835398346
  0
LINE
  5
508
100
AcDbEntity
  8
ASSI
100
AcDbLine
 62
250
  6
CONTINUOUS
 10
6.0424659283
 20
21.4433603606
 11
6.0424659283
 21
21.0249253603
  0
LINE
  5
509
100
AcDbEntity
  8
ASSI
100
AcDbLine
 62
7
  6
CONTINUOUS
 10
6.585980867
 20
15.7526657944
 11
6.585980867
 21
15.2986916927
  0
LINE
  5
50A
100
AcDbEntity
  8
ASSI
100
AcDbLine
 62
250
  6
CONTINUOUS
 10
6.6592041717
 20
15.716054142
 11
6.6592041717
 21
15.2069799978
  0
LINE
  5
50B
100
AcDbEntity
  8
ASSI
100
AcDbLine
 62
7
  6
CONTINUOUS
 10
6.7919416039
 20
15.6511008141
 11
6.7919416039
 21
14.4432180748
  0
LINE
  5
50C
100
AcDbEntity
  8
ASSI
100
AcDbLine
 62
250
  6
CONTINUOUS
 10
6.8651649086
 20
15.7158055754
 11
6.8651649086
 21
14.35150638
  0
LINE
  5
50D
100
AcDbEntity
  8
ASSI
100
AcDbLine
 62
250
  6
CONTINUOUS
 10
6.8651649086
 20
-25.583798564
 11
6.8651649086
 21
-25.4688068285
  0
LINE
  5
50E
100
AcDbEntity
  8
ASSI
100
AcDbLine
 62
250
  6
CONTINUOUS
 10
7.0587291947
 20
15.6190234324
 11
7.0587291947
 21
14.2547242369
  0
LINE
  5
50F
100
AcDbEntity
  8
ASSI
100
AcDbLine
 62
250
  6
CONTINUOUS
 10
7.0587291947
 20
-25.680580707
 11
7.0587291947
 21
-25.3890711162
  0
LINE
  5
510
100
AcDbEntity
  8
ASSI
100
AcDbLine
 62
250
  6
CONTINUOUS
 10
7.4091704826
 20
15.3410709865
 11
7.4091704826
 21
14.2643437008
  0
LINE
  5
511
100
AcDbEntity
  8
ASSI
100
AcDbLine
 62
250
  6
CONTINUOUS
 10
7.4091704826
 20
-25.4342913852
 11
7.4091704826
 21
-25.2447124316
  0
LINE
  5
512
100
AcDbEntity
  8
ASSI
100
AcDbLine
 62
7
  6
CONTINUOUS
 10
7.9518965454
 20
15.0697079552
 11
7.9518965454
 21
14.560633811
  0
LINE
  5
513
100
AcDbEntity
  8
ASSI
100
AcDbLine
 62
250
  6
CONTINUOUS
 10
7.994197713
 20
15.4685579736
 11
7.994197713
 21
15.1513065172
  0
LINE
  5
514
100
AcDbEntity
  8
ASSI
100
AcDbLine
 62
250
  6
CONTINUOUS
 10
7.994197713
 20
-26.4655837665
 11
7.994197713
 21
-26.1483135492
  0
LINE
  5
515
100
AcDbEntity
  8
ASSI
100
AcDbLine
 62
250
  6
CONTINUOUS
 10
8.2745507434
 20
15.4673346717
 11
8.2745507434
 21
15.1500658713
  0
LINE
  5
516
100
AcDbEntity
  8
ASSI
100
AcDbLine
 62
250
  6
CONTINUOUS
 10
8.2745507434
 20
-26.4668070685
 11
8.2745507434
 21
-26.1495382681
  0
LWPOLYLINE
  5
517
100
AcDbEntity
  8
ASSI
100
AcDbPolyline
 62
250
  6
CONTINUOUS
 90
10
 70
0
 10
8.2745507434
 20
15.4673346717
 10
8.2745784019
 20
15.4693900813
 10
8.2747044908
 20
15.4715384877
 10
8.2749290102
 20
15.4737798909
 10
8.2752469967
 20
15.4761246326
 10
8.2756634137
 20
15.4785623711
 10
8.2761931506
 20
15.4810620812
 10
8.2768398451
 20
15.4836268101
 10
8.2775998595
 20
15.4862535106
 10
8.2784771705
 20
15.4889020152
  0
LWPOLYLINE
  5
518
100
AcDbEntity
  8
ASSI
100
AcDbPolyline
 62
250
  6
CONTINUOUS
 90
22
 70
0
 10
7.9941977133
 20
-26.1483135493
 10
7.9943528689
 20
-26.1391804988
 10
7.9948349716
 20
-26.1296617841
 10
7.9956683363
 20
-26.1197643363
 10
7.9968791099
 20
-26.1094824268
 10
7.9984901646
 20
-26.0988439878
 10
8.0005154818
 20
-26.0879121986
 10
8.0029726698
 20
-26.0767069949
 10
8.0058781429
 20
-26.0652516443
 10
8.0092326191
 20
-26.0536203001
 10
8.0130450278
 20
-26.0418416911
 10
8.0173225812
 20
-26.0299472891
 10
8.0220511349
 20
-26.0180185629
 10
8.0272297116
 20
-26.0060902083
 10
8.0328555715
 20
-25.9941983226
 10
8.0388997792
 20
-25.9824260844
 10
8.0453514717
 20
-25.9708101245
 10
8.0521984904
 20
-25.9593868509
 10
8.0593990195
 20
-25.9482347812
 10
8.0669243333
 20
-25.9374008165
 10
8.0747632502
 20
-25.9269035594
 10
8.0828946256
 20
-25.9167750748
  0
LWPOLYLINE
  5
519
100
AcDbEntity
  8
ASSI
100
AcDbPolyline
 62
250
  6
CONTINUOUS
 90
7
 70
0
 10
7.994197713
 20
15.4685579736
 10
7.9943927862
 20
15.4788109636
 10
7.9950025535
 20
15.4895602719
 10
7.9960627239
 20
15.5007960357
 10
7.9976125152
 20
15.5125294702
 10
7.9996850154
 20
15.524715683
 10
8.0022966141
 20
15.5372510221
  0
LWPOLYLINE
  5
51A
100
AcDbEntity
  8
ASSI
100
AcDbPolyline
 62
250
  6
CONTINUOUS
 90
10
 70
0
 10
5.0942440586
 20
-25.9806703242
 10
5.0903801899
 20
-26.0257798101
 10
5.0827942714
 20
-26.0684125506
 10
5.071569271
 20
-26.1081022662
 10
5.0568279581
 20
-26.1444148656
 10
5.0387315601
 20
-26.1769531933
 10
5.0174779997
 20
-26.2053613736
 10
4.9932997296
 20
-26.2293287029
 10
4.9664611905
 20
-26.2485930474
 10
4.9405085963
 20
-26.2616382185
  0
LINE
  5
51B
100
AcDbEntity
  8
ASSI
100
AcDbLine
 62
7
  6
CONTINUOUS
 10
9.9206866717
 20
19.7315957641
 11
9.9186899565
 21
19.7116366001
  0
LINE
  5
51C
100
AcDbEntity
  8
ASSI
100
AcDbLine
 62
7
  6
CONTINUOUS
 10
10.54203079
 20
16.2626700766
 11
10.5453086135
 21
16.2878531356
  0
LINE
  5
51D
100
AcDbEntity
  8
ASSI
100
AcDbLine
 62
7
  6
CONTINUOUS
 10
9.9522432474
 20
19.7459473356
 11
9.9545032214
 21
19.7632265234
  0
LINE
  5
51E
100
AcDbEntity
  8
ASSI
100
AcDbLine
 62
7
  6
CONTINUOUS
 10
9.923384458
 20
19.7494129154
 11
9.9206866717
 21
19.7315957641
  0
LINE
  5
51F
100
AcDbEntity
  8
ASSI
100
AcDbLine
 62
7
  6
CONTINUOUS
 10
9.9267641003
 20
19.7653633385
 11
9.923384458
 21
19.7494129154
  0
LINE
  5
520
100
AcDbEntity
  8
ASSI
100
AcDbLine
 62
7
  6
CONTINUOUS
 10
10.5364898845
 20
16.2382465105
 11
10.54203079
 21
16.2626700766
  0
LINE
  5
521
100
AcDbEntity
  8
ASSI
100
AcDbLine
 62
7
  6
CONTINUOUS
 10
10.5365153662
 20
16.2383599594
 11
10.5420345418
 21
16.262698865
  0
LINE
  5
522
100
AcDbEntity
  8
0
100
AcDbLine
 62
7
  6
CONTINUOUS
 10
30.3840270955
 20
12.747313505
 11
19.1974416903
 21
6.8336009669
  0
LINE
  5
523
100
AcDbEntity
  8
DRAFT
100
AcDbLine
 62
7
  6
CONTINUOUS
 10
36.3928751449
 20
17.5930838344
 11
31.6684786773
 21
15.1469559562
  0
LINE
  5
524
100
AcDbEntity
  8
DRAFT
100
AcDbLine
 62
7
  6
CONTINUOUS
 10
36.3928751449
 20
16.9002635114
 11
31.7032168866
 21
14.4721218675
  0
LINE
  5
525
100
AcDbEntity
  8
0
100
AcDbLine
 62
7
  6
CONTINUOUS
 10
34.6444160244
 20
17.4066532229
 11
30.9294554693
 21
15.5164675601
  0
LINE
  5
526
100
AcDbEntity
  8
0
100
AcDbLine
 62
250
  6
CONTINUOUS
 10
19.1974416903
 20
-7.4671542977
 11
18.6879824713
 21
-7.2124246882
  0
LINE
  5
527
100
AcDbEntity
  8
ASSI
100
AcDbLine
 62
250
  6
CONTINUOUS
 10
-4.5721041415
 20
21.354234021
 11
-4.5763715616
 21
21.3627757468
  0
LINE
  5
528
100
AcDbEntity
  8
ASSI
100
AcDbLine
 62
7
  6
CONTINUOUS
 10
-2.0535896034
 20
23.0215453402
 11
-2.0630424627
 21
23.0446051285
  0
LINE
  5
529
100
AcDbEntity
  8
ASSI
100
AcDbLine
 62
250
  6
CONTINUOUS
 10
3.7328874704
 20
23.1433714026
 11
3.7316025105
 21
23.1498554845
  0
LINE
  5
52A
100
AcDbEntity
  8
ASSI
100
AcDbLine
 62
250
  6
CONTINUOUS
 10
5.8730238579
 20
16.240477248
 11
5.8711177557
 21
16.2542202413
  0
LINE
  5
52B
100
AcDbEntity
  8
ASSI
100
AcDbLine
 62
250
  6
CONTINUOUS
 10
5.8730238585
 20
16.5577460463
 11
5.8711177554
 21
16.5714895457
  0
LINE
  5
52C
100
AcDbEntity
  8
ASSI
100
AcDbLine
 62
250
  6
CONTINUOUS
 10
5.9311242748
 20
16.1567482853
 11
5.9323590277
 21
16.1473793123
  0
LWPOLYLINE
  5
52D
100
AcDbEntity
  8
ASSI
100
AcDbPolyline
 62
250
  6
CONTINUOUS
 90
13
 70
0
 10
8.309895406
 20
15.5276953189
 10
8.3083796732
 20
15.5507522598
 10
8.304513632
 20
15.5746451804
 10
8.2983634038
 20
15.5989654261
 10
8.2900341783
 20
15.6232970321
 10
8.2796684136
 20
15.6472238403
 10
8.2674433993
 20
15.6703366169
 10
8.2535682249
 20
15.6922400493
 10
8.2382802058
 20
15.7125595058
 10
8.2218408237
 20
15.7309474454
 10
8.2045312525
 20
15.7470893645
 10
8.1866475485
 20
15.7607091757
 10
8.1684955889
 20
15.7715739282
  0
LWPOLYLINE
  5
52E
100
AcDbEntity
  8
ASSI
100
AcDbPolyline
 62
7
  6
CONTINUOUS
 90
7
 70
0
 10
10.5461459047
 20
-24.9878085092
 10
10.54445308
 20
-24.9616129277
 10
10.5400036051
 20
-24.9358975748
 10
10.5328364783
 20
-24.9110554575
 10
10.5231189344
 20
-24.8875120505
 10
10.5109775746
 20
-24.8654107931
 10
10.4965254745
 20
-24.8449161273
  0
LWPOLYLINE
  5
52F
100
AcDbEntity
  8
ASSI
100
AcDbPolyline
 62
250
  6
CONTINUOUS
 90
10
 70
0
 10
8.2745507434
 20
15.1500658713
 10
8.2748216182
 20
15.1450601931
 10
8.2755455886
 20
15.1404717495
 10
8.2767226546
 20
15.1363005404
 10
8.2783810786
 20
15.1325015581
 10
8.2804925982
 20
15.1291198103
 10
8.2829724266
 20
15.1262903206
 10
8.2857923015
 20
15.1240580968
 10
8.2889804852
 20
15.1223781312
 10
8.2925369778
 20
15.1212504236
  0
LWPOLYLINE
  5
530
100
AcDbEntity
  8
ASSI
100
AcDbPolyline
 62
7
  6
CONTINUOUS
 90
8
 70
0
 10
10.5461600644
 20
-24.990871739
 10
10.5446945926
 20
-24.963719669
 10
10.5404625732
 20
-24.937947117
 10
10.5334854607
 20
-24.912920979
 10
10.5238714967
 20
-24.8890729175
 10
10.5116965735
 20
-24.8665714086
 10
10.4971270903
 20
-24.8456982962
 10
10.4800125285
 20
-24.8263493945
  0
LWPOLYLINE
  5
531
100
AcDbEntity
  8
ASSI
100
AcDbPolyline
 62
7
  6
CONTINUOUS
 90
11
 70
0
 10
9.5996986664
 20
20.1107041976
 10
9.5978895793
 20
20.144385137
 10
9.5921520961
 20
20.1772470598
 10
9.5824331048
 20
20.2096420138
 10
9.5687235883
 20
20.2411212077
 10
9.5511641806
 20
20.2710905195
 10
9.5298645288
 20
20.2992240456
 10
9.5048690259
 20
20.3252906665
 10
9.4765614959
 20
20.3487651832
 10
9.4454482125
 20
20.3692542522
 10
9.411294125
 20
20.3869360519
  0
LWPOLYLINE
  5
532
100
AcDbEntity
  8
ASSI
100
AcDbPolyline
 62
250
  6
CONTINUOUS
 90
10
 70
0
 10
10.4900319432
 20
-25.0603115603
 10
10.4897703625
 20
-25.0553105292
 10
10.4890712323
 20
-25.0507345057
 10
10.4879345529
 20
-25.0465834899
 10
10.4863330315
 20
-25.0428129589
 10
10.4842939607
 20
-25.0394674355
 10
10.4818992182
 20
-25.0366804887
 10
10.4791760967
 20
-25.0344966417
 10
10.4760973034
 20
-25.0328713713
 10
10.4726628385
 20
-25.0318046775
  0
LWPOLYLINE
  5
533
100
AcDbEntity
  8
ASSI
100
AcDbPolyline
 62
250
  6
CONTINUOUS
 90
13
 70
0
 10
7.6992137715
 20
22.8779096104
 10
7.6977351383
 20
22.9069546745
 10
7.6933237375
 20
22.9369292638
 10
7.686053384
 20
22.9673318212
 10
7.6760457308
 20
22.9976536282
 10
7.6634682334
 20
23.0273873179
 10
7.6485313478
 20
23.056035364
 10
7.6314850091
 20
23.083118406
 10
7.6126144495
 20
23.1081832702
 10
7.5922354253
 20
23.1308105527
 10
7.5706889339
 20
23.150621637
 10
7.548335507
 20
23.167285029
 10
7.5255491789
 20
23.1805219046
  0
LWPOLYLINE
  5
534
100
AcDbEntity
  8
ASSI
100
AcDbPolyline
 62
250
  6
CONTINUOUS
 90
9
 70
0
 10
7.9941977051
 20
15.1513065218
 10
7.9953966082
 20
15.1267590693
 10
7.9989788241
 20
15.1037371911
 10
8.0048955543
 20
15.0825519163
 10
8.0130678276
 20
15.0634874894
 10
8.0233841128
 20
15.0468032826
 10
8.0357000529
 20
15.0327281872
 10
8.0498460942
 20
15.0214505987
 10
8.0593784984
 20
15.0159669811
  0
LWPOLYLINE
  5
535
100
AcDbEntity
  8
ASSI
100
AcDbPolyline
 62
7
  6
CONTINUOUS
 90
13
 70
0
 10
8.3027582957
 20
22.5725360041
 10
8.2995122676
 20
22.6408035303
 10
8.2904744168
 20
22.7151601757
 10
8.2758779098
 20
22.7859321053
 10
8.2559147951
 20
22.8528267775
 10
8.230738356
 20
22.9156603632
 10
8.2004491731
 20
22.9742657683
 10
8.1652354899
 20
23.028342054
 10
8.1253443648
 20
23.0775265742
 10
8.0810686985
 20
23.121444087
 10
8.0327804395
 20
23.1597625415
 10
7.9809828534
 20
23.1921500598
 10
7.9627435609
 20
23.2017231889
  0
LWPOLYLINE
  5
536
100
AcDbEntity
  8
ASSI
100
AcDbPolyline
 62
250
  6
CONTINUOUS
 90
22
 70
0
 10
8.2295438574
 20
22.4843989892
 10
8.2273857466
 20
22.5321624465
 10
8.2224089478
 20
22.577816455
 10
8.2146134611
 20
22.6213610145
 10
8.2039268983
 20
22.6630387148
 10
8.1904216475
 20
22.7026069661
 10
8.1743148733
 20
22.739338
 10
8.1555616782
 20
22.773161252
 10
8.1342069596
 20
22.8041472866
 10
8.1106025744
 20
22.8317800283
 10
8.0847106678
 20
22.8560006534
 10
8.0565690944
 20
22.8768679857
 10
8.0266432752
 20
22.8940424202
 10
7.9949057425
 20
22.9074609558
 10
7.9613839639
 20
22.9171865937
 10
7.9266257625
 20
22.9230687323
 10
7.8905912848
 20
22.9250363293
 10
7.8533203842
 20
22.9231604271
 10
7.8154804443
 20
22.9175035516
 10
7.7772939261
 20
22.9080865446
 10
7.7385383685
 20
22.8948885642
 10
7.6992137715
 20
22.8779096104
  0
LINE
  5
537
100
AcDbEntity
  8
ASSI
100
AcDbLine
 62
7
  6
CONTINUOUS
 10
9.5997035075
 20
20.1108925609
 11
9.5985168946
 21
20.1383608479
  0
LWPOLYLINE
  5
538
100
AcDbEntity
  8
ASSI
100
AcDbPolyline
 62
250
  6
CONTINUOUS
 90
5
 70
0
 10
9.4936175324
 20
19.9825958797
 10
9.4924750883
 20
20.0117932161
 10
9.488276349
 20
20.0419763204
 10
9.4810931283
 20
20.0726289513
 10
9.4710482853
 20
20.1032268366
  0
LWPOLYLINE
  5
539
100
AcDbEntity
  8
ASSI
100
AcDbPolyline
 62
250
  6
CONTINUOUS
 90
13
 70
0
 10
10.4558999992
 20
16.6048585178
 10
10.4549860421
 20
16.6282163857
 10
10.4516270495
 20
16.6523628682
 10
10.4458804724
 20
16.6768849724
 10
10.4378445984
 20
16.7013632807
 10
10.4276568701
 20
16.7253791246
 10
10.415491535
 20
16.7485217455
 10
10.4015566647
 20
16.77039532
 10
10.3860905963
 20
16.7906257303
 10
10.3693578562
 20
16.8088669622
 10
10.3516446353
 20
16.8248070243
 10
10.3332538943
 20
16.8381732832
 10
10.3145001821
 20
16.8487371271
  0
LINE
  5
53A
100
AcDbEntity
  8
ASSI
100
AcDbLine
 62
7
  6
CONTINUOUS
 10
10.5461635549
 20
16.6488624542
 11
10.5456898849
 21
16.6641611674
  0
LWPOLYLINE
  5
53B
100
AcDbEntity
  8
ASSI
100
AcDbPolyline
 62
250
  6
CONTINUOUS
 90
28
 70
0
 10
10.4900319432
 20
16.5792361739
 10
10.4899966963
 20
16.5814103236
 10
10.4898588743
 20
16.5835590995
 10
10.4896184772
 20
16.5856825015
 10
10.4892784611
 20
16.5877948943
 10
10.4888358699
 20
16.5898819132
 10
10.4882818354
 20
16.5919004649
 10
10.4876127471
 20
16.5938492018
 10
10.4868322155
 20
16.5957294714
 10
10.4859422029
 20
16.5975022226
 10
10.4849394835
 20
16.599164178
 10
10.4838272832
 20
16.6007186148
 10
10.4826172421
 20
16.6021363144
 10
10.4813078846
 20
16.6034131289
 10
10.4799006863
 20
16.6045532061
 10
10.4784117142
 20
16.60553977
 10
10.4768405349
 20
16.6063699662
 10
10.4751875816
 20
16.6070466491
 10
10.4734702211
 20
16.6075616054
 10
10.4716875968
 20
16.6079129255
 10
10.4698405653
 20
16.6081025191
 10
10.4679490623
 20
16.6081279024
 10
10.4660125484
 20
16.6079870733
 10
10.4640315631
 20
16.607682034
 10
10.4620276601
 20
16.6072163065
 10
10.4600080241
 20
16.606591065
 10
10.4579654705
 20
16.6058051354
 10
10.4558999992
 20
16.6048585178
  0
LINE
  5
53C
100
AcDbEntity
  8
ASSI
100
AcDbLine
 62
250
  6
CONTINUOUS
 10
8.2336161735
 20
22.1966263806
 11
8.2295438574
 21
22.4843989892
  0
LINE
  5
53D
100
AcDbEntity
  8
ASSI
100
AcDbLine
 62
7
  6
CONTINUOUS
 10
8.3076250131
 20
22.229383828
 11
8.3027690579
 21
22.5725327561
  0
LINE
  5
53E
100
AcDbEntity
  8
ASSI
100
AcDbLine
 62
7
  6
CONTINUOUS
 10
10.5461644144
 20
-24.9908174366
 11
10.5461459047
 21
-24.9878085092
  0
LINE
  5
53F
100
AcDbEntity
  8
ASSI
100
AcDbLine
 62
250
  6
CONTINUOUS
 10
8.6789034941
 20
14.8773016249
 11
8.6789034941
 21
14.1971303366
  0
LINE
  5
540
100
AcDbEntity
  8
ASSI
100
AcDbLine
 62
250
  6
CONTINUOUS
 10
8.6789034941
 20
-24.7216662223
 11
8.6789034941
 21
-25.1585610755
  0
LINE
  5
541
100
AcDbEntity
  8
ASSI
100
AcDbLine
 62
250
  6
CONTINUOUS
 10
9.029344782
 20
14.9649502467
 11
9.029344782
 21
14.2066553707
  0
LINE
  5
542
100
AcDbEntity
  8
ASSI
100
AcDbLine
 62
250
  6
CONTINUOUS
 10
9.029344782
 20
-24.5773075378
 11
9.029344782
 21
-25.2355265131
  0
LINE
  5
543
100
AcDbEntity
  8
ASSI
100
AcDbLine
 62
7
  6
CONTINUOUS
 10
9.9317955327
 20
-25.7439885453
 11
9.9317955327
 21
-24.2055573824
  0
LINE
  5
544
100
AcDbEntity
  8
ASSI
100
AcDbLine
 62
7
  6
CONTINUOUS
 10
9.9317955783
 20
14.6994241077
 11
9.9317955327
 21
16.3448988386
  0
LINE
  5
545
100
AcDbEntity
  8
ASSI
100
AcDbLine
 62
7
  6
CONTINUOUS
 10
10.2853489233
 20
14.0897007442
 11
10.2853489233
 21
11.1451484214
  0
LINE
  5
546
100
AcDbEntity
  8
ASSI
100
AcDbLine
 62
7
  6
CONTINUOUS
 10
10.2853489233
 20
-23.8423438414
 11
10.2853489233
 21
-20.8977915186
  0
LINE
  5
547
100
AcDbEntity
  8
ASSI
100
AcDbLine
 62
250
  6
CONTINUOUS
 10
10.4900319432
 20
-25.4002551552
 11
10.4900319432
 21
-25.0603115603
  0
LINE
  5
548
100
AcDbEntity
  8
ASSI
100
AcDbLine
 62
250
  6
CONTINUOUS
 10
10.4900319432
 20
16.239292579
 11
10.4900319432
 21
16.5792361739
  0
LINE
  5
549
100
AcDbEntity
  8
ASSI
100
AcDbLine
 62
7
  6
CONTINUOUS
 10
10.5461639831
 20
-25.3307893181
 11
10.5461639831
 21
-24.990845654
  0
LINE
  5
54A
100
AcDbEntity
  8
ASSI
100
AcDbLine
 62
7
  6
CONTINUOUS
 10
10.5461639831
 20
16.3087584161
 11
10.5461639831
 21
16.648702011
  0
LINE
  5
54B
100
AcDbEntity
  8
ASSI
100
AcDbLine
 62
7
  6
CONTINUOUS
 10
10.9801131097
 20
-23.4675026238
 11
10.9801131097
 21
-20.5964846305
  0
LINE
  5
54C
100
AcDbEntity
  8
ASSI
100
AcDbLine
 62
7
  6
CONTINUOUS
 10
10.9801131097
 20
11.5632909092
 11
10.9801131097
 21
14.4343089025
  0
LINE
  5
54D
100
AcDbEntity
  8
ASSI
100
AcDbLine
 62
7
  6
CONTINUOUS
 10
9.5925288515
 20
18.9401640006
 11
9.5997032202
 21
20.1108373271
  0
LINE
  5
54E
100
AcDbEntity
  8
ASSI
100
AcDbLine
 62
250
  6
CONTINUOUS
 10
9.4936885061
 20
19.9826310831
 11
9.4897854951
 21
19.6078098299
  0
LINE
  5
54F
100
AcDbEntity
  8
ASSI
100
AcDbLine
 62
250
  6
CONTINUOUS
 10
9.4875031229
 20
19.3886247897
 11
9.4814507688
 21
18.8073938052
  0
LINE
  5
550
100
AcDbEntity
  8
ASSI
100
AcDbLine
 62
250
  6
CONTINUOUS
 10
9.4814507688
 20
18.8073938052
 11
9.4874669369
 21
19.388502591
  0
LINE
  5
551
100
AcDbEntity
  8
ASSI
100
AcDbLine
 62
250
  6
CONTINUOUS
 10
9.4897403907
 20
19.6080981775
 11
9.4936175324
 21
19.9825958797
  0
LINE
  5
552
100
AcDbEntity
  8
ASSI
100
AcDbLine
 62
250
  6
CONTINUOUS
 10
8.2745507434
 20
-26.1495382681
 11
8.2745741044
 21
-26.1477077487
  0
LWPOLYLINE
  5
553
100
AcDbEntity
  8
ASSI
100
AcDbPolyline
 62
250
  6
CONTINUOUS
 90
4
 70
0
 10
10.4882717188
 20
16.1546170214
 10
10.4881507698
 20
16.1452714342
 10
10.4853333567
 20
16.1379055026
 10
10.484350336
 20
16.1365573054
  0
LWPOLYLINE
  5
554
100
AcDbEntity
  8
ASSI
100
AcDbPolyline
 62
7
  6
CONTINUOUS
 90
3
 70
0
 10
9.955116481
 20
19.7721095163
 10
9.9552454328
 20
19.7774636569
 10
9.9546709744
 20
19.7886277988
  0
LINE
  5
555
100
AcDbEntity
  8
ASSI
100
AcDbLine
 62
7
  6
CONTINUOUS
 10
10.545307367
 20
16.2878122825
 11
10.5461600522
 21
16.3087982542
  0
LWPOLYLINE
  5
556
100
AcDbEntity
  8
ASSI
100
AcDbPolyline
 62
250
  6
CONTINUOUS
 90
8
 70
0
 10
9.5997032186
 20
20.1108370662
 10
9.5994195169
 20
20.104122238
 10
9.5958465172
 20
20.084724719
 10
9.5882211172
 20
20.0656772478
 10
9.5766263363
 20
20.0471858244
 10
9.5611842171
 20
20.0294441332
 10
9.5420583093
 20
20.0126434964
 10
9.5194550019
 20
19.9969702489
  0
LINE
  5
557
100
AcDbEntity
  8
ASSI
100
AcDbLine
 62
250
  6
CONTINUOUS
 10
9.6414396751
 20
19.6438734872
 11
9.6321985696
 21
19.4277650604
  0
LWPOLYLINE
  5
558
100
AcDbEntity
  8
ASSI
100
AcDbPolyline
 62
7
  6
CONTINUOUS
 90
8
 70
0
 10
9.5925827091
 20
18.9401633281
 10
9.5922089
 20
18.9324115231
 10
9.5883201618
 20
18.912612807
 10
9.5800359254
 20
18.8929309554
 10
9.5675227842
 20
18.8735083746
 10
9.5513507016
 20
18.8551617052
 10
9.5317096654
 20
18.8381631605
 10
9.5084096878
 20
18.8222405272
  0
LINE
  5
559
100
AcDbEntity
  8
ASSI
100
AcDbLine
 62
7
  6
CONTINUOUS
 10
9.9186900682
 20
19.7116376023
 11
9.917437415
 21
19.6895421948
  0
LINE
  5
55A
100
AcDbEntity
  8
ASSI
100
AcDbLine
 62
7
  6
CONTINUOUS
 10
9.9545032214
 20
19.7632265234
 11
9.9551164665
 21
19.7721091763
  0
LWPOLYLINE
  5
55B
100
AcDbEntity
  8
ASSI
100
AcDbPolyline
 62
250
  6
CONTINUOUS
 90
5
 70
0
 10
8.2746735777
 20
-26.1458044298
 10
8.2748491633
 20
-26.1438283114
 10
8.2750971657
 20
-26.1417729642
 10
8.2754212804
 20
-26.1396448175
 10
8.2758325937
 20
-26.1374631591
  0
LINE
  5
55C
100
AcDbEntity
  8
CURVE
100
AcDbLine
 62
250
  6
CONTINUOUS
 10
-4.1990838216
 20
-19.2618051638
 11
-4.029830631
 21
-19.024967638
  0
LINE
  5
55D
100
AcDbEntity
  8
CURVE
100
AcDbLine
 62
250
  6
CONTINUOUS
 10
-3.9541934372
 20
-20.2039296094
 11
-4.1528245932
 21
-20.4634828798
  0
LINE
  5
55E
100
AcDbEntity
  8
CURVE
100
AcDbLine
 62
250
  6
CONTINUOUS
 10
-3.7563214003
 20
-19.9459745932
 11
-3.9541934372
 21
-20.2039296094
  0
LINE
  5
55F
100
AcDbEntity
  8
CURVE
100
AcDbLine
 62
250
  6
CONTINUOUS
 10
-3.5592032028
 20
-19.6896070277
 11
-3.7563214003
 21
-19.9459745932
  0
LINE
  5
560
100
AcDbEntity
  8
0
100
AcDbLine
 62
7
  6
CONTINUOUS
 10
-2.745835193
 20
-8.4600787346
 11
-2.7886029445
 21
-8.4926850067
  0
LINE
  5
561
100
AcDbEntity
  8
0
100
AcDbLine
 62
7
  6
CONTINUOUS
 10
-2.7886029445
 20
-8.4926850067
 11
-2.8245406223
 21
-8.5139033024
  0
LINE
  5
562
100
AcDbEntity
  8
0
100
AcDbLine
 62
250
  6
CONTINUOUS
 10
-2.9929367312
 20
-7.5565908027
 11
-4.1543114468
 21
-8.1621060306
  0
LINE
  5
563
100
AcDbEntity
  8
ASSI
100
AcDbLine
 62
250
  6
CONTINUOUS
 10
-4.1472658914
 20
-8.1656548661
 11
-2.9859579652
 21
-7.5601744607
  0
LINE
  5
564
100
AcDbEntity
  8
DRAFT
100
AcDbLine
 62
7
  6
CONTINUOUS
 10
36.3928751449
 20
13.2629568155
 11
31.7032168866
 21
10.8348151716
  0
LINE
  5
565
100
AcDbEntity
  8
0
100
AcDbLine
 62
7
  6
CONTINUOUS
 10
34.6444160244
 20
13.0765262039
 11
30.964502267
 21
11.2041724814
  0
LINE
  5
566
100
AcDbEntity
  8
0
100
AcDbLine
 62
7
  6
CONTINUOUS
 10
30.3840270955
 20
11.1935625159
 11
19.1974416903
 21
5.5232267591
  0
LINE
  5
567
100
AcDbEntity
  8
IMPORT_IGES
100
AcDbLine
 62
250
  6
CONTINUOUS
 10
-3.8468871959
 20
-5.8989705073
 11
-3.1889177472
 21
-5.569985783
  0
LINE
  5
568
100
AcDbEntity
  8
ASSI
100
AcDbLine
 62
7
  6
CONTINUOUS
 10
34.5037561789
 20
13.1468561267
 11
35.5644163507
 21
13.6771862126
  0
LINE
  5
569
100
AcDbEntity
  8
IMPORT_IGES
100
AcDbLine
 62
7
  6
CONTINUOUS
 10
-2.6946632848
 20
-6.4094446423
 11
-2.5284150392
 21
-6.3263147982
  0
LINE
  5
56A
100
AcDbEntity
  8
IMPORT_IGES
100
AcDbLine
 62
7
  6
CONTINUOUS
 10
-2.5259416341
 20
-6.9420447632
 11
-3.1185672113
 21
-7.2383575518
  0
LINE
  5
56B
100
AcDbEntity
  8
IMPORT_IGES
100
AcDbLine
 62
7
  6
CONTINUOUS
 10
-2.7650138207
 20
-7.4151342471
 11
-2.5242002979
 21
-7.2947274857
  0
LINE
  5
56C
100
AcDbEntity
  8
0
100
AcDbLine
 62
7
  6
CONTINUOUS
 10
29.6335937767
 20
11.5687791753
 11
18.7022307372
 21
6.1247262934
  0
LINE
  5
56D
100
AcDbEntity
  8
ASSI
100
AcDbLine
 62
250
  6
CONTINUOUS
 10
-5.2341515136
 20
-6.2898008849
 11
-4.0590192303
 21
-5.7223948575
  0
LWPOLYLINE
  5
56E
100
AcDbEntity
  8
ASSI
100
AcDbPolyline
 62
7
  6
CONTINUOUS
 90
4
 70
0
 10
-6.6789792104
 20
22.4201202859
 10
-6.6641538853
 20
22.3995873963
 10
-6.6472332013
 20
22.3810247311
 10
-6.6284838676
 20
22.3646477574
  0
LINE
  5
56F
100
AcDbEntity
  8
ASSI
100
AcDbLine
 62
250
  6
CONTINUOUS
 10
-4.5628238602
 20
21.3396575222
 11
-4.5678872992
 21
21.3470478432
  0
LWPOLYLINE
  5
570
100
AcDbEntity
  8
ASSI
100
AcDbPolyline
 62
7
  6
CONTINUOUS
 90
9
 70
0
 10
-5.5277715104
 20
21.9122737849
 10
-5.5076859276
 20
21.8803534064
 10
-5.4859213581
 20
21.8494611886
 10
-5.4623987272
 20
21.8199270861
 10
-5.4369150829
 20
21.7921140224
 10
-5.4096303672
 20
21.7663129779
 10
-5.3809293179
 20
21.7429008222
 10
-5.350859965
 20
21.7224238682
 10
-5.3261393134
 20
21.7087263922
  0
LINE
  5
571
100
AcDbEntity
  8
ASSI
100
AcDbLine
 62
250
  6
CONTINUOUS
 10
-4.5676418984
 20
21.3466611602
 11
-4.5723213378
 21
21.3546346541
  0
LINE
  5
572
100
AcDbEntity
  8
ASSI
100
AcDbLine
 62
7
  6
CONTINUOUS
 10
-2.0628681127
 20
23.044237375
 11
-2.0746006688
 21
23.0659167613
  0
LINE
  5
573
100
AcDbEntity
  8
ASSI
100
AcDbLine
 62
250
  6
CONTINUOUS
 10
1.6128233985
 20
19.9428920554
 11
1.6195551331
 21
19.9285795005
  0
LINE
  5
574
100
AcDbEntity
  8
ASSI
100
AcDbLine
 62
250
  6
CONTINUOUS
 10
1.364361263
 20
19.8211714764
 11
1.3657018814
 21
19.8183022809
  0
LINE
  5
575
100
AcDbEntity
  8
ASSI
100
AcDbLine
 62
250
  6
CONTINUOUS
 10
1.6191587904
 20
19.9294626371
 11
1.6254907225
 21
19.9146359348
  0
LWPOLYLINE
  5
576
100
AcDbEntity
  8
ASSI
100
AcDbPolyline
 62
250
  6
CONTINUOUS
 90
11
 70
0
 10
1.3656196692
 20
19.8184859121
 10
1.3668791893
 20
19.8155130314
 10
1.3679448721
 20
19.8126917565
 10
1.3689006879
 20
19.8098387784
 10
1.3697342193
 20
19.8069880974
 10
1.3704436768
 20
19.8041396287
 10
1.3710308499
 20
19.801293457
 10
1.3714886896
 20
19.7984838364
 10
1.3718148463
 20
19.7957221848
 10
1.3720116696
 20
19.7929970842
 10
1.3720791594
 20
19.7903085347
  0
LWPOLYLINE
  5
577
100
AcDbEntity
  8
ASSI
100
AcDbPolyline
 62
250
  6
CONTINUOUS
 90
10
 70
0
 10
1.6249801454
 20
19.9158929398
 10
1.6308873053
 20
19.9005415087
 10
1.635723393
 20
19.8863461695
 10
1.6399751208
 20
19.8721154137
 10
1.6436257318
 20
19.8579019014
 10
1.6466605902
 20
19.8437589669
 10
1.649065639
 20
19.8297530448
 10
1.6508323271
 20
19.8159405267
 10
1.6519556418
 20
19.8023679081
 10
1.6524321898
 20
19.7890852328
  0
LINE
  5
578
100
AcDbEntity
  8
ASSI
100
AcDbLine
 62
250
  6
CONTINUOUS
 10
5.9358615186
 20
16.129867255
 11
5.9384101775
 21
16.1206762352
  0
LINE
  5
579
100
AcDbEntity
  8
ASSI
100
AcDbLine
 62
250
  6
CONTINUOUS
 10
5.9338784567
 20
16.1387495931
 11
5.9359701618
 21
16.1294328371
  0
LINE
  5
57A
100
AcDbEntity
  8
ASSI
100
AcDbLine
 62
250
  6
CONTINUOUS
 10
5.9323043374
 20
16.1477359984
 11
5.9339589589
 21
16.1383463663
  0
LWPOLYLINE
  5
57B
100
AcDbEntity
  8
ASSI
100
AcDbPolyline
 62
250
  6
CONTINUOUS
 90
23
 70
0
 10
10.4898815932
 20
16.5833120062
 10
10.4896625575
 20
16.5853425019
 10
10.4893523394
 20
16.587383337
 10
10.4889462142
 20
16.5894192251
 10
10.488430008
 20
16.5914043072
 10
10.4878001668
 20
16.5933379977
 10
10.4870602445
 20
16.5952208823
 10
10.486206729
 20
16.5970088589
 10
10.4852356657
 20
16.5986995561
 10
10.4841510091
 20
16.6002953452
 10
10.4829611104
 20
16.6017592381
 10
10.4816629873
 20
16.6030869697
 10
10.4802596221
 20
16.604282805
 10
10.4787683125
 20
16.6053225508
 10
10.4771883285
 20
16.6062018847
 10
10.4755204001
 20
16.6069251292
 10
10.4737840152
 20
16.6074810583
 10
10.4719787497
 20
16.6078670503
 10
10.4701050276
 20
16.6080857269
 10
10.4681836088
 20
16.6081337283
 10
10.46621382
 20
16.6080089092
 10
10.4641963344
 20
16.6077134149
 10
10.4621539315
 20
16.607250321
  0
LINE
  5
57C
100
AcDbEntity
  8
ASSI
100
AcDbLine
 62
7
  6
CONTINUOUS
 10
11.3274952029
 20
-20.4134915507
 11
11.3274952029
 21
-19.6852070984
  0
LINE
  5
57D
100
AcDbEntity
  8
ASSI
100
AcDbLine
 62
7
  6
CONTINUOUS
 10
11.3274952029
 20
10.9347354534
 11
11.3274952029
 21
11.7400225174
  0
LINE
  5
57E
100
AcDbEntity
  8
ASSI
100
AcDbLine
 62
7
  6
CONTINUOUS
 10
11.3737834591
 20
10.9115913252
 11
11.3737834591
 21
-19.6313486148
  0
LINE
  5
57F
100
AcDbEntity
  8
RACCORDO
100
AcDbLine
 62
7
  6
CONTINUOUS
 10
11.3813644341
 20
10.940471172
 11
11.3813644341
 21
-19.6678094365
  0
LWPOLYLINE
  5
580
100
AcDbEntity
  8
ASSI
100
AcDbPolyline
 62
250
  6
CONTINUOUS
 90
8
 70
0
 10
10.4558999992
 20
-25.4612221617
 10
10.4549860455
 20
-25.4830642594
 10
10.4516270626
 20
-25.503344668
 10
10.4458804995
 20
-25.5217165179
 10
10.4378446415
 20
-25.5378655822
 10
10.427656929
 20
-25.5515156519
 10
10.4154916062
 20
-25.5624332599
 10
10.4069968033
 20
-25.5677724988
  0
LWPOLYLINE
  5
581
100
AcDbEntity
  8
ASSI
100
AcDbPolyline
 62
250
  6
CONTINUOUS
 90
3
 70
0
 10
10.4897872383
 20
-25.4055086903
 10
10.4899694789
 20
-25.4028638984
 10
10.4900319432
 20
-25.4002551552
  0
LWPOLYLINE
  5
582
100
AcDbEntity
  8
ASSI
100
AcDbPolyline
 62
250
  6
CONTINUOUS
 90
5
 70
0
 10
10.4856940972
 20
-24.9815928553
 10
10.4882716661
 20
-24.9557826389
 10
10.4881507336
 20
-24.9300833598
 10
10.4853333462
 20
-24.9049298746
 10
10.4798671766
 20
-24.8807478045
  0
LINE
  5
583
100
AcDbEntity
  8
ASSI
100
AcDbLine
 62
250
  6
CONTINUOUS
 10
10.4894622748
 20
-25.4083592783
 11
10.4897766872
 21
-25.4056217863
  0
LINE
  5
584
100
AcDbEntity
  8
0
100
AcDbLine
 62
7
  6
CONTINUOUS
 10
36.3928751449
 20
11.593723272
 11
19.1974416903
 21
2.503473948
  0
LINE
  5
585
100
AcDbEntity
  8
0
100
AcDbLine
 62
7
  6
CONTINUOUS
 10
-2.822740879
 20
-8.5129622822
 11
-2.8245305887
 21
-8.5139031116
  0
LINE
  5
586
100
AcDbEntity
  8
0
100
AcDbLine
 62
250
  6
CONTINUOUS
 10
-3.525011924
 20
-8.4767818499
 11
-2.5294915852
 21
-7.9577394454
  0
LINE
  5
587
100
AcDbEntity
  8
ASSI
100
AcDbLine
 62
250
  6
CONTINUOUS
 10
-3.5179153438
 20
-8.4803040821
 11
-2.5303163497
 21
-7.9653916926
  0
LINE
  5
588
100
AcDbEntity
  8
0
100
AcDbLine
 62
7
  6
CONTINUOUS
 10
36.3928751449
 20
9.909243017
 11
19.1974416903
 21
1.1930997402
  0
LINE
  5
589
100
AcDbEntity
  8
IMPORT_IGES
100
AcDbLine
 62
7
  6
CONTINUOUS
 10
22.6996691272
 20
4.109492205
 11
26.919435984
 21
6.2193756334
  0
LINE
  5
58A
100
AcDbEntity
  8
IMPORT_IGES
100
AcDbLine
 62
7
  6
CONTINUOUS
 10
26.9608573403
 20
6.082773093
 11
22.7996691272
 21
4.0021789865
  0
LINE
  5
58B
100
AcDbEntity
  8
0
100
AcDbLine
 62
7
  6
CONTINUOUS
 10
34.6444160244
 20
9.7341489393
 11
18.7022307372
 21
1.7945992745
  0
LINE
  5
58C
100
AcDbEntity
  8
0
100
AcDbLine
 62
250
  6
CONTINUOUS
 10
-2.8245305887
 20
-8.5139031116
 11
-2.8482012917
 21
-8.5256170109
  0
LINE
  5
58D
100
AcDbEntity
  8
DRAFT
100
AcDbLine
 62
7
  6
CONTINUOUS
 10
34.6098221961
 20
9.7514458535
 11
35.6704823679
 21
10.2704394055
  0
LWPOLYLINE
  5
58E
100
AcDbEntity
  8
0
100
AcDbPolyline
 62
250
  6
CONTINUOUS
 90
11
 70
0
 10
-2.8482012917
 20
-8.5256170109
 10
-2.9048832788
 20
-8.5485514338
 10
-2.9649920048
 20
-8.5658446874
 10
-3.0281247223
 20
-8.5771467318
 10
-3.0939693468
 20
-8.5822203179
 10
-3.1624503783
 20
-8.5808771638
 10
-3.2331467272
 20
-8.572947483
 10
-3.3051471884
 20
-8.5584528157
 10
-3.3779108172
 20
-8.5375338981
 10
-3.4513103962
 20
-8.5102659345
 10
-3.5250119329
 20
-8.4767818545
  0
LWPOLYLINE
  5
58F
100
AcDbEntity
  8
ASSI
100
AcDbPolyline
 62
250
  6
CONTINUOUS
 90
11
 70
0
 10
-2.8410401056
 20
-8.5291049803
 10
-2.8977274608
 20
-8.5520422641
 10
-2.9578418878
 20
-8.5693385595
 10
-3.0209806177
 20
-8.5806438116
 10
-3.0868314975
 20
-8.5857207326
 10
-3.1553190541
 20
-8.5843810503
 10
-3.2260221748
 20
-8.5764549632
 10
-3.2980295105
 20
-8.5619639358
 10
-3.3708000683
 20
-8.541048679
 10
-3.4442066798
 20
-8.51378442
 10
-3.5179153529
 20
-8.4803040869
  0
LWPOLYLINE
  5
590
100
AcDbEntity
  8
IMPORT_IGES
100
AcDbPolyline
 62
7
  6
CONTINUOUS
 90
13
 70
0
 10
20.7752483968
 20
3.337570767
 10
20.7908059988
 20
3.3389838873
 10
20.9796004833
 20
3.3712415326
 10
21.17115361
 20
3.4190160214
 10
21.3654620342
 20
3.4825967282
 10
21.561345198
 20
3.5619029115
 10
21.7566061803
 20
3.656117044
 10
21.950271659
 20
3.7646352522
 10
22.1421108785
 20
3.887216455
 10
22.3310248565
 20
4.0230530715
 10
22.5163422497
 20
4.1715087516
 10
22.6975532675
 20
4.3320410465
 10
22.7463487223
 20
4.3795795916
  0
LINE
  5
591
100
AcDbEntity
  8
IMPORT_IGES
100
AcDbLine
 62
7
  6
CONTINUOUS
 10
21.6293372154
 20
-5.2988747943
 11
21.6364082832
 21
-5.3024103282
  0
LINE
  5
592
100
AcDbEntity
  8
0
100
AcDbLine
 62
250
  6
CONTINUOUS
 10
19.1974416903
 20
-3.1370272787
 11
18.6879824713
 21
-2.8822976692
  0
LINE
  5
593
100
AcDbEntity
  8
IMPORT_IGES
100
AcDbLine
 62
7
  6
CONTINUOUS
 10
20.8655059653
 20
-5.4204554773
 11
21.1663336064
 21
-5.6384787673
  0
LINE
  5
594
100
AcDbEntity
  8
IMPORT_IGES
100
AcDbLine
 62
7
  6
CONTINUOUS
 10
21.2881022938
 20
-5.0515665349
 11
21.6293372154
 21
-5.2988747943
  0
LINE
  5
595
100
AcDbEntity
  8
IMPORT_IGES
100
AcDbLine
 62
7
  6
CONTINUOUS
 10
21.6364082832
 20
-5.3024103282
 11
21.2893702061
 21
-5.0508962616
  0
LINE
  5
596
100
AcDbEntity
  8
ASSI
100
AcDbLine
 62
250
  6
CONTINUOUS
 10
-4.5576976686
 20
21.3332516467
 11
-4.5630931226
 21
21.3400216649
  0
LINE
  5
597
100
AcDbEntity
  8
ASSI
100
AcDbLine
 62
7
  6
CONTINUOUS
 10
-2.0744046986
 20
23.0655971297
 11
-2.0883332795
 21
23.0857908143
  0
LINE
  5
598
100
AcDbEntity
  8
ASSI
100
AcDbLine
 62
250
  6
CONTINUOUS
 10
1.3599948511
 20
19.8289443123
 11
1.3615611913
 21
19.826380843
  0
LINE
  5
599
100
AcDbEntity
  8
ASSI
100
AcDbLine
 62
250
  6
CONTINUOUS
 10
1.5909636127
 20
19.9817873087
 11
1.5987944058
 21
19.9689472953
  0
LINE
  5
59A
100
AcDbEntity
  8
ASSI
100
AcDbLine
 62
250
  6
CONTINUOUS
 10
1.5986984894
 20
19.9691111333
 11
1.6061773243
 21
19.9557879827
  0
LWPOLYLINE
  5
59B
100
AcDbEntity
  8
ASSI
100
AcDbPolyline
 62
250
  6
CONTINUOUS
 90
3
 70
0
 10
1.364361263
 20
19.8211714764
 10
1.3630002731
 20
19.8238152755
 10
1.3615382208
 20
19.8264201262
  0
LINE
  5
59C
100
AcDbEntity
  8
ASSI
100
AcDbLine
 62
250
  6
CONTINUOUS
 10
1.6059982876
 20
19.9561206255
 11
1.6131055263
 21
19.9423193534
  0
LINE
  5
59D
100
AcDbEntity
  8
ASSI
100
AcDbLine
 62
250
  6
CONTINUOUS
 10
5.9444333888
 20
16.1042720179
 11
5.9484124641
 21
16.0958482538
  0
LINE
  5
59E
100
AcDbEntity
  8
ASSI
100
AcDbLine
 62
250
  6
CONTINUOUS
 10
5.9411291462
 20
16.1125698581
 11
5.9446266325
 21
16.1038277426
  0
LINE
  5
59F
100
AcDbEntity
  8
ASSI
100
AcDbLine
 62
250
  6
CONTINUOUS
 10
5.9382724511
 20
16.1211271343
 11
5.9412954875
 21
16.1121162763
  0
LWPOLYLINE
  5
5A0
100
AcDbEntity
  8
ASSI
100
AcDbPolyline
 62
7
  6
CONTINUOUS
 90
11
 70
0
 10
9.5985168946
 20
20.1383608479
 10
9.5933845401
 20
20.1717978695
 10
9.5841568286
 20
20.2047913282
 10
9.5708388099
 20
20.2368677711
 10
9.5535798436
 20
20.2674214884
 10
9.5324362683
 20
20.2961741307
 10
9.5074170417
 20
20.3228941519
 10
9.4789438232
 20
20.3469861606
 10
9.4475705278
 20
20.3680047707
 10
9.4130651736
 20
20.3861233708
 10
9.3744549853
 20
20.4015558611
  0
LINE
  5
5A1
100
AcDbEntity
  8
ASSI
100
AcDbLine
 62
7
  6
CONTINUOUS
 10
10.545735713
 20
16.6633970873
 11
10.5420419953
 21
16.6938333481
  0
LINE
  5
5A2
100
AcDbEntity
  8
ASSI
100
AcDbLine
 62
7
  6
CONTINUOUS
 10
16.2598827406
 20
18.4436473575
 11
16.2598827406
 21
18.642227686
  0
LINE
  5
5A3
100
AcDbEntity
  8
ASSI
100
AcDbLine
 62
250
  6
CONTINUOUS
 10
10.4890211406
 20
-25.4111435408
 11
10.4894852215
 21
-25.4081895307
  0
LINE
  5
5A4
100
AcDbEntity
  8
ASSI
100
AcDbLine
 62
250
  6
CONTINUOUS
 10
10.4884554834
 20
-25.413963921
 11
10.4890615113
 21
-25.4109164116
  0
LWPOLYLINE
  5
5A5
100
AcDbEntity
  8
ASSI
100
AcDbPolyline
 62
250
  6
CONTINUOUS
 90
9
 70
0
 10
8.2763330759
 20
-26.1352260317
 10
8.2769207567
 20
-26.1329353927
 10
8.2776008115
 20
-26.1306164023
 10
8.2783755074
 20
-26.128267694
 10
8.2792425774
 20
-26.1258906342
 10
8.2802003952
 20
-26.1235144825
 10
8.2812512611
 20
-26.1211387259
 10
8.2823928748
 20
-26.1187638773
 10
8.2836167093
 20
-26.1164207351
  0
LWPOLYLINE
  5
5A6
100
AcDbEntity
  8
IMPORT_IGES
100
AcDbPolyline
 62
7
  6
CONTINUOUS
 90
5
 70
0
 10
22.8856742086
 20
12.5382977469
 10
22.9097090533
 20
12.5846790722
 10
23.0206624368
 20
12.8209539741
 10
23.1220254491
 20
13.0608096244
 10
23.2055939976
 20
13.2826105309
  0
LWPOLYLINE
  5
5A7
100
AcDbEntity
  8
IMPORT_IGES
100
AcDbPolyline
 62
7
  6
CONTINUOUS
 90
4
 70
0
 10
18.7855632616
 20
2.034671816
 10
18.8773249158
 20
2.1380253123
 10
19.004307945
 20
2.2757782042
 10
19.1354760204
 20
2.4131113811
  0
LINE
  5
5A8
100
AcDbEntity
  8
IMPORT_IGES
100
AcDbLine
 62
7
  6
CONTINUOUS
 10
19.1354760204
 20
2.4131113811
 11
19.2551567627
 21
2.5339846297
  0
LWPOLYLINE
  5
5A9
100
AcDbEntity
  8
IMPORT_IGES
100
AcDbPolyline
 62
250
  6
CONTINUOUS
 90
7
 70
0
 10
22.2813869264
 20
4.1337806903
 10
22.2674889711
 20
4.1233669914
 10
22.1022245628
 20
4.0123389456
 10
21.9360326739
 20
3.9133804566
 10
21.7685333365
 20
3.8263632716
 10
21.6001065184
 20
3.7514156434
 10
21.4607991878
 20
3.6999825452
  0
LWPOLYLINE
  5
5AA
100
AcDbEntity
  8
IMPORT_IGES
100
AcDbPolyline
 62
7
  6
CONTINUOUS
 90
12
 70
0
 10
28.0264471902
 20
7.070234186
 10
27.994773681
 20
7.0495169248
 10
27.9606066587
 20
7.0308299646
 10
27.9244017429
 20
7.0143160264
 10
27.886855525
 20
7.0001666332
 10
27.8481960949
 20
6.9883496195
 10
27.8080939059
 20
6.9787517402
 10
27.7667010759
 20
6.9714928676
 10
27.7246682478
 20
6.9667698554
 10
27.6823783648
 20
6.9646924531
 10
27.6402512408
 20
6.9653597979
 10
27.6380510196
 20
6.9655448491
  0
LINE
  5
5AB
100
AcDbEntity
  8
IMPORT_IGES
100
AcDbLine
 62
7
  6
CONTINUOUS
 10
27.2247251968
 20
2.3368401004
 11
27.1249142884
 21
2.2818059172
  0
LINE
  5
5AC
100
AcDbEntity
  8
0
100
AcDbLine
 62
7
  6
CONTINUOUS
 10
36.3928751449
 20
7.2635962531
 11
19.1974416903
 21
-1.8266530709
  0
LINE
  5
5AD
100
AcDbEntity
  8
0
100
AcDbLine
 62
7
  6
CONTINUOUS
 10
34.6444160244
 20
5.4040219204
 11
18.7022307372
 21
-2.5355277445
  0
LINE
  5
5AE
100
AcDbEntity
  8
DRAFT
100
AcDbLine
 62
7
  6
CONTINUOUS
 10
34.6098221961
 20
5.4213188345
 11
35.6704823679
 21
5.9403123866
  0
LWPOLYLINE
  5
5AF
100
AcDbEntity
  8
ASSI
100
AcDbPolyline
 62
7
  6
CONTINUOUS
 90
8
 70
0
 10
-4.7413345286
 20
0.3786275923
 10
-4.6925746082
 20
0.3871363742
 10
-4.6413506592
 20
0.3904316026
 10
-4.5874481808
 20
0.3884808078
 10
-4.5309515344
 20
0.381188433
 10
-4.4724832389
 20
0.3685497653
 10
-4.412769995
 20
0.3507305543
 10
-4.3523886753
 20
0.3280111238
  0
LINE
  5
5B0
100
AcDbEntity
  8
0
100
AcDbLine
 62
7
  6
CONTINUOUS
 10
30.9656414042
 20
-5.088340657
 11
30.6920580617
 21
-4.9515489858
  0
LINE
  5
5B1
100
AcDbEntity
  8
DRAFT
100
AcDbLine
 62
7
  6
CONTINUOUS
 10
30.6920580617
 20
-4.9091803719
 11
30.2071238559
 21
-4.666713269
  0
LINE
  5
5B2
100
AcDbEntity
  8
DRAFT
100
AcDbLine
 62
7
  6
CONTINUOUS
 10
26.6693824829
 20
-2.8978425825
 11
26.2214904313
 21
-2.6738965567
  0
LINE
  5
5B3
100
AcDbEntity
  8
0
100
AcDbLine
 62
250
  6
CONTINUOUS
 10
19.1974416903
 20
1.1930997402
 11
18.6879824713
 21
1.4478293497
  0
LINE
  5
5B4
100
AcDbEntity
  8
ASSI
100
AcDbLine
 62
250
  6
CONTINUOUS
 10
-6.7822861713
 20
15.6575653413
 11
-7.2554236141
 21
15.9095671461
  0
LINE
  5
5B5
100
AcDbEntity
  8
ASSI
100
AcDbLine
 62
250
  6
CONTINUOUS
 10
-7.2551463998
 20
15.9094188201
 11
-7.735330858
 21
16.1675419174
  0
LINE
  5
5B6
100
AcDbEntity
  8
ASSI
100
AcDbLine
 62
250
  6
CONTINUOUS
 10
-7.7350760238
 20
16.1674042947
 11
-8.2223145171
 21
16.4317863795
  0
LINE
  5
5B7
100
AcDbEntity
  8
ASSI
100
AcDbLine
 62
250
  6
CONTINUOUS
 10
-8.2220921364
 20
16.4316651414
 11
-8.7160655205
 21
16.7022763815
  0
LINE
  5
5B8
100
AcDbEntity
  8
ASSI
100
AcDbLine
 62
250
  6
CONTINUOUS
 10
-8.7158834547
 20
16.702176157
 11
-9.2213432478
 21
16.9818154357
  0
LWPOLYLINE
  5
5B9
100
AcDbEntity
  8
ASSI
100
AcDbPolyline
 62
250
  6
CONTINUOUS
 90
4
 70
0
 10
-9.2214823474
 20
16.9818927738
 10
-9.7400013036
 20
17.2716774428
 10
-10.2696833095
 20
17.5707933293
 10
-10.8102732902
 20
17.8793414608
  0
LINE
  5
5BA
100
AcDbEntity
  8
IMPORT_IGES
100
AcDbLine
 62
7
  6
CONTINUOUS
 10
22.3692474678
 20
-4.480026468
 11
22.8267146414
 21
-4.8115734559
  0
LWPOLYLINE
  5
5BB
100
AcDbEntity
  8
ASSI
100
AcDbPolyline
 62
7
  6
CONTINUOUS
 90
3
 70
0
 10
-6.6478420241
 20
22.3816218632
 10
-6.6297434601
 20
22.365637136
 10
-6.6100346771
 20
22.3517649809
  0
LINE
  5
5BC
100
AcDbEntity
  8
ASSI
100
AcDbLine
 62
250
  6
CONTINUOUS
 10
-4.5466385683
 20
21.322206565
 11
-4.5525905147
 21
21.3277355559
  0
LINE
  5
5BD
100
AcDbEntity
  8
ASSI
100
AcDbLine
 62
250
  6
CONTINUOUS
 10
-4.5522929334
 20
21.3274375045
 11
-4.5579847142
 21
21.333585692
  0
LINE
  5
5BE
100
AcDbEntity
  8
ASSI
100
AcDbLine
 62
7
  6
CONTINUOUS
 10
-2.0881281613
 20
23.0855250444
 11
-2.1040397284
 21
23.1039492158
  0
LWPOLYLINE
  5
5BF
100
AcDbEntity
  8
ASSI
100
AcDbPolyline
 62
250
  6
CONTINUOUS
 90
3
 70
0
 10
1.3548684467
 20
19.8360750082
 10
1.3530225078
 20
19.8382581477
 10
1.3511110689
 20
19.8403418125
  0
LWPOLYLINE
  5
5C0
100
AcDbEntity
  8
ASSI
100
AcDbPolyline
 62
250
  6
CONTINUOUS
 90
3
 70
0
 10
1.3548911578
 20
19.836042411
 10
1.3566598343
 20
19.8337750963
 10
1.358361947
 20
19.8314096151
  0
LINE
  5
5C1
100
AcDbEntity
  8
ASSI
100
AcDbLine
 62
250
  6
CONTINUOUS
 10
1.5743442563
 20
20.0059508994
 11
1.5828321789
 21
19.9940861046
  0
LINE
  5
5C2
100
AcDbEntity
  8
ASSI
100
AcDbLine
 62
250
  6
CONTINUOUS
 10
1.3599922934
 20
19.8289519341
 11
1.3583620946
 21
19.8314081455
  0
LWPOLYLINE
  5
5C3
100
AcDbEntity
  8
ASSI
100
AcDbPolyline
 62
250
  6
CONTINUOUS
 90
4
 70
0
 10
1.5909636127
 20
19.9817873087
 10
1.5828257616
 20
19.9940954121
 10
1.5743084412
 20
20.005998999
 10
1.5654438305
 20
20.0174517364
  0
LINE
  5
5C4
100
AcDbEntity
  8
ASSI
100
AcDbLine
 62
250
  6
CONTINUOUS
 10
5.9524238435
 20
16.0886110249
 11
5.9573559688
 21
16.0809999315
  0
LINE
  5
5C5
100
AcDbEntity
  8
ASSI
100
AcDbLine
 62
250
  6
CONTINUOUS
 10
5.9481954094
 20
16.0962723749
 11
5.9526602723
 21
16.0882165326
  0
LWPOLYLINE
  5
5C6
100
AcDbEntity
  8
ASSI
100
AcDbPolyline
 62
7
  6
CONTINUOUS
 90
3
 70
0
 10
10.5350832348
 20
16.7217450273
 10
10.5244890659
 20
16.7491536187
 10
10.5103095465
 20
16.7752186095
  0
LINE
  5
5C7
100
AcDbEntity
  8
ASSI
100
AcDbLine
 62
7
  6
CONTINUOUS
 10
10.5421973839
 20
16.6929895558
 11
10.5348192636
 21
16.7225761368
  0
LINE
  5
5C8
100
AcDbEntity
  8
ASSI
100
AcDbLine
 62
250
  6
CONTINUOUS
 10
10.4856938268
 20
16.1657849037
 11
10.4882715321
 21
16.1546179114
  0
LWPOLYLINE
  5
5C9
100
AcDbEntity
  8
ASSI
100
AcDbPolyline
 62
7
  6
CONTINUOUS
 90
3
 70
0
 10
9.9546709744
 20
19.7886277988
 10
9.9529550689
 20
19.7966995863
 10
9.9502837897
 20
19.8016549387
  0
LWPOLYLINE
  5
5CA
100
AcDbEntity
  8
ASSI
100
AcDbPolyline
 62
7
  6
CONTINUOUS
 90
5
 70
0
 10
9.9546707679
 20
19.788629505
 10
9.9529547013
 20
19.79670098
 10
9.9502833942
 20
19.8016556393
 10
9.946916694
 20
19.8034642341
 10
9.9445342363
 20
19.8029526429
  0
LWPOLYLINE
  5
5CB
100
AcDbEntity
  8
IMPORT_IGES
100
AcDbPolyline
 62
250
  6
CONTINUOUS
 90
4
 70
0
 10
19.116034763
 20
6.3308095596
 10
19.1227743195
 20
6.3940157916
 10
19.1556611959
 20
6.6105334903
 10
19.1987804335
 20
6.830243423
  0
LWPOLYLINE
  5
5CC
100
AcDbEntity
  8
ASSI
100
AcDbPolyline
 62
250
  6
CONTINUOUS
 90
3
 70
0
 10
10.4726628385
 20
-25.0318046775
 10
10.4804616419
 20
-25.0070772752
 10
10.4856940973
 20
-24.9815928554
  0
LWPOLYLINE
  5
5CD
100
AcDbEntity
  8
ASSI
100
AcDbPolyline
 62
7
  6
CONTINUOUS
 90
4
 70
0
 10
9.9210337763
 20
-25.8048818429
 10
9.9269826858
 20
-25.7864009869
 10
9.9305919158
 20
-25.7659861192
 10
9.9317955327
 20
-25.7439885453
  0
LWPOLYLINE
  5
5CE
100
AcDbEntity
  8
IMPORT_IGES
100
AcDbPolyline
 62
250
  6
CONTINUOUS
 90
6
 70
0
 10
23.0917924666
 20
13.222450123
 10
23.0693653241
 20
13.1600657673
 10
22.9810597291
 20
12.9410033536
 10
22.8845413054
 20
12.7254044916
 10
22.7796362826
 20
12.5132191674
 10
22.7590516498
 20
12.475237001
  0
LWPOLYLINE
  5
5CF
100
AcDbEntity
  8
ASSI
100
AcDbPolyline
 62
7
  6
CONTINUOUS
 90
5
 70
0
 10
10.5245255905
 20
-25.4357518488
 10
10.5341556778
 20
-25.4093000072
 10
10.5409524309
 20
-25.3825587339
 10
10.5450400839
 20
-25.3547804139
 10
10.5461634978
 20
-25.3307628363
  0
LINE
  5
5D0
100
AcDbEntity
  8
IMPORT_IGES
100
AcDbLine
 62
7
  6
CONTINUOUS
 10
22.4875370928
 20
3.7436185666
 11
22.6996691272
 21
4.109492205
  0
LINE
  5
5D1
100
AcDbEntity
  8
IMPORT_IGES
100
AcDbLine
 62
7
  6
CONTINUOUS
 10
22.7996691272
 20
4.0021789865
 11
22.6635604967
 21
3.767426324
  0
LINE
  5
5D2
100
AcDbEntity
  8
CURVE
100
AcDbLine
 62
250
  6
CONTINUOUS
 10
-2.610629657
 20
-21.0152265699
 11
-2.7856136287
 21
-21.1435832894
  0
LINE
  5
5D3
100
AcDbEntity
  8
0
100
AcDbLine
 62
7
  6
CONTINUOUS
 10
36.3928751449
 20
5.5791159981
 11
19.1974416903
 21
-3.1370272787
  0
LINE
  5
5D4
100
AcDbEntity
  8
IMPORT_IGES
100
AcDbLine
 62
7
  6
CONTINUOUS
 10
22.5724883279
 20
3.7220704337
 11
22.4875370928
 21
3.7436185666
  0
LWPOLYLINE
  5
5D5
100
AcDbEntity
  8
ASSI
100
AcDbPolyline
 62
250
  6
CONTINUOUS
 90
11
 70
0
 10
3.9384165167
 20
10.5049965593
 10
3.429615511
 20
10.7275438729
 10
2.9229982149
 20
10.9511435272
 10
2.4185711348
 20
11.1757903175
 10
1.9164588869
 20
11.4014257249
 10
1.4165487955
 20
11.6280973499
 10
0.918495425
 20
11.8559613772
 10
0.4221476273
 20
12.0850895005
 10
-0.0723216086
 20
12.315404526
 10
-0.5647690872
 20
12.5468406301
 10
-1.055152779
 20
12.7793779225
  0
LINE
  5
5D6
100
AcDbEntity
  8
ASSI
100
AcDbLine
 62
250
  6
CONTINUOUS
 10
-0.2537858839
 20
14.1667146605
 11
-0.7414126064
 21
14.3995232125
  0
LINE
  5
5D7
100
AcDbEntity
  8
ASSI
100
AcDbLine
 62
250
  6
CONTINUOUS
 10
-1.0549913631
 20
12.7793010372
 11
-1.5434977986
 21
13.0130281327
  0
LINE
  5
5D8
100
AcDbEntity
  8
ASSI
100
AcDbLine
 62
250
  6
CONTINUOUS
 10
-0.7412359705
 20
14.3994384878
 11
-1.2267857406
 21
14.6334356574
  0
LINE
  5
5D9
100
AcDbEntity
  8
ASSI
100
AcDbLine
 62
250
  6
CONTINUOUS
 10
-1.5433222798
 20
13.0129437793
 11
-2.0297637314
 21
13.2477717773
  0
LINE
  5
5DA
100
AcDbEntity
  8
ASSI
100
AcDbLine
 62
250
  6
CONTINUOUS
 10
-1.2265950667
 20
14.6333433364
 11
-1.7101392684
 21
14.8685662261
  0
LINE
  5
5DB
100
AcDbEntity
  8
ASSI
100
AcDbLine
 62
250
  6
CONTINUOUS
 10
-2.0295741328
 20
13.2476798395
 11
-2.5140088224
 21
13.4836371458
  0
LINE
  5
5DC
100
AcDbEntity
  8
ASSI
100
AcDbLine
 62
250
  6
CONTINUOUS
 10
-1.7099345711
 20
14.8684661858
 11
-2.1914017831
 21
15.1048779404
  0
LINE
  5
5DD
100
AcDbEntity
  8
ASSI
100
AcDbLine
 62
250
  6
CONTINUOUS
 10
-2.5138051667
 20
13.4835375059
 11
-2.9961580097
 21
13.7205877522
  0
LINE
  5
5DE
100
AcDbEntity
  8
ASSI
100
AcDbLine
 62
250
  6
CONTINUOUS
 10
-2.1911830852
 20
15.1047700565
 11
-2.6703204884
 21
15.3422412331
  0
LINE
  5
5DF
100
AcDbEntity
  8
ASSI
100
AcDbLine
 62
250
  6
CONTINUOUS
 10
-2.9959403241
 20
13.7204802932
 11
-3.4759743137
 21
13.9585052339
  0
LINE
  5
5E0
100
AcDbEntity
  8
RACCORDO
100
AcDbLine
 62
7
  6
CONTINUOUS
 10
30.2271259385
 20
-1.1260101548
 11
29.4494045149
 21
-0.737149443
  0
LINE
  5
5E1
100
AcDbEntity
  8
0
100
AcDbLine
 62
7
  6
CONTINUOUS
 10
34.6444160244
 20
-3.2562321175
 11
34.6098221961
 21
-3.2389352033
  0
LINE
  5
5E2
100
AcDbEntity
  8
SMUSSO
100
AcDbLine
 62
7
  6
CONTINUOUS
 10
30.5813802516
 20
-0.9495839208
 11
29.7931129878
 21
-0.5554502889
  0
LINE
  5
5E3
100
AcDbEntity
  8
ASSI
100
AcDbLine
 62
250
  6
CONTINUOUS
 10
-3.4757423362
 20
13.9583896937
 11
-3.9531464897
 21
14.1972299134
  0
LINE
  5
5E4
100
AcDbEntity
  8
ASSI
100
AcDbLine
 62
250
  6
CONTINUOUS
 10
-2.6700875219
 20
15.3421252285
 11
-3.1465982784
 21
15.5805044723
  0
LINE
  5
5E5
100
AcDbEntity
  8
ASSI
100
AcDbLine
 62
250
  6
CONTINUOUS
 10
-3.9528989215
 20
14.1971055042
 11
-4.4279785609
 21
14.4369085402
  0
LINE
  5
5E6
100
AcDbEntity
  8
ASSI
100
AcDbLine
 62
250
  6
CONTINUOUS
 10
-3.1463497187
 20
15.5803795198
 11
-3.6205322591
 21
15.81981929
  0
LINE
  5
5E7
100
AcDbEntity
  8
ASSI
100
AcDbLine
 62
250
  6
CONTINUOUS
 10
-4.4277151602
 20
14.4367749912
 11
-4.9011505087
 21
14.6778853333
  0
LINE
  5
5E8
100
AcDbEntity
  8
ASSI
100
AcDbLine
 62
250
  6
CONTINUOUS
 10
-3.6202678381
 20
15.8196851123
 11
-4.0927609518
 21
16.0605110144
  0
LINE
  5
5E9
100
AcDbEntity
  8
ASSI
100
AcDbLine
 62
250
  6
CONTINUOUS
 10
-4.9008738518
 20
14.6777438093
 11
-5.3717597951
 21
14.9196991491
  0
LINE
  5
5EA
100
AcDbEntity
  8
ASSI
100
AcDbLine
 62
250
  6
CONTINUOUS
 10
-4.0924832806
 20
16.0603688313
 11
-4.5623916237
 21
16.302083237
  0
LINE
  5
5EB
100
AcDbEntity
  8
ASSI
100
AcDbLine
 62
250
  6
CONTINUOUS
 10
-5.3714717093
 20
14.9195504609
 11
-5.8406895879
 21
15.1628042805
  0
LINE
  5
5EC
100
AcDbEntity
  8
ASSI
100
AcDbLine
 62
250
  6
CONTINUOUS
 10
-4.5621026891
 20
16.3019338761
 11
-5.0303170077
 21
16.5450323662
  0
LINE
  5
5ED
100
AcDbEntity
  8
ASSI
100
AcDbLine
 62
250
  6
CONTINUOUS
 10
-5.840392593
 20
15.1626496219
 11
-6.3112442835
 21
15.4089442656
  0
LINE
  5
5EE
100
AcDbEntity
  8
ASSI
100
AcDbLine
 62
250
  6
CONTINUOUS
 10
-5.0300194206
 20
16.5448770474
 11
-5.4998538237
 21
16.7911729557
  0
LINE
  5
5EF
100
AcDbEntity
  8
ASSI
100
AcDbLine
 62
250
  6
CONTINUOUS
 10
-6.3109457759
 20
15.4087874196
 11
-6.782577624
 21
15.6577198696
  0
LINE
  5
5F0
100
AcDbEntity
  8
ASSI
100
AcDbLine
 62
250
  6
CONTINUOUS
 10
-5.4995549463
 20
16.7910155724
 11
-5.9703000751
 21
17.0400416015
  0
LINE
  5
5F1
100
AcDbEntity
  8
ASSI
100
AcDbLine
 62
250
  6
CONTINUOUS
 10
-5.9700086969
 20
17.0398867378
 11
-6.4423577586
 21
17.2921017075
  0
LINE
  5
5F2
100
AcDbEntity
  8
ASSI
100
AcDbLine
 62
250
  6
CONTINUOUS
 10
-6.4420812417
 20
17.2919532569
 11
-6.921449584
 21
17.5505580392
  0
LINE
  5
5F3
100
AcDbEntity
  8
ASSI
100
AcDbLine
 62
250
  6
CONTINUOUS
 10
-6.9211957596
 20
17.5504204965
 11
-7.4079072091
 21
17.8154668022
  0
LINE
  5
5F4
100
AcDbEntity
  8
ASSI
100
AcDbLine
 62
250
  6
CONTINUOUS
 10
-7.4076858323
 20
17.8153457336
 11
-7.9013989762
 21
18.0867717909
  0
LINE
  5
5F5
100
AcDbEntity
  8
ASSI
100
AcDbLine
 62
250
  6
CONTINUOUS
 10
-7.9012178782
 20
18.0866716913
 11
-8.4062143312
 21
18.367431906
  0
LWPOLYLINE
  5
5F6
100
AcDbEntity
  8
ASSI
100
AcDbPolyline
 62
250
  6
CONTINUOUS
 90
4
 70
0
 10
-8.4063526218
 20
18.3675091531
 10
-8.9242440583
 20
18.658690938
 10
-9.4535973733
 20
18.9593050964
 10
-9.9944125669
 20
19.2693516283
  0
LINE
  5
5F7
100
AcDbEntity
  8
IMPORT_IGES
100
AcDbLine
 62
7
  6
CONTINUOUS
 10
24.2686757987
 20
0.2366810981
 11
24.1819380845
 21
0.2995438116
  0
LWPOLYLINE
  5
5F8
100
AcDbEntity
  8
ASSI
100
AcDbPolyline
 62
250
  6
CONTINUOUS
 90
5
 70
0
 10
-6.6738763781
 20
22.4865093987
 10
-6.6882964199
 20
22.4972491616
 10
-6.6998231541
 20
22.5088297705
 10
-6.7082637076
 20
22.5210574509
 10
-6.7134768472
 20
22.5337276005
  0
LINE
  5
5F9
100
AcDbEntity
  8
ASSI
100
AcDbLine
 62
250
  6
CONTINUOUS
 10
-4.5407893698
 20
21.3175676241
 11
-4.5469384294
 21
21.3224644678
  0
LWPOLYLINE
  5
5FA
100
AcDbEntity
  8
ASSI
100
AcDbPolyline
 62
250
  6
CONTINUOUS
 90
7
 70
0
 10
1.3491550997
 20
19.8423028105
 10
1.3471540671
 20
19.8441396417
 10
1.3451085041
 20
19.8458538062
 10
1.3430409796
 20
19.8474266121
 10
1.3409590164
 20
19.8488518289
 10
1.3388550916
 20
19.8501356872
 10
1.3367292052
 20
19.851278187
  0
LWPOLYLINE
  5
5FB
100
AcDbEntity
  8
ASSI
100
AcDbPolyline
 62
250
  6
CONTINUOUS
 90
7
 70
0
 10
1.5370877319
 20
20.048695411
 10
1.5271654331
 20
20.0579409715
 10
1.5170670146
 20
20.0665442334
 10
1.5068323211
 20
20.0744718187
 10
1.4964992838
 20
20.0816951773
 10
1.4861036139
 20
20.0881899411
 10
1.4756824184
 20
20.0939334944
  0
LINE
  5
5FC
100
AcDbEntity
  8
ASSI
100
AcDbLine
 62
7
  6
CONTINUOUS
 10
-2.1038374314
 20
23.1037396858
 11
-2.1214913791
 21
23.1201790122
  0
LINE
  5
5FD
100
AcDbEntity
  8
ASSI
100
AcDbLine
 62
250
  6
CONTINUOUS
 10
5.9678277702
 20
16.0682149458
 11
5.9740874244
 21
16.0621975029
  0
LINE
  5
5FE
100
AcDbEntity
  8
ASSI
100
AcDbLine
 62
250
  6
CONTINUOUS
 10
1.3491550997
 20
19.8423028105
 11
1.3512542151
 21
19.8401925118
  0
LINE
  5
5FF
100
AcDbEntity
  8
ASSI
100
AcDbLine
 62
250
  6
CONTINUOUS
 10
1.5370877319
 20
20.048695411
 11
1.5474794886
 21
20.0381183564
  0
LWPOLYLINE
  5
600
100
AcDbEntity
  8
ASSI
100
AcDbPolyline
 62
7
  6
CONTINUOUS
 90
4
 70
0
 10
5.9223339333
 20
16.1063532844
 10
5.9392759875
 20
16.0877657436
 10
5.958049097
 20
16.0713725201
 10
5.9785047565
 20
16.0572558244
  0
LINE
  5
601
100
AcDbEntity
  8
ASSI
100
AcDbLine
 62
250
  6
CONTINUOUS
 10
1.5467984689
 20
20.0388407219
 11
1.5566027385
 21
20.0280219754
  0
LINE
  5
602
100
AcDbEntity
  8
ASSI
100
AcDbLine
 62
250
  6
CONTINUOUS
 10
5.9622407452
 20
16.0745471589
 11
5.9680851952
 21
16.0679465226
  0
LINE
  5
603
100
AcDbEntity
  8
ASSI
100
AcDbLine
 62
250
  6
CONTINUOUS
 10
1.5562629093
 20
20.0284123819
 11
1.5655711363
 21
20.0172933717
  0
LWPOLYLINE
  5
604
100
AcDbEntity
  8
ASSI
100
AcDbPolyline
 62
250
  6
CONTINUOUS
 90
6
 70
0
 10
3.8009365747
 20
22.9998621912
 10
3.7821328658
 20
23.0247315566
 10
3.7618451097
 20
23.0471818354
 10
3.7404089785
 20
23.0668415754
 10
3.718179145
 20
23.0833854953
 10
3.695523414
 20
23.0965398667
  0
LINE
  5
605
100
AcDbEntity
  8
ASSI
100
AcDbLine
 62
250
  6
CONTINUOUS
 10
5.9571055772
 20
16.0813575565
 11
5.9624984964
 21
16.0742321291
  0
LINE
  5
606
100
AcDbEntity
  8
ASSI
100
AcDbLine
 62
250
  6
CONTINUOUS
 10
3.8009321309
 20
22.9998685091
 11
3.8179410259
 21
22.9729921838
  0
LINE
  5
607
100
AcDbEntity
  8
ASSI
100
AcDbLine
 62
7
  6
CONTINUOUS
 10
10.9801131097
 20
12.3391680011
 11
11.3274952029
 21
11.7400225174
  0
LINE
  5
608
100
AcDbEntity
  8
ASSI
100
AcDbLine
 62
250
  6
CONTINUOUS
 10
10.4726628385
 20
16.1927994618
 11
10.4804614026
 21
16.1785842846
  0
LWPOLYLINE
  5
609
100
AcDbEntity
  8
ASSI
100
AcDbPolyline
 62
250
  6
CONTINUOUS
 90
8
 70
0
 10
9.4583136239
 20
20.1332466409
 10
9.443106954
 20
20.1621749164
 10
9.4256883654
 20
20.189516884
 10
9.4063557795
 20
20.2148048962
 10
9.385439854
 20
20.2376064358
 10
9.3632983276
 20
20.2575315131
 10
9.3403099013
 20
20.2742393365
 10
9.3168677611
 20
20.2874441413
  0
LWPOLYLINE
  5
60A
100
AcDbEntity
  8
ASSI
100
AcDbPolyline
 62
7
  6
CONTINUOUS
 90
16
 70
0
 10
9.4042918536
 20
19.8389954347
 10
9.4277302006
 20
19.793829685
 10
9.4479518881
 20
19.7483828649
 10
9.4649569162
 20
19.7026549742
 10
9.4788476993
 20
19.6562157509
 10
9.489521823
 20
19.6094954571
 10
9.4966720436
 20
19.5637848796
 10
9.5001959466
 20
19.5190127904
 10
9.5001959466
 20
19.4752504176
 10
9.4966720436
 20
19.4340022315
 10
9.489521823
 20
19.3954418746
 10
9.4788476993
 20
19.3593957045
 10
9.4649569162
 20
19.3268472642
 10
9.4479518881
 20
19.2981244017
 10
9.4277302006
 20
19.2728992691
 10
9.4042918536
 20
19.2511718664
  0
LINE
  5
60B
100
AcDbEntity
  8
ASSI
100
AcDbLine
 62
250
  6
CONTINUOUS
 10
9.4583123973
 20
20.1332491342
 11
9.471047393
 21
20.1032291076
  0
LINE
  5
60C
100
AcDbEntity
  8
ASSI
100
AcDbLine
 62
250
  6
CONTINUOUS
 10
10.4804616808
 20
16.178583804
 11
10.4856941523
 21
16.16578413
  0
LINE
  5
60D
100
AcDbEntity
  8
ASSI
100
AcDbLine
 62
7
  6
CONTINUOUS
 10
10.5348192636
 20
16.7225761368
 11
10.5241339887
 21
16.7499190396
  0
LINE
  5
60E
100
AcDbEntity
  8
IMPORT_IGES
100
AcDbLine
 62
7
  6
CONTINUOUS
 10
21.6293372154
 20
-5.2988747943
 11
21.6296693556
 21
-5.4077276422
  0
LINE
  5
60F
100
AcDbEntity
  8
IMPORT_IGES
100
AcDbLine
 62
7
  6
CONTINUOUS
 10
21.6364082832
 20
-5.3024103282
 11
21.636718923
 21
-5.4042168067
  0
LINE
  5
610
100
AcDbEntity
  8
IMPORT_IGES
100
AcDbLine
 62
7
  6
CONTINUOUS
 10
20.9142245047
 20
3.3600713168
 11
20.9142245047
 21
2.8962195391
  0
LINE
  5
611
100
AcDbEntity
  8
IMPORT_IGES
100
AcDbLine
 62
7
  6
CONTINUOUS
 10
19.0336168403
 20
-11.0307444065
 11
19.0731440005
 21
-10.5712915917
  0
LWPOLYLINE
  5
612
100
AcDbEntity
  8
IMPORT_IGES
100
AcDbPolyline
 62
7
  6
CONTINUOUS
 90
7
 70
0
 10
27.2101212022
 20
15.3995766901
 10
27.2018576745
 20
15.3723515256
 10
27.1690095633
 20
15.241643637
 10
27.1433653239
 20
15.1126000402
 10
27.1251222357
 20
14.9860094319
 10
27.1140830193
 20
14.8610831155
 10
27.1102476748
 20
14.7378210911
  0
LWPOLYLINE
  5
613
100
AcDbEntity
  8
IMPORT_IGES
100
AcDbPolyline
 62
7
  6
CONTINUOUS
 90
9
 70
0
 10
28.7972017561
 20
15.4823650571
 10
28.8101989723
 20
15.5143922147
 10
28.8539942727
 20
15.6393518263
 10
28.8912357891
 20
15.7652044596
 10
28.9216768016
 20
15.8912710266
 10
28.9451044722
 20
16.0168942743
 10
28.9613449138
 20
16.141550656
 10
28.9702089915
 20
16.2644939888
 10
28.9709481696
 20
16.3304259293
  0
LWPOLYLINE
  5
614
100
AcDbEntity
  8
ASSI
100
AcDbPolyline
 62
7
  6
CONTINUOUS
 90
3
 70
0
 10
10.5121065807
 20
-25.4614824008
 10
10.5245324095
 20
-25.4357362798
 10
10.5341429182
 20
-25.4093420661
  0
LINE
  5
615
100
AcDbEntity
  8
IMPORT_IGES
100
AcDbLine
 62
7
  6
CONTINUOUS
 10
21.0719190527
 20
-1.355372218
 11
21.5063711721
 21
-0.6060531532
  0
LINE
  5
616
100
AcDbEntity
  8
IMPORT_IGES
100
AcDbLine
 62
7
  6
CONTINUOUS
 10
21.7402874998
 20
-0.4823948723
 11
21.299996297
 21
-1.2417848662
  0
LINE
  5
617
100
AcDbEntity
  8
IMPORT_IGES
100
AcDbLine
 62
7
  6
CONTINUOUS
 10
27.1054749533
 20
6.250939612
 11
27.037544574
 21
6.1337770386
  0
LINE
  5
618
100
AcDbEntity
  8
IMPORT_IGES
100
AcDbLine
 62
7
  6
CONTINUOUS
 10
27.3331150913
 20
6.0929645077
 11
27.3529623268
 21
6.1271959253
  0
LINE
  5
619
100
AcDbEntity
  8
IMPORT_IGES
100
AcDbLine
 62
7
  6
CONTINUOUS
 10
24.1819380845
 20
0.2995438116
 11
24.0954801693
 21
0.1504259657
  0
LINE
  5
61A
100
AcDbEntity
  8
IMPORT_IGES
100
AcDbLine
 62
7
  6
CONTINUOUS
 10
20.9871396561
 20
-5.210668393
 11
20.8655059653
 21
-5.4204554773
  0
LWPOLYLINE
  5
61B
100
AcDbEntity
  8
ASSI
100
AcDbPolyline
 62
250
  6
CONTINUOUS
 90
6
 70
0
 10
8.2849248233
 20
-26.1141097727
 10
8.2863151582
 20
-26.1118305167
 10
8.2877730114
 20
-26.1096123453
 10
8.2892934819
 20
-26.1074650509
 10
8.2908814707
 20
-26.1053788411
 10
8.2925369778
 20
-26.1033537158
  0
LINE
  5
61C
100
AcDbEntity
  8
0
100
AcDbLine
 62
7
  6
CONTINUOUS
 10
36.3928751449
 20
2.9334692342
 11
19.1974416903
 21
-6.1567800899
  0
LINE
  5
61D
100
AcDbEntity
  8
0
100
AcDbLine
 62
7
  6
CONTINUOUS
 10
36.3928751449
 20
1.2489889792
 11
19.1974416903
 21
-7.4671542977
  0
LINE
  5
61E
100
AcDbEntity
  8
0
100
AcDbLine
 62
7
  6
CONTINUOUS
 10
34.6444160244
 20
1.0738949014
 11
18.7022307372
 21
-6.8656547634
  0
LINE
  5
61F
100
AcDbEntity
  8
DRAFT
100
AcDbLine
 62
7
  6
CONTINUOUS
 10
34.6098221961
 20
1.0911918156
 11
35.6704823679
 21
1.6101853677
  0
LINE
  5
620
100
AcDbEntity
  8
ASSI
100
AcDbLine
 62
7
  6
CONTINUOUS
 10
11.3274952029
 20
10.9347354534
 11
10.2853489233
 21
11.1451484214
  0
LINE
  5
621
100
AcDbEntity
  8
ASSI
100
AcDbLine
 62
7
  6
CONTINUOUS
 10
11.3737834591
 20
10.9115913252
 11
10.2853489233
 21
11.1451484214
  0
LWPOLYLINE
  5
622
100
AcDbEntity
  8
ASSI
100
AcDbPolyline
 62
250
  6
CONTINUOUS
 90
11
 70
0
 10
4.7315632459
 20
11.9063637528
 10
4.2233955982
 20
12.1271801612
 10
3.7174837212
 20
12.3491046317
 10
3.2138276149
 20
12.5721371642
 10
2.7125640956
 20
12.7962163244
 10
2.2135563469
 20
13.0214035467
 10
1.7163939204
 20
13.2478831343
 10
1.2208709616
 20
13.475747384
 10
0.7271933249
 20
13.7049039989
 10
0.2355681249
 20
13.9352603924
 10
-0.2539484591
 20
14.1667919131
  0
LINE
  5
623
100
AcDbEntity
  8
SMUSSO
100
AcDbLine
 62
7
  6
CONTINUOUS
 10
31.0573339397
 20
-0.7125487918
 11
30.2548979521
 21
-0.311330798
  0
LINE
  5
624
100
AcDbEntity
  8
IMPORT_IGES
100
AcDbLine
 62
7
  6
CONTINUOUS
 10
22.4875370928
 20
3.7436185666
 11
22.1659946151
 21
3.9043898055
  0
LINE
  5
625
100
AcDbEntity
  8
DRAFT
100
AcDbLine
 62
7
  6
CONTINUOUS
 10
36.3928751449
 20
-3.0811380397
 11
35.6704823679
 21
-2.7199416512
  0
LINE
  5
626
100
AcDbEntity
  8
0
100
AcDbLine
 62
250
  6
CONTINUOUS
 10
19.1974416903
 20
5.5232267591
 11
18.6879824713
 21
5.7779563686
  0
LINE
  5
627
100
AcDbEntity
  8
RACCORDO
100
AcDbLine
 62
7
  6
CONTINUOUS
 10
30.7122700833
 20
-0.0695441215
 11
31.5287393979
 21
-0.4777787788
  0
LINE
  5
628
100
AcDbEntity
  8
IMPORT_IGES
100
AcDbLine
 62
7
  6
CONTINUOUS
 10
22.6996691272
 20
4.109492205
 11
22.537734264
 21
4.1904596365
  0
LINE
  5
629
100
AcDbEntity
  8
ASSI
100
AcDbLine
 62
7
  6
CONTINUOUS
 10
11.3737834591
 20
10.9115913252
 11
11.3274952029
 21
10.9347354534
  0
LINE
  5
62A
100
AcDbEntity
  8
ASSI
100
AcDbLine
 62
7
  6
CONTINUOUS
 10
-6.6100346771
 20
22.3517649809
 11
-6.5918035817
 21
22.3415590526
  0
LINE
  5
62B
100
AcDbEntity
  8
ASSI
100
AcDbLine
 62
250
  6
CONTINUOUS
 10
-6.6738763773
 20
22.4865093982
 11
-6.6568043148
 21
22.4767901871
  0
LWPOLYLINE
  5
62C
100
AcDbEntity
  8
ASSI
100
AcDbPolyline
 62
250
  6
CONTINUOUS
 90
9
 70
0
 10
-6.5920566212
 20
22.3416845385
 10
-6.6015411946
 20
22.3471442476
 10
-6.6155904322
 20
22.3583734395
 10
-6.6278212389
 20
22.3724059581
 10
-6.6380650528
 20
22.3890538979
 10
-6.6461804696
 20
22.4080898665
 10
-6.6520569328
 20
22.4292550019
 10
-6.6556144802
 20
22.452264566
 10
-6.6568043057
 20
22.4768075337
  0
LINE
  5
62D
100
AcDbEntity
  8
ASSI
100
AcDbLine
 62
250
  6
CONTINUOUS
 10
-4.5286302768
 20
21.3099887938
 11
-4.5350510819
 21
21.3136732956
  0
LWPOLYLINE
  5
62E
100
AcDbEntity
  8
ASSI
100
AcDbPolyline
 62
250
  6
CONTINUOUS
 90
17
 70
0
 10
8.0517240136
 20
15.0202515664
 10
8.0457113353
 20
15.0243172715
 10
8.0398621369
 20
15.0289562124
 10
8.0342077717
 20
15.0341871519
 10
8.0288030365
 20
15.0400012941
 10
8.0236768449
 20
15.0464071697
 10
8.0188588067
 20
15.0534108076
 10
8.0143965636
 20
15.0609836684
 10
8.0103150341
 20
15.0691208334
 10
8.006638799
 20
15.0778149278
 10
8.0034042265
 20
15.087018278
 10
8.0006292413
 20
15.0967129748
 10
7.9983306004
 20
15.1068793086
 10
7.996530206
 20
15.1174534227
 10
7.9952380611
 20
15.1283927024
 10
7.9944586524
 20
15.1396810075
 10
7.9941977135
 20
15.1512873723
  0
LINE
  5
62F
100
AcDbEntity
  8
ASSI
100
AcDbLine
 62
250
  6
CONTINUOUS
 10
-6.6060064468
 20
22.3502611588
 11
-6.5992071039
 21
22.3456610659
  0
LINE
  5
630
100
AcDbEntity
  8
ASSI
100
AcDbLine
 62
250
  6
CONTINUOUS
 10
5.9802627794
 20
16.0571829827
 11
5.9872936012
 21
16.0524107134
  0
LINE
  5
631
100
AcDbEntity
  8
ASSI
100
AcDbLine
 62
250
  6
CONTINUOUS
 10
-4.5347766915
 20
21.3135019189
 11
-4.541081785
 21
21.3177826961
  0
LWPOLYLINE
  5
632
100
AcDbEntity
  8
ASSI
100
AcDbPolyline
 62
7
  6
CONTINUOUS
 90
3
 70
0
 10
-6.6284838676
 20
22.3646477574
 10
-6.6080226037
 20
22.3505209096
 10
-6.5918555657
 20
22.3415851623
  0
LINE
  5
633
100
AcDbEntity
  8
ASSI
100
AcDbLine
 62
7
  6
CONTINUOUS
 10
-2.1213075094
 20
23.1200253142
 11
-2.1405852799
 21
23.1344078371
  0
LINE
  5
634
100
AcDbEntity
  8
ASSI
100
AcDbLine
 62
250
  6
CONTINUOUS
 10
5.973838469
 20
16.0624177564
 11
5.9804942583
 21
16.0570108062
  0
LWPOLYLINE
  5
635
100
AcDbEntity
  8
ASSI
100
AcDbPolyline
 62
250
  6
CONTINUOUS
 90
15
 70
0
 10
8.2838126304
 20
15.1255386274
 10
8.2826621185
 20
15.1265908731
 10
8.2815679805
 20
15.1277604314
 10
8.2805310902
 20
15.1290503145
 10
8.2795505737
 20
15.1304575101
 10
8.2786469549
 20
15.1319764376
 10
8.2778217861
 20
15.1336100772
 10
8.2770735148
 20
15.1353554487
 10
8.2764180075
 20
15.1371980302
 10
8.2758573673
 20
15.1391403892
 10
8.275389491
 20
15.1411799583
 10
8.2750239348
 20
15.1432945134
 10
8.2747638842
 20
15.1454766466
 10
8.2746061537
 20
15.1477337659
 10
8.2745507434
 20
15.1500658713
  0
LINE
  5
636
100
AcDbEntity
  8
ASSI
100
AcDbLine
 62
7
  6
CONTINUOUS
 10
10.5107181338
 20
16.7745709273
 11
10.4935961708
 21
16.7982468594
  0
LINE
  5
637
100
AcDbEntity
  8
IMPORT_IGES
100
AcDbLine
 62
7
  6
CONTINUOUS
 10
22.9973667981
 20
-4.1479754422
 11
23.0389274204
 21
-4.7058869476
  0
LINE
  5
638
100
AcDbEntity
  8
IMPORT_IGES
100
AcDbLine
 62
7
  6
CONTINUOUS
 10
23.0454915894
 20
-4.7026178508
 11
23.0039165608
 21
-4.1445129545
  0
LINE
  5
639
100
AcDbEntity
  8
IMPORT_IGES
100
AcDbLine
 62
7
  6
CONTINUOUS
 10
22.4875370928
 20
3.7436185666
 11
22.4875370928
 21
3.6797628995
  0
LINE
  5
63A
100
AcDbEntity
  8
IMPORT_IGES
100
AcDbLine
 62
7
  6
CONTINUOUS
 10
23.3890982388
 20
-8.8616214002
 11
23.3890982388
 21
-8.2710162906
  0
LINE
  5
63B
100
AcDbEntity
  8
0
100
AcDbLine
 62
250
  6
CONTINUOUS
 10
23.3995107456
 20
13.1605666166
 11
23.3995107456
 21
13.2814646658
  0
LINE
  5
63C
100
AcDbEntity
  8
IMPORT_IGES
100
AcDbLine
 62
7
  6
CONTINUOUS
 10
19.653143285
 20
-10.7222069703
 11
20.051272842
 21
-10.0355350588
  0
LINE
  5
63D
100
AcDbEntity
  8
IMPORT_IGES
100
AcDbLine
 62
7
  6
CONTINUOUS
 10
27.2247251968
 20
2.3368401004
 11
27.2916725466
 21
2.4523071986
  0
LINE
  5
63E
100
AcDbEntity
  8
IMPORT_IGES
100
AcDbLine
 62
7
  6
CONTINUOUS
 10
27.5255888743
 20
2.5759654795
 11
27.2302746063
 21
2.0666237103
  0
LINE
  5
63F
100
AcDbEntity
  8
IMPORT_IGES
100
AcDbLine
 62
7
  6
CONTINUOUS
 10
20.2851891696
 20
-9.9118767779
 11
19.8812205293
 21
-10.6086196185
  0
LINE
  5
640
100
AcDbEntity
  8
ASSI
100
AcDbLine
 62
7
  6
CONTINUOUS
 10
10.4973896198
 20
-25.485474709
 11
10.5120535458
 21
-25.4615789521
  0
LWPOLYLINE
  5
641
100
AcDbEntity
  8
ASSI
100
AcDbPolyline
 62
250
  6
CONTINUOUS
 90
10
 70
0
 10
8.082842706
 20
-25.9168374898
 10
8.065631564
 20
-25.9392047577
 10
8.0498460653
 20
-25.9632132904
 10
8.0357000317
 20
-25.9885401179
 10
8.0233841131
 20
-26.0148459991
 10
8.0130678497
 20
-26.0417739777
 10
8.0048955806
 20
-26.0689537892
 10
7.9989788404
 20
-26.0960155263
 10
7.9953966133
 20
-26.1225949777
 10
7.9941977051
 20
-26.1483323122
  0
LWPOLYLINE
  5
642
100
AcDbEntity
  8
ASSI
100
AcDbPolyline
 62
250
  6
CONTINUOUS
 90
10
 70
0
 10
8.2925369778
 20
-26.1033537158
 10
8.2889804835
 20
-26.1079158926
 10
8.2857922991
 20
-26.1126746528
 10
8.2829724245
 20
-26.1176299963
 10
8.2804925984
 20
-26.1228542207
 10
8.2783810822
 20
-26.1282750285
 10
8.2767226602
 20
-26.1336755264
 10
8.2755455938
 20
-26.1389834168
 10
8.2748216215
 20
-26.1442709973
 10
8.2745507434
 20
-26.1495382681
  0
LINE
  5
643
100
AcDbEntity
  8
ASSI
100
AcDbLine
 62
7
  6
CONTINUOUS
 10
7.6566993275
 20
-25.1427468823
 11
7.4091704826
 21
-25.4342913852
  0
LINE
  5
644
100
AcDbEntity
  8
ASSI
100
AcDbLine
 62
7
  6
CONTINUOUS
 10
11.3737834591
 20
-19.6313486148
 11
10.2853489233
 21
-20.8977915186
  0
LINE
  5
645
100
AcDbEntity
  8
0
100
AcDbLine
 62
7
  6
CONTINUOUS
 10
30.3866021057
 20
-5.0010202277
 11
26.7331762104
 21
-6.9386873661
  0
LINE
  5
646
100
AcDbEntity
  8
0
100
AcDbLine
 62
7
  6
CONTINUOUS
 10
36.3928751449
 20
-1.3966577847
 11
19.1974416903
 21
-10.4869071088
  0
LINE
  5
647
100
AcDbEntity
  8
0
100
AcDbLine
 62
7
  6
CONTINUOUS
 10
36.3928751449
 20
-3.0811380397
 11
19.1974416903
 21
-11.7972813166
  0
LINE
  5
648
100
AcDbEntity
  8
0
100
AcDbLine
 62
7
  6
CONTINUOUS
 10
30.6920580617
 20
-4.9515489858
 11
23.3890982388
 21
-8.6172284122
  0
LINE
  5
649
100
AcDbEntity
  8
0
100
AcDbLine
 62
7
  6
CONTINUOUS
 10
34.6444160244
 20
-3.2562321175
 11
18.7022307372
 21
-11.1957817823
  0
LINE
  5
64A
100
AcDbEntity
  8
DRAFT
100
AcDbLine
 62
7
  6
CONTINUOUS
 10
34.6098221961
 20
-3.2389352033
 11
35.6704823679
 21
-2.7199416512
  0
LINE
  5
64B
100
AcDbEntity
  8
ASSI
100
AcDbLine
 62
7
  6
CONTINUOUS
 10
8.0886146462
 20
15.003893703
 11
8.1120157384
 21
14.9975565684
  0
LWPOLYLINE
  5
64C
100
AcDbEntity
  8
ASSI
100
AcDbPolyline
 62
7
  6
CONTINUOUS
 90
3
 70
0
 10
8.0683932458
 20
15.0117110453
 10
8.090147103
 20
15.0033915689
 10
8.1120457362
 20
14.9975572662
  0
LINE
  5
64D
100
AcDbEntity
  8
ASSI
100
AcDbLine
 62
7
  6
CONTINUOUS
 10
8.0655058291
 20
15.0130205378
 11
8.0886146462
 21
15.003893703
  0
LWPOLYLINE
  5
64E
100
AcDbEntity
  8
ASSI
100
AcDbPolyline
 62
250
  6
CONTINUOUS
 90
5
 70
0
 10
8.2899853461
 20
15.1219576266
 10
8.2887238163
 20
15.1224647537
 10
8.287463909
 20
15.1230703961
 10
8.2862135257
 20
15.1237783888
 10
8.2849963707
 20
15.1246002382
  0
LINE
  5
64F
100
AcDbEntity
  8
ASSI
100
AcDbLine
 62
250
  6
CONTINUOUS
 10
6.1027815476
 20
16.8044309489
 11
6.0840278108
 21
16.8120190453
  0
LINE
  5
650
100
AcDbEntity
  8
ASSI
100
AcDbLine
 62
250
  6
CONTINUOUS
 10
7.994197713
 20
15.4685579736
 11
8.0136361486
 21
15.4600219371
  0
LWPOLYLINE
  5
651
100
AcDbEntity
  8
ASSI
100
AcDbPolyline
 62
250
  6
CONTINUOUS
 90
13
 70
0
 10
-4.5923029921
 20
21.4445395258
 10
-4.5728645699
 20
21.4360034945
 10
-4.5513850452
 20
21.4287934738
 10
-4.5282238282
 20
21.4230301067
 10
-4.5037684682
 20
21.4188098299
 10
-4.4784281694
 20
21.4162032599
 10
-4.4526269429
 20
21.4152540116
 10
-4.4267965128
 20
21.4159779685
 10
-4.4013690916
 20
21.418363017
 10
-4.3767701483
 20
21.4223692486
 10
-4.3534112896
 20
21.4279296284
 10
-4.3316833719
 20
21.4349511163
 10
-4.3119499617
 20
21.4433162239
  0
LWPOLYLINE
  5
652
100
AcDbEntity
  8
ASSI
100
AcDbPolyline
 62
250
  6
CONTINUOUS
 90
13
 70
0
 10
-4.5923029921
 20
21.7618083261
 10
-4.5728645614
 20
21.7532722916
 10
-4.5513850282
 20
21.7460622692
 10
-4.5282238035
 20
21.7402989018
 10
-4.5037684372
 20
21.7360786259
 10
-4.4784281341
 20
21.7334720577
 10
-4.4526269059
 20
21.7325228117
 10
-4.4267964769
 20
21.733246771
 10
-4.4013690595
 20
21.7356318214
 10
-4.3767701223
 20
21.7396380541
 10
-4.3534112715
 20
21.7451984338
 10
-4.3316833627
 20
21.75221992
 10
-4.3119499617
 20
21.7605850242
  0
LINE
  5
653
100
AcDbEntity
  8
ASSI
100
AcDbLine
 62
7
  6
CONTINUOUS
 10
8.0594049749
 20
15.0159544781
 11
8.0683932458
 21
15.0117110453
  0
LWPOLYLINE
  5
654
100
AcDbEntity
  8
ASSI
100
AcDbPolyline
 62
250
  6
CONTINUOUS
 90
28
 70
0
 10
2.8290913178
 20
19.1050971307
 10
2.8273956227
 20
19.1059104582
 10
2.82566288
 20
19.1066199693
 10
2.8238930897
 20
19.1072256642
 10
2.8220754
 20
19.1077389994
 10
2.8202206626
 20
19.1081485183
 10
2.8183614331
 20
19.1084198505
 10
2.8164966641
 20
19.1085488802
 10
2.814627403
 20
19.1085397231
 10
2.8127893476
 20
19.1083703566
 10
2.8109828183
 20
19.1080354706
 10
2.8092074947
 20
19.1075403752
 10
2.8074981133
 20
19.1068789788
 10
2.8058570505
 20
19.1060462587
 10
2.8042819299
 20
19.1050472376
 10
2.8028003594
 20
19.1038908909
 10
2.8014157198
 20
19.1025746759
 10
2.8001246301
 20
19.1011011352
 10
2.7989445559
 20
19.0994868727
 10
2.797877522
 20
19.0977303932
 10
2.7969215034
 20
19.0958331918
 10
2.7960878906
 20
19.0938163578
 10
2.7953781896
 20
19.0916783214
 10
2.7947908944
 20
19.0894206525
 10
2.794332877
 20
19.0870691493
 10
2.7940064281
 20
19.0846324113
 10
2.7938092569
 20
19.0821018391
 10
2.7937413636
 20
19.0794774326
  0
LINE
  5
655
100
AcDbEntity
  8
ASSI
100
AcDbLine
 62
7
  6
CONTINUOUS
 10
8.0593556901
 20
15.0159784555
 11
8.0655058291
 21
15.0130205378
  0
LINE
  5
656
100
AcDbEntity
  8
ASSI
100
AcDbLine
 62
7
  6
CONTINUOUS
 10
-4.527145015
 20
21.3092288081
 11
-4.5210669481
 21
21.3063055536
  0
LINE
  5
657
100
AcDbEntity
  8
ASSI
100
AcDbLine
 62
7
  6
CONTINUOUS
 10
-5.7213357965
 20
20.6447567325
 11
-5.5277715104
 21
20.5479745895
  0
LINE
  5
658
100
AcDbEntity
  8
ASSI
100
AcDbLine
 62
7
  6
CONTINUOUS
 10
6.8651649086
 20
14.35150638
 11
7.0587291947
 21
14.2547242369
  0
LINE
  5
659
100
AcDbEntity
  8
RACCORDO
100
AcDbLine
 62
7
  6
CONTINUOUS
 10
30.2271259385
 20
3.2041168641
 11
29.4494045149
 21
3.5929775759
  0
LINE
  5
65A
100
AcDbEntity
  8
0
100
AcDbLine
 62
7
  6
CONTINUOUS
 10
34.6444160244
 20
1.0738949014
 11
34.6098221961
 21
1.0911918156
  0
LINE
  5
65B
100
AcDbEntity
  8
ASSI
100
AcDbLine
 62
7
  6
CONTINUOUS
 10
-5.9272965334
 20
21.5002303504
 11
-5.7945591012
 21
21.4338616343
  0
LINE
  5
65C
100
AcDbEntity
  8
ASSI
100
AcDbLine
 62
7
  6
CONTINUOUS
 10
-4.6346041598
 20
20.8538841636
 11
-3.907597211
 21
20.4903806892
  0
LINE
  5
65D
100
AcDbEntity
  8
ASSI
100
AcDbLine
 62
7
  6
CONTINUOUS
 10
6.6592041717
 20
15.2069799978
 11
6.7919416039
 21
15.1406112817
  0
LINE
  5
65E
100
AcDbEntity
  8
ASSI
100
AcDbLine
 62
7
  6
CONTINUOUS
 10
7.9518965454
 20
14.560633811
 11
8.6789034941
 21
14.1971303366
  0
LINE
  5
65F
100
AcDbEntity
  8
SMUSSO
100
AcDbLine
 62
7
  6
CONTINUOUS
 10
30.5813802516
 20
3.3805430982
 11
29.7931129878
 21
3.7746767301
  0
LINE
  5
660
100
AcDbEntity
  8
ASSI
100
AcDbLine
 62
7
  6
CONTINUOUS
 10
-6.5920566212
 20
22.3416845385
 11
-5.7932931394
 21
21.9423027976
  0
LINE
  5
661
100
AcDbEntity
  8
ASSI
100
AcDbLine
 62
7
  6
CONTINUOUS
 10
-5.3258675746
 20
21.7085900151
 11
-4.5271029111
 21
21.3092076834
  0
LINE
  5
662
100
AcDbEntity
  8
ASSI
100
AcDbLine
 62
7
  6
CONTINUOUS
 10
5.9944429434
 20
16.0484347562
 11
6.7932075657
 21
15.649052445
  0
LINE
  5
663
100
AcDbEntity
  8
ASSI
100
AcDbLine
 62
7
  6
CONTINUOUS
 10
7.2606331305
 20
15.4153396626
 11
8.059397794
 21
15.0159573308
  0
LINE
  5
664
100
AcDbEntity
  8
SMUSSO
100
AcDbLine
 62
7
  6
CONTINUOUS
 10
31.0573339397
 20
3.6175782271
 11
30.2548979521
 21
4.0187962209
  0
LINE
  5
665
100
AcDbEntity
  8
ASSI
100
AcDbLine
 62
250
  6
CONTINUOUS
 10
-5.7213357965
 20
22.009055928
 11
-6.6568043148
 21
22.4768075377
  0
LINE
  5
666
100
AcDbEntity
  8
ASSI
100
AcDbLine
 62
250
  6
CONTINUOUS
 10
-5.5277715104
 20
21.9122737849
 11
-4.5923029921
 21
21.4445377251
  0
LINE
  5
667
100
AcDbEntity
  8
ASSI
100
AcDbLine
 62
250
  6
CONTINUOUS
 10
7.0587291947
 20
15.6190234324
 11
7.994197713
 21
15.1512873725
  0
LINE
  5
668
100
AcDbEntity
  8
ASSI
100
AcDbLine
 62
250
  6
CONTINUOUS
 10
6.8651649086
 20
15.7158055754
 11
5.9296963903
 21
16.1835398346
  0
LINE
  5
669
100
AcDbEntity
  8
ASSI
100
AcDbLine
 62
7
  6
CONTINUOUS
 10
-0.9185692377
 20
19.7483599519
 11
1.3720791594
 21
18.6030357534
  0
LINE
  5
66A
100
AcDbEntity
  8
ASSI
100
AcDbLine
 62
7
  6
CONTINUOUS
 10
2.7937413636
 20
17.8922046513
 11
5.0843897607
 21
16.7468804527
  0
LINE
  5
66B
100
AcDbEntity
  8
DRAFT
100
AcDbLine
 62
7
  6
CONTINUOUS
 10
36.3928751449
 20
1.2489889792
 11
35.6704823679
 21
1.6101853677
  0
LINE
  5
66C
100
AcDbEntity
  8
0
100
AcDbLine
 62
250
  6
CONTINUOUS
 10
19.1974416903
 20
9.853353778
 11
18.6879824713
 21
10.1080833875
  0
LINE
  5
66D
100
AcDbEntity
  8
ASSI
100
AcDbLine
 62
250
  6
CONTINUOUS
 10
-6.6568043148
 20
22.7940589875
 11
-4.5923029921
 21
21.7618083261
  0
LINE
  5
66E
100
AcDbEntity
  8
ASSI
100
AcDbLine
 62
250
  6
CONTINUOUS
 10
5.9296963903
 20
16.5008086349
 11
7.994197713
 21
15.4685579736
  0
LINE
  5
66F
100
AcDbEntity
  8
RACCORDO
100
AcDbLine
 62
7
  6
CONTINUOUS
 10
30.7122700833
 20
4.2605828974
 11
31.5287393979
 21
3.8523482401
  0
LINE
  5
670
100
AcDbEntity
  8
ASSI
100
AcDbLine
 62
7
  6
CONTINUOUS
 10
-2.6547051724
 20
20.992674544
 11
-0.9771478814
 21
20.1538958985
  0
LINE
  5
671
100
AcDbEntity
  8
ASSI
100
AcDbLine
 62
7
  6
CONTINUOUS
 10
1.8707782271
 20
18.7299328442
 11
2.7351627198
 21
18.2977405979
  0
LINE
  5
672
100
AcDbEntity
  8
ASSI
100
AcDbLine
 62
7
  6
CONTINUOUS
 10
5.5830888284
 20
16.8737775436
 11
5.9101100142
 21
16.7102669507
  0
LINE
  5
673
100
AcDbEntity
  8
IMPORT_IGES
100
AcDbLine
 62
7
  6
CONTINUOUS
 10
26.919435984
 20
6.2193756334
 11
26.5633569846
 21
6.3974151331
  0
LINE
  5
674
100
AcDbEntity
  8
IMPORT_IGES
100
AcDbLine
 62
7
  6
CONTINUOUS
 10
26.6844713426
 20
6.4614414174
 11
27.1054749533
 21
6.250939612
  0
LINE
  5
675
100
AcDbEntity
  8
ASSI
100
AcDbLine
 62
250
  6
CONTINUOUS
 10
-6.4837191576
 20
23.0976813014
 11
-4.4180051162
 21
22.0648242807
  0
LINE
  5
676
100
AcDbEntity
  8
ASSI
100
AcDbLine
 62
250
  6
CONTINUOUS
 10
6.1027815476
 20
16.8044309489
 11
8.1684955889
 21
15.7715739282
  0
LINE
  5
677
100
AcDbEntity
  8
IMPORT_IGES
100
AcDbLine
 62
7
  6
CONTINUOUS
 10
27.2804750154
 20
6.5527699335
 11
27.0629605453
 21
6.6615271686
  0
LINE
  5
678
100
AcDbEntity
  8
ASSI
100
AcDbLine
 62
7
  6
CONTINUOUS
 10
-2.6547051724
 20
21.6846647955
 11
-1.9865694573
 21
21.350596938
  0
LINE
  5
679
100
AcDbEntity
  8
ASSI
100
AcDbLine
 62
7
  6
CONTINUOUS
 10
9.93179554
 20
15.3914144393
 11
10.626613567
 21
15.0440054258
  0
LINE
  5
67A
100
AcDbEntity
  8
ASSI
100
AcDbLine
 62
7
  6
CONTINUOUS
 10
2.5528384575
 20
19.0815960036
 11
2.7351627198
 21
18.9904338724
  0
LINE
  5
67B
100
AcDbEntity
  8
ASSI
100
AcDbLine
 62
250
  6
CONTINUOUS
 10
-0.8832192834
 20
20.9612524313
 11
1.3367292052
 21
19.851278187
  0
LINE
  5
67C
100
AcDbEntity
  8
ASSI
100
AcDbLine
 62
250
  6
CONTINUOUS
 10
5.0490398064
 20
17.9951228864
 11
2.8290913178
 21
19.1050971307
  0
LINE
  5
67D
100
AcDbEntity
  8
ASSI
100
AcDbLine
 62
250
  6
CONTINUOUS
 10
-0.7442681153
 20
21.2039087613
 11
1.4756824184
 21
20.0939334944
  0
LINE
  5
67E
100
AcDbEntity
  8
ASSI
100
AcDbLine
 62
250
  6
CONTINUOUS
 10
5.1879930197
 20
18.2377781938
 11
2.9680445311
 21
19.3477524381
  0
LINE
  5
67F
100
AcDbEntity
  8
ASSI
100
AcDbLine
 62
250
  6
CONTINUOUS
 10
8.0593584552
 20
15.0159770117
 11
8.0578704283
 21
15.0167384412
  0
LINE
  5
680
100
AcDbEntity
  8
ASSI
100
AcDbLine
 62
250
  6
CONTINUOUS
 10
-4.5271422499
 20
21.3092273643
 11
-4.5288754099
 21
21.3101174375
  0
LWPOLYLINE
  5
681
100
AcDbEntity
  8
ASSI
100
AcDbPolyline
 62
250
  6
CONTINUOUS
 90
8
 70
0
 10
1.3367292052
 20
19.851278187
 10
1.3384414458
 20
19.8503859275
 10
1.3401881642
 20
19.8493531514
 10
1.3419693603
 20
19.8481798589
 10
1.343795816
 20
19.8468662783
 10
1.3456567494
 20
19.8454121812
 10
1.3475198153
 20
19.8438168826
 10
1.3493859489
 20
19.8420752979
  0
LWPOLYLINE
  5
682
100
AcDbEntity
  8
ASSI
100
AcDbPolyline
 62
250
  6
CONTINUOUS
 90
8
 70
0
 10
1.4756824184
 20
20.0939334944
 10
1.4840781998
 20
20.0893663873
 10
1.4927037568
 20
20.0841556402
 10
1.5015359399
 20
20.0782707381
 10
1.5105677251
 20
20.0716687633
 10
1.5197481885
 20
20.0643371562
 10
1.5289845978
 20
20.0563058949
 10
1.5382413428
 20
20.0475673345
  0
LINE
  5
683
100
AcDbEntity
  8
ASSI
100
AcDbLine
 62
7
  6
CONTINUOUS
 10
5.9785047565
 20
16.0572558244
 11
5.9946463597
 21
16.0483338876
  0
LWPOLYLINE
  5
684
100
AcDbEntity
  8
ASSI
100
AcDbPolyline
 62
7
  6
CONTINUOUS
 90
9
 70
0
 10
7.2603613918
 20
15.4154760397
 10
7.2356407401
 20
15.4291735157
 10
7.2055713873
 20
15.4496504696
 10
7.1768703379
 20
15.4730626254
 10
7.1495856222
 20
15.4988636698
 10
7.1241019779
 20
15.5266767335
 10
7.100579347
 20
15.556210836
 10
7.0788147775
 20
15.5871030538
 10
7.0587291947
 20
15.6190234324
  0
LWPOLYLINE
  5
685
100
AcDbEntity
  8
ASSI
100
AcDbPolyline
 62
250
  6
CONTINUOUS
 90
13
 70
0
 10
-2.272000523
 20
23.1419874797
 10
-2.2532467862
 20
23.1314236199
 10
-2.2348560259
 20
23.1180573411
 10
-2.2171427915
 20
23.1021172577
 10
-2.2004100436
 20
23.0838760047
 10
-2.1849439735
 20
23.0636455764
 10
-2.1710091081
 20
23.0417719907
 10
-2.1588437838
 20
23.0186293686
 10
-2.1486560693
 20
22.994613533
 10
-2.1406202092
 20
22.9701352409
 10
-2.1348736443
 20
22.9456131595
 10
-2.1315146601
 20
22.9214667055
 10
-2.1306007059
 20
22.8981088703
  0
LWPOLYLINE
  5
686
100
AcDbEntity
  8
ASSI
100
AcDbPolyline
 62
250
  6
CONTINUOUS
 90
7
 70
0
 10
5.9296963903
 20
16.1835398346
 10
5.9126243228
 20
16.1932590489
 10
5.8982042789
 20
16.2039988145
 10
5.8866775444
 20
16.215579426
 10
5.8782369921
 20
16.2278071083
 10
5.8730238548
 20
16.2404772594
 10
5.8711177539
 20
16.2542234483
  0
LWPOLYLINE
  5
687
100
AcDbEntity
  8
ASSI
100
AcDbPolyline
 62
250
  6
CONTINUOUS
 90
6
 70
0
 10
5.9296963903
 20
16.5008086349
 10
5.9126243278
 20
16.510527846
 10
5.8982042864
 20
16.5212676084
 10
5.8866775522
 20
16.5328482169
 10
5.8782369986
 20
16.5450758969
 10
5.8730238585
 20
16.5577460463
  0
LWPOLYLINE
  5
688
100
AcDbEntity
  8
ASSI
100
AcDbPolyline
 62
250
  6
CONTINUOUS
 90
7
 70
0
 10
-0.9185692377
 20
20.9356327332
 10
-0.9356413002
 20
20.9453519443
 10
-0.9500613416
 20
20.9560917067
 10
-0.9615880758
 20
20.9676723152
 10
-0.9700286295
 20
20.9798999951
 10
-0.9752417695
 20
20.9925701446
 10
-0.9771478814
 20
21.0063434113
  0
LWPOLYLINE
  5
689
100
AcDbEntity
  8
ASSI
100
AcDbPolyline
 62
250
  6
CONTINUOUS
 90
7
 70
0
 10
2.7937413636
 20
19.0794774326
 10
2.776669301
 20
19.0891966437
 10
2.7622492596
 20
19.0999364061
 10
2.7507225255
 20
19.1115170146
 10
2.7422819718
 20
19.1237446945
 10
2.7370688317
 20
19.136414844
 10
2.7351627198
 20
19.1501881107
  0
LWPOLYLINE
  5
68A
100
AcDbEntity
  8
ASSI
100
AcDbPolyline
 62
7
  6
CONTINUOUS
 90
16
 70
0
 10
9.9317981943
 20
14.6994254157
 10
9.9680842832
 20
14.6785504815
 10
10.0042166176
 20
14.6531557824
 10
10.0397843679
 20
14.6234584662
 10
10.0745082511
 20
14.5895987067
 10
10.1078353325
 20
14.5520047813
 10
10.139014364
 20
14.5115199979
 10
10.1675167052
 20
14.4690349568
 10
10.1933581037
 20
14.4247263057
 10
10.2166063529
 20
14.3784121133
 10
10.2371221365
 20
14.330151833
 10
10.2543822708
 20
14.2808459303
 10
10.2679176126
 20
14.2315576646
 10
10.2775765798
 20
14.1830085756
 10
10.2833896318
 20
14.135554456
 10
10.2853489233
 20
14.0897007442
  0
LWPOLYLINE
  5
68B
100
AcDbEntity
  8
ASSI
100
AcDbPolyline
 62
7
  6
CONTINUOUS
 90
13
 70
0
 10
9.7903957156
 20
16.5887774479
 10
9.808846984
 20
16.578064959
 10
9.826989381
 20
16.5645765926
 10
9.8445083536
 20
16.5485407231
 10
9.8610995522
 20
16.5302288836
 10
9.8764779968
 20
16.5099537738
 10
9.8903830973
 20
16.4880640892
 10
9.9025794292
 20
16.4649354621
 10
9.9128559451
 20
16.4409623104
 10
9.9210337763
 20
16.4165538926
 10
9.9269741338
 20
16.3921284031
 10
9.9305804707
 20
16.368105752
 10
9.9317955327
 20
16.3448988386
  0
LINE
  5
68C
100
AcDbEntity
  8
ASSI
100
AcDbLine
 62
7
  6
CONTINUOUS
 10
-2.1404281877
 20
23.1343034693
 11
-2.160925574
 21
23.1463752104
  0
LWPOLYLINE
  5
68D
100
AcDbEntity
  8
ASSI
100
AcDbPolyline
 62
250
  6
CONTINUOUS
 90
13
 70
0
 10
-4.4180051162
 20
22.0648242807
 10
-4.3998531839
 20
22.0539595469
 10
-4.3819695018
 20
22.0403397586
 10
-4.3646599459
 20
22.024197864
 10
-4.3482205731
 20
22.0058099484
 10
-4.3329325565
 20
21.9854905123
 10
-4.319057377
 20
21.9635870923
 10
-4.306832351
 20
21.9404743168
 10
-4.296466571
 20
21.9165474988
 10
-4.2881373297
 20
21.8922158742
 10
-4.2819870876
 20
21.8678956025
 10
-4.2781210362
 20
21.8440026494
 10
-4.2766052991
 20
21.8209456714
  0
LINE
  5
68E
100
AcDbEntity
  8
IMPORT_IGES
100
AcDbLine
 62
7
  6
CONTINUOUS
 10
27.2302746063
 20
2.0666237103
 11
26.9484577568
 21
2.2708690267
  0
LINE
  5
68F
100
AcDbEntity
  8
IMPORT_IGES
100
AcDbLine
 62
7
  6
CONTINUOUS
 10
27.0592158353
 20
2.3294205341
 11
27.1249142884
 21
2.2818059172
  0
LINE
  5
690
100
AcDbEntity
  8
ASSI
100
AcDbLine
 62
7
  6
CONTINUOUS
 10
10.4744952384
 20
16.818547521
 11
10.452308681
 21
16.8367486361
  0
LINE
  5
691
100
AcDbEntity
  8
IMPORT_IGES
100
AcDbLine
 62
7
  6
CONTINUOUS
 10
27.1249142884
 20
2.2818059172
 11
27.0717433433
 21
2.3360431163
  0
LINE
  5
692
100
AcDbEntity
  8
IMPORT_IGES
100
AcDbLine
 62
7
  6
CONTINUOUS
 10
27.2247251968
 20
2.3368401004
 11
27.1730198863
 21
2.3895822741
  0
LINE
  5
693
100
AcDbEntity
  8
ASSI
100
AcDbLine
 62
7
  6
CONTINUOUS
 10
10.4940022219
 20
16.7977548488
 11
10.4741269839
 21
16.818890871
  0
LINE
  5
694
100
AcDbEntity
  8
IMPORT_IGES
100
AcDbLine
 62
7
  6
CONTINUOUS
 10
22.6996691272
 20
4.109492205
 11
22.7996691272
 21
4.0021789865
  0
LINE
  5
695
100
AcDbEntity
  8
IMPORT_IGES
100
AcDbLine
 62
7
  6
CONTINUOUS
 10
27.1102476748
 20
14.7378210911
 11
27.113282409
 21
14.6437371622
  0
LINE
  5
696
100
AcDbEntity
  8
IMPORT_IGES
100
AcDbLine
 62
7
  6
CONTINUOUS
 10
27.2247251968
 20
2.3368401004
 11
27.2302746063
 21
2.0666237103
  0
LINE
  5
697
100
AcDbEntity
  8
0
100
AcDbLine
 62
7
  6
CONTINUOUS
 10
25.7497742278
 20
28.0957948074
 11
25.7497742278
 21
28.1252355829
  0
LINE
  5
698
100
AcDbEntity
  8
0
100
AcDbLine
 62
7
  6
CONTINUOUS
 10
25.7996642691
 20
28.1500818918
 11
25.7996642691
 21
28.1192508887
  0
LINE
  5
699
100
AcDbEntity
  8
IMPORT_IGES
100
AcDbLine
 62
250
  6
CONTINUOUS
 10
26.5177233341
 20
15.033545251
 11
26.5177233341
 21
14.3471359894
  0
LINE
  5
69A
100
AcDbEntity
  8
IMPORT_IGES
100
AcDbLine
 62
250
  6
CONTINUOUS
 10
26.7591446904
 20
15.1611710143
 11
26.7591446904
 21
14.4673689947
  0
LINE
  5
69B
100
AcDbEntity
  8
DRAFT
100
AcDbLine
 62
7
  6
CONTINUOUS
 10
26.8510681998
 20
29.94789949
 11
26.8510681998
 21
28.6426714844
  0
LINE
  5
69C
100
AcDbEntity
  8
IMPORT_IGES
100
AcDbLine
 62
7
  6
CONTINUOUS
 10
27.5345117435
 20
15.5710635506
 11
27.5345117435
 21
14.8535183912
  0
LWPOLYLINE
  5
69D
100
AcDbEntity
  8
IMPORT_IGES
100
AcDbPolyline
 62
7
  6
CONTINUOUS
 90
7
 70
0
 10
31.2142042539
 20
8.0258300218
 10
31.2559171104
 20
8.1452171537
 10
31.309465936
 20
8.3251013177
 10
31.3538494263
 20
8.5054180284
 10
31.3888315965
 20
8.6855748775
 10
31.4141455607
 20
8.8648818655
 10
31.4229290537
 20
8.9663949633
  0
LINE
  5
69E
100
AcDbEntity
  8
IMPORT_IGES
100
AcDbLine
 62
7
  6
CONTINUOUS
 10
26.4140595295
 20
-2.3417639923
 11
25.8571003512
 21
-3.3023764786
  0
LINE
  5
69F
100
AcDbEntity
  8
ASSI
100
AcDbLine
 62
7
  6
CONTINUOUS
 10
10.4806011704
 20
-25.5075281604
 11
10.4975030179
 21
-25.4853091605
  0
LINE
  5
6A0
100
AcDbEntity
  8
ASSI
100
AcDbLine
 62
250
  6
CONTINUOUS
 10
8.715684835
 20
-25.1714619087
 11
8.0828419566
 21
-25.9168371093
  0
LINE
  5
6A1
100
AcDbEntity
  8
ASSI
100
AcDbLine
 62
250
  6
CONTINUOUS
 10
9.029344782
 20
-25.2355265131
 11
8.2925369778
 21
-26.1033537158
  0
LINE
  5
6A2
100
AcDbEntity
  8
ASSI
100
AcDbLine
 62
7
  6
CONTINUOUS
 10
10.4613827845
 20
-25.5280056279
 11
10.4807892386
 21
-25.5073051175
  0
LWPOLYLINE
  5
6A3
100
AcDbEntity
  8
ASSI
100
AcDbPolyline
 62
7
  6
CONTINUOUS
 90
8
 70
0
 10
10.1933830404
 20
-24.0873509717
 10
10.2166262485
 20
-24.0639816618
 10
10.2371285974
 20
-24.0358512517
 10
10.2543723581
 20
-24.0033678962
 10
10.2679207783
 20
-23.9672502595
 10
10.2776112087
 20
-23.9281075969
 10
10.2834325637
 20
-23.886284709
 10
10.2853489233
 20
-23.8422776879
  0
LINE
  5
6A4
100
AcDbEntity
  8
ASSI
100
AcDbLine
 62
7
  6
CONTINUOUS
 10
11.3274952029
 20
-20.4134915507
 11
10.9801131097
 21
-20.6652549412
  0
LINE
  5
6A5
100
AcDbEntity
  8
ASSI
100
AcDbLine
 62
250
  6
CONTINUOUS
 10
8.1616906893
 20
14.9974107636
 11
8.1819026407
 21
15.0031183469
  0
LWPOLYLINE
  5
6A6
100
AcDbEntity
  8
ASSI
100
AcDbPolyline
 62
250
  6
CONTINUOUS
 90
11
 70
0
 10
8.2330893367
 20
15.134679216
 10
8.2097304446
 20
15.1291188224
 10
8.1851314766
 20
15.1251125858
 10
8.1597040412
 20
15.1227275396
 10
8.133873608
 20
15.1220035904
 10
8.1080723903
 20
15.1229528502
 10
8.082732111
 20
15.1255594334
 10
8.0582767778
 20
15.1297797236
 10
8.0351155921
 20
15.135543103
 10
8.0136361015
 20
15.142753134
 10
7.994197713
 20
15.1512891731
  0
LINE
  5
6A7
100
AcDbEntity
  8
ASSI
100
AcDbLine
 62
250
  6
CONTINUOUS
 10
8.2097305975
 20
15.4463877044
 11
8.2330894439
 21
15.4519480841
  0
LWPOLYLINE
  5
6A8
100
AcDbEntity
  8
ASSI
100
AcDbPolyline
 62
250
  6
CONTINUOUS
 90
9
 70
0
 10
8.2097305568
 20
15.4463876964
 10
8.1851316136
 20
15.4423814648
 10
8.1597041923
 20
15.4399964164
 10
8.1338737622
 20
15.4392724594
 10
8.1080725357
 20
15.4402217077
 10
8.0827322369
 20
15.4428282777
 10
8.058276877
 20
15.4470485545
 10
8.0351156599
 20
15.4528119216
 10
8.0136361352
 20
15.4600219423
  0
LWPOLYLINE
  5
6A9
100
AcDbEntity
  8
ASSI
100
AcDbPolyline
 62
250
  6
CONTINUOUS
 90
4
 70
0
 10
8.1616906459
 20
14.9974107564
 10
8.1413418866
 20
14.9950158606
 10
8.121200637
 20
14.9959741678
 10
8.112102525
 20
14.9975379895
  0
LINE
  5
6AA
100
AcDbEntity
  8
ASSI
100
AcDbLine
 62
7
  6
CONTINUOUS
 10
8.7519213837
 20
14.8618122273
 11
8.1121025277
 21
14.997537989
  0
LINE
  5
6AB
100
AcDbEntity
  8
ASSI
100
AcDbLine
 62
250
  6
CONTINUOUS
 10
9.029344782
 20
14.9649502467
 11
8.2925369778
 21
15.1212504236
  0
LINE
  5
6AC
100
AcDbEntity
  8
ASSI
100
AcDbLine
 62
250
  6
CONTINUOUS
 10
8.2925369778
 20
15.1212504236
 11
8.2912563999
 21
15.1215528499
  0
LWPOLYLINE
  5
6AD
100
AcDbEntity
  8
ASSI
100
AcDbPolyline
 62
250
  6
CONTINUOUS
 90
6
 70
0
 10
6.0840278197
 20
16.8120190424
 10
6.0656370664
 20
16.8165364651
 10
6.0479238369
 20
16.8179059539
 10
6.0311910918
 20
16.8161040865
 10
6.0157250223
 20
16.8111616828
 10
6.0103816124
 20
16.8085545673
  0
LINE
  5
6AE
100
AcDbEntity
  8
ASSI
100
AcDbLine
 62
7
  6
CONTINUOUS
 10
-4.4979369203
 20
21.2971641433
 11
-4.4744849668
 21
21.2908069209
  0
LINE
  5
6AF
100
AcDbEntity
  8
IMPORT_IGES
100
AcDbLine
 62
7
  6
CONTINUOUS
 10
23.2726830063
 20
13.3180766806
 11
24.0188922857
 21
13.1026646164
  0
LWPOLYLINE
  5
6B0
100
AcDbEntity
  8
ASSI
100
AcDbPolyline
 62
250
  6
CONTINUOUS
 90
3
 70
0
 10
8.3123451075
 20
17.9092535109
 10
8.303458085
 20
17.912166302
 10
8.293833543
 20
17.9143061614
  0
LINE
  5
6B1
100
AcDbEntity
  8
ASSI
100
AcDbLine
 62
7
  6
CONTINUOUS
 10
8.3091957354
 20
17.9109179012
 11
8.288157566
 21
17.9186921478
  0
LINE
  5
6B2
100
AcDbEntity
  8
ASSI
100
AcDbLine
 62
7
  6
CONTINUOUS
 10
-4.5210669481
 20
21.3063055536
 11
-4.4979369203
 21
21.2971641433
  0
LWPOLYLINE
  5
6B3
100
AcDbEntity
  8
ASSI
100
AcDbPolyline
 62
7
  6
CONTINUOUS
 90
6
 70
0
 10
-4.9174684114
 20
23.9427095114
 10
-4.9359196798
 20
23.9504597359
 10
-4.9540620768
 20
23.9551108736
 10
-4.9715810494
 20
23.9565854245
 10
-4.988172248
 20
23.9548604827
 10
-5.0048075628
 20
23.9493992914
  0
LWPOLYLINE
  5
6B4
100
AcDbEntity
  8
ASSI
100
AcDbPolyline
 62
250
  6
CONTINUOUS
 90
5
 70
0
 10
8.2117583564
 20
17.9001080399
 10
8.1936064242
 20
17.9079970183
 10
8.175722742
 20
17.912767971
 10
8.1584131862
 20
17.9143392973
 10
8.1419738133
 20
17.9126841218
  0
LWPOLYLINE
  5
6B5
100
AcDbEntity
  8
ASSI
100
AcDbPolyline
 62
250
  6
CONTINUOUS
 90
10
 70
0
 10
10.4228389041
 20
16.8545177086
 10
10.4140107285
 20
16.8583752793
 10
10.405191671
 20
16.8612148684
 10
10.3960279271
 20
16.8632167747
 10
10.3865487495
 20
16.8643729549
 10
10.3767915752
 20
16.8646773445
 10
10.3667916235
 20
16.864127708
 10
10.3565854508
 20
16.8627249435
 10
10.3462145224
 20
16.8604744669
 10
10.335283015
 20
16.8572398432
  0
LWPOLYLINE
  5
6B6
100
AcDbEntity
  8
ASSI
100
AcDbPolyline
 62
250
  6
CONTINUOUS
 90
3
 70
0
 10
8.3208561069
 20
17.9055091072
 10
8.3119222449
 20
17.9094141667
 10
8.3030554986
 20
17.9122761445
  0
LWPOLYLINE
  5
6B7
100
AcDbEntity
  8
ASSI
100
AcDbPolyline
 62
250
  6
CONTINUOUS
 90
13
 70
0
 10
5.0843897607
 20
17.9341532341
 10
5.1038281489
 20
17.9256172161
 10
5.1253076397
 20
17.9184072022
 10
5.148468826
 20
17.9126438362
 10
5.1729241601
 20
17.9084235558
 10
5.1982644409
 20
17.9058169787
 10
5.2240656607
 20
17.9048677211
 10
5.2498960979
 20
17.9055916688
 10
5.2753235376
 20
17.90797671
 10
5.2999225067
 20
17.9119829378
 10
5.323281396
 20
17.9175433183
 10
5.3450093472
 20
17.9245648123
 10
5.364742791
 20
17.9329299322
  0
LWPOLYLINE
  5
6B8
100
AcDbEntity
  8
ASSI
100
AcDbPolyline
 62
250
  6
CONTINUOUS
 90
9
 70
0
 10
1.3720791594
 20
19.7903085347
 10
1.3915175477
 20
19.7817725167
 10
1.4129970385
 20
19.7745625028
 10
1.4361582248
 20
19.7687991368
 10
1.4606135589
 20
19.7645788564
 10
1.4859538397
 20
19.7619722793
 10
1.5117550595
 20
19.7610230217
 10
1.5375854966
 20
19.7617469694
 10
1.5630129364
 20
19.7641320106
  0
LWPOLYLINE
  5
6B9
100
AcDbEntity
  8
ASSI
100
AcDbPolyline
 62
250
  6
CONTINUOUS
 90
14
 70
0
 10
2.9680445311
 20
19.3477524381
 10
2.959500278
 20
19.3516612552
 10
2.9507187243
 20
19.3551681618
 10
2.9417246816
 20
19.3582168856
 10
2.9325267621
 20
19.3607547301
 10
2.9231784908
 20
19.3627148638
 10
2.9137757605
 20
19.3640309906
 10
2.9043563803
 20
19.3646566732
 10
2.8949619005
 20
19.3645464243
 10
2.8856918094
 20
19.3636636105
 10
2.8765876016
 20
19.3619802617
 10
2.8676931971
 20
19.3594711686
 10
2.8591035031
 20
19.3561362012
 10
2.8526875628
 20
19.3529841978
  0
LWPOLYLINE
  5
6BA
100
AcDbEntity
  8
ASSI
100
AcDbPolyline
 62
250
  6
CONTINUOUS
 90
7
 70
0
 10
-0.7442660701
 20
21.2039077387
 10
-0.7528103232
 20
21.2078165558
 10
-0.7615918769
 20
21.2113234624
 10
-0.7705859196
 20
21.2143721862
 10
-0.7797838391
 20
21.2169100307
 10
-0.7891321104
 20
21.2188701645
 10
-0.7985348407
 20
21.2201862913
  0
LWPOLYLINE
  5
6BB
100
AcDbEntity
  8
ASSI
100
AcDbPolyline
 62
7
  6
CONTINUOUS
 90
3
 70
0
 10
-4.2653691932
 20
24.1986203766
 10
-4.2796368776
 20
24.205152115
 10
-4.3008628537
 20
24.2127141493
  0
LWPOLYLINE
  5
6BC
100
AcDbEntity
  8
ASSI
100
AcDbPolyline
 62
7
  6
CONTINUOUS
 90
10
 70
0
 10
-4.2653683418
 20
24.1986203994
 10
-4.2796565265
 20
24.2051599581
 10
-4.3008859922
 20
24.2127210291
 10
-4.3229281096
 20
24.2180993091
 10
-4.3455540443
 20
24.2212018111
 10
-4.3686122139
 20
24.2219640256
 10
-4.3918737478
 20
24.2203229313
 10
-4.4149953681
 20
24.216269527
 10
-4.4377177589
 20
24.2098374137
 10
-4.4608492278
 20
24.2006168055
  0
LWPOLYLINE
  5
6BD
100
AcDbEntity
  8
RACCORDO
100
AcDbPolyline
 62
7
  6
CONTINUOUS
 90
23
 70
0
 10
5.1825682799
 20
20.6160702408
 10
5.1707671855
 20
20.6214945407
 10
5.1590642596
 20
20.6264798829
 10
5.1474722988
 20
20.6310216547
 10
5.1360045581
 20
20.6351160026
 10
5.1246731299
 20
20.6387591688
 10
5.1134889352
 20
20.6419474611
 10
5.1024645557
 20
20.644678518
 10
5.0916121061
 20
20.6469502623
 10
5.0809416195
 20
20.6487602011
 10
5.070465264
 20
20.650107577
 10
5.0601946849
 20
20.6509919371
 10
5.0501388833
 20
20.651412049
 10
5.040309495
 20
20.6513687657
 10
5.0307175873
 20
20.6508632575
 10
5.021370999
 20
20.6498955824
 10
5.0122807178
 20
20.6484681897
 10
5.0034571327
 20
20.6465838497
 10
4.9949068193
 20
20.6442439111
 10
4.9866400131
 20
20.6414523852
 10
4.978666328
 20
20.6382136
 10
4.970990994
 20
20.6345301655
 10
4.9690753636
 20
20.633516457
  0
LINE
  5
6BE
100
AcDbEntity
  8
ASSI
100
AcDbLine
 62
7
  6
CONTINUOUS
 10
8.3211169801
 20
17.9053775323
 11
8.3091957354
 21
17.9109179012
  0
LWPOLYLINE
  5
6BF
100
AcDbEntity
  8
ASSI
100
AcDbPolyline
 62
250
  6
CONTINUOUS
 90
28
 70
0
 10
-0.8832192834
 20
20.9612524313
 10
-0.8849149785
 20
20.9620657588
 10
-0.8866477212
 20
20.96277527
 10
-0.8884175115
 20
20.9633809648
 10
-0.8902352013
 20
20.9638943
 10
-0.8920899387
 20
20.9643038189
 10
-0.8939491682
 20
20.9645751512
 10
-0.8958139371
 20
20.9647041808
 10
-0.8976831982
 20
20.9646950237
 10
-0.8995212536
 20
20.9645256573
 10
-0.9013277829
 20
20.9641907712
 10
-0.9031031066
 20
20.9636956758
 10
-0.9048124879
 20
20.9630342794
 10
-0.9064535507
 20
20.9622015594
 10
-0.9080286713
 20
20.9612025382
 10
-0.9095102418
 20
20.9600461915
 10
-0.9108948815
 20
20.9587299765
 10
-0.9121859711
 20
20.9572564358
 10
-0.9133660453
 20
20.9556421733
 10
-0.9144330793
 20
20.9538856938
 10
-0.9153890978
 20
20.9519884924
 10
-0.9162227106
 20
20.9499716584
 10
-0.9169324116
 20
20.9478336221
 10
-0.9175197068
 20
20.9455759531
 10
-0.9179777242
 20
20.9432244499
 10
-0.9183041731
 20
20.9407877119
 10
-0.9185013443
 20
20.9382571397
 10
-0.9185692377
 20
20.9356327332
  0
LWPOLYLINE
  5
6C0
100
AcDbEntity
  8
ASSI
100
AcDbPolyline
 62
250
  6
CONTINUOUS
 90
10
 70
0
 10
10.4228388108
 20
16.8545177552
 10
10.4206816141
 20
16.8555618663
 10
10.4123183442
 20
16.858994706
 10
10.4035974459
 20
16.8616296192
 10
10.394548837
 20
16.8634561719
 10
10.3852041425
 20
16.8644666301
 10
10.3755995932
 20
16.8646564521
 10
10.3657690294
 20
16.8640247383
 10
10.3557470037
 20
16.8625734739
 10
10.3455725827
 20
16.8603087703
  0
LINE
  5
6C1
100
AcDbEntity
  8
ASSI
100
AcDbLine
 62
7
  6
CONTINUOUS
 10
-0.5334117528
 20
21.3176684803
 11
1.6940284558
 21
20.2039483759
  0
LINE
  5
6C2
100
AcDbEntity
  8
ASSI
100
AcDbLine
 62
7
  6
CONTINUOUS
 10
3.1788988484
 20
19.4615131796
 11
5.406339057
 21
18.3477930753
  0
LINE
  5
6C3
100
AcDbEntity
  8
ASSI
100
AcDbLine
 62
7
  6
CONTINUOUS
 10
-4.9174684114
 20
23.9427095114
 11
-2.7961049895
 21
22.8820278005
  0
LINE
  5
6C4
100
AcDbEntity
  8
ASSI
100
AcDbLine
 62
7
  6
CONTINUOUS
 10
7.6690322937
 20
17.6494591589
 11
9.7903957156
 21
16.5887774479
  0
LINE
  5
6C5
100
AcDbEntity
  8
IMPORT_IGES
100
AcDbLine
 62
7
  6
CONTINUOUS
 10
24.6055251159
 20
9.2636467611
 11
24.8048729946
 21
9.1639728218
  0
LINE
  5
6C6
100
AcDbEntity
  8
ASSI
100
AcDbLine
 62
7
  6
CONTINUOUS
 10
5.8221307174
 20
18.7905079502
 11
3.8553266806
 21
19.7739099686
  0
LINE
  5
6C7
100
AcDbEntity
  8
ASSI
100
AcDbLine
 62
7
  6
CONTINUOUS
 10
2.3472472203
 20
20.5279496987
 11
0.3804431835
 21
21.5113517171
  0
LINE
  5
6C8
100
AcDbEntity
  8
ASSI
100
AcDbLine
 62
250
  6
CONTINUOUS
 10
-4.3747423487
 20
24.1933583925
 11
-2.272000523
 21
23.1419874797
  0
LINE
  5
6C9
100
AcDbEntity
  8
ASSI
100
AcDbLine
 62
250
  6
CONTINUOUS
 10
8.2117583564
 20
17.9001080399
 11
10.3145001821
 21
16.8487371271
  0
LINE
  5
6CA
100
AcDbEntity
  8
ASSI
100
AcDbLine
 62
7
  6
CONTINUOUS
 10
-4.2656446173
 20
24.1987594693
 11
-2.1636618436
 21
23.1477680824
  0
LINE
  5
6CB
100
AcDbEntity
  8
ASSI
100
AcDbLine
 62
7
  6
CONTINUOUS
 10
8.3208560208
 20
17.9055091502
 11
10.4228389013
 21
16.85451771
  0
LINE
  5
6CC
100
AcDbEntity
  8
0
100
AcDbLine
 62
7
  6
CONTINUOUS
 10
34.6444160244
 20
5.4040219204
 11
34.6098221961
 21
5.4213188345
  0
LINE
  5
6CD
100
AcDbEntity
  8
RACCORDO
100
AcDbLine
 62
7
  6
CONTINUOUS
 10
5.1848148566
 20
20.6149738779
 11
7.2981628334
 21
19.5582998895
  0
LINE
  5
6CE
100
AcDbEntity
  8
RACCORDO
100
AcDbLine
 62
7
  6
CONTINUOUS
 10
5.5476796414
 20
20.810747754
 11
7.6834329957
 21
19.7428710769
  0
LINE
  5
6CF
100
AcDbEntity
  8
DRAFT
100
AcDbLine
 62
7
  6
CONTINUOUS
 10
36.3928751449
 20
5.5791159981
 11
35.6704823679
 21
5.9403123866
  0
LINE
  5
6D0
100
AcDbEntity
  8
RACCORDO
100
AcDbLine
 62
7
  6
CONTINUOUS
 10
31.3009178284
 20
8.2963860438
 11
31.5287393979
 21
8.182475259
  0
LINE
  5
6D1
100
AcDbEntity
  8
ASSI
100
AcDbLine
 62
7
  6
CONTINUOUS
 10
-2.1610488408
 20
23.1464387227
 11
-2.163703512
 21
23.1477880581
  0
LINE
  5
6D2
100
AcDbEntity
  8
ASSI
100
AcDbLine
 62
7
  6
CONTINUOUS
 10
10.4287819334
 20
16.8514310168
 11
10.4229526388
 21
16.8544607142
  0
LWPOLYLINE
  5
6D3
100
AcDbEntity
  8
IMPORT_IGES
100
AcDbPolyline
 62
7
  6
CONTINUOUS
 90
3
 70
0
 10
27.2804750154
 20
6.5527699335
 10
27.3058530008
 20
6.5376998726
 10
27.3104308304
 20
6.5346523375
  0
LINE
  5
6D4
100
AcDbEntity
  8
ASSI
100
AcDbLine
 62
7
  6
CONTINUOUS
 10
10.4526079867
 20
16.8365332888
 11
10.4285796099
 21
16.8515393543
  0
LWPOLYLINE
  5
6D5
100
AcDbEntity
  8
ASSI
100
AcDbPolyline
 62
7
  6
CONTINUOUS
 90
8
 70
0
 10
5.4770337796
 20
22.0350936136
 10
5.452154381
 20
22.0508453906
 10
5.4245487199
 20
22.0645229764
 10
5.3943562756
 20
22.0760001928
 10
5.3622209149
 20
22.0848544315
 10
5.3283792821
 20
22.0908982408
 10
5.2926578082
 20
22.0941498947
 10
5.2551073744
 20
22.0945152721
  0
LINE
  5
6D6
100
AcDbEntity
  8
IMPORT_IGES
100
AcDbLine
 62
7
  6
CONTINUOUS
 10
27.1041397639
 20
5.9789298913
 11
26.9608573403
 21
6.082773093
  0
LINE
  5
6D7
100
AcDbEntity
  8
IMPORT_IGES
100
AcDbLine
 62
7
  6
CONTINUOUS
 10
26.919435984
 20
6.2193756334
 11
27.169435984
 21
6.0381894155
  0
LINE
  5
6D8
100
AcDbEntity
  8
IMPORT_IGES
100
AcDbLine
 62
250
  6
CONTINUOUS
 10
27.3728737928
 20
6.1127651925
 11
27.3529623268
 21
6.1271959253
  0
LINE
  5
6D9
100
AcDbEntity
  8
IMPORT_IGES
100
AcDbLine
 62
7
  6
CONTINUOUS
 10
27.6808907505
 20
6.2661642334
 11
27.3108662081
 21
6.5343376227
  0
LINE
  5
6DA
100
AcDbEntity
  8
ASSI
100
AcDbLine
 62
7
  6
CONTINUOUS
 10
5.4993326862
 20
22.0173357514
 11
5.4770309878
 21
22.0350958372
  0
LWPOLYLINE
  5
6DB
100
AcDbEntity
  8
IMPORT_IGES
100
AcDbPolyline
 62
7
  6
CONTINUOUS
 90
15
 70
0
 10
27.3104308304
 20
6.5346523375
 10
27.3285528696
 20
6.51995601
 10
27.3485746218
 20
6.4995383457
 10
27.3660630879
 20
6.4761688796
 10
27.3808734373
 20
6.4501256118
 10
27.3925711792
 20
6.422242543
 10
27.4010673353
 20
6.3924690908
 10
27.4064508839
 20
6.3608558376
 10
27.4085542684
 20
6.3283885322
 10
27.4072843659
 20
6.2950411341
 10
27.4027342994
 20
6.2608396837
 10
27.395015881
 20
6.2268480506
 10
27.3841663815
 20
6.1934208582
 10
27.37014853
 20
6.1602034831
 10
27.3529623268
 20
6.1271959253
  0
LINE
  5
6DC
100
AcDbEntity
  8
RACCORDO
100
AcDbLine
 62
7
  6
CONTINUOUS
 10
17.6993759304
 20
16.2783847492
 11
16.6161806609
 21
18.1466202351
  0
LINE
  5
6DD
100
AcDbEntity
  8
IMPORT_IGES
100
AcDbLine
 62
7
  6
CONTINUOUS
 10
27.2302746063
 20
2.0666237103
 11
27.1249142884
 21
2.2818059172
  0
LWPOLYLINE
  5
6DE
100
AcDbEntity
  8
IMPORT_IGES
100
AcDbPolyline
 62
250
  6
CONTINUOUS
 90
5
 70
0
 10
24.3737715599
 20
9.570032661
 10
24.3877725207
 20
9.5307583002
 10
24.4360335463
 20
9.3587929907
 10
24.4745761752
 20
9.1779096409
 10
24.4996490752
 20
9.0119647738
  0
LWPOLYLINE
  5
6DF
100
AcDbEntity
  8
IMPORT_IGES
100
AcDbPolyline
 62
7
  6
CONTINUOUS
 90
4
 70
0
 10
24.6280285848
 20
9.0759005187
 10
24.6032269697
 20
9.2828201748
 10
24.5650057304
 20
9.4941744438
 10
24.5264012752
 20
9.6507193253
  0
LWPOLYLINE
  5
6E0
100
AcDbEntity
  8
IMPORT_IGES
100
AcDbPolyline
 62
7
  6
CONTINUOUS
 90
3
 70
0
 10
28.0144526237
 20
7.1645270054
 10
28.0165644132
 20
7.1432846534
 10
28.0264471902
 20
7.070234186
  0
LINE
  5
6E1
100
AcDbEntity
  8
IMPORT_IGES
100
AcDbLine
 62
250
  6
CONTINUOUS
 10
28.9125934188
 20
16.2995770859
 11
28.9133699668
 21
16.2757783402
  0
LWPOLYLINE
  5
6E2
100
AcDbEntity
  8
IMPORT_IGES
100
AcDbPolyline
 62
7
  6
CONTINUOUS
 90
7
 70
0
 10
29.7265427652
 20
16.0459686363
 10
29.7227046918
 20
16.1649579782
 10
29.7117598406
 20
16.2783874531
 10
29.6937082116
 20
16.386257061
 10
29.6683589423
 20
16.4891111612
 10
29.6359028952
 20
16.5864053943
 10
29.6022547289
 20
16.6641618621
  0
LINE
  5
6E3
100
AcDbEntity
  8
IMPORT_IGES
100
AcDbLine
 62
7
  6
CONTINUOUS
 10
28.0294864904
 20
15.1000264146
 11
28.0294864904
 21
15.832728595
  0
LINE
  5
6E4
100
AcDbEntity
  8
IMPORT_IGES
100
AcDbLine
 62
7
  6
CONTINUOUS
 10
29.019435984
 20
2.6026614049
 11
29.019435984
 21
3.3656776269
  0
LINE
  5
6E5
100
AcDbEntity
  8
0
100
AcDbLine
 62
7
  6
CONTINUOUS
 10
29.335198175
 20
26.3823149388
 11
29.335198175
 21
26.3514839357
  0
LINE
  5
6E6
100
AcDbEntity
  8
IMPORT_IGES
100
AcDbLine
 62
250
  6
CONTINUOUS
 10
30.0588258119
 20
16.9055250699
 11
30.0588258119
 21
15.6511679577
  0
LINE
  5
6E7
100
AcDbEntity
  8
IMPORT_IGES
100
AcDbLine
 62
7
  6
CONTINUOUS
 10
30.1174044556
 20
15.6218786358
 11
30.1174044556
 21
16.9364922728
  0
LINE
  5
6E8
100
AcDbEntity
  8
DRAFT
100
AcDbLine
 62
7
  6
CONTINUOUS
 10
30.3866021057
 20
28.180132537
 11
30.3866021057
 21
26.8749045314
  0
LINE
  5
6E9
100
AcDbEntity
  8
DRAFT
100
AcDbLine
 62
7
  6
CONTINUOUS
 10
30.3866021057
 20
-5.0010202277
 11
30.3866021057
 21
-4.7564523939
  0
LWPOLYLINE
  5
6EA
100
AcDbEntity
  8
IMPORT_IGES
100
AcDbPolyline
 62
250
  6
CONTINUOUS
 90
9
 70
0
 10
28.9133699668
 20
16.2757783402
 10
28.9099963998
 20
16.1690014547
 10
28.9004484753
 20
16.0609554017
 10
28.8847261934
 20
15.9516401814
 10
28.8626647453
 20
15.8404418426
 10
28.8344289397
 20
15.7279743363
 10
28.8005132031
 20
15.6160795162
 10
28.7608332112
 20
15.5047722688
 10
28.7399814765
 20
15.4538681325
  0
LWPOLYLINE
  5
6EB
100
AcDbEntity
  8
IMPORT_IGES
100
AcDbPolyline
 62
250
  6
CONTINUOUS
 90
8
 70
0
 10
31.3113854686
 20
8.9074282032
 10
31.3012157626
 20
8.7838788304
 10
31.2811970549
 20
8.6348127916
 10
31.2530893339
 20
8.483056502
 10
31.2170748945
 20
8.3293798907
 10
31.1737006223
 20
8.1760927459
 10
31.122808621
 20
8.0231468212
 10
31.102612496
 20
7.9702549367
  0
LWPOLYLINE
  5
6EC
100
AcDbEntity
  8
IMPORT_IGES
100
AcDbPolyline
 62
7
  6
CONTINUOUS
 90
3
 70
0
 10
29.7139502891
 20
15.8236057191
 10
29.7227074207
 20
15.9227066119
 10
29.7265427652
 20
16.0459686363
  0
LINE
  5
6ED
100
AcDbEntity
  8
ASSI
100
AcDbLine
 62
7
  6
CONTINUOUS
 10
10.4404635346
 20
-25.5460155901
 11
10.4616642686
 21
-25.5277352377
  0
LINE
  5
6EE
100
AcDbEntity
  8
RACCORDO
100
AcDbLine
 62
7
  6
CONTINUOUS
 10
16.6161806609
 20
-17.9666391027
 11
17.6993759304
 21
-17.1815988864
  0
LINE
  5
6EF
100
AcDbEntity
  8
ASSI
100
AcDbLine
 62
7
  6
CONTINUOUS
 10
10.1675472614
 20
-24.1060573113
 11
10.1933830404
 21
-24.0873509717
  0
LWPOLYLINE
  5
6F0
100
AcDbEntity
  8
ASSI
100
AcDbPolyline
 62
7
  6
CONTINUOUS
 90
3
 70
0
 10
7.1002317361
 20
-25.6509795947
 10
7.078388125
 20
-25.6660326611
 10
7.0587291947
 20
-25.680580707
  0
LINE
  5
6F1
100
AcDbEntity
  8
ASSI
100
AcDbLine
 62
7
  6
CONTINUOUS
 10
7.3002106513
 20
-25.5254330877
 11
7.2679345001
 21
-25.5453617167
  0
LINE
  5
6F2
100
AcDbEntity
  8
RACCORDO
100
AcDbLine
 62
250
  6
CONTINUOUS
 10
35.9512280174
 20
-7.529718848
 11
17.6993759304
 21
-17.1815988864
  0
LINE
  5
6F3
100
AcDbEntity
  8
RACCORDO
100
AcDbLine
 62
7
  6
CONTINUOUS
 10
35.9060467081
 20
-7.5578615675
 11
17.6776838282
 21
-17.1973201262
  0
LINE
  5
6F4
100
AcDbEntity
  8
RACCORDO
100
AcDbLine
 62
250
  6
CONTINUOUS
 10
11.3813644341
 20
-19.6678094365
 11
36.3928751449
 21
-6.4923076916
  0
LINE
  5
6F5
100
AcDbEntity
  8
ASSI
100
AcDbLine
 62
7
  6
CONTINUOUS
 10
11.3274952029
 20
-20.4134915507
 11
10.9801131097
 21
-20.5964846305
  0
LINE
  5
6F6
100
AcDbEntity
  8
RACCORDO
100
AcDbLine
 62
250
  6
CONTINUOUS
 10
10.9801131097
 20
-20.6784975525
 11
35.9787246692
 21
-7.5097907906
  0
LINE
  5
6F7
100
AcDbEntity
  8
DRAFT
100
AcDbLine
 62
7
  6
CONTINUOUS
 10
10.9801131097
 20
-20.9273215845
 11
16.6161806609
 21
-17.9666391027
  0
LINE
  5
6F8
100
AcDbEntity
  8
ASSI
100
AcDbLine
 62
7
  6
CONTINUOUS
 10
15.0379779696
 20
-19.055655818
 11
10.9801131097
 21
-21.150251995
  0
LINE
  5
6F9
100
AcDbEntity
  8
ASSI
100
AcDbLine
 62
7
  6
CONTINUOUS
 10
16.2392174219
 20
-18.3262981238
 11
10.9801131097
 21
-21.0157581969
  0
LINE
  5
6FA
100
AcDbEntity
  8
ASSI
100
AcDbLine
 62
250
  6
CONTINUOUS
 10
8.2543248104
 20
17.9139805269
 11
8.2436598527
 21
17.9117255028
  0
LWPOLYLINE
  5
6FB
100
AcDbEntity
  8
ASSI
100
AcDbPolyline
 62
7
  6
CONTINUOUS
 90
4
 70
0
 10
8.1977071338
 20
17.9274291123
 10
8.1746813544
 20
17.9237215927
 10
8.1519903959
 20
17.9176471948
 10
8.1298374472
 20
17.9092463435
  0
LINE
  5
6FC
100
AcDbEntity
  8
ASSI
100
AcDbLine
 62
250
  6
CONTINUOUS
 10
8.2646541468
 20
17.915337148
 11
8.2541035898
 21
17.9139424726
  0
LINE
  5
6FD
100
AcDbEntity
  8
ASSI
100
AcDbLine
 62
250
  6
CONTINUOUS
 10
8.2747692994
 20
17.9158321899
 11
8.2643863564
 21
17.915312655
  0
LWPOLYLINE
  5
6FE
100
AcDbEntity
  8
ASSI
100
AcDbPolyline
 62
7
  6
CONTINUOUS
 90
5
 70
0
 10
3.1070146866
 20
19.4787483755
 10
3.1244406602
 20
19.4782134091
 10
3.1423305248
 20
19.4751120089
 10
3.1605494401
 20
19.4695142556
 10
3.1788988484
 20
19.4615131796
  0
LINE
  5
6FF
100
AcDbEntity
  8
ASSI
100
AcDbLine
 62
250
  6
CONTINUOUS
 10
8.2846332395
 20
17.9154656588
 11
8.2744597119
 21
17.9158298305
  0
LWPOLYLINE
  5
700
100
AcDbEntity
  8
ASSI
100
AcDbPolyline
 62
7
  6
CONTINUOUS
 90
4
 70
0
 10
7.6149196557
 20
17.663335072
 10
7.6324300763
 20
17.661856245
 10
7.6505695803
 20
17.6572036608
 10
7.6690322937
 20
17.6494591589
  0
LINE
  5
701
100
AcDbEntity
  8
ASSI
100
AcDbLine
 62
250
  6
CONTINUOUS
 10
8.2942106779
 20
17.9142407364
 11
8.2842871426
 21
17.915493471
  0
LWPOLYLINE
  5
702
100
AcDbEntity
  8
ASSI
100
AcDbPolyline
 62
7
  6
CONTINUOUS
 90
4
 70
0
 10
8.2662811692
 20
17.9243162369
 10
8.2437977182
 20
17.9276910353
 10
8.2208649166
 20
17.9287486246
 10
8.1977266602
 20
17.92743148
  0
LWPOLYLINE
  5
703
100
AcDbEntity
  8
ASSI
100
AcDbPolyline
 62
250
  6
CONTINUOUS
 90
6
 70
0
 10
-0.8938988013
 20
20.9645681609
 10
-0.8918050668
 20
20.9642478169
 10
-0.8896877048
 20
20.9637557044
 10
-0.8875551918
 20
20.9630930485
 10
-0.8853990514
 20
20.9622586241
 10
-0.8832192834
 20
20.9612524313
  0
LWPOLYLINE
  5
704
100
AcDbEntity
  8
ASSI
100
AcDbPolyline
 62
250
  6
CONTINUOUS
 90
12
 70
0
 10
-4.4743981774
 20
21.2907883415
 10
-4.4653000615
 20
21.2892245193
 10
-4.4451588099
 20
21.2882662125
 10
-4.4248100497
 20
21.2906611094
 10
-4.4045981019
 20
21.2963686857
 10
-4.3848649722
 20
21.3052923636
 10
-4.3659445643
 20
21.3172811455
 10
-4.3481570296
 20
21.3321321695
 10
-4.3318033501
 20
21.3495941418
 10
-4.3171602459
 20
21.369371589
 10
-4.3044754923
 20
21.3911298575
 10
-4.2939637273
 20
21.4145007762
  0
LINE
  5
705
100
AcDbEntity
  8
ASSI
100
AcDbLine
 62
7
  6
CONTINUOUS
 10
-3.8345793215
 20
21.1550625799
 11
-4.4743981774
 21
21.2907883415
  0
LINE
  5
706
100
AcDbEntity
  8
ASSI
100
AcDbLine
 62
250
  6
CONTINUOUS
 10
-3.5571559231
 20
21.2582005992
 11
-4.2939637273
 21
21.4145007762
  0
LWPOLYLINE
  5
707
100
AcDbEntity
  8
ASSI
100
AcDbPolyline
 62
250
  6
CONTINUOUS
 90
22
 70
0
 10
-4.2939637273
 20
21.4145007762
 10
-4.2952443052
 20
21.4148032024
 10
-4.296515359
 20
21.4152079791
 10
-4.2977768889
 20
21.4157151063
 10
-4.2990367962
 20
21.4163207486
 10
-4.3002871795
 20
21.4170287414
 10
-4.3015043344
 20
21.4178505907
 10
-4.3026880747
 20
21.41878898
 10
-4.3038385866
 20
21.4198412257
 10
-4.3049327247
 20
21.421010784
 10
-4.3059696149
 20
21.4223006671
 10
-4.3069501314
 20
21.4237078627
 10
-4.3078537502
 20
21.4252267901
 10
-4.3086789191
 20
21.4268604298
 10
-4.3094271903
 20
21.4286058013
 10
-4.3100826977
 20
21.4304483828
 10
-4.3106433378
 20
21.4323907418
 10
-4.3111112141
 20
21.4344303108
 10
-4.3114767703
 20
21.4365448659
 10
-4.3117368209
 20
21.4387269992
 10
-4.3118945514
 20
21.4409841185
 10
-4.3119499617
 20
21.4433162239
  0
LINE
  5
708
100
AcDbEntity
  8
ASSI
100
AcDbLine
 62
7
  6
CONTINUOUS
 10
8.2881440905
 20
17.9186966545
 11
8.2662649575
 21
17.924319256
  0
LINE
  5
709
100
AcDbEntity
  8
ASSI
100
AcDbLine
 62
7
  6
CONTINUOUS
 10
9.3758086079
 20
20.4010913284
 11
9.3362860176
 21
20.4127069282
  0
LWPOLYLINE
  5
70A
100
AcDbEntity
  8
ASSI
100
AcDbPolyline
 62
250
  6
CONTINUOUS
 90
3
 70
0
 10
-4.2765450498
 20
24.2033817736
 10
-4.2681211027
 20
24.1999529668
 10
-4.2656445903
 20
24.1987594558
  0
LWPOLYLINE
  5
70B
100
AcDbEntity
  8
RACCORDO
100
AcDbPolyline
 62
7
  6
CONTINUOUS
 90
82
 70
0
 10
6.4870657727
 20
20.9450222106
 10
6.4755693443
 20
20.9506083809
 10
6.457632724
 20
20.958706
 10
6.4397391381
 20
20.9660929559
 10
6.4219996598
 20
20.9727938853
 10
6.4044277058
 20
20.9788716223
 10
6.3869442344
 20
20.9844099099
 10
6.369579215
 20
20.9894465344
 10
6.3523771949
 20
20.9940127488
 10
6.3352783834
 20
20.998162615
 10
6.3183015443
 20
21.0019237271
 10
6.301468347
 20
21.0053207411
 10
6.284723354
 20
21.0083898766
 10
6.2680668992
 20
21.0111517201
 10
6.2515206279
 20
21.0136215003
 10
6.2350620022
 20
21.0158192801
 10
6.2186878087
 20
21.0177597767
 10
6.202414915
 20
21.0194540347
 10
6.1862521923
 20
21.0209133496
 10
6.1702049501
 20
21.0221485229
 10
6.154277732
 20
21.023169591
 10
6.1384792979
 20
21.0239856677
 10
6.1228141759
 20
21.0246055832
 10
6.1072854286
 20
21.0250376544
 10
6.091900269
 20
21.0252896212
 10
6.0766624553
 20
21.0253689464
 10
6.0615742388
 20
21.0252827035
 10
6.0466409735
 20
21.0250376505
 10
6.0318641193
 20
21.0246402187
 10
6.0172469641
 20
21.0240965953
 10
6.0027978474
 20
21.0234130237
 10
5.9885139592
 20
21.0225950749
 10
5.974401745
 20
21.0216485979
 10
5.9604835014
 20
21.0205807381
 10
5.9467599235
 20
21.0193972911
 10
5.9332327131
 20
21.018103962
 10
5.9199255888
 20
21.0167087394
 10
5.9068449992
 20
21.0152182442
 10
5.8939855796
 20
21.013637651
 10
5.8813533028
 20
21.0119733337
 10
5.8689565132
 20
21.0102320683
 10
5.8567869597
 20
21.008418247
 10
5.8448260436
 20
21.006534183
 10
5.8330743627
 20
21.0045847256
 10
5.821531126
 20
21.0025744153
 10
5.8101762625
 20
21.0005040844
 10
5.7990092185
 20
20.998377652
 10
5.7880302945
 20
20.9961991291
 10
5.7772213755
 20
20.9939686167
 10
5.7665808409
 20
20.9916892022
 10
5.756110159
 20
20.989364581
 10
5.7457964923
 20
20.9869951316
 10
5.7356393648
 20
20.9845837825
 10
5.7256392133
 20
20.9821336695
 10
5.7157851755
 20
20.9796450134
 10
5.7060770873
 20
20.977120531
 10
5.6965152747
 20
20.9745630467
 10
5.6870902357
 20
20.9719726568
 10
5.677801076
 20
20.9693516306
 10
5.6686491626
 20
20.9667028717
 10
5.6596289873
 20
20.9640272636
 10
5.6507405776
 20
20.9613272252
 10
5.6419846569
 20
20.9586054118
 10
5.6333573763
 20
20.9558630157
 10
5.6248588113
 20
20.9531024378
 10
5.6164900148
 20
20.9503263891
 10
5.6082491282
 20
20.9475366511
 10
5.6001362168
 20
20.9447356005
 10
5.5921527777
 20
20.9419261681
 10
5.5842997862
 20
20.9391111077
 10
5.576578138
 20
20.9362932138
 10
5.5689889748
 20
20.933475367
 10
5.5615340522
 20
20.9306607524
 10
5.5542159244
 20
20.9278528791
 10
5.5470347087
 20
20.9250543952
 10
5.5399893499
 20
20.9222674585
 10
5.5330803396
 20
20.9194948518
 10
5.5263109559
 20
20.9167404927
 10
5.5196849467
 20
20.9140085751
 10
5.5132086164
 20
20.9113044326
 10
5.5068805076
 20
20.9086302129
 10
5.4946582672
 20
20.9033777962
  0
LINE
  5
70C
100
AcDbEntity
  8
RACCORDO
100
AcDbLine
 62
250
  6
CONTINUOUS
 10
8.2513268737
 20
20.0149317181
 11
6.4000609702
 21
20.9405646699
  0
LINE
  5
70D
100
AcDbEntity
  8
RACCORDO
100
AcDbLine
 62
7
  6
CONTINUOUS
 10
8.3003121128
 20
20.0383990526
 11
6.4870355467
 21
20.9450373356
  0
LINE
  5
70E
100
AcDbEntity
  8
ASSI
100
AcDbLine
 62
7
  6
CONTINUOUS
 10
9.6414396751
 20
19.6438734872
 11
9.5969777139
 21
19.6661044678
  0
LINE
  5
70F
100
AcDbEntity
  8
ASSI
100
AcDbLine
 62
7
  6
CONTINUOUS
 10
8.5822514576
 20
20.173467596
 11
6.0424659283
 21
21.4433603606
  0
LINE
  5
710
100
AcDbEntity
  8
0
100
AcDbLine
 62
7
  6
CONTINUOUS
 10
23.1976407349
 20
13.261501622
 11
23.3995107456
 21
13.1605666166
  0
LINE
  5
711
100
AcDbEntity
  8
ASSI
100
AcDbLine
 62
7
  6
CONTINUOUS
 10
10.6260733107
 20
20.1293115804
 11
6.6519236948
 21
22.1163863884
  0
LINE
  5
712
100
AcDbEntity
  8
IMPORT_IGES
100
AcDbLine
 62
7
  6
CONTINUOUS
 10
28.6424921991
 20
11.8266628883
 11
29.395455524
 21
11.4501812258
  0
LINE
  5
713
100
AcDbEntity
  8
0
100
AcDbLine
 62
7
  6
CONTINUOUS
 10
29.6335937767
 20
11.5687791753
 11
30.3840270955
 21
11.1935625159
  0
LINE
  5
714
100
AcDbEntity
  8
ASSI
100
AcDbLine
 62
7
  6
CONTINUOUS
 10
8.307222922
 20
22.2577978344
 11
11.6160018101
 21
20.6034083903
  0
LINE
  5
715
100
AcDbEntity
  8
DRAFT
100
AcDbLine
 62
7
  6
CONTINUOUS
 10
16.144314816
 20
18.3825531576
 11
16.6161806609
 21
18.1466202351
  0
LINE
  5
716
100
AcDbEntity
  8
0
100
AcDbLine
 62
250
  6
CONTINUOUS
 10
31.7032168866
 20
10.8348151716
 11
30.964502267
 21
11.2041724814
  0
LINE
  5
717
100
AcDbEntity
  8
ASSI
100
AcDbLine
 62
250
  6
CONTINUOUS
 10
4.7088731694
 20
24.5888599093
 11
7.5255491789
 21
23.1805219046
  0
LINE
  5
718
100
AcDbEntity
  8
ASSI
100
AcDbLine
 62
250
  6
CONTINUOUS
 10
12.2213019601
 20
20.832645514
 11
15.0379779696
 21
19.4243075092
  0
LINE
  5
719
100
AcDbEntity
  8
RACCORDO
100
AcDbLine
 62
7
  6
CONTINUOUS
 10
31.2534685518
 20
11.3511995953
 11
29.4494045149
 21
12.2532316138
  0
LWPOLYLINE
  5
71A
100
AcDbEntity
  8
IMPORT_IGES
100
AcDbPolyline
 62
250
  6
CONTINUOUS
 90
6
 70
0
 10
27.7312358749
 20
6.2912371835
 10
27.6703175803
 20
6.3851640481
 10
27.606776473
 20
6.5074147373
 10
27.55260582
 20
6.6392637987
 10
27.5079136297
 20
6.7804033712
 10
27.4837217357
 20
6.8839597194
  0
LWPOLYLINE
  5
71B
100
AcDbEntity
  8
IMPORT_IGES
100
AcDbPolyline
 62
250
  6
CONTINUOUS
 90
6
 70
0
 10
28.2062854587
 20
6.5278220491
 10
28.1909064373
 20
6.5525042547
 10
28.1394790744
 20
6.6548291209
 10
28.0956448606
 20
6.7651725533
 10
28.0592299577
 20
6.8833962401
 10
28.0308132472
 20
7.0076324973
  0
LINE
  5
71C
100
AcDbEntity
  8
IMPORT_IGES
100
AcDbLine
 62
7
  6
CONTINUOUS
 10
26.919435984
 20
6.2193756334
 11
26.9608573403
 21
6.082773093
  0
LINE
  5
71D
100
AcDbEntity
  8
IMPORT_IGES
100
AcDbLine
 62
7
  6
CONTINUOUS
 10
27.169435984
 20
6.0381894155
 11
27.1736345206
 21
6.0135397683
  0
LINE
  5
71E
100
AcDbEntity
  8
IMPORT_IGES
100
AcDbLine
 62
250
  6
CONTINUOUS
 10
28.0308132472
 20
7.0076324973
 11
28.0215457471
 21
7.0670282111
  0
LINE
  5
71F
100
AcDbEntity
  8
0
100
AcDbLine
 62
7
  6
CONTINUOUS
 10
30.6920580617
 20
-4.9515489858
 11
30.6920580617
 21
-4.9091803719
  0
LINE
  5
720
100
AcDbEntity
  8
0
100
AcDbLine
 62
7
  6
CONTINUOUS
 10
32.870732081
 20
24.6145479859
 11
32.870732081
 21
24.5837169827
  0
LINE
  5
721
100
AcDbEntity
  8
RACCORDO
100
AcDbLine
 62
7
  6
CONTINUOUS
 10
35.9787246692
 20
-7.5097907906
 11
35.9512280174
 21
-7.529718848
  0
LWPOLYLINE
  5
722
100
AcDbEntity
  8
ASSI
100
AcDbPolyline
 62
250
  6
CONTINUOUS
 90
21
 70
0
 10
10.4592291297
 20
-25.4592385794
 10
10.4609449773
 20
-25.4580397714
 10
10.4627053947
 20
-25.4567032411
 10
10.4645000003
 20
-25.4552286997
 10
10.4662976497
 20
-25.4536152801
 10
10.4680992869
 20
-25.4518580427
 10
10.4699039678
 20
-25.4499619273
 10
10.4716777157
 20
-25.4479408858
 10
10.473420202
 20
-25.4457901659
 10
10.4751317554
 20
-25.44351452
 10
10.476779385
 20
-25.4411421574
 10
10.4783608566
 20
-25.4386705656
 10
10.4798784044
 20
-25.436102257
 10
10.4813057404
 20
-25.4334729784
 10
10.4826396879
 20
-25.4307835332
 10
10.4838834235
 20
-25.4280331181
 10
10.4850201884
 20
-25.4252550695
 10
10.4860480482
 20
-25.4224499023
 10
10.4869689372
 20
-25.4196171017
 10
10.4877718999
 20
-25.4167884598
 10
10.4885180249
 20
-25.4136793411
  0
LINE
  5
723
100
AcDbEntity
  8
ASSI
100
AcDbLine
 62
7
  6
CONTINUOUS
 10
10.4183088066
 20
-25.5612589133
 11
10.4408324175
 21
-25.5457304458
  0
LWPOLYLINE
  5
724
100
AcDbEntity
  8
ASSI
100
AcDbPolyline
 62
7
  6
CONTINUOUS
 90
5
 70
0
 10
9.881899215
 20
-25.8510746508
 10
9.8903830973
 20
-25.8457413605
 10
9.9025771095
 20
-25.8348079054
 10
9.9128516441
 20
-25.821110279
 10
9.9210337763
 20
-25.8048818429
  0
LWPOLYLINE
  5
725
100
AcDbEntity
  8
ASSI
100
AcDbPolyline
 62
7
  6
CONTINUOUS
 90
4
 70
0
 10
7.2679345001
 20
-25.5453617167
 10
7.2055713873
 20
-25.58263243
 10
7.1766604798
 20
-25.6006668664
 10
7.1002317361
 20
-25.6509795947
  0
LWPOLYLINE
  5
726
100
AcDbEntity
  8
ASSI
100
AcDbPolyline
 62
250
  6
CONTINUOUS
 90
7
 70
0
 10
10.4900319432
 20
-25.0603115603
 10
10.5067621881
 20
-25.0504448144
 10
10.5208051781
 20
-25.0395808191
 10
10.5319259385
 20
-25.0279013597
 10
10.539938392
 20
-25.0156018659
 10
10.5447084722
 20
-25.0028881421
 10
10.5461639831
 20
-24.990845654
  0
LWPOLYLINE
  5
727
100
AcDbEntity
  8
ASSI
100
AcDbPolyline
 62
250
  6
CONTINUOUS
 90
7
 70
0
 10
10.4900319432
 20
-25.4002551552
 10
10.5067621583
 20
-25.3903884501
 10
10.5208051341
 20
-25.3795244913
 10
10.5319258937
 20
-25.3678450619
 10
10.539938357
 20
-25.3555455903
 10
10.5447084538
 20
-25.3428318797
 10
10.5461639831
 20
-25.3307893181
  0
LWPOLYLINE
  5
728
100
AcDbEntity
  8
ASSI
100
AcDbPolyline
 62
250
  6
CONTINUOUS
 90
8
 70
0
 10
8.2548194741
 20
-26.6026733051
 10
8.2674433679
 20
-26.5952686995
 10
8.2796683874
 20
-26.5843212517
 10
8.2900341589
 20
-26.5705821585
 10
8.2983633913
 20
-26.5542864094
 10
8.3045136257
 20
-26.5357127216
 10
8.3083796714
 20
-26.5151787737
 10
8.309895406
 20
-26.4930357717
  0
LINE
  5
729
100
AcDbEntity
  8
ASSI
100
AcDbLine
 62
7
  6
CONTINUOUS
 10
10.4069043032
 20
-25.5678221978
 11
10.418606123
 21
-25.5610878182
  0
LINE
  5
72A
100
AcDbEntity
  8
ASSI
100
AcDbLine
 62
7
  6
CONTINUOUS
 10
10.1594967902
 20
-24.1106590515
 11
10.1675472614
 21
-24.1060573113
  0
LWPOLYLINE
  5
72B
100
AcDbEntity
  8
ASSI
100
AcDbPolyline
 62
250
  6
CONTINUOUS
 90
22
 70
0
 10
10.4558999992
 20
-25.4612221617
 10
10.4576579402
 20
-25.4602297706
 10
10.4594363377
 20
-25.4590984662
 10
10.4612351917
 20
-25.4578282483
 10
10.4630648473
 20
-25.4564172209
 10
10.4649149595
 20
-25.4548672801
 10
10.4667544927
 20
-25.4531841141
 10
10.4685838025
 20
-25.4513630306
 10
10.4704025333
 20
-25.4494087219
 10
10.4721785828
 20
-25.4473409523
 10
10.4739106061
 20
-25.4451564258
 10
10.4755999481
 20
-25.4428584385
 10
10.4772185411
 20
-25.4404766418
 10
10.478763646
 20
-25.4380106736
 10
10.4802380019
 20
-25.4354608961
 10
10.4816217584
 20
-25.4328580474
 10
10.4829127987
 20
-25.4302027289
 10
10.4841132397
 20
-25.4274943392
 10
10.4852095817
 20
-25.4247618124
 10
10.4862006333
 20
-25.4220047232
 10
10.4870875859
 20
-25.4192234969
 10
10.4878605136
 20
-25.4164483435
  0
LINE
  5
72C
100
AcDbEntity
  8
ASSI
100
AcDbLine
 62
250
  6
CONTINUOUS
 10
10.2853489233
 20
-23.8423438414
 11
10.9801131097
 21
-23.4675026238
  0
LINE
  5
72D
100
AcDbEntity
  8
ASSI
100
AcDbLine
 62
7
  6
CONTINUOUS
 10
10.1594948568
 20
-24.1106598501
 11
10.8553737135
 21
-23.7352172423
  0
LINE
  5
72E
100
AcDbEntity
  8
ASSI
100
AcDbLine
 62
250
  6
CONTINUOUS
 10
9.9317955327
 20
-25.7439885453
 11
10.4558999992
 21
-25.4612221617
  0
LINE
  5
72F
100
AcDbEntity
  8
ASSI
100
AcDbLine
 62
7
  6
CONTINUOUS
 10
9.8818997742
 20
-25.8510743926
 11
10.4069968033
 21
-25.5677724988
  0
LINE
  5
730
100
AcDbEntity
  8
ASSI
100
AcDbLine
 62
7
  6
CONTINUOUS
 10
9.877732833
 20
-25.8531581345
 11
9.881899215
 21
-25.8510746508
  0
LWPOLYLINE
  5
731
100
AcDbEntity
  8
ASSI
100
AcDbPolyline
 62
250
  6
CONTINUOUS
 90
16
 70
0
 10
4.6113479283
 20
-25.6302090724
 10
4.5740429023
 20
-25.6480724533
 10
4.5337625878
 20
-25.6640043471
 10
4.4908975314
 20
-25.6778502827
 10
4.4458633409
 20
-25.6894760135
 10
4.3990966554
 20
-25.6987688199
 10
4.3510509116
 20
-25.7056386012
 10
4.3021919478
 20
-25.71001875
 10
4.2529934869
 20
-25.7118667976
 10
4.2039325436
 20
-25.7111648259
 10
4.1554847992
 20
-25.7079196409
 10
4.1081199896
 20
-25.702162707
 10
4.0622973509
 20
-25.6939498423
 10
4.0184611667
 20
-25.6833606763
 10
3.9770364605
 20
-25.6704978787
 10
3.9384248748
 20
-25.6554861636
  0
LINE
  5
732
100
AcDbEntity
  8
ASSI
100
AcDbLine
 62
7
  6
CONTINUOUS
 10
10.1418076068
 20
-24.1190462668
 11
10.1594967902
 21
-24.1106590515
  0
LINE
  5
733
100
AcDbEntity
  8
ASSI
100
AcDbLine
 62
250
  6
CONTINUOUS
 10
5.0942440586
 20
-25.9806703242
 11
10.2853489233
 21
-23.8422776879
  0
LINE
  5
734
100
AcDbEntity
  8
ASSI
100
AcDbLine
 62
7
  6
CONTINUOUS
 10
10.1418076095
 20
-24.1190462657
 11
4.9402946688
 21
-26.2617261927
  0
LINE
  5
735
100
AcDbEntity
  8
ASSI
100
AcDbLine
 62
250
  6
CONTINUOUS
 10
1.5876119055
 20
19.7681382384
 11
1.6109707947
 21
19.7736986189
  0
LINE
  5
736
100
AcDbEntity
  8
ASSI
100
AcDbLine
 62
7
  6
CONTINUOUS
 10
9.1326843302
 20
20.419179898
 11
9.0919377975
 21
20.410093293
  0
LINE
  5
737
100
AcDbEntity
  8
ASSI
100
AcDbLine
 62
250
  6
CONTINUOUS
 10
1.5876120032
 20
19.7681382575
 11
1.56301306
 21
19.7641320259
  0
LINE
  5
738
100
AcDbEntity
  8
ASSI
100
AcDbLine
 62
7
  6
CONTINUOUS
 10
9.1732778396
 20
20.424555562
 11
9.1310475202
 21
20.4188888484
  0
LINE
  5
739
100
AcDbEntity
  8
ASSI
100
AcDbLine
 62
250
  6
CONTINUOUS
 10
9.0673449387
 20
20.3944319209
 11
9.0466928812
 21
20.3924515488
  0
LINE
  5
73A
100
AcDbEntity
  8
ASSI
100
AcDbLine
 62
7
  6
CONTINUOUS
 10
9.2139951136
 20
20.4265815496
 11
9.1721358612
 21
20.4244513877
  0
LWPOLYLINE
  5
73B
100
AcDbEntity
  8
ASSI
100
AcDbPolyline
 62
250
  6
CONTINUOUS
 90
7
 70
0
 10
-0.8079542209
 20
21.2208119738
 10
-0.8173487007
 20
21.2207017249
 10
-0.8266187918
 20
21.2198189112
 10
-0.8357229996
 20
21.2181355623
 10
-0.8446174041
 20
21.2156264692
 10
-0.8532070981
 20
21.2122915018
 10
-0.8596230384
 20
21.2091394985
  0
LWPOLYLINE
  5
73C
100
AcDbEntity
  8
ASSI
100
AcDbPolyline
 62
7
  6
CONTINUOUS
 90
5
 70
0
 10
-0.6052959147
 20
21.3349036761
 10
-0.587869941
 20
21.3343687097
 10
-0.5699800765
 20
21.3312673095
 10
-0.5517611611
 20
21.3256695563
 10
-0.5334117528
 20
21.3176684803
  0
LWPOLYLINE
  5
73D
100
AcDbEntity
  8
ASSI
100
AcDbPolyline
 62
250
  6
CONTINUOUS
 90
4
 70
0
 10
9.0673485126
 20
20.3944319091
 10
9.0890545473
 20
20.392519667
 10
9.1114558622
 20
20.3867473716
 10
9.1341818388
 20
20.3772106543
  0
LWPOLYLINE
  5
73E
100
AcDbEntity
  8
ASSI
100
AcDbPolyline
 62
7
  6
CONTINUOUS
 90
3
 70
0
 10
9.2968946602
 20
20.4205799261
 10
9.2549227745
 20
20.4253285664
 10
9.2133542498
 20
20.4265755114
  0
LINE
  5
73F
100
AcDbEntity
  8
ASSI
100
AcDbLine
 62
7
  6
CONTINUOUS
 10
9.3371879037
 20
20.4124851646
 11
9.2964850603
 21
20.4206433628
  0
LINE
  5
740
100
AcDbEntity
  8
ASSI
100
AcDbLine
 62
7
  6
CONTINUOUS
 10
3.7221364655
 20
23.2211712163
 11
3.6819392172
 21
23.2296749378
  0
LINE
  5
741
100
AcDbEntity
  8
ASSI
100
AcDbLine
 62
7
  6
CONTINUOUS
 10
3.7602750711
 20
23.2094802235
 11
3.7213081893
 21
23.2213842027
  0
LWPOLYLINE
  5
742
100
AcDbEntity
  8
ASSI
100
AcDbPolyline
 62
250
  6
CONTINUOUS
 90
10
 70
0
 10
7.9625070952
 20
23.2018427163
 10
7.9194760615
 20
23.2201698617
 10
7.8751422427
 20
23.2330530113
 10
7.8288817248
 20
23.2408536625
 10
7.7809466114
 20
23.2435298144
 10
7.731596685
 20
23.2410681187
 10
7.6811041663
 20
23.2334808354
 10
7.6297453594
 20
23.2208093539
 10
7.5777991687
 20
23.2031240433
 10
7.5255491789
 20
23.1805219046
  0
LWPOLYLINE
  5
743
100
AcDbEntity
  8
ASSI
100
AcDbPolyline
 62
7
  6
CONTINUOUS
 90
11
 70
0
 10
12.6549133882
 20
20.8556368818
 10
12.6121507863
 20
20.8747679027
 10
12.561943095
 20
20.8917244313
 10
12.5091596916
 20
20.9038392005
 10
12.45423852
 20
20.910796738
 10
12.3978127153
 20
20.9123634462
 10
12.3402351332
 20
20.9084420661
 10
12.2817871426
 20
20.8989835623
 10
12.2228997968
 20
20.8839904092
 10
12.1638426737
 20
20.8634737771
 10
12.1102741001
 20
20.8401083316
  0
LINE
  5
744
100
AcDbEntity
  8
0
100
AcDbLine
 62
7
  6
CONTINUOUS
 10
34.6444160244
 20
9.7341489393
 11
34.6098221961
 21
9.7514458535
  0
LINE
  5
745
100
AcDbEntity
  8
ASSI
100
AcDbLine
 62
7
  6
CONTINUOUS
 10
12.6540898474
 20
20.8560513402
 11
15.6267603271
 21
19.3697161004
  0
LINE
  5
746
100
AcDbEntity
  8
SMUSSO
100
AcDbLine
 62
7
  6
CONTINUOUS
 10
31.6039365287
 20
11.5295189974
 11
29.7931129878
 21
12.4349307679
  0
LINE
  5
747
100
AcDbEntity
  8
SMUSSO
100
AcDbLine
 62
7
  6
CONTINUOUS
 10
32.074803135
 20
11.7690976673
 11
30.2548979521
 21
12.6790502587
  0
LINE
  5
748
100
AcDbEntity
  8
DRAFT
100
AcDbLine
 62
7
  6
CONTINUOUS
 10
36.3928751449
 20
9.909243017
 11
35.6704823679
 21
10.2704394055
  0
LINE
  5
749
100
AcDbEntity
  8
RACCORDO
100
AcDbLine
 62
7
  6
CONTINUOUS
 10
30.4888253365
 20
13.0325593086
 11
32.5411701237
 21
12.006386915
  0
LINE
  5
74A
100
AcDbEntity
  8
ASSI
100
AcDbLine
 62
7
  6
CONTINUOUS
 10
7.9627883466
 20
23.2017019462
 11
4.989836573
 21
24.6881779774
  0
LINE
  5
74B
100
AcDbEntity
  8
DRAFT
100
AcDbLine
 62
7
  6
CONTINUOUS
 10
33.9221360117
 20
26.412365584
 11
33.9221360117
 21
25.1071375785
  0
LINE
  5
74C
100
AcDbEntity
  8
ASSI
100
AcDbLine
 62
7
  6
CONTINUOUS
 10
34.5037561789
 20
13.1468561267
 11
34.5037561789
 21
15.9221435336
  0
LINE
  5
74D
100
AcDbEntity
  8
ASSI
100
AcDbLine
 62
7
  6
CONTINUOUS
 10
34.5037561789
 20
17.4769831456
 11
34.5037561789
 21
20.2522705525
  0
LINE
  5
74E
100
AcDbEntity
  8
DRAFT
100
AcDbLine
 62
7
  6
CONTINUOUS
 10
34.6098221961
 20
10.6511244184
 11
34.6098221961
 21
9.7514458535
  0
LINE
  5
74F
100
AcDbEntity
  8
DRAFT
100
AcDbLine
 62
7
  6
CONTINUOUS
 10
34.6098221961
 20
6.3209973995
 11
34.6098221961
 21
5.4213188345
  0
LINE
  5
750
100
AcDbEntity
  8
DRAFT
100
AcDbLine
 62
7
  6
CONTINUOUS
 10
34.6098221961
 20
1.9908703805
 11
34.6098221961
 21
1.0911918156
  0
LINE
  5
751
100
AcDbEntity
  8
DRAFT
100
AcDbLine
 62
7
  6
CONTINUOUS
 10
34.6098221961
 20
-2.3392566384
 11
34.6098221961
 21
-3.2389352033
  0
LINE
  5
752
100
AcDbEntity
  8
ASSI
100
AcDbLine
 62
7
  6
CONTINUOUS
 10
35.5644163507
 20
13.6771862126
 11
35.5644163507
 21
16.4713164139
  0
LINE
  5
753
100
AcDbEntity
  8
ASSI
100
AcDbLine
 62
7
  6
CONTINUOUS
 10
35.5644163507
 20
18.0073132315
 11
35.5644163507
 21
20.8014434328
  0
LINE
  5
754
100
AcDbEntity
  8
DRAFT
100
AcDbLine
 62
7
  6
CONTINUOUS
 10
35.6704823679
 20
11.2118352277
 11
35.6704823679
 21
10.2704394055
  0
LINE
  5
755
100
AcDbEntity
  8
DRAFT
100
AcDbLine
 62
7
  6
CONTINUOUS
 10
35.6704823679
 20
6.8817082088
 11
35.6704823679
 21
5.9403123866
  0
LINE
  5
756
100
AcDbEntity
  8
DRAFT
100
AcDbLine
 62
7
  6
CONTINUOUS
 10
35.6704823679
 20
2.5515811899
 11
35.6704823679
 21
1.6101853677
  0
LINE
  5
757
100
AcDbEntity
  8
DRAFT
100
AcDbLine
 62
7
  6
CONTINUOUS
 10
35.6704823679
 20
-1.778545829
 11
35.6704823679
 21
-2.7199416512
  0
LINE
  5
758
100
AcDbEntity
  8
ASSI
100
AcDbLine
 62
250
  6
CONTINUOUS
 10
9.9317955327
 20
-25.7439885453
 11
8.309895406
 21
-26.4930357717
  0
LINE
  5
759
100
AcDbEntity
  8
ASSI
100
AcDbLine
 62
7
  6
CONTINUOUS
 10
9.8777338653
 20
-25.8531576577
 11
8.2545938396
 21
-26.6027770545
  0
LINE
  5
75A
100
AcDbEntity
  8
ASSI
100
AcDbLine
 62
7
  6
CONTINUOUS
 10
8.2545881435
 20
-26.6027796619
 11
8.2548194741
 21
-26.6026733051
  0
LWPOLYLINE
  5
75B
100
AcDbEntity
  8
ASSI
100
AcDbPolyline
 62
250
  6
CONTINUOUS
 90
28
 70
0
 10
8.309895406
 20
-26.4930357717
 10
8.3081730363
 20
-26.4937957202
 10
8.3064178225
 20
-26.4944503716
 10
8.3046297646
 20
-26.494999726
 10
8.3027981928
 20
-26.4954542069
 10
8.300933777
 20
-26.4958033907
 10
8.299068527
 20
-26.4960160065
 10
8.2972015718
 20
-26.4960880518
 10
8.2953337823
 20
-26.496023529
 10
8.2934997813
 20
-26.4958031741
 10
8.2917001106
 20
-26.4954220461
 10
8.2899342283
 20
-26.494885086
 10
8.2882351313
 20
-26.4941878525
 10
8.2866053861
 20
-26.4933262549
 10
8.2850424263
 20
-26.492304384
 10
8.2835715494
 20
-26.4911300705
 10
8.2821953234
 20
-26.4898008916
 10
8.2809111803
 20
-26.4883192702
 10
8.2797367139
 20
-26.4867003061
 10
8.2786736741
 20
-26.4849419661
 10
8.2777203111
 20
-26.4830462834
 10
8.2768889679
 20
-26.4810344578
 10
8.276181436
 20
-26.4789046609
 10
8.275595924
 20
-26.4766587211
 10
8.2751394017
 20
-26.4743233234
 10
8.2748141925
 20
-26.471907363
 10
8.2746179731
 20
-26.4694019446
 10
8.2745507434
 20
-26.4668070685
  0
LWPOLYLINE
  5
75C
100
AcDbEntity
  8
ASSI
100
AcDbPolyline
 62
250
  6
CONTINUOUS
 90
13
 70
0
 10
8.2745507434
 20
-26.1495382681
 10
8.2548173332
 20
-26.1579033757
 10
8.2330894155
 20
-26.1649248635
 10
8.2097305568
 20
-26.1704852433
 10
8.1851316136
 20
-26.174491475
 10
8.1597041923
 20
-26.1768765234
 10
8.1338737622
 20
-26.1776004804
 10
8.1080725357
 20
-26.1766512321
 10
8.0827322369
 20
-26.1740446621
 10
8.058276877
 20
-26.1698243852
 10
8.0351156599
 20
-26.1640610181
 10
8.0136361352
 20
-26.1568509974
 10
7.994197713
 20
-26.1483149662
  0
LWPOLYLINE
  5
75D
100
AcDbEntity
  8
ASSI
100
AcDbPolyline
 62
250
  6
CONTINUOUS
 90
5
 70
0
 10
8.2745507434
 20
-26.4668070685
 10
8.2548173422
 20
-26.4751721727
 10
8.2330894333
 20
-26.4821936589
 10
8.2097305822
 20
-26.4877540386
 10
8.185131645
 20
-26.4917602712
  0
LINE
  5
75E
100
AcDbEntity
  8
ASSI
100
AcDbLine
 62
7
  6
CONTINUOUS
 10
3.5189400043
 20
23.2300652822
 11
3.4780824961
 21
23.2215245784
  0
LINE
  5
75F
100
AcDbEntity
  8
ASSI
100
AcDbLine
 62
250
  6
CONTINUOUS
 10
3.5609045118
 20
23.2011050656
 11
3.5486752666
 21
23.1986940032
  0
LINE
  5
760
100
AcDbEntity
  8
ASSI
100
AcDbLine
 62
250
  6
CONTINUOUS
 10
3.5737434321
 20
23.2029043289
 11
3.5607338245
 21
23.201072883
  0
LWPOLYLINE
  5
761
100
AcDbEntity
  8
ASSI
100
AcDbPolyline
 62
250
  6
CONTINUOUS
 90
8
 70
0
 10
-2.2286266897
 20
23.1561977451
 10
-2.2189857486
 20
23.157445847
 10
-2.2098312625
 20
23.1579261532
 10
-2.2007100089
 20
23.1576782631
 10
-2.1917151519
 20
23.1566697123
 10
-2.1828861135
 20
23.1548756516
 10
-2.1742629363
 20
23.1522736486
 10
-2.1659322415
 20
23.1488651057
  0
LINE
  5
762
100
AcDbEntity
  8
ASSI
100
AcDbLine
 62
7
  6
CONTINUOUS
 10
3.5595236554
 20
23.234931527
 11
3.5172680756
 21
23.2297922895
  0
LINE
  5
763
100
AcDbEntity
  8
ASSI
100
AcDbLine
 62
250
  6
CONTINUOUS
 10
3.4493778008
 20
23.2056374621
 11
3.4288285851
 21
23.2035684929
  0
LINE
  5
764
100
AcDbEntity
  8
ASSI
100
AcDbLine
 62
250
  6
CONTINUOUS
 10
3.5867783447
 20
23.2040334242
 11
3.5735722825
 21
23.2028826001
  0
LWPOLYLINE
  5
765
100
AcDbEntity
  8
ASSI
100
AcDbPolyline
 62
250
  6
CONTINUOUS
 90
12
 70
0
 10
-2.1201453103
 20
22.9012748469
 10
-2.1183424127
 20
22.901378921
 10
-2.1165387094
 20
22.9013464413
 10
-2.1147676351
 20
22.9011575498
 10
-2.1130297133
 20
22.9008072962
 10
-2.1113244206
 20
22.9003006309
 10
-2.1096836217
 20
22.8996325464
 10
-2.1081097951
 20
22.8987989081
 10
-2.1066004623
 20
22.8978038507
 10
-2.105180053
 20
22.8966547711
 10
-2.103851047
 20
22.8953492022
 10
-2.1026109645
 20
22.893889611
  0
LWPOLYLINE
  5
766
100
AcDbEntity
  8
ASSI
100
AcDbPolyline
 62
250
  6
CONTINUOUS
 90
8
 70
0
 10
-2.2195290522
 20
23.1573953277
 10
-2.2104099418
 20
23.1579168751
 10
-2.2013084641
 20
23.1577177492
 10
-2.1923189798
 20
23.1567624381
 10
-2.1834814205
 20
23.1550232366
 10
-2.1748368662
 20
23.1524748328
 10
-2.1664741946
 20
23.1491158622
 10
-2.1637040569
 20
23.1477891756
  0
LINE
  5
767
100
AcDbEntity
  8
ASSI
100
AcDbLine
 62
7
  6
CONTINUOUS
 10
8.2336161735
 20
22.1966263806
 11
6.6519236948
 21
22.1163863884
  0
LINE
  5
768
100
AcDbEntity
  8
ASSI
100
AcDbLine
 62
7
  6
CONTINUOUS
 10
3.6001112393
 20
23.236474036
 11
3.55832419
 21
23.2348358544
  0
LINE
  5
769
100
AcDbEntity
  8
ASSI
100
AcDbLine
 62
250
  6
CONTINUOUS
 10
3.6000144752
 20
23.2044704218
 11
3.5866090871
 21
23.2040222877
  0
LWPOLYLINE
  5
76A
100
AcDbEntity
  8
ASSI
100
AcDbPolyline
 62
250
  6
CONTINUOUS
 90
24
 70
0
 10
3.5998451416
 20
23.2044680351
 10
3.6132795426
 20
23.2042437531
 10
3.62648269
 20
23.2033562041
 10
3.6394471675
 20
23.2017837806
 10
3.6521803912
 20
23.1995480901
 10
3.6642750092
 20
23.1967207173
 10
3.6757104213
 20
23.1932825826
 10
3.6865072276
 20
23.1892527657
 10
3.696319876
 20
23.1847600903
 10
3.7051165211
 20
23.1797895521
 10
3.7129290084
 20
23.1743561554
 10
3.7195073216
 20
23.1686337375
 10
3.7248116544
 20
23.162612946
 10
3.7288818132
 20
23.1563031333
 10
3.7315872009
 20
23.1499061934
 10
3.732883367
 20
23.1434193282
 10
3.7328147622
 20
23.1368453359
 10
3.7313841415
 20
23.130394505
 10
3.7285435411
 20
23.1240686581
 10
3.7243409248
 20
23.1178659726
 10
3.7189229393
 20
23.1119912687
 10
3.7123384668
 20
23.1065128198
 10
3.704538625
 20
23.1013623524
 10
3.695523414
 20
23.0965398667
  0
LWPOLYLINE
  5
76B
100
AcDbEntity
  8
ASSI
100
AcDbPolyline
 62
7
  6
CONTINUOUS
 90
5
 70
0
 10
-4.3455269496
 20
24.2211998762
 10
-4.3685855875
 20
24.2219641687
 10
-4.3918488716
 20
24.2203260955
 10
-4.4149738822
 20
24.2162742507
 10
-4.4377013785
 20
24.2098430117
  0
LWPOLYLINE
  5
76C
100
AcDbEntity
  8
ASSI
100
AcDbPolyline
 62
250
  6
CONTINUOUS
 90
4
 70
0
 10
3.4493814018
 20
23.2056374522
 10
3.4710175163
 20
23.2036727852
 10
3.4933709034
 20
23.1977090531
 10
3.5160592631
 20
23.1878483903
  0
LINE
  5
76D
100
AcDbEntity
  8
ASSI
100
AcDbLine
 62
7
  6
CONTINUOUS
 10
3.6822760118
 20
23.2296197021
 11
3.6406948638
 21
23.234777654
  0
LWPOLYLINE
  5
76E
100
AcDbEntity
  8
ASSI
100
AcDbPolyline
 62
7
  6
CONTINUOUS
 90
3
 70
0
 10
3.6819392172
 20
23.2296749378
 10
3.6408939545
 20
23.2347614812
 10
3.5994021014
 20
23.2364753064
  0
LINE
  5
76F
100
AcDbEntity
  8
0
100
AcDbLine
 62
7
  6
CONTINUOUS
 10
34.6444160244
 20
13.0765262039
 11
34.5037561789
 21
13.1468561267
  0
LINE
  5
770
100
AcDbEntity
  8
0
100
AcDbLine
 62
7
  6
CONTINUOUS
 10
29.5984019277
 20
15.8813798998
 11
30.3491451121
 21
15.5060083076
  0
LINE
  5
771
100
AcDbEntity
  8
0
100
AcDbLine
 62
250
  6
CONTINUOUS
 10
31.6684786773
 20
15.1469559562
 11
30.9294554693
 21
15.5164675601
  0
LINE
  5
772
100
AcDbEntity
  8
DRAFT
100
AcDbLine
 62
7
  6
CONTINUOUS
 10
36.3928751449
 20
13.2629568155
 11
35.5644163507
 21
13.6771862126
  0
LINE
  5
773
100
AcDbEntity
  8
RACCORDO
100
AcDbLine
 62
7
  6
CONTINUOUS
 10
36.3928751449
 20
23.6651469618
 11
36.3928751449
 21
21.2303905303
  0
LINE
  5
774
100
AcDbEntity
  8
DRAFT
100
AcDbLine
 62
7
  6
CONTINUOUS
 10
36.3928751449
 20
17.5930838344
 11
36.3928751449
 21
16.9002635114
  0
LINE
  5
775
100
AcDbEntity
  8
DRAFT
100
AcDbLine
 62
7
  6
CONTINUOUS
 10
36.3928751449
 20
13.2629568155
 11
36.3928751449
 21
11.593723272
  0
LINE
  5
776
100
AcDbEntity
  8
DRAFT
100
AcDbLine
 62
7
  6
CONTINUOUS
 10
36.3928751449
 20
9.909243017
 11
36.3928751449
 21
7.2635962531
  0
LINE
  5
777
100
AcDbEntity
  8
DRAFT
100
AcDbLine
 62
7
  6
CONTINUOUS
 10
36.3928751449
 20
5.5791159981
 11
36.3928751449
 21
2.9334692342
  0
LINE
  5
778
100
AcDbEntity
  8
DRAFT
100
AcDbLine
 62
7
  6
CONTINUOUS
 10
36.3928751449
 20
1.2489889792
 11
36.3928751449
 21
-1.3966577847
  0
LINE
  5
779
100
AcDbEntity
  8
RACCORDO
100
AcDbLine
 62
7
  6
CONTINUOUS
 10
36.3928751449
 20
-3.0811380397
 11
36.3928751449
 21
-6.4923076916
  0
LINE
  5
77A
100
AcDbEntity
  8
ASSI
100
AcDbLine
 62
250
  6
CONTINUOUS
 10
-2.2465598227
 20
23.1519746323
 11
-2.2372419626
 21
23.1544694952
  0
LINE
  5
77B
100
AcDbEntity
  8
ASSI
100
AcDbLine
 62
250
  6
CONTINUOUS
 10
-2.2376672236
 20
23.1543695891
 11
-2.2281345445
 21
23.1562793027
  0
LWPOLYLINE
  5
77C
100
AcDbEntity
  8
ASSI
100
AcDbPolyline
 62
250
  6
CONTINUOUS
 90
5
 70
0
 10
-6.5553095717
 20
23.1093544477
 10
-6.5385768316
 20
23.1111563068
 10
-6.5208636107
 20
23.1097868131
 10
-6.5024728697
 20
23.1052693898
 10
-6.4837191576
 20
23.0976813014
  0
LINE
  5
77D
100
AcDbEntity
  8
0
100
AcDbLine
 62
7
  6
CONTINUOUS
 10
34.6444160244
 20
17.4066532229
 11
34.5037561789
 21
17.4769831456
  0
LINE
  5
77E
100
AcDbEntity
  8
DRAFT
100
AcDbLine
 62
7
  6
CONTINUOUS
 10
36.3928751449
 20
17.5930838344
 11
35.5644163507
 21
18.0073132315
  0
LINE
  5
77F
100
AcDbEntity
  8
DRAFT
100
AcDbLine
 62
7
  6
CONTINUOUS
 10
26.8510681998
 20
28.6426714844
 11
26.8810604735
 21
28.6276753476
  0
LINE
  5
780
100
AcDbEntity
  8
DRAFT
100
AcDbLine
 62
7
  6
CONTINUOUS
 10
30.3866021057
 20
26.8749045314
 11
30.4165943794
 21
26.8599083946
  0
LINE
  5
781
100
AcDbEntity
  8
DRAFT
100
AcDbLine
 62
7
  6
CONTINUOUS
 10
33.9221360117
 20
25.1071375785
 11
33.9521282853
 21
25.0921414416
  0
LINE
  5
782
100
AcDbEntity
  8
RACCORDO
100
AcDbLine
 62
7
  6
CONTINUOUS
 10
22.4546317234
 20
32.1461177282
 11
26.8510681998
 21
29.94789949
  0
LINE
  5
783
100
AcDbEntity
  8
DRAFT
100
AcDbLine
 62
7
  6
CONTINUOUS
 10
28.2264405686
 20
29.2602133055
 11
30.3866021057
 21
28.180132537
  0
LINE
  5
784
100
AcDbEntity
  8
DRAFT
100
AcDbLine
 62
7
  6
CONTINUOUS
 10
31.7619744746
 20
27.4924463526
 11
33.9221360117
 21
26.412365584
  0
LINE
  5
785
100
AcDbEntity
  8
RACCORDO
100
AcDbLine
 62
7
  6
CONTINUOUS
 10
35.2975083805
 20
25.7246793996
 11
35.4513041698
 21
25.647781505
  0
LINE
  5
786
100
AcDbEntity
  8
RACCORDO
100
AcDbLine
 62
7
  6
CONTINUOUS
 10
35.9512280174
 20
25.1442052457
 11
35.9787246692
 21
25.0967805364
  0
ELLIPSE
  5
787
100
AcDbEntity
  8
ASSI
100
AcDbEllipse
 62
7
  6
CONTINUOUS
 10
10.626505863
 20
-23.2905670905
 30
0.0
 11
-0.2237009107
 21
0.4473351135
 31
0.0
 40
0.6121897086
 41
-3.1225762268
 42
-2.2557347926
  0
ELLIPSE
  5
788
100
AcDbEntity
  8
ASSI
100
AcDbEllipse
 62
7
  6
CONTINUOUS
 10
10.626505863
 20
14.610980616
 30
0.0
 11
-0.2235807756
 21
0.4472283268
 31
0.0
 40
0.6125552124
 41
-2.255296188
 42
-0.6848044477
  0
ELLIPSE
  5
789
100
AcDbEntity
  8
ASSI
100
AcDbEllipse
 62
7
  6
CONTINUOUS
 10
3.8600932653
 20
19.5595202078
 30
0.0
 11
-0.1174113663
 21
0.2209958577
 31
0.0
 40
0.5985429242
 41
-0.6989839728
 42
-0.0333665111
  0
ELLIPSE
  5
78A
100
AcDbEntity
  8
ASSI
100
AcDbEllipse
 62
7
  6
CONTINUOUS
 10
15.5651185542
 20
-18.4656733213
 30
0.0
 11
0.4349639225
 21
0.9005141702
 31
0.0
 40
0.6016116119
 41
-1.1388181886
 42
-0.9496192936
  0
ELLIPSE
  5
78B
100
AcDbEntity
  8
ASSI
100
AcDbEllipse
 62
7
  6
CONTINUOUS
 10
15.5651185542
 20
18.2825029981
 30
0.0
 11
0.4349639225
 21
0.9005141702
 31
0.0
 40
0.6016116119
 41
-0.8943064336
 42
-0.6497946785
  0
ELLIPSE
  5
78C
100
AcDbEntity
  8
ASSI
100
AcDbEllipse
 62
7
  6
CONTINUOUS
 10
3.9893810642
 20
24.070371743
 30
0.0
 11
1.004787277
 21
0.6140102217
 31
0.0
 40
0.0864918533
 41
0.054007104
 42
0.7212730538
  0
ELLIPSE
  5
78D
100
AcDbEntity
  8
ASSI
100
AcDbEllipse
 62
7
  6
CONTINUOUS
 10
15.7327886449
 20
-18.5495083667
 30
0.0
 11
0.9927147821
 21
0.620457446
 31
0.0
 40
0.0764819879
 41
-2.3927159682
 42
-1.083884689
  0
ELLIPSE
  5
78E
100
AcDbEntity
  8
ASSI
100
AcDbEllipse
 62
7
  6
CONTINUOUS
 10
2.3517444014
 20
20.3136946398
 30
0.0
 11
-0.1172693628
 21
0.2208586762
 31
0.0
 40
0.5994421146
 41
-2.2699607138
 42
-0.6994689735
  0
ELLIPSE
  5
78F
100
AcDbEntity
  8
ASSI
100
AcDbEllipse
 62
7
  6
CONTINUOUS
 10
11.1457352253
 20
71.0223261888
 30
0.0
 11
3.5378457856
 21
99.5794032239
 31
0.0
 40
0.0069684374
 41
-2.1125915505
 42
-2.1121351185
  0
ELLIPSE
  5
790
100
AcDbEntity
  8
ASSI
100
AcDbEllipse
 62
7
  6
CONTINUOUS
 10
8.9552238399
 20
19.7959911157
 30
0.0
 11
1.000203771
 21
-0.0143477891
 31
0.0
 40
0.4891226537
 41
-0.7775824994
 42
-0.0731082115
  0
ELLIPSE
  5
791
100
AcDbEntity
  8
ASSI
100
AcDbEllipse
 62
7
  6
CONTINUOUS
 10
8.0568125502
 20
22.2850281922
 30
0.0
 11
0.2503214863
 21
-0.0601325557
 31
0.0
 40
0.261363135
 41
-0.7257858084
 42
0.0666112963
  0
ELLIPSE
  5
792
100
AcDbEntity
  8
ASSI
100
AcDbEllipse
 62
7
  6
CONTINUOUS
 10
15.7327886449
 20
18.1986679527
 30
0.0
 11
-0.7356038977
 21
1.2035991204
 31
0.0
 40
0.5552491559
 41
4.9152040051
 42
6.2240352843
  0
ELLIPSE
  5
793
100
AcDbEntity
  8
ASSI
100
AcDbEllipse
 62
7
  6
CONTINUOUS
 10
7.23550589
 20
-25.3421923594
 30
0.0
 11
0.220014872
 21
0.1791173313
 31
0.0
 40
0.6627826692
 41
-1.8038058062
 42
-1.2976603231
  0
ELLIPSE
  5
794
100
AcDbEntity
  8
ASSI
100
AcDbEllipse
 62
7
  6
CONTINUOUS
 10
21.665283942
 20
25.8933981429
 30
0.0
 11
18.2927339069
 21
9.4748417608
 31
0.0
 40
0.0170707209
 41
-2.6536573066
 42
-2.3141694431
  0
ELLIPSE
  5
795
100
AcDbEntity
  8
ASSI
100
AcDbEllipse
 62
7
  6
CONTINUOUS
 10
21.665283942
 20
25.8933981429
 30
0.0
 11
18.2927339069
 21
9.4748417608
 31
0.0
 40
0.0170707209
 41
2.2964861198
 42
2.6359739833
  0
ELLIPSE
  5
796
100
AcDbEntity
  8
ASSI
100
AcDbEllipse
 62
7
  6
CONTINUOUS
 10
9.9459191092
 20
14.2735277219
 30
0.0
 11
41.2152542262
 21
22.501943358
 31
0.0
 40
0.0081048063
 41
1.5667140536
 42
1.5886117747
  0
ELLIPSE
  5
797
100
AcDbEntity
  8
ASSI
100
AcDbEllipse
 62
7
  6
CONTINUOUS
 10
8.9336058043
 20
19.2904412505
 30
0.0
 11
1.0006854676
 21
-0.0
 31
0.0
 40
0.499657501
 41
0.5045243601
 42
0.7850555471
  0
ELLIPSE
  5
798
100
AcDbEntity
  8
ASSI
100
AcDbEllipse
 62
7
  6
CONTINUOUS
 10
5.335601455
 20
73.927393074
 30
0.0
 11
0.7093717925
 21
100.9935570733
 31
0.0
 40
0.0069790045
 41
-2.1156864167
 42
-2.1123834047
  0
ELLIPSE
  5
799
100
AcDbEntity
  8
ASSI
100
AcDbEllipse
 62
7
  6
CONTINUOUS
 10
5.335601455
 20
21.0894434252
 30
0.0
 11
1.0
 21
-0.0
 31
0.0
 40
0.5003427338
 41
0.7857407797
 42
1.3334966153
  0
ELLIPSE
  5
79A
100
AcDbEntity
  8
ASSI
100
AcDbEllipse
 62
7
  6
CONTINUOUS
 10
5.335601455
 20
21.6058023081
 30
0.0
 11
0.9999753489
 21
-0.014348771
 31
0.0
 40
0.4893460778
 41
1.6583991585
 42
2.3628734463
  0
ELLIPSE
  5
79B
100
AcDbEntity
  8
ASSI
100
AcDbEllipse
 62
7
  6
CONTINUOUS
 10
7.0419416039
 20
14.4512413447
 30
0.0
 11
0.249929385
 21
0.0111824824
 31
0.0
 40
0.5313301283
 41
3.1178239796
 42
3.9032222197
  0
ELLIPSE
  5
79C
100
AcDbEntity
  8
ASSI
100
AcDbEllipse
 62
7
  6
CONTINUOUS
 10
-5.5445591012
 20
20.7444916972
 30
0.0
 11
0.249929385
 21
0.0111824824
 31
0.0
 40
0.5313301283
 41
3.1178239796
 42
3.9032222197
  0
ELLIPSE
  5
79D
100
AcDbEntity
  8
ASSI
100
AcDbEllipse
 62
7
  6
CONTINUOUS
 10
1.5135005157
 20
18.6828237251
 30
0.0
 11
0.199943508
 21
0.008945986
 31
0.0
 40
0.5313301283
 41
-2.3799630874
 42
-0.8266200532
  0
ELLIPSE
  5
79E
100
AcDbEntity
  8
ASSI
100
AcDbEllipse
 62
7
  6
CONTINUOUS
 10
-0.7771478814
 20
19.8281479237
 30
0.0
 11
0.199943508
 21
0.008945986
 31
0.0
 40
0.5313301283
 41
3.1178240623
 42
3.9032222197
  0
ELLIPSE
  5
79F
100
AcDbEntity
  8
ASSI
100
AcDbEllipse
 62
7
  6
CONTINUOUS
 10
5.2258111169
 20
16.8266684245
 30
0.0
 11
0.199943508
 21
0.008945986
 31
0.0
 40
0.5313301283
 41
-2.3799630874
 42
-0.8266200532
  0
ELLIPSE
  5
7A0
100
AcDbEntity
  8
ASSI
100
AcDbEllipse
 62
7
  6
CONTINUOUS
 10
8.8556801894
 20
-24.9451727279
 30
0.0
 11
0.220014872
 21
0.1791173313
 31
0.0
 40
0.6627826692
 41
-2.8510033574
 42
-2.6599685648
  0
ELLIPSE
  5
7A1
100
AcDbEntity
  8
ASSI
100
AcDbEllipse
 62
7
  6
CONTINUOUS
 10
2.9351627198
 20
17.9719926231
 30
0.0
 11
0.199943508
 21
0.008945986
 31
0.0
 40
0.5313301283
 41
3.1178240623
 42
3.9032222197
  0
ELLIPSE
  5
7A2
100
AcDbEntity
  8
ASSI
100
AcDbEllipse
 62
7
  6
CONTINUOUS
 10
-5.7505198381
 20
21.5999653151
 30
0.0
 11
0.249929385
 21
0.0111824824
 31
0.0
 40
0.5313301283
 41
3.1178240764
 42
3.9032222197
  0
ELLIPSE
  5
7A3
100
AcDbEntity
  8
ASSI
100
AcDbEllipse
 62
7
  6
CONTINUOUS
 10
-3.7308205157
 20
20.5901156539
 30
0.0
 11
0.249929385
 21
0.0111824824
 31
0.0
 40
0.5313301283
 41
-2.3799630874
 42
-0.8266200532
  0
ELLIPSE
  5
7A4
100
AcDbEntity
  8
ASSI
100
AcDbEllipse
 62
7
  6
CONTINUOUS
 10
6.835980867
 20
15.3067149625
 30
0.0
 11
0.249929385
 21
0.0111824824
 31
0.0
 40
0.5313301283
 41
3.1178239796
 42
3.9032222197
  0
ELLIPSE
  5
7A5
100
AcDbEntity
  8
ASSI
100
AcDbEllipse
 62
7
  6
CONTINUOUS
 10
8.8556801894
 20
14.2968653013
 30
0.0
 11
0.249929385
 21
0.0111824824
 31
0.0
 40
0.5313301283
 41
-2.3799630874
 42
-1.125412988
  0
ELLIPSE
  5
7A6
100
AcDbEntity
  8
ASSI
100
AcDbEllipse
 62
7
  6
CONTINUOUS
 10
7.23550589
 20
14.3544592016
 30
0.0
 11
0.249929385
 21
0.0111824824
 31
0.0
 40
0.5313301283
 41
-2.3799630874
 42
-0.8266200532
  0
ELLIPSE
  5
7A7
100
AcDbEntity
  8
ASSI
100
AcDbEllipse
 62
7
  6
CONTINUOUS
 10
-5.3509948151
 20
20.6477095542
 30
0.0
 11
0.249929385
 21
0.0111824824
 31
0.0
 40
0.5313301283
 41
-2.3799630874
 42
-0.8266200532
  0
ELLIPSE
  5
7A8
100
AcDbEntity
  8
RACCORDO
100
AcDbEllipse
 62
7
  6
CONTINUOUS
 10
35.4512149449
 20
-6.6671693236
 30
0.0
 11
-0.4472005764
 21
0.894616689
 31
0.0
 40
0.6122812743
 41
-3.1275803462
 42
-3.040868577
  0
ELLIPSE
  5
7A9
100
AcDbEntity
  8
RACCORDO
100
AcDbEllipse
 62
7
  6
CONTINUOUS
 10
35.4512149449
 20
24.7816687937
 30
0.0
 11
-0.447101003
 21
0.8945282396
 31
0.0
 40
0.6124326778
 41
-1.4698904957
 42
-0.6846185041
  0
ELLIPSE
  5
7AA
100
AcDbEntity
  8
RACCORDO
100
AcDbEllipse
 62
7
  6
CONTINUOUS
 10
22.4547209483
 20
31.279915792
 30
0.0
 11
-0.4472005764
 21
0.894616689
 31
0.0
 40
0.6122812743
 41
-0.684547915
 42
-0.0140123073
  0
ELLIPSE
  5
7AB
100
AcDbEntity
  8
0
100
AcDbEllipse
 62
7
  6
CONTINUOUS
 10
30.964502267
 20
13.0228258294
 30
0.0
 11
0.9261626287
 21
1.8847694129
 31
0.0
 40
0.607010042
 41
-2.8107082134
 42
-2.4610674593
  0
ELLIPSE
  5
7AC
100
AcDbEntity
  8
0
100
AcDbEllipse
 62
7
  6
CONTINUOUS
 10
30.9294554693
 20
17.3351209081
 30
0.0
 11
0.9261626287
 21
1.8847694129
 31
0.0
 40
0.607010042
 41
-2.8105670683
 42
-2.4610674593
  0
ELLIPSE
  5
7AD
100
AcDbEntity
  8
0
100
AcDbEllipse
 62
7
  6
CONTINUOUS
 10
17.1135776764
 20
17.6944349692
 30
0.0
 11
0.7565558285
 21
-0.0106320167
 31
0.0
 40
0.4892375088
 41
-1.5914339094
 42
-0.7872495743
  0
ELLIPSE
  5
7AE
100
AcDbEntity
  8
RACCORDO
100
AcDbEllipse
 62
7
  6
CONTINUOUS
 10
34.9784461581
 20
-5.7848746427
 30
0.0
 11
-0.894811907
 21
1.788971565
 31
0.0
 40
0.6123121697
 41
-3.0410143285
 42
-2.2557423369
  0
ELLIPSE
  5
7AF
100
AcDbEntity
  8
RACCORDO
100
AcDbEllipse
 62
7
  6
CONTINUOUS
 10
34.9784461581
 20
24.3721428997
 30
0.0
 11
-0.894612936
 21
1.7887945813
 31
0.0
 40
0.6124635976
 41
-2.2555607096
 42
-1.470288718
  0
ELLIPSE
  5
7B0
100
AcDbEntity
  8
DRAFT
100
AcDbEllipse
 62
7
  6
CONTINUOUS
 10
31.6684786773
 20
16.9656093041
 30
0.0
 11
0.9134242373
 21
1.8910797574
 31
0.0
 40
0.6016116119
 41
0.6764898932
 42
1.8061556293
  0
ELLIPSE
  5
7B1
100
AcDbEntity
  8
DRAFT
100
AcDbEllipse
 62
7
  6
CONTINUOUS
 10
31.7032168866
 20
12.6534685196
 30
0.0
 11
0.9134242373
 21
1.8910797574
 31
0.0
 40
0.6016116119
 41
0.6764898932
 42
1.8059248863
  0
ELLIPSE
  5
7B2
100
AcDbEntity
  8
0
100
AcDbEllipse
 62
7
  6
CONTINUOUS
 10
24.1066175268
 20
13.4990034775
 30
0.0
 11
0.9999763657
 21
-0.0140528498
 31
0.0
 40
0.4892375088
 41
-2.3493192548
 42
-1.8066868006
  0
ELLIPSE
  5
7B3
100
AcDbEntity
  8
RACCORDO
100
AcDbEllipse
 62
7
  6
CONTINUOUS
 10
4.2977846379
 20
19.7032101023
 30
0.0
 11
0.9186386757
 21
0.8888022679
 31
0.0
 40
0.2933143047
 41
0.102817243
 42
0.1091207589
  0
ELLIPSE
  5
7B4
100
AcDbEntity
  8
DRAFT
100
AcDbEllipse
 62
7
  6
CONTINUOUS
 10
31.7032168866
 20
12.6534685196
 30
0.0
 11
0.9134242373
 21
1.8910797574
 31
0.0
 40
0.6016116119
 41
2.6886475538
 42
3.8180825468
  0
ELLIPSE
  5
7B5
100
AcDbEntity
  8
DRAFT
100
AcDbEllipse
 62
7
  6
CONTINUOUS
 10
31.6684786773
 20
16.9656093041
 30
0.0
 11
0.9134242373
 21
1.8910797574
 31
0.0
 40
0.6016116119
 41
2.6884168107
 42
3.8180825468
  0
ELLIPSE
  5
7B6
100
AcDbEntity
  8
0
100
AcDbEllipse
 62
7
  6
CONTINUOUS
 10
19.2020287092
 20
-11.1397192141
 30
0.0
 11
0.3290822684
 21
0.6813053463
 31
0.0
 40
0.6016116119
 41
0.6852165395
 42
3.8093559006
  0
ELLIPSE
  5
7B7
100
AcDbEntity
  8
0
100
AcDbEllipse
 62
7
  6
CONTINUOUS
 10
19.2020287092
 20
-6.8095921952
 30
0.0
 11
0.3290822684
 21
0.6813053463
 31
0.0
 40
0.6016116119
 41
0.6852165395
 42
3.8093559006
  0
ELLIPSE
  5
7B8
100
AcDbEntity
  8
0
100
AcDbEllipse
 62
7
  6
CONTINUOUS
 10
19.2020287092
 20
-2.4794651763
 30
0.0
 11
0.3290822684
 21
0.6813053463
 31
0.0
 40
0.6016116119
 41
0.6852165395
 42
3.8093559006
  0
ELLIPSE
  5
7B9
100
AcDbEntity
  8
0
100
AcDbEllipse
 62
7
  6
CONTINUOUS
 10
19.2020287092
 20
1.8506618426
 30
0.0
 11
0.3290822684
 21
0.6813053463
 31
0.0
 40
0.6016116119
 41
0.6852165395
 42
3.8093559006
  0
ELLIPSE
  5
7BA
100
AcDbEntity
  8
0
100
AcDbEllipse
 62
7
  6
CONTINUOUS
 10
19.2020287092
 20
6.1807888616
 30
0.0
 11
0.3290822684
 21
0.6813053463
 31
0.0
 40
0.6016116119
 41
0.6852165395
 42
3.8093559006
  0
ELLIPSE
  5
7BB
100
AcDbEntity
  8
0
100
AcDbEllipse
 62
7
  6
CONTINUOUS
 10
19.2020287092
 20
10.5109158805
 30
0.0
 11
0.3290822684
 21
0.6813053463
 31
0.0
 40
0.6016116119
 41
0.6852165395
 42
3.8093559006
  0
ELLIPSE
  5
7BC
100
AcDbEntity
  8
RACCORDO
100
AcDbEllipse
 62
7
  6
CONTINUOUS
 10
9.9669354473
 20
-18.9603763876
 30
0.0
 11
-0.894811907
 21
1.788971565
 31
0.0
 40
0.6123121697
 41
3.2552268883
 42
3.3353817565
  0
ELLIPSE
  5
7BD
100
AcDbEntity
  8
RACCORDO
100
AcDbEllipse
 62
7
  6
CONTINUOUS
 10
9.9669354473
 20
-18.9603763876
 30
0.0
 11
-0.894811907
 21
1.788971565
 31
0.0
 40
0.6123121697
 41
-2.5323816556
 42
-2.2557423369
  0
ELLIPSE
  5
7BE
100
AcDbEntity
  8
RACCORDO
100
AcDbEllipse
 62
7
  6
CONTINUOUS
 10
9.9669354473
 20
11.6474671098
 30
0.0
 11
-0.894612936
 21
1.7887945813
 31
0.0
 40
0.6124635976
 41
-2.2555607096
 42
-1.978921391
  0
ELLIPSE
  5
7BF
100
AcDbEntity
  8
RACCORDO
100
AcDbEllipse
 62
7
  6
CONTINUOUS
 10
9.9669354473
 20
11.6474671098
 30
0.0
 11
-0.894612936
 21
1.7887945813
 31
0.0
 40
0.6124635976
 41
-1.5634994959
 42
-1.4833446277
  0
ENDSEC
  0
SECTION
  2
OBJECTS
  0
DICTIONARY
  5
C
100
AcDbDictionary
280
0
281
1
  3
ACAD_GROUP
350
D
  3
ACAD_MLINESTYLE
350
17
  3
ACAD_LAYOUT
350
1A
  3
ACAD_PLOTSETTINGS
350
19
  3
ACAD_PLOTSTYLENAME
350
E
  0
DICTIONARY
  5
D
102
{ACAD_REACTORS
330
C
102
}
100
AcDbDictionary
280
0
281
1
  0
ACDBDICTIONARYWDFLT
  5
E
102
{ACAD_REACTORS
330
C
102
}
100
AcDbDictionary
281
1
  3
Normal
350
F
100
AcDbDictionaryWithDefault
340
F
  0
DICTIONARY
  5
17
102
{ACAD_REACTORS
330
C
102
}
100
AcDbDictionary
280
0
281
1
  3
Standard
350
18
  0
DICTIONARY
  5
19
102
{ACAD_REACTORS
330
C
102
}
100
AcDbDictionary
281
1
  0
DICTIONARY
  5
1A
102
{ACAD_REACTORS
330
C
102
}
100
AcDbDictionary
281
1
  3
Model
350
7C0
  3
Layout1
350
7C1
  0
ACDBPLACEHOLDER
  5
F
102
{ACAD_REACTORS
330
E
102
}
  0
MLINESTYLE
  5
18
102
{ACAD_REACTORS
330
17
102
}
100
AcDbMlineStyle
  2
STANDARD
 70
0
  3

 62
256
 51
90.0
 52
90.0
 71
2
 49
0.5
 62
256
  6
BYLAYER
 49
-0.5
 62
256
  6
BYLAYER
  0
LAYOUT
  5
7C0
102
{ACAD_REACTORS
330
1A
102
}
100
AcDbPlotSettings
  1

  2
none_device
  4
ISO_A4_(297.00_x_210.00_MM)
  6

 40
0.0
 41
0.0
 42
0.0
 43
0.0
 44
297.0
 45
210.0
 46
0.0
 47
0.0
 48
0.0
 49
0.0
140
0.0
141
0.0
142
1.0
143
1.0
 70
1024
 72
1
 73
0
 74
0
  7

 75
0
147
1.0
148
0.0
149
0.0
100
AcDbLayout
  1
Model
 70
0
 71
0
 10
0.0
 20
0.0
 11
297.0
 21
210.0
 12
0.0
 22
0.0
 32
0.0
 14
0.0
 24
0.0
 34
0.0
 15
0.0
 25
0.0
 35
0.0
146
0.0
 13
0.0
 23
0.0
 33
0.0
 16
1.0
 26
0.0
 36
0.0
 17
0.0
 27
1.0
 37
0.0
 76
0
330
28E
345
0
346
0
  0
LAYOUT
  5
7C1
102
{ACAD_REACTORS
330
1A
102
}
100
AcDbPlotSettings
  1

  2
none_device
  4
ISO_A4_(297.00_x_210.00_MM)
  6

 40
0.0
 41
0.0
 42
0.0
 43
0.0
 44
297.0
 45
210.0
 46
0.0
 47
0.0
 48
0.0
 49
0.0
140
0.0
141
0.0
142
1.0
143
1.0
 70
0
 72
1
 73
0
 74
0
  7

 75
0
147
1.0
148
0.0
149
0.0
100
AcDbLayout
  1
Layout1
 70
0
 71
1
 10
0.0
 20
0.0
 11
297.0
 21
210.0
 12
0.0
 22
0.0
 32
0.0
 14
0.0
 24
0.0
 34
0.0
 15
0.0
 25
0.0
 35
0.0
146
0.0
 13
0.0
 23
0.0
 33
0.0
 16
1.0
 26
0.0
 36
0.0
 17
0.0
 27
1.0
 37
0.0
 76
0
330
28F
345
0
346
0
  0
ENDSEC
  0
EOF
