999
DXF file: zdi_ea1697101T1.dxf
999
Pro/ENGINEER 2004090 by Parametric Technology Corporation
0
SECTION
2
HEADER
9
$ACADVER
1
AC1014
9
$HANDSEED
5
       2B8
9
$EXTMAX
10
297.0000000000
20
210.0000000000
9
$EXTMIN
10
0.0000000000
20
0.0000000000
9
$LIMMIN
10
0.0000000000
20
0.0000000000
9
$LIMMAX
10
297.0000000000
20
210.0000000000
9
$VIEWCTR
10
148.5000000000
20
105.0000000000
9
$VIEWSIZE
40
210.0000000000
9
$CLAYER
8
0
9
$LTSCALE
40
16.3350000000
9
$CELTYPE
6
BYLAYER
9
$DIMSCALE
40
1
9
$DIMASZ
40
3.0000000000
9
$DIMEXO
40
1.8562500000
9
$DIMDLI
40
11.2860000000
9
$DIMEXE
40
5.3460000000
9
$DIMCEN
40
2.6730000000
9
$DIMLFAC
40
1.0000000000
9
$DIMTXT
40
3.0000000000
9
$DIMTOL
70
1
9
$DIMLIM
70
0
9
$DIMTFAC
40
1.0000000000
9
$DIMTP
40
0.0100000000
9
$DIMTM
40
0.0100000000
9
$MEASUREMENT
70
1
0
ENDSEC
0
SECTION
2
CLASSES
0
ENDSEC
0
SECTION
2
TABLES
0
TABLE
2
VPORT
5
8
100
AcDbSymbolTable
70
2
0
VPORT
5
1F4
100
AcDbSymbolTableRecord
100
AcDbViewportTableRecord
2
*ACTIVE
70
0
10
0.0
20
0.0
11
1.0
21
1.0
12
148.5000000000
22
105.0000000000
13
0.0
23
0.0
14
1.0
24
1.0
15
0.0
25
0.0
16
0.0
26
0.0
36
1.0
17
0.0
27
0.0
37
0.0
40
210.0000000000
41
1.4142857143
42
50.0
43
0.0
44
0.0
50
0.0
51
0.0
71
0
72
100
73
1
74
1
75
0
76
0
77
0
78
0
0
ENDTAB
0
TABLE
2
LTYPE
5
5
100
AcDbSymbolTable
70
6
0
LTYPE
5
14
100
AcDbSymbolTableRecord
100
AcDbLinetypeTableRecord
2
BYBLOCK
70
0
3

72
65
73
0
40
0.0
0
LTYPE
5
15
100
AcDbSymbolTableRecord
100
AcDbLinetypeTableRecord
2
BYLAYER
70
0
3

72
65
73
0
40
0.0
0
LTYPE
5
16
100
AcDbSymbolTableRecord
100
AcDbLinetypeTableRecord
2
CONTINUOUS
70
64
3
Solid line
72
65
73
0
40
0
0
LTYPE
5
1F5
100
AcDbSymbolTableRecord
100
AcDbLinetypeTableRecord
2
CENTER
70
64
3
____ _ ____ _ ____ _ ____ _ ____ _ ____ _ ____
72
65
73
4
40
0.6
49
0.375
74
0
49
-0.075
74
0
49
0.075
74
0
49
-0.075
74
0
0
LTYPE
5
1F6
100
AcDbSymbolTableRecord
100
AcDbLinetypeTableRecord
2
HIDDEN
70
64
3
- - - - - - - - - - - - - - - - - - - -
72
65
73
2
40
0.2
49
0.1
74
0
49
-0.1
74
0
0
LTYPE
5
1F7
100
AcDbSymbolTableRecord
100
AcDbLinetypeTableRecord
2
PHANTOM
70
64
3
_____ _ _ _____ _ _ _____ _ _ _____
72
65
73
6
40
0.8
49
0.45
74
0
49
-0.05
74
0
49
0.1
74
0
49
-0.05
74
0
49
0.1
74
0
49
-0.05
74
0
0
LTYPE
5
1F8
100
AcDbSymbolTableRecord
100
AcDbLinetypeTableRecord
2
DOT
70
64
3
. . . . . . . . . . . . . . . . . . . .
72
65
73
2
40
0.2
49
0.1
74
0
49
-0.1
74
0
0
LTYPE
5
1F9
100
AcDbSymbolTableRecord
100
AcDbLinetypeTableRecord
2
DASHED
70
64
3
- - - - - - - - - - - - - - - - - - - -
72
65
73
2
40
0.2
49
0.1
74
0
49
-0.1
74
0
0
ENDTAB
0
TABLE
2
LAYER
5
2
100
AcDbSymbolTable
70
36
0
LAYER
5
10
100
AcDbSymbolTableRecord
100
AcDbLayerTableRecord
2
0
70
0
62
7
6
CONTINUOUS
0
LAYER
5
1FA
100
AcDbSymbolTableRecord
100
AcDbLayerTableRecord
2
DEFAULT_1
70
0
62
7
6
CENTER
0
LAYER
5
1FB
100
AcDbSymbolTableRecord
100
AcDbLayerTableRecord
2
DEFAULT_2
70
0
62
8
6
HIDDEN
0
LAYER
5
1FC
100
AcDbSymbolTableRecord
100
AcDbLayerTableRecord
2
DEFAULT_3
70
0
62
7
6
PHANTOM
0
LAYER
5
1FD
100
AcDbSymbolTableRecord
100
AcDbLayerTableRecord
2
ASSI
70
0
62
7
6
CONTINUOUS
0
LAYER
5
1FE
100
AcDbSymbolTableRecord
100
AcDbLayerTableRecord
2
COORDINATE
70
0
62
7
6
CONTINUOUS
0
LAYER
5
1FF
100
AcDbSymbolTableRecord
100
AcDbLayerTableRecord
2
COORD_ORIGINE
70
0
62
7
6
CONTINUOUS
0
LAYER
5
200
100
AcDbSymbolTableRecord
100
AcDbLayerTableRecord
2
CURVE
70
0
62
7
6
CONTINUOUS
0
LAYER
5
201
100
AcDbSymbolTableRecord
100
AcDbLayerTableRecord
2
CURVE_LED_TASTO
70
0
62
7
6
CONTINUOUS
0
LAYER
5
202
100
AcDbSymbolTableRecord
100
AcDbLayerTableRecord
2
DRAFT
70
0
62
7
6
CONTINUOUS
0
LAYER
5
203
100
AcDbSymbolTableRecord
100
AcDbLayerTableRecord
2
PIANI
70
0
62
7
6
CONTINUOUS
0
LAYER
5
204
100
AcDbSymbolTableRecord
100
AcDbLayerTableRecord
2
PIANI_ORIGINE
70
0
62
7
6
CONTINUOUS
0
LAYER
5
205
100
AcDbSymbolTableRecord
100
AcDbLayerTableRecord
2
PIANI_RIFERIMENTO
70
0
62
7
6
CONTINUOUS
0
LAYER
5
206
100
AcDbSymbolTableRecord
100
AcDbLayerTableRecord
2
PUNTI
70
0
62
7
6
CONTINUOUS
0
LAYER
5
207
100
AcDbSymbolTableRecord
100
AcDbLayerTableRecord
2
RACCORDO
70
0
62
7
6
CONTINUOUS
0
LAYER
5
208
100
AcDbSymbolTableRecord
100
AcDbLayerTableRecord
2
SCRITTE
70
0
62
7
6
CONTINUOUS
0
LAYER
5
209
100
AcDbSymbolTableRecord
100
AcDbLayerTableRecord
2
SUPERFICI
70
0
62
7
6
CONTINUOUS
0
LAYER
5
20A
100
AcDbSymbolTableRecord
100
AcDbLayerTableRecord
2
TRASH
70
0
62
7
6
CONTINUOUS
0
ENDTAB
0
TABLE
2
STYLE
5
3
100
AcDbSymbolTable
70
1
0
STYLE
5
11
100
AcDbSymbolTableRecord
100
AcDbTextStyleTableRecord
2
STANDARD
70
0
40
0.0
41
0.8000000000
50
0.0
71
0
42
0.2
3
txt
4

0
ENDTAB
0
TABLE
2
VIEW
5
6
100
AcDbSymbolTable
70
0
0
ENDTAB
0
TABLE
2
UCS
5
7
100
AcDbSymbolTable
70
0
0
ENDTAB
0
TABLE
2
APPID
5
9
100
AcDbSymbolTable
70
1
0
APPID
5
20B
100
AcDbSymbolTableRecord
100
AcDbRegAppTableRecord
2
ACAD
70
0
0
ENDTAB
0
TABLE
2
DIMSTYLE
5
A
100
AcDbSymbolTable
70
1
0
DIMSTYLE
105
20C
100
AcDbSymbolTableRecord
100
AcDbDimStyleTableRecord
2
STANDARD
70
0
3

4

5

6

7

40
1.0
41
3.0000000000
42
0.0625
43
0.38
44
0.18
45
0.0
46
0.0
47
0.0100000000
48
0.0100000000
140
3.0000000000
141
0.09
142
0.0
143
25.4
144
1.0000000000
145
0.0
146
1.0000000000
147
0.09
71
1
72
0
73
0
74
0
75
0
76
0
77
1
78
8
170
0
171
2
172
0
173
0
174
0
175
0
176
0
177
0
178
0
270
2
271
2
272
2
273
2
274
2
340
11
275
0
280
0
281
0
282
0
283
1
284
8
285
0
286
0
287
3
288
0
0
ENDTAB
0
TABLE
2
BLOCK_RECORD
5
1
100
AcDbSymbolTable
70
0
0
BLOCK_RECORD
5
1B
100
AcDbSymbolTableRecord
100
AcDbBlockTableRecord
2
*MODEL_SPACE
0
BLOCK_RECORD
5
1C
100
AcDbSymbolTableRecord
100
AcDbBlockTableRecord
2
*PAPER_SPACE
0
ENDTAB
0
ENDSEC
0
SECTION
2
BLOCKS
0
BLOCK
5
1E
100
AcDbEntity
8
0
100
AcDbBlockBegin
2
*MODEL_SPACE
70
0
10
0.0
20
0.0
30
0.0
3
*MODEL_SPACE
1

0
ENDBLK
5
1F
100
AcDbEntity
8
0
100
AcDbBlockEnd
0
BLOCK
5
20
100
AcDbEntity
8
0
100
AcDbBlockBegin
2
*PAPER_SPACE
70
0
10
0.0
20
0.0
30
0.0
3
*PAPER_SPACE
1

0
ENDBLK
5
21
100
AcDbEntity
8
0
100
AcDbBlockEnd
0
ENDSEC
0
SECTION
2
ENTITIES
0
LINE
5
20D
100
AcDbEntity
8
0
100
AcDbLine
62
7
6
CONTINUOUS
10
-10.4661503588
20
17.7120331684
11
-6.2650385040
21
20.8105934931
0
LINE
5
20E
100
AcDbEntity
8
0
100
AcDbLine
62
9
6
CONTINUOUS
10
-10.3249151106
20
17.7080412825
11
-6.1157484503
21
20.8125424871
0
LINE
5
20F
100
AcDbEntity
8
0
100
AcDbLine
62
9
6
CONTINUOUS
10
6.8839711683
20
-20.6268592934
11
11.2089783558
21
-19.4565397166
0
LINE
5
210
100
AcDbEntity
8
0
100
AcDbLine
62
7
6
CONTINUOUS
10
11.1089292014
20
-19.6301094982
11
6.7536393530
21
-20.8086230238
0
LINE
5
211
100
AcDbEntity
8
0
100
AcDbLine
62
7
6
CONTINUOUS
10
-10.6453768779
20
-12.2935576094
11
6.3103502735
21
-20.7714211851
0
LINE
5
212
100
AcDbEntity
8
0
100
AcDbLine
62
7
6
CONTINUOUS
10
6.3090012692
20
-20.7707433805
11
6.3103474409
21
-20.7714197688
0
LINE
5
213
100
AcDbEntity
8
0
100
AcDbLine
62
9
6
CONTINUOUS
10
-10.9015752602
20
-11.7873943023
11
6.0478109576
21
-20.2620874112
0
LINE
5
214
100
AcDbEntity
8
0
100
AcDbLine
62
7
6
CONTINUOUS
10
3.1500666194
20
-17.3649715787
11
-8.0929312014
21
-11.7434726682
0
LINE
5
215
100
AcDbEntity
8
0
100
AcDbLine
62
7
6
CONTINUOUS
10
3.1134933058
20
-17.3046146442
11
-8.0587938370
21
-11.7184710728
0
LINE
5
216
100
AcDbEntity
8
0
100
AcDbLine
62
7
6
CONTINUOUS
10
-8.0956485692
20
-11.6480484360
11
3.1473492516
21
-17.2695473465
0
LINE
5
217
100
AcDbEntity
8
0
100
AcDbLine
62
7
6
CONTINUOUS
10
-10.9894618036
20
16.6982040418
11
-10.9894643928
21
16.6981172259
0
LINE
5
218
100
AcDbEntity
8
0
100
AcDbLine
62
7
6
CONTINUOUS
10
-8.2553395061
20
-2.9810373262
11
2.9876583148
21
-8.6025362367
0
LINE
5
219
100
AcDbEntity
8
0
100
AcDbLine
62
7
6
CONTINUOUS
10
2.9518342247
20
-8.5298704364
11
-8.2204529181
21
-2.9437268650
0
LINE
5
21A
100
AcDbEntity
8
0
100
AcDbLine
62
7
6
CONTINUOUS
10
2.9868267054
20
-8.5044243866
11
-8.2561711154
21
-2.8829254762
0
LINE
5
21B
100
AcDbEntity
8
0
100
AcDbLine
62
9
6
CONTINUOUS
10
10.9974569885
20
12.2559397677
11
6.6387373160
21
9.2262150692
0
LINE
5
21C
100
AcDbEntity
8
0
100
AcDbLine
62
9
6
CONTINUOUS
10
11.2089783558
20
11.8871630254
11
6.8839711683
21
8.8808717102
0
LINE
5
21D
100
AcDbEntity
8
0
100
AcDbLine
62
7
6
CONTINUOUS
10
-9.1349196023
20
-2.9168102044
11
-8.9112707207
21
-2.8049857636
0
LINE
5
21E
100
AcDbEntity
8
0
100
AcDbLine
62
9
6
CONTINUOUS
10
-8.2553395061
20
-2.9810373262
11
-8.2005857509
21
-2.9536604486
0
LINE
5
21F
100
AcDbEntity
8
0
100
AcDbLine
62
7
6
CONTINUOUS
10
-2.8083880223
20
-0.6277049620
11
-2.7983280457
21
-0.6226749737
0
LINE
5
220
100
AcDbEntity
8
0
100
AcDbLine
62
9
6
CONTINUOUS
10
-9.6504972819
20
-3.9168740002
11
-9.7316982766
21
-3.9567719978
0
LINE
5
221
100
AcDbEntity
8
0
100
AcDbLine
62
9
6
CONTINUOUS
10
-9.6519057861
20
-3.9959168040
11
-9.6957995247
21
-4.0174839324
0
LINE
5
222
100
AcDbEntity
8
0
100
AcDbLine
62
9
6
CONTINUOUS
10
-1.6903540320
20
-2.8637729387
11
-1.6903242090
21
-2.8637580259
0
LINE
5
223
100
AcDbEntity
8
0
100
AcDbLine
62
7
6
CONTINUOUS
10
-1.6903540335
20
-2.8637729395
11
-1.6802940570
21
-2.8587429512
0
LINE
5
224
100
AcDbEntity
8
0
100
AcDbLine
62
9
6
CONTINUOUS
10
-9.5569876439
20
-9.1454313275
11
-9.6001101156
21
-9.1666194949
0
LINE
5
225
100
AcDbEntity
8
0
100
AcDbLine
62
9
6
CONTINUOUS
10
-9.5567966303
20
-9.1535892764
11
-9.6344139624
21
-9.1917264463
0
LINE
5
226
100
AcDbEntity
8
0
100
AcDbLine
62
9
6
CONTINUOUS
10
-8.0073484245
20
-11.6921985084
11
-8.0587938370
21
-11.7184710728
0
LINE
5
227
100
AcDbEntity
8
0
100
AcDbLine
62
9
6
CONTINUOUS
10
-7.9998604111
20
-11.6959425151
11
-8.0929312014
21
-11.7434726682
0
LINE
5
228
100
AcDbEntity
8
0
100
AcDbLine
62
9
6
CONTINUOUS
10
2.9876583148
20
-8.6025362367
11
3.0392150562
21
-8.5767578660
0
LINE
5
229
100
AcDbEntity
8
0
100
AcDbLine
62
7
6
CONTINUOUS
10
11.2089783558
20
11.8871630254
11
11.2089783558
21
-19.4565397166
0
LINE
5
22A
100
AcDbEntity
8
0
100
AcDbLine
62
9
6
CONTINUOUS
10
-10.9015752602
20
16.5930983864
11
6.0478109576
21
8.1184052775
0
LINE
5
22B
100
AcDbEntity
8
0
100
AcDbLine
62
9
6
CONTINUOUS
10
-10.3249151106
20
17.7080412825
11
6.6387373160
21
9.2262150692
0
LINE
5
22C
100
AcDbEntity
8
0
100
AcDbLine
62
9
6
CONTINUOUS
10
4.4200086279
20
-11.0326254501
11
4.4626867712
21
-11.0112863784
0
LINE
5
22D
100
AcDbEntity
8
0
100
AcDbLine
62
7
6
CONTINUOUS
10
10.9974569885
20
12.2559397677
11
-6.1157484503
21
20.8125424871
0
LINE
5
22E
100
AcDbEntity
8
0
100
AcDbLine
62
9
6
CONTINUOUS
10
3.1655593683
20
-17.2780251211
11
3.1134933058
21
-17.3046146442
0
LINE
5
22F
100
AcDbEntity
8
0
100
AcDbLine
62
9
6
CONTINUOUS
10
3.2478602020
20
-17.3150295513
11
3.1500666194
21
-17.3649715787
0
LINE
5
230
100
AcDbEntity
8
0
100
AcDbLine
62
9
6
CONTINUOUS
10
4.5164512996
20
-16.2671590773
11
4.5591858568
21
-16.2457917987
0
LINE
5
231
100
AcDbEntity
8
0
100
AcDbLine
62
7
6
CONTINUOUS
10
4.0309896406
20
-17.3317443219
11
4.2493414497
21
-17.2225684174
0
SPLINE
5
232
100
AcDbEntity
8
0
100
AcDbSpline
62
7
6
CONTINUOUS
70
0
71
3
72
11
73
7
74
5
42
0.0000001000
43
0.0000001000
44
0.0000000001
12
-0.5598188096
22
-0.2799094055
32
0.0000000000
13
-0.5598188080
23
0.2799094037
33
0.0000000000
40
0.0000000000
40
0.0000000000
40
0.0000000000
40
0.0000000000
40
0.2252491437
40
0.4623333716
40
0.7195979463
40
1.0000000000
40
1.0000000000
40
1.0000000000
40
1.0000000000
10
-1.6903540278
20
-2.8637729367
30
0.0000000000
10
-1.7323869303
20
-2.8847893880
30
0.0000000000
10
-1.8249045514
20
-2.9164395008
30
0.0000000000
10
-1.9762043561
20
-2.9267564271
30
0.0000000000
10
-2.1368107796
20
-2.8990725392
30
0.0000000000
10
-2.2417676017
20
-2.8572732728
30
0.0000000000
10
-2.2940923828
20
-2.8311108823
30
0.0000000000
11
-1.6903540278
21
-2.8637729367
31
0.0000000000
11
-1.8236496496
21
-2.9096900606
31
0.0000000000
11
-1.9716252914
21
-2.9207740257
31
0.0000000000
11
-2.1305257843
21
-2.8947280849
31
0.0000000000
11
-2.2940923828
21
-2.8311108823
31
0.0000000000
0
SPLINE
5
233
100
AcDbEntity
8
0
100
AcDbSpline
62
7
6
CONTINUOUS
70
0
71
3
72
8
73
4
74
2
42
0.0000001000
43
0.0000001000
44
0.0000000001
12
-0.0388700666
22
0.0194350333
32
0.0000000000
13
-0.0380638623
23
0.0210277800
33
0.0000000000
40
0.0000000000
40
0.0000000000
40
0.0000000000
40
0.0000000000
40
1.0000000000
40
1.0000000000
40
1.0000000000
40
1.0000000000
10
-2.2940923828
20
-2.8311108823
30
0.0000000000
10
-2.3070490717
20
-2.8246325379
30
0.0000000000
10
-2.3198728673
20
-2.8178795835
30
0.0000000000
10
-2.3325608214
20
-2.8108703235
30
0.0000000000
11
-2.2940923828
21
-2.8311108823
31
0.0000000000
11
-2.3325608214
21
-2.8108703235
31
0.0000000000
0
SPLINE
5
234
100
AcDbEntity
8
0
100
AcDbSpline
62
7
6
CONTINUOUS
70
0
71
3
72
20
73
16
74
14
42
0.0000001000
43
0.0000001000
44
0.0000000001
12
-2.2729585609
22
1.2556600834
32
0.0000000000
13
2.3211005330
23
1.1605502637
33
0.0000000000
40
0.0000000000
40
0.0000000000
40
0.0000000000
40
0.0000000000
40
0.0602821452
40
0.1426723583
40
0.2291099347
40
0.3180169670
40
0.4078745035
40
0.4969548795
40
0.5836503867
40
0.6665331942
40
0.7444235311
40
0.8163096226
40
0.8818855992
40
0.9425195564
40
1.0000000000
40
1.0000000000
40
1.0000000000
40
1.0000000000
10
-2.3325608214
20
-2.8108703235
30
0.0000000000
10
-2.3782337607
20
-2.7856390290
30
0.0000000000
10
-2.4821638879
20
-2.7180626463
30
0.0000000000
10
-2.6319893292
20
-2.5873509656
30
0.0000000000
10
-2.7788442907
20
-2.4187504527
30
0.0000000000
10
-2.9072089382
20
-2.2279565119
30
0.0000000000
10
-3.0132522566
20
-2.0213588651
30
0.0000000000
10
-3.0936918257
20
-1.8055383295
30
0.0000000000
10
-3.1457893142
20
-1.5873223577
30
0.0000000000
10
-3.1674039271
20
-1.3736309411
30
0.0000000000
10
-3.1570511027
20
-1.1717351870
30
0.0000000000
10
-3.1143377972
20
-0.9892079657
30
0.0000000000
10
-3.0403537155
20
-0.8329489857
30
0.0000000000
10
-2.9381494400
20
-0.7090013519
30
0.0000000000
10
-2.8528606459
20
-0.6499412738
30
0.0000000000
10
-2.8083880165
20
-0.6277049591
30
0.0000000000
11
-2.3325608214
21
-2.8108703235
31
0.0000000000
11
-2.4641614526
21
-2.7260666915
31
0.0000000000
11
-2.6259589212
21
-2.5862969775
31
0.0000000000
11
-2.7737827499
21
-2.4175849027
31
0.0000000000
11
-2.9028527817
21
-2.2263452553
31
0.0000000000
11
-3.0093592989
21
-2.0189029245
31
0.0000000000
11
-3.0898360167
21
-1.8021935572
31
0.0000000000
11
-3.1415013409
21
-1.5832253500
31
0.0000000000
11
-3.1622066603
21
-1.3691376412
31
0.0000000000
11
-3.1505522745
21
-1.1673430830
31
0.0000000000
11
-3.1065024136
21
-0.9860690259
31
0.0000000000
11
-3.0322756173
21
-0.8329362674
31
0.0000000000
11
-2.9312374451
21
-0.7123124883
31
0.0000000000
11
-2.8083880165
21
-0.6277049591
31
0.0000000000
0
SPLINE
5
235
100
AcDbEntity
8
0
100
AcDbSpline
62
9
6
CONTINUOUS
70
0
71
3
72
24
73
20
74
18
42
0.0000001000
43
0.0000001000
44
0.0000000001
12
-2.6658012393
22
1.3329006196
32
0.0000000000
13
2.6658012393
23
-1.3329006196
33
0.0000000000
40
0.0000000000
40
0.0000000000
40
0.0000000000
40
0.0000000000
40
0.0530416766
40
0.1026762980
40
0.1487588499
40
0.1929722555
40
0.2377723421
40
0.2855314230
40
0.3377239780
40
0.3950072443
40
0.4576108964
40
0.5242835266
40
0.5944007632
40
0.6660946229
40
0.7383199916
40
0.8091110750
40
0.8773880810
40
0.9414920735
40
1.0000000000
40
1.0000000000
40
1.0000000000
40
1.0000000000
10
-2.3196030135
20
-0.7748658382
30
0.0000000000
10
-2.3667358693
20
-0.7512994103
30
0.0000000000
10
-2.4621234162
20
-0.7131723827
30
0.0000000000
10
-2.6091952482
20
-0.6883945288
30
0.0000000000
10
-2.7494589204
20
-0.7016739011
30
0.0000000000
10
-2.8753250625
20
-0.7541029927
30
0.0000000000
10
-2.9805434264
20
-0.8432197794
30
0.0000000000
10
-3.0611909248
20
-0.9642142328
30
0.0000000000
10
-3.1154846742
20
-1.1119471698
30
0.0000000000
10
-3.1425508144
20
-1.2816452267
30
0.0000000000
10
-3.1417747399
20
-1.4676842640
30
0.0000000000
10
-3.1133137889
20
-1.6642949382
30
0.0000000000
10
-3.0582356446
20
-1.8644799992
30
0.0000000000
10
-2.9782908876
20
-2.0620151035
30
0.0000000000
10
-2.8763245893
20
-2.2498973233
30
0.0000000000
10
-2.7555715083
20
-2.4221817051
30
0.0000000000
10
-2.6203193976
20
-2.5727521459
30
0.0000000000
10
-2.4756255935
20
-2.6962356125
30
0.0000000000
10
-2.3715931811
20
-2.7608489652
30
0.0000000000
10
-2.3196030135
20
-2.7868440490
30
0.0000000000
11
-2.3196030135
21
-0.7748658382
31
0.0000000000
11
-2.4669229933
21
-0.7175180649
31
0.0000000000
11
-2.6130601909
21
-0.6945325066
31
0.0000000000
11
-2.7496697427
21
-0.7087465428
31
0.0000000000
11
-2.8712123352
21
-0.7596616281
31
0.0000000000
11
-2.9736668250
21
-0.8452882842
31
0.0000000000
11
-3.0538865787
21
-0.9628746993
31
0.0000000000
11
-3.1090485028
21
-1.1083234521
31
0.0000000000
11
-3.1372950409
21
-1.2767008873
31
0.0000000000
11
-3.1375904630
21
-1.4632881084
31
0.0000000000
11
-3.1098588258
21
-1.6600584180
31
0.0000000000
11
-3.0548619714
21
-1.8616732917
31
0.0000000000
11
-2.9748682517
21
-2.0598154825
31
0.0000000000
11
-2.8721202323
21
-2.2489759330
31
0.0000000000
11
-2.7507399161
21
-2.4215548656
31
0.0000000000
11
-2.6142911809
21
-2.5725271305
31
0.0000000000
11
-2.4683517189
21
-2.6958367974
31
0.0000000000
11
-2.3196030135
21
-2.7868440490
31
0.0000000000
0
SPLINE
5
236
100
AcDbEntity
8
0
100
AcDbSpline
62
9
6
CONTINUOUS
70
0
71
3
72
11
73
7
74
5
42
0.0000001000
43
0.0000001000
44
0.0000000001
12
-0.4692685739
22
0.2346342870
32
0.0000000000
13
-0.4953044527
23
-0.1792299328
33
0.0000000000
40
0.0000000000
40
0.0000000000
40
0.0000000000
40
0.0000000000
40
0.3242427772
40
0.6276596007
40
0.9093616871
40
1.0000000000
40
1.0000000000
40
1.0000000000
40
1.0000000000
10
-2.2493710237
20
-0.6632071939
30
0.0000000000
10
-2.3000900056
20
-0.6378477030
30
0.0000000000
10
-2.4027357352
20
-0.5968211384
30
0.0000000000
10
-2.5609974147
20
-0.5701545937
30
0.0000000000
10
-2.6802359978
20
-0.5814451739
30
0.0000000000
10
-2.7428102515
20
-0.6006281443
30
0.0000000000
10
-2.7577747714
20
-0.6060431772
30
0.0000000000
11
-2.2493710237
21
-0.6632071939
31
0.0000000000
11
-2.4079001023
21
-0.6014965676
31
0.0000000000
11
-2.5651566590
21
-0.5767605092
31
0.0000000000
11
-2.7121602899
21
-0.5920568652
31
0.0000000000
11
-2.7577747714
21
-0.6060431772
31
0.0000000000
0
SPLINE
5
237
100
AcDbEntity
8
0
100
AcDbSpline
62
9
6
CONTINUOUS
70
0
71
3
72
8
73
4
74
2
42
0.0000001000
43
0.0000001000
44
0.0000000001
12
-0.0412348352
22
-0.0149211595
32
0.0000000000
13
-0.0396869898
23
-0.0186411596
33
0.0000000000
40
0.0000000000
40
0.0000000000
40
0.0000000000
40
0.0000000000
40
1.0000000000
40
1.0000000000
40
1.0000000000
40
1.0000000000
10
-2.7577747714
20
-0.6060431772
30
0.0000000000
10
-2.7715197165
20
-0.6110168970
30
0.0000000000
10
-2.7850386953
20
-0.6166194276
30
0.0000000000
10
-2.7982676919
20
-0.6228331475
30
0.0000000000
11
-2.7577747714
21
-0.6060431772
31
0.0000000000
11
-2.7982676919
21
-0.6228331475
31
0.0000000000
0
SPLINE
5
238
100
AcDbEntity
8
0
100
AcDbSpline
62
9
6
CONTINUOUS
70
0
71
3
72
8
73
4
74
2
42
0.0000001000
43
0.0000001000
44
0.0000000001
12
-0.0101667291
22
-0.0047753589
32
0.0000000000
13
-0.0100493209
23
-0.0050151243
33
0.0000000000
40
0.0000000000
40
0.0000000000
40
0.0000000000
40
0.0000000000
40
1.0000000000
40
1.0000000000
40
1.0000000000
40
1.0000000000
10
-2.7982676919
20
-0.6228331475
30
0.0000000000
10
-2.8016566016
20
-0.6244249338
30
0.0000000000
10
-2.8050264814
20
-0.6260568291
30
0.0000000000
10
-2.8083762550
20
-0.6277285372
30
0.0000000000
11
-2.7982676919
21
-0.6228331475
31
0.0000000000
11
-2.8083762550
21
-0.6277285372
31
0.0000000000
0
SPLINE
5
239
100
AcDbEntity
8
0
100
AcDbSpline
62
9
6
CONTINUOUS
70
0
71
3
72
8
73
4
74
2
42
0.0000001000
43
0.0000001000
44
0.0000000001
12
0.0373328524
22
-0.0186664262
32
0.0000000000
13
0.0382012890
23
-0.0169515015
33
0.0000000000
40
0.0000000000
40
0.0000000000
40
0.0000000000
40
0.0000000000
40
1.0000000000
40
1.0000000000
40
1.0000000000
40
1.0000000000
10
-2.3196030135
20
-2.7868440490
30
0.0000000000
10
-2.3071587294
20
-2.7930661910
30
0.0000000000
10
-2.2945650200
20
-2.7990185275
30
0.0000000000
10
-2.2818312570
20
-2.8046690280
30
0.0000000000
11
-2.3196030135
21
-2.7868440490
31
0.0000000000
11
-2.2818312570
21
-2.8046690280
31
0.0000000000
0
SPLINE
5
23A
100
AcDbEntity
8
0
100
AcDbSpline
62
9
6
CONTINUOUS
70
0
71
3
72
8
73
4
74
2
42
0.0000001000
43
0.0000001000
44
0.0000000001
12
0.0111089933
22
-0.0049295225
32
0.0000000000
13
0.0111793641
23
-0.0047740100
33
0.0000000000
40
0.0000000000
40
0.0000000000
40
0.0000000000
40
0.0000000000
40
1.0000000000
40
1.0000000000
40
1.0000000000
40
1.0000000000
10
-2.2818312570
20
-2.8046690280
30
0.0000000000
10
-2.2781282593
20
-2.8063122022
30
0.0000000000
10
-2.2744134178
20
-2.8079298515
30
0.0000000000
10
-2.2706869631
20
-2.8095211881
30
0.0000000000
11
-2.2818312570
21
-2.8046690280
31
0.0000000000
11
-2.2706869631
21
-2.8095211881
31
0.0000000000
0
SPLINE
5
23B
100
AcDbEntity
8
0
100
AcDbSpline
62
9
6
CONTINUOUS
70
0
71
3
72
24
73
20
74
18
42
0.0000001000
43
0.0000001000
44
0.0000000001
12
2.6954700144
22
-1.1510673176
32
0.0000000000
13
-2.6176119329
23
1.3088059664
33
0.0000000000
40
0.0000000000
40
0.0000000000
40
0.0000000000
40
0.0000000000
40
0.0356085348
40
0.0861568326
40
0.1330877941
40
0.1781151453
40
0.2237399937
40
0.2723783054
40
0.3255317102
40
0.3838695418
40
0.4476257062
40
0.5155257560
40
0.5869338258
40
0.6599475440
40
0.7335025563
40
0.8055968773
40
0.8751308481
40
0.9404149441
40
1.0000000000
40
1.0000000000
40
1.0000000000
40
1.0000000000
10
-2.2706869631
20
-2.8095211881
30
0.0000000000
10
-2.2386930505
20
-2.8231837950
30
0.0000000000
10
-2.1592107483
20
-2.8515483198
30
0.0000000000
10
-2.0300108302
20
-2.8733155256
30
0.0000000000
10
-1.8897471900
20
-2.8600359838
30
0.0000000000
10
-1.7638810068
20
-2.8076069232
30
0.0000000000
10
-1.6586626353
20
-2.7184901257
30
0.0000000000
10
-1.5780151265
20
-2.5974956665
30
0.0000000000
10
-1.5237213619
20
-2.4497627262
30
0.0000000000
10
-1.4966552235
20
-2.2800646638
30
0.0000000000
10
-1.4974312846
20
-2.0940256248
30
0.0000000000
10
-1.5258922373
20
-1.8974149483
30
0.0000000000
10
-1.5809703890
20
-1.6972298914
30
0.0000000000
10
-1.6609151305
20
-1.4996947766
30
0.0000000000
10
-1.7628814817
20
-1.3118125952
30
0.0000000000
10
-1.8836344741
20
-1.1395281239
30
0.0000000000
10
-2.0188867806
20
-0.9889579088
30
0.0000000000
10
-2.1635803006
20
-0.8654741019
30
0.0000000000
10
-2.2676128290
20
-0.8008609304
30
0.0000000000
10
-2.3196030135
20
-0.7748658382
30
0.0000000000
11
-2.2706869631
21
-2.8095211881
31
0.0000000000
11
-2.1722829426
21
-2.8441917767
31
0.0000000000
11
-2.0261459998
21
-2.8671774625
31
0.0000000000
11
-1.8895363192
21
-2.8529633617
31
0.0000000000
11
-1.7679937461
21
-2.8020482862
31
0.0000000000
11
-1.6655392344
21
-2.7164216191
31
0.0000000000
11
-1.5853194716
21
-2.5988351994
31
0.0000000000
11
-1.5301575356
21
-2.4533864407
31
0.0000000000
11
-1.5019109946
21
-2.2850090040
31
0.0000000000
11
-1.5016155643
21
-2.0984217788
31
0.0000000000
11
-1.5293472013
21
-1.9016514692
31
0.0000000000
11
-1.5843440583
21
-1.7000365967
31
0.0000000000
11
-1.6643377778
21
-1.5018944059
31
0.0000000000
11
-1.7670858145
21
-1.3127339640
31
0.0000000000
11
-1.8884661120
21
-1.1401550220
31
0.0000000000
11
-2.0249149389
21
-0.9891828031
31
0.0000000000
11
-2.1708542126
21
-0.8658730420
31
0.0000000000
11
-2.3196030135
21
-0.7748658382
31
0.0000000000
0
SPLINE
5
23C
100
AcDbEntity
8
0
100
AcDbSpline
62
9
6
CONTINUOUS
70
0
71
3
72
8
73
4
74
2
42
0.0000001000
43
0.0000001000
44
0.0000000001
12
0.0100238659
22
0.0050033064
32
0.0000000000
13
0.0099006074
23
0.0052401040
33
0.0000000000
40
0.0000000000
40
0.0000000000
40
0.0000000000
40
0.0000000000
40
1.0000000000
40
1.0000000000
40
1.0000000000
40
1.0000000000
10
-1.6903359655
20
-2.8637344725
30
0.0000000000
10
-1.6869946769
20
-2.8620667037
30
0.0000000000
10
-1.6836733972
20
-2.8603593216
30
0.0000000000
10
-1.6803731948
20
-2.8586126203
30
0.0000000000
11
-1.6903359655
21
-2.8637344725
31
0.0000000000
11
-1.6803731948
21
-2.8586126203
31
0.0000000000
0
SPLINE
5
23D
100
AcDbEntity
8
0
100
AcDbSpline
62
9
6
CONTINUOUS
70
0
71
3
72
9
73
5
74
3
42
0.0000001000
43
0.0000001000
44
0.0000000001
12
0.0669616017
22
0.0354408311
32
0.0000000000
13
0.0604020794
23
0.0457092001
33
0.0000000000
40
0.0000000000
40
0.0000000000
40
0.0000000000
40
0.0000000000
40
0.3733834013
40
1.0000000000
40
1.0000000000
40
1.0000000000
40
1.0000000000
10
-1.6803731948
20
-2.8586126203
30
0.0000000000
10
-1.6720390779
20
-2.8542016143
30
0.0000000000
10
-1.6500785377
20
-2.8417164385
30
0.0000000000
10
-1.6292055258
20
-2.8274666324
30
0.0000000000
10
-1.6165892106
20
-2.8179192512
30
0.0000000000
11
-1.6803731948
21
-2.8586126203
31
0.0000000000
11
-1.6557912934
21
-2.8446320833
31
0.0000000000
11
-1.6165892106
21
-2.8179192512
31
0.0000000000
0
SPLINE
5
23E
100
AcDbEntity
8
0
100
AcDbSpline
62
9
6
CONTINUOUS
70
0
71
3
72
12
73
8
74
6
42
0.0000001000
43
0.0000001000
44
0.0000000001
12
0.5327723752
22
0.4031748465
32
0.0000000000
13
0.0182507226
23
0.6661895799
33
0.0000000000
40
0.0000000000
40
0.0000000000
40
0.0000000000
40
0.0000000000
40
0.1447527127
40
0.3747998384
40
0.6262022333
40
0.9021256379
40
1.0000000000
40
1.0000000000
40
1.0000000000
40
1.0000000000
10
-1.6165892106
20
-2.8179192512
30
0.0000000000
10
-1.5908824618
20
-2.7984657003
30
0.0000000000
10
-1.5292992874
20
-2.7414500212
30
0.0000000000
10
-1.4513578485
20
-2.6245155004
30
0.0000000000
10
-1.3929331277
20
-2.4655419235
30
0.0000000000
10
-1.3709644827
20
-2.3278040121
30
0.0000000000
10
-1.3665567129
20
-2.2448553407
30
0.0000000000
10
-1.3659612870
20
-2.2231210473
30
0.0000000000
11
-1.6165892106
21
-2.8179192512
31
0.0000000000
11
-1.5455413888
21
-2.7524902078
31
0.0000000000
11
-1.4592179754
21
-2.6259569342
31
0.0000000000
11
-1.3998589866
21
-2.4694413608
31
0.0000000000
11
-1.3694632650
21
-2.2882525792
31
0.0000000000
11
-1.3659612870
21
-2.2231210473
31
0.0000000000
0
SPLINE
5
23F
100
AcDbEntity
8
0
100
AcDbSpline
62
9
6
CONTINUOUS
70
0
71
3
72
8
73
4
74
2
42
0.0000001000
43
0.0000001000
44
0.0000000001
12
0.0011089016
22
0.0404772305
32
0.0000000000
13
-0.0001545196
23
0.0404939006
33
0.0000000000
40
0.0000000000
40
0.0000000000
40
0.0000000000
40
0.0000000000
40
1.0000000000
40
1.0000000000
40
1.0000000000
40
1.0000000000
10
-1.3659612870
20
-2.2231210473
30
0.0000000000
10
-1.3655916531
20
-2.2096286372
30
0.0000000000
10
-1.3654373284
20
-2.1961303690
30
0.0000000000
10
-1.3654888349
20
-2.1826324021
30
0.0000000000
11
-1.3659612870
21
-2.2231210473
31
0.0000000000
11
-1.3654888349
21
-2.1826324021
31
0.0000000000
0
SPLINE
5
240
100
AcDbEntity
8
0
100
AcDbSpline
62
9
6
CONTINUOUS
70
0
71
3
72
8
73
4
74
2
42
0.0000001000
43
0.0000001000
44
0.0000000001
12
-0.0001014819
22
0.0265946779
32
0.0000000000
13
-0.0006261152
23
0.0265886635
33
0.0000000000
40
0.0000000000
40
0.0000000000
40
0.0000000000
40
0.0000000000
40
1.0000000000
40
1.0000000000
40
1.0000000000
40
1.0000000000
10
-1.3654888349
20
-2.1826324021
30
0.0000000000
10
-1.3655226622
20
-2.1737675094
30
0.0000000000
10
-1.3656452708
20
-2.1649027468
30
0.0000000000
10
-1.3658539759
20
-2.1560398590
30
0.0000000000
11
-1.3654888349
21
-2.1826324021
31
0.0000000000
11
-1.3658539759
21
-2.1560398590
31
0.0000000000
0
SPLINE
5
241
100
AcDbEntity
8
0
100
AcDbSpline
62
9
6
CONTINUOUS
70
0
71
3
72
16
73
12
74
10
42
0.0000001000
43
0.0000001000
44
0.0000000001
12
-0.0426091484
22
1.8094438238
32
0.0000000000
13
-1.6172646043
23
0.8086323023
33
0.0000000000
40
0.0000000000
40
0.0000000000
40
0.0000000000
40
0.0000000000
40
0.0379336898
40
0.1561947154
40
0.2805656331
40
0.4077330995
40
0.5358433415
40
0.6614094965
40
0.7825164147
40
0.8962210507
40
1.0000000000
40
1.0000000000
40
1.0000000000
40
1.0000000000
10
-1.3658539759
20
-2.1560398590
30
0.0000000000
10
-1.3663927500
20
-2.1331602321
30
0.0000000000
10
-1.3709737022
20
-2.0390031566
30
0.0000000000
10
-1.3952692123
20
-1.8711676538
30
0.0000000000
10
-1.4545380634
20
-1.6557511072
30
0.0000000000
10
-1.5405656243
20
-1.4431861865
30
0.0000000000
10
-1.6502900624
20
-1.2410084536
30
0.0000000000
10
-1.7802312362
20
-1.0556157013
30
0.0000000000
10
-1.9257734815
20
-0.8935881192
30
0.0000000000
10
-2.0814776596
20
-0.7607104693
30
0.0000000000
10
-2.1934250166
20
-0.6911801975
30
0.0000000000
10
-2.2493710237
20
-0.6632071939
30
0.0000000000
11
-1.3658539759
21
-2.1560398590
31
0.0000000000
11
-1.3691453975
21
-2.0874684784
31
0.0000000000
11
-1.3989870515
21
-1.8757265143
31
0.0000000000
11
-1.4581684402
21
-1.6587713780
31
0.0000000000
11
-1.5442486402
21
-1.4455531482
31
0.0000000000
11
-1.6548144024
21
-1.2420000120
31
0.0000000000
11
-1.7854302245
21
-1.0562901159
31
0.0000000000
11
-1.9322608346
21
-0.8938304515
31
0.0000000000
11
-2.0893045048
21
-0.7611393708
31
0.0000000000
11
-2.2493710237
21
-0.6632071939
31
0.0000000000
0
SPLINE
5
242
100
AcDbEntity
8
0
100
AcDbSpline
62
7
6
CONTINUOUS
70
0
71
3
72
13
73
9
74
7
42
0.0000001000
43
0.0000001000
44
0.0000000001
12
-1.1208387359
22
-0.5598160118
32
0.0000000000
13
0.0155742024
23
-1.2489100780
33
0.0000000000
40
0.0000000000
40
0.0000000000
40
0.0000000000
40
0.0000000000
40
0.0125121962
40
0.1840950965
40
0.3628506375
40
0.5562632854
40
0.7695078546
40
1.0000000000
40
1.0000000000
40
1.0000000000
40
1.0000000000
10
-9.1462086305
20
-2.9224579677
30
0.0000000000
10
-9.1508833485
20
-2.9247928103
30
0.0000000000
10
-9.2192916277
20
-2.9598875454
30
0.0000000000
10
-9.3428149516
20
-3.0505223022
30
0.0000000000
10
-9.4831896418
20
-3.2313321263
30
0.0000000000
10
-9.5836742690
20
-3.4555044084
30
0.0000000000
10
-9.6423302931
20
-3.7156690963
30
0.0000000000
10
-9.6526128948
20
-3.9009583229
30
0.0000000000
10
-9.6514163177
20
-3.9969129773
30
0.0000000000
11
-9.1462086305
21
-2.9224579677
31
0.0000000000
11
-9.1601557096
21
-2.9296136063
31
0.0000000000
11
-9.3334600781
21
-3.0556835569
31
0.0000000000
11
-9.4719780053
21
-3.2307861462
31
0.0000000000
11
-9.5729489140
21
-3.4502463243
31
0.0000000000
11
-9.6336830447
21
-3.7095733202
31
0.0000000000
11
-9.6514163177
21
-3.9969129773
31
0.0000000000
0
SPLINE
5
243
100
AcDbEntity
8
0
100
AcDbSpline
62
7
6
CONTINUOUS
70
0
71
3
72
16
73
12
74
10
42
0.0000001000
43
0.0000001000
44
0.0000000001
12
0.0717924815
22
-2.9404288596
32
0.0000000000
13
2.6307833113
23
-1.3153916557
33
0.0000000000
40
0.0000000000
40
0.0000000000
40
0.0000000000
40
0.0000000000
40
0.1048021710
40
0.2167748311
40
0.3323745452
40
0.4503806238
40
0.5694179934
40
0.6852429162
40
0.7966165095
40
0.9025346018
40
1.0000000000
40
1.0000000000
40
1.0000000000
40
1.0000000000
10
-9.5549736460
20
-9.2314466045
30
0.0000000000
10
-9.5524656434
20
-9.3341677139
30
0.0000000000
10
-9.5316807417
20
-9.5464338612
30
0.0000000000
10
-9.4598662526
20
-9.8650126788
30
0.0000000000
10
-9.3485333172
20
-10.1857327229
30
0.0000000000
10
-9.2010938668
20
-10.4991473022
30
0.0000000000
10
-9.0218742659
20
-10.7958154603
30
0.0000000000
10
-8.8163439213
20
-11.0667988922
30
0.0000000000
10
-8.5908557687
20
-11.3040979041
30
0.0000000000
10
-8.3519899873
20
-11.5007510485
30
0.0000000000
10
-8.1811186836
20
-11.6053133789
30
0.0000000000
10
-8.0956485692
20
-11.6480484360
30
0.0000000000
11
-9.5549736460
21
-9.2314466045
31
0.0000000000
11
-9.5262788878
21
-9.5383633006
31
0.0000000000
11
-9.4548045089
21
-9.8598598710
31
0.0000000000
11
-9.3438207000
21
-10.1812508142
31
0.0000000000
11
-9.1962498909
21
-10.4954094284
31
0.0000000000
11
-9.0150709584
21
-10.7950122833
31
0.0000000000
11
-8.8087834642
21
-11.0661320142
31
0.0000000000
11
-8.5824828238
21
-11.3029845353
31
0.0000000000
11
-8.3410933464
21
-11.4999279063
31
0.0000000000
11
-8.0956485692
21
-11.6480484360
31
0.0000000000
0
SPLINE
5
244
100
AcDbEntity
8
0
100
AcDbSpline
62
7
6
CONTINUOUS
70
0
71
3
72
9
73
5
74
3
42
0.0000001000
43
0.0000001000
44
0.0000000001
12
0.0652821590
22
-5.2350382992
32
0.0000000000
13
0.1277887168
23
-5.2338855355
33
0.0000000000
40
0.0000000000
40
0.0000000000
40
0.0000000000
40
0.0000000000
40
0.5007520837
40
1.0000000000
40
1.0000000000
40
1.0000000000
40
1.0000000000
10
-9.6514163177
20
-3.9969129773
30
0.0000000000
10
-9.6405195920
20
-4.8707317561
30
0.0000000000
10
-9.6135884459
20
-6.6156839569
30
0.0000000000
10
-9.5762397295
20
-8.3604444552
30
0.0000000000
10
-9.5549736460
20
-9.2314466045
30
0.0000000000
11
-9.6514163177
21
-3.9969129773
31
0.0000000000
11
-9.6109357036
21
-6.6182605872
31
0.0000000000
11
-9.5549736460
21
-9.2314466045
31
0.0000000000
0
SPLINE
5
245
100
AcDbEntity
8
0
100
AcDbSpline
62
7
6
CONTINUOUS
70
0
71
3
72
11
73
7
74
5
42
0.0000001000
43
0.0000001000
44
0.0000000001
12
0.8197683541
22
-0.4098841770
32
0.0000000000
13
0.8225351207
23
0.4108198413
33
0.0000000000
40
0.0000000000
40
0.0000000000
40
0.0000000000
40
0.0000000000
40
0.2863254524
40
0.5490459120
40
0.7887972117
40
1.0000000000
40
1.0000000000
40
1.0000000000
40
1.0000000000
10
3.1473492516
20
-17.2695473465
30
0.0000000000
10
3.2255894333
20
-17.3086674373
30
0.0000000000
10
3.3819829457
20
-17.3721376533
30
0.0000000000
10
3.6206269621
20
-17.4172557896
30
0.0000000000
10
3.8408347530
20
-17.4052829749
30
0.0000000000
10
3.9730668867
20
-17.3606712601
30
0.0000000000
10
4.0309741237
20
-17.3317491614
30
0.0000000000
11
3.1473492516
21
-17.2695473465
31
0.0000000000
11
3.3913490126
21
-17.3661459197
31
0.0000000000
11
3.6284021012
21
-17.4084080251
31
0.0000000000
11
3.8476898317
21
-17.3943326785
31
0.0000000000
11
4.0309741237
21
-17.3317491614
31
0.0000000000
0
SPLINE
5
246
100
AcDbEntity
8
0
100
AcDbSpline
62
7
6
CONTINUOUS
70
0
71
3
72
11
73
7
74
5
42
0.0000001000
43
0.0000001000
44
0.0000000001
12
-0.7773566803
22
0.3886783402
32
0.0000000000
13
-0.8069935666
23
-0.3303971547
33
0.0000000000
40
0.0000000000
40
0.0000000000
40
0.0000000000
40
0.0000000000
40
0.3024656536
40
0.5811173838
40
0.8367878759
40
1.0000000000
40
1.0000000000
40
1.0000000000
40
1.0000000000
10
-8.2553395061
20
-2.9810373262
30
0.0000000000
10
-8.3337140715
20
-2.9418500435
30
0.0000000000
10
-8.4908294064
20
-2.8784125067
30
0.0000000000
10
-8.7311441111
20
-2.8341510911
30
0.0000000000
10
-8.9351594416
20
-2.8463984136
30
0.0000000000
10
-9.0522805937
20
-2.8817981376
30
0.0000000000
10
-9.0961843051
20
-2.8997730781
30
0.0000000000
11
-8.2553395061
21
-2.9810373262
31
0.0000000000
11
-8.4999158171
21
-2.8846715189
31
0.0000000000
11
-8.7385132793
21
-2.8431735403
31
0.0000000000
11
-8.9601922591
21
-2.8584697616
31
0.0000000000
11
-9.0961843051
21
-2.8997730781
31
0.0000000000
0
SPLINE
5
247
100
AcDbEntity
8
0
100
AcDbSpline
62
7
6
CONTINUOUS
70
0
71
3
72
8
73
4
74
2
42
0.0000001000
43
0.0000001000
44
0.0000000001
12
-0.0508508730
22
-0.0208192289
32
0.0000000000
13
-0.0491452873
23
-0.0245461884
33
0.0000000000
40
0.0000000000
40
0.0000000000
40
0.0000000000
40
0.0000000000
40
1.0000000000
40
1.0000000000
40
1.0000000000
40
1.0000000000
10
-9.0961843051
20
-2.8997730781
30
0.0000000000
10
-9.1131345961
20
-2.9067128210
30
0.0000000000
10
-9.1298268680
20
-2.9142759050
30
0.0000000000
10
-9.1462086305
20
-2.9224579677
30
0.0000000000
11
-9.0961843051
21
-2.8997730781
31
0.0000000000
11
-9.1462086305
21
-2.9224579677
31
0.0000000000
0
SPLINE
5
248
100
AcDbEntity
8
0
100
AcDbSpline
62
7
6
CONTINUOUS
70
0
71
3
72
13
73
9
74
7
42
0.0000001000
43
0.0000001000
44
0.0000000001
12
1.1058235789
22
0.5523098720
32
0.0000000000
13
-0.0300757476
23
1.2318225293
33
0.0000000000
40
0.0000000000
40
0.0000000000
40
0.0000000000
40
0.0000000000
40
0.0123432447
40
0.1829743355
40
0.3609171895
40
0.5541117001
40
0.7679879018
40
1.0000000000
40
1.0000000000
40
1.0000000000
40
1.0000000000
10
4.0309741237
20
-17.3317491614
30
0.0000000000
10
4.0355239407
20
-17.3294767294
30
0.0000000000
10
4.1026015413
20
-17.2950558528
30
0.0000000000
10
4.2236195870
20
-17.2056985067
30
0.0000000000
10
4.3600476121
20
-17.0266612865
30
0.0000000000
10
4.4563563627
20
-16.8044054093
30
0.0000000000
10
4.5109303922
20
-16.5462076408
30
0.0000000000
10
4.5187772787
20
-16.3624249872
30
0.0000000000
10
4.5164512996
20
-16.2671590773
30
0.0000000000
11
4.0309741237
21
-17.3317491614
31
0.0000000000
11
4.0445478482
21
-17.3247832269
31
0.0000000000
11
4.2141945578
21
-17.2005858111
31
0.0000000000
11
4.3487680309
21
-17.0274828401
31
0.0000000000
11
4.4456868430
21
-16.8100532453
31
0.0000000000
11
4.5024265997
21
-16.5526977641
31
0.0000000000
11
4.5164512996
21
-16.2671590773
31
0.0000000000
0
SPLINE
5
249
100
AcDbEntity
8
0
100
AcDbSpline
62
7
6
CONTINUOUS
70
0
71
3
72
8
73
4
74
2
42
0.0000001000
43
0.0000001000
44
0.0000000001
12
0.0008242030
22
-0.0660936238
32
0.0000000000
13
0.0008340791
23
-0.0660935073
33
0.0000000000
40
0.0000000000
40
0.0000000000
40
0.0000000000
40
0.0000000000
40
1.0000000000
40
1.0000000000
40
1.0000000000
40
1.0000000000
10
4.4200086279
20
-11.0326254501
30
0.0000000000
10
4.4202833622
20
-11.0546566580
30
0.0000000000
10
4.4205597424
20
-11.0766878467
30
0.0000000000
10
4.4208377688
20
-11.0987190158
30
0.0000000000
11
4.4200086279
21
-11.0326254501
31
0.0000000000
11
4.4208377688
21
-11.0987190158
31
0.0000000000
0
SPLINE
5
24A
100
AcDbEntity
8
0
100
AcDbSpline
62
7
6
CONTINUOUS
70
0
71
3
72
9
73
5
74
3
42
0.0000001000
43
0.0000001000
44
0.0000000001
12
0.0652303261
22
-5.1689355623
32
0.0000000000
13
0.1261753533
23
-5.1678064656
33
0.0000000000
40
0.0000000000
40
0.0000000000
40
0.0000000000
40
0.0000000000
40
0.4943683621
40
1.0000000000
40
1.0000000000
40
1.0000000000
40
1.0000000000
10
4.4208377688
20
-11.0987190158
30
0.0000000000
10
4.4315870386
20
-11.9505050850
30
0.0000000000
10
4.4583080363
20
-13.6734244527
30
0.0000000000
10
4.4951852161
20
-15.3961569281
30
0.0000000000
10
4.5164512996
20
-16.2671590773
30
0.0000000000
11
4.4208377688
21
-11.0987190158
31
0.0000000000
11
4.4604892420
21
-13.6539730600
31
0.0000000000
11
4.5164512996
21
-16.2671590773
31
0.0000000000
0
SPLINE
5
24B
100
AcDbEntity
8
0
100
AcDbSpline
62
7
6
CONTINUOUS
70
0
71
3
72
16
73
12
74
10
42
0.0000001000
43
0.0000001000
44
0.0000000001
12
-0.0366848720
22
2.9417947116
32
0.0000000000
13
-2.6314257588
23
1.3157128794
33
0.0000000000
40
0.0000000000
40
0.0000000000
40
0.0000000000
40
0.0000000000
40
0.1052733979
40
0.2175763635
40
0.3333431566
40
0.4513540307
40
0.5702558961
40
0.6858480614
40
0.7969478704
40
0.9026315928
40
1.0000000000
40
1.0000000000
40
1.0000000000
40
1.0000000000
10
4.4200086279
20
-11.0326254501
30
0.0000000000
10
4.4187213142
20
-10.9293945417
30
0.0000000000
10
4.4005555797
20
-10.7160560174
30
0.0000000000
10
4.3327912977
20
-10.3955406598
30
0.0000000000
10
4.2256049791
20
-10.0728015773
30
0.0000000000
10
4.0821970541
20
-9.7573795810
30
0.0000000000
10
3.9066578652
20
-9.4588155159
30
0.0000000000
10
3.7042258054
20
-9.1861616891
30
0.0000000000
10
3.4810516483
20
-8.9475264561
30
0.0000000000
10
3.2435557089
20
-8.7499693366
30
0.0000000000
10
3.0730642264
20
-8.6452391925
30
0.0000000000
10
2.9876583148
20
-8.6025362367
30
0.0000000000
11
4.4200086279
21
-11.0326254501
31
0.0000000000
11
4.3950405711
21
-10.7239166961
31
0.0000000000
11
4.3276101197
21
-10.4004728150
31
0.0000000000
11
4.2207444270
21
-10.0770839922
31
0.0000000000
11
4.0771893190
21
-9.7609616217
31
0.0000000000
11
3.8997177680
21
-9.4595112342
31
0.0000000000
11
3.6965431133
21
-9.1868008207
31
0.0000000000
11
3.4726015369
21
-8.9487115920
31
0.0000000000
11
3.2326679941
21
-8.7509601786
31
0.0000000000
11
2.9876583148
21
-8.6025362367
31
0.0000000000
0
SPLINE
5
24C
100
AcDbEntity
8
0
100
AcDbSpline
62
7
6
CONTINUOUS
70
0
71
3
72
31
73
27
74
25
42
0.0000001000
43
0.0000001000
44
0.0000000001
12
2.7824458708
22
-1.3912229354
32
0.0000000000
13
0.0384538795
23
-3.1106313795
33
0.0000000000
40
0.0000000000
40
0.0000000000
40
0.0000000000
40
0.0000000000
40
0.0357195778
40
0.0725621712
40
0.1104937810
40
0.1494650986
40
0.1894139742
40
0.2302661044
40
0.2719374081
40
0.3143346900
40
0.3573573977
40
0.4008988104
40
0.4448467756
40
0.4890859287
40
0.5334970618
40
0.5779606967
40
0.6223549743
40
0.6665606581
40
0.7104575762
40
0.7539310004
40
0.7968675119
40
0.8391607732
40
0.8807094618
40
0.9214202624
40
0.9612084486
40
1.0000000000
40
1.0000000000
40
1.0000000000
40
1.0000000000
10
2.9868267054
20
-8.5044243866
30
0.0000000000
10
3.0199559693
20
-8.5209890186
30
0.0000000000
10
3.0861853748
20
-8.5568196149
30
0.0000000000
10
3.1835845477
20
-8.6172768351
30
0.0000000000
10
3.2802007781
20
-8.6850362405
30
0.0000000000
10
3.3756201167
20
-8.7598048834
30
0.0000000000
10
3.4694403753
20
-8.8412634734
30
0.0000000000
10
3.5612642629
20
-8.9290634398
30
0.0000000000
10
3.6507031529
20
-9.0228290999
30
0.0000000000
10
3.7373785359
20
-9.1221592759
30
0.0000000000
10
3.8209236346
20
-9.2266288352
30
0.0000000000
10
3.9009849021
20
-9.3357904245
30
0.0000000000
10
3.9772239167
20
-9.4491768606
30
0.0000000000
10
4.0493181299
20
-9.5663022048
30
0.0000000000
10
4.1169632580
20
-9.6866654155
30
0.0000000000
10
4.1798732174
20
-9.8097503480
30
0.0000000000
10
4.2377829194
20
-9.9350308784
30
0.0000000000
10
4.2904475201
20
-10.0619695710
30
0.0000000000
10
4.3376453863
20
-10.1900242624
30
0.0000000000
10
4.3791771344
20
-10.3186459998
30
0.0000000000
10
4.4148680458
20
-10.4472858433
30
0.0000000000
10
4.4445674779
20
-10.5753935277
30
0.0000000000
10
4.4681502270
20
-10.7024222757
30
0.0000000000
10
4.4855164826
20
-10.8278309251
30
0.0000000000
10
4.4965923718
20
-10.9510801669
30
0.0000000000
10
4.4997933582
20
-11.0325443571
30
0.0000000000
10
4.5002905868
20
-11.0727664295
30
0.0000000000
11
2.9868267054
21
-8.5044243866
31
0.0000000000
11
3.0846111298
21
-8.5572033859
31
0.0000000000
11
3.1820421843
21
-8.6175624043
31
0.0000000000
11
3.2787035506
21
-8.6852428609
31
0.0000000000
11
3.3741817443
21
-8.7599540302
31
0.0000000000
11
3.4680698012
21
-8.8413756955
31
0.0000000000
11
3.5599668010
21
-8.9291578016
31
0.0000000000
11
3.6494816583
21
-9.0229237673
31
0.0000000000
11
3.7362330969
21
-9.1222705893
31
0.0000000000
11
3.8198522427
21
-9.2267715526
31
0.0000000000
11
3.8999839868
21
-9.3359780021
31
0.0000000000
11
3.9762876466
21
-9.4494201280
31
0.0000000000
11
4.0484402532
21
-9.5666117435
31
0.0000000000
11
4.1161349332
21
-9.6870478162
31
0.0000000000
11
4.1790860957
21
-9.8102132521
31
0.0000000000
11
4.2370258232
21
-9.9355764023
31
0.0000000000
11
4.2897103994
21
-10.0626022327
31
0.0000000000
11
4.3369153455
21
-10.1907414593
31
0.0000000000
11
4.3784425308
21
-10.3194480468
31
0.0000000000
11
4.4141152575
21
-10.4481662093
31
0.0000000000
11
4.4437834970
21
-10.5763463332
31
0.0000000000
11
4.4673215107
21
-10.7034375536
31
0.0000000000
11
4.4846298005
21
-10.8288952149
31
0.0000000000
11
4.4956350276
21
-10.9521808299
31
0.0000000000
11
4.5002905868
21
-11.0727664295
31
0.0000000000
0
SPLINE
5
24D
100
AcDbEntity
8
0
100
AcDbSpline
62
7
6
CONTINUOUS
70
0
71
3
72
21
73
17
74
15
42
0.0000001000
43
0.0000001000
44
0.0000000001
12
0.0313311399
22
-1.2943993976
32
0.0000000000
13
-1.1522109656
23
-0.5920793175
33
0.0000000000
40
0.0000000000
40
0.0000000000
40
0.0000000000
40
0.0000000000
40
0.0900467585
40
0.1773766943
40
0.2619117212
40
0.3436154601
40
0.4225004010
40
0.4986302030
40
0.5721273815
40
0.6431745043
40
0.7120193330
40
0.7789726860
40
0.8444069705
40
0.9087473267
40
0.9724600680
40
1.0000000000
40
1.0000000000
40
1.0000000000
40
1.0000000000
10
4.5958916160
20
-16.3068792355
30
0.0000000000
10
4.5968320385
20
-16.3457313921
30
0.0000000000
10
4.5966828363
20
-16.4223304945
30
0.0000000000
10
4.5900987439
20
-16.5352388234
30
0.0000000000
10
4.5771823225
20
-16.6439835651
30
0.0000000000
10
4.5579830465
20
-16.7480992661
30
0.0000000000
10
4.5325755134
20
-16.8471447486
30
0.0000000000
10
4.5010585641
20
-16.9406988750
30
0.0000000000
10
4.4635552352
20
-17.0283619896
30
0.0000000000
10
4.4202123135
20
-17.1097571594
30
0.0000000000
10
4.3712012584
20
-17.1845297704
30
0.0000000000
10
4.3167189470
20
-17.2523490598
30
0.0000000000
10
4.2569897943
20
-17.3129091249
30
0.0000000000
10
4.1922670743
20
-17.3659323071
30
0.0000000000
10
4.1358907340
20
-17.4026657298
30
0.0000000000
10
4.1012715978
20
-17.4215086258
30
0.0000000000
10
4.0906943272
20
-17.4269439005
30
0.0000000000
11
4.5958916160
21
-16.3068792355
31
0.0000000000
11
4.5955698428
21
-16.4234694010
31
0.0000000000
11
4.5888836094
21
-16.5363444685
31
0.0000000000
11
4.5758608354
21
-16.6450211249
31
0.0000000000
11
4.5565564565
21
-16.7490331153
31
0.0000000000
11
4.5310517970
21
-16.8479360536
31
0.0000000000
11
4.4994549360
21
-16.9413058900
31
0.0000000000
11
4.4618993177
21
-17.0287443828
31
0.0000000000
11
4.4185443585
21
-17.1098773651
31
0.0000000000
11
4.3695734792
21
-17.1843594417
31
0.0000000000
11
4.3151946742
21
-17.2518728532
31
0.0000000000
11
4.2556384039
21
-17.3121308121
31
0.0000000000
11
4.1911575821
21
-17.3648773619
31
0.0000000000
11
4.1220259470
21
-17.4098891251
31
0.0000000000
11
4.0906943272
21
-17.4269439005
31
0.0000000000
0
SPLINE
5
24E
100
AcDbEntity
8
0
100
AcDbSpline
62
7
6
CONTINUOUS
70
0
71
3
72
10
73
6
74
4
42
0.0000001000
43
0.0000001000
44
0.0000000001
12
0.0639530642
22
-5.1733247975
32
0.0000000000
13
0.1244706069
23
-5.1722230055
33
0.0000000000
40
0.0000000000
40
0.0000000000
40
0.0000000000
40
0.0000000000
40
0.3379648915
40
0.6752480386
40
1.0000000000
40
1.0000000000
40
1.0000000000
40
1.0000000000
10
4.5002905868
20
-11.0727664295
30
0.0000000000
10
4.5074952169
20
-11.6555671475
30
0.0000000000
10
4.5241713665
20
-12.8199661138
30
0.0000000000
10
4.5556586165
20
-14.5442560316
30
0.0000000000
10
4.5809387069
20
-15.6857076496
30
0.0000000000
10
4.5944127314
20
-16.2456041715
30
0.0000000000
11
4.5002905868
21
-11.0727664295
31
0.0000000000
11
4.5253369077
21
-12.8211227817
31
0.0000000000
11
4.5572041606
21
-14.5658403687
31
0.0000000000
11
4.5944127314
21
-16.2456041715
31
0.0000000000
0
SPLINE
5
24F
100
AcDbEntity
8
0
100
AcDbSpline
62
7
6
CONTINUOUS
70
0
71
3
72
8
73
4
74
2
42
0.0000001000
43
0.0000001000
44
0.0000000001
12
0.0014745995
22
-0.0612751697
32
0.0000000000
13
0.0014831699
23
-0.0612749580
33
0.0000000000
40
0.0000000000
40
0.0000000000
40
0.0000000000
40
0.0000000000
40
1.0000000000
40
1.0000000000
40
1.0000000000
40
1.0000000000
10
4.5944127314
20
-16.2456041715
30
0.0000000000
10
4.5949042646
20
-16.2660292281
30
0.0000000000
10
4.5953972260
20
-16.2864542495
30
0.0000000000
10
4.5958916160
20
-16.3068792355
30
0.0000000000
11
4.5944127314
21
-16.2456041715
31
0.0000000000
11
4.5958916160
21
-16.3068792355
31
0.0000000000
0
SPLINE
5
250
100
AcDbEntity
8
0
100
AcDbSpline
62
7
6
CONTINUOUS
70
0
71
3
72
20
73
16
74
14
42
0.0000001000
43
0.0000001000
44
0.0000000001
12
0.0232195200
22
-0.7381409573
32
0.0000000000
13
0.6607411902
23
-0.3303446990
33
0.0000000000
40
0.0000000000
40
0.0000000000
40
0.0000000000
40
0.0000000000
40
0.0868639011
40
0.1782717390
40
0.2670962941
40
0.3531966572
40
0.4364593416
40
0.5167650432
40
0.5942579862
40
0.6694098797
40
0.7426810478
40
0.8144742766
40
0.8851800213
40
0.9551712498
40
1.0000000000
40
1.0000000000
40
1.0000000000
40
1.0000000000
10
-10.9894526401
20
-11.6808222090
30
0.0000000000
10
-10.9887803274
20
-11.7021948101
30
0.0000000000
10
-10.9860200964
20
-11.7460285957
30
0.0000000000
10
-10.9773429103
20
-11.8112586142
30
0.0000000000
10
-10.9637844755
20
-11.8754686772
30
0.0000000000
10
-10.9457339620
20
-11.9364785892
30
0.0000000000
10
-10.9234518702
20
-11.9938326758
30
0.0000000000
10
-10.8972776501
20
-12.0471695049
30
0.0000000000
10
-10.8675640282
20
-12.0962999785
30
0.0000000000
10
-10.8346106367
20
-12.1411881014
30
0.0000000000
10
-10.7986586388
20
-12.1818581069
30
0.0000000000
10
-10.7599324877
20
-12.2183164830
30
0.0000000000
10
-10.7186437312
20
-12.2505506509
30
0.0000000000
10
-10.6801439852
20
-12.2752299488
30
0.0000000000
10
-10.6552276616
20
-12.2886322125
30
0.0000000000
10
-10.6453542610
20
-12.2935685258
30
0.0000000000
11
-10.9894526401
21
-11.6808222090
31
0.0000000000
11
-10.9853707657
21
-11.7448409485
31
0.0000000000
11
-10.9764050186
21
-11.8117444213
31
0.0000000000
11
-10.9627886141
21
-11.8759094527
31
0.0000000000
11
-10.9446892853
21
-11.9368611194
31
0.0000000000
11
-10.9223685829
21
-11.9941532865
31
0.0000000000
11
-10.8961967924
21
-12.0473687321
31
0.0000000000
11
-10.8665449995
21
-12.0963133162
31
0.0000000000
11
-10.8336745020
21
-12.1410286131
31
0.0000000000
11
-10.7978170313
21
-12.1815495173
31
0.0000000000
11
-10.7592008886
21
-12.2178755178
31
0.0000000000
11
-10.7180355810
21
-12.2499955228
31
0.0000000000
11
-10.6745176090
21
-12.2778817393
31
0.0000000000
11
-10.6453542610
21
-12.2935685258
31
0.0000000000
0
SPLINE
5
251
100
AcDbEntity
8
0
100
AcDbSpline
62
7
6
CONTINUOUS
70
0
71
3
72
9
73
5
74
3
42
0.0000001000
43
0.0000001000
44
0.0000000001
12
-0.0943959689
22
-3.0985481484
32
0.0000000000
13
-0.0743156842
23
-3.0991003957
33
0.0000000000
40
0.0000000000
40
0.0000000000
40
0.0000000000
40
0.0000000000
40
0.9274151235
40
1.0000000000
40
1.0000000000
40
1.0000000000
40
1.0000000000
10
-10.9894618260
20
16.6982040371
30
0.0000000000
10
-11.0186432424
20
15.7403238992
30
0.0000000000
10
-11.0470204297
20
14.7073777104
30
0.0000000000
10
-11.0720364732
20
13.6743500518
30
0.0000000000
10
-11.0738345381
20
13.5993674453
30
0.0000000000
11
-10.9894618260
21
16.6982040371
31
0.0000000000
11
-11.0683871919
21
13.8243139925
31
0.0000000000
11
-11.0738345381
21
13.5993674453
31
0.0000000000
0
SPLINE
5
252
100
AcDbEntity
8
0
100
AcDbSpline
62
7
6
CONTINUOUS
70
0
71
3
72
15
73
11
74
9
42
0.0000001000
43
0.0000001000
44
0.0000000001
12
-0.5339983083
22
-22.2687092984
32
0.0000000000
13
0.5478081659
23
-22.2683781736
33
0.0000000000
40
0.0000000000
40
0.0000000000
40
0.0000000000
40
0.0000000000
40
0.1187876010
40
0.2472774034
40
0.3753649721
40
0.5030474663
40
0.6303221364
40
0.7571863117
40
0.8836373779
40
1.0000000000
40
1.0000000000
40
1.0000000000
40
1.0000000000
10
-11.0738345381
20
13.5993674453
30
0.0000000000
10
-11.0949786641
20
12.7176185936
30
0.0000000000
10
-11.1338925825
20
10.8819810645
30
0.0000000000
10
-11.1767034649
20
8.0951986972
30
0.0000000000
10
-11.2030931135
20
5.2421644164
30
0.0000000000
10
-11.2119076675
20
2.3980438947
30
0.0000000000
10
-11.2031463999
20
-0.4369932016
30
0.0000000000
10
-11.1768096439
20
-3.2627778211
30
0.0000000000
10
-11.1340184187
20
-6.0073294123
30
0.0000000000
10
-11.0949709444
20
-7.8098139924
30
0.0000000000
10
-11.0737228128
20
-8.6735496175
30
0.0000000000
11
-11.0738345381
21
13.5993674453
31
0.0000000000
11
-11.1298938710
21
10.9539586612
31
0.0000000000
11
-11.1738296717
21
8.0921765166
31
0.0000000000
11
-11.2001917573
21
5.2391387039
31
0.0000000000
11
-11.2089783558
21
2.3950157336
31
0.0000000000
11
-11.2001887552
21
-0.4400228719
31
0.0000000000
11
-11.1738232927
21
-3.2658083058
31
0.0000000000
11
-11.1298833593
21
-6.0821719543
31
0.0000000000
11
-11.0737228128
21
-8.6735496175
31
0.0000000000
0
SPLINE
5
253
100
AcDbEntity
8
0
100
AcDbSpline
62
7
6
CONTINUOUS
70
0
71
3
72
9
73
5
74
3
42
0.0000001000
43
0.0000001000
44
0.0000000001
12
0.0739865647
22
-3.0075506429
32
0.0000000000
13
0.0945900228
23
-3.0069671270
33
0.0000000000
40
0.0000000000
40
0.0000000000
40
0.0000000000
40
0.0000000000
40
0.0716188598
40
1.0000000000
40
1.0000000000
40
1.0000000000
40
1.0000000000
10
-11.0737228128
20
-8.6735496175
30
0.0000000000
10
-11.0719565350
20
-8.7453487334
30
0.0000000000
10
-11.0470497085
20
-9.7478596544
30
0.0000000000
10
-11.0187244862
20
-10.7502857298
30
0.0000000000
10
-10.9894526218
20
-11.6808229198
30
0.0000000000
11
-11.0737228128
21
-8.6735496175
31
0.0000000000
11
-11.0683714042
21
-8.8889456764
31
0.0000000000
11
-10.9894526218
21
-11.6808229198
31
0.0000000000
0
SPLINE
5
254
100
AcDbEntity
8
0
100
AcDbSpline
62
7
6
CONTINUOUS
70
0
71
3
72
8
73
4
74
2
42
0.0000001000
43
0.0000001000
44
0.0000000001
12
-0.0153510159
22
-0.0113222189
32
0.0000000000
13
-0.0151397774
23
-0.0116073405
33
0.0000000000
40
0.0000000000
40
0.0000000000
40
0.0000000000
40
0.0000000000
40
1.0000000000
40
1.0000000000
40
1.0000000000
40
1.0000000000
10
-10.4661489594
20
17.7120341962
30
0.0000000000
10
-10.4712659647
20
17.7082601232
30
0.0000000000
10
-10.4763478983
20
17.7044376858
30
0.0000000000
10
-10.4813944907
20
17.7005685723
30
0.0000000000
11
-10.4661489594
21
17.7120341962
31
0.0000000000
11
-10.4813944907
21
17.7005685723
31
0.0000000000
0
SPLINE
5
255
100
AcDbEntity
8
0
100
AcDbSpline
62
7
6
CONTINUOUS
70
0
71
3
72
23
73
19
74
17
42
0.0000001000
43
0.0000001000
44
0.0000000001
12
-0.8816041933
22
-0.6759069018
32
0.0000000000
13
-0.0807493869
23
-1.1080260379
33
0.0000000000
40
0.0000000000
40
0.0000000000
40
0.0000000000
40
0.0000000000
40
0.0427914872
40
0.1081517823
40
0.1742430976
40
0.2409622840
40
0.3081669239
40
0.3756880345
40
0.4434118883
40
0.5112620189
40
0.5791557065
40
0.6470088087
40
0.7147391293
40
0.7822428760
40
0.8493834702
40
0.9160431363
40
0.9821326765
40
1.0000000000
40
1.0000000000
40
1.0000000000
40
1.0000000000
10
-10.4813944907
20
17.7005685723
30
0.0000000000
10
-10.4939695423
20
17.6909275518
30
0.0000000000
10
-10.5251972969
20
17.6658282293
30
0.0000000000
10
-10.5732070760
20
17.6226769991
30
0.0000000000
10
-10.6246394829
20
17.5702891405
30
0.0000000000
10
-10.6733221368
20
17.5144340127
30
0.0000000000
10
-10.7190845945
20
17.4554941193
30
0.0000000000
10
-10.7617716664
20
17.3938400824
30
0.0000000000
10
-10.8012536347
20
17.3298069639
30
0.0000000000
10
-10.8374177269
20
17.2636869478
30
0.0000000000
10
-10.8701487689
20
17.1957491257
30
0.0000000000
10
-10.8993191509
20
17.1262558223
30
0.0000000000
10
-10.9247847020
20
17.0554734956
30
0.0000000000
10
-10.9463812920
20
16.9836901231
30
0.0000000000
10
-10.9639307719
20
16.9112172858
30
0.0000000000
10
-10.9772477066
20
16.8383768510
30
0.0000000000
10
-10.9840065167
20
16.7829922329
30
0.0000000000
10
-10.9865354700
20
16.7520028478
30
0.0000000000
10
-10.9870163952
20
16.7454036945
30
0.0000000000
11
-10.4813944907
21
17.7005685723
31
0.0000000000
11
-10.5184571745
21
17.6708021922
31
0.0000000000
11
-10.5724857601
21
17.6223150679
31
0.0000000000
11
-10.6239456625
21
17.5699651560
31
0.0000000000
11
-10.6726647226
21
17.5141264686
31
0.0000000000
11
-10.7184656595
21
17.4551859573
31
0.0000000000
11
-10.7611743402
21
17.3935395715
31
0.0000000000
11
-10.8006653833
21
17.3295193221
31
0.0000000000
11
-10.8368342978
21
17.2634052974
31
0.0000000000
11
-10.8695642922
21
17.1954693266
31
0.0000000000
11
-10.8987266321
21
17.1259760894
31
0.0000000000
11
-10.9241795757
21
17.0551851076
31
0.0000000000
11
-10.9457588610
21
16.9833815535
31
0.0000000000
11
-10.9632800932
21
16.9108963718
31
0.0000000000
11
-10.9765577494
21
16.8380580847
31
0.0000000000
11
-10.9854029745
21
16.7651876012
31
0.0000000000
11
-10.9870163952
21
16.7454036945
31
0.0000000000
0
SPLINE
5
256
100
AcDbEntity
8
0
100
AcDbSpline
62
7
6
CONTINUOUS
70
0
71
3
72
8
73
4
74
2
42
0.0000001000
43
0.0000001000
44
0.0000000001
12
-0.0034358939
22
-0.0471466104
32
0.0000000000
13
-0.0014390977
23
-0.0472401980
33
0.0000000000
40
0.0000000000
40
0.0000000000
40
0.0000000000
40
0.0000000000
40
1.0000000000
40
1.0000000000
40
1.0000000000
40
1.0000000000
10
-10.9870163952
20
16.7454036945
30
0.0000000000
10
-10.9881616931
20
16.7296881577
30
0.0000000000
10
-10.9889821658
20
16.7139491920
30
0.0000000000
10
-10.9894618650
20
16.6982024593
30
0.0000000000
11
-10.9870163952
21
16.7454036945
31
0.0000000000
11
-10.9894618650
21
16.6982024593
31
0.0000000000
0
SPLINE
5
257
100
AcDbEntity
8
0
100
AcDbSpline
62
7
6
CONTINUOUS
70
0
71
3
72
15
73
11
74
9
42
0.0000001000
43
0.0000001000
44
0.0000000001
12
0.1266939089
22
0.0934380322
32
0.0000000000
13
0.1406369213
23
-0.0703184606
33
0.0000000000
40
0.0000000000
40
0.0000000000
40
0.0000000000
40
0.0000000000
40
0.0634641934
40
0.1859929588
40
0.3095511160
40
0.4355961790
40
0.5660043581
40
0.7033697538
40
0.8481738220
40
1.0000000000
40
1.0000000000
40
1.0000000000
40
1.0000000000
10
-6.2649967216
20
20.8106234709
30
0.0000000000
10
-6.2623165460
20
20.8126001273
30
0.0000000000
10
-6.2542134887
20
20.8180558111
30
0.0000000000
10
-6.2396231956
20
20.8253348386
30
0.0000000000
10
-6.2208450870
20
20.8309460633
30
0.0000000000
10
-6.2009963134
20
20.8334257076
30
0.0000000000
10
-6.1802899707
20
20.8327978918
30
0.0000000000
10
-6.1589189315
20
20.8290920863
30
0.0000000000
10
-6.1371333264
20
20.8223661886
30
0.0000000000
10
-6.1228659057
20
20.8161012148
30
0.0000000000
10
-6.1157484503
20
20.8125424871
30
0.0000000000
11
-6.2649967216
21
20.8106234709
31
0.0000000000
11
-6.2567094748
21
20.8161972964
31
0.0000000000
11
-6.2394687302
21
20.8247959563
31
0.0000000000
11
-6.2208622477
21
20.8303854078
31
0.0000000000
11
-6.2012027530
21
20.8328942407
31
0.0000000000
11
-6.1807052785
21
20.8323397771
31
0.0000000000
11
-6.1594113135
21
20.8287231938
31
0.0000000000
11
-6.1376342243
21
20.8220775450
31
0.0000000000
11
-6.1157484503
21
20.8125424871
31
0.0000000000
0
SPLINE
5
258
100
AcDbEntity
8
0
100
AcDbSpline
62
7
6
CONTINUOUS
70
0
71
3
72
38
73
34
74
32
42
0.0000001000
43
0.0000001000
44
0.0000000001
12
0.0000000000
22
2.4216636610
32
0.0000000000
13
-2.1672910799
23
-1.0837561984
33
0.0000000000
40
0.0000000000
40
0.0000000000
40
0.0000000000
40
0.0000000000
40
0.0339314814
40
0.0688126578
40
0.1045583095
40
0.1410705951
40
0.1782410831
40
0.2159526567
40
0.2540813167
40
0.2924979065
40
0.3310697801
40
0.3696624325
40
0.4081411115
40
0.4463724258
40
0.4842259682
40
0.5215759701
40
0.5583030065
40
0.5942957726
40
0.6294529549
40
0.6636852203
40
0.6969173504
40
0.7290905404
40
0.7601648735
40
0.7901219609
40
0.8189676893
40
0.8467349524
40
0.8734861302
40
0.8993149385
40
0.9243471125
40
0.9487392793
40
0.9726754055
40
0.9963604870
40
1.0000000000
40
1.0000000000
40
1.0000000000
40
1.0000000000
10
-1.3554275749
20
-2.1826507007
30
0.0000000000
10
-1.3554275749
20
-2.1552604889
30
0.0000000000
10
-1.3571471798
20
-2.0997013130
30
0.0000000000
10
-1.3646071821
20
-2.0155883174
30
0.0000000000
10
-1.3769425922
20
-1.9299454472
30
0.0000000000
10
-1.3940840985
20
-1.8432526633
30
0.0000000000
10
-1.4159359003
20
-1.7559906939
30
0.0000000000
10
-1.4423761120
20
-1.6686452782
30
0.0000000000
10
-1.4732573717
20
-1.5817024605
30
0.0000000000
10
-1.5084076157
20
-1.4956463493
30
0.0000000000
10
-1.5476310159
20
-1.4109562122
30
0.0000000000
10
-1.5907090680
20
-1.3281037886
30
0.0000000000
10
-1.6374018216
20
-1.2475506009
30
0.0000000000
10
-1.6874492455
20
-1.1697453430
30
0.0000000000
10
-1.7405727183
20
-1.0951213448
30
0.0000000000
10
-1.7964766383
20
-1.0240941346
30
0.0000000000
10
-1.8548501451
20
-0.9570591146
30
0.0000000000
10
-1.9153689436
20
-0.8943893700
30
0.0000000000
10
-1.9776972215
20
-0.8364336337
30
0.0000000000
10
-2.0414896478
20
-0.7835144315
30
0.0000000000
10
-2.1063934320
20
-0.7359264386
30
0.0000000000
10
-2.1720504144
20
-0.6939350820
30
0.0000000000
10
-2.2380991373
20
-0.6577754237
30
0.0000000000
10
-2.3041768190
20
-0.6276513523
30
0.0000000000
10
-2.3699211142
20
-0.6037350820
30
0.0000000000
10
-2.4349715095
20
-0.5861668924
30
0.0000000000
10
-2.4989701989
20
-0.5750549224
30
0.0000000000
10
-2.5615623735
20
-0.5704746706
30
0.0000000000
10
-2.6223961164
20
-0.5724677145
30
0.0000000000
10
-2.6811225235
20
-0.5810392272
30
0.0000000000
10
-2.7373970951
20
-0.5961543501
30
0.0000000000
10
-2.7758656545
20
-0.6116751960
30
0.0000000000
10
-2.7956986515
20
-0.6213603913
30
0.0000000000
10
-2.7983279461
20
-0.6226751728
30
0.0000000000
11
-1.3554275749
21
-2.1826507007
31
0.0000000000
11
-1.3578990923
21
-2.1005172426
31
0.0000000000
11
-1.3652998230
21
-2.0163715907
31
0.0000000000
11
-1.3775883790
21
-1.9306843215
31
0.0000000000
11
-1.3946960377
21
-1.8439346331
31
0.0000000000
11
-1.4165271262
21
-1.7566076649
31
0.0000000000
11
-1.4429595562
21
-1.6691917846
31
0.0000000000
11
-1.4738455067
21
-1.5821758574
31
0.0000000000
11
-1.5090122511
21
-1.4960465117
31
0.0000000000
11
-1.5482631226
21
-1.4112854176
31
0.0000000000
11
-1.5913786144
21
-1.3283665936
31
0.0000000000
11
-1.6381176073
21
-1.2477537554
31
0.0000000000
11
-1.6882187177
21
-1.1698977227
31
0.0000000000
11
-1.7414017600
21
-1.0952338979
31
0.0000000000
11
-1.7973693131
21
-1.0241798316
31
0.0000000000
11
-1.8558083836
21
-0.9571328868
31
0.0000000000
11
-1.9163921566
21
-0.8944680173
31
0.0000000000
11
-1.9787818231
21
-0.8365356704
31
0.0000000000
11
-2.0426284746
21
-0.7836598273
31
0.0000000000
11
-2.1075750550
21
-0.7361361912
31
0.0000000000
11
-2.1732583564
21
-0.6942305335
31
0.0000000000
11
-2.2393110513
21
-0.6581772077
31
0.0000000000
11
-2.3053637463
21
-0.6281778386
31
0.0000000000
11
-2.3710470477
21
-0.6044001948
31
0.0000000000
11
-2.4359936280
21
-0.5869772506
31
0.0000000000
11
-2.4998402796
21
-0.5760064421
31
0.0000000000
11
-2.5622299461
21
-0.5715491226
31
0.0000000000
11
-2.6228137191
21
-0.5736302191
31
0.0000000000
11
-2.6812527896
21
-0.5822380934
31
0.0000000000
11
-2.7372203426
21
-0.5973246066
31
0.0000000000
11
-2.7904033850
21
-0.6188053890
31
0.0000000000
11
-2.7983279461
21
-0.6226751728
31
0.0000000000
0
SPLINE
5
259
100
AcDbEntity
8
0
100
AcDbSpline
62
7
6
CONTINUOUS
70
0
71
3
72
8
73
4
74
2
42
0.0000001000
43
0.0000001000
44
0.0000000001
12
0.0330667801
22
-0.0165356453
32
0.0000000000
13
0.0340695446
23
-0.0143691779
33
0.0000000000
40
0.0000000000
40
0.0000000000
40
0.0000000000
40
0.0000000000
40
1.0000000000
40
1.0000000000
40
1.0000000000
40
1.0000000000
10
6.3103101269
20
-20.7714007356
30
0.0000000000
10
6.3213323869
20
-20.7769126173
30
0.0000000000
10
6.3325356001
20
-20.7820698072
30
0.0000000000
10
6.3438921150
20
-20.7868595332
30
0.0000000000
11
6.3103101269
21
-20.7714007356
31
0.0000000000
11
6.3438921150
21
-20.7868595332
31
0.0000000000
0
SPLINE
5
25A
100
AcDbEntity
8
0
100
AcDbSpline
62
7
6
CONTINUOUS
70
0
71
3
72
8
73
4
74
2
42
0.0000001000
43
0.0000001000
44
0.0000000001
12
0.0008070206
22
-0.0003403692
32
0.0000000000
13
0.0008075357
23
-0.0003391319
33
0.0000000000
40
0.0000000000
40
0.0000000000
40
0.0000000000
40
0.0000000000
40
1.0000000000
40
1.0000000000
40
1.0000000000
40
1.0000000000
10
6.3438921150
20
-20.7868595332
30
0.0000000000
10
6.3441611219
20
-20.7869729896
30
0.0000000000
10
6.3444302148
20
-20.7870862398
30
0.0000000000
10
6.3446993933
20
-20.7871992838
30
0.0000000000
11
6.3438921150
21
-20.7868595332
31
0.0000000000
11
6.3446993933
21
-20.7871992838
31
0.0000000000
0
SPLINE
5
25B
100
AcDbEntity
8
0
100
AcDbSpline
62
7
6
CONTINUOUS
70
0
71
3
72
8
73
4
74
2
42
0.0000001000
43
0.0000001000
44
0.0000000001
12
0.0165852755
22
-0.0069651347
32
0.0000000000
13
0.0167939467
23
-0.0064412429
33
0.0000000000
40
0.0000000000
40
0.0000000000
40
0.0000000000
40
0.0000000000
40
1.0000000000
40
1.0000000000
40
1.0000000000
40
1.0000000000
10
6.3446993933
20
-20.7871992838
30
0.0000000000
10
6.3502278185
20
-20.7895209954
30
0.0000000000
10
6.3557923933
20
-20.7917557056
30
0.0000000000
10
6.3613903756
20
-20.7939027866
30
0.0000000000
11
6.3446993933
21
-20.7871992838
31
0.0000000000
11
6.3613903756
21
-20.7939027866
31
0.0000000000
0
SPLINE
5
25C
100
AcDbEntity
8
0
100
AcDbSpline
62
7
6
CONTINUOUS
70
0
71
3
72
14
73
10
74
8
42
0.0000001000
43
0.0000001000
44
0.0000000001
12
0.3620879070
22
-0.1388771908
32
0.0000000000
13
0.3758423731
23
0.0953583511
33
0.0000000000
40
0.0000000000
40
0.0000000000
40
0.0000000000
40
0.0000000000
40
0.0978020797
40
0.2461991462
40
0.3972122327
40
0.5515933053
40
0.7101679989
40
0.8738227858
40
1.0000000000
40
1.0000000000
40
1.0000000000
40
1.0000000000
10
6.3613903756
20
-20.7939027866
30
0.0000000000
10
6.3731946924
20
-20.7984302793
30
0.0000000000
10
6.4032838752
20
-20.8088465690
30
0.0000000000
10
6.4530849282
20
-20.8216081310
30
0.0000000000
10
6.5111327415
20
-20.8305353363
30
0.0000000000
10
6.5710865174
20
-20.8338507315
30
0.0000000000
10
6.6327147798
20
-20.8313354250
30
0.0000000000
10
6.6902077579
20
-20.8235223215
30
0.0000000000
10
6.7268350449
20
-20.8155143060
30
0.0000000000
10
6.7426426261
20
-20.8115036223
30
0.0000000000
11
6.3613903756
21
-20.7939027866
31
0.0000000000
11
6.3972232525
21
-20.8063104443
31
0.0000000000
11
6.4529438329
21
-20.8206079920
31
0.0000000000
11
6.5107991393
21
-20.8295336579
31
0.0000000000
11
6.5705511609
21
-20.8328746603
31
0.0000000000
11
6.6319729035
21
-20.8304143422
31
0.0000000000
11
6.6948427766
21
-20.8219262146
31
0.0000000000
11
6.7426426261
21
-20.8115036223
31
0.0000000000
0
SPLINE
5
25D
100
AcDbEntity
8
0
100
AcDbSpline
62
7
6
CONTINUOUS
70
0
71
3
72
8
73
4
74
2
42
0.0000001000
43
0.0000001000
44
0.0000000001
12
0.0113107700
22
0.0028697573
32
0.0000000000
13
0.0112621831
23
0.0030472819
33
0.0000000000
40
0.0000000000
40
0.0000000000
40
0.0000000000
40
0.0000000000
40
1.0000000000
40
1.0000000000
40
1.0000000000
40
1.0000000000
10
6.7426426317
20
-20.8115036209
30
0.0000000000
10
6.7464128884
20
-20.8105470351
30
0.0000000000
10
6.7501752968
20
-20.8095606165
30
0.0000000000
10
6.7539293578
20
-20.8085448559
30
0.0000000000
11
6.7426426317
21
-20.8115036209
31
0.0000000000
11
6.7539293578
21
-20.8085448559
31
0.0000000000
0
SPLINE
5
25E
100
AcDbEntity
8
0
100
AcDbSpline
62
7
6
CONTINUOUS
70
0
71
3
72
18
73
14
74
12
42
0.0000001000
43
0.0000001000
44
0.0000000001
12
0.8726110097
22
0.4243468869
32
0.0000000000
13
0.8674574910
23
-0.4337287455
33
0.0000000000
40
0.0000000000
40
0.0000000000
40
0.0000000000
40
0.0000000000
40
0.0310518501
40
0.1179451892
40
0.2058251911
40
0.2952721994
40
0.3868109756
40
0.4808969182
40
0.5779089562
40
0.6781445837
40
0.7818226587
40
0.8890843310
40
1.0000000000
40
1.0000000000
40
1.0000000000
40
1.0000000000
10
-9.1900519420
20
-2.8172815969
30
0.0000000000
10
-9.1810198799
20
-2.8128893450
30
0.0000000000
10
-9.1463906235
20
-2.7968694894
30
0.0000000000
10
-9.0839934464
20
-2.7733934363
30
0.0000000000
10
-9.0011563795
20
-2.7519229425
30
0.0000000000
10
-8.9150722839
20
-2.7388718908
30
0.0000000000
10
-8.8261265240
20
-2.7342856460
30
0.0000000000
10
-8.7347106089
20
-2.7381705852
30
0.0000000000
10
-8.6412209449
20
-2.7504966792
30
0.0000000000
10
-8.5460583034
20
-2.7711991255
30
0.0000000000
10
-8.4496261829
20
-2.8001803671
30
0.0000000000
10
-8.3523373968
20
-2.8373069973
30
0.0000000000
10
-8.2882426581
20
-2.8668897049
30
0.0000000000
10
-8.2561711154
20
-2.8829254762
30
0.0000000000
11
-9.1900519420
21
-2.8172815969
31
0.0000000000
11
-9.1627078597
21
-2.8046320790
31
0.0000000000
11
-9.0838450395
21
-2.7749229103
31
0.0000000000
11
-9.0013576105
21
-2.7534752310
31
0.0000000000
11
-8.9156014467
21
-2.7403822141
31
0.0000000000
11
-8.8269463346
21
-2.7357012350
31
0.0000000000
11
-8.7357745515
21
-2.7394535188
31
0.0000000000
11
-8.6424781980
21
-2.7516240573
31
0.0000000000
11
-8.5474591340
21
-2.7721615185
31
0.0000000000
11
-8.4511251089
21
-2.8009787584
31
0.0000000000
11
-8.3538902004
21
-2.8379527209
31
0.0000000000
11
-8.2561711154
21
-2.8829254762
31
0.0000000000
0
SPLINE
5
25F
100
AcDbEntity
8
0
100
AcDbSpline
62
7
6
CONTINUOUS
70
0
71
3
72
8
73
4
74
2
42
0.0000001000
43
0.0000001000
44
0.0000000001
12
0.0000000000
22
-0.0268504278
32
0.0000000000
13
-0.0005522083
23
-0.0268489289
33
0.0000000000
40
0.0000000000
40
0.0000000000
40
0.0000000000
40
0.0000000000
40
1.0000000000
40
1.0000000000
40
1.0000000000
40
1.0000000000
10
-1.3554275749
20
-2.1826507007
30
0.0000000000
10
-1.3554275749
20
-2.1916008433
30
0.0000000000
10
-1.3555181097
20
-2.2005519623
30
0.0000000000
10
-1.3557021791
20
-2.2095016053
30
0.0000000000
11
-1.3554275749
21
-2.1826507007
31
0.0000000000
11
-1.3557021791
21
-2.2095016053
31
0.0000000000
0
SPLINE
5
260
100
AcDbEntity
8
0
100
AcDbSpline
62
7
6
CONTINUOUS
70
0
71
3
72
19
73
15
74
13
42
0.0000001000
43
0.0000001000
44
0.0000000001
12
-0.0154713310
22
-0.7522317822
32
0.0000000000
13
-0.6657272407
23
-0.3513217681
33
0.0000000000
40
0.0000000000
40
0.0000000000
40
0.0000000000
40
0.0000000000
40
0.0702534699
40
0.1727439921
40
0.2716711290
40
0.3669988057
40
0.4587718353
40
0.5471245613
40
0.6322883679
40
0.7145966829
40
0.7944856123
40
0.8724880923
40
0.9492197664
40
1.0000000000
40
1.0000000000
40
1.0000000000
40
1.0000000000
10
-1.3557021791
20
-2.2095016053
30
0.0000000000
10
-1.3560644840
20
-2.2271172362
30
0.0000000000
10
-1.3578463744
20
-2.2704176823
30
0.0000000000
10
-1.3643118577
20
-2.3382832592
30
0.0000000000
10
-1.3765130849
20
-2.4117533337
30
0.0000000000
10
-1.3935382683
20
-2.4815012198
30
0.0000000000
10
-1.4153001789
20
-2.5471408907
30
0.0000000000
10
-1.4416872947
20
-2.6083060689
30
0.0000000000
10
-1.4725640135
20
-2.6646524057
30
0.0000000000
10
-1.5077701837
20
-2.7158576241
30
0.0000000000
10
-1.5471197342
20
-2.7616224841
30
0.0000000000
10
-1.5903986052
20
-2.8016727968
30
0.0000000000
10
-1.6322049062
20
-2.8320192508
30
0.0000000000
10
-1.6598934099
20
-2.8481037679
30
0.0000000000
10
-1.6711620048
20
-2.8540505017
30
0.0000000000
11
-1.3557021791
21
-2.2095016053
31
0.0000000000
11
-1.3578990923
21
-2.2623126413
31
0.0000000000
11
-1.3652998230
21
-2.3390575626
31
0.0000000000
11
-1.3775883790
21
-2.4124562757
31
0.0000000000
11
-1.3946960377
21
-2.4820983055
31
0.0000000000
11
-1.4165271262
21
-2.5475941852
31
0.0000000000
11
-1.4429595562
21
-2.6085776355
31
0.0000000000
11
-1.4738455067
21
-2.6647076122
31
0.0000000000
11
-1.5090122511
21
-2.7156702135
31
0.0000000000
11
-1.5482631226
21
-2.7611804361
31
0.0000000000
11
-1.5913786144
21
-2.8009837683
31
0.0000000000
11
-1.6381176073
21
-2.8348576136
31
0.0000000000
11
-1.6711620048
21
-2.8540505017
31
0.0000000000
0
SPLINE
5
261
100
AcDbEntity
8
0
100
AcDbSpline
62
7
6
CONTINUOUS
70
0
71
3
72
8
73
4
74
2
42
0.0000001000
43
0.0000001000
44
0.0000000001
12
-0.0090804709
22
-0.0047920032
32
0.0000000000
13
-0.0091831438
23
-0.0045920408
33
0.0000000000
40
0.0000000000
40
0.0000000000
40
0.0000000000
40
0.0000000000
40
1.0000000000
40
1.0000000000
40
1.0000000000
40
1.0000000000
10
-1.6711620048
20
-2.8540505017
30
0.0000000000
10
-1.6741888284
20
-2.8556478362
30
0.0000000000
10
-1.6772331086
20
-2.8572120718
30
0.0000000000
10
-1.6802941565
20
-2.8587427521
30
0.0000000000
11
-1.6711620048
21
-2.8540505017
31
0.0000000000
11
-1.6802941565
21
-2.8587427521
31
0.0000000000
0
SPLINE
5
262
100
AcDbEntity
8
0
100
AcDbSpline
62
7
6
CONTINUOUS
70
0
71
3
72
22
73
18
74
16
42
0.0000001000
43
0.0000001000
44
0.0000000001
12
0.3971850301
22
-0.1985925150
32
0.0000000000
13
-0.0000000000
23
-0.4440663634
33
0.0000000000
40
0.0000000000
40
0.0000000000
40
0.0000000000
40
0.0000000000
40
0.0565911061
40
0.1163073116
40
0.1786297751
40
0.2430310256
40
0.3097550427
40
0.3784899283
40
0.4484414790
40
0.5189257497
40
0.5902116705
40
0.6616415648
40
0.7323062477
40
0.8016658890
40
0.8698745348
40
0.9362454823
40
1.0000000000
40
1.0000000000
40
1.0000000000
40
1.0000000000
10
10.9974569885
20
12.2559397677
30
0.0000000000
10
11.0049493686
20
12.2521935776
30
0.0000000000
10
11.0199508752
20
12.2436802518
30
0.0000000000
10
11.0416607270
20
12.2285295214
30
0.0000000000
10
11.0628897836
20
12.2108471204
30
0.0000000000
10
11.0834066679
20
12.1908335443
30
0.0000000000
10
11.1030301392
20
12.1686613569
30
0.0000000000
10
11.1215616629
20
12.1445262923
30
0.0000000000
10
11.1387461473
20
12.1187441586
30
0.0000000000
10
11.1544122667
20
12.0915765036
30
0.0000000000
10
11.1684080296
20
12.0632673661
30
0.0000000000
10
11.1805713340
20
12.0340945266
30
0.0000000000
10
11.1907231766
20
12.0044628831
30
0.0000000000
10
11.1987604371
20
11.9746819881
30
0.0000000000
10
11.2045968369
20
11.9450375859
30
0.0000000000
10
11.2081487914
20
11.9158689621
30
0.0000000000
10
11.2089783558
20
11.8966001043
30
0.0000000000
10
11.2089783558
20
11.8871630254
30
0.0000000000
11
10.9974569885
21
12.2559397677
31
0.0000000000
11
11.0193427625
21
12.2435890516
31
0.0000000000
11
11.0411198517
21
12.2284576111
31
0.0000000000
11
11.0624138167
21
12.2107802295
31
0.0000000000
11
11.0829112913
21
12.1908372185
31
0.0000000000
11
11.1025707859
21
12.1686688909
31
0.0000000000
11
11.1211772684
21
12.1444729569
31
0.0000000000
11
11.1384180130
21
12.1186335525
31
0.0000000000
11
11.1540604199
21
12.0915229285
31
0.0000000000
11
11.1680908180
21
12.0631463539
31
0.0000000000
11
11.1802920305
21
12.0338672780
31
0.0000000000
11
11.1904501766
21
12.0041771372
31
0.0000000000
11
11.1984558931
21
11.9744354832
31
0.0000000000
11
11.2042792051
21
11.9447113757
31
0.0000000000
11
11.2078051972
21
11.9154499451
31
0.0000000000
11
11.2089783558
21
11.8871630254
31
0.0000000000
0
SPLINE
5
263
100
AcDbEntity
8
0
100
AcDbSpline
62
7
6
CONTINUOUS
70
0
71
3
72
57
73
53
74
51
42
0.0000001000
43
0.0000001000
44
0.0000000001
12
0.0000000000
22
-6.4028599619
32
0.0000000000
13
0.0000000000
23
6.4028599619
33
0.0000000000
40
0.0000000000
40
0.0000000000
40
0.0000000000
40
0.0000000000
40
0.0208141834
40
0.0410671606
40
0.0607246749
40
0.0798018135
40
0.0982727923
40
0.1161736150
40
0.1335035830
40
0.1503096621
40
0.1666303491
40
0.1825172826
40
0.1980516151
40
0.2132944617
40
0.2283552216
40
0.2433084241
40
0.2582715709
40
0.2733303233
40
0.2885872886
40
0.3041332720
40
0.3200387212
40
0.3363897237
40
0.3532227785
40
0.3706060889
40
0.3885496412
40
0.4070941099
40
0.4262357109
40
0.4459785827
40
0.4663183680
40
0.4872214913
40
0.5086857723
40
0.5306509131
40
0.5531091269
40
0.5759890801
40
0.5992669856
40
0.6228777862
40
0.6467691643
40
0.6708958700
40
0.6951779370
40
0.7195861262
40
0.7440272239
40
0.7684744198
40
0.7928398819
40
0.8170843092
40
0.8411431666
40
0.8649527452
40
0.8884795756
40
0.9116450846
40
0.9344338434
40
0.9567712980
40
0.9786446725
40
1.0000000000
40
1.0000000000
40
1.0000000000
40
1.0000000000
10
-0.8825476025
20
-2.8300941910
30
0.0000000000
10
-0.8825476025
20
-2.8745176249
30
0.0000000000
10
-0.8847549776
20
-2.9621860377
30
0.0000000000
10
-0.8949893107
20
-3.0914488764
30
0.0000000000
10
-0.9120702006
20
-3.2162549576
30
0.0000000000
10
-0.9359328041
20
-3.3360744211
30
0.0000000000
10
-0.9665042354
20
-3.4504919695
30
0.0000000000
10
-1.0036659925
20
-3.5590172836
30
0.0000000000
10
-1.0473023712
20
-3.6612630711
30
0.0000000000
10
-1.0972499609
20
-3.7568008326
30
0.0000000000
10
-1.1533373523
20
-3.8452554332
30
0.0000000000
10
-1.2153656957
20
-3.9262712051
30
0.0000000000
10
-1.2830955014
20
-3.9994950651
30
0.0000000000
10
-1.3562950298
20
-4.0646407838
30
0.0000000000
10
-1.4346538314
20
-4.1214022384
30
0.0000000000
10
-1.5178934513
20
-4.1695544009
30
0.0000000000
10
-1.6056486065
20
-4.2088707757
30
0.0000000000
10
-1.6975824324
20
-4.2391919821
30
0.0000000000
10
-1.7933062723
20
-4.2603890053
30
0.0000000000
10
-1.8924250230
20
-4.2723774984
30
0.0000000000
10
-1.9945538774
20
-4.2751189588
30
0.0000000000
10
-2.0992534789
20
-4.2686101239
30
0.0000000000
10
-2.2061473682
20
-4.2528842161
30
0.0000000000
10
-2.3147703592
20
-4.2280181488
30
0.0000000000
10
-2.4247360421
20
-4.1941086196
30
0.0000000000
10
-2.5355777817
20
-4.1513063251
30
0.0000000000
10
-2.6468794033
20
-4.0997777695
30
0.0000000000
10
-2.7581941004
20
-4.0397355356
30
0.0000000000
10
-2.8690703183
20
-3.9714274296
30
0.0000000000
10
-2.9790922638
20
-3.8951146323
30
0.0000000000
10
-3.0877871428
20
-3.8111286393
30
0.0000000000
10
-3.1947653389
20
-3.7197745608
30
0.0000000000
10
-3.2995583198
20
-3.6214556037
30
0.0000000000
10
-3.4017881494
20
-3.5165296272
30
0.0000000000
10
-3.5010199036
20
-3.4054460501
30
0.0000000000
10
-3.5968744272
20
-3.2886318414
30
0.0000000000
10
-3.6889696912
20
-3.1665564107
30
0.0000000000
10
-3.7769289760
20
-3.0397219704
30
0.0000000000
10
-3.8604284751
20
-2.9085995902
30
0.0000000000
10
-3.9391105918
20
-2.7737541769
30
0.0000000000
10
-4.0126987150
20
-2.6356635760
30
0.0000000000
10
-4.0808768116
20
-2.4949245570
30
0.0000000000
10
-4.1434017077
20
-2.3520423177
30
0.0000000000
10
-4.2000172685
20
-2.2076064356
30
0.0000000000
10
-4.2505072358
20
-2.0621712814
30
0.0000000000
10
-4.2946805998
20
-1.9162929878
30
0.0000000000
10
-4.3323574227
20
-1.7705702647
30
0.0000000000
10
-4.3634058443
20
-1.6255181533
30
0.0000000000
10
-4.3876948083
20
-1.4817539912
30
0.0000000000
10
-4.4051403996
20
-1.3397742011
30
0.0000000000
10
-4.4156693877
20
-1.2001830260
30
0.0000000000
10
-4.4180815084
20
-1.1079056284
30
0.0000000000
10
-4.4180815084
20
-1.0623272380
30
0.0000000000
11
-0.8825476025
21
-2.8300941910
31
0.0000000000
11
-0.8859960587
21
-2.9633198698
31
0.0000000000
11
-0.8963335699
21
-3.0925841502
31
0.0000000000
11
-0.9135108999
21
-3.2172708141
31
0.0000000000
11
-0.9374864602
21
-3.3370429592
31
0.0000000000
11
-0.9681380024
21
-3.4512689970
31
0.0000000000
11
-1.0053940899
21
-3.5596614185
31
0.0000000000
11
-1.0490731951
21
-3.6616641574
31
0.0000000000
11
-1.0990469923
21
-3.7569630543
31
0.0000000000
11
-1.1551149408
21
-3.8451471884
31
0.0000000000
11
-1.2170462964
21
-3.9258431231
31
0.0000000000
11
-1.2846593033
21
-3.9987924179
31
0.0000000000
11
-1.3576170910
21
-4.0636190646
31
0.0000000000
11
-1.4357415399
21
-4.1201494889
31
0.0000000000
11
-1.5186260719
21
-4.1680757505
31
0.0000000000
11
-1.6060526959
21
-4.2072618945
31
0.0000000000
11
-1.6976051295
21
-4.2375074143
31
0.0000000000
11
-1.7929663634
21
-4.2587022694
31
0.0000000000
11
-1.8917728802
21
-4.2707536537
31
0.0000000000
11
-1.9935733557
21
-4.2736037232
31
0.0000000000
11
-2.0980727494
21
-4.2672367330
31
0.0000000000
11
-2.2047242302
21
-4.2516828320
31
0.0000000000
11
-2.3132509485
21
-4.2269788365
31
0.0000000000
11
-2.4230790607
21
-4.1932518462
31
0.0000000000
11
-2.5338914037
21
-4.1505991683
31
0.0000000000
11
-2.6451625801
21
-4.0992189997
31
0.0000000000
11
-2.7564743268
21
-4.0393074278
31
0.0000000000
11
-2.8674088444
21
-3.9710863597
31
0.0000000000
11
-2.9774377896
21
-3.8948845511
31
0.0000000000
11
-3.0862414656
21
-3.8109230685
31
0.0000000000
11
-3.1932412217
21
-3.7196510403
31
0.0000000000
11
-3.2981547068
21
-3.6213114253
31
0.0000000000
11
-3.4004287461
21
-3.5164237151
31
0.0000000000
11
-3.4997601523
21
-3.4053033557
31
0.0000000000
11
-3.5956902028
21
-3.2884624178
31
0.0000000000
11
-3.6878452115
21
-3.1663631205
31
0.0000000000
11
-3.7758996708
21
-3.0394361438
31
0.0000000000
11
-3.8594264591
21
-2.9083039584
31
0.0000000000
11
-3.9381980295
21
-2.7733255488
31
0.0000000000
11
-4.0117973336
21
-2.6352198707
31
0.0000000000
11
-4.0800361065
21
-2.4943450041
31
0.0000000000
11
-4.1425679989
21
-2.3514168449
31
0.0000000000
11
-4.1992012540
21
-2.2068825318
31
0.0000000000
11
-4.2496970335
21
-2.0613483751
31
0.0000000000
11
-4.2938458872
21
-1.9154316267
31
0.0000000000
11
-4.3315126940
21
-1.7695778637
31
0.0000000000
11
-4.3625092318
21
-1.6245272807
31
0.0000000000
11
-4.3867587927
21
-1.4806431960
31
0.0000000000
11
-4.4041349234
21
-1.3386790510
31
0.0000000000
11
-4.4145928260
21
-1.1990178966
31
0.0000000000
11
-4.4180815084
21
-1.0623272380
31
0.0000000000
0
SPLINE
5
264
100
AcDbEntity
8
0
100
AcDbSpline
62
7
6
CONTINUOUS
70
0
71
3
72
57
73
53
74
51
42
0.0000001000
43
0.0000001000
44
0.0000000001
12
0.0000000000
22
6.4121556520
32
0.0000000000
13
0.0000000000
23
-6.4121556520
33
0.0000000000
40
0.0000000000
40
0.0000000000
40
0.0000000000
40
0.0000000000
40
0.0207873233
40
0.0410218271
40
0.0606704644
40
0.0797493572
40
0.0982335525
40
0.1161596346
40
0.1335271004
40
0.1503827576
40
0.1667644328
40
0.1827225589
40
0.1983366246
40
0.2136654080
40
0.2288157457
40
0.2438590690
40
0.2589099070
40
0.2740508648
40
0.2893819220
40
0.3049916900
40
0.3209489561
40
0.3373388382
40
0.3541973505
40
0.3715928171
40
0.3895357341
40
0.4080676588
40
0.4271859600
40
0.4468961108
40
0.4671951983
40
0.4880511967
40
0.5094633993
40
0.5313730710
40
0.5537737761
40
0.5765955817
40
0.5998158474
40
0.6233706139
40
0.6472084615
40
0.6712848469
40
0.6955203955
40
0.7198861711
40
0.7442891864
40
0.7687025572
40
0.7930382829
40
0.8172566485
40
0.8412925675
40
0.8650816174
40
0.8885894477
40
0.9117365157
40
0.9345062673
40
0.9568229903
40
0.9786726411
40
1.0000000000
40
1.0000000000
40
1.0000000000
40
1.0000000000
10
-4.4180815084
20
-1.0623272380
30
0.0000000000
10
-4.4180815084
20
-1.0178967205
30
0.0000000000
10
-4.4158469781
20
-0.9301975270
30
0.0000000000
10
-4.4054910605
20
-0.8008704649
30
0.0000000000
10
-4.3882095048
20
-0.6759612480
30
0.0000000000
10
-4.3640703039
20
-0.5560016771
30
0.0000000000
10
-4.3331505596
20
-0.4414093720
30
0.0000000000
10
-4.2955744278
20
-0.3326776980
30
0.0000000000
10
-4.2514641585
20
-0.2301973690
30
0.0000000000
10
-4.2009910090
20
-0.1344007684
30
0.0000000000
10
-4.1443350681
20
-0.0456671615
30
0.0000000000
10
-4.0817046095
20
0.0356436207
30
0.0000000000
10
-4.0133492348
20
0.1091742160
30
0.0000000000
10
-3.9395106390
20
0.1746344036
30
0.0000000000
10
-3.8605095610
20
0.2317138537
30
0.0000000000
10
-3.7766338806
20
0.2801834773
30
0.0000000000
10
-3.6882583429
20
0.3198121838
30
0.0000000000
10
-3.5957284962
20
0.3504358092
30
0.0000000000
10
-3.4994416799
20
0.3719201227
30
0.0000000000
10
-3.3998013785
20
0.3841755185
30
0.0000000000
10
-3.2972004749
20
0.3871584994
30
0.0000000000
10
-3.1920861222
20
0.3808612060
30
0.0000000000
10
-3.0848416311
20
0.3653130770
30
0.0000000000
10
-2.9759383713
20
0.3405878730
30
0.0000000000
10
-2.8657675496
20
0.3067800257
30
0.0000000000
10
-2.7547995099
20
0.2640386610
30
0.0000000000
10
-2.6434526578
20
0.2125294549
30
0.0000000000
10
-2.5321747088
20
0.1524648741
30
0.0000000000
10
-2.4214166920
20
0.0840932490
30
0.0000000000
10
-2.3115925727
20
0.0076769364
30
0.0000000000
10
-2.2031718994
20
-0.0764507522
30
0.0000000000
10
-2.0965399797
20
-0.1679823838
30
0.0000000000
10
-1.9921596324
20
-0.2665117666
30
0.0000000000
10
-1.8904023129
20
-0.3716776986
30
0.0000000000
10
-1.7916952345
20
-0.4830268317
30
0.0000000000
10
-1.6964092426
20
-0.6001279767
30
0.0000000000
10
-1.6049172683
20
-0.7225071441
30
0.0000000000
10
-1.5175863536
20
-0.8496572432
30
0.0000000000
10
-1.4347304771
20
-0.9811022852
30
0.0000000000
10
-1.3566968212
20
-1.1162721438
30
0.0000000000
10
-1.2837520014
20
-1.2546839821
30
0.0000000000
10
-1.2162016592
20
-1.3957358506
30
0.0000000000
10
-1.1542792918
20
-1.5389177269
30
0.0000000000
10
-1.0982314351
20
-1.6836352754
30
0.0000000000
10
-1.0482654717
20
-1.8293297139
30
0.0000000000
10
-1.0045642305
20
-1.9754408791
30
0.0000000000
10
-0.9673001490
20
-2.1213663649
30
0.0000000000
10
-0.9365987547
20
-2.2665880362
30
0.0000000000
10
-0.9125855249
20
-2.4104858588
30
0.0000000000
10
-0.8953401340
20
-2.5525613655
30
0.0000000000
10
-0.8849325690
20
-2.6922089209
30
0.0000000000
10
-0.8825476025
20
-2.7845094095
30
0.0000000000
10
-0.8825476025
20
-2.8300941910
30
0.0000000000
11
-4.4180815084
21
-1.0623272380
31
0.0000000000
11
-4.4145926402
21
-0.9290813533
31
0.0000000000
11
-4.4041344636
21
-0.7997567401
31
0.0000000000
11
-4.3867582160
21
-0.6749706175
31
0.0000000000
11
-4.3625083242
21
-0.5550613066
31
0.0000000000
11
-4.3315116805
21
-0.4406627181
31
0.0000000000
11
-4.2938446174
21
-0.3320648087
31
0.0000000000
11
-4.2496955359
21
-0.2298270817
31
0.0000000000
11
-4.1991997176
21
-0.1342671742
31
0.0000000000
11
-4.1425660042
21
-0.0458001577
31
0.0000000000
11
-4.0800341823
21
0.0351960101
31
0.0000000000
11
-4.0117949256
21
0.1084584299
31
0.0000000000
11
-3.9381956720
21
0.1736058095
31
0.0000000000
11
-3.8594237644
21
0.2304599632
31
0.0000000000
11
-3.7758968749
21
0.2787074034
31
0.0000000000
11
-3.6878423582
21
0.3182074938
31
0.0000000000
11
-3.5956870098
21
0.3487544710
31
0.0000000000
11
-3.4997571272
21
0.3702336505
31
0.0000000000
11
-3.4004252361
21
0.3825477219
31
0.0000000000
11
-3.2981513336
21
0.3856345049
31
0.0000000000
11
-3.1932375319
21
0.3794747188
31
0.0000000000
11
-3.0862377935
21
0.3640949466
31
0.0000000000
11
-2.9774340596
21
0.3395294588
31
0.0000000000
11
-2.8674049736
21
0.3059029554
31
0.0000000000
11
-2.7564706810
21
0.2633112523
31
0.0000000000
11
-2.6451586512
21
0.2119515104
31
0.0000000000
11
-2.5338877607
21
0.1520195105
31
0.0000000000
11
-2.4230751956
21
0.0837374661
31
0.0000000000
11
-2.3132472266
21
0.0074351693
31
0.0000000000
11
-2.2047205687
21
-0.0766648222
31
0.0000000000
11
-2.0980690729
21
-0.1681109806
31
0.0000000000
11
-1.9935699969
21
-0.2666578001
31
0.0000000000
11
-1.8917693877
21
-0.3717822254
31
0.0000000000
11
-1.7929633553
21
-0.4831652717
31
0.0000000000
11
-1.6976019564
21
-0.6002905355
31
0.0000000000
11
-1.6060498621
21
-0.7226912900
31
0.0000000000
11
-1.5186232968
21
-0.8499322136
31
0.0000000000
11
-1.4357388666
21
-0.9813855781
31
0.0000000000
11
-1.3576147535
21
-1.1166877163
31
0.0000000000
11
-1.2846569169
21
-1.2551141282
31
0.0000000000
11
-1.2170443903
21
-1.3963021179
31
0.0000000000
11
-1.1551129657
21
-1.5395305110
31
0.0000000000
11
-1.0990454716
21
-1.6843477046
31
0.0000000000
11
-1.0490717132
21
-1.8301428719
31
0.0000000000
11
-1.0053928338
21
-1.9762946074
31
0.0000000000
11
-0.9681370001
21
-2.1223538570
31
0.0000000000
11
-0.9374855628
21
-2.2675769902
31
0.0000000000
11
-0.9135103299
21
-2.4115982389
31
0.0000000000
11
-0.8963331153
21
-2.5536618420
31
0.0000000000
11
-0.8859958751
21
-2.6933833275
31
0.0000000000
11
-0.8825476025
21
-2.8300941910
31
0.0000000000
0
SPLINE
5
265
100
AcDbEntity
8
0
100
AcDbSpline
62
9
6
CONTINUOUS
70
0
71
3
72
14
73
10
74
8
42
0.0000001000
43
0.0000001000
44
0.0000000001
12
0.0045822243
22
-0.1449711761
32
0.0000000000
13
0.1294613021
23
-0.0648339133
33
0.0000000000
40
0.0000000000
40
0.0000000000
40
0.0000000000
40
0.0000000000
40
0.1127124471
40
0.2369663814
40
0.3681315917
40
0.5087569853
40
0.6605018772
40
0.8242025520
40
1.0000000000
40
1.0000000000
40
1.0000000000
40
1.0000000000
10
-10.9894525241
20
-11.6808229167
30
0.0000000000
10
-10.9892803662
20
-11.6862696020
30
0.0000000000
10
-10.9877714726
20
-11.6976856184
30
0.0000000000
10
-10.9819225382
20
-11.7145882426
30
0.0000000000
10
-10.9723167937
20
-11.7312308868
30
0.0000000000
10
-10.9592498884
20
-11.7470554171
30
0.0000000000
10
-10.9429071442
20
-11.7618963646
30
0.0000000000
10
-10.9234973931
20
-11.7755967962
30
0.0000000000
10
-10.9091615823
20
-11.7835950901
30
0.0000000000
10
-10.9015752601
20
-11.7873943023
30
0.0000000000
11
-10.9894525241
21
-11.6808229167
31
0.0000000000
11
-10.9873345499
21
-11.6970083812
31
0.0000000000
11
-10.9815266528
21
-11.7140356299
31
0.0000000000
11
-10.9721286049
21
-11.7305384218
31
0.0000000000
11
-10.9592559849
21
-11.7463138026
31
0.0000000000
11
-10.9430671025
21
-11.7611677642
31
0.0000000000
11
-10.9237610513
21
-11.7749176302
31
0.0000000000
11
-10.9015752601
21
-11.7873943023
31
0.0000000000
0
SPLINE
5
266
100
AcDbEntity
8
0
100
AcDbSpline
62
7
6
CONTINUOUS
70
0
71
3
72
31
73
27
74
25
42
0.0000001000
43
0.0000001000
44
0.0000000001
12
-2.7795660065
22
1.3897830032
32
0.0000000000
13
-0.0765060820
23
3.1067073888
33
0.0000000000
40
0.0000000000
40
0.0000000000
40
0.0000000000
40
0.0000000000
40
0.0357308036
40
0.0726119772
40
0.1106042284
40
0.1496529951
40
0.1896913103
40
0.2306399906
40
0.2724107902
40
0.3149061118
40
0.3580220167
40
0.4016479043
40
0.4456690860
40
0.4899668572
40
0.5344203588
40
0.5789073498
40
0.6233052407
40
0.6674926363
40
0.7113496179
40
0.7547600166
40
0.7976111595
40
0.8397965599
40
0.8812155653
40
0.9217761961
40
0.9613950903
40
1.0000000000
40
1.0000000000
40
1.0000000000
40
1.0000000000
10
-8.0929312014
20
-11.7434726682
30
0.0000000000
10
-8.1260365771
20
-11.7269199804
30
0.0000000000
10
-8.1922641720
20
-11.6911463961
30
0.0000000000
10
-8.2897772100
20
-11.6308861543
30
0.0000000000
10
-8.3866636998
20
-11.5634118775
30
0.0000000000
10
-8.4825078694
20
-11.4890126797
30
0.0000000000
10
-8.5769036677
20
-11.4080034577
30
0.0000000000
10
-8.6694487432
20
-11.3207274183
30
0.0000000000
10
-8.7597475684
20
-11.2275545808
30
0.0000000000
10
-8.8474137706
20
-11.1288795520
30
0.0000000000
10
-8.9320709459
20
-11.0251210387
30
0.0000000000
10
-9.0133553545
20
-10.9167190392
30
0.0000000000
10
-9.0909167693
20
-10.8041340521
30
0.0000000000
10
-9.1644207268
20
-10.6878443202
30
0.0000000000
10
-9.2335496749
20
-10.5683443975
30
0.0000000000
10
-9.2980046363
20
-10.4461427579
30
0.0000000000
10
-9.3575066212
20
-10.3217595706
30
0.0000000000
10
-9.4117977220
20
-10.1957248531
30
0.0000000000
10
-9.4606426577
20
-10.0685754401
30
0.0000000000
10
-9.5038294309
20
-9.9408536267
30
0.0000000000
10
-9.5411707616
20
-9.8131036000
30
0.0000000000
10
-9.5725044551
20
-9.6858702960
30
0.0000000000
10
-9.5976945220
20
-9.5596961001
30
0.0000000000
10
-9.6166314385
20
-9.4351177016
30
0.0000000000
10
-9.6292325803
20
-9.3126703303
30
0.0000000000
10
-9.6334294589
20
-9.2317044990
30
0.0000000000
10
-9.6344139624
20
-9.1917264463
30
0.0000000000
11
-8.0929312014
21
-11.7434726682
31
0.0000000000
11
-8.1906798106
21
-11.6907960531
31
0.0000000000
11
-8.2882312427
21
-11.6306293658
31
0.0000000000
11
-8.3851687046
21
-11.5632287087
31
0.0000000000
11
-8.4810764297
21
-11.4888815533
31
0.0000000000
11
-8.5755441769
21
-11.4079035590
31
0.0000000000
11
-8.6681654529
21
-11.3206400817
31
0.0000000000
11
-8.7585431007
21
-11.2274614577
31
0.0000000000
11
-8.8462871744
21
-11.1287651167
31
0.0000000000
11
-8.9310202906
21
-11.0249702196
31
0.0000000000
11
-9.0123760223
21
-10.9165195719
31
0.0000000000
11
-9.0900032579
21
-10.8038745229
31
0.0000000000
11
-9.1635657160
21
-10.6875157096
31
0.0000000000
11
-9.2327448099
21
-10.5679392055
31
0.0000000000
11
-9.2972404927
21
-10.4456552746
31
0.0000000000
11
-9.3567725879
21
-10.3211864085
31
0.0000000000
11
-9.4110826798
21
-10.1950638421
31
0.0000000000
11
-9.4599342666
21
-10.0678275911
31
0.0000000000
11
-9.5031152317
21
-9.9400208121
31
0.0000000000
11
-9.5404373059
21
-9.8121915027
31
0.0000000000
11
-9.5717384295
21
-9.6848856681
31
0.0000000000
11
-9.5968821435
21
-9.5586496361
31
0.0000000000
11
-9.6157593746
21
-9.4340229833
31
0.0000000000
11
-9.6282880370
21
-9.3115404628
31
0.0000000000
11
-9.6344139624
21
-9.1917264463
31
0.0000000000
0
SPLINE
5
267
100
AcDbEntity
8
0
100
AcDbSpline
62
9
6
CONTINUOUS
70
0
71
3
72
15
73
11
74
9
42
0.0000001000
43
0.0000001000
44
0.0000000001
12
-0.0044558785
22
-0.1444758269
32
0.0000000000
13
0.1290450023
23
-0.0644128746
33
0.0000000000
40
0.0000000000
40
0.0000000000
40
0.0000000000
40
0.0000000000
40
0.0232868525
40
0.1341599880
40
0.2503705156
40
0.3754883650
40
0.5120028396
40
0.6613475262
40
0.8240666434
40
1.0000000000
40
1.0000000000
40
1.0000000000
40
1.0000000000
10
-10.9894608809
20
16.6982024290
30
0.0000000000
10
-10.9894954687
20
16.6970809666
30
0.0000000000
10
-10.9895345019
20
16.6906154963
30
0.0000000000
10
-10.9878623110
20
16.6785864103
30
0.0000000000
10
-10.9818442204
20
16.6626273681
30
0.0000000000
10
-10.9722159787
20
16.6471098282
30
0.0000000000
10
-10.9591483668
20
16.6321927177
30
0.0000000000
10
-10.9428184553
20
16.6180211348
30
0.0000000000
10
-10.9234267737
20
16.6047422506
30
0.0000000000
10
-10.9091430096
20
16.5968758550
30
0.0000000000
10
-10.9015752361
20
16.5930983972
30
0.0000000000
11
-10.9894608809
21
16.6982024290
31
0.0000000000
11
-10.9894808470
21
16.6948370700
31
0.0000000000
11
-10.9873345255
21
16.6789907872
31
0.0000000000
11
-10.9815266272
21
16.6632684467
31
0.0000000000
11
-10.9721285787
21
16.6478634046
31
0.0000000000
11
-10.9592559586
21
16.6329651146
31
0.0000000000
11
-10.9430670765
21
16.6187567983
31
0.0000000000
11
-10.9237610260
21
16.6054131919
31
0.0000000000
11
-10.9015752361
21
16.5930983972
31
0.0000000000
0
SPLINE
5
268
100
AcDbEntity
8
0
100
AcDbSpline
62
9
6
CONTINUOUS
70
0
71
3
72
15
73
11
74
9
42
0.0000001000
43
0.0000001000
44
0.0000000001
12
0.1194805189
22
0.0881248087
32
0.0000000000
13
0.1336317807
23
-0.0641109274
33
0.0000000000
40
0.0000000000
40
0.0000000000
40
0.0000000000
40
0.0000000000
40
0.0531464937
40
0.1660176993
40
0.2833395332
40
0.4075692597
40
0.5405094698
40
0.6832929083
40
0.8364493571
40
1.0000000000
40
1.0000000000
40
1.0000000000
40
1.0000000000
10
-10.4661482172
20
17.7120331900
30
0.0000000000
10
-10.4640315603
20
17.7135943648
30
0.0000000000
10
-10.4571897900
20
17.7181594274
30
0.0000000000
10
-10.4444478299
20
17.7241672196
30
0.0000000000
10
-10.4273999218
20
17.7285589855
30
0.0000000000
10
-10.4088823908
20
17.7300826107
30
0.0000000000
10
-10.3891040094
20
17.7287551577
30
0.0000000000
10
-10.3682715853
20
17.7246147122
30
0.0000000000
10
-10.3466011639
20
17.7177201795
30
0.0000000000
10
-10.3322002985
20
17.7115364103
30
0.0000000000
10
-10.3249151106
20
17.7080412825
30
0.0000000000
11
-10.4661482172
21
17.7120331900
31
0.0000000000
11
-10.4595871472
21
17.7164100682
31
0.0000000000
11
-10.4444747578
21
17.7235851448
31
0.0000000000
11
-10.4276554606
21
17.7279991264
31
0.0000000000
11
-10.4093128217
21
17.7296038387
31
0.0000000000
11
-10.3896470328
21
17.7283817678
31
0.0000000000
11
-10.3688727267
21
17.7243462515
31
0.0000000000
11
-10.3472166344
21
17.7175413334
31
0.0000000000
11
-10.3249151106
21
17.7080412825
31
0.0000000000
0
SPLINE
5
269
100
AcDbEntity
8
0
100
AcDbSpline
62
9
6
CONTINUOUS
70
0
71
3
72
8
73
4
74
2
42
0.0000001000
43
0.0000001000
44
0.0000000001
12
-0.0002779806
22
0.0001389740
32
0.0000000000
13
-0.0002778624
23
0.0001392100
33
0.0000000000
40
0.0000000000
40
0.0000000000
40
0.0000000000
40
0.0000000000
40
1.0000000000
40
1.0000000000
40
1.0000000000
40
1.0000000000
10
-10.6453767119
20
-12.2935572775
30
0.0000000000
10
-10.6454693721
20
-12.2935109528
30
0.0000000000
10
-10.6455620126
20
-12.2934645888
30
0.0000000000
10
-10.6456546334
20
-12.2934181854
30
0.0000000000
11
-10.6453767119
21
-12.2935572775
31
0.0000000000
11
-10.6456546334
21
-12.2934181854
31
0.0000000000
0
SPLINE
5
26A
100
AcDbEntity
8
0
100
AcDbSpline
62
9
6
CONTINUOUS
70
0
71
3
72
8
73
4
74
2
42
0.0000001000
43
0.0000001000
44
0.0000000001
12
-0.0006733726
22
0.0003373619
32
0.0000000000
13
-0.0006726764
23
0.0003387468
33
0.0000000000
40
0.0000000000
40
0.0000000000
40
0.0000000000
40
0.0000000000
40
1.0000000000
40
1.0000000000
40
1.0000000000
40
1.0000000000
10
-10.6456546334
20
-12.2934181854
30
0.0000000000
10
-10.6458790910
20
-12.2933057315
30
0.0000000000
10
-10.6461034327
20
-12.2931930466
30
0.0000000000
10
-10.6463276582
20
-12.2930801310
30
0.0000000000
11
-10.6456546334
21
-12.2934181854
31
0.0000000000
11
-10.6463276582
21
-12.2930801310
31
0.0000000000
0
SPLINE
5
26B
100
AcDbEntity
8
0
100
AcDbSpline
62
9
6
CONTINUOUS
70
0
71
3
72
18
73
14
74
12
42
0.0000001000
43
0.0000001000
44
0.0000000001
12
-0.4665289729
22
0.3012560972
32
0.0000000000
13
-0.0175420432
23
0.5547055890
33
0.0000000000
40
0.0000000000
40
0.0000000000
40
0.0000000000
40
0.0000000000
40
0.0292117282
40
0.1127147865
40
0.1980048733
40
0.2857385381
40
0.3764665962
40
0.4706227484
40
0.5685212985
40
0.6703624027
40
0.7762397228
40
0.8861480425
40
1.0000000000
40
1.0000000000
40
1.0000000000
40
1.0000000000
10
-10.6804054690
20
-12.2735637011
30
0.0000000000
10
-10.6849481748
20
-12.2706302974
30
0.0000000000
10
-10.7022291921
20
-12.2589288255
30
0.0000000000
10
-10.7308082296
20
-12.2358732509
30
0.0000000000
10
-10.7640241184
20
-12.2018306086
30
0.0000000000
10
-10.7940050625
20
-12.1632120371
30
0.0000000000
10
-10.8205884877
20
-12.1202507792
30
0.0000000000
10
-10.8436338165
20
-12.0731996556
30
0.0000000000
10
-10.8630208644
20
-12.0223299272
30
0.0000000000
10
-10.8786490248
20
-11.9679311626
30
0.0000000000
10
-10.8904371147
20
-11.9103099448
30
0.0000000000
10
-10.8983238984
20
-11.8497934122
30
0.0000000000
10
-10.9009095282
20
-11.8084457414
30
0.0000000000
10
-10.9015752602
20
-11.7873943023
30
0.0000000000
11
-10.6804054690
21
-12.2735637011
31
0.0000000000
11
-10.6938374503
21
-12.2644694972
31
0.0000000000
11
-10.7299367737
21
-12.2354093683
31
0.0000000000
11
-10.7630429333
21
-12.2015783056
31
0.0000000000
11
-10.7929677201
21
-12.1631688045
31
0.0000000000
11
-10.8195410916
21
-12.1203992799
31
0.0000000000
11
-10.8426119963
21
-12.0735129918
31
0.0000000000
11
-10.8620492358
21
-12.0227767897
31
0.0000000000
11
-10.8777424233
21
-11.9684790708
31
0.0000000000
11
-10.8896024298
21
-11.9109283125
31
0.0000000000
11
-10.8975617280
21
-11.8504525938
31
0.0000000000
11
-10.9015752602
21
-11.7873943023
31
0.0000000000
0
SPLINE
5
26C
100
AcDbEntity
8
0
100
AcDbSpline
62
7
6
CONTINUOUS
70
0
71
3
72
10
73
6
74
4
42
0.0000001000
43
0.0000001000
44
0.0000000001
12
-0.1289003755
22
5.2342995273
32
0.0000000000
13
-0.0658537437
23
5.2354722932
33
0.0000000000
40
0.0000000000
40
0.0000000000
40
0.0000000000
40
0.0000000000
40
0.3326703967
40
0.6660044840
40
1.0000000000
40
1.0000000000
40
1.0000000000
40
1.0000000000
10
-9.6344139624
20
-9.1917264463
30
0.0000000000
10
-9.6487077421
20
-8.6112942795
30
0.0000000000
10
-9.6749750893
20
-7.4492127176
30
0.0000000000
10
-9.7073964844
20
-5.7042141801
30
0.0000000000
10
-9.7243666582
20
-4.5396467546
30
0.0000000000
10
-9.7316982766
20
-3.9567719978
30
0.0000000000
11
-9.6344139624
21
-9.1917264463
31
0.0000000000
11
-9.6737826030
21
-7.4503469869
31
0.0000000000
11
-9.7062109552
21
-5.7053488503
31
0.0000000000
11
-9.7316982766
21
-3.9567719978
31
0.0000000000
0
SPLINE
5
26D
100
AcDbEntity
8
0
100
AcDbSpline
62
7
6
CONTINUOUS
70
0
71
3
72
18
73
14
74
12
42
0.0000001000
43
0.0000001000
44
0.0000000001
12
-0.8705075984
22
-0.4473222006
32
0.0000000000
13
-0.8749455868
23
0.4374727934
33
0.0000000000
40
0.0000000000
40
0.0000000000
40
0.0000000000
40
0.0000000000
40
0.0476977150
40
0.1323228733
40
0.2180612560
40
0.3055061918
40
0.3951900006
40
0.4875674869
40
0.5830123904
40
0.6818115717
40
0.7841708133
40
0.8902156308
40
1.0000000000
40
1.0000000000
40
1.0000000000
40
1.0000000000
10
4.0906943272
20
-17.4269439005
30
0.0000000000
10
4.0768539194
20
-17.4340559828
30
0.0000000000
10
4.0378439081
20
-17.4525917619
30
0.0000000000
10
3.9711028928
20
-17.4775202147
30
0.0000000000
10
3.8894943420
20
-17.4983382749
30
0.0000000000
10
3.8045414583
20
-17.5108005520
30
0.0000000000
10
3.7166198087
20
-17.5148698068
30
0.0000000000
10
3.6261106269
20
-17.5105467683
30
0.0000000000
10
3.5334009056
20
-17.4978671788
30
0.0000000000
10
3.4388825986
20
-17.4769000392
30
0.0000000000
10
3.3429519607
20
-17.4477457638
30
0.0000000000
10
3.2460156102
20
-17.4105391500
30
0.0000000000
10
3.1820850692
20
-17.3809808036
30
0.0000000000
10
3.1500666194
20
-17.3649715787
30
0.0000000000
11
4.0906943272
21
-17.4269439005
31
0.0000000000
11
4.0485369302
21
-17.4469760445
31
0.0000000000
11
3.9710030004
21
-17.4759818648
31
0.0000000000
11
3.8897530887
21
-17.4967852505
31
0.0000000000
11
3.8051331592
21
-17.5092995875
31
0.0000000000
11
3.7175021261
21
-17.5134738687
31
0.0000000000
11
3.6272335186
21
-17.5092924066
31
0.0000000000
11
3.5347104105
21
-17.4967749745
31
0.0000000000
11
3.4403275523
21
-17.4759768370
31
0.0000000000
11
3.3444859580
21
-17.4469879652
31
0.0000000000
11
3.2475947168
21
-17.4099333167
31
0.0000000000
11
3.1500666194
21
-17.3649715787
31
0.0000000000
0
SPLINE
5
26E
100
AcDbEntity
8
0
100
AcDbSpline
62
9
6
CONTINUOUS
70
0
71
3
72
17
73
13
74
11
42
0.0000001000
43
0.0000001000
44
0.0000000001
12
-0.0320507666
22
-0.2343435693
32
0.0000000000
13
-0.2285353039
23
-0.0618575892
33
0.0000000000
40
0.0000000000
40
0.0000000000
40
0.0000000000
40
0.0000000000
40
0.1202545450
40
0.2364642815
40
0.3483519791
40
0.4558067993
40
0.5589090742
40
0.6579513827
40
0.7534509560
40
0.8461464470
40
0.9369716120
40
1.0000000000
40
1.0000000000
40
1.0000000000
40
1.0000000000
10
6.8839711683
20
-20.6268592934
30
0.0000000000
10
6.8826864182
20
-20.6362529198
30
0.0000000000
10
6.8793996482
20
-20.6546315893
30
0.0000000000
10
6.8721742020
20
-20.6811673570
30
0.0000000000
10
6.8628048394
20
-20.7059551078
30
0.0000000000
10
6.8513875774
20
-20.7287240924
30
0.0000000000
10
6.8380384988
20
-20.7492264435
30
0.0000000000
10
6.8228937160
20
-20.7672345840
30
0.0000000000
10
6.8061096332
20
-20.7825433567
30
0.0000000000
10
6.7878644199
20
-20.7949718892
30
0.0000000000
10
6.7702847892
20
-20.8034404662
30
0.0000000000
10
6.7587349374
20
-20.8072437575
30
0.0000000000
10
6.7539335335
20
-20.8085433522
30
0.0000000000
11
6.8839711683
21
-20.6268592934
31
0.0000000000
11
6.8789249898
21
-20.6548513152
31
0.0000000000
11
6.8716594323
21
-20.6813601993
31
0.0000000000
11
6.8622537923
21
-20.7060966273
31
0.0000000000
11
6.8508107231
21
-20.7287906255
31
0.0000000000
11
6.8374551143
21
-20.7491945115
31
0.0000000000
11
6.8223327293
21
-20.7670855968
31
0.0000000000
11
6.8056086141
21
-20.7822686181
31
0.0000000000
11
6.7874652957
21
-20.7945778676
31
0.0000000000
11
6.7681007906
21
-20.8038790020
31
0.0000000000
11
6.7539335335
21
-20.8085433522
31
0.0000000000
0
SPLINE
5
26F
100
AcDbEntity
8
0
100
AcDbSpline
62
9
6
CONTINUOUS
70
0
71
3
72
25
73
21
74
19
42
0.0000001000
43
0.0000001000
44
0.0000000001
12
0.0214374992
22
-0.6583679681
32
0.0000000000
13
0.6358507029
23
0.1720518280
33
0.0000000000
40
0.0000000000
40
0.0000000000
40
0.0000000000
40
0.0000000000
40
0.0672071087
40
0.1321885777
40
0.1948958194
40
0.2553409893
40
0.3135933384
40
0.3697826778
40
0.4241026221
40
0.4768121847
40
0.5282329083
40
0.5787410886
40
0.6287547909
40
0.6787159462
40
0.7290689823
40
0.7802392119
40
0.8326143912
40
0.8865301962
40
0.9422600826
40
1.0000000000
40
1.0000000000
40
1.0000000000
40
1.0000000000
10
6.4681827862
20
-20.2539845781
30
0.0000000000
10
6.4686630369
20
-20.2687335806
30
0.0000000000
10
6.4705295495
20
-20.2977237396
30
0.0000000000
10
6.4762187186
20
-20.3401727423
30
0.0000000000
10
6.4847224107
20
-20.3806386359
30
0.0000000000
10
6.4959962132
20
-20.4188883085
30
0.0000000000
10
6.5099813548
20
-20.4547056555
30
0.0000000000
10
6.5266048108
20
-20.4878861119
30
0.0000000000
10
6.5457790112
20
-20.5182377706
30
0.0000000000
10
6.5674012762
20
-20.5455817039
30
0.0000000000
10
6.5913528548
20
-20.5697530856
30
0.0000000000
10
6.6174978772
20
-20.5906030546
30
0.0000000000
10
6.6456830360
20
-20.6080016458
30
0.0000000000
10
6.6757387316
20
-20.6218411480
30
0.0000000000
10
6.7074817996
20
-20.6320388503
30
0.0000000000
10
6.7407194347
20
-20.6385381883
30
0.0000000000
10
6.7752525030
20
-20.6413082450
30
0.0000000000
10
6.8108792563
20
-20.6403413643
30
0.0000000000
10
6.8473883318
20
-20.6356534537
30
0.0000000000
10
6.8717331793
20
-20.6301707128
30
0.0000000000
10
6.8839711683
20
-20.6268592934
30
0.0000000000
11
6.4681827862
21
-20.2539845781
31
0.0000000000
11
6.4710759330
21
-20.2981603990
31
0.0000000000
11
6.4768145265
21
-20.3405783725
31
0.0000000000
11
6.4853657668
21
-20.3809898600
31
0.0000000000
11
6.4966809936
21
-20.4191644560
31
0.0000000000
11
6.5106959358
21
-20.4548852753
31
0.0000000000
11
6.5273310033
21
-20.4879492566
31
0.0000000000
11
6.5464915961
21
-20.5181682065
31
0.0000000000
11
6.5680687937
21
-20.5453702307
31
0.0000000000
11
6.5919399616
21
-20.5694006148
31
0.0000000000
11
6.6179693786
21
-20.5901226255
31
0.0000000000
11
6.6460090393
21
-20.6074183456
31
0.0000000000
11
6.6758995688
21
-20.6211893755
31
0.0000000000
11
6.7074710032
21
-20.6313573151
31
0.0000000000
11
6.7405436693
21
-20.6378642370
31
0.0000000000
11
6.7749295511
21
-20.6406731151
31
0.0000000000
11
6.8104332647
21
-20.6397678940
31
0.0000000000
11
6.8468523527
21
-20.6351537734
31
0.0000000000
11
6.8839711683
21
-20.6268592934
31
0.0000000000
0
SPLINE
5
270
100
AcDbEntity
8
0
100
AcDbSpline
62
9
6
CONTINUOUS
70
0
71
3
72
19
73
15
74
13
42
0.0000001000
43
0.0000001000
44
0.0000000001
12
0.0194243093
22
-0.5996303723
32
0.0000000000
13
0.5358907408
23
-0.2705483130
33
0.0000000000
40
0.0000000000
40
0.0000000000
40
0.0000000000
40
0.0000000000
40
0.1054127041
40
0.2072900841
40
0.3055717286
40
0.4002725095
40
0.4914971769
40
0.5794461196
40
0.6644207910
40
0.7468266283
40
0.8271689861
40
0.9060411082
40
0.9841038875
40
1.0000000000
40
1.0000000000
40
1.0000000000
40
1.0000000000
10
6.0478109576
20
-20.2620874112
30
0.0000000000
10
6.0484934806
20
-20.2831569642
30
0.0000000000
10
6.0511460708
20
-20.3245620022
30
0.0000000000
10
6.0592317075
20
-20.3851831774
30
0.0000000000
10
6.0713164993
20
-20.4429570854
30
0.0000000000
10
6.0873376879
20
-20.4975550916
30
0.0000000000
10
6.1072118678
20
-20.5486688704
30
0.0000000000
10
6.1308353574
20
-20.5960066809
30
0.0000000000
10
6.1580839386
20
-20.6392948955
30
0.0000000000
10
6.1888120134
20
-20.6782784177
30
0.0000000000
10
6.2228511956
20
-20.7127221911
30
0.0000000000
10
6.2600087071
20
-20.7424138140
30
0.0000000000
10
6.2894834388
20
-20.7606277628
30
0.0000000000
10
6.3061620386
20
-20.7693096653
30
0.0000000000
10
6.3090015651
20
-20.7707432208
30
0.0000000000
11
6.0478109576
21
-20.2620874112
31
0.0000000000
11
6.0519237820
21
-20.3251953488
31
0.0000000000
11
6.0600799872
21
-20.3857695210
31
0.0000000000
11
6.0722334035
21
-20.4434669842
31
0.0000000000
11
6.0883148300
21
-20.4979588226
31
0.0000000000
11
6.1082329348
21
-20.5489354574
31
0.0000000000
11
6.1318745993
21
-20.5961071254
31
0.0000000000
11
6.1591053796
21
-20.6392053544
31
0.0000000000
11
6.1897704872
21
-20.6779850159
31
0.0000000000
11
6.2236956730
21
-20.7122255916
31
0.0000000000
11
6.2606880715
21
-20.7417322581
31
0.0000000000
11
6.3005373567
21
-20.7663371092
31
0.0000000000
11
6.3090015651
21
-20.7707432208
31
0.0000000000
0
SPLINE
5
271
100
AcDbEntity
8
0
100
AcDbSpline
62
9
6
CONTINUOUS
70
0
71
3
72
8
73
4
74
2
42
0.0000001000
43
0.0000001000
44
0.0000000001
12
0.0003477608
22
-0.0001755696
32
0.0000000000
13
0.0003479388
23
-0.0001752169
33
0.0000000000
40
0.0000000000
40
0.0000000000
40
0.0000000000
40
0.0000000000
40
1.0000000000
40
1.0000000000
40
1.0000000000
40
1.0000000000
10
6.3090015651
20
-20.7707432208
30
0.0000000000
10
6.3091174854
20
-20.7708017440
30
0.0000000000
10
6.3092334353
20
-20.7708602084
30
0.0000000000
10
6.3093494149
20
-20.7709186140
30
0.0000000000
11
6.3090015651
21
-20.7707432208
31
0.0000000000
11
6.3093494149
21
-20.7709186140
31
0.0000000000
0
SPLINE
5
272
100
AcDbEntity
8
0
100
AcDbSpline
62
9
6
CONTINUOUS
70
0
71
3
72
8
73
4
74
2
42
0.0000001000
43
0.0000001000
44
0.0000000001
12
0.0009619553
22
-0.0004844267
32
0.0000000000
13
0.0009633101
23
-0.0004817289
33
0.0000000000
40
0.0000000000
40
0.0000000000
40
0.0000000000
40
0.0000000000
40
1.0000000000
40
1.0000000000
40
1.0000000000
40
1.0000000000
10
6.3093494149
20
-20.7709186140
30
0.0000000000
10
6.3096700667
20
-20.7710800896
30
0.0000000000
10
6.3099909449
20
-20.7712411158
30
0.0000000000
10
6.3103120483
20
-20.7714016921
30
0.0000000000
11
6.3093494149
21
-20.7709186140
31
0.0000000000
11
6.3103120483
21
-20.7714016921
31
0.0000000000
0
SPLINE
5
273
100
AcDbEntity
8
0
100
AcDbSpline
62
9
6
CONTINUOUS
70
0
71
3
72
21
73
17
74
15
42
0.0000001000
43
0.0000001000
44
0.0000000001
12
-0.3833377453
22
-0.2029013782
32
0.0000000000
13
-0.3880585741
23
0.1937197444
33
0.0000000000
40
0.0000000000
40
0.0000000000
40
0.0000000000
40
0.0000000000
40
0.0642415575
40
0.1319216987
40
0.2025849637
40
0.2756932738
40
0.3506462331
40
0.4267991453
40
0.5034796031
40
0.5800032713
40
0.6556893441
40
0.7298760973
40
0.8019369741
40
0.8712977388
40
0.9374554150
40
1.0000000000
40
1.0000000000
40
1.0000000000
40
1.0000000000
10
6.4681827862
20
-20.2539845781
30
0.0000000000
10
6.4599740482
20
-20.2583294783
30
0.0000000000
10
6.4427102195
20
-20.2664974271
30
0.0000000000
10
6.4153177846
20
-20.2769346845
30
0.0000000000
10
6.3860290051
20
-20.2857778931
30
0.0000000000
10
6.3552019926
20
-20.2929184445
30
0.0000000000
10
6.3232109258
20
-20.2982697414
30
0.0000000000
10
6.2904459333
20
-20.3017662628
30
0.0000000000
10
6.2573067399
20
-20.3033652498
30
0.0000000000
10
6.2241979014
20
-20.3030471427
30
0.0000000000
10
6.1915235549
20
-20.3008159127
30
0.0000000000
10
6.1596821489
20
-20.2966988995
30
0.0000000000
10
6.1290617302
20
-20.2907465487
30
0.0000000000
10
6.1000334265
20
-20.2830308161
30
0.0000000000
10
6.0729519052
20
-20.2736463297
30
0.0000000000
10
6.0559012929
20
-20.2661261103
30
0.0000000000
10
6.0478109721
20
-20.2620874033
30
0.0000000000
11
6.4681827862
21
-20.2539845781
31
0.0000000000
11
6.4430241130
21
-20.2659593427
31
0.0000000000
11
6.4156119385
21
-20.2764598557
31
0.0000000000
11
6.3862833822
21
-20.2853569801
31
0.0000000000
11
6.3553991314
21
-20.2925412974
31
0.0000000000
11
6.3233390059
21
-20.2979244538
31
0.0000000000
11
6.2904972863
21
-20.3014402464
31
0.0000000000
11
6.2572778654
21
-20.3030454373
31
0.0000000000
11
6.2240892812
21
-20.3027202857
31
0.0000000000
11
6.1913396925
21
-20.3004687903
31
0.0000000000
11
6.1594318589
21
-20.2963186404
31
0.0000000000
11
6.1287581884
21
-20.2903208752
31
0.0000000000
11
6.0996959107
21
-20.2825492563
31
0.0000000000
11
6.0726024387
21
-20.2730993602
31
0.0000000000
11
6.0478109721
21
-20.2620874033
31
0.0000000000
0
SPLINE
5
274
100
AcDbEntity
8
0
100
AcDbSpline
62
9
6
CONTINUOUS
70
0
71
3
72
17
73
13
74
11
42
0.0000001000
43
0.0000001000
44
0.0000000001
12
-0.8948777631
22
-28.3511445247
32
0.0000000000
13
0.9229828336
23
-28.3502434691
33
0.0000000000
40
0.0000000000
40
0.0000000000
40
0.0000000000
40
0.0000000000
40
0.1013803815
40
0.2024591887
40
0.3032343786
40
0.4037039693
40
0.5038660344
40
0.6037187036
40
0.7032601633
40
0.8024886564
40
0.9014024836
40
1.0000000000
40
1.0000000000
40
1.0000000000
40
1.0000000000
10
6.4681827862
20
8.1064748216
30
0.0000000000
10
6.4379417698
20
7.1483915387
30
0.0000000000
10
6.3834877980
20
5.2348820919
30
0.0000000000
10
6.3198527764
20
2.3684627312
30
0.0000000000
10
6.2743884119
20
-0.4896910304
30
0.0000000000
10
6.2470974657
20
-3.3394076846
30
0.0000000000
10
6.2379815555
20
-6.1805181281
30
0.0000000000
10
6.2470412365
20
-9.0128533289
30
0.0000000000
10
6.2742759748
20
-11.8362447592
30
0.0000000000
10
6.3196841761
20
-14.6505249301
30
0.0000000000
10
6.3832630945
20
-17.4555247993
30
0.0000000000
10
6.4378481811
20
-19.3222300465
30
0.0000000000
10
6.4681827862
20
-20.2539845781
30
0.0000000000
11
6.4681827862
21
8.1064748216
31
0.0000000000
11
6.3864073681
21
5.2319564889
31
0.0000000000
11
6.3227992171
21
2.3655351095
31
0.0000000000
11
6.2773621219
21
-0.4926186145
31
0.0000000000
11
6.2500987842
21
-3.3423346691
31
0.0000000000
11
6.2410108248
21
-6.1834435537
31
0.0000000000
11
6.2500987838
21
-9.0157762982
31
0.0000000000
11
6.2773621211
21
-11.8391644538
31
0.0000000000
11
6.3227992159
21
-14.6534400853
31
0.0000000000
11
6.3864073665
21
-17.4584357876
31
0.0000000000
11
6.4681827862
21
-20.2539845781
31
0.0000000000
0
SPLINE
5
275
100
AcDbEntity
8
0
100
AcDbSpline
62
9
6
CONTINUOUS
70
0
71
3
72
17
73
13
74
11
42
0.0000001000
43
0.0000001000
44
0.0000000001
12
-0.8954989143
22
-28.3711714637
32
0.0000000000
13
0.9236238526
23
-28.3702697820
33
0.0000000000
40
0.0000000000
40
0.0000000000
40
0.0000000000
40
0.0000000000
40
0.1013804046
40
0.2024592239
40
0.3032344223
40
0.4037040179
40
0.5038660840
40
0.6037187504
40
0.7032602034
40
0.8024886856
40
0.9014024978
40
1.0000000000
40
1.0000000000
40
1.0000000000
40
1.0000000000
10
6.0478109576
20
8.1184052775
30
0.0000000000
10
6.0175489436
20
7.1596449967
30
0.0000000000
10
5.9630571680
20
5.2447835395
30
0.0000000000
10
5.8993779661
20
2.3763389763
30
0.0000000000
10
5.8538820387
20
-0.4838339683
30
0.0000000000
10
5.8265721459
20
-3.3355637357
30
0.0000000000
10
5.8174499070
20
-6.1786811032
30
0.0000000000
10
5.8265158774
20
-9.0130169194
30
0.0000000000
10
5.8537695229
20
-11.8384025374
30
0.0000000000
10
5.8992092478
20
-14.6546703502
30
0.0000000000
10
5.9628323067
20
-17.4616512446
30
0.0000000000
10
6.0174552894
20
-19.3296748319
30
0.0000000000
10
6.0478109576
20
-20.2620874112
30
0.0000000000
11
6.0478109576
21
8.1184052775
31
0.0000000000
11
5.9659787615
21
5.2418557680
31
0.0000000000
11
5.9023264516
21
2.3734092541
31
0.0000000000
11
5.8568578124
21
-0.4867636542
31
0.0000000000
11
5.8295755477
21
-3.3384928230
31
0.0000000000
11
5.8204812793
21
-6.1816086319
31
0.0000000000
11
5.8295755477
21
-9.0159419914
31
0.0000000000
11
5.8568578124
21
-11.8413243340
31
0.0000000000
11
5.9023264516
21
-14.6575876055
31
0.0000000000
11
5.9659787615
21
-17.4645642829
31
0.0000000000
11
6.0478109576
21
-20.2620874112
31
0.0000000000
0
SPLINE
5
276
100
AcDbEntity
8
0
100
AcDbSpline
62
9
6
CONTINUOUS
70
0
71
3
72
25
73
21
74
19
42
0.0000001000
43
0.0000001000
44
0.0000000001
12
-1.0614002785
22
-0.7443406020
32
0.0000000000
13
-0.0406884264
23
-1.2957460920
33
0.0000000000
40
0.0000000000
40
0.0000000000
40
0.0000000000
40
0.0000000000
40
0.0508455009
40
0.1031398426
40
0.1567620015
40
0.2115687026
40
0.2674006198
40
0.3240842554
40
0.3814344940
40
0.4392579108
40
0.4973552871
40
0.5555238909
40
0.6135601252
40
0.6712621730
40
0.7284322534
40
0.7848790809
40
0.8404210908
40
0.8948889016
40
0.9481270347
40
1.0000000000
40
1.0000000000
40
1.0000000000
40
1.0000000000
10
6.6387373160
20
9.2262150692
30
0.0000000000
10
6.6207481730
20
9.2135996123
30
0.0000000000
10
6.5850671766
20
9.1868363075
30
0.0000000000
10
6.5333558178
20
9.1430228817
30
0.0000000000
10
6.4829486213
20
9.0951921731
30
0.0000000000
10
6.4341325925
20
9.0436167795
30
0.0000000000
10
6.3871825484
20
8.9885882223
30
0.0000000000
10
6.3423639901
20
8.9304181503
30
0.0000000000
10
6.2999303326
20
8.8694359551
30
0.0000000000
10
6.2601217140
20
8.8059870804
30
0.0000000000
10
6.2231634275
20
8.7404308871
30
0.0000000000
10
6.1892646920
20
8.6731386873
30
0.0000000000
10
6.1586174239
20
8.6044916011
30
0.0000000000
10
6.1313951381
20
8.5348783400
30
0.0000000000
10
6.1077519974
20
8.4646930802
30
0.0000000000
10
6.0878218988
20
8.3943329773
30
0.0000000000
10
6.0717177422
20
8.3241961893
30
0.0000000000
10
6.0595309146
20
8.2546783736
30
0.0000000000
10
6.0513308001
20
8.1861752924
30
0.0000000000
10
6.0485145008
20
8.1408100082
30
0.0000000000
10
6.0478109576
20
8.1184052775
30
0.0000000000
11
6.6387373160
21
9.2262150692
31
0.0000000000
11
6.5859713544
21
9.1867108360
31
0.0000000000
11
6.5342132472
21
9.1429264897
31
0.0000000000
11
6.4837561175
21
9.0951101078
31
0.0000000000
11
6.4348876713
21
9.0435343494
31
0.0000000000
11
6.3878855808
21
8.9884923940
31
0.0000000000
11
6.3430170257
21
8.9302971886
31
0.0000000000
11
6.3005373377
21
8.8692799971
31
0.0000000000
11
6.2606880536
21
8.8057879060
31
0.0000000000
11
6.2236956569
21
8.7401819162
31
0.0000000000
11
6.1897704725
21
8.6728351799
31
0.0000000000
11
6.1591053668
21
8.6041307319
31
0.0000000000
11
6.1318745891
21
8.5344591338
31
0.0000000000
11
6.1082329257
21
8.4642165593
31
0.0000000000
11
6.0883148214
21
8.3938026806
31
0.0000000000
11
6.0722333975
21
8.3236176587
31
0.0000000000
11
6.0600799828
21
8.2540601874
31
0.0000000000
11
6.0519237787
21
8.1855267128
31
0.0000000000
11
6.0478109576
21
8.1184052775
31
0.0000000000
0
SPLINE
5
277
100
AcDbEntity
8
0
100
AcDbSpline
62
9
6
CONTINUOUS
70
0
71
3
72
22
73
18
74
16
42
0.0000001000
43
0.0000001000
44
0.0000000001
12
-0.0679248648
22
0.4310476715
32
0.0000000000
13
-0.3870029933
23
0.2016049739
33
0.0000000000
40
0.0000000000
40
0.0000000000
40
0.0000000000
40
0.0000000000
40
0.0593338808
40
0.1218514751
40
0.1871755219
40
0.2548603331
40
0.3244073433
40
0.3952788040
40
0.4669102830
40
0.5387224395
40
0.6101324301
40
0.6805652296
40
0.7494651413
40
0.8163078015
40
0.8806130685
40
0.9419593334
40
1.0000000000
40
1.0000000000
40
1.0000000000
40
1.0000000000
10
6.8839711683
20
8.8808717102
30
0.0000000000
10
6.8826277530
20
8.8893969539
30
0.0000000000
10
6.8791315124
20
8.9067942926
30
0.0000000000
10
6.8718311922
20
8.9330440059
30
0.0000000000
10
6.8624066396
20
8.9598982362
30
0.0000000000
10
6.8509598141
20
8.9870651294
30
0.0000000000
10
6.8376140822
20
9.0142518261
30
0.0000000000
10
6.8225137566
20
9.0411637328
30
0.0000000000
10
6.8058223361
20
9.0675091662
30
0.0000000000
10
6.7877207635
20
9.0930023730
30
0.0000000000
10
6.7684053730
20
9.1173668793
30
0.0000000000
10
6.7480856926
20
9.1403385776
30
0.0000000000
10
6.7269819417
20
9.1616687571
30
0.0000000000
10
6.7053227774
20
9.1811267070
30
0.0000000000
10
6.6833413704
20
9.1985029064
30
0.0000000000
10
6.6612765740
20
9.2136090225
30
0.0000000000
10
6.6462246199
20
9.2223146402
30
0.0000000000
10
6.6387373160
20
9.2262150692
30
0.0000000000
11
6.8839711683
21
8.8808717102
31
0.0000000000
11
6.8789249900
21
8.9062665323
31
0.0000000000
11
6.8716594330
21
8.9325618277
31
0.0000000000
11
6.8622537934
21
8.9594706091
31
0.0000000000
11
6.8508107246
21
8.9866991939
31
0.0000000000
11
6.8374551163
21
9.0139504089
31
0.0000000000
11
6.8223327318
21
9.0409268340
31
0.0000000000
11
6.8056086167
21
9.0673340483
31
0.0000000000
11
6.7874652985
21
9.0928838430
31
0.0000000000
11
6.7681007934
21
9.1172973673
31
0.0000000000
11
6.7477264458
21
9.1403081717
31
0.0000000000
11
6.7265646217
21
9.1616651159
31
0.0000000000
11
6.7048462816
21
9.1811351100
31
0.0000000000
11
6.6828084595
21
9.1985056581
31
0.0000000000
11
6.6606916767
21
9.2135871778
31
0.0000000000
11
6.6387373160
21
9.2262150692
31
0.0000000000
0
SPLINE
5
278
100
AcDbEntity
8
0
100
AcDbSpline
62
7
6
CONTINUOUS
70
0
71
3
72
21
73
17
74
15
42
0.0000001000
43
0.0000001000
44
0.0000000001
12
-0.0167412073
22
1.3309513185
32
0.0000000000
13
1.1976061128
23
0.5823905728
33
0.0000000000
40
0.0000000000
40
0.0000000000
40
0.0000000000
40
0.0000000000
40
0.0882084852
40
0.1738560086
40
0.2568698495
40
0.3372164409
40
0.4149071526
40
0.4900012122
40
0.5626127684
40
0.6329087494
40
0.7011185338
40
0.7675255972
40
0.8324727210
40
0.8963484131
40
0.9595820980
40
1.0000000000
40
1.0000000000
40
1.0000000000
40
1.0000000000
10
-9.7316982766
20
-3.9567719978
30
0.0000000000
10
-9.7321905154
20
-3.9176382646
30
0.0000000000
10
-9.7311207299
20
-3.8404623411
30
0.0000000000
10
-9.7230741726
20
-3.7267149053
30
0.0000000000
10
-9.7086407859
20
-3.6171079322
30
0.0000000000
10
-9.6878787521
20
-3.5121116267
30
0.0000000000
10
-9.6608723140
20
-3.4121722383
30
0.0000000000
10
-9.6277308352
20
-3.3177162050
30
0.0000000000
10
-9.5885888154
20
-3.2291492109
30
0.0000000000
10
-9.5436050066
20
-3.1468538338
30
0.0000000000
10
-9.4929638771
20
-3.0711912826
30
0.0000000000
10
-9.4368748903
20
-3.0024976851
30
0.0000000000
10
-9.3755755515
20
-2.9410850061
30
0.0000000000
10
-9.3093306478
20
-2.8872359443
30
0.0000000000
10
-9.2468699149
20
-2.8466791359
30
0.0000000000
10
-9.2061868508
20
-2.8251279320
30
0.0000000000
10
-9.1900519420
20
-2.8172815969
30
0.0000000000
11
-9.7316982766
21
-3.9567719978
31
0.0000000000
11
-9.7299784198
21
-3.8393741082
31
0.0000000000
11
-9.7218331134
21
-3.7256637660
31
0.0000000000
11
-9.7072979396
21
-3.6161278291
31
0.0000000000
11
-9.6864363540
21
-3.5112364022
31
0.0000000000
11
-9.6593391636
21
-3.4114389957
31
0.0000000000
11
-9.6261245413
21
-3.3171645044
31
0.0000000000
11
-9.5869361568
21
-3.2288157031
31
0.0000000000
11
-9.5419453163
21
-3.1467743615
31
0.0000000000
11
-9.4913459390
21
-3.0713905176
31
0.0000000000
11
-9.4353590935
21
-3.0029906560
31
0.0000000000
11
-9.3742260949
21
-2.9418672996
31
0.0000000000
11
-9.3082131516
21
-2.8882850329
31
0.0000000000
11
-9.2376049229
21
-2.8424738414
31
0.0000000000
11
-9.1900519420
21
-2.8172815969
31
0.0000000000
0
SPLINE
5
279
100
AcDbEntity
8
0
100
AcDbSpline
62
9
6
CONTINUOUS
70
0
71
3
72
25
73
21
74
19
42
0.0000001000
43
0.0000001000
44
0.0000000001
12
0.0396252096
22
1.2935995932
32
0.0000000000
13
1.0448163649
23
0.7637596667
33
0.0000000000
40
0.0000000000
40
0.0000000000
40
0.0000000000
40
0.0000000000
40
0.0519939348
40
0.1053794786
40
0.1600121528
40
0.2157278090
40
0.2723487477
40
0.3296854457
40
0.3875390255
40
0.4457044897
40
0.5039731863
40
0.5621350739
40
0.6199813797
40
0.6773072651
40
0.7339141310
40
0.7896121660
40
0.8442236992
40
0.8975858099
40
0.9495523081
40
1.0000000000
40
1.0000000000
40
1.0000000000
40
1.0000000000
10
-10.9015752602
20
16.5930983864
30
0.0000000000
10
-10.9008885033
20
16.6155181640
30
0.0000000000
10
-10.8981390034
20
16.6609255351
30
0.0000000000
10
-10.8901369060
20
16.7295218037
30
0.0000000000
10
-10.8782449002
20
16.7991812900
30
0.0000000000
10
-10.8625305917
20
16.8695075373
30
0.0000000000
10
-10.8430830906
20
16.9401037086
30
0.0000000000
10
-10.8200125149
20
17.0105702576
30
0.0000000000
10
-10.7934494935
20
17.0805083730
30
0.0000000000
10
-10.7635444445
20
17.1495219868
30
0.0000000000
10
-10.7304666817
20
17.2172202682
30
0.0000000000
10
-10.6944034841
20
17.2832197658
30
0.0000000000
10
-10.6555590200
20
17.3471466380
30
0.0000000000
10
-10.6141531463
20
17.4086388145
30
0.0000000000
10
-10.5704202015
20
17.4673479762
30
0.0000000000
10
-10.5246074795
20
17.5229417211
30
0.0000000000
10
-10.4769740364
20
17.5751052448
30
0.0000000000
10
-10.4277880343
20
17.6235438300
30
0.0000000000
10
-10.3773293953
20
17.6679814556
30
0.0000000000
10
-10.3424846353
20
17.6951979784
30
0.0000000000
10
-10.3249151106
20
17.7080412825
30
0.0000000000
11
-10.9015752602
21
16.5930983864
31
0.0000000000
11
-10.8975617309
21
16.6602694676
31
0.0000000000
11
-10.8896024342
21
16.7289013958
31
0.0000000000
11
-10.8777424287
21
16.7986055718
31
0.0000000000
11
-10.8620492437
21
16.8689847132
31
0.0000000000
11
-10.8426120045
21
16.9396390244
31
0.0000000000
11
-10.8195411006
21
17.0101669786
31
0.0000000000
11
-10.7929677314
21
17.0801672810
31
0.0000000000
11
-10.7630429463
21
17.1492418893
31
0.0000000000
11
-10.7299367877
21
17.2169981386
31
0.0000000000
11
-10.6938374660
21
17.2830506658
31
0.0000000000
11
-10.6549502283
21
17.3470237801
31
0.0000000000
11
-10.6134960902
21
17.4085537465
31
0.0000000000
11
-10.5697107572
21
17.4672905630
31
0.0000000000
11
-10.5238433977
21
17.5228998839
31
0.0000000000
11
-10.4761547376
21
17.5750655353
31
0.0000000000
11
-10.4269157552
21
17.6234909910
31
0.0000000000
11
-10.3764071871
21
17.6679001067
31
0.0000000000
11
-10.3249151106
21
17.7080412825
31
0.0000000000
0
SPLINE
5
27A
100
AcDbEntity
8
0
100
AcDbSpline
62
9
6
CONTINUOUS
70
0
71
3
72
17
73
13
74
11
42
0.0000001000
43
0.0000001000
44
0.0000000001
12
-0.8924744471
22
28.3709426488
32
0.0000000000
13
0.8643464243
23
28.3718135247
33
0.0000000000
40
0.0000000000
40
0.0000000000
40
0.0000000000
40
0.0000000000
40
0.0985463822
40
0.1974211751
40
0.2966224600
40
0.3961482592
40
0.4959965380
40
0.5961652054
40
0.6966521148
40
0.7974550638
40
0.8985717954
40
1.0000000000
40
1.0000000000
40
1.0000000000
40
1.0000000000
10
-10.9015752602
20
-11.7873943023
30
0.0000000000
10
-10.9308919695
20
-10.8554430498
30
0.0000000000
10
-10.9836445585
20
-8.9882413071
30
0.0000000000
10
-11.0450849647
20
-6.1823555713
30
0.0000000000
10
-11.0889655580
20
-3.3668712487
30
0.0000000000
10
-11.1152836895
20
-0.5419572996
30
0.0000000000
10
-11.1240378161
20
2.2922186697
30
0.0000000000
10
-11.1152274209
20
5.1354880278
30
0.0000000000
10
-11.0888530391
20
7.9876816201
30
0.0000000000
10
-11.0449162339
20
10.8486301703
30
0.0000000000
10
-10.9834196669
20
13.7181621742
30
0.0000000000
10
-10.9307982955
20
15.6338643510
30
0.0000000000
10
-10.9015752602
20
16.5930983864
30
0.0000000000
11
-10.9015752602
21
-11.7873943023
31
0.0000000000
11
-10.9806016413
21
-8.9912740815
31
0.0000000000
11
-11.0420714778
21
-6.1853886409
31
0.0000000000
11
-11.0859811145
21
-3.3699048705
31
0.0000000000
11
-11.1123279408
21
-0.5449902472
31
0.0000000000
11
-11.1211103902
21
2.2891872028
31
0.0000000000
11
-11.1123279408
21
5.1324589212
31
0.0000000000
11
-11.0859811145
21
7.9846558093
31
0.0000000000
11
-11.0420714778
21
10.8456082188
31
0.0000000000
11
-10.9806016413
21
13.7151459694
31
0.0000000000
11
-10.9015752602
21
16.5930983864
31
0.0000000000
0
SPLINE
5
27B
100
AcDbEntity
8
0
100
AcDbSpline
62
7
6
CONTINUOUS
70
0
71
3
72
8
73
4
74
2
42
0.0000001000
43
0.0000001000
44
0.0000000001
12
0.0328075816
22
-0.0164037908
32
0.0000000000
13
0.0324606368
23
-0.0170909172
33
0.0000000000
40
0.0000000000
40
0.0000000000
40
0.0000000000
40
0.0000000000
40
1.0000000000
40
1.0000000000
40
1.0000000000
40
1.0000000000
10
2.9518342247
20
-8.5298704364
30
0.0000000000
10
2.9627700852
20
-8.5353383667
30
0.0000000000
10
2.9736485202
20
-8.5409232475
30
0.0000000000
10
2.9844687324
20
-8.5466202198
30
0.0000000000
11
2.9518342247
21
-8.5298704364
31
0.0000000000
11
2.9844687324
21
-8.5466202198
31
0.0000000000
0
SPLINE
5
27C
100
AcDbEntity
8
0
100
AcDbSpline
62
7
6
CONTINUOUS
70
0
71
3
72
31
73
27
74
25
42
0.0000001000
43
0.0000001000
44
0.0000000001
12
2.6496392791
22
-1.3950670684
32
0.0000000000
13
0.1415476041
23
-2.9911589940
33
0.0000000000
40
0.0000000000
40
0.0000000000
40
0.0000000000
40
0.0000000000
40
0.0248622590
40
0.0631424548
40
0.1025542613
40
0.1430464333
40
0.1845543508
40
0.2270008128
40
0.2702984024
40
0.3143503047
40
0.3590519785
40
0.4042925716
40
0.4499554785
40
0.4959208818
40
0.5420648348
40
0.5882632608
40
0.6343894476
40
0.6803195841
40
0.7259286820
40
0.7710976075
40
0.8157085404
40
0.8596509217
40
0.9028194973
40
0.9451172852
40
0.9864562638
40
1.0000000000
40
1.0000000000
40
1.0000000000
40
1.0000000000
10
2.9844687324
20
-8.5466202198
30
0.0000000000
10
3.0064274051
20
-8.5581817261
30
0.0000000000
10
3.0615866533
20
-8.5887168301
30
0.0000000000
10
3.1485929798
20
-8.6427219151
30
0.0000000000
10
3.2452107559
20
-8.7104801493
30
0.0000000000
10
3.3406323822
20
-8.7852472255
30
0.0000000000
10
3.4344556758
20
-8.8667038740
30
0.0000000000
10
3.5262833131
20
-8.9545015171
30
0.0000000000
10
3.6157266744
20
-9.0482645059
30
0.0000000000
10
3.7024072046
20
-9.1475916482
30
0.0000000000
10
3.7859581334
20
-9.2520578596
30
0.0000000000
10
3.8660258563
20
-9.3612157627
30
0.0000000000
10
3.9422719577
20
-9.4745982383
30
0.0000000000
10
4.0143738216
20
-9.5917193125
30
0.0000000000
10
4.0820271682
20
-9.7120780239
30
0.0000000000
10
4.1449458388
20
-9.8351581803
30
0.0000000000
10
4.2028647444
20
-9.9604337529
30
0.0000000000
10
4.2555389543
20
-10.0873672282
30
0.0000000000
10
4.3027468178
20
-10.2154165143
30
0.0000000000
10
4.3442889104
20
-10.3440326789
30
0.0000000000
10
4.3799904783
20
-10.4726668543
30
0.0000000000
10
4.4097008257
20
-10.6007687976
30
0.0000000000
10
4.4332946874
20
-10.7277917002
30
0.0000000000
10
4.4506722080
20
-10.8531944449
30
0.0000000000
10
4.4593656470
20
-10.9498286467
30
0.0000000000
10
4.4624248655
20
-11.0045280734
30
0.0000000000
10
4.4630638933
20
-11.0180318962
30
0.0000000000
11
2.9844687324
21
-8.5466202198
31
0.0000000000
11
3.0496187163
21
-8.5826490804
31
0.0000000000
11
3.1470505981
21
-8.6430073484
31
0.0000000000
11
3.2437135290
21
-8.7106866503
31
0.0000000000
11
3.3391940513
21
-8.7853962903
31
0.0000000000
11
3.4330851463
21
-8.8668160231
31
0.0000000000
11
3.5249859385
21
-8.9545958536
31
0.0000000000
11
3.6145052578
21
-9.0483591451
31
0.0000000000
11
3.7012618883
21
-9.1477029913
31
0.0000000000
11
3.7848868456
21
-9.2522005896
31
0.0000000000
11
3.8650250920
21
-9.3614034222
31
0.0000000000
11
3.9413358133
21
-9.4748415549
31
0.0000000000
11
4.0134961184
21
-9.5920289816
31
0.0000000000
11
4.0811989879
21
-9.7124605070
31
0.0000000000
11
4.1441589085
21
-9.8356212608
31
0.0000000000
11
4.2021078092
21
-9.9609793904
31
0.0000000000
11
4.2548020454
21
-10.0880001283
31
0.0000000000
11
4.3020169659
21
-10.2161338916
31
0.0000000000
11
4.3435544891
21
-10.3448348924
31
0.0000000000
11
4.3792378910
21
-10.4735474663
31
0.0000000000
11
4.4089170388
21
-10.6017218382
31
0.0000000000
11
4.4324661656
21
-10.7288072496
31
0.0000000000
11
4.4497857119
21
-10.8542590075
31
0.0000000000
11
4.4608022956
21
-10.9775386898
31
0.0000000000
11
4.4630638933
21
-11.0180318962
31
0.0000000000
0
SPLINE
5
27D
100
AcDbEntity
8
0
100
AcDbSpline
62
7
6
CONTINUOUS
70
0
71
3
72
8
73
4
74
2
42
0.0000001000
43
0.0000001000
44
0.0000000001
12
0.0037877451
22
-0.0800419605
32
0.0000000000
13
0.0009980922
23
-0.0801130855
33
0.0000000000
40
0.0000000000
40
0.0000000000
40
0.0000000000
40
0.0000000000
40
1.0000000000
40
1.0000000000
40
1.0000000000
40
1.0000000000
10
4.4630638933
20
-11.0180318962
30
0.0000000000
10
4.4643264750
20
-11.0447125497
30
0.0000000000
10
4.4651365605
20
-11.0714139619
30
0.0000000000
10
4.4654692579
20
-11.0981183238
30
0.0000000000
11
4.4630638933
21
-11.0180318962
31
0.0000000000
11
4.4654692579
21
-11.0981183238
31
0.0000000000
0
SPLINE
5
27E
100
AcDbEntity
8
0
100
AcDbSpline
62
7
6
CONTINUOUS
70
0
71
3
72
8
73
4
74
2
42
0.0000001000
43
0.0000001000
44
0.0000000001
12
0.0009466844
22
-0.0392693658
32
0.0000000000
13
0.0002438040
23
-0.0392846219
33
0.0000000000
40
0.0000000000
40
0.0000000000
40
0.0000000000
40
0.0000000000
40
1.0000000000
40
1.0000000000
40
1.0000000000
40
1.0000000000
10
4.5595029784
20
-16.2464260419
30
0.0000000000
10
4.5598185399
20
-16.2595158305
30
0.0000000000
10
4.5600187616
20
-16.2726094689
30
0.0000000000
10
4.5601000296
20
-16.2857043428
30
0.0000000000
11
4.5595029784
21
-16.2464260419
31
0.0000000000
11
4.5601000296
21
-16.2857043428
31
0.0000000000
0
SPLINE
5
27F
100
AcDbEntity
8
0
100
AcDbSpline
62
7
6
CONTINUOUS
70
0
71
3
72
8
73
4
74
2
42
0.0000001000
43
0.0000001000
44
0.0000000001
12
0.0004798785
22
-0.0773237794
32
0.0000000000
13
-0.0023678964
23
-0.0772926991
33
0.0000000000
40
0.0000000000
40
0.0000000000
40
0.0000000000
40
0.0000000000
40
1.0000000000
40
1.0000000000
40
1.0000000000
40
1.0000000000
10
4.5601000296
20
-16.2857043428
30
0.0000000000
10
4.5602599892
20
-16.3114789360
30
0.0000000000
10
4.5599590991
20
-16.3372583161
30
0.0000000000
10
4.5591698003
20
-16.3630225491
30
0.0000000000
11
4.5601000296
21
-16.2857043428
31
0.0000000000
11
4.5591698003
21
-16.3630225491
31
0.0000000000
0
SPLINE
5
280
100
AcDbEntity
8
0
100
AcDbSpline
62
7
6
CONTINUOUS
70
0
71
3
72
19
73
15
74
13
42
0.0000001000
43
0.0000001000
44
0.0000000001
12
-0.0341540581
22
-1.1148542336
32
0.0000000000
13
-0.9459699094
23
-0.5916392333
33
0.0000000000
40
0.0000000000
40
0.0000000000
40
0.0000000000
40
0.0000000000
40
0.1013993709
40
0.1995542827
40
0.2944224748
40
0.3860184154
40
0.4744159650
40
0.5597573047
40
0.6422543178
40
0.7221945630
40
0.7999387901
40
0.8759192416
40
0.9506293747
40
1.0000000000
40
1.0000000000
40
1.0000000000
40
1.0000000000
10
4.5591698003
20
-16.3630225491
30
0.0000000000
10
4.5580154003
20
-16.4007043885
30
0.0000000000
10
4.5536874623
20
-16.4747986021
30
0.0000000000
10
4.5407597174
20
-16.5835496075
30
0.0000000000
10
4.5215492393
20
-16.6876714928
30
0.0000000000
10
4.4961306725
20
-16.7867230555
30
0.0000000000
10
4.4646029041
20
-16.8802831332
30
0.0000000000
10
4.4270890166
20
-16.9679520448
30
0.0000000000
10
4.3837358418
20
-17.0493528334
30
0.0000000000
10
4.3347148829
20
-17.1241308624
30
0.0000000000
10
4.2802230577
20
-17.1919553487
30
0.0000000000
10
4.2204848179
20
-17.2525203713
30
0.0000000000
10
4.1628441160
20
-17.2997395996
30
0.0000000000
10
4.1246133203
20
-17.3256412652
30
0.0000000000
10
4.1090456116
20
-17.3353777982
30
0.0000000000
11
4.5591698003
21
-16.3630225491
31
0.0000000000
11
4.5524721921
21
-16.4759039298
31
0.0000000000
11
4.5394381213
21
-16.5845868503
31
0.0000000000
11
4.5201225707
21
-16.6886050328
31
0.0000000000
11
4.4946069096
21
-16.7875140700
31
0.0000000000
11
4.4629992609
21
-16.8808898876
31
0.0000000000
11
4.4254331101
21
-16.9683342208
31
0.0000000000
11
4.3820679141
21
-17.0494728768
31
0.0000000000
11
4.3330871313
21
-17.1239604353
31
0.0000000000
11
4.2786987931
21
-17.1914791098
31
0.0000000000
11
4.2191333948
21
-17.2517420859
31
0.0000000000
11
4.1546438833
21
-17.3044933798
31
0.0000000000
11
4.1090456116
21
-17.3353777982
31
0.0000000000
0
SPLINE
5
281
100
AcDbEntity
8
0
100
AcDbSpline
62
7
6
CONTINUOUS
70
0
71
3
72
9
73
5
74
3
42
0.0000001000
43
0.0000001000
44
0.0000000001
12
-0.0535323195
22
-0.0334807906
32
0.0000000000
13
-0.0561597762
23
-0.0288584677
33
0.0000000000
40
0.0000000000
40
0.0000000000
40
0.0000000000
40
0.0000000000
40
0.4348914072
40
1.0000000000
40
1.0000000000
40
1.0000000000
40
1.0000000000
10
4.1090456116
20
-17.3353777982
30
0.0000000000
10
4.1012853630
20
-17.3402313009
30
0.0000000000
10
4.0832378377
20
-17.3510661617
30
0.0000000000
10
4.0647466701
20
-17.3611307088
30
0.0000000000
10
4.0541678794
20
-17.3665667649
30
0.0000000000
11
4.1090456116
21
-17.3353777982
31
0.0000000000
11
4.0855040293
21
-17.3495095868
31
0.0000000000
11
4.0541678794
21
-17.3665667649
31
0.0000000000
0
SPLINE
5
282
100
AcDbEntity
8
0
100
AcDbSpline
62
7
6
CONTINUOUS
70
0
71
3
72
9
73
5
74
3
42
0.0000001000
43
0.0000001000
44
0.0000000001
12
0.0775734815
22
0.0377236426
32
0.0000000000
13
0.0812496259
23
0.0289676421
33
0.0000000000
40
0.0000000000
40
0.0000000000
40
0.0000000000
40
0.0000000000
40
0.3492710227
40
1.0000000000
40
1.0000000000
40
1.0000000000
40
1.0000000000
10
-9.1542926515
20
-2.8780641046
30
0.0000000000
10
-9.1452612617
20
-2.8736721795
30
0.0000000000
10
-9.1191603297
20
-2.8615976891
30
0.0000000000
10
-9.0924192902
20
-2.8509819215
30
0.0000000000
10
-9.0747954616
20
-2.8446985601
30
0.0000000000
11
-9.1542926515
21
-2.8780641046
31
0.0000000000
11
-9.1269505764
21
-2.8654155902
31
0.0000000000
11
-9.0747954616
21
-2.8446985601
31
0.0000000000
0
SPLINE
5
283
100
AcDbEntity
8
0
100
AcDbSpline
62
7
6
CONTINUOUS
70
0
71
3
72
17
73
13
74
11
42
0.0000001000
43
0.0000001000
44
0.0000000001
12
0.7984819911
22
0.2846799632
32
0.0000000000
13
0.7659325439
23
-0.3626513590
33
0.0000000000
40
0.0000000000
40
0.0000000000
40
0.0000000000
40
0.0000000000
40
0.0332363495
40
0.1338179395
40
0.2361942437
40
0.3409658431
40
0.4486540917
40
0.5596926003
40
0.6744218971
40
0.7930923563
40
0.9158654926
40
1.0000000000
40
1.0000000000
40
1.0000000000
40
1.0000000000
10
-9.0747954616
20
-2.8446985601
30
0.0000000000
10
-9.0659492527
20
-2.8415446526
30
0.0000000000
10
-9.0301063125
20
-2.8294798529
30
0.0000000000
10
-8.9654120020
20
-2.8127129518
30
0.0000000000
10
-8.8793335761
20
-2.7996647016
30
0.0000000000
10
-8.7903928309
20
-2.7950808950
30
0.0000000000
10
-8.6989812769
20
-2.7989678922
30
0.0000000000
10
-8.6054952723
20
-2.8112956514
30
0.0000000000
10
-8.5103355865
20
-2.8319993586
30
0.0000000000
10
-8.4139056852
20
-2.8609814551
30
0.0000000000
10
-8.3279267811
20
-2.8937929826
30
0.0000000000
10
-8.2745595818
20
-2.9176757680
30
0.0000000000
10
-8.2530791294
20
-2.9278462658
30
0.0000000000
11
-9.0747954616
21
-2.8446985601
31
0.0000000000
11
-9.0480946581
21
-2.8357098373
31
0.0000000000
11
-8.9656135709
21
-2.8142652584
31
0.0000000000
11
-8.8798630628
21
-2.8011749846
31
0.0000000000
11
-8.7912129870
21
-2.7964963928
31
0.0000000000
11
-8.7000455171
21
-2.8002506913
31
0.0000000000
11
-8.6067528063
21
-2.8124228601
31
0.0000000000
11
-8.5117366388
21
-2.8329615665
31
0.0000000000
11
-8.4154047980
21
-2.8617796512
31
0.0000000000
11
-8.3181713174
21
-2.8987540636
31
0.0000000000
11
-8.2530791294
21
-2.9278462658
31
0.0000000000
0
SPLINE
5
284
100
AcDbEntity
8
0
100
AcDbSpline
62
7
6
CONTINUOUS
70
0
71
3
72
8
73
4
74
2
42
0.0000001000
43
0.0000001000
44
0.0000000001
12
0.0327985823
22
-0.0155293708
32
0.0000000000
13
0.0324525674
23
-0.0162262837
33
0.0000000000
40
0.0000000000
40
0.0000000000
40
0.0000000000
40
0.0000000000
40
1.0000000000
40
1.0000000000
40
1.0000000000
40
1.0000000000
10
-8.2530791294
20
-2.9278462658
30
0.0000000000
10
-8.2421462687
20
-2.9330227228
30
0.0000000000
10
-8.2312704405
20
-2.9383181038
30
0.0000000000
10
-8.2204529181
20
-2.9437268650
30
0.0000000000
11
-8.2530791294
21
-2.9278462658
31
0.0000000000
11
-8.2204529181
21
-2.9437268650
31
0.0000000000
0
SPLINE
5
285
100
AcDbEntity
8
0
100
AcDbSpline
62
7
6
CONTINUOUS
70
0
71
3
72
15
73
11
74
9
42
0.0000001000
43
0.0000001000
44
0.0000000001
12
0.1266939089
22
0.0934380322
32
0.0000000000
13
0.1406369213
23
-0.0703184606
33
0.0000000000
40
0.0000000000
40
0.0000000000
40
0.0000000000
40
0.0000000000
40
0.0634641934
40
0.1859929588
40
0.3095511160
40
0.4355961790
40
0.5660043581
40
0.7033697538
40
0.8481738220
40
1.0000000000
40
1.0000000000
40
1.0000000000
40
1.0000000000
10
-6.2649967216
20
20.8106234709
30
0.0000000000
10
-6.2623165460
20
20.8126001273
30
0.0000000000
10
-6.2542134887
20
20.8180558111
30
0.0000000000
10
-6.2396231956
20
20.8253348386
30
0.0000000000
10
-6.2208450870
20
20.8309460633
30
0.0000000000
10
-6.2009963134
20
20.8334257076
30
0.0000000000
10
-6.1802899707
20
20.8327978918
30
0.0000000000
10
-6.1589189315
20
20.8290920863
30
0.0000000000
10
-6.1371333264
20
20.8223661886
30
0.0000000000
10
-6.1228659057
20
20.8161012148
30
0.0000000000
10
-6.1157484503
20
20.8125424871
30
0.0000000000
11
-6.2649967216
21
20.8106234709
31
0.0000000000
11
-6.2567094748
21
20.8161972964
31
0.0000000000
11
-6.2394687302
21
20.8247959563
31
0.0000000000
11
-6.2208622477
21
20.8303854078
31
0.0000000000
11
-6.2012027530
21
20.8328942407
31
0.0000000000
11
-6.1807052785
21
20.8323397771
31
0.0000000000
11
-6.1594113135
21
20.8287231938
31
0.0000000000
11
-6.1376342243
21
20.8220775450
31
0.0000000000
11
-6.1157484503
21
20.8125424871
31
0.0000000000
0
SPLINE
5
286
100
AcDbEntity
8
0
100
AcDbSpline
62
7
6
CONTINUOUS
70
0
71
3
72
8
73
4
74
2
42
0.0000001000
43
0.0000001000
44
0.0000000001
12
-0.0154954350
22
-0.0114225511
32
0.0000000000
13
-0.0152842494
23
-0.0117175773
33
0.0000000000
40
0.0000000000
40
0.0000000000
40
0.0000000000
40
0.0000000000
40
1.0000000000
40
1.0000000000
40
1.0000000000
40
1.0000000000
10
-10.4660087588
20
17.7121449683
30
0.0000000000
10
-10.4711739038
20
17.7083374513
30
0.0000000000
10
-10.4763039637
20
17.7044799397
30
0.0000000000
10
-10.4813987135
20
17.7005740806
30
0.0000000000
11
-10.4660087588
21
17.7121449683
31
0.0000000000
11
-10.4813987135
21
17.7005740806
31
0.0000000000
0
SPLINE
5
287
100
AcDbEntity
8
0
100
AcDbSpline
62
7
6
CONTINUOUS
70
0
71
3
72
12
73
8
74
6
42
0.0000001000
43
0.0000001000
44
0.0000000001
12
-0.8815280875
22
-0.6758181700
32
0.0000000000
13
-0.0806636495
23
-1.1075743312
33
0.0000000000
40
0.0000000000
40
0.0000000000
40
0.0000000000
40
0.0000000000
40
0.1490318416
40
0.3790263330
40
0.6136320542
40
0.8466783833
40
1.0000000000
40
1.0000000000
40
1.0000000000
40
1.0000000000
10
-10.4813987135
20
17.7005740806
30
0.0000000000
10
-10.5251906316
20
17.6670012718
30
0.0000000000
10
-10.6299298979
20
17.5725323580
30
0.0000000000
10
-10.7706846490
20
17.3931374960
30
0.0000000000
10
-10.8916633747
20
17.1638347435
30
0.0000000000
10
-10.9618493576
20
16.9441027396
30
0.0000000000
10
-10.9829004032
20
16.8020091952
30
0.0000000000
10
-10.9870228969
20
16.7454041662
30
0.0000000000
11
-10.4813987135
21
17.7005740806
31
0.0000000000
11
-10.6048051838
21
17.5901854830
31
0.0000000000
11
-10.7632544179
21
17.3903490675
31
0.0000000000
11
-10.8848269453
21
17.1603598027
31
0.0000000000
11
-10.9626313301
21
16.9139358654
31
0.0000000000
11
-10.9870228969
21
16.7454041662
31
0.0000000000
0
SPLINE
5
288
100
AcDbEntity
8
0
100
AcDbSpline
62
7
6
CONTINUOUS
70
0
71
3
72
8
73
4
74
2
42
0.0000001000
43
0.0000001000
44
0.0000000001
12
-0.0034411528
22
-0.0472496908
32
0.0000000000
13
-0.0014324773
23
-0.0473105004
33
0.0000000000
40
0.0000000000
40
0.0000000000
40
0.0000000000
40
0.0000000000
40
1.0000000000
40
1.0000000000
40
1.0000000000
40
1.0000000000
10
-10.9870228969
20
16.7454041662
30
0.0000000000
10
-10.9881699479
20
16.7296542693
30
0.0000000000
10
-10.9889894290
20
16.7138874693
30
0.0000000000
10
-10.9894669214
20
16.6981173025
30
0.0000000000
11
-10.9870228969
21
16.7454041662
31
0.0000000000
11
-10.9894669214
21
16.6981173025
31
0.0000000000
0
SPLINE
5
289
100
AcDbEntity
8
0
100
AcDbSpline
62
7
6
CONTINUOUS
70
0
71
3
72
8
73
4
74
2
42
0.0000001000
43
0.0000001000
44
0.0000000001
12
-0.0943953446
22
-3.0985261056
32
0.0000000000
13
-0.0743166535
23
-3.0991212258
33
0.0000000000
40
0.0000000000
40
0.0000000000
40
0.0000000000
40
0.0000000000
40
1.0000000000
40
1.0000000000
40
1.0000000000
40
1.0000000000
10
-10.9894618263
20
16.6982040425
30
0.0000000000
10
-11.0209269411
20
15.6653620073
30
0.0000000000
10
-11.0490628551
20
14.6324078668
30
0.0000000000
10
-11.0738350729
20
13.5993674582
30
0.0000000000
11
-10.9894618263
21
16.6982040425
31
0.0000000000
11
-11.0738350729
21
13.5993674582
31
0.0000000000
0
SPLINE
5
28A
100
AcDbEntity
8
0
100
AcDbSpline
62
7
6
CONTINUOUS
70
0
71
3
72
10
73
6
74
4
42
0.0000001000
43
0.0000001000
44
0.0000000001
12
-0.5339992441
22
-22.2686075648
32
0.0000000000
13
0.5478097415
23
-22.2682917980
33
0.0000000000
40
0.0000000000
40
0.0000000000
40
0.0000000000
40
0.0000000000
40
0.2892955536
40
0.7158720081
40
1.0000000000
40
1.0000000000
40
1.0000000000
40
1.0000000000
10
-11.0738350729
20
13.5993674582
30
0.0000000000
10
-11.1253296086
20
11.4519644072
30
0.0000000000
10
-11.2167877553
20
6.1372176988
30
0.0000000000
10
-11.2175693432
20
-1.2881434868
30
0.0000000000
10
-11.1256060795
20
-6.5645346212
30
0.0000000000
10
-11.0737233856
20
-8.6735496316
30
0.0000000000
11
-11.0738350729
21
13.5993674582
31
0.0000000000
11
-11.1844044115
21
7.1562720680
31
0.0000000000
11
-11.1843499041
21
-2.3455699651
31
0.0000000000
11
-11.0737233856
21
-8.6735496316
31
0.0000000000
0
SPLINE
5
28B
100
AcDbEntity
8
0
100
AcDbSpline
62
7
6
CONTINUOUS
70
0
71
3
72
8
73
4
74
2
42
0.0000001000
43
0.0000001000
44
0.0000000001
12
0.0739876059
22
-3.0075726540
32
0.0000000000
13
0.0945893986
23
-3.0069455285
33
0.0000000000
40
0.0000000000
40
0.0000000000
40
0.0000000000
40
0.0000000000
40
1.0000000000
40
1.0000000000
40
1.0000000000
40
1.0000000000
10
-11.0737233856
20
-8.6735496316
30
0.0000000000
10
-11.0490608503
20
-9.6760738496
30
0.0000000000
10
-11.0209824217
20
-10.6785077505
30
0.0000000000
10
-10.9894526222
20
-11.6808229267
30
0.0000000000
11
-11.0737233856
21
-8.6735496316
31
0.0000000000
11
-10.9894526222
21
-11.6808229267
31
0.0000000000
0
SPLINE
5
28C
100
AcDbEntity
8
0
100
AcDbSpline
62
7
6
CONTINUOUS
70
0
71
3
72
8
73
4
74
2
42
0.0000001000
43
0.0000001000
44
0.0000000001
12
0.0037477830
22
-0.1196404778
32
0.0000000000
13
0.0187769268
23
-0.1183281475
33
0.0000000000
40
0.0000000000
40
0.0000000000
40
0.0000000000
40
0.0000000000
40
1.0000000000
40
1.0000000000
40
1.0000000000
40
1.0000000000
10
-10.9894592641
20
-11.6808224165
30
0.0000000000
10
-10.9882100031
20
-11.7207025758
30
0.0000000000
10
-10.9846140025
20
-11.7605547580
30
0.0000000000
10
-10.9783550269
20
-11.7999974739
30
0.0000000000
11
-10.9894592641
21
-11.6808224165
31
0.0000000000
11
-10.9783550269
21
-11.7999974739
31
0.0000000000
0
SPLINE
5
28D
100
AcDbEntity
8
0
100
AcDbSpline
62
7
6
CONTINUOUS
70
0
71
3
72
12
73
8
74
6
42
0.0000001000
43
0.0000001000
44
0.0000000001
12
0.0969520546
22
-0.6109709611
32
0.0000000000
13
0.5546931826
23
-0.2767743594
33
0.0000000000
40
0.0000000000
40
0.0000000000
40
0.0000000000
40
0.0000000000
40
0.0653455823
40
0.3937564022
40
0.6963579714
40
0.9830239345
40
1.0000000000
40
1.0000000000
40
1.0000000000
40
1.0000000000
10
-10.9783550269
20
-11.7999974739
30
0.0000000000
10
-10.9762432308
20
-11.8133055583
30
0.0000000000
10
-10.9616913300
20
-11.8932159167
30
0.0000000000
10
-10.9157096226
20
-12.0306031582
30
0.0000000000
10
-10.8055362328
20
-12.1874247549
30
0.0000000000
10
-10.7042227576
20
-12.2635172156
30
0.0000000000
10
-10.6483536080
20
-12.2920679776
30
0.0000000000
10
-10.6452147720
20
-12.2936341575
30
0.0000000000
11
-10.9783550269
21
-11.7999974739
31
0.0000000000
11
-10.9710980272
21
-11.8397672322
31
0.0000000000
11
-10.9047713625
21
-12.0311820703
31
0.0000000000
11
-10.7963102705
21
-12.1830970764
31
0.0000000000
11
-10.6545846693
21
-12.2888456525
31
0.0000000000
11
-10.6452147720
21
-12.2936341575
31
0.0000000000
0
SPLINE
5
28E
100
AcDbEntity
8
0
100
AcDbSpline
62
7
6
CONTINUOUS
70
0
71
3
72
8
73
4
74
2
42
0.0000001000
43
0.0000001000
44
0.0000000001
12
0.0351059290
22
-0.0176543340
32
0.0000000000
13
0.0362504799
23
-0.0152480899
33
0.0000000000
40
0.0000000000
40
0.0000000000
40
0.0000000000
40
0.0000000000
40
1.0000000000
40
1.0000000000
40
1.0000000000
40
1.0000000000
10
6.3090248010
20
-20.7706919663
30
0.0000000000
10
6.3207267773
20
-20.7765767443
30
0.0000000000
10
6.3326361294
20
-20.7820684740
30
0.0000000000
10
6.3447196227
20
-20.7871511707
30
0.0000000000
11
6.3090248010
21
-20.7706919663
31
0.0000000000
11
6.3447196227
21
-20.7871511707
31
0.0000000000
0
SPLINE
5
28F
100
AcDbEntity
8
0
100
AcDbSpline
62
7
6
CONTINUOUS
70
0
71
3
72
10
73
6
74
4
42
0.0000001000
43
0.0000001000
44
0.0000000001
12
0.3745075774
22
-0.1575296448
32
0.0000000000
13
0.3930070168
23
0.0996057483
33
0.0000000000
40
0.0000000000
40
0.0000000000
40
0.0000000000
40
0.0000000000
40
0.1590811516
40
0.6544110553
40
1.0000000000
40
1.0000000000
40
1.0000000000
40
1.0000000000
10
6.3447196227
20
-20.7871511707
30
0.0000000000
10
6.3645786549
20
-20.7955045031
30
0.0000000000
10
6.4482075481
20
-20.8253226801
30
0.0000000000
10
6.5843482450
20
-20.8404831624
30
0.0000000000
10
6.6973648463
20
-20.8229588408
30
0.0000000000
10
6.7426378063
20
-20.8114846257
30
0.0000000000
11
6.3447196227
21
-20.7871511707
31
0.0000000000
11
6.4055602745
21
-20.8088257647
31
0.0000000000
11
6.6042252036
21
-20.8322497312
31
0.0000000000
11
6.7426378063
21
-20.8114846257
31
0.0000000000
0
SPLINE
5
290
100
AcDbEntity
8
0
100
AcDbSpline
62
7
6
CONTINUOUS
70
0
71
3
72
8
73
4
74
2
42
0.0000001000
43
0.0000001000
44
0.0000000001
12
0.0110210125
22
0.0027932229
32
0.0000000000
13
0.0109731874
23
0.0029606619
33
0.0000000000
40
0.0000000000
40
0.0000000000
40
0.0000000000
40
0.0000000000
40
1.0000000000
40
1.0000000000
40
1.0000000000
40
1.0000000000
10
6.7426378063
20
-20.8114846257
30
0.0000000000
10
6.7463114771
20
-20.8105535514
30
0.0000000000
10
6.7499774243
20
-20.8095943460
30
0.0000000000
10
6.7536351534
20
-20.8086074587
30
0.0000000000
11
6.7426378063
21
-20.8114846257
31
0.0000000000
11
6.7536351534
21
-20.8086074587
31
0.0000000000
0
SPLINE
5
291
100
AcDbEntity
8
0
100
AcDbSpline
62
7
6
CONTINUOUS
70
0
71
3
72
17
73
13
74
11
42
0.0000001000
43
0.0000001000
44
0.0000000001
12
0.0000000000
22
-0.2154735656
32
0.0000000000
13
-0.2082466855
23
-0.0563488766
33
0.0000000000
40
0.0000000000
40
0.0000000000
40
0.0000000000
40
0.0000000000
40
0.1259510849
40
0.2465035158
40
0.3606705573
40
0.4681704558
40
0.5703435573
40
0.6677505864
40
0.7608780686
40
0.8508937606
40
0.9403062973
40
1.0000000000
40
1.0000000000
40
1.0000000000
40
1.0000000000
10
11.2089783558
20
-19.4565397166
30
0.0000000000
10
11.2089783558
20
-19.4655860930
30
0.0000000000
10
11.2082475385
20
-19.4833028234
30
0.0000000000
10
11.2047888856
20
-19.5090156092
30
0.0000000000
10
11.1990285298
20
-19.5329602079
30
0.0000000000
10
11.1910418430
20
-19.5548643854
30
0.0000000000
10
11.1809039330
20
-19.5745259966
30
0.0000000000
10
11.1686968155
20
-19.5917367952
30
0.0000000000
10
11.1545881224
20
-19.6062444682
30
0.0000000000
10
11.1387449178
20
-19.6179000889
30
0.0000000000
10
11.1232998189
20
-19.6256055749
30
0.0000000000
10
11.1131044222
20
-19.6289790927
30
0.0000000000
10
11.1089607503
20
-19.6301003171
30
0.0000000000
11
11.2089783558
21
-19.4565397166
31
0.0000000000
11
11.2078051972
21
-19.4836534777
31
0.0000000000
11
11.2042792051
21
-19.5093889162
31
0.0000000000
11
11.1984558931
21
-19.5332897117
31
0.0000000000
11
11.1904501766
21
-19.5550256491
31
0.0000000000
11
11.1802920305
21
-19.5745576440
31
0.0000000000
11
11.1680908180
21
-19.5916355073
31
0.0000000000
11
11.1540604199
21
-19.6059816837
31
0.0000000000
11
11.1384180130
21
-19.6174499009
31
0.0000000000
11
11.1211772684
21
-19.6260485608
31
0.0000000000
11
11.1089607503
21
-19.6301003171
31
0.0000000000
0
SPLINE
5
292
100
AcDbEntity
8
0
100
AcDbSpline
62
7
6
CONTINUOUS
70
0
71
3
72
22
73
18
74
16
42
0.0000001000
43
0.0000001000
44
0.0000000001
12
0.3971850301
22
-0.1985925150
32
0.0000000000
13
-0.0000000000
23
-0.4440663634
33
0.0000000000
40
0.0000000000
40
0.0000000000
40
0.0000000000
40
0.0000000000
40
0.0565911061
40
0.1163073116
40
0.1786297751
40
0.2430310256
40
0.3097550427
40
0.3784899283
40
0.4484414790
40
0.5189257497
40
0.5902116705
40
0.6616415648
40
0.7323062477
40
0.8016658890
40
0.8698745348
40
0.9362454823
40
1.0000000000
40
1.0000000000
40
1.0000000000
40
1.0000000000
10
10.9974569885
20
12.2559397677
30
0.0000000000
10
11.0049493686
20
12.2521935776
30
0.0000000000
10
11.0199508752
20
12.2436802518
30
0.0000000000
10
11.0416607270
20
12.2285295214
30
0.0000000000
10
11.0628897836
20
12.2108471204
30
0.0000000000
10
11.0834066679
20
12.1908335443
30
0.0000000000
10
11.1030301392
20
12.1686613569
30
0.0000000000
10
11.1215616629
20
12.1445262923
30
0.0000000000
10
11.1387461473
20
12.1187441586
30
0.0000000000
10
11.1544122667
20
12.0915765036
30
0.0000000000
10
11.1684080296
20
12.0632673661
30
0.0000000000
10
11.1805713340
20
12.0340945266
30
0.0000000000
10
11.1907231766
20
12.0044628831
30
0.0000000000
10
11.1987604371
20
11.9746819881
30
0.0000000000
10
11.2045968369
20
11.9450375859
30
0.0000000000
10
11.2081487914
20
11.9158689621
30
0.0000000000
10
11.2089783558
20
11.8966001043
30
0.0000000000
10
11.2089783558
20
11.8871630254
30
0.0000000000
11
10.9974569885
21
12.2559397677
31
0.0000000000
11
11.0193427625
21
12.2435890516
31
0.0000000000
11
11.0411198517
21
12.2284576111
31
0.0000000000
11
11.0624138167
21
12.2107802295
31
0.0000000000
11
11.0829112913
21
12.1908372185
31
0.0000000000
11
11.1025707859
21
12.1686688909
31
0.0000000000
11
11.1211772684
21
12.1444729569
31
0.0000000000
11
11.1384180130
21
12.1186335525
31
0.0000000000
11
11.1540604199
21
12.0915229285
31
0.0000000000
11
11.1680908180
21
12.0631463539
31
0.0000000000
11
11.1802920305
21
12.0338672780
31
0.0000000000
11
11.1904501766
21
12.0041771372
31
0.0000000000
11
11.1984558931
21
11.9744354832
31
0.0000000000
11
11.2042792051
21
11.9447113757
31
0.0000000000
11
11.2078051972
21
11.9154499451
31
0.0000000000
11
11.2089783558
21
11.8871630254
31
0.0000000000
0
SPLINE
5
293
100
AcDbEntity
8
0
100
AcDbSpline
62
7
6
CONTINUOUS
70
0
71
3
72
10
73
6
74
4
42
0.0000001000
43
0.0000001000
44
0.0000000001
12
0.0641464491
22
-5.1487926988
32
0.0000000000
13
0.1240978601
23
-5.1476966444
33
0.0000000000
40
0.0000000000
40
0.0000000000
40
0.0000000000
40
0.0000000000
40
0.3339968578
40
0.6673309789
40
1.0000000000
40
1.0000000000
40
1.0000000000
40
1.0000000000
10
4.4654692579
20
-11.0981183238
30
0.0000000000
10
4.4726108288
20
-11.6713451848
30
0.0000000000
10
4.4890872486
20
-12.8166352697
30
0.0000000000
10
4.5204254165
20
-14.5327504606
30
0.0000000000
10
4.5457418072
20
-15.6755996407
30
0.0000000000
10
4.5595029784
20
-16.2464260419
30
0.0000000000
11
4.4654692579
21
-11.0981183238
31
0.0000000000
11
4.4902149433
21
-12.8177543251
31
0.0000000000
11
4.5215597482
21
-14.5338695719
31
0.0000000000
11
4.5595029784
21
-16.2464260419
31
0.0000000000
0
SPLINE
5
294
100
AcDbEntity
8
0
100
AcDbSpline
62
7
6
CONTINUOUS
70
0
71
3
72
37
73
33
74
31
42
0.0000001000
43
0.0000001000
44
0.0000000001
12
0.0000000000
22
2.3746536782
32
0.0000000000
13
-2.2207500410
23
-0.8451455587
33
0.0000000000
40
0.0000000000
40
0.0000000000
40
0.0000000000
40
0.0000000000
40
0.0346032081
40
0.0701749120
40
0.1066282048
40
0.1438633081
40
0.1817696440
40
0.2202277772
40
0.2591112537
40
0.2982883600
40
0.3376238241
40
0.3769804784
40
0.4162209030
40
0.4552090659
40
0.4938119784
40
0.5319013820
40
0.5693554875
40
0.6060607867
40
0.6419139604
40
0.6768239070
40
0.7107139191
40
0.7435240277
40
0.7752135258
40
0.8057636606
40
0.8351804353
40
0.8634973948
40
0.8907781540
40
0.9171182840
40
0.9426460090
40
0.9675210568
40
0.9919310361
40
1.0000000000
40
1.0000000000
40
1.0000000000
40
1.0000000000
10
-1.3554275749
20
-2.1826507007
30
0.0000000000
10
-1.3554275749
20
-2.1552604889
30
0.0000000000
10
-1.3571471798
20
-2.0997013130
30
0.0000000000
10
-1.3646071821
20
-2.0155883174
30
0.0000000000
10
-1.3769425922
20
-1.9299454472
30
0.0000000000
10
-1.3940840985
20
-1.8432526633
30
0.0000000000
10
-1.4159359003
20
-1.7559906939
30
0.0000000000
10
-1.4423761120
20
-1.6686452782
30
0.0000000000
10
-1.4732573717
20
-1.5817024605
30
0.0000000000
10
-1.5084076157
20
-1.4956463493
30
0.0000000000
10
-1.5476310159
20
-1.4109562122
30
0.0000000000
10
-1.5907090680
20
-1.3281037886
30
0.0000000000
10
-1.6374018216
20
-1.2475506009
30
0.0000000000
10
-1.6874492455
20
-1.1697453430
30
0.0000000000
10
-1.7405727183
20
-1.0951213448
30
0.0000000000
10
-1.7964766383
20
-1.0240941346
30
0.0000000000
10
-1.8548501451
20
-0.9570591146
30
0.0000000000
10
-1.9153689436
20
-0.8943893700
30
0.0000000000
10
-1.9776972215
20
-0.8364336337
30
0.0000000000
10
-2.0414896478
20
-0.7835144315
30
0.0000000000
10
-2.1063934320
20
-0.7359264386
30
0.0000000000
10
-2.1720504144
20
-0.6939350820
30
0.0000000000
10
-2.2380991373
20
-0.6577754237
30
0.0000000000
10
-2.3041768190
20
-0.6276513523
30
0.0000000000
10
-2.3699211142
20
-0.6037350820
30
0.0000000000
10
-2.4349715095
20
-0.5861668924
30
0.0000000000
10
-2.4989701989
20
-0.5750549224
30
0.0000000000
10
-2.5615623735
20
-0.5704746706
30
0.0000000000
10
-2.6223961164
20
-0.5724677145
30
0.0000000000
10
-2.6811225235
20
-0.5810392272
30
0.0000000000
10
-2.7250715374
20
-0.5928437550
30
0.0000000000
10
-2.7492991551
20
-0.6015070552
30
0.0000000000
10
-2.7552722057
20
-0.6037802048
30
0.0000000000
11
-1.3554275749
21
-2.1826507007
31
0.0000000000
11
-1.3578990923
21
-2.1005172426
31
0.0000000000
11
-1.3652998230
21
-2.0163715907
31
0.0000000000
11
-1.3775883790
21
-1.9306843215
31
0.0000000000
11
-1.3946960377
21
-1.8439346331
31
0.0000000000
11
-1.4165271262
21
-1.7566076649
31
0.0000000000
11
-1.4429595562
21
-1.6691917846
31
0.0000000000
11
-1.4738455067
21
-1.5821758574
31
0.0000000000
11
-1.5090122511
21
-1.4960465117
31
0.0000000000
11
-1.5482631226
21
-1.4112854176
31
0.0000000000
11
-1.5913786144
21
-1.3283665936
31
0.0000000000
11
-1.6381176073
21
-1.2477537554
31
0.0000000000
11
-1.6882187177
21
-1.1698977227
31
0.0000000000
11
-1.7414017600
21
-1.0952338979
31
0.0000000000
11
-1.7973693131
21
-1.0241798316
31
0.0000000000
11
-1.8558083836
21
-0.9571328868
31
0.0000000000
11
-1.9163921566
21
-0.8944680173
31
0.0000000000
11
-1.9787818231
21
-0.8365356704
31
0.0000000000
11
-2.0426284746
21
-0.7836598273
31
0.0000000000
11
-2.1075750550
21
-0.7361361912
31
0.0000000000
11
-2.1732583564
21
-0.6942305335
31
0.0000000000
11
-2.2393110513
21
-0.6581772077
31
0.0000000000
11
-2.3053637463
21
-0.6281778386
31
0.0000000000
11
-2.3710470477
21
-0.6044001948
31
0.0000000000
11
-2.4359936280
21
-0.5869772506
31
0.0000000000
11
-2.4998402796
21
-0.5760064421
31
0.0000000000
11
-2.5622299461
21
-0.5715491226
31
0.0000000000
11
-2.6228137191
21
-0.5736302191
31
0.0000000000
11
-2.6812527896
21
-0.5822380934
31
0.0000000000
11
-2.7372203426
21
-0.5973246066
31
0.0000000000
11
-2.7552722057
21
-0.6037802048
31
0.0000000000
0
SPLINE
5
295
100
AcDbEntity
8
0
100
AcDbSpline
62
7
6
CONTINUOUS
70
0
71
3
72
9
73
5
74
3
42
0.0000001000
43
0.0000001000
44
0.0000000001
12
-0.0439632196
22
-0.0167309779
32
0.0000000000
13
-0.0420720342
23
-0.0210381652
33
0.0000000000
40
0.0000000000
40
0.0000000000
40
0.0000000000
40
0.0000000000
40
0.8125147946
40
1.0000000000
40
1.0000000000
40
1.0000000000
40
1.0000000000
10
-2.7552722057
20
-0.6037802048
30
0.0000000000
10
-2.7671791278
20
-0.6083115938
30
0.0000000000
10
-2.7816086549
20
-0.6144797182
30
0.0000000000
10
-2.7956986515
20
-0.6213603913
30
0.0000000000
10
-2.7983279461
20
-0.6226751728
30
0.0000000000
11
-2.7552722057
21
-0.6037802048
31
0.0000000000
11
-2.7904033850
21
-0.6188053890
31
0.0000000000
11
-2.7983279461
21
-0.6226751728
31
0.0000000000
0
SPLINE
5
296
100
AcDbEntity
8
0
100
AcDbSpline
62
7
6
CONTINUOUS
70
0
71
3
72
18
73
14
74
12
42
0.0000001000
43
0.0000001000
44
0.0000000001
12
-0.0142915282
22
-0.6948685717
32
0.0000000000
13
-0.5710679909
23
-0.3966806481
33
0.0000000000
40
0.0000000000
40
0.0000000000
40
0.0000000000
40
0.0000000000
40
0.0760530768
40
0.1870044586
40
0.2940982884
40
0.3972955131
40
0.4966446453
40
0.5922911189
40
0.6844854195
40
0.7735885003
40
0.8600724690
40
0.9445142569
40
1.0000000000
40
1.0000000000
40
1.0000000000
40
1.0000000000
10
-1.3557021791
20
-2.2095016053
30
0.0000000000
10
-1.3560644840
20
-2.2271172362
30
0.0000000000
10
-1.3578463744
20
-2.2704176823
30
0.0000000000
10
-1.3643118577
20
-2.3382832592
30
0.0000000000
10
-1.3765130849
20
-2.4117533337
30
0.0000000000
10
-1.3935382683
20
-2.4815012198
30
0.0000000000
10
-1.4153001789
20
-2.5471408907
30
0.0000000000
10
-1.4416872947
20
-2.6083060689
30
0.0000000000
10
-1.4725640135
20
-2.6646524057
30
0.0000000000
10
-1.5077701837
20
-2.7158576241
30
0.0000000000
10
-1.5471197342
20
-2.7616224841
30
0.0000000000
10
-1.5856990620
20
-2.7973238346
30
0.0000000000
10
-1.6115893375
20
-2.8169003899
30
0.0000000000
10
-1.6221513815
20
-2.8242370967
30
0.0000000000
11
-1.3557021791
21
-2.2095016053
31
0.0000000000
11
-1.3578990923
21
-2.2623126413
31
0.0000000000
11
-1.3652998230
21
-2.3390575626
31
0.0000000000
11
-1.3775883790
21
-2.4124562757
31
0.0000000000
11
-1.3946960377
21
-2.4820983055
31
0.0000000000
11
-1.4165271262
21
-2.5475941852
31
0.0000000000
11
-1.4429595562
21
-2.6085776355
31
0.0000000000
11
-1.4738455067
21
-2.6647076122
31
0.0000000000
11
-1.5090122511
21
-2.7156702135
31
0.0000000000
11
-1.5482631226
21
-2.7611804361
31
0.0000000000
11
-1.5913786144
21
-2.8009837683
31
0.0000000000
11
-1.6221513815
21
-2.8242370967
31
0.0000000000
0
SPLINE
5
297
100
AcDbEntity
8
0
100
AcDbSpline
62
7
6
CONTINUOUS
70
0
71
3
72
9
73
5
74
3
42
0.0000001000
43
0.0000001000
44
0.0000000001
12
-0.0555755049
22
-0.0386043827
32
0.0000000000
13
-0.0605237643
23
-0.0302649724
33
0.0000000000
40
0.0000000000
40
0.0000000000
40
0.0000000000
40
0.0000000000
40
0.2834026246
40
1.0000000000
40
1.0000000000
40
1.0000000000
40
1.0000000000
10
-1.6221513815
20
-2.8242370967
30
0.0000000000
10
-1.6274014628
20
-2.8278839578
30
0.0000000000
10
-1.6461844501
20
-2.8403806648
30
0.0000000000
10
-1.6658370997
20
-2.8515134855
30
0.0000000000
10
-1.6802941565
20
-2.8587427521
30
0.0000000000
11
-1.6221513815
21
-2.8242370967
31
0.0000000000
11
-1.6381176073
21
-2.8348576136
31
0.0000000000
11
-1.6802941565
21
-2.8587427521
31
0.0000000000
0
SPLINE
5
298
100
AcDbEntity
8
0
100
AcDbSpline
62
9
6
CONTINUOUS
70
0
71
3
72
9
73
5
74
3
42
0.0000001000
43
0.0000001000
44
0.0000000001
12
-0.0109468084
22
0.0054727646
32
0.0000000000
13
-0.0107573222
23
0.0058361125
33
0.0000000000
40
0.0000000000
40
0.0000000000
40
0.0000000000
40
0.0000000000
40
0.8811745214
40
1.0000000000
40
1.0000000000
40
1.0000000000
40
1.0000000000
10
-10.6453767119
20
-12.2935572775
30
0.0000000000
10
-10.6485920615
20
-12.2919497906
30
0.0000000000
10
-10.6522141047
20
-12.2900717877
30
0.0000000000
10
-10.6558037520
20
-12.2881335520
30
0.0000000000
10
-10.6562298334
20
-12.2879023924
30
0.0000000000
11
-10.6453767119
21
-12.2935572775
31
0.0000000000
11
-10.6549502115
21
-12.2885933251
31
0.0000000000
11
-10.6562298334
21
-12.2879023924
31
0.0000000000
0
SPLINE
5
299
100
AcDbEntity
8
0
100
AcDbSpline
62
9
6
CONTINUOUS
70
0
71
3
72
8
73
4
74
2
42
0.0000001000
43
0.0000001000
44
0.0000000001
12
-0.0247121177
22
0.0134069332
32
0.0000000000
13
-0.0236187299
23
0.0152515424
33
0.0000000000
40
0.0000000000
40
0.0000000000
40
0.0000000000
40
0.0000000000
40
1.0000000000
40
1.0000000000
40
1.0000000000
40
1.0000000000
10
-10.6562298334
20
-12.2879023924
30
0.0000000000
10
-10.6644672059
20
-12.2834334146
30
0.0000000000
10
-10.6725325590
20
-12.2786475486
30
0.0000000000
10
-10.6804054690
20
-12.2735637011
30
0.0000000000
11
-10.6562298334
21
-12.2879023924
31
0.0000000000
11
-10.6804054690
21
-12.2735637011
31
0.0000000000
0
SPLINE
5
29A
100
AcDbEntity
8
0
100
AcDbSpline
62
9
6
CONTINUOUS
70
0
71
3
72
18
73
14
74
12
42
0.0000001000
43
0.0000001000
44
0.0000000001
12
-0.4665289729
22
0.3012560972
32
0.0000000000
13
-0.0175420432
23
0.5547055890
33
0.0000000000
40
0.0000000000
40
0.0000000000
40
0.0000000000
40
0.0000000000
40
0.0292117282
40
0.1127147865
40
0.1980048733
40
0.2857385381
40
0.3764665962
40
0.4706227484
40
0.5685212985
40
0.6703624027
40
0.7762397228
40
0.8861480425
40
1.0000000000
40
1.0000000000
40
1.0000000000
40
1.0000000000
10
-10.6804054690
20
-12.2735637011
30
0.0000000000
10
-10.6849481748
20
-12.2706302974
30
0.0000000000
10
-10.7022291921
20
-12.2589288255
30
0.0000000000
10
-10.7308082296
20
-12.2358732509
30
0.0000000000
10
-10.7640241184
20
-12.2018306086
30
0.0000000000
10
-10.7940050625
20
-12.1632120371
30
0.0000000000
10
-10.8205884877
20
-12.1202507792
30
0.0000000000
10
-10.8436338165
20
-12.0731996556
30
0.0000000000
10
-10.8630208644
20
-12.0223299272
30
0.0000000000
10
-10.8786490248
20
-11.9679311626
30
0.0000000000
10
-10.8904371147
20
-11.9103099448
30
0.0000000000
10
-10.8983238984
20
-11.8497934122
30
0.0000000000
10
-10.9009095282
20
-11.8084457414
30
0.0000000000
10
-10.9015752602
20
-11.7873943023
30
0.0000000000
11
-10.6804054690
21
-12.2735637011
31
0.0000000000
11
-10.6938374503
21
-12.2644694972
31
0.0000000000
11
-10.7299367737
21
-12.2354093683
31
0.0000000000
11
-10.7630429333
21
-12.2015783056
31
0.0000000000
11
-10.7929677201
21
-12.1631688045
31
0.0000000000
11
-10.8195410916
21
-12.1203992799
31
0.0000000000
11
-10.8426119963
21
-12.0735129918
31
0.0000000000
11
-10.8620492358
21
-12.0227767897
31
0.0000000000
11
-10.8777424233
21
-11.9684790708
31
0.0000000000
11
-10.8896024298
21
-11.9109283125
31
0.0000000000
11
-10.8975617280
21
-11.8504525938
31
0.0000000000
11
-10.9015752602
21
-11.7873943023
31
0.0000000000
0
SPLINE
5
29B
100
AcDbEntity
8
0
100
AcDbSpline
62
7
6
CONTINUOUS
70
0
71
3
72
57
73
53
74
51
42
0.0000001000
43
0.0000001000
44
0.0000000001
12
0.0000000000
22
6.4121556520
32
0.0000000000
13
-0.0000000000
23
-6.4121556520
33
0.0000000000
40
0.0000000000
40
0.0000000000
40
0.0000000000
40
0.0000000000
40
0.0207873233
40
0.0410218271
40
0.0606704644
40
0.0797493572
40
0.0982335525
40
0.1161596346
40
0.1335271004
40
0.1503827576
40
0.1667644328
40
0.1827225589
40
0.1983366246
40
0.2136654080
40
0.2288157457
40
0.2438590690
40
0.2589099070
40
0.2740508648
40
0.2893819220
40
0.3049916900
40
0.3209489561
40
0.3373388382
40
0.3541973505
40
0.3715928171
40
0.3895357341
40
0.4080676588
40
0.4271859600
40
0.4468961108
40
0.4671951983
40
0.4880511967
40
0.5094633993
40
0.5313730710
40
0.5537737761
40
0.5765955817
40
0.5998158474
40
0.6233706139
40
0.6472084615
40
0.6712848469
40
0.6955203955
40
0.7198861711
40
0.7442891864
40
0.7687025572
40
0.7930382829
40
0.8172566485
40
0.8412925675
40
0.8650816174
40
0.8885894477
40
0.9117365157
40
0.9345062673
40
0.9568229903
40
0.9786726411
40
1.0000000000
40
1.0000000000
40
1.0000000000
40
1.0000000000
10
-4.4180815084
20
-1.0623272380
30
0.0000000000
10
-4.4180815084
20
-1.0178967205
30
0.0000000000
10
-4.4158469781
20
-0.9301975270
30
0.0000000000
10
-4.4054910605
20
-0.8008704649
30
0.0000000000
10
-4.3882095048
20
-0.6759612480
30
0.0000000000
10
-4.3640703039
20
-0.5560016771
30
0.0000000000
10
-4.3331505596
20
-0.4414093720
30
0.0000000000
10
-4.2955744278
20
-0.3326776980
30
0.0000000000
10
-4.2514641585
20
-0.2301973690
30
0.0000000000
10
-4.2009910090
20
-0.1344007684
30
0.0000000000
10
-4.1443350681
20
-0.0456671615
30
0.0000000000
10
-4.0817046095
20
0.0356436207
30
0.0000000000
10
-4.0133492348
20
0.1091742160
30
0.0000000000
10
-3.9395106390
20
0.1746344036
30
0.0000000000
10
-3.8605095610
20
0.2317138537
30
0.0000000000
10
-3.7766338806
20
0.2801834773
30
0.0000000000
10
-3.6882583429
20
0.3198121838
30
0.0000000000
10
-3.5957284962
20
0.3504358092
30
0.0000000000
10
-3.4994416799
20
0.3719201227
30
0.0000000000
10
-3.3998013785
20
0.3841755185
30
0.0000000000
10
-3.2972004749
20
0.3871584994
30
0.0000000000
10
-3.1920861222
20
0.3808612060
30
0.0000000000
10
-3.0848416311
20
0.3653130770
30
0.0000000000
10
-2.9759383713
20
0.3405878730
30
0.0000000000
10
-2.8657675496
20
0.3067800257
30
0.0000000000
10
-2.7547995099
20
0.2640386610
30
0.0000000000
10
-2.6434526578
20
0.2125294549
30
0.0000000000
10
-2.5321747088
20
0.1524648741
30
0.0000000000
10
-2.4214166920
20
0.0840932490
30
0.0000000000
10
-2.3115925727
20
0.0076769364
30
0.0000000000
10
-2.2031718994
20
-0.0764507522
30
0.0000000000
10
-2.0965399797
20
-0.1679823838
30
0.0000000000
10
-1.9921596324
20
-0.2665117666
30
0.0000000000
10
-1.8904023129
20
-0.3716776986
30
0.0000000000
10
-1.7916952345
20
-0.4830268317
30
0.0000000000
10
-1.6964092426
20
-0.6001279767
30
0.0000000000
10
-1.6049172683
20
-0.7225071441
30
0.0000000000
10
-1.5175863536
20
-0.8496572432
30
0.0000000000
10
-1.4347304771
20
-0.9811022852
30
0.0000000000
10
-1.3566968212
20
-1.1162721438
30
0.0000000000
10
-1.2837520014
20
-1.2546839821
30
0.0000000000
10
-1.2162016592
20
-1.3957358506
30
0.0000000000
10
-1.1542792918
20
-1.5389177269
30
0.0000000000
10
-1.0982314351
20
-1.6836352754
30
0.0000000000
10
-1.0482654717
20
-1.8293297139
30
0.0000000000
10
-1.0045642305
20
-1.9754408791
30
0.0000000000
10
-0.9673001490
20
-2.1213663649
30
0.0000000000
10
-0.9365987547
20
-2.2665880362
30
0.0000000000
10
-0.9125855249
20
-2.4104858588
30
0.0000000000
10
-0.8953401340
20
-2.5525613655
30
0.0000000000
10
-0.8849325690
20
-2.6922089209
30
0.0000000000
10
-0.8825476025
20
-2.7845094095
30
0.0000000000
10
-0.8825476025
20
-2.8300941910
30
0.0000000000
11
-4.4180815084
21
-1.0623272380
31
0.0000000000
11
-4.4145926402
21
-0.9290813533
31
0.0000000000
11
-4.4041344636
21
-0.7997567401
31
0.0000000000
11
-4.3867582160
21
-0.6749706175
31
0.0000000000
11
-4.3625083242
21
-0.5550613066
31
0.0000000000
11
-4.3315116805
21
-0.4406627181
31
0.0000000000
11
-4.2938446174
21
-0.3320648087
31
0.0000000000
11
-4.2496955359
21
-0.2298270817
31
0.0000000000
11
-4.1991997176
21
-0.1342671742
31
0.0000000000
11
-4.1425660042
21
-0.0458001577
31
0.0000000000
11
-4.0800341823
21
0.0351960101
31
0.0000000000
11
-4.0117949256
21
0.1084584299
31
0.0000000000
11
-3.9381956720
21
0.1736058095
31
0.0000000000
11
-3.8594237644
21
0.2304599632
31
0.0000000000
11
-3.7758968749
21
0.2787074034
31
0.0000000000
11
-3.6878423582
21
0.3182074938
31
0.0000000000
11
-3.5956870098
21
0.3487544710
31
0.0000000000
11
-3.4997571272
21
0.3702336505
31
0.0000000000
11
-3.4004252361
21
0.3825477219
31
0.0000000000
11
-3.2981513336
21
0.3856345049
31
0.0000000000
11
-3.1932375319
21
0.3794747188
31
0.0000000000
11
-3.0862377935
21
0.3640949466
31
0.0000000000
11
-2.9774340596
21
0.3395294588
31
0.0000000000
11
-2.8674049736
21
0.3059029554
31
0.0000000000
11
-2.7564706810
21
0.2633112523
31
0.0000000000
11
-2.6451586512
21
0.2119515104
31
0.0000000000
11
-2.5338877607
21
0.1520195105
31
0.0000000000
11
-2.4230751956
21
0.0837374661
31
0.0000000000
11
-2.3132472266
21
0.0074351693
31
0.0000000000
11
-2.2047205687
21
-0.0766648222
31
0.0000000000
11
-2.0980690729
21
-0.1681109806
31
0.0000000000
11
-1.9935699969
21
-0.2666578001
31
0.0000000000
11
-1.8917693877
21
-0.3717822254
31
0.0000000000
11
-1.7929633553
21
-0.4831652717
31
0.0000000000
11
-1.6976019564
21
-0.6002905355
31
0.0000000000
11
-1.6060498621
21
-0.7226912900
31
0.0000000000
11
-1.5186232968
21
-0.8499322136
31
0.0000000000
11
-1.4357388666
21
-0.9813855781
31
0.0000000000
11
-1.3576147535
21
-1.1166877163
31
0.0000000000
11
-1.2846569169
21
-1.2551141282
31
0.0000000000
11
-1.2170443903
21
-1.3963021179
31
0.0000000000
11
-1.1551129657
21
-1.5395305110
31
0.0000000000
11
-1.0990454716
21
-1.6843477046
31
0.0000000000
11
-1.0490717132
21
-1.8301428719
31
0.0000000000
11
-1.0053928338
21
-1.9762946074
31
0.0000000000
11
-0.9681370001
21
-2.1223538570
31
0.0000000000
11
-0.9374855628
21
-2.2675769902
31
0.0000000000
11
-0.9135103299
21
-2.4115982389
31
0.0000000000
11
-0.8963331153
21
-2.5536618420
31
0.0000000000
11
-0.8859958751
21
-2.6933833275
31
0.0000000000
11
-0.8825476025
21
-2.8300941910
31
0.0000000000
0
SPLINE
5
29C
100
AcDbEntity
8
0
100
AcDbSpline
62
7
6
CONTINUOUS
70
0
71
3
72
9
73
5
74
3
42
0.0000001000
43
0.0000001000
44
0.0000000001
12
-0.0905637523
22
-0.0465374204
32
0.0000000000
13
-0.0959933917
23
-0.0339500417
33
0.0000000000
40
0.0000000000
40
0.0000000000
40
0.0000000000
40
0.0000000000
40
0.4585105636
40
1.0000000000
40
1.0000000000
40
1.0000000000
40
1.0000000000
10
4.0541678794
20
-17.3665667649
30
0.0000000000
10
4.0403264004
20
-17.3736793978
30
0.0000000000
10
4.0096558115
20
-17.3882528141
30
0.0000000000
10
3.9780646792
20
-17.4007194829
30
0.0000000000
10
3.9607382100
20
-17.4068473459
30
0.0000000000
11
4.0541678794
21
-17.3665667649
31
0.0000000000
11
4.0120072948
21
-17.3866006229
31
0.0000000000
11
3.9607382100
21
-17.4068473459
31
0.0000000000
0
SPLINE
5
29D
100
AcDbEntity
8
0
100
AcDbSpline
62
7
6
CONTINUOUS
70
0
71
3
72
16
73
12
74
10
42
0.0000001000
43
0.0000001000
44
0.0000000001
12
-0.7254506279
22
-0.2565705680
32
0.0000000000
13
-0.7087933769
23
0.2990038343
33
0.0000000000
40
0.0000000000
40
0.0000000000
40
0.0000000000
40
0.0000000000
40
0.0359936639
40
0.1450534062
40
0.2562826035
40
0.3703582851
40
0.4878589283
40
0.6092599424
40
0.7349262561
40
0.8651196952
40
1.0000000000
40
1.0000000000
40
1.0000000000
40
1.0000000000
10
3.9607382100
20
-17.4068473459
30
0.0000000000
10
3.9520343347
20
-17.4099256508
30
0.0000000000
10
3.9167340321
20
-17.4216978569
30
0.0000000000
10
3.8529512170
20
-17.4379700042
30
0.0000000000
10
3.7679923045
20
-17.4504353228
30
0.0000000000
10
3.6800652170
20
-17.4545071950
30
0.0000000000
10
3.5895512176
20
-17.4501863255
30
0.0000000000
10
3.4968373294
20
-17.4375084385
30
0.0000000000
10
3.4023155335
20
-17.4165425233
30
0.0000000000
10
3.3063821097
20
-17.3873889877
30
0.0000000000
10
3.2428901063
20
-17.3630198416
30
0.0000000000
10
3.2110226840
20
-17.3495765989
30
0.0000000000
11
3.9607382100
21
-17.4068473459
31
0.0000000000
11
3.9344661787
21
-17.4156102067
31
0.0000000000
11
3.8532096398
21
-17.4364169785
31
0.0000000000
11
3.7685836706
21
-17.4489343011
31
0.0000000000
11
3.6809472102
21
-17.4531111472
31
0.0000000000
11
3.5906738142
21
-17.4489318114
31
0.0000000000
11
3.4981465786
21
-17.4364160523
31
0.0000000000
11
3.4037602771
21
-17.4156191233
31
0.0000000000
11
3.3079159429
21
-17.3866309875
31
0.0000000000
11
3.2110226840
21
-17.3495765989
31
0.0000000000
0
SPLINE
5
29E
100
AcDbEntity
8
0
100
AcDbSpline
62
7
6
CONTINUOUS
70
0
71
3
72
8
73
4
74
2
42
0.0000001000
43
0.0000001000
44
0.0000000001
12
-0.0989730197
22
0.0417516774
32
0.0000000000
13
-0.0960564709
23
0.0480282354
33
0.0000000000
40
0.0000000000
40
0.0000000000
40
0.0000000000
40
0.0000000000
40
1.0000000000
40
1.0000000000
40
1.0000000000
40
1.0000000000
10
3.2110226840
20
-17.3495765989
30
0.0000000000
10
3.1780316775
20
-17.3356593731
30
0.0000000000
10
3.1455121294
20
-17.3206240560
30
0.0000000000
10
3.1134933058
20
-17.3046146442
30
0.0000000000
11
3.2110226840
21
-17.3495765989
31
0.0000000000
11
3.1134933058
21
-17.3046146442
31
0.0000000000
0
SPLINE
5
29F
100
AcDbEntity
8
0
100
AcDbSpline
62
7
6
CONTINUOUS
70
0
71
3
72
10
73
6
74
4
42
0.0000001000
43
0.0000001000
44
0.0000000001
12
-0.1262758823
22
5.1485030441
32
0.0000000000
13
-0.0652794530
23
5.1496376364
33
0.0000000000
40
0.0000000000
40
0.0000000000
40
0.0000000000
40
0.0000000000
40
0.3326812706
40
0.6660153333
40
1.0000000000
40
1.0000000000
40
1.0000000000
40
1.0000000000
10
-9.6001101156
20
-9.1666194949
30
0.0000000000
10
-9.6141133226
20
-8.5956826501
30
0.0000000000
10
-9.6398750802
20
-7.4526315963
30
0.0000000000
10
-9.6717651650
20
-5.7362400180
30
0.0000000000
10
-9.6885320793
20
-4.5907839356
30
0.0000000000
10
-9.6957995247
20
-4.0174839324
30
0.0000000000
11
-9.6001101156
21
-9.1666194949
31
0.0000000000
11
-9.6387214271
21
-7.4537289842
31
0.0000000000
11
-9.6706181324
21
-5.7373377873
31
0.0000000000
11
-9.6957995247
21
-4.0174839324
31
0.0000000000
0
SPLINE
5
2A0
100
AcDbEntity
8
0
100
AcDbSpline
62
9
6
CONTINUOUS
70
0
71
3
72
17
73
13
74
11
42
0.0000001000
43
0.0000001000
44
0.0000000001
12
-0.0320507666
22
-0.2343435693
32
0.0000000000
13
-0.2285353039
23
-0.0618575892
33
0.0000000000
40
0.0000000000
40
0.0000000000
40
0.0000000000
40
0.0000000000
40
0.1202545450
40
0.2364642815
40
0.3483519791
40
0.4558067993
40
0.5589090742
40
0.6579513827
40
0.7534509560
40
0.8461464470
40
0.9369716120
40
1.0000000000
40
1.0000000000
40
1.0000000000
40
1.0000000000
10
6.8839711683
20
-20.6268592934
30
0.0000000000
10
6.8826864182
20
-20.6362529198
30
0.0000000000
10
6.8793996482
20
-20.6546315893
30
0.0000000000
10
6.8721742020
20
-20.6811673570
30
0.0000000000
10
6.8628048394
20
-20.7059551078
30
0.0000000000
10
6.8513875774
20
-20.7287240924
30
0.0000000000
10
6.8380384988
20
-20.7492264435
30
0.0000000000
10
6.8228937160
20
-20.7672345840
30
0.0000000000
10
6.8061096332
20
-20.7825433567
30
0.0000000000
10
6.7878644199
20
-20.7949718892
30
0.0000000000
10
6.7702847892
20
-20.8034404662
30
0.0000000000
10
6.7587349374
20
-20.8072437575
30
0.0000000000
10
6.7539335335
20
-20.8085433522
30
0.0000000000
11
6.8839711683
21
-20.6268592934
31
0.0000000000
11
6.8789249898
21
-20.6548513152
31
0.0000000000
11
6.8716594323
21
-20.6813601993
31
0.0000000000
11
6.8622537923
21
-20.7060966273
31
0.0000000000
11
6.8508107231
21
-20.7287906255
31
0.0000000000
11
6.8374551143
21
-20.7491945115
31
0.0000000000
11
6.8223327293
21
-20.7670855968
31
0.0000000000
11
6.8056086141
21
-20.7822686181
31
0.0000000000
11
6.7874652957
21
-20.7945778676
31
0.0000000000
11
6.7681007906
21
-20.8038790020
31
0.0000000000
11
6.7539335335
21
-20.8085433522
31
0.0000000000
0
SPLINE
5
2A1
100
AcDbEntity
8
0
100
AcDbSpline
62
9
6
CONTINUOUS
70
0
71
3
72
25
73
21
74
19
42
0.0000001000
43
0.0000001000
44
0.0000000001
12
0.0214374992
22
-0.6583679681
32
0.0000000000
13
0.6358507029
23
0.1720518280
33
0.0000000000
40
0.0000000000
40
0.0000000000
40
0.0000000000
40
0.0000000000
40
0.0672071087
40
0.1321885777
40
0.1948958194
40
0.2553409893
40
0.3135933384
40
0.3697826778
40
0.4241026221
40
0.4768121847
40
0.5282329083
40
0.5787410886
40
0.6287547909
40
0.6787159462
40
0.7290689823
40
0.7802392119
40
0.8326143912
40
0.8865301962
40
0.9422600826
40
1.0000000000
40
1.0000000000
40
1.0000000000
40
1.0000000000
10
6.4681827862
20
-20.2539845781
30
0.0000000000
10
6.4686630369
20
-20.2687335806
30
0.0000000000
10
6.4705295495
20
-20.2977237396
30
0.0000000000
10
6.4762187186
20
-20.3401727423
30
0.0000000000
10
6.4847224107
20
-20.3806386359
30
0.0000000000
10
6.4959962132
20
-20.4188883085
30
0.0000000000
10
6.5099813548
20
-20.4547056555
30
0.0000000000
10
6.5266048108
20
-20.4878861119
30
0.0000000000
10
6.5457790112
20
-20.5182377706
30
0.0000000000
10
6.5674012762
20
-20.5455817039
30
0.0000000000
10
6.5913528548
20
-20.5697530856
30
0.0000000000
10
6.6174978772
20
-20.5906030546
30
0.0000000000
10
6.6456830360
20
-20.6080016458
30
0.0000000000
10
6.6757387316
20
-20.6218411480
30
0.0000000000
10
6.7074817996
20
-20.6320388503
30
0.0000000000
10
6.7407194347
20
-20.6385381883
30
0.0000000000
10
6.7752525030
20
-20.6413082450
30
0.0000000000
10
6.8108792563
20
-20.6403413643
30
0.0000000000
10
6.8473883318
20
-20.6356534537
30
0.0000000000
10
6.8717331793
20
-20.6301707128
30
0.0000000000
10
6.8839711683
20
-20.6268592934
30
0.0000000000
11
6.4681827862
21
-20.2539845781
31
0.0000000000
11
6.4710759330
21
-20.2981603990
31
0.0000000000
11
6.4768145265
21
-20.3405783725
31
0.0000000000
11
6.4853657668
21
-20.3809898600
31
0.0000000000
11
6.4966809936
21
-20.4191644560
31
0.0000000000
11
6.5106959358
21
-20.4548852753
31
0.0000000000
11
6.5273310033
21
-20.4879492566
31
0.0000000000
11
6.5464915961
21
-20.5181682065
31
0.0000000000
11
6.5680687937
21
-20.5453702307
31
0.0000000000
11
6.5919399616
21
-20.5694006148
31
0.0000000000
11
6.6179693786
21
-20.5901226255
31
0.0000000000
11
6.6460090393
21
-20.6074183456
31
0.0000000000
11
6.6758995688
21
-20.6211893755
31
0.0000000000
11
6.7074710032
21
-20.6313573151
31
0.0000000000
11
6.7405436693
21
-20.6378642370
31
0.0000000000
11
6.7749295511
21
-20.6406731151
31
0.0000000000
11
6.8104332647
21
-20.6397678940
31
0.0000000000
11
6.8468523527
21
-20.6351537734
31
0.0000000000
11
6.8839711683
21
-20.6268592934
31
0.0000000000
0
SPLINE
5
2A2
100
AcDbEntity
8
0
100
AcDbSpline
62
9
6
CONTINUOUS
70
0
71
3
72
19
73
15
74
13
42
0.0000001000
43
0.0000001000
44
0.0000000001
12
0.0194243031
22
-0.5996301803
32
0.0000000000
13
0.5358904337
23
-0.2705484945
33
0.0000000000
40
0.0000000000
40
0.0000000000
40
0.0000000000
40
0.0000000000
40
0.1054127379
40
0.2072901505
40
0.3055718264
40
0.4002726377
40
0.4914973343
40
0.5794463052
40
0.6644210038
40
0.7468268674
40
0.8271692510
40
0.9060413983
40
0.9841042026
40
1.0000000000
40
1.0000000000
40
1.0000000000
40
1.0000000000
10
6.0478109576
20
-20.2620874112
30
0.0000000000
10
6.0484934806
20
-20.2831569642
30
0.0000000000
10
6.0511460708
20
-20.3245620022
30
0.0000000000
10
6.0592317075
20
-20.3851831774
30
0.0000000000
10
6.0713164993
20
-20.4429570854
30
0.0000000000
10
6.0873376879
20
-20.4975550916
30
0.0000000000
10
6.1072118678
20
-20.5486688704
30
0.0000000000
10
6.1308353574
20
-20.5960066809
30
0.0000000000
10
6.1580839386
20
-20.6392948955
30
0.0000000000
10
6.1888120134
20
-20.6782784177
30
0.0000000000
10
6.2228511956
20
-20.7127221911
30
0.0000000000
10
6.2600087071
20
-20.7424138140
30
0.0000000000
10
6.2894833842
20
-20.7606277291
30
0.0000000000
10
6.3061619249
20
-20.7693096062
30
0.0000000000
10
6.3090013935
20
-20.7707431342
30
0.0000000000
11
6.0478109576
21
-20.2620874112
31
0.0000000000
11
6.0519237820
21
-20.3251953488
31
0.0000000000
11
6.0600799872
21
-20.3857695210
31
0.0000000000
11
6.0722334035
21
-20.4434669842
31
0.0000000000
11
6.0883148300
21
-20.4979588226
31
0.0000000000
11
6.1082329348
21
-20.5489354574
31
0.0000000000
11
6.1318745993
21
-20.5961071254
31
0.0000000000
11
6.1591053796
21
-20.6392053544
31
0.0000000000
11
6.1897704872
21
-20.6779850159
31
0.0000000000
11
6.2236956730
21
-20.7122255916
31
0.0000000000
11
6.2606880715
21
-20.7417322581
31
0.0000000000
11
6.3005373567
21
-20.7663371092
31
0.0000000000
11
6.3090013935
21
-20.7707431342
31
0.0000000000
0
SPLINE
5
2A3
100
AcDbEntity
8
0
100
AcDbSpline
62
9
6
CONTINUOUS
70
0
71
3
72
21
73
17
74
15
42
0.0000001000
43
0.0000001000
44
0.0000000001
12
-0.3833377453
22
-0.2029013782
32
0.0000000000
13
-0.3880585741
23
0.1937197444
33
0.0000000000
40
0.0000000000
40
0.0000000000
40
0.0000000000
40
0.0000000000
40
0.0642415575
40
0.1319216987
40
0.2025849637
40
0.2756932738
40
0.3506462331
40
0.4267991453
40
0.5034796031
40
0.5800032713
40
0.6556893441
40
0.7298760973
40
0.8019369741
40
0.8712977388
40
0.9374554150
40
1.0000000000
40
1.0000000000
40
1.0000000000
40
1.0000000000
10
6.4681827862
20
-20.2539845781
30
0.0000000000
10
6.4599740482
20
-20.2583294783
30
0.0000000000
10
6.4427102195
20
-20.2664974271
30
0.0000000000
10
6.4153177846
20
-20.2769346845
30
0.0000000000
10
6.3860290051
20
-20.2857778931
30
0.0000000000
10
6.3552019926
20
-20.2929184445
30
0.0000000000
10
6.3232109258
20
-20.2982697414
30
0.0000000000
10
6.2904459333
20
-20.3017662628
30
0.0000000000
10
6.2573067399
20
-20.3033652498
30
0.0000000000
10
6.2241979014
20
-20.3030471427
30
0.0000000000
10
6.1915235549
20
-20.3008159127
30
0.0000000000
10
6.1596821489
20
-20.2966988995
30
0.0000000000
10
6.1290617302
20
-20.2907465487
30
0.0000000000
10
6.1000334265
20
-20.2830308161
30
0.0000000000
10
6.0729519052
20
-20.2736463297
30
0.0000000000
10
6.0559012929
20
-20.2661261103
30
0.0000000000
10
6.0478109721
20
-20.2620874033
30
0.0000000000
11
6.4681827862
21
-20.2539845781
31
0.0000000000
11
6.4430241130
21
-20.2659593427
31
0.0000000000
11
6.4156119385
21
-20.2764598557
31
0.0000000000
11
6.3862833822
21
-20.2853569801
31
0.0000000000
11
6.3553991314
21
-20.2925412974
31
0.0000000000
11
6.3233390059
21
-20.2979244538
31
0.0000000000
11
6.2904972863
21
-20.3014402464
31
0.0000000000
11
6.2572778654
21
-20.3030454373
31
0.0000000000
11
6.2240892812
21
-20.3027202857
31
0.0000000000
11
6.1913396925
21
-20.3004687903
31
0.0000000000
11
6.1594318589
21
-20.2963186404
31
0.0000000000
11
6.1287581884
21
-20.2903208752
31
0.0000000000
11
6.0996959107
21
-20.2825492563
31
0.0000000000
11
6.0726024387
21
-20.2730993602
31
0.0000000000
11
6.0478109721
21
-20.2620874033
31
0.0000000000
0
SPLINE
5
2A4
100
AcDbEntity
8
0
100
AcDbSpline
62
9
6
CONTINUOUS
70
0
71
3
72
17
73
13
74
11
42
0.0000001000
43
0.0000001000
44
0.0000000001
12
-0.8948777631
22
-28.3511445247
32
0.0000000000
13
0.9229828336
23
-28.3502434691
33
0.0000000000
40
0.0000000000
40
0.0000000000
40
0.0000000000
40
0.0000000000
40
0.1013803815
40
0.2024591887
40
0.3032343786
40
0.4037039693
40
0.5038660344
40
0.6037187036
40
0.7032601633
40
0.8024886564
40
0.9014024836
40
1.0000000000
40
1.0000000000
40
1.0000000000
40
1.0000000000
10
6.4681827862
20
8.1064748216
30
0.0000000000
10
6.4379417698
20
7.1483915387
30
0.0000000000
10
6.3834877980
20
5.2348820919
30
0.0000000000
10
6.3198527764
20
2.3684627312
30
0.0000000000
10
6.2743884119
20
-0.4896910304
30
0.0000000000
10
6.2470974657
20
-3.3394076846
30
0.0000000000
10
6.2379815555
20
-6.1805181281
30
0.0000000000
10
6.2470412365
20
-9.0128533289
30
0.0000000000
10
6.2742759748
20
-11.8362447592
30
0.0000000000
10
6.3196841761
20
-14.6505249301
30
0.0000000000
10
6.3832630945
20
-17.4555247993
30
0.0000000000
10
6.4378481811
20
-19.3222300465
30
0.0000000000
10
6.4681827862
20
-20.2539845781
30
0.0000000000
11
6.4681827862
21
8.1064748216
31
0.0000000000
11
6.3864073681
21
5.2319564889
31
0.0000000000
11
6.3227992171
21
2.3655351095
31
0.0000000000
11
6.2773621219
21
-0.4926186145
31
0.0000000000
11
6.2500987842
21
-3.3423346691
31
0.0000000000
11
6.2410108248
21
-6.1834435537
31
0.0000000000
11
6.2500987838
21
-9.0157762982
31
0.0000000000
11
6.2773621211
21
-11.8391644538
31
0.0000000000
11
6.3227992159
21
-14.6534400853
31
0.0000000000
11
6.3864073665
21
-17.4584357876
31
0.0000000000
11
6.4681827862
21
-20.2539845781
31
0.0000000000
0
SPLINE
5
2A5
100
AcDbEntity
8
0
100
AcDbSpline
62
9
6
CONTINUOUS
70
0
71
3
72
17
73
13
74
11
42
0.0000001000
43
0.0000001000
44
0.0000000001
12
-0.8954989143
22
-28.3711714637
32
0.0000000000
13
0.9236238526
23
-28.3702697820
33
0.0000000000
40
0.0000000000
40
0.0000000000
40
0.0000000000
40
0.0000000000
40
0.1013804046
40
0.2024592239
40
0.3032344223
40
0.4037040179
40
0.5038660840
40
0.6037187504
40
0.7032602034
40
0.8024886856
40
0.9014024978
40
1.0000000000
40
1.0000000000
40
1.0000000000
40
1.0000000000
10
6.0478109576
20
8.1184052775
30
0.0000000000
10
6.0175489436
20
7.1596449967
30
0.0000000000
10
5.9630571680
20
5.2447835395
30
0.0000000000
10
5.8993779661
20
2.3763389763
30
0.0000000000
10
5.8538820387
20
-0.4838339683
30
0.0000000000
10
5.8265721459
20
-3.3355637357
30
0.0000000000
10
5.8174499070
20
-6.1786811032
30
0.0000000000
10
5.8265158774
20
-9.0130169194
30
0.0000000000
10
5.8537695229
20
-11.8384025374
30
0.0000000000
10
5.8992092478
20
-14.6546703502
30
0.0000000000
10
5.9628323067
20
-17.4616512446
30
0.0000000000
10
6.0174552894
20
-19.3296748319
30
0.0000000000
10
6.0478109576
20
-20.2620874112
30
0.0000000000
11
6.0478109576
21
8.1184052775
31
0.0000000000
11
5.9659787615
21
5.2418557680
31
0.0000000000
11
5.9023264516
21
2.3734092541
31
0.0000000000
11
5.8568578124
21
-0.4867636542
31
0.0000000000
11
5.8295755477
21
-3.3384928230
31
0.0000000000
11
5.8204812793
21
-6.1816086319
31
0.0000000000
11
5.8295755477
21
-9.0159419914
31
0.0000000000
11
5.8568578124
21
-11.8413243340
31
0.0000000000
11
5.9023264516
21
-14.6575876055
31
0.0000000000
11
5.9659787615
21
-17.4645642829
31
0.0000000000
11
6.0478109576
21
-20.2620874112
31
0.0000000000
0
SPLINE
5
2A6
100
AcDbEntity
8
0
100
AcDbSpline
62
9
6
CONTINUOUS
70
0
71
3
72
21
73
17
74
15
42
0.0000001000
43
0.0000001000
44
0.0000000001
12
-0.3955870329
22
-0.1726289837
32
0.0000000000
13
-0.3859152581
23
0.1932854888
33
0.0000000000
40
0.0000000000
40
0.0000000000
40
0.0000000000
40
0.0000000000
40
0.0625192241
40
0.1288838987
40
0.1986166270
40
0.2711516095
40
0.3458558904
40
0.4220477989
40
0.4990136813
40
0.5760236586
40
0.6523469352
40
0.7272670843
40
0.8000977260
40
0.8701991088
40
0.9369962959
40
1.0000000000
40
1.0000000000
40
1.0000000000
40
1.0000000000
10
6.4681827862
20
8.1064748216
30
0.0000000000
10
6.4599388547
20
8.1028772782
30
0.0000000000
10
6.4426110118
20
8.0962091969
30
0.0000000000
10
6.4152274558
20
8.0879666004
30
0.0000000000
10
6.3859480546
20
8.0812617178
30
0.0000000000
10
6.3551304704
20
8.0761773484
30
0.0000000000
10
6.3231487471
20
8.0727755276
30
0.0000000000
10
6.2903930483
20
8.0710982606
30
0.0000000000
10
6.2572632346
20
8.0711662860
30
0.0000000000
10
6.2241640715
20
8.0729788876
30
0.0000000000
10
6.1914999575
20
8.0765138273
30
0.0000000000
10
6.1596696670
20
8.0817277041
30
0.0000000000
10
6.1290615607
20
8.0885564139
30
0.0000000000
10
6.1000472731
20
8.0969167095
30
0.0000000000
10
6.0729812711
20
8.1067055406
30
0.0000000000
10
6.0559156546
20
8.1143460436
30
0.0000000000
10
6.0478109577
20
8.1184052775
30
0.0000000000
11
6.4681827862
21
8.1064748216
31
0.0000000000
11
6.4430241131
21
8.0967186088
31
0.0000000000
11
6.4156119385
21
8.0884093635
31
0.0000000000
11
6.3862833816
21
8.0816492742
31
0.0000000000
11
6.3553991301
21
8.0765214776
31
0.0000000000
11
6.3233390036
21
8.0730890363
31
0.0000000000
11
6.2904972827
21
8.0713941629
31
0.0000000000
11
6.2572778605
21
8.0714577013
31
0.0000000000
11
6.2240892749
21
8.0732788701
31
0.0000000000
11
6.1913396846
21
8.0768352722
31
0.0000000000
11
6.1594318496
21
8.0820831705
31
0.0000000000
11
6.1287581776
21
8.0889580253
31
0.0000000000
11
6.0996958986
21
8.0973752887
31
0.0000000000
11
6.0726024252
21
8.1072314436
31
0.0000000000
11
6.0478109577
21
8.1184052775
31
0.0000000000
0
SPLINE
5
2A7
100
AcDbEntity
8
0
100
AcDbSpline
62
9
6
CONTINUOUS
70
0
71
3
72
25
73
21
74
19
42
0.0000001000
43
0.0000001000
44
0.0000000001
12
-0.7454232241
22
-0.5181455692
32
0.0000000000
13
-0.0286450875
23
-0.9073643550
33
0.0000000000
40
0.0000000000
40
0.0000000000
40
0.0000000000
40
0.0000000000
40
0.0509233506
40
0.1032901215
40
0.1569702002
40
0.2118209119
40
0.2676836570
40
0.3243858008
40
0.3817432063
40
0.4395635234
40
0.4976486669
40
0.5557971795
40
0.6138068374
40
0.6714772869
40
0.7286122975
40
0.7850222199
40
0.8405272114
40
0.8949596874
40
0.9481660694
40
1.0000000000
40
1.0000000000
40
1.0000000000
40
1.0000000000
10
6.8839711683
20
8.8808717102
30
0.0000000000
10
6.8713180189
20
8.8720764740
30
0.0000000000
10
6.8462176951
20
8.8534116265
30
0.0000000000
10
6.8098330769
20
8.8228374276
30
0.0000000000
10
6.7743638624
20
8.7894466997
30
0.0000000000
10
6.7400142774
20
8.7534315436
30
0.0000000000
10
6.7069776915
20
8.7149955710
30
0.0000000000
10
6.6754409459
20
8.6743564685
30
0.0000000000
10
6.6455823671
20
8.6317443755
30
0.0000000000
10
6.6175709493
20
8.5874007029
30
0.0000000000
10
6.5915652367
20
8.5415766341
30
0.0000000000
10
6.5677124579
20
8.4945317456
30
0.0000000000
10
6.5461476568
20
8.4465324956
30
0.0000000000
10
6.5269929294
20
8.3978506861
30
0.0000000000
10
6.5103567512
20
8.3487619784
30
0.0000000000
10
6.4963333509
20
8.2995441510
30
0.0000000000
10
6.4850021491
20
8.2504757314
30
0.0000000000
10
6.4764275235
20
8.2018335080
30
0.0000000000
10
6.4706586145
20
8.1538982915
30
0.0000000000
10
6.4686777153
20
8.1221522419
30
0.0000000000
10
6.4681827862
20
8.1064748216
30
0.0000000000
11
6.8839711683
21
8.8808717102
31
0.0000000000
11
6.8468500156
21
8.8533191179
31
0.0000000000
11
6.8104309217
21
8.8227635060
31
0.0000000000
11
6.7749272189
21
8.7893829523
31
0.0000000000
11
6.7405413596
21
8.7533677817
31
0.0000000000
11
6.7074687370
21
8.7149227329
31
0.0000000000
11
6.6758973612
21
8.6742663944
31
0.0000000000
11
6.6460069058
21
8.6316302024
31
0.0000000000
11
6.6179673431
21
8.5872567037
31
0.0000000000
11
6.5919380691
21
8.5413982486
31
0.0000000000
11
6.5680670836
21
8.4943156904
31
0.0000000000
11
6.5464900973
21
8.4462768268
31
0.0000000000
11
6.5273297196
21
8.3975547572
31
0.0000000000
11
6.5106948636
21
8.3484265442
31
0.0000000000
11
6.4966801295
21
8.2991717350
31
0.0000000000
11
6.4853651059
21
8.2500702563
31
0.0000000000
11
6.4768140663
21
8.2014010490
31
0.0000000000
11
6.4710756572
21
8.1534415062
31
0.0000000000
11
6.4681827862
21
8.1064748216
31
0.0000000000
0
SPLINE
5
2A8
100
AcDbEntity
8
0
100
AcDbSpline
62
9
6
CONTINUOUS
70
0
71
3
72
25
73
21
74
19
42
0.0000001000
43
0.0000001000
44
0.0000000001
12
-1.0614002785
22
-0.7443406020
32
0.0000000000
13
-0.0406884264
23
-1.2957460920
33
0.0000000000
40
0.0000000000
40
0.0000000000
40
0.0000000000
40
0.0000000000
40
0.0508455009
40
0.1031398426
40
0.1567620015
40
0.2115687026
40
0.2674006198
40
0.3240842554
40
0.3814344940
40
0.4392579108
40
0.4973552871
40
0.5555238909
40
0.6135601252
40
0.6712621730
40
0.7284322534
40
0.7848790809
40
0.8404210908
40
0.8948889016
40
0.9481270347
40
1.0000000000
40
1.0000000000
40
1.0000000000
40
1.0000000000
10
6.6387373160
20
9.2262150692
30
0.0000000000
10
6.6207481730
20
9.2135996123
30
0.0000000000
10
6.5850671766
20
9.1868363075
30
0.0000000000
10
6.5333558178
20
9.1430228817
30
0.0000000000
10
6.4829486213
20
9.0951921731
30
0.0000000000
10
6.4341325925
20
9.0436167795
30
0.0000000000
10
6.3871825484
20
8.9885882223
30
0.0000000000
10
6.3423639901
20
8.9304181503
30
0.0000000000
10
6.2999303326
20
8.8694359551
30
0.0000000000
10
6.2601217140
20
8.8059870804
30
0.0000000000
10
6.2231634275
20
8.7404308871
30
0.0000000000
10
6.1892646920
20
8.6731386873
30
0.0000000000
10
6.1586174239
20
8.6044916011
30
0.0000000000
10
6.1313951381
20
8.5348783400
30
0.0000000000
10
6.1077519974
20
8.4646930802
30
0.0000000000
10
6.0878218988
20
8.3943329773
30
0.0000000000
10
6.0717177422
20
8.3241961893
30
0.0000000000
10
6.0595309146
20
8.2546783736
30
0.0000000000
10
6.0513308001
20
8.1861752924
30
0.0000000000
10
6.0485145008
20
8.1408100082
30
0.0000000000
10
6.0478109576
20
8.1184052775
30
0.0000000000
11
6.6387373160
21
9.2262150692
31
0.0000000000
11
6.5859713544
21
9.1867108360
31
0.0000000000
11
6.5342132472
21
9.1429264897
31
0.0000000000
11
6.4837561175
21
9.0951101078
31
0.0000000000
11
6.4348876713
21
9.0435343494
31
0.0000000000
11
6.3878855808
21
8.9884923940
31
0.0000000000
11
6.3430170257
21
8.9302971886
31
0.0000000000
11
6.3005373377
21
8.8692799971
31
0.0000000000
11
6.2606880536
21
8.8057879060
31
0.0000000000
11
6.2236956569
21
8.7401819162
31
0.0000000000
11
6.1897704725
21
8.6728351799
31
0.0000000000
11
6.1591053668
21
8.6041307319
31
0.0000000000
11
6.1318745891
21
8.5344591338
31
0.0000000000
11
6.1082329257
21
8.4642165593
31
0.0000000000
11
6.0883148214
21
8.3938026806
31
0.0000000000
11
6.0722333975
21
8.3236176587
31
0.0000000000
11
6.0600799828
21
8.2540601874
31
0.0000000000
11
6.0519237787
21
8.1855267128
31
0.0000000000
11
6.0478109576
21
8.1184052775
31
0.0000000000
0
SPLINE
5
2A9
100
AcDbEntity
8
0
100
AcDbSpline
62
9
6
CONTINUOUS
70
0
71
3
72
22
73
18
74
16
42
0.0000001000
43
0.0000001000
44
0.0000000001
12
-0.0679248648
22
0.4310476715
32
0.0000000000
13
-0.3870029933
23
0.2016049739
33
0.0000000000
40
0.0000000000
40
0.0000000000
40
0.0000000000
40
0.0000000000
40
0.0593338808
40
0.1218514751
40
0.1871755219
40
0.2548603331
40
0.3244073433
40
0.3952788040
40
0.4669102830
40
0.5387224395
40
0.6101324301
40
0.6805652296
40
0.7494651413
40
0.8163078015
40
0.8806130685
40
0.9419593334
40
1.0000000000
40
1.0000000000
40
1.0000000000
40
1.0000000000
10
6.8839711683
20
8.8808717102
30
0.0000000000
10
6.8826277530
20
8.8893969539
30
0.0000000000
10
6.8791315124
20
8.9067942926
30
0.0000000000
10
6.8718311922
20
8.9330440059
30
0.0000000000
10
6.8624066396
20
8.9598982362
30
0.0000000000
10
6.8509598141
20
8.9870651294
30
0.0000000000
10
6.8376140822
20
9.0142518261
30
0.0000000000
10
6.8225137566
20
9.0411637328
30
0.0000000000
10
6.8058223361
20
9.0675091662
30
0.0000000000
10
6.7877207635
20
9.0930023730
30
0.0000000000
10
6.7684053730
20
9.1173668793
30
0.0000000000
10
6.7480856926
20
9.1403385776
30
0.0000000000
10
6.7269819417
20
9.1616687571
30
0.0000000000
10
6.7053227774
20
9.1811267070
30
0.0000000000
10
6.6833413704
20
9.1985029064
30
0.0000000000
10
6.6612765740
20
9.2136090225
30
0.0000000000
10
6.6462246199
20
9.2223146402
30
0.0000000000
10
6.6387373160
20
9.2262150692
30
0.0000000000
11
6.8839711683
21
8.8808717102
31
0.0000000000
11
6.8789249900
21
8.9062665323
31
0.0000000000
11
6.8716594330
21
8.9325618277
31
0.0000000000
11
6.8622537934
21
8.9594706091
31
0.0000000000
11
6.8508107246
21
8.9866991939
31
0.0000000000
11
6.8374551163
21
9.0139504089
31
0.0000000000
11
6.8223327318
21
9.0409268340
31
0.0000000000
11
6.8056086167
21
9.0673340483
31
0.0000000000
11
6.7874652985
21
9.0928838430
31
0.0000000000
11
6.7681007934
21
9.1172973673
31
0.0000000000
11
6.7477264458
21
9.1403081717
31
0.0000000000
11
6.7265646217
21
9.1616651159
31
0.0000000000
11
6.7048462816
21
9.1811351100
31
0.0000000000
11
6.6828084595
21
9.1985056581
31
0.0000000000
11
6.6606916767
21
9.2135871778
31
0.0000000000
11
6.6387373160
21
9.2262150692
31
0.0000000000
0
SPLINE
5
2AA
100
AcDbEntity
8
0
100
AcDbSpline
62
7
6
CONTINUOUS
70
0
71
3
72
8
73
4
74
2
42
0.0000001000
43
0.0000001000
44
0.0000000001
12
-0.0589012422
22
0.0294506211
32
0.0000000000
13
-0.0577999184
23
0.0315846350
33
0.0000000000
40
0.0000000000
40
0.0000000000
40
0.0000000000
40
0.0000000000
40
1.0000000000
40
1.0000000000
40
1.0000000000
40
1.0000000000
10
-8.0587938370
20
-11.7184710728
30
0.0000000000
10
-8.0784275844
20
-11.7086541991
30
0.0000000000
10
-8.0978797556
20
-11.6984677177
30
0.0000000000
10
-8.1171463950
20
-11.6879395061
30
0.0000000000
11
-8.0587938370
21
-11.7184710728
31
0.0000000000
11
-8.1171463950
21
-11.6879395061
31
0.0000000000
0
SPLINE
5
2AB
100
AcDbEntity
8
0
100
AcDbSpline
62
7
6
CONTINUOUS
70
0
71
3
72
8
73
4
74
2
42
0.0000001000
43
0.0000001000
44
0.0000000001
12
-0.0396599124
22
0.0216720697
32
0.0000000000
13
-0.0391319737
23
0.0226103997
33
0.0000000000
40
0.0000000000
40
0.0000000000
40
0.0000000000
40
0.0000000000
40
1.0000000000
40
1.0000000000
40
1.0000000000
40
1.0000000000
10
-8.1171463950
20
-11.6879395061
30
0.0000000000
10
-8.1303663658
20
-11.6807154829
30
0.0000000000
10
-8.1434989858
20
-11.6733305684
30
0.0000000000
10
-8.1565429770
20
-11.6657937684
30
0.0000000000
11
-8.1171463950
21
-11.6879395061
31
0.0000000000
11
-8.1565429770
21
-11.6657937684
31
0.0000000000
0
SPLINE
5
2AC
100
AcDbEntity
8
0
100
AcDbSpline
62
7
6
CONTINUOUS
70
0
71
3
72
30
73
26
74
24
42
0.0000001000
43
0.0000001000
44
0.0000000001
12
-2.5607998947
22
1.4796266011
32
0.0000000000
13
-0.1249255717
23
2.9546312992
33
0.0000000000
40
0.0000000000
40
0.0000000000
40
0.0000000000
40
0.0000000000
40
0.0387605927
40
0.0786887735
40
0.1197272233
40
0.1618055856
40
0.2048406629
40
0.2487397335
40
0.2934002455
40
0.3387129828
40
0.3845617264
40
0.4308259609
40
0.4773809493
40
0.5240996901
40
0.5708537290
40
0.6175142447
40
0.6639536706
40
0.7100459909
40
0.7556691306
40
0.8007046867
40
0.8450407579
40
0.8885715716
40
0.9312004700
40
0.9728398489
40
1.0000000000
40
1.0000000000
40
1.0000000000
40
1.0000000000
10
-8.1565429770
20
-11.6657937684
30
0.0000000000
10
-8.1896290176
20
-11.6466767004
30
0.0000000000
10
-8.2556401336
20
-11.6058828579
30
0.0000000000
10
-8.3525256554
20
-11.5384069493
30
0.0000000000
10
-8.4483680851
20
-11.4640056790
30
0.0000000000
10
-8.5427613737
20
-11.3829939615
30
0.0000000000
10
-8.6353031767
20
-11.2957150229
30
0.0000000000
10
-8.7255979770
20
-11.2025389047
30
0.0000000000
10
-8.8132594178
20
-11.1038602360
30
0.0000000000
10
-8.8979111144
20
-11.0000977479
30
0.0000000000
10
-8.9791893515
20
-10.8916914627
30
0.0000000000
10
-9.0567439300
20
-10.7791019041
30
0.0000000000
10
-9.1302404188
20
-10.6628073389
30
0.0000000000
10
-9.1993613020
20
-10.5433023455
30
0.0000000000
10
-9.2638076411
20
-10.4210954210
30
0.0000000000
10
-9.3233004890
20
-10.2967067573
30
0.0000000000
10
-9.3775819826
20
-10.1706663943
30
0.0000000000
10
-9.4264168879
20
-10.0435111876
30
0.0000000000
10
-9.4695932558
20
-9.9157834532
30
0.0000000000
10
-9.5069238561
20
-9.7880273978
30
0.0000000000
10
-9.5382465443
20
-9.6607879778
30
0.0000000000
10
-9.5634253816
20
-9.5346075980
30
0.0000000000
10
-9.5823508950
20
-9.4100229679
30
0.0000000000
10
-9.5935878082
20
-9.3007264774
30
0.0000000000
10
-9.5976533979
20
-9.2330125483
30
0.0000000000
10
-9.5987843970
20
-9.2062631374
30
0.0000000000
11
-8.1565429770
21
-11.6657937684
31
0.0000000000
11
-8.2540941798
21
-11.6056259270
31
0.0000000000
11
-8.3510306471
21
-11.5382236613
31
0.0000000000
11
-8.4469366089
21
-11.4638744575
31
0.0000000000
11
-8.5414018269
21
-11.3828939911
31
0.0000000000
11
-8.6340198124
21
-11.2956276384
31
0.0000000000
11
-8.7243934202
21
-11.2024457559
31
0.0000000000
11
-8.8121327179
21
-11.1037457974
31
0.0000000000
11
-8.8968603426
21
-10.9999469463
31
0.0000000000
11
-8.9782098901
21
-10.8914920340
31
0.0000000000
11
-9.0558302779
21
-10.7788424334
31
0.0000000000
11
-9.1293852561
21
-10.6624788069
31
0.0000000000
11
-9.1985562742
21
-10.5428972517
31
0.0000000000
11
-9.2630433248
21
-10.4206080555
31
0.0000000000
11
-9.3225662736
21
-10.2961337332
31
0.0000000000
11
-9.3768667502
21
-10.1700055409
31
0.0000000000
11
-9.4257082994
21
-10.0427635165
31
0.0000000000
11
-9.4688788540
21
-9.9149508361
31
0.0000000000
11
-9.5061901941
21
-9.7871155187
31
0.0000000000
11
-9.5374803116
21
-9.6598035875
31
0.0000000000
11
-9.5626127978
21
-9.5335613913
31
0.0000000000
11
-9.5814786312
21
-9.4089285250
31
0.0000000000
11
-9.5939957764
21
-9.2864397625
31
0.0000000000
11
-9.5987843970
21
-9.2062631374
31
0.0000000000
0
SPLINE
5
2AD
100
AcDbEntity
8
0
100
AcDbSpline
62
7
6
CONTINUOUS
70
0
71
3
72
8
73
4
74
2
42
0.0000001000
43
0.0000001000
44
0.0000000001
12
-0.0016757245
22
0.0396327836
32
0.0000000000
13
-0.0009725412
23
0.0396523171
33
0.0000000000
40
0.0000000000
40
0.0000000000
40
0.0000000000
40
0.0000000000
40
1.0000000000
40
1.0000000000
40
1.0000000000
40
1.0000000000
10
-9.5987843970
20
-9.2062631374
30
0.0000000000
10
-9.5993429719
20
-9.1930522096
30
0.0000000000
10
-9.5997859352
20
-9.1798369339
30
0.0000000000
10
-9.6001101156
20
-9.1666194949
30
0.0000000000
11
-9.5987843970
21
-9.2062631374
31
0.0000000000
11
-9.6001101156
21
-9.1666194949
31
0.0000000000
0
SPLINE
5
2AE
100
AcDbEntity
8
0
100
AcDbSpline
62
9
6
CONTINUOUS
70
0
71
3
72
17
73
13
74
11
42
0.0000001000
43
0.0000001000
44
0.0000000001
12
-0.8924744471
22
28.3709426488
32
0.0000000000
13
0.8643464243
23
28.3718135247
33
0.0000000000
40
0.0000000000
40
0.0000000000
40
0.0000000000
40
0.0000000000
40
0.0985463822
40
0.1974211751
40
0.2966224600
40
0.3961482592
40
0.4959965380
40
0.5961652054
40
0.6966521148
40
0.7974550638
40
0.8985717954
40
1.0000000000
40
1.0000000000
40
1.0000000000
40
1.0000000000
10
-10.9015752602
20
-11.7873943023
30
0.0000000000
10
-10.9308919695
20
-10.8554430498
30
0.0000000000
10
-10.9836445585
20
-8.9882413071
30
0.0000000000
10
-11.0450849647
20
-6.1823555713
30
0.0000000000
10
-11.0889655580
20
-3.3668712487
30
0.0000000000
10
-11.1152836895
20
-0.5419572996
30
0.0000000000
10
-11.1240378161
20
2.2922186697
30
0.0000000000
10
-11.1152274209
20
5.1354880278
30
0.0000000000
10
-11.0888530391
20
7.9876816201
30
0.0000000000
10
-11.0449162339
20
10.8486301703
30
0.0000000000
10
-10.9834196669
20
13.7181621742
30
0.0000000000
10
-10.9307982955
20
15.6338643510
30
0.0000000000
10
-10.9015752602
20
16.5930983864
30
0.0000000000
11
-10.9015752602
21
-11.7873943023
31
0.0000000000
11
-10.9806016413
21
-8.9912740815
31
0.0000000000
11
-11.0420714778
21
-6.1853886409
31
0.0000000000
11
-11.0859811145
21
-3.3699048705
31
0.0000000000
11
-11.1123279408
21
-0.5449902472
31
0.0000000000
11
-11.1211103902
21
2.2891872028
31
0.0000000000
11
-11.1123279408
21
5.1324589212
31
0.0000000000
11
-11.0859811145
21
7.9846558093
31
0.0000000000
11
-11.0420714778
21
10.8456082188
31
0.0000000000
11
-10.9806016413
21
13.7151459694
31
0.0000000000
11
-10.9015752602
21
16.5930983864
31
0.0000000000
0
SPLINE
5
2AF
100
AcDbEntity
8
0
100
AcDbSpline
62
7
6
CONTINUOUS
70
0
71
3
72
20
73
16
74
14
42
0.0000001000
43
0.0000001000
44
0.0000000001
12
-0.0158336776
22
1.2490561484
32
0.0000000000
13
1.0604041701
23
0.6613844170
33
0.0000000000
40
0.0000000000
40
0.0000000000
40
0.0000000000
40
0.0000000000
40
0.0939869837
40
0.1852446092
40
0.2736953835
40
0.3593035939
40
0.4420813484
40
0.5220918591
40
0.5994567124
40
0.6743539144
40
0.7470281085
40
0.8177812723
40
0.8869789258
40
0.9550350448
40
1.0000000000
40
1.0000000000
40
1.0000000000
40
1.0000000000
10
-9.6957995247
20
-4.0174839324
30
0.0000000000
10
-9.6962955779
20
-3.9783522591
30
0.0000000000
10
-9.6952334345
20
-3.9011804594
30
0.0000000000
10
-9.6871984504
20
-3.7874388704
30
0.0000000000
10
-9.6727765419
20
-3.6778376872
30
0.0000000000
10
-9.6520258440
20
-3.5728471014
30
0.0000000000
10
-9.6250305480
20
-3.4729133196
30
0.0000000000
10
-9.5918999807
20
-3.3784627917
30
0.0000000000
10
-9.5527685991
20
-3.2899011736
30
0.0000000000
10
-9.5077950998
20
-3.2076109845
30
0.0000000000
10
-9.4571638983
20
-3.1319534138
30
0.0000000000
10
-9.4010843878
20
-3.0632645465
30
0.0000000000
10
-9.3397940793
20
-3.0018563903
30
0.0000000000
10
-9.2808108598
20
-2.9539078323
30
0.0000000000
10
-9.2417552196
20
-2.9275575032
30
0.0000000000
10
-9.2258615443
20
-2.9176444630
30
0.0000000000
11
-9.6957995247
21
-4.0174839324
31
0.0000000000
11
-9.6940912698
21
-3.9000919090
31
0.0000000000
11
-9.6859575135
21
-3.7863874022
31
0.0000000000
11
-9.6714337926
21
-3.6768572707
31
0.0000000000
11
-9.6505835096
21
-3.5719715578
31
0.0000000000
11
-9.6234974362
21
-3.4721798005
31
0.0000000000
11
-9.5902936810
21
-3.3779108049
31
0.0000000000
11
-9.5511159205
21
-3.2895674454
31
0.0000000000
11
-9.5061354021
21
-3.2075313955
31
0.0000000000
11
-9.4555459095
21
-3.1321525294
31
0.0000000000
11
-9.3995685985
21
-3.0637575095
31
0.0000000000
11
-9.3384446318
21
-3.0026386962
31
0.0000000000
11
-9.2724402964
21
-2.9490607689
31
0.0000000000
11
-9.2258615443
21
-2.9176444630
31
0.0000000000
0
SPLINE
5
2B0
100
AcDbEntity
8
0
100
AcDbSpline
62
7
6
CONTINUOUS
70
0
71
3
72
9
73
5
74
3
42
0.0000001000
43
0.0000001000
44
0.0000000001
12
0.0584776349
22
0.0364730709
32
0.0000000000
13
0.0614724849
23
0.0311631566
33
0.0000000000
40
0.0000000000
40
0.0000000000
40
0.0000000000
40
0.0000000000
40
0.4063256153
40
1.0000000000
40
1.0000000000
40
1.0000000000
40
1.0000000000
10
-9.2258615443
20
-2.9176444630
30
0.0000000000
10
-9.2179412239
20
-2.9127044820
30
0.0000000000
10
-9.1982313744
20
-2.9008953586
30
0.0000000000
10
-9.1780134133
20
-2.8899694172
30
0.0000000000
10
-9.1658485334
20
-2.8838024946
30
0.0000000000
11
-9.2258615443
21
-2.9176444630
31
0.0000000000
11
-9.2018401010
21
-2.9032535971
31
0.0000000000
11
-9.1658485334
21
-2.8838024946
31
0.0000000000
0
SPLINE
5
2B1
100
AcDbEntity
8
0
100
AcDbSpline
62
7
6
CONTINUOUS
70
0
71
3
72
8
73
4
74
2
42
0.0000001000
43
0.0000001000
44
0.0000000001
12
0.0115080930
22
0.0058339679
32
0.0000000000
13
0.0116031349
23
0.0056425534
33
0.0000000000
40
0.0000000000
40
0.0000000000
40
0.0000000000
40
0.0000000000
40
1.0000000000
40
1.0000000000
40
1.0000000000
40
1.0000000000
10
-9.1658485334
20
-2.8838024946
30
0.0000000000
10
-9.1620125024
20
-2.8818578387
30
0.0000000000
10
-9.1581603631
20
-2.8799449557
30
0.0000000000
10
-9.1542926515
20
-2.8780641046
30
0.0000000000
11
-9.1658485334
21
-2.8838024946
31
0.0000000000
11
-9.1542926515
21
-2.8780641046
31
0.0000000000
0
SPLINE
5
2B2
100
AcDbEntity
8
0
100
AcDbSpline
62
9
6
CONTINUOUS
70
0
71
3
72
14
73
10
74
8
42
0.0000001000
43
0.0000001000
44
0.0000000001
12
0.0045822363
22
-0.1449711689
32
0.0000000000
13
0.1294612960
23
-0.0648339102
33
0.0000000000
40
0.0000000000
40
0.0000000000
40
0.0000000000
40
0.0000000000
40
0.1127124050
40
0.2369663452
40
0.3681315617
40
0.5087569620
40
0.6605018611
40
0.8242025437
40
1.0000000000
40
1.0000000000
40
1.0000000000
40
1.0000000000
10
-10.9894525239
20
-11.6808229236
30
0.0000000000
10
-10.9892803656
20
-11.6862696066
30
0.0000000000
10
-10.9877714718
20
-11.6976856206
30
0.0000000000
10
-10.9819225382
20
-11.7145882426
30
0.0000000000
10
-10.9723167937
20
-11.7312308868
30
0.0000000000
10
-10.9592498884
20
-11.7470554171
30
0.0000000000
10
-10.9429071442
20
-11.7618963646
30
0.0000000000
10
-10.9234973931
20
-11.7755967962
30
0.0000000000
10
-10.9091615823
20
-11.7835950901
30
0.0000000000
10
-10.9015752601
20
-11.7873943023
30
0.0000000000
11
-10.9894525239
21
-11.6808229236
31
0.0000000000
11
-10.9873345499
21
-11.6970083812
31
0.0000000000
11
-10.9815266528
21
-11.7140356299
31
0.0000000000
11
-10.9721286049
21
-11.7305384218
31
0.0000000000
11
-10.9592559849
21
-11.7463138026
31
0.0000000000
11
-10.9430671025
21
-11.7611677642
31
0.0000000000
11
-10.9237610513
21
-11.7749176302
31
0.0000000000
11
-10.9015752601
21
-11.7873943023
31
0.0000000000
0
SPLINE
5
2B3
100
AcDbEntity
8
0
100
AcDbSpline
62
7
6
CONTINUOUS
70
0
71
3
72
57
73
53
74
51
42
0.0000001000
43
0.0000001000
44
0.0000000001
12
0.0000000000
22
-6.4028599619
32
0.0000000000
13
0.0000000000
23
6.4028599619
33
0.0000000000
40
0.0000000000
40
0.0000000000
40
0.0000000000
40
0.0000000000
40
0.0208141834
40
0.0410671606
40
0.0607246749
40
0.0798018135
40
0.0982727923
40
0.1161736150
40
0.1335035830
40
0.1503096621
40
0.1666303491
40
0.1825172826
40
0.1980516151
40
0.2132944617
40
0.2283552216
40
0.2433084241
40
0.2582715709
40
0.2733303233
40
0.2885872886
40
0.3041332720
40
0.3200387212
40
0.3363897237
40
0.3532227785
40
0.3706060889
40
0.3885496412
40
0.4070941099
40
0.4262357109
40
0.4459785827
40
0.4663183680
40
0.4872214913
40
0.5086857723
40
0.5306509131
40
0.5531091269
40
0.5759890801
40
0.5992669856
40
0.6228777862
40
0.6467691643
40
0.6708958700
40
0.6951779370
40
0.7195861262
40
0.7440272239
40
0.7684744198
40
0.7928398819
40
0.8170843092
40
0.8411431666
40
0.8649527452
40
0.8884795756
40
0.9116450846
40
0.9344338434
40
0.9567712980
40
0.9786446725
40
1.0000000000
40
1.0000000000
40
1.0000000000
40
1.0000000000
10
-0.8825476025
20
-2.8300941910
30
0.0000000000
10
-0.8825476025
20
-2.8745176249
30
0.0000000000
10
-0.8847549776
20
-2.9621860377
30
0.0000000000
10
-0.8949893107
20
-3.0914488764
30
0.0000000000
10
-0.9120702006
20
-3.2162549576
30
0.0000000000
10
-0.9359328041
20
-3.3360744211
30
0.0000000000
10
-0.9665042354
20
-3.4504919695
30
0.0000000000
10
-1.0036659925
20
-3.5590172836
30
0.0000000000
10
-1.0473023712
20
-3.6612630711
30
0.0000000000
10
-1.0972499609
20
-3.7568008326
30
0.0000000000
10
-1.1533373523
20
-3.8452554332
30
0.0000000000
10
-1.2153656957
20
-3.9262712051
30
0.0000000000
10
-1.2830955014
20
-3.9994950651
30
0.0000000000
10
-1.3562950298
20
-4.0646407838
30
0.0000000000
10
-1.4346538314
20
-4.1214022384
30
0.0000000000
10
-1.5178934513
20
-4.1695544009
30
0.0000000000
10
-1.6056486065
20
-4.2088707757
30
0.0000000000
10
-1.6975824324
20
-4.2391919821
30
0.0000000000
10
-1.7933062723
20
-4.2603890053
30
0.0000000000
10
-1.8924250230
20
-4.2723774984
30
0.0000000000
10
-1.9945538774
20
-4.2751189588
30
0.0000000000
10
-2.0992534789
20
-4.2686101239
30
0.0000000000
10
-2.2061473682
20
-4.2528842161
30
0.0000000000
10
-2.3147703592
20
-4.2280181488
30
0.0000000000
10
-2.4247360421
20
-4.1941086196
30
0.0000000000
10
-2.5355777817
20
-4.1513063251
30
0.0000000000
10
-2.6468794033
20
-4.0997777695
30
0.0000000000
10
-2.7581941004
20
-4.0397355356
30
0.0000000000
10
-2.8690703183
20
-3.9714274296
30
0.0000000000
10
-2.9790922638
20
-3.8951146323
30
0.0000000000
10
-3.0877871428
20
-3.8111286393
30
0.0000000000
10
-3.1947653389
20
-3.7197745608
30
0.0000000000
10
-3.2995583198
20
-3.6214556037
30
0.0000000000
10
-3.4017881494
20
-3.5165296272
30
0.0000000000
10
-3.5010199036
20
-3.4054460501
30
0.0000000000
10
-3.5968744272
20
-3.2886318414
30
0.0000000000
10
-3.6889696912
20
-3.1665564107
30
0.0000000000
10
-3.7769289760
20
-3.0397219704
30
0.0000000000
10
-3.8604284751
20
-2.9085995902
30
0.0000000000
10
-3.9391105918
20
-2.7737541769
30
0.0000000000
10
-4.0126987150
20
-2.6356635760
30
0.0000000000
10
-4.0808768116
20
-2.4949245570
30
0.0000000000
10
-4.1434017077
20
-2.3520423177
30
0.0000000000
10
-4.2000172685
20
-2.2076064356
30
0.0000000000
10
-4.2505072358
20
-2.0621712814
30
0.0000000000
10
-4.2946805998
20
-1.9162929878
30
0.0000000000
10
-4.3323574227
20
-1.7705702647
30
0.0000000000
10
-4.3634058443
20
-1.6255181533
30
0.0000000000
10
-4.3876948083
20
-1.4817539912
30
0.0000000000
10
-4.4051403996
20
-1.3397742011
30
0.0000000000
10
-4.4156693877
20
-1.2001830260
30
0.0000000000
10
-4.4180815084
20
-1.1079056284
30
0.0000000000
10
-4.4180815084
20
-1.0623272380
30
0.0000000000
11
-0.8825476025
21
-2.8300941910
31
0.0000000000
11
-0.8859960587
21
-2.9633198698
31
0.0000000000
11
-0.8963335699
21
-3.0925841502
31
0.0000000000
11
-0.9135108999
21
-3.2172708141
31
0.0000000000
11
-0.9374864602
21
-3.3370429592
31
0.0000000000
11
-0.9681380024
21
-3.4512689970
31
0.0000000000
11
-1.0053940899
21
-3.5596614185
31
0.0000000000
11
-1.0490731951
21
-3.6616641574
31
0.0000000000
11
-1.0990469923
21
-3.7569630543
31
0.0000000000
11
-1.1551149408
21
-3.8451471884
31
0.0000000000
11
-1.2170462964
21
-3.9258431231
31
0.0000000000
11
-1.2846593033
21
-3.9987924179
31
0.0000000000
11
-1.3576170910
21
-4.0636190646
31
0.0000000000
11
-1.4357415399
21
-4.1201494889
31
0.0000000000
11
-1.5186260719
21
-4.1680757505
31
0.0000000000
11
-1.6060526959
21
-4.2072618945
31
0.0000000000
11
-1.6976051295
21
-4.2375074143
31
0.0000000000
11
-1.7929663634
21
-4.2587022694
31
0.0000000000
11
-1.8917728802
21
-4.2707536537
31
0.0000000000
11
-1.9935733557
21
-4.2736037232
31
0.0000000000
11
-2.0980727494
21
-4.2672367330
31
0.0000000000
11
-2.2047242302
21
-4.2516828320
31
0.0000000000
11
-2.3132509485
21
-4.2269788365
31
0.0000000000
11
-2.4230790607
21
-4.1932518462
31
0.0000000000
11
-2.5338914037
21
-4.1505991683
31
0.0000000000
11
-2.6451625801
21
-4.0992189997
31
0.0000000000
11
-2.7564743268
21
-4.0393074278
31
0.0000000000
11
-2.8674088444
21
-3.9710863597
31
0.0000000000
11
-2.9774377896
21
-3.8948845511
31
0.0000000000
11
-3.0862414656
21
-3.8109230685
31
0.0000000000
11
-3.1932412217
21
-3.7196510403
31
0.0000000000
11
-3.2981547068
21
-3.6213114253
31
0.0000000000
11
-3.4004287461
21
-3.5164237151
31
0.0000000000
11
-3.4997601523
21
-3.4053033557
31
0.0000000000
11
-3.5956902028
21
-3.2884624178
31
0.0000000000
11
-3.6878452115
21
-3.1663631205
31
0.0000000000
11
-3.7758996708
21
-3.0394361438
31
0.0000000000
11
-3.8594264591
21
-2.9083039584
31
0.0000000000
11
-3.9381980295
21
-2.7733255488
31
0.0000000000
11
-4.0117973336
21
-2.6352198707
31
0.0000000000
11
-4.0800361065
21
-2.4943450041
31
0.0000000000
11
-4.1425679989
21
-2.3514168449
31
0.0000000000
11
-4.1992012540
21
-2.2068825318
31
0.0000000000
11
-4.2496970335
21
-2.0613483751
31
0.0000000000
11
-4.2938458872
21
-1.9154316267
31
0.0000000000
11
-4.3315126940
21
-1.7695778637
31
0.0000000000
11
-4.3625092318
21
-1.6245272807
31
0.0000000000
11
-4.3867587927
21
-1.4806431960
31
0.0000000000
11
-4.4041349234
21
-1.3386790510
31
0.0000000000
11
-4.4145928260
21
-1.1990178966
31
0.0000000000
11
-4.4180815084
21
-1.0623272380
31
0.0000000000
0
ENDSEC
0
SECTION
2
OBJECTS
0
DICTIONARY
5
2B4
100
AcDbDictionary
3
ACAD_GROUP
350
2B5
3
ACAD_MLINESTYLE
350
2B6
0
DICTIONARY
5
2B5
102
{ACAD_REACTORS
330
2B4
102
}
100
AcDbDictionary
0
DICTIONARY
5
2B6
102
{ACAD_REACTORS
330
2B4
102
}
100
AcDbDictionary
3
STANDARD
350
2B7
0
MLINESTYLE
5
2B7
102
{ACAD_REACTORS
330
2B6
102
}
100
AcDbMlineStyle
2
STANDARD
70
0
3

62
256
51
90.0
52
90.0
71
2
49
0.5
62
256
6
BYLAYER
49
-0.5
62
256
6
BYLAYER
0
ENDSEC
0
EOF
