  0
SECTION
  2
HEADER
  9
$ACADVER
  1
AC1015
  9
$DWGCODEPAGE
  3
ANSI_1252
  9
$EXTMAX
 10
297.0
 20
210.0
 30
0.0
  9
$EXTMIN
 10
0.0
 20
0.0
 30
0.0
  9
$LIMMIN
 10
0.0
 20
0.0
  9
$LIMMAX
 10
297.0
 20
210.0
  9
$VIEWCTR
 10
148.5
 20
105.0
  9
$VIEWSIZE
 40
210.0
  9
$CLAYER
  8
0
  9
$LTSCALE
 40
16.335
  9
$CELTYPE
  6
BYLAYER
  9
$DIMSCALE
 40
1.0
  9
$DIMASZ
 40
3.0
  9
$DIMEXO
 40
1.85625
  9
$DIMDLI
 40
11.286
  9
$DIMEXE
 40
5.346
  9
$DIMCEN
 40
2.673
  9
$DIMLFAC
 40
1.0
  9
$DIMBLK
  1
_FILLED
  9
$DIMTXT
 40
3.0
  9
$DIMTOL
 70
1
  9
$DIMLIM
 70
0
  9
$DIMTFAC
 40
1.0
  9
$DIMTP
 40
0.01
  9
$DIMTM
 40
0.01
  9
$PDMODE
 70
3
  9
$PDSIZE
 40
3.0
  9
$HANDSEED
  5
2A1
  9
$TILEMODE
 70
1
  9
$MEASUREMENT
 70
1
  9
$INSUNITS
 70
4
  0
ENDSEC
  0
SECTION
  2
CLASSES
  0
CLASS
  1
ACDBDICTIONARYWDFLT
  2
AcDbDictionaryWithDefault
  3
AutoCAD 2000
 90
0
280
0
281
0
  0
CLASS
  1
ACDBPLACEHOLDER
  2
AcDbPlaceHolder
  3
AutoCAD 2000
 90
0
280
0
281
0
  0
CLASS
  1
LAYOUT
  2
AcDbLayout
  3
AutoCAD 2000
 90
0
280
0
281
0
  0
ENDSEC
  0
SECTION
  2
TABLES
  0
TABLE
  2
VPORT
  5
8
100
AcDbSymbolTable
 70
2
  0
VPORT
  5
1F4
100
AcDbSymbolTableRecord
100
AcDbViewportTableRecord
  2
*ACTIVE
 70
0
 10
0.0
 20
0.0
 11
1.0
 21
1.0
 12
148.5
 22
105.0
 13
0.0
 23
0.0
 14
1.0
 24
1.0
 15
0.0
 25
0.0
 16
0.0
 26
0.0
 36
1.0
 17
0.0
 27
0.0
 37
0.0
 40
210.0
 41
1.4142857143
 42
50.0
 43
0.0
 44
0.0
 50
0.0
 51
0.0
 71
0
 72
100
 73
1
 74
1
 75
0
 76
0
 77
0
 78
0
  0
ENDTAB
  0
TABLE
  2
LTYPE
  5
5
100
AcDbSymbolTable
 70
6
  0
LTYPE
  5
14
100
AcDbSymbolTableRecord
100
AcDbLinetypeTableRecord
  2
BYBLOCK
 70
0
  3

 72
65
 73
0
 40
0.0
  0
LTYPE
  5
15
100
AcDbSymbolTableRecord
100
AcDbLinetypeTableRecord
  2
BYLAYER
 70
0
  3

 72
65
 73
0
 40
0.0
  0
LTYPE
  5
16
100
AcDbSymbolTableRecord
100
AcDbLinetypeTableRecord
  2
CONTINUOUS
 70
64
  3
Solid line
 72
65
 73
0
 40
0.0
  0
LTYPE
  5
1F5
100
AcDbSymbolTableRecord
100
AcDbLinetypeTableRecord
  2
CENTER
 70
64
  3
____ _ ____ _ ____ _ ____ _ ____ _ ____ _ ____
 72
65
 73
4
 40
0.6
 49
0.375
 74
0
 49
-0.075
 74
0
 49
0.075
 74
0
 49
-0.075
 74
0
  0
LTYPE
  5
1F6
100
AcDbSymbolTableRecord
100
AcDbLinetypeTableRecord
  2
HIDDEN
 70
64
  3
- - - - - - - - - - - - - - - - - - - -
 72
65
 73
2
 40
0.2
 49
0.1
 74
0
 49
-0.1
 74
0
  0
LTYPE
  5
1F7
100
AcDbSymbolTableRecord
100
AcDbLinetypeTableRecord
  2
PHANTOM
 70
64
  3
_____ _ _ _____ _ _ _____ _ _ _____
 72
65
 73
6
 40
0.8
 49
0.45
 74
0
 49
-0.05
 74
0
 49
0.1
 74
0
 49
-0.05
 74
0
 49
0.1
 74
0
 49
-0.05
 74
0
  0
LTYPE
  5
1F8
100
AcDbSymbolTableRecord
100
AcDbLinetypeTableRecord
  2
DOT
 70
64
  3
. . . . . . . . . . . . . . . . . . . .
 72
65
 73
2
 40
0.2
 49
0.1
 74
0
 49
-0.1
 74
0
  0
LTYPE
  5
1F9
100
AcDbSymbolTableRecord
100
AcDbLinetypeTableRecord
  2
DASHED
 70
64
  3
- - - - - - - - - - - - - - - - - - - -
 72
65
 73
2
 40
0.2
 49
0.1
 74
0
 49
-0.1
 74
0
  0
ENDTAB
  0
TABLE
  2
LAYER
  5
2
100
AcDbSymbolTable
 70
36
  0
LAYER
  5
10
100
AcDbSymbolTableRecord
100
AcDbLayerTableRecord
  2
0
 70
0
 62
7
  6
CONTINUOUS
370
-3
390
F
  0
LAYER
  5
1FA
100
AcDbSymbolTableRecord
100
AcDbLayerTableRecord
  2
DEFAULT_1
 70
0
 62
7
  6
CENTER
370
-3
390
F
  0
LAYER
  5
1FB
100
AcDbSymbolTableRecord
100
AcDbLayerTableRecord
  2
DEFAULT_2
 70
0
 62
7
  6
HIDDEN
370
-3
390
F
  0
LAYER
  5
1FC
100
AcDbSymbolTableRecord
100
AcDbLayerTableRecord
  2
DEFAULT_3
 70
0
 62
7
  6
PHANTOM
370
-3
390
F
  0
LAYER
  5
1FD
100
AcDbSymbolTableRecord
100
AcDbLayerTableRecord
  2
ASSI
 70
0
 62
7
  6
CONTINUOUS
370
-3
390
F
  0
LAYER
  5
1FE
100
AcDbSymbolTableRecord
100
AcDbLayerTableRecord
  2
COORDINATE
 70
0
 62
7
  6
CONTINUOUS
370
-3
390
F
  0
LAYER
  5
1FF
100
AcDbSymbolTableRecord
100
AcDbLayerTableRecord
  2
COORD_ORIGINE
 70
0
 62
7
  6
CONTINUOUS
370
-3
390
F
  0
LAYER
  5
200
100
AcDbSymbolTableRecord
100
AcDbLayerTableRecord
  2
COPY_PUBLISH
 70
0
 62
7
  6
CONTINUOUS
370
-3
390
F
  0
LAYER
  5
201
100
AcDbSymbolTableRecord
100
AcDbLayerTableRecord
  2
COSMETIC
 70
0
 62
7
  6
CONTINUOUS
370
-3
390
F
  0
LAYER
  5
202
100
AcDbSymbolTableRecord
100
AcDbLayerTableRecord
  2
CURVE
 70
0
 62
7
  6
CONTINUOUS
370
-3
390
F
  0
LAYER
  5
203
100
AcDbSymbolTableRecord
100
AcDbLayerTableRecord
  2
DRAFT
 70
0
 62
7
  6
CONTINUOUS
370
-3
390
F
  0
LAYER
  5
204
100
AcDbSymbolTableRecord
100
AcDbLayerTableRecord
  2
IGES
 70
0
 62
7
  6
CONTINUOUS
370
-3
390
F
  0
LAYER
  5
205
100
AcDbSymbolTableRecord
100
AcDbLayerTableRecord
  2
IMPORT_IGES
 70
0
 62
7
  6
CONTINUOUS
370
-3
390
F
  0
LAYER
  5
206
100
AcDbSymbolTableRecord
100
AcDbLayerTableRecord
  2
INTF_12
 70
0
 62
7
  6
CONTINUOUS
370
-3
390
F
  0
LAYER
  5
207
100
AcDbSymbolTableRecord
100
AcDbLayerTableRecord
  2
NOTE
 70
0
 62
7
  6
CONTINUOUS
370
-3
390
F
  0
LAYER
  5
208
100
AcDbSymbolTableRecord
100
AcDbLayerTableRecord
  2
PIANI
 70
0
 62
7
  6
CONTINUOUS
370
-3
390
F
  0
LAYER
  5
209
100
AcDbSymbolTableRecord
100
AcDbLayerTableRecord
  2
PIANI_ORIGINE
 70
0
 62
7
  6
CONTINUOUS
370
-3
390
F
  0
LAYER
  5
20A
100
AcDbSymbolTableRecord
100
AcDbLayerTableRecord
  2
RACCORDO
 70
0
 62
7
  6
CONTINUOUS
370
-3
390
F
  0
LAYER
  5
20B
100
AcDbSymbolTableRecord
100
AcDbLayerTableRecord
  2
SMUSSO
 70
0
 62
7
  6
CONTINUOUS
370
-3
390
F
  0
LAYER
  5
20C
100
AcDbSymbolTableRecord
100
AcDbLayerTableRecord
  2
SUPERFICI
 70
0
 62
7
  6
CONTINUOUS
370
-3
390
F
  0
LAYER
  5
20D
100
AcDbSymbolTableRecord
100
AcDbLayerTableRecord
  2
TRASH
 70
0
 62
7
  6
CONTINUOUS
370
-3
390
F
  0
ENDTAB
  0
TABLE
  2
STYLE
  5
3
100
AcDbSymbolTable
 70
1
  0
STYLE
  5
11
100
AcDbSymbolTableRecord
100
AcDbTextStyleTableRecord
  2
STANDARD
 70
0
 40
0.0
 41
0.8
 50
0.0
 71
0
 42
0.2
  3
txt
  4

  0
STYLE
  5
20E
100
AcDbSymbolTableRecord
100
AcDbTextStyleTableRecord
  2
TEXTSTYLE_1
 70
0
 40
0.0
 41
0.8
 50
0.0
 71
0
 42
0.2
  3
gdt
  4

  0
ENDTAB
  0
TABLE
  2
VIEW
  5
6
100
AcDbSymbolTable
 70
0
  0
ENDTAB
  0
TABLE
  2
UCS
  5
7
100
AcDbSymbolTable
 70
0
  0
ENDTAB
  0
TABLE
  2
APPID
  5
9
100
AcDbSymbolTable
 70
1
  0
APPID
  5
20F
100
AcDbSymbolTableRecord
100
AcDbRegAppTableRecord
  2
ACAD
 70
0
  0
ENDTAB
  0
TABLE
  2
BLOCK_RECORD
  5
1
100
AcDbSymbolTable
 70
0
  0
BLOCK_RECORD
  5
210
100
AcDbSymbolTableRecord
100
AcDbBlockTableRecord
  2
*Model_Space
  0
BLOCK_RECORD
  5
211
100
AcDbSymbolTableRecord
100
AcDbBlockTableRecord
  2
*Paper_Space
  0
ENDTAB
  0
TABLE
  2
DIMSTYLE
  5
A
100
AcDbSymbolTable
 70
1
100
AcDbDimStyleTable
 71
0
  0
DIMSTYLE
105
212
100
AcDbSymbolTableRecord
100
AcDbDimStyleTableRecord
  2
STANDARD
 70
0
  3

  4

 40
1.0
 41
3.0
 42
0.0625
 43
0.38
 44
0.18
 45
0.0
 46
0.0
 47
0.01
 48
0.01
140
3.0
141
0.09
142
0.0
143
25.4
144
1.0
145
0.0
146
1.0
147
0.09
 71
1.0
 72
0.0
 73
0
 74
0
 75
0
 76
0
 77
1
 78
8
170
0
171
2
172
0
173
0
174
0
175
0
176
0
177
0
178
0
270
2
271
2
272
2
273
2
274
2
275
0
280
0
281
0
282
0
283
1
284
8
285
0
286
0
287
3
288
0
340
11
  0
ENDTAB
  0
ENDSEC
  0
SECTION
  2
BLOCKS
  0
BLOCK
  5
20
100
AcDbEntity
  8
0
100
AcDbBlockBegin
  2
*Model_Space
 70
0
 10
0.0
 20
0.0
 30
0.0
  3
*Model_Space
  1

  0
ENDBLK
  5
21
100
AcDbEntity
  8
0
100
AcDbBlockEnd
  0
BLOCK
  5
1C
100
AcDbEntity
  8
0
100
AcDbBlockBegin
  2
*Paper_Space
 70
0
 10
0.0
 20
0.0
 30
0.0
  3
*Paper_Space
  1

  0
ENDBLK
  5
1D
100
AcDbEntity
  8
0
100
AcDbBlockEnd
  0
ENDSEC
  0
SECTION
  2
ENTITIES
  0
LINE
  5
213
100
AcDbEntity
  8
RACCORDO
100
AcDbLine
 62
7
  6
CONTINUOUS
 10
-19.4697401753
 20
15.071546035
 11
-15.7487329247
 21
17.0791148129
  0
LINE
  5
214
100
AcDbEntity
  8
ASSI
100
AcDbLine
 62
7
  6
CONTINUOUS
 10
-19.4697401753
 20
15.071546035
 11
-15.7487329247
 21
17.0791148129
  0
LINE
  5
215
100
AcDbEntity
  8
RACCORDO
100
AcDbLine
 62
253
  6
CONTINUOUS
 10
-19.3541193989
 20
15.0664566039
 11
-15.6343147394
 21
17.0733765563
  0
LINE
  5
216
100
AcDbEntity
  8
ASSI
100
AcDbLine
 62
253
  6
CONTINUOUS
 10
-19.3541193989
 20
15.0664566039
 11
-15.6343147394
 21
17.0733765563
  0
LINE
  5
217
100
AcDbEntity
  8
DRAFT
100
AcDbLine
 62
7
  6
CONTINUOUS
 10
-13.349942601
 20
15.9311904871
 11
-15.2856714628
 21
14.7323849855
  0
LINE
  5
218
100
AcDbEntity
  8
ASSI
100
AcDbLine
 62
7
  6
CONTINUOUS
 10
-13.349942601
 20
15.9311904871
 11
-15.2856714628
 21
14.7323849855
  0
LINE
  5
219
100
AcDbEntity
  8
RACCORDO
100
AcDbLine
 62
7
  6
CONTINUOUS
 10
15.9771546817
 20
-17.0820830718
 11
18.3765734301
 21
-16.4328155417
  0
LINE
  5
21A
100
AcDbEntity
  8
ASSI
100
AcDbLine
 62
7
  6
CONTINUOUS
 10
15.9771546817
 20
-17.0820830718
 11
18.3765734301
 21
-16.4328155417
  0
LWPOLYLINE
  5
21B
100
AcDbEntity
  8
RACCORDO
100
AcDbPolyline
 62
7
  6
CONTINUOUS
 90
3
 70
0
 10
-19.3686752177
 20
0.8425809236
 10
-19.3682377165
 20
0.8311232759
 10
-19.3619110683
 20
0.7549366268
  0
LWPOLYLINE
  5
21C
100
AcDbEntity
  8
ASSI
100
AcDbPolyline
 62
7
  6
CONTINUOUS
 90
3
 70
0
 10
-19.3686752177
 20
0.8425809236
 10
-19.3682377165
 20
0.8311232759
 10
-19.3619110683
 20
0.7549366268
  0
LWPOLYLINE
  5
21D
100
AcDbEntity
  8
RACCORDO
100
AcDbPolyline
 62
7
  6
CONTINUOUS
 90
10
 70
0
 10
-19.6010340815
 20
14.851265785
 10
-19.5969308996
 20
13.3322576957
 10
-19.5872885069
 20
11.752116419
 10
-19.5721691605
 20
10.1748736583
 10
-19.5515730863
 20
8.6005621379
 10
-19.5255006719
 20
7.0292091233
 10
-19.4939523099
 20
5.4608401447
 10
-19.4569284902
 20
3.8954829138
 10
-19.4144300421
 20
2.3331703799
 10
-19.3686855503
 20
0.8425328866
  0
LWPOLYLINE
  5
21E
100
AcDbEntity
  8
ASSI
100
AcDbPolyline
 62
7
  6
CONTINUOUS
 90
10
 70
0
 10
-19.6010340815
 20
14.851265785
 10
-19.5969308996
 20
13.3322576957
 10
-19.5872885069
 20
11.752116419
 10
-19.5721691605
 20
10.1748736583
 10
-19.5515730863
 20
8.6005621379
 10
-19.5255006719
 20
7.0292091233
 10
-19.4939523099
 20
5.4608401447
 10
-19.4569284902
 20
3.8954829138
 10
-19.4144300421
 20
2.3331703799
 10
-19.3686855503
 20
0.8425328866
  0
LINE
  5
21F
100
AcDbEntity
  8
DRAFT
100
AcDbLine
 62
7
  6
CONTINUOUS
 10
-13.349942601
 20
14.9433562034
 11
-14.4031284852
 21
14.2911134967
  0
LINE
  5
220
100
AcDbEntity
  8
ASSI
100
AcDbLine
 62
7
  6
CONTINUOUS
 10
-13.349942601
 20
14.9433562034
 11
-14.4031284852
 21
14.2911134967
  0
LINE
  5
221
100
AcDbEntity
  8
RACCORDO
100
AcDbLine
 62
253
  6
CONTINUOUS
 10
16.085519288
 20
-16.9306793671
 11
18.4601634467
 21
-16.2881156842
  0
LINE
  5
222
100
AcDbEntity
  8
ASSI
100
AcDbLine
 62
253
  6
CONTINUOUS
 10
16.085519288
 20
-16.9306793671
 11
18.4601634467
 21
-16.2881156842
  0
LWPOLYLINE
  5
223
100
AcDbEntity
  8
RACCORDO
100
AcDbPolyline
 62
7
  6
CONTINUOUS
 90
11
 70
0
 10
-19.3619110683
 20
0.7549366268
 10
-19.3498006398
 20
0.6820792707
 10
-19.3319279316
 20
0.6127296435
 10
-19.3084194836
 20
0.5473286631
 10
-19.2796183711
 20
0.4866481915
 10
-19.2459073244
 20
0.4311506812
 10
-19.2075136806
 20
0.3808720509
 10
-19.1647356838
 20
0.3360288842
 10
-19.1180157244
 20
0.2969657456
 10
-19.0678573753
 20
0.2639288183
 10
-19.0396452341
 20
0.2487115247
  0
LWPOLYLINE
  5
224
100
AcDbEntity
  8
ASSI
100
AcDbPolyline
 62
7
  6
CONTINUOUS
 90
11
 70
0
 10
-19.3619110683
 20
0.7549366268
 10
-19.3498006398
 20
0.6820792707
 10
-19.3319279316
 20
0.6127296435
 10
-19.3084194836
 20
0.5473286631
 10
-19.2796183711
 20
0.4866481915
 10
-19.2459073244
 20
0.4311506812
 10
-19.2075136806
 20
0.3808720509
 10
-19.1647356838
 20
0.3360288842
 10
-19.1180157244
 20
0.2969657456
 10
-19.0678573753
 20
0.2639288183
 10
-19.0396452341
 20
0.2487115247
  0
LINE
  5
225
100
AcDbEntity
  8
DRAFT
100
AcDbLine
 62
7
  6
CONTINUOUS
 10
-13.349942601
 20
15.9311904871
 11
-13.349942601
 21
14.9433562034
  0
LINE
  5
226
100
AcDbEntity
  8
ASSI
100
AcDbLine
 62
7
  6
CONTINUOUS
 10
-13.349942601
 20
15.9311904871
 11
-13.349942601
 21
14.9433562034
  0
LWPOLYLINE
  5
227
100
AcDbEntity
  8
RACCORDO
100
AcDbPolyline
 62
7
  6
CONTINUOUS
 90
9
 70
0
 10
15.5511452669
 20
-17.0466802244
 10
15.5682774907
 20
-17.0549342999
 10
15.6284305362
 20
-17.0784053813
 10
15.6923518403
 20
-17.0949224322
 10
15.759300425
 20
-17.1039759903
 10
15.8282213838
 20
-17.1052422242
 10
15.8984323464
 20
-17.0986139209
 10
15.9695107492
 20
-17.0840853554
 10
15.9768500895
 20
-17.0821448434
  0
LWPOLYLINE
  5
228
100
AcDbEntity
  8
ASSI
100
AcDbPolyline
 62
7
  6
CONTINUOUS
 90
9
 70
0
 10
15.5511452669
 20
-17.0466802244
 10
15.5682774907
 20
-17.0549342999
 10
15.6284305362
 20
-17.0784053813
 10
15.6923518403
 20
-17.0949224322
 10
15.759300425
 20
-17.1039759903
 10
15.8282213838
 20
-17.1052422242
 10
15.8984323464
 20
-17.0986139209
 10
15.9695107492
 20
-17.0840853554
 10
15.9768500895
 20
-17.0821448434
  0
LINE
  5
229
100
AcDbEntity
  8
RACCORDO
100
AcDbLine
 62
7
  6
CONTINUOUS
 10
-19.0395428465
 20
0.2486451421
 11
15.5525146828
 21
-17.0473836226
  0
LINE
  5
22A
100
AcDbEntity
  8
ASSI
100
AcDbLine
 62
7
  6
CONTINUOUS
 10
-19.0395428465
 20
0.2486451421
 11
15.5525146828
 21
-17.0473836226
  0
LINE
  5
22B
100
AcDbEntity
  8
RACCORDO
100
AcDbLine
 62
253
  6
CONTINUOUS
 10
-19.295454078
 20
0.7537170251
 11
15.2897535871
 21
-16.5388868075
  0
LINE
  5
22C
100
AcDbEntity
  8
ASSI
100
AcDbLine
 62
253
  6
CONTINUOUS
 10
-19.295454078
 20
0.7537170251
 11
15.2897535871
 21
-16.5388868075
  0
LINE
  5
22D
100
AcDbEntity
  8
RACCORDO
100
AcDbLine
 62
7
  6
CONTINUOUS
 10
18.2833867504
 20
-16.6673784723
 11
18.0117167221
 21
-16.5315434581
  0
LINE
  5
22E
100
AcDbEntity
  8
ASSI
100
AcDbLine
 62
7
  6
CONTINUOUS
 10
18.2833867504
 20
-16.6673784723
 11
18.0117167221
 21
-16.5315434581
  0
LINE
  5
22F
100
AcDbEntity
  8
DRAFT
100
AcDbLine
 62
7
  6
CONTINUOUS
 10
-2.1540983172
 20
4.0161957665
 11
-2.6040820759
 21
3.7786450471
  0
LINE
  5
230
100
AcDbEntity
  8
DRAFT
100
AcDbLine
 62
7
  6
CONTINUOUS
 10
-1.0520245243
 20
1.8434113399
 11
-1.5247391263
 21
1.619959146
  0
LINE
  5
231
100
AcDbEntity
  8
RACCORDO
100
AcDbLine
 62
253
  6
CONTINUOUS
 10
15.0491461347
 20
-2.5256214602
 11
-19.5278107651
 21
14.7628569897
  0
LINE
  5
232
100
AcDbEntity
  8
ASSI
100
AcDbLine
 62
253
  6
CONTINUOUS
 10
15.0491461347
 20
-2.5256214602
 11
-19.5278107651
 21
14.7628569897
  0
LINE
  5
233
100
AcDbEntity
  8
RACCORDO
100
AcDbLine
 62
253
  6
CONTINUOUS
 10
15.2228375026
 20
-2.2220218469
 11
-19.3541193989
 21
15.0664566039
  0
LINE
  5
234
100
AcDbEntity
  8
ASSI
100
AcDbLine
 62
253
  6
CONTINUOUS
 10
15.2228375026
 20
-2.2220218469
 11
-19.3541193989
 21
15.0664566039
  0
LINE
  5
235
100
AcDbEntity
  8
DRAFT
100
AcDbLine
 62
7
  6
CONTINUOUS
 10
16.7904358505
 20
0.8610012613
 11
14.4835240252
 21
-0.1522127585
  0
LINE
  5
236
100
AcDbEntity
  8
ASSI
100
AcDbLine
 62
7
  6
CONTINUOUS
 10
16.7904358505
 20
0.8610012613
 11
14.4835240252
 21
-0.1522127585
  0
LINE
  5
237
100
AcDbEntity
  8
DRAFT
100
AcDbLine
 62
7
  6
CONTINUOUS
 10
14.4835240252
 20
-0.1522127585
 11
-15.2856714628
 21
14.7323849855
  0
LINE
  5
238
100
AcDbEntity
  8
ASSI
100
AcDbLine
 62
7
  6
CONTINUOUS
 10
14.4835240252
 20
-0.1522127585
 11
-15.2856714628
 21
14.7323849855
  0
LINE
  5
239
100
AcDbEntity
  8
RACCORDO
100
AcDbLine
 62
253
  6
CONTINUOUS
 10
19.0748079889
 20
-0.2811848079
 11
15.2228375026
 21
-2.2220218469
  0
LINE
  5
23A
100
AcDbEntity
  8
ASSI
100
AcDbLine
 62
253
  6
CONTINUOUS
 10
19.0748079889
 20
-0.2811848079
 11
15.2228375026
 21
-2.2220218469
  0
LINE
  5
23B
100
AcDbEntity
  8
RACCORDO
100
AcDbLine
 62
253
  6
CONTINUOUS
 10
19.4636257362
 20
-1.3501531362
 11
19.2568668485
 21
-1.2467736924
  0
LINE
  5
23C
100
AcDbEntity
  8
ASSI
100
AcDbLine
 62
253
  6
CONTINUOUS
 10
19.4636257362
 20
-1.3501531362
 11
19.2568668485
 21
-1.2467736924
  0
LINE
  5
23D
100
AcDbEntity
  8
DRAFT
100
AcDbLine
 62
7
  6
CONTINUOUS
 10
19.5393375107
 20
-1.3151869298
 11
19.2515577603
 21
-1.1712970546
  0
LINE
  5
23E
100
AcDbEntity
  8
ASSI
100
AcDbLine
 62
7
  6
CONTINUOUS
 10
19.5393375107
 20
-1.3151869298
 11
19.2515577603
 21
-1.1712970546
  0
LINE
  5
23F
100
AcDbEntity
  8
RACCORDO
100
AcDbLine
 62
7
  6
CONTINUOUS
 10
19.0748079889
 20
-0.2811848079
 11
16.7904358505
 21
0.8610012613
  0
LINE
  5
240
100
AcDbEntity
  8
ASSI
100
AcDbLine
 62
7
  6
CONTINUOUS
 10
19.0748079889
 20
-0.2811848079
 11
16.7904358505
 21
0.8610012613
  0
LINE
  5
241
100
AcDbEntity
  8
RACCORDO
100
AcDbLine
 62
7
  6
CONTINUOUS
 10
-13.349942601
 20
15.9311904871
 11
-15.6343147394
 21
17.0733765563
  0
LINE
  5
242
100
AcDbEntity
  8
ASSI
100
AcDbLine
 62
7
  6
CONTINUOUS
 10
-13.349942601
 20
15.9311904871
 11
-15.6343147394
 21
17.0733765563
  0
LINE
  5
243
100
AcDbEntity
  8
RACCORDO
100
AcDbLine
 62
253
  6
CONTINUOUS
 10
19.2515577603
 20
-0.5860330695
 11
15.3995872758
 21
-2.5268701076
  0
LINE
  5
244
100
AcDbEntity
  8
ASSI
100
AcDbLine
 62
253
  6
CONTINUOUS
 10
19.2515577603
 20
-0.5860330695
 11
15.3995872758
 21
-2.5268701076
  0
LINE
  5
245
100
AcDbEntity
  8
RACCORDO
100
AcDbLine
 62
7
  6
CONTINUOUS
 10
19.5393375107
 20
-1.3151869298
 11
19.4636257362
 21
-1.3501531362
  0
LINE
  5
246
100
AcDbEntity
  8
ASSI
100
AcDbLine
 62
7
  6
CONTINUOUS
 10
19.5393375107
 20
-1.3151869298
 11
19.4636257362
 21
-1.3501531362
  0
LINE
  5
247
100
AcDbEntity
  8
RACCORDO
100
AcDbLine
 62
7
  6
CONTINUOUS
 10
18.4601634467
 20
-16.2881156842
 11
18.4601634467
 21
-16.5392852002
  0
LINE
  5
248
100
AcDbEntity
  8
ASSI
100
AcDbLine
 62
7
  6
CONTINUOUS
 10
18.4601634467
 20
-16.2881156842
 11
18.4601634467
 21
-16.5392852002
  0
LINE
  5
249
100
AcDbEntity
  8
RACCORDO
100
AcDbLine
 62
7
  6
CONTINUOUS
 10
19.2515577603
 20
-1.192780917
 11
19.2515577603
 21
-0.5860330695
  0
LINE
  5
24A
100
AcDbEntity
  8
ASSI
100
AcDbLine
 62
7
  6
CONTINUOUS
 10
19.2515577603
 20
-1.192780917
 11
19.2515577603
 21
-0.5860330695
  0
LINE
  5
24B
100
AcDbEntity
  8
DRAFT
100
AcDbLine
 62
7
  6
CONTINUOUS
 10
19.5393375107
 20
-1.3151869298
 11
19.5393375107
 21
-9.6542851598
  0
LINE
  5
24C
100
AcDbEntity
  8
ASSI
100
AcDbLine
 62
7
  6
CONTINUOUS
 10
19.5393375107
 20
-1.3151869298
 11
19.5393375107
 21
-9.6542851598
  0
LINE
  5
24D
100
AcDbEntity
  8
RACCORDO
100
AcDbLine
 62
7
  6
CONTINUOUS
 10
18.98319026
 20
-16.2922389437
 11
19.5393375107
 21
-9.6542851598
  0
LINE
  5
24E
100
AcDbEntity
  8
ASSI
100
AcDbLine
 62
7
  6
CONTINUOUS
 10
18.98319026
 20
-16.2922389437
 11
19.5393375107
 21
-9.6542851598
  0
LINE
  5
24F
100
AcDbEntity
  8
RACCORDO
100
AcDbLine
 62
253
  6
CONTINUOUS
 10
18.4601634467
 20
-16.5392852002
 11
18.98319026
 21
-16.2922389437
  0
LINE
  5
250
100
AcDbEntity
  8
ASSI
100
AcDbLine
 62
253
  6
CONTINUOUS
 10
18.4601634467
 20
-16.5392852002
 11
18.98319026
 21
-16.2922389437
  0
LINE
  5
251
100
AcDbEntity
  8
RACCORDO
100
AcDbLine
 62
7
  6
CONTINUOUS
 10
18.3932953246
 20
-16.6754086828
 11
18.9016120555
 21
-16.4353105802
  0
LINE
  5
252
100
AcDbEntity
  8
ASSI
100
AcDbLine
 62
7
  6
CONTINUOUS
 10
18.3932953246
 20
-16.6754086828
 11
18.9016120555
 21
-16.4353105802
  0
ARC
  5
253
100
AcDbEntity
  8
RACCORDO
100
AcDbCircle
 62
253
  6
CONTINUOUS
 10
428.7844931975
 20
15.1890402326
 40
448.3125316039
100
AcDbArc
 50
180.0544675967
 51
181.8335679219
  0
ARC
  5
254
100
AcDbEntity
  8
ASSI
100
AcDbCircle
 62
253
  6
CONTINUOUS
 10
428.7844931975
 20
15.1890402326
 40
448.3125316039
100
AcDbArc
 50
180.0544675967
 51
181.8335679219
  0
ARC
  5
255
100
AcDbEntity
  8
RACCORDO
100
AcDbCircle
 62
253
  6
CONTINUOUS
 10
446.0261522027
 20
-2.1368942748
 40
430.9770751949
100
AcDbArc
 50
180.051678908
 51
181.9150136762
  0
ARC
  5
256
100
AcDbEntity
  8
ASSI
100
AcDbCircle
 62
253
  6
CONTINUOUS
 10
446.0261522027
 20
-2.1368942748
 40
430.9770751949
100
AcDbArc
 50
180.051678908
 51
181.9150136762
  0
ARC
  5
257
100
AcDbEntity
  8
RACCORDO
100
AcDbCircle
 62
253
  6
CONTINUOUS
 10
446.1188702475
 20
-2.1383704568
 40
430.719352063
100
AcDbArc
 50
180.051679563
 51
181.9150327006
  0
ARC
  5
258
100
AcDbEntity
  8
ASSI
100
AcDbCircle
 62
253
  6
CONTINUOUS
 10
446.1188702475
 20
-2.1383704568
 40
430.719352063
100
AcDbArc
 50
180.051679563
 51
181.9150327006
  0
ARC
  5
259
100
AcDbEntity
  8
RACCORDO
100
AcDbCircle
 62
7
  6
CONTINUOUS
 10
-1.6036811481
 20
2.6392702953
 40
1.1007054639
100
AcDbArc
 50
237.1726665365
 51
240.9484598453
  0
ARC
  5
25A
100
AcDbEntity
  8
RACCORDO
100
AcDbCircle
 62
7
  6
CONTINUOUS
 10
-1.6370883395
 20
2.5797236572
 40
1.0324284262
100
AcDbArc
 50
240.9644641986
 51
243.4252663163
  0
ARC
  5
25B
100
AcDbEntity
  8
DRAFT
100
AcDbCircle
 62
7
  6
CONTINUOUS
 10
-2.0997834265
 20
3.4134561945
 40
0.6769002748
100
AcDbArc
 50
148.6010993284
 51
155.0362118193
  0
ARC
  5
25C
100
AcDbEntity
  8
ASSI
100
AcDbCircle
 62
7
  6
CONTINUOUS
 10
-2.0997834265
 20
3.4134561945
 40
0.6769002748
100
AcDbArc
 50
148.6010993284
 51
155.0362118193
  0
ARC
  5
25D
100
AcDbEntity
  8
DRAFT
100
AcDbCircle
 62
7
  6
CONTINUOUS
 10
-2.1532027586
 20
3.4459022339
 40
0.6143994749
100
AcDbArc
 50
141.5864900658
 51
148.5883752015
  0
ARC
  5
25E
100
AcDbEntity
  8
ASSI
100
AcDbCircle
 62
7
  6
CONTINUOUS
 10
-2.1532027586
 20
3.4459022339
 40
0.6143994749
100
AcDbArc
 50
141.5864900658
 51
148.5883752015
  0
ARC
  5
25F
100
AcDbEntity
  8
RACCORDO
100
AcDbCircle
 62
253
  6
CONTINUOUS
 10
-18.8733726421
 20
0.5794409453
 40
0.3701339165
100
AcDbArc
 50
241.2312847576
 51
243.3038033339
  0
ARC
  5
260
100
AcDbEntity
  8
ASSI
100
AcDbCircle
 62
253
  6
CONTINUOUS
 10
-18.8733726421
 20
0.5794409454
 40
0.3701339165
100
AcDbArc
 50
241.2312847576
 51
243.3038033338
  0
ARC
  5
261
100
AcDbEntity
  8
RACCORDO
100
AcDbCircle
 62
7
  6
CONTINUOUS
 10
-19.3510568186
 20
14.8515433881
 40
0.2499729098
100
AcDbArc
 50
118.3452333315
 51
180.0617873869
  0
ARC
  5
262
100
AcDbEntity
  8
ASSI
100
AcDbCircle
 62
7
  6
CONTINUOUS
 10
-19.3510568186
 20
14.8515433881
 40
0.2499729098
100
AcDbArc
 50
118.3452333315
 51
180.0617873869
  0
SPLINE
  5
263
100
AcDbEntity
  8
RACCORDO
100
AcDbSpline
 62
7
  6
CONTINUOUS
 70
0
 71
3
 72
10
 73
6
 74
4
 42
0.0000001
 43
0.0000001
 44
0.0000000001
 12
0.5309507646
 22
-0.2654753776
 32
0.0
 13
0.5366819963
 23
0.2536896016
 33
0.0
 40
0.0
 40
0.0
 40
0.0
 40
0.0
 40
0.3683960887
 40
0.69741576
 40
1.0
 40
1.0
 40
1.0
 40
1.0
 10
-2.0989604138
 20
1.6563696394
 30
0.0
 10
-2.0337603521
 20
1.6237696092
 30
0.0
 10
-1.9026750991
 20
1.5751899826
 30
0.0
 10
-1.7023274295
 20
1.5609875717
 30
0.0
 10
-1.5788695088
 20
1.5943717119
 30
0.0
 10
-1.5247390042
 20
1.6199592037
 30
0.0
 11
-2.0989604138
 21
1.6563696394
 31
0.0
 11
-1.8928630671
 21
1.5832384304
 31
0.0
 11
-1.6978676223
 21
1.5721056443
 31
0.0
 11
-1.5247390042
 21
1.6199592037
 31
0.0
  0
SPLINE
  5
264
100
AcDbEntity
  8
RACCORDO
100
AcDbSpline
 62
7
  6
CONTINUOUS
 70
0
 71
3
 72
14
 73
10
 74
8
 42
0.0000001
 43
0.0000001
 44
0.0000000001
 12
-2.1334127319
 22
-1.1262489471
 32
0.0
 13
2.0328953942
 23
-1.3102034695
 33
0.0
 40
0.0
 40
0.0
 40
0.0
 40
0.0
 40
0.1126354234
 40
0.2431064815
 40
0.3946442942
 40
0.5607875776
 40
0.7319683022
 40
0.897607205
 40
1.0
 40
1.0
 40
1.0
 40
1.0
 10
-2.6040819171
 20
3.7786451309
 30
0.0
 10
-2.6841811992
 20
3.7363599552
 30
0.0
 10
-2.8329643166
 20
3.5949205525
 30
0.0
 10
-2.9407547047
 20
3.2875102845
 30
0.0
 10
-2.9420583852
 20
2.9223151103
 30
0.0
 10
-2.844805567
 20
2.5378921288
 30
0.0
 10
-2.6625811433
 20
2.1733096909
 30
0.0
 10
-2.4394076622
 20
1.8961407478
 30
0.0
 10
-2.2697682635
 20
1.7590570641
 30
0.0
 10
-2.2003836498
 20
1.7143385991
 30
0.0
 11
-2.6040819171
 21
3.7786451309
 31
0.0
 11
-2.8043642567
 21
3.5950086059
 31
0.0
 11
-2.9186893425
 21
3.3017511824
 31
0.0
 11
-2.9274253587
 21
2.9362791187
 31
0.0
 11
-2.8324393923
 21
2.5468854959
 31
0.0
 11
-2.6478871878
 21
2.1774539727
 31
0.0
 11
-2.3944975872
 21
1.8684725623
 31
0.0
 11
-2.2003836498
 21
1.7143385991
 31
0.0
  0
SPLINE
  5
265
100
AcDbEntity
  8
RACCORDO
100
AcDbSpline
 62
253
  6
CONTINUOUS
 70
0
 71
3
 72
20
 73
16
 74
14
 42
0.0000001
 43
0.0000001
 44
0.0000000001
 12
2.3096192904
 22
1.1011434821
 32
0.0
 13
-2.2752317028
 23
1.13761587
 33
0.0
 40
0.0
 40
0.0
 40
0.0
 40
0.0
 40
0.0913253166
 40
0.1944753298
 40
0.300071473
 40
0.4040895859
 40
0.5028558466
 40
0.5939847407
 40
0.6762969559
 40
0.7496288086
 40
0.81425267
 40
0.8708004493
 40
0.9200563031
 40
0.9628161743
 40
1.0
 40
1.0
 40
1.0
 40
1.0
 10
-1.5247468499
 20
1.619989447
 30
0.0
 10
-1.4544379456
 20
1.6535102061
 30
0.0
 10
-1.32348486
 20
1.7659289449
 30
0.0
 10
-1.2213846778
 20
2.0057585538
 30
0.0
 10
-1.1929176941
 20
2.2718093429
 30
0.0
 10
-1.2189489768
 20
2.5334003474
 30
0.0
 10
-1.2820014448
 20
2.7753296553
 30
0.0
 10
-1.3684291194
 20
2.9899355559
 30
0.0
 10
-1.467901959
 20
3.1744690049
 30
0.0
 10
-1.5729495899
 20
3.3292648112
 30
0.0
 10
-1.6783959296
 20
3.4563954449
 30
0.0
 10
-1.7807353778
 20
3.558712493
 30
0.0
 10
-1.8777266616
 20
3.6393725663
 30
0.0
 10
-1.9680859241
 20
3.7015666349
 30
0.0
 10
-2.0272725257
 20
3.7348353831
 30
0.0
 10
-2.055473132
 20
3.7489356865
 30
0.0
 11
-1.5247468499
 21
1.619989447
 31
0.0
 11
-1.3457331771
 21
1.7685791134
 31
0.0
 11
-1.2349206735
 21
2.0064234749
 31
0.0
 11
-1.202106174
 21
2.273025625
 31
0.0
 11
-1.2263346983
 21
2.5365138869
 31
0.0
 11
-1.2889298392
 21
2.7798316239
 31
0.0
 11
-1.3753264761
 21
2.9949423593
 31
0.0
 11
-1.4747350659
 21
3.1792244304
 31
0.0
 11
-1.5796448957
 21
3.3334687535
 31
0.0
 11
-1.684785489
 21
3.4598384382
 31
0.0
 11
-1.7866969573
 21
3.5613548023
 31
0.0
 11
-1.8831941212
 21
3.6412764999
 31
0.0
 11
-1.9729228553
 21
3.7027589972
 31
0.0
 11
-2.055473132
 21
3.7489356865
 31
0.0
  0
SPLINE
  5
266
100
AcDbEntity
  8
RACCORDO
100
AcDbSpline
 62
253
  6
CONTINUOUS
 70
0
 71
3
 72
8
 73
4
 74
2
 42
0.0000001
 43
0.0000001
 44
0.0000000001
 12
0.0835988337
 22
-0.0417994168
 32
0.0
 13
0.0882735387
 23
-0.032464483
 33
0.0
 40
0.0
 40
0.0
 40
0.0
 40
0.0
 40
1.0
 40
1.0
 40
1.0
 40
1.0
 10
-2.1245063959
 20
1.7009961132
 30
0.0
 10
-2.096640118
 20
1.6870629742
 30
0.0
 10
-2.0679088107
 20
1.6744377701
 30
0.0
 10
-2.0384842978
 20
1.6636162757
 30
0.0
 11
-2.1245063959
 21
1.7009961132
 31
0.0
 11
-2.0384842978
 21
1.6636162757
 31
0.0
  0
SPLINE
  5
267
100
AcDbEntity
  8
RACCORDO
100
AcDbSpline
 62
253
  6
CONTINUOUS
 70
0
 71
3
 72
10
 73
6
 74
4
 42
0.0000001
 43
0.0000001
 44
0.0000000001
 12
0.4497329471
 22
-0.165398916
 32
0.0
 13
0.3975809252
 23
0.2706053485
 33
0.0
 40
0.0
 40
0.0
 40
0.0
 40
0.0
 40
0.3604798126
 40
0.8430695357
 40
1.0
 40
1.0
 40
1.0
 40
1.0
 10
-2.0384842978
 20
1.6636162757
 30
0.0
 10
-1.984444415
 20
1.6437419523
 30
0.0
 10
-1.8525907028
 20
1.611489531
 30
0.0
 10
-1.6879295036
 20
1.6326297581
 30
0.0
 10
-1.5984319794
 20
1.682854421
 30
0.0
 10
-1.5776344596
 20
1.6970098287
 30
0.0
 11
-2.0384842978
 21
1.6636162757
 31
0.0
 11
-1.8704145866
 21
1.6253159315
 31
0.0
 11
-1.6433069835
 21
1.6604155819
 31
0.0
 11
-1.5776344596
 21
1.6970098287
 31
0.0
  0
SPLINE
  5
268
100
AcDbEntity
  8
RACCORDO
100
AcDbSpline
 62
253
  6
CONTINUOUS
 70
0
 71
3
 72
20
 73
16
 74
14
 42
0.0000001
 43
0.0000001
 44
0.0000000001
 12
1.9147547356
 22
1.3032387614
 32
0.0
 13
-2.0512188492
 23
1.0256094246
 33
0.0
 40
0.0
 40
0.0
 40
0.0
 40
0.0
 40
0.0662565476
 40
0.172252553
 40
0.2807617212
 40
0.3876493116
 40
0.4891401078
 40
0.5827829581
 40
0.667365994
 40
0.7427209878
 40
0.8091277958
 40
0.8672357412
 40
0.9178505631
 40
0.9617902467
 40
1.0
 40
1.0
 40
1.0
 40
1.0
 10
-1.5776344596
 20
1.6970098287
 30
0.0
 10
-1.5353461135
 20
1.725792529
 30
0.0
 10
-1.4379180022
 20
1.8203008855
 30
0.0
 10
-1.3517970617
 20
2.0226067332
 30
0.0
 10
-1.3254238006
 20
2.2690791836
 30
0.0
 10
-1.349540222
 20
2.5114206333
 30
0.0
 10
-1.4079519532
 20
2.7355472279
 30
0.0
 10
-1.488019412
 20
2.9343611784
 30
0.0
 10
-1.5801719504
 20
3.1053158952
 30
0.0
 10
-1.6774893633
 20
3.2487213147
 30
0.0
 10
-1.7751762873
 20
3.3664973526
 30
0.0
 10
-1.8699849235
 20
3.4612858581
 30
0.0
 10
-1.9598393532
 20
3.5360106171
 30
0.0
 10
-2.0435493792
 20
3.5936287411
 30
0.0
 10
-2.0983808738
 20
3.624449524
 30
0.0
 10
-2.1245063959
 20
3.637512285
 30
0.0
 11
-1.5776344596
 21
1.6970098287
 31
0.0
 11
-1.4669925722
 21
1.8028782937
 31
0.0
 11
-1.364336085
 21
2.0232223701
 31
0.0
 11
-1.3339364216
 21
2.270206142
 31
0.0
 11
-1.3563821852
 21
2.5143051041
 31
0.0
 11
-1.4143705585
 21
2.7397178427
 31
0.0
 11
-1.4944091294
 21
2.9389995173
 31
0.0
 11
-1.5865022257
 21
3.1097213504
 31
0.0
 11
-1.6836919692
 21
3.2526158884
 31
0.0
 11
-1.7810956327
 21
3.3696870156
 31
0.0
 11
-1.8755078904
 21
3.4637336811
 31
0.0
 11
-1.964904379
 21
3.5377745304
 31
0.0
 11
-2.0480304628
 21
3.5947333262
 31
0.0
 11
-2.1245063959
 21
3.637512285
 31
0.0
  0
SPLINE
  5
269
100
AcDbEntity
  8
RACCORDO
100
AcDbSpline
 62
253
  6
CONTINUOUS
 70
0
 71
3
 72
22
 73
18
 74
16
 42
0.0000001
 43
0.0000001
 44
0.0000000001
 12
-2.5607350466
 22
1.2803675233
 32
0.0
 13
2.5607350466
 23
-1.2803675233
 33
0.0
 40
0.0
 40
0.0
 40
0.0
 40
0.0
 40
0.0926031929
 40
0.1728708975
 40
0.252045775
 40
0.3369516027
 40
0.4238704212
 40
0.5094903106
 40
0.590787205
 40
0.6657976871
 40
0.733551015
 40
0.7939124321
 40
0.8471061098
 40
0.8936521728
 40
0.9341960337
 40
0.9693929376
 40
1.0
 40
1.0
 40
1.0
 40
1.0
 10
-2.1245063959
 20
3.637512285
 30
0.0
 10
-2.2035504764
 20
3.6770343253
 30
0.0
 10
-2.3641019916
 20
3.7311695028
 30
0.0
 10
-2.6136252916
 20
3.6991328145
 30
0.0
 10
-2.8010998876
 20
3.5416869055
 30
0.0
 10
-2.8972164791
 20
3.3159014534
 30
0.0
 10
-2.9235896552
 20
3.0694288658
 30
0.0
 10
-2.8994733647
 20
2.8270874017
 30
0.0
 10
-2.8410614234
 20
2.6029608621
 30
0.0
 10
-2.7609938822
 20
2.4041469619
 30
0.0
 10
-2.6688412006
 20
2.2331923167
 30
0.0
 10
-2.5715236982
 20
2.089786945
 30
0.0
 10
-2.4738366983
 20
1.9720109417
 30
0.0
 10
-2.3790279803
 20
1.8772224967
 30
0.0
 10
-2.2891735441
 20
1.8024977028
 30
0.0
 10
-2.2054634321
 20
1.7448796639
 30
0.0
 10
-2.1506319217
 20
1.7140588761
 30
0.0
 10
-2.1245063959
 20
1.7009961132
 30
0.0
 11
-2.1245063959
 21
3.637512285
 31
0.0
 11
-2.3785970202
 21
3.7131930592
 31
0.0
 11
-2.6057061308
 21
3.678092655
 31
0.0
 11
-2.7820204832
 21
3.5356299727
 31
0.0
 11
-2.8846773845
 21
3.3152856892
 31
0.0
 11
-2.9150770727
 21
3.0683019049
 31
0.0
 11
-2.8926313402
 21
2.8242029274
 31
0.0
 11
-2.8346428358
 21
2.5987902542
 31
0.0
 11
-2.7546041518
 21
2.3995086362
 31
0.0
 11
-2.6625109304
 21
2.2287868656
 31
0.0
 11
-2.565321092
 21
2.085892375
 31
0.0
 11
-2.4679173482
 21
1.968821288
 31
0.0
 11
-2.3735050216
 21
1.874774657
 31
0.0
 11
-2.284108511
 21
1.8007338187
 31
0.0
 11
-2.200982349
 21
1.743775062
 31
0.0
 11
-2.1245063959
 21
1.7009961132
 31
0.0
  0
SPLINE
  5
26A
100
AcDbEntity
  8
RACCORDO
100
AcDbSpline
 62
253
  6
CONTINUOUS
 70
0
 71
3
 72
10
 73
6
 74
4
 42
0.0000001
 43
0.0000001
 44
0.0000000001
 12
-0.5066545929
 22
0.2533273006
 32
0.0
 13
-0.5030012107
 23
-0.268775241
 33
0.0
 40
0.0
 40
0.0
 40
0.0
 40
0.0
 40
0.5052042006
 40
0.9431177079
 40
1.0
 40
1.0
 40
1.0
 40
1.0
 10
-2.055473132
 20
3.7489356865
 30
0.0
 10
-2.1407944749
 20
3.7915963586
 30
0.0
 10
-2.3140993926
 20
3.8500169231
 30
0.0
 10
-2.509975963
 20
3.8248837573
 30
0.0
 10
-2.594490013
 20
3.7836389455
 30
0.0
 10
-2.6040273003
 20
3.7785427616
 30
0.0
 11
-2.055473132
 21
3.7489356865
 31
0.0
 11
-2.3297442937
 21
3.8306198973
 31
0.0
 11
-2.5748944056
 21
3.7927413052
 31
0.0
 11
-2.6040273003
 21
3.7785427616
 31
0.0
  0
SPLINE
  5
26B
100
AcDbEntity
  8
DRAFT
100
AcDbSpline
 62
7
  6
CONTINUOUS
 70
0
 71
3
 72
17
 73
13
 74
11
 42
0.0000001
 43
0.0000001
 44
0.0000000001
 12
2.4459831326
 22
1.2838515585
 32
0.0
 13
-2.4516470572
 23
1.2258235286
 33
0.0
 40
0.0
 40
0.0
 40
0.0
 40
0.0
 40
0.0252960356
 40
0.1044689495
 40
0.1936208561
 40
0.2953999763
 40
0.4088600251
 40
0.5305328986
 40
0.6555712688
 40
0.7786495306
 40
0.8947903949
 40
1.0
 40
1.0
 40
1.0
 40
1.0
 10
-1.2649756149
 20
1.6309800985
 30
0.0
 10
-1.2443510561
 20
1.6418055501
 30
0.0
 10
-1.1623919244
 20
1.6924696979
 30
0.0
 10
-1.0429333516
 20
1.829579581
 30
0.0
 10
-0.9551165395
 20
2.0643821395
 30
0.0
 10
-0.9297455901
 20
2.3438549178
 30
0.0
 10
-0.9662154831
 20
2.6513603977
 30
0.0
 10
-1.0616226712
 20
2.9678704828
 30
0.0
 10
-1.209676307
 20
3.2730970275
 30
0.0
 10
-1.4008580214
 20
3.5473460699
 30
0.0
 10
-1.622641027
 20
3.7727478195
 30
0.0
 10
-1.7917211669
 20
3.8874167312
 30
0.0
 10
-1.8777001064
 20
3.930406201
 30
0.0
 11
-1.2649756149
 21
1.6309800985
 31
0.0
 11
-1.2056863356
 21
1.6677080471
 31
0.0
 11
-1.0599584613
 21
1.8285149508
 31
0.0
 11
-0.9692864133
 21
2.0554380536
 31
0.0
 11
-0.9399403549
 21
2.3328693773
 31
0.0
 11
-0.9739026263
 21
2.6420061985
 31
0.0
 11
-1.0688607861
 21
2.9617103924
 31
0.0
 11
-1.2183049791
 21
3.270146001
 31
0.0
 11
-1.4120386121
 21
3.5463333056
 31
0.0
 11
-1.6369888625
 21
3.7715907418
 31
0.0
 11
-1.8777001064
 21
3.930406201
 31
0.0
  0
SPLINE
  5
26C
100
AcDbEntity
  8
DRAFT
100
AcDbSpline
 62
7
  6
CONTINUOUS
 70
0
 71
3
 72
10
 73
6
 74
4
 42
0.0000001
 43
0.0000001
 44
0.0000000001
 12
-0.5318836887
 22
0.2659418443
 32
0.0
 13
-0.5423349644
 23
-0.2556202157
 33
0.0
 40
0.0
 40
0.0
 40
0.0
 40
0.0
 40
0.4264225282
 40
0.8016701045
 40
1.0
 40
1.0
 40
1.0
 40
1.0
 10
-1.8777001064
 20
3.930406201
 30
0.0
 10
-1.9533025022
 20
3.9682073989
 30
0.0
 10
-2.1049929406
 20
4.0232902207
 30
0.0
 10
-2.3079566098
 20
4.0267024226
 30
0.0
 10
-2.4175322496
 20
3.990092355
 30
0.0
 10
-2.4533859952
 20
3.9731933115
 30
0.0
 11
-1.8777001064
 21
3.930406201
 31
0.0
 11
-2.1177939733
 21
4.0119954793
 31
0.0
 11
-2.3409370062
 21
4.0107990287
 31
0.0
 11
-2.4533859952
 21
3.9731933115
 31
0.0
  0
SPLINE
  5
26D
100
AcDbEntity
  8
RACCORDO
100
AcDbSpline
 62
253
  6
CONTINUOUS
 70
0
 71
3
 72
9
 73
5
 74
3
 42
0.0000001
 43
0.0000001
 44
0.0000000001
 12
0.0042467391
 22
-0.1188405267
 32
0.0
 13
0.1066391986
 23
-0.0534070687
 33
0.0
 40
0.0
 40
0.0
 40
0.0
 40
0.0
 40
0.434255131
 40
1.0
 40
1.0
 40
1.0
 40
1.0
 10
-19.3686831185
 20
0.8425329735
 30
0.0
 10
-19.3680683957
 20
0.825330604
 30
0.0
 10
-19.3498999773
 20
0.7861168737
 30
0.0
 10
-19.3155642708
 20
0.7637886169
 30
0.0
 10
-19.2954540776
 20
0.7537170253
 30
0.0
 11
-19.3686831185
 21
0.8425329735
 31
0.0
 11
-19.3492401508
 21
0.7944572975
 31
0.0
 11
-19.2954540776
 21
0.7537170253
 31
0.0
  0
SPLINE
  5
26E
100
AcDbEntity
  8
RACCORDO
100
AcDbSpline
 62
253
  6
CONTINUOUS
 70
0
 71
3
 72
13
 73
9
 74
7
 42
0.0000001
 43
0.0000001
 44
0.0000000001
 12
0.0236954385
 22
-0.7022854852
 32
0.0
 13
0.6783151378
 23
0.1834528559
 33
0.0
 40
0.0
 40
0.0
 40
0.0
 40
0.0
 40
0.1944363683
 40
0.3698341619
 40
0.5286102363
 40
0.6791816637
 40
0.8332005048
 40
1.0
 40
1.0
 40
1.0
 40
1.0
 10
15.6400556195
 20
-16.531893572
 30
0.0
 10
15.6415913711
 20
-16.5774101851
 30
0.0
 10
15.6523607355
 20
-16.6641077462
 30
0.0
 10
15.696366136
 20
-16.7813378606
 30
0.0
 10
15.7669591393
 20
-16.8729202648
 30
0.0
 10
15.8614042316
 20
-16.9313817748
 30
0.0
 10
15.9722168282
 20
-16.9517458082
 30
0.0
 10
16.0478050804
 20
-16.940879315
 30
0.0
 10
16.085519288
 20
-16.9306793671
 30
0.0
 11
15.6400556195
 21
-16.531893572
 31
0.0
 11
15.6584482369
 21
-16.6672774596
 31
0.0
 11
15.7034927741
 21
-16.7820006441
 31
0.0
 11
15.7728964736
 21
-16.8693556597
 31
0.0
 11
15.8630278081
 21
-16.9247712958
 31
0.0
 11
15.9692519117
 21
-16.9454949232
 31
0.0
 11
16.085519288
 21
-16.9306793671
 31
0.0
  0
SPLINE
  5
26F
100
AcDbEntity
  8
RACCORDO
100
AcDbSpline
 62
253
  6
CONTINUOUS
 70
0
 71
3
 72
9
 73
5
 74
3
 42
0.0000001
 43
0.0000001
 44
0.0000000001
 12
0.1060851227
 22
0.0557215843
 32
0.0
 13
0.1068996515
 23
-0.0515772518
 33
0.0
 40
0.0
 40
0.0
 40
0.0
 40
0.0
 40
0.4050937236
 40
1.0
 40
1.0
 40
1.0
 40
1.0
 10
-19.4696837563
 20
15.071438622
 30
0.0
 10
-19.4553589505
 20
15.0789627767
 30
0.0
 10
-19.4148335985
 20
15.0887378704
 30
0.0
 10
-19.3753178235
 20
15.0766844808
 30
0.0
 10
-19.3541193989
 20
15.0664566039
 30
0.0
 11
-19.4696837563
 21
15.071438622
 31
0.0
 11
-19.4226914915
 21
15.0833003606
 31
0.0
 11
-19.3541193989
 21
15.0664566039
 31
0.0
  0
SPLINE
  5
270
100
AcDbEntity
  8
DRAFT
100
AcDbSpline
 62
7
  6
CONTINUOUS
 70
0
 71
3
 72
9
 73
5
 74
3
 42
0.0000001
 43
0.0000001
 44
0.0000000001
 12
-0.2125403382
 22
-0.1001772164
 32
0.0
 13
-0.1460926054
 23
-0.1838715999
 33
0.0
 40
0.0
 40
0.0
 40
0.0
 40
0.0
 40
0.3886269166
 40
1.0
 40
1.0
 40
1.0
 40
1.0
 10
-2.4533859952
 20
3.9731933115
 30
0.0
 10
-2.4809189607
 20
3.9602161239
 30
0.0
 10
-2.5486778181
 20
3.9203896951
 30
0.0
 10
-2.6048412453
 20
3.86512001
 30
0.0
 10
-2.6346136075
 20
3.8276486277
 30
0.0
 11
-2.4533859952
 21
3.9731933115
 31
0.0
 11
-2.5318335243
 21
3.9269284709
 31
0.0
 11
-2.6346136075
 21
3.8276486277
 31
0.0
  0
LINE
  5
271
100
AcDbEntity
  8
RACCORDO
100
AcDbLine
 62
253
  6
CONTINUOUS
 10
-19.295454078
 20
0.7537170251
 11
-19.2983916558
 21
0.8446854889
  0
SPLINE
  5
272
100
AcDbEntity
  8
DRAFT
100
AcDbSpline
 62
7
  6
CONTINUOUS
 70
0
 71
3
 72
9
 73
5
 74
3
 42
0.0000001
 43
0.0000001
 44
0.0000000001
 12
0.0841981654
 22
-0.0155320525
 32
0.0
 13
0.0855789643
 23
-0.004836101
 33
0.0
 40
0.0
 40
0.0
 40
0.0
 40
0.0
 40
0.0946475083
 40
1.0
 40
1.0
 40
1.0
 40
1.0
 10
-1.6277145388
 20
1.5840620452
 30
0.0
 10
-1.6250581566
 20
1.5835720218
 30
0.0
 10
-1.596958182
 20
1.5785505125
 30
0.0
 10
-1.5685068747
 20
1.5751981391
 30
0.0
 10
-1.5426804985
 20
1.5737386804
 30
0.0
 11
-1.6277145388
 21
1.5840620452
 31
0.0
 11
-1.6197358241
 21
1.5826364275
 31
0.0
 11
-1.5426804985
 21
1.5737386804
 31
0.0
  0
SPLINE
  5
273
100
AcDbEntity
  8
DRAFT
100
AcDbSpline
 62
7
  6
CONTINUOUS
 70
0
 71
3
 72
9
 73
5
 74
3
 42
0.0000001
 43
0.0000001
 44
0.0000000001
 12
0.286776432
 22
-0.0162058492
 32
0.0
 13
0.2545538317
 23
0.1336106244
 33
0.0
 40
0.0
 40
0.0
 40
0.0
 40
0.0
 40
0.5120959347
 40
1.0
 40
1.0
 40
1.0
 40
1.0
 10
-1.5426804985
 20
1.5737386804
 30
0.0
 10
-1.4937281502
 20
1.5709723639
 30
0.0
 10
-1.3976595429
 20
1.576624441
 30
0.0
 10
-1.306374898
 20
1.6092503763
 30
0.0
 10
-1.2649756149
 20
1.6309800985
 30
0.0
 11
-1.5426804985
 21
1.5737386804
 31
0.0
 11
-1.3965900207
 21
1.5838348605
 31
0.0
 11
-1.2649756149
 21
1.6309800985
 31
0.0
  0
SPLINE
  5
274
100
AcDbEntity
  8
RACCORDO
100
AcDbSpline
 62
253
  6
CONTINUOUS
 70
0
 71
3
 72
12
 73
8
 74
6
 42
0.0000001
 43
0.0000001
 44
0.0000000001
 12
-0.0053497267
 22
0.3664563861
 32
0.0
 13
-0.3254083925
 23
0.1686068818
 33
0.0
 40
0.0
 40
0.0
 40
0.0
 40
0.0
 40
0.1955839747
 40
0.4065111841
 40
0.6196376798
 40
0.8218553915
 40
1.0
 40
1.0
 40
1.0
 40
1.0
 10
15.399587274
 20
-2.5268701086
 30
0.0
 10
15.3992385004
 20
-2.5029791097
 30
0.0
 10
15.3920018187
 20
-2.4533446522
 30
0.0
 10
15.3664149329
 20
-2.3816835089
 30
0.0
 10
15.3278369323
 20
-2.3150834836
 30
0.0
 10
15.2800762682
 20
-2.2599631596
 30
0.0
 10
15.2421607528
 20
-2.2320339825
 30
0.0
 10
15.2228375026
 20
-2.2220218469
 30
0.0
 11
15.399587274
 21
-2.5268701086
 31
0.0
 11
15.3900643968
 21
-2.4558248551
 31
0.0
 11
15.3643752917
 21
-2.382914249
 31
0.0
 11
15.3251007562
 21
-2.3153963598
 31
0.0
 11
15.2760739621
 21
-2.2598181049
 31
0.0
 11
15.2228375026
 21
-2.2220218469
 31
0.0
  0
SPLINE
  5
275
100
AcDbEntity
  8
RACCORDO
100
AcDbSpline
 62
253
  6
CONTINUOUS
 70
0
 71
3
 72
11
 73
7
 74
5
 42
0.0000001
 43
0.0000001
 44
0.0000000001
 12
-0.0003852387
 22
0.3639158128
 32
0.0
 13
0.3226902033
 23
0.1682435732
 33
0.0
 40
0.0
 40
0.0
 40
0.0
 40
0.0
 40
0.24723321
 40
0.513083496
 40
0.7728623516
 40
1.0
 40
1.0
 40
1.0
 40
1.0
 10
-19.5278107671
 20
14.7628569907
 30
0.0
 10
-19.527842515
 20
14.7928476822
 30
0.0
 10
-19.5176015336
 20
14.8552055162
 30
0.0
 10
-19.4803155203
 20
14.9420747053
 30
0.0
 10
-19.4256528794
 20
15.0162154009
 30
0.0
 10
-19.3785510969
 20
15.053718454
 30
0.0
 10
-19.3541193989
 20
15.0664566039
 30
0.0
 11
-19.5278107671
 21
14.7628569907
 31
0.0
 11
-19.5146035723
 21
14.851854481
 31
0.0
 11
-19.4767455937
 21
14.9408870017
 31
0.0
 11
-19.419939776
 21
15.0164546748
 31
0.0
 11
-19.3541193989
 21
15.0664566039
 31
0.0
  0
SPLINE
  5
276
100
AcDbEntity
  8
RACCORDO
100
AcDbSpline
 62
253
  6
CONTINUOUS
 70
0
 71
3
 72
11
 73
7
 74
5
 42
0.0000001
 43
0.0000001
 44
0.0000000001
 12
-0.0003852361
 22
0.3639133035
 32
0.0
 13
0.3226879782
 23
0.1682424131
 33
0.0
 40
0.0
 40
0.0
 40
0.0
 40
0.0
 40
0.2461494134
 40
0.510593734
 40
0.7692500461
 40
1.0
 40
1.0
 40
1.0
 40
1.0
 10
15.0491461345
 20
-2.5256214601
 30
0.0
 10
15.0491145259
 20
-2.4957624447
 30
0.0
 10
15.0592622713
 20
-2.4337082037
 30
0.0
 10
15.0962350414
 20
-2.3471900473
 30
0.0
 10
15.1507557187
 20
-2.2728106532
 30
0.0
 10
15.1980174239
 20
-2.2349624899
 30
0.0
 10
15.2228375026
 20
-2.2220218469
 30
0.0
 11
15.0491461345
 21
-2.5256214601
 31
0.0
 11
15.062243714
 21
-2.437007073
 31
0.0
 11
15.0997563716
 21
-2.3483845654
 31
0.0
 11
15.1560885535
 21
-2.2729732623
 31
0.0
 11
15.2228375026
 21
-2.2220218469
 31
0.0
  0
SPLINE
  5
277
100
AcDbEntity
  8
RACCORDO
100
AcDbSpline
 62
253
  6
CONTINUOUS
 70
0
 71
3
 72
10
 73
6
 74
4
 42
0.0000001
 43
0.0000001
 44
0.0000000001
 12
-0.1066900285
 22
0.053347966
 32
0.0
 13
0.0004535062
 23
0.1185801457
 33
0.0
 40
0.0
 40
0.0
 40
0.0
 40
0.0
 40
0.5621967092
 40
0.9909786765
 40
1.0
 40
1.0
 40
1.0
 40
1.0
 10
-19.5278107671
 20
14.7628569907
 30
0.0
 10
-19.5478043614
 20
14.772854341
 30
0.0
 10
-19.5818955538
 20
14.7944887866
 30
0.0
 10
-19.6009309968
 20
14.8336455173
 30
0.0
 10
-19.6010322649
 20
14.8509486988
 30
0.0
 10
-19.6010309011
 20
14.8513052821
 30
0.0
 11
-19.5278107671
 21
14.7628569907
 31
0.0
 11
-19.5815843262
 21
14.8029272013
 31
0.0
 11
-19.6010245959
 21
14.8502356722
 31
0.0
 11
-19.6010309011
 21
14.8513052821
 31
0.0
  0
SPLINE
  5
278
100
AcDbEntity
  8
RACCORDO
100
AcDbSpline
 62
253
  6
CONTINUOUS
 70
0
 71
3
 72
10
 73
6
 74
4
 42
0.0000001
 43
0.0000001
 44
0.0000000001
 12
-0.0264958836
 22
-0.1937282825
 32
0.0
 13
-0.1913177821
 23
-0.052459215
 33
0.0
 40
0.0
 40
0.0
 40
0.0
 40
0.0
 40
0.4306837962
 40
0.8010691458
 40
1.0
 40
1.0
 40
1.0
 40
1.0
 10
16.085519288
 20
-16.9306793671
 30
0.0
 10
16.0817155054
 20
-16.9584912445
 30
0.0
 10
16.06719937
 20
-17.0098216041
 30
0.0
 10
16.0245337039
 20
-17.0625841517
 30
0.0
 10
15.9897928892
 20
-17.0784289591
 30
0.0
 10
15.9771065526
 20
-17.0819075446
 30
0.0
 11
16.085519288
 21
-16.9306793671
 31
0.0
 11
16.0604233464
 21
-17.0110654186
 31
0.0
 11
16.0127952482
 21
-17.0656229672
 31
0.0
 11
15.9771065526
 21
-17.0819075446
 31
0.0
  0
SPLINE
  5
279
100
AcDbEntity
  8
RACCORDO
100
AcDbSpline
 62
253
  6
CONTINUOUS
 70
0
 71
3
 72
11
 73
7
 74
5
 42
0.0000001
 43
0.0000001
 44
0.0000000001
 12
-0.3186059469
 22
-0.1690547765
 32
0.0
 13
-0.3227066243
 23
0.1610891104
 33
0.0
 40
0.0
 40
0.0
 40
0.0
 40
0.0
 40
0.2388448156
 40
0.503580789
 40
0.7663861237
 40
1.0
 40
1.0
 40
1.0
 40
1.0
 10
15.6400556192
 20
-16.5318935719
 30
0.0
 10
15.6146898263
 20
-16.5453528575
 30
0.0
 10
15.556648914
 20
-16.5651777996
 30
0.0
 10
15.464606286
 20
-16.576022266
 30
0.0
 10
15.372832384
 20
-16.5689784838
 30
0.0
 10
15.3148957181
 20
-16.551424136
 30
0.0
 10
15.2897661363
 20
-16.5388799188
 30
0.0
 11
15.6400556192
 21
-16.5318935719
 31
0.0
 11
15.559084393
 21
-16.5613017832
 31
0.0
 11
15.4643116686
 21
-16.5729402801
 31
0.0
 11
15.3698501335
 21
-16.5650759639
 31
0.0
 11
15.2897661363
 21
-16.5388799188
 31
0.0
  0
SPLINE
  5
27A
100
AcDbEntity
  8
RACCORDO
100
AcDbSpline
 62
253
  6
CONTINUOUS
 70
0
 71
3
 72
11
 73
7
 74
5
 42
0.0000001
 43
0.0000001
 44
0.0000000001
 12
-0.3239020885
 22
-0.1568996966
 32
0.0
 13
-0.3219104786
 23
0.1609463312
 33
0.0
 40
0.0
 40
0.0
 40
0.0
 40
0.0
 40
0.2366865896
 40
0.5013293948
 40
0.7652575904
 40
1.0
 40
1.0
 40
1.0
 40
1.0
 10
15.399587274
 20
-2.5268701086
 30
0.0
 10
15.3740328471
 20
-2.5392487932
 30
0.0
 10
15.3157417893
 20
-2.5568719355
 30
0.0
 10
15.2238165885
 20
-2.5650965716
 30
0.0
 10
15.1321848886
 20
-2.5562652208
 30
0.0
 10
15.0743348149
 20
-2.5382151033
 30
0.0
 10
15.0491461345
 20
-2.5256214601
 30
0.0
 11
15.399587274
 21
-2.5268701086
 31
0.0
 11
15.3185621
 21
-2.5531620524
 31
0.0
 11
15.2237411554
 21
-2.5621472035
 31
0.0
 11
15.1292450799
 21
-2.5524875017
 31
0.0
 11
15.0491461345
 21
-2.5256214601
 31
0.0
  0
SPLINE
  5
27B
100
AcDbEntity
  8
RACCORDO
100
AcDbSpline
 62
253
  6
CONTINUOUS
 70
0
 71
3
 72
11
 73
7
 74
5
 42
0.0000001
 43
0.0000001
 44
0.0000000001
 12
0.0199946315
 22
-0.5969871297
 32
0.0
 13
0.5355973488
 23
-0.2715057779
 33
0.0
 40
0.0
 40
0.0
 40
0.0
 40
0.0
 40
0.3060317019
 40
0.580122921
 40
0.8278011484
 40
1.0
 40
1.0
 40
1.0
 40
1.0
 10
15.2897535871
 20
-16.5388868075
 30
0.0
 10
15.2917932508
 20
-16.5997858033
 30
0.0
 10
15.3061397749
 20
-16.7153942153
 30
0.0
 10
15.364633714
 20
-16.8714652365
 30
0.0
 10
15.4503969439
 20
-16.9830152658
 30
0.0
 10
15.5203940355
 20
-17.0310484084
 30
0.0
 10
15.5511371183
 20
-17.0466327361
 30
0.0
 11
15.2897535871
 21
-16.5388868075
 31
0.0
 11
15.3143449063
 21
-16.7200245955
 31
0.0
 11
15.3741199738
 21
-16.8724431061
 31
0.0
 11
15.4660255439
 21
-16.9883770596
 31
0.0
 11
15.5511371183
 21
-17.0466327361
 31
0.0
  0
SPLINE
  5
27C
100
AcDbEntity
  8
RACCORDO
100
AcDbSpline
 62
253
  6
CONTINUOUS
 70
0
 71
3
 72
11
 73
7
 74
5
 42
0.0000001
 43
0.0000001
 44
0.0000000001
 12
-0.5102888932
 22
0.2801487103
 32
0.0
 13
-0.0188789663
 23
0.5784714166
 33
0.0
 40
0.0
 40
0.0
 40
0.0
 40
0.0
 40
0.1527284925
 40
0.4041914949
 40
0.6848539677
 40
1.0
 40
1.0
 40
1.0
 40
1.0
 10
-19.051508887
 20
0.2549928071
 30
0.0
 10
-19.0774874381
 20
0.2692550372
 30
0.0
 10
-19.1418065427
 20
0.3152532257
 30
0.0
 10
-19.2228161432
 20
0.4227132857
 30
0.0
 10
-19.2795862554
 20
0.5778986172
 30
0.0
 10
-19.2934708676
 20
0.6929493678
 30
0.0
 10
-19.295454078
 20
0.7537170251
 30
0.0
 11
-19.051508887
 21
0.2549928071
 31
0.0
 11
-19.1237378405
 21
0.3065046327
 31
0.0
 11
-19.2132680277
 21
0.4212508947
 31
0.0
 11
-19.2714982405
 21
0.5728969779
 31
0.0
 11
-19.295454078
 21
0.7537170251
 31
0.0
  0
SPLINE
  5
27D
100
AcDbEntity
  8
ASSI
100
AcDbSpline
 62
7
  6
CONTINUOUS
 70
0
 71
3
 72
17
 73
13
 74
11
 42
0.0000001
 43
0.0000001
 44
0.0000000001
 12
2.4459831326
 22
1.2838515585
 32
0.0
 13
-2.4516470572
 23
1.2258235286
 33
0.0
 40
0.0
 40
0.0
 40
0.0
 40
0.0
 40
0.0252960356
 40
0.1044689495
 40
0.1936208561
 40
0.2953999763
 40
0.4088600251
 40
0.5305328986
 40
0.6555712688
 40
0.7786495306
 40
0.8947903949
 40
1.0
 40
1.0
 40
1.0
 40
1.0
 10
-1.2649756149
 20
1.6309800985
 30
0.0
 10
-1.2443510561
 20
1.6418055501
 30
0.0
 10
-1.1623919244
 20
1.6924696979
 30
0.0
 10
-1.0429333516
 20
1.829579581
 30
0.0
 10
-0.9551165395
 20
2.0643821395
 30
0.0
 10
-0.9297455901
 20
2.3438549178
 30
0.0
 10
-0.9662154831
 20
2.6513603977
 30
0.0
 10
-1.0616226712
 20
2.9678704828
 30
0.0
 10
-1.209676307
 20
3.2730970275
 30
0.0
 10
-1.4008580214
 20
3.5473460699
 30
0.0
 10
-1.622641027
 20
3.7727478195
 30
0.0
 10
-1.7917211669
 20
3.8874167312
 30
0.0
 10
-1.8777001064
 20
3.930406201
 30
0.0
 11
-1.2649756149
 21
1.6309800985
 31
0.0
 11
-1.2056863356
 21
1.6677080471
 31
0.0
 11
-1.0599584613
 21
1.8285149508
 31
0.0
 11
-0.9692864133
 21
2.0554380536
 31
0.0
 11
-0.9399403549
 21
2.3328693773
 31
0.0
 11
-0.9739026263
 21
2.6420061985
 31
0.0
 11
-1.0688607861
 21
2.9617103924
 31
0.0
 11
-1.2183049791
 21
3.270146001
 31
0.0
 11
-1.4120386121
 21
3.5463333056
 31
0.0
 11
-1.6369888625
 21
3.7715907418
 31
0.0
 11
-1.8777001064
 21
3.930406201
 31
0.0
  0
SPLINE
  5
27E
100
AcDbEntity
  8
ASSI
100
AcDbSpline
 62
7
  6
CONTINUOUS
 70
0
 71
3
 72
10
 73
6
 74
4
 42
0.0000001
 43
0.0000001
 44
0.0000000001
 12
-0.5318836887
 22
0.2659418443
 32
0.0
 13
-0.5423349644
 23
-0.2556202157
 33
0.0
 40
0.0
 40
0.0
 40
0.0
 40
0.0
 40
0.4264225282
 40
0.8016701045
 40
1.0
 40
1.0
 40
1.0
 40
1.0
 10
-1.8777001064
 20
3.930406201
 30
0.0
 10
-1.9533025022
 20
3.9682073989
 30
0.0
 10
-2.1049929406
 20
4.0232902207
 30
0.0
 10
-2.3079566098
 20
4.0267024226
 30
0.0
 10
-2.4175322496
 20
3.990092355
 30
0.0
 10
-2.4533859952
 20
3.9731933115
 30
0.0
 11
-1.8777001064
 21
3.930406201
 31
0.0
 11
-2.1177939733
 21
4.0119954793
 31
0.0
 11
-2.3409370062
 21
4.0107990287
 31
0.0
 11
-2.4533859952
 21
3.9731933115
 31
0.0
  0
SPLINE
  5
27F
100
AcDbEntity
  8
ASSI
100
AcDbSpline
 62
253
  6
CONTINUOUS
 70
0
 71
3
 72
11
 73
7
 74
5
 42
0.0000001
 43
0.0000001
 44
0.0000000001
 12
-0.5102888932
 22
0.2801487103
 32
0.0
 13
-0.0188789663
 23
0.5784714166
 33
0.0
 40
0.0
 40
0.0
 40
0.0
 40
0.0
 40
0.1527284925
 40
0.4041914949
 40
0.6848539677
 40
1.0
 40
1.0
 40
1.0
 40
1.0
 10
-19.051508887
 20
0.2549928071
 30
0.0
 10
-19.0774874381
 20
0.2692550372
 30
0.0
 10
-19.1418065427
 20
0.3152532257
 30
0.0
 10
-19.2228161432
 20
0.4227132857
 30
0.0
 10
-19.2795862554
 20
0.5778986172
 30
0.0
 10
-19.2934708676
 20
0.6929493678
 30
0.0
 10
-19.295454078
 20
0.7537170251
 30
0.0
 11
-19.051508887
 21
0.2549928071
 31
0.0
 11
-19.1237378405
 21
0.3065046327
 31
0.0
 11
-19.2132680277
 21
0.4212508947
 31
0.0
 11
-19.2714982405
 21
0.5728969779
 31
0.0
 11
-19.295454078
 21
0.7537170251
 31
0.0
  0
SPLINE
  5
280
100
AcDbEntity
  8
ASSI
100
AcDbSpline
 62
253
  6
CONTINUOUS
 70
0
 71
3
 72
9
 73
5
 74
3
 42
0.0000001
 43
0.0000001
 44
0.0000000001
 12
0.0042467391
 22
-0.1188405267
 32
0.0
 13
0.1066391986
 23
-0.0534070687
 33
0.0
 40
0.0
 40
0.0
 40
0.0
 40
0.0
 40
0.434255131
 40
1.0
 40
1.0
 40
1.0
 40
1.0
 10
-19.3686831185
 20
0.8425329735
 30
0.0
 10
-19.3680683957
 20
0.825330604
 30
0.0
 10
-19.3498999773
 20
0.7861168737
 30
0.0
 10
-19.3155642708
 20
0.7637886169
 30
0.0
 10
-19.2954540776
 20
0.7537170253
 30
0.0
 11
-19.3686831185
 21
0.8425329735
 31
0.0
 11
-19.3492401508
 21
0.7944572975
 31
0.0
 11
-19.2954540776
 21
0.7537170253
 31
0.0
  0
SPLINE
  5
281
100
AcDbEntity
  8
ASSI
100
AcDbSpline
 62
253
  6
CONTINUOUS
 70
0
 71
3
 72
13
 73
9
 74
7
 42
0.0000001
 43
0.0000001
 44
0.0000000001
 12
0.0236954385
 22
-0.7022854852
 32
0.0
 13
0.6783151378
 23
0.1834528559
 33
0.0
 40
0.0
 40
0.0
 40
0.0
 40
0.0
 40
0.1944363683
 40
0.3698341619
 40
0.5286102363
 40
0.6791816637
 40
0.8332005048
 40
1.0
 40
1.0
 40
1.0
 40
1.0
 10
15.6400556195
 20
-16.531893572
 30
0.0
 10
15.6415913711
 20
-16.5774101851
 30
0.0
 10
15.6523607355
 20
-16.6641077462
 30
0.0
 10
15.696366136
 20
-16.7813378606
 30
0.0
 10
15.7669591393
 20
-16.8729202648
 30
0.0
 10
15.8614042316
 20
-16.9313817748
 30
0.0
 10
15.9722168282
 20
-16.9517458082
 30
0.0
 10
16.0478050804
 20
-16.940879315
 30
0.0
 10
16.085519288
 20
-16.9306793671
 30
0.0
 11
15.6400556195
 21
-16.531893572
 31
0.0
 11
15.6584482369
 21
-16.6672774596
 31
0.0
 11
15.7034927741
 21
-16.7820006441
 31
0.0
 11
15.7728964736
 21
-16.8693556597
 31
0.0
 11
15.8630278081
 21
-16.9247712958
 31
0.0
 11
15.9692519117
 21
-16.9454949232
 31
0.0
 11
16.085519288
 21
-16.9306793671
 31
0.0
  0
SPLINE
  5
282
100
AcDbEntity
  8
ASSI
100
AcDbSpline
 62
7
  6
CONTINUOUS
 70
0
 71
3
 72
9
 73
5
 74
3
 42
0.0000001
 43
0.0000001
 44
0.0000000001
 12
-0.2125403382
 22
-0.1001772164
 32
0.0
 13
-0.1460926054
 23
-0.1838715999
 33
0.0
 40
0.0
 40
0.0
 40
0.0
 40
0.0
 40
0.3886269166
 40
1.0
 40
1.0
 40
1.0
 40
1.0
 10
-2.4533859952
 20
3.9731933115
 30
0.0
 10
-2.4809189607
 20
3.9602161239
 30
0.0
 10
-2.5486778181
 20
3.9203896951
 30
0.0
 10
-2.6048412453
 20
3.86512001
 30
0.0
 10
-2.6346136075
 20
3.8276486277
 30
0.0
 11
-2.4533859952
 21
3.9731933115
 31
0.0
 11
-2.5318335243
 21
3.9269284709
 31
0.0
 11
-2.6346136075
 21
3.8276486277
 31
0.0
  0
SPLINE
  5
283
100
AcDbEntity
  8
ASSI
100
AcDbSpline
 62
253
  6
CONTINUOUS
 70
0
 71
3
 72
9
 73
5
 74
3
 42
0.0000001
 43
0.0000001
 44
0.0000000001
 12
0.1060851227
 22
0.0557215843
 32
0.0
 13
0.1068996515
 23
-0.0515772518
 33
0.0
 40
0.0
 40
0.0
 40
0.0
 40
0.0
 40
0.4050937236
 40
1.0
 40
1.0
 40
1.0
 40
1.0
 10
-19.4696837563
 20
15.071438622
 30
0.0
 10
-19.4553589505
 20
15.0789627767
 30
0.0
 10
-19.4148335985
 20
15.0887378704
 30
0.0
 10
-19.3753178235
 20
15.0766844808
 30
0.0
 10
-19.3541193989
 20
15.0664566039
 30
0.0
 11
-19.4696837563
 21
15.071438622
 31
0.0
 11
-19.4226914915
 21
15.0833003606
 31
0.0
 11
-19.3541193989
 21
15.0664566039
 31
0.0
  0
SPLINE
  5
284
100
AcDbEntity
  8
ASSI
100
AcDbSpline
 62
7
  6
CONTINUOUS
 70
0
 71
3
 72
9
 73
5
 74
3
 42
0.0000001
 43
0.0000001
 44
0.0000000001
 12
0.0841981654
 22
-0.0155320525
 32
0.0
 13
0.0855789643
 23
-0.004836101
 33
0.0
 40
0.0
 40
0.0
 40
0.0
 40
0.0
 40
0.0946475083
 40
1.0
 40
1.0
 40
1.0
 40
1.0
 10
-1.6277145388
 20
1.5840620452
 30
0.0
 10
-1.6250581566
 20
1.5835720218
 30
0.0
 10
-1.596958182
 20
1.5785505125
 30
0.0
 10
-1.5685068747
 20
1.5751981391
 30
0.0
 10
-1.5426804985
 20
1.5737386804
 30
0.0
 11
-1.6277145388
 21
1.5840620452
 31
0.0
 11
-1.6197358241
 21
1.5826364275
 31
0.0
 11
-1.5426804985
 21
1.5737386804
 31
0.0
  0
SPLINE
  5
285
100
AcDbEntity
  8
ASSI
100
AcDbSpline
 62
7
  6
CONTINUOUS
 70
0
 71
3
 72
9
 73
5
 74
3
 42
0.0000001
 43
0.0000001
 44
0.0000000001
 12
0.286776432
 22
-0.0162058492
 32
0.0
 13
0.2545538317
 23
0.1336106244
 33
0.0
 40
0.0
 40
0.0
 40
0.0
 40
0.0
 40
0.5120959347
 40
1.0
 40
1.0
 40
1.0
 40
1.0
 10
-1.5426804985
 20
1.5737386804
 30
0.0
 10
-1.4937281502
 20
1.5709723639
 30
0.0
 10
-1.3976595429
 20
1.576624441
 30
0.0
 10
-1.306374898
 20
1.6092503763
 30
0.0
 10
-1.2649756149
 20
1.6309800985
 30
0.0
 11
-1.5426804985
 21
1.5737386804
 31
0.0
 11
-1.3965900207
 21
1.5838348605
 31
0.0
 11
-1.2649756149
 21
1.6309800985
 31
0.0
  0
SPLINE
  5
286
100
AcDbEntity
  8
ASSI
100
AcDbSpline
 62
253
  6
CONTINUOUS
 70
0
 71
3
 72
12
 73
8
 74
6
 42
0.0000001
 43
0.0000001
 44
0.0000000001
 12
-0.0053497267
 22
0.3664563861
 32
0.0
 13
-0.3254083925
 23
0.1686068818
 33
0.0
 40
0.0
 40
0.0
 40
0.0
 40
0.0
 40
0.1955839747
 40
0.4065111841
 40
0.6196376798
 40
0.8218553915
 40
1.0
 40
1.0
 40
1.0
 40
1.0
 10
15.399587274
 20
-2.5268701086
 30
0.0
 10
15.3992385004
 20
-2.5029791097
 30
0.0
 10
15.3920018187
 20
-2.4533446522
 30
0.0
 10
15.3664149329
 20
-2.3816835089
 30
0.0
 10
15.3278369323
 20
-2.3150834836
 30
0.0
 10
15.2800762682
 20
-2.2599631596
 30
0.0
 10
15.2421607528
 20
-2.2320339825
 30
0.0
 10
15.2228375026
 20
-2.2220218469
 30
0.0
 11
15.399587274
 21
-2.5268701086
 31
0.0
 11
15.3900643968
 21
-2.4558248551
 31
0.0
 11
15.3643752917
 21
-2.382914249
 31
0.0
 11
15.3251007562
 21
-2.3153963598
 31
0.0
 11
15.2760739621
 21
-2.2598181049
 31
0.0
 11
15.2228375026
 21
-2.2220218469
 31
0.0
  0
SPLINE
  5
287
100
AcDbEntity
  8
ASSI
100
AcDbSpline
 62
253
  6
CONTINUOUS
 70
0
 71
3
 72
11
 73
7
 74
5
 42
0.0000001
 43
0.0000001
 44
0.0000000001
 12
-0.0003852387
 22
0.3639158128
 32
0.0
 13
0.3226902033
 23
0.1682435732
 33
0.0
 40
0.0
 40
0.0
 40
0.0
 40
0.0
 40
0.24723321
 40
0.513083496
 40
0.7728623516
 40
1.0
 40
1.0
 40
1.0
 40
1.0
 10
-19.5278107671
 20
14.7628569907
 30
0.0
 10
-19.527842515
 20
14.7928476822
 30
0.0
 10
-19.5176015336
 20
14.8552055162
 30
0.0
 10
-19.4803155203
 20
14.9420747053
 30
0.0
 10
-19.4256528794
 20
15.0162154009
 30
0.0
 10
-19.3785510969
 20
15.053718454
 30
0.0
 10
-19.3541193989
 20
15.0664566039
 30
0.0
 11
-19.5278107671
 21
14.7628569907
 31
0.0
 11
-19.5146035723
 21
14.851854481
 31
0.0
 11
-19.4767455937
 21
14.9408870017
 31
0.0
 11
-19.419939776
 21
15.0164546748
 31
0.0
 11
-19.3541193989
 21
15.0664566039
 31
0.0
  0
SPLINE
  5
288
100
AcDbEntity
  8
ASSI
100
AcDbSpline
 62
253
  6
CONTINUOUS
 70
0
 71
3
 72
11
 73
7
 74
5
 42
0.0000001
 43
0.0000001
 44
0.0000000001
 12
-0.0003852361
 22
0.3639133035
 32
0.0
 13
0.3226879782
 23
0.1682424131
 33
0.0
 40
0.0
 40
0.0
 40
0.0
 40
0.0
 40
0.2461494134
 40
0.510593734
 40
0.7692500461
 40
1.0
 40
1.0
 40
1.0
 40
1.0
 10
15.0491461345
 20
-2.5256214601
 30
0.0
 10
15.0491145259
 20
-2.4957624447
 30
0.0
 10
15.0592622713
 20
-2.4337082037
 30
0.0
 10
15.0962350414
 20
-2.3471900473
 30
0.0
 10
15.1507557187
 20
-2.2728106532
 30
0.0
 10
15.1980174239
 20
-2.2349624899
 30
0.0
 10
15.2228375026
 20
-2.2220218469
 30
0.0
 11
15.0491461345
 21
-2.5256214601
 31
0.0
 11
15.062243714
 21
-2.437007073
 31
0.0
 11
15.0997563716
 21
-2.3483845654
 31
0.0
 11
15.1560885535
 21
-2.2729732623
 31
0.0
 11
15.2228375026
 21
-2.2220218469
 31
0.0
  0
SPLINE
  5
289
100
AcDbEntity
  8
ASSI
100
AcDbSpline
 62
253
  6
CONTINUOUS
 70
0
 71
3
 72
10
 73
6
 74
4
 42
0.0000001
 43
0.0000001
 44
0.0000000001
 12
-0.1066900285
 22
0.053347966
 32
0.0
 13
0.0004535062
 23
0.1185801457
 33
0.0
 40
0.0
 40
0.0
 40
0.0
 40
0.0
 40
0.5621967092
 40
0.9909786765
 40
1.0
 40
1.0
 40
1.0
 40
1.0
 10
-19.5278107671
 20
14.7628569907
 30
0.0
 10
-19.5478043614
 20
14.772854341
 30
0.0
 10
-19.5818955538
 20
14.7944887866
 30
0.0
 10
-19.6009309968
 20
14.8336455173
 30
0.0
 10
-19.6010322649
 20
14.8509486988
 30
0.0
 10
-19.6010309011
 20
14.8513052821
 30
0.0
 11
-19.5278107671
 21
14.7628569907
 31
0.0
 11
-19.5815843262
 21
14.8029272013
 31
0.0
 11
-19.6010245959
 21
14.8502356722
 31
0.0
 11
-19.6010309011
 21
14.8513052821
 31
0.0
  0
SPLINE
  5
28A
100
AcDbEntity
  8
ASSI
100
AcDbSpline
 62
253
  6
CONTINUOUS
 70
0
 71
3
 72
10
 73
6
 74
4
 42
0.0000001
 43
0.0000001
 44
0.0000000001
 12
-0.0264958836
 22
-0.1937282825
 32
0.0
 13
-0.1913177821
 23
-0.052459215
 33
0.0
 40
0.0
 40
0.0
 40
0.0
 40
0.0
 40
0.4306837962
 40
0.8010691458
 40
1.0
 40
1.0
 40
1.0
 40
1.0
 10
16.085519288
 20
-16.9306793671
 30
0.0
 10
16.0817155054
 20
-16.9584912445
 30
0.0
 10
16.06719937
 20
-17.0098216041
 30
0.0
 10
16.0245337039
 20
-17.0625841517
 30
0.0
 10
15.9897928892
 20
-17.0784289591
 30
0.0
 10
15.9771065526
 20
-17.0819075446
 30
0.0
 11
16.085519288
 21
-16.9306793671
 31
0.0
 11
16.0604233464
 21
-17.0110654186
 31
0.0
 11
16.0127952482
 21
-17.0656229672
 31
0.0
 11
15.9771065526
 21
-17.0819075446
 31
0.0
  0
SPLINE
  5
28B
100
AcDbEntity
  8
ASSI
100
AcDbSpline
 62
253
  6
CONTINUOUS
 70
0
 71
3
 72
11
 73
7
 74
5
 42
0.0000001
 43
0.0000001
 44
0.0000000001
 12
-0.3186059469
 22
-0.1690547765
 32
0.0
 13
-0.3227066243
 23
0.1610891104
 33
0.0
 40
0.0
 40
0.0
 40
0.0
 40
0.0
 40
0.2388448156
 40
0.503580789
 40
0.7663861237
 40
1.0
 40
1.0
 40
1.0
 40
1.0
 10
15.6400556192
 20
-16.5318935719
 30
0.0
 10
15.6146898263
 20
-16.5453528575
 30
0.0
 10
15.556648914
 20
-16.5651777996
 30
0.0
 10
15.464606286
 20
-16.576022266
 30
0.0
 10
15.372832384
 20
-16.5689784838
 30
0.0
 10
15.3148957181
 20
-16.551424136
 30
0.0
 10
15.2897661363
 20
-16.5388799188
 30
0.0
 11
15.6400556192
 21
-16.5318935719
 31
0.0
 11
15.559084393
 21
-16.5613017832
 31
0.0
 11
15.4643116686
 21
-16.5729402801
 31
0.0
 11
15.3698501335
 21
-16.5650759639
 31
0.0
 11
15.2897661363
 21
-16.5388799188
 31
0.0
  0
SPLINE
  5
28C
100
AcDbEntity
  8
ASSI
100
AcDbSpline
 62
253
  6
CONTINUOUS
 70
0
 71
3
 72
11
 73
7
 74
5
 42
0.0000001
 43
0.0000001
 44
0.0000000001
 12
-0.3239020885
 22
-0.1568996966
 32
0.0
 13
-0.3219104786
 23
0.1609463312
 33
0.0
 40
0.0
 40
0.0
 40
0.0
 40
0.0
 40
0.2366865896
 40
0.5013293948
 40
0.7652575904
 40
1.0
 40
1.0
 40
1.0
 40
1.0
 10
15.399587274
 20
-2.5268701086
 30
0.0
 10
15.3740328471
 20
-2.5392487932
 30
0.0
 10
15.3157417893
 20
-2.5568719355
 30
0.0
 10
15.2238165885
 20
-2.5650965716
 30
0.0
 10
15.1321848886
 20
-2.5562652208
 30
0.0
 10
15.0743348149
 20
-2.5382151033
 30
0.0
 10
15.0491461345
 20
-2.5256214601
 30
0.0
 11
15.399587274
 21
-2.5268701086
 31
0.0
 11
15.3185621
 21
-2.5531620524
 31
0.0
 11
15.2237411554
 21
-2.5621472035
 31
0.0
 11
15.1292450799
 21
-2.5524875017
 31
0.0
 11
15.0491461345
 21
-2.5256214601
 31
0.0
  0
LINE
  5
28D
100
AcDbEntity
  8
ASSI
100
AcDbLine
 62
253
  6
CONTINUOUS
 10
-19.295454078
 20
0.7537170251
 11
-19.2983916558
 21
0.8446854889
  0
SPLINE
  5
28E
100
AcDbEntity
  8
ASSI
100
AcDbSpline
 62
253
  6
CONTINUOUS
 70
0
 71
3
 72
11
 73
7
 74
5
 42
0.0000001
 43
0.0000001
 44
0.0000000001
 12
0.0199946315
 22
-0.5969871297
 32
0.0
 13
0.5355973488
 23
-0.2715057779
 33
0.0
 40
0.0
 40
0.0
 40
0.0
 40
0.0
 40
0.3060317019
 40
0.580122921
 40
0.8278011484
 40
1.0
 40
1.0
 40
1.0
 40
1.0
 10
15.2897535871
 20
-16.5388868075
 30
0.0
 10
15.2917932508
 20
-16.5997858033
 30
0.0
 10
15.3061397749
 20
-16.7153942153
 30
0.0
 10
15.364633714
 20
-16.8714652365
 30
0.0
 10
15.4503969439
 20
-16.9830152658
 30
0.0
 10
15.5203940355
 20
-17.0310484084
 30
0.0
 10
15.5511371183
 20
-17.0466327361
 30
0.0
 11
15.2897535871
 21
-16.5388868075
 31
0.0
 11
15.3143449063
 21
-16.7200245955
 31
0.0
 11
15.3741199738
 21
-16.8724431061
 31
0.0
 11
15.4660255439
 21
-16.9883770596
 31
0.0
 11
15.5511371183
 21
-17.0466327361
 31
0.0
  0
SPLINE
  5
28F
100
AcDbEntity
  8
ASSI
100
AcDbSpline
 62
7
  6
CONTINUOUS
 70
0
 71
3
 72
23
 73
19
 74
17
 42
0.0000001
 43
0.0000001
 44
0.0000000001
 12
5.4809337654
 22
-2.7404668827
 32
0.0
 13
-5.4809337654
 23
2.7404668827
 33
0.0
 40
0.0
 40
0.0
 40
0.0
 40
0.0
 40
0.0634449407
 40
0.1324477445
 40
0.2056827505
 40
0.2814987184
 40
0.3581052134
 40
0.4337406299
 40
0.5067520141
 40
0.5755133631
 40
0.638814125
 40
0.6961125467
 40
0.7478089476
 40
0.7955473522
 40
0.841969734
 40
0.8900926282
 40
0.9423554061
 40
1.0
 40
1.0
 40
1.0
 40
1.0
 10
-2.2355307992
 20
4.6857194361
 30
0.0
 10
-2.1196182934
 20
4.6277631832
 30
0.0
 10
-1.8893032335
 20
4.4827492527
 30
0.0
 10
-1.5722580097
 20
4.2050091148
 30
0.0
 10
-1.2795787895
 20
3.8675567581
 30
0.0
 10
-1.0225765177
 20
3.4835798784
 30
0.0
 10
-0.8105925844
 20
3.0675551831
 30
0.0
 10
-0.6512349498
 20
2.6347348861
 30
0.0
 10
-0.5503884721
 20
2.2009725963
 30
0.0
 10
-0.5120280952
 20
1.7823443942
 30
0.0
 10
-0.5379785452
 20
1.3945065146
 30
0.0
 10
-0.6280802223
 20
1.0516241181
 30
0.0
 10
-0.7808965174
 20
0.7661991974
 30
0.0
 10
-0.9936539971
 20
0.5507993917
 30
0.0
 10
-1.2584955231
 20
0.4185714001
 30
0.0
 10
-1.5602937666
 20
0.3770798027
 30
0.0
 10
-1.8830235753
 20
0.4245500431
 30
0.0
 10
-2.0935926872
 20
0.507544469
 30
0.0
 10
-2.1989080876
 20
0.5602021692
 30
0.0
 11
-2.2355307992
 21
4.6857194361
 31
0.0
 11
-1.904969679
 21
4.4810707808
 31
0.0
 11
-1.58544964
 21
4.2041216822
 31
0.0
 11
-1.2903595484
 21
3.8660085473
 31
0.0
 11
-1.031373095
 21
3.4803010555
 31
0.0
 11
-0.8182497602
 21
3.0620339817
 31
0.0
 11
-0.658753643
 21
2.6268576691
 31
0.0
 11
-0.5588247968
 21
2.1907558198
 31
0.0
 11
-0.5226101448
 21
1.770954349
 31
0.0
 11
-0.5516230901
 21
1.3841420292
 31
0.0
 11
-0.644626624
 21
1.0455660465
 31
0.0
 11
-0.7977549953
 21
0.7682451696
 31
0.0
 11
-1.0053199355
 21
0.5621059572
 31
0.0
 11
-1.2597606873
 21
0.4348924612
 31
0.0
 11
-1.5514711192
 21
0.3916994284
 31
0.0
 11
-1.8688934221
 21
0.4342346214
 31
0.0
 11
-2.1989080876
 21
0.5602021692
 31
0.0
  0
SPLINE
  5
290
100
AcDbEntity
  8
ASSI
100
AcDbSpline
 62
7
  6
CONTINUOUS
 70
0
 71
3
 72
23
 73
19
 74
17
 42
0.0000001
 43
0.0000001
 44
0.0000000001
 12
-5.4898497957
 22
2.7449248978
 32
0.0
 13
5.4898497957
 23
-2.7449248978
 33
0.0
 40
0.0
 40
0.0
 40
0.0
 40
0.0
 40
0.0633759472
 40
0.1323373498
 40
0.2055221246
 40
0.2812546768
 40
0.3577364998
 40
0.4332149166
 40
0.5060612433
 40
0.5746856975
 40
0.6379184498
 40
0.6952520823
 40
0.7470994914
 40
0.7950782834
 40
0.841759
 40
0.8900718639
 40
0.9424049049
 40
1.0
 40
1.0
 40
1.0
 40
1.0
 10
-2.1989080876
 20
0.5602021692
 30
0.0
 10
-2.3148828978
 20
0.6181895743
 30
0.0
 10
-2.5454845892
 20
0.7630899684
 30
0.0
 10
-2.8635075091
 20
1.0402084856
 30
0.0
 10
-3.1577192447
 20
1.3767892337
 30
0.0
 10
-3.416566484
 20
1.759786006
 30
0.0
 10
-3.6304181846
 20
2.1748729433
 30
0.0
 10
-3.791378955
 20
2.6069412923
 30
0.0
 10
-3.8933132213
 20
3.0402551532
 30
0.0
 10
-3.9320649826
 20
3.4588088643
 30
0.0
 10
-3.9057270507
 20
3.8469469
 30
0.0
 10
-3.8145020168
 20
4.190417722
 30
0.0
 10
-3.6600331568
 20
4.4765565932
 30
0.0
 10
-3.4454891177
 20
4.6926958468
 30
0.0
 10
-3.1790349079
 20
4.8257917131
 30
0.0
 10
-2.8758117293
 20
4.8682062248
 30
0.0
 10
-2.5519885126
 20
4.8213713485
 30
0.0
 10
-2.3409269396
 20
4.7384175063
 30
0.0
 10
-2.2355307992
 20
4.6857194361
 30
0.0
 11
-2.1989080876
 21
0.5602021692
 31
0.0
 11
-2.5298291962
 21
0.764666058
 31
0.0
 11
-2.8503799587
 21
1.0410861307
 31
0.0
 11
-3.1470154111
 21
1.3784060986
 31
0.0
 11
-3.4078240207
 21
1.7631783562
 31
0.0
 11
-3.6227682942
 21
2.1805108208
 31
0.0
 11
-3.7838094166
 21
2.6148941489
 31
0.0
 11
-3.8847735493
 21
3.0504646304
 31
0.0
 11
-3.9213524762
 21
3.4700791346
 31
0.0
 11
-3.8919757145
 21
3.8570781856
 31
0.0
 11
-3.7979373734
 21
4.1961852902
 31
0.0
 11
-3.6432643051
 21
4.4742989934
 31
0.0
 11
-3.4338783627
 21
4.6813728477
 31
0.0
 11
-3.1776151529
 21
4.8095217326
 31
0.0
 11
-2.8843590624
 21
4.8535080853
 31
0.0
 11
-2.5659057863
 21
4.8115020464
 31
0.0
 11
-2.2355307992
 21
4.6857194361
 31
0.0
  0
SPLINE
  5
291
100
AcDbEntity
  8
CURVE
100
AcDbSpline
 62
253
  6
CONTINUOUS
 70
0
 71
3
 72
23
 73
19
 74
17
 42
0.0000001
 43
0.0000001
 44
0.0000000001
 12
-0.1853207589
 22
7.876217543
 32
0.0
 13
0.1851635618
 23
-7.8695365954
 33
0.0
 40
0.0
 40
0.0
 40
0.0
 40
0.0
 40
0.0625
 40
0.125
 40
0.1875
 40
0.25
 40
0.3125
 40
0.375
 40
0.4375
 40
0.5
 40
0.5625
 40
0.625
 40
0.6875
 40
0.75
 40
0.8125
 40
0.875
 40
0.9375
 40
1.0
 40
1.0
 40
1.0
 40
1.0
 10
-4.1683725362
 20
-2.797259734
 30
0.0
 10
-4.1722333854
 20
-2.6331718685
 30
0.0
 10
-4.1533406841
 20
-2.3249128567
 30
0.0
 10
-4.0462378172
 20
-1.9128775975
 30
0.0
 10
-3.8645405704
 20
-1.5759175013
 30
0.0
 10
-3.6153901726
 20
-1.3247187013
 30
0.0
 10
-3.3085390604
 20
-1.1696411241
 30
0.0
 10
-2.9559283129
 20
-1.1165331899
 30
0.0
 10
-2.5712060454
 20
-1.1675633293
 30
0.0
 10
-2.1692820129
 20
-1.3208180333
 30
0.0
 10
-1.7656561577
 20
-1.5704172858
 30
0.0
 10
-1.3758329069
 20
-1.9067273831
 30
0.0
 10
-1.0147272206
 20
-2.3167481837
 30
0.0
 10
-0.6960511358
 20
-2.7846268099
 30
0.0
 10
-0.4318740995
 20
-3.2925186703
 30
0.0
 10
-0.2322456251
 20
-3.8201322551
 30
0.0
 10
-0.1046048861
 20
-4.3496190167
 30
0.0
 10
-0.0710107795
 20
-4.6839207204
 30
0.0
 10
-0.0671532053
 20
-4.8478693994
 30
0.0
 11
-4.1683725362
 21
-2.797259734
 31
0.0
 11
-4.1402133816
 21
-2.3333050665
 31
0.0
 11
-4.0338054205
 21
-1.9253901247
 31
0.0
 11
-3.8532983786
 21
-1.5902110507
 31
0.0
 11
-3.6057733869
 21
-1.3407389051
 31
0.0
 11
-3.3009124545
 21
-1.1866360646
 31
0.0
 11
-2.9505763929
 21
-1.1338895355
 31
0.0
 11
-2.5683390846
 21
-1.1846007567
 31
0.0
 11
-2.1689983758
 21
-1.336875458
 31
0.0
 11
-1.7679565918
 21
-1.5848690932
 31
0.0
 11
-1.3806191677
 21
-1.9190125003
 31
0.0
 11
-1.0217988208
 21
-2.3263911546
 31
0.0
 11
-0.7051343106
 21
-2.7912956822
 31
0.0
 11
-0.4426321931
 21
-3.2958056244
 31
0.0
 11
-0.244243581
 21
-3.8204444512
 31
0.0
 11
-0.1174798159
 21
-4.344946649
 31
0.0
 11
-0.0671532053
 21
-4.8478693994
 31
0.0
  0
SPLINE
  5
292
100
AcDbEntity
  8
CURVE
100
AcDbSpline
 62
253
  6
CONTINUOUS
 70
0
 71
3
 72
23
 73
19
 74
17
 42
0.0000001
 43
0.0000001
 44
0.0000000001
 12
0.1853505318
 22
-7.8774829076
 32
0.0
 13
-0.1851934681
 23
7.8708076252
 33
0.0
 40
0.0
 40
0.0
 40
0.0
 40
0.0
 40
0.0625
 40
0.125
 40
0.1875
 40
0.25
 40
0.3125
 40
0.375
 40
0.4375
 40
0.5
 40
0.5625
 40
0.625
 40
0.6875
 40
0.75
 40
0.8125
 40
0.875
 40
0.9375
 40
1.0
 40
1.0
 40
1.0
 40
1.0
 10
-0.0671532053
 20
-4.8478693994
 30
0.0
 10
-0.0632917359
 20
-5.0119836267
 30
0.0
 10
-0.0818288141
 20
-5.3201010919
 30
0.0
 10
-0.1874040973
 20
-5.7313953075
 30
0.0
 10
-0.3668043358
 20
-6.0671840019
 30
0.0
 10
-0.6132165317
 20
-6.3169665917
 30
0.0
 10
-0.9172934541
 20
-6.4706242991
 30
0.0
 10
-1.2675254952
 20
-6.5225494455
 30
0.0
 10
-1.6506736935
 20
-6.4707433294
 30
0.0
 10
-2.0520508043
 20
-6.317215617
 30
0.0
 10
-2.4562260041
 20
-6.0678893601
 30
0.0
 10
-2.8475963259
 20
-5.7323679819
 30
0.0
 10
-3.2109887904
 20
-5.3235734622
 30
0.0
 10
-3.532389248
 20
-4.8571383118
 30
0.0
 10
-3.7993260431
 20
-4.3506528788
 30
0.0
 10
-4.0013194084
 20
-3.8241788611
 30
0.0
 10
-4.1305494512
 20
-3.2954031974
 30
0.0
 10
-4.164514339
 20
-2.9612348929
 30
0.0
 10
-4.1683725362
 20
-2.797259734
 30
0.0
 11
-0.0671532053
 21
-4.8478693994
 31
0.0
 11
-0.0947904251
 21
-5.3116207616
 31
0.0
 11
-0.1997082565
 21
-5.718811054
 31
0.0
 11
-0.3779729953
 21
-6.0528496511
 31
0.0
 11
-0.6228273194
 21
-6.300945778
 31
0.0
 11
-0.9249859739
 21
-6.4536688723
 31
0.0
 11
-1.2730115214
 21
-6.5052609018
 31
0.0
 11
-1.6537118456
 21
-6.45378973
 31
0.0
 11
-2.0525171525
 21
-6.3012491929
 31
0.0
 11
-2.4540918578
 21
-6.0535235066
 31
0.0
 11
-2.8429333497
 21
-5.7201557917
 31
0.0
 11
-3.2039901226
 21
-5.3139666904
 31
0.0
 11
-3.5233119709
 21
-4.8504632647
 31
0.0
 11
-3.7885021381
 21
-4.347321448
 31
0.0
 11
-3.989192188
 21
-3.8237952534
 31
0.0
 11
-4.1175023327
 21
-3.2999903986
 31
0.0
 11
-4.1683725362
 21
-2.797259734
 31
0.0
  0
ELLIPSE
  5
293
100
AcDbEntity
  8
RACCORDO
100
AcDbEllipse
 62
7
  6
CONTINUOUS
 10
-15.6342608874
 20
16.8568102994
 30
0.0
 11
-0.1118504554
 21
0.2236675568
 31
0.0
 40
0.6121897086
 41
-0.6846338794
 42
0.01860359
  0
ELLIPSE
  5
294
100
AcDbEntity
  8
RACCORDO
100
AcDbEllipse
 62
7
  6
CONTINUOUS
 10
18.8063895132
 20
-16.2038027983
 30
0.0
 11
-0.0859020599
 21
0.2354039488
 31
0.0
 40
0.6613288813
 41
-3.0814589183
 42
-2.1814380601
  0
ELLIPSE
  5
295
100
AcDbEntity
  8
RACCORDO
100
AcDbEllipse
 62
7
  6
CONTINUOUS
 10
19.0747541369
 20
-0.4976972128
 30
0.0
 11
-0.1117903878
 21
0.2236141634
 31
0.0
 40
0.6125552124
 41
-2.255296188
 42
-0.6848044477
  0
ELLIPSE
  5
296
100
AcDbEntity
  8
RACCORDO
100
AcDbEllipse
 62
7
  6
CONTINUOUS
 10
18.2833598234
 20
-16.4508504136
 30
0.0
 11
-0.1118523001
 21
0.2236266191
 31
0.0
 40
0.6122950388
 41
2.456793014
 42
4.0274370417
  0
ELLIPSE
  5
297
100
AcDbEntity
  8
RACCORDO
100
AcDbEllipse
 62
7
  6
CONTINUOUS
 10
19.4673925731
 20
-1.088566289
 30
0.0
 11
0.1379861541
 21
0.2664038768
 31
0.0
 40
0.6229838795
 41
2.2644017489
 42
3.8177447832
  0
ELLIPSE
  5
298
100
AcDbEntity
  8
RACCORDO
100
AcDbEllipse
 62
7
  6
CONTINUOUS
 10
18.2833598234
 20
-16.199047611
 30
0.0
 11
-0.1098985543
 21
0.2275784384
 31
0.0
 40
0.6085747011
 41
-3.254853034
 42
-2.2415613143
  0
ELLIPSE
  5
299
100
AcDbEntity
  8
ASSI
100
AcDbEllipse
 62
7
  6
CONTINUOUS
 10
-15.6342608874
 20
16.8568102994
 30
0.0
 11
-0.1118504554
 21
0.2236675568
 31
0.0
 40
0.6121897086
 41
-0.6846338794
 42
0.01860359
  0
ELLIPSE
  5
29A
100
AcDbEntity
  8
ASSI
100
AcDbEllipse
 62
7
  6
CONTINUOUS
 10
18.8063895132
 20
-16.2038027983
 30
0.0
 11
-0.0859020599
 21
0.2354039488
 31
0.0
 40
0.6613288813
 41
-3.0814589183
 42
-2.1814380601
  0
ELLIPSE
  5
29B
100
AcDbEntity
  8
ASSI
100
AcDbEllipse
 62
7
  6
CONTINUOUS
 10
19.0747541369
 20
-0.4976972128
 30
0.0
 11
-0.1117903878
 21
0.2236141634
 31
0.0
 40
0.6125552124
 41
-2.255296188
 42
-0.6848044477
  0
ELLIPSE
  5
29C
100
AcDbEntity
  8
ASSI
100
AcDbEllipse
 62
7
  6
CONTINUOUS
 10
18.2833598234
 20
-16.4508504136
 30
0.0
 11
-0.1118523001
 21
0.2236266191
 31
0.0
 40
0.6122950388
 41
2.456793014
 42
4.0274370417
  0
ELLIPSE
  5
29D
100
AcDbEntity
  8
ASSI
100
AcDbEllipse
 62
7
  6
CONTINUOUS
 10
19.4673925731
 20
-1.088566289
 30
0.0
 11
0.1379861541
 21
0.2664038768
 31
0.0
 40
0.6229838795
 41
2.2644017489
 42
3.8177447832
  0
ELLIPSE
  5
29E
100
AcDbEntity
  8
ASSI
100
AcDbEllipse
 62
7
  6
CONTINUOUS
 10
18.2833598234
 20
-16.199047611
 30
0.0
 11
-0.1098985543
 21
0.2275784384
 31
0.0
 40
0.6085747011
 41
-3.254853034
 42
-2.2415613143
  0
ENDSEC
  0
SECTION
  2
OBJECTS
  0
DICTIONARY
  5
C
100
AcDbDictionary
280
0
281
1
  3
ACAD_GROUP
350
D
  3
ACAD_MLINESTYLE
350
17
  3
ACAD_LAYOUT
350
1A
  3
ACAD_PLOTSETTINGS
350
19
  3
ACAD_PLOTSTYLENAME
350
E
  0
DICTIONARY
  5
D
102
{ACAD_REACTORS
330
C
102
}
100
AcDbDictionary
280
0
281
1
  0
ACDBDICTIONARYWDFLT
  5
E
102
{ACAD_REACTORS
330
C
102
}
100
AcDbDictionary
281
1
  3
Normal
350
F
100
AcDbDictionaryWithDefault
340
F
  0
DICTIONARY
  5
17
102
{ACAD_REACTORS
330
C
102
}
100
AcDbDictionary
280
0
281
1
  3
Standard
350
18
  0
DICTIONARY
  5
19
102
{ACAD_REACTORS
330
C
102
}
100
AcDbDictionary
281
1
  0
DICTIONARY
  5
1A
102
{ACAD_REACTORS
330
C
102
}
100
AcDbDictionary
281
1
  3
Model
350
29F
  3
Layout1
350
2A0
  0
ACDBPLACEHOLDER
  5
F
102
{ACAD_REACTORS
330
E
102
}
  0
MLINESTYLE
  5
18
102
{ACAD_REACTORS
330
17
102
}
100
AcDbMlineStyle
  2
STANDARD
 70
0
  3

 62
256
 51
90.0
 52
90.0
 71
2
 49
0.5
 62
256
  6
BYLAYER
 49
-0.5
 62
256
  6
BYLAYER
  0
LAYOUT
  5
29F
102
{ACAD_REACTORS
330
1A
102
}
100
AcDbPlotSettings
  1

  2
none_device
  4
ISO_A4_(297.00_x_210.00_MM)
  6

 40
0.0
 41
0.0
 42
0.0
 43
0.0
 44
297.0
 45
210.0
 46
0.0
 47
0.0
 48
0.0
 49
0.0
140
0.0
141
0.0
142
1.0
143
1.0
 70
1024
 72
1
 73
0
 74
0
  7

 75
0
147
1.0
148
0.0
149
0.0
100
AcDbLayout
  1
Model
 70
0
 71
0
 10
0.0
 20
0.0
 11
297.0
 21
210.0
 12
0.0
 22
0.0
 32
0.0
 14
0.0
 24
0.0
 34
0.0
 15
0.0
 25
0.0
 35
0.0
146
0.0
 13
0.0
 23
0.0
 33
0.0
 16
1.0
 26
0.0
 36
0.0
 17
0.0
 27
1.0
 37
0.0
 76
0
330
210
345
0
346
0
  0
LAYOUT
  5
2A0
102
{ACAD_REACTORS
330
1A
102
}
100
AcDbPlotSettings
  1

  2
none_device
  4
ISO_A4_(297.00_x_210.00_MM)
  6

 40
0.0
 41
0.0
 42
0.0
 43
0.0
 44
297.0
 45
210.0
 46
0.0
 47
0.0
 48
0.0
 49
0.0
140
0.0
141
0.0
142
1.0
143
1.0
 70
0
 72
1
 73
0
 74
0
  7

 75
0
147
1.0
148
0.0
149
0.0
100
AcDbLayout
  1
Layout1
 70
0
 71
1
 10
0.0
 20
0.0
 11
297.0
 21
210.0
 12
0.0
 22
0.0
 32
0.0
 14
0.0
 24
0.0
 34
0.0
 15
0.0
 25
0.0
 35
0.0
146
0.0
 13
0.0
 23
0.0
 33
0.0
 16
1.0
 26
0.0
 36
0.0
 17
0.0
 27
1.0
 37
0.0
 76
0
330
211
345
0
346
0
  0
ENDSEC
  0
EOF
