  0
SECTION
  2
HEADER
  9
$ACADVER
  1
AC1015
  9
$DWGCODEPAGE
  3
ANSI_1252
  9
$EXTMAX
 10
297.0
 20
210.0
 30
0.0
  9
$EXTMIN
 10
0.0
 20
0.0
 30
0.0
  9
$LIMMIN
 10
0.0
 20
0.0
  9
$LIMMAX
 10
297.0
 20
210.0
  9
$VIEWCTR
 10
148.5
 20
105.0
  9
$VIEWSIZE
 40
210.0
  9
$CLAYER
  8
0
  9
$LTSCALE
 40
16.335
  9
$CELTYPE
  6
BYLAYER
  9
$DIMSCALE
 40
1.0
  9
$DIMASZ
 40
3.0
  9
$DIMEXO
 40
1.85625
  9
$DIMDLI
 40
11.286
  9
$DIMEXE
 40
5.346
  9
$DIMCEN
 40
2.673
  9
$DIMLFAC
 40
1.0
  9
$DIMBLK
  1
_FILLED
  9
$DIMTXT
 40
3.0
  9
$DIMTOL
 70
1
  9
$DIMLIM
 70
0
  9
$DIMTFAC
 40
1.0
  9
$DIMTP
 40
0.01
  9
$DIMTM
 40
0.01
  9
$PDMODE
 70
3
  9
$PDSIZE
 40
3.0
  9
$HANDSEED
  5
25F
  9
$TILEMODE
 70
1
  9
$MEASUREMENT
 70
1
  9
$INSUNITS
 70
4
  0
ENDSEC
  0
SECTION
  2
CLASSES
  0
CLASS
  1
ACDBDICTIONARYWDFLT
  2
AcDbDictionaryWithDefault
  3
AutoCAD 2000
 90
0
280
0
281
0
  0
CLASS
  1
ACDBPLACEHOLDER
  2
AcDbPlaceHolder
  3
AutoCAD 2000
 90
0
280
0
281
0
  0
CLASS
  1
LAYOUT
  2
AcDbLayout
  3
AutoCAD 2000
 90
0
280
0
281
0
  0
ENDSEC
  0
SECTION
  2
TABLES
  0
TABLE
  2
VPORT
  5
8
100
AcDbSymbolTable
 70
2
  0
VPORT
  5
1F4
100
AcDbSymbolTableRecord
100
AcDbViewportTableRecord
  2
*ACTIVE
 70
0
 10
0.0
 20
0.0
 11
1.0
 21
1.0
 12
148.5
 22
105.0
 13
0.0
 23
0.0
 14
1.0
 24
1.0
 15
0.0
 25
0.0
 16
0.0
 26
0.0
 36
1.0
 17
0.0
 27
0.0
 37
0.0
 40
210.0
 41
1.4142857143
 42
50.0
 43
0.0
 44
0.0
 50
0.0
 51
0.0
 71
0
 72
100
 73
1
 74
1
 75
0
 76
0
 77
0
 78
0
  0
ENDTAB
  0
TABLE
  2
LTYPE
  5
5
100
AcDbSymbolTable
 70
6
  0
LTYPE
  5
14
100
AcDbSymbolTableRecord
100
AcDbLinetypeTableRecord
  2
BYBLOCK
 70
0
  3

 72
65
 73
0
 40
0.0
  0
LTYPE
  5
15
100
AcDbSymbolTableRecord
100
AcDbLinetypeTableRecord
  2
BYLAYER
 70
0
  3

 72
65
 73
0
 40
0.0
  0
LTYPE
  5
16
100
AcDbSymbolTableRecord
100
AcDbLinetypeTableRecord
  2
CONTINUOUS
 70
64
  3
Solid line
 72
65
 73
0
 40
0.0
  0
LTYPE
  5
1F5
100
AcDbSymbolTableRecord
100
AcDbLinetypeTableRecord
  2
CENTER
 70
64
  3
____ _ ____ _ ____ _ ____ _ ____ _ ____ _ ____
 72
65
 73
4
 40
0.6
 49
0.375
 74
0
 49
-0.075
 74
0
 49
0.075
 74
0
 49
-0.075
 74
0
  0
LTYPE
  5
1F6
100
AcDbSymbolTableRecord
100
AcDbLinetypeTableRecord
  2
HIDDEN
 70
64
  3
- - - - - - - - - - - - - - - - - - - -
 72
65
 73
2
 40
0.2
 49
0.1
 74
0
 49
-0.1
 74
0
  0
LTYPE
  5
1F7
100
AcDbSymbolTableRecord
100
AcDbLinetypeTableRecord
  2
PHANTOM
 70
64
  3
_____ _ _ _____ _ _ _____ _ _ _____
 72
65
 73
6
 40
0.8
 49
0.45
 74
0
 49
-0.05
 74
0
 49
0.1
 74
0
 49
-0.05
 74
0
 49
0.1
 74
0
 49
-0.05
 74
0
  0
LTYPE
  5
1F8
100
AcDbSymbolTableRecord
100
AcDbLinetypeTableRecord
  2
DOT
 70
64
  3
. . . . . . . . . . . . . . . . . . . .
 72
65
 73
2
 40
0.2
 49
0.1
 74
0
 49
-0.1
 74
0
  0
LTYPE
  5
1F9
100
AcDbSymbolTableRecord
100
AcDbLinetypeTableRecord
  2
DASHED
 70
64
  3
- - - - - - - - - - - - - - - - - - - -
 72
65
 73
2
 40
0.2
 49
0.1
 74
0
 49
-0.1
 74
0
  0
ENDTAB
  0
TABLE
  2
LAYER
  5
2
100
AcDbSymbolTable
 70
36
  0
LAYER
  5
10
100
AcDbSymbolTableRecord
100
AcDbLayerTableRecord
  2
0
 70
0
 62
7
  6
CONTINUOUS
370
-3
390
F
  0
LAYER
  5
1FA
100
AcDbSymbolTableRecord
100
AcDbLayerTableRecord
  2
DEFAULT_1
 70
0
 62
7
  6
CENTER
370
-3
390
F
  0
LAYER
  5
1FB
100
AcDbSymbolTableRecord
100
AcDbLayerTableRecord
  2
DEFAULT_2
 70
0
 62
7
  6
HIDDEN
370
-3
390
F
  0
LAYER
  5
1FC
100
AcDbSymbolTableRecord
100
AcDbLayerTableRecord
  2
DEFAULT_3
 70
0
 62
7
  6
PHANTOM
370
-3
390
F
  0
LAYER
  5
1FD
100
AcDbSymbolTableRecord
100
AcDbLayerTableRecord
  2
ASSI
 70
0
 62
7
  6
CONTINUOUS
370
-3
390
F
  0
LAYER
  5
1FE
100
AcDbSymbolTableRecord
100
AcDbLayerTableRecord
  2
COORDINATE
 70
0
 62
7
  6
CONTINUOUS
370
-3
390
F
  0
LAYER
  5
1FF
100
AcDbSymbolTableRecord
100
AcDbLayerTableRecord
  2
COORD_ORIGINE
 70
0
 62
7
  6
CONTINUOUS
370
-3
390
F
  0
LAYER
  5
200
100
AcDbSymbolTableRecord
100
AcDbLayerTableRecord
  2
COPY_PUBLISH
 70
0
 62
7
  6
CONTINUOUS
370
-3
390
F
  0
LAYER
  5
201
100
AcDbSymbolTableRecord
100
AcDbLayerTableRecord
  2
COSMETIC
 70
0
 62
7
  6
CONTINUOUS
370
-3
390
F
  0
LAYER
  5
202
100
AcDbSymbolTableRecord
100
AcDbLayerTableRecord
  2
CURVE
 70
0
 62
7
  6
CONTINUOUS
370
-3
390
F
  0
LAYER
  5
203
100
AcDbSymbolTableRecord
100
AcDbLayerTableRecord
  2
DRAFT
 70
0
 62
7
  6
CONTINUOUS
370
-3
390
F
  0
LAYER
  5
204
100
AcDbSymbolTableRecord
100
AcDbLayerTableRecord
  2
IGES
 70
0
 62
7
  6
CONTINUOUS
370
-3
390
F
  0
LAYER
  5
205
100
AcDbSymbolTableRecord
100
AcDbLayerTableRecord
  2
IMPORT_IGES
 70
0
 62
7
  6
CONTINUOUS
370
-3
390
F
  0
LAYER
  5
206
100
AcDbSymbolTableRecord
100
AcDbLayerTableRecord
  2
NOTE
 70
0
 62
7
  6
CONTINUOUS
370
-3
390
F
  0
LAYER
  5
207
100
AcDbSymbolTableRecord
100
AcDbLayerTableRecord
  2
PIANI
 70
0
 62
7
  6
CONTINUOUS
370
-3
390
F
  0
LAYER
  5
208
100
AcDbSymbolTableRecord
100
AcDbLayerTableRecord
  2
PIANI_ORIGINE
 70
0
 62
7
  6
CONTINUOUS
370
-3
390
F
  0
LAYER
  5
209
100
AcDbSymbolTableRecord
100
AcDbLayerTableRecord
  2
RACCORDO
 70
0
 62
7
  6
CONTINUOUS
370
-3
390
F
  0
LAYER
  5
20A
100
AcDbSymbolTableRecord
100
AcDbLayerTableRecord
  2
SMUSSO
 70
0
 62
7
  6
CONTINUOUS
370
-3
390
F
  0
LAYER
  5
20B
100
AcDbSymbolTableRecord
100
AcDbLayerTableRecord
  2
SUPERFICI
 70
0
 62
7
  6
CONTINUOUS
370
-3
390
F
  0
LAYER
  5
20C
100
AcDbSymbolTableRecord
100
AcDbLayerTableRecord
  2
TRASH
 70
0
 62
7
  6
CONTINUOUS
370
-3
390
F
  0
ENDTAB
  0
TABLE
  2
STYLE
  5
3
100
AcDbSymbolTable
 70
1
  0
STYLE
  5
11
100
AcDbSymbolTableRecord
100
AcDbTextStyleTableRecord
  2
STANDARD
 70
0
 40
0.0
 41
0.8
 50
0.0
 71
0
 42
0.2
  3
txt
  4

  0
STYLE
  5
20D
100
AcDbSymbolTableRecord
100
AcDbTextStyleTableRecord
  2
TEXTSTYLE_1
 70
0
 40
0.0
 41
0.8
 50
0.0
 71
0
 42
0.2
  3
gdt
  4

  0
ENDTAB
  0
TABLE
  2
VIEW
  5
6
100
AcDbSymbolTable
 70
0
  0
ENDTAB
  0
TABLE
  2
UCS
  5
7
100
AcDbSymbolTable
 70
0
  0
ENDTAB
  0
TABLE
  2
APPID
  5
9
100
AcDbSymbolTable
 70
1
  0
APPID
  5
20E
100
AcDbSymbolTableRecord
100
AcDbRegAppTableRecord
  2
ACAD
 70
0
  0
ENDTAB
  0
TABLE
  2
BLOCK_RECORD
  5
1
100
AcDbSymbolTable
 70
0
  0
BLOCK_RECORD
  5
20F
100
AcDbSymbolTableRecord
100
AcDbBlockTableRecord
  2
*Model_Space
  0
BLOCK_RECORD
  5
210
100
AcDbSymbolTableRecord
100
AcDbBlockTableRecord
  2
*Paper_Space
  0
ENDTAB
  0
TABLE
  2
DIMSTYLE
  5
A
100
AcDbSymbolTable
 70
1
100
AcDbDimStyleTable
 71
0
  0
DIMSTYLE
105
211
100
AcDbSymbolTableRecord
100
AcDbDimStyleTableRecord
  2
STANDARD
 70
0
  3

  4

 40
1.0
 41
3.0
 42
0.0625
 43
0.38
 44
0.18
 45
0.0
 46
0.0
 47
0.01
 48
0.01
140
3.0
141
0.09
142
0.0
143
25.4
144
1.0
145
0.0
146
1.0
147
0.09
 71
1.0
 72
0.0
 73
0
 74
0
 75
0
 76
0
 77
1
 78
8
170
0
171
2
172
0
173
0
174
0
175
0
176
0
177
0
178
0
270
2
271
2
272
2
273
2
274
2
275
0
280
0
281
0
282
0
283
1
284
8
285
0
286
0
287
3
288
0
340
11
  0
ENDTAB
  0
ENDSEC
  0
SECTION
  2
BLOCKS
  0
BLOCK
  5
20
100
AcDbEntity
  8
0
100
AcDbBlockBegin
  2
*Model_Space
 70
0
 10
0.0
 20
0.0
 30
0.0
  3
*Model_Space
  1

  0
ENDBLK
  5
21
100
AcDbEntity
  8
0
100
AcDbBlockEnd
  0
BLOCK
  5
1C
100
AcDbEntity
  8
0
100
AcDbBlockBegin
  2
*Paper_Space
 70
0
 10
0.0
 20
0.0
 30
0.0
  3
*Paper_Space
  1

  0
ENDBLK
  5
1D
100
AcDbEntity
  8
0
100
AcDbBlockEnd
  0
ENDSEC
  0
SECTION
  2
ENTITIES
  0
LINE
  5
212
100
AcDbEntity
  8
RACCORDO
100
AcDbLine
 62
7
  6
CONTINUOUS
 10
-19.4534588946
 20
15.1308027835
 11
-15.732451644
 21
17.1383715614
  0
LINE
  5
213
100
AcDbEntity
  8
RACCORDO
100
AcDbLine
 62
253
  6
CONTINUOUS
 10
-19.3378381183
 20
15.1257133523
 11
-15.6180334587
 21
17.1326333047
  0
LINE
  5
214
100
AcDbEntity
  8
DRAFT
100
AcDbLine
 62
7
  6
CONTINUOUS
 10
-13.3336613203
 20
15.9904472355
 11
-15.2693901821
 21
14.7916417339
  0
LINE
  5
215
100
AcDbEntity
  8
RACCORDO
100
AcDbLine
 62
7
  6
CONTINUOUS
 10
15.9934359623
 20
-17.0228263233
 11
18.3928547108
 21
-16.3735587932
  0
LWPOLYLINE
  5
216
100
AcDbEntity
  8
RACCORDO
100
AcDbPolyline
 62
7
  6
CONTINUOUS
 90
3
 70
0
 10
-19.352393937
 20
0.9018376721
 10
-19.3519564358
 20
0.8903800243
 10
-19.3456297876
 20
0.8141933753
  0
LWPOLYLINE
  5
217
100
AcDbEntity
  8
RACCORDO
100
AcDbPolyline
 62
7
  6
CONTINUOUS
 90
10
 70
0
 10
-19.5847528008
 20
14.9105225334
 10
-19.580649619
 20
13.3915144441
 10
-19.5710072262
 20
11.8113731675
 10
-19.5558878798
 20
10.2341304068
 10
-19.5352918056
 20
8.6598188864
 10
-19.5092193912
 20
7.0884658717
 10
-19.4776710292
 20
5.5200968931
 10
-19.4406472095
 20
3.9547396623
 10
-19.3981487615
 20
2.3924271283
 10
-19.3524042697
 20
0.901789635
  0
LINE
  5
218
100
AcDbEntity
  8
DRAFT
100
AcDbLine
 62
7
  6
CONTINUOUS
 10
-13.3336613203
 20
15.0026129518
 11
-14.3868472045
 21
14.3503702451
  0
LINE
  5
219
100
AcDbEntity
  8
RACCORDO
100
AcDbLine
 62
253
  6
CONTINUOUS
 10
16.1018005686
 20
-16.8714226186
 11
18.4764447274
 21
-16.2288589358
  0
LWPOLYLINE
  5
21A
100
AcDbEntity
  8
RACCORDO
100
AcDbPolyline
 62
7
  6
CONTINUOUS
 90
11
 70
0
 10
-19.3456297876
 20
0.8141933753
 10
-19.3335193591
 20
0.7413360191
 10
-19.3156466509
 20
0.671986392
 10
-19.2921382029
 20
0.6065854115
 10
-19.2633370905
 20
0.5459049399
 10
-19.2296260437
 20
0.4904074296
 10
-19.1912324
 20
0.4401287994
 10
-19.1484544032
 20
0.3952856326
 10
-19.1017344438
 20
0.3562224941
 10
-19.0515760946
 20
0.3231855667
 10
-19.0233639534
 20
0.3079682732
  0
LINE
  5
21B
100
AcDbEntity
  8
DRAFT
100
AcDbLine
 62
7
  6
CONTINUOUS
 10
-13.3336613203
 20
15.9904472355
 11
-13.3336613203
 21
15.0026129518
  0
LWPOLYLINE
  5
21C
100
AcDbEntity
  8
RACCORDO
100
AcDbPolyline
 62
7
  6
CONTINUOUS
 90
9
 70
0
 10
15.5674265475
 20
-16.987423476
 10
15.5845587714
 20
-16.9956775515
 10
15.6447118169
 20
-17.0191486329
 10
15.7086331209
 20
-17.0356656837
 10
15.7755817057
 20
-17.0447192419
 10
15.8445026645
 20
-17.0459854757
 10
15.914713627
 20
-17.0393571725
 10
15.9857920299
 20
-17.024828607
 10
15.9931313701
 20
-17.0228880949
  0
LINE
  5
21D
100
AcDbEntity
  8
RACCORDO
100
AcDbLine
 62
7
  6
CONTINUOUS
 10
-19.0232615659
 20
0.3079018905
 11
15.5687959635
 21
-16.9881268741
  0
LINE
  5
21E
100
AcDbEntity
  8
RACCORDO
100
AcDbLine
 62
253
  6
CONTINUOUS
 10
-19.2791727973
 20
0.8129737735
 11
15.3060348678
 21
-16.479630059
  0
LINE
  5
21F
100
AcDbEntity
  8
RACCORDO
100
AcDbLine
 62
7
  6
CONTINUOUS
 10
18.2996680311
 20
-16.6081217238
 11
18.0279980028
 21
-16.4722867097
  0
LINE
  5
220
100
AcDbEntity
  8
DRAFT
100
AcDbLine
 62
7
  6
CONTINUOUS
 10
-2.1378170366
 20
4.075452515
 11
-2.5878007952
 21
3.8379017955
  0
LINE
  5
221
100
AcDbEntity
  8
DRAFT
100
AcDbLine
 62
7
  6
CONTINUOUS
 10
-1.0357432436
 20
1.9026680884
 11
-1.5084578456
 21
1.6792158944
  0
LINE
  5
222
100
AcDbEntity
  8
RACCORDO
100
AcDbLine
 62
253
  6
CONTINUOUS
 10
15.0654274153
 20
-2.4663647118
 11
-19.5115294844
 21
14.8221137381
  0
LINE
  5
223
100
AcDbEntity
  8
RACCORDO
100
AcDbLine
 62
253
  6
CONTINUOUS
 10
15.2391187833
 20
-2.1627650985
 11
-19.3378381183
 21
15.1257133523
  0
LINE
  5
224
100
AcDbEntity
  8
DRAFT
100
AcDbLine
 62
7
  6
CONTINUOUS
 10
16.8067171312
 20
0.9202580098
 11
14.4998053058
 21
-0.0929560101
  0
LINE
  5
225
100
AcDbEntity
  8
DRAFT
100
AcDbLine
 62
7
  6
CONTINUOUS
 10
14.4998053058
 20
-0.0929560101
 11
-15.2693901821
 21
14.7916417339
  0
LINE
  5
226
100
AcDbEntity
  8
RACCORDO
100
AcDbLine
 62
253
  6
CONTINUOUS
 10
19.0910892696
 20
-0.2219280594
 11
15.2391187833
 21
-2.1627650985
  0
LINE
  5
227
100
AcDbEntity
  8
RACCORDO
100
AcDbLine
 62
253
  6
CONTINUOUS
 10
19.4799070168
 20
-1.2908963878
 11
19.2731481292
 21
-1.1875169439
  0
LINE
  5
228
100
AcDbEntity
  8
DRAFT
100
AcDbLine
 62
7
  6
CONTINUOUS
 10
19.5556187913
 20
-1.2559301813
 11
19.2678390409
 21
-1.1120403061
  0
LINE
  5
229
100
AcDbEntity
  8
RACCORDO
100
AcDbLine
 62
7
  6
CONTINUOUS
 10
19.0910892696
 20
-0.2219280594
 11
16.8067171312
 21
0.9202580098
  0
LINE
  5
22A
100
AcDbEntity
  8
RACCORDO
100
AcDbLine
 62
7
  6
CONTINUOUS
 10
-13.3336613203
 20
15.9904472355
 11
-15.6180334587
 21
17.1326333047
  0
LINE
  5
22B
100
AcDbEntity
  8
RACCORDO
100
AcDbLine
 62
253
  6
CONTINUOUS
 10
19.2678390409
 20
-0.5267763211
 11
15.4158685564
 21
-2.4676133592
  0
LINE
  5
22C
100
AcDbEntity
  8
RACCORDO
100
AcDbLine
 62
7
  6
CONTINUOUS
 10
19.5556187913
 20
-1.2559301813
 11
19.4799070168
 21
-1.2908963878
  0
LINE
  5
22D
100
AcDbEntity
  8
RACCORDO
100
AcDbLine
 62
7
  6
CONTINUOUS
 10
18.4764447274
 20
-16.2288589358
 11
18.4764447274
 21
-16.4800284518
  0
LINE
  5
22E
100
AcDbEntity
  8
RACCORDO
100
AcDbLine
 62
7
  6
CONTINUOUS
 10
19.2678390409
 20
-1.1335241685
 11
19.2678390409
 21
-0.5267763211
  0
LINE
  5
22F
100
AcDbEntity
  8
DRAFT
100
AcDbLine
 62
7
  6
CONTINUOUS
 10
19.5556187913
 20
-1.2559301813
 11
19.5556187913
 21
-9.5950284114
  0
LINE
  5
230
100
AcDbEntity
  8
RACCORDO
100
AcDbLine
 62
7
  6
CONTINUOUS
 10
18.9994715407
 20
-16.2329821952
 11
19.5556187913
 21
-9.5950284114
  0
LINE
  5
231
100
AcDbEntity
  8
RACCORDO
100
AcDbLine
 62
253
  6
CONTINUOUS
 10
18.4764447274
 20
-16.4800284518
 11
18.9994715407
 21
-16.2329821952
  0
LINE
  5
232
100
AcDbEntity
  8
RACCORDO
100
AcDbLine
 62
7
  6
CONTINUOUS
 10
18.4095766053
 20
-16.6161519344
 11
18.9178933361
 21
-16.3760538318
  0
ARC
  5
233
100
AcDbEntity
  8
RACCORDO
100
AcDbCircle
 62
253
  6
CONTINUOUS
 10
428.8007744785
 20
15.2482969811
 40
448.3125316039
100
AcDbArc
 50
180.0544675967
 51
181.8335679219
  0
ARC
  5
234
100
AcDbEntity
  8
RACCORDO
100
AcDbCircle
 62
253
  6
CONTINUOUS
 10
446.0424334834
 20
-2.0776375264
 40
430.9770751949
100
AcDbArc
 50
180.051678908
 51
181.9150136762
  0
ARC
  5
235
100
AcDbEntity
  8
RACCORDO
100
AcDbCircle
 62
253
  6
CONTINUOUS
 10
446.1351515281
 20
-2.0791137083
 40
430.719352063
100
AcDbArc
 50
180.051679563
 51
181.9150327006
  0
ARC
  5
236
100
AcDbEntity
  8
RACCORDO
100
AcDbCircle
 62
7
  6
CONTINUOUS
 10
-1.5873998674
 20
2.6985270437
 40
1.1007054639
100
AcDbArc
 50
237.1726665365
 51
240.9484598453
  0
ARC
  5
237
100
AcDbEntity
  8
RACCORDO
100
AcDbCircle
 62
7
  6
CONTINUOUS
 10
-1.6208070589
 20
2.6389804057
 40
1.0324284262
100
AcDbArc
 50
240.9644641986
 51
243.4252663163
  0
ARC
  5
238
100
AcDbEntity
  8
DRAFT
100
AcDbCircle
 62
7
  6
CONTINUOUS
 10
-2.0835021458
 20
3.4727129429
 40
0.6769002748
100
AcDbArc
 50
148.6010993284
 51
155.0362118193
  0
ARC
  5
239
100
AcDbEntity
  8
DRAFT
100
AcDbCircle
 62
7
  6
CONTINUOUS
 10
-2.1369214779
 20
3.5051589823
 40
0.6143994749
100
AcDbArc
 50
141.5864900659
 51
148.5883752015
  0
ARC
  5
23A
100
AcDbEntity
  8
RACCORDO
100
AcDbCircle
 62
7
  6
CONTINUOUS
 10
-19.334775538
 20
14.9108001366
 40
0.2499729098
100
AcDbArc
 50
118.3452333315
 51
180.0617873869
  0
SPLINE
  5
23B
100
AcDbEntity
  8
RACCORDO
100
AcDbSpline
 62
7
  6
CONTINUOUS
 70
0
 71
3
 72
10
 73
6
 74
4
 42
0.0000001
 43
0.0000001
 44
0.0000000001
 12
0.5309507646
 22
-0.2654753776
 32
0.0
 13
0.5366819963
 23
0.2536896016
 33
0.0
 40
0.0
 40
0.0
 40
0.0
 40
0.0
 40
0.3683960887
 40
0.69741576
 40
1.0
 40
1.0
 40
1.0
 40
1.0
 10
-2.0826791331
 20
1.7156263879
 30
0.0
 10
-2.0174790714
 20
1.6830263576
 30
0.0
 10
-1.8863938185
 20
1.6344467311
 30
0.0
 10
-1.6860461489
 20
1.6202443201
 30
0.0
 10
-1.5625882282
 20
1.6536284604
 30
0.0
 10
-1.5084577235
 20
1.6792159521
 30
0.0
 11
-2.0826791331
 21
1.7156263879
 31
0.0
 11
-1.8765817864
 21
1.6424951788
 31
0.0
 11
-1.6815863417
 21
1.6313623927
 31
0.0
 11
-1.5084577235
 21
1.6792159521
 31
0.0
  0
SPLINE
  5
23C
100
AcDbEntity
  8
RACCORDO
100
AcDbSpline
 62
7
  6
CONTINUOUS
 70
0
 71
3
 72
14
 73
10
 74
8
 42
0.0000001
 43
0.0000001
 44
0.0000000001
 12
-2.1334127319
 22
-1.1262489471
 32
0.0
 13
2.0328953942
 23
-1.3102034695
 33
0.0
 40
0.0
 40
0.0
 40
0.0
 40
0.0
 40
0.1126354234
 40
0.2431064815
 40
0.3946442942
 40
0.5607875776
 40
0.7319683022
 40
0.897607205
 40
1.0
 40
1.0
 40
1.0
 40
1.0
 10
-2.5878006364
 20
3.8379018794
 30
0.0
 10
-2.6678999185
 20
3.7956167037
 30
0.0
 10
-2.8166830359
 20
3.6541773009
 30
0.0
 10
-2.924473424
 20
3.3467670329
 30
0.0
 10
-2.9257771045
 20
2.9815718588
 30
0.0
 10
-2.8285242864
 20
2.5971488773
 30
0.0
 10
-2.6462998626
 20
2.2325664393
 30
0.0
 10
-2.4231263816
 20
1.9553974963
 30
0.0
 10
-2.2534869829
 20
1.8183138126
 30
0.0
 10
-2.1841023691
 20
1.7735953475
 30
0.0
 11
-2.5878006364
 21
3.8379018794
 31
0.0
 11
-2.788082976
 21
3.6542653544
 31
0.0
 11
-2.9024080619
 21
3.3610079308
 31
0.0
 11
-2.911144078
 21
2.9955358671
 31
0.0
 11
-2.8161581117
 21
2.6061422443
 31
0.0
 11
-2.6316059071
 21
2.2367107211
 31
0.0
 11
-2.3782163065
 21
1.9277293107
 31
0.0
 11
-2.1841023691
 21
1.7735953475
 31
0.0
  0
SPLINE
  5
23D
100
AcDbEntity
  8
RACCORDO
100
AcDbSpline
 62
253
  6
CONTINUOUS
 70
0
 71
3
 72
20
 73
16
 74
14
 42
0.0000001
 43
0.0000001
 44
0.0000000001
 12
2.3096192904
 22
1.1011434821
 32
0.0
 13
-2.2752317028
 23
1.13761587
 33
0.0
 40
0.0
 40
0.0
 40
0.0
 40
0.0
 40
0.0913253166
 40
0.1944753298
 40
0.300071473
 40
0.4040895859
 40
0.5028558466
 40
0.5939847407
 40
0.6762969559
 40
0.7496288086
 40
0.81425267
 40
0.8708004493
 40
0.9200563031
 40
0.9628161743
 40
1.0
 40
1.0
 40
1.0
 40
1.0
 10
-1.5084655693
 20
1.6792461955
 30
0.0
 10
-1.4381566649
 20
1.7127669545
 30
0.0
 10
-1.3072035793
 20
1.8251856933
 30
0.0
 10
-1.2051033971
 20
2.0650153022
 30
0.0
 10
-1.1766364134
 20
2.3310660913
 30
0.0
 10
-1.2026676961
 20
2.5926570959
 30
0.0
 10
-1.2657201641
 20
2.8345864038
 30
0.0
 10
-1.3521478387
 20
3.0491923044
 30
0.0
 10
-1.4516206783
 20
3.2337257534
 30
0.0
 10
-1.5566683093
 20
3.3885215597
 30
0.0
 10
-1.6621146489
 20
3.5156521933
 30
0.0
 10
-1.7644540971
 20
3.6179692414
 30
0.0
 10
-1.8614453809
 20
3.6986293148
 30
0.0
 10
-1.9518046434
 20
3.7608233833
 30
0.0
 10
-2.010991245
 20
3.7940921315
 30
0.0
 10
-2.0391918514
 20
3.8081924349
 30
0.0
 11
-1.5084655693
 21
1.6792461955
 31
0.0
 11
-1.3294518964
 21
1.8278358619
 31
0.0
 11
-1.2186393929
 21
2.0656802233
 31
0.0
 11
-1.1858248933
 21
2.3322823735
 31
0.0
 11
-1.2100534177
 21
2.5957706354
 31
0.0
 11
-1.2726485585
 21
2.8390883724
 31
0.0
 11
-1.3590451955
 21
3.0541991078
 31
0.0
 11
-1.4584537853
 21
3.2384811788
 31
0.0
 11
-1.5633636151
 21
3.392725502
 31
0.0
 11
-1.6685042083
 21
3.5190951866
 31
0.0
 11
-1.7704156767
 21
3.6206115508
 31
0.0
 11
-1.8669128406
 21
3.7005332484
 31
0.0
 11
-1.9566415747
 21
3.7620157457
 31
0.0
 11
-2.0391918514
 21
3.8081924349
 31
0.0
  0
SPLINE
  5
23E
100
AcDbEntity
  8
RACCORDO
100
AcDbSpline
 62
253
  6
CONTINUOUS
 70
0
 71
3
 72
8
 73
4
 74
2
 42
0.0000001
 43
0.0000001
 44
0.0000000001
 12
0.0835988337
 22
-0.0417994168
 32
0.0
 13
0.0882735387
 23
-0.032464483
 33
0.0
 40
0.0
 40
0.0
 40
0.0
 40
0.0
 40
1.0
 40
1.0
 40
1.0
 40
1.0
 10
-2.1082251152
 20
1.7602528616
 30
0.0
 10
-2.0803588374
 20
1.7463197227
 30
0.0
 10
-2.05162753
 20
1.7336945185
 30
0.0
 10
-2.0222030171
 20
1.7228730242
 30
0.0
 11
-2.1082251152
 21
1.7602528616
 31
0.0
 11
-2.0222030171
 21
1.7228730242
 31
0.0
  0
SPLINE
  5
23F
100
AcDbEntity
  8
RACCORDO
100
AcDbSpline
 62
253
  6
CONTINUOUS
 70
0
 71
3
 72
10
 73
6
 74
4
 42
0.0000001
 43
0.0000001
 44
0.0000000001
 12
0.4497329471
 22
-0.165398916
 32
0.0
 13
0.3975809252
 23
0.2706053485
 33
0.0
 40
0.0
 40
0.0
 40
0.0
 40
0.0
 40
0.3604798126
 40
0.8430695357
 40
1.0
 40
1.0
 40
1.0
 40
1.0
 10
-2.0222030171
 20
1.7228730242
 30
0.0
 10
-1.9681631343
 20
1.7029987008
 30
0.0
 10
-1.8363094221
 20
1.6707462794
 30
0.0
 10
-1.671648223
 20
1.6918865065
 30
0.0
 10
-1.5821506987
 20
1.7421111694
 30
0.0
 10
-1.561353179
 20
1.7562665771
 30
0.0
 11
-2.0222030171
 21
1.7228730242
 31
0.0
 11
-1.854133306
 21
1.68457268
 31
0.0
 11
-1.6270257029
 21
1.7196723303
 31
0.0
 11
-1.561353179
 21
1.7562665771
 31
0.0
  0
SPLINE
  5
240
100
AcDbEntity
  8
RACCORDO
100
AcDbSpline
 62
253
  6
CONTINUOUS
 70
0
 71
3
 72
20
 73
16
 74
14
 42
0.0000001
 43
0.0000001
 44
0.0000000001
 12
1.9147547356
 22
1.3032387614
 32
0.0
 13
-2.0512188492
 23
1.0256094246
 33
0.0
 40
0.0
 40
0.0
 40
0.0
 40
0.0
 40
0.0662565476
 40
0.172252553
 40
0.2807617212
 40
0.3876493116
 40
0.4891401078
 40
0.5827829581
 40
0.667365994
 40
0.7427209878
 40
0.8091277958
 40
0.8672357412
 40
0.9178505631
 40
0.9617902467
 40
1.0
 40
1.0
 40
1.0
 40
1.0
 10
-1.561353179
 20
1.7562665771
 30
0.0
 10
-1.5190648329
 20
1.7850492774
 30
0.0
 10
-1.4216367215
 20
1.8795576339
 30
0.0
 10
-1.3355157811
 20
2.0818634816
 30
0.0
 10
-1.3091425199
 20
2.3283359321
 30
0.0
 10
-1.3332589414
 20
2.5706773817
 30
0.0
 10
-1.3916706726
 20
2.7948039764
 30
0.0
 10
-1.4717381313
 20
2.9936179268
 30
0.0
 10
-1.5638906698
 20
3.1645726436
 30
0.0
 10
-1.6612080827
 20
3.3079780632
 30
0.0
 10
-1.7588950066
 20
3.425754101
 30
0.0
 10
-1.8537036429
 20
3.5205426066
 30
0.0
 10
-1.9435580726
 20
3.5952673655
 30
0.0
 10
-2.0272680985
 20
3.6528854895
 30
0.0
 10
-2.0820995932
 20
3.6837062724
 30
0.0
 10
-2.1082251152
 20
3.6967690335
 30
0.0
 11
-1.561353179
 21
1.7562665771
 31
0.0
 11
-1.4507112915
 21
1.8621350421
 31
0.0
 11
-1.3480548044
 21
2.0824791185
 31
0.0
 11
-1.3176551409
 21
2.3294628905
 31
0.0
 11
-1.3401009045
 21
2.5735618525
 31
0.0
 11
-1.3980892779
 21
2.7989745911
 31
0.0
 11
-1.4781278488
 21
2.9982562657
 31
0.0
 11
-1.5702209451
 21
3.1689780988
 31
0.0
 11
-1.6674106886
 21
3.3118726369
 31
0.0
 11
-1.7648143521
 21
3.428943764
 31
0.0
 11
-1.8592266097
 21
3.5229904296
 31
0.0
 11
-1.9486230984
 21
3.5970312788
 31
0.0
 11
-2.0317491821
 21
3.6539900747
 31
0.0
 11
-2.1082251152
 21
3.6967690335
 31
0.0
  0
SPLINE
  5
241
100
AcDbEntity
  8
RACCORDO
100
AcDbSpline
 62
253
  6
CONTINUOUS
 70
0
 71
3
 72
22
 73
18
 74
16
 42
0.0000001
 43
0.0000001
 44
0.0000000001
 12
-2.5607350466
 22
1.2803675233
 32
0.0
 13
2.5607350466
 23
-1.2803675233
 33
0.0
 40
0.0
 40
0.0
 40
0.0
 40
0.0
 40
0.0926031929
 40
0.1728708975
 40
0.252045775
 40
0.3369516027
 40
0.4238704212
 40
0.5094903106
 40
0.590787205
 40
0.6657976871
 40
0.733551015
 40
0.7939124321
 40
0.8471061098
 40
0.8936521728
 40
0.9341960337
 40
0.9693929376
 40
1.0
 40
1.0
 40
1.0
 40
1.0
 10
-2.1082251152
 20
3.6967690335
 30
0.0
 10
-2.1872691957
 20
3.7362910737
 30
0.0
 10
-2.3478207109
 20
3.7904262513
 30
0.0
 10
-2.5973440109
 20
3.758389563
 30
0.0
 10
-2.7848186069
 20
3.6009436539
 30
0.0
 10
-2.8809351985
 20
3.3751582019
 30
0.0
 10
-2.9073083745
 20
3.1286856142
 30
0.0
 10
-2.883192084
 20
2.8863441502
 30
0.0
 10
-2.8247801427
 20
2.6622176106
 30
0.0
 10
-2.7447126015
 20
2.4634037103
 30
0.0
 10
-2.6525599199
 20
2.2924490652
 30
0.0
 10
-2.5552424176
 20
2.1490436934
 30
0.0
 10
-2.4575554177
 20
2.0312676901
 30
0.0
 10
-2.3627466997
 20
1.9364792451
 30
0.0
 10
-2.2728922634
 20
1.8617544512
 30
0.0
 10
-2.1891821514
 20
1.8041364123
 30
0.0
 10
-2.1343506411
 20
1.7733156245
 30
0.0
 10
-2.1082251152
 20
1.7602528616
 30
0.0
 11
-2.1082251152
 21
3.6967690335
 31
0.0
 11
-2.3623157395
 21
3.7724498076
 31
0.0
 11
-2.5894248502
 21
3.7373494035
 31
0.0
 11
-2.7657392026
 21
3.5948867211
 31
0.0
 11
-2.8683961038
 21
3.3745424377
 31
0.0
 11
-2.898795792
 21
3.1275586534
 31
0.0
 11
-2.8763500595
 21
2.8834596758
 31
0.0
 11
-2.8183615552
 21
2.6580470027
 31
0.0
 11
-2.7383228712
 21
2.4587653846
 31
0.0
 11
-2.6462296498
 21
2.2880436141
 31
0.0
 11
-2.5490398113
 21
2.1451491235
 31
0.0
 11
-2.4516360676
 21
2.0280780365
 31
0.0
 11
-2.357223741
 21
1.9340314054
 31
0.0
 11
-2.2678272303
 21
1.8599905671
 31
0.0
 11
-2.1847010683
 21
1.8030318104
 31
0.0
 11
-2.1082251152
 21
1.7602528616
 31
0.0
  0
SPLINE
  5
242
100
AcDbEntity
  8
RACCORDO
100
AcDbSpline
 62
253
  6
CONTINUOUS
 70
0
 71
3
 72
10
 73
6
 74
4
 42
0.0000001
 43
0.0000001
 44
0.0000000001
 12
-0.5066545929
 22
0.2533273006
 32
0.0
 13
-0.5030012107
 23
-0.268775241
 33
0.0
 40
0.0
 40
0.0
 40
0.0
 40
0.0
 40
0.5052042006
 40
0.9431177079
 40
1.0
 40
1.0
 40
1.0
 40
1.0
 10
-2.0391918514
 20
3.8081924349
 30
0.0
 10
-2.1245131942
 20
3.8508531071
 30
0.0
 10
-2.297818112
 20
3.9092736716
 30
0.0
 10
-2.4936946824
 20
3.8841405057
 30
0.0
 10
-2.5782087323
 20
3.842895694
 30
0.0
 10
-2.5877460196
 20
3.83779951
 30
0.0
 11
-2.0391918514
 21
3.8081924349
 31
0.0
 11
-2.3134630131
 21
3.8898766457
 31
0.0
 11
-2.5586131249
 21
3.8519980536
 31
0.0
 11
-2.5877460196
 21
3.83779951
 31
0.0
  0
SPLINE
  5
243
100
AcDbEntity
  8
DRAFT
100
AcDbSpline
 62
7
  6
CONTINUOUS
 70
0
 71
3
 72
17
 73
13
 74
11
 42
0.0000001
 43
0.0000001
 44
0.0000000001
 12
2.4459831326
 22
1.2838515585
 32
0.0
 13
-2.4516470572
 23
1.2258235286
 33
0.0
 40
0.0
 40
0.0
 40
0.0
 40
0.0
 40
0.0252960356
 40
0.1044689495
 40
0.1936208561
 40
0.2953999763
 40
0.4088600251
 40
0.5305328986
 40
0.6555712688
 40
0.7786495306
 40
0.8947903949
 40
1.0
 40
1.0
 40
1.0
 40
1.0
 10
-1.2486943343
 20
1.690236847
 30
0.0
 10
-1.2280697755
 20
1.7010622985
 30
0.0
 10
-1.1461106438
 20
1.7517264463
 30
0.0
 10
-1.0266520709
 20
1.8888363295
 30
0.0
 10
-0.9388352589
 20
2.123638888
 30
0.0
 10
-0.9134643094
 20
2.4031116662
 30
0.0
 10
-0.9499342025
 20
2.7106171461
 30
0.0
 10
-1.0453413905
 20
3.0271272312
 30
0.0
 10
-1.1933950263
 20
3.332353776
 30
0.0
 10
-1.3845767407
 20
3.6066028183
 30
0.0
 10
-1.6063597463
 20
3.8320045679
 30
0.0
 10
-1.7754398862
 20
3.9466734796
 30
0.0
 10
-1.8614188257
 20
3.9896629494
 30
0.0
 11
-1.2486943343
 21
1.690236847
 31
0.0
 11
-1.189405055
 21
1.7269647955
 31
0.0
 11
-1.0436771806
 21
1.8877716993
 31
0.0
 11
-0.9530051326
 21
2.1146948021
 31
0.0
 11
-0.9236590742
 21
2.3921261257
 31
0.0
 11
-0.9576213456
 21
2.701262947
 31
0.0
 11
-1.0525795054
 21
3.0209671408
 31
0.0
 11
-1.2020236985
 21
3.3294027495
 31
0.0
 11
-1.3957573315
 21
3.605590054
 31
0.0
 11
-1.6207075818
 21
3.8308474903
 31
0.0
 11
-1.8614188257
 21
3.9896629494
 31
0.0
  0
SPLINE
  5
244
100
AcDbEntity
  8
DRAFT
100
AcDbSpline
 62
7
  6
CONTINUOUS
 70
0
 71
3
 72
10
 73
6
 74
4
 42
0.0000001
 43
0.0000001
 44
0.0000000001
 12
-0.5318836887
 22
0.2659418443
 32
0.0
 13
-0.5423349644
 23
-0.2556202157
 33
0.0
 40
0.0
 40
0.0
 40
0.0
 40
0.0
 40
0.4264225282
 40
0.8016701045
 40
1.0
 40
1.0
 40
1.0
 40
1.0
 10
-1.8614188257
 20
3.9896629494
 30
0.0
 10
-1.9370212215
 20
4.0274641473
 30
0.0
 10
-2.08871166
 20
4.0825469692
 30
0.0
 10
-2.2916753291
 20
4.0859591711
 30
0.0
 10
-2.401250969
 20
4.0493491035
 30
0.0
 10
-2.4371047146
 20
4.0324500599
 30
0.0
 11
-1.8614188257
 21
3.9896629494
 31
0.0
 11
-2.1015126926
 21
4.0712522277
 31
0.0
 11
-2.3246557255
 21
4.0700557772
 31
0.0
 11
-2.4371047146
 21
4.0324500599
 31
0.0
  0
SPLINE
  5
245
100
AcDbEntity
  8
RACCORDO
100
AcDbSpline
 62
253
  6
CONTINUOUS
 70
0
 71
3
 72
9
 73
5
 74
3
 42
0.0000001
 43
0.0000001
 44
0.0000000001
 12
0.0042467391
 22
-0.1188405267
 32
0.0
 13
0.1066391986
 23
-0.0534070687
 33
0.0
 40
0.0
 40
0.0
 40
0.0
 40
0.0
 40
0.434255131
 40
1.0
 40
1.0
 40
1.0
 40
1.0
 10
-19.3524018378
 20
0.9017897219
 30
0.0
 10
-19.351787115
 20
0.8845873524
 30
0.0
 10
-19.3336186966
 20
0.8453736221
 30
0.0
 10
-19.2992829901
 20
0.8230453654
 30
0.0
 10
-19.279172797
 20
0.8129737737
 30
0.0
 11
-19.3524018378
 21
0.9017897219
 31
0.0
 11
-19.3329588701
 21
0.8537140459
 31
0.0
 11
-19.279172797
 21
0.8129737737
 31
0.0
  0
SPLINE
  5
246
100
AcDbEntity
  8
RACCORDO
100
AcDbSpline
 62
253
  6
CONTINUOUS
 70
0
 71
3
 72
13
 73
9
 74
7
 42
0.0000001
 43
0.0000001
 44
0.0000000001
 12
0.0236954385
 22
-0.7022854852
 32
0.0
 13
0.6783151378
 23
0.1834528559
 33
0.0
 40
0.0
 40
0.0
 40
0.0
 40
0.0
 40
0.1944363683
 40
0.3698341619
 40
0.5286102363
 40
0.6791816637
 40
0.8332005048
 40
1.0
 40
1.0
 40
1.0
 40
1.0
 10
15.6563369001
 20
-16.4726368236
 30
0.0
 10
15.6578726518
 20
-16.5181534367
 30
0.0
 10
15.6686420161
 20
-16.6048509978
 30
0.0
 10
15.7126474167
 20
-16.7220811121
 30
0.0
 10
15.78324042
 20
-16.8136635164
 30
0.0
 10
15.8776855122
 20
-16.8721250263
 30
0.0
 10
15.9884981089
 20
-16.8924890598
 30
0.0
 10
16.0640863611
 20
-16.8816225666
 30
0.0
 10
16.1018005686
 20
-16.8714226186
 30
0.0
 11
15.6563369001
 21
-16.4726368236
 31
0.0
 11
15.6747295176
 21
-16.6080207112
 31
0.0
 11
15.7197740548
 21
-16.7227438957
 31
0.0
 11
15.7891777543
 21
-16.8100989112
 31
0.0
 11
15.8793090888
 21
-16.8655145474
 31
0.0
 11
15.9855331924
 21
-16.8862381748
 31
0.0
 11
16.1018005686
 21
-16.8714226186
 31
0.0
  0
SPLINE
  5
247
100
AcDbEntity
  8
RACCORDO
100
AcDbSpline
 62
253
  6
CONTINUOUS
 70
0
 71
3
 72
9
 73
5
 74
3
 42
0.0000001
 43
0.0000001
 44
0.0000000001
 12
0.1060851227
 22
0.0557215843
 32
0.0
 13
0.1068996515
 23
-0.0515772518
 33
0.0
 40
0.0
 40
0.0
 40
0.0
 40
0.0
 40
0.4050937236
 40
1.0
 40
1.0
 40
1.0
 40
1.0
 10
-19.4534024756
 20
15.1306953705
 30
0.0
 10
-19.4390776698
 20
15.1382195252
 30
0.0
 10
-19.3985523179
 20
15.1479946189
 30
0.0
 10
-19.3590365428
 20
15.1359412292
 30
0.0
 10
-19.3378381183
 20
15.1257133523
 30
0.0
 11
-19.4534024756
 21
15.1306953705
 31
0.0
 11
-19.4064102109
 21
15.1425571091
 31
0.0
 11
-19.3378381183
 21
15.1257133523
 31
0.0
  0
SPLINE
  5
248
100
AcDbEntity
  8
DRAFT
100
AcDbSpline
 62
7
  6
CONTINUOUS
 70
0
 71
3
 72
9
 73
5
 74
3
 42
0.0000001
 43
0.0000001
 44
0.0000000001
 12
-0.2125403382
 22
-0.1001772164
 32
0.0
 13
-0.1460926054
 23
-0.1838715999
 33
0.0
 40
0.0
 40
0.0
 40
0.0
 40
0.0
 40
0.3886269166
 40
1.0
 40
1.0
 40
1.0
 40
1.0
 10
-2.4371047146
 20
4.0324500599
 30
0.0
 10
-2.46463768
 20
4.0194728724
 30
0.0
 10
-2.5323965374
 20
3.9796464436
 30
0.0
 10
-2.5885599647
 20
3.9243767585
 30
0.0
 10
-2.6183323269
 20
3.8869053761
 30
0.0
 11
-2.4371047146
 21
4.0324500599
 31
0.0
 11
-2.5155522436
 21
3.9861852193
 31
0.0
 11
-2.6183323269
 21
3.8869053761
 31
0.0
  0
LINE
  5
249
100
AcDbEntity
  8
RACCORDO
100
AcDbLine
 62
253
  6
CONTINUOUS
 10
-19.2791727973
 20
0.8129737735
 11
-19.2821103752
 21
0.9039422373
  0
SPLINE
  5
24A
100
AcDbEntity
  8
DRAFT
100
AcDbSpline
 62
7
  6
CONTINUOUS
 70
0
 71
3
 72
9
 73
5
 74
3
 42
0.0000001
 43
0.0000001
 44
0.0000000001
 12
0.0841981654
 22
-0.0155320525
 32
0.0
 13
0.0855789643
 23
-0.004836101
 33
0.0
 40
0.0
 40
0.0
 40
0.0
 40
0.0
 40
0.0946475083
 40
1.0
 40
1.0
 40
1.0
 40
1.0
 10
-1.6114332581
 20
1.6433187936
 30
0.0
 10
-1.6087768759
 20
1.6428287703
 30
0.0
 10
-1.5806769013
 20
1.6378072609
 30
0.0
 10
-1.552225594
 20
1.6344548875
 30
0.0
 10
-1.5263992179
 20
1.6329954288
 30
0.0
 11
-1.6114332581
 21
1.6433187936
 31
0.0
 11
-1.6034545435
 21
1.6418931759
 31
0.0
 11
-1.5263992179
 21
1.6329954288
 31
0.0
  0
SPLINE
  5
24B
100
AcDbEntity
  8
DRAFT
100
AcDbSpline
 62
7
  6
CONTINUOUS
 70
0
 71
3
 72
9
 73
5
 74
3
 42
0.0000001
 43
0.0000001
 44
0.0000000001
 12
0.286776432
 22
-0.0162058492
 32
0.0
 13
0.2545538317
 23
0.1336106244
 33
0.0
 40
0.0
 40
0.0
 40
0.0
 40
0.0
 40
0.5120959347
 40
1.0
 40
1.0
 40
1.0
 40
1.0
 10
-1.5263992179
 20
1.6329954288
 30
0.0
 10
-1.4774468695
 20
1.6302291123
 30
0.0
 10
-1.3813782622
 20
1.6358811895
 30
0.0
 10
-1.2900936174
 20
1.6685071247
 30
0.0
 10
-1.2486943343
 20
1.690236847
 30
0.0
 11
-1.5263992179
 21
1.6329954288
 31
0.0
 11
-1.3803087401
 21
1.6430916089
 31
0.0
 11
-1.2486943343
 21
1.690236847
 31
0.0
  0
SPLINE
  5
24C
100
AcDbEntity
  8
RACCORDO
100
AcDbSpline
 62
253
  6
CONTINUOUS
 70
0
 71
3
 72
12
 73
8
 74
6
 42
0.0000001
 43
0.0000001
 44
0.0000000001
 12
-0.0053497267
 22
0.3664563861
 32
0.0
 13
-0.3254083925
 23
0.1686068818
 33
0.0
 40
0.0
 40
0.0
 40
0.0
 40
0.0
 40
0.1955839747
 40
0.4065111841
 40
0.6196376798
 40
0.8218553915
 40
1.0
 40
1.0
 40
1.0
 40
1.0
 10
15.4158685546
 20
-2.4676133601
 30
0.0
 10
15.415519781
 20
-2.4437223613
 30
0.0
 10
15.4082830993
 20
-2.3940879037
 30
0.0
 10
15.3826962136
 20
-2.3224267605
 30
0.0
 10
15.344118213
 20
-2.2558267352
 30
0.0
 10
15.2963575488
 20
-2.2007064112
 30
0.0
 10
15.2584420335
 20
-2.1727772341
 30
0.0
 10
15.2391187833
 20
-2.1627650985
 30
0.0
 11
15.4158685546
 21
-2.4676133601
 31
0.0
 11
15.4063456774
 21
-2.3965681067
 31
0.0
 11
15.3806565723
 21
-2.3236575006
 31
0.0
 11
15.3413820369
 21
-2.2561396113
 31
0.0
 11
15.2923552428
 21
-2.2005613564
 31
0.0
 11
15.2391187833
 21
-2.1627650985
 31
0.0
  0
SPLINE
  5
24D
100
AcDbEntity
  8
RACCORDO
100
AcDbSpline
 62
253
  6
CONTINUOUS
 70
0
 71
3
 72
11
 73
7
 74
5
 42
0.0000001
 43
0.0000001
 44
0.0000000001
 12
-0.0003852387
 22
0.3639158128
 32
0.0
 13
0.3226902033
 23
0.1682435732
 33
0.0
 40
0.0
 40
0.0
 40
0.0
 40
0.0
 40
0.24723321
 40
0.513083496
 40
0.7728623516
 40
1.0
 40
1.0
 40
1.0
 40
1.0
 10
-19.5115294864
 20
14.8221137391
 30
0.0
 10
-19.5115612343
 20
14.8521044307
 30
0.0
 10
-19.5013202529
 20
14.9144622646
 30
0.0
 10
-19.4640342396
 20
15.0013314537
 30
0.0
 10
-19.4093715987
 20
15.0754721493
 30
0.0
 10
-19.3622698162
 20
15.1129752025
 30
0.0
 10
-19.3378381183
 20
15.1257133523
 30
0.0
 11
-19.5115294864
 21
14.8221137391
 31
0.0
 11
-19.4983222916
 21
14.9111112295
 31
0.0
 11
-19.460464313
 21
15.0001437501
 31
0.0
 11
-19.4036584954
 21
15.0757114232
 31
0.0
 11
-19.3378381183
 21
15.1257133523
 31
0.0
  0
SPLINE
  5
24E
100
AcDbEntity
  8
RACCORDO
100
AcDbSpline
 62
253
  6
CONTINUOUS
 70
0
 71
3
 72
11
 73
7
 74
5
 42
0.0000001
 43
0.0000001
 44
0.0000000001
 12
-0.0003852361
 22
0.3639133035
 32
0.0
 13
0.3226879782
 23
0.1682424131
 33
0.0
 40
0.0
 40
0.0
 40
0.0
 40
0.0
 40
0.2461494134
 40
0.510593734
 40
0.7692500461
 40
1.0
 40
1.0
 40
1.0
 40
1.0
 10
15.0654274151
 20
-2.4663647116
 30
0.0
 10
15.0653958066
 20
-2.4365056963
 30
0.0
 10
15.075543552
 20
-2.3744514553
 30
0.0
 10
15.112516322
 20
-2.2879332988
 30
0.0
 10
15.1670369993
 20
-2.2135539048
 30
0.0
 10
15.2142987046
 20
-2.1757057415
 30
0.0
 10
15.2391187833
 20
-2.1627650985
 30
0.0
 11
15.0654274151
 21
-2.4663647116
 31
0.0
 11
15.0785249946
 21
-2.3777503245
 31
0.0
 11
15.1160376523
 21
-2.289127817
 31
0.0
 11
15.1723698342
 21
-2.2137165139
 31
0.0
 11
15.2391187833
 21
-2.1627650985
 31
0.0
  0
SPLINE
  5
24F
100
AcDbEntity
  8
RACCORDO
100
AcDbSpline
 62
253
  6
CONTINUOUS
 70
0
 71
3
 72
10
 73
6
 74
4
 42
0.0000001
 43
0.0000001
 44
0.0000000001
 12
-0.1066900285
 22
0.053347966
 32
0.0
 13
0.0004535062
 23
0.1185801457
 33
0.0
 40
0.0
 40
0.0
 40
0.0
 40
0.0
 40
0.5621967092
 40
0.9909786765
 40
1.0
 40
1.0
 40
1.0
 40
1.0
 10
-19.5115294864
 20
14.8221137391
 30
0.0
 10
-19.5315230807
 20
14.8321110894
 30
0.0
 10
-19.5656142731
 20
14.853745535
 30
0.0
 10
-19.5846497162
 20
14.8929022657
 30
0.0
 10
-19.5847509842
 20
14.9102054472
 30
0.0
 10
-19.5847496205
 20
14.9105620305
 30
0.0
 11
-19.5115294864
 21
14.8221137391
 31
0.0
 11
-19.5653030455
 21
14.8621839497
 31
0.0
 11
-19.5847433152
 21
14.9094924206
 31
0.0
 11
-19.5847496205
 21
14.9105620305
 31
0.0
  0
SPLINE
  5
250
100
AcDbEntity
  8
RACCORDO
100
AcDbSpline
 62
253
  6
CONTINUOUS
 70
0
 71
3
 72
10
 73
6
 74
4
 42
0.0000001
 43
0.0000001
 44
0.0000000001
 12
-0.0264958836
 22
-0.1937282825
 32
0.0
 13
-0.1913177821
 23
-0.052459215
 33
0.0
 40
0.0
 40
0.0
 40
0.0
 40
0.0
 40
0.4306837962
 40
0.8010691458
 40
1.0
 40
1.0
 40
1.0
 40
1.0
 10
16.1018005686
 20
-16.8714226186
 30
0.0
 10
16.0979967861
 20
-16.899234496
 30
0.0
 10
16.0834806506
 20
-16.9505648557
 30
0.0
 10
16.0408149845
 20
-17.0033274032
 30
0.0
 10
16.0060741698
 20
-17.0191722107
 30
0.0
 10
15.9933878332
 20
-17.0226507962
 30
0.0
 11
16.1018005686
 21
-16.8714226186
 31
0.0
 11
16.076704627
 21
-16.9518086702
 31
0.0
 11
16.0290765288
 21
-17.0063662188
 31
0.0
 11
15.9933878332
 21
-17.0226507962
 31
0.0
  0
SPLINE
  5
251
100
AcDbEntity
  8
RACCORDO
100
AcDbSpline
 62
253
  6
CONTINUOUS
 70
0
 71
3
 72
11
 73
7
 74
5
 42
0.0000001
 43
0.0000001
 44
0.0000000001
 12
-0.3186059469
 22
-0.1690547765
 32
0.0
 13
-0.3227066243
 23
0.1610891104
 33
0.0
 40
0.0
 40
0.0
 40
0.0
 40
0.0
 40
0.2388448156
 40
0.503580789
 40
0.7663861237
 40
1.0
 40
1.0
 40
1.0
 40
1.0
 10
15.6563368999
 20
-16.4726368234
 30
0.0
 10
15.630971107
 20
-16.4860961091
 30
0.0
 10
15.5729301947
 20
-16.5059210512
 30
0.0
 10
15.4808875667
 20
-16.5167655176
 30
0.0
 10
15.3891136647
 20
-16.5097217354
 30
0.0
 10
15.3311769987
 20
-16.4921673875
 30
0.0
 10
15.3060474169
 20
-16.4796231703
 30
0.0
 11
15.6563368999
 21
-16.4726368234
 31
0.0
 11
15.5753656737
 21
-16.5020450347
 31
0.0
 11
15.4805929492
 21
-16.5136835316
 31
0.0
 11
15.3861314142
 21
-16.5058192155
 31
0.0
 11
15.3060474169
 21
-16.4796231703
 31
0.0
  0
SPLINE
  5
252
100
AcDbEntity
  8
RACCORDO
100
AcDbSpline
 62
253
  6
CONTINUOUS
 70
0
 71
3
 72
11
 73
7
 74
5
 42
0.0000001
 43
0.0000001
 44
0.0000000001
 12
-0.3239020885
 22
-0.1568996966
 32
0.0
 13
-0.3219104786
 23
0.1609463312
 33
0.0
 40
0.0
 40
0.0
 40
0.0
 40
0.0
 40
0.2366865896
 40
0.5013293948
 40
0.7652575904
 40
1.0
 40
1.0
 40
1.0
 40
1.0
 10
15.4158685546
 20
-2.4676133601
 30
0.0
 10
15.3903141277
 20
-2.4799920448
 30
0.0
 10
15.33202307
 20
-2.497615187
 30
0.0
 10
15.2400978691
 20
-2.5058398232
 30
0.0
 10
15.1484661693
 20
-2.4970084723
 30
0.0
 10
15.0906160956
 20
-2.4789583548
 30
0.0
 10
15.0654274151
 20
-2.4663647116
 30
0.0
 11
15.4158685546
 21
-2.4676133601
 31
0.0
 11
15.3348433807
 21
-2.493905304
 31
0.0
 11
15.2400224361
 21
-2.5028904551
 31
0.0
 11
15.1455263606
 21
-2.4932307533
 31
0.0
 11
15.0654274151
 21
-2.4663647116
 31
0.0
  0
SPLINE
  5
253
100
AcDbEntity
  8
RACCORDO
100
AcDbSpline
 62
253
  6
CONTINUOUS
 70
0
 71
3
 72
11
 73
7
 74
5
 42
0.0000001
 43
0.0000001
 44
0.0000000001
 12
0.0199946315
 22
-0.5969871297
 32
0.0
 13
0.5355973488
 23
-0.2715057779
 33
0.0
 40
0.0
 40
0.0
 40
0.0
 40
0.0
 40
0.3060317019
 40
0.580122921
 40
0.8278011484
 40
1.0
 40
1.0
 40
1.0
 40
1.0
 10
15.3060348678
 20
-16.479630059
 30
0.0
 10
15.3080745314
 20
-16.5405290548
 30
0.0
 10
15.3224210556
 20
-16.6561374669
 30
0.0
 10
15.3809149947
 20
-16.8122084881
 30
0.0
 10
15.4666782245
 20
-16.9237585174
 30
0.0
 10
15.5366753161
 20
-16.9717916599
 30
0.0
 10
15.5674183989
 20
-16.9873759876
 30
0.0
 11
15.3060348678
 21
-16.479630059
 31
0.0
 11
15.3306261869
 21
-16.6607678471
 31
0.0
 11
15.3904012544
 21
-16.8131863576
 31
0.0
 11
15.4823068245
 21
-16.9291203111
 31
0.0
 11
15.5674183989
 21
-16.9873759876
 31
0.0
  0
SPLINE
  5
254
100
AcDbEntity
  8
ASSI
100
AcDbSpline
 62
7
  6
CONTINUOUS
 70
0
 71
3
 72
23
 73
19
 74
17
 42
0.0000001
 43
0.0000001
 44
0.0000000001
 12
5.4809337654
 22
-2.7404668827
 32
0.0
 13
-5.4809337654
 23
2.7404668827
 33
0.0
 40
0.0
 40
0.0
 40
0.0
 40
0.0
 40
0.0634449407
 40
0.1324477445
 40
0.2056827505
 40
0.2814987184
 40
0.3581052134
 40
0.4337406299
 40
0.5067520141
 40
0.5755133631
 40
0.638814125
 40
0.6961125467
 40
0.7478089476
 40
0.7955473522
 40
0.841969734
 40
0.8900926282
 40
0.9423554061
 40
1.0
 40
1.0
 40
1.0
 40
1.0
 10
-2.2192495186
 20
4.7449761845
 30
0.0
 10
-2.1033370127
 20
4.6870199316
 30
0.0
 10
-1.8730219528
 20
4.5420060012
 30
0.0
 10
-1.5559767291
 20
4.2642658632
 30
0.0
 10
-1.2632975089
 20
3.9268135066
 30
0.0
 10
-1.006295237
 20
3.5428366269
 30
0.0
 10
-0.7943113038
 20
3.1268119315
 30
0.0
 10
-0.6349536692
 20
2.6939916345
 30
0.0
 10
-0.5341071914
 20
2.2602293447
 30
0.0
 10
-0.4957468145
 20
1.8416011427
 30
0.0
 10
-0.5216972646
 20
1.4537632631
 30
0.0
 10
-0.6117989417
 20
1.1108808665
 30
0.0
 10
-0.7646152368
 20
0.8254559458
 30
0.0
 10
-0.9773727164
 20
0.6100561402
 30
0.0
 10
-1.2422142424
 20
0.4778281486
 30
0.0
 10
-1.544012486
 20
0.4363365511
 30
0.0
 10
-1.8667422947
 20
0.4838067916
 30
0.0
 10
-2.0773114065
 20
0.5668012175
 30
0.0
 10
-2.1826268069
 20
0.6194589176
 30
0.0
 11
-2.2192495186
 21
4.7449761845
 31
0.0
 11
-1.8886883983
 21
4.5403275293
 31
0.0
 11
-1.5691683593
 21
4.2633784306
 31
0.0
 11
-1.2740782677
 21
3.9252652957
 31
0.0
 11
-1.0150918143
 21
3.539557804
 31
0.0
 11
-0.8019684795
 21
3.1212907302
 31
0.0
 11
-0.6424723623
 21
2.6861144176
 31
0.0
 11
-0.5425435161
 21
2.2500125682
 31
0.0
 11
-0.5063288642
 21
1.8302110974
 31
0.0
 11
-0.5353418095
 21
1.4433987777
 31
0.0
 11
-0.6283453433
 21
1.104822795
 31
0.0
 11
-0.7814737147
 21
0.827501918
 31
0.0
 11
-0.9890386549
 21
0.6213627056
 31
0.0
 11
-1.2434794067
 21
0.4941492097
 31
0.0
 11
-1.5351898385
 21
0.4509561769
 31
0.0
 11
-1.8526121414
 21
0.4934913699
 31
0.0
 11
-2.1826268069
 21
0.6194589176
 31
0.0
  0
SPLINE
  5
255
100
AcDbEntity
  8
ASSI
100
AcDbSpline
 62
7
  6
CONTINUOUS
 70
0
 71
3
 72
23
 73
19
 74
17
 42
0.0000001
 43
0.0000001
 44
0.0000000001
 12
-5.4898497957
 22
2.7449248978
 32
0.0
 13
5.4898497957
 23
-2.7449248978
 33
0.0
 40
0.0
 40
0.0
 40
0.0
 40
0.0
 40
0.0633759472
 40
0.1323373498
 40
0.2055221246
 40
0.2812546768
 40
0.3577364998
 40
0.4332149166
 40
0.5060612433
 40
0.5746856975
 40
0.6379184498
 40
0.6952520823
 40
0.7470994914
 40
0.7950782834
 40
0.841759
 40
0.8900718639
 40
0.9424049049
 40
1.0
 40
1.0
 40
1.0
 40
1.0
 10
-2.1826268069
 20
0.6194589176
 30
0.0
 10
-2.2986016172
 20
0.6774463228
 30
0.0
 10
-2.5292033085
 20
0.8223467169
 30
0.0
 10
-2.8472262285
 20
1.099465234
 30
0.0
 10
-3.141437964
 20
1.4360459822
 30
0.0
 10
-3.4002852033
 20
1.8190427544
 30
0.0
 10
-3.6141369039
 20
2.2341296917
 30
0.0
 10
-3.7750976743
 20
2.6661980408
 30
0.0
 10
-3.8770319407
 20
3.0995119016
 30
0.0
 10
-3.9157837019
 20
3.5180656127
 30
0.0
 10
-3.88944577
 20
3.9062036484
 30
0.0
 10
-3.7982207361
 20
4.2496744704
 30
0.0
 10
-3.6437518762
 20
4.5358133416
 30
0.0
 10
-3.429207837
 20
4.7519525952
 30
0.0
 10
-3.1627536272
 20
4.8850484615
 30
0.0
 10
-2.8595304486
 20
4.9274629733
 30
0.0
 10
-2.5357072319
 20
4.8806280969
 30
0.0
 10
-2.324645659
 20
4.7976742547
 30
0.0
 10
-2.2192495186
 20
4.7449761845
 30
0.0
 11
-2.1826268069
 21
0.6194589176
 31
0.0
 11
-2.5135479155
 21
0.8239228064
 31
0.0
 11
-2.834098678
 21
1.1003428792
 31
0.0
 11
-3.1307341305
 21
1.4376628471
 31
0.0
 11
-3.39154274
 21
1.8224351047
 31
0.0
 11
-3.6064870135
 21
2.2397675693
 31
0.0
 11
-3.767528136
 21
2.6741508974
 31
0.0
 11
-3.8684922687
 21
3.1097213788
 31
0.0
 11
-3.9050711955
 21
3.529335883
 31
0.0
 11
-3.8756944339
 21
3.916334934
 31
0.0
 11
-3.7816560927
 21
4.2554420387
 31
0.0
 11
-3.6269830245
 21
4.5335557419
 31
0.0
 11
-3.417597082
 21
4.7406295961
 31
0.0
 11
-3.1613338722
 21
4.8687784811
 31
0.0
 11
-2.8680777817
 21
4.9127648337
 31
0.0
 11
-2.5496245056
 21
4.8707587948
 31
0.0
 11
-2.2192495186
 21
4.7449761845
 31
0.0
  0
SPLINE
  5
256
100
AcDbEntity
  8
RACCORDO
100
AcDbSpline
 62
253
  6
CONTINUOUS
 70
0
 71
3
 72
11
 73
7
 74
5
 42
0.0000001
 43
0.0000001
 44
0.0000000001
 12
-0.5318541465
 22
0.2674274097
 32
0.0
 13
-0.0193132454
 23
0.5917781865
 33
0.0
 40
0.0
 40
0.0
 40
0.0
 40
0.0
 40
0.1717803049
 40
0.4175888908
 40
0.6919403657
 40
1.0
 40
1.0
 40
1.0
 40
1.0
 10
-19.0233776118
 20
0.308019604
 30
0.0
 10
-19.0538316343
 20
0.3233325247
 30
0.0
 10
-19.1228042575
 20
0.370900534
 30
0.0
 10
-19.2065348626
 20
0.4819700342
 30
0.0
 10
-19.2633049747
 20
0.6371553656
 30
0.0
 10
-19.2771895869
 20
0.7522061163
 30
0.0
 10
-19.2791727973
 20
0.8129737735
 30
0.0
 11
-19.0233776118
 21
0.308019604
 31
0.0
 11
-19.1074565599
 21
0.3657613811
 31
0.0
 11
-19.196986747
 21
0.4805076431
 31
0.0
 11
-19.2552169598
 21
0.6321537263
 31
0.0
 11
-19.2791727973
 21
0.8129737735
 31
0.0
  0
ELLIPSE
  5
257
100
AcDbEntity
  8
RACCORDO
100
AcDbEllipse
 62
7
  6
CONTINUOUS
 10
-15.6179796068
 20
16.9160670478
 30
0.0
 11
-0.1118504554
 21
0.2236675568
 31
0.0
 40
0.6121897086
 41
-0.6846338794
 42
0.01860359
  0
ELLIPSE
  5
258
100
AcDbEntity
  8
RACCORDO
100
AcDbEllipse
 62
7
  6
CONTINUOUS
 10
18.8226707939
 20
-16.1445460499
 30
0.0
 11
-0.0859020599
 21
0.2354039488
 31
0.0
 40
0.6613288813
 41
-3.0814589183
 42
-2.1814380601
  0
ELLIPSE
  5
259
100
AcDbEntity
  8
RACCORDO
100
AcDbEllipse
 62
7
  6
CONTINUOUS
 10
19.0910354176
 20
-0.4384404644
 30
0.0
 11
-0.1117903878
 21
0.2236141634
 31
0.0
 40
0.6125552124
 41
-2.255296188
 42
-0.6848044477
  0
ELLIPSE
  5
25A
100
AcDbEntity
  8
RACCORDO
100
AcDbEllipse
 62
7
  6
CONTINUOUS
 10
18.299641104
 20
-16.3915936651
 30
0.0
 11
-0.1118523001
 21
0.2236266191
 31
0.0
 40
0.6122950388
 41
2.456793014
 42
4.0274370417
  0
ELLIPSE
  5
25B
100
AcDbEntity
  8
RACCORDO
100
AcDbEllipse
 62
7
  6
CONTINUOUS
 10
19.4836738537
 20
-1.0293095406
 30
0.0
 11
0.1379861541
 21
0.2664038768
 31
0.0
 40
0.6229838795
 41
2.2644017489
 42
3.8177447832
  0
ELLIPSE
  5
25C
100
AcDbEntity
  8
RACCORDO
100
AcDbEllipse
 62
7
  6
CONTINUOUS
 10
18.299641104
 20
-16.1397908626
 30
0.0
 11
-0.1098985543
 21
0.2275784384
 31
0.0
 40
0.6085747011
 41
-3.254853034
 42
-2.2415613143
  0
ENDSEC
  0
SECTION
  2
OBJECTS
  0
DICTIONARY
  5
C
100
AcDbDictionary
280
0
281
1
  3
ACAD_GROUP
350
D
  3
ACAD_MLINESTYLE
350
17
  3
ACAD_LAYOUT
350
1A
  3
ACAD_PLOTSETTINGS
350
19
  3
ACAD_PLOTSTYLENAME
350
E
  0
DICTIONARY
  5
D
102
{ACAD_REACTORS
330
C
102
}
100
AcDbDictionary
280
0
281
1
  0
ACDBDICTIONARYWDFLT
  5
E
102
{ACAD_REACTORS
330
C
102
}
100
AcDbDictionary
281
1
  3
Normal
350
F
100
AcDbDictionaryWithDefault
340
F
  0
DICTIONARY
  5
17
102
{ACAD_REACTORS
330
C
102
}
100
AcDbDictionary
280
0
281
1
  3
Standard
350
18
  0
DICTIONARY
  5
19
102
{ACAD_REACTORS
330
C
102
}
100
AcDbDictionary
281
1
  0
DICTIONARY
  5
1A
102
{ACAD_REACTORS
330
C
102
}
100
AcDbDictionary
281
1
  3
Model
350
25D
  3
Layout1
350
25E
  0
ACDBPLACEHOLDER
  5
F
102
{ACAD_REACTORS
330
E
102
}
  0
MLINESTYLE
  5
18
102
{ACAD_REACTORS
330
17
102
}
100
AcDbMlineStyle
  2
STANDARD
 70
0
  3

 62
256
 51
90.0
 52
90.0
 71
2
 49
0.5
 62
256
  6
BYLAYER
 49
-0.5
 62
256
  6
BYLAYER
  0
LAYOUT
  5
25D
102
{ACAD_REACTORS
330
1A
102
}
100
AcDbPlotSettings
  1

  2
none_device
  4
ISO_A4_(297.00_x_210.00_MM)
  6

 40
0.0
 41
0.0
 42
0.0
 43
0.0
 44
297.0
 45
210.0
 46
0.0
 47
0.0
 48
0.0
 49
0.0
140
0.0
141
0.0
142
1.0
143
1.0
 70
1024
 72
1
 73
0
 74
0
  7

 75
0
147
1.0
148
0.0
149
0.0
100
AcDbLayout
  1
Model
 70
0
 71
0
 10
0.0
 20
0.0
 11
297.0
 21
210.0
 12
0.0
 22
0.0
 32
0.0
 14
0.0
 24
0.0
 34
0.0
 15
0.0
 25
0.0
 35
0.0
146
0.0
 13
0.0
 23
0.0
 33
0.0
 16
1.0
 26
0.0
 36
0.0
 17
0.0
 27
1.0
 37
0.0
 76
0
330
20F
345
0
346
0
  0
LAYOUT
  5
25E
102
{ACAD_REACTORS
330
1A
102
}
100
AcDbPlotSettings
  1

  2
none_device
  4
ISO_A4_(297.00_x_210.00_MM)
  6

 40
0.0
 41
0.0
 42
0.0
 43
0.0
 44
297.0
 45
210.0
 46
0.0
 47
0.0
 48
0.0
 49
0.0
140
0.0
141
0.0
142
1.0
143
1.0
 70
0
 72
1
 73
0
 74
0
  7

 75
0
147
1.0
148
0.0
149
0.0
100
AcDbLayout
  1
Layout1
 70
0
 71
1
 10
0.0
 20
0.0
 11
297.0
 21
210.0
 12
0.0
 22
0.0
 32
0.0
 14
0.0
 24
0.0
 34
0.0
 15
0.0
 25
0.0
 35
0.0
146
0.0
 13
0.0
 23
0.0
 33
0.0
 16
1.0
 26
0.0
 36
0.0
 17
0.0
 27
1.0
 37
0.0
 76
0
330
210
345
0
346
0
  0
ENDSEC
  0
EOF
