  0
SECTION
  2
HEADER
  9
$ACADVER
  1
AC1015
  9
$DWGCODEPAGE
  3
ANSI_1252
  9
$EXTMAX
 10
297.0
 20
210.0
 30
0.0
  9
$EXTMIN
 10
0.0
 20
0.0
 30
0.0
  9
$LIMMIN
 10
0.0
 20
0.0
  9
$LIMMAX
 10
297.0
 20
210.0
  9
$VIEWCTR
 10
148.5
 20
105.0
  9
$VIEWSIZE
 40
210.0
  9
$CLAYER
  8
0
  9
$LTSCALE
 40
16.335
  9
$CELTYPE
  6
BYLAYER
  9
$DIMSCALE
 40
1.0
  9
$DIMASZ
 40
3.0
  9
$DIMEXO
 40
1.85625
  9
$DIMDLI
 40
11.286
  9
$DIMEXE
 40
5.346
  9
$DIMCEN
 40
2.673
  9
$DIMLFAC
 40
1.0
  9
$DIMBLK
  1
_FILLED
  9
$DIMTXT
 40
3.0
  9
$DIMTOL
 70
1
  9
$DIMLIM
 70
0
  9
$DIMTFAC
 40
1.0
  9
$DIMTP
 40
0.01
  9
$DIMTM
 40
0.01
  9
$PDMODE
 70
3
  9
$PDSIZE
 40
3.0
  9
$HANDSEED
  5
2AC
  9
$TILEMODE
 70
1
  9
$MEASUREMENT
 70
1
  9
$INSUNITS
 70
4
  0
ENDSEC
  0
SECTION
  2
CLASSES
  0
CLASS
  1
ACDBDICTIONARYWDFLT
  2
AcDbDictionaryWithDefault
  3
AutoCAD 2000
 90
0
280
0
281
0
  0
CLASS
  1
ACDBPLACEHOLDER
  2
AcDbPlaceHolder
  3
AutoCAD 2000
 90
0
280
0
281
0
  0
CLASS
  1
LAYOUT
  2
AcDbLayout
  3
AutoCAD 2000
 90
0
280
0
281
0
  0
ENDSEC
  0
SECTION
  2
TABLES
  0
TABLE
  2
VPORT
  5
8
100
AcDbSymbolTable
 70
2
  0
VPORT
  5
1F4
100
AcDbSymbolTableRecord
100
AcDbViewportTableRecord
  2
*ACTIVE
 70
0
 10
0.0
 20
0.0
 11
1.0
 21
1.0
 12
148.5
 22
105.0
 13
0.0
 23
0.0
 14
1.0
 24
1.0
 15
0.0
 25
0.0
 16
0.0
 26
0.0
 36
1.0
 17
0.0
 27
0.0
 37
0.0
 40
210.0
 41
1.4142857143
 42
50.0
 43
0.0
 44
0.0
 50
0.0
 51
0.0
 71
0
 72
100
 73
1
 74
1
 75
0
 76
0
 77
0
 78
0
  0
ENDTAB
  0
TABLE
  2
LTYPE
  5
5
100
AcDbSymbolTable
 70
6
  0
LTYPE
  5
14
100
AcDbSymbolTableRecord
100
AcDbLinetypeTableRecord
  2
BYBLOCK
 70
0
  3

 72
65
 73
0
 40
0.0
  0
LTYPE
  5
15
100
AcDbSymbolTableRecord
100
AcDbLinetypeTableRecord
  2
BYLAYER
 70
0
  3

 72
65
 73
0
 40
0.0
  0
LTYPE
  5
16
100
AcDbSymbolTableRecord
100
AcDbLinetypeTableRecord
  2
CONTINUOUS
 70
64
  3
Solid line
 72
65
 73
0
 40
0.0
  0
LTYPE
  5
1F5
100
AcDbSymbolTableRecord
100
AcDbLinetypeTableRecord
  2
CENTER
 70
64
  3
____ _ ____ _ ____ _ ____ _ ____ _ ____ _ ____
 72
65
 73
4
 40
0.6
 49
0.375
 74
0
 49
-0.075
 74
0
 49
0.075
 74
0
 49
-0.075
 74
0
  0
LTYPE
  5
1F6
100
AcDbSymbolTableRecord
100
AcDbLinetypeTableRecord
  2
HIDDEN
 70
64
  3
- - - - - - - - - - - - - - - - - - - -
 72
65
 73
2
 40
0.2
 49
0.1
 74
0
 49
-0.1
 74
0
  0
LTYPE
  5
1F7
100
AcDbSymbolTableRecord
100
AcDbLinetypeTableRecord
  2
PHANTOM
 70
64
  3
_____ _ _ _____ _ _ _____ _ _ _____
 72
65
 73
6
 40
0.8
 49
0.45
 74
0
 49
-0.05
 74
0
 49
0.1
 74
0
 49
-0.05
 74
0
 49
0.1
 74
0
 49
-0.05
 74
0
  0
LTYPE
  5
1F8
100
AcDbSymbolTableRecord
100
AcDbLinetypeTableRecord
  2
DOT
 70
64
  3
. . . . . . . . . . . . . . . . . . . .
 72
65
 73
2
 40
0.2
 49
0.1
 74
0
 49
-0.1
 74
0
  0
LTYPE
  5
1F9
100
AcDbSymbolTableRecord
100
AcDbLinetypeTableRecord
  2
DASHED
 70
64
  3
- - - - - - - - - - - - - - - - - - - -
 72
65
 73
2
 40
0.2
 49
0.1
 74
0
 49
-0.1
 74
0
  0
ENDTAB
  0
TABLE
  2
LAYER
  5
2
100
AcDbSymbolTable
 70
36
  0
LAYER
  5
10
100
AcDbSymbolTableRecord
100
AcDbLayerTableRecord
  2
0
 70
0
 62
7
  6
CONTINUOUS
370
-3
390
F
  0
LAYER
  5
1FA
100
AcDbSymbolTableRecord
100
AcDbLayerTableRecord
  2
DEFAULT_1
 70
0
 62
7
  6
CENTER
370
-3
390
F
  0
LAYER
  5
1FB
100
AcDbSymbolTableRecord
100
AcDbLayerTableRecord
  2
DEFAULT_2
 70
0
 62
7
  6
HIDDEN
370
-3
390
F
  0
LAYER
  5
1FC
100
AcDbSymbolTableRecord
100
AcDbLayerTableRecord
  2
DEFAULT_3
 70
0
 62
7
  6
PHANTOM
370
-3
390
F
  0
LAYER
  5
1FD
100
AcDbSymbolTableRecord
100
AcDbLayerTableRecord
  2
ASSI
 70
0
 62
7
  6
CONTINUOUS
370
-3
390
F
  0
LAYER
  5
1FE
100
AcDbSymbolTableRecord
100
AcDbLayerTableRecord
  2
COORDINATE
 70
0
 62
7
  6
CONTINUOUS
370
-3
390
F
  0
LAYER
  5
1FF
100
AcDbSymbolTableRecord
100
AcDbLayerTableRecord
  2
COORD_ORIGINE
 70
0
 62
7
  6
CONTINUOUS
370
-3
390
F
  0
LAYER
  5
200
100
AcDbSymbolTableRecord
100
AcDbLayerTableRecord
  2
COPY_PUBLISH
 70
0
 62
7
  6
CONTINUOUS
370
-3
390
F
  0
LAYER
  5
201
100
AcDbSymbolTableRecord
100
AcDbLayerTableRecord
  2
COSMETIC
 70
0
 62
7
  6
CONTINUOUS
370
-3
390
F
  0
LAYER
  5
202
100
AcDbSymbolTableRecord
100
AcDbLayerTableRecord
  2
CURVE
 70
0
 62
7
  6
CONTINUOUS
370
-3
390
F
  0
LAYER
  5
203
100
AcDbSymbolTableRecord
100
AcDbLayerTableRecord
  2
DRAFT
 70
0
 62
7
  6
CONTINUOUS
370
-3
390
F
  0
LAYER
  5
204
100
AcDbSymbolTableRecord
100
AcDbLayerTableRecord
  2
IGES
 70
0
 62
7
  6
CONTINUOUS
370
-3
390
F
  0
LAYER
  5
205
100
AcDbSymbolTableRecord
100
AcDbLayerTableRecord
  2
IMPORT_IGES
 70
0
 62
7
  6
CONTINUOUS
370
-3
390
F
  0
LAYER
  5
206
100
AcDbSymbolTableRecord
100
AcDbLayerTableRecord
  2
INTF_12
 70
0
 62
7
  6
CONTINUOUS
370
-3
390
F
  0
LAYER
  5
207
100
AcDbSymbolTableRecord
100
AcDbLayerTableRecord
  2
INTF_9
 70
0
 62
7
  6
CONTINUOUS
370
-3
390
F
  0
LAYER
  5
208
100
AcDbSymbolTableRecord
100
AcDbLayerTableRecord
  2
NOTE
 70
0
 62
7
  6
CONTINUOUS
370
-3
390
F
  0
LAYER
  5
209
100
AcDbSymbolTableRecord
100
AcDbLayerTableRecord
  2
PIANI
 70
0
 62
7
  6
CONTINUOUS
370
-3
390
F
  0
LAYER
  5
20A
100
AcDbSymbolTableRecord
100
AcDbLayerTableRecord
  2
PIANI_ORIGINE
 70
0
 62
7
  6
CONTINUOUS
370
-3
390
F
  0
LAYER
  5
20B
100
AcDbSymbolTableRecord
100
AcDbLayerTableRecord
  2
RACCORDO
 70
0
 62
7
  6
CONTINUOUS
370
-3
390
F
  0
LAYER
  5
20C
100
AcDbSymbolTableRecord
100
AcDbLayerTableRecord
  2
SMUSSO
 70
0
 62
7
  6
CONTINUOUS
370
-3
390
F
  0
LAYER
  5
20D
100
AcDbSymbolTableRecord
100
AcDbLayerTableRecord
  2
SUPERFICI
 70
0
 62
7
  6
CONTINUOUS
370
-3
390
F
  0
LAYER
  5
20E
100
AcDbSymbolTableRecord
100
AcDbLayerTableRecord
  2
TRASH
 70
0
 62
7
  6
CONTINUOUS
370
-3
390
F
  0
ENDTAB
  0
TABLE
  2
STYLE
  5
3
100
AcDbSymbolTable
 70
1
  0
STYLE
  5
11
100
AcDbSymbolTableRecord
100
AcDbTextStyleTableRecord
  2
STANDARD
 70
0
 40
0.0
 41
0.8
 50
0.0
 71
0
 42
0.2
  3
txt
  4

  0
STYLE
  5
20F
100
AcDbSymbolTableRecord
100
AcDbTextStyleTableRecord
  2
TEXTSTYLE_1
 70
0
 40
0.0
 41
0.8
 50
0.0
 71
0
 42
0.2
  3
gdt
  4

  0
ENDTAB
  0
TABLE
  2
VIEW
  5
6
100
AcDbSymbolTable
 70
0
  0
ENDTAB
  0
TABLE
  2
UCS
  5
7
100
AcDbSymbolTable
 70
0
  0
ENDTAB
  0
TABLE
  2
APPID
  5
9
100
AcDbSymbolTable
 70
1
  0
APPID
  5
210
100
AcDbSymbolTableRecord
100
AcDbRegAppTableRecord
  2
ACAD
 70
0
  0
ENDTAB
  0
TABLE
  2
BLOCK_RECORD
  5
1
100
AcDbSymbolTable
 70
0
  0
BLOCK_RECORD
  5
211
100
AcDbSymbolTableRecord
100
AcDbBlockTableRecord
  2
*Model_Space
  0
BLOCK_RECORD
  5
212
100
AcDbSymbolTableRecord
100
AcDbBlockTableRecord
  2
*Paper_Space
  0
ENDTAB
  0
TABLE
  2
DIMSTYLE
  5
A
100
AcDbSymbolTable
 70
1
100
AcDbDimStyleTable
 71
0
  0
DIMSTYLE
105
213
100
AcDbSymbolTableRecord
100
AcDbDimStyleTableRecord
  2
STANDARD
 70
0
  3

  4

 40
1.0
 41
3.0
 42
0.0625
 43
0.38
 44
0.18
 45
0.0
 46
0.0
 47
0.01
 48
0.01
140
3.0
141
0.09
142
0.0
143
25.4
144
1.0
145
0.0
146
1.0
147
0.09
 71
1.0
 72
0.0
 73
0
 74
0
 75
0
 76
0
 77
1
 78
8
170
0
171
2
172
0
173
0
174
0
175
0
176
0
177
0
178
0
270
2
271
2
272
2
273
2
274
2
275
0
280
0
281
0
282
0
283
1
284
8
285
0
286
0
287
3
288
0
340
11
  0
ENDTAB
  0
ENDSEC
  0
SECTION
  2
BLOCKS
  0
BLOCK
  5
20
100
AcDbEntity
  8
0
100
AcDbBlockBegin
  2
*Model_Space
 70
0
 10
0.0
 20
0.0
 30
0.0
  3
*Model_Space
  1

  0
ENDBLK
  5
21
100
AcDbEntity
  8
0
100
AcDbBlockEnd
  0
BLOCK
  5
1C
100
AcDbEntity
  8
0
100
AcDbBlockBegin
  2
*Paper_Space
 70
0
 10
0.0
 20
0.0
 30
0.0
  3
*Paper_Space
  1

  0
ENDBLK
  5
1D
100
AcDbEntity
  8
0
100
AcDbBlockEnd
  0
ENDSEC
  0
SECTION
  2
ENTITIES
  0
LINE
  5
214
100
AcDbEntity
  8
RACCORDO
100
AcDbLine
 62
7
  6
CONTINUOUS
 10
-10.5586275893
 20
10.6504239358
 11
-6.8376204012
 21
12.6579926799
  0
LINE
  5
215
100
AcDbEntity
  8
ASSI
100
AcDbLine
 62
7
  6
CONTINUOUS
 10
-10.5586275893
 20
10.6504239358
 11
-6.8376204012
 21
12.6579926799
  0
LINE
  5
216
100
AcDbEntity
  8
RACCORDO
100
AcDbLine
 62
253
  6
CONTINUOUS
 10
-10.4430068129
 20
10.6453345046
 11
-6.7232021534
 21
12.652254457
  0
LINE
  5
217
100
AcDbEntity
  8
ASSI
100
AcDbLine
 62
253
  6
CONTINUOUS
 10
-10.4430068129
 20
10.6453345046
 11
-6.7232021534
 21
12.652254457
  0
LINE
  5
218
100
AcDbEntity
  8
RACCORDO
100
AcDbLine
 62
7
  6
CONTINUOUS
 10
7.2105977383
 20
-12.6643704061
 11
9.6100154128
 21
-12.0151031666
  0
LINE
  5
219
100
AcDbEntity
  8
ASSI
100
AcDbLine
 62
7
  6
CONTINUOUS
 10
7.2105977383
 20
-12.6643704061
 11
9.6100154128
 21
-12.0151031666
  0
LINE
  5
21A
100
AcDbEntity
  8
RACCORDO
100
AcDbLine
 62
253
  6
CONTINUOUS
 10
7.3189623443
 20
-12.5129667015
 11
9.6936065031
 21
-11.8704030186
  0
LINE
  5
21B
100
AcDbEntity
  8
ASSI
100
AcDbLine
 62
253
  6
CONTINUOUS
 10
7.3189623443
 20
-12.5129667015
 11
9.6936065031
 21
-11.8704030186
  0
LINE
  5
21C
100
AcDbEntity
  8
ASSI
100
AcDbLine
 62
7
  6
CONTINUOUS
 10
7.203192519
 20
-12.6663185704
 11
7.2103232162
 21
-12.6644326115
  0
LINE
  5
21D
100
AcDbEntity
  8
RACCORDO
100
AcDbLine
 62
7
  6
CONTINUOUS
 10
7.1970537088
 20
-12.6678802194
 11
7.2105003156
 21
-12.6643850108
  0
LINE
  5
21E
100
AcDbEntity
  8
DRAFT
100
AcDbLine
 62
7
  6
CONTINUOUS
 10
-4.2266979806
 20
11.4040023707
 11
-6.1624268424
 21
10.205196869
  0
LINE
  5
21F
100
AcDbEntity
  8
ASSI
100
AcDbLine
 62
7
  6
CONTINUOUS
 10
-4.2266979806
 20
11.4040023707
 11
-6.1624268424
 21
10.205196869
  0
LINE
  5
220
100
AcDbEntity
  8
DRAFT
100
AcDbLine
 62
7
  6
CONTINUOUS
 10
-4.2266979806
 20
10.4161680869
 11
-5.2798838648
 21
9.7639253802
  0
LINE
  5
221
100
AcDbEntity
  8
ASSI
100
AcDbLine
 62
7
  6
CONTINUOUS
 10
-4.2266979806
 20
10.4161680869
 11
-5.2798838648
 21
9.7639253802
  0
LWPOLYLINE
  5
222
100
AcDbEntity
  8
ASSI
100
AcDbPolyline
 62
7
  6
CONTINUOUS
 90
10
 70
0
 10
-10.4508478232
 20
-3.6657857906
 10
-10.4387864559
 20
-3.7385677481
 10
-10.4209583708
 20
-3.8079289812
 10
-10.3974727938
 20
-3.8733935275
 10
-10.3686817256
 20
-3.9341479155
 10
-10.3349675157
 20
-3.9897214232
 10
-10.2965496253
 20
-4.0400791464
 10
-10.2537379825
 20
-4.0849865198
 10
-10.2069808412
 20
-4.1240981185
 10
-10.156783456
 20
-4.1571730099
  0
LWPOLYLINE
  5
223
100
AcDbEntity
  8
RACCORDO
100
AcDbPolyline
 62
7
  6
CONTINUOUS
 90
12
 70
0
 10
-10.4562822992
 20
-3.6063024046
 10
-10.4498026418
 20
-3.6739544448
 10
-10.4387186016
 20
-3.7388903198
 10
-10.4230604908
 20
-3.8009501807
 10
-10.4029220099
 20
-3.859850105
 10
-10.3785099556
 20
-3.9151310066
 10
-10.3500168955
 20
-3.9665193926
 10
-10.3175963882
 20
-4.0138969424
 10
-10.2815260421
 20
-4.0569961824
 10
-10.2421152389
 20
-4.0955713786
 10
-10.1996797739
 20
-4.1294329405
 10
-10.1546440687
 20
-4.1584066575
  0
LINE
  5
224
100
AcDbEntity
  8
RACCORDO
100
AcDbLine
 62
7
  6
CONTINUOUS
 10
-10.457567818
 20
-3.5785622021
 11
-10.4562822992
 21
-3.6063024046
  0
LWPOLYLINE
  5
225
100
AcDbEntity
  8
ASSI
100
AcDbPolyline
 62
7
  6
CONTINUOUS
 90
3
 70
0
 10
-10.4575689162
 20
-3.5785276729
 10
-10.4571410112
 20
-3.5897661867
 10
-10.4508478232
 20
-3.6657857906
  0
LINE
  5
226
100
AcDbEntity
  8
ASSI
100
AcDbLine
 62
7
  6
CONTINUOUS
 10
-10.5035876151
 20
-2.0780202796
 11
-10.4575729645
 21
-3.5785892133
  0
LWPOLYLINE
  5
227
100
AcDbEntity
  8
ASSI
100
AcDbPolyline
 62
7
  6
CONTINUOUS
 90
8
 70
0
 10
-10.6858183155
 20
8.9111357294
 10
-10.6761759228
 20
7.3309945311
 10
-10.6610565767
 20
5.7537517871
 10
-10.6404605035
 20
4.1794402722
 10
-10.61438809
 20
2.6080872665
 10
-10.5828397285
 20
1.0397182635
 10
-10.5458159088
 20
-0.5256390263
 10
-10.5035876151
 20
-2.0780202796
  0
LINE
  5
228
100
AcDbEntity
  8
ASSI
100
AcDbLine
 62
7
  6
CONTINUOUS
 10
-10.6899214961
 20
10.4301436858
 11
-10.6858183155
 21
8.9111357294
  0
LWPOLYLINE
  5
229
100
AcDbEntity
  8
RACCORDO
100
AcDbPolyline
 62
7
  6
CONTINUOUS
 90
10
 70
0
 10
-10.6899214961
 20
10.4301436852
 10
-10.6857381245
 20
8.8928491309
 10
-10.6760758954
 20
7.3182627692
 10
-10.6609749591
 20
5.7465548683
 10
-10.6404355399
 20
4.1777578302
 10
-10.6144580209
 20
2.6118986465
 10
-10.5830427905
 20
1.0490025756
 10
-10.5461903325
 20
-0.5109029719
 10
-10.5039014658
 20
-2.0677853968
 10
-10.4575729645
 20
-3.5785892126
  0
LWPOLYLINE
  5
22A
100
AcDbEntity
  8
RACCORDO
100
AcDbPolyline
 62
7
  6
CONTINUOUS
 90
9
 70
0
 10
6.7932022097
 20
-12.633214798
 10
6.838325478
 20
-12.6524828885
 10
6.8857005396
 20
-12.6678044903
 10
6.9348639254
 20
-12.6789107035
 10
6.9855343224
 20
-12.6856706556
 10
7.037449705
 20
-12.6879818602
 10
7.0901867482
 20
-12.6857756107
 10
7.14345289
 20
-12.6790625892
 10
7.1970537088
 20
-12.6678802194
  0
LWPOLYLINE
  5
22B
100
AcDbEntity
  8
ASSI
100
AcDbPolyline
 62
7
  6
CONTINUOUS
 90
8
 70
0
 10
6.7846080154
 20
-12.6289808425
 10
6.8021100737
 20
-12.637404578
 10
6.8623949815
 20
-12.660862264
 10
6.9263825842
 20
-12.6773241041
 10
6.9933284138
 20
-12.6863091967
 10
7.0621952432
 20
-12.6875072335
 10
7.1322988331
 20
-12.6808339711
 10
7.2025759113
 20
-12.6664448201
  0
LINE
  5
22C
100
AcDbEntity
  8
RACCORDO
100
AcDbLine
 62
7
  6
CONTINUOUS
 10
6.7860529067
 20
-12.629706909
 11
6.7932022097
 21
-12.633214798
  0
LINE
  5
22D
100
AcDbEntity
  8
RACCORDO
100
AcDbLine
 62
7
  6
CONTINUOUS
 10
6.7859283381
 20
-12.6296562565
 11
6.7860034186
 21
-12.6296937868
  0
LINE
  5
22E
100
AcDbEntity
  8
RACCORDO
100
AcDbLine
 62
7
  6
CONTINUOUS
 10
-10.128403053
 20
-4.1724905609
 11
6.7859576999
 21
-12.6296709374
  0
LINE
  5
22F
100
AcDbEntity
  8
ASSI
100
AcDbLine
 62
7
  6
CONTINUOUS
 10
-10.1284302212
 20
-4.1724769768
 11
6.7859576999
 21
-12.6296709374
  0
LINE
  5
230
100
AcDbEntity
  8
RACCORDO
100
AcDbLine
 62
253
  6
CONTINUOUS
 10
-10.384341492
 20
-3.6674050742
 11
6.5231966435
 21
-12.1211741419
  0
LINE
  5
231
100
AcDbEntity
  8
ASSI
100
AcDbLine
 62
253
  6
CONTINUOUS
 10
-10.384341492
 20
-3.6674050742
 11
6.5231966435
 21
-12.1211741419
  0
LINE
  5
232
100
AcDbEntity
  8
RACCORDO
100
AcDbLine
 62
7
  6
CONTINUOUS
 10
-10.1546440687
 20
-4.1584066575
 11
-10.1277858476
 21
-4.1727870192
  0
LINE
  5
233
100
AcDbEntity
  8
ASSI
100
AcDbLine
 62
7
  6
CONTINUOUS
 10
-10.156783456
 20
-4.1571730099
 11
-10.1284879382
 21
-4.1724364267
  0
LINE
  5
234
100
AcDbEntity
  8
RACCORDO
100
AcDbLine
 62
7
  6
CONTINUOUS
 10
9.5168298068
 20
-12.2496658067
 11
9.2451597785
 21
-12.1138307925
  0
LINE
  5
235
100
AcDbEntity
  8
ASSI
100
AcDbLine
 62
7
  6
CONTINUOUS
 10
9.5168298068
 20
-12.2496658067
 11
9.2451597785
 21
-12.1138307925
  0
LINE
  5
236
100
AcDbEntity
  8
DRAFT
100
AcDbLine
 62
7
  6
CONTINUOUS
 10
-2.0801873324
 20
4.0153532123
 11
-2.5318042547
 21
3.7769403302
  0
LINE
  5
237
100
AcDbEntity
  8
DRAFT
100
AcDbLine
 62
7
  6
CONTINUOUS
 10
-4.2266979806
 20
11.4040023707
 11
-4.2266979806
 21
10.4161680869
  0
LINE
  5
238
100
AcDbEntity
  8
ASSI
100
AcDbLine
 62
7
  6
CONTINUOUS
 10
-4.2266979806
 20
11.4040023707
 11
-4.2266979806
 21
10.4161680869
  0
LINE
  5
239
100
AcDbEntity
  8
CURVE
100
AcDbLine
 62
253
  6
CONTINUOUS
 10
-2.0906300095
 20
-1.6817782541
 11
-2.0853907803
 21
-1.9584654734
  0
LINE
  5
23A
100
AcDbEntity
  8
DRAFT
100
AcDbLine
 62
7
  6
CONTINUOUS
 10
-0.9795338121
 20
1.8418072566
 11
-1.4524613051
 21
1.6182544291
  0
LINE
  5
23B
100
AcDbEntity
  8
DRAFT
100
AcDbLine
 62
7
  6
CONTINUOUS
 10
7.8117468725
 20
5.3847799441
 11
5.5048350472
 21
4.3715659242
  0
LINE
  5
23C
100
AcDbEntity
  8
ASSI
100
AcDbLine
 62
7
  6
CONTINUOUS
 10
7.8117468725
 20
5.3847799441
 11
5.5048350472
 21
4.3715659242
  0
LINE
  5
23D
100
AcDbEntity
  8
RACCORDO
100
AcDbLine
 62
253
  6
CONTINUOUS
 10
10.3082510453
 20
4.1365278577
 11
6.456280559
 21
2.1956908187
  0
LINE
  5
23E
100
AcDbEntity
  8
ASSI
100
AcDbLine
 62
253
  6
CONTINUOUS
 10
10.3082510453
 20
4.1365278577
 11
6.456280559
 21
2.1956908187
  0
LINE
  5
23F
100
AcDbEntity
  8
RACCORDO
100
AcDbLine
 62
253
  6
CONTINUOUS
 10
10.4850008166
 20
3.8316795961
 11
6.6330303318
 21
1.8908425578
  0
LINE
  5
240
100
AcDbEntity
  8
ASSI
100
AcDbLine
 62
253
  6
CONTINUOUS
 10
10.4850008166
 20
3.8316795961
 11
6.6330303318
 21
1.8908425578
  0
LINE
  5
241
100
AcDbEntity
  8
RACCORDO
100
AcDbLine
 62
7
  6
CONTINUOUS
 10
10.772780567
 20
3.1025257358
 11
10.6970687926
 21
3.0675595294
  0
LINE
  5
242
100
AcDbEntity
  8
ASSI
100
AcDbLine
 62
7
  6
CONTINUOUS
 10
10.772780567
 20
3.1025257358
 11
10.6970687926
 21
3.0675595294
  0
LINE
  5
243
100
AcDbEntity
  8
RACCORDO
100
AcDbLine
 62
253
  6
CONTINUOUS
 10
6.282589191
 20
1.8920912054
 11
-10.6166981811
 21
10.3417348915
  0
LINE
  5
244
100
AcDbEntity
  8
ASSI
100
AcDbLine
 62
253
  6
CONTINUOUS
 10
6.282589191
 20
1.8920912054
 11
-10.6166981811
 21
10.3417348915
  0
LINE
  5
245
100
AcDbEntity
  8
RACCORDO
100
AcDbLine
 62
253
  6
CONTINUOUS
 10
6.456280559
 20
2.1956908187
 11
-10.4430068129
 21
10.6453345046
  0
LINE
  5
246
100
AcDbEntity
  8
ASSI
100
AcDbLine
 62
253
  6
CONTINUOUS
 10
6.456280559
 20
2.1956908187
 11
-10.4430068129
 21
10.6453345046
  0
LINE
  5
247
100
AcDbEntity
  8
DRAFT
100
AcDbLine
 62
7
  6
CONTINUOUS
 10
5.5048350472
 20
4.3715659242
 11
-6.1624268424
 21
10.205196869
  0
LINE
  5
248
100
AcDbEntity
  8
ASSI
100
AcDbLine
 62
7
  6
CONTINUOUS
 10
5.5048350472
 20
4.3715659242
 11
-6.1624268424
 21
10.205196869
  0
LINE
  5
249
100
AcDbEntity
  8
RACCORDO
100
AcDbLine
 62
253
  6
CONTINUOUS
 10
10.6970687926
 20
3.0675595294
 11
10.4903099049
 21
3.1709389732
  0
LINE
  5
24A
100
AcDbEntity
  8
ASSI
100
AcDbLine
 62
253
  6
CONTINUOUS
 10
10.6970687926
 20
3.0675595294
 11
10.4903099049
 21
3.1709389732
  0
LINE
  5
24B
100
AcDbEntity
  8
DRAFT
100
AcDbLine
 62
7
  6
CONTINUOUS
 10
10.772780567
 20
3.1025257358
 11
10.4850008166
 21
3.246415611
  0
LINE
  5
24C
100
AcDbEntity
  8
ASSI
100
AcDbLine
 62
7
  6
CONTINUOUS
 10
10.772780567
 20
3.1025257358
 11
10.4850008166
 21
3.246415611
  0
LINE
  5
24D
100
AcDbEntity
  8
RACCORDO
100
AcDbLine
 62
7
  6
CONTINUOUS
 10
10.3082510453
 20
4.1365278577
 11
7.8117468725
 21
5.3847799441
  0
LINE
  5
24E
100
AcDbEntity
  8
ASSI
100
AcDbLine
 62
7
  6
CONTINUOUS
 10
10.3082510453
 20
4.1365278577
 11
7.8117468725
 21
5.3847799441
  0
LINE
  5
24F
100
AcDbEntity
  8
RACCORDO
100
AcDbLine
 62
7
  6
CONTINUOUS
 10
-4.2266979806
 20
11.4040023707
 11
-6.7232021534
 21
12.652254457
  0
LINE
  5
250
100
AcDbEntity
  8
ASSI
100
AcDbLine
 62
7
  6
CONTINUOUS
 10
-4.2266979806
 20
11.4040023707
 11
-6.7232021534
 21
12.652254457
  0
LINE
  5
251
100
AcDbEntity
  8
RACCORDO
100
AcDbLine
 62
7
  6
CONTINUOUS
 10
9.6936065031
 20
-11.8704030186
 11
9.6936065031
 21
-12.1215725346
  0
LINE
  5
252
100
AcDbEntity
  8
ASSI
100
AcDbLine
 62
7
  6
CONTINUOUS
 10
9.6936065031
 20
-11.8704030186
 11
9.6936065031
 21
-12.1215725346
  0
LINE
  5
253
100
AcDbEntity
  8
RACCORDO
100
AcDbLine
 62
7
  6
CONTINUOUS
 10
10.4850008166
 20
3.2249317486
 11
10.4850008166
 21
3.8316795961
  0
LINE
  5
254
100
AcDbEntity
  8
ASSI
100
AcDbLine
 62
7
  6
CONTINUOUS
 10
10.4850008166
 20
3.2249317486
 11
10.4850008166
 21
3.8316795961
  0
LINE
  5
255
100
AcDbEntity
  8
DRAFT
100
AcDbLine
 62
7
  6
CONTINUOUS
 10
10.772780567
 20
3.1025257358
 11
10.772780567
 21
-5.2365724943
  0
LINE
  5
256
100
AcDbEntity
  8
ASSI
100
AcDbLine
 62
7
  6
CONTINUOUS
 10
10.772780567
 20
3.1025257358
 11
10.772780567
 21
-5.2365724943
  0
LINE
  5
257
100
AcDbEntity
  8
RACCORDO
100
AcDbLine
 62
7
  6
CONTINUOUS
 10
10.2166333164
 20
-11.8745262781
 11
10.772780567
 21
-5.2365724943
  0
LINE
  5
258
100
AcDbEntity
  8
ASSI
100
AcDbLine
 62
7
  6
CONTINUOUS
 10
10.2166333164
 20
-11.8745262781
 11
10.772780567
 21
-5.2365724943
  0
LINE
  5
259
100
AcDbEntity
  8
RACCORDO
100
AcDbLine
 62
253
  6
CONTINUOUS
 10
9.6936065031
 20
-12.1215725346
 11
10.2166333164
 21
-11.8745262781
  0
LINE
  5
25A
100
AcDbEntity
  8
ASSI
100
AcDbLine
 62
253
  6
CONTINUOUS
 10
9.6936065031
 20
-12.1215725346
 11
10.2166333164
 21
-11.8745262781
  0
LINE
  5
25B
100
AcDbEntity
  8
RACCORDO
100
AcDbLine
 62
7
  6
CONTINUOUS
 10
9.6267383243
 20
-12.257696044
 11
10.1350553305
 21
-12.0175978114
  0
LINE
  5
25C
100
AcDbEntity
  8
ASSI
100
AcDbLine
 62
7
  6
CONTINUOUS
 10
9.6267383243
 20
-12.257696044
 11
10.1350553305
 21
-12.0175978114
  0
ARC
  5
25D
100
AcDbEntity
  8
RACCORDO
100
AcDbCircle
 62
253
  6
CONTINUOUS
 10
437.6956184643
 20
10.7679183983
 40
448.3125442873
100
AcDbArc
 50
180.0544676289
 51
181.833567904
  0
ARC
  5
25E
100
AcDbEntity
  8
ASSI
100
AcDbCircle
 62
253
  6
CONTINUOUS
 10
437.6956184643
 20
10.7679183983
 40
448.3125442873
100
AcDbArc
 50
180.0544676289
 51
181.833567904
  0
ARC
  5
25F
100
AcDbEntity
  8
RACCORDO
100
AcDbCircle
 62
253
  6
CONTINUOUS
 10
437.259594918
 20
2.2808183853
 40
430.9770748538
100
AcDbArc
 50
180.0516789074
 51
181.915013677
  0
ARC
  5
260
100
AcDbEntity
  8
ASSI
100
AcDbCircle
 62
253
  6
CONTINUOUS
 10
437.259594918
 20
2.2808183853
 40
430.9770748538
100
AcDbArc
 50
180.0516789074
 51
181.915013677
  0
ARC
  5
261
100
AcDbEntity
  8
RACCORDO
100
AcDbCircle
 62
253
  6
CONTINUOUS
 10
437.3523150004
 20
2.2793422456
 40
430.7193537598
100
AcDbArc
 50
180.0516795677
 51
181.9150326979
  0
ARC
  5
262
100
AcDbEntity
  8
ASSI
100
AcDbCircle
 62
253
  6
CONTINUOUS
 10
437.3523150004
 20
2.2793422456
 40
430.7193537598
100
AcDbArc
 50
180.0516795677
 51
181.9150326979
  0
ARC
  5
263
100
AcDbEntity
  8
RACCORDO
100
AcDbCircle
 62
7
  6
CONTINUOUS
 10
-1.5314033268
 20
2.6375655785
 40
1.1007054639
100
AcDbArc
 50
237.1726665365
 51
240.9484598453
  0
ARC
  5
264
100
AcDbEntity
  8
RACCORDO
100
AcDbCircle
 62
7
  6
CONTINUOUS
 10
-1.5648105183
 20
2.5780189404
 40
1.0324284262
100
AcDbArc
 50
240.9644641986
 51
243.4252663163
  0
ARC
  5
265
100
AcDbEntity
  8
DRAFT
100
AcDbCircle
 62
7
  6
CONTINUOUS
 10
-1.4272330881
 20
2.2732366391
 40
0.7026651541
100
AcDbArc
 50
259.551408176
 51
262.8975864568
  0
ARC
  5
266
100
AcDbEntity
  8
ASSI
100
AcDbCircle
 62
7
  6
CONTINUOUS
 10
-1.4272330881
 20
2.2732366391
 40
0.7026651541
100
AcDbArc
 50
259.551408176
 51
262.8975864568
  0
ARC
  5
267
100
AcDbEntity
  8
DRAFT
100
AcDbCircle
 62
7
  6
CONTINUOUS
 10
-2.0809659256
 20
3.4455061255
 40
0.6136749686
100
AcDbArc
 50
142.6964001419
 51
148.683328854
  0
ARC
  5
268
100
AcDbEntity
  8
RACCORDO
100
AcDbCircle
 62
253
  6
CONTINUOUS
 10
-9.9622717004
 20
-3.8417033373
 40
0.3701087874
100
AcDbArc
 50
241.2341444111
 51
243.3328122744
  0
ARC
  5
269
100
AcDbEntity
  8
ASSI
100
AcDbCircle
 62
253
  6
CONTINUOUS
 10
-9.9622824894
 20
-3.8417248053
 40
0.370084766
100
AcDbArc
 50
241.2820495873
 51
243.309370668
  0
ARC
  5
26A
100
AcDbEntity
  8
ASSI
100
AcDbCircle
 62
7
  6
CONTINUOUS
 10
-10.4399442326
 20
10.4304212889
 40
0.2499729098
100
AcDbArc
 50
118.3452333313
 51
180.0617871985
  0
ARC
  5
26B
100
AcDbEntity
  8
RACCORDO
100
AcDbCircle
 62
7
  6
CONTINUOUS
 10
-10.4401814748
 20
10.4310178311
 40
0.2493361602
100
AcDbArc
 50
118.3623369933
 51
180.0790761876
  0
SPLINE
  5
26C
100
AcDbEntity
  8
RACCORDO
100
AcDbSpline
 62
7
  6
CONTINUOUS
 70
0
 71
3
 72
10
 73
6
 74
4
 42
0.0000001
 43
0.0000001
 44
0.0000000001
 12
0.5309507646
 22
-0.2654753776
 32
0.0
 13
0.5366819963
 23
0.2536896016
 33
0.0
 40
0.0
 40
0.0
 40
0.0
 40
0.0
 40
0.3683960887
 40
0.69741576
 40
1.0
 40
1.0
 40
1.0
 40
1.0
 10
-2.0266825926
 20
1.6546649226
 30
0.0
 10
-1.9614825309
 20
1.6220648923
 30
0.0
 10
-1.8303972779
 20
1.5734852658
 30
0.0
 10
-1.6300496083
 20
1.5592828548
 30
0.0
 10
-1.5065916876
 20
1.5926669951
 30
0.0
 10
-1.452461183
 20
1.6182544869
 30
0.0
 11
-2.0266825926
 21
1.6546649226
 31
0.0
 11
-1.8205852458
 21
1.5815337136
 31
0.0
 11
-1.6255898011
 21
1.5704009275
 31
0.0
 11
-1.452461183
 21
1.6182544869
 31
0.0
  0
SPLINE
  5
26D
100
AcDbEntity
  8
RACCORDO
100
AcDbSpline
 62
7
  6
CONTINUOUS
 70
0
 71
3
 72
14
 73
10
 74
8
 42
0.0000001
 43
0.0000001
 44
0.0000000001
 12
-2.1334127319
 22
-1.1262489471
 32
0.0
 13
2.0328953942
 23
-1.3102034695
 33
0.0
 40
0.0
 40
0.0
 40
0.0
 40
0.0
 40
0.1126354234
 40
0.2431064815
 40
0.3946442942
 40
0.5607875776
 40
0.7319683022
 40
0.897607205
 40
1.0
 40
1.0
 40
1.0
 40
1.0
 10
-2.5318040958
 20
3.7769404141
 30
0.0
 10
-2.611903378
 20
3.7346552384
 30
0.0
 10
-2.7606864954
 20
3.5932158356
 30
0.0
 10
-2.8684768835
 20
3.2858055677
 30
0.0
 10
-2.8697805639
 20
2.9206103935
 30
0.0
 10
-2.7725277458
 20
2.536187412
 30
0.0
 10
-2.5903033221
 20
2.1716049741
 30
0.0
 10
-2.367129841
 20
1.894436031
 30
0.0
 10
-2.1974904423
 20
1.7573523473
 30
0.0
 10
-2.1281058285
 20
1.7126338822
 30
0.0
 11
-2.5318040958
 21
3.7769404141
 31
0.0
 11
-2.7320864355
 21
3.5933038891
 31
0.0
 11
-2.8464115213
 21
3.3000464655
 31
0.0
 11
-2.8551475375
 21
2.9345744019
 31
0.0
 11
-2.7601615711
 21
2.545180779
 31
0.0
 11
-2.5756093666
 21
2.1757492559
 31
0.0
 11
-2.322219766
 21
1.8667678454
 31
0.0
 11
-2.1281058285
 21
1.7126338822
 31
0.0
  0
SPLINE
  5
26E
100
AcDbEntity
  8
RACCORDO
100
AcDbSpline
 62
253
  6
CONTINUOUS
 70
0
 71
3
 72
20
 73
16
 74
14
 42
0.0000001
 43
0.0000001
 44
0.0000000001
 12
2.3096192904
 22
1.1011434821
 32
0.0
 13
-2.2752317028
 23
1.13761587
 33
0.0
 40
0.0
 40
0.0
 40
0.0
 40
0.0
 40
0.0913253166
 40
0.1944753298
 40
0.300071473
 40
0.4040895859
 40
0.5028558466
 40
0.5939847407
 40
0.6762969559
 40
0.7496288086
 40
0.81425267
 40
0.8708004493
 40
0.9200563031
 40
0.9628161743
 40
1.0
 40
1.0
 40
1.0
 40
1.0
 10
-1.4524690287
 20
1.6182847302
 30
0.0
 10
-1.3821601244
 20
1.6518054892
 30
0.0
 10
-1.2512070388
 20
1.7642242281
 30
0.0
 10
-1.1491068566
 20
2.0040538369
 30
0.0
 10
-1.1206398729
 20
2.270104626
 30
0.0
 10
-1.1466711556
 20
2.5316956306
 30
0.0
 10
-1.2097236236
 20
2.7736249385
 30
0.0
 10
-1.2961512982
 20
2.9882308391
 30
0.0
 10
-1.3956241378
 20
3.1727642881
 30
0.0
 10
-1.5006717687
 20
3.3275600944
 30
0.0
 10
-1.6061181084
 20
3.4546907281
 30
0.0
 10
-1.7084575566
 20
3.5570077761
 30
0.0
 10
-1.8054488404
 20
3.6376678495
 30
0.0
 10
-1.8958081029
 20
3.699861918
 30
0.0
 10
-1.9549947045
 20
3.7331306662
 30
0.0
 10
-1.9831953108
 20
3.7472309696
 30
0.0
 11
-1.4524690287
 21
1.6182847302
 31
0.0
 11
-1.2734553559
 21
1.7668743966
 31
0.0
 11
-1.1626428523
 21
2.0047187581
 31
0.0
 11
-1.1298283528
 21
2.2713209082
 31
0.0
 11
-1.1540568771
 21
2.5348091701
 31
0.0
 11
-1.216652018
 21
2.7781269071
 31
0.0
 11
-1.3030486549
 21
2.9932376425
 31
0.0
 11
-1.4024572447
 21
3.1775197136
 31
0.0
 11
-1.5073670745
 21
3.3317640367
 31
0.0
 11
-1.6125076678
 21
3.4581337213
 31
0.0
 11
-1.7144191361
 21
3.5596500855
 31
0.0
 11
-1.8109163
 21
3.6395717831
 31
0.0
 11
-1.9006450341
 21
3.7010542804
 31
0.0
 11
-1.9831953108
 21
3.7472309696
 31
0.0
  0
SPLINE
  5
26F
100
AcDbEntity
  8
RACCORDO
100
AcDbSpline
 62
253
  6
CONTINUOUS
 70
0
 71
3
 72
8
 73
4
 74
2
 42
0.0000001
 43
0.0000001
 44
0.0000000001
 12
0.0835988337
 22
-0.0417994168
 32
0.0
 13
0.0882735387
 23
-0.032464483
 33
0.0
 40
0.0
 40
0.0
 40
0.0
 40
0.0
 40
1.0
 40
1.0
 40
1.0
 40
1.0
 10
-2.0522285747
 20
1.6992913963
 30
0.0
 10
-2.0243622968
 20
1.6853582574
 30
0.0
 10
-1.9956309895
 20
1.6727330532
 30
0.0
 10
-1.9662064766
 20
1.6619115589
 30
0.0
 11
-2.0522285747
 21
1.6992913963
 31
0.0
 11
-1.9662064766
 21
1.6619115589
 31
0.0
  0
SPLINE
  5
270
100
AcDbEntity
  8
RACCORDO
100
AcDbSpline
 62
253
  6
CONTINUOUS
 70
0
 71
3
 72
10
 73
6
 74
4
 42
0.0000001
 43
0.0000001
 44
0.0000000001
 12
0.4497329471
 22
-0.165398916
 32
0.0
 13
0.3975809252
 23
0.2706053485
 33
0.0
 40
0.0
 40
0.0
 40
0.0
 40
0.0
 40
0.3604798126
 40
0.8430695357
 40
1.0
 40
1.0
 40
1.0
 40
1.0
 10
-1.9662064766
 20
1.6619115589
 30
0.0
 10
-1.9121665938
 20
1.6420372355
 30
0.0
 10
-1.7803128816
 20
1.6097848141
 30
0.0
 10
-1.6156516824
 20
1.6309250412
 30
0.0
 10
-1.5261541582
 20
1.6811497042
 30
0.0
 10
-1.5053566384
 20
1.6953051118
 30
0.0
 11
-1.9662064766
 21
1.6619115589
 31
0.0
 11
-1.7981367654
 21
1.6236112147
 31
0.0
 11
-1.5710291623
 21
1.658710865
 31
0.0
 11
-1.5053566384
 21
1.6953051118
 31
0.0
  0
SPLINE
  5
271
100
AcDbEntity
  8
RACCORDO
100
AcDbSpline
 62
253
  6
CONTINUOUS
 70
0
 71
3
 72
20
 73
16
 74
14
 42
0.0000001
 43
0.0000001
 44
0.0000000001
 12
1.9147547356
 22
1.3032387614
 32
0.0
 13
-2.0512188492
 23
1.0256094246
 33
0.0
 40
0.0
 40
0.0
 40
0.0
 40
0.0
 40
0.0662565476
 40
0.172252553
 40
0.2807617212
 40
0.3876493116
 40
0.4891401078
 40
0.5827829581
 40
0.667365994
 40
0.7427209878
 40
0.8091277958
 40
0.8672357412
 40
0.9178505631
 40
0.9617902467
 40
1.0
 40
1.0
 40
1.0
 40
1.0
 10
-1.5053566384
 20
1.6953051118
 30
0.0
 10
-1.4630682923
 20
1.7240878122
 30
0.0
 10
-1.365640181
 20
1.8185961687
 30
0.0
 10
-1.2795192405
 20
2.0209020163
 30
0.0
 10
-1.2531459794
 20
2.2673744668
 30
0.0
 10
-1.2772624008
 20
2.5097159165
 30
0.0
 10
-1.335674132
 20
2.7338425111
 30
0.0
 10
-1.4157415908
 20
2.9326564615
 30
0.0
 10
-1.5078941292
 20
3.1036111783
 30
0.0
 10
-1.6052115421
 20
3.2470165979
 30
0.0
 10
-1.7028984661
 20
3.3647926358
 30
0.0
 10
-1.7977071023
 20
3.4595811413
 30
0.0
 10
-1.887561532
 20
3.5343059003
 30
0.0
 10
-1.971271558
 20
3.5919240243
 30
0.0
 10
-2.0261030526
 20
3.6227448071
 30
0.0
 10
-2.0522285747
 20
3.6358075682
 30
0.0
 11
-1.5053566384
 21
1.6953051118
 31
0.0
 11
-1.394714751
 21
1.8011735769
 31
0.0
 11
-1.2920582638
 21
2.0215176533
 31
0.0
 11
-1.2616586004
 21
2.2685014252
 31
0.0
 11
-1.284104364
 21
2.5126003872
 31
0.0
 11
-1.3420927373
 21
2.7380131258
 31
0.0
 11
-1.4221313082
 21
2.9372948005
 31
0.0
 11
-1.5142244045
 21
3.1080166335
 31
0.0
 11
-1.611414148
 21
3.2509111716
 31
0.0
 11
-1.7088178115
 21
3.3679822987
 31
0.0
 11
-1.8032300692
 21
3.4620289643
 31
0.0
 11
-1.8926265578
 21
3.5360698136
 31
0.0
 11
-1.9757526416
 21
3.5930286094
 31
0.0
 11
-2.0522285747
 21
3.6358075682
 31
0.0
  0
SPLINE
  5
272
100
AcDbEntity
  8
RACCORDO
100
AcDbSpline
 62
253
  6
CONTINUOUS
 70
0
 71
3
 72
22
 73
18
 74
16
 42
0.0000001
 43
0.0000001
 44
0.0000000001
 12
-2.5607350466
 22
1.2803675233
 32
0.0
 13
2.5607350466
 23
-1.2803675233
 33
0.0
 40
0.0
 40
0.0
 40
0.0
 40
0.0
 40
0.0926031929
 40
0.1728708975
 40
0.252045775
 40
0.3369516027
 40
0.4238704212
 40
0.5094903106
 40
0.590787205
 40
0.6657976871
 40
0.733551015
 40
0.7939124321
 40
0.8471061098
 40
0.8936521728
 40
0.9341960337
 40
0.9693929376
 40
1.0
 40
1.0
 40
1.0
 40
1.0
 10
-2.0522285747
 20
3.6358075682
 30
0.0
 10
-2.1312726552
 20
3.6753296084
 30
0.0
 10
-2.2918241704
 20
3.729464786
 30
0.0
 10
-2.5413474704
 20
3.6974280977
 30
0.0
 10
-2.7288220664
 20
3.5399821886
 30
0.0
 10
-2.8249386579
 20
3.3141967366
 30
0.0
 10
-2.851311834
 20
3.067724149
 30
0.0
 10
-2.8271955435
 20
2.8253826849
 30
0.0
 10
-2.7687836022
 20
2.6012561453
 30
0.0
 10
-2.688716061
 20
2.4024422451
 30
0.0
 10
-2.5965633794
 20
2.2314875999
 30
0.0
 10
-2.499245877
 20
2.0880822282
 30
0.0
 10
-2.4015588771
 20
1.9703062248
 30
0.0
 10
-2.3067501591
 20
1.8755177799
 30
0.0
 10
-2.2168957229
 20
1.800792986
 30
0.0
 10
-2.1331856109
 20
1.7431749471
 30
0.0
 10
-2.0783541005
 20
1.7123541592
 30
0.0
 10
-2.0522285747
 20
1.6992913963
 30
0.0
 11
-2.0522285747
 21
3.6358075682
 31
0.0
 11
-2.306319199
 21
3.7114883424
 31
0.0
 11
-2.5334283096
 21
3.6763879382
 31
0.0
 11
-2.709742662
 21
3.5339252559
 31
0.0
 11
-2.8123995633
 21
3.3135809724
 31
0.0
 11
-2.8427992515
 21
3.0665971881
 31
0.0
 11
-2.820353519
 21
2.8224982105
 31
0.0
 11
-2.7623650146
 21
2.5970855374
 31
0.0
 11
-2.6823263306
 21
2.3978039193
 31
0.0
 11
-2.5902331092
 21
2.2270821488
 31
0.0
 11
-2.4930432708
 21
2.0841876582
 31
0.0
 11
-2.395639527
 21
1.9671165712
 31
0.0
 11
-2.3012272004
 21
1.8730699401
 31
0.0
 11
-2.2118306898
 21
1.7990291019
 31
0.0
 11
-2.1287045278
 21
1.7420703452
 31
0.0
 11
-2.0522285747
 21
1.6992913963
 31
0.0
  0
SPLINE
  5
273
100
AcDbEntity
  8
RACCORDO
100
AcDbSpline
 62
253
  6
CONTINUOUS
 70
0
 71
3
 72
10
 73
6
 74
4
 42
0.0000001
 43
0.0000001
 44
0.0000000001
 12
-0.5066545929
 22
0.2533273006
 32
0.0
 13
-0.5030012107
 23
-0.268775241
 33
0.0
 40
0.0
 40
0.0
 40
0.0
 40
0.0
 40
0.5052042006
 40
0.9431177079
 40
1.0
 40
1.0
 40
1.0
 40
1.0
 10
-1.9831953108
 20
3.7472309696
 30
0.0
 10
-2.0685166537
 20
3.7898916418
 30
0.0
 10
-2.2418215714
 20
3.8483122063
 30
0.0
 10
-2.4376981418
 20
3.8231790404
 30
0.0
 10
-2.5222121918
 20
3.7819342287
 30
0.0
 10
-2.5317494791
 20
3.7768380448
 30
0.0
 11
-1.9831953108
 21
3.7472309696
 31
0.0
 11
-2.2574664725
 21
3.8289151804
 31
0.0
 11
-2.5026165844
 21
3.7910365884
 31
0.0
 11
-2.5317494791
 21
3.7768380448
 31
0.0
  0
SPLINE
  5
274
100
AcDbEntity
  8
DRAFT
100
AcDbSpline
 62
7
  6
CONTINUOUS
 70
0
 71
3
 72
18
 73
14
 74
12
 42
0.0000001
 43
0.0000001
 44
0.0000000001
 12
2.4354104948
 22
1.2891825476
 32
0.0
 13
-2.4531275979
 23
1.226563799
 33
0.0
 40
0.0
 40
0.0
 40
0.0
 40
0.0
 40
0.0586239422
 40
0.1287369961
 40
0.2076364478
 40
0.2955840785
 40
0.3921028696
 40
0.4955278479
 40
0.6017212965
 40
0.7091477205
 40
0.8125165559
 40
0.9106444314
 40
1.0
 40
1.0
 40
1.0
 40
1.0
 10
-1.1926729695
 20
1.6290858955
 30
0.0
 10
-1.1450818481
 20
1.6542782166
 30
0.0
 10
-1.0498099564
 20
1.7273509099
 30
0.0
 10
-0.9435817098
 20
1.888496571
 30
0.0
 10
-0.8789350214
 20
2.0976253764
 30
0.0
 10
-0.860133873
 20
2.3392372402
 30
0.0
 10
-0.8870745367
 20
2.6022504084
 30
0.0
 10
-0.9581941005
 20
2.8739707044
 30
0.0
 10
-1.0701572639
 20
3.1422837112
 30
0.0
 10
-1.2170755887
 20
3.393116098
 30
0.0
 10
-1.3926442439
 20
3.6155960961
 30
0.0
 10
-1.5875664456
 20
3.7979958737
 30
0.0
 10
-1.7323554148
 20
3.8921680489
 30
0.0
 10
-1.8054222852
 20
3.9287014841
 30
0.0
 11
-1.1926729695
 21
1.6290858955
 31
0.0
 11
-1.0644110193
 21
1.7263952185
 31
0.0
 11
-0.9559544491
 21
1.8851893224
 31
0.0
 11
-0.8889188948
 21
2.0909402443
 31
0.0
 11
-0.8676629225
 21
2.3312140761
 31
0.0
 11
-0.8928921966
 21
2.5947292513
 31
0.0
 11
-0.9637170209
 21
2.8694068087
 31
0.0
 11
-1.0755464632
 21
3.1383369996
 31
0.0
 11
-1.2246960845
 21
3.3924333291
 31
0.0
 11
-1.4010238527
 21
3.6144358077
 31
0.0
 11
-1.5986892568
 21
3.7970861736
 31
0.0
 11
-1.8054222852
 21
3.9287014841
 31
0.0
  0
SPLINE
  5
275
100
AcDbEntity
  8
DRAFT
100
AcDbSpline
 62
7
  6
CONTINUOUS
 70
0
 71
3
 72
10
 73
6
 74
4
 42
0.0000001
 43
0.0000001
 44
0.0000000001
 12
-0.5326592145
 22
0.2663296072
 32
0.0
 13
-0.5408030121
 23
-0.2556892649
 33
0.0
 40
0.0
 40
0.0
 40
0.0
 40
0.0
 40
0.3685097703
 40
0.699068691
 40
1.0
 40
1.0
 40
1.0
 40
1.0
 10
-1.8054222852
 20
3.9287014841
 30
0.0
 10
-1.8708523268
 20
3.9614165049
 30
0.0
 10
-2.0020324908
 20
4.0112222792
 30
0.0
 10
-2.2028231486
 20
4.0292850941
 30
0.0
 10
-2.3269526265
 20
3.9973512589
 30
0.0
 10
-2.3812008126
 20
3.9717029571
 30
0.0
 11
-1.8054222852
 21
3.9287014841
 31
0.0
 11
-2.0117066582
 21
4.0035949006
 31
0.0
 11
-2.208041079
 21
4.0179446218
 31
0.0
 11
-2.3812008126
 21
3.9717029571
 31
0.0
  0
SPLINE
  5
276
100
AcDbEntity
  8
DRAFT
100
AcDbSpline
 62
7
  6
CONTINUOUS
 70
0
 71
3
 72
9
 73
5
 74
3
 42
0.0000001
 43
0.0000001
 44
0.0000000001
 12
-0.2217832588
 22
-0.1048581408
 32
0.0
 13
-0.1487435052
 23
-0.1948431773
 33
0.0
 40
0.0
 40
0.0
 40
0.0
 40
0.0
 40
0.7453588767
 40
1.0
 40
1.0
 40
1.0
 40
1.0
 10
-2.3812008126
 20
3.9717029571
 30
0.0
 10
-2.4363035195
 20
3.9456506418
 30
0.0
 10
-2.5034273226
 20
3.8962238635
 30
0.0
 10
-2.5564793186
 20
3.8339550701
 30
0.0
 10
-2.5691047231
 20
3.8174167082
 30
0.0
 11
-2.3812008126
 21
3.9717029571
 31
0.0
 11
-2.5285484334
 21
3.8648347578
 31
0.0
 11
-2.5691047231
 21
3.8174167082
 31
0.0
  0
SPLINE
  5
277
100
AcDbEntity
  8
DRAFT
100
AcDbSpline
 62
7
  6
CONTINUOUS
 70
0
 71
3
 72
9
 73
5
 74
3
 42
0.0000001
 43
0.0000001
 44
0.0000000001
 12
-0.0393157115
 22
-0.0644858863
 32
0.0
 13
-0.0319772713
 23
-0.0683203875
 33
0.0
 40
0.0
 40
0.0
 40
0.0
 40
0.0
 40
0.8810900114
 40
1.0
 40
1.0
 40
1.0
 40
1.0
 10
-2.6052331345
 20
3.7644745578
 30
0.0
 10
-2.616780028
 20
3.7455352677
 30
0.0
 10
-2.6287850223
 20
3.7233605624
 30
0.0
 10
-2.6395858419
 20
3.7006490639
 30
0.0
 10
-2.6408533143
 20
3.6979410717
 30
0.0
 11
-2.6052331345
 21
3.7644745578
 31
0.0
 11
-2.6370001647
 21
3.7060427219
 31
0.0
 11
-2.6408533143
 21
3.6979410717
 31
0.0
  0
SPLINE
  5
278
100
AcDbEntity
  8
DRAFT
100
AcDbSpline
 62
7
  6
CONTINUOUS
 70
0
 71
3
 72
10
 73
6
 74
4
 42
0.0000001
 43
0.0000001
 44
0.0000000001
 12
0.3283788021
 22
-0.0408010067
 32
0.0
 13
0.2925471435
 23
0.1548595904
 33
0.0
 40
0.0
 40
0.0
 40
0.0
 40
0.0
 40
0.3914917532
 40
0.9389715821
 40
1.0
 40
1.0
 40
1.0
 40
1.0
 10
-1.514112911
 20
1.5759632243
 30
0.0
 10
-1.47126038
 20
1.570638805
 30
0.0
 10
-1.3673549908
 20
1.5676921801
 30
0.0
 10
-1.2586191746
 20
1.5957848424
 30
0.0
 10
-1.1986241993
 20
1.6259356169
 30
0.0
 10
-1.1926729695
 20
1.6290858955
 30
0.0
 11
-1.514112911
 21
1.5759632243
 31
0.0
 11
-1.3849303006
 21
1.5732794121
 31
0.0
 11
-1.2107202908
 21
1.6200191878
 31
0.0
 11
-1.1926729695
 21
1.6290858955
 31
0.0
  0
SPLINE
  5
279
100
AcDbEntity
  8
ASSI
100
AcDbSpline
 62
7
  6
CONTINUOUS
 70
0
 71
3
 72
26
 73
22
 74
20
 42
0.0000001
 43
0.0000001
 44
0.0000000001
 12
-5.4924188562
 22
2.7462094281
 32
0.0
 13
5.4924188562
 23
-2.7462094281
 33
0.0
 40
0.0
 40
0.0
 40
0.0
 40
0.0
 40
0.05293166
 40
0.1097804637
 40
0.1699669753
 40
0.2325120521
 40
0.2966483843
 40
0.3610410885
 40
0.4249025715
 40
0.4868204967
 40
0.5461736132
 40
0.601803194
 40
0.6535433549
 40
0.7009654854
 40
0.7447108065
 40
0.785457976
 40
0.8248708045
 40
0.8645297783
 40
0.9062455542
 40
0.9511611582
 40
1.0
 40
1.0
 40
1.0
 40
1.0
 10
-2.1266302663
 20
0.5584974524
 30
0.0
 10
-2.2235378821
 20
0.6069512603
 30
0.0
 10
-2.4164838082
 20
0.7239965864
 30
0.0
 10
-2.6876523743
 20
0.9433014556
 30
0.0
 10
-2.9445880554
 20
1.2073005147
 30
0.0
 10
-3.180545191
 20
1.5092327923
 30
0.0
 10
-3.3889854892
 20
1.8409574627
 30
0.0
 10
-3.5644927667
 20
2.1942217357
 30
0.0
 10
-3.7019213399
 20
2.5591558545
 30
0.0
 10
-3.7975858184
 20
2.9266050006
 30
0.0
 10
-3.848527471
 20
3.2859810398
 30
0.0
 10
-3.8532588283
 20
3.6282515146
 30
0.0
 10
-3.8114220809
 20
3.943645974
 30
0.0
 10
-3.7235769572
 20
4.2244275959
 30
0.0
 10
-3.5914255491
 20
4.4624300366
 30
0.0
 10
-3.41733678
 20
4.6506396559
 30
0.0
 10
-3.206379952
 20
4.7817285732
 30
0.0
 10
-2.9659283209
 20
4.8509466469
 30
0.0
 10
-2.7049819377
 20
4.8570503128
 30
0.0
 10
-2.4313556607
 20
4.8016895123
 30
0.0
 10
-2.2526674367
 20
4.7287219486
 30
0.0
 10
-2.163252978
 20
4.6840147193
 30
0.0
 11
-2.1266302663
 21
0.5584974524
 31
0.0
 11
-2.4054610706
 21
0.7255396628
 31
0.0
 11
-2.6777803544
 21
0.9439600891
 31
0.0
 11
-2.9362532117
 21
1.2081324768
 31
0.0
 11
-3.173230552
 21
1.5103781661
 31
0.0
 11
-3.3829885146
 21
1.8437153115
 31
0.0
 11
-3.5588479399
 21
2.1978735443
 31
0.0
 11
-3.6966491279
 21
2.5650197076
 31
0.0
 11
-3.7916789522
 21
2.9331727238
 31
0.0
 11
-3.8416465465
 21
3.2942016187
 31
0.0
 11
-3.8447612314
 21
3.6357925955
 31
0.0
 11
-3.8009568128
 21
3.9504798116
 31
0.0
 11
-3.7117681914
 21
4.2276910836
 31
0.0
 11
-3.5792895801
 21
4.4613790873
 31
0.0
 11
-3.4080962544
 21
4.6438652166
 31
0.0
 11
-3.2022936062
 21
4.7712241578
 31
0.0
 11
-2.9685626719
 21
4.8396259346
 31
0.0
 11
-2.7125259279
 21
4.8477159468
 31
0.0
 11
-2.4417310094
 21
4.7953391189
 31
0.0
 11
-2.163252978
 21
4.6840147193
 31
0.0
  0
SPLINE
  5
27A
100
AcDbEntity
  8
RACCORDO
100
AcDbSpline
 62
253
  6
CONTINUOUS
 70
0
 71
3
 72
13
 73
9
 74
7
 42
0.0000001
 43
0.0000001
 44
0.0000000001
 12
0.0237005162
 22
-0.7022873817
 32
0.0
 13
0.6783415113
 23
0.1833632327
 33
0.0
 40
0.0
 40
0.0
 40
0.0
 40
0.0
 40
0.1946677134
 40
0.3699588267
 40
0.5285926496
 40
0.6790968263
 40
0.8330968665
 40
1.0
 40
1.0
 40
1.0
 40
1.0
 10
6.8734986759
 20
-12.1141809065
 30
0.0
 10
6.8750365843
 20
-12.1597517994
 30
0.0
 10
6.8858188498
 20
-12.2464801709
 30
0.0
 10
6.9298547988
 20
-12.3636942561
 30
0.0
 10
7.000412894
 20
-12.4552038567
 30
0.0
 10
7.0947999344
 20
-12.5136503539
 30
0.0
 10
7.2056141486
 20
-12.5340396314
 30
0.0
 10
7.2812232364
 20
-12.5231680009
 30
0.0
 10
7.3189623443
 20
-12.5129667015
 30
0.0
 11
6.8734986759
 21
-12.1141809065
 31
0.0
 11
6.8919316222
 21
-12.249723776
 31
0.0
 11
6.9369792419
 21
-12.3643656009
 31
0.0
 11
7.0063303111
 21
-12.451635183
 31
0.0
 11
7.0964137549
 21
-12.5070390781
 31
0.0
 11
7.2026210879
 21
-12.5277813245
 31
0.0
 11
7.3189623443
 21
-12.5129667015
 31
0.0
  0
LINE
  5
27B
100
AcDbEntity
  8
RACCORDO
100
AcDbLine
 62
253
  6
CONTINUOUS
 10
-10.384341492
 20
-3.6674050742
 11
-10.3872790698
 21
-3.5764366109
  0
SPLINE
  5
27C
100
AcDbEntity
  8
RACCORDO
100
AcDbSpline
 62
253
  6
CONTINUOUS
 70
0
 71
3
 72
12
 73
8
 74
6
 42
0.0000001
 43
0.0000001
 44
0.0000000001
 12
-0.0053497267
 22
0.3664563861
 32
0.0
 13
-0.3254083925
 23
0.1686068818
 33
0.0
 40
0.0
 40
0.0
 40
0.0
 40
0.0
 40
0.1955839747
 40
0.4065111841
 40
0.6196376798
 40
0.8218553915
 40
1.0
 40
1.0
 40
1.0
 40
1.0
 10
6.6330303303
 20
1.890842557
 30
0.0
 10
6.6326815567
 20
1.9147335559
 30
0.0
 10
6.6254448751
 20
1.9643680134
 30
0.0
 10
6.5998579893
 20
2.0360291567
 30
0.0
 10
6.5612799887
 20
2.1026291819
 30
0.0
 10
6.5135193245
 20
2.157749506
 30
0.0
 10
6.4756038092
 20
2.185678683
 30
0.0
 10
6.456280559
 20
2.1956908187
 30
0.0
 11
6.6330303303
 21
1.890842557
 31
0.0
 11
6.6235074531
 21
1.9618878105
 31
0.0
 11
6.597818348
 21
2.0347984166
 31
0.0
 11
6.5585438126
 21
2.1023163058
 31
0.0
 11
6.5095170185
 21
2.1578945607
 31
0.0
 11
6.456280559
 21
2.1956908187
 31
0.0
  0
SPLINE
  5
27D
100
AcDbEntity
  8
RACCORDO
100
AcDbSpline
 62
253
  6
CONTINUOUS
 70
0
 71
3
 72
12
 73
8
 74
6
 42
0.0000001
 43
0.0000001
 44
0.0000000001
 12
-0.0003856599
 22
0.3643136515
 32
0.0
 13
0.3230429735
 23
0.1684274998
 33
0.0
 40
0.0
 40
0.0
 40
0.0
 40
0.0
 40
0.1954109409
 40
0.4054784998
 40
0.6178639365
 40
0.8202454909
 40
1.0
 40
1.0
 40
1.0
 40
1.0
 10
-10.616698181
 20
10.3417348914
 30
0.0
 10
-10.6167233018
 20
10.3654651826
 30
0.0
 10
-10.6102624455
 20
10.41479335
 30
0.0
 10
-10.5856049414
 20
10.4860950323
 30
0.0
 10
-10.5477031405
 20
10.5523745237
 30
0.0
 10
-10.5002281021
 20
10.6073603275
 30
0.0
 10
-10.4623629566
 20
10.6352426371
 30
0.0
 10
-10.4430068129
 20
10.6453345046
 30
0.0
 11
-10.616698181
 21
10.3417348914
 31
0.0
 11
-10.608238284
 21
10.4124213561
 31
0.0
 11
-10.583529816
 21
10.4848534792
 31
0.0
 11
-10.5450087541
 21
10.5519579634
 31
0.0
 11
-10.4963596977
 21
10.6073605071
 31
0.0
 11
-10.4430068129
 21
10.6453345046
 31
0.0
  0
SPLINE
  5
27E
100
AcDbEntity
  8
RACCORDO
100
AcDbSpline
 62
253
  6
CONTINUOUS
 70
0
 71
3
 72
12
 73
8
 74
6
 42
0.0000001
 43
0.0000001
 44
0.0000000001
 12
-0.0003856587
 22
0.3643125473
 32
0.0
 13
0.3230419943
 23
0.1684269893
 33
0.0
 40
0.0
 40
0.0
 40
0.0
 40
0.0
 40
0.1947631165
 40
0.4040949088
 40
0.6160496428
 40
0.8181238454
 40
1.0
 40
1.0
 40
1.0
 40
1.0
 10
6.2825891908
 20
1.8920912055
 30
0.0
 10
6.2825641535
 20
1.9157427545
 30
0.0
 10
6.2889820981
 20
1.9649023505
 30
0.0
 10
6.3134984554
 20
2.0360153112
 30
0.0
 10
6.3512173617
 20
2.1021906982
 30
0.0
 10
6.3986887749
 20
2.1573919164
 30
0.0
 10
6.4366960137
 20
2.1854798676
 30
0.0
 10
6.456280559
 20
2.1956908187
 30
0.0
 11
6.2825891908
 21
1.8920912055
 31
0.0
 11
6.2909955199
 21
1.9625461643
 31
0.0
 11
6.3155485073
 21
2.034747828
 31
0.0
 11
6.353893528
 21
2.1017720768
 31
0.0
 11
6.4023533051
 21
2.1571913033
 31
0.0
 11
6.456280559
 21
2.1956908187
 31
0.0
  0
SPLINE
  5
27F
100
AcDbEntity
  8
RACCORDO
100
AcDbSpline
 62
253
  6
CONTINUOUS
 70
0
 71
3
 72
10
 73
6
 74
4
 42
0.0000001
 43
0.0000001
 44
0.0000000001
 12
-0.106624233
 22
0.0533150671
 32
0.0
 13
0.0002963801
 23
0.1185053347
 33
0.0
 40
0.0
 40
0.0
 40
0.0
 40
0.0
 40
0.5625436167
 40
0.9915901696
 40
1.0
 40
1.0
 40
1.0
 40
1.0
 10
-10.616698181
 20
10.3417348914
 30
0.0
 10
-10.6366917749
 20
10.3517322417
 30
0.0
 10
-10.670782968
 20
10.373366685
 30
0.0
 10
-10.689806672
 20
10.4124992683
 30
0.0
 10
-10.6899193772
 20
10.4297778513
 30
0.0
 10
-10.6899185464
 20
10.4301100546
 30
0.0
 11
-10.616698181
 21
10.3417348914
 31
0.0
 11
-10.6704717401
 21
10.3818051
 31
0.0
 11
-10.6899120099
 21
10.4291135701
 31
0.0
 11
-10.6899185464
 21
10.4301100546
 31
0.0
  0
SPLINE
  5
280
100
AcDbEntity
  8
RACCORDO
100
AcDbSpline
 62
253
  6
CONTINUOUS
 70
0
 71
3
 72
10
 73
6
 74
4
 42
0.0000001
 43
0.0000001
 44
0.0000000001
 12
-0.0264958835
 22
-0.1937282823
 32
0.0
 13
-0.191317782
 23
-0.0524592148
 33
0.0
 40
0.0
 40
0.0
 40
0.0
 40
0.0
 40
0.430683799
 40
0.8010691498
 40
1.0
 40
1.0
 40
1.0
 40
1.0
 10
7.3189623443
 20
-12.5129667015
 30
0.0
 10
7.3151585617
 20
-12.540778579
 30
0.0
 10
7.3006424263
 20
-12.5921089389
 30
0.0
 10
7.25797676
 20
-12.6448714864
 30
0.0
 10
7.2232359455
 20
-12.6607162935
 30
0.0
 10
7.2105496091
 20
-12.6641948789
 30
0.0
 11
7.3189623443
 21
-12.5129667015
 31
0.0
 11
7.2938664025
 21
-12.5933527535
 31
0.0
 11
7.246238304
 21
-12.6479103021
 31
0.0
 11
7.2105496091
 21
-12.6641948789
 31
0.0
  0
SPLINE
  5
281
100
AcDbEntity
  8
RACCORDO
100
AcDbSpline
 62
253
  6
CONTINUOUS
 70
0
 71
3
 72
11
 73
7
 74
5
 42
0.0000001
 43
0.0000001
 44
0.0000000001
 12
-0.3186082903
 22
-0.1690650599
 32
0.0
 13
-0.3227128788
 23
0.1610920079
 33
0.0
 40
0.0
 40
0.0
 40
0.0
 40
0.0
 40
0.2388435752
 40
0.503579771
 40
0.7663858709
 40
1.0
 40
1.0
 40
1.0
 40
1.0
 10
6.8734986758
 20
-12.1141809064
 30
0.0
 10
6.8481328281
 20
-12.1276409409
 30
0.0
 10
6.7900911825
 20
-12.1474671389
 30
0.0
 10
6.6980469295
 20
-12.1583128036
 30
0.0
 10
6.6062710555
 20
-12.1512695947
 30
0.0
 10
6.5483330501
 20
-12.1337151342
 30
0.0
 10
6.523202954
 20
-12.1211706778
 30
0.0
 11
6.8734986758
 21
-12.1141809064
 31
0.0
 11
6.792526825
 21
-12.1435909083
 31
0.0
 11
6.6977523419
 21
-12.1552307073
 31
0.0
 11
6.6032886664
 21
-12.1473669504
 31
0.0
 11
6.523202954
 21
-12.1211706778
 31
0.0
  0
SPLINE
  5
282
100
AcDbEntity
  8
RACCORDO
100
AcDbSpline
 62
253
  6
CONTINUOUS
 70
0
 71
3
 72
11
 73
7
 74
5
 42
0.0000001
 43
0.0000001
 44
0.0000000001
 12
-0.32390209
 22
-0.1568996968
 32
0.0
 13
-0.3219104798
 23
0.1609463318
 33
0.0
 40
0.0
 40
0.0
 40
0.0
 40
0.0
 40
0.2366865908
 40
0.5013293953
 40
0.7652575898
 40
1.0
 40
1.0
 40
1.0
 40
1.0
 10
6.6330303303
 20
1.890842557
 30
0.0
 10
6.6074759032
 20
1.8784638723
 30
0.0
 10
6.5491848461
 20
1.8608407274
 30
0.0
 10
6.4572596447
 20
1.8526160912
 30
0.0
 10
6.3656279444
 20
1.8614474422
 30
0.0
 10
6.3077778715
 20
1.8794975622
 30
0.0
 10
6.2825891908
 20
1.8920912055
 30
0.0
 11
6.6330303303
 21
1.890842557
 31
0.0
 11
6.5520051563
 21
1.8645506111
 31
0.0
 11
6.4571842116
 21
1.8555654594
 31
0.0
 11
6.3626881362
 21
1.8652251618
 31
0.0
 11
6.2825891908
 21
1.8920912055
 31
0.0
  0
SPLINE
  5
283
100
AcDbEntity
  8
RACCORDO
100
AcDbSpline
 62
253
  6
CONTINUOUS
 70
0
 71
3
 72
11
 73
7
 74
5
 42
0.0000001
 43
0.0000001
 44
0.0000000001
 12
0.0200459472
 22
-0.5985134096
 32
0.0
 13
0.5380190625
 23
-0.2700631156
 33
0.0
 40
0.0
 40
0.0
 40
0.0
 40
0.0
 40
0.3052473617
 40
0.5786387071
 40
0.8256884635
 40
1.0
 40
1.0
 40
1.0
 40
1.0
 10
6.5231966435
 20
-12.1211741419
 30
0.0
 10
6.525236301
 20
-12.182072355
 30
0.0
 10
6.5395825603
 20
-12.2976797975
 30
0.0
 10
6.5980757099
 20
-12.4537506637
 30
0.0
 10
6.6841549129
 20
-12.5657128429
 30
0.0
 10
6.7546898724
 20
-12.613919705
 30
0.0
 10
6.7859508489
 20
-12.6296114106
 30
0.0
 11
6.5231966435
 21
-12.1211741419
 31
0.0
 11
6.54778739
 21
-12.3023096387
 31
0.0
 11
6.6075615973
 21
-12.454727904
 31
0.0
 11
6.6994678421
 21
-12.5706637225
 31
0.0
 11
6.7859508489
 21
-12.6296114106
 31
0.0
  0
SPLINE
  5
284
100
AcDbEntity
  8
ASSI
100
AcDbSpline
 62
7
  6
CONTINUOUS
 70
0
 71
3
 72
26
 73
22
 74
20
 42
0.0000001
 43
0.0000001
 44
0.0000000001
 12
5.483496821
 22
-2.7417484105
 32
0.0
 13
-5.483496821
 23
2.7417484105
 33
0.0
 40
0.0
 40
0.0
 40
0.0
 40
0.0
 40
0.0529930204
 40
0.1098790089
 40
0.1701015286
 40
0.2326992153
 40
0.2969155191
 40
0.3614173052
 40
0.4254109429
 40
0.4874688636
 40
0.5469497834
 40
0.6026699529
 40
0.6544403029
 40
0.7018143712
 40
0.7454287372
 40
0.7859796708
 40
0.8251709347
 40
0.8646370244
 40
0.9062305836
 40
0.9511124952
 40
1.0
 40
1.0
 40
1.0
 40
1.0
 10
-2.163252978
 20
4.6840147193
 30
0.0
 10
-2.066390625
 20
4.6355835427
 30
0.0
 10
-1.8736572807
 20
4.5184663893
 30
0.0
 10
-1.6031916683
 20
4.2987267723
 30
0.0
 10
-1.3473859857
 20
4.0340869074
 30
0.0
 10
-1.1128626148
 20
3.7313810445
 30
0.0
 10
-0.9060003444
 20
3.3988353232
 30
0.0
 10
-0.7320443625
 20
3.0447910581
 30
0.0
 10
-0.5959674842
 20
2.6792050145
 30
0.0
 10
-0.5013058456
 20
2.3113038269
 30
0.0
 10
-0.4509006936
 20
1.9517272769
 30
0.0
 10
-0.446172666
 20
1.6095274839
 30
0.0
 10
-0.4874691891
 20
1.2944573933
 30
0.0
 10
-0.5742858467
 20
1.0141953256
 30
0.0
 10
-0.7050581219
 20
0.7768184244
 30
0.0
 10
-0.8776302511
 20
0.5892773361
 30
0.0
 10
-1.0871330709
 20
0.4589132947
 30
0.0
 10
-1.3262661004
 20
0.3904656869
 30
0.0
 10
-1.586087511
 20
0.385034954
 30
0.0
 10
-1.8589211872
 20
0.440823225
 30
0.0
 10
-2.0372721072
 20
0.5138183728
 30
0.0
 10
-2.1266302663
 20
0.5584974524
 30
0.0
 11
-2.163252978
 21
4.6840147193
 31
0.0
 11
-1.8846778802
 21
4.5168412658
 31
0.0
 11
-1.6130992824
 21
4.2980406773
 31
0.0
 11
-1.3557743354
 21
4.0332791168
 31
0.0
 11
-1.120226338
 21
3.7302998075
 31
0.0
 11
-0.912030384
 21
3.3961609504
 31
0.0
 11
-0.7376909552
 21
3.0412225691
 31
0.0
 11
-0.6012094473
 21
2.6733990709
 31
0.0
 11
-0.5071477276
 21
2.3047491685
 31
0.0
 11
-0.4576946957
 21
1.9434561709
 31
0.0
 11
-0.4545809295
 21
1.6018647226
 31
0.0
 11
-0.4978725485
 21
1.2874407044
 31
0.0
 11
-0.5860940672
 21
1.0107258044
 31
0.0
 11
-0.7172525774
 21
0.7777153516
 31
0.0
 11
-0.8869247066
 21
0.5960099868
 31
0.0
 11
-1.091164082
 21
0.4694534061
 31
0.0
 11
-1.3234652603
 21
0.4017854613
 31
0.0
 11
-1.5783540414
 21
0.3942846489
 31
0.0
 11
-1.848408203
 21
0.4470416755
 31
0.0
 11
-2.1266302663
 21
0.5584974524
 31
0.0
  0
SPLINE
  5
285
100
AcDbEntity
  8
RACCORDO
100
AcDbSpline
 62
253
  6
CONTINUOUS
 70
0
 71
3
 72
11
 73
7
 74
5
 42
0.0000001
 43
0.0000001
 44
0.0000000001
 12
-0.5103196966
 22
0.2801319041
 32
0.0
 13
-0.0188799511
 23
0.5784902802
 33
0.0
 40
0.0
 40
0.0
 40
0.0
 40
0.0
 40
0.152757765
 40
0.4042158684
 40
0.6848683057
 40
1.0
 40
1.0
 40
1.0
 40
1.0
 10
-10.1403796589
 20
-4.1661383379
 30
0.0
 10
-10.1663647576
 20
-4.1518742301
 30
0.0
 10
-10.2306910837
 20
-4.1058732636
 30
0.0
 10
-10.311704587
 20
-3.9984069269
 30
0.0
 10
-10.3684739591
 20
-3.8432217461
 30
0.0
 10
-10.3823582683
 20
-3.7281719482
 30
0.0
 10
-10.384341492
 20
-3.6674050742
 30
0.0
 11
-10.1403796589
 21
-4.1661383379
 31
0.0
 11
-10.2126259502
 21
-4.1146168264
 31
0.0
 11
-10.3021568398
 21
-3.9998686855
 31
0.0
 11
-10.3603862279
 21
-3.8482228298
 31
0.0
 11
-10.384341492
 21
-3.6674050742
 31
0.0
  0
SPLINE
  5
286
100
AcDbEntity
  8
RACCORDO
100
AcDbSpline
 62
253
  6
CONTINUOUS
 70
0
 71
3
 72
10
 73
6
 74
4
 42
0.0000001
 43
0.0000001
 44
0.0000000001
 12
0.1056673508
 22
0.0577633496
 32
0.0
 13
0.1075013196
 23
-0.0518675463
 33
0.0
 40
0.0
 40
0.0
 40
0.0
 40
0.0
 40
0.0964758944
 40
0.516119714
 40
1.0
 40
1.0
 40
1.0
 40
1.0
 10
-10.5586000339
 20
10.6503735283
 30
0.0
 10
-10.5552019165
 20
10.6522311186
 30
0.0
 10
-10.5364483099
 20
10.6610478074
 30
0.0
 10
-10.495288814
 20
10.6651678919
 30
0.0
 10
-10.4603460693
 20
10.653700399
 30
0.0
 10
-10.4430068129
 20
10.6453345046
 30
0.0
 11
-10.5586000339
 21
10.6503735283
 31
0.0
 11
-10.5481038748
 21
10.655293481
 31
0.0
 11
-10.4984172206
 21
10.6616264885
 31
0.0
 11
-10.4430068129
 21
10.6453345046
 31
0.0
  0
SPLINE
  5
287
100
AcDbEntity
  8
RACCORDO
100
AcDbSpline
 62
253
  6
CONTINUOUS
 70
0
 71
3
 72
9
 73
5
 74
3
 42
0.0000001
 43
0.0000001
 44
0.0000000001
 12
0.0042467378
 22
-0.1188405274
 32
0.0
 13
0.1066391998
 23
-0.0534070673
 33
0.0
 40
0.0
 40
0.0
 40
0.0
 40
0.0
 40
0.4342551378
 40
1.0
 40
1.0
 40
1.0
 40
1.0
 10
-10.4575705326
 20
-3.5785891257
 30
0.0
 10
-10.45695581
 20
-3.5957914955
 30
0.0
 10
-10.4387873918
 20
-3.6350052262
 30
0.0
 10
-10.4044516849
 20
-3.6573334828
 30
0.0
 10
-10.3843414918
 20
-3.6674050741
 30
0.0
 11
-10.4575705326
 21
-3.5785891257
 31
0.0
 11
-10.4381275648
 21
-3.6266648026
 31
0.0
 11
-10.3843414918
 21
-3.6674050741
 31
0.0
  0
SPLINE
  5
288
100
AcDbEntity
  8
ASSI
100
AcDbSpline
 62
7
  6
CONTINUOUS
 70
0
 71
3
 72
18
 73
14
 74
12
 42
0.0000001
 43
0.0000001
 44
0.0000000001
 12
2.4354104948
 22
1.2891825476
 32
0.0
 13
-2.4531275979
 23
1.226563799
 33
0.0
 40
0.0
 40
0.0
 40
0.0
 40
0.0
 40
0.0586239422
 40
0.1287369961
 40
0.2076364478
 40
0.2955840785
 40
0.3921028696
 40
0.4955278479
 40
0.6017212965
 40
0.7091477205
 40
0.8125165559
 40
0.9106444314
 40
1.0
 40
1.0
 40
1.0
 40
1.0
 10
-1.1926729695
 20
1.6290858955
 30
0.0
 10
-1.1450818481
 20
1.6542782166
 30
0.0
 10
-1.0498099564
 20
1.7273509099
 30
0.0
 10
-0.9435817098
 20
1.888496571
 30
0.0
 10
-0.8789350214
 20
2.0976253764
 30
0.0
 10
-0.860133873
 20
2.3392372402
 30
0.0
 10
-0.8870745367
 20
2.6022504084
 30
0.0
 10
-0.9581941005
 20
2.8739707044
 30
0.0
 10
-1.0701572639
 20
3.1422837112
 30
0.0
 10
-1.2170755887
 20
3.393116098
 30
0.0
 10
-1.3926442439
 20
3.6155960961
 30
0.0
 10
-1.5875664456
 20
3.7979958737
 30
0.0
 10
-1.7323554148
 20
3.8921680489
 30
0.0
 10
-1.8054222852
 20
3.9287014841
 30
0.0
 11
-1.1926729695
 21
1.6290858955
 31
0.0
 11
-1.0644110193
 21
1.7263952185
 31
0.0
 11
-0.9559544491
 21
1.8851893224
 31
0.0
 11
-0.8889188948
 21
2.0909402443
 31
0.0
 11
-0.8676629225
 21
2.3312140761
 31
0.0
 11
-0.8928921966
 21
2.5947292513
 31
0.0
 11
-0.9637170209
 21
2.8694068087
 31
0.0
 11
-1.0755464632
 21
3.1383369996
 31
0.0
 11
-1.2246960845
 21
3.3924333291
 31
0.0
 11
-1.4010238527
 21
3.6144358077
 31
0.0
 11
-1.5986892568
 21
3.7970861736
 31
0.0
 11
-1.8054222852
 21
3.9287014841
 31
0.0
  0
SPLINE
  5
289
100
AcDbEntity
  8
ASSI
100
AcDbSpline
 62
7
  6
CONTINUOUS
 70
0
 71
3
 72
10
 73
6
 74
4
 42
0.0000001
 43
0.0000001
 44
0.0000000001
 12
-0.5326592145
 22
0.2663296072
 32
0.0
 13
-0.5408030121
 23
-0.2556892649
 33
0.0
 40
0.0
 40
0.0
 40
0.0
 40
0.0
 40
0.3685097703
 40
0.699068691
 40
1.0
 40
1.0
 40
1.0
 40
1.0
 10
-1.8054222852
 20
3.9287014841
 30
0.0
 10
-1.8708523268
 20
3.9614165049
 30
0.0
 10
-2.0020324908
 20
4.0112222792
 30
0.0
 10
-2.2028231486
 20
4.0292850941
 30
0.0
 10
-2.3269526265
 20
3.9973512589
 30
0.0
 10
-2.3812008126
 20
3.9717029571
 30
0.0
 11
-1.8054222852
 21
3.9287014841
 31
0.0
 11
-2.0117066582
 21
4.0035949006
 31
0.0
 11
-2.208041079
 21
4.0179446218
 31
0.0
 11
-2.3812008126
 21
3.9717029571
 31
0.0
  0
SPLINE
  5
28A
100
AcDbEntity
  8
ASSI
100
AcDbSpline
 62
253
  6
CONTINUOUS
 70
0
 71
3
 72
9
 73
5
 74
3
 42
0.0000001
 43
0.0000001
 44
0.0000000001
 12
0.0042467392
 22
-0.1188405266
 32
0.0
 13
0.1066391991
 23
-0.053407067
 33
0.0
 40
0.0
 40
0.0
 40
0.0
 40
0.0
 40
0.4342551344
 40
1.0
 40
1.0
 40
1.0
 40
1.0
 10
-10.4575705326
 20
-3.5785891264
 30
0.0
 10
-10.4569558098
 20
-3.595791496
 30
0.0
 10
-10.4387873916
 20
-3.6350052263
 30
0.0
 10
-10.4044516849
 20
-3.6573334828
 30
0.0
 10
-10.3843414918
 20
-3.6674050741
 30
0.0
 11
-10.4575705326
 21
-3.5785891264
 31
0.0
 11
-10.4381275648
 21
-3.6266648026
 31
0.0
 11
-10.3843414918
 21
-3.6674050741
 31
0.0
  0
SPLINE
  5
28B
100
AcDbEntity
  8
ASSI
100
AcDbSpline
 62
7
  6
CONTINUOUS
 70
0
 71
3
 72
8
 73
4
 74
2
 42
0.0000001
 43
0.0000001
 44
0.0000000001
 12
-0.1653081207
 22
-0.0781569461
 32
0.0
 13
-0.1266407475
 23
-0.1319256529
 33
0.0
 40
0.0
 40
0.0
 40
0.0
 40
0.0
 40
1.0
 40
1.0
 40
1.0
 40
1.0
 10
-2.3812008126
 20
3.9717029571
 30
0.0
 10
-2.4363035195
 20
3.9456506418
 30
0.0
 10
-2.4863348508
 20
3.9088099755
 30
0.0
 10
-2.5285484334
 20
3.8648347578
 30
0.0
 11
-2.3812008126
 21
3.9717029571
 31
0.0
 11
-2.5285484334
 21
3.8648347578
 31
0.0
  0
SPLINE
  5
28C
100
AcDbEntity
  8
ASSI
100
AcDbSpline
 62
7
  6
CONTINUOUS
 70
0
 71
3
 72
8
 73
4
 74
2
 42
0.0000001
 43
0.0000001
 44
0.0000000001
 12
-0.0876916167
 22
-0.0913511174
 32
0.0
 13
-0.0659160991
 23
-0.1081160153
 33
0.0
 40
0.0
 40
0.0
 40
0.0
 40
0.0
 40
1.0
 40
1.0
 40
1.0
 40
1.0
 10
-2.5285484334
 20
3.8648347578
 30
0.0
 10
-2.5577789723
 20
3.8343843854
 30
0.0
 10
-2.5832611014
 20
3.8005132296
 30
0.0
 10
-2.6052331345
 20
3.7644745578
 30
0.0
 11
-2.5285484334
 21
3.8648347578
 31
0.0
 11
-2.6052331345
 21
3.7644745578
 31
0.0
  0
SPLINE
  5
28D
100
AcDbEntity
  8
ASSI
100
AcDbSpline
 62
7
  6
CONTINUOUS
 70
0
 71
3
 72
9
 73
5
 74
3
 42
0.0000001
 43
0.0000001
 44
0.0000000001
 12
-0.0393157115
 22
-0.0644858863
 32
0.0
 13
-0.0319772713
 23
-0.0683203875
 33
0.0
 40
0.0
 40
0.0
 40
0.0
 40
0.0
 40
0.8810900114
 40
1.0
 40
1.0
 40
1.0
 40
1.0
 10
-2.6052331345
 20
3.7644745578
 30
0.0
 10
-2.616780028
 20
3.7455352677
 30
0.0
 10
-2.6287850223
 20
3.7233605624
 30
0.0
 10
-2.6395858419
 20
3.7006490639
 30
0.0
 10
-2.6408533143
 20
3.6979410717
 30
0.0
 11
-2.6052331345
 21
3.7644745578
 31
0.0
 11
-2.6370001647
 21
3.7060427219
 31
0.0
 11
-2.6408533143
 21
3.6979410717
 31
0.0
  0
SPLINE
  5
28E
100
AcDbEntity
  8
ASSI
100
AcDbSpline
 62
7
  6
CONTINUOUS
 70
0
 71
3
 72
10
 73
6
 74
4
 42
0.0000001
 43
0.0000001
 44
0.0000000001
 12
0.3283788021
 22
-0.0408010067
 32
0.0
 13
0.2925471435
 23
0.1548595904
 33
0.0
 40
0.0
 40
0.0
 40
0.0
 40
0.0
 40
0.3914917532
 40
0.9389715821
 40
1.0
 40
1.0
 40
1.0
 40
1.0
 10
-1.514112911
 20
1.5759632243
 30
0.0
 10
-1.47126038
 20
1.570638805
 30
0.0
 10
-1.3673549908
 20
1.5676921801
 30
0.0
 10
-1.2586191746
 20
1.5957848424
 30
0.0
 10
-1.1986241993
 20
1.6259356169
 30
0.0
 10
-1.1926729695
 20
1.6290858955
 30
0.0
 11
-1.514112911
 21
1.5759632243
 31
0.0
 11
-1.3849303006
 21
1.5732794121
 31
0.0
 11
-1.2107202908
 21
1.6200191878
 31
0.0
 11
-1.1926729695
 21
1.6290858955
 31
0.0
  0
SPLINE
  5
28F
100
AcDbEntity
  8
ASSI
100
AcDbSpline
 62
7
  6
CONTINUOUS
 70
0
 71
3
 72
26
 73
22
 74
20
 42
0.0000001
 43
0.0000001
 44
0.0000000001
 12
-5.4924188562
 22
2.7462094281
 32
0.0
 13
5.4924188562
 23
-2.7462094281
 33
0.0
 40
0.0
 40
0.0
 40
0.0
 40
0.0
 40
0.05293166
 40
0.1097804637
 40
0.1699669753
 40
0.2325120521
 40
0.2966483843
 40
0.3610410885
 40
0.4249025715
 40
0.4868204967
 40
0.5461736132
 40
0.601803194
 40
0.6535433549
 40
0.7009654854
 40
0.7447108065
 40
0.785457976
 40
0.8248708045
 40
0.8645297783
 40
0.9062455542
 40
0.9511611582
 40
1.0
 40
1.0
 40
1.0
 40
1.0
 10
-2.1266302663
 20
0.5584974524
 30
0.0
 10
-2.2235378821
 20
0.6069512603
 30
0.0
 10
-2.4164838082
 20
0.7239965864
 30
0.0
 10
-2.6876523743
 20
0.9433014556
 30
0.0
 10
-2.9445880554
 20
1.2073005147
 30
0.0
 10
-3.180545191
 20
1.5092327923
 30
0.0
 10
-3.3889854892
 20
1.8409574627
 30
0.0
 10
-3.5644927667
 20
2.1942217357
 30
0.0
 10
-3.7019213399
 20
2.5591558545
 30
0.0
 10
-3.7975858184
 20
2.9266050006
 30
0.0
 10
-3.848527471
 20
3.2859810398
 30
0.0
 10
-3.8532588283
 20
3.6282515146
 30
0.0
 10
-3.8114220809
 20
3.943645974
 30
0.0
 10
-3.7235769572
 20
4.2244275959
 30
0.0
 10
-3.5914255491
 20
4.4624300366
 30
0.0
 10
-3.41733678
 20
4.6506396559
 30
0.0
 10
-3.206379952
 20
4.7817285732
 30
0.0
 10
-2.9659283209
 20
4.8509466469
 30
0.0
 10
-2.7049819377
 20
4.8570503128
 30
0.0
 10
-2.4313556607
 20
4.8016895123
 30
0.0
 10
-2.2526674367
 20
4.7287219486
 30
0.0
 10
-2.163252978
 20
4.6840147193
 30
0.0
 11
-2.1266302663
 21
0.5584974524
 31
0.0
 11
-2.4054610706
 21
0.7255396628
 31
0.0
 11
-2.6777803544
 21
0.9439600891
 31
0.0
 11
-2.9362532117
 21
1.2081324768
 31
0.0
 11
-3.173230552
 21
1.5103781661
 31
0.0
 11
-3.3829885146
 21
1.8437153115
 31
0.0
 11
-3.5588479399
 21
2.1978735443
 31
0.0
 11
-3.6966491279
 21
2.5650197076
 31
0.0
 11
-3.7916789522
 21
2.9331727238
 31
0.0
 11
-3.8416465465
 21
3.2942016187
 31
0.0
 11
-3.8447612314
 21
3.6357925955
 31
0.0
 11
-3.8009568128
 21
3.9504798116
 31
0.0
 11
-3.7117681914
 21
4.2276910836
 31
0.0
 11
-3.5792895801
 21
4.4613790873
 31
0.0
 11
-3.4080962544
 21
4.6438652166
 31
0.0
 11
-3.2022936062
 21
4.7712241578
 31
0.0
 11
-2.9685626719
 21
4.8396259346
 31
0.0
 11
-2.7125259279
 21
4.8477159468
 31
0.0
 11
-2.4417310094
 21
4.7953391189
 31
0.0
 11
-2.163252978
 21
4.6840147193
 31
0.0
  0
SPLINE
  5
290
100
AcDbEntity
  8
ASSI
100
AcDbSpline
 62
253
  6
CONTINUOUS
 70
0
 71
3
 72
13
 73
9
 74
7
 42
0.0000001
 43
0.0000001
 44
0.0000000001
 12
0.0237005162
 22
-0.7022873817
 32
0.0
 13
0.6783415113
 23
0.1833632327
 33
0.0
 40
0.0
 40
0.0
 40
0.0
 40
0.0
 40
0.1946677134
 40
0.3699588267
 40
0.5285926496
 40
0.6790968263
 40
0.8330968665
 40
1.0
 40
1.0
 40
1.0
 40
1.0
 10
6.8734986759
 20
-12.1141809065
 30
0.0
 10
6.8750365843
 20
-12.1597517994
 30
0.0
 10
6.8858188498
 20
-12.2464801709
 30
0.0
 10
6.9298547988
 20
-12.3636942561
 30
0.0
 10
7.000412894
 20
-12.4552038567
 30
0.0
 10
7.0947999344
 20
-12.5136503539
 30
0.0
 10
7.2056141486
 20
-12.5340396314
 30
0.0
 10
7.2812232364
 20
-12.5231680009
 30
0.0
 10
7.3189623443
 20
-12.5129667015
 30
0.0
 11
6.8734986759
 21
-12.1141809065
 31
0.0
 11
6.8919316222
 21
-12.249723776
 31
0.0
 11
6.9369792419
 21
-12.3643656009
 31
0.0
 11
7.0063303111
 21
-12.451635183
 31
0.0
 11
7.0964137549
 21
-12.5070390781
 31
0.0
 11
7.2026210879
 21
-12.5277813245
 31
0.0
 11
7.3189623443
 21
-12.5129667015
 31
0.0
  0
LINE
  5
291
100
AcDbEntity
  8
ASSI
100
AcDbLine
 62
253
  6
CONTINUOUS
 10
-10.384341492
 20
-3.6674050742
 11
-10.3872790698
 21
-3.5764366109
  0
SPLINE
  5
292
100
AcDbEntity
  8
ASSI
100
AcDbSpline
 62
253
  6
CONTINUOUS
 70
0
 71
3
 72
12
 73
8
 74
6
 42
0.0000001
 43
0.0000001
 44
0.0000000001
 12
-0.0053497267
 22
0.3664563861
 32
0.0
 13
-0.3254083925
 23
0.1686068818
 33
0.0
 40
0.0
 40
0.0
 40
0.0
 40
0.0
 40
0.1955839747
 40
0.4065111841
 40
0.6196376798
 40
0.8218553915
 40
1.0
 40
1.0
 40
1.0
 40
1.0
 10
6.6330303303
 20
1.890842557
 30
0.0
 10
6.6326815567
 20
1.9147335559
 30
0.0
 10
6.6254448751
 20
1.9643680134
 30
0.0
 10
6.5998579893
 20
2.0360291567
 30
0.0
 10
6.5612799887
 20
2.1026291819
 30
0.0
 10
6.5135193245
 20
2.157749506
 30
0.0
 10
6.4756038092
 20
2.185678683
 30
0.0
 10
6.456280559
 20
2.1956908187
 30
0.0
 11
6.6330303303
 21
1.890842557
 31
0.0
 11
6.6235074531
 21
1.9618878105
 31
0.0
 11
6.597818348
 21
2.0347984166
 31
0.0
 11
6.5585438126
 21
2.1023163058
 31
0.0
 11
6.5095170185
 21
2.1578945607
 31
0.0
 11
6.456280559
 21
2.1956908187
 31
0.0
  0
SPLINE
  5
293
100
AcDbEntity
  8
ASSI
100
AcDbSpline
 62
253
  6
CONTINUOUS
 70
0
 71
3
 72
12
 73
8
 74
6
 42
0.0000001
 43
0.0000001
 44
0.0000000001
 12
-0.0003856599
 22
0.3643136515
 32
0.0
 13
0.3230429735
 23
0.1684274998
 33
0.0
 40
0.0
 40
0.0
 40
0.0
 40
0.0
 40
0.1954109409
 40
0.4054784998
 40
0.6178639365
 40
0.8202454909
 40
1.0
 40
1.0
 40
1.0
 40
1.0
 10
-10.616698181
 20
10.3417348914
 30
0.0
 10
-10.6167233018
 20
10.3654651826
 30
0.0
 10
-10.6102624455
 20
10.41479335
 30
0.0
 10
-10.5856049414
 20
10.4860950323
 30
0.0
 10
-10.5477031405
 20
10.5523745237
 30
0.0
 10
-10.5002281021
 20
10.6073603275
 30
0.0
 10
-10.4623629566
 20
10.6352426371
 30
0.0
 10
-10.4430068129
 20
10.6453345046
 30
0.0
 11
-10.616698181
 21
10.3417348914
 31
0.0
 11
-10.608238284
 21
10.4124213561
 31
0.0
 11
-10.583529816
 21
10.4848534792
 31
0.0
 11
-10.5450087541
 21
10.5519579634
 31
0.0
 11
-10.4963596977
 21
10.6073605071
 31
0.0
 11
-10.4430068129
 21
10.6453345046
 31
0.0
  0
SPLINE
  5
294
100
AcDbEntity
  8
ASSI
100
AcDbSpline
 62
253
  6
CONTINUOUS
 70
0
 71
3
 72
12
 73
8
 74
6
 42
0.0000001
 43
0.0000001
 44
0.0000000001
 12
-0.0003856587
 22
0.3643125473
 32
0.0
 13
0.3230419943
 23
0.1684269893
 33
0.0
 40
0.0
 40
0.0
 40
0.0
 40
0.0
 40
0.1947631165
 40
0.4040949088
 40
0.6160496428
 40
0.8181238454
 40
1.0
 40
1.0
 40
1.0
 40
1.0
 10
6.2825891908
 20
1.8920912055
 30
0.0
 10
6.2825641535
 20
1.9157427545
 30
0.0
 10
6.2889820981
 20
1.9649023505
 30
0.0
 10
6.3134984554
 20
2.0360153112
 30
0.0
 10
6.3512173617
 20
2.1021906982
 30
0.0
 10
6.3986887749
 20
2.1573919164
 30
0.0
 10
6.4366960137
 20
2.1854798676
 30
0.0
 10
6.456280559
 20
2.1956908187
 30
0.0
 11
6.2825891908
 21
1.8920912055
 31
0.0
 11
6.2909955199
 21
1.9625461643
 31
0.0
 11
6.3155485073
 21
2.034747828
 31
0.0
 11
6.353893528
 21
2.1017720768
 31
0.0
 11
6.4023533051
 21
2.1571913033
 31
0.0
 11
6.456280559
 21
2.1956908187
 31
0.0
  0
SPLINE
  5
295
100
AcDbEntity
  8
ASSI
100
AcDbSpline
 62
253
  6
CONTINUOUS
 70
0
 71
3
 72
10
 73
6
 74
4
 42
0.0000001
 43
0.0000001
 44
0.0000000001
 12
-0.1066900264
 22
0.0533479656
 32
0.0
 13
0.0004535054
 23
0.1185801436
 33
0.0
 40
0.0
 40
0.0
 40
0.0
 40
0.0
 40
0.5621967081
 40
0.9909786772
 40
1.0
 40
1.0
 40
1.0
 40
1.0
 10
-10.616698181
 20
10.3417348914
 30
0.0
 10
-10.6366917749
 20
10.3517322417
 30
0.0
 10
-10.670782968
 20
10.373366685
 30
0.0
 10
-10.6898184107
 20
10.4125234154
 30
0.0
 10
-10.6899196788
 20
10.4298265967
 30
0.0
 10
-10.6899183151
 20
10.4301831799
 30
0.0
 11
-10.616698181
 21
10.3417348914
 31
0.0
 11
-10.6704717401
 21
10.3818051
 31
0.0
 11
-10.6899120099
 21
10.4291135701
 31
0.0
 11
-10.6899183151
 21
10.4301831799
 31
0.0
  0
SPLINE
  5
296
100
AcDbEntity
  8
ASSI
100
AcDbSpline
 62
253
  6
CONTINUOUS
 70
0
 71
3
 72
10
 73
6
 74
4
 42
0.0000001
 43
0.0000001
 44
0.0000000001
 12
-0.0264958835
 22
-0.1937282823
 32
0.0
 13
-0.191317782
 23
-0.0524592148
 33
0.0
 40
0.0
 40
0.0
 40
0.0
 40
0.0
 40
0.430683799
 40
0.8010691498
 40
1.0
 40
1.0
 40
1.0
 40
1.0
 10
7.3189623443
 20
-12.5129667015
 30
0.0
 10
7.3151585617
 20
-12.540778579
 30
0.0
 10
7.3006424263
 20
-12.5921089389
 30
0.0
 10
7.25797676
 20
-12.6448714864
 30
0.0
 10
7.2232359455
 20
-12.6607162935
 30
0.0
 10
7.2105496091
 20
-12.6641948789
 30
0.0
 11
7.3189623443
 21
-12.5129667015
 31
0.0
 11
7.2938664025
 21
-12.5933527535
 31
0.0
 11
7.246238304
 21
-12.6479103021
 31
0.0
 11
7.2105496091
 21
-12.6641948789
 31
0.0
  0
SPLINE
  5
297
100
AcDbEntity
  8
ASSI
100
AcDbSpline
 62
253
  6
CONTINUOUS
 70
0
 71
3
 72
11
 73
7
 74
5
 42
0.0000001
 43
0.0000001
 44
0.0000000001
 12
-0.3186082903
 22
-0.1690650599
 32
0.0
 13
-0.3227128788
 23
0.1610920079
 33
0.0
 40
0.0
 40
0.0
 40
0.0
 40
0.0
 40
0.2388435752
 40
0.503579771
 40
0.7663858709
 40
1.0
 40
1.0
 40
1.0
 40
1.0
 10
6.8734986758
 20
-12.1141809064
 30
0.0
 10
6.8481328281
 20
-12.1276409409
 30
0.0
 10
6.7900911825
 20
-12.1474671389
 30
0.0
 10
6.6980469295
 20
-12.1583128036
 30
0.0
 10
6.6062710555
 20
-12.1512695947
 30
0.0
 10
6.5483330501
 20
-12.1337151342
 30
0.0
 10
6.523202954
 20
-12.1211706778
 30
0.0
 11
6.8734986758
 21
-12.1141809064
 31
0.0
 11
6.792526825
 21
-12.1435909083
 31
0.0
 11
6.6977523419
 21
-12.1552307073
 31
0.0
 11
6.6032886664
 21
-12.1473669504
 31
0.0
 11
6.523202954
 21
-12.1211706778
 31
0.0
  0
SPLINE
  5
298
100
AcDbEntity
  8
ASSI
100
AcDbSpline
 62
253
  6
CONTINUOUS
 70
0
 71
3
 72
11
 73
7
 74
5
 42
0.0000001
 43
0.0000001
 44
0.0000000001
 12
-0.32390209
 22
-0.1568996968
 32
0.0
 13
-0.3219104798
 23
0.1609463318
 33
0.0
 40
0.0
 40
0.0
 40
0.0
 40
0.0
 40
0.2366865908
 40
0.5013293953
 40
0.7652575898
 40
1.0
 40
1.0
 40
1.0
 40
1.0
 10
6.6330303303
 20
1.890842557
 30
0.0
 10
6.6074759032
 20
1.8784638723
 30
0.0
 10
6.5491848461
 20
1.8608407274
 30
0.0
 10
6.4572596447
 20
1.8526160912
 30
0.0
 10
6.3656279444
 20
1.8614474422
 30
0.0
 10
6.3077778715
 20
1.8794975622
 30
0.0
 10
6.2825891908
 20
1.8920912055
 30
0.0
 11
6.6330303303
 21
1.890842557
 31
0.0
 11
6.5520051563
 21
1.8645506111
 31
0.0
 11
6.4571842116
 21
1.8555654594
 31
0.0
 11
6.3626881362
 21
1.8652251618
 31
0.0
 11
6.2825891908
 21
1.8920912055
 31
0.0
  0
SPLINE
  5
299
100
AcDbEntity
  8
ASSI
100
AcDbSpline
 62
253
  6
CONTINUOUS
 70
0
 71
3
 72
11
 73
7
 74
5
 42
0.0000001
 43
0.0000001
 44
0.0000000001
 12
0.019995042
 22
-0.5969935292
 32
0.0
 13
0.5356077716
 23
-0.2715003034
 33
0.0
 40
0.0
 40
0.0
 40
0.0
 40
0.0
 40
0.3060244882
 40
0.5801118581
 40
0.8277905762
 40
1.0
 40
1.0
 40
1.0
 40
1.0
 10
6.5231966435
 20
-12.1211741419
 30
0.0
 10
6.525236301
 20
-12.182072355
 30
0.0
 10
6.5395825603
 20
-12.2976797975
 30
0.0
 10
6.5980757099
 20
-12.4537506637
 30
0.0
 10
6.6838402805
 20
-12.5653036043
 30
0.0
 10
6.7538403495
 20
-12.6133379312
 30
0.0
 10
6.7845859181
 20
-12.6289229015
 30
0.0
 11
6.5231966435
 21
-12.1211741419
 31
0.0
 11
6.54778739
 21
-12.3023096387
 31
0.0
 11
6.6075615973
 21
-12.454727904
 31
0.0
 11
6.6994678421
 21
-12.5706637225
 31
0.0
 11
6.7845859181
 21
-12.6289229015
 31
0.0
  0
SPLINE
  5
29A
100
AcDbEntity
  8
ASSI
100
AcDbSpline
 62
7
  6
CONTINUOUS
 70
0
 71
3
 72
26
 73
22
 74
20
 42
0.0000001
 43
0.0000001
 44
0.0000000001
 12
5.483496821
 22
-2.7417484105
 32
0.0
 13
-5.483496821
 23
2.7417484105
 33
0.0
 40
0.0
 40
0.0
 40
0.0
 40
0.0
 40
0.0529930204
 40
0.1098790089
 40
0.1701015286
 40
0.2326992153
 40
0.2969155191
 40
0.3614173052
 40
0.4254109429
 40
0.4874688636
 40
0.5469497834
 40
0.6026699529
 40
0.6544403029
 40
0.7018143712
 40
0.7454287372
 40
0.7859796708
 40
0.8251709347
 40
0.8646370244
 40
0.9062305836
 40
0.9511124952
 40
1.0
 40
1.0
 40
1.0
 40
1.0
 10
-2.163252978
 20
4.6840147193
 30
0.0
 10
-2.066390625
 20
4.6355835427
 30
0.0
 10
-1.8736572807
 20
4.5184663893
 30
0.0
 10
-1.6031916683
 20
4.2987267723
 30
0.0
 10
-1.3473859857
 20
4.0340869074
 30
0.0
 10
-1.1128626148
 20
3.7313810445
 30
0.0
 10
-0.9060003444
 20
3.3988353232
 30
0.0
 10
-0.7320443625
 20
3.0447910581
 30
0.0
 10
-0.5959674842
 20
2.6792050145
 30
0.0
 10
-0.5013058456
 20
2.3113038269
 30
0.0
 10
-0.4509006936
 20
1.9517272769
 30
0.0
 10
-0.446172666
 20
1.6095274839
 30
0.0
 10
-0.4874691891
 20
1.2944573933
 30
0.0
 10
-0.5742858467
 20
1.0141953256
 30
0.0
 10
-0.7050581219
 20
0.7768184244
 30
0.0
 10
-0.8776302511
 20
0.5892773361
 30
0.0
 10
-1.0871330709
 20
0.4589132947
 30
0.0
 10
-1.3262661004
 20
0.3904656869
 30
0.0
 10
-1.586087511
 20
0.385034954
 30
0.0
 10
-1.8589211872
 20
0.440823225
 30
0.0
 10
-2.0372721072
 20
0.5138183728
 30
0.0
 10
-2.1266302663
 20
0.5584974524
 30
0.0
 11
-2.163252978
 21
4.6840147193
 31
0.0
 11
-1.8846778802
 21
4.5168412658
 31
0.0
 11
-1.6130992824
 21
4.2980406773
 31
0.0
 11
-1.3557743354
 21
4.0332791168
 31
0.0
 11
-1.120226338
 21
3.7302998075
 31
0.0
 11
-0.912030384
 21
3.3961609504
 31
0.0
 11
-0.7376909552
 21
3.0412225691
 31
0.0
 11
-0.6012094473
 21
2.6733990709
 31
0.0
 11
-0.5071477276
 21
2.3047491685
 31
0.0
 11
-0.4576946957
 21
1.9434561709
 31
0.0
 11
-0.4545809295
 21
1.6018647226
 31
0.0
 11
-0.4978725485
 21
1.2874407044
 31
0.0
 11
-0.5860940672
 21
1.0107258044
 31
0.0
 11
-0.7172525774
 21
0.7777153516
 31
0.0
 11
-0.8869247066
 21
0.5960099868
 31
0.0
 11
-1.091164082
 21
0.4694534061
 31
0.0
 11
-1.3234652603
 21
0.4017854613
 31
0.0
 11
-1.5783540414
 21
0.3942846489
 31
0.0
 11
-1.848408203
 21
0.4470416755
 31
0.0
 11
-2.1266302663
 21
0.5584974524
 31
0.0
  0
SPLINE
  5
29B
100
AcDbEntity
  8
ASSI
100
AcDbSpline
 62
253
  6
CONTINUOUS
 70
0
 71
3
 72
10
 73
6
 74
4
 42
0.0000001
 43
0.0000001
 44
0.0000000001
 12
0.1056673508
 22
0.0577633496
 32
0.0
 13
0.1075013196
 23
-0.0518675463
 33
0.0
 40
0.0
 40
0.0
 40
0.0
 40
0.0
 40
0.0964758944
 40
0.516119714
 40
1.0
 40
1.0
 40
1.0
 40
1.0
 10
-10.5586000339
 20
10.6503735283
 30
0.0
 10
-10.5552019165
 20
10.6522311186
 30
0.0
 10
-10.5364483099
 20
10.6610478074
 30
0.0
 10
-10.495288814
 20
10.6651678919
 30
0.0
 10
-10.4603460693
 20
10.653700399
 30
0.0
 10
-10.4430068129
 20
10.6453345046
 30
0.0
 11
-10.5586000339
 21
10.6503735283
 31
0.0
 11
-10.5481038748
 21
10.655293481
 31
0.0
 11
-10.4984172206
 21
10.6616264885
 31
0.0
 11
-10.4430068129
 21
10.6453345046
 31
0.0
  0
SPLINE
  5
29C
100
AcDbEntity
  8
ASSI
100
AcDbSpline
 62
253
  6
CONTINUOUS
 70
0
 71
3
 72
11
 73
7
 74
5
 42
0.0000001
 43
0.0000001
 44
0.0000000001
 12
-0.5108213004
 22
0.2798532065
 32
0.0
 13
-0.0188900147
 23
0.5787986326
 33
0.0
 40
0.0
 40
0.0
 40
0.0
 40
0.0
 40
0.1532091295
 40
0.4045332697
 40
0.6850361907
 40
1.0
 40
1.0
 40
1.0
 40
1.0
 10
-10.1401075823
 20
-4.1662875425
 30
0.0
 10
-10.1661950779
 20
-4.1519955205
 30
0.0
 10
-10.2306280313
 20
-4.1059569041
 30
0.0
 10
-10.311704587
 20
-3.9984069269
 30
0.0
 10
-10.3684739591
 20
-3.8432217461
 30
0.0
 10
-10.3823582683
 20
-3.7281719482
 30
0.0
 10
-10.384341492
 20
-3.6674050742
 30
0.0
 11
-10.1401075823
 21
-4.1662875425
 31
0.0
 11
-10.2126259502
 21
-4.1146168264
 31
0.0
 11
-10.3021568398
 21
-3.9998686855
 31
0.0
 11
-10.3603862279
 21
-3.8482228298
 31
0.0
 11
-10.384341492
 21
-3.6674050742
 31
0.0
  0
SPLINE
  5
29D
100
AcDbEntity
  8
CURVE
100
AcDbSpline
 62
253
  6
CONTINUOUS
 70
0
 71
3
 72
29
 73
25
 74
23
 42
0.0000001
 43
0.0000001
 44
0.0000000001
 12
0.0789652659
 22
-3.8136255198
 32
0.0
 13
0.1174743774
 23
-4.3878678138
 33
0.0
 40
0.0
 40
0.0
 40
0.0
 40
0.0
 40
0.125
 40
0.25
 40
0.3125
 40
0.375
 40
0.4375
 40
0.5
 40
0.5625
 40
0.59375
 40
0.625
 40
0.640625
 40
0.65625
 40
0.6640625
 40
0.66796875
 40
0.671875
 40
0.6796875
 40
0.6875
 40
0.71875
 40
0.75
 40
0.78125
 40
0.8125
 40
0.875
 40
1.0
 40
1.0
 40
1.0
 40
1.0
 10
-2.0853907802
 20
-1.9584654795
 30
0.0
 10
-2.0821005608
 20
-2.1173665428
 30
0.0
 10
-2.0755436347
 20
-2.4351812067
 30
0.0
 10
-2.0672299132
 20
-2.8323868502
 30
0.0
 10
-2.0608258203
 20
-3.1502830065
 30
0.0
 10
-2.0553526362
 20
-3.388347811
 30
0.0
 10
-2.0496911473
 20
-3.6263131197
 30
0.0
 10
-2.0440803316
 20
-3.8643022614
 30
0.0
 10
-2.0393926621
 20
-4.0626300158
 30
0.0
 10
-2.0356459652
 20
-4.2212719758
 30
0.0
 10
-2.0333016776
 20
-4.3204720747
 30
0.0
 10
-2.0314316329
 20
-4.3997199172
 30
0.0
 10
-2.0302506926
 20
-4.4495059735
 30
0.0
 10
-2.0294483972
 20
-4.4838428397
 30
0.0
 10
-2.0289518265
 20
-4.5042671281
 30
0.0
 10
-2.0283116916
 20
-4.5277167451
 30
0.0
 10
-2.0275605937
 20
-4.5559946962
 30
0.0
 10
-2.0257175714
 20
-4.624712866
 30
0.0
 10
-2.0229700012
 20
-4.7274326546
 30
0.0
 10
-2.0192968787
 20
-4.8645966847
 30
0.0
 10
-2.0156263498
 20
-5.0017060613
 30
0.0
 10
-2.0107314063
 20
-5.1845376326
 30
0.0
 10
-2.0021656794
 20
-5.5044839437
 30
0.0
 10
-1.9948234823
 20
-5.7787267036
 30
0.0
 10
-1.9899287166
 20
-5.9615545292
 30
0.0
 11
-2.0853907802
 21
-1.9584654795
 31
0.0
 11
-2.0755201219
 21
-2.4351686694
 31
0.0
 11
-2.0656494637
 21
-2.9118718594
 31
0.0
 11
-2.0607141346
 21
-3.1502234544
 31
0.0
 11
-2.0553212521
 21
-3.3883312284
 31
0.0
 11
-2.0496995929
 21
-3.6263170919
 31
0.0
 11
-2.0440779336
 21
-3.8643029554
 31
0.0
 11
-2.0384562744
 21
-4.1022888188
 31
0.0
 11
-2.0356454448
 21
-4.2212817506
 31
0.0
 11
-2.0328346152
 21
-4.3402746823
 31
0.0
 11
-2.0314292004
 21
-4.3997711482
 31
0.0
 11
-2.0300237856
 21
-4.459267614
 31
0.0
 11
-2.0293210782
 21
-4.489015847
 31
0.0
 11
-2.028933881
 21
-4.5046452942
 31
0.0
 11
-2.0284749967
 21
-4.5217854028
 31
0.0
 11
-2.0275572281
 21
-4.5560656201
 31
0.0
 11
-2.0266394595
 21
-4.5903458374
 31
0.0
 11
-2.0229683852
 21
-4.7274667066
 31
0.0
 11
-2.019297311
 21
-4.8645875758
 31
0.0
 11
-2.0156262367
 21
-5.001708445
 31
0.0
 11
-2.0119551624
 21
-5.1388293141
 31
0.0
 11
-2.0046130138
 21
-5.4130710525
 31
0.0
 11
-1.9899287166
 21
-5.9615545292
 31
0.0
  0
ELLIPSE
  5
29E
100
AcDbEntity
  8
RACCORDO
100
AcDbEllipse
 62
7
  6
CONTINUOUS
 10
-6.7231483014
 20
12.4356882001
 30
0.0
 11
-0.1118504554
 21
0.2236675568
 31
0.0
 40
0.6121897086
 41
-0.6846338794
 42
0.0186659329
  0
ELLIPSE
  5
29F
100
AcDbEntity
  8
RACCORDO
100
AcDbEllipse
 62
7
  6
CONTINUOUS
 10
10.0398325696
 20
-11.7860901327
 30
0.0
 11
-0.0859020599
 21
0.2354039488
 31
0.0
 40
0.6613288813
 41
-3.0814036799
 42
-2.1814380601
  0
ELLIPSE
  5
2A0
100
AcDbEntity
  8
RACCORDO
100
AcDbEllipse
 62
7
  6
CONTINUOUS
 10
10.3081971933
 20
3.9200154528
 30
0.0
 11
-0.1117903878
 21
0.2236141634
 31
0.0
 40
0.6125552124
 41
-2.255296188
 42
-0.6848044477
  0
ELLIPSE
  5
2A1
100
AcDbEntity
  8
RACCORDO
100
AcDbEllipse
 62
7
  6
CONTINUOUS
 10
10.7008356294
 20
3.3291463766
 30
0.0
 11
0.1379861541
 21
0.2664038768
 31
0.0
 40
0.6229838795
 41
2.2644017489
 42
3.8177447832
  0
ELLIPSE
  5
2A2
100
AcDbEntity
  8
RACCORDO
100
AcDbEllipse
 62
7
  6
CONTINUOUS
 10
9.5168028797
 20
-11.7813349454
 30
0.0
 11
-0.1098985543
 21
0.2275784384
 31
0.0
 40
0.6085747011
 41
-3.2548100557
 42
-2.2415613143
  0
ELLIPSE
  5
2A3
100
AcDbEntity
  8
RACCORDO
100
AcDbEllipse
 62
7
  6
CONTINUOUS
 10
9.5168028797
 20
-12.033137748
 30
0.0
 11
-0.1118523001
 21
0.2236266191
 31
0.0
 40
0.6122950388
 41
2.456793014
 42
4.0274370417
  0
ELLIPSE
  5
2A4
100
AcDbEntity
  8
ASSI
100
AcDbEllipse
 62
7
  6
CONTINUOUS
 10
-6.7231483014
 20
12.4356882001
 30
0.0
 11
-0.1118504554
 21
0.2236675568
 31
0.0
 40
0.6121897086
 41
-0.6846338794
 42
0.0186659329
  0
ELLIPSE
  5
2A5
100
AcDbEntity
  8
ASSI
100
AcDbEllipse
 62
7
  6
CONTINUOUS
 10
10.0398325696
 20
-11.7860901327
 30
0.0
 11
-0.0859020599
 21
0.2354039488
 31
0.0
 40
0.6613288813
 41
-3.0814036799
 42
-2.1814380601
  0
ELLIPSE
  5
2A6
100
AcDbEntity
  8
ASSI
100
AcDbEllipse
 62
7
  6
CONTINUOUS
 10
10.3081971933
 20
3.9200154528
 30
0.0
 11
-0.1117903878
 21
0.2236141634
 31
0.0
 40
0.6125552124
 41
-2.255296188
 42
-0.6848044477
  0
ELLIPSE
  5
2A7
100
AcDbEntity
  8
ASSI
100
AcDbEllipse
 62
7
  6
CONTINUOUS
 10
10.7008356294
 20
3.3291463766
 30
0.0
 11
0.1379861541
 21
0.2664038768
 31
0.0
 40
0.6229838795
 41
2.2644017489
 42
3.8177447832
  0
ELLIPSE
  5
2A8
100
AcDbEntity
  8
ASSI
100
AcDbEllipse
 62
7
  6
CONTINUOUS
 10
9.5168028797
 20
-11.7813349454
 30
0.0
 11
-0.1098985543
 21
0.2275784384
 31
0.0
 40
0.6085747011
 41
-3.2548100557
 42
-2.2415613143
  0
ELLIPSE
  5
2A9
100
AcDbEntity
  8
ASSI
100
AcDbEllipse
 62
7
  6
CONTINUOUS
 10
9.5168028797
 20
-12.033137748
 30
0.0
 11
-0.1118523001
 21
0.2236266191
 31
0.0
 40
0.6122950388
 41
2.456793014
 42
4.0274370417
  0
ENDSEC
  0
SECTION
  2
OBJECTS
  0
DICTIONARY
  5
C
100
AcDbDictionary
280
0
281
1
  3
ACAD_GROUP
350
D
  3
ACAD_MLINESTYLE
350
17
  3
ACAD_LAYOUT
350
1A
  3
ACAD_PLOTSETTINGS
350
19
  3
ACAD_PLOTSTYLENAME
350
E
  0
DICTIONARY
  5
D
102
{ACAD_REACTORS
330
C
102
}
100
AcDbDictionary
280
0
281
1
  0
ACDBDICTIONARYWDFLT
  5
E
102
{ACAD_REACTORS
330
C
102
}
100
AcDbDictionary
281
1
  3
Normal
350
F
100
AcDbDictionaryWithDefault
340
F
  0
DICTIONARY
  5
17
102
{ACAD_REACTORS
330
C
102
}
100
AcDbDictionary
280
0
281
1
  3
Standard
350
18
  0
DICTIONARY
  5
19
102
{ACAD_REACTORS
330
C
102
}
100
AcDbDictionary
281
1
  0
DICTIONARY
  5
1A
102
{ACAD_REACTORS
330
C
102
}
100
AcDbDictionary
281
1
  3
Model
350
2AA
  3
Layout1
350
2AB
  0
ACDBPLACEHOLDER
  5
F
102
{ACAD_REACTORS
330
E
102
}
  0
MLINESTYLE
  5
18
102
{ACAD_REACTORS
330
17
102
}
100
AcDbMlineStyle
  2
STANDARD
 70
0
  3

 62
256
 51
90.0
 52
90.0
 71
2
 49
0.5
 62
256
  6
BYLAYER
 49
-0.5
 62
256
  6
BYLAYER
  0
LAYOUT
  5
2AA
102
{ACAD_REACTORS
330
1A
102
}
100
AcDbPlotSettings
  1

  2
none_device
  4
ISO_A4_(297.00_x_210.00_MM)
  6

 40
0.0
 41
0.0
 42
0.0
 43
0.0
 44
297.0
 45
210.0
 46
0.0
 47
0.0
 48
0.0
 49
0.0
140
0.0
141
0.0
142
1.0
143
1.0
 70
1024
 72
1
 73
0
 74
0
  7

 75
0
147
1.0
148
0.0
149
0.0
100
AcDbLayout
  1
Model
 70
0
 71
0
 10
0.0
 20
0.0
 11
297.0
 21
210.0
 12
0.0
 22
0.0
 32
0.0
 14
0.0
 24
0.0
 34
0.0
 15
0.0
 25
0.0
 35
0.0
146
0.0
 13
0.0
 23
0.0
 33
0.0
 16
1.0
 26
0.0
 36
0.0
 17
0.0
 27
1.0
 37
0.0
 76
0
330
211
345
0
346
0
  0
LAYOUT
  5
2AB
102
{ACAD_REACTORS
330
1A
102
}
100
AcDbPlotSettings
  1

  2
none_device
  4
ISO_A4_(297.00_x_210.00_MM)
  6

 40
0.0
 41
0.0
 42
0.0
 43
0.0
 44
297.0
 45
210.0
 46
0.0
 47
0.0
 48
0.0
 49
0.0
140
0.0
141
0.0
142
1.0
143
1.0
 70
0
 72
1
 73
0
 74
0
  7

 75
0
147
1.0
148
0.0
149
0.0
100
AcDbLayout
  1
Layout1
 70
0
 71
1
 10
0.0
 20
0.0
 11
297.0
 21
210.0
 12
0.0
 22
0.0
 32
0.0
 14
0.0
 24
0.0
 34
0.0
 15
0.0
 25
0.0
 35
0.0
146
0.0
 13
0.0
 23
0.0
 33
0.0
 16
1.0
 26
0.0
 36
0.0
 17
0.0
 27
1.0
 37
0.0
 76
0
330
212
345
0
346
0
  0
ENDSEC
  0
EOF
