0
SECTION
2
HEADER
9
$ACADVER
1
AC1015
9
$DWGCODEPAGE
3
ANSI_1252
9
$EXTMAX
10
431.8000000000
20
558.8000000000
30
0.0000000000
9
$EXTMIN
10
0.0000000000
20
0.0000000000
30
0.0000000000
9
$LIMMIN
10
0.0000000000
20
0.0000000000
9
$LIMMAX
10
431.8000000000
20
558.8000000000
9
$VIEWCTR
10
215.9000000000
20
279.4000000000
9
$VIEWSIZE
40
558.8000000000
9
$CLAYER
8
0
9
$LTSCALE
40
36.4254814815
9
$CELTYPE
6
BYLAYER
9
$DIMSCALE
40
1
9
$DIMASZ
40
3.0000000000
9
$DIMEXO
40
4.1392592593
9
$DIMDLI
40
25.1666962963
9
$DIMEXE
40
11.9210666667
9
$DIMCEN
40
5.9605333333
9
$DIMLFAC
40
1.0000000000
9
$DIMBLK
1
_FILLED
9
$DIMTXT
40
3.0000000000
9
$DIMTOL
70
1
9
$DIMLIM
70
0
9
$DIMTFAC
40
1.0000000000
9
$DIMTP
40
0.0100000000
9
$DIMTM
40
0.0100000000
9
$PDMODE
70
3
9
$PDSIZE
40
3.0000000000
9
$HANDSEED
5
440
9
$MEASUREMENT
70
1
9
$INSUNITS
70
4
0
ENDSEC
0
SECTION
2
CLASSES
0
CLASS
1
ACDBDICTIONARYWDFLT
2
AcDbDictionaryWithDefault
3
AutoCAD 2000
90
0
280
0
281
0
0
CLASS
1
ACDBPLACEHOLDER
2
AcDbPlaceHolder
3
AutoCAD 2000
90
0
280
0
281
0
0
CLASS
1
LAYOUT
2
AcDbLayout
3
AutoCAD 2000
90
0
280
0
281
0
0
ENDSEC
0
SECTION
2
TABLES
0
TABLE
2
VPORT
5
8
100
AcDbSymbolTable
70
2
0
VPORT
5
1F4
100
AcDbSymbolTableRecord
100
AcDbViewportTableRecord
2
*ACTIVE
70
0
10
0.0
20
0.0
11
1.0
21
1.0
12
215.9000000000
22
279.4000000000
13
0.0
23
0.0
14
1.0
24
1.0
15
0.0
25
0.0
16
0.0
26
0.0
36
1.0
17
0.0
27
0.0
37
0.0
40
558.8000000000
41
0.7727272727
42
50.0
43
0.0
44
0.0
50
0.0
51
0.0
71
0
72
100
73
1
74
1
75
0
76
0
77
0
78
0
0
ENDTAB
0
TABLE
2
LTYPE
5
5
100
AcDbSymbolTable
70
6
0
LTYPE
5
14
100
AcDbSymbolTableRecord
100
AcDbLinetypeTableRecord
2
BYBLOCK
70
0
3

72
65
73
0
40
0.0
0
LTYPE
5
15
100
AcDbSymbolTableRecord
100
AcDbLinetypeTableRecord
2
BYLAYER
70
0
3

72
65
73
0
40
0.0
0
LTYPE
5
16
100
AcDbSymbolTableRecord
100
AcDbLinetypeTableRecord
2
CONTINUOUS
70
64
3
Solid line
72
65
73
0
40
0
0
LTYPE
5
1F5
100
AcDbSymbolTableRecord
100
AcDbLinetypeTableRecord
2
CENTER
70
64
3
____ _ ____ _ ____ _ ____ _ ____ _ ____ _ ____
72
65
73
4
40
0.6
49
0.375
74
0
49
-0.075
74
0
49
0.075
74
0
49
-0.075
74
0
0
LTYPE
5
1F6
100
AcDbSymbolTableRecord
100
AcDbLinetypeTableRecord
2
HIDDEN
70
64
3
- - - - - - - - - - - - - - - - - - - -
72
65
73
2
40
0.2
49
0.1
74
0
49
-0.1
74
0
0
LTYPE
5
1F7
100
AcDbSymbolTableRecord
100
AcDbLinetypeTableRecord
2
PHANTOM
70
64
3
_____ _ _ _____ _ _ _____ _ _ _____
72
65
73
6
40
0.8
49
0.45
74
0
49
-0.05
74
0
49
0.1
74
0
49
-0.05
74
0
49
0.1
74
0
49
-0.05
74
0
0
LTYPE
5
1F8
100
AcDbSymbolTableRecord
100
AcDbLinetypeTableRecord
2
DOT
70
64
3
. . . . . . . . . . . . . . . . . . . .
72
65
73
2
40
0.2
49
0.1
74
0
49
-0.1
74
0
0
LTYPE
5
1F9
100
AcDbSymbolTableRecord
100
AcDbLinetypeTableRecord
2
DASHED
70
64
3
- - - - - - - - - - - - - - - - - - - -
72
65
73
2
40
0.2
49
0.1
74
0
49
-0.1
74
0
0
ENDTAB
0
TABLE
2
LAYER
5
2
100
AcDbSymbolTable
70
36
0
LAYER
5
10
100
AcDbSymbolTableRecord
100
AcDbLayerTableRecord
2
0
70
0
62
7
6
CONTINUOUS
370
-3
390
F
0
LAYER
5
1FA
100
AcDbSymbolTableRecord
100
AcDbLayerTableRecord
2
DEFAULT_1
70
0
62
7
6
CENTER
370
-3
390
F
0
LAYER
5
1FB
100
AcDbSymbolTableRecord
100
AcDbLayerTableRecord
2
DEFAULT_2
70
0
62
8
6
HIDDEN
370
-3
390
F
0
LAYER
5
1FC
100
AcDbSymbolTableRecord
100
AcDbLayerTableRecord
2
DEFAULT_3
70
0
62
7
6
PHANTOM
370
-3
390
F
0
LAYER
5
1FD
100
AcDbSymbolTableRecord
100
AcDbLayerTableRecord
2
_BLACK_HOLE
70
0
62
7
6
CONTINUOUS
370
-3
390
F
0
LAYER
5
1FE
100
AcDbSymbolTableRecord
100
AcDbLayerTableRecord
2
ASSI
70
0
62
7
6
CONTINUOUS
370
-3
390
F
0
LAYER
5
1FF
100
AcDbSymbolTableRecord
100
AcDbLayerTableRecord
2
COORDINATE
70
0
62
7
6
CONTINUOUS
370
-3
390
F
0
LAYER
5
200
100
AcDbSymbolTableRecord
100
AcDbLayerTableRecord
2
COORD_ORIGINE
70
0
62
7
6
CONTINUOUS
370
-3
390
F
0
LAYER
5
201
100
AcDbSymbolTableRecord
100
AcDbLayerTableRecord
2
COPY-16350-NEW
70
0
62
7
6
CONTINUOUS
370
-3
390
F
0
LAYER
5
202
100
AcDbSymbolTableRecord
100
AcDbLayerTableRecord
2
COPY-Z16350
70
0
62
7
6
CONTINUOUS
370
-3
390
F
0
LAYER
5
203
100
AcDbSymbolTableRecord
100
AcDbLayerTableRecord
2
COPY_PUBLISH
70
0
62
7
6
CONTINUOUS
370
-3
390
F
0
LAYER
5
204
100
AcDbSymbolTableRecord
100
AcDbLayerTableRecord
2
COSMETIC
70
0
62
7
6
CONTINUOUS
370
-3
390
F
0
LAYER
5
205
100
AcDbSymbolTableRecord
100
AcDbLayerTableRecord
2
COSMETICI
70
0
62
7
6
CONTINUOUS
370
-3
390
F
0
LAYER
5
206
100
AcDbSymbolTableRecord
100
AcDbLayerTableRecord
2
CURVE
70
0
62
7
6
CONTINUOUS
370
-3
390
F
0
LAYER
5
207
100
AcDbSymbolTableRecord
100
AcDbLayerTableRecord
2
DRAFT
70
0
62
7
6
CONTINUOUS
370
-3
390
F
0
LAYER
5
208
100
AcDbSymbolTableRecord
100
AcDbLayerTableRecord
2
IMPORT_IGES
70
0
62
7
6
CONTINUOUS
370
-3
390
F
0
LAYER
5
209
100
AcDbSymbolTableRecord
100
AcDbLayerTableRecord
2
INCISIONI_LASER
70
0
62
7
6
CONTINUOUS
370
-3
390
F
0
LAYER
5
20A
100
AcDbSymbolTableRecord
100
AcDbLayerTableRecord
2
NOTE
70
0
62
7
6
CONTINUOUS
370
-3
390
F
0
LAYER
5
20B
100
AcDbSymbolTableRecord
100
AcDbLayerTableRecord
2
PIANI
70
0
62
7
6
CONTINUOUS
370
-3
390
F
0
LAYER
5
20C
100
AcDbSymbolTableRecord
100
AcDbLayerTableRecord
2
PIANI-RIFERIMENTO
70
0
62
7
6
CONTINUOUS
370
-3
390
F
0
LAYER
5
20D
100
AcDbSymbolTableRecord
100
AcDbLayerTableRecord
2
PIANI_ORIGINE
70
0
62
7
6
CONTINUOUS
370
-3
390
F
0
LAYER
5
20E
100
AcDbSymbolTableRecord
100
AcDbLayerTableRecord
2
PUNTI
70
0
62
7
6
CONTINUOUS
370
-3
390
F
0
LAYER
5
20F
100
AcDbSymbolTableRecord
100
AcDbLayerTableRecord
2
RACCORDO
70
0
62
7
6
CONTINUOUS
370
-3
390
F
0
LAYER
5
210
100
AcDbSymbolTableRecord
100
AcDbLayerTableRecord
2
SMUSSO
70
0
62
7
6
CONTINUOUS
370
-3
390
F
0
LAYER
5
211
100
AcDbSymbolTableRecord
100
AcDbLayerTableRecord
2
SUPERFICI
70
0
62
7
6
CONTINUOUS
370
-3
390
F
0
LAYER
5
212
100
AcDbSymbolTableRecord
100
AcDbLayerTableRecord
2
TRASH
70
0
62
7
6
CONTINUOUS
370
-3
390
F
0
ENDTAB
0
TABLE
2
STYLE
5
3
100
AcDbSymbolTable
70
1
0
STYLE
5
11
100
AcDbSymbolTableRecord
100
AcDbTextStyleTableRecord
2
STANDARD
70
0
40
0.0
41
0.8000000000
50
0.0
71
0
42
0.2
3
txt
4

0
ENDTAB
0
TABLE
2
VIEW
5
6
100
AcDbSymbolTable
70
0
0
ENDTAB
0
TABLE
2
UCS
5
7
100
AcDbSymbolTable
70
0
0
ENDTAB
0
TABLE
2
APPID
5
9
100
AcDbSymbolTable
70
1
0
APPID
5
213
100
AcDbSymbolTableRecord
100
AcDbRegAppTableRecord
2
ACAD
70
0
0
ENDTAB
0
TABLE
2
BLOCK_RECORD
5
1
100
AcDbSymbolTable
70
0
0
BLOCK_RECORD
5
1F
100
AcDbSymbolTableRecord
100
AcDbBlockTableRecord
2
*MODEL_SPACE
0
BLOCK_RECORD
5
1B
100
AcDbSymbolTableRecord
100
AcDbBlockTableRecord
2
*PAPER_SPACE
0
ENDTAB
0
TABLE
2
DIMSTYLE
5
A
100
AcDbSymbolTable
70
1
100
AcDbDimStyleTable
71
0
0
DIMSTYLE
105
214
100
AcDbSymbolTableRecord
100
AcDbDimStyleTableRecord
2
STANDARD
70
0
3

4

40
1.0
41
3.0000000000
42
0.0625
43
0.38
44
0.18
45
0.0
46
0.0
47
0.0100000000
48
0.0100000000
140
3.0000000000
141
0.09
142
0.0
143
25.4
144
1.0000000000
145
0.0
146
1.0000000000
147
0.09
71
1
72
0
73
0
74
0
75
0
76
0
77
1
78
8
170
0
171
2
172
0
173
0
174
0
175
0
176
0
177
0
178
0
270
2
271
2
272
2
273
2
274
2
275
0
280
0
281
0
282
0
283
1
284
8
285
0
286
0
287
3
288
0
340
11
0
ENDTAB
0
ENDSEC
0
SECTION
2
BLOCKS
0
BLOCK
5
20
100
AcDbEntity
8
0
100
AcDbBlockBegin
2
*MODEL_SPACE
70
0
10
0.0
20
0.0
30
0.0
3
*MODEL_SPACE
1

0
ENDBLK
5
21
100
AcDbEntity
8
0
100
AcDbBlockEnd
0
BLOCK
5
1C
100
AcDbEntity
8
0
100
AcDbBlockBegin
2
*PAPER_SPACE
70
0
10
0.0
20
0.0
30
0.0
3
*PAPER_SPACE
1

0
ENDBLK
5
1D
100
AcDbEntity
8
0
100
AcDbBlockEnd
0
ENDSEC
0
SECTION
2
ENTITIES
0
LINE
5
215
100
AcDbEntity
8
0
100
AcDbLine
62
9
6
CONTINUOUS
10
-16.3720126766
20
-13.5396615591
11
-3.7148012934
21
-19.8682672507
0
LINE
5
216
100
AcDbEntity
8
0
100
AcDbLine
62
9
6
CONTINUOUS
10
-16.2005220500
20
-13.9858839239
11
-3.7060900283
21
-20.2495372042
0
LWPOLYLINE
5
217
100
AcDbEntity
8
0
100
AcDbPolyline
62
7
6
CONTINUOUS
90
33
70
0
10
-12.3780486230
20
26.0562843323
10
-12.3942779175
20
26.0473215765
10
-12.4152844773
20
26.0350755571
10
-12.4356576365
20
26.0224442388
10
-12.4554125687
20
26.0094168199
10
-12.4745227936
20
25.9960091390
10
-12.4929246631
20
25.9822682875
10
-12.5106206789
20
25.9681983024
10
-12.5276093184
20
25.9538059141
10
-12.5438323311
20
25.9391499705
10
-12.5592955048
20
25.9242398878
10
-12.5740042350
20
25.9090853541
10
-12.5879113594
20
25.8937551155
10
-12.6010116315
20
25.8782837008
10
-12.6133342976
20
25.8626666305
10
-12.6248886028
20
25.8469209322
10
-12.6356771479
20
25.8310744329
10
-12.6457193226
20
25.8151323094
10
-12.6550437001
20
25.7990793652
10
-12.6636570780
20
25.7829315894
10
-12.6715663338
20
25.7667062040
10
-12.6787918907
20
25.7503903191
10
-12.6853387581
20
25.7339991870
10
-12.6912107653
20
25.7175522836
10
-12.6964204385
20
25.7010439067
10
-12.7009717764
20
25.6844905567
10
-12.7048684682
20
25.6679122640
10
-12.7081186313
20
25.6513095379
10
-12.7107260308
20
25.6347013450
10
-12.7126956726
20
25.6181062551
10
-12.7140344829
20
25.6015246581
10
-12.7147471418
20
25.5849691436
10
-12.7148768070
20
25.5742366104
0
LINE
5
218
100
AcDbEntity
8
0
100
AcDbLine
62
7
6
CONTINUOUS
10
-12.3780509023
20
26.0562831298
11
-10.9630899117
21
26.8196870459
0
LINE
5
219
100
AcDbEntity
8
0
100
AcDbLine
62
9
6
CONTINUOUS
10
-12.2624301259
20
26.0511936987
11
-10.8487045089
21
26.8139311024
0
LINE
5
21A
100
AcDbEntity
8
0
100
AcDbLine
62
7
6
CONTINUOUS
10
-10.9578754765
20
26.8222947968
11
-4.4828310929
21
29.8126848687
0
LINE
5
21B
100
AcDbEntity
8
0
100
AcDbLine
62
9
6
CONTINUOUS
10
-10.8487045089
20
26.8139311024
11
-4.3736601252
21
29.8043211743
0
LWPOLYLINE
5
21C
100
AcDbEntity
8
0
100
AcDbPolyline
62
7
6
CONTINUOUS
90
30
70
0
10
-16.0043969635
20
22.7085372988
10
-16.0124804494
20
22.7039803898
10
-16.0204013417
20
22.6991188995
10
-16.0281453664
20
22.6939599098
10
-16.0356879434
20
22.6885193797
10
-16.0430270361
20
22.6827987693
10
-16.0501801099
20
22.6767810857
10
-16.0571536530
20
22.6704526781
10
-16.0639091437
20
22.6638404857
10
-16.0703984146
20
22.6569901474
10
-16.0765787839
20
22.6499539330
10
-16.0824772733
20
22.6427090584
10
-16.0881464023
20
22.6351861421
10
-16.0936045342
20
22.6273405868
10
-16.0987952473
20
22.6192327395
10
-16.1036593704
20
22.6109498918
10
-16.1081613216
20
22.6025651399
10
-16.1123297499
20
22.5940390256
10
-16.1162012815
20
22.5852900834
10
-16.1197891425
20
22.5762556901
10
-16.1230446427
20
22.5670234647
10
-16.1259172199
20
22.5577367841
10
-16.1283853855
20
22.5485124085
10
-16.1304855897
20
22.5392675767
10
-16.1322512716
20
22.5298454804
10
-16.1336826042
20
22.5201425182
10
-16.1347408679
20
22.5102924678
10
-16.1354040946
20
22.5004909925
10
-16.1356802515
20
22.4908362070
10
-16.1356910084
20
22.4885186651
0
LINE
5
21D
100
AcDbEntity
8
0
100
AcDbLine
62
7
6
CONTINUOUS
10
-12.7148768398
20
24.4833088727
11
-16.0043969635
21
22.7085372988
0
LINE
5
21E
100
AcDbEntity
8
0
100
AcDbLine
62
9
6
CONTINUOUS
10
-12.7148768398
20
24.4158393801
11
-15.8887761871
21
22.7034478676
0
LINE
5
21F
100
AcDbEntity
8
0
100
AcDbLine
62
9
6
CONTINUOUS
10
-9.7880174132
20
26.2835875545
11
-11.2178207873
21
25.5381195291
0
LINE
5
220
100
AcDbEntity
8
0
100
AcDbLine
62
9
6
CONTINUOUS
10
-9.6112407179
20
25.9786598759
11
-11.0379589133
21
25.2348003948
0
LINE
5
221
100
AcDbEntity
8
0
100
AcDbLine
62
7
6
CONTINUOUS
10
-5.2978893526
20
27.0528367838
11
-11.0379589133
21
24.0600907892
0
LINE
5
222
100
AcDbEntity
8
0
100
AcDbLine
62
9
6
CONTINUOUS
10
-9.7880174132
20
26.2835875545
11
-3.4240563825
21
29.3295193030
0
LINE
5
223
100
AcDbEntity
8
0
100
AcDbLine
62
9
6
CONTINUOUS
10
-9.6112407179
20
25.9786598759
11
-3.2472796872
21
29.0245916244
0
LINE
5
224
100
AcDbEntity
8
0
100
AcDbLine
62
7
6
CONTINUOUS
10
-3.2472796872
20
28.0343036805
11
-5.2978893526
21
27.0528367838
0
LWPOLYLINE
5
225
100
AcDbEntity
8
0
100
AcDbPolyline
62
7
6
CONTINUOUS
90
46
70
0
10
-18.1532645098
20
17.6497115062
10
-18.1685617635
20
17.6382064317
10
-18.1888188752
20
17.6222759095
10
-18.2087893411
20
17.6057745808
10
-18.2284660906
20
17.5887180834
10
-18.2478421478
20
17.5711222633
10
-18.2669078647
20
17.5530048812
10
-18.2856566930
20
17.5343810887
10
-18.3040811456
20
17.5152666181
10
-18.3221687763
20
17.4956821259
10
-18.3399124638
20
17.4756435268
10
-18.3573051136
20
17.4551661217
10
-18.3743340429
20
17.4342720580
10
-18.3909916402
20
17.4129782107
10
-18.4072712776
20
17.3912995376
10
-18.4231618294
20
17.3692576411
10
-18.4386542661
20
17.3468717964
10
-18.4537437131
20
17.3241549746
10
-18.4684251030
20
17.3011205520
10
-18.4826907327
20
17.2777852246
10
-18.4965339831
20
17.2541640848
10
-18.5099505733
20
17.2302682010
10
-18.5229329617
20
17.2061132612
10
-18.5354739443
20
17.1817150050
10
-18.5475686123
20
17.1570841860
10
-18.5592092631
20
17.1322363230
10
-18.5703885044
20
17.1071871221
10
-18.5811007896
20
17.0819470734
10
-18.5913384944
20
17.0565311896
10
-18.6010937309
20
17.0309555441
10
-18.6103599067
20
17.0052316633
10
-18.6191298153
20
16.9793729861
10
-18.6273946612
20
16.9533970714
10
-18.6351457931
20
16.9273210139
10
-18.6423756050
20
16.9011597233
10
-18.6490757630
20
16.8749293224
10
-18.6552376752
20
16.8486477746
10
-18.6608535767
20
16.8223302731
10
-18.6659152141
20
16.7959923998
10
-18.6704143901
20
16.7696514409
10
-18.6743429741
20
16.7433232243
10
-18.6776927054
20
16.7170226724
10
-18.6804555436
20
16.6907636088
10
-18.6826228430
20
16.6645599147
10
-18.6841858331
20
16.6384286305
10
-18.6849362229
20
16.6195352212
0
LINE
5
226
100
AcDbEntity
8
0
100
AcDbLine
62
7
6
CONTINUOUS
10
-18.1532663082
20
17.6497102103
11
-15.8369151203
21
19.3581517222
0
LINE
5
227
100
AcDbEntity
8
0
100
AcDbLine
62
9
6
CONTINUOUS
10
-18.0355702680
20
17.6463836388
11
-15.7125357790
21
19.3597544676
0
LINE
5
228
100
AcDbEntity
8
0
100
AcDbLine
62
7
6
CONTINUOUS
10
-10.1152244274
20
23.3391641149
11
-7.7799997789
21
24.5990713868
0
LINE
5
229
100
AcDbEntity
8
0
100
AcDbLine
62
7
6
CONTINUOUS
10
-6.2772678813
20
25.4098297208
11
-3.6008330778
21
26.8538276992
0
LINE
5
22A
100
AcDbEntity
8
0
100
AcDbLine
62
7
6
CONTINUOUS
10
-9.0738905901
20
22.8184971963
11
-7.2730088020
21
23.7258816348
0
LINE
5
22B
100
AcDbEntity
8
0
100
AcDbLine
62
7
6
CONTINUOUS
10
-3.3349078214
20
25.7101160088
11
-2.3280408717
21
26.2174315961
0
LINE
5
22C
100
AcDbEntity
8
0
100
AcDbLine
62
7
6
CONTINUOUS
10
-7.3484990181
20
25.1246268935
11
-6.9849308855
21
25.3064109598
0
LINE
5
22D
100
AcDbEntity
8
0
100
AcDbLine
62
7
6
CONTINUOUS
10
-0.8252038907
20
26.9628498178
11
-1.9704576604
21
26.3947955051
0
LINE
5
22E
100
AcDbEntity
8
0
100
AcDbLine
62
7
6
CONTINUOUS
10
-3.6008330778
20
26.8538276992
11
-2.0445998273
21
27.5725477861
0
LINE
5
22F
100
AcDbEntity
8
0
100
AcDbLine
62
7
6
CONTINUOUS
10
-1.0111952427
20
-21.5059217323
11
1.3913049398
21
-20.8558203857
0
LINE
5
230
100
AcDbEntity
8
0
100
AcDbLine
62
9
6
CONTINUOUS
10
-0.9028306344
20
-21.3545180271
11
1.4746482614
21
-20.7111872823
0
LWPOLYLINE
5
231
100
AcDbEntity
8
0
100
AcDbPolyline
62
7
6
CONTINUOUS
90
24
70
0
10
-1.4359000650
20
-21.4711897459
10
-1.4258616948
20
-21.4760810804
10
-1.4092329543
20
-21.4836317228
10
-1.3923103509
20
-21.4906375043
10
-1.3751030238
20
-21.4970904153
10
-1.3576112663
20
-21.5029853698
10
-1.3398479073
20
-21.5083123714
10
-1.3218271142
20
-21.5130617601
10
-1.3035502887
20
-21.5172277092
10
-1.2850314371
20
-21.5208010580
10
-1.2662839697
20
-21.5237732775
10
-1.2473071381
20
-21.5261381360
10
-1.2281143551
20
-21.5278873001
10
-1.2087191253
20
-21.5290128581
10
-1.1891192992
20
-21.5295075000
10
-1.1693274650
20
-21.5293631795
10
-1.1493570412
20
-21.5285723820
10
-1.1292055020
20
-21.5271265046
10
-1.1088854697
20
-21.5250173452
10
-1.0884085366
20
-21.5222372475
10
-1.0677688366
20
-21.5187754431
10
-1.0469719290
20
-21.5146216533
10
-1.0260368460
20
-21.5097689015
10
-1.0111992170
20
-21.5059227570
0
LINE
5
232
100
AcDbEntity
8
0
100
AcDbLine
62
7
6
CONTINUOUS
10
-15.9974944073
20
-15.8695428834
11
1.0061788952
21
-24.3713795347
0
LINE
5
233
100
AcDbEntity
8
0
100
AcDbLine
62
9
6
CONTINUOUS
10
-16.0624677037
20
-15.7343244333
11
0.9412055988
21
-24.2361610846
0
LINE
5
234
100
AcDbEntity
8
0
100
AcDbLine
62
7
6
CONTINUOUS
10
-18.3557533811
20
-13.0112632118
11
-16.2659468259
21
-14.0561664894
0
LINE
5
235
100
AcDbEntity
8
0
100
AcDbLine
62
7
6
CONTINUOUS
10
-3.5256672032
20
-20.4263063008
11
-1.4358606480
21
-21.4712095784
0
LINE
5
236
100
AcDbEntity
8
0
100
AcDbLine
62
9
6
CONTINUOUS
10
-18.6116965835
20
-12.5059763225
11
-16.5268004386
21
-13.5484243950
0
LINE
5
237
100
AcDbEntity
8
0
100
AcDbLine
62
9
6
CONTINUOUS
10
-3.7834992167
20
-19.9200750059
11
-1.6986030718
21
-20.9625230784
0
LWPOLYLINE
5
238
100
AcDbEntity
8
0
100
AcDbPolyline
62
7
6
CONTINUOUS
90
31
70
0
10
-15.9974932272
20
-15.8695434735
10
-16.0007147267
20
-15.8679035252
10
-16.0088126053
20
-15.8635161224
10
-16.0167443274
20
-15.8588328390
10
-16.0245084929
20
-15.8538536318
10
-16.0320973072
20
-15.8485815783
10
-16.0394956641
20
-15.8430252226
10
-16.0466909888
20
-15.8371924746
10
-16.0536713741
20
-15.8310916871
10
-16.0604277322
20
-15.8247294786
10
-16.0669520108
20
-15.8181117198
10
-16.0732343923
20
-15.8112463369
10
-16.0792647885
20
-15.8041422539
10
-16.0850347912
20
-15.7968070778
10
-16.0905355681
20
-15.7892494011
10
-16.0957575505
20
-15.7814796133
10
-16.1006916412
20
-15.7735085275
10
-16.1053290990
20
-15.7653475974
10
-16.1096626625
20
-15.7570067755
10
-16.1136858606
20
-15.7484950802
10
-16.1173919452
20
-15.7398225909
10
-16.1207733970
20
-15.7310023573
10
-16.1238231777
20
-15.7220483051
10
-16.1265354353
20
-15.7129731055
10
-16.1289049302
20
-15.7037892466
10
-16.1309265835
20
-15.6945109009
10
-16.1325960966
20
-15.6851518660
10
-16.1339099009
20
-15.6757250332
10
-16.1348648561
20
-15.6662435620
10
-16.1354583727
20
-15.6567186520
10
-16.1356879785
20
-15.6471668991
0
LWPOLYLINE
5
239
100
AcDbEntity
8
0
100
AcDbPolyline
62
7
6
CONTINUOUS
90
36
70
0
10
-18.6849280022
20
-12.4171604859
10
-18.6841787290
20
-12.4353453713
10
-18.6826475843
20
-12.4597710700
10
-18.6805230286
20
-12.4839248739
10
-18.6778028408
20
-12.5078086050
10
-18.6744878599
20
-12.5313974920
10
-18.6705848737
20
-12.5546400273
10
-18.6660961187
20
-12.5775280671
10
-18.6610242706
20
-12.6000515285
10
-18.6553827523
20
-12.6221591264
10
-18.6491770493
20
-12.6438436094
10
-18.6424131036
20
-12.6650968516
10
-18.6351117194
20
-12.6858695476
10
-18.6272823561
20
-12.7061554038
10
-18.6189345843
20
-12.7259487228
10
-18.6100966250
20
-12.7452042722
10
-18.6007874721
20
-12.7639071529
10
-18.5910160399
20
-12.7820647879
10
-18.5808001940
20
-12.7996667234
10
-18.5701605072
20
-12.8167006023
10
-18.5591074979
20
-12.8331722377
10
-18.5476439641
20
-12.8490959624
10
-18.5357845723
20
-12.8644669699
10
-18.5235447111
20
-12.8792808339
10
-18.5109265836
20
-12.8935484882
10
-18.4979454524
20
-12.9072641053
10
-18.4846165321
20
-12.9204227986
10
-18.4709408126
20
-12.9330336095
10
-18.4569341420
20
-12.9450903511
10
-18.4426119409
20
-12.9565879290
10
-18.4279733979
20
-12.9675338987
10
-18.4130341400
20
-12.9779224937
10
-18.3978104314
20
-12.9877482600
10
-18.3823012493
20
-12.9970164208
10
-18.3665165899
20
-13.0057243258
10
-18.3557083833
20
-13.0112855863
0
LINE
5
23A
100
AcDbEntity
8
0
100
AcDbLine
62
7
6
CONTINUOUS
10
-2.1433537042
20
24.0429008524
11
-2.7378386619
21
23.7276039230
0
LINE
5
23B
100
AcDbEntity
8
0
100
AcDbLine
62
7
6
CONTINUOUS
10
-6.1625205812
20
21.9112557050
11
-6.5706815588
21
21.6947794069
0
LINE
5
23C
100
AcDbEntity
8
0
100
AcDbLine
62
7
6
CONTINUOUS
10
-4.2141905673
20
24.6175653889
11
-4.6709272329
21
24.3874360458
0
LINE
5
23D
100
AcDbEntity
8
0
100
AcDbLine
62
7
6
CONTINUOUS
10
-6.6259844396
20
23.4023694536
11
-9.0738905901
21
22.1689781434
0
LINE
5
23E
100
AcDbEntity
8
0
100
AcDbLine
62
7
6
CONTINUOUS
10
-0.3921534282
20
25.6056433890
11
-0.7529131423
21
25.4298677315
0
LINE
5
23F
100
AcDbEntity
8
0
100
AcDbLine
62
7
6
CONTINUOUS
10
0.9412055988
20
-21.4502120924
11
0.3279152355
21
-21.1435669107
0
LINE
5
240
100
AcDbEntity
8
0
100
AcDbLine
62
7
6
CONTINUOUS
10
-3.8101512791
20
-19.0745336534
11
-14.5706296498
21
-13.6942944681
0
LINE
5
241
100
AcDbEntity
8
0
100
AcDbLine
62
7
6
CONTINUOUS
10
-15.1266736111
20
-13.1691459203
11
-3.8177771910
21
-18.8235941304
0
LINE
5
242
100
AcDbEntity
8
0
100
AcDbLine
62
7
6
CONTINUOUS
10
1.4746482614
20
-21.3633800331
11
0.7867217419
21
-21.0194167733
0
LWPOLYLINE
5
243
100
AcDbEntity
8
0
100
AcDbPolyline
62
7
6
CONTINUOUS
90
28
70
0
10
-18.6849362014
20
16.6195371512
10
-18.7175506945
20
15.5334287287
10
-18.7478377017
20
14.4422448353
10
-18.7756017222
20
13.3522588896
10
-18.8008424618
20
12.2634813619
10
-18.8235597121
20
11.1759213157
10
-18.8437532882
20
10.0895872212
10
-18.8614230060
20
9.0044877948
10
-18.8765687050
20
7.9206326377
10
-18.8891902341
20
6.8380315482
10
-18.8992874611
20
5.7566939267
10
-18.9068603006
20
4.6766289314
10
-18.9119086771
20
3.5978459949
10
-18.9144325277
20
2.5203543217
10
-18.9144318326
20
1.4441631217
10
-18.9119065831
20
0.3692818328
10
-18.9068567820
20
-0.7042803449
10
-18.8992824749
20
-1.7765142651
10
-18.8891837200
20
-2.8474105720
10
-18.8765605856
20
-3.9169601868
10
-18.8614131866
20
-4.9851538368
10
-18.8437416565
20
-6.0519818792
10
-18.8235461389
20
-7.1174348698
10
-18.8008268002
20
-8.1815042754
10
-18.7755838079
20
-9.2441818190
10
-18.7478173530
20
-10.3054586456
10
-18.7175277123
20
-11.3653245746
10
-18.6849279853
20
-12.4171617710
0
LINE
5
244
100
AcDbEntity
8
0
100
AcDbLine
62
7
6
CONTINUOUS
10
-3.9068755143
20
-15.4125011251
11
-16.6516207015
21
-9.0401285315
0
LINE
5
245
100
AcDbEntity
8
0
100
AcDbLine
62
7
6
CONTINUOUS
10
-16.1356879785
20
-15.6471668991
11
-16.1356910084
21
-14.0946403450
0
LINE
5
246
100
AcDbEntity
8
0
100
AcDbLine
62
7
6
CONTINUOUS
10
-16.1356910084
20
19.7025680888
11
-16.1356910084
21
22.4885170810
0
LINE
5
247
100
AcDbEntity
8
0
100
AcDbLine
62
9
6
CONTINUOUS
10
-16.0624677037
20
-15.7343244333
11
-16.0624677037
21
-14.0971394191
0
LINE
5
248
100
AcDbEntity
8
0
100
AcDbLine
62
9
6
CONTINUOUS
10
-16.0624677037
20
19.6141797412
11
-16.0624677037
21
22.4001287334
0
LINE
5
249
100
AcDbEntity
8
0
100
AcDbLine
62
7
6
CONTINUOUS
10
-16.0105570876
20
9.4657204398
11
-16.0105570876
21
-4.8236987226
0
LINE
5
24A
100
AcDbEntity
8
0
100
AcDbLine
62
7
6
CONTINUOUS
10
-15.8888035851
20
19.3198810110
11
-15.8888035851
21
19.5273476819
0
LINE
5
24B
100
AcDbEntity
8
0
100
AcDbLine
62
7
6
CONTINUOUS
10
-15.3388056455
20
-9.6965360595
11
-15.3388056455
21
-12.8032722820
0
LINE
5
24C
100
AcDbEntity
8
0
100
AcDbLine
62
7
6
CONTINUOUS
10
-15.2327396283
20
3.9990455523
11
-15.2327396283
21
3.5660328504
0
LINE
5
24D
100
AcDbEntity
8
0
100
AcDbLine
62
9
6
CONTINUOUS
10
-15.0913182721
20
-3.2914597017
11
-15.0913182721
21
3.4953221723
0
LINE
5
24E
100
AcDbEntity
8
0
100
AcDbLine
62
7
6
CONTINUOUS
10
-14.7731202205
20
-6.9146603426
11
-14.7731202205
21
-5.4424171562
0
LINE
5
24F
100
AcDbEntity
8
0
100
AcDbLine
62
9
6
CONTINUOUS
10
-0.9604770562
20
20.4115064987
11
-0.8023677929
21
20.4905611303
0
LINE
5
250
100
AcDbEntity
8
0
100
AcDbLine
62
7
6
CONTINUOUS
10
1.1367823562
20
20.8819862064
11
1.5003504888
21
21.0637702727
0
LINE
5
251
100
AcDbEntity
8
0
100
AcDbLine
62
3
6
CONTINUOUS
10
1.1367823562
20
20.5355760449
11
1.5003504888
21
20.7173601112
0
LINE
5
252
100
AcDbEntity
8
0
100
AcDbLine
62
9
6
CONTINUOUS
10
0.9246503218
20
20.1697024066
11
0.6418076093
21
20.0282810503
0
LINE
5
253
100
AcDbEntity
8
0
100
AcDbLine
62
7
6
CONTINUOUS
10
5.2320672378
20
22.7935330560
11
4.8649554857
21
22.6209334175
0
LINE
5
254
100
AcDbEntity
8
0
100
AcDbLine
62
7
6
CONTINUOUS
10
6.5107938932
20
-16.2503587286
11
12.7636715709
21
-17.5128365368
0
LINE
5
255
100
AcDbEntity
8
0
100
AcDbLine
62
7
6
CONTINUOUS
10
6.5107938932
20
-16.0060942436
11
12.1373101394
21
-17.1996558210
0
LINE
5
256
100
AcDbEntity
8
0
100
AcDbLine
62
9
6
CONTINUOUS
10
-14.8972652387
20
-6.9136379694
11
-5.7755877614
21
-11.4744767081
0
LINE
5
257
100
AcDbEntity
8
0
100
AcDbLine
62
7
6
CONTINUOUS
10
-14.7731202205
20
-6.9146603426
11
-6.2171281682
21
-11.1926563688
0
LINE
5
258
100
AcDbEntity
8
0
100
AcDbLine
62
9
6
CONTINUOUS
10
-14.3842114909
20
-2.8584469998
11
-14.3842114909
21
3.0777265342
0
LINE
5
259
100
AcDbEntity
8
0
100
AcDbLine
62
9
6
CONTINUOUS
10
-13.1114192848
20
-5.5804473010
11
-13.1114192848
21
-4.2814091954
0
LINE
5
25A
100
AcDbEntity
8
0
100
AcDbLine
62
7
6
CONTINUOUS
10
-12.7148768398
20
25.5742761916
11
-12.7148768398
21
24.3969008110
0
LINE
5
25B
100
AcDbEntity
8
0
100
AcDbLine
62
7
6
CONTINUOUS
10
-0.0743081346
20
18.3187059685
11
6.4400832151
21
21.8333695528
0
LINE
5
25C
100
AcDbEntity
8
0
100
AcDbLine
62
7
6
CONTINUOUS
10
2.6789948864
20
20.8510184382
11
0.9246503218
21
19.9518437211
0
LINE
5
25D
100
AcDbEntity
8
0
100
AcDbLine
62
7
6
CONTINUOUS
10
0.6038816529
20
19.7874364074
11
-1.0552486655
21
18.9370629603
0
LINE
5
25E
100
AcDbEntity
8
0
100
AcDbLine
62
7
6
CONTINUOUS
10
0.9670257028
20
17.7980390498
11
7.7128754212
21
21.1969734497
0
LINE
5
25F
100
AcDbEntity
8
0
100
AcDbLine
62
7
6
CONTINUOUS
10
0.9246503218
20
19.9098947854
11
0.6418076093
21
19.7684734292
0
LINE
5
260
100
AcDbEntity
8
0
100
AcDbLine
62
7
6
CONTINUOUS
10
-16.0105570876
20
9.4657204398
11
-15.5413666455
21
9.7003156609
0
LINE
5
261
100
AcDbEntity
8
0
100
AcDbLine
62
7
6
CONTINUOUS
10
7.7128754212
20
21.1969734497
11
9.2157124022
21
21.9423916713
0
LINE
5
262
100
AcDbEntity
8
0
100
AcDbLine
62
7
6
CONTINUOUS
10
7.9963164656
20
22.5520896397
11
6.8103714700
21
22.0043809399
0
LINE
5
263
100
AcDbEntity
8
0
100
AcDbLine
62
9
6
CONTINUOUS
10
-5.9603351556
20
-11.0642598625
11
-5.8383615622
21
-11.1252466592
0
LINE
5
264
100
AcDbEntity
8
0
100
AcDbLine
62
7
6
CONTINUOUS
10
-12.2628911473
20
-7.3037494754
11
-8.7273572414
21
-9.0715164284
0
LINE
5
265
100
AcDbEntity
8
0
100
AcDbLine
62
9
6
CONTINUOUS
10
-16.1189278017
20
-4.8927730468
11
-14.9168462737
21
-5.4938138109
0
LINE
5
266
100
AcDbEntity
8
0
100
AcDbLine
62
9
6
CONTINUOUS
10
-5.7951687964
20
-10.0546525495
11
-4.5930872684
21
-10.6556933135
0
LINE
5
267
100
AcDbEntity
8
0
100
AcDbLine
62
7
6
CONTINUOUS
10
-4.9796913011
20
-10.3391316159
11
-6.2171281682
21
-9.7204131824
0
LINE
5
268
100
AcDbEntity
8
0
100
AcDbLine
62
7
6
CONTINUOUS
10
-16.0105570876
20
-4.8236987226
11
-14.7731202205
21
-5.4424171562
0
LINE
5
269
100
AcDbEntity
8
0
100
AcDbLine
62
9
6
CONTINUOUS
10
-4.7857713792
20
-10.2421716549
11
-4.6548322258
21
-10.3076412316
0
LINE
5
26A
100
AcDbEntity
8
0
100
AcDbLine
62
9
6
CONTINUOUS
10
-7.8788291040
20
-8.1967423914
11
-8.7273572414
21
-7.7724783227
0
LINE
5
26B
100
AcDbEntity
8
0
100
AcDbLine
62
9
6
CONTINUOUS
10
-12.2628911473
20
-6.0047113698
11
-13.1114192848
21
-5.5804473010
0
LINE
5
26C
100
AcDbEntity
8
0
100
AcDbLine
62
7
6
CONTINUOUS
10
-12.4750231817
20
6.1824090302
11
-12.4750231817
21
4.7967683842
0
LINE
5
26D
100
AcDbEntity
8
0
100
AcDbLine
62
9
6
CONTINUOUS
10
-12.4043125036
20
-5.1474345992
11
-12.4043125036
21
-3.8483964935
0
LINE
5
26E
100
AcDbEntity
8
0
100
AcDbLine
62
9
6
CONTINUOUS
10
-12.2628911473
20
-7.3037494754
11
-12.2628911473
21
-6.0047113698
0
LINE
5
26F
100
AcDbEntity
8
0
100
AcDbLine
62
7
6
CONTINUOUS
10
-11.7679164005
20
5.8288556396
11
-11.7679164005
21
5.1503217748
0
LINE
5
270
100
AcDbEntity
8
0
100
AcDbLine
62
9
6
CONTINUOUS
10
-11.5557843661
20
-7.2235619380
11
-11.5557843661
21
-5.5716986679
0
LINE
5
271
100
AcDbEntity
8
0
100
AcDbLine
62
9
6
CONTINUOUS
10
-11.0379589133
20
25.2348003948
11
-11.0379589133
21
24.0600907892
0
LINE
5
272
100
AcDbEntity
8
0
100
AcDbLine
62
7
6
CONTINUOUS
10
-10.3219156161
20
22.4261861173
11
-10.3219156161
21
23.0757051702
0
LINE
5
273
100
AcDbEntity
8
0
100
AcDbLine
62
9
6
CONTINUOUS
10
-5.4462323627
20
24.8560649996
11
-5.4629173962
21
24.7848302994
0
LWPOLYLINE
5
274
100
AcDbEntity
8
0
100
AcDbPolyline
62
7
6
CONTINUOUS
90
33
70
0
10
3.7310630568
20
18.0141819685
10
3.7147762230
20
18.0054916298
10
3.6931552752
20
17.9933106325
10
3.6721588824
20
17.9807189698
10
3.6517705746
20
17.9677031965
10
3.6320220599
20
17.9542794951
10
3.6129875333
20
17.9404987477
10
3.5946655411
20
17.9263643580
10
3.5770592472
20
17.9118824756
10
3.5602362139
20
17.8971168512
10
3.5441908953
20
17.8820766718
10
3.5289186009
20
17.8667713761
10
3.5144742169
20
17.8512756761
10
3.5008635982
20
17.8356251904
10
3.4880562123
20
17.8198149820
10
3.4760459940
20
17.8038667070
10
3.4648302708
20
17.7878096704
10
3.4543882222
20
17.7716488372
10
3.4446915939
20
17.7553716750
10
3.4357329635
20
17.7389950389
10
3.4275044945
20
17.7225368361
10
3.4199856916
20
17.7059868461
10
3.4131712551
20
17.6893622356
10
3.4070559632
20
17.6726823461
10
3.4016256830
20
17.6559412283
10
3.3968760576
20
17.6391572067
10
3.3928024671
20
17.6223502385
10
3.3893951153
20
17.6055177083
10
3.3866497037
20
17.5886796513
10
3.3845608678
20
17.5718552188
10
3.3831209622
20
17.5550409038
10
3.3823253655
20
17.5382485195
10
3.3821486257
20
17.5257204317
0
LINE
5
275
100
AcDbEntity
8
0
100
AcDbLine
62
7
6
CONTINUOUS
10
5.1601471701
20
18.7592750334
11
3.7310602593
21
18.0141805562
0
LINE
5
276
100
AcDbEntity
8
0
100
AcDbLine
62
9
6
CONTINUOUS
10
5.2733570261
20
18.7529003349
11
3.8435536519
21
18.0074323095
0
LINE
5
277
100
AcDbEntity
8
0
100
AcDbLine
62
7
6
CONTINUOUS
10
7.7128754212
20
20.5474543969
11
0.9670257028
21
17.1485199970
0
LINE
5
278
100
AcDbEntity
8
0
100
AcDbLine
62
9
6
CONTINUOUS
10
4.8700883900
20
17.4849344407
11
6.3340441218
21
18.2225567870
0
LINE
5
279
100
AcDbEntity
8
0
100
AcDbLine
62
9
6
CONTINUOUS
10
5.0468381613
20
17.1800861791
11
6.5107938932
21
17.9177085253
0
LINE
5
27A
100
AcDbEntity
8
0
100
AcDbLine
62
7
6
CONTINUOUS
10
9.7276915618
20
21.5468180560
11
7.7128754212
21
20.5474543969
0
LINE
5
27B
100
AcDbEntity
8
0
100
AcDbLine
62
9
6
CONTINUOUS
10
6.3340441218
20
18.2225567870
11
12.5869217995
21
21.3240302120
0
LINE
5
27C
100
AcDbEntity
8
0
100
AcDbLine
62
9
6
CONTINUOUS
10
6.5107938932
20
17.9177085253
11
12.7636715709
21
21.0191819503
0
LINE
5
27D
100
AcDbEntity
8
0
100
AcDbLine
62
7
6
CONTINUOUS
10
5.1630178667
20
18.7607098454
11
11.5269776392
21
21.8066409917
0
LINE
5
27E
100
AcDbEntity
8
0
100
AcDbLine
62
9
6
CONTINUOUS
10
5.2733570261
20
18.7529003349
11
11.6373180568
21
21.7988320833
0
LINE
5
27F
100
AcDbEntity
8
0
100
AcDbLine
62
7
6
CONTINUOUS
10
-14.2536013076
20
-13.6056820721
11
-15.9396355675
21
-14.0769444658
0
LINE
5
280
100
AcDbEntity
8
0
100
AcDbLine
62
9
6
CONTINUOUS
10
9.0563783054
20
-16.0127432947
11
10.9091332310
21
-16.9391207574
0
LINE
5
281
100
AcDbEntity
8
0
100
AcDbLine
62
7
6
CONTINUOUS
10
9.2002156029
20
-15.9586576509
11
11.3468480614
21
-17.0319738801
0
LINE
5
282
100
AcDbEntity
8
0
100
AcDbLine
62
9
6
CONTINUOUS
10
-8.0252757134
20
-7.3369529942
11
-8.7273572414
21
-6.9859122302
0
LINE
5
283
100
AcDbEntity
8
0
100
AcDbLine
62
9
6
CONTINUOUS
10
-11.5557843661
20
-5.5716986679
11
-12.4043125036
21
-5.1474345992
0
LINE
5
284
100
AcDbEntity
8
0
100
AcDbLine
62
7
6
CONTINUOUS
10
12.7636715709
20
-17.5128365368
11
12.1373101394
21
-17.1996558210
0
LINE
5
285
100
AcDbEntity
8
0
100
AcDbLine
62
7
6
CONTINUOUS
10
-10.0001494475
20
-6.0929193142
11
-8.4707604285
21
-6.8576138238
0
LINE
5
286
100
AcDbEntity
8
0
100
AcDbLine
62
7
6
CONTINUOUS
10
-8.2586283941
20
-6.7515478066
11
-9.7880174132
21
-5.9868532971
0
LINE
5
287
100
AcDbEntity
8
0
100
AcDbLine
62
9
6
CONTINUOUS
10
-5.8989301166
20
-7.8876537794
11
-7.8788291040
21
-6.8977042858
0
LINE
5
288
100
AcDbEntity
8
0
100
AcDbLine
62
9
6
CONTINUOUS
10
-13.1114192848
20
-4.2814091954
11
-15.0913182721
21
-3.2914597017
0
LINE
5
289
100
AcDbEntity
8
0
100
AcDbLine
62
9
6
CONTINUOUS
10
6.6684976036
20
-13.3898610275
11
8.7028249149
21
-14.4070246831
0
LINE
5
28A
100
AcDbEntity
8
0
100
AcDbLine
62
9
6
CONTINUOUS
10
-6.0453767261
20
-7.0278643822
11
-7.8788291040
21
-6.1111381933
0
LINE
5
28B
100
AcDbEntity
8
0
100
AcDbLine
62
9
6
CONTINUOUS
10
-12.4043125036
20
-3.8483964935
11
-14.3842114909
21
-2.8584469998
0
LINE
5
28C
100
AcDbEntity
8
0
100
AcDbLine
62
7
6
CONTINUOUS
10
7.0962238051
20
-13.4777198357
11
8.9264317126
21
-14.3928237895
0
LINE
5
28D
100
AcDbEntity
8
0
100
AcDbLine
62
7
6
CONTINUOUS
10
-10.6365455506
20
-4.2635511227
11
-9.7880174132
21
-4.6878151914
0
LINE
5
28E
100
AcDbEntity
8
0
100
AcDbLine
62
7
6
CONTINUOUS
10
-9.7880174132
20
-4.6878151914
11
-9.7880174132
21
-5.9868532971
0
LINE
5
28F
100
AcDbEntity
8
0
100
AcDbLine
62
9
6
CONTINUOUS
10
-9.0738905901
20
22.1689781434
11
-9.0738905901
21
22.8184971963
0
LINE
5
290
100
AcDbEntity
8
0
100
AcDbLine
62
7
6
CONTINUOUS
10
-8.8738038508
20
-7.2900145774
11
-8.8738038508
21
-8.8712213362
0
LINE
5
291
100
AcDbEntity
8
0
100
AcDbLine
62
9
6
CONTINUOUS
10
-8.7273572414
20
-7.7724783227
11
-8.7273572414
21
-9.0715164284
0
LINE
5
292
100
AcDbEntity
8
0
100
AcDbLine
62
7
6
CONTINUOUS
10
-8.5152252070
20
2.8168693968
11
-8.5152252070
21
4.2025100429
0
LINE
5
293
100
AcDbEntity
8
0
100
AcDbLine
62
9
6
CONTINUOUS
10
-3.4959866780
20
25.0550997967
11
-3.5833898829
21
24.6819425529
0
LINE
5
294
100
AcDbEntity
8
0
100
AcDbLine
62
9
6
CONTINUOUS
10
-3.2200656194
20
24.9981156563
11
-3.3074688243
21
24.6249584125
0
LINE
5
295
100
AcDbEntity
8
0
100
AcDbLine
62
9
6
CONTINUOUS
10
1.1148971154
20
14.2016112164
11
4.4023217987
21
15.8579986708
0
LINE
5
296
100
AcDbEntity
8
0
100
AcDbLine
62
9
6
CONTINUOUS
10
1.2916468867
20
13.8967629547
11
5.0468381613
21
15.7888372425
0
LINE
5
297
100
AcDbEntity
8
0
100
AcDbLine
62
7
6
CONTINUOUS
10
-5.8360087021
20
-11.2829892126
11
-5.8411981884
21
-10.9306124375
0
LINE
5
298
100
AcDbEntity
8
0
100
AcDbLine
62
7
6
CONTINUOUS
10
-5.8411981884
20
-10.9306124375
11
-5.8456054372
21
-10.6151304282
0
LINE
5
299
100
AcDbEntity
8
0
100
AcDbLine
62
7
6
CONTINUOUS
10
-5.8456054372
20
-10.6151304282
11
-5.8497887588
21
-10.2995320477
0
LINE
5
29A
100
AcDbEntity
8
0
100
AcDbLine
62
7
6
CONTINUOUS
10
-5.8497887588
20
-10.2995320477
11
-5.8537481497
21
-9.9838175815
0
LINE
5
29B
100
AcDbEntity
8
0
100
AcDbLine
62
7
6
CONTINUOUS
10
-8.0252757134
20
-6.4152405404
11
-8.0252757134
21
-7.7142786461
0
LINE
5
29C
100
AcDbEntity
8
0
100
AcDbLine
62
9
6
CONTINUOUS
10
-7.8788291040
20
-6.8977042858
11
-7.8788291040
21
-8.1967423914
0
LINE
5
29D
100
AcDbEntity
8
0
100
AcDbLine
62
7
6
CONTINUOUS
10
-7.8434737649
20
24.0111141163
11
-7.8434737649
21
24.2709217374
0
LINE
5
29E
100
AcDbEntity
8
0
100
AcDbLine
62
7
6
CONTINUOUS
10
-6.2171281682
20
-11.1926563688
11
-6.2171281682
21
-9.7204131824
0
LINE
5
29F
100
AcDbEntity
8
0
100
AcDbLine
62
7
6
CONTINUOUS
10
-6.0453767261
20
-1.0883609039
11
-6.0453767261
21
-7.4051900341
0
LINE
5
2A0
100
AcDbEntity
8
0
100
AcDbLine
62
7
6
CONTINUOUS
10
-6.0403514729
20
-1.0301612273
11
-6.0403514729
21
-0.5971485254
0
LINE
5
2A1
100
AcDbEntity
8
0
100
AcDbLine
62
7
6
CONTINUOUS
10
-5.8989301166
20
-0.9594505491
11
-5.8989301166
21
-0.5264378473
0
LINE
5
2A2
100
AcDbEntity
8
0
100
AcDbLine
62
9
6
CONTINUOUS
10
-5.8989301166
20
-0.9594505491
11
-5.8989301166
21
-7.8876537794
0
LINE
5
2A3
100
AcDbEntity
8
0
100
AcDbLine
62
9
6
CONTINUOUS
10
-1.1694559540
20
23.9728108236
11
-1.1898872135
21
23.8855820715
0
LINE
5
2A4
100
AcDbEntity
8
0
100
AcDbLine
62
9
6
CONTINUOUS
10
-1.4157237100
20
22.8408106733
11
-1.4324087434
21
22.7695759730
0
LINE
5
2A5
100
AcDbEntity
8
0
100
AcDbLine
62
7
6
CONTINUOUS
10
-15.0913182721
20
4.0697562305
11
-15.2327396283
21
3.9990455523
0
LINE
5
2A6
100
AcDbEntity
8
0
100
AcDbLine
62
7
6
CONTINUOUS
10
-12.4750231817
20
4.7967683842
11
-11.7679164005
21
5.1503217748
0
LINE
5
2A7
100
AcDbEntity
8
0
100
AcDbLine
62
7
6
CONTINUOUS
10
14.0768364519
20
16.8603437250
11
13.0161762801
21
16.3300136391
0
LINE
5
2A8
100
AcDbEntity
8
0
100
AcDbLine
62
7
6
CONTINUOUS
10
1.4746482614
20
11.1991751492
11
1.2916468867
21
11.1108139625
0
LINE
5
2A9
100
AcDbEntity
8
0
100
AcDbLine
62
7
6
CONTINUOUS
10
-6.2411890994
20
23.0518625202
11
-6.1324784459
21
21.4756778504
0
LWPOLYLINE
5
2AA
100
AcDbEntity
8
0
100
AcDbPolyline
62
7
6
CONTINUOUS
90
15
70
0
10
-4.6531247095
20
-10.4638293769
10
-4.6626029531
20
-9.5968454269
10
-4.6713494480
20
-8.6077063092
10
-4.6779060477
20
-7.6174481959
10
-4.6822727095
20
-6.6260782805
10
-4.6844494064
20
-5.6336038003
10
-4.6844361276
20
-4.6400320367
10
-4.6822328784
20
-3.6453702411
10
-4.6778396800
20
-2.6496256416
10
-4.6712565697
20
-1.6528054962
10
-4.6624836007
20
-0.6549170645
10
-4.6515208418
20
0.3440323864
10
-4.6383683783
20
1.3440355755
10
-4.6230263109
20
2.3450852181
10
-4.6054947565
20
3.3471740260
0
LINE
5
2AB
100
AcDbEntity
8
0
100
AcDbLine
62
7
6
CONTINUOUS
10
-4.9796913011
20
-10.3391316159
11
-4.9796913011
21
3.9502875465
0
LWPOLYLINE
5
2AC
100
AcDbEntity
8
0
100
AcDbPolyline
62
7
6
CONTINUOUS
90
11
70
0
10
-5.8537481497
20
-9.9838175815
10
-5.8536861912
20
-9.9758388287
10
-5.8533053082
20
-9.9678581869
10
-5.8526050850
20
-9.9598908701
10
-5.8515879840
20
-9.9519654037
10
-5.8502544734
20
-9.9440834984
10
-5.8485977260
20
-9.9362209135
10
-5.8466090104
20
-9.9283675933
10
-5.8442929050
20
-9.9205668446
10
-5.8416639157
20
-9.9128736778
10
-5.8401284402
20
-9.9089130464
0
LINE
5
2AD
100
AcDbEntity
8
0
100
AcDbLine
62
7
6
CONTINUOUS
10
-4.6054947565
20
3.3471740260
11
-4.5883491930
21
4.2253122103
0
LINE
5
2AE
100
AcDbEntity
8
0
100
AcDbLine
62
9
6
CONTINUOUS
10
0.5345219747
20
23.0398454704
11
0.4471187698
21
22.6666882265
0
LINE
5
2AF
100
AcDbEntity
8
0
100
AcDbLine
62
9
6
CONTINUOUS
10
0.8104430334
20
22.9828613300
11
0.7230398285
21
22.6097040861
0
LINE
5
2B0
100
AcDbEntity
8
0
100
AcDbLine
62
9
6
CONTINUOUS
10
1.2983804554
20
10.8542963503
11
-1.1071921780
21
9.1821945937
0
LINE
5
2B1
100
AcDbEntity
8
0
100
AcDbLine
62
9
6
CONTINUOUS
10
1.4746482614
20
10.5469823984
11
-0.9028306344
21
8.8944084612
0
LINE
5
2B2
100
AcDbEntity
8
0
100
AcDbLine
62
7
6
CONTINUOUS
10
14.0768364519
20
15.9943183212
11
13.8822016839
21
15.8970009372
0
LINE
5
2B3
100
AcDbEntity
8
0
100
AcDbLine
62
7
6
CONTINUOUS
10
15.3496286580
20
16.2239476219
11
14.2889684862
21
15.6936175361
0
LINE
5
2B4
100
AcDbEntity
8
0
100
AcDbLine
62
7
6
CONTINUOUS
10
8.0664288118
20
10.6959238284
11
6.5107938932
21
10.0368885609
0
LINE
5
2B5
100
AcDbEntity
8
0
100
AcDbLine
62
7
6
CONTINUOUS
10
-14.6892260890
20
3.2302338333
11
-6.0467087038
21
-1.0910248594
0
LINE
5
2B6
100
AcDbEntity
8
0
100
AcDbLine
62
7
6
CONTINUOUS
10
-15.2327396283
20
3.5660328504
11
-6.0403514729
21
-1.0301612273
0
LINE
5
2B7
100
AcDbEntity
8
0
100
AcDbLine
62
7
6
CONTINUOUS
10
-6.0403514729
20
-0.5971485254
11
-15.2327396283
21
3.9990455523
0
LINE
5
2B8
100
AcDbEntity
8
0
100
AcDbLine
62
7
6
CONTINUOUS
10
-5.8989301166
20
-0.5264378473
11
-15.0913182721
21
4.0697562305
0
LINE
5
2B9
100
AcDbEntity
8
0
100
AcDbLine
62
7
6
CONTINUOUS
10
-3.2472796872
20
28.0343036805
11
-3.2472796872
21
29.0245916244
0
LINE
5
2BA
100
AcDbEntity
8
0
100
AcDbLine
62
7
6
CONTINUOUS
10
-2.3280408717
20
25.8128730925
11
-2.3280408717
21
26.2174315961
0
LINE
5
2BB
100
AcDbEntity
8
0
100
AcDbLine
62
7
6
CONTINUOUS
10
-1.0691877097
20
18.9440324824
11
-0.9604770562
21
20.4115064987
0
LINE
5
2BC
100
AcDbEntity
8
0
100
AcDbLine
62
3
6
CONTINUOUS
10
-0.7871586619
20
19.0744702621
11
-0.6865445772
21
20.4326495225
0
LINE
5
2BD
100
AcDbEntity
8
0
100
AcDbLine
62
9
6
CONTINUOUS
10
1.5659028924
20
20.7374204229
11
1.6533060973
21
21.1105776668
0
LINE
5
2BE
100
AcDbEntity
8
0
100
AcDbLine
62
9
6
CONTINUOUS
10
2.8610526988
20
21.9575564972
11
2.8406214393
21
21.8703277451
0
LINE
5
2BF
100
AcDbEntity
8
0
100
AcDbLine
62
7
6
CONTINUOUS
10
-4.9796913011
20
3.9502875465
11
-4.5899138394
21
4.1451762774
0
LINE
5
2C0
100
AcDbEntity
8
0
100
AcDbLine
62
9
6
CONTINUOUS
10
18.6376751905
20
15.6405845275
11
17.5770150187
21
15.1102544416
0
LINE
5
2C1
100
AcDbEntity
8
0
100
AcDbLine
62
7
6
CONTINUOUS
10
8.4553375414
20
10.4787050248
11
17.6477256969
21
15.0748991025
0
LINE
5
2C2
100
AcDbEntity
8
0
100
AcDbLine
62
9
6
CONTINUOUS
10
18.7619392592
20
15.2307769063
11
17.7891470531
21
14.7443808033
0
LINE
5
2C3
100
AcDbEntity
8
0
100
AcDbLine
62
7
6
CONTINUOUS
10
8.4553375414
20
10.5014694636
11
6.5107938932
21
9.6123638916
0
LINE
5
2C4
100
AcDbEntity
8
0
100
AcDbLine
62
7
6
CONTINUOUS
10
-12.4750231817
20
4.7967683842
11
-8.5152252070
21
2.8168693968
0
LINE
5
2C5
100
AcDbEntity
8
0
100
AcDbLine
62
7
6
CONTINUOUS
10
-11.7679164005
20
5.1503217748
11
-8.5152252070
21
3.5239761780
0
LINE
5
2C6
100
AcDbEntity
8
0
100
AcDbLine
62
9
6
CONTINUOUS
10
6.8289919447
20
-3.4821620488
11
6.7582812666
21
-3.4468067098
0
LINE
5
2C7
100
AcDbEntity
8
0
100
AcDbLine
62
7
6
CONTINUOUS
10
-8.5152252070
20
4.2025100429
11
-12.4750231817
21
6.1824090302
0
LINE
5
2C8
100
AcDbEntity
8
0
100
AcDbLine
62
7
6
CONTINUOUS
10
-0.7529131423
20
25.4298677315
11
-0.7529131423
21
25.1104528419
0
LINE
5
2C9
100
AcDbEntity
8
0
100
AcDbLine
62
7
6
CONTINUOUS
10
-0.3132247311
20
26.5785146597
11
-0.3132247311
21
26.3543804594
0
LINE
5
2CA
100
AcDbEntity
8
0
100
AcDbLine
62
7
6
CONTINUOUS
10
-0.2809993232
20
17.4057279709
11
-0.2809993232
21
18.0552470238
0
LINE
5
2CB
100
AcDbEntity
8
0
100
AcDbLine
62
9
6
CONTINUOUS
10
-0.1713651890
20
22.1376550239
11
-0.1713651890
21
22.4242366827
0
LINE
5
2CC
100
AcDbEntity
8
0
100
AcDbLine
62
9
6
CONTINUOUS
10
0.5849819124
20
25.6634004802
11
0.5849819124
21
25.1522996701
0
LINE
5
2CD
100
AcDbEntity
8
0
100
AcDbLine
62
7
6
CONTINUOUS
10
0.6418076093
20
19.7684734292
11
0.6418076093
21
20.0282810503
0
LINE
5
2CE
100
AcDbEntity
8
0
100
AcDbLine
62
9
6
CONTINUOUS
10
4.8421713035
20
22.3938870079
11
4.8254862701
21
22.3226523076
0
LINE
5
2CF
100
AcDbEntity
8
0
100
AcDbLine
62
7
6
CONTINUOUS
10
12.7636715709
20
18.6870253414
11
6.5107938932
21
10.9495031496
0
LINE
5
2D0
100
AcDbEntity
8
0
100
AcDbLine
62
7
6
CONTINUOUS
10
17.7891470531
20
13.2721376168
11
17.0820402719
21
12.9185842262
0
LINE
5
2D1
100
AcDbEntity
8
0
100
AcDbLine
62
7
6
CONTINUOUS
10
-14.3842114909
20
-2.8584469998
11
-8.4480379569
21
0.1096397672
0
LINE
5
2D2
100
AcDbEntity
8
0
100
AcDbLine
62
7
6
CONTINUOUS
10
6.5107938932
20
7.2706590131
11
6.8289919447
21
7.4297580389
0
LINE
5
2D3
100
AcDbEntity
8
0
100
AcDbLine
62
7
6
CONTINUOUS
10
-5.8989301166
20
-0.5264378473
11
-6.0403514729
21
-0.5971485254
0
LINE
5
2D4
100
AcDbEntity
8
0
100
AcDbLine
62
7
6
CONTINUOUS
10
-12.4043125036
20
-3.8483964935
11
-6.4681389696
21
-0.8803097265
0
LINE
5
2D5
100
AcDbEntity
8
0
100
AcDbLine
62
7
6
CONTINUOUS
10
6.5107938932
20
4.4302363926
11
6.9505500945
21
4.5715866002
0
LINE
5
2D6
100
AcDbEntity
8
0
100
AcDbLine
62
7
6
CONTINUOUS
10
16.1628014564
20
2.0348762485
11
16.9406189157
21
1.9907722763
0
LINE
5
2D7
100
AcDbEntity
8
0
100
AcDbLine
62
9
6
CONTINUOUS
10
7.3946773697
20
-2.5064990133
11
7.3239666915
21
-2.4711436743
0
LINE
5
2D8
100
AcDbEntity
8
0
100
AcDbLine
62
7
6
CONTINUOUS
10
-4.9796913011
20
3.9502875465
11
-16.0105570876
21
9.4657204398
0
LINE
5
2D9
100
AcDbEntity
8
0
100
AcDbLine
62
7
6
CONTINUOUS
10
-4.5889513033
20
4.2241079898
11
-15.8893678674
21
9.8743162718
0
LINE
5
2DA
100
AcDbEntity
8
0
100
AcDbLine
62
9
6
CONTINUOUS
10
-4.5271916426
20
4.2799044562
11
-16.0530321760
21
10.0428247229
0
LINE
5
2DB
100
AcDbEntity
8
0
100
AcDbLine
62
9
6
CONTINUOUS
10
7.3946773697
20
-0.8610507461
11
7.3239666915
21
-0.8256954071
0
LWPOLYLINE
5
2DC
100
AcDbEntity
8
0
100
AcDbPolyline
62
7
6
CONTINUOUS
90
81
70
0
10
3.3821486261
20
-23.5336763172
10
3.3823670911
20
-23.5473552613
10
3.3832361778
20
-23.5641319749
10
3.3847661179
20
-23.5808733921
10
3.3869564197
20
-23.5975731193
10
3.3898127882
20
-23.6142529114
10
3.3933369483
20
-23.6308927900
10
3.3975297025
20
-23.6474728106
10
3.4024040837
20
-23.6640149923
10
3.4079641284
20
-23.6805002751
10
3.4142126407
20
-23.6969089526
10
3.4211698642
20
-23.7132623137
10
3.4288440511
20
-23.7295441181
10
3.4372400388
20
-23.7457329787
10
3.4463822417
20
-23.7618430519
10
3.4562806609
20
-23.7778567784
10
3.4669444795
20
-23.7937559479
10
3.4784061102
20
-23.8095547158
10
3.4906814104
20
-23.8252384406
10
3.5037823861
20
-23.8407871547
10
3.5177453027
20
-23.8562080187
10
3.5326270572
20
-23.8715226093
10
3.5484110362
20
-23.8866732523
10
3.5650170953
20
-23.9015569408
10
3.5824683147
20
-23.9161765881
10
3.6007601615
20
-23.9305099383
10
3.6197439028
20
-23.9444350057
10
3.6393864536
20
-23.9579345344
10
3.6597085136
20
-23.9710278875
10
3.6806163815
20
-23.9836626149
10
3.7020922776
20
-23.9958397338
10
3.7241305970
20
-24.0075661040
10
3.7466382824
20
-24.0188050158
10
3.7695826895
20
-24.0295556382
10
3.7929618914
20
-24.0398312690
10
3.8167160690
20
-24.0496196725
10
3.8408150806
20
-24.0589229558
10
3.8652498878
20
-24.0677513887
10
3.8899850617
20
-24.0761047187
10
3.9149976703
20
-24.0839873687
10
3.9402702539
20
-24.0914053624
10
3.9657707316
20
-24.0983598558
10
3.9914684690
20
-24.1048532615
10
4.0173528307
20
-24.1108928756
10
4.0434185132
20
-24.1164858581
10
4.0696433266
20
-24.1216352790
10
4.0960099153
20
-24.1263447278
10
4.1225184904
20
-24.1306202571
10
4.1491498121
20
-24.1344640045
10
4.1758849989
20
-24.1378777586
10
4.2027236833
20
-24.1408654483
10
4.2296476280
20
-24.1434281094
10
4.2566377770
20
-24.1455665014
10
4.2836919264
20
-24.1472826562
10
4.3107920129
20
-24.1485766564
10
4.3379191443
20
-24.1494486212
10
4.3650696649
20
-24.1498989937
10
4.3922251513
20
-24.1499270969
10
4.4193670860
20
-24.1495325428
10
4.4464917086
20
-24.1487143092
10
4.4735815500
20
-24.1474710130
10
4.5006169070
20
-24.1458016774
10
4.5275909165
20
-24.1437040050
10
4.5544862952
20
-24.1411760458
10
4.5812827797
20
-24.1382162396
10
4.6079697521
20
-24.1348214423
10
4.6345284619
20
-24.1309894161
10
4.6609397970
20
-24.1267177855
10
4.6871940782
20
-24.1220021146
10
4.7132726287
20
-24.1168393532
10
4.7391557416
20
-24.1112261460
10
4.7648345915
20
-24.1051563876
10
4.7902903818
20
-24.0986256723
10
4.8155028461
20
-24.0916292979
10
4.8404639484
20
-24.0841588595
10
4.8651531833
20
-24.0762084246
10
4.8895505785
20
-24.0677712115
10
4.9136524300
20
-24.0588338829
10
4.9374444664
20
-24.0493846125
10
4.9608978089
20
-24.0394167760
10
4.9779992782
20
-24.0317114794
0
LINE
5
2DD
100
AcDbEntity
8
0
100
AcDbLine
62
7
6
CONTINUOUS
10
0.8717314632
20
25.7611612843
11
0.8717314632
21
25.1817774238
0
LINE
5
2DE
100
AcDbEntity
8
0
100
AcDbLine
62
3
6
CONTINUOUS
10
0.9246503218
20
19.9098947854
11
0.9246503218
21
20.1697024066
0
LINE
5
2DF
100
AcDbEntity
8
0
100
AcDbLine
62
9
6
CONTINUOUS
10
0.9412055988
20
13.8982920821
11
0.9412055988
21
11.1123430899
0
LINE
5
2E0
100
AcDbEntity
8
0
100
AcDbLine
62
9
6
CONTINUOUS
10
0.9412055988
20
-21.4502120924
11
0.9412055988
21
-24.2361610846
0
LINE
5
2E1
100
AcDbEntity
8
0
100
AcDbLine
62
9
6
CONTINUOUS
10
0.9670257028
20
17.1485199970
11
0.9670257028
21
17.7980390498
0
LINE
5
2E2
100
AcDbEntity
8
0
100
AcDbLine
62
9
6
CONTINUOUS
10
1.1367823562
20
20.5355760449
11
1.1367823562
21
20.8819862064
0
LINE
5
2E3
100
AcDbEntity
8
0
100
AcDbLine
62
9
6
CONTINUOUS
10
1.2916468867
20
13.8967629547
11
1.2916468867
21
11.1108139625
0
LINE
5
2E4
100
AcDbEntity
8
0
100
AcDbLine
62
9
6
CONTINUOUS
10
1.2916468867
20
-21.4517412198
11
1.2916468867
21
-24.2376902120
0
LINE
5
2E5
100
AcDbEntity
8
0
100
AcDbLine
62
7
6
CONTINUOUS
10
1.4746482614
20
11.1991751492
11
1.4746482614
21
10.5469823984
0
LINE
5
2E6
100
AcDbEntity
8
0
100
AcDbLine
62
7
6
CONTINUOUS
10
1.4746482614
20
-20.7111872823
11
1.4746482614
21
-21.3633800331
0
LINE
5
2E7
100
AcDbEntity
8
0
100
AcDbLine
62
9
6
CONTINUOUS
10
1.5003504888
20
20.7173601112
11
1.5003504888
21
21.0637702727
0
LINE
5
2E8
100
AcDbEntity
8
0
100
AcDbLine
62
7
6
CONTINUOUS
10
-11.5557843661
20
-7.2235619380
11
-10.0001494475
21
-6.0929193142
0
LINE
5
2E9
100
AcDbEntity
8
0
100
AcDbLine
62
7
6
CONTINUOUS
10
-5.8989301166
20
-0.9594505491
11
-6.0403514729
21
-1.0301612273
0
LINE
5
2EA
100
AcDbEntity
8
0
100
AcDbLine
62
7
6
CONTINUOUS
10
-12.4043125036
20
-5.1474345992
11
-6.0453767261
21
-1.9679667104
0
LINE
5
2EB
100
AcDbEntity
8
0
100
AcDbLine
62
7
6
CONTINUOUS
10
6.8289919447
20
4.3986691256
11
6.5107938932
21
4.2395700998
0
LINE
5
2EC
100
AcDbEntity
8
0
100
AcDbLine
62
7
6
CONTINUOUS
10
-11.5557843661
20
-5.5716986679
11
-9.7880174132
21
-4.6878151914
0
LINE
5
2ED
100
AcDbEntity
8
0
100
AcDbLine
62
7
6
CONTINUOUS
10
12.9808209410
20
-0.9583381204
11
12.7686889067
21
-0.8522721032
0
LINE
5
2EE
100
AcDbEntity
8
0
100
AcDbLine
62
7
6
CONTINUOUS
10
3.3821485052
20
17.5257670142
11
3.3821485052
21
16.3483881500
0
LINE
5
2EF
100
AcDbEntity
8
0
100
AcDbLine
62
7
6
CONTINUOUS
10
3.3821485052
20
-23.3774793414
11
3.3821485052
21
-23.5337293744
0
LINE
5
2F0
100
AcDbEntity
8
0
100
AcDbLine
62
7
6
CONTINUOUS
10
4.8649554857
20
22.6209334175
11
4.8649554857
21
22.3015185279
0
LINE
5
2F1
100
AcDbEntity
8
0
100
AcDbLine
62
9
6
CONTINUOUS
10
5.0468381613
20
17.1800861791
11
5.0468381613
21
15.7888372425
0
LINE
5
2F2
100
AcDbEntity
8
0
100
AcDbLine
62
9
6
CONTINUOUS
10
5.0468381613
20
-22.5034184386
11
5.0468381613
21
-23.8946673751
0
LINE
5
2F3
100
AcDbEntity
8
0
100
AcDbLine
62
7
6
CONTINUOUS
10
-10.0001494475
20
-6.0929193142
11
-6.0453767261
21
-4.1155329535
0
LINE
5
2F4
100
AcDbEntity
8
0
100
AcDbLine
62
7
6
CONTINUOUS
10
-6.0453767261
20
-4.2887380343
11
-9.6148123324
21
-6.0734558374
0
LINE
5
2F5
100
AcDbEntity
8
0
100
AcDbLine
62
7
6
CONTINUOUS
10
-7.8788291040
20
-6.1111381933
11
-6.0453767261
21
-5.1944120043
0
LINE
5
2F6
100
AcDbEntity
8
0
100
AcDbLine
62
7
6
CONTINUOUS
10
-8.7273572414
20
-6.9859122302
11
-8.0252757134
21
-6.6348714662
0
LINE
5
2F7
100
AcDbEntity
8
0
100
AcDbLine
62
9
6
CONTINUOUS
10
-18.6116965835
20
16.5319719520
11
-1.6986030718
21
8.0754251961
0
LINE
5
2F8
100
AcDbEntity
8
0
100
AcDbLine
62
9
6
CONTINUOUS
10
6.8289919447
20
4.3986691256
11
6.7582812666
21
4.4340244647
0
LINE
5
2F9
100
AcDbEntity
8
0
100
AcDbLine
62
7
6
CONTINUOUS
10
6.5107938932
20
17.9177085253
11
6.5107938932
21
-23.2185641044
0
LINE
5
2FA
100
AcDbEntity
8
0
100
AcDbLine
62
7
6
CONTINUOUS
10
7.1825453353
20
-0.4381485157
11
7.1825453353
21
-3.0001119219
0
LINE
5
2FB
100
AcDbEntity
8
0
100
AcDbLine
62
7
6
CONTINUOUS
10
7.1825453353
20
4.8807192526
11
7.1825453353
21
7.4426826587
0
LINE
5
2FC
100
AcDbEntity
8
0
100
AcDbLine
62
7
6
CONTINUOUS
10
7.3239666915
20
7.0551357674
11
7.3239666915
21
5.4096875002
0
LINE
5
2FD
100
AcDbEntity
8
0
100
AcDbLine
62
7
6
CONTINUOUS
10
7.3239666915
20
-0.8256954071
11
7.3239666915
21
-2.4711436743
0
LINE
5
2FE
100
AcDbEntity
8
0
100
AcDbLine
62
7
6
CONTINUOUS
10
7.3946773697
20
7.0197804283
11
7.3946773697
21
5.3743321611
0
LINE
5
2FF
100
AcDbEntity
8
0
100
AcDbLine
62
7
6
CONTINUOUS
10
7.3946773697
20
-0.8610507461
11
7.3946773697
21
-2.5064990133
0
LINE
5
300
100
AcDbEntity
8
0
100
AcDbLine
62
7
6
CONTINUOUS
10
6.5107938932
20
-0.6101721613
11
6.8289919447
21
-0.4510731356
0
LINE
5
301
100
AcDbEntity
8
0
100
AcDbLine
62
7
6
CONTINUOUS
10
16.4809995079
20
3.0000048436
11
15.4556946752
21
2.4873524272
0
LINE
5
302
100
AcDbEntity
8
0
100
AcDbLine
62
7
6
CONTINUOUS
10
12.9808209410
20
1.1919845312
11
9.0917336445
21
-0.7525591171
0
LINE
5
303
100
AcDbEntity
8
0
100
AcDbLine
62
7
6
CONTINUOUS
10
16.1274461173
20
2.7437688370
11
15.4556946752
21
2.4078931159
0
LINE
5
304
100
AcDbEntity
8
0
100
AcDbLine
62
9
6
CONTINUOUS
10
-18.0355702680
20
17.6463836388
11
-1.1071921780
21
9.1821945937
0
LINE
5
305
100
AcDbEntity
8
0
100
AcDbLine
62
9
6
CONTINUOUS
10
7.3946773697
20
5.3743321611
11
7.3239666915
21
5.4096875002
0
LINE
5
306
100
AcDbEntity
8
0
100
AcDbLine
62
7
6
CONTINUOUS
10
16.1628014564
20
2.0348762485
11
15.4556946752
21
2.3884296391
0
LINE
5
307
100
AcDbEntity
8
0
100
AcDbLine
62
7
6
CONTINUOUS
10
16.9406189157
20
1.9907722763
11
15.7810359558
21
2.5705637562
0
LINE
5
308
100
AcDbEntity
8
0
100
AcDbLine
62
9
6
CONTINUOUS
10
7.3946773697
20
7.0197804283
11
7.3239666915
21
7.0551357674
0
LWPOLYLINE
5
309
100
AcDbEntity
8
0
100
AcDbPolyline
62
7
6
CONTINUOUS
90
35
70
0
10
9.2028249149
20
-14.8400373850
10
9.2025657131
20
-14.8239397349
10
9.2017876403
20
-14.8078473487
10
9.2004906995
20
-14.7917800877
10
9.1986788236
20
-14.7757808588
10
9.1963523881
20
-14.7598461563
10
9.1935008017
20
-14.7439271668
10
9.1901114519
20
-14.7280024313
10
9.1861895327
20
-14.7121364617
10
9.1817517079
20
-14.6964089514
10
9.1768143253
20
-14.6808706838
10
9.1713755831
20
-14.6655086731
10
9.1654283155
20
-14.6503057491
10
9.1589752004
20
-14.6352767516
10
9.1520239087
20
-14.6204462562
10
9.1445703946
20
-14.6058132805
10
9.1366044890
20
-14.5913703767
10
9.1281465492
20
-14.5771657294
10
9.1192429881
20
-14.5632775826
10
9.1099430165
20
-14.5497705228
10
9.1002273894
20
-14.5366048996
10
9.0900370666
20
-14.5237040963
10
9.0793204986
20
-14.5110220733
10
9.0681381035
20
-14.4986486415
10
9.0566004926
20
-14.4867063213
10
9.0447919411
20
-14.4752654659
10
9.0326653044
20
-14.4642644251
10
9.0201347874
20
-14.4536251119
10
9.0071372300
20
-14.4433082396
10
8.9937502572
20
-14.4333895703
10
8.9800979863
20
-14.4239608970
10
8.9662538188
20
-14.4150606650
10
8.9521759598
20
-14.4066506566
10
8.9378175843
20
-14.3987002743
10
8.9264285761
20
-14.3928222213
0
LINE
5
30A
100
AcDbEntity
8
0
100
AcDbLine
62
7
6
CONTINUOUS
10
7.7128754212
20
20.5474543969
11
7.7128754212
21
21.1969734497
0
LINE
5
30B
100
AcDbEntity
8
0
100
AcDbLine
62
7
6
CONTINUOUS
10
8.4553375414
20
-4.2539903354
11
8.4553375414
21
10.5014694636
0
LINE
5
30C
100
AcDbEntity
8
0
100
AcDbLine
62
9
6
CONTINUOUS
10
9.0563783054
20
-15.0168140803
11
9.0563783054
21
-16.0127432947
0
LINE
5
30D
100
AcDbEntity
8
0
100
AcDbLine
62
7
6
CONTINUOUS
10
9.0917336445
20
-0.7525591171
11
9.0917336445
21
-3.0042251670
0
LINE
5
30E
100
AcDbEntity
8
0
100
AcDbLine
62
7
6
CONTINUOUS
10
9.2028249149
20
-14.8400373850
11
9.2028249149
21
-15.9599623069
0
LINE
5
30F
100
AcDbEntity
8
0
100
AcDbLine
62
7
6
CONTINUOUS
10
9.7276915618
20
21.5468180560
11
9.7276915618
21
21.5580565133
0
LINE
5
310
100
AcDbEntity
8
0
100
AcDbLine
62
7
6
CONTINUOUS
10
17.6477256969
20
14.2088736987
11
13.4050850097
21
7.3244136344
0
LINE
5
311
100
AcDbEntity
8
0
100
AcDbLine
62
7
6
CONTINUOUS
10
16.4809995079
20
3.0000048436
11
16.1274461173
21
2.7437688370
0
LINE
5
312
100
AcDbEntity
8
0
100
AcDbLine
62
7
6
CONTINUOUS
10
9.0917336445
20
-2.7865653109
11
12.7686889067
21
-0.8522721032
0
LINE
5
313
100
AcDbEntity
8
0
100
AcDbLine
62
7
6
CONTINUOUS
10
16.9406189157
20
1.1247468725
11
12.9808209410
21
-0.9583381204
0
LINE
5
314
100
AcDbEntity
8
0
100
AcDbLine
62
7
6
CONTINUOUS
10
9.0917336445
20
-3.0042251670
11
8.4553375414
21
-3.3390066837
0
LINE
5
315
100
AcDbEntity
8
0
100
AcDbLine
62
7
6
CONTINUOUS
10
15.4556946752
20
1.6813228579
11
16.1628014564
21
2.0348762485
0
LINE
5
316
100
AcDbEntity
8
0
100
AcDbLine
62
7
6
CONTINUOUS
10
17.0820402719
20
2.2664717597
11
19.5545407957
21
3.5027220216
0
LINE
5
317
100
AcDbEntity
8
0
100
AcDbLine
62
7
6
CONTINUOUS
10
6.8289919447
20
-3.4821620488
11
6.5107938932
21
-3.6412610746
0
LINE
5
318
100
AcDbEntity
8
0
100
AcDbLine
62
7
6
CONTINUOUS
10
-4.9796913011
20
-10.3391316159
11
-4.6562559271
21
-10.1774139289
0
LINE
5
319
100
AcDbEntity
8
0
100
AcDbLine
62
7
6
CONTINUOUS
10
6.5107938932
20
-3.4505947818
11
6.9505500945
21
-3.3092445743
0
LINE
5
31A
100
AcDbEntity
8
0
100
AcDbLine
62
7
6
CONTINUOUS
10
17.0820402719
20
2.2664717597
11
16.1274461173
21
2.7437688370
0
LINE
5
31B
100
AcDbEntity
8
0
100
AcDbLine
62
7
6
CONTINUOUS
10
1.2983804554
20
10.8542963503
11
-15.7125357790
21
19.3597544676
0
LINE
5
31C
100
AcDbEntity
8
0
100
AcDbLine
62
7
6
CONTINUOUS
10
0.9412055988
20
11.1123430899
11
-16.0624677037
21
19.6141797412
0
LINE
5
31D
100
AcDbEntity
8
0
100
AcDbLine
62
7
6
CONTINUOUS
10
6.5107938932
20
-5.6461971824
11
8.4553375414
21
-4.2539903354
0
LINE
5
31E
100
AcDbEntity
8
0
100
AcDbLine
62
7
6
CONTINUOUS
10
-6.2171281682
20
-11.1926563688
11
-5.8401313190
21
-11.0041579442
0
LINE
5
31F
100
AcDbEntity
8
0
100
AcDbLine
62
9
6
CONTINUOUS
10
-16.0624677037
20
22.4001287334
11
0.9412055988
21
13.8982920821
0
LINE
5
320
100
AcDbEntity
8
0
100
AcDbLine
62
7
6
CONTINUOUS
10
8.0664288118
20
10.6959238284
11
8.4553375414
21
10.5014694636
0
LINE
5
321
100
AcDbEntity
8
0
100
AcDbLine
62
9
6
CONTINUOUS
10
-15.8887761871
20
22.7034478676
11
1.1148971154
21
14.2016112164
0
LINE
5
322
100
AcDbEntity
8
0
100
AcDbLine
62
7
6
CONTINUOUS
10
13.4050850097
20
5.1593501249
11
15.4556946752
21
3.2401685847
0
LINE
5
323
100
AcDbEntity
8
0
100
AcDbLine
62
7
6
CONTINUOUS
10
12.7636715709
20
-19.8449931456
11
12.7636715709
21
-17.5128365368
0
LINE
5
324
100
AcDbEntity
8
0
100
AcDbLine
62
7
6
CONTINUOUS
10
12.7636715709
20
18.6870253414
11
12.7636715709
21
21.0191819503
0
LINE
5
325
100
AcDbEntity
8
0
100
AcDbLine
62
7
6
CONTINUOUS
10
12.7686889067
20
-0.8522721032
11
12.7686889067
21
1.0859185140
0
LINE
5
326
100
AcDbEntity
8
0
100
AcDbLine
62
7
6
CONTINUOUS
10
12.9808209410
20
-0.9583381204
11
12.9808209410
21
1.1919845312
0
LINE
5
327
100
AcDbEntity
8
0
100
AcDbLine
62
7
6
CONTINUOUS
10
13.4050850097
20
7.3244136344
11
13.4050850097
21
5.1593501249
0
LINE
5
328
100
AcDbEntity
8
0
100
AcDbLine
62
7
6
CONTINUOUS
10
14.0768364519
20
16.8603437250
11
14.0768364519
21
15.9943183212
0
LINE
5
329
100
AcDbEntity
8
0
100
AcDbLine
62
7
6
CONTINUOUS
10
15.4556946752
20
3.2401685847
11
15.4556946752
21
1.6813228579
0
LINE
5
32A
100
AcDbEntity
8
0
100
AcDbLine
62
7
6
CONTINUOUS
10
-1.0552486655
20
18.9370629603
11
-6.5706815588
21
21.6947794069
0
LINE
5
32B
100
AcDbEntity
8
0
100
AcDbLine
62
3
6
CONTINUOUS
10
-0.7834856176
20
19.1240523129
11
-0.7363769768
21
19.1004979925
0
LINE
5
32C
100
AcDbEntity
8
0
100
AcDbLine
62
7
6
CONTINUOUS
10
0.6418076093
20
19.7684734292
11
-0.8195938510
21
20.4991741593
0
LINE
5
32D
100
AcDbEntity
8
0
100
AcDbLine
62
7
6
CONTINUOUS
10
-6.3820723046
20
23.2804133862
11
-7.8434737649
21
24.0111141163
0
LINE
5
32E
100
AcDbEntity
8
0
100
AcDbLine
62
9
6
CONTINUOUS
10
0.6418076093
20
20.0282810503
11
-7.8434737649
21
24.2709217374
0
LINE
5
32F
100
AcDbEntity
8
0
100
AcDbLine
62
7
6
CONTINUOUS
10
16.4809995079
20
3.0000048436
11
16.4809995079
21
12.3156471810
0
LINE
5
330
100
AcDbEntity
8
0
100
AcDbLine
62
7
6
CONTINUOUS
10
16.9406189157
20
1.9907722763
11
16.9406189157
21
1.1247468725
0
LINE
5
331
100
AcDbEntity
8
0
100
AcDbLine
62
7
6
CONTINUOUS
10
17.0820402719
20
12.9185842262
11
17.0820402719
21
2.2664717597
0
LINE
5
332
100
AcDbEntity
8
0
100
AcDbLine
62
7
6
CONTINUOUS
10
17.6477256969
20
15.0748991025
11
17.6477256969
21
14.2088736987
0
LINE
5
333
100
AcDbEntity
8
0
100
AcDbLine
62
7
6
CONTINUOUS
10
17.7891470531
20
14.7443808033
11
17.7891470531
21
13.2721376168
0
LINE
5
334
100
AcDbEntity
8
0
100
AcDbLine
62
3
6
CONTINUOUS
10
1.5659028924
20
20.7374204229
11
5.0719596274
21
21.0952354902
0
LINE
5
335
100
AcDbEntity
8
0
100
AcDbLine
62
7
6
CONTINUOUS
10
6.3340441218
20
18.2225567870
11
5.2733570261
21
18.7529003349
0
LINE
5
336
100
AcDbEntity
8
0
100
AcDbLine
62
7
6
CONTINUOUS
10
-9.7880174132
20
26.2835875545
11
-10.8487045089
21
26.8139311024
0
LINE
5
337
100
AcDbEntity
8
0
100
AcDbLine
62
9
6
CONTINUOUS
10
1.1367823562
20
20.8819862064
11
-7.3484990181
21
25.1246268935
0
LINE
5
338
100
AcDbEntity
8
0
100
AcDbLine
62
7
6
CONTINUOUS
10
16.9066200612
20
13.0062943316
11
17.0820402719
21
12.9185842262
0
LINE
5
339
100
AcDbEntity
8
0
100
AcDbLine
62
9
6
CONTINUOUS
10
1.5003504888
20
21.0637702727
11
-6.9849308855
21
25.3064109598
0
LINE
5
33A
100
AcDbEntity
8
0
100
AcDbLine
62
9
6
CONTINUOUS
10
1.6533060973
20
21.1105776668
11
-6.8319752769
21
25.3532183539
0
LINE
5
33B
100
AcDbEntity
8
0
100
AcDbLine
62
7
6
CONTINUOUS
10
2.4830800337
20
20.7506039098
11
2.3495041640
21
20.8173918446
0
LINE
5
33C
100
AcDbEntity
8
0
100
AcDbLine
62
7
6
CONTINUOUS
10
0.6418076093
20
21.7310686247
11
-1.4088020561
21
22.7563734574
0
LINE
5
33D
100
AcDbEntity
8
0
100
AcDbLine
62
7
6
CONTINUOUS
10
-3.3887010434
20
23.7463229511
11
-5.4393107089
21
24.7716277838
0
LINE
5
33E
100
AcDbEntity
8
0
100
AcDbLine
62
7
6
CONTINUOUS
10
17.2397394427
20
13.5468414220
11
17.7891470531
21
13.2721376168
0
LINE
5
33F
100
AcDbEntity
8
0
100
AcDbLine
62
3
6
CONTINUOUS
10
1.2592337409
20
21.7089372177
11
-0.1713651890
21
22.4242366827
0
LINE
5
340
100
AcDbEntity
8
0
100
AcDbLine
62
7
6
CONTINUOUS
10
13.0161762801
20
16.3300136391
11
14.2889684862
21
15.6936175361
0
LINE
5
341
100
AcDbEntity
8
0
100
AcDbLine
62
3
6
CONTINUOUS
10
-3.3074688243
20
24.6249584125
11
-1.7204264358
21
23.8314372182
0
LINE
5
342
100
AcDbEntity
8
0
100
AcDbLine
62
3
6
CONTINUOUS
10
0.7230398285
20
22.6097040861
11
2.3100822170
21
21.8161828918
0
LINE
5
343
100
AcDbEntity
8
0
100
AcDbLine
62
9
6
CONTINUOUS
10
19.9811780748
20
7.1995194575
11
19.9811780748
21
11.4833715486
0
LINE
5
344
100
AcDbEntity
8
0
100
AcDbLine
62
7
6
CONTINUOUS
10
20.0690460404
20
7.2923504078
11
20.0690460404
21
11.6078096315
0
LINE
5
345
100
AcDbEntity
8
0
100
AcDbLine
62
7
6
CONTINUOUS
10
20.0690432486
20
7.2918480253
11
20.0686330406
21
7.2847530245
0
LINE
5
346
100
AcDbEntity
8
0
100
AcDbLine
62
9
6
CONTINUOUS
10
19.5545407957
20
3.5027220216
11
19.9811780748
21
7.1995194575
0
LINE
5
347
100
AcDbEntity
8
0
100
AcDbLine
62
7
6
CONTINUOUS
10
19.6434829062
20
3.6008416371
11
20.0685854236
21
7.2843404159
0
LINE
5
348
100
AcDbEntity
8
0
100
AcDbLine
62
9
6
CONTINUOUS
10
6.5107938932
20
-15.5030401940
11
8.7028249149
21
-14.4070246831
0
LINE
5
349
100
AcDbEntity
8
0
100
AcDbLine
62
9
6
CONTINUOUS
10
6.9089114113
20
-16.0905475274
11
9.0563783054
21
-15.0168140803
0
LINE
5
34A
100
AcDbEntity
8
0
100
AcDbLine
62
7
6
CONTINUOUS
10
1.6533060973
20
21.1105776668
11
5.9045652205
21
21.5444453090
0
LINE
5
34B
100
AcDbEntity
8
0
100
AcDbLine
62
7
6
CONTINUOUS
10
2.8679743527
20
21.8731192814
11
0.9177286680
21
21.6740844843
0
LINE
5
34C
100
AcDbEntity
8
0
100
AcDbLine
62
7
6
CONTINUOUS
10
4.8649554857
20
22.3962122765
11
4.8421713035
21
22.3938870079
0
LINE
5
34D
100
AcDbEntity
8
0
100
AcDbLine
62
3
6
CONTINUOUS
10
-0.9452347792
20
22.5245898189
11
0.4471187698
21
22.6666882265
0
LINE
5
34E
100
AcDbEntity
8
0
100
AcDbLine
62
7
6
CONTINUOUS
10
-1.4157237100
20
22.8408106733
11
0.5345219747
21
23.0398454704
0
LINE
5
34F
100
AcDbEntity
8
0
100
AcDbLine
62
7
6
CONTINUOUS
10
6.2264073844
20
22.8426877442
11
5.2320672378
21
22.7935330560
0
LINE
5
350
100
AcDbEntity
8
0
100
AcDbLine
62
7
6
CONTINUOUS
10
-3.2200656194
20
24.9981156563
11
-1.1694559540
21
23.9728108236
0
LINE
5
351
100
AcDbEntity
8
0
100
AcDbLine
62
7
6
CONTINUOUS
10
0.8104430334
20
22.9828613300
11
2.8610526988
21
21.9575564972
0
LINE
5
352
100
AcDbEntity
8
0
100
AcDbLine
62
7
6
CONTINUOUS
10
12.0902075372
20
17.8536581824
11
17.6477256969
21
15.0748991025
0
LINE
5
353
100
AcDbEntity
8
0
100
AcDbLine
62
7
6
CONTINUOUS
10
-5.2978893526
20
27.0528367838
11
-4.2256572416
21
26.5167207283
0
LINE
5
354
100
AcDbEntity
8
0
100
AcDbLine
62
7
6
CONTINUOUS
10
7.7128754212
20
20.5474543969
11
8.2915734608
21
20.2581053771
0
LINE
5
355
100
AcDbEntity
8
0
100
AcDbLine
62
7
6
CONTINUOUS
10
6.1328125654
20
21.6675899880
11
4.8490929574
21
22.3094497920
0
LINE
5
356
100
AcDbEntity
8
0
100
AcDbLine
62
7
6
CONTINUOUS
10
-2.1866195154
20
25.8273060284
11
-0.7370506140
21
25.1025215777
0
LINE
5
357
100
AcDbEntity
8
0
100
AcDbLine
62
7
6
CONTINUOUS
10
12.7006826938
20
18.6090807758
11
18.6376751905
21
15.6405845275
0
LINE
5
358
100
AcDbEntity
8
0
100
AcDbLine
62
7
6
CONTINUOUS
10
7.7128754212
20
21.1969734497
11
4.8649554857
21
22.6209334175
0
LINE
5
359
100
AcDbEntity
8
0
100
AcDbLine
62
7
6
CONTINUOUS
10
-0.7529131423
20
25.4298677315
11
-3.6008330778
21
26.8538276992
0
LINE
5
35A
100
AcDbEntity
8
0
100
AcDbLine
62
7
6
CONTINUOUS
10
6.8103714700
20
22.0043809399
11
5.2320672378
21
22.7935330560
0
LINE
5
35B
100
AcDbEntity
8
0
100
AcDbLine
62
7
6
CONTINUOUS
10
-0.3921534282
20
25.6056433890
11
-1.9704576604
21
26.3947955051
0
LINE
5
35C
100
AcDbEntity
8
0
100
AcDbLine
62
9
6
CONTINUOUS
10
5.6126782772
20
22.8123483648
11
0.8738201594
21
25.1817774238
0
LINE
5
35D
100
AcDbEntity
8
0
100
AcDbLine
62
7
6
CONTINUOUS
10
1.0796551843
20
25.1471580970
11
5.7369846106
21
22.8184933838
0
LINE
5
35E
100
AcDbEntity
8
0
100
AcDbLine
62
7
6
CONTINUOUS
10
8.3074300180
20
-16.3872174384
11
9.0563783054
21
-16.0127432947
0
LINE
5
35F
100
AcDbEntity
8
0
100
AcDbLine
62
7
6
CONTINUOUS
10
1.2916468867
20
-21.4517412198
11
1.4746482614
21
-21.3633800331
0
LINE
5
360
100
AcDbEntity
8
0
100
AcDbLine
62
7
6
CONTINUOUS
10
-1.1625343001
20
23.8883736078
11
-3.1127799848
21
23.6893388107
0
LINE
5
361
100
AcDbEntity
8
0
100
AcDbLine
62
3
6
CONTINUOUS
10
-4.9757434319
20
24.5398441453
11
-3.5833898829
21
24.6819425529
0
LINE
5
362
100
AcDbEntity
8
0
100
AcDbLine
62
7
6
CONTINUOUS
10
0.8738201594
20
25.1817774238
11
-0.4611295554
21
25.0455374373
0
LINE
5
363
100
AcDbEntity
8
0
100
AcDbLine
62
9
6
CONTINUOUS
10
-0.6560803609
20
26.4790146158
11
0.8395811785
21
25.7311838461
0
LINE
5
364
100
AcDbEntity
8
0
100
AcDbLine
62
9
6
CONTINUOUS
10
6.6757874680
20
22.8130807013
11
7.5811993096
21
22.3603747805
0
LINE
5
365
100
AcDbEntity
8
0
100
AcDbLine
62
7
6
CONTINUOUS
10
-0.5047394497
20
26.4501378187
11
0.8713636397
21
25.7620862740
0
LINE
5
366
100
AcDbEntity
8
0
100
AcDbLine
62
7
6
CONTINUOUS
10
6.9520577399
20
22.7217392239
11
7.6298498049
21
22.3828431915
0
LINE
5
367
100
AcDbEntity
8
0
100
AcDbLine
62
7
6
CONTINUOUS
10
-3.2472796872
20
28.0343036805
11
-2.1897227492
21
27.5055252115
0
LINE
5
368
100
AcDbEntity
8
0
100
AcDbLine
62
7
6
CONTINUOUS
10
9.7276915618
20
21.5468180560
11
10.3421831263
21
21.2395722738
0
LINE
5
369
100
AcDbEntity
8
0
100
AcDbLine
62
9
6
CONTINUOUS
10
9.2157124022
20
21.9423916713
11
7.9963164656
21
22.5520896397
0
LINE
5
36A
100
AcDbEntity
8
0
100
AcDbLine
62
9
6
CONTINUOUS
10
-0.8252038907
20
26.9628498178
11
-2.0445998273
21
27.5725477861
0
LINE
5
36B
100
AcDbEntity
8
0
100
AcDbLine
62
7
6
CONTINUOUS
10
9.5361782238
20
21.9620085880
11
8.3281599648
21
22.5660177175
0
LINE
5
36C
100
AcDbEntity
8
0
100
AcDbLine
62
7
6
CONTINUOUS
10
-0.5047380690
20
26.9824667344
11
-1.7127563281
21
27.5864758639
0
LINE
5
36D
100
AcDbEntity
8
0
100
AcDbLine
62
7
6
CONTINUOUS
10
-4.3736601252
20
29.8043211743
11
-3.4240563825
21
29.3295193030
0
LINE
5
36E
100
AcDbEntity
8
0
100
AcDbLine
62
7
6
CONTINUOUS
10
11.6373180568
20
21.7988320833
11
12.5869217995
21
21.3240302120
0
LINE
5
36F
100
AcDbEntity
8
0
100
AcDbLine
62
7
6
CONTINUOUS
10
18.6376751905
20
15.6405845275
11
18.6649244601
21
15.6239153028
0
LINE
5
370
100
AcDbEntity
8
0
100
AcDbLine
62
9
6
CONTINUOUS
10
19.3622276902
20
14.7957209446
11
18.7619392592
21
15.2307769063
0
LINE
5
371
100
AcDbEntity
8
0
100
AcDbLine
62
7
6
CONTINUOUS
10
19.3693280290
20
15.1134030831
11
18.7258568718
21
15.5797555041
0
LINE
5
372
100
AcDbEntity
8
0
100
AcDbLine
62
9
6
CONTINUOUS
10
19.9811780748
20
11.4833715486
11
19.3622276902
21
14.7957209446
0
LINE
5
373
100
AcDbEntity
8
0
100
AcDbLine
62
7
6
CONTINUOUS
10
20.0673413371
20
11.6263491076
11
19.4351978209
21
15.0093023235
0
LINE
5
374
100
AcDbEntity
8
0
100
AcDbLine
62
9
6
CONTINUOUS
10
5.0468381613
20
-22.5034184386
11
1.2916468867
21
-24.2376902120
0
LINE
5
375
100
AcDbEntity
8
0
100
AcDbLine
62
7
6
CONTINUOUS
10
-5.4462323627
20
24.8560649996
11
-3.4959866780
21
25.0550997967
0
LINE
5
376
100
AcDbEntity
8
0
100
AcDbLine
62
7
6
CONTINUOUS
10
-6.8319752769
20
25.3532183539
11
-2.1866195154
21
25.8273060284
0
LINE
5
377
100
AcDbEntity
8
0
100
AcDbLine
62
7
6
CONTINUOUS
10
-0.6560803609
20
26.4790146158
11
-1.9704576604
21
26.3947955051
0
LINE
5
378
100
AcDbEntity
8
0
100
AcDbLine
62
7
6
CONTINUOUS
10
0.5849819124
20
25.6634004802
11
-0.3921534282
21
25.6056433890
0
LINE
5
379
100
AcDbEntity
8
0
100
AcDbLine
62
9
6
CONTINUOUS
10
6.5107938932
20
-23.2185641044
11
12.7636715709
21
-19.8449931456
0
LINE
5
37A
100
AcDbEntity
8
0
100
AcDbLine
62
7
6
CONTINUOUS
10
6.4484295246
20
-23.3524185382
11
12.7013072024
21
-19.9788475794
0
LINE
5
37B
100
AcDbEntity
8
0
100
AcDbLine
62
7
6
CONTINUOUS
10
4.6765804887
20
-22.7796677554
11
1.2228019716
21
-24.3747371288
0
LINE
5
37C
100
AcDbEntity
8
0
100
AcDbLine
62
9
6
CONTINUOUS
10
6.5107938932
20
-23.2185641044
11
5.0468381613
21
-23.8946673751
0
LINE
5
37D
100
AcDbEntity
8
0
100
AcDbLine
62
7
6
CONTINUOUS
10
6.4432150894
20
-23.3550262891
11
4.9779932462
21
-24.0317142920
0
LWPOLYLINE
5
37E
100
AcDbEntity
8
0
100
AcDbPolyline
62
7
6
CONTINUOUS
90
25
70
0
10
1.2228019716
20
-24.3747371288
10
1.2143354463
20
-24.3784588220
10
1.2057327921
20
-24.3818664147
10
1.1970082781
20
-24.3849538783
10
1.1882242012
20
-24.3877020484
10
1.1793485203
20
-24.3901241063
10
1.1702510503
20
-24.3922476377
10
1.1608295899
20
-24.3940735879
10
1.1512140426
20
-24.3955541948
10
1.1416218873
20
-24.3966525666
10
1.1322057669
20
-24.3973677946
10
1.1228450255
20
-24.3977254399
10
1.1133479354
20
-24.3977297787
10
1.1035929834
20
-24.3973582886
10
1.0937408148
20
-24.3965946625
10
1.0840194256
20
-24.3954550406
10
1.0745563934
20
-24.3939722315
10
1.0652450148
20
-24.3921469976
10
1.0559579167
20
-24.3899565031
10
1.0466387748
20
-24.3873767899
10
1.0373771709
20
-24.3844218741
10
1.0282637228
20
-24.3811192131
10
1.0193176764
20
-24.3774797094
10
1.0105364993
20
-24.3735057677
10
1.0061794732
20
-24.3713798237
0
SPLINE
5
37F
100
AcDbEntity
8
0
100
AcDbSpline
62
9
6
CONTINUOUS
70
0
71
3
72
10
73
6
74
4
42
0.0000001000
43
0.0000001000
44
0.0000000001
12
-0.1441017840
22
4.3913750875
32
0.0000000000
13
-0.0994642172
23
4.3926128162
33
0.0000000000
40
0.0000000000
40
0.0000000000
40
0.0000000000
40
0.0000000000
40
0.3327616916
40
0.6660957749
40
1.0000000000
40
1.0000000000
40
1.0000000000
40
1.0000000000
10
-16.3720126766
20
-13.5396615591
30
0.0000000000
10
-16.3879965277
20
-13.0525677583
30
0.0000000000
10
-16.4183302257
20
-12.0774869335
30
0.0000000000
10
-16.4589017895
20
-10.6134668789
30
0.0000000000
10
-16.4826689217
20
-9.6365301040
30
0.0000000000
10
-16.4937394291
20
-9.1476261112
30
0.0000000000
11
-16.3720126766
21
-13.5396615591
31
0.0000000000
11
-16.4174782927
21
-12.0783006980
31
0.0000000000
11
-16.4580541265
21
-10.6142799872
31
0.0000000000
11
-16.4937394291
21
-9.1476261112
31
0.0000000000
0
SPLINE
5
380
100
AcDbEntity
8
0
100
AcDbSpline
62
9
6
CONTINUOUS
70
0
71
3
72
10
73
6
74
4
42
0.0000001000
43
0.0000001000
44
0.0000000001
12
-0.3623511651
22
0.3318967653
32
0.0000000000
13
-0.0160442126
23
0.4889332622
33
0.0000000000
40
0.0000000000
40
0.0000000000
40
0.0000000000
40
0.0000000000
40
0.2932477685
40
0.6266687238
40
1.0000000000
40
1.0000000000
40
1.0000000000
40
1.0000000000
10
-16.2005220500
20
-13.9858839239
30
0.0000000000
10
-16.2359416069
20
-13.9534412620
30
0.0000000000
10
-16.2986825128
20
-13.8704769994
30
0.0000000000
10
-16.3559074298
20
-13.7158575957
30
0.0000000000
10
-16.3700160745
20
-13.6005062520
30
0.0000000000
10
-16.3720126766
20
-13.5396615591
30
0.0000000000
11
-16.2005220500
21
-13.9858839239
31
0.0000000000
11
-16.2887744506
21
-13.8727449945
31
0.0000000000
11
-16.3477623464
21
-13.7206767219
31
0.0000000000
11
-16.3720126766
21
-13.5396615591
31
0.0000000000
0
SPLINE
5
381
100
AcDbEntity
8
0
100
AcDbSpline
62
7
6
CONTINUOUS
70
0
71
3
72
15
73
11
74
9
42
0.0000001000
43
0.0000001000
44
0.0000000001
12
0.0000000000
22
-0.4415068352
32
0.0000000000
13
0.3948957184
23
-0.1974478592
33
0.0000000000
40
0.0000000000
40
0.0000000000
40
0.0000000000
40
0.0000000000
40
0.1197746015
40
0.2468130135
40
0.3784628664
40
0.5116661699
40
0.6432352752
40
0.7701190224
40
0.8896792279
40
1.0000000000
40
1.0000000000
40
1.0000000000
40
1.0000000000
10
-15.3388056455
20
-12.8032722820
30
0.0000000000
10
-15.3388056455
20
-12.8208993838
30
0.0000000000
10
-15.3358076123
20
-12.8572594469
30
0.0000000000
10
-15.3236166790
20
-12.9117566758
30
0.0000000000
10
-15.3040383774
20
-12.9661617818
30
0.0000000000
10
-15.2778060872
20
-13.0184267326
30
0.0000000000
10
-15.2459024410
20
-13.0666024422
30
0.0000000000
10
-15.2095061577
20
-13.1088927493
30
0.0000000000
10
-15.1699785242
20
-13.1437131217
30
0.0000000000
10
-15.1411953447
20
-13.1618850536
30
0.0000000000
10
-15.1266736111
20
-13.1691459203
30
0.0000000000
11
-15.3388056455
21
-12.8032722820
31
0.0000000000
11
-15.3347295879
21
-12.8559962633
31
0.0000000000
11
-15.3226580559
21
-12.9107701490
31
0.0000000000
11
-15.3030549515
21
-12.9654890096
31
0.0000000000
11
-15.2766736111
21
-13.0180500299
31
0.0000000000
11
-15.2445278549
21
-13.0664333193
31
0.0000000000
11
-15.2078530262
21
-13.1087795352
31
0.0000000000
11
-15.1680585180
21
-13.1434613363
31
0.0000000000
11
-15.1266736111
21
-13.1691459203
31
0.0000000000
0
SPLINE
5
382
100
AcDbEntity
8
0
100
AcDbSpline
62
7
6
CONTINUOUS
70
0
71
3
72
11
73
7
74
5
42
0.0000001000
43
0.0000001000
44
0.0000000001
12
0.0832820003
22
0.0415822957
32
0.0000000000
13
0.0829422948
23
-0.0414711474
33
0.0000000000
40
0.0000000000
40
0.0000000000
40
0.0000000000
40
0.0000000000
40
0.1698017477
40
0.4239833087
40
0.6985785075
40
1.0000000000
40
1.0000000000
40
1.0000000000
40
1.0000000000
10
-0.9090439999
20
20.5048454588
30
0.0000000000
10
-0.9043301901
20
20.5071990410
30
0.0000000000
10
-0.8919400643
20
20.5118474941
30
0.0000000000
10
-0.8701695736
20
20.5140915895
30
0.0000000000
10
-0.8446002323
20
20.5099625242
30
0.0000000000
10
-0.8279273810
20
20.5033409244
30
0.0000000000
10
-0.8195938510
20
20.4991741593
30
0.0000000000
11
-0.9090439999
21
20.5048454588
31
0.0000000000
11
-0.8942739226
21
20.5103952468
31
0.0000000000
11
-0.8708503299
21
20.5130258163
31
0.0000000000
11
-0.8456691517
21
20.5092422071
31
0.0000000000
11
-0.8195938510
21
20.4991741593
31
0.0000000000
0
SPLINE
5
383
100
AcDbEntity
8
0
100
AcDbSpline
62
7
6
CONTINUOUS
70
0
71
3
72
11
73
7
74
5
42
0.0000001000
43
0.0000001000
44
0.0000000001
12
-0.0145939321
22
-0.0613302985
32
0.0000000000
13
-0.0614548224
23
-0.0062718499
33
0.0000000000
40
0.0000000000
40
0.0000000000
40
0.0000000000
40
0.0000000000
40
0.0966540175
40
0.3156819854
40
0.6136554429
40
1.0000000000
40
1.0000000000
40
1.0000000000
40
1.0000000000
10
2.9211760219
20
21.8982456802
30
0.0000000000
10
2.9207058345
20
21.8962697402
30
0.0000000000
10
2.9181438264
20
21.8900452792
30
0.0000000000
10
2.9075149224
20
21.8821767369
30
0.0000000000
10
2.8898998498
20
21.8761010976
30
0.0000000000
10
2.8758885980
20
21.8739269797
30
0.0000000000
10
2.8679743527
20
21.8731192814
30
0.0000000000
11
2.9211760219
21
21.8982456802
31
0.0000000000
11
2.9188645877
21
21.8926622352
31
0.0000000000
11
2.9086801007
21
21.8837547298
31
0.0000000000
11
2.8914965712
21
21.8771558819
31
0.0000000000
11
2.8679743527
21
21.8731192814
31
0.0000000000
0
SPLINE
5
384
100
AcDbEntity
8
0
100
AcDbSpline
62
7
6
CONTINUOUS
70
0
71
3
72
11
73
7
74
5
42
0.0000001000
43
0.0000001000
44
0.0000000001
12
-0.0145939321
22
-0.0613302985
32
0.0000000000
13
-0.0614548224
23
-0.0062718499
33
0.0000000000
40
0.0000000000
40
0.0000000000
40
0.0000000000
40
0.0000000000
40
0.0966540175
40
0.3156819854
40
0.6136554429
40
1.0000000000
40
1.0000000000
40
1.0000000000
40
1.0000000000
10
-1.1093326309
20
23.9135000065
30
0.0000000000
10
-1.1098028183
20
23.9115240666
30
0.0000000000
10
-1.1123648264
20
23.9052996056
30
0.0000000000
10
-1.1229937304
20
23.8974310633
30
0.0000000000
10
-1.1406088029
20
23.8913554240
30
0.0000000000
10
-1.1546200547
20
23.8891813061
30
0.0000000000
10
-1.1625343001
20
23.8883736078
30
0.0000000000
11
-1.1093326309
21
23.9135000065
31
0.0000000000
11
-1.1116440651
21
23.9079165615
31
0.0000000000
11
-1.1218285521
21
23.8990090562
31
0.0000000000
11
-1.1390120816
21
23.8924102083
31
0.0000000000
11
-1.1625343001
21
23.8883736078
31
0.0000000000
0
SPLINE
5
385
100
AcDbEntity
8
0
100
AcDbSpline
62
7
6
CONTINUOUS
70
0
71
3
72
9
73
5
74
3
42
0.0000001000
43
0.0000001000
44
0.0000000001
12
-0.1119495102
22
0.0560459254
32
0.0000000000
13
-0.1239910689
23
0.0133468475
33
0.0000000000
40
0.0000000000
40
0.0000000000
40
0.0000000000
40
0.0000000000
40
0.1736013343
40
1.0000000000
40
1.0000000000
40
1.0000000000
40
1.0000000000
10
1.0795885200
20
25.1471796702
30
0.0000000000
10
1.0731103252
20
25.1504228860
30
0.0000000000
10
1.0351897536
20
25.1679036864
30
0.0000000000
10
0.9941610122
20
25.1781303778
30
0.0000000000
10
0.9600056609
20
25.1818069835
30
0.0000000000
11
1.0795885200
21
25.1471796702
31
0.0000000000
11
1.0598505293
21
25.1562736464
31
0.0000000000
11
0.9600056609
21
25.1818069835
31
0.0000000000
0
SPLINE
5
386
100
AcDbEntity
8
0
100
AcDbSpline
62
7
6
CONTINUOUS
70
0
71
3
72
9
73
5
74
3
42
0.0000001000
43
0.0000001000
44
0.0000000001
12
-0.0858076653
22
0.0092366477
32
0.0000000000
13
-0.0858574017
23
-0.0087622860
33
0.0000000000
40
0.0000000000
40
0.0000000000
40
0.0000000000
40
0.0000000000
40
0.4913326222
40
1.0000000000
40
1.0000000000
40
1.0000000000
40
1.0000000000
10
0.9600056609
20
25.1818069835
30
0.0000000000
10
0.9459522925
20
25.1833197389
30
0.0000000000
10
0.9171592899
20
25.1848011135
30
0.0000000000
10
0.8883777792
20
25.1832631201
30
0.0000000000
10
0.8738201594
20
25.1817774238
30
0.0000000000
11
0.9600056609
21
25.1818069835
31
0.0000000000
11
0.9176611838
21
25.1840465354
31
0.0000000000
11
0.8738201594
21
25.1817774238
31
0.0000000000
0
SPLINE
5
387
100
AcDbEntity
8
0
100
AcDbSpline
62
7
6
CONTINUOUS
70
0
71
3
72
15
73
11
74
9
42
0.0000001000
43
0.0000001000
44
0.0000000001
12
-0.2830840723
22
-0.0288905041
32
0.0000000000
13
-0.2545132660
23
0.1272566330
33
0.0000000000
40
0.0000000000
40
0.0000000000
40
0.0000000000
40
0.0000000000
40
0.1018680046
40
0.2189296968
40
0.3474096568
40
0.4829133080
40
0.6206942281
40
0.7558954912
40
0.8837854688
40
1.0000000000
40
1.0000000000
40
1.0000000000
40
1.0000000000
10
-0.4611295554
20
25.0455374373
30
0.0000000000
10
-0.4707419585
20
25.0445564313
30
0.0000000000
10
-0.4915379412
20
25.0437818805
30
0.0000000000
10
-0.5244781498
20
25.0453568373
30
0.0000000000
10
-0.5604021635
20
25.0495557242
30
0.0000000000
10
-0.5979415453
20
25.0562313908
30
0.0000000000
10
-0.6356699627
20
25.0651371601
30
0.0000000000
10
-0.6721510405
20
25.0759335218
30
0.0000000000
10
-0.7059948562
20
25.0882028980
30
0.0000000000
10
-0.7271912340
20
25.0975918877
30
0.0000000000
10
-0.7370506140
20
25.1025215777
30
0.0000000000
11
-0.4611295554
21
25.0455374373
31
0.0000000000
11
-0.4900865173
21
25.0442182085
31
0.0000000000
11
-0.5233654229
21
25.0456670486
31
0.0000000000
11
-0.5596873824
21
25.0498282796
31
0.0000000000
11
-0.5976565632
21
25.0565419875
31
0.0000000000
11
-0.6358138312
21
25.0655501685
31
0.0000000000
11
-0.6726928237
21
25.0765066432
31
0.0000000000
11
-0.7068763020
21
25.0889903603
31
0.0000000000
11
-0.7370506140
21
25.1025215777
31
0.0000000000
0
SPLINE
5
388
100
AcDbEntity
8
0
100
AcDbSpline
62
7
6
CONTINUOUS
70
0
71
3
72
10
73
6
74
4
42
0.0000001000
43
0.0000001000
44
0.0000000001
12
0.1437626329
22
0.0718813165
32
0.0000000000
13
0.1599009443
23
0.0163188937
33
0.0000000000
40
0.0000000000
40
0.0000000000
40
0.0000000000
40
0.0000000000
40
0.3511381091
40
0.6840818606
40
1.0000000000
40
1.0000000000
40
1.0000000000
40
1.0000000000
10
-6.9849308855
20
25.3064109598
30
0.0000000000
10
-6.9681040391
20
25.3148243830
30
0.0000000000
10
-6.9344690489
20
25.3295969182
30
0.0000000000
10
-6.8831786097
20
25.3454752436
30
0.0000000000
10
-6.8488138132
20
25.3514998757
30
0.0000000000
10
-6.8319752769
20
25.3532183539
30
0.0000000000
11
-6.9849308855
21
25.3064109598
31
0.0000000000
11
-6.9331919358
21
25.3289595102
31
0.0000000000
11
-6.8820198490
21
25.3446191650
31
0.0000000000
11
-6.8319752769
21
25.3532183539
31
0.0000000000
0
SPLINE
5
389
100
AcDbEntity
8
0
100
AcDbSpline
62
7
6
CONTINUOUS
70
0
71
3
72
12
73
8
74
6
42
0.0000001000
43
0.0000001000
44
0.0000000001
12
-0.0794482303
22
0.0397241152
32
0.0000000000
13
0.0209848366
23
0.0881877676
33
0.0000000000
40
0.0000000000
40
0.0000000000
40
0.0000000000
40
0.0000000000
40
0.3229543341
40
0.5878371421
40
0.7912834233
40
0.9408237800
40
1.0000000000
40
1.0000000000
40
1.0000000000
40
1.0000000000
10
4.8490929574
20
22.3094497920
30
0.0000000000
10
4.8405402406
20
22.3137261504
30
0.0000000000
10
4.8252745209
20
22.3221312991
30
0.0000000000
10
4.8061567863
20
22.3358843457
30
0.0000000000
10
4.7934520536
20
22.3491074015
30
0.0000000000
10
4.7879547266
20
22.3606938551
30
0.0000000000
10
4.7885556999
20
22.3670210695
30
0.0000000000
10
4.7889696343
20
22.3687606091
30
0.0000000000
11
4.8490929574
21
22.3094497920
31
0.0000000000
11
4.8240873935
21
22.3235085126
31
0.0000000000
11
4.8052115276
21
22.3375544675
31
0.0000000000
11
4.7931907485
21
22.3510478787
31
0.0000000000
11
4.7884870081
21
22.3634702018
31
0.0000000000
11
4.7889696343
21
22.3687606091
31
0.0000000000
0
SPLINE
5
38A
100
AcDbEntity
8
0
100
AcDbSpline
62
7
6
CONTINUOUS
70
0
71
3
72
13
73
9
74
7
42
0.0000001000
43
0.0000001000
44
0.0000000001
12
0.0000000000
22
1.0295482093
32
0.0000000000
13
0.9208559129
23
0.4604279564
33
0.0000000000
40
0.0000000000
40
0.0000000000
40
0.0000000000
40
0.0000000000
40
0.1614219316
40
0.3342559043
40
0.5116973510
40
0.6862432064
40
0.8508246292
40
1.0000000000
40
1.0000000000
40
1.0000000000
40
1.0000000000
10
-7.8434737649
20
24.2709217374
30
0.0000000000
10
-7.8434737649
20
24.3263189577
30
0.0000000000
10
-7.8307861871
20
24.4411916575
30
0.0000000000
10
-7.7810938687
20
24.6103869843
30
0.0000000000
10
-7.7031624121
20
24.7736084952
30
0.0000000000
10
-7.6020087629
20
24.9201771635
30
0.0000000000
10
-7.4842617273
20
25.0405769119
30
0.0000000000
10
-7.3942886922
20
25.1017320565
30
0.0000000000
10
-7.3484990181
20
25.1246268935
30
0.0000000000
11
-7.8434737649
21
24.2709217374
31
0.0000000000
11
-7.8266079094
21
24.4362553728
31
0.0000000000
11
-7.7771597231
21
24.6071876497
31
0.0000000000
11
-7.6984990181
21
24.7720698158
31
0.0000000000
11
-7.5959863915
21
24.9196654241
31
0.0000000000
11
-7.4766079094
21
25.0399160778
31
0.0000000000
11
-7.3484990181
21
25.1246268935
31
0.0000000000
0
SPLINE
5
38B
100
AcDbEntity
8
0
100
AcDbSpline
62
7
6
CONTINUOUS
70
0
71
3
72
15
73
11
74
9
42
0.0000001000
43
0.0000001000
44
0.0000000001
12
0.2495447045
22
-0.1247723523
32
0.0000000000
13
0.0191971987
23
-0.2783382241
33
0.0000000000
40
0.0000000000
40
0.0000000000
40
0.0000000000
40
0.0000000000
40
0.1096655338
40
0.2281053033
40
0.3536807021
40
0.4841159681
40
0.6167482564
40
0.7487500837
40
0.8773406044
40
1.0000000000
40
1.0000000000
40
1.0000000000
40
1.0000000000
10
-6.3820723046
20
23.2804133862
30
0.0000000000
10
-6.3729501536
20
23.2758523106
30
0.0000000000
10
-6.3548489352
20
23.2645664390
30
0.0000000000
10
-6.3298134399
20
23.2430799999
30
0.0000000000
10
-6.3065468323
20
23.2170428932
30
0.0000000000
10
-6.2858271844
20
23.1873284066
30
0.0000000000
10
-6.2683391860
20
23.1549274648
30
0.0000000000
10
-6.2546684449
20
23.1209219344
30
0.0000000000
10
-6.2452735032
20
23.0864579380
30
0.0000000000
10
-6.2419740049
20
23.0632427863
30
0.0000000000
10
-6.2411890994
20
23.0518625202
30
0.0000000000
11
-6.3820723046
21
23.2804133862
31
0.0000000000
11
-6.3559970039
21
23.2644061332
31
0.0000000000
11
-6.3308158257
21
23.2430085642
31
0.0000000000
11
-6.3073922330
21
23.2169544020
31
0.0000000000
11
-6.2865294212
21
23.1871370444
31
0.0000000000
11
-6.2689427765
21
23.1545789289
31
0.0000000000
11
-6.2552353452
21
23.1203964740
31
0.0000000000
11
-6.2458771553
21
23.0857617965
31
0.0000000000
11
-6.2411890994
21
23.0518625202
31
0.0000000000
0
SPLINE
5
38C
100
AcDbEntity
8
0
100
AcDbSpline
62
7
6
CONTINUOUS
70
0
71
3
72
15
73
11
74
9
42
0.0000001000
43
0.0000001000
44
0.0000000001
12
-0.2830840723
22
-0.0288905041
32
0.0000000000
13
-0.2545132660
23
0.1272566330
33
0.0000000000
40
0.0000000000
40
0.0000000000
40
0.0000000000
40
0.0000000000
40
0.1018680046
40
0.2189296968
40
0.3474096568
40
0.4829133080
40
0.6206942281
40
0.7558954912
40
0.8837854688
40
1.0000000000
40
1.0000000000
40
1.0000000000
40
1.0000000000
10
0.9177286680
20
21.6740844843
30
0.0000000000
10
0.9081162648
20
21.6731034783
30
0.0000000000
10
0.8873202821
20
21.6723289275
30
0.0000000000
10
0.8543800735
20
21.6739038843
30
0.0000000000
10
0.8184560598
20
21.6781027712
30
0.0000000000
10
0.7809166780
20
21.6847784378
30
0.0000000000
10
0.7431882606
20
21.6936842071
30
0.0000000000
10
0.7067071828
20
21.7044805688
30
0.0000000000
10
0.6728633671
20
21.7167499450
30
0.0000000000
10
0.6516669893
20
21.7261389347
30
0.0000000000
10
0.6418076093
20
21.7310686247
30
0.0000000000
11
0.9177286680
21
21.6740844843
31
0.0000000000
11
0.8887717060
21
21.6727652555
31
0.0000000000
11
0.8554928004
21
21.6742140956
31
0.0000000000
11
0.8191708410
21
21.6783753265
31
0.0000000000
11
0.7812016601
21
21.6850890345
31
0.0000000000
11
0.7430443922
21
21.6940972155
31
0.0000000000
11
0.7061653996
21
21.7050536902
31
0.0000000000
11
0.6719819213
21
21.7175374073
31
0.0000000000
11
0.6418076093
21
21.7310686247
31
0.0000000000
0
SPLINE
5
38D
100
AcDbEntity
8
0
100
AcDbSpline
62
7
6
CONTINUOUS
70
0
71
3
72
15
73
11
74
9
42
0.0000001000
43
0.0000001000
44
0.0000000001
12
-0.2830840723
22
-0.0288905041
32
0.0000000000
13
-0.2545132660
23
0.1272566330
33
0.0000000000
40
0.0000000000
40
0.0000000000
40
0.0000000000
40
0.0000000000
40
0.1018680046
40
0.2189296968
40
0.3474096568
40
0.4829133080
40
0.6206942281
40
0.7558954912
40
0.8837854688
40
1.0000000000
40
1.0000000000
40
1.0000000000
40
1.0000000000
10
-3.1127799848
20
23.6893388107
30
0.0000000000
10
-3.1223923880
20
23.6883578047
30
0.0000000000
10
-3.1431883707
20
23.6875832538
30
0.0000000000
10
-3.1761285793
20
23.6891582107
30
0.0000000000
10
-3.2120525930
20
23.6933570976
30
0.0000000000
10
-3.2495919748
20
23.7000327641
30
0.0000000000
10
-3.2873203922
20
23.7089385335
30
0.0000000000
10
-3.3238014700
20
23.7197348952
30
0.0000000000
10
-3.3576452857
20
23.7320042714
30
0.0000000000
10
-3.3788416635
20
23.7413932611
30
0.0000000000
10
-3.3887010434
20
23.7463229511
30
0.0000000000
11
-3.1127799848
21
23.6893388107
31
0.0000000000
11
-3.1417369468
21
23.6880195819
31
0.0000000000
11
-3.1750158523
21
23.6894684220
31
0.0000000000
11
-3.2113378118
21
23.6936296529
31
0.0000000000
11
-3.2493069927
21
23.7003433609
31
0.0000000000
11
-3.2874642606
21
23.7093515419
31
0.0000000000
11
-3.3243432532
21
23.7203080165
31
0.0000000000
11
-3.3585267314
21
23.7327917337
31
0.0000000000
11
-3.3887010434
21
23.7463229511
31
0.0000000000
0
SPLINE
5
38E
100
AcDbEntity
8
0
100
AcDbSpline
62
7
6
CONTINUOUS
70
0
71
3
72
12
73
8
74
6
42
0.0000001000
43
0.0000001000
44
0.0000000001
12
-0.0794482303
22
0.0397241152
32
0.0000000000
13
0.0209848366
23
0.0881877676
33
0.0000000000
40
0.0000000000
40
0.0000000000
40
0.0000000000
40
0.0000000000
40
0.3229543341
40
0.5878371421
40
0.7912834233
40
0.9408237800
40
1.0000000000
40
1.0000000000
40
1.0000000000
40
1.0000000000
10
-1.4088020561
20
22.7563734574
30
0.0000000000
10
-1.4173547729
20
22.7606498158
30
0.0000000000
10
-1.4326204926
20
22.7690549645
30
0.0000000000
10
-1.4517382272
20
22.7828080111
30
0.0000000000
10
-1.4644429599
20
22.7960310669
30
0.0000000000
10
-1.4699402869
20
22.8076175204
30
0.0000000000
10
-1.4693393136
20
22.8139447349
30
0.0000000000
10
-1.4689253792
20
22.8156842745
30
0.0000000000
11
-1.4088020561
21
22.7563734574
31
0.0000000000
11
-1.4338076200
21
22.7704321779
31
0.0000000000
11
-1.4526834859
21
22.7844781329
31
0.0000000000
11
-1.4647042650
21
22.7979715441
31
0.0000000000
11
-1.4694080054
21
22.8103938672
31
0.0000000000
11
-1.4689253792
21
22.8156842745
31
0.0000000000
0
SPLINE
5
38F
100
AcDbEntity
8
0
100
AcDbSpline
62
7
6
CONTINUOUS
70
0
71
3
72
12
73
8
74
6
42
0.0000001000
43
0.0000001000
44
0.0000000001
12
-0.0794482303
22
0.0397241152
32
0.0000000000
13
0.0209848366
23
0.0881877676
33
0.0000000000
40
0.0000000000
40
0.0000000000
40
0.0000000000
40
0.0000000000
40
0.3229543341
40
0.5878371421
40
0.7912834233
40
0.9408237800
40
1.0000000000
40
1.0000000000
40
1.0000000000
40
1.0000000000
10
-5.4393107089
20
24.7716277838
30
0.0000000000
10
-5.4478634257
20
24.7759041422
30
0.0000000000
10
-5.4631291454
20
24.7843092909
30
0.0000000000
10
-5.4822468799
20
24.7980623375
30
0.0000000000
10
-5.4949516127
20
24.8112853932
30
0.0000000000
10
-5.5004489396
20
24.8228718468
30
0.0000000000
10
-5.4998479664
20
24.8291990613
30
0.0000000000
10
-5.4994340320
20
24.8309386009
30
0.0000000000
11
-5.4393107089
21
24.7716277838
31
0.0000000000
11
-5.4643162727
21
24.7856865043
31
0.0000000000
11
-5.4831921387
21
24.7997324593
31
0.0000000000
11
-5.4952129177
21
24.8132258704
31
0.0000000000
11
-5.4999166581
21
24.8256481936
31
0.0000000000
11
-5.4994340320
21
24.8309386009
31
0.0000000000
0
SPLINE
5
390
100
AcDbEntity
8
0
100
AcDbSpline
62
7
6
CONTINUOUS
70
0
71
3
72
11
73
7
74
5
42
0.0000001000
43
0.0000001000
44
0.0000000001
12
0.0145939321
22
0.0613302985
32
0.0000000000
13
0.0614548224
23
0.0062718499
33
0.0000000000
40
0.0000000000
40
0.0000000000
40
0.0000000000
40
0.0000000000
40
0.0966540175
40
0.3156819854
40
0.6136554429
40
1.0000000000
40
1.0000000000
40
1.0000000000
40
1.0000000000
10
4.7889696343
20
22.3687606091
30
0.0000000000
10
4.7894398217
20
22.3707365490
30
0.0000000000
10
4.7920018298
20
22.3769610100
30
0.0000000000
10
4.8026307338
20
22.3848295523
30
0.0000000000
10
4.8202458064
20
22.3909051917
30
0.0000000000
10
4.8342570582
20
22.3930793095
30
0.0000000000
10
4.8421713035
20
22.3938870079
30
0.0000000000
11
4.7889696343
21
22.3687606091
31
0.0000000000
11
4.7912810685
21
22.3743440541
31
0.0000000000
11
4.8014655555
21
22.3832515594
31
0.0000000000
11
4.8186490850
21
22.3898504074
31
0.0000000000
11
4.8421713035
21
22.3938870079
31
0.0000000000
0
SPLINE
5
391
100
AcDbEntity
8
0
100
AcDbSpline
62
7
6
CONTINUOUS
70
0
71
3
72
11
73
7
74
5
42
0.0000001000
43
0.0000001000
44
0.0000000001
12
0.0145939321
22
0.0613302985
32
0.0000000000
13
0.0614548224
23
0.0062718499
33
0.0000000000
40
0.0000000000
40
0.0000000000
40
0.0000000000
40
0.0000000000
40
0.0966540175
40
0.3156819854
40
0.6136554429
40
1.0000000000
40
1.0000000000
40
1.0000000000
40
1.0000000000
10
-5.4994340320
20
24.8309386009
30
0.0000000000
10
-5.4989638446
20
24.8329145408
30
0.0000000000
10
-5.4964018364
20
24.8391390018
30
0.0000000000
10
-5.4857729325
20
24.8470075441
30
0.0000000000
10
-5.4681578599
20
24.8530831834
30
0.0000000000
10
-5.4541466081
20
24.8552573013
30
0.0000000000
10
-5.4462323627
20
24.8560649996
30
0.0000000000
11
-5.4994340320
21
24.8309386009
31
0.0000000000
11
-5.4971225977
21
24.8365220459
31
0.0000000000
11
-5.4869381107
21
24.8454295512
31
0.0000000000
11
-5.4697545813
21
24.8520283991
31
0.0000000000
11
-5.4462323627
21
24.8560649996
31
0.0000000000
0
SPLINE
5
392
100
AcDbEntity
8
0
100
AcDbSpline
62
7
6
CONTINUOUS
70
0
71
3
72
12
73
8
74
6
42
0.0000001000
43
0.0000001000
44
0.0000000001
12
0.0794482303
22
-0.0397241152
32
0.0000000000
13
-0.0209848366
23
-0.0881877676
33
0.0000000000
40
0.0000000000
40
0.0000000000
40
0.0000000000
40
0.0000000000
40
0.3229543341
40
0.5878371421
40
0.7912834233
40
0.9408237800
40
1.0000000000
40
1.0000000000
40
1.0000000000
40
1.0000000000
10
2.8610526988
20
21.9575564972
30
0.0000000000
10
2.8696054156
20
21.9532801389
30
0.0000000000
10
2.8848711353
20
21.9448749901
30
0.0000000000
10
2.9039888698
20
21.9311219436
30
0.0000000000
10
2.9166936026
20
21.9178988878
30
0.0000000000
10
2.9221909296
20
21.9063124342
30
0.0000000000
10
2.9215899563
20
21.8999852197
30
0.0000000000
10
2.9211760219
20
21.8982456802
30
0.0000000000
11
2.8610526988
21
21.9575564972
31
0.0000000000
11
2.8860582627
21
21.9434977767
31
0.0000000000
11
2.9049341286
21
21.9294518218
31
0.0000000000
11
2.9169549077
21
21.9159584106
31
0.0000000000
11
2.9216586480
21
21.9035360874
31
0.0000000000
11
2.9211760219
21
21.8982456802
31
0.0000000000
0
SPLINE
5
393
100
AcDbEntity
8
0
100
AcDbSpline
62
7
6
CONTINUOUS
70
0
71
3
72
12
73
8
74
6
42
0.0000001000
43
0.0000001000
44
0.0000000001
12
0.0794482303
22
-0.0397241152
32
0.0000000000
13
-0.0209848366
23
-0.0881877676
33
0.0000000000
40
0.0000000000
40
0.0000000000
40
0.0000000000
40
0.0000000000
40
0.3229543341
40
0.5878371421
40
0.7912834233
40
0.9408237800
40
1.0000000000
40
1.0000000000
40
1.0000000000
40
1.0000000000
10
-1.1694559540
20
23.9728108236
30
0.0000000000
10
-1.1609032372
20
23.9685344652
30
0.0000000000
10
-1.1456375174
20
23.9601293165
30
0.0000000000
10
-1.1265197829
20
23.9463762700
30
0.0000000000
10
-1.1138150502
20
23.9331532142
30
0.0000000000
10
-1.1083177232
20
23.9215667606
30
0.0000000000
10
-1.1089186964
20
23.9152395461
30
0.0000000000
10
-1.1093326309
20
23.9135000065
30
0.0000000000
11
-1.1694559540
21
23.9728108236
31
0.0000000000
11
-1.1444503901
21
23.9587521031
31
0.0000000000
11
-1.1255745242
21
23.9447061481
31
0.0000000000
11
-1.1135537451
21
23.9312127370
31
0.0000000000
11
-1.1088500047
21
23.9187904138
31
0.0000000000
11
-1.1093326309
21
23.9135000065
31
0.0000000000
0
SPLINE
5
394
100
AcDbEntity
8
0
100
AcDbSpline
62
7
6
CONTINUOUS
70
0
71
3
72
15
73
11
74
9
42
0.0000001000
43
0.0000001000
44
0.0000000001
12
0.2830840723
22
0.0288905041
32
0.0000000000
13
0.2545132660
23
-0.1272566330
33
0.0000000000
40
0.0000000000
40
0.0000000000
40
0.0000000000
40
0.0000000000
40
0.1018680046
40
0.2189296968
40
0.3474096568
40
0.4829133080
40
0.6206942281
40
0.7558954912
40
0.8837854688
40
1.0000000000
40
1.0000000000
40
1.0000000000
40
1.0000000000
10
0.5345219747
20
23.0398454704
30
0.0000000000
10
0.5441343779
20
23.0408264764
30
0.0000000000
10
0.5649303606
20
23.0416010272
30
0.0000000000
10
0.5978705692
20
23.0400260703
30
0.0000000000
10
0.6337945829
20
23.0358271834
30
0.0000000000
10
0.6713339647
20
23.0291515169
30
0.0000000000
10
0.7090623821
20
23.0202457475
30
0.0000000000
10
0.7455434599
20
23.0094493858
30
0.0000000000
10
0.7793872756
20
22.9971800096
30
0.0000000000
10
0.8005836534
20
22.9877910199
30
0.0000000000
10
0.8104430334
20
22.9828613300
30
0.0000000000
11
0.5345219747
21
23.0398454704
31
0.0000000000
11
0.5634789367
21
23.0411646992
31
0.0000000000
11
0.5967578422
21
23.0397158590
31
0.0000000000
11
0.6330798017
21
23.0355546281
31
0.0000000000
11
0.6710489826
21
23.0288409201
31
0.0000000000
11
0.7092062505
21
23.0198327392
31
0.0000000000
11
0.7460852431
21
23.0088762645
31
0.0000000000
11
0.7802687214
21
22.9963925474
31
0.0000000000
11
0.8104430334
21
22.9828613300
31
0.0000000000
0
SPLINE
5
395
100
AcDbEntity
8
0
100
AcDbSpline
62
7
6
CONTINUOUS
70
0
71
3
72
15
73
11
74
9
42
0.0000001000
43
0.0000001000
44
0.0000000001
12
0.2830840723
22
0.0288905041
32
0.0000000000
13
0.2545132660
23
-0.1272566330
33
0.0000000000
40
0.0000000000
40
0.0000000000
40
0.0000000000
40
0.0000000000
40
0.1018680046
40
0.2189296968
40
0.3474096568
40
0.4829133080
40
0.6206942281
40
0.7558954912
40
0.8837854688
40
1.0000000000
40
1.0000000000
40
1.0000000000
40
1.0000000000
10
-3.4959866780
20
25.0550997967
30
0.0000000000
10
-3.4863742748
20
25.0560808027
30
0.0000000000
10
-3.4655782922
20
25.0568553536
30
0.0000000000
10
-3.4326380836
20
25.0552803967
30
0.0000000000
10
-3.3967140699
20
25.0510815098
30
0.0000000000
10
-3.3591746881
20
25.0444058433
30
0.0000000000
10
-3.3214462707
20
25.0355000739
30
0.0000000000
10
-3.2849651929
20
25.0247037122
30
0.0000000000
10
-3.2511213772
20
25.0124343360
30
0.0000000000
10
-3.2299249994
20
25.0030453463
30
0.0000000000
10
-3.2200656194
20
24.9981156563
30
0.0000000000
11
-3.4959866780
21
25.0550997967
31
0.0000000000
11
-3.4670297161
21
25.0564190255
31
0.0000000000
11
-3.4337508105
21
25.0549701854
31
0.0000000000
11
-3.3974288510
21
25.0508089545
31
0.0000000000
11
-3.3594596702
21
25.0440952465
31
0.0000000000
11
-3.3213024022
21
25.0350870655
31
0.0000000000
11
-3.2844234096
21
25.0241305909
31
0.0000000000
11
-3.2502399314
21
25.0116468737
31
0.0000000000
11
-3.2200656194
21
24.9981156563
31
0.0000000000
0
SPLINE
5
396
100
AcDbEntity
8
0
100
AcDbSpline
62
7
6
CONTINUOUS
70
0
71
3
72
10
73
6
74
4
42
0.0000001000
43
0.0000001000
44
0.0000000001
12
0.1437626329
22
0.0718813165
32
0.0000000000
13
0.1599009443
23
0.0163188937
33
0.0000000000
40
0.0000000000
40
0.0000000000
40
0.0000000000
40
0.0000000000
40
0.3511381091
40
0.6840818606
40
1.0000000000
40
1.0000000000
40
1.0000000000
40
1.0000000000
10
1.5003504888
20
21.0637702727
30
0.0000000000
10
1.5171773351
20
21.0721836959
30
0.0000000000
10
1.5508123253
20
21.0869562311
30
0.0000000000
10
1.6021027645
20
21.1028345565
30
0.0000000000
10
1.6364675610
20
21.1088591886
30
0.0000000000
10
1.6533060973
20
21.1105776668
30
0.0000000000
11
1.5003504888
21
21.0637702727
31
0.0000000000
11
1.5520894384
21
21.0863188231
31
0.0000000000
11
1.6032615253
21
21.1019784779
31
0.0000000000
11
1.6533060973
21
21.1105776668
31
0.0000000000
0
SPLINE
5
397
100
AcDbEntity
8
0
100
AcDbSpline
62
7
6
CONTINUOUS
70
0
71
3
72
11
73
7
74
5
42
0.0000001000
43
0.0000001000
44
0.0000000001
12
0.0145939321
22
0.0613302985
32
0.0000000000
13
0.0614548224
23
0.0062718499
33
0.0000000000
40
0.0000000000
40
0.0000000000
40
0.0000000000
40
0.0000000000
40
0.0966540175
40
0.3156819854
40
0.6136554429
40
1.0000000000
40
1.0000000000
40
1.0000000000
40
1.0000000000
10
-1.4689253792
20
22.8156842745
30
0.0000000000
10
-1.4684551918
20
22.8176602144
30
0.0000000000
10
-1.4658931837
20
22.8238846754
30
0.0000000000
10
-1.4552642797
20
22.8317532177
30
0.0000000000
10
-1.4376492071
20
22.8378288571
30
0.0000000000
10
-1.4236379553
20
22.8400029749
30
0.0000000000
10
-1.4157237100
20
22.8408106733
30
0.0000000000
11
-1.4689253792
21
22.8156842745
31
0.0000000000
11
-1.4666139450
21
22.8212677195
31
0.0000000000
11
-1.4564294580
21
22.8301752248
31
0.0000000000
11
-1.4392459285
21
22.8367740727
31
0.0000000000
11
-1.4157237100
21
22.8408106733
31
0.0000000000
0
SPLINE
5
398
100
AcDbEntity
8
0
100
AcDbSpline
62
7
6
CONTINUOUS
70
0
71
3
72
13
73
9
74
7
42
0.0000001000
43
0.0000001000
44
0.0000000001
12
0.0000000000
22
1.0295482093
32
0.0000000000
13
0.9208559129
23
0.4604279564
33
0.0000000000
40
0.0000000000
40
0.0000000000
40
0.0000000000
40
0.0000000000
40
0.1614219316
40
0.3342559043
40
0.5116973510
40
0.6862432064
40
0.8508246292
40
1.0000000000
40
1.0000000000
40
1.0000000000
40
1.0000000000
10
0.6418076093
20
20.0282810503
30
0.0000000000
10
0.6418076093
20
20.0836782705
30
0.0000000000
10
0.6544951871
20
20.1985509704
30
0.0000000000
10
0.7041875055
20
20.3677462971
30
0.0000000000
10
0.7821189622
20
20.5309678080
30
0.0000000000
10
0.8832726114
20
20.6775364764
30
0.0000000000
10
1.0010196469
20
20.7979362247
30
0.0000000000
10
1.0909926821
20
20.8590913693
30
0.0000000000
10
1.1367823562
20
20.8819862064
30
0.0000000000
11
0.6418076093
21
20.0282810503
31
0.0000000000
11
0.6586734648
21
20.1936146857
31
0.0000000000
11
0.7081216512
21
20.3645469626
31
0.0000000000
11
0.7867823562
21
20.5294291287
31
0.0000000000
11
0.8892949827
21
20.6770247370
31
0.0000000000
11
1.0086734648
21
20.7972753907
31
0.0000000000
11
1.1367823562
21
20.8819862064
31
0.0000000000
0
SPLINE
5
399
100
AcDbEntity
8
0
100
AcDbSpline
62
7
6
CONTINUOUS
70
0
71
3
72
12
73
8
74
6
42
0.0000001000
43
0.0000001000
44
0.0000000001
12
0.0082175243
22
0.1109275219
32
0.0000000000
13
0.0998959363
23
0.0498775528
33
0.0000000000
40
0.0000000000
40
0.0000000000
40
0.0000000000
40
0.0000000000
40
0.2659770126
40
0.5082935587
40
0.7298118726
40
0.9374528333
40
1.0000000000
40
1.0000000000
40
1.0000000000
40
1.0000000000
10
-0.9604770562
20
20.4115064987
30
0.0000000000
10
-0.9597484987
20
20.4213412223
30
0.0000000000
10
-0.9568953364
20
20.4400846413
30
0.0000000000
10
-0.9476938781
20
20.4657412156
30
0.0000000000
10
-0.9339191497
20
20.4868106184
30
0.0000000000
10
-0.9199142162
20
20.4988986180
30
0.0000000000
10
-0.9111267358
20
20.5038055589
30
0.0000000000
10
-0.9090439999
20
20.5048454588
30
0.0000000000
11
-0.9604770562
21
20.4115064987
31
0.0000000000
11
-0.9557890003
21
20.4407177190
31
0.0000000000
11
-0.9464308104
21
20.4659942066
31
0.0000000000
11
-0.9327233791
21
20.4864692302
31
0.0000000000
11
-0.9151367344
21
20.5014407009
31
0.0000000000
11
-0.9090439999
21
20.5048454588
31
0.0000000000
0
SPLINE
5
39A
100
AcDbEntity
8
0
100
AcDbSpline
62
7
6
CONTINUOUS
70
0
71
3
72
9
73
5
74
3
42
0.0000001000
43
0.0000001000
44
0.0000000001
12
-0.0122937366
22
-0.1403538812
32
0.0000000000
13
-0.1212354860
23
-0.0606177430
33
0.0000000000
40
0.0000000000
40
0.0000000000
40
0.0000000000
40
0.0000000000
40
0.2298972814
40
1.0000000000
40
1.0000000000
40
1.0000000000
40
1.0000000000
10
19.6414919704
20
3.6017690895
30
0.0000000000
10
19.6405498715
20
3.5910134309
30
0.0000000000
10
19.6290257653
20
3.5451159975
30
0.0000000000
10
19.5856620548
20
3.5182826512
30
0.0000000000
10
19.5545407957
20
3.5027220216
30
0.0000000000
11
19.6414919704
21
3.6017690895
31
0.0000000000
11
19.6335683392
21
3.5709176302
31
0.0000000000
11
19.5545407957
21
3.5027220216
31
0.0000000000
0
SPLINE
5
39B
100
AcDbEntity
8
0
100
AcDbSpline
62
7
6
CONTINUOUS
70
0
71
3
72
8
73
4
74
2
42
0.0000001000
43
0.0000001000
44
0.0000000001
12
0.0025415826
22
-0.0170348625
32
0.0000000000
13
-0.0000452954
23
-0.0173774848
33
0.0000000000
40
0.0000000000
40
0.0000000000
40
0.0000000000
40
0.0000000000
40
1.0000000000
40
1.0000000000
40
1.0000000000
40
1.0000000000
10
20.0662154786
20
11.6256517038
30
0.0000000000
10
20.0670626728
20
11.6199734164
30
0.0000000000
10
20.0674720151
20
11.6141950288
30
0.0000000000
10
20.0674569166
20
11.6084025338
30
0.0000000000
11
20.0662154786
21
11.6256517038
31
0.0000000000
11
20.0674569166
21
11.6084025338
31
0.0000000000
0
SPLINE
5
39C
100
AcDbEntity
8
0
100
AcDbSpline
62
7
6
CONTINUOUS
70
0
71
3
72
9
73
5
74
3
42
0.0000001000
43
0.0000001000
44
0.0000000001
12
0.0986748505
22
-0.0739923546
32
0.0000000000
13
0.0219085507
23
-0.1200485925
33
0.0000000000
40
0.0000000000
40
0.0000000000
40
0.0000000000
40
0.0000000000
40
0.7253393025
40
1.0000000000
40
1.0000000000
40
1.0000000000
40
1.0000000000
10
19.3706357004
20
15.1120866906
30
0.0000000000
10
19.3944932828
20
15.0941968363
30
0.0000000000
10
19.4218089355
20
15.0606651637
30
0.0000000000
10
19.4330396263
20
15.0215136216
30
0.0000000000
10
19.4350454323
20
15.0105227448
30
0.0000000000
11
19.3706357004
21
15.1120866906
31
0.0000000000
11
19.4256569422
21
15.0425964468
31
0.0000000000
11
19.4350454323
21
15.0105227448
31
0.0000000000
0
SPLINE
5
39D
100
AcDbEntity
8
0
100
AcDbSpline
62
7
6
CONTINUOUS
70
0
71
3
72
9
73
5
74
3
42
0.0000001000
43
0.0000001000
44
0.0000000001
12
0.0419525049
22
-0.2298800703
32
0.0000000000
13
-0.1508053370
23
-0.1753133036
33
0.0000000000
40
0.0000000000
40
0.0000000000
40
0.0000000000
40
0.0000000000
40
0.3848127042
40
1.0000000000
40
1.0000000000
40
1.0000000000
40
1.0000000000
10
19.4350454323
20
15.0105227448
30
0.0000000000
10
19.4404267179
20
14.9810358210
30
0.0000000000
10
19.4342320910
20
14.8999670713
30
0.0000000000
10
19.3931521993
20
14.8316711170
30
0.0000000000
10
19.3622276902
20
14.7957209446
30
0.0000000000
11
19.4350454323
21
15.0105227448
31
0.0000000000
11
19.4304933371
21
14.9205346574
31
0.0000000000
11
19.3622276902
21
14.7957209446
31
0.0000000000
0
SPLINE
5
39E
100
AcDbEntity
8
0
100
AcDbSpline
62
7
6
CONTINUOUS
70
0
71
3
72
9
73
5
74
3
42
0.0000001000
43
0.0000001000
44
0.0000000001
12
-0.0100286827
22
-0.1297436202
32
0.0000000000
13
-0.1157342452
23
-0.0472953886
33
0.0000000000
40
0.0000000000
40
0.0000000000
40
0.0000000000
40
0.0000000000
40
0.2277017714
40
1.0000000000
40
1.0000000000
40
1.0000000000
40
1.0000000000
10
20.0660708352
20
7.2849510731
30
0.0000000000
10
20.0653096523
20
7.2751034557
30
0.0000000000
10
20.0547288541
20
7.2329411523
30
0.0000000000
10
20.0109718590
20
7.2116948391
30
0.0000000000
10
19.9811780748
20
7.1995194575
30
0.0000000000
11
20.0660708352
21
7.2849510731
31
0.0000000000
11
20.0587709966
21
7.2569870477
31
0.0000000000
11
19.9811780748
21
7.1995194575
31
0.0000000000
0
SPLINE
5
39F
100
AcDbEntity
8
0
100
AcDbSpline
62
7
6
CONTINUOUS
70
0
71
3
72
8
73
4
74
2
42
0.0000001000
43
0.0000001000
44
0.0000000001
12
0.0860654214
22
-0.0634769151
32
0.0000000000
13
0.0528626193
23
-0.0946615083
33
0.0000000000
40
0.0000000000
40
0.0000000000
40
0.0000000000
40
0.0000000000
40
1.0000000000
40
1.0000000000
40
1.0000000000
40
1.0000000000
10
18.6648743931
20
15.6238474194
30
0.0000000000
10
18.6935628669
20
15.6026884477
30
0.0000000000
10
18.7170825786
20
15.5735403121
30
0.0000000000
10
18.7347034517
20
15.5419864761
30
0.0000000000
11
18.6648743931
21
15.6238474194
31
0.0000000000
11
18.7347034517
21
15.5419864761
31
0.0000000000
0
SPLINE
5
3A0
100
AcDbEntity
8
0
100
AcDbSpline
62
7
6
CONTINUOUS
70
0
71
3
72
9
73
5
74
3
42
0.0000001000
43
0.0000001000
44
0.0000000001
12
0.1580238615
22
-0.2829745719
32
0.0000000000
13
-0.0883931057
23
-0.3055569058
33
0.0000000000
40
0.0000000000
40
0.0000000000
40
0.0000000000
40
0.0000000000
40
0.4941490431
40
1.0000000000
40
1.0000000000
40
1.0000000000
40
1.0000000000
10
18.7347034517
20
15.5419864761
30
0.0000000000
10
18.7607325650
20
15.4953759381
30
0.0000000000
10
18.7873593013
20
15.3904280727
30
0.0000000000
10
18.7768438383
20
15.2822989907
30
0.0000000000
10
18.7619392592
20
15.2307769063
30
0.0000000000
11
18.7347034517
21
15.5419864761
31
0.0000000000
11
18.7779782136
21
15.3908793637
31
0.0000000000
11
18.7619392592
21
15.2307769063
31
0.0000000000
0
SPLINE
5
3A1
100
AcDbEntity
8
0
100
AcDbSpline
62
7
6
CONTINUOUS
70
0
71
3
72
9
73
5
74
3
42
0.0000001000
43
0.0000001000
44
0.0000000001
12
-0.0003102107
22
-0.1190116042
32
0.0000000000
13
-0.0903704490
23
-0.0758466828
33
0.0000000000
40
0.0000000000
40
0.0000000000
40
0.0000000000
40
0.0000000000
40
0.3851929309
40
1.0000000000
40
1.0000000000
40
1.0000000000
40
1.0000000000
10
20.0674569166
20
11.6084025338
30
0.0000000000
10
20.0674170863
20
11.5931217243
30
0.0000000000
10
20.0596453641
20
11.5531963138
30
0.0000000000
10
20.0336253137
20
11.5232493597
30
0.0000000000
10
20.0151051834
20
11.5077056675
30
0.0000000000
11
20.0674569166
21
11.6084025338
31
0.0000000000
11
20.0587222913
21
11.5638442920
31
0.0000000000
11
20.0151051834
21
11.5077056675
31
0.0000000000
0
SPLINE
5
3A2
100
AcDbEntity
8
0
100
AcDbSpline
62
7
6
CONTINUOUS
70
0
71
3
72
8
73
4
74
2
42
0.0000001000
43
0.0000001000
44
0.0000000001
12
-0.0322339585
22
-0.0270535208
32
0.0000000000
13
-0.0347659679
23
-0.0217912111
33
0.0000000000
40
0.0000000000
40
0.0000000000
40
0.0000000000
40
0.0000000000
40
1.0000000000
40
1.0000000000
40
1.0000000000
40
1.0000000000
10
20.0151051834
20
11.5077056675
30
0.0000000000
10
20.0043605305
20
11.4986878272
30
0.0000000000
10
19.9927667307
20
11.4906352857
30
0.0000000000
10
19.9811780748
20
11.4833715486
30
0.0000000000
11
20.0151051834
21
11.5077056675
31
0.0000000000
11
19.9811780748
21
11.4833715486
31
0.0000000000
0
SPLINE
5
3A3
100
AcDbEntity
8
0
100
AcDbSpline
62
7
6
CONTINUOUS
70
0
71
3
72
10
73
6
74
4
42
0.0000001000
43
0.0000001000
44
0.0000000001
12
0.0000000000
22
0.3523498546
32
0.0000000000
13
-0.2598309193
23
0.2436701897
33
0.0000000000
40
0.0000000000
40
0.0000000000
40
0.0000000000
40
0.0000000000
40
0.4168855898
40
0.8562228300
40
1.0000000000
40
1.0000000000
40
1.0000000000
40
1.0000000000
10
17.7891470531
20
14.7443808033
30
0.0000000000
10
17.7891470531
20
14.7933439956
30
0.0000000000
10
17.7668100957
20
14.8941260894
30
0.0000000000
10
17.7078660851
20
14.9971075010
30
0.0000000000
10
17.6605232219
20
15.0481187960
30
0.0000000000
10
17.6480706371
20
15.0597968661
30
0.0000000000
11
17.7891470531
21
14.7443808033
31
0.0000000000
11
17.7607267495
21
14.8884947657
31
0.0000000000
11
17.6830810359
21
15.0224138118
31
0.0000000000
11
17.6480706371
21
15.0597968661
31
0.0000000000
0
SPLINE
5
3A4
100
AcDbEntity
8
0
100
AcDbSpline
62
7
6
CONTINUOUS
70
0
71
3
72
8
73
4
74
2
42
0.0000001000
43
0.0000001000
44
0.0000000001
12
-0.0306541230
22
0.0287475255
32
0.0000000000
13
-0.0337873045
23
0.0245326136
33
0.0000000000
40
0.0000000000
40
0.0000000000
40
0.0000000000
40
0.0000000000
40
1.0000000000
40
1.0000000000
40
1.0000000000
40
1.0000000000
10
17.6480706371
20
15.0597968661
30
0.0000000000
10
17.6378525961
20
15.0693793746
30
0.0000000000
10
17.6271097997
20
15.0783561268
30
0.0000000000
10
17.6158473648
20
15.0865336646
30
0.0000000000
11
17.6480706371
21
15.0597968661
31
0.0000000000
11
17.6158473648
21
15.0865336646
31
0.0000000000
0
SPLINE
5
3A5
100
AcDbEntity
8
0
100
AcDbSpline
62
7
6
CONTINUOUS
70
0
71
3
72
8
73
4
74
2
42
0.0000001000
43
0.0000001000
44
0.0000000001
12
-0.0369723704
22
0.0268452572
32
0.0000000000
13
-0.0406856169
23
0.0203428085
33
0.0000000000
40
0.0000000000
40
0.0000000000
40
0.0000000000
40
0.0000000000
40
1.0000000000
40
1.0000000000
40
1.0000000000
40
1.0000000000
10
17.6158473648
20
15.0865336646
30
0.0000000000
10
17.6035232414
20
15.0954820837
30
0.0000000000
10
17.5905768911
20
15.1034735054
30
0.0000000000
10
17.5770150187
20
15.1102544416
30
0.0000000000
11
17.6158473648
21
15.0865336646
31
0.0000000000
11
17.5770150187
21
15.1102544416
31
0.0000000000
0
SPLINE
5
3A6
100
AcDbEntity
8
0
100
AcDbSpline
62
7
6
CONTINUOUS
70
0
71
3
72
9
73
5
74
3
42
0.0000001000
43
0.0000001000
44
0.0000000001
12
0.2602954014
22
0.1301477007
32
0.0000000000
13
0.2864229577
23
-0.0599602644
33
0.0000000000
40
0.0000000000
40
0.0000000000
40
0.0000000000
40
0.0000000000
40
0.5311778872
40
1.0000000000
40
1.0000000000
40
1.0000000000
40
1.0000000000
10
6.8289919447
20
-0.4510731356
30
0.0000000000
10
6.8750796652
20
-0.4280292754
30
0.0000000000
10
6.9677423547
20
-0.3945005579
30
0.0000000000
10
7.0670741851
20
-0.3931018698
30
0.0000000000
10
7.1118346572
20
-0.4024721024
30
0.0000000000
11
6.8289919447
21
-0.4510731356
31
0.0000000000
11
6.9754021062
21
-0.4014753349
31
0.0000000000
11
7.1118346572
21
-0.4024721024
31
0.0000000000
0
SPLINE
5
3A7
100
AcDbEntity
8
0
100
AcDbSpline
62
7
6
CONTINUOUS
70
0
71
3
72
8
73
4
74
2
42
0.0000001000
43
0.0000001000
44
0.0000000001
12
0.0387854925
22
-0.0081194203
32
0.0000000000
13
0.0375270041
23
-0.0130229713
33
0.0000000000
40
0.0000000000
40
0.0000000000
40
0.0000000000
40
0.0000000000
40
1.0000000000
40
1.0000000000
40
1.0000000000
40
1.0000000000
10
7.1118346572
20
-0.4024721024
30
0.0000000000
10
7.1247631547
20
-0.4051785758
30
0.0000000000
10
7.1375407755
20
-0.4087214861
30
0.0000000000
10
7.1500497769
20
-0.4130624765
30
0.0000000000
11
7.1118346572
21
-0.4024721024
31
0.0000000000
11
7.1500497769
21
-0.4130624765
31
0.0000000000
0
SPLINE
5
3A8
100
AcDbEntity
8
0
100
AcDbSpline
62
7
6
CONTINUOUS
70
0
71
3
72
8
73
4
74
2
42
0.0000001000
43
0.0000001000
44
0.0000000001
12
0.0032628026
22
-0.0011322882
32
0.0000000000
13
0.0032503866
23
-0.0011684112
33
0.0000000000
40
0.0000000000
40
0.0000000000
40
0.0000000000
40
0.0000000000
40
1.0000000000
40
1.0000000000
40
1.0000000000
40
1.0000000000
10
7.1500497769
20
-0.4130624765
30
0.0000000000
10
7.1511373778
20
-0.4134399059
30
0.0000000000
10
7.1522229480
20
-0.4138233684
30
0.0000000000
10
7.1533064102
20
-0.4142128388
30
0.0000000000
11
7.1500497769
21
-0.4130624765
31
0.0000000000
11
7.1533064102
21
-0.4142128388
31
0.0000000000
0
SPLINE
5
3A9
100
AcDbEntity
8
0
100
AcDbSpline
62
7
6
CONTINUOUS
70
0
71
3
72
8
73
4
74
2
42
0.0000001000
43
0.0000001000
44
0.0000000001
12
0.0342642701
22
-0.0123169211
32
0.0000000000
13
0.0325867769
23
-0.0162340928
33
0.0000000000
40
0.0000000000
40
0.0000000000
40
0.0000000000
40
0.0000000000
40
1.0000000000
40
1.0000000000
40
1.0000000000
40
1.0000000000
10
7.1533064102
20
-0.4142128388
30
0.0000000000
10
7.1647278336
20
-0.4183184792
30
0.0000000000
10
7.1759150025
20
-0.4230917478
30
0.0000000000
10
7.1867772615
20
-0.4285031120
30
0.0000000000
11
7.1533064102
21
-0.4142128388
31
0.0000000000
11
7.1867772615
21
-0.4285031120
31
0.0000000000
0
SPLINE
5
3AA
100
AcDbEntity
8
0
100
AcDbSpline
62
7
6
CONTINUOUS
70
0
71
3
72
9
73
5
74
3
42
0.0000001000
43
0.0000001000
44
0.0000000001
12
0.2602954014
22
0.1301477007
32
0.0000000000
13
0.2864229577
23
-0.0599602644
33
0.0000000000
40
0.0000000000
40
0.0000000000
40
0.0000000000
40
0.0000000000
40
0.5311778872
40
1.0000000000
40
1.0000000000
40
1.0000000000
40
1.0000000000
10
6.8289919447
20
7.4297580389
30
0.0000000000
10
6.8750796652
20
7.4528018991
30
0.0000000000
10
6.9677423547
20
7.4863306165
30
0.0000000000
10
7.0670741851
20
7.4877293047
30
0.0000000000
10
7.1118346572
20
7.4783590721
30
0.0000000000
11
6.8289919447
21
7.4297580389
31
0.0000000000
11
6.9754021062
21
7.4793558396
31
0.0000000000
11
7.1118346572
21
7.4783590721
31
0.0000000000
0
SPLINE
5
3AB
100
AcDbEntity
8
0
100
AcDbSpline
62
7
6
CONTINUOUS
70
0
71
3
72
8
73
4
74
2
42
0.0000001000
43
0.0000001000
44
0.0000000001
12
0.0387854925
22
-0.0081194203
32
0.0000000000
13
0.0375270041
23
-0.0130229713
33
0.0000000000
40
0.0000000000
40
0.0000000000
40
0.0000000000
40
0.0000000000
40
1.0000000000
40
1.0000000000
40
1.0000000000
40
1.0000000000
10
7.1118346572
20
7.4783590721
30
0.0000000000
10
7.1247631547
20
7.4756525986
30
0.0000000000
10
7.1375407755
20
7.4721096884
30
0.0000000000
10
7.1500497769
20
7.4677686979
30
0.0000000000
11
7.1118346572
21
7.4783590721
31
0.0000000000
11
7.1500497769
21
7.4677686979
31
0.0000000000
0
SPLINE
5
3AC
100
AcDbEntity
8
0
100
AcDbSpline
62
7
6
CONTINUOUS
70
0
71
3
72
8
73
4
74
2
42
0.0000001000
43
0.0000001000
44
0.0000000001
12
0.0032628026
22
-0.0011322882
32
0.0000000000
13
0.0032503866
23
-0.0011684112
33
0.0000000000
40
0.0000000000
40
0.0000000000
40
0.0000000000
40
0.0000000000
40
1.0000000000
40
1.0000000000
40
1.0000000000
40
1.0000000000
10
7.1500497769
20
7.4677686979
30
0.0000000000
10
7.1511373778
20
7.4673912685
30
0.0000000000
10
7.1522229480
20
7.4670078060
30
0.0000000000
10
7.1533064102
20
7.4666183356
30
0.0000000000
11
7.1500497769
21
7.4677686979
31
0.0000000000
11
7.1533064102
21
7.4666183356
31
0.0000000000
0
SPLINE
5
3AD
100
AcDbEntity
8
0
100
AcDbSpline
62
7
6
CONTINUOUS
70
0
71
3
72
8
73
4
74
2
42
0.0000001000
43
0.0000001000
44
0.0000000001
12
0.0342642701
22
-0.0123169211
32
0.0000000000
13
0.0325867769
23
-0.0162340928
33
0.0000000000
40
0.0000000000
40
0.0000000000
40
0.0000000000
40
0.0000000000
40
1.0000000000
40
1.0000000000
40
1.0000000000
40
1.0000000000
10
7.1533064102
20
7.4666183356
30
0.0000000000
10
7.1647278336
20
7.4625126953
30
0.0000000000
10
7.1759150025
20
7.4577394267
30
0.0000000000
10
7.1867772615
20
7.4523280624
30
0.0000000000
11
7.1533064102
21
7.4666183356
31
0.0000000000
11
7.1867772615
21
7.4523280624
31
0.0000000000
0
SPLINE
5
3AE
100
AcDbEntity
8
0
100
AcDbSpline
62
7
6
CONTINUOUS
70
0
71
3
72
11
73
7
74
5
42
0.0000001000
43
0.0000001000
44
0.0000000001
12
-0.3161440203
22
-0.1580720101
32
0.0000000000
13
0.0000731798
23
-0.3540114754
33
0.0000000000
40
0.0000000000
40
0.0000000000
40
0.0000000000
40
0.0000000000
40
0.3168278079
40
0.6353300714
40
0.9717121124
40
1.0000000000
40
1.0000000000
40
1.0000000000
40
1.0000000000
10
-8.7273572414
20
-6.9859122302
30
0.0000000000
10
-8.7607449804
20
-7.0026060997
30
0.0000000000
10
-8.8192880309
20
-7.0550067250
30
0.0000000000
10
-8.8643107424
20
-7.1627551415
30
0.0000000000
10
-8.8734700521
20
-7.2434311069
30
0.0000000000
10
-8.8738062437
20
-7.2864689568
30
0.0000000000
10
-8.8738055537
20
-7.2898070358
30
0.0000000000
11
-8.7273572414
21
-6.9859122302
31
0.0000000000
11
-8.8118955273
21
-7.0593568744
31
0.0000000000
11
-8.8583819131
21
-7.1618886355
31
0.0000000000
11
-8.8737266897
21
-7.2797918035
31
0.0000000000
11
-8.8738055537
21
-7.2898070358
31
0.0000000000
0
SPLINE
5
3AF
100
AcDbEntity
8
0
100
AcDbSpline
62
7
6
CONTINUOUS
70
0
71
3
72
11
73
7
74
5
42
0.0000001000
43
0.0000001000
44
0.0000000001
12
-0.3161440203
22
-0.1580720101
32
0.0000000000
13
0.0000731798
23
-0.3540114754
33
0.0000000000
40
0.0000000000
40
0.0000000000
40
0.0000000000
40
0.0000000000
40
0.3168278079
40
0.6353300714
40
0.9717121124
40
1.0000000000
40
1.0000000000
40
1.0000000000
40
1.0000000000
10
-7.8788291040
20
-6.1111381933
30
0.0000000000
10
-7.9122168429
20
-6.1278320628
30
0.0000000000
10
-7.9707598935
20
-6.1802326880
30
0.0000000000
10
-8.0157826050
20
-6.2879811046
30
0.0000000000
10
-8.0249419146
20
-6.3686570699
30
0.0000000000
10
-8.0252781063
20
-6.4116949198
30
0.0000000000
10
-8.0252774163
20
-6.4150329988
30
0.0000000000
11
-7.8788291040
21
-6.1111381933
31
0.0000000000
11
-7.9633673898
21
-6.1845828374
31
0.0000000000
11
-8.0098537756
21
-6.2871145986
31
0.0000000000
11
-8.0251985523
21
-6.4050177666
31
0.0000000000
11
-8.0252774163
21
-6.4150329988
31
0.0000000000
0
SPLINE
5
3B0
100
AcDbEntity
8
0
100
AcDbSpline
62
7
6
CONTINUOUS
70
0
71
3
72
11
73
7
74
5
42
0.0000001000
43
0.0000001000
44
0.0000000001
12
-0.2488578232
22
-0.4700252737
32
0.0000000000
13
-0.4416244268
23
-0.2984075571
33
0.0000000000
40
0.0000000000
40
0.0000000000
40
0.0000000000
40
0.0000000000
40
0.3161005609
40
0.6218189617
40
0.9095467473
40
1.0000000000
40
1.0000000000
40
1.0000000000
40
1.0000000000
10
7.1825453353
20
-3.0001119219
30
0.0000000000
10
7.1563239695
20
-3.0496370061
30
0.0000000000
10
7.0984288444
20
-3.1438765844
30
0.0000000000
10
6.9961846948
20
-3.2692196954
30
0.0000000000
10
6.9063854671
20
-3.3513431464
30
0.0000000000
10
6.8518520298
20
-3.3906785615
30
0.0000000000
10
6.8385365745
20
-3.3996758729
30
0.0000000000
11
7.1825453353
21
-3.0001119219
31
0.0000000000
11
7.0943599180
21
-3.1432411576
31
0.0000000000
11
6.9911868857
21
-3.2689070474
31
0.0000000000
11
6.8776596509
21
-3.3715144434
31
0.0000000000
11
6.8385365745
21
-3.3996758729
31
0.0000000000
0
SPLINE
5
3B1
100
AcDbEntity
8
0
100
AcDbSpline
62
7
6
CONTINUOUS
70
0
71
3
72
8
73
4
74
2
42
0.0000001000
43
0.0000001000
44
0.0000000001
12
-0.0397755896
22
-0.0268765399
32
0.0000000000
13
-0.0413744563
23
-0.0242446257
33
0.0000000000
40
0.0000000000
40
0.0000000000
40
0.0000000000
40
0.0000000000
40
1.0000000000
40
1.0000000000
40
1.0000000000
40
1.0000000000
10
6.8385365745
20
-3.3996758729
30
0.0000000000
10
6.8252780446
20
-3.4086347195
30
0.0000000000
10
6.8117496764
20
-3.4171861481
30
0.0000000000
10
6.7979581910
20
-3.4252676900
30
0.0000000000
11
6.8385365745
21
-3.3996758729
31
0.0000000000
11
6.7979581910
21
-3.4252676900
31
0.0000000000
0
SPLINE
5
3B2
100
AcDbEntity
8
0
100
AcDbSpline
62
7
6
CONTINUOUS
70
0
71
3
72
8
73
4
74
2
42
0.0000001000
43
0.0000001000
44
0.0000000001
12
-0.0389818479
22
-0.0228426038
32
0.0000000000
13
-0.0403663795
23
-0.0201831897
33
0.0000000000
40
0.0000000000
40
0.0000000000
40
0.0000000000
40
0.0000000000
40
1.0000000000
40
1.0000000000
40
1.0000000000
40
1.0000000000
10
6.7979581910
20
-3.4252676900
30
0.0000000000
10
6.7849642416
20
-3.4328818913
30
0.0000000000
10
6.7717367264
20
-3.4400789799
30
0.0000000000
10
6.7582812666
20
-3.4468067098
30
0.0000000000
11
6.7979581910
21
-3.4252676900
31
0.0000000000
11
6.7582812666
21
-3.4468067098
31
0.0000000000
0
SPLINE
5
3B3
100
AcDbEntity
8
0
100
AcDbSpline
62
7
6
CONTINUOUS
70
0
71
3
72
11
73
7
74
5
42
0.0000001000
43
0.0000001000
44
0.0000000001
12
-0.2488578232
22
-0.4700252737
32
0.0000000000
13
-0.4416244268
23
-0.2984075571
33
0.0000000000
40
0.0000000000
40
0.0000000000
40
0.0000000000
40
0.0000000000
40
0.3161005609
40
0.6218189617
40
0.9095467473
40
1.0000000000
40
1.0000000000
40
1.0000000000
40
1.0000000000
10
7.1825453353
20
4.8807192526
30
0.0000000000
10
7.1563239695
20
4.8311941683
30
0.0000000000
10
7.0984288444
20
4.7369545900
30
0.0000000000
10
6.9961846948
20
4.6116114790
30
0.0000000000
10
6.9063854671
20
4.5294880280
30
0.0000000000
10
6.8518520298
20
4.4901526129
30
0.0000000000
10
6.8385365745
20
4.4811553015
30
0.0000000000
11
7.1825453353
21
4.8807192526
31
0.0000000000
11
7.0943599180
21
4.7375900168
31
0.0000000000
11
6.9911868857
21
4.6119241270
31
0.0000000000
11
6.8776596509
21
4.5093167310
31
0.0000000000
11
6.8385365745
21
4.4811553015
31
0.0000000000
0
SPLINE
5
3B4
100
AcDbEntity
8
0
100
AcDbSpline
62
7
6
CONTINUOUS
70
0
71
3
72
8
73
4
74
2
42
0.0000001000
43
0.0000001000
44
0.0000000001
12
-0.0397755896
22
-0.0268765399
32
0.0000000000
13
-0.0413744563
23
-0.0242446257
33
0.0000000000
40
0.0000000000
40
0.0000000000
40
0.0000000000
40
0.0000000000
40
1.0000000000
40
1.0000000000
40
1.0000000000
40
1.0000000000
10
6.8385365745
20
4.4811553015
30
0.0000000000
10
6.8252780446
20
4.4721964549
30
0.0000000000
10
6.8117496764
20
4.4636450263
30
0.0000000000
10
6.7979581910
20
4.4555634844
30
0.0000000000
11
6.8385365745
21
4.4811553015
31
0.0000000000
11
6.7979581910
21
4.4555634844
31
0.0000000000
0
SPLINE
5
3B5
100
AcDbEntity
8
0
100
AcDbSpline
62
7
6
CONTINUOUS
70
0
71
3
72
8
73
4
74
2
42
0.0000001000
43
0.0000001000
44
0.0000000001
12
-0.0389818479
22
-0.0228426038
32
0.0000000000
13
-0.0403663795
23
-0.0201831897
33
0.0000000000
40
0.0000000000
40
0.0000000000
40
0.0000000000
40
0.0000000000
40
1.0000000000
40
1.0000000000
40
1.0000000000
40
1.0000000000
10
6.7979581910
20
4.4555634844
30
0.0000000000
10
6.7849642416
20
4.4479492831
30
0.0000000000
10
6.7717367264
20
4.4407521946
30
0.0000000000
10
6.7582812666
20
4.4340244647
30
0.0000000000
11
6.7979581910
21
4.4555634844
31
0.0000000000
11
6.7582812666
21
4.4340244647
31
0.0000000000
0
SPLINE
5
3B6
100
AcDbEntity
8
0
100
AcDbSpline
62
7
6
CONTINUOUS
70
0
71
3
72
10
73
6
74
4
42
0.0000001000
43
0.0000001000
44
0.0000000001
12
0.0000000000
22
-0.6020766760
32
0.0000000000
13
-0.3023685099
23
-0.5215056348
33
0.0000000000
40
0.0000000000
40
0.0000000000
40
0.0000000000
40
0.0000000000
40
0.3154636843
40
0.6532296945
40
1.0000000000
40
1.0000000000
40
1.0000000000
40
1.0000000000
10
7.3946773697
20
-2.5064990133
30
0.0000000000
10
7.3946773697
20
-2.5698101221
30
0.0000000000
10
7.3801772807
20
-2.7010932077
30
0.0000000000
10
7.3233860597
20
-2.8944592954
30
0.0000000000
10
7.2639427516
20
-3.0189587849
30
0.0000000000
10
7.2289919447
20
-3.0792396744
30
0.0000000000
11
7.3946773697
21
-2.5064990133
31
0.0000000000
11
7.3754021062
21
-2.6954517395
31
0.0000000000
11
7.3188898933
21
-2.8908029130
31
0.0000000000
11
7.2289919447
21
-3.0792396744
31
0.0000000000
0
SPLINE
5
3B7
100
AcDbEntity
8
0
100
AcDbSpline
62
7
6
CONTINUOUS
70
0
71
3
72
10
73
6
74
4
42
0.0000001000
43
0.0000001000
44
0.0000000001
12
-0.2885442812
22
-0.4976624999
32
0.0000000000
13
-0.5138930075
23
-0.2569465037
33
0.0000000000
40
0.0000000000
40
0.0000000000
40
0.0000000000
40
0.0000000000
40
0.3574542463
40
0.6945022291
40
1.0000000000
40
1.0000000000
40
1.0000000000
40
1.0000000000
10
7.2289919447
20
-3.0792396744
30
0.0000000000
10
7.1946114852
20
-3.1385368656
30
0.0000000000
10
7.1187173673
20
-3.2485052146
30
0.0000000000
10
6.9841493267
20
-3.3861049269
30
0.0000000000
10
6.8813230008
20
-3.4559965208
30
0.0000000000
10
6.8289919447
20
-3.4821620488
30
0.0000000000
11
7.2289919447
21
-3.0792396744
31
0.0000000000
11
7.1118346572
21
-3.2479203696
31
0.0000000000
11
6.9754021062
21
-3.3853496880
31
0.0000000000
11
6.8289919447
21
-3.4821620488
31
0.0000000000
0
SPLINE
5
3B8
100
AcDbEntity
8
0
100
AcDbSpline
62
7
6
CONTINUOUS
70
0
71
3
72
11
73
7
74
5
42
0.0000001000
43
0.0000001000
44
0.0000000001
12
0.0000707209
22
-0.5103613802
32
0.0000000000
13
0.2555908780
23
-0.4408290560
33
0.0000000000
40
0.0000000000
40
0.0000000000
40
0.0000000000
40
0.0000000000
40
0.2268214081
40
0.4828194761
40
0.7429987033
40
1.0000000000
40
1.0000000000
40
1.0000000000
40
1.0000000000
10
-6.0453784363
20
-7.4049399451
30
0.0000000000
10
-6.0453730893
20
-7.4435269074
30
0.0000000000
10
-6.0377468743
20
-7.5255454726
30
0.0000000000
10
-6.0078267143
20
-7.6485498288
30
0.0000000000
10
-5.9609895426
20
-7.7715488781
30
0.0000000000
10
-5.9208258457
20
-7.8498892331
30
0.0000000000
10
-5.8989301166
20
-7.8876537794
30
0.0000000000
11
-6.0453784363
21
-7.4049399451
31
0.0000000000
11
-6.0355998090
21
-7.5201284697
31
0.0000000000
11
-6.0054167432
21
-7.6470363252
31
0.0000000000
11
-5.9585612488
21
-7.7710588256
31
0.0000000000
11
-5.8989301166
21
-7.8876537794
31
0.0000000000
0
SPLINE
5
3B9
100
AcDbEntity
8
0
100
AcDbSpline
62
7
6
CONTINUOUS
70
0
71
3
72
9
73
5
74
3
42
0.0000001000
43
0.0000001000
44
0.0000000001
12
-0.0101875310
22
0.0393310871
32
0.0000000000
13
0.0426169085
23
0.0366133477
33
0.0000000000
40
0.0000000000
40
0.0000000000
40
0.0000000000
40
0.0000000000
40
0.3093921836
40
1.0000000000
40
1.0000000000
40
1.0000000000
40
1.0000000000
10
-6.0457007575
20
-1.0888669784
30
0.0000000000
10
-6.0467514050
20
-1.0848107348
30
0.0000000000
10
-6.0277172745
20
-1.0620191589
30
0.0000000000
10
-6.0152272665
20
-1.0508083163
30
0.0000000000
10
-6.0054167432
20
-1.0423798283
30
0.0000000000
11
-6.0457007575
21
-1.0888669784
31
0.0000000000
11
-6.0355998090
21
-1.0718162125
31
0.0000000000
11
-6.0054167432
21
-1.0423798283
31
0.0000000000
0
SPLINE
5
3BA
100
AcDbEntity
8
0
100
AcDbSpline
62
7
6
CONTINUOUS
70
0
71
3
72
8
73
4
74
2
42
0.0000001000
43
0.0000001000
44
0.0000000001
12
0.0422562132
22
0.0363034646
32
0.0000000000
13
0.0487269887
23
0.0381193380
33
0.0000000000
40
0.0000000000
40
0.0000000000
40
0.0000000000
40
0.0000000000
40
1.0000000000
40
1.0000000000
40
1.0000000000
40
1.0000000000
10
-6.0054167432
20
-1.0423798283
30
0.0000000000
10
-5.9913313388
20
-1.0302786734
30
0.0000000000
10
-5.9748035784
20
-1.0167630273
30
0.0000000000
10
-5.9585612488
20
-1.0040565813
30
0.0000000000
11
-6.0054167432
21
-1.0423798283
31
0.0000000000
11
-5.9585612488
21
-1.0040565813
31
0.0000000000
0
SPLINE
5
3BB
100
AcDbEntity
8
0
100
AcDbSpline
62
7
6
CONTINUOUS
70
0
71
3
72
8
73
4
74
2
42
0.0000001000
43
0.0000001000
44
0.0000000001
12
0.0599457642
22
0.0468958356
32
0.0000000000
13
0.0602978532
23
0.0437005599
33
0.0000000000
40
0.0000000000
40
0.0000000000
40
0.0000000000
40
0.0000000000
40
1.0000000000
40
1.0000000000
40
1.0000000000
40
1.0000000000
10
-5.9585612488
20
-1.0040565813
30
0.0000000000
10
-5.9385793275
20
-0.9884246361
30
0.0000000000
10
-5.9190294010
20
-0.9740174024
30
0.0000000000
10
-5.8989301166
20
-0.9594505491
30
0.0000000000
11
-5.9585612488
21
-1.0040565813
31
0.0000000000
11
-5.8989301166
21
-0.9594505491
31
0.0000000000
0
SPLINE
5
3BC
100
AcDbEntity
8
0
100
AcDbSpline
62
7
6
CONTINUOUS
70
0
71
3
72
10
73
6
74
4
42
0.0000001000
43
0.0000001000
44
0.0000000001
12
0.0000000000
22
-0.6020766760
32
0.0000000000
13
-0.3023685099
23
-0.5215056348
33
0.0000000000
40
0.0000000000
40
0.0000000000
40
0.0000000000
40
0.0000000000
40
0.3154636843
40
0.6532296945
40
1.0000000000
40
1.0000000000
40
1.0000000000
40
1.0000000000
10
7.3946773697
20
5.3743321611
30
0.0000000000
10
7.3946773697
20
5.3110210523
30
0.0000000000
10
7.3801772807
20
5.1797379667
30
0.0000000000
10
7.3233860597
20
4.9863718790
30
0.0000000000
10
7.2639427516
20
4.8618723895
30
0.0000000000
10
7.2289919447
20
4.8015915001
30
0.0000000000
11
7.3946773697
21
5.3743321611
31
0.0000000000
11
7.3754021062
21
5.1853794350
31
0.0000000000
11
7.3188898933
21
4.9900282614
31
0.0000000000
11
7.2289919447
21
4.8015915001
31
0.0000000000
0
SPLINE
5
3BD
100
AcDbEntity
8
0
100
AcDbSpline
62
7
6
CONTINUOUS
70
0
71
3
72
10
73
6
74
4
42
0.0000001000
43
0.0000001000
44
0.0000000001
12
-0.2885442812
22
-0.4976624999
32
0.0000000000
13
-0.5138930075
23
-0.2569465037
33
0.0000000000
40
0.0000000000
40
0.0000000000
40
0.0000000000
40
0.0000000000
40
0.3574542463
40
0.6945022291
40
1.0000000000
40
1.0000000000
40
1.0000000000
40
1.0000000000
10
7.2289919447
20
4.8015915001
30
0.0000000000
10
7.1946114852
20
4.7422943088
30
0.0000000000
10
7.1187173673
20
4.6323259599
30
0.0000000000
10
6.9841493267
20
4.4947262475
30
0.0000000000
10
6.8813230008
20
4.4248346537
30
0.0000000000
10
6.8289919447
20
4.3986691256
30
0.0000000000
11
7.2289919447
21
4.8015915001
31
0.0000000000
11
7.1118346572
21
4.6329108049
31
0.0000000000
11
6.9754021062
21
4.4954814864
31
0.0000000000
11
6.8289919447
21
4.3986691256
31
0.0000000000
0
SPLINE
5
3BE
100
AcDbEntity
8
0
100
AcDbSpline
62
7
6
CONTINUOUS
70
0
71
3
72
11
73
7
74
5
42
0.0000001000
43
0.0000001000
44
0.0000000001
12
0.0003833058
22
-0.2616957352
32
0.0000000000
13
0.2328008277
23
-0.1164004139
33
0.0000000000
40
0.0000000000
40
0.0000000000
40
0.0000000000
40
0.0000000000
40
0.0055560641
40
0.3101080120
40
0.6334229987
40
1.0000000000
40
1.0000000000
40
1.0000000000
40
1.0000000000
10
-8.8738060871
20
-8.8712724545
30
0.0000000000
10
-8.8738053772
20
-8.8717571206
30
0.0000000000
10
-8.8736565816
20
-8.8988100192
30
0.0000000000
10
-8.8608320608
20
-8.9541838617
30
0.0000000000
10
-8.8066927754
20
-9.0240488212
30
0.0000000000
10
-8.7558037178
20
-9.0572931902
30
0.0000000000
10
-8.7273572414
20
-9.0715164284
30
0.0000000000
11
-8.8738060871
21
-8.8712724545
31
0.0000000000
11
-8.8737980777
21
-8.8727265278
31
0.0000000000
11
-8.8561604169
21
-8.9500079342
31
0.0000000000
11
-8.8061203568
21
-9.0176657608
31
0.0000000000
11
-8.7273572414
21
-9.0715164284
31
0.0000000000
0
SPLINE
5
3BF
100
AcDbEntity
8
0
100
AcDbSpline
62
7
6
CONTINUOUS
70
0
71
3
72
11
73
7
74
5
42
0.0000001000
43
0.0000001000
44
0.0000000001
12
0.0000707209
22
-0.5103613802
32
0.0000000000
13
0.2555908780
23
-0.4408290560
33
0.0000000000
40
0.0000000000
40
0.0000000000
40
0.0000000000
40
0.0000000000
40
0.2268214081
40
0.4828194761
40
0.7429987033
40
1.0000000000
40
1.0000000000
40
1.0000000000
40
1.0000000000
10
-8.0252774236
20
-7.7140285572
30
0.0000000000
10
-8.0252720766
20
-7.7526155195
30
0.0000000000
10
-8.0176458616
20
-7.8346340846
30
0.0000000000
10
-7.9877257016
20
-7.9576384408
30
0.0000000000
10
-7.9408885299
20
-8.0806374901
30
0.0000000000
10
-7.9007248330
20
-8.1589778451
30
0.0000000000
10
-7.8788291040
20
-8.1967423914
30
0.0000000000
11
-8.0252774236
21
-7.7140285572
31
0.0000000000
11
-8.0154987964
21
-7.8292170817
31
0.0000000000
11
-7.9853157305
21
-7.9561249372
31
0.0000000000
11
-7.9384602362
21
-8.0801474376
31
0.0000000000
11
-7.8788291040
21
-8.1967423914
31
0.0000000000
0
SPLINE
5
3C0
100
AcDbEntity
8
0
100
AcDbSpline
62
7
6
CONTINUOUS
70
0
71
3
72
8
73
4
74
2
42
0.0000001000
43
0.0000001000
44
0.0000000001
12
0.0059063026
22
-0.0029424040
32
0.0000000000
13
0.0058406415
23
-0.0030676490
33
0.0000000000
40
0.0000000000
40
0.0000000000
40
0.0000000000
40
0.0000000000
40
1.0000000000
40
1.0000000000
40
1.0000000000
40
1.0000000000
10
7.1867772615
20
7.4523280624
30
0.0000000000
10
7.1887460290
20
7.4513472611
30
0.0000000000
10
7.1907041229
20
7.4503454976
30
0.0000000000
10
7.1926510035
20
7.4493229480
30
0.0000000000
11
7.1867772615
21
7.4523280624
31
0.0000000000
11
7.1926510035
21
7.4493229480
31
0.0000000000
0
SPLINE
5
3C1
100
AcDbEntity
8
0
100
AcDbSpline
62
7
6
CONTINUOUS
70
0
71
3
72
11
73
7
74
5
42
0.0000001000
43
0.0000001000
44
0.0000000001
12
0.4430002683
22
-0.2326746678
32
0.0000000000
13
0.0000000000
23
-0.4965398117
33
0.0000000000
40
0.0000000000
40
0.0000000000
40
0.0000000000
40
0.0000000000
40
0.0855651663
40
0.3541940334
40
0.6560823953
40
1.0000000000
40
1.0000000000
40
1.0000000000
40
1.0000000000
10
7.1926510035
20
7.4493229480
30
0.0000000000
10
7.2052861340
20
7.4426866658
30
0.0000000000
10
7.2556337477
20
7.4115918992
30
0.0000000000
10
7.3292199015
20
7.3277315989
30
0.0000000000
10
7.3840699836
20
7.1842005576
30
0.0000000000
10
7.3946773697
20
7.0767033559
30
0.0000000000
10
7.3946773697
20
7.0197804283
30
0.0000000000
11
7.1926510035
21
7.4493229480
31
0.0000000000
11
7.2289919447
21
7.4268356644
31
0.0000000000
11
7.3188898933
21
7.3282968516
31
0.0000000000
11
7.3754021062
21
7.1894578910
31
0.0000000000
11
7.3946773697
21
7.0197804283
31
0.0000000000
0
SPLINE
5
3C2
100
AcDbEntity
8
0
100
AcDbSpline
62
7
6
CONTINUOUS
70
0
71
3
72
8
73
4
74
2
42
0.0000001000
43
0.0000001000
44
0.0000000001
12
0.0059063026
22
-0.0029424040
32
0.0000000000
13
0.0058406415
23
-0.0030676490
33
0.0000000000
40
0.0000000000
40
0.0000000000
40
0.0000000000
40
0.0000000000
40
1.0000000000
40
1.0000000000
40
1.0000000000
40
1.0000000000
10
7.1867772615
20
-0.4285031120
30
0.0000000000
10
7.1887460290
20
-0.4294839134
30
0.0000000000
10
7.1907041229
20
-0.4304856768
30
0.0000000000
10
7.1926510035
20
-0.4315082265
30
0.0000000000
11
7.1867772615
21
-0.4285031120
31
0.0000000000
11
7.1926510035
21
-0.4315082265
31
0.0000000000
0
SPLINE
5
3C3
100
AcDbEntity
8
0
100
AcDbSpline
62
7
6
CONTINUOUS
70
0
71
3
72
11
73
7
74
5
42
0.0000001000
43
0.0000001000
44
0.0000000001
12
0.4430002683
22
-0.2326746678
32
0.0000000000
13
0.0000000000
23
-0.4965398117
33
0.0000000000
40
0.0000000000
40
0.0000000000
40
0.0000000000
40
0.0000000000
40
0.0855651663
40
0.3541940334
40
0.6560823953
40
1.0000000000
40
1.0000000000
40
1.0000000000
40
1.0000000000
10
7.1926510035
20
-0.4315082265
30
0.0000000000
10
7.2052861340
20
-0.4381445087
30
0.0000000000
10
7.2556337477
20
-0.4692392753
30
0.0000000000
10
7.3292199015
20
-0.5530995756
30
0.0000000000
10
7.3840699836
20
-0.6966306168
30
0.0000000000
10
7.3946773697
20
-0.8041278186
30
0.0000000000
10
7.3946773697
20
-0.8610507461
30
0.0000000000
11
7.1926510035
21
-0.4315082265
31
0.0000000000
11
7.2289919447
21
-0.4539955101
31
0.0000000000
11
7.3188898933
21
-0.5525343228
31
0.0000000000
11
7.3754021062
21
-0.6913732834
31
0.0000000000
11
7.3946773697
21
-0.8610507461
31
0.0000000000
0
SPLINE
5
3C4
100
AcDbEntity
8
0
100
AcDbSpline
62
7
6
CONTINUOUS
70
0
71
3
72
8
73
4
74
2
42
0.0000001000
43
0.0000001000
44
0.0000000001
12
0.0306713666
22
-0.0272585682
32
0.0000000000
13
0.0271368520
23
-0.0309979444
33
0.0000000000
40
0.0000000000
40
0.0000000000
40
0.0000000000
40
0.0000000000
40
1.0000000000
40
1.0000000000
40
1.0000000000
40
1.0000000000
10
7.1825453353
20
-0.4381485157
30
0.0000000000
10
7.1927691242
20
-0.4472347051
30
0.0000000000
10
7.2024075816
20
-0.4570089354
30
0.0000000000
10
7.2114531990
20
-0.4673415836
30
0.0000000000
11
7.1825453353
21
-0.4381485157
31
0.0000000000
11
7.2114531990
21
-0.4673415836
31
0.0000000000
0
SPLINE
5
3C5
100
AcDbEntity
8
0
100
AcDbSpline
62
7
6
CONTINUOUS
70
0
71
3
72
10
73
6
74
4
42
0.0000001000
43
0.0000001000
44
0.0000000001
12
0.2528607417
22
-0.2888383377
32
0.0000000000
13
-0.0000000000
23
-0.3823510867
33
0.0000000000
40
0.0000000000
40
0.0000000000
40
0.0000000000
40
0.0000000000
40
0.2199907664
40
0.5865973628
40
1.0000000000
40
1.0000000000
40
1.0000000000
40
1.0000000000
10
7.2114531990
20
-0.4673415836
30
0.0000000000
10
7.2299955418
20
-0.4885221727
30
0.0000000000
10
7.2727956076
20
-0.5512561762
30
0.0000000000
10
7.3147808897
20
-0.6731097111
30
0.0000000000
10
7.3239666915
20
-0.7730070912
30
0.0000000000
10
7.3239666915
20
-0.8256954071
30
0.0000000000
11
7.2114531990
21
-0.4673415836
31
0.0000000000
11
7.2595422642
21
-0.5368062063
31
0.0000000000
11
7.3076109906
21
-0.6684789363
31
0.0000000000
11
7.3239666915
21
-0.8256954071
31
0.0000000000
0
SPLINE
5
3C6
100
AcDbEntity
8
0
100
AcDbSpline
62
7
6
CONTINUOUS
70
0
71
3
72
13
73
9
74
7
42
0.0000001000
43
0.0000001000
44
0.0000000001
12
0.6631700559
22
-0.3315850279
32
0.0000000000
13
0.5997681954
23
0.4359142869
33
0.0000000000
40
0.0000000000
40
0.0000000000
40
0.0000000000
40
0.0000000000
40
0.1466517673
40
0.3095393525
40
0.4839360520
40
0.6624779849
40
0.8369516007
40
1.0000000000
40
1.0000000000
40
1.0000000000
40
1.0000000000
10
-12.2628911473
20
-7.3037494754
30
0.0000000000
10
-12.2304727938
20
-7.3199586522
30
0.0000000000
10
-12.1574033381
20
-7.3451007520
30
0.0000000000
10
-12.0383169038
20
-7.3612424659
30
0.0000000000
10
-11.9103357803
20
-7.3570376254
30
0.0000000000
10
-11.7817826933
20
-7.3324428733
30
0.0000000000
10
-11.6613257854
20
-7.2889682389
30
0.0000000000
10
-11.5883814475
20
-7.2472536470
30
0.0000000000
10
-11.5557843661
20
-7.2235619380
30
0.0000000000
11
-12.2628911473
21
-7.3037494754
31
0.0000000000
11
-12.1605397444
21
-7.3404560670
31
0.0000000000
11
-12.0409893542
21
-7.3575934656
31
0.0000000000
11
-11.9117404789
21
-7.3537553272
31
0.0000000000
11
-11.7817237203
21
-7.3288569955
31
0.0000000000
11
-11.6602190227
21
-7.2844569591
31
0.0000000000
11
-11.5557843661
21
-7.2235619380
31
0.0000000000
0
SPLINE
5
3C7
100
AcDbEntity
8
0
100
AcDbSpline
62
7
6
CONTINUOUS
70
0
71
3
72
10
73
6
74
4
42
0.0000001000
43
0.0000001000
44
0.0000000001
12
0.0000000000
22
-0.5521882409
32
0.0000000000
13
-0.2583790573
23
-0.4880083156
33
0.0000000000
40
0.0000000000
40
0.0000000000
40
0.0000000000
40
0.0000000000
40
0.3157275988
40
0.6526743579
40
1.0000000000
40
1.0000000000
40
1.0000000000
40
1.0000000000
10
7.3239666915
20
-2.4711436743
30
0.0000000000
10
7.3239666915
20
-2.5292573634
30
0.0000000000
10
7.3117451783
20
-2.6495530742
30
0.0000000000
10
7.2633500263
20
-2.8278002879
30
0.0000000000
10
7.2124592260
20
-2.9436126547
30
0.0000000000
10
7.1825453353
20
-3.0001119219
30
0.0000000000
11
7.3239666915
21
-2.4711436743
31
0.0000000000
11
7.3076109906
21
-2.6447158461
31
0.0000000000
11
7.2595422642
21
-2.8244573024
31
0.0000000000
11
7.1825453353
21
-3.0001119219
31
0.0000000000
0
SPLINE
5
3C8
100
AcDbEntity
8
0
100
AcDbSpline
62
7
6
CONTINUOUS
70
0
71
3
72
11
73
7
74
5
42
0.0000001000
43
0.0000001000
44
0.0000000001
12
0.0001054910
22
-0.5103182891
32
0.0000000000
13
0.2555695701
23
-0.4407923054
33
0.0000000000
40
0.0000000000
40
0.0000000000
40
0.0000000000
40
0.0000000000
40
0.2267569451
40
0.4827763567
40
0.7429772760
40
1.0000000000
40
1.0000000000
40
1.0000000000
40
1.0000000000
10
-8.0252774163
20
-6.4150329988
30
0.0000000000
10
-8.0252694427
20
-6.4536057375
30
0.0000000000
10
-8.0176425045
20
-6.5356097804
30
0.0000000000
10
-7.9877257016
20
-6.6586003351
30
0.0000000000
10
-7.9408885299
20
-6.7815993844
30
0.0000000000
10
-7.9007248330
20
-6.8599397394
30
0.0000000000
10
-7.8788291040
20
-6.8977042858
30
0.0000000000
11
-8.0252774163
21
-6.4150329988
31
0.0000000000
11
-8.0154987964
21
-6.5301789760
31
0.0000000000
11
-7.9853157305
21
-6.6570868316
31
0.0000000000
11
-7.9384602362
21
-6.7811093319
31
0.0000000000
11
-7.8788291040
21
-6.8977042858
31
0.0000000000
0
SPLINE
5
3C9
100
AcDbEntity
8
0
100
AcDbSpline
62
7
6
CONTINUOUS
70
0
71
3
72
14
73
10
74
8
42
0.0000001000
43
0.0000001000
44
0.0000000001
12
-0.7422120105
22
-0.3711060053
32
0.0000000000
13
-0.6719109788
23
-0.4869640359
33
0.0000000000
40
0.0000000000
40
0.0000000000
40
0.0000000000
40
0.0000000000
40
0.1533955896
40
0.3166086387
40
0.4772466909
40
0.6293877876
40
0.7693012537
40
0.8938328330
40
1.0000000000
40
1.0000000000
40
1.0000000000
40
1.0000000000
10
-14.3842114909
20
-2.8584469998
30
0.0000000000
10
-14.4221621739
20
-2.8774223413
30
0.0000000000
10
-14.4994514999
20
-2.9186626747
30
0.0000000000
10
-14.6141636727
20
-2.9840038304
30
0.0000000000
10
-14.7271767505
20
-3.0515721814
30
0.0000000000
10
-14.8334887520
20
-3.1177434651
30
0.0000000000
10
-14.9302611491
20
-3.1803097753
30
0.0000000000
10
-15.0153313147
20
-3.2375218426
30
0.0000000000
10
-15.0675399771
20
-3.2742265043
30
0.0000000000
10
-15.0913182721
20
-3.2914597017
30
0.0000000000
11
-14.3842114909
21
-2.8584469998
31
0.0000000000
11
-14.4967759128
21
-2.9178785759
31
0.0000000000
11
-14.6145410949
21
-2.9847709390
31
0.0000000000
11
-14.7289810811
21
-3.0531265021
31
0.0000000000
11
-14.8361586257
21
-3.1198490614
31
0.0000000000
11
-14.9336300970
21
-3.1829296483
31
0.0000000000
11
-15.0193293504
21
-3.2406747748
31
0.0000000000
11
-15.0913182721
21
-3.2914597017
31
0.0000000000
0
SPLINE
5
3CA
100
AcDbEntity
8
0
100
AcDbSpline
62
7
6
CONTINUOUS
70
0
71
3
72
14
73
10
74
8
42
0.0000001000
43
0.0000001000
44
0.0000000001
12
-0.7422120105
22
-0.3711060053
32
0.0000000000
13
-0.6719109788
23
-0.4869640359
33
0.0000000000
40
0.0000000000
40
0.0000000000
40
0.0000000000
40
0.0000000000
40
0.1533955896
40
0.3166086387
40
0.4772466909
40
0.6293877876
40
0.7693012537
40
0.8938328330
40
1.0000000000
40
1.0000000000
40
1.0000000000
40
1.0000000000
10
-12.4043125036
20
-3.8483964935
30
0.0000000000
10
-12.4422631866
20
-3.8673718350
30
0.0000000000
10
-12.5195525126
20
-3.9086121684
30
0.0000000000
10
-12.6342646854
20
-3.9739533241
30
0.0000000000
10
-12.7472777632
20
-4.0415216751
30
0.0000000000
10
-12.8535897647
20
-4.1076929587
30
0.0000000000
10
-12.9503621617
20
-4.1702592690
30
0.0000000000
10
-13.0354323274
20
-4.2274713362
30
0.0000000000
10
-13.0876409897
20
-4.2641759980
30
0.0000000000
10
-13.1114192848
20
-4.2814091954
30
0.0000000000
11
-12.4043125036
21
-3.8483964935
31
0.0000000000
11
-12.5168769255
21
-3.9078280696
31
0.0000000000
11
-12.6346421076
21
-3.9747204326
31
0.0000000000
11
-12.7490820938
21
-4.0430759958
31
0.0000000000
11
-12.8562596384
21
-4.1097985550
31
0.0000000000
11
-12.9537311097
21
-4.1728791419
31
0.0000000000
11
-13.0394303630
21
-4.2306242685
31
0.0000000000
11
-13.1114192848
21
-4.2814091954
31
0.0000000000
0
SPLINE
5
3CB
100
AcDbEntity
8
0
100
AcDbSpline
62
7
6
CONTINUOUS
70
0
71
3
72
8
73
4
74
2
42
0.0000001000
43
0.0000001000
44
0.0000000001
12
0.0306713666
22
-0.0272585682
32
0.0000000000
13
0.0271368520
23
-0.0309979444
33
0.0000000000
40
0.0000000000
40
0.0000000000
40
0.0000000000
40
0.0000000000
40
1.0000000000
40
1.0000000000
40
1.0000000000
40
1.0000000000
10
7.1825453353
20
7.4426826587
30
0.0000000000
10
7.1927691242
20
7.4335964693
30
0.0000000000
10
7.2024075816
20
7.4238222390
30
0.0000000000
10
7.2114531990
20
7.4134895909
30
0.0000000000
11
7.1825453353
21
7.4426826587
31
0.0000000000
11
7.2114531990
21
7.4134895909
31
0.0000000000
0
SPLINE
5
3CC
100
AcDbEntity
8
0
100
AcDbSpline
62
7
6
CONTINUOUS
70
0
71
3
72
10
73
6
74
4
42
0.0000001000
43
0.0000001000
44
0.0000000001
12
0.2528607417
22
-0.2888383377
32
0.0000000000
13
-0.0000000000
23
-0.3823510867
33
0.0000000000
40
0.0000000000
40
0.0000000000
40
0.0000000000
40
0.0000000000
40
0.2199907664
40
0.5865973628
40
1.0000000000
40
1.0000000000
40
1.0000000000
40
1.0000000000
10
7.2114531990
20
7.4134895909
30
0.0000000000
10
7.2299955418
20
7.3923090018
30
0.0000000000
10
7.2727956076
20
7.3295749983
30
0.0000000000
10
7.3147808897
20
7.2077214633
30
0.0000000000
10
7.3239666915
20
7.1078240832
30
0.0000000000
10
7.3239666915
20
7.0551357674
30
0.0000000000
11
7.2114531990
21
7.4134895909
31
0.0000000000
11
7.2595422642
21
7.3440249682
31
0.0000000000
11
7.3076109906
21
7.2123522382
31
0.0000000000
11
7.3239666915
21
7.0551357674
31
0.0000000000
0
SPLINE
5
3CD
100
AcDbEntity
8
0
100
AcDbSpline
62
7
6
CONTINUOUS
70
0
71
3
72
10
73
6
74
4
42
0.0000001000
43
0.0000001000
44
0.0000000001
12
0.0000000000
22
-0.5521882409
32
0.0000000000
13
-0.2583790573
23
-0.4880083156
33
0.0000000000
40
0.0000000000
40
0.0000000000
40
0.0000000000
40
0.0000000000
40
0.3157275988
40
0.6526743579
40
1.0000000000
40
1.0000000000
40
1.0000000000
40
1.0000000000
10
7.3239666915
20
5.4096875002
30
0.0000000000
10
7.3239666915
20
5.3515738110
30
0.0000000000
10
7.3117451783
20
5.2312781002
30
0.0000000000
10
7.2633500263
20
5.0530308866
30
0.0000000000
10
7.2124592260
20
4.9372185197
30
0.0000000000
10
7.1825453353
20
4.8807192526
30
0.0000000000
11
7.3239666915
21
5.4096875002
31
0.0000000000
11
7.3076109906
21
5.2361153284
31
0.0000000000
11
7.2595422642
21
5.0563738721
31
0.0000000000
11
7.1825453353
21
4.8807192526
31
0.0000000000
0
SPLINE
5
3CE
100
AcDbEntity
8
0
100
AcDbSpline
62
7
6
CONTINUOUS
70
0
71
3
72
14
73
10
74
8
42
0.0000001000
43
0.0000001000
44
0.0000000001
12
-0.7422120105
22
-0.3711060053
32
0.0000000000
13
-0.6719109788
23
-0.4869640359
33
0.0000000000
40
0.0000000000
40
0.0000000000
40
0.0000000000
40
0.0000000000
40
0.1533955896
40
0.3166086387
40
0.4772466909
40
0.6293877876
40
0.7693012537
40
0.8938328330
40
1.0000000000
40
1.0000000000
40
1.0000000000
40
1.0000000000
10
-12.4043125036
20
-5.1474345992
30
0.0000000000
10
-12.4422631866
20
-5.1664099407
30
0.0000000000
10
-12.5195525126
20
-5.2076502740
30
0.0000000000
10
-12.6342646854
20
-5.2729914297
30
0.0000000000
10
-12.7472777632
20
-5.3405597808
30
0.0000000000
10
-12.8535897647
20
-5.4067310644
30
0.0000000000
10
-12.9503621617
20
-5.4692973747
30
0.0000000000
10
-13.0354323274
20
-5.5265094419
30
0.0000000000
10
-13.0876409897
20
-5.5632141037
30
0.0000000000
10
-13.1114192848
20
-5.5804473010
30
0.0000000000
11
-12.4043125036
21
-5.1474345992
31
0.0000000000
11
-12.5168769255
21
-5.2068661753
31
0.0000000000
11
-12.6346421076
21
-5.2737585383
31
0.0000000000
11
-12.7490820938
21
-5.3421141015
31
0.0000000000
11
-12.8562596384
21
-5.4088366607
31
0.0000000000
11
-12.9537311097
21
-5.4719172476
31
0.0000000000
11
-13.0394303630
21
-5.5296623741
31
0.0000000000
11
-13.1114192848
21
-5.5804473010
31
0.0000000000
0
SPLINE
5
3CF
100
AcDbEntity
8
0
100
AcDbSpline
62
7
6
CONTINUOUS
70
0
71
3
72
10
73
6
74
4
42
0.0000001000
43
0.0000001000
44
0.0000000001
12
-0.2672932644
22
0.1342536296
32
0.0000000000
13
-0.2050948680
23
0.2172350951
33
0.0000000000
40
0.0000000000
40
0.0000000000
40
0.0000000000
40
0.0000000000
40
0.1541138878
40
0.5950078008
40
1.0000000000
40
1.0000000000
40
1.0000000000
40
1.0000000000
10
-14.6885591994
20
3.2299031118
30
0.0000000000
10
-14.7022904008
20
3.2367998947
30
0.0000000000
10
-14.7543174145
20
3.2654080253
30
0.0000000000
10
-14.8352302872
20
3.3240429646
30
0.0000000000
10
-14.8963977715
20
3.3821632617
30
0.0000000000
10
-14.9240850454
20
3.4114894347
30
0.0000000000
11
-14.6885591994
21
3.2299031118
31
0.0000000000
11
-14.7289810811
21
3.2520408807
31
0.0000000000
11
-14.8361586257
21
3.3284631958
31
0.0000000000
11
-14.9240850454
21
3.4114894347
31
0.0000000000
0
SPLINE
5
3D0
100
AcDbEntity
8
0
100
AcDbSpline
62
7
6
CONTINUOUS
70
0
71
3
72
14
73
10
74
8
42
0.0000001000
43
0.0000001000
44
0.0000000001
12
-0.7422120105
22
-0.3711060053
32
0.0000000000
13
-0.6719109788
23
-0.4869640359
33
0.0000000000
40
0.0000000000
40
0.0000000000
40
0.0000000000
40
0.0000000000
40
0.1533955896
40
0.3166086387
40
0.4772466909
40
0.6293877876
40
0.7693012537
40
0.8938328330
40
1.0000000000
40
1.0000000000
40
1.0000000000
40
1.0000000000
10
-11.5557843661
20
-5.5716986679
30
0.0000000000
10
-11.5937350491
20
-5.5906740094
30
0.0000000000
10
-11.6710243751
20
-5.6319143427
30
0.0000000000
10
-11.7857365479
20
-5.6972554984
30
0.0000000000
10
-11.8987496258
20
-5.7648238495
30
0.0000000000
10
-12.0050616272
20
-5.8309951331
30
0.0000000000
10
-12.1018340243
20
-5.8935614434
30
0.0000000000
10
-12.1869041899
20
-5.9507735106
30
0.0000000000
10
-12.2391128523
20
-5.9874781724
30
0.0000000000
10
-12.2628911473
20
-6.0047113698
30
0.0000000000
11
-11.5557843661
21
-5.5716986679
31
0.0000000000
11
-11.6683487881
21
-5.6311302440
31
0.0000000000
11
-11.7861139702
21
-5.6980226070
31
0.0000000000
11
-11.9005539564
21
-5.7663781702
31
0.0000000000
11
-12.0077315010
21
-5.8331007294
31
0.0000000000
11
-12.1052029723
21
-5.8961813163
31
0.0000000000
11
-12.1909022256
21
-5.9539264429
31
0.0000000000
11
-12.2628911473
21
-6.0047113698
31
0.0000000000
0
SPLINE
5
3D1
100
AcDbEntity
8
0
100
AcDbSpline
62
7
6
CONTINUOUS
70
0
71
3
72
11
73
7
74
5
42
0.0000001000
43
0.0000001000
44
0.0000000001
12
0.0001054910
22
-0.5103182891
32
0.0000000000
13
0.2555695701
23
-0.4407923054
33
0.0000000000
40
0.0000000000
40
0.0000000000
40
0.0000000000
40
0.0000000000
40
0.2267569451
40
0.4827763567
40
0.7429772760
40
1.0000000000
40
1.0000000000
40
1.0000000000
40
1.0000000000
10
-8.8738055537
20
-7.2898070358
30
0.0000000000
10
-8.8737975801
20
-7.3283797745
30
0.0000000000
10
-8.8661706419
20
-7.4103838174
30
0.0000000000
10
-8.8362538390
20
-7.5333743721
30
0.0000000000
10
-8.7894166673
20
-7.6563734214
30
0.0000000000
10
-8.7492529704
20
-7.7347137764
30
0.0000000000
10
-8.7273572414
20
-7.7724783227
30
0.0000000000
11
-8.8738055537
21
-7.2898070358
31
0.0000000000
11
-8.8640269338
21
-7.4049530130
31
0.0000000000
11
-8.8338438679
21
-7.5318608685
31
0.0000000000
11
-8.7869883736
21
-7.6558833689
31
0.0000000000
11
-8.7273572414
21
-7.7724783227
31
0.0000000000
0
SPLINE
5
3D2
100
AcDbEntity
8
0
100
AcDbSpline
62
7
6
CONTINUOUS
70
0
71
3
72
9
73
5
74
3
42
0.0000001000
43
0.0000001000
44
0.0000000001
12
0.0000952773
22
0.0006542107
32
0.0000000000
13
-0.0002504813
23
0.0003674385
33
0.0000000000
40
0.0000000000
40
0.0000000000
40
0.0000000000
40
0.0000000000
40
0.8195180933
40
1.0000000000
40
1.0000000000
40
1.0000000000
40
1.0000000000
10
0.8715363001
20
25.7615615709
30
0.0000000000
10
0.8715623272
20
25.7617402834
30
0.0000000000
10
0.8715532884
20
25.7619263113
30
0.0000000000
10
0.8714808014
20
25.7620582180
30
0.0000000000
10
0.8714657322
20
25.7620803233
30
0.0000000000
11
0.8715363001
21
25.7615615709
31
0.0000000000
11
0.8715048998
21
25.7620088415
31
0.0000000000
11
0.8714657322
21
25.7620803233
31
0.0000000000
0
SPLINE
5
3D3
100
AcDbEntity
8
0
100
AcDbSpline
62
7
6
CONTINUOUS
70
0
71
3
72
14
73
10
74
8
42
0.0000001000
43
0.0000001000
44
0.0000000001
12
-0.3958959797
22
0.1978426925
32
0.0000000000
13
-0.4385457426
23
-0.0587539888
33
0.0000000000
40
0.0000000000
40
0.0000000000
40
0.0000000000
40
0.0000000000
40
0.1394366235
40
0.3095001614
40
0.4668738529
40
0.6134899189
40
0.7504397279
40
0.8789464711
40
1.0000000000
40
1.0000000000
40
1.0000000000
40
1.0000000000
10
7.0957392773
20
-13.4774774037
30
0.0000000000
10
7.0773384777
20
-13.4682818980
30
0.0000000000
10
7.0359180098
20
-13.4490261930
30
0.0000000000
10
6.9715626583
20
-13.4243270241
30
0.0000000000
10
6.9043736587
20
-13.4046917957
30
0.0000000000
10
6.8405330769
20
-13.3918624454
30
0.0000000000
10
6.7800268367
20
-13.3852854528
30
0.0000000000
10
6.7229452679
20
-13.3844561343
30
0.0000000000
10
6.6861934401
20
-13.3874902349
30
0.0000000000
10
6.6684976036
20
-13.3898610275
30
0.0000000000
11
7.0957392773
21
-13.4774774037
31
0.0000000000
11
7.0397647266
21
-13.4515166465
31
0.0000000000
11
6.9694698679
21
-13.4246699881
31
0.0000000000
11
6.9026004556
21
-13.4052503019
31
0.0000000000
11
6.8389780971
21
-13.3925769046
31
0.0000000000
11
6.7787270090
21
-13.3861267708
31
0.0000000000
11
6.7218722175
21
-13.3853866344
31
0.0000000000
11
6.6684976036
21
-13.3898610275
31
0.0000000000
0
SPLINE
5
3D4
100
AcDbEntity
8
0
100
AcDbSpline
62
7
6
CONTINUOUS
70
0
71
3
72
12
73
8
74
6
42
0.0000001000
43
0.0000001000
44
0.0000000001
12
-0.2612044436
22
0.1305851353
32
0.0000000000
13
-0.2887023519
23
0.0435558084
33
0.0000000000
40
0.0000000000
40
0.0000000000
40
0.0000000000
40
0.0000000000
40
0.0126779456
40
0.2859689738
40
0.5408164481
40
0.7782471675
40
1.0000000000
40
1.0000000000
40
1.0000000000
40
1.0000000000
10
6.9519449674
20
22.7217956199
30
0.0000000000
10
6.9508411221
20
22.7223474703
30
0.0000000000
10
6.9259228049
20
22.7347563472
30
0.0000000000
10
6.8779653371
20
22.7565545047
30
0.0000000000
10
6.8079810574
20
22.7823296221
30
0.0000000000
10
6.7410405074
20
22.8012412873
30
0.0000000000
10
6.6971276561
20
22.8098611600
30
0.0000000000
10
6.6757874680
20
22.8130807013
30
0.0000000000
11
6.9519449674
21
22.7217956199
31
0.0000000000
11
6.9486308348
21
22.7234459883
31
0.0000000000
11
6.8759425433
21
22.7563591471
31
0.0000000000
11
6.8060807830
21
22.7819684543
31
0.0000000000
11
6.7393396200
21
22.8007095396
31
0.0000000000
11
6.6757874680
21
22.8130807013
31
0.0000000000
0
SPLINE
5
3D5
100
AcDbEntity
8
0
100
AcDbSpline
62
7
6
CONTINUOUS
70
0
71
3
72
9
73
5
74
3
42
0.0000001000
43
0.0000001000
44
0.0000000001
12
-0.0051252844
22
-0.0027662597
32
0.0000000000
13
-0.0052874733
23
-0.0024414510
33
0.0000000000
40
0.0000000000
40
0.0000000000
40
0.0000000000
40
0.0000000000
40
0.8033148475
40
1.0000000000
40
1.0000000000
40
1.0000000000
40
1.0000000000
10
6.4484251055
20
-23.3524203113
30
0.0000000000
10
6.4470526999
20
-23.3531610371
30
0.0000000000
10
6.4453213514
20
-23.3540405615
30
0.0000000000
10
6.4435638574
20
-23.3548651960
30
0.0000000000
10
6.4432172016
20
-23.3550252618
30
0.0000000000
11
6.4484251055
21
-23.3524203113
31
0.0000000000
11
6.4442541919
21
-23.3545386859
31
0.0000000000
11
6.4432172016
21
-23.3550252618
31
0.0000000000
0
SPLINE
5
3D6
100
AcDbEntity
8
0
100
AcDbSpline
62
7
6
CONTINUOUS
70
0
71
3
72
9
73
5
74
3
42
0.0000001000
43
0.0000001000
44
0.0000000001
12
0.0051252541
22
0.0027662414
32
0.0000000000
13
0.0052874410
23
0.0024414366
33
0.0000000000
40
0.0000000000
40
0.0000000000
40
0.0000000000
40
0.0000000000
40
0.8033149615
40
1.0000000000
40
1.0000000000
40
1.0000000000
40
1.0000000000
10
-10.9630854682
20
26.8196888321
30
0.0000000000
10
-10.9617130705
20
26.8204295532
30
0.0000000000
10
-10.9599817324
20
26.8213090720
30
0.0000000000
10
-10.9582242491
20
26.8221337016
30
0.0000000000
10
-10.9578775955
20
26.8222937663
30
0.0000000000
11
-10.9630854682
21
26.8196888321
31
0.0000000000
11
-10.9589145790
21
26.8218071936
31
0.0000000000
11
-10.9578775955
21
26.8222937663
31
0.0000000000
0
SPLINE
5
3D7
100
AcDbEntity
8
0
100
AcDbSpline
62
7
6
CONTINUOUS
70
0
71
3
72
13
73
9
74
7
42
0.0000001000
43
0.0000001000
44
0.0000000001
12
0.1028976749
22
0.0475148396
32
0.0000000000
13
0.1012368686
23
-0.0506184343
33
0.0000000000
40
0.0000000000
40
0.0000000000
40
0.0000000000
40
0.0000000000
40
0.1422585511
40
0.2977134748
40
0.4596915959
40
0.6295871494
40
0.8096014810
40
1.0000000000
40
1.0000000000
40
1.0000000000
40
1.0000000000
10
-4.4828349787
20
29.8126830224
30
0.0000000000
10
-4.4779556206
20
29.8149361531
30
0.0000000000
10
-4.4673367455
20
29.8187692491
30
0.0000000000
10
-4.4501629089
20
29.8217575884
30
0.0000000000
10
-4.4316967622
20
29.8218234447
30
0.0000000000
10
-4.4125333507
20
29.8189254400
30
0.0000000000
10
-4.3929331152
20
29.8131247157
30
0.0000000000
10
-4.3800852418
20
29.8075337326
30
0.0000000000
10
-4.3736601252
20
29.8043211743
30
0.0000000000
11
-4.4828349787
21
29.8126830224
31
0.0000000000
11
-4.4676924617
21
29.8181660375
31
0.0000000000
11
-4.4503660253
21
29.8212305677
31
0.0000000000
11
-4.4320328140
21
29.8213641180
31
0.0000000000
11
-4.4130079132
21
29.8185641208
31
0.0000000000
11
-4.3934489758
21
29.8128549474
31
0.0000000000
11
-4.3736601252
21
29.8043211743
31
0.0000000000
0
SPLINE
5
3D8
100
AcDbEntity
8
0
100
AcDbSpline
62
7
6
CONTINUOUS
70
0
71
3
72
13
73
9
74
7
42
0.0000001000
43
0.0000001000
44
0.0000000001
12
0.1033929496
22
0.0494878067
32
0.0000000000
13
0.1023869425
23
-0.0511934713
33
0.0000000000
40
0.0000000000
40
0.0000000000
40
0.0000000000
40
0.0000000000
40
0.1518773582
40
0.3056146567
40
0.4657903237
40
0.6337816991
40
0.8117652147
40
1.0000000000
40
1.0000000000
40
1.0000000000
40
1.0000000000
10
11.5269777136
20
21.8066410258
30
0.0000000000
10
11.5322120629
20
21.8091463850
30
0.0000000000
10
11.5432164809
20
21.8132014258
30
0.0000000000
10
11.5608156661
20
21.8162649011
30
0.0000000000
10
11.5792837253
20
21.8163317607
30
0.0000000000
10
11.5984477388
20
21.8134344708
30
0.0000000000
10
11.6180470480
20
21.8076345638
30
0.0000000000
10
11.6308937954
20
21.8020442140
30
0.0000000000
10
11.6373180568
20
21.7988320833
30
0.0000000000
11
11.5269777136
21
21.8066410258
31
0.0000000000
11
11.5432835553
21
21.8126716934
31
0.0000000000
11
11.5606130288
21
21.8157378109
31
0.0000000000
11
11.5789481775
21
21.8158723117
31
0.0000000000
11
11.5979736622
21
21.8130729844
31
0.0000000000
11
11.6175317706
21
21.8073645590
31
0.0000000000
11
11.6373180568
21
21.7988320833
31
0.0000000000
0
SPLINE
5
3D9
100
AcDbEntity
8
0
100
AcDbSpline
62
7
6
CONTINUOUS
70
0
71
3
72
9
73
5
74
3
42
0.0000001000
43
0.0000001000
44
0.0000000001
12
0.0028436566
22
0.0014828453
32
0.0000000000
13
0.0028929256
23
0.0013843052
33
0.0000000000
40
0.0000000000
40
0.0000000000
40
0.0000000000
40
0.0000000000
40
0.3706474530
40
1.0000000000
40
1.0000000000
40
1.0000000000
40
1.0000000000
10
5.1601479755
20
18.7592754083
30
0.0000000000
10
5.1604993069
20
18.7594586126
30
0.0000000000
10
5.1614503348
20
18.7599468643
30
0.0000000000
10
5.1624096627
20
18.7604186949
30
0.0000000000
10
5.1630165527
20
18.7607091002
30
0.0000000000
11
5.1601479755
21
18.7592754083
31
0.0000000000
11
5.1612054393
21
18.7598182952
31
0.0000000000
11
5.1630165527
21
18.7607091002
31
0.0000000000
0
SPLINE
5
3DA
100
AcDbEntity
8
0
100
AcDbSpline
62
7
6
CONTINUOUS
70
0
71
3
72
14
73
10
74
8
42
0.0000001000
43
0.0000001000
44
0.0000000001
12
0.2993330694
22
-0.1496752583
32
0.0000000000
13
0.3220880380
23
0.0900266284
33
0.0000000000
40
0.0000000000
40
0.0000000000
40
0.0000000000
40
0.0000000000
40
0.0576045817
40
0.2052752106
40
0.3549712920
40
0.5082836198
40
0.6662214569
40
0.8299111679
40
1.0000000000
40
1.0000000000
40
1.0000000000
40
1.0000000000
10
-16.2659469404
20
-14.0561655742
30
0.0000000000
10
-16.2601992884
20
-14.0590395678
30
0.0000000000
10
-16.2394577405
20
-14.0687615844
30
0.0000000000
10
-16.2021519241
20
-14.0822847498
30
0.0000000000
10
-16.1529983350
20
-14.0932960957
30
0.0000000000
10
-16.1017376056
20
-14.0983287769
30
0.0000000000
10
-16.0486890682
20
-14.0973683992
30
0.0000000000
10
-15.9942165447
20
-14.0904405690
30
0.0000000000
10
-15.9578967603
20
-14.0820486405
30
0.0000000000
10
-15.9396355675
20
-14.0769444658
30
0.0000000000
11
-16.2659469404
21
-14.0561655742
31
0.0000000000
11
-16.2484927394
21
-14.0643462168
31
0.0000000000
11
-16.2020736369
21
-14.0812055941
31
0.0000000000
11
-16.1532343330
21
-14.0922082688
31
0.0000000000
11
-16.1022151707
21
-14.0973010660
31
0.0000000000
11
-16.0494024817
21
-14.0964441559
31
0.0000000000
11
-15.9950832923
21
-14.0896434287
31
0.0000000000
11
-15.9396355675
21
-14.0769444658
31
0.0000000000
0
SPLINE
5
3DB
100
AcDbEntity
8
0
100
AcDbSpline
62
7
6
CONTINUOUS
70
0
71
3
72
18
73
14
74
12
42
0.0000001000
43
0.0000001000
44
0.0000000001
12
-0.5335720935
22
0.2668025567
32
0.0000000000
13
-0.0194081160
23
0.5958139385
33
0.0000000000
40
0.0000000000
40
0.0000000000
40
0.0000000000
40
0.0000000000
40
0.0495218709
40
0.1316198732
40
0.2150470635
40
0.3007311160
40
0.3891706090
40
0.4810533303
40
0.5766216964
40
0.6762734441
40
0.7800208290
40
0.8879788781
40
1.0000000000
40
1.0000000000
40
1.0000000000
40
1.0000000000
10
-3.5256633493
20
-20.4263073422
30
0.0000000000
10
-3.5344711787
20
-20.4219031549
30
0.0000000000
10
-3.5574152940
20
-20.4092663340
30
0.0000000000
10
-3.5925644651
20
-20.3847541307
30
0.0000000000
10
-3.6296300902
20
-20.3511241260
30
0.0000000000
10
-3.6631308815
20
-20.3122750434
30
0.0000000000
10
-3.6928805268
20
-20.2684519642
30
0.0000000000
10
-3.7186851898
20
-20.2199723677
30
0.0000000000
10
-3.7404083573
20
-20.1671269349
30
0.0000000000
10
-3.7579147657
20
-20.1102777971
30
0.0000000000
10
-3.7711104263
20
-20.0497624186
30
0.0000000000
10
-3.7799154714
20
-19.9859824174
30
0.0000000000
10
-3.7827745104
20
-19.9423229212
30
0.0000000000
10
-3.7834992167
20
-19.9200750059
30
0.0000000000
11
-3.5256633493
21
-20.4263073422
31
0.0000000000
11
-3.5515340092
21
-20.4120590413
31
0.0000000000
11
-3.5916997759
21
-20.3840958450
31
0.0000000000
11
-3.6285779056
21
-20.3507279064
31
0.0000000000
11
-3.6620035483
21
-20.3121044248
31
0.0000000000
11
-3.6917014172
21
-20.2685431361
31
0.0000000000
11
-3.7175356839
21
-20.2202442085
31
0.0000000000
11
-3.7392990425
21
-20.1675937578
31
0.0000000000
11
-3.7568852293
21
-20.1108511228
31
0.0000000000
11
-3.7701600868
21
-20.0504456581
31
0.0000000000
11
-3.7790525008
21
-19.9867059381
31
0.0000000000
11
-3.7834992167
21
-19.9200750059
31
0.0000000000
0
SPLINE
5
3DC
100
AcDbEntity
8
0
100
AcDbSpline
62
7
6
CONTINUOUS
70
0
71
3
72
10
73
6
74
4
42
0.0000001000
43
0.0000001000
44
0.0000000001
12
0.1562558142
22
0.0357945149
32
0.0000000000
13
0.1588714759
23
0.0212847418
33
0.0000000000
40
0.0000000000
40
0.0000000000
40
0.0000000000
40
0.0000000000
40
0.1209831236
40
0.5564051384
40
1.0000000000
40
1.0000000000
40
1.0000000000
40
1.0000000000
10
6.5107891353
20
-13.4182622949
30
0.0000000000
10
6.5170905741
20
-13.4168187842
30
0.0000000000
10
6.5461107435
20
-13.4103532899
30
0.0000000000
10
6.5985699531
20
-13.4001386709
30
0.0000000000
10
6.6450060801
20
-13.3930082948
30
0.0000000000
10
6.6684976036
20
-13.3898610275
30
0.0000000000
11
6.5107891353
21
-13.4182622949
31
0.0000000000
11
6.5297186594
21
-13.4140440808
31
0.0000000000
11
6.5982206138
21
-13.4006757118
31
0.0000000000
11
6.6684976036
21
-13.3898610275
31
0.0000000000
0
SPLINE
5
3DD
100
AcDbEntity
8
0
100
AcDbSpline
62
7
6
CONTINUOUS
70
0
71
3
72
14
73
10
74
8
42
0.0000001000
43
0.0000001000
44
0.0000000001
12
0.4504912868
22
0.0222698026
32
0.0000000000
13
0.4459943162
23
-0.0672860573
33
0.0000000000
40
0.0000000000
40
0.0000000000
40
0.0000000000
40
0.0000000000
40
0.1231328770
40
0.2541382212
40
0.3923132255
40
0.5368558726
40
0.6869161498
40
0.8416077665
40
1.0000000000
40
1.0000000000
40
1.0000000000
40
1.0000000000
10
6.2264073844
20
22.8426877442
30
0.0000000000
10
6.2448974804
20
22.8436017925
30
0.0000000000
10
6.2831020903
20
22.8446873345
30
0.0000000000
10
6.3420938308
20
22.8442740112
30
0.0000000000
10
6.4042593171
20
22.8418810837
30
0.0000000000
10
6.4691887694
20
22.8375346043
30
0.0000000000
10
6.5364555197
20
22.8312767882
30
0.0000000000
10
6.6056198331
20
22.8231651623
30
0.0000000000
10
6.6522401227
20
22.8166332310
30
0.0000000000
10
6.6757874680
20
22.8130807013
30
0.0000000000
11
6.2264073844
21
22.8426877442
31
0.0000000000
11
6.2819209450
21
22.8443360208
31
0.0000000000
11
6.3410087060
21
22.8439799682
31
0.0000000000
11
6.4032870434
21
22.8416302753
31
0.0000000000
11
6.4683387567
21
22.8373145118
31
0.0000000000
11
6.5357340618
21
22.8310763125
31
0.0000000000
11
6.6050343489
21
22.8229740108
31
0.0000000000
11
6.6757874680
21
22.8130807013
31
0.0000000000
0
SPLINE
5
3DE
100
AcDbEntity
8
0
100
AcDbSpline
62
7
6
CONTINUOUS
70
0
71
3
72
10
73
6
74
4
42
0.0000001000
43
0.0000001000
44
0.0000000001
12
-0.1468079703
22
4.5068895457
32
0.0000000000
13
-0.1000663185
23
4.5081695497
33
0.0000000000
40
0.0000000000
40
0.0000000000
40
0.0000000000
40
0.0000000000
40
0.3327428746
40
0.6660769154
40
1.0000000000
40
1.0000000000
40
1.0000000000
40
1.0000000000
10
-3.7834992167
20
-19.9200750059
30
0.0000000000
10
-3.7997823188
20
-19.4201965450
30
0.0000000000
10
-3.8306373475
20
-18.4194939373
30
0.0000000000
10
-3.8717584307
20
-16.9169605084
30
0.0000000000
10
-3.8957373631
20
-15.9142950858
30
0.0000000000
10
-3.9068755143
20
-15.4125011251
30
0.0000000000
11
-3.7834992167
21
-19.9200750059
31
0.0000000000
11
-3.8297451935
21
-18.4203570838
31
0.0000000000
11
-3.8708708840
21
-16.9178232843
31
0.0000000000
11
-3.9068755143
21
-15.4125011251
31
0.0000000000
0
SPLINE
5
3DF
100
AcDbEntity
8
0
100
AcDbSpline
62
7
6
CONTINUOUS
70
0
71
3
72
16
73
12
74
10
42
0.0000001000
43
0.0000001000
44
0.0000000001
12
-0.3089224027
22
-0.1666707234
32
0.0000000000
13
0.0000219625
23
-0.3514928338
33
0.0000000000
40
0.0000000000
40
0.0000000000
40
0.0000000000
40
0.0000000000
40
0.1471433930
40
0.2857792890
40
0.4158741402
40
0.5376364671
40
0.6517714639
40
0.7591868615
40
0.8614936554
40
0.9604234526
40
1.0000000000
40
1.0000000000
40
1.0000000000
40
1.0000000000
10
-10.1152244274
20
23.3391641149
30
0.0000000000
10
-10.1303763909
20
23.3309892830
30
0.0000000000
10
-10.1592444058
20
23.3140356765
30
0.0000000000
10
-10.1990507808
20
23.2859433003
30
0.0000000000
10
-10.2337868817
20
23.2561428775
30
0.0000000000
10
-10.2631665951
20
23.2248584907
30
0.0000000000
10
-10.2869302413
20
23.1923291881
30
0.0000000000
10
-10.3048590124
20
23.1587881495
30
0.0000000000
10
-10.3167472332
20
23.1245141240
30
0.0000000000
10
-10.3213299318
20
23.0965648420
30
0.0000000000
10
-10.3219141337
20
23.0803370856
30
0.0000000000
10
-10.3219138440
20
23.0757001280
30
0.0000000000
11
-10.1152244274
21
23.3391641149
31
0.0000000000
11
-10.1597024267
21
23.3129077547
31
0.0000000000
11
-10.1993846172
21
23.2847394926
31
0.0000000000
11
-10.2339447851
21
23.2548912039
31
0.0000000000
11
-10.2630840384
21
23.2236237188
31
0.0000000000
11
-10.2865805034
21
23.1911741231
31
0.0000000000
11
-10.3042151624
21
23.1578477179
31
0.0000000000
11
-10.3158637763
21
23.1238781392
31
0.0000000000
11
-10.3214127716
21
23.0895984197
31
0.0000000000
11
-10.3219138440
21
23.0757001280
31
0.0000000000
0
SPLINE
5
3E0
100
AcDbEntity
8
0
100
AcDbSpline
62
7
6
CONTINUOUS
70
0
71
3
72
16
73
12
74
10
42
0.0000001000
43
0.0000001000
44
0.0000000001
12
-0.3089224027
22
-0.1666707234
32
0.0000000000
13
0.0000219625
23
-0.3514928338
33
0.0000000000
40
0.0000000000
40
0.0000000000
40
0.0000000000
40
0.0000000000
40
0.1471433930
40
0.2857792890
40
0.4158741402
40
0.5376364671
40
0.6517714639
40
0.7591868615
40
0.8614936554
40
0.9604234526
40
1.0000000000
40
1.0000000000
40
1.0000000000
40
1.0000000000
10
-0.0743081346
20
18.3187059685
30
0.0000000000
10
-0.0894600981
20
18.3105311366
30
0.0000000000
10
-0.1183281129
20
18.2935775301
30
0.0000000000
10
-0.1581344880
20
18.2654851539
30
0.0000000000
10
-0.1928705889
20
18.2356847311
30
0.0000000000
10
-0.2222503022
20
18.2044003443
30
0.0000000000
10
-0.2460139485
20
18.1718710417
30
0.0000000000
10
-0.2639427196
20
18.1383300031
30
0.0000000000
10
-0.2758309404
20
18.1040559776
30
0.0000000000
10
-0.2804136389
20
18.0761066955
30
0.0000000000
10
-0.2809978409
20
18.0598789392
30
0.0000000000
10
-0.2809975512
20
18.0552419816
30
0.0000000000
11
-0.0743081346
21
18.3187059685
31
0.0000000000
11
-0.1187861339
21
18.2924496083
31
0.0000000000
11
-0.1584683244
21
18.2642813462
31
0.0000000000
11
-0.1930284922
21
18.2344330575
31
0.0000000000
11
-0.2221677455
21
18.2031655723
31
0.0000000000
11
-0.2456642106
21
18.1707159766
31
0.0000000000
11
-0.2632988695
21
18.1373895715
31
0.0000000000
11
-0.2749474834
21
18.1034199928
31
0.0000000000
11
-0.2804964788
21
18.0691402732
31
0.0000000000
11
-0.2809975512
21
18.0552419816
31
0.0000000000
0
SPLINE
5
3E1
100
AcDbEntity
8
0
100
AcDbSpline
62
7
6
CONTINUOUS
70
0
71
3
72
18
73
14
74
12
42
0.0000001000
43
0.0000001000
44
0.0000000001
12
0.0000000000
22
0.4702803448
32
0.0000000000
13
-0.4210034427
23
0.2104746044
33
0.0000000000
40
0.0000000000
40
0.0000000000
40
0.0000000000
40
0.0000000000
40
0.1169557852
40
0.2294319875
40
0.3371200122
40
0.4402097751
40
0.5385721906
40
0.6327398663
40
0.7229415084
40
0.8100059166
40
0.8946242844
40
0.9777970705
40
1.0000000000
40
1.0000000000
40
1.0000000000
40
1.0000000000
10
9.7276915618
20
21.5580565133
30
0.0000000000
10
9.7276915618
20
21.5763905156
30
0.0000000000
10
9.7264717496
20
21.6123717040
30
0.0000000000
10
9.7207512343
20
21.6649593234
30
0.0000000000
10
9.7112102201
20
21.7147879698
30
0.0000000000
10
9.6979173378
20
21.7614616076
30
0.0000000000
10
9.6809504379
20
21.8046701327
30
0.0000000000
10
9.6604342523
20
21.8440593249
30
0.0000000000
10
9.6364894634
20
21.8793572014
30
0.0000000000
10
9.6092938224
20
21.9102647086
30
0.0000000000
10
9.5790304065
20
21.9365390316
30
0.0000000000
10
9.5539395094
20
21.9527730530
30
0.0000000000
10
9.5392939394
20
21.9604502733
30
0.0000000000
10
9.5361781028
20
21.9620079909
30
0.0000000000
11
9.7276915618
21
21.5580565133
31
0.0000000000
11
9.7257532379
21
21.6130243555
31
0.0000000000
11
9.7199490334
21
21.6656002907
31
0.0000000000
11
9.7103326288
21
21.7153224696
31
0.0000000000
11
9.6969546748
21
21.7619212503
31
0.0000000000
11
9.6799473585
21
21.8049392173
31
0.0000000000
11
9.6593936597
21
21.8441658030
31
0.0000000000
11
9.6354953077
21
21.8792133451
31
0.0000000000
11
9.6083818800
21
21.9098944280
31
0.0000000000
11
9.5782905839
21
21.9359348698
31
0.0000000000
11
9.5454332701
21
21.9571561589
31
0.0000000000
11
9.5361781028
21
21.9620079909
31
0.0000000000
0
SPLINE
5
3E2
100
AcDbEntity
8
0
100
AcDbSpline
62
7
6
CONTINUOUS
70
0
71
3
72
15
73
11
74
9
42
0.0000001000
43
0.0000001000
44
0.0000000001
12
0.3118571736
22
0.1440259774
32
0.0000000000
13
0.3074952755
23
-0.1537310599
33
0.0000000000
40
0.0000000000
40
0.0000000000
40
0.0000000000
40
0.0000000000
40
0.1461823221
40
0.2863861139
40
0.4207020330
40
0.5499019967
40
0.6744059085
40
0.7954846060
40
0.9139916500
40
1.0000000000
40
1.0000000000
40
1.0000000000
40
1.0000000000
10
7.9963164656
20
22.5520896397
30
0.0000000000
10
8.0115124675
20
22.5591076569
30
0.0000000000
10
8.0418790091
20
22.5716187366
30
0.0000000000
10
8.0879993792
20
22.5857759156
30
0.0000000000
10
8.1334205092
20
22.5948235095
30
0.0000000000
10
8.1777801244
20
22.5986739827
30
0.0000000000
10
8.2207796291
20
22.5972840755
30
0.0000000000
10
8.2620577037
20
22.5906469411
30
0.0000000000
10
8.2978580554
20
22.5798370669
30
0.0000000000
10
8.3193527160
20
22.5704202871
30
0.0000000000
10
8.3281684364
20
22.5660129021
30
0.0000000000
11
7.9963164656
21
22.5520896397
31
0.0000000000
11
8.0427810772
21
22.5711311533
31
0.0000000000
11
8.0888510337
21
22.5851691525
31
0.0000000000
11
8.1341204465
21
22.5940832657
31
0.0000000000
11
8.1783438885
21
22.5978236585
31
0.0000000000
11
8.2210868623
21
22.5963548154
31
0.0000000000
11
8.2621400278
21
22.5896839944
31
0.0000000000
11
8.3010981297
21
22.5778761145
31
0.0000000000
11
8.3281684364
21
22.5660129021
31
0.0000000000
0
SPLINE
5
3E3
100
AcDbEntity
8
0
100
AcDbSpline
62
7
6
CONTINUOUS
70
0
71
3
72
18
73
14
74
12
42
0.0000001000
43
0.0000001000
44
0.0000000001
12
0.0000000000
22
0.4702803448
32
0.0000000000
13
-0.4210034427
23
0.2104746044
33
0.0000000000
40
0.0000000000
40
0.0000000000
40
0.0000000000
40
0.0000000000
40
0.1169557852
40
0.2294319875
40
0.3371200122
40
0.4402097751
40
0.5385721906
40
0.6327398663
40
0.7229415084
40
0.8100059166
40
0.8946242844
40
0.9777970705
40
1.0000000000
40
1.0000000000
40
1.0000000000
40
1.0000000000
10
-0.3132247311
20
26.5785146597
30
0.0000000000
10
-0.3132247311
20
26.5968486621
30
0.0000000000
10
-0.3144445433
20
26.6328298504
30
0.0000000000
10
-0.3201650586
20
26.6854174698
30
0.0000000000
10
-0.3297060728
20
26.7352461162
30
0.0000000000
10
-0.3429989550
20
26.7819197541
30
0.0000000000
10
-0.3599658549
20
26.8251282791
30
0.0000000000
10
-0.3804820406
20
26.8645174713
30
0.0000000000
10
-0.4044268294
20
26.8998153479
30
0.0000000000
10
-0.4316224704
20
26.9307228551
30
0.0000000000
10
-0.4618858864
20
26.9569971780
30
0.0000000000
10
-0.4869767835
20
26.9732311994
30
0.0000000000
10
-0.5016223535
20
26.9809084197
30
0.0000000000
10
-0.5047381900
20
26.9824661373
30
0.0000000000
11
-0.3132247311
21
26.5785146597
31
0.0000000000
11
-0.3151630550
21
26.6334825019
31
0.0000000000
11
-0.3209672594
21
26.6860584371
31
0.0000000000
11
-0.3305836640
21
26.7357806160
31
0.0000000000
11
-0.3439616181
21
26.7823793967
31
0.0000000000
11
-0.3609689344
21
26.8253973637
31
0.0000000000
11
-0.3815226332
21
26.8646239494
31
0.0000000000
11
-0.4054209851
21
26.8996714916
31
0.0000000000
11
-0.4325344129
21
26.9303525744
31
0.0000000000
11
-0.4626257089
21
26.9563930162
31
0.0000000000
11
-0.4954830227
21
26.9776143054
31
0.0000000000
11
-0.5047381900
21
26.9824661373
31
0.0000000000
0
SPLINE
5
3E4
100
AcDbEntity
8
0
100
AcDbSpline
62
7
6
CONTINUOUS
70
0
71
3
72
15
73
11
74
9
42
0.0000001000
43
0.0000001000
44
0.0000000001
12
0.3118571736
22
0.1440259774
32
0.0000000000
13
0.3074952755
23
-0.1537310599
33
0.0000000000
40
0.0000000000
40
0.0000000000
40
0.0000000000
40
0.0000000000
40
0.1461823221
40
0.2863861139
40
0.4207020330
40
0.5499019967
40
0.6744059085
40
0.7954846060
40
0.9139916500
40
1.0000000000
40
1.0000000000
40
1.0000000000
40
1.0000000000
10
-2.0445998273
20
27.5725477861
30
0.0000000000
10
-2.0294038253
20
27.5795658034
30
0.0000000000
10
-1.9990372838
20
27.5920768831
30
0.0000000000
10
-1.9529169137
20
27.6062340620
30
0.0000000000
10
-1.9074957837
20
27.6152816559
30
0.0000000000
10
-1.8631361684
20
27.6191321291
30
0.0000000000
10
-1.8201366638
20
27.6177422219
30
0.0000000000
10
-1.7788585892
20
27.6111050876
30
0.0000000000
10
-1.7430582375
20
27.6002952133
30
0.0000000000
10
-1.7215635769
20
27.5908784335
30
0.0000000000
10
-1.7127478564
20
27.5864710486
30
0.0000000000
11
-2.0445998273
21
27.5725477861
31
0.0000000000
11
-1.9981352157
21
27.5915892997
31
0.0000000000
11
-1.9520652592
21
27.6056272989
31
0.0000000000
11
-1.9067958463
21
27.6145414122
31
0.0000000000
11
-1.8625724044
21
27.6182818050
31
0.0000000000
11
-1.8198294306
21
27.6168129618
31
0.0000000000
11
-1.7787762651
21
27.6101421409
31
0.0000000000
11
-1.7398181632
21
27.5983342610
31
0.0000000000
11
-1.7127478564
21
27.5864710486
31
0.0000000000
0
SPLINE
5
3E5
100
AcDbEntity
8
0
100
AcDbSpline
62
7
6
CONTINUOUS
70
0
71
3
72
15
73
11
74
9
42
0.0000001000
43
0.0000001000
44
0.0000000001
12
0.0000000000
22
-0.1548716404
32
0.0000000000
13
-0.1364789914
23
-0.0736554468
33
0.0000000000
40
0.0000000000
40
0.0000000000
40
0.0000000000
40
0.0000000000
40
0.1530742171
40
0.2986100703
40
0.4360028993
40
0.5660646767
40
0.6888700053
40
0.8061372262
40
0.9191649245
40
1.0000000000
40
1.0000000000
40
1.0000000000
40
1.0000000000
10
12.7636715709
20
-19.8449931456
30
0.0000000000
10
12.7636715709
20
-19.8528954307
30
0.0000000000
10
12.7629842093
20
-19.8683230336
30
0.0000000000
10
12.7597232974
20
-19.8906348220
30
0.0000000000
10
12.7542889532
20
-19.9113025117
30
0.0000000000
10
12.7467431144
20
-19.9300468823
30
0.0000000000
10
12.7371528923
20
-19.9466549291
30
0.0000000000
10
12.7256315226
20
-19.9608866501
30
0.0000000000
10
12.7134797366
20
-19.9715178260
30
0.0000000000
10
12.7049773556
20
-19.9768662469
30
0.0000000000
10
12.7012999257
20
-19.9788508948
30
0.0000000000
11
12.7636715709
21
-19.8449931456
31
0.0000000000
11
12.7625606030
21
-19.8686739550
31
0.0000000000
11
12.7592372208
21
-19.8909669722
31
0.0000000000
11
12.7537565257
21
-19.9115272743
31
0.0000000000
11
12.7461629801
21
-19.9301840080
31
0.0000000000
11
12.7365873137
21
-19.9466166389
31
0.0000000000
11
12.7251093692
21
-19.9606911562
31
0.0000000000
11
12.7119060266
21
-19.9721841647
31
0.0000000000
11
12.7012999257
21
-19.9788508948
31
0.0000000000
0
SPLINE
5
3E6
100
AcDbEntity
8
0
100
AcDbSpline
62
7
6
CONTINUOUS
70
0
71
3
72
21
73
17
74
15
42
0.0000001000
43
0.0000001000
44
0.0000000001
12
0.3292825474
22
-0.1646412737
32
0.0000000000
13
0.0000000000
23
-0.3681490799
33
0.0000000000
40
0.0000000000
40
0.0000000000
40
0.0000000000
40
0.0000000000
40
0.0618304050
40
0.1269270025
40
0.1948482492
40
0.2655399816
40
0.3382377303
40
0.4127541376
40
0.4883113456
40
0.5644056063
40
0.6405225261
40
0.7158325832
40
0.7900855689
40
0.8623933234
40
0.9325770472
40
1.0000000000
40
1.0000000000
40
1.0000000000
40
1.0000000000
10
-3.4240563825
20
29.3295193030
30
0.0000000000
10
-3.4172698247
20
29.3261260241
30
0.0000000000
10
-3.4037224367
20
29.3183716147
30
0.0000000000
10
-3.3842132244
20
29.3044902714
30
0.0000000000
10
-3.3651976251
20
29.2882147060
30
0.0000000000
10
-3.3469344514
20
29.2697673859
30
0.0000000000
10
-3.3296239069
20
29.2493530980
30
0.0000000000
10
-3.3134998994
20
29.2272477193
30
0.0000000000
10
-3.2987513550
20
29.2037097703
30
0.0000000000
10
-3.2855659250
20
29.1790394848
30
0.0000000000
10
-3.2741126136
20
29.1535520338
30
0.0000000000
10
-3.2645250908
20
29.1275458991
30
0.0000000000
10
-3.2569333934
20
29.1013739336
30
0.0000000000
10
-3.2514226410
20
29.0753265317
30
0.0000000000
10
-3.2480680526
20
29.0497595133
30
0.0000000000
10
-3.2472796872
20
29.0328655237
30
0.0000000000
10
-3.2472796872
20
29.0245916244
30
0.0000000000
11
-3.4240563825
21
29.3295193030
31
0.0000000000
11
-3.4042700964
21
29.3182654925
31
0.0000000000
11
-3.3847119879
21
29.3044158094
31
0.0000000000
11
-3.3656865032
21
29.2881896521
31
0.0000000000
11
-3.3473513545
21
29.2697200025
31
0.0000000000
11
-3.3300218810
21
29.2493244115
31
0.0000000000
11
-3.3138404673
21
29.2271717730
31
0.0000000000
11
-3.2990619730
21
29.2036060442
31
0.0000000000
11
-3.2858544541
21
29.1789008334
31
0.0000000000
11
-3.2743726037
21
29.1533387413
31
0.0000000000
11
-3.2647936427
21
29.1273207219
31
0.0000000000
11
-3.2571975687
21
29.1010611377
31
0.0000000000
11
-3.2517151777
21
29.0750117700
31
0.0000000000
11
-3.2483908994
21
29.0493884367
31
0.0000000000
11
-3.2472796872
21
29.0245916244
31
0.0000000000
0
SPLINE
5
3E7
100
AcDbEntity
8
0
100
AcDbSpline
62
7
6
CONTINUOUS
70
0
71
3
72
21
73
17
74
15
42
0.0000001000
43
0.0000001000
44
0.0000000001
12
0.3292079164
22
-0.1646039582
32
0.0000000000
13
0.0000000000
23
-0.3680656399
33
0.0000000000
40
0.0000000000
40
0.0000000000
40
0.0000000000
40
0.0000000000
40
0.0618521799
40
0.1269655000
40
0.1948987269
40
0.2655972083
40
0.3382965201
40
0.4128100452
40
0.4883601078
40
0.5644450417
40
0.6405510013
40
0.7158502513
40
0.7900938764
40
0.8623948195
40
0.9325754586
40
1.0000000000
40
1.0000000000
40
1.0000000000
40
1.0000000000
10
12.5869217995
20
21.3240302120
30
0.0000000000
10
12.5937092086
20
21.3206365074
30
0.0000000000
10
12.6072577035
20
21.3128816409
30
0.0000000000
10
12.6267678121
20
21.2990002295
30
0.0000000000
10
12.6457828107
20
21.2827259931
30
0.0000000000
10
12.6640440918
20
21.2642815720
30
0.0000000000
10
12.6813516859
20
21.2438718609
30
0.0000000000
10
12.6974719713
20
21.2217727273
30
0.0000000000
10
12.7122164225
20
21.1982424452
30
0.0000000000
10
12.7253977217
20
21.1735809568
30
0.0000000000
10
12.7368472251
20
21.1481029206
30
0.0000000000
10
12.7464315015
20
21.1221063552
30
0.0000000000
10
12.7540206962
20
21.0959435414
30
0.0000000000
10
12.7595297559
20
21.0699043645
30
0.0000000000
10
12.7628834290
20
21.0443441480
30
0.0000000000
10
12.7636715709
20
21.0274541693
30
0.0000000000
10
12.7636715709
20
21.0191819503
30
0.0000000000
11
12.5869217995
21
21.3240302120
31
0.0000000000
11
12.6067106501
21
21.3127751345
31
0.0000000000
11
12.6262695875
21
21.2989253705
31
0.0000000000
11
12.6452944883
21
21.2827004669
31
0.0000000000
11
12.6636276996
21
21.2642337052
31
0.0000000000
11
12.6809541360
21
21.2438427386
31
0.0000000000
11
12.6971317825
21
21.2216963618
31
0.0000000000
11
12.7119060266
21
21.1981385136
31
0.0000000000
11
12.7251093692
21
21.1734421625
31
0.0000000000
11
12.7365873137
21
21.1478897007
31
0.0000000000
11
12.7461629801
21
21.1218814034
31
0.0000000000
11
12.7537565257
21
21.0956311241
31
0.0000000000
11
12.7592372208
21
21.0695901269
31
0.0000000000
11
12.7625606030
21
21.0439737275
31
0.0000000000
11
12.7636715709
21
21.0191819503
31
0.0000000000
0
SPLINE
5
3E8
100
AcDbEntity
8
0
100
AcDbSpline
62
7
6
CONTINUOUS
70
0
71
3
72
14
73
10
74
8
42
0.0000001000
43
0.0000001000
44
0.0000000001
12
-0.1078375592
22
0.0539187796
32
0.0000000000
13
-0.0000180400
23
0.1208611180
33
0.0000000000
40
0.0000000000
40
0.0000000000
40
0.0000000000
40
0.0000000000
40
0.1886068153
40
0.3626267087
40
0.5218490799
40
0.6677644490
40
0.8021347176
40
0.9290815808
40
1.0000000000
40
1.0000000000
40
1.0000000000
40
1.0000000000
10
-16.0624677037
20
19.6141797412
30
0.0000000000
10
-16.0692473365
20
19.6175695576
30
0.0000000000
10
-16.0819970574
20
19.6246892926
30
0.0000000000
10
-16.0991087110
20
19.6368988207
30
0.0000000000
10
-16.1132383519
20
19.6500785103
30
0.0000000000
10
-16.1241669807
20
19.6640648733
30
0.0000000000
10
-16.1317146011
20
19.6787129339
30
0.0000000000
10
-16.1351452505
20
19.6917397712
30
0.0000000000
10
-16.1356884868
20
19.6997116663
30
0.0000000000
10
-16.1356889132
20
19.7025687595
30
0.0000000000
11
-16.0624677037
21
19.6141797412
31
0.0000000000
11
-16.0822775398
21
19.6253448157
31
0.0000000000
11
-16.0992938704
21
19.6376184596
31
0.0000000000
11
-16.1132466705
21
19.6508031861
31
0.0000000000
11
-16.1239730854
21
19.6647472884
31
0.0000000000
11
-16.1312850663
21
19.6792038067
31
0.0000000000
11
-16.1351063922
21
19.6940245782
31
0.0000000000
11
-16.1356889132
21
19.7025687595
31
0.0000000000
0
SPLINE
5
3E9
100
AcDbEntity
8
0
100
AcDbSpline
62
7
6
CONTINUOUS
70
0
71
3
72
20
73
16
74
14
42
0.0000001000
43
0.0000001000
44
0.0000000001
12
-0.3247014228
22
-0.1567802596
32
0.0000000000
13
-0.3225040326
23
0.1612520163
33
0.0000000000
40
0.0000000000
40
0.0000000000
40
0.0000000000
40
0.0000000000
40
0.0684018357
40
0.1410316459
40
0.2171626099
40
0.2962985772
40
0.3773784088
40
0.4598854627
40
0.5425844847
40
0.6249624422
40
0.7057878796
40
0.7845498053
40
0.8601985326
40
0.9322509056
40
1.0000000000
40
1.0000000000
40
1.0000000000
40
1.0000000000
10
1.2916468867
20
11.1108139625
30
0.0000000000
10
1.2842434956
20
11.1072392767
30
0.0000000000
10
1.2686188083
20
11.1006006288
30
0.0000000000
10
1.2438212470
20
11.0923798149
30
0.0000000000
10
1.2172378327
20
11.0856832259
30
0.0000000000
10
1.1892672144
20
11.0806123804
30
0.0000000000
10
1.1602719943
20
11.0772328271
30
0.0000000000
10
1.1306982074
20
11.0755971982
30
0.0000000000
10
1.1009238123
20
11.0757264268
30
0.0000000000
10
1.0714114274
20
11.0776184836
30
0.0000000000
10
1.0425381664
20
11.0812491516
30
0.0000000000
10
1.0147481033
20
11.0865619109
30
0.0000000000
10
0.9884012732
20
11.0934881522
30
0.0000000000
10
0.9638926624
20
11.1019229482
30
0.0000000000
10
0.9484887175
20
11.1087015306
30
0.0000000000
10
0.9412055988
20
11.1123430899
30
0.0000000000
11
1.2916468867
21
11.1108139625
31
0.0000000000
11
1.2689744094
21
11.1011054105
31
0.0000000000
11
1.2441338843
21
11.0928127456
31
0.0000000000
11
1.2175249376
21
11.0860675133
31
0.0000000000
11
1.1894537787
21
11.0809484808
31
0.0000000000
11
1.1604175340
21
11.0775453483
31
0.0000000000
11
1.1307138142
21
11.0758936344
31
0.0000000000
11
1.1008952729
21
11.0760237456
31
0.0000000000
11
1.0712537299
21
11.0779344086
31
0.0000000000
11
1.0423406933
21
11.0815903991
31
0.0000000000
11
1.0144524886
21
11.0869536065
31
0.0000000000
11
0.9880830356
21
11.0939300066
31
0.0000000000
11
0.9635357478
21
11.1024381719
31
0.0000000000
11
0.9412055988
21
11.1123430899
31
0.0000000000
0
SPLINE
5
3EA
100
AcDbEntity
8
0
100
AcDbSpline
62
9
6
CONTINUOUS
70
0
71
3
72
14
73
10
74
8
42
0.0000001000
43
0.0000001000
44
0.0000000001
12
0.0011675458
22
-0.0966966634
32
0.0000000000
13
0.0862850779
23
-0.0431425389
33
0.0000000000
40
0.0000000000
40
0.0000000000
40
0.0000000000
40
0.0000000000
40
0.0572168800
40
0.1870167811
40
0.3240144018
40
0.4719707993
40
0.6333237477
40
0.8092742175
40
1.0000000000
40
1.0000000000
40
1.0000000000
40
1.0000000000
10
-5.8537464207
20
-9.9838175606
30
0.0000000000
10
-5.8537241530
20
-9.9856617878
30
0.0000000000
10
-5.8533322941
20
-9.9916856695
30
0.0000000000
10
-5.8508410017
20
-10.0018988640
30
0.0000000000
10
-5.8448792833
20
-10.0139349198
30
0.0000000000
10
-5.8361370169
20
-10.0254090142
30
0.0000000000
10
-5.8247735819
20
-10.0361850333
30
0.0000000000
10
-5.8109633002
20
-10.0461346412
30
0.0000000000
10
-5.8006543928
20
-10.0519097513
30
0.0000000000
10
-5.7951687964
20
-10.0546525495
30
0.0000000000
11
-5.8537464207
21
-9.9838175606
31
0.0000000000
11
-5.8533864625
21
-9.9893356715
31
0.0000000000
11
-5.8504741747
21
-10.0015140470
31
0.0000000000
11
-5.8446933950
21
-10.0133988362
31
0.0000000000
11
-5.8361284201
21
-10.0248167322
31
0.0000000000
11
-5.8249041466
21
-10.0356012365
31
0.0000000000
11
-5.8111842497
21
-10.0455950865
31
0.0000000000
11
-5.7951687964
21
-10.0546525495
31
0.0000000000
0
SPLINE
5
3EB
100
AcDbEntity
8
0
100
AcDbSpline
62
7
6
CONTINUOUS
70
0
71
3
72
20
73
16
74
14
42
0.0000001000
43
0.0000001000
44
0.0000000001
12
0.0030684102
22
-0.2029494919
32
0.0000000000
13
0.1036232878
23
-0.1744951168
33
0.0000000000
40
0.0000000000
40
0.0000000000
40
0.0000000000
40
0.0000000000
40
0.0577414072
40
0.1335608183
40
0.2103561047
40
0.2880164536
40
0.3664154968
40
0.4454114187
40
0.5248460404
40
0.6045519569
40
0.6843428016
40
0.7640147817
40
0.8433455077
40
0.9220936261
40
1.0000000000
40
1.0000000000
40
1.0000000000
40
1.0000000000
10
-5.8360087193
20
-11.2829894518
30
0.0000000000
10
-5.8359496612
20
-11.2868956482
30
0.0000000000
10
-5.8356033660
20
-11.2959277425
30
0.0000000000
10
-5.8343556748
20
-11.3101098976
30
0.0000000000
10
-5.8321959405
20
-11.3255434873
30
0.0000000000
10
-5.8292725730
20
-11.3410276411
30
0.0000000000
10
-5.8256301574
20
-11.3565109221
30
0.0000000000
10
-5.8213113343
20
-11.3719434725
30
0.0000000000
10
-5.8163576125
20
-11.3872765992
30
0.0000000000
10
-5.8108102314
20
-11.4024619811
30
0.0000000000
10
-5.8047109419
20
-11.4174512626
30
0.0000000000
10
-5.7981029986
20
-11.4321952889
30
0.0000000000
10
-5.7910318449
20
-11.4466441889
30
0.0000000000
10
-5.7835459723
20
-11.4607471843
30
0.0000000000
10
-5.7782787329
20
-11.4699452808
30
0.0000000000
10
-5.7755877614
20
-11.4744767081
30
0.0000000000
11
-5.8360087193
21
-11.2829894518
31
0.0000000000
11
-5.8355668987
21
-11.2947000796
31
0.0000000000
11
-5.8342316011
21
-11.3100291379
31
0.0000000000
11
-5.8320828036
21
-11.3254654497
31
0.0000000000
11
-5.8291681678
21
-11.3409543169
31
0.0000000000
11
-5.8255324072
21
-11.3564439691
31
0.0000000000
11
-5.8212182619
21
-11.3718843547
31
0.0000000000
11
-5.8162674849
21
-11.3872261198
31
0.0000000000
11
-5.8107212049
21
-11.4024214120
31
0.0000000000
11
-5.8046212663
21
-11.4174216380
31
0.0000000000
11
-5.7980109312
21
-11.4321776142
31
0.0000000000
11
-5.7909356935
21
-11.4466393427
31
0.0000000000
11
-5.7834439984
21
-11.4607560672
31
0.0000000000
11
-5.7755877614
21
-11.4744767081
31
0.0000000000
0
SPLINE
5
3EC
100
AcDbEntity
8
0
100
AcDbSpline
62
7
6
CONTINUOUS
70
0
71
3
72
15
73
11
74
9
42
0.0000001000
43
0.0000001000
44
0.0000000001
12
-0.2979219638
22
0.1489417927
32
0.0000000000
13
-0.2981333902
23
-0.1478763594
33
0.0000000000
40
0.0000000000
40
0.0000000000
40
0.0000000000
40
0.0000000000
40
0.0856604763
40
0.2035595409
40
0.3240281029
40
0.4480782154
40
0.5771147727
40
0.7116651546
40
0.8525797443
40
1.0000000000
40
1.0000000000
40
1.0000000000
40
1.0000000000
10
9.5361781028
20
21.9620079909
30
0.0000000000
10
9.5276713904
20
21.9662607992
30
0.0000000000
10
9.5069254461
20
21.9753061215
30
0.0000000000
10
9.4723338401
20
21.9855092547
30
0.0000000000
10
9.4324450016
20
21.9914399432
30
0.0000000000
10
9.3908989070
20
21.9920871894
30
0.0000000000
10
9.3480464616
20
21.9874669108
30
0.0000000000
10
9.3041759517
20
21.9776302520
30
0.0000000000
10
9.2596359176
20
21.9626728245
30
0.0000000000
10
9.2303627024
20
21.9496583283
30
0.0000000000
10
9.2157124022
20
21.9423916713
30
0.0000000000
11
9.5361781028
21
21.9620079909
31
0.0000000000
11
9.5100366340
21
21.9734068624
31
0.0000000000
11
9.4724152323
21
21.9845463922
31
0.0000000000
11
9.4327706512
21
21.9905129209
31
0.0000000000
11
9.3914942412
21
21.9912484822
31
0.0000000000
11
9.3487881597
21
21.9867494091
31
0.0000000000
11
9.3050719959
21
21.9770586714
31
0.0000000000
11
9.2605827560
21
21.9622303138
31
0.0000000000
11
9.2157124022
21
21.9423916713
31
0.0000000000
0
SPLINE
5
3ED
100
AcDbEntity
8
0
100
AcDbSpline
62
7
6
CONTINUOUS
70
0
71
3
72
15
73
11
74
9
42
0.0000001000
43
0.0000001000
44
0.0000000001
12
-0.2979219638
22
0.1489417927
32
0.0000000000
13
-0.2981333902
23
-0.1478763594
33
0.0000000000
40
0.0000000000
40
0.0000000000
40
0.0000000000
40
0.0000000000
40
0.0856604763
40
0.2035595409
40
0.3240281029
40
0.4480782154
40
0.5771147727
40
0.7116651546
40
0.8525797443
40
1.0000000000
40
1.0000000000
40
1.0000000000
40
1.0000000000
10
-0.5047381900
20
26.9824661373
30
0.0000000000
10
-0.5132449025
20
26.9867189456
30
0.0000000000
10
-0.5339908467
20
26.9957642679
30
0.0000000000
10
-0.5685824528
20
27.0059674011
30
0.0000000000
10
-0.6084712912
20
27.0118980896
30
0.0000000000
10
-0.6500173858
20
27.0125453359
30
0.0000000000
10
-0.6928698313
20
27.0079250572
30
0.0000000000
10
-0.7367403411
20
26.9980883985
30
0.0000000000
10
-0.7812803753
20
26.9831309709
30
0.0000000000
10
-0.8105535904
20
26.9701164747
30
0.0000000000
10
-0.8252038907
20
26.9628498178
30
0.0000000000
11
-0.5047381900
21
26.9824661373
31
0.0000000000
11
-0.5308796588
21
26.9938650088
31
0.0000000000
11
-0.5685010605
21
27.0050045386
31
0.0000000000
11
-0.6081456417
21
27.0109710673
31
0.0000000000
11
-0.6494220517
21
27.0117066286
31
0.0000000000
11
-0.6921281331
21
27.0072075556
31
0.0000000000
11
-0.7358442969
21
26.9975168178
31
0.0000000000
11
-0.7803335368
21
26.9826884602
31
0.0000000000
11
-0.8252038907
21
26.9628498178
31
0.0000000000
0
SPLINE
5
3EE
100
AcDbEntity
8
0
100
AcDbSpline
62
9
6
CONTINUOUS
70
0
71
3
72
15
73
11
74
9
42
0.0000001000
43
0.0000001000
44
0.0000000001
12
0.1468862834
22
0.0678478163
32
0.0000000000
13
0.0023250712
23
0.1615127165
33
0.0000000000
40
0.0000000000
40
0.0000000000
40
0.0000000000
40
0.0000000000
40
0.0558574797
40
0.1712447032
40
0.2905959758
40
0.4160535543
40
0.5491399969
40
0.6907286038
40
0.8410945990
40
1.0000000000
40
1.0000000000
40
1.0000000000
40
1.0000000000
10
4.9779987657
20
-24.0317103699
30
0.0000000000
10
4.9807336649
20
-24.0304471005
30
0.0000000000
10
4.9889311098
20
-24.0261693568
30
0.0000000000
10
5.0016589453
20
-24.0168992637
30
0.0000000000
10
5.0149816537
20
-24.0026591178
30
0.0000000000
10
5.0261673893
20
-23.9855540213
30
0.0000000000
10
5.0350788684
20
-23.9658564605
30
0.0000000000
10
5.0416120568
20
-23.9438578776
30
0.0000000000
10
5.0456907591
20
-23.9198765767
30
0.0000000000
10
5.0467150059
20
-23.9032224561
30
0.0000000000
10
5.0468381613
20
-23.8946673751
30
0.0000000000
11
4.9779987657
21
-24.0317103699
31
0.0000000000
11
4.9860072670
21
-24.0275303463
31
0.0000000000
11
5.0010989686
21
-24.0165927142
31
0.0000000000
11
5.0143259524
21
-24.0025671330
31
0.0000000000
11
5.0254954139
21
-23.9856580479
31
0.0000000000
11
5.0344445400
21
-23.9661119361
31
0.0000000000
11
5.0410428829
21
-23.9442137133
31
0.0000000000
11
5.0451942610
21
-23.9202825815
31
0.0000000000
11
5.0468381613
21
-23.8946673751
31
0.0000000000
0
SPLINE
5
3EF
100
AcDbEntity
8
0
100
AcDbSpline
62
9
6
CONTINUOUS
70
0
71
3
72
13
73
9
74
7
42
0.0000001000
43
0.0000001000
44
0.0000000001
12
0.1058563759
22
0.0570824423
32
0.0000000000
13
0.1081474234
23
-0.0521792803
33
0.0000000000
40
0.0000000000
40
0.0000000000
40
0.0000000000
40
0.0000000000
40
0.1274917485
40
0.2850704415
40
0.4489445434
40
0.6217041576
40
0.8050910851
40
1.0000000000
40
1.0000000000
40
1.0000000000
40
1.0000000000
10
-12.3780484438
20
26.0562839999
30
0.0000000000
10
-12.3735498390
20
26.0587098467
30
0.0000000000
10
-12.3630483902
20
26.0633156774
30
0.0000000000
10
-12.3454668387
20
26.0675222951
30
0.0000000000
10
-12.3256109424
20
26.0685452070
30
0.0000000000
10
-12.3048484266
20
26.0661501646
30
0.0000000000
10
-12.2834826068
20
26.0604046784
30
0.0000000000
10
-12.2694564249
20
26.0545837677
30
0.0000000000
10
-12.2624301259
20
26.0511936987
30
0.0000000000
11
-12.3780484438
21
26.0562839999
31
0.0000000000
11
-12.3640242324
21
26.0624425984
31
0.0000000000
11
-12.3456349836
21
26.0668993908
31
0.0000000000
11
-12.3259879191
21
26.0679942866
31
0.0000000000
11
-12.3053694264
21
26.0657113258
31
0.0000000000
11
-12.2840800531
21
26.0600837864
31
0.0000000000
11
-12.2624301259
21
26.0511936987
31
0.0000000000
0
SPLINE
5
3F0
100
AcDbEntity
8
0
100
AcDbSpline
62
7
6
CONTINUOUS
70
0
71
3
72
20
73
16
74
14
42
0.0000001000
43
0.0000001000
44
0.0000000001
12
0.0024187995
22
-0.2032127767
32
0.0000000000
13
0.1033698734
23
-0.1749407659
33
0.0000000000
40
0.0000000000
40
0.0000000000
40
0.0000000000
40
0.0000000000
40
0.0594133423
40
0.1350593459
40
0.2116882493
40
0.2891889287
40
0.3674347304
40
0.4462835839
40
0.5255770883
40
0.6051476358
40
0.6848086907
40
0.7643563171
40
0.8435680066
40
0.9222023074
40
1.0000000000
40
1.0000000000
40
1.0000000000
40
1.0000000000
10
-4.6531247243
20
-10.4638296161
30
0.0000000000
10
-4.6530768213
20
-10.4678541329
30
0.0000000000
10
-4.6527483021
20
-10.4769999763
30
0.0000000000
10
-4.6515160008
20
-10.4912919910
30
0.0000000000
10
-4.6493852010
20
-10.5067151446
30
0.0000000000
10
-4.6464915182
20
-10.5221919151
30
0.0000000000
10
-4.6428794074
20
-10.5376707489
30
0.0000000000
10
-4.6385913837
20
-10.5531016765
30
0.0000000000
10
-4.6336688338
20
-10.5684358961
30
0.0000000000
10
-4.6281528762
20
-10.5836249782
30
0.0000000000
10
-4.6220851404
20
-10.5986204566
30
0.0000000000
10
-4.6155087571
20
-10.6133730610
30
0.0000000000
10
-4.6084690433
20
-10.6278327963
30
0.0000000000
10
-4.6010143588
20
-10.6419487500
30
0.0000000000
10
-4.5957679143
20
-10.6511566509
30
0.0000000000
10
-4.5930872684
20
-10.6556933135
30
0.0000000000
11
-4.6531247243
21
-10.4638296161
31
0.0000000000
11
-4.6526992135
21
-10.4758954458
31
0.0000000000
11
-4.6513919968
21
-10.4912109091
31
0.0000000000
11
-4.6492721640
21
-10.5066368091
31
0.0000000000
11
-4.6463872395
21
-10.5221183217
31
0.0000000000
11
-4.6427818077
21
-10.5376035582
31
0.0000000000
11
-4.6384984842
21
-10.5530423550
31
0.0000000000
11
-4.6335788995
21
-10.5683852492
31
0.0000000000
11
-4.6280640631
21
-10.5835842802
31
0.0000000000
11
-4.6219956983
21
-10.5985907442
31
0.0000000000
11
-4.6154169435
21
-10.6133553423
31
0.0000000000
11
-4.6083731661
21
-10.6278279533
31
0.0000000000
11
-4.6009126807
21
-10.6419576863
31
0.0000000000
11
-4.5930872684
21
-10.6556933135
31
0.0000000000
0
SPLINE
5
3F1
100
AcDbEntity
8
0
100
AcDbSpline
62
7
6
CONTINUOUS
70
0
71
3
72
13
73
9
74
7
42
0.0000001000
43
0.0000001000
44
0.0000000001
12
0.1028968925
22
0.0475118767
32
0.0000000000
13
0.1012351303
23
-0.0506175651
33
0.0000000000
40
0.0000000000
40
0.0000000000
40
0.0000000000
40
0.0000000000
40
0.1422389580
40
0.2976986625
40
0.4596807589
40
0.6295805436
40
0.8095977393
40
1.0000000000
40
1.0000000000
40
1.0000000000
40
1.0000000000
10
-10.9578775955
20
26.8222937663
30
0.0000000000
10
-10.9529989466
20
26.8245464462
30
0.0000000000
10
-10.9423807684
20
26.8283792066
30
0.0000000000
10
-10.9252076406
20
26.8313674978
30
0.0000000000
10
-10.9067413179
20
26.8314333935
30
0.0000000000
10
-10.8875778176
20
26.8285353896
30
0.0000000000
10
-10.8679775243
20
26.8227346539
30
0.0000000000
10
-10.8551296415
20
26.8171436686
30
0.0000000000
10
-10.8487045089
20
26.8139311024
30
0.0000000000
11
-10.9578775955
21
26.8222937663
31
0.0000000000
11
-10.9427373789
21
26.8277758217
31
0.0000000000
11
-10.9254107203
21
26.8308404677
31
0.0000000000
11
-10.9070773742
21
26.8309740587
31
0.0000000000
11
-10.8880523241
21
26.8281740548
31
0.0000000000
11
-10.8684934098
21
26.8224648937
31
0.0000000000
11
-10.8487045089
21
26.8139311024
31
0.0000000000
0
SPLINE
5
3F2
100
AcDbEntity
8
0
100
AcDbSpline
62
7
6
CONTINUOUS
70
0
71
3
72
14
73
10
74
8
42
0.0000001000
43
0.0000001000
44
0.0000000001
12
-0.2041942102
22
-0.1722202124
32
0.0000000000
13
-0.2666582885
23
-0.0157617952
33
0.0000000000
40
0.0000000000
40
0.0000000000
40
0.0000000000
40
0.0000000000
40
0.0969811062
40
0.2079773190
40
0.3343432474
40
0.4767540268
40
0.6353723992
40
0.8099593880
40
1.0000000000
40
1.0000000000
40
1.0000000000
40
1.0000000000
10
0.8395811785
20
25.7311838461
30
0.0000000000
10
0.8329801850
20
25.7256164772
30
0.0000000000
10
0.8176234480
20
25.7150832835
30
0.0000000000
10
0.7908421420
20
25.7019249201
30
0.0000000000
10
0.7589673084
20
25.6904639107
30
0.0000000000
10
0.7221261787
20
25.6807757577
30
0.0000000000
10
0.6804814040
20
25.6729236505
30
0.0000000000
10
0.6342518596
20
25.6669682980
30
0.0000000000
10
0.6018738805
20
25.6643989406
30
0.0000000000
10
0.5849819124
20
25.6634004802
30
0.0000000000
11
0.8395811785
21
25.7311838461
31
0.0000000000
11
0.8183750847
21
25.7163036584
31
0.0000000000
11
0.7918744776
21
25.7030061497
31
0.0000000000
11
0.7601792325
21
25.6913943399
31
0.0000000000
11
0.7234316087
21
25.6815580631
31
0.0000000000
11
0.6818198208
21
25.6735744722
31
0.0000000000
11
0.6355799326
21
25.6675065660
31
0.0000000000
11
0.5849819124
21
25.6634004802
31
0.0000000000
0
SPLINE
5
3F3
100
AcDbEntity
8
0
100
AcDbSpline
62
7
6
CONTINUOUS
70
0
71
3
72
14
73
10
74
8
42
0.0000001000
43
0.0000001000
44
0.0000000001
12
0.1033903412
22
0.0494737186
32
0.0000000000
13
0.1024100091
23
-0.0512050045
33
0.0000000000
40
0.0000000000
40
0.0000000000
40
0.0000000000
40
0.0000000000
40
0.1138510736
40
0.2473289225
40
0.3847314923
40
0.5276669208
40
0.6773666513
40
0.8346621667
40
1.0000000000
40
1.0000000000
40
1.0000000000
40
1.0000000000
10
5.1630165527
20
18.7607091002
30
0.0000000000
10
5.1669402532
20
18.7625866456
30
0.0000000000
10
5.1757486955
20
18.7660713204
30
0.0000000000
10
5.1901091236
20
18.7694083934
30
0.0000000000
10
5.2059129448
20
18.7706220615
30
0.0000000000
10
5.2223413979
20
18.7695598836
30
0.0000000000
10
5.2392347958
20
18.7662442893
30
0.0000000000
10
5.2564315244
20
18.7607178947
30
0.0000000000
10
5.2677129431
20
18.7557223764
30
0.0000000000
10
5.2733570261
20
18.7529003349
30
0.0000000000
11
5.1630165527
21
18.7607091002
31
0.0000000000
11
5.1751394019
21
18.7655109795
31
0.0000000000
11
5.1900194981
21
18.7689967609
31
0.0000000000
11
5.2057024426
21
18.7702419785
31
0.0000000000
11
5.2220372085
21
18.7692345529
31
0.0000000000
11
5.2388664830
21
18.7659841035
31
0.0000000000
11
5.2560281845
21
18.7605218550
31
0.0000000000
11
5.2733570261
21
18.7529003349
31
0.0000000000
0
SPLINE
5
3F4
100
AcDbEntity
8
0
100
AcDbSpline
62
9
6
CONTINUOUS
70
0
71
3
72
35
73
31
74
29
42
0.0000001000
43
0.0000001000
44
0.0000000001
12
0.0005281545
22
-1.8971035061
32
0.0000000000
13
1.6958755421
23
0.8454003766
33
0.0000000000
40
0.0000000000
40
0.0000000000
40
0.0000000000
40
0.0000000000
40
0.0155122326
40
0.0380292006
40
0.0612596961
40
0.0855743583
40
0.1112687751
40
0.1385574836
40
0.1675787461
40
0.1984021522
40
0.2310392833
40
0.2654518678
40
0.3015609596
40
0.3392525911
40
0.3783847871
40
0.4187912061
40
0.4602867191
40
0.5026699016
40
0.5457278234
40
0.5892380110
40
0.6329726897
40
0.6767005943
40
0.7201911669
40
0.7632165244
40
0.8055548802
40
0.8469929333
40
0.8873307736
40
0.9263840708
40
0.9639867031
40
1.0000000000
40
1.0000000000
40
1.0000000000
40
1.0000000000
10
3.3821498164
20
17.5257190034
30
0.0000000000
10
3.3821525474
20
17.5159095665
30
0.0000000000
10
3.3835523027
20
17.4918604466
30
0.0000000000
10
3.3912544713
20
17.4537656300
30
0.0000000000
10
3.4068269368
20
17.4121581594
30
0.0000000000
10
3.4292571921
20
17.3715286286
30
0.0000000000
10
3.4583384173
20
17.3321542838
30
0.0000000000
10
3.4938352469
20
17.2942899958
30
0.0000000000
10
3.5354829884
20
17.2581789069
30
0.0000000000
10
3.5829840180
20
17.2240560488
30
0.0000000000
10
3.6360042696
20
17.1921483695
30
0.0000000000
10
3.6941727778
20
17.1626720045
30
0.0000000000
10
3.7570819263
20
17.1358298278
30
0.0000000000
10
3.8242901810
20
17.1118084882
30
0.0000000000
10
3.8953242467
20
17.0907764801
30
0.0000000000
10
3.9696831518
20
17.0728820324
30
0.0000000000
10
4.0468411233
20
17.0582518552
30
0.0000000000
10
4.1262522492
20
17.0469897562
30
0.0000000000
10
4.2073537145
20
17.0391758700
30
0.0000000000
10
4.2895706858
20
17.0348658627
30
0.0000000000
10
4.3723197157
20
17.0340905351
30
0.0000000000
10
4.4550137885
20
17.0368555141
30
0.0000000000
10
4.5370660435
20
17.0431412166
30
0.0000000000
10
4.6178945162
20
17.0529030361
30
0.0000000000
10
4.6969255757
20
17.0660715791
30
0.0000000000
10
4.7735991401
20
17.0825533712
30
0.0000000000
10
4.8473720717
20
17.1022313850
30
0.0000000000
10
4.9177234454
20
17.1249669066
30
0.0000000000
10
4.9841534549
20
17.1505978667
30
0.0000000000
10
5.0264801382
20
17.1699376275
30
0.0000000000
10
5.0468381613
20
17.1800861791
30
0.0000000000
11
3.3821498164
21
17.5257190034
31
0.0000000000
11
3.3838571323
21
17.4963567557
31
0.0000000000
11
3.3922346652
21
17.4545195788
31
0.0000000000
11
3.4075393062
21
17.4132460022
31
0.0000000000
11
3.4296617451
21
17.3728303245
31
0.0000000000
11
3.4584443995
21
17.3335601443
31
0.0000000000
11
3.4936818690
21
17.2957155010
31
0.0000000000
11
3.5351233146
21
17.2595656546
31
0.0000000000
11
3.5824731132
21
17.2253683859
31
0.0000000000
11
3.6353943336
21
17.1933669798
31
0.0000000000
11
3.6935095337
21
17.1637896480
31
0.0000000000
11
3.7564052537
21
17.1368468159
31
0.0000000000
11
3.8236329604
21
17.1127306414
31
0.0000000000
11
3.8947143867
21
17.0916127259
31
0.0000000000
11
3.9691426531
21
17.0736437122
31
0.0000000000
11
4.0463882198
21
17.0589515086
31
0.0000000000
11
4.1259002361
21
17.0476409606
31
0.0000000000
11
4.2071129093
21
17.0397926309
31
0.0000000000
11
4.2894471508
21
17.0354625732
31
0.0000000000
11
4.3723168874
21
17.0346817030
31
0.0000000000
11
4.4551310206
21
17.0374556761
31
0.0000000000
11
4.5373000156
21
17.0437648259
31
0.0000000000
11
4.6182382594
21
17.0535642980
31
0.0000000000
11
4.6973690498
21
17.0667843802
31
0.0000000000
11
4.7741274102
21
17.0833307261
31
0.0000000000
11
4.8479671910
21
17.1030856290
31
0.0000000000
11
4.9183625100
21
17.1259085237
31
0.0000000000
11
4.9848094191
21
17.1516359599
31
0.0000000000
11
5.0468381613
21
17.1800861791
31
0.0000000000
0
SPLINE
5
3F5
100
AcDbEntity
8
0
100
AcDbSpline
62
9
6
CONTINUOUS
70
0
71
3
72
14
73
10
74
8
42
0.0000001000
43
0.0000001000
44
0.0000000001
12
0.0000193406
22
-0.1208613400
32
0.0000000000
13
0.1078369398
23
-0.0539184699
33
0.0000000000
40
0.0000000000
40
0.0000000000
40
0.0000000000
40
0.0000000000
40
0.0709351019
40
0.1977503649
40
0.3322666906
40
0.4780654864
40
0.6374087147
40
0.8113588234
40
1.0000000000
40
1.0000000000
40
1.0000000000
40
1.0000000000
10
-16.1356888842
20
22.4885170863
30
0.0000000000
10
-16.1356884269
20
22.4856593158
30
0.0000000000
10
-16.1351453301
20
22.4776920369
30
0.0000000000
10
-16.1317155784
20
22.4646640705
30
0.0000000000
10
-16.1241704269
20
22.4500190888
30
0.0000000000
10
-16.1132387468
20
22.4360278152
30
0.0000000000
10
-16.0991111739
20
22.4228496936
30
0.0000000000
10
-16.0819969033
20
22.4106382618
30
0.0000000000
10
-16.0692485327
20
22.4035191479
30
0.0000000000
10
-16.0624677037
20
22.4001287334
30
0.0000000000
11
-16.1356888842
21
22.4885170863
31
0.0000000000
11
-16.1351060278
21
22.4799709113
31
0.0000000000
11
-16.1312898206
21
22.4651652961
31
0.0000000000
11
-16.1239708134
21
22.4506927022
31
0.0000000000
11
-16.1132533788
21
22.4367595512
31
0.0000000000
11
-16.0992903696
21
22.4235645736
31
0.0000000000
11
-16.0822809295
21
22.4112959652
31
0.0000000000
11
-16.0624677037
21
22.4001287334
31
0.0000000000
0
SPLINE
5
3F6
100
AcDbEntity
8
0
100
AcDbSpline
62
7
6
CONTINUOUS
70
0
71
3
72
33
73
29
74
27
42
0.0000001000
43
0.0000001000
44
0.0000000001
12
0.0000889505
22
-1.4235812450
32
0.0000000000
13
1.2695980960
23
0.6396941561
33
0.0000000000
40
0.0000000000
40
0.0000000000
40
0.0000000000
40
0.0000000000
40
0.0143977072
40
0.0388425539
40
0.0641319362
40
0.0907014855
40
0.1189317700
40
0.1490571267
40
0.1812375565
40
0.2155259988
40
0.2519116995
40
0.2903169984
40
0.3306129843
40
0.3726351868
40
0.4161704840
40
0.4610047294
40
0.5068591316
40
0.5535015755
40
0.6006021312
40
0.6479319160
40
0.6951322088
40
0.7419840196
40
0.7881343100
40
0.8333705756
40
0.8773854470
40
0.9199732787
40
0.9609038676
40
1.0000000000
40
1.0000000000
40
1.0000000000
40
1.0000000000
10
-10.3219138440
20
23.0757001280
30
0.0000000000
10
-10.3219134171
20
23.0688680261
30
0.0000000000
10
-10.3209329079
20
23.0504357815
30
0.0000000000
10
-10.3149626414
20
23.0204766949
30
0.0000000000
10
-10.3019062032
20
22.9865828159
30
0.0000000000
10
-10.2828395791
20
22.9536068240
30
0.0000000000
10
-10.2579752939
20
22.9218162799
30
0.0000000000
10
-10.2275427786
20
22.8914415832
30
0.0000000000
10
-10.1918085603
20
22.8627120190
30
0.0000000000
10
-10.1510662956
20
22.8358431919
30
0.0000000000
10
-10.1056515054
20
22.8110454122
30
0.0000000000
10
-10.0559352806
20
22.7885156660
30
0.0000000000
10
-10.0023245188
20
22.7684355739
30
0.0000000000
10
-9.9452632178
20
22.7509702382
30
0.0000000000
10
-9.8852169451
20
22.7362616311
30
0.0000000000
10
-9.8226909247
20
22.7244335091
30
0.0000000000
10
-9.7581900464
20
22.7155813236
30
0.0000000000
10
-9.6922665108
20
22.7097810983
30
0.0000000000
10
-9.6254445642
20
22.7070789304
30
0.0000000000
10
-9.5583052171
20
22.7074984752
30
0.0000000000
10
-9.4913757844
20
22.7110363970
30
0.0000000000
10
-9.4252422290
20
22.7176616810
30
0.0000000000
10
-9.3604233024
20
22.7273223654
30
0.0000000000
10
-9.2974821682
20
22.7399343512
30
0.0000000000
10
-9.2369189601
20
22.7553975858
30
0.0000000000
10
-9.1792478640
20
22.7735811152
30
0.0000000000
10
-9.1249392499
20
22.7943369929
30
0.0000000000
10
-9.0904360485
20
22.8101606738
30
0.0000000000
10
-9.0738905901
20
22.8184971963
30
0.0000000000
11
-10.3219138440
21
23.0757001280
31
0.0000000000
11
-10.3208244276
21
23.0552429621
31
0.0000000000
11
-10.3141038882
21
23.0211469724
31
0.0000000000
11
-10.3012995159
21
22.9875517254
31
0.0000000000
11
-10.2825301445
21
22.9547724723
31
0.0000000000
11
-10.2579379977
21
22.9230560687
31
0.0000000000
11
-10.2277411711
21
22.8926856228
31
0.0000000000
11
-10.1921806174
21
22.8639028955
31
0.0000000000
11
-10.1515605036
21
22.8369549097
31
0.0000000000
11
-10.1062154647
21
22.8120634532
31
0.0000000000
11
-10.0565254388
21
22.7894373773
31
0.0000000000
11
-10.0029073383
21
22.7692662559
31
0.0000000000
11
-9.9458024582
21
22.7517162664
31
0.0000000000
11
-9.8857008704
21
22.7369375051
31
0.0000000000
11
-9.8230810195
21
22.7250479098
31
0.0000000000
11
-9.7585018356
21
22.7161528853
31
0.0000000000
11
-9.6924496730
21
22.7103198647
31
0.0000000000
11
-9.6255443245
21
22.7076029105
31
0.0000000000
11
-9.5582592521
21
22.7080216599
31
0.0000000000
11
-9.4912509431
21
22.7115717226
31
0.0000000000
11
-9.4249776014
21
22.7182289374
31
0.0000000000
11
-9.3600889740
21
22.7279283583
31
0.0000000000
11
-9.2970399521
21
22.7406016756
31
0.0000000000
11
-9.2364237735
21
22.7561306982
31
0.0000000000
11
-9.1787000414
21
22.7743972047
31
0.0000000000
11
-9.1243732416
21
22.7952431622
31
0.0000000000
11
-9.0738905901
21
22.8184971963
31
0.0000000000
0
SPLINE
5
3F7
100
AcDbEntity
8
0
100
AcDbSpline
62
9
6
CONTINUOUS
70
0
71
3
72
16
73
12
74
10
42
0.0000001000
43
0.0000001000
44
0.0000000001
12
0.1468756730
22
0.0678166955
32
0.0000000000
13
0.0023254680
23
0.1615402797
33
0.0000000000
40
0.0000000000
40
0.0000000000
40
0.0000000000
40
0.0000000000
40
0.0070258649
40
0.1132577155
40
0.2218228600
40
0.3346595825
40
0.4532977182
40
0.5787876496
40
0.7117027662
40
0.8521838988
40
1.0000000000
40
1.0000000000
40
1.0000000000
40
1.0000000000
10
1.2228019490
20
-24.3747370798
30
0.0000000000
10
1.2231459252
20
-24.3745782561
30
0.0000000000
10
1.2286751269
20
-24.3719839796
30
0.0000000000
10
1.2389934376
20
-24.3658316914
30
0.0000000000
10
1.2523434287
20
-24.3541567901
30
0.0000000000
10
1.2639458091
20
-24.3398857913
30
0.0000000000
10
1.2736675402
20
-24.3232224430
30
0.0000000000
10
1.2814051729
20
-24.3043877719
30
0.0000000000
10
1.2870783757
20
-24.2836191263
30
0.0000000000
10
1.2906280353
20
-24.2611755348
30
0.0000000000
10
1.2915323062
20
-24.2456496301
30
0.0000000000
10
1.2916468867
20
-24.2376902120
30
0.0000000000
11
1.2228019490
21
-24.3747370798
31
0.0000000000
11
1.2238309216
21
-24.3742542830
31
0.0000000000
11
1.2385817893
21
-24.3654814077
31
0.0000000000
11
1.2518166358
21
-24.3539717802
31
0.0000000000
11
1.2633690898
21
-24.3398700845
31
0.0000000000
11
1.2730939287
21
-24.3233535889
31
0.0000000000
11
1.2808689044
21
-24.3046299176
31
0.0000000000
11
1.2865962799
21
-24.2839344404
31
0.0000000000
11
1.2902040581
21
-24.2615273140
31
0.0000000000
11
1.2916468867
21
-24.2376902120
31
0.0000000000
0
SPLINE
5
3F8
100
AcDbEntity
8
0
100
AcDbSpline
62
7
6
CONTINUOUS
70
0
71
3
72
33
73
29
74
27
42
0.0000001000
43
0.0000001000
44
0.0000000001
12
0.0000889505
22
-1.4235812450
32
0.0000000000
13
1.2695980960
23
0.6396941561
33
0.0000000000
40
0.0000000000
40
0.0000000000
40
0.0000000000
40
0.0000000000
40
0.0143977072
40
0.0388425539
40
0.0641319362
40
0.0907014855
40
0.1189317700
40
0.1490571267
40
0.1812375565
40
0.2155259988
40
0.2519116995
40
0.2903169984
40
0.3306129843
40
0.3726351868
40
0.4161704840
40
0.4610047294
40
0.5068591316
40
0.5535015755
40
0.6006021312
40
0.6479319160
40
0.6951322088
40
0.7419840196
40
0.7881343100
40
0.8333705756
40
0.8773854470
40
0.9199732787
40
0.9609038676
40
1.0000000000
40
1.0000000000
40
1.0000000000
40
1.0000000000
10
-0.2809975512
20
18.0552419816
30
0.0000000000
10
-0.2809971243
20
18.0484098796
30
0.0000000000
10
-0.2800166151
20
18.0299776351
30
0.0000000000
10
-0.2740463486
20
18.0000185484
30
0.0000000000
10
-0.2609899104
20
17.9661246695
30
0.0000000000
10
-0.2419232863
20
17.9331486776
30
0.0000000000
10
-0.2170590010
20
17.9013581335
30
0.0000000000
10
-0.1866264857
20
17.8709834368
30
0.0000000000
10
-0.1508922675
20
17.8422538726
30
0.0000000000
10
-0.1101500028
20
17.8153850454
30
0.0000000000
10
-0.0647352126
20
17.7905872657
30
0.0000000000
10
-0.0150189877
20
17.7680575196
30
0.0000000000
10
0.0385917741
20
17.7479774275
30
0.0000000000
10
0.0956530751
20
17.7305120917
30
0.0000000000
10
0.1556993477
20
17.7158034847
30
0.0000000000
10
0.2182253681
20
17.7039753627
30
0.0000000000
10
0.2827262464
20
17.6951231772
30
0.0000000000
10
0.3486497821
20
17.6893229519
30
0.0000000000
10
0.4154717286
20
17.6866207840
30
0.0000000000
10
0.4826110757
20
17.6870403288
30
0.0000000000
10
0.5495405084
20
17.6905782506
30
0.0000000000
10
0.6156740638
20
17.6972035346
30
0.0000000000
10
0.6804929904
20
17.7068642190
30
0.0000000000
10
0.7434341247
20
17.7194762047
30
0.0000000000
10
0.8039973328
20
17.7349394393
30
0.0000000000
10
0.8616684288
20
17.7531229687
30
0.0000000000
10
0.9159770429
20
17.7738788464
30
0.0000000000
10
0.9504802444
20
17.7897025274
30
0.0000000000
10
0.9670257028
20
17.7980390498
30
0.0000000000
11
-0.2809975512
21
18.0552419816
31
0.0000000000
11
-0.2799081348
21
18.0347848157
31
0.0000000000
11
-0.2731875954
21
18.0006888259
31
0.0000000000
11
-0.2603832230
21
17.9670935790
31
0.0000000000
11
-0.2416138517
21
17.9343143259
31
0.0000000000
11
-0.2170217048
21
17.9025979223
31
0.0000000000
11
-0.1868248782
21
17.8722274764
31
0.0000000000
11
-0.1512643245
21
17.8434447490
31
0.0000000000
11
-0.1106442107
21
17.8164967633
31
0.0000000000
11
-0.0652991719
21
17.7916053068
31
0.0000000000
11
-0.0156091460
21
17.7689792309
31
0.0000000000
11
0.0380089546
21
17.7488081095
31
0.0000000000
11
0.0951138347
21
17.7312581200
31
0.0000000000
11
0.1552154225
21
17.7164793587
31
0.0000000000
11
0.2178352733
21
17.7045897634
31
0.0000000000
11
0.2824144573
21
17.6956947388
31
0.0000000000
11
0.3484666199
21
17.6898617183
31
0.0000000000
11
0.4153719684
21
17.6871447641
31
0.0000000000
11
0.4826570408
21
17.6875635135
31
0.0000000000
11
0.5496653498
21
17.6911135762
31
0.0000000000
11
0.6159386915
21
17.6977707910
31
0.0000000000
11
0.6808273189
21
17.7074702119
31
0.0000000000
11
0.7438763407
21
17.7201435292
31
0.0000000000
11
0.8044925193
21
17.7356725517
31
0.0000000000
11
0.8622162514
21
17.7539390583
31
0.0000000000
11
0.9165430513
21
17.7747850157
31
0.0000000000
11
0.9670257028
21
17.7980390498
31
0.0000000000
0
SPLINE
5
3F9
100
AcDbEntity
8
0
100
AcDbSpline
62
9
6
CONTINUOUS
70
0
71
3
72
14
73
10
74
8
42
0.0000001000
43
0.0000001000
44
0.0000000001
12
0.0000193406
22
-0.1208613400
32
0.0000000000
13
0.1078369398
23
-0.0539184699
33
0.0000000000
40
0.0000000000
40
0.0000000000
40
0.0000000000
40
0.0000000000
40
0.0709351019
40
0.1977503649
40
0.3322666906
40
0.4780654864
40
0.6374087147
40
0.8113588234
40
1.0000000000
40
1.0000000000
40
1.0000000000
40
1.0000000000
10
-16.1356888842
20
-15.6459360804
30
0.0000000000
10
-16.1356884269
20
-15.6487938509
30
0.0000000000
10
-16.1351453301
20
-15.6567611298
30
0.0000000000
10
-16.1317155784
20
-15.6697890963
30
0.0000000000
10
-16.1241704269
20
-15.6844340779
30
0.0000000000
10
-16.1132387468
20
-15.6984253516
30
0.0000000000
10
-16.0991111739
20
-15.7116034731
30
0.0000000000
10
-16.0819969033
20
-15.7238149049
30
0.0000000000
10
-16.0692485327
20
-15.7309340188
30
0.0000000000
10
-16.0624677037
20
-15.7343244333
30
0.0000000000
11
-16.1356888842
21
-15.6459360804
31
0.0000000000
11
-16.1351060278
21
-15.6544822555
31
0.0000000000
11
-16.1312898206
21
-15.6692878706
31
0.0000000000
11
-16.1239708134
21
-15.6837604645
31
0.0000000000
11
-16.1132533788
21
-15.6976936155
31
0.0000000000
11
-16.0992903696
21
-15.7108885931
31
0.0000000000
11
-16.0822809295
21
-15.7231572015
31
0.0000000000
11
-16.0624677037
21
-15.7343244333
31
0.0000000000
0
SPLINE
5
3FA
100
AcDbEntity
8
0
100
AcDbSpline
62
9
6
CONTINUOUS
70
0
71
3
72
12
73
8
74
6
42
0.0000001000
43
0.0000001000
44
0.0000000001
12
-0.1819739976
22
14.9352819737
32
0.0000000000
13
0.3097165871
23
14.9331790924
33
0.0000000000
40
0.0000000000
40
0.0000000000
40
0.0000000000
40
0.0000000000
40
0.1986817612
40
0.3980269476
40
0.5980314761
40
0.7986908845
40
1.0000000000
40
1.0000000000
40
1.0000000000
40
1.0000000000
10
-4.5930872684
20
-10.6556933135
30
0.0000000000
10
-4.6051389065
20
-9.6665706046
30
0.0000000000
10
-4.6226394472
20
-7.6849351464
30
0.0000000000
10
-4.6291369536
20
-4.7074443832
30
0.0000000000
10
-4.6159247039
20
-1.7201279242
30
0.0000000000
10
-4.5830035434
20
1.2768130565
30
0.0000000000
10
-4.5479745667
20
3.2778427648
30
0.0000000000
10
-4.5271916426
20
4.2799044562
30
0.0000000000
11
-4.5930872684
21
-10.6556933135
31
0.0000000000
11
-4.6193272372
21
-7.6882209477
31
0.0000000000
11
-4.6258574779
21
-4.7107305533
31
0.0000000000
11
-4.6126775222
21
-1.7234138823
31
0.0000000000
11
-4.5797881556
21
1.2735329427
31
0.0000000000
11
-4.5271916426
21
4.2799044562
31
0.0000000000
0
SPLINE
5
3FB
100
AcDbEntity
8
0
100
AcDbSpline
62
9
6
CONTINUOUS
70
0
71
3
72
12
73
8
74
6
42
0.0000001000
43
0.0000001000
44
0.0000000001
12
-0.0453423508
22
-0.1052620840
32
0.0000000000
13
0.0013960208
23
-0.1145766096
33
0.0000000000
40
0.0000000000
40
0.0000000000
40
0.0000000000
40
0.0000000000
40
0.2060164797
40
0.4139093790
40
0.6166069174
40
0.8124779204
40
1.0000000000
40
1.0000000000
40
1.0000000000
40
1.0000000000
10
-5.7711225263
20
-9.9434164473
30
0.0000000000
10
-5.7742362835
20
-9.9506450219
30
0.0000000000
10
-5.7799638730
20
-9.9653958324
30
0.0000000000
10
-5.7868141445
20
-9.9879536662
30
0.0000000000
10
-5.7917640008
20
-10.0106095204
30
0.0000000000
10
-5.7946812463
20
-10.0328313914
30
0.0000000000
10
-5.7952560580
20
-10.0474906681
30
0.0000000000
10
-5.7951687964
20
-10.0546525495
30
0.0000000000
11
-5.7711225263
21
-9.9434164473
31
0.0000000000
11
-5.7796581584
21
-9.9654259689
31
0.0000000000
11
-5.7865615767
21
-9.9882251666
31
0.0000000000
11
-5.7914914554
21
-10.0109220601
31
0.0000000000
11
-5.7943747466
21
-10.0331799875
31
0.0000000000
11
-5.7951687964
21
-10.0546525495
31
0.0000000000
0
SPLINE
5
3FC
100
AcDbEntity
8
0
100
AcDbSpline
62
9
6
CONTINUOUS
70
0
71
3
72
10
73
6
74
4
42
0.0000001000
43
0.0000001000
44
0.0000000001
12
-0.0218659839
22
1.4197913515
32
0.0000000000
13
-0.0172997449
23
1.4198543312
33
0.0000000000
40
0.0000000000
40
0.0000000000
40
0.0000000000
40
0.0000000000
40
0.3331536364
40
0.6664868763
40
1.0000000000
40
1.0000000000
40
1.0000000000
40
1.0000000000
10
-5.7755877614
20
-11.4744767081
30
0.0000000000
10
-5.7780160054
20
-11.3168071575
30
0.0000000000
10
-5.7827044128
20
-11.0013804207
30
0.0000000000
10
-5.7892312912
20
-10.5281054364
30
0.0000000000
10
-5.7932455658
20
-10.2124992339
30
0.0000000000
10
-5.7951687964
20
-10.0546525495
30
0.0000000000
11
-5.7755877614
21
-11.4744767081
31
0.0000000000
11
-5.7826186128
21
-11.0014642145
31
0.0000000000
11
-5.7891456251
21
-10.5281894465
31
0.0000000000
11
-5.7951687964
21
-10.0546525495
31
0.0000000000
0
SPLINE
5
3FD
100
AcDbEntity
8
0
100
AcDbSpline
62
7
6
CONTINUOUS
70
0
71
3
72
19
73
15
74
13
42
0.0000001000
43
0.0000001000
44
0.0000000001
12
-0.1264421089
22
-0.0800327140
32
0.0000000000
13
-0.1209154678
23
-0.0881603482
33
0.0000000000
40
0.0000000000
40
0.0000000000
40
0.0000000000
40
0.0000000000
40
0.0729044076
40
0.1728056461
40
0.2701289322
40
0.3646858013
40
0.4562921380
40
0.5447648515
40
0.6299289379
40
0.7116069453
40
0.7896227460
40
0.8638031137
40
0.9339808839
40
1.0000000000
40
1.0000000000
40
1.0000000000
40
1.0000000000
10
-14.7731208308
20
-6.8301297472
30
0.0000000000
10
-14.7761935598
20
-6.8320746597
30
0.0000000000
10
-14.7834688601
20
-6.8366973384
30
0.0000000000
10
-14.7948115305
20
-6.8439705889
30
0.0000000000
10
-14.8070251998
20
-6.8518860680
30
0.0000000000
10
-14.8188539968
20
-6.8596343189
30
0.0000000000
10
-14.8302761342
20
-6.8671973971
30
0.0000000000
10
-14.8412703526
20
-6.8745577985
30
0.0000000000
10
-14.8518156672
20
-6.8816982163
30
0.0000000000
10
-14.8618914132
20
-6.8886014930
30
0.0000000000
10
-14.8714770682
20
-6.8952504104
30
0.0000000000
10
-14.8805526479
20
-6.9016278637
30
0.0000000000
10
-14.8890991375
20
-6.9077170647
30
0.0000000000
10
-14.8946043279
20
-6.9116978800
30
0.0000000000
10
-14.8972652387
20
-6.9136379694
30
0.0000000000
11
-14.7731208308
21
-6.8301297472
31
0.0000000000
11
-14.7823288442
21
-6.8359805164
31
0.0000000000
11
-14.7949131560
21
-6.8440502735
31
0.0000000000
11
-14.8071344421
21
-6.8519711798
31
0.0000000000
11
-14.8189705778
21
-6.8597248838
31
0.0000000000
11
-14.8303999137
21
-6.8672935289
31
0.0000000000
11
-14.8414008941
21
-6.8746594152
31
0.0000000000
11
-14.8519529664
21
-6.8818055313
31
0.0000000000
11
-14.8620353018
21
-6.8887146203
31
0.0000000000
11
-14.8716273050
21
-6.8953694273
31
0.0000000000
11
-14.8807088497
21
-6.9017527645
31
0.0000000000
11
-14.8892607129
21
-6.9078477099
31
0.0000000000
11
-14.8972652387
21
-6.9136379694
31
0.0000000000
0
SPLINE
5
3FE
100
AcDbEntity
8
0
100
AcDbSpline
62
9
6
CONTINUOUS
70
0
71
3
72
14
73
10
74
8
42
0.0000001000
43
0.0000001000
44
0.0000000001
12
-0.1478222528
22
-0.0022085693
32
0.0000000000
13
-0.1322102867
23
0.0661051434
33
0.0000000000
40
0.0000000000
40
0.0000000000
40
0.0000000000
40
0.0000000000
40
0.0973046006
40
0.2597197533
40
0.4194255464
40
0.5747562221
40
0.7241678019
40
0.8662923061
40
1.0000000000
40
1.0000000000
40
1.0000000000
40
1.0000000000
10
-14.7731200121
20
-5.5223254494
30
0.0000000000
10
-14.7779146072
20
-5.5223970841
30
0.0000000000
10
-14.7907155505
20
-5.5223537585
30
0.0000000000
10
-14.8113663188
20
-5.5212715494
30
0.0000000000
10
-14.8347513896
20
-5.5185659190
30
0.0000000000
10
-14.8572794541
20
-5.5144467728
30
0.0000000000
10
-14.8786269797
20
-5.5089733037
30
0.0000000000
10
-14.8984852577
20
-5.5022252500
30
0.0000000000
10
-14.9109537629
20
-5.4967600663
30
0.0000000000
10
-14.9168462737
20
-5.4938138109
30
0.0000000000
11
-14.7731200121
21
-5.5223254494
31
0.0000000000
11
-14.7875045284
21
-5.5222766386
31
0.0000000000
11
-14.8114786782
21
-5.5210117952
31
0.0000000000
11
-14.8349273098
21
-5.5182818788
31
0.0000000000
11
-14.8575084893
21
-5.5141266976
31
0.0000000000
11
-14.8788929323
21
-5.5086068436
31
0.0000000000
11
-14.8987688054
21
-5.5018028086
31
0.0000000000
11
-14.9168462737
21
-5.4938138109
31
0.0000000000
0
SPLINE
5
3FF
100
AcDbEntity
8
0
100
AcDbSpline
62
9
6
CONTINUOUS
70
0
71
3
72
10
73
6
74
4
42
0.0000001000
43
0.0000001000
44
0.0000000001
12
0.0172997449
22
-1.4198543312
32
0.0000000000
13
0.0218659839
23
-1.4197913515
33
0.0000000000
40
0.0000000000
40
0.0000000000
40
0.0000000000
40
0.0000000000
40
0.3335131235
40
0.6668463633
40
1.0000000000
40
1.0000000000
40
1.0000000000
40
1.0000000000
10
-14.9168462737
20
-5.4938138109
30
0.0000000000
10
-14.9149230431
20
-5.6516604952
30
0.0000000000
10
-14.9109087685
20
-5.9672666975
30
0.0000000000
10
-14.9043818901
20
-6.4405416818
30
0.0000000000
10
-14.8996934827
20
-6.7559684187
30
0.0000000000
10
-14.8972652387
20
-6.9136379694
30
0.0000000000
11
-14.9168462737
21
-5.4938138109
31
0.0000000000
11
-14.9108231024
21
-5.9673507075
31
0.0000000000
11
-14.9042960901
21
-6.4406254755
31
0.0000000000
11
-14.8972652387
21
-6.9136379694
31
0.0000000000
0
SPLINE
5
400
100
AcDbEntity
8
0
100
AcDbSpline
62
7
6
CONTINUOUS
70
0
71
3
72
11
73
7
74
5
42
0.0000001000
43
0.0000001000
44
0.0000000001
12
-0.0376980547
22
-0.0240995789
32
0.0000000000
13
-0.0373165442
23
-0.0246862065
33
0.0000000000
40
0.0000000000
40
0.0000000000
40
0.0000000000
40
0.0000000000
40
0.1515229422
40
0.4774878775
40
0.7942455964
40
1.0000000000
40
1.0000000000
40
1.0000000000
40
1.0000000000
10
-16.0105575684
20
-4.8194820377
30
0.0000000000
10
-16.0124616085
20
-4.8206992507
30
0.0000000000
10
-16.0184574257
20
-4.8245417356
30
0.0000000000
10
-16.0284079020
20
-4.8309688612
30
0.0000000000
10
-16.0390035060
20
-4.8378876438
30
0.0000000000
10
-16.0455104116
20
-4.8421759864
30
0.0000000000
10
-16.0480697593
20
-4.8438690850
30
0.0000000000
11
-16.0105575684
21
-4.8194820377
31
0.0000000000
11
-16.0162655724
21
-4.8231401049
31
0.0000000000
11
-16.0285165698
21
-4.8310536565
31
0.0000000000
11
-16.0403830343
21
-4.8388029449
31
0.0000000000
11
-16.0480697593
21
-4.8438690850
31
0.0000000000
0
SPLINE
5
401
100
AcDbEntity
8
0
100
AcDbSpline
62
7
6
CONTINUOUS
70
0
71
3
72
15
73
11
74
9
42
0.0000001000
43
0.0000001000
44
0.0000000001
12
-0.0718112970
22
-0.0475056988
32
0.0000000000
13
-0.0696006643
23
-0.0506891057
33
0.0000000000
40
0.0000000000
40
0.0000000000
40
0.0000000000
40
0.0000000000
40
0.0525763760
40
0.2066463945
40
0.3549845492
40
0.4972807588
40
0.6332271901
40
0.7625209706
40
0.8848696586
40
1.0000000000
40
1.0000000000
40
1.0000000000
40
1.0000000000
10
-16.0480697593
20
-4.8438690850
30
0.0000000000
10
-16.0493282852
20
-4.8447016441
30
0.0000000000
10
-16.0542720098
20
-4.8479781562
30
0.0000000000
10
-16.0627452739
20
-4.8536356506
30
0.0000000000
10
-16.0733219946
20
-4.8607797790
30
0.0000000000
10
-16.0834292776
20
-4.8676892618
30
0.0000000000
10
-16.0930464765
20
-4.8743467650
30
0.0000000000
10
-16.1021534801
20
-4.8807350600
30
0.0000000000
10
-16.1107311424
20
-4.8868372234
30
0.0000000000
10
-16.1162567523
20
-4.8908277622
30
0.0000000000
10
-16.1189278017
20
-4.8927730468
30
0.0000000000
11
-16.0480697593
21
-4.8438690850
31
0.0000000000
11
-16.0518431920
21
-4.8463700012
31
0.0000000000
11
-16.0628753647
21
-4.8537370166
31
0.0000000000
11
-16.0734588806
21
-4.8608868714
31
0.0000000000
11
-16.0835727898
21
-4.8678021984
31
0.0000000000
11
-16.0931963734
21
-4.8744656274
31
0.0000000000
11
-16.1023093784
21
-4.8808598472
31
0.0000000000
11
-16.1108924512
21
-4.8869678011
31
0.0000000000
11
-16.1189278017
21
-4.8927730468
31
0.0000000000
0
SPLINE
5
402
100
AcDbEntity
8
0
100
AcDbSpline
62
9
6
CONTINUOUS
70
0
71
3
72
12
73
8
74
6
42
0.0000001000
43
0.0000001000
44
0.0000000001
12
-0.0453423508
22
-0.1052620840
32
0.0000000000
13
0.0013960208
23
-0.1145766096
33
0.0000000000
40
0.0000000000
40
0.0000000000
40
0.0000000000
40
0.0000000000
40
0.2060164797
40
0.4139093790
40
0.6166069174
40
0.8124779204
40
1.0000000000
40
1.0000000000
40
1.0000000000
40
1.0000000000
10
-14.8928000036
20
-5.3825777086
30
0.0000000000
10
-14.8959137608
20
-5.3898062833
30
0.0000000000
10
-14.9016413503
20
-5.4045570938
30
0.0000000000
10
-14.9084916218
20
-5.4271149276
30
0.0000000000
10
-14.9134414781
20
-5.4497707817
30
0.0000000000
10
-14.9163587236
20
-5.4719926527
30
0.0000000000
10
-14.9169335353
20
-5.4866519295
30
0.0000000000
10
-14.9168462737
20
-5.4938138109
30
0.0000000000
11
-14.8928000036
21
-5.3825777086
31
0.0000000000
11
-14.9013356357
21
-5.4045872303
31
0.0000000000
11
-14.9082390540
21
-5.4273864280
31
0.0000000000
11
-14.9131689327
21
-5.4500833214
31
0.0000000000
11
-14.9160522239
21
-5.4723412489
31
0.0000000000
11
-14.9168462737
21
-5.4938138109
31
0.0000000000
0
SPLINE
5
403
100
AcDbEntity
8
0
100
AcDbSpline
62
9
6
CONTINUOUS
70
0
71
3
72
12
73
8
74
6
42
0.0000001000
43
0.0000001000
44
0.0000000001
12
-0.3097165871
22
-14.9331790924
32
0.0000000000
13
0.1819739976
23
-14.9352819737
33
0.0000000000
40
0.0000000000
40
0.0000000000
40
0.0000000000
40
0.0000000000
40
0.2013091134
40
0.4019685181
40
0.6019730479
40
0.8013182382
40
1.0000000000
40
1.0000000000
40
1.0000000000
40
1.0000000000
10
-16.0530321760
20
10.0428247229
30
0.0000000000
10
-16.0738150998
20
9.0407630417
30
0.0000000000
10
-16.1088440761
20
7.0397333621
30
0.0000000000
10
-16.1417652368
20
4.0427924034
30
0.0000000000
10
-16.1549774870
20
1.0554759371
30
0.0000000000
10
-16.1484799808
20
-1.9220148548
30
0.0000000000
10
-16.1309794399
20
-3.9036503350
30
0.0000000000
10
-16.1189278017
20
-4.8927730468
30
0.0000000000
11
-16.0530321760
21
10.0428247229
31
0.0000000000
11
-16.1056286885
21
7.0364532401
31
0.0000000000
11
-16.1385180549
21
4.0395064704
31
0.0000000000
11
-16.1516980111
21
1.0521897796
31
0.0000000000
11
-16.1451677706
21
-1.9253006724
31
0.0000000000
11
-16.1189278017
21
-4.8927730468
31
0.0000000000
0
SPLINE
5
404
100
AcDbEntity
8
0
100
AcDbSpline
62
9
6
CONTINUOUS
70
0
71
3
72
8
73
4
74
2
42
0.0000001000
43
0.0000001000
44
0.0000000001
12
-0.0047757265
22
-0.2356825908
32
0.0000000000
13
-0.0046560478
23
-0.2356850566
33
0.0000000000
40
0.0000000000
40
0.0000000000
40
0.0000000000
40
0.0000000000
40
1.0000000000
40
1.0000000000
40
1.0000000000
40
1.0000000000
10
-15.7747741695
20
9.8170037538
30
0.0000000000
10
-15.7763660784
20
9.7384428902
30
0.0000000000
10
-15.7779380484
20
9.6598816098
30
0.0000000000
10
-15.7794900644
20
9.5813199243
30
0.0000000000
11
-15.7747741695
21
9.8170037538
31
0.0000000000
11
-15.7794900644
21
9.5813199243
31
0.0000000000
0
SPLINE
5
405
100
AcDbEntity
8
0
100
AcDbSpline
62
7
6
CONTINUOUS
70
0
71
3
72
10
73
6
74
4
42
0.0000001000
43
0.0000001000
44
0.0000000001
12
-0.1485211342
22
4.5075956868
32
0.0000000000
13
-0.1012408434
23
4.5089053766
33
0.0000000000
40
0.0000000000
40
0.0000000000
40
0.0000000000
40
0.0000000000
40
0.3327503625
40
0.6660843730
40
1.0000000000
40
1.0000000000
40
1.0000000000
40
1.0000000000
10
-16.5268004386
20
-13.5484243950
30
0.0000000000
10
-16.5432739256
20
-13.0484563620
30
0.0000000000
10
-16.5744897633
20
-12.0475844378
30
0.0000000000
10
-16.6160921825
20
-10.5448101471
30
0.0000000000
10
-16.6403520683
20
-9.5419931868
30
0.0000000000
10
-16.6516207015
20
-9.0401285315
30
0.0000000000
11
-16.5268004386
21
-13.5484243950
31
0.0000000000
11
-16.5735876667
21
-12.0484358473
31
0.0000000000
11
-16.6151946820
21
-10.5456613853
31
0.0000000000
11
-16.6516207015
21
-9.0401285315
31
0.0000000000
0
SPLINE
5
406
100
AcDbEntity
8
0
100
AcDbSpline
62
7
6
CONTINUOUS
70
0
71
3
72
22
73
18
74
16
42
0.0000001000
43
0.0000001000
44
0.0000000001
12
-0.2130437001
22
0.1065607284
32
0.0000000000
13
-0.1164936903
23
0.2077349597
33
0.0000000000
40
0.0000000000
40
0.0000000000
40
0.0000000000
40
0.0000000000
40
0.0465987444
40
0.1124664457
40
0.1791755003
40
0.2466249830
40
0.3147056044
40
0.3833004725
40
0.4522846701
40
0.5215242064
40
0.5908744630
40
0.6601859297
40
0.7292954091
40
0.7980272758
40
0.8661924927
40
0.9335884185
40
1.0000000000
40
1.0000000000
40
1.0000000000
40
1.0000000000
10
-15.8893464233
20
9.8743055121
30
0.0000000000
10
-15.8926556129
20
9.8759607108
30
0.0000000000
10
-15.9005501105
20
9.8801398660
30
0.0000000000
10
-15.9127718831
20
9.8874327750
30
0.0000000000
10
-15.9259541853
20
9.8963000099
30
0.0000000000
10
-15.9388192479
20
9.9059162720
30
0.0000000000
10
-15.9513426791
20
9.9162096113
30
0.0000000000
10
-15.9635017181
20
9.9271133825
30
0.0000000000
10
-15.9752745328
20
9.9385647224
30
0.0000000000
10
-15.9866397026
20
9.9505031447
30
0.0000000000
10
-15.9975762685
20
9.9628696876
30
0.0000000000
10
-16.0080634838
20
9.9756058133
30
0.0000000000
10
-16.0180808650
20
9.9886525880
30
0.0000000000
10
-16.0276080381
20
10.0019494930
30
0.0000000000
10
-16.0366251747
20
10.0154339473
30
0.0000000000
10
-16.0451132849
20
10.0290405539
30
0.0000000000
10
-16.0504533326
20
10.0382260538
30
0.0000000000
10
-16.0530321760
20
10.0428247229
30
0.0000000000
11
-15.8893464233
21
9.8743055121
31
0.0000000000
11
-15.8991592526
21
9.8794922639
31
0.0000000000
11
-15.9126389541
21
9.8875172475
31
0.0000000000
11
-15.9258294369
21
9.8963739490
31
0.0000000000
11
-15.9387031916
21
9.9059828594
31
0.0000000000
11
-15.9512355166
21
9.9162715754
31
0.0000000000
11
-15.9634035021
21
9.9271731284
31
0.0000000000
11
-15.9751852538
21
9.9386244353
31
0.0000000000
11
-15.9865593447
21
9.9505648787
31
0.0000000000
11
-15.9975044376
21
9.9629349836
31
0.0000000000
11
-16.0080001927
21
9.9756765918
31
0.0000000000
11
-16.0180259975
21
9.9887305839
31
0.0000000000
11
-16.0275614770
21
10.0020364305
31
0.0000000000
11
-16.0365867310
21
10.0155314455
31
0.0000000000
11
-16.0450827695
21
10.0291502703
31
0.0000000000
11
-16.0530321760
21
10.0428247229
31
0.0000000000
0
SPLINE
5
407
100
AcDbEntity
8
0
100
AcDbSpline
62
7
6
CONTINUOUS
70
0
71
3
72
15
73
11
74
9
42
0.0000001000
43
0.0000001000
44
0.0000000001
12
0.1055773757
22
0.0778655192
32
0.0000000000
13
0.1171839816
23
-0.0585919908
33
0.0000000000
40
0.0000000000
40
0.0000000000
40
0.0000000000
40
0.0000000000
40
0.0025684028
40
0.1340544990
40
0.2653519826
40
0.3990850354
40
0.5377861365
40
0.6833203880
40
0.8371407381
40
1.0000000000
40
1.0000000000
40
1.0000000000
40
1.0000000000
10
-15.8369115499
20
19.3581543658
30
0.0000000000
10
-15.8368211615
20
19.3582210292
30
0.0000000000
10
-15.8320973263
20
19.3616921814
30
0.0000000000
10
-15.8221151308
20
19.3677065602
30
0.0000000000
10
-15.8057992256
20
19.3737936920
30
0.0000000000
10
-15.7883512047
20
19.3769016104
30
0.0000000000
10
-15.7700179674
20
19.3770222862
30
0.0000000000
10
-15.7510285876
20
19.3741888883
30
0.0000000000
10
-15.7316136116
20
19.3684647320
30
0.0000000000
10
-15.7188972780
20
19.3629352170
30
0.0000000000
10
-15.7125357790
20
19.3597544676
30
0.0000000000
11
-15.8369115499
21
19.3581543658
31
0.0000000000
11
-15.8366400327
21
19.3583538807
31
0.0000000000
11
-15.8218758352
21
19.3672296358
31
0.0000000000
11
-15.8057648799
21
19.3732584747
31
0.0000000000
11
-15.7885235096
21
19.3763769695
31
0.0000000000
11
-15.7703524434
21
19.3765629877
31
0.0000000000
11
-15.7514829408
21
19.3738239028
31
0.0000000000
11
-15.7321314412
21
19.3681973667
31
0.0000000000
11
-15.7125357790
21
19.3597544676
31
0.0000000000
0
SPLINE
5
408
100
AcDbEntity
8
0
100
AcDbSpline
62
9
6
CONTINUOUS
70
0
71
3
72
14
73
10
74
8
42
0.0000001000
43
0.0000001000
44
0.0000000001
12
-0.0036928619
22
-0.1204152664
32
0.0000000000
13
0.1075077667
23
-0.0536603744
33
0.0000000000
40
0.0000000000
40
0.0000000000
40
0.0000000000
40
0.0000000000
40
0.0827873966
40
0.2048830061
40
0.3358773817
40
0.4793582952
40
0.6374540711
40
0.8110383827
40
1.0000000000
40
1.0000000000
40
1.0000000000
40
1.0000000000
10
-18.6849344151
20
16.6195351658
30
0.0000000000
10
-18.6850363225
20
16.6162122103
30
0.0000000000
10
-18.6845655372
20
16.6079641753
30
0.0000000000
10
-18.6809351410
20
16.5948788362
30
0.0000000000
10
-18.6733645334
20
16.5807903211
30
0.0000000000
10
-18.6624235859
20
16.5672512180
30
0.0000000000
10
-18.6482977735
20
16.5544072269
30
0.0000000000
10
-18.6311907086
20
16.5424059277
30
0.0000000000
10
-18.6184681558
20
16.5353518878
30
0.0000000000
10
-18.6116965419
20
16.5319719708
30
0.0000000000
11
-18.6849344151
21
16.6195351658
31
0.0000000000
11
-18.6843711547
21
16.6095900587
31
0.0000000000
11
-18.6805435349
21
16.5954277190
31
0.0000000000
11
-18.6732151285
21
16.5814981589
31
0.0000000000
11
-18.6624904432
21
16.5680000226
31
0.0000000000
11
-18.6485224199
21
16.5551258021
31
0.0000000000
11
-18.6315102514
21
16.5430590918
31
0.0000000000
11
-18.6116965419
21
16.5319719708
31
0.0000000000
0
SPLINE
5
409
100
AcDbEntity
8
0
100
AcDbSpline
62
7
6
CONTINUOUS
70
0
71
3
72
33
73
29
74
27
42
0.0000001000
43
0.0000001000
44
0.0000000001
12
-1.2695980960
22
-0.6396941561
32
0.0000000000
13
-0.0000889505
23
1.4235812450
33
0.0000000000
40
0.0000000000
40
0.0000000000
40
0.0000000000
40
0.0000000000
40
0.0390961324
40
0.0800267213
40
0.1226145530
40
0.1666294244
40
0.2118656900
40
0.2580159804
40
0.3048677912
40
0.3520680840
40
0.3993978688
40
0.4464984245
40
0.4931408684
40
0.5389952706
40
0.5838295160
40
0.6273648132
40
0.6693870157
40
0.7096830016
40
0.7480883005
40
0.7844740012
40
0.8187624435
40
0.8509428733
40
0.8810682300
40
0.9092985145
40
0.9358680638
40
0.9611574461
40
0.9856022928
40
1.0000000000
40
1.0000000000
40
1.0000000000
40
1.0000000000
10
-9.0738905901
20
22.1689781434
30
0.0000000000
10
-9.0904360485
20
22.1606416210
30
0.0000000000
10
-9.1249392499
20
22.1448179400
30
0.0000000000
10
-9.1792478640
20
22.1240620623
30
0.0000000000
10
-9.2369189601
20
22.1058785329
30
0.0000000000
10
-9.2974821682
20
22.0904152983
30
0.0000000000
10
-9.3604233024
20
22.0778033126
30
0.0000000000
10
-9.4252422290
20
22.0681426282
30
0.0000000000
10
-9.4913757844
20
22.0615173442
30
0.0000000000
10
-9.5583052171
20
22.0579794224
30
0.0000000000
10
-9.6254445642
20
22.0575598776
30
0.0000000000
10
-9.6922665108
20
22.0602620455
30
0.0000000000
10
-9.7581900464
20
22.0660622708
30
0.0000000000
10
-9.8226909247
20
22.0749144563
30
0.0000000000
10
-9.8852169451
20
22.0867425783
30
0.0000000000
10
-9.9452632178
20
22.1014511853
30
0.0000000000
10
-10.0023245188
20
22.1189165211
30
0.0000000000
10
-10.0559352806
20
22.1389966132
30
0.0000000000
10
-10.1056515054
20
22.1615263593
30
0.0000000000
10
-10.1510662956
20
22.1863241390
30
0.0000000000
10
-10.1918085603
20
22.2131929662
30
0.0000000000
10
-10.2275427786
20
22.2419225304
30
0.0000000000
10
-10.2579752939
20
22.2722972270
30
0.0000000000
10
-10.2828395791
20
22.3040877711
30
0.0000000000
10
-10.3019062032
20
22.3370637631
30
0.0000000000
10
-10.3149626414
20
22.3709576420
30
0.0000000000
10
-10.3209329079
20
22.4009167287
30
0.0000000000
10
-10.3219134171
20
22.4193489732
30
0.0000000000
10
-10.3219138440
20
22.4261810752
30
0.0000000000
11
-9.0738905901
21
22.1689781434
31
0.0000000000
11
-9.1243732416
21
22.1457241093
31
0.0000000000
11
-9.1787000414
21
22.1248781519
31
0.0000000000
11
-9.2364237735
21
22.1066116453
31
0.0000000000
11
-9.2970399521
21
22.0910826228
31
0.0000000000
11
-9.3600889740
21
22.0784093055
31
0.0000000000
11
-9.4249776014
21
22.0687098846
31
0.0000000000
11
-9.4912509431
21
22.0620526698
31
0.0000000000
11
-9.5582592521
21
22.0585026070
31
0.0000000000
11
-9.6255443245
21
22.0580838577
31
0.0000000000
11
-9.6924496730
21
22.0608008119
31
0.0000000000
11
-9.7585018356
21
22.0666338324
31
0.0000000000
11
-9.8230810195
21
22.0755288570
31
0.0000000000
11
-9.8857008704
21
22.0874184522
31
0.0000000000
11
-9.9458024582
21
22.1021972135
31
0.0000000000
11
-10.0029073383
21
22.1197472031
31
0.0000000000
11
-10.0565254388
21
22.1399183245
31
0.0000000000
11
-10.1062154647
21
22.1625444003
31
0.0000000000
11
-10.1515605036
21
22.1874358568
31
0.0000000000
11
-10.1921806174
21
22.2143838426
31
0.0000000000
11
-10.2277411711
21
22.2431665700
31
0.0000000000
11
-10.2579379977
21
22.2735370159
31
0.0000000000
11
-10.2825301445
21
22.3052534195
31
0.0000000000
11
-10.3012995159
21
22.3380326726
31
0.0000000000
11
-10.3141038882
21
22.3716279195
31
0.0000000000
11
-10.3208244276
21
22.4057239093
31
0.0000000000
11
-10.3219138440
21
22.4261810752
31
0.0000000000
0
SPLINE
5
40A
100
AcDbEntity
8
0
100
AcDbSpline
62
9
6
CONTINUOUS
70
0
71
3
72
14
73
10
74
8
42
0.0000001000
43
0.0000001000
44
0.0000000001
12
0.0995948152
22
0.0734577093
32
0.0000000000
13
0.1113269200
23
-0.0534099901
33
0.0000000000
40
0.0000000000
40
0.0000000000
40
0.0000000000
40
0.0000000000
40
0.0617146078
40
0.1925487150
40
0.3301236902
40
0.4779151586
40
0.6382121066
40
0.8121724544
40
1.0000000000
40
1.0000000000
40
1.0000000000
40
1.0000000000
10
-18.1532633589
20
17.6497099458
30
0.0000000000
10
-18.1512145406
20
17.6512210837
30
0.0000000000
10
-18.1445647780
20
17.6555865401
30
0.0000000000
10
-18.1319971748
20
17.6610426187
30
0.0000000000
10
-18.1150820658
20
17.6644010018
30
0.0000000000
10
-18.0966490181
20
17.6645658912
30
0.0000000000
10
-18.0769620560
20
17.6615853350
30
0.0000000000
10
-18.0562886221
20
17.6555322827
30
0.0000000000
10
-18.0425403554
20
17.6497275945
30
0.0000000000
10
-18.0355702680
20
17.6463836388
30
0.0000000000
11
-18.1532633589
21
17.6497099458
31
0.0000000000
11
-18.1468819513
21
17.6538979234
31
0.0000000000
11
-18.1320897460
21
17.6603917933
31
0.0000000000
11
-18.1154495814
21
17.6638079182
31
0.0000000000
11
-18.0972031742
21
17.6640966749
31
0.0000000000
11
-18.0776155736
21
17.6612538691
31
0.0000000000
11
-18.0569713113
21
17.6553207955
31
0.0000000000
11
-18.0355702680
21
17.6463836388
31
0.0000000000
0
SPLINE
5
40B
100
AcDbEntity
8
0
100
AcDbSpline
62
7
6
CONTINUOUS
70
0
71
3
72
33
73
29
74
27
42
0.0000001000
43
0.0000001000
44
0.0000000001
12
-1.2695980960
22
-0.6396941561
32
0.0000000000
13
-0.0000889505
23
1.4235812450
33
0.0000000000
40
0.0000000000
40
0.0000000000
40
0.0000000000
40
0.0000000000
40
0.0390961324
40
0.0800267213
40
0.1226145530
40
0.1666294244
40
0.2118656900
40
0.2580159804
40
0.3048677912
40
0.3520680840
40
0.3993978688
40
0.4464984245
40
0.4931408684
40
0.5389952706
40
0.5838295160
40
0.6273648132
40
0.6693870157
40
0.7096830016
40
0.7480883005
40
0.7844740012
40
0.8187624435
40
0.8509428733
40
0.8810682300
40
0.9092985145
40
0.9358680638
40
0.9611574461
40
0.9856022928
40
1.0000000000
40
1.0000000000
40
1.0000000000
40
1.0000000000
10
0.9670257028
20
17.1485199970
30
0.0000000000
10
0.9504802444
20
17.1401834745
30
0.0000000000
10
0.9159770429
20
17.1243597936
30
0.0000000000
10
0.8616684288
20
17.1036039159
30
0.0000000000
10
0.8039973328
20
17.0854203865
30
0.0000000000
10
0.7434341247
20
17.0699571519
30
0.0000000000
10
0.6804929904
20
17.0573451661
30
0.0000000000
10
0.6156740638
20
17.0476844817
30
0.0000000000
10
0.5495405084
20
17.0410591977
30
0.0000000000
10
0.4826110757
20
17.0375212759
30
0.0000000000
10
0.4154717286
20
17.0371017311
30
0.0000000000
10
0.3486497821
20
17.0398038990
30
0.0000000000
10
0.2827262464
20
17.0456041244
30
0.0000000000
10
0.2182253681
20
17.0544563098
30
0.0000000000
10
0.1556993477
20
17.0662844319
30
0.0000000000
10
0.0956530751
20
17.0809930389
30
0.0000000000
10
0.0385917741
20
17.0984583746
30
0.0000000000
10
-0.0150189877
20
17.1185384667
30
0.0000000000
10
-0.0647352126
20
17.1410682129
30
0.0000000000
10
-0.1101500028
20
17.1658659926
30
0.0000000000
10
-0.1508922675
20
17.1927348197
30
0.0000000000
10
-0.1866264857
20
17.2214643839
30
0.0000000000
10
-0.2170590010
20
17.2518390806
30
0.0000000000
10
-0.2419232863
20
17.2836296247
30
0.0000000000
10
-0.2609899104
20
17.3166056166
30
0.0000000000
10
-0.2740463486
20
17.3504994956
30
0.0000000000
10
-0.2800166151
20
17.3804585822
30
0.0000000000
10
-0.2809971243
20
17.3988908268
30
0.0000000000
10
-0.2809975512
20
17.4057229288
30
0.0000000000
11
0.9670257028
21
17.1485199970
31
0.0000000000
11
0.9165430513
21
17.1252659629
31
0.0000000000
11
0.8622162514
21
17.1044200055
31
0.0000000000
11
0.8044925193
21
17.0861534989
31
0.0000000000
11
0.7438763407
21
17.0706244764
31
0.0000000000
11
0.6808273189
21
17.0579511591
31
0.0000000000
11
0.6159386915
21
17.0482517381
31
0.0000000000
11
0.5496653498
21
17.0415945234
31
0.0000000000
11
0.4826570408
21
17.0380444606
31
0.0000000000
11
0.4153719684
21
17.0376257112
31
0.0000000000
11
0.3484666199
21
17.0403426655
31
0.0000000000
11
0.2824144573
21
17.0461756860
31
0.0000000000
11
0.2178352733
21
17.0550707105
31
0.0000000000
11
0.1552154225
21
17.0669603058
31
0.0000000000
11
0.0951138347
21
17.0817390671
31
0.0000000000
11
0.0380089546
21
17.0992890567
31
0.0000000000
11
-0.0156091460
21
17.1194601781
31
0.0000000000
11
-0.0652991719
21
17.1420862539
31
0.0000000000
11
-0.1106442107
21
17.1669777104
31
0.0000000000
11
-0.1512643245
21
17.1939256962
31
0.0000000000
11
-0.1868248782
21
17.2227084236
31
0.0000000000
11
-0.2170217048
21
17.2530788695
31
0.0000000000
11
-0.2416138517
21
17.2847952730
31
0.0000000000
11
-0.2603832230
21
17.3175745261
31
0.0000000000
11
-0.2731875954
21
17.3511697731
31
0.0000000000
11
-0.2799081348
21
17.3852657628
31
0.0000000000
11
-0.2809975512
21
17.4057229288
31
0.0000000000
0
SPLINE
5
40C
100
AcDbEntity
8
0
100
AcDbSpline
62
9
6
CONTINUOUS
70
0
71
3
72
15
73
11
74
9
42
0.0000001000
43
0.0000001000
44
0.0000000001
12
0.0000000000
22
-0.2415899782
32
0.0000000000
13
-0.2157570451
23
-0.1078785226
33
0.0000000000
40
0.0000000000
40
0.0000000000
40
0.0000000000
40
0.0000000000
40
0.1020723901
40
0.2070113063
40
0.3173570296
40
0.4351112158
40
0.5616688887
40
0.6978522699
40
0.8439894108
40
1.0000000000
40
1.0000000000
40
1.0000000000
40
1.0000000000
10
9.2028249149
20
-14.8400373850
30
0.0000000000
10
9.2028249149
20
-14.8482572738
30
0.0000000000
10
9.2011626234
20
-14.8649278928
30
0.0000000000
10
9.1937692780
20
-14.8895048809
30
0.0000000000
10
9.1815983353
20
-14.9134980407
30
0.0000000000
10
9.1648237603
20
-14.9366850647
30
0.0000000000
10
9.1436395413
20
-14.9588712165
30
0.0000000000
10
9.1182598685
20
-14.9798725838
30
0.0000000000
10
9.0889301689
20
-14.9995083050
30
0.0000000000
10
9.0675984334
20
-15.0112040163
30
0.0000000000
10
9.0563783054
20
-15.0168140803
30
0.0000000000
11
9.2028249149
21
-14.8400373850
31
0.0000000000
11
9.2004172782
21
-14.8645416701
31
0.0000000000
11
9.1932175551
21
-14.8888099655
31
0.0000000000
11
9.1812950827
21
-14.9126085543
31
0.0000000000
11
9.1647646811
21
-14.9357082431
31
0.0000000000
11
9.1437855470
21
-14.9578865692
31
0.0000000000
11
9.1185597210
21
-14.9789299433
31
0.0000000000
11
9.0893301415
21
-14.9986357060
31
0.0000000000
11
9.0563783054
21
-15.0168140803
31
0.0000000000
0
SPLINE
5
40D
100
AcDbEntity
8
0
100
AcDbSpline
62
9
6
CONTINUOUS
70
0
71
3
72
14
73
10
74
8
42
0.0000001000
43
0.0000001000
44
0.0000000001
12
0.0038765591
22
-0.1208421217
32
0.0000000000
13
0.1078644919
23
-0.0540202054
33
0.0000000000
40
0.0000000000
40
0.0000000000
40
0.0000000000
40
0.0000000000
40
0.0564235971
40
0.1882593119
40
0.3266829652
40
0.4752469721
40
0.6363237051
40
0.8111500091
40
1.0000000000
40
1.0000000000
40
1.0000000000
40
1.0000000000
10
-18.6849261339
20
-12.4171617117
30
0.0000000000
10
-18.6848532241
20
-12.4194344940
30
0.0000000000
10
-18.6842362326
20
-12.4270054269
30
0.0000000000
10
-18.6809983232
20
-12.4398495569
30
0.0000000000
10
-18.6734604180
20
-12.4550370739
30
0.0000000000
10
-18.6625256457
20
-12.4694700908
30
0.0000000000
10
-18.6483880680
20
-12.4829752825
30
0.0000000000
10
-18.6312620660
20
-12.4953923996
30
0.0000000000
10
-18.6184866529
20
-12.5025757508
30
0.0000000000
10
-18.6116965835
20
-12.5059763225
30
0.0000000000
11
-18.6849261339
21
-12.4171617117
31
0.0000000000
11
-18.6843711959
21
-12.4239574978
31
0.0000000000
11
-18.6805435785
21
-12.4393941047
31
0.0000000000
11
-18.6732151737
21
-12.4543989295
31
0.0000000000
11
-18.6624904889
21
-12.4687579937
31
0.0000000000
11
-18.6485224652
21
-12.4822665281
31
0.0000000000
11
-18.6315102952
21
-12.4947318924
31
0.0000000000
11
-18.6116965835
21
-12.5059763225
31
0.0000000000
0
SPLINE
5
40E
100
AcDbEntity
8
0
100
AcDbSpline
62
7
6
CONTINUOUS
70
0
71
3
72
19
73
15
74
13
42
0.0000001000
43
0.0000001000
44
0.0000000001
12
0.1388183054
22
0.0694091527
32
0.0000000000
13
0.1419068496
23
-0.0708667476
33
0.0000000000
40
0.0000000000
40
0.0000000000
40
0.0000000000
40
0.0000000000
40
0.1675428535
40
0.3180768329
40
0.4517904875
40
0.5691045130
40
0.6706179522
40
0.7570553393
40
0.8292251178
40
0.8879985950
40
0.9343232604
40
0.9693051362
40
0.9944820339
40
1.0000000000
40
1.0000000000
40
1.0000000000
40
1.0000000000
10
9.0563783054
20
-16.0127432947
30
0.0000000000
10
9.0641309771
20
-16.0088669588
30
0.0000000000
10
9.0788926522
20
-16.0015939586
30
0.0000000000
10
9.1000037758
20
-15.9915607160
30
0.0000000000
10
9.1189124613
20
-15.9829530542
30
0.0000000000
10
9.1356581791
20
-15.9757228014
30
0.0000000000
10
9.1503041254
20
-15.9698097084
30
0.0000000000
10
9.1629302979
20
-15.9651465530
30
0.0000000000
10
9.1736262179
20
-15.9616604752
30
0.0000000000
10
9.1824893533
20
-15.9592812620
30
0.0000000000
10
9.1896170399
20
-15.9579253047
30
0.0000000000
10
9.1951355446
20
-15.9575405651
30
0.0000000000
10
9.1985321101
20
-15.9579393470
30
0.0000000000
10
9.2000374685
20
-15.9585706242
30
0.0000000000
10
9.2002984808
20
-15.9587009709
30
0.0000000000
11
9.0563783054
21
-16.0127432947
31
0.0000000000
11
9.0797101307
21
-16.0012630940
31
0.0000000000
11
9.1008184654
21
-15.9912487404
31
0.0000000000
11
9.1197140414
21
-15.9826675103
31
0.0000000000
11
9.1364387571
21
-15.9754703566
31
0.0000000000
11
9.1510582470
21
-15.9695968225
31
0.0000000000
11
9.1636541199
21
-15.9649798175
31
0.0000000000
11
9.1743169826
21
-15.9615496650
31
0.0000000000
11
9.1831408448
21
-15.9592371598
31
0.0000000000
11
9.1902190585
21
-15.9579756311
31
0.0000000000
11
9.1956414787
21
-15.9577021483
31
0.0000000000
11
9.1994935846
21
-15.9583580346
31
0.0000000000
11
9.2002984808
21
-15.9587009709
31
0.0000000000
0
SPLINE
5
40F
100
AcDbEntity
8
0
100
AcDbSpline
62
9
6
CONTINUOUS
70
0
71
3
72
23
73
19
74
17
42
0.0000001000
43
0.0000001000
44
0.0000000001
12
0.6585523229
22
-0.3292761615
32
0.0000000000
13
-0.0000000000
23
-0.7362838804
33
0.0000000000
40
0.0000000000
40
0.0000000000
40
0.0000000000
40
0.0000000000
40
0.0539492403
40
0.1103639079
40
0.1690983938
40
0.2299394620
40
0.2926181657
40
0.3568207346
40
0.4221985136
40
0.4883772071
40
0.5549656237
40
0.6215641040
40
0.6877728270
40
0.7532000021
40
0.8174705107
40
0.8802333548
40
0.9411734775
40
1.0000000000
40
1.0000000000
40
1.0000000000
40
1.0000000000
10
8.7028249149
20
-14.4070246831
30
0.0000000000
10
8.7146677140
20
-14.4129460827
30
0.0000000000
10
8.7383104878
20
-14.4262560092
30
0.0000000000
10
8.7725975138
20
-14.4497191245
30
0.0000000000
10
8.8062082813
20
-14.4769169817
30
0.0000000000
10
8.8388207190
20
-14.5075870745
30
0.0000000000
10
8.8701270323
20
-14.5414371788
30
0.0000000000
10
8.8998291007
20
-14.5781438434
30
0.0000000000
10
8.9276438870
20
-14.6173564044
30
0.0000000000
10
8.9533057810
20
-14.6586999774
30
0.0000000000
10
8.9765695146
20
-14.7017791552
30
0.0000000000
10
8.9972126048
20
-14.7461818632
30
0.0000000000
10
9.0150375773
20
-14.7914833750
30
0.0000000000
10
9.0298739019
20
-14.8372506899
30
0.0000000000
10
9.0415795168
20
-14.8830460774
30
0.0000000000
10
9.0500422430
20
-14.9284335931
30
0.0000000000
10
9.0551800204
20
-14.9729720179
30
0.0000000000
10
9.0563783054
20
-15.0023764069
30
0.0000000000
10
9.0563783054
20
-15.0168140803
30
0.0000000000
11
8.7028249149
21
-14.4070246831
31
0.0000000000
11
8.7374800583
21
-14.4264374320
31
0.0000000000
11
8.7718014710
21
-14.4498335957
31
0.0000000000
11
8.8054585644
21
-14.4769878248
31
0.0000000000
11
8.8381271841
21
-14.5076385929
31
0.0000000000
11
8.8694926914
21
-14.5414906920
31
0.0000000000
11
8.8992530022
21
-14.5782180833
31
0.0000000000
11
8.9271214916
21
-14.6174670326
31
0.0000000000
11
8.9528297570
21
-14.6588595188
31
0.0000000000
11
8.9761302047
21
-14.7019968778
31
0.0000000000
11
8.9967984354
21
-14.7464636459
31
0.0000000000
11
9.0146354138
21
-14.7918315885
31
0.0000000000
11
9.0294693611
21
-14.8376637766
31
0.0000000000
11
9.0411574511
21
-14.8835189587
31
0.0000000000
11
9.0495869965
21
-14.9289548946
31
0.0000000000
11
9.0546769548
21
-14.9735344877
31
0.0000000000
11
9.0563783054
21
-15.0168140803
31
0.0000000000
0
SPLINE
5
410
100
AcDbEntity
8
0
100
AcDbSpline
62
9
6
CONTINUOUS
70
0
71
3
72
14
73
10
74
8
42
0.0000001000
43
0.0000001000
44
0.0000000001
12
0.2077259176
22
0.1038629588
32
0.0000000000
13
0.2079464966
23
-0.1039619869
33
0.0000000000
40
0.0000000000
40
0.0000000000
40
0.0000000000
40
0.0000000000
40
0.1630098610
40
0.3180940882
40
0.4656917910
40
0.6066215269
40
0.7420961635
40
0.8737000638
40
1.0000000000
40
1.0000000000
40
1.0000000000
40
1.0000000000
10
8.7028249149
20
-14.4070246831
30
0.0000000000
10
8.7141120392
20
-14.4013811210
30
0.0000000000
10
8.7366729016
20
-14.3913906509
30
0.0000000000
10
8.7710633894
20
-14.3803373105
30
0.0000000000
10
8.8048477722
20
-14.3737040964
30
0.0000000000
10
8.8377028703
20
-14.3715763968
30
0.0000000000
10
8.8693093531
20
-14.3739992542
30
0.0000000000
10
8.8990934744
20
-14.3809152440
30
0.0000000000
10
8.9176740285
20
-14.3884454327
30
0.0000000000
10
8.9264285716
20
-14.3928222302
30
0.0000000000
11
8.7028249149
21
-14.4070246831
31
0.0000000000
11
8.7374792072
21
-14.3917826115
31
0.0000000000
11
8.7717997597
21
-14.3808574784
31
0.0000000000
11
8.8054560467
21
-14.3743544987
31
0.0000000000
11
8.8381239399
21
-14.3723362999
31
0.0000000000
11
8.8694888295
21
-14.3748223182
31
0.0000000000
11
8.8992486544
21
-14.3817886118
31
0.0000000000
11
8.9264285716
21
-14.3928222302
31
0.0000000000
0
SPLINE
5
411
100
AcDbEntity
8
0
100
AcDbSpline
62
9
6
CONTINUOUS
70
0
71
3
72
18
73
14
74
12
42
0.0000001000
43
0.0000001000
44
0.0000000001
12
-0.5319411258
22
0.2659909878
32
0.0000000000
13
-0.0192111786
23
0.5939922229
33
0.0000000000
40
0.0000000000
40
0.0000000000
40
0.0000000000
40
0.0000000000
40
0.0493497103
40
0.1311158084
40
0.2143509002
40
0.2998339382
40
0.3882284323
40
0.4800654032
40
0.5757347852
40
0.6754928267
40
0.7794664220
40
0.8876638035
40
1.0000000000
40
1.0000000000
40
1.0000000000
40
1.0000000000
10
-18.3557486281
20
-13.0112646785
30
0.0000000000
10
-18.3644990083
20
-13.0068891525
30
0.0000000000
10
-18.3872816431
20
-12.9943314966
30
0.0000000000
10
-18.4221850790
20
-12.9699360928
30
0.0000000000
10
-18.4589736489
20
-12.9364414755
30
0.0000000000
10
-18.4922321195
20
-12.8977055081
30
0.0000000000
10
-18.5217564806
20
-12.8539955573
30
0.0000000000
10
-18.5473717726
20
-12.8056041065
30
0.0000000000
10
-18.5689296361
20
-12.7528459566
30
0.0000000000
10
-18.5863061953
20
-12.6960584514
30
0.0000000000
10
-18.5994015420
20
-12.6356001666
30
0.0000000000
10
-18.6081404728
20
-12.5718547697
30
0.0000000000
10
-18.6109772133
20
-12.5282185982
30
0.0000000000
10
-18.6116965835
20
-12.5059763225
30
0.0000000000
11
-18.3557486281
21
-13.0112646785
31
0.0000000000
11
-18.3814460312
21
-12.9971011915
31
0.0000000000
11
-18.4212990575
21
-12.9692965909
31
0.0000000000
11
-18.4579242290
21
-12.9360465389
31
0.0000000000
11
-18.4910889349
21
-12.8975624154
31
0.0000000000
11
-18.5205818849
21
-12.8540895261
31
0.0000000000
11
-18.5462154535
21
-12.8059046311
31
0.0000000000
11
-18.5678262673
21
-12.7533152433
31
0.0000000000
11
-18.5852772512
21
-12.6966552892
31
0.0000000000
11
-18.5984572942
21
-12.6362854872
31
0.0000000000
11
-18.6072823027
21
-12.5725919440
31
0.0000000000
11
-18.6116965835
21
-12.5059763225
31
0.0000000000
0
SPLINE
5
412
100
AcDbEntity
8
0
100
AcDbSpline
62
7
6
CONTINUOUS
70
0
71
3
72
11
73
7
74
5
42
0.0000001000
43
0.0000001000
44
0.0000000001
12
0.1554593659
22
0.0099611044
32
0.0000000000
13
0.1394560383
23
-0.0697188729
33
0.0000000000
40
0.0000000000
40
0.0000000000
40
0.0000000000
40
0.0000000000
40
0.2696224653
40
0.5306968454
40
0.7860472075
40
1.0000000000
40
1.0000000000
40
1.0000000000
40
1.0000000000
10
-0.6560803609
20
26.4790146158
30
0.0000000000
10
-0.6421085818
20
26.4799098616
30
0.0000000000
10
-0.6144642037
20
26.4800148713
30
0.0000000000
10
-0.5738637885
20
26.4747682606
30
0.0000000000
10
-0.5371711616
20
26.4646743071
30
0.0000000000
10
-0.5146840161
20
26.4551091592
30
0.0000000000
10
-0.5047383465
20
26.4501369767
30
0.0000000000
11
-0.6560803609
21
26.4790146158
31
0.0000000000
11
-0.6140791105
21
26.4790751427
31
0.0000000000
11
-0.5737546918
21
26.4737869613
31
0.0000000000
11
-0.5354140281
21
26.4631905589
31
0.0000000000
11
-0.5047383465
21
26.4501369767
31
0.0000000000
0
SPLINE
5
413
100
AcDbEntity
8
0
100
AcDbSpline
62
7
6
CONTINUOUS
70
0
71
3
72
11
73
7
74
5
42
0.0000001000
43
0.0000001000
44
0.0000000001
12
0.0336653770
22
0.0283938431
32
0.0000000000
13
0.0050593559
23
0.0347394726
33
0.0000000000
40
0.0000000000
40
0.0000000000
40
0.0000000000
40
0.0000000000
40
0.4278568979
40
0.7470188782
40
0.9453505608
40
1.0000000000
40
1.0000000000
40
1.0000000000
40
1.0000000000
10
0.8395811785
20
25.7311838461
30
0.0000000000
10
0.8443824997
20
25.7352333466
30
0.0000000000
10
0.8527236006
20
25.7420528959
30
0.0000000000
10
0.8631542480
20
25.7521555609
30
0.0000000000
10
0.8690767682
20
25.7564750352
30
0.0000000000
10
0.8714441364
20
25.7609287400
30
0.0000000000
10
0.8715363001
20
25.7615615709
30
0.0000000000
11
0.8395811785
21
25.7311838461
31
0.0000000000
11
0.8539048702
21
25.7434268898
31
0.0000000000
11
0.8643531666
21
25.7528293345
31
0.0000000000
11
0.8704096004
21
25.7591232522
31
0.0000000000
11
0.8715363001
21
25.7615615709
31
0.0000000000
0
SPLINE
5
414
100
AcDbEntity
8
0
100
AcDbSpline
62
9
6
CONTINUOUS
70
0
71
3
72
35
73
31
74
29
42
0.0000001000
43
0.0000001000
44
0.0000000001
12
-1.7096495375
22
-0.7987096936
32
0.0000000000
13
-0.0002408460
23
1.8893322681
33
0.0000000000
40
0.0000000000
40
0.0000000000
40
0.0000000000
40
0.0000000000
40
0.0357630702
40
0.0731802867
40
0.1121102716
40
0.1523836239
40
0.1938122213
40
0.2361919282
40
0.2793048153
40
0.3229240872
40
0.3668164826
40
0.4107457010
40
0.4544743638
40
0.4977682100
40
0.5403978867
40
0.5821431774
40
0.6227949270
40
0.6621598029
40
0.7000627349
40
0.7363524539
40
0.7709050899
40
0.8036311887
40
0.8344814429
40
0.8634561317
40
0.8906138564
40
0.9160833123
40
0.9400727207
40
0.9628771017
40
0.9848748382
40
1.0000000000
40
1.0000000000
40
1.0000000000
40
1.0000000000
10
5.0468381613
20
-23.8946673751
30
0.0000000000
10
5.0264573892
20
-23.9041888121
30
0.0000000000
10
4.9840882637
20
-23.9222724893
30
0.0000000000
10
4.9176625418
20
-23.9460516590
30
0.0000000000
10
4.8473157535
20
-23.9669655028
30
0.0000000000
10
4.7735475254
20
-23.9848648954
30
0.0000000000
10
4.6968786660
20
-23.9996234974
30
0.0000000000
10
4.6178522781
20
-24.0111364012
30
0.0000000000
10
4.5370284405
20
-24.0193217680
30
0.0000000000
10
4.4549808098
20
-24.0241213263
30
0.0000000000
10
4.3722913951
20
-24.0255009608
30
0.0000000000
10
4.2895471168
20
-24.0234508930
30
0.0000000000
10
4.2073350623
20
-24.0179857878
30
0.0000000000
10
4.1262387618
20
-24.0091446630
30
0.0000000000
10
4.0468331414
20
-23.9969905161
30
0.0000000000
10
3.9696811162
20
-23.9816098930
30
0.0000000000
10
3.8953287019
20
-23.9631120506
30
0.0000000000
10
3.8243017676
20
-23.9416281709
30
0.0000000000
10
3.7571013533
20
-23.9173099610
30
0.0000000000
10
3.6942007566
20
-23.8903284047
30
0.0000000000
10
3.6360413799
20
-23.8608716495
30
0.0000000000
10
3.5830304622
20
-23.8291430637
30
0.0000000000
10
3.5355381819
20
-23.7953581956
30
0.0000000000
10
3.4938972127
20
-23.7597421045
30
0.0000000000
10
3.4584030721
20
-23.7225261650
30
0.0000000000
10
3.4293179191
20
-23.6839473298
30
0.0000000000
10
3.4068753452
20
-23.6442510338
30
0.0000000000
10
3.3912834218
20
-23.6037022701
30
0.0000000000
10
3.3835556309
20
-23.5666292529
30
0.0000000000
10
3.3821511148
20
-23.5432490210
30
0.0000000000
10
3.3821499005
20
-23.5337235356
30
0.0000000000
11
5.0468381613
21
-23.8946673751
31
0.0000000000
11
4.9848094191
21
-23.9212519167
31
0.0000000000
11
4.9183625100
21
-23.9451298086
31
0.0000000000
11
4.8479671910
21
-23.9661323282
31
0.0000000000
11
4.7741274102
21
-23.9841090869
31
0.0000000000
11
4.6973690498
21
-23.9989321681
31
0.0000000000
11
4.6182382594
21
-24.0104961295
31
0.0000000000
11
4.5373000156
21
-24.0187184467
31
0.0000000000
11
4.4551310206
21
-24.0235406417
31
0.0000000000
11
4.3723168874
21
-24.0249284542
31
0.0000000000
11
4.2894471508
21
-24.0228720827
31
0.0000000000
11
4.2071129093
21
-24.0173862784
31
0.0000000000
11
4.1259002361
21
-24.0085101807
31
0.0000000000
11
4.0463882198
21
-23.9963071688
31
0.0000000000
11
3.9691426531
21
-23.9808641538
31
0.0000000000
11
3.8947143867
21
-23.9622913330
31
0.0000000000
11
3.8236329604
21
-23.9407209086
31
0.0000000000
11
3.7564052537
21
-23.9163067488
31
0.0000000000
11
3.6935095337
21
-23.8892225735
31
0.0000000000
11
3.6353943336
21
-23.8596615483
31
0.0000000000
11
3.5824731132
21
-23.8278339824
31
0.0000000000
11
3.5351233146
21
-23.7939668486
31
0.0000000000
11
3.4936818690
21
-23.7583010843
31
0.0000000000
11
3.4584443995
21
-23.7210910202
31
0.0000000000
11
3.4296617451
21
-23.6826014033
31
0.0000000000
11
3.4075393062
21
-23.6431067089
31
0.0000000000
11
3.3922346652
21
-23.6028879845
31
0.0000000000
11
3.3838571323
21
-23.5622320101
31
0.0000000000
11
3.3821499005
21
-23.5337235356
31
0.0000000000
0
SPLINE
5
415
100
AcDbEntity
8
0
100
AcDbSpline
62
7
6
CONTINUOUS
70
0
71
3
72
15
73
11
74
9
42
0.0000001000
43
0.0000001000
44
0.0000000001
12
0.0000000000
22
-0.1548683982
32
0.0000000000
13
-0.1364735891
23
-0.0736586228
33
0.0000000000
40
0.0000000000
40
0.0000000000
40
0.0000000000
40
0.0000000000
40
0.1530778030
40
0.2986165204
40
0.4360132861
40
0.5660787250
40
0.6888882284
40
0.8061547488
40
0.9191841697
40
1.0000000000
40
1.0000000000
40
1.0000000000
40
1.0000000000
10
6.5107938932
20
-23.2185641044
30
0.0000000000
10
6.5107938932
20
-23.2264664091
30
0.0000000000
10
6.5101065295
20
-23.2418940224
30
0.0000000000
10
6.5068456033
20
-23.2642058743
30
0.0000000000
10
6.5014112228
20
-23.2848736527
30
0.0000000000
10
6.4938652818
20
-23.3036181840
30
0.0000000000
10
6.4842750148
20
-23.3202261719
30
0.0000000000
10
6.4727536732
20
-23.3344577631
30
0.0000000000
10
6.4606028484
20
-23.3450880871
30
0.0000000000
10
6.4521015143
20
-23.3504360503
30
0.0000000000
10
6.4484251055
20
-23.3524203113
30
0.0000000000
11
6.5107938932
21
-23.2185641044
31
0.0000000000
11
6.5096829196
21
-23.2422449725
31
0.0000000000
11
6.5063595369
21
-23.2645379610
31
0.0000000000
11
6.5008787863
21
-23.2850984183
31
0.0000000000
11
6.4932851525
21
-23.3037552731
31
0.0000000000
11
6.4837093008
21
-23.3201880835
31
0.0000000000
11
6.4722316220
21
-23.3342621869
31
0.0000000000
11
6.4590283489
21
-23.3457551234
31
0.0000000000
11
6.4484251055
21
-23.3524203113
31
0.0000000000
0
SPLINE
5
416
100
AcDbEntity
8
0
100
AcDbSpline
62
7
6
CONTINUOUS
70
0
71
3
72
23
73
19
74
17
42
0.0000001000
43
0.0000001000
44
0.0000000001
12
0.0000000000
22
0.3681715352
32
0.0000000000
13
-0.3293026320
23
0.1646513160
33
0.0000000000
40
0.0000000000
40
0.0000000000
40
0.0000000000
40
0.0000000000
40
0.0588442525
40
0.1197825074
40
0.1825434300
40
0.2468113924
40
0.3122363628
40
0.3784431025
40
0.4450398766
40
0.5116268596
40
0.5778043998
40
0.6431812909
40
0.7073832024
40
0.7700614293
40
0.8309021458
40
0.8896363660
40
0.9460508302
40
1.0000000000
40
1.0000000000
40
1.0000000000
40
1.0000000000
10
-9.6112407179
20
25.9786598759
30
0.0000000000
10
-9.6112407179
20
25.9858814688
30
0.0000000000
10
-9.6118400335
20
26.0005867943
30
0.0000000000
10
-9.6144092347
20
26.0228594973
30
0.0000000000
10
-9.6186403534
20
26.0455543902
30
0.0000000000
10
-9.6244926912
20
26.0684533130
30
0.0000000000
10
-9.6319102237
20
26.0913383335
30
0.0000000000
10
-9.6408220231
20
26.1139906810
30
0.0000000000
10
-9.6511428896
20
26.1361938247
30
0.0000000000
10
-9.6627741519
20
26.1577353757
30
0.0000000000
10
-9.6756046262
20
26.1784092547
30
0.0000000000
10
-9.6895117283
20
26.1980177049
30
0.0000000000
10
-9.7043626924
20
26.2163732176
30
0.0000000000
10
-9.7200160280
20
26.2333003837
30
0.0000000000
10
-9.7363226917
20
26.2486373933
30
0.0000000000
10
-9.7531287944
20
26.2622380459
30
0.0000000000
10
-9.7702733042
20
26.2739710001
30
0.0000000000
10
-9.7820955453
20
26.2806266206
30
0.0000000000
10
-9.7880174132
20
26.2835875545
30
0.0000000000
11
-9.6112407179
21
25.9786598759
31
0.0000000000
11
-9.6120917818
21
26.0003079319
31
0.0000000000
11
-9.6146368144
21
26.0225988455
31
0.0000000000
11
-9.6188513686
21
26.0453180237
31
0.0000000000
11
-9.6246949259
21
26.0682467345
31
0.0000000000
11
-9.6321112834
21
26.0911642100
31
0.0000000000
11
-9.6410290908
21
26.1138497702
31
0.0000000000
11
-9.6513625342
21
26.1360849472
31
0.0000000000
11
-9.6630121593
21
26.1576555900
31
0.0000000000
11
-9.6758658263
21
26.1783539280
31
0.0000000000
11
-9.6897997890
21
26.1979805750
31
0.0000000000
11
-9.7046798852
21
26.2163464525
31
0.0000000000
11
-9.7203628297
21
26.2332746146
31
0.0000000000
11
-9.7366975956
21
26.2486019549
31
0.0000000000
11
-9.7535268700
21
26.2621807800
31
0.0000000000
11
-9.7706885716
21
26.2738802331
31
0.0000000000
11
-9.7880174132
21
26.2835875545
31
0.0000000000
0
SPLINE
5
417
100
AcDbEntity
8
0
100
AcDbSpline
62
9
6
CONTINUOUS
70
0
71
3
72
20
73
16
74
14
42
0.0000001000
43
0.0000001000
44
0.0000000001
12
-0.0052796392
22
0.3678091544
32
0.0000000000
13
-0.3290123993
23
0.1645061998
33
0.0000000000
40
0.0000000000
40
0.0000000000
40
0.0000000000
40
0.0000000000
40
0.0723218679
40
0.1478282724
40
0.2259798289
40
0.3061432700
40
0.3876186704
40
0.4696645852
40
0.5515219575
40
0.6324375221
40
0.7116873738
40
0.7886013874
40
0.8625892741
40
0.9331692032
40
1.0000000000
40
1.0000000000
40
1.0000000000
40
1.0000000000
10
-11.0379589133
20
25.2348003948
30
0.0000000000
10
-11.0380861911
20
25.2436672765
30
0.0000000000
10
-11.0392595791
20
25.2617872100
30
0.0000000000
10
-11.0435147308
20
25.2891992444
30
0.0000000000
10
-11.0502437717
20
25.3171007294
30
0.0000000000
10
-11.0593490901
20
25.3450870833
30
0.0000000000
10
-11.0706991851
20
25.3727563090
30
0.0000000000
10
-11.0841301842
20
25.3997090183
30
0.0000000000
10
-11.0994482157
20
25.4255562764
30
0.0000000000
10
-11.1164322585
20
25.4499250046
30
0.0000000000
10
-11.1348377397
20
25.4724637891
30
0.0000000000
10
-11.1543998562
20
25.4928477317
30
0.0000000000
10
-11.1748400601
20
25.5107841163
30
0.0000000000
10
-11.1958633887
20
25.5260125446
30
0.0000000000
10
-11.2104914004
20
25.5344548356
30
0.0000000000
10
-11.2178207873
20
25.5381195291
30
0.0000000000
11
-11.0379589133
21
25.2348003948
31
0.0000000000
11
-11.0396196919
21
25.2613518906
31
0.0000000000
11
-11.0438340551
21
25.2888051070
31
0.0000000000
11
-11.0505405481
21
25.3167597141
31
0.0000000000
11
-11.0596413750
21
25.3448080707
31
0.0000000000
11
-11.0710038251
21
25.3725411685
31
0.0000000000
11
-11.0844622083
21
25.3995545965
31
0.0000000000
11
-11.0998202709
21
25.4254544379
31
0.0000000000
11
-11.1168540576
21
25.4498630148
31
0.0000000000
11
-11.1353151774
21
25.4724243952
31
0.0000000000
11
-11.1549344255
21
25.4928095835
31
0.0000000000
11
-11.1754257091
21
25.5107213178
31
0.0000000000
11
-11.1964902190
21
25.5258984050
31
0.0000000000
11
-11.2178207873
21
25.5381195291
31
0.0000000000
0
SPLINE
5
418
100
AcDbEntity
8
0
100
AcDbSpline
62
9
6
CONTINUOUS
70
0
71
3
72
44
73
40
74
38
42
0.0000001000
43
0.0000001000
44
0.0000000001
12
-1.5722023264
22
-0.8196973931
32
0.0000000000
13
1.5604258098
23
0.8418997943
33
0.0000000000
40
0.0000000000
40
0.0000000000
40
0.0000000000
40
0.0000000000
40
0.0284692344
40
0.0582250487
40
0.0891538871
40
0.1211273916
40
0.1540020456
40
0.1876213685
40
0.2218177121
40
0.2564161913
40
0.2912366139
40
0.3260962127
40
0.3608112328
40
0.3952002651
40
0.4290856907
40
0.4622970379
40
0.4946725285
40
0.5260628506
40
0.5563330919
40
0.5853671037
40
0.6130702895
40
0.6393750452
40
0.6642450591
40
0.6876824117
40
0.7097338222
40
0.7304990189
40
0.7501369312
40
0.7688702232
40
0.7869820096
40
0.8048036362
40
0.8226906551
40
0.8409932710
40
0.8600274435
40
0.8800552472
40
0.9012757299
40
0.9238258602
40
0.9477852931
40
0.9731827860
40
1.0000000000
40
1.0000000000
40
1.0000000000
40
1.0000000000
10
-11.2178207873
20
25.5381195291
30
0.0000000000
10
-11.2327405862
20
25.5303408100
30
0.0000000000
10
-11.2638119918
20
25.5154838638
30
0.0000000000
10
-11.3126835188
20
25.4957106662
30
0.0000000000
10
-11.3645568183
20
25.4780710957
30
0.0000000000
10
-11.4190592262
20
25.4626926927
30
0.0000000000
10
-11.4758060081
20
25.4496836989
30
0.0000000000
10
-11.5343952646
20
25.4391364661
30
0.0000000000
10
-11.5944118410
20
25.4311258235
30
0.0000000000
10
-11.6554298496
20
25.4257087074
30
0.0000000000
10
-11.7170165338
20
25.4229235623
30
0.0000000000
10
-11.7787348315
20
25.4227901359
30
0.0000000000
10
-11.8401469024
20
25.4253092936
30
0.0000000000
10
-11.9008169118
20
25.4304630113
30
0.0000000000
10
-11.9603147913
20
25.4382145600
30
0.0000000000
10
-12.0182187909
20
25.4485087696
30
0.0000000000
10
-12.0741191310
20
25.4612725765
30
0.0000000000
10
-12.1276204350
20
25.4764155642
30
0.0000000000
10
-12.1783452292
20
25.4938309433
30
0.0000000000
10
-12.2259361169
20
25.5133964430
30
0.0000000000
10
-12.2700588747
20
25.5349758212
30
0.0000000000
10
-12.3104041290
20
25.5584202415
30
0.0000000000
10
-12.3466895294
20
25.5835704160
30
0.0000000000
10
-12.3786601297
20
25.6102584063
30
0.0000000000
10
-12.4060883552
20
25.6383097430
30
0.0000000000
10
-12.4287717042
20
25.6675437517
30
0.0000000000
10
-12.4465301701
20
25.6977716067
30
0.0000000000
10
-12.4592049533
20
25.7287893724
30
0.0000000000
10
-12.4666644660
20
25.7603686891
30
0.0000000000
10
-12.4688201782
20
25.7922516419
30
0.0000000000
10
-12.4656458121
20
25.8241609272
30
0.0000000000
10
-12.4571839217
20
25.8558226880
30
0.0000000000
10
-12.4435335937
20
25.8869866133
30
0.0000000000
10
-12.4248311548
20
25.9174299884
30
0.0000000000
10
-12.4012373961
20
25.9469506146
30
0.0000000000
10
-12.3729348489
20
25.9753576766
30
0.0000000000
10
-12.3401290891
20
26.0024667231
30
0.0000000000
10
-12.3030581611
20
26.0280954552
30
0.0000000000
10
-12.2763788836
20
26.0436678964
30
0.0000000000
10
-12.2624301259
20
26.0511936987
30
0.0000000000
11
-11.2178207873
21
25.5381195291
31
0.0000000000
11
-11.2633276366
21
25.5162767620
31
0.0000000000
11
-11.3122106942
21
25.4964291788
31
0.0000000000
11
-11.3641121927
21
25.4787232774
31
0.0000000000
11
-11.4186606276
21
25.4632858892
31
0.0000000000
11
-11.4754674844
21
25.4502268570
31
0.0000000000
11
-11.5341285546
21
25.4396390927
31
0.0000000000
11
-11.5942249982
21
25.4315981617
31
0.0000000000
11
-11.6553285992
21
25.4261612787
31
0.0000000000
11
-11.7170038612
21
25.4233671123
31
0.0000000000
11
-11.7788117065
21
25.4232354958
31
0.0000000000
11
-11.8403112533
21
25.4257673045
31
0.0000000000
11
-11.9010647108
21
25.4309444465
31
0.0000000000
11
-11.9606388609
21
25.4387299372
31
0.0000000000
11
-12.0186097616
21
25.4490683145
31
0.0000000000
11
-12.0745640002
21
25.4618857967
31
0.0000000000
11
-12.1281034557
21
25.4770911386
31
0.0000000000
11
-12.1788463292
21
25.4945758689
31
0.0000000000
11
-12.2264316142
21
25.5142155663
31
0.0000000000
11
-12.2705199537
21
25.5358701541
31
0.0000000000
11
-12.3107976692
21
25.5593855646
31
0.0000000000
11
-12.3469774812
21
25.5845940907
31
0.0000000000
11
-12.3788019413
21
25.6113163882
31
0.0000000000
11
-12.4060440311
21
25.6393618967
31
0.0000000000
11
-12.4285098323
21
25.6685310719
31
0.0000000000
11
-12.4460390291
21
25.6986158997
31
0.0000000000
11
-12.4585067687
21
25.7294022946
31
0.0000000000
11
-12.4658240165
21
25.7606707300
31
0.0000000000
11
-12.4679385508
21
25.7921986239
31
0.0000000000
11
-12.4648351643
21
25.8237610883
31
0.0000000000
11
-12.4565358345
21
25.8551334304
31
0.0000000000
11
-12.4430995516
21
25.8860920580
31
0.0000000000
11
-12.4246218947
21
25.9164163800
31
0.0000000000
11
-12.4012347309
21
25.9458898835
31
0.0000000000
11
-12.3731044437
21
25.9743028545
31
0.0000000000
11
-12.3404311785
21
26.0014529261
31
0.0000000000
11
-12.3034489798
21
26.0271457572
31
0.0000000000
11
-12.2624301259
21
26.0511936987
31
0.0000000000
0
SPLINE
5
419
100
AcDbEntity
8
0
100
AcDbSpline
62
9
6
CONTINUOUS
70
0
71
3
72
35
73
31
74
29
42
0.0000001000
43
0.0000001000
44
0.0000000001
12
-1.6961788669
22
-0.8751140136
32
0.0000000000
13
-0.0004762193
23
1.9107582329
33
0.0000000000
40
0.0000000000
40
0.0000000000
40
0.0000000000
40
0.0000000000
40
0.0354132497
40
0.0724299410
40
0.1109178799
40
0.1507167075
40
0.1916471334
40
0.2335136308
40
0.2761066976
40
0.3192077505
40
0.3625915314
40
0.4060295105
40
0.4492918619
40
0.4921516145
40
0.5343864473
40
0.5757828673
40
0.6161381284
40
0.6552649256
40
0.6929937929
40
0.7291785315
40
0.7636996749
40
0.7964712657
40
0.8274462243
40
0.8566252174
40
0.8840645344
40
0.9098866823
40
0.9342883804
40
0.9575465973
40
0.9800148788
40
1.0000000000
40
1.0000000000
40
1.0000000000
40
1.0000000000
10
-11.0379589133
20
25.2348003948
30
0.0000000000
10
-11.0579813152
20
25.2244701845
30
0.0000000000
10
-11.0996730021
20
25.2047535871
30
0.0000000000
10
-11.1652335960
20
25.1785457441
30
0.0000000000
10
-11.2348148316
20
25.1551976304
30
0.0000000000
10
-11.3079224289
20
25.1348756009
30
0.0000000000
10
-11.3840403744
20
25.1177228041
30
0.0000000000
10
-11.4626295845
20
25.1038609877
30
0.0000000000
10
-11.5431332024
20
25.0933885246
30
0.0000000000
10
-11.6249799667
20
25.0863798560
30
0.0000000000
10
-11.7075894017
20
25.0828847299
30
0.0000000000
10
-11.7903752545
20
25.0829279290
30
0.0000000000
10
-11.8727502277
20
25.0865090382
30
0.0000000000
10
-11.9541297125
20
25.0936024434
30
0.0000000000
10
-12.0339368341
20
25.1041575908
30
0.0000000000
10
-12.1116058747
20
25.1180993473
30
0.0000000000
10
-12.1865871728
20
25.1353287419
30
0.0000000000
10
-12.2583503874
20
25.1557236940
30
0.0000000000
10
-12.3263891963
20
25.1791403315
30
0.0000000000
10
-12.3902242175
20
25.2054141862
30
0.0000000000
10
-12.4494071753
20
25.2343622200
30
0.0000000000
10
-12.5035231678
20
25.2657846771
30
0.0000000000
10
-12.5521936038
20
25.2994679684
30
0.0000000000
10
-12.5950767416
20
25.3351871197
30
0.0000000000
10
-12.6318676639
20
25.3727086834
30
0.0000000000
10
-12.6622951596
20
25.4117912966
30
0.0000000000
10
-12.6861180938
20
25.4521831871
30
0.0000000000
10
-12.7031233382
20
25.4936128000
30
0.0000000000
10
-12.7128223124
20
25.5344651274
30
0.0000000000
10
-12.7148734428
20
25.5615055704
30
0.0000000000
10
-12.7148766152
20
25.5742344820
30
0.0000000000
11
-11.0379589133
21
25.2348003948
31
0.0000000000
11
-11.0990177107
21
25.2058122647
31
0.0000000000
11
-11.1645888048
21
25.1795065609
31
0.0000000000
11
-11.2342085972
21
25.1560691486
31
0.0000000000
11
-11.3073787002
21
25.1356678772
31
0.0000000000
11
-11.3835780057
21
25.1184479164
31
0.0000000000
11
-11.4622643247
21
25.1045317724
31
0.0000000000
11
-11.5428758528
21
25.0940187624
31
0.0000000000
11
-11.6248382091
21
25.0869836847
31
0.0000000000
11
-11.7075672491
21
25.0834765684
31
0.0000000000
11
-11.7904740253
21
25.0835223006
31
0.0000000000
11
-11.8729671721
21
25.0871204686
31
0.0000000000
11
-11.9544594709
21
25.0942453657
31
0.0000000000
11
-12.0343698373
21
25.1048460956
31
0.0000000000
11
-12.1121296304
21
25.1188471432
31
0.0000000000
11
-12.1871843326
21
25.1361485899
31
0.0000000000
11
-12.2589999385
21
25.1566272729
31
0.0000000000
11
-12.3270643360
21
25.1801371057
31
0.0000000000
11
-12.3908933029
21
25.2065107963
31
0.0000000000
11
-12.4500316555
21
25.2355602436
31
0.0000000000
11
-12.5040586578
21
25.2670787750
31
0.0000000000
11
-12.5525889883
21
25.3008416211
31
0.0000000000
11
-12.5952773237
21
25.3366085877
31
0.0000000000
11
-12.6318191549
21
25.3741246242
31
0.0000000000
11
-12.6619543698
21
25.4131228118
31
0.0000000000
11
-12.6854679272
21
25.4533250513
31
0.0000000000
11
-12.7021923520
21
25.4944452700
31
0.0000000000
11
-12.7120082120
21
25.5361902631
31
0.0000000000
11
-12.7148766152
21
25.5742344820
31
0.0000000000
0
SPLINE
5
41A
100
AcDbEntity
8
0
100
AcDbSpline
62
9
6
CONTINUOUS
70
0
71
3
72
44
73
40
74
38
42
0.0000001000
43
0.0000001000
44
0.0000000001
12
-1.5720982315
22
-0.8196732441
32
0.0000000000
13
1.5833321492
23
0.7977570945
33
0.0000000000
40
0.0000000000
40
0.0000000000
40
0.0000000000
40
0.0000000000
40
0.0271060526
40
0.0528022306
40
0.0770596845
40
0.0998977821
40
0.1213852591
40
0.1416466995
40
0.1608679811
40
0.1792986033
40
0.1972446562
40
0.2150514400
40
0.2330759163
40
0.2516567521
40
0.2710884251
40
0.2916066761
40
0.3133834020
40
0.3365301376
40
0.3611038679
40
0.3871153775
40
0.4145356687
40
0.4433032418
40
0.4733285887
40
0.5044997829
40
0.5366853789
40
0.5697388817
40
0.6035007389
40
0.6378021608
40
0.6724666893
40
0.7073135832
40
0.7421592647
40
0.7768206664
40
0.8111168016
40
0.8448714917
40
0.8779152685
40
0.9100892865
40
0.9412470500
40
0.9712565375
40
1.0000000000
40
1.0000000000
40
1.0000000000
40
1.0000000000
10
3.8435536519
20
18.0074323095
30
0.0000000000
10
3.8293491928
20
18.0000262741
30
0.0000000000
10
3.8021419619
20
17.9846819022
30
0.0000000000
10
3.7642207986
20
17.9593811480
30
0.0000000000
10
3.7305119943
20
17.9325630559
30
0.0000000000
10
3.7012605813
20
17.9044093991
30
0.0000000000
10
3.6766773948
20
17.8751035987
30
0.0000000000
10
3.6569496251
20
17.8448348796
30
0.0000000000
10
3.6422425205
20
17.8138024583
30
0.0000000000
10
3.6326981650
20
17.7822240359
30
0.0000000000
10
3.6284248394
20
17.7503439919
30
0.0000000000
10
3.6294783001
20
17.7184325362
30
0.0000000000
10
3.6358466181
20
17.6867683271
30
0.0000000000
10
3.6474527385
20
17.6556147054
30
0.0000000000
10
3.6641723784
20
17.6252060806
30
0.0000000000
10
3.6858515470
20
17.5957506808
30
0.0000000000
10
3.7123145840
20
17.5674397280
30
0.0000000000
10
3.7433638489
20
17.5404552999
30
0.0000000000
10
3.7787771897
20
17.5149731027
30
0.0000000000
10
3.8183053701
20
17.4911625854
30
0.0000000000
10
3.8616717196
20
17.4691849649
30
0.0000000000
10
3.9085722955
20
17.4491914309
30
0.0000000000
10
3.9586778995
20
17.4313209478
30
0.0000000000
10
4.0116356650
20
17.4156988203
30
0.0000000000
10
4.0670720970
20
17.4024351180
30
0.0000000000
10
4.1245952127
20
17.3916237386
30
0.0000000000
10
4.1837980215
20
17.3833413786
30
0.0000000000
10
4.2442609338
20
17.3776469625
30
0.0000000000
10
4.3055553994
20
17.3745810546
30
0.0000000000
10
4.3672464453
20
17.3741655688
30
0.0000000000
10
4.4288964377
20
17.3764035459
30
0.0000000000
10
4.4900678577
20
17.3812791337
30
0.0000000000
10
4.5503268355
20
17.3887577375
30
0.0000000000
10
4.6092457134
20
17.3987861988
30
0.0000000000
10
4.6664069301
20
17.4112933514
30
0.0000000000
10
4.7214055611
20
17.4261903752
30
0.0000000000
10
4.7738532119
20
17.4433723354
30
0.0000000000
10
4.8233731774
20
17.4627149956
30
0.0000000000
10
4.8549182406
20
17.4772910070
30
0.0000000000
10
4.8700883900
20
17.4849344407
30
0.0000000000
11
3.8435536519
21
18.0074323095
31
0.0000000000
11
3.8017378461
21
17.9837472391
31
0.0000000000
11
3.7638963322
21
17.9583787888
31
0.0000000000
11
3.7303116844
21
17.9315143440
31
0.0000000000
11
3.7012245114
21
17.9033461977
31
0.0000000000
11
3.6768417474
21
17.8740749582
31
0.0000000000
11
3.6573368857
21
17.8439089165
31
0.0000000000
11
3.6428491288
21
17.8130634585
31
0.0000000000
11
3.6334815497
21
17.7817583692
31
0.0000000000
11
3.6293007545
21
17.7502167604
31
0.0000000000
11
3.6303363940
21
17.7186631871
31
0.0000000000
11
3.6365809570
21
17.6873227218
31
0.0000000000
11
3.6479898564
21
17.6564184655
31
0.0000000000
11
3.6644816071
21
17.6261707863
31
0.0000000000
11
3.6859387346
21
17.5967949343
31
0.0000000000
11
3.7122081135
21
17.5685003990
31
0.0000000000
11
3.7431027412
21
17.5414884997
31
0.0000000000
11
3.7784022261
21
17.5159518629
31
0.0000000000
11
3.8178553785
21
17.4920721676
31
0.0000000000
11
3.8611808057
21
17.4700197141
31
0.0000000000
11
3.9080702611
21
17.4499513997
31
0.0000000000
11
3.9581893485
21
17.4320103596
31
0.0000000000
11
4.0111815020
21
17.4163242618
31
0.0000000000
11
4.0666688047
21
17.4030050122
31
0.0000000000
11
4.1242564546
21
17.3921474250
31
0.0000000000
11
4.1835337687
21
17.3838289831
31
0.0000000000
11
4.2440789243
21
17.3781089387
31
0.0000000000
11
4.3054601871
21
17.3750281464
31
0.0000000000
11
4.3672406161
21
17.3746086047
31
0.0000000000
11
4.4289795246
21
17.3768533690
31
0.0000000000
11
4.4902373929
21
17.3817465173
31
0.0000000000
11
4.5505776258
21
17.3892532565
31
0.0000000000
11
4.6095702730
21
17.3993201790
31
0.0000000000
11
4.6667941261
21
17.4118754378
31
0.0000000000
11
4.7218420200
21
17.4268297100
31
0.0000000000
11
4.7743218797
21
17.4440765923
31
0.0000000000
11
4.8238580481
21
17.4634925404
31
0.0000000000
11
4.8700883900
21
17.4849344407
31
0.0000000000
0
SPLINE
5
41B
100
AcDbEntity
8
0
100
AcDbSpline
62
9
6
CONTINUOUS
70
0
71
3
72
13
73
9
74
7
42
0.0000001000
43
0.0000001000
44
0.0000000001
12
-0.1045767363
22
0.0522883681
32
0.0000000000
13
-0.1038596099
23
-0.0541185823
33
0.0000000000
40
0.0000000000
40
0.0000000000
40
0.0000000000
40
0.0000000000
40
0.1979474243
40
0.3837523913
40
0.5583960159
40
0.7237674766
40
0.8826658132
40
1.0000000000
40
1.0000000000
40
1.0000000000
40
1.0000000000
10
3.8435536519
20
18.0074323095
30
0.0000000000
10
3.8366534201
20
18.0108824254
30
0.0000000000
10
3.8228805310
20
18.0168258247
30
0.0000000000
10
3.8018735304
20
18.0227690270
30
0.0000000000
10
3.7814565169
20
18.0253554197
30
0.0000000000
10
3.7619272841
20
18.0245124752
30
0.0000000000
10
3.7450650537
20
18.0205610492
30
0.0000000000
10
3.7351254608
20
18.0162980274
30
0.0000000000
10
3.7310633665
20
18.0141813741
30
0.0000000000
11
3.8435536519
21
18.0074323095
31
0.0000000000
11
3.8222680735
21
18.0165192589
31
0.0000000000
11
3.8013378749
21
18.0223395264
31
0.0000000000
11
3.7810682655
21
18.0248082391
31
0.0000000000
11
3.7617548219
21
18.0238893973
31
0.0000000000
11
3.7436791776
21
18.0195963995
31
0.0000000000
11
3.7310633665
21
18.0141813741
31
0.0000000000
0
SPLINE
5
41C
100
AcDbEntity
8
0
100
AcDbSpline
62
7
6
CONTINUOUS
70
0
71
3
72
21
73
17
74
15
42
0.0000001000
43
0.0000001000
44
0.0000000001
12
0.3292079163
22
-0.1646039582
32
0.0000000000
13
0.0000000000
23
-0.3680656398
33
0.0000000000
40
0.0000000000
40
0.0000000000
40
0.0000000000
40
0.0000000000
40
0.0618523421
40
0.1269655935
40
0.1948993807
40
0.2655984585
40
0.3382988610
40
0.4128104670
40
0.4883601078
40
0.5644446137
40
0.6405485932
40
0.7158489471
40
0.7900931850
40
0.8623947193
40
0.9325752827
40
1.0000000000
40
1.0000000000
40
1.0000000000
40
1.0000000000
10
6.3340441218
20
18.2225567870
30
0.0000000000
10
6.3408315487
20
18.2191630736
30
0.0000000000
10
6.3543800526
20
18.2114081992
30
0.0000000000
10
6.3738902240
20
18.1975267378
30
0.0000000000
10
6.3929053166
20
18.1812524048
30
0.0000000000
10
6.4111667720
20
18.1628077675
30
0.0000000000
10
6.4284743101
20
18.1423980451
30
0.0000000000
10
6.4445944752
20
18.1202990158
30
0.0000000000
10
6.4593387414
20
18.0967690190
30
0.0000000000
10
6.4725198815
20
18.0721078398
30
0.0000000000
10
6.4839693511
20
18.0466299656
30
0.0000000000
10
6.4935536616
20
18.0206334463
30
0.0000000000
10
6.5011429610
20
17.9944703675
30
0.0000000000
10
6.5066520605
20
17.9684310569
30
0.0000000000
10
6.5100057487
20
17.9428707569
30
0.0000000000
10
6.5107938932
20
17.9259807659
30
0.0000000000
10
6.5107938932
20
17.9177085253
30
0.0000000000
11
6.3340441218
21
18.2225567870
31
0.0000000000
11
6.3538330227
21
18.2113016774
31
0.0000000000
11
6.3733919370
21
18.1974519243
31
0.0000000000
11
6.3924169871
21
18.1812268780
31
0.0000000000
11
6.4107503333
21
18.1627599409
31
0.0000000000
11
6.4280769919
21
18.1423686363
31
0.0000000000
11
6.4442541919
21
18.1202228081
31
0.0000000000
11
6.4590283489
21
18.0966650886
31
0.0000000000
11
6.4722316220
21
18.0719688790
31
0.0000000000
11
6.4837093008
21
18.0464170969
31
0.0000000000
11
6.4932851525
21
18.0204084347
31
0.0000000000
11
6.5008787863
21
17.9941579462
31
0.0000000000
11
6.5063595369
21
17.9681167383
31
0.0000000000
11
6.5096829196
21
17.9425003670
31
0.0000000000
11
6.5107938932
21
17.9177085253
31
0.0000000000
0
SPLINE
5
41D
100
AcDbEntity
8
0
100
AcDbSpline
62
7
6
CONTINUOUS
70
0
71
3
72
21
73
17
74
15
42
0.0000001000
43
0.0000001000
44
0.0000000001
12
-0.0004704177
22
0.0848005049
32
0.0000000000
13
0.0671929938
23
0.0483123609
33
0.0000000000
40
0.0000000000
40
0.0000000000
40
0.0000000000
40
0.0000000000
40
0.0007021003
40
0.0256926162
40
0.0600112594
40
0.1042146146
40
0.1581467727
40
0.2214213223
40
0.2935639320
40
0.3740573971
40
0.4623633907
40
0.5579150595
40
0.6601144503
40
0.7683251285
40
0.8818647863
40
1.0000000000
40
1.0000000000
40
1.0000000000
40
1.0000000000
10
-4.5883476508
20
4.2253120387
30
0.0000000000
10
-4.5883477609
20
4.2253318848
30
0.0000000000
10
-4.5883452816
20
4.2260572431
30
0.0000000000
10
-4.5877923860
20
4.2276491210
30
0.0000000000
10
-4.5863500515
20
4.2301183010
30
0.0000000000
10
-4.5841080190
20
4.2330146795
30
0.0000000000
10
-4.5811278780
20
4.2363248015
30
0.0000000000
10
-4.5774320134
20
4.2400190565
30
0.0000000000
10
-4.5730637640
20
4.2440692879
30
0.0000000000
10
-4.5680613318
20
4.2484469731
30
0.0000000000
10
-4.5624656995
20
4.2531241115
30
0.0000000000
10
-4.5563182307
20
4.2580724440
30
0.0000000000
10
-4.5496622434
20
4.2632629698
30
0.0000000000
10
-4.5425433639
20
4.2686654960
30
0.0000000000
10
-4.5350102404
20
4.2742482745
30
0.0000000000
10
-4.5298375955
20
4.2780019925
30
0.0000000000
10
-4.5271916426
20
4.2799044562
30
0.0000000000
11
-4.5883476508
21
4.2253120387
31
0.0000000000
11
-4.5883474504
21
4.2253714957
31
0.0000000000
11
-4.5878286187
21
4.2273735398
31
0.0000000000
11
-4.5864428924
21
4.2298527099
31
0.0000000000
11
-4.5842421082
21
4.2327748712
31
0.0000000000
11
-4.5812741717
21
4.2361084632
31
0.0000000000
11
-4.5775840273
21
4.2398238220
31
0.0000000000
11
-4.5732146370
21
4.2438925248
31
0.0000000000
11
-4.5682079724
21
4.2482867510
31
0.0000000000
11
-4.5626053751
21
4.2529791830
31
0.0000000000
11
-4.5564489060
21
4.2579420381
31
0.0000000000
11
-4.5497820471
21
4.2631467155
31
0.0000000000
11
-4.5426505187
21
4.2685633393
31
0.0000000000
11
-4.5351029991
21
4.2741603851
31
0.0000000000
11
-4.5271916426
21
4.2799044562
31
0.0000000000
0
SPLINE
5
41E
100
AcDbEntity
8
0
100
AcDbSpline
62
9
6
CONTINUOUS
70
0
71
3
72
20
73
16
74
14
42
0.0000001000
43
0.0000001000
44
0.0000000001
12
0.3259403144
22
-0.1688824914
32
0.0000000000
13
0.0053584715
23
-0.3670554063
33
0.0000000000
40
0.0000000000
40
0.0000000000
40
0.0000000000
40
0.0000000000
40
0.0663354527
40
0.1365374848
40
0.2102621574
40
0.2870211609
40
0.3662149135
40
0.4471617247
40
0.5291241730
40
0.6113337131
40
0.6930143491
40
0.7734060905
40
0.8517888776
40
0.9275077279
40
1.0000000000
40
1.0000000000
40
1.0000000000
40
1.0000000000
10
4.8700883900
20
17.4849344407
30
0.0000000000
10
4.8772955228
20
17.4812001419
30
0.0000000000
10
4.8916770046
20
17.4726175814
30
0.0000000000
10
4.9123244366
20
17.4572033259
30
0.0000000000
10
4.9324001347
20
17.4390885468
30
0.0000000000
10
4.9516146273
20
17.4185359084
30
0.0000000000
10
4.9696944786
20
17.3958402483
30
0.0000000000
10
4.9863796401
20
17.3713285217
30
0.0000000000
10
5.0014298927
20
17.3453540489
30
0.0000000000
10
5.0146281211
20
17.3182916326
30
0.0000000000
10
5.0257838654
20
17.2905317168
30
0.0000000000
10
5.0347361316
20
17.2624749402
30
0.0000000000
10
5.0413557412
20
17.2345243263
30
0.0000000000
10
5.0455468290
20
17.2070850184
30
0.0000000000
10
5.0467086788
20
17.1889557392
30
0.0000000000
10
5.0468381613
20
17.1800861791
30
0.0000000000
11
4.8700883900
21
17.4849344407
31
0.0000000000
11
4.8910399041
21
17.4725238078
31
0.0000000000
11
4.9117309878
21
17.4571611187
31
0.0000000000
11
4.9318600352
21
17.4390703094
31
0.0000000000
11
4.9511336333
21
17.4185150824
31
0.0000000000
11
4.9692708383
21
17.3957950631
31
0.0000000000
11
4.9860072715
21
17.3712414322
31
0.0000000000
11
5.0010989725
21
17.3452120984
31
0.0000000000
11
5.0143259555
21
17.3180864808
31
0.0000000000
11
5.0254954161
21
17.2902599789
31
0.0000000000
11
5.0344445414
21
17.2621382085
31
0.0000000000
11
5.0410428836
21
17.2341310897
31
0.0000000000
11
5.0451942612
21
17.2066468710
31
0.0000000000
11
5.0468381613
21
17.1800861791
31
0.0000000000
0
SPLINE
5
41F
100
AcDbEntity
8
0
100
AcDbSpline
62
9
6
CONTINUOUS
70
0
71
3
72
21
73
17
74
15
42
0.0000001000
43
0.0000001000
44
0.0000000001
12
0.3259531603
22
-0.1688891474
32
0.0000000000
13
0.0053586827
23
-0.3670698726
33
0.0000000000
40
0.0000000000
40
0.0000000000
40
0.0000000000
40
0.0000000000
40
0.0614678082
40
0.1262861993
40
0.1941935461
40
0.2648171460
40
0.3376966215
40
0.4123046395
40
0.4880656407
40
0.5643732193
40
0.6406066886
40
0.7161472857
40
0.7903944245
40
0.8627824112
40
0.9327980930
40
1.0000000000
40
1.0000000000
40
1.0000000000
40
1.0000000000
10
1.1148971154
20
14.2016112164
30
0.0000000000
10
1.1215756575
20
14.1981508012
30
0.0000000000
10
1.1349082045
20
14.1902729159
30
0.0000000000
10
1.1541290789
20
14.1762468619
30
0.0000000000
10
1.1728939650
20
14.1598590531
30
0.0000000000
10
1.1909690534
20
14.1413148776
30
0.0000000000
10
1.2081321772
20
14.1208441311
30
0.0000000000
10
1.2241702479
20
14.0987014640
30
0.0000000000
10
1.2388839565
20
14.0751624405
30
0.0000000000
10
1.2520900704
20
14.0505202987
30
0.0000000000
10
1.2636240347
20
14.0250821460
30
0.0000000000
10
1.2733421019
20
13.9991648982
30
0.0000000000
10
1.2811231636
20
13.9730914981
30
0.0000000000
10
1.2868702394
20
13.9471853481
30
0.0000000000
10
1.2905114122
20
13.9217707554
30
0.0000000000
10
1.2915268488
20
13.9049855532
30
0.0000000000
10
1.2916468867
20
13.8967629547
30
0.0000000000
11
1.1148971154
21
14.2016112164
31
0.0000000000
11
1.1343571235
21
14.1901873524
31
0.0000000000
11
1.1536112884
21
14.1762052621
31
0.0000000000
11
1.1724175716
21
14.1598407104
31
0.0000000000
11
1.1905395648
21
14.1412994111
31
0.0000000000
11
1.2077494617
21
14.1208144417
31
0.0000000000
11
1.2238309216
21
14.0986433127
31
0.0000000000
11
1.2385817893
21
14.0750647308
31
0.0000000000
11
1.2518166358
21
14.0503750957
31
0.0000000000
11
1.2633690898
21
14.0248847734
31
0.0000000000
11
1.2730939287
21
13.9989141955
31
0.0000000000
11
1.2808689044
21
13.9727898304
31
0.0000000000
11
1.2865962799
21
13.9468400801
31
0.0000000000
11
1.2902040581
21
13.9213911512
31
0.0000000000
11
1.2916468867
21
13.8967629547
31
0.0000000000
0
SPLINE
5
420
100
AcDbEntity
8
0
100
AcDbSpline
62
7
6
CONTINUOUS
70
0
71
3
72
20
73
16
74
14
42
0.0000001000
43
0.0000001000
44
0.0000000001
12
0.6486291045
22
0.0197086609
32
0.0000000000
13
0.6454744724
23
-0.0668644295
33
0.0000000000
40
0.0000000000
40
0.0000000000
40
0.0000000000
40
0.0000000000
40
0.0911854310
40
0.1806343918
40
0.2680636233
40
0.3532804087
40
0.4361389155
40
0.5165171310
40
0.5943009482
40
0.6693775740
40
0.7416320985
40
0.8109457706
40
0.8771966426
40
0.9402581858
40
1.0000000000
40
1.0000000000
40
1.0000000000
40
1.0000000000
10
4.4023217987
20
15.8579986708
30
0.0000000000
10
4.4220369735
20
15.8585977184
30
0.0000000000
10
4.4611316904
20
15.8586164020
30
0.0000000000
10
4.5190721456
20
15.8560571348
30
0.0000000000
10
4.5756032764
20
15.8516592596
30
0.0000000000
10
4.6305835914
20
15.8459864633
30
0.0000000000
10
4.6839324909
20
15.8394725773
30
0.0000000000
10
4.7355949666
20
15.8324614356
30
0.0000000000
10
4.7855266849
20
15.8252338512
30
0.0000000000
10
4.8336848571
20
15.8180262459
30
0.0000000000
10
4.8800240181
20
15.8110434554
30
0.0000000000
10
4.9244938317
20
15.8044676771
30
0.0000000000
10
4.9670376855
20
15.7984647706
30
0.0000000000
10
5.0075911216
20
15.7931888082
30
0.0000000000
10
5.0339842227
20
15.7901687766
30
0.0000000000
10
5.0468381613
20
15.7888372425
30
0.0000000000
11
4.4023217987
21
15.8579986708
31
0.0000000000
11
4.4614943651
21
15.8581723515
31
0.0000000000
11
4.5194881200
21
15.8557106902
31
0.0000000000
11
4.5760580680
21
15.8513820494
31
0.0000000000
11
4.6310712021
21
15.8457606140
31
0.0000000000
11
4.6844492957
21
15.8392867709
31
0.0000000000
11
4.7361400884
21
15.8323084139
31
0.0000000000
11
4.7861001872
21
15.8251092124
31
0.0000000000
11
4.8342873415
21
15.8179276996
31
0.0000000000
11
4.8806563217
21
15.8109704130
31
0.0000000000
11
4.9251565682
21
15.8044210783
31
0.0000000000
11
4.9677315436
21
15.7984469592
31
0.0000000000
11
5.0083166576
21
15.7932035051
31
0.0000000000
11
5.0468381613
21
15.7888372425
31
0.0000000000
0
SPLINE
5
421
100
AcDbEntity
8
0
100
AcDbSpline
62
9
6
CONTINUOUS
70
0
71
3
72
14
73
10
74
8
42
0.0000001000
43
0.0000001000
44
0.0000000001
12
-0.1081663861
22
0.0521884295
32
0.0000000000
13
-0.1058344693
23
-0.0571198585
33
0.0000000000
40
0.0000000000
40
0.0000000000
40
0.0000000000
40
0.0000000000
40
0.1813585329
40
0.3527505987
40
0.5148222611
40
0.6688438726
40
0.8167258704
40
0.9609459076
40
1.0000000000
40
1.0000000000
40
1.0000000000
40
1.0000000000
10
-15.8887761871
20
22.7034478676
30
0.0000000000
10
-15.8953151528
20
22.7066028066
30
0.0000000000
10
-15.9083699308
20
22.7120797565
30
0.0000000000
10
-15.9282462823
20
22.7177285951
30
0.0000000000
10
-15.9476313489
20
22.7204991370
30
0.0000000000
10
-15.9662824894
20
22.7203350903
30
0.0000000000
10
-15.9839573388
20
22.7172144709
30
0.0000000000
10
-15.9964667572
20
22.7126090784
30
0.0000000000
10
-16.0030189429
20
22.7092803973
30
0.0000000000
10
-16.0043966993
20
22.7085368092
30
0.0000000000
11
-15.8887761871
21
22.7034478676
31
0.0000000000
11
-15.9088879295
21
22.7118098789
31
0.0000000000
11
-15.9287080701
21
22.7173649414
31
0.0000000000
11
-15.9479874557
21
22.7200432240
31
0.0000000000
11
-15.9664837309
21
22.7198110590
31
0.0000000000
11
-15.9839643842
21
22.7166713647
31
0.0000000000
11
-16.0002096716
21
22.7106636093
31
0.0000000000
11
-16.0043966993
21
22.7085368092
31
0.0000000000
0
SPLINE
5
422
100
AcDbEntity
8
0
100
AcDbSpline
62
9
6
CONTINUOUS
70
0
71
3
72
20
73
16
74
14
42
0.0000001000
43
0.0000001000
44
0.0000000001
12
-0.3233360173
22
-0.1685802865
32
0.0000000000
13
-0.0000000000
23
-0.3646443378
33
0.0000000000
40
0.0000000000
40
0.0000000000
40
0.0000000000
40
0.0000000000
40
0.0671085764
40
0.1378762364
40
0.2119268150
40
0.2888003223
40
0.3679284895
40
0.4486699965
40
0.5303309064
40
0.6121889653
40
0.6935158242
40
0.7735994342
40
0.8517667386
40
0.9274075459
40
1.0000000000
40
1.0000000000
40
1.0000000000
40
1.0000000000
10
-15.8887761871
20
22.7034478676
30
0.0000000000
10
-15.8960090604
20
22.6996768066
30
0.0000000000
10
-15.9104213609
20
22.6910477333
30
0.0000000000
10
-15.9310818592
20
22.6755998343
30
0.0000000000
10
-15.9510989158
20
22.6575062469
30
0.0000000000
10
-15.9701851958
20
22.6370274912
30
0.0000000000
10
-15.9880748378
20
22.6144512557
30
0.0000000000
10
-16.0045159519
20
22.5900961122
30
0.0000000000
10
-16.0192770208
20
22.5643055637
30
0.0000000000
10
-16.0321497053
20
22.5374437572
30
0.0000000000
10
-16.0429522272
20
22.5098898564
30
0.0000000000
10
-16.0515319754
20
22.4820329273
30
0.0000000000
10
-16.0577676422
20
22.4542644509
30
0.0000000000
10
-16.0615706631
20
22.4269784460
30
0.0000000000
10
-16.0624677037
20
22.4089522092
30
0.0000000000
10
-16.0624677037
20
22.4001287334
30
0.0000000000
11
-15.8887761871
21
22.7034478676
31
0.0000000000
11
-15.9098088601
21
22.6909400748
31
0.0000000000
11
-15.9305129427
21
22.6755374661
31
0.0000000000
11
-15.9505778055
21
22.6574677125
31
0.0000000000
11
-15.9697178407
21
22.6369878825
31
0.0000000000
11
-15.9876593814
21
22.6143906802
31
0.0000000000
11
-16.0041467272
21
22.5899981636
31
0.0000000000
11
-16.0189446879
21
22.5641582466
31
0.0000000000
11
-16.0318421994
21
22.5372394496
31
0.0000000000
11
-16.0426552897
21
22.5096257110
31
0.0000000000
11
-16.0512297234
21
22.4817108774
31
0.0000000000
11
-16.0574431964
21
22.4538930978
31
0.0000000000
11
-16.0612070848
21
22.4265691260
31
0.0000000000
11
-16.0624677037
21
22.4001287334
31
0.0000000000
0
SPLINE
5
423
100
AcDbEntity
8
0
100
AcDbSpline
62
9
6
CONTINUOUS
70
0
71
3
72
20
73
16
74
14
42
0.0000001000
43
0.0000001000
44
0.0000000001
12
-0.3233360173
22
-0.1685802865
32
0.0000000000
13
0.0000000000
23
-0.3646443378
33
0.0000000000
40
0.0000000000
40
0.0000000000
40
0.0000000000
40
0.0000000000
40
0.0671085764
40
0.1378762364
40
0.2119268150
40
0.2888003223
40
0.3679284895
40
0.4486699965
40
0.5303309064
40
0.6121889653
40
0.6935158242
40
0.7735994342
40
0.8517667386
40
0.9274075459
40
1.0000000000
40
1.0000000000
40
1.0000000000
40
1.0000000000
10
1.1148971154
20
14.2016112164
30
0.0000000000
10
1.1076642421
20
14.1978401554
30
0.0000000000
10
1.0932519415
20
14.1892110821
30
0.0000000000
10
1.0725914432
20
14.1737631830
30
0.0000000000
10
1.0525743866
20
14.1556695957
30
0.0000000000
10
1.0334881067
20
14.1351908399
30
0.0000000000
10
1.0155984647
20
14.1126146044
30
0.0000000000
10
0.9991573506
20
14.0882594610
30
0.0000000000
10
0.9843962817
20
14.0624689124
30
0.0000000000
10
0.9715235972
20
14.0356071059
30
0.0000000000
10
0.9607210753
20
14.0080532052
30
0.0000000000
10
0.9521413271
20
13.9801962761
30
0.0000000000
10
0.9459056602
20
13.9524277997
30
0.0000000000
10
0.9421026394
20
13.9251417948
30
0.0000000000
10
0.9412055988
20
13.9071155579
30
0.0000000000
10
0.9412055988
20
13.8982920821
30
0.0000000000
11
1.1148971154
21
14.2016112164
31
0.0000000000
11
1.0938644424
21
14.1891034236
31
0.0000000000
11
1.0731603597
21
14.1737008149
31
0.0000000000
11
1.0530954970
21
14.1556310613
31
0.0000000000
11
1.0339554618
21
14.1351512313
31
0.0000000000
11
1.0160139211
21
14.1125540290
31
0.0000000000
11
0.9995265753
21
14.0881615124
31
0.0000000000
11
0.9847286146
21
14.0623215954
31
0.0000000000
11
0.9718311031
21
14.0354027983
31
0.0000000000
11
0.9610180128
21
14.0077890597
31
0.0000000000
11
0.9524435791
21
13.9798742262
31
0.0000000000
11
0.9462301061
21
13.9520564465
31
0.0000000000
11
0.9424662177
21
13.9247324748
31
0.0000000000
11
0.9412055988
21
13.8982920821
31
0.0000000000
0
SPLINE
5
424
100
AcDbEntity
8
0
100
AcDbSpline
62
9
6
CONTINUOUS
70
0
71
3
72
20
73
16
74
14
42
0.0000001000
43
0.0000001000
44
0.0000000001
12
-0.3247014263
22
-0.1567802612
32
0.0000000000
13
-0.3225040360
23
0.1612520180
33
0.0000000000
40
0.0000000000
40
0.0000000000
40
0.0000000000
40
0.0000000000
40
0.0683609818
40
0.1409552537
40
0.2171396534
40
0.2962105943
40
0.3773779599
40
0.4597993323
40
0.5425992437
40
0.6248928491
40
0.7058079711
40
0.7845078926
40
0.8602152094
40
0.9322380621
40
1.0000000000
40
1.0000000000
40
1.0000000000
40
1.0000000000
10
1.2916468867
20
13.8967629547
30
0.0000000000
10
1.2842479173
20
13.8931904039
30
0.0000000000
10
1.2686319066
20
13.8865549200
30
0.0000000000
10
1.2438375088
20
13.8783334040
30
0.0000000000
10
1.2172598397
20
13.8716370157
30
0.0000000000
10
1.1892805194
20
13.8665632350
30
0.0000000000
10
1.1602928947
20
13.8631836074
30
0.0000000000
10
1.1307068806
20
13.8615463522
30
0.0000000000
10
1.1009407326
20
13.8616747801
30
0.0000000000
10
1.0714156206
20
13.8635670741
30
0.0000000000
10
1.0425489874
20
13.8671963158
30
0.0000000000
10
1.0147487416
20
13.8725107969
30
0.0000000000
10
0.9884055992
20
13.8794356843
30
0.0000000000
10
0.9638922792
20
13.8878721938
30
0.0000000000
10
0.9484900983
20
13.8946498324
30
0.0000000000
10
0.9412055988
20
13.8982920821
30
0.0000000000
11
1.2916468867
21
13.8967629547
31
0.0000000000
11
1.2689881964
21
13.8870596269
31
0.0000000000
11
1.2441603428
21
13.8787694711
31
0.0000000000
11
1.2175330340
21
13.8720182628
31
0.0000000000
11
1.1894851742
21
13.8669021574
31
0.0000000000
11
1.1604176984
21
13.8634943546
31
0.0000000000
11
1.1307448770
21
13.8618434196
31
0.0000000000
11
1.1008899546
21
13.8619729201
31
0.0000000000
11
1.0712787243
21
13.8638810237
31
0.0000000000
11
1.0423335365
21
13.8675405273
31
0.0000000000
11
1.0144672346
21
13.8728992446
31
0.0000000000
11
0.9880772793
21
13.8798807492
31
0.0000000000
11
0.9635400624
21
13.8883854692
31
0.0000000000
11
0.9412055988
21
13.8982920821
31
0.0000000000
0
SPLINE
5
425
100
AcDbEntity
8
0
100
AcDbSpline
62
7
6
CONTINUOUS
70
0
71
3
72
16
73
12
74
10
42
0.0000001000
43
0.0000001000
44
0.0000000001
12
-0.3174201157
22
-0.3394104591
32
0.0000000000
13
-0.4219350432
23
-0.1949461982
33
0.0000000000
40
0.0000000000
40
0.0000000000
40
0.0000000000
40
0.0000000000
40
0.1189370807
40
0.2394716141
40
0.3612779593
40
0.4840820193
40
0.6076551278
40
0.7318090894
40
0.8563992623
40
0.9813285541
40
1.0000000000
40
1.0000000000
40
1.0000000000
40
1.0000000000
10
5.0468381613
20
-22.5034184386
30
0.0000000000
10
5.0342538207
20
-22.5168746016
30
0.0000000000
10
5.0083961718
20
-22.5434869130
30
0.0000000000
10
4.9678448938
20
-22.5820752069
30
0.0000000000
10
4.9252997154
20
-22.6193721910
30
0.0000000000
10
4.8808259170
20
-22.6551062515
30
0.0000000000
10
4.8344795826
20
-22.6889999789
30
0.0000000000
10
4.7863098691
20
-22.7207595844
30
0.0000000000
10
4.7363599783
20
-22.7500647111
30
0.0000000000
10
4.6993668329
20
-22.7690231939
30
0.0000000000
10
4.6792145997
20
-22.7784507603
30
0.0000000000
10
4.6765885539
20
-22.7796640695
30
0.0000000000
11
5.0468381613
21
-22.5034184386
31
0.0000000000
11
5.0083166576
21
-22.5430542725
31
0.0000000000
11
4.9677315436
21
-22.5816595379
31
0.0000000000
11
4.9251565682
21
-22.6189616741
31
0.0000000000
11
4.8806563217
21
-22.6546899556
31
0.0000000000
11
4.8342873415
21
-22.6885664665
31
0.0000000000
11
4.7861001872
21
-22.7202961513
31
0.0000000000
11
4.7361400884
21
-22.7495569691
31
0.0000000000
11
4.6844492957
21
-22.7759869199
31
0.0000000000
11
4.6765885539
21
-22.7796640695
31
0.0000000000
0
SPLINE
5
426
100
AcDbEntity
8
0
100
AcDbSpline
62
7
6
CONTINUOUS
70
0
71
3
72
20
73
16
74
14
42
0.0000001000
43
0.0000001000
44
0.0000000001
12
0.3225040326
22
-0.1612520163
32
0.0000000000
13
0.3247014228
23
0.1567802596
33
0.0000000000
40
0.0000000000
40
0.0000000000
40
0.0000000000
40
0.0000000000
40
0.0677490944
40
0.1398014674
40
0.2154501947
40
0.2942121204
40
0.3750375578
40
0.4574155153
40
0.5401145373
40
0.6226215912
40
0.7037014228
40
0.7828373901
40
0.8589683541
40
0.9315981643
40
1.0000000000
40
1.0000000000
40
1.0000000000
40
1.0000000000
10
0.9412055988
20
-21.4502120924
30
0.0000000000
10
0.9484887175
20
-21.4538536517
30
0.0000000000
10
0.9638926624
20
-21.4606322341
30
0.0000000000
10
0.9884012732
20
-21.4690670301
30
0.0000000000
10
1.0147481033
20
-21.4759932714
30
0.0000000000
10
1.0425381664
20
-21.4813060307
30
0.0000000000
10
1.0714114274
20
-21.4849366987
30
0.0000000000
10
1.1009238123
20
-21.4868287555
30
0.0000000000
10
1.1306982074
20
-21.4869579841
30
0.0000000000
10
1.1602719943
20
-21.4853223552
30
0.0000000000
10
1.1892672144
20
-21.4819428019
30
0.0000000000
10
1.2172378327
20
-21.4768719564
30
0.0000000000
10
1.2438212470
20
-21.4701753674
30
0.0000000000
10
1.2686188083
20
-21.4619545535
30
0.0000000000
10
1.2842434956
20
-21.4553159056
30
0.0000000000
10
1.2916468867
20
-21.4517412198
30
0.0000000000
11
0.9412055988
21
-21.4502120924
31
0.0000000000
11
0.9635357478
21
-21.4601170104
31
0.0000000000
11
0.9880830356
21
-21.4686251757
31
0.0000000000
11
1.0144524886
21
-21.4756015758
31
0.0000000000
11
1.0423406933
21
-21.4809647832
31
0.0000000000
11
1.0712537299
21
-21.4846207737
31
0.0000000000
11
1.1008952729
21
-21.4865314366
31
0.0000000000
11
1.1307138142
21
-21.4866615479
31
0.0000000000
11
1.1604175340
21
-21.4850098340
31
0.0000000000
11
1.1894537787
21
-21.4816067014
31
0.0000000000
11
1.2175249376
21
-21.4764876690
31
0.0000000000
11
1.2441338843
21
-21.4697424367
31
0.0000000000
11
1.2689744094
21
-21.4614497718
31
0.0000000000
11
1.2916468867
21
-21.4517412198
31
0.0000000000
0
SPLINE
5
427
100
AcDbEntity
8
0
100
AcDbSpline
62
9
6
CONTINUOUS
70
0
71
3
72
20
73
16
74
14
42
0.0000001000
43
0.0000001000
44
0.0000000001
12
-0.3247014263
22
-0.1567802612
32
0.0000000000
13
-0.3225040360
23
0.1612520180
33
0.0000000000
40
0.0000000000
40
0.0000000000
40
0.0000000000
40
0.0000000000
40
0.0683609818
40
0.1409552537
40
0.2171396534
40
0.2962105943
40
0.3773779599
40
0.4597993323
40
0.5425992437
40
0.6248928491
40
0.7058079711
40
0.7845078926
40
0.8602152094
40
0.9322380621
40
1.0000000000
40
1.0000000000
40
1.0000000000
40
1.0000000000
10
1.2916468867
20
-24.2376902120
30
0.0000000000
10
1.2842479173
20
-24.2412627628
30
0.0000000000
10
1.2686319066
20
-24.2478982467
30
0.0000000000
10
1.2438375088
20
-24.2561197627
30
0.0000000000
10
1.2172598397
20
-24.2628161510
30
0.0000000000
10
1.1892805194
20
-24.2678899317
30
0.0000000000
10
1.1602928947
20
-24.2712695594
30
0.0000000000
10
1.1307068806
20
-24.2729068146
30
0.0000000000
10
1.1009407326
20
-24.2727783866
30
0.0000000000
10
1.0714156206
20
-24.2708860926
30
0.0000000000
10
1.0425489874
20
-24.2672568509
30
0.0000000000
10
1.0147487416
20
-24.2619423698
30
0.0000000000
10
0.9884055992
20
-24.2550174824
30
0.0000000000
10
0.9638922792
20
-24.2465809729
30
0.0000000000
10
0.9484900983
20
-24.2398033343
30
0.0000000000
10
0.9412055988
20
-24.2361610846
30
0.0000000000
11
1.2916468867
21
-24.2376902120
31
0.0000000000
11
1.2689881964
21
-24.2473935398
31
0.0000000000
11
1.2441603428
21
-24.2556836956
31
0.0000000000
11
1.2175330340
21
-24.2624349039
31
0.0000000000
11
1.1894851742
21
-24.2675510093
31
0.0000000000
11
1.1604176984
21
-24.2709588121
31
0.0000000000
11
1.1307448770
21
-24.2726097471
31
0.0000000000
11
1.1008899546
21
-24.2724802467
31
0.0000000000
11
1.0712787243
21
-24.2705721430
31
0.0000000000
11
1.0423335365
21
-24.2669126394
31
0.0000000000
11
1.0144672346
21
-24.2615539222
31
0.0000000000
11
0.9880772793
21
-24.2545724175
31
0.0000000000
11
0.9635400624
21
-24.2460676975
31
0.0000000000
11
0.9412055988
21
-24.2361610846
31
0.0000000000
0
SPLINE
5
428
100
AcDbEntity
8
0
100
AcDbSpline
62
7
6
CONTINUOUS
70
0
71
3
72
36
73
32
74
30
42
0.0000001000
43
0.0000001000
44
0.0000000001
12
-1.6937029736
22
-0.8830594711
32
0.0000000000
13
-0.0001943632
23
1.9124762117
33
0.0000000000
40
0.0000000000
40
0.0000000000
40
0.0000000000
40
0.0000000000
40
0.0346653681
40
0.0708595930
40
0.1084499669
40
0.1472939831
40
0.1872302587
40
0.2280623566
40
0.2696241629
40
0.3116765987
40
0.3540549675
40
0.3964984742
40
0.4388435034
40
0.4808283915
40
0.5222927089
40
0.5629903058
40
0.6027711091
40
0.6414179662
40
0.6788014333
40
0.7147481817
40
0.7491618605
40
0.7819312157
40
0.8130106895
40
0.8423732475
40
0.8700512180
40
0.8961292034
40
0.9207525981
40
0.9441463506
40
0.9665938518
40
0.9884608746
40
1.0000000000
40
1.0000000000
40
1.0000000000
40
1.0000000000
10
-11.0379589133
20
24.0600907892
30
0.0000000000
10
-11.0575298590
20
24.0498869287
30
0.0000000000
10
-11.0982499574
20
24.0303787067
30
0.0000000000
10
-11.1622409362
20
24.0043410950
30
0.0000000000
10
-11.2300962110
20
23.9810381386
30
0.0000000000
10
-11.3013543378
20
23.9606277993
30
0.0000000000
10
-11.3755308691
20
23.9432482007
30
0.0000000000
10
-11.4521334812
20
23.9290143809
30
0.0000000000
10
-11.5306278929
20
23.9180256619
30
0.0000000000
10
-11.6105036780
20
23.9103534074
30
0.0000000000
10
-11.6911934226
20
23.9060522228
30
0.0000000000
10
-11.7721787982
20
23.9051497391
30
0.0000000000
10
-11.8528801257
20
23.9076524139
30
0.0000000000
10
-11.9327804098
20
23.9135442245
30
0.0000000000
10
-12.0113081410
20
23.9227829035
30
0.0000000000
10
-12.0879587549
20
23.9353090815
30
0.0000000000
10
-12.1621870154
20
23.9510334752
30
0.0000000000
10
-12.2335135421
20
23.9698546125
30
0.0000000000
10
-12.3014355585
20
23.9916398080
30
0.0000000000
10
-12.3655118300
20
24.0162481304
30
0.0000000000
10
-12.4252966750
20
24.0435093193
30
0.0000000000
10
-12.4803990532
20
24.0732474731
30
0.0000000000
10
-12.5304418817
20
24.1052632286
30
0.0000000000
10
-12.5750939880
20
24.1393527774
30
0.0000000000
10
-12.6140515357
20
24.1752981320
30
0.0000000000
10
-12.6470458868
20
24.2128755535
30
0.0000000000
10
-12.6738390889
20
24.2518543968
30
0.0000000000
10
-12.6942173251
20
24.2919855250
30
0.0000000000
10
-12.7079990938
20
24.3330090623
30
0.0000000000
10
-12.7139588052
20
24.3682149513
30
0.0000000000
10
-12.7148740356
20
24.3895193694
30
0.0000000000
10
-12.7148747832
20
24.3968754703
30
0.0000000000
11
-11.0379589133
21
24.0600907892
31
0.0000000000
11
-11.0976324107
21
24.0313968897
31
0.0000000000
11
-11.1616376246
21
24.0052655342
31
0.0000000000
11
-11.2295233646
21
23.9818800428
31
0.0000000000
11
-11.3008349615
21
23.9613957047
31
0.0000000000
11
-11.3750948925
21
23.9439499020
31
0.0000000000
11
-11.4517686827
21
23.9296669840
31
0.0000000000
11
-11.5303850111
21
23.9186351724
31
0.0000000000
11
-11.6103391400
21
23.9109386316
31
0.0000000000
11
-11.6911702354
21
23.9066219562
31
0.0000000000
11
-11.7722359048
21
23.9057192546
31
0.0000000000
11
-11.8530793455
21
23.9082356549
31
0.0000000000
11
-11.9330555634
21
23.9141512000
31
0.0000000000
11
-12.0117102471
21
23.9234322492
31
0.0000000000
11
-12.0884225006
21
23.9360057947
31
0.0000000000
11
-12.1627478164
21
23.9517989258
31
0.0000000000
11
-12.2341086408
21
23.9706892399
31
0.0000000000
11
-12.3020809708
21
23.9925643567
31
0.0000000000
11
-12.3661480097
21
24.0172583566
31
0.0000000000
11
-12.4259160609
21
24.0446191508
31
0.0000000000
11
-12.4809448520
21
24.0744456724
31
0.0000000000
11
-12.5308817333
21
24.1065461921
31
0.0000000000
11
-12.5753729263
21
24.1406937852
31
0.0000000000
11
-12.6141210865
21
24.1766594393
31
0.0000000000
11
-12.6468621177
21
24.2141984429
31
0.0000000000
11
-12.6733694472
21
24.2530499941
31
0.0000000000
11
-12.6934684413
21
24.2929585744
31
0.0000000000
11
-12.7070160568
21
24.3336386371
31
0.0000000000
11
-12.7139256617
21
24.3748310159
31
0.0000000000
11
-12.7148747832
21
24.3968754703
31
0.0000000000
0
SPLINE
5
429
100
AcDbEntity
8
0
100
AcDbSpline
62
7
6
CONTINUOUS
70
0
71
3
72
27
73
23
74
21
42
0.0000001000
43
0.0000001000
44
0.0000000001
12
-1.2297307781
22
-0.0373654939
32
0.0000000000
13
0.0000087940
23
1.2316595557
33
0.0000000000
40
0.0000000000
40
0.0000000000
40
0.0000000000
40
0.0000000000
40
0.0659020487
40
0.1316169670
40
0.1967803886
40
0.2610985021
40
0.3242374309
40
0.3859153654
40
0.4458471361
40
0.5037810762
40
0.5595017336
40
0.6128095491
40
0.6635841390
40
0.7117093376
40
0.7571908529
40
0.8000412708
40
0.8404332373
40
0.8785635504
40
0.9148164450
40
0.9496096156
40
0.9835390275
40
1.0000000000
40
1.0000000000
40
1.0000000000
40
1.0000000000
10
4.4023217987
20
15.8579986708
30
0.0000000000
10
4.3753078728
20
15.8571778500
30
0.0000000000
10
4.3213152851
20
15.8566752634
30
0.0000000000
10
4.2406363513
20
15.8593264348
30
0.0000000000
10
4.1607893749
20
15.8653649022
30
0.0000000000
10
4.0823293573
20
15.8747487874
30
0.0000000000
10
4.0057789243
20
15.8874154822
30
0.0000000000
10
3.9316629604
20
15.9032780427
30
0.0000000000
10
3.8604801479
20
15.9222297658
30
0.0000000000
10
3.7927120704
20
15.9441425446
30
0.0000000000
10
3.7288187895
20
15.9688681329
30
0.0000000000
10
3.6692254977
20
15.9962431163
30
0.0000000000
10
3.6143400974
20
16.0260824294
30
0.0000000000
10
3.5645215245
20
16.0581954758
30
0.0000000000
10
3.5201144723
20
16.0923680906
30
0.0000000000
10
3.4814083920
20
16.1283922055
30
0.0000000000
10
3.4486814505
20
16.1660333774
30
0.0000000000
10
3.4221617002
20
16.2050706357
30
0.0000000000
10
3.4020685326
20
16.2452449640
30
0.0000000000
10
3.3885771676
20
16.2863011202
30
0.0000000000
10
3.3829654863
20
16.3209331074
30
0.0000000000
10
3.3821500879
20
16.3416209519
30
0.0000000000
10
3.3821501361
20
16.3483790566
30
0.0000000000
11
4.4023217987
21
15.8579986708
31
0.0000000000
11
4.3212461204
21
15.8572451248
31
0.0000000000
11
4.2404410990
21
15.8599100591
31
0.0000000000
11
4.1605003266
21
15.8659741904
31
0.0000000000
11
4.0819331001
21
15.8753987205
31
0.0000000000
11
4.0053015531
21
15.8881166075
31
0.0000000000
11
3.9311096821
21
15.9040440550
31
0.0000000000
11
3.8598729153
21
15.9230708644
31
0.0000000000
11
3.7920759597
21
15.9450673455
31
0.0000000000
11
3.7281734771
21
15.9698865079
31
0.0000000000
11
3.6686172220
21
15.9973525094
31
0.0000000000
11
3.6137900084
21
16.0272893476
31
0.0000000000
11
3.5640947681
21
16.0594764872
31
0.0000000000
11
3.5198375529
21
16.0937161431
31
0.0000000000
11
3.4813540728
21
16.1297479812
31
0.0000000000
11
3.4488732588
21
16.1673579151
31
0.0000000000
11
3.4226468805
21
16.2062536854
31
0.0000000000
11
3.4028270114
21
16.2462099125
31
0.0000000000
11
3.3895696063
21
16.2869111790
31
0.0000000000
11
3.3829500476
21
16.3281262784
31
0.0000000000
11
3.3821501361
21
16.3483790566
31
0.0000000000
0
SPLINE
5
42A
100
AcDbEntity
8
0
100
AcDbSpline
62
9
6
CONTINUOUS
70
0
71
3
72
15
73
11
74
9
42
0.0000001000
43
0.0000001000
44
0.0000000001
12
0.0000000000
22
-0.1577880136
32
0.0000000000
13
0.1413634934
23
-0.0706671899
33
0.0000000000
40
0.0000000000
40
0.0000000000
40
0.0000000000
40
0.0000000000
40
0.1597796291
40
0.3109878379
40
0.4534578790
40
0.5875358520
40
0.7141589507
40
0.8348971671
40
0.9519123780
40
1.0000000000
40
1.0000000000
40
1.0000000000
40
1.0000000000
10
-16.0624677037
20
-15.7343244333
30
0.0000000000
10
-16.0624677037
20
-15.7427282034
30
0.0000000000
10
-16.0616922188
20
-15.7590998600
30
0.0000000000
10
-16.0579997520
20
-15.7827127205
30
0.0000000000
10
-16.0518495994
20
-15.8044188208
30
0.0000000000
10
-16.0433107029
20
-15.8239102039
30
0.0000000000
10
-16.0324799523
20
-15.8409038039
30
0.0000000000
10
-16.0194878771
20
-15.8551340659
30
0.0000000000
10
-16.0073825941
20
-15.8642062168
30
0.0000000000
10
-15.9997598495
20
-15.8684091563
30
0.0000000000
10
-15.9974939047
20
-15.8695418953
30
0.0000000000
11
-16.0624677037
21
-15.7343244333
31
0.0000000000
11
-16.0612070848
21
-15.7595042071
31
0.0000000000
11
-16.0574431964
21
-15.7830642905
31
0.0000000000
11
-16.0512297234
21
-15.8046685971
31
0.0000000000
11
-16.0426552897
21
-15.8240089970
31
0.0000000000
11
-16.0318421994
21
-15.8408096452
31
0.0000000000
11
-16.0189446879
21
-15.8548309308
31
0.0000000000
11
-16.0041467272
21
-15.8658728871
31
0.0000000000
11
-15.9974939047
21
-15.8695418953
31
0.0000000000
0
SPLINE
5
42B
100
AcDbEntity
8
0
100
AcDbSpline
62
9
6
CONTINUOUS
70
0
71
3
72
15
73
11
74
9
42
0.0000001000
43
0.0000001000
44
0.0000000001
12
0.0000000000
22
-0.1577880136
32
0.0000000000
13
0.1413634934
23
-0.0706671899
33
0.0000000000
40
0.0000000000
40
0.0000000000
40
0.0000000000
40
0.0000000000
40
0.1597796291
40
0.3109878379
40
0.4534578790
40
0.5875358520
40
0.7141589507
40
0.8348971671
40
0.9519123780
40
1.0000000000
40
1.0000000000
40
1.0000000000
40
1.0000000000
10
0.9412055988
20
-24.2361610846
30
0.0000000000
10
0.9412055988
20
-24.2445648547
30
0.0000000000
10
0.9419810837
20
-24.2609365112
30
0.0000000000
10
0.9456735505
20
-24.2845493717
30
0.0000000000
10
0.9518237031
20
-24.3062554720
30
0.0000000000
10
0.9603625996
20
-24.3257468551
30
0.0000000000
10
0.9711933502
20
-24.3427404551
30
0.0000000000
10
0.9841854254
20
-24.3569707172
30
0.0000000000
10
0.9962907084
20
-24.3660428681
30
0.0000000000
10
1.0039134530
20
-24.3702458075
30
0.0000000000
10
1.0061793977
20
-24.3713785466
30
0.0000000000
11
0.9412055988
21
-24.2361610846
31
0.0000000000
11
0.9424662177
21
-24.2613408583
31
0.0000000000
11
0.9462301061
21
-24.2849009417
31
0.0000000000
11
0.9524435791
21
-24.3065052483
31
0.0000000000
11
0.9610180128
21
-24.3258456482
31
0.0000000000
11
0.9718311031
21
-24.3426462965
31
0.0000000000
11
0.9847286146
21
-24.3566675820
31
0.0000000000
11
0.9995265753
21
-24.3677095383
31
0.0000000000
11
1.0061793977
21
-24.3713785466
31
0.0000000000
0
SPLINE
5
42C
100
AcDbEntity
8
0
100
AcDbSpline
62
7
6
CONTINUOUS
70
0
71
3
72
21
73
17
74
15
42
0.0000001000
43
0.0000001000
44
0.0000000001
12
0.3309764231
22
-0.1654882115
32
0.0000000000
13
-0.0000000000
23
-0.3700428904
33
0.0000000000
40
0.0000000000
40
0.0000000000
40
0.0000000000
40
0.0000000000
40
0.0609311874
40
0.1250442117
40
0.1921292810
40
0.2619310218
40
0.3340290784
40
0.4080239048
40
0.4833439581
40
0.5594986715
40
0.6358290875
40
0.7118004249
40
0.7867436839
40
0.8601252777
40
0.9313595064
40
1.0000000000
40
1.0000000000
40
1.0000000000
40
1.0000000000
10
1.2983804554
20
10.8542963503
30
0.0000000000
10
1.3051027175
20
10.8509352193
30
0.0000000000
10
1.3185157701
20
10.8432522559
30
0.0000000000
10
1.3378412719
20
10.8294791606
30
0.0000000000
10
1.3566815615
20
10.8133149316
30
0.0000000000
10
1.3748095625
20
10.7949499301
30
0.0000000000
10
1.3920141409
20
10.7745906407
30
0.0000000000
10
1.4080814206
20
10.7524772758
30
0.0000000000
10
1.4228152461
20
10.7288632369
30
0.0000000000
10
1.4360229587
20
10.7040365952
30
0.0000000000
10
1.4475350798
20
10.6782916099
30
0.0000000000
10
1.4571934371
20
10.6519537732
30
0.0000000000
10
1.4648670498
20
10.6253481386
30
0.0000000000
10
1.4704455070
20
10.5988200234
30
0.0000000000
10
1.4738485103
20
10.5727097712
30
0.0000000000
10
1.4746482614
20
10.5554490407
30
0.0000000000
10
1.4746482614
20
10.5469823984
30
0.0000000000
11
1.2983804554
21
10.8542963503
31
0.0000000000
11
1.3179761175
21
10.8431435874
31
0.0000000000
11
1.3373276172
21
10.8294186238
31
0.0000000000
11
1.3561971197
21
10.8132882062
31
0.0000000000
11
1.3743681859
21
10.7949311217
31
0.0000000000
11
1.3916095562
21
10.7745712566
31
0.0000000000
11
1.4077205115
21
10.7524314624
31
0.0000000000
11
1.4224847090
21
10.7287915098
31
0.0000000000
11
1.4357242030
21
10.7039146740
31
0.0000000000
11
1.4472513820
21
10.6781283602
31
0.0000000000
11
1.4569200863
21
10.6517306817
31
0.0000000000
11
1.4645870880
21
10.6250793567
31
0.0000000000
11
1.4701481821
21
10.5985005634
31
0.0000000000
11
1.4735184274
21
10.5723571841
31
0.0000000000
11
1.4746482614
21
10.5469823984
31
0.0000000000
0
SPLINE
5
42D
100
AcDbEntity
8
0
100
AcDbSpline
62
7
6
CONTINUOUS
70
0
71
3
72
18
73
14
74
12
42
0.0000001000
43
0.0000001000
44
0.0000000001
12
0.0197275489
22
-0.5987283535
32
0.0000000000
13
0.5361803409
23
-0.2681057967
33
0.0000000000
40
0.0000000000
40
0.0000000000
40
0.0000000000
40
0.0000000000
40
0.1115236295
40
0.2190650124
40
0.3224886888
40
0.4219203383
40
0.5173817497
40
0.6092772570
40
0.6978522699
40
0.7837928944
40
0.8675892054
40
0.9501548748
40
1.0000000000
40
1.0000000000
40
1.0000000000
40
1.0000000000
10
-16.5268004386
20
-13.5484243950
30
0.0000000000
10
-16.5260670759
20
-13.5706818480
30
0.0000000000
10
-16.5231728879
20
-13.6143718441
30
0.0000000000
10
-16.5142626251
20
-13.6782073519
30
0.0000000000
10
-16.5009095661
20
-13.7388037672
30
0.0000000000
10
-16.4831945311
20
-13.7957585148
30
0.0000000000
10
-16.4612127893
20
-13.8487331020
30
0.0000000000
10
-16.4351016273
20
-13.8973640001
30
0.0000000000
10
-16.4049999316
20
-13.9413592363
30
0.0000000000
10
-16.3711048563
20
-13.9804000022
30
0.0000000000
10
-16.3336059947
20
-14.0142405408
30
0.0000000000
10
-16.2980559331
20
-14.0389472173
30
0.0000000000
10
-16.2748555992
20
-14.0517109852
30
0.0000000000
10
-16.2659469404
20
-14.0561655742
30
0.0000000000
11
-16.5268004386
21
-13.5484243950
31
0.0000000000
11
-16.5223016794
21
-13.6150813488
31
0.0000000000
11
-16.5133051908
21
-13.6788731061
31
0.0000000000
11
-16.4998749677
21
-13.7393562536
31
0.0000000000
11
-16.4820829566
21
-13.7962018008
31
0.0000000000
11
-16.4600648850
21
-13.8489796079
31
0.0000000000
11
-16.4339282606
21
-13.8974297144
31
0.0000000000
11
-16.4038828152
21
-13.9411647914
31
0.0000000000
11
-16.3700659671
21
-13.9799838756
31
0.0000000000
11
-16.3327562250
21
-14.0135676204
31
0.0000000000
11
-16.2921203682
21
-14.0417658618
31
0.0000000000
11
-16.2659469404
21
-14.0561655742
31
0.0000000000
0
SPLINE
5
42E
100
AcDbEntity
8
0
100
AcDbSpline
62
9
6
CONTINUOUS
70
0
71
3
72
20
73
16
74
14
42
0.0000001000
43
0.0000001000
44
0.0000000001
12
-0.0566010296
22
0.3591872000
32
0.0000000000
13
-0.3224852626
23
0.1679951683
33
0.0000000000
40
0.0000000000
40
0.0000000000
40
0.0000000000
40
0.0000000000
40
0.0687513674
40
0.1416690507
40
0.2181477340
40
0.2974695631
40
0.3788343870
40
0.4613863684
40
0.5442384773
40
0.6264959242
40
0.7072793426
40
0.7857484746
40
0.8611272279
40
0.9327312879
40
1.0000000000
40
1.0000000000
40
1.0000000000
40
1.0000000000
10
-0.9028306344
20
8.8944084612
30
0.0000000000
10
-0.9041277671
20
8.9026399982
30
0.0000000000
10
-0.9076272409
20
8.9194783073
30
0.0000000000
10
-0.9151341569
20
8.9448570984
30
0.0000000000
10
-0.9249594387
20
8.9708053069
30
0.0000000000
10
-0.9369621287
20
8.9969484649
30
0.0000000000
10
-0.9509704541
20
9.0229121476
30
0.0000000000
10
-0.9667831235
20
9.0483224512
30
0.0000000000
10
-0.9841725684
20
9.0728134348
30
0.0000000000
10
-1.0028882455
20
9.0960322940
30
0.0000000000
10
-1.0226606102
20
9.1176449200
30
0.0000000000
10
-1.0432048913
20
9.1373406799
30
0.0000000000
10
-1.0642272225
20
9.1548379286
30
0.0000000000
10
-1.0854242440
20
9.1698851127
30
0.0000000000
10
-1.0999611219
20
9.1784276542
30
0.0000000000
10
-1.1071921780
20
9.1821945937
30
0.0000000000
11
-0.9028306344
21
8.8944084612
31
0.0000000000
11
-0.9078483079
21
8.9188990666
31
0.0000000000
11
-0.9153157643
21
8.9443400698
31
0.0000000000
11
-0.9251245304
21
8.9703619124
31
0.0000000000
11
-0.9371321234
21
8.9965865983
31
0.0000000000
11
-0.9511641198
21
9.0226331849
31
0.0000000000
11
-0.9670166893
21
9.0481233169
31
0.0000000000
11
-0.9844595559
21
9.0726867216
31
0.0000000000
11
-1.0032393428
21
9.0959665885
31
0.0000000000
11
-1.0230832527
21
9.1176247515
31
0.0000000000
11
-1.0437030309
21
9.1373466019
31
0.0000000000
11
-1.0647991522
21
9.1548456577
31
0.0000000000
11
-1.0860651721
21
9.1698677257
31
0.0000000000
11
-1.1071921780
21
9.1821945937
31
0.0000000000
0
SPLINE
5
42F
100
AcDbEntity
8
0
100
AcDbSpline
62
9
6
CONTINUOUS
70
0
71
3
72
24
73
20
74
18
42
0.0000001000
43
0.0000001000
44
0.0000000001
12
-1.0613254958
22
-0.7431906834
32
0.0000000000
13
-0.0416308962
23
-1.2949946210
33
0.0000000000
40
0.0000000000
40
0.0000000000
40
0.0000000000
40
0.0000000000
40
0.0538950528
40
0.1094018957
40
0.1663766670
40
0.2246458278
40
0.2840166276
40
0.3442806710
40
0.4052146508
40
0.4665866365
40
0.5281581239
40
0.5896890580
40
0.6509387843
40
0.7116710330
40
0.7716559039
40
0.8306760625
40
0.8885274009
40
0.9450222925
40
1.0000000000
40
1.0000000000
40
1.0000000000
40
1.0000000000
10
-1.1071921780
20
9.1821945937
30
0.0000000000
10
-1.1262589092
20
9.1688431600
30
0.0000000000
10
-1.1640547022
20
9.1404233150
30
0.0000000000
10
-1.2187034752
20
9.0937029551
30
0.0000000000
10
-1.2718528027
20
9.0425203858
30
0.0000000000
10
-1.3231643156
20
8.9872017866
30
0.0000000000
10
-1.3723147693
20
8.9280971153
30
0.0000000000
10
-1.4189931291
20
8.8655809642
30
0.0000000000
10
-1.4629041434
20
8.8000493145
30
0.0000000000
10
-1.5037695040
20
8.7319179144
30
0.0000000000
10
-1.5413305209
20
8.6616184336
30
0.0000000000
10
-1.5753492562
20
8.5895964362
30
0.0000000000
10
-1.6056102632
20
8.5163081289
30
0.0000000000
10
-1.6319216359
20
8.4422182896
30
0.0000000000
10
-1.6541167344
20
8.3677959220
30
0.0000000000
10
-1.6720548898
20
8.2935123154
30
0.0000000000
10
-1.6856221829
20
8.2198364462
30
0.0000000000
10
-1.6947322776
20
8.1472373328
30
0.0000000000
10
-1.6978401480
20
8.0991571413
30
0.0000000000
10
-1.6986030718
20
8.0754251961
30
0.0000000000
11
-1.1071921780
21
9.1821945937
31
0.0000000000
11
-1.1630461781
21
9.1402834989
31
0.0000000000
11
-1.2177503013
21
9.0935963925
31
0.0000000000
11
-1.2709594246
21
9.0424280235
31
0.0000000000
11
-1.3223331907
21
8.9871056219
31
0.0000000000
11
-1.3715444812
21
8.9279816786
31
0.0000000000
11
-1.4182808289
21
8.8654316881
31
0.0000000000
11
-1.4622440462
21
8.7998547971
31
0.0000000000
11
-1.5031543717
21
8.7316685088
31
0.0000000000
11
-1.5407512010
21
8.6613074516
31
0.0000000000
11
-1.5747957538
21
8.5892187026
31
0.0000000000
11
-1.6050711434
21
8.5158616423
31
0.0000000000
11
-1.6313847665
21
8.4417031401
31
0.0000000000
11
-1.6535689113
21
8.3672162588
31
0.0000000000
11
-1.6714828571
21
8.2928738547
31
0.0000000000
11
-1.6850125622
21
8.2191491631
31
0.0000000000
11
-1.6940716921
21
8.1465135360
31
0.0000000000
11
-1.6986030718
21
8.0754251961
31
0.0000000000
0
SPLINE
5
430
100
AcDbEntity
8
0
100
AcDbSpline
62
9
6
CONTINUOUS
70
0
71
3
72
24
73
20
74
18
42
0.0000001000
43
0.0000001000
44
0.0000000001
12
-0.7981723391
22
-0.5548132839
32
0.0000000000
13
-0.0313732617
23
-0.9715516360
33
0.0000000000
40
0.0000000000
40
0.0000000000
40
0.0000000000
40
0.0000000000
40
0.0539589923
40
0.1095292189
40
0.1665539562
40
0.2248602823
40
0.2842561848
40
0.3445341463
40
0.4054718530
40
0.4668384103
40
0.5283964452
40
0.5899072038
40
0.6511314288
40
0.7118343412
40
0.7717876236
40
0.8307756160
40
0.8885959620
40
0.9450629093
40
1.0000000000
40
1.0000000000
40
1.0000000000
40
1.0000000000
10
-0.9028306344
20
8.8944084612
30
0.0000000000
10
-0.9171868261
20
8.8844294060
30
0.0000000000
10
-0.9456494225
20
8.8631812122
30
0.0000000000
10
-0.9868114468
20
8.8282315193
30
0.0000000000
10
-1.0268473874
20
8.7899296472
30
0.0000000000
10
-1.0654989570
20
8.7485223763
30
0.0000000000
10
-1.1025226807
20
8.7042717237
30
0.0000000000
10
-1.1376842278
20
8.6574581455
30
0.0000000000
10
-1.1707611661
20
8.6083782017
30
0.0000000000
10
-1.2015438133
20
8.5573433232
30
0.0000000000
10
-1.2298372754
20
8.5046769199
30
0.0000000000
10
-1.2554623082
20
8.4507128391
30
0.0000000000
10
-1.2782566205
20
8.3957929230
30
0.0000000000
10
-1.2980756605
20
8.3402654791
30
0.0000000000
10
-1.3147938896
20
8.2844820160
30
0.0000000000
10
-1.3283053841
20
8.2287958116
30
0.0000000000
10
-1.3385242288
20
8.1735584113
30
0.0000000000
10
-1.3453849008
20
8.1191271810
30
0.0000000000
10
-1.3477248584
20
8.0830781059
30
0.0000000000
10
-1.3482993770
20
8.0652866991
30
0.0000000000
11
-0.9028306344
21
8.8944084612
31
0.0000000000
11
-0.9448924912
21
8.8630725991
31
0.0000000000
11
-0.9860988476
21
8.8281451740
31
0.0000000000
11
-1.0261791416
21
8.7898541152
31
0.0000000000
11
-1.0648769701
21
8.7484442663
31
0.0000000000
11
-1.1019459097
21
8.7041794941
31
0.0000000000
11
-1.1371505689
21
8.6573409301
31
0.0000000000
11
-1.1702663132
21
8.6082274761
31
0.0000000000
11
-1.2010823553
21
8.5571518897
31
0.0000000000
11
-1.2294023468
21
8.5044398193
31
0.0000000000
11
-1.2550464214
21
8.4504262275
31
0.0000000000
11
-1.2778512064
21
8.3954553389
31
0.0000000000
11
-1.2976716247
21
8.3398770324
31
0.0000000000
11
-1.3143813483
21
8.2840458699
31
0.0000000000
11
-1.3278743924
21
8.2283162992
31
0.0000000000
11
-1.3380648402
21
8.1730430978
31
0.0000000000
11
-1.3448877341
21
8.1185796512
31
0.0000000000
11
-1.3482993770
21
8.0652866991
31
0.0000000000
0
SPLINE
5
431
100
AcDbEntity
8
0
100
AcDbSpline
62
9
6
CONTINUOUS
70
0
71
3
72
20
73
16
74
14
42
0.0000001000
43
0.0000001000
44
0.0000000001
12
-0.3297578722
22
-0.1435465628
32
0.0000000000
13
-0.3215659771
23
0.1610626968
33
0.0000000000
40
0.0000000000
40
0.0000000000
40
0.0000000000
40
0.0000000000
40
0.0674707872
40
0.1393674456
40
0.2150795498
40
0.2938823126
40
0.3749664903
40
0.4574643383
40
0.5404732805
40
0.6230783926
40
0.7043744963
40
0.7834885599
40
0.8596031787
40
0.9319821894
40
1.0000000000
40
1.0000000000
40
1.0000000000
40
1.0000000000
10
-1.3482993770
20
8.0652866991
30
0.0000000000
10
-1.3557157181
20
8.0620582993
30
0.0000000000
10
-1.3713577966
20
8.0561169798
30
0.0000000000
10
-1.3961369644
20
8.0489078685
30
0.0000000000
10
-1.4226936806
20
8.0431955516
30
0.0000000000
10
-1.4506522792
20
8.0390619092
30
0.0000000000
10
-1.4796196280
20
8.0365654651
30
0.0000000000
10
-1.5091862349
20
8.0357420542
30
0.0000000000
10
-1.5389338936
20
8.0366035574
30
0.0000000000
10
-1.5684415425
20
8.0391377954
30
0.0000000000
10
-1.5972917805
20
8.0433087116
30
0.0000000000
10
-1.6250767256
20
8.0490568160
30
0.0000000000
10
-1.6514055389
20
8.0563008474
30
0.0000000000
10
-1.6759057227
20
8.0649372295
30
0.0000000000
10
-1.6913123338
20
8.0717734855
30
0.0000000000
10
-1.6986030718
20
8.0754251962
30
0.0000000000
11
-1.3482993770
21
8.0652866991
31
0.0000000000
11
-1.3709581661
21
8.0566033009
31
0.0000000000
11
-1.3957703937
21
8.0493260138
31
0.0000000000
11
-1.4223822219
21
8.0435586164
31
0.0000000000
11
-1.4504141489
21
8.0393833555
31
0.0000000000
11
-1.4794664219
21
8.0368597730
31
0.0000000000
11
-1.5091247368
21
8.0360238567
31
0.0000000000
11
-1.5389661473
21
8.0368875275
31
0.0000000000
11
-1.5685650960
21
8.0394384687
31
0.0000000000
11
-1.5974994831
21
8.0436403023
31
0.0000000000
11
-1.6253566858
21
8.0494331076
31
0.0000000000
11
-1.6517394427
21
8.0567342754
31
0.0000000000
11
-1.6762715190
21
8.0654396865
31
0.0000000000
11
-1.6986030718
21
8.0754251962
31
0.0000000000
0
SPLINE
5
432
100
AcDbEntity
8
0
100
AcDbSpline
62
9
6
CONTINUOUS
70
0
71
3
72
16
73
12
74
10
42
0.0000001000
43
0.0000001000
44
0.0000000001
12
-0.9371580308
22
-29.0279621384
32
0.0000000000
13
0.9672836901
23
-29.0269738924
33
0.0000000000
40
0.0000000000
40
0.0000000000
40
0.0000000000
40
0.0000000000
40
0.1126611159
40
0.2249412202
40
0.3368373966
40
0.4483468166
40
0.5594667430
40
0.6701945303
40
0.7805276257
40
0.8904635699
40
1.0000000000
40
1.0000000000
40
1.0000000000
40
1.0000000000
10
-1.6986030718
20
8.0754251961
30
0.0000000000
10
-1.7337968283
20
6.9853176603
30
0.0000000000
10
-1.7963927309
20
4.8085335327
30
0.0000000000
10
-1.8669482913
20
1.5483380690
30
0.0000000000
10
-1.9140021824
20
-1.7011324757
30
0.0000000000
10
-1.9375507026
20
-4.9396261872
30
0.0000000000
10
-1.9375920435
20
-8.1668947595
30
0.0000000000
10
-1.9141261854
20
-11.3826898210
30
0.0000000000
10
-1.8671548924
20
-14.5867648782
30
0.0000000000
10
-1.7966818356
20
-17.7788712551
30
0.0000000000
10
-1.7339206726
20
-19.9026860458
30
0.0000000000
10
-1.6986030718
20
-20.9625230784
30
0.0000000000
11
-1.6986030718
21
8.0754251961
31
0.0000000000
11
-1.7926159757
21
4.8047495877
31
0.0000000000
11
-1.8631319759
21
1.5445513687
31
0.0000000000
11
-1.9101456533
21
-1.7049188359
31
0.0000000000
11
-1.9336533950
21
-4.9434112066
31
0.0000000000
11
-1.9336533950
21
-8.1706767971
31
0.0000000000
11
-1.9101456533
21
-11.3864675391
31
0.0000000000
11
-1.8631319759
21
-14.5905362306
31
0.0000000000
11
-1.7926159757
21
-17.7826365409
31
0.0000000000
11
-1.6986030718
21
-20.9625230784
31
0.0000000000
0
SPLINE
5
433
100
AcDbEntity
8
0
100
AcDbSpline
62
9
6
CONTINUOUS
70
0
71
3
72
16
73
12
74
10
42
0.0000001000
43
0.0000001000
44
0.0000000001
12
-0.9366163067
22
-29.0108866621
32
0.0000000000
13
0.9667242305
23
-29.0098989879
33
0.0000000000
40
0.0000000000
40
0.0000000000
40
0.0000000000
40
0.0000000000
40
0.1126610903
40
0.2249411848
40
0.3368373551
40
0.4483467730
40
0.5594667013
40
0.6701944946
40
0.7805276003
40
0.8904635591
40
1.0000000000
40
1.0000000000
40
1.0000000000
40
1.0000000000
10
-1.3482993770
20
8.0652866991
30
0.0000000000
10
-1.3834727818
20
6.9758206587
30
0.0000000000
10
-1.4460324969
20
4.8003173454
30
0.0000000000
10
-1.5165472647
20
1.5420400481
30
0.0000000000
10
-1.5635739539
20
-1.7055188750
30
0.0000000000
10
-1.5871088604
20
-4.9421075401
30
0.0000000000
10
-1.5871501773
20
-8.1674777871
30
0.0000000000
10
-1.5636978851
20
-11.3813813905
30
0.0000000000
10
-1.5167537461
20
-14.5835720018
30
0.0000000000
10
-1.4463214333
20
-17.7738010106
30
0.0000000000
10
-1.3835965542
20
-19.8963667338
30
0.0000000000
10
-1.3482993770
20
-20.9555804294
30
0.0000000000
11
-1.3482993770
21
8.0652866991
31
0.0000000000
11
-1.4422579203
21
4.7965357774
31
0.0000000000
11
-1.5127331548
21
1.5382556104
31
0.0000000000
11
-1.5597196536
21
-1.7093029711
31
0.0000000000
11
-1.5832138057
21
-4.9458902944
31
0.0000000000
11
-1.5832138061
21
-8.1712575597
31
0.0000000000
11
-1.5597196547
21
-11.3851568445
31
0.0000000000
11
-1.5127331567
21
-14.5873410921
31
0.0000000000
11
-1.4422579229
21
-17.7775641167
31
0.0000000000
11
-1.3482993770
21
-20.9555804294
31
0.0000000000
0
SPLINE
5
434
100
AcDbEntity
8
0
100
AcDbSpline
62
9
6
CONTINUOUS
70
0
71
3
72
20
73
16
74
14
42
0.0000001000
43
0.0000001000
44
0.0000000001
12
-0.3193128795
22
-0.1693570580
32
0.0000000000
13
-0.3233917077
23
0.1614321267
33
0.0000000000
40
0.0000000000
40
0.0000000000
40
0.0000000000
40
0.0000000000
40
0.0693511607
40
0.1426472185
40
0.2193066965
40
0.2986414704
40
0.3798854468
40
0.4622200205
40
0.5447976282
40
0.6267643498
40
0.7072823095
40
0.7855525880
40
0.8608394635
40
0.9324970697
40
1.0000000000
40
1.0000000000
40
1.0000000000
40
1.0000000000
10
-1.3482993770
20
-20.9555804294
30
0.0000000000
10
-1.3556809500
20
-20.9594954655
30
0.0000000000
10
-1.3712603534
20
-20.9668154301
30
0.0000000000
10
-1.3960490800
20
-20.9760352141
30
0.0000000000
10
-1.4226158138
20
-20.9836982649
30
0.0000000000
10
-1.4505844306
20
-20.9896954921
30
0.0000000000
10
-1.4795616956
20
-20.9939426240
30
0.0000000000
10
-1.5091382108
20
-20.9963793681
30
0.0000000000
10
-1.5388959791
20
-20.9969712067
30
0.0000000000
10
-1.5684142295
20
-20.9957098024
30
0.0000000000
10
-1.5972759361
20
-20.9926130999
30
0.0000000000
10
-1.6250735963
20
-20.9877251385
30
0.0000000000
10
-1.6514169762
20
-20.9811143816
30
0.0000000000
10
-1.6759334402
20
-20.9728748187
30
0.0000000000
10
-1.6913264172
20
-20.9661554451
30
0.0000000000
10
-1.6986030465
20
-20.9625230646
30
0.0000000000
11
-1.3482993770
21
-20.9555804294
31
0.0000000000
11
-1.3709581663
21
-20.9663002900
31
0.0000000000
11
-1.3957703936
21
-20.9755849985
31
0.0000000000
11
-1.4223822207
21
-20.9833021490
31
0.0000000000
11
-1.4504141462
21
-20.9893416899
31
0.0000000000
11
-1.4794664171
21
-20.9936174937
31
0.0000000000
11
-1.5091247296
21
-20.9960685847
31
0.0000000000
11
-1.5389661375
21
-20.9966600087
31
0.0000000000
11
-1.5685650834
21
-20.9953833317
31
0.0000000000
11
-1.5974994676
21
-20.9922567599
31
0.0000000000
11
-1.6253566675
21
-20.9873248803
31
0.0000000000
11
-1.6517394218
21
-20.9806580244
31
0.0000000000
11
-1.6762714958
21
-20.9723512660
31
0.0000000000
11
-1.6986030465
21
-20.9625230646
31
0.0000000000
0
SPLINE
5
435
100
AcDbEntity
8
0
100
AcDbSpline
62
9
6
CONTINUOUS
70
0
71
3
72
18
73
14
74
12
42
0.0000001000
43
0.0000001000
44
0.0000000001
12
0.0199287686
22
-0.6005104345
32
0.0000000000
13
0.5377468226
23
-0.2689611641
33
0.0000000000
40
0.0000000000
40
0.0000000000
40
0.0000000000
40
0.0000000000
40
0.1112240679
40
0.2184911389
40
0.3217429742
40
0.4210124372
40
0.5164473362
40
0.6083190877
40
0.6970244845
40
0.7830902405
40
0.8671618623
40
0.9499852982
40
1.0000000000
40
1.0000000000
40
1.0000000000
40
1.0000000000
10
-1.6986030718
20
-20.9625230784
30
0.0000000000
10
-1.6978642189
20
-20.9847868162
30
0.0000000000
10
-1.6949483994
20
-21.0284916058
30
0.0000000000
10
-1.6859727177
20
-21.0923619054
30
0.0000000000
10
-1.6725232443
20
-21.1530025066
30
0.0000000000
10
-1.6546772216
20
-21.2100276700
30
0.0000000000
10
-1.6325376103
20
-21.2630763883
30
0.0000000000
10
-1.6062325768
20
-21.3118083383
30
0.0000000000
10
-1.5759161639
20
-21.3559056052
30
0.0000000000
10
-1.5417703646
20
-21.3950729633
30
0.0000000000
10
-1.5040070803
20
-21.4290412390
30
0.0000000000
10
-1.4682123571
20
-21.4538667354
30
0.0000000000
10
-1.4448655449
20
-21.4667048162
30
0.0000000000
10
-1.4359004626
20
-21.4711888204
30
0.0000000000
11
-1.6986030718
21
-20.9625230784
31
0.0000000000
11
-1.6940716808
21
-21.0291972549
31
0.0000000000
11
-1.6850125461
21
-21.0930078612
31
0.0000000000
11
-1.6714828375
21
-21.1535524961
31
0.0000000000
11
-1.6535688810
21
-21.2104439364
31
0.0000000000
11
-1.6313847340
21
-21.2633199908
31
0.0000000000
11
-1.6050711090
21
-21.3118449141
31
0.0000000000
11
-1.5747957133
21
-21.3557090262
31
0.0000000000
11
-1.5407511503
21
-21.3946330782
31
0.0000000000
11
-1.5031543157
21
-21.4283689618
31
0.0000000000
11
-1.4622439916
21
-21.4567022113
31
0.0000000000
11
-1.4359004626
21
-21.4711888204
31
0.0000000000
0
SPLINE
5
436
100
AcDbEntity
8
0
100
AcDbSpline
62
9
6
CONTINUOUS
70
0
71
3
72
24
73
20
74
18
42
0.0000001000
43
0.0000001000
44
0.0000000001
12
0.0234903743
22
-0.7047702435
32
0.0000000000
13
0.6806835520
23
0.1841814210
33
0.0000000000
40
0.0000000000
40
0.0000000000
40
0.0000000000
40
0.0000000000
40
0.0710738662
40
0.1396515884
40
0.2056807065
40
0.2691848193
40
0.3302607490
40
0.3890838253
40
0.4459087657
40
0.5010722373
40
0.5549855438
40
0.6081228251
40
0.6609980812
40
0.7141400191
40
0.7680620521
40
0.8232381816
40
0.8800796751
40
0.9389209071
40
1.0000000000
40
1.0000000000
40
1.0000000000
40
1.0000000000
10
-1.3482993770
20
-20.9555804294
30
0.0000000000
10
-1.3477428598
20
-20.9722773447
30
0.0000000000
10
-1.3455466412
20
-21.0050616057
30
0.0000000000
10
-1.3387862408
20
-21.0529777591
30
0.0000000000
10
-1.3286551172
20
-21.0984829619
30
0.0000000000
10
-1.3152118623
20
-21.1412833921
30
0.0000000000
10
-1.2985341556
20
-21.1811079617
30
0.0000000000
10
-1.2787186346
20
-21.2177010187
30
0.0000000000
10
-1.2558815623
20
-21.2508237020
30
0.0000000000
10
-1.2301603310
20
-21.2802542074
30
0.0000000000
10
-1.2017148787
20
-21.3057903957
30
0.0000000000
10
-1.1707293099
20
-21.3272530490
30
0.0000000000
10
-1.1374113280
20
-21.3444910176
30
0.0000000000
10
-1.1019894937
20
-21.3573859686
30
0.0000000000
10
-1.0647070996
20
-21.3658554638
30
0.0000000000
10
-1.0258170165
20
-21.3698527379
30
0.0000000000
10
-0.9855758264
20
-21.3693633853
30
0.0000000000
10
-0.9442524213
20
-21.3644052585
30
0.0000000000
10
-0.9166891457
20
-21.3582679051
30
0.0000000000
10
-0.9028306344
20
-21.3545180271
30
0.0000000000
11
-1.3482993770
21
-20.9555804294
31
0.0000000000
11
-1.3448873229
21
-21.0055827105
31
0.0000000000
11
-1.3380641462
21
-21.0534573058
31
0.0000000000
11
-1.3278733873
21
-21.0988896038
31
0.0000000000
11
-1.3143800192
21
-21.1415889800
31
0.0000000000
11
-1.2976699640
21
-21.1812835793
31
0.0000000000
11
-1.2778492053
21
-21.2177213243
31
0.0000000000
11
-1.2550440687
21
-21.2506696484
31
0.0000000000
11
-1.2293996631
21
-21.2799187388
31
0.0000000000
11
-1.2010794133
21
-21.3052821160
31
0.0000000000
11
-1.1702632055
21
-21.3265985420
31
0.0000000000
11
-1.1371473558
21
-21.3437320329
31
0.0000000000
11
-1.1019426157
21
-21.3565734135
31
0.0000000000
11
-1.0648736217
21
-21.3650407069
31
0.0000000000
11
-1.0261757842
21
-21.3690801006
31
0.0000000000
11
-0.9860954876
21
-21.3686656902
31
0.0000000000
11
-0.9448891575
21
-21.3638002638
31
0.0000000000
11
-0.9028306344
21
-21.3545180271
31
0.0000000000
0
SPLINE
5
437
100
AcDbEntity
8
0
100
AcDbSpline
62
9
6
CONTINUOUS
70
0
71
3
72
16
73
12
74
10
42
0.0000001000
43
0.0000001000
44
0.0000000001
12
-0.9346714571
22
29.0276959060
32
0.0000000000
13
0.9045423378
23
29.0286503906
33
0.0000000000
40
0.0000000000
40
0.0000000000
40
0.0000000000
40
0.0000000000
40
0.1094790329
40
0.2193728598
40
0.3296787179
40
0.4403937481
40
0.5515149991
40
0.6630394282
40
0.7749639016
40
0.8872851956
40
1.0000000000
40
1.0000000000
40
1.0000000000
40
1.0000000000
10
-18.6116965835
20
-12.5059763225
30
0.0000000000
10
-18.6458055592
20
-11.4466682978
30
0.0000000000
10
-18.7064176715
20
-9.3237817618
30
0.0000000000
10
-18.7744723808
20
-6.1328901916
30
0.0000000000
10
-18.8198313374
20
-2.9296270731
30
0.0000000000
10
-18.8424909989
20
0.2857591376
30
0.0000000000
10
-18.8424496583
20
3.5130219350
30
0.0000000000
10
-18.8197073324
20
6.7519129704
30
0.0000000000
10
-18.7742657666
20
10.0021838659
30
0.0000000000
10
-18.7061285288
20
13.2635827941
30
0.0000000000
10
-18.6456816877
20
15.4413190682
30
0.0000000000
10
-18.6116965835
20
16.5319719520
30
0.0000000000
11
-18.6116965835
21
-12.5059763225
31
0.0000000000
11
-18.7024856545
21
-9.3277017016
31
0.0000000000
11
-18.7705835631
21
-6.1368104370
31
0.0000000000
11
-18.8159850762
21
-2.9335478277
31
0.0000000000
11
-18.8386867049
21
0.2818398578
31
0.0000000000
11
-18.8386867049
21
3.5091054483
31
0.0000000000
11
-18.8159850762
21
6.7480008755
31
0.0000000000
11
-18.7705835631
21
9.9982771623
31
0.0000000000
11
-18.7024856545
21
13.2596844270
31
0.0000000000
11
-18.6116965835
21
16.5319719520
31
0.0000000000
0
SPLINE
5
438
100
AcDbEntity
8
0
100
AcDbSpline
62
9
6
CONTINUOUS
70
0
71
3
72
16
73
12
74
10
42
0.0000001000
43
0.0000001000
44
0.0000000001
12
-0.0267036180
22
-0.1952471603
32
0.0000000000
13
-0.1904798021
23
-0.0515302338
33
0.0000000000
40
0.0000000000
40
0.0000000000
40
0.0000000000
40
0.0000000000
40
0.1384183407
40
0.2713841348
40
0.3985280733
40
0.5197895362
40
0.6354648679
40
0.7462417898
40
0.8532034335
40
0.9577820007
40
1.0000000000
40
1.0000000000
40
1.0000000000
40
1.0000000000
10
-0.9028306344
20
-21.3545180271
30
0.0000000000
10
-0.9040627245
20
-21.3635266231
30
0.0000000000
10
-0.9073152620
20
-21.3810893731
30
0.0000000000
10
-0.9147317250
20
-21.4062463858
30
0.0000000000
10
-0.9244979502
20
-21.4293796473
30
0.0000000000
10
-0.9364840990
20
-21.4501526253
30
0.0000000000
10
-0.9505318275
20
-21.4682613076
30
0.0000000000
10
-0.9664529785
20
-21.4834304860
30
0.0000000000
10
-0.9840262003
20
-21.4954176144
30
0.0000000000
10
-0.9992851824
20
-21.5023388595
30
0.0000000000
10
-1.0085148973
20
-21.5051957760
30
0.0000000000
10
-1.0111954560
20
-21.5059209438
30
0.0000000000
11
-0.9028306344
21
-21.3545180271
31
0.0000000000
11
-0.9078483085
21
-21.3813299382
31
0.0000000000
11
-0.9153157656
21
-21.4064462258
31
0.0000000000
11
-0.9251245328
21
-21.4295020481
31
0.0000000000
11
-0.9371321267
21
-21.4501624938
31
0.0000000000
11
-0.9511641239
21
-21.4681274469
31
0.0000000000
11
-0.9670166939
21
-21.4831359467
31
0.0000000000
11
-0.9844595608
21
-21.4949699782
31
0.0000000000
11
-1.0032393476
21
-21.5034576389
31
0.0000000000
11
-1.0111954560
21
-21.5059209438
31
0.0000000000
0
SPLINE
5
439
100
AcDbEntity
8
0
100
AcDbSpline
62
7
6
CONTINUOUS
70
0
71
3
72
17
73
13
74
11
42
0.0000001000
43
0.0000001000
44
0.0000000001
12
0.0000000000
22
-0.1795327840
32
0.0000000000
13
-0.1735226082
23
-0.0469575405
33
0.0000000000
40
0.0000000000
40
0.0000000000
40
0.0000000000
40
0.0000000000
40
0.1351912585
40
0.2634194718
40
0.3845169225
40
0.4985577521
40
0.6061819443
40
0.7083121726
40
0.8064949233
40
0.9024480924
40
0.9982636196
40
1.0000000000
40
1.0000000000
40
1.0000000000
40
1.0000000000
10
1.4746482614
20
-20.7111872823
30
0.0000000000
10
1.4746482614
20
-20.7192777033
30
0.0000000000
10
1.4739501733
20
-20.7350541793
30
0.0000000000
10
1.4706406967
20
-20.7578673430
30
0.0000000000
10
1.4651377079
20
-20.7789571064
30
0.0000000000
10
1.4575078999
20
-20.7980617613
30
0.0000000000
10
1.4478445249
20
-20.8149391495
30
0.0000000000
10
1.4362611403
20
-20.8293775412
30
0.0000000000
10
1.4229066518
20
-20.8411798880
30
0.0000000000
10
1.4079598071
20
-20.8501855208
30
0.0000000000
10
1.3970488553
20
-20.8542561746
30
0.0000000000
10
1.3914088202
20
-20.8557922828
30
0.0000000000
10
1.3913083864
20
-20.8558194616
30
0.0000000000
11
1.4746482614
21
-20.7111872823
31
0.0000000000
11
1.4735184274
21
-20.7354322340
31
0.0000000000
11
1.4701481821
21
-20.7582053679
31
0.0000000000
11
1.4645870880
21
-20.7792230671
31
0.0000000000
11
1.4569200863
21
-20.7982073904
31
0.0000000000
11
1.4472513820
21
-20.8149363647
31
0.0000000000
11
1.4357242030
21
-20.8291954995
31
0.0000000000
11
1.4224847090
21
-20.8408328413
31
0.0000000000
11
1.4077205115
21
-20.8497085964
31
0.0000000000
11
1.3916095562
21
-20.8557374353
31
0.0000000000
11
1.3913083864
21
-20.8558194616
31
0.0000000000
0
SPLINE
5
43A
100
AcDbEntity
8
0
100
AcDbSpline
62
9
6
CONTINUOUS
70
0
71
3
72
24
73
20
74
18
42
0.0000001000
43
0.0000001000
44
0.0000000001
12
0.0404660335
22
1.2926968509
32
0.0000000000
13
1.0435667454
23
0.7639837014
33
0.0000000000
40
0.0000000000
40
0.0000000000
40
0.0000000000
40
0.0000000000
40
0.0551164051
40
0.1117809648
40
0.1698215694
40
0.2290396480
40
0.2892206241
40
0.3501371848
40
0.4115499431
40
0.4732136511
40
0.5348791931
40
0.5962985873
40
0.6572259548
40
0.7174225751
40
0.7766589788
40
0.8347212886
40
0.8914120326
40
0.9465538417
40
1.0000000000
40
1.0000000000
40
1.0000000000
40
1.0000000000
10
-18.6116965835
20
16.5319719520
30
0.0000000000
10
-18.6109531361
20
16.5557215531
30
0.0000000000
10
-18.6079241264
20
16.6038511504
30
0.0000000000
10
-18.5990496184
20
16.6765606905
30
0.0000000000
10
-18.5858338286
20
16.7504050723
30
0.0000000000
10
-18.5683607287
20
16.8249143372
30
0.0000000000
10
-18.5467411954
20
16.8996179322
30
0.0000000000
10
-18.5211121917
20
16.9740427121
30
0.0000000000
10
-18.4916360070
20
17.0477174663
30
0.0000000000
10
-18.4584995611
20
17.1201748964
30
0.0000000000
10
-18.4219127215
20
17.1909559824
30
0.0000000000
10
-18.3821072745
20
17.2596120718
30
0.0000000000
10
-18.3393352277
20
17.3257081579
30
0.0000000000
10
-18.2938676962
20
17.3888249218
30
0.0000000000
10
-18.2459922985
20
17.4485626238
30
0.0000000000
10
-18.1960119952
20
17.5045427225
30
0.0000000000
10
-18.1442416384
20
17.5564112294
30
0.0000000000
10
-18.0910106829
20
17.6038376887
30
0.0000000000
10
-18.0541618125
20
17.6327729742
30
0.0000000000
10
-18.0355702680
20
17.6463836388
30
0.0000000000
11
-18.6116965835
21
16.5319719520
31
0.0000000000
11
-18.6072823134
21
16.6031188467
31
0.0000000000
11
-18.5984573101
21
16.6758715371
31
0.0000000000
11
-18.5852772700
21
16.7497710612
31
0.0000000000
11
-18.5678262964
21
16.8243449513
31
0.0000000000
11
-18.5462154845
21
16.8991184991
31
0.0000000000
11
-18.5205819174
21
16.9736170293
31
0.0000000000
11
-18.4910889731
21
17.0473653123
31
0.0000000000
11
-18.4579242769
21
17.1198939895
31
0.0000000000
11
-18.4212991103
21
17.1907408781
31
0.0000000000
11
-18.3814460826
21
17.2594558154
31
0.0000000000
11
-18.3386190629
21
17.3256008051
31
0.0000000000
11
-18.2930905822
21
17.3887547291
31
0.0000000000
11
-18.2451511225
21
17.4485145878
31
0.0000000000
11
-18.1951050726
21
17.5045008475
31
0.0000000000
11
-18.1432711047
21
17.5563567942
31
0.0000000000
11
-18.0899807603
21
17.6037507900
31
0.0000000000
11
-18.0355702680
21
17.6463836388
31
0.0000000000
0
SPLINE
5
43B
100
AcDbEntity
8
0
100
AcDbSpline
62
3
6
CONTINUOUS
70
0
71
3
72
10
73
6
74
4
42
0.0000001000
43
0.0000001000
44
0.0000000001
12
0.0616125570
22
0.0308062785
32
0.0000000000
13
0.0685289761
23
0.0069938116
33
0.0000000000
40
0.0000000000
40
0.0000000000
40
0.0000000000
40
0.0000000000
40
0.3511381091
40
0.6840818606
40
1.0000000000
40
1.0000000000
40
1.0000000000
40
1.0000000000
10
1.5003504888
20
20.7173601112
30
0.0000000000
10
1.5075619943
20
20.7209658640
30
0.0000000000
10
1.5219769902
20
20.7272969505
30
0.0000000000
10
1.5439586069
20
20.7341019471
30
0.0000000000
10
1.5586863769
20
20.7366839323
30
0.0000000000
10
1.5659028924
20
20.7374204229
30
0.0000000000
11
1.5003504888
21
20.7173601112
31
0.0000000000
11
1.5225243243
21
20.7270237756
31
0.0000000000
11
1.5444552187
21
20.7337350563
31
0.0000000000
11
1.5659028924
21
20.7374204229
31
0.0000000000
0
SPLINE
5
43C
100
AcDbEntity
8
0
100
AcDbSpline
62
3
6
CONTINUOUS
70
0
71
3
72
12
73
8
74
6
42
0.0000001000
43
0.0000001000
44
0.0000000001
12
0.0000000000
22
0.4409628938
32
0.0000000000
13
0.3944092024
23
0.1972046012
33
0.0000000000
40
0.0000000000
40
0.0000000000
40
0.0000000000
40
0.0000000000
40
0.1952646443
40
0.4051116665
40
0.6172925625
40
0.8190521716
40
1.0000000000
40
1.0000000000
40
1.0000000000
40
1.0000000000
10
0.9246503218
20
20.1697024066
30
0.0000000000
10
0.9246503218
20
20.1984038941
30
0.0000000000
10
0.9325747405
20
20.2580487490
30
0.0000000000
10
0.9626422189
20
20.3441901448
30
0.0000000000
10
1.0087810494
20
20.4240989491
30
0.0000000000
10
1.0666884588
20
20.4903466372
30
0.0000000000
10
1.1129931933
20
20.5236814634
30
0.0000000000
10
1.1367823562
20
20.5355760449
30
0.0000000000
11
0.9246503218
21
20.1697024066
31
0.0000000000
11
0.9350328026
21
20.2551786171
31
0.0000000000
11
0.9651639353
21
20.3426703014
31
0.0000000000
11
1.0120942748
21
20.4236131638
31
0.0000000000
11
1.0712299525
21
20.4900839530
31
0.0000000000
11
1.1367823562
21
20.5355760449
31
0.0000000000
0
SPLINE
5
43D
100
AcDbEntity
8
0
100
AcDbSpline
62
3
6
CONTINUOUS
70
0
71
3
72
15
73
11
74
9
42
0.0000001000
43
0.0000001000
44
0.0000000001
12
-0.2545132660
22
0.1272566330
32
0.0000000000
13
-0.2830840723
23
-0.0288905041
33
0.0000000000
40
0.0000000000
40
0.0000000000
40
0.0000000000
40
0.0000000000
40
0.1162145312
40
0.2441045088
40
0.3793057719
40
0.5170866920
40
0.6525903432
40
0.7810703032
40
0.8981319954
40
1.0000000000
40
1.0000000000
40
1.0000000000
40
1.0000000000
10
0.7230398285
20
22.6097040861
30
0.0000000000
10
0.7131804485
20
22.6146337761
30
0.0000000000
10
0.6919840707
20
22.6240227658
30
0.0000000000
10
0.6581402550
20
22.6362921420
30
0.0000000000
10
0.6216591772
20
22.6470885037
30
0.0000000000
10
0.5839307598
20
22.6559942730
30
0.0000000000
10
0.5463913780
20
22.6626699396
30
0.0000000000
10
0.5104673643
20
22.6668688265
30
0.0000000000
10
0.4775271557
20
22.6684437833
30
0.0000000000
10
0.4567311730
20
22.6676692325
30
0.0000000000
10
0.4471187698
20
22.6666882265
30
0.0000000000
11
0.7230398285
21
22.6097040861
31
0.0000000000
11
0.6928655165
21
22.6232353035
31
0.0000000000
11
0.6586820382
21
22.6357190206
31
0.0000000000
11
0.6218030456
21
22.6466754953
31
0.0000000000
11
0.5836457777
21
22.6556836763
31
0.0000000000
11
0.5456765968
21
22.6623973843
31
0.0000000000
11
0.5093546374
21
22.6665586152
31
0.0000000000
11
0.4760757318
21
22.6680074553
31
0.0000000000
11
0.4471187698
21
22.6666882265
31
0.0000000000
0
SPLINE
5
43E
100
AcDbEntity
8
0
100
AcDbSpline
62
3
6
CONTINUOUS
70
0
71
3
72
15
73
11
74
9
42
0.0000001000
43
0.0000001000
44
0.0000000001
12
-0.2545132660
22
0.1272566330
32
0.0000000000
13
-0.2830840723
23
-0.0288905041
33
0.0000000000
40
0.0000000000
40
0.0000000000
40
0.0000000000
40
0.0000000000
40
0.1162145312
40
0.2441045088
40
0.3793057719
40
0.5170866920
40
0.6525903432
40
0.7810703032
40
0.8981319954
40
1.0000000000
40
1.0000000000
40
1.0000000000
40
1.0000000000
10
-3.3074688243
20
24.6249584125
30
0.0000000000
10
-3.3173282042
20
24.6298881025
30
0.0000000000
10
-3.3385245821
20
24.6392770922
30
0.0000000000
10
-3.3723683978
20
24.6515464684
30
0.0000000000
10
-3.4088494755
20
24.6623428301
30
0.0000000000
10
-3.4465778930
20
24.6712485994
30
0.0000000000
10
-3.4841172748
20
24.6779242660
30
0.0000000000
10
-3.5200412885
20
24.6821231528
30
0.0000000000
10
-3.5529814970
20
24.6836981097
30
0.0000000000
10
-3.5737774797
20
24.6829235589
30
0.0000000000
10
-3.5833898829
20
24.6819425529
30
0.0000000000
11
-3.3074688243
21
24.6249584125
31
0.0000000000
11
-3.3376431363
21
24.6384896299
31
0.0000000000
11
-3.3718266145
21
24.6509733470
31
0.0000000000
11
-3.4087056071
21
24.6619298217
31
0.0000000000
11
-3.4468628750
21
24.6709380027
31
0.0000000000
11
-3.4848320559
21
24.6776517106
31
0.0000000000
11
-3.5211540154
21
24.6818129416
31
0.0000000000
11
-3.5544329210
21
24.6832617817
31
0.0000000000
11
-3.5833898829
21
24.6819425529
31
0.0000000000
0
SPLINE
5
43F
100
AcDbEntity
8
0
100
AcDbSpline
62
3
6
CONTINUOUS
70
0
71
3
72
14
73
10
74
8
42
0.0000001000
43
0.0000001000
44
0.0000000001
12
0.6150856016
22
0.2076721131
32
0.0000000000
13
0.5797085112
23
-0.2898542556
33
0.0000000000
40
0.0000000000
40
0.0000000000
40
0.0000000000
40
0.0000000000
40
0.0226478444
40
0.1827376881
40
0.3522486903
40
0.5249977011
40
0.6945087034
40
0.8545985471
40
1.0000000000
40
1.0000000000
40
1.0000000000
40
1.0000000000
10
-0.8049129292
20
22.4545881858
30
0.0000000000
10
-0.8002694749
20
22.4561559610
30
0.0000000000
10
-0.7626664268
20
22.4683948408
30
0.0000000000
10
-0.6884142264
20
22.4858866749
30
0.0000000000
10
-0.5803116764
20
22.4979885300
30
0.0000000000
10
-0.4695254829
20
22.4979885300
30
0.0000000000
10
-0.3614229329
20
22.4858866749
30
0.0000000000
10
-0.2612949073
20
22.4622991879
30
0.0000000000
10
-0.1994620090
20
22.4382850926
30
0.0000000000
10
-0.1713651890
20
22.4242366827
30
0.0000000000
11
-0.8049129292
21
22.4545881858
31
0.0000000000
11
-0.7909346179
21
22.4591410372
31
0.0000000000
11
-0.6900581106
21
22.4834308200
31
0.0000000000
11
-0.5809008177
21
22.4958880399
31
0.0000000000
11
-0.4689363416
21
22.4958880399
31
0.0000000000
11
-0.3597790487
21
22.4834308200
31
0.0000000000
11
-0.2589025414
21
22.4591410372
31
0.0000000000
11
-0.1713651890
21
22.4242366827
31
0.0000000000
0
ENDSEC
0
SECTION
2
OBJECTS
0
DICTIONARY
5
C
100
AcDbDictionary
280
0
281
1
3
ACAD_GROUP
350
D
3
ACAD_MLINESTYLE
350
17
3
ACAD_LAYOUT
350
1A
3
ACAD_PLOTSETTINGS
350
19
3
ACAD_PLOTSTYLENAME
350
E
0
DICTIONARY
5
D
102
{ACAD_REACTORS
330
C
102
}
100
AcDbDictionary
280
0
281
1
0
ACDBDICTIONARYWDFLT
5
E
102
{ACAD_REACTORS
330
C
102
}
100
AcDbDictionary
281
1
3
Normal
350
F
100
AcDbDictionaryWithDefault
340
F
0
DICTIONARY
5
17
102
{ACAD_REACTORS
330
C
102
}
100
AcDbDictionary
280
0
281
1
3
Standard
350
18
0
DICTIONARY
5
19
102
{ACAD_REACTORS
330
C
102
}
100
AcDbDictionary
281
1
0
DICTIONARY
5
1A
102
{ACAD_REACTORS
330
C
102
}
100
AcDbDictionary
281
1
3
Layout1
350
1E
3
Model
350
22
0
ACDBPLACEHOLDER
5
F
102
{ACAD_REACTORS
330
E
102
}
0
MLINESTYLE
5
18
102
{ACAD_REACTORS
330
17
102
}
100
AcDbMlineStyle
2
STANDARD
70
0
3

62
256
51
90.0
52
90.0
71
2
49
0.5
62
256
6
BYLAYER
49
-0.5
62
256
6
BYLAYER
0
LAYOUT
5
1E
102
{ACAD_REACTORS
330
1A
102
}
100
AcDbPlotSettings
1

2

4

6

40
0.0
41
0.0
42
0.0
43
0.0
44
0.0
45
0.0
46
0.0
47
0.0
48
0.0
49
0.0
140
0.0
141
0.0
142
1.0
143
1.0
70
0
72
0
73
0
74
0
7

75
0
147
1.0
148
0.0
149
0.0
100
AcDbLayout
1
Layout1
70
0
71
0
10
0.0
20
0.0
11
0.0
21
0.0
12
0.0
22
0.0
32
0.0
14
0.0
24
0.0
34
0.0
15
0.0
25
0.0
35
0.0
146
0.0
13
0.0
23
0.0
33
0.0
16
0.0
26
0.0
36
0.0
17
0.0
27
0.0
37
0.0
76
0
330
1B
331
0
345
0
346
0
0
LAYOUT
5
22
102
{ACAD_REACTORS
330
1A
102
}
100
AcDbPlotSettings
1

2

4

6

40
0.0
41
0.0
42
0.0
43
0.0
44
0.0
45
0.0
46
0.0
47
0.0
48
0.0
49
0.0
140
0.0
141
0.0
142
1.0
143
1.0
70
0
72
0
73
0
74
0
7

75
0
147
1.0
148
0.0
149
0.0
100
AcDbLayout
1
Model
70
0
71
0
10
0.0
20
0.0
11
0.0
21
0.0
12
0.0
22
0.0
32
0.0
14
0.0
24
0.0
34
0.0
15
0.0
25
0.0
35
0.0
146
0.0
13
0.0
23
0.0
33
0.0
16
0.0
26
0.0
36
0.0
17
0.0
27
0.0
37
0.0
76
0
330
1F
331
0
345
0
346
0
0
ENDSEC
0
EOF
